999
DXF file: 277-02_front.dxf
999
Pro/ENGINEER 2013150 by Parametric Technology Corporation
  0
SECTION
  2
HEADER
  9
$ACADVER
  1
AC1021
  9
$DWGCODEPAGE
  3
ANSI_1252
  9
$EXTMAX
 10
11.0
 20
8.5
 30
0.0
  9
$EXTMIN
 10
0.0
 20
0.0
 30
0.0
  9
$LIMMIN
 10
0.0
 20
0.0
  9
$LIMMAX
 10
11.0
 20
8.5
  9
$VIEWCTR
 10
5.5
 20
4.25
  9
$VIEWSIZE
 40
8.5
  9
$CLAYER
  8
0
  9
$LTSCALE
 40
0.605
  9
$CELTYPE
  6
BYLAYER
  9
$DIMSCALE
 40
1.0
  9
$DIMASZ
 40
0.1
  9
$DIMEXO
 40
0.0625
  9
$DIMDLI
 40
0.418
  9
$DIMEXE
 40
0.125
  9
$DIMCEN
 40
0.099
  9
$DIMLFAC
 40
1.0
  9
$DIMBLK
  1
_FILLED
  9
$DIMTXT
 40
0.08
  9
$DIMTOL
 70
1
  9
$DIMLIM
 70
0
  9
$DIMTFAC
 40
1.0
  9
$DIMTP
 40
0.001
  9
$DIMTM
 40
0.001
  9
$DIMGAP
 40
0.09
  9
$DIMDSEP
 70
46
  9
$PDMODE
 70
3
  9
$PDSIZE
 40
0.06
  9
$HANDSEED
  5
390
  9
$TILEMODE
 70
1
  9
$MEASUREMENT
 70
0
  9
$INSUNITS
 70
1
  0
ENDSEC
  0
SECTION
  2
CLASSES
  0
CLASS
  1
ACDBDICTIONARYWDFLT
  2
AcDbDictionaryWithDefault
  3
AutoCAD 2000
 90
0
 91
1
280
0
281
0
  0
CLASS
  1
ACDBPLACEHOLDER
  2
AcDbPlaceHolder
  3
AutoCAD 2000
 90
0
 91
1
280
0
281
0
  0
CLASS
  1
LAYOUT
  2
AcDbLayout
  3
AutoCAD 2000
 90
0
 91
0
280
0
281
0
  0
ENDSEC
  0
SECTION
  2
TABLES
  0
TABLE
  2
VPORT
  5
8
100
AcDbSymbolTable
 70
2
  0
VPORT
  5
1F4
100
AcDbSymbolTableRecord
100
AcDbViewportTableRecord
  2
*ACTIVE
 70
0
 10
0.0
 20
0.0
 11
1.0
 21
1.0
 12
5.5
 22
4.25
 13
0.0
 23
0.0
 14
1.0
 24
1.0
 15
0.0
 25
0.0
 16
0.0
 26
0.0
 36
1.0
 17
0.0
 27
0.0
 37
0.0
 40
8.5
 41
1.2941176471
 42
50.0
 43
0.0
 44
0.0
 50
0.0
 51
0.0
 71
0
 72
100
 73
1
 74
1
 75
0
 76
0
 77
0
 78
0
  0
ENDTAB
  0
TABLE
  2
LTYPE
  5
5
100
AcDbSymbolTable
 70
6
  0
LTYPE
  5
14
100
AcDbSymbolTableRecord
100
AcDbLinetypeTableRecord
  2
BYBLOCK
 70
0
  3

 72
65
 73
0
 40
0.0
  0
LTYPE
  5
15
100
AcDbSymbolTableRecord
100
AcDbLinetypeTableRecord
  2
BYLAYER
 70
0
  3

 72
65
 73
0
 40
0.0
  0
LTYPE
  5
16
100
AcDbSymbolTableRecord
100
AcDbLinetypeTableRecord
  2
CONTINUOUS
 70
64
  3
Solid line
 72
65
 73
0
 40
0.0
  0
LTYPE
  5
1F5
100
AcDbSymbolTableRecord
100
AcDbLinetypeTableRecord
  2
CENTER
 70
64
  3
____ _ ____ _ ____ _ ____ _ ____ _ ____ _ ____
 72
65
 73
4
 40
0.6
 49
0.375
 74
0
 49
-0.075
 74
0
 49
0.075
 74
0
 49
-0.075
 74
0
  0
LTYPE
  5
1F6
100
AcDbSymbolTableRecord
100
AcDbLinetypeTableRecord
  2
HIDDEN
 70
64
  3
- - - - - - - - - - - - - - - - - - - -
 72
65
 73
2
 40
0.2
 49
0.1
 74
0
 49
-0.1
 74
0
  0
LTYPE
  5
1F7
100
AcDbSymbolTableRecord
100
AcDbLinetypeTableRecord
  2
PHANTOM
 70
64
  3
_____ _ _ _____ _ _ _____ _ _ _____
 72
65
 73
6
 40
0.8
 49
0.45
 74
0
 49
-0.05
 74
0
 49
0.1
 74
0
 49
-0.05
 74
0
 49
0.1
 74
0
 49
-0.05
 74
0
  0
LTYPE
  5
1F8
100
AcDbSymbolTableRecord
100
AcDbLinetypeTableRecord
  2
DOT
 70
64
  3
. . . . . . . . . . . . . . . . . . . .
 72
65
 73
2
 40
0.2
 49
0.1
 74
0
 49
-0.1
 74
0
  0
LTYPE
  5
1F9
100
AcDbSymbolTableRecord
100
AcDbLinetypeTableRecord
  2
DASHED
 70
64
  3
- - - - - - - - - - - - - - - - - - - -
 72
65
 73
2
 40
0.2
 49
0.1
 74
0
 49
-0.1
 74
0
  0
ENDTAB
  0
TABLE
  2
LAYER
  5
2
100
AcDbSymbolTable
 70
36
  0
LAYER
  5
10
100
AcDbSymbolTableRecord
100
AcDbLayerTableRecord
  2
0
 70
0
 62
7
  6
CONTINUOUS
370
-3
390
F
  0
LAYER
  5
1FA
100
AcDbSymbolTableRecord
100
AcDbLayerTableRecord
  2
DEFAULT_1
 70
0
 62
7
  6
CENTER
370
-3
390
F
  0
LAYER
  5
1FB
100
AcDbSymbolTableRecord
100
AcDbLayerTableRecord
  2
DEFAULT_2
 70
0
 62
8
  6
HIDDEN
370
-3
390
F
  0
LAYER
  5
1FC
100
AcDbSymbolTableRecord
100
AcDbLayerTableRecord
  2
DEFAULT_3
 70
0
 62
7
  6
PHANTOM
370
-3
390
F
  0
LAYER
  5
1FD
100
AcDbSymbolTableRecord
100
AcDbLayerTableRecord
  2
ALL_FEATURES
 70
0
 62
7
  6
CONTINUOUS
370
-3
390
F
  0
LAYER
  5
1FE
100
AcDbSymbolTableRecord
100
AcDbLayerTableRecord
  2
AXES_FEATURES
 70
0
 62
7
  6
CONTINUOUS
370
-3
390
F
  0
LAYER
  5
1FF
100
AcDbSymbolTableRecord
100
AcDbLayerTableRecord
  2
DEFAULT_COORDINATE_SYSTEM
 70
0
 62
7
  6
CONTINUOUS
370
-3
390
F
  0
LAYER
  5
200
100
AcDbSymbolTableRecord
100
AcDbLayerTableRecord
  2
DEFAULT_DATUM_AXES
 70
0
 62
7
  6
CONTINUOUS
370
-3
390
F
  0
LAYER
  5
201
100
AcDbSymbolTableRecord
100
AcDbLayerTableRecord
  2
DEFAULT_DATUM_CURVES
 70
0
 62
7
  6
CONTINUOUS
370
-3
390
F
  0
LAYER
  5
202
100
AcDbSymbolTableRecord
100
AcDbLayerTableRecord
  2
DEFAULT_DATUM_PLANES
 70
0
 62
7
  6
CONTINUOUS
370
-3
390
F
  0
LAYER
  5
203
100
AcDbSymbolTableRecord
100
AcDbLayerTableRecord
  2
DEFAULT_SURFACES
 70
0
 62
7
  6
CONTINUOUS
370
-3
390
F
  0
LAYER
  5
204
100
AcDbSymbolTableRecord
100
AcDbLayerTableRecord
  2
DIMENSIONS
 70
0
 62
7
  6
CONTINUOUS
370
-3
390
F
  0
ENDTAB
  0
TABLE
  2
STYLE
  5
3
100
AcDbSymbolTable
 70
1
  0
STYLE
  5
11
100
AcDbSymbolTableRecord
100
AcDbTextStyleTableRecord
  2
STANDARD
 70
0
 40
0.0
 41
0.8
 50
0.0
 71
0
 42
0.2
  3
txt
  4

  0
STYLE
  5
205
100
AcDbSymbolTableRecord
100
AcDbTextStyleTableRecord
  2
TEXTSTYLE_1
 70
0
 40
0.0
 41
0.8
 50
0.0
 71
0
 42
0.2
  3
gdt
  4

  0
ENDTAB
  0
TABLE
  2
VIEW
  5
6
100
AcDbSymbolTable
 70
0
  0
ENDTAB
  0
TABLE
  2
UCS
  5
7
100
AcDbSymbolTable
 70
0
  0
ENDTAB
  0
TABLE
  2
APPID
  5
9
100
AcDbSymbolTable
 70
1
  0
APPID
  5
206
100
AcDbSymbolTableRecord
100
AcDbRegAppTableRecord
  2
ACAD
 70
0
  0
ENDTAB
  0
TABLE
  2
BLOCK_RECORD
  5
1
100
AcDbSymbolTable
 70
0
  0
BLOCK_RECORD
  5
207
100
AcDbSymbolTableRecord
100
AcDbBlockTableRecord
  2
*Model_Space
  0
BLOCK_RECORD
  5
208
100
AcDbSymbolTableRecord
100
AcDbBlockTableRecord
  2
*Paper_Space
  0
ENDTAB
  0
TABLE
  2
DIMSTYLE
  5
A
100
AcDbSymbolTable
 70
1
100
AcDbDimStyleTable
 71
0
  0
DIMSTYLE
105
209
100
AcDbSymbolTableRecord
100
AcDbDimStyleTableRecord
  2
STANDARD
 70
0
  3

  4

 40
1.0
 41
0.1
 42
0.0625
 43
0.38
 44
0.125
 45
0.0
 46
0.0
 47
0.001
 48
0.001
140
0.08
141
0.09
142
0.0
143
25.4
144
1.0
145
0.0
146
1.0
147
0.09
 71
1.0
 72
0.0
 73
1
 74
1
 75
0
 76
0
 77
0
 78
4
170
0
171
2
172
0
173
0
174
0
175
0
176
0
177
0
178
0
270
2
271
3
272
3
273
2
274
2
275
0
280
0
281
0
282
0
283
1
284
4
285
0
286
0
287
3
288
0
340
11
278
46
  0
ENDTAB
  0
ENDSEC
  0
SECTION
  2
BLOCKS
  0
BLOCK
  5
20
100
AcDbEntity
  8
0
100
AcDbBlockBegin
  2
*Model_Space
 70
0
 10
0.0
 20
0.0
 30
0.0
  3
*Model_Space
  1

  0
ENDBLK
  5
21
100
AcDbEntity
  8
0
100
AcDbBlockEnd
  0
BLOCK
  5
1C
100
AcDbEntity
  8
0
100
AcDbBlockBegin
  2
*Paper_Space
 70
0
 10
0.0
 20
0.0
 30
0.0
  3
*Paper_Space
  1

  0
ENDBLK
  5
1D
100
AcDbEntity
  8
0
100
AcDbBlockEnd
  0
ENDSEC
  0
SECTION
  2
ENTITIES
  0
LINE
  5
20A
100
AcDbEntity
  8
0
100
AcDbLine
 62
7
  6
CONTINUOUS
 10
0.0
 20
0.0
 11
0.0
 21
8.5
  0
LINE
  5
20B
100
AcDbEntity
  8
0
100
AcDbLine
 62
7
  6
CONTINUOUS
 10
0.0
 20
0.0
 11
11.0
 21
0.0
  0
LINE
  5
20C
100
AcDbEntity
  8
0
100
AcDbLine
 62
7
  6
CONTINUOUS
 10
0.0
 20
8.5
 11
11.0
 21
8.5
  0
LINE
  5
20D
100
AcDbEntity
  8
0
100
AcDbLine
 62
7
  6
CONTINUOUS
 10
11.0
 20
0.0
 11
11.0
 21
8.5
  0
LINE
  5
20E
100
AcDbEntity
  8
0
100
AcDbLine
 62
7
  6
CONTINUOUS
 10
2.358795388
 20
5.2876547024
 11
2.358795388
 21
5.4076547024
  0
LINE
  5
20F
100
AcDbEntity
  8
0
100
AcDbLine
 62
7
  6
CONTINUOUS
 10
2.373795388
 20
4.8634051245
 11
2.373795388
 21
5.2314047024
  0
LINE
  5
210
100
AcDbEntity
  8
0
100
AcDbLine
 62
7
  6
CONTINUOUS
 10
2.384670388
 20
5.4245297024
 11
2.384670388
 21
5.4076547024
  0
LINE
  5
211
100
AcDbEntity
  8
0
100
AcDbLine
 62
7
  6
CONTINUOUS
 10
2.429295388
 20
5.2614047024
 11
2.429295388
 21
5.4076547024
  0
LINE
  5
212
100
AcDbEntity
  8
0
100
AcDbLine
 62
7
  6
CONTINUOUS
 10
2.429670388
 20
5.4245297024
 11
2.429670388
 21
5.4076547024
  0
LINE
  5
213
100
AcDbEntity
  8
0
100
AcDbLine
 62
7
  6
CONTINUOUS
 10
2.403795388
 20
5.2614047024
 11
2.373795388
 21
5.2314047024
  0
LINE
  5
214
100
AcDbEntity
  8
0
100
AcDbLine
 62
7
  6
CONTINUOUS
 10
2.962545388
 20
4.721754763
 11
2.962545388
 21
4.7015917766
  0
LINE
  5
215
100
AcDbEntity
  8
DEFAULT_SURFACES
100
AcDbLine
 62
7
  6
CONTINUOUS
 10
2.962545388
 20
4.721754763
 11
2.962545388
 21
4.7015917766
  0
LINE
  5
216
100
AcDbEntity
  8
DEFAULT_SURFACES
100
AcDbLine
 62
7
  6
CONTINUOUS
 10
2.962545388
 20
4.6234676281
 11
2.962545388
 21
4.6078417766
  0
LINE
  5
217
100
AcDbEntity
  8
DEFAULT_SURFACES
100
AcDbLine
 62
7
  6
CONTINUOUS
 10
2.962545388
 20
4.5297176281
 11
2.962545388
 21
4.5140917766
  0
LINE
  5
218
100
AcDbEntity
  8
DEFAULT_SURFACES
100
AcDbLine
 62
7
  6
CONTINUOUS
 10
2.962545388
 20
4.4359676281
 11
2.962545388
 21
4.4203417766
  0
LINE
  5
219
100
AcDbEntity
  8
DEFAULT_SURFACES
100
AcDbLine
 62
7
  6
CONTINUOUS
 10
2.962545388
 20
4.3422176281
 11
2.962545388
 21
4.3265917766
  0
LINE
  5
21A
100
AcDbEntity
  8
DEFAULT_SURFACES
100
AcDbLine
 62
7
  6
CONTINUOUS
 10
2.962545388
 20
4.2484676281
 11
2.962545388
 21
4.2328417766
  0
LINE
  5
21B
100
AcDbEntity
  8
DEFAULT_SURFACES
100
AcDbLine
 62
7
  6
CONTINUOUS
 10
2.962545388
 20
4.1547176281
 11
2.962545388
 21
4.1390917766
  0
LINE
  5
21C
100
AcDbEntity
  8
DEFAULT_SURFACES
100
AcDbLine
 62
7
  6
CONTINUOUS
 10
2.962545388
 20
4.0609676281
 11
2.962545388
 21
4.0453417766
  0
LINE
  5
21D
100
AcDbEntity
  8
DEFAULT_SURFACES
100
AcDbLine
 62
7
  6
CONTINUOUS
 10
2.962545388
 20
3.9672176281
 11
2.962545388
 21
3.9515917766
  0
LINE
  5
21E
100
AcDbEntity
  8
DEFAULT_SURFACES
100
AcDbLine
 62
7
  6
CONTINUOUS
 10
2.962545388
 20
3.8734676281
 11
2.962545388
 21
3.8578417766
  0
LINE
  5
21F
100
AcDbEntity
  8
DEFAULT_SURFACES
100
AcDbLine
 62
7
  6
CONTINUOUS
 10
2.962545388
 20
3.7797176281
 11
2.962545388
 21
3.7640917766
  0
LINE
  5
220
100
AcDbEntity
  8
DEFAULT_SURFACES
100
AcDbLine
 62
7
  6
CONTINUOUS
 10
2.962545388
 20
3.6859676281
 11
2.962545388
 21
3.6703417766
  0
LINE
  5
221
100
AcDbEntity
  8
DEFAULT_SURFACES
100
AcDbLine
 62
7
  6
CONTINUOUS
 10
2.962545388
 20
3.5922176281
 11
2.962545388
 21
3.5765917766
  0
LINE
  5
222
100
AcDbEntity
  8
0
100
AcDbLine
 62
7
  6
CONTINUOUS
 10
2.962545388
 20
3.4984676281
 11
2.962545388
 21
3.4828417766
  0
LINE
  5
223
100
AcDbEntity
  8
DEFAULT_SURFACES
100
AcDbLine
 62
7
  6
CONTINUOUS
 10
2.962545388
 20
3.4984676281
 11
2.962545388
 21
3.4828417766
  0
LINE
  5
224
100
AcDbEntity
  8
0
100
AcDbLine
 62
7
  6
CONTINUOUS
 10
2.962545388
 20
3.4047176281
 11
2.962545388
 21
3.3890917766
  0
LINE
  5
225
100
AcDbEntity
  8
DEFAULT_SURFACES
100
AcDbLine
 62
7
  6
CONTINUOUS
 10
2.962545388
 20
3.4047176281
 11
2.962545388
 21
3.3890917766
  0
LINE
  5
226
100
AcDbEntity
  8
DEFAULT_SURFACES
100
AcDbLine
 62
7
  6
CONTINUOUS
 10
2.962545388
 20
3.3109676281
 11
2.962545388
 21
3.2953417766
  0
LINE
  5
227
100
AcDbEntity
  8
0
100
AcDbLine
 62
7
  6
CONTINUOUS
 10
3.020070388
 20
4.6683797024
 11
3.020070388
 21
4.6566797024
  0
LINE
  5
228
100
AcDbEntity
  8
0
100
AcDbLine
 62
7
  6
CONTINUOUS
 10
3.020070388
 20
4.5746297024
 11
3.020070388
 21
4.5629297024
  0
LINE
  5
229
100
AcDbEntity
  8
0
100
AcDbLine
 62
7
  6
CONTINUOUS
 10
3.020070388
 20
4.4808797024
 11
3.020070388
 21
4.4691797024
  0
LINE
  5
22A
100
AcDbEntity
  8
0
100
AcDbLine
 62
7
  6
CONTINUOUS
 10
3.020070388
 20
4.3871297024
 11
3.020070388
 21
4.3754297024
  0
LINE
  5
22B
100
AcDbEntity
  8
0
100
AcDbLine
 62
7
  6
CONTINUOUS
 10
3.020070388
 20
4.2933797024
 11
3.020070388
 21
4.2816797024
  0
LINE
  5
22C
100
AcDbEntity
  8
0
100
AcDbLine
 62
7
  6
CONTINUOUS
 10
3.020070388
 20
4.1996297024
 11
3.020070388
 21
4.1879297024
  0
LINE
  5
22D
100
AcDbEntity
  8
0
100
AcDbLine
 62
7
  6
CONTINUOUS
 10
3.020070388
 20
4.1058797024
 11
3.020070388
 21
4.0941797024
  0
LINE
  5
22E
100
AcDbEntity
  8
0
100
AcDbLine
 62
7
  6
CONTINUOUS
 10
3.020070388
 20
4.0121297024
 11
3.020070388
 21
4.0004297024
  0
LINE
  5
22F
100
AcDbEntity
  8
0
100
AcDbLine
 62
7
  6
CONTINUOUS
 10
3.020070388
 20
3.9183797024
 11
3.020070388
 21
3.9066797024
  0
LINE
  5
230
100
AcDbEntity
  8
0
100
AcDbLine
 62
7
  6
CONTINUOUS
 10
3.020070388
 20
3.8246297024
 11
3.020070388
 21
3.8129297024
  0
LINE
  5
231
100
AcDbEntity
  8
0
100
AcDbLine
 62
7
  6
CONTINUOUS
 10
3.020070388
 20
3.7308797024
 11
3.020070388
 21
3.7191797024
  0
LINE
  5
232
100
AcDbEntity
  8
0
100
AcDbLine
 62
7
  6
CONTINUOUS
 10
3.020070388
 20
3.6371297024
 11
3.020070388
 21
3.6254297024
  0
LINE
  5
233
100
AcDbEntity
  8
0
100
AcDbLine
 62
7
  6
CONTINUOUS
 10
3.020070388
 20
3.5433797024
 11
3.020070388
 21
3.5316797024
  0
LINE
  5
234
100
AcDbEntity
  8
0
100
AcDbLine
 62
7
  6
CONTINUOUS
 10
3.020070388
 20
3.4496297024
 11
3.020070388
 21
3.4379297024
  0
LINE
  5
235
100
AcDbEntity
  8
0
100
AcDbLine
 62
7
  6
CONTINUOUS
 10
3.020070388
 20
3.3558797024
 11
3.020070388
 21
3.3441797024
  0
LINE
  5
236
100
AcDbEntity
  8
0
100
AcDbLine
 62
7
  6
CONTINUOUS
 10
3.020070388
 20
3.2621297024
 11
3.020070388
 21
3.2504297024
  0
LINE
  5
237
100
AcDbEntity
  8
0
100
AcDbLine
 62
7
  6
CONTINUOUS
 10
2.962748202
 20
3.2951075631
 11
3.0202805427
 21
3.2618870098
  0
LINE
  5
238
100
AcDbEntity
  8
0
100
AcDbLine
 62
7
  6
CONTINUOUS
 10
2.962545388
 20
4.6234676281
 11
2.962748202
 21
4.6237018417
  0
LINE
  5
239
100
AcDbEntity
  8
0
100
AcDbLine
 62
7
  6
CONTINUOUS
 10
2.962748202
 20
3.3888575631
 11
3.0202805427
 21
3.3556370098
  0
LINE
  5
23A
100
AcDbEntity
  8
0
100
AcDbLine
 62
7
  6
CONTINUOUS
 10
2.962748202
 20
3.4826075631
 11
3.0202805427
 21
3.4493870098
  0
LINE
  5
23B
100
AcDbEntity
  8
0
100
AcDbLine
 62
7
  6
CONTINUOUS
 10
2.962545388
 20
4.5297176281
 11
2.962748202
 21
4.5299518417
  0
LINE
  5
23C
100
AcDbEntity
  8
0
100
AcDbLine
 62
7
  6
CONTINUOUS
 10
2.962545388
 20
4.4359676281
 11
2.962748202
 21
4.4362018417
  0
LINE
  5
23D
100
AcDbEntity
  8
0
100
AcDbLine
 62
7
  6
CONTINUOUS
 10
2.962748202
 20
4.3424518417
 11
2.962545388
 21
4.3422176281
  0
LINE
  5
23E
100
AcDbEntity
  8
0
100
AcDbLine
 62
7
  6
CONTINUOUS
 10
2.962545388
 20
4.2484676281
 11
2.962748202
 21
4.2487018417
  0
LINE
  5
23F
100
AcDbEntity
  8
0
100
AcDbLine
 62
7
  6
CONTINUOUS
 10
2.962748202
 20
3.5763575631
 11
3.0202805427
 21
3.5431370098
  0
LINE
  5
240
100
AcDbEntity
  8
0
100
AcDbLine
 62
7
  6
CONTINUOUS
 10
2.962748202
 20
3.6701075631
 11
3.0202805427
 21
3.6368870098
  0
LINE
  5
241
100
AcDbEntity
  8
0
100
AcDbLine
 62
7
  6
CONTINUOUS
 10
2.962748202
 20
3.7638575631
 11
3.0202805427
 21
3.7306370098
  0
LINE
  5
242
100
AcDbEntity
  8
0
100
AcDbLine
 62
7
  6
CONTINUOUS
 10
2.962545388
 20
4.1547176281
 11
2.962748202
 21
4.1549518417
  0
LINE
  5
243
100
AcDbEntity
  8
0
100
AcDbLine
 62
7
  6
CONTINUOUS
 10
2.962545388
 20
4.0609676281
 11
2.962748202
 21
4.0612018417
  0
LINE
  5
244
100
AcDbEntity
  8
0
100
AcDbLine
 62
7
  6
CONTINUOUS
 10
2.962748202
 20
3.9674518417
 11
2.962545388
 21
3.9672176281
  0
LINE
  5
245
100
AcDbEntity
  8
0
100
AcDbLine
 62
7
  6
CONTINUOUS
 10
2.962748202
 20
3.8576075631
 11
3.0202805427
 21
3.8243870098
  0
LINE
  5
246
100
AcDbEntity
  8
0
100
AcDbLine
 62
7
  6
CONTINUOUS
 10
2.962748202
 20
3.9513575631
 11
3.0202805427
 21
3.9181370098
  0
LINE
  5
247
100
AcDbEntity
  8
0
100
AcDbLine
 62
7
  6
CONTINUOUS
 10
2.962545388
 20
3.8734676281
 11
2.962748202
 21
3.8737018417
  0
LINE
  5
248
100
AcDbEntity
  8
0
100
AcDbLine
 62
7
  6
CONTINUOUS
 10
2.962545388
 20
3.7797176281
 11
2.962748202
 21
3.7799518417
  0
LINE
  5
249
100
AcDbEntity
  8
0
100
AcDbLine
 62
7
  6
CONTINUOUS
 10
2.962545388
 20
3.6859676281
 11
2.962748202
 21
3.6862018417
  0
LINE
  5
24A
100
AcDbEntity
  8
0
100
AcDbLine
 62
7
  6
CONTINUOUS
 10
3.0202805427
 20
4.6569223949
 11
2.962748202
 21
4.6237018417
  0
LINE
  5
24B
100
AcDbEntity
  8
0
100
AcDbLine
 62
7
  6
CONTINUOUS
 10
3.0202805427
 20
4.5631723949
 11
2.962748202
 21
4.5299518417
  0
LINE
  5
24C
100
AcDbEntity
  8
0
100
AcDbLine
 62
7
  6
CONTINUOUS
 10
3.0202805427
 20
4.4694223949
 11
2.962748202
 21
4.4362018417
  0
LINE
  5
24D
100
AcDbEntity
  8
0
100
AcDbLine
 62
7
  6
CONTINUOUS
 10
2.962748202
 20
4.0451075631
 11
3.0202805427
 21
4.0118870098
  0
LINE
  5
24E
100
AcDbEntity
  8
0
100
AcDbLine
 62
7
  6
CONTINUOUS
 10
2.962748202
 20
4.1388575631
 11
3.0202805427
 21
4.1056370098
  0
LINE
  5
24F
100
AcDbEntity
  8
0
100
AcDbLine
 62
7
  6
CONTINUOUS
 10
2.962545388
 20
3.5922176281
 11
2.962748202
 21
3.5924518417
  0
LINE
  5
250
100
AcDbEntity
  8
0
100
AcDbLine
 62
7
  6
CONTINUOUS
 10
2.962545388
 20
3.4984676281
 11
2.962748202
 21
3.4987018417
  0
LINE
  5
251
100
AcDbEntity
  8
0
100
AcDbLine
 62
7
  6
CONTINUOUS
 10
2.962545388
 20
3.4047176281
 11
2.962748202
 21
3.4049518417
  0
LINE
  5
252
100
AcDbEntity
  8
0
100
AcDbLine
 62
7
  6
CONTINUOUS
 10
3.0202805427
 20
4.3756723949
 11
2.962748202
 21
4.3424518417
  0
LINE
  5
253
100
AcDbEntity
  8
0
100
AcDbLine
 62
7
  6
CONTINUOUS
 10
3.0202805427
 20
4.2819223949
 11
2.962748202
 21
4.2487018417
  0
LINE
  5
254
100
AcDbEntity
  8
0
100
AcDbLine
 62
7
  6
CONTINUOUS
 10
6.2213609598
 20
3.2289047024
 11
2.9825783042
 21
3.2289047024
  0
LINE
  5
255
100
AcDbEntity
  8
0
100
AcDbLine
 62
7
  6
CONTINUOUS
 10
2.962748202
 20
4.2326075631
 11
3.0202805427
 21
4.1993870098
  0
LINE
  5
256
100
AcDbEntity
  8
0
100
AcDbLine
 62
7
  6
CONTINUOUS
 10
2.962748202
 20
4.3263575631
 11
3.0202805427
 21
4.2931370098
  0
LINE
  5
257
100
AcDbEntity
  8
0
100
AcDbLine
 62
7
  6
CONTINUOUS
 10
2.962748202
 20
4.4201075631
 11
3.0202805427
 21
4.3868870098
  0
LINE
  5
258
100
AcDbEntity
  8
0
100
AcDbLine
 62
7
  6
CONTINUOUS
 10
2.962545388
 20
3.3109676281
 11
2.962748202
 21
3.3112018417
  0
LINE
  5
259
100
AcDbEntity
  8
0
100
AcDbLine
 62
7
  6
CONTINUOUS
 10
3.0202805427
 20
4.1881723949
 11
2.962748202
 21
4.1549518417
  0
LINE
  5
25A
100
AcDbEntity
  8
0
100
AcDbLine
 62
7
  6
CONTINUOUS
 10
3.0202805427
 20
4.0944223949
 11
2.962748202
 21
4.0612018417
  0
LINE
  5
25B
100
AcDbEntity
  8
0
100
AcDbLine
 62
7
  6
CONTINUOUS
 10
2.962748202
 20
4.5138575631
 11
3.0202805427
 21
4.4806370098
  0
LINE
  5
25C
100
AcDbEntity
  8
0
100
AcDbLine
 62
7
  6
CONTINUOUS
 10
2.962748202
 20
4.6076075631
 11
3.0202805427
 21
4.5743870098
  0
LINE
  5
25D
100
AcDbEntity
  8
0
100
AcDbLine
 62
7
  6
CONTINUOUS
 10
3.0202805427
 20
4.0006723949
 11
2.962748202
 21
3.9674518417
  0
LINE
  5
25E
100
AcDbEntity
  8
0
100
AcDbLine
 62
7
  6
CONTINUOUS
 10
3.0202805427
 20
3.9069223949
 11
2.962748202
 21
3.8737018417
  0
LINE
  5
25F
100
AcDbEntity
  8
0
100
AcDbLine
 62
7
  6
CONTINUOUS
 10
3.0202805427
 20
3.8131723949
 11
2.962748202
 21
3.7799518417
  0
LINE
  5
260
100
AcDbEntity
  8
0
100
AcDbLine
 62
7
  6
CONTINUOUS
 10
2.962748202
 20
4.7013575631
 11
3.0202805427
 21
4.6681370098
  0
LINE
  5
261
100
AcDbEntity
  8
0
100
AcDbLine
 62
7
  6
CONTINUOUS
 10
3.0202805427
 20
3.7194223949
 11
2.962748202
 21
3.6862018417
  0
LINE
  5
262
100
AcDbEntity
  8
0
100
AcDbLine
 62
7
  6
CONTINUOUS
 10
3.0202805427
 20
3.6256723949
 11
2.962748202
 21
3.5924518417
  0
LINE
  5
263
100
AcDbEntity
  8
0
100
AcDbLine
 62
7
  6
CONTINUOUS
 10
3.0202805427
 20
3.5319223949
 11
2.962748202
 21
3.4987018417
  0
LINE
  5
264
100
AcDbEntity
  8
0
100
AcDbLine
 62
7
  6
CONTINUOUS
 10
3.0202805427
 20
3.4381723949
 11
2.962748202
 21
3.4049518417
  0
LINE
  5
265
100
AcDbEntity
  8
0
100
AcDbLine
 62
7
  6
CONTINUOUS
 10
3.0202805427
 20
3.3444223949
 11
2.962748202
 21
3.3112018417
  0
LINE
  5
266
100
AcDbEntity
  8
0
100
AcDbLine
 62
7
  6
CONTINUOUS
 10
6.254842574
 20
3.2643268417
 11
6.1973102333
 21
3.2975473949
  0
LINE
  5
267
100
AcDbEntity
  8
0
100
AcDbLine
 62
7
  6
CONTINUOUS
 10
6.254842574
 20
3.3580768417
 11
6.1973102333
 21
3.3912973949
  0
LINE
  5
268
100
AcDbEntity
  8
0
100
AcDbLine
 62
7
  6
CONTINUOUS
 10
6.254842574
 20
3.4518268417
 11
6.1973102333
 21
3.4850473949
  0
LINE
  5
269
100
AcDbEntity
  8
0
100
AcDbLine
 62
7
  6
CONTINUOUS
 10
3.0202805427
 20
3.2506723949
 11
2.982582665
 21
3.2289047024
  0
LINE
  5
26A
100
AcDbEntity
  8
0
100
AcDbLine
 62
7
  6
CONTINUOUS
 10
6.254842574
 20
3.5455768417
 11
6.1973102333
 21
3.5787973949
  0
LINE
  5
26B
100
AcDbEntity
  8
0
100
AcDbLine
 62
7
  6
CONTINUOUS
 10
6.254842574
 20
3.6393268417
 11
6.1973102333
 21
3.6725473949
  0
LINE
  5
26C
100
AcDbEntity
  8
0
100
AcDbLine
 62
7
  6
CONTINUOUS
 10
6.1973102333
 20
4.7150120098
 11
6.208987492
 21
4.721754763
  0
LINE
  5
26D
100
AcDbEntity
  8
0
100
AcDbLine
 62
7
  6
CONTINUOUS
 10
2.373795388
 20
4.8634051245
 11
2.8927879941
 21
4.8004806348
  0
LINE
  5
26E
100
AcDbEntity
  8
DEFAULT_SURFACES
100
AcDbLine
 62
7
  6
CONTINUOUS
 10
2.373795388
 20
4.8634051245
 11
2.8927879941
 21
4.8004806348
  0
LINE
  5
26F
100
AcDbEntity
  8
0
100
AcDbLine
 62
7
  6
CONTINUOUS
 10
6.254842574
 20
3.7330768417
 11
6.1973102333
 21
3.7662973949
  0
LINE
  5
270
100
AcDbEntity
  8
0
100
AcDbLine
 62
7
  6
CONTINUOUS
 10
6.254842574
 20
3.8268268417
 11
6.1973102333
 21
3.8600473949
  0
LINE
  5
271
100
AcDbEntity
  8
0
100
AcDbLine
 62
7
  6
CONTINUOUS
 10
6.255045388
 20
3.2640926314
 11
6.254842574
 21
3.2643268417
  0
LINE
  5
272
100
AcDbEntity
  8
0
100
AcDbLine
 62
7
  6
CONTINUOUS
 10
6.1973102333
 20
4.6212620098
 11
6.254842574
 21
4.6544825631
  0
LINE
  5
273
100
AcDbEntity
  8
0
100
AcDbLine
 62
7
  6
CONTINUOUS
 10
6.1973102333
 20
4.5275120098
 11
6.254842574
 21
4.5607325631
  0
LINE
  5
274
100
AcDbEntity
  8
0
100
AcDbLine
 62
7
  6
CONTINUOUS
 10
6.843795388
 20
4.8634051245
 11
6.3248027819
 21
4.8004806348
  0
LINE
  5
275
100
AcDbEntity
  8
DEFAULT_SURFACES
100
AcDbLine
 62
7
  6
CONTINUOUS
 10
6.843795388
 20
4.8634051245
 11
6.3248027819
 21
4.8004806348
  0
LINE
  5
276
100
AcDbEntity
  8
0
100
AcDbLine
 62
7
  6
CONTINUOUS
 10
6.255045388
 20
4.721754763
 11
2.962545388
 21
4.721754763
  0
LINE
  5
277
100
AcDbEntity
  8
0
100
AcDbLine
 62
7
  6
CONTINUOUS
 10
6.254842574
 20
3.9205768417
 11
6.1973102333
 21
3.9537973949
  0
LINE
  5
278
100
AcDbEntity
  8
0
100
AcDbLine
 62
7
  6
CONTINUOUS
 10
6.254842574
 20
4.0143268417
 11
6.1973102333
 21
4.0475473949
  0
LINE
  5
279
100
AcDbEntity
  8
0
100
AcDbLine
 62
7
  6
CONTINUOUS
 10
6.254842574
 20
4.1080768417
 11
6.1973102333
 21
4.1412973949
  0
LINE
  5
27A
100
AcDbEntity
  8
0
100
AcDbLine
 62
7
  6
CONTINUOUS
 10
6.1973102333
 20
4.4337620098
 11
6.254842574
 21
4.4669825631
  0
LINE
  5
27B
100
AcDbEntity
  8
0
100
AcDbLine
 62
7
  6
CONTINUOUS
 10
6.1973102333
 20
4.3400120098
 11
6.254842574
 21
4.3732325631
  0
LINE
  5
27C
100
AcDbEntity
  8
DEFAULT_SURFACES
100
AcDbLine
 62
7
  6
CONTINUOUS
 10
6.3248027819
 20
4.8004806348
 11
2.8927879941
 21
4.8004806348
  0
LINE
  5
27D
100
AcDbEntity
  8
0
100
AcDbLine
 62
7
  6
CONTINUOUS
 10
6.254842574
 20
4.2018268417
 11
6.1973102333
 21
4.2350473949
  0
LINE
  5
27E
100
AcDbEntity
  8
0
100
AcDbLine
 62
7
  6
CONTINUOUS
 10
6.254842574
 20
4.2955768417
 11
6.1973102333
 21
4.3287973949
  0
LINE
  5
27F
100
AcDbEntity
  8
0
100
AcDbLine
 62
7
  6
CONTINUOUS
 10
6.254842574
 20
4.6544825631
 11
6.255045388
 21
4.6547167766
  0
LINE
  5
280
100
AcDbEntity
  8
0
100
AcDbLine
 62
7
  6
CONTINUOUS
 10
6.254842574
 20
4.5607325631
 11
6.255045388
 21
4.5609667766
  0
LINE
  5
281
100
AcDbEntity
  8
0
100
AcDbLine
 62
7
  6
CONTINUOUS
 10
6.254842574
 20
4.4669825631
 11
6.255045388
 21
4.4672167766
  0
LINE
  5
282
100
AcDbEntity
  8
0
100
AcDbLine
 62
7
  6
CONTINUOUS
 10
6.1973102333
 20
4.2462620098
 11
6.254842574
 21
4.2794825631
  0
LINE
  5
283
100
AcDbEntity
  8
0
100
AcDbLine
 62
7
  6
CONTINUOUS
 10
6.1973102333
 20
4.1525120098
 11
6.254842574
 21
4.1857325631
  0
LINE
  5
284
100
AcDbEntity
  8
0
100
AcDbLine
 62
7
  6
CONTINUOUS
 10
6.1973102333
 20
4.0587620098
 11
6.254842574
 21
4.0919825631
  0
LINE
  5
285
100
AcDbEntity
  8
0
100
AcDbLine
 62
7
  6
CONTINUOUS
 10
6.254842574
 20
4.3893268417
 11
6.1973102333
 21
4.4225473949
  0
LINE
  5
286
100
AcDbEntity
  8
0
100
AcDbLine
 62
7
  6
CONTINUOUS
 10
6.254842574
 20
4.4830768417
 11
6.1973102333
 21
4.5162973949
  0
LINE
  5
287
100
AcDbEntity
  8
0
100
AcDbLine
 62
7
  6
CONTINUOUS
 10
6.254842574
 20
4.5768268417
 11
6.1973102333
 21
4.6100473949
  0
LINE
  5
288
100
AcDbEntity
  8
0
100
AcDbLine
 62
7
  6
CONTINUOUS
 10
6.254842574
 20
4.3732325631
 11
6.255045388
 21
4.3734667766
  0
LINE
  5
289
100
AcDbEntity
  8
0
100
AcDbLine
 62
7
  6
CONTINUOUS
 10
6.254842574
 20
4.2794825631
 11
6.255045388
 21
4.2797167766
  0
LINE
  5
28A
100
AcDbEntity
  8
0
100
AcDbLine
 62
7
  6
CONTINUOUS
 10
6.254842574
 20
4.1857325631
 11
6.255045388
 21
4.1859667766
  0
LINE
  5
28B
100
AcDbEntity
  8
0
100
AcDbLine
 62
7
  6
CONTINUOUS
 10
6.1973102333
 20
3.9650120098
 11
6.254842574
 21
3.9982325631
  0
LINE
  5
28C
100
AcDbEntity
  8
0
100
AcDbLine
 62
7
  6
CONTINUOUS
 10
6.1973102333
 20
3.8712620098
 11
6.254842574
 21
3.9044825631
  0
LINE
  5
28D
100
AcDbEntity
  8
0
100
AcDbLine
 62
7
  6
CONTINUOUS
 10
2.373795388
 20
5.2314047024
 11
6.843795388
 21
5.2314047024
  0
LINE
  5
28E
100
AcDbEntity
  8
0
100
AcDbLine
 62
7
  6
CONTINUOUS
 10
6.832545388
 20
5.2614047024
 11
2.385045388
 21
5.2614047024
  0
LINE
  5
28F
100
AcDbEntity
  8
0
100
AcDbLine
 62
7
  6
CONTINUOUS
 10
6.858795388
 20
5.2876547024
 11
2.358795388
 21
5.2876547024
  0
LINE
  5
290
100
AcDbEntity
  8
0
100
AcDbLine
 62
7
  6
CONTINUOUS
 10
6.254842574
 20
4.6705768417
 11
6.1973102333
 21
4.7037973949
  0
LINE
  5
291
100
AcDbEntity
  8
0
100
AcDbLine
 62
7
  6
CONTINUOUS
 10
6.197520388
 20
3.2973047024
 11
6.197520388
 21
3.3090047024
  0
LINE
  5
292
100
AcDbEntity
  8
0
100
AcDbLine
 62
7
  6
CONTINUOUS
 10
6.197520388
 20
3.3910547024
 11
6.197520388
 21
3.4027547024
  0
LINE
  5
293
100
AcDbEntity
  8
0
100
AcDbLine
 62
7
  6
CONTINUOUS
 10
6.197520388
 20
3.4848047024
 11
6.197520388
 21
3.4965047024
  0
LINE
  5
294
100
AcDbEntity
  8
0
100
AcDbLine
 62
7
  6
CONTINUOUS
 10
6.197520388
 20
3.5785547024
 11
6.197520388
 21
3.5902547024
  0
LINE
  5
295
100
AcDbEntity
  8
0
100
AcDbLine
 62
7
  6
CONTINUOUS
 10
6.197520388
 20
3.6723047024
 11
6.197520388
 21
3.6840047024
  0
LINE
  5
296
100
AcDbEntity
  8
0
100
AcDbLine
 62
7
  6
CONTINUOUS
 10
6.197520388
 20
3.7660547024
 11
6.197520388
 21
3.7777547024
  0
LINE
  5
297
100
AcDbEntity
  8
0
100
AcDbLine
 62
7
  6
CONTINUOUS
 10
6.197520388
 20
3.8598047024
 11
6.197520388
 21
3.8715047024
  0
LINE
  5
298
100
AcDbEntity
  8
0
100
AcDbLine
 62
7
  6
CONTINUOUS
 10
6.197520388
 20
3.9535547024
 11
6.197520388
 21
3.9652547024
  0
LINE
  5
299
100
AcDbEntity
  8
0
100
AcDbLine
 62
7
  6
CONTINUOUS
 10
6.197520388
 20
4.0473047024
 11
6.197520388
 21
4.0590047024
  0
LINE
  5
29A
100
AcDbEntity
  8
0
100
AcDbLine
 62
7
  6
CONTINUOUS
 10
6.197520388
 20
4.1410547024
 11
6.197520388
 21
4.1527547024
  0
LINE
  5
29B
100
AcDbEntity
  8
0
100
AcDbLine
 62
7
  6
CONTINUOUS
 10
6.197520388
 20
4.2348047024
 11
6.197520388
 21
4.2465047024
  0
LINE
  5
29C
100
AcDbEntity
  8
0
100
AcDbLine
 62
7
  6
CONTINUOUS
 10
6.197520388
 20
4.3285547024
 11
6.197520388
 21
4.3402547024
  0
LINE
  5
29D
100
AcDbEntity
  8
0
100
AcDbLine
 62
7
  6
CONTINUOUS
 10
6.197520388
 20
4.4223047024
 11
6.197520388
 21
4.4340047024
  0
LINE
  5
29E
100
AcDbEntity
  8
0
100
AcDbLine
 62
7
  6
CONTINUOUS
 10
6.197520388
 20
4.5160547024
 11
6.197520388
 21
4.5277547024
  0
LINE
  5
29F
100
AcDbEntity
  8
0
100
AcDbLine
 62
7
  6
CONTINUOUS
 10
6.197520388
 20
4.6098047024
 11
6.197520388
 21
4.6215047024
  0
LINE
  5
2A0
100
AcDbEntity
  8
0
100
AcDbLine
 62
7
  6
CONTINUOUS
 10
6.197520388
 20
4.7035547024
 11
6.197520388
 21
4.7152547024
  0
LINE
  5
2A1
100
AcDbEntity
  8
0
100
AcDbLine
 62
7
  6
CONTINUOUS
 10
6.255045388
 20
4.6703426281
 11
6.255045388
 21
4.6547167766
  0
LINE
  5
2A2
100
AcDbEntity
  8
DEFAULT_SURFACES
100
AcDbLine
 62
7
  6
CONTINUOUS
 10
6.255045388
 20
4.6703426281
 11
6.255045388
 21
4.6547167766
  0
LINE
  5
2A3
100
AcDbEntity
  8
0
100
AcDbLine
 62
7
  6
CONTINUOUS
 10
6.255045388
 20
4.5765926281
 11
6.255045388
 21
4.5609667766
  0
LINE
  5
2A4
100
AcDbEntity
  8
DEFAULT_SURFACES
100
AcDbLine
 62
7
  6
CONTINUOUS
 10
6.255045388
 20
4.5765926281
 11
6.255045388
 21
4.5609667766
  0
LINE
  5
2A5
100
AcDbEntity
  8
0
100
AcDbLine
 62
7
  6
CONTINUOUS
 10
6.255045388
 20
4.4828426281
 11
6.255045388
 21
4.4672167766
  0
LINE
  5
2A6
100
AcDbEntity
  8
DEFAULT_SURFACES
100
AcDbLine
 62
7
  6
CONTINUOUS
 10
6.255045388
 20
4.4828426281
 11
6.255045388
 21
4.4672167766
  0
LINE
  5
2A7
100
AcDbEntity
  8
0
100
AcDbLine
 62
7
  6
CONTINUOUS
 10
6.255045388
 20
4.3890926281
 11
6.255045388
 21
4.3734667766
  0
LINE
  5
2A8
100
AcDbEntity
  8
DEFAULT_SURFACES
100
AcDbLine
 62
7
  6
CONTINUOUS
 10
6.255045388
 20
4.3890926281
 11
6.255045388
 21
4.3734667766
  0
LINE
  5
2A9
100
AcDbEntity
  8
0
100
AcDbLine
 62
7
  6
CONTINUOUS
 10
6.255045388
 20
4.2953426281
 11
6.255045388
 21
4.2797167766
  0
LINE
  5
2AA
100
AcDbEntity
  8
DEFAULT_SURFACES
100
AcDbLine
 62
7
  6
CONTINUOUS
 10
6.255045388
 20
4.2953426281
 11
6.255045388
 21
4.2797167766
  0
LINE
  5
2AB
100
AcDbEntity
  8
0
100
AcDbLine
 62
7
  6
CONTINUOUS
 10
6.255045388
 20
4.2015926281
 11
6.255045388
 21
4.1859667766
  0
LINE
  5
2AC
100
AcDbEntity
  8
DEFAULT_SURFACES
100
AcDbLine
 62
7
  6
CONTINUOUS
 10
6.255045388
 20
4.2015926281
 11
6.255045388
 21
4.1859667766
  0
LINE
  5
2AD
100
AcDbEntity
  8
0
100
AcDbLine
 62
7
  6
CONTINUOUS
 10
6.255045388
 20
4.1078426281
 11
6.255045388
 21
4.0922167766
  0
LINE
  5
2AE
100
AcDbEntity
  8
DEFAULT_SURFACES
100
AcDbLine
 62
7
  6
CONTINUOUS
 10
6.255045388
 20
4.1078426281
 11
6.255045388
 21
4.0922167766
  0
LINE
  5
2AF
100
AcDbEntity
  8
0
100
AcDbLine
 62
7
  6
CONTINUOUS
 10
6.255045388
 20
4.0140926281
 11
6.255045388
 21
3.9984667766
  0
LINE
  5
2B0
100
AcDbEntity
  8
DEFAULT_SURFACES
100
AcDbLine
 62
7
  6
CONTINUOUS
 10
6.255045388
 20
4.0140926281
 11
6.255045388
 21
3.9984667766
  0
LINE
  5
2B1
100
AcDbEntity
  8
0
100
AcDbLine
 62
7
  6
CONTINUOUS
 10
6.255045388
 20
3.9203426281
 11
6.255045388
 21
3.9047167766
  0
LINE
  5
2B2
100
AcDbEntity
  8
DEFAULT_SURFACES
100
AcDbLine
 62
7
  6
CONTINUOUS
 10
6.255045388
 20
3.9203426281
 11
6.255045388
 21
3.9047167766
  0
LINE
  5
2B3
100
AcDbEntity
  8
0
100
AcDbLine
 62
7
  6
CONTINUOUS
 10
6.255045388
 20
3.8265926281
 11
6.255045388
 21
3.8109667766
  0
LINE
  5
2B4
100
AcDbEntity
  8
DEFAULT_SURFACES
100
AcDbLine
 62
7
  6
CONTINUOUS
 10
6.255045388
 20
3.8265926281
 11
6.255045388
 21
3.8109667766
  0
LINE
  5
2B5
100
AcDbEntity
  8
0
100
AcDbLine
 62
7
  6
CONTINUOUS
 10
6.255045388
 20
3.7328426281
 11
6.255045388
 21
3.7172167766
  0
LINE
  5
2B6
100
AcDbEntity
  8
DEFAULT_SURFACES
100
AcDbLine
 62
7
  6
CONTINUOUS
 10
6.255045388
 20
3.7328426281
 11
6.255045388
 21
3.7172167766
  0
LINE
  5
2B7
100
AcDbEntity
  8
0
100
AcDbLine
 62
7
  6
CONTINUOUS
 10
6.255045388
 20
3.6390926281
 11
6.255045388
 21
3.6234667766
  0
LINE
  5
2B8
100
AcDbEntity
  8
DEFAULT_SURFACES
100
AcDbLine
 62
7
  6
CONTINUOUS
 10
6.255045388
 20
3.6390926281
 11
6.255045388
 21
3.6234667766
  0
LINE
  5
2B9
100
AcDbEntity
  8
0
100
AcDbLine
 62
7
  6
CONTINUOUS
 10
6.255045388
 20
3.5453426281
 11
6.255045388
 21
3.5297167766
  0
LINE
  5
2BA
100
AcDbEntity
  8
DEFAULT_SURFACES
100
AcDbLine
 62
7
  6
CONTINUOUS
 10
6.255045388
 20
3.5453426281
 11
6.255045388
 21
3.5297167766
  0
LINE
  5
2BB
100
AcDbEntity
  8
0
100
AcDbLine
 62
7
  6
CONTINUOUS
 10
6.255045388
 20
3.4515926281
 11
6.255045388
 21
3.4359667766
  0
LINE
  5
2BC
100
AcDbEntity
  8
DEFAULT_SURFACES
100
AcDbLine
 62
7
  6
CONTINUOUS
 10
6.255045388
 20
3.4515926281
 11
6.255045388
 21
3.4359667766
  0
LINE
  5
2BD
100
AcDbEntity
  8
0
100
AcDbLine
 62
7
  6
CONTINUOUS
 10
6.255045388
 20
3.3578426281
 11
6.255045388
 21
3.3422167766
  0
LINE
  5
2BE
100
AcDbEntity
  8
DEFAULT_SURFACES
100
AcDbLine
 62
7
  6
CONTINUOUS
 10
6.255045388
 20
3.3578426281
 11
6.255045388
 21
3.3422167766
  0
LINE
  5
2BF
100
AcDbEntity
  8
DEFAULT_SURFACES
100
AcDbLine
 62
7
  6
CONTINUOUS
 10
6.255045388
 20
3.2640926281
 11
6.255045388
 21
3.2484667766
  0
LINE
  5
2C0
100
AcDbEntity
  8
0
100
AcDbLine
 62
7
  6
CONTINUOUS
 10
6.254842574
 20
4.0919825631
 11
6.255045388
 21
4.0922167766
  0
LINE
  5
2C1
100
AcDbEntity
  8
0
100
AcDbLine
 62
7
  6
CONTINUOUS
 10
6.254842574
 20
3.9982325631
 11
6.255045388
 21
3.9984667766
  0
LINE
  5
2C2
100
AcDbEntity
  8
0
100
AcDbLine
 62
7
  6
CONTINUOUS
 10
6.254842574
 20
3.9044825631
 11
6.255045388
 21
3.9047167766
  0
LINE
  5
2C3
100
AcDbEntity
  8
0
100
AcDbLine
 62
7
  6
CONTINUOUS
 10
6.1973102333
 20
3.7775120098
 11
6.254842574
 21
3.8107325631
  0
LINE
  5
2C4
100
AcDbEntity
  8
0
100
AcDbLine
 62
7
  6
CONTINUOUS
 10
6.1973102333
 20
3.6837620098
 11
6.254842574
 21
3.7169825631
  0
LINE
  5
2C5
100
AcDbEntity
  8
0
100
AcDbLine
 62
7
  6
CONTINUOUS
 10
6.1973102333
 20
3.5900120098
 11
6.254842574
 21
3.6232325631
  0
LINE
  5
2C6
100
AcDbEntity
  8
0
100
AcDbLine
 62
7
  6
CONTINUOUS
 10
2.358795388
 20
5.4076547024
 11
6.858795388
 21
5.4076547024
  0
LINE
  5
2C7
100
AcDbEntity
  8
0
100
AcDbLine
 62
7
  6
CONTINUOUS
 10
2.384670388
 20
5.4245297024
 11
6.832920388
 21
5.4245297024
  0
LINE
  5
2C8
100
AcDbEntity
  8
0
100
AcDbLine
 62
7
  6
CONTINUOUS
 10
6.254842574
 20
3.8107325631
 11
6.255045388
 21
3.8109667766
  0
LINE
  5
2C9
100
AcDbEntity
  8
0
100
AcDbLine
 62
7
  6
CONTINUOUS
 10
6.254842574
 20
3.7169825631
 11
6.255045388
 21
3.7172167766
  0
LINE
  5
2CA
100
AcDbEntity
  8
0
100
AcDbLine
 62
7
  6
CONTINUOUS
 10
6.254842574
 20
3.6232325631
 11
6.255045388
 21
3.6234667766
  0
LINE
  5
2CB
100
AcDbEntity
  8
0
100
AcDbLine
 62
7
  6
CONTINUOUS
 10
6.1973102333
 20
3.4962620098
 11
6.254842574
 21
3.5294825631
  0
LINE
  5
2CC
100
AcDbEntity
  8
0
100
AcDbLine
 62
7
  6
CONTINUOUS
 10
6.1973102333
 20
3.4025120098
 11
6.254842574
 21
3.4357325631
  0
LINE
  5
2CD
100
AcDbEntity
  8
0
100
AcDbLine
 62
7
  6
CONTINUOUS
 10
6.254842574
 20
3.5294825631
 11
6.255045388
 21
3.5297167766
  0
LINE
  5
2CE
100
AcDbEntity
  8
0
100
AcDbLine
 62
7
  6
CONTINUOUS
 10
6.254842574
 20
3.4357325631
 11
6.255045388
 21
3.4359667766
  0
LINE
  5
2CF
100
AcDbEntity
  8
0
100
AcDbLine
 62
7
  6
CONTINUOUS
 10
6.254842574
 20
3.3419825631
 11
6.255045388
 21
3.3422167766
  0
LINE
  5
2D0
100
AcDbEntity
  8
0
100
AcDbLine
 62
7
  6
CONTINUOUS
 10
6.255045388
 20
3.2484667567
 11
6.254842574
 21
3.2482325631
  0
LINE
  5
2D1
100
AcDbEntity
  8
0
100
AcDbLine
 62
7
  6
CONTINUOUS
 10
6.1973102333
 20
3.3087620098
 11
6.254842574
 21
3.3419825631
  0
LINE
  5
2D2
100
AcDbEntity
  8
0
100
AcDbLine
 62
7
  6
CONTINUOUS
 10
6.221369947
 20
3.2289047024
 11
6.254842574
 21
3.2482325631
  0
LINE
  5
2D3
100
AcDbEntity
  8
0
100
AcDbLine
 62
7
  6
CONTINUOUS
 10
6.787920388
 20
5.4245297024
 11
6.787920388
 21
5.4076547024
  0
LINE
  5
2D4
100
AcDbEntity
  8
0
100
AcDbLine
 62
7
  6
CONTINUOUS
 10
6.788295388
 20
5.2614047024
 11
6.788295388
 21
5.4076547024
  0
LINE
  5
2D5
100
AcDbEntity
  8
0
100
AcDbLine
 62
7
  6
CONTINUOUS
 10
6.832920388
 20
5.4245297024
 11
6.832920388
 21
5.4076547024
  0
LINE
  5
2D6
100
AcDbEntity
  8
0
100
AcDbLine
 62
7
  6
CONTINUOUS
 10
6.843795388
 20
4.8634051245
 11
6.843795388
 21
5.2314047024
  0
LINE
  5
2D7
100
AcDbEntity
  8
0
100
AcDbLine
 62
7
  6
CONTINUOUS
 10
6.858795388
 20
5.4076547024
 11
6.858795388
 21
5.2876547024
  0
LINE
  5
2D8
100
AcDbEntity
  8
0
100
AcDbLine
 62
7
  6
CONTINUOUS
 10
6.813795388
 20
5.2614047024
 11
6.843795388
 21
5.2314047024
  0
ARC
  5
2D9
100
AcDbEntity
  8
0
100
AcDbCircle
 62
7
  6
CONTINUOUS
 10
2.8736624456
 20
5.7829869889
 40
0.8896197206
100
AcDbArc
 50
264.6963224582
 51
265.7748528674
  0
ARC
  5
2DA
100
AcDbEntity
  8
0
100
AcDbCircle
 62
7
  6
CONTINUOUS
 10
6.4913449121
 20
4.0869961946
 40
0.8258316624
100
AcDbArc
 50
92.5049894249
 51
94.7707070689
  0
ARC
  5
2DB
100
AcDbEntity
  8
0
100
AcDbCircle
 62
7
  6
CONTINUOUS
 10
2.8625167453
 20
5.6208389553
 40
0.7270916723
100
AcDbArc
 50
265.7093693344
 51
267.5550144008
  0
ARC
  5
2DC
100
AcDbEntity
  8
0
100
AcDbCircle
 62
7
  6
CONTINUOUS
 10
2.8544838823
 20
5.4364832413
 40
0.5425611288
100
AcDbArc
 50
267.572007653
 51
268.3255682219
  0
ARC
  5
2DD
100
AcDbEntity
  8
0
100
AcDbCircle
 62
7
  6
CONTINUOUS
 10
6.4504620308
 20
4.4031585256
 40
0.5070853365
100
AcDbArc
 50
97.6908614733
 51
98.4859397321
  0
ARC
  5
2DE
100
AcDbEntity
  8
0
100
AcDbCircle
 62
7
  6
CONTINUOUS
 10
2.8514485131
 20
5.3273116787
 40
0.4333475165
100
AcDbArc
 50
268.3049502932
 51
269.196314057
  0
ARC
  5
2DF
100
AcDbEntity
  8
0
100
AcDbCircle
 62
7
  6
CONTINUOUS
 10
6.4336249453
 20
4.5149136261
 40
0.3940691588
100
AcDbArc
 50
98.4624695975
 51
99.3975053915
  0
ARC
  5
2E0
100
AcDbEntity
  8
0
100
AcDbCircle
 62
7
  6
CONTINUOUS
 10
6.4257638695
 20
5.1981599322
 40
0.2963702881
100
AcDbArc
 50
278.7154427191
 51
279.6481483007
  0
ARC
  5
2E1
100
AcDbEntity
  8
0
100
AcDbCircle
 62
7
  6
CONTINUOUS
 10
6.416679799
 20
4.6163010523
 40
0.2912756168
100
AcDbArc
 50
99.3654646146
 51
100.5176081568
  0
ARC
  5
2E2
100
AcDbEntity
  8
0
100
AcDbCircle
 62
7
  6
CONTINUOUS
 10
6.4757443892
 20
4.6345070286
 40
0.2780157407
100
AcDbArc
 50
88.8447419084
 51
89.9997480532
  0
ARC
  5
2E3
100
AcDbEntity
  8
0
100
AcDbCircle
 62
7
  6
CONTINUOUS
 10
6.3343477836
 20
4.721754763
 40
0.0793023956
100
AcDbArc
 50
96.913
 51
180.0
  0
ARC
  5
2E4
100
AcDbEntity
  8
DEFAULT_SURFACES
100
AcDbCircle
 62
7
  6
CONTINUOUS
 10
6.3343477836
 20
4.721754763
 40
0.0793023956
100
AcDbArc
 50
96.913
 51
180.0
  0
ARC
  5
2E5
100
AcDbEntity
  8
DEFAULT_SURFACES
100
AcDbCircle
 62
7
  6
CONTINUOUS
 10
2.8832429924
 20
4.721754763
 40
0.0793023956
100
AcDbArc
 50
0.0
 51
83.087
  0
ARC
  5
2E6
100
AcDbEntity
  8
0
100
AcDbCircle
 62
7
  6
CONTINUOUS
 10
2.385045388
 20
5.2876547024
 40
0.02625
100
AcDbArc
 50
180.0
 51
270.0
  0
ARC
  5
2E7
100
AcDbEntity
  8
0
100
AcDbCircle
 62
7
  6
CONTINUOUS
 10
6.832545388
 20
5.2876547024
 40
0.02625
100
AcDbArc
 50
270.0
 51
360.0
  0
ARC
  5
2E8
100
AcDbEntity
  8
0
100
AcDbCircle
 62
7
  6
CONTINUOUS
 10
6.490409527
 20
4.9144392508
 40
0.0047602973
100
AcDbArc
 50
300.2749473872
 51
302.7319079802
  0
SPLINE
  5
2E9
100
AcDbEntity
  8
0
100
AcDbSpline
 62
7
  6
CONTINUOUS
 70
0
 71
3
 72
9
 73
5
 74
0
 42
0.0000001
 43
0.0000001
 44
0.0000000001
 40
0.0
 40
0.0
 40
0.0
 40
0.0
 40
0.5511758654
 40
1.0
 40
1.0
 40
1.0
 40
1.0
 10
2.8470963825
 20
4.9009228817
 30
0.0
 10
2.8493120774
 20
4.9005582746
 30
0.0
 10
2.8533240111
 20
4.8998472712
 30
0.0
 10
2.8573101402
 20
4.898997007
 30
0.0
 10
2.8590853843
 20
4.8985588686
 30
0.0
  0
SPLINE
  5
2EA
100
AcDbEntity
  8
0
100
AcDbSpline
 62
7
  6
CONTINUOUS
 70
0
 71
3
 72
11
 73
7
 74
0
 42
0.0000001
 43
0.0000001
 44
0.0000000001
 40
0.0
 40
0.0
 40
0.0
 40
0.0
 40
0.3291557632
 40
0.605741216
 40
0.8293043856
 40
1.0
 40
1.0
 40
1.0
 40
1.0
 10
2.8590853843
 20
4.8985588686
 30
0.0
 10
2.8598025374
 20
4.8983818719
 30
0.0
 10
2.8611179803
 20
4.8980382293
 30
0.0
 10
2.8628997059
 20
4.8974974725
 30
0.0
 10
2.8643137754
 20
4.8969796287
 30
0.0
 10
2.8651182093
 20
4.8966041331
 30
0.0
 10
2.8654487249
 20
4.8964104882
 30
0.0
  0
SPLINE
  5
2EB
100
AcDbEntity
  8
0
100
AcDbSpline
 62
7
  6
CONTINUOUS
 70
0
 71
3
 72
11
 73
7
 74
0
 42
0.0000001
 43
0.0000001
 44
0.0000000001
 40
0.0
 40
0.0
 40
0.0
 40
0.0
 40
0.3097215681
 40
0.5846133745
 40
0.8166478086
 40
1.0
 40
1.0
 40
1.0
 40
1.0
 10
2.8230560497
 20
4.9052118075
 30
0.0
 10
2.8255569625
 20
4.9048816002
 30
0.0
 10
2.8302723498
 20
4.9042180796
 30
0.0
 10
2.8368386002
 20
4.9031518986
 30
0.0
 10
2.8423603757
 20
4.9020912949
 30
0.0
 10
2.8456571008
 20
4.9013211394
 30
0.0
 10
2.8470963825
 20
4.9009228817
 30
0.0
  0
SPLINE
  5
2EC
100
AcDbEntity
  8
0
100
AcDbSpline
 62
7
  6
CONTINUOUS
 70
0
 71
3
 72
12
 73
8
 74
0
 42
0.0000001
 43
0.0000001
 44
0.0000000001
 40
0.0
 40
0.0
 40
0.0
 40
0.0
 40
0.2817000992
 40
0.5526841451
 40
0.7971289314
 40
0.9047978122
 40
1.0
 40
1.0
 40
1.0
 40
1.0
 10
2.7702706045
 20
4.9116570354
 30
0.0
 10
2.7752505878
 20
4.9112639644
 30
0.0
 10
2.7850138914
 20
4.9103972807
 30
0.0
 10
2.7990671988
 20
4.9088650454
 30
0.0
 10
2.8100223191
 20
4.9074103378
 30
0.0
 10
2.8178573776
 20
4.9061693653
 30
0.0
 10
2.8213989252
 20
4.9055344876
 30
0.0
 10
2.8230560497
 20
4.9052118075
 30
0.0
  0
SPLINE
  5
2ED
100
AcDbEntity
  8
0
100
AcDbSpline
 62
7
  6
CONTINUOUS
 70
0
 71
3
 72
12
 73
8
 74
0
 42
0.0000001
 43
0.0000001
 44
0.0000000001
 40
0.0
 40
0.0
 40
0.0
 40
0.0
 40
0.20092907
 40
0.3961911856
 40
0.5141116333
 40
0.6522616764
 40
1.0
 40
1.0
 40
1.0
 40
1.0
 10
6.4935725394
 20
4.9116570354
 30
0.0
 10
6.4936392333
 20
4.9115773063
 30
0.0
 10
6.4937446476
 20
4.9113833761
 30
0.0
 10
6.4936821194
 20
4.911106022
 30
0.0
 10
6.4935535825
 20
4.9109106585
 30
0.0
 10
6.493340366
 20
4.9106805124
 30
0.0
 10
6.4931347483
 20
4.9105321793
 30
0.0
 10
6.492983462
 20
4.910434842
 30
0.0
  0
SPLINE
  5
2EE
100
AcDbEntity
  8
0
100
AcDbSpline
 62
7
  6
CONTINUOUS
 70
0
 71
3
 72
19
 73
15
 74
0
 42
0.0000001
 43
0.0000001
 44
0.0000000001
 40
0.0
 40
0.0
 40
0.0
 40
0.0
 40
0.0158612704
 40
0.0355283962
 40
0.0607669544
 40
0.0924136832
 40
0.1308550075
 40
0.1762227812
 40
0.2285426667
 40
0.2877884516
 40
0.4268070946
 40
0.5926554661
 40
0.7842291111
 40
1.0
 40
1.0
 40
1.0
 40
1.0
 10
6.3450477918
 20
4.8967600071
 30
0.0
 10
6.3450478473
 20
4.8968644203
 30
0.0
 10
6.3451146735
 20
4.8970985236
 30
0.0
 10
6.3453630491
 20
4.8974182939
 30
0.0
 10
6.3457509529
 20
4.8977434034
 30
0.0
 10
6.3462835546
 20
4.8980776592
 30
0.0
 10
6.3469616349
 20
4.8984224379
 30
0.0
 10
6.3477849884
 20
4.8987772785
 30
0.0
 10
6.3487520619
 20
4.8991414244
 30
0.0
 10
6.3503161224
 20
4.8996665083
 30
0.0
 10
6.352620966
 20
4.9003282709
 30
0.0
 10
6.3557943689
 20
4.9011108714
 30
0.0
 10
6.3594822208
 20
4.9019110995
 30
0.0
 10
6.3621145585
 20
4.9024232321
 30
0.0
 10
6.3635110204
 20
4.9026829056
 30
0.0
  0
SPLINE
  5
2EF
100
AcDbEntity
  8
0
100
AcDbSpline
 62
7
  6
CONTINUOUS
 70
0
 71
3
 72
9
 73
5
 74
0
 42
0.0000001
 43
0.0000001
 44
0.0000000001
 40
0.0
 40
0.0
 40
0.0
 40
0.0
 40
0.4818830112
 40
1.0
 40
1.0
 40
1.0
 40
1.0
 10
6.3825997513
 20
4.9056824051
 30
0.0
 10
6.3890135162
 20
4.906550876
 30
0.0
 10
6.402353211
 20
4.9081337386
 30
0.0
 10
6.4157265378
 20
4.9093933979
 30
0.0
 10
6.422661841
 20
4.9099667714
 30
0.0
  0
SPLINE
  5
2F0
100
AcDbEntity
  8
0
100
AcDbSpline
 62
7
  6
CONTINUOUS
 70
0
 71
3
 72
9
 73
5
 74
0
 42
0.0000001
 43
0.0000001
 44
0.0000000001
 40
0.0
 40
0.0
 40
0.0
 40
0.0
 40
0.5297660219
 40
1.0
 40
1.0
 40
1.0
 40
1.0
 10
6.4552507945
 20
4.9120387082
 30
0.0
 10
6.458867894
 20
4.9121923538
 30
0.0
 10
6.4656981149
 20
4.912427429
 30
0.0
 10
6.472532086
 20
4.9125237558
 30
0.0
 10
6.4757456118
 20
4.9125227693
 30
0.0
  0
LINE
  5
2F1
100
AcDbEntity
  8
0
100
AcDbLine
 62
7
  6
CONTINUOUS
 10
6.4813496568
 20
4.9124662577
 11
6.4902473984
 21
4.9120358066
  0
LINE
  5
2F2
100
AcDbEntity
  8
0
100
AcDbLine
 62
7
  6
CONTINUOUS
 10
6.4902473984
 20
4.9120358066
 11
6.4935725394
 21
4.9116570354
  0
SPLINE
  5
2F3
100
AcDbEntity
  8
0
100
AcDbSpline
 62
7
  6
CONTINUOUS
 70
0
 71
3
 72
19
 73
15
 74
0
 42
0.0000001
 43
0.0000001
 44
0.0000000001
 40
0.0
 40
0.0
 40
0.0
 40
0.0
 40
0.0157206487
 40
0.0343903066
 40
0.0582792982
 40
0.0884937366
 40
0.1255698273
 40
0.1697869933
 40
0.2212568332
 40
0.2799651202
 40
0.4188379483
 40
0.5857468219
 40
0.7798484606
 40
1.0
 40
1.0
 40
1.0
 40
1.0
 10
2.7195469935
 20
4.90987377
 30
0.0
 10
2.7195472715
 20
4.909964947
 30
0.0
 10
2.7196042469
 20
4.9101659717
 30
0.0
 10
2.7198324158
 20
4.9104241391
 30
0.0
 10
2.720184606
 20
4.9106609578
 30
0.0
 10
2.7206658151
 20
4.9108837768
 30
0.0
 10
2.7212781734
 20
4.9110940031
 30
0.0
 10
2.7220229869
 20
4.9112912389
 30
0.0
 10
2.7228996778
 20
4.9114750966
 30
0.0
 10
2.7243242696
 20
4.9117155369
 30
0.0
 10
2.726424182
 20
4.9119678997
 30
0.0
 10
2.7293144988
 20
4.9122005288
 30
0.0
 10
2.7326811244
 20
4.9123729665
 30
0.0
 10
2.7350828941
 20
4.9124424218
 30
0.0
 10
2.736359469
 20
4.9124686905
 30
0.0
  0
SPLINE
  5
2F4
100
AcDbEntity
  8
0
100
AcDbSpline
 62
7
  6
CONTINUOUS
 70
0
 71
3
 72
10
 73
6
 74
0
 42
0.0000001
 43
0.0000001
 44
0.0000000001
 40
0.0
 40
0.0
 40
0.0
 40
0.0
 40
0.2105259906
 40
0.4507524862
 40
1.0
 40
1.0
 40
1.0
 40
1.0
 10
2.736359469
 20
4.9124686905
 30
0.0
 10
2.7387398007
 20
4.9125176718
 30
0.0
 10
2.7438379425
 20
4.9125446642
 30
0.0
 10
2.7551459559
 20
4.9123638654
 30
0.0
 10
2.764068076
 20
4.9119895082
 30
0.0
 10
2.7702706045
 20
4.9116570354
 30
0.0
  0
SPLINE
  5
2F5
100
AcDbEntity
  8
0
100
AcDbSpline
 62
7
  6
CONTINUOUS
 70
0
 71
3
 72
36
 73
32
 74
0
 42
0.0000001
 43
0.0000001
 44
0.0000000001
 40
0.0
 40
0.0
 40
0.0
 40
0.0
 40
0.0004333201
 40
0.0008028442
 40
0.001291649
 40
0.0019043675
 40
0.002643303
 40
0.003509751
 40
0.0045045068
 40
0.0068807898
 40
0.0097748226
 40
0.0171195279
 40
0.0265367162
 40
0.0380189123
 40
0.0515574324
 40
0.0671430285
 40
0.0847661494
 40
0.1044147824
 40
0.126070808
 40
0.1497150644
 40
0.1753283409
 40
0.202891393
 40
0.263785659
 40
0.3321943472
 40
0.407885543
 40
0.49062338
 40
0.5801455314
 40
0.6761773146
 40
0.7784268153
 40
0.8865074278
 40
1.0
 40
1.0
 40
1.0
 40
1.0
 10
3.0200733662
 20
3.6371297024
 30
0.0
 10
3.020073418
 20
3.63721836
 30
0.0
 10
3.0202246078
 20
3.6373495682
 30
0.0
 10
3.0204524741
 20
3.6374602428
 30
0.0
 10
3.0207388
 20
3.6375663539
 30
0.0
 10
3.0210996537
 20
3.6376694606
 30
0.0
 10
3.0215418089
 20
3.6377744467
 30
0.0
 10
3.0220632659
 20
3.6378793142
 30
0.0
 10
3.0229174451
 20
3.6380286388
 30
0.0
 10
3.0241865085
 20
3.6382106702
 30
0.0
 10
3.0267498406
 20
3.6385138836
 30
0.0
 10
3.0307556154
 20
3.6388770343
 30
0.0
 10
3.036519558
 20
3.6392920864
 30
0.0
 10
3.043553377
 20
3.6397093513
 30
0.0
 10
3.0518509257
 20
3.6401287752
 30
0.0
 10
3.0614062522
 20
3.640549276
 30
0.0
 10
3.0722127281
 20
3.6409705881
 30
0.0
 10
3.0842620395
 20
3.6413923948
 30
0.0
 10
3.0975439428
 20
3.6418146424
 30
0.0
 10
3.1120467674
 20
3.6422372124
 30
0.0
 10
3.127758637
 20
3.642660055
 30
0.0
 10
3.1510902761
 20
3.6432436895
 30
0.0
 10
3.1831770936
 20
3.6439660619
 30
0.0
 10
3.2251106166
 20
3.6448082794
 30
0.0
 10
3.271514139
 20
3.6456516342
 30
0.0
 10
3.3222381244
 20
3.6464956965
 30
0.0
 10
3.3771243267
 20
3.6473404417
 30
0.0
 10
3.4360030575
 20
3.6481858568
 30
0.0
 10
3.4986792243
 20
3.6490315883
 30
0.0
 10
3.5649281848
 20
3.6498774951
 30
0.0
 10
3.6102588736
 20
3.650428455
 30
0.0
 10
3.6334778929
 20
3.6507047024
 30
0.0
  0
SPLINE
  5
2F6
100
AcDbEntity
  8
0
100
AcDbSpline
 62
7
  6
CONTINUOUS
 70
0
 71
3
 72
62
 73
58
 74
0
 42
0.0000001
 43
0.0000001
 44
0.0000000001
 40
0.0
 40
0.0
 40
0.0
 40
0.0
 40
0.0001414557
 40
0.0003513113
 40
0.0006313635
 40
0.0009822905
 40
0.0014043946
 40
0.0018978174
 40
0.0030988054
 40
0.0045853487
 40
0.0063572108
 40
0.0084137818
 40
0.0107536834
 40
0.0133753742
 40
0.01627729
 40
0.0229154649
 40
0.0306548163
 40
0.0394766823
 40
0.0493599379
 40
0.0602832415
 40
0.0722214497
 40
0.0851457627
 40
0.0990272081
 40
0.1138346189
 40
0.1460848312
 40
0.1816009556
 40
0.2200539
 40
0.2610903708
 40
0.3043320043
 40
0.3493796835
 40
0.3958190948
 40
0.4432214281
 40
0.4911502444
 40
0.5391635164
 40
0.5868189147
 40
0.6336770072
 40
0.6793058842
 40
0.723285478
 40
0.7652093904
 40
0.804692502
 40
0.8413700058
 40
0.8749039356
 40
0.9049864095
 40
0.9313382502
 40
0.9430392317
 40
0.9537188084
 40
0.9633531862
 40
0.9719211767
 40
0.9794017766
 40
0.9857777416
 40
0.9910361379
 40
0.9932423382
 40
0.9951644998
 40
0.9968015706
 40
0.9981531884
 40
0.9992192229
 40
1.0
 40
1.0
 40
1.0
 40
1.0
 10
2.9627488889
 20
4.1549518417
 30
0.0
 10
2.9628833575
 20
4.1550292516
 30
0.0
 10
2.9632483346
 20
4.1551631605
 30
0.0
 10
2.9639184731
 20
4.1553349316
 30
0.0
 10
2.9648251741
 20
4.1555086086
 30
0.0
 10
2.9659667483
 20
4.1556844347
 30
0.0
 10
2.9673447809
 20
4.1558611407
 30
0.0
 10
2.9696525044
 20
4.1561145398
 30
0.0
 10
2.9731283667
 20
4.1564219586
 30
0.0
 10
2.9780071174
 20
4.1567742917
 30
0.0
 10
2.9838263114
 20
4.1571280365
 30
0.0
 10
2.9905828973
 20
4.1574829414
 30
0.0
 10
2.9982727211
 20
4.157838544
 30
0.0
 10
3.0068906241
 20
4.1581947052
 30
0.0
 10
3.0202212262
 20
4.1586926791
 30
0.0
 10
3.0391647001
 20
4.1593054161
 30
0.0
 10
3.0646015555
 20
4.1600142489
 30
0.0
 10
3.093599001
 20
4.160724719
 30
0.0
 10
3.126089711
 20
4.1614365604
 30
0.0
 10
3.1619993585
 20
4.1621491584
 30
0.0
 10
3.2012452296
 20
4.1628623482
 30
0.0
 10
3.2437362745
 20
4.1635760848
 30
0.0
 10
3.2893748614
 20
4.1642902108
 30
0.0
 10
3.3562098074
 20
4.1652708206
 30
0.0
 10
3.4467742258
 20
4.1664851645
 30
0.0
 10
3.5632741363
 20
4.1679063384
 30
0.0
 10
3.6894120532
 20
4.169329226
 30
0.0
 10
3.8240243223
 20
4.1707533265
 30
0.0
 10
3.9658705192
 20
4.1721782957
 30
0.0
 10
4.1136433085
 20
4.1736039282
 30
0.0
 10
4.2659800383
 20
4.1750299567
 30
0.0
 10
4.421477128
 20
4.1764562967
 30
0.0
 10
4.5787006058
 20
4.1778827629
 30
0.0
 10
4.7362016736
 20
4.1793092648
 30
0.0
 10
4.892528251
 20
4.1807356596
 30
0.0
 10
5.0462393533
 20
4.1821618287
 30
0.0
 10
5.1959184086
 20
4.1835876411
 30
0.0
 10
5.3401850714
 20
4.1850128622
 30
0.0
 10
5.4777103041
 20
4.1864373693
 30
0.0
 10
5.6072256669
 20
4.1878607348
 30
0.0
 10
5.7275377486
 20
4.1892826308
 30
0.0
 10
5.8375378231
 20
4.1907023468
 30
0.0
 10
5.9362110048
 20
4.1921190728
 30
0.0
 10
6.0109365756
 20
4.1933390368
 30
0.0
 10
6.0643804427
 20
4.1943294851
 30
0.0
 10
6.099489403
 20
4.1950419925
 30
0.0
 10
6.1311611324
 20
4.1957535345
 30
0.0
 10
6.1593230538
 20
4.1964637047
 30
0.0
 10
6.1839097238
 20
4.1971717629
 30
0.0
 10
6.2048645203
 20
4.19787744
 30
0.0
 10
6.2200336111
 20
4.1984913806
 30
0.0
 10
6.2303173759
 20
4.1989951023
 30
0.0
 10
6.2366314429
 20
4.199349542
 30
0.0
 10
6.2420064615
 20
4.1997027877
 30
0.0
 10
6.2464404547
 20
4.2000532404
 30
0.0
 10
6.2499314582
 20
4.2004007955
 30
0.0
 10
6.251940985
 20
4.2006653931
 30
0.0
 10
6.2527848604
 20
4.200811379
 30
0.0
  0
SPLINE
  5
2F7
100
AcDbEntity
  8
0
100
AcDbSpline
 62
7
  6
CONTINUOUS
 70
0
 71
3
 72
13
 73
9
 74
0
 42
0.0000001
 43
0.0000001
 44
0.0000000001
 40
0.0
 40
0.0
 40
0.0
 40
0.0
 40
0.4113244373
 40
0.5748471681
 40
0.7106186473
 40
0.8191731053
 40
0.9015913869
 40
1.0
 40
1.0
 40
1.0
 40
1.0
 10
6.2527848604
 20
4.200811379
 30
0.0
 10
6.2531158336
 20
4.2008686356
 30
0.0
 10
6.2535771824
 20
4.2009559123
 30
0.0
 10
6.2541410918
 20
4.2010957262
 30
0.0
 10
6.2544592694
 20
4.201190784
 30
0.0
 10
6.2547114306
 20
4.2012884519
 30
0.0
 10
6.2549142543
 20
4.2013912863
 30
0.0
 10
6.255045388
 20
4.2015122673
 30
0.0
 10
6.255045388
 20
4.2015926281
 30
0.0
  0
SPLINE
  5
2F8
100
AcDbEntity
  8
0
100
AcDbSpline
 62
7
  6
CONTINUOUS
 70
0
 71
3
 72
65
 73
61
 74
0
 42
0.0000001
 43
0.0000001
 44
0.0000000001
 40
0.0
 40
0.0
 40
0.0
 40
0.0
 40
0.0000673908
 40
0.0001209813
 40
0.000190646
 40
0.0002772063
 40
0.0003810815
 40
0.0006416076
 40
0.0013765226
 40
0.0023987887
 40
0.0037092409
 40
0.0053079056
 40
0.0071938178
 40
0.0093657354
 40
0.0118223581
 40
0.014562352
 40
0.0175843624
 40
0.0208870193
 40
0.0283267511
 40
0.0368626593
 40
0.0464747449
 40
0.0571425056
 40
0.0688405242
 40
0.0815404609
 40
0.0952138986
 40
0.10982986
 40
0.1253528608
 40
0.1417469543
 40
0.1769974115
 40
0.2152514663
 40
0.2561556711
 40
0.2993288798
 40
0.3443703028
 40
0.3908618383
 40
0.4383709091
 40
0.486456763
 40
0.5346721354
 40
0.58256951
 40
0.6297033414
 40
0.6756365544
 40
0.7199412649
 40
0.7622070532
 40
0.8020404511
 40
0.839071469
 40
0.8729571215
 40
0.9033806208
 40
0.9300620742
 40
0.9419192108
 40
0.9527513003
 40
0.9625328526
 40
0.9712395496
 40
0.978852753
 40
0.985355606
 40
0.9907315633
 40
0.9929929776
 40
0.9949687347
 40
0.9966579736
 40
0.9980599211
 40
0.9991739834
 40
1.0
 40
1.0
 40
1.0
 40
1.0
 10
3.0200723124
 20
3.5433797038
 30
0.0
 10
3.0200725679
 20
3.5434510404
 30
0.0
 10
3.0201748496
 20
3.5435621687
 30
0.0
 10
3.0203451076
 20
3.5436596371
 30
0.0
 10
3.0205508516
 20
3.543749453
 30
0.0
 10
3.0208112592
 20
3.5438372347
 30
0.0
 10
3.0212714827
 20
3.5439658341
 30
0.0
 10
3.0224101114
 20
3.5442086221
 30
0.0
 10
3.0245256554
 20
3.5445139114
 30
0.0
 10
3.0277541947
 20
3.5448620733
 30
0.0
 10
3.0319013546
 20
3.5452130461
 30
0.0
 10
3.0369648551
 20
3.5455672169
 30
0.0
 10
3.0429421182
 20
3.5459227057
 30
0.0
 10
3.0498288586
 20
3.5462792852
 30
0.0
 10
3.0576207288
 20
3.5466365222
 30
0.0
 10
3.0663132851
 20
3.5469942459
 30
0.0
 10
3.0759020851
 20
3.5473523459
 30
0.0
 10
3.090464007
 20
3.5478501223
 30
0.0
 10
3.1108620287
 20
3.5484643057
 30
0.0
 10
3.1379387643
 20
3.5491772872
 30
0.0
 10
3.1684335689
 20
3.5498915634
 30
0.0
 10
3.2022764454
 20
3.550606721
 30
0.0
 10
3.2393886362
 20
3.551322569
 30
0.0
 10
3.2796830387
 20
3.5520390264
 30
0.0
 10
3.3230666956
 20
3.5527558704
 30
0.0
 10
3.3694391038
 20
3.5534729607
 30
0.0
 10
3.4186918004
 20
3.5541903812
 30
0.0
 10
3.4897857583
 20
3.5551710999
 30
0.0
 10
3.584940855
 20
3.5563872719
 30
0.0
 10
3.7060406507
 20
3.5578156828
 30
0.0
 10
3.8355276643
 20
3.5592452116
 30
0.0
 10
3.9721998976
 20
3.5606757444
 30
0.0
 10
4.1147869435
 20
3.5621069287
 30
0.0
 10
4.2619639669
 20
3.5635385574
 30
0.0
 10
4.4123638405
 20
3.5649705154
 30
0.0
 10
4.5645885745
 20
3.5664026068
 30
0.0
 10
4.717224368
 20
3.567834759
 30
0.0
 10
4.8688523475
 20
3.5692667965
 30
0.0
 10
5.018064423
 20
3.5706986523
 30
0.0
 10
5.1634732825
 20
3.5721300935
 30
0.0
 10
5.3037287865
 20
3.5735610495
 30
0.0
 10
5.4375269446
 20
3.5749911939
 30
0.0
 10
5.5636250308
 20
3.5764202722
 30
0.0
 10
5.6808516715
 20
3.5778479286
 30
0.0
 10
5.7881166313
 20
3.5792732408
 30
0.0
 10
5.8844249514
 20
3.5806959333
 30
0.0
 10
5.9574151049
 20
3.5819203575
 30
0.0
 10
6.0096673715
 20
3.5829146479
 30
0.0
 10
6.0440321348
 20
3.5836300055
 30
0.0
 10
6.0750612116
 20
3.584344302
 30
0.0
 10
6.1026819355
 20
3.5850575305
 30
0.0
 10
6.1268307419
 20
3.5857687171
 30
0.0
 10
6.1474520704
 20
3.5864773121
 30
0.0
 10
6.1624078499
 20
3.5870936829
 30
0.0
 10
6.1725713981
 20
3.5875990918
 30
0.0
 10
6.1788348195
 20
3.5879550537
 30
0.0
 10
6.1841867922
 20
3.5883097644
 30
0.0
 10
6.1886246322
 20
3.5886619072
 30
0.0
 10
6.1921451106
 20
3.5890112541
 30
0.0
 10
6.1941826338
 20
3.5892765135
 30
0.0
 10
6.1950448883
 20
3.5894216627
 30
0.0
  0
LINE
  5
2F9
100
AcDbEntity
  8
0
100
AcDbLine
 62
7
  6
CONTINUOUS
 10
6.1950448883
 20
3.5894216627
 11
6.1973083173
 21
3.5900120113
  0
LINE
  5
2FA
100
AcDbEntity
  8
0
100
AcDbLine
 62
7
  6
CONTINUOUS
 10
3.0202823164
 20
4.1881723934
 11
3.0227843541
 21
4.1888019626
  0
SPLINE
  5
2FB
100
AcDbEntity
  8
0
100
AcDbSpline
 62
7
  6
CONTINUOUS
 70
0
 71
3
 72
65
 73
61
 74
0
 42
0.0000001
 43
0.0000001
 44
0.0000000001
 40
0.0
 40
0.0
 40
0.0
 40
0.0
 40
0.000856662
 40
0.0020008781
 40
0.0034324344
 40
0.00515073
 40
0.0071549993
 40
0.0094443952
 40
0.0148746582
 40
0.0214290738
 40
0.0290911663
 40
0.0378442503
 40
0.0476693398
 40
0.058541967
 40
0.0704368345
 40
0.0971849674
 40
0.127663155
 40
0.1615913918
 40
0.1986533067
 40
0.2385058684
 40
0.2807798667
 40
0.3250821937
 40
0.3710032538
 40
0.4181159964
 40
0.4659842434
 40
0.5141635289
 40
0.5622073962
 40
0.6096697606
 40
0.6561109974
 40
0.7010998475
 40
0.7442192355
 40
0.7850697545
 40
0.8232712168
 40
0.8584713621
 40
0.8748414739
 40
0.890341508
 40
0.9049354944
 40
0.9185880603
 40
0.9312685206
 40
0.9429484183
 40
0.9535993863
 40
0.9631963129
 40
0.9717187248
 40
0.9791465363
 40
0.982443843
 40
0.985460991
 40
0.9881965974
 40
0.9906492933
 40
0.9928177303
 40
0.9947005936
 40
0.9962966268
 40
0.9976049163
 40
0.9986255336
 40
0.9993592961
 40
0.9996194264
 40
0.9997231477
 40
0.9998095831
 40
0.9998791513
 40
0.9999326732
 40
1.0
 40
1.0
 40
1.0
 40
1.0
 10
3.0227843541
 20
4.1888019626
 30
0.0
 10
3.0236796186
 20
4.1889458718
 30
0.0
 10
3.0257818111
 20
4.1892105765
 30
0.0
 10
3.029398179
 20
4.1895600803
 30
0.0
 10
3.033929948
 20
4.1899122737
 30
0.0
 10
3.0393739972
 20
4.1902668484
 30
0.0
 10
3.0457276426
 20
4.1906226277
 30
0.0
 10
3.0560078728
 20
4.1911272998
 30
0.0
 10
3.071104324
 20
4.1917430829
 30
0.0
 10
3.0918879977
 20
4.1924512799
 30
0.0
 10
3.1161904699
 20
4.1931620019
 30
0.0
 10
3.1439560846
 20
4.19387469
 30
0.0
 10
3.1751209398
 20
4.1945884372
 30
0.0
 10
3.2096120565
 20
4.1953032378
 30
0.0
 10
3.2620138195
 20
4.1962964806
 30
0.0
 10
3.3351668646
 20
4.1975197767
 30
0.0
 10
3.4316414336
 20
4.1989413594
 30
0.0
 10
3.5390339263
 20
4.2003655426
 30
0.0
 10
3.6563497354
 20
4.201792026
 30
0.0
 10
3.7824999267
 20
4.2032199371
 30
0.0
 10
3.9163143749
 20
4.2046488875
 30
0.0
 10
4.0565525276
 20
4.2060786523
 30
0.0
 10
4.2019126303
 20
4.2075088933
 30
0.0
 10
4.3510473502
 20
4.208939545
 30
0.0
 10
4.5025724556
 20
4.2103703774
 30
0.0
 10
4.6550831774
 20
4.2118013204
 30
0.0
 10
4.8071642636
 20
4.2132322029
 30
0.0
 10
4.9574055845
 20
4.2146629483
 30
0.0
 10
5.1044130942
 20
4.2160933684
 30
0.0
 10
5.2468234448
 20
4.217523336
 30
0.0
 10
5.3833158468
 20
4.2189526619
 30
0.0
 10
5.5126235546
 20
4.2203809736
 30
0.0
 10
5.6335483959
 20
4.2218081763
 30
0.0
 10
5.7285619515
 20
4.2230233279
 30
0.0
 10
5.7995475558
 20
4.2240032271
 30
0.0
 10
5.8487235536
 20
4.2247200332
 30
0.0
 10
5.8950227737
 20
4.2254365124
 30
0.0
 10
5.938337164
 20
4.2261527529
 30
0.0
 10
5.9785666142
 20
4.2268685967
 30
0.0
 10
6.0156184125
 20
4.2275838296
 30
0.0
 10
6.0494057143
 20
4.228298388
 30
0.0
 10
6.0798500941
 20
4.2290120552
 30
0.0
 10
6.1068818222
 20
4.229724423
 30
0.0
 10
6.1272457264
 20
4.230338084
 30
0.0
 10
6.141783113
 20
4.2308354453
 30
0.0
 10
6.1513557297
 20
4.2311932392
 30
0.0
 10
6.1600336775
 20
4.2315506574
 30
0.0
 10
6.1678124702
 20
4.2319075888
 30
0.0
 10
6.1746876187
 20
4.2322638632
 30
0.0
 10
6.18065473
 20
4.2326190456
 30
0.0
 10
6.1857095424
 20
4.2329729185
 30
0.0
 10
6.1898495649
 20
4.2333236011
 30
0.0
 10
6.1930726034
 20
4.2336714664
 30
0.0
 10
6.1951846005
 20
4.2339764955
 30
0.0
 10
6.196321342
 20
4.234219073
 30
0.0
 10
6.1967808163
 20
4.2343475611
 30
0.0
 10
6.1970408098
 20
4.2344352699
 30
0.0
 10
6.1972462269
 20
4.2345250082
 30
0.0
 10
6.1974162456
 20
4.2346224127
 30
0.0
 10
6.1975183428
 20
4.2347334375
 30
0.0
 10
6.1975186057
 20
4.2348047009
 30
0.0
  0
SPLINE
  5
2FC
100
AcDbEntity
  8
0
100
AcDbSpline
 62
7
  6
CONTINUOUS
 70
0
 71
3
 72
13
 73
9
 74
0
 42
0.0000001
 43
0.0000001
 44
0.0000000001
 40
0.0
 40
0.0
 40
0.0
 40
0.0
 40
0.0610063402
 40
0.140729055
 40
0.2392311869
 40
0.3562654249
 40
0.644461552
 40
1.0
 40
1.0
 40
1.0
 40
1.0
 10
6.4928094312
 20
4.9103281815
 30
0.0
 10
6.4924942205
 20
4.9101436436
 30
0.0
 10
6.4917290796
 20
4.9097843451
 30
0.0
 10
6.4903848212
 20
4.9092885289
 30
0.0
 10
6.4886939683
 20
4.9087699219
 30
0.0
 10
6.4857780324
 20
4.9079980361
 30
0.0
 10
6.481325332
 20
4.907029708
 30
0.0
 10
6.4775332215
 20
4.9063387683
 30
0.0
 10
6.4754347195
 20
4.9059816402
 30
0.0
  0
SPLINE
  5
2FD
100
AcDbEntity
  8
0
100
AcDbSpline
 62
7
  6
CONTINUOUS
 70
0
 71
3
 72
62
 73
58
 74
0
 42
0.0000001
 43
0.0000001
 44
0.0000000001
 40
0.0
 40
0.0
 40
0.0
 40
0.0
 40
0.0001414557
 40
0.0003513113
 40
0.0006313635
 40
0.0009822905
 40
0.0014043946
 40
0.0018978174
 40
0.0030988054
 40
0.0045853487
 40
0.0063572108
 40
0.0084137818
 40
0.0107536834
 40
0.0133753742
 40
0.01627729
 40
0.0229154649
 40
0.0306548163
 40
0.0394766823
 40
0.0493599379
 40
0.0602832415
 40
0.0722214497
 40
0.0851457627
 40
0.0990272081
 40
0.1138346189
 40
0.1460848312
 40
0.1816009556
 40
0.2200539
 40
0.2610903708
 40
0.3043320043
 40
0.3493796835
 40
0.3958190948
 40
0.4432214281
 40
0.4911502444
 40
0.5391635164
 40
0.5868189147
 40
0.6336770072
 40
0.6793058842
 40
0.723285478
 40
0.7652093904
 40
0.804692502
 40
0.8413700058
 40
0.8749039356
 40
0.9049864095
 40
0.9313382502
 40
0.9430392317
 40
0.9537188084
 40
0.9633531862
 40
0.9719211767
 40
0.9794017766
 40
0.9857777416
 40
0.9910361379
 40
0.9932423382
 40
0.9951644998
 40
0.9968015706
 40
0.9981531884
 40
0.9992192229
 40
1.0
 40
1.0
 40
1.0
 40
1.0
 10
2.9627488889
 20
4.0612018417
 30
0.0
 10
2.9628833575
 20
4.0612792516
 30
0.0
 10
2.9632483346
 20
4.0614131605
 30
0.0
 10
2.9639184731
 20
4.0615849316
 30
0.0
 10
2.9648251741
 20
4.0617586086
 30
0.0
 10
2.9659667483
 20
4.0619344347
 30
0.0
 10
2.9673447809
 20
4.0621111407
 30
0.0
 10
2.9696525044
 20
4.0623645398
 30
0.0
 10
2.9731283667
 20
4.0626719586
 30
0.0
 10
2.9780071174
 20
4.0630242917
 30
0.0
 10
2.9838263114
 20
4.0633780365
 30
0.0
 10
2.9905828973
 20
4.0637329414
 30
0.0
 10
2.9982727211
 20
4.064088544
 30
0.0
 10
3.0068906241
 20
4.0644447052
 30
0.0
 10
3.0202212262
 20
4.0649426791
 30
0.0
 10
3.0391647001
 20
4.0655554161
 30
0.0
 10
3.0646015555
 20
4.0662642489
 30
0.0
 10
3.093599001
 20
4.066974719
 30
0.0
 10
3.126089711
 20
4.0676865604
 30
0.0
 10
3.1619993585
 20
4.0683991584
 30
0.0
 10
3.2012452296
 20
4.0691123482
 30
0.0
 10
3.2437362745
 20
4.0698260848
 30
0.0
 10
3.2893748614
 20
4.0705402108
 30
0.0
 10
3.3562098074
 20
4.0715208206
 30
0.0
 10
3.4467742258
 20
4.0727351645
 30
0.0
 10
3.5632741363
 20
4.0741563384
 30
0.0
 10
3.6894120532
 20
4.075579226
 30
0.0
 10
3.8240243223
 20
4.0770033265
 30
0.0
 10
3.9658705192
 20
4.0784282957
 30
0.0
 10
4.1136433085
 20
4.0798539282
 30
0.0
 10
4.2659800383
 20
4.0812799567
 30
0.0
 10
4.421477128
 20
4.0827062967
 30
0.0
 10
4.5787006058
 20
4.0841327629
 30
0.0
 10
4.7362016736
 20
4.0855592648
 30
0.0
 10
4.892528251
 20
4.0869856596
 30
0.0
 10
5.0462393533
 20
4.0884118287
 30
0.0
 10
5.1959184086
 20
4.0898376411
 30
0.0
 10
5.3401850714
 20
4.0912628622
 30
0.0
 10
5.4777103041
 20
4.0926873693
 30
0.0
 10
5.6072256669
 20
4.0941107348
 30
0.0
 10
5.7275377486
 20
4.0955326308
 30
0.0
 10
5.8375378231
 20
4.0969523468
 30
0.0
 10
5.9362110048
 20
4.0983690728
 30
0.0
 10
6.0109365756
 20
4.0995890368
 30
0.0
 10
6.0643804427
 20
4.1005794851
 30
0.0
 10
6.099489403
 20
4.1012919925
 30
0.0
 10
6.1311611324
 20
4.1020035345
 30
0.0
 10
6.1593230538
 20
4.1027137047
 30
0.0
 10
6.1839097238
 20
4.1034217629
 30
0.0
 10
6.2048645203
 20
4.10412744
 30
0.0
 10
6.2200336111
 20
4.1047413806
 30
0.0
 10
6.2303173759
 20
4.1052451023
 30
0.0
 10
6.2366314429
 20
4.105599542
 30
0.0
 10
6.2420064615
 20
4.1059527877
 30
0.0
 10
6.2464404547
 20
4.1063032404
 30
0.0
 10
6.2499314582
 20
4.1066507955
 30
0.0
 10
6.251940985
 20
4.1069153931
 30
0.0
 10
6.2527848604
 20
4.107061379
 30
0.0
  0
SPLINE
  5
2FE
100
AcDbEntity
  8
0
100
AcDbSpline
 62
7
  6
CONTINUOUS
 70
0
 71
3
 72
13
 73
9
 74
0
 42
0.0000001
 43
0.0000001
 44
0.0000000001
 40
0.0
 40
0.0
 40
0.0
 40
0.0
 40
0.4113244373
 40
0.5748471681
 40
0.7106186473
 40
0.8191731053
 40
0.9015913869
 40
1.0
 40
1.0
 40
1.0
 40
1.0
 10
6.2527848604
 20
4.107061379
 30
0.0
 10
6.2531158336
 20
4.1071186356
 30
0.0
 10
6.2535771824
 20
4.1072059123
 30
0.0
 10
6.2541410918
 20
4.1073457262
 30
0.0
 10
6.2544592694
 20
4.107440784
 30
0.0
 10
6.2547114306
 20
4.1075384519
 30
0.0
 10
6.2549142543
 20
4.1076412863
 30
0.0
 10
6.255045388
 20
4.1077622673
 30
0.0
 10
6.255045388
 20
4.1078426281
 30
0.0
  0
SPLINE
  5
2FF
100
AcDbEntity
  8
0
100
AcDbSpline
 62
7
  6
CONTINUOUS
 70
0
 71
3
 72
71
 73
67
 74
0
 42
0.0000001
 43
0.0000001
 44
0.0000000001
 40
0.0
 40
0.0
 40
0.0
 40
0.0
 40
0.0000681095
 40
0.0001225062
 40
0.0001933015
 40
0.0002813167
 40
0.0003869685
 40
0.0006519986
 40
0.0013996198
 40
0.002439322
 40
0.0037717001
 40
0.0053967563
 40
0.007314177
 40
0.0095228211
 40
0.0120211286
 40
0.0148075032
 40
0.0178803273
 40
0.0212379699
 40
0.024878791
 40
0.0288009592
 40
0.0374788005
 40
0.0472494487
 40
0.0580906274
 40
0.0699781081
 40
0.0828821609
 40
0.0967720783
 40
0.1116166497
 40
0.1273800868
 40
0.1440241313
 40
0.179798218
 40
0.218599731
 40
0.2600636774
 40
0.3037962794
 40
0.3493854309
 40
0.3963994858
 40
0.4443941255
 40
0.4929157772
 40
0.5415055331
 40
0.5897041866
 40
0.6370558487
 40
0.6831134281
 40
0.727440478
 40
0.7696193836
 40
0.8092499338
 40
0.8459585316
 40
0.8793982229
 40
0.8947918055
 40
0.9092517065
 40
0.9227450829
 40
0.9352392292
 40
0.9467034907
 40
0.9571125267
 40
0.9664418621
 40
0.9746677074
 40
0.9817717886
 40
0.9848983253
 40
0.9877386245
 40
0.9902907766
 40
0.9925529774
 40
0.99452417
 40
0.9962037034
 40
0.9975910244
 40
0.9986857781
 40
0.999488098
 40
0.9997800755
 40
1.0
 40
1.0
 40
1.0
 40
1.0
 10
3.0200706367
 20
3.4496297031
 30
0.0
 10
3.0200708096
 20
3.4497018429
 30
0.0
 10
3.0201753523
 20
3.449814037
 30
0.0
 10
3.0203483658
 20
3.4499121041
 30
0.0
 10
3.0205579167
 20
3.4500027185
 30
0.0
 10
3.0208230855
 20
3.4500912427
 30
0.0
 10
3.0212918042
 20
3.4502209735
 30
0.0
 10
3.0224512298
 20
3.4504658579
 30
0.0
 10
3.02460474
 20
3.4507737853
 30
0.0
 10
3.0278903295
 20
3.4511249755
 30
0.0
 10
3.0321095692
 20
3.4514790346
 30
0.0
 10
3.0372605841
 20
3.4518363887
 30
0.0
 10
3.0433415816
 20
3.452194973
 30
0.0
 10
3.0503487884
 20
3.4525546455
 30
0.0
 10
3.0582774073
 20
3.4529149881
 30
0.0
 10
3.0671221598
 20
3.4532758315
 30
0.0
 10
3.0768777688
 20
3.4536370337
 30
0.0
 10
3.0875389421
 20
3.4539985049
 30
0.0
 10
3.0991001889
 20
3.4543601945
 30
0.0
 10
3.1162948775
 20
3.4548596176
 30
0.0
 10
3.1399813669
 20
3.4554778562
 30
0.0
 10
3.1709959955
 20
3.4561984256
 30
0.0
 10
3.2054110061
 20
3.4569198924
 30
0.0
 10
3.2431454949
 20
3.4576419715
 30
0.0
 10
3.2841096705
 20
3.4583646458
 30
0.0
 10
3.3282063732
 20
3.4590877825
 30
0.0
 10
3.3753320476
 20
3.4598111588
 30
0.0
 10
3.4253751505
 20
3.4605348114
 30
0.0
 10
3.4975847901
 20
3.4615239718
 30
0.0
 10
3.5941948562
 20
3.4627506169
 30
0.0
 10
3.7170929434
 20
3.4641914542
 30
0.0
 10
3.8484210403
 20
3.4656334061
 30
0.0
 10
3.9869388495
 20
3.467076405
 30
0.0
 10
4.1313355087
 20
3.4685200034
 30
0.0
 10
4.2802466362
 20
3.4699640875
 30
0.0
 10
4.4322639425
 20
3.4714084596
 30
0.0
 10
4.5859502691
 20
3.4728529752
 30
0.0
 10
4.7398526919
 20
3.4742975186
 30
0.0
 10
4.892515834
 20
3.4757419398
 30
0.0
 10
5.0424968316
 20
3.4771861359
 30
0.0
 10
5.1883769225
 20
3.4786298839
 30
0.0
 10
5.3287778733
 20
3.4800730967
 30
0.0
 10
5.4623710916
 20
3.4815153981
 30
0.0
 10
5.5878945326
 20
3.4829565514
 30
0.0
 10
5.7041609566
 20
3.4843961278
 30
0.0
 10
5.7947567119
 20
3.4856251875
 30
0.0
 10
5.8617881056
 20
3.4866175331
 30
0.0
 10
5.9076944504
 20
3.487340881
 30
0.0
 10
5.9505293777
 20
3.4880637854
 30
0.0
 10
5.9901909141
 20
3.4887862139
 30
0.0
 10
6.02658501
 20
3.4895081528
 30
0.0
 10
6.0596263061
 20
3.4902292642
 30
0.0
 10
6.0892366785
 20
3.4909491032
 30
0.0
 10
6.1153453864
 20
3.4916676504
 30
0.0
 10
6.1348843202
 20
3.4922878775
 30
0.0
 10
6.1487196167
 20
3.4927912525
 30
0.0
 10
6.1577355424
 20
3.4931521753
 30
0.0
 10
6.1658352017
 20
3.4935125881
 30
0.0
 10
6.1730133266
 20
3.4938724444
 30
0.0
 10
6.1792659722
 20
3.4942313109
 30
0.0
 10
6.1845902036
 20
3.4945890137
 30
0.0
 10
6.18898417
 20
3.494943629
 30
0.0
 10
6.1924449567
 20
3.4952960118
 30
0.0
 10
6.1947445309
 20
3.4956041268
 30
0.0
 10
6.196111408
 20
3.4958682316
 30
0.0
 10
6.1966377258
 20
3.4960021106
 30
0.0
 10
6.1968592218
 20
3.4960742229
 30
0.0
  0
LINE
  5
300
100
AcDbEntity
  8
0
100
AcDbLine
 62
7
  6
CONTINUOUS
 10
6.1968592218
 20
3.4960742229
 11
6.1973099901
 21
3.4962620106
  0
SPLINE
  5
301
100
AcDbEntity
  8
0
100
AcDbSpline
 62
7
  6
CONTINUOUS
 70
0
 71
3
 72
10
 73
6
 74
0
 42
0.0000001
 43
0.0000001
 44
0.0000000001
 40
0.0
 40
0.0
 40
0.0
 40
0.0
 40
0.196456669
 40
0.4295987009
 40
1.0
 40
1.0
 40
1.0
 40
1.0
 10
6.3498810785
 20
4.8994953073
 30
0.0
 10
6.3507020537
 20
4.8993010721
 30
0.0
 10
6.3525084375
 20
4.8989234329
 30
0.0
 10
6.3567381514
 20
4.8981795592
 30
0.0
 10
6.3601564939
 20
4.8977009791
 30
0.0
 10
6.3625855755
 20
4.8973856634
 30
0.0
  0
SPLINE
  5
302
100
AcDbEntity
  8
0
100
AcDbSpline
 62
7
  6
CONTINUOUS
 70
0
 71
3
 72
9
 73
5
 74
0
 42
0.0000001
 43
0.0000001
 44
0.0000000001
 40
0.0
 40
0.0
 40
0.0
 40
0.0
 40
0.457818566
 40
1.0
 40
1.0
 40
1.0
 40
1.0
 10
6.3625855755
 20
4.8973856634
 30
0.0
 10
6.3666715538
 20
4.8968552683
 30
0.0
 10
6.3756169
 20
4.8958565517
 30
0.0
 10
6.3845760078
 20
4.8950016836
 30
0.0
 10
6.3894353847
 20
4.8945589318
 30
0.0
  0
SPLINE
  5
303
100
AcDbEntity
  8
0
100
AcDbSpline
 62
7
  6
CONTINUOUS
 70
0
 71
3
 72
65
 73
61
 74
0
 42
0.0000001
 43
0.0000001
 44
0.0000000001
 40
0.0
 40
0.0
 40
0.0
 40
0.0
 40
0.0000673323
 40
0.0001209636
 40
0.0001907614
 40
0.0002775529
 40
0.0003817532
 40
0.0006431867
 40
0.0013807532
 40
0.0024064095
 40
0.0037205353
 40
0.0053229173
 40
0.0072131112
 40
0.0093905543
 40
0.0118541707
 40
0.0146022251
 40
0.0176329158
 40
0.0209444274
 40
0.0284026025
 40
0.0369613963
 40
0.0465999528
 40
0.0572948238
 40
0.0690224538
 40
0.0817560578
 40
0.0954643866
 40
0.1101158569
 40
0.1256777871
 40
0.1421126889
 40
0.1774459777
 40
0.2157884809
 40
0.2567821089
 40
0.3000448628
 40
0.3451745036
 40
0.391749475
 40
0.4393368311
 40
0.4874924669
 40
0.5357682291
 40
0.5837138593
 40
0.630883247
 40
0.6768361587
 40
0.7211451555
 40
0.7633971486
 40
0.8031980508
 40
0.8401784177
 40
0.8739916186
 40
0.9043250865
 40
0.930894439
 40
0.9426897348
 40
0.9534531865
 40
0.9631614428
 40
0.9717922156
 40
0.9793237061
 40
0.9857392587
 40
0.9910255039
 40
0.99324104
 40
0.9951694047
 40
0.9968096621
 40
0.9981614916
 40
0.9992247974
 40
1.0
 40
1.0
 40
1.0
 40
1.0
 10
3.0200709195
 20
3.3558797013
 30
0.0
 10
3.0200706938
 20
3.3559509846
 30
0.0
 10
3.0201728191
 20
3.3560626034
 30
0.0
 10
3.0203431985
 20
3.3561600499
 30
0.0
 10
3.0205493968
 20
3.3562500177
 30
0.0
 10
3.0208105707
 20
3.3563378955
 30
0.0
 10
3.0212724109
 20
3.3564666904
 30
0.0
 10
3.0224153161
 20
3.3567097969
 30
0.0
 10
3.0245384939
 20
3.3570154575
 30
0.0
 10
3.0277777152
 20
3.3573640787
 30
0.0
 10
3.0319367821
 20
3.3577155551
 30
0.0
 10
3.037013234
 20
3.3580703118
 30
0.0
 10
3.0430055207
 20
3.3584263594
 30
0.0
 10
3.0499108664
 20
3.3587834466
 30
0.0
 10
3.0577254539
 20
3.3591411477
 30
0.0
 10
3.0664441741
 20
3.3594993514
 30
0.0
 10
3.0760612138
 20
3.3598579355
 30
0.0
 10
3.0906629573
 20
3.3603563917
 30
0.0
 10
3.1111165273
 20
3.3609716086
 30
0.0
 10
3.138268263
 20
3.361685519
 30
0.0
 10
3.1688476495
 20
3.3624006949
 30
0.0
 10
3.2027826214
 20
3.3631169623
 30
0.0
 10
3.2399949162
 20
3.3638338727
 30
0.0
 10
3.2803980409
 20
3.3645512476
 30
0.0
 10
3.3238970288
 20
3.3652691026
 30
0.0
 10
3.3703906926
 20
3.3659872987
 30
0.0
 10
3.4197712536
 20
3.3667056848
 30
0.0
 10
3.4910457717
 20
3.3676877141
 30
0.0
 10
3.5864367108
 20
3.3689056967
 30
0.0
 10
3.7078269025
 20
3.370336028
 30
0.0
 10
3.8376124144
 20
3.3717676122
 30
0.0
 10
3.9745837555
 20
3.373200167
 30
0.0
 10
4.1174642733
 20
3.3746333351
 30
0.0
 10
4.264923392
 20
3.3760670181
 30
0.0
 10
4.415586226
 20
3.3775009558
 30
0.0
 10
4.5680497372
 20
3.3789350865
 30
0.0
 10
4.7208925638
 20
3.3803692235
 30
0.0
 10
4.8726912205
 20
3.381803297
 30
0.0
 10
5.0220306058
 20
3.3832371147
 30
0.0
 10
5.1675197702
 20
3.3846705946
 30
0.0
 10
5.3078027166
 20
3.3861035043
 30
0.0
 10
5.441572288
 20
3.3875356236
 30
0.0
 10
5.5675827055
 20
3.3889667086
 30
0.0
 10
5.6846585197
 20
3.390396185
 30
0.0
 10
5.7917105441
 20
3.391823556
 30
0.0
 10
5.8877395623
 20
3.3932478811
 30
0.0
 10
5.9604588579
 20
3.3944744086
 30
0.0
 10
6.0124604472
 20
3.3954702443
 30
0.0
 10
6.0466134973
 20
3.3961866093
 30
0.0
 10
6.0774155375
 20
3.3969019276
 30
0.0
 10
6.1047949622
 20
3.3976158687
 30
0.0
 10
6.1286871993
 20
3.3983277977
 30
0.0
 10
6.1490368814
 20
3.3990372785
 30
0.0
 10
6.1637582449
 20
3.3996545557
 30
0.0
 10
6.1737289851
 20
3.4001610802
 30
0.0
 10
6.1798423008
 20
3.4005173041
 30
0.0
 10
6.1850394514
 20
3.4008722572
 30
0.0
 10
6.1893187258
 20
3.4012243018
 30
0.0
 10
6.1926781784
 20
3.4015734346
 30
0.0
 10
6.1946075907
 20
3.4018395575
 30
0.0
 10
6.1954149513
 20
3.4019868929
 30
0.0
  0
LINE
  5
304
100
AcDbEntity
  8
0
100
AcDbLine
 62
7
  6
CONTINUOUS
 10
6.1954149513
 20
3.4019868929
 11
6.1973096946
 21
3.4025120088
  0
SPLINE
  5
305
100
AcDbEntity
  8
0
100
AcDbSpline
 62
7
  6
CONTINUOUS
 70
0
 71
3
 72
13
 73
9
 74
0
 42
0.0000001
 43
0.0000001
 44
0.0000000001
 40
0.0
 40
0.0
 40
0.0
 40
0.0
 40
0.0526508313
 40
0.1253013944
 40
0.2185490455
 40
0.3326672092
 40
0.6240222573
 40
1.0
 40
1.0
 40
1.0
 40
1.0
 10
3.0202835373
 20
4.0944223945
 30
0.0
 10
3.0203812803
 20
4.0944788644
 30
0.0
 10
3.0206309199
 20
4.0945823879
 30
0.0
 10
3.021079782
 20
4.0947168095
 30
0.0
 10
3.0216650329
 20
4.0948525209
 30
0.0
 10
3.0227157685
 20
4.0950512307
 30
0.0
 10
3.0243749274
 20
4.0952890365
 30
0.0
 10
3.0257966927
 20
4.0954496332
 30
0.0
 10
3.0265984855
 20
4.0955327846
 30
0.0
  0
SPLINE
  5
306
100
AcDbEntity
  8
0
100
AcDbSpline
 62
7
  6
CONTINUOUS
 70
0
 71
3
 72
62
 73
58
 74
0
 42
0.0000001
 43
0.0000001
 44
0.0000000001
 40
0.0
 40
0.0
 40
0.0
 40
0.0
 40
0.0012282142
 40
0.0027383537
 40
0.0066007948
 40
0.0115792949
 40
0.0176648098
 40
0.0248436441
 40
0.0330981173
 40
0.0424103531
 40
0.0527606442
 40
0.0764740241
 40
0.104024899
 40
0.1351607518
 40
0.1696015459
 40
0.207032384
 40
0.2471146366
 40
0.2894839731
 40
0.3337551812
 40
0.379527082
 40
0.426383
 40
0.4738981817
 40
0.5216405005
 40
0.5691768349
 40
0.6160748892
 40
0.6619095245
 40
0.7062634224
 40
0.7487348346
 40
0.7889373173
 40
0.826505834
 40
0.8611001228
 40
0.8771818575
 40
0.89240418
 40
0.9067335209
 40
0.9201363643
 40
0.9325814912
 40
0.9440422816
 40
0.9544926728
 40
0.963907281
 40
0.9722658511
 40
0.9795505296
 40
0.9827846027
 40
0.9857435981
 40
0.9884259901
 40
0.9908306608
 40
0.9929565192
 40
0.9948025077
 40
0.9963676267
 40
0.9976509856
 40
0.9986520125
 40
0.9993714199
 40
0.9996264084
 40
0.999728081
 40
0.9998128209
 40
0.9998810508
 40
0.9999335944
 40
1.0
 40
1.0
 40
1.0
 40
1.0
 10
3.0265984855
 20
4.0955327846
 30
0.0
 10
3.0278900209
 20
4.0956667255
 30
0.0
 10
3.0307737827
 20
4.0959242793
 30
0.0
 10
3.0377336687
 20
4.0964332161
 30
0.0
 10
3.0486605253
 20
4.0970415004
 30
0.0
 10
3.064425475
 20
4.0977366989
 30
0.0
 10
3.0836992402
 20
4.0984355796
 30
0.0
 10
3.1064380414
 20
4.0991382595
 30
0.0
 10
3.1325894767
 20
4.0998429214
 30
0.0
 10
3.1620947792
 20
4.1005491074
 30
0.0
 10
3.2079409705
 20
4.1015371259
 30
0.0
 10
3.2730684025
 20
4.1027502217
 30
0.0
 10
3.360170144
 20
4.1041540804
 30
0.0
 10
3.4586140967
 20
4.1055617144
 30
0.0
 10
3.5675040111
 20
4.1069719722
 30
0.0
 10
3.6858527162
 20
4.1083841576
 30
0.0
 10
3.8125839754
 20
4.1097976046
 30
0.0
 10
3.9465472533
 20
4.1112119975
 30
0.0
 10
4.0865259113
 20
4.1126270966
 30
0.0
 10
4.2312479906
 20
4.1140426276
 30
0.0
 10
4.379399739
 20
4.115458519
 30
0.0
 10
4.5296346957
 20
4.116874557
 30
0.0
 10
4.6805890163
 20
4.1182906848
 30
0.0
 10
4.8308908849
 20
4.1197067288
 30
0.0
 10
4.9791758707
 20
4.1211226323
 30
0.0
 10
5.1240962473
 20
4.1225381804
 30
0.0
 10
5.2643365741
 20
4.1239533106
 30
0.0
 10
5.3986223091
 20
4.125367739
 30
0.0
 10
5.5257341656
 20
4.1267812318
 30
0.0
 10
5.6445178315
 20
4.1281935437
 30
0.0
 10
5.7378018113
 20
4.1293962414
 30
0.0
 10
5.807462485
 20
4.130366012
 30
0.0
 10
5.8557006869
 20
4.1310753597
 30
0.0
 10
5.9011064589
 20
4.1317843804
 30
0.0
 10
5.943575818
 20
4.1324930821
 30
0.0
 10
5.9830121132
 20
4.1332014692
 30
0.0
 10
6.0193265588
 20
4.1339092844
 30
0.0
 10
6.0524365091
 20
4.1346163348
 30
0.0
 10
6.0822660102
 20
4.1353225121
 30
0.0
 10
6.1087477169
 20
4.1360274994
 30
0.0
 10
6.128695569
 20
4.1366348071
 30
0.0
 10
6.1429356977
 20
4.1371269153
 30
0.0
 10
6.1523121302
 20
4.1374809533
 30
0.0
 10
6.1608110526
 20
4.1378346464
 30
0.0
 10
6.1684283716
 20
4.1381878593
 30
0.0
 10
6.1751604126
 20
4.1385404293
 30
0.0
 10
6.1810036041
 20
4.1388919241
 30
0.0
 10
6.1859542578
 20
4.1392421344
 30
0.0
 10
6.1900095105
 20
4.1395890611
 30
0.0
 10
6.1931663961
 20
4.1399332479
 30
0.0
 10
6.1952344792
 20
4.1402351142
 30
0.0
 10
6.1963470372
 20
4.1404751966
 30
0.0
 10
6.1967965139
 20
4.1406023435
 30
0.0
 10
6.1970508238
 20
4.1406891531
 30
0.0
 10
6.1972516234
 20
4.1407779541
 30
0.0
 10
6.1974181698
 20
4.140874566
 30
0.0
 10
6.1975173263
 20
4.1409844983
 30
0.0
 10
6.1975173909
 20
4.141054702
 30
0.0
  0
SPLINE
  5
307
100
AcDbEntity
  8
0
100
AcDbSpline
 62
7
  6
CONTINUOUS
 70
0
 71
3
 72
62
 73
58
 74
0
 42
0.0000001
 43
0.0000001
 44
0.0000000001
 40
0.0
 40
0.0
 40
0.0
 40
0.0
 40
0.0001414557
 40
0.0003513113
 40
0.0006313635
 40
0.0009822905
 40
0.0014043946
 40
0.0018978174
 40
0.0030988054
 40
0.0045853487
 40
0.0063572108
 40
0.0084137818
 40
0.0107536834
 40
0.0133753742
 40
0.01627729
 40
0.0229154649
 40
0.0306548163
 40
0.0394766823
 40
0.0493599379
 40
0.0602832415
 40
0.0722214497
 40
0.0851457627
 40
0.0990272081
 40
0.1138346189
 40
0.1460848312
 40
0.1816009556
 40
0.2200539
 40
0.2610903708
 40
0.3043320043
 40
0.3493796835
 40
0.3958190948
 40
0.4432214281
 40
0.4911502444
 40
0.5391635164
 40
0.5868189147
 40
0.6336770072
 40
0.6793058842
 40
0.723285478
 40
0.7652093904
 40
0.804692502
 40
0.8413700058
 40
0.8749039356
 40
0.9049864095
 40
0.9313382502
 40
0.9430392317
 40
0.9537188084
 40
0.9633531862
 40
0.9719211767
 40
0.9794017766
 40
0.9857777416
 40
0.9910361379
 40
0.9932423382
 40
0.9951644998
 40
0.9968015706
 40
0.9981531884
 40
0.9992192229
 40
1.0
 40
1.0
 40
1.0
 40
1.0
 10
2.9627488889
 20
4.4362018417
 30
0.0
 10
2.9628833575
 20
4.4362792516
 30
0.0
 10
2.9632483346
 20
4.4364131605
 30
0.0
 10
2.9639184731
 20
4.4365849316
 30
0.0
 10
2.9648251741
 20
4.4367586086
 30
0.0
 10
2.9659667483
 20
4.4369344347
 30
0.0
 10
2.9673447809
 20
4.4371111407
 30
0.0
 10
2.9696525044
 20
4.4373645398
 30
0.0
 10
2.9731283667
 20
4.4376719586
 30
0.0
 10
2.9780071174
 20
4.4380242917
 30
0.0
 10
2.9838263114
 20
4.4383780365
 30
0.0
 10
2.9905828973
 20
4.4387329414
 30
0.0
 10
2.9982727211
 20
4.439088544
 30
0.0
 10
3.0068906241
 20
4.4394447052
 30
0.0
 10
3.0202212262
 20
4.4399426791
 30
0.0
 10
3.0391647001
 20
4.4405554161
 30
0.0
 10
3.0646015555
 20
4.4412642489
 30
0.0
 10
3.093599001
 20
4.441974719
 30
0.0
 10
3.126089711
 20
4.4426865604
 30
0.0
 10
3.1619993585
 20
4.4433991584
 30
0.0
 10
3.2012452296
 20
4.4441123482
 30
0.0
 10
3.2437362745
 20
4.4448260848
 30
0.0
 10
3.2893748614
 20
4.4455402108
 30
0.0
 10
3.3562098074
 20
4.4465208206
 30
0.0
 10
3.4467742258
 20
4.4477351645
 30
0.0
 10
3.5632741363
 20
4.4491563384
 30
0.0
 10
3.6894120532
 20
4.450579226
 30
0.0
 10
3.8240243223
 20
4.4520033265
 30
0.0
 10
3.9658705192
 20
4.4534282957
 30
0.0
 10
4.1136433085
 20
4.4548539282
 30
0.0
 10
4.2659800383
 20
4.4562799567
 30
0.0
 10
4.421477128
 20
4.4577062967
 30
0.0
 10
4.5787006058
 20
4.4591327629
 30
0.0
 10
4.7362016736
 20
4.4605592648
 30
0.0
 10
4.892528251
 20
4.4619856596
 30
0.0
 10
5.0462393533
 20
4.4634118287
 30
0.0
 10
5.1959184086
 20
4.4648376411
 30
0.0
 10
5.3401850714
 20
4.4662628622
 30
0.0
 10
5.4777103041
 20
4.4676873693
 30
0.0
 10
5.6072256669
 20
4.4691107348
 30
0.0
 10
5.7275377486
 20
4.4705326308
 30
0.0
 10
5.8375378231
 20
4.4719523468
 30
0.0
 10
5.9362110048
 20
4.4733690728
 30
0.0
 10
6.0109365756
 20
4.4745890368
 30
0.0
 10
6.0643804427
 20
4.4755794851
 30
0.0
 10
6.099489403
 20
4.4762919925
 30
0.0
 10
6.1311611324
 20
4.4770035345
 30
0.0
 10
6.1593230538
 20
4.4777137047
 30
0.0
 10
6.1839097238
 20
4.4784217629
 30
0.0
 10
6.2048645203
 20
4.47912744
 30
0.0
 10
6.2200336111
 20
4.4797413806
 30
0.0
 10
6.2303173759
 20
4.4802451023
 30
0.0
 10
6.2366314429
 20
4.480599542
 30
0.0
 10
6.2420064615
 20
4.4809527877
 30
0.0
 10
6.2464404547
 20
4.4813032404
 30
0.0
 10
6.2499314582
 20
4.4816507955
 30
0.0
 10
6.251940985
 20
4.4819153931
 30
0.0
 10
6.2527848604
 20
4.482061379
 30
0.0
  0
SPLINE
  5
308
100
AcDbEntity
  8
0
100
AcDbSpline
 62
7
  6
CONTINUOUS
 70
0
 71
3
 72
13
 73
9
 74
0
 42
0.0000001
 43
0.0000001
 44
0.0000000001
 40
0.0
 40
0.0
 40
0.0
 40
0.0
 40
0.4113244373
 40
0.5748471681
 40
0.7106186473
 40
0.8191731053
 40
0.9015913869
 40
1.0
 40
1.0
 40
1.0
 40
1.0
 10
6.2527848604
 20
4.482061379
 30
0.0
 10
6.2531158336
 20
4.4821186356
 30
0.0
 10
6.2535771824
 20
4.4822059123
 30
0.0
 10
6.2541410918
 20
4.4823457262
 30
0.0
 10
6.2544592694
 20
4.482440784
 30
0.0
 10
6.2547114306
 20
4.4825384519
 30
0.0
 10
6.2549142543
 20
4.4826412863
 30
0.0
 10
6.255045388
 20
4.4827622673
 30
0.0
 10
6.255045388
 20
4.4828426281
 30
0.0
  0
LINE
  5
309
100
AcDbEntity
  8
0
100
AcDbLine
 62
7
  6
CONTINUOUS
 10
6.3930118648
 20
4.9069963347
 11
6.4447143299
 21
4.9009228817
  0
SPLINE
  5
30A
100
AcDbEntity
  8
0
100
AcDbSpline
 62
7
  6
CONTINUOUS
 70
0
 71
3
 72
12
 73
8
 74
0
 42
0.0000001
 43
0.0000001
 44
0.0000000001
 40
0.0
 40
0.0
 40
0.0
 40
0.0
 40
0.0607406199
 40
0.1392020985
 40
0.3511320127
 40
0.6378379655
 40
1.0
 40
1.0
 40
1.0
 40
1.0
 10
3.0202829361
 20
4.4694223961
 30
0.0
 10
3.0203521169
 20
4.4694622744
 30
0.0
 10
3.0205194228
 20
4.4695381378
 30
0.0
 10
3.0209563909
 20
4.4696876502
 30
0.0
 10
3.0216958409
 20
4.469863341
 30
0.0
 10
3.022809619
 20
4.4700634776
 30
0.0
 10
3.0236543785
 20
4.470183674
 30
0.0
 10
3.0241264172
 20
4.470245797
 30
0.0
  0
SPLINE
  5
30B
100
AcDbEntity
  8
0
100
AcDbSpline
 62
7
  6
CONTINUOUS
 70
0
 71
3
 72
64
 73
60
 74
0
 42
0.0000001
 43
0.0000001
 44
0.0000000001
 40
0.0
 40
0.0
 40
0.0
 40
0.0
 40
0.001006524
 40
0.0022983436
 40
0.0038755965
 40
0.0057375143
 40
0.0103102155
 40
0.0160057906
 40
0.0228130419
 40
0.0307168453
 40
0.0396974455
 40
0.0497347707
 40
0.0608073673
 40
0.0728883233
 40
0.0999619159
 40
0.1307089222
 40
0.1648457069
 40
0.2020581361
 40
0.2420052779
 40
0.2843180629
 40
0.3286090212
 40
0.374469565
 40
0.4214786346
 40
0.4692036112
 40
0.5172056626
 40
0.565043218
 40
0.6122764679
 40
0.6584709196
 40
0.7032015355
 40
0.7460576807
 40
0.7866438374
 40
0.8245886207
 40
0.8595411763
 40
0.8757948571
 40
0.891181561
 40
0.9056669734
 40
0.9192185158
 40
0.931803714
 40
0.9433934197
 40
0.9539625849
 40
0.9634864283
 40
0.971941556
 40
0.9793102259
 40
0.9825820642
 40
0.985576206
 40
0.9882906397
 40
0.9907236281
 40
0.9928741777
 40
0.9947414526
 40
0.9963246748
 40
0.9976231746
 40
0.9986365138
 40
0.9993648547
 40
0.9996228464
 40
0.9997256596
 40
0.9998113057
 40
0.9998802134
 40
0.9999332158
 40
1.0
 40
1.0
 40
1.0
 40
1.0
 10
3.0241264172
 20
4.470245797
 30
0.0
 10
3.0251822407
 20
4.4703847496
 30
0.0
 10
3.0276003298
 20
4.4706465974
 30
0.0
 10
3.0316859523
 20
4.4709965686
 30
0.0
 10
3.036679226
 20
4.471348689
 30
0.0
 10
3.0451409006
 20
4.4718557435
 30
0.0
 10
3.0579606765
 20
4.4724690227
 30
0.0
 10
3.0760134438
 20
4.4731716393
 30
0.0
 10
3.0975927534
 20
4.4738772792
 30
0.0
 10
3.1226491606
 20
4.4745856194
 30
0.0
 10
3.1511242174
 20
4.4752956275
 30
0.0
 10
3.1829528275
 20
4.4760068118
 30
0.0
 10
3.2180624128
 20
4.4767187156
 30
0.0
 10
3.2711948267
 20
4.4777067403
 30
0.0
 10
3.3451424751
 20
4.4789246434
 30
0.0
 10
3.4424254273
 20
4.4803405884
 30
0.0
 10
3.5504365036
 20
4.4817592091
 30
0.0
 10
3.6681822861
 20
4.4831799435
 30
0.0
 10
3.7945790486
 20
4.484601983
 30
0.0
 10
3.9284655038
 20
4.4860251325
 30
0.0
 10
4.0686088153
 20
4.4874489259
 30
0.0
 10
4.2137211541
 20
4.4888732861
 30
0.0
 10
4.3624669369
 20
4.4902979595
 30
0.0
 10
4.5134785884
 20
4.4917228472
 30
0.0
 10
4.6653668364
 20
4.493147804
 30
0.0
 10
4.8167348029
 20
4.4945727219
 30
0.0
 10
4.9661901998
 20
4.4959974678
 30
0.0
 10
5.112358228
 20
4.4974219028
 30
0.0
 10
5.2538949485
 20
4.4988459005
 30
0.0
 10
5.3894976486
 20
4.5002691766
 30
0.0
 10
5.5179203638
 20
4.5016915984
 30
0.0
 10
5.6379803535
 20
4.5031126771
 30
0.0
 10
5.7322966292
 20
4.5043229497
 30
0.0
 10
5.8027468806
 20
4.5052986629
 30
0.0
 10
5.8515439167
 20
4.5060124757
 30
0.0
 10
5.8974817033
 20
4.5067260128
 30
0.0
 10
5.9404550531
 20
4.5074391714
 30
0.0
 10
5.980364228
 20
4.5081519499
 30
0.0
 10
6.0171174401
 20
4.508864274
 30
0.0
 10
6.0506310162
 20
4.5095758477
 30
0.0
 10
6.0808273386
 20
4.5102863495
 30
0.0
 10
6.1076364358
 20
4.5109957921
 30
0.0
 10
6.127830931
 20
4.5116069826
 30
0.0
 10
6.1422482497
 20
4.5121021925
 30
0.0
 10
6.1517430913
 20
4.5124584402
 30
0.0
 10
6.1603497405
 20
4.5128143147
 30
0.0
 10
6.1680630303
 20
4.5131697584
 30
0.0
 10
6.1748789668
 20
4.5135245638
 30
0.0
 10
6.1807945485
 20
4.5138782954
 30
0.0
 10
6.1858067874
 20
4.5142307419
 30
0.0
 10
6.1899134307
 20
4.5145799111
 30
0.0
 10
6.1931113094
 20
4.5149262317
 30
0.0
 10
6.1952067257
 20
4.5152298625
 30
0.0
 10
6.1963340108
 20
4.5154715009
 30
0.0
 10
6.1967891962
 20
4.5155994751
 30
0.0
 10
6.1970465772
 20
4.515686808
 30
0.0
 10
6.1972497294
 20
4.5157761905
 30
0.0
 10
6.1974179039
 20
4.5158732057
 30
0.0
 10
6.1975182122
 20
4.5159840446
 30
0.0
 10
6.197518001
 20
4.5160547036
 30
0.0
  0
SPLINE
  5
30C
100
AcDbEntity
  8
0
100
AcDbSpline
 62
7
  6
CONTINUOUS
 70
0
 71
3
 72
12
 73
8
 74
0
 42
0.0000001
 43
0.0000001
 44
0.0000000001
 40
0.0
 40
0.0
 40
0.0
 40
0.0
 40
0.0854010884
 40
0.1848374844
 40
0.4207340923
 40
0.6966037244
 40
1.0
 40
1.0
 40
1.0
 40
1.0
 10
6.4706720413
 20
4.9052118075
 30
0.0
 10
6.4696035404
 20
4.9054620707
 30
0.0
 10
6.4672783586
 20
4.9059499441
 30
0.0
 10
6.4619576468
 20
4.9069113425
 30
0.0
 10
6.4541881296
 20
4.9080706168
 30
0.0
 10
6.443798715
 20
4.9094076693
 30
0.0
 10
6.4364056502
 20
4.9102752382
 30
0.0
 10
6.4325325243
 20
4.9107209832
 30
0.0
  0
SPLINE
  5
30D
100
AcDbEntity
  8
0
100
AcDbSpline
 62
7
  6
CONTINUOUS
 70
0
 71
3
 72
62
 73
58
 74
0
 42
0.0000001
 43
0.0000001
 44
0.0000000001
 40
0.0
 40
0.0
 40
0.0
 40
0.0
 40
0.0001414557
 40
0.0003513113
 40
0.0006313635
 40
0.0009822905
 40
0.0014043946
 40
0.0018978174
 40
0.0030988054
 40
0.0045853487
 40
0.0063572108
 40
0.0084137818
 40
0.0107536834
 40
0.0133753742
 40
0.01627729
 40
0.0229154649
 40
0.0306548163
 40
0.0394766823
 40
0.0493599379
 40
0.0602832415
 40
0.0722214497
 40
0.0851457627
 40
0.0990272081
 40
0.1138346189
 40
0.1460848312
 40
0.1816009556
 40
0.2200539
 40
0.2610903708
 40
0.3043320043
 40
0.3493796835
 40
0.3958190948
 40
0.4432214281
 40
0.4911502444
 40
0.5391635164
 40
0.5868189147
 40
0.6336770072
 40
0.6793058842
 40
0.723285478
 40
0.7652093904
 40
0.804692502
 40
0.8413700058
 40
0.8749039356
 40
0.9049864095
 40
0.9313382502
 40
0.9430392317
 40
0.9537188084
 40
0.9633531862
 40
0.9719211767
 40
0.9794017766
 40
0.9857777416
 40
0.9910361379
 40
0.9932423382
 40
0.9951644998
 40
0.9968015706
 40
0.9981531884
 40
0.9992192229
 40
1.0
 40
1.0
 40
1.0
 40
1.0
 10
2.9627488889
 20
3.8737018417
 30
0.0
 10
2.9628833575
 20
3.8737792516
 30
0.0
 10
2.9632483346
 20
3.8739131605
 30
0.0
 10
2.9639184731
 20
3.8740849316
 30
0.0
 10
2.9648251741
 20
3.8742586086
 30
0.0
 10
2.9659667483
 20
3.8744344347
 30
0.0
 10
2.9673447809
 20
3.8746111407
 30
0.0
 10
2.9696525044
 20
3.8748645398
 30
0.0
 10
2.9731283667
 20
3.8751719586
 30
0.0
 10
2.9780071174
 20
3.8755242917
 30
0.0
 10
2.9838263114
 20
3.8758780365
 30
0.0
 10
2.9905828973
 20
3.8762329414
 30
0.0
 10
2.9982727211
 20
3.876588544
 30
0.0
 10
3.0068906241
 20
3.8769447052
 30
0.0
 10
3.0202212262
 20
3.8774426791
 30
0.0
 10
3.0391647001
 20
3.8780554161
 30
0.0
 10
3.0646015555
 20
3.8787642489
 30
0.0
 10
3.093599001
 20
3.879474719
 30
0.0
 10
3.126089711
 20
3.8801865604
 30
0.0
 10
3.1619993585
 20
3.8808991584
 30
0.0
 10
3.2012452296
 20
3.8816123482
 30
0.0
 10
3.2437362745
 20
3.8823260848
 30
0.0
 10
3.2893748614
 20
3.8830402108
 30
0.0
 10
3.3562098074
 20
3.8840208206
 30
0.0
 10
3.4467742258
 20
3.8852351645
 30
0.0
 10
3.5632741363
 20
3.8866563384
 30
0.0
 10
3.6894120532
 20
3.888079226
 30
0.0
 10
3.8240243223
 20
3.8895033265
 30
0.0
 10
3.9658705192
 20
3.8909282957
 30
0.0
 10
4.1136433085
 20
3.8923539282
 30
0.0
 10
4.2659800383
 20
3.8937799567
 30
0.0
 10
4.421477128
 20
3.8952062967
 30
0.0
 10
4.5787006058
 20
3.8966327629
 30
0.0
 10
4.7362016736
 20
3.8980592648
 30
0.0
 10
4.892528251
 20
3.8994856596
 30
0.0
 10
5.0462393533
 20
3.9009118287
 30
0.0
 10
5.1959184086
 20
3.9023376411
 30
0.0
 10
5.3401850714
 20
3.9037628622
 30
0.0
 10
5.4777103041
 20
3.9051873693
 30
0.0
 10
5.6072256669
 20
3.9066107348
 30
0.0
 10
5.7275377486
 20
3.9080326308
 30
0.0
 10
5.8375378231
 20
3.9094523468
 30
0.0
 10
5.9362110048
 20
3.9108690728
 30
0.0
 10
6.0109365756
 20
3.9120890368
 30
0.0
 10
6.0643804427
 20
3.9130794851
 30
0.0
 10
6.099489403
 20
3.9137919925
 30
0.0
 10
6.1311611324
 20
3.9145035345
 30
0.0
 10
6.1593230538
 20
3.9152137047
 30
0.0
 10
6.1839097238
 20
3.9159217629
 30
0.0
 10
6.2048645203
 20
3.91662744
 30
0.0
 10
6.2200336111
 20
3.9172413806
 30
0.0
 10
6.2303173759
 20
3.9177451023
 30
0.0
 10
6.2366314429
 20
3.918099542
 30
0.0
 10
6.2420064615
 20
3.9184527877
 30
0.0
 10
6.2464404547
 20
3.9188032404
 30
0.0
 10
6.2499314582
 20
3.9191507955
 30
0.0
 10
6.251940985
 20
3.9194153931
 30
0.0
 10
6.2527848604
 20
3.919561379
 30
0.0
  0
SPLINE
  5
30E
100
AcDbEntity
  8
0
100
AcDbSpline
 62
7
  6
CONTINUOUS
 70
0
 71
3
 72
13
 73
9
 74
0
 42
0.0000001
 43
0.0000001
 44
0.0000000001
 40
0.0
 40
0.0
 40
0.0
 40
0.0
 40
0.4113244373
 40
0.5748471681
 40
0.7106186473
 40
0.8191731053
 40
0.9015913869
 40
1.0
 40
1.0
 40
1.0
 40
1.0
 10
6.2527848604
 20
3.919561379
 30
0.0
 10
6.2531158336
 20
3.9196186356
 30
0.0
 10
6.2535771824
 20
3.9197059123
 30
0.0
 10
6.2541410918
 20
3.9198457262
 30
0.0
 10
6.2544592694
 20
3.919940784
 30
0.0
 10
6.2547114306
 20
3.9200384519
 30
0.0
 10
6.2549142543
 20
3.9201412863
 30
0.0
 10
6.255045388
 20
3.9202622673
 30
0.0
 10
6.255045388
 20
3.9203426281
 30
0.0
  0
SPLINE
  5
30F
100
AcDbEntity
  8
0
100
AcDbSpline
 62
7
  6
CONTINUOUS
 70
0
 71
3
 72
14
 73
10
 74
0
 42
0.0000001
 43
0.0000001
 44
0.0000000001
 40
0.0
 40
0.0
 40
0.0
 40
0.0
 40
0.0496611494
 40
0.1202150536
 40
0.2122499162
 40
0.3260113222
 40
0.461618549
 40
0.619134094
 40
1.0
 40
1.0
 40
1.0
 40
1.0
 10
3.020281386
 20
3.9069223962
 30
0.0
 10
3.0203946966
 20
3.9069876892
 30
0.0
 10
3.0206911804
 20
3.9071048912
 30
0.0
 10
3.0212290747
 20
3.9072560469
 30
0.0
 10
3.0219411954
 20
3.9074087786
 30
0.0
 10
3.0228269696
 20
3.9075628779
 30
0.0
 10
3.0238873447
 20
3.9077176733
 30
0.0
 10
3.0256484191
 20
3.9079389866
 30
0.0
 10
3.0270590978
 20
3.9080825925
 30
0.0
 10
3.0280576756
 20
3.9081762765
 30
0.0
  0
SPLINE
  5
310
100
AcDbEntity
  8
0
100
AcDbSpline
 62
7
  6
CONTINUOUS
 70
0
 71
3
 72
60
 73
56
 74
0
 42
0.0000001
 43
0.0000001
 44
0.0000000001
 40
0.0
 40
0.0
 40
0.0
 40
0.0
 40
0.0013372574
 40
0.0029544993
 40
0.007026937
 40
0.0122079669
 40
0.0184854059
 40
0.0258467705
 40
0.0342760809
 40
0.0542556462
 40
0.0782471987
 40
0.1060314738
 40
0.137360352
 40
0.1719496993
 40
0.2094877706
 40
0.2496364906
 40
0.2920322508
 40
0.3362939742
 40
0.4288011275
 40
0.4762120607
 40
0.523826129
 40
0.5712132568
 40
0.6179462393
 40
0.6636027354
 40
0.7077711912
 40
0.7500528888
 40
0.7900657268
 40
0.8274499362
 40
0.8618661074
 40
0.8778642599
 40
0.8930061169
 40
0.9072572104
 40
0.9205868354
 40
0.9329645609
 40
0.9443609632
 40
0.9547517024
 40
0.9641140574
 40
0.9724254635
 40
0.9796671512
 40
0.9828822963
 40
0.985824598
 40
0.9884922854
 40
0.9908836013
 40
0.9929969878
 40
0.9948316443
 40
0.9963870105
 40
0.9976626347
 40
0.9986582962
 40
0.9993743688
 40
0.9996282418
 40
0.9997294584
 40
0.9998137972
 40
0.9998816779
 40
0.9999339328
 40
1.0
 40
1.0
 40
1.0
 40
1.0
 10
3.0280576756
 20
3.9081762765
 30
0.0
 10
3.0294645873
 20
3.9083082692
 30
0.0
 10
3.0325763506
 20
3.9085638218
 30
0.0
 10
3.0399846592
 20
3.9090693568
 30
0.0
 10
3.0514563208
 20
3.9096761988
 30
0.0
 10
3.0678533601
 20
3.9103702193
 30
0.0
 10
3.0877283244
 20
3.9110679353
 30
0.0
 10
3.111037378
 20
3.9117690454
 30
0.0
 10
3.1488230476
 20
3.9127631935
 30
0.0
 10
3.204181929
 20
3.9139748756
 30
0.0
 10
3.2799936353
 20
3.9153691332
 30
0.0
 10
3.3677999014
 20
3.9167687567
 30
0.0
 10
3.4668061052
 20
3.918172305
 30
0.0
 10
3.576120112
 20
3.9195784047
 30
0.0
 10
3.6947547895
 20
3.9209863003
 30
0.0
 10
3.8216390852
 20
3.922395396
 30
0.0
 10
3.9556287136
 20
3.9238055094
 30
0.0
 10
4.1449436755
 20
3.9257145153
 30
0.0
 10
4.3395588617
 20
3.9275834575
 30
0.0
 10
4.5377166653
 20
3.9294504584
 30
0.0
 10
4.6881979829
 20
3.9308621091
 30
0.0
 10
4.8379628733
 20
3.9322737595
 30
0.0
 10
4.9856590923
 20
3.9336851949
 30
0.0
 10
5.1299539619
 20
3.9350963449
 30
0.0
 10
5.2695449002
 20
3.9365070136
 30
0.0
 10
5.403171835
 20
3.9379170037
 30
0.0
 10
5.5296293995
 20
3.9393261073
 30
0.0
 10
5.6477748719
 20
3.9407338876
 30
0.0
 10
5.7405444995
 20
3.9419329727
 30
0.0
 10
5.8098114554
 20
3.9428996771
 30
0.0
 10
5.8577713598
 20
3.9436067461
 30
0.0
 10
5.902911091
 20
3.944313603
 30
0.0
 10
5.9451295695
 20
3.945020101
 30
0.0
 10
5.9843310315
 20
3.9457261434
 30
0.0
 10
6.0204264172
 20
3.9464317671
 30
0.0
 10
6.0533347913
 20
3.9471367031
 30
0.0
 10
6.0829824356
 20
3.9478405546
 30
0.0
 10
6.1093014362
 20
3.9485432367
 30
0.0
 10
6.129124806
 20
3.9491487499
 30
0.0
 10
6.1432752869
 20
3.9496393372
 30
0.0
 10
6.1525942099
 20
3.949992251
 30
0.0
 10
6.1610419192
 20
3.9503447885
 30
0.0
 10
6.1686128932
 20
3.9506968392
 30
0.0
 10
6.175302557
 20
3.9510483057
 30
0.0
 10
6.181107583
 20
3.9513987246
 30
0.0
 10
6.186025486
 20
3.9517478747
 30
0.0
 10
6.1900547002
 20
3.9520937971
 30
0.0
 10
6.1931927585
 20
3.9524369141
 30
0.0
 10
6.1952495255
 20
3.9527377517
 30
0.0
 10
6.196356421
 20
3.952977017
 30
0.0
 10
6.1968036179
 20
3.9531037623
 30
0.0
 10
6.197056555
 20
3.9531902856
 30
0.0
 10
6.1972561431
 20
3.9532788228
 30
0.0
 10
6.1974216383
 20
3.9533751079
 30
0.0
 10
6.1975198035
 20
3.9534848904
 30
0.0
 10
6.1975195528
 20
3.9535547036
 30
0.0
  0
SPLINE
  5
311
100
AcDbEntity
  8
0
100
AcDbSpline
 62
7
  6
CONTINUOUS
 70
0
 71
3
 72
33
 73
29
 74
0
 42
0.0000001
 43
0.0000001
 44
0.0000000001
 40
0.0
 40
0.0
 40
0.0
 40
0.0
 40
0.0003844331
 40
0.0008860988
 40
0.0022531473
 40
0.0041141431
 40
0.0064731211
 40
0.0093317264
 40
0.01269063
 40
0.0165500333
 40
0.020909884
 40
0.0311299731
 40
0.0433463524
 40
0.0575481327
 40
0.0737231389
 40
0.0918589909
 40
0.1119431846
 40
0.1339626657
 40
0.1578995919
 40
0.2114432514
 40
0.2724087516
 40
0.3406138146
 40
0.4158322793
 40
0.4978303104
 40
0.5863592274
 40
0.681152419
 40
0.7819341649
 40
1.0
 40
1.0
 40
1.0
 40
1.0
 10
2.962748835
 20
3.5924518417
 30
0.0
 10
2.9628194284
 20
3.5924924905
 30
0.0
 10
2.9629915423
 20
3.5925694506
 30
0.0
 10
2.9634444952
 20
3.5927210601
 30
0.0
 10
2.9642160598
 20
3.5928986869
 30
0.0
 10
2.9653824568
 20
3.5931011511
 30
0.0
 10
2.9668688174
 20
3.5933050063
 30
0.0
 10
2.9686745398
 20
3.5935105375
 30
0.0
 10
2.9707999136
 20
3.5937167634
 30
0.0
 10
2.973244594
 20
3.5939235939
 30
0.0
 10
2.9771409585
 20
3.5942155179
 30
0.0
 10
2.9828079225
 20
3.5945729415
 30
0.0
 10
2.9905606043
 20
3.5949844877
 30
0.0
 10
2.9995765787
 20
3.5953972228
 30
0.0
 10
3.0098479568
 20
3.5958109286
 30
0.0
 10
3.0213666692
 20
3.5962252527
 30
0.0
 10
3.0341245061
 20
3.5966400462
 30
0.0
 10
3.0481121493
 20
3.5970551802
 30
0.0
 10
3.0691880435
 20
3.5976307933
 30
0.0
 10
3.0985157593
 20
3.5983419565
 30
0.0
 10
3.13722351
 20
3.5991687419
 30
0.0
 10
3.1805249896
 20
3.5999966439
 30
0.0
 10
3.2282839013
 20
3.6008257087
 30
0.0
 10
3.2803499506
 20
3.6016554531
 30
0.0
 10
3.3365642961
 20
3.6024857339
 30
0.0
 10
3.3967592433
 20
3.6033166552
 30
0.0
 10
3.4844009783
 20
3.6044550792
 30
0.0
 10
3.5519589348
 20
3.605262122
 30
0.0
 10
3.5981633237
 20
3.6057926281
 30
0.0
  0
SPLINE
  5
312
100
AcDbEntity
  8
0
100
AcDbSpline
 62
7
  6
CONTINUOUS
 70
0
 71
3
 72
32
 73
28
 74
0
 42
0.0000001
 43
0.0000001
 44
0.0000000001
 40
0.0
 40
0.0
 40
0.0
 40
0.0
 40
0.0003951659
 40
0.0009070228
 40
0.0022931337
 40
0.0041720755
 40
0.0065485587
 40
0.0094248324
 40
0.012801986
 40
0.021057649
 40
0.0313100157
 40
0.0435513173
 40
0.057773023
 40
0.0739662175
 40
0.0921215064
 40
0.1122248151
 40
0.1342581396
 40
0.158203298
 40
0.2117561818
 40
0.2727302306
 40
0.3409245526
 40
0.4161189633
 40
0.4980884122
 40
0.5865815837
 40
0.681338068
 40
0.7820781361
 40
1.0
 40
1.0
 40
1.0
 40
1.0
 10
3.0202834271
 20
3.6256723941
 30
0.0
 10
3.0203533935
 20
3.6257128257
 30
0.0
 10
3.0205230153
 20
3.6257896532
 30
0.0
 10
3.0209670768
 20
3.6259410471
 30
0.0
 10
3.0217201329
 20
3.6261187972
 30
0.0
 10
3.0228558704
 20
3.6263212682
 30
0.0
 10
3.024300283
 20
3.6265250786
 30
0.0
 10
3.0260530973
 20
3.626730514
 30
0.0
 10
3.0290055413
 20
3.6270253523
 30
0.0
 10
3.0334669514
 20
3.6273826326
 30
0.0
 10
3.039741738
 20
3.6277919225
 30
0.0
 10
3.047238607
 20
3.6282030043
 30
0.0
 10
3.0559517745
 20
3.6286156228
 30
0.0
 10
3.065875451
 20
3.6290291117
 30
0.0
 10
3.0770027658
 20
3.6294432037
 30
0.0
 10
3.0893250689
 20
3.6298577262
 30
0.0
 10
3.1028319512
 20
3.6302726402
 30
0.0
 10
3.1231772643
 20
3.6308479141
 30
0.0
 10
3.151484929
 20
3.631558691
 30
0.0
 10
3.1888409779
 20
3.6323848009
 30
0.0
 10
3.2306234927
 20
3.6332122699
 30
0.0
 10
3.2767001446
 20
3.6340408474
 30
0.0
 10
3.3269283621
 20
3.6348700145
 30
0.0
 10
3.3811573695
 20
3.6356998387
 30
0.0
 10
3.4392252379
 20
3.6365302974
 30
0.0
 10
3.5237585987
 20
3.6376679615
 30
0.0
 10
3.588917637
 20
3.6384745485
 30
0.0
 10
3.6334778929
 20
3.6390047024
 30
0.0
  0
SPLINE
  5
313
100
AcDbEntity
  8
0
100
AcDbSpline
 62
7
  6
CONTINUOUS
 70
0
 71
3
 72
11
 73
7
 74
0
 42
0.0000001
 43
0.0000001
 44
0.0000000001
 40
0.0
 40
0.0
 40
0.0
 40
0.0
 40
0.1420226097
 40
0.3549826872
 40
0.6407414618
 40
1.0
 40
1.0
 40
1.0
 40
1.0
 10
3.0202801431
 20
4.0006723996
 30
0.0
 10
3.0204263967
 20
4.0007567799
 30
0.0
 10
3.0208271664
 20
4.0009012446
 30
0.0
 10
3.0215651122
 20
4.0010864242
 30
0.0
 10
3.02256892
 20
4.0012735822
 30
0.0
 10
3.0233272441
 20
4.0013870374
 30
0.0
 10
3.0237503494
 20
4.001445458
 30
0.0
  0
SPLINE
  5
314
100
AcDbEntity
  8
0
100
AcDbSpline
 62
7
  6
CONTINUOUS
 70
0
 71
3
 72
64
 73
60
 74
0
 42
0.0000001
 43
0.0000001
 44
0.0000000001
 40
0.0
 40
0.0
 40
0.0
 40
0.0
 40
0.00096772
 40
0.0022213051
 40
0.0037609045
 40
0.0055857792
 40
0.0100864119
 40
0.015712887
 40
0.0224543115
 40
0.0302957314
 40
0.0392174662
 40
0.0491995168
 40
0.060220468
 40
0.0722534532
 40
0.0992424386
 40
0.1299200895
 40
0.1640028381
 40
0.2011762804
 40
0.2410991605
 40
0.2834017864
 40
0.3276959254
 40
0.3735720919
 40
0.420608113
 40
0.468370214
 40
0.5164182151
 40
0.5643091859
 40
0.6116018145
 40
0.6578601637
 40
0.7026575956
 40
0.7455820338
 40
0.7862364027
 40
0.8242478661
 40
0.8592642875
 40
0.8755483631
 40
0.8909642366
 40
0.9054775639
 40
0.9190555144
 40
0.9316654044
 40
0.9432781691
 40
0.9538685824
 40
0.9634116165
 40
0.9718839044
 40
0.9792677187
 40
0.9825463011
 40
0.9855465965
 40
0.9882665672
 40
0.990704542
 40
0.9928595488
 40
0.9947307257
 40
0.9963172683
 40
0.9976184809
 40
0.9986338991
 40
0.9993636684
 40
0.9996221604
 40
0.9997251733
 40
0.9998109849
 40
0.9998800236
 40
0.9999331224
 40
1.0
 40
1.0
 40
1.0
 40
1.0
 10
3.0237503494
 20
4.001445458
 30
0.0
 10
3.02476472
 20
4.0015855179
 30
0.0
 10
3.0271010821
 20
4.0018481068
 30
0.0
 10
3.0310653825
 20
4.0021979754
 30
0.0
 10
3.0359394683
 20
4.0025501495
 30
0.0
 10
3.0442465106
 20
4.0030582928
 30
0.0
 10
3.0568790225
 20
4.0036721966
 30
0.0
 10
3.0747147316
 20
4.0043752869
 30
0.0
 10
3.0960877129
 20
4.0050814744
 30
0.0
 10
3.1209490647
 20
4.0057904529
 30
0.0
 10
3.149240663
 20
4.0065011366
 30
0.0
 10
3.1808975923
 20
4.0072130268
 30
0.0
 10
3.2158474278
 20
4.0079256605
 30
0.0
 10
3.2687911973
 20
4.0089150197
 30
0.0
 10
3.3425339552
 20
4.0101343744
 30
0.0
 10
3.4396083947
 20
4.0115517495
 30
0.0
 10
3.547460523
 20
4.0129718345
 30
0.0
 10
3.665096243
 20
4.0143940688
 30
0.0
 10
3.7914304102
 20
4.0158176219
 30
0.0
 10
3.9252997882
 20
4.0172422992
 30
0.0
 10
4.0654689766
 20
4.0186676298
 30
0.0
 10
4.2106470568
 20
4.0200935319
 30
0.0
 10
4.3594949345
 20
4.021519754
 30
0.0
 10
4.5106410436
 20
4.0229461918
 30
0.0
 10
4.6626918581
 20
4.0243727034
 30
0.0
 10
4.8142458783
 20
4.0257991758
 30
0.0
 10
4.9639060928
 20
4.0272254804
 30
0.0
 10
5.1102927265
 20
4.0286514714
 30
0.0
 10
5.2520569325
 20
4.0300770296
 30
0.0
 10
5.3878909753
 20
4.031501863
 30
0.0
 10
5.5165440319
 20
4.0329258425
 30
0.0
 10
5.6368286799
 20
4.0343484819
 30
0.0
 10
5.7313265226
 20
4.0355600608
 30
0.0
 10
5.8019157982
 20
4.0365368321
 30
0.0
 10
5.8508112302
 20
4.0372514334
 30
0.0
 10
5.8968428529
 20
4.0379657523
 30
0.0
 10
5.9399049464
 20
4.0386796916
 30
0.0
 10
5.9798973606
 20
4.0393932615
 30
0.0
 10
6.0167279751
 20
4.0401063671
 30
0.0
 10
6.0503127459
 20
4.040818717
 30
0.0
 10
6.0805736246
 20
4.0415300046
 30
0.0
 10
6.1074404152
 20
4.0422402338
 30
0.0
 10
6.1276786434
 20
4.0428520886
 30
0.0
 10
6.1421273583
 20
4.043347841
 30
0.0
 10
6.1516428416
 20
4.0437044781
 30
0.0
 10
6.1602681663
 20
4.0440607495
 30
0.0
 10
6.16799823
 20
4.0444165871
 30
0.0
 10
6.1748291036
 20
4.0447717817
 30
0.0
 10
6.1807577522
 20
4.0451259014
 30
0.0
 10
6.1857811046
 20
4.0454787324
 30
0.0
 10
6.1898968246
 20
4.0458282837
 30
0.0
 10
6.1931016701
 20
4.0461749716
 30
0.0
 10
6.1952015783
 20
4.0464789505
 30
0.0
 10
6.1963312481
 20
4.046720859
 30
0.0
 10
6.1967874055
 20
4.0468489737
 30
0.0
 10
6.1970453398
 20
4.0469364012
 30
0.0
 10
6.1972489414
 20
4.047025882
 30
0.0
 10
6.1974174568
 20
4.0471229838
 30
0.0
 10
6.197518049
 20
4.0472339371
 30
0.0
 10
6.1975178576
 20
4.0473047035
 30
0.0
  0
SPLINE
  5
315
100
AcDbEntity
  8
0
100
AcDbSpline
 62
7
  6
CONTINUOUS
 70
0
 71
3
 72
62
 73
58
 74
0
 42
0.0000001
 43
0.0000001
 44
0.0000000001
 40
0.0
 40
0.0
 40
0.0
 40
0.0
 40
0.0001414557
 40
0.0003513113
 40
0.0006313635
 40
0.0009822905
 40
0.0014043946
 40
0.0018978174
 40
0.0030988054
 40
0.0045853487
 40
0.0063572108
 40
0.0084137818
 40
0.0107536834
 40
0.0133753742
 40
0.01627729
 40
0.0229154649
 40
0.0306548163
 40
0.0394766823
 40
0.0493599379
 40
0.0602832415
 40
0.0722214497
 40
0.0851457627
 40
0.0990272081
 40
0.1138346189
 40
0.1460848312
 40
0.1816009556
 40
0.2200539
 40
0.2610903708
 40
0.3043320043
 40
0.3493796835
 40
0.3958190948
 40
0.4432214281
 40
0.4911502444
 40
0.5391635164
 40
0.5868189147
 40
0.6336770072
 40
0.6793058842
 40
0.723285478
 40
0.7652093904
 40
0.804692502
 40
0.8413700058
 40
0.8749039356
 40
0.9049864095
 40
0.9313382502
 40
0.9430392317
 40
0.9537188084
 40
0.9633531862
 40
0.9719211767
 40
0.9794017766
 40
0.9857777416
 40
0.9910361379
 40
0.9932423382
 40
0.9951644998
 40
0.9968015706
 40
0.9981531884
 40
0.9992192229
 40
1.0
 40
1.0
 40
1.0
 40
1.0
 10
2.9627488889
 20
3.4987018417
 30
0.0
 10
2.9628833575
 20
3.4987792516
 30
0.0
 10
2.9632483346
 20
3.4989131605
 30
0.0
 10
2.9639184731
 20
3.4990849316
 30
0.0
 10
2.9648251741
 20
3.4992586086
 30
0.0
 10
2.9659667483
 20
3.4994344347
 30
0.0
 10
2.9673447809
 20
3.4996111407
 30
0.0
 10
2.9696525044
 20
3.4998645398
 30
0.0
 10
2.9731283667
 20
3.5001719586
 30
0.0
 10
2.9780071174
 20
3.5005242917
 30
0.0
 10
2.9838263114
 20
3.5008780365
 30
0.0
 10
2.9905828973
 20
3.5012329414
 30
0.0
 10
2.9982727211
 20
3.501588544
 30
0.0
 10
3.0068906241
 20
3.5019447052
 30
0.0
 10
3.0202212262
 20
3.5024426791
 30
0.0
 10
3.0391647001
 20
3.5030554161
 30
0.0
 10
3.0646015555
 20
3.5037642489
 30
0.0
 10
3.093599001
 20
3.504474719
 30
0.0
 10
3.126089711
 20
3.5051865604
 30
0.0
 10
3.1619993585
 20
3.5058991584
 30
0.0
 10
3.2012452296
 20
3.5066123482
 30
0.0
 10
3.2437362745
 20
3.5073260848
 30
0.0
 10
3.2893748614
 20
3.5080402108
 30
0.0
 10
3.3562098074
 20
3.5090208206
 30
0.0
 10
3.4467742258
 20
3.5102351645
 30
0.0
 10
3.5632741363
 20
3.5116563384
 30
0.0
 10
3.6894120532
 20
3.513079226
 30
0.0
 10
3.8240243223
 20
3.5145033265
 30
0.0
 10
3.9658705192
 20
3.5159282957
 30
0.0
 10
4.1136433085
 20
3.5173539282
 30
0.0
 10
4.2659800383
 20
3.5187799567
 30
0.0
 10
4.421477128
 20
3.5202062967
 30
0.0
 10
4.5787006058
 20
3.5216327629
 30
0.0
 10
4.7362016736
 20
3.5230592648
 30
0.0
 10
4.892528251
 20
3.5244856596
 30
0.0
 10
5.0462393533
 20
3.5259118287
 30
0.0
 10
5.1959184086
 20
3.5273376411
 30
0.0
 10
5.3401850714
 20
3.5287628622
 30
0.0
 10
5.4777103041
 20
3.5301873693
 30
0.0
 10
5.6072256669
 20
3.5316107348
 30
0.0
 10
5.7275377486
 20
3.5330326308
 30
0.0
 10
5.8375378231
 20
3.5344523468
 30
0.0
 10
5.9362110048
 20
3.5358690728
 30
0.0
 10
6.0109365756
 20
3.5370890368
 30
0.0
 10
6.0643804427
 20
3.5380794851
 30
0.0
 10
6.099489403
 20
3.5387919925
 30
0.0
 10
6.1311611324
 20
3.5395035345
 30
0.0
 10
6.1593230538
 20
3.5402137047
 30
0.0
 10
6.1839097238
 20
3.5409217629
 30
0.0
 10
6.2048645203
 20
3.54162744
 30
0.0
 10
6.2200336111
 20
3.5422413806
 30
0.0
 10
6.2303173759
 20
3.5427451023
 30
0.0
 10
6.2366314429
 20
3.543099542
 30
0.0
 10
6.2420064615
 20
3.5434527877
 30
0.0
 10
6.2464404547
 20
3.5438032404
 30
0.0
 10
6.2499314582
 20
3.5441507955
 30
0.0
 10
6.251940985
 20
3.5444153931
 30
0.0
 10
6.2527848604
 20
3.544561379
 30
0.0
  0
SPLINE
  5
316
100
AcDbEntity
  8
0
100
AcDbSpline
 62
7
  6
CONTINUOUS
 70
0
 71
3
 72
13
 73
9
 74
0
 42
0.0000001
 43
0.0000001
 44
0.0000000001
 40
0.0
 40
0.0
 40
0.0
 40
0.0
 40
0.4113244373
 40
0.5748471681
 40
0.7106186473
 40
0.8191731053
 40
0.9015913869
 40
1.0
 40
1.0
 40
1.0
 40
1.0
 10
6.2527848604
 20
3.544561379
 30
0.0
 10
6.2531158336
 20
3.5446186356
 30
0.0
 10
6.2535771824
 20
3.5447059123
 30
0.0
 10
6.2541410918
 20
3.5448457262
 30
0.0
 10
6.2544592694
 20
3.544940784
 30
0.0
 10
6.2547114306
 20
3.5450384519
 30
0.0
 10
6.2549142543
 20
3.5451412863
 30
0.0
 10
6.255045388
 20
3.5452622673
 30
0.0
 10
6.255045388
 20
3.5453426281
 30
0.0
  0
SPLINE
  5
317
100
AcDbEntity
  8
0
100
AcDbSpline
 62
7
  6
CONTINUOUS
 70
0
 71
3
 72
11
 73
7
 74
0
 42
0.0000001
 43
0.0000001
 44
0.0000000001
 40
0.0
 40
0.0
 40
0.0
 40
0.0
 40
0.1453416484
 40
0.3593985959
 40
0.6440385741
 40
1.0
 40
1.0
 40
1.0
 40
1.0
 10
3.0202832066
 20
3.5319223959
 30
0.0
 10
3.0204178047
 20
3.5320000099
 30
0.0
 10
3.0207809583
 20
3.5321352031
 30
0.0
 10
3.0214465877
 20
3.5323086572
 30
0.0
 10
3.0223441302
 20
3.5324840147
 30
0.0
 10
3.0230205854
 20
3.5325903904
 30
0.0
 10
3.0233971584
 20
3.5326451121
 30
0.0
  0
SPLINE
  5
318
100
AcDbEntity
  8
0
100
AcDbSpline
 62
7
  6
CONTINUOUS
 70
0
 71
3
 72
64
 73
60
 74
0
 42
0.0000001
 43
0.0000001
 44
0.0000000001
 40
0.0
 40
0.0
 40
0.0
 40
0.0
 40
0.0009284597
 40
0.0021433594
 40
0.0036449958
 40
0.0054326852
 40
0.0098613259
 40
0.0154190172
 40
0.0220948817
 40
0.029874008
 40
0.0387368594
 40
0.0486635905
 40
0.0596328862
 40
0.0716179213
 40
0.0985223533
 40
0.1291306529
 40
0.1631593565
 40
0.2002938063
 40
0.2401924151
 40
0.2824848726
 40
0.3267821848
 40
0.372673973
 40
0.4197369496
 40
0.4675361865
 40
0.5156301559
 40
0.5635745686
 40
0.6109266095
 40
0.6572488955
 40
0.7021131899
 40
0.7451059677
 40
0.7858286047
 40
0.8239067984
 40
0.8589871424
 40
0.8753016328
 40
0.8907467078
 40
0.9052879766
 40
0.918892354
 40
0.9315269583
 40
0.9431628092
 40
0.9537744876
 40
0.9633367209
 40
0.9718261963
 40
0.9792251709
 40
0.9825105008
 40
0.9855169499
 40
0.9882424589
 40
0.9906854325
 40
0.9928449057
 40
0.9947199903
 40
0.9963098557
 40
0.9976137795
 40
0.9986312717
 40
0.9993624691
 40
0.9996214662
 40
0.9997246809
 40
0.9998106599
 40
0.9998798312
 40
0.9999330277
 40
1.0
 40
1.0
 40
1.0
 40
1.0
 10
3.0233971584
 20
3.5326451121
 30
0.0
 10
3.0243695071
 20
3.5327864089
 30
0.0
 10
3.0266231057
 20
3.5330498087
 30
0.0
 10
3.0304646987
 20
3.5333996223
 30
0.0
 10
3.0352185637
 20
3.5337518614
 30
0.0
 10
3.0433704629
 20
3.5342611502
 30
0.0
 10
3.0558158403
 20
3.5348756262
 30
0.0
 10
3.0734350089
 20
3.5355791149
 30
0.0
 10
3.0946021727
 20
3.5362858023
 30
0.0
 10
3.1192686024
 20
3.5369954166
 30
0.0
 10
3.1473765242
 20
3.5377067836
 30
0.0
 10
3.1788614276
 20
3.5384193902
 30
0.0
 10
3.2136511889
 20
3.5391327535
 30
0.0
 10
3.2664059582
 20
3.5401234427
 30
0.0
 10
3.3399433324
 20
3.5413442364
 30
0.0
 10
3.4368085663
 20
3.5427630391
 30
0.0
 10
3.5445009252
 20
3.5441845835
 30
0.0
 10
3.6620256882
 20
3.5456083112
 30
0.0
 10
3.7882963136
 20
3.5470333726
 30
0.0
 10
3.9221476226
 20
3.5484595726
 30
0.0
 10
4.0623416701
 20
3.5498864351
 30
0.0
 10
4.2075844612
 20
3.5513138739
 30
0.0
 10
4.3565334056
 20
3.5527416397
 30
0.0
 10
4.5078129558
 20
3.5541696226
 30
0.0
 10
4.6600253441
 20
3.5555976837
 30
0.0
 10
4.8117644577
 20
3.5570257057
 30
0.0
 10
4.9616285692
 20
3.5584535638
 30
0.0
 10
5.1082329356
 20
3.5598811059
 30
0.0
 10
5.2502238035
 20
3.5613082193
 30
0.0
 10
5.3862884263
 20
3.5627346054
 30
0.0
 10
5.5151711172
 20
3.5641601372
 30
0.0
 10
5.6356797855
 20
3.5655843327
 30
0.0
 10
5.7303586939
 20
3.5667972129
 30
0.0
 10
5.8010866348
 20
3.5677750396
 30
0.0
 10
5.8500802178
 20
3.5684904266
 30
0.0
 10
5.8962054498
 20
3.5692055245
 30
0.0
 10
5.9393560707
 20
3.5699202424
 30
0.0
 10
5.9794315292
 20
3.5706346012
 30
0.0
 10
6.0163393707
 20
3.5713484854
 30
0.0
 10
6.0499951675
 20
3.5720616087
 30
0.0
 10
6.0803204566
 20
3.5727736812
 30
0.0
 10
6.1072448158
 20
3.5734846929
 30
0.0
 10
6.1275266916
 20
3.5740972099
 30
0.0
 10
6.1420067266
 20
3.5745935032
 30
0.0
 10
6.1515427933
 20
3.5749505288
 30
0.0
 10
6.1601867505
 20
3.5753071968
 30
0.0
 10
6.1679335609
 20
3.5756634257
 30
0.0
 10
6.1747793548
 20
3.5760190083
 30
0.0
 10
6.180721049
 20
3.5763735148
 30
0.0
 10
6.1857554883
 20
3.576726729
 30
0.0
 10
6.1898802529
 20
3.577076661
 30
0.0
 10
6.1930920366
 20
3.577423715
 30
0.0
 10
6.195196421
 20
3.577728045
 30
0.0
 10
6.1963284757
 20
3.5779702193
 30
0.0
 10
6.1967856115
 20
3.578098474
 30
0.0
 10
6.1970441033
 20
3.5781859958
 30
0.0
 10
6.1972481584
 20
3.5782755744
 30
0.0
 10
6.1974170181
 20
3.5783727627
 30
0.0
 10
6.1975178987
 20
3.5784838288
 30
0.0
 10
6.1975177292
 20
3.5785547034
 30
0.0
  0
SPLINE
  5
319
100
AcDbEntity
  8
0
100
AcDbSpline
 62
7
  6
CONTINUOUS
 70
0
 71
3
 72
73
 73
69
 74
0
 42
0.0000001
 43
0.0000001
 44
0.0000000001
 40
0.0
 40
0.0
 40
0.0
 40
0.0
 40
0.0000682696
 40
0.0001228553
 40
0.0001939221
 40
0.0002822925
 40
0.0003883828
 40
0.0006545374
 40
0.0014053763
 40
0.0024495447
 40
0.0037875855
 40
0.0054194487
 40
0.0073448302
 40
0.0095627575
 40
0.0120716351
 40
0.0148698082
 40
0.0179556011
 40
0.0213273247
 40
0.0249832806
 40
0.0289216855
 40
0.0376355712
 40
0.0474466141
 40
0.0583320364
 40
0.0702676443
 40
0.0832236223
 40
0.0971687351
 40
0.1120714355
 40
0.1278959969
 40
0.1446036672
 40
0.1805109273
 40
0.219451706
 40
0.2610578683
 40
0.3049326381
 40
0.3506608579
 40
0.3978075369
 40
0.4459253123
 40
0.4945573662
 40
0.5432418345
 40
0.5915165465
 40
0.6389229919
 40
0.6850115411
 40
0.7293436223
 40
0.7714997544
 40
0.8110781361
 40
0.8477041766
 40
0.8810300522
 40
0.8963549806
 40
0.9107383042
 40
0.9241472657
 40
0.9365492711
 40
0.9479136879
 40
0.9582152975
 40
0.9674298242
 40
0.9755336484
 40
0.9825086659
 40
0.9855681191
 40
0.9883396833
 40
0.9908214876
 40
0.9930117656
 40
0.9949095008
 40
0.9965141059
 40
0.9978251121
 40
0.9983704435
 40
0.9988423343
 40
0.9992408655
 40
0.9995662373
 40
0.9998189071
 40
1.0
 40
1.0
 40
1.0
 40
1.0
 10
3.0200704482
 20
4.3871297027
 30
0.0
 10
3.0200705418
 20
4.387202019
 30
0.0
 10
3.0201755742
 20
4.3873145163
 30
0.0
 10
3.0203492165
 20
4.3874127212
 30
0.0
 10
3.0205596678
 20
4.3875035386
 30
0.0
 10
3.0208259838
 20
4.3875922465
 30
0.0
 10
3.0212967818
 20
4.3877222626
 30
0.0
 10
3.0224613795
 20
4.3879676759
 30
0.0
 10
3.0246244244
 20
4.388276262
 30
0.0
 10
3.0279244545
 20
4.3886282082
 30
0.0
 10
3.0321620226
 20
4.3889830321
 30
0.0
 10
3.0373351513
 20
4.389341165
 30
0.0
 10
3.0434421825
 20
4.3897005457
 30
0.0
 10
3.0504794954
 20
4.3900609899
 30
0.0
 10
3.0584423701
 20
4.3904221104
 30
0.0
 10
3.0673253663
 20
4.3907837327
 30
0.0
 10
3.0771230214
 20
4.3911457158
 30
0.0
 10
3.0878298576
 20
4.3915079685
 30
0.0
 10
3.099440311
 20
4.3918704462
 30
0.0
 10
3.116707988
 20
4.3923709606
 30
0.0
 10
3.1404948188
 20
4.3929905254
 30
0.0
 10
3.1716401273
 20
4.3937126445
 30
0.0
 10
3.2061989281
 20
4.3944356854
 30
0.0
 10
3.2440897253
 20
4.3951593325
 30
0.0
 10
3.2852221065
 20
4.3958835627
 30
0.0
 10
3.3294978963
 20
4.3966082641
 30
0.0
 10
3.3768126795
 20
4.3973332182
 30
0.0
 10
3.4270540889
 20
4.3980584312
 30
0.0
 10
3.4995435598
 20
4.3990496976
 30
0.0
 10
3.5965184664
 20
4.4002789667
 30
0.0
 10
3.7198670519
 20
4.4017229054
 30
0.0
 10
3.8516559465
 20
4.4031679705
 30
0.0
 10
3.9906350024
 20
4.4046140823
 30
0.0
 10
4.1354832858
 20
4.4060607881
 30
0.0
 10
4.2848262901
 20
4.4075079854
 30
0.0
 10
4.4372453911
 20
4.4089554623
 30
0.0
 10
4.5912935048
 20
4.4104030845
 30
0.0
 10
4.7455078645
 20
4.4118507262
 30
0.0
 10
4.8984239117
 20
4.4132982436
 30
0.0
 10
5.0485900443
 20
4.4147455243
 30
0.0
 10
5.194579653
 20
4.4161923492
 30
0.0
 10
5.3350074601
 20
4.4176386233
 30
0.0
 10
5.4685388382
 20
4.4190839632
 30
0.0
 10
5.5939069102
 20
4.4205281311
 30
0.0
 10
5.7099206666
 20
4.4219706729
 30
0.0
 10
5.8002439301
 20
4.423202603
 30
0.0
 10
5.8670070027
 20
4.4241974135
 30
0.0
 10
5.9126742448
 20
4.4249222856
 30
0.0
 10
5.9552448995
 20
4.4256467005
 30
0.0
 10
5.9946172142
 20
4.4263706172
 30
0.0
 10
6.0306973975
 20
4.4270940218
 30
0.0
 10
6.0634004413
 20
4.4278165652
 30
0.0
 10
6.0926487282
 20
4.42853777
 30
0.0
 10
6.1183720679
 20
4.4292576047
 30
0.0
 10
6.1375755527
 20
4.4298793635
 30
0.0
 10
6.1511312901
 20
4.4303843171
 30
0.0
 10
6.1599294527
 20
4.4307459113
 30
0.0
 10
6.1678060895
 20
4.4311069471
 30
0.0
 10
6.1747560421
 20
4.4314673617
 30
0.0
 10
6.1807754707
 20
4.4318266645
 30
0.0
 10
6.1858616382
 20
4.4321846271
 30
0.0
 10
6.1895147214
 20
4.432496522
 30
0.0
 10
6.1919676677
 20
4.4327528115
 30
0.0
 10
6.1934566476
 20
4.4329325114
 30
0.0
 10
6.1947106671
 20
4.4331114777
 30
0.0
 10
6.195730255
 20
4.4332889222
 30
0.0
 10
6.1965148433
 20
4.4334647475
 30
0.0
 10
6.1969557742
 20
4.4335998854
 30
0.0
 10
6.1971323224
 20
4.4336749078
 30
0.0
  0
LINE
  5
31A
100
AcDbEntity
  8
0
100
AcDbLine
 62
7
  6
CONTINUOUS
 10
6.1971323224
 20
4.4336749078
 11
6.1973101762
 21
4.4337620102
  0
SPLINE
  5
31B
100
AcDbEntity
  8
0
100
AcDbSpline
 62
7
  6
CONTINUOUS
 70
0
 71
3
 72
62
 73
58
 74
0
 42
0.0000001
 43
0.0000001
 44
0.0000000001
 40
0.0
 40
0.0
 40
0.0
 40
0.0
 40
0.0001414557
 40
0.0003513113
 40
0.0006313635
 40
0.0009822905
 40
0.0014043946
 40
0.0018978174
 40
0.0030988054
 40
0.0045853487
 40
0.0063572108
 40
0.0084137818
 40
0.0107536834
 40
0.0133753742
 40
0.01627729
 40
0.0229154649
 40
0.0306548163
 40
0.0394766823
 40
0.0493599379
 40
0.0602832415
 40
0.0722214497
 40
0.0851457627
 40
0.0990272081
 40
0.1138346189
 40
0.1460848312
 40
0.1816009556
 40
0.2200539
 40
0.2610903708
 40
0.3043320043
 40
0.3493796835
 40
0.3958190948
 40
0.4432214281
 40
0.4911502444
 40
0.5391635164
 40
0.5868189147
 40
0.6336770072
 40
0.6793058842
 40
0.723285478
 40
0.7652093904
 40
0.804692502
 40
0.8413700058
 40
0.8749039356
 40
0.9049864095
 40
0.9313382502
 40
0.9430392317
 40
0.9537188084
 40
0.9633531862
 40
0.9719211767
 40
0.9794017766
 40
0.9857777416
 40
0.9910361379
 40
0.9932423382
 40
0.9951644998
 40
0.9968015706
 40
0.9981531884
 40
0.9992192229
 40
1.0
 40
1.0
 40
1.0
 40
1.0
 10
2.9627488889
 20
3.4049518417
 30
0.0
 10
2.9628833575
 20
3.4050292516
 30
0.0
 10
2.9632483346
 20
3.4051631605
 30
0.0
 10
2.9639184731
 20
3.4053349316
 30
0.0
 10
2.9648251741
 20
3.4055086086
 30
0.0
 10
2.9659667483
 20
3.4056844347
 30
0.0
 10
2.9673447809
 20
3.4058611407
 30
0.0
 10
2.9696525044
 20
3.4061145398
 30
0.0
 10
2.9731283667
 20
3.4064219586
 30
0.0
 10
2.9780071174
 20
3.4067742917
 30
0.0
 10
2.9838263114
 20
3.4071280365
 30
0.0
 10
2.9905828973
 20
3.4074829414
 30
0.0
 10
2.9982727211
 20
3.407838544
 30
0.0
 10
3.0068906241
 20
3.4081947052
 30
0.0
 10
3.0202212262
 20
3.4086926791
 30
0.0
 10
3.0391647001
 20
3.4093054161
 30
0.0
 10
3.0646015555
 20
3.4100142489
 30
0.0
 10
3.093599001
 20
3.410724719
 30
0.0
 10
3.126089711
 20
3.4114365604
 30
0.0
 10
3.1619993585
 20
3.4121491584
 30
0.0
 10
3.2012452296
 20
3.4128623482
 30
0.0
 10
3.2437362745
 20
3.4135760848
 30
0.0
 10
3.2893748614
 20
3.4142902108
 30
0.0
 10
3.3562098074
 20
3.4152708206
 30
0.0
 10
3.4467742258
 20
3.4164851645
 30
0.0
 10
3.5632741363
 20
3.4179063384
 30
0.0
 10
3.6894120532
 20
3.419329226
 30
0.0
 10
3.8240243223
 20
3.4207533265
 30
0.0
 10
3.9658705192
 20
3.4221782957
 30
0.0
 10
4.1136433085
 20
3.4236039282
 30
0.0
 10
4.2659800383
 20
3.4250299567
 30
0.0
 10
4.421477128
 20
3.4264562967
 30
0.0
 10
4.5787006058
 20
3.4278827629
 30
0.0
 10
4.7362016736
 20
3.4293092648
 30
0.0
 10
4.892528251
 20
3.4307356596
 30
0.0
 10
5.0462393533
 20
3.4321618287
 30
0.0
 10
5.1959184086
 20
3.4335876411
 30
0.0
 10
5.3401850714
 20
3.4350128622
 30
0.0
 10
5.4777103041
 20
3.4364373693
 30
0.0
 10
5.6072256669
 20
3.4378607348
 30
0.0
 10
5.7275377486
 20
3.4392826308
 30
0.0
 10
5.8375378231
 20
3.4407023468
 30
0.0
 10
5.9362110048
 20
3.4421190728
 30
0.0
 10
6.0109365756
 20
3.4433390368
 30
0.0
 10
6.0643804427
 20
3.4443294851
 30
0.0
 10
6.099489403
 20
3.4450419925
 30
0.0
 10
6.1311611324
 20
3.4457535345
 30
0.0
 10
6.1593230538
 20
3.4464637047
 30
0.0
 10
6.1839097238
 20
3.4471717629
 30
0.0
 10
6.2048645203
 20
3.44787744
 30
0.0
 10
6.2200336111
 20
3.4484913806
 30
0.0
 10
6.2303173759
 20
3.4489951023
 30
0.0
 10
6.2366314429
 20
3.449349542
 30
0.0
 10
6.2420064615
 20
3.4497027877
 30
0.0
 10
6.2464404547
 20
3.4500532404
 30
0.0
 10
6.2499314582
 20
3.4504007955
 30
0.0
 10
6.251940985
 20
3.4506653931
 30
0.0
 10
6.2527848604
 20
3.450811379
 30
0.0
  0
SPLINE
  5
31C
100
AcDbEntity
  8
0
100
AcDbSpline
 62
7
  6
CONTINUOUS
 70
0
 71
3
 72
13
 73
9
 74
0
 42
0.0000001
 43
0.0000001
 44
0.0000000001
 40
0.0
 40
0.0
 40
0.0
 40
0.0
 40
0.4113244373
 40
0.5748471681
 40
0.7106186473
 40
0.8191731053
 40
0.9015913869
 40
1.0
 40
1.0
 40
1.0
 40
1.0
 10
6.2527848604
 20
3.450811379
 30
0.0
 10
6.2531158336
 20
3.4508686356
 30
0.0
 10
6.2535771824
 20
3.4509559123
 30
0.0
 10
6.2541410918
 20
3.4510957262
 30
0.0
 10
6.2544592694
 20
3.451190784
 30
0.0
 10
6.2547114306
 20
3.4512884519
 30
0.0
 10
6.2549142543
 20
3.4513912863
 30
0.0
 10
6.255045388
 20
3.4515122673
 30
0.0
 10
6.255045388
 20
3.4515926281
 30
0.0
  0
SPLINE
  5
31D
100
AcDbEntity
  8
0
100
AcDbSpline
 62
7
  6
CONTINUOUS
 70
0
 71
3
 72
13
 73
9
 74
0
 42
0.0000001
 43
0.0000001
 44
0.0000000001
 40
0.0
 40
0.0
 40
0.0
 40
0.0
 40
0.0506787786
 40
0.1219538925
 40
0.214413157
 40
0.3283080292
 40
0.6208296566
 40
1.0
 40
1.0
 40
1.0
 40
1.0
 10
3.0202815709
 20
3.4381723962
 30
0.0
 10
3.0203894426
 20
3.4382345503
 30
0.0
 10
3.0206692969
 20
3.4383469669
 30
0.0
 10
3.0211754574
 20
3.4384922528
 30
0.0
 10
3.0218420246
 20
3.4386390535
 30
0.0
 10
3.0230485162
 20
3.438854719
 30
0.0
 10
3.0249618749
 20
3.439112297
 30
0.0
 10
3.0266028207
 20
3.4392859368
 30
0.0
 10
3.0275299267
 20
3.439375934
 30
0.0
  0
SPLINE
  5
31E
100
AcDbEntity
  8
0
100
AcDbSpline
 62
7
  6
CONTINUOUS
 70
0
 71
3
 72
62
 73
58
 74
0
 42
0.0000001
 43
0.0000001
 44
0.0000000001
 40
0.0
 40
0.0
 40
0.0
 40
0.0
 40
0.0012988495
 40
0.0028783281
 40
0.0068773192
 40
0.0119878399
 40
0.0181978679
 40
0.0254950641
 40
0.0338635441
 40
0.0432827755
 40
0.0537318721
 40
0.0776265612
 40
0.1053287626
 40
0.1365905149
 40
0.1711277226
 40
0.2086283499
 40
0.2487539818
 40
0.2911403596
 40
0.3354056688
 40
0.3811481691
 40
0.4279550697
 40
0.4754024388
 40
0.5230614624
 40
0.5705007292
 40
0.6172915835
 40
0.663010276
 40
0.7072436973
 40
0.7495917656
 40
0.7896708073
 40
0.8271197634
 40
0.8615978317
 40
0.8776254948
 40
0.8927956043
 40
0.9070737236
 40
0.9204289673
 40
0.9328306576
 40
0.94424933
 40
0.954660653
 40
0.9640416691
 40
0.9723696396
 40
0.9796259556
 40
0.9828476449
 40
0.9857959407
 40
0.9884690443
 40
0.9908651713
 40
0.9929828173
 40
0.9948212198
 40
0.9963797936
 40
0.9976580621
 40
0.9986557795
 40
0.999373295
 40
0.9996276522
 40
0.9997290504
 40
0.999813532
 40
0.9998815232
 40
0.9999338576
 40
1.0
 40
1.0
 40
1.0
 40
1.0
 10
3.0275299267
 20
3.439375934
 30
0.0
 10
3.0288962374
 20
3.4395085662
 30
0.0
 10
3.0319277034
 20
3.4397648239
 30
0.0
 10
3.0391786734
 20
3.4402715868
 30
0.0
 10
3.0504599422
 20
3.4408789096
 30
0.0
 10
3.0666361174
 20
3.4415732975
 30
0.0
 10
3.0863006828
 20
3.4422715015
 30
0.0
 10
3.1094101736
 20
3.4429731379
 30
0.0
 10
3.1359127331
 20
3.4436764451
 30
0.0
 10
3.165747469
 20
3.4443813122
 30
0.0
 10
3.2119894301
 20
3.4453669491
 30
0.0
 10
3.2775537923
 20
3.4465770889
 30
0.0
 10
3.3651145987
 20
3.4479786429
 30
0.0
 10
3.4639245343
 20
3.4493834511
 30
0.0
 10
3.573091161
 20
3.4507910806
 30
0.0
 10
3.6916265695
 20
3.4522004604
 30
0.0
 10
3.8184581681
 20
3.4536110827
 30
0.0
 10
3.9524396553
 20
3.4550226973
 30
0.0
 10
4.0923578277
 20
3.4564348982
 30
0.0
 10
4.2369482036
 20
3.4578476255
 30
0.0
 10
4.3849018008
 20
3.4592606203
 30
0.0
 10
4.5348810294
 20
3.460673817
 30
0.0
 10
4.6855286248
 20
3.462087051
 30
0.0
 10
4.8354823302
 20
3.4635002462
 30
0.0
 10
4.9833852408
 20
3.4649132402
 30
0.0
 10
5.1278997902
 20
3.4663259435
 30
0.0
 10
5.2677186049
 20
3.4677381715
 30
0.0
 10
5.4015766549
 20
3.4691497147
 30
0.0
 10
5.5282639052
 20
3.4705603775
 30
0.0
 10
5.6466329462
 20
3.4719697105
 30
0.0
 10
5.7395831202
 20
3.4731701071
 30
0.0
 10
5.8089881234
 20
3.4741378633
 30
0.0
 10
5.857045658
 20
3.4748457213
 30
0.0
 10
5.9022784348
 20
3.4755533603
 30
0.0
 10
5.9445849392
 20
3.4762606375
 30
0.0
 10
5.9838688963
 20
3.4769674645
 30
0.0
 10
6.0200409367
 20
3.4776738752
 30
0.0
 10
6.0530198277
 20
3.478379588
 30
0.0
 10
6.0827314136
 20
3.4790842134
 30
0.0
 10
6.1091075049
 20
3.4797876878
 30
0.0
 10
6.1289740737
 20
3.4803938668
 30
0.0
 10
6.1431556337
 20
3.480884994
 30
0.0
 10
6.1524950915
 20
3.481238298
 30
0.0
 10
6.1609613584
 20
3.4815912237
 30
0.0
 10
6.16854891
 20
3.4819436691
 30
0.0
 10
6.175253239
 20
3.4822955303
 30
0.0
 10
6.1810710881
 20
3.4826463365
 30
0.0
 10
6.1859999594
 20
3.4829958725
 30
0.0
 10
6.1900382081
 20
3.4833421753
 30
0.0
 10
6.1931832867
 20
3.4836856684
 30
0.0
 10
6.1952446128
 20
3.4839868315
 30
0.0
 10
6.1963539227
 20
3.484226368
 30
0.0
 10
6.1968020493
 20
3.4843532577
 30
0.0
 10
6.1970554836
 20
3.484439878
 30
0.0
 10
6.1972554604
 20
3.4845285151
 30
0.0
 10
6.197421244
 20
3.4846248843
 30
0.0
 10
6.1975196291
 20
3.4847347993
 30
0.0
 10
6.1975193682
 20
3.4848047037
 30
0.0
  0
SPLINE
  5
31F
100
AcDbEntity
  8
0
100
AcDbSpline
 62
7
  6
CONTINUOUS
 70
0
 71
3
 72
62
 73
58
 74
0
 42
0.0000001
 43
0.0000001
 44
0.0000000001
 40
0.0
 40
0.0
 40
0.0
 40
0.0
 40
0.0001414557
 40
0.0003513113
 40
0.0006313635
 40
0.0009822905
 40
0.0014043946
 40
0.0018978174
 40
0.0030988054
 40
0.0045853487
 40
0.0063572108
 40
0.0084137818
 40
0.0107536834
 40
0.0133753742
 40
0.01627729
 40
0.0229154649
 40
0.0306548163
 40
0.0394766823
 40
0.0493599379
 40
0.0602832415
 40
0.0722214497
 40
0.0851457627
 40
0.0990272081
 40
0.1138346189
 40
0.1460848312
 40
0.1816009556
 40
0.2200539
 40
0.2610903708
 40
0.3043320043
 40
0.3493796835
 40
0.3958190948
 40
0.4432214281
 40
0.4911502444
 40
0.5391635164
 40
0.5868189147
 40
0.6336770072
 40
0.6793058842
 40
0.723285478
 40
0.7652093904
 40
0.804692502
 40
0.8413700058
 40
0.8749039356
 40
0.9049864095
 40
0.9313382502
 40
0.9430392317
 40
0.9537188084
 40
0.9633531862
 40
0.9719211767
 40
0.9794017766
 40
0.9857777416
 40
0.9910361379
 40
0.9932423382
 40
0.9951644998
 40
0.9968015706
 40
0.9981531884
 40
0.9992192229
 40
1.0
 40
1.0
 40
1.0
 40
1.0
 10
2.9627488889
 20
3.7799518417
 30
0.0
 10
2.9628833575
 20
3.7800292516
 30
0.0
 10
2.9632483346
 20
3.7801631605
 30
0.0
 10
2.9639184731
 20
3.7803349316
 30
0.0
 10
2.9648251741
 20
3.7805086086
 30
0.0
 10
2.9659667483
 20
3.7806844347
 30
0.0
 10
2.9673447809
 20
3.7808611407
 30
0.0
 10
2.9696525044
 20
3.7811145398
 30
0.0
 10
2.9731283667
 20
3.7814219586
 30
0.0
 10
2.9780071174
 20
3.7817742917
 30
0.0
 10
2.9838263114
 20
3.7821280365
 30
0.0
 10
2.9905828973
 20
3.7824829414
 30
0.0
 10
2.9982727211
 20
3.782838544
 30
0.0
 10
3.0068906241
 20
3.7831947052
 30
0.0
 10
3.0202212262
 20
3.7836926791
 30
0.0
 10
3.0391647001
 20
3.7843054161
 30
0.0
 10
3.0646015555
 20
3.7850142489
 30
0.0
 10
3.093599001
 20
3.785724719
 30
0.0
 10
3.126089711
 20
3.7864365604
 30
0.0
 10
3.1619993585
 20
3.7871491584
 30
0.0
 10
3.2012452296
 20
3.7878623482
 30
0.0
 10
3.2437362745
 20
3.7885760848
 30
0.0
 10
3.2893748614
 20
3.7892902108
 30
0.0
 10
3.3562098074
 20
3.7902708206
 30
0.0
 10
3.4467742258
 20
3.7914851645
 30
0.0
 10
3.5632741363
 20
3.7929063384
 30
0.0
 10
3.6894120532
 20
3.794329226
 30
0.0
 10
3.8240243223
 20
3.7957533265
 30
0.0
 10
3.9658705192
 20
3.7971782957
 30
0.0
 10
4.1136433085
 20
3.7986039282
 30
0.0
 10
4.2659800383
 20
3.8000299567
 30
0.0
 10
4.421477128
 20
3.8014562967
 30
0.0
 10
4.5787006058
 20
3.8028827629
 30
0.0
 10
4.7362016736
 20
3.8043092648
 30
0.0
 10
4.892528251
 20
3.8057356596
 30
0.0
 10
5.0462393533
 20
3.8071618287
 30
0.0
 10
5.1959184086
 20
3.8085876411
 30
0.0
 10
5.3401850714
 20
3.8100128622
 30
0.0
 10
5.4777103041
 20
3.8114373693
 30
0.0
 10
5.6072256669
 20
3.8128607348
 30
0.0
 10
5.7275377486
 20
3.8142826308
 30
0.0
 10
5.8375378231
 20
3.8157023468
 30
0.0
 10
5.9362110048
 20
3.8171190728
 30
0.0
 10
6.0109365756
 20
3.8183390368
 30
0.0
 10
6.0643804427
 20
3.8193294851
 30
0.0
 10
6.099489403
 20
3.8200419925
 30
0.0
 10
6.1311611324
 20
3.8207535345
 30
0.0
 10
6.1593230538
 20
3.8214637047
 30
0.0
 10
6.1839097238
 20
3.8221717629
 30
0.0
 10
6.2048645203
 20
3.82287744
 30
0.0
 10
6.2200336111
 20
3.8234913806
 30
0.0
 10
6.2303173759
 20
3.8239951023
 30
0.0
 10
6.2366314429
 20
3.824349542
 30
0.0
 10
6.2420064615
 20
3.8247027877
 30
0.0
 10
6.2464404547
 20
3.8250532404
 30
0.0
 10
6.2499314582
 20
3.8254007955
 30
0.0
 10
6.251940985
 20
3.8256653931
 30
0.0
 10
6.2527848604
 20
3.825811379
 30
0.0
  0
SPLINE
  5
320
100
AcDbEntity
  8
0
100
AcDbSpline
 62
7
  6
CONTINUOUS
 70
0
 71
3
 72
13
 73
9
 74
0
 42
0.0000001
 43
0.0000001
 44
0.0000000001
 40
0.0
 40
0.0
 40
0.0
 40
0.0
 40
0.4113244373
 40
0.5748471681
 40
0.7106186473
 40
0.8191731053
 40
0.9015913869
 40
1.0
 40
1.0
 40
1.0
 40
1.0
 10
6.2527848604
 20
3.825811379
 30
0.0
 10
6.2531158336
 20
3.8258686356
 30
0.0
 10
6.2535771824
 20
3.8259559123
 30
0.0
 10
6.2541410918
 20
3.8260957262
 30
0.0
 10
6.2544592694
 20
3.826190784
 30
0.0
 10
6.2547114306
 20
3.8262884519
 30
0.0
 10
6.2549142543
 20
3.8263912863
 30
0.0
 10
6.255045388
 20
3.8265122673
 30
0.0
 10
6.255045388
 20
3.8265926281
 30
0.0
  0
SPLINE
  5
321
100
AcDbEntity
  8
0
100
AcDbSpline
 62
7
  6
CONTINUOUS
 70
0
 71
3
 72
62
 73
58
 74
0
 42
0.0000001
 43
0.0000001
 44
0.0000000001
 40
0.0
 40
0.0
 40
0.0
 40
0.0
 40
0.0001414557
 40
0.0003513113
 40
0.0006313635
 40
0.0009822905
 40
0.0014043946
 40
0.0018978174
 40
0.0030988054
 40
0.0045853487
 40
0.0063572108
 40
0.0084137818
 40
0.0107536834
 40
0.0133753742
 40
0.01627729
 40
0.0229154649
 40
0.0306548163
 40
0.0394766823
 40
0.0493599379
 40
0.0602832415
 40
0.0722214497
 40
0.0851457627
 40
0.0990272081
 40
0.1138346189
 40
0.1460848312
 40
0.1816009556
 40
0.2200539
 40
0.2610903708
 40
0.3043320043
 40
0.3493796835
 40
0.3958190948
 40
0.4432214281
 40
0.4911502444
 40
0.5391635164
 40
0.5868189147
 40
0.6336770072
 40
0.6793058842
 40
0.723285478
 40
0.7652093904
 40
0.804692502
 40
0.8413700058
 40
0.8749039356
 40
0.9049864095
 40
0.9313382502
 40
0.9430392317
 40
0.9537188084
 40
0.9633531862
 40
0.9719211767
 40
0.9794017766
 40
0.9857777416
 40
0.9910361379
 40
0.9932423382
 40
0.9951644998
 40
0.9968015706
 40
0.9981531884
 40
0.9992192229
 40
1.0
 40
1.0
 40
1.0
 40
1.0
 10
2.9627488889
 20
3.3112018417
 30
0.0
 10
2.9628833575
 20
3.3112792516
 30
0.0
 10
2.9632483346
 20
3.3114131605
 30
0.0
 10
2.9639184731
 20
3.3115849316
 30
0.0
 10
2.9648251741
 20
3.3117586086
 30
0.0
 10
2.9659667483
 20
3.3119344347
 30
0.0
 10
2.9673447809
 20
3.3121111407
 30
0.0
 10
2.9696525044
 20
3.3123645398
 30
0.0
 10
2.9731283667
 20
3.3126719586
 30
0.0
 10
2.9780071174
 20
3.3130242917
 30
0.0
 10
2.9838263114
 20
3.3133780365
 30
0.0
 10
2.9905828973
 20
3.3137329414
 30
0.0
 10
2.9982727211
 20
3.314088544
 30
0.0
 10
3.0068906241
 20
3.3144447052
 30
0.0
 10
3.0202212262
 20
3.3149426791
 30
0.0
 10
3.0391647001
 20
3.3155554161
 30
0.0
 10
3.0646015555
 20
3.3162642489
 30
0.0
 10
3.093599001
 20
3.316974719
 30
0.0
 10
3.126089711
 20
3.3176865604
 30
0.0
 10
3.1619993585
 20
3.3183991584
 30
0.0
 10
3.2012452296
 20
3.3191123482
 30
0.0
 10
3.2437362745
 20
3.3198260848
 30
0.0
 10
3.2893748614
 20
3.3205402108
 30
0.0
 10
3.3562098074
 20
3.3215208206
 30
0.0
 10
3.4467742258
 20
3.3227351645
 30
0.0
 10
3.5632741363
 20
3.3241563384
 30
0.0
 10
3.6894120532
 20
3.325579226
 30
0.0
 10
3.8240243223
 20
3.3270033265
 30
0.0
 10
3.9658705192
 20
3.3284282957
 30
0.0
 10
4.1136433085
 20
3.3298539282
 30
0.0
 10
4.2659800383
 20
3.3312799567
 30
0.0
 10
4.421477128
 20
3.3327062967
 30
0.0
 10
4.5787006058
 20
3.3341327629
 30
0.0
 10
4.7362016736
 20
3.3355592648
 30
0.0
 10
4.892528251
 20
3.3369856596
 30
0.0
 10
5.0462393533
 20
3.3384118287
 30
0.0
 10
5.1959184086
 20
3.3398376411
 30
0.0
 10
5.3401850714
 20
3.3412628622
 30
0.0
 10
5.4777103041
 20
3.3426873693
 30
0.0
 10
5.6072256669
 20
3.3441107348
 30
0.0
 10
5.7275377486
 20
3.3455326308
 30
0.0
 10
5.8375378231
 20
3.3469523468
 30
0.0
 10
5.9362110048
 20
3.3483690728
 30
0.0
 10
6.0109365756
 20
3.3495890368
 30
0.0
 10
6.0643804427
 20
3.3505794851
 30
0.0
 10
6.099489403
 20
3.3512919925
 30
0.0
 10
6.1311611324
 20
3.3520035345
 30
0.0
 10
6.1593230538
 20
3.3527137047
 30
0.0
 10
6.1839097238
 20
3.3534217629
 30
0.0
 10
6.2048645203
 20
3.35412744
 30
0.0
 10
6.2200336111
 20
3.3547413806
 30
0.0
 10
6.2303173759
 20
3.3552451023
 30
0.0
 10
6.2366314429
 20
3.355599542
 30
0.0
 10
6.2420064615
 20
3.3559527877
 30
0.0
 10
6.2464404547
 20
3.3563032404
 30
0.0
 10
6.2499314582
 20
3.3566507955
 30
0.0
 10
6.251940985
 20
3.3569153931
 30
0.0
 10
6.2527848604
 20
3.357061379
 30
0.0
  0
SPLINE
  5
322
100
AcDbEntity
  8
0
100
AcDbSpline
 62
7
  6
CONTINUOUS
 70
0
 71
3
 72
13
 73
9
 74
0
 42
0.0000001
 43
0.0000001
 44
0.0000000001
 40
0.0
 40
0.0
 40
0.0
 40
0.0
 40
0.4113244373
 40
0.5748471681
 40
0.7106186473
 40
0.8191731053
 40
0.9015913869
 40
1.0
 40
1.0
 40
1.0
 40
1.0
 10
6.2527848604
 20
3.357061379
 30
0.0
 10
6.2531158336
 20
3.3571186356
 30
0.0
 10
6.2535771824
 20
3.3572059123
 30
0.0
 10
6.2541410918
 20
3.3573457262
 30
0.0
 10
6.2544592694
 20
3.357440784
 30
0.0
 10
6.2547114306
 20
3.3575384519
 30
0.0
 10
6.2549142543
 20
3.3576412863
 30
0.0
 10
6.255045388
 20
3.3577622673
 30
0.0
 10
6.255045388
 20
3.3578426281
 30
0.0
  0
SPLINE
  5
323
100
AcDbEntity
  8
0
100
AcDbSpline
 62
7
  6
CONTINUOUS
 70
0
 71
3
 72
12
 73
8
 74
0
 42
0.0000001
 43
0.0000001
 44
0.0000000001
 40
0.0
 40
0.0
 40
0.0
 40
0.0
 40
0.0592458586
 40
0.1366462493
 40
0.3477685237
 40
0.6353555952
 40
1.0
 40
1.0
 40
1.0
 40
1.0
 10
3.0202805607
 20
3.3444223947
 30
0.0
 10
3.0203537652
 20
3.344464683
 30
0.0
 10
3.0205324716
 20
3.3445447046
 30
0.0
 10
3.0210032676
 20
3.344702307
 30
0.0
 10
3.0218059119
 20
3.3448868471
 30
0.0
 10
3.0230197308
 20
3.3450972025
 30
0.0
 10
3.0239421192
 20
3.3452233377
 30
0.0
 10
3.0244583399
 20
3.3452886077
 30
0.0
  0
SPLINE
  5
324
100
AcDbEntity
  8
0
100
AcDbSpline
 62
7
  6
CONTINUOUS
 70
0
 71
3
 72
64
 73
60
 74
0
 42
0.0000001
 43
0.0000001
 44
0.0000000001
 40
0.0
 40
0.0
 40
0.0
 40
0.0
 40
0.0010402351
 40
0.002364892
 40
0.0039737394
 40
0.0058663338
 40
0.0104999756
 40
0.0162551264
 40
0.0231176636
 40
0.0310732455
 40
0.0401046047
 40
0.0501893246
 40
0.0613044309
 40
0.0734261327
 40
0.1005717276
 40
0.1313775263
 40
0.1655593161
 40
0.2028056121
 40
0.2427723433
 40
0.2850942987
 40
0.3293821105
 40
0.3752294043
 40
0.4222156497
 40
0.4699090213
 40
0.5178721525
 40
0.5656643992
 40
0.612847407
 40
0.6589874692
 40
0.7036619903
 40
0.7464595345
 40
0.7869886973
 40
0.8248763476
 40
0.8597750981
 40
0.8760024285
 40
0.8913653912
 40
0.9058272728
 40
0.9193554634
 40
0.9319200581
 40
0.9434912217
 40
0.9540415262
 40
0.9635485241
 40
0.9719904059
 40
0.9793461132
 40
0.9826116232
 40
0.9856000526
 40
0.9883097778
 40
0.9907391891
 40
0.9928866975
 40
0.9947508189
 40
0.996330798
 40
0.9976263595
 40
0.9986374623
 40
0.9993646584
 40
0.999622528
 40
0.9997253599
 40
0.9998110611
 40
0.999880046
 40
0.9999331312
 40
1.0
 40
1.0
 40
1.0
 40
1.0
 10
3.0244583399
 20
3.3452886077
 30
0.0
 10
3.0255501269
 20
3.3454266513
 30
0.0
 10
3.0280387807
 20
3.3456877863
 30
0.0
 10
3.0322281672
 20
3.3460377759
 30
0.0
 10
3.037321763
 20
3.3463898794
 30
0.0
 10
3.0459131676
 20
3.3468961639
 30
0.0
 10
3.0588917366
 20
3.3475088345
 30
0.0
 10
3.0771287503
 20
3.3482108936
 30
0.0
 10
3.0988821853
 20
3.34891617
 30
0.0
 10
3.1241030035
 20
3.3496240835
 30
0.0
 10
3.1527337528
 20
3.3503333828
 30
0.0
 10
3.1847078833
 20
3.3510439173
 30
0.0
 10
3.2199520389
 20
3.3517553322
 30
0.0
 10
3.2732431781
 20
3.3527421432
 30
0.0
 10
3.3473645863
 20
3.3539588405
 30
0.0
 10
3.4448233509
 20
3.3553735389
 30
0.0
 10
3.5529687605
 20
3.3567909915
 30
0.0
 10
3.6708063785
 20
3.3582103503
 30
0.0
 10
3.7972561528
 20
3.359631201
 30
0.0
 10
3.931155676
 20
3.36105298
 30
0.0
 10
4.0712766544
 20
3.3624755107
 30
0.0
 10
4.2163322899
 20
3.3638985463
 30
0.0
 10
4.3649908802
 20
3.3653219035
 30
0.0
 10
4.5158879431
 20
3.3667454814
 30
0.0
 10
4.6676377232
 20
3.3681691121
 30
0.0
 10
4.8188475588
 20
3.3695927167
 30
0.0
 10
4.9681286598
 20
3.371016125
 30
0.0
 10
5.114111325
 20
3.37243927
 30
0.0
 10
5.2554543257
 20
3.3738618873
 30
0.0
 10
5.3908611712
 20
3.3752839185
 30
0.0
 10
5.5190876876
 20
3.3767049301
 30
0.0
 10
5.6389574273
 20
3.3781247692
 30
0.0
 10
5.7331185727
 20
3.3793338438
 30
0.0
 10
5.8034515202
 20
3.3803087536
 30
0.0
 10
5.8521655532
 20
3.3810218266
 30
0.0
 10
5.898023808
 20
3.3817346867
 30
0.0
 10
5.9409212545
 20
3.3824472576
 30
0.0
 10
5.9807601268
 20
3.3831593576
 30
0.0
 10
6.01744812
 20
3.3838709142
 30
0.0
 10
6.050900789
 20
3.3845818983
 30
0.0
 10
6.0810421539
 20
3.3852918363
 30
0.0
 10
6.107802896
 20
3.3860004418
 30
0.0
 10
6.1279608512
 20
3.3866110811
 30
0.0
 10
6.1423502028
 20
3.3871058889
 30
0.0
 10
6.1518263269
 20
3.3874618292
 30
0.0
 10
6.1604172632
 20
3.3878173928
 30
0.0
 10
6.1681177636
 20
3.388172468
 30
0.0
 10
6.1749226522
 20
3.3885268773
 30
0.0
 10
6.1808276301
 20
3.388880262
 30
0.0
 10
6.1858294631
 20
3.389232403
 30
0.0
 10
6.189926758
 20
3.3895812935
 30
0.0
 10
6.1931176037
 20
3.3899273599
 30
0.0
 10
6.1952090711
 20
3.3902307984
 30
0.0
 10
6.1963349469
 20
3.3904720956
 30
0.0
 10
6.1967900708
 20
3.3905999176
 30
0.0
 10
6.1970476104
 20
3.3906871754
 30
0.0
 10
6.1972510366
 20
3.3907764588
 30
0.0
 10
6.1974194951
 20
3.3908734017
 30
0.0
 10
6.1975203142
 20
3.3909839608
 30
0.0
 10
6.1975203683
 20
3.3910547022
 30
0.0
  0
SPLINE
  5
325
100
AcDbEntity
  8
0
100
AcDbSpline
 62
7
  6
CONTINUOUS
 70
0
 71
3
 72
14
 73
10
 74
0
 42
0.0000001
 43
0.0000001
 44
0.0000000001
 40
0.0
 40
0.0
 40
0.0
 40
0.0
 40
0.1780899523
 40
0.3207319158
 40
0.5203867279
 40
0.6072692059
 40
0.7088856541
 40
0.8377077649
 40
1.0
 40
1.0
 40
1.0
 40
1.0
 10
2.8654487249
 20
4.8964104882
 30
0.0
 10
2.8655866355
 20
4.8963296882
 30
0.0
 10
2.8658304336
 20
4.8961717492
 30
0.0
 10
2.8661823016
 20
4.895874867
 30
0.0
 10
2.8664143721
 20
4.8955111486
 30
0.0
 10
2.8663266585
 20
4.895156779
 30
0.0
 10
2.8661403549
 20
4.8949338257
 30
0.0
 10
2.86585056
 20
4.8947296233
 30
0.0
 10
2.8656143193
 20
4.8946158293
 30
0.0
 10
2.8654802329
 20
4.8945589318
 30
0.0
  0
SPLINE
  5
326
100
AcDbEntity
  8
0
100
AcDbSpline
 62
7
  6
CONTINUOUS
 70
0
 71
3
 72
14
 73
10
 74
0
 42
0.0000001
 43
0.0000001
 44
0.0000000001
 40
0.0
 40
0.0
 40
0.0
 40
0.0
 40
0.0606718055
 40
0.1399508345
 40
0.238093184
 40
0.3550407458
 40
0.4903355544
 40
0.6433636796
 40
1.0
 40
1.0
 40
1.0
 40
1.0
 10
2.7204209073
 20
4.910736747
 30
0.0
 10
2.7207295982
 20
4.910567537
 30
0.0
 10
2.721479856
 20
4.9102488131
 30
0.0
 10
2.7227958681
 20
4.9098272394
 30
0.0
 10
2.724451201
 20
4.9094028371
 30
0.0
 10
2.7264393142
 20
4.908976798
 30
0.0
 10
2.7287518139
 20
4.9085492458
 30
0.0
 10
2.7324452749
 20
4.9079465443
 30
0.0
 10
2.735375246
 20
4.9075430789
 30
0.0
 10
2.737427566
 20
4.9072789194
 30
0.0
  0
LINE
  5
327
100
AcDbEntity
  8
0
100
AcDbLine
 62
7
  6
CONTINUOUS
 10
2.737427566
 20
4.9072789194
 11
2.7497756494
 21
4.9058656086
  0
LINE
  5
328
100
AcDbEntity
  8
0
100
AcDbLine
 62
7
  6
CONTINUOUS
 10
2.7497756494
 20
4.9058656086
 11
2.7890882022
 21
4.9023322534
  0
LINE
  5
329
100
AcDbEntity
  8
0
100
AcDbLine
 62
7
  6
CONTINUOUS
 10
2.7890882022
 20
4.9023322534
 11
2.8061391405
 21
4.9009189256
  0
LINE
  5
32A
100
AcDbEntity
  8
0
100
AcDbLine
 62
7
  6
CONTINUOUS
 10
2.8061391405
 20
4.9009189256
 11
2.8305160092
 21
4.8987989277
  0
LINE
  5
32B
100
AcDbEntity
  8
0
100
AcDbLine
 62
7
  6
CONTINUOUS
 10
2.8305160092
 20
4.8987989277
 11
2.8447898978
 21
4.8973856634
  0
LINE
  5
32C
100
AcDbEntity
  8
0
100
AcDbLine
 62
7
  6
CONTINUOUS
 10
2.8447898978
 20
4.8973856634
 11
2.8566368661
 21
4.8959722013
  0
LINE
  5
32D
100
AcDbEntity
  8
0
100
AcDbLine
 62
7
  6
CONTINUOUS
 10
2.8566368661
 20
4.8959722013
 11
2.8614646196
 21
4.8952655809
  0
LINE
  5
32E
100
AcDbEntity
  8
0
100
AcDbLine
 62
7
  6
CONTINUOUS
 10
2.8614646196
 20
4.8952655809
 11
2.8654802329
 21
4.8945589318
  0
SPLINE
  5
32F
100
AcDbEntity
  8
0
100
AcDbSpline
 62
7
  6
CONTINUOUS
 70
0
 71
3
 72
12
 73
8
 74
0
 42
0.0000001
 43
0.0000001
 44
0.0000000001
 40
0.0
 40
0.0
 40
0.0
 40
0.0
 40
0.0576904318
 40
0.1339749002
 40
0.344220415
 40
0.6327101059
 40
1.0
 40
1.0
 40
1.0
 40
1.0
 10
3.0202806148
 20
3.8131723945
 30
0.0
 10
3.0203587171
 20
3.8132175296
 30
0.0
 10
3.0205512733
 20
3.8133024282
 30
0.0
 10
3.0210631261
 20
3.8134695461
 30
0.0
 10
3.021942561
 20
3.8136644849
 30
0.0
 10
3.023278205
 20
3.8138868773
 30
0.0
 10
3.0242952196
 20
3.8140199853
 30
0.0
 10
3.0248653669
 20
3.8140889502
 30
0.0
  0
SPLINE
  5
330
100
AcDbEntity
  8
0
100
AcDbSpline
 62
7
  6
CONTINUOUS
 70
0
 71
3
 72
64
 73
60
 74
0
 42
0.0000001
 43
0.0000001
 44
0.0000000001
 40
0.0
 40
0.0
 40
0.0
 40
0.0
 40
0.0010791169
 40
0.0024420572
 40
0.0040885266
 40
0.0060180413
 40
0.0107233091
 40
0.0165469995
 40
0.0234748429
 40
0.0314923594
 40
0.040582195
 40
0.0507218468
 40
0.0618882436
 40
0.0740575302
 40
0.1012870746
 40
0.1321616086
 40
0.1663969663
 40
0.2036818265
 40
0.2436725165
 40
0.2860044461
 40
0.3302889515
 40
0.3761206446
 40
0.4230800054
 40
0.4707364459
 40
0.51865387
 40
0.5663930453
 40
0.6135170358
 40
0.6595936646
 40
0.7042018188
 40
0.7469315707
 40
0.7873930566
 40
0.8252144508
 40
0.8600499283
 40
0.876247033
 40
0.8915810038
 40
0.9060153028
 40
0.9195172807
 40
0.9320572563
 40
0.9436056357
 40
0.9541349275
 40
0.9636227723
 40
0.9720476
 40
0.9793884338
 40
0.9826472601
 40
0.9856295398
 40
0.9883336772
 40
0.9907580902
 40
0.9929012177
 40
0.9947615708
 40
0.9963383126
 40
0.9976311836
 40
0.9986401677
 40
0.999365842
 40
0.9996231821
 40
0.9997258085
 40
0.9998113439
 40
0.9998802031
 40
0.999933202
 40
1.0
 40
1.0
 40
1.0
 40
1.0
 10
3.0248653669
 20
3.8140889502
 30
0.0
 10
3.0259985724
 20
3.8142260224
 30
0.0
 10
3.0285689823
 20
3.8144863835
 30
0.0
 10
3.0328796524
 20
3.8148363802
 30
0.0
 10
3.0380922037
 20
3.8151883634
 30
0.0
 10
3.0468374295
 20
3.8156935725
 30
0.0
 10
3.0600018487
 20
3.8163056087
 30
0.0
 10
3.0784540208
 20
3.8170072085
 30
0.0
 10
3.1004118542
 20
3.8177119356
 30
0.0
 10
3.1258259512
 20
3.8184192043
 30
0.0
 10
3.1546385439
 20
3.8191278196
 30
0.0
 10
3.1867828125
 20
3.8198376381
 30
0.0
 10
3.2221851524
 20
3.8205483192
 30
0.0
 10
3.2756628468
 20
3.8215338082
 30
0.0
 10
3.3499865642
 20
3.8227490547
 30
0.0
 10
3.4476509429
 20
3.8241623254
 30
0.0
 10
3.5559525685
 20
3.8255783091
 30
0.0
 10
3.6738977799
 20
3.8269961722
 30
0.0
 10
3.8004079171
 20
3.8284155102
 30
0.0
 10
3.9343225471
 20
3.8298357618
 30
0.0
 10
4.0744159801
 20
3.8312567596
 30
0.0
 10
4.2194044419
 20
3.832678253
 30
0.0
 10
4.3679598237
 20
3.8341000659
 30
0.0
 10
4.5187215415
 20
3.8355220941
 30
0.0
 10
4.6703081652
 20
3.8369441741
 30
0.0
 10
4.8213315508
 20
3.8383662245
 30
0.0
 10
4.9704076998
 20
3.839788079
 30
0.0
 10
5.1161717749
 20
3.8412096678
 30
0.0
 10
5.2572875025
 20
3.8426307287
 30
0.0
 10
5.3924633528
 20
3.8440512056
 30
0.0
 10
5.5204599188
 20
3.8454706572
 30
0.0
 10
5.6401055679
 20
3.8468889478
 30
0.0
 10
5.7340855598
 20
3.8480967072
 30
0.0
 10
5.8042798499
 20
3.8490705651
 30
0.0
 10
5.852895772
 20
3.8497828561
 30
0.0
 10
5.8986605299
 20
3.8504949271
 30
0.0
 10
5.9414694873
 20
3.8512067174
 30
0.0
 10
5.9812253412
 20
3.8519180398
 30
0.0
 10
6.0178362239
 20
3.8526288078
 30
0.0
 10
6.051217982
 20
3.8533390094
 30
0.0
 10
6.0812949247
 20
3.854048173
 30
0.0
 10
6.1079981752
 20
3.8547560026
 30
0.0
 10
6.1281126825
 20
3.8553659609
 30
0.0
 10
6.1424708656
 20
3.8558602305
 30
0.0
 10
6.1519262787
 20
3.8562157802
 30
0.0
 10
6.1604984011
 20
3.8565709544
 30
0.0
 10
6.1681820735
 20
3.856925641
 30
0.0
 10
6.1749721746
 20
3.8572796623
 30
0.0
 10
6.1808643444
 20
3.8576326482
 30
0.0
 10
6.1858552734
 20
3.8579844024
 30
0.0
 10
6.189943525
 20
3.8583329106
 30
0.0
 10
6.193127259
 20
3.8586785993
 30
0.0
 10
6.1952140402
 20
3.8589817086
 30
0.0
 10
6.1963373805
 20
3.8592227407
 30
0.0
 10
6.1967914898
 20
3.8593504197
 30
0.0
 10
6.197048472
 20
3.8594375859
 30
0.0
 10
6.1972514636
 20
3.8595267675
 30
0.0
 10
6.1974196198
 20
3.8596236425
 30
0.0
 10
6.1975202113
 20
3.8597340446
 30
0.0
 10
6.1975203126
 20
3.859804702
 30
0.0
  0
SPLINE
  5
331
100
AcDbEntity
  8
0
100
AcDbSpline
 62
7
  6
CONTINUOUS
 70
0
 71
3
 72
14
 73
10
 74
0
 42
0.0000001
 43
0.0000001
 44
0.0000000001
 40
0.0
 40
0.0
 40
0.0
 40
0.0
 40
0.0486991018
 40
0.1185729473
 40
0.2102091363
 40
0.3238471403
 40
0.459600791
 40
0.617528152
 40
1.0
 40
1.0
 40
1.0
 40
1.0
 10
3.0202812106
 20
4.375672396
 30
0.0
 10
3.0204000325
 20
4.375740873
 30
0.0
 10
3.0207135506
 20
4.3758628381
 30
0.0
 10
3.0212840083
 20
4.3760198515
 30
0.0
 10
3.0220430877
 20
4.3761785439
 30
0.0
 10
3.0229900154
 20
4.3763387627
 30
0.0
 10
3.0241258625
 20
4.3764997224
 30
0.0
 10
3.026016056
 20
4.3767300157
 30
0.0
 10
3.0275307532
 20
4.3768792489
 30
0.0
 10
3.0286034202
 20
4.3769766189
 30
0.0
  0
SPLINE
  5
332
100
AcDbEntity
  8
0
100
AcDbSpline
 62
7
  6
CONTINUOUS
 70
0
 71
3
 72
60
 73
56
 74
0
 42
0.0000001
 43
0.0000001
 44
0.0000000001
 40
0.0
 40
0.0
 40
0.0
 40
0.0
 40
0.0013755912
 40
0.0030305177
 40
0.007176239
 40
0.0124276119
 40
0.0187722951
 40
0.0261976624
 40
0.0346876393
 40
0.0547781383
 40
0.0788662562
 40
0.1067323337
 40
0.1381280968
 40
0.1727693786
 40
0.2103447271
 40
0.2505164085
 40
0.2929214676
 40
0.3371795617
 40
0.4296445052
 40
0.4770190787
 40
0.524588301
 40
0.5719234302
 40
0.6185987057
 40
0.6641931928
 40
0.7082968856
 40
0.750512424
 40
0.7904592781
 40
0.8277789526
 40
0.8621334435
 40
0.8781021833
 40
0.8932158849
 40
0.9074400519
 40
0.9207441466
 40
0.9330979834
 40
0.9444722029
 40
0.9548424336
 40
0.9641861877
 40
0.9724810883
 40
0.9797082076
 40
0.9829168319
 40
0.9858531585
 40
0.9885154439
 40
0.9909019584
 40
0.9930111089
 40
0.9948420385
 40
0.9963942114
 40
0.9976672007
 40
0.9986608105
 40
0.9993754393
 40
0.9996288258
 40
0.9997298591
 40
0.9998140546
 40
0.9998818275
 40
0.9999340053
 40
1.0
 40
1.0
 40
1.0
 40
1.0
 10
3.0286034202
 20
4.3769766189
 30
0.0
 10
3.0300508153
 20
4.3771080045
 30
0.0
 10
3.0332426533
 20
4.3773628655
 30
0.0
 10
3.0408078497
 20
4.3778671972
 30
0.0
 10
3.0524693376
 20
4.378473529
 30
0.0
 10
3.0690865419
 20
4.3791671656
 30
0.0
 10
3.0891711905
 20
4.3798643996
 30
0.0
 10
3.1126790817
 20
4.380564889
 30
0.0
 10
3.1507072596
 20
4.3815575062
 30
0.0
 10
3.2063399848
 20
4.3827677873
 30
0.0
 10
3.2824443122
 20
4.3841607592
 30
0.0
 10
3.3704945676
 20
4.3855590141
 30
0.0
 10
3.4696956597
 20
4.3869611192
 30
0.0
 10
3.5791557227
 20
4.3883657449
 30
0.0
 10
3.697888433
 20
4.389772137
 30
0.0
 10
3.8248242859
 20
4.3911797174
 30
0.0
 10
3.9588210213
 20
4.3925883009
 30
0.0
 10
4.1480646762
 20
4.3944949849
 30
0.0
 10
4.3425593938
 20
4.3963619357
 30
0.0
 10
4.5405525669
 20
4.3982270757
 30
0.0
 10
4.6908671491
 20
4.3996371742
 30
0.0
 10
4.8404428731
 20
4.4010472714
 30
0.0
 10
4.9879321492
 20
4.4024571504
 30
0.0
 10
5.1320071771
 20
4.4038667465
 30
0.0
 10
5.2713701561
 20
4.4052758558
 30
0.0
 10
5.4047659623
 20
4.4066842931
 30
0.0
 10
5.5309938778
 20
4.408091837
 30
0.0
 10
5.6489158692
 20
4.4094980651
 30
0.0
 10
5.7415050392
 20
4.410695838
 30
0.0
 10
5.8106340349
 20
4.411661491
 30
0.0
 10
5.8584963799
 20
4.4123677712
 30
0.0
 10
5.9035431407
 20
4.4130738454
 30
0.0
 10
5.9456736615
 20
4.4137795642
 30
0.0
 10
5.9847926987
 20
4.414484823
 30
0.0
 10
6.0208115022
 20
4.4151896589
 30
0.0
 10
6.0536494311
 20
4.4158938178
 30
0.0
 10
6.0832331917
 20
4.4165968959
 30
0.0
 10
6.1094951602
 20
4.4172987862
 30
0.0
 10
6.1292753829
 20
4.4179036327
 30
0.0
 10
6.1433948228
 20
4.4183936803
 30
0.0
 10
6.1526932245
 20
4.4187462039
 30
0.0
 10
6.1611223795
 20
4.4190983527
 30
0.0
 10
6.1686767883
 20
4.4194500109
 30
0.0
 10
6.1753518093
 20
4.419801081
 30
0.0
 10
6.1811440434
 20
4.4201511126
 30
0.0
 10
6.1860509992
 20
4.4204998765
 30
0.0
 10
6.1900711884
 20
4.4208454184
 30
0.0
 10
6.193202224
 20
4.421188159
 30
0.0
 10
6.1952544227
 20
4.4214886707
 30
0.0
 10
6.1963588922
 20
4.4217276655
 30
0.0
 10
6.1968051521
 20
4.4218542671
 30
0.0
 10
6.1970575902
 20
4.4219406957
 30
0.0
 10
6.1972567952
 20
4.4220291305
 30
0.0
 10
6.1974220095
 20
4.422125332
 30
0.0
 10
6.1975199643
 20
4.4222349789
 30
0.0
 10
6.1975197286
 20
4.4223047035
 30
0.0
  0
SPLINE
  5
333
100
AcDbEntity
  8
0
100
AcDbSpline
 62
7
  6
CONTINUOUS
 70
0
 71
3
 72
62
 73
58
 74
0
 42
0.0000001
 43
0.0000001
 44
0.0000000001
 40
0.0
 40
0.0
 40
0.0
 40
0.0
 40
0.0001414557
 40
0.0003513113
 40
0.0006313635
 40
0.0009822905
 40
0.0014043946
 40
0.0018978174
 40
0.0030988054
 40
0.0045853487
 40
0.0063572108
 40
0.0084137818
 40
0.0107536834
 40
0.0133753742
 40
0.01627729
 40
0.0229154649
 40
0.0306548163
 40
0.0394766823
 40
0.0493599379
 40
0.0602832415
 40
0.0722214497
 40
0.0851457627
 40
0.0990272081
 40
0.1138346189
 40
0.1460848312
 40
0.1816009556
 40
0.2200539
 40
0.2610903708
 40
0.3043320043
 40
0.3493796835
 40
0.3958190948
 40
0.4432214281
 40
0.4911502444
 40
0.5391635164
 40
0.5868189147
 40
0.6336770072
 40
0.6793058842
 40
0.723285478
 40
0.7652093904
 40
0.804692502
 40
0.8413700058
 40
0.8749039356
 40
0.9049864095
 40
0.9313382502
 40
0.9430392317
 40
0.9537188084
 40
0.9633531862
 40
0.9719211767
 40
0.9794017766
 40
0.9857777416
 40
0.9910361379
 40
0.9932423382
 40
0.9951644998
 40
0.9968015706
 40
0.9981531884
 40
0.9992192229
 40
1.0
 40
1.0
 40
1.0
 40
1.0
 10
2.9627488889
 20
3.6862018417
 30
0.0
 10
2.9628833575
 20
3.6862792516
 30
0.0
 10
2.9632483346
 20
3.6864131605
 30
0.0
 10
2.9639184731
 20
3.6865849316
 30
0.0
 10
2.9648251741
 20
3.6867586086
 30
0.0
 10
2.9659667483
 20
3.6869344347
 30
0.0
 10
2.9673447809
 20
3.6871111407
 30
0.0
 10
2.9696525044
 20
3.6873645398
 30
0.0
 10
2.9731283667
 20
3.6876719586
 30
0.0
 10
2.9780071174
 20
3.6880242917
 30
0.0
 10
2.9838263114
 20
3.6883780365
 30
0.0
 10
2.9905828973
 20
3.6887329414
 30
0.0
 10
2.9982727211
 20
3.689088544
 30
0.0
 10
3.0068906241
 20
3.6894447052
 30
0.0
 10
3.0202212262
 20
3.6899426791
 30
0.0
 10
3.0391647001
 20
3.6905554161
 30
0.0
 10
3.0646015555
 20
3.6912642489
 30
0.0
 10
3.093599001
 20
3.691974719
 30
0.0
 10
3.126089711
 20
3.6926865604
 30
0.0
 10
3.1619993585
 20
3.6933991584
 30
0.0
 10
3.2012452296
 20
3.6941123482
 30
0.0
 10
3.2437362745
 20
3.6948260848
 30
0.0
 10
3.2893748614
 20
3.6955402108
 30
0.0
 10
3.3562098074
 20
3.6965208206
 30
0.0
 10
3.4467742258
 20
3.6977351645
 30
0.0
 10
3.5632741363
 20
3.6991563384
 30
0.0
 10
3.6894120532
 20
3.700579226
 30
0.0
 10
3.8240243223
 20
3.7020033265
 30
0.0
 10
3.9658705192
 20
3.7034282957
 30
0.0
 10
4.1136433085
 20
3.7048539282
 30
0.0
 10
4.2659800383
 20
3.7062799567
 30
0.0
 10
4.421477128
 20
3.7077062967
 30
0.0
 10
4.5787006058
 20
3.7091327629
 30
0.0
 10
4.7362016736
 20
3.7105592648
 30
0.0
 10
4.892528251
 20
3.7119856596
 30
0.0
 10
5.0462393533
 20
3.7134118287
 30
0.0
 10
5.1959184086
 20
3.7148376411
 30
0.0
 10
5.3401850714
 20
3.7162628622
 30
0.0
 10
5.4777103041
 20
3.7176873693
 30
0.0
 10
5.6072256669
 20
3.7191107348
 30
0.0
 10
5.7275377486
 20
3.7205326308
 30
0.0
 10
5.8375378231
 20
3.7219523468
 30
0.0
 10
5.9362110048
 20
3.7233690728
 30
0.0
 10
6.0109365756
 20
3.7245890368
 30
0.0
 10
6.0643804427
 20
3.7255794851
 30
0.0
 10
6.099489403
 20
3.7262919925
 30
0.0
 10
6.1311611324
 20
3.7270035345
 30
0.0
 10
6.1593230538
 20
3.7277137047
 30
0.0
 10
6.1839097238
 20
3.7284217629
 30
0.0
 10
6.2048645203
 20
3.72912744
 30
0.0
 10
6.2200336111
 20
3.7297413806
 30
0.0
 10
6.2303173759
 20
3.7302451023
 30
0.0
 10
6.2366314429
 20
3.730599542
 30
0.0
 10
6.2420064615
 20
3.7309527877
 30
0.0
 10
6.2464404547
 20
3.7313032404
 30
0.0
 10
6.2499314582
 20
3.7316507955
 30
0.0
 10
6.251940985
 20
3.7319153931
 30
0.0
 10
6.2527848604
 20
3.732061379
 30
0.0
  0
SPLINE
  5
334
100
AcDbEntity
  8
0
100
AcDbSpline
 62
7
  6
CONTINUOUS
 70
0
 71
3
 72
13
 73
9
 74
0
 42
0.0000001
 43
0.0000001
 44
0.0000000001
 40
0.0
 40
0.0
 40
0.0
 40
0.0
 40
0.4113244373
 40
0.5748471681
 40
0.7106186473
 40
0.8191731053
 40
0.9015913869
 40
1.0
 40
1.0
 40
1.0
 40
1.0
 10
6.2527848604
 20
3.732061379
 30
0.0
 10
6.2531158336
 20
3.7321186356
 30
0.0
 10
6.2535771824
 20
3.7322059123
 30
0.0
 10
6.2541410918
 20
3.7323457262
 30
0.0
 10
6.2544592694
 20
3.732440784
 30
0.0
 10
6.2547114306
 20
3.7325384519
 30
0.0
 10
6.2549142543
 20
3.7326412863
 30
0.0
 10
6.255045388
 20
3.7327622673
 30
0.0
 10
6.255045388
 20
3.7328426281
 30
0.0
  0
LINE
  5
335
100
AcDbEntity
  8
0
100
AcDbLine
 62
7
  6
CONTINUOUS
 10
3.0202821279
 20
3.7194223934
 11
3.0224801984
 21
3.7200016202
  0
SPLINE
  5
336
100
AcDbEntity
  8
0
100
AcDbSpline
 62
7
  6
CONTINUOUS
 70
0
 71
3
 72
65
 73
61
 74
0
 42
0.0000001
 43
0.0000001
 44
0.0000000001
 40
0.0
 40
0.0
 40
0.0
 40
0.0
 40
0.0008174436
 40
0.0019229548
 40
0.0033164333
 40
0.0049973345
 40
0.0069649297
 40
0.0092184009
 40
0.0145791544
 40
0.0210672906
 40
0.0286664681
 40
0.0373601325
 40
0.0471293764
 40
0.0579498038
 40
0.0697962068
 40
0.0964587987
 40
0.1268668057
 40
0.1607402399
 40
0.1977626037
 40
0.2375904114
 40
0.2798539495
 40
0.3241592919
 40
0.3700959433
 40
0.4172357759
 40
0.4651413874
 40
0.5133670154
 40
0.5614647735
 40
0.6089871246
 40
0.6554928827
 40
0.7005493191
 40
0.7437377135
 40
0.7846572606
 40
0.8229261959
 40
0.8581908953
 40
0.874591788
 40
0.89012144
 40
0.9047436214
 40
0.9184228375
 40
0.9311284233
 40
0.9428316758
 40
0.9535040128
 40
0.9631204398
 40
0.9716603325
 40
0.9791033643
 40
0.9824074237
 40
0.985430811
 40
0.9881721161
 40
0.990629942
 40
0.9928029128
 40
0.994689686
 40
0.9962889792
 40
0.9975999463
 40
0.9986226912
 40
0.9993580061
 40
0.9996186892
 40
0.9997226296
 40
0.9998092454
 40
0.999878955
 40
0.9999325791
 40
1.0
 40
1.0
 40
1.0
 40
1.0
 10
3.0224801984
 20
3.7200016202
 30
0.0
 10
3.0233332065
 20
3.720147126
 30
0.0
 10
3.025352511
 20
3.7204125275
 30
0.0
 10
3.0288458334
 20
3.7207618425
 30
0.0
 10
3.0332568499
 20
3.7211139718
 30
0.0
 10
3.0385824427
 20
3.7214687246
 30
0.0
 10
3.0448200785
 20
3.7218247397
 30
0.0
 10
3.0549506471
 20
3.7223303652
 30
0.0
 10
3.0698666237
 20
3.7229468632
 30
0.0
 10
3.0904418342
 20
3.7236555975
 30
0.0
 10
3.1145469045
 20
3.7243669287
 30
0.0
 10
3.1421265203
 20
3.7250802896
 30
0.0
 10
3.1731170664
 20
3.7257947398
 30
0.0
 10
3.2074458054
 20
3.7265102692
 30
0.0
 10
3.2596554854
 20
3.7275048514
 30
0.0
 10
3.3325994364
 20
3.7287295942
 30
0.0
 10
3.428860475
 20
3.7301525969
 30
0.0
 10
3.5360891918
 20
3.7315782417
 30
0.0
 10
3.6532902832
 20
3.733006215
 30
0.0
 10
3.7793735599
 20
3.7344356388
 30
0.0
 10
3.9131669015
 20
3.7358661114
 30
0.0
 10
4.0534272831
 20
3.7372974101
 30
0.0
 10
4.1988498641
 20
3.7387291908
 30
0.0
 10
4.3480837922
 20
3.7401613867
 30
0.0
 10
4.4997408921
 20
3.7415937678
 30
0.0
 10
4.6524120761
 20
3.7430262612
 30
0.0
 10
4.8046775311
 20
3.7444586973
 30
0.0
 10
4.9551222868
 20
3.7458909959
 30
0.0
 10
5.1023474158
 20
3.7473229732
 30
0.0
 10
5.2449844879
 20
3.748754494
 30
0.0
 10
5.3817078081
 20
3.7501853789
 30
0.0
 10
5.511245617
 20
3.7516152436
 30
0.0
 10
5.6323950327
 20
3.7530440022
 30
0.0
 10
5.7275901595
 20
3.7542604615
 30
0.0
 10
5.7987149293
 20
3.755241418
 30
0.0
 10
5.8479894859
 20
3.7559590046
 30
0.0
 10
5.8943826128
 20
3.7566762671
 30
0.0
 10
5.9377858645
 20
3.757393296
 30
0.0
 10
5.9780987531
 20
3.7581099188
 30
0.0
 10
6.0152280908
 20
3.7588259286
 30
0.0
 10
6.0490866602
 20
3.7595412778
 30
0.0
 10
6.0795957652
 20
3.7602557237
 30
0.0
 10
6.1066853784
 20
3.7609688625
 30
0.0
 10
6.1270930258
 20
3.7615831945
 30
0.0
 10
6.1416616894
 20
3.7620811056
 30
0.0
 10
6.1512550219
 20
3.7624392897
 30
0.0
 10
6.1599518809
 20
3.762797098
 30
0.0
 10
6.1677476923
 20
3.7631544182
 30
0.0
 10
6.1746378783
 20
3.7635110808
 30
0.0
 10
6.1806179595
 20
3.7638666467
 30
0.0
 10
6.1856836875
 20
3.764220914
 30
0.0
 10
6.18983265
 20
3.7645719873
 30
0.0
 10
6.1930627328
 20
3.7649202316
 30
0.0
 10
6.1951794194
 20
3.7652255917
 30
0.0
 10
6.1963187346
 20
3.7654684311
 30
0.0
 10
6.196779266
 20
3.7655970602
 30
0.0
 10
6.1970398564
 20
3.7656848625
 30
0.0
 10
6.1972457549
 20
3.7657746997
 30
0.0
 10
6.1974161295
 20
3.7658721836
 30
0.0
 10
6.1975185239
 20
3.765983331
 30
0.0
 10
6.197518794
 20
3.7660547009
 30
0.0
  0
SPLINE
  5
337
100
AcDbEntity
  8
0
100
AcDbSpline
 62
7
  6
CONTINUOUS
 70
0
 71
3
 72
67
 73
63
 74
0
 42
0.0000001
 43
0.0000001
 44
0.0000000001
 40
0.0
 40
0.0
 40
0.0
 40
0.0
 40
0.0000674886
 40
0.0001212842
 40
0.0001913122
 40
0.0002784118
 40
0.0003830047
 40
0.0006454764
 40
0.0013861117
 40
0.0024161186
 40
0.0037358253
 40
0.005344966
 40
0.0072430444
 40
0.0094294556
 40
0.011903273
 40
0.0146627895
 40
0.0177061454
 40
0.0210314671
 40
0.0246368721
 40
0.028520471
 40
0.0371142521
 40
0.0467922282
 40
0.0575304963
 40
0.0693050506
 40
0.0820892731
 40
0.0958516167
 40
0.1105599795
 40
0.1261814897
 40
0.1426785889
 40
0.1781421168
 40
0.2166208693
 40
0.2577535965
 40
0.3011556412
 40
0.3464214601
 40
0.3931265245
 40
0.4408347349
 40
0.4890989077
 40
0.5374679319
 40
0.5854886964
 40
0.6327124613
 40
0.678696508
 40
0.7230113321
 40
0.765241857
 40
0.8049926168
 40
0.8418929102
 40
0.8755953978
 40
0.9057872025
 40
0.9194757092
 40
0.932183948
 40
0.9438815452
 40
0.954539799
 40
0.964135489
 40
0.9726465393
 40
0.9800513456
 40
0.9863334411
 40
0.9914797566
 40
0.9936230044
 40
0.9954775922
 40
0.9970426375
 40
0.9983179058
 40
0.9993034441
 40
1.0
 40
1.0
 40
1.0
 40
1.0
 10
3.020071264
 20
4.2933797011
 30
0.0
 10
3.0200710047
 20
4.2934511615
 30
0.0
 10
3.020173555
 20
4.2935630524
 30
0.0
 10
3.0203444981
 20
4.2936606657
 30
0.0
 10
3.0205514765
 20
4.2937508399
 30
0.0
 10
3.0208136701
 20
4.2938389044
 30
0.0
 10
3.0212774267
 20
4.2939679873
 30
0.0
 10
3.022425284
 20
4.2942116337
 30
0.0
 10
3.0245577758
 20
4.2945179466
 30
0.0
 10
3.027811301
 20
4.2948673203
 30
0.0
 10
3.0319887313
 20
4.2952195581
 30
0.0
 10
3.0370874382
 20
4.2955750871
 30
0.0
 10
3.0431057171
 20
4.2959319097
 30
0.0
 10
3.0500408496
 20
4.2962897934
 30
0.0
 10
3.0578891629
 20
4.296648274
 30
0.0
 10
3.0666456729
 20
4.2970072601
 30
0.0
 10
3.0763044731
 20
4.2973666063
 30
0.0
 10
3.0868595022
 20
4.2977262243
 30
0.0
 10
3.0983046956
 20
4.2980860676
 30
0.0
 10
3.1153268434
 20
4.2985830224
 30
0.0
 10
3.1387782094
 20
4.2991981325
 30
0.0
 10
3.1694873777
 20
4.2999149432
 30
0.0
 10
3.2035653349
 20
4.3006327377
 30
0.0
 10
3.2409330105
 20
4.3013512367
 30
0.0
 10
3.2815032868
 20
4.3020701703
 30
0.0
 10
3.3251804922
 20
4.302789585
 30
0.0
 10
3.3718623567
 20
4.3035093509
 30
0.0
 10
3.4214402592
 20
4.3042293108
 30
0.0
 10
3.4929933986
 20
4.3052134397
 30
0.0
 10
3.5887481233
 20
4.3064340496
 30
0.0
 10
3.7105878217
 20
4.3078674792
 30
0.0
 10
3.8408338104
 20
4.309302184
 30
0.0
 10
3.978266739
 20
4.3107378436
 30
0.0
 10
4.121600283
 20
4.3121741273
 30
0.0
 10
4.2694936611
 20
4.3136109191
 30
0.0
 10
4.4205620142
 20
4.3150479653
 30
0.0
 10
4.5733923413
 20
4.3164852019
 30
0.0
 10
4.7265536334
 20
4.3179224398
 30
0.0
 10
4.8786132331
 20
4.31935961
 30
0.0
 10
5.0281473683
 20
4.3207965146
 30
0.0
 10
5.1737572568
 20
4.322233075
 30
0.0
 10
5.3140797529
 20
4.3236690477
 30
0.0
 10
5.4478017313
 20
4.3251042107
 30
0.0
 10
5.5736723085
 20
4.3265383313
 30
0.0
 10
5.6905123021
 20
4.327970722
 30
0.0
 10
5.7972299162
 20
4.3294012249
 30
0.0
 10
5.8793700081
 20
4.3306269213
 30
0.0
 10
5.9392810607
 20
4.3316188732
 30
0.0
 10
5.9796111731
 20
4.3323378472
 30
0.0
 10
6.0167321402
 20
4.3330561984
 30
0.0
 10
6.0505567005
 20
4.333773969
 30
0.0
 10
6.0810063521
 20
4.3344906975
 30
0.0
 10
6.1080100366
 20
4.335205968
 30
0.0
 10
6.1315037916
 20
4.3359190786
 30
0.0
 10
6.1514329233
 20
4.3366295982
 30
0.0
 10
6.165790342
 20
4.3372482713
 30
0.0
 10
6.1754594004
 20
4.3377567647
 30
0.0
 10
6.1813390162
 20
4.3381133907
 30
0.0
 10
6.1862975721
 20
4.3384686537
 30
0.0
 10
6.1903338256
 20
4.338820265
 30
0.0
 10
6.1934455972
 20
4.3391688857
 30
0.0
 10
6.1952084435
 20
4.339436003
 30
0.0
 10
6.1959302543
 20
4.3395875778
 30
0.0
  0
LINE
  5
338
100
AcDbEntity
  8
0
100
AcDbLine
 62
7
  6
CONTINUOUS
 10
6.1959302543
 20
4.3395875778
 11
6.1973093492
 21
4.3400120086
  0
SPLINE
  5
339
100
AcDbEntity
  8
0
100
AcDbSpline
 62
7
  6
CONTINUOUS
 70
0
 71
3
 72
62
 73
58
 74
0
 42
0.0000001
 43
0.0000001
 44
0.0000000001
 40
0.0
 40
0.0
 40
0.0
 40
0.0
 40
0.0001414557
 40
0.0003513113
 40
0.0006313635
 40
0.0009822905
 40
0.0014043946
 40
0.0018978174
 40
0.0030988054
 40
0.0045853487
 40
0.0063572108
 40
0.0084137818
 40
0.0107536834
 40
0.0133753742
 40
0.01627729
 40
0.0229154649
 40
0.0306548163
 40
0.0394766823
 40
0.0493599379
 40
0.0602832415
 40
0.0722214497
 40
0.0851457627
 40
0.0990272081
 40
0.1138346189
 40
0.1460848312
 40
0.1816009556
 40
0.2200539
 40
0.2610903708
 40
0.3043320043
 40
0.3493796835
 40
0.3958190948
 40
0.4432214281
 40
0.4911502444
 40
0.5391635164
 40
0.5868189147
 40
0.6336770072
 40
0.6793058842
 40
0.723285478
 40
0.7652093904
 40
0.804692502
 40
0.8413700058
 40
0.8749039356
 40
0.9049864095
 40
0.9313382502
 40
0.9430392317
 40
0.9537188084
 40
0.9633531862
 40
0.9719211767
 40
0.9794017766
 40
0.9857777416
 40
0.9910361379
 40
0.9932423382
 40
0.9951644998
 40
0.9968015706
 40
0.9981531884
 40
0.9992192229
 40
1.0
 40
1.0
 40
1.0
 40
1.0
 10
2.9627488889
 20
4.6237018417
 30
0.0
 10
2.9628833575
 20
4.6237792516
 30
0.0
 10
2.9632483346
 20
4.6239131605
 30
0.0
 10
2.9639184731
 20
4.6240849316
 30
0.0
 10
2.9648251741
 20
4.6242586086
 30
0.0
 10
2.9659667483
 20
4.6244344347
 30
0.0
 10
2.9673447809
 20
4.6246111407
 30
0.0
 10
2.9696525044
 20
4.6248645398
 30
0.0
 10
2.9731283667
 20
4.6251719586
 30
0.0
 10
2.9780071174
 20
4.6255242917
 30
0.0
 10
2.9838263114
 20
4.6258780365
 30
0.0
 10
2.9905828973
 20
4.6262329414
 30
0.0
 10
2.9982727211
 20
4.626588544
 30
0.0
 10
3.0068906241
 20
4.6269447052
 30
0.0
 10
3.0202212262
 20
4.6274426791
 30
0.0
 10
3.0391647001
 20
4.6280554161
 30
0.0
 10
3.0646015555
 20
4.6287642489
 30
0.0
 10
3.093599001
 20
4.629474719
 30
0.0
 10
3.126089711
 20
4.6301865604
 30
0.0
 10
3.1619993585
 20
4.6308991584
 30
0.0
 10
3.2012452296
 20
4.6316123482
 30
0.0
 10
3.2437362745
 20
4.6323260848
 30
0.0
 10
3.2893748614
 20
4.6330402108
 30
0.0
 10
3.3562098074
 20
4.6340208206
 30
0.0
 10
3.4467742258
 20
4.6352351645
 30
0.0
 10
3.5632741363
 20
4.6366563384
 30
0.0
 10
3.6894120532
 20
4.638079226
 30
0.0
 10
3.8240243223
 20
4.6395033265
 30
0.0
 10
3.9658705192
 20
4.6409282957
 30
0.0
 10
4.1136433085
 20
4.6423539282
 30
0.0
 10
4.2659800383
 20
4.6437799567
 30
0.0
 10
4.421477128
 20
4.6452062967
 30
0.0
 10
4.5787006058
 20
4.6466327629
 30
0.0
 10
4.7362016736
 20
4.6480592648
 30
0.0
 10
4.892528251
 20
4.6494856596
 30
0.0
 10
5.0462393533
 20
4.6509118287
 30
0.0
 10
5.1959184086
 20
4.6523376411
 30
0.0
 10
5.3401850714
 20
4.6537628622
 30
0.0
 10
5.4777103041
 20
4.6551873693
 30
0.0
 10
5.6072256669
 20
4.6566107348
 30
0.0
 10
5.7275377486
 20
4.6580326308
 30
0.0
 10
5.8375378231
 20
4.6594523468
 30
0.0
 10
5.9362110048
 20
4.6608690728
 30
0.0
 10
6.0109365756
 20
4.6620890368
 30
0.0
 10
6.0643804427
 20
4.6630794851
 30
0.0
 10
6.099489403
 20
4.6637919925
 30
0.0
 10
6.1311611324
 20
4.6645035345
 30
0.0
 10
6.1593230538
 20
4.6652137047
 30
0.0
 10
6.1839097238
 20
4.6659217629
 30
0.0
 10
6.2048645203
 20
4.66662744
 30
0.0
 10
6.2200336111
 20
4.6672413806
 30
0.0
 10
6.2303173759
 20
4.6677451023
 30
0.0
 10
6.2366314429
 20
4.668099542
 30
0.0
 10
6.2420064615
 20
4.6684527877
 30
0.0
 10
6.2464404547
 20
4.6688032404
 30
0.0
 10
6.2499314582
 20
4.6691507955
 30
0.0
 10
6.251940985
 20
4.6694153931
 30
0.0
 10
6.2527848604
 20
4.669561379
 30
0.0
  0
SPLINE
  5
33A
100
AcDbEntity
  8
0
100
AcDbSpline
 62
7
  6
CONTINUOUS
 70
0
 71
3
 72
13
 73
9
 74
0
 42
0.0000001
 43
0.0000001
 44
0.0000000001
 40
0.0
 40
0.0
 40
0.0
 40
0.0
 40
0.4113244373
 40
0.5748471681
 40
0.7106186473
 40
0.8191731053
 40
0.9015913869
 40
1.0
 40
1.0
 40
1.0
 40
1.0
 10
6.2527848604
 20
4.669561379
 30
0.0
 10
6.2531158336
 20
4.6696186356
 30
0.0
 10
6.2535771824
 20
4.6697059123
 30
0.0
 10
6.2541410918
 20
4.6698457262
 30
0.0
 10
6.2544592694
 20
4.669940784
 30
0.0
 10
6.2547114306
 20
4.6700384519
 30
0.0
 10
6.2549142543
 20
4.6701412863
 30
0.0
 10
6.255045388
 20
4.6702622673
 30
0.0
 10
6.255045388
 20
4.6703426281
 30
0.0
  0
SPLINE
  5
33B
100
AcDbEntity
  8
0
100
AcDbSpline
 62
7
  6
CONTINUOUS
 70
0
 71
3
 72
65
 73
61
 74
0
 42
0.0000001
 43
0.0000001
 44
0.0000000001
 40
0.0
 40
0.0
 40
0.0
 40
0.0
 40
0.0000673456
 40
0.0001209488
 40
0.0001906891
 40
0.0002774015
 40
0.0003815149
 40
0.0006428077
 40
0.0013805802
 40
0.0024072043
 40
0.0037228052
 40
0.005326897
 40
0.0072187618
 40
0.0093975735
 40
0.0118624484
 40
0.014612384
 40
0.0176456577
 40
0.0209601906
 40
0.0284246604
 40
0.0369890067
 40
0.0466350355
 40
0.0573388003
 40
0.0690748086
 40
0.0818173065
 40
0.0955363989
 40
0.1101987705
 40
0.1257709931
 40
0.142217802
 40
0.1775755048
 40
0.2159437747
 40
0.2569629309
 40
0.3002523048
 40
0.3454070094
 40
0.3920065661
 40
0.4396164311
 40
0.4877924424
 40
0.5360856087
 40
0.5840454276
 40
0.631224935
 40
0.6771836921
 40
0.7214941216
 40
0.7637416261
 40
0.8035338593
 40
0.8404986015
 40
0.8742916088
 40
0.9045986808
 40
0.9311353155
 40
0.9429123742
 40
0.9536570725
 40
0.9633437143
 40
0.971951545
 40
0.9794603188
 40
0.9858509115
 40
0.9911101408
 40
0.9933120646
 40
0.9952270733
 40
0.9968538934
 40
0.9981915349
 40
0.9992399899
 40
1.0
 40
1.0
 40
1.0
 40
1.0
 10
3.0200729486
 20
4.1996297012
 30
0.0
 10
3.0200727605
 20
4.199701001
 30
0.0
 10
3.0201747766
 20
4.1998126272
 30
0.0
 10
3.0203450535
 20
4.1999101575
 30
0.0
 10
3.0205510433
 20
4.2000001642
 30
0.0
 10
3.0208119654
 20
4.2000880876
 30
0.0
 10
3.0212734638
 20
4.2002169537
 30
0.0
 10
3.0224163443
 20
4.200460272
 30
0.0
 10
3.0245406932
 20
4.2007660136
 30
0.0
 10
3.0277828286
 20
4.2011147113
 30
0.0
 10
3.0319464337
 20
4.2014662928
 30
0.0
 10
3.0370281923
 20
4.2018211746
 30
0.0
 10
3.0430257
 20
4.2021773532
 30
0.0
 10
3.0499358141
 20
4.2025346132
 30
0.0
 10
3.0577554202
 20
4.2028925196
 30
0.0
 10
3.0664804774
 20
4.2032508615
 30
0.0
 10
3.0761057504
 20
4.2036095728
 30
0.0
 10
3.0907205595
 20
4.2041082009
 30
0.0
 10
3.1111905257
 20
4.2047236068
 30
0.0
 10
3.1383635778
 20
4.2054379604
 30
0.0
 10
3.1689671472
 20
4.206153379
 30
0.0
 10
3.2029294009
 20
4.2068698724
 30
0.0
 10
3.2401705846
 20
4.2075871236
 30
0.0
 10
3.28060468
 20
4.2083048335
 30
0.0
 10
3.3241374102
 20
4.2090229247
 30
0.0
 10
3.3706663916
 20
4.2097413979
 30
0.0
 10
3.4200835717
 20
4.2104601467
 30
0.0
 10
3.4914097155
 20
4.2114425106
 30
0.0
 10
3.5868694316
 20
4.2126610235
 30
0.0
 10
3.7083436515
 20
4.214091897
 30
0.0
 10
3.8382157938
 20
4.2155241175
 30
0.0
 10
3.9752732514
 20
4.2169572
 30
0.0
 10
4.1182390749
 20
4.2183909951
 30
0.0
 10
4.2657792934
 20
4.2198252329
 30
0.0
 10
4.4165183651
 20
4.2212597681
 30
0.0
 10
4.5690505685
 20
4.2226944721
 30
0.0
 10
4.72195329
 20
4.2241291975
 30
0.0
 10
4.8738009502
 20
4.2255638435
 30
0.0
 10
5.0231770223
 20
4.2269982431
 30
0.0
 10
5.168689245
 20
4.2284323105
 30
0.0
 10
5.3089796169
 20
4.2298657605
 30
0.0
 10
5.4427410374
 20
4.2312985085
 30
0.0
 10
5.5687249972
 20
4.2327300848
 30
0.0
 10
5.6857574378
 20
4.234160194
 30
0.0
 10
5.7927469997
 20
4.2355880648
 30
0.0
 10
5.8886951026
 20
4.2370129199
 30
0.0
 10
5.9613348067
 20
4.2382399992
 30
0.0
 10
6.0132642311
 20
4.2392363863
 30
0.0
 10
6.0473563085
 20
4.2399529168
 30
0.0
 10
6.0780922801
 20
4.2406685473
 30
0.0
 10
6.1054013224
 20
4.2413828425
 30
0.0
 10
6.1292195226
 20
4.2420948547
 30
0.0
 10
6.1494907236
 20
4.2428045088
 30
0.0
 10
6.164143047
 20
4.2434221506
 30
0.0
 10
6.1740568587
 20
4.243929062
 30
0.0
 10
6.1801275185
 20
4.2442853541
 30
0.0
 10
6.185281345
 20
4.2446402766
 30
0.0
 10
6.1895156632
 20
4.2449922458
 30
0.0
 10
6.1928281254
 20
4.2453412992
 30
0.0
 10
6.1947255438
 20
4.2456076807
 30
0.0
 10
6.1955164372
 20
4.2457557559
 30
0.0
  0
LINE
  5
33C
100
AcDbEntity
  8
0
100
AcDbLine
 62
7
  6
CONTINUOUS
 10
6.1955164372
 20
4.2457557559
 11
6.197307667
 21
4.2462620087
  0
SPLINE
  5
33D
100
AcDbEntity
  8
0
100
AcDbSpline
 62
7
  6
CONTINUOUS
 70
0
 71
3
 72
36
 73
32
 74
0
 42
0.0000001
 43
0.0000001
 44
0.0000000001
 40
0.0
 40
0.0
 40
0.0
 40
0.0
 40
0.1081878207
 40
0.2122424153
 40
0.3115792329
 40
0.4057134182
 40
0.4942225999
 40
0.5766983435
 40
0.6527518919
 40
0.7220107579
 40
0.7841576388
 40
0.8124691504
 40
0.8388930893
 40
0.863401036
 40
0.8859649117
 40
0.9065566642
 40
0.9251492321
 40
0.9417225614
 40
0.9562597678
 40
0.9687441306
 40
0.9742113545
 40
0.9791592467
 40
0.9835863842
 40
0.9874922265
 40
0.990876416
 40
0.9937387937
 40
0.996079578
 40
0.997899797
 40
0.9992025836
 40
0.9996629429
 40
1.0
 40
1.0
 40
1.0
 40
1.0
 10
5.3321162112
 20
3.3255667766
 30
0.0
 10
5.3654009347
 20
3.3259026049
 30
0.0
 10
5.4306986574
 20
3.3265722993
 30
0.0
 10
5.5265575686
 20
3.3275949019
 30
0.0
 10
5.6180923079
 20
3.3286173786
 30
0.0
 10
5.7048438444
 20
3.329639319
 30
0.0
 10
5.7864073198
 20
3.3306606267
 30
0.0
 10
5.8624074236
 20
3.3316813409
 30
0.0
 10
5.9324841779
 20
3.3327009633
 30
0.0
 10
5.9963055934
 20
3.333719608
 30
0.0
 10
6.0454385033
 20
3.3345917288
 30
0.0
 10
6.0813930971
 20
3.3352959082
 30
0.0
 10
6.1057687562
 20
3.3358073299
 30
0.0
 10
6.1283756155
 20
3.3363184491
 30
0.0
 10
6.1491875857
 20
3.3368292087
 30
0.0
 10
6.1681789751
 20
3.3373394715
 30
0.0
 10
6.185326524
 20
3.3378491968
 30
0.0
 10
6.2006103768
 20
3.338358074
 30
0.0
 10
6.2140137631
 20
3.3388658908
 30
0.0
 10
6.2240001393
 20
3.3393046904
 30
0.0
 10
6.2310366833
 20
3.3396611368
 30
0.0
 10
6.235596128
 20
3.3399162795
 30
0.0
 10
6.239674374
 20
3.3401710922
 30
0.0
 10
6.2432704787
 20
3.3404254573
 30
0.0
 10
6.2463839024
 20
3.3406790159
 30
0.0
 10
6.2490139046
 20
3.3409316799
 30
0.0
 10
6.2511607821
 20
3.3411817796
 30
0.0
 10
6.2528231216
 20
3.3414302203
 30
0.0
 10
6.2539061758
 20
3.3416473326
 30
0.0
 10
6.2545245146
 20
3.3418353173
 30
0.0
 10
6.2547519919
 20
3.3419308279
 30
0.0
 10
6.2548418686
 20
3.341982563
 30
0.0
  0
SPLINE
  5
33E
100
AcDbEntity
  8
0
100
AcDbSpline
 62
7
  6
CONTINUOUS
 70
0
 71
3
 72
16
 73
12
 74
0
 42
0.0000001
 43
0.0000001
 44
0.0000000001
 40
0.0
 40
0.0
 40
0.0
 40
0.0
 40
0.0261436659
 40
0.0479669166
 40
0.0766883451
 40
0.112597219
 40
0.1558367594
 40
0.2645831228
 40
0.4032739957
 40
0.5720424181
 40
1.0
 40
1.0
 40
1.0
 40
1.0
 10
2.962545388
 20
3.5765917766
 30
0.0
 10
2.962545388
 20
3.5766712993
 30
0.0
 10
2.9626740955
 20
3.5767913601
 30
0.0
 10
2.9628741268
 20
3.5768935731
 30
0.0
 10
2.963122346
 20
3.576990474
 30
0.0
 10
2.9634356245
 20
3.5770848136
 30
0.0
 10
2.9639907652
 20
3.5772234965
 30
0.0
 10
2.9648594108
 20
3.5773895308
 30
0.0
 10
2.966111315
 20
3.5775795876
 30
0.0
 10
2.9683312113
 20
3.5778565054
 30
0.0
 10
2.970138429
 20
3.5780293223
 30
0.0
 10
2.9714352296
 20
3.5781426499
 30
0.0
  0
SPLINE
  5
33F
100
AcDbEntity
  8
0
100
AcDbSpline
 62
7
  6
CONTINUOUS
 70
0
 71
3
 72
56
 73
52
 74
0
 42
0.0000001
 43
0.0000001
 44
0.0000000001
 40
0.0
 40
0.0
 40
0.0
 40
0.0
 40
0.0013708307
 40
0.003018143
 40
0.0071398842
 40
0.0123557465
 40
0.0186539376
 40
0.0260221963
 40
0.0344439243
 40
0.0543678616
 40
0.0782509922
 40
0.1058790586
 40
0.1370065508
 40
0.1713572917
 40
0.2086233331
 40
0.248474038
 40
0.2905535342
 40
0.334487359
 40
0.4263401476
 40
0.5207664267
 40
0.5678945349
 40
0.614404628
 40
0.6598835158
 40
0.7039263003
 40
0.7461406989
 40
0.7861509073
 40
0.8235985266
 40
0.8581513231
 40
0.8894995617
 40
0.9038844602
 40
0.9173653011
 40
0.929913402
 40
0.9415011051
 40
0.9521012044
 40
0.9616908437
 40
0.9702496364
 40
0.9777573128
 40
0.9841967674
 40
0.98701198
 40
0.9895555019
 40
0.9918258412
 40
0.9938215289
 40
0.9955413007
 40
0.9969846453
 40
0.9981513559
 40
0.9986309938
 40
0.9990415528
 40
0.9993831763
 40
0.9996561652
 40
0.9998611887
 40
1.0
 40
1.0
 40
1.0
 40
1.0
 10
2.9714352296
 20
3.5781426499
 30
0.0
 10
2.9729301028
 20
3.5782732872
 30
0.0
 10
2.9762243217
 20
3.5785268077
 30
0.0
 10
2.9840239388
 20
3.5790284962
 30
0.0
 10
2.9960338448
 20
3.5796317415
 30
0.0
 10
3.0131356404
 20
3.5803217971
 30
0.0
 10
3.0337935335
 20
3.5810153431
 30
0.0
 10
3.0579622213
 20
3.5817120842
 30
0.0
 10
3.09704382
 20
3.5826994779
 30
0.0
 10
3.1542032501
 20
3.5839034009
 30
0.0
 10
3.2323870286
 20
3.5852891694
 30
0.0
 10
3.322836282
 20
3.5866800211
 30
0.0
 10
3.4247449479
 20
3.5880748817
 30
0.0
 10
3.5372046147
 20
3.5894720772
 30
0.0
 10
3.6592137357
 20
3.5908711342
 30
0.0
 10
3.7896835893
 20
3.5922713254
 30
0.0
 10
3.9274526714
 20
3.5936724898
 30
0.0
 10
4.1221433622
 20
3.5955696601
 30
0.0
 10
4.3741335076
 20
3.5979075043
 30
0.0
 10
4.6296206594
 20
3.6002158648
 30
0.0
 10
4.8354756605
 20
3.602087273
 30
0.0
 10
4.9877527794
 20
3.6034898348
 30
0.0
 10
5.1366524272
 20
3.6048920768
 30
0.0
 10
5.2808496123
 20
3.6062938968
 30
0.0
 10
5.4190602579
 20
3.6076951276
 30
0.0
 10
5.550051172
 20
3.6090954466
 30
0.0
 10
5.6726548724
 20
3.6104946229
 30
0.0
 10
5.7857761631
 20
3.6118920809
 30
0.0
 10
5.8736525365
 20
3.6130863288
 30
0.0
 10
5.9384635501
 20
3.6140506881
 30
0.0
 10
5.9826967218
 20
3.6147528539
 30
0.0
 10
6.0238675577
 20
3.6154546033
 30
0.0
 10
6.0618845268
 20
3.6161558266
 30
0.0
 10
6.0966624506
 20
3.616856521
 30
0.0
 10
6.1281240783
 20
3.6175564288
 30
0.0
 10
6.1561997185
 20
3.6182549825
 30
0.0
 10
6.1808258659
 20
3.6189519752
 30
0.0
 10
6.1991648663
 20
3.6195544662
 30
0.0
 10
6.2120704168
 20
3.6200440947
 30
0.0
 10
6.2204142115
 20
3.6203942965
 30
0.0
 10
6.2278600734
 20
3.6207439499
 30
0.0
 10
6.2344031376
 20
3.6210929237
 30
0.0
 10
6.2400395707
 20
3.6214407647
 30
0.0
 10
6.2447665975
 20
3.6217872119
 30
0.0
 10
6.248135515
 20
3.6220894759
 30
0.0
 10
6.2503733305
 20
3.6223385806
 30
0.0
 10
6.251710669
 20
3.6225123432
 30
0.0
 10
6.2528194203
 20
3.6226852431
 30
0.0
 10
6.2537010843
 20
3.6228560943
 30
0.0
 10
6.2543541317
 20
3.623025064
 30
0.0
 10
6.2547102071
 20
3.6231567528
 30
0.0
 10
6.2548418933
 20
3.623232563
 30
0.0
  0
LINE
  5
340
100
AcDbEntity
  8
0
100
AcDbLine
 62
7
  6
CONTINUOUS
 10
3.020282499
 20
4.6569223935
 11
3.0231065645
 21
4.6576023051
  0
SPLINE
  5
341
100
AcDbEntity
  8
0
100
AcDbSpline
 62
7
  6
CONTINUOUS
 70
0
 71
3
 72
65
 73
61
 74
0
 42
0.0000001
 43
0.0000001
 44
0.0000000001
 40
0.0
 40
0.0
 40
0.0
 40
0.0
 40
0.0008958293
 40
0.0020786784
 40
0.003548233
 40
0.00530384
 40
0.0073446987
 40
0.0096699336
 40
0.0151695332
 40
0.0217900554
 40
0.0295148921
 40
0.0383272278
 40
0.0482079986
 40
0.0591326662
 40
0.0710758448
 40
0.0979092317
 40
0.1284573451
 40
0.1624401652
 40
0.1995414526
 40
0.2394186316
 40
0.2817029968
 40
0.3260022605
 40
0.3719077231
 40
0.4189934131
 40
0.4668243712
 40
0.5149574269
 40
0.5629475475
 40
0.6103500984
 40
0.6567270085
 40
0.7016484848
 40
0.7446990913
 40
0.7854808095
 40
0.8236150324
 40
0.858750842
 40
0.8750902865
 40
0.8905608072
 40
0.905126693
 40
0.9187527104
 40
0.9314081395
 40
0.9430647624
 40
0.9536944363
 40
0.96327194
 40
0.9717769335
 40
0.9791895734
 40
0.982480163
 40
0.9854911051
 40
0.9882210416
 40
0.9906686296
 40
0.9928325474
 40
0.9947115065
 40
0.9963042769
 40
0.9976098943
 40
0.9986283828
 40
0.9993605883
 40
0.9996201638
 40
0.9997236652
 40
0.9998099196
 40
0.9998793463
 40
0.9999327662
 40
1.0
 40
1.0
 40
1.0
 40
1.0
 10
3.0231065645
 20
4.6576023051
 30
0.0
 10
3.0240439176
 20
4.6577447678
 30
0.0
 10
3.0262288155
 20
4.6580087384
 30
0.0
 10
3.0299679228
 20
4.6583583978
 30
0.0
 10
3.0346201375
 20
4.6587106122
 30
0.0
 10
3.0401823137
 20
4.6590649986
 30
0.0
 10
3.0466516352
 20
4.6594205321
 30
0.0
 10
3.0570810672
 20
4.6599242624
 30
0.0
 10
3.0723574111
 20
4.6605393245
 30
0.0
 10
3.0933488385
 20
4.6612469768
 30
0.0
 10
3.117847992
 20
4.661957084
 30
0.0
 10
3.1457988768
 20
4.6626690967
 30
0.0
 10
3.177137308
 20
4.6633821389
 30
0.0
 10
3.2117900683
 20
4.6640962095
 30
0.0
 10
3.2643829426
 20
4.6650881157
 30
0.0
 10
3.337743888
 20
4.666309965
 30
0.0
 10
3.4344305905
 20
4.6677301257
 30
0.0
 10
3.541985525
 20
4.6691528461
 30
0.0
 10
3.6594147961
 20
4.6705778386
 30
0.0
 10
3.7856307394
 20
4.6720042365
 30
0.0
 10
3.9194652353
 20
4.6734316643
 30
0.0
 10
4.0596802104
 20
4.6748598948
 30
0.0
 10
4.2049770031
 20
4.6762885961
 30
0.0
 10
4.3540118
 20
4.6777177032
 30
0.0
 10
4.505404315
 20
4.6791469868
 30
0.0
 10
4.6577540918
 20
4.6805763792
 30
0.0
 10
4.8096504367
 20
4.6820057081
 30
0.0
 10
4.9596880514
 20
4.6834349
 30
0.0
 10
5.106477764
 20
4.6848637628
 30
0.0
 10
5.2486612979
 20
4.6862921772
 30
0.0
 10
5.3849227556
 20
4.6877199438
 30
0.0
 10
5.514000399
 20
4.6891467029
 30
0.0
 10
5.6347007423
 20
4.6905723489
 30
0.0
 10
5.7295328219
 20
4.6917861935
 30
0.0
 10
5.800379347
 20
4.6927650348
 30
0.0
 10
5.8494568569
 20
4.6934810603
 30
0.0
 10
5.8956622438
 20
4.6941967567
 30
0.0
 10
5.9388878516
 20
4.6949122085
 30
0.0
 10
5.9790339438
 20
4.6956272728
 30
0.0
 10
6.0160082714
 20
4.6963417292
 30
0.0
 10
6.0497243739
 20
4.6970554972
 30
0.0
 10
6.0801040957
 20
4.6977683852
 30
0.0
 10
6.1070779959
 20
4.6984799813
 30
0.0
 10
6.1273982051
 20
4.6990929736
 30
0.0
 10
6.1419043629
 20
4.6995897833
 30
0.0
 10
6.1514563171
 20
4.6999471867
 30
0.0
 10
6.1601153973
 20
4.7003042144
 30
0.0
 10
6.1678771997
 20
4.7006607567
 30
0.0
 10
6.1747373196
 20
4.7010166429
 30
0.0
 10
6.1806914481
 20
4.701371441
 30
0.0
 10
6.185735327
 20
4.7017249229
 30
0.0
 10
6.1898663892
 20
4.7020752125
 30
0.0
 10
6.1930823659
 20
4.7024227
 30
0.0
 10
6.1951896536
 20
4.7027273993
 30
0.0
 10
6.1963238071
 20
4.7029697155
 30
0.0
 10
6.1967822179
 20
4.7030980628
 30
0.0
 10
6.1970416112
 20
4.7031856782
 30
0.0
 10
6.1972465449
 20
4.7032753175
 30
0.0
 10
6.1974162076
 20
4.7033726438
 30
0.0
 10
6.1975180078
 20
4.7034835438
 30
0.0
 10
6.1975182669
 20
4.7035547015
 30
0.0
  0
SPLINE
  5
342
100
AcDbEntity
  8
0
100
AcDbSpline
 62
7
  6
CONTINUOUS
 70
0
 71
3
 72
16
 73
12
 74
0
 42
0.0000001
 43
0.0000001
 44
0.0000000001
 40
0.0
 40
0.0
 40
0.0
 40
0.0
 40
0.0261012548
 40
0.0479134669
 40
0.0766279578
 40
0.1125328367
 40
0.1557706811
 40
0.2645192181
 40
0.4032183736
 40
0.5720004313
 40
1.0
 40
1.0
 40
1.0
 40
1.0
 10
2.962545388
 20
3.3890917766
 30
0.0
 10
2.962545388
 20
3.3891715822
 30
0.0
 10
2.9626749111
 20
3.3892919554
 30
0.0
 10
2.9628758839
 20
3.3893943793
 30
0.0
 10
2.9631254308
 20
3.3894915397
 30
0.0
 10
2.9634403598
 20
3.3895861243
 30
0.0
 10
2.9639984591
 20
3.3897251781
 30
0.0
 10
2.9648717146
 20
3.389891651
 30
0.0
 10
2.9661302618
 20
3.3900822119
 30
0.0
 10
2.968361958
 20
3.3903598661
 30
0.0
 10
2.9701787631
 20
3.3905331409
 30
0.0
 10
2.9714824457
 20
3.3906467693
 30
0.0
  0
SPLINE
  5
343
100
AcDbEntity
  8
0
100
AcDbSpline
 62
7
  6
CONTINUOUS
 70
0
 71
3
 72
56
 73
52
 74
0
 42
0.0000001
 43
0.0000001
 44
0.0000000001
 40
0.0
 40
0.0
 40
0.0
 40
0.0
 40
0.0013739636
 40
0.0030243705
 40
0.0071521913
 40
0.0123739232
 40
0.018677665
 40
0.0260510831
 40
0.0344776677
 40
0.0544104126
 40
0.0783011887
 40
0.1059359067
 40
0.1370690659
 40
0.1714246054
 40
0.2086946188
 40
0.2485484411
 40
0.2906291974
 40
0.3345626919
 40
0.4264126242
 40
0.5208337956
 40
0.5679587325
 40
0.6144651492
 40
0.6599393847
 40
0.7039761083
 40
0.7461842643
 40
0.7861882976
 40
0.8236300658
 40
0.8581773189
 40
0.8895202758
 40
0.903902788
 40
0.9173813492
 40
0.9299271106
 40
0.941512628
 40
0.9521107561
 40
0.9616983682
 40
0.9702552765
 40
0.9777614271
 40
0.9841996145
 40
0.9870142754
 40
0.9895573062
 40
0.9918272196
 40
0.9938225509
 40
0.9955420275
 40
0.9969851262
 40
0.9981516407
 40
0.9986311994
 40
0.9990416918
 40
0.9993832614
 40
0.9996562092
 40
0.9998612044
 40
1.0
 40
1.0
 40
1.0
 40
1.0
 10
2.9714824457
 20
3.3906467693
 30
0.0
 10
2.9729807436
 20
3.3907773602
 30
0.0
 10
2.9762817543
 20
3.3910308283
 30
0.0
 10
2.984094763
 20
3.3915324286
 30
0.0
 10
2.9961209825
 20
3.3921356375
 30
0.0
 10
3.0132417034
 20
3.3928256682
 30
0.0
 10
3.0339174575
 20
3.3935191798
 30
0.0
 10
3.0581028444
 20
3.3942158736
 30
0.0
 10
3.0972044936
 20
3.3952031264
 30
0.0
 10
3.1543864321
 20
3.3964069141
 30
0.0
 10
3.232594379
 20
3.3977925731
 30
0.0
 10
3.3230641843
 20
3.3991833115
 30
0.0
 10
3.4249901194
 20
3.4005780672
 30
0.0
 10
3.5374639694
 20
3.4019751615
 30
0.0
 10
3.6594843442
 20
3.4033741293
 30
0.0
 10
3.7899614561
 20
3.4047742174
 30
0.0
 10
3.9277329814
 20
3.406175277
 30
0.0
 10
4.1224187554
 20
3.4080722563
 30
0.0
 10
4.3743961864
 20
3.4104098947
 30
0.0
 10
4.6298674631
 20
3.4127180948
 30
0.0
 10
4.8357064073
 20
3.4145893811
 30
0.0
 10
4.9879687408
 20
3.4159918462
 30
0.0
 10
5.1368504889
 20
3.4173939669
 30
0.0
 10
5.2810270332
 20
3.4187956605
 30
0.0
 10
5.4192154573
 20
3.4201967393
 30
0.0
 10
5.5501844836
 20
3.4215969218
 30
0.0
 10
5.6727671827
 20
3.4229959576
 30
0.0
 10
5.7858685869
 20
3.4243932749
 30
0.0
 10
5.8737292305
 20
3.4255874193
 30
0.0
 10
5.9385284196
 20
3.4265516868
 30
0.0
 10
5.9827532847
 20
3.427253781
 30
0.0
 10
6.0239160776
 20
3.4279554685
 30
0.0
 10
6.0619253868
 20
3.4286566219
 30
0.0
 10
6.0966960397
 20
3.4293572213
 30
0.0
 10
6.1281507739
 20
3.4300570496
 30
0.0
 10
6.1562200569
 20
3.4307555274
 30
0.0
 10
6.1808407291
 20
3.4314524324
 30
0.0
 10
6.1991758038
 20
3.4320548513
 30
0.0
 10
6.2120786395
 20
3.432544424
 30
0.0
 10
6.2204207061
 20
3.4328945865
 30
0.0
 10
6.2278650666
 20
3.4332442015
 30
0.0
 10
6.234406857
 20
3.4335931364
 30
0.0
 10
6.2400422265
 20
3.4339409388
 30
0.0
 10
6.2447683783
 20
3.4342873504
 30
0.0
 10
6.2481366767
 20
3.4345895843
 30
0.0
 10
6.2503740857
 20
3.4348386646
 30
0.0
 10
6.2517111862
 20
3.4350124108
 30
0.0
 10
6.2528197448
 20
3.4351852944
 30
0.0
 10
6.253701261
 20
3.4353561301
 30
0.0
 10
6.2543542063
 20
3.4355250847
 30
0.0
 10
6.2547102281
 20
3.4356567615
 30
0.0
 10
6.2548418969
 20
3.435732563
 30
0.0
  0
SPLINE
  5
344
100
AcDbEntity
  8
0
100
AcDbSpline
 62
7
  6
CONTINUOUS
 70
0
 71
3
 72
72
 73
68
 74
0
 42
0.0000001
 43
0.0000001
 44
0.0000000001
 40
0.0
 40
0.0
 40
0.0
 40
0.0
 40
0.0000681906
 40
0.0001226824
 40
0.000193614
 40
0.0002818072
 40
0.0003876785
 40
0.0006532708
 40
0.0014024988
 40
0.0024444294
 40
0.0037796316
 40
0.0054080814
 40
0.0073294764
 40
0.0095427572
 40
0.0120463423
 40
0.0148386061
 40
0.0179179021
 40
0.0212825705
 40
0.0249309418
 40
0.0288612167
 40
0.0375570523
 40
0.0473478615
 40
0.0582111185
 40
0.0701226256
 40
0.0830525968
 40
0.0969700613
 40
0.1118436486
 40
0.1276375976
 40
0.1443134002
 40
0.1801539631
 40
0.2190249929
 40
0.2605599358
 40
0.3043635102
 40
0.3500220922
 40
0.3971023637
 40
0.4451584879
 40
0.493735272
 40
0.5423723319
 40
0.5906089816
 40
0.6379880222
 40
0.6840610957
 40
0.7283906919
 40
0.7705582649
 40
0.8101628067
 40
0.8468302234
 40
0.8802131247
 40
0.895572446
 40
0.9099941283
 40
0.9234453713
 40
0.9358935249
 40
0.9473079447
 40
0.9576633511
 40
0.9669353681
 40
0.9751002904
 40
0.9821399287
 40
0.9852329683
 40
0.9880389447
 40
0.9905559675
 40
0.9927822512
 40
0.9947167588
 40
0.9963588707
 40
0.9977080748
 40
0.9987640809
 40
0.9991822066
 40
0.9995272451
 40
0.9997995563
 40
1.0
 40
1.0
 40
1.0
 40
1.0
 10
3.0200705284
 20
3.9183797029
 30
0.0
 10
3.0200706648
 20
3.9184519322
 30
0.0
 10
3.0201754562
 20
3.9185642759
 30
0.0
 10
3.0203487871
 20
3.9186624126
 30
0.0
 10
3.0205587907
 20
3.9187531284
 30
0.0
 10
3.0208245352
 20
3.9188417445
 30
0.0
 10
3.0212942955
 20
3.9189716179
 30
0.0
 10
3.0224563084
 20
3.9192167665
 30
0.0
 10
3.0246145844
 20
3.9195250234
 30
0.0
 10
3.0279073879
 20
3.9198765917
 30
0.0
 10
3.0321357797
 20
3.9202310332
 30
0.0
 10
3.0372978402
 20
3.9205887775
 30
0.0
 10
3.0433918484
 20
3.9209477594
 30
0.0
 10
3.050414107
 20
3.9213078176
 30
0.0
 10
3.0583598507
 20
3.9216685491
 30
0.0
 10
3.0672237164
 20
3.922029782
 30
0.0
 10
3.0770003344
 20
3.9223913747
 30
0.0
 10
3.08768432
 20
3.9227532366
 30
0.0
 10
3.099270154
 20
3.9231153207
 30
0.0
 10
3.1165013216
 20
3.9236152889
 30
0.0
 10
3.140237963
 20
3.9242341907
 30
0.0
 10
3.1713178984
 20
3.9249555349
 30
0.0
 10
3.20580477
 20
3.9256777893
 30
0.0
 10
3.2436173792
 20
3.9264006518
 30
0.0
 10
3.2846656247
 20
3.9271241042
 30
0.0
 10
3.3288518342
 20
3.9278480234
 30
0.0
 10
3.3760720279
 20
3.9285721885
 30
0.0
 10
3.426214252
 20
3.9292966212
 30
0.0
 10
3.4985637678
 20
3.9302868348
 30
0.0
 10
3.595356209
 20
3.9315147918
 30
0.0
 10
3.7184795093
 20
3.93295718
 30
0.0
 10
3.8500379905
 20
3.9344006883
 30
0.0
 10
3.988786441
 20
3.9358452439
 30
0.0
 10
4.1334089634
 20
3.9372903958
 30
0.0
 10
4.2825361228
 20
3.9387360366
 30
0.0
 10
4.4347544659
 20
3.9401819612
 30
0.0
 10
4.5886218767
 20
3.9416280301
 30
0.0
 10
4.7426805135
 20
3.9430741227
 30
0.0
 10
4.8954704105
 20
3.9445200921
 30
0.0
 10
5.0455443372
 20
3.9459658305
 30
0.0
 10
5.1914796068
 20
3.947411117
 30
0.0
 10
5.3318944637
 20
3.9488558607
 30
0.0
 10
5.465457294
 20
3.9502996816
 30
0.0
 10
5.5909036336
 20
3.9517423424
 30
0.0
 10
5.7070443517
 20
3.953183402
 30
0.0
 10
5.7975044095
 20
3.9544138967
 30
0.0
 10
5.8644020981
 20
3.955407474
 30
0.0
 10
5.910189243
 20
3.9561315842
 30
0.0
 10
5.9528923905
 20
3.9568552441
 30
0.0
 10
5.9924096758
 20
3.9575784171
 30
0.0
 10
6.0286471771
 20
3.9583010893
 30
0.0
 10
6.0615197089
 20
3.9590229175
 30
0.0
 10
6.0909493991
 20
3.9597434405
 30
0.0
 10
6.1168657803
 20
3.9604626337
 30
0.0
 10
6.1362372852
 20
3.9610836259
 30
0.0
 10
6.1499330353
 20
3.9615877892
 30
0.0
 10
6.1588402532
 20
3.9619490445
 30
0.0
 10
6.1668285668
 20
3.9623097846
 30
0.0
 10
6.1738927868
 20
3.9626698797
 30
0.0
 10
6.1800289463
 20
3.9630291006
 30
0.0
 10
6.1852344273
 20
3.96338656
 30
0.0
 10
6.1895067918
 20
3.9637421598
 30
0.0
 10
6.1924817068
 20
3.964053345
 30
0.0
 10
6.1943912087
 20
3.9643126049
 30
0.0
 10
6.1954738494
 20
3.9644903825
 30
0.0
 10
6.1963219914
 20
3.9646666441
 30
0.0
 10
6.1968056033
 20
3.9648011223
 30
0.0
 10
6.197004812
 20
3.9648745654
 30
0.0
  0
LINE
  5
345
100
AcDbEntity
  8
0
100
AcDbLine
 62
7
  6
CONTINUOUS
 10
6.197004812
 20
3.9648745654
 11
6.1973100972
 21
3.9650120104
  0
SPLINE
  5
346
100
AcDbEntity
  8
0
100
AcDbSpline
 62
7
  6
CONTINUOUS
 70
0
 71
3
 72
16
 73
12
 74
0
 42
0.0000001
 43
0.0000001
 44
0.0000000001
 40
0.0
 40
0.0
 40
0.0
 40
0.0
 40
0.0261225296
 40
0.0479403057
 40
0.076658316
 40
0.112565246
 40
0.1558039919
 40
0.264551534
 40
0.4032465963
 40
0.5720218114
 40
1.0
 40
1.0
 40
1.0
 40
1.0
 10
2.962545388
 20
3.4828417766
 30
0.0
 10
2.962545388
 20
3.4829214402
 30
0.0
 10
2.9626745018
 20
3.4830416566
 30
0.0
 10
2.9628750021
 20
3.4831439747
 30
0.0
 10
2.9631238826
 20
3.4832410048
 30
0.0
 10
2.9634379831
 20
3.4833354664
 30
0.0
 10
2.9639945971
 20
3.4834743341
 30
0.0
 10
2.964865538
 20
3.4836405869
 30
0.0
 10
2.9661207492
 20
3.4838308948
 30
0.0
 10
2.9683465181
 20
3.4841081792
 30
0.0
 10
2.9701585069
 20
3.4842812242
 30
0.0
 10
2.9714587321
 20
3.4843947016
 30
0.0
  0
SPLINE
  5
347
100
AcDbEntity
  8
0
100
AcDbSpline
 62
7
  6
CONTINUOUS
 70
0
 71
3
 72
56
 73
52
 74
0
 42
0.0000001
 43
0.0000001
 44
0.0000000001
 40
0.0
 40
0.0
 40
0.0
 40
0.0
 40
0.0013723891
 40
0.0030212388
 40
0.0071459912
 40
0.0123647488
 40
0.0186656705
 40
0.0260364575
 40
0.0344605388
 40
0.0543887727
 40
0.0782756436
 40
0.1059069778
 40
0.1370372205
 40
0.1713903278
 40
0.2086582555
 40
0.2485102808
 40
0.2905901866
 40
0.3345236891
 40
0.4263750613
 40
0.5207991104
 40
0.5679258812
 40
0.614434258
 40
0.6599109321
 40
0.7039509384
 40
0.7461624837
 40
0.7861697979
 40
0.8236146014
 40
0.8581647002
 40
0.8895102958
 40
0.9038939768
 40
0.9173736121
 40
0.9299204391
 40
0.9415069528
 40
0.9521060095
 40
0.9616946124
 40
0.9702524628
 40
0.9777593839
 40
0.9841982042
 40
0.9870131383
 40
0.9895564117
 40
0.9918265352
 40
0.9938220427
 40
0.9955416658
 40
0.9969848867
 40
0.9981514988
 40
0.9986310969
 40
0.9990416225
 40
0.9993832189
 40
0.9996561872
 40
0.9998611966
 40
1.0
 40
1.0
 40
1.0
 40
1.0
 10
2.9714587321
 20
3.4843947016
 30
0.0
 10
2.9729553088
 20
3.4845253156
 30
0.0
 10
2.9762529041
 20
3.4847788096
 30
0.0
 10
2.9840591663
 20
3.485280453
 30
0.0
 10
2.9960771442
 20
3.4858836784
 30
0.0
 10
3.0131882796
 20
3.4865737192
 30
0.0
 10
3.0338549554
 20
3.487267245
 30
0.0
 10
3.0580318064
 20
3.4879639589
 30
0.0
 10
3.0971231758
 20
3.4889512819
 30
0.0
 10
3.1542935725
 20
3.4901551318
 30
0.0
 10
3.2324891666
 20
3.4915408468
 30
0.0
 10
3.3229484544
 20
3.49293164
 30
0.0
 10
3.4248655677
 20
3.4943264498
 30
0.0
 10
3.5373320937
 20
3.4957235927
 30
0.0
 10
3.6593464396
 20
3.4971226028
 30
0.0
 10
3.7898193153
 20
3.4985227387
 30
0.0
 10
3.9275889493
 20
3.4999238442
 30
0.0
 10
4.1222767875
 20
3.5018209185
 30
0.0
 10
4.3742607792
 20
3.5041586622
 30
0.0
 10
4.6297406408
 20
3.506466949
 30
0.0
 10
4.8355883797
 20
3.5083383028
 30
0.0
 10
4.987858639
 20
3.5097408207
 30
0.0
 10
5.1367498742
 20
3.5111430067
 30
0.0
 10
5.280937436
 20
3.5125447698
 30
0.0
 10
5.4191377563
 20
3.5139459325
 30
0.0
 10
5.5501183558
 20
3.5153461898
 30
0.0
 10
5.6727119722
 20
3.5167453017
 30
0.0
 10
5.7858235221
 20
3.5181426917
 30
0.0
 10
5.8736920853
 20
3.5193368924
 30
0.0
 10
5.9384970877
 20
3.5203012045
 30
0.0
 10
5.9827258949
 20
3.5210033308
 30
0.0
 10
6.0238924189
 20
3.5217050456
 30
0.0
 10
6.0619052773
 20
3.5224062302
 30
0.0
 10
6.0966793737
 20
3.523106874
 30
0.0
 10
6.1281374682
 20
3.5238067409
 30
0.0
 10
6.156209914
 20
3.5245052563
 30
0.0
 10
6.180833332
 20
3.5252022046
 30
0.0
 10
6.1991703749
 20
3.5258046597
 30
0.0
 10
6.2120745614
 20
3.5262942603
 30
0.0
 10
6.220417483
 20
3.5266444423
 30
0.0
 10
6.2278625858
 20
3.5269940763
 30
0.0
 10
6.2344050068
 20
3.5273430305
 30
0.0
 10
6.2400409042
 20
3.5276908519
 30
0.0
 10
6.2447674911
 20
3.5280372812
 30
0.0
 10
6.2481360976
 20
3.5283395301
 30
0.0
 10
6.2503737091
 20
3.5285886226
 30
0.0
 10
6.2517109282
 20
3.528762377
 30
0.0
 10
6.2528195829
 20
3.5289352687
 30
0.0
 10
6.2537011728
 20
3.5291061122
 30
0.0
 10
6.2543541691
 20
3.5292750743
 30
0.0
 10
6.2547102177
 20
3.5294067571
 30
0.0
 10
6.2548418951
 20
3.529482563
 30
0.0
  0
SPLINE
  5
348
100
AcDbEntity
  8
0
100
AcDbSpline
 62
7
  6
CONTINUOUS
 70
0
 71
3
 72
69
 73
65
 74
0
 42
0.0000001
 43
0.0000001
 44
0.0000000001
 40
0.0
 40
0.0
 40
0.0
 40
0.0
 40
0.0000678539
 40
0.0001219599
 40
0.0001923639
 40
0.0002798959
 40
0.0003849803
 40
0.000648653
 40
0.0013928699
 40
0.0024286184
 40
0.0037565545
 40
0.0053760302
 40
0.0072860866
 40
0.0094856558
 40
0.0119736121
 40
0.0147487964
 40
0.0178100074
 40
0.0211554957
 40
0.0247829473
 40
0.0286900161
 40
0.0373335936
 40
0.0470673223
 40
0.0578689602
 40
0.0697114027
 40
0.0825671447
 40
0.0964074976
 40
0.1111985452
 40
0.1269049153
 40
0.1434910131
 40
0.179142564
 40
0.2178167395
 40
0.259149134
 40
0.3027517422
 40
0.348212597
 40
0.3951048902
 40
0.442986251
 40
0.4914063008
 40
0.5399088466
 40
0.5880374758
 40
0.6353386685
 40
0.681367286
 40
0.7256901066
 40
0.76788899
 40
0.8075681307
 40
0.8443519662
 40
0.8778960685
 40
0.9078836659
 40
0.9214544841
 40
0.9340322984
 40
0.9455891795
 40
0.9560976636
 40
0.9655313735
 40
0.973869614
 40
0.9810935906
 40
0.9871847913
 40
0.989800997
 40
0.9921293222
 40
0.9941686298
 40
0.9959178271
 40
0.9973759027
 40
0.9985420115
 40
0.999416065
 40
0.999744076
 40
1.0
 40
1.0
 40
1.0
 40
1.0
 10
3.0200733741
 20
4.1058797028
 30
0.0
 10
3.0200734467
 20
4.1059515645
 30
0.0
 10
3.0201770226
 20
4.1060635891
 30
0.0
 10
3.0203490449
 20
4.106161535
 30
0.0
 10
3.0205572676
 20
4.106251971
 30
0.0
 10
3.0208208664
 20
4.1063403229
 30
0.0
 10
3.0212869487
 20
4.1064698068
 30
0.0
 10
3.0224405755
 20
4.1067142722
 30
0.0
 10
3.0245846165
 20
4.107021617
 30
0.0
 10
3.0278573694
 20
4.1073720556
 30
0.0
 10
3.0320613764
 20
4.1077252956
 30
0.0
 10
3.0371934399
 20
4.1080818844
 30
0.0
 10
3.0432504734
 20
4.1084397821
 30
0.0
 10
3.0502285642
 20
4.1087987756
 30
0.0
 10
3.058123919
 20
4.1091584227
 30
0.0
 10
3.0669326243
 20
4.109518564
 30
0.0
 10
3.0766501832
 20
4.1098790256
 30
0.0
 10
3.0872709043
 20
4.1102397308
 30
0.0
 10
3.0987879108
 20
4.1106006716
 30
0.0
 10
3.115914348
 20
4.1110991018
 30
0.0
 10
3.1395069582
 20
4.1117162025
 30
0.0
 10
3.1704010543
 20
4.1124353021
 30
0.0
 10
3.2046837653
 20
4.1131552018
 30
0.0
 10
3.2422735361
 20
4.1138759253
 30
0.0
 10
3.2830820386
 20
4.1145972007
 30
0.0
 10
3.3270137538
 20
4.1153187885
 30
0.0
 10
3.3739648462
 20
4.1160407311
 30
0.0
 10
3.4238241817
 20
4.1167630003
 30
0.0
 10
3.4957746319
 20
4.1177501314
 30
0.0
 10
3.5920485144
 20
4.1189744228
 30
0.0
 10
3.7145296974
 20
4.1204123118
 30
0.0
 10
3.8454321019
 20
4.1218514695
 30
0.0
 10
3.9835224476
 20
4.1232915152
 30
0.0
 10
4.1275013917
 20
4.1247322875
 30
0.0
 10
4.2760120328
 20
4.1261734662
 30
0.0
 10
4.4276567977
 20
4.1276149741
 30
0.0
 10
4.5810070013
 20
4.1290566136
 30
0.0
 10
4.7346190896
 20
4.1304982914
 30
0.0
 10
4.8870461829
 20
4.1319398493
 30
0.0
 10
5.0368531062
 20
4.1333811779
 30
0.0
 10
5.1826292396
 20
4.1348221134
 30
0.0
 10
5.3230014237
 20
4.1362624346
 30
0.0
 10
5.4566487309
 20
4.1377019933
 30
0.0
 10
5.5823112796
 20
4.139140312
 30
0.0
 10
5.6988072227
 20
4.1405770709
 30
0.0
 10
5.8050383602
 20
4.1420115939
 30
0.0
 10
5.8866858243
 20
4.143241543
 30
0.0
 10
5.9461294886
 20
4.144237007
 30
0.0
 10
5.9860556256
 20
4.1449581878
 30
0.0
 10
6.0227379896
 20
4.1456787043
 30
0.0
 10
6.0560898589
 20
4.146398372
 30
0.0
 10
6.0860321207
 20
4.1471171491
 30
0.0
 10
6.1124948064
 20
4.1478343127
 30
0.0
 10
6.1354161275
 20
4.1485493609
 30
0.0
 10
6.152277281
 20
4.1491693716
 30
0.0
 10
6.1639539417
 20
4.149675265
 30
0.0
 10
6.1713415932
 20
4.15003462
 30
0.0
 10
6.177809876
 20
4.1503930336
 30
0.0
 10
6.1833549109
 20
4.1507503552
 30
0.0
 10
6.1879732792
 20
4.1511051028
 30
0.0
 10
6.1916613709
 20
4.1514576379
 30
0.0
 10
6.1941514247
 20
4.1517665112
 30
0.0
 10
6.1956733638
 20
4.1520283011
 30
0.0
 10
6.1962779415
 20
4.1521609398
 30
0.0
 10
6.196539751
 20
4.1522310735
 30
0.0
  0
LINE
  5
349
100
AcDbEntity
  8
0
100
AcDbLine
 62
7
  6
CONTINUOUS
 10
6.196539751
 20
4.1522310735
 11
6.1973072498
 21
4.1525120103
  0
SPLINE
  5
34A
100
AcDbEntity
  8
0
100
AcDbSpline
 62
7
  6
CONTINUOUS
 70
0
 71
3
 72
14
 73
10
 74
0
 42
0.0000001
 43
0.0000001
 44
0.0000000001
 40
0.0
 40
0.0
 40
0.0
 40
0.0
 40
0.1025046619
 40
0.2173985176
 40
0.3419164487
 40
0.4730615834
 40
0.7425241247
 40
0.8743559576
 40
1.0
 40
1.0
 40
1.0
 40
1.0
 10
3.4422522255
 20
3.2289047024
 30
0.0
 10
3.5068233195
 20
3.2297341189
 30
0.0
 10
3.6437716916
 20
3.2313514488
 30
0.0
 10
3.8591619583
 20
3.2336309918
 30
0.0
 10
4.0925961743
 20
3.2359156912
 30
0.0
 10
4.4234032213
 20
3.2389940184
 30
0.0
 10
4.7588187968
 20
3.2419970841
 30
0.0
 10
5.09076798
 20
3.2450704618
 30
0.0
 10
5.2529663518
 20
3.2466440406
 30
0.0
 10
5.3321162112
 20
3.2474426281
 30
0.0
  0
SPLINE
  5
34B
100
AcDbEntity
  8
0
100
AcDbSpline
 62
7
  6
CONTINUOUS
 70
0
 71
3
 72
44
 73
40
 74
0
 42
0.0000001
 43
0.0000001
 44
0.0000000001
 40
0.0
 40
0.0
 40
0.0
 40
0.0
 40
0.0711669966
 40
0.1482640549
 40
0.2297980528
 40
0.3142199996
 40
0.3999077207
 40
0.4852208216
 40
0.5685259724
 40
0.6482287858
 40
0.6862485808
 40
0.7228034042
 40
0.7577160528
 40
0.7908200533
 40
0.8219564574
 40
0.8509750034
 40
0.8777389933
 40
0.9021177089
 40
0.923997572
 40
0.9339662191
 40
0.9432708326
 40
0.9519012487
 40
0.9598473974
 40
0.967099218
 40
0.973647025
 40
0.9794836833
 40
0.9846031689
 40
0.988999514
 40
0.9909246733
 40
0.9926668608
 40
0.9942255564
 40
0.9956005644
 40
0.9967917569
 40
0.9977990759
 40
0.9986225946
 40
0.9992626694
 40
0.9997203936
 40
0.9998819266
 40
1.0
 40
1.0
 40
1.0
 40
1.0
 10
3.5981633237
 20
3.6839167766
 30
0.0
 10
3.6611906064
 20
3.6846404386
 30
0.0
 10
3.7924979415
 20
3.6860647728
 30
0.0
 10
3.9960160558
 20
3.6881072186
 30
0.0
 10
4.2112743932
 20
3.6901520488
 30
0.0
 10
4.4341416517
 20
3.6921983393
 30
0.0
 10
4.6603561319
 20
3.6942452031
 30
0.0
 10
4.8855814461
 20
3.6962918712
 30
0.0
 10
5.105505812
 20
3.6983376668
 30
0.0
 10
5.2835444007
 20
3.7000668849
 30
0.0
 10
5.4201782575
 20
3.7014624677
 30
0.0
 10
5.517143861
 20
3.7024923651
 30
0.0
 10
5.6097553737
 20
3.7035219789
 30
0.0
 10
5.6975675757
 20
3.7045511594
 30
0.0
 10
5.7801590968
 20
3.7055797571
 30
0.0
 10
5.8571349191
 20
3.7066077538
 30
0.0
 10
5.928125012
 20
3.7076346336
 30
0.0
 10
5.9927917851
 20
3.7086605226
 30
0.0
 10
6.0425836081
 20
3.709538823
 30
0.0
 10
6.0790253614
 20
3.7102480219
 30
0.0
 10
6.1037338293
 20
3.7107631098
 30
0.0
 10
6.1266505933
 20
3.7112778928
 30
0.0
 10
6.1477487467
 20
3.7117923136
 30
0.0
 10
6.167001786
 20
3.7123062331
 30
0.0
 10
6.1843857697
 20
3.7128196135
 30
0.0
 10
6.1998803004
 20
3.7133321372
 30
0.0
 10
6.2134681761
 20
3.7138435897
 30
0.0
 10
6.2235917345
 20
3.7142855322
 30
0.0
 10
6.2307246113
 20
3.7146445359
 30
0.0
 10
6.2353461172
 20
3.7149015011
 30
0.0
 10
6.2394795576
 20
3.7151581333
 30
0.0
 10
6.2431239559
 20
3.7154143137
 30
0.0
 10
6.2462787604
 20
3.7156696777
 30
0.0
 10
6.2489432169
 20
3.7159241398
 30
0.0
 10
6.2511176269
 20
3.7161759999
 30
0.0
 10
6.2528005433
 20
3.7164261951
 30
0.0
 10
6.2538964494
 20
3.7166448004
 30
0.0
 10
6.2545215338
 20
3.7168341767
 30
0.0
 10
6.2547512384
 20
3.7169303923
 30
0.0
 10
6.2548418711
 20
3.716982563
 30
0.0
  0
SPLINE
  5
34C
100
AcDbEntity
  8
0
100
AcDbSpline
 62
7
  6
CONTINUOUS
 70
0
 71
3
 72
16
 73
12
 74
0
 42
0.0000001
 43
0.0000001
 44
0.0000000001
 40
0.0
 40
0.0
 40
0.0
 40
0.0
 40
0.0261300432
 40
0.0479494735
 40
0.0766682804
 40
0.1125754059
 40
0.155813906
 40
0.2645600405
 40
0.4032529828
 40
0.5720258218
 40
1.0
 40
1.0
 40
1.0
 40
1.0
 10
2.962545388
 20
3.7640917766
 30
0.0
 10
2.962545388
 20
3.7641713883
 30
0.0
 10
2.9626743494
 20
3.7642915484
 30
0.0
 10
2.9628746758
 20
3.7643938287
 30
0.0
 10
2.9631233107
 20
3.7644908117
 30
0.0
 10
2.9634371067
 20
3.7645852289
 30
0.0
 10
2.9639931769
 20
3.7647240294
 30
0.0
 10
2.9648632742
 20
3.7648902027
 30
0.0
 10
2.9661172748
 20
3.7650804192
 30
0.0
 10
2.968340911
 20
3.7653575713
 30
0.0
 10
2.9701511708
 20
3.7655305332
 30
0.0
 10
2.9714501578
 20
3.7656439563
 30
0.0
  0
SPLINE
  5
34D
100
AcDbEntity
  8
0
100
AcDbSpline
 62
7
  6
CONTINUOUS
 70
0
 71
3
 72
56
 73
52
 74
0
 42
0.0000001
 43
0.0000001
 44
0.0000000001
 40
0.0
 40
0.0
 40
0.0
 40
0.0
 40
0.0013718417
 40
0.0030201703
 40
0.0071439896
 40
0.0123619504
 40
0.0186621607
 40
0.0260323331
 40
0.0344560627
 40
0.0543835689
 40
0.0782699255
 40
0.10590042
 40
0.1370299048
 40
0.1713818199
 40
0.2086490971
 40
0.2485014999
 40
0.290582144
 40
0.3345164507
 40
0.4263678913
 40
0.5207900666
 40
0.5679159952
 40
0.6144246231
 40
0.6599021902
 40
0.7039430146
 40
0.7461551564
 40
0.7861627996
 40
0.8236077263
 40
0.8581578692
 40
0.8895040353
 40
0.9038881078
 40
0.9173683488
 40
0.9299160591
 40
0.9415034281
 40
0.9521031544
 40
0.9616924475
 40
0.9702509083
 40
0.9777582549
 40
0.9841974345
 40
0.9870125318
 40
0.9895559503
 40
0.9918261958
 40
0.993821797
 40
0.9955414914
 40
0.9969847715
 40
0.9981514305
 40
0.9986310475
 40
0.999041589
 40
0.9993831983
 40
0.9996561765
 40
0.9998611927
 40
1.0
 40
1.0
 40
1.0
 40
1.0
 10
2.9714501578
 20
3.7656439563
 30
0.0
 10
2.9729461362
 20
3.76577458
 30
0.0
 10
2.9762425664
 20
3.7660280867
 30
0.0
 10
2.9840466519
 20
3.7665297577
 30
0.0
 10
2.9960621934
 20
3.7671330054
 30
0.0
 10
3.0131706981
 20
3.7678230715
 30
0.0
 10
3.0338351021
 20
3.7685166303
 30
0.0
 10
3.0580101781
 20
3.7692133853
 30
0.0
 10
3.0970997944
 20
3.7702007391
 30
0.0
 10
3.1542685944
 20
3.7714046643
 30
0.0
 10
3.2324621142
 20
3.7727903941
 30
0.0
 10
3.3229193262
 20
3.774181229
 30
0.0
 10
3.4248336527
 20
3.775576027
 30
0.0
 10
3.5372976264
 20
3.7769731876
 30
0.0
 10
3.6593106879
 20
3.7783722075
 30
0.0
 10
3.7897844145
 20
3.7797723721
 30
0.0
 10
3.9275565108
 20
3.7811735254
 30
0.0
 10
4.1222466221
 20
3.7830706305
 30
0.0
 10
4.3742301779
 20
3.785408385
 30
0.0
 10
4.6297078106
 20
3.7877166518
 30
0.0
 10
4.8355533909
 20
3.7895879831
 30
0.0
 10
4.9878243796
 20
3.7909905021
 30
0.0
 10
5.1367181528
 20
3.7923927034
 30
0.0
 10
5.2809086183
 20
3.7937944841
 30
0.0
 10
5.4191112093
 20
3.795195656
 30
0.0
 10
5.5500933
 20
3.7965959144
 30
0.0
 10
5.6726877811
 20
3.7979950119
 30
0.0
 10
5.785800435
 20
3.7993923992
 30
0.0
 10
5.8736703302
 20
3.8005865771
 30
0.0
 10
5.9384772184
 20
3.8015508987
 30
0.0
 10
5.9827081999
 20
3.8022530465
 30
0.0
 10
6.023877398
 20
3.8029547793
 30
0.0
 10
6.0618929922
 20
3.8036559891
 30
0.0
 10
6.0966696041
 20
3.8043566746
 30
0.0
 10
6.1281299377
 20
3.8050565674
 30
0.0
 10
6.1562043465
 20
3.8057551038
 30
0.0
 10
6.1808293561
 20
3.8064520825
 30
0.0
 10
6.1991674845
 20
3.8070545596
 30
0.0
 10
6.2120724356
 20
3.8075441764
 30
0.0
 10
6.2204158501
 20
3.8078943701
 30
0.0
 10
6.2278613674
 20
3.8082440151
 30
0.0
 10
6.2344041196
 20
3.8085929809
 30
0.0
 10
6.2400402769
 20
3.8089408138
 30
0.0
 10
6.2447670702
 20
3.8092872521
 30
0.0
 10
6.2481358224
 20
3.8095895081
 30
0.0
 10
6.2503735292
 20
3.809838606
 30
0.0
 10
6.2517108041
 20
3.8100123638
 30
0.0
 10
6.252819504
 20
3.8101852589
 30
0.0
 10
6.2537011288
 20
3.8103561054
 30
0.0
 10
6.2543541494
 20
3.8105250705
 30
0.0
 10
6.2547102109
 20
3.8106567555
 30
0.0
 10
6.2548418928
 20
3.810732563
 30
0.0
  0
SPLINE
  5
34E
100
AcDbEntity
  8
0
100
AcDbSpline
 62
7
  6
CONTINUOUS
 70
0
 71
3
 72
40
 73
36
 74
0
 42
0.0000001
 43
0.0000001
 44
0.0000000001
 40
0.0
 40
0.0
 40
0.0
 40
0.0
 40
0.1096679465
 40
0.2150741202
 40
0.3156103877
 40
0.4107782393
 40
0.5001379458
 40
0.5832655765
 40
0.6597535227
 40
0.7292200555
 40
0.7913368383
 40
0.8195399339
 40
0.8457944269
 40
0.8700704171
 40
0.8923380273
 40
0.9125675241
 40
0.9307338582
 40
0.9468182348
 40
0.9608024011
 40
0.972668298
 40
0.9778014621
 40
0.9823995603
 40
0.9864619686
 40
0.9899881775
 40
0.9929778673
 40
0.9954310745
 40
0.9964567348
 40
0.9973486948
 40
0.9981073714
 40
0.9987335179
 40
0.9992285808
 40
0.9995956794
 40
0.9997336288
 40
0.9998437684
 40
1.0
 40
1.0
 40
1.0
 40
1.0
 10
5.3321162112
 20
3.2474426281
 30
0.0
 10
5.3658680212
 20
3.2477831692
 30
0.0
 10
5.4320599106
 20
3.248462186
 30
0.0
 10
5.5291927336
 20
3.2494992784
 30
0.0
 10
5.6218624637
 20
3.2505362212
 30
0.0
 10
5.709593105
 20
3.2515725725
 30
0.0
 10
5.7919653401
 20
3.2526083026
 30
0.0
 10
5.8685878107
 20
3.2536433382
 30
0.0
 10
5.9390869901
 20
3.2546772609
 30
0.0
 10
6.0031187214
 20
3.2557100918
 30
0.0
 10
6.05228976
 20
3.2565950147
 30
0.0
 10
6.0881618288
 20
3.257309992
 30
0.0
 10
6.1123888581
 20
3.2578285843
 30
0.0
 10
6.1347886257
 20
3.2583468384
 30
0.0
 10
6.1553334975
 20
3.2588646819
 30
0.0
 10
6.1739973069
 20
3.2593820264
 30
0.0
 10
6.1907572569
 20
3.2598987643
 30
0.0
 10
6.2055940495
 20
3.2604144376
 30
0.0
 10
6.2184904098
 20
3.2609288118
 30
0.0
 10
6.2280161327
 20
3.2613742294
 30
0.0
 10
6.2346534198
 20
3.2617369899
 30
0.0
 10
6.2388909902
 20
3.2619954121
 30
0.0
 10
6.2426329757
 20
3.2622533471
 30
0.0
 10
6.2458786733
 20
3.2625105197
 30
0.0
 10
6.2486273458
 20
3.2627667861
 30
0.0
 10
6.250605938
 20
3.2629899557
 30
0.0
 10
6.2519387299
 20
3.2631730915
 30
0.0
 10
6.2527524078
 20
3.2633017719
 30
0.0
 10
6.2534414072
 20
3.2634300557
 30
0.0
 10
6.2540060838
 20
3.263557316
 30
0.0
 10
6.2544465197
 20
3.263684157
 30
0.0
 10
6.2547344857
 20
3.2637951962
 30
0.0
 10
6.2548992904
 20
3.263890791
 30
0.0
 10
6.2549965094
 20
3.2639662817
 30
0.0
 10
6.255045282
 20
3.2640445473
 30
0.0
 10
6.255045177
 20
3.264092632
 30
0.0
  0
SPLINE
  5
34F
100
AcDbEntity
  8
0
100
AcDbSpline
 62
7
  6
CONTINUOUS
 70
0
 71
3
 72
48
 73
44
 74
0
 42
0.0000001
 43
0.0000001
 44
0.0000000001
 40
0.0
 40
0.0
 40
0.0
 40
0.0
 40
0.0000559627
 40
0.0001390236
 40
0.0002592102
 40
0.0004197426
 40
0.0006219262
 40
0.0008664037
 40
0.0011535369
 40
0.0014835498
 40
0.002272668
 40
0.0032341654
 40
0.0043680194
 40
0.005674058
 40
0.0071520298
 40
0.0088016374
 40
0.0126144258
 40
0.01710964
 40
0.022283977
 40
0.0281317959
 40
0.0346465087
 40
0.0418214954
 40
0.0496501172
 40
0.0581255524
 40
0.067239046
 40
0.087340264
 40
0.1098736895
 40
0.1347513913
 40
0.1618704408
 40
0.1911251026
 40
0.2223971314
 40
0.2555602709
 40
0.2904842178
 40
0.3270265554
 40
0.365042222
 40
0.4043792192
 40
0.4863799819
 40
0.5717164339
 40
0.6590233441
 40
0.7469043523
 40
0.8339437399
 40
0.9187750329
 40
1.0
 40
1.0
 40
1.0
 40
1.0
 10
3.020073063
 20
3.2621297015
 30
0.0
 10
3.0200729723
 20
3.2621723684
 30
0.0
 10
3.0201276388
 20
3.2622746491
 30
0.0
 10
3.0202931091
 20
3.2623854411
 30
0.0
 10
3.0205460843
 20
3.262500863
 30
0.0
 10
3.0208966323
 20
3.2626150288
 30
0.0
 10
3.0213449204
 20
3.2627311062
 30
0.0
 10
3.0218923005
 20
3.262847434
 30
0.0
 10
3.0225388032
 20
3.2629643164
 30
0.0
 10
3.0235980816
 20
3.2631305199
 30
0.0
 10
3.025171659
 20
3.2633330989
 30
0.0
 10
3.0273585911
 20
3.2635656963
 30
0.0
 10
3.0299414361
 20
3.263799122
 30
0.0
 10
3.0329193481
 20
3.2640332358
 30
0.0
 10
3.0362915112
 20
3.2642677919
 30
0.0
 10
3.0415727584
 20
3.264597057
 30
0.0
 10
3.0491539871
 20
3.2650014729
 30
0.0
 10
3.0594226272
 20
3.265468433
 30
0.0
 10
3.0712441563
 20
3.2659364432
 30
0.0
 10
3.0846064004
 20
3.2664054103
 30
0.0
 10
3.0994947924
 20
3.266875018
 30
0.0
 10
3.1158940464
 20
3.267345111
 30
0.0
 10
3.1337887413
 20
3.2678155579
 30
0.0
 10
3.1531618529
 20
3.2682862461
 30
0.0
 10
3.1818902037
 20
3.2689355136
 30
0.0
 10
3.2213358137
 20
3.2697393304
 30
0.0
 10
3.2727999813
 20
3.2706768978
 30
0.0
 10
3.3296154578
 20
3.2716154765
 30
0.0
 10
3.3915559478
 20
3.2725551682
 30
0.0
 10
3.4583721013
 20
3.2734954225
 30
0.0
 10
3.5297967988
 20
3.2744362214
 30
0.0
 10
3.6055442114
 20
3.2753774939
 30
0.0
 10
3.6853100967
 20
3.2763189883
 30
0.0
 10
3.7687758812
 20
3.2772608166
 30
0.0
 10
3.8556064612
 20
3.2782028339
 30
0.0
 10
3.977093829
 20
3.2794767184
 30
0.0
 10
4.134658205
 20
3.2810576327
 30
0.0
 10
4.3287946325
 20
3.2829307801
 30
0.0
 10
4.5274144659
 20
3.2848045775
 30
0.0
 10
4.7273327041
 20
3.2866785668
 30
0.0
 10
4.9253634051
 20
3.288552313
 30
0.0
 10
5.1183191913
 20
3.2904252889
 30
0.0
 10
5.2449171181
 20
3.2917072932
 30
0.0
 10
5.3068411738
 20
3.2923547024
 30
0.0
  0
SPLINE
  5
350
100
AcDbEntity
  8
0
100
AcDbSpline
 62
7
  6
CONTINUOUS
 70
0
 71
3
 72
35
 73
31
 74
0
 42
0.0000001
 43
0.0000001
 44
0.0000000001
 40
0.0
 40
0.0
 40
0.0
 40
0.0
 40
0.1081295889
 40
0.2121357815
 40
0.3114323505
 40
0.4055282493
 40
0.4940045254
 40
0.5764542251
 40
0.6524923609
 40
0.721744725
 40
0.7838919648
 40
0.8122086595
 40
0.8386391695
 40
0.8631543204
 40
0.8857275554
 40
0.9063323519
 40
0.9249422286
 40
0.9415330715
 40
0.9560884615
 40
0.9685937002
 40
0.9790343751
 40
0.9834761709
 40
0.9873967674
 40
0.990795452
 40
0.9936723749
 40
0.9960281038
 40
0.9978640522
 40
0.9991838107
 40
0.9996533027
 40
1.0
 40
1.0
 40
1.0
 40
1.0
 10
5.3068411738
 20
3.2923547024
 30
0.0
 10
5.3389455043
 20
3.2926903496
 30
0.0
 10
5.4019297912
 20
3.2933597044
 30
0.0
 10
5.494395352
 20
3.2943817944
 30
0.0
 10
5.5826937338
 20
3.295403756
 30
0.0
 10
5.6663806196
 20
3.2964252012
 30
0.0
 10
5.7450649097
 20
3.2974459623
 30
0.0
 10
5.8183869744
 20
3.298466175
 30
0.0
 10
5.8860004554
 20
3.2994852877
 30
0.0
 10
5.9475849528
 20
3.3005034215
 30
0.0
 10
5.995000311
 20
3.3013751574
 30
0.0
 10
6.0297017513
 20
3.3020789114
 30
0.0
 10
6.0532309695
 20
3.3025900574
 30
0.0
 10
6.0750544016
 20
3.3031009338
 30
0.0
 10
6.0951475475
 20
3.3036114601
 30
0.0
 10
6.1134866838
 20
3.3041215239
 30
0.0
 10
6.1300487824
 20
3.3046309678
 30
0.0
 10
6.1448137576
 20
3.3051397174
 30
0.0
 10
6.1577649826
 20
3.3056472028
 30
0.0
 10
6.1688885333
 20
3.3061531297
 30
0.0
 10
6.1770088639
 20
3.3065924781
 30
0.0
 10
6.1825804087
 20
3.306951577
 30
0.0
 10
6.1860633142
 20
3.3072057429
 30
0.0
 10
6.1890802876
 20
3.3074591142
 30
0.0
 10
6.1916306827
 20
3.3077116198
 30
0.0
 10
6.1937150423
 20
3.307961688
 30
0.0
 10
6.1953323293
 20
3.3082101181
 30
0.0
 10
6.1963886379
 20
3.3084274708
 30
0.0
 10
6.1969945831
 20
3.3086152042
 30
0.0
 10
6.197218761
 20
3.3087106032
 30
0.0
 10
6.1973079495
 20
3.3087620085
 30
0.0
  0
SPLINE
  5
351
100
AcDbEntity
  8
0
100
AcDbSpline
 62
7
  6
CONTINUOUS
 70
0
 71
3
 72
40
 73
36
 74
0
 42
0.0000001
 43
0.0000001
 44
0.0000000001
 40
0.0
 40
0.0
 40
0.0
 40
0.0
 40
0.1096586314
 40
0.2150635371
 40
0.3156035633
 40
0.410770439
 40
0.5001270402
 40
0.5832499985
 40
0.6597378643
 40
0.7292033069
 40
0.7913184705
 40
0.8195231049
 40
0.8457768784
 40
0.870050852
 40
0.8923172972
 40
0.912548519
 40
0.9307170135
 40
0.9468004281
 40
0.9607828912
 40
0.9726491399
 40
0.9777840344
 40
0.9823843557
 40
0.9864483982
 40
0.9899752055
 40
0.9929648582
 40
0.9954178765
 40
0.9964435529
 40
0.997335701
 40
0.9980948269
 40
0.9987217944
 40
0.9992182033
 40
0.9995874149
 40
0.9997268427
 40
0.9998388368
 40
1.0
 40
1.0
 40
1.0
 40
1.0
 10
5.3068411738
 20
3.2806547024
 30
0.0
 10
5.3394116281
 20
3.2809952229
 30
0.0
 10
5.4032889929
 20
3.2816742268
 30
0.0
 10
5.4970279386
 20
3.2827113243
 30
0.0
 10
5.5864620815
 20
3.2837482791
 30
0.0
 10
5.6711290184
 20
3.2847846716
 30
0.0
 10
5.7506221106
 20
3.2858203605
 30
0.0
 10
5.8245664261
 20
3.2868554345
 30
0.0
 10
5.8926018072
 20
3.2878893182
 30
0.0
 10
5.9543964092
 20
3.2889221477
 30
0.0
 10
6.0018496965
 20
3.2898071377
 30
0.0
 10
6.0364685264
 20
3.290522039
 30
0.0
 10
6.0598489031
 20
3.2910406403
 30
0.0
 10
6.0814649833
 20
3.2915589135
 30
0.0
 10
6.1012916209
 20
3.2920767902
 30
0.0
 10
6.1193040719
 20
3.2925941112
 30
0.0
 10
6.1354791442
 20
3.2931107806
 30
0.0
 10
6.1497971157
 20
3.2936264903
 30
0.0
 10
6.1622417766
 20
3.2941409122
 30
0.0
 10
6.1714342821
 20
3.294586368
 30
0.0
 10
6.1778404048
 20
3.2949490813
 30
0.0
 10
6.1819311249
 20
3.2952074723
 30
0.0
 10
6.1855431562
 20
3.295465385
 30
0.0
 10
6.1886754638
 20
3.2957225654
 30
0.0
 10
6.1913274316
 20
3.2959788441
 30
0.0
 10
6.193235998
 20
3.296202034
 30
0.0
 10
6.1945213685
 20
3.2963851719
 30
0.0
 10
6.1953061133
 20
3.296513866
 30
0.0
 10
6.19597065
 20
3.2966421616
 30
0.0
 10
6.1965153966
 20
3.2967694818
 30
0.0
 10
6.1969404711
 20
3.2968963501
 30
0.0
 10
6.1972184695
 20
3.2970075675
 30
0.0
 10
6.1973774803
 20
3.297102992
 30
0.0
 10
6.1974720565
 20
3.2971790943
 30
0.0
 10
6.1975187949
 20
3.2972568304
 30
0.0
 10
6.1975189786
 20
3.2973047009
 30
0.0
  0
SPLINE
  5
352
100
AcDbEntity
  8
0
100
AcDbSpline
 62
7
  6
CONTINUOUS
 70
0
 71
3
 72
43
 73
39
 74
0
 42
0.0000001
 43
0.0000001
 44
0.0000000001
 40
0.0
 40
0.0
 40
0.0
 40
0.0
 40
0.0711480755
 40
0.1482269196
 40
0.2297384144
 40
0.3141381193
 40
0.3998041895
 40
0.4850990115
 40
0.5683891755
 40
0.6480802328
 40
0.6860961944
 40
0.7226469795
 40
0.7575589361
 40
0.7906624424
 40
0.821801614
 40
0.8508250517
 40
0.8775949077
 40
0.9019833962
 40
0.9238716875
 40
0.9338464278
 40
0.9431583371
 40
0.9517952509
 40
0.9597473376
 40
0.9670060436
 40
0.973562842
 40
0.9794092271
 40
0.9845373627
 40
0.9889421896
 40
0.9926194763
 40
0.9941840299
 40
0.9955652167
 40
0.9967626095
 40
0.9977758629
 40
0.9986050059
 40
0.9992506311
 40
0.9997141098
 40
0.9998786992
 40
1.0
 40
1.0
 40
1.0
 40
1.0
 10
3.6334778929
 20
3.6507047024
 30
0.0
 10
3.69428652
 20
3.6514281706
 30
0.0
 10
3.820973658
 20
3.6528521549
 30
0.0
 10
4.0173290982
 20
3.6548941401
 30
0.0
 10
4.2250117547
 20
3.6569384841
 30
0.0
 10
4.4400345595
 20
3.6589842893
 30
0.0
 10
4.6582912533
 20
3.6610306639
 30
0.0
 10
4.8755995415
 20
3.6630768545
 30
0.0
 10
5.0878005405
 20
3.6651221645
 30
0.0
 10
5.2595916884
 20
3.6668509961
 30
0.0
 10
5.3914342451
 20
3.6682461457
 30
0.0
 10
5.48500414
 20
3.6692758414
 30
0.0
 10
5.574374915
 20
3.6703051027
 30
0.0
 10
5.6591198628
 20
3.6713340784
 30
0.0
 10
5.7388312891
 20
3.6723623989
 30
0.0
 10
5.8131286355
 20
3.6733901124
 30
0.0
 10
5.8816553422
 20
3.6744168703
 30
0.0
 10
5.9440826458
 20
3.675442357
 30
0.0
 10
5.9921549521
 20
3.6763205816
 30
0.0
 10
6.0273415878
 20
3.6770295357
 30
0.0
 10
6.0512033609
 20
3.677544406
 30
0.0
 10
6.0733358702
 20
3.6780590442
 30
0.0
 10
6.0937129262
 20
3.6785733719
 30
0.0
 10
6.1123114269
 20
3.6790872366
 30
0.0
 10
6.1291093732
 20
3.6796004718
 30
0.0
 10
6.1440853259
 20
3.6801128735
 30
0.0
 10
6.1572207561
 20
3.680624106
 30
0.0
 10
6.1685006195
 20
3.681133809
 30
0.0
 10
6.1767342847
 20
3.6815764466
 30
0.0
 10
6.1823837191
 20
3.6819382098
 30
0.0
 10
6.1859157835
 20
3.6821942467
 30
0.0
 10
6.1889753484
 20
3.6824494423
 30
0.0
 10
6.1915611191
 20
3.6827037731
 30
0.0
 10
6.1936732485
 20
3.6829556589
 30
0.0
 10
6.1953107056
 20
3.6832059025
 30
0.0
 10
6.196379259
 20
3.6834248105
 30
0.0
 10
6.1969913418
 20
3.6836140089
 30
0.0
 10
6.1972174294
 20
3.6837101508
 30
0.0
 10
6.1973072081
 20
3.6837620101
 30
0.0
  0
SPLINE
  5
353
100
AcDbEntity
  8
0
100
AcDbSpline
 62
7
  6
CONTINUOUS
 70
0
 71
3
 72
49
 73
45
 74
0
 42
0.0000001
 43
0.0000001
 44
0.0000000001
 40
0.0
 40
0.0
 40
0.0
 40
0.0
 40
0.0716849888
 40
0.1493759565
 40
0.2315421323
 40
0.3166027901
 40
0.4028996392
 40
0.4887586989
 40
0.572511619
 40
0.6130870142
 40
0.6525314755
 40
0.690652214
 40
0.7272641529
 40
0.7621901421
 40
0.795258442
 40
0.8263110176
 40
0.8551940853
 40
0.8817695554
 40
0.905907288
 40
0.9274894151
 40
0.9372900214
 40
0.9464134
 40
0.9548477618
 40
0.962583908
 40
0.9696131144
 40
0.9759266734
 40
0.9815159463
 40
0.9863740485
 40
0.9904964333
 40
0.9922804011
 40
0.9938788634
 40
0.9952913357
 40
0.996517375
 40
0.9975566137
 40
0.9984090228
 40
0.9987653349
 40
0.999075197
 40
0.9993388001
 40
0.9995564598
 40
0.9997287481
 40
0.9998568512
 40
0.9999052169
 40
0.9999440642
 40
1.0
 40
1.0
 40
1.0
 40
1.0
 10
3.6334778929
 20
3.6390047024
 30
0.0
 10
3.6947533333
 20
3.6397337245
 30
0.0
 10
3.8224390577
 20
3.6411683179
 30
0.0
 10
4.0203617379
 20
3.6432249746
 30
0.0
 10
4.2297191389
 20
3.6452840416
 30
0.0
 10
4.4464335849
 20
3.6473445961
 30
0.0
 10
4.6663050199
 20
3.6494056962
 30
0.0
 10
4.8850584899
 20
3.6514666453
 30
0.0
 10
5.0647284036
 20
3.6532009469
 30
0.0
 10
5.2047222686
 20
3.6545994071
 30
0.0
 10
5.3057092043
 20
3.6556369965
 30
0.0
 10
5.4033078046
 20
3.6566743824
 30
0.0
 10
5.4970435743
 20
3.6577115217
 30
0.0
 10
5.5864600057
 20
3.6587482445
 30
0.0
 10
5.6711236944
 20
3.6597846464
 30
0.0
 10
5.7506212031
 20
3.6608203336
 30
0.0
 10
5.8245678345
 20
3.6618554168
 30
0.0
 10
5.8926027204
 20
3.6628893882
 30
0.0
 10
5.9543956442
 20
3.6639220755
 30
0.0
 10
6.0018490026
 20
3.6648071672
 30
0.0
 10
6.0364682059
 20
3.6655220657
 30
0.0
 10
6.0598496983
 20
3.6660406062
 30
0.0
 10
6.0814659307
 20
3.6665588937
 30
0.0
 10
6.1012914172
 20
3.6670767951
 30
0.0
 10
6.1193032813
 20
3.6675941583
 30
0.0
 10
6.1354790829
 20
3.6681108023
 30
0.0
 10
6.1497979099
 20
3.6686264268
 30
0.0
 10
6.1622422751
 20
3.6691408805
 30
0.0
 10
6.1714335969
 20
3.6695863765
 30
0.0
 10
6.1778388463
 20
3.6699490983
 30
0.0
 10
6.1819296433
 20
3.6702075048
 30
0.0
 10
6.185542465
 20
3.6704654197
 30
0.0
 10
6.1886759388
 20
3.6707225607
 30
0.0
 10
6.1913288324
 20
3.6709788011
 30
0.0
 10
6.1932377522
 20
3.6712020032
 30
0.0
 10
6.1945229924
 20
3.6713851597
 30
0.0
 10
6.1953074092
 20
3.6715138531
 30
0.0
 10
6.1959715169
 20
3.6716421476
 30
0.0
 10
6.1965157746
 20
3.6717694658
 30
0.0
 10
6.1969403331
 20
3.6718963328
 30
0.0
 10
6.19721791
 20
3.6720075549
 30
0.0
 10
6.197376577
 20
3.6721029911
 30
0.0
 10
6.1974709202
 20
3.6721791133
 30
0.0
 10
6.1975173844
 20
3.6722568852
 30
0.0
 10
6.1975174472
 20
3.6723047018
 30
0.0
  0
SPLINE
  5
354
100
AcDbEntity
  8
0
100
AcDbSpline
 62
7
  6
CONTINUOUS
 70
0
 71
3
 72
16
 73
12
 74
0
 42
0.0000001
 43
0.0000001
 44
0.0000000001
 40
0.0
 40
0.0
 40
0.0
 40
0.0
 40
0.0260274911
 40
0.0478207812
 40
0.0765235845
 40
0.1124219521
 40
0.1556573054
 40
0.2644104676
 40
0.4031245552
 40
0.5719302762
 40
1.0
 40
1.0
 40
1.0
 40
1.0
 10
2.962545388
 20
3.8578417766
 30
0.0
 10
2.962545388
 20
3.8579220801
 30
0.0
 10
2.9626763531
 20
3.8580429993
 30
0.0
 10
2.9628789848
 20
3.8581457923
 30
0.0
 10
2.9631308746
 20
3.8582434075
 30
0.0
 10
2.9634487146
 20
3.8583384214
 30
0.0
 10
2.964012031
 20
3.8584781254
 30
0.0
 10
2.9648934121
 20
3.8586453669
 30
0.0
 10
2.9661636645
 20
3.8588368116
 30
0.0
 10
2.9684161378
 20
3.8591157562
 30
0.0
 10
2.9702498211
 20
3.8592898344
 30
0.0
 10
2.9715656168
 20
3.8594039905
 30
0.0
  0
SPLINE
  5
355
100
AcDbEntity
  8
0
100
AcDbSpline
 62
7
  6
CONTINUOUS
 70
0
 71
3
 72
56
 73
52
 74
0
 42
0.0000001
 43
0.0000001
 44
0.0000000001
 40
0.0
 40
0.0
 40
0.0
 40
0.0
 40
0.0013794514
 40
0.0030352662
 40
0.0071736817
 40
0.012405698
 40
0.0187193442
 40
0.0261022841
 40
0.0345381847
 40
0.0544879382
 40
0.0783937212
 40
0.1060405033
 40
0.1371834157
 40
0.171546217
 40
0.2088216917
 40
0.2486793804
 40
0.2907623353
 40
0.334696322
 40
0.4265395192
 40
0.5209454814
 40
0.568061686
 40
0.614559178
 40
0.6600244696
 40
0.7040522274
 40
0.7462509353
 40
0.7862448514
 40
0.8236763324
 40
0.8582137494
 40
0.8895482876
 40
0.903927005
 40
0.9174020888
 40
0.9299448063
 40
0.9415275332
 40
0.9521230342
 40
0.9617083526
 40
0.9702632253
 40
0.9777675018
 40
0.984203978
 40
0.9870178656
 40
0.9895601883
 40
0.9918294661
 40
0.9938242421
 40
0.9955432423
 40
0.996985938
 40
0.9981521262
 40
0.9986315516
 40
0.9990419312
 40
0.9993834087
 40
0.9996562858
 40
0.9998612319
 40
1.0
 40
1.0
 40
1.0
 40
1.0
 10
2.9715656168
 20
3.8594039905
 30
0.0
 10
2.973069913
 20
3.8595345005
 30
0.0
 10
2.9763828055
 20
3.8597878762
 30
0.0
 10
2.9842191954
 20
3.8602893225
 30
0.0
 10
2.9962739167
 20
3.8608924734
 30
0.0
 10
3.0134279261
 20
3.8615824671
 30
0.0
 10
3.034135694
 20
3.8622759346
 30
0.0
 10
3.0583519414
 20
3.8629725754
 30
0.0
 10
3.0974918508
 20
3.8639596238
 30
0.0
 10
3.1547175886
 20
3.8651632827
 30
0.0
 10
3.2329718071
 20
3.8665487523
 30
0.0
 10
3.3234796271
 20
3.8679393219
 30
0.0
 10
3.4254348071
 20
3.869333832
 30
0.0
 10
3.5379304047
 20
3.8707307119
 30
0.0
 10
3.6599658401
 20
3.8721294545
 30
0.0
 10
3.7904522548
 20
3.8735293281
 30
0.0
 10
3.9282274575
 20
3.8749301904
 30
0.0
 10
4.1229038585
 20
3.8768268291
 30
0.0
 10
4.3748514055
 20
3.8791640356
 30
0.0
 10
4.6302826115
 20
3.8814718453
 30
0.0
 10
4.8360803493
 20
3.8833427993
 30
0.0
 10
4.9883096958
 20
3.8847450184
 30
0.0
 10
5.137158287
 20
3.8861469097
 30
0.0
 10
5.2813012211
 20
3.8875483824
 30
0.0
 10
5.4194549029
 20
3.8889492308
 30
0.0
 10
5.550387924
 20
3.8903491721
 30
0.0
 10
5.6729344064
 20
3.8917479411
 30
0.0
 10
5.7860016938
 20
3.8931450081
 30
0.0
 10
5.8738359691
 20
3.8943389294
 30
0.0
 10
5.938616336
 20
3.8953030384
 30
0.0
 10
5.9828287849
 20
3.8960050285
 30
0.0
 10
6.0239803387
 20
3.8967066084
 30
0.0
 10
6.0619794198
 20
3.897407661
 30
0.0
 10
6.0967407477
 20
3.8981081768
 30
0.0
 10
6.1281870677
 20
3.8988079129
 30
0.0
 10
6.1562488467
 20
3.8995062958
 30
0.0
 10
6.1808627402
 20
3.900203105
 30
0.0
 10
6.1991925776
 20
3.900805441
 30
0.0
 10
6.2120915904
 20
3.9012949425
 30
0.0
 10
6.2204311276
 20
3.9016450517
 30
0.0
 10
6.2278732199
 20
3.9019946122
 30
0.0
 10
6.234413019
 20
3.9023434907
 30
0.0
 10
6.240046675
 20
3.9026912347
 30
0.0
 10
6.2447713869
 20
3.9030375892
 30
0.0
 10
6.2481386554
 20
3.9033397731
 30
0.0
 10
6.2503753809
 20
3.9035888119
 30
0.0
 10
6.2517120773
 20
3.9037625294
 30
0.0
 10
6.2528203062
 20
3.9039353847
 30
0.0
 10
6.2537015678
 20
3.9041061932
 30
0.0
 10
6.2543543365
 20
3.9042751209
 30
0.0
 10
6.254710265
 20
3.9044067767
 30
0.0
 10
6.2548419034
 20
3.904482563
 30
0.0
  0
SPLINE
  5
356
100
AcDbEntity
  8
0
100
AcDbSpline
 62
7
  6
CONTINUOUS
 70
0
 71
3
 72
42
 73
38
 74
0
 42
0.0000001
 43
0.0000001
 44
0.0000000001
 40
0.0
 40
0.0
 40
0.0
 40
0.0
 40
0.0001215605
 40
0.0002829153
 40
0.0007290783
 40
0.0013427739
 40
0.0021252868
 40
0.0030771389
 40
0.004198548
 40
0.0054895877
 40
0.0069502447
 40
0.0103791252
 40
0.0144814118
 40
0.0192528486
 40
0.0246890717
 40
0.0307856502
 40
0.0375371314
 40
0.0449360312
 40
0.0529746051
 40
0.0709397353
 40
0.0913649178
 40
0.1141664445
 40
0.1392568705
 40
0.1665367869
 40
0.1958974564
 40
0.2272257308
 40
0.2603955421
 40
0.2952777974
 40
0.3317348108
 40
0.4087912709
 40
0.4903516464
 40
0.5751315457
 40
0.6617955302
 40
0.7489801479
 40
0.8353041375
 40
0.9194300407
 40
1.0
 40
1.0
 40
1.0
 40
1.0
 10
3.020282018
 20
3.2506723961
 30
0.0
 10
3.0203623047
 20
3.2507186686
 30
0.0
 10
3.0205608114
 20
3.2508055164
 30
0.0
 10
3.0210898634
 20
3.2509764757
 30
0.0
 10
3.0220010112
 20
3.2511756614
 30
0.0
 10
3.0233868513
 20
3.2514029206
 30
0.0
 10
3.0251625316
 20
3.2516317086
 30
0.0
 10
3.0273272865
 20
3.2518625218
 30
0.0
 10
3.0298815468
 20
3.2520941128
 30
0.0
 10
3.0328249379
 20
3.2523264087
 30
0.0
 10
3.037525065
 20
3.2526544263
 30
0.0
 10
3.0443680266
 20
3.2530558522
 30
0.0
 10
3.0537350783
 20
3.2535181975
 30
0.0
 10
3.0646338782
 20
3.2539819378
 30
0.0
 10
3.0770540789
 20
3.2544468299
 30
0.0
 10
3.0909845948
 20
3.2549124065
 30
0.0
 10
3.1064120067
 20
3.2553784588
 30
0.0
 10
3.1233204171
 20
3.2558449572
 30
0.0
 10
3.148775309
 20
3.2564916006
 30
0.0
 10
3.1841594951
 20
3.257290403
 30
0.0
 10
3.2307973437
 20
3.2582190792
 30
0.0
 10
3.282867794
 20
3.259149415
 30
0.0
 10
3.3401643958
 20
3.2600808267
 30
0.0
 10
3.4024616779
 20
3.2610130668
 30
0.0
 10
3.4695146053
 20
3.261946026
 30
0.0
 10
3.5410578493
 20
3.2628793544
 30
0.0
 10
3.6168105754
 20
3.2638131588
 30
0.0
 10
3.6964732606
 20
3.2647472345
 30
0.0
 10
3.8095894649
 20
3.2660165051
 30
0.0
 10
3.9582876009
 20
3.2675901097
 30
0.0
 10
4.1438217047
 20
3.269447311
 30
0.0
 10
4.3366800449
 20
3.2713056575
 30
0.0
 10
4.5338259786
 20
3.2731646785
 30
0.0
 10
4.7321490353
 20
3.2750238589
 30
0.0
 10
4.9285372089
 20
3.2768827847
 30
0.0
 10
5.1198827493
 20
3.2787409527
 30
0.0
 10
5.2454253676
 20
3.2800126069
 30
0.0
 10
5.3068411738
 20
3.2806547024
 30
0.0
  0
SPLINE
  5
357
100
AcDbEntity
  8
0
100
AcDbSpline
 62
7
  6
CONTINUOUS
 70
0
 71
3
 72
16
 73
12
 74
0
 42
0.0000001
 43
0.0000001
 44
0.0000000001
 40
0.0
 40
0.0
 40
0.0
 40
0.0
 40
0.026032949
 40
0.0478276325
 40
0.0765312917
 40
0.1124301312
 40
0.1556656587
 40
0.2644184602
 40
0.4031314318
 40
0.5719354036
 40
1.0
 40
1.0
 40
1.0
 40
1.0
 10
2.962545388
 20
3.9515917766
 30
0.0
 10
2.962545388
 20
3.951672043
 30
0.0
 10
2.9626762454
 20
3.9517929216
 30
0.0
 10
2.9628787534
 20
3.9518956871
 30
0.0
 10
2.9631304684
 20
3.9519932684
 30
0.0
 10
2.9634480911
 20
3.9520882504
 30
0.0
 10
2.9640110183
 20
3.9522279059
 30
0.0
 10
2.9648917932
 20
3.9523950902
 30
0.0
 10
2.9661611725
 20
3.9525864691
 30
0.0
 10
2.9684120963
 20
3.9528653176
 30
0.0
 10
2.9702445209
 20
3.953039336
 30
0.0
 10
2.9715594133
 20
3.9531534529
 30
0.0
  0
SPLINE
  5
358
100
AcDbEntity
  8
0
100
AcDbSpline
 62
7
  6
CONTINUOUS
 70
0
 71
3
 72
56
 73
52
 74
0
 42
0.0000001
 43
0.0000001
 44
0.0000000001
 40
0.0
 40
0.0
 40
0.0
 40
0.0
 40
0.0013790436
 40
0.003034457
 40
0.0071720889
 40
0.0124033504
 40
0.0187162765
 40
0.0260985349
 40
0.0345337854
 40
0.0544823257
 40
0.0783870185
 40
0.106033027
 40
0.1371755625
 40
0.1715383978
 40
0.2088140988
 40
0.2486720633
 40
0.2907552486
 40
0.3346894785
 40
0.4265328902
 40
0.5209403409
 40
0.5680574919
 40
0.6145557547
 40
0.6600216436
 40
0.7040498217
 40
0.7462487803
 40
0.7862427521
 40
0.823674666
 40
0.8582127219
 40
0.8895477218
 40
0.9039266651
 40
0.917401931
 40
0.9299447083
 40
0.9415274951
 40
0.9521230984
 40
0.9617084028
 40
0.9702632317
 40
0.9777675309
 40
0.9842039926
 40
0.9870178545
 40
0.9895601495
 40
0.9918294056
 40
0.9938241736
 40
0.99554318
 40
0.9969858876
 40
0.9981520909
 40
0.998631524
 40
0.9990419111
 40
0.9993833955
 40
0.9996562784
 40
0.9998612291
 40
1.0
 40
1.0
 40
1.0
 40
1.0
 10
2.9715594133
 20
3.9531534529
 30
0.0
 10
2.9730632638
 20
3.953283969
 30
0.0
 10
2.9763752739
 20
3.9535373516
 30
0.0
 10
2.984209931
 20
3.9540388099
 30
0.0
 10
2.9962625493
 20
3.9546419659
 30
0.0
 10
3.013414117
 20
3.9553319635
 30
0.0
 10
3.0341195624
 20
3.9560254358
 30
0.0
 10
3.0583336087
 20
3.9567220827
 30
0.0
 10
3.0974708055
 20
3.9577091467
 30
0.0
 10
3.154693418
 20
3.958912819
 30
0.0
 10
3.2329444161
 20
3.9602983043
 30
0.0
 10
3.3234499544
 20
3.9616888929
 30
0.0
 10
3.4254041049
 20
3.9630834342
 30
0.0
 10
3.5378997876
 20
3.9644803471
 30
0.0
 10
3.6599360409
 20
3.9658791264
 30
0.0
 10
3.7904235045
 20
3.9672790276
 30
0.0
 10
3.9281997886
 20
3.968679917
 30
0.0
 10
4.1228773117
 20
3.970576577
 30
0.0
 10
4.3748274664
 20
3.9729138185
 30
0.0
 10
4.6302620564
 20
3.9752216594
 30
0.0
 10
4.836063693
 20
3.9770926471
 30
0.0
 10
4.9882958613
 20
3.9784948899
 30
0.0
 10
5.1371466923
 20
3.9798967974
 30
0.0
 10
5.2812912877
 20
3.981298286
 30
0.0
 10
5.4194460268
 20
3.9826991358
 30
0.0
 10
5.5503801052
 20
3.9840990866
 30
0.0
 10
5.672928054
 20
3.9854978665
 30
0.0
 10
5.7859972344
 20
3.9868949471
 30
0.0
 10
5.873833128
 20
3.9880888913
 30
0.0
 10
5.9386145696
 20
3.9890530117
 30
0.0
 10
5.9828276143
 20
3.9897550063
 30
0.0
 10
6.0239795765
 20
3.9904565957
 30
0.0
 10
6.0619789725
 20
3.9911576549
 30
0.0
 10
6.0967405286
 20
3.9918581667
 30
0.0
 10
6.1281869569
 20
3.9925579085
 30
0.0
 10
6.1562487505
 20
3.9932562987
 30
0.0
 10
6.180862652
 20
3.9939531023
 30
0.0
 10
6.1991925052
 20
3.9945554339
 30
0.0
 10
6.2120914682
 20
3.9950449329
 30
0.0
 10
6.2204309389
 20
3.9953950394
 30
0.0
 10
6.2278729827
 20
3.9957445981
 30
0.0
 10
6.2344127684
 20
3.9960934753
 30
0.0
 10
6.2400464462
 20
3.9964412184
 30
0.0
 10
6.2447712033
 20
3.9967875743
 30
0.0
 10
6.2481385163
 20
3.9970897603
 30
0.0
 10
6.2503752792
 20
3.9973388013
 30
0.0
 10
6.2517120023
 20
3.9975125207
 30
0.0
 10
6.2528202555
 20
3.997685378
 30
0.0
 10
6.2537015377
 20
3.9978561885
 30
0.0
 10
6.2543543222
 20
3.9980251182
 30
0.0
 10
6.2547102595
 20
3.9981567756
 30
0.0
 10
6.2548419012
 20
3.998232563
 30
0.0
  0
SPLINE
  5
359
100
AcDbEntity
  8
0
100
AcDbSpline
 62
7
  6
CONTINUOUS
 70
0
 71
3
 72
38
 73
34
 74
0
 42
0.0000001
 43
0.0000001
 44
0.0000000001
 40
0.0
 40
0.0
 40
0.0
 40
0.0
 40
0.0003080541
 40
0.000745965
 40
0.0013175601
 40
0.0020243957
 40
0.0028671606
 40
0.0038461863
 40
0.0062134699
 40
0.0091264914
 40
0.0125847016
 40
0.0165872345
 40
0.0211330601
 40
0.0262210547
 40
0.0318497538
 40
0.0447182846
 40
0.059715055
 40
0.0768159275
 40
0.0959962417
 40
0.1172243631
 40
0.1404628346
 40
0.1656739913
 40
0.1928196037
 40
0.2218544535
 40
0.285391519
 40
0.3558750181
 40
0.4328392044
 40
0.5157867264
 40
0.604162642
 40
0.6973896017
 40
0.7948774817
 40
0.8960014971
 40
1.0
 40
1.0
 40
1.0
 40
1.0
 10
6.2548418832
 20
3.2482325641
 30
0.0
 10
6.2547331304
 20
3.2481696482
 30
0.0
 10
6.2544482929
 20
3.2480567028
 30
0.0
 10
6.2539312363
 20
3.2479110789
 30
0.0
 10
6.2532462811
 20
3.2477639517
 30
0.0
 10
6.2523939423
 20
3.2476155072
 30
0.0
 10
6.2513733426
 20
3.2474663812
 30
0.0
 10
6.2496781038
 20
3.2472532009
 30
0.0
 10
6.2471380934
 20
3.2469941437
 30
0.0
 10
6.2435863805
 20
3.2466970514
 30
0.0
 10
6.239365841
 20
3.2463987932
 30
0.0
 10
6.2344780346
 20
3.2460995342
 30
0.0
 10
6.2289244613
 20
3.2457996995
 30
0.0
 10
6.2227068239
 20
3.245499406
 30
0.0
 10
6.2130966628
 20
3.2450796782
 30
0.0
 10
6.19944571
 20
3.244563118
 30
0.0
 10
6.1811158311
 20
3.2439653371
 30
0.0
 10
6.1602105201
 20
3.2433662339
 30
0.0
 10
6.1367628471
 20
3.2427661709
 30
0.0
 10
6.1108112199
 20
3.2421654392
 30
0.0
 10
6.0823993142
 20
3.2415641206
 30
0.0
 10
6.051573458
 20
3.240962377
 30
0.0
 10
6.0183831229
 20
3.2403603557
 30
0.0
 10
5.9695630285
 20
3.23953226
 30
0.0
 10
5.9030683207
 20
3.2385065915
 30
0.0
 10
5.8170259633
 20
3.2373079297
 30
0.0
 10
5.7230663212
 20
3.2361077183
 30
0.0
 10
5.6218086752
 20
3.2349065616
 30
0.0
 10
5.5139177894
 20
3.2337045213
 30
0.0
 10
5.4000962399
 20
3.2325019437
 30
0.0
 10
5.2810750751
 20
3.2312987071
 30
0.0
 10
5.1576604945
 20
3.2300953145
 30
0.0
 10
5.074004493
 20
3.2293024647
 30
0.0
 10
5.0315902956
 20
3.2289047024
 30
0.0
  0
SPLINE
  5
35A
100
AcDbEntity
  8
0
100
AcDbSpline
 62
7
  6
CONTINUOUS
 70
0
 71
3
 72
16
 73
12
 74
0
 42
0.0000001
 43
0.0000001
 44
0.0000000001
 40
0.0
 40
0.0
 40
0.0
 40
0.0
 40
0.0261331717
 40
0.0479537405
 40
0.0766735239
 40
0.1125814947
 40
0.1558207067
 40
0.2645677794
 40
0.4032608118
 40
0.5720326023
 40
1.0
 40
1.0
 40
1.0
 40
1.0
 10
6.255045388
 20
4.0140926281
 30
0.0
 10
6.255045388
 20
4.0140130354
 30
0.0
 10
6.2549164781
 20
4.0138928973
 30
0.0
 10
6.2547162135
 20
4.0137906322
 30
0.0
 10
6.2544676651
 20
4.0136936672
 30
0.0
 10
6.2541539777
 20
4.013599267
 30
0.0
 10
6.2535981042
 20
4.0134604923
 30
0.0
 10
6.2527283175
 20
4.0132943495
 30
0.0
 10
6.2514747698
 20
4.0131041679
 30
0.0
 10
6.2492519571
 20
4.0128270682
 30
0.0
 10
6.2474423705
 20
4.012654138
 30
0.0
 10
6.2461438698
 20
4.0125407359
 30
0.0
  0
SPLINE
  5
35B
100
AcDbEntity
  8
0
100
AcDbSpline
 62
7
  6
CONTINUOUS
 70
0
 71
3
 72
56
 73
52
 74
0
 42
0.0000001
 43
0.0000001
 44
0.0000000001
 40
0.0
 40
0.0
 40
0.0
 40
0.0
 40
0.0013716031
 40
0.0030196752
 40
0.0071428965
 40
0.0123601781
 40
0.0186597164
 40
0.0260292396
 40
0.034452151
 40
0.0543782554
 40
0.0782632736
 40
0.1058929747
 40
0.1370218353
 40
0.1713737324
 40
0.2086406432
 40
0.248491887
 40
0.2905715604
 40
0.3345052756
 40
0.426357353
 40
0.5207823984
 40
0.5679097295
 40
0.6144188237
 40
0.6598965207
 40
0.7039379699
 40
0.7461510097
 40
0.7861598319
 40
0.8236060928
 40
0.8581575929
 40
0.8895045758
 40
0.9038888879
 40
0.9173691453
 40
0.9299166455
 40
0.9415037889
 40
0.9521033967
 40
0.9616925702
 40
0.9702509463
 40
0.9777582796
 40
0.9841974423
 40
0.9870125265
 40
0.9895559332
 40
0.9918261716
 40
0.9938217735
 40
0.9955414738
 40
0.9969847593
 40
0.9981514231
 40
0.9986310421
 40
0.9990415854
 40
0.9993831961
 40
0.9996561754
 40
0.9998611923
 40
1.0
 40
1.0
 40
1.0
 40
1.0
 10
6.2461438698
 20
4.0125407359
 30
0.0
 10
6.2446481523
 20
4.0124101103
 30
0.0
 10
6.2413522623
 20
4.0121566032
 30
0.0
 10
6.2335493677
 20
4.0116549379
 30
0.0
 10
6.2215354942
 20
4.0110517032
 30
0.0
 10
6.2044291071
 20
4.0103616559
 30
0.0
 10
6.1837668725
 20
4.0096681207
 30
0.0
 10
6.1595941146
 20
4.0089713935
 30
0.0
 10
6.1205076013
 20
4.0079840328
 30
0.0
 10
6.0633426396
 20
4.006780143
 30
0.0
 10
5.9851529109
 20
4.0053944005
 30
0.0
 10
5.8946986259
 20
4.0040035772
 30
0.0
 10
5.7927857702
 20
4.0026087424
 30
0.0
 10
5.680322789
 20
4.0012115741
 30
0.0
 10
5.5583112958
 20
3.9998125431
 30
0.0
 10
5.4278401718
 20
3.9984123812
 30
0.0
 10
5.2900709172
 20
3.9970112475
 30
0.0
 10
5.0953816255
 20
3.9951141239
 30
0.0
 10
4.8433946282
 20
3.9927763306
 30
0.0
 10
4.5879113676
 20
3.9904680091
 30
0.0
 10
4.3820603954
 20
3.9885966318
 30
0.0
 10
4.2297870674
 20
3.9871940958
 30
0.0
 10
4.0808918095
 20
3.9857918835
 30
0.0
 10
3.9366993916
 20
3.9843900929
 30
0.0
 10
3.7984937058
 20
3.9829888945
 30
0.0
 10
3.667507751
 20
3.981588606
 30
0.0
 10
3.5449089116
 20
3.980189461
 30
0.0
 10
3.4317923051
 20
3.9787920358
 30
0.0
 10
3.3439196808
 20
3.9775978116
 30
0.0
 10
3.2791115538
 20
3.9766334754
 30
0.0
 10
3.234880478
 20
3.9759313287
 30
0.0
 10
3.193711698
 20
3.9752295969
 30
0.0
 10
3.1556966728
 20
3.9745283924
 30
0.0
 10
3.1209205337
 20
3.9738277202
 30
0.0
 10
3.0894605222
 20
3.9731278312
 30
0.0
 10
3.0613863237
 20
3.9724292953
 30
0.0
 10
3.0367614152
 20
3.9717323223
 30
0.0
 10
3.0184233158
 20
3.9711298475
 30
0.0
 10
3.0055183976
 20
3.9706402318
 30
0.0
 10
2.9971750098
 20
3.9702900391
 30
0.0
 10
2.989729505
 20
3.9699403947
 30
0.0
 10
2.9831867468
 20
3.9695914299
 30
0.0
 10
2.9775505706
 20
3.9692435979
 30
0.0
 10
2.972823755
 20
3.9688971592
 30
0.0
 10
2.9694549861
 20
3.9685949024
 30
0.0
 10
2.9672172678
 20
3.9683458036
 30
0.0
 10
2.9658799859
 20
3.9681720449
 30
0.0
 10
2.9647712802
 20
3.967999149
 30
0.0
 10
2.963889651
 20
3.9678283016
 30
0.0
 10
2.9632366274
 20
3.9676593356
 30
0.0
 10
2.9628805645
 20
3.9675276498
 30
0.0
 10
2.9627488823
 20
3.9674518417
 30
0.0
  0
SPLINE
  5
35C
100
AcDbEntity
  8
0
100
AcDbSpline
 62
7
  6
CONTINUOUS
 70
0
 71
3
 72
16
 73
12
 74
0
 42
0.0000001
 43
0.0000001
 44
0.0000000001
 40
0.0
 40
0.0
 40
0.0
 40
0.0
 40
0.0260533304
 40
0.0478532504
 40
0.0765601528
 40
0.112460809
 40
0.1556970442
 40
0.2644486058
 40
0.4031574773
 40
0.5719549114
 40
1.0
 40
1.0
 40
1.0
 40
1.0
 10
2.962545388
 20
4.0453417766
 30
0.0
 10
2.962545388
 20
4.0454219049
 30
0.0
 10
2.9626758453
 20
4.0455426323
 30
0.0
 10
2.9628778934
 20
4.0456452955
 30
0.0
 10
2.9631289585
 20
4.0457427508
 30
0.0
 10
2.9634457738
 20
4.0458376137
 30
0.0
 10
2.9640072538
 20
4.0459770892
 30
0.0
 10
2.9648857746
 20
4.0461440604
 30
0.0
 10
2.9661519065
 20
4.0463351944
 30
0.0
 10
2.9683970654
 20
4.0466136852
 30
0.0
 10
2.9702248068
 20
4.046787481
 30
0.0
 10
2.9715363381
 20
4.0469014516
 30
0.0
  0
SPLINE
  5
35D
100
AcDbEntity
  8
0
100
AcDbSpline
 62
7
  6
CONTINUOUS
 70
0
 71
3
 72
56
 73
52
 74
0
 42
0.0000001
 43
0.0000001
 44
0.0000000001
 40
0.0
 40
0.0
 40
0.0
 40
0.0
 40
0.0013775227
 40
0.0030314366
 40
0.0071661292
 40
0.0123945388
 40
0.0187047247
 40
0.0260843613
 40
0.0345170453
 40
0.0544607699
 40
0.0783609906
 40
0.106003576
 40
0.1371435509
 40
0.1715045428
 40
0.2087788705
 40
0.2486360048
 40
0.290718885
 40
0.3346532215
 40
0.42649839
 40
0.5209107919
 40
0.5680304754
 40
0.6145312514
 40
0.6599996032
 40
0.7040300956
 40
0.7462313317
 40
0.7862276838
 40
0.8236623623
 40
0.8582032359
 40
0.8895405016
 40
0.9039204514
 40
0.9173966558
 40
0.9299402323
 40
0.9415237537
 40
0.9521200573
 40
0.9617059226
 40
0.9702612267
 40
0.9777659837
 40
0.9842028653
 40
0.9870169141
 40
0.9895593798
 40
0.9918287898
 40
0.9938236946
 40
0.9955428232
 40
0.9969856408
 40
0.998151938
 40
0.9986314111
 40
0.9990418329
 40
0.9993833464
 40
0.9996562523
 40
0.9998612194
 40
1.0
 40
1.0
 40
1.0
 40
1.0
 10
2.9715363381
 20
4.0469014516
 30
0.0
 10
2.9730385262
 20
4.0470319901
 30
0.0
 10
2.9763472426
 20
4.0472853983
 30
0.0
 10
2.9841754158
 20
4.0477868991
 30
0.0
 10
2.9962201292
 20
4.0483900716
 30
0.0
 10
3.0133624715
 20
4.0490800796
 30
0.0
 10
3.0340590669
 20
4.0497735647
 30
0.0
 10
3.0582646016
 20
4.0504702262
 30
0.0
 10
3.0973911193
 20
4.0514573436
 30
0.0
 10
3.1546011563
 20
4.0526610451
 30
0.0
 10
3.2328387898
 20
4.0540465785
 30
0.0
 10
3.3233335196
 20
4.0554372052
 30
0.0
 10
3.4252798197
 20
4.0568318241
 30
0.0
 10
3.5377699707
 20
4.0582288027
 30
0.0
 10
3.6598026537
 20
4.0596276517
 30
0.0
 10
3.7902882906
 20
4.0610276193
 30
0.0
 10
3.9280644195
 20
4.0624285723
 30
0.0
 10
4.1227450202
 20
4.0643253296
 30
0.0
 10
4.3747044099
 20
4.0666626995
 30
0.0
 10
4.6301509152
 20
4.0689706553
 30
0.0
 10
4.8359649453
 20
4.0708417445
 30
0.0
 10
4.9882064058
 20
4.0722440577
 30
0.0
 10
5.1370662663
 20
4.0736460279
 30
0.0
 10
5.2812196001
 20
4.0750475755
 30
0.0
 10
5.419382945
 20
4.0764484782
 30
0.0
 10
5.5503260712
 20
4.0778484889
 30
0.0
 10
5.6728835999
 20
4.0792473404
 30
0.0
 10
5.7859621681
 20
4.0806444894
 30
0.0
 10
5.873805347
 20
4.0818384981
 30
0.0
 10
5.9385918544
 20
4.0828026629
 30
0.0
 10
5.9828082147
 20
4.0835046851
 30
0.0
 10
6.0239631732
 20
4.0842063053
 30
0.0
 10
6.0619652828
 20
4.0849073929
 30
0.0
 10
6.0967292687
 20
4.0856079239
 30
0.0
 10
6.1281778194
 20
4.0863076901
 30
0.0
 10
6.1562414462
 20
4.0870061052
 30
0.0
 10
6.1808570022
 20
4.0877029299
 30
0.0
 10
6.1991881501
 20
4.0883052788
 30
0.0
 10
6.2120880551
 20
4.0887947936
 30
0.0
 10
6.2204281447
 20
4.0891449123
 30
0.0
 10
6.2278707461
 20
4.0894944839
 30
0.0
 10
6.23441103
 20
4.0898433755
 30
0.0
 10
6.2400451513
 20
4.0901911345
 30
0.0
 10
6.2447702987
 20
4.0905375063
 30
0.0
 10
6.2481379022
 20
4.0908397063
 30
0.0
 10
6.2503748656
 20
4.091088759
 30
0.0
 10
6.2517117118
 20
4.0912624867
 30
0.0
 10
6.2528200679
 20
4.0914353522
 30
0.0
 10
6.2537014315
 20
4.0916061706
 30
0.0
 10
6.2543542742
 20
4.091775108
 30
0.0
 10
6.254710243
 20
4.0919067712
 30
0.0
 10
6.2548418956
 20
4.091982563
 30
0.0
  0
SPLINE
  5
35E
100
AcDbEntity
  8
0
100
AcDbSpline
 62
7
  6
CONTINUOUS
 70
0
 71
3
 72
65
 73
61
 74
0
 42
0.0000001
 43
0.0000001
 44
0.0000000001
 40
0.0
 40
0.0
 40
0.0
 40
0.0
 40
0.0000672774
 40
0.0001208022
 40
0.0001904298
 40
0.0002769944
 40
0.0003809243
 40
0.0006417408
 40
0.0013781339
 40
0.0024029063
 40
0.0037161831
 40
0.0053174574
 40
0.007205991
 40
0.0093809367
 40
0.0118413903
 40
0.014586369
 40
0.0176142509
 40
0.0209229485
 40
0.0283743492
 40
0.0369236497
 40
0.0465528195
 40
0.0572381742
 40
0.0689541233
 40
0.0816749046
 40
0.0953710187
 40
0.1100091575
 40
0.1255558361
 40
0.1419760937
 40
0.1772782416
 40
0.2155883302
 40
0.2565480367
 40
0.2997779943
 40
0.3448744726
 40
0.391418507
 40
0.4389767104
 40
0.4871063596
 40
0.5353596468
 40
0.583287364
 40
0.6304435707
 40
0.6763890084
 40
0.7206968919
 40
0.7629534833
 40
0.8027671707
 40
0.8397659396
 40
0.8736063165
 40
0.9039737571
 40
0.9305841507
 40
0.9424028516
 40
0.9531926396
 40
0.9629273634
 40
0.9715862077
 40
0.9791491593
 40
0.9855969357
 40
0.9909158516
 40
0.9931486102
 40
0.9950951438
 40
0.9967541959
 40
0.9981246786
 40
0.9992063916
 40
1.0
 40
1.0
 40
1.0
 40
1.0
 10
3.0200730734
 20
4.6683797014
 30
0.0
 10
3.0200729083
 20
4.6684509235
 30
0.0
 10
3.0201747169
 20
4.6685624252
 30
0.0
 10
3.020344723
 20
4.6686598925
 30
0.0
 10
3.0205503313
 20
4.6687498127
 30
0.0
 10
3.0208107652
 20
4.6688376569
 30
0.0
 10
3.0212713709
 20
4.6689663997
 30
0.0
 10
3.0224120031
 20
4.6692094897
 30
0.0
 10
3.0245322597
 20
4.669514967
 30
0.0
 10
3.0277682687
 20
4.669863326
 30
0.0
 10
3.0319241534
 20
4.6702145771
 30
0.0
 10
3.0369965564
 20
4.6705691235
 30
0.0
 10
3.0429830066
 20
4.6709249678
 30
0.0
 10
3.0498802958
 20
4.6712818923
 30
0.0
 10
3.0576852868
 20
4.6716394657
 30
0.0
 10
3.0663940448
 20
4.6719974797
 30
0.0
 10
3.0760014539
 20
4.6723558528
 30
0.0
 10
3.0905894325
 20
4.6728540146
 30
0.0
 10
3.1110219038
 20
4.6734688384
 30
0.0
 10
3.1381452818
 20
4.6741825311
 30
0.0
 10
3.1686932628
 20
4.6748972878
 30
0.0
 10
3.2025943662
 20
4.675613103
 30
0.0
 10
3.2397690083
 20
4.6763296811
 30
0.0
 10
3.2801314834
 20
4.6770467306
 30
0.0
 10
3.3235879404
 20
4.6777641459
 30
0.0
 10
3.3700363692
 20
4.678481943
 30
0.0
 10
3.4193689952
 20
4.6792000257
 30
0.0
 10
3.4905757632
 20
4.6801814857
 30
0.0
 10
3.5858797211
 20
4.6813988721
 30
0.0
 10
3.7071613812
 20
4.6828284176
 30
0.0
 10
3.836836239
 20
4.684259305
 30
0.0
 10
3.9736958197
 20
4.6856910505
 30
0.0
 10
4.1164674758
 20
4.6871235167
 30
0.0
 10
4.2638213898
 20
4.6885564172
 30
0.0
 10
4.4143864745
 20
4.6899896237
 30
0.0
 10
4.5667611162
 20
4.6914229943
 30
0.0
 10
4.7195269556
 20
4.6928563929
 30
0.0
 10
4.8712622284
 20
4.6942897093
 30
0.0
 10
5.0205542191
 20
4.6957227886
 30
0.0
 10
5.1660139441
 20
4.6971555336
 30
0.0
 10
5.3062865034
 20
4.698587671
 30
0.0
 10
5.4400674218
 20
4.7000191167
 30
0.0
 10
5.5661101906
 20
4.7014493896
 30
0.0
 10
5.6832426513
 20
4.702878236
 30
0.0
 10
5.7903741984
 20
4.7043048386
 30
0.0
 10
5.8865071945
 20
4.705728499
 30
0.0
 10
5.959327506
 20
4.706954316
 30
0.0
 10
6.011422941
 20
4.7079495738
 30
0.0
 10
6.0456551928
 20
4.708665466
 30
0.0
 10
6.0765415243
 20
4.7093804941
 30
0.0
 10
6.1040108222
 20
4.7100942297
 30
0.0
 10
6.1279991976
 20
4.7108057338
 30
0.0
 10
6.1484500613
 20
4.7115149054
 30
0.0
 10
6.1632577871
 20
4.7121319575
 30
0.0
 10
6.173300254
 20
4.712638043
 30
0.0
 10
6.1794707612
 20
4.7129941555
 30
0.0
 10
6.1847267099
 20
4.7133489394
 30
0.0
 10
6.1890650955
 20
4.7137010094
 30
0.0
 10
6.1924834409
 20
4.7140502665
 30
0.0
 10
6.1944520329
 20
4.714316134
 30
0.0
 10
6.1952793085
 20
4.7144626105
 30
0.0
  0
LINE
  5
35F
100
AcDbEntity
  8
0
100
AcDbLine
 62
7
  6
CONTINUOUS
 10
6.1952793085
 20
4.7144626105
 11
6.1973073734
 21
4.7150120095
  0
SPLINE
  5
360
100
AcDbEntity
  8
0
100
AcDbSpline
 62
7
  6
CONTINUOUS
 70
0
 71
3
 72
16
 73
12
 74
0
 42
0.0000001
 43
0.0000001
 44
0.0000000001
 40
0.0
 40
0.0
 40
0.0
 40
0.0
 40
0.0260847622
 40
0.047892719
 40
0.0766045635
 40
0.1125079486
 40
0.1557451964
 40
0.264494695
 40
0.4031971444
 40
0.571984498
 40
1.0
 40
1.0
 40
1.0
 40
1.0
 10
2.962545388
 20
4.1390917766
 30
0.0
 10
2.962545388
 20
4.1391716928
 30
0.0
 10
2.9626752308
 20
4.1392921876
 30
0.0
 10
2.962876572
 20
4.1393946936
 30
0.0
 10
2.9631266388
 20
4.1394919551
 30
0.0
 10
2.9634422139
 20
4.1395866352
 30
0.0
 10
2.9640014712
 20
4.1397258337
 30
0.0
 10
2.9648765307
 20
4.1398924775
 30
0.0
 10
2.9661376768
 20
4.140083235
 30
0.0
 10
2.9683739874
 20
4.1403611762
 30
0.0
 10
2.9701945413
 20
4.1405346298
 30
0.0
 10
2.9715009145
 20
4.1406483756
 30
0.0
  0
SPLINE
  5
361
100
AcDbEntity
  8
0
100
AcDbSpline
 62
7
  6
CONTINUOUS
 70
0
 71
3
 72
56
 73
52
 74
0
 42
0.0000001
 43
0.0000001
 44
0.0000000001
 40
0.0
 40
0.0
 40
0.0
 40
0.0
 40
0.0013751863
 40
0.0030267996
 40
0.007156992
 40
0.0123810388
 40
0.0186870212
 40
0.0260626106
 40
0.0344913412
 40
0.0544278568
 40
0.0783217414
 40
0.105959094
 40
0.1370946588
 40
0.1714522571
 40
0.2087240651
 40
0.2485795383
 40
0.2906615778
 40
0.3345958839
 40
0.4264446885
 40
0.5208632482
 40
0.5679864439
 40
0.6144909253
 40
0.6599630058
 40
0.7039971794
 40
0.7462024694
 40
0.786203337
 40
0.8236423307
 40
0.8581871536
 40
0.8895279515
 40
0.9039095229
 40
0.9173872453
 40
0.9299322033
 40
0.9415169903
 40
0.9521144566
 40
0.961701364
 40
0.9702575991
 40
0.9777631921
 40
0.9842008638
 40
0.9870152817
 40
0.9895580894
 40
0.9918278067
 40
0.9938229763
 40
0.9955423243
 40
0.9969853187
 40
0.9981517524
 40
0.9986312792
 40
0.9990417452
 40
0.9993832937
 40
0.9996562257
 40
0.9998612102
 40
1.0
 40
1.0
 40
1.0
 40
1.0
 10
2.9715009145
 20
4.1406483756
 30
0.0
 10
2.9730005489
 20
4.1407789486
 30
0.0
 10
2.9763042087
 20
4.1410323964
 30
0.0
 10
2.9841224408
 20
4.1415339636
 30
0.0
 10
2.9961550504
 20
4.1421371617
 30
0.0
 10
3.0132832634
 20
4.1428271867
 30
0.0
 10
3.0339662681
 20
4.1435206919
 30
0.0
 10
3.0581586999
 20
4.1442173775
 30
0.0
 10
3.0972689855
 20
4.145204582
 30
0.0
 10
3.1544604831
 20
4.14640834
 30
0.0
 10
3.2326784047
 20
4.1477939512
 30
0.0
 10
3.3231566206
 20
4.1491846468
 30
0.0
 10
3.4250897521
 20
4.1505793598
 30
0.0
 10
3.5375698193
 20
4.151976421
 30
0.0
 10
3.6595955312
 20
4.1533753607
 30
0.0
 10
3.7900770832
 20
4.1547754201
 30
0.0
 10
3.9278519312
 20
4.1561764607
 30
0.0
 10
4.1225376654
 20
4.1580733756
 30
0.0
 10
4.3745104698
 20
4.1604109352
 30
0.0
 10
4.6299743055
 20
4.1627190598
 30
0.0
 10
4.8358052048
 20
4.1645902842
 30
0.0
 10
4.9880602957
 20
4.1659926985
 30
0.0
 10
5.1369339349
 20
4.167394763
 30
0.0
 10
5.2811013779
 20
4.168796401
 30
0.0
 10
5.4192796285
 20
4.1701974041
 30
0.0
 10
5.5502382762
 20
4.1715975182
 30
0.0
 10
5.6728111212
 20
4.1729964794
 30
0.0
 10
5.7859038266
 20
4.1743937315
 30
0.0
 10
5.8737579211
 20
4.1755878259
 30
0.0
 10
5.9385524332
 20
4.1765520566
 30
0.0
 10
5.9827742212
 20
4.1772541249
 30
0.0
 10
6.0239341844
 20
4.1779557914
 30
0.0
 10
6.0619408756
 20
4.178656923
 30
0.0
 10
6.0967090369
 20
4.1793574932
 30
0.0
 10
6.1281613608
 20
4.180057298
 30
0.0
 10
6.1562283665
 20
4.1807557528
 30
0.0
 10
6.1808469881
 20
4.1814526241
 30
0.0
 10
6.1991805185
 20
4.1820550143
 30
0.0
 10
6.2120822066
 20
4.1825445639
 30
0.0
 10
6.2204235013
 20
4.182894709
 30
0.0
 10
6.2278671839
 20
4.1832443069
 30
0.0
 10
6.2344084051
 20
4.1835932246
 30
0.0
 10
6.2400433111
 20
4.1839410095
 30
0.0
 10
6.2447690927
 20
4.1842874061
 30
0.0
 10
6.2481371345
 20
4.1845896275
 30
0.0
 10
6.2503743785
 20
4.1848386978
 30
0.0
 10
6.2517113846
 20
4.1850124373
 30
0.0
 10
6.2528198677
 20
4.1851853146
 30
0.0
 10
6.2537013268
 20
4.1853561442
 30
0.0
 10
6.2543542334
 20
4.1855250928
 30
0.0
 10
6.2547102351
 20
4.1856567649
 30
0.0
 10
6.2548418975
 20
4.185732563
 30
0.0
  0
SPLINE
  5
362
100
AcDbEntity
  8
0
100
AcDbSpline
 62
7
  6
CONTINUOUS
 70
0
 71
3
 72
16
 73
12
 74
0
 42
0.0000001
 43
0.0000001
 44
0.0000000001
 40
0.0
 40
0.0
 40
0.0
 40
0.0
 40
0.0260969635
 40
0.047908066
 40
0.0766218649
 40
0.1125263511
 40
0.1557640361
 40
0.2645128154
 40
0.4032128231
 40
0.5719962591
 40
1.0
 40
1.0
 40
1.0
 40
1.0
 10
2.962545388
 20
4.2328417766
 30
0.0
 10
2.962545388
 20
4.2329216109
 30
0.0
 10
2.9626749941
 20
4.2330420158
 30
0.0
 10
2.9628760627
 20
4.2331444611
 30
0.0
 10
2.9631257448
 20
4.2332416478
 30
0.0
 10
2.9634408416
 20
4.2333362572
 30
0.0
 10
2.963999242
 20
4.2334753487
 30
0.0
 10
2.9648729663
 20
4.2336418661
 30
0.0
 10
2.9661321892
 20
4.2338324782
 30
0.0
 10
2.9683650849
 20
4.234110207
 30
0.0
 10
2.9701828646
 20
4.2342835283
 30
0.0
 10
2.9714872468
 20
4.2343971872
 30
0.0
  0
SPLINE
  5
363
100
AcDbEntity
  8
0
100
AcDbSpline
 62
7
  6
CONTINUOUS
 70
0
 71
3
 72
56
 73
52
 74
0
 42
0.0000001
 43
0.0000001
 44
0.0000000001
 40
0.0
 40
0.0
 40
0.0
 40
0.0
 40
0.0013742815
 40
0.0030250021
 40
0.0071534388
 40
0.0123757682
 40
0.0186800817
 40
0.0260540432
 40
0.034481152
 40
0.0544148366
 40
0.0783064165
 40
0.1059418231
 40
0.1370755832
 40
0.1714316211
 40
0.2087020504
 40
0.2485562244
 40
0.2906371925
 40
0.3345707579
 40
0.4264203958
 40
0.5208409192
 40
0.5679654273
 40
0.6144713724
 40
0.6599450661
 40
0.7039811346
 40
0.7461886008
 40
0.7861919394
 40
0.823633076
 40
0.858179752
 40
0.8895221863
 40
0.9039044664
 40
0.9173828162
 40
0.9299283749
 40
0.9415137045
 40
0.9521116575
 40
0.9616990884
 40
0.9702558254
 40
0.9777618324
 40
0.9841998972
 40
0.9870145039
 40
0.9895574861
 40
0.9918273568
 40
0.993822652
 40
0.9955420988
 40
0.996985173
 40
0.9981516682
 40
0.9986312191
 40
0.9990417051
 40
0.9993832695
 40
0.9996562134
 40
0.9998612059
 40
1.0
 40
1.0
 40
1.0
 40
1.0
 10
2.9714872468
 20
4.2343971872
 30
0.0
 10
2.9729858922
 20
4.2345277735
 30
0.0
 10
2.9762875917
 20
4.2347812362
 30
0.0
 10
2.9841019577
 20
4.2352828277
 30
0.0
 10
2.9961298331
 20
4.2358860333
 30
0.0
 10
3.0132524847
 20
4.2365760619
 30
0.0
 10
3.0339300841
 20
4.2372695708
 30
0.0
 10
3.0581172309
 20
4.237966261
 30
0.0
 10
3.0972210208
 20
4.2389535005
 30
0.0
 10
3.1544053584
 20
4.2401572778
 30
0.0
 10
3.2326158533
 20
4.2415429253
 30
0.0
 10
3.3230878176
 20
4.2429336529
 30
0.0
 10
3.4250155605
 20
4.2443283974
 30
0.0
 10
3.5374909042
 20
4.2457254819
 30
0.0
 10
3.6595124861
 20
4.2471244409
 30
0.0
 10
3.7899904787
 20
4.2485245194
 30
0.0
 10
3.9277624963
 20
4.2499255705
 30
0.0
 10
4.122447972
 20
4.2518225315
 30
0.0
 10
4.3744240794
 20
4.2541601485
 30
0.0
 10
4.6298934803
 20
4.2564683298
 30
0.0
 10
4.8357304276
 20
4.2583396006
 30
0.0
 10
4.987990959
 20
4.2597420531
 30
0.0
 10
5.1368706622
 20
4.2611441595
 30
0.0
 10
5.2810449297
 20
4.2625458385
 30
0.0
 10
5.4192309185
 20
4.2639468999
 30
0.0
 10
5.5501975458
 20
4.2653470665
 30
0.0
 10
5.6727779816
 20
4.2667460859
 30
0.0
 10
5.7858773248
 20
4.2681433881
 30
0.0
 10
5.8737363816
 20
4.2693375206
 30
0.0
 10
5.9385344181
 20
4.2703017791
 30
0.0
 10
5.9827585109
 20
4.271003867
 30
0.0
 10
6.0239205844
 20
4.2717055489
 30
0.0
 10
6.0619292188
 20
4.2724066963
 30
0.0
 10
6.096699225
 20
4.2731072881
 30
0.0
 10
6.1281533356
 20
4.2738071095
 30
0.0
 10
6.1562220344
 20
4.2745055804
 30
0.0
 10
6.1808421916
 20
4.2752024773
 30
0.0
 10
6.1991768887
 20
4.2758048893
 30
0.0
 10
6.2120794587
 20
4.2762944566
 30
0.0
 10
6.2204213538
 20
4.2766446153
 30
0.0
 10
6.2278655639
 20
4.2769942265
 30
0.0
 10
6.2344072259
 20
4.2773431576
 30
0.0
 10
6.2400424882
 20
4.2776909561
 30
0.0
 10
6.2447685523
 20
4.2780373643
 30
0.0
 10
6.2481367892
 20
4.2783395952
 30
0.0
 10
6.2503741582
 20
4.2785886731
 30
0.0
 10
6.2517112356
 20
4.2787624176
 30
0.0
 10
6.2528197755
 20
4.2789352996
 30
0.0
 10
6.2537012775
 20
4.2791061337
 30
0.0
 10
6.2543542131
 20
4.2792750867
 30
0.0
 10
6.2547102298
 20
4.2794067624
 30
0.0
 10
6.254841897
 20
4.279482563
 30
0.0
  0
SPLINE
  5
364
100
AcDbEntity
  8
0
100
AcDbSpline
 62
7
  6
CONTINUOUS
 70
0
 71
3
 72
65
 73
61
 74
0
 42
0.0000001
 43
0.0000001
 44
0.0000000001
 40
0.0
 40
0.0
 40
0.0
 40
0.0
 40
0.0000674091
 40
0.0001211213
 40
0.0001910333
 40
0.0002779797
 40
0.0003823771
 40
0.0006443307
 40
0.0013834317
 40
0.0024112607
 40
0.0037281718
 40
0.0053339253
 40
0.0072280511
 40
0.0094099678
 40
0.0118786792
 40
0.0146324566
 40
0.0176694694
 40
0.0209878733
 40
0.028461428
 40
0.0370376862
 40
0.0466959196
 40
0.0574124484
 40
0.0691634967
 40
0.0819223686
 40
0.0956576571
 40
0.1103375201
 40
0.1259291913
 40
0.1423951391
 40
0.1777934342
 40
0.2162039488
 40
0.2572670118
 40
0.3005992989
 40
0.3457969236
 40
0.3924368436
 40
0.4400845416
 40
0.4882943737
 40
0.5366167116
 40
0.5845998713
 40
0.6317964304
 40
0.677764913
 40
0.7220768491
 40
0.764318156
 40
0.8040940567
 40
0.8410344784
 40
0.8747924336
 40
0.9050551995
 40
0.9315383911
 40
0.9432849155
 40
0.9539958487
 40
0.9636479049
 40
0.9722189015
 40
0.9796871363
 40
0.9860360475
 40
0.991252415
 40
0.9934318502
 40
0.9953233689
 40
0.9969260616
 40
0.9982396495
 40
0.9992641049
 40
1.0
 40
1.0
 40
1.0
 40
1.0
 10
3.0200710859
 20
3.8246297012
 30
0.0
 10
3.0200708408
 20
3.8247010717
 30
0.0
 10
3.0201731737
 20
3.8248128281
 30
0.0
 10
3.0203438314
 20
3.8249103582
 30
0.0
 10
3.0205504186
 20
3.82500043
 30
0.0
 10
3.0208121046
 20
3.8250883996
 30
0.0
 10
3.0212749072
 20
3.8252173388
 30
0.0
 10
3.0224202939
 20
3.8254607145
 30
0.0
 10
3.0245481328
 20
3.8257667018
 30
0.0
 10
3.0277945065
 20
3.8261156992
 30
0.0
 10
3.0319627494
 20
3.8264675565
 30
0.0
 10
3.0370503173
 20
3.8268226993
 30
0.0
 10
3.0430555856
 20
3.8271791347
 30
0.0
 10
3.049975815
 20
3.8275366204
 30
0.0
 10
3.0578072606
 20
3.827894711
 30
0.0
 10
3.0665448732
 20
3.828253304
 30
0.0
 10
3.076182785
 20
3.8286122782
 30
0.0
 10
3.0908160503
 20
3.8291112735
 30
0.0
 10
3.1113134388
 20
3.8297271601
 30
0.0
 10
3.1385231006
 20
3.83044186
 30
0.0
 10
3.1691673535
 20
3.8311578081
 30
0.0
 10
3.2031737816
 20
3.8318748534
 30
0.0
 10
3.2404637318
 20
3.8325925539
 30
0.0
 10
3.2809503979
 20
3.8333107091
 30
0.0
 10
3.3245384583
 20
3.8340293436
 30
0.0
 10
3.3711261859
 20
3.8347483251
 30
0.0
 10
3.4206053836
 20
3.8354674977
 30
0.0
 10
3.4920191731
 20
3.8364505769
 30
0.0
 10
3.5875919618
 20
3.8376698733
 30
0.0
 10
3.7092068675
 20
3.8391017537
 30
0.0
 10
3.8392226026
 20
3.8405348982
 30
0.0
 10
3.9764247509
 20
3.8419690055
 30
0.0
 10
4.1195318297
 20
3.8434037313
 30
0.0
 10
4.2672081682
 20
3.8448389688
 30
0.0
 10
4.4180738969
 20
3.8462744607
 30
0.0
 10
4.5707210028
 20
3.8477101445
 30
0.0
 10
4.7237233022
 20
3.8491458319
 30
0.0
 10
4.8756527283
 20
3.8505814539
 30
0.0
 10
5.0250898443
 20
3.852016815
 30
0.0
 10
5.1706397856
 20
3.8534518355
 30
0.0
 10
5.3109429795
 20
3.854886276
 30
0.0
 10
5.4446892822
 20
3.8563199202
 30
0.0
 10
5.5706303598
 20
3.8577525134
 30
0.0
 10
5.6875888874
 20
3.8591834805
 30
0.0
 10
5.794474376
 20
3.8606123102
 30
0.0
 10
5.8902869749
 20
3.862038049
 30
0.0
 10
5.962794707
 20
3.8632660267
 30
0.0
 10
6.0146022083
 20
3.8642632054
 30
0.0
 10
6.0485913777
 20
3.8649802956
 30
0.0
 10
6.0792175877
 20
3.8656963151
 30
0.0
 10
6.106409504
 20
3.8664109234
 30
0.0
 10
6.1301028574
 20
3.8671234462
 30
0.0
 10
6.1502426158
 20
3.8678334504
 30
0.0
 10
6.1647822946
 20
3.86845143
 30
0.0
 10
6.174602422
 20
3.8689589317
 30
0.0
 10
6.1805990512
 20
3.8693153644
 30
0.0
 10
6.1856770691
 20
3.8696704759
 30
0.0
 10
6.1898349743
 20
3.8700223413
 30
0.0
 10
6.1930707429
 20
3.8703712262
 30
0.0
 10
6.1949169326
 20
3.8706379068
 30
0.0
 10
6.1956816352
 20
3.8707872354
 30
0.0
  0
LINE
  5
365
100
AcDbEntity
  8
0
100
AcDbLine
 62
7
  6
CONTINUOUS
 10
6.1956816352
 20
3.8707872354
 11
6.1973095276
 21
3.8712620087
  0
SPLINE
  5
366
100
AcDbEntity
  8
0
100
AcDbSpline
 62
7
  6
CONTINUOUS
 70
0
 71
3
 72
16
 73
12
 74
0
 42
0.0000001
 43
0.0000001
 44
0.0000000001
 40
0.0
 40
0.0
 40
0.0
 40
0.0
 40
0.026121835
 40
0.0479394023
 40
0.0766572587
 40
0.1125640755
 40
0.1558027427
 40
0.2645502251
 40
0.4032453621
 40
0.5720208042
 40
1.0
 40
1.0
 40
1.0
 40
1.0
 10
2.962545388
 20
4.3265917766
 30
0.0
 10
2.962545388
 20
4.3266714447
 30
0.0
 10
2.9626745145
 20
4.3267916662
 30
0.0
 10
2.9628750296
 20
4.3268939877
 30
0.0
 10
2.9631239311
 20
4.3269910221
 30
0.0
 10
2.9634380576
 20
4.3270854877
 30
0.0
 10
2.9639947185
 20
4.3272243613
 30
0.0
 10
2.9648657327
 20
4.3273906212
 30
0.0
 10
2.9661210503
 20
4.3275809373
 30
0.0
 10
2.9683470095
 20
4.3278582337
 30
0.0
 10
2.9701591534
 20
4.328031286
 30
0.0
 10
2.9714594901
 20
4.3281447683
 30
0.0
  0
SPLINE
  5
367
100
AcDbEntity
  8
0
100
AcDbSpline
 62
7
  6
CONTINUOUS
 70
0
 71
3
 72
56
 73
52
 74
0
 42
0.0000001
 43
0.0000001
 44
0.0000000001
 40
0.0
 40
0.0
 40
0.0
 40
0.0
 40
0.001372441
 40
0.0030213436
 40
0.0071462062
 40
0.0123650727
 40
0.0186660906
 40
0.0260369531
 40
0.0344610997
 40
0.0543894455
 40
0.0782764097
 40
0.1059078388
 40
0.1370381695
 40
0.171391371
 40
0.2086594218
 40
0.2485115984
 40
0.290591543
 40
0.3345249901
 40
0.4263763293
 40
0.5208004238
 40
0.567927252
 40
0.6144357076
 40
0.6599123985
 40
0.7039522778
 40
0.7461636788
 40
0.786170852
 40
0.823615525
 40
0.8581654917
 40
0.8895109438
 40
0.9038945664
 40
0.9173741475
 40
0.9299209033
 40
0.9415073503
 40
0.9521063497
 40
0.9616948739
 40
0.9702526458
 40
0.9777595126
 40
0.98419829
 40
0.9870132054
 40
0.9895564624
 40
0.9918265726
 40
0.9938220705
 40
0.9955416864
 40
0.9969849009
 40
0.9981515076
 40
0.9986311034
 40
0.999041627
 40
0.9993832218
 40
0.9996561888
 40
0.9998611972
 40
1.0
 40
1.0
 40
1.0
 40
1.0
 10
2.9714594901
 20
4.3281447683
 30
0.0
 10
2.9729561236
 20
4.3282753817
 30
0.0
 10
2.9762538332
 20
4.328528875
 30
0.0
 10
2.9840603296
 20
4.3290305175
 30
0.0
 10
2.9960786027
 20
4.3296337428
 30
0.0
 10
3.0131900795
 20
4.330323784
 30
0.0
 10
3.0338570579
 20
4.3310173098
 30
0.0
 10
3.0580341628
 20
4.3317140231
 30
0.0
 10
3.0971257999
 20
4.3327013421
 30
0.0
 10
3.1542964795
 20
4.333905187
 30
0.0
 10
3.2324923841
 20
4.3352908997
 30
0.0
 10
3.3229519533
 20
4.3366816904
 30
0.0
 10
3.4248693465
 20
4.338076499
 30
0.0
 10
3.5373361808
 20
4.3394736413
 30
0.0
 10
3.659350902
 20
4.3408726523
 30
0.0
 10
3.7898240904
 20
4.3422727882
 30
0.0
 10
3.92759384
 20
4.3436738931
 30
0.0
 10
4.1222815789
 20
4.3455709636
 30
0.0
 10
4.3742654651
 20
4.3479087049
 30
0.0
 10
4.6297453438
 20
4.3502169915
 30
0.0
 10
4.8355932339
 20
4.352088347
 30
0.0
 10
4.9878636254
 20
4.3534908673
 30
0.0
 10
5.1367547919
 20
4.3548930534
 30
0.0
 10
5.2809420418
 20
4.3562948158
 30
0.0
 10
5.4191418788
 20
4.357695975
 30
0.0
 10
5.5501219927
 20
4.3590962302
 30
0.0
 10
5.6727151389
 20
4.3604953394
 30
0.0
 10
5.7858262181
 20
4.3618927261
 30
0.0
 10
5.8736943954
 20
4.3630869254
 30
0.0
 10
5.9384991024
 20
4.3640512356
 30
0.0
 10
5.9827276982
 20
4.3647533601
 30
0.0
 10
6.0238940024
 20
4.3654550742
 30
0.0
 10
6.0619066382
 20
4.3661562572
 30
0.0
 10
6.0966805046
 20
4.3668568966
 30
0.0
 10
6.1281383571
 20
4.3675567608
 30
0.0
 10
6.1562105648
 20
4.368255274
 30
0.0
 10
6.1808337849
 20
4.3689522187
 30
0.0
 10
6.1991706966
 20
4.369554671
 30
0.0
 10
6.2120747948
 20
4.3700442697
 30
0.0
 10
6.2204176616
 20
4.3703944504
 30
0.0
 10
6.2278627197
 20
4.3707440832
 30
0.0
 10
6.2344051063
 20
4.371093036
 30
0.0
 10
6.2400409769
 20
4.371440856
 30
0.0
 10
6.2447675419
 20
4.3717872843
 30
0.0
 10
6.2481361323
 20
4.3720895324
 30
0.0
 10
6.2503737326
 20
4.3723386243
 30
0.0
 10
6.2517109449
 20
4.3725123783
 30
0.0
 10
6.2528195939
 20
4.3726852697
 30
0.0
 10
6.2537011793
 20
4.3728561128
 30
0.0
 10
6.2543541723
 20
4.3730250747
 30
0.0
 10
6.254710219
 20
4.3731567573
 30
0.0
 10
6.2548418958
 20
4.373232563
 30
0.0
  0
SPLINE
  5
368
100
AcDbEntity
  8
0
100
AcDbSpline
 62
7
  6
CONTINUOUS
 70
0
 71
3
 72
16
 73
12
 74
0
 42
0.0000001
 43
0.0000001
 44
0.0000000001
 40
0.0
 40
0.0
 40
0.0
 40
0.0
 40
0.026045248
 40
0.0478430897
 40
0.0765487037
 40
0.1124486369
 40
0.1556845888
 40
0.2644366373
 40
0.4031471319
 40
0.571947159
 40
1.0
 40
1.0
 40
1.0
 40
1.0
 10
6.255045388
 20
4.3890926281
 30
0.0
 10
6.255045388
 20
4.3890124451
 30
0.0
 10
6.2549147723
 20
4.3888916578
 30
0.0
 10
6.2547125421
 20
4.3887889541
 30
0.0
 10
6.2544612197
 20
4.388691449
 30
0.0
 10
6.2541440847
 20
4.3885965389
 30
0.0
 10
6.2535820317
 20
4.3884569921
 30
0.0
 10
6.2527026185
 20
4.3882899365
 30
0.0
 10
6.2514352008
 20
4.3880987055
 30
0.0
 10
6.2491877593
 20
4.387820073
 30
0.0
 10
6.2473581635
 20
4.387646189
 30
0.0
 10
6.2460453013
 20
4.3875321605
 30
0.0
  0
SPLINE
  5
369
100
AcDbEntity
  8
0
100
AcDbSpline
 62
7
  6
CONTINUOUS
 70
0
 71
3
 72
56
 73
52
 74
0
 42
0.0000001
 43
0.0000001
 44
0.0000000001
 40
0.0
 40
0.0
 40
0.0
 40
0.0
 40
0.0013781253
 40
0.0030326336
 40
0.0071684922
 40
0.0123980359
 40
0.018709315
 40
0.0260900032
 40
0.0345237251
 40
0.0544693849
 40
0.0783713931
 40
0.1060154044
 40
0.1371565446
 40
0.1715184102
 40
0.2087934049
 40
0.2486509725
 40
0.2907340433
 40
0.3346683778
 40
0.4265126792
 40
0.5209232097
 40
0.5680418943
 40
0.6145416529
 40
0.6600090007
 40
0.704038534
 40
0.746238769
 40
0.7862340152
 40
0.8236675459
 40
0.8582073135
 40
0.8895436404
 40
0.9039231693
 40
0.9173989826
 40
0.9299422115
 40
0.9415254161
 40
0.9521214278
 40
0.9617070416
 40
0.9702621257
 40
0.9777666819
 40
0.9842033716
 40
0.9870173308
 40
0.9895597135
 40
0.991829049
 40
0.9938238894
 40
0.9955429637
 40
0.996985735
 40
0.9981519945
 40
0.9986314522
 40
0.9990418609
 40
0.9993833637
 40
0.9996562614
 40
0.9998612227
 40
1.0
 40
1.0
 40
1.0
 40
1.0
 10
6.2460453013
 20
4.3875321605
 30
0.0
 10
6.2445424545
 20
4.3874016309
 30
0.0
 10
6.2412324327
 20
4.3871482328
 30
0.0
 10
6.2334016886
 20
4.3866467486
 30
0.0
 10
6.2213538368
 20
4.3860435822
 30
0.0
 10
6.2042078249
 20
4.3853535778
 30
0.0
 10
6.1835076963
 20
4.3846600971
 30
0.0
 10
6.1592987439
 20
4.3839634404
 30
0.0
 10
6.1201679283
 20
4.3829763438
 30
0.0
 10
6.0629528388
 20
4.381772652
 30
0.0
 10
5.9847097869
 20
4.3803871364
 30
0.0
 10
5.8942105162
 20
4.3789965221
 30
0.0
 10
5.7922607074
 20
4.37760193
 30
0.0
 10
5.6797679082
 20
4.3762049724
 30
0.0
 10
5.5577334048
 20
4.3748061478
 30
0.0
 10
5.4272467188
 20
4.3734062049
 30
0.0
 10
5.2894702937
 20
4.3720052751
 30
0.0
 10
5.094790979
 20
4.3701085591
 30
0.0
 10
4.8428352923
 20
4.3677712406
 30
0.0
 10
4.587393591
 20
4.3654633314
 30
0.0
 10
4.3815843909
 20
4.3635922814
 30
0.0
 10
4.2293466614
 20
4.3621899962
 30
0.0
 10
4.080490479
 20
4.3607880515
 30
0.0
 10
3.9363407923
 20
4.3593865276
 30
0.0
 10
3.7981811892
 20
4.3579856494
 30
0.0
 10
3.6672419913
 20
4.3565856645
 30
0.0
 10
3.5446884824
 20
4.3551868427
 30
0.0
 10
3.4316137246
 20
4.3537897216
 30
0.0
 10
3.3437734899
 20
4.3525957374
 30
0.0
 10
3.2789890796
 20
4.3516315905
 30
0.0
 10
3.2347741121
 20
4.3509295803
 30
0.0
 10
3.1936204239
 20
4.3502279722
 30
0.0
 10
3.1556194675
 20
4.349526896
 30
0.0
 10
3.1208565202
 20
4.3488263742
 30
0.0
 10
3.089408893
 20
4.3481266177
 30
0.0
 10
3.0613460805
 20
4.3474282123
 30
0.0
 10
3.0367312639
 20
4.3467313982
 30
0.0
 10
3.0184006952
 20
4.3461290583
 30
0.0
 10
3.0055012251
 20
4.3456395515
 30
0.0
 10
2.9971614293
 20
4.345289439
 30
0.0
 10
2.9897190916
 20
4.3449398736
 30
0.0
 10
2.9831790374
 20
4.3445909887
 30
0.0
 10
2.9775451124
 20
4.3442432367
 30
0.0
 10
2.9728201296
 20
4.3438968715
 30
0.0
 10
2.9694526441
 20
4.3435946773
 30
0.0
 10
2.9672157594
 20
4.3433456293
 30
0.0
 10
2.9658789599
 20
4.3431719048
 30
0.0
 10
2.9647706421
 20
4.3429990424
 30
0.0
 10
2.9638893081
 20
4.3428282272
 30
0.0
 10
2.9632364861
 20
4.3426592927
 30
0.0
 10
2.9628805282
 20
4.3425276318
 30
0.0
 10
2.9627488792
 20
4.3424518417
 30
0.0
  0
SPLINE
  5
36A
100
AcDbEntity
  8
0
100
AcDbSpline
 62
7
  6
CONTINUOUS
 70
0
 71
3
 72
16
 73
12
 74
0
 42
0.0000001
 43
0.0000001
 44
0.0000000001
 40
0.0
 40
0.0
 40
0.0
 40
0.0
 40
0.0261466801
 40
0.0479706974
 40
0.076692593
 40
0.1126017198
 40
0.1558413476
 40
0.2645874941
 40
0.4032777384
 40
0.5720451938
 40
1.0
 40
1.0
 40
1.0
 40
1.0
 10
2.962545388
 20
4.4203417766
 30
0.0
 10
2.962545388
 20
4.4204212792
 30
0.0
 10
2.9626740374
 20
4.4205413178
 30
0.0
 10
2.9628740016
 20
4.4206435158
 30
0.0
 10
2.9631221264
 20
4.4207403983
 30
0.0
 10
2.9634352874
 20
4.4208347205
 30
0.0
 10
2.9639902177
 20
4.4209733771
 30
0.0
 10
2.9648585357
 20
4.4211393803
 30
0.0
 10
2.9661099681
 20
4.4213294013
 30
0.0
 10
2.9683290275
 20
4.4216062668
 30
0.0
 10
2.9701355654
 20
4.4217790512
 30
0.0
 10
2.9714318783
 20
4.4218923574
 30
0.0
  0
SPLINE
  5
36B
100
AcDbEntity
  8
0
100
AcDbSpline
 62
7
  6
CONTINUOUS
 70
0
 71
3
 72
56
 73
52
 74
0
 42
0.0000001
 43
0.0000001
 44
0.0000000001
 40
0.0
 40
0.0
 40
0.0
 40
0.0
 40
0.0013706092
 40
0.0030177037
 40
0.0071390217
 40
0.0123544785
 40
0.0186522838
 40
0.0260201785
 40
0.0344415653
 40
0.0543648769
 40
0.0782474623
 40
0.1058750584
 40
0.1370021581
 40
0.1713525695
 40
0.2086183682
 40
0.2484689298
 40
0.2905483774
 40
0.334482229
 40
0.4263352258
 40
0.5207618737
 40
0.5678902161
 40
0.6144006103
 40
0.6598798491
 40
0.7039230137
 40
0.7461377981
 40
0.7861483998
 40
0.8235964042
 40
0.8581495667
 40
0.8894981583
 40
0.9038832226
 40
0.9173642291
 40
0.9299124987
 40
0.9415003591
 40
0.9521005968
 40
0.9616903646
 40
0.9702492715
 40
0.9777570432
 40
0.9841965789
 40
0.9870118271
 40
0.989555381
 40
0.9918257485
 40
0.9938214603
 40
0.9955412522
 40
0.9969846135
 40
0.9981513373
 40
0.9986309804
 40
0.9990415438
 40
0.9993831708
 40
0.9996561624
 40
0.9998611877
 40
1.0
 40
1.0
 40
1.0
 40
1.0
 10
2.9714318783
 20
4.4218923574
 30
0.0
 10
2.9729265093
 20
4.422022998
 30
0.0
 10
2.9762202491
 20
4.4222765225
 30
0.0
 10
2.9840189277
 20
4.4227782177
 30
0.0
 10
2.9960276991
 20
4.4233814661
 30
0.0
 10
3.0131281817
 20
4.4240715242
 30
0.0
 10
3.0337848305
 20
4.4247650734
 30
0.0
 10
3.0579523484
 20
4.4254618186
 30
0.0
 10
3.0970325295
 20
4.4264492215
 30
0.0
 10
3.1541903624
 20
4.4276531537
 30
0.0
 10
3.2323724242
 20
4.4290389295
 30
0.0
 10
3.3228202287
 20
4.4304297893
 30
0.0
 10
3.4247276936
 20
4.4318246574
 30
0.0
 10
3.5371864194
 20
4.4332218609
 30
0.0
 10
3.659194882
 20
4.4346209256
 30
0.0
 10
3.7896643934
 20
4.4360211254
 30
0.0
 10
3.9274334359
 20
4.4374222988
 30
0.0
 10
4.12212453
 20
4.4393194824
 30
0.0
 10
4.3741155943
 20
4.4416573414
 30
0.0
 10
4.6296038957
 20
4.4439657133
 30
0.0
 10
4.8354600974
 20
4.4458371308
 30
0.0
 10
4.9877383425
 20
4.4472397005
 30
0.0
 10
5.1366392727
 20
4.4486419511
 30
0.0
 10
5.2808378282
 20
4.4500437798
 30
0.0
 10
5.4190498842
 20
4.4514450198
 30
0.0
 10
5.5500422067
 20
4.4528453475
 30
0.0
 10
5.6726472854
 20
4.4542445327
 30
0.0
 10
5.7857699006
 20
4.4556419999
 30
0.0
 10
5.8736473326
 20
4.4568362547
 30
0.0
 10
5.9384591617
 20
4.4578006206
 30
0.0
 10
5.9826929263
 20
4.4585027917
 30
0.0
 10
6.0238643426
 20
4.4592045462
 30
0.0
 10
6.0618818589
 20
4.4599057749
 30
0.0
 10
6.0966602826
 20
4.4606064753
 30
0.0
 10
6.1281223597
 20
4.4613063885
 30
0.0
 10
6.1561983987
 20
4.4620049472
 30
0.0
 10
6.1808248895
 20
4.4627019453
 30
0.0
 10
6.1991641407
 20
4.4633044407
 30
0.0
 10
6.2120698672
 20
4.4637940728
 30
0.0
 10
6.2204137753
 20
4.4641442771
 30
0.0
 10
6.227859737
 20
4.464493933
 30
0.0
 10
6.2344028872
 20
4.4648429093
 30
0.0
 10
6.2400393928
 20
4.4651907528
 30
0.0
 10
6.2447664791
 20
4.4655372023
 30
0.0
 10
6.2481354385
 20
4.4658394684
 30
0.0
 10
6.2503732812
 20
4.4660885747
 30
0.0
 10
6.2517106354
 20
4.4662623385
 30
0.0
 10
6.2528193994
 20
4.4664352395
 30
0.0
 10
6.2537010731
 20
4.4666060918
 30
0.0
 10
6.2543541271
 20
4.4667750626
 30
0.0
 10
6.254710206
 20
4.4669067522
 30
0.0
 10
6.2548418932
 20
4.466982563
 30
0.0
  0
SPLINE
  5
36C
100
AcDbEntity
  8
0
100
AcDbSpline
 62
7
  6
CONTINUOUS
 70
0
 71
3
 72
65
 73
61
 74
0
 42
0.0000001
 43
0.0000001
 44
0.0000000001
 40
0.0
 40
0.0
 40
0.0
 40
0.0
 40
0.0000672898
 40
0.0001208054
 40
0.0001903853
 40
0.0002768512
 40
0.0003806216
 40
0.0006409024
 40
0.0013751445
 40
0.0023964182
 40
0.0037054653
 40
0.0053023072
 40
0.007186043
 40
0.0093554284
 40
0.0118091613
 40
0.0145459058
 40
0.0175643051
 40
0.0208629892
 40
0.0282940158
 40
0.0368202224
 40
0.046421429
 40
0.0570770921
 40
0.0687621163
 40
0.0814480956
 40
0.0951065288
 40
0.109706744
 40
0.1252133375
 40
0.1415902782
 40
0.1768047734
 40
0.2150212678
 40
0.2558872001
 40
0.2990220256
 40
0.3440260225
 40
0.3904817449
 40
0.437957602
 40
0.4860136165
 40
0.5342033752
 40
0.5820800982
 40
0.6291990255
 40
0.6751237016
 40
0.7194268306
 40
0.7616986124
 40
0.8015457519
 40
0.8385989234
 40
0.8725149901
 40
0.9029775498
 40
0.9297065983
 40
0.9415906414
 40
0.9524516027
 40
0.9622642045
 40
0.9710039949
 40
0.9786520053
 40
0.9851915794
 40
0.9906062714
 40
0.9928876175
 40
0.9948836675
 40
0.9965935807
 40
0.9980165998
 40
0.9991521361
 40
1.0
 40
1.0
 40
1.0
 40
1.0
 10
3.0200696512
 20
4.0121297067
 30
0.0
 10
3.0200697356
 20
4.012200933
 30
0.0
 10
3.0201717358
 20
4.0123121051
 30
0.0
 10
3.0203417178
 20
4.0124094825
 30
0.0
 10
3.0205471749
 20
4.0124992529
 30
0.0
 10
3.0208072713
 20
4.0125869736
 30
0.0
 10
3.021267002
 20
4.0127154937
 30
0.0
 10
3.0224044969
 20
4.0129581147
 30
0.0
 10
3.0245179149
 20
4.0132631768
 30
0.0
 10
3.0277430401
 20
4.0136110813
 30
0.0
 10
3.0318855157
 20
4.0139618141
 30
0.0
 10
3.0369430281
 20
4.0143157593
 30
0.0
 10
3.0429130615
 20
4.0146710224
 30
0.0
 10
3.0497913939
 20
4.0150273865
 30
0.0
 10
3.0575736721
 20
4.0153844136
 30
0.0
 10
3.0662554467
 20
4.0157419313
 30
0.0
 10
3.0758322712
 20
4.0160998255
 30
0.0
 10
3.0903761789
 20
4.0165973276
 30
0.0
 10
3.1107494316
 20
4.0172111453
 30
0.0
 10
3.1377937351
 20
4.0179236829
 30
0.0
 10
3.1682523358
 20
4.0186375185
 30
0.0
 10
3.2020553455
 20
4.0193522523
 30
0.0
 10
3.2391242386
 20
4.0200676617
 30
0.0
 10
3.2793720979
 20
4.0207836838
 30
0.0
 10
3.3227061352
 20
4.0215001048
 30
0.0
 10
3.3690261725
 20
4.0222167616
 30
0.0
 10
3.418224072
 20
4.0229337443
 30
0.0
 10
3.4892406786
 20
4.0239138828
 30
0.0
 10
3.5842947602
 20
4.0251293311
 30
0.0
 10
3.705269813
 20
4.0265568868
 30
0.0
 10
3.8346290773
 20
4.0279855504
 30
0.0
 10
3.9711733234
 20
4.0294152296
 30
0.0
 10
4.1136346728
 20
4.0308455493
 30
0.0
 10
4.2606912288
 20
4.0322763224
 30
0.0
 10
4.4109784956
 20
4.0337074198
 30
0.0
 10
4.5631013229
 20
4.0351386546
 30
0.0
 10
4.7156484854
 20
4.036569949
 30
0.0
 10
4.8672036971
 20
4.0380011325
 30
0.0
 10
5.0163612091
 20
4.0394321343
 30
0.0
 10
5.1617358933
 20
4.0408627245
 30
0.0
 10
5.301979616
 20
4.0422928371
 30
0.0
 10
5.4357899182
 20
4.0437221326
 30
0.0
 10
5.5619256815
 20
4.0451503868
 30
0.0
 10
5.6792163213
 20
4.0465772081
 30
0.0
 10
5.7865726108
 20
4.048001723
 30
0.0
 10
5.8829997761
 20
4.0494236281
 30
0.0
 10
5.9561063008
 20
4.0506472519
 30
0.0
 10
6.0084652554
 20
4.0516407975
 30
0.0
 10
6.0429201345
 20
4.0523557635
 30
0.0
 10
6.0740460588
 20
4.0530696704
 30
0.0
 10
6.1017701029
 20
4.0537825116
 30
0.0
 10
6.1260284279
 20
4.0544933725
 30
0.0
 10
6.146765454
 20
4.0552016925
 30
0.0
 10
6.1618215045
 20
4.0558176382
 30
0.0
 10
6.1720682193
 20
4.0563225244
 30
0.0
 10
6.1783958758
 20
4.0566783585
 30
0.0
 10
6.1838133822
 20
4.0570329749
 30
0.0
 10
6.1883180865
 20
4.0573851587
 30
0.0
 10
6.1919068705
 20
4.0577346237
 30
0.0
 10
6.1939904775
 20
4.0579994894
 30
0.0
 10
6.1948762735
 20
4.0581437435
 30
0.0
  0
LINE
  5
36D
100
AcDbEntity
  8
0
100
AcDbLine
 62
7
  6
CONTINUOUS
 10
6.1948762735
 20
4.0581437435
 11
6.1973085015
 21
4.0587620113
  0
SPLINE
  5
36E
100
AcDbEntity
  8
0
100
AcDbSpline
 62
7
  6
CONTINUOUS
 70
0
 71
3
 72
16
 73
12
 74
0
 42
0.0000001
 43
0.0000001
 44
0.0000000001
 40
0.0
 40
0.0
 40
0.0
 40
0.0
 40
0.026175117
 40
0.0480062414
 40
0.0767323616
 40
0.1126436579
 40
0.1558838779
 40
0.264627543
 40
0.4033115764
 40
0.5720699234
 40
1.0
 40
1.0
 40
1.0
 40
1.0
 10
2.962545388
 20
4.5140917766
 30
0.0
 10
2.962545388
 20
4.5141710892
 30
0.0
 10
2.9626734875
 20
4.5142909186
 30
0.0
 10
2.9628728184
 20
4.514392976
 30
0.0
 10
2.9631200501
 20
4.5144896846
 30
0.0
 10
2.9634321019
 20
4.5145838427
 30
0.0
 10
2.9639850456
 20
4.5147222508
 30
0.0
 10
2.9648502721
 20
4.5148879603
 30
0.0
 10
2.9660972545
 20
4.5150776436
 30
0.0
 10
2.9683084271
 20
4.5153540168
 30
0.0
 10
2.9701085608
 20
4.5155264942
 30
0.0
 10
2.9714002795
 20
4.515639599
 30
0.0
  0
SPLINE
  5
36F
100
AcDbEntity
  8
0
100
AcDbSpline
 62
7
  6
CONTINUOUS
 70
0
 71
3
 72
56
 73
52
 74
0
 42
0.0000001
 43
0.0000001
 44
0.0000000001
 40
0.0
 40
0.0
 40
0.0
 40
0.0
 40
0.0013685265
 40
0.0030135824
 40
0.007130972
 40
0.0123426953
 40
0.018636943
 40
0.0260014634
 40
0.0344197297
 40
0.0543372934
 40
0.0782149236
 40
0.1058382239
 40
0.1369617815
 40
0.1713090944
 40
0.2085727661
 40
0.2484224443
 40
0.2905017507
 40
0.3344360231
 40
0.4262911696
 40
0.5207211963
 40
0.5678516793
 40
0.6143651275
 40
0.6598479075
 40
0.7038945415
 40
0.746112754
 40
0.7861267157
 40
0.8235779634
 40
0.8581341293
 40
0.8894855834
 40
0.9038720449
 40
0.9173545125
 40
0.9299042929
 40
0.9414935806
 40
0.952095079
 40
0.9616859928
 40
0.9702459105
 40
0.9777545378
 40
0.9841948158
 40
0.9870103926
 40
0.9895542433
 40
0.9918248731
 40
0.9938208099
 40
0.9955407913
 40
0.9969843097
 40
0.9981511582
 40
0.9986308515
 40
0.9990414569
 40
0.9993831177
 40
0.999656135
 40
0.9998611781
 40
1.0
 40
1.0
 40
1.0
 40
1.0
 10
2.9714002795
 20
4.515639599
 30
0.0
 10
2.9728926337
 20
4.5157702718
 30
0.0
 10
2.9761818787
 20
4.5160238339
 30
0.0
 10
2.9839717992
 20
4.516525597
 30
0.0
 10
2.9959700548
 20
4.5171288793
 30
0.0
 10
3.0130584101
 20
4.5178189671
 30
0.0
 10
3.0337035763
 20
4.518512554
 30
0.0
 10
3.0578603179
 20
4.5192093453
 30
0.0
 10
3.0969274688
 20
4.5201968332
 30
0.0
 10
3.1540707168
 20
4.5214008598
 30
0.0
 10
3.2322371116
 20
4.5227867054
 30
0.0
 10
3.3226717829
 20
4.5241776483
 30
0.0
 10
3.4245682586
 20
4.5255725829
 30
0.0
 10
3.5370184715
 20
4.5269698654
 30
0.0
 10
3.6590214243
 20
4.5283690067
 30
0.0
 10
3.7894887449
 20
4.5297692937
 30
0.0
 10
3.9272584561
 20
4.5311705624
 30
0.0
 10
4.1219540889
 20
4.5330678727
 30
0.0
 10
4.3739540986
 20
4.5354058732
 30
0.0
 10
4.6294532622
 20
4.5377143521
 30
0.0
 10
4.8353208366
 20
4.539585858
 30
0.0
 10
4.9876101149
 20
4.5409885078
 30
0.0
 10
5.1365235003
 20
4.5423908439
 30
0.0
 10
5.2807348751
 20
4.5437927586
 30
0.0
 10
5.4189594942
 20
4.5451940786
 30
0.0
 10
5.5499640627
 20
4.5465944846
 30
0.0
 10
5.6725808415
 20
4.5479937432
 30
0.0
 10
5.7857145207
 20
4.5493912835
 30
0.0
 10
5.8736007523
 20
4.550585591
 30
0.0
 10
5.9384194696
 20
4.5515500104
 30
0.0
 10
5.982658444
 20
4.5522522271
 30
0.0
 10
6.0238350735
 20
4.5529540277
 30
0.0
 10
6.0618575533
 20
4.5536553048
 30
0.0
 10
6.0966405097
 20
4.5543560577
 30
0.0
 10
6.1281066318
 20
4.5550560178
 30
0.0
 10
6.1561862396
 20
4.5557546216
 30
0.0
 10
6.1808158239
 20
4.5564516676
 30
0.0
 10
6.1991573611
 20
4.5570542029
 30
0.0
 10
6.2120647094
 20
4.5575438671
 30
0.0
 10
6.2204096698
 20
4.5578940947
 30
0.0
 10
6.2278565618
 20
4.5582437736
 30
0.0
 10
6.234400516
 20
4.5585927731
 30
0.0
 10
6.2400377016
 20
4.5589406399
 30
0.0
 10
6.2447653495
 20
4.5592871116
 30
0.0
 10
6.2481347048
 20
4.5595893969
 30
0.0
 10
6.2503728065
 20
4.5598385191
 30
0.0
 10
6.2517103116
 20
4.5600122937
 30
0.0
 10
6.2528191975
 20
4.5601852054
 30
0.0
 10
6.2537009644
 20
4.5603560679
 30
0.0
 10
6.2543540822
 20
4.5605250488
 30
0.0
 10
6.2547101944
 20
4.5606567464
 30
0.0
 10
6.2548418923
 20
4.560732563
 30
0.0
  0
SPLINE
  5
370
100
AcDbEntity
  8
0
100
AcDbSpline
 62
7
  6
CONTINUOUS
 70
0
 71
3
 72
16
 73
12
 74
0
 42
0.0000001
 43
0.0000001
 44
0.0000000001
 40
0.0
 40
0.0
 40
0.0
 40
0.0
 40
0.0261461783
 40
0.0479697422
 40
0.0766910928
 40
0.1125996239
 40
0.155838647
 40
0.2645837249
 40
0.4032733684
 40
0.5720410275
 40
1.0
 40
1.0
 40
1.0
 40
1.0
 10
2.962545388
 20
4.6078417766
 30
0.0
 10
2.962545388
 20
4.6079212806
 30
0.0
 10
2.9626740386
 20
4.6080413221
 30
0.0
 10
2.9628740065
 20
4.6081435224
 30
0.0
 10
2.9631221359
 20
4.6082404068
 30
0.0
 10
2.9634353038
 20
4.6083347309
 30
0.0
 10
2.9639902484
 20
4.6084733905
 30
0.0
 10
2.9648585927
 20
4.6086393972
 30
0.0
 10
2.9661100684
 20
4.6088294222
 30
0.0
 10
2.9683292234
 20
4.6091062946
 30
0.0
 10
2.9701358432
 20
4.6092790825
 30
0.0
 10
2.9714322179
 20
4.6093923912
 30
0.0
  0
SPLINE
  5
371
100
AcDbEntity
  8
0
100
AcDbSpline
 62
7
  6
CONTINUOUS
 70
0
 71
3
 72
56
 73
52
 74
0
 42
0.0000001
 43
0.0000001
 44
0.0000000001
 40
0.0
 40
0.0
 40
0.0
 40
0.0
 40
0.0013706539
 40
0.003017813
 40
0.0071393486
 40
0.0123551071
 40
0.0186532124
 40
0.0260213858
 40
0.0344432048
 40
0.0543672226
 40
0.0782505326
 40
0.1058784845
 40
0.1370058806
 40
0.1713561295
 40
0.2086221537
 40
0.2484737283
 40
0.2905540078
 40
0.3344883702
 40
0.4263411245
 40
0.5207659172
 40
0.5678934023
 40
0.6144037785
 40
0.6598832583
 40
0.703926127
 40
0.746140373
 40
0.7861501646
 40
0.8235972193
 40
0.8581493801
 40
0.8894973543
 40
0.9038822595
 40
0.9173632958
 40
0.929911762
 40
0.9414998352
 40
0.9521002077
 40
0.9616900927
 40
0.9702490844
 40
0.9777568942
 40
0.9841964743
 40
0.9870117477
 40
0.9895553252
 40
0.9918257117
 40
0.9938214353
 40
0.9955412341
 40
0.9969846011
 40
0.9981513297
 40
0.9986309748
 40
0.9990415399
 40
0.9993831682
 40
0.999656161
 40
0.9998611872
 40
1.0
 40
1.0
 40
1.0
 40
1.0
 10
2.9714322179
 20
4.6093923912
 30
0.0
 10
2.9729268977
 20
4.6095230327
 30
0.0
 10
2.976220757
 20
4.6097765597
 30
0.0
 10
2.9840197928
 20
4.6102782655
 30
0.0
 10
2.9960292022
 20
4.6108815277
 30
0.0
 10
3.0131305798
 20
4.6115716043
 30
0.0
 10
3.03378819
 20
4.6122651766
 30
0.0
 10
3.0579568115
 20
4.6129619485
 30
0.0
 10
3.0970385403
 20
4.6139493501
 30
0.0
 10
3.1541984063
 20
4.615153316
 30
0.0
 10
3.232382416
 20
4.6165390868
 30
0.0
 10
3.322831718
 20
4.6179299629
 30
0.0
 10
3.4247397087
 20
4.6193248071
 30
0.0
 10
3.5371988162
 20
4.6207220122
 30
0.0
 10
3.6592084441
 20
4.6221210764
 30
0.0
 10
3.7896802083
 20
4.6235212867
 30
0.0
 10
3.9274518148
 20
4.6249224852
 30
0.0
 10
4.122144093
 20
4.6268196634
 30
0.0
 10
4.374133394
 20
4.6291575047
 30
0.0
 10
4.6296184343
 20
4.6314658443
 30
0.0
 10
4.8354716257
 20
4.6333372359
 30
0.0
 10
4.9877491606
 20
4.6347398021
 30
0.0
 10
5.1366499954
 20
4.636142052
 30
0.0
 10
5.2808478863
 20
4.6375438812
 30
0.0
 10
5.4190581279
 20
4.6389451038
 30
0.0
 10
5.5500479212
 20
4.6403454127
 30
0.0
 10
5.6726499644
 20
4.641744563
 30
0.0
 10
5.7857697561
 20
4.6431420011
 30
0.0
 10
5.8736452326
 20
4.644336221
 30
0.0
 10
5.9384562377
 20
4.645300576
 30
0.0
 10
5.9826900712
 20
4.6460027482
 30
0.0
 10
6.023861964
 20
4.6467045053
 30
0.0
 10
6.0618800721
 20
4.6474057395
 30
0.0
 10
6.0966590008
 20
4.6481064499
 30
0.0
 10
6.1281214433
 20
4.6488063671
 30
0.0
 10
6.1561977423
 20
4.6495049276
 30
0.0
 10
6.1808244136
 20
4.650201931
 30
0.0
 10
6.1991637809
 20
4.6508044292
 30
0.0
 10
6.2120696079
 20
4.6512940632
 30
0.0
 10
6.2204135893
 20
4.6516442693
 30
0.0
 10
6.2278596098
 20
4.6519939267
 30
0.0
 10
6.2344028005
 20
4.652342905
 30
0.0
 10
6.2400393321
 20
4.6526907505
 30
0.0
 10
6.2447664369
 20
4.6530372011
 30
0.0
 10
6.2481354096
 20
4.6533394678
 30
0.0
 10
6.2503732613
 20
4.6535885745
 30
0.0
 10
6.251710621
 20
4.6537623385
 30
0.0
 10
6.2528193896
 20
4.6539352396
 30
0.0
 10
6.253701067
 20
4.6541060919
 30
0.0
 10
6.2543541238
 20
4.6542750627
 30
0.0
 10
6.2547102042
 20
4.6544067522
 30
0.0
 10
6.2548418922
 20
4.654482563
 30
0.0
  0
SPLINE
  5
372
100
AcDbEntity
  8
0
100
AcDbSpline
 62
7
  6
CONTINUOUS
 70
0
 71
3
 72
62
 73
58
 74
0
 42
0.0000001
 43
0.0000001
 44
0.0000000001
 40
0.0
 40
0.0
 40
0.0
 40
0.0
 40
0.0001414557
 40
0.0003513113
 40
0.0006313635
 40
0.0009822905
 40
0.0014043946
 40
0.0018978174
 40
0.0030988054
 40
0.0045853487
 40
0.0063572108
 40
0.0084137818
 40
0.0107536834
 40
0.0133753742
 40
0.01627729
 40
0.0229154649
 40
0.0306548163
 40
0.0394766823
 40
0.0493599379
 40
0.0602832415
 40
0.0722214497
 40
0.0851457627
 40
0.0990272081
 40
0.1138346189
 40
0.1460848312
 40
0.1816009556
 40
0.2200539
 40
0.2610903708
 40
0.3043320043
 40
0.3493796835
 40
0.3958190948
 40
0.4432214281
 40
0.4911502444
 40
0.5391635164
 40
0.5868189147
 40
0.6336770072
 40
0.6793058842
 40
0.723285478
 40
0.7652093904
 40
0.804692502
 40
0.8413700058
 40
0.8749039356
 40
0.9049864095
 40
0.9313382502
 40
0.9430392317
 40
0.9537188084
 40
0.9633531862
 40
0.9719211767
 40
0.9794017766
 40
0.9857777416
 40
0.9910361379
 40
0.9932423382
 40
0.9951644998
 40
0.9968015706
 40
0.9981531884
 40
0.9992192229
 40
1.0
 40
1.0
 40
1.0
 40
1.0
 10
2.9627488889
 20
4.5299518417
 30
0.0
 10
2.9628833575
 20
4.5300292516
 30
0.0
 10
2.9632483346
 20
4.5301631605
 30
0.0
 10
2.9639184731
 20
4.5303349316
 30
0.0
 10
2.9648251741
 20
4.5305086086
 30
0.0
 10
2.9659667483
 20
4.5306844347
 30
0.0
 10
2.9673447809
 20
4.5308611407
 30
0.0
 10
2.9696525044
 20
4.5311145398
 30
0.0
 10
2.9731283667
 20
4.5314219586
 30
0.0
 10
2.9780071174
 20
4.5317742917
 30
0.0
 10
2.9838263114
 20
4.5321280365
 30
0.0
 10
2.9905828973
 20
4.5324829414
 30
0.0
 10
2.9982727211
 20
4.532838544
 30
0.0
 10
3.0068906241
 20
4.5331947052
 30
0.0
 10
3.0202212262
 20
4.5336926791
 30
0.0
 10
3.0391647001
 20
4.5343054161
 30
0.0
 10
3.0646015555
 20
4.5350142489
 30
0.0
 10
3.093599001
 20
4.535724719
 30
0.0
 10
3.126089711
 20
4.5364365604
 30
0.0
 10
3.1619993585
 20
4.5371491584
 30
0.0
 10
3.2012452296
 20
4.5378623482
 30
0.0
 10
3.2437362745
 20
4.5385760848
 30
0.0
 10
3.2893748614
 20
4.5392902108
 30
0.0
 10
3.3562098074
 20
4.5402708206
 30
0.0
 10
3.4467742258
 20
4.5414851645
 30
0.0
 10
3.5632741363
 20
4.5429063384
 30
0.0
 10
3.6894120532
 20
4.544329226
 30
0.0
 10
3.8240243223
 20
4.5457533265
 30
0.0
 10
3.9658705192
 20
4.5471782957
 30
0.0
 10
4.1136433085
 20
4.5486039282
 30
0.0
 10
4.2659800383
 20
4.5500299567
 30
0.0
 10
4.421477128
 20
4.5514562967
 30
0.0
 10
4.5787006058
 20
4.5528827629
 30
0.0
 10
4.7362016736
 20
4.5543092648
 30
0.0
 10
4.892528251
 20
4.5557356596
 30
0.0
 10
5.0462393533
 20
4.5571618287
 30
0.0
 10
5.1959184086
 20
4.5585876411
 30
0.0
 10
5.3401850714
 20
4.5600128622
 30
0.0
 10
5.4777103041
 20
4.5614373693
 30
0.0
 10
5.6072256669
 20
4.5628607348
 30
0.0
 10
5.7275377486
 20
4.5642826308
 30
0.0
 10
5.8375378231
 20
4.5657023468
 30
0.0
 10
5.9362110048
 20
4.5671190728
 30
0.0
 10
6.0109365756
 20
4.5683390368
 30
0.0
 10
6.0643804427
 20
4.5693294851
 30
0.0
 10
6.099489403
 20
4.5700419925
 30
0.0
 10
6.1311611324
 20
4.5707535345
 30
0.0
 10
6.1593230538
 20
4.5714637047
 30
0.0
 10
6.1839097238
 20
4.5721717629
 30
0.0
 10
6.2048645203
 20
4.57287744
 30
0.0
 10
6.2200336111
 20
4.5734913806
 30
0.0
 10
6.2303173759
 20
4.5739951023
 30
0.0
 10
6.2366314429
 20
4.574349542
 30
0.0
 10
6.2420064615
 20
4.5747027877
 30
0.0
 10
6.2464404547
 20
4.5750532404
 30
0.0
 10
6.2499314582
 20
4.5754007955
 30
0.0
 10
6.251940985
 20
4.5756653931
 30
0.0
 10
6.2527848604
 20
4.575811379
 30
0.0
  0
SPLINE
  5
373
100
AcDbEntity
  8
0
100
AcDbSpline
 62
7
  6
CONTINUOUS
 70
0
 71
3
 72
13
 73
9
 74
0
 42
0.0000001
 43
0.0000001
 44
0.0000000001
 40
0.0
 40
0.0
 40
0.0
 40
0.0
 40
0.4113244373
 40
0.5748471681
 40
0.7106186473
 40
0.8191731053
 40
0.9015913869
 40
1.0
 40
1.0
 40
1.0
 40
1.0
 10
6.2527848604
 20
4.575811379
 30
0.0
 10
6.2531158336
 20
4.5758686356
 30
0.0
 10
6.2535771824
 20
4.5759559123
 30
0.0
 10
6.2541410918
 20
4.5760957262
 30
0.0
 10
6.2544592694
 20
4.576190784
 30
0.0
 10
6.2547114306
 20
4.5762884519
 30
0.0
 10
6.2549142543
 20
4.5763912863
 30
0.0
 10
6.255045388
 20
4.5765122673
 30
0.0
 10
6.255045388
 20
4.5765926281
 30
0.0
  0
SPLINE
  5
374
100
AcDbEntity
  8
0
100
AcDbSpline
 62
7
  6
CONTINUOUS
 70
0
 71
3
 72
15
 73
11
 74
0
 42
0.0000001
 43
0.0000001
 44
0.0000000001
 40
0.0
 40
0.0
 40
0.0
 40
0.0
 40
0.0268102295
 40
0.0488056997
 40
0.0776333932
 40
0.1136012541
 40
0.1568631721
 40
0.2655675289
 40
0.5726525018
 40
1.0
 40
1.0
 40
1.0
 40
1.0
 10
2.962545388
 20
4.7015917766
 30
0.0
 10
2.962545388
 20
4.7016671122
 30
0.0
 10
2.9626621496
 20
4.701782431
 30
0.0
 10
2.9628482417
 20
4.701881496
 30
0.0
 10
2.9630769362
 20
4.7019745081
 30
0.0
 10
2.9633659239
 20
4.7020651734
 30
0.0
 10
2.9638775522
 20
4.7021983372
 30
0.0
 10
2.9651431758
 20
4.7024496342
 30
0.0
 10
2.9674928473
 20
4.702765557
 30
0.0
 10
2.9695461364
 20
4.7029721209
 30
0.0
 10
2.9707420237
 20
4.7030809414
 30
0.0
  0
SPLINE
  5
375
100
AcDbEntity
  8
0
100
AcDbSpline
 62
7
  6
CONTINUOUS
 70
0
 71
3
 72
23
 73
19
 74
0
 42
0.0000001
 43
0.0000001
 44
0.0000000001
 40
0.0
 40
0.0
 40
0.0
 40
0.0
 40
0.0060069035
 40
0.0139596454
 40
0.0238466097
 40
0.035651465
 40
0.0493574709
 40
0.0649466119
 40
0.1016699009
 40
0.1455959333
 40
0.1964572901
 40
0.2539431035
 40
0.3177015828
 40
0.3873444655
 40
0.4624455861
 40
0.6271596056
 40
0.8078123839
 40
1.0
 40
1.0
 40
1.0
 40
1.0
 10
2.9707420237
 20
4.7030809414
 30
0.0
 10
2.9732941198
 20
4.7033131708
 30
0.0
 10
2.9792348128
 20
4.7037424346
 30
0.0
 10
2.9893923611
 20
4.704310452
 30
0.0
 10
3.0020264768
 20
4.7048826297
 30
0.0
 10
3.0171168289
 20
4.7054584725
 30
0.0
 10
3.0346412879
 20
4.7060362098
 30
0.0
 10
3.0627939892
 20
4.7068534686
 30
0.0
 10
3.1038389052
 20
4.7078516209
 30
0.0
 10
3.1599317376
 20
4.7090011647
 30
0.0
 10
3.2248837266
 20
4.7101544547
 30
0.0
 10
3.298297651
 20
4.7113108456
 30
0.0
 10
3.3797249322
 20
4.7124691474
 30
0.0
 10
3.4686678509
 20
4.7136288981
 30
0.0
 10
3.6006779002
 20
4.7152261502
 30
0.0
 10
3.7800454543
 20
4.7171921991
 30
0.0
 10
4.0093631715
 20
4.719491865
 30
0.0
 10
4.1684157117
 20
4.7209934159
 30
0.0
 10
4.2504024596
 20
4.721754763
 30
0.0
  0
SPLINE
  5
376
100
AcDbEntity
  8
0
100
AcDbSpline
 62
7
  6
CONTINUOUS
 70
0
 71
3
 72
65
 73
61
 74
0
 42
0.0000001
 43
0.0000001
 44
0.0000000001
 40
0.0
 40
0.0
 40
0.0
 40
0.0
 40
0.0000674069
 40
0.000121081
 40
0.0001909231
 40
0.0002777695
 40
0.0003820494
 40
0.0006437747
 40
0.0013827864
 40
0.0024110604
 40
0.0037287322
 40
0.0053353368
 40
0.0072301777
 40
0.0094124498
 40
0.0118812907
 40
0.0146356595
 40
0.0176737469
 40
0.0209934894
 40
0.0284696364
 40
0.037047454
 40
0.046708544
 40
0.057428755
 40
0.0691827026
 40
0.0819446214
 40
0.0956842413
 40
0.1103682723
 40
0.1259633459
 40
0.1424338762
 40
0.1778412395
 40
0.2162615015
 40
0.257333802
 40
0.3006762624
 40
0.345883005
 40
0.392532169
 40
0.4401881899
 40
0.4884056159
 40
0.5367343981
 40
0.5847228771
 40
0.6319231757
 40
0.6778938056
 40
0.7222064584
 40
0.764445825
 40
0.8042188342
 40
0.8411531487
 40
0.8749037952
 40
0.9051568822
 40
0.9316276216
 40
0.9433674561
 40
0.9540718389
 40
0.9637155503
 40
0.9722778092
 40
0.9797381446
 40
0.9860776942
 40
0.9912836409
 40
0.9934580226
 40
0.9953448584
 40
0.9969428583
 40
0.9982511864
 40
0.9992699603
 40
1.0
 40
1.0
 40
1.0
 40
1.0
 10
3.0200728084
 20
3.7308797011
 30
0.0
 10
3.0200725994
 20
3.7309510703
 30
0.0
 10
3.0201748032
 20
3.7310628079
 30
0.0
 10
3.0203453241
 20
3.7311603937
 30
0.0
 10
3.0205516588
 20
3.7312504776
 30
0.0
 10
3.0208130224
 20
3.7313384715
 30
0.0
 10
3.021275329
 20
3.7314674478
 30
0.0
 10
3.0224202326
 20
3.731710966
 30
0.0
 10
3.0245482397
 20
3.7320169449
 30
0.0
 10
3.0277958343
 20
3.7323659462
 30
0.0
 10
3.0319663073
 20
3.7327178224
 30
0.0
 10
3.0370563963
 20
3.7330730032
 30
0.0
 10
3.0430637648
 20
3.7334294799
 30
0.0
 10
3.0499853368
 20
3.7337870392
 30
0.0
 10
3.0578180022
 20
3.7341452405
 30
0.0
 10
3.0665576097
 20
3.7345038754
 30
0.0
 10
3.076198807
 20
3.7348628887
 30
0.0
 10
3.0908375304
 20
3.7353619327
 30
0.0
 10
3.1113409531
 20
3.7359778585
 30
0.0
 10
3.1385583231
 20
3.7366927981
 30
0.0
 10
3.1692114797
 20
3.7374088085
 30
0.0
 10
3.2032282663
 20
3.7381259068
 30
0.0
 10
3.2405288096
 20
3.7388437575
 30
0.0
 10
3.2810267906
 20
3.7395620551
 30
0.0
 10
3.3246275439
 20
3.7402807499
 30
0.0
 10
3.3712283723
 20
3.7409998261
 30
0.0
 10
3.4207209666
 20
3.741719167
 30
0.0
 10
3.4921535775
 20
3.7427023383
 30
0.0
 10
3.5877521632
 20
3.7439218538
 30
0.0
 10
3.7093980744
 20
3.7453539123
 30
0.0
 10
3.8394460741
 20
3.7467873196
 30
0.0
 10
3.9766798984
 20
3.748221595
 30
0.0
 10
4.1198187224
 20
3.7496565738
 30
0.0
 10
4.2675248964
 20
3.7510920039
 30
0.0
 10
4.4184188807
 20
3.7525277234
 30
0.0
 10
4.5710912971
 20
3.7539636157
 30
0.0
 10
4.7241157304
 20
3.7553995239
 30
0.0
 10
4.8760631977
 20
3.7568353549
 30
0.0
 10
5.0255137784
 20
3.7582709314
 30
0.0
 10
5.1710722693
 20
3.7597061766
 30
0.0
 10
5.3113779429
 20
3.761140798
 30
0.0
 10
5.4451213189
 20
3.7625747046
 30
0.0
 10
5.5710521617
 20
3.7640074441
 30
0.0
 10
5.6879946723
 20
3.7654386773
 30
0.0
 10
5.7948568496
 20
3.7668676774
 30
0.0
 10
5.8906392989
 20
3.7682935985
 30
0.0
 10
5.9631172851
 20
3.7695218002
 30
0.0
 10
6.0148981296
 20
3.7705191954
 30
0.0
 10
6.0488648041
 20
3.7712362977
 30
0.0
 10
6.0794663103
 20
3.7719524609
 30
0.0
 10
6.1066320537
 20
3.7726672505
 30
0.0
 10
6.1302981237
 20
3.7733797196
 30
0.0
 10
6.1504087691
 20
3.7740897945
 30
0.0
 10
6.1649222789
 20
3.7747079538
 30
0.0
 10
6.1747211329
 20
3.775215611
 30
0.0
 10
6.180702523
 20
3.7755720513
 30
0.0
 10
6.1857650641
 20
3.7759271034
 30
0.0
 10
6.1899064159
 20
3.7762789361
 30
0.0
 10
6.1931243227
 20
3.7766277941
 30
0.0
 10
6.1949582194
 20
3.7768945756
 30
0.0
 10
6.1957165516
 20
3.7770442148
 30
0.0
  0
LINE
  5
377
100
AcDbEntity
  8
0
100
AcDbLine
 62
7
  6
CONTINUOUS
 10
6.1957165516
 20
3.7770442148
 11
6.1973078066
 21
3.7775120086
  0
SPLINE
  5
378
100
AcDbEntity
  8
0
100
AcDbSpline
 62
7
  6
CONTINUOUS
 70
0
 71
3
 72
13
 73
9
 74
0
 42
0.0000001
 43
0.0000001
 44
0.0000000001
 40
0.0
 40
0.0
 40
0.0
 40
0.0
 40
0.0515270774
 40
0.1233782025
 40
0.2161536271
 40
0.3301220513
 40
0.6221277884
 40
1.0
 40
1.0
 40
1.0
 40
1.0
 10
3.0202835744
 20
4.5631723947
 30
0.0
 10
3.0203866269
 20
4.5632319183
 30
0.0
 10
3.0206521444
 20
4.5633402639
 30
0.0
 10
3.0211311876
 20
4.563480562
 30
0.0
 10
3.0217593252
 20
4.5636222729
 30
0.0
 10
3.0228924297
 20
4.5638301637
 30
0.0
 10
3.0246864132
 20
4.5640786717
 30
0.0
 10
3.0262245138
 20
4.5642462886
 30
0.0
 10
3.0270929231
 20
4.564333127
 30
0.0
  0
SPLINE
  5
379
100
AcDbEntity
  8
0
100
AcDbSpline
 62
7
  6
CONTINUOUS
 70
0
 71
3
 72
62
 73
58
 74
0
 42
0.0000001
 43
0.0000001
 44
0.0000000001
 40
0.0
 40
0.0
 40
0.0
 40
0.0
 40
0.0012667565
 40
0.0028148036
 40
0.0067509976
 40
0.0118003155
 40
0.0179535415
 40
0.0251968616
 40
0.0335124768
 40
0.0428823922
 40
0.0532868278
 40
0.0770976397
 40
0.1047310931
 40
0.1359345049
 40
0.1704278478
 40
0.2078964072
 40
0.2480020191
 40
0.2903808733
 40
0.3346485897
 40
0.3804048547
 40
0.4272340862
 40
0.4747126993
 40
0.5224098556
 40
0.5698937957
 40
0.6167336601
 40
0.6625057785
 40
0.7067942927
 40
0.7491990051
 40
0.7893348057
 40
0.8268382342
 40
0.8613701957
 40
0.8774223104
 40
0.8926160964
 40
0.9069182144
 40
0.9202953887
 40
0.9327163641
 40
0.9441546309
 40
0.9545843692
 40
0.9639802939
 40
0.9723220433
 40
0.9795919782
 40
0.9828195302
 40
0.9857725834
 40
0.9884495363
 40
0.9908492865
 40
0.9929707691
 40
0.9948129528
 40
0.996374864
 40
0.9976556383
 40
0.9986546917
 40
0.9993726537
 40
0.9996271224
 40
0.9997285872
 40
0.9998131546
 40
0.9998812477
 40
0.9999336906
 40
1.0
 40
1.0
 40
1.0
 40
1.0
 10
3.0270929231
 20
4.564333127
 30
0.0
 10
3.0284252774
 20
4.5644663586
 30
0.0
 10
3.031389743
 20
4.5647231849
 30
0.0
 10
3.0385078
 20
4.5652308478
 30
0.0
 10
3.0496260944
 20
4.5658387101
 30
0.0
 10
3.065613191
 20
4.5665335605
 30
0.0
 10
3.0850986701
 20
4.5672320027
 30
0.0
 10
3.1080383848
 20
4.5679340749
 30
0.0
 10
3.1343795661
 20
4.5686380813
 30
0.0
 10
3.1640631413
 20
4.569343568
 30
0.0
 10
3.2101234159
 20
4.5703301848
 30
0.0
 10
3.2754882156
 20
4.5715418352
 30
0.0
 10
3.3628380493
 20
4.5729443184
 30
0.0
 10
3.4614808611
 20
4.5743505205
 30
0.0
 10
3.5705205739
 20
4.5757593027
 30
0.0
 10
3.6889708686
 20
4.5771699908
 30
0.0
 10
3.8157569144
 20
4.5785819198
 30
0.0
 10
3.9497302786
 20
4.5799947872
 30
0.0
 10
4.0896768589
 20
4.5814083491
 30
0.0
 10
4.234327846
 20
4.5828223393
 30
0.0
 10
4.382373
 20
4.5842366843
 30
0.0
 10
4.5324698239
 20
4.585651173
 30
0.0
 10
4.6832587238
 20
4.5870657488
 30
0.0
 10
4.8333724186
 20
4.5884802393
 30
0.0
 10
4.9814512017
 20
4.589894588
 30
0.0
 10
5.1261521719
 20
4.5913085793
 30
0.0
 10
5.2661648298
 20
4.5927221553
 30
0.0
 10
5.4002194255
 20
4.5941350238
 30
0.0
 10
5.5271015786
 20
4.5955469658
 30
0.0
 10
5.6456614673
 20
4.5969577161
 30
0.0
 10
5.7387648402
 20
4.5981591128
 30
0.0
 10
5.8082872445
 20
4.5991278206
 30
0.0
 10
5.8564276397
 20
4.5998363868
 30
0.0
 10
5.9017402249
 20
4.6005446278
 30
0.0
 10
5.9441214924
 20
4.6012525412
 30
0.0
 10
5.9834751382
 20
4.601960145
 30
0.0
 10
6.0197127257
 20
4.6026671826
 30
0.0
 10
6.0527520995
 20
4.6033734534
 30
0.0
 10
6.0825175664
 20
4.6040788404
 30
0.0
 10
6.1089420093
 20
4.6047830547
 30
0.0
 10
6.1288464772
 20
4.605389697
 30
0.0
 10
6.1430556151
 20
4.6058812613
 30
0.0
 10
6.1524116545
 20
4.6062349018
 30
0.0
 10
6.1608920129
 20
4.6065882043
 30
0.0
 10
6.1684925614
 20
4.6069410277
 30
0.0
 10
6.1752096978
 20
4.6072932093
 30
0.0
 10
6.181039934
 20
4.607644318
 30
0.0
 10
6.1859796655
 20
4.6079941442
 30
0.0
 10
6.1900260713
 20
4.6083406923
 30
0.0
 10
6.1931761166
 20
4.6086844816
 30
0.0
 10
6.1952397094
 20
4.6089860158
 30
0.0
 10
6.1963497932
 20
4.6092258373
 30
0.0
 10
6.1967982432
 20
4.609352844
 30
0.0
 10
6.1970519669
 20
4.6094395592
 30
0.0
 10
6.1972522884
 20
4.6095282624
 30
0.0
 10
6.1974184711
 20
4.6096247889
 30
0.0
 10
6.1975173183
 20
4.6097346111
 30
0.0
 10
6.1975173547
 20
4.6098047021
 30
0.0
  0
SPLINE
  5
37A
100
AcDbEntity
  8
0
100
AcDbSpline
 62
7
  6
CONTINUOUS
 70
0
 71
3
 72
16
 73
12
 74
0
 42
0.0000001
 43
0.0000001
 44
0.0000000001
 40
0.0
 40
0.0
 40
0.0
 40
0.0
 40
0.0262476353
 40
0.0480972201
 40
0.0768345793
 40
0.1127519494
 40
0.1559942501
 40
0.264732642
 40
0.4034014982
 40
0.5721365588
 40
1.0
 40
1.0
 40
1.0
 40
1.0
 10
2.962545388
 20
3.2953417766
 30
0.0
 10
2.962545388
 20
3.2954206113
 30
0.0
 10
2.9626721093
 20
3.2955399109
 30
0.0
 10
2.9628698476
 20
3.2956416129
 30
0.0
 10
2.9631148366
 20
3.2957378826
 30
0.0
 10
2.963424101
 20
3.2958316265
 30
0.0
 10
2.9639720517
 20
3.2959694074
 30
0.0
 10
2.9648295036
 20
3.2961343754
 30
0.0
 10
2.9660652905
 20
3.2963232061
 30
0.0
 10
2.9682566032
 20
3.2965983351
 30
0.0
 10
2.9700406067
 20
3.2967700374
 30
0.0
 10
2.9713207512
 20
3.2968826332
 30
0.0
  0
SPLINE
  5
37B
100
AcDbEntity
  8
0
100
AcDbSpline
 62
7
  6
CONTINUOUS
 70
0
 71
3
 72
28
 73
24
 74
0
 42
0.0000001
 43
0.0000001
 44
0.0000000001
 40
0.0
 40
0.0
 40
0.0
 40
0.0
 40
0.0024786199
 40
0.0055796505
 40
0.009301151
 40
0.013639215
 40
0.0241481585
 40
0.0370717642
 40
0.0523635376
 40
0.069966564
 40
0.0898205002
 40
0.1118512971
 40
0.1359807621
 40
0.1621228995
 40
0.2200574882
 40
0.2848205574
 40
0.3554784114
 40
0.4310101724
 40
0.5103268544
 40
0.5922866254
 40
0.6757097136
 40
0.8421199984
 40
1.0
 40
1.0
 40
1.0
 40
1.0
 10
2.9713207512
 20
3.2968826332
 30
0.0
 10
2.9732639455
 20
3.297053548
 30
0.0
 10
2.9776433979
 20
3.2973796305
 30
0.0
 10
2.9849503603
 20
3.2978194654
 30
0.0
 10
2.9937228412
 20
3.2982614674
 30
0.0
 10
3.0083228001
 20
3.2988941413
 30
0.0
 10
3.030165341
 20
3.2996619287
 30
0.0
 10
3.0606290968
 20
3.3005425857
 30
0.0
 10
3.0966778471
 20
3.3014269229
 30
0.0
 10
3.1381821357
 20
3.3023145414
 30
0.0
 10
3.1849911334
 20
3.3032037056
 30
0.0
 10
3.2369372944
 20
3.3040943233
 30
0.0
 10
3.2938329702
 20
3.3049859003
 30
0.0
 10
3.3789833242
 20
3.3062181652
 30
0.0
 10
3.4961117996
 20
3.3077375778
 30
0.0
 10
3.6482740535
 20
3.3095093023
 30
0.0
 10
3.8142862628
 20
3.3112840419
 30
0.0
 10
3.9917528766
 20
3.3130610474
 30
0.0
 10
4.1781146088
 20
3.3148394603
 30
0.0
 10
4.3706871491
 20
3.3166187782
 30
0.0
 10
4.6318006004
 20
3.3189897429
 30
0.0
 10
4.9526616129
 20
3.3218899041
 30
0.0
 10
5.2078695416
 20
3.324313182
 30
0.0
 10
5.3321162112
 20
3.3255667766
 30
0.0
  0
SPLINE
  5
37C
100
AcDbEntity
  8
0
100
AcDbSpline
 62
7
  6
CONTINUOUS
 70
0
 71
3
 72
65
 73
61
 74
0
 42
0.0000001
 43
0.0000001
 44
0.0000000001
 40
0.0
 40
0.0
 40
0.0
 40
0.0
 40
0.0000674419
 40
0.0001210888
 40
0.0001908302
 40
0.0002774865
 40
0.0003814762
 40
0.0006422836
 40
0.0013779482
 40
0.0024011725
 40
0.0037127432
 40
0.005312769
 40
0.0072004211
 40
0.0093744115
 40
0.0118333916
 40
0.0145759791
 40
0.017600771
 40
0.0209063506
 40
0.0283528051
 40
0.0368966305
 40
0.0465174456
 40
0.0571945902
 40
0.0689030962
 40
0.081614335
 40
0.0952995475
 40
0.1099280712
 40
0.1254643861
 40
0.1418722042
 40
0.1771514251
 40
0.2154355393
 40
0.2563706134
 40
0.2995745296
 40
0.3446461675
 40
0.3911664365
 40
0.4387022778
 40
0.4868121534
 40
0.5350482003
 40
0.5829622102
 40
0.6301081292
 40
0.6760482798
 40
0.7203542925
 40
0.7626154695
 40
0.8024377014
 40
0.8394511617
 40
0.8733122631
 40
0.9037044803
 40
0.9303478295
 40
0.9421833316
 40
0.9529920188
 40
0.9627487032
 40
0.9714290054
 40
0.9790140356
 40
0.985487269
 40
0.9908323946
 40
0.9930777892
 40
0.9950371398
 40
0.9967096349
 40
0.9980945545
 40
0.9991913671
 40
1.0
 40
1.0
 40
1.0
 40
1.0
 10
3.0200719392
 20
4.4808797038
 30
0.0
 10
3.0200722103
 20
4.4809510974
 30
0.0
 10
3.020174671
 20
4.4810622726
 30
0.0
 10
3.0203451251
 20
4.4811597743
 30
0.0
 10
3.0205511314
 20
4.4812496337
 30
0.0
 10
3.0208118556
 20
4.4813374571
 30
0.0
 10
3.0212726245
 20
4.4814661178
 30
0.0
 10
3.0224125181
 20
4.481709016
 30
0.0
 10
3.0245302593
 20
4.4820144503
 30
0.0
 10
3.0277619268
 20
4.4823627798
 30
0.0
 10
3.0319128989
 20
4.4827139404
 30
0.0
 10
3.0369810784
 20
4.4830682967
 30
0.0
 10
3.0429640709
 20
4.4834239485
 30
0.0
 10
3.0498576334
 20
4.4837806983
 30
0.0
 10
3.0576572677
 20
4.4841381058
 30
0.0
 10
3.0663583759
 20
4.4844960017
 30
0.0
 10
3.075956364
 20
4.4848542734
 30
0.0
 10
3.0905320536
 20
4.4853523077
 30
0.0
 10
3.1109495259
 20
4.4859667906
 30
0.0
 10
3.1380521406
 20
4.4866801025
 30
0.0
 10
3.1685757849
 20
4.4873947231
 30
0.0
 10
3.2024503623
 20
4.4881102498
 30
0.0
 10
3.2395971157
 20
4.4888264341
 30
0.0
 10
3.2799287456
 20
4.4895432318
 30
0.0
 10
3.3233519559
 20
4.4902604376
 30
0.0
 10
3.3697661734
 20
4.490977876
 30
0.0
 10
3.4190628647
 20
4.4916956378
 30
0.0
 10
3.490218887
 20
4.4926768315
 30
0.0
 10
3.5854547874
 20
4.4938935844
 30
0.0
 10
3.7066546278
 20
4.4953226923
 30
0.0
 10
3.8362440968
 20
4.4967529056
 30
0.0
 10
3.973019252
 20
4.4981841406
 30
0.0
 10
4.1157072079
 20
4.49961601
 30
0.0
 10
4.262981166
 20
4.5010483369
 30
0.0
 10
4.4134715539
 20
4.5024809841
 30
0.0
 10
4.5657783472
 20
4.503913769
 30
0.0
 10
4.7184854876
 20
4.5053466104
 30
0.0
 10
4.8701721377
 20
4.5067793392
 30
0.0
 10
5.0194282396
 20
4.5082118818
 30
0.0
 10
5.1648647329
 20
4.509644008
 30
0.0
 10
5.3051299752
 20
4.511075651
 30
0.0
 10
5.4389184341
 20
4.5125064653
 30
0.0
 10
5.5649865302
 20
4.5139362286
 30
0.0
 10
5.6821616969
 20
4.5153645363
 30
0.0
 10
5.7893534653
 20
4.5167905091
 30
0.0
 10
5.8855663774
 20
4.5182138303
 30
0.0
 10
5.9584632256
 20
4.5194388979
 30
0.0
 10
6.0106296519
 20
4.520433781
 30
0.0
 10
6.0449218383
 20
4.5211494739
 30
0.0
 10
6.0758731533
 20
4.5218640817
 30
0.0
 10
6.1034109145
 20
4.5225775933
 30
0.0
 10
6.1274715714
 20
4.5232890604
 30
0.0
 10
6.1479998869
 20
4.5239979143
 30
0.0
 10
6.1628752691
 20
4.5246145718
 30
0.0
 10
6.1729721772
 20
4.5251204131
 30
0.0
 10
6.1791837245
 20
4.5254764796
 30
0.0
 10
6.1844826798
 20
4.525831271
 30
0.0
 10
6.1888665471
 20
4.5261833792
 30
0.0
 10
6.192332205
 20
4.5265326475
 30
0.0
 10
6.1943328781
 20
4.5267981985
 30
0.0
 10
6.1951763756
 20
4.5269440859
 30
0.0
  0
LINE
  5
37D
100
AcDbEntity
  8
0
100
AcDbLine
 62
7
  6
CONTINUOUS
 10
6.1951763756
 20
4.5269440859
 11
6.1973086909
 21
4.5275120113
  0
SPLINE
  5
37E
100
AcDbEntity
  8
0
100
AcDbSpline
 62
7
  6
CONTINUOUS
 70
0
 71
3
 72
25
 73
21
 74
0
 42
0.0000001
 43
0.0000001
 44
0.0000000001
 40
0.0
 40
0.0
 40
0.0
 40
0.0
 40
0.0624998996
 40
0.1249998611
 40
0.1874997598
 40
0.2499996757
 40
0.3124996096
 40
0.3749995723
 40
0.4374995599
 40
0.4687497681
 40
0.500000001
 40
0.5312502341
 40
0.5625004423
 40
0.6250004301
 40
0.6875003925
 40
0.7500003256
 40
0.8125002408
 40
0.8750001391
 40
0.9375001003
 40
1.0
 40
1.0
 40
1.0
 40
1.0
 10
6.843795388
 20
4.9756484107
 30
0.0
 10
6.7508651252
 20
4.9676813028
 30
0.0
 10
6.5649618669
 20
4.9522379266
 30
0.0
 10
6.2859641652
 20
4.93085691
 30
0.0
 10
6.0068092034
 20
4.9116216529
 30
0.0
 10
5.7274881566
 20
4.8949499064
 30
0.0
 10
5.4480014159
 20
4.8812973945
 30
0.0
 10
5.1683648883
 20
4.8711212407
 30
0.0
 10
4.9352364356
 20
4.8658778925
 30
0.0
 10
4.7487037275
 20
4.8637589279
 30
0.0
 10
4.6087953831
 20
4.8632297898
 30
0.0
 10
4.4688870388
 20
4.8637589371
 30
0.0
 10
4.2823543299
 20
4.8658778796
 30
0.0
 10
4.0492258776
 20
4.871121238
 30
0.0
 10
3.7695893515
 20
4.8812973954
 30
0.0
 10
3.4901026136
 20
4.8949499081
 30
0.0
 10
3.2107815694
 20
4.9116216516
 30
0.0
 10
2.9316266098
 20
4.9308569121
 30
0.0
 10
2.6526289088
 20
4.9522379257
 30
0.0
 10
2.4667256508
 20
4.9676813028
 30
0.0
 10
2.373795388
 20
4.9756484107
 30
0.0
  0
SPLINE
  5
37F
100
AcDbEntity
  8
0
100
AcDbSpline
 62
7
  6
CONTINUOUS
 70
0
 71
3
 72
62
 73
58
 74
0
 42
0.0000001
 43
0.0000001
 44
0.0000000001
 40
0.0
 40
0.0
 40
0.0
 40
0.0
 40
0.0001414557
 40
0.0003513113
 40
0.0006313635
 40
0.0009822905
 40
0.0014043946
 40
0.0018978174
 40
0.0030988054
 40
0.0045853487
 40
0.0063572108
 40
0.0084137818
 40
0.0107536834
 40
0.0133753742
 40
0.01627729
 40
0.0229154649
 40
0.0306548163
 40
0.0394766823
 40
0.0493599379
 40
0.0602832415
 40
0.0722214497
 40
0.0851457627
 40
0.0990272081
 40
0.1138346189
 40
0.1460848312
 40
0.1816009556
 40
0.2200539
 40
0.2610903708
 40
0.3043320043
 40
0.3493796835
 40
0.3958190948
 40
0.4432214281
 40
0.4911502444
 40
0.5391635164
 40
0.5868189147
 40
0.6336770072
 40
0.6793058842
 40
0.723285478
 40
0.7652093904
 40
0.804692502
 40
0.8413700058
 40
0.8749039356
 40
0.9049864095
 40
0.9313382502
 40
0.9430392317
 40
0.9537188084
 40
0.9633531862
 40
0.9719211767
 40
0.9794017766
 40
0.9857777416
 40
0.9910361379
 40
0.9932423382
 40
0.9951644998
 40
0.9968015706
 40
0.9981531884
 40
0.9992192229
 40
1.0
 40
1.0
 40
1.0
 40
1.0
 10
2.9627488889
 20
4.2487018417
 30
0.0
 10
2.9628833575
 20
4.2487792516
 30
0.0
 10
2.9632483346
 20
4.2489131605
 30
0.0
 10
2.9639184731
 20
4.2490849316
 30
0.0
 10
2.9648251741
 20
4.2492586086
 30
0.0
 10
2.9659667483
 20
4.2494344347
 30
0.0
 10
2.9673447809
 20
4.2496111407
 30
0.0
 10
2.9696525044
 20
4.2498645398
 30
0.0
 10
2.9731283667
 20
4.2501719586
 30
0.0
 10
2.9780071174
 20
4.2505242917
 30
0.0
 10
2.9838263114
 20
4.2508780365
 30
0.0
 10
2.9905828973
 20
4.2512329414
 30
0.0
 10
2.9982727211
 20
4.251588544
 30
0.0
 10
3.0068906241
 20
4.2519447052
 30
0.0
 10
3.0202212262
 20
4.2524426791
 30
0.0
 10
3.0391647001
 20
4.2530554161
 30
0.0
 10
3.0646015555
 20
4.2537642489
 30
0.0
 10
3.093599001
 20
4.254474719
 30
0.0
 10
3.126089711
 20
4.2551865604
 30
0.0
 10
3.1619993585
 20
4.2558991584
 30
0.0
 10
3.2012452296
 20
4.2566123482
 30
0.0
 10
3.2437362745
 20
4.2573260848
 30
0.0
 10
3.2893748614
 20
4.2580402108
 30
0.0
 10
3.3562098074
 20
4.2590208206
 30
0.0
 10
3.4467742258
 20
4.2602351645
 30
0.0
 10
3.5632741363
 20
4.2616563384
 30
0.0
 10
3.6894120532
 20
4.263079226
 30
0.0
 10
3.8240243223
 20
4.2645033265
 30
0.0
 10
3.9658705192
 20
4.2659282957
 30
0.0
 10
4.1136433085
 20
4.2673539282
 30
0.0
 10
4.2659800383
 20
4.2687799567
 30
0.0
 10
4.421477128
 20
4.2702062967
 30
0.0
 10
4.5787006058
 20
4.2716327629
 30
0.0
 10
4.7362016736
 20
4.2730592648
 30
0.0
 10
4.892528251
 20
4.2744856596
 30
0.0
 10
5.0462393533
 20
4.2759118287
 30
0.0
 10
5.1959184086
 20
4.2773376411
 30
0.0
 10
5.3401850714
 20
4.2787628622
 30
0.0
 10
5.4777103041
 20
4.2801873693
 30
0.0
 10
5.6072256669
 20
4.2816107348
 30
0.0
 10
5.7275377486
 20
4.2830326308
 30
0.0
 10
5.8375378231
 20
4.2844523468
 30
0.0
 10
5.9362110048
 20
4.2858690728
 30
0.0
 10
6.0109365756
 20
4.2870890368
 30
0.0
 10
6.0643804427
 20
4.2880794851
 30
0.0
 10
6.099489403
 20
4.2887919925
 30
0.0
 10
6.1311611324
 20
4.2895035345
 30
0.0
 10
6.1593230538
 20
4.2902137047
 30
0.0
 10
6.1839097238
 20
4.2909217629
 30
0.0
 10
6.2048645203
 20
4.29162744
 30
0.0
 10
6.2200336111
 20
4.2922413806
 30
0.0
 10
6.2303173759
 20
4.2927451023
 30
0.0
 10
6.2366314429
 20
4.293099542
 30
0.0
 10
6.2420064615
 20
4.2934527877
 30
0.0
 10
6.2464404547
 20
4.2938032404
 30
0.0
 10
6.2499314582
 20
4.2941507955
 30
0.0
 10
6.251940985
 20
4.2944153931
 30
0.0
 10
6.2527848604
 20
4.294561379
 30
0.0
  0
SPLINE
  5
380
100
AcDbEntity
  8
0
100
AcDbSpline
 62
7
  6
CONTINUOUS
 70
0
 71
3
 72
13
 73
9
 74
0
 42
0.0000001
 43
0.0000001
 44
0.0000000001
 40
0.0
 40
0.0
 40
0.0
 40
0.0
 40
0.4113244373
 40
0.5748471681
 40
0.7106186473
 40
0.8191731053
 40
0.9015913869
 40
1.0
 40
1.0
 40
1.0
 40
1.0
 10
6.2527848604
 20
4.294561379
 30
0.0
 10
6.2531158336
 20
4.2946186356
 30
0.0
 10
6.2535771824
 20
4.2947059123
 30
0.0
 10
6.2541410918
 20
4.2948457262
 30
0.0
 10
6.2544592694
 20
4.294940784
 30
0.0
 10
6.2547114306
 20
4.2950384519
 30
0.0
 10
6.2549142543
 20
4.2951412863
 30
0.0
 10
6.255045388
 20
4.2952622673
 30
0.0
 10
6.255045388
 20
4.2953426281
 30
0.0
  0
SPLINE
  5
381
100
AcDbEntity
  8
0
100
AcDbSpline
 62
7
  6
CONTINUOUS
 70
0
 71
3
 72
10
 73
6
 74
0
 42
0.0000001
 43
0.0000001
 44
0.0000000001
 40
0.0
 40
0.0
 40
0.0
 40
0.0
 40
0.1946401178
 40
0.4282003267
 40
1.0
 40
1.0
 40
1.0
 40
1.0
 10
2.8654802329
 20
4.8945589318
 30
0.0
 10
2.8641812587
 20
4.8944257592
 30
0.0
 10
2.8613151888
 20
4.8942151359
 30
0.0
 10
2.8546110422
 20
4.8939517217
 30
0.0
 10
2.8492058281
 20
4.8939536566
 30
0.0
 10
2.8453701616
 20
4.8940067933
 30
0.0
  0
SPLINE
  5
382
100
AcDbEntity
  8
0
100
AcDbSpline
 62
7
  6
CONTINUOUS
 70
0
 71
3
 72
22
 73
18
 74
0
 42
0.0000001
 43
0.0000001
 44
0.0000000001
 40
0.0
 40
0.0
 40
0.0
 40
0.0
 40
0.1949212814
 40
0.3807756999
 40
0.5511224844
 40
0.7001506883
 40
0.7649987958
 40
0.8226744922
 40
0.8727122343
 40
0.9146685509
 40
0.9325171051
 40
0.948253674
 40
0.9618694643
 40
0.9733688387
 40
0.9827814801
 40
0.9901911545
 40
1.0
 40
1.0
 40
1.0
 40
1.0
 10
2.7914308933
 20
4.8971759373
 30
0.0
 10
2.7866723727
 20
4.8976170845
 30
0.0
 10
2.7773832977
 20
4.8985521744
 30
0.0
 10
2.7639626482
 20
4.9001264955
 30
0.0
 10
2.751688443
 20
4.9017982325
 30
0.0
 10
2.7423839231
 20
4.9032776944
 30
0.0
 10
2.7358361987
 20
4.9044845368
 30
0.0
 10
2.7316911112
 20
4.9053333333
 30
0.0
 10
2.7281155226
 20
4.906159972
 30
0.0
 10
2.7255129898
 20
4.9068559001
 30
0.0
 10
2.7237444368
 20
4.9074068821
 30
0.0
 10
2.7226514639
 20
4.9077874404
 30
0.0
 10
2.7217199104
 20
4.9081578926
 30
0.0
 10
2.7209531997
 20
4.9085144429
 30
0.0
 10
2.720346675
 20
4.9088643623
 30
0.0
 10
2.7198329138
 20
4.9092462454
 30
0.0
 10
2.7195462605
 20
4.9096332857
 30
0.0
 10
2.7195469935
 20
4.90987377
 30
0.0
  0
SPLINE
  5
383
100
AcDbEntity
  8
0
100
AcDbSpline
 62
7
  6
CONTINUOUS
 70
0
 71
3
 72
12
 73
8
 74
0
 42
0.0000001
 43
0.0000001
 44
0.0000000001
 40
0.0
 40
0.0
 40
0.0
 40
0.0
 40
0.0997118907
 40
0.2108249072
 40
0.458428854
 40
0.7269385477
 40
1.0
 40
1.0
 40
1.0
 40
1.0
 10
6.4447143299
 20
4.9009228817
 30
0.0
 10
6.442893009
 20
4.9005976243
 30
0.0
 10
6.4390336401
 20
4.8999571831
 30
0.0
 10
6.4306190958
 20
4.8987108794
 30
0.0
 10
6.4190704079
 20
4.8972594742
 30
0.0
 10
6.4045040316
 20
4.8957548886
 30
0.0
 10
6.394488834
 20
4.8949238052
 30
0.0
 10
6.3894353847
 20
4.8945589318
 30
0.0
  0
SPLINE
  5
384
100
AcDbEntity
  8
0
100
AcDbSpline
 62
7
  6
CONTINUOUS
 70
0
 71
3
 72
16
 73
12
 74
0
 42
0.0000001
 43
0.0000001
 44
0.0000000001
 40
0.0
 40
0.0
 40
0.0
 40
0.0
 40
0.0266961815
 40
0.0486615747
 40
0.0774702702
 40
0.1134270412
 40
0.1566839539
 40
0.2653925957
 40
0.403969039
 40
0.5725594035
 40
1.0
 40
1.0
 40
1.0
 40
1.0
 10
2.962545388
 20
3.6703417766
 30
0.0
 10
2.962545388
 20
3.6704177906
 30
0.0
 10
2.9626640638
 20
3.6705338947
 30
0.0
 10
2.9628524126
 20
3.6706334754
 30
0.0
 10
2.9630842502
 20
3.6707271241
 30
0.0
 10
2.9633771509
 20
3.670818396
 30
0.0
 10
2.9638957949
 20
3.6709524322
 30
0.0
 10
2.9647076013
 20
3.6711129741
 30
0.0
 10
2.9658776476
 20
3.6712967159
 30
0.0
 10
2.9679523001
 20
3.6715644168
 30
0.0
 10
2.9696415423
 20
3.6717314946
 30
0.0
 10
2.9708536843
 20
3.6718410534
 30
0.0
  0
SPLINE
  5
385
100
AcDbEntity
  8
0
100
AcDbSpline
 62
7
  6
CONTINUOUS
 70
0
 71
3
 72
20
 73
16
 74
0
 42
0.0000001
 43
0.0000001
 44
0.0000000001
 40
0.0
 40
0.0
 40
0.0
 40
0.0
 40
0.0075137747
 40
0.0166886165
 40
0.0400048767
 40
0.0698867168
 40
0.1062602136
 40
0.1490420976
 40
0.1981161625
 40
0.2533578939
 40
0.3146345667
 40
0.4546171449
 40
0.6166348689
 40
0.799097268
 40
1.0
 40
1.0
 40
1.0
 40
1.0
 10
2.9708536843
 20
3.6718410534
 30
0.0
 10
2.9724188426
 20
3.6719825195
 30
0.0
 10
2.9758988839
 20
3.6722553981
 30
0.0
 10
2.9842488009
 20
3.6727948032
 30
0.0
 10
2.9972789803
 20
3.6734403407
 30
0.0
 10
3.015998817
 20
3.6741783178
 30
0.0
 10
3.0387925106
 20
3.6749203055
 30
0.0
 10
3.0656019404
 20
3.6756660334
 30
0.0
 10
3.096359019
 20
3.6764138276
 30
0.0
 10
3.1309853217
 20
3.6771632421
 30
0.0
 10
3.1846234186
 20
3.6782105921
 30
0.0
 10
3.2605935976
 20
3.679496716
 30
0.0
 10
3.3619101645
 20
3.6809863716
 30
0.0
 10
3.4759696123
 20
3.6824795594
 30
0.0
 10
3.5561464178
 20
3.68343435
 30
0.0
 10
3.5981633237
 20
3.6839167766
 30
0.0
  0
SPLINE
  5
386
100
AcDbEntity
  8
0
100
AcDbSpline
 62
7
  6
CONTINUOUS
 70
0
 71
3
 72
11
 73
7
 74
0
 42
0.0000001
 43
0.0000001
 44
0.0000000001
 40
0.0
 40
0.0
 40
0.0
 40
0.0
 40
0.1920637417
 40
0.4271046416
 40
0.6990622
 40
1.0
 40
1.0
 40
1.0
 40
1.0
 10
6.4706720413
 20
4.9052118075
 30
0.0
 10
6.4690335775
 20
4.9048183418
 30
0.0
 10
6.4653647206
 20
4.9040495416
 30
0.0
 10
6.4593245953
 20
4.9029826832
 30
0.0
 10
6.4523163311
 20
4.9019164966
 30
0.0
 10
6.4473339918
 20
4.9012518587
 30
0.0
 10
6.4447143299
 20
4.9009228817
 30
0.0
  0
SPLINE
  5
387
100
AcDbEntity
  8
0
100
AcDbSpline
 62
7
  6
CONTINUOUS
 70
0
 71
3
 72
12
 73
8
 74
0
 42
0.0000001
 43
0.0000001
 44
0.0000000001
 40
0.0
 40
0.0
 40
0.0
 40
0.0
 40
0.0562387515
 40
0.131481232
 40
0.3409107028
 40
0.6302439897
 40
1.0
 40
1.0
 40
1.0
 40
1.0
 10
3.0202807006
 20
4.2819223943
 30
0.0
 10
3.0203637754
 20
4.2819704192
 30
0.0
 10
3.0205705781
 20
4.2820601911
 30
0.0
 10
3.0211249821
 20
4.2822368448
 30
0.0
 10
3.0220845023
 20
4.282442135
 30
0.0
 10
3.023547586
 20
4.2826765671
 30
0.0
 10
3.0246637269
 20
4.2828166348
 30
0.0
 10
3.025290425
 20
4.2828892926
 30
0.0
  0
SPLINE
  5
388
100
AcDbEntity
  8
0
100
AcDbSpline
 62
7
  6
CONTINUOUS
 70
0
 71
3
 72
63
 73
59
 74
0
 42
0.0000001
 43
0.0000001
 44
0.0000000001
 40
0.0
 40
0.0
 40
0.0
 40
0.0
 40
0.0011179313
 40
0.0025190787
 40
0.0042030894
 40
0.0061694417
 40
0.0109461668
 40
0.0168382271
 40
0.0238312073
 40
0.0319104913
 40
0.0410586387
 40
0.0512530621
 40
0.0746873083
 40
0.1020005234
 40
0.1329435452
 40
0.1672322604
 40
0.2045555118
 40
0.244570031
 40
0.2869118466
 40
0.3311930014
 40
0.3770090919
 40
0.4239416067
 40
0.4715611937
 40
0.5194330225
 40
0.5671192703
 40
0.6141844126
 40
0.6601978009
 40
0.7047397936
 40
0.7474019751
 40
0.7877960059
 40
0.8255513686
 40
0.8603237915
 40
0.8764907758
 40
0.8917958508
 40
0.9062026663
 40
0.919678528
 40
0.9321939684
 40
0.9437196388
 40
0.954228002
 40
0.9636967623
 40
0.9721045882
 40
0.9794306082
 40
0.9826827787
 40
0.9856589321
 40
0.9883575003
 40
0.9907769289
 40
0.9929156843
 40
0.9947722846
 40
0.9963458078
 40
0.997636002
 40
0.9986428762
 40
0.999367032
 40
0.9996238425
 40
0.9997262628
 40
0.9998116315
 40
0.9998803637
 40
0.9999332749
 40
1.0
 40
1.0
 40
1.0
 40
1.0
 10
3.025290425
 20
4.2828892926
 30
0.0
 10
3.0264649208
 20
4.2830254607
 30
0.0
 10
3.0291168737
 20
4.2832850551
 30
0.0
 10
3.0335485111
 20
4.2836350318
 30
0.0
 10
3.0388796931
 20
4.2839868747
 30
0.0
 10
3.0477782855
 20
4.2844910255
 30
0.0
 10
3.0611279807
 20
4.2851024131
 30
0.0
 10
3.079794608
 20
4.2858035429
 30
0.0
 10
3.1019561229
 20
4.286507715
 30
0.0
 10
3.127562772
 20
4.2872143232
 30
0.0
 10
3.1565564734
 20
4.2879223069
 30
0.0
 10
3.2017878716
 20
4.2889145414
 30
0.0
 10
3.266230765
 20
4.2901315828
 30
0.0
 10
3.3526180353
 20
4.2915394997
 30
0.0
 10
3.4504866534
 20
4.2929510449
 30
0.0
 10
3.5589431653
 20
4.2943656513
 30
0.0
 10
3.676994729
 20
4.2957819897
 30
0.0
 10
3.8035640794
 20
4.2971998228
 30
0.0
 10
3.9374927729
 20
4.2986185444
 30
0.0
 10
4.0775577284
 20
4.3000380097
 30
0.0
 10
4.2224782012
 20
4.3014579604
 30
0.0
 10
4.3709296771
 20
4.302878229
 30
0.0
 10
4.5215554685
 20
4.3042987073
 30
0.0
 10
4.6729784686
 20
4.3057192366
 30
0.0
 10
4.8238150434
 20
4.3071397327
 30
0.0
 10
4.9726859813
 20
4.3085600334
 30
0.0
 10
5.1182312946
 20
4.3099800658
 30
0.0
 10
5.2591196618
 20
4.3113995705
 30
0.0
 10
5.3940644951
 20
4.3128184929
 30
0.0
 10
5.5218311498
 20
4.3142363846
 30
0.0
 10
5.6412527898
 20
4.3156531264
 30
0.0
 10
5.7350517209
 20
4.3168595708
 30
0.0
 10
5.8051074347
 20
4.3178323765
 30
0.0
 10
5.8536253129
 20
4.3185438857
 30
0.0
 10
5.8992966466
 20
4.3192551675
 30
0.0
 10
5.9420171902
 20
4.319966177
 30
0.0
 10
5.9816900917
 20
4.3206767219
 30
0.0
 10
6.0182239329
 20
4.3213867021
 30
0.0
 10
6.0515348499
 20
4.3220961202
 30
0.0
 10
6.0815474332
 20
4.3228045091
 30
0.0
 10
6.1081932464
 20
4.3235115643
 30
0.0
 10
6.1282643508
 20
4.3241208409
 30
0.0
 10
6.1425914093
 20
4.3246145719
 30
0.0
 10
6.1520261369
 20
4.3249697312
 30
0.0
 10
6.1605794605
 20
4.3253245159
 30
0.0
 10
6.1682463093
 20
4.3256788136
 30
0.0
 10
6.1750216282
 20
4.3260324482
 30
0.0
 10
6.1809010053
 20
4.3263850352
 30
0.0
 10
6.1858810555
 20
4.3267364016
 30
0.0
 10
6.1899602866
 20
4.3270845273
 30
0.0
 10
6.1931369199
 20
4.327429838
 30
0.0
 10
6.1952190167
 20
4.327732618
 30
0.0
 10
6.1963398183
 20
4.3279733854
 30
0.0
 10
6.1967929083
 20
4.3281009217
 30
0.0
 10
6.1970493287
 20
4.3281879961
 30
0.0
 10
6.1972518804
 20
4.3282770762
 30
0.0
 10
6.1974197278
 20
4.3283738819
 30
0.0
 10
6.1975200837
 20
4.3284841311
 30
0.0
 10
6.1975202256
 20
4.3285547018
 30
0.0
  0
SPLINE
  5
389
100
AcDbEntity
  8
0
100
AcDbSpline
 62
7
  6
CONTINUOUS
 70
0
 71
3
 72
22
 73
18
 74
0
 42
0.0000001
 43
0.0000001
 44
0.0000000001
 40
0.0
 40
0.0
 40
0.0
 40
0.0
 40
0.2111880378
 40
0.4043737846
 40
0.5747903046
 40
0.6503392333
 40
0.7190077824
 40
0.7804762226
 40
0.8344478876
 40
0.8807395562
 40
0.9192433641
 40
0.9499152427
 40
0.9728662161
 40
0.9816213806
 40
0.9887851079
 40
0.9947103354
 40
1.0
 40
1.0
 40
1.0
 40
1.0
 10
6.3894353847
 20
4.8945589318
 30
0.0
 10
6.3862688419
 20
4.8944088035
 30
0.0
 10
6.3802034198
 20
4.8941657587
 30
0.0
 10
6.3715771604
 20
4.893969235
 30
0.0
 10
6.3649843382
 20
4.8939610237
 30
0.0
 10
6.36026232
 20
4.8940617367
 30
0.0
 10
6.3571769321
 20
4.8941812429
 30
0.0
 10
6.3544180332
 20
4.8943466724
 30
0.0
 10
6.3519990295
 20
4.8945573083
 30
0.0
 10
6.3499311637
 20
4.8948112343
 30
0.0
 10
6.3482215751
 20
4.8951051165
 30
0.0
 10
6.3468785363
 20
4.8954368872
 30
0.0
 10
6.345994861
 20
4.8957631741
 30
0.0
 10
6.3454920217
 20
4.8960628914
 30
0.0
 10
6.3452420736
 20
4.8962787556
 30
0.0
 10
6.3450843436
 20
4.8965106927
 30
0.0
 10
6.3450477496
 20
4.896680605
 30
0.0
 10
6.3450477918
 20
4.8967600071
 30
0.0
  0
SPLINE
  5
38A
100
AcDbEntity
  8
0
100
AcDbSpline
 62
7
  6
CONTINUOUS
 70
0
 71
3
 72
69
 73
65
 74
0
 42
0.0000001
 43
0.0000001
 44
0.0000000001
 40
0.0
 40
0.0
 40
0.0
 40
0.0
 40
0.0000679578
 40
0.0001221717
 40
0.0001927221
 40
0.0002804386
 40
0.0003857453
 40
0.0006499743
 40
0.0013957387
 40
0.0024335974
 40
0.0037642842
 40
0.0053871747
 40
0.0073012823
 40
0.0095055114
 40
0.0119987085
 40
0.0147796869
 40
0.0178472301
 40
0.0211996678
 40
0.02483468
 40
0.0287498899
 40
0.0374113702
 40
0.0471649865
 40
0.0579886189
 40
0.0698550238
 40
0.0827364382
 40
0.0966041086
 40
0.1114241022
 40
0.1271607826
 40
0.1437783442
 40
0.1794960717
 40
0.2182392738
 40
0.2596422866
 40
0.3033154614
 40
0.3488453376
 40
0.3958035271
 40
0.443746044
 40
0.4922209911
 40
0.5407706352
 40
0.588937158
 40
0.6362656597
 40
0.6823098268
 40
0.7266352917
 40
0.768823038
 40
0.8084764721
 40
0.8452194547
 40
0.8787072361
 40
0.9086228249
 40
0.9221518085
 40
0.9346838998
 40
0.9461912251
 40
0.9566464036
 40
0.9660231162
 40
0.9743007399
 40
0.981460606
 40
0.9874843263
 40
0.9900655634
 40
0.9923581294
 40
0.9943609118
 40
0.9960728466
 40
0.9974929584
 40
0.9986204568
 40
0.9994553627
 40
0.9997636939
 40
1.0
 40
1.0
 40
1.0
 40
1.0
 10
3.0200733134
 20
4.574629703
 30
0.0
 10
3.0200734142
 20
4.5747016789
 30
0.0
 10
3.0201773076
 20
4.5748138121
 30
0.0
 10
3.0203496995
 20
4.5749118434
 30
0.0
 10
3.0205584116
 20
4.5750023771
 30
0.0
 10
3.0208226099
 20
4.5750908234
 30
0.0
 10
3.021289743
 20
4.5752204475
 30
0.0
 10
3.0224459016
 20
4.5754651737
 30
0.0
 10
3.0245945327
 20
4.5757728497
 30
0.0
 10
3.0278742625
 20
4.5761236852
 30
0.0
 10
3.0320872813
 20
4.5764773062
 30
0.0
 10
3.0372304665
 20
4.5768342783
 30
0.0
 10
3.0433006982
 20
4.5771925622
 30
0.0
 10
3.0502939747
 20
4.5775519439
 30
0.0
 10
3.0582064147
 20
4.5779119806
 30
0.0
 10
3.0670340296
 20
4.5782725124
 30
0.0
 10
3.0767723605
 20
4.5786333717
 30
0.0
 10
3.0874157777
 20
4.5789944676
 30
0.0
 10
3.0989574486
 20
4.5793557991
 30
0.0
 10
3.1161204795
 20
4.579854767
 30
0.0
 10
3.1397631177
 20
4.5804725303
 30
0.0
 10
3.1707223407
 20
4.5811924212
 30
0.0
 10
3.2050767949
 20
4.5819130991
 30
0.0
 10
3.2427446292
 20
4.5826346001
 30
0.0
 10
3.283637021
 20
4.5833566606
 30
0.0
 10
3.3276580865
 20
4.584079035
 30
0.0
 10
3.3747036182
 20
4.584801757
 30
0.0
 10
3.4246619544
 20
4.5855248086
 30
0.0
 10
3.496752129
 20
4.5865130016
 30
0.0
 10
3.5932081641
 20
4.5877385919
 30
0.0
 10
3.7159145016
 20
4.5891780421
 30
0.0
 10
3.8470472027
 20
4.5906187509
 30
0.0
 10
3.9853682594
 20
4.5920603544
 30
0.0
 10
4.1295732572
 20
4.593502682
 30
0.0
 10
4.2783002495
 20
4.594945415
 30
0.0
 10
4.430146589
 20
4.5963884777
 30
0.0
 10
4.5836785565
 20
4.5978316687
 30
0.0
 10
4.7374477849
 20
4.5992748977
 30
0.0
 10
4.8900027284
 20
4.600718002
 30
0.0
 10
5.0399039328
 20
4.6021608754
 30
0.0
 10
5.1857367761
 20
4.6036033478
 30
0.0
 10
5.3261246322
 20
4.6050452015
 30
0.0
 10
5.4597435193
 20
4.6064862807
 30
0.0
 10
5.5853311076
 20
4.6079261061
 30
0.0
 10
5.7017036931
 20
4.6093643517
 30
0.0
 10
5.8077618252
 20
4.6108003281
 30
0.0
 10
5.8892338002
 20
4.6120317235
 30
0.0
 10
5.948511897
 20
4.6130284679
 30
0.0
 10
5.988295113
 20
4.6137503969
 30
0.0
 10
6.0248222093
 20
4.6144716496
 30
0.0
 10
6.0580066654
 20
4.6151920335
 30
0.0
 10
6.0877695858
 20
4.6159115023
 30
0.0
 10
6.1140412642
 20
4.6166293116
 30
0.0
 10
6.1367602385
 20
4.617344947
 30
0.0
 10
6.1534458302
 20
4.6179657049
 30
0.0
 10
6.1649766204
 20
4.6184724721
 30
0.0
 10
6.1722509602
 20
4.6188321237
 30
0.0
 10
6.1786034122
 20
4.6191907701
 30
0.0
 10
6.1840301449
 20
4.619548282
 30
0.0
 10
6.1885279056
 20
4.6199029482
 30
0.0
 10
6.1920930355
 20
4.6202553644
 30
0.0
 10
6.1944794666
 20
4.6205639462
 30
0.0
 10
6.1959168947
 20
4.6208269824
 30
0.0
 10
6.1964788297
 20
4.6209602945
 30
0.0
 10
6.1967187902
 20
4.6210314159
 30
0.0
  0
LINE
  5
38B
100
AcDbEntity
  8
0
100
AcDbLine
 62
7
  6
CONTINUOUS
 10
6.1967187902
 20
4.6210314159
 11
6.1973073114
 21
4.6212620105
  0
SPLINE
  5
38C
100
AcDbEntity
  8
0
100
AcDbSpline
 62
7
  6
CONTINUOUS
 70
0
 71
3
 72
13
 73
9
 74
0
 42
0.0000001
 43
0.0000001
 44
0.0000000001
 40
0.0
 40
0.0
 40
0.0
 40
0.0
 40
0.0978175067
 40
0.1801431934
 40
0.2886993209
 40
0.4245484312
 40
0.5882144031
 40
1.0
 40
1.0
 40
1.0
 40
1.0
 10
6.255045388
 20
3.6390926281
 30
0.0
 10
6.255045388
 20
3.639011004
 30
0.0
 10
6.2549105749
 20
3.6388886551
 30
0.0
 10
6.2547035408
 20
3.6387848894
 30
0.0
 10
6.2544454157
 20
3.6386860752
 30
0.0
 10
6.2541198325
 20
3.6385899347
 30
0.0
 10
6.2535426487
 20
3.6384484811
 30
0.0
 10
6.2530705466
 20
3.6383602047
 30
0.0
 10
6.2527318472
 20
3.6383022865
 30
0.0
  0
SPLINE
  5
38D
100
AcDbEntity
  8
0
100
AcDbSpline
 62
7
  6
CONTINUOUS
 70
0
 71
3
 72
34
 73
30
 74
0
 42
0.0000001
 43
0.0000001
 44
0.0000000001
 40
0.0
 40
0.0
 40
0.0
 40
0.0
 40
0.0006560024
 40
0.0014895483
 40
0.003690134
 40
0.0066019691
 40
0.0102234998
 40
0.014550245
 40
0.0195766195
 40
0.0252969476
 40
0.0317055036
 40
0.0465581945
 40
0.0640623626
 40
0.0841398249
 40
0.1066961078
 40
0.1316268027
 40
0.1588178867
 40
0.1881415747
 40
0.2194649351
 40
0.2875152552
 40
0.3617077635
 40
0.4406678581
 40
0.5229345568
 40
0.6069856288
 40
0.6912654017
 40
0.7742141538
 40
0.8542906612
 40
0.9300261942
 40
1.0
 40
1.0
 40
1.0
 40
1.0
 10
6.2527318472
 20
3.6383022865
 30
0.0
 10
6.2521596215
 20
3.638204435
 30
0.0
 10
6.2508541235
 20
3.6380188848
 30
0.0
 10
6.247608973
 20
3.6376525277
 30
0.0
 10
6.2423640306
 20
3.6372189203
 30
0.0
 10
6.2346507142
 20
3.6367236922
 30
0.0
 10
6.2250526909
 20
3.6362256916
 30
0.0
 10
6.2135816176
 20
3.6357243279
 30
0.0
 10
6.200251724
 20
3.6352214986
 30
0.0
 10
6.1850784479
 20
3.6347174017
 30
0.0
 10
6.1612114711
 20
3.6340090002
 30
0.0
 10
6.126916721
 20
3.6331405032
 30
0.0
 10
6.0805255511
 20
3.6321373851
 30
0.0
 10
6.0273157228
 20
3.6311318153
 30
0.0
 10
5.967532778
 20
3.6301239809
 30
0.0
 10
5.9014538265
 20
3.6291147281
 30
0.0
 10
5.8293854145
 20
3.6281045092
 30
0.0
 10
5.7516592898
 20
3.627093336
 30
0.0
 10
5.637776503
 20
3.625705883
 30
0.0
 10
5.4841879611
 20
3.62399242
 30
0.0
 10
5.2884438728
 20
3.6219844844
 30
0.0
 10
5.0801183541
 20
3.6199740216
 30
0.0
 10
4.8630680936
 20
3.6179618837
 30
0.0
 10
4.6413099749
 20
3.6159489448
 30
0.0
 10
4.418948247
 20
3.6139358972
 30
0.0
 10
4.2001039648
 20
3.6119234298
 30
0.0
 10
3.9888212527
 20
3.6099123748
 30
0.0
 10
3.7890212919
 20
3.6079035844
 30
0.0
 10
3.6600828294
 20
3.606503571
 30
0.0
 10
3.5981633237
 20
3.6057926281
 30
0.0
  0
ENDSEC
  0
SECTION
  2
OBJECTS
  0
DICTIONARY
  5
C
100
AcDbDictionary
280
0
281
1
  3
ACAD_GROUP
350
D
  3
ACAD_MLINESTYLE
350
17
  3
ACAD_LAYOUT
350
1A
  3
ACAD_PLOTSETTINGS
350
19
  3
ACAD_PLOTSTYLENAME
350
E
  0
DICTIONARY
  5
D
102
{ACAD_REACTORS
330
C
102
}
100
AcDbDictionary
280
0
281
1
  0
ACDBDICTIONARYWDFLT
  5
E
102
{ACAD_REACTORS
330
C
102
}
100
AcDbDictionary
281
1
  3
Normal
350
F
100
AcDbDictionaryWithDefault
340
F
  0
DICTIONARY
  5
17
102
{ACAD_REACTORS
330
C
102
}
100
AcDbDictionary
280
0
281
1
  3
Standard
350
18
  0
DICTIONARY
  5
19
102
{ACAD_REACTORS
330
C
102
}
100
AcDbDictionary
281
1
  0
DICTIONARY
  5
1A
102
{ACAD_REACTORS
330
C
102
}
100
AcDbDictionary
281
1
  3
Model
350
38E
  3
Layout1
350
38F
  0
ACDBPLACEHOLDER
  5
F
102
{ACAD_REACTORS
330
E
102
}
  0
MLINESTYLE
  5
18
102
{ACAD_REACTORS
330
17
102
}
100
AcDbMlineStyle
  2
STANDARD
 70
0
  3

 62
256
 51
90.0
 52
90.0
 71
2
 49
0.5
 62
256
  6
BYLAYER
 49
-0.5
 62
256
  6
BYLAYER
  0
LAYOUT
  5
38E
102
{ACAD_REACTORS
330
1A
102
}
100
AcDbPlotSettings
  1

  2
none_device
  4
ANSI_A_(11.00_x_8.50_Inches)
  6

 40
0.0
 41
0.0
 42
0.0
 43
0.0
 44
279.4
 45
215.9
 46
0.0
 47
0.0
 48
0.0
 49
0.0
140
0.0
141
0.0
142
1.0
143
1.0
 70
1024
 72
0
 73
0
 74
0
  7

 75
0
147
1.0
148
0.0
149
0.0
100
AcDbLayout
  1
Model
 70
0
 71
0
 10
0.0
 20
0.0
 11
11.0
 21
8.5
 12
0.0
 22
0.0
 32
0.0
 14
0.0
 24
0.0
 34
0.0
 15
0.0
 25
0.0
 35
0.0
146
0.0
 13
0.0
 23
0.0
 33
0.0
 16
1.0
 26
0.0
 36
0.0
 17
0.0
 27
1.0
 37
0.0
 76
0
330
207
345
0
346
0
  0
LAYOUT
  5
38F
102
{ACAD_REACTORS
330
1A
102
}
100
AcDbPlotSettings
  1

  2
none_device
  4
ANSI_A_(11.00_x_8.50_Inches)
  6

 40
0.0
 41
0.0
 42
0.0
 43
0.0
 44
279.4
 45
215.9
 46
0.0
 47
0.0
 48
0.0
 49
0.0
140
0.0
141
0.0
142
1.0
143
1.0
 70
0
 72
0
 73
0
 74
0
  7

 75
0
147
1.0
148
0.0
149
0.0
100
AcDbLayout
  1
Layout1
 70
0
 71
1
 10
0.0
 20
0.0
 11
11.0
 21
8.5
 12
0.0
 22
0.0
 32
0.0
 14
0.0
 24
0.0
 34
0.0
 15
0.0
 25
0.0
 35
0.0
146
0.0
 13
0.0
 23
0.0
 33
0.0
 16
1.0
 26
0.0
 36
0.0
 17
0.0
 27
1.0
 37
0.0
 76
0
330
208
345
0
346
0
  0
ENDSEC
  0
EOF
