999
DXF file: 277-06_front.dxf
999
Pro/ENGINEER 2018400 by Parametric Technology Corporation
  0
SECTION
  2
HEADER
  9
$ACADVER
  1
AC1027
  9
$DWGCODEPAGE
  3
ANSI_1252
  9
$EXTMAX
 10
11.0
 20
8.5
 30
0.0
  9
$EXTMIN
 10
0.0
 20
0.0
 30
0.0
  9
$LIMMIN
 10
0.0
 20
0.0
  9
$LIMMAX
 10
11.0
 20
8.5
  9
$VIEWCTR
 10
5.5
 20
4.25
  9
$VIEWSIZE
 40
8.5
  9
$CLAYER
  8
0
  9
$LTSCALE
 40
0.605
  9
$CELTYPE
  6
BYLAYER
  9
$DIMSCALE
 40
1.0
  9
$DIMASZ
 40
0.1
  9
$DIMEXO
 40
0.0625
  9
$DIMDLI
 40
0.418
  9
$DIMEXE
 40
0.125
  9
$DIMCEN
 40
0.099
  9
$DIMLFAC
 40
1.0
  9
$DIMBLK
  1
_FILLED
  9
$DIMALT
 70
1
  9
$DIMALTD
 70
1
  9
$DIMALTTD
 70
2
  9
$DIMALTF
 40
25.4
  9
$DIMTXT
 40
0.08
  9
$DIMTOL
 70
1
  9
$DIMLIM
 70
0
  9
$DIMTFAC
 40
1.0
  9
$DIMTP
 40
0.01
  9
$DIMTM
 40
0.01
  9
$DIMGAP
 40
0.09
  9
$DIMDSEP
 70
46
  9
$AUNITS
 70
0
  9
$PDMODE
 70
3
  9
$PDSIZE
 40
0.3125
  9
$HANDSEED
  5
32A
  9
$TILEMODE
 70
1
  9
$MEASUREMENT
 70
0
  9
$INSUNITS
 70
1
  0
ENDSEC
  0
SECTION
  2
CLASSES
  0
CLASS
  1
ACDBDICTIONARYWDFLT
  2
AcDbDictionaryWithDefault
  3
AutoCAD 2000
 90
0
 91
1
280
0
281
0
  0
CLASS
  1
ACDBPLACEHOLDER
  2
AcDbPlaceHolder
  3
AutoCAD 2000
 90
0
 91
1
280
0
281
0
  0
CLASS
  1
LAYOUT
  2
AcDbLayout
  3
AutoCAD 2000
 90
0
 91
0
280
0
281
0
  0
ENDSEC
  0
SECTION
  2
TABLES
  0
TABLE
  2
VPORT
  5
8
100
AcDbSymbolTable
 70
2
  0
VPORT
  5
1F4
100
AcDbSymbolTableRecord
100
AcDbViewportTableRecord
  2
*ACTIVE
 70
0
 10
0.0
 20
0.0
 11
1.0
 21
1.0
 12
5.5
 22
4.25
 13
0.0
 23
0.0
 14
1.0
 24
1.0
 15
0.0
 25
0.0
 16
0.0
 26
0.0
 36
1.0
 17
0.0
 27
0.0
 37
0.0
 40
8.5
 41
1.2941176471
 42
50.0
 43
0.0
 44
0.0
 50
0.0
 51
0.0
 71
0
 72
100
 73
1
 74
1
 75
0
 76
0
 77
0
 78
0
  0
ENDTAB
  0
TABLE
  2
LTYPE
  5
5
100
AcDbSymbolTable
 70
6
  0
LTYPE
  5
14
100
AcDbSymbolTableRecord
100
AcDbLinetypeTableRecord
  2
BYBLOCK
 70
0
  3

 72
65
 73
0
 40
0.0
  0
LTYPE
  5
15
100
AcDbSymbolTableRecord
100
AcDbLinetypeTableRecord
  2
BYLAYER
 70
0
  3

 72
65
 73
0
 40
0.0
  0
LTYPE
  5
16
100
AcDbSymbolTableRecord
100
AcDbLinetypeTableRecord
  2
CONTINUOUS
 70
64
  3
Solid line
 72
65
 73
0
 40
0.0
  0
LTYPE
  5
1F5
100
AcDbSymbolTableRecord
100
AcDbLinetypeTableRecord
  2
CENTER
 70
64
  3
____ _ ____ _ ____ _ ____ _ ____ _ ____ _ ____
 72
65
 73
4
 40
0.6
 49
0.375
 74
0
 49
-0.075
 74
0
 49
0.075
 74
0
 49
-0.075
 74
0
  0
LTYPE
  5
1F6
100
AcDbSymbolTableRecord
100
AcDbLinetypeTableRecord
  2
HIDDEN
 70
64
  3
- - - - - - - - - - - - - - - - - - - -
 72
65
 73
2
 40
0.2
 49
0.1
 74
0
 49
-0.1
 74
0
  0
LTYPE
  5
1F7
100
AcDbSymbolTableRecord
100
AcDbLinetypeTableRecord
  2
PHANTOM
 70
64
  3
_____ _ _ _____ _ _ _____ _ _ _____
 72
65
 73
6
 40
0.8
 49
0.45
 74
0
 49
-0.05
 74
0
 49
0.1
 74
0
 49
-0.05
 74
0
 49
0.1
 74
0
 49
-0.05
 74
0
  0
LTYPE
  5
1F8
100
AcDbSymbolTableRecord
100
AcDbLinetypeTableRecord
  2
DOT
 70
64
  3
. . . . . . . . . . . . . . . . . . . .
 72
65
 73
2
 40
0.2
 49
0.1
 74
0
 49
-0.1
 74
0
  0
LTYPE
  5
1F9
100
AcDbSymbolTableRecord
100
AcDbLinetypeTableRecord
  2
DASHED
 70
64
  3
- - - - - - - - - - - - - - - - - - - -
 72
65
 73
2
 40
0.2
 49
0.1
 74
0
 49
-0.1
 74
0
  0
ENDTAB
  0
TABLE
  2
LAYER
  5
2
100
AcDbSymbolTable
 70
36
  0
LAYER
  5
10
100
AcDbSymbolTableRecord
100
AcDbLayerTableRecord
  2
0
 70
0
 62
7
  6
CONTINUOUS
370
-3
390
F
  0
LAYER
  5
1FA
100
AcDbSymbolTableRecord
100
AcDbLayerTableRecord
  2
DEFAULT_1
 70
0
 62
7
  6
CENTER
370
-3
390
F
  0
LAYER
  5
1FB
100
AcDbSymbolTableRecord
100
AcDbLayerTableRecord
  2
DEFAULT_2
 70
0
 62
8
  6
HIDDEN
370
-3
390
F
  0
LAYER
  5
1FC
100
AcDbSymbolTableRecord
100
AcDbLayerTableRecord
  2
DEFAULT_3
 70
0
 62
7
  6
PHANTOM
370
-3
390
F
  0
LAYER
  5
1FD
100
AcDbSymbolTableRecord
100
AcDbLayerTableRecord
  2
DEFAULT_COORDINATE_SYSTEM
 70
0
 62
7
  6
CONTINUOUS
370
-3
390
F
  0
LAYER
  5
1FE
100
AcDbSymbolTableRecord
100
AcDbLayerTableRecord
  2
DEFAULT_DATUM_AXES
 70
0
 62
7
  6
CONTINUOUS
370
-3
390
F
  0
LAYER
  5
1FF
100
AcDbSymbolTableRecord
100
AcDbLayerTableRecord
  2
DEFAULT_DATUM_PLANES
 70
0
 62
7
  6
CONTINUOUS
370
-3
390
F
  0
ENDTAB
  0
TABLE
  2
STYLE
  5
3
100
AcDbSymbolTable
 70
1
  0
STYLE
  5
11
100
AcDbSymbolTableRecord
100
AcDbTextStyleTableRecord
  2
STANDARD
 70
0
 40
0.0
 41
0.8
 50
0.0
 71
0
 42
0.2
  3
txt
  4

  0
STYLE
  5
200
100
AcDbSymbolTableRecord
100
AcDbTextStyleTableRecord
  2
TEXTSTYLE_1
 70
0
 40
0.0
 41
0.8
 50
0.0
 71
0
 42
0.2
  3
gdt
  4

  0
ENDTAB
  0
TABLE
  2
VIEW
  5
6
100
AcDbSymbolTable
 70
0
  0
ENDTAB
  0
TABLE
  2
UCS
  5
7
100
AcDbSymbolTable
 70
0
  0
ENDTAB
  0
TABLE
  2
APPID
  5
9
100
AcDbSymbolTable
 70
1
  0
APPID
  5
201
100
AcDbSymbolTableRecord
100
AcDbRegAppTableRecord
  2
ACAD
 70
0
  0
ENDTAB
  0
TABLE
  2
BLOCK_RECORD
  5
1
100
AcDbSymbolTable
 70
0
  0
BLOCK_RECORD
  5
202
100
AcDbSymbolTableRecord
100
AcDbBlockTableRecord
  2
*Model_Space
  0
BLOCK_RECORD
  5
203
100
AcDbSymbolTableRecord
100
AcDbBlockTableRecord
  2
*Paper_Space
  0
BLOCK_RECORD
  5
204
100
AcDbSymbolTableRecord
100
AcDbBlockTableRecord
  2
_FILLED
  0
ENDTAB
  0
TABLE
  2
DIMSTYLE
  5
A
100
AcDbSymbolTable
 70
1
100
AcDbDimStyleTable
 71
0
  0
DIMSTYLE
105
205
100
AcDbSymbolTableRecord
100
AcDbDimStyleTableRecord
  2
STANDARD
 70
0
  3

  4

 40
1.0
 41
0.1
 42
0.0625
 43
0.38
 44
0.125
 45
0.0
 46
0.0
 47
0.01
 48
0.01
140
0.08
141
0.09
142
0.0
143
25.4
144
1.0
145
0.0
146
1.0
147
0.09
 71
1.0
 72
0.0
 73
1
 74
1
 75
0
 76
0
 77
0
 78
4
 79
1
170
1
171
1
172
0
173
0
174
0
175
0
176
0
177
0
178
0
270
2
179
2
271
2
272
2
273
2
274
2
275
0
280
0
281
0
282
0
283
1
284
4
285
0
286
0
287
3
288
0
340
11
278
46
341
204
342
204
343
204
344
204
  0
ENDTAB
  0
ENDSEC
  0
SECTION
  2
BLOCKS
  0
BLOCK
  5
20
100
AcDbEntity
  8
0
100
AcDbBlockBegin
  2
*Model_Space
 70
0
 10
0.0
 20
0.0
 30
0.0
  3
*Model_Space
  1

  0
ENDBLK
  5
21
100
AcDbEntity
  8
0
100
AcDbBlockEnd
  0
BLOCK
  5
1C
100
AcDbEntity
  8
0
100
AcDbBlockBegin
  2
*Paper_Space
 70
0
 10
0.0
 20
0.0
 30
0.0
  3
*Paper_Space
  1

  0
ENDBLK
  5
1D
100
AcDbEntity
  8
0
100
AcDbBlockEnd
  0
BLOCK
  5
206
100
AcDbEntity
  8
0
100
AcDbBlockBegin
  2
_FILLED
 70
64
 10
0.0
 20
0.0
  3
_FILLED
  1

  0
SOLID
  5
207
100
AcDbEntity
  8
0
  6
BYBLOCK
 62
0
100
AcDbTrace
 10
0.0
 20
0.0
 11
-1.0
 21
0.2
 12
-1.0
 22
-0.2
 13
-1.0
 23
-0.2
  0
ENDBLK
  5
208
100
AcDbEntity
  8
0
  6
BYBLOCK
 62
0
100
AcDbBlockEnd
  0
ENDSEC
  0
SECTION
  2
ENTITIES
  0
MTEXT
  5
209
100
AcDbEntity
  8
0
100
AcDbMText
 62
2
  6
CONTINUOUS
  7
STANDARD
 71
3
 72
1
 10
5.1310559006
 20
2.0104386645
 30
0.0
 11
1.0
 21
0.0
 31
0.0
 73
2
 44
0.9
  1
SCALE  1.000
 40
0.08
 41
0.768
  0
LINE
  5
20A
100
AcDbEntity
  8
0
100
AcDbLine
 62
7
  6
CONTINUOUS
 10
0.0
 20
0.0
 11
0.0
 21
8.5
  0
LINE
  5
20B
100
AcDbEntity
  8
0
100
AcDbLine
 62
7
  6
CONTINUOUS
 10
0.0
 20
0.0
 11
11.0
 21
0.0
  0
LINE
  5
20C
100
AcDbEntity
  8
0
100
AcDbLine
 62
7
  6
CONTINUOUS
 10
0.0
 20
8.5
 11
11.0
 21
8.5
  0
LINE
  5
20D
100
AcDbEntity
  8
0
100
AcDbLine
 62
7
  6
CONTINUOUS
 10
11.0
 20
0.0
 11
11.0
 21
8.5
  0
LINE
  5
20E
100
AcDbEntity
  8
0
100
AcDbLine
 62
7
  6
CONTINUOUS
 10
2.0025648402
 20
5.6063400269
 11
1.9642400629
 21
6.3376203417
  0
LINE
  5
20F
100
AcDbEntity
  8
0
100
AcDbLine
 62
7
  6
CONTINUOUS
 10
1.9550543478
 20
4.9419542378
 11
1.9550543478
 21
5.4326203417
  0
LINE
  5
210
100
AcDbEntity
  8
0
100
AcDbLine
 62
7
  6
CONTINUOUS
 10
1.9625543478
 20
6.3376203417
 11
1.9625543478
 21
6.4176203417
  0
LINE
  5
211
100
AcDbEntity
  8
0
100
AcDbLine
 62
7
  6
CONTINUOUS
 10
2.0825543478
 20
6.3376203417
 11
2.0825543478
 21
6.4176203417
  0
LINE
  5
212
100
AcDbEntity
  8
0
100
AcDbLine
 62
7
  6
CONTINUOUS
 10
2.1224003844
 20
5.4926203417
 11
2.1224003844
 21
5.6063400269
  0
LINE
  5
213
100
AcDbEntity
  8
0
100
AcDbLine
 62
7
  6
CONTINUOUS
 10
2.8400543479
 20
2.7626203416
 11
2.8057231899
 21
2.7969514996
  0
LINE
  5
214
100
AcDbEntity
  8
0
100
AcDbLine
 62
7
  6
CONTINUOUS
 10
2.7400543478
 20
2.8632031073
 11
2.7403247665
 21
2.8628908226
  0
LINE
  5
215
100
AcDbEntity
  8
0
100
AcDbLine
 62
7
  6
CONTINUOUS
 10
2.1224003844
 20
5.6063400269
 11
2.0840756071
 21
6.3376203417
  0
LINE
  5
216
100
AcDbEntity
  8
0
100
AcDbLine
 62
7
  6
CONTINUOUS
 10
2.171572792
 20
5.4726203417
 11
2.1705246364
 21
5.4926203417
  0
LINE
  5
217
100
AcDbEntity
  8
0
100
AcDbLine
 62
7
  6
CONTINUOUS
 10
2.2914083361
 20
5.4726203417
 11
2.2903601806
 21
5.4926203417
  0
LINE
  5
218
100
AcDbEntity
  8
0
100
AcDbLine
 62
7
  6
CONTINUOUS
 10
1.9950543478
 20
5.4726203417
 11
1.9550543478
 21
5.4326203417
  0
LINE
  5
219
100
AcDbEntity
  8
0
100
AcDbLine
 62
7
  6
CONTINUOUS
 10
2.7403247665
 20
2.8628908226
 11
2.8170345541
 21
2.8185967516
  0
LINE
  5
21A
100
AcDbEntity
  8
0
100
AcDbLine
 62
7
  6
CONTINUOUS
 10
2.7403247665
 20
2.9878908226
 11
2.8170345541
 21
2.9435967516
  0
LINE
  5
21B
100
AcDbEntity
  8
0
100
AcDbLine
 62
7
  6
CONTINUOUS
 10
2.7403247665
 20
3.1128908226
 11
2.8170345541
 21
3.0685967516
  0
LINE
  5
21C
100
AcDbEntity
  8
0
100
AcDbLine
 62
7
  6
CONTINUOUS
 10
2.7400543478
 20
4.7530870892
 11
2.7400543478
 21
4.6132031073
  0
LINE
  5
21D
100
AcDbEntity
  8
0
100
AcDbLine
 62
7
  6
CONTINUOUS
 10
2.7400543478
 20
4.509037576
 11
2.7400543478
 21
4.4882031073
  0
LINE
  5
21E
100
AcDbEntity
  8
0
100
AcDbLine
 62
7
  6
CONTINUOUS
 10
2.7400543478
 20
4.384037576
 11
2.7400543478
 21
4.3632031073
  0
LINE
  5
21F
100
AcDbEntity
  8
0
100
AcDbLine
 62
7
  6
CONTINUOUS
 10
2.7400543478
 20
4.259037576
 11
2.7400543478
 21
4.2382031073
  0
LINE
  5
220
100
AcDbEntity
  8
0
100
AcDbLine
 62
7
  6
CONTINUOUS
 10
2.7400543478
 20
4.134037576
 11
2.7400543478
 21
4.1132031073
  0
LINE
  5
221
100
AcDbEntity
  8
0
100
AcDbLine
 62
7
  6
CONTINUOUS
 10
2.7400543478
 20
4.009037576
 11
2.7400543478
 21
3.9882031073
  0
LINE
  5
222
100
AcDbEntity
  8
0
100
AcDbLine
 62
7
  6
CONTINUOUS
 10
2.7400543478
 20
3.884037576
 11
2.7400543478
 21
3.8632031073
  0
LINE
  5
223
100
AcDbEntity
  8
0
100
AcDbLine
 62
7
  6
CONTINUOUS
 10
2.7400543478
 20
3.759037576
 11
2.7400543478
 21
3.7382031073
  0
LINE
  5
224
100
AcDbEntity
  8
0
100
AcDbLine
 62
7
  6
CONTINUOUS
 10
2.7400543478
 20
3.634037576
 11
2.7400543478
 21
3.6132031073
  0
LINE
  5
225
100
AcDbEntity
  8
0
100
AcDbLine
 62
7
  6
CONTINUOUS
 10
2.7400543478
 20
3.509037576
 11
2.7400543478
 21
3.4882031073
  0
LINE
  5
226
100
AcDbEntity
  8
0
100
AcDbLine
 62
7
  6
CONTINUOUS
 10
2.7400543478
 20
3.384037576
 11
2.7400543478
 21
3.3632031073
  0
LINE
  5
227
100
AcDbEntity
  8
0
100
AcDbLine
 62
7
  6
CONTINUOUS
 10
2.7400543478
 20
3.259037576
 11
2.7400543478
 21
3.2382031073
  0
LINE
  5
228
100
AcDbEntity
  8
0
100
AcDbLine
 62
7
  6
CONTINUOUS
 10
2.7400543478
 20
3.134037576
 11
2.7400543478
 21
3.1132031073
  0
LINE
  5
229
100
AcDbEntity
  8
0
100
AcDbLine
 62
7
  6
CONTINUOUS
 10
2.7400543478
 20
3.009037576
 11
2.7400543478
 21
2.9882031073
  0
LINE
  5
22A
100
AcDbEntity
  8
0
100
AcDbLine
 62
7
  6
CONTINUOUS
 10
2.7400543478
 20
2.884037576
 11
2.7400543478
 21
2.8632031073
  0
LINE
  5
22B
100
AcDbEntity
  8
0
100
AcDbLine
 62
7
  6
CONTINUOUS
 10
2.8167543478
 20
4.5689203417
 11
2.8167543478
 21
4.5533203417
  0
LINE
  5
22C
100
AcDbEntity
  8
0
100
AcDbLine
 62
7
  6
CONTINUOUS
 10
2.8167543478
 20
4.4439203417
 11
2.8167543478
 21
4.4283203417
  0
LINE
  5
22D
100
AcDbEntity
  8
0
100
AcDbLine
 62
7
  6
CONTINUOUS
 10
2.8167543478
 20
4.3189203417
 11
2.8167543478
 21
4.3033203417
  0
LINE
  5
22E
100
AcDbEntity
  8
0
100
AcDbLine
 62
7
  6
CONTINUOUS
 10
2.8167543478
 20
4.1939203417
 11
2.8167543478
 21
4.1783203417
  0
LINE
  5
22F
100
AcDbEntity
  8
0
100
AcDbLine
 62
7
  6
CONTINUOUS
 10
2.8167543478
 20
4.0689203417
 11
2.8167543478
 21
4.0533203417
  0
LINE
  5
230
100
AcDbEntity
  8
0
100
AcDbLine
 62
7
  6
CONTINUOUS
 10
2.8167543478
 20
3.9439203417
 11
2.8167543478
 21
3.9283203417
  0
LINE
  5
231
100
AcDbEntity
  8
0
100
AcDbLine
 62
7
  6
CONTINUOUS
 10
2.8167543478
 20
3.8189203417
 11
2.8167543478
 21
3.8033203417
  0
LINE
  5
232
100
AcDbEntity
  8
0
100
AcDbLine
 62
7
  6
CONTINUOUS
 10
2.8167543478
 20
3.6939203417
 11
2.8167543478
 21
3.6783203417
  0
LINE
  5
233
100
AcDbEntity
  8
0
100
AcDbLine
 62
7
  6
CONTINUOUS
 10
2.8167543478
 20
3.5689203417
 11
2.8167543478
 21
3.5533203417
  0
LINE
  5
234
100
AcDbEntity
  8
0
100
AcDbLine
 62
7
  6
CONTINUOUS
 10
2.8167543478
 20
3.4439203417
 11
2.8167543478
 21
3.4283203417
  0
LINE
  5
235
100
AcDbEntity
  8
0
100
AcDbLine
 62
7
  6
CONTINUOUS
 10
2.8167543478
 20
3.3189203417
 11
2.8167543478
 21
3.3033203417
  0
LINE
  5
236
100
AcDbEntity
  8
0
100
AcDbLine
 62
7
  6
CONTINUOUS
 10
2.8167543478
 20
3.1939203417
 11
2.8167543478
 21
3.1783203417
  0
LINE
  5
237
100
AcDbEntity
  8
0
100
AcDbLine
 62
7
  6
CONTINUOUS
 10
2.8167543478
 20
3.0689203417
 11
2.8167543478
 21
3.0533203417
  0
LINE
  5
238
100
AcDbEntity
  8
0
100
AcDbLine
 62
7
  6
CONTINUOUS
 10
2.8167543478
 20
2.9439203417
 11
2.8167543478
 21
2.9283203417
  0
LINE
  5
239
100
AcDbEntity
  8
0
100
AcDbLine
 62
7
  6
CONTINUOUS
 10
2.8167543478
 20
2.8189203417
 11
2.8167543478
 21
2.8033203417
  0
LINE
  5
23A
100
AcDbEntity
  8
0
100
AcDbLine
 62
7
  6
CONTINUOUS
 10
2.7403247665
 20
3.2378908226
 11
2.8170345541
 21
3.1935967516
  0
LINE
  5
23B
100
AcDbEntity
  8
0
100
AcDbLine
 62
7
  6
CONTINUOUS
 10
2.7403247665
 20
3.3628908226
 11
2.8170345541
 21
3.3185967516
  0
LINE
  5
23C
100
AcDbEntity
  8
0
100
AcDbLine
 62
7
  6
CONTINUOUS
 10
2.7403247665
 20
3.4878908226
 11
2.8170345541
 21
3.4435967516
  0
LINE
  5
23D
100
AcDbEntity
  8
0
100
AcDbLine
 62
7
  6
CONTINUOUS
 10
2.7403247665
 20
3.6128908226
 11
2.8170345541
 21
3.5685967516
  0
LINE
  5
23E
100
AcDbEntity
  8
0
100
AcDbLine
 62
7
  6
CONTINUOUS
 10
2.7403247665
 20
3.7378908226
 11
2.8170345541
 21
3.6935967516
  0
LINE
  5
23F
100
AcDbEntity
  8
0
100
AcDbLine
 62
7
  6
CONTINUOUS
 10
2.7400543478
 20
4.509037576
 11
2.7403247665
 21
4.5093498607
  0
LINE
  5
240
100
AcDbEntity
  8
0
100
AcDbLine
 62
7
  6
CONTINUOUS
 10
7.0300543478
 20
2.7626203417
 11
2.8400543478
 21
2.7626203417
  0
LINE
  5
241
100
AcDbEntity
  8
0
100
AcDbLine
 62
7
  6
CONTINUOUS
 10
2.7403247665
 20
3.8628908226
 11
2.8170345541
 21
3.8185967516
  0
LINE
  5
242
100
AcDbEntity
  8
0
100
AcDbLine
 62
7
  6
CONTINUOUS
 10
2.7403247665
 20
3.9878908226
 11
2.8170345541
 21
3.9435967516
  0
LINE
  5
243
100
AcDbEntity
  8
0
100
AcDbLine
 62
7
  6
CONTINUOUS
 10
2.8057978527
 20
2.7971555654
 11
2.8057231899
 21
2.7969514996
  0
LINE
  5
244
100
AcDbEntity
  8
0
100
AcDbLine
 62
7
  6
CONTINUOUS
 10
2.7400543478
 20
4.384037576
 11
2.7403247665
 21
4.3843498607
  0
LINE
  5
245
100
AcDbEntity
  8
0
100
AcDbLine
 62
7
  6
CONTINUOUS
 10
2.7400543478
 20
4.259037576
 11
2.7403247665
 21
4.2593498607
  0
LINE
  5
246
100
AcDbEntity
  8
0
100
AcDbLine
 62
7
  6
CONTINUOUS
 10
2.7403247665
 20
4.1128908226
 11
2.8170345541
 21
4.0685967516
  0
LINE
  5
247
100
AcDbEntity
  8
0
100
AcDbLine
 62
7
  6
CONTINUOUS
 10
2.7403247665
 20
4.2378908226
 11
2.8170345541
 21
4.1935967516
  0
LINE
  5
248
100
AcDbEntity
  8
0
100
AcDbLine
 62
7
  6
CONTINUOUS
 10
2.7403247665
 20
4.1343498607
 11
2.7400543478
 21
4.134037576
  0
LINE
  5
249
100
AcDbEntity
  8
0
100
AcDbLine
 62
7
  6
CONTINUOUS
 10
2.7400543478
 20
4.009037576
 11
2.7403247665
 21
4.0093498607
  0
LINE
  5
24A
100
AcDbEntity
  8
0
100
AcDbLine
 62
7
  6
CONTINUOUS
 10
2.7400543478
 20
3.884037576
 11
2.7403247665
 21
3.8843498607
  0
LINE
  5
24B
100
AcDbEntity
  8
0
100
AcDbLine
 62
7
  6
CONTINUOUS
 10
2.7403247665
 20
4.3628908226
 11
2.8170345541
 21
4.3185967516
  0
LINE
  5
24C
100
AcDbEntity
  8
0
100
AcDbLine
 62
7
  6
CONTINUOUS
 10
2.7403247665
 20
4.4878908226
 11
2.8170345541
 21
4.4435967516
  0
LINE
  5
24D
100
AcDbEntity
  8
0
100
AcDbLine
 62
7
  6
CONTINUOUS
 10
2.7400543478
 20
3.759037576
 11
2.7403247665
 21
3.7593498607
  0
LINE
  5
24E
100
AcDbEntity
  8
0
100
AcDbLine
 62
7
  6
CONTINUOUS
 10
2.7403247665
 20
3.6343498607
 11
2.7400543478
 21
3.634037576
  0
LINE
  5
24F
100
AcDbEntity
  8
0
100
AcDbLine
 62
7
  6
CONTINUOUS
 10
2.7400543478
 20
3.509037576
 11
2.7403247665
 21
3.5093498607
  0
LINE
  5
250
100
AcDbEntity
  8
0
100
AcDbLine
 62
7
  6
CONTINUOUS
 10
2.8170345541
 20
4.5536439317
 11
2.7403247665
 21
4.5093498607
  0
LINE
  5
251
100
AcDbEntity
  8
0
100
AcDbLine
 62
7
  6
CONTINUOUS
 10
2.8170345541
 20
4.4286439317
 11
2.7403247665
 21
4.3843498607
  0
LINE
  5
252
100
AcDbEntity
  8
0
100
AcDbLine
 62
7
  6
CONTINUOUS
 10
2.7403247665
 20
4.6128908226
 11
2.8170345541
 21
4.5685967516
  0
LINE
  5
253
100
AcDbEntity
  8
0
100
AcDbLine
 62
7
  6
CONTINUOUS
 10
2.7400543478
 20
3.384037576
 11
2.7403247665
 21
3.3843498607
  0
LINE
  5
254
100
AcDbEntity
  8
0
100
AcDbLine
 62
7
  6
CONTINUOUS
 10
2.7400543478
 20
3.259037576
 11
2.7403247665
 21
3.2593498607
  0
LINE
  5
255
100
AcDbEntity
  8
0
100
AcDbLine
 62
7
  6
CONTINUOUS
 10
2.7400543478
 20
3.134037576
 11
2.7403247665
 21
3.1343498607
  0
LINE
  5
256
100
AcDbEntity
  8
0
100
AcDbLine
 62
7
  6
CONTINUOUS
 10
2.8170345541
 20
4.3036439317
 11
2.7403247665
 21
4.2593498607
  0
LINE
  5
257
100
AcDbEntity
  8
0
100
AcDbLine
 62
7
  6
CONTINUOUS
 10
2.8170345541
 20
4.1786439317
 11
2.7403247665
 21
4.1343498607
  0
LINE
  5
258
100
AcDbEntity
  8
0
100
AcDbLine
 62
7
  6
CONTINUOUS
 10
2.7400543478
 20
3.009037576
 11
2.7403247665
 21
3.0093498607
  0
LINE
  5
259
100
AcDbEntity
  8
0
100
AcDbLine
 62
7
  6
CONTINUOUS
 10
2.7400543478
 20
2.884037576
 11
2.7403247665
 21
2.8843498607
  0
LINE
  5
25A
100
AcDbEntity
  8
0
100
AcDbLine
 62
7
  6
CONTINUOUS
 10
2.8170345541
 20
4.0536439317
 11
2.7403247665
 21
4.0093498607
  0
LINE
  5
25B
100
AcDbEntity
  8
0
100
AcDbLine
 62
7
  6
CONTINUOUS
 10
2.8170345541
 20
3.9286439317
 11
2.7403247665
 21
3.8843498607
  0
LINE
  5
25C
100
AcDbEntity
  8
0
100
AcDbLine
 62
7
  6
CONTINUOUS
 10
2.8170345541
 20
3.8036439317
 11
2.7403247665
 21
3.7593498607
  0
LINE
  5
25D
100
AcDbEntity
  8
0
100
AcDbLine
 62
7
  6
CONTINUOUS
 10
2.8170345541
 20
3.6786439317
 11
2.7403247665
 21
3.6343498607
  0
LINE
  5
25E
100
AcDbEntity
  8
0
100
AcDbLine
 62
7
  6
CONTINUOUS
 10
7.1039356176
 20
2.836775251
 11
7.0530741415
 21
2.8661439317
  0
LINE
  5
25F
100
AcDbEntity
  8
0
100
AcDbLine
 62
7
  6
CONTINUOUS
 10
7.1297839291
 20
2.9468498607
 11
7.0530741415
 21
2.9911439317
  0
LINE
  5
260
100
AcDbEntity
  8
0
100
AcDbLine
 62
7
  6
CONTINUOUS
 10
7.1297839291
 20
3.0718498607
 11
7.0530741415
 21
3.1161439317
  0
LINE
  5
261
100
AcDbEntity
  8
0
100
AcDbLine
 62
7
  6
CONTINUOUS
 10
2.8170345541
 20
3.5536439317
 11
2.7403247665
 21
3.5093498607
  0
LINE
  5
262
100
AcDbEntity
  8
0
100
AcDbLine
 62
7
  6
CONTINUOUS
 10
2.8170345541
 20
3.4286439317
 11
2.7403247665
 21
3.3843498607
  0
LINE
  5
263
100
AcDbEntity
  8
0
100
AcDbLine
 62
7
  6
CONTINUOUS
 10
7.9150543478
 20
4.9419542378
 11
7.2230642063
 21
4.8580549182
  0
LINE
  5
264
100
AcDbEntity
  8
0
100
AcDbLine
 62
7
  6
CONTINUOUS
 10
1.9550543478
 20
4.9419542378
 11
2.6470444893
 21
4.8580549182
  0
LINE
  5
265
100
AcDbEntity
  8
0
100
AcDbLine
 62
7
  6
CONTINUOUS
 10
7.1297839291
 20
3.1968498607
 11
7.0530741415
 21
3.2411439317
  0
LINE
  5
266
100
AcDbEntity
  8
0
100
AcDbLine
 62
7
  6
CONTINUOUS
 10
7.1297839291
 20
3.3218498607
 11
7.0530741415
 21
3.3661439317
  0
LINE
  5
267
100
AcDbEntity
  8
0
100
AcDbLine
 62
7
  6
CONTINUOUS
 10
2.8170345541
 20
3.3036439317
 11
2.7403247665
 21
3.2593498607
  0
LINE
  5
268
100
AcDbEntity
  8
0
100
AcDbLine
 62
7
  6
CONTINUOUS
 10
2.8170345541
 20
3.1786439317
 11
2.7403247665
 21
3.1343498607
  0
LINE
  5
269
100
AcDbEntity
  8
0
100
AcDbLine
 62
7
  6
CONTINUOUS
 10
7.1300543478
 20
4.7530870892
 11
2.7400543478
 21
4.7530870892
  0
LINE
  5
26A
100
AcDbEntity
  8
0
100
AcDbLine
 62
7
  6
CONTINUOUS
 10
7.1297839291
 20
3.4468498607
 11
7.0530741415
 21
3.4911439317
  0
LINE
  5
26B
100
AcDbEntity
  8
0
100
AcDbLine
 62
7
  6
CONTINUOUS
 10
7.1297839291
 20
3.5718498607
 11
7.0530741415
 21
3.6161439317
  0
LINE
  5
26C
100
AcDbEntity
  8
0
100
AcDbLine
 62
7
  6
CONTINUOUS
 10
2.8170345541
 20
3.0536439317
 11
2.7403247665
 21
3.0093498607
  0
LINE
  5
26D
100
AcDbEntity
  8
0
100
AcDbLine
 62
7
  6
CONTINUOUS
 10
2.8170345541
 20
2.9286439317
 11
2.7403247665
 21
2.8843498607
  0
LINE
  5
26E
100
AcDbEntity
  8
0
100
AcDbLine
 62
7
  6
CONTINUOUS
 10
2.8170345541
 20
2.8036439317
 11
2.8057978527
 21
2.7971555654
  0
LINE
  5
26F
100
AcDbEntity
  8
0
100
AcDbLine
 62
7
  6
CONTINUOUS
 10
7.2230642063
 20
4.8580549182
 11
2.6470444893
 21
4.8580549182
  0
LINE
  5
270
100
AcDbEntity
  8
0
100
AcDbLine
 62
7
  6
CONTINUOUS
 10
7.1297839291
 20
3.6968498607
 11
7.0530741415
 21
3.7411439317
  0
LINE
  5
271
100
AcDbEntity
  8
0
100
AcDbLine
 62
7
  6
CONTINUOUS
 10
7.1297839291
 20
3.8218498607
 11
7.0530741415
 21
3.8661439317
  0
LINE
  5
272
100
AcDbEntity
  8
0
100
AcDbLine
 62
7
  6
CONTINUOUS
 10
7.1297839291
 20
3.9468498607
 11
7.0530741415
 21
3.9911439317
  0
LINE
  5
273
100
AcDbEntity
  8
0
100
AcDbLine
 62
7
  6
CONTINUOUS
 10
7.1297839291
 20
4.0718498607
 11
7.0530741415
 21
4.1161439317
  0
LINE
  5
274
100
AcDbEntity
  8
0
100
AcDbLine
 62
7
  6
CONTINUOUS
 10
1.9550543478
 20
5.4326203417
 11
7.9150543478
 21
5.4326203417
  0
LINE
  5
275
100
AcDbEntity
  8
0
100
AcDbLine
 62
7
  6
CONTINUOUS
 10
1.9950543478
 20
5.4726203417
 11
7.8750543478
 21
5.4726203417
  0
LINE
  5
276
100
AcDbEntity
  8
0
100
AcDbLine
 62
7
  6
CONTINUOUS
 10
7.7477083113
 20
5.4926203417
 11
2.1224003844
 21
5.4926203417
  0
LINE
  5
277
100
AcDbEntity
  8
0
100
AcDbLine
 62
7
  6
CONTINUOUS
 10
7.1297839291
 20
4.1968498607
 11
7.0530741415
 21
4.2411439317
  0
LINE
  5
278
100
AcDbEntity
  8
0
100
AcDbLine
 62
7
  6
CONTINUOUS
 10
7.1297839291
 20
4.3218498607
 11
7.0530741415
 21
4.3661439317
  0
LINE
  5
279
100
AcDbEntity
  8
0
100
AcDbLine
 62
7
  6
CONTINUOUS
 10
7.0530741415
 20
4.6310967516
 11
7.1297839291
 21
4.6753908226
  0
LINE
  5
27A
100
AcDbEntity
  8
0
100
AcDbLine
 62
7
  6
CONTINUOUS
 10
7.0530741415
 20
4.5060967516
 11
7.1297839291
 21
4.5503908226
  0
LINE
  5
27B
100
AcDbEntity
  8
0
100
AcDbLine
 62
7
  6
CONTINUOUS
 10
7.7477083113
 20
5.6063400269
 11
2.1224003844
 21
5.6063400269
  0
LINE
  5
27C
100
AcDbEntity
  8
0
100
AcDbLine
 62
7
  6
CONTINUOUS
 10
7.1297839291
 20
4.4468498607
 11
7.0530741415
 21
4.4911439317
  0
LINE
  5
27D
100
AcDbEntity
  8
0
100
AcDbLine
 62
7
  6
CONTINUOUS
 10
7.1297839291
 20
4.5718498607
 11
7.0530741415
 21
4.6161439317
  0
LINE
  5
27E
100
AcDbEntity
  8
0
100
AcDbLine
 62
7
  6
CONTINUOUS
 10
7.0530741415
 20
4.3810967516
 11
7.1297839291
 21
4.4253908226
  0
LINE
  5
27F
100
AcDbEntity
  8
0
100
AcDbLine
 62
7
  6
CONTINUOUS
 10
7.0530741415
 20
4.2560967516
 11
7.1297839291
 21
4.3003908226
  0
LINE
  5
280
100
AcDbEntity
  8
0
100
AcDbLine
 62
7
  6
CONTINUOUS
 10
7.1297839291
 20
4.6753908226
 11
7.1300543478
 21
4.6757031073
  0
LINE
  5
281
100
AcDbEntity
  8
0
100
AcDbLine
 62
7
  6
CONTINUOUS
 10
7.0530741415
 20
4.1310967516
 11
7.1297839291
 21
4.1753908226
  0
LINE
  5
282
100
AcDbEntity
  8
0
100
AcDbLine
 62
7
  6
CONTINUOUS
 10
7.0530741415
 20
4.0060967516
 11
7.1297839291
 21
4.0503908226
  0
LINE
  5
283
100
AcDbEntity
  8
0
100
AcDbLine
 62
7
  6
CONTINUOUS
 10
7.1297839291
 20
4.5503908226
 11
7.1300543478
 21
4.5507031073
  0
LINE
  5
284
100
AcDbEntity
  8
0
100
AcDbLine
 62
7
  6
CONTINUOUS
 10
7.1297839291
 20
4.4253908226
 11
7.1300543478
 21
4.4257031073
  0
LINE
  5
285
100
AcDbEntity
  8
0
100
AcDbLine
 62
7
  6
CONTINUOUS
 10
7.1297839291
 20
4.3003908226
 11
7.1300543478
 21
4.3007031073
  0
LINE
  5
286
100
AcDbEntity
  8
0
100
AcDbLine
 62
7
  6
CONTINUOUS
 10
7.0530741415
 20
3.8810967516
 11
7.1297839291
 21
3.9253908226
  0
LINE
  5
287
100
AcDbEntity
  8
0
100
AcDbLine
 62
7
  6
CONTINUOUS
 10
7.0530741415
 20
3.7560967516
 11
7.1297839291
 21
3.8003908226
  0
LINE
  5
288
100
AcDbEntity
  8
0
100
AcDbLine
 62
7
  6
CONTINUOUS
 10
7.0530741415
 20
3.6310967516
 11
7.1297839291
 21
3.6753908226
  0
LINE
  5
289
100
AcDbEntity
  8
0
100
AcDbLine
 62
7
  6
CONTINUOUS
 10
1.9625543478
 20
6.3376203417
 11
7.9075543478
 21
6.3376203417
  0
LINE
  5
28A
100
AcDbEntity
  8
0
100
AcDbLine
 62
7
  6
CONTINUOUS
 10
1.9625543478
 20
6.4176203417
 11
7.9075543478
 21
6.4176203417
  0
LINE
  5
28B
100
AcDbEntity
  8
0
100
AcDbLine
 62
7
  6
CONTINUOUS
 10
7.0533543478
 20
2.8658203417
 11
7.0533543478
 21
2.8814203417
  0
LINE
  5
28C
100
AcDbEntity
  8
0
100
AcDbLine
 62
7
  6
CONTINUOUS
 10
7.0533543478
 20
2.9908203417
 11
7.0533543478
 21
3.0064203417
  0
LINE
  5
28D
100
AcDbEntity
  8
0
100
AcDbLine
 62
7
  6
CONTINUOUS
 10
7.0533543478
 20
3.1158203417
 11
7.0533543478
 21
3.1314203417
  0
LINE
  5
28E
100
AcDbEntity
  8
0
100
AcDbLine
 62
7
  6
CONTINUOUS
 10
7.0533543478
 20
3.2408203417
 11
7.0533543478
 21
3.2564203417
  0
LINE
  5
28F
100
AcDbEntity
  8
0
100
AcDbLine
 62
7
  6
CONTINUOUS
 10
7.0533543478
 20
3.3658203417
 11
7.0533543478
 21
3.3814203417
  0
LINE
  5
290
100
AcDbEntity
  8
0
100
AcDbLine
 62
7
  6
CONTINUOUS
 10
7.0533543478
 20
3.4908203417
 11
7.0533543478
 21
3.5064203417
  0
LINE
  5
291
100
AcDbEntity
  8
0
100
AcDbLine
 62
7
  6
CONTINUOUS
 10
7.0533543478
 20
3.6158203417
 11
7.0533543478
 21
3.6314203417
  0
LINE
  5
292
100
AcDbEntity
  8
0
100
AcDbLine
 62
7
  6
CONTINUOUS
 10
7.0533543478
 20
3.7408203417
 11
7.0533543478
 21
3.7564203417
  0
LINE
  5
293
100
AcDbEntity
  8
0
100
AcDbLine
 62
7
  6
CONTINUOUS
 10
7.0533543478
 20
3.8658203417
 11
7.0533543478
 21
3.8814203417
  0
LINE
  5
294
100
AcDbEntity
  8
0
100
AcDbLine
 62
7
  6
CONTINUOUS
 10
7.0533543478
 20
3.9908203417
 11
7.0533543478
 21
4.0064203417
  0
LINE
  5
295
100
AcDbEntity
  8
0
100
AcDbLine
 62
7
  6
CONTINUOUS
 10
7.0533543478
 20
4.1158203417
 11
7.0533543478
 21
4.1314203417
  0
LINE
  5
296
100
AcDbEntity
  8
0
100
AcDbLine
 62
7
  6
CONTINUOUS
 10
7.0533543478
 20
4.2408203417
 11
7.0533543478
 21
4.2564203417
  0
LINE
  5
297
100
AcDbEntity
  8
0
100
AcDbLine
 62
7
  6
CONTINUOUS
 10
7.0533543478
 20
4.3658203417
 11
7.0533543478
 21
4.3814203417
  0
LINE
  5
298
100
AcDbEntity
  8
0
100
AcDbLine
 62
7
  6
CONTINUOUS
 10
7.0533543478
 20
4.4908203417
 11
7.0533543478
 21
4.5064203417
  0
LINE
  5
299
100
AcDbEntity
  8
0
100
AcDbLine
 62
7
  6
CONTINUOUS
 10
7.0533543478
 20
4.6158203417
 11
7.0533543478
 21
4.6314203417
  0
LINE
  5
29A
100
AcDbEntity
  8
0
100
AcDbLine
 62
7
  6
CONTINUOUS
 10
7.1297839291
 20
4.1753908226
 11
7.1300543478
 21
4.1757031073
  0
LINE
  5
29B
100
AcDbEntity
  8
0
100
AcDbLine
 62
7
  6
CONTINUOUS
 10
7.1297839291
 20
4.0503908226
 11
7.1300543478
 21
4.0507031073
  0
LINE
  5
29C
100
AcDbEntity
  8
0
100
AcDbLine
 62
7
  6
CONTINUOUS
 10
7.1297839291
 20
3.9253908226
 11
7.1300543478
 21
3.9257031073
  0
LINE
  5
29D
100
AcDbEntity
  8
0
100
AcDbLine
 62
7
  6
CONTINUOUS
 10
7.0530741415
 20
3.5060967516
 11
7.1297839291
 21
3.5503908226
  0
LINE
  5
29E
100
AcDbEntity
  8
0
100
AcDbLine
 62
7
  6
CONTINUOUS
 10
7.0530741415
 20
3.3810967516
 11
7.1297839291
 21
3.4253908226
  0
LINE
  5
29F
100
AcDbEntity
  8
0
100
AcDbLine
 62
7
  6
CONTINUOUS
 10
7.1300543478
 20
4.7530870892
 11
7.1300543478
 21
4.6757031073
  0
LINE
  5
2A0
100
AcDbEntity
  8
0
100
AcDbLine
 62
7
  6
CONTINUOUS
 10
7.1300543478
 20
4.571537576
 11
7.1300543478
 21
4.5507031073
  0
LINE
  5
2A1
100
AcDbEntity
  8
0
100
AcDbLine
 62
7
  6
CONTINUOUS
 10
7.1300543478
 20
4.446537576
 11
7.1300543478
 21
4.4257031073
  0
LINE
  5
2A2
100
AcDbEntity
  8
0
100
AcDbLine
 62
7
  6
CONTINUOUS
 10
7.1300543478
 20
4.321537576
 11
7.1300543478
 21
4.3007031073
  0
LINE
  5
2A3
100
AcDbEntity
  8
0
100
AcDbLine
 62
7
  6
CONTINUOUS
 10
7.1300543478
 20
4.196537576
 11
7.1300543478
 21
4.1757031073
  0
LINE
  5
2A4
100
AcDbEntity
  8
0
100
AcDbLine
 62
7
  6
CONTINUOUS
 10
7.1300543478
 20
4.071537576
 11
7.1300543478
 21
4.0507031073
  0
LINE
  5
2A5
100
AcDbEntity
  8
0
100
AcDbLine
 62
7
  6
CONTINUOUS
 10
7.1300543478
 20
3.946537576
 11
7.1300543478
 21
3.9257031073
  0
LINE
  5
2A6
100
AcDbEntity
  8
0
100
AcDbLine
 62
7
  6
CONTINUOUS
 10
7.1300543478
 20
3.821537576
 11
7.1300543478
 21
3.8007031073
  0
LINE
  5
2A7
100
AcDbEntity
  8
0
100
AcDbLine
 62
7
  6
CONTINUOUS
 10
7.1300543478
 20
3.696537576
 11
7.1300543478
 21
3.6757031073
  0
LINE
  5
2A8
100
AcDbEntity
  8
0
100
AcDbLine
 62
7
  6
CONTINUOUS
 10
7.1300543478
 20
3.571537576
 11
7.1300543478
 21
3.5507031073
  0
LINE
  5
2A9
100
AcDbEntity
  8
0
100
AcDbLine
 62
7
  6
CONTINUOUS
 10
7.1300543478
 20
3.446537576
 11
7.1300543478
 21
3.4257031073
  0
LINE
  5
2AA
100
AcDbEntity
  8
0
100
AcDbLine
 62
7
  6
CONTINUOUS
 10
7.1300543478
 20
3.321537576
 11
7.1300543478
 21
3.3007031073
  0
LINE
  5
2AB
100
AcDbEntity
  8
0
100
AcDbLine
 62
7
  6
CONTINUOUS
 10
7.1300543478
 20
3.196537576
 11
7.1300543478
 21
3.1757031073
  0
LINE
  5
2AC
100
AcDbEntity
  8
0
100
AcDbLine
 62
7
  6
CONTINUOUS
 10
7.1300543478
 20
3.071537576
 11
7.1300543478
 21
3.0507031073
  0
LINE
  5
2AD
100
AcDbEntity
  8
0
100
AcDbLine
 62
7
  6
CONTINUOUS
 10
7.1300543478
 20
2.946537576
 11
7.1300543478
 21
2.9257031073
  0
LINE
  5
2AE
100
AcDbEntity
  8
0
100
AcDbLine
 62
7
  6
CONTINUOUS
 10
7.1297839291
 20
3.8003908226
 11
7.1300543478
 21
3.8007031073
  0
LINE
  5
2AF
100
AcDbEntity
  8
0
100
AcDbLine
 62
7
  6
CONTINUOUS
 10
7.1297839291
 20
3.6753908226
 11
7.1300543478
 21
3.6757031073
  0
LINE
  5
2B0
100
AcDbEntity
  8
0
100
AcDbLine
 62
7
  6
CONTINUOUS
 10
7.1297839291
 20
3.5503908226
 11
7.1300543478
 21
3.5507031073
  0
LINE
  5
2B1
100
AcDbEntity
  8
0
100
AcDbLine
 62
7
  6
CONTINUOUS
 10
7.0530741415
 20
3.2560967516
 11
7.1297839291
 21
3.3003908226
  0
LINE
  5
2B2
100
AcDbEntity
  8
0
100
AcDbLine
 62
7
  6
CONTINUOUS
 10
7.0530741415
 20
3.1310967516
 11
7.1297839291
 21
3.1753908226
  0
LINE
  5
2B3
100
AcDbEntity
  8
0
100
AcDbLine
 62
7
  6
CONTINUOUS
 10
7.5797485151
 20
5.4926203417
 11
7.5787003595
 21
5.4726203417
  0
LINE
  5
2B4
100
AcDbEntity
  8
0
100
AcDbLine
 62
7
  6
CONTINUOUS
 10
7.1297839291
 20
3.4253908226
 11
7.1300543478
 21
3.4257031073
  0
LINE
  5
2B5
100
AcDbEntity
  8
0
100
AcDbLine
 62
7
  6
CONTINUOUS
 10
7.1297839291
 20
3.3003908226
 11
7.1300543478
 21
3.3007031073
  0
LINE
  5
2B6
100
AcDbEntity
  8
0
100
AcDbLine
 62
7
  6
CONTINUOUS
 10
7.1297839291
 20
3.1753908226
 11
7.1300543478
 21
3.1757031073
  0
LINE
  5
2B7
100
AcDbEntity
  8
0
100
AcDbLine
 62
7
  6
CONTINUOUS
 10
7.0530741415
 20
3.0060967516
 11
7.1297839291
 21
3.0503908226
  0
LINE
  5
2B8
100
AcDbEntity
  8
0
100
AcDbLine
 62
7
  6
CONTINUOUS
 10
7.0530741415
 20
2.8810967516
 11
7.1297839291
 21
2.9253908226
  0
LINE
  5
2B9
100
AcDbEntity
  8
0
100
AcDbLine
 62
7
  6
CONTINUOUS
 10
7.7477083113
 20
5.4926203417
 11
7.7477083113
 21
5.6063400269
  0
LINE
  5
2BA
100
AcDbEntity
  8
0
100
AcDbLine
 62
7
  6
CONTINUOUS
 10
7.6995840593
 20
5.4926203417
 11
7.6985359037
 21
5.4726203417
  0
LINE
  5
2BB
100
AcDbEntity
  8
0
100
AcDbLine
 62
7
  6
CONTINUOUS
 10
7.7860330886
 20
6.3376203417
 11
7.7477083113
 21
5.6063400269
  0
LINE
  5
2BC
100
AcDbEntity
  8
0
100
AcDbLine
 62
7
  6
CONTINUOUS
 10
7.1297839291
 20
3.0503908226
 11
7.1300543478
 21
3.0507031073
  0
LINE
  5
2BD
100
AcDbEntity
  8
0
100
AcDbLine
 62
7
  6
CONTINUOUS
 10
7.1300543478
 20
2.9257031073
 11
7.1297839291
 21
2.9253908226
  0
LINE
  5
2BE
100
AcDbEntity
  8
0
100
AcDbLine
 62
7
  6
CONTINUOUS
 10
7.0300543478
 20
2.7626203416
 11
7.1040089181
 21
2.8365749119
  0
LINE
  5
2BF
100
AcDbEntity
  8
0
100
AcDbLine
 62
7
  6
CONTINUOUS
 10
7.8750543478
 20
5.4726203417
 11
7.9150543478
 21
5.4326203417
  0
LINE
  5
2C0
100
AcDbEntity
  8
0
100
AcDbLine
 62
7
  6
CONTINUOUS
 10
7.7875543478
 20
6.3376203417
 11
7.7875543478
 21
6.4176203417
  0
LINE
  5
2C1
100
AcDbEntity
  8
0
100
AcDbLine
 62
7
  6
CONTINUOUS
 10
7.9075543478
 20
6.3376203417
 11
7.9075543478
 21
6.4176203417
  0
LINE
  5
2C2
100
AcDbEntity
  8
0
100
AcDbLine
 62
7
  6
CONTINUOUS
 10
7.9150543478
 20
4.9419542378
 11
7.9150543478
 21
5.4326203417
  0
LINE
  5
2C3
100
AcDbEntity
  8
0
100
AcDbLine
 62
7
  6
CONTINUOUS
 10
7.9058686328
 20
6.3376203417
 11
7.8675438554
 21
5.6063400269
  0
ARC
  5
2C4
100
AcDbEntity
  8
0
100
AcDbCircle
 62
7
  6
CONTINUOUS
 10
7.7477083113
 20
5.6126203417
 40
0.12
100
AcDbArc
 50
270.0
 51
357.0
  0
ARC
  5
2C5
100
AcDbEntity
  8
0
100
AcDbCircle
 62
7
  6
CONTINUOUS
 10
2.1224003844
 20
5.6126203417
 40
0.12
100
AcDbArc
 50
183.0
 51
270.0
  0
ARC
  5
2C6
100
AcDbEntity
  8
0
100
AcDbCircle
 62
7
  6
CONTINUOUS
 10
7.2357908753
 20
4.7530870892
 40
0.1057365275
100
AcDbArc
 50
96.913
 51
180.0
  0
ARC
  5
2C7
100
AcDbEntity
  8
0
100
AcDbCircle
 62
7
  6
CONTINUOUS
 10
2.6343178204
 20
4.7530870892
 40
0.1057365275
100
AcDbArc
 50
0.0
 51
83.087
  0
SPLINE
  5
2C8
100
AcDbEntity
  8
0
100
AcDbSpline
 62
7
  6
CONTINUOUS
 70
0
 71
3
 72
35
 73
31
 74
0
 42
0.0000001
 43
0.0000001
 44
0.0000000001
 40
0.0
 40
0.0
 40
0.0
 40
0.0
 40
0.0003950404
 40
0.0009068965
 40
0.0022934969
 40
0.0041737205
 40
0.006551911
 40
0.0094295139
 40
0.0128069441
 40
0.0166841234
 40
0.0210607063
 40
0.0313099187
 40
0.0435496374
 40
0.0577736791
 40
0.0739709342
 40
0.0921270747
 40
0.1122275873
 40
0.1342578747
 40
0.1582031027
 40
0.1840447191
 40
0.2117607107
 40
0.2727271265
 40
0.340921297
 40
0.4161247455
 40
0.498096771
 40
0.5865890151
 40
0.6813333039
 40
0.7820542192
 40
0.8884093673
 40
1.0
 40
1.0
 40
1.0
 40
1.0
 10
2.8170357799
 20
3.1786439308
 30
0.0
 10
2.8171290233
 20
3.1786978501
 30
0.0
 10
2.8173551478
 20
3.1788002968
 30
0.0
 10
2.8179473294
 20
3.1790021762
 30
0.0
 10
2.8189519087
 20
3.1792391756
 30
0.0
 10
2.8204671996
 20
3.1795090954
 30
0.0
 10
2.8223942832
 20
3.1797808123
 30
0.0
 10
2.8247322913
 20
3.1800546625
 30
0.0
 10
2.8274813428
 20
3.1803294097
 30
0.0
 10
2.8306407416
 20
3.1806049352
 30
0.0
 10
2.8356707875
 20
3.1809936654
 30
0.0
 10
2.842980623
 20
3.1814697625
 30
0.0
 10
2.8529757598
 20
3.1820182461
 30
0.0
 10
2.8645946939
 20
3.1825682246
 30
0.0
 10
2.8778282805
 20
3.1831194975
 30
0.0
 10
2.892665328
 20
3.1836716247
 30
0.0
 10
2.9090937578
 20
3.1842243902
 30
0.0
 10
2.9271014208
 20
3.1847776259
 30
0.0
 10
2.9466751057
 20
3.1853311708
 30
0.0
 10
2.9677996054
 20
3.1858849905
 30
0.0
 10
2.9990161475
 20
3.1866482073
 30
0.0
 10
3.0417793603
 20
3.1875937808
 30
0.0
 10
3.0974898981
 20
3.1886971572
 30
0.0
 10
3.1589287665
 20
3.1898018082
 30
0.0
 10
3.2259028548
 20
3.1909075281
 30
0.0
 10
3.2982055621
 20
3.1920138773
 30
0.0
 10
3.3756208425
 20
3.1931210116
 30
0.0
 10
3.457907041
 20
3.194228616
 30
0.0
 10
3.544786914
 20
3.1953364433
 30
0.0
 10
3.6042071284
 20
3.1960583746
 30
0.0
 10
3.634631021
 20
3.1964203417
 30
0.0
  0
SPLINE
  5
2C9
100
AcDbEntity
  8
0
100
AcDbSpline
 62
7
  6
CONTINUOUS
 70
0
 71
3
 72
11
 73
7
 74
0
 42
0.0000001
 43
0.0000001
 44
0.0000000001
 40
0.0
 40
0.0
 40
0.0
 40
0.0
 40
0.151335327
 40
0.3673697314
 40
0.6499861522
 40
1.0
 40
1.0
 40
1.0
 40
1.0
 10
2.817036181
 20
3.3036439308
 30
0.0
 10
2.8171898929
 20
3.3037328009
 30
0.0
 10
2.8175938879
 20
3.3038918027
 30
0.0
 10
2.8183281138
 20
3.3040966507
 30
0.0
 10
2.8193028859
 20
3.3043036635
 30
0.0
 10
2.8200343895
 20
3.3044294756
 30
0.0
 10
2.8204399296
 20
3.3044940695
 30
0.0
  0
SPLINE
  5
2CA
100
AcDbEntity
  8
0
100
AcDbSpline
 62
7
  6
CONTINUOUS
 70
0
 71
3
 72
70
 73
66
 74
0
 42
0.0000001
 43
0.0000001
 44
0.0000000001
 40
0.0
 40
0.0
 40
0.0
 40
0.0
 40
0.0008628518
 40
0.0020130888
 40
0.0034505546
 40
0.0051747145
 40
0.0071848721
 40
0.0094802505
 40
0.014921913
 40
0.0214862406
 40
0.0291583638
 40
0.0379218127
 40
0.0477550825
 40
0.0586356069
 40
0.0705392582
 40
0.097299916
 40
0.1277902487
 40
0.1617267956
 40
0.1987948775
 40
0.2386517125
 40
0.2809271535
 40
0.3252291842
 40
0.3711475867
 40
0.4182562129
 40
0.4661183392
 40
0.5142903846
 40
0.5623254825
 40
0.6097785074
 40
0.6562093371
 40
0.7011873492
 40
0.7442960164
 40
0.7851352277
 40
0.8233262279
 40
0.8413174492
 40
0.858515715
 40
0.8748812295
 40
0.8903768423
 40
0.904965684
 40
0.9186140987
 40
0.9312913058
 40
0.9429668535
 40
0.9536139572
 40
0.9632088548
 40
0.9717281725
 40
0.9755782739
 40
0.9791526229
 40
0.9824492092
 40
0.985466029
 40
0.9882010915
 40
0.9906527445
 40
0.9928199404
 40
0.9947017263
 40
0.9962972065
 40
0.9976055944
 40
0.9981519523
 40
0.9986263739
 40
0.9990289676
 40
0.9993599905
 40
0.9994988098
 40
0.9996199509
 40
0.9997235638
 40
0.9998098904
 40
0.9998793543
 40
0.9999327824
 40
1.0
 40
1.0
 40
1.0
 40
1.0
 10
2.8204399296
 20
3.3044940695
 30
0.0
 10
2.8216424966
 20
3.3046856131
 30
0.0
 10
2.8244627301
 20
3.3050384067
 30
0.0
 10
2.8293101694
 20
3.3055044606
 30
0.0
 10
2.8353776127
 20
3.305974069
 30
0.0
 10
2.8426612121
 20
3.3064468002
 30
0.0
 10
2.8511576753
 20
3.3069211271
 30
0.0
 10
2.8648973253
 20
3.3075937684
 30
0.0
 10
2.885064167
 20
3.3084146024
 30
0.0
 10
2.9128195525
 20
3.3093589038
 30
0.0
 10
2.945265134
 20
3.3103063903
 30
0.0
 10
2.9823257207
 20
3.3112563332
 30
0.0
 10
3.0239155347
 20
3.3122079872
 30
0.0
 10
3.0699380634
 20
3.31316094
 30
0.0
 10
3.1398472168
 20
3.3144847607
 30
0.0
 10
3.237430296
 20
3.3161157957
 30
0.0
 10
3.3661075899
 20
3.31801072
 30
0.0
 10
3.5093329065
 20
3.3199094269
 30
0.0
 10
3.6657779948
 20
3.3218110711
 30
0.0
 10
3.8339923813
 20
3.3237146034
 30
0.0
 10
4.0124164935
 20
3.3256195798
 30
0.0
 10
4.1993956289
 20
3.3275255788
 30
0.0
 10
4.3931960771
 20
3.3294322656
 30
0.0
 10
4.5920210493
 20
3.3313394474
 30
0.0
 10
4.7940266845
 20
3.3332469174
 30
0.0
 10
4.9973398875
 20
3.3351544895
 30
0.0
 10
5.2000757088
 20
3.3370620253
 30
0.0
 10
5.400354079
 20
3.3389693332
 30
0.0
 10
5.5963178489
 20
3.3408762371
 30
0.0
 10
5.7861502198
 20
3.3427825477
 30
0.0
 10
5.9680908468
 20
3.3446879291
 30
0.0
 10
6.1404525583
 20
3.3465921321
 30
0.0
 10
6.2773675002
 20
3.3482080098
 30
0.0
 10
6.3809197841
 20
3.3495089942
 30
0.0
 10
6.4536720758
 20
3.3504650553
 30
0.0
 10
6.5229020484
 20
3.3514209096
 30
0.0
 10
6.5884490274
 20
3.352376422
 30
0.0
 10
6.6501609908
 20
3.3533316325
 30
0.0
 10
6.7078948931
 20
3.3542864607
 30
0.0
 10
6.7615167306
 20
3.3552406488
 30
0.0
 10
6.810902166
 20
3.3561941999
 30
0.0
 10
6.8559367384
 20
3.3571468421
 30
0.0
 10
6.8965159168
 20
3.3580981744
 30
0.0
 10
6.9275030428
 20
3.3589146052
 30
0.0
 10
6.9499945194
 20
3.359574139
 30
0.0
 10
6.9651173858
 20
3.3600517073
 30
0.0
 10
6.9790636368
 20
3.3605289742
 30
0.0
 10
6.9918246814
 20
3.3610058757
 30
0.0
 10
7.0033923967
 20
3.3614823181
 30
0.0
 10
7.0137599634
 20
3.3619581628
 30
0.0
 10
7.0229219408
 20
3.3624331481
 30
0.0
 10
7.0308738916
 20
3.3629066855
 30
0.0
 10
7.0376114111
 20
3.3633785119
 30
0.0
 10
7.0424636306
 20
3.3637893921
 30
0.0
 10
7.0457334769
 20
3.364126714
 30
0.0
 10
7.0477283531
 20
3.3643636108
 30
0.0
 10
7.0494169427
 20
3.3645996967
 30
0.0
 10
7.0506312276
 20
3.3648052574
 30
0.0
 10
7.0514481955
 20
3.364973833
 30
0.0
 10
7.0519474148
 20
3.3650923554
 30
0.0
 10
7.0523706112
 20
3.3652109389
 30
0.0
 10
7.0527167987
 20
3.36532783
 30
0.0
 10
7.0529902067
 20
3.3654474799
 30
0.0
 10
7.053216449
 20
3.365577298
 30
0.0
 10
7.0533520287
 20
3.3657254785
 30
0.0
 10
7.0533521055
 20
3.3658203413
 30
0.0
  0
SPLINE
  5
2CB
100
AcDbEntity
  8
0
100
AcDbSpline
 62
7
  6
CONTINUOUS
 70
0
 71
3
 72
80
 73
76
 74
0
 42
0.0000001
 43
0.0000001
 44
0.0000000001
 40
0.0
 40
0.0
 40
0.0
 40
0.0
 40
0.0000636304
 40
0.0001444521
 40
0.0003594508
 40
0.0006470309
 40
0.0010078914
 40
0.0014423461
 40
0.0019505452
 40
0.0025325577
 40
0.0031884087
 40
0.0047215928
 40
0.0065497389
 40
0.0086716875
 40
0.0110860709
 40
0.0137914835
 40
0.0167864971
 40
0.0200696535
 40
0.0236390525
 40
0.0316269787
 40
0.0407309179
 40
0.0509304519
 40
0.0622003049
 40
0.0745137
 40
0.0878422021
 40
0.1021529535
 40
0.1174123183
 40
0.133584348
 40
0.1506295659
 40
0.187177137
 40
0.2267062194
 40
0.2688403281
 40
0.3131780387
 40
0.3592962313
 40
0.406755316
 40
0.4551030485
 40
0.5038783096
 40
0.5526161122
 40
0.6008519315
 40
0.6481256704
 40
0.6939867442
 40
0.7379981698
 40
0.779740043
 40
0.8188143114
 40
0.8372340534
 40
0.8548489964
 40
0.8716177456
 40
0.8875005154
 40
0.9024585088
 40
0.9164570443
 40
0.9294625348
 40
0.9414432616
 40
0.9523718318
 40
0.9622215475
 40
0.9709687077
 40
0.9749226563
 40
0.9785936174
 40
0.981979173
 40
0.9850771739
 40
0.9878860874
 40
0.9904044791
 40
0.9926309342
 40
0.9945640691
 40
0.996202589
 40
0.9975458266
 40
0.9985937409
 40
0.9990071012
 40
0.9993469347
 40
0.9994893984
 40
0.9996136598
 40
0.9997198524
 40
0.9998081962
 40
0.9998790838
 40
0.9999332969
 40
1.0
 40
1.0
 40
1.0
 40
1.0
 10
2.7403254377
 20
3.0093498607
 30
0.0
 10
2.7404061306
 20
3.009396353
 30
0.0
 10
2.7405986414
 20
3.0094854516
 30
0.0
 10
2.7410947928
 20
3.009661243
 30
0.0
 10
2.741924543
 20
3.0098689512
 30
0.0
 10
2.7431659947
 20
3.0101054237
 30
0.0
 10
2.7447333017
 20
3.0103434506
 30
0.0
 10
2.7466260659
 20
3.0105831531
 30
0.0
 10
2.7488446506
 20
3.0108236189
 30
0.0
 10
2.7513888088
 20
3.0110647261
 30
0.0
 10
2.7554302509
 20
3.0114046578
 30
0.0
 10
2.7612951701
 20
3.0118211581
 30
0.0
 10
2.7693061322
 20
3.0123009541
 30
0.0
 10
2.7786087114
 20
3.0127820808
 30
0.0
 10
2.7891966648
 20
3.0132643006
 30
0.0
 10
2.8010635618
 20
3.013747219
 30
0.0
 10
2.8142028984
 20
3.0142306687
 30
0.0
 10
2.8286075101
 20
3.0147145206
 30
0.0
 10
2.850317412
 20
3.0153854929
 30
0.0
 10
2.8805455677
 20
3.0162145498
 30
0.0
 10
2.9204771625
 20
3.0171782762
 30
0.0
 10
2.9652133354
 20
3.0181433139
 30
0.0
 10
3.0146477566
 20
3.0191096424
 30
0.0
 10
3.0686624551
 20
3.0200768451
 30
0.0
 10
3.1271283993
 20
3.0210446108
 30
0.0
 10
3.1899065463
 20
3.0220129702
 30
0.0
 10
3.2568468826
 20
3.0229817114
 30
0.0
 10
3.3277897217
 20
3.023950743
 30
0.0
 10
3.4298876168
 20
3.0252741579
 30
0.0
 10
3.5661691623
 20
3.0269158039
 30
0.0
 10
3.7391694477
 20
3.0288452513
 30
0.0
 10
3.9235718782
 20
3.0307762387
 30
0.0
 10
4.117618491
 20
3.032708419
 30
0.0
 10
4.3194589983
 20
3.0346414406
 30
0.0
 10
4.527168752
 20
3.0365750351
 30
0.0
 10
4.7387675018
 20
3.0385089701
 30
0.0
 10
4.9522378345
 20
3.0404430736
 30
0.0
 10
5.1655443666
 20
3.0423771657
 30
0.0
 10
5.3766532103
 20
3.0443110569
 30
0.0
 10
5.5835515528
 20
3.0462445712
 30
0.0
 10
5.7842668822
 20
3.0481774871
 30
0.0
 10
5.9768854994
 20
3.0501094885
 30
0.0
 10
6.159570566
 20
3.0520403014
 30
0.0
 10
6.3048011033
 20
3.0536784302
 30
0.0
 10
6.4147212346
 20
3.0549973487
 30
0.0
 10
6.4919972622
 20
3.055966843
 30
0.0
 10
6.5655599229
 20
3.0569360849
 30
0.0
 10
6.6352335725
 20
3.0579049997
 30
0.0
 10
6.7008523796
 20
3.0588736532
 30
0.0
 10
6.7622595754
 20
3.0598418299
 30
0.0
 10
6.8193087316
 20
3.0608094126
 30
0.0
 10
6.8718640594
 20
3.0617763961
 30
0.0
 10
6.9197998296
 20
3.0627423068
 30
0.0
 10
6.9630019801
 20
3.063707045
 30
0.0
 10
6.9959966182
 20
3.0645349761
 30
0.0
 10
7.0199491511
 20
3.0652036937
 30
0.0
 10
7.0360565963
 20
3.0656879393
 30
0.0
 10
7.050910693
 20
3.0661718725
 30
0.0
 10
7.0645023989
 20
3.0666554803
 30
0.0
 10
7.0768240825
 20
3.0671386065
 30
0.0
 10
7.0878691323
 20
3.067621103
 30
0.0
 10
7.0976311013
 20
3.0681026655
 30
0.0
 10
7.1061035791
 20
3.0685830121
 30
0.0
 10
7.1132812362
 20
3.069061025
 30
0.0
 10
7.1191599156
 20
3.0695366404
 30
0.0
 10
7.1232441488
 20
3.0699528538
 30
0.0
 10
7.1258574433
 20
3.0703000796
 30
0.0
 10
7.1271519211
 20
3.0705085689
 30
0.0
 10
7.1280232013
 20
3.0706795058
 30
0.0
 10
7.1285555738
 20
3.0707996474
 30
0.0
 10
7.129006967
 20
3.0709198652
 30
0.0
 10
7.1293760163
 20
3.0710382096
 30
0.0
 10
7.1296678879
 20
3.0711595618
 30
0.0
 10
7.1299066017
 20
3.0712895016
 30
0.0
 10
7.1300543478
 20
3.0714399507
 30
0.0
 10
7.1300543478
 20
3.071537576
 30
0.0
  0
SPLINE
  5
2CC
100
AcDbEntity
  8
0
100
AcDbSpline
 62
7
  6
CONTINUOUS
 70
0
 71
3
 72
12
 73
8
 74
0
 42
0.0000001
 43
0.0000001
 44
0.0000000001
 40
0.0
 40
0.0
 40
0.0
 40
0.0
 40
0.0583766673
 40
0.1351434402
 40
0.3457613714
 40
0.6338543494
 40
1.0
 40
1.0
 40
1.0
 40
1.0
 10
2.8170347784
 20
3.0536439312
 30
0.0
 10
2.8171358893
 20
3.0537023724
 30
0.0
 10
2.8173840496
 20
3.0538126195
 30
0.0
 10
2.818041127
 20
3.0540296952
 30
0.0
 10
2.8191662914
 20
3.0542833154
 30
0.0
 10
2.8208720212
 20
3.0545725444
 30
0.0
 10
2.8221697209
 20
3.0547457906
 30
0.0
 10
2.8228966979
 20
3.0548355027
 30
0.0
  0
SPLINE
  5
2CD
100
AcDbEntity
  8
0
100
AcDbSpline
 62
7
  6
CONTINUOUS
 70
0
 71
3
 72
70
 73
66
 74
0
 42
0.0000001
 43
0.0000001
 44
0.0000000001
 40
0.0
 40
0.0
 40
0.0
 40
0.0
 40
0.0010613741
 40
0.0024069204
 40
0.0040363973
 40
0.0059493636
 40
0.0081451152
 40
0.0106222497
 40
0.0164142787
 40
0.0233125518
 40
0.0313027022
 40
0.040365294
 40
0.0504796502
 40
0.061623812
 40
0.0737710955
 40
0.1009626395
 40
0.1318052481
 40
0.1660172127
 40
0.2032839607
 40
0.2432639697
 40
0.2855913728
 40
0.3298774012
 40
0.3757161835
 40
0.4226877556
 40
0.4703610552
 40
0.5182991925
 40
0.5660625574
 40
0.6132131575
 40
0.6593189659
 40
0.7039567989
 40
0.746717646
 40
0.7872098098
 40
0.8250612497
 40
0.8428877113
 40
0.8599254906
 40
0.8761365257
 40
0.8914833474
 40
0.9059299924
 40
0.9194444846
 40
0.9319955092
 40
0.9435534521
 40
0.9540930957
 40
0.963589942
 40
0.9720213697
 40
0.9758319152
 40
0.9793694927
 40
0.9826319667
 40
0.9856172141
 40
0.9883234711
 40
0.9907495379
 40
0.9928942843
 40
0.9947566133
 40
0.9963354857
 40
0.9976299785
 40
0.9981704472
 40
0.9986398021
 40
0.9990381763
 40
0.9993658076
 40
0.999503235
 40
0.9996231833
 40
0.9997257999
 40
0.9998113234
 40
0.9998801735
 40
0.9999331712
 40
1.0
 40
1.0
 40
1.0
 40
1.0
 10
2.8228966979
 20
3.0548355027
 30
0.0
 10
2.8243824469
 20
3.0550188505
 30
0.0
 10
2.8277600338
 20
3.0553664718
 30
0.0
 10
2.8334341681
 20
3.0558331494
 30
0.0
 10
2.8403126544
 20
3.0563024537
 30
0.0
 10
2.8483924594
 20
3.056773765
 30
0.0
 10
2.8576695468
 20
3.0572462329
 30
0.0
 10
2.8724148393
 20
3.0579125616
 30
0.0
 10
2.8937924747
 20
3.0587285633
 30
0.0
 10
2.9229462277
 20
3.0596691172
 30
0.0
 10
2.9567149517
 20
3.0606121828
 30
0.0
 10
2.9950212762
 20
3.0615576231
 30
0.0
 10
3.037777359
 20
3.062504502
 30
0.0
 10
3.0848851947
 20
3.0634523683
 30
0.0
 10
3.1560770099
 20
3.0647673048
 30
0.0
 10
3.2550515206
 20
3.0663883838
 30
0.0
 10
3.3851468089
 20
3.0682737492
 30
0.0
 10
3.529454
 20
3.0701624724
 30
0.0
 10
3.686650037
 20
3.0720539673
 30
0.0
 10
3.8552932714
 20
3.0739472839
 30
0.0
 10
4.0338374476
 20
3.0758418944
 30
0.0
 10
4.2206455852
 20
3.0777374823
 30
0.0
 10
4.4140044261
 20
3.0796337424
 30
0.0
 10
4.6121410757
 20
3.0815304318
 30
0.0
 10
4.8132388991
 20
3.0834274017
 30
0.0
 10
5.0154535582
 20
3.0853244581
 30
0.0
 10
5.2169309418
 20
3.087221451
 30
0.0
 10
5.4158237966
 20
3.0891182285
 30
0.0
 10
5.6103080331
 20
3.0910145752
 30
0.0
 10
5.7986004291
 20
3.0929103233
 30
0.0
 10
5.978974632
 20
3.0948051767
 30
0.0
 10
6.1497763992
 20
3.0966988039
 30
0.0
 10
6.2854103488
 20
3.0983058645
 30
0.0
 10
6.3879643122
 20
3.0995997169
 30
0.0
 10
6.4599973678
 20
3.1005504989
 30
0.0
 10
6.5285326905
 20
3.1015009952
 30
0.0
 10
6.5934129723
 20
3.1024511944
 30
0.0
 10
6.6544894774
 20
3.1034011384
 30
0.0
 10
6.7116221403
 20
3.1043506027
 30
0.0
 10
6.7646798309
 20
3.1052994855
 30
0.0
 10
6.8135409224
 20
3.1062477937
 30
0.0
 10
6.8580933786
 20
3.1071950667
 30
0.0
 10
6.8982349591
 20
3.1081411094
 30
0.0
 10
6.928885878
 20
3.1089530743
 30
0.0
 10
6.9511325582
 20
3.1096089105
 30
0.0
 10
6.966090795
 20
3.1100838104
 30
0.0
 10
6.9798843654
 20
3.1105584041
 30
0.0
 10
6.9925046574
 20
3.1110326593
 30
0.0
 10
7.0039443422
 20
3.1115064961
 30
0.0
 10
7.0141974506
 20
3.111979684
 30
0.0
 10
7.023258862
 20
3.1124520115
 30
0.0
 10
7.0311236189
 20
3.1129228937
 30
0.0
 10
7.0377867205
 20
3.113392058
 30
0.0
 10
7.0425847585
 20
3.1138006597
 30
0.0
 10
7.0458176203
 20
3.1141361546
 30
0.0
 10
7.0477899119
 20
3.1143717447
 30
0.0
 10
7.0494596203
 20
3.1146065186
 30
0.0
 10
7.0506604887
 20
3.1148109305
 30
0.0
 10
7.0514685451
 20
3.1149785557
 30
0.0
 10
7.051962422
 20
3.1150964223
 30
0.0
 10
7.0523811446
 20
3.1152143458
 30
0.0
 10
7.0527237477
 20
3.1153306063
 30
0.0
 10
7.0529943542
 20
3.115449575
 30
0.0
 10
7.0532185789
 20
3.1155788577
 30
0.0
 10
7.0533526475
 20
3.115726082
 30
0.0
 10
7.05335287
 20
3.1158203407
 30
0.0
  0
SPLINE
  5
2CE
100
AcDbEntity
  8
0
100
AcDbSpline
 62
7
  6
CONTINUOUS
 70
0
 71
3
 72
29
 73
25
 74
0
 42
0.0000001
 43
0.0000001
 44
0.0000000001
 40
0.0
 40
0.0
 40
0.0
 40
0.0
 40
0.0013091982
 40
0.0028700236
 40
0.0048375207
 40
0.0072894064
 40
0.0102645428
 40
0.0137835361
 40
0.0224925815
 40
0.0334644214
 40
0.0467108297
 40
0.0622141732
 40
0.0799395918
 40
0.0998485149
 40
0.121900329
 40
0.1722534838
 40
0.2305270292
 40
0.296164046
 40
0.3685712672
 40
0.4470275746
 40
0.5307785964
 40
0.6190450588
 40
0.8058375221
 40
1.0
 40
1.0
 40
1.0
 40
1.0
 10
7.8675438554
 20
5.6063400269
 30
0.0
 10
7.8675411079
 20
5.6062876018
 30
0.0
 10
7.8675047087
 20
5.606173637
 30
0.0
 10
7.867376929
 20
5.6060238577
 30
0.0
 10
7.8671822023
 20
5.6058817965
 30
0.0
 10
7.8669186043
 20
5.605744448
 30
0.0
 10
7.8665852795
 20
5.6056108296
 30
0.0
 10
7.8660045061
 20
5.6054243176
 30
0.0
 10
7.8650977284
 20
5.6052112828
 30
0.0
 10
7.8637966314
 20
5.6049848176
 30
0.0
 10
7.8622172925
 20
5.6047755216
 30
0.0
 10
7.8603634158
 20
5.6045838804
 30
0.0
 10
7.8582395755
 20
5.6044107517
 30
0.0
 10
7.8558511152
 20
5.6042566865
 30
0.0
 10
7.8521541128
 20
5.6040691386
 30
0.0
 10
7.8469165899
 20
5.6038952712
 30
0.0
 10
7.8399296965
 20
5.603774692
 30
0.0
 10
7.8320575336
 20
5.6037367786
 30
0.0
 10
7.8233761547
 20
5.6037829865
 30
0.0
 10
7.8139692193
 20
5.6039124649
 30
0.0
 10
7.8039277102
 20
5.6041244295
 30
0.0
 10
7.7895453338
 20
5.6045225552
 30
0.0
 10
7.7707424558
 20
5.6052135385
 30
0.0
 10
7.7554833557
 20
5.6059336702
 30
0.0
 10
7.7477083113
 20
5.6063400269
 30
0.0
  0
SPLINE
  5
2CF
100
AcDbEntity
  8
0
100
AcDbSpline
 62
7
  6
CONTINUOUS
 70
0
 71
3
 72
80
 73
76
 74
0
 42
0.0000001
 43
0.0000001
 44
0.0000000001
 40
0.0
 40
0.0
 40
0.0
 40
0.0
 40
0.0000636304
 40
0.0001444521
 40
0.0003594508
 40
0.0006470309
 40
0.0010078914
 40
0.0014423461
 40
0.0019505452
 40
0.0025325577
 40
0.0031884087
 40
0.0047215928
 40
0.0065497389
 40
0.0086716875
 40
0.0110860709
 40
0.0137914835
 40
0.0167864971
 40
0.0200696535
 40
0.0236390525
 40
0.0316269787
 40
0.0407309179
 40
0.0509304519
 40
0.0622003049
 40
0.0745137
 40
0.0878422021
 40
0.1021529535
 40
0.1174123183
 40
0.133584348
 40
0.1506295659
 40
0.187177137
 40
0.2267062194
 40
0.2688403281
 40
0.3131780387
 40
0.3592962313
 40
0.406755316
 40
0.4551030485
 40
0.5038783096
 40
0.5526161122
 40
0.6008519315
 40
0.6481256704
 40
0.6939867442
 40
0.7379981698
 40
0.779740043
 40
0.8188143114
 40
0.8372340534
 40
0.8548489964
 40
0.8716177456
 40
0.8875005154
 40
0.9024585088
 40
0.9164570443
 40
0.9294625348
 40
0.9414432616
 40
0.9523718318
 40
0.9622215475
 40
0.9709687077
 40
0.9749226563
 40
0.9785936174
 40
0.981979173
 40
0.9850771739
 40
0.9878860874
 40
0.9904044791
 40
0.9926309342
 40
0.9945640691
 40
0.996202589
 40
0.9975458266
 40
0.9985937409
 40
0.9990071012
 40
0.9993469347
 40
0.9994893984
 40
0.9996136598
 40
0.9997198524
 40
0.9998081962
 40
0.9998790838
 40
0.9999332969
 40
1.0
 40
1.0
 40
1.0
 40
1.0
 10
2.7403254377
 20
3.7593498607
 30
0.0
 10
2.7404061306
 20
3.759396353
 30
0.0
 10
2.7405986414
 20
3.7594854516
 30
0.0
 10
2.7410947928
 20
3.759661243
 30
0.0
 10
2.741924543
 20
3.7598689512
 30
0.0
 10
2.7431659947
 20
3.7601054237
 30
0.0
 10
2.7447333017
 20
3.7603434506
 30
0.0
 10
2.7466260659
 20
3.7605831531
 30
0.0
 10
2.7488446506
 20
3.7608236189
 30
0.0
 10
2.7513888088
 20
3.7610647261
 30
0.0
 10
2.7554302509
 20
3.7614046578
 30
0.0
 10
2.7612951701
 20
3.7618211581
 30
0.0
 10
2.7693061322
 20
3.7623009541
 30
0.0
 10
2.7786087114
 20
3.7627820808
 30
0.0
 10
2.7891966648
 20
3.7632643006
 30
0.0
 10
2.8010635618
 20
3.763747219
 30
0.0
 10
2.8142028984
 20
3.7642306687
 30
0.0
 10
2.8286075101
 20
3.7647145206
 30
0.0
 10
2.850317412
 20
3.7653854929
 30
0.0
 10
2.8805455677
 20
3.7662145498
 30
0.0
 10
2.9204771625
 20
3.7671782762
 30
0.0
 10
2.9652133354
 20
3.7681433139
 30
0.0
 10
3.0146477566
 20
3.7691096424
 30
0.0
 10
3.0686624551
 20
3.7700768451
 30
0.0
 10
3.1271283993
 20
3.7710446108
 30
0.0
 10
3.1899065463
 20
3.7720129702
 30
0.0
 10
3.2568468826
 20
3.7729817114
 30
0.0
 10
3.3277897217
 20
3.773950743
 30
0.0
 10
3.4298876168
 20
3.7752741579
 30
0.0
 10
3.5661691623
 20
3.7769158039
 30
0.0
 10
3.7391694477
 20
3.7788452513
 30
0.0
 10
3.9235718782
 20
3.7807762387
 30
0.0
 10
4.117618491
 20
3.782708419
 30
0.0
 10
4.3194589983
 20
3.7846414406
 30
0.0
 10
4.527168752
 20
3.7865750351
 30
0.0
 10
4.7387675018
 20
3.7885089701
 30
0.0
 10
4.9522378345
 20
3.7904430736
 30
0.0
 10
5.1655443666
 20
3.7923771657
 30
0.0
 10
5.3766532103
 20
3.7943110569
 30
0.0
 10
5.5835515528
 20
3.7962445712
 30
0.0
 10
5.7842668822
 20
3.7981774871
 30
0.0
 10
5.9768854994
 20
3.8001094885
 30
0.0
 10
6.159570566
 20
3.8020403014
 30
0.0
 10
6.3048011033
 20
3.8036784302
 30
0.0
 10
6.4147212346
 20
3.8049973487
 30
0.0
 10
6.4919972622
 20
3.805966843
 30
0.0
 10
6.5655599229
 20
3.8069360849
 30
0.0
 10
6.6352335725
 20
3.8079049997
 30
0.0
 10
6.7008523796
 20
3.8088736532
 30
0.0
 10
6.7622595754
 20
3.8098418299
 30
0.0
 10
6.8193087316
 20
3.8108094126
 30
0.0
 10
6.8718640594
 20
3.8117763961
 30
0.0
 10
6.9197998296
 20
3.8127423068
 30
0.0
 10
6.9630019801
 20
3.813707045
 30
0.0
 10
6.9959966182
 20
3.8145349761
 30
0.0
 10
7.0199491511
 20
3.8152036937
 30
0.0
 10
7.0360565963
 20
3.8156879393
 30
0.0
 10
7.050910693
 20
3.8161718725
 30
0.0
 10
7.0645023989
 20
3.8166554803
 30
0.0
 10
7.0768240825
 20
3.8171386065
 30
0.0
 10
7.0878691323
 20
3.817621103
 30
0.0
 10
7.0976311013
 20
3.8181026655
 30
0.0
 10
7.1061035791
 20
3.8185830121
 30
0.0
 10
7.1132812362
 20
3.819061025
 30
0.0
 10
7.1191599156
 20
3.8195366404
 30
0.0
 10
7.1232441488
 20
3.8199528538
 30
0.0
 10
7.1258574433
 20
3.8203000796
 30
0.0
 10
7.1271519211
 20
3.8205085689
 30
0.0
 10
7.1280232013
 20
3.8206795058
 30
0.0
 10
7.1285555738
 20
3.8207996474
 30
0.0
 10
7.129006967
 20
3.8209198652
 30
0.0
 10
7.1293760163
 20
3.8210382096
 30
0.0
 10
7.1296678879
 20
3.8211595618
 30
0.0
 10
7.1299066017
 20
3.8212895016
 30
0.0
 10
7.1300543478
 20
3.8214399507
 30
0.0
 10
7.1300543478
 20
3.821537576
 30
0.0
  0
SPLINE
  5
2D0
100
AcDbEntity
  8
0
100
AcDbSpline
 62
7
  6
CONTINUOUS
 70
0
 71
3
 72
80
 73
76
 74
0
 42
0.0000001
 43
0.0000001
 44
0.0000000001
 40
0.0
 40
0.0
 40
0.0
 40
0.0
 40
0.0000634973
 40
0.000144175
 40
0.0003589049
 40
0.0006463178
 40
0.0010071519
 40
0.0014416841
 40
0.0019500202
 40
0.0025321843
 40
0.0031881558
 40
0.0047213065
 40
0.0065489383
 40
0.0086703696
 40
0.0110847273
 40
0.0137904391
 40
0.0167856919
 40
0.0200686575
 40
0.0236374978
 40
0.0316251694
 40
0.0407295941
 40
0.0509282674
 40
0.0621981476
 40
0.0745118804
 40
0.0878395407
 40
0.1021505499
 40
0.117410054
 40
0.1335813745
 40
0.1506269967
 40
0.1871740126
 40
0.2267033755
 40
0.2688375979
 40
0.3131749906
 40
0.3592933295
 40
0.406752625
 40
0.4551003527
 40
0.5038758053
 40
0.5526137749
 40
0.6008496884
 40
0.6481237992
 40
0.6939850433
 40
0.7379964937
 40
0.7797387834
 40
0.8188133357
 40
0.8372330429
 40
0.8548479816
 40
0.8716170914
 40
0.8874997274
 40
0.902457811
 40
0.9164566544
 40
0.9294619649
 40
0.9414428392
 40
0.9523716371
 40
0.962221184
 40
0.9709684972
 40
0.9749225519
 40
0.9785935468
 40
0.9819790167
 40
0.9850769828
 40
0.9878859366
 40
0.9904044007
 40
0.9926309174
 40
0.99456406
 40
0.99620253
 40
0.9975457525
 40
0.9985936803
 40
0.9990070535
 40
0.9993469015
 40
0.9994893724
 40
0.9996136407
 40
0.9997198396
 40
0.9998081888
 40
0.9998790809
 40
0.9999332969
 40
1.0
 40
1.0
 40
1.0
 40
1.0
 10
2.7403259048
 20
2.8843498598
 30
0.0
 10
2.7404063565
 20
2.8843963803
 30
0.0
 10
2.7405984015
 20
2.8844855314
 30
0.0
 10
2.7410936735
 20
2.8846614182
 30
0.0
 10
2.7419225454
 20
2.8848691849
 30
0.0
 10
2.7431633086
 20
2.8851056509
 30
0.0
 10
2.7447304535
 20
2.885343628
 30
0.0
 10
2.7466235019
 20
2.8855832743
 30
0.0
 10
2.7488426331
 20
2.8858236723
 30
0.0
 10
2.7513873994
 20
2.8860647064
 30
0.0
 10
2.7554292026
 20
2.8864045077
 30
0.0
 10
2.7612935026
 20
2.8868208789
 30
0.0
 10
2.7693029009
 20
2.8873006972
 30
0.0
 10
2.7786039288
 20
2.8877818539
 30
0.0
 10
2.7891915252
 20
2.8882640557
 30
0.0
 10
2.8010591722
 20
2.8887469741
 30
0.0
 10
2.8141990164
 20
2.8892304369
 30
0.0
 10
2.8286028785
 20
2.8897143285
 30
0.0
 10
2.8503113054
 20
2.8903854066
 30
0.0
 10
2.8805389801
 20
2.8912144358
 30
0.0
 10
2.9204696536
 20
2.89217801
 30
0.0
 10
2.9652053104
 20
2.8931431995
 30
0.0
 10
3.0146390035
 20
2.8941094801
 30
0.0
 10
3.068653001
 20
2.8950766247
 30
0.0
 10
3.1271185786
 20
2.8960445086
 30
0.0
 10
3.1898960713
 20
2.8970128028
 30
0.0
 10
3.2568359462
 20
2.8979815231
 30
0.0
 10
3.3277785367
 20
2.8989506366
 30
0.0
 10
3.4298751668
 20
2.9002739582
 30
0.0
 10
3.5661568913
 20
2.9019157042
 30
0.0
 10
3.7391569294
 20
2.9038451032
 30
0.0
 10
3.9235594586
 20
2.9057760991
 30
0.0
 10
4.1176059725
 20
2.9077083084
 30
0.0
 10
4.3194465231
 20
2.9096413236
 30
0.0
 10
4.5271567777
 20
2.9115749182
 30
0.0
 10
4.7387560944
 20
2.9135088704
 30
0.0
 10
4.9522269296
 20
2.9154429737
 30
0.0
 10
5.1655341091
 20
2.9173770703
 30
0.0
 10
5.3766438643
 20
2.9193109778
 30
0.0
 10
5.5835431236
 20
2.9212444858
 30
0.0
 10
5.7842592687
 20
2.9231774081
 30
0.0
 10
5.9768787673
 20
2.9251094319
 30
0.0
 10
6.1595648825
 20
2.9270402365
 30
0.0
 10
6.3047963838
 20
2.9286783666
 30
0.0
 10
6.4147168655
 20
2.9299972947
 30
0.0
 10
6.4919933581
 20
2.930966809
 30
0.0
 10
6.5655563398
 20
2.9319360185
 30
0.0
 10
6.635230448
 20
2.9329049654
 30
0.0
 10
6.7008496372
 20
2.9338736256
 30
0.0
 10
6.7622571484
 20
2.9348417686
 30
0.0
 10
6.8193067031
 20
2.9358093922
 30
0.0
 10
6.8718623129
 20
2.9367763708
 30
0.0
 10
6.9197983825
 20
2.9377422532
 30
0.0
 10
6.9630008388
 20
2.9387070485
 30
0.0
 10
6.9959956069
 20
2.9395349631
 30
0.0
 10
7.0199485672
 20
2.9402036706
 30
0.0
 10
7.036056091
 20
2.9406879062
 30
0.0
 10
7.0509100595
 20
2.9411718477
 30
0.0
 10
7.064501647
 20
2.9416554554
 30
0.0
 10
7.0768234441
 20
2.9421385806
 30
0.0
 10
7.0878687483
 20
2.9426210794
 30
0.0
 10
7.0976309239
 20
2.9431026472
 30
0.0
 10
7.1061034291
 20
2.9435830021
 30
0.0
 10
7.1132809994
 20
2.9440610493
 30
0.0
 10
7.119159602
 20
2.944536675
 30
0.0
 10
7.1232438512
 20
2.9449528902
 30
0.0
 10
7.1258572062
 20
2.9453001123
 30
0.0
 10
7.1271517355
 20
2.945508599
 30
0.0
 10
7.128023059
 20
2.9456795325
 30
0.0
 10
7.1285554625
 20
2.9457996716
 30
0.0
 10
7.1290068849
 20
2.9459198866
 30
0.0
 10
7.1293759595
 20
2.9460382275
 30
0.0
 10
7.129667854
 20
2.946159576
 30
0.0
 10
7.1299065805
 20
2.9462895077
 30
0.0
 10
7.1300543478
 20
2.9464399506
 30
0.0
 10
7.1300543478
 20
2.946537576
 30
0.0
  0
LINE
  5
2D1
100
AcDbEntity
  8
0
100
AcDbLine
 62
7
  6
CONTINUOUS
 10
2.8170346966
 20
2.9286439321
 11
2.8199073007
 21
2.9294056105
  0
SPLINE
  5
2D2
100
AcDbEntity
  8
0
100
AcDbSpline
 62
7
  6
CONTINUOUS
 70
0
 71
3
 72
72
 73
68
 74
0
 42
0.0000001
 43
0.0000001
 44
0.0000000001
 40
0.0
 40
0.0
 40
0.0
 40
0.0
 40
0.0003696841
 40
0.0008111777
 40
0.0019100264
 40
0.0032969342
 40
0.0049717727
 40
0.0069340417
 40
0.0091824895
 40
0.0145320833
 40
0.0210086905
 40
0.0285987272
 40
0.0372833956
 40
0.0470427397
 40
0.057855249
 40
0.0696945783
 40
0.0825334174
 40
0.0963429269
 40
0.1267401238
 40
0.1606046918
 40
0.1976209829
 40
0.2374447692
 40
0.2797065383
 40
0.3240127539
 40
0.3699514343
 40
0.417095844
 40
0.4650072602
 40
0.5132403028
 40
0.5613465356
 40
0.608878465
 40
0.6553944409
 40
0.7004616586
 40
0.7436609834
 40
0.7845913044
 40
0.8228714936
 40
0.8409055873
 40
0.8581455782
 40
0.8745521998
 40
0.8900864484
 40
0.9047122296
 40
0.9183964472
 40
0.9311063056
 40
0.9428123666
 40
0.9534883983
 40
0.9631085117
 40
0.9716505844
 40
0.9755114797
 40
0.9790958406
 40
0.982401344
 40
0.985425919
 40
0.9881681289
 40
0.9906266482
 40
0.992800172
 40
0.9946874292
 40
0.9962872083
 40
0.9975986968
 40
0.998146337
 40
0.9986219682
 40
0.9990257037
 40
0.9993577615
 40
0.9994970453
 40
0.9996186089
 40
0.9997225969
 40
0.999809246
 40
0.9998789737
 40
0.9999326009
 40
1.0
 40
1.0
 40
1.0
 40
1.0
 10
2.8199073007
 20
2.9294056105
 30
0.0
 10
2.8204215279
 20
2.9294941548
 30
0.0
 10
2.82155365
 20
2.9296664518
 30
0.0
 10
2.8242280413
 20
2.9300076706
 30
0.0
 10
2.8283398427
 20
2.9304190283
 30
0.0
 10
2.8341936231
 20
2.9308895075
 30
0.0
 10
2.8412692365
 20
2.9313622168
 30
0.0
 10
2.8495629686
 20
2.9318369906
 30
0.0
 10
2.8630402152
 20
2.9325111572
 30
0.0
 10
2.8828893159
 20
2.9333334381
 30
0.0
 10
2.9102783855
 20
2.9342787217
 30
0.0
 10
2.9423770754
 20
2.9352270805
 30
0.0
 10
2.9791108625
 20
2.936178336
 30
0.0
 10
3.020394349
 20
2.9371312742
 30
0.0
 10
3.0661315496
 20
2.9380853208
 30
0.0
 10
3.1162161744
 20
2.9390403486
 30
0.0
 10
3.1705316385
 20
2.9399961239
 30
0.0
 10
3.2510384383
 20
2.941313587
 30
0.0
 10
3.361221024
 20
2.9429424649
 30
0.0
 10
3.5041584373
 20
2.944843937
 30
0.0
 10
3.66040215
 20
2.9467481063
 30
0.0
 10
3.8284989681
 20
2.9486543599
 30
0.0
 10
4.0068858339
 20
2.9505619873
 30
0.0
 10
4.1939040901
 20
2.9524706685
 30
0.0
 10
4.3878143396
 20
2.9543800834
 30
0.0
 10
4.5868134233
 20
2.956289966
 30
0.0
 10
4.7890510527
 20
2.9582001556
 30
0.0
 10
4.9926463167
 20
2.9601104613
 30
0.0
 10
5.1957059268
 20
2.9620207132
 30
0.0
 10
5.3963418584
 20
2.9639307656
 30
0.0
 10
5.5926881453
 20
2.9658404005
 30
0.0
 10
5.7829188394
 20
2.9677494268
 30
0.0
 10
5.9652651981
 20
2.969657572
 30
0.0
 10
6.138031394
 20
2.9715644989
 30
0.0
 10
6.2752788416
 20
2.9731826412
 30
0.0
 10
6.3790896603
 20
2.9744854823
 30
0.0
 10
6.4520286823
 20
2.9754429558
 30
0.0
 10
6.5214389563
 20
2.9764001219
 30
0.0
 10
6.5871590099
 20
2.9773570451
 30
0.0
 10
6.6490360707
 20
2.9783136726
 30
0.0
 10
6.706926117
 20
2.9792697895
 30
0.0
 10
6.7606945004
 20
2.9802254013
 30
0.0
 10
6.810216236
 20
2.9811803801
 30
0.0
 10
6.8553760614
 20
2.9821342723
 30
0.0
 10
6.8960689682
 20
2.9830870499
 30
0.0
 10
6.9271430006
 20
2.9839047014
 30
0.0
 10
6.9496988409
 20
2.9845651275
 30
0.0
 10
6.9648655958
 20
2.9850433632
 30
0.0
 10
6.9788512952
 20
2.9855213034
 30
0.0
 10
6.9916475908
 20
2.9859989385
 30
0.0
 10
7.00324751
 20
2.986476108
 30
0.0
 10
7.0136451161
 20
2.9869526203
 30
0.0
 10
7.0228346154
 20
2.9874282613
 30
0.0
 10
7.0308103109
 20
2.9879024365
 30
0.0
 10
7.0375668634
 20
2.9883749011
 30
0.0
 10
7.0424319499
 20
2.9887864517
 30
0.0
 10
7.0457101004
 20
2.9891242942
 30
0.0
 10
7.0477103581
 20
2.9893615432
 30
0.0
 10
7.0494039461
 20
2.9895979689
 30
0.0
 10
7.050622122
 20
2.9898038148
 30
0.0
 10
7.0514419213
 20
2.9899726198
 30
0.0
 10
7.0519429971
 20
2.9900913127
 30
0.0
 10
7.0523678493
 20
2.9902100664
 30
0.0
 10
7.0527154507
 20
2.990327123
 30
0.0
 10
7.0529900658
 20
2.9904469405
 30
0.0
 10
7.0532172299
 20
2.9905768872
 30
0.0
 10
7.0533537115
 20
2.99072521
 30
0.0
 10
7.0533539142
 20
2.9908203409
 30
0.0
  0
SPLINE
  5
2D3
100
AcDbEntity
  8
0
100
AcDbSpline
 62
7
  6
CONTINUOUS
 70
0
 71
3
 72
80
 73
76
 74
0
 42
0.0000001
 43
0.0000001
 44
0.0000000001
 40
0.0
 40
0.0
 40
0.0
 40
0.0
 40
0.0000667031
 40
0.0001209161
 40
0.0001918038
 40
0.0002801476
 40
0.0003863401
 40
0.0005106016
 40
0.0006530652
 40
0.0009928987
 40
0.001406259
 40
0.0024541732
 40
0.0037974108
 40
0.0054359307
 40
0.0073690656
 40
0.0095955208
 40
0.0121139126
 40
0.0149228261
 40
0.018020827
 40
0.0214063827
 40
0.0250773439
 40
0.0290312927
 40
0.0377784531
 40
0.047628169
 40
0.0585567393
 40
0.0705374662
 40
0.0835429568
 40
0.0975414924
 40
0.1124994857
 40
0.1283822554
 40
0.1451510043
 40
0.1627659469
 40
0.1811856883
 40
0.2202599561
 40
0.2620018294
 40
0.3060132548
 40
0.351874328
 40
0.3991480665
 40
0.4473838856
 40
0.4961216879
 40
0.5448969484
 40
0.5932446798
 40
0.6407037633
 40
0.6868219541
 40
0.7311596637
 40
0.773293774
 40
0.8128228583
 40
0.8493704302
 40
0.8664156483
 40
0.882587678
 40
0.8978470428
 40
0.9121577946
 40
0.9254862971
 40
0.9377996924
 40
0.9490695458
 40
0.9592690801
 40
0.9683730197
 40
0.9763609464
 40
0.9799303456
 40
0.983213502
 40
0.9862085158
 40
0.9889139286
 40
0.9913283121
 40
0.9934502609
 40
0.9952784071
 40
0.9968115913
 40
0.9974674423
 40
0.9980494549
 40
0.9985576539
 40
0.9989921086
 40
0.9993529691
 40
0.9996405492
 40
0.9998555479
 40
0.9999363696
 40
1.0
 40
1.0
 40
1.0
 40
1.0
 10
2.7400543478
 20
4.4882031073
 30
0.0
 10
2.7400543478
 20
4.4883007326
 30
0.0
 10
2.7402020939
 20
4.4884511817
 30
0.0
 10
2.7404408077
 20
4.4885811215
 30
0.0
 10
2.7407326793
 20
4.4887024737
 30
0.0
 10
2.7411017285
 20
4.4888208181
 30
0.0
 10
2.7415531216
 20
4.4889410359
 30
0.0
 10
2.742085494
 20
4.4890611775
 30
0.0
 10
2.7429567742
 20
4.4892321144
 30
0.0
 10
2.7442512519
 20
4.4894406037
 30
0.0
 10
2.7468645461
 20
4.4897878295
 30
0.0
 10
2.7509487792
 20
4.4902040429
 30
0.0
 10
2.7568274585
 20
4.4906796583
 30
0.0
 10
2.7640051157
 20
4.4911576711
 30
0.0
 10
2.7724775936
 20
4.4916380177
 30
0.0
 10
2.7822395627
 20
4.4921195803
 30
0.0
 10
2.7932846127
 20
4.4926020768
 30
0.0
 10
2.8056062966
 20
4.493085203
 30
0.0
 10
2.8191980028
 20
4.4935688109
 30
0.0
 10
2.8340520999
 20
4.494052744
 30
0.0
 10
2.8501595456
 20
4.4945369897
 30
0.0
 10
2.8741120791
 20
4.4952057073
 30
0.0
 10
2.907106718
 20
4.4960336384
 30
0.0
 10
2.9503088692
 20
4.4969983766
 30
0.0
 10
2.9982446401
 20
4.4979642873
 30
0.0
 10
3.0507999684
 20
4.4989312708
 30
0.0
 10
3.107849125
 20
4.4998988535
 30
0.0
 10
3.1692563209
 20
4.5008670302
 30
0.0
 10
3.2348751279
 20
4.5018356837
 30
0.0
 10
3.3045487767
 20
4.5028045985
 30
0.0
 10
3.3781114363
 20
4.5037738403
 30
0.0
 10
3.4553874622
 20
4.5047433346
 30
0.0
 10
3.5653075912
 20
4.5060622532
 30
0.0
 10
3.7105381269
 20
4.5077003819
 30
0.0
 10
3.8932231923
 20
4.5096311948
 30
0.0
 10
4.0858418084
 20
4.5115631961
 30
0.0
 10
4.2865571359
 20
4.513496112
 30
0.0
 10
4.4934554767
 20
4.5154296264
 30
0.0
 10
4.7045643192
 20
4.5173635175
 30
0.0
 10
4.9178708496
 20
4.5192976097
 30
0.0
 10
5.1313411794
 20
4.5212317131
 30
0.0
 10
5.342939925
 20
4.523165648
 30
0.0
 10
5.5506496728
 20
4.5250992425
 30
0.0
 10
5.7524901741
 20
4.527032264
 30
0.0
 10
5.9465367852
 20
4.5289644443
 30
0.0
 10
6.1309392193
 20
4.5308954317
 30
0.0
 10
6.3039395111
 20
4.5328248792
 30
0.0
 10
6.4402210609
 20
4.5344665252
 30
0.0
 10
6.5423189575
 20
4.5357899401
 30
0.0
 10
6.6132617969
 20
4.5367589717
 30
0.0
 10
6.6802021338
 20
4.5377277129
 30
0.0
 10
6.7429802819
 20
4.5386960723
 30
0.0
 10
6.8014462276
 20
4.539663838
 30
0.0
 10
6.8554609276
 20
4.5406310407
 30
0.0
 10
6.9048953503
 20
4.5415973692
 30
0.0
 10
6.9496315247
 20
4.5425624069
 30
0.0
 10
6.9895631212
 20
4.5435261334
 30
0.0
 10
7.0197912783
 20
4.5443551903
 30
0.0
 10
7.0415011813
 20
4.5450261626
 30
0.0
 10
7.0559057937
 20
4.5455100145
 30
0.0
 10
7.069045131
 20
4.5459934643
 30
0.0
 10
7.0809120286
 20
4.5464763827
 30
0.0
 10
7.0914999827
 20
4.5469586025
 30
0.0
 10
7.1008025626
 20
4.5474397292
 30
0.0
 10
7.1088135251
 20
4.5479195252
 30
0.0
 10
7.1146784446
 20
4.5483360255
 30
0.0
 10
7.1187198869
 20
4.5486759573
 30
0.0
 10
7.121264045
 20
4.5489170644
 30
0.0
 10
7.1234826299
 20
4.5491575303
 30
0.0
 10
7.125375394
 20
4.5493972327
 30
0.0
 10
7.1269427011
 20
4.5496352596
 30
0.0
 10
7.1281841527
 20
4.5498717321
 30
0.0
 10
7.1290139029
 20
4.5500794404
 30
0.0
 10
7.1295100543
 20
4.5502552317
 30
0.0
 10
7.1297025651
 20
4.5503443303
 30
0.0
 10
7.1297832579
 20
4.5503908226
 30
0.0
  0
SPLINE
  5
2D4
100
AcDbEntity
  8
0
100
AcDbSpline
 62
7
  6
CONTINUOUS
 70
0
 71
3
 72
13
 73
9
 74
0
 42
0.0000001
 43
0.0000001
 44
0.0000000001
 40
0.0
 40
0.0
 40
0.0
 40
0.0
 40
0.0540605015
 40
0.1277206106
 40
0.2215698816
 40
0.3358843775
 40
0.6264273848
 40
1.0
 40
1.0
 40
1.0
 40
1.0
 10
2.8170368707
 20
3.8036439317
 30
0.0
 10
2.8171592028
 20
3.803714573
 30
0.0
 10
2.8174683597
 20
3.803845119
 30
0.0
 10
2.8180218374
 20
3.8040152458
 30
0.0
 10
2.8187384887
 20
3.8041868993
 30
0.0
 10
2.8200174442
 20
3.8044376488
 30
0.0
 10
2.8220300808
 20
3.804738159
 30
0.0
 10
2.8237535842
 20
3.8049414421
 30
0.0
 10
2.82472407
 20
3.8050466138
 30
0.0
  0
SPLINE
  5
2D5
100
AcDbEntity
  8
0
100
AcDbSpline
 62
7
  6
CONTINUOUS
 70
0
 71
3
 72
69
 73
65
 74
0
 42
0.0000001
 43
0.0000001
 44
0.0000000001
 40
0.0
 40
0.0
 40
0.0
 40
0.0
 40
0.0011833647
 40
0.0026492993
 40
0.0043970662
 40
0.0064257866
 40
0.0113222278
 40
0.0173293643
 40
0.0244325742
 40
0.032615864
 40
0.0418619314
 40
0.0521486044
 40
0.0634525145
 40
0.0757490982
 40
0.1032028493
 40
0.1342610824
 40
0.1686400692
 40
0.2060269811
 40
0.2460821858
 40
0.2884402007
 40
0.3327155281
 40
0.3785054313
 40
0.4253924896
 40
0.4729499954
 40
0.5207449492
 40
0.5683420068
 40
0.6153080314
 40
0.6612150317
 40
0.7056452012
 40
0.7481942829
 40
0.7884741637
 40
0.8261186136
 40
0.8438444985
 40
0.8607852182
 40
0.8769014017
 40
0.8921573823
 40
0.9065182256
 40
0.9199503402
 40
0.9324243065
 40
0.9439115209
 40
0.9543848727
 40
0.9638218116
 40
0.9722006778
 40
0.9759868309
 40
0.9795014512
 40
0.9827427625
 40
0.9857089951
 40
0.9883983888
 40
0.990809198
 40
0.992939968
 40
0.9947898786
 40
0.9963582492
 40
0.9976445074
 40
0.9981817347
 40
0.998648344
 40
0.9990443911
 40
0.9993700388
 40
0.9995065924
 40
0.9996257521
 40
0.999727671
 40
0.9998125941
 40
0.999880948
 40
0.9999335618
 40
1.0
 40
1.0
 40
1.0
 40
1.0
 10
2.82472407
 20
3.8050466138
 30
0.0
 10
2.8263827146
 20
3.8052263614
 30
0.0
 10
2.8301022929
 20
3.8055707893
 30
0.0
 10
2.83628401
 20
3.8060372529
 30
0.0
 10
2.8436602598
 20
3.8065059725
 30
0.0
 10
2.8558694507
 20
3.8071757484
 30
0.0
 10
2.8740841542
 20
3.8079896601
 30
0.0
 10
2.8994538064
 20
3.8089233354
 30
0.0
 10
2.9294599281
 20
3.8098608754
 30
0.0
 10
2.9640342103
 20
3.8108015973
 30
0.0
 10
3.0030980856
 20
3.8117439748
 30
0.0
 10
3.0465626403
 20
3.8126878147
 30
0.0
 10
3.0943288311
 20
3.8136327233
 30
0.0
 10
3.166295305
 20
3.8149419926
 30
0.0
 10
3.2661111432
 20
3.8165571305
 30
0.0
 10
3.3970591884
 20
3.8184363714
 30
0.0
 10
3.5420126583
 20
3.820318996
 30
0.0
 10
3.6996513632
 20
3.8222042214
 30
0.0
 10
3.8685399527
 20
3.8240911443
 30
0.0
 10
4.0471406654
 20
3.8259793842
 30
0.0
 10
4.2338268099
 20
3.8278685394
 30
0.0
 10
4.4268984925
 20
3.8297583151
 30
0.0
 10
4.6245977351
 20
3.8316485411
 30
0.0
 10
4.8251239042
 20
3.833539008
 30
0.0
 10
5.0266511026
 20
3.8354295553
 30
0.0
 10
5.2273443706
 20
3.8373200439
 30
0.0
 10
5.425375808
 20
3.8392102827
 30
0.0
 10
5.6189422344
 20
3.8411001223
 30
0.0
 10
5.8062811759
 20
3.8429893508
 30
0.0
 10
5.985686367
 20
3.8448776402
 30
0.0
 10
6.1555242298
 20
3.8467647961
 30
0.0
 10
6.2903663187
 20
3.84836635
 30
0.0
 10
6.3923052448
 20
3.8496558546
 30
0.0
 10
6.4638946286
 20
3.850603278
 30
0.0
 10
6.5320015237
 20
3.8515505344
 30
0.0
 10
6.5964708382
 20
3.8524974792
 30
0.0
 10
6.6571556172
 20
3.8534440462
 30
0.0
 10
6.7139176972
 20
3.8543902871
 30
0.0
 10
6.7666278266
 20
3.8553359342
 30
0.0
 10
6.8151658624
 20
3.8562808363
 30
0.0
 10
6.8594213113
 20
3.8572249124
 30
0.0
 10
6.899293413
 20
3.8581677555
 30
0.0
 10
6.9297380559
 20
3.8589767763
 30
0.0
 10
6.9518342024
 20
3.8596303923
 30
0.0
 10
6.9666893416
 20
3.860103669
 30
0.0
 10
6.9803879017
 20
3.8605766484
 30
0.0
 10
6.9929222857
 20
3.8610492719
 30
0.0
 10
7.004284904
 20
3.8615214193
 30
0.0
 10
7.0144685644
 20
3.8619929222
 30
0.0
 10
7.0234673076
 20
3.8624636352
 30
0.0
 10
7.0312766172
 20
3.8629329239
 30
0.0
 10
7.0378928859
 20
3.8634005268
 30
0.0
 10
7.0426578432
 20
3.8638077293
 30
0.0
 10
7.0458692526
 20
3.8641420043
 30
0.0
 10
7.0478289687
 20
3.8643767636
 30
0.0
 10
7.0494880081
 20
3.8646106997
 30
0.0
 10
7.0506810485
 20
3.8648143955
 30
0.0
 10
7.0514836049
 20
3.8649814585
 30
0.0
 10
7.051973934
 20
3.8650989163
 30
0.0
 10
7.0523895126
 20
3.865216433
 30
0.0
 10
7.0527294332
 20
3.865332289
 30
0.0
 10
7.0529977487
 20
3.8654508624
 30
0.0
 10
7.0532201415
 20
3.8655797468
 30
0.0
 10
7.0533524889
 20
3.8657266752
 30
0.0
 10
7.0533523399
 20
3.8658203423
 30
0.0
  0
SPLINE
  5
2D6
100
AcDbEntity
  8
0
100
AcDbSpline
 62
7
  6
CONTINUOUS
 70
0
 71
3
 72
80
 73
76
 74
0
 42
0.0000001
 43
0.0000001
 44
0.0000000001
 40
0.0
 40
0.0
 40
0.0
 40
0.0
 40
0.0000667031
 40
0.0001209161
 40
0.0001918038
 40
0.0002801476
 40
0.0003863401
 40
0.0005106016
 40
0.0006530652
 40
0.0009928987
 40
0.0014062589
 40
0.0024541732
 40
0.0037974107
 40
0.0054359305
 40
0.0073690654
 40
0.0095955205
 40
0.0121139121
 40
0.0149228255
 40
0.0180208264
 40
0.021406382
 40
0.0250773431
 40
0.0290312918
 40
0.037778452
 40
0.0476281678
 40
0.0585567379
 40
0.0705374646
 40
0.0835429551
 40
0.0975414903
 40
0.1124994835
 40
0.1283822529
 40
0.1451510016
 40
0.162765944
 40
0.1811856851
 40
0.2202599516
 40
0.2620018229
 40
0.3060132483
 40
0.3518743225
 40
0.3991480617
 40
0.4473838817
 40
0.4961216846
 40
0.5448969453
 40
0.5932446767
 40
0.6407037596
 40
0.6868219499
 40
0.7311596592
 40
0.7732937703
 40
0.8128228563
 40
0.8493704297
 40
0.8664156481
 40
0.882587678
 40
0.8978470428
 40
0.9121577947
 40
0.9254862972
 40
0.9377996924
 40
0.9490695459
 40
0.9592690802
 40
0.9683730197
 40
0.9763609464
 40
0.9799303456
 40
0.9832135021
 40
0.9862085158
 40
0.9889139286
 40
0.9913283122
 40
0.9934502609
 40
0.9952784071
 40
0.9968115913
 40
0.9974674423
 40
0.9980494549
 40
0.9985576539
 40
0.9989921086
 40
0.9993529691
 40
0.9996405492
 40
0.9998555479
 40
0.9999363696
 40
1.0
 40
1.0
 40
1.0
 40
1.0
 10
2.7400543478
 20
4.3632031073
 30
0.0
 10
2.7400543478
 20
4.3633007326
 30
0.0
 10
2.7402020939
 20
4.3634511817
 30
0.0
 10
2.7404408077
 20
4.3635811215
 30
0.0
 10
2.7407326793
 20
4.3637024737
 30
0.0
 10
2.7411017285
 20
4.3638208181
 30
0.0
 10
2.7415531216
 20
4.3639410359
 30
0.0
 10
2.742085494
 20
4.3640611775
 30
0.0
 10
2.7429567742
 20
4.3642321144
 30
0.0
 10
2.7442512518
 20
4.3644406037
 30
0.0
 10
2.746864546
 20
4.3647878295
 30
0.0
 10
2.750948779
 20
4.3652040428
 30
0.0
 10
2.7568274581
 20
4.3656796582
 30
0.0
 10
2.764005115
 20
4.3661576711
 30
0.0
 10
2.7724775926
 20
4.3666380177
 30
0.0
 10
2.7822395613
 20
4.3671195802
 30
0.0
 10
2.7932846108
 20
4.3676020768
 30
0.0
 10
2.8056062942
 20
4.3680852029
 30
0.0
 10
2.8191980001
 20
4.3685688108
 30
0.0
 10
2.8340520969
 20
4.3690527439
 30
0.0
 10
2.8501595422
 20
4.3695369896
 30
0.0
 10
2.8741120751
 20
4.3702057072
 30
0.0
 10
2.9071067133
 20
4.3710336383
 30
0.0
 10
2.9503088638
 20
4.3719983765
 30
0.0
 10
2.998244634
 20
4.3729642871
 30
0.0
 10
3.0507999614
 20
4.3739312707
 30
0.0
 10
3.1078491171
 20
4.3748988534
 30
0.0
 10
3.1692563121
 20
4.37586703
 30
0.0
 10
3.2348751181
 20
4.3768356836
 30
0.0
 10
3.304548766
 20
4.3778045983
 30
0.0
 10
3.3781114245
 20
4.3787738402
 30
0.0
 10
3.4553874493
 20
4.3797433345
 30
0.0
 10
3.5653075757
 20
4.381062253
 30
0.0
 10
3.7105381061
 20
4.3827003817
 30
0.0
 10
3.8932231667
 20
4.3846311946
 30
0.0
 10
4.0858417812
 20
4.3865631959
 30
0.0
 10
4.2865571113
 20
4.3884961118
 30
0.0
 10
4.4934554559
 20
4.3904296262
 30
0.0
 10
4.7045643017
 20
4.3923635173
 30
0.0
 10
4.9178708345
 20
4.3942976095
 30
0.0
 10
5.1313411654
 20
4.3962317129
 30
0.0
 10
5.3429399105
 20
4.3981656479
 30
0.0
 10
5.5506496566
 20
4.4000992424
 30
0.0
 10
5.752490156
 20
4.4020322639
 30
0.0
 10
5.946536767
 20
4.4039644441
 30
0.0
 10
6.1309392045
 20
4.4058954315
 30
0.0
 10
6.3039395021
 20
4.4078248791
 30
0.0
 10
6.440221057
 20
4.4094665252
 30
0.0
 10
6.5423189564
 20
4.4107899401
 30
0.0
 10
6.6132617966
 20
4.4117589717
 30
0.0
 10
6.6802021338
 20
4.4127277129
 30
0.0
 10
6.7429802821
 20
4.4136960723
 30
0.0
 10
6.8014462278
 20
4.414663838
 30
0.0
 10
6.8554609278
 20
4.4156310407
 30
0.0
 10
6.9048953504
 20
4.4165973692
 30
0.0
 10
6.9496315248
 20
4.4175624069
 30
0.0
 10
6.9895631213
 20
4.4185261334
 30
0.0
 10
7.0197912784
 20
4.4193551903
 30
0.0
 10
7.0415011814
 20
4.4200261626
 30
0.0
 10
7.0559057938
 20
4.4205100145
 30
0.0
 10
7.069045131
 20
4.4209934643
 30
0.0
 10
7.0809120287
 20
4.4214763827
 30
0.0
 10
7.0914999828
 20
4.4219586025
 30
0.0
 10
7.1008025626
 20
4.4224397292
 30
0.0
 10
7.1088135251
 20
4.4229195252
 30
0.0
 10
7.1146784446
 20
4.4233360255
 30
0.0
 10
7.1187198869
 20
4.4236759573
 30
0.0
 10
7.1212640451
 20
4.4239170644
 30
0.0
 10
7.1234826299
 20
4.4241575303
 30
0.0
 10
7.125375394
 20
4.4243972327
 30
0.0
 10
7.1269427011
 20
4.4246352596
 30
0.0
 10
7.1281841527
 20
4.4248717321
 30
0.0
 10
7.1290139029
 20
4.4250794404
 30
0.0
 10
7.1295100543
 20
4.4252552317
 30
0.0
 10
7.1297025651
 20
4.4253443303
 30
0.0
 10
7.1297832579
 20
4.4253908226
 30
0.0
  0
SPLINE
  5
2D7
100
AcDbEntity
  8
0
100
AcDbSpline
 62
7
  6
CONTINUOUS
 70
0
 71
3
 72
80
 73
76
 74
0
 42
0.0000001
 43
0.0000001
 44
0.0000000001
 40
0.0
 40
0.0
 40
0.0
 40
0.0
 40
0.0000667031
 40
0.0001209161
 40
0.0001918038
 40
0.0002801476
 40
0.0003863401
 40
0.0005106016
 40
0.0006530653
 40
0.0009928987
 40
0.001406259
 40
0.0024541732
 40
0.0037974107
 40
0.0054359306
 40
0.0073690654
 40
0.0095955203
 40
0.0121139119
 40
0.0149228253
 40
0.0180208261
 40
0.0214063817
 40
0.0250773427
 40
0.0290312913
 40
0.0377784513
 40
0.047628167
 40
0.0585567369
 40
0.0705374635
 40
0.0835429538
 40
0.0975414889
 40
0.112499482
 40
0.1283822512
 40
0.1451509996
 40
0.1627659421
 40
0.1811856834
 40
0.2202599496
 40
0.2620018195
 40
0.3060132445
 40
0.3518743192
 40
0.3991480589
 40
0.4473838796
 40
0.4961216832
 40
0.5448969444
 40
0.5932446764
 40
0.6407037593
 40
0.6868219493
 40
0.7311596587
 40
0.7732937703
 40
0.8128228568
 40
0.8493704308
 40
0.8664156493
 40
0.8825876793
 40
0.8978470441
 40
0.9121577957
 40
0.925486298
 40
0.9377996932
 40
0.9490695464
 40
0.9592690806
 40
0.9683730201
 40
0.9763609466
 40
0.9799303458
 40
0.9832135022
 40
0.986208516
 40
0.9889139288
 40
0.9913283122
 40
0.9934502609
 40
0.9952784072
 40
0.9968115914
 40
0.9974674423
 40
0.9980494549
 40
0.9985576539
 40
0.9989921086
 40
0.9993529691
 40
0.9996405492
 40
0.9998555479
 40
0.9999363696
 40
1.0
 40
1.0
 40
1.0
 40
1.0
 10
2.7400543478
 20
4.2382031073
 30
0.0
 10
2.7400543478
 20
4.2383007326
 30
0.0
 10
2.7402020939
 20
4.2384511817
 30
0.0
 10
2.7404408077
 20
4.2385811215
 30
0.0
 10
2.7407326793
 20
4.2387024737
 30
0.0
 10
2.7411017285
 20
4.2388208181
 30
0.0
 10
2.7415531217
 20
4.2389410359
 30
0.0
 10
2.7420854941
 20
4.2390611775
 30
0.0
 10
2.7429567743
 20
4.2392321144
 30
0.0
 10
2.744251252
 20
4.2394406037
 30
0.0
 10
2.7468645462
 20
4.2397878295
 30
0.0
 10
2.7509487792
 20
4.2402040429
 30
0.0
 10
2.7568274583
 20
4.2406796583
 30
0.0
 10
2.764005115
 20
4.2411576711
 30
0.0
 10
2.7724775924
 20
4.2416380177
 30
0.0
 10
2.7822395608
 20
4.2421195802
 30
0.0
 10
2.79328461
 20
4.2426020767
 30
0.0
 10
2.8056062932
 20
4.2430852029
 30
0.0
 10
2.8191979988
 20
4.2435688107
 30
0.0
 10
2.8340520953
 20
4.2440527439
 30
0.0
 10
2.8501595403
 20
4.2445369895
 30
0.0
 10
2.8741120728
 20
4.2452057071
 30
0.0
 10
2.9071067104
 20
4.2460336382
 30
0.0
 10
2.9503088602
 20
4.2469983764
 30
0.0
 10
2.9982446298
 20
4.2479642871
 30
0.0
 10
3.0507999566
 20
4.2489312706
 30
0.0
 10
3.1078491117
 20
4.2498988533
 30
0.0
 10
3.169256306
 20
4.25086703
 30
0.0
 10
3.2348751111
 20
4.2518356835
 30
0.0
 10
3.3045487582
 20
4.2528045982
 30
0.0
 10
3.3781114163
 20
4.2537738401
 30
0.0
 10
3.455387441
 20
4.2547433344
 30
0.0
 10
3.5653075673
 20
4.2560622529
 30
0.0
 10
3.7105380955
 20
4.2577003815
 30
0.0
 10
3.8932231532
 20
4.2596311944
 30
0.0
 10
4.085841766
 20
4.2615631957
 30
0.0
 10
4.286557097
 20
4.2634961117
 30
0.0
 10
4.493455444
 20
4.2654296261
 30
0.0
 10
4.7045642925
 20
4.2673635172
 30
0.0
 10
4.9178708282
 20
4.2692976095
 30
0.0
 10
5.1313411616
 20
4.2712317129
 30
0.0
 10
5.3429399083
 20
4.2731656479
 30
0.0
 10
5.5506496547
 20
4.2750992423
 30
0.0
 10
5.7524901539
 20
4.2770322638
 30
0.0
 10
5.9465367654
 20
4.2789644441
 30
0.0
 10
6.1309392045
 20
4.2808954315
 30
0.0
 10
6.3039395044
 20
4.2828248791
 30
0.0
 10
6.4402210611
 20
4.2844665252
 30
0.0
 10
6.5423189616
 20
4.2857899402
 30
0.0
 10
6.6132618021
 20
4.2867589718
 30
0.0
 10
6.6802021392
 20
4.287727713
 30
0.0
 10
6.7429802868
 20
4.2886960723
 30
0.0
 10
6.8014462317
 20
4.2896638381
 30
0.0
 10
6.8554609309
 20
4.2906310407
 30
0.0
 10
6.904895353
 20
4.2915973693
 30
0.0
 10
6.9496315268
 20
4.292562407
 30
0.0
 10
6.9895631228
 20
4.2935261334
 30
0.0
 10
7.0197912796
 20
4.2943551903
 30
0.0
 10
7.0415011824
 20
4.2950261627
 30
0.0
 10
7.0559057946
 20
4.2955100145
 30
0.0
 10
7.0690451317
 20
4.2959934643
 30
0.0
 10
7.0809120292
 20
4.2964763827
 30
0.0
 10
7.0914999832
 20
4.2969586025
 30
0.0
 10
7.1008025629
 20
4.2974397292
 30
0.0
 10
7.1088135254
 20
4.2979195252
 30
0.0
 10
7.1146784448
 20
4.2983360255
 30
0.0
 10
7.118719887
 20
4.2986759573
 30
0.0
 10
7.1212640452
 20
4.2989170644
 30
0.0
 10
7.1234826299
 20
4.2991575303
 30
0.0
 10
7.1253753941
 20
4.2993972328
 30
0.0
 10
7.1269427011
 20
4.2996352596
 30
0.0
 10
7.1281841527
 20
4.2998717321
 30
0.0
 10
7.1290139029
 20
4.3000794404
 30
0.0
 10
7.1295100543
 20
4.3002552317
 30
0.0
 10
7.1297025651
 20
4.3003443303
 30
0.0
 10
7.1297832579
 20
4.3003908226
 30
0.0
  0
SPLINE
  5
2D8
100
AcDbEntity
  8
0
100
AcDbSpline
 62
7
  6
CONTINUOUS
 70
0
 71
3
 72
80
 73
76
 74
0
 42
0.0000001
 43
0.0000001
 44
0.0000000001
 40
0.0
 40
0.0
 40
0.0
 40
0.0
 40
0.0000667031
 40
0.0001209161
 40
0.0001918038
 40
0.0002801476
 40
0.0003863401
 40
0.0005106016
 40
0.0006530653
 40
0.0009928988
 40
0.001406259
 40
0.0024541733
 40
0.0037974108
 40
0.0054359306
 40
0.0073690655
 40
0.0095955205
 40
0.0121139121
 40
0.0149228255
 40
0.0180208263
 40
0.0214063818
 40
0.0250773428
 40
0.0290312913
 40
0.0377784512
 40
0.0476281668
 40
0.0585567366
 40
0.0705374631
 40
0.0835429533
 40
0.0975414883
 40
0.1124994813
 40
0.1283822505
 40
0.1451509989
 40
0.1627659415
 40
0.181185683
 40
0.2202599503
 40
0.2620018215
 40
0.3060132461
 40
0.3518743201
 40
0.3991480601
 40
0.4473838812
 40
0.4961216853
 40
0.5448969475
 40
0.5932446806
 40
0.640703765
 40
0.6868219564
 40
0.7311596666
 40
0.7732937779
 40
0.8128228631
 40
0.8493704354
 40
0.8664156533
 40
0.8825876828
 40
0.8978470473
 40
0.9121577984
 40
0.9254863003
 40
0.9377996952
 40
0.949069548
 40
0.9592690819
 40
0.9683730211
 40
0.9763609473
 40
0.9799303464
 40
0.9832135027
 40
0.9862085164
 40
0.9889139291
 40
0.9913283125
 40
0.9934502611
 40
0.9952784073
 40
0.9968115914
 40
0.9974674424
 40
0.9980494549
 40
0.9985576539
 40
0.9989921086
 40
0.9993529691
 40
0.9996405492
 40
0.9998555479
 40
0.9999363696
 40
1.0
 40
1.0
 40
1.0
 40
1.0
 10
2.7400543478
 20
4.1132031073
 30
0.0
 10
2.7400543478
 20
4.1133007326
 30
0.0
 10
2.7402020939
 20
4.1134511817
 30
0.0
 10
2.7404408077
 20
4.1135811215
 30
0.0
 10
2.7407326793
 20
4.1137024737
 30
0.0
 10
2.7411017285
 20
4.1138208181
 30
0.0
 10
2.7415531217
 20
4.1139410359
 30
0.0
 10
2.7420854941
 20
4.1140611775
 30
0.0
 10
2.7429567743
 20
4.1142321144
 30
0.0
 10
2.744251252
 20
4.1144406038
 30
0.0
 10
2.7468645463
 20
4.1147878295
 30
0.0
 10
2.7509487794
 20
4.1152040429
 30
0.0
 10
2.7568274585
 20
4.1156796583
 30
0.0
 10
2.7640051154
 20
4.1161576711
 30
0.0
 10
2.7724775929
 20
4.1166380177
 30
0.0
 10
2.7822395615
 20
4.1171195802
 30
0.0
 10
2.7932846109
 20
4.1176020768
 30
0.0
 10
2.8056062941
 20
4.1180852029
 30
0.0
 10
2.8191979996
 20
4.1185688108
 30
0.0
 10
2.834052096
 20
4.1190527439
 30
0.0
 10
2.8501595408
 20
4.1195369895
 30
0.0
 10
2.8741120729
 20
4.1202057072
 30
0.0
 10
2.9071067101
 20
4.1210336382
 30
0.0
 10
2.9503088594
 20
4.1219983764
 30
0.0
 10
2.9982446285
 20
4.122964287
 30
0.0
 10
3.0507999548
 20
4.1239312706
 30
0.0
 10
3.1078491095
 20
4.1248988533
 30
0.0
 10
3.1692563035
 20
4.1258670299
 30
0.0
 10
3.2348751084
 20
4.1268356834
 30
0.0
 10
3.3045487553
 20
4.1278045982
 30
0.0
 10
3.3781114135
 20
4.12877384
 30
0.0
 10
3.4553874388
 20
4.1297433343
 30
0.0
 10
3.5653075671
 20
4.1310622529
 30
0.0
 10
3.710538099
 20
4.1327003816
 30
0.0
 10
3.8932231594
 20
4.1346311945
 30
0.0
 10
4.0858417724
 20
4.1365631958
 30
0.0
 10
4.2865571022
 20
4.1384961117
 30
0.0
 10
4.4934554494
 20
4.1404296261
 30
0.0
 10
4.7045642997
 20
4.1423635173
 30
0.0
 10
4.9178708381
 20
4.1442976096
 30
0.0
 10
5.1313411755
 20
4.146231713
 30
0.0
 10
5.3429399273
 20
4.148165648
 30
0.0
 10
5.5506496797
 20
4.1500992426
 30
0.0
 10
5.7524901843
 20
4.1520322641
 30
0.0
 10
5.9465367986
 20
4.1539644444
 30
0.0
 10
6.1309392365
 20
4.1558954319
 30
0.0
 10
6.3039395315
 20
4.1578248794
 30
0.0
 10
6.4402210828
 20
4.1594665255
 30
0.0
 10
6.5423189793
 20
4.1607899404
 30
0.0
 10
6.6132618177
 20
4.161758972
 30
0.0
 10
6.6802021529
 20
4.1627277132
 30
0.0
 10
6.7429802988
 20
4.1636960725
 30
0.0
 10
6.8014462419
 20
4.1646638382
 30
0.0
 10
6.8554609395
 20
4.1656310409
 30
0.0
 10
6.9048953601
 20
4.1665973694
 30
0.0
 10
6.9496315325
 20
4.1675624071
 30
0.0
 10
6.9895631272
 20
4.1685261335
 30
0.0
 10
7.0197912829
 20
4.1693551904
 30
0.0
 10
7.0415011849
 20
4.1700261627
 30
0.0
 10
7.0559057968
 20
4.1705100146
 30
0.0
 10
7.0690451335
 20
4.1709934644
 30
0.0
 10
7.0809120306
 20
4.1714763828
 30
0.0
 10
7.0914999842
 20
4.1719586026
 30
0.0
 10
7.1008025636
 20
4.1724397293
 30
0.0
 10
7.1088135258
 20
4.1729195252
 30
0.0
 10
7.1146784451
 20
4.1733360255
 30
0.0
 10
7.1187198873
 20
4.1736759573
 30
0.0
 10
7.1212640454
 20
4.1739170644
 30
0.0
 10
7.1234826301
 20
4.1741575303
 30
0.0
 10
7.1253753942
 20
4.1743972328
 30
0.0
 10
7.1269427012
 20
4.1746352596
 30
0.0
 10
7.1281841528
 20
4.1748717321
 30
0.0
 10
7.129013903
 20
4.1750794404
 30
0.0
 10
7.1295100543
 20
4.1752552317
 30
0.0
 10
7.1297025651
 20
4.1753443303
 30
0.0
 10
7.1297832579
 20
4.1753908226
 30
0.0
  0
SPLINE
  5
2D9
100
AcDbEntity
  8
0
100
AcDbSpline
 62
7
  6
CONTINUOUS
 70
0
 71
3
 72
80
 73
76
 74
0
 42
0.0000001
 43
0.0000001
 44
0.0000000001
 40
0.0
 40
0.0
 40
0.0
 40
0.0
 40
0.0000667031
 40
0.0001209162
 40
0.0001918038
 40
0.0002801476
 40
0.0003863401
 40
0.0005106016
 40
0.0006530653
 40
0.0009928988
 40
0.0014062591
 40
0.0024541734
 40
0.003797411
 40
0.0054359309
 40
0.007369066
 40
0.0095955212
 40
0.0121139131
 40
0.0149228267
 40
0.0180208276
 40
0.0214063833
 40
0.0250773446
 40
0.0290312934
 40
0.0377784539
 40
0.0476281698
 40
0.0585567402
 40
0.0705374672
 40
0.0835429578
 40
0.0975414935
 40
0.1124994871
 40
0.128382257
 40
0.1451510066
 40
0.1627659505
 40
0.1811856941
 40
0.2202599666
 40
0.2620018433
 40
0.3060132682
 40
0.3518743394
 40
0.3991480764
 40
0.4473838949
 40
0.4961216976
 40
0.5448969595
 40
0.5932446933
 40
0.640703779
 40
0.6868219725
 40
0.7311596828
 40
0.7732937885
 40
0.8128228685
 40
0.8493704382
 40
0.8664156554
 40
0.8825876845
 40
0.8978470489
 40
0.9121577999
 40
0.9254863018
 40
0.9377996966
 40
0.9490695494
 40
0.9592690833
 40
0.9683730224
 40
0.9763609484
 40
0.9799303474
 40
0.9832135037
 40
0.9862085172
 40
0.9889139298
 40
0.991328313
 40
0.9934502614
 40
0.9952784075
 40
0.9968115916
 40
0.9974674425
 40
0.998049455
 40
0.998557654
 40
0.9989921087
 40
0.9993529692
 40
0.9996405492
 40
0.9998555479
 40
0.9999363696
 40
1.0
 40
1.0
 40
1.0
 40
1.0
 10
7.1300543478
 20
4.196537576
 30
0.0
 10
7.1300543478
 20
4.1964399507
 30
0.0
 10
7.1299066017
 20
4.1962895016
 30
0.0
 10
7.1296678879
 20
4.1961595618
 30
0.0
 10
7.1293760163
 20
4.1960382096
 30
0.0
 10
7.1290069671
 20
4.1959198652
 30
0.0
 10
7.1285555739
 20
4.1957996474
 30
0.0
 10
7.1280232014
 20
4.1956795058
 30
0.0
 10
7.1271519212
 20
4.1955085689
 30
0.0
 10
7.1258574434
 20
4.1953000796
 30
0.0
 10
7.123244149
 20
4.1949528538
 30
0.0
 10
7.1191599157
 20
4.1945366404
 30
0.0
 10
7.1132812362
 20
4.194061025
 30
0.0
 10
7.1061035789
 20
4.1935830121
 30
0.0
 10
7.0976311006
 20
4.1931026655
 30
0.0
 10
7.0878691311
 20
4.192621103
 30
0.0
 10
7.0768240808
 20
4.1921386064
 30
0.0
 10
7.0645023966
 20
4.1916554802
 30
0.0
 10
7.0509106902
 20
4.1911718724
 30
0.0
 10
7.0360565929
 20
4.1906879392
 30
0.0
 10
7.019949147
 20
4.1902036936
 30
0.0
 10
6.9959966132
 20
4.1895349759
 30
0.0
 10
6.9630019742
 20
4.1887070449
 30
0.0
 10
6.9197998227
 20
4.1877423066
 30
0.0
 10
6.8718640515
 20
4.186776396
 30
0.0
 10
6.819308723
 20
4.1858094124
 30
0.0
 10
6.7622595661
 20
4.1848418297
 30
0.0
 10
6.7008523696
 20
4.1838736531
 30
0.0
 10
6.6352335618
 20
4.1829049995
 30
0.0
 10
6.5655599112
 20
4.1819360847
 30
0.0
 10
6.4919972483
 20
4.1809668429
 30
0.0
 10
6.4147212163
 20
4.1799973485
 30
0.0
 10
6.3048010754
 20
4.1786784298
 30
0.0
 10
6.1595705248
 20
4.1770403009
 30
0.0
 10
5.9768854481
 20
4.175109488
 30
0.0
 10
5.7842668307
 20
4.1731774866
 30
0.0
 10
5.5835515089
 20
4.1712445708
 30
0.0
 10
5.3766531741
 20
4.1693110565
 30
0.0
 10
5.1655443342
 20
4.1673771655
 30
0.0
 10
4.952237802
 20
4.1654430733
 30
0.0
 10
4.7387674661
 20
4.1635089698
 30
0.0
 10
4.5271687116
 20
4.1615750348
 30
0.0
 10
4.3194589532
 20
4.1596414401
 30
0.0
 10
4.1176184435
 20
4.1577084185
 30
0.0
 10
3.9235718342
 20
4.1557762383
 30
0.0
 10
3.7391694121
 20
4.1538452509
 30
0.0
 10
3.5661691366
 20
4.1519158036
 30
0.0
 10
3.4298875976
 20
4.1502741576
 30
0.0
 10
3.3277897065
 20
4.1489507428
 30
0.0
 10
3.2568468699
 20
4.1479817112
 30
0.0
 10
3.1899065357
 20
4.14701297
 30
0.0
 10
3.1271283903
 20
4.1460446107
 30
0.0
 10
3.0686624474
 20
4.145076845
 30
0.0
 10
3.0146477499
 20
4.1441096423
 30
0.0
 10
2.9652133294
 20
4.1431433138
 30
0.0
 10
2.9204771572
 20
4.1421782761
 30
0.0
 10
2.8805455629
 20
4.1412145497
 30
0.0
 10
2.8503174078
 20
4.1403854927
 30
0.0
 10
2.8286075062
 20
4.1397145204
 30
0.0
 10
2.8142028947
 20
4.1392306686
 30
0.0
 10
2.8010635584
 20
4.1387472188
 30
0.0
 10
2.789196662
 20
4.1382643004
 30
0.0
 10
2.7786087092
 20
4.1377820807
 30
0.0
 10
2.7693061305
 20
4.137300954
 30
0.0
 10
2.7612951688
 20
4.1368211581
 30
0.0
 10
2.7554302498
 20
4.1364046578
 30
0.0
 10
2.7513888078
 20
4.136064726
 30
0.0
 10
2.7488446499
 20
4.1358236189
 30
0.0
 10
2.7466260652
 20
4.1355831531
 30
0.0
 10
2.7447333013
 20
4.1353434506
 30
0.0
 10
2.7431659943
 20
4.1351054237
 30
0.0
 10
2.7419245428
 20
4.1348689512
 30
0.0
 10
2.7410947927
 20
4.134661243
 30
0.0
 10
2.7405986413
 20
4.1344854516
 30
0.0
 10
2.7404061306
 20
4.134396353
 30
0.0
 10
2.7403254377
 20
4.1343498607
 30
0.0
  0
SPLINE
  5
2DA
100
AcDbEntity
  8
0
100
AcDbSpline
 62
7
  6
CONTINUOUS
 70
0
 71
3
 72
80
 73
76
 74
0
 42
0.0000001
 43
0.0000001
 44
0.0000000001
 40
0.0
 40
0.0
 40
0.0
 40
0.0
 40
0.0000667031
 40
0.0001209161
 40
0.0001918038
 40
0.0002801476
 40
0.0003863401
 40
0.0005106016
 40
0.0006530653
 40
0.0009928988
 40
0.001406259
 40
0.0024541733
 40
0.0037974108
 40
0.0054359307
 40
0.0073690656
 40
0.0095955207
 40
0.0121139124
 40
0.0149228259
 40
0.0180208267
 40
0.0214063822
 40
0.0250773433
 40
0.0290312918
 40
0.0377784518
 40
0.0476281673
 40
0.0585567372
 40
0.0705374637
 40
0.083542954
 40
0.097541489
 40
0.1124994821
 40
0.1283822514
 40
0.1451510001
 40
0.162765943
 40
0.1811856849
 40
0.220259954
 40
0.2620018278
 40
0.3060132526
 40
0.3518743257
 40
0.3991480652
 40
0.4473838859
 40
0.4961216899
 40
0.5448969523
 40
0.5932446861
 40
0.6407037715
 40
0.6868219636
 40
0.7311596732
 40
0.7732937827
 40
0.8128228662
 40
0.8493704374
 40
0.8664156549
 40
0.8825876842
 40
0.8978470486
 40
0.9121577996
 40
0.9254863014
 40
0.9377996962
 40
0.9490695489
 40
0.9592690827
 40
0.9683730218
 40
0.9763609478
 40
0.9799303468
 40
0.9832135031
 40
0.9862085166
 40
0.9889139293
 40
0.9913283126
 40
0.9934502612
 40
0.9952784073
 40
0.9968115915
 40
0.9974674424
 40
0.998049455
 40
0.9985576539
 40
0.9989921086
 40
0.9993529692
 40
0.9996405492
 40
0.9998555479
 40
0.9999363696
 40
1.0
 40
1.0
 40
1.0
 40
1.0
 10
2.7400543478
 20
3.9882031073
 30
0.0
 10
2.7400543478
 20
3.9883007326
 30
0.0
 10
2.7402020939
 20
3.9884511817
 30
0.0
 10
2.7404408077
 20
3.9885811215
 30
0.0
 10
2.7407326793
 20
3.9887024737
 30
0.0
 10
2.7411017285
 20
3.9888208181
 30
0.0
 10
2.7415531217
 20
3.9889410359
 30
0.0
 10
2.7420854941
 20
3.9890611775
 30
0.0
 10
2.7429567744
 20
3.9892321144
 30
0.0
 10
2.7442512521
 20
3.9894406038
 30
0.0
 10
2.7468645464
 20
3.9897878295
 30
0.0
 10
2.7509487795
 20
3.9902040429
 30
0.0
 10
2.7568274588
 20
3.9906796583
 30
0.0
 10
2.7640051158
 20
3.9911576712
 30
0.0
 10
2.7724775936
 20
3.9916380177
 30
0.0
 10
2.7822395625
 20
3.9921195803
 30
0.0
 10
2.7932846122
 20
3.9926020768
 30
0.0
 10
2.8056062957
 20
3.993085203
 30
0.0
 10
2.8191980014
 20
3.9935688108
 30
0.0
 10
2.8340520979
 20
3.994052744
 30
0.0
 10
2.8501595428
 20
3.9945369896
 30
0.0
 10
2.8741120751
 20
3.9952057072
 30
0.0
 10
2.9071067125
 20
3.9960336382
 30
0.0
 10
2.9503088619
 20
3.9969983765
 30
0.0
 10
2.998244631
 20
3.9979642871
 30
0.0
 10
3.0507999575
 20
3.9989312706
 30
0.0
 10
3.1078491123
 20
3.9998988533
 30
0.0
 10
3.1692563065
 20
4.00086703
 30
0.0
 10
3.2348751118
 20
4.0018356835
 30
0.0
 10
3.3045487595
 20
4.0028045982
 30
0.0
 10
3.3781114187
 20
4.0037738401
 30
0.0
 10
3.4553874454
 20
4.0047433344
 30
0.0
 10
3.5653075774
 20
4.006062253
 30
0.0
 10
3.7105381164
 20
4.0077003818
 30
0.0
 10
3.8932231836
 20
4.0096311947
 30
0.0
 10
4.0858417994
 20
4.011563196
 30
0.0
 10
4.2865571276
 20
4.0134961119
 30
0.0
 10
4.4934554721
 20
4.0154296263
 30
0.0
 10
4.7045643208
 20
4.0173635175
 30
0.0
 10
4.9178708588
 20
4.0192976098
 30
0.0
 10
5.1313411973
 20
4.0212317132
 30
0.0
 10
5.342939952
 20
4.0231656483
 30
0.0
 10
5.5506497079
 20
4.0250992429
 30
0.0
 10
5.752490214
 20
4.0270322644
 30
0.0
 10
5.9465368258
 20
4.0289644447
 30
0.0
 10
6.1309392576
 20
4.0308954321
 30
0.0
 10
6.3039395459
 20
4.0328248796
 30
0.0
 10
6.4402210926
 20
4.0344665256
 30
0.0
 10
6.5423189867
 20
4.0357899405
 30
0.0
 10
6.6132618242
 20
4.0367589721
 30
0.0
 10
6.6802021587
 20
4.0377277133
 30
0.0
 10
6.7429803042
 20
4.0386960726
 30
0.0
 10
6.8014462469
 20
4.0396638383
 30
0.0
 10
6.8554609441
 20
4.040631041
 30
0.0
 10
6.9048953642
 20
4.0415973695
 30
0.0
 10
6.9496315361
 20
4.0425624072
 30
0.0
 10
6.9895631301
 20
4.0435261336
 30
0.0
 10
7.0197912851
 20
4.0443551905
 30
0.0
 10
7.0415011866
 20
4.0450261628
 30
0.0
 10
7.0559057982
 20
4.0455100146
 30
0.0
 10
7.0690451347
 20
4.0459934644
 30
0.0
 10
7.0809120315
 20
4.0464763828
 30
0.0
 10
7.0914999849
 20
4.0469586026
 30
0.0
 10
7.1008025641
 20
4.0474397293
 30
0.0
 10
7.1088135261
 20
4.0479195252
 30
0.0
 10
7.1146784453
 20
4.0483360255
 30
0.0
 10
7.1187198875
 20
4.0486759573
 30
0.0
 10
7.1212640455
 20
4.0489170644
 30
0.0
 10
7.1234826302
 20
4.0491575303
 30
0.0
 10
7.1253753942
 20
4.0493972328
 30
0.0
 10
7.1269427012
 20
4.0496352596
 30
0.0
 10
7.1281841528
 20
4.0498717321
 30
0.0
 10
7.129013903
 20
4.0500794404
 30
0.0
 10
7.1295100543
 20
4.0502552317
 30
0.0
 10
7.1297025651
 20
4.0503443303
 30
0.0
 10
7.1297832579
 20
4.0503908226
 30
0.0
  0
SPLINE
  5
2DB
100
AcDbEntity
  8
0
100
AcDbSpline
 62
7
  6
CONTINUOUS
 70
0
 71
3
 72
80
 73
76
 74
0
 42
0.0000001
 43
0.0000001
 44
0.0000000001
 40
0.0
 40
0.0
 40
0.0
 40
0.0
 40
0.0000667031
 40
0.0001209162
 40
0.0001918038
 40
0.0002801476
 40
0.0003863401
 40
0.0005106016
 40
0.0006530653
 40
0.0009928988
 40
0.001406259
 40
0.0024541733
 40
0.0037974109
 40
0.0054359308
 40
0.0073690657
 40
0.0095955209
 40
0.0121139126
 40
0.0149228261
 40
0.018020827
 40
0.0214063826
 40
0.0250773437
 40
0.0290312924
 40
0.0377784525
 40
0.0476281681
 40
0.0585567381
 40
0.0705374647
 40
0.083542955
 40
0.0975414901
 40
0.1124994832
 40
0.1283822527
 40
0.1451510017
 40
0.1627659449
 40
0.1811856874
 40
0.2202599581
 40
0.2620018342
 40
0.3060132599
 40
0.3518743326
 40
0.3991480713
 40
0.4473838913
 40
0.496121695
 40
0.5448969576
 40
0.5932446919
 40
0.6407037779
 40
0.6868219709
 40
0.7311596804
 40
0.7732937874
 40
0.8128228687
 40
0.8493704389
 40
0.8664156562
 40
0.8825876852
 40
0.8978470495
 40
0.9121578005
 40
0.9254863022
 40
0.937799697
 40
0.9490695496
 40
0.9592690834
 40
0.9683730224
 40
0.9763609483
 40
0.9799303472
 40
0.9832135035
 40
0.986208517
 40
0.9889139296
 40
0.9913283128
 40
0.9934502613
 40
0.9952784074
 40
0.9968115915
 40
0.9974674424
 40
0.998049455
 40
0.998557654
 40
0.9989921086
 40
0.9993529692
 40
0.9996405492
 40
0.9998555479
 40
0.9999363696
 40
1.0
 40
1.0
 40
1.0
 40
1.0
 10
2.7400543478
 20
3.8632031073
 30
0.0
 10
2.7400543478
 20
3.8633007326
 30
0.0
 10
2.7402020939
 20
3.8634511817
 30
0.0
 10
2.7404408077
 20
3.8635811215
 30
0.0
 10
2.7407326793
 20
3.8637024737
 30
0.0
 10
2.7411017285
 20
3.8638208181
 30
0.0
 10
2.7415531217
 20
3.8639410359
 30
0.0
 10
2.7420854942
 20
3.8640611775
 30
0.0
 10
2.7429567744
 20
3.8642321144
 30
0.0
 10
2.7442512521
 20
3.8644406038
 30
0.0
 10
2.7468645464
 20
3.8647878295
 30
0.0
 10
2.7509487796
 20
3.8652040429
 30
0.0
 10
2.756827459
 20
3.8656796583
 30
0.0
 10
2.7640051161
 20
3.8661576712
 30
0.0
 10
2.7724775941
 20
3.8666380178
 30
0.0
 10
2.7822395632
 20
3.8671195803
 30
0.0
 10
2.7932846131
 20
3.8676020768
 30
0.0
 10
2.8056062968
 20
3.868085203
 30
0.0
 10
2.8191980028
 20
3.8685688109
 30
0.0
 10
2.8340520995
 20
3.869052744
 30
0.0
 10
2.8501595448
 20
3.8695369897
 30
0.0
 10
2.8741120776
 20
3.8702057073
 30
0.0
 10
2.9071067154
 20
3.8710336383
 30
0.0
 10
2.9503088654
 20
3.8719983766
 30
0.0
 10
2.9982446349
 20
3.8729642872
 30
0.0
 10
3.0507999617
 20
3.8739312707
 30
0.0
 10
3.1078491168
 20
3.8748988534
 30
0.0
 10
3.1692563113
 20
3.87586703
 30
0.0
 10
3.234875117
 20
3.8768356836
 30
0.0
 10
3.3045487654
 20
3.8778045983
 30
0.0
 10
3.3781114257
 20
3.8787738402
 30
0.0
 10
3.4553874541
 20
3.8797433345
 30
0.0
 10
3.5653075898
 20
3.8810622531
 30
0.0
 10
3.7105381353
 20
3.882700382
 30
0.0
 10
3.8932232096
 20
3.884631195
 30
0.0
 10
4.0858418295
 20
3.8865631963
 30
0.0
 10
4.2865571572
 20
3.8884961122
 30
0.0
 10
4.4934554989
 20
3.8904296266
 30
0.0
 10
4.704564345
 20
3.8923635177
 30
0.0
 10
4.9178708819
 20
3.89429761
 30
0.0
 10
5.131341221
 20
3.8962317134
 30
0.0
 10
5.3429399777
 20
3.8981656485
 30
0.0
 10
5.5506497364
 20
3.9000992431
 30
0.0
 10
5.7524902447
 20
3.9020322647
 30
0.0
 10
5.946536854
 20
3.903964445
 30
0.0
 10
6.1309392789
 20
3.9058954324
 30
0.0
 10
6.3039395589
 20
3.9078248798
 30
0.0
 10
6.4402211005
 20
3.9094665257
 30
0.0
 10
6.5423189924
 20
3.9107899406
 30
0.0
 10
6.6132618289
 20
3.9117589721
 30
0.0
 10
6.6802021628
 20
3.9127277134
 30
0.0
 10
6.7429803078
 20
3.9136960727
 30
0.0
 10
6.8014462503
 20
3.9146638384
 30
0.0
 10
6.8554609473
 20
3.915631041
 30
0.0
 10
6.9048953672
 20
3.9165973696
 30
0.0
 10
6.9496315389
 20
3.9175624073
 30
0.0
 10
6.9895631326
 20
3.9185261336
 30
0.0
 10
7.0197912873
 20
3.9193551906
 30
0.0
 10
7.0415011886
 20
3.9200261629
 30
0.0
 10
7.0559057999
 20
3.9205100147
 30
0.0
 10
7.0690451362
 20
3.9209934645
 30
0.0
 10
7.0809120328
 20
3.9214763829
 30
0.0
 10
7.0914999858
 20
3.9219586026
 30
0.0
 10
7.1008025647
 20
3.9224397293
 30
0.0
 10
7.1088135265
 20
3.9229195253
 30
0.0
 10
7.1146784456
 20
3.9233360255
 30
0.0
 10
7.1187198877
 20
3.9236759573
 30
0.0
 10
7.1212640457
 20
3.9239170644
 30
0.0
 10
7.1234826303
 20
3.9241575303
 30
0.0
 10
7.1253753943
 20
3.9243972328
 30
0.0
 10
7.1269427013
 20
3.9246352596
 30
0.0
 10
7.1281841528
 20
3.9248717321
 30
0.0
 10
7.129013903
 20
3.9250794404
 30
0.0
 10
7.1295100544
 20
3.9252552317
 30
0.0
 10
7.1297025651
 20
3.9253443303
 30
0.0
 10
7.1297832579
 20
3.9253908226
 30
0.0
  0
SPLINE
  5
2DC
100
AcDbEntity
  8
0
100
AcDbSpline
 62
7
  6
CONTINUOUS
 70
0
 71
3
 72
72
 73
68
 74
0
 42
0.0000001
 43
0.0000001
 44
0.0000000001
 40
0.0
 40
0.0
 40
0.0
 40
0.0
 40
0.0000674801
 40
0.0001211899
 40
0.0001910311
 40
0.000277825
 40
0.0003819899
 40
0.0005037628
 40
0.0006432888
 40
0.0009759314
 40
0.0013803887
 40
0.0018568821
 40
0.0024055283
 40
0.0037194742
 40
0.0053222579
 40
0.0072129845
 40
0.0093904676
 40
0.0118534625
 40
0.0146006913
 40
0.0176308551
 40
0.0209424562
 40
0.0245333424
 40
0.0284012148
 40
0.0369586962
 40
0.046596218
 40
0.0572912408
 40
0.0690179558
 40
0.0817501885
 40
0.0954580568
 40
0.1101088318
 40
0.1256694365
 40
0.1421033212
 40
0.1593715318
 40
0.1774347819
 40
0.2157747732
 40
0.2567663568
 40
0.3000269791
 40
0.345154073
 40
0.3917273401
 40
0.4393125005
 40
0.48746652
 40
0.535740675
 40
0.5836851866
 40
0.6308535986
 40
0.6768060856
 40
0.7211148392
 40
0.7633672923
 40
0.803169117
 40
0.8401500985
 40
0.8739660609
 40
0.9043010448
 40
0.9180741703
 40
0.9308732817
 40
0.9426698023
 40
0.953435861
 40
0.963145593
 40
0.9717777613
 40
0.9793118254
 40
0.9857296032
 40
0.9910177855
 40
0.9932343706
 40
0.9951639326
 40
0.996805523
 40
0.9981587472
 40
0.9992234342
 40
0.9996476712
 40
1.0
 40
1.0
 40
1.0
 40
1.0
 10
2.8167549522
 20
4.4439203425
 30
0.0
 10
2.8167551739
 20
4.4440155954
 30
0.0
 10
2.8168919653
 20
4.444164056
 30
0.0
 10
2.8171195146
 20
4.4442941067
 30
0.0
 10
2.8173946411
 20
4.4444140401
 30
0.0
 10
2.8177428806
 20
4.4445312081
 30
0.0
 10
2.8181685172
 20
4.4446500765
 30
0.0
 10
2.8186705195
 20
4.4447688837
 30
0.0
 10
2.8194918476
 20
4.4449378531
 30
0.0
 10
2.8207123078
 20
4.4451438987
 30
0.0
 10
2.8224090941
 20
4.4453805528
 30
0.0
 10
2.8244131694
 20
4.445618031
 30
0.0
 10
2.8276976908
 20
4.4459562048
 30
0.0
 10
2.8325723015
 20
4.4463681452
 30
0.0
 10
2.8393420074
 20
4.4468410558
 30
0.0
 10
2.8473330725
 20
4.4473156973
 30
0.0
 10
2.8565401158
 20
4.4477918007
 30
0.0
 10
2.8669575503
 20
4.4482687764
 30
0.0
 10
2.878579695
 20
4.4487464094
 30
0.0
 10
2.8914006023
 20
4.4492245006
 30
0.0
 10
2.9054131354
 20
4.4497028974
 30
0.0
 10
2.9206087785
 20
4.4501815991
 30
0.0
 10
2.9432072448
 20
4.4508426654
 30
0.0
 10
2.9743399511
 20
4.4516611138
 30
0.0
 10
3.0151092653
 20
4.4526147892
 30
0.0
 10
3.0603532607
 20
4.4535696161
 30
0.0
 10
3.1099665271
 20
4.4545255234
 30
0.0
 10
3.1638333608
 20
4.4554820415
 30
0.0
 10
3.2218283146
 20
4.4564390918
 30
0.0
 10
3.2838162244
 20
4.4573966479
 30
0.0
 10
3.3496525358
 20
4.4583544819
 30
0.0
 10
3.4191839176
 20
4.4593125805
 30
0.0
 10
3.4922482841
 20
4.4602709818
 30
0.0
 10
3.5962328634
 20
4.4615750463
 30
0.0
 10
3.7337034044
 20
4.4631947373
 30
0.0
 10
3.9067409215
 20
4.4651034911
 30
0.0
 10
4.0893594766
 20
4.4670134684
 30
0.0
 10
4.2798573949
 20
4.4689243345
 30
0.0
 10
4.4764600112
 20
4.4708358003
 30
0.0
 10
4.677335551
 20
4.4727476853
 30
0.0
 10
4.8806121259
 20
4.4746597709
 30
0.0
 10
5.0843959737
 20
4.4765719026
 30
0.0
 10
5.2867885029
 20
4.4784839204
 30
0.0
 10
5.4859036797
 20
4.4803956236
 30
0.0
 10
5.6798864764
 20
4.4823068497
 30
0.0
 10
5.8669296909
 20
4.4842173448
 30
0.0
 10
6.0452903273
 20
4.4861267655
 30
0.0
 10
6.2133066588
 20
4.4880347922
 30
0.0
 10
6.3694134643
 20
4.4899407305
 30
0.0
 10
6.5121560732
 20
4.491843925
 30
0.0
 10
6.6221396955
 20
4.4934744904
 30
0.0
 10
6.7024576709
 20
4.4947934618
 30
0.0
 10
6.7566096016
 20
4.4957501396
 30
0.0
 10
6.8065161356
 20
4.4967060065
 30
0.0
 10
6.8520609313
 20
4.4976609283
 30
0.0
 10
6.89313796
 20
4.498614716
 30
0.0
 10
6.9296514642
 20
4.4995667098
 30
0.0
 10
6.9615164582
 20
4.500515812
 30
0.0
 10
6.9886588271
 20
4.5014617447
 30
0.0
 10
7.008294616
 20
4.5022848241
 30
0.0
 10
7.0215948422
 20
4.5029601041
 30
0.0
 10
7.029750921
 20
4.5034351978
 30
0.0
 10
7.0366861453
 20
4.50390806
 30
0.0
 10
7.0423972256
 20
4.5043785562
 30
0.0
 10
7.0463886646
 20
4.5047901578
 30
0.0
 10
7.0489652569
 20
4.5051324082
 30
0.0
 10
7.0500479652
 20
4.5053053231
 30
0.0
 10
7.0505372553
 20
4.5053944334
 30
0.0
  0
LINE
  5
2DD
100
AcDbEntity
  8
0
100
AcDbLine
 62
7
  6
CONTINUOUS
 10
7.0505372553
 20
4.5053944334
 11
7.0530741361
 21
4.5060967517
  0
SPLINE
  5
2DE
100
AcDbEntity
  8
0
100
AcDbSpline
 62
7
  6
CONTINUOUS
 70
0
 71
3
 72
80
 73
76
 74
0
 42
0.0000001
 43
0.0000001
 44
0.0000000001
 40
0.0
 40
0.0
 40
0.0
 40
0.0
 40
0.0000667031
 40
0.0001209162
 40
0.0001918038
 40
0.0002801476
 40
0.0003863401
 40
0.0005106016
 40
0.0006530653
 40
0.0009928988
 40
0.0014062591
 40
0.0024541734
 40
0.003797411
 40
0.0054359309
 40
0.0073690659
 40
0.0095955211
 40
0.012113913
 40
0.0149228265
 40
0.0180208275
 40
0.0214063831
 40
0.0250773444
 40
0.0290312932
 40
0.0377784535
 40
0.0476281694
 40
0.0585567396
 40
0.0705374665
 40
0.083542957
 40
0.0975414925
 40
0.1124994859
 40
0.1283822557
 40
0.1451510051
 40
0.1627659488
 40
0.1811856921
 40
0.2202599641
 40
0.2620018408
 40
0.306013266
 40
0.3518743375
 40
0.3991480749
 40
0.4473838938
 40
0.4961216968
 40
0.544896959
 40
0.593244693
 40
0.6407037788
 40
0.6868219723
 40
0.7311596824
 40
0.7732937882
 40
0.8128228685
 40
0.8493704384
 40
0.8664156557
 40
0.8825876848
 40
0.8978470491
 40
0.9121578001
 40
0.9254863019
 40
0.9377996968
 40
0.9490695495
 40
0.9592690833
 40
0.9683730224
 40
0.9763609484
 40
0.9799303474
 40
0.9832135037
 40
0.9862085172
 40
0.9889139297
 40
0.9913283129
 40
0.9934502614
 40
0.9952784075
 40
0.9968115915
 40
0.9974674425
 40
0.998049455
 40
0.998557654
 40
0.9989921086
 40
0.9993529692
 40
0.9996405492
 40
0.9998555479
 40
0.9999363696
 40
1.0
 40
1.0
 40
1.0
 40
1.0
 10
2.7400543478
 20
3.7382031073
 30
0.0
 10
2.7400543478
 20
3.7383007326
 30
0.0
 10
2.7402020939
 20
3.7384511817
 30
0.0
 10
2.7404408077
 20
3.7385811215
 30
0.0
 10
2.7407326793
 20
3.7387024737
 30
0.0
 10
2.7411017286
 20
3.7388208181
 30
0.0
 10
2.7415531218
 20
3.7389410359
 30
0.0
 10
2.7420854942
 20
3.7390611775
 30
0.0
 10
2.7429567745
 20
3.7392321144
 30
0.0
 10
2.7442512522
 20
3.7394406038
 30
0.0
 10
2.7468645466
 20
3.7397878295
 30
0.0
 10
2.7509487799
 20
3.7402040429
 30
0.0
 10
2.7568274593
 20
3.7406796583
 30
0.0
 10
2.7640051166
 20
3.7411576712
 30
0.0
 10
2.7724775948
 20
3.7416380178
 30
0.0
 10
2.7822395642
 20
3.7421195803
 30
0.0
 10
2.7932846145
 20
3.7426020769
 30
0.0
 10
2.8056062985
 20
3.7430852031
 30
0.0
 10
2.8191980048
 20
3.7435688109
 30
0.0
 10
2.8340521019
 20
3.7440527441
 30
0.0
 10
2.8501595477
 20
3.7445369897
 30
0.0
 10
2.8741120812
 20
3.7452057074
 30
0.0
 10
2.9071067199
 20
3.7460336384
 30
0.0
 10
2.950308871
 20
3.7469983767
 30
0.0
 10
2.9982446416
 20
3.7479642873
 30
0.0
 10
3.0507999695
 20
3.7489312708
 30
0.0
 10
3.1078491258
 20
3.7498988535
 30
0.0
 10
3.1692563216
 20
3.7508670302
 30
0.0
 10
3.2348751287
 20
3.7518356837
 30
0.0
 10
3.3045487786
 20
3.7528045985
 30
0.0
 10
3.3781114408
 20
3.7537738404
 30
0.0
 10
3.4553874717
 20
3.7547433348
 30
0.0
 10
3.5653076112
 20
3.7560622534
 30
0.0
 10
3.7105381607
 20
3.7577003823
 30
0.0
 10
3.8932232371
 20
3.7596311953
 30
0.0
 10
4.0858418554
 20
3.7615631966
 30
0.0
 10
4.2865571787
 20
3.7634961124
 30
0.0
 10
4.4934555151
 20
3.7654296267
 30
0.0
 10
4.7045643566
 20
3.7673635178
 30
0.0
 10
4.9178708902
 20
3.76929761
 30
0.0
 10
5.1313412272
 20
3.7712317135
 30
0.0
 10
5.3429399824
 20
3.7731656485
 30
0.0
 10
5.5506497412
 20
3.7750992432
 30
0.0
 10
5.7524902508
 20
3.7770322648
 30
0.0
 10
5.9465368599
 20
3.778964445
 30
0.0
 10
6.1309392825
 20
3.7808954324
 30
0.0
 10
6.3039395589
 20
3.7828248798
 30
0.0
 10
6.4402210987
 20
3.7844665257
 30
0.0
 10
6.5423189902
 20
3.7857899405
 30
0.0
 10
6.6132618268
 20
3.7867589721
 30
0.0
 10
6.6802021609
 20
3.7877277133
 30
0.0
 10
6.7429803062
 20
3.7886960727
 30
0.0
 10
6.8014462491
 20
3.7896638384
 30
0.0
 10
6.8554609464
 20
3.790631041
 30
0.0
 10
6.9048953667
 20
3.7915973696
 30
0.0
 10
6.9496315387
 20
3.7925624072
 30
0.0
 10
6.9895631329
 20
3.7935261336
 30
0.0
 10
7.0197912879
 20
3.7943551906
 30
0.0
 10
7.0415011894
 20
3.7950261629
 30
0.0
 10
7.0559058008
 20
3.7955100147
 30
0.0
 10
7.0690451371
 20
3.7959934645
 30
0.0
 10
7.0809120335
 20
3.7964763829
 30
0.0
 10
7.0914999863
 20
3.7969586027
 30
0.0
 10
7.100802565
 20
3.7974397294
 30
0.0
 10
7.1088135267
 20
3.7979195253
 30
0.0
 10
7.1146784457
 20
3.7983360255
 30
0.0
 10
7.1187198877
 20
3.7986759573
 30
0.0
 10
7.1212640457
 20
3.7989170644
 30
0.0
 10
7.1234826303
 20
3.7991575303
 30
0.0
 10
7.1253753943
 20
3.7993972328
 30
0.0
 10
7.1269427013
 20
3.7996352596
 30
0.0
 10
7.1281841528
 20
3.7998717321
 30
0.0
 10
7.129013903
 20
3.8000794404
 30
0.0
 10
7.1295100544
 20
3.8002552317
 30
0.0
 10
7.1297025651
 20
3.8003443303
 30
0.0
 10
7.1297832579
 20
3.8003908226
 30
0.0
  0
SPLINE
  5
2DF
100
AcDbEntity
  8
0
100
AcDbSpline
 62
7
  6
CONTINUOUS
 70
0
 71
3
 72
13
 73
9
 74
0
 42
0.0000001
 43
0.0000001
 44
0.0000000001
 40
0.0
 40
0.0
 40
0.0
 40
0.0
 40
0.0567996147
 40
0.1324208778
 40
0.2274372413
 40
0.3421300456
 40
0.6310905123
 40
1.0
 40
1.0
 40
1.0
 40
1.0
 10
2.8170345865
 20
3.678643934
 30
0.0
 10
2.8171430089
 20
3.6787065359
 30
0.0
 10
2.8174118219
 20
3.6788237882
 30
0.0
 10
2.8178890647
 20
3.6789777385
 30
0.0
 10
2.8184989596
 20
3.6791328781
 30
0.0
 10
2.8195748812
 20
3.6793585171
 30
0.0
 10
2.8212568088
 20
3.679629663
 30
0.0
 10
2.8226952441
 20
3.6798137044
 30
0.0
 10
2.8235028161
 20
3.6799087764
 30
0.0
  0
SPLINE
  5
2E0
100
AcDbEntity
  8
0
100
AcDbSpline
 62
7
  6
CONTINUOUS
 70
0
 71
3
 72
69
 73
65
 74
0
 42
0.0000001
 43
0.0000001
 44
0.0000000001
 40
0.0
 40
0.0
 40
0.0
 40
0.0
 40
0.0011039332
 40
0.0024916361
 40
0.0041624965
 40
0.0061157256
 40
0.0108657221
 40
0.0167328354
 40
0.0237027042
 40
0.0317595688
 40
0.040886298
 40
0.0510608802
 40
0.0622601529
 40
0.0744596672
 40
0.1017422981
 40
0.132660447
 40
0.1669304206
 40
0.2042389043
 40
0.2442454677
 40
0.2865834405
 40
0.3308657031
 40
0.3766876744
 40
0.4236297566
 40
0.471262764
 40
0.5191510824
 40
0.5668565093
 40
0.6139429573
 40
0.6599794283
 40
0.7045449523
 40
0.7472322619
 40
0.787650244
 40
0.8254296021
 40
0.8432209863
 40
0.8602252807
 40
0.8764029708
 40
0.8917180991
 40
0.9061352187
 40
0.9196206746
 40
0.9321448047
 40
0.9436785046
 40
0.9541946883
 40
0.9636706182
 40
0.9720841555
 40
0.9758860556
 40
0.9794153983
 40
0.9826703496
 40
0.9856490822
 40
0.9883497781
 40
0.9907706498
 40
0.9929103726
 40
0.994768132
 40
0.9963431942
 40
0.9976349345
 40
0.9981744327
 40
0.998642991
 40
0.9990406584
 40
0.9993676096
 40
0.9995047113
 40
0.9996243502
 40
0.9997266786
 40
0.9998119409
 40
0.9998805629
 40
0.9999333733
 40
1.0
 40
1.0
 40
1.0
 40
1.0
 10
2.8235028161
 20
3.6799087764
 30
0.0
 10
2.8250489609
 20
3.6800907975
 30
0.0
 10
2.8285461777
 20
3.6804372729
 30
0.0
 10
2.8343979038
 20
3.6809038678
 30
0.0
 10
2.8414503726
 20
3.6813730339
 30
0.0
 10
2.8532408696
 20
3.6820456695
 30
0.0
 10
2.8709498617
 20
3.6828614357
 30
0.0
 10
2.895734403
 20
3.6837964198
 30
0.0
 10
2.9251851288
 20
3.6847355045
 30
0.0
 10
2.9592345829
 20
3.6856780067
 30
0.0
 10
2.9978049569
 20
3.6866222698
 30
0.0
 10
3.0408080512
 20
3.6875680807
 30
0.0
 10
3.0881454636
 20
3.6885150049
 30
0.0
 10
3.1596069183
 20
3.6898278834
 30
0.0
 10
3.2588758554
 20
3.6914469858
 30
0.0
 10
3.3892692197
 20
3.6933301541
 30
0.0
 10
3.5338028216
 20
3.6952168011
 30
0.0
 10
3.6911543181
 20
3.697106129
 30
0.0
 10
3.8598844519
 20
3.6989971991
 30
0.0
 10
4.0384499238
 20
3.7008896169
 30
0.0
 10
4.2252170045
 20
3.7027829758
 30
0.0
 10
4.4184773459
 20
3.704676971
 30
0.0
 10
4.6164632922
 20
3.7065714278
 30
0.0
 10
4.8173634336
 20
3.7084661372
 30
0.0
 10
5.0193401286
 20
3.7103609319
 30
0.0
 10
5.2205460046
 20
3.7122556742
 30
0.0
 10
5.4191401979
 20
3.7141501715
 30
0.0
 10
5.6133061411
 20
3.7160442687
 30
0.0
 10
5.801267901
 20
3.71793776
 30
0.0
 10
5.9813057785
 20
3.7198303126
 30
0.0
 10
6.1517729207
 20
3.7217217217
 30
0.0
 10
6.2871315594
 20
3.72332685
 30
0.0
 10
6.3894723775
 20
3.7246192182
 30
0.0
 10
6.4613513229
 20
3.7255687943
 30
0.0
 10
6.5297378106
 20
3.7265181983
 30
0.0
 10
6.5944753692
 20
3.7274672792
 30
0.0
 10
6.6554157777
 20
3.7284159997
 30
0.0
 10
6.7124196787
 20
3.7293643871
 30
0.0
 10
6.7653566451
 20
3.7303121631
 30
0.0
 10
6.814105485
 20
3.7312592189
 30
0.0
 10
6.858554738
 20
3.7322054384
 30
0.0
 10
6.8986027105
 20
3.7331503975
 30
0.0
 10
6.9291822884
 20
3.7339612607
 30
0.0
 10
6.9513767201
 20
3.7346163592
 30
0.0
 10
6.9662983817
 20
3.7350907065
 30
0.0
 10
6.9800585495
 20
3.7355647554
 30
0.0
 10
6.99264938
 20
3.7360384477
 30
0.0
 10
7.0040630593
 20
3.7365116589
 30
0.0
 10
7.0142924353
 20
3.7369842475
 30
0.0
 10
7.0233316802
 20
3.737456031
 30
0.0
 10
7.031176394
 20
3.7379263801
 30
0.0
 10
7.0378228267
 20
3.7383950378
 30
0.0
 10
7.0426095446
 20
3.7388031576
 30
0.0
 10
7.045835574
 20
3.7391381914
 30
0.0
 10
7.0478040992
 20
3.7393734796
 30
0.0
 10
7.0494704959
 20
3.7396079432
 30
0.0
 10
7.0506687784
 20
3.7398121149
 30
0.0
 10
7.051474857
 20
3.739979556
 30
0.0
 10
7.0519673554
 20
3.7400972794
 30
0.0
 10
7.0523847919
 20
3.7402150624
 30
0.0
 10
7.0527262402
 20
3.7403311766
 30
0.0
 10
7.0529957954
 20
3.7404500188
 30
0.0
 10
7.0532191265
 20
3.7405791373
 30
0.0
 10
7.0533522548
 20
3.7407263819
 30
0.0
 10
7.0533521562
 20
3.7408203421
 30
0.0
  0
SPLINE
  5
2E1
100
AcDbEntity
  8
0
100
AcDbSpline
 62
7
  6
CONTINUOUS
 70
0
 71
3
 72
80
 73
76
 74
0
 42
0.0000001
 43
0.0000001
 44
0.0000000001
 40
0.0
 40
0.0
 40
0.0
 40
0.0
 40
0.0000667031
 40
0.0001209162
 40
0.0001918038
 40
0.0002801476
 40
0.0003863401
 40
0.0005106016
 40
0.0006530653
 40
0.0009928988
 40
0.0014062591
 40
0.0024541734
 40
0.003797411
 40
0.005435931
 40
0.007369066
 40
0.0095955213
 40
0.0121139132
 40
0.0149228268
 40
0.0180208278
 40
0.0214063835
 40
0.0250773448
 40
0.0290312937
 40
0.0377784543
 40
0.0476281703
 40
0.0585567408
 40
0.070537468
 40
0.0835429588
 40
0.0975414947
 40
0.1124994883
 40
0.1283822582
 40
0.1451510078
 40
0.1627659515
 40
0.181185695
 40
0.2202599671
 40
0.2620018434
 40
0.3060132682
 40
0.3518743395
 40
0.3991480765
 40
0.4473838946
 40
0.4961216967
 40
0.5448969581
 40
0.5932446914
 40
0.6407037766
 40
0.6868219698
 40
0.7311596802
 40
0.7732937869
 40
0.8128228672
 40
0.8493704367
 40
0.866415654
 40
0.8825876832
 40
0.8978470477
 40
0.9121577989
 40
0.9254863008
 40
0.9377996958
 40
0.9490695487
 40
0.9592690827
 40
0.9683730219
 40
0.9763609481
 40
0.9799303471
 40
0.9832135035
 40
0.9862085171
 40
0.9889139297
 40
0.9913283129
 40
0.9934502614
 40
0.9952784075
 40
0.9968115916
 40
0.9974674425
 40
0.9980494551
 40
0.998557654
 40
0.9989921087
 40
0.9993529692
 40
0.9996405492
 40
0.9998555479
 40
0.9999363696
 40
1.0
 40
1.0
 40
1.0
 40
1.0
 10
2.7400543478
 20
3.6132031073
 30
0.0
 10
2.7400543478
 20
3.6133007326
 30
0.0
 10
2.740202094
 20
3.6134511817
 30
0.0
 10
2.7404408078
 20
3.6135811215
 30
0.0
 10
2.7407326794
 20
3.6137024737
 30
0.0
 10
2.7411017286
 20
3.6138208181
 30
0.0
 10
2.7415531218
 20
3.6139410359
 30
0.0
 10
2.7420854943
 20
3.6140611775
 30
0.0
 10
2.7429567745
 20
3.6142321144
 30
0.0
 10
2.7442512523
 20
3.6144406038
 30
0.0
 10
2.7468645467
 20
3.6147878295
 30
0.0
 10
2.7509487801
 20
3.6152040429
 30
0.0
 10
2.7568274596
 20
3.6156796583
 30
0.0
 10
2.764005117
 20
3.6161576712
 30
0.0
 10
2.7724775953
 20
3.6166380178
 30
0.0
 10
2.7822395649
 20
3.6171195804
 30
0.0
 10
2.7932846154
 20
3.6176020769
 30
0.0
 10
2.8056062998
 20
3.6180852031
 30
0.0
 10
2.8191980062
 20
3.618568811
 30
0.0
 10
2.8340521036
 20
3.6190527442
 30
0.0
 10
2.8501595497
 20
3.6195369898
 30
0.0
 10
2.8741120838
 20
3.6202057074
 30
0.0
 10
2.9071067232
 20
3.6210336385
 30
0.0
 10
2.9503088752
 20
3.6219983768
 30
0.0
 10
2.9982446469
 20
3.6229642874
 30
0.0
 10
3.0507999761
 20
3.6239312709
 30
0.0
 10
3.1078491339
 20
3.6248988537
 30
0.0
 10
3.169256331
 20
3.6258670303
 30
0.0
 10
3.2348751392
 20
3.6268356839
 30
0.0
 10
3.3045487898
 20
3.6278045987
 30
0.0
 10
3.3781114523
 20
3.6287738405
 30
0.0
 10
3.4553874838
 20
3.6297433349
 30
0.0
 10
3.5653076238
 20
3.6310622535
 30
0.0
 10
3.7105381732
 20
3.6327003824
 30
0.0
 10
3.8932232485
 20
3.6346311954
 30
0.0
 10
4.0858418653
 20
3.6365631967
 30
0.0
 10
4.286557187
 20
3.6384961125
 30
0.0
 10
4.4934555213
 20
3.6404296268
 30
0.0
 10
4.7045643599
 20
3.6423635179
 30
0.0
 10
4.91787089
 20
3.64429761
 30
0.0
 10
5.1313412235
 20
3.6462317135
 30
0.0
 10
5.3429399756
 20
3.6481656485
 30
0.0
 10
5.550649732
 20
3.6500992431
 30
0.0
 10
5.7524902407
 20
3.6520322647
 30
0.0
 10
5.9465368512
 20
3.6539644449
 30
0.0
 10
6.1309392755
 20
3.6558954323
 30
0.0
 10
6.3039395525
 20
3.6578248797
 30
0.0
 10
6.4402210917
 20
3.6594665256
 30
0.0
 10
6.5423189829
 20
3.6607899404
 30
0.0
 10
6.6132618201
 20
3.661758972
 30
0.0
 10
6.6802021548
 20
3.6627277132
 30
0.0
 10
6.7429803008
 20
3.6636960726
 30
0.0
 10
6.8014462443
 20
3.6646638383
 30
0.0
 10
6.8554609423
 20
3.665631041
 30
0.0
 10
6.9048953632
 20
3.6665973695
 30
0.0
 10
6.949631536
 20
3.6675624072
 30
0.0
 10
6.9895631308
 20
3.6685261336
 30
0.0
 10
7.0197912864
 20
3.6693551905
 30
0.0
 10
7.0415011884
 20
3.6700261629
 30
0.0
 10
7.0559058001
 20
3.6705100147
 30
0.0
 10
7.0690451366
 20
3.6709934645
 30
0.0
 10
7.0809120332
 20
3.6714763829
 30
0.0
 10
7.0914999862
 20
3.6719586027
 30
0.0
 10
7.1008025651
 20
3.6724397294
 30
0.0
 10
7.1088135269
 20
3.6729195253
 30
0.0
 10
7.114678446
 20
3.6733360255
 30
0.0
 10
7.118719888
 20
3.6736759573
 30
0.0
 10
7.1212640459
 20
3.6739170644
 30
0.0
 10
7.1234826306
 20
3.6741575303
 30
0.0
 10
7.1253753945
 20
3.6743972328
 30
0.0
 10
7.1269427014
 20
3.6746352596
 30
0.0
 10
7.1281841529
 20
3.6748717321
 30
0.0
 10
7.129013903
 20
3.6750794404
 30
0.0
 10
7.1295100544
 20
3.6752552317
 30
0.0
 10
7.1297025651
 20
3.6753443303
 30
0.0
 10
7.129783258
 20
3.6753908226
 30
0.0
  0
SPLINE
  5
2E2
100
AcDbEntity
  8
0
100
AcDbSpline
 62
7
  6
CONTINUOUS
 70
0
 71
3
 72
80
 73
76
 74
0
 42
0.0000001
 43
0.0000001
 44
0.0000000001
 40
0.0
 40
0.0
 40
0.0
 40
0.0
 40
0.0000667031
 40
0.0001209161
 40
0.0001918038
 40
0.0002801476
 40
0.0003863401
 40
0.0005106016
 40
0.0006530653
 40
0.0009928988
 40
0.001406259
 40
0.0024541733
 40
0.0037974108
 40
0.0054359306
 40
0.0073690654
 40
0.0095955204
 40
0.012113912
 40
0.0149228253
 40
0.0180208262
 40
0.0214063817
 40
0.0250773427
 40
0.0290312913
 40
0.0377784512
 40
0.0476281669
 40
0.0585567367
 40
0.0705374633
 40
0.0835429536
 40
0.0975414887
 40
0.1124994817
 40
0.1283822509
 40
0.1451509994
 40
0.1627659419
 40
0.1811856833
 40
0.2202599498
 40
0.26200182
 40
0.3060132449
 40
0.3518743194
 40
0.3991480593
 40
0.4473838801
 40
0.4961216839
 40
0.5448969455
 40
0.5932446778
 40
0.640703761
 40
0.6868219514
 40
0.7311596611
 40
0.7732937728
 40
0.8128228589
 40
0.8493704323
 40
0.8664156506
 40
0.8825876805
 40
0.8978470452
 40
0.9121577966
 40
0.9254862988
 40
0.9377996938
 40
0.9490695469
 40
0.959269081
 40
0.9683730204
 40
0.9763609468
 40
0.979930346
 40
0.9832135024
 40
0.9862085161
 40
0.9889139288
 40
0.9913283123
 40
0.993450261
 40
0.9952784072
 40
0.9968115914
 40
0.9974674423
 40
0.9980494549
 40
0.9985576539
 40
0.9989921086
 40
0.9993529691
 40
0.9996405492
 40
0.9998555479
 40
0.9999363696
 40
1.0
 40
1.0
 40
1.0
 40
1.0
 10
7.1300543478
 20
3.696537576
 30
0.0
 10
7.1300543478
 20
3.6964399507
 30
0.0
 10
7.1299066017
 20
3.6962895016
 30
0.0
 10
7.1296678879
 20
3.6961595618
 30
0.0
 10
7.1293760163
 20
3.6960382096
 30
0.0
 10
7.1290069671
 20
3.6959198652
 30
0.0
 10
7.128555574
 20
3.6957996474
 30
0.0
 10
7.1280232015
 20
3.6956795058
 30
0.0
 10
7.1271519213
 20
3.695508569
 30
0.0
 10
7.1258574436
 20
3.6953000796
 30
0.0
 10
7.1232441494
 20
3.6949528538
 30
0.0
 10
7.1191599164
 20
3.6945366405
 30
0.0
 10
7.1132812373
 20
3.6940610251
 30
0.0
 10
7.1061035805
 20
3.6935830122
 30
0.0
 10
7.0976311031
 20
3.6931026656
 30
0.0
 10
7.0878691347
 20
3.6926211031
 30
0.0
 10
7.0768240854
 20
3.6921386066
 30
0.0
 10
7.0645024023
 20
3.6916554804
 30
0.0
 10
7.0509106967
 20
3.6911718726
 30
0.0
 10
7.0360566003
 20
3.6906879394
 30
0.0
 10
7.0199491553
 20
3.6902036938
 30
0.0
 10
6.995996623
 20
3.6895349762
 30
0.0
 10
6.9630019855
 20
3.6887070451
 30
0.0
 10
6.9197998359
 20
3.6877423069
 30
0.0
 10
6.8718640665
 20
3.6867763963
 30
0.0
 10
6.8193087398
 20
3.6858094127
 30
0.0
 10
6.7622595848
 20
3.68484183
 30
0.0
 10
6.7008523906
 20
3.6838736534
 30
0.0
 10
6.6352335855
 20
3.6829049999
 30
0.0
 10
6.5655599385
 20
3.6819360851
 30
0.0
 10
6.4919972803
 20
3.6809668433
 30
0.0
 10
6.4147212553
 20
3.679997349
 30
0.0
 10
6.3048011283
 20
3.6786784304
 30
0.0
 10
6.1595705992
 20
3.6770403018
 30
0.0
 10
5.9768855409
 20
3.6751094889
 30
0.0
 10
5.7842669283
 20
3.6731774876
 30
0.0
 10
5.5835515974
 20
3.6712445717
 30
0.0
 10
5.3766532501
 20
3.6693110572
 30
0.0
 10
5.1655444008
 20
3.6673771661
 30
0.0
 10
4.9522378641
 20
3.6654430738
 30
0.0
 10
4.7387675294
 20
3.6635089704
 30
0.0
 10
4.5271687812
 20
3.6615750354
 30
0.0
 10
4.3194590332
 20
3.6596414409
 30
0.0
 10
4.1176185325
 20
3.6577084194
 30
0.0
 10
3.9235719199
 20
3.6557762392
 30
0.0
 10
3.7391694808
 20
3.6538452517
 30
0.0
 10
3.5661691822
 20
3.6519158041
 30
0.0
 10
3.4298876272
 20
3.650274158
 30
0.0
 10
3.327789728
 20
3.6489507431
 30
0.0
 10
3.2568468882
 20
3.6479817115
 30
0.0
 10
3.1899065518
 20
3.6470129702
 30
0.0
 10
3.1271284049
 20
3.6460446109
 30
0.0
 10
3.0686624606
 20
3.6450768452
 30
0.0
 10
3.014647762
 20
3.6441096425
 30
0.0
 10
2.9652133405
 20
3.643143314
 30
0.0
 10
2.9204771671
 20
3.6421782763
 30
0.0
 10
2.8805455715
 20
3.6412145499
 30
0.0
 10
2.8503174151
 20
3.640385493
 30
0.0
 10
2.8286075125
 20
3.6397145206
 30
0.0
 10
2.8142029004
 20
3.6392306688
 30
0.0
 10
2.8010635634
 20
3.638747219
 30
0.0
 10
2.789196666
 20
3.6382643006
 30
0.0
 10
2.7786087122
 20
3.6377820808
 30
0.0
 10
2.7693061325
 20
3.6373009541
 30
0.0
 10
2.7612951702
 20
3.6368211581
 30
0.0
 10
2.7554302508
 20
3.6364046578
 30
0.0
 10
2.7513888085
 20
3.636064726
 30
0.0
 10
2.7488446504
 20
3.6358236189
 30
0.0
 10
2.7466260657
 20
3.6355831531
 30
0.0
 10
2.7447333016
 20
3.6353434506
 30
0.0
 10
2.7431659945
 20
3.6351054237
 30
0.0
 10
2.7419245429
 20
3.6348689512
 30
0.0
 10
2.7410947927
 20
3.634661243
 30
0.0
 10
2.7405986413
 20
3.6344854516
 30
0.0
 10
2.7404061306
 20
3.634396353
 30
0.0
 10
2.7403254377
 20
3.6343498607
 30
0.0
  0
SPLINE
  5
2E3
100
AcDbEntity
  8
0
100
AcDbSpline
 62
7
  6
CONTINUOUS
 70
0
 71
3
 72
80
 73
76
 74
0
 42
0.0000001
 43
0.0000001
 44
0.0000000001
 40
0.0
 40
0.0
 40
0.0
 40
0.0
 40
0.0000667031
 40
0.0001209162
 40
0.0001918038
 40
0.0002801476
 40
0.0003863402
 40
0.0005106016
 40
0.0006530653
 40
0.0009928988
 40
0.0014062591
 40
0.0024541734
 40
0.003797411
 40
0.005435931
 40
0.007369066
 40
0.0095955213
 40
0.0121139132
 40
0.0149228269
 40
0.0180208279
 40
0.0214063836
 40
0.0250773449
 40
0.0290312938
 40
0.0377784544
 40
0.0476281704
 40
0.0585567409
 40
0.0705374681
 40
0.0835429589
 40
0.0975414948
 40
0.1124994884
 40
0.1283822581
 40
0.1451510074
 40
0.1627659507
 40
0.1811856933
 40
0.2202599638
 40
0.2620018391
 40
0.306013264
 40
0.3518743359
 40
0.3991480734
 40
0.4473838916
 40
0.4961216935
 40
0.5448969543
 40
0.5932446868
 40
0.6407037712
 40
0.6868219635
 40
0.7311596737
 40
0.7732937823
 40
0.8128228639
 40
0.8493704339
 40
0.8664156514
 40
0.882587681
 40
0.8978470456
 40
0.9121577971
 40
0.9254862992
 40
0.9377996943
 40
0.9490695475
 40
0.9592690816
 40
0.968373021
 40
0.9763609474
 40
0.9799303465
 40
0.9832135029
 40
0.9862085166
 40
0.9889139293
 40
0.9913283127
 40
0.9934502612
 40
0.9952784074
 40
0.9968115916
 40
0.9974674425
 40
0.998049455
 40
0.998557654
 40
0.9989921087
 40
0.9993529692
 40
0.9996405492
 40
0.9998555479
 40
0.9999363696
 40
1.0
 40
1.0
 40
1.0
 40
1.0
 10
2.7400543478
 20
3.4882031073
 30
0.0
 10
2.7400543478
 20
3.4883007326
 30
0.0
 10
2.740202094
 20
3.4884511817
 30
0.0
 10
2.7404408078
 20
3.4885811215
 30
0.0
 10
2.7407326794
 20
3.4887024737
 30
0.0
 10
2.7411017286
 20
3.4888208181
 30
0.0
 10
2.7415531218
 20
3.4889410359
 30
0.0
 10
2.7420854943
 20
3.4890611775
 30
0.0
 10
2.7429567745
 20
3.4892321144
 30
0.0
 10
2.7442512523
 20
3.4894406038
 30
0.0
 10
2.7468645467
 20
3.4897878295
 30
0.0
 10
2.7509487801
 20
3.4902040429
 30
0.0
 10
2.7568274596
 20
3.4906796583
 30
0.0
 10
2.7640051171
 20
3.4911576712
 30
0.0
 10
2.7724775954
 20
3.4916380178
 30
0.0
 10
2.782239565
 20
3.4921195804
 30
0.0
 10
2.7932846156
 20
3.4926020769
 30
0.0
 10
2.8056062999
 20
3.4930852031
 30
0.0
 10
2.8191980064
 20
3.493568811
 30
0.0
 10
2.8340521038
 20
3.4940527442
 30
0.0
 10
2.8501595499
 20
3.4945369898
 30
0.0
 10
2.8741120841
 20
3.4952057074
 30
0.0
 10
2.9071067235
 20
3.4960336385
 30
0.0
 10
2.9503088755
 20
3.4969983768
 30
0.0
 10
2.9982446473
 20
3.4979642874
 30
0.0
 10
3.0507999766
 20
3.498931271
 30
0.0
 10
3.1078491344
 20
3.4998988537
 30
0.0
 10
3.1692563314
 20
3.5008670303
 30
0.0
 10
3.2348751393
 20
3.5018356839
 30
0.0
 10
3.3045487893
 20
3.5028045987
 30
0.0
 10
3.3781114505
 20
3.5037738405
 30
0.0
 10
3.4553874796
 20
3.5047433349
 30
0.0
 10
3.5653076152
 20
3.5060622534
 30
0.0
 10
3.7105381595
 20
3.5077003823
 30
0.0
 10
3.8932232311
 20
3.5096311952
 30
0.0
 10
4.0858418476
 20
3.5115631965
 30
0.0
 10
4.2865571711
 20
3.5134961124
 30
0.0
 10
4.4934555073
 20
3.5154296267
 30
0.0
 10
4.7045643464
 20
3.5173635177
 30
0.0
 10
4.9178708754
 20
3.5192976099
 30
0.0
 10
5.1313412065
 20
3.5212317133
 30
0.0
 10
5.3429399555
 20
3.5231656483
 30
0.0
 10
5.5506497082
 20
3.5250992429
 30
0.0
 10
5.7524902141
 20
3.5270322644
 30
0.0
 10
5.9465368256
 20
3.5289644447
 30
0.0
 10
6.1309392544
 20
3.5308954321
 30
0.0
 10
6.3039395369
 20
3.5328248795
 30
0.0
 10
6.4402210792
 20
3.5344665255
 30
0.0
 10
6.5423189718
 20
3.5357899403
 30
0.0
 10
6.61326181
 20
3.5367589719
 30
0.0
 10
6.6802021458
 20
3.5377277131
 30
0.0
 10
6.7429802928
 20
3.5386960724
 30
0.0
 10
6.8014462371
 20
3.5396638381
 30
0.0
 10
6.855460936
 20
3.5406310408
 30
0.0
 10
6.9048953577
 20
3.5415973694
 30
0.0
 10
6.9496315312
 20
3.5425624071
 30
0.0
 10
6.9895631268
 20
3.5435261335
 30
0.0
 10
7.0197912831
 20
3.5443551904
 30
0.0
 10
7.0415011856
 20
3.5450261628
 30
0.0
 10
7.0559057976
 20
3.5455100146
 30
0.0
 10
7.0690451345
 20
3.5459934644
 30
0.0
 10
7.0809120315
 20
3.5464763828
 30
0.0
 10
7.091499985
 20
3.5469586026
 30
0.0
 10
7.1008025644
 20
3.5474397293
 30
0.0
 10
7.1088135265
 20
3.5479195253
 30
0.0
 10
7.1146784458
 20
3.5483360255
 30
0.0
 10
7.1187198879
 20
3.5486759573
 30
0.0
 10
7.1212640459
 20
3.5489170644
 30
0.0
 10
7.1234826305
 20
3.5491575303
 30
0.0
 10
7.1253753945
 20
3.5493972328
 30
0.0
 10
7.1269427014
 20
3.5496352596
 30
0.0
 10
7.1281841529
 20
3.5498717321
 30
0.0
 10
7.129013903
 20
3.5500794404
 30
0.0
 10
7.1295100544
 20
3.5502552317
 30
0.0
 10
7.1297025651
 20
3.5503443303
 30
0.0
 10
7.129783258
 20
3.5503908226
 30
0.0
  0
SPLINE
  5
2E4
100
AcDbEntity
  8
0
100
AcDbSpline
 62
7
  6
CONTINUOUS
 70
0
 71
3
 72
11
 73
7
 74
0
 42
0.0000001
 43
0.0000001
 44
0.0000000001
 40
0.0
 40
0.0
 40
0.0
 40
0.0
 40
0.1503803439
 40
0.3661216021
 40
0.6490710358
 40
1.0
 40
1.0
 40
1.0
 40
1.0
 10
2.817036525
 20
4.1786439324
 30
0.0
 10
2.8171947155
 20
4.1787351877
 30
0.0
 10
2.8176121164
 20
4.1788977699
 30
0.0
 10
2.8183716578
 20
4.1791070641
 30
0.0
 10
2.81938242
 20
4.179318597
 30
0.0
 10
2.820141412
 20
4.1794471266
 30
0.0
 10
2.8205624433
 20
4.179513137
 30
0.0
  0
SPLINE
  5
2E5
100
AcDbEntity
  8
0
100
AcDbSpline
 62
7
  6
CONTINUOUS
 70
0
 71
3
 72
70
 73
66
 74
0
 42
0.0000001
 43
0.0000001
 44
0.0000000001
 40
0.0
 40
0.0
 40
0.0
 40
0.0
 40
0.0008735498
 40
0.002034337
 40
0.0034826629
 40
0.0052178056
 40
0.0072387308
 40
0.0095443248
 40
0.015004851
 40
0.0215884256
 40
0.0292787311
 40
0.0380582209
 40
0.0479077822
 40
0.0588033944
 40
0.0707200377
 40
0.0975056323
 40
0.1280156148
 40
0.1619673051
 40
0.1990471286
 40
0.2389108167
 40
0.2811889439
 40
0.3254904258
 40
0.3714042913
 40
0.4185051219
 40
0.4663567826
 40
0.5145156013
 40
0.5625355154
 40
0.6099715232
 40
0.6563839389
 40
0.7013431077
 40
0.744432081
 40
0.7852515086
 40
0.8234238453
 40
0.841405276
 40
0.858594833
 40
0.874951851
 40
0.8904385005
 40
0.9050197367
 40
0.9186608062
 40
0.9313302647
 40
0.9429996639
 40
0.9536408931
 40
0.963229583
 40
0.9717444932
 40
0.9755926852
 40
0.9791647914
 40
0.9824590498
 40
0.9854737853
 40
0.988207332
 40
0.9906580379
 40
0.9928242748
 40
0.9947047662
 40
0.9962988887
 40
0.9976061929
 40
0.9981522167
 40
0.9986264917
 40
0.9990290886
 40
0.9993601831
 40
0.9994990381
 40
0.9996202014
 40
0.9997238133
 40
0.9998101116
 40
0.9998795254
 40
0.99993289
 40
1.0
 40
1.0
 40
1.0
 40
1.0
 10
2.8205624433
 20
4.179513137
 30
0.0
 10
2.8217803538
 20
4.1797040842
 30
0.0
 10
2.8246306917
 20
4.1800566941
 30
0.0
 10
2.8295235097
 20
4.1805228565
 30
0.0
 10
2.8356366185
 20
4.1809924079
 30
0.0
 10
2.8429661314
 20
4.181465024
 30
0.0
 10
2.8515075338
 20
4.1819392255
 30
0.0
 10
2.8653031031
 20
4.1826114852
 30
0.0
 10
2.8855376143
 20
4.183432266
 30
0.0
 10
2.9133716977
 20
4.1843761712
 30
0.0
 10
2.9458918366
 20
4.1853233878
 30
0.0
 10
2.9830226636
 20
4.1862732429
 30
0.0
 10
3.0246782205
 20
4.187224515
 30
0.0
 10
3.0707620543
 20
4.188177165
 30
0.0
 10
3.1407440225
 20
4.1895006267
 30
0.0
 10
3.2384055562
 20
4.1911309476
 30
0.0
 10
3.367163433
 20
4.1930254106
 30
0.0
 10
3.5104502873
 20
4.194923584
 30
0.0
 10
3.6669384695
 20
4.1968246113
 30
0.0
 10
3.8351780266
 20
4.1987275946
 30
0.0
 10
4.0136096678
 20
4.2006320112
 30
0.0
 10
4.2005800097
 20
4.2025373991
 30
0.0
 10
4.3943566731
 20
4.2044435165
 30
0.0
 10
4.5931437196
 20
4.2063501181
 30
0.0
 10
4.7950990732
 20
4.2082569884
 30
0.0
 10
4.9983515298
 20
4.2101639853
 30
0.0
 10
5.2010173753
 20
4.2120709248
 30
0.0
 10
5.4012185201
 20
4.2139776431
 30
0.0
 10
5.5971000246
 20
4.2158839747
 30
0.0
 10
5.78684653
 20
4.2177896738
 30
0.0
 10
5.9686995866
 20
4.2196944686
 30
0.0
 10
6.1409742579
 20
4.221598124
 30
0.0
 10
6.2778171629
 20
4.2232134291
 30
0.0
 10
6.3813140027
 20
4.2245140898
 30
0.0
 10
6.4540260913
 20
4.2254698253
 30
0.0
 10
6.5232171302
 20
4.226425348
 30
0.0
 10
6.5887268378
 20
4.2273806379
 30
0.0
 10
6.6504032672
 20
4.2283355092
 30
0.0
 10
6.7081034649
 20
4.2292899975
 30
0.0
 10
6.7616937706
 20
4.2302439904
 30
0.0
 10
6.811049875
 20
4.2311971837
 30
0.0
 10
6.8560574173
 20
4.2321494733
 30
0.0
 10
6.8966121466
 20
4.2331006506
 30
0.0
 10
6.9275807018
 20
4.2339167686
 30
0.0
 10
6.9500594494
 20
4.2345760455
 30
0.0
 10
6.9651727323
 20
4.2350534814
 30
0.0
 10
6.979109186
 20
4.2355306212
 30
0.0
 10
6.9918614933
 20
4.2360074045
 30
0.0
 10
7.003422456
 20
4.2364837129
 30
0.0
 10
7.013784897
 20
4.2369593534
 30
0.0
 10
7.0229420961
 20
4.2374341387
 30
0.0
 10
7.0308887182
 20
4.2379075513
 30
0.0
 10
7.0376207645
 20
4.23837927
 30
0.0
 10
7.0424689187
 20
4.2387900635
 30
0.0
 10
7.0457364605
 20
4.2391272778
 30
0.0
 10
7.0477306076
 20
4.2393641033
 30
0.0
 10
7.0494190564
 20
4.2396001035
 30
0.0
 10
7.0506334772
 20
4.2398055791
 30
0.0
 10
7.0514506196
 20
4.2399740937
 30
0.0
 10
7.051949917
 20
4.2400925712
 30
0.0
 10
7.0523731016
 20
4.2402111135
 30
0.0
 10
7.0527191767
 20
4.2403279552
 30
0.0
 10
7.0529923685
 20
4.2404475872
 30
0.0
 10
7.0532183038
 20
4.2405772894
 30
0.0
 10
7.0533534729
 20
4.2407256346
 30
0.0
 10
7.0533532359
 20
4.2408203426
 30
0.0
  0
SPLINE
  5
2E6
100
AcDbEntity
  8
0
100
AcDbSpline
 62
7
  6
CONTINUOUS
 70
0
 71
3
 72
80
 73
76
 74
0
 42
0.0000001
 43
0.0000001
 44
0.0000000001
 40
0.0
 40
0.0
 40
0.0
 40
0.0
 40
0.0000667031
 40
0.0001209161
 40
0.0001918038
 40
0.0002801476
 40
0.0003863401
 40
0.0005106016
 40
0.0006530653
 40
0.0009928987
 40
0.001406259
 40
0.0024541733
 40
0.0037974108
 40
0.0054359307
 40
0.0073690657
 40
0.0095955209
 40
0.0121139127
 40
0.0149228262
 40
0.0180208272
 40
0.0214063828
 40
0.0250773441
 40
0.0290312929
 40
0.0377784533
 40
0.0476281692
 40
0.0585567396
 40
0.0705374665
 40
0.0835429572
 40
0.0975414928
 40
0.1124994862
 40
0.1283822558
 40
0.1451510048
 40
0.1627659475
 40
0.181185689
 40
0.2202599572
 40
0.2620018308
 40
0.3060132561
 40
0.3518743291
 40
0.3991480674
 40
0.4473838864
 40
0.4961216886
 40
0.544896949
 40
0.5932446806
 40
0.6407037641
 40
0.6868219551
 40
0.7311596647
 40
0.7732937748
 40
0.8128228587
 40
0.8493704304
 40
0.8664156484
 40
0.8825876782
 40
0.8978470429
 40
0.9121577947
 40
0.9254862972
 40
0.9377996925
 40
0.9490695459
 40
0.9592690802
 40
0.9683730198
 40
0.9763609464
 40
0.9799303456
 40
0.9832135021
 40
0.9862085158
 40
0.9889139286
 40
0.9913283122
 40
0.9934502609
 40
0.9952784071
 40
0.9968115913
 40
0.9974674423
 40
0.9980494549
 40
0.9985576539
 40
0.9989921086
 40
0.9993529691
 40
0.9996405492
 40
0.9998555479
 40
0.9999363696
 40
1.0
 40
1.0
 40
1.0
 40
1.0
 10
2.7400543478
 20
3.3632031073
 30
0.0
 10
2.7400543478
 20
3.3633007326
 30
0.0
 10
2.7402020939
 20
3.3634511817
 30
0.0
 10
2.7404408077
 20
3.3635811215
 30
0.0
 10
2.7407326793
 20
3.3637024737
 30
0.0
 10
2.7411017285
 20
3.3638208181
 30
0.0
 10
2.7415531216
 20
3.3639410359
 30
0.0
 10
2.7420854941
 20
3.3640611775
 30
0.0
 10
2.7429567742
 20
3.3642321144
 30
0.0
 10
2.7442512519
 20
3.3644406037
 30
0.0
 10
2.7468645462
 20
3.3647878295
 30
0.0
 10
2.7509487793
 20
3.3652040429
 30
0.0
 10
2.7568274587
 20
3.3656796583
 30
0.0
 10
2.7640051159
 20
3.3661576712
 30
0.0
 10
2.7724775939
 20
3.3666380177
 30
0.0
 10
2.7822395631
 20
3.3671195803
 30
0.0
 10
2.7932846132
 20
3.3676020768
 30
0.0
 10
2.8056062972
 20
3.368085203
 30
0.0
 10
2.8191980034
 20
3.3685688109
 30
0.0
 10
2.8340521006
 20
3.3690527441
 30
0.0
 10
2.8501595464
 20
3.3695369897
 30
0.0
 10
2.87411208
 20
3.3702057073
 30
0.0
 10
2.9071067189
 20
3.3710336384
 30
0.0
 10
2.9503088703
 20
3.3719983767
 30
0.0
 10
2.9982446414
 20
3.3729642873
 30
0.0
 10
3.0507999698
 20
3.3739312708
 30
0.0
 10
3.1078491266
 20
3.3748988536
 30
0.0
 10
3.1692563227
 20
3.3758670302
 30
0.0
 10
3.2348751298
 20
3.3768356837
 30
0.0
 10
3.3045487788
 20
3.3778045985
 30
0.0
 10
3.3781114386
 20
3.3787738404
 30
0.0
 10
3.4553874648
 20
3.3797433347
 30
0.0
 10
3.5653075946
 20
3.3810622532
 30
0.0
 10
3.7105381314
 20
3.3827003819
 30
0.0
 10
3.8932231978
 20
3.3846311949
 30
0.0
 10
4.0858418139
 20
3.3865631962
 30
0.0
 10
4.2865571409
 20
3.3884961121
 30
0.0
 10
4.4934554809
 20
3.3904296264
 30
0.0
 10
4.7045643227
 20
3.3923635175
 30
0.0
 10
4.9178708527
 20
3.3942976097
 30
0.0
 10
5.1313411825
 20
3.3962317131
 30
0.0
 10
5.3429399284
 20
3.398165648
 30
0.0
 10
5.5506496766
 20
3.4000992426
 30
0.0
 10
5.7524901784
 20
3.4020322641
 30
0.0
 10
5.9465367894
 20
3.4039644443
 30
0.0
 10
6.1309392227
 20
3.4058954317
 30
0.0
 10
6.3039395133
 20
3.4078248792
 30
0.0
 10
6.4402210621
 20
3.4094665253
 30
0.0
 10
6.5423189582
 20
3.4107899401
 30
0.0
 10
6.6132617975
 20
3.4117589717
 30
0.0
 10
6.6802021344
 20
3.4127277129
 30
0.0
 10
6.7429802824
 20
3.4136960723
 30
0.0
 10
6.801446228
 20
3.414663838
 30
0.0
 10
6.8554609279
 20
3.4156310407
 30
0.0
 10
6.9048953506
 20
3.4165973692
 30
0.0
 10
6.949631525
 20
3.4175624069
 30
0.0
 10
6.9895631214
 20
3.4185261334
 30
0.0
 10
7.0197912785
 20
3.4193551903
 30
0.0
 10
7.0415011815
 20
3.4200261626
 30
0.0
 10
7.0559057939
 20
3.4205100145
 30
0.0
 10
7.0690451311
 20
3.4209934643
 30
0.0
 10
7.0809120287
 20
3.4214763827
 30
0.0
 10
7.0914999828
 20
3.4219586025
 30
0.0
 10
7.1008025627
 20
3.4224397292
 30
0.0
 10
7.1088135252
 20
3.4229195252
 30
0.0
 10
7.1146784446
 20
3.4233360255
 30
0.0
 10
7.1187198869
 20
3.4236759573
 30
0.0
 10
7.1212640451
 20
3.4239170644
 30
0.0
 10
7.1234826299
 20
3.4241575303
 30
0.0
 10
7.125375394
 20
3.4243972327
 30
0.0
 10
7.1269427011
 20
3.4246352596
 30
0.0
 10
7.1281841527
 20
3.4248717321
 30
0.0
 10
7.1290139029
 20
3.4250794404
 30
0.0
 10
7.1295100543
 20
3.4252552317
 30
0.0
 10
7.1297025651
 20
3.4253443303
 30
0.0
 10
7.1297832579
 20
3.4253908226
 30
0.0
  0
SPLINE
  5
2E7
100
AcDbEntity
  8
0
100
AcDbSpline
 62
7
  6
CONTINUOUS
 70
0
 71
3
 72
37
 73
33
 74
0
 42
0.0000001
 43
0.0000001
 44
0.0000000001
 40
0.0
 40
0.0
 40
0.0
 40
0.0
 40
0.0004238543
 40
0.0007910644
 40
0.001278435
 40
0.0018902758
 40
0.0026286885
 40
0.0034948266
 40
0.0044893752
 40
0.0068651992
 40
0.0097581947
 40
0.0131691684
 40
0.0170984155
 40
0.0265114881
 40
0.0379927177
 40
0.0515321429
 40
0.0671190345
 40
0.084742383
 40
0.1043902281
 40
0.1260456356
 40
0.1496897452
 40
0.1753036479
 40
0.2028683763
 40
0.2637607778
 40
0.3321653904
 40
0.407868346
 40
0.490616864
 40
0.5801425004
 40
0.6761631874
 40
0.7783850773
 40
0.8864695899
 40
1.0
 40
1.0
 40
1.0
 40
1.0
 10
2.7400543478
 20
3.2382031073
 30
0.0
 10
2.7400543478
 20
3.2383229174
 30
0.0
 10
2.7402665985
 20
3.2384973411
 30
0.0
 10
2.7405791365
 20
3.2386437061
 30
0.0
 10
2.7409756202
 20
3.2387851744
 30
0.0
 10
2.7414745595
 20
3.2389225243
 30
0.0
 10
2.7420861653
 20
3.239062487
 30
0.0
 10
2.7428072634
 20
3.239202286
 30
0.0
 10
2.7439883208
 20
3.2394013938
 30
0.0
 10
2.7457423341
 20
3.2396440387
 30
0.0
 10
2.7481800979
 20
3.2399227424
 30
0.0
 10
2.7510592518
 20
3.2402024497
 30
0.0
 10
2.7557781753
 20
3.2406008448
 30
0.0
 10
2.7627785462
 20
3.2410859751
 30
0.0
 10
2.7724960294
 20
3.2416429209
 30
0.0
 10
2.7839609808
 20
3.2422018935
 30
0.0
 10
2.7971637773
 20
3.2427625699
 30
0.0
 10
2.8120945538
 20
3.2433242672
 30
0.0
 10
2.8287417545
 20
3.2438866889
 30
0.0
 10
2.8470916875
 20
3.2444496861
 30
0.0
 10
2.8671287426
 20
3.2450131259
 30
0.0
 10
2.88883677
 20
3.245576931
 30
0.0
 10
2.9210716297
 20
3.2463550495
 30
0.0
 10
2.9654010321
 20
3.2473182088
 30
0.0
 10
3.0233371237
 20
3.2484413012
 30
0.0
 10
3.0874522616
 20
3.24956563
 30
0.0
 10
3.1575384479
 20
3.2506911836
 30
0.0
 10
3.2333684757
 20
3.2518175003
 30
0.0
 10
3.3147035559
 20
3.2529445074
 30
0.0
 10
3.4012850999
 20
3.2540721106
 30
0.0
 10
3.4928164746
 20
3.2551999593
 30
0.0
 10
3.5554556254
 20
3.2559346667
 30
0.0
 10
3.5875449288
 20
3.2563031073
 30
0.0
  0
SPLINE
  5
2E8
100
AcDbEntity
  8
0
100
AcDbSpline
 62
7
  6
CONTINUOUS
 70
0
 71
3
 72
46
 73
42
 74
0
 42
0.0000001
 43
0.0000001
 44
0.0000000001
 40
0.0
 40
0.0
 40
0.0
 40
0.0
 40
0.0711709865
 40
0.1482638533
 40
0.2298017175
 40
0.3142234029
 40
0.3999119723
 40
0.4852264301
 40
0.568532871
 40
0.608931947
 40
0.6482358876
 40
0.6862553124
 40
0.7228090949
 40
0.7577207765
 40
0.7908243817
 40
0.8219597856
 40
0.8509793314
 40
0.8777423107
 40
0.9021222105
 40
0.9240004683
 40
0.933968917
 40
0.9432741623
 40
0.9519042908
 40
0.9598492184
 40
0.9671001599
 40
0.9736483706
 40
0.979485252
 40
0.9846041017
 40
0.9889996904
 40
0.9909246681
 40
0.9926669314
 40
0.9942258741
 40
0.9956010265
 40
0.9967922452
 40
0.9977995016
 40
0.9986228987
 40
0.999262823
 40
0.9995143149
 40
0.9997205056
 40
0.9998819756
 40
1.0
 40
1.0
 40
1.0
 40
1.0
 10
3.5875449288
 20
3.2563031073
 30
0.0
 10
3.6715860335
 20
3.2572680443
 30
0.0
 10
3.846662276
 20
3.2591671812
 30
0.0
 10
4.1180241427
 20
3.2618904327
 30
0.0
 10
4.4050346221
 20
3.2646169062
 30
0.0
 10
4.7021962836
 20
3.2673453137
 30
0.0
 10
5.0038179449
 20
3.270074472
 30
0.0
 10
5.3041225485
 20
3.2728034648
 30
0.0
 10
5.5509459909
 20
3.2750992848
 30
0.0
 10
5.7434368542
 20
3.2769502443
 30
0.0
 10
5.8824498658
 20
3.2783240372
 30
0.0
 10
6.0169216997
 20
3.279697611
 30
0.0
 10
6.1462063882
 20
3.2810707743
 30
0.0
 10
6.2696855911
 20
3.2824435901
 30
0.0
 10
6.3867657606
 20
3.283815757
 30
0.0
 10
6.4968873416
 20
3.2851873206
 30
0.0
 10
6.5995205991
 20
3.2865578405
 30
0.0
 10
6.6941754574
 20
3.2879272298
 30
0.0
 10
6.7803961505
 20
3.2892948958
 30
0.0
 10
6.8467845267
 20
3.2904661053
 30
0.0
 10
6.8953721566
 20
3.291411686
 30
0.0
 10
6.9283169613
 20
3.2920983623
 30
0.0
 10
6.9588716174
 20
3.2927847143
 30
0.0
 10
6.9869996725
 20
3.2934706562
 30
0.0
 10
7.0126683901
 20
3.2941559619
 30
0.0
 10
7.0358467429
 20
3.2948404211
 30
0.0
 10
7.0565061121
 20
3.2955237404
 30
0.0
 10
7.0746219013
 20
3.2962056859
 30
0.0
 10
7.0881181228
 20
3.2967949193
 30
0.0
 10
7.0976276096
 20
3.2972735276
 30
0.0
 10
7.1037897918
 20
3.2976160825
 30
0.0
 10
7.1093015967
 20
3.2979581767
 30
0.0
 10
7.1141613217
 20
3.298299655
 30
0.0
 10
7.1183677729
 20
3.2986402607
 30
0.0
 10
7.1219204449
 20
3.29897911
 30
0.0
 10
7.1248185726
 20
3.299316107
 30
0.0
 10
7.1268228476
 20
3.299611247
 30
0.0
 10
7.1280955502
 20
3.2998575726
 30
0.0
 10
7.1288075491
 20
3.3000260705
 30
0.0
 10
7.1293563034
 20
3.3001930137
 30
0.0
 10
7.1296624567
 20
3.3003212477
 30
0.0
 10
7.1297832256
 20
3.3003908226
 30
0.0
  0
SPLINE
  5
2E9
100
AcDbEntity
  8
0
100
AcDbSpline
 62
7
  6
CONTINUOUS
 70
0
 71
3
 72
80
 73
76
 74
0
 42
0.0000001
 43
0.0000001
 44
0.0000000001
 40
0.0
 40
0.0
 40
0.0
 40
0.0
 40
0.0000667031
 40
0.0001209161
 40
0.0001918038
 40
0.0002801476
 40
0.0003863401
 40
0.0005106016
 40
0.0006530653
 40
0.0009928987
 40
0.001406259
 40
0.0024541732
 40
0.0037974107
 40
0.0054359306
 40
0.0073690654
 40
0.0095955204
 40
0.012113912
 40
0.0149228253
 40
0.0180208261
 40
0.0214063817
 40
0.0250773427
 40
0.0290312913
 40
0.0377784513
 40
0.047628167
 40
0.0585567369
 40
0.0705374635
 40
0.0835429538
 40
0.0975414889
 40
0.1124994819
 40
0.1283822511
 40
0.1451509996
 40
0.162765942
 40
0.1811856833
 40
0.2202599496
 40
0.2620018196
 40
0.3060132446
 40
0.3518743192
 40
0.399148059
 40
0.4473838797
 40
0.4961216833
 40
0.5448969446
 40
0.5932446766
 40
0.6407037596
 40
0.6868219497
 40
0.7311596591
 40
0.7732937708
 40
0.8128228572
 40
0.8493704311
 40
0.8664156495
 40
0.8825876795
 40
0.8978470443
 40
0.9121577959
 40
0.9254862982
 40
0.9377996933
 40
0.9490695465
 40
0.9592690807
 40
0.9683730201
 40
0.9763609467
 40
0.9799303458
 40
0.9832135023
 40
0.986208516
 40
0.9889139288
 40
0.9913283123
 40
0.9934502609
 40
0.9952784072
 40
0.9968115914
 40
0.9974674423
 40
0.9980494549
 40
0.9985576539
 40
0.9989921086
 40
0.9993529691
 40
0.9996405492
 40
0.9998555479
 40
0.9999363696
 40
1.0
 40
1.0
 40
1.0
 40
1.0
 10
2.7400543478
 20
3.1132031073
 30
0.0
 10
2.7400543478
 20
3.1133007326
 30
0.0
 10
2.7402020939
 20
3.1134511817
 30
0.0
 10
2.7404408077
 20
3.1135811215
 30
0.0
 10
2.7407326793
 20
3.1137024737
 30
0.0
 10
2.7411017285
 20
3.1138208181
 30
0.0
 10
2.7415531217
 20
3.1139410359
 30
0.0
 10
2.7420854941
 20
3.1140611775
 30
0.0
 10
2.7429567743
 20
3.1142321144
 30
0.0
 10
2.744251252
 20
3.1144406037
 30
0.0
 10
2.7468645462
 20
3.1147878295
 30
0.0
 10
2.7509487792
 20
3.1152040429
 30
0.0
 10
2.7568274583
 20
3.1156796583
 30
0.0
 10
2.7640051151
 20
3.1161576711
 30
0.0
 10
2.7724775925
 20
3.1166380177
 30
0.0
 10
2.7822395609
 20
3.1171195802
 30
0.0
 10
2.7932846101
 20
3.1176020767
 30
0.0
 10
2.8056062933
 20
3.1180852029
 30
0.0
 10
2.8191979988
 20
3.1185688107
 30
0.0
 10
2.8340520953
 20
3.1190527439
 30
0.0
 10
2.8501595403
 20
3.1195369895
 30
0.0
 10
2.8741120727
 20
3.1202057071
 30
0.0
 10
2.9071067104
 20
3.1210336382
 30
0.0
 10
2.9503088601
 20
3.1219983764
 30
0.0
 10
2.9982446297
 20
3.1229642871
 30
0.0
 10
3.0507999564
 20
3.1239312706
 30
0.0
 10
3.1078491115
 20
3.1248988533
 30
0.0
 10
3.1692563058
 20
3.12586703
 30
0.0
 10
3.2348751109
 20
3.1268356835
 30
0.0
 10
3.304548758
 20
3.1278045982
 30
0.0
 10
3.3781114161
 20
3.1287738401
 30
0.0
 10
3.4553874409
 20
3.1297433344
 30
0.0
 10
3.5653075673
 20
3.1310622529
 30
0.0
 10
3.7105380957
 20
3.1327003815
 30
0.0
 10
3.8932231535
 20
3.1346311944
 30
0.0
 10
4.0858417662
 20
3.1365631957
 30
0.0
 10
4.2865570972
 20
3.1384961117
 30
0.0
 10
4.4934554443
 20
3.1404296261
 30
0.0
 10
4.7045642929
 20
3.1423635173
 30
0.0
 10
4.9178708288
 20
3.1442976095
 30
0.0
 10
5.1313411625
 20
3.1462317129
 30
0.0
 10
5.3429399095
 20
3.1481656479
 30
0.0
 10
5.5506496561
 20
3.1500992424
 30
0.0
 10
5.7524901556
 20
3.1520322639
 30
0.0
 10
5.9465367673
 20
3.1539644441
 30
0.0
 10
6.1309392064
 20
3.1558954316
 30
0.0
 10
6.3039395061
 20
3.1578248792
 30
0.0
 10
6.4402210625
 20
3.1594665253
 30
0.0
 10
6.5423189628
 20
3.1607899402
 30
0.0
 10
6.6132618031
 20
3.1617589718
 30
0.0
 10
6.68020214
 20
3.162727713
 30
0.0
 10
6.7429802876
 20
3.1636960724
 30
0.0
 10
6.8014462323
 20
3.1646638381
 30
0.0
 10
6.8554609314
 20
3.1656310408
 30
0.0
 10
6.9048953534
 20
3.1665973693
 30
0.0
 10
6.9496315271
 20
3.167562407
 30
0.0
 10
6.9895631231
 20
3.1685261334
 30
0.0
 10
7.0197912798
 20
3.1693551903
 30
0.0
 10
7.0415011825
 20
3.1700261627
 30
0.0
 10
7.0559057947
 20
3.1705100145
 30
0.0
 10
7.0690451318
 20
3.1709934643
 30
0.0
 10
7.0809120293
 20
3.1714763827
 30
0.0
 10
7.0914999832
 20
3.1719586025
 30
0.0
 10
7.100802563
 20
3.1724397292
 30
0.0
 10
7.1088135254
 20
3.1729195252
 30
0.0
 10
7.1146784448
 20
3.1733360255
 30
0.0
 10
7.1187198871
 20
3.1736759573
 30
0.0
 10
7.1212640452
 20
3.1739170644
 30
0.0
 10
7.12348263
 20
3.1741575303
 30
0.0
 10
7.1253753941
 20
3.1743972328
 30
0.0
 10
7.1269427011
 20
3.1746352596
 30
0.0
 10
7.1281841527
 20
3.1748717321
 30
0.0
 10
7.1290139029
 20
3.1750794404
 30
0.0
 10
7.1295100543
 20
3.1752552317
 30
0.0
 10
7.1297025651
 20
3.1753443303
 30
0.0
 10
7.1297832579
 20
3.1753908226
 30
0.0
  0
SPLINE
  5
2EA
100
AcDbEntity
  8
0
100
AcDbSpline
 62
7
  6
CONTINUOUS
 70
0
 71
3
 72
51
 73
47
 74
0
 42
0.0000001
 43
0.0000001
 44
0.0000000001
 40
0.0
 40
0.0
 40
0.0
 40
0.0
 40
0.0000542993
 40
0.000092593
 40
0.0001405448
 40
0.000268111
 40
0.0004401031
 40
0.0006576098
 40
0.000921141
 40
0.0012309665
 40
0.0015872394
 40
0.0024394349
 40
0.0034781073
 40
0.0047033385
 40
0.0061150868
 40
0.0077131695
 40
0.0094970637
 40
0.0114661469
 40
0.0136197809
 40
0.0184780918
 40
0.0240667337
 40
0.0303797817
 40
0.037408924
 40
0.0451452366
 40
0.0535797795
 40
0.062703045
 40
0.0725032862
 40
0.0829681923
 40
0.0940854479
 40
0.1182235871
 40
0.1447984152
 40
0.1736827251
 40
0.204734316
 40
0.2378039593
 40
0.2727293303
 40
0.3093420904
 40
0.347462947
 40
0.3869077235
 40
0.4274836594
 40
0.5112372359
 40
0.5970969195
 40
0.6833950289
 40
0.768455364
 40
0.8506257738
 40
0.9283102643
 40
1.0
 40
1.0
 40
1.0
 40
1.0
 10
7.1300543478
 20
3.196537576
 30
0.0
 10
7.1300543478
 20
3.1964734456
 30
0.0
 10
7.1299890449
 20
3.1963692262
 30
0.0
 10
7.1298592934
 20
3.1962686479
 30
0.0
 10
7.1296394268
 20
3.1961412685
 30
0.0
 10
7.129255454
 20
3.1959932665
 30
0.0
 10
7.128668274
 20
3.1958241834
 30
0.0
 10
7.1279155645
 20
3.1956545219
 30
0.0
 10
7.1269971789
 20
3.1954834818
 30
0.0
 10
7.1259126168
 20
3.1953118981
 30
0.0
 10
7.1241360509
 20
3.1950676802
 30
0.0
 10
7.1214984634
 20
3.194770044
 30
0.0
 10
7.117833971
 20
3.194428253
 30
0.0
 10
7.113506285
 20
3.1940852514
 30
0.0
 10
7.1085162311
 20
3.1937412477
 30
0.0
 10
7.1028650298
 20
3.1933966943
 30
0.0
 10
7.0965545308
 20
3.1930517005
 30
0.0
 10
7.0895870327
 20
3.1927063673
 30
0.0
 10
7.0789908095
 20
3.1922260819
 30
0.0
 10
7.0641205421
 20
3.1916333418
 30
0.0
 10
7.0443379725
 20
3.1909456581
 30
0.0
 10
7.0219902062
 20
3.1902568675
 30
0.0
 10
6.9971048887
 20
3.1895670468
 30
0.0
 10
6.9697131222
 20
3.1888765132
 30
0.0
 10
6.9398473811
 20
3.1881854543
 30
0.0
 10
6.9075434367
 20
3.1874940801
 30
0.0
 10
6.8728410226
 20
3.1868023814
 30
0.0
 10
6.8357831683
 20
3.1861103907
 30
0.0
 10
6.7817933673
 20
3.1851612336
 30
0.0
 10
6.7087779994
 20
3.1839839439
 30
0.0
 10
6.6147794219
 20
3.1826051008
 30
0.0
 10
6.5126148972
 20
3.1812251742
 30
0.0
 10
6.4027790165
 20
3.1798440855
 30
0.0
 10
6.2858077988
 20
3.1784623677
 30
0.0
 10
6.1622681179
 20
3.1770799547
 30
0.0
 10
6.0327623317
 20
3.1756971744
 30
0.0
 10
5.8979185982
 20
3.17431396
 30
0.0
 10
5.7583939063
 20
3.1729305126
 30
0.0
 10
5.5649766465
 20
3.1710659088
 30
0.0
 10
5.316742664
 20
3.1687534969
 30
0.0
 10
5.0145100618
 20
3.166005566
 30
0.0
 10
4.710734046
 20
3.1632574301
 30
0.0
 10
4.4113154334
 20
3.160510036
 30
0.0
 10
4.1220703851
 20
3.1577646034
 30
0.0
 10
3.8486174475
 20
3.1550224602
 30
0.0
 10
3.6722087828
 20
3.1531096632
 30
0.0
 10
3.5875449288
 20
3.152137576
 30
0.0
  0
SPLINE
  5
2EB
100
AcDbEntity
  8
0
100
AcDbSpline
 62
7
  6
CONTINUOUS
 70
0
 71
3
 72
80
 73
76
 74
0
 42
0.0000001
 43
0.0000001
 44
0.0000000001
 40
0.0
 40
0.0
 40
0.0
 40
0.0
 40
0.0000667031
 40
0.0001209161
 40
0.0001918038
 40
0.0002801476
 40
0.0003863401
 40
0.0005106016
 40
0.0006530653
 40
0.0009928988
 40
0.001406259
 40
0.0024541733
 40
0.0037974108
 40
0.0054359306
 40
0.0073690655
 40
0.0095955205
 40
0.0121139121
 40
0.0149228255
 40
0.0180208263
 40
0.0214063818
 40
0.0250773428
 40
0.0290312913
 40
0.0377784512
 40
0.0476281668
 40
0.0585567366
 40
0.0705374631
 40
0.0835429534
 40
0.0975414884
 40
0.1124994814
 40
0.1283822506
 40
0.145150999
 40
0.1627659416
 40
0.1811856831
 40
0.2202599502
 40
0.2620018211
 40
0.3060132458
 40
0.3518743199
 40
0.3991480599
 40
0.447383881
 40
0.496121685
 40
0.544896947
 40
0.59324468
 40
0.6407037641
 40
0.6868219553
 40
0.7311596653
 40
0.7732937768
 40
0.8128228622
 40
0.8493704347
 40
0.8664156527
 40
0.8825876823
 40
0.8978470468
 40
0.9121577981
 40
0.9254863
 40
0.9377996948
 40
0.9490695478
 40
0.9592690817
 40
0.9683730209
 40
0.9763609472
 40
0.9799303463
 40
0.9832135027
 40
0.9862085163
 40
0.988913929
 40
0.9913283124
 40
0.9934502611
 40
0.9952784073
 40
0.9968115914
 40
0.9974674424
 40
0.9980494549
 40
0.9985576539
 40
0.9989921086
 40
0.9993529691
 40
0.9996405492
 40
0.9998555479
 40
0.9999363696
 40
1.0
 40
1.0
 40
1.0
 40
1.0
 10
2.7400543478
 20
2.9882031073
 30
0.0
 10
2.7400543478
 20
2.9883007326
 30
0.0
 10
2.7402020939
 20
2.9884511817
 30
0.0
 10
2.7404408077
 20
2.9885811215
 30
0.0
 10
2.7407326793
 20
2.9887024737
 30
0.0
 10
2.7411017285
 20
2.9888208181
 30
0.0
 10
2.7415531217
 20
2.9889410359
 30
0.0
 10
2.7420854941
 20
2.9890611775
 30
0.0
 10
2.7429567743
 20
2.9892321144
 30
0.0
 10
2.744251252
 20
2.9894406038
 30
0.0
 10
2.7468645463
 20
2.9897878295
 30
0.0
 10
2.7509487794
 20
2.9902040429
 30
0.0
 10
2.7568274585
 20
2.9906796583
 30
0.0
 10
2.7640051153
 20
2.9911576711
 30
0.0
 10
2.7724775928
 20
2.9916380177
 30
0.0
 10
2.7822395614
 20
2.9921195802
 30
0.0
 10
2.7932846107
 20
2.9926020768
 30
0.0
 10
2.8056062939
 20
2.9930852029
 30
0.0
 10
2.8191979994
 20
2.9935688108
 30
0.0
 10
2.8340520959
 20
2.9940527439
 30
0.0
 10
2.8501595406
 20
2.9945369895
 30
0.0
 10
2.8741120728
 20
2.9952057071
 30
0.0
 10
2.9071067101
 20
2.9960336382
 30
0.0
 10
2.9503088594
 20
2.9969983764
 30
0.0
 10
2.9982446286
 20
2.997964287
 30
0.0
 10
3.050799955
 20
2.9989312706
 30
0.0
 10
3.1078491097
 20
2.9998988533
 30
0.0
 10
3.1692563038
 20
3.0008670299
 30
0.0
 10
3.2348751087
 20
3.0018356834
 30
0.0
 10
3.3045487557
 20
3.0028045982
 30
0.0
 10
3.3781114139
 20
3.0037738401
 30
0.0
 10
3.4553874391
 20
3.0047433344
 30
0.0
 10
3.5653075672
 20
3.0060622529
 30
0.0
 10
3.7105380984
 20
3.0077003816
 30
0.0
 10
3.8932231582
 20
3.0096311945
 30
0.0
 10
4.0858417711
 20
3.0115631958
 30
0.0
 10
4.2865571012
 20
3.0134961117
 30
0.0
 10
4.4934554484
 20
3.0154296261
 30
0.0
 10
4.7045642986
 20
3.0173635173
 30
0.0
 10
4.9178708367
 20
3.0192976096
 30
0.0
 10
5.1313411735
 20
3.021231713
 30
0.0
 10
5.3429399245
 20
3.023165648
 30
0.0
 10
5.5506496758
 20
3.0250992426
 30
0.0
 10
5.7524901794
 20
3.0270322641
 30
0.0
 10
5.9465367934
 20
3.0289644443
 30
0.0
 10
6.1309392317
 20
3.0308954318
 30
0.0
 10
6.3039395276
 20
3.0328248794
 30
0.0
 10
6.4402210798
 20
3.0344665255
 30
0.0
 10
6.5423189768
 20
3.0357899404
 30
0.0
 10
6.6132618155
 20
3.0367589719
 30
0.0
 10
6.680202151
 20
3.0377277132
 30
0.0
 10
6.7429802971
 20
3.0386960725
 30
0.0
 10
6.8014462404
 20
3.0396638382
 30
0.0
 10
6.8554609382
 20
3.0406310409
 30
0.0
 10
6.9048953589
 20
3.0415973694
 30
0.0
 10
6.9496315316
 20
3.0425624071
 30
0.0
 10
6.9895631265
 20
3.0435261335
 30
0.0
 10
7.0197912824
 20
3.0443551904
 30
0.0
 10
7.0415011845
 20
3.0450261627
 30
0.0
 10
7.0559057964
 20
3.0455100146
 30
0.0
 10
7.0690451332
 20
3.0459934644
 30
0.0
 10
7.0809120304
 20
3.0464763828
 30
0.0
 10
7.091499984
 20
3.0469586026
 30
0.0
 10
7.1008025635
 20
3.0474397293
 30
0.0
 10
7.1088135258
 20
3.0479195252
 30
0.0
 10
7.1146784451
 20
3.0483360255
 30
0.0
 10
7.1187198873
 20
3.0486759573
 30
0.0
 10
7.1212640453
 20
3.0489170644
 30
0.0
 10
7.1234826301
 20
3.0491575303
 30
0.0
 10
7.1253753942
 20
3.0493972328
 30
0.0
 10
7.1269427012
 20
3.0496352596
 30
0.0
 10
7.1281841528
 20
3.0498717321
 30
0.0
 10
7.1290139029
 20
3.0500794404
 30
0.0
 10
7.1295100543
 20
3.0502552317
 30
0.0
 10
7.1297025651
 20
3.0503443303
 30
0.0
 10
7.1297832579
 20
3.0503908226
 30
0.0
  0
SPLINE
  5
2EC
100
AcDbEntity
  8
0
100
AcDbSpline
 62
7
  6
CONTINUOUS
 70
0
 71
3
 72
76
 73
72
 74
0
 42
0.0000001
 43
0.0000001
 44
0.0000000001
 40
0.0
 40
0.0
 40
0.0
 40
0.0
 40
0.0000680012
 40
0.0001222622
 40
0.0001928687
 40
0.0002806463
 40
0.0003860156
 40
0.0005092152
 40
0.000650392
 40
0.0009870145
 40
0.0013963658
 40
0.0018786791
 40
0.0024340828
 40
0.0037643712
 40
0.0053869442
 40
0.0073008099
 40
0.0095048537
 40
0.0119979033
 40
0.0147787527
 40
0.0178461219
 40
0.0211981378
 40
0.0248325636
 40
0.028747151
 40
0.0374077917
 40
0.047161077
 40
0.0579830084
 40
0.069847898
 40
0.0827290053
 40
0.0965948939
 40
0.1114127979
 40
0.1271488271
 40
0.143764837
 40
0.1612216711
 40
0.179479017
 40
0.2182184842
 40
0.2596184971
 40
0.3032878086
 40
0.3488144054
 40
0.3957691859
 40
0.4437087471
 40
0.4921808382
 40
0.5407282367
 40
0.5888926638
 40
0.6362199391
 40
0.6822633727
 40
0.7265883002
 40
0.7687770558
 40
0.8084312874
 40
0.8451764799
 40
0.8786668393
 40
0.894091069
 40
0.9085861252
 40
0.9221166565
 40
0.9346514977
 40
0.9461615341
 40
0.9566183679
 40
0.9659983118
 40
0.974279653
 40
0.9814416255
 40
0.9845978615
 40
0.9874686387
 40
0.9900522542
 40
0.9923470234
 40
0.9943514071
 40
0.9960645742
 40
0.9974860132
 40
0.9986153922
 40
0.9990705809
 40
0.9994528704
 40
0.999762497
 40
1.0
 40
1.0
 40
1.0
 40
1.0
 10
2.8167556304
 20
4.1939203426
 30
0.0
 10
2.8167558659
 20
4.1940163715
 30
0.0
 10
2.8168946765
 20
4.1941658097
 30
0.0
 10
2.8171247526
 20
4.1942965074
 30
0.0
 10
2.8174032995
 20
4.1944172121
 30
0.0
 10
2.8177558301
 20
4.1945351096
 30
0.0
 10
2.8181867577
 20
4.1946547345
 30
0.0
 10
2.8186950154
 20
4.1947742952
 30
0.0
 10
2.8195266569
 20
4.1949443477
 30
0.0
 10
2.8207624959
 20
4.1951517076
 30
0.0
 10
2.8224807514
 20
4.1953898673
 30
0.0
 10
2.8245103483
 20
4.1956288566
 30
0.0
 10
2.8278370998
 20
4.1959691981
 30
0.0
 10
2.8327743436
 20
4.1963837045
 30
0.0
 10
2.8396306071
 20
4.1968596362
 30
0.0
 10
2.8477231725
 20
4.1973373156
 30
0.0
 10
2.8570467237
 20
4.197816462
 30
0.0
 10
2.8675959777
 20
4.1982964824
 30
0.0
 10
2.8793654814
 20
4.1987771613
 30
0.0
 10
2.8923488838
 20
4.1992582639
 30
0.0
 10
2.9065384194
 20
4.1997397109
 30
0.0
 10
2.9219249916
 20
4.2002214688
 30
0.0
 10
2.9448061111
 20
4.2008867494
 30
0.0
 10
2.9763270579
 20
4.2017104011
 30
0.0
 10
3.0176019189
 20
4.2026700888
 30
0.0
 10
3.0634027901
 20
4.2036310428
 30
0.0
 10
3.1136215314
 20
4.204593031
 30
0.0
 10
3.1681395663
 20
4.2055555978
 30
0.0
 10
3.2268283465
 20
4.2065187764
 30
0.0
 10
3.2895492574
 20
4.2074824222
 30
0.0
 10
3.3561542307
 20
4.208446324
 30
0.0
 10
3.426486183
 20
4.2094105494
 30
0.0
 10
3.500378975
 20
4.2103750427
 30
0.0
 10
3.6055119372
 20
4.2116872468
 30
0.0
 10
3.7444553637
 20
4.2133170775
 30
0.0
 10
3.919283783
 20
4.2152379272
 30
0.0
 10
4.10369731
 20
4.2171599941
 30
0.0
 10
4.2959555046
 20
4.2190829701
 30
0.0
 10
4.494244299
 20
4.2210065304
 30
0.0
 10
4.6966928163
 20
4.2229304967
 30
0.0
 10
4.9013904776
 20
4.2248546648
 30
0.0
 10
5.1064057014
 20
4.2267788511
 30
0.0
 10
5.3098041814
 20
4.2287029079
 30
0.0
 10
5.5096664825
 20
4.2306266279
 30
0.0
 10
5.7041065096
 20
4.2325498102
 30
0.0
 10
5.8912897195
 20
4.234472224
 30
0.0
 10
6.0694498114
 20
4.2363935147
 30
0.0
 10
6.2369053992
 20
4.2383131919
 30
0.0
 10
6.3920765393
 20
4.2402308844
 30
0.0
 10
6.5130316109
 20
4.241867884
 30
0.0
 10
6.6025670136
 20
4.2431895982
 30
0.0
 10
6.663917953
 20
4.2441530361
 30
0.0
 10
6.7211880582
 20
4.2451160603
 30
0.0
 10
6.7742421823
 20
4.2460784993
 30
0.0
 10
6.8229549724
 20
4.247040046
 30
0.0
 10
6.8672115863
 20
4.24800069
 30
0.0
 10
6.9069075954
 20
4.2489598167
 30
0.0
 10
6.9419492296
 20
4.2499169337
 30
0.0
 10
6.968202075
 20
4.250742978
 30
0.0
 10
6.98681512
 20
4.251413264
 30
0.0
 10
6.9989653053
 20
4.2518941008
 30
0.0
 10
7.0098979321
 20
4.2523743165
 30
0.0
 10
7.0196058025
 20
4.2528536816
 30
0.0
 10
7.0280828074
 20
4.2533320127
 30
0.0
 10
7.0353244604
 20
4.2538083421
 30
0.0
 10
7.0413273753
 20
4.254282423
 30
0.0
 10
7.0455526947
 20
4.2546968198
 30
0.0
 10
7.0483090522
 20
4.2550402591
 30
0.0
 10
7.0499117339
 20
4.2552777586
 30
0.0
 10
7.051203007
 20
4.2555136243
 30
0.0
 10
7.0519558925
 20
4.2556912217
 30
0.0
 10
7.0522776169
 20
4.2557859997
 30
0.0
  0
LINE
  5
2ED
100
AcDbEntity
  8
0
100
AcDbLine
 62
7
  6
CONTINUOUS
 10
7.0522776169
 20
4.2557859997
 11
7.0530737912
 21
4.2560967523
  0
SPLINE
  5
2EE
100
AcDbEntity
  8
0
100
AcDbSpline
 62
7
  6
CONTINUOUS
 70
0
 71
3
 72
70
 73
66
 74
0
 42
0.0000001
 43
0.0000001
 44
0.0000000001
 40
0.0
 40
0.0
 40
0.0
 40
0.0
 40
0.0000672957
 40
0.0001208158
 40
0.0001903965
 40
0.000276858
 40
0.0003806177
 40
0.0005019116
 40
0.0006408841
 40
0.0009721936
 40
0.0013750112
 40
0.0018495525
 40
0.0023959283
 40
0.0037043556
 40
0.0053003795
 40
0.0071832549
 40
0.0093517624
 40
0.0118046184
 40
0.0145405059
 40
0.0175580869
 40
0.0208559466
 40
0.0244320775
 40
0.028284153
 40
0.0368067926
 40
0.0464050771
 40
0.0570571443
 40
0.0687371678
 40
0.081418952
 40
0.0950733335
 40
0.1096676111
 40
0.1251687693
 40
0.1415409967
 40
0.1587454156
 40
0.1767428807
 40
0.2149476474
 40
0.2558008084
 40
0.2989229347
 40
0.3439146264
 40
0.390358438
 40
0.4378233168
 40
0.4858693101
 40
0.5340505681
 40
0.5819202311
 40
0.6290343731
 40
0.6749556337
 40
0.7192584805
 40
0.7615319503
 40
0.8013833818
 40
0.8384439042
 40
0.8723697088
 40
0.902845372
 40
0.9295893551
 40
0.9414828636
 40
0.9523537148
 40
0.9621754983
 40
0.9709266031
 40
0.978586959
 40
0.9851376548
 40
0.9905649579
 40
0.9928535612
 40
0.9948568199
 40
0.9965734566
 40
0.9980029319
 40
0.9991450495
 40
1.0
 40
1.0
 40
1.0
 40
1.0
 10
2.8167546566
 20
4.5689203423
 30
0.0
 10
2.8167548365
 20
4.5690153171
 30
0.0
 10
2.8168909109
 20
4.569163465
 30
0.0
 10
2.8171175753
 20
4.5692932829
 30
0.0
 10
2.8173915252
 20
4.5694129537
 30
0.0
 10
2.8177382987
 20
4.5695298697
 30
0.0
 10
2.8181621354
 20
4.5696484785
 30
0.0
 10
2.818662015
 20
4.5697670268
 30
0.0
 10
2.8194798493
 20
4.5699356246
 30
0.0
 10
2.8206951025
 20
4.5701412186
 30
0.0
 10
2.822384617
 20
4.5703773556
 30
0.0
 10
2.8243800397
 20
4.5706143149
 30
0.0
 10
2.8276501923
 20
4.5709517414
 30
0.0
 10
2.8325033474
 20
4.5713627915
 30
0.0
 10
2.8392433646
 20
4.5718346894
 30
0.0
 10
2.8471996354
 20
4.5723082803
 30
0.0
 10
2.8563668862
 20
4.5727833389
 30
0.0
 10
2.866739375
 20
4.5732592674
 30
0.0
 10
2.8783112562
 20
4.5737358529
 30
0.0
 10
2.8910765896
 20
4.5742129061
 30
0.0
 10
2.9050285065
 20
4.5746902673
 30
0.0
 10
2.920158775
 20
4.5751679169
 30
0.0
 10
2.9426606933
 20
4.5758275375
 30
0.0
 10
2.9736606929
 20
4.5766441882
 30
0.0
 10
3.0142571555
 20
4.5775958139
 30
0.0
 10
3.0593107345
 20
4.5785485375
 30
0.0
 10
3.1087169394
 20
4.5795023474
 30
0.0
 10
3.1623610474
 20
4.5804568004
 30
0.0
 10
3.2201186598
 20
4.5814117476
 30
0.0
 10
3.2818557774
 20
4.5823672053
 30
0.0
 10
3.3474290406
 20
4.583322966
 30
0.0
 10
3.4166863847
 20
4.5842789619
 30
0.0
 10
3.4894671028
 20
4.5852352655
 30
0.0
 10
3.5930583846
 20
4.5865365477
 30
0.0
 10
3.7300239964
 20
4.5881527461
 30
0.0
 10
3.9024472704
 20
4.5900573573
 30
0.0
 10
4.0844495287
 20
4.5919631832
 30
0.0
 10
4.2743423235
 20
4.5938698896
 30
0.0
 10
4.4703643743
 20
4.5957772076
 30
0.0
 10
4.6706971819
 20
4.5976849437
 30
0.0
 10
4.8734821701
 20
4.5995928818
 30
0.0
 10
5.0768384583
 20
4.6015008773
 30
0.0
 10
5.2788795598
 20
4.6034087602
 30
0.0
 10
5.4777309666
 20
4.605316342
 30
0.0
 10
5.6715482628
 20
4.6072234634
 30
0.0
 10
5.8585335429
 20
4.6091298578
 30
0.0
 10
6.0369519682
 20
4.6110352218
 30
0.0
 10
6.2051486411
 20
4.612939201
 30
0.0
 10
6.3615634005
 20
4.6148412227
 30
0.0
 10
6.504745045
 20
4.6167402697
 30
0.0
 10
6.6333655056
 20
4.6186356927
 30
0.0
 10
6.7308919775
 20
4.6202669629
 30
0.0
 10
6.800751013
 20
4.6215912937
 30
0.0
 10
6.846730276
 20
4.622544309
 30
0.0
 10
6.8882736225
 20
4.6234961858
 30
0.0
 10
6.9252846882
 20
4.6244464411
 30
0.0
 10
6.9576776314
 20
4.6253938936
 30
0.0
 10
6.9853774241
 20
4.6263383893
 30
0.0
 10
7.0054955518
 20
4.6271595719
 30
0.0
 10
7.0191958591
 20
4.6278323669
 30
0.0
 10
7.0276625329
 20
4.6283066809
 30
0.0
 10
7.034914578
 20
4.6287794623
 30
0.0
 10
7.040948696
 20
4.6292491005
 30
0.0
 10
7.0457621841
 20
4.6297151661
 30
0.0
 10
7.0485596925
 20
4.6300681836
 30
0.0
 10
7.0497509377
 20
4.6302600599
 30
0.0
  0
SPLINE
  5
2EF
100
AcDbEntity
  8
0
100
AcDbSpline
 62
7
  6
CONTINUOUS
 70
0
 71
3
 72
11
 73
7
 74
0
 42
0.0000001
 43
0.0000001
 44
0.0000000001
 40
0.0
 40
0.0
 40
0.0
 40
0.0
 40
0.3490826987
 40
0.6314356952
 40
0.8478068842
 40
1.0
 40
1.0
 40
1.0
 40
1.0
 10
7.0497509377
 20
4.6302600599
 30
0.0
 10
7.0501458939
 20
4.6303236763
 30
0.0
 10
7.0508588417
 20
4.6304476207
 30
0.0
 10
7.0518096059
 20
4.6306514376
 30
0.0
 10
7.0525274731
 20
4.6308531425
 30
0.0
 10
7.0529230465
 20
4.6310095656
 30
0.0
 10
7.0530741039
 20
4.6310967514
 30
0.0
  0
SPLINE
  5
2F0
100
AcDbEntity
  8
0
100
AcDbSpline
 62
7
  6
CONTINUOUS
 70
0
 71
3
 72
13
 73
9
 74
0
 42
0.0000001
 43
0.0000001
 44
0.0000000001
 40
0.0
 40
0.0
 40
0.0
 40
0.0
 40
0.056511765
 40
0.1319406201
 40
0.2268546436
 40
0.3415277826
 40
0.6306675135
 40
1.0
 40
1.0
 40
1.0
 40
1.0
 10
2.8170356467
 20
2.8036439326
 30
0.0
 10
2.8171457923
 20
2.8037074408
 30
0.0
 10
2.8174194074
 20
2.803826213
 30
0.0
 10
2.8179055727
 20
2.8039820285
 30
0.0
 10
2.8185277039
 20
2.8041390721
 30
0.0
 10
2.8196264153
 20
2.8043675768
 30
0.0
 10
2.8213448608
 20
2.8046420904
 30
0.0
 10
2.822814651
 20
2.8048283833
 30
0.0
 10
2.8236400006
 20
2.8049246324
 30
0.0
  0
SPLINE
  5
2F1
100
AcDbEntity
  8
0
100
AcDbSpline
 62
7
  6
CONTINUOUS
 70
0
 71
3
 72
69
 73
65
 74
0
 42
0.0000001
 43
0.0000001
 44
0.0000000001
 40
0.0
 40
0.0
 40
0.0
 40
0.0
 40
0.0011125592
 40
0.0025088102
 40
0.0041885954
 40
0.0061509378
 40
0.0109183355
 40
0.0168007853
 40
0.0237864392
 40
0.0318582733
 40
0.040997951
 40
0.0511858675
 40
0.0623976061
 40
0.0746075678
 40
0.1019106674
 40
0.1328446259
 40
0.1671268917
 40
0.2044449803
 40
0.2444568775
 40
0.2867969993
 40
0.3310788203
 40
0.376896922
 40
0.4238326515
 40
0.4714570795
 40
0.5193345486
 40
0.5670276067
 40
0.6141000203
 40
0.6601215403
 40
0.7046717157
 40
0.7473426862
 40
0.7877447977
 40
0.8255090127
 40
0.8432924021
 40
0.8602892197
 40
0.8764604468
 40
0.8917682532
 40
0.9061787191
 40
0.9196587321
 40
0.9321765218
 40
0.9437046796
 40
0.9542166923
 40
0.9636875231
 40
0.9720968677
 40
0.9758974445
 40
0.9794254086
 40
0.9826785926
 40
0.9856554414
 40
0.9883545046
 40
0.9907743455
 40
0.9929135481
 40
0.9947707307
 40
0.9963448203
 40
0.9976354749
 40
0.9981745062
 40
0.9986427108
 40
0.9990401845
 40
0.9993671282
 40
0.99950428
 40
0.999623992
 40
0.9997264069
 40
0.9998117589
 40
0.9998804637
 40
0.9999333387
 40
1.0
 40
1.0
 40
1.0
 40
1.0
 10
2.8236400006
 20
2.8049246324
 30
0.0
 10
2.8251983765
 20
2.8051063643
 30
0.0
 10
2.8287198176
 20
2.8054526816
 30
0.0
 10
2.8346082722
 20
2.8059193199
 30
0.0
 10
2.841698091
 20
2.8063883795
 30
0.0
 10
2.8535382878
 20
2.8070605842
 30
0.0
 10
2.871305796
 20
2.8078760381
 30
0.0
 10
2.8961580082
 20
2.8088111443
 30
0.0
 10
2.9256728249
 20
2.8097498929
 30
0.0
 10
2.959782841
 20
2.8106921466
 30
0.0
 10
2.9984101642
 20
2.811636358
 30
0.0
 10
3.0414665363
 20
2.8125818443
 30
0.0
 10
3.088853555
 20
2.8135284924
 30
0.0
 10
3.1603738991
 20
2.8148411093
 30
0.0
 10
3.2597055486
 20
2.8164595826
 30
0.0
 10
3.3901632172
 20
2.8183423906
 30
0.0
 10
3.5347453462
 20
2.8202285815
 30
0.0
 10
3.6921301827
 20
2.8221173845
 30
0.0
 10
3.8608789833
 20
2.8240080117
 30
0.0
 10
4.0394486367
 20
2.8258999564
 30
0.0
 10
4.2262066552
 20
2.8277928022
 30
0.0
 10
4.4194457353
 20
2.829686334
 30
0.0
 10
4.6173987914
 20
2.8315803019
 30
0.0
 10
4.8182561055
 20
2.8334745147
 30
0.0
 10
5.0201814542
 20
2.8353688342
 30
0.0
 10
5.221328316
 20
2.8372630729
 30
0.0
 10
5.4198577944
 20
2.8391570903
 30
0.0
 10
5.6139549631
 20
2.8410507043
 30
0.0
 10
5.8018448983
 20
2.8429436758
 30
0.0
 10
5.9818099089
 20
2.8448357674
 30
0.0
 10
6.1522047824
 20
2.8467266936
 30
0.0
 10
6.2875040511
 20
2.8483313605
 30
0.0
 10
6.3897983988
 20
2.8496234374
 30
0.0
 10
6.4616440959
 20
2.8505727929
 30
0.0
 10
6.5299983982
 20
2.8515218729
 30
0.0
 10
6.5947050476
 20
2.8524707627
 30
0.0
 10
6.6556161083
 20
2.8534192695
 30
0.0
 10
6.7125921745
 20
2.854367307
 30
0.0
 10
6.7655030017
 20
2.8553149097
 30
0.0
 10
6.8142276311
 20
2.8562617682
 30
0.0
 10
6.8586545668
 20
2.8572075964
 30
0.0
 10
6.8986822614
 20
2.8581524088
 30
0.0
 10
6.9292458826
 20
2.8589631158
 30
0.0
 10
6.9514298789
 20
2.8596179662
 30
0.0
 10
6.9663447585
 20
2.86009216
 30
0.0
 10
6.980097389
 20
2.8605661029
 30
0.0
 10
6.9926803603
 20
2.8610396978
 30
0.0
 10
7.0040872567
 20
2.8615128246
 30
0.0
 10
7.0143118131
 20
2.861985296
 30
0.0
 10
7.0233477707
 20
2.8624568969
 30
0.0
 10
7.0311893185
 20
2.8629270575
 30
0.0
 10
7.0378318188
 20
2.8633956132
 30
0.0
 10
7.0426148128
 20
2.8638036755
 30
0.0
 10
7.0458380415
 20
2.8641386417
 30
0.0
 10
7.0478050668
 20
2.8643738855
 30
0.0
 10
7.0494706232
 20
2.864608313
 30
0.0
 10
7.0506686595
 20
2.8648124163
 30
0.0
 10
7.0514748916
 20
2.8649797895
 30
0.0
 10
7.0519676836
 20
2.8650974813
 30
0.0
 10
7.0523854814
 20
2.8652152325
 30
0.0
 10
7.0527273076
 20
2.8653313121
 30
0.0
 10
7.0529972484
 20
2.8654501211
 30
0.0
 10
7.0532208614
 20
2.8655791514
 30
0.0
 10
7.0533543835
 20
2.8657263358
 30
0.0
 10
7.0533543197
 20
2.8658203419
 30
0.0
  0
SPLINE
  5
2F2
100
AcDbEntity
  8
0
100
AcDbSpline
 62
7
  6
CONTINUOUS
 70
0
 71
3
 72
77
 73
73
 74
0
 42
0.0000001
 43
0.0000001
 44
0.0000000001
 40
0.0
 40
0.0
 40
0.0
 40
0.0
 40
0.0000681966
 40
0.00012267
 40
0.0001935709
 40
0.0002817248
 40
0.0003875517
 40
0.0005112895
 40
0.0006530842
 40
0.0009911783
 40
0.0014023104
 40
0.001886707
 40
0.00244449
 40
0.0037804263
 40
0.0054099853
 40
0.0073321635
 40
0.009545789
 40
0.0120496314
 40
0.0148424272
 40
0.0179228794
 40
0.0212892481
 40
0.0249392608
 40
0.0288706066
 40
0.0375680281
 40
0.0473623607
 40
0.0582296853
 40
0.0701437986
 40
0.0830777685
 40
0.0970001093
 40
0.1118775146
 40
0.1276758782
 40
0.1443568884
 40
0.1618808402
 40
0.1802071769
 40
0.2190889115
 40
0.2606342957
 40
0.3044489049
 40
0.3501176178
 40
0.3972080241
 40
0.4452734349
 40
0.4938584463
 40
0.5425026922
 40
0.5907449577
 40
0.6381283121
 40
0.6842035012
 40
0.7285336925
 40
0.7706993039
 40
0.8103003755
 40
0.8469612951
 40
0.880335511
 40
0.8956895687
 40
0.9101064242
 40
0.9235507586
 40
0.9359914132
 40
0.9473994248
 40
0.9577465093
 40
0.9670090929
 40
0.975165694
 40
0.9821957497
 40
0.9852834028
 40
0.9880839004
 40
0.9905955811
 40
0.9928168044
 40
0.9947460749
 40
0.9963826159
 40
0.997725999
 40
0.9982876902
 40
0.9987760529
 40
0.9991911572
 40
0.9995331746
 40
0.9998024876
 40
1.0
 40
1.0
 40
1.0
 40
1.0
 10
2.8167552888
 20
4.3189203426
 30
0.0
 10
2.8167555298
 20
4.3190166575
 30
0.0
 10
2.8168951389
 20
4.3191664377
 30
0.0
 10
2.817126174
 20
4.3192973503
 30
0.0
 10
2.817406028
 20
4.319418326
 30
0.0
 10
2.8177601829
 20
4.3195364788
 30
0.0
 10
2.8181930997
 20
4.3196563694
 30
0.0
 10
2.8187036905
 20
4.3197761946
 30
0.0
 10
2.819539133
 20
4.3199466244
 30
0.0
 10
2.8207805684
 20
4.3201544432
 30
0.0
 10
2.8225065397
 20
4.3203931317
 30
0.0
 10
2.8245451654
 20
4.3206326519
 30
0.0
 10
2.8278865415
 20
4.3209737463
 30
0.0
 10
2.8328454982
 20
4.3213892023
 30
0.0
 10
2.8397320566
 20
4.3218661797
 30
0.0
 10
2.8478606
 20
4.3223449154
 30
0.0
 10
2.8572256332
 20
4.3228251217
 30
0.0
 10
2.8678216274
 20
4.3233062063
 30
0.0
 10
2.8796429423
 20
4.3237879538
 30
0.0
 10
2.8926833087
 20
4.3242701404
 30
0.0
 10
2.9069350755
 20
4.3247526533
 30
0.0
 10
2.9223891936
 20
4.3252354796
 30
0.0
 10
2.9453703104
 20
4.3259022271
 30
0.0
 10
2.9770281064
 20
4.3267277059
 30
0.0
 10
3.0184812672
 20
4.3276895427
 30
0.0
 10
3.0644784805
 20
4.3286526126
 30
0.0
 10
3.1149107076
 20
4.329616743
 30
0.0
 10
3.1696582918
 20
4.3305814576
 30
0.0
 10
3.2285915684
 20
4.3315467632
 30
0.0
 10
3.2915707697
 20
4.3325125543
 30
0.0
 10
3.3584465079
 20
4.3334786024
 30
0.0
 10
3.4290603677
 20
4.3344449607
 30
0.0
 10
3.5032448363
 20
4.3354116008
 30
0.0
 10
3.6087818338
 20
4.3367266714
 30
0.0
 10
3.7482433132
 20
4.3383600531
 30
0.0
 10
3.9237012674
 20
4.3402851517
 30
0.0
 10
4.1087451064
 20
4.3422114732
 30
0.0
 10
4.30162066
 20
4.3441386986
 30
0.0
 10
4.500499969
 20
4.3460665075
 30
0.0
 10
4.7034981958
 20
4.3479947215
 30
0.0
 10
4.9086910296
 20
4.3499231303
 30
0.0
 10
5.1141336489
 20
4.351851553
 30
0.0
 10
5.3178790759
 20
4.3537798379
 30
0.0
 10
5.5179960235
 20
4.3557077734
 30
0.0
 10
5.712587632
 20
4.3576351596
 30
0.0
 10
5.8998097772
 20
4.3595617559
 30
0.0
 10
6.0778879341
 20
4.3614872005
 30
0.0
 10
6.2451340135
 20
4.3634109943
 30
0.0
 10
6.3999630138
 20
4.3653327488
 30
0.0
 10
6.5205483671
 20
4.3669736584
 30
0.0
 10
6.6097193706
 20
4.3682987469
 30
0.0
 10
6.6707453033
 20
4.3692642657
 30
0.0
 10
6.7276560506
 20
4.3702293497
 30
0.0
 10
6.7803167168
 20
4.3711938312
 30
0.0
 10
6.8286023154
 20
4.3721573813
 30
0.0
 10
6.8723985199
 20
4.3731199796
 30
0.0
 10
6.9116015286
 20
4.3740809842
 30
0.0
 10
6.9461183176
 20
4.3750398695
 30
0.0
 10
6.9719142538
 20
4.3758680029
 30
0.0
 10
6.9901464735
 20
4.3765404335
 30
0.0
 10
7.0019999317
 20
4.3770221979
 30
0.0
 10
7.012628638
 20
4.3775032609
 30
0.0
 10
7.0220255306
 20
4.3779834472
 30
0.0
 10
7.0301847297
 20
4.3784622573
 30
0.0
 10
7.0371017421
 20
4.3789393926
 30
0.0
 10
7.0420866823
 20
4.3793548519
 30
0.0
 10
7.0454498162
 20
4.3796957897
 30
0.0
 10
7.0475052923
 20
4.3799353634
 30
0.0
 10
7.0492481289
 20
4.3801740385
 30
0.0
 10
7.0506787559
 20
4.3804109694
 30
0.0
 10
7.051796704
 20
4.3806459197
 30
0.0
 10
7.0524328737
 20
4.3808253569
 30
0.0
 10
7.0526939639
 20
4.3809235653
 30
0.0
  0
LINE
  5
2F3
100
AcDbEntity
  8
0
100
AcDbLine
 62
7
  6
CONTINUOUS
 10
7.0526939639
 20
4.3809235653
 11
7.0530740205
 21
4.381096752
  0
SPLINE
  5
2F4
100
AcDbEntity
  8
0
100
AcDbSpline
 62
7
  6
CONTINUOUS
 70
0
 71
3
 72
80
 73
76
 74
0
 42
0.0000001
 43
0.0000001
 44
0.0000000001
 40
0.0
 40
0.0
 40
0.0
 40
0.0
 40
0.0000636304
 40
0.0001444521
 40
0.0003594508
 40
0.0006470309
 40
0.0010078914
 40
0.0014423461
 40
0.0019505452
 40
0.0025325577
 40
0.0031884087
 40
0.0047215928
 40
0.0065497389
 40
0.0086716875
 40
0.0110860709
 40
0.0137914835
 40
0.0167864971
 40
0.0200696535
 40
0.0236390525
 40
0.0316269787
 40
0.0407309179
 40
0.0509304519
 40
0.0622003049
 40
0.0745137
 40
0.0878422021
 40
0.1021529535
 40
0.1174123183
 40
0.133584348
 40
0.1506295659
 40
0.187177137
 40
0.2267062194
 40
0.2688403281
 40
0.3131780387
 40
0.3592962313
 40
0.406755316
 40
0.4551030485
 40
0.5038783096
 40
0.5526161122
 40
0.6008519315
 40
0.6481256704
 40
0.6939867442
 40
0.7379981698
 40
0.779740043
 40
0.8188143114
 40
0.8372340534
 40
0.8548489964
 40
0.8716177456
 40
0.8875005154
 40
0.9024585088
 40
0.9164570443
 40
0.9294625348
 40
0.9414432616
 40
0.9523718318
 40
0.9622215475
 40
0.9709687077
 40
0.9749226563
 40
0.9785936174
 40
0.981979173
 40
0.9850771739
 40
0.9878860874
 40
0.9904044791
 40
0.9926309342
 40
0.9945640691
 40
0.996202589
 40
0.9975458266
 40
0.9985937409
 40
0.9990071012
 40
0.9993469347
 40
0.9994893984
 40
0.9996136598
 40
0.9997198524
 40
0.9998081962
 40
0.9998790838
 40
0.9999332969
 40
1.0
 40
1.0
 40
1.0
 40
1.0
 10
2.7403254377
 20
4.5093498607
 30
0.0
 10
2.7404061306
 20
4.509396353
 30
0.0
 10
2.7405986414
 20
4.5094854516
 30
0.0
 10
2.7410947928
 20
4.509661243
 30
0.0
 10
2.741924543
 20
4.5098689512
 30
0.0
 10
2.7431659947
 20
4.5101054237
 30
0.0
 10
2.7447333017
 20
4.5103434506
 30
0.0
 10
2.7466260659
 20
4.5105831531
 30
0.0
 10
2.7488446506
 20
4.5108236189
 30
0.0
 10
2.7513888088
 20
4.5110647261
 30
0.0
 10
2.7554302509
 20
4.5114046578
 30
0.0
 10
2.7612951701
 20
4.5118211581
 30
0.0
 10
2.7693061322
 20
4.5123009541
 30
0.0
 10
2.7786087114
 20
4.5127820808
 30
0.0
 10
2.7891966648
 20
4.5132643006
 30
0.0
 10
2.8010635618
 20
4.513747219
 30
0.0
 10
2.8142028984
 20
4.5142306687
 30
0.0
 10
2.8286075101
 20
4.5147145206
 30
0.0
 10
2.850317412
 20
4.5153854929
 30
0.0
 10
2.8805455677
 20
4.5162145498
 30
0.0
 10
2.9204771625
 20
4.5171782762
 30
0.0
 10
2.9652133354
 20
4.5181433139
 30
0.0
 10
3.0146477566
 20
4.5191096424
 30
0.0
 10
3.0686624551
 20
4.5200768451
 30
0.0
 10
3.1271283993
 20
4.5210446108
 30
0.0
 10
3.1899065463
 20
4.5220129702
 30
0.0
 10
3.2568468826
 20
4.5229817114
 30
0.0
 10
3.3277897217
 20
4.523950743
 30
0.0
 10
3.4298876168
 20
4.5252741579
 30
0.0
 10
3.5661691623
 20
4.5269158039
 30
0.0
 10
3.7391694477
 20
4.5288452513
 30
0.0
 10
3.9235718782
 20
4.5307762387
 30
0.0
 10
4.117618491
 20
4.532708419
 30
0.0
 10
4.3194589983
 20
4.5346414406
 30
0.0
 10
4.527168752
 20
4.5365750351
 30
0.0
 10
4.7387675018
 20
4.5385089701
 30
0.0
 10
4.9522378345
 20
4.5404430736
 30
0.0
 10
5.1655443666
 20
4.5423771657
 30
0.0
 10
5.3766532103
 20
4.5443110569
 30
0.0
 10
5.5835515528
 20
4.5462445712
 30
0.0
 10
5.7842668822
 20
4.5481774871
 30
0.0
 10
5.9768854994
 20
4.5501094885
 30
0.0
 10
6.159570566
 20
4.5520403014
 30
0.0
 10
6.3048011033
 20
4.5536784302
 30
0.0
 10
6.4147212346
 20
4.5549973487
 30
0.0
 10
6.4919972622
 20
4.555966843
 30
0.0
 10
6.5655599229
 20
4.5569360849
 30
0.0
 10
6.6352335725
 20
4.5579049997
 30
0.0
 10
6.7008523796
 20
4.5588736532
 30
0.0
 10
6.7622595754
 20
4.5598418299
 30
0.0
 10
6.8193087316
 20
4.5608094126
 30
0.0
 10
6.8718640594
 20
4.5617763961
 30
0.0
 10
6.9197998296
 20
4.5627423068
 30
0.0
 10
6.9630019801
 20
4.563707045
 30
0.0
 10
6.9959966182
 20
4.5645349761
 30
0.0
 10
7.0199491511
 20
4.5652036937
 30
0.0
 10
7.0360565963
 20
4.5656879393
 30
0.0
 10
7.050910693
 20
4.5661718725
 30
0.0
 10
7.0645023989
 20
4.5666554803
 30
0.0
 10
7.0768240825
 20
4.5671386065
 30
0.0
 10
7.0878691323
 20
4.567621103
 30
0.0
 10
7.0976311013
 20
4.5681026655
 30
0.0
 10
7.1061035791
 20
4.5685830121
 30
0.0
 10
7.1132812362
 20
4.569061025
 30
0.0
 10
7.1191599156
 20
4.5695366404
 30
0.0
 10
7.1232441488
 20
4.5699528538
 30
0.0
 10
7.1258574433
 20
4.5703000796
 30
0.0
 10
7.1271519211
 20
4.5705085689
 30
0.0
 10
7.1280232013
 20
4.5706795058
 30
0.0
 10
7.1285555738
 20
4.5707996474
 30
0.0
 10
7.129006967
 20
4.5709198652
 30
0.0
 10
7.1293760163
 20
4.5710382096
 30
0.0
 10
7.1296678879
 20
4.5711595618
 30
0.0
 10
7.1299066017
 20
4.5712895016
 30
0.0
 10
7.1300543478
 20
4.5714399507
 30
0.0
 10
7.1300543478
 20
4.571537576
 30
0.0
  0
SPLINE
  5
2F5
100
AcDbEntity
  8
0
100
AcDbSpline
 62
7
  6
CONTINUOUS
 70
0
 71
3
 72
69
 73
65
 74
0
 42
0.0000001
 43
0.0000001
 44
0.0000000001
 40
0.0
 40
0.0
 40
0.0
 40
0.0
 40
0.0000665615
 40
0.0001192697
 40
0.0001877181
 40
0.0002727268
 40
0.0003747156
 40
0.0004939237
 40
0.0006304986
 40
0.0009560902
 40
0.0013519807
 40
0.0018184111
 40
0.0023555176
 40
0.0036419535
 40
0.0052109438
 40
0.0070615958
 40
0.0091929061
 40
0.0116038133
 40
0.0142932226
 40
0.0172599394
 40
0.0205021623
 40
0.0240178099
 40
0.027804793
 40
0.0361843828
 40
0.0456232623
 40
0.056098981
 40
0.0675874823
 40
0.0800638568
 40
0.0934987589
 40
0.1078613788
 40
0.1231201297
 40
0.1392394047
 40
0.1561822906
 40
0.1739111838
 40
0.211561346
 40
0.2518476494
 40
0.2944024167
 40
0.3388384114
 40
0.384751254
 40
0.4317223425
 40
0.4793241708
 40
0.527123182
 40
0.5746839622
 40
0.6215735881
 40
0.6673646433
 40
0.7116403909
 40
0.753997802
 40
0.7940504406
 40
0.8314342075
 40
0.8658088344
 40
0.8968603695
 40
0.9243070655
 40
0.9365990973
 40
0.9478992523
 40
0.9581806872
 40
0.9674212068
 40
0.9755998442
 40
0.9826968697
 40
0.9886975386
 40
0.9935884938
 40
0.9956138934
 40
0.9973579568
 40
0.9988201298
 40
1.0
 40
1.0
 40
1.0
 40
1.0
 10
2.8167559552
 20
4.0689203426
 30
0.0
 10
2.8167561632
 20
4.0690141846
 30
0.0
 10
2.8168891122
 20
4.0691608985
 30
0.0
 10
2.8171119607
 20
4.069289851
 30
0.0
 10
2.8173807097
 20
4.0694084161
 30
0.0
 10
2.8177209961
 20
4.0695242951
 30
0.0
 10
2.8181368766
 20
4.0696418224
 30
0.0
 10
2.8186274105
 20
4.0697592945
 30
0.0
 10
2.8194299972
 20
4.0699263552
 30
0.0
 10
2.8206227729
 20
4.0701300811
 30
0.0
 10
2.8222812694
 20
4.0703640665
 30
0.0
 10
2.8242403582
 20
4.070598865
 30
0.0
 10
2.8274516268
 20
4.0709332292
 30
0.0
 10
2.8322176023
 20
4.0713404476
 30
0.0
 10
2.8388361303
 20
4.071808042
 30
0.0
 10
2.8466482239
 20
4.0722773431
 30
0.0
 10
2.8556490272
 20
4.0727480845
 30
0.0
 10
2.865833735
 20
4.0732196825
 30
0.0
 10
2.8771973366
 20
4.0736919242
 30
0.0
 10
2.8897338694
 20
4.074164579
 30
0.0
 10
2.9034360204
 20
4.0746375792
 30
0.0
 10
2.9182952525
 20
4.0751108831
 30
0.0
 10
2.9403953181
 20
4.0757645238
 30
0.0
 10
2.9708452683
 20
4.0765737644
 30
0.0
 10
3.0107249694
 20
4.077516621
 30
0.0
 10
3.0549888664
 20
4.0784607187
 30
0.0
 10
3.1035360598
 20
4.0794058375
 30
0.0
 10
3.1562559959
 20
4.0803515269
 30
0.0
 10
3.2130286242
 20
4.081297806
 30
0.0
 10
3.2737245094
 20
4.0822445564
 30
0.0
 10
3.3382054085
 20
4.0831915592
 30
0.0
 10
3.4063244832
 20
4.0841388654
 30
0.0
 10
3.477926425
 20
4.0850864515
 30
0.0
 10
3.5798819889
 20
4.0863760247
 30
0.0
 10
3.7147471314
 20
4.0879777837
 30
0.0
 10
3.8846122656
 20
4.0898650704
 30
0.0
 10
4.0640450073
 20
4.0917535813
 30
0.0
 10
4.2514107819
 20
4.09364299
 30
0.0
 10
4.4450032436
 20
4.0955329972
 30
0.0
 10
4.6430592856
 20
4.0974234389
 30
0.0
 10
4.8437746754
 20
4.0993141026
 30
0.0
 10
5.0453214831
 20
4.1012048362
 30
0.0
 10
5.2458641428
 20
4.1030954945
 30
0.0
 10
5.4435757438
 20
4.1049858862
 30
0.0
 10
5.636655702
 20
4.106875866
 30
0.0
 10
5.82334557
 20
4.1087652002
 30
0.0
 10
6.0019446621
 20
4.1106535912
 30
0.0
 10
6.1708264804
 20
4.1125407367
 30
0.0
 10
6.3284529764
 20
4.1144261313
 30
0.0
 10
6.4733882516
 20
4.1163088694
 30
0.0
 10
6.6043124088
 20
4.1181883936
 30
0.0
 10
6.7041036977
 20
4.1198035754
 30
0.0
 10
6.7760494145
 20
4.1211131323
 30
0.0
 10
6.8237971096
 20
4.1220579996
 30
0.0
 10
6.8672417055
 20
4.1230019753
 30
0.0
 10
6.9062842981
 20
4.1239445422
 30
0.0
 10
6.940835912
 20
4.1248851606
 30
0.0
 10
6.9708180022
 20
4.125822823
 30
0.0
 10
6.9961623758
 20
4.1267567547
 30
0.0
 10
7.014355763
 20
4.1275705005
 30
0.0
 10
7.0265474368
 20
4.1282404314
 30
0.0
 10
7.0339085405
 20
4.1287092073
 30
0.0
 10
7.0400748373
 20
4.1291757299
 30
0.0
 10
7.0437841828
 20
4.129520253
 30
0.0
 10
7.0454378877
 20
4.1297000486
 30
0.0
  0
SPLINE
  5
2F6
100
AcDbEntity
  8
0
100
AcDbSpline
 62
7
  6
CONTINUOUS
 70
0
 71
3
 72
13
 73
9
 74
0
 42
0.0000001
 43
0.0000001
 44
0.0000000001
 40
0.0
 40
0.0
 40
0.0
 40
0.0
 40
0.373376339
 40
0.6639318295
 40
0.778288055
 40
0.8721812046
 40
0.9458854785
 40
1.0
 40
1.0
 40
1.0
 40
1.0
 10
7.0454378877
 20
4.1297000486
 30
0.0
 10
7.0464014008
 20
4.1298048045
 30
0.0
 10
7.0481129407
 20
4.1300072863
 30
0.0
 10
7.0501117716
 20
4.1303064693
 30
0.0
 10
7.0513824063
 20
4.1305561073
 30
0.0
 10
7.0520945589
 20
4.1307270306
 30
0.0
 10
7.0526446303
 20
4.1308964489
 30
0.0
 10
7.0529518852
 20
4.1310264395
 30
0.0
 10
7.053073488
 20
4.1310967525
 30
0.0
  0
SPLINE
  5
2F7
100
AcDbEntity
  8
0
100
AcDbSpline
 62
7
  6
CONTINUOUS
 70
0
 71
3
 72
13
 73
9
 74
0
 42
0.0000001
 43
0.0000001
 44
0.0000000001
 40
0.0
 40
0.0
 40
0.0
 40
0.0
 40
0.0564618586
 40
0.1318550489
 40
0.2267479288
 40
0.3414143148
 40
0.6305830102
 40
1.0
 40
1.0
 40
1.0
 40
1.0
 10
2.8170356119
 20
4.5536439327
 30
0.0
 10
2.8171459923
 20
4.5537075772
 30
0.0
 10
2.8174202836
 20
4.5538265774
 30
0.0
 10
2.8179077252
 20
4.55398267
 30
0.0
 10
2.8185316368
 20
4.5541399965
 30
0.0
 10
2.8196337236
 20
4.5543689307
 30
0.0
 10
2.8213576561
 20
4.5546439469
 30
0.0
 10
2.8228321738
 20
4.5548305694
 30
0.0
 10
2.8236602226
 20
4.5549269915
 30
0.0
  0
SPLINE
  5
2F8
100
AcDbEntity
  8
0
100
AcDbSpline
 62
7
  6
CONTINUOUS
 70
0
 71
3
 72
69
 73
65
 74
0
 42
0.0000001
 43
0.0000001
 44
0.0000000001
 40
0.0
 40
0.0
 40
0.0
 40
0.0
 40
0.0011139251
 40
0.0025115205
 40
0.0041926242
 40
0.0061562571
 40
0.0109261564
 40
0.0168110108
 40
0.0237989491
 40
0.031872938
 40
0.0410146709
 40
0.0512045127
 40
0.0624180308
 40
0.0746296714
 40
0.1019357004
 40
0.1328720898
 40
0.1671562249
 40
0.2044756499
 40
0.2444884045
 40
0.28682886
 40
0.3311105482
 40
0.3769281067
 40
0.4238628727
 40
0.4714859994
 40
0.5193618733
 40
0.5670530771
 40
0.6141234529
 40
0.6601427426
 40
0.7046905946
 40
0.7473592324
 40
0.787758932
 40
0.8255208255
 40
0.8433030876
 40
0.8602988747
 40
0.8764689786
 40
0.8917757654
 40
0.9061853388
 40
0.9196643571
 40
0.9321812824
 40
0.9437087314
 40
0.9542199216
 40
0.9636900828
 40
0.972098935
 40
0.9758992332
 40
0.9794268552
 40
0.9826797672
 40
0.9856564359
 40
0.9883553679
 40
0.9907750831
 40
0.9929141228
 40
0.9947710755
 40
0.9963450134
 40
0.9976356141
 40
0.9981746402
 40
0.998642846
 40
0.9990403216
 40
0.9993672617
 40
0.9995044079
 40
0.9996241108
 40
0.9997265125
 40
0.9998118468
 40
0.999880529
 40
0.9999333774
 40
1.0
 40
1.0
 40
1.0
 40
1.0
 10
2.8236602226
 20
4.5549269915
 30
0.0
 10
2.8252205348
 20
4.555108682
 30
0.0
 10
2.8287458008
 20
4.5554549633
 30
0.0
 10
2.8346399261
 20
4.5559215997
 30
0.0
 10
2.8417352977
 20
4.5563906524
 30
0.0
 10
2.8535826584
 20
4.5570628082
 30
0.0
 10
2.8713588292
 20
4.5578782324
 30
0.0
 10
2.8962210698
 20
4.558813314
 30
0.0
 10
2.9257454009
 20
4.5597520362
 30
0.0
 10
2.959864415
 20
4.5606942617
 30
0.0
 10
2.9985002074
 20
4.5616384386
 30
0.0
 10
3.0415644973
 20
4.5625838908
 30
0.0
 10
3.0889588818
 20
4.5635305073
 30
0.0
 10
3.1604878921
 20
4.5648430591
 30
0.0
 10
3.2598289918
 20
4.566461469
 30
0.0
 10
3.3902962291
 20
4.5683442068
 30
0.0
 10
3.5348856117
 20
4.5702303306
 30
0.0
 10
3.6922754208
 20
4.5721190646
 30
0.0
 10
3.8610269735
 20
4.5740096187
 30
0.0
 10
4.0395972597
 20
4.5759014928
 30
0.0
 10
4.2263538965
 20
4.577794267
 30
0.0
 10
4.419589734
 20
4.5796877249
 30
0.0
 10
4.6175378771
 20
4.581581621
 30
0.0
 10
4.8183887806
 20
4.5834757607
 30
0.0
 10
5.0203064572
 20
4.5853700072
 30
0.0
 10
5.2214446121
 20
4.5872641745
 30
0.0
 10
5.4199645004
 20
4.5891581178
 30
0.0
 10
5.6140514389
 20
4.5910516603
 30
0.0
 10
5.8019307578
 20
4.5929445604
 30
0.0
 10
5.9818849343
 20
4.5948365749
 30
0.0
 10
6.1522690222
 20
4.5967274327
 30
0.0
 10
6.2875593745
 20
4.5983320354
 30
0.0
 10
6.3898469126
 20
4.5996240672
 30
0.0
 10
6.4616876369
 20
4.6005733779
 30
0.0
 10
6.5300371348
 20
4.601522428
 30
0.0
 10
6.5947391923
 20
4.6024712827
 30
0.0
 10
6.6556458605
 20
4.6034197418
 30
0.0
 10
6.7126177719
 20
4.6043677521
 30
0.0
 10
6.7655247228
 20
4.6053153212
 30
0.0
 10
6.8142457393
 20
4.6062621268
 30
0.0
 10
6.858669357
 20
4.6072079329
 30
0.0
 10
6.89869406
 20
4.6081527123
 30
0.0
 10
6.9292555028
 20
4.608963376
 30
0.0
 10
6.9514378225
 20
4.6096181989
 30
0.0
 10
6.966351371
 20
4.6100923851
 30
0.0
 10
6.9801028151
 20
4.6105663118
 30
0.0
 10
6.9926849033
 20
4.6110398858
 30
0.0
 10
7.0040911287
 20
4.6115129906
 30
0.0
 10
7.014315044
 20
4.6119854402
 30
0.0
 10
7.0233502274
 20
4.6124570129
 30
0.0
 10
7.0311909679
 20
4.6129271761
 30
0.0
 10
7.037832821
 20
4.6133957201
 30
0.0
 10
7.0426154952
 20
4.6138037596
 30
0.0
 10
7.045838628
 20
4.6141387079
 30
0.0
 10
7.0478056419
 20
4.6143739413
 30
0.0
 10
7.049471191
 20
4.614608358
 30
0.0
 10
7.0506692125
 20
4.614812452
 30
0.0
 10
7.0514754154
 20
4.6149798197
 30
0.0
 10
7.0519681663
 20
4.6150975057
 30
0.0
 10
7.0523859042
 20
4.6152152519
 30
0.0
 10
7.052727654
 20
4.6153313221
 30
0.0
 10
7.0529974865
 20
4.6154501306
 30
0.0
 10
7.0532209839
 20
4.6155791356
 30
0.0
 10
7.0533542962
 20
4.6157263912
 30
0.0
 10
7.0533541396
 20
4.6158203422
 30
0.0
  0
SPLINE
  5
2F9
100
AcDbEntity
  8
0
100
AcDbSpline
 62
7
  6
CONTINUOUS
 70
0
 71
3
 72
69
 73
65
 74
0
 42
0.0000001
 43
0.0000001
 44
0.0000000001
 40
0.0
 40
0.0
 40
0.0
 40
0.0
 40
0.0000663728
 40
0.000118878
 40
0.0001870469
 40
0.0002717001
 40
0.0003732581
 40
0.0004919611
 40
0.0006279572
 40
0.0009521736
 40
0.0013464039
 40
0.0018108954
 40
0.0023457902
 40
0.0036268932
 40
0.0051892677
 40
0.0070320733
 40
0.0091543603
 40
0.0115551216
 40
0.014233316
 40
0.0171876945
 40
0.0204163712
 40
0.0239173217
 40
0.027688515
 40
0.0360334804
 40
0.0454336427
 40
0.0558665539
 40
0.0673086487
 40
0.0797351364
 40
0.0931167525
 40
0.1074231976
 40
0.1226230726
 40
0.1386809217
 40
0.155560349
 40
0.1732239989
 40
0.2107394741
 40
0.2508880222
 40
0.293304897
 40
0.3376057669
 40
0.3833894072
 40
0.4302402711
 40
0.4777338455
 40
0.5254395632
 40
0.5729248027
 40
0.6197593202
 40
0.6655181579
 40
0.7097867201
 40
0.7521639273
 40
0.7922649053
 40
0.8297267277
 40
0.8642100291
 40
0.895401268
 40
0.9230186756
 40
0.9354076118
 40
0.9468122139
 40
0.9572055464
 40
0.9665652756
 40
0.9748702232
 40
0.9821004734
 40
0.9882410453
 40
0.9932782822
 40
0.9953791141
 40
0.9972000738
 40
0.9987405386
 40
1.0
 40
1.0
 40
1.0
 40
1.0
 10
2.8167562373
 20
3.9439203424
 30
0.0
 10
2.8167564085
 20
3.9440138891
 30
0.0
 10
2.816888545
 20
3.9441602751
 30
0.0
 10
2.8171104201
 20
3.944289003
 30
0.0
 10
2.8173778683
 20
3.9444072972
 30
0.0
 10
2.8177165464
 20
3.9445229181
 30
0.0
 10
2.8181304661
 20
3.9446401782
 30
0.0
 10
2.8186187066
 20
3.9447573839
 30
0.0
 10
2.8194175679
 20
3.9449240654
 30
0.0
 10
2.8206048689
 20
3.9451273297
 30
0.0
 10
2.8222558277
 20
3.9453607826
 30
0.0
 10
2.8242061066
 20
3.9455950474
 30
0.0
 10
2.8274029956
 20
3.9459286373
 30
0.0
 10
2.8321475093
 20
3.9463349182
 30
0.0
 10
2.8387360485
 20
3.9468014618
 30
0.0
 10
2.8465125777
 20
3.9472696995
 30
0.0
 10
2.8554724675
 20
3.9477393735
 30
0.0
 10
2.8656111427
 20
3.9482099011
 30
0.0
 10
2.8769236694
 20
3.94868106
 30
0.0
 10
2.8894039659
 20
3.9491526305
 30
0.0
 10
2.9030446054
 20
3.9496245592
 30
0.0
 10
2.9178370974
 20
3.9500967878
 30
0.0
 10
2.9398384352
 20
3.9507489533
 30
0.0
 10
2.9701531758
 20
3.9515563485
 30
0.0
 10
3.0098566201
 20
3.9524970501
 30
0.0
 10
3.0539262745
 20
3.953439017
 30
0.0
 10
3.1022621356
 20
3.9543819774
 30
0.0
 10
3.1547546578
 20
3.9553255078
 30
0.0
 10
3.2112848289
 20
3.9562696453
 30
0.0
 10
3.2717243532
 20
3.9572142363
 30
0.0
 10
3.3359362277
 20
3.958159079
 30
0.0
 10
3.4037748672
 20
3.959104238
 30
0.0
 10
3.4750863037
 20
3.9600496644
 30
0.0
 10
3.5766385536
 20
3.9613363476
 30
0.0
 10
3.7109853095
 20
3.9629345309
 30
0.0
 10
3.88021865
 20
3.9648175388
 30
0.0
 10
4.0590159708
 20
3.9667017675
 30
0.0
 10
4.2457558838
 20
3.9685869
 30
0.0
 10
4.4387454274
 20
3.970472629
 30
0.0
 10
4.6362350206
 20
3.9723587947
 30
0.0
 10
4.8364337372
 20
3.9742451881
 30
0.0
 10
5.0375265908
 20
3.9761316537
 30
0.0
 10
5.2376905197
 20
3.978018052
 30
0.0
 10
5.4351103666
 20
3.9799041928
 30
0.0
 10
5.6279963742
 20
3.9817899321
 30
0.0
 10
5.8145998804
 20
3.9836750454
 30
0.0
 10
5.9932287029
 20
3.9855592367
 30
0.0
 10
6.1622634599
 20
3.9874422137
 30
0.0
 10
6.3201717164
 20
3.9893234885
 30
0.0
 10
6.4655215344
 20
3.9912021797
 30
0.0
 10
6.5969952605
 20
3.9930777497
 30
0.0
 10
6.6973293483
 20
3.994688956
 30
0.0
 10
6.7697769536
 20
3.9959948967
 30
0.0
 10
6.8179512358
 20
3.9969377381
 30
0.0
 10
6.8618552374
 20
3.9978797318
 30
0.0
 10
6.9013894709
 20
3.9988203857
 30
0.0
 10
6.9364642496
 20
3.9997591928
 30
0.0
 10
6.967000176
 20
4.0006952608
 30
0.0
 10
6.9929281198
 20
4.0016278158
 30
0.0
 10
7.0116259733
 20
4.002439677
 30
0.0
 10
7.0242354152
 20
4.0031068344
 30
0.0
 10
7.0319198729
 20
4.0035750846
 30
0.0
 10
7.0384160244
 20
4.0040413531
 30
0.0
 10
7.0423477146
 20
4.0043838606
 30
0.0
 10
7.044113895
 20
4.0045616241
 30
0.0
  0
SPLINE
  5
2FA
100
AcDbEntity
  8
0
100
AcDbSpline
 62
7
  6
CONTINUOUS
 70
0
 71
3
 72
14
 73
10
 74
0
 42
0.0000001
 43
0.0000001
 44
0.0000000001
 40
0.0
 40
0.0
 40
0.0
 40
0.0
 40
0.3774958757
 40
0.5341646427
 40
0.6694793966
 40
0.7835015048
 40
0.8763573623
 40
0.9483205983
 40
1.0
 40
1.0
 40
1.0
 40
1.0
 10
7.044113895
 20
4.0045616241
 30
0.0
 10
7.0452554753
 20
4.0046765225
 30
0.0
 10
7.0468696741
 20
4.0048526911
 30
0.0
 10
7.0488864635
 20
4.0051233905
 30
0.0
 10
7.0501059638
 20
4.0053130206
 30
0.0
 10
7.0511288083
 20
4.0055018428
 30
0.0
 10
7.0519559726
 20
4.0056892385
 30
0.0
 10
7.0525871924
 20
4.005874843
 30
0.0
 10
7.0529371728
 20
4.0060181231
 30
0.0
 10
7.0530731479
 20
4.0060967526
 30
0.0
  0
SPLINE
  5
2FB
100
AcDbEntity
  8
0
100
AcDbSpline
 62
7
  6
CONTINUOUS
 70
0
 71
3
 72
72
 73
68
 74
0
 42
0.0000001
 43
0.0000001
 44
0.0000000001
 40
0.0
 40
0.0
 40
0.0
 40
0.0
 40
0.000067399
 40
0.000121018
 40
0.0001907425
 40
0.0002773992
 40
0.0003814107
 40
0.0005030183
 40
0.0006423712
 40
0.00097466
 40
0.0013787794
 40
0.0018549819
 40
0.0024034039
 40
0.0037168296
 40
0.0053185196
 40
0.0072076372
 40
0.009383237
 40
0.0118443159
 40
0.0145898195
 40
0.0176182164
 40
0.0209274809
 40
0.0245155549
 40
0.0283803735
 40
0.0369319335
 40
0.0465630494
 40
0.0572500777
 40
0.068968847
 40
0.0816926632
 40
0.0953907486
 40
0.1100318985
 40
0.1255824609
 40
0.1420051983
 40
0.1592625285
 40
0.1773145768
 40
0.2156309055
 40
0.2565983231
 40
0.2998351987
 40
0.3449386936
 40
0.3914894235
 40
0.4390538316
 40
0.4871890251
 40
0.5354471177
 40
0.5833786218
 40
0.6305375334
 40
0.6764848429
 40
0.7207924417
 40
0.7630484102
 40
0.8028592678
 40
0.8398538357
 40
0.8736886253
 40
0.9040485699
 40
0.9178353478
 40
0.9306503288
 40
0.9424639717
 40
0.9532475725
 40
0.9629771019
 40
0.971630187
 40
0.9791854854
 40
0.9856267211
 40
0.9909392943
 40
0.9931679651
 40
0.9951100231
 40
0.9967647464
 40
0.9981315087
 40
0.9992098823
 40
0.9996409318
 40
1.0
 40
1.0
 40
1.0
 40
1.0
 10
2.8167564584
 20
3.8189203422
 30
0.0
 10
2.816756585
 20
3.8190154779
 30
0.0
 10
2.8168929159
 20
3.8191639411
 30
0.0
 10
2.8171200464
 20
3.8192939664
 30
0.0
 10
2.8173946357
 20
3.8194138592
 30
0.0
 10
2.8177422774
 20
3.8195309833
 30
0.0
 10
2.8181672423
 20
3.8196498073
 30
0.0
 10
2.8186685264
 20
3.8197685697
 30
0.0
 10
2.8194888413
 20
3.8199374861
 30
0.0
 10
2.8207080374
 20
3.8201434626
 30
0.0
 10
2.8224033824
 20
3.8203800271
 30
0.0
 10
2.8244061935
 20
3.8206174139
 30
0.0
 10
2.8276891592
 20
3.8209554323
 30
0.0
 10
2.832561033
 20
3.8213671397
 30
0.0
 10
2.8393259765
 20
3.8218399177
 30
0.0
 10
2.8473103175
 20
3.8223144116
 30
0.0
 10
2.8565094389
 20
3.8227903585
 30
0.0
 10
2.8669187515
 20
3.8232671706
 30
0.0
 10
2.8785329042
 20
3.8237445947
 30
0.0
 10
2.8913451891
 20
3.8242224597
 30
0.0
 10
2.9053475259
 20
3.8247006933
 30
0.0
 10
2.920531119
 20
3.825179229
 30
0.0
 10
2.9431122454
 20
3.8258400906
 30
0.0
 10
2.9742222777
 20
3.8266581949
 30
0.0
 10
3.0149616456
 20
3.8276114478
 30
0.0
 10
3.0601726955
 20
3.8285660128
 30
0.0
 10
3.1097500463
 20
3.8295215158
 30
0.0
 10
3.1635783077
 20
3.8304776335
 30
0.0
 10
3.2215321892
 20
3.831434392
 30
0.0
 10
3.2834766099
 20
3.8323915525
 30
0.0
 10
3.349267387
 20
3.8333489989
 30
0.0
 10
3.4187513472
 20
3.8343067876
 30
0.0
 10
3.4917665472
 20
3.835264797
 30
0.0
 10
3.5956833364
 20
3.8365683698
 30
0.0
 10
3.7330662974
 20
3.8381874731
 30
0.0
 10
3.9059974258
 20
3.8400955192
 30
0.0
 10
4.0885093857
 20
3.8420047547
 30
0.0
 10
4.2789027638
 20
3.8439149153
 30
0.0
 10
4.4754048778
 20
3.8458256661
 30
0.0
 10
4.676186521
 20
3.8477368219
 30
0.0
 10
4.8793782647
 20
3.8496481995
 30
0.0
 10
5.083088198
 20
3.8515596089
 30
0.0
 10
5.2854200197
 20
3.8534709102
 30
0.0
 10
5.4844899553
 20
3.8553819123
 30
0.0
 10
5.6784444015
 20
3.8572924087
 30
0.0
 10
5.8654778534
 20
3.8592022029
 30
0.0
 10
6.0438490559
 20
3.8611109407
 30
0.0
 10
6.2118970836
 20
3.8630182357
 30
0.0
 10
6.3680575693
 20
3.8649234922
 30
0.0
 10
6.5108767573
 20
3.8668260708
 30
0.0
 10
6.6209380715
 20
3.8684558536
 30
0.0
 10
6.701330481
 20
3.8697743434
 30
0.0
 10
6.7555465907
 20
3.8707306384
 30
0.0
 10
6.8055229296
 20
3.871686106
 30
0.0
 10
6.85114321
 20
3.8726408035
 30
0.0
 10
6.8923012268
 20
3.8735942141
 30
0.0
 10
6.928901081
 20
3.8745458151
 30
0.0
 10
6.9608577394
 20
3.8754948051
 30
0.0
 10
6.9880968477
 20
3.8764404217
 30
0.0
 10
7.0078167152
 20
3.8772630542
 30
0.0
 10
7.0211857581
 20
3.8779380054
 30
0.0
 10
7.0293949109
 20
3.8784130342
 30
0.0
 10
7.0363853298
 20
3.8788858263
 30
0.0
 10
7.0421533915
 20
3.8793562886
 30
0.0
 10
7.0461929858
 20
3.8797677564
 30
0.0
 10
7.0488083257
 20
3.8801095953
 30
0.0
 10
7.049910389
 20
3.8802822762
 30
0.0
 10
7.0504093669
 20
3.8803711786
 30
0.0
  0
LINE
  5
2FC
100
AcDbEntity
  8
0
100
AcDbLine
 62
7
  6
CONTINUOUS
 10
7.0504093669
 20
3.8803711786
 11
7.0530728042
 21
3.8810967526
  0
SPLINE
  5
2FD
100
AcDbEntity
  8
0
100
AcDbSpline
 62
7
  6
CONTINUOUS
 70
0
 71
3
 72
71
 73
67
 74
0
 42
0.0000001
 43
0.0000001
 44
0.0000000001
 40
0.0
 40
0.0
 40
0.0
 40
0.0
 40
0.0000672657
 40
0.0001207545
 40
0.0001903043
 40
0.0002767413
 40
0.0003804878
 40
0.0005017848
 40
0.000640781
 40
0.0009722172
 40
0.001375296
 40
0.0018502662
 40
0.0023972268
 40
0.003706987
 40
0.0053040797
 40
0.0071877395
 40
0.0093570924
 40
0.0118112068
 40
0.0145490465
 40
0.0175689416
 40
0.0208688965
 40
0.0244469034
 40
0.0283009482
 40
0.0368289833
 40
0.0464336012
 40
0.0570914092
 40
0.0687786377
 40
0.0814683947
 40
0.095130186
 40
0.1097331946
 40
0.1252436381
 40
0.1416245974
 40
0.1588388746
 40
0.1768465402
 40
0.2150714848
 40
0.2559454022
 40
0.299088839
 40
0.3441008941
 40
0.3905642521
 40
0.4380475384
 40
0.4861098445
 40
0.5343053039
 40
0.5821863416
 40
0.6293086965
 40
0.6752350594
 40
0.719538717
 40
0.7618089685
 40
0.8016534611
 40
0.8387017105
 40
0.872610721
 40
0.9030657957
 40
0.9169078912
 40
0.9297834378
 40
0.941662692
 40
0.9525169252
 40
0.9623221146
 40
0.9710556257
 40
0.9786960446
 40
0.9852270273
 40
0.9906336494
 40
0.9929109014
 40
0.9949025854
 40
0.9966079227
 40
0.998026219
 40
0.9991569506
 40
1.0
 40
1.0
 40
1.0
 40
1.0
 10
2.8167542474
 20
3.6939203446
 30
0.0
 10
2.8167543128
 20
3.6940152802
 30
0.0
 10
2.816890143
 20
3.6941635493
 30
0.0
 10
2.8171166666
 20
3.6942933984
 30
0.0
 10
2.8173904714
 20
3.6944131085
 30
0.0
 10
2.8177371479
 20
3.6945300526
 30
0.0
 10
2.8181609389
 20
3.6946486925
 30
0.0
 10
2.818660848
 20
3.6947672702
 30
0.0
 10
2.8194789183
 20
3.6949359231
 30
0.0
 10
2.8206947896
 20
3.6951415781
 30
0.0
 10
2.8223855126
 20
3.6953777759
 30
0.0
 10
2.8243828032
 20
3.6956147885
 30
0.0
 10
2.82765638
 20
3.6959522783
 30
0.0
 10
2.8325139095
 20
3.6963633801
 30
0.0
 10
2.8392586275
 20
3.6968354732
 30
0.0
 10
2.8472189451
 20
3.6973092836
 30
0.0
 10
2.8563905488
 20
3.6977845449
 30
0.0
 10
2.8667690778
 20
3.6982606643
 30
0.0
 10
2.8783491129
 20
3.698737375
 30
0.0
 10
2.891123818
 20
3.6992145431
 30
0.0
 10
2.9050850327
 20
3.6996920739
 30
0.0
 10
2.9202241478
 20
3.7001699045
 30
0.0
 10
2.9427397955
 20
3.700829799
 30
0.0
 10
2.9737600791
 20
3.7016466727
 30
0.0
 10
3.0143824426
 20
3.7025985341
 30
0.0
 10
3.0594646085
 20
3.7035517071
 30
0.0
 10
3.1089018511
 20
3.7045057841
 30
0.0
 10
3.1625794819
 20
3.7054605015
 30
0.0
 10
3.2203728944
 20
3.7064158587
 30
0.0
 10
3.2821477886
 20
3.707371595
 30
0.0
 10
3.3477608116
 20
3.7083276374
 30
0.0
 10
3.4170596178
 20
3.7092840217
 30
0.0
 10
3.4898831989
 20
3.7102406099
 30
0.0
 10
3.5935344414
 20
3.7115423044
 30
0.0
 10
3.7305764165
 20
3.7131590584
 30
0.0
 10
3.9030928197
 20
3.7150643128
 30
0.0
 10
4.0851887624
 20
3.7169707431
 30
0.0
 10
4.2751737748
 20
3.7188781033
 30
0.0
 10
4.4712841336
 20
3.7207860574
 30
0.0
 10
4.6716996645
 20
3.7226944136
 30
0.0
 10
4.8745599067
 20
3.7246029974
 30
0.0
 10
5.0779815405
 20
3.7265116161
 30
0.0
 10
5.280076515
 20
3.7284201303
 30
0.0
 10
5.4789688542
 20
3.7303283553
 30
0.0
 10
5.672812019
 20
3.73223608
 30
0.0
 10
5.8598068235
 20
3.734143115
 30
0.0
 10
6.0382175155
 20
3.7360491146
 30
0.0
 10
6.2063876742
 20
3.7379536886
 30
0.0
 10
6.3627564001
 20
3.7398562607
 30
0.0
 10
6.5058723232
 20
3.7417562117
 30
0.0
 10
6.6162368429
 20
3.7433833906
 30
0.0
 10
6.6969169512
 20
3.7446996019
 30
0.0
 10
6.7513824031
 20
3.745654537
 30
0.0
 10
6.8016302476
 20
3.7466086737
 30
0.0
 10
6.8475439054
 20
3.7475620709
 30
0.0
 10
6.8890167955
 20
3.7485142059
 30
0.0
 10
6.9259525781
 20
3.7494646026
 30
0.0
 10
6.9582656766
 20
3.7504125091
 30
0.0
 10
6.9858811148
 20
3.7513571656
 30
0.0
 10
7.0059267676
 20
3.752178484
 30
0.0
 10
7.019565853
 20
3.7528517724
 30
0.0
 10
7.0279843998
 20
3.75332626
 30
0.0
 10
7.0351884979
 20
3.753799113
 30
0.0
 10
7.0411748821
 20
3.7542686888
 30
0.0
 10
7.045939645
 20
3.7547346201
 30
0.0
 10
7.048704144
 20
3.7550878969
 30
0.0
 10
7.049878295
 20
3.7552804768
 30
0.0
  0
SPLINE
  5
2FE
100
AcDbEntity
  8
0
100
AcDbSpline
 62
7
  6
CONTINUOUS
 70
0
 71
3
 72
11
 73
7
 74
0
 42
0.0000001
 43
0.0000001
 44
0.0000000001
 40
0.0
 40
0.0
 40
0.0
 40
0.0
 40
0.3479935082
 40
0.6299360764
 40
0.8466500689
 40
1.0
 40
1.0
 40
1.0
 40
1.0
 10
7.049878295
 20
3.7552804768
 30
0.0
 10
7.0502569053
 20
3.7553425751
 30
0.0
 10
7.050940823
 20
3.7554636106
 30
0.0
 10
7.0518535662
 20
3.7556625938
 30
0.0
 10
7.0525446853
 20
3.7558595566
 30
0.0
 10
7.0529261167
 20
3.7560121293
 30
0.0
 10
7.0530724858
 20
3.7560967525
 30
0.0
  0
SPLINE
  5
2FF
100
AcDbEntity
  8
0
100
AcDbSpline
 62
7
  6
CONTINUOUS
 70
0
 71
3
 72
27
 73
23
 74
0
 42
0.0000001
 43
0.0000001
 44
0.0000000001
 40
0.0
 40
0.0
 40
0.0
 40
0.0
 40
0.0624999238
 40
0.124999868
 40
0.1874997718
 40
0.2499996664
 40
0.3124995436
 40
0.3749994126
 40
0.4062495337
 40
0.4374996853
 40
0.4687498365
 40
0.5
 40
0.5312501635
 40
0.5625003147
 40
0.5937504664
 40
0.6250005874
 40
0.6875004564
 40
0.7500003336
 40
0.8125002282
 40
0.875000132
 40
0.9375000762
 40
1.0
 40
1.0
 40
1.0
 40
1.0
 10
7.9150543478
 20
5.0916119528
 30
0.0
 10
7.7911471825
 20
5.0809891296
 30
0.0
 10
7.5432758956
 20
5.0603987095
 30
0.0
 10
7.1712786797
 20
5.0318900244
 30
0.0
 10
6.7990718793
 20
5.0062426331
 30
0.0
 10
6.4266435372
 20
4.9840139489
 30
0.0
 10
6.0539949958
 20
4.9658102647
 30
0.0
 10
5.7432862403
 20
4.9545057131
 30
0.0
 10
5.4946444043
 20
4.9480447494
 30
0.0
 10
5.3081319049
 20
4.9445452737
 30
0.0
 10
5.1215985173
 20
4.9424259561
 30
0.0
 10
4.9350543478
 20
4.9417195337
 30
0.0
 10
4.7485101783
 20
4.9424259561
 30
0.0
 10
4.5619767907
 20
4.9445452737
 30
0.0
 10
4.3754642913
 20
4.9480447494
 30
0.0
 10
4.1268224553
 20
4.9545057131
 30
0.0
 10
3.8161136999
 20
4.9658102647
 30
0.0
 10
3.4434651584
 20
4.9840139489
 30
0.0
 10
3.0710368163
 20
5.0062426331
 30
0.0
 10
2.6988300159
 20
5.0318900244
 30
0.0
 10
2.3268328
 20
5.0603987095
 30
0.0
 10
2.0789615132
 20
5.0809891296
 30
0.0
 10
1.9550543478
 20
5.0916119528
 30
0.0
  0
SPLINE
  5
300
100
AcDbEntity
  8
0
100
AcDbSpline
 62
7
  6
CONTINUOUS
 70
0
 71
3
 72
80
 73
76
 74
0
 42
0.0000001
 43
0.0000001
 44
0.0000000001
 40
0.0
 40
0.0
 40
0.0
 40
0.0
 40
0.0000636304
 40
0.0001444521
 40
0.0003594508
 40
0.0006470309
 40
0.0010078914
 40
0.0014423461
 40
0.0019505452
 40
0.0025325577
 40
0.0031884087
 40
0.0047215928
 40
0.0065497389
 40
0.0086716875
 40
0.0110860709
 40
0.0137914835
 40
0.0167864971
 40
0.0200696535
 40
0.0236390525
 40
0.0316269787
 40
0.0407309179
 40
0.0509304519
 40
0.0622003049
 40
0.0745137
 40
0.0878422021
 40
0.1021529535
 40
0.1174123183
 40
0.133584348
 40
0.1506295659
 40
0.187177137
 40
0.2267062194
 40
0.2688403281
 40
0.3131780387
 40
0.3592962313
 40
0.406755316
 40
0.4551030485
 40
0.5038783096
 40
0.5526161122
 40
0.6008519315
 40
0.6481256704
 40
0.6939867442
 40
0.7379981698
 40
0.779740043
 40
0.8188143114
 40
0.8372340534
 40
0.8548489964
 40
0.8716177456
 40
0.8875005154
 40
0.9024585088
 40
0.9164570443
 40
0.9294625348
 40
0.9414432616
 40
0.9523718318
 40
0.9622215475
 40
0.9709687077
 40
0.9749226563
 40
0.9785936174
 40
0.981979173
 40
0.9850771739
 40
0.9878860874
 40
0.9904044791
 40
0.9926309342
 40
0.9945640691
 40
0.996202589
 40
0.9975458266
 40
0.9985937409
 40
0.9990071012
 40
0.9993469347
 40
0.9994893984
 40
0.9996136598
 40
0.9997198524
 40
0.9998081962
 40
0.9998790838
 40
0.9999332969
 40
1.0
 40
1.0
 40
1.0
 40
1.0
 10
2.7403254377
 20
4.3843498607
 30
0.0
 10
2.7404061306
 20
4.384396353
 30
0.0
 10
2.7405986414
 20
4.3844854516
 30
0.0
 10
2.7410947928
 20
4.384661243
 30
0.0
 10
2.741924543
 20
4.3848689512
 30
0.0
 10
2.7431659947
 20
4.3851054237
 30
0.0
 10
2.7447333017
 20
4.3853434506
 30
0.0
 10
2.7466260659
 20
4.3855831531
 30
0.0
 10
2.7488446506
 20
4.3858236189
 30
0.0
 10
2.7513888088
 20
4.3860647261
 30
0.0
 10
2.7554302509
 20
4.3864046578
 30
0.0
 10
2.7612951701
 20
4.3868211581
 30
0.0
 10
2.7693061322
 20
4.3873009541
 30
0.0
 10
2.7786087114
 20
4.3877820808
 30
0.0
 10
2.7891966648
 20
4.3882643006
 30
0.0
 10
2.8010635618
 20
4.388747219
 30
0.0
 10
2.8142028984
 20
4.3892306687
 30
0.0
 10
2.8286075101
 20
4.3897145206
 30
0.0
 10
2.850317412
 20
4.3903854929
 30
0.0
 10
2.8805455677
 20
4.3912145498
 30
0.0
 10
2.9204771625
 20
4.3921782762
 30
0.0
 10
2.9652133354
 20
4.3931433139
 30
0.0
 10
3.0146477566
 20
4.3941096424
 30
0.0
 10
3.0686624551
 20
4.3950768451
 30
0.0
 10
3.1271283993
 20
4.3960446108
 30
0.0
 10
3.1899065463
 20
4.3970129702
 30
0.0
 10
3.2568468826
 20
4.3979817114
 30
0.0
 10
3.3277897217
 20
4.398950743
 30
0.0
 10
3.4298876168
 20
4.4002741579
 30
0.0
 10
3.5661691623
 20
4.4019158039
 30
0.0
 10
3.7391694477
 20
4.4038452513
 30
0.0
 10
3.9235718782
 20
4.4057762387
 30
0.0
 10
4.117618491
 20
4.407708419
 30
0.0
 10
4.3194589983
 20
4.4096414406
 30
0.0
 10
4.527168752
 20
4.4115750351
 30
0.0
 10
4.7387675018
 20
4.4135089701
 30
0.0
 10
4.9522378345
 20
4.4154430736
 30
0.0
 10
5.1655443666
 20
4.4173771657
 30
0.0
 10
5.3766532103
 20
4.4193110569
 30
0.0
 10
5.5835515528
 20
4.4212445712
 30
0.0
 10
5.7842668822
 20
4.4231774871
 30
0.0
 10
5.9768854994
 20
4.4251094885
 30
0.0
 10
6.159570566
 20
4.4270403014
 30
0.0
 10
6.3048011033
 20
4.4286784302
 30
0.0
 10
6.4147212346
 20
4.4299973487
 30
0.0
 10
6.4919972622
 20
4.430966843
 30
0.0
 10
6.5655599229
 20
4.4319360849
 30
0.0
 10
6.6352335725
 20
4.4329049997
 30
0.0
 10
6.7008523796
 20
4.4338736532
 30
0.0
 10
6.7622595754
 20
4.4348418299
 30
0.0
 10
6.8193087316
 20
4.4358094126
 30
0.0
 10
6.8718640594
 20
4.4367763961
 30
0.0
 10
6.9197998296
 20
4.4377423068
 30
0.0
 10
6.9630019801
 20
4.438707045
 30
0.0
 10
6.9959966182
 20
4.4395349761
 30
0.0
 10
7.0199491511
 20
4.4402036937
 30
0.0
 10
7.0360565963
 20
4.4406879393
 30
0.0
 10
7.050910693
 20
4.4411718725
 30
0.0
 10
7.0645023989
 20
4.4416554803
 30
0.0
 10
7.0768240825
 20
4.4421386065
 30
0.0
 10
7.0878691323
 20
4.442621103
 30
0.0
 10
7.0976311013
 20
4.4431026655
 30
0.0
 10
7.1061035791
 20
4.4435830121
 30
0.0
 10
7.1132812362
 20
4.444061025
 30
0.0
 10
7.1191599156
 20
4.4445366404
 30
0.0
 10
7.1232441488
 20
4.4449528538
 30
0.0
 10
7.1258574433
 20
4.4453000796
 30
0.0
 10
7.1271519211
 20
4.4455085689
 30
0.0
 10
7.1280232013
 20
4.4456795058
 30
0.0
 10
7.1285555738
 20
4.4457996474
 30
0.0
 10
7.129006967
 20
4.4459198652
 30
0.0
 10
7.1293760163
 20
4.4460382096
 30
0.0
 10
7.1296678879
 20
4.4461595618
 30
0.0
 10
7.1299066017
 20
4.4462895016
 30
0.0
 10
7.1300543478
 20
4.4464399507
 30
0.0
 10
7.1300543478
 20
4.446537576
 30
0.0
  0
SPLINE
  5
301
100
AcDbEntity
  8
0
100
AcDbSpline
 62
7
  6
CONTINUOUS
 70
0
 71
3
 72
12
 73
8
 74
0
 42
0.0000001
 43
0.0000001
 44
0.0000000001
 40
0.0
 40
0.0
 40
0.0
 40
0.0
 40
0.0595691706
 40
0.1371899586
 40
0.3484571094
 40
0.6358422283
 40
1.0
 40
1.0
 40
1.0
 40
1.0
 10
2.8170359534
 20
4.4286439327
 30
0.0
 10
2.8171326899
 20
4.428699714
 30
0.0
 10
2.8173682998
 20
4.4288053985
 30
0.0
 10
2.8179877647
 20
4.4290135877
 30
0.0
 10
2.8190421407
 20
4.4292575591
 30
0.0
 10
2.8206354062
 20
4.429535606
 30
0.0
 10
2.8218456916
 20
4.429702366
 30
0.0
 10
2.8225228604
 20
4.4297886355
 30
0.0
  0
SPLINE
  5
302
100
AcDbEntity
  8
0
100
AcDbSpline
 62
7
  6
CONTINUOUS
 70
0
 71
3
 72
70
 73
66
 74
0
 42
0.0000001
 43
0.0000001
 44
0.0000000001
 40
0.0
 40
0.0
 40
0.0
 40
0.0
 40
0.0010338335
 40
0.0023525803
 40
0.0039562042
 40
0.0058438016
 40
0.0080142081
 40
0.010466204
 40
0.0162099253
 40
0.0230634047
 40
0.0310098412
 40
0.0400311744
 40
0.0501079425
 40
0.0612158459
 40
0.0733295024
 40
0.1004627331
 40
0.1312576209
 40
0.1654315123
 40
0.2026715686
 40
0.2426350451
 40
0.2849550395
 40
0.3292435468
 40
0.3750933258
 40
0.4220834611
 40
0.4697826774
 40
0.5177526676
 40
0.5655531488
 40
0.6127450287
 40
0.6588949181
 40
0.7035793908
 40
0.7463876141
 40
0.786926675
 40
0.8248248489
 40
0.8426732182
 40
0.8597333385
 40
0.8759654954
 40
0.891331969
 40
0.9057985317
 40
0.9193313431
 40
0.9318988709
 40
0.9434734398
 40
0.9540277906
 40
0.9635372585
 40
0.9719813174
 40
0.9757975301
 40
0.9793398979
 40
0.9826065102
 40
0.985595802
 40
0.9883062228
 40
0.9907362358
 40
0.9928843249
 40
0.9947490675
 40
0.9963296792
 40
0.9976258114
 40
0.998167159
 40
0.9986373819
 40
0.9990365636
 40
0.9993648929
 40
0.9995026127
 40
0.9996228079
 40
0.9997256197
 40
0.9998112814
 40
0.9998802085
 40
0.9999332233
 40
1.0
 40
1.0
 40
1.0
 40
1.0
 10
2.8225228604
 20
4.4297886355
 30
0.0
 10
2.8239694732
 20
4.4299729301
 30
0.0
 10
2.8272702729
 20
4.430321331
 30
0.0
 10
2.8328314121
 20
4.4307879904
 30
0.0
 10
2.839600214
 20
4.4312573028
 30
0.0
 10
2.8475725451
 20
4.4317287831
 30
0.0
 10
2.8567433149
 20
4.4322015491
 30
0.0
 10
2.8713503919
 20
4.4328687771
 30
0.0
 10
2.8925630101
 20
4.4336855423
 30
0.0
 10
2.9215262731
 20
4.4346264005
 30
0.0
 10
2.955114881
 20
4.435570199
 30
0.0
 10
2.9932516805
 20
4.4365163276
 30
0.0
 10
3.0358491704
 20
4.4374637225
 30
0.0
 10
3.0828095715
 20
4.4384123655
 30
0.0
 10
3.1538268631
 20
4.4397285486
 30
0.0
 10
3.2526131715
 20
4.4413509407
 30
0.0
 10
3.3825167738
 20
4.4432376077
 30
0.0
 10
3.5266781615
 20
4.4451277664
 30
0.0
 10
3.683773548
 20
4.4470206138
 30
0.0
 10
3.8523604137
 20
4.4489153259
 30
0.0
 10
4.0308902563
 20
4.4508113953
 30
0.0
 10
4.2177236341
 20
4.4527083878
 30
0.0
 10
4.4111449382
 20
4.4546060794
 30
0.0
 10
4.6093775404
 20
4.4565042246
 30
0.0
 10
4.8106010019
 20
4.458402621
 30
0.0
 10
5.0129675702
 20
4.4603011308
 30
0.0
 10
5.2146184694
 20
4.4621995681
 30
0.0
 10
5.4137018582
 20
4.4640977821
 30
0.0
 10
5.6083896688
 20
4.4659956004
 30
0.0
 10
5.7968936858
 20
4.4678927788
 30
0.0
 10
5.9774827751
 20
4.4697890659
 30
0.0
 10
6.1484987057
 20
4.4716842032
 30
0.0
 10
6.2843077532
 20
4.4732923825
 30
0.0
 10
6.3869992182
 20
4.4745873014
 30
0.0
 10
6.4591309218
 20
4.4755387596
 30
0.0
 10
6.5277613974
 20
4.4764899728
 30
0.0
 10
6.592733086
 20
4.4774409813
 30
0.0
 10
6.6538967071
 20
4.4783915833
 30
0.0
 10
6.7111116914
 20
4.4793417579
 30
0.0
 10
6.7642466939
 20
4.4802914778
 30
0.0
 10
6.813179631
 20
4.4812404174
 30
0.0
 10
6.8577980717
 20
4.4821883888
 30
0.0
 10
6.8979996029
 20
4.483135311
 30
0.0
 10
6.9286968792
 20
4.4839477989
 30
0.0
 10
6.9509781182
 20
4.4846041051
 30
0.0
 10
6.9659582803
 20
4.4850793802
 30
0.0
 10
6.9797713811
 20
4.4855543819
 30
0.0
 10
6.9924102156
 20
4.486029029
 30
0.0
 10
7.0038680698
 20
4.4865032044
 30
0.0
 10
7.0141382532
 20
4.4869767226
 30
0.0
 10
7.0232141655
 20
4.48744936
 30
0.0
 10
7.031090198
 20
4.4879206152
 30
0.0
 10
7.0377620582
 20
4.4883902229
 30
0.0
 10
7.0425665236
 20
4.4887991832
 30
0.0
 10
7.0458044573
 20
4.4891348884
 30
0.0
 10
7.047780535
 20
4.4893706544
 30
0.0
 10
7.0494537518
 20
4.4896056009
 30
0.0
 10
7.0506572782
 20
4.4898101567
 30
0.0
 10
7.0514671667
 20
4.4899779069
 30
0.0
 10
7.0519621349
 20
4.4900958578
 30
0.0
 10
7.0523817253
 20
4.4902138697
 30
0.0
 10
7.0527249473
 20
4.4903301941
 30
0.0
 10
7.0529959111
 20
4.4904492735
 30
0.0
 10
7.053220208
 20
4.4905785143
 30
0.0
 10
7.0533541007
 20
4.4907261487
 30
0.0
 10
7.0533538987
 20
4.4908203424
 30
0.0
  0
SPLINE
  5
303
100
AcDbEntity
  8
0
100
AcDbSpline
 62
7
  6
CONTINUOUS
 70
0
 71
3
 72
37
 73
33
 74
0
 42
0.0000001
 43
0.0000001
 44
0.0000000001
 40
0.0
 40
0.0
 40
0.0
 40
0.0
 40
0.0004329572
 40
0.0008023359
 40
0.0012910987
 40
0.0019039093
 40
0.0026430961
 40
0.0035099775
 40
0.0045053681
 40
0.0068832778
 40
0.0097786858
 40
0.0131920593
 40
0.0171233138
 40
0.0265377037
 40
0.0380172472
 40
0.0515559692
 40
0.0671454276
 40
0.0847713909
 40
0.1044184684
 40
0.1260711609
 40
0.1497138979
 40
0.1753293872
 40
0.2028951624
 40
0.2637836346
 40
0.3321896537
 40
0.407890146
 40
0.4906314897
 40
0.5801531936
 40
0.6761735097
 40
0.7784026706
 40
0.8864848308
 40
1.0
 40
1.0
 40
1.0
 40
1.0
 10
2.8167563722
 20
3.1939203411
 30
0.0
 10
2.8167561884
 20
3.1940384524
 30
0.0
 10
2.8169575764
 20
3.1942135861
 30
0.0
 10
2.8172612459
 20
3.1943610627
 30
0.0
 10
2.8176429912
 20
3.1945025666
 30
0.0
 10
2.8181242167
 20
3.1946400288
 30
0.0
 10
2.8187139777
 20
3.1947800123
 30
0.0
 10
2.8194096232
 20
3.194919832
 30
0.0
 10
2.8205492788
 20
3.1951189329
 30
0.0
 10
2.8222423838
 20
3.1953615341
 30
0.0
 10
2.824595836
 20
3.1956401664
 30
0.0
 10
2.8273754159
 20
3.1959197942
 30
0.0
 10
2.8319300211
 20
3.196318021
 30
0.0
 10
2.8386853302
 20
3.1968030753
 30
0.0
 10
2.8480622078
 20
3.1973601026
 30
0.0
 10
2.8591260698
 20
3.1979191166
 30
0.0
 10
2.8718684151
 20
3.1984797546
 30
0.0
 10
2.8862785013
 20
3.1990414445
 30
0.0
 10
2.9023437318
 20
3.1996039221
 30
0.0
 10
2.920051235
 20
3.200166965
 30
0.0
 10
2.9393876668
 20
3.2007304125
 30
0.0
 10
2.9603378177
 20
3.2012941547
 30
0.0
 10
2.9914465243
 20
3.2020722162
 30
0.0
 10
3.0342274962
 20
3.2030355093
 30
0.0
 10
3.0901392412
 20
3.2041585061
 30
0.0
 10
3.152013542
 20
3.2052828537
 30
0.0
 10
3.2196490773
 20
3.2064084295
 30
0.0
 10
3.2928285891
 20
3.2075346883
 30
0.0
 10
3.3713249817
 20
3.208661778
 30
0.0
 10
3.4548851792
 20
3.2097893939
 30
0.0
 10
3.5432184081
 20
3.210917255
 30
0.0
 10
3.6036660794
 20
3.2116519375
 30
0.0
 10
3.634631021
 20
3.2120203417
 30
0.0
  0
SPLINE
  5
304
100
AcDbEntity
  8
0
100
AcDbSpline
 62
7
  6
CONTINUOUS
 70
0
 71
3
 72
45
 73
41
 74
0
 42
0.0000001
 43
0.0000001
 44
0.0000000001
 40
0.0
 40
0.0
 40
0.0
 40
0.0
 40
0.0711519327
 40
0.1482241632
 40
0.2297388938
 40
0.314137641
 40
0.3998040724
 40
0.4850987014
 40
0.5683887455
 40
0.6480799532
 40
0.6860957834
 40
0.7226469232
 40
0.7575582824
 40
0.7906624168
 40
0.8218011487
 40
0.8508246953
 40
0.8775949142
 40
0.9019824951
 40
0.9238720471
 40
0.9338459565
 40
0.9431572187
 40
0.9517947894
 40
0.9597476492
 40
0.9670060145
 40
0.9735621092
 40
0.9794083611
 40
0.9845372357
 40
0.988942232
 40
0.9908719649
 40
0.9926192334
 40
0.994183594
 40
0.9955646293
 40
0.9967619646
 40
0.9977752992
 40
0.9986045756
 40
0.9992503318
 40
0.9995047939
 40
0.9997140333
 40
0.9998786666
 40
1.0
 40
1.0
 40
1.0
 40
1.0
 10
3.634631021
 20
3.2120203417
 30
0.0
 10
3.7157136359
 20
3.2129850188
 30
0.0
 10
3.8846267823
 20
3.2148836702
 30
0.0
 10
4.146434744
 20
3.2176062567
 30
0.0
 10
4.4233401821
 20
3.2203320568
 30
0.0
 10
4.7100404398
 20
3.2230597862
 30
0.0
 10
5.0010486443
 20
3.2257882876
 30
0.0
 10
5.290793262
 20
3.2285165424
 30
0.0
 10
5.5737279164
 20
3.2312436328
 30
0.0
 10
5.8027828065
 20
3.2335487198
 30
0.0
 10
5.9785734159
 20
3.235408949
 30
0.0
 10
6.1033329265
 20
3.2367818307
 30
0.0
 10
6.2224944718
 20
3.2381542471
 30
0.0
 10
6.3354873397
 20
3.2395261435
 30
0.0
 10
6.4417696452
 20
3.2408972846
 30
0.0
 10
6.5408328712
 20
3.2422675741
 30
0.0
 10
6.6322013743
 20
3.2436365008
 30
0.0
 10
6.7154386434
 20
3.2450039911
 30
0.0
 10
6.7795345504
 20
3.2461747517
 30
0.0
 10
6.826449844
 20
3.247120121
 30
0.0
 10
6.8582646239
 20
3.2478066693
 30
0.0
 10
6.8877755482
 20
3.2484928074
 30
0.0
 10
6.9149462162
 20
3.2491785118
 30
0.0
 10
6.9397439232
 20
3.2498636926
 30
0.0
 10
6.9621398516
 20
3.2505480738
 30
0.0
 10
6.9821076972
 20
3.2512312551
 30
0.0
 10
6.9996224731
 20
3.2519130006
 30
0.0
 10
7.0126738296
 20
3.2525021588
 30
0.0
 10
7.0218720843
 20
3.2529806083
 30
0.0
 10
7.027835617
 20
3.2533230763
 30
0.0
 10
7.033172716
 20
3.2536650601
 30
0.0
 10
7.0378817074
 20
3.254006368
 30
0.0
 10
7.0419608999
 20
3.2543467886
 30
0.0
 10
7.045409015
 20
3.254685486
 30
0.0
 10
7.0482249284
 20
3.2550224313
 30
0.0
 10
7.0501745812
 20
3.2553175637
 30
0.0
 10
7.0514149451
 20
3.2555637023
 30
0.0
 10
7.0521113809
 20
3.255732331
 30
0.0
 10
7.0526504993
 20
3.2558994957
 30
0.0
 10
7.0529520765
 20
3.2560276051
 30
0.0
 10
7.053071824
 20
3.2560967516
 30
0.0
  0
SPLINE
  5
305
100
AcDbEntity
  8
0
100
AcDbSpline
 62
7
  6
CONTINUOUS
 70
0
 71
3
 72
80
 73
76
 74
0
 42
0.0000001
 43
0.0000001
 44
0.0000000001
 40
0.0
 40
0.0
 40
0.0
 40
0.0
 40
0.0000636304
 40
0.0001444521
 40
0.0003594508
 40
0.0006470309
 40
0.0010078914
 40
0.0014423461
 40
0.0019505452
 40
0.0025325577
 40
0.0031884087
 40
0.0047215928
 40
0.0065497389
 40
0.0086716875
 40
0.0110860709
 40
0.0137914835
 40
0.0167864971
 40
0.0200696535
 40
0.0236390525
 40
0.0316269787
 40
0.0407309179
 40
0.0509304519
 40
0.0622003049
 40
0.0745137
 40
0.0878422021
 40
0.1021529535
 40
0.1174123183
 40
0.133584348
 40
0.1506295659
 40
0.187177137
 40
0.2267062194
 40
0.2688403281
 40
0.3131780387
 40
0.3592962313
 40
0.406755316
 40
0.4551030485
 40
0.5038783096
 40
0.5526161122
 40
0.6008519315
 40
0.6481256704
 40
0.6939867442
 40
0.7379981698
 40
0.779740043
 40
0.8188143114
 40
0.8372340534
 40
0.8548489964
 40
0.8716177456
 40
0.8875005154
 40
0.9024585088
 40
0.9164570443
 40
0.9294625348
 40
0.9414432616
 40
0.9523718318
 40
0.9622215475
 40
0.9709687077
 40
0.9749226563
 40
0.9785936174
 40
0.981979173
 40
0.9850771739
 40
0.9878860874
 40
0.9904044791
 40
0.9926309342
 40
0.9945640691
 40
0.996202589
 40
0.9975458266
 40
0.9985937409
 40
0.9990071012
 40
0.9993469347
 40
0.9994893984
 40
0.9996136598
 40
0.9997198524
 40
0.9998081962
 40
0.9998790838
 40
0.9999332969
 40
1.0
 40
1.0
 40
1.0
 40
1.0
 10
2.7403254377
 20
4.0093498607
 30
0.0
 10
2.7404061306
 20
4.009396353
 30
0.0
 10
2.7405986414
 20
4.0094854516
 30
0.0
 10
2.7410947928
 20
4.009661243
 30
0.0
 10
2.741924543
 20
4.0098689512
 30
0.0
 10
2.7431659947
 20
4.0101054237
 30
0.0
 10
2.7447333017
 20
4.0103434506
 30
0.0
 10
2.7466260659
 20
4.0105831531
 30
0.0
 10
2.7488446506
 20
4.0108236189
 30
0.0
 10
2.7513888088
 20
4.0110647261
 30
0.0
 10
2.7554302509
 20
4.0114046578
 30
0.0
 10
2.7612951701
 20
4.0118211581
 30
0.0
 10
2.7693061322
 20
4.0123009541
 30
0.0
 10
2.7786087114
 20
4.0127820808
 30
0.0
 10
2.7891966648
 20
4.0132643006
 30
0.0
 10
2.8010635618
 20
4.013747219
 30
0.0
 10
2.8142028984
 20
4.0142306687
 30
0.0
 10
2.8286075101
 20
4.0147145206
 30
0.0
 10
2.850317412
 20
4.0153854929
 30
0.0
 10
2.8805455677
 20
4.0162145498
 30
0.0
 10
2.9204771625
 20
4.0171782762
 30
0.0
 10
2.9652133354
 20
4.0181433139
 30
0.0
 10
3.0146477566
 20
4.0191096424
 30
0.0
 10
3.0686624551
 20
4.0200768451
 30
0.0
 10
3.1271283993
 20
4.0210446108
 30
0.0
 10
3.1899065463
 20
4.0220129702
 30
0.0
 10
3.2568468826
 20
4.0229817114
 30
0.0
 10
3.3277897217
 20
4.023950743
 30
0.0
 10
3.4298876168
 20
4.0252741579
 30
0.0
 10
3.5661691623
 20
4.0269158039
 30
0.0
 10
3.7391694477
 20
4.0288452513
 30
0.0
 10
3.9235718782
 20
4.0307762387
 30
0.0
 10
4.117618491
 20
4.032708419
 30
0.0
 10
4.3194589983
 20
4.0346414406
 30
0.0
 10
4.527168752
 20
4.0365750351
 30
0.0
 10
4.7387675018
 20
4.0385089701
 30
0.0
 10
4.9522378345
 20
4.0404430736
 30
0.0
 10
5.1655443666
 20
4.0423771657
 30
0.0
 10
5.3766532103
 20
4.0443110569
 30
0.0
 10
5.5835515528
 20
4.0462445712
 30
0.0
 10
5.7842668822
 20
4.0481774871
 30
0.0
 10
5.9768854994
 20
4.0501094885
 30
0.0
 10
6.159570566
 20
4.0520403014
 30
0.0
 10
6.3048011033
 20
4.0536784302
 30
0.0
 10
6.4147212346
 20
4.0549973487
 30
0.0
 10
6.4919972622
 20
4.055966843
 30
0.0
 10
6.5655599229
 20
4.0569360849
 30
0.0
 10
6.6352335725
 20
4.0579049997
 30
0.0
 10
6.7008523796
 20
4.0588736532
 30
0.0
 10
6.7622595754
 20
4.0598418299
 30
0.0
 10
6.8193087316
 20
4.0608094126
 30
0.0
 10
6.8718640594
 20
4.0617763961
 30
0.0
 10
6.9197998296
 20
4.0627423068
 30
0.0
 10
6.9630019801
 20
4.063707045
 30
0.0
 10
6.9959966182
 20
4.0645349761
 30
0.0
 10
7.0199491511
 20
4.0652036937
 30
0.0
 10
7.0360565963
 20
4.0656879393
 30
0.0
 10
7.050910693
 20
4.0661718725
 30
0.0
 10
7.0645023989
 20
4.0666554803
 30
0.0
 10
7.0768240825
 20
4.0671386065
 30
0.0
 10
7.0878691323
 20
4.067621103
 30
0.0
 10
7.0976311013
 20
4.0681026655
 30
0.0
 10
7.1061035791
 20
4.0685830121
 30
0.0
 10
7.1132812362
 20
4.069061025
 30
0.0
 10
7.1191599156
 20
4.0695366404
 30
0.0
 10
7.1232441488
 20
4.0699528538
 30
0.0
 10
7.1258574433
 20
4.0703000796
 30
0.0
 10
7.1271519211
 20
4.0705085689
 30
0.0
 10
7.1280232013
 20
4.0706795058
 30
0.0
 10
7.1285555738
 20
4.0707996474
 30
0.0
 10
7.129006967
 20
4.0709198652
 30
0.0
 10
7.1293760163
 20
4.0710382096
 30
0.0
 10
7.1296678879
 20
4.0711595618
 30
0.0
 10
7.1299066017
 20
4.0712895016
 30
0.0
 10
7.1300543478
 20
4.0714399507
 30
0.0
 10
7.1300543478
 20
4.071537576
 30
0.0
  0
SPLINE
  5
306
100
AcDbEntity
  8
0
100
AcDbSpline
 62
7
  6
CONTINUOUS
 70
0
 71
3
 72
50
 73
46
 74
0
 42
0.0000001
 43
0.0000001
 44
0.0000000001
 40
0.0
 40
0.0
 40
0.0
 40
0.0
 40
0.0716887845
 40
0.1493732545
 40
0.2315426279
 40
0.3166023159
 40
0.4028995777
 40
0.4887584718
 40
0.5725112608
 40
0.6130869019
 40
0.6525312394
 40
0.6906519169
 40
0.7272641782
 40
0.7621895304
 40
0.79525862
 40
0.8263103902
 40
0.85519409
 40
0.8817693249
 40
0.9059068081
 40
0.9170247295
 40
0.9274896349
 40
0.9372893137
 40
0.9464124705
 40
0.9548478198
 40
0.9625842901
 40
0.9696128951
 40
0.9759258669
 40
0.9815154785
 40
0.9863741815
 40
0.9904964823
 40
0.9922802726
 40
0.9938785391
 40
0.9952908512
 40
0.9965168198
 40
0.9975561269
 40
0.9984086697
 40
0.9987650492
 40
0.9990749766
 40
0.9993386404
 40
0.9995563544
 40
0.9997286882
 40
0.9998568258
 40
0.9999052038
 40
0.9999440595
 40
1.0
 40
1.0
 40
1.0
 40
1.0
 10
3.634631021
 20
3.1964203417
 30
0.0
 10
3.7163359766
 20
3.1973924231
 30
0.0
 10
3.8865806172
 20
3.1993052196
 30
0.0
 10
4.1504782261
 20
3.2020473691
 30
0.0
 10
4.4296167044
 20
3.2047928007
 30
0.0
 10
4.7185724584
 20
3.2075401957
 30
0.0
 10
5.0117336996
 20
3.2102883314
 30
0.0
 10
5.303405276
 20
3.2130362613
 30
0.0
 10
5.5429652269
 20
3.2153486787
 30
0.0
 10
5.7296237999
 20
3.2172132737
 30
0.0
 10
5.8642731866
 20
3.2185967337
 30
0.0
 10
5.9944048778
 20
3.2199799294
 30
0.0
 10
6.1193855411
 20
3.221362736
 30
0.0
 10
6.2386080518
 20
3.222745113
 30
0.0
 10
6.3514922857
 20
3.2241268779
 30
0.0
 10
6.4574897197
 20
3.2255079063
 30
0.0
 10
6.5560848161
 20
3.2268879122
 30
0.0
 10
6.6467982069
 20
3.2282666483
 30
0.0
 10
6.7172628545
 20
3.229444063
 30
0.0
 10
6.7693661415
 20
3.2303931347
 30
0.0
 10
6.8051291753
 20
3.2310851319
 30
0.0
 10
6.8386181333
 20
3.2317768662
 30
0.0
 10
6.8697932876
 20
3.2324682687
 30
0.0
 10
6.8986161902
 20
3.2331592339
 30
0.0
 10
6.9250509963
 20
3.2338497504
 30
0.0
 10
6.9490658407
 20
3.234539608
 30
0.0
 10
6.9706326158
 20
3.2352285323
 30
0.0
 10
6.9897247975
 20
3.2359160043
 30
0.0
 10
7.0063182727
 20
3.2366018554
 30
0.0
 10
7.0185737608
 20
3.2371958837
 30
0.0
 10
7.0271135747
 20
3.2376795313
 30
0.0
 10
7.032567364
 20
3.2380240792
 30
0.0
 10
7.0373839739
 20
3.2383679725
 30
0.0
 10
7.0415617541
 20
3.2387108416
 30
0.0
 10
7.0450990982
 20
3.2390524895
 30
0.0
 10
7.0476446365
 20
3.2393500805
 30
0.0
 10
7.0493585979
 20
3.2395942865
 30
0.0
 10
7.0504047108
 20
3.2397658776
 30
0.0
 10
7.0512903974
 20
3.2399369369
 30
0.0
 10
7.0520162626
 20
3.2401066941
 30
0.0
 10
7.052582501
 20
3.2402758499
 30
0.0
 10
7.0529527166
 20
3.2404241437
 30
0.0
 10
7.0531643468
 20
3.2405513924
 30
0.0
 10
7.0532901774
 20
3.2406528814
 30
0.0
 10
7.0533521667
 20
3.2407565802
 30
0.0
 10
7.0533522549
 20
3.2408203411
 30
0.0
  0
SPLINE
  5
307
100
AcDbEntity
  8
0
100
AcDbSpline
 62
7
  6
CONTINUOUS
 70
0
 71
3
 72
69
 73
65
 74
0
 42
0.0000001
 43
0.0000001
 44
0.0000000001
 40
0.0
 40
0.0
 40
0.0
 40
0.0
 40
0.0000663736
 40
0.0001189161
 40
0.0001871697
 40
0.0002719631
 40
0.0003737227
 40
0.0004926933
 40
0.000629028
 40
0.0009541491
 40
0.0013495573
 40
0.001815416
 40
0.0023517806
 40
0.0036359758
 40
0.0052018306
 40
0.0070487696
 40
0.0091761089
 40
0.0115830363
 40
0.0142681196
 40
0.0172296145
 40
0.0204657613
 40
0.0239747907
 40
0.027754927
 40
0.0361205388
 40
0.045542677
 40
0.0559997124
 40
0.067469176
 40
0.0799240771
 40
0.0933358681
 40
0.1076752315
 40
0.1229087114
 40
0.1390014533
 40
0.1559179093
 40
0.1736188563
 40
0.2112118484
 40
0.2514391009
 40
0.2939354832
 40
0.3383140384
 40
0.3841716888
 40
0.4310917931
 40
0.4786475236
 40
0.526406867
 40
0.5739355475
 40
0.6208015811
 40
0.6665791861
 40
0.7108517836
 40
0.7532173705
 40
0.7932910456
 40
0.8307077991
 40
0.8651283145
 40
0.8962399201
 40
0.9237588997
 40
0.9360924962
 40
0.9474363114
 40
0.9577657266
 40
0.9670573202
 40
0.9752888545
 40
0.9824429392
 40
0.9885034929
 40
0.9934557908
 40
0.9955133116
 40
0.9972904343
 40
0.9987862551
 40
1.0
 40
1.0
 40
1.0
 40
1.0
 10
2.8167563745
 20
3.068920341
 30
0.0
 10
2.8167562325
 20
3.0690139061
 30
0.0
 10
2.8168883097
 20
3.0691606957
 30
0.0
 10
2.817110361
 20
3.0692894971
 30
0.0
 10
2.8173782102
 20
3.0694079659
 30
0.0
 10
2.8177175434
 20
3.0695237241
 30
0.0
 10
2.8181323965
 20
3.0696411389
 30
0.0
 10
2.818621867
 20
3.0697584952
 30
0.0
 10
2.8194230093
 20
3.0699254126
 30
0.0
 10
2.8206139553
 20
3.0701289338
 30
0.0
 10
2.8222700966
 20
3.0703626662
 30
0.0
 10
2.8242264059
 20
3.0705972215
 30
0.0
 10
2.8274322533
 20
3.0709312061
 30
0.0
 10
2.8321889779
 20
3.0713380545
 30
0.0
 10
2.8387938234
 20
3.0718052508
 30
0.0
 10
2.8465896418
 20
3.0722741316
 30
0.0
 10
2.8555728283
 20
3.0727444366
 30
0.0
 10
2.8657389057
 20
3.0732155321
 30
0.0
 10
2.87708196
 20
3.0736872687
 30
0.0
 10
2.8895948341
 20
3.0741594815
 30
0.0
 10
2.9032699426
 20
3.0746320498
 30
0.0
 10
2.9180996911
 20
3.0751049153
 30
0.0
 10
2.9401581913
 20
3.0757579664
 30
0.0
 10
2.9705512234
 20
3.0765662885
 30
0.0
 10
3.0103560869
 20
3.077508311
 30
0.0
 10
3.0545374438
 20
3.0784515688
 30
0.0
 10
3.1029948726
 20
3.0793956528
 30
0.0
 10
3.155618256
 20
3.0803404774
 30
0.0
 10
3.2122878568
 20
3.0812858977
 30
0.0
 10
3.2728748526
 20
3.0822316445
 30
0.0
 10
3.3372415436
 20
3.0831777662
 30
0.0
 10
3.4052414633
 20
3.0841242007
 30
0.0
 10
3.476720027
 20
3.0850708027
 30
0.0
 10
3.5785050709
 20
3.0863592046
 30
0.0
 10
3.7131494245
 20
3.0879593942
 30
0.0
 10
3.8827463034
 20
3.0898449172
 30
0.0
 10
4.0619091657
 20
3.0917315748
 30
0.0
 10
4.2490094676
 20
3.0936191716
 30
0.0
 10
4.4423460793
 20
3.0955073798
 30
0.0
 10
4.6401616793
 20
3.0973959887
 30
0.0
 10
4.840658166
 20
3.0992848488
 30
0.0
 10
5.0420125843
 20
3.1011737695
 30
0.0
 10
5.2423947122
 20
3.1030626124
 30
0.0
 10
5.4399831101
 20
3.1049512173
 30
0.0
 10
5.63298128
 20
3.1068393766
 30
0.0
 10
5.8196349771
 20
3.1087269214
 30
0.0
 10
5.9982475696
 20
3.1106135592
 30
0.0
 10
6.1671950997
 20
3.1124988932
 30
0.0
 10
6.3249419407
 20
3.114382547
 30
0.0
 10
6.4700542452
 20
3.1162636284
 30
0.0
 10
6.6012126655
 20
3.1181413642
 30
0.0
 10
6.7012361809
 20
3.1197549837
 30
0.0
 10
6.7733946285
 20
3.1210628752
 30
0.0
 10
6.8213239301
 20
3.1220070106
 30
0.0
 10
6.8649641129
 20
3.1229500958
 30
0.0
 10
6.9042159032
 20
3.1238917473
 30
0.0
 10
6.9389901129
 20
3.1248317784
 30
0.0
 10
6.969207849
 20
3.1257687143
 30
0.0
 10
6.9948004402
 20
3.126701874
 30
0.0
 10
7.0132078449
 20
3.1275150687
 30
0.0
 10
7.0255766095
 20
3.1281837785
 30
0.0
 10
7.0330763488
 20
3.1286523062
 30
0.0
 10
7.0393840275
 20
3.1291186856
 30
0.0
 10
7.043188513
 20
3.1294623389
 30
0.0
 10
7.0448901156
 20
3.1296412845
 30
0.0
  0
SPLINE
  5
308
100
AcDbEntity
  8
0
100
AcDbSpline
 62
7
  6
CONTINUOUS
 70
0
 71
3
 72
14
 73
10
 74
0
 42
0.0000001
 43
0.0000001
 44
0.0000000001
 40
0.0
 40
0.0
 40
0.0
 40
0.0
 40
0.3751815332
 40
0.5312214517
 40
0.6662906009
 40
0.7804746255
 40
0.8739190037
 40
0.9468964158
 40
1.0
 40
1.0
 40
1.0
 40
1.0
 10
7.0448901156
 20
3.1296412845
 30
0.0
 10
7.0459269754
 20
3.1297503237
 30
0.0
 10
7.047393917
 20
3.1299175617
 30
0.0
 10
7.0492276725
 20
3.1301740916
 30
0.0
 10
7.0503396136
 20
3.1303539701
 30
0.0
 10
7.0512750125
 20
3.130533123
 30
0.0
 10
7.0520347697
 20
3.1307110349
 30
0.0
 10
7.0526187799
 20
3.1308873455
 30
0.0
 10
7.0529440446
 20
3.1310229657
 30
0.0
 10
7.0530718406
 20
3.1310967516
 30
0.0
  0
LINE
  5
309
100
AcDbEntity
  8
0
100
AcDbLine
 62
7
  6
CONTINUOUS
 10
2.8170367201
 20
4.0536439322
 11
2.8197303764
 21
4.0543746974
  0
SPLINE
  5
30A
100
AcDbEntity
  8
0
100
AcDbSpline
 62
7
  6
CONTINUOUS
 70
0
 71
3
 72
72
 73
68
 74
0
 42
0.0000001
 43
0.0000001
 44
0.0000000001
 40
0.0
 40
0.0
 40
0.0
 40
0.0
 40
0.0003604154
 40
0.0007927235
 40
0.0018736706
 40
0.003243451
 40
0.004901457
 40
0.0068467289
 40
0.0090782114
 40
0.0143953363
 40
0.0208421905
 40
0.0284027093
 40
0.0370596113
 40
0.0467939639
 40
0.0575818959
 40
0.0693985736
 40
0.0822175086
 40
0.0960076812
 40
0.1263728883
 40
0.1602115364
 40
0.1972096937
 40
0.2370223611
 40
0.2792788596
 40
0.3235865482
 40
0.3695325904
 40
0.4166892918
 40
0.4646180486
 40
0.5128724798
 40
0.5610035838
 40
0.6085633551
 40
0.6551089124
 40
0.7002074245
 40
0.7434388612
 40
0.7844006132
 40
0.8227121392
 40
0.8407611556
 40
0.8580164329
 40
0.8744368716
 40
0.8899845842
 40
0.9046240524
 40
0.9183201241
 40
0.9310413902
 40
0.9427589417
 40
0.9534443203
 40
0.9630732876
 40
0.971624163
 40
0.9754885781
 40
0.9790758318
 40
0.9823841593
 40
0.985411827
 40
0.988157111
 40
0.9906183009
 40
0.9927937321
 40
0.9946822674
 40
0.996283279
 40
0.9975962641
 40
0.9981446587
 40
0.9986209826
 40
0.9990253
 40
0.9993577801
 40
0.9994972003
 40
0.9996188432
 40
0.9997228551
 40
0.9998094827
 40
0.9998791555
 40
0.9999327087
 40
1.0
 40
1.0
 40
1.0
 40
1.0
 10
2.8197303764
 20
4.0543746974
 30
0.0
 10
2.8202312934
 20
4.0544635362
 30
0.0
 10
2.8213370755
 20
4.0546361672
 30
0.0
 10
2.8239597727
 20
4.0549779709
 30
0.0
 10
2.8280090479
 20
4.0553894821
 30
0.0
 10
2.8337896431
 20
4.0558598633
 30
0.0
 10
2.8407934745
 20
4.0563325991
 30
0.0
 10
2.849015732
 20
4.0568075684
 30
0.0
 10
2.8623996327
 20
4.0574823989
 30
0.0
 10
2.8821376909
 20
4.0583051834
 30
0.0
 10
2.9093983499
 20
4.059250546
 30
0.0
 10
2.9413754763
 20
4.0601994414
 30
0.0
 10
2.977994636
 20
4.0611511427
 30
0.0
 10
3.0191706756
 20
4.0621043618
 30
0.0
 10
3.0648078391
 20
4.0630589589
 30
0.0
 10
3.1147997991
 20
4.0640144675
 30
0.0
 10
3.1690301808
 20
4.0649705965
 30
0.0
 10
3.2494398175
 20
4.0662889691
 30
0.0
 10
3.3595180109
 20
4.0679186037
 30
0.0
 10
3.5023541165
 20
4.0698210731
 30
0.0
 10
3.6585265509
 20
4.0717261183
 30
0.0
 10
3.8265817421
 20
4.0736332786
 30
0.0
 10
4.0049550937
 20
4.0755418785
 30
0.0
 10
4.1919862895
 20
4.0774514852
 30
0.0
 10
4.3859345612
 20
4.0793618345
 30
0.0
 10
4.5849942807
 20
4.0812726847
 30
0.0
 10
4.7873124835
 20
4.083183813
 30
0.0
 10
4.991006135
 20
4.0850950742
 30
0.0
 10
5.1941789336
 20
4.0870062861
 30
0.0
 10
5.394939516
 20
4.0889172777
 30
0.0
 10
5.5914193389
 20
4.090827886
 30
0.0
 10
5.7817893377
 20
4.0927378661
 30
0.0
 10
5.964277279
 20
4.0946469356
 30
0.0
 10
6.1371847111
 20
4.0965548688
 30
0.0
 10
6.2745476302
 20
4.0981737562
 30
0.0
 10
6.3784497153
 20
4.0994772989
 30
0.0
 10
6.4514539693
 20
4.1004351855
 30
0.0
 10
6.5209272657
 20
4.1013928743
 30
0.0
 10
6.586707928
 20
4.1023503132
 30
0.0
 10
6.6486426658
 20
4.1033073327
 30
0.0
 10
6.7065873157
 20
4.1042639891
 30
0.0
 10
6.7604070277
 20
4.1052201257
 30
0.0
 10
6.8099763766
 20
4.1061754612
 30
0.0
 10
6.855180022
 20
4.1071299204
 30
0.0
 10
6.895912766
 20
4.108083232
 30
0.0
 10
6.9270180084
 20
4.1089011744
 30
0.0
 10
6.94959628
 20
4.1095619523
 30
0.0
 10
6.9647767131
 20
4.1100404674
 30
0.0
 10
6.9787754381
 20
4.110518682
 30
0.0
 10
6.9915849674
 20
4.1109965382
 30
0.0
 10
7.0031978545
 20
4.1114739186
 30
0.0
 10
7.0136067054
 20
4.1119506251
 30
0.0
 10
7.0228048599
 20
4.1124265019
 30
0.0
 10
7.0307871232
 20
4.1129009853
 30
0.0
 10
7.0375496108
 20
4.1133737648
 30
0.0
 10
7.0424198241
 20
4.1137854791
 30
0.0
 10
7.0457022783
 20
4.1141234527
 30
0.0
 10
7.0477054929
 20
4.1143608101
 30
0.0
 10
7.0494015577
 20
4.1145973389
 30
0.0
 10
7.0506214048
 20
4.114803277
 30
0.0
 10
7.0514421407
 20
4.1149721763
 30
0.0
 10
7.0519435748
 20
4.1150909215
 30
0.0
 10
7.0523685493
 20
4.1152097365
 30
0.0
 10
7.0527160771
 20
4.1153268369
 30
0.0
 10
7.0529904372
 20
4.1154467406
 30
0.0
 10
7.0532172475
 20
4.1155766763
 30
0.0
 10
7.0533531225
 20
4.1157253598
 30
0.0
 10
7.0533528988
 20
4.1158203426
 30
0.0
  0
SPLINE
  5
30B
100
AcDbEntity
  8
0
100
AcDbSpline
 62
7
  6
CONTINUOUS
 70
0
 71
3
 72
69
 73
65
 74
0
 42
0.0000001
 43
0.0000001
 44
0.0000000001
 40
0.0
 40
0.0
 40
0.0
 40
0.0
 40
0.0000663872
 40
0.0001189439
 40
0.0001872168
 40
0.0002720346
 40
0.0003738236
 40
0.0004928287
 40
0.0006292027
 40
0.0009544177
 40
0.0013499435
 40
0.0018159438
 40
0.0023524735
 40
0.0036370671
 40
0.0052034079
 40
0.007050916
 40
0.0091789033
 40
0.0115865594
 40
0.0142724622
 40
0.0172348636
 40
0.0204719991
 40
0.0239820949
 40
0.0277633707
 40
0.0361314919
 40
0.0455564527
 40
0.0560165874
 40
0.0674894156
 40
0.0799479481
 40
0.0933636008
 40
0.1077070401
 40
0.1229448046
 40
0.1390420028
 40
0.1559630672
 40
0.1736687633
 40
0.2112715417
 40
0.2515088186
 40
0.2940152387
 40
0.3384036195
 40
0.3842706638
 40
0.4311995005
 40
0.4787630831
 40
0.5265291889
 40
0.5740633433
 40
0.6209333741
 40
0.666713319
 40
0.7109864401
 40
0.7533505996
 40
0.7934207755
 40
0.8308318654
 40
0.8652444927
 40
0.8963459458
 40
0.9238525138
 40
0.9361790678
 40
0.9475152906
 40
0.9578365699
 40
0.9671195005
 40
0.9753418563
 40
0.9824862604
 40
0.9885366513
 40
0.9934783229
 40
0.9955303642
 40
0.9973019015
 40
0.9987920358
 40
1.0
 40
1.0
 40
1.0
 40
1.0
 10
2.8167563934
 20
2.943920341
 30
0.0
 10
2.8167562552
 20
2.9440139274
 30
0.0
 10
2.8168883888
 20
2.9441607401
 30
0.0
 10
2.8171105082
 20
2.9442895588
 30
0.0
 10
2.8173784471
 20
2.9444080472
 30
0.0
 10
2.8177178907
 20
2.9445238243
 30
0.0
 10
2.818132878
 20
2.9446412585
 30
0.0
 10
2.8186225051
 20
2.9447586342
 30
0.0
 10
2.819423902
 20
2.9449255793
 30
0.0
 10
2.8206152285
 20
2.9451291354
 30
0.0
 10
2.8222719054
 20
2.945362906
 30
0.0
 10
2.8242288574
 20
2.9455975
 30
0.0
 10
2.827435772
 20
2.9459315399
 30
0.0
 10
2.8321940842
 20
2.9463384552
 30
0.0
 10
2.8388011286
 20
2.9468057284
 30
0.0
 10
2.8465995247
 20
2.9472746865
 30
0.0
 10
2.8555856579
 20
2.9477450698
 30
0.0
 10
2.8657550617
 20
2.9482162445
 30
0.0
 10
2.8771018336
 20
2.9486880585
 30
0.0
 10
2.8896188184
 20
2.9491603492
 30
0.0
 10
2.9032984117
 20
2.9496329954
 30
0.0
 10
2.9181329997
 20
2.9501059388
 30
0.0
 10
2.9401986467
 20
2.950759098
 30
0.0
 10
2.9706014903
 20
2.9515675542
 30
0.0
 10
3.0104191414
 20
2.9525097305
 30
0.0
 10
3.0546145905
 20
2.9534531444
 30
0.0
 10
3.1030873484
 20
2.9543973851
 30
0.0
 10
3.1557272299
 20
2.9553423647
 30
0.0
 10
3.2124144232
 20
2.9562879414
 30
0.0
 10
3.2730200211
 20
2.957233845
 30
0.0
 10
3.3374062382
 20
2.9581801224
 30
0.0
 10
3.4054265168
 20
2.9591267137
 30
0.0
 10
3.4769261728
 20
2.9600734726
 30
0.0
 10
3.5787405093
 20
2.9613620836
 30
0.0
 10
3.7134225346
 20
2.9629625343
 30
0.0
 10
3.8830653323
 20
2.964848368
 30
0.0
 10
4.0622743852
 20
2.9667353369
 30
0.0
 10
4.2494201687
 20
2.968623245
 30
0.0
 10
4.4428005628
 20
2.9705117637
 30
0.0
 10
4.6406572646
 20
2.972400683
 30
0.0
 10
4.8411912039
 20
2.9742898528
 30
0.0
 10
5.0425785008
 20
2.9761790827
 30
0.0
 10
5.2429880506
 20
2.9780682345
 30
0.0
 10
5.4405975724
 20
2.9799571477
 30
0.0
 10
5.6336097834
 20
2.9818456147
 30
0.0
 10
5.8202697303
 20
2.9837334664
 30
0.0
 10
5.9988801584
 20
2.9856204094
 30
0.0
 10
6.1678165823
 20
2.9875060465
 30
0.0
 10
6.3255429547
 20
2.9893900002
 30
0.0
 10
6.4706251242
 20
2.9912713756
 30
0.0
 10
6.6017435789
 20
2.9931493983
 30
0.0
 10
6.7017276142
 20
2.9947633069
 30
0.0
 10
6.7738495581
 20
2.9960714604
 30
0.0
 10
6.8217478367
 20
2.9970157425
 30
0.0
 10
6.8653546128
 20
2.9979589716
 30
0.0
 10
6.9045706586
 20
2.9989007612
 30
0.0
 10
6.939306841
 20
2.9998409236
 30
0.0
 10
6.9694843273
 20
3.000777975
 30
0.0
 10
6.9950345138
 20
3.0017112334
 30
0.0
 10
7.0134052659
 20
3.002524565
 30
0.0
 10
7.0257436783
 20
3.0031934768
 30
0.0
 10
7.0332199268
 20
3.0036620419
 30
0.0
 10
7.0395036435
 20
3.0041284387
 30
0.0
 10
7.0432919772
 20
3.0044722387
 30
0.0
 10
7.0449854087
 20
3.0046513341
 30
0.0
  0
SPLINE
  5
30C
100
AcDbEntity
  8
0
100
AcDbSpline
 62
7
  6
CONTINUOUS
 70
0
 71
3
 72
14
 73
10
 74
0
 42
0.0000001
 43
0.0000001
 44
0.0000000001
 40
0.0
 40
0.0
 40
0.0
 40
0.0
 40
0.3748801363
 40
0.5308434274
 40
0.6658859242
 40
0.7800938635
 40
0.8736134314
 40
0.9467179704
 40
1.0
 40
1.0
 40
1.0
 40
1.0
 10
7.0449854087
 20
3.0046513341
 30
0.0
 10
7.0460094653
 20
3.0047596371
 30
0.0
 10
7.0474584131
 20
3.00492575
 30
0.0
 10
7.0492698101
 20
3.0051804879
 30
0.0
 10
7.0503686159
 20
3.0053591341
 30
0.0
 10
7.0512933092
 20
3.0055370642
 30
0.0
 10
7.0520447717
 20
3.0057137768
 30
0.0
 10
7.0526229154
 20
3.0058889125
 30
0.0
 10
7.0529450878
 20
3.0060235671
 30
0.0
 10
7.0530718387
 20
3.0060967516
 30
0.0
  0
SPLINE
  5
30D
100
AcDbEntity
  8
0
100
AcDbSpline
 62
7
  6
CONTINUOUS
 70
0
 71
3
 72
72
 73
68
 74
0
 42
0.0000001
 43
0.0000001
 44
0.0000000001
 40
0.0
 40
0.0
 40
0.0
 40
0.0
 40
0.0000674122
 40
0.0001210571
 40
0.0001908291
 40
0.0002775578
 40
0.0003816682
 40
0.0005034031
 40
0.0006429135
 40
0.0009756145
 40
0.0013802859
 40
0.001857174
 40
0.0024063368
 40
0.0037213521
 40
0.0053248534
 40
0.0072160986
 40
0.0093942372
 40
0.0118583606
 40
0.0146073315
 40
0.0176393401
 40
0.0209524275
 40
0.0245446255
 40
0.0284139596
 40
0.0369758776
 40
0.0466181438
 40
0.0573174109
 40
0.0690499428
 40
0.0817881443
 40
0.0955015314
 40
0.1101592491
 40
0.1257267963
 40
0.1421672125
 40
0.159443178
 40
0.1775140454
 40
0.215869479
 40
0.2568766007
 40
0.3001534369
 40
0.3452960115
 40
0.3918839311
 40
0.43948303
 40
0.4876493544
 40
0.5359341995
 40
0.5838873193
 40
0.6310617947
 40
0.6770181296
 40
0.7213274747
 40
0.7635772026
 40
0.803373795
 40
0.8403455284
 40
0.8741484216
 40
0.9044678715
 40
0.9182309363
 40
0.9310203333
 40
0.9428058166
 40
0.9535591896
 40
0.9632567172
 40
0.9718752906
 40
0.9793942045
 40
0.9857974428
 40
0.9910696636
 40
0.9932774879
 40
0.9951984562
 40
0.996831754
 40
0.998176668
 40
0.9992326975
 40
0.9996523791
 40
1.0
 40
1.0
 40
1.0
 40
1.0
 10
2.816756661
 20
3.5689203417
 30
0.0
 10
2.8167566732
 20
3.569015501
 30
0.0
 10
2.8168930209
 20
3.5691641355
 30
0.0
 10
2.8171202651
 20
3.5692942045
 30
0.0
 10
2.8173950661
 20
3.5694141799
 30
0.0
 10
2.8177430282
 20
3.5695313719
 30
0.0
 10
2.8181684336
 20
3.5696502709
 30
0.0
 10
2.8186702838
 20
3.5697691065
 30
0.0
 10
2.8194916239
 20
3.5699381353
 30
0.0
 10
2.8207124676
 20
3.5701442444
 30
0.0
 10
2.8224102321
 20
3.5703809525
 30
0.0
 10
2.8244159438
 20
3.5706184655
 30
0.0
 10
2.8277033376
 20
3.5709566825
 30
0.0
 10
2.8325813055
 20
3.57136866
 30
0.0
 10
2.8393543967
 20
3.5718417501
 30
0.0
 10
2.8473482877
 20
3.5723165524
 30
0.0
 10
2.8565587626
 20
3.5727928059
 30
0.0
 10
2.8669813829
 20
3.5732699061
 30
0.0
 10
2.8786104194
 20
3.5737476032
 30
0.0
 10
2.8914387461
 20
3.5742257812
 30
0.0
 10
2.9054581124
 20
3.5747043213
 30
0.0
 10
2.920660071
 20
3.5751831636
 30
0.0
 10
2.9432691647
 20
3.5758444552
 30
0.0
 10
2.974417519
 20
3.5766630183
 30
0.0
 10
3.0152065993
 20
3.5776169031
 30
0.0
 10
3.0604723958
 20
3.5785720896
 30
0.0
 10
3.1101092832
 20
3.5795281469
 30
0.0
 10
3.1640016204
 20
3.5804848883
 30
0.0
 10
3.2220237475
 20
3.5814422637
 30
0.0
 10
3.2840402872
 20
3.5823999918
 30
0.0
 10
3.349906734
 20
3.583358057
 30
0.0
 10
3.4194694706
 20
3.5843164586
 30
0.0
 10
3.4925662168
 20
3.5852750435
 30
0.0
 10
3.5965963707
 20
3.5865794466
 30
0.0
 10
3.7341241425
 20
3.5881995227
 30
0.0
 10
3.907231735
 20
3.5901087827
 30
0.0
 10
4.0899206115
 20
3.5920191999
 30
0.0
 10
4.2804877579
 20
3.593930551
 30
0.0
 10
4.4771565122
 20
3.5958425018
 30
0.0
 10
4.6780937925
 20
3.5977548438
 30
0.0
 10
4.8814265621
 20
3.5996674139
 30
0.0
 10
5.0852590902
 20
3.6015800147
 30
0.0
 10
5.2876914609
 20
3.6034924993
 30
0.0
 10
5.4868367547
 20
3.6054046923
 30
0.0
 10
5.6808382491
 20
3.6073163668
 30
0.0
 10
5.8678876158
 20
3.6092273304
 30
0.0
 10
6.0462414121
 20
3.6111372478
 30
0.0
 10
6.2142368067
 20
3.6130456962
 30
0.0
 10
6.3703078341
 20
3.6149520796
 30
0.0
 10
6.5129998523
 20
3.6168558088
 30
0.0
 10
6.6229310843
 20
3.6184866642
 30
0.0
 10
6.7032008069
 20
3.6198061641
 30
0.0
 10
6.7573103154
 20
3.6207629973
 30
0.0
 10
6.8071706344
 20
3.6217190535
 30
0.0
 10
6.8526656068
 20
3.6226743299
 30
0.0
 10
6.8936891142
 20
3.6236282254
 30
0.0
 10
6.9301455207
 20
3.6245803725
 30
0.0
 10
6.9619500135
 20
3.6255298563
 30
0.0
 10
6.9890284446
 20
3.6264757907
 30
0.0
 10
7.0086091546
 20
3.6272990062
 30
0.0
 10
7.0218625366
 20
3.6279747294
 30
0.0
 10
7.0299825073
 20
3.6284499309
 30
0.0
 10
7.0368822248
 20
3.628922791
 30
0.0
 10
7.0425576432
 20
3.6293932431
 30
0.0
 10
7.0465186414
 20
3.6298048423
 30
0.0
 10
7.0490697297
 20
3.6301473904
 30
0.0
 10
7.0501391964
 20
3.6303205023
 30
0.0
 10
7.0506217082
 20
3.6304097851
 30
0.0
  0
LINE
  5
30E
100
AcDbEntity
  8
0
100
AcDbLine
 62
7
  6
CONTINUOUS
 10
7.0506217082
 20
3.6304097851
 11
7.0530722146
 21
3.6310967524
  0
SPLINE
  5
30F
100
AcDbEntity
  8
0
100
AcDbSpline
 62
7
  6
CONTINUOUS
 70
0
 71
3
 72
80
 73
76
 74
0
 42
0.0000001
 43
0.0000001
 44
0.0000000001
 40
0.0
 40
0.0
 40
0.0
 40
0.0
 40
0.0000636304
 40
0.0001444521
 40
0.0003594508
 40
0.0006470309
 40
0.0010078914
 40
0.0014423461
 40
0.0019505452
 40
0.0025325577
 40
0.0031884087
 40
0.0047215928
 40
0.0065497389
 40
0.0086716875
 40
0.0110860709
 40
0.0137914835
 40
0.0167864971
 40
0.0200696535
 40
0.0236390525
 40
0.0316269787
 40
0.0407309179
 40
0.0509304519
 40
0.0622003049
 40
0.0745137
 40
0.0878422021
 40
0.1021529535
 40
0.1174123183
 40
0.133584348
 40
0.1506295659
 40
0.187177137
 40
0.2267062194
 40
0.2688403281
 40
0.3131780387
 40
0.3592962313
 40
0.406755316
 40
0.4551030485
 40
0.5038783096
 40
0.5526161122
 40
0.6008519315
 40
0.6481256704
 40
0.6939867442
 40
0.7379981698
 40
0.779740043
 40
0.8188143114
 40
0.8372340534
 40
0.8548489964
 40
0.8716177456
 40
0.8875005154
 40
0.9024585088
 40
0.9164570443
 40
0.9294625348
 40
0.9414432616
 40
0.9523718318
 40
0.9622215475
 40
0.9709687077
 40
0.9749226563
 40
0.9785936174
 40
0.981979173
 40
0.9850771739
 40
0.9878860874
 40
0.9904044791
 40
0.9926309342
 40
0.9945640691
 40
0.996202589
 40
0.9975458266
 40
0.9985937409
 40
0.9990071012
 40
0.9993469347
 40
0.9994893984
 40
0.9996136598
 40
0.9997198524
 40
0.9998081962
 40
0.9998790838
 40
0.9999332969
 40
1.0
 40
1.0
 40
1.0
 40
1.0
 10
2.7403254377
 20
4.2593498607
 30
0.0
 10
2.7404061306
 20
4.259396353
 30
0.0
 10
2.7405986414
 20
4.2594854516
 30
0.0
 10
2.7410947928
 20
4.259661243
 30
0.0
 10
2.741924543
 20
4.2598689512
 30
0.0
 10
2.7431659947
 20
4.2601054237
 30
0.0
 10
2.7447333017
 20
4.2603434506
 30
0.0
 10
2.7466260659
 20
4.2605831531
 30
0.0
 10
2.7488446506
 20
4.2608236189
 30
0.0
 10
2.7513888088
 20
4.2610647261
 30
0.0
 10
2.7554302509
 20
4.2614046578
 30
0.0
 10
2.7612951701
 20
4.2618211581
 30
0.0
 10
2.7693061322
 20
4.2623009541
 30
0.0
 10
2.7786087114
 20
4.2627820808
 30
0.0
 10
2.7891966648
 20
4.2632643006
 30
0.0
 10
2.8010635618
 20
4.263747219
 30
0.0
 10
2.8142028984
 20
4.2642306687
 30
0.0
 10
2.8286075101
 20
4.2647145206
 30
0.0
 10
2.850317412
 20
4.2653854929
 30
0.0
 10
2.8805455677
 20
4.2662145498
 30
0.0
 10
2.9204771625
 20
4.2671782762
 30
0.0
 10
2.9652133354
 20
4.2681433139
 30
0.0
 10
3.0146477566
 20
4.2691096424
 30
0.0
 10
3.0686624551
 20
4.2700768451
 30
0.0
 10
3.1271283993
 20
4.2710446108
 30
0.0
 10
3.1899065463
 20
4.2720129702
 30
0.0
 10
3.2568468826
 20
4.2729817114
 30
0.0
 10
3.3277897217
 20
4.273950743
 30
0.0
 10
3.4298876168
 20
4.2752741579
 30
0.0
 10
3.5661691623
 20
4.2769158039
 30
0.0
 10
3.7391694477
 20
4.2788452513
 30
0.0
 10
3.9235718782
 20
4.2807762387
 30
0.0
 10
4.117618491
 20
4.282708419
 30
0.0
 10
4.3194589983
 20
4.2846414406
 30
0.0
 10
4.527168752
 20
4.2865750351
 30
0.0
 10
4.7387675018
 20
4.2885089701
 30
0.0
 10
4.9522378345
 20
4.2904430736
 30
0.0
 10
5.1655443666
 20
4.2923771657
 30
0.0
 10
5.3766532103
 20
4.2943110569
 30
0.0
 10
5.5835515528
 20
4.2962445712
 30
0.0
 10
5.7842668822
 20
4.2981774871
 30
0.0
 10
5.9768854994
 20
4.3001094885
 30
0.0
 10
6.159570566
 20
4.3020403014
 30
0.0
 10
6.3048011033
 20
4.3036784302
 30
0.0
 10
6.4147212346
 20
4.3049973487
 30
0.0
 10
6.4919972622
 20
4.305966843
 30
0.0
 10
6.5655599229
 20
4.3069360849
 30
0.0
 10
6.6352335725
 20
4.3079049997
 30
0.0
 10
6.7008523796
 20
4.3088736532
 30
0.0
 10
6.7622595754
 20
4.3098418299
 30
0.0
 10
6.8193087316
 20
4.3108094126
 30
0.0
 10
6.8718640594
 20
4.3117763961
 30
0.0
 10
6.9197998296
 20
4.3127423068
 30
0.0
 10
6.9630019801
 20
4.313707045
 30
0.0
 10
6.9959966182
 20
4.3145349761
 30
0.0
 10
7.0199491511
 20
4.3152036937
 30
0.0
 10
7.0360565963
 20
4.3156879393
 30
0.0
 10
7.050910693
 20
4.3161718725
 30
0.0
 10
7.0645023989
 20
4.3166554803
 30
0.0
 10
7.0768240825
 20
4.3171386065
 30
0.0
 10
7.0878691323
 20
4.317621103
 30
0.0
 10
7.0976311013
 20
4.3181026655
 30
0.0
 10
7.1061035791
 20
4.3185830121
 30
0.0
 10
7.1132812362
 20
4.319061025
 30
0.0
 10
7.1191599156
 20
4.3195366404
 30
0.0
 10
7.1232441488
 20
4.3199528538
 30
0.0
 10
7.1258574433
 20
4.3203000796
 30
0.0
 10
7.1271519211
 20
4.3205085689
 30
0.0
 10
7.1280232013
 20
4.3206795058
 30
0.0
 10
7.1285555738
 20
4.3207996474
 30
0.0
 10
7.129006967
 20
4.3209198652
 30
0.0
 10
7.1293760163
 20
4.3210382096
 30
0.0
 10
7.1296678879
 20
4.3211595618
 30
0.0
 10
7.1299066017
 20
4.3212895016
 30
0.0
 10
7.1300543478
 20
4.3214399507
 30
0.0
 10
7.1300543478
 20
4.321537576
 30
0.0
  0
SPLINE
  5
310
100
AcDbEntity
  8
0
100
AcDbSpline
 62
7
  6
CONTINUOUS
 70
0
 71
3
 72
77
 73
73
 74
0
 42
0.0000001
 43
0.0000001
 44
0.0000000001
 40
0.0
 40
0.0
 40
0.0
 40
0.0
 40
0.0000680635
 40
0.0001224154
 40
0.0001931769
 40
0.0002811821
 40
0.0003868578
 40
0.0005104483
 40
0.0006521055
 40
0.0009899768
 40
0.001400989
 40
0.0018853413
 40
0.0024430733
 40
0.0037785539
 40
0.0054069771
 40
0.0073276262
 40
0.0095396758
 40
0.0120422309
 40
0.0148339328
 40
0.0179128697
 40
0.0212770833
 40
0.0249246055
 40
0.0288534621
 40
0.0375466609
 40
0.047335414
 40
0.0581960911
 40
0.0701043196
 40
0.0830310557
 40
0.0969453583
 40
0.1118154716
 40
0.1276052828
 40
0.1442772066
 40
0.1617927827
 40
0.1801096519
 40
0.21897257
 40
0.2604980655
 40
0.3042934422
 40
0.3499433026
 40
0.3970153646
 40
0.4450640863
 40
0.4936340389
 40
0.5422653335
 40
0.5904973414
 40
0.6378730525
 40
0.683944094
 40
0.7282738459
 40
0.7704422306
 40
0.8100505017
 40
0.8467231554
 40
0.8801124697
 40
0.8954764727
 40
0.9099032213
 40
0.9233591828
 40
0.9358130152
 40
0.9472339966
 40
0.957595945
 40
0.9668747939
 40
0.9750473085
 40
0.9820952847
 40
0.9851925096
 40
0.9880025384
 40
0.9905234685
 40
0.9927540619
 40
0.9946933777
 40
0.9963405316
 40
0.9976947431
 40
0.9982618174
 40
0.9987554816
 40
0.9991757741
 40
0.9995229144
 40
0.9997973474
 40
1.0
 40
1.0
 40
1.0
 40
1.0
 10
2.8167566353
 20
3.4439203414
 30
0.0
 10
2.8167565869
 20
3.4440164672
 30
0.0
 10
2.8168955109
 20
3.4441663907
 30
0.0
 10
2.8171259776
 20
3.4442972421
 30
0.0
 10
2.8174051942
 20
3.4444181982
 30
0.0
 10
2.8177587101
 20
3.4445363086
 30
0.0
 10
2.8181909737
 20
3.4446561648
 30
0.0
 10
2.8187009347
 20
3.4447759527
 30
0.0
 10
2.8195356407
 20
3.4449463506
 30
0.0
 10
2.8207763817
 20
3.4451541198
 30
0.0
 10
2.8225017913
 20
3.4453927163
 30
0.0
 10
2.8245400952
 20
3.4456321416
 30
0.0
 10
2.8278806604
 20
3.4459730814
 30
0.0
 10
2.8328372354
 20
3.4463883822
 30
0.0
 10
2.8397192899
 20
3.4468652896
 30
0.0
 10
2.8478417331
 20
3.4473439208
 30
0.0
 10
2.8572004377
 20
3.4478240148
 30
0.0
 10
2.8677907061
 20
3.448304936
 30
0.0
 10
2.8796063665
 20
3.4487864811
 30
0.0
 10
2.8926398342
 20
3.4492685171
 30
0.0
 10
2.9068827119
 20
3.4497509165
 30
0.0
 10
2.9223265497
 20
3.4502336201
 30
0.0
 10
2.9452943674
 20
3.4509002248
 30
0.0
 10
2.9769343932
 20
3.4517253288
 30
0.0
 10
3.0183637778
 20
3.4526869264
 30
0.0
 10
3.0643348076
 20
3.4536498043
 30
0.0
 10
3.1147384609
 20
3.4546135276
 30
0.0
 10
3.1694554476
 20
3.4555779969
 30
0.0
 10
3.2283560843
 20
3.4565430788
 30
0.0
 10
3.2913007328
 20
3.4575084928
 30
0.0
 10
3.3581403847
 20
3.4584742913
 30
0.0
 10
3.428716579
 20
3.4594404053
 30
0.0
 10
3.5028620444
 20
3.4604066882
 30
0.0
 10
3.6083458848
 20
3.4617214395
 30
0.0
 10
3.7477375043
 20
3.4633542871
 30
0.0
 10
3.923111335
 20
3.4652788719
 30
0.0
 10
4.1080708753
 20
3.4672045972
 30
0.0
 10
4.3008642086
 20
3.4691312504
 30
0.0
 10
4.4996648109
 20
3.4710585115
 30
0.0
 10
4.7025896353
 20
3.4729861458
 30
0.0
 10
4.9077166545
 20
3.4749139916
 30
0.0
 10
5.1131025395
 20
3.4768418553
 30
0.0
 10
5.3168017279
 20
3.4787695631
 30
0.0
 10
5.5168849183
 20
3.4806969503
 30
0.0
 10
5.7114567091
 20
3.4826237754
 30
0.0
 10
5.8986738457
 20
3.4845497904
 30
0.0
 10
6.0767631398
 20
3.486474706
 30
0.0
 10
6.2440376925
 20
3.4883979624
 30
0.0
 10
6.3989127388
 20
3.4903191033
 30
0.0
 10
6.5195484634
 20
3.4919596049
 30
0.0
 10
6.6087676532
 20
3.49328413
 30
0.0
 10
6.6698372336
 20
3.4942494471
 30
0.0
 10
6.7267962503
 20
3.4952142611
 30
0.0
 10
6.7795095911
 20
3.4961783705
 30
0.0
 10
6.8278524918
 20
3.4971417659
 30
0.0
 10
6.8717104235
 20
3.4981041007
 30
0.0
 10
6.910979386
 20
3.4990647114
 30
0.0
 10
6.945566506
 20
3.5000235428
 30
0.0
 10
6.9714234456
 20
3.5008513638
 30
0.0
 10
6.9897077622
 20
3.5015234464
 30
0.0
 10
7.0016011458
 20
3.5020050556
 30
0.0
 10
7.0122695136
 20
3.5024860339
 30
0.0
 10
7.0217068191
 20
3.5029661926
 30
0.0
 10
7.029908394
 20
3.5034449277
 30
0.0
 10
7.0368698929
 20
3.5039219767
 30
0.0
 10
7.0418927868
 20
3.5043372587
 30
0.0
 10
7.0452864374
 20
3.5046779427
 30
0.0
 10
7.0473644511
 20
3.5049174847
 30
0.0
 10
7.0491295196
 20
3.5051561727
 30
0.0
 10
7.0505821606
 20
3.5053932111
 30
0.0
 10
7.0517222811
 20
3.5056283333
 30
0.0
 10
7.0523733937
 20
3.5058075492
 30
0.0
 10
7.052642423
 20
3.505905206
 30
0.0
  0
LINE
  5
311
100
AcDbEntity
  8
0
100
AcDbLine
 62
7
  6
CONTINUOUS
 10
7.052642423
 20
3.505905206
 11
7.0530720061
 21
3.5060967522
  0
SPLINE
  5
312
100
AcDbEntity
  8
0
100
AcDbSpline
 62
7
  6
CONTINUOUS
 70
0
 71
3
 72
80
 73
76
 74
0
 42
0.0000001
 43
0.0000001
 44
0.0000000001
 40
0.0
 40
0.0
 40
0.0
 40
0.0
 40
0.0000636304
 40
0.0001444521
 40
0.0003594508
 40
0.0006470309
 40
0.0010078914
 40
0.0014423461
 40
0.0019505452
 40
0.0025325577
 40
0.0031884087
 40
0.0047215928
 40
0.0065497389
 40
0.0086716875
 40
0.0110860709
 40
0.0137914835
 40
0.0167864971
 40
0.0200696535
 40
0.0236390525
 40
0.0316269787
 40
0.0407309179
 40
0.0509304519
 40
0.0622003049
 40
0.0745137
 40
0.0878422021
 40
0.1021529535
 40
0.1174123183
 40
0.133584348
 40
0.1506295659
 40
0.187177137
 40
0.2267062194
 40
0.2688403281
 40
0.3131780387
 40
0.3592962313
 40
0.406755316
 40
0.4551030485
 40
0.5038783096
 40
0.5526161122
 40
0.6008519315
 40
0.6481256704
 40
0.6939867442
 40
0.7379981698
 40
0.779740043
 40
0.8188143114
 40
0.8372340534
 40
0.8548489964
 40
0.8716177456
 40
0.8875005154
 40
0.9024585088
 40
0.9164570443
 40
0.9294625348
 40
0.9414432616
 40
0.9523718318
 40
0.9622215475
 40
0.9709687077
 40
0.9749226563
 40
0.9785936174
 40
0.981979173
 40
0.9850771739
 40
0.9878860874
 40
0.9904044791
 40
0.9926309342
 40
0.9945640691
 40
0.996202589
 40
0.9975458266
 40
0.9985937409
 40
0.9990071012
 40
0.9993469347
 40
0.9994893984
 40
0.9996136598
 40
0.9997198524
 40
0.9998081962
 40
0.9998790838
 40
0.9999332969
 40
1.0
 40
1.0
 40
1.0
 40
1.0
 10
2.7403254377
 20
3.8843498607
 30
0.0
 10
2.7404061306
 20
3.884396353
 30
0.0
 10
2.7405986414
 20
3.8844854516
 30
0.0
 10
2.7410947928
 20
3.884661243
 30
0.0
 10
2.741924543
 20
3.8848689512
 30
0.0
 10
2.7431659947
 20
3.8851054237
 30
0.0
 10
2.7447333017
 20
3.8853434506
 30
0.0
 10
2.7466260659
 20
3.8855831531
 30
0.0
 10
2.7488446506
 20
3.8858236189
 30
0.0
 10
2.7513888088
 20
3.8860647261
 30
0.0
 10
2.7554302509
 20
3.8864046578
 30
0.0
 10
2.7612951701
 20
3.8868211581
 30
0.0
 10
2.7693061322
 20
3.8873009541
 30
0.0
 10
2.7786087114
 20
3.8877820808
 30
0.0
 10
2.7891966648
 20
3.8882643006
 30
0.0
 10
2.8010635618
 20
3.888747219
 30
0.0
 10
2.8142028984
 20
3.8892306687
 30
0.0
 10
2.8286075101
 20
3.8897145206
 30
0.0
 10
2.850317412
 20
3.8903854929
 30
0.0
 10
2.8805455677
 20
3.8912145498
 30
0.0
 10
2.9204771625
 20
3.8921782762
 30
0.0
 10
2.9652133354
 20
3.8931433139
 30
0.0
 10
3.0146477566
 20
3.8941096424
 30
0.0
 10
3.0686624551
 20
3.8950768451
 30
0.0
 10
3.1271283993
 20
3.8960446108
 30
0.0
 10
3.1899065463
 20
3.8970129702
 30
0.0
 10
3.2568468826
 20
3.8979817114
 30
0.0
 10
3.3277897217
 20
3.898950743
 30
0.0
 10
3.4298876168
 20
3.9002741579
 30
0.0
 10
3.5661691623
 20
3.9019158039
 30
0.0
 10
3.7391694477
 20
3.9038452513
 30
0.0
 10
3.9235718782
 20
3.9057762387
 30
0.0
 10
4.117618491
 20
3.907708419
 30
0.0
 10
4.3194589983
 20
3.9096414406
 30
0.0
 10
4.527168752
 20
3.9115750351
 30
0.0
 10
4.7387675018
 20
3.9135089701
 30
0.0
 10
4.9522378345
 20
3.9154430736
 30
0.0
 10
5.1655443666
 20
3.9173771657
 30
0.0
 10
5.3766532103
 20
3.9193110569
 30
0.0
 10
5.5835515528
 20
3.9212445712
 30
0.0
 10
5.7842668822
 20
3.9231774871
 30
0.0
 10
5.9768854994
 20
3.9251094885
 30
0.0
 10
6.159570566
 20
3.9270403014
 30
0.0
 10
6.3048011033
 20
3.9286784302
 30
0.0
 10
6.4147212346
 20
3.9299973487
 30
0.0
 10
6.4919972622
 20
3.930966843
 30
0.0
 10
6.5655599229
 20
3.9319360849
 30
0.0
 10
6.6352335725
 20
3.9329049997
 30
0.0
 10
6.7008523796
 20
3.9338736532
 30
0.0
 10
6.7622595754
 20
3.9348418299
 30
0.0
 10
6.8193087316
 20
3.9358094126
 30
0.0
 10
6.8718640594
 20
3.9367763961
 30
0.0
 10
6.9197998296
 20
3.9377423068
 30
0.0
 10
6.9630019801
 20
3.938707045
 30
0.0
 10
6.9959966182
 20
3.9395349761
 30
0.0
 10
7.0199491511
 20
3.9402036937
 30
0.0
 10
7.0360565963
 20
3.9406879393
 30
0.0
 10
7.050910693
 20
3.9411718725
 30
0.0
 10
7.0645023989
 20
3.9416554803
 30
0.0
 10
7.0768240825
 20
3.9421386065
 30
0.0
 10
7.0878691323
 20
3.942621103
 30
0.0
 10
7.0976311013
 20
3.9431026655
 30
0.0
 10
7.1061035791
 20
3.9435830121
 30
0.0
 10
7.1132812362
 20
3.944061025
 30
0.0
 10
7.1191599156
 20
3.9445366404
 30
0.0
 10
7.1232441488
 20
3.9449528538
 30
0.0
 10
7.1258574433
 20
3.9453000796
 30
0.0
 10
7.1271519211
 20
3.9455085689
 30
0.0
 10
7.1280232013
 20
3.9456795058
 30
0.0
 10
7.1285555738
 20
3.9457996474
 30
0.0
 10
7.129006967
 20
3.9459198652
 30
0.0
 10
7.1293760163
 20
3.9460382096
 30
0.0
 10
7.1296678879
 20
3.9461595618
 30
0.0
 10
7.1299066017
 20
3.9462895016
 30
0.0
 10
7.1300543478
 20
3.9464399507
 30
0.0
 10
7.1300543478
 20
3.946537576
 30
0.0
  0
SPLINE
  5
313
100
AcDbEntity
  8
0
100
AcDbSpline
 62
7
  6
CONTINUOUS
 70
0
 71
3
 72
76
 73
72
 74
0
 42
0.0000001
 43
0.0000001
 44
0.0000000001
 40
0.0
 40
0.0
 40
0.0
 40
0.0
 40
0.0000678573
 40
0.0001219961
 40
0.0001924676
 40
0.0002801065
 40
0.0003853403
 40
0.0005084141
 40
0.0006494805
 40
0.0009859514
 40
0.0013952493
 40
0.001877538
 40
0.0024328622
 40
0.0037625219
 40
0.0053838301
 40
0.0072961257
 40
0.0094986387
 40
0.0119904886
 40
0.0147701775
 40
0.0178358264
 40
0.0211855377
 40
0.0248174042
 40
0.0287295125
 40
0.0373858418
 40
0.0471331499
 40
0.0579483122
 40
0.0698071283
 40
0.0826805747
 40
0.0965382458
 40
0.1113485835
 40
0.1270756163
 40
0.1436823087
 40
0.1611304271
 40
0.1793778576
 40
0.2180978598
 40
0.2594772588
 40
0.3031265547
 40
0.3486336261
 40
0.3955693692
 40
0.4434915511
 40
0.4919479895
 40
0.540481885
 40
0.5886356212
 40
0.6359549281
 40
0.6819939632
 40
0.7263184043
 40
0.7685100284
 40
0.808171662
 40
0.8449290232
 40
0.8784350606
 40
0.8938695567
 40
0.9083748694
 40
0.9219174905
 40
0.9344659573
 40
0.9459894637
 40
0.956461747
 40
0.9658585377
 40
0.9741564293
 40
0.981337026
 40
0.9845031878
 40
0.9873838551
 40
0.9899770923
 40
0.9922816254
 40
0.9942964603
 40
0.9960206507
 40
0.997453336
 40
0.9985938306
 40
0.9990544303
 40
0.9994420744
 40
0.9997570684
 40
1.0
 40
1.0
 40
1.0
 40
1.0
 10
2.816756525
 20
3.3189203412
 30
0.0
 10
2.8167564192
 20
3.3190161655
 30
0.0
 10
2.816894525
 20
3.3191657787
 30
0.0
 10
2.8171240234
 20
3.3192963951
 30
0.0
 10
2.8174019549
 20
3.3194170818
 30
0.0
 10
2.8177538906
 20
3.3195349328
 30
0.0
 10
2.8181842332
 20
3.3196545218
 30
0.0
 10
2.8186919529
 20
3.3197740431
 30
0.0
 10
2.8195230278
 20
3.3199440627
 30
0.0
 10
2.8207584056
 20
3.3201513615
 30
0.0
 10
2.822476319
 20
3.3203894173
 30
0.0
 10
2.8245056683
 20
3.3206283139
 30
0.0
 10
2.8278313397
 20
3.3209684905
 30
0.0
 10
2.8327657133
 20
3.3213828713
 30
0.0
 10
2.8396169644
 20
3.3218587202
 30
0.0
 10
2.8477032249
 20
3.3223362873
 30
0.0
 10
2.8570205452
 20
3.3228153091
 30
0.0
 10
2.8675641306
 20
3.323295139
 30
0.0
 10
2.879327678
 20
3.3237756152
 30
0.0
 10
2.8923035402
 20
3.3242565785
 30
0.0
 10
2.906483539
 20
3.324737904
 30
0.0
 10
2.9218594831
 20
3.3252195328
 30
0.0
 10
2.9447270152
 20
3.3258846495
 30
0.0
 10
2.9762294084
 20
3.3267079038
 30
0.0
 10
3.0174794885
 20
3.3276673774
 30
0.0
 10
3.0632530156
 20
3.3286281014
 30
0.0
 10
3.1134419649
 20
3.3295896641
 30
0.0
 10
3.1679280868
 20
3.3305519962
 30
0.0
 10
3.2265827768
 20
3.3315149201
 30
0.0
 10
3.2892676462
 20
3.3324781746
 30
0.0
 10
3.3558349575
 20
3.3334418287
 30
0.0
 10
3.4261275629
 20
3.3344057832
 30
0.0
 10
3.4999796517
 20
3.335369908
 30
0.0
 10
3.6050570564
 20
3.3366817852
 30
0.0
 10
3.7439275594
 20
3.3383110496
 30
0.0
 10
3.9186681904
 20
3.3402313631
 30
0.0
 10
4.1029936845
 20
3.3421528133
 30
0.0
 10
4.2951659411
 20
3.3440751883
 30
0.0
 10
4.4933724196
 20
3.3459981763
 30
0.0
 10
4.6957440206
 20
3.3479215391
 30
0.0
 10
4.9003725436
 20
3.3498451162
 30
0.0
 10
5.1053280691
 20
3.3517687194
 30
0.0
 10
5.30867773
 20
3.3536921726
 30
0.0
 10
5.5085041283
 20
3.355615317
 30
0.0
 10
5.7029227545
 20
3.3575379156
 30
0.0
 10
5.8900999895
 20
3.3594597207
 30
0.0
 10
6.0682709221
 20
3.3613804559
 30
0.0
 10
6.2357554021
 20
3.3632995755
 30
0.0
 10
6.3909737324
 20
3.3652166281
 30
0.0
 10
6.5119806108
 20
3.3668531953
 30
0.0
 10
6.6015656496
 20
3.3681743288
 30
0.0
 10
6.6629616244
 20
3.369137555
 30
0.0
 10
6.72028158
 20
3.3701002904
 30
0.0
 10
6.7733901671
 20
3.3710623484
 30
0.0
 10
6.8221622362
 20
3.3720237288
 30
0.0
 10
6.8664827586
 20
3.3729840901
 30
0.0
 10
6.9062471112
 20
3.3739428158
 30
0.0
 10
6.9413616493
 20
3.3748998642
 30
0.0
 10
6.9676777831
 20
3.375725579
 30
0.0
 10
6.9863448464
 20
3.3763955108
 30
0.0
 10
6.9985364366
 20
3.3768761867
 30
0.0
 10
7.009510265
 20
3.3773563102
 30
0.0
 10
7.0192601582
 20
3.3778356366
 30
0.0
 10
7.0277812078
 20
3.3783138752
 30
0.0
 10
7.0350690459
 20
3.3787901155
 30
0.0
 10
7.0411191545
 20
3.3792641281
 30
0.0
 10
7.0453838038
 20
3.3796783726
 30
0.0
 10
7.0481712817
 20
3.3800215438
 30
0.0
 10
7.0497969382
 20
3.3802591054
 30
0.0
 10
7.0511113499
 20
3.3804950948
 30
0.0
 10
7.0518798623
 20
3.3806724525
 30
0.0
 10
7.0522096834
 20
3.3807668164
 30
0.0
  0
LINE
  5
314
100
AcDbEntity
  8
0
100
AcDbLine
 62
7
  6
CONTINUOUS
 10
7.0522096834
 20
3.3807668164
 11
7.0530718736
 21
3.3810967519
  0
LINE
  5
315
100
AcDbEntity
  8
0
100
AcDbLine
 62
7
  6
CONTINUOUS
 10
2.8170368374
 20
3.9286439319
 11
2.8190007911
 21
3.9292362677
  0
SPLINE
  5
316
100
AcDbEntity
  8
0
100
AcDbSpline
 62
7
  6
CONTINUOUS
 70
0
 71
3
 72
73
 73
69
 74
0
 42
0.0000001
 43
0.0000001
 44
0.0000000001
 40
0.0
 40
0.0
 40
0.0
 40
0.0
 40
0.0003198189
 40
0.0007116836
 40
0.0017125014
 40
0.0030034074
 40
0.0045839304
 40
0.0064531941
 40
0.0086102053
 40
0.0110539099
 40
0.0137832185
 40
0.0200926271
 40
0.0275226411
 40
0.0360562476
 40
0.0456746982
 40
0.0563542764
 40
0.0680703363
 40
0.0807964688
 40
0.0945017228
 40
0.1247210625
 40
0.1584457393
 40
0.195361474
 40
0.2351225474
 40
0.277357031
 40
0.3216707234
 40
0.3676489259
 40
0.4148616604
 40
0.4628678343
 40
0.5112183394
 40
0.5594612176
 40
0.6071454519
 40
0.6538249663
 40
0.6990637163
 40
0.742438562
 40
0.7835436179
 40
0.8219952963
 40
0.840112381
 40
0.8574338313
 40
0.8739181519
 40
0.8895273743
 40
0.9042254762
 40
0.9179769594
 40
0.9307504165
 40
0.9425164443
 40
0.9532463071
 40
0.9629158523
 40
0.9715029227
 40
0.9753836774
 40
0.9789862116
 40
0.9823087226
 40
0.9853494178
 40
0.988106514
 40
0.9905782417
 40
0.9927629384
 40
0.994659602
 40
0.9962675662
 40
0.9975862742
 40
0.9981370522
 40
0.9986154319
 40
0.9990214708
 40
0.9993553316
 40
0.9994953129
 40
0.9996174383
 40
0.9997218616
 40
0.9998088293
 40
0.9998787702
 40
0.9999325195
 40
1.0
 40
1.0
 40
1.0
 40
1.0
 10
2.8190007911
 20
3.9292362677
 30
0.0
 10
2.8194431771
 20
3.9293265781
 30
0.0
 10
2.8204330474
 20
3.9295007285
 30
0.0
 10
2.8228262428
 20
3.9298450922
 30
0.0
 10
2.8265932647
 20
3.9302570557
 30
0.0
 10
2.8320398379
 20
3.9307274155
 30
0.0
 10
2.8387161015
 20
3.9312004099
 30
0.0
 10
2.8466173859
 20
3.9316759527
 30
0.0
 10
2.8557391227
 20
3.9321527508
 30
0.0
 10
2.8660764265
 20
3.9326305807
 30
0.0
 10
2.8822731093
 20
3.9333013553
 30
0.0
 10
2.9055087427
 20
3.9341246916
 30
0.0
 10
2.9369387953
 20
3.9350756667
 30
0.0
 10
2.973042235
 20
3.9360290577
 30
0.0
 10
3.0137346531
 20
3.9369842457
 30
0.0
 10
3.0589210321
 20
3.9379408234
 30
0.0
 10
3.1084956054
 20
3.9388983675
 30
0.0
 10
3.1623424479
 20
3.939856558
 30
0.0
 10
3.2423092313
 20
3.941178437
 30
0.0
 10
3.3519198952
 20
3.9428120318
 30
0.0
 10
3.494297751
 20
3.9447185226
 30
0.0
 10
3.6501473853
 20
3.9466276632
 30
0.0
 10
3.8180116944
 20
3.9485389731
 30
0.0
 10
3.9963208209
 20
3.9504517612
 30
0.0
 10
4.1834075587
 20
3.9523655836
 30
0.0
 10
4.3775227769
 20
3.9542801643
 30
0.0
 10
4.5768511632
 20
3.9561952619
 30
0.0
 10
4.7795288392
 20
3.9581106476
 30
0.0
 10
4.9836609019
 20
3.960026172
 30
0.0
 10
5.1873384411
 20
3.9619416546
 30
0.0
 10
5.3886568258
 20
3.9638569184
 30
0.0
 10
5.5857338871
 20
3.9657718022
 30
0.0
 10
5.7767268027
 20
3.967686063
 30
0.0
 10
5.9598494763
 20
3.9695994075
 30
0.0
 10
6.1333898423
 20
3.9715116174
 30
0.0
 10
6.2712731039
 20
3.973134088
 30
0.0
 10
6.3755807777
 20
3.974440511
 30
0.0
 10
6.4488775293
 20
3.9754005503
 30
0.0
 10
6.5186334454
 20
3.9763604045
 30
0.0
 10
6.5846854373
 20
3.9773199912
 30
0.0
 10
6.6468788724
 20
3.9782791614
 30
0.0
 10
6.7050683642
 20
3.9792379846
 30
0.0
 10
6.759117856
 20
3.9801962627
 30
0.0
 10
6.8089008133
 20
3.9811537441
 30
0.0
 10
6.8543009065
 20
3.9821103704
 30
0.0
 10
6.8952119777
 20
3.9830658128
 30
0.0
 10
6.9264541264
 20
3.9838855827
 30
0.0
 10
6.949132095
 20
3.9845478622
 30
0.0
 10
6.9643798537
 20
3.9850274534
 30
0.0
 10
6.9784410214
 20
3.9855067425
 30
0.0
 10
6.9913078889
 20
3.9859856715
 30
0.0
 10
7.002972758
 20
3.9864641225
 30
0.0
 10
7.0134280685
 20
3.9869418995
 30
0.0
 10
7.0226672686
 20
3.9874188683
 30
0.0
 10
7.0306853044
 20
3.9878944177
 30
0.0
 10
7.0374783506
 20
3.9883682578
 30
0.0
 10
7.0423706812
 20
3.9887808927
 30
0.0
 10
7.0456680609
 20
3.9891196265
 30
0.0
 10
7.0476803268
 20
3.9893575153
 30
0.0
 10
7.0493839733
 20
3.9895945726
 30
0.0
 10
7.0506092073
 20
3.9898009723
 30
0.0
 10
7.0514335078
 20
3.9899702617
 30
0.0
 10
7.0519370804
 20
3.9900892776
 30
0.0
 10
7.0523638725
 20
3.9902083598
 30
0.0
 10
7.0527128905
 20
3.9903257192
 30
0.0
 10
7.0529884547
 20
3.9904458939
 30
0.0
 10
7.0532161699
 20
3.9905760642
 30
0.0
 10
7.0533527871
 20
3.9907250759
 30
0.0
 10
7.0533525928
 20
3.9908203425
 30
0.0
  0
SPLINE
  5
317
100
AcDbEntity
  8
0
100
AcDbSpline
 62
7
  6
CONTINUOUS
 70
0
 71
3
 72
69
 73
65
 74
0
 42
0.0000001
 43
0.0000001
 44
0.0000000001
 40
0.0
 40
0.0
 40
0.0
 40
0.0
 40
0.0000664025
 40
0.0001189751
 40
0.0001872699
 40
0.0002721154
 40
0.0003739379
 40
0.0004929821
 40
0.0006294009
 40
0.0009547226
 40
0.0013503815
 40
0.0018165414
 40
0.0023532568
 40
0.0036382982
 40
0.0052051854
 40
0.0070533347
 40
0.009182054
 40
0.0115905342
 40
0.0142773619
 40
0.0172407856
 40
0.0204790364
 40
0.0239903364
 40
0.0277729008
 40
0.0361438616
 40
0.0455720142
 40
0.0560356566
 40
0.0675122952
 40
0.0799749387
 40
0.0933949629
 40
0.1077430157
 40
0.1229856279
 40
0.1390878658
 40
0.1560141392
 40
0.1737252005
 40
0.2113390246
 40
0.2515876026
 40
0.29410533
 40
0.3385047866
 40
0.3843824318
 40
0.4313211364
 40
0.4788936072
 40
0.5266673806
 40
0.5742077476
 40
0.6210823132
 40
0.666864907
 40
0.7111386113
 40
0.7535011364
 40
0.7935673286
 40
0.8309719936
 40
0.865375692
 40
0.896465675
 40
0.9239582302
 40
0.9362768336
 40
0.9476044849
 40
0.9579165822
 40
0.9671897329
 40
0.9754017242
 40
0.9825351969
 40
0.9885741095
 40
0.9935037774
 40
0.9955496285
 40
0.997314856
 40
0.9987985662
 40
1.0
 40
1.0
 40
1.0
 40
1.0
 10
2.8167564063
 20
2.818920341
 30
0.0
 10
2.8167562719
 20
2.8190139514
 30
0.0
 10
2.8168884692
 20
2.8191607902
 30
0.0
 10
2.8171106652
 20
2.8192896281
 30
0.0
 10
2.8173787056
 20
2.8194081386
 30
0.0
 10
2.8177182744
 20
2.8195239369
 30
0.0
 10
2.8181334141
 20
2.819641393
 30
0.0
 10
2.8186232192
 20
2.8197587905
 30
0.0
 10
2.8194249055
 20
2.8199257668
 30
0.0
 10
2.8206166636
 20
2.820129362
 30
0.0
 10
2.8222739461
 20
2.8203631758
 30
0.0
 10
2.8242316225
 20
2.8205978133
 30
0.0
 10
2.8274397371
 20
2.8209319156
 30
0.0
 10
2.8321998342
 20
2.8213389064
 30
0.0
 10
2.8388093526
 20
2.8218062664
 30
0.0
 10
2.8466106536
 20
2.8222753118
 30
0.0
 10
2.8556001131
 20
2.8227457832
 30
0.0
 10
2.8657732734
 20
2.823217047
 30
0.0
 10
2.8771242407
 20
2.8236889486
 30
0.0
 10
2.8896458614
 20
2.8241613273
 30
0.0
 10
2.9033305138
 20
2.8246340616
 30
0.0
 10
2.9181705657
 20
2.8251070932
 30
0.0
 10
2.9402442914
 20
2.8257603745
 30
0.0
 10
2.9706582277
 20
2.8265689822
 30
0.0
 10
3.0104903392
 20
2.8275113331
 30
0.0
 10
3.0547017284
 20
2.8284549238
 30
0.0
 10
3.1031918312
 20
2.8293993419
 30
0.0
 10
3.1558503813
 20
2.8303444972
 30
0.0
 10
3.2125574782
 20
2.8312902511
 30
0.0
 10
3.2731841178
 20
2.8322363322
 30
0.0
 10
3.3375924147
 20
2.8331827857
 30
0.0
 10
3.405635705
 20
2.8341295539
 30
0.0
 10
3.4771591908
 20
2.8350764901
 30
0.0
 10
3.5790065949
 20
2.8363653369
 30
0.0
 10
3.7137311118
 20
2.8379660817
 30
0.0
 10
3.8834256669
 20
2.8398522651
 30
0.0
 10
4.0626867626
 20
2.8417395845
 30
0.0
 10
4.2498838035
 20
2.843627843
 30
0.0
 10
4.4433135844
 20
2.845516712
 30
0.0
 10
4.6412167026
 20
2.8474059818
 30
0.0
 10
4.841792991
 20
2.8492955021
 30
0.0
 10
5.0432175054
 20
2.8511850821
 30
0.0
 10
5.2436581103
 20
2.8530745838
 30
0.0
 10
5.4412915408
 20
2.8549638459
 30
0.0
 10
5.6343196072
 20
2.8568526608
 30
0.0
 10
5.8209865504
 20
2.8587408587
 30
0.0
 10
5.9995944192
 20
2.8606281455
 30
0.0
 10
6.1685181576
 20
2.8625141238
 30
0.0
 10
6.3262212748
 20
2.8643984149
 30
0.0
 10
6.4712693122
 20
2.8662801214
 30
0.0
 10
6.6023425806
 20
2.8681584678
 30
0.0
 10
6.7022820154
 20
2.8697727027
 30
0.0
 10
6.7743627352
 20
2.8710811525
 30
0.0
 10
6.8222259861
 20
2.872025601
 30
0.0
 10
6.8657950442
 20
2.8729689928
 30
0.0
 10
6.9049707297
 20
2.8739109388
 30
0.0
 10
6.9396639673
 20
2.8748512501
 30
0.0
 10
6.969795993
 20
2.8757884321
 30
0.0
 10
6.99529828
 20
2.876721802
 30
0.0
 10
7.0136276258
 20
2.8775352881
 30
0.0
 10
7.0259317464
 20
2.8782044289
 30
0.0
 10
7.0333814544
 20
2.8786730358
 30
0.0
 10
7.0396380985
 20
2.8791394515
 30
0.0
 10
7.0434081833
 20
2.8794834177
 30
0.0
 10
7.0450923823
 20
2.8796626837
 30
0.0
  0
SPLINE
  5
318
100
AcDbEntity
  8
0
100
AcDbSpline
 62
7
  6
CONTINUOUS
 70
0
 71
3
 72
14
 73
10
 74
0
 42
0.0000001
 43
0.0000001
 44
0.0000000001
 40
0.0
 40
0.0
 40
0.0
 40
0.0
 40
0.3745362751
 40
0.5304121592
 40
0.6654242717
 40
0.7796595195
 40
0.8732648867
 40
0.9465144525
 40
1.0
 40
1.0
 40
1.0
 40
1.0
 10
7.0450923823
 20
2.8796626837
 30
0.0
 10
7.0461020736
 20
2.8797701552
 30
0.0
 10
7.0475308314
 20
2.8799349974
 30
0.0
 10
7.0493171394
 20
2.8801877116
 30
0.0
 10
7.0504012018
 20
2.8803649659
 30
0.0
 10
7.0513138753
 20
2.880541515
 30
0.0
 10
7.0520560212
 20
2.8807168728
 30
0.0
 10
7.0526275696
 20
2.8808906811
 30
0.0
 10
7.0529462642
 20
2.8810242448
 30
0.0
 10
7.0530718376
 20
2.8810967516
 30
0.0
  0
SPLINE
  5
319
100
AcDbEntity
  8
0
100
AcDbSpline
 62
7
  6
CONTINUOUS
 70
0
 71
3
 72
62
 73
58
 74
0
 42
0.0000001
 43
0.0000001
 44
0.0000000001
 40
0.0
 40
0.0
 40
0.0
 40
0.0
 40
0.0000308317
 40
0.0000768887
 40
0.0001391498
 40
0.0002179881
 40
0.0004259966
 40
0.000701596
 40
0.0010450065
 40
0.0014563106
 40
0.0019355313
 40
0.0024826618
 40
0.0030976781
 40
0.0037805465
 40
0.0053496716
 40
0.0071895788
 40
0.0092991913
 40
0.011677198
 40
0.0143222756
 40
0.0172330937
 40
0.020408317
 40
0.0238465488
 40
0.0275458586
 40
0.0357188418
 40
0.0449095055
 40
0.0550994928
 40
0.0662662333
 40
0.0783852935
 40
0.0914318033
 40
0.1053771203
 40
0.1201906289
 40
0.1358413953
 40
0.1695159442
 40
0.2061096443
 40
0.2453044008
 40
0.286760487
 40
0.3301169953
 40
0.3749955464
 40
0.4210047198
 40
0.4677417654
 40
0.5147971679
 40
0.5617580494
 40
0.6537483385
 40
0.7404767151
 40
0.7809016621
 40
0.8188826446
 40
0.8540826527
 40
0.8861888158
 40
0.9149136367
 40
0.9400010613
 40
0.9612265222
 40
0.9703291787
 40
0.9783978817
 40
0.9854142886
 40
0.9913613801
 40
0.996226953
 40
1.0
 40
1.0
 40
1.0
 40
1.0
 10
7.1040089181
 20
2.8365749119
 30
0.0
 10
7.103977825
 20
2.8365438188
 30
0.0
 10
7.1038807974
 20
2.836487882
 30
0.0
 10
7.1036955084
 20
2.8364180545
 30
0.0
 10
7.1034376314
 20
2.8363469651
 30
0.0
 10
7.1029510827
 20
2.8362414102
 30
0.0
 10
7.1021581314
 20
2.8361162768
 30
0.0
 10
7.1009873081
 20
2.8359735615
 30
0.0
 10
7.0995247627
 20
2.8358299122
 30
0.0
 10
7.0977708448
 20
2.8356852875
 30
0.0
 10
7.0957255551
 20
2.8355402056
 30
0.0
 10
7.0933891346
 20
2.835394762
 30
0.0
 10
7.0907617879
 20
2.8352490684
 30
0.0
 10
7.0866779295
 20
2.8350449985
 30
0.0
 10
7.0808473846
 20
2.8347939868
 30
0.0
 10
7.0729819932
 20
2.8345039028
 30
0.0
 10
7.0639623141
 20
2.834213152
 30
0.0
 10
7.0537937957
 20
2.8339218394
 30
0.0
 10
7.0424821875
 20
2.8336301433
 30
0.0
 10
7.0300332536
 20
2.8333381402
 30
0.0
 10
7.0164528428
 20
2.8330458959
 30
0.0
 10
7.0017476476
 20
2.8327534554
 30
0.0
 10
6.9799154561
 20
2.8323497629
 30
0.0
 10
6.9498795389
 20
2.8318497248
 30
0.0
 10
6.9105867724
 20
2.8312665983
 30
0.0
 10
6.8670238887
 20
2.8306827158
 30
0.0
 10
6.8192841877
 20
2.8300980882
 30
0.0
 10
6.767470233
 20
2.829512846
 30
0.0
 10
6.711693235
 20
2.8289271749
 30
0.0
 10
6.6520732135
 20
2.8283410853
 30
0.0
 10
6.5887388288
 20
2.8277545772
 30
0.0
 10
6.4972673538
 20
2.8269524954
 30
0.0
 10
6.3747334188
 20
2.8259571354
 30
0.0
 10
6.2186213139
 20
2.8247878989
 30
0.0
 10
6.0514108794
 20
2.8236169963
 30
0.0
 10
5.8745550947
 20
2.8224447028
 30
0.0
 10
5.6895929032
 20
2.8212712288
 30
0.0
 10
5.4981369655
 20
2.8200967076
 30
0.0
 10
5.3018596125
 20
2.8189212981
 30
0.0
 10
5.1024775778
 20
2.8177450795
 30
0.0
 10
4.9017381947
 20
2.8165681663
 30
0.0
 10
4.6364596287
 20
2.8150088565
 30
0.0
 10
4.3146005083
 20
2.8130853343
 30
0.0
 10
4.002063455
 20
2.8111072483
 30
0.0
 10
3.7665538938
 20
2.8094974558
 30
0.0
 10
3.6045330357
 20
2.8083187654
 30
0.0
 10
3.4543767818
 20
2.8071407931
 30
0.0
 10
3.3174221249
 20
2.8059639944
 30
0.0
 10
3.1948906246
 20
2.804789415
 30
0.0
 10
3.0878779956
 20
2.8036177906
 30
0.0
 10
3.0088506127
 20
2.8026020454
 30
0.0
 10
2.9540952313
 20
2.801770969
 30
0.0
 10
2.9196035784
 20
2.8011810542
 30
0.0
 10
2.8896131244
 20
2.8005927848
 30
0.0
 10
2.8641918963
 20
2.8000072831
 30
0.0
 10
2.8433977976
 20
2.7994253971
 30
0.0
 10
2.8310847889
 20
2.7989893382
 30
0.0
 10
2.8257086902
 20
2.7987566667
 30
0.0
  0
SPLINE
  5
31A
100
AcDbEntity
  8
0
100
AcDbSpline
 62
7
  6
CONTINUOUS
 70
0
 71
3
 72
18
 73
14
 74
0
 42
0.0000001
 43
0.0000001
 44
0.0000000001
 40
0.0
 40
0.0
 40
0.0
 40
0.0
 40
0.2180372922
 40
0.4094812312
 40
0.5743121785
 40
0.7125165071
 40
0.824092358
 40
0.8699018661
 40
0.9090680934
 40
0.9416065089
 40
0.9675473451
 40
0.9869555789
 40
1.0
 40
1.0
 40
1.0
 40
1.0
 10
2.8257086902
 20
2.7987566667
 30
0.0
 10
2.8242561294
 20
2.7986938015
 30
0.0
 10
2.8215284343
 20
2.7985694586
 30
0.0
 10
2.817703903
 20
2.7983712013
 30
0.0
 10
2.8144124713
 20
2.7981736377
 30
0.0
 10
2.8116547143
 20
2.7979768787
 30
0.0
 10
2.8096909581
 20
2.7978051769
 30
0.0
 10
2.808387946
 20
2.7976636134
 30
0.0
 10
2.8076104717
 20
2.7975649172
 30
0.0
 10
2.8069668373
 20
2.7974667048
 30
0.0
 10
2.8064560819
 20
2.7973697071
 30
0.0
 10
2.8060791453
 20
2.7972737582
 30
0.0
 10
2.8058740137
 20
2.7971989373
 30
0.0
 10
2.8057986153
 20
2.7971555654
 30
0.0
  0
SPLINE
  5
31B
100
AcDbEntity
  8
0
100
AcDbSpline
 62
7
  6
CONTINUOUS
 70
0
 71
3
 72
29
 73
25
 74
0
 42
0.0000001
 43
0.0000001
 44
0.0000000001
 40
0.0
 40
0.0
 40
0.0
 40
0.0
 40
0.1941624779
 40
0.3809549412
 40
0.4692214036
 40
0.5529724254
 40
0.6314287328
 40
0.703835954
 40
0.7694729708
 40
0.8277465162
 40
0.878099671
 40
0.9001514851
 40
0.9200604082
 40
0.9377858268
 40
0.9532891703
 40
0.9665355786
 40
0.9775074185
 40
0.9862164639
 40
0.9897354572
 40
0.9927105936
 40
0.9951624793
 40
0.9971299764
 40
0.9986908018
 40
1.0
 40
1.0
 40
1.0
 40
1.0
 10
2.1224003844
 20
5.6063400269
 30
0.0
 10
2.1146253399
 20
5.6059336702
 30
0.0
 10
2.0993662399
 20
5.6052135385
 30
0.0
 10
2.0805633618
 20
5.6045225552
 30
0.0
 10
2.0661809855
 20
5.6041244295
 30
0.0
 10
2.0561394763
 20
5.6039124649
 30
0.0
 10
2.0467325409
 20
5.6037829865
 30
0.0
 10
2.0380511621
 20
5.6037367786
 30
0.0
 10
2.0301789992
 20
5.603774692
 30
0.0
 10
2.0231921057
 20
5.6038952712
 30
0.0
 10
2.0179545829
 20
5.6040691386
 30
0.0
 10
2.0142575804
 20
5.6042566865
 30
0.0
 10
2.0118691202
 20
5.6044107517
 30
0.0
 10
2.0097452798
 20
5.6045838804
 30
0.0
 10
2.0078914031
 20
5.6047755216
 30
0.0
 10
2.0063120642
 20
5.6049848176
 30
0.0
 10
2.0050109672
 20
5.6052112828
 30
0.0
 10
2.0041041895
 20
5.6054243176
 30
0.0
 10
2.0035234162
 20
5.6056108296
 30
0.0
 10
2.0031900914
 20
5.605744448
 30
0.0
 10
2.0029264933
 20
5.6058817965
 30
0.0
 10
2.0027317666
 20
5.6060238577
 30
0.0
 10
2.0026039869
 20
5.606173637
 30
0.0
 10
2.0025675877
 20
5.6062876018
 30
0.0
 10
2.0025648402
 20
5.6063400269
 30
0.0
  0
SPLINE
  5
31C
100
AcDbEntity
  8
0
100
AcDbSpline
 62
7
  6
CONTINUOUS
 70
0
 71
3
 72
80
 73
76
 74
0
 42
0.0000001
 43
0.0000001
 44
0.0000000001
 40
0.0
 40
0.0
 40
0.0
 40
0.0
 40
0.0000636304
 40
0.0001444521
 40
0.0003594508
 40
0.0006470309
 40
0.0010078914
 40
0.0014423461
 40
0.0019505452
 40
0.0025325577
 40
0.0031884087
 40
0.0047215928
 40
0.0065497389
 40
0.0086716875
 40
0.0110860709
 40
0.0137914835
 40
0.0167864971
 40
0.0200696535
 40
0.0236390525
 40
0.0316269787
 40
0.0407309179
 40
0.0509304519
 40
0.0622003049
 40
0.0745137
 40
0.0878422021
 40
0.1021529535
 40
0.1174123183
 40
0.133584348
 40
0.1506295659
 40
0.187177137
 40
0.2267062194
 40
0.2688403281
 40
0.3131780387
 40
0.3592962313
 40
0.406755316
 40
0.4551030485
 40
0.5038783096
 40
0.5526161122
 40
0.6008519315
 40
0.6481256704
 40
0.6939867442
 40
0.7379981698
 40
0.779740043
 40
0.8188143114
 40
0.8372340534
 40
0.8548489964
 40
0.8716177456
 40
0.8875005154
 40
0.9024585088
 40
0.9164570443
 40
0.9294625348
 40
0.9414432616
 40
0.9523718318
 40
0.9622215475
 40
0.9709687077
 40
0.9749226563
 40
0.9785936174
 40
0.981979173
 40
0.9850771739
 40
0.9878860874
 40
0.9904044791
 40
0.9926309342
 40
0.9945640691
 40
0.996202589
 40
0.9975458266
 40
0.9985937409
 40
0.9990071012
 40
0.9993469347
 40
0.9994893984
 40
0.9996136598
 40
0.9997198524
 40
0.9998081962
 40
0.9998790838
 40
0.9999332969
 40
1.0
 40
1.0
 40
1.0
 40
1.0
 10
2.7403254377
 20
3.5093498607
 30
0.0
 10
2.7404061306
 20
3.509396353
 30
0.0
 10
2.7405986414
 20
3.5094854516
 30
0.0
 10
2.7410947928
 20
3.509661243
 30
0.0
 10
2.741924543
 20
3.5098689512
 30
0.0
 10
2.7431659947
 20
3.5101054237
 30
0.0
 10
2.7447333017
 20
3.5103434506
 30
0.0
 10
2.7466260659
 20
3.5105831531
 30
0.0
 10
2.7488446506
 20
3.5108236189
 30
0.0
 10
2.7513888088
 20
3.5110647261
 30
0.0
 10
2.7554302509
 20
3.5114046578
 30
0.0
 10
2.7612951701
 20
3.5118211581
 30
0.0
 10
2.7693061322
 20
3.5123009541
 30
0.0
 10
2.7786087114
 20
3.5127820808
 30
0.0
 10
2.7891966648
 20
3.5132643006
 30
0.0
 10
2.8010635618
 20
3.513747219
 30
0.0
 10
2.8142028984
 20
3.5142306687
 30
0.0
 10
2.8286075101
 20
3.5147145206
 30
0.0
 10
2.850317412
 20
3.5153854929
 30
0.0
 10
2.8805455677
 20
3.5162145498
 30
0.0
 10
2.9204771625
 20
3.5171782762
 30
0.0
 10
2.9652133354
 20
3.5181433139
 30
0.0
 10
3.0146477566
 20
3.5191096424
 30
0.0
 10
3.0686624551
 20
3.5200768451
 30
0.0
 10
3.1271283993
 20
3.5210446108
 30
0.0
 10
3.1899065463
 20
3.5220129702
 30
0.0
 10
3.2568468826
 20
3.5229817114
 30
0.0
 10
3.3277897217
 20
3.523950743
 30
0.0
 10
3.4298876168
 20
3.5252741579
 30
0.0
 10
3.5661691623
 20
3.5269158039
 30
0.0
 10
3.7391694477
 20
3.5288452513
 30
0.0
 10
3.9235718782
 20
3.5307762387
 30
0.0
 10
4.117618491
 20
3.532708419
 30
0.0
 10
4.3194589983
 20
3.5346414406
 30
0.0
 10
4.527168752
 20
3.5365750351
 30
0.0
 10
4.7387675018
 20
3.5385089701
 30
0.0
 10
4.9522378345
 20
3.5404430736
 30
0.0
 10
5.1655443666
 20
3.5423771657
 30
0.0
 10
5.3766532103
 20
3.5443110569
 30
0.0
 10
5.5835515528
 20
3.5462445712
 30
0.0
 10
5.7842668822
 20
3.5481774871
 30
0.0
 10
5.9768854994
 20
3.5501094885
 30
0.0
 10
6.159570566
 20
3.5520403014
 30
0.0
 10
6.3048011033
 20
3.5536784302
 30
0.0
 10
6.4147212346
 20
3.5549973487
 30
0.0
 10
6.4919972622
 20
3.555966843
 30
0.0
 10
6.5655599229
 20
3.5569360849
 30
0.0
 10
6.6352335725
 20
3.5579049997
 30
0.0
 10
6.7008523796
 20
3.5588736532
 30
0.0
 10
6.7622595754
 20
3.5598418299
 30
0.0
 10
6.8193087316
 20
3.5608094126
 30
0.0
 10
6.8718640594
 20
3.5617763961
 30
0.0
 10
6.9197998296
 20
3.5627423068
 30
0.0
 10
6.9630019801
 20
3.563707045
 30
0.0
 10
6.9959966182
 20
3.5645349761
 30
0.0
 10
7.0199491511
 20
3.5652036937
 30
0.0
 10
7.0360565963
 20
3.5656879393
 30
0.0
 10
7.050910693
 20
3.5661718725
 30
0.0
 10
7.0645023989
 20
3.5666554803
 30
0.0
 10
7.0768240825
 20
3.5671386065
 30
0.0
 10
7.0878691323
 20
3.567621103
 30
0.0
 10
7.0976311013
 20
3.5681026655
 30
0.0
 10
7.1061035791
 20
3.5685830121
 30
0.0
 10
7.1132812362
 20
3.569061025
 30
0.0
 10
7.1191599156
 20
3.5695366404
 30
0.0
 10
7.1232441488
 20
3.5699528538
 30
0.0
 10
7.1258574433
 20
3.5703000796
 30
0.0
 10
7.1271519211
 20
3.5705085689
 30
0.0
 10
7.1280232013
 20
3.5706795058
 30
0.0
 10
7.1285555738
 20
3.5707996474
 30
0.0
 10
7.129006967
 20
3.5709198652
 30
0.0
 10
7.1293760163
 20
3.5710382096
 30
0.0
 10
7.1296678879
 20
3.5711595618
 30
0.0
 10
7.1299066017
 20
3.5712895016
 30
0.0
 10
7.1300543478
 20
3.5714399507
 30
0.0
 10
7.1300543478
 20
3.571537576
 30
0.0
  0
SPLINE
  5
31D
100
AcDbEntity
  8
0
100
AcDbSpline
 62
7
  6
CONTINUOUS
 70
0
 71
3
 72
12
 73
8
 74
0
 42
0.0000001
 43
0.0000001
 44
0.0000000001
 40
0.0
 40
0.0
 40
0.0
 40
0.0
 40
0.0599523331
 40
0.1378330777
 40
0.3492733251
 40
0.6364231183
 40
1.0
 40
1.0
 40
1.0
 40
1.0
 10
2.817036673
 20
3.5536439311
 30
0.0
 10
2.8171314485
 20
3.553698698
 30
0.0
 10
2.8173617542
 20
3.5538026248
 30
0.0
 10
2.8179660147
 20
3.5540073902
 30
0.0
 10
2.8189927363
 20
3.5542475788
 30
0.0
 10
2.820542871
 20
3.5545212499
 30
0.0
 10
2.8217199222
 20
3.5546854315
 30
0.0
 10
2.822378291
 20
3.5547703417
 30
0.0
  0
SPLINE
  5
31E
100
AcDbEntity
  8
0
100
AcDbSpline
 62
7
  6
CONTINUOUS
 70
0
 71
3
 72
70
 73
66
 74
0
 42
0.0000001
 43
0.0000001
 44
0.0000000001
 40
0.0
 40
0.0
 40
0.0
 40
0.0
 40
0.0010236513
 40
0.0023323765
 40
0.0039256729
 40
0.0058028138
 40
0.0079629662
 40
0.0104052412
 40
0.0161310846
 40
0.0229662922
 40
0.0308954223
 40
0.039901581
 40
0.0499629184
 40
0.0610564602
 40
0.073157859
 40
0.1002674492
 40
0.131043858
 40
0.1652034384
 40
0.2024324065
 40
0.2423895471
 40
0.2847070171
 40
0.3289960638
 40
0.3748502364
 40
0.4218477515
 40
0.4695569208
 40
0.5175394872
 40
0.5653543667
 40
0.6125624752
 40
0.6587297745
 40
0.7034320968
 40
0.746259126
 40
0.7868167539
 40
0.8247325571
 40
0.8425901863
 40
0.8596587761
 40
0.8758987027
 40
0.891273658
 40
0.9057476943
 40
0.9192871373
 40
0.9318620099
 40
0.9434427232
 40
0.9540022701
 40
0.9635176392
 40
0.9719662358
 40
0.97578409
 40
0.9793283384
 40
0.9825970892
 40
0.9855884567
 40
0.9883005649
 40
0.9907316168
 40
0.992880422
 40
0.9947461335
 40
0.9963279647
 40
0.9976252374
 40
0.9981670217
 40
0.9986375371
 40
0.9990368298
 40
0.9993651143
 40
0.9995027783
 40
0.9996229091
 40
0.9997256581
 40
0.9998112689
 40
0.9998801666
 40
0.9999331794
 40
1.0
 40
1.0
 40
1.0
 40
1.0
 10
2.822378291
 20
3.5547703417
 30
0.0
 10
2.8238104207
 20
3.5549550442
 30
0.0
 10
2.8270826754
 20
3.5553036546
 30
0.0
 10
2.8326007874
 20
3.5557702521
 30
0.0
 10
2.8393262591
 20
3.5562396588
 30
0.0
 10
2.8472549957
 20
3.5567112619
 30
0.0
 10
2.8563830881
 20
3.5571841592
 30
0.0
 10
2.8709371955
 20
3.557851742
 30
0.0
 10
2.8920857824
 20
3.5586685668
 30
0.0
 10
2.9209745726
 20
3.5596098046
 30
0.0
 10
2.9544926958
 20
3.5605538798
 30
0.0
 10
2.9925631849
 20
3.561500093
 30
0.0
 10
3.0350986691
 20
3.5624478503
 30
0.0
 10
3.0820013331
 20
3.5633967957
 30
0.0
 10
3.1529501246
 20
3.5647133103
 30
0.0
 10
3.251663066
 20
3.5663363987
 30
0.0
 10
3.3814914704
 20
3.5682235006
 30
0.0
 10
3.5255958535
 20
3.5701141801
 30
0.0
 10
3.6826518065
 20
3.5720076235
 30
0.0
 10
3.8512162588
 20
3.5739028558
 30
0.0
 10
4.0297404295
 20
3.5757994674
 30
0.0
 10
4.2165835539
 20
3.5776970471
 30
0.0
 10
4.4100288009
 20
3.5795952795
 30
0.0
 10
4.608298789
 20
3.581493985
 30
0.0
 10
4.8095712813
 20
3.5833929549
 30
0.0
 10
5.0119968205
 20
3.5852920155
 30
0.0
 10
5.2137155188
 20
3.5871910295
 30
0.0
 10
5.4128734386
 20
3.5890898038
 30
0.0
 10
5.6076404993
 20
3.5909881763
 30
0.0
 10
5.7962271919
 20
3.5928859473
 30
0.0
 10
5.9769003203
 20
3.5947827817
 30
0.0
 10
6.1479996539
 20
3.5966784613
 30
0.0
 10
6.2838774406
 20
3.5982871788
 30
0.0
 10
6.3866222762
 20
3.5995824229
 30
0.0
 10
6.4587924026
 20
3.6005341628
 30
0.0
 10
6.5274600832
 20
3.6014857217
 30
0.0
 10
6.5924674493
 20
3.6024369485
 30
0.0
 10
6.6536650121
 20
3.6033878344
 30
0.0
 10
6.7109121989
 20
3.6043383745
 30
0.0
 10
6.7640773929
 20
3.6052882895
 30
0.0
 10
6.8130383523
 20
3.606237512
 30
0.0
 10
6.8576826297
 20
3.6071858797
 30
0.0
 10
6.8979075864
 20
3.6081329644
 30
0.0
 10
6.9286229484
 20
3.6089456836
 30
0.0
 10
6.950916312
 20
3.6096022664
 30
0.0
 10
6.9659049682
 20
3.610077689
 30
0.0
 10
6.9797271376
 20
3.6105528121
 30
0.0
 10
6.992374729
 20
3.6110275772
 30
0.0
 10
7.0038397489
 20
3.6115018601
 30
0.0
 10
7.0141151362
 20
3.6119755403
 30
0.0
 10
7.0231951942
 20
3.6124483941
 30
0.0
 10
7.0310755902
 20
3.6129198078
 30
0.0
 10
7.0377523775
 20
3.6133895243
 30
0.0
 10
7.0425609599
 20
3.6137985645
 30
0.0
 10
7.045801647
 20
3.6141343623
 30
0.0
 10
7.0477789807
 20
3.6143701794
 30
0.0
 10
7.0494527586
 20
3.6146051866
 30
0.0
 10
7.0506563294
 20
3.6148098261
 30
0.0
 10
7.0514659947
 20
3.6149776458
 30
0.0
 10
7.0519607067
 20
3.6150956359
 30
0.0
 10
7.05238004
 20
3.6152136861
 30
0.0
 10
7.0527230489
 20
3.6153300597
 30
0.0
 10
7.0529938722
 20
3.6154491715
 30
0.0
 10
7.0532181631
 20
3.6155785246
 30
0.0
 10
7.053352096
 20
3.6157260829
 30
0.0
 10
7.0533520541
 20
3.6158203419
 30
0.0
  0
SPLINE
  5
31F
100
AcDbEntity
  8
0
100
AcDbSpline
 62
7
  6
CONTINUOUS
 70
0
 71
3
 72
80
 73
76
 74
0
 42
0.0000001
 43
0.0000001
 44
0.0000000001
 40
0.0
 40
0.0
 40
0.0
 40
0.0
 40
0.0000636317
 40
0.0001444549
 40
0.0003594569
 40
0.0006470399
 40
0.0010079025
 40
0.0014423576
 40
0.001950555
 40
0.0025325631
 40
0.0031884063
 40
0.0047215628
 40
0.0065496863
 40
0.0086716298
 40
0.0110860119
 40
0.0137914137
 40
0.016786393
 40
0.0200694862
 40
0.0236388503
 40
0.0316267586
 40
0.0407306036
 40
0.0509300138
 40
0.0621998372
 40
0.0745130724
 40
0.0878414545
 40
0.1021521582
 40
0.1174113058
 40
0.1335832307
 40
0.1506283735
 40
0.1871756039
 40
0.2267043229
 40
0.2688382003
 40
0.3131756021
 40
0.3592934364
 40
0.4067522553
 40
0.4550997464
 40
0.5038747443
 40
0.5526123792
 40
0.6008480208
 40
0.6481216118
 40
0.693982719
 40
0.7379941778
 40
0.7797359484
 40
0.8188104589
 40
0.8372301805
 40
0.8548455217
 40
0.8716141785
 40
0.8874970601
 40
0.9024554951
 40
0.9164539074
 40
0.9294597134
 40
0.9414408395
 40
0.9523692925
 40
0.9622195556
 40
0.9709669809
 40
0.9749208435
 40
0.9785918156
 40
0.9819776609
 40
0.9850761494
 40
0.9878852672
 40
0.9904036453
 40
0.9926300541
 40
0.9945632952
 40
0.9962022241
 40
0.9975458138
 40
0.9985937185
 40
0.9990070048
 40
0.9993467598
 40
0.9994891923
 40
0.999613433
 40
0.9997196191
 40
0.9998079742
 40
0.9998788942
 40
0.9999331614
 40
1.0
 40
1.0
 40
1.0
 40
1.0
 10
7.1297832438
 20
2.9253908226
 30
0.0
 10
7.1297025483
 20
2.9253443311
 30
0.0
 10
7.1295100325
 20
2.925255234
 30
0.0
 10
7.129013871
 20
2.9250794456
 30
0.0
 10
7.128184109
 20
2.9248717402
 30
0.0
 10
7.1269426453
 20
2.9246352702
 30
0.0
 10
7.1253753307
 20
2.9243972454
 30
0.0
 10
7.1234825662
 20
2.9241575444
 30
0.0
 10
7.1212639907
 20
2.9239170795
 30
0.0
 10
7.1187198542
 20
2.9236759728
 30
0.0
 10
7.1146784725
 20
2.9233360419
 30
0.0
 10
7.1088136417
 20
2.9229195363
 30
0.0
 10
7.100802765
 20
2.9224397375
 30
0.0
 10
7.0915002328
 20
2.9219586125
 30
0.0
 10
7.0809123099
 20
2.9214763945
 30
0.0
 10
7.0690454869
 20
2.920993479
 30
0.0
 10
7.0559063155
 20
2.920510033
 30
0.0
 10
7.0415019048
 20
2.9200261807
 30
0.0
 10
7.0197921833
 20
2.9193552144
 30
0.0
 10
6.9895642578
 20
2.9185261711
 30
0.0
 10
6.9496330285
 20
2.9175624443
 30
0.0
 10
6.9048972408
 20
2.9165974027
 30
0.0
 10
6.8554633027
 20
2.9156310921
 30
0.0
 10
6.8014490846
 20
2.9146638843
 30
0.0
 10
6.7429836492
 20
2.9136961235
 30
0.0
 10
6.6802060969
 20
2.9127277799
 30
0.0
 10
6.6132663357
 20
2.9117590305
 30
0.0
 10
6.5423241132
 20
2.9107900087
 30
0.0
 10
6.4402270315
 20
2.9094666052
 30
0.0
 10
6.3039466949
 20
2.9078249625
 30
0.0
 10
6.1309478656
 20
2.9058955211
 30
0.0
 10
5.94654685
 20
2.9039645498
 30
0.0
 10
5.7525016497
 20
2.9020323778
 30
0.0
 10
5.5506626093
 20
2.9000993625
 30
0.0
 10
5.3429542269
 20
2.8981657796
 30
0.0
 10
5.1313567109
 20
2.8962318556
 30
0.0
 10
4.9178874696
 20
2.8942977586
 30
0.0
 10
4.7045819357
 20
2.8923636791
 30
0.0
 10
4.4934739201
 20
2.8904297968
 30
0.0
 10
4.2865761092
 20
2.8884962883
 30
0.0
 10
4.0858609997
 20
2.8865633854
 30
0.0
 10
3.8932425319
 20
2.884631401
 30
0.0
 10
3.7105573047
 20
2.8827005765
 30
0.0
 10
3.5653266657
 20
2.8810624839
 30
0.0
 10
3.4554056827
 20
2.8797435417
 30
0.0
 10
3.3781292757
 20
2.8787740878
 30
0.0
 10
3.3045660409
 20
2.8778048254
 30
0.0
 10
3.2348917517
 20
2.8768359063
 30
0.0
 10
3.1692723472
 20
2.8758673008
 30
0.0
 10
3.1078642552
 20
2.874899082
 30
0.0
 10
3.0508142616
 20
2.8739315129
 30
0.0
 10
2.9982580847
 20
2.8729645752
 30
0.0
 10
2.9503211257
 20
2.8719985961
 30
0.0
 10
2.9071179774
 20
2.8710339282
 30
0.0
 10
2.8741222918
 20
2.8702060143
 30
0.0
 10
2.8501694936
 20
2.869537261
 30
0.0
 10
2.8340617428
 20
2.8690529936
 30
0.0
 10
2.8192064998
 20
2.8685690455
 30
0.0
 10
2.805613362
 20
2.8680854693
 30
0.0
 10
2.7932906909
 20
2.8676023409
 30
0.0
 10
2.7822454351
 20
2.8671198457
 30
0.0
 10
2.7724834027
 20
2.8666382983
 30
0.0
 10
2.7640102417
 20
2.8661579596
 30
0.0
 10
2.7568313094
 20
2.8656800545
 30
0.0
 10
2.7509515186
 20
2.8652045712
 30
0.0
 10
2.7468668943
 20
2.8647883146
 30
0.0
 10
2.7442538502
 20
2.8644410143
 30
0.0
 10
2.7429596526
 20
2.8642324762
 30
0.0
 10
2.7420885761
 20
2.8640614959
 30
0.0
 10
2.7415562995
 20
2.8639413161
 30
0.0
 10
2.7411049423
 20
2.8638210621
 30
0.0
 10
2.7407358501
 20
2.8637026541
 30
0.0
 10
2.7404438516
 20
2.863581287
 30
0.0
 10
2.7402048223
 20
2.8634511337
 30
0.0
 10
2.7400567525
 20
2.8633009297
 30
0.0
 10
2.7400562677
 20
2.8632031072
 30
0.0
  0
SPLINE
  5
320
100
AcDbEntity
  8
0
100
AcDbSpline
 62
7
  6
CONTINUOUS
 70
0
 71
3
 72
80
 73
76
 74
0
 42
0.0000001
 43
0.0000001
 44
0.0000000001
 40
0.0
 40
0.0
 40
0.0
 40
0.0
 40
0.0000667031
 40
0.0001209162
 40
0.0001918038
 40
0.0002801476
 40
0.0003863402
 40
0.0005106016
 40
0.0006530653
 40
0.0009928988
 40
0.0014062591
 40
0.0024541734
 40
0.003797411
 40
0.005435931
 40
0.007369066
 40
0.0095955213
 40
0.0121139132
 40
0.0149228268
 40
0.0180208279
 40
0.0214063835
 40
0.0250773449
 40
0.0290312938
 40
0.0377784544
 40
0.0476281703
 40
0.0585567409
 40
0.0705374681
 40
0.0835429589
 40
0.0975414948
 40
0.1124994883
 40
0.1283822581
 40
0.1451510073
 40
0.1627659505
 40
0.181185693
 40
0.2202599631
 40
0.2620018382
 40
0.3060132631
 40
0.3518743351
 40
0.3991480727
 40
0.447383891
 40
0.4961216929
 40
0.5448969537
 40
0.5932446859
 40
0.6407037702
 40
0.6868219623
 40
0.7311596724
 40
0.7732937813
 40
0.8128228632
 40
0.8493704334
 40
0.866415651
 40
0.8825876806
 40
0.8978470452
 40
0.9121577967
 40
0.9254862989
 40
0.937799694
 40
0.9490695472
 40
0.9592690814
 40
0.9683730208
 40
0.9763609473
 40
0.9799303464
 40
0.9832135028
 40
0.9862085165
 40
0.9889139292
 40
0.9913283126
 40
0.9934502612
 40
0.9952784074
 40
0.9968115915
 40
0.9974674425
 40
0.998049455
 40
0.998557654
 40
0.9989921087
 40
0.9993529692
 40
0.9996405492
 40
0.9998555479
 40
0.9999363696
 40
1.0
 40
1.0
 40
1.0
 40
1.0
 10
2.7400543478
 20
4.6132031073
 30
0.0
 10
2.7400543478
 20
4.6133007326
 30
0.0
 10
2.740202094
 20
4.6134511817
 30
0.0
 10
2.7404408078
 20
4.6135811215
 30
0.0
 10
2.7407326794
 20
4.6137024737
 30
0.0
 10
2.7411017286
 20
4.6138208181
 30
0.0
 10
2.7415531218
 20
4.6139410359
 30
0.0
 10
2.7420854943
 20
4.6140611775
 30
0.0
 10
2.7429567745
 20
4.6142321144
 30
0.0
 10
2.7442512523
 20
4.6144406038
 30
0.0
 10
2.7468645467
 20
4.6147878295
 30
0.0
 10
2.7509487801
 20
4.6152040429
 30
0.0
 10
2.7568274596
 20
4.6156796583
 30
0.0
 10
2.764005117
 20
4.6161576712
 30
0.0
 10
2.7724775954
 20
4.6166380178
 30
0.0
 10
2.782239565
 20
4.6171195804
 30
0.0
 10
2.7932846155
 20
4.6176020769
 30
0.0
 10
2.8056062999
 20
4.6180852031
 30
0.0
 10
2.8191980063
 20
4.618568811
 30
0.0
 10
2.8340521038
 20
4.6190527442
 30
0.0
 10
2.8501595499
 20
4.6195369898
 30
0.0
 10
2.874112084
 20
4.6202057074
 30
0.0
 10
2.9071067234
 20
4.6210336385
 30
0.0
 10
2.9503088755
 20
4.6219983768
 30
0.0
 10
2.9982446472
 20
4.6229642874
 30
0.0
 10
3.0507999765
 20
4.623931271
 30
0.0
 10
3.1078491342
 20
4.6248988537
 30
0.0
 10
3.1692563312
 20
4.6258670303
 30
0.0
 10
3.2348751391
 20
4.6268356839
 30
0.0
 10
3.304548789
 20
4.6278045987
 30
0.0
 10
3.3781114501
 20
4.6287738405
 30
0.0
 10
3.4553874788
 20
4.6297433348
 30
0.0
 10
3.5653076135
 20
4.6310622534
 30
0.0
 10
3.7105381568
 20
4.6327003822
 30
0.0
 10
3.8932232276
 20
4.6346311952
 30
0.0
 10
4.0858418439
 20
4.6365631965
 30
0.0
 10
4.2865571678
 20
4.6384961123
 30
0.0
 10
4.4934555043
 20
4.6404296266
 30
0.0
 10
4.7045643436
 20
4.6423635177
 30
0.0
 10
4.9178708726
 20
4.6442976099
 30
0.0
 10
5.1313412034
 20
4.6462317133
 30
0.0
 10
5.3429399518
 20
4.6481656483
 30
0.0
 10
5.5506497037
 20
4.6500992428
 30
0.0
 10
5.752490209
 20
4.6520322644
 30
0.0
 10
5.9465368206
 20
4.6539644446
 30
0.0
 10
6.1309392501
 20
4.655895432
 30
0.0
 10
6.3039395337
 20
4.6578248795
 30
0.0
 10
6.4402210768
 20
4.6594665254
 30
0.0
 10
6.5423189698
 20
4.6607899403
 30
0.0
 10
6.6132618082
 20
4.6617589718
 30
0.0
 10
6.6802021441
 20
4.6627277131
 30
0.0
 10
6.7429802912
 20
4.6636960724
 30
0.0
 10
6.8014462358
 20
4.6646638381
 30
0.0
 10
6.8554609347
 20
4.6656310408
 30
0.0
 10
6.9048953566
 20
4.6665973693
 30
0.0
 10
6.9496315303
 20
4.6675624071
 30
0.0
 10
6.989563126
 20
4.6685261335
 30
0.0
 10
7.0197912824
 20
4.6693551904
 30
0.0
 10
7.041501185
 20
4.6700261627
 30
0.0
 10
7.0559057971
 20
4.6705100146
 30
0.0
 10
7.069045134
 20
4.6709934644
 30
0.0
 10
7.0809120311
 20
4.6714763828
 30
0.0
 10
7.0914999847
 20
4.6719586026
 30
0.0
 10
7.1008025642
 20
4.6724397293
 30
0.0
 10
7.1088135264
 20
4.6729195252
 30
0.0
 10
7.1146784456
 20
4.6733360255
 30
0.0
 10
7.1187198878
 20
4.6736759573
 30
0.0
 10
7.1212640458
 20
4.6739170644
 30
0.0
 10
7.1234826305
 20
4.6741575303
 30
0.0
 10
7.1253753945
 20
4.6743972328
 30
0.0
 10
7.1269427014
 20
4.6746352596
 30
0.0
 10
7.1281841529
 20
4.6748717321
 30
0.0
 10
7.129013903
 20
4.6750794404
 30
0.0
 10
7.1295100544
 20
4.6752552317
 30
0.0
 10
7.1297025651
 20
4.6753443303
 30
0.0
 10
7.129783258
 20
4.6753908226
 30
0.0
  0
SPLINE
  5
321
100
AcDbEntity
  8
0
100
AcDbSpline
 62
7
  6
CONTINUOUS
 70
0
 71
3
 72
80
 73
76
 74
0
 42
0.0000001
 43
0.0000001
 44
0.0000000001
 40
0.0
 40
0.0
 40
0.0
 40
0.0
 40
0.0000636304
 40
0.0001444521
 40
0.0003594508
 40
0.0006470309
 40
0.0010078914
 40
0.0014423461
 40
0.0019505452
 40
0.0025325577
 40
0.0031884087
 40
0.0047215928
 40
0.0065497389
 40
0.0086716875
 40
0.0110860709
 40
0.0137914835
 40
0.0167864971
 40
0.0200696535
 40
0.0236390525
 40
0.0316269787
 40
0.0407309179
 40
0.0509304519
 40
0.0622003049
 40
0.0745137
 40
0.0878422021
 40
0.1021529535
 40
0.1174123183
 40
0.133584348
 40
0.1506295659
 40
0.187177137
 40
0.2267062194
 40
0.2688403281
 40
0.3131780387
 40
0.3592962313
 40
0.406755316
 40
0.4551030485
 40
0.5038783096
 40
0.5526161122
 40
0.6008519315
 40
0.6481256704
 40
0.6939867442
 40
0.7379981698
 40
0.779740043
 40
0.8188143114
 40
0.8372340534
 40
0.8548489964
 40
0.8716177456
 40
0.8875005154
 40
0.9024585088
 40
0.9164570443
 40
0.9294625348
 40
0.9414432616
 40
0.9523718318
 40
0.9622215475
 40
0.9709687077
 40
0.9749226563
 40
0.9785936174
 40
0.981979173
 40
0.9850771739
 40
0.9878860874
 40
0.9904044791
 40
0.9926309342
 40
0.9945640691
 40
0.996202589
 40
0.9975458266
 40
0.9985937409
 40
0.9990071012
 40
0.9993469347
 40
0.9994893984
 40
0.9996136598
 40
0.9997198524
 40
0.9998081962
 40
0.9998790838
 40
0.9999332969
 40
1.0
 40
1.0
 40
1.0
 40
1.0
 10
2.7403254377
 20
3.3843498607
 30
0.0
 10
2.7404061306
 20
3.384396353
 30
0.0
 10
2.7405986414
 20
3.3844854516
 30
0.0
 10
2.7410947928
 20
3.384661243
 30
0.0
 10
2.741924543
 20
3.3848689512
 30
0.0
 10
2.7431659947
 20
3.3851054237
 30
0.0
 10
2.7447333017
 20
3.3853434506
 30
0.0
 10
2.7466260659
 20
3.3855831531
 30
0.0
 10
2.7488446506
 20
3.3858236189
 30
0.0
 10
2.7513888088
 20
3.3860647261
 30
0.0
 10
2.7554302509
 20
3.3864046578
 30
0.0
 10
2.7612951701
 20
3.3868211581
 30
0.0
 10
2.7693061322
 20
3.3873009541
 30
0.0
 10
2.7786087114
 20
3.3877820808
 30
0.0
 10
2.7891966648
 20
3.3882643006
 30
0.0
 10
2.8010635618
 20
3.388747219
 30
0.0
 10
2.8142028984
 20
3.3892306687
 30
0.0
 10
2.8286075101
 20
3.3897145206
 30
0.0
 10
2.850317412
 20
3.3903854929
 30
0.0
 10
2.8805455677
 20
3.3912145498
 30
0.0
 10
2.9204771625
 20
3.3921782762
 30
0.0
 10
2.9652133354
 20
3.3931433139
 30
0.0
 10
3.0146477566
 20
3.3941096424
 30
0.0
 10
3.0686624551
 20
3.3950768451
 30
0.0
 10
3.1271283993
 20
3.3960446108
 30
0.0
 10
3.1899065463
 20
3.3970129702
 30
0.0
 10
3.2568468826
 20
3.3979817114
 30
0.0
 10
3.3277897217
 20
3.398950743
 30
0.0
 10
3.4298876168
 20
3.4002741579
 30
0.0
 10
3.5661691623
 20
3.4019158039
 30
0.0
 10
3.7391694477
 20
3.4038452513
 30
0.0
 10
3.9235718782
 20
3.4057762387
 30
0.0
 10
4.117618491
 20
3.407708419
 30
0.0
 10
4.3194589983
 20
3.4096414406
 30
0.0
 10
4.527168752
 20
3.4115750351
 30
0.0
 10
4.7387675018
 20
3.4135089701
 30
0.0
 10
4.9522378345
 20
3.4154430736
 30
0.0
 10
5.1655443666
 20
3.4173771657
 30
0.0
 10
5.3766532103
 20
3.4193110569
 30
0.0
 10
5.5835515528
 20
3.4212445712
 30
0.0
 10
5.7842668822
 20
3.4231774871
 30
0.0
 10
5.9768854994
 20
3.4251094885
 30
0.0
 10
6.159570566
 20
3.4270403014
 30
0.0
 10
6.3048011033
 20
3.4286784302
 30
0.0
 10
6.4147212346
 20
3.4299973487
 30
0.0
 10
6.4919972622
 20
3.430966843
 30
0.0
 10
6.5655599229
 20
3.4319360849
 30
0.0
 10
6.6352335725
 20
3.4329049997
 30
0.0
 10
6.7008523796
 20
3.4338736532
 30
0.0
 10
6.7622595754
 20
3.4348418299
 30
0.0
 10
6.8193087316
 20
3.4358094126
 30
0.0
 10
6.8718640594
 20
3.4367763961
 30
0.0
 10
6.9197998296
 20
3.4377423068
 30
0.0
 10
6.9630019801
 20
3.438707045
 30
0.0
 10
6.9959966182
 20
3.4395349761
 30
0.0
 10
7.0199491511
 20
3.4402036937
 30
0.0
 10
7.0360565963
 20
3.4406879393
 30
0.0
 10
7.050910693
 20
3.4411718725
 30
0.0
 10
7.0645023989
 20
3.4416554803
 30
0.0
 10
7.0768240825
 20
3.4421386065
 30
0.0
 10
7.0878691323
 20
3.442621103
 30
0.0
 10
7.0976311013
 20
3.4431026655
 30
0.0
 10
7.1061035791
 20
3.4435830121
 30
0.0
 10
7.1132812362
 20
3.444061025
 30
0.0
 10
7.1191599156
 20
3.4445366404
 30
0.0
 10
7.1232441488
 20
3.4449528538
 30
0.0
 10
7.1258574433
 20
3.4453000796
 30
0.0
 10
7.1271519211
 20
3.4455085689
 30
0.0
 10
7.1280232013
 20
3.4456795058
 30
0.0
 10
7.1285555738
 20
3.4457996474
 30
0.0
 10
7.129006967
 20
3.4459198652
 30
0.0
 10
7.1293760163
 20
3.4460382096
 30
0.0
 10
7.1296678879
 20
3.4461595618
 30
0.0
 10
7.1299066017
 20
3.4462895016
 30
0.0
 10
7.1300543478
 20
3.4464399507
 30
0.0
 10
7.1300543478
 20
3.446537576
 30
0.0
  0
SPLINE
  5
322
100
AcDbEntity
  8
0
100
AcDbSpline
 62
7
  6
CONTINUOUS
 70
0
 71
3
 72
12
 73
8
 74
0
 42
0.0000001
 43
0.0000001
 44
0.0000000001
 40
0.0
 40
0.0
 40
0.0
 40
0.0
 40
0.0636090899
 40
0.1441219657
 40
0.3576542313
 40
0.6426899205
 40
1.0
 40
1.0
 40
1.0
 40
1.0
 10
2.8170364576
 20
3.4286439309
 30
0.0
 10
2.8171180778
 20
3.4286911097
 30
0.0
 10
2.8173123137
 20
3.4287816608
 30
0.0
 10
2.8178116777
 20
3.4289603539
 30
0.0
 10
2.8186450638
 20
3.4291716849
 30
0.0
 10
2.8198905946
 20
3.4294122378
 30
0.0
 10
2.8208317964
 20
3.4295571674
 30
0.0
 10
2.8213560624
 20
3.4296319069
 30
0.0
  0
SPLINE
  5
323
100
AcDbEntity
  8
0
100
AcDbSpline
 62
7
  6
CONTINUOUS
 70
0
 71
3
 72
70
 73
66
 74
0
 42
0.0000001
 43
0.0000001
 44
0.0000000001
 40
0.0
 40
0.0
 40
0.0
 40
0.0
 40
0.0009432032
 40
0.0021726697
 40
0.0036880518
 40
0.0054887123
 40
0.007573884
 40
0.0099427328
 40
0.0155265432
 40
0.0222263824
 40
0.0300270919
 40
0.0389119892
 40
0.0488593939
 40
0.0598465321
 40
0.0718491667
 40
0.0987845138
 40
0.129418108
 40
0.1634663846
 40
0.2006151046
 40
0.2405222655
 40
0.2828188629
 40
0.3271145106
 40
0.3730008788
 40
0.420054
 40
0.4678396639
 40
0.5159169455
 40
0.5638418667
 40
0.6111723326
 40
0.6574712688
 40
0.7023112837
 40
0.7452789678
 40
0.7859772089
 40
0.8240304234
 40
0.8419547621
 40
0.8590881019
 40
0.8753907298
 40
0.8908259366
 40
0.9053572968
 40
0.918951141
 40
0.9315771152
 40
0.943205177
 40
0.9538084265
 40
0.9633635072
 40
0.971847409
 40
0.9756813532
 40
0.9792406251
 40
0.9825232739
 40
0.9855273555
 40
0.988250935
 40
0.9906922574
 40
0.9928502342
 40
0.9947239669
 40
0.9963126149
 40
0.9976154461
 40
0.9981595209
 40
0.998631992
 40
0.9990329246
 40
0.9993625688
 40
0.9995008065
 40
0.9996214391
 40
0.9997246172
 40
0.9998105836
 40
0.9998797626
 40
0.9999329818
 40
1.0
 40
1.0
 40
1.0
 40
1.0
 10
2.8213560624
 20
3.4296319069
 30
0.0
 10
2.8226735746
 20
3.4298197318
 30
0.0
 10
2.8257198943
 20
3.4301704707
 30
0.0
 10
2.8309028166
 20
3.4306368877
 30
0.0
 10
2.8372994529
 20
3.4311064839
 30
0.0
 10
2.844905858
 20
3.4315786804
 30
0.0
 10
2.8537184027
 20
3.4320523169
 30
0.0
 10
2.8678657062
 20
3.4327224047
 30
0.0
 10
2.8885240138
 20
3.4335412521
 30
0.0
 10
2.9168468918
 20
3.4344840447
 30
0.0
 10
2.949829633
 20
3.4354298437
 30
0.0
 10
2.9873961504
 20
3.436377933
 30
0.0
 10
3.029459858
 20
3.4373276479
 30
0.0
 10
3.0759235823
 20
3.4382786047
 30
0.0
 10
3.1463541721
 20
3.4395987725
 30
0.0
 10
3.2445043221
 20
3.441225843
 30
0.0
 10
3.3737598467
 20
3.4431168694
 30
0.0
 10
3.5174274802
 20
3.4450115745
 30
0.0
 10
3.6741808456
 20
3.4469091291
 30
0.0
 10
3.8425731243
 20
3.4488085215
 30
0.0
 10
4.0210501005
 20
3.4507093254
 30
0.0
 10
4.2079640125
 20
3.4526111245
 30
0.0
 10
4.4015895714
 20
3.4545135938
 30
0.0
 10
4.6001396702
 20
3.4564165474
 30
0.0
 10
4.8017812222
 20
3.4583197773
 30
0.0
 10
5.0046529126
 20
3.4602231032
 30
0.0
 10
5.2068823037
 20
3.4621263876
 30
0.0
 10
5.4066023902
 20
3.4640294379
 30
0.0
 10
5.6019695643
 20
3.4659320852
 30
0.0
 10
5.7911806831
 20
3.4678341354
 30
0.0
 10
5.9724889759
 20
3.4697352522
 30
0.0
 10
6.1442207456
 20
3.4716352025
 30
0.0
 10
6.280618052
 20
3.4732475084
 30
0.0
 10
6.3837672938
 20
3.4745456286
 30
0.0
 10
6.4562289618
 20
3.4754995336
 30
0.0
 10
6.525178219
 20
3.4764532457
 30
0.0
 10
6.5904557921
 20
3.4774066194
 30
0.0
 10
6.6519109222
 20
3.4783596722
 30
0.0
 10
6.7094018037
 20
3.4793123625
 30
0.0
 10
6.7627956233
 20
3.4802644179
 30
0.0
 10
6.8119690881
 20
3.481215809
 30
0.0
 10
6.8568087489
 20
3.4821663205
 30
0.0
 10
6.8972110198
 20
3.4831155322
 30
0.0
 10
6.9280624174
 20
3.4839301105
 30
0.0
 10
6.9504549303
 20
3.4845881733
 30
0.0
 10
6.9655107507
 20
3.4850646711
 30
0.0
 10
6.9793950371
 20
3.4855408683
 30
0.0
 10
6.9920994473
 20
3.4860167045
 30
0.0
 10
7.0036158792
 20
3.4864920654
 30
0.0
 10
7.0139373898
 20
3.4869668337
 30
0.0
 10
7.0230584135
 20
3.4874407555
 30
0.0
 10
7.0309746105
 20
3.4879132336
 30
0.0
 10
7.0376818085
 20
3.4883840078
 30
0.0
 10
7.0425122606
 20
3.4887939695
 30
0.0
 10
7.045767575
 20
3.4891305307
 30
0.0
 10
7.0477536976
 20
3.4893668834
 30
0.0
 10
7.0494348754
 20
3.4896024358
 30
0.0
 10
7.050643783
 20
3.4898075369
 30
0.0
 10
7.0514570849
 20
3.4899757354
 30
0.0
 10
7.0519540417
 20
3.4900939922
 30
0.0
 10
7.052375299
 20
3.4902123096
 30
0.0
 10
7.0527198912
 20
3.4903289426
 30
0.0
 10
7.052992002
 20
3.490448324
 30
0.0
 10
7.0532172661
 20
3.4905779108
 30
0.0
 10
7.0533520189
 20
3.4907257808
 30
0.0
 10
7.0533520368
 20
3.4908203416
 30
0.0
  0
SPLINE
  5
324
100
AcDbEntity
  8
0
100
AcDbSpline
 62
7
  6
CONTINUOUS
 70
0
 71
3
 72
12
 73
8
 74
0
 42
0.0000001
 43
0.0000001
 44
0.0000000001
 40
0.0
 40
0.0
 40
0.0
 40
0.0
 40
0.0631393547
 40
0.1433267811
 40
0.3566273313
 40
0.6419460565
 40
1.0
 40
1.0
 40
1.0
 40
1.0
 10
2.8170362663
 20
4.3036439326
 30
0.0
 10
2.817119846
 20
4.3036921352
 30
0.0
 10
2.8173192425
 20
4.3037845155
 30
0.0
 10
2.8178331438
 20
4.3039667697
 30
0.0
 10
2.8186926188
 20
4.3041820848
 30
0.0
 10
2.8199785968
 20
4.3044272058
 30
0.0
 10
2.8209508795
 20
4.3045748295
 30
0.0
 10
2.821492697
 20
4.3046509856
 30
0.0
  0
SPLINE
  5
325
100
AcDbEntity
  8
0
100
AcDbSpline
 62
7
  6
CONTINUOUS
 70
0
 71
3
 72
70
 73
66
 74
0
 42
0.0000001
 43
0.0000001
 44
0.0000000001
 40
0.0
 40
0.0
 40
0.0
 40
0.0
 40
0.0009538761
 40
0.0021938568
 40
0.0037200568
 40
0.005531657
 40
0.0076275551
 40
0.010006583
 40
0.0156091704
 40
0.0223281551
 40
0.030146975
 40
0.0390478233
 40
0.0490114115
 40
0.0600135767
 40
0.0720291157
 40
0.0989892478
 40
0.1296423122
 40
0.1637056319
 40
0.2008659977
 40
0.2407799012
 40
0.2830791759
 40
0.3273742773
 40
0.3732560896
 40
0.4203014516
 40
0.4680766712
 40
0.5161407667
 40
0.5640505789
 40
0.6113640714
 40
0.6576447171
 40
0.7024659969
 40
0.745414031
 40
0.7860927034
 40
0.8241274002
 40
0.8420420162
 40
0.8591665855
 40
0.8754609072
 40
0.8908872016
 40
0.9054108571
 40
0.9189975615
 40
0.9316158217
 40
0.9432376043
 40
0.9538352027
 40
0.9633840956
 40
0.9718634322
 40
0.975695575
 40
0.979252734
 40
0.982533099
 40
0.985535053
 40
0.9882569881
 40
0.9906973101
 40
0.9928544455
 40
0.9947270132
 40
0.9963143407
 40
0.9976160311
 40
0.9981597074
 40
0.9986319498
 40
0.9990328357
 40
0.9993625471
 40
0.9995008354
 40
0.9996215163
 40
0.9997247305
 40
0.9998107109
 40
0.9998798768
 40
0.9999330617
 40
1.0
 40
1.0
 40
1.0
 40
1.0
 10
2.821492697
 20
4.3046509856
 30
0.0
 10
2.8228254452
 20
4.3048383126
 30
0.0
 10
2.825901743
 20
4.3051888413
 30
0.0
 10
2.8311298323
 20
4.3056553436
 30
0.0
 10
2.8375719139
 20
4.3061248605
 30
0.0
 10
2.8452240004
 20
4.306596936
 30
0.0
 10
2.8540812613
 20
4.3070704414
 30
0.0
 10
2.8682841765
 20
4.3077401541
 30
0.0
 10
2.889009738
 20
4.3085589388
 30
0.0
 10
2.9174108183
 20
4.3095013387
 30
0.0
 10
2.950467605
 20
4.3104468586
 30
0.0
 10
2.9881038285
 20
4.3113948562
 30
0.0
 10
3.0302327479
 20
4.312344193
 30
0.0
 10
3.0767572376
 20
4.313294841
 30
0.0
 10
3.1472599577
 20
4.3146146532
 30
0.0
 10
3.2454876175
 20
4.3162410068
 30
0.0
 10
3.3748226606
 20
4.3181315739
 30
0.0
 10
3.518550808
 20
4.3200257404
 30
0.0
 10
3.6753463063
 20
4.3219226768
 30
0.0
 10
3.8437628931
 20
4.3238215231
 30
0.0
 10
4.0222466492
 20
4.3257217646
 30
0.0
 10
4.2091511276
 20
4.3276229527
 30
0.0
 10
4.4027523105
 20
4.329524855
 30
0.0
 10
4.601263909
 20
4.3314272257
 30
0.0
 10
4.802854684
 20
4.3333298561
 30
0.0
 10
5.0056651872
 20
4.3352326066
 30
0.0
 10
5.2078241993
 20
4.3371352919
 30
0.0
 10
5.4074667852
 20
4.3390377549
 30
0.0
 10
5.6027514824
 20
4.3409398269
 30
0.0
 10
5.7918765461
 20
4.3428412626
 30
0.0
 10
5.9730972345
 20
4.3447418005
 30
0.0
 10
6.1447420142
 20
4.3466411947
 30
0.0
 10
6.2810674756
 20
4.348252934
 30
0.0
 10
6.3841611764
 20
4.3495507232
 30
0.0
 10
6.4565826999
 20
4.3505043182
 30
0.0
 10
6.5254930695
 20
4.3514576843
 30
0.0
 10
6.5907333752
 20
4.3524108329
 30
0.0
 10
6.6521530079
 20
4.3533635672
 30
0.0
 10
6.7096102114
 20
4.3543158967
 30
0.0
 10
6.7629724932
 20
4.3552677529
 30
0.0
 10
6.8121166587
 20
4.3562188166
 30
0.0
 10
6.8569293144
 20
4.357168945
 30
0.0
 10
6.8973071364
 20
4.3581179948
 30
0.0
 10
6.9281398277
 20
4.3589322969
 30
0.0
 10
6.9505196581
 20
4.359590084
 30
0.0
 10
6.9655662484
 20
4.3600664409
 30
0.0
 10
6.9794408809
 20
4.3605425108
 30
0.0
 10
6.9921363359
 20
4.3610182254
 30
0.0
 10
7.0036456619
 20
4.3614934663
 30
0.0
 10
7.013961924
 20
4.3619680459
 30
0.0
 10
7.0230784164
 20
4.362441751
 30
0.0
 10
7.0309896641
 20
4.3629140887
 30
0.0
 10
7.0376915246
 20
4.3633847513
 30
0.0
 10
7.0425177776
 20
4.3637946275
 30
0.0
 10
7.0457704886
 20
4.3641310863
 30
0.0
 10
7.0477555951
 20
4.3643673818
 30
0.0
 10
7.0494364315
 20
4.364602855
 30
0.0
 10
7.0506454143
 20
4.3648078703
 30
0.0
 10
7.051458942
 20
4.3649760021
 30
0.0
 10
7.0519560875
 20
4.3650942162
 30
0.0
 10
7.0523774865
 20
4.3652124923
 30
0.0
 10
7.0527221385
 20
4.3653290705
 30
0.0
 10
7.0529942044
 20
4.3654484301
 30
0.0
 10
7.053219302
 20
4.3655779014
 30
0.0
 10
7.053353809
 20
4.3657258979
 30
0.0
 10
7.0533535782
 20
4.3658203426
 30
0.0
  0
SPLINE
  5
326
100
AcDbEntity
  8
0
100
AcDbSpline
 62
7
  6
CONTINUOUS
 70
0
 71
3
 72
35
 73
31
 74
0
 42
0.0000001
 43
0.0000001
 44
0.0000000001
 40
0.0
 40
0.0
 40
0.0
 40
0.0
 40
0.0003842665
 40
0.0008857237
 40
0.002252281
 40
0.00411276
 40
0.006471275
 40
0.0093295479
 40
0.012688325
 40
0.0165478828
 40
0.0209082435
 40
0.0311298114
 40
0.0433454547
 40
0.0575452153
 40
0.0737187681
 40
0.0918555631
 40
0.1119426375
 40
0.1339626004
 40
0.1578975214
 40
0.1837294334
 40
0.2114400976
 40
0.2724076224
 40
0.3406061067
 40
0.4158295649
 40
0.4978340186
 40
0.58636416
 40
0.6811506866
 40
0.7819141855
 40
0.8883295939
 40
1.0
 40
1.0
 40
1.0
 40
1.0
 10
2.7403253675
 20
3.1343498607
 30
0.0
 10
2.7404194314
 20
3.1344040701
 30
0.0
 10
2.7406487922
 20
3.1345067057
 30
0.0
 10
2.7412524585
 20
3.1347088922
 30
0.0
 10
2.7422808535
 20
3.1349457637
 30
0.0
 10
2.7438356237
 20
3.1352157421
 30
0.0
 10
2.7458170632
 20
3.135487563
 30
0.0
 10
2.7482244318
 20
3.1357616072
 30
0.0
 10
2.7510581793
 20
3.1360365654
 30
0.0
 10
2.7543179089
 20
3.1363123183
 30
0.0
 10
2.759513675
 20
3.1367014984
 30
0.0
 10
2.7670699949
 20
3.1371778969
 30
0.0
 10
2.777406547
 20
3.1377266131
 30
0.0
 10
2.7894266611
 20
3.1382769161
 30
0.0
 10
2.8031211214
 20
3.1388285406
 30
0.0
 10
2.8184800809
 20
3.1393809776
 30
0.0
 10
2.8354917546
 20
3.1399340181
 30
0.0
 10
2.8541423356
 20
3.1404875574
 30
0.0
 10
2.8744166427
 20
3.1410414673
 30
0.0
 10
2.8962992831
 20
3.1415956892
 30
0.0
 10
2.9286427121
 20
3.1423594337
 30
0.0
 10
2.9729548909
 20
3.1433054926
 30
0.0
 10
3.0306903327
 20
3.1444096691
 30
0.0
 10
3.0943702788
 20
3.1455149459
 30
0.0
 10
3.1637952756
 20
3.1466213529
 30
0.0
 10
3.2387480437
 20
3.1477284312
 30
0.0
 10
3.3190013145
 20
3.1488361685
 30
0.0
 10
3.4043081366
 20
3.1499444483
 30
0.0
 10
3.4943855216
 20
3.1510529522
 30
0.0
 10
3.5559968723
 20
3.1517753499
 30
0.0
 10
3.5875449288
 20
3.152137576
 30
0.0
  0
SPLINE
  5
327
100
AcDbEntity
  8
0
100
AcDbSpline
 62
7
  6
CONTINUOUS
 70
0
 71
3
 72
80
 73
76
 74
0
 42
0.0000001
 43
0.0000001
 44
0.0000000001
 40
0.0
 40
0.0
 40
0.0
 40
0.0
 40
0.0000636304
 40
0.0001444521
 40
0.0003594508
 40
0.0006470309
 40
0.0010078914
 40
0.0014423461
 40
0.0019505452
 40
0.0025325577
 40
0.0031884087
 40
0.0047215928
 40
0.0065497389
 40
0.0086716875
 40
0.0110860709
 40
0.0137914835
 40
0.0167864971
 40
0.0200696535
 40
0.0236390525
 40
0.0316269787
 40
0.0407309179
 40
0.0509304519
 40
0.0622003049
 40
0.0745137
 40
0.0878422021
 40
0.1021529535
 40
0.1174123183
 40
0.133584348
 40
0.1506295659
 40
0.187177137
 40
0.2267062194
 40
0.2688403281
 40
0.3131780387
 40
0.3592962313
 40
0.406755316
 40
0.4551030485
 40
0.5038783096
 40
0.5526161122
 40
0.6008519315
 40
0.6481256704
 40
0.6939867442
 40
0.7379981698
 40
0.779740043
 40
0.8188143114
 40
0.8372340534
 40
0.8548489964
 40
0.8716177456
 40
0.8875005154
 40
0.9024585088
 40
0.9164570443
 40
0.9294625348
 40
0.9414432616
 40
0.9523718318
 40
0.9622215475
 40
0.9709687077
 40
0.9749226563
 40
0.9785936174
 40
0.981979173
 40
0.9850771739
 40
0.9878860874
 40
0.9904044791
 40
0.9926309342
 40
0.9945640691
 40
0.996202589
 40
0.9975458266
 40
0.9985937409
 40
0.9990071012
 40
0.9993469347
 40
0.9994893984
 40
0.9996136598
 40
0.9997198524
 40
0.9998081962
 40
0.9998790838
 40
0.9999332969
 40
1.0
 40
1.0
 40
1.0
 40
1.0
 10
2.7403254377
 20
3.2593498607
 30
0.0
 10
2.7404061306
 20
3.259396353
 30
0.0
 10
2.7405986414
 20
3.2594854516
 30
0.0
 10
2.7410947928
 20
3.259661243
 30
0.0
 10
2.741924543
 20
3.2598689512
 30
0.0
 10
2.7431659947
 20
3.2601054237
 30
0.0
 10
2.7447333017
 20
3.2603434506
 30
0.0
 10
2.7466260659
 20
3.2605831531
 30
0.0
 10
2.7488446506
 20
3.2608236189
 30
0.0
 10
2.7513888088
 20
3.2610647261
 30
0.0
 10
2.7554302509
 20
3.2614046578
 30
0.0
 10
2.7612951701
 20
3.2618211581
 30
0.0
 10
2.7693061322
 20
3.2623009541
 30
0.0
 10
2.7786087114
 20
3.2627820808
 30
0.0
 10
2.7891966648
 20
3.2632643006
 30
0.0
 10
2.8010635618
 20
3.263747219
 30
0.0
 10
2.8142028984
 20
3.2642306687
 30
0.0
 10
2.8286075101
 20
3.2647145206
 30
0.0
 10
2.850317412
 20
3.2653854929
 30
0.0
 10
2.8805455677
 20
3.2662145498
 30
0.0
 10
2.9204771625
 20
3.2671782762
 30
0.0
 10
2.9652133354
 20
3.2681433139
 30
0.0
 10
3.0146477566
 20
3.2691096424
 30
0.0
 10
3.0686624551
 20
3.2700768451
 30
0.0
 10
3.1271283993
 20
3.2710446108
 30
0.0
 10
3.1899065463
 20
3.2720129702
 30
0.0
 10
3.2568468826
 20
3.2729817114
 30
0.0
 10
3.3277897217
 20
3.273950743
 30
0.0
 10
3.4298876168
 20
3.2752741579
 30
0.0
 10
3.5661691623
 20
3.2769158039
 30
0.0
 10
3.7391694477
 20
3.2788452513
 30
0.0
 10
3.9235718782
 20
3.2807762387
 30
0.0
 10
4.117618491
 20
3.282708419
 30
0.0
 10
4.3194589983
 20
3.2846414406
 30
0.0
 10
4.527168752
 20
3.2865750351
 30
0.0
 10
4.7387675018
 20
3.2885089701
 30
0.0
 10
4.9522378345
 20
3.2904430736
 30
0.0
 10
5.1655443666
 20
3.2923771657
 30
0.0
 10
5.3766532103
 20
3.2943110569
 30
0.0
 10
5.5835515528
 20
3.2962445712
 30
0.0
 10
5.7842668822
 20
3.2981774871
 30
0.0
 10
5.9768854994
 20
3.3001094885
 30
0.0
 10
6.159570566
 20
3.3020403014
 30
0.0
 10
6.3048011033
 20
3.3036784302
 30
0.0
 10
6.4147212346
 20
3.3049973487
 30
0.0
 10
6.4919972622
 20
3.305966843
 30
0.0
 10
6.5655599229
 20
3.3069360849
 30
0.0
 10
6.6352335725
 20
3.3079049997
 30
0.0
 10
6.7008523796
 20
3.3088736532
 30
0.0
 10
6.7622595754
 20
3.3098418299
 30
0.0
 10
6.8193087316
 20
3.3108094126
 30
0.0
 10
6.8718640594
 20
3.3117763961
 30
0.0
 10
6.9197998296
 20
3.3127423068
 30
0.0
 10
6.9630019801
 20
3.313707045
 30
0.0
 10
6.9959966182
 20
3.3145349761
 30
0.0
 10
7.0199491511
 20
3.3152036937
 30
0.0
 10
7.0360565963
 20
3.3156879393
 30
0.0
 10
7.050910693
 20
3.3161718725
 30
0.0
 10
7.0645023989
 20
3.3166554803
 30
0.0
 10
7.0768240825
 20
3.3171386065
 30
0.0
 10
7.0878691323
 20
3.317621103
 30
0.0
 10
7.0976311013
 20
3.3181026655
 30
0.0
 10
7.1061035791
 20
3.3185830121
 30
0.0
 10
7.1132812362
 20
3.319061025
 30
0.0
 10
7.1191599156
 20
3.3195366404
 30
0.0
 10
7.1232441488
 20
3.3199528538
 30
0.0
 10
7.1258574433
 20
3.3203000796
 30
0.0
 10
7.1271519211
 20
3.3205085689
 30
0.0
 10
7.1280232013
 20
3.3206795058
 30
0.0
 10
7.1285555738
 20
3.3207996474
 30
0.0
 10
7.129006967
 20
3.3209198652
 30
0.0
 10
7.1293760163
 20
3.3210382096
 30
0.0
 10
7.1296678879
 20
3.3211595618
 30
0.0
 10
7.1299066017
 20
3.3212895016
 30
0.0
 10
7.1300543478
 20
3.3214399507
 30
0.0
 10
7.1300543478
 20
3.321537576
 30
0.0
  0
ENDSEC
  0
SECTION
  2
OBJECTS
  0
DICTIONARY
  5
C
100
AcDbDictionary
280
0
281
1
  3
ACAD_GROUP
350
D
  3
ACAD_MLINESTYLE
350
17
  3
ACAD_LAYOUT
350
1A
  3
ACAD_PLOTSETTINGS
350
19
  3
ACAD_PLOTSTYLENAME
350
E
  0
DICTIONARY
  5
D
102
{ACAD_REACTORS
330
C
102
}
100
AcDbDictionary
280
0
281
1
  0
ACDBDICTIONARYWDFLT
  5
E
102
{ACAD_REACTORS
330
C
102
}
100
AcDbDictionary
281
1
  3
Normal
350
F
100
AcDbDictionaryWithDefault
340
F
  0
DICTIONARY
  5
17
102
{ACAD_REACTORS
330
C
102
}
100
AcDbDictionary
280
0
281
1
  3
Standard
350
18
  0
DICTIONARY
  5
19
102
{ACAD_REACTORS
330
C
102
}
100
AcDbDictionary
281
1
  0
DICTIONARY
  5
1A
102
{ACAD_REACTORS
330
C
102
}
100
AcDbDictionary
281
1
  3
Model
350
328
  3
Layout1
350
329
  0
ACDBPLACEHOLDER
  5
F
102
{ACAD_REACTORS
330
E
102
}
  0
MLINESTYLE
  5
18
102
{ACAD_REACTORS
330
17
102
}
100
AcDbMlineStyle
  2
STANDARD
 70
0
  3

 62
256
 51
90.0
 52
90.0
 71
2
 49
0.5
 62
256
  6
BYLAYER
 49
-0.5
 62
256
  6
BYLAYER
  0
LAYOUT
  5
328
102
{ACAD_REACTORS
330
1A
102
}
100
AcDbPlotSettings
  1

  2
none_device
  4
ANSI_A_(11.00_x_8.50_Inches)
  6

 40
0.0
 41
0.0
 42
0.0
 43
0.0
 44
279.4
 45
215.9
 46
0.0
 47
0.0
 48
0.0
 49
0.0
140
0.0
141
0.0
142
1.0
143
1.0
 70
1024
 72
0
 73
0
 74
0
  7

 75
0
147
1.0
148
0.0
149
0.0
100
AcDbLayout
  1
Model
 70
0
 71
0
 10
0.0
 20
0.0
 11
11.0
 21
8.5
 12
0.0
 22
0.0
 32
0.0
 14
0.0
 24
0.0
 34
0.0
 15
0.0
 25
0.0
 35
0.0
146
0.0
 13
0.0
 23
0.0
 33
0.0
 16
1.0
 26
0.0
 36
0.0
 17
0.0
 27
1.0
 37
0.0
 76
0
330
202
345
0
346
0
  0
LAYOUT
  5
329
102
{ACAD_REACTORS
330
1A
102
}
100
AcDbPlotSettings
  1

  2
none_device
  4
ANSI_A_(11.00_x_8.50_Inches)
  6

 40
0.0
 41
0.0
 42
0.0
 43
0.0
 44
279.4
 45
215.9
 46
0.0
 47
0.0
 48
0.0
 49
0.0
140
0.0
141
0.0
142
1.0
143
1.0
 70
0
 72
0
 73
0
 74
0
  7

 75
0
147
1.0
148
0.0
149
0.0
100
AcDbLayout
  1
Layout1
 70
0
 71
1
 10
0.0
 20
0.0
 11
11.0
 21
8.5
 12
0.0
 22
0.0
 32
0.0
 14
0.0
 24
0.0
 34
0.0
 15
0.0
 25
0.0
 35
0.0
146
0.0
 13
0.0
 23
0.0
 33
0.0
 16
1.0
 26
0.0
 36
0.0
 17
0.0
 27
1.0
 37
0.0
 76
0
330
203
345
0
346
0
  0
ENDSEC
  0
EOF
