999
DXF file: 277-06_right.dxf
999
Pro/ENGINEER 2018400 by Parametric Technology Corporation
  0
SECTION
  2
HEADER
  9
$ACADVER
  1
AC1027
  9
$DWGCODEPAGE
  3
ANSI_1252
  9
$EXTMAX
 10
11.0
 20
8.5
 30
0.0
  9
$EXTMIN
 10
0.0
 20
0.0
 30
0.0
  9
$LIMMIN
 10
0.0
 20
0.0
  9
$LIMMAX
 10
11.0
 20
8.5
  9
$VIEWCTR
 10
5.5
 20
4.25
  9
$VIEWSIZE
 40
8.5
  9
$CLAYER
  8
0
  9
$LTSCALE
 40
0.605
  9
$CELTYPE
  6
BYLAYER
  9
$DIMSCALE
 40
1.0
  9
$DIMASZ
 40
0.1
  9
$DIMEXO
 40
0.0625
  9
$DIMDLI
 40
0.418
  9
$DIMEXE
 40
0.125
  9
$DIMCEN
 40
0.099
  9
$DIMLFAC
 40
1.0
  9
$DIMBLK
  1
_FILLED
  9
$DIMALT
 70
1
  9
$DIMALTD
 70
1
  9
$DIMALTTD
 70
2
  9
$DIMALTF
 40
25.4
  9
$DIMTXT
 40
0.08
  9
$DIMTOL
 70
1
  9
$DIMLIM
 70
0
  9
$DIMTFAC
 40
1.0
  9
$DIMTP
 40
0.01
  9
$DIMTM
 40
0.01
  9
$DIMGAP
 40
0.09
  9
$DIMDSEP
 70
46
  9
$AUNITS
 70
0
  9
$PDMODE
 70
3
  9
$PDSIZE
 40
0.3125
  9
$HANDSEED
  5
365
  9
$TILEMODE
 70
1
  9
$MEASUREMENT
 70
0
  9
$INSUNITS
 70
1
  0
ENDSEC
  0
SECTION
  2
CLASSES
  0
CLASS
  1
ACDBDICTIONARYWDFLT
  2
AcDbDictionaryWithDefault
  3
AutoCAD 2000
 90
0
 91
1
280
0
281
0
  0
CLASS
  1
ACDBPLACEHOLDER
  2
AcDbPlaceHolder
  3
AutoCAD 2000
 90
0
 91
1
280
0
281
0
  0
CLASS
  1
LAYOUT
  2
AcDbLayout
  3
AutoCAD 2000
 90
0
 91
0
280
0
281
0
  0
ENDSEC
  0
SECTION
  2
TABLES
  0
TABLE
  2
VPORT
  5
8
100
AcDbSymbolTable
 70
2
  0
VPORT
  5
1F4
100
AcDbSymbolTableRecord
100
AcDbViewportTableRecord
  2
*ACTIVE
 70
0
 10
0.0
 20
0.0
 11
1.0
 21
1.0
 12
5.5
 22
4.25
 13
0.0
 23
0.0
 14
1.0
 24
1.0
 15
0.0
 25
0.0
 16
0.0
 26
0.0
 36
1.0
 17
0.0
 27
0.0
 37
0.0
 40
8.5
 41
1.2941176471
 42
50.0
 43
0.0
 44
0.0
 50
0.0
 51
0.0
 71
0
 72
100
 73
1
 74
1
 75
0
 76
0
 77
0
 78
0
  0
ENDTAB
  0
TABLE
  2
LTYPE
  5
5
100
AcDbSymbolTable
 70
6
  0
LTYPE
  5
14
100
AcDbSymbolTableRecord
100
AcDbLinetypeTableRecord
  2
BYBLOCK
 70
0
  3

 72
65
 73
0
 40
0.0
  0
LTYPE
  5
15
100
AcDbSymbolTableRecord
100
AcDbLinetypeTableRecord
  2
BYLAYER
 70
0
  3

 72
65
 73
0
 40
0.0
  0
LTYPE
  5
16
100
AcDbSymbolTableRecord
100
AcDbLinetypeTableRecord
  2
CONTINUOUS
 70
64
  3
Solid line
 72
65
 73
0
 40
0.0
  0
LTYPE
  5
1F5
100
AcDbSymbolTableRecord
100
AcDbLinetypeTableRecord
  2
CENTER
 70
64
  3
____ _ ____ _ ____ _ ____ _ ____ _ ____ _ ____
 72
65
 73
4
 40
0.6
 49
0.375
 74
0
 49
-0.075
 74
0
 49
0.075
 74
0
 49
-0.075
 74
0
  0
LTYPE
  5
1F6
100
AcDbSymbolTableRecord
100
AcDbLinetypeTableRecord
  2
HIDDEN
 70
64
  3
- - - - - - - - - - - - - - - - - - - -
 72
65
 73
2
 40
0.2
 49
0.1
 74
0
 49
-0.1
 74
0
  0
LTYPE
  5
1F7
100
AcDbSymbolTableRecord
100
AcDbLinetypeTableRecord
  2
PHANTOM
 70
64
  3
_____ _ _ _____ _ _ _____ _ _ _____
 72
65
 73
6
 40
0.8
 49
0.45
 74
0
 49
-0.05
 74
0
 49
0.1
 74
0
 49
-0.05
 74
0
 49
0.1
 74
0
 49
-0.05
 74
0
  0
LTYPE
  5
1F8
100
AcDbSymbolTableRecord
100
AcDbLinetypeTableRecord
  2
DOT
 70
64
  3
. . . . . . . . . . . . . . . . . . . .
 72
65
 73
2
 40
0.2
 49
0.1
 74
0
 49
-0.1
 74
0
  0
LTYPE
  5
1F9
100
AcDbSymbolTableRecord
100
AcDbLinetypeTableRecord
  2
DASHED
 70
64
  3
- - - - - - - - - - - - - - - - - - - -
 72
65
 73
2
 40
0.2
 49
0.1
 74
0
 49
-0.1
 74
0
  0
ENDTAB
  0
TABLE
  2
LAYER
  5
2
100
AcDbSymbolTable
 70
36
  0
LAYER
  5
10
100
AcDbSymbolTableRecord
100
AcDbLayerTableRecord
  2
0
 70
0
 62
7
  6
CONTINUOUS
370
-3
390
F
  0
LAYER
  5
1FA
100
AcDbSymbolTableRecord
100
AcDbLayerTableRecord
  2
DEFAULT_1
 70
0
 62
7
  6
CENTER
370
-3
390
F
  0
LAYER
  5
1FB
100
AcDbSymbolTableRecord
100
AcDbLayerTableRecord
  2
DEFAULT_2
 70
0
 62
8
  6
HIDDEN
370
-3
390
F
  0
LAYER
  5
1FC
100
AcDbSymbolTableRecord
100
AcDbLayerTableRecord
  2
DEFAULT_3
 70
0
 62
7
  6
PHANTOM
370
-3
390
F
  0
LAYER
  5
1FD
100
AcDbSymbolTableRecord
100
AcDbLayerTableRecord
  2
DEFAULT_COORDINATE_SYSTEM
 70
0
 62
7
  6
CONTINUOUS
370
-3
390
F
  0
LAYER
  5
1FE
100
AcDbSymbolTableRecord
100
AcDbLayerTableRecord
  2
DEFAULT_DATUM_AXES
 70
0
 62
7
  6
CONTINUOUS
370
-3
390
F
  0
LAYER
  5
1FF
100
AcDbSymbolTableRecord
100
AcDbLayerTableRecord
  2
DEFAULT_DATUM_PLANES
 70
0
 62
7
  6
CONTINUOUS
370
-3
390
F
  0
ENDTAB
  0
TABLE
  2
STYLE
  5
3
100
AcDbSymbolTable
 70
1
  0
STYLE
  5
11
100
AcDbSymbolTableRecord
100
AcDbTextStyleTableRecord
  2
STANDARD
 70
0
 40
0.0
 41
0.8
 50
0.0
 71
0
 42
0.2
  3
txt
  4

  0
STYLE
  5
200
100
AcDbSymbolTableRecord
100
AcDbTextStyleTableRecord
  2
TEXTSTYLE_1
 70
0
 40
0.0
 41
0.8
 50
0.0
 71
0
 42
0.2
  3
gdt
  4

  0
ENDTAB
  0
TABLE
  2
VIEW
  5
6
100
AcDbSymbolTable
 70
0
  0
ENDTAB
  0
TABLE
  2
UCS
  5
7
100
AcDbSymbolTable
 70
0
  0
ENDTAB
  0
TABLE
  2
APPID
  5
9
100
AcDbSymbolTable
 70
1
  0
APPID
  5
201
100
AcDbSymbolTableRecord
100
AcDbRegAppTableRecord
  2
ACAD
 70
0
  0
ENDTAB
  0
TABLE
  2
BLOCK_RECORD
  5
1
100
AcDbSymbolTable
 70
0
  0
BLOCK_RECORD
  5
202
100
AcDbSymbolTableRecord
100
AcDbBlockTableRecord
  2
*Model_Space
  0
BLOCK_RECORD
  5
203
100
AcDbSymbolTableRecord
100
AcDbBlockTableRecord
  2
*Paper_Space
  0
BLOCK_RECORD
  5
204
100
AcDbSymbolTableRecord
100
AcDbBlockTableRecord
  2
_FILLED
  0
ENDTAB
  0
TABLE
  2
DIMSTYLE
  5
A
100
AcDbSymbolTable
 70
1
100
AcDbDimStyleTable
 71
0
  0
DIMSTYLE
105
205
100
AcDbSymbolTableRecord
100
AcDbDimStyleTableRecord
  2
STANDARD
 70
0
  3

  4

 40
1.0
 41
0.1
 42
0.0625
 43
0.38
 44
0.125
 45
0.0
 46
0.0
 47
0.01
 48
0.01
140
0.08
141
0.09
142
0.0
143
25.4
144
1.0
145
0.0
146
1.0
147
0.09
 71
1.0
 72
0.0
 73
1
 74
1
 75
0
 76
0
 77
0
 78
4
 79
1
170
1
171
1
172
0
173
0
174
0
175
0
176
0
177
0
178
0
270
2
179
2
271
2
272
2
273
2
274
2
275
0
280
0
281
0
282
0
283
1
284
4
285
0
286
0
287
3
288
0
340
11
278
46
341
204
342
204
343
204
344
204
  0
ENDTAB
  0
ENDSEC
  0
SECTION
  2
BLOCKS
  0
BLOCK
  5
20
100
AcDbEntity
  8
0
100
AcDbBlockBegin
  2
*Model_Space
 70
0
 10
0.0
 20
0.0
 30
0.0
  3
*Model_Space
  1

  0
ENDBLK
  5
21
100
AcDbEntity
  8
0
100
AcDbBlockEnd
  0
BLOCK
  5
1C
100
AcDbEntity
  8
0
100
AcDbBlockBegin
  2
*Paper_Space
 70
0
 10
0.0
 20
0.0
 30
0.0
  3
*Paper_Space
  1

  0
ENDBLK
  5
1D
100
AcDbEntity
  8
0
100
AcDbBlockEnd
  0
BLOCK
  5
206
100
AcDbEntity
  8
0
100
AcDbBlockBegin
  2
_FILLED
 70
64
 10
0.0
 20
0.0
  3
_FILLED
  1

  0
SOLID
  5
207
100
AcDbEntity
  8
0
  6
BYBLOCK
 62
0
100
AcDbTrace
 10
0.0
 20
0.0
 11
-1.0
 21
0.2
 12
-1.0
 22
-0.2
 13
-1.0
 23
-0.2
  0
ENDBLK
  5
208
100
AcDbEntity
  8
0
  6
BYBLOCK
 62
0
100
AcDbBlockEnd
  0
ENDSEC
  0
SECTION
  2
ENTITIES
  0
MTEXT
  5
209
100
AcDbEntity
  8
0
100
AcDbMText
 62
2
  6
CONTINUOUS
  7
STANDARD
 71
3
 72
1
 10
5.1310559006
 20
2.0104386645
 30
0.0
 11
1.0
 21
0.0
 31
0.0
 73
2
 44
0.9
  1
SCALE  1.000
 40
0.08
 41
0.768
  0
LINE
  5
20A
100
AcDbEntity
  8
0
100
AcDbLine
 62
7
  6
CONTINUOUS
 10
0.0
 20
0.0
 11
0.0
 21
8.5
  0
LINE
  5
20B
100
AcDbEntity
  8
0
100
AcDbLine
 62
7
  6
CONTINUOUS
 10
0.0
 20
0.0
 11
11.0
 21
0.0
  0
LINE
  5
20C
100
AcDbEntity
  8
0
100
AcDbLine
 62
7
  6
CONTINUOUS
 10
0.0
 20
8.5
 11
11.0
 21
8.5
  0
LINE
  5
20D
100
AcDbEntity
  8
0
100
AcDbLine
 62
7
  6
CONTINUOUS
 10
11.0
 20
0.0
 11
11.0
 21
8.5
  0
LINE
  5
20E
100
AcDbEntity
  8
0
100
AcDbLine
 62
7
  6
CONTINUOUS
 10
1.9642400629
 20
6.3376203417
 11
2.0025648402
 21
5.6063400269
  0
LINE
  5
20F
100
AcDbEntity
  8
0
100
AcDbLine
 62
7
  6
CONTINUOUS
 10
1.9550543478
 20
4.9419635119
 11
1.9550543478
 21
5.4326203417
  0
LINE
  5
210
100
AcDbEntity
  8
0
100
AcDbLine
 62
7
  6
CONTINUOUS
 10
1.9625543478
 20
6.3376203417
 11
1.9625543478
 21
6.4176203417
  0
LINE
  5
211
100
AcDbEntity
  8
0
100
AcDbLine
 62
7
  6
CONTINUOUS
 10
2.0825543478
 20
6.3376203417
 11
2.0825543478
 21
6.4176203417
  0
LINE
  5
212
100
AcDbEntity
  8
0
100
AcDbLine
 62
7
  6
CONTINUOUS
 10
2.1224003844
 20
5.4926203417
 11
2.1224003844
 21
5.6063400269
  0
LINE
  5
213
100
AcDbEntity
  8
0
100
AcDbLine
 62
7
  6
CONTINUOUS
 10
2.8400543478
 20
2.7626203417
 11
2.7859114837
 21
2.8167632058
  0
LINE
  5
214
100
AcDbEntity
  8
0
100
AcDbLine
 62
7
  6
CONTINUOUS
 10
2.7400543478
 20
2.8944531073
 11
2.7403247665
 21
2.8941408226
  0
LINE
  5
215
100
AcDbEntity
  8
0
100
AcDbLine
 62
7
  6
CONTINUOUS
 10
2.0840756071
 20
6.3376203417
 11
2.1224003844
 21
5.6063400269
  0
LINE
  5
216
100
AcDbEntity
  8
0
100
AcDbLine
 62
7
  6
CONTINUOUS
 10
2.1705246364
 20
5.4926203417
 11
2.171572792
 21
5.4726203417
  0
LINE
  5
217
100
AcDbEntity
  8
0
100
AcDbLine
 62
7
  6
CONTINUOUS
 10
2.2903601806
 20
5.4926203417
 11
2.2914083361
 21
5.4726203417
  0
LINE
  5
218
100
AcDbEntity
  8
0
100
AcDbLine
 62
7
  6
CONTINUOUS
 10
1.9950543478
 20
5.4726203417
 11
1.9550543478
 21
5.4326203417
  0
LINE
  5
219
100
AcDbEntity
  8
0
100
AcDbLine
 62
7
  6
CONTINUOUS
 10
2.7403247665
 20
2.8941408226
 11
2.8170345541
 21
2.8498467516
  0
LINE
  5
21A
100
AcDbEntity
  8
0
100
AcDbLine
 62
7
  6
CONTINUOUS
 10
2.7403247665
 20
3.0191408226
 11
2.7400543478
 21
3.0194531073
  0
LINE
  5
21B
100
AcDbEntity
  8
0
100
AcDbLine
 62
7
  6
CONTINUOUS
 10
2.7403247665
 20
3.1441408226
 11
2.7400543478
 21
3.1444531073
  0
LINE
  5
21C
100
AcDbEntity
  8
0
100
AcDbLine
 62
7
  6
CONTINUOUS
 10
2.7403247665
 20
3.0191408226
 11
2.8170345541
 21
2.9748467516
  0
LINE
  5
21D
100
AcDbEntity
  8
0
100
AcDbLine
 62
7
  6
CONTINUOUS
 10
2.7403247665
 20
3.1441408226
 11
2.8170345541
 21
3.0998467516
  0
LINE
  5
21E
100
AcDbEntity
  8
0
100
AcDbLine
 62
7
  6
CONTINUOUS
 10
2.7403247665
 20
3.3941408226
 11
2.7400543478
 21
3.3944531073
  0
LINE
  5
21F
100
AcDbEntity
  8
0
100
AcDbLine
 62
7
  6
CONTINUOUS
 10
2.7403247665
 20
3.5191408226
 11
2.7400543478
 21
3.5194531073
  0
LINE
  5
220
100
AcDbEntity
  8
0
100
AcDbLine
 62
7
  6
CONTINUOUS
 10
2.7400543478
 20
4.7530870892
 11
2.7400543478
 21
4.6444531073
  0
LINE
  5
221
100
AcDbEntity
  8
0
100
AcDbLine
 62
7
  6
CONTINUOUS
 10
2.7400543478
 20
4.540287576
 11
2.7400543478
 21
4.5194531073
  0
LINE
  5
222
100
AcDbEntity
  8
0
100
AcDbLine
 62
7
  6
CONTINUOUS
 10
2.7400543478
 20
4.415287576
 11
2.7400543478
 21
4.3944531073
  0
LINE
  5
223
100
AcDbEntity
  8
0
100
AcDbLine
 62
7
  6
CONTINUOUS
 10
2.7400543478
 20
4.290287576
 11
2.7400543478
 21
4.2694531073
  0
LINE
  5
224
100
AcDbEntity
  8
0
100
AcDbLine
 62
7
  6
CONTINUOUS
 10
2.7400543478
 20
4.165287576
 11
2.7400543478
 21
4.1444531073
  0
LINE
  5
225
100
AcDbEntity
  8
0
100
AcDbLine
 62
7
  6
CONTINUOUS
 10
2.7400543478
 20
4.040287576
 11
2.7400543478
 21
4.0194531073
  0
LINE
  5
226
100
AcDbEntity
  8
0
100
AcDbLine
 62
7
  6
CONTINUOUS
 10
2.7400543478
 20
3.915287576
 11
2.7400543478
 21
3.8944531073
  0
LINE
  5
227
100
AcDbEntity
  8
0
100
AcDbLine
 62
7
  6
CONTINUOUS
 10
2.7400543478
 20
3.790287576
 11
2.7400543478
 21
3.7694531073
  0
LINE
  5
228
100
AcDbEntity
  8
0
100
AcDbLine
 62
7
  6
CONTINUOUS
 10
2.7400543478
 20
3.665287576
 11
2.7400543478
 21
3.6444531073
  0
LINE
  5
229
100
AcDbEntity
  8
0
100
AcDbLine
 62
7
  6
CONTINUOUS
 10
2.7400543478
 20
3.540287576
 11
2.7400543478
 21
3.5194531073
  0
LINE
  5
22A
100
AcDbEntity
  8
0
100
AcDbLine
 62
7
  6
CONTINUOUS
 10
2.7400543478
 20
3.415287576
 11
2.7400543478
 21
3.3944531073
  0
LINE
  5
22B
100
AcDbEntity
  8
0
100
AcDbLine
 62
7
  6
CONTINUOUS
 10
2.7400543478
 20
3.290287576
 11
2.7400543478
 21
3.2694531073
  0
LINE
  5
22C
100
AcDbEntity
  8
0
100
AcDbLine
 62
7
  6
CONTINUOUS
 10
2.7400543478
 20
3.165287576
 11
2.7400543478
 21
3.1444531073
  0
LINE
  5
22D
100
AcDbEntity
  8
0
100
AcDbLine
 62
7
  6
CONTINUOUS
 10
2.7400543478
 20
3.040287576
 11
2.7400543478
 21
3.0194531073
  0
LINE
  5
22E
100
AcDbEntity
  8
0
100
AcDbLine
 62
7
  6
CONTINUOUS
 10
2.7400543478
 20
2.915287576
 11
2.7400543478
 21
2.8944531073
  0
LINE
  5
22F
100
AcDbEntity
  8
0
100
AcDbLine
 62
7
  6
CONTINUOUS
 10
2.8167543478
 20
4.6001703417
 11
2.8167543478
 21
4.5845703417
  0
LINE
  5
230
100
AcDbEntity
  8
0
100
AcDbLine
 62
7
  6
CONTINUOUS
 10
2.8167543478
 20
4.4751703417
 11
2.8167543478
 21
4.4595703417
  0
LINE
  5
231
100
AcDbEntity
  8
0
100
AcDbLine
 62
7
  6
CONTINUOUS
 10
2.8167543478
 20
4.3501703417
 11
2.8167543478
 21
4.3345703417
  0
LINE
  5
232
100
AcDbEntity
  8
0
100
AcDbLine
 62
7
  6
CONTINUOUS
 10
2.8167543478
 20
4.2251703417
 11
2.8167543478
 21
4.2095703417
  0
LINE
  5
233
100
AcDbEntity
  8
0
100
AcDbLine
 62
7
  6
CONTINUOUS
 10
2.8167543478
 20
4.1001703417
 11
2.8167543478
 21
4.0845703417
  0
LINE
  5
234
100
AcDbEntity
  8
0
100
AcDbLine
 62
7
  6
CONTINUOUS
 10
2.8167543478
 20
3.9751703417
 11
2.8167543478
 21
3.9595703417
  0
LINE
  5
235
100
AcDbEntity
  8
0
100
AcDbLine
 62
7
  6
CONTINUOUS
 10
2.8167543478
 20
3.8501703417
 11
2.8167543478
 21
3.8345703417
  0
LINE
  5
236
100
AcDbEntity
  8
0
100
AcDbLine
 62
7
  6
CONTINUOUS
 10
2.8167543478
 20
3.7251703417
 11
2.8167543478
 21
3.7095703417
  0
LINE
  5
237
100
AcDbEntity
  8
0
100
AcDbLine
 62
7
  6
CONTINUOUS
 10
2.8167543478
 20
3.6001703417
 11
2.8167543478
 21
3.5845703417
  0
LINE
  5
238
100
AcDbEntity
  8
0
100
AcDbLine
 62
7
  6
CONTINUOUS
 10
2.8167543478
 20
3.4751703417
 11
2.8167543478
 21
3.4595703417
  0
LINE
  5
239
100
AcDbEntity
  8
0
100
AcDbLine
 62
7
  6
CONTINUOUS
 10
2.8167543478
 20
3.3501703417
 11
2.8167543478
 21
3.3345703417
  0
LINE
  5
23A
100
AcDbEntity
  8
0
100
AcDbLine
 62
7
  6
CONTINUOUS
 10
2.8167543478
 20
3.2251703417
 11
2.8167543478
 21
3.2095703417
  0
LINE
  5
23B
100
AcDbEntity
  8
0
100
AcDbLine
 62
7
  6
CONTINUOUS
 10
2.8167543478
 20
3.1001703417
 11
2.8167543478
 21
3.0845703417
  0
LINE
  5
23C
100
AcDbEntity
  8
0
100
AcDbLine
 62
7
  6
CONTINUOUS
 10
2.8167543478
 20
2.9751703417
 11
2.8167543478
 21
2.9595703417
  0
LINE
  5
23D
100
AcDbEntity
  8
0
100
AcDbLine
 62
7
  6
CONTINUOUS
 10
2.8167543478
 20
2.8501703417
 11
2.8167543478
 21
2.8345703417
  0
LINE
  5
23E
100
AcDbEntity
  8
0
100
AcDbLine
 62
7
  6
CONTINUOUS
 10
2.7403247665
 20
3.2691408226
 11
2.8170345541
 21
3.2248467516
  0
LINE
  5
23F
100
AcDbEntity
  8
0
100
AcDbLine
 62
7
  6
CONTINUOUS
 10
2.7403247665
 20
3.3941408226
 11
2.8170345541
 21
3.3498467516
  0
LINE
  5
240
100
AcDbEntity
  8
0
100
AcDbLine
 62
7
  6
CONTINUOUS
 10
2.7403247665
 20
3.6441408226
 11
2.7400543478
 21
3.6444531073
  0
LINE
  5
241
100
AcDbEntity
  8
0
100
AcDbLine
 62
7
  6
CONTINUOUS
 10
2.7403247665
 20
3.7691408226
 11
2.7400543478
 21
3.7694531073
  0
LINE
  5
242
100
AcDbEntity
  8
0
100
AcDbLine
 62
7
  6
CONTINUOUS
 10
2.7403247665
 20
3.8941408226
 11
2.7400543478
 21
3.8944531073
  0
LINE
  5
243
100
AcDbEntity
  8
0
100
AcDbLine
 62
7
  6
CONTINUOUS
 10
2.7403247665
 20
3.5191408226
 11
2.8170345541
 21
3.4748467516
  0
LINE
  5
244
100
AcDbEntity
  8
0
100
AcDbLine
 62
7
  6
CONTINUOUS
 10
2.7403247665
 20
3.6441408226
 11
2.8170345541
 21
3.5998467516
  0
LINE
  5
245
100
AcDbEntity
  8
0
100
AcDbLine
 62
7
  6
CONTINUOUS
 10
2.7403247665
 20
4.0191408226
 11
2.7400543478
 21
4.0194531073
  0
LINE
  5
246
100
AcDbEntity
  8
0
100
AcDbLine
 62
7
  6
CONTINUOUS
 10
2.7403247665
 20
4.1441408226
 11
2.7400543478
 21
4.1444531073
  0
LINE
  5
247
100
AcDbEntity
  8
0
100
AcDbLine
 62
7
  6
CONTINUOUS
 10
2.7403247665
 20
4.2691408226
 11
2.7400543478
 21
4.2694531073
  0
LINE
  5
248
100
AcDbEntity
  8
0
100
AcDbLine
 62
7
  6
CONTINUOUS
 10
2.7400543478
 20
4.540287576
 11
2.7403247665
 21
4.5405998607
  0
LINE
  5
249
100
AcDbEntity
  8
0
100
AcDbLine
 62
7
  6
CONTINUOUS
 10
7.0300543478
 20
2.7626203417
 11
2.8400543478
 21
2.7626203417
  0
LINE
  5
24A
100
AcDbEntity
  8
0
100
AcDbLine
 62
7
  6
CONTINUOUS
 10
7.0533543478
 20
2.7859203417
 11
7.0451641721
 21
2.7859203417
  0
LINE
  5
24B
100
AcDbEntity
  8
0
100
AcDbLine
 62
7
  6
CONTINUOUS
 10
2.7403247665
 20
3.7691408226
 11
2.8170345541
 21
3.7248467516
  0
LINE
  5
24C
100
AcDbEntity
  8
0
100
AcDbLine
 62
7
  6
CONTINUOUS
 10
2.7403247665
 20
3.8941408226
 11
2.8170345541
 21
3.8498467516
  0
LINE
  5
24D
100
AcDbEntity
  8
0
100
AcDbLine
 62
7
  6
CONTINUOUS
 10
2.7403247665
 20
4.3941408226
 11
2.7400543478
 21
4.3944531073
  0
LINE
  5
24E
100
AcDbEntity
  8
0
100
AcDbLine
 62
7
  6
CONTINUOUS
 10
2.7403247665
 20
4.5191408226
 11
2.7400543478
 21
4.5194531073
  0
LINE
  5
24F
100
AcDbEntity
  8
0
100
AcDbLine
 62
7
  6
CONTINUOUS
 10
2.7403247665
 20
4.6441408226
 11
2.7400543478
 21
4.6444531073
  0
LINE
  5
250
100
AcDbEntity
  8
0
100
AcDbLine
 62
7
  6
CONTINUOUS
 10
2.7859854591
 20
2.816965391
 11
2.7859114837
 21
2.8167632058
  0
LINE
  5
251
100
AcDbEntity
  8
0
100
AcDbLine
 62
7
  6
CONTINUOUS
 10
2.7400543478
 20
4.415287576
 11
2.7403247665
 21
4.4155998607
  0
LINE
  5
252
100
AcDbEntity
  8
0
100
AcDbLine
 62
7
  6
CONTINUOUS
 10
2.7400543478
 20
4.290287576
 11
2.7403247665
 21
4.2905998607
  0
LINE
  5
253
100
AcDbEntity
  8
0
100
AcDbLine
 62
7
  6
CONTINUOUS
 10
2.7403247665
 20
4.1655998607
 11
2.7400543478
 21
4.165287576
  0
LINE
  5
254
100
AcDbEntity
  8
0
100
AcDbLine
 62
7
  6
CONTINUOUS
 10
2.7403247665
 20
4.0191408226
 11
2.8170345541
 21
3.9748467516
  0
LINE
  5
255
100
AcDbEntity
  8
0
100
AcDbLine
 62
7
  6
CONTINUOUS
 10
2.7403247665
 20
4.1441408226
 11
2.8170345541
 21
4.0998467516
  0
LINE
  5
256
100
AcDbEntity
  8
0
100
AcDbLine
 62
7
  6
CONTINUOUS
 10
2.7403247665
 20
4.2691408226
 11
2.8170345541
 21
4.2248467516
  0
LINE
  5
257
100
AcDbEntity
  8
0
100
AcDbLine
 62
7
  6
CONTINUOUS
 10
2.7400543478
 20
4.040287576
 11
2.7403247665
 21
4.0405998607
  0
LINE
  5
258
100
AcDbEntity
  8
0
100
AcDbLine
 62
7
  6
CONTINUOUS
 10
2.7400543478
 20
3.915287576
 11
2.7403247665
 21
3.9155998607
  0
LINE
  5
259
100
AcDbEntity
  8
0
100
AcDbLine
 62
7
  6
CONTINUOUS
 10
2.7400543478
 20
3.790287576
 11
2.7403247665
 21
3.7905998607
  0
LINE
  5
25A
100
AcDbEntity
  8
0
100
AcDbLine
 62
7
  6
CONTINUOUS
 10
2.7403247665
 20
4.3941408226
 11
2.8170345541
 21
4.3498467516
  0
LINE
  5
25B
100
AcDbEntity
  8
0
100
AcDbLine
 62
7
  6
CONTINUOUS
 10
2.7403247665
 20
4.5191408226
 11
2.8170345541
 21
4.4748467516
  0
LINE
  5
25C
100
AcDbEntity
  8
0
100
AcDbLine
 62
7
  6
CONTINUOUS
 10
2.7403247665
 20
3.6655998607
 11
2.7400543478
 21
3.665287576
  0
LINE
  5
25D
100
AcDbEntity
  8
0
100
AcDbLine
 62
7
  6
CONTINUOUS
 10
2.7400543478
 20
3.540287576
 11
2.7403247665
 21
3.5405998607
  0
LINE
  5
25E
100
AcDbEntity
  8
0
100
AcDbLine
 62
7
  6
CONTINUOUS
 10
2.8170345541
 20
4.5848939317
 11
2.7403247665
 21
4.5405998607
  0
LINE
  5
25F
100
AcDbEntity
  8
0
100
AcDbLine
 62
7
  6
CONTINUOUS
 10
2.8170345541
 20
4.4598939317
 11
2.7403247665
 21
4.4155998607
  0
LINE
  5
260
100
AcDbEntity
  8
0
100
AcDbLine
 62
7
  6
CONTINUOUS
 10
2.7403247665
 20
4.6441408226
 11
2.8170345541
 21
4.5998467516
  0
LINE
  5
261
100
AcDbEntity
  8
0
100
AcDbLine
 62
7
  6
CONTINUOUS
 10
2.7400543478
 20
3.415287576
 11
2.7403247665
 21
3.4155998607
  0
LINE
  5
262
100
AcDbEntity
  8
0
100
AcDbLine
 62
7
  6
CONTINUOUS
 10
2.7400543478
 20
3.290287576
 11
2.7403247665
 21
3.2905998607
  0
LINE
  5
263
100
AcDbEntity
  8
0
100
AcDbLine
 62
7
  6
CONTINUOUS
 10
2.7403247665
 20
3.1655998607
 11
2.7400543478
 21
3.165287576
  0
LINE
  5
264
100
AcDbEntity
  8
0
100
AcDbLine
 62
7
  6
CONTINUOUS
 10
2.8170345541
 20
4.3348939317
 11
2.7403247665
 21
4.2905998607
  0
LINE
  5
265
100
AcDbEntity
  8
0
100
AcDbLine
 62
7
  6
CONTINUOUS
 10
2.8170345541
 20
4.2098939317
 11
2.7403247665
 21
4.1655998607
  0
LINE
  5
266
100
AcDbEntity
  8
0
100
AcDbLine
 62
7
  6
CONTINUOUS
 10
2.7400543478
 20
3.040287576
 11
2.7403247665
 21
3.0405998607
  0
LINE
  5
267
100
AcDbEntity
  8
0
100
AcDbLine
 62
7
  6
CONTINUOUS
 10
2.7400543478
 20
2.915287576
 11
2.7403247665
 21
2.9155998607
  0
LINE
  5
268
100
AcDbEntity
  8
0
100
AcDbLine
 62
7
  6
CONTINUOUS
 10
2.8170345541
 20
4.0848939317
 11
2.7403247665
 21
4.0405998607
  0
LINE
  5
269
100
AcDbEntity
  8
0
100
AcDbLine
 62
7
  6
CONTINUOUS
 10
2.8170345541
 20
3.9598939317
 11
2.7403247665
 21
3.9155998607
  0
LINE
  5
26A
100
AcDbEntity
  8
0
100
AcDbLine
 62
7
  6
CONTINUOUS
 10
2.8170345541
 20
3.8348939317
 11
2.7403247665
 21
3.7905998607
  0
LINE
  5
26B
100
AcDbEntity
  8
0
100
AcDbLine
 62
7
  6
CONTINUOUS
 10
2.8170345541
 20
3.7098939317
 11
2.7403247665
 21
3.6655998607
  0
LINE
  5
26C
100
AcDbEntity
  8
0
100
AcDbLine
 62
7
  6
CONTINUOUS
 10
7.1237479865
 20
2.8565851444
 11
7.0530741415
 21
2.8973939317
  0
LINE
  5
26D
100
AcDbEntity
  8
0
100
AcDbLine
 62
7
  6
CONTINUOUS
 10
7.1297839291
 20
2.9780998607
 11
7.0530741415
 21
3.0223939317
  0
LINE
  5
26E
100
AcDbEntity
  8
0
100
AcDbLine
 62
7
  6
CONTINUOUS
 10
2.8170345541
 20
3.5848939317
 11
2.7403247665
 21
3.5405998607
  0
LINE
  5
26F
100
AcDbEntity
  8
0
100
AcDbLine
 62
7
  6
CONTINUOUS
 10
2.8170345541
 20
3.4598939317
 11
2.7403247665
 21
3.4155998607
  0
LINE
  5
270
100
AcDbEntity
  8
0
100
AcDbLine
 62
7
  6
CONTINUOUS
 10
2.8170345541
 20
3.3348939317
 11
2.7403247665
 21
3.2905998607
  0
LINE
  5
271
100
AcDbEntity
  8
0
100
AcDbLine
 62
7
  6
CONTINUOUS
 10
7.9150543478
 20
4.9419542378
 11
7.2230642063
 21
4.8580549182
  0
LINE
  5
272
100
AcDbEntity
  8
0
100
AcDbLine
 62
7
  6
CONTINUOUS
 10
1.9550543478
 20
4.9419542378
 11
2.6470444893
 21
4.8580549182
  0
LINE
  5
273
100
AcDbEntity
  8
0
100
AcDbLine
 62
7
  6
CONTINUOUS
 10
7.1297839291
 20
3.1030998607
 11
7.0530741415
 21
3.1473939317
  0
LINE
  5
274
100
AcDbEntity
  8
0
100
AcDbLine
 62
7
  6
CONTINUOUS
 10
7.1297839291
 20
3.2280998607
 11
7.0530741415
 21
3.2723939317
  0
LINE
  5
275
100
AcDbEntity
  8
0
100
AcDbLine
 62
7
  6
CONTINUOUS
 10
7.1297839291
 20
3.3530998607
 11
7.0530741415
 21
3.3973939317
  0
LINE
  5
276
100
AcDbEntity
  8
0
100
AcDbLine
 62
7
  6
CONTINUOUS
 10
2.8170345541
 20
3.2098939317
 11
2.7403247665
 21
3.1655998607
  0
LINE
  5
277
100
AcDbEntity
  8
0
100
AcDbLine
 62
7
  6
CONTINUOUS
 10
2.8170345541
 20
3.0848939317
 11
2.7403247665
 21
3.0405998607
  0
LINE
  5
278
100
AcDbEntity
  8
0
100
AcDbLine
 62
7
  6
CONTINUOUS
 10
2.7400543478
 20
4.7530870892
 11
7.1300543478
 21
4.7530870892
  0
LINE
  5
279
100
AcDbEntity
  8
0
100
AcDbLine
 62
7
  6
CONTINUOUS
 10
7.1297839291
 20
3.4780998607
 11
7.0530741415
 21
3.5223939317
  0
LINE
  5
27A
100
AcDbEntity
  8
0
100
AcDbLine
 62
7
  6
CONTINUOUS
 10
7.1297839291
 20
3.6030998607
 11
7.0530741415
 21
3.6473939317
  0
LINE
  5
27B
100
AcDbEntity
  8
0
100
AcDbLine
 62
7
  6
CONTINUOUS
 10
2.8170345541
 20
2.9598939317
 11
2.7403247665
 21
2.9155998607
  0
LINE
  5
27C
100
AcDbEntity
  8
0
100
AcDbLine
 62
7
  6
CONTINUOUS
 10
2.8170345541
 20
2.8348939317
 11
2.7859854591
 21
2.816965391
  0
LINE
  5
27D
100
AcDbEntity
  8
0
100
AcDbLine
 62
7
  6
CONTINUOUS
 10
2.6470444893
 20
4.8580549182
 11
7.2230642063
 21
4.8580549182
  0
LINE
  5
27E
100
AcDbEntity
  8
0
100
AcDbLine
 62
7
  6
CONTINUOUS
 10
7.1297839291
 20
3.7280998607
 11
7.0530741415
 21
3.7723939317
  0
LINE
  5
27F
100
AcDbEntity
  8
0
100
AcDbLine
 62
7
  6
CONTINUOUS
 10
7.1297839291
 20
3.8530998607
 11
7.0530741415
 21
3.8973939317
  0
LINE
  5
280
100
AcDbEntity
  8
0
100
AcDbLine
 62
7
  6
CONTINUOUS
 10
7.1297839291
 20
3.9780998607
 11
7.0530741415
 21
4.0223939317
  0
LINE
  5
281
100
AcDbEntity
  8
0
100
AcDbLine
 62
7
  6
CONTINUOUS
 10
7.1297839291
 20
4.1030998607
 11
7.0530741415
 21
4.1473939317
  0
LINE
  5
282
100
AcDbEntity
  8
0
100
AcDbLine
 62
7
  6
CONTINUOUS
 10
7.1300543478
 20
2.977787576
 11
7.1297839291
 21
2.9780998607
  0
LINE
  5
283
100
AcDbEntity
  8
0
100
AcDbLine
 62
7
  6
CONTINUOUS
 10
7.1300543478
 20
3.102787576
 11
7.1297839291
 21
3.1030998607
  0
LINE
  5
284
100
AcDbEntity
  8
0
100
AcDbLine
 62
7
  6
CONTINUOUS
 10
6.3057129912
 20
4.6454203417
 11
6.3553421835
 21
4.6897031073
  0
LINE
  5
285
100
AcDbEntity
  8
0
100
AcDbLine
 62
7
  6
CONTINUOUS
 10
1.9550543478
 20
5.4326203417
 11
7.9150543478
 21
5.4326203417
  0
LINE
  5
286
100
AcDbEntity
  8
0
100
AcDbLine
 62
7
  6
CONTINUOUS
 10
1.9950543478
 20
5.4726203417
 11
7.8750543478
 21
5.4726203417
  0
LINE
  5
287
100
AcDbEntity
  8
0
100
AcDbLine
 62
7
  6
CONTINUOUS
 10
7.7477083113
 20
5.4926203417
 11
2.1224003844
 21
5.4926203417
  0
LINE
  5
288
100
AcDbEntity
  8
0
100
AcDbLine
 62
7
  6
CONTINUOUS
 10
7.1297839291
 20
4.2280998607
 11
7.0530741415
 21
4.2723939317
  0
LINE
  5
289
100
AcDbEntity
  8
0
100
AcDbLine
 62
7
  6
CONTINUOUS
 10
7.1297839291
 20
4.3530998607
 11
7.0530741415
 21
4.3973939317
  0
LINE
  5
28A
100
AcDbEntity
  8
0
100
AcDbLine
 62
7
  6
CONTINUOUS
 10
6.3553421835
 20
4.585537576
 11
6.3057129912
 21
4.6298203417
  0
LINE
  5
28B
100
AcDbEntity
  8
0
100
AcDbLine
 62
7
  6
CONTINUOUS
 10
7.1297839291
 20
3.2280998607
 11
7.1300543478
 21
3.227787576
  0
LINE
  5
28C
100
AcDbEntity
  8
0
100
AcDbLine
 62
7
  6
CONTINUOUS
 10
7.1300543478
 20
3.352787576
 11
7.1297839291
 21
3.3530998607
  0
LINE
  5
28D
100
AcDbEntity
  8
0
100
AcDbLine
 62
7
  6
CONTINUOUS
 10
7.1300543478
 20
3.477787576
 11
7.1297839291
 21
3.4780998607
  0
LINE
  5
28E
100
AcDbEntity
  8
0
100
AcDbLine
 62
7
  6
CONTINUOUS
 10
7.0530741415
 20
4.5373467516
 11
7.1297839291
 21
4.5816408226
  0
LINE
  5
28F
100
AcDbEntity
  8
0
100
AcDbLine
 62
7
  6
CONTINUOUS
 10
7.7477083113
 20
5.6063400269
 11
2.1224003844
 21
5.6063400269
  0
LINE
  5
290
100
AcDbEntity
  8
0
100
AcDbLine
 62
7
  6
CONTINUOUS
 10
7.1297839291
 20
4.4780998607
 11
7.0530741415
 21
4.5223939317
  0
LINE
  5
291
100
AcDbEntity
  8
0
100
AcDbLine
 62
7
  6
CONTINUOUS
 10
7.1300543478
 20
3.602787576
 11
7.1297839291
 21
3.6030998607
  0
LINE
  5
292
100
AcDbEntity
  8
0
100
AcDbLine
 62
7
  6
CONTINUOUS
 10
7.1300543478
 20
3.727787576
 11
7.1297839291
 21
3.7280998607
  0
LINE
  5
293
100
AcDbEntity
  8
0
100
AcDbLine
 62
7
  6
CONTINUOUS
 10
7.1300543478
 20
3.852787576
 11
7.1297839291
 21
3.8530998607
  0
LINE
  5
294
100
AcDbEntity
  8
0
100
AcDbLine
 62
7
  6
CONTINUOUS
 10
6.3057129912
 20
4.6298203417
 11
6.3057129912
 21
4.6454203417
  0
LINE
  5
295
100
AcDbEntity
  8
0
100
AcDbLine
 62
7
  6
CONTINUOUS
 10
6.3553421835
 20
4.6897031073
 11
6.3553421835
 21
4.585537576
  0
LINE
  5
296
100
AcDbEntity
  8
0
100
AcDbLine
 62
7
  6
CONTINUOUS
 10
7.0530741415
 20
4.4123467516
 11
7.1297839291
 21
4.4566408226
  0
LINE
  5
297
100
AcDbEntity
  8
0
100
AcDbLine
 62
7
  6
CONTINUOUS
 10
7.0530741415
 20
4.2873467516
 11
7.1297839291
 21
4.3316408226
  0
LINE
  5
298
100
AcDbEntity
  8
0
100
AcDbLine
 62
7
  6
CONTINUOUS
 10
7.0530741415
 20
4.1623467516
 11
7.1297839291
 21
4.2066408226
  0
LINE
  5
299
100
AcDbEntity
  8
0
100
AcDbLine
 62
7
  6
CONTINUOUS
 10
7.1300543478
 20
3.977787576
 11
7.1297839291
 21
3.9780998607
  0
LINE
  5
29A
100
AcDbEntity
  8
0
100
AcDbLine
 62
7
  6
CONTINUOUS
 10
7.1300543478
 20
4.102787576
 11
7.1297839291
 21
4.1030998607
  0
LINE
  5
29B
100
AcDbEntity
  8
0
100
AcDbLine
 62
7
  6
CONTINUOUS
 10
7.1300543478
 20
4.227787576
 11
7.1297839291
 21
4.2280998607
  0
LINE
  5
29C
100
AcDbEntity
  8
0
100
AcDbLine
 62
7
  6
CONTINUOUS
 10
7.0530741415
 20
4.0373467516
 11
7.1297839291
 21
4.0816408226
  0
LINE
  5
29D
100
AcDbEntity
  8
0
100
AcDbLine
 62
7
  6
CONTINUOUS
 10
7.0530741415
 20
3.9123467516
 11
7.1297839291
 21
3.9566408226
  0
LINE
  5
29E
100
AcDbEntity
  8
0
100
AcDbLine
 62
7
  6
CONTINUOUS
 10
7.1300543478
 20
4.352787576
 11
7.1297839291
 21
4.3530998607
  0
LINE
  5
29F
100
AcDbEntity
  8
0
100
AcDbLine
 62
7
  6
CONTINUOUS
 10
7.1300543478
 20
4.477787576
 11
7.1297839291
 21
4.4780998607
  0
LINE
  5
2A0
100
AcDbEntity
  8
0
100
AcDbLine
 62
7
  6
CONTINUOUS
 10
7.1237479865
 20
2.8565851444
 11
7.1238206242
 21
2.856386618
  0
LINE
  5
2A1
100
AcDbEntity
  8
0
100
AcDbLine
 62
7
  6
CONTINUOUS
 10
7.1297839291
 20
4.5816408226
 11
7.1300543478
 21
4.5819531073
  0
LINE
  5
2A2
100
AcDbEntity
  8
0
100
AcDbLine
 62
7
  6
CONTINUOUS
 10
7.1297839291
 20
4.4566408226
 11
7.1300543478
 21
4.4569531073
  0
LINE
  5
2A3
100
AcDbEntity
  8
0
100
AcDbLine
 62
7
  6
CONTINUOUS
 10
7.1297839291
 20
4.3316408226
 11
7.1300543478
 21
4.3319531073
  0
LINE
  5
2A4
100
AcDbEntity
  8
0
100
AcDbLine
 62
7
  6
CONTINUOUS
 10
7.0530741415
 20
3.7873467516
 11
7.1297839291
 21
3.8316408226
  0
LINE
  5
2A5
100
AcDbEntity
  8
0
100
AcDbLine
 62
7
  6
CONTINUOUS
 10
7.0530741415
 20
3.6623467516
 11
7.1297839291
 21
3.7066408226
  0
LINE
  5
2A6
100
AcDbEntity
  8
0
100
AcDbLine
 62
7
  6
CONTINUOUS
 10
1.9625543478
 20
6.3376203417
 11
7.9075543478
 21
6.3376203417
  0
LINE
  5
2A7
100
AcDbEntity
  8
0
100
AcDbLine
 62
7
  6
CONTINUOUS
 10
1.9625543478
 20
6.4176203417
 11
7.9075543478
 21
6.4176203417
  0
LINE
  5
2A8
100
AcDbEntity
  8
0
100
AcDbLine
 62
7
  6
CONTINUOUS
 10
7.0533543478
 20
2.7859203417
 11
7.0533543478
 21
2.7876703417
  0
LINE
  5
2A9
100
AcDbEntity
  8
0
100
AcDbLine
 62
7
  6
CONTINUOUS
 10
7.0533543478
 20
2.8970703417
 11
7.0533543478
 21
2.9126703417
  0
LINE
  5
2AA
100
AcDbEntity
  8
0
100
AcDbLine
 62
7
  6
CONTINUOUS
 10
7.0533543478
 20
3.0220703417
 11
7.0533543478
 21
3.0376703417
  0
LINE
  5
2AB
100
AcDbEntity
  8
0
100
AcDbLine
 62
7
  6
CONTINUOUS
 10
7.0533543478
 20
3.1470703417
 11
7.0533543478
 21
3.1626703417
  0
LINE
  5
2AC
100
AcDbEntity
  8
0
100
AcDbLine
 62
7
  6
CONTINUOUS
 10
7.0533543478
 20
3.2720703417
 11
7.0533543478
 21
3.2876703417
  0
LINE
  5
2AD
100
AcDbEntity
  8
0
100
AcDbLine
 62
7
  6
CONTINUOUS
 10
7.0533543478
 20
3.3970703417
 11
7.0533543478
 21
3.4126703417
  0
LINE
  5
2AE
100
AcDbEntity
  8
0
100
AcDbLine
 62
7
  6
CONTINUOUS
 10
7.0533543478
 20
3.5220703417
 11
7.0533543478
 21
3.5376703417
  0
LINE
  5
2AF
100
AcDbEntity
  8
0
100
AcDbLine
 62
7
  6
CONTINUOUS
 10
7.0533543478
 20
3.6470703417
 11
7.0533543478
 21
3.6626703417
  0
LINE
  5
2B0
100
AcDbEntity
  8
0
100
AcDbLine
 62
7
  6
CONTINUOUS
 10
7.0533543478
 20
3.7720703417
 11
7.0533543478
 21
3.7876703417
  0
LINE
  5
2B1
100
AcDbEntity
  8
0
100
AcDbLine
 62
7
  6
CONTINUOUS
 10
7.0533543478
 20
3.8970703417
 11
7.0533543478
 21
3.9126703417
  0
LINE
  5
2B2
100
AcDbEntity
  8
0
100
AcDbLine
 62
7
  6
CONTINUOUS
 10
7.0533543478
 20
4.0220703417
 11
7.0533543478
 21
4.0376703417
  0
LINE
  5
2B3
100
AcDbEntity
  8
0
100
AcDbLine
 62
7
  6
CONTINUOUS
 10
7.0533543478
 20
4.1470703417
 11
7.0533543478
 21
4.1626703417
  0
LINE
  5
2B4
100
AcDbEntity
  8
0
100
AcDbLine
 62
7
  6
CONTINUOUS
 10
7.0533543478
 20
4.2720703417
 11
7.0533543478
 21
4.2876703417
  0
LINE
  5
2B5
100
AcDbEntity
  8
0
100
AcDbLine
 62
7
  6
CONTINUOUS
 10
7.0533543478
 20
4.3970703417
 11
7.0533543478
 21
4.4126703417
  0
LINE
  5
2B6
100
AcDbEntity
  8
0
100
AcDbLine
 62
7
  6
CONTINUOUS
 10
7.0533543478
 20
4.5220703417
 11
7.0533543478
 21
4.5376703417
  0
LINE
  5
2B7
100
AcDbEntity
  8
0
100
AcDbLine
 62
7
  6
CONTINUOUS
 10
7.1297839291
 20
4.2066408226
 11
7.1300543478
 21
4.2069531073
  0
LINE
  5
2B8
100
AcDbEntity
  8
0
100
AcDbLine
 62
7
  6
CONTINUOUS
 10
7.1297839291
 20
4.0816408226
 11
7.1300543478
 21
4.0819531073
  0
LINE
  5
2B9
100
AcDbEntity
  8
0
100
AcDbLine
 62
7
  6
CONTINUOUS
 10
7.1297839291
 20
3.9566408226
 11
7.1300543478
 21
3.9569531073
  0
LINE
  5
2BA
100
AcDbEntity
  8
0
100
AcDbLine
 62
7
  6
CONTINUOUS
 10
7.0530741415
 20
3.5373467516
 11
7.1297839291
 21
3.5816408226
  0
LINE
  5
2BB
100
AcDbEntity
  8
0
100
AcDbLine
 62
7
  6
CONTINUOUS
 10
7.0530741415
 20
3.4123467516
 11
7.1297839291
 21
3.4566408226
  0
LINE
  5
2BC
100
AcDbEntity
  8
0
100
AcDbLine
 62
7
  6
CONTINUOUS
 10
7.1300543478
 20
4.7530870892
 11
7.1300543478
 21
4.5819531073
  0
LINE
  5
2BD
100
AcDbEntity
  8
0
100
AcDbLine
 62
7
  6
CONTINUOUS
 10
7.1300543478
 20
4.477787576
 11
7.1300543478
 21
4.4569531073
  0
LINE
  5
2BE
100
AcDbEntity
  8
0
100
AcDbLine
 62
7
  6
CONTINUOUS
 10
7.1300543478
 20
4.352787576
 11
7.1300543478
 21
4.3319531073
  0
LINE
  5
2BF
100
AcDbEntity
  8
0
100
AcDbLine
 62
7
  6
CONTINUOUS
 10
7.1300543478
 20
4.227787576
 11
7.1300543478
 21
4.2069531073
  0
LINE
  5
2C0
100
AcDbEntity
  8
0
100
AcDbLine
 62
7
  6
CONTINUOUS
 10
7.1300543478
 20
4.102787576
 11
7.1300543478
 21
4.0819531073
  0
LINE
  5
2C1
100
AcDbEntity
  8
0
100
AcDbLine
 62
7
  6
CONTINUOUS
 10
7.1300543478
 20
3.977787576
 11
7.1300543478
 21
3.9569531073
  0
LINE
  5
2C2
100
AcDbEntity
  8
0
100
AcDbLine
 62
7
  6
CONTINUOUS
 10
7.1300543478
 20
3.852787576
 11
7.1300543478
 21
3.8319531073
  0
LINE
  5
2C3
100
AcDbEntity
  8
0
100
AcDbLine
 62
7
  6
CONTINUOUS
 10
7.1300543478
 20
3.727787576
 11
7.1300543478
 21
3.7069531073
  0
LINE
  5
2C4
100
AcDbEntity
  8
0
100
AcDbLine
 62
7
  6
CONTINUOUS
 10
7.1300543478
 20
3.602787576
 11
7.1300543478
 21
3.5819531073
  0
LINE
  5
2C5
100
AcDbEntity
  8
0
100
AcDbLine
 62
7
  6
CONTINUOUS
 10
7.1300543478
 20
3.477787576
 11
7.1300543478
 21
3.4569531073
  0
LINE
  5
2C6
100
AcDbEntity
  8
0
100
AcDbLine
 62
7
  6
CONTINUOUS
 10
7.1300543478
 20
3.352787576
 11
7.1300543478
 21
3.3319531073
  0
LINE
  5
2C7
100
AcDbEntity
  8
0
100
AcDbLine
 62
7
  6
CONTINUOUS
 10
7.1300543478
 20
3.227787576
 11
7.1300543478
 21
3.2069531073
  0
LINE
  5
2C8
100
AcDbEntity
  8
0
100
AcDbLine
 62
7
  6
CONTINUOUS
 10
7.1300543478
 20
3.102787576
 11
7.1300543478
 21
3.0819531073
  0
LINE
  5
2C9
100
AcDbEntity
  8
0
100
AcDbLine
 62
7
  6
CONTINUOUS
 10
7.1300543478
 20
2.977787576
 11
7.1300543478
 21
2.9569531073
  0
LINE
  5
2CA
100
AcDbEntity
  8
0
100
AcDbLine
 62
7
  6
CONTINUOUS
 10
7.1297839291
 20
3.8316408226
 11
7.1300543478
 21
3.8319531073
  0
LINE
  5
2CB
100
AcDbEntity
  8
0
100
AcDbLine
 62
7
  6
CONTINUOUS
 10
7.1297839291
 20
3.7066408226
 11
7.1300543478
 21
3.7069531073
  0
LINE
  5
2CC
100
AcDbEntity
  8
0
100
AcDbLine
 62
7
  6
CONTINUOUS
 10
7.1297839291
 20
3.5816408226
 11
7.1300543478
 21
3.5819531073
  0
LINE
  5
2CD
100
AcDbEntity
  8
0
100
AcDbLine
 62
7
  6
CONTINUOUS
 10
7.0530741415
 20
3.2873467516
 11
7.1297839291
 21
3.3316408226
  0
LINE
  5
2CE
100
AcDbEntity
  8
0
100
AcDbLine
 62
7
  6
CONTINUOUS
 10
7.0530741415
 20
3.1623467516
 11
7.1297839291
 21
3.2066408226
  0
LINE
  5
2CF
100
AcDbEntity
  8
0
100
AcDbLine
 62
7
  6
CONTINUOUS
 10
7.5797485151
 20
5.4926203417
 11
7.5787003595
 21
5.4726203417
  0
LINE
  5
2D0
100
AcDbEntity
  8
0
100
AcDbLine
 62
7
  6
CONTINUOUS
 10
7.1297839291
 20
3.4566408226
 11
7.1300543478
 21
3.4569531073
  0
LINE
  5
2D1
100
AcDbEntity
  8
0
100
AcDbLine
 62
7
  6
CONTINUOUS
 10
7.1297839291
 20
3.3316408226
 11
7.1300543478
 21
3.3319531073
  0
LINE
  5
2D2
100
AcDbEntity
  8
0
100
AcDbLine
 62
7
  6
CONTINUOUS
 10
7.1297839291
 20
3.2066408226
 11
7.1300543478
 21
3.2069531073
  0
LINE
  5
2D3
100
AcDbEntity
  8
0
100
AcDbLine
 62
7
  6
CONTINUOUS
 10
7.0530741415
 20
3.0373467516
 11
7.1297839291
 21
3.0816408226
  0
LINE
  5
2D4
100
AcDbEntity
  8
0
100
AcDbLine
 62
7
  6
CONTINUOUS
 10
7.0530741415
 20
2.9123467516
 11
7.1297839291
 21
2.9566408226
  0
LINE
  5
2D5
100
AcDbEntity
  8
0
100
AcDbLine
 62
7
  6
CONTINUOUS
 10
7.7477083113
 20
5.4926203417
 11
7.7477083113
 21
5.6063400269
  0
LINE
  5
2D6
100
AcDbEntity
  8
0
100
AcDbLine
 62
7
  6
CONTINUOUS
 10
7.6995840593
 20
5.4926203417
 11
7.6985359037
 21
5.4726203417
  0
LINE
  5
2D7
100
AcDbEntity
  8
0
100
AcDbLine
 62
7
  6
CONTINUOUS
 10
7.7860330886
 20
6.3376203417
 11
7.7477083113
 21
5.6063400269
  0
LINE
  5
2D8
100
AcDbEntity
  8
0
100
AcDbLine
 62
7
  6
CONTINUOUS
 10
7.1297839291
 20
3.0816408226
 11
7.1300543478
 21
3.0819531073
  0
LINE
  5
2D9
100
AcDbEntity
  8
0
100
AcDbLine
 62
7
  6
CONTINUOUS
 10
7.1297839291
 20
2.9566408226
 11
7.1300543478
 21
2.9569531073
  0
LINE
  5
2DA
100
AcDbEntity
  8
0
100
AcDbLine
 62
7
  6
CONTINUOUS
 10
7.0300543478
 20
2.7626203417
 11
7.0533543478
 21
2.7859203417
  0
LINE
  5
2DB
100
AcDbEntity
  8
0
100
AcDbLine
 62
7
  6
CONTINUOUS
 10
7.0574948923
 20
2.7900608861
 11
7.1238206242
 21
2.856386618
  0
LINE
  5
2DC
100
AcDbEntity
  8
0
100
AcDbLine
 62
7
  6
CONTINUOUS
 10
7.0564507275
 20
2.789296482
 11
7.0574948923
 21
2.7900608861
  0
LINE
  5
2DD
100
AcDbEntity
  8
0
100
AcDbLine
 62
7
  6
CONTINUOUS
 10
7.8750543478
 20
5.4726203417
 11
7.9150543478
 21
5.4326203417
  0
LINE
  5
2DE
100
AcDbEntity
  8
0
100
AcDbLine
 62
7
  6
CONTINUOUS
 10
7.7875543478
 20
6.3376203417
 11
7.7875543478
 21
6.4176203417
  0
LINE
  5
2DF
100
AcDbEntity
  8
0
100
AcDbLine
 62
7
  6
CONTINUOUS
 10
7.9075543478
 20
6.3376203417
 11
7.9075543478
 21
6.4176203417
  0
LINE
  5
2E0
100
AcDbEntity
  8
0
100
AcDbLine
 62
7
  6
CONTINUOUS
 10
7.9150543478
 20
4.9419635119
 11
7.9150543478
 21
5.4326203417
  0
LINE
  5
2E1
100
AcDbEntity
  8
0
100
AcDbLine
 62
7
  6
CONTINUOUS
 10
7.9058686328
 20
6.3376203417
 11
7.8675438554
 21
5.6063400269
  0
ARC
  5
2E2
100
AcDbEntity
  8
0
100
AcDbCircle
 62
7
  6
CONTINUOUS
 10
0.2514184684
 20
554.2323299002
 40
549.6807151015
100
AcDbArc
 50
270.4882030481
 51
270.6362534932
  0
ARC
  5
2E3
100
AcDbEntity
  8
0
100
AcDbCircle
 62
7
  6
CONTINUOUS
 10
0.2514187866
 20
554.3364933142
 40
549.6807129801
100
AcDbArc
 50
270.4882030168
 51
270.6362534625
  0
ARC
  5
2E4
100
AcDbEntity
  8
0
100
AcDbCircle
 62
7
  6
CONTINUOUS
 10
2.1224003844
 20
5.6126203417
 40
0.12
100
AcDbArc
 50
183.0
 51
270.0
  0
ARC
  5
2E5
100
AcDbEntity
  8
0
100
AcDbCircle
 62
7
  6
CONTINUOUS
 10
7.7477083113
 20
5.6126203417
 40
0.12
100
AcDbArc
 50
270.0
 51
357.0
  0
ARC
  5
2E6
100
AcDbEntity
  8
0
100
AcDbCircle
 62
7
  6
CONTINUOUS
 10
2.6343178204
 20
4.7530870892
 40
0.1057365275
100
AcDbArc
 50
0.0
 51
83.087
  0
ARC
  5
2E7
100
AcDbEntity
  8
0
100
AcDbCircle
 62
7
  6
CONTINUOUS
 10
7.2357908753
 20
4.7530870892
 40
0.1057365275
100
AcDbArc
 50
96.913
 51
180.0
  0
LINE
  5
2E8
100
AcDbEntity
  8
0
100
AcDbLine
 62
7
  6
CONTINUOUS
 10
2.7403267686
 20
3.2691408217
 11
2.7400557117
 21
3.2694531062
  0
SPLINE
  5
2E9
100
AcDbEntity
  8
0
100
AcDbSpline
 62
7
  6
CONTINUOUS
 70
0
 71
3
 72
42
 73
38
 74
0
 42
0.0000001
 43
0.0000001
 44
0.0000000001
 40
0.0
 40
0.0
 40
0.0
 40
0.0
 40
0.0001263336
 40
0.0002866588
 40
0.0007128875
 40
0.0012828627
 40
0.0019981052
 40
0.0028593544
 40
0.0038668829
 40
0.0050207119
 40
0.0063207712
 40
0.0093590363
 40
0.01298038
 40
0.0171832081
 40
0.0219657908
 40
0.027325764
 40
0.0332595185
 40
0.039763261
 40
0.0468331779
 40
0.0626561456
 40
0.0806925406
 40
0.1008976399
 40
0.1232255436
 40
0.1476237745
 40
0.1740330404
 40
0.2023930621
 40
0.2326361417
 40
0.2646898952
 40
0.2984806322
 40
0.3709458367
 40
0.449348948
 40
0.5329484579
 40
0.6209567822
 40
0.7125427544
 40
0.8068359385
 40
0.9029727628
 40
1.0
 40
1.0
 40
1.0
 40
1.0
 10
2.7403265589
 20
3.7905998602
 30
0.0
 10
2.7404065977
 20
3.7906461106
 30
0.0
 10
2.7405974648
 20
3.7907347841
 30
0.0
 10
2.7410891904
 20
3.7909097397
 30
0.0
 10
2.7419113429
 20
3.7911164838
 30
0.0
 10
2.7431413981
 20
3.7913518026
 30
0.0
 10
2.7446944299
 20
3.791588633
 30
0.0
 10
2.7465701982
 20
3.7918270802
 30
0.0
 10
2.7487690347
 20
3.7920662683
 30
0.0
 10
2.7512904968
 20
3.7923060899
 30
0.0
 10
2.7552950299
 20
3.7926441722
 30
0.0
 10
2.7611047458
 20
3.793058437
 30
0.0
 10
2.7690387527
 20
3.7935358408
 30
0.0
 10
2.7782510201
 20
3.7940145889
 30
0.0
 10
2.7887369022
 20
3.7944944167
 30
0.0
 10
2.8004904822
 20
3.7949748997
 30
0.0
 10
2.8135043881
 20
3.7954559284
 30
0.0
 10
2.8277702534
 20
3.7959373841
 30
0.0
 10
2.8492700113
 20
3.7966050775
 30
0.0
 10
2.8792075124
 20
3.797430008
 30
0.0
 10
2.9187559949
 20
3.7983887185
 30
0.0
 10
2.9630654746
 20
3.799349052
 30
0.0
 10
3.0120309907
 20
3.8003105208
 30
0.0
 10
3.0655370001
 20
3.8012727949
 30
0.0
 10
3.123457473
 20
3.8022358198
 30
0.0
 10
3.1856552796
 20
3.8031992726
 30
0.0
 10
3.2519837273
 20
3.8041631234
 30
0.0
 10
3.3222863269
 20
3.8051273753
 30
0.0
 10
3.4234817491
 20
3.8064441617
 30
0.0
 10
3.5585906402
 20
3.8080777956
 30
0.0
 10
3.730144733
 20
3.8099975541
 30
0.0
 10
3.9130726855
 20
3.8119189055
 30
0.0
 10
4.1056472905
 20
3.8138414655
 30
0.0
 10
4.3060470363
 20
3.8157648055
 30
0.0
 10
4.5123948266
 20
3.8176888273
 30
0.0
 10
4.7227242658
 20
3.8196131325
 30
0.0
 10
4.8640604851
 20
3.8208941236
 30
0.0
 10
4.9350543478
 20
3.821537576
 30
0.0
  0
SPLINE
  5
2EA
100
AcDbEntity
  8
0
100
AcDbSpline
 62
7
  6
CONTINUOUS
 70
0
 71
3
 72
14
 73
10
 74
0
 42
0.0000001
 43
0.0000001
 44
0.0000000001
 40
0.0
 40
0.0
 40
0.0
 40
0.0
 40
0.0534292643
 40
0.1266386845
 40
0.220220269
 40
0.334447912
 40
0.4694683942
 40
0.6253684535
 40
1.0
 40
1.0
 40
1.0
 40
1.0
 10
2.8170368683
 20
3.8348939317
 30
0.0
 10
2.8171627648
 20
3.8349666247
 30
0.0
 10
2.8174824135
 20
3.8351004887
 30
0.0
 10
2.8180557712
 20
3.835274662
 30
0.0
 10
2.8188004727
 20
3.8354503926
 30
0.0
 10
2.8197164433
 20
3.8356273215
 30
0.0
 10
2.8208045499
 20
3.8358049587
 30
0.0
 10
2.8225977406
 20
3.8360582296
 30
0.0
 10
2.8240320372
 20
3.8362234213
 30
0.0
 10
2.8250456695
 20
3.8363311215
 30
0.0
  0
SPLINE
  5
2EB
100
AcDbEntity
  8
0
100
AcDbSpline
 62
7
  6
CONTINUOUS
 70
0
 71
3
 72
69
 73
65
 74
0
 42
0.0000001
 43
0.0000001
 44
0.0000000001
 40
0.0
 40
0.0
 40
0.0
 40
0.0
 40
0.0012032305
 40
0.0026887085
 40
0.0044556722
 40
0.0065032261
 40
0.0114361917
 40
0.0174782593
 40
0.0246147403
 40
0.0328295761
 40
0.0421054135
 40
0.0524200412
 40
0.0637500446
 40
0.0760708334
 40
0.1035672503
 40
0.1346604035
 40
0.1690665525
 40
0.2064729906
 40
0.2465402821
 40
0.2889032411
 40
0.3331767824
 40
0.3789586394
 40
0.4258319394
 40
0.4733705919
 40
0.5211422509
 40
0.5687122865
 40
0.6156482921
 40
0.6615230186
 40
0.7059194449
 40
0.7484340598
 40
0.7886795025
 40
0.8262903093
 40
0.8439998605
 40
0.8609247262
 40
0.87702558
 40
0.8922668178
 40
0.9066136325
 40
0.920032459
 40
0.9324939263
 40
0.9439695554
 40
0.9544322421
 40
0.9638594685
 40
0.9722296948
 40
0.9760119294
 40
0.9795228849
 40
0.9827607994
 40
0.9857239176
 40
0.9884104934
 40
0.9908187948
 40
0.9929473391
 40
0.9947952967
 40
0.9963620003
 40
0.9976468909
 40
0.9981835508
 40
0.9986496726
 40
0.9990453137
 40
0.9993706373
 40
0.9995070559
 40
0.9996260975
 40
0.9997279154
 40
0.9998127549
 40
0.9998810428
 40
0.9999336082
 40
1.0
 40
1.0
 40
1.0
 40
1.0
 10
2.8250456695
 20
3.8363311215
 30
0.0
 10
2.8267324088
 20
3.8365103404
 30
0.0
 10
2.8305075151
 20
3.8368542607
 30
0.0
 10
2.836771609
 20
3.8373206712
 30
0.0
 10
2.84422862
 20
3.8377892666
 30
0.0
 10
2.856542169
 20
3.8384583438
 30
0.0
 10
2.8748828964
 20
3.8392717881
 30
0.0
 10
2.9003983534
 20
3.840205127
 30
0.0
 10
2.9305428752
 20
3.841142272
 30
0.0
 10
2.9652479155
 20
3.842082543
 30
0.0
 10
3.0044346977
 20
3.8430244461
 30
0.0
 10
3.0480141269
 20
3.843967792
 30
0.0
 10
3.0958870115
 20
3.8449121958
 30
0.0
 10
3.1679790742
 20
3.8462205642
 30
0.0
 10
3.2679308114
 20
3.8478347098
 30
0.0
 10
3.3990165393
 20
3.8497129667
 30
0.0
 10
3.5440739941
 20
3.8515945838
 30
0.0
 10
3.701783521
 20
3.8534787815
 30
0.0
 10
3.8707107476
 20
3.8553646654
 30
0.0
 10
4.0493193079
 20
3.8572518584
 30
0.0
 10
4.235984298
 20
3.8591399602
 30
0.0
 10
4.429007971
 20
3.861028679
 30
0.0
 10
4.6266347888
 20
3.8629178453
 30
0.0
 10
4.8270668195
 20
3.8648072499
 30
0.0
 10
5.0284811039
 20
3.866696734
 30
0.0
 10
5.2290457804
 20
3.8685861582
 30
0.0
 10
5.4269361712
 20
3.8704753315
 30
0.0
 10
5.6203524168
 20
3.8723641057
 30
0.0
 10
5.8075353829
 20
3.8742522671
 30
0.0
 10
5.9867821536
 20
3.8761394893
 30
0.0
 10
6.1564624681
 20
3.8780255798
 30
0.0
 10
6.2911752464
 20
3.8796262382
 30
0.0
 10
6.3930135758
 20
3.880915025
 30
0.0
 10
6.4645305002
 20
3.8818619095
 30
0.0
 10
6.5325674446
 20
3.8828086276
 30
0.0
 10
6.5969696598
 20
3.8837550374
 30
0.0
 10
6.6575905068
 20
3.8847010657
 30
0.0
 10
6.7142921177
 20
3.8856467687
 30
0.0
 10
6.766945532
 20
3.8865918826
 30
0.0
 10
6.8154308692
 20
3.8875362464
 30
0.0
 10
6.8596378753
 20
3.8884797853
 30
0.0
 10
6.8994660213
 20
3.8894220988
 30
0.0
 10
6.9298769403
 20
3.8902306597
 30
0.0
 10
6.9519485268
 20
3.890883904
 30
0.0
 10
6.966787051
 20
3.8913569129
 30
0.0
 10
6.9804702177
 20
3.8918296246
 30
0.0
 10
6.9929904911
 20
3.8923019807
 30
0.0
 10
7.0043403415
 20
3.8927738621
 30
0.0
 10
7.0145125775
 20
3.8932450942
 30
0.0
 10
7.0235012058
 20
3.8937155382
 30
0.0
 10
7.0313016766
 20
3.8941845616
 30
0.0
 10
7.0379104069
 20
3.8946519005
 30
0.0
 10
7.0426699206
 20
3.8950588734
 30
0.0
 10
7.0458776679
 20
3.8953929587
 30
0.0
 10
7.0478351738
 20
3.8956275854
 30
0.0
 10
7.0494923686
 20
3.8958613907
 30
0.0
 10
7.0506840981
 20
3.8960649674
 30
0.0
 10
7.0514857791
 20
3.8962319348
 30
0.0
 10
7.0519755714
 20
3.8963493261
 30
0.0
 10
7.0523906906
 20
3.8964667762
 30
0.0
 10
7.0527302333
 20
3.8965825676
 30
0.0
 10
7.0529982425
 20
3.8967010735
 30
0.0
 10
7.0532204034
 20
3.8968298993
 30
0.0
 10
7.0533525589
 20
3.8969767479
 30
0.0
 10
7.0533523982
 20
3.8970703424
 30
0.0
  0
SPLINE
  5
2EC
100
AcDbEntity
  8
0
100
AcDbSpline
 62
7
  6
CONTINUOUS
 70
0
 71
3
 72
72
 73
68
 74
0
 42
0.0000001
 43
0.0000001
 44
0.0000000001
 40
0.0
 40
0.0
 40
0.0
 40
0.0
 40
0.0000674387
 40
0.0001211058
 40
0.0001908884
 40
0.0002776073
 40
0.0003816807
 40
0.0005033453
 40
0.000642746
 40
0.0009750865
 40
0.0013791714
 40
0.0018552208
 40
0.0024033499
 40
0.0037160359
 40
0.0053172821
 40
0.0072062254
 40
0.0093816694
 40
0.0118423595
 40
0.0145870072
 40
0.0176143035
 40
0.0209227791
 40
0.0245103108
 40
0.0283745915
 40
0.0369241454
 40
0.0465527376
 40
0.0572379928
 40
0.0689540852
 40
0.0816748407
 40
0.095370548
 40
0.1100084726
 40
0.1255555581
 40
0.1419754281
 40
0.1592291347
 40
0.1772774311
 40
0.2155866923
 40
0.2565468184
 40
0.2997759582
 40
0.344872272
 40
0.3914161053
 40
0.4389739138
 40
0.4871033733
 40
0.5353564136
 40
0.583283922
 40
0.6304400211
 40
0.6763854369
 40
0.7206928847
 40
0.7629501563
 40
0.8027632763
 40
0.839762359
 40
0.8736033107
 40
0.9039702652
 40
0.9177620586
 40
0.9305815451
 40
0.9424001108
 40
0.9531900022
 40
0.9629251881
 40
0.9715843869
 40
0.9791471662
 40
0.9855951337
 40
0.9909149276
 40
0.9931478837
 40
0.9950941947
 40
0.996752823
 40
0.99812336
 40
0.9992056282
 40
0.9996387457
 40
1.0
 40
1.0
 40
1.0
 40
1.0
 10
2.8167548716
 20
4.4751703424
 30
0.0
 10
2.8167550851
 20
4.475265533
 30
0.0
 10
2.8168917169
 20
4.4754139219
 30
0.0
 10
2.8171190679
 20
4.4755439199
 30
0.0
 10
2.8173939301
 20
4.4756637938
 30
0.0
 10
2.8177418396
 20
4.4757809046
 30
0.0
 10
2.8181670706
 20
4.4758997141
 30
0.0
 10
2.818668594
 20
4.4760184627
 30
0.0
 10
2.8194891323
 20
4.4761873477
 30
0.0
 10
2.8207084139
 20
4.4763932909
 30
0.0
 10
2.8224035519
 20
4.4766298278
 30
0.0
 10
2.8244056629
 20
4.4768671883
 30
0.0
 10
2.827686915
 20
4.4772051923
 30
0.0
 10
2.8325566473
 20
4.4776169324
 30
0.0
 10
2.8393196108
 20
4.4780896123
 30
0.0
 10
2.8473027847
 20
4.4785640153
 30
0.0
 10
2.856500804
 20
4.4790398816
 30
0.0
 10
2.8669080392
 20
4.4795166197
 30
0.0
 10
2.8785187661
 20
4.4799940149
 30
0.0
 10
2.8913270484
 20
4.4804718715
 30
0.0
 10
2.9053258165
 20
4.4809500328
 30
0.0
 10
2.9205066241
 20
4.4814284958
 30
0.0
 10
2.9430831753
 20
4.4820892337
 30
0.0
 10
2.9741857496
 20
4.4829072744
 30
0.0
 10
3.0149158217
 20
4.4838604853
 30
0.0
 10
3.0601165889
 20
4.4848148342
 30
0.0
 10
3.1096828534
 20
4.4857702661
 30
0.0
 10
3.1634991335
 20
4.4867263161
 30
0.0
 10
3.2214402211
 20
4.4876828889
 30
0.0
 10
3.2833712197
 20
4.4886399695
 30
0.0
 10
3.3491478466
 20
4.4895973336
 30
0.0
 10
3.4186170597
 20
4.490554955
 30
0.0
 10
3.4916170888
 20
4.4915128812
 30
0.0
 10
3.5955124774
 20
4.4928163153
 30
0.0
 10
3.7328685341
 20
4.4944352147
 30
0.0
 10
3.905766788
 20
4.4963430295
 30
0.0
 10
4.0882456193
 20
4.4982520659
 30
0.0
 10
4.2786063499
 20
4.5001619885
 30
0.0
 10
4.4750773607
 20
4.5020725133
 30
0.0
 10
4.6758299012
 20
4.5039834571
 30
0.0
 10
4.878995122
 20
4.5058946017
 30
0.0
 10
5.082682203
 20
4.5078057952
 30
0.0
 10
5.2849953096
 20
4.5097168753
 30
0.0
 10
5.4840510212
 20
4.511627644
 30
0.0
 10
5.6779967198
 20
4.5135379399
 30
0.0
 10
5.8650273018
 20
4.5154475063
 30
0.0
 10
6.0434015857
 20
4.5173560057
 30
0.0
 10
6.2114593813
 20
4.5192631209
 30
0.0
 10
6.3676366107
 20
4.5211681547
 30
0.0
 10
6.5104793757
 20
4.5230704625
 30
0.0
 10
6.6205652914
 20
4.5247001602
 30
0.0
 10
6.7009802577
 20
4.5260183567
 30
0.0
 10
6.7552162303
 20
4.5269745773
 30
0.0
 10
6.8052142733
 20
4.5279300043
 30
0.0
 10
6.8508579302
 20
4.52888448
 30
0.0
 10
6.8920410464
 20
4.5298378401
 30
0.0
 10
6.9286677253
 20
4.5307894412
 30
0.0
 10
6.9606527824
 20
4.5317381684
 30
0.0
 10
6.9879218971
 20
4.5326837807
 30
0.0
 10
7.0076673336
 20
4.5335064383
 30
0.0
 10
7.0210585295
 20
4.5341811403
 30
0.0
 10
7.0292852004
 20
4.5346560784
 30
0.0
 10
7.0362924305
 20
4.5351288735
 30
0.0
 10
7.0420768258
 20
4.5355993619
 30
0.0
 10
7.0461301847
 20
4.5360108403
 30
0.0
 10
7.0487571124
 20
4.5363525534
 30
0.0
 10
7.0498652503
 20
4.5365251476
 30
0.0
 10
7.0503673729
 20
4.5366139616
 30
0.0
  0
LINE
  5
2ED
100
AcDbEntity
  8
0
100
AcDbLine
 62
7
  6
CONTINUOUS
 10
7.0503673729
 20
4.5366139616
 11
7.0530741415
 21
4.5373467516
  0
SPLINE
  5
2EE
100
AcDbEntity
  8
0
100
AcDbSpline
 62
7
  6
CONTINUOUS
 70
0
 71
3
 72
13
 73
9
 74
0
 42
0.0000001
 43
0.0000001
 44
0.0000000001
 40
0.0
 40
0.0
 40
0.0
 40
0.0
 40
0.0560890308
 40
0.1311981722
 40
0.2259069781
 40
0.3404971081
 40
0.6298656112
 40
1.0
 40
1.0
 40
1.0
 40
1.0
 10
2.8170368343
 20
3.7098939315
 30
0.0
 10
2.8171485922
 20
3.7099584843
 30
0.0
 10
2.8174270094
 20
3.7100790076
 30
0.0
 10
2.8179223843
 20
3.7102369418
 30
0.0
 10
2.8185575804
 20
3.7103961472
 30
0.0
 10
2.8196815248
 20
3.7106279594
 30
0.0
 10
2.8214416337
 20
3.7109063308
 30
0.0
 10
2.8229474572
 20
3.7110950973
 30
0.0
 10
2.823793536
 20
3.7111926486
 30
0.0
  0
SPLINE
  5
2EF
100
AcDbEntity
  8
0
100
AcDbSpline
 62
7
  6
CONTINUOUS
 70
0
 71
3
 72
69
 73
65
 74
0
 42
0.0000001
 43
0.0000001
 44
0.0000000001
 40
0.0
 40
0.0
 40
0.0
 40
0.0
 40
0.0011233983
 40
0.0025303252
 40
0.0042201228
 40
0.0061919658
 40
0.0109780922
 40
0.0168797118
 40
0.0238824056
 40
0.0319703852
 40
0.0411265011
 40
0.0513286993
 40
0.0625537553
 40
0.0747771877
 40
0.1021019819
 40
0.1330546529
 40
0.1673514917
 40
0.2046793048
 40
0.2446978616
 40
0.287040785
 40
0.3313213557
 40
0.3771354495
 40
0.4240640055
 40
0.471678445
 40
0.5195437905
 40
0.567222538
 40
0.6142793263
 40
0.6602838978
 40
0.7048160654
 40
0.7474693083
 40
0.7878532563
 40
0.8255993705
 40
0.8433746162
 40
0.8603632481
 40
0.8765257832
 40
0.8918263409
 40
0.9062295994
 40
0.9197019131
 40
0.9322136867
 40
0.9437359378
 40
0.9542415656
 40
0.9637078874
 40
0.9721128837
 40
0.9759109009
 40
0.9794366133
 40
0.9826882018
 40
0.9856638536
 40
0.9883617655
 40
0.990780158
 40
0.9929176716
 40
0.9947734943
 40
0.996346906
 40
0.9976372951
 40
0.9981762342
 40
0.9986443132
 40
0.9990415829
 40
0.9993682121
 40
0.9995051779
 40
0.9996246981
 40
0.9997269249
 40
0.9998121031
 40
0.9998806586
 40
0.9999334202
 40
1.0
 40
1.0
 40
1.0
 40
1.0
 10
2.823793536
 20
3.7111926486
 30
0.0
 10
2.8253672735
 20
3.7113740976
 30
0.0
 10
2.8289190859
 20
3.711720078
 30
0.0
 10
2.8348519209
 20
3.712186653
 30
0.0
 10
2.8419841357
 20
3.7126557128
 30
0.0
 10
2.8538779218
 20
3.7133276253
 30
0.0
 10
2.8717116841
 20
3.7141429209
 30
0.0
 10
2.8966405189
 20
3.7150775888
 30
0.0
 10
2.9262281091
 20
3.7160163033
 30
0.0
 10
2.9604068728
 20
3.7169583764
 30
0.0
 10
2.9990988847
 20
3.7179021782
 30
0.0
 10
3.0422157828
 20
3.7188475045
 30
0.0
 10
3.0896589807
 20
3.7197939327
 30
0.0
 10
3.1612450727
 20
3.7211059228
 30
0.0
 10
3.2606490425
 20
3.7227240521
 30
0.0
 10
3.3911794379
 20
3.7246062556
 30
0.0
 10
3.5358168872
 20
3.7264919143
 30
0.0
 10
3.6932395716
 20
3.7283802339
 30
0.0
 10
3.8620092002
 20
3.7302702846
 30
0.0
 10
4.040583841
 20
3.7321616755
 30
0.0
 10
4.2273315005
 20
3.7340540014
 30
0.0
 10
4.420545915
 20
3.7359469599
 30
0.0
 10
4.6184618085
 20
3.7378403775
 30
0.0
 10
4.8192704077
 20
3.7397340449
 30
0.0
 10
5.0211369375
 20
3.7416277964
 30
0.0
 10
5.2222170599
 20
3.7435214937
 30
0.0
 10
5.4206730917
 20
3.7454149445
 30
0.0
 10
5.6146917635
 20
3.7473079953
 30
0.0
 10
5.8025004659
 20
3.7492004385
 30
0.0
 10
5.9823828236
 20
3.7510919429
 30
0.0
 10
6.1526952661
 20
3.7529823064
 30
0.0
 10
6.2879269144
 20
3.7545865561
 30
0.0
 10
6.3901689319
 20
3.7558782206
 30
0.0
 10
6.4619766913
 20
3.7568272676
 30
0.0
 10
6.5302944454
 20
3.7577761441
 30
0.0
 10
6.5949660629
 20
3.7587247002
 30
0.0
 10
6.6558436316
 20
3.7596728915
 30
0.0
 10
6.7127880869
 20
3.760620752
 30
0.0
 10
6.7656692905
 20
3.7615680052
 30
0.0
 10
6.814366304
 20
3.7625145316
 30
0.0
 10
6.8587679038
 20
3.763460225
 30
0.0
 10
6.8987726275
 20
3.7644046646
 30
0.0
 10
6.9293190218
 20
3.7652150743
 30
0.0
 10
6.9514892793
 20
3.765869809
 30
0.0
 10
6.9663945717
 20
3.7663438932
 30
0.0
 10
6.9801395816
 20
3.7668176793
 30
0.0
 10
6.9927165282
 20
3.767291109
 30
0.0
 10
7.0041176512
 20
3.7677640587
 30
0.0
 10
7.014335782
 20
3.7682363799
 30
0.0
 10
7.0233650589
 20
3.7687079007
 30
0.0
 10
7.0312010552
 20
3.7691779891
 30
0.0
 10
7.037840063
 20
3.7696463876
 30
0.0
 10
7.0426214272
 20
3.770054282
 30
0.0
 10
7.0458438627
 20
3.770389129
 30
0.0
 10
7.0478102257
 20
3.7706242875
 30
0.0
 10
7.0494748156
 20
3.7708586201
 30
0.0
 10
7.050671809
 20
3.7710626753
 30
0.0
 10
7.0514770182
 20
3.7712300238
 30
0.0
 10
7.0519689802
 20
3.7713476819
 30
0.0
 10
7.0523859571
 20
3.7714653994
 30
0.0
 10
7.0527270274
 20
3.7715814501
 30
0.0
 10
7.0529962755
 20
3.7717002262
 30
0.0
 10
7.0532193742
 20
3.7718292871
 30
0.0
 10
7.0533523083
 20
3.7719764545
 30
0.0
 10
7.0533521965
 20
3.7720703422
 30
0.0
  0
SPLINE
  5
2F0
100
AcDbEntity
  8
0
100
AcDbSpline
 62
7
  6
CONTINUOUS
 70
0
 71
3
 72
45
 73
41
 74
0
 42
0.0000001
 43
0.0000001
 44
0.0000000001
 40
0.0
 40
0.0
 40
0.0
 40
0.0
 40
0.0001342489
 40
0.0002434825
 40
0.0003863782
 40
0.0005645226
 40
0.0007787206
 40
0.0010294299
 40
0.001316934
 40
0.0020029904
 40
0.0028378514
 40
0.0049551364
 40
0.0076691483
 40
0.0109788112
 40
0.0148826175
 40
0.0193788572
 40
0.0244656215
 40
0.0301398193
 40
0.0363975708
 40
0.0432349569
 40
0.0506480413
 40
0.0586328752
 40
0.0762990664
 40
0.0961888111
 40
0.1182550582
 40
0.1424460932
 40
0.1687014653
 40
0.1969595018
 40
0.2271523721
 40
0.2592057308
 40
0.2930442533
 40
0.3285856925
 40
0.3657436644
 40
0.4445513788
 40
0.5287069302
 40
0.6174014747
 40
0.7097807389
 40
0.8049485396
 40
0.9020148778
 40
1.0
 40
1.0
 40
1.0
 40
1.0
 10
2.7400563462
 20
3.0194531073
 30
0.0
 10
2.7400563461
 20
3.0195513587
 30
0.0
 10
2.7402054122
 20
3.0197026913
 30
0.0
 10
2.7404459903
 20
3.0198332673
 30
0.0
 10
2.7407403486
 20
3.0199552839
 30
0.0
 10
2.7411125961
 20
3.0200742499
 30
0.0
 10
2.7415680062
 20
3.0201950979
 30
0.0
 10
2.7421052245
 20
3.0203158576
 30
0.0
 10
2.7429847346
 20
3.0204876855
 30
0.0
 10
2.7442918508
 20
3.0206972297
 30
0.0
 10
2.7469317387
 20
3.0210461716
 30
0.0
 10
2.7510582031
 20
3.0214642733
 30
0.0
 10
2.7569971921
 20
3.0219420774
 30
0.0
 10
2.7642470378
 20
3.0224224048
 30
0.0
 10
2.7728033762
 20
3.0229051922
 30
0.0
 10
2.7826620322
 20
3.0233892101
 30
0.0
 10
2.7938176781
 20
3.0238741303
 30
0.0
 10
2.806263561
 20
3.0243596766
 30
0.0
 10
2.8199915107
 20
3.0248457237
 30
0.0
 10
2.8349927945
 20
3.0253321342
 30
0.0
 10
2.8512586604
 20
3.0258188532
 30
0.0
 10
2.8754476416
 20
3.0264909608
 30
0.0
 10
2.9087667939
 20
3.0273228848
 30
0.0
 10
2.9523911529
 20
3.0282925222
 30
0.0
 10
3.0007918174
 20
3.0292633504
 30
0.0
 10
3.0538520588
 20
3.0302350682
 30
0.0
 10
3.111444505
 20
3.0312075995
 30
0.0
 10
3.1734300247
 20
3.0321806394
 30
0.0
 10
3.2396593399
 20
3.0331540781
 30
0.0
 10
3.3099731976
 20
3.034127939
 30
0.0
 10
3.3842018106
 20
3.0351020157
 30
0.0
 10
3.4621665882
 20
3.036076345
 30
0.0
 10
3.5730406872
 20
3.037401845
 30
0.0
 10
3.7194922009
 20
3.0390479678
 30
0.0
 10
3.9036602945
 20
3.0409884599
 30
0.0
 10
4.0977613719
 20
3.0429301327
 30
0.0
 10
4.2999222505
 20
3.0448726574
 30
0.0
 10
4.5082103768
 20
3.0468158889
 30
0.0
 10
4.7206013779
 20
3.0487594235
 30
0.0
 10
4.8633458933
 20
3.0500531782
 30
0.0
 10
4.9350543478
 20
3.0507031073
 30
0.0
  0
SPLINE
  5
2F1
100
AcDbEntity
  8
0
100
AcDbSpline
 62
7
  6
CONTINUOUS
 70
0
 71
3
 72
77
 73
73
 74
0
 42
0.0000001
 43
0.0000001
 44
0.0000000001
 40
0.0
 40
0.0
 40
0.0
 40
0.0
 40
0.0000682459
 40
0.0001227732
 40
0.0001937493
 40
0.0002819995
 40
0.0003879437
 40
0.0005118196
 40
0.0006537731
 40
0.0009922458
 40
0.0014038365
 40
0.0018887701
 40
0.0024471668
 40
0.0037845567
 40
0.0054159067
 40
0.0073402183
 40
0.009556305
 40
0.0120629223
 40
0.0148587921
 40
0.017942608
 40
0.0213126625
 40
0.0249666792
 40
0.0289023318
 40
0.037609213
 40
0.0474140958
 40
0.0582930888
 40
0.0702198633
 40
0.0831674249
 40
0.0971042823
 40
0.1119969937
 40
0.1278113844
 40
0.1445091087
 40
0.1620503211
 40
0.1803943919
 40
0.2193126958
 40
0.2608954281
 40
0.3047473573
 40
0.3504525677
 40
0.3975778039
 40
0.4456755356
 40
0.4942895463
 40
0.5429586629
 40
0.5912209153
 40
0.6386186587
 40
0.684701973
 40
0.72903347
 40
0.7711930752
 40
0.8107804208
 40
0.8474196262
 40
0.8807639492
 40
0.8960999582
 40
0.9104967044
 40
0.9239188775
 40
0.9363353245
 40
0.9477171174
 40
0.9580360017
 40
0.967268436
 40
0.9753929956
 40
0.9823891693
 40
0.9854592095
 40
0.9882416596
 40
0.9907348692
 40
0.9929372088
 40
0.994847195
 40
0.9964640656
 40
0.997787415
 40
0.9983389643
 40
0.998817111
 40
0.9992219376
 40
0.9995536386
 40
0.9998126465
 40
1.0
 40
1.0
 40
1.0
 40
1.0
 10
2.8167552007
 20
4.3501703426
 30
0.0
 10
2.8167554395
 20
4.3502667292
 30
0.0
 10
2.8168952492
 20
4.3504165992
 30
0.0
 10
2.8171265267
 20
4.3505475659
 30
0.0
 10
2.817406713
 20
4.3506686112
 30
0.0
 10
2.8177612822
 20
4.350786829
 30
0.0
 10
2.8181947073
 20
4.3509067876
 30
0.0
 10
2.8187058951
 20
4.3510266804
 30
0.0
 10
2.8195423115
 20
4.3511972068
 30
0.0
 10
2.8207851826
 20
4.3514051429
 30
0.0
 10
2.8225131348
 20
4.3516439666
 30
0.0
 10
2.8245540804
 20
4.3518836226
 30
0.0
 10
2.8278992115
 20
4.3522249089
 30
0.0
 10
2.8328637304
 20
4.3526406073
 30
0.0
 10
2.8397580421
 20
4.3531178537
 30
0.0
 10
2.8478957904
 20
4.3535968593
 30
0.0
 10
2.8572714461
 20
4.3540773369
 30
0.0
 10
2.8678794196
 20
4.3545586937
 30
0.0
 10
2.8797140162
 20
4.3550407142
 30
0.0
 10
2.8927689787
 20
4.3555231781
 30
0.0
 10
2.9070366828
 20
4.3560059642
 30
0.0
 10
2.9225080976
 20
4.3564890639
 30
0.0
 10
2.9455148379
 20
4.357156187
 30
0.0
 10
2.9772077013
 20
4.3579821326
 30
0.0
 10
3.0187065502
 20
4.3589445203
 30
0.0
 10
3.0647540774
 20
4.3599081321
 30
0.0
 10
3.1152410152
 20
4.3608728103
 30
0.0
 10
3.1700474315
 20
4.3618380755
 30
0.0
 10
3.2290433712
 20
4.362803926
 30
0.0
 10
3.2920887678
 20
4.363770266
 30
0.0
 10
3.3590338937
 20
4.3647368644
 30
0.0
 10
3.4297199872
 20
4.3657037688
 30
0.0
 10
3.5039791818
 20
4.3666709582
 30
0.0
 10
3.6096196645
 20
4.3679867631
 30
0.0
 10
3.7492137748
 20
4.3696210529
 30
0.0
 10
3.9248328441
 20
4.3715472389
 30
0.0
 10
4.1100379155
 20
4.3734746485
 30
0.0
 10
4.3030713235
 20
4.3754029608
 30
0.0
 10
4.5021015634
 20
4.3773318569
 30
0.0
 10
4.7052402247
 20
4.3792611578
 30
0.0
 10
4.9105594767
 20
4.3811906521
 30
0.0
 10
5.1161110991
 20
4.3831201595
 30
0.0
 10
5.3199448548
 20
4.3850495272
 30
0.0
 10
5.5201263964
 20
4.3869785422
 30
0.0
 10
5.7147560869
 20
4.3889070047
 30
0.0
 10
5.9019873389
 20
4.3908346712
 30
0.0
 10
6.0800435299
 20
4.3927611784
 30
0.0
 10
6.2472348806
 20
4.3946860247
 30
0.0
 10
6.4019751282
 20
4.3966088173
 30
0.0
 10
6.5224648382
 20
4.3982507276
 30
0.0
 10
6.6115417457
 20
4.3995766807
 30
0.0
 10
6.6724838632
 20
4.4005427317
 30
0.0
 10
6.7293019992
 20
4.4015083427
 30
0.0
 10
6.7818613241
 20
4.4024733462
 30
0.0
 10
6.8300369468
 20
4.4034374084
 30
0.0
 10
6.873714674
 20
4.404400506
 30
0.0
 10
6.9127908666
 20
4.4053619891
 30
0.0
 10
6.9471726931
 20
4.4063213242
 30
0.0
 10
6.9728511614
 20
4.4071499921
 30
0.0
 10
6.9909854937
 20
4.4078229771
 30
0.0
 10
7.0027626984
 20
4.408304976
 30
0.0
 10
7.0133133117
 20
4.408786256
 30
0.0
 10
7.0226303115
 20
4.409266637
 30
0.0
 10
7.0307078641
 20
4.4097455927
 30
0.0
 10
7.0375415183
 20
4.4102228236
 30
0.0
 10
7.0424559243
 20
4.4106385381
 30
0.0
 10
7.0457617437
 20
4.4109799615
 30
0.0
 10
7.0477737121
 20
4.4112195547
 30
0.0
 10
7.0494726526
 20
4.411458201
 30
0.0
 10
7.0508591746
 20
4.4116949354
 30
0.0
 10
7.0519326777
 20
4.4119295802
 30
0.0
 10
7.0525389858
 20
4.4121094816
 30
0.0
 10
7.0527842572
 20
4.4122087764
 30
0.0
  0
LINE
  5
2F2
100
AcDbEntity
  8
0
100
AcDbLine
 62
7
  6
CONTINUOUS
 10
7.0527842572
 20
4.4122087764
 11
7.0530740627
 21
4.4123467519
  0
SPLINE
  5
2F3
100
AcDbEntity
  8
0
100
AcDbSpline
 62
7
  6
CONTINUOUS
 70
0
 71
3
 72
76
 73
72
 74
0
 42
0.0000001
 43
0.0000001
 44
0.0000000001
 40
0.0
 40
0.0
 40
0.0
 40
0.0
 40
0.0000680502
 40
0.0001223643
 40
0.0001930442
 40
0.0002809156
 40
0.0003863988
 40
0.0005097323
 40
0.0006510627
 40
0.0009880509
 40
0.0013978447
 40
0.0018806755
 40
0.0024366703
 40
0.0037683648
 40
0.0053926793
 40
0.0073086155
 40
0.0095150445
 40
0.01201078
 40
0.0147946019
 40
0.0178652297
 40
0.021220822
 40
0.0248591307
 40
0.0287778917
 40
0.0374476895
 40
0.047211201
 40
0.0580444394
 40
0.0699215852
 40
0.0828158594
 40
0.0966958067
 40
0.1115285239
 40
0.1272800752
 40
0.1439122685
 40
0.1613858094
 40
0.1796603307
 40
0.2184352117
 40
0.2598714171
 40
0.303576908
 40
0.3491388993
 40
0.3961274696
 40
0.4440983975
 40
0.4925986405
 40
0.5411701845
 40
0.5893540185
 40
0.6366952769
 40
0.6827466312
 40
0.7270728828
 40
0.7692558914
 40
0.8088969059
 40
0.8456211362
 40
0.8790825982
 40
0.8944893659
 40
0.9089649597
 40
0.9224740349
 40
0.9349854277
 40
0.946470061
 40
0.9568995639
 40
0.9662502763
 40
0.9745005451
 40
0.9816296543
 40
0.984768803
 40
0.9876220692
 40
0.9901877608
 40
0.9924642039
 40
0.9944498702
 40
0.9961439411
 40
0.9975459254
 40
0.9986555217
 40
0.9991007143
 40
0.9994729562
 40
0.9997725142
 40
1.0
 40
1.0
 40
1.0
 40
1.0
 10
2.8167555469
 20
4.2251703426
 30
0.0
 10
2.8167557854
 20
4.2252664434
 30
0.0
 10
2.8168947968
 20
4.225415966
 30
0.0
 10
2.8171251132
 20
4.2255467177
 30
0.0
 10
2.8174039868
 20
4.22566749
 30
0.0
 10
2.8177569228
 20
4.2257854512
 30
0.0
 10
2.8181883464
 20
4.2259051425
 30
0.0
 10
2.8186971856
 20
4.2260247692
 30
0.0
 10
2.8195297739
 20
4.2261949159
 30
0.0
 10
2.8207670064
 20
4.2264023903
 30
0.0
 10
2.8224871829
 20
4.226640682
 30
0.0
 10
2.8245190271
 20
4.2268798038
 30
0.0
 10
2.8278494231
 20
4.2272203338
 30
0.0
 10
2.8327920845
 20
4.227635077
 30
0.0
 10
2.8396559093
 20
4.2281112692
 30
0.0
 10
2.8477574532
 20
4.2285892125
 30
0.0
 10
2.8570913509
 20
4.2290686235
 30
0.0
 10
2.8676522594
 20
4.2295489097
 30
0.0
 10
2.879434685
 20
4.2300298558
 30
0.0
 10
2.8924323009
 20
4.2305112289
 30
0.0
 10
2.9066373694
 20
4.230992942
 30
0.0
 10
2.9220408002
 20
4.2314749667
 30
0.0
 10
2.944946869
 20
4.2321406136
 30
0.0
 10
2.9765019647
 20
4.2329647224
 30
0.0
 10
3.0178213211
 20
4.2339249463
 30
0.0
 10
3.0636711909
 20
4.2348864287
 30
0.0
 10
3.1139432072
 20
4.2358489523
 30
0.0
 10
3.1685185233
 20
4.2368120551
 30
0.0
 10
3.2272683123
 20
4.2377757647
 30
0.0
 10
3.2900536706
 20
4.2387399463
 30
0.0
 10
3.3567262003
 20
4.2397043835
 30
0.0
 10
3.4271284876
 20
4.2406691412
 30
0.0
 10
3.5010940487
 20
4.2416341704
 30
0.0
 10
3.6063278111
 20
4.2429470894
 30
0.0
 10
3.7454005009
 20
4.2445778064
 30
0.0
 10
3.9203860242
 20
4.2464997163
 30
0.0
 10
4.1049568954
 20
4.2484228451
 30
0.0
 10
4.2973692601
 20
4.250346882
 30
0.0
 10
4.4958055965
 20
4.2522715032
 30
0.0
 10
4.6983915434
 20
4.2541965304
 30
0.0
 10
4.9032130768
 20
4.2561217578
 30
0.0
 10
5.1083352911
 20
4.2580470021
 30
0.0
 10
5.3118207063
 20
4.2599721145
 30
0.0
 10
5.5117469299
 20
4.2618968867
 30
0.0
 10
5.7062251898
 20
4.2638211182
 30
0.0
 10
5.8934185651
 20
4.2657445757
 30
0.0
 10
6.0715587167
 20
4.2676669031
 30
0.0
 10
6.238962589
 20
4.2695876079
 30
0.0
 10
6.3940489733
 20
4.2715063148
 30
0.0
 10
6.5149123348
 20
4.2731442905
 30
0.0
 10
6.6043572658
 20
4.2744668466
 30
0.0
 10
6.6656274577
 20
4.2754308044
 30
0.0
 10
6.7228082442
 20
4.2763943434
 30
0.0
 10
6.775764538
 20
4.277357293
 30
0.0
 10
6.824371075
 20
4.2783193405
 30
0.0
 10
6.8685131376
 20
4.2792804733
 30
0.0
 10
6.9080864522
 20
4.2802400703
 30
0.0
 10
6.9429974352
 20
4.2811976308
 30
0.0
 10
6.9691365232
 20
4.2820241964
 30
0.0
 10
6.9876547389
 20
4.2826950156
 30
0.0
 10
6.9997310253
 20
4.2831760836
 30
0.0
 10
7.0105879542
 20
4.2836565171
 30
0.0
 10
7.0202183684
 20
4.2841360761
 30
0.0
 10
7.0286161949
 20
4.2846145736
 30
0.0
 10
7.0357770032
 20
4.2850909904
 30
0.0
 10
7.0416974449
 20
4.2855650967
 30
0.0
 10
7.0458530417
 20
4.2859796568
 30
0.0
 10
7.0485527192
 20
4.2863236807
 30
0.0
 10
7.0501124938
 20
4.2865610847
 30
0.0
 10
7.0513605462
 20
4.2867967557
 30
0.0
 10
7.052084311
 20
4.2869748121
 30
0.0
 10
7.0523910363
 20
4.2870703417
 30
0.0
  0
LINE
  5
2F4
100
AcDbEntity
  8
0
100
AcDbLine
 62
7
  6
CONTINUOUS
 10
7.0523910363
 20
4.2870703417
 11
7.0530738567
 21
4.2873467522
  0
SPLINE
  5
2F5
100
AcDbEntity
  8
0
100
AcDbSpline
 62
7
  6
CONTINUOUS
 70
0
 71
3
 72
45
 73
41
 74
0
 42
0.0000001
 43
0.0000001
 44
0.0000000001
 40
0.0
 40
0.0
 40
0.0
 40
0.0
 40
0.0001342489
 40
0.0002434825
 40
0.0003863781
 40
0.0005645226
 40
0.0007787205
 40
0.0010294299
 40
0.001316934
 40
0.0020029903
 40
0.0028378514
 40
0.0049551363
 40
0.007669148
 40
0.0109788108
 40
0.0148826169
 40
0.0193788564
 40
0.0244656206
 40
0.030139818
 40
0.0363975691
 40
0.0432349548
 40
0.0506480389
 40
0.0586328725
 40
0.0762990628
 40
0.0961888063
 40
0.1182550528
 40
0.1424460869
 40
0.1687014583
 40
0.1969594951
 40
0.2271523657
 40
0.2592057247
 40
0.2930442477
 40
0.3285856869
 40
0.3657436589
 40
0.4445513737
 40
0.5287069258
 40
0.6174014711
 40
0.7097807362
 40
0.804948538
 40
0.9020148775
 40
1.0
 40
1.0
 40
1.0
 40
1.0
 10
2.7400563461
 20
3.1444531073
 30
0.0
 10
2.740056346
 20
3.1445513587
 30
0.0
 10
2.7402054121
 20
3.1447026913
 30
0.0
 10
2.7404459902
 20
3.1448332673
 30
0.0
 10
2.7407403485
 20
3.1449552839
 30
0.0
 10
2.7411125959
 20
3.1450742499
 30
0.0
 10
2.741568006
 20
3.1451950978
 30
0.0
 10
2.7421052243
 20
3.1453158575
 30
0.0
 10
2.7429847344
 20
3.1454876855
 30
0.0
 10
2.7442918506
 20
3.1456972297
 30
0.0
 10
2.7469317385
 20
3.1460461716
 30
0.0
 10
2.7510582027
 20
3.1464642732
 30
0.0
 10
2.7569971915
 20
3.1469420774
 30
0.0
 10
2.7642470367
 20
3.1474224047
 30
0.0
 10
2.7728033747
 20
3.1479051921
 30
0.0
 10
2.7826620304
 20
3.14838921
 30
0.0
 10
2.7938176759
 20
3.1488741302
 30
0.0
 10
2.8062635582
 20
3.1493596765
 30
0.0
 10
2.819991507
 20
3.1498457235
 30
0.0
 10
2.8349927899
 20
3.1503321341
 30
0.0
 10
2.851258655
 20
3.150818853
 30
0.0
 10
2.875447635
 20
3.1514909606
 30
0.0
 10
2.9087667857
 20
3.1523228846
 30
0.0
 10
2.9523911427
 20
3.153292522
 30
0.0
 10
3.0007918052
 20
3.1542633502
 30
0.0
 10
3.0538520451
 20
3.155235068
 30
0.0
 10
3.1114444903
 20
3.1562075992
 30
0.0
 10
3.1734300099
 20
3.1571806392
 30
0.0
 10
3.2396593257
 20
3.1581540779
 30
0.0
 10
3.3099731842
 20
3.1591279388
 30
0.0
 10
3.3842017979
 20
3.1601020155
 30
0.0
 10
3.4621665759
 20
3.1610763449
 30
0.0
 10
3.5730406754
 20
3.1624018449
 30
0.0
 10
3.7194921898
 20
3.1640479677
 30
0.0
 10
3.9036602849
 20
3.1659884598
 30
0.0
 10
4.097761364
 20
3.1679301326
 30
0.0
 10
4.2999222447
 20
3.1698726574
 30
0.0
 10
4.5082103734
 20
3.1718158889
 30
0.0
 10
4.7206013765
 20
3.1737594235
 30
0.0
 10
4.8633458931
 20
3.1750531782
 30
0.0
 10
4.9350543478
 20
3.1757031073
 30
0.0
  0
SPLINE
  5
2F6
100
AcDbEntity
  8
0
100
AcDbSpline
 62
7
  6
CONTINUOUS
 70
0
 71
3
 72
42
 73
38
 74
0
 42
0.0000001
 43
0.0000001
 44
0.0000000001
 40
0.0
 40
0.0
 40
0.0
 40
0.0
 40
0.0001263336
 40
0.0002866588
 40
0.0007128875
 40
0.0012828627
 40
0.0019981052
 40
0.0028593544
 40
0.0038668829
 40
0.0050207119
 40
0.0063207712
 40
0.0093590363
 40
0.01298038
 40
0.0171832081
 40
0.0219657908
 40
0.027325764
 40
0.0332595185
 40
0.039763261
 40
0.0468331779
 40
0.0626561456
 40
0.0806925406
 40
0.1008976399
 40
0.1232255436
 40
0.1476237745
 40
0.1740330404
 40
0.2023930621
 40
0.2326361417
 40
0.2646898952
 40
0.2984806322
 40
0.3709458367
 40
0.449348948
 40
0.5329484579
 40
0.6209567822
 40
0.7125427544
 40
0.8068359385
 40
0.9029727628
 40
1.0
 40
1.0
 40
1.0
 40
1.0
 10
2.7403265589
 20
4.5405998602
 30
0.0
 10
2.7404065977
 20
4.5406461106
 30
0.0
 10
2.7405974648
 20
4.5407347841
 30
0.0
 10
2.7410891904
 20
4.5409097397
 30
0.0
 10
2.7419113429
 20
4.5411164838
 30
0.0
 10
2.7431413981
 20
4.5413518026
 30
0.0
 10
2.7446944299
 20
4.541588633
 30
0.0
 10
2.7465701982
 20
4.5418270802
 30
0.0
 10
2.7487690347
 20
4.5420662683
 30
0.0
 10
2.7512904968
 20
4.5423060899
 30
0.0
 10
2.7552950299
 20
4.5426441722
 30
0.0
 10
2.7611047458
 20
4.543058437
 30
0.0
 10
2.7690387527
 20
4.5435358408
 30
0.0
 10
2.7782510201
 20
4.5440145889
 30
0.0
 10
2.7887369022
 20
4.5444944167
 30
0.0
 10
2.8004904822
 20
4.5449748997
 30
0.0
 10
2.8135043881
 20
4.5454559284
 30
0.0
 10
2.8277702534
 20
4.5459373841
 30
0.0
 10
2.8492700113
 20
4.5466050775
 30
0.0
 10
2.8792075124
 20
4.547430008
 30
0.0
 10
2.9187559949
 20
4.5483887185
 30
0.0
 10
2.9630654746
 20
4.549349052
 30
0.0
 10
3.0120309907
 20
4.5503105208
 30
0.0
 10
3.0655370001
 20
4.5512727949
 30
0.0
 10
3.123457473
 20
4.5522358198
 30
0.0
 10
3.1856552796
 20
4.5531992726
 30
0.0
 10
3.2519837273
 20
4.5541631234
 30
0.0
 10
3.3222863269
 20
4.5551273753
 30
0.0
 10
3.4234817491
 20
4.5564441617
 30
0.0
 10
3.5585906402
 20
4.5580777956
 30
0.0
 10
3.730144733
 20
4.5599975541
 30
0.0
 10
3.9130726855
 20
4.5619189055
 30
0.0
 10
4.1056472905
 20
4.5638414655
 30
0.0
 10
4.3060470363
 20
4.5657648055
 30
0.0
 10
4.5123948266
 20
4.5676888273
 30
0.0
 10
4.7227242658
 20
4.5696131325
 30
0.0
 10
4.8640604851
 20
4.5708941236
 30
0.0
 10
4.9350543478
 20
4.571537576
 30
0.0
  0
SPLINE
  5
2F7
100
AcDbEntity
  8
0
100
AcDbSpline
 62
7
  6
CONTINUOUS
 70
0
 71
3
 72
46
 73
42
 74
0
 42
0.0000001
 43
0.0000001
 44
0.0000000001
 40
0.0
 40
0.0
 40
0.0
 40
0.0
 40
0.0001217225
 40
0.0002875904
 40
0.0004989104
 40
0.0007562843
 40
0.0014102851
 40
0.0022509077
 40
0.0032785934
 40
0.0044934883
 40
0.0058955891
 40
0.0074845805
 40
0.0092598926
 40
0.0112209217
 40
0.0156976287
 40
0.0209096273
 40
0.0268515038
 40
0.0335155902
 40
0.0408929577
 40
0.048974643
 40
0.0577514952
 40
0.067212348
 40
0.0773447424
 40
0.0995740811
 40
0.1243303115
 40
0.1514889532
 40
0.18091623
 40
0.2124643721
 40
0.2459776885
 40
0.2812881205
 40
0.3182211305
 40
0.3565917626
 40
0.3962100665
 40
0.4368779134
 40
0.5205500333
 40
0.6059442629
 40
0.6913624354
 40
0.7751060551
 40
0.8555095382
 40
0.9309747029
 40
1.0
 40
1.0
 40
1.0
 40
1.0
 10
2.8170355274
 20
4.5848939326
 30
0.0
 10
2.8171581718
 20
4.5849646485
 30
0.0
 10
2.8174680912
 20
4.5850953055
 30
0.0
 10
2.8180228714
 20
4.5852655782
 30
0.0
 10
2.8187411457
 20
4.5854373816
 30
0.0
 10
2.820022726
 20
4.5856883335
 30
0.0
 10
2.8220389634
 20
4.5859891008
 30
0.0
 10
2.8249525341
 20
4.5863324909
 30
0.0
 10
2.8285220784
 20
4.5866777295
 30
0.0
 10
2.8327469353
 20
4.5870247316
 30
0.0
 10
2.8376264644
 20
4.5873726019
 30
0.0
 10
2.8431591789
 20
4.5877211476
 30
0.0
 10
2.849343078
 20
4.5880701978
 30
0.0
 10
2.8588829627
 20
4.5885578608
 30
0.0
 10
2.8724191885
 20
4.5891583273
 30
0.0
 10
2.8905853467
 20
4.589853325
 30
0.0
 10
2.9112971462
 20
4.590549653
 30
0.0
 10
2.9345286199
 20
4.5912471648
 30
0.0
 10
2.960249811
 20
4.5919455135
 30
0.0
 10
2.9884290882
 20
4.5926444975
 30
0.0
 10
3.0190322662
 20
4.5933438681
 30
0.0
 10
3.0520211177
 20
4.5940436119
 30
0.0
 10
3.100653959
 20
4.5950070617
 30
0.0
 10
3.16707518
 20
4.5962003604
 30
0.0
 10
3.253298459
 20
4.5975940311
 30
0.0
 10
3.3478943705
 20
4.5989894093
 30
0.0
 10
3.4503904823
 20
4.6003859717
 30
0.0
 10
3.5602781138
 20
4.6017835695
 30
0.0
 10
3.6770087449
 20
4.6031817965
 30
0.0
 10
3.8000027419
 20
4.6045806667
 30
0.0
 10
3.9286464546
 20
4.6059798971
 30
0.0
 10
4.0623007804
 20
4.6073795342
 30
0.0
 10
4.2002991904
 20
4.6087793931
 30
0.0
 10
4.3909839452
 20
4.6106640217
 30
0.0
 10
4.6349071792
 20
4.6130012183
 30
0.0
 10
4.9308760707
 20
4.6157812396
 30
0.0
 10
5.2269281258
 20
4.6185612164
 30
0.0
 10
5.517175372
 20
4.6213401236
 30
0.0
 10
5.7958461087
 20
4.6241165897
 30
0.0
 10
6.0573976286
 20
4.6268891045
 30
0.0
 10
6.225438199
 20
4.6288315273
 30
0.0
 10
6.3057129912
 20
4.6298203417
 30
0.0
  0
SPLINE
  5
2F8
100
AcDbEntity
  8
0
100
AcDbSpline
 62
7
  6
CONTINUOUS
 70
0
 71
3
 72
42
 73
38
 74
0
 42
0.0000001
 43
0.0000001
 44
0.0000000001
 40
0.0
 40
0.0
 40
0.0
 40
0.0
 40
0.0970272361
 40
0.1931640617
 40
0.2874572483
 40
0.3790432209
 40
0.4670515449
 40
0.5506510539
 40
0.6290541643
 40
0.7015193687
 40
0.7353101066
 40
0.7673638618
 40
0.7976069434
 40
0.8259669675
 40
0.8523762344
 40
0.8767744653
 40
0.8991023689
 40
0.919307466
 40
0.9373438586
 40
0.9531668251
 40
0.9602367413
 40
0.9667404829
 40
0.9726742369
 40
0.9780342098
 40
0.9828167925
 40
0.9870196204
 40
0.9906409638
 40
0.9936792286
 40
0.9949792879
 40
0.9961331168
 40
0.9971406454
 40
0.9980018947
 40
0.9987171373
 40
0.9992871125
 40
0.9997133412
 40
0.9998736664
 40
1.0
 40
1.0
 40
1.0
 40
1.0
 10
4.9350543478
 20
4.196537576
 30
0.0
 10
4.8640604859
 20
4.1958941236
 30
0.0
 10
4.7227242664
 20
4.1946131325
 30
0.0
 10
4.5123948251
 20
4.1926888273
 30
0.0
 10
4.3060470317
 20
4.1907648054
 30
0.0
 10
4.1056472841
 20
4.1888414654
 30
0.0
 10
3.9130726797
 20
4.1869189054
 30
0.0
 10
3.7301447287
 20
4.184997554
 30
0.0
 10
3.5585906373
 20
4.1830777956
 30
0.0
 10
3.4234817462
 20
4.1814441617
 30
0.0
 10
3.3222863222
 20
4.1801273753
 30
0.0
 10
3.2519837191
 20
4.1791631233
 30
0.0
 10
3.185655267
 20
4.1781992724
 30
0.0
 10
3.1234574566
 20
4.1772358195
 30
0.0
 10
3.0655369812
 20
4.1762727945
 30
0.0
 10
3.0120309711
 20
4.1753105204
 30
0.0
 10
2.9630654566
 20
4.1743490517
 30
0.0
 10
2.9187559803
 20
4.1733887182
 30
0.0
 10
2.879207502
 20
4.1724300077
 30
0.0
 10
2.8492700042
 20
4.1716050773
 30
0.0
 10
2.8277702482
 20
4.1709373839
 30
0.0
 10
2.8135043846
 20
4.1704559283
 30
0.0
 10
2.8004904798
 20
4.1699748996
 30
0.0
 10
2.7887369004
 20
4.1694944167
 30
0.0
 10
2.7782510187
 20
4.1690145888
 30
0.0
 10
2.7690387517
 20
4.1685358408
 30
0.0
 10
2.7611047453
 20
4.168058437
 30
0.0
 10
2.7552950298
 20
4.1676441722
 30
0.0
 10
2.751290497
 20
4.1673060899
 30
0.0
 10
2.7487690349
 20
4.1670662683
 30
0.0
 10
2.7465701983
 20
4.1668270802
 30
0.0
 10
2.7446944297
 20
4.166588633
 30
0.0
 10
2.7431413978
 20
4.1663518026
 30
0.0
 10
2.7419113425
 20
4.1661164838
 30
0.0
 10
2.74108919
 20
4.1659097397
 30
0.0
 10
2.7405974645
 20
4.1657347841
 30
0.0
 10
2.7404065975
 20
4.1656461106
 30
0.0
 10
2.7403265586
 20
4.1655998602
 30
0.0
  0
SPLINE
  5
2F9
100
AcDbEntity
  8
0
100
AcDbSpline
 62
7
  6
CONTINUOUS
 70
0
 71
3
 72
42
 73
38
 74
0
 42
0.0000001
 43
0.0000001
 44
0.0000000001
 40
0.0
 40
0.0
 40
0.0
 40
0.0
 40
0.0001263336
 40
0.0002866588
 40
0.0007128875
 40
0.0012828627
 40
0.0019981052
 40
0.0028593544
 40
0.0038668829
 40
0.0050207119
 40
0.0063207712
 40
0.0093590363
 40
0.01298038
 40
0.0171832081
 40
0.0219657908
 40
0.027325764
 40
0.0332595185
 40
0.039763261
 40
0.0468331779
 40
0.0626561456
 40
0.0806925406
 40
0.1008976399
 40
0.1232255436
 40
0.1476237745
 40
0.1740330404
 40
0.2023930621
 40
0.2326361417
 40
0.2646898952
 40
0.2984806322
 40
0.3709458367
 40
0.449348948
 40
0.5329484579
 40
0.6209567822
 40
0.7125427544
 40
0.8068359385
 40
0.9029727628
 40
1.0
 40
1.0
 40
1.0
 40
1.0
 10
2.7403265589
 20
4.4155998602
 30
0.0
 10
2.7404065977
 20
4.4156461106
 30
0.0
 10
2.7405974648
 20
4.4157347841
 30
0.0
 10
2.7410891904
 20
4.4159097397
 30
0.0
 10
2.7419113429
 20
4.4161164838
 30
0.0
 10
2.7431413981
 20
4.4163518026
 30
0.0
 10
2.7446944299
 20
4.416588633
 30
0.0
 10
2.7465701982
 20
4.4168270802
 30
0.0
 10
2.7487690347
 20
4.4170662683
 30
0.0
 10
2.7512904968
 20
4.4173060899
 30
0.0
 10
2.7552950299
 20
4.4176441722
 30
0.0
 10
2.7611047458
 20
4.418058437
 30
0.0
 10
2.7690387527
 20
4.4185358408
 30
0.0
 10
2.7782510201
 20
4.4190145889
 30
0.0
 10
2.7887369022
 20
4.4194944167
 30
0.0
 10
2.8004904822
 20
4.4199748997
 30
0.0
 10
2.8135043881
 20
4.4204559284
 30
0.0
 10
2.8277702534
 20
4.4209373841
 30
0.0
 10
2.8492700113
 20
4.4216050775
 30
0.0
 10
2.8792075124
 20
4.422430008
 30
0.0
 10
2.9187559949
 20
4.4233887185
 30
0.0
 10
2.9630654746
 20
4.424349052
 30
0.0
 10
3.0120309907
 20
4.4253105208
 30
0.0
 10
3.0655370001
 20
4.4262727949
 30
0.0
 10
3.123457473
 20
4.4272358198
 30
0.0
 10
3.1856552796
 20
4.4281992726
 30
0.0
 10
3.2519837273
 20
4.4291631234
 30
0.0
 10
3.3222863269
 20
4.4301273753
 30
0.0
 10
3.4234817491
 20
4.4314441617
 30
0.0
 10
3.5585906402
 20
4.4330777956
 30
0.0
 10
3.730144733
 20
4.4349975541
 30
0.0
 10
3.9130726855
 20
4.4369189055
 30
0.0
 10
4.1056472905
 20
4.4388414655
 30
0.0
 10
4.3060470363
 20
4.4407648055
 30
0.0
 10
4.5123948266
 20
4.4426888273
 30
0.0
 10
4.7227242658
 20
4.4446131325
 30
0.0
 10
4.8640604851
 20
4.4458941236
 30
0.0
 10
4.9350543478
 20
4.446537576
 30
0.0
  0
SPLINE
  5
2FA
100
AcDbEntity
  8
0
100
AcDbSpline
 62
7
  6
CONTINUOUS
 70
0
 71
3
 72
12
 73
8
 74
0
 42
0.0000001
 43
0.0000001
 44
0.0000000001
 40
0.0
 40
0.0
 40
0.0
 40
0.0
 40
0.0587366366
 40
0.135760279
 40
0.3465567403
 40
0.6344239882
 40
1.0
 40
1.0
 40
1.0
 40
1.0
 10
2.8170358682
 20
4.4598939327
 30
0.0
 10
2.8171360393
 20
4.4599516929
 30
0.0
 10
2.817381277
 20
4.4600607861
 30
0.0
 10
2.8180291222
 20
4.4602756283
 30
0.0
 10
2.8191363638
 20
4.4605268934
 30
0.0
 10
2.820813349
 20
4.4608133663
 30
0.0
 10
2.8220886095
 20
4.4609850111
 30
0.0
 10
2.8228027878
 20
4.4610738669
 30
0.0
  0
SPLINE
  5
2FB
100
AcDbEntity
  8
0
100
AcDbSpline
 62
7
  6
CONTINUOUS
 70
0
 71
3
 72
70
 73
66
 74
0
 42
0.0000001
 43
0.0000001
 44
0.0000000001
 40
0.0
 40
0.0
 40
0.0
 40
0.0
 40
0.0010542552
 40
0.002393111
 40
0.0040164968
 40
0.0059234892
 40
0.0081129085
 40
0.0105835223
 40
0.0163632492
 40
0.023251033
 40
0.0312300135
 40
0.0402820686
 40
0.0503876911
 40
0.0615225465
 40
0.0736612112
 40
0.1008385502
 40
0.1316695699
 40
0.1658716242
 40
0.2031319734
 40
0.243108063
 40
0.2854333098
 40
0.3297200998
 40
0.3755616678
 40
0.4225376752
 40
0.4702174714
 40
0.5181634399
 40
0.5659360312
 40
0.6130969043
 40
0.6592134686
 40
0.7038630835
 40
0.7466356896
 40
0.7871391818
 40
0.8250025657
 40
0.8428340545
 40
0.8598777475
 40
0.8760940583
 40
0.8914452865
 40
0.9058972946
 40
0.9194163676
 40
0.9319709704
 40
0.9435335077
 40
0.9540768373
 40
0.9635762662
 40
0.972011338
 40
0.9758234893
 40
0.9793620913
 40
0.9826252042
 40
0.9856112734
 40
0.9883187625
 40
0.9907461486
 40
0.9928919299
 40
0.9947546822
 40
0.9963335872
 40
0.9976283062
 40
0.9981690612
 40
0.9986387696
 40
0.9990375168
 40
0.9993654927
 40
0.9995030669
 40
0.9996231374
 40
0.9997258455
 40
0.9998114247
 40
0.9998802904
 40
0.999933263
 40
1.0
 40
1.0
 40
1.0
 40
1.0
 10
2.8228027878
 20
4.4610738669
 30
0.0
 10
2.8242784227
 20
4.4612574608
 30
0.0
 10
2.8276364954
 20
4.4616053178
 30
0.0
 10
2.8332825962
 20
4.4620719903
 30
0.0
 10
2.8401347314
 20
4.4625412281
 30
0.0
 10
2.8481887267
 20
4.4630125475
 30
0.0
 10
2.857439431
 20
4.463485118
 30
0.0
 10
2.8721495299
 20
4.4641517187
 30
0.0
 10
2.8934862703
 20
4.4649679631
 30
0.0
 10
2.9225927627
 20
4.4659084205
 30
0.0
 10
2.9563168166
 20
4.466851774
 30
0.0
 10
2.994581058
 20
4.4677974215
 30
0.0
 10
3.0372977949
 20
4.4687443176
 30
0.0
 10
3.0843690858
 20
4.4696924465
 30
0.0
 10
3.1555171856
 20
4.4710077026
 30
0.0
 10
3.2544453948
 20
4.4726290812
 30
0.0
 10
3.384493268
 20
4.4745147485
 30
0.0
 10
3.5287643783
 20
4.476403881
 30
0.0
 10
3.6859354479
 20
4.4782956818
 30
0.0
 10
3.8545649124
 20
4.4801893359
 30
0.0
 10
4.0331056435
 20
4.4820843375
 30
0.0
 10
4.2199199823
 20
4.4839802559
 30
0.0
 10
4.4132944709
 20
4.4858768693
 30
0.0
 10
4.6114549662
 20
4.4877739321
 30
0.0
 10
4.8125838195
 20
4.4896712442
 30
0.0
 10
5.0148362918
 20
4.491568668
 30
0.0
 10
5.2163567989
 20
4.4934660178
 30
0.0
 10
5.4152968439
 20
4.4953631444
 30
0.0
 10
5.6098317749
 20
4.4972598743
 30
0.0
 10
5.7981768214
 20
4.4991559638
 30
0.0
 10
5.9786043024
 20
4.5010511635
 30
0.0
 10
6.1494593583
 20
4.5029452116
 30
0.0
 10
6.2851363048
 20
4.5045524802
 30
0.0
 10
6.3877248747
 20
4.5058466641
 30
0.0
 10
6.4597824399
 20
4.5067975754
 30
0.0
 10
6.5283413168
 20
4.5077482374
 30
0.0
 10
6.5932442919
 20
4.5086986974
 30
0.0
 10
6.654342426
 20
4.5096487533
 30
0.0
 10
6.7114954595
 20
4.5105983765
 30
0.0
 10
6.7645723415
 20
4.5115475488
 30
0.0
 10
6.8134512706
 20
4.5124959445
 30
0.0
 10
6.8580200617
 20
4.5134433643
 30
0.0
 10
6.8981765317
 20
4.5143897411
 30
0.0
 10
6.9288391969
 20
4.5152017644
 30
0.0
 10
6.9510952339
 20
4.5158576924
 30
0.0
 10
6.9660584212
 20
4.5163326903
 30
0.0
 10
6.9798558081
 20
4.5168074185
 30
0.0
 10
6.9924801832
 20
4.5172817923
 30
0.0
 10
7.0039248874
 20
4.5177556951
 30
0.0
 10
7.01418329
 20
4.5182289414
 30
0.0
 10
7.0232488289
 20
4.5187013071
 30
0.0
 10
7.0311158664
 20
4.5191722847
 30
0.0
 10
7.0377800731
 20
4.5196416222
 30
0.0
 10
7.0425789807
 20
4.5200503482
 30
0.0
 10
7.0458131423
 20
4.5203858607
 30
0.0
 10
7.0477869127
 20
4.5206214912
 30
0.0
 10
7.0494581796
 20
4.520856303
 30
0.0
 10
7.0506603079
 20
4.5210607412
 30
0.0
 10
7.0514692617
 20
4.521228394
 30
0.0
 10
7.0519636689
 20
4.5213462775
 30
0.0
 10
7.0523827919
 20
4.5214642218
 30
0.0
 10
7.0527256436
 20
4.5215804817
 30
0.0
 10
7.0529963234
 20
4.5216994912
 30
0.0
 10
7.0532204193
 20
4.5218286713
 30
0.0
 10
7.0533541622
 20
4.5219762109
 30
0.0
 10
7.0533539713
 20
4.5220703423
 30
0.0
  0
SPLINE
  5
2FC
100
AcDbEntity
  8
0
100
AcDbSpline
 62
7
  6
CONTINUOUS
 70
0
 71
3
 72
42
 73
38
 74
0
 42
0.0000001
 43
0.0000001
 44
0.0000000001
 40
0.0
 40
0.0
 40
0.0
 40
0.0
 40
0.0001263336
 40
0.0002866588
 40
0.0007128875
 40
0.0012828627
 40
0.0019981052
 40
0.0028593544
 40
0.0038668829
 40
0.0050207119
 40
0.0063207712
 40
0.0093590363
 40
0.01298038
 40
0.0171832081
 40
0.0219657908
 40
0.027325764
 40
0.0332595185
 40
0.039763261
 40
0.0468331779
 40
0.0626561456
 40
0.0806925406
 40
0.1008976399
 40
0.1232255436
 40
0.1476237745
 40
0.1740330404
 40
0.2023930621
 40
0.2326361417
 40
0.2646898952
 40
0.2984806322
 40
0.3709458367
 40
0.449348948
 40
0.5329484579
 40
0.6209567822
 40
0.7125427544
 40
0.8068359385
 40
0.9029727628
 40
1.0
 40
1.0
 40
1.0
 40
1.0
 10
2.7403265589
 20
4.2905998602
 30
0.0
 10
2.7404065977
 20
4.2906461106
 30
0.0
 10
2.7405974648
 20
4.2907347841
 30
0.0
 10
2.7410891904
 20
4.2909097397
 30
0.0
 10
2.7419113429
 20
4.2911164838
 30
0.0
 10
2.7431413981
 20
4.2913518026
 30
0.0
 10
2.7446944299
 20
4.291588633
 30
0.0
 10
2.7465701982
 20
4.2918270802
 30
0.0
 10
2.7487690347
 20
4.2920662683
 30
0.0
 10
2.7512904968
 20
4.2923060899
 30
0.0
 10
2.7552950299
 20
4.2926441722
 30
0.0
 10
2.7611047458
 20
4.293058437
 30
0.0
 10
2.7690387527
 20
4.2935358408
 30
0.0
 10
2.7782510201
 20
4.2940145889
 30
0.0
 10
2.7887369022
 20
4.2944944167
 30
0.0
 10
2.8004904822
 20
4.2949748997
 30
0.0
 10
2.8135043881
 20
4.2954559284
 30
0.0
 10
2.8277702534
 20
4.2959373841
 30
0.0
 10
2.8492700113
 20
4.2966050775
 30
0.0
 10
2.8792075124
 20
4.297430008
 30
0.0
 10
2.9187559949
 20
4.2983887185
 30
0.0
 10
2.9630654746
 20
4.299349052
 30
0.0
 10
3.0120309907
 20
4.3003105208
 30
0.0
 10
3.0655370001
 20
4.3012727949
 30
0.0
 10
3.123457473
 20
4.3022358198
 30
0.0
 10
3.1856552796
 20
4.3031992726
 30
0.0
 10
3.2519837273
 20
4.3041631234
 30
0.0
 10
3.3222863269
 20
4.3051273753
 30
0.0
 10
3.4234817491
 20
4.3064441617
 30
0.0
 10
3.5585906402
 20
4.3080777956
 30
0.0
 10
3.730144733
 20
4.3099975541
 30
0.0
 10
3.9130726855
 20
4.3119189055
 30
0.0
 10
4.1056472905
 20
4.3138414655
 30
0.0
 10
4.3060470363
 20
4.3157648055
 30
0.0
 10
4.5123948266
 20
4.3176888273
 30
0.0
 10
4.7227242658
 20
4.3196131325
 30
0.0
 10
4.8640604851
 20
4.3208941236
 30
0.0
 10
4.9350543478
 20
4.321537576
 30
0.0
  0
SPLINE
  5
2FD
100
AcDbEntity
  8
0
100
AcDbSpline
 62
7
  6
CONTINUOUS
 70
0
 71
3
 72
12
 73
8
 74
0
 42
0.0000001
 43
0.0000001
 44
0.0000000001
 40
0.0
 40
0.0
 40
0.0
 40
0.0
 40
0.0621936994
 40
0.1417004115
 40
0.3544600948
 40
0.6403259683
 40
1.0
 40
1.0
 40
1.0
 40
1.0
 10
2.8170361895
 20
4.3348939326
 30
0.0
 10
2.8171230267
 20
4.3349440115
 30
0.0
 10
2.817331288
 20
4.3350397221
 30
0.0
 10
2.8178708447
 20
4.3352284657
 30
0.0
 10
2.8187774152
 20
4.3354509855
 30
0.0
 10
2.8201374299
 20
4.3357043586
 30
0.0
 10
2.8211669792
 20
4.3358567855
 30
0.0
 10
2.8217413298
 20
4.3359354773
 30
0.0
  0
SPLINE
  5
2FE
100
AcDbEntity
  8
0
100
AcDbSpline
 62
7
  6
CONTINUOUS
 70
0
 71
3
 72
70
 73
66
 74
0
 42
0.0000001
 43
0.0000001
 44
0.0000000001
 40
0.0
 40
0.0
 40
0.0
 40
0.0
 40
0.000973936
 40
0.0022336829
 40
0.0037793145
 40
0.0056099895
 40
0.0077245897
 40
0.010121934
 40
0.0157599518
 40
0.0225127028
 40
0.0303635641
 40
0.039294667
 40
0.0492866785
 40
0.0603154006
 40
0.0723555868
 40
0.0993592125
 40
0.1300479224
 40
0.1641390399
 40
0.2013194457
 40
0.2412458182
 40
0.2835503089
 40
0.3278437617
 40
0.3737175357
 40
0.4207490356
 40
0.4685051781
 40
0.5165456538
 40
0.5644280264
 40
0.6117109953
 40
0.6579588119
 40
0.7027457325
 40
0.7456586428
 40
0.7863022332
 40
0.8243026212
 40
0.8422005883
 40
0.8593089629
 40
0.8755876637
 40
0.8909989258
 40
0.9055082378
 40
0.919081402
 40
0.9316869158
 40
0.9432968402
 40
0.9538835756
 40
0.9634225644
 40
0.971893043
 40
0.9757211872
 40
0.9792746293
 40
0.9825515382
 40
0.985550311
 40
0.9882693543
 40
0.9907070883
 40
0.9928619542
 40
0.9947325542
 40
0.9963181924
 40
0.9976184853
 40
0.9981615764
 40
0.9986333116
 40
0.9990337699
 40
0.9993631351
 40
0.9995012812
 40
0.9996218408
 40
0.9997249546
 40
0.9998108559
 40
0.9998799616
 40
0.9999331031
 40
1.0
 40
1.0
 40
1.0
 40
1.0
 10
2.8217413298
 20
4.3359354773
 30
0.0
 10
2.8231026822
 20
4.3361219961
 30
0.0
 10
2.8262353425
 20
4.3364719928
 30
0.0
 10
2.8315470482
 20
4.3369385508
 30
0.0
 10
2.8380711632
 20
4.3374080305
 30
0.0
 10
2.8458036663
 20
4.3378799618
 30
0.0
 10
2.8547396581
 20
4.3383532857
 30
0.0
 10
2.8690440842
 20
4.3390223704
 30
0.0
 10
2.8898919914
 20
4.339840651
 30
0.0
 10
2.9184343068
 20
4.340782668
 30
0.0
 10
2.951624727
 20
4.3417277591
 30
0.0
 10
2.9893867604
 20
4.3426752895
 30
0.0
 10
3.031633475
 20
4.3436241406
 30
0.0
 10
3.0782675805
 20
4.3445742869
 30
0.0
 10
3.1488997634
 20
4.3458931888
 30
0.0
 10
3.2472680604
 20
4.3475185502
 30
0.0
 10
3.3767463363
 20
4.3494081415
 30
0.0
 10
3.5205837671
 20
4.3513013047
 30
0.0
 10
3.6774550713
 20
4.3531972168
 30
0.0
 10
3.8459149125
 20
4.3550950272
 30
0.0
 10
4.0244107245
 20
4.356994223
 30
0.0
 10
4.211297825
 20
4.3588943594
 30
0.0
 10
4.4048543153
 20
4.3607952062
 30
0.0
 10
4.60329634
 20
4.3626965179
 30
0.0
 10
4.8047953747
 20
4.3645980874
 30
0.0
 10
5.0074949085
 20
4.3664997755
 30
0.0
 10
5.2095268403
 20
4.3684013969
 30
0.0
 10
5.4090295013
 20
4.3703027957
 30
0.0
 10
5.604164769
 20
4.3722038024
 30
0.0
 10
5.7931342776
 20
4.3741041714
 30
0.0
 10
5.9741967007
 20
4.376003644
 30
0.0
 10
6.1456838534
 20
4.3779019713
 30
0.0
 10
6.2818798463
 20
4.379512818
 30
0.0
 10
6.3848726949
 20
4.3808098877
 30
0.0
 10
6.45722155
 20
4.381762947
 30
0.0
 10
6.5260617401
 20
4.3827157734
 30
0.0
 10
6.5912346954
 20
4.3836683857
 30
0.0
 10
6.6525901396
 20
4.3846205854
 30
0.0
 10
6.7099866146
 20
4.3855723749
 30
0.0
 10
6.7632919169
 20
4.3865236961
 30
0.0
 10
6.8123831299
 20
4.3874742273
 30
0.0
 10
6.8571470999
 20
4.3884238153
 30
0.0
 10
6.8974807316
 20
4.3893723325
 30
0.0
 10
6.9282794828
 20
4.3901861804
 30
0.0
 10
6.9506346039
 20
4.390843596
 30
0.0
 10
6.9656645408
 20
4.3913196823
 30
0.0
 10
6.9795237424
 20
4.3917954848
 30
0.0
 10
6.9922050001
 20
4.3922709321
 30
0.0
 10
7.0037014241
 20
4.3927459061
 30
0.0
 10
7.0140061411
 20
4.3932202201
 30
0.0
 10
7.0231124633
 20
4.3936936567
 30
0.0
 10
7.0310148801
 20
4.394165724
 30
0.0
 10
7.0377092111
 20
4.3946361224
 30
0.0
 10
7.0425299964
 20
4.3950457692
 30
0.0
 10
7.0457790005
 20
4.3953820391
 30
0.0
 10
7.0477618439
 20
4.395618202
 30
0.0
 10
7.0494407721
 20
4.3958535433
 30
0.0
 10
7.0506483898
 20
4.3960584434
 30
0.0
 10
7.0514610083
 20
4.3962264796
 30
0.0
 10
7.0519576111
 20
4.3963446276
 30
0.0
 10
7.0523785602
 20
4.3964628378
 30
0.0
 10
7.0527228564
 20
4.3965793512
 30
0.0
 10
7.052994646
 20
4.3966986409
 30
0.0
 10
7.0532195403
 20
4.3968280548
 30
0.0
 10
7.0533538893
 20
4.3969759618
 30
0.0
 10
7.0533536636
 20
4.3970703425
 30
0.0
  0
SPLINE
  5
2FF
100
AcDbEntity
  8
0
100
AcDbSpline
 62
7
  6
CONTINUOUS
 70
0
 71
3
 72
45
 73
41
 74
0
 42
0.0000001
 43
0.0000001
 44
0.0000000001
 40
0.0
 40
0.0
 40
0.0
 40
0.0
 40
0.0001341268
 40
0.0002433085
 40
0.0003861883
 40
0.0005643645
 40
0.0007786515
 40
0.0010295092
 40
0.0013172017
 40
0.0020036584
 40
0.0028387913
 40
0.0049560321
 40
0.0076695601
 40
0.0109787418
 40
0.0148825131
 40
0.0193794132
 40
0.0244665759
 40
0.0301405416
 40
0.0363978103
 40
0.0432348565
 40
0.0506481364
 40
0.058633602
 40
0.0762995847
 40
0.0961887519
 40
0.1182558042
 40
0.1424464414
 40
0.1687015048
 40
0.1969601581
 40
0.2271525895
 40
0.2592058821
 40
0.2930447588
 40
0.3285858273
 40
0.3657439272
 40
0.4445514691
 40
0.52870712
 40
0.617401863
 40
0.7097806582
 40
0.8049482539
 40
0.9020161714
 40
1.0
 40
1.0
 40
1.0
 40
1.0
 10
2.7400557117
 20
3.2694531062
 30
0.0
 10
2.7400554753
 20
3.269551268
 30
0.0
 10
2.7402043233
 20
3.2697027678
 30
0.0
 10
2.7404447652
 20
3.2698332727
 30
0.0
 10
2.7407390956
 20
3.2699553064
 30
0.0
 10
2.7411114258
 20
3.2700742614
 30
0.0
 10
2.7415670409
 20
3.2701951092
 30
0.0
 10
2.7421045805
 20
3.2703158607
 30
0.0
 10
2.7429846428
 20
3.2704876775
 30
0.0
 10
2.7442924007
 20
3.2706971961
 30
0.0
 10
2.7469327572
 20
3.2710461018
 30
0.0
 10
2.7510590282
 20
3.2714642489
 30
0.0
 10
2.7569972765
 20
3.2719420873
 30
0.0
 10
2.7642463897
 20
3.2724224396
 30
0.0
 10
2.772802837
 20
3.2729052339
 30
0.0
 10
2.7826622502
 20
3.273389186
 30
0.0
 10
2.793818506
 20
3.2738741004
 30
0.0
 10
2.8062641609
 20
3.2743596692
 30
0.0
 10
2.8199913428
 20
3.2748457305
 30
0.0
 10
2.8349921726
 20
3.2753321539
 30
0.0
 10
2.8512584016
 20
3.2758188676
 30
0.0
 10
2.8754478466
 20
3.2764909153
 30
0.0
 10
2.9087668973
 20
3.277322883
 30
0.0
 10
2.9523912859
 20
3.2782925628
 30
0.0
 10
3.0007918457
 20
3.2792633131
 30
0.0
 10
3.0538521786
 20
3.2802350753
 30
0.0
 10
3.1114445807
 20
3.2812076199
 30
0.0
 10
3.1734300287
 20
3.2821806146
 30
0.0
 10
3.2396594501
 20
3.2831540883
 30
0.0
 10
3.3099732241
 20
3.2841279458
 30
0.0
 10
3.3842018049
 20
3.2851020012
 30
0.0
 10
3.4621666932
 20
3.2860763552
 30
0.0
 10
3.5730405305
 20
3.2874018362
 30
0.0
 10
3.7194921395
 20
3.2890479744
 30
0.0
 10
3.9036603946
 20
3.2909884569
 30
0.0
 10
4.09776142
 20
3.2929301314
 30
0.0
 10
4.2999220268
 20
3.2948726571
 30
0.0
 10
4.5082108943
 20
3.296815893
 30
0.0
 10
4.7206020346
 20
3.2987594295
 30
0.0
 10
4.863346813
 20
3.3000531865
 30
0.0
 10
4.9350543478
 20
3.3007031073
 30
0.0
  0
SPLINE
  5
300
100
AcDbEntity
  8
0
100
AcDbSpline
 62
7
  6
CONTINUOUS
 70
0
 71
3
 72
42
 73
38
 74
0
 42
0.0000001
 43
0.0000001
 44
0.0000000001
 40
0.0
 40
0.0
 40
0.0
 40
0.0
 40
0.0970272363
 40
0.1931640577
 40
0.2874572417
 40
0.379043215
 40
0.4670515398
 40
0.5506510497
 40
0.6290541607
 40
0.7015193645
 40
0.7353101009
 40
0.7673638543
 40
0.7976069338
 40
0.8259669546
 40
0.8523762199
 40
0.8767744503
 40
0.8991023534
 40
0.9193074539
 40
0.9373438502
 40
0.9531668186
 40
0.9602367362
 40
0.9667404793
 40
0.9726742344
 40
0.9780342078
 40
0.9828167906
 40
0.987019619
 40
0.990640963
 40
0.9936792286
 40
0.9949792881
 40
0.9961331171
 40
0.9971406456
 40
0.9980018947
 40
0.9987171372
 40
0.9992871124
 40
0.9997133411
 40
0.9998736663
 40
1.0
 40
1.0
 40
1.0
 40
1.0
 10
4.9350543478
 20
3.696537576
 30
0.0
 10
4.8640604858
 20
3.6958941236
 30
0.0
 10
4.7227242693
 20
3.6946131325
 30
0.0
 10
4.5123948329
 20
3.6926888274
 30
0.0
 10
4.306047044
 20
3.6907648055
 30
0.0
 10
4.1056472972
 20
3.6888414655
 30
0.0
 10
3.913072691
 20
3.6869189055
 30
0.0
 10
3.7301447384
 20
3.6849975541
 30
0.0
 10
3.5585906464
 20
3.6830777957
 30
0.0
 10
3.4234817565
 20
3.6814441618
 30
0.0
 10
3.3222863353
 20
3.6801273754
 30
0.0
 10
3.2519837363
 20
3.6791631235
 30
0.0
 10
3.1856552894
 20
3.6781992727
 30
0.0
 10
3.123457484
 20
3.67723582
 30
0.0
 10
3.0655370126
 20
3.6762727951
 30
0.0
 10
3.0120310044
 20
3.6753105211
 30
0.0
 10
2.9630654882
 20
3.6743490523
 30
0.0
 10
2.9187560071
 20
3.6733887188
 30
0.0
 10
2.8792075222
 20
3.6724300082
 30
0.0
 10
2.8492700192
 20
3.6716050777
 30
0.0
 10
2.8277702598
 20
3.6709373843
 30
0.0
 10
2.8135043932
 20
3.6704559286
 30
0.0
 10
2.8004904862
 20
3.6699748999
 30
0.0
 10
2.7887369056
 20
3.6694944169
 30
0.0
 10
2.7782510231
 20
3.669014589
 30
0.0
 10
2.7690387552
 20
3.6685358409
 30
0.0
 10
2.7611047475
 20
3.6680584371
 30
0.0
 10
2.7552950308
 20
3.6676441723
 30
0.0
 10
2.7512904972
 20
3.66730609
 30
0.0
 10
2.7487690349
 20
3.6670662684
 30
0.0
 10
2.7465701984
 20
3.6668270803
 30
0.0
 10
2.7446944302
 20
3.666588633
 30
0.0
 10
2.7431413985
 20
3.6663518026
 30
0.0
 10
2.7419113433
 20
3.6661164838
 30
0.0
 10
2.7410891907
 20
3.6659097397
 30
0.0
 10
2.7405974651
 20
3.6657347841
 30
0.0
 10
2.740406598
 20
3.6656461106
 30
0.0
 10
2.7403265591
 20
3.6655998602
 30
0.0
  0
SPLINE
  5
301
100
AcDbEntity
  8
0
100
AcDbSpline
 62
7
  6
CONTINUOUS
 70
0
 71
3
 72
11
 73
7
 74
0
 42
0.0000001
 43
0.0000001
 44
0.0000000001
 40
0.0
 40
0.0
 40
0.0
 40
0.0
 40
0.1484991068
 40
0.3636107106
 40
0.6471912873
 40
1.0
 40
1.0
 40
1.0
 40
1.0
 10
2.8170364665
 20
4.2098939325
 30
0.0
 10
2.8172021877
 20
4.2099895256
 30
0.0
 10
2.8176430585
 20
4.2101584835
 30
0.0
 10
2.8184475159
 20
4.2103756597
 30
0.0
 10
2.8195233185
 20
4.2105951985
 30
0.0
 10
2.8203322701
 20
4.2107285027
 30
0.0
 10
2.8207816108
 20
4.210797008
 30
0.0
  0
SPLINE
  5
302
100
AcDbEntity
  8
0
100
AcDbSpline
 62
7
  6
CONTINUOUS
 70
0
 71
3
 72
70
 73
66
 74
0
 42
0.0000001
 43
0.0000001
 44
0.0000000001
 40
0.0
 40
0.0
 40
0.0
 40
0.0
 40
0.0008933089
 40
0.0020735835
 40
0.0035410751
 40
0.0052950368
 40
0.0073344168
 40
0.009658088
 40
0.0151535885
 40
0.0217705045
 40
0.0294924574
 40
0.038301835
 40
0.0481794823
 40
0.0591013431
 40
0.071042349
 40
0.0978709472
 40
0.1284161853
 40
0.1623953839
 40
0.1994950563
 40
0.2393711247
 40
0.281654476
 40
0.3259544051
 40
0.3718603992
 40
0.4189475966
 40
0.4667804625
 40
0.514915976
 40
0.5629087864
 40
0.6103146217
 40
0.6566945741
 40
0.7016197658
 40
0.7446740088
 40
0.785458753
 40
0.8235971782
 40
0.8415621475
 40
0.8587356961
 40
0.87507727
 40
0.8905490517
 40
0.9051161067
 40
0.918743786
 40
0.9314006317
 40
0.943058303
 40
0.9536887841
 40
0.9632676657
 40
0.9717738112
 40
0.9756180506
 40
0.9791864709
 40
0.9824773032
 40
0.9854888873
 40
0.988219572
 40
0.9906677198
 40
0.9928317156
 40
0.9947102514
 40
0.9963026971
 40
0.9976086164
 40
0.9981540614
 40
0.9986278356
 40
0.9990300114
 40
0.999360766
 40
0.999499482
 40
0.9996205272
 40
0.9997240419
 40
0.9998102613
 40
0.9998796133
 40
0.999932933
 40
1.0
 40
1.0
 40
1.0
 40
1.0
 10
2.8207816108
 20
4.210797008
 30
0.0
 10
2.822027818
 20
4.2109870016
 30
0.0
 10
2.8249337781
 20
4.2113391101
 30
0.0
 10
2.8299091361
 20
4.2118053736
 30
0.0
 10
2.83610324
 20
4.212274935
 30
0.0
 10
2.8435121851
 20
4.2127474236
 30
0.0
 10
2.8521313726
 20
4.2132214587
 30
0.0
 10
2.8660272734
 20
4.2138930869
 30
0.0
 10
2.8863827504
 20
4.2147133802
 30
0.0
 10
2.9143565313
 20
4.2156569195
 30
0.0
 10
2.9470089195
 20
4.2166037221
 30
0.0
 10
2.9842643239
 20
4.2175531226
 30
0.0
 10
3.0260365916
 20
4.2185039203
 30
0.0
 10
3.0722291001
 20
4.2194560791
 30
0.0
 10
3.1423395494
 20
4.2207786431
 30
0.0
 10
3.2401408203
 20
4.222407989
 30
0.0
 10
3.3690412401
 20
4.2243014957
 30
0.0
 10
3.5124371948
 20
4.2261986847
 30
0.0
 10
3.6690015011
 20
4.2280987067
 30
0.0
 10
3.8372851167
 20
4.2300006733
 30
0.0
 10
4.0157300789
 20
4.2319040639
 30
0.0
 10
4.2026847142
 20
4.2338084198
 30
0.0
 10
4.3964187027
 20
4.2357135018
 30
0.0
 10
4.5951384794
 20
4.2376190643
 30
0.0
 10
4.7970046166
 20
4.2395248934
 30
0.0
 10
5.0001487788
 20
4.2414308474
 30
0.0
 10
5.2026903041
 20
4.2433367419
 30
0.0
 10
5.4027543336
 20
4.2452424146
 30
0.0
 10
5.598489249
 20
4.2471476993
 30
0.0
 10
5.7880830542
 20
4.2490523503
 30
0.0
 10
5.9697806906
 20
4.2509560986
 30
0.0
 10
6.1419005354
 20
4.2528587067
 30
0.0
 10
6.2786162485
 20
4.2544731353
 30
0.0
 10
6.3820139956
 20
4.2557730905
 30
0.0
 10
6.4546546635
 20
4.2567283
 30
0.0
 10
6.523776715
 20
4.257683293
 30
0.0
 10
6.5892202062
 20
4.2586380571
 30
0.0
 10
6.650833518
 20
4.2595924034
 30
0.0
 10
6.7084739884
 20
4.2605463614
 30
0.0
 10
6.7620082438
 20
4.26149983
 30
0.0
 10
6.8113122481
 20
4.2624525001
 30
0.0
 10
6.8562718756
 20
4.2634042587
 30
0.0
 10
6.8967831045
 20
4.2643549138
 30
0.0
 10
6.9277182505
 20
4.2651705858
 30
0.0
 10
6.9501726733
 20
4.265829496
 30
0.0
 10
6.9652695509
 20
4.2663066671
 30
0.0
 10
6.9791907914
 20
4.266783544
 30
0.0
 10
6.99192911
 20
4.2672600648
 30
0.0
 10
7.0034773711
 20
4.2677361108
 30
0.0
 10
7.0138284577
 20
4.2682114907
 30
0.0
 10
7.0229756451
 20
4.2686860095
 30
0.0
 10
7.0309135622
 20
4.2691591586
 30
0.0
 10
7.0376381749
 20
4.2696306177
 30
0.0
 10
7.0424809369
 20
4.2700411857
 30
0.0
 10
7.0457448289
 20
4.2703782142
 30
0.0
 10
7.0477367529
 20
4.2706149095
 30
0.0
 10
7.0494233317
 20
4.2708507802
 30
0.0
 10
7.050636418
 20
4.2710561426
 30
0.0
 10
7.0514526748
 20
4.2712245629
 30
0.0
 10
7.0519514462
 20
4.2713429759
 30
0.0
 10
7.0523741938
 20
4.2714614516
 30
0.0
 10
7.0527199183
 20
4.2715782291
 30
0.0
 10
7.0529928302
 20
4.2716977944
 30
0.0
 10
7.0532185566
 20
4.2718274397
 30
0.0
 10
7.0533535592
 20
4.2719757003
 30
0.0
 10
7.053353322
 20
4.2720703426
 30
0.0
  0
SPLINE
  5
303
100
AcDbEntity
  8
0
100
AcDbSpline
 62
7
  6
CONTINUOUS
 70
0
 71
3
 72
45
 73
41
 74
0
 42
0.0000001
 43
0.0000001
 44
0.0000000001
 40
0.0
 40
0.0
 40
0.0
 40
0.0
 40
0.0001342489
 40
0.0002434825
 40
0.0003863782
 40
0.0005645227
 40
0.0007787206
 40
0.0010294299
 40
0.0013169341
 40
0.0020029903
 40
0.0028378512
 40
0.0049551361
 40
0.0076691477
 40
0.0109788106
 40
0.0148826167
 40
0.0193788563
 40
0.0244656204
 40
0.030139818
 40
0.0363975693
 40
0.0432349553
 40
0.0506480396
 40
0.0586328734
 40
0.0762990643
 40
0.0961888087
 40
0.1182550552
 40
0.142446089
 40
0.1687014599
 40
0.196959495
 40
0.2271523637
 40
0.2592057209
 40
0.2930442424
 40
0.3285856806
 40
0.365743652
 40
0.4445513671
 40
0.5287069201
 40
0.6174014666
 40
0.7097807327
 40
0.8049485357
 40
0.9020148767
 40
1.0
 40
1.0
 40
1.0
 40
1.0
 10
2.7400563461
 20
3.3944531073
 30
0.0
 10
2.7400563461
 20
3.3945513587
 30
0.0
 10
2.7402054122
 20
3.3947026912
 30
0.0
 10
2.7404459903
 20
3.3948332673
 30
0.0
 10
2.7407403487
 20
3.3949552839
 30
0.0
 10
2.7411125962
 20
3.3950742498
 30
0.0
 10
2.7415680062
 20
3.3951950978
 30
0.0
 10
2.7421052245
 20
3.3953158575
 30
0.0
 10
2.7429847346
 20
3.3954876855
 30
0.0
 10
2.7442918506
 20
3.3956972297
 30
0.0
 10
2.7469317383
 20
3.3960461716
 30
0.0
 10
2.7510582023
 20
3.3964642732
 30
0.0
 10
2.756997191
 20
3.3969420774
 30
0.0
 10
2.7642470363
 20
3.3974224047
 30
0.0
 10
2.7728033744
 20
3.3979051921
 30
0.0
 10
2.7826620301
 20
3.39838921
 30
0.0
 10
2.7938176756
 20
3.3988741302
 30
0.0
 10
2.8062635582
 20
3.3993596765
 30
0.0
 10
2.8199915075
 20
3.3998457236
 30
0.0
 10
2.834992791
 20
3.4003321341
 30
0.0
 10
2.8512586566
 20
3.4008188531
 30
0.0
 10
2.8754476374
 20
3.4014909607
 30
0.0
 10
2.9087667893
 20
3.4023228847
 30
0.0
 10
2.9523911474
 20
3.4032925221
 30
0.0
 10
3.0007918104
 20
3.4042633503
 30
0.0
 10
3.0538520496
 20
3.405235068
 30
0.0
 10
3.111444493
 20
3.4062075993
 30
0.0
 10
3.1734300095
 20
3.4071806392
 30
0.0
 10
3.2396593215
 20
3.4081540778
 30
0.0
 10
3.3099731762
 20
3.4091279387
 30
0.0
 10
3.3842017866
 20
3.4101020153
 30
0.0
 10
3.4621665623
 20
3.4110763447
 30
0.0
 10
3.5730406609
 20
3.4124018447
 30
0.0
 10
3.7194921759
 20
3.4140479675
 30
0.0
 10
3.9036602726
 20
3.4159884596
 30
0.0
 10
4.0977613541
 20
3.4179301325
 30
0.0
 10
4.2999222371
 20
3.4198726573
 30
0.0
 10
4.5082103686
 20
3.4218158889
 30
0.0
 10
4.7206013742
 20
3.4237594235
 30
0.0
 10
4.8633458925
 20
3.4250531782
 30
0.0
 10
4.9350543478
 20
3.4257031073
 30
0.0
  0
SPLINE
  5
304
100
AcDbEntity
  8
0
100
AcDbSpline
 62
7
  6
CONTINUOUS
 70
0
 71
3
 72
72
 73
68
 74
0
 42
0.0000001
 43
0.0000001
 44
0.0000000001
 40
0.0
 40
0.0
 40
0.0
 40
0.0
 40
0.0000673785
 40
0.0001209855
 40
0.0001907032
 40
0.0002773607
 40
0.0003813826
 40
0.0005030118
 40
0.0006423987
 40
0.000974799
 40
0.0013790968
 40
0.0018555441
 40
0.0024042084
 40
0.0037180487
 40
0.0053201288
 40
0.0072096958
 40
0.0093858884
 40
0.0118477874
 40
0.0145942843
 40
0.017623596
 40
0.0209337545
 40
0.0245227824
 40
0.0283886957
 40
0.0369430302
 40
0.0465768808
 40
0.0572668718
 40
0.0689892598
 40
0.081716618
 40
0.0954184466
 40
0.1100639046
 40
0.1256186608
 40
0.1420457517
 40
0.1593078911
 40
0.1773645976
 40
0.2156907834
 40
0.2566680548
 40
0.2999150031
 40
0.3450283341
 40
0.3915883464
 40
0.4391614908
 40
0.4873044938
 40
0.535569292
 40
0.5835062343
 40
0.6306690095
 40
0.6766186174
 40
0.7209266764
 40
0.7631810048
 40
0.8029883471
 40
0.8399772324
 40
0.8738039194
 40
0.904153778
 40
0.9179345421
 40
0.9307432412
 40
0.9425497483
 40
0.9533257062
 40
0.9630473526
 40
0.9716916892
 40
0.9792378099
 40
0.9856696651
 40
0.990972007
 40
0.9931953752
 40
0.995132178
 40
0.9967816097
 40
0.998142962
 40
0.9992157284
 40
0.9996438789
 40
1.0
 40
1.0
 40
1.0
 40
1.0
 10
2.8167566549
 20
3.6001703418
 30
0.0
 10
2.816756682
 20
3.6002654499
 30
0.0
 10
2.8168928978
 20
3.6004140018
 30
0.0
 10
2.8171199673
 20
3.6005440271
 30
0.0
 10
2.8173945235
 20
3.6006639446
 30
0.0
 10
2.8177421721
 20
3.6007810835
 30
0.0
 10
2.8181671859
 20
3.6008999266
 30
0.0
 10
2.8186685684
 20
3.6010187068
 30
0.0
 10
2.8194891286
 20
3.6011876551
 30
0.0
 10
2.8207087991
 20
3.6013936669
 30
0.0
 10
2.8224049238
 20
3.6016302661
 30
0.0
 10
2.8244087051
 20
3.6018676698
 30
0.0
 10
2.8276929888
 20
3.602205728
 30
0.0
 10
2.8325664024
 20
3.6026175109
 30
0.0
 10
2.8393332021
 20
3.6030903769
 30
0.0
 10
2.8473196669
 20
3.603564955
 30
0.0
 10
2.8565215354
 20
3.6040409836
 30
0.0
 10
2.8669343798
 20
3.604517863
 30
0.0
 10
2.8785525349
 20
3.6049953374
 30
0.0
 10
2.8913689404
 20
3.605473289
 30
0.0
 10
2.9053753574
 20
3.6059516034
 30
0.0
 10
2.9205633001
 20
3.6064302198
 30
0.0
 10
2.943151526
 20
3.6070912
 30
0.0
 10
2.9742712832
 20
3.6079093867
 30
0.0
 10
3.0150231351
 20
3.6088628173
 30
0.0
 10
3.0602479188
 20
3.609817553
 30
0.0
 10
3.1098402002
 20
3.6107731671
 30
0.0
 10
3.163684548
 20
3.6117294546
 30
0.0
 10
3.2216555423
 20
3.6126863784
 30
0.0
 10
3.283618048
 20
3.6136436608
 30
0.0
 10
3.3494278207
 20
3.6146012725
 30
0.0
 10
3.4189315315
 20
3.6155592226
 30
0.0
 10
3.4919671836
 20
3.6165173605
 30
0.0
 10
3.5959125921
 20
3.6178211567
 30
0.0
 10
3.7333317256
 20
3.6194404897
 30
0.0
 10
3.9063071282
 20
3.6213488532
 30
0.0
 10
4.0888634565
 20
3.6232583784
 30
0.0
 10
4.2793004981
 20
3.6251688371
 30
0.0
 10
4.4758444679
 20
3.6270798937
 30
0.0
 10
4.6766651615
 20
3.628991344
 30
0.0
 10
4.8798923489
 20
3.6309030219
 30
0.0
 10
5.0836330773
 20
3.6328147311
 30
0.0
 10
5.2859901059
 20
3.6347263267
 30
0.0
 10
5.4850789854
 20
3.6366376312
 30
0.0
 10
5.6790452821
 20
3.6385484211
 30
0.0
 10
5.8660827262
 20
3.6404585056
 30
0.0
 10
6.0444496017
 20
3.6423675464
 30
0.0
 10
6.2124844978
 20
3.6442751274
 30
0.0
 10
6.3686225753
 20
3.6461806595
 30
0.0
 10
6.511409906
 20
3.6480835443
 30
0.0
 10
6.6214384722
 20
3.6497135755
 30
0.0
 10
6.7018003188
 20
3.6510323402
 30
0.0
 10
6.7559896943
 20
3.6519887496
 30
0.0
 10
6.8059369424
 20
3.652944374
 30
0.0
 10
6.8515258139
 20
3.653899232
 30
0.0
 10
6.8926500871
 20
3.654852735
 30
0.0
 10
6.9292139676
 20
3.6558044876
 30
0.0
 10
6.9611324735
 20
3.6567536237
 30
0.0
 10
6.9883312709
 20
3.6576992751
 30
0.0
 10
7.0080161907
 20
3.6585220683
 30
0.0
 10
7.0213560141
 20
3.659197236
 30
0.0
 10
7.0295428617
 20
3.6596723027
 30
0.0
 10
7.0365107978
 20
3.6601451061
 30
0.0
 10
7.0422558379
 20
3.6606155557
 30
0.0
 10
7.0462757497
 20
3.6610270492
 30
0.0
 10
7.0488747979
 20
3.6613690692
 30
0.0
 10
7.0499685097
 20
3.6615418711
 30
0.0
 10
7.0504632513
 20
3.6616308671
 30
0.0
  0
LINE
  5
305
100
AcDbEntity
  8
0
100
AcDbLine
 62
7
  6
CONTINUOUS
 10
7.0504632513
 20
3.6616308671
 11
7.0530722762
 21
3.6623467524
  0
SPLINE
  5
306
100
AcDbEntity
  8
0
100
AcDbSpline
 62
7
  6
CONTINUOUS
 70
0
 71
3
 72
77
 73
73
 74
0
 42
0.0000001
 43
0.0000001
 44
0.0000000001
 40
0.0
 40
0.0
 40
0.0
 40
0.0
 40
0.0000681156
 40
0.0001225215
 40
0.0001933562
 40
0.0002814539
 40
0.0003872412
 40
0.0005109621
 40
0.0006527684
 40
0.0009909929
 40
0.0014024329
 40
0.0018872995
 40
0.0024456327
 40
0.0037825691
 40
0.0054127743
 40
0.0073355173
 40
0.0095499583
 40
0.012055193
 40
0.0148498982
 40
0.0179321596
 40
0.0213000033
 40
0.024951446
 40
0.0288844978
 40
0.0375869191
 40
0.0473860422
 40
0.0582581143
 40
0.0701787054
 40
0.0831187775
 40
0.0970472587
 40
0.111932331
 40
0.127737856
 40
0.1444261131
 40
0.1619585748
 40
0.180292829
 40
0.2191915319
 40
0.2607536083
 40
0.3045855495
 40
0.3502711386
 40
0.3973772945
 40
0.4454576446
 40
0.4940559619
 40
0.5427115897
 40
0.5909631469
 40
0.6383529378
 40
0.6844319572
 40
0.7287630101
 40
0.7709255486
 40
0.8105204302
 40
0.847171844
 40
0.8805319055
 40
0.8958782464
 40
0.9102853163
 40
0.9237195755
 40
0.9361497137
 40
0.9475450324
 40
0.9578793703
 40
0.9671287101
 40
0.975269861
 40
0.9822846681
 40
0.9853646535
 40
0.9881570182
 40
0.9906598684
 40
0.9928719757
 40
0.9947924128
 40
0.9964203111
 40
0.9977549113
 40
0.9983120569
 40
0.9987957191
 40
0.9992059479
 40
0.999542984
 40
0.9998073187
 40
1.0
 40
1.0
 40
1.0
 40
1.0
 10
2.816756651
 20
3.4751703415
 30
0.0
 10
2.8167566179
 20
3.4752665432
 30
0.0
 10
2.8168957489
 20
3.4754165433
 30
0.0
 10
2.8171264596
 20
3.4755474533
 30
0.0
 10
2.8174060002
 20
3.4756684766
 30
0.0
 10
2.817759914
 20
3.4757866516
 30
0.0
 10
2.818192661
 20
3.4759065744
 30
0.0
 10
2.8187031859
 20
3.4760264288
 30
0.0
 10
2.8195388049
 20
3.476196921
 30
0.0
 10
2.8207808878
 20
3.4764048059
 30
0.0
 10
2.8225081661
 20
3.476643539
 30
0.0
 10
2.8245486969
 20
3.4768830962
 30
0.0
 10
2.827892971
 20
3.4772242264
 30
0.0
 10
2.8328550832
 20
3.4776397565
 30
0.0
 10
2.8397448277
 20
3.4781169276
 30
0.0
 10
2.8478763107
 20
3.4785958239
 30
0.0
 10
2.8572453512
 20
3.4790761845
 30
0.0
 10
2.8678472681
 20
3.4795573777
 30
0.0
 10
2.8796759234
 20
3.4800391897
 30
0.0
 10
2.8927237566
 20
3.4805214928
 30
0.0
 10
2.906982323
 20
3.4810041596
 30
0.0
 10
2.922443107
 20
3.4814871309
 30
0.0
 10
2.9454359432
 20
3.4821541055
 30
0.0
 10
2.9771102969
 20
3.4829796712
 30
0.0
 10
3.0185844045
 20
3.4839417977
 30
0.0
 10
3.0646046969
 20
3.4849052114
 30
0.0
 10
3.1150619042
 20
3.4858694736
 30
0.0
 10
3.1698364762
 20
3.4868344755
 30
0.0
 10
3.2287984618
 20
3.4878000946
 30
0.0
 10
3.2918079109
 20
3.4887660473
 30
0.0
 10
3.3587154967
 20
3.4897323804
 30
0.0
 10
3.4293624321
 20
3.4906990324
 30
0.0
 10
3.5035810814
 20
3.4916658537
 30
0.0
 10
3.6091663023
 20
3.4929813216
 30
0.0
 10
3.7486879026
 20
3.4946150629
 30
0.0
 10
3.9242196336
 20
3.4965407128
 30
0.0
 10
4.1093372162
 20
3.4984675041
 30
0.0
 10
4.3022852601
 20
3.5003952235
 30
0.0
 10
4.5012337402
 20
3.5023235491
 30
0.0
 10
4.704296137
 20
3.5042522475
 30
0.0
 10
4.9095469938
 20
3.5061811565
 30
0.0
 10
5.1150396618
 20
3.5081100816
 30
0.0
 10
5.3188254184
 20
3.5100388494
 30
0.0
 10
5.518971993
 20
3.5119672941
 30
0.0
 10
5.7135812666
 20
3.513895173
 30
0.0
 10
5.9008075721
 20
3.5158222375
 30
0.0
 10
6.078875644
 20
3.5177481954
 30
0.0
 10
6.2460968864
 20
3.5196724828
 30
0.0
 10
6.4008852737
 20
3.5215946422
 30
0.0
 10
6.5214275105
 20
3.5232361244
 30
0.0
 10
6.6105546897
 20
3.5245614958
 30
0.0
 10
6.6715422763
 20
3.5255273334
 30
0.0
 10
6.7284106815
 20
3.5264926646
 30
0.0
 10
6.7810248572
 20
3.5274572843
 30
0.0
 10
6.829260142
 20
3.5284211808
 30
0.0
 10
6.8730021343
 20
3.5293840058
 30
0.0
 10
6.9121469899
 20
3.530345084
 30
0.0
 10
6.9466020299
 20
3.5313043567
 30
0.0
 10
6.9723440049
 20
3.532132702
 30
0.0
 10
6.9905325194
 20
3.5328053258
 30
0.0
 10
7.0023512782
 20
3.5332871646
 30
0.0
 10
7.0129432158
 20
3.5337683561
 30
0.0
 10
7.0223023234
 20
3.5342487074
 30
0.0
 10
7.0304239806
 20
3.5347275879
 30
0.0
 10
7.0373038874
 20
3.5352047335
 30
0.0
 10
7.0422577419
 20
3.5356202674
 30
0.0
 10
7.0455952945
 20
3.5359614222
 30
0.0
 10
7.0476307184
 20
3.5362009867
 30
0.0
 10
7.0493528179
 20
3.5364396511
 30
0.0
 10
7.0507622648
 20
3.5366765127
 30
0.0
 10
7.051858866
 20
3.5369113512
 30
0.0
 10
7.0524807121
 20
3.5370910276
 30
0.0
 10
7.0527343234
 20
3.5371896977
 30
0.0
  0
LINE
  5
307
100
AcDbEntity
  8
0
100
AcDbLine
 62
7
  6
CONTINUOUS
 10
7.0527343234
 20
3.5371896977
 11
7.0530720485
 21
3.5373467522
  0
SPLINE
  5
308
100
AcDbEntity
  8
0
100
AcDbSpline
 62
7
  6
CONTINUOUS
 70
0
 71
3
 72
29
 73
25
 74
0
 42
0.0000001
 43
0.0000001
 44
0.0000000001
 40
0.0
 40
0.0
 40
0.0
 40
0.0
 40
0.0013091982
 40
0.0028700236
 40
0.0048375207
 40
0.0072894064
 40
0.0102645428
 40
0.0137835361
 40
0.0224925815
 40
0.0334644214
 40
0.0467108297
 40
0.0622141732
 40
0.0799395918
 40
0.0998485149
 40
0.121900329
 40
0.1722534838
 40
0.2305270292
 40
0.296164046
 40
0.3685712672
 40
0.4470275746
 40
0.5307785964
 40
0.6190450588
 40
0.8058375221
 40
1.0
 40
1.0
 40
1.0
 40
1.0
 10
7.8675438554
 20
5.6063400269
 30
0.0
 10
7.8675411079
 20
5.6062876018
 30
0.0
 10
7.8675047087
 20
5.606173637
 30
0.0
 10
7.867376929
 20
5.6060238577
 30
0.0
 10
7.8671822023
 20
5.6058817965
 30
0.0
 10
7.8669186043
 20
5.605744448
 30
0.0
 10
7.8665852795
 20
5.6056108296
 30
0.0
 10
7.8660045061
 20
5.6054243176
 30
0.0
 10
7.8650977284
 20
5.6052112828
 30
0.0
 10
7.8637966314
 20
5.6049848176
 30
0.0
 10
7.8622172925
 20
5.6047755216
 30
0.0
 10
7.8603634158
 20
5.6045838804
 30
0.0
 10
7.8582395755
 20
5.6044107517
 30
0.0
 10
7.8558511152
 20
5.6042566865
 30
0.0
 10
7.8521541128
 20
5.6040691386
 30
0.0
 10
7.8469165899
 20
5.6038952712
 30
0.0
 10
7.8399296965
 20
5.603774692
 30
0.0
 10
7.8320575336
 20
5.6037367786
 30
0.0
 10
7.8233761547
 20
5.6037829865
 30
0.0
 10
7.8139692193
 20
5.6039124649
 30
0.0
 10
7.8039277102
 20
5.6041244295
 30
0.0
 10
7.7895453338
 20
5.6045225552
 30
0.0
 10
7.7707424558
 20
5.6052135385
 30
0.0
 10
7.7554833557
 20
5.6059336702
 30
0.0
 10
7.7477083113
 20
5.6063400269
 30
0.0
  0
SPLINE
  5
309
100
AcDbEntity
  8
0
100
AcDbSpline
 62
7
  6
CONTINUOUS
 70
0
 71
3
 72
76
 73
72
 74
0
 42
0.0000001
 43
0.0000001
 44
0.0000000001
 40
0.0
 40
0.0
 40
0.0
 40
0.0
 40
0.0000679093
 40
0.0001221019
 40
0.0001926467
 40
0.000280378
 40
0.0003857234
 40
0.0005089278
 40
0.0006501434
 40
0.000986968
 40
0.0013967024
 40
0.0018795161
 40
0.0024354522
 40
0.0037665899
 40
0.0053897033
 40
0.0073041173
 40
0.0095090483
 40
0.0120036157
 40
0.0147863551
 40
0.0178553767
 40
0.0212087678
 40
0.0248446062
 40
0.0287609634
 40
0.037426654
 40
0.0471844818
 40
0.0580111956
 40
0.0698825602
 40
0.0827695371
 40
0.0966415871
 40
0.1114671096
 40
0.1272100877
 40
0.1438333464
 40
0.1612986002
 40
0.1795636663
 40
0.2183199627
 40
0.2597364584
 40
0.3034228434
 40
0.3489661679
 40
0.3959365255
 40
0.4438908461
 40
0.4923761252
 40
0.5409347802
 40
0.5891084298
 40
0.6364421017
 40
0.6824893042
 40
0.7268151257
 40
0.7690008732
 40
0.808648974
 40
0.8453848379
 40
0.8788612472
 40
0.8942778484
 40
0.9087632149
 40
0.9222838348
 40
0.9348082733
 40
0.946305745
 40
0.9567500106
 40
0.9661168485
 40
0.974382895
 40
0.981529805
 40
0.9846784547
 40
0.9875411762
 40
0.9901160422
 40
0.9924017882
 40
0.9943974334
 40
0.9961020468
 40
0.9975147876
 40
0.9986349998
 40
0.9990853497
 40
0.9994626891
 40
0.9997673538
 40
1.0
 40
1.0
 40
1.0
 40
1.0
 10
2.8167565598
 20
3.3501703412
 30
0.0
 10
2.8167564681
 20
3.3502662419
 30
0.0
 10
2.8168947803
 20
3.3504159344
 30
0.0
 10
2.8171245236
 20
3.3505466106
 30
0.0
 10
2.8174027801
 20
3.3506673659
 30
0.0
 10
2.8177551155
 20
3.3507852829
 30
0.0
 10
2.8181859442
 20
3.3509049399
 30
0.0
 10
2.8186942311
 20
3.3510245291
 30
0.0
 10
2.8195262252
 20
3.3511946449
 30
0.0
 10
2.8207629653
 20
3.3514020646
 30
0.0
 10
2.8224827866
 20
3.3516402565
 30
0.0
 10
2.8245144179
 20
3.3518792879
 30
0.0
 10
2.8278438806
 20
3.3522196585
 30
0.0
 10
2.8327839009
 20
3.3526342734
 30
0.0
 10
2.8396429825
 20
3.3531103917
 30
0.0
 10
2.847738437
 20
3.3535882296
 30
0.0
 10
2.857066276
 20
3.3540675247
 30
0.0
 10
2.8676217322
 20
3.3545476319
 30
0.0
 10
2.879398535
 20
3.3550283799
 30
0.0
 10
2.8923890471
 20
3.3555096162
 30
0.0
 10
2.9065850324
 20
3.3559912151
 30
0.0
 10
2.9219782355
 20
3.3564731175
 30
0.0
 10
2.9448712707
 20
3.3571386134
 30
0.0
 10
2.9764086681
 20
3.3579623377
 30
0.0
 10
3.0177043522
 20
3.3589223523
 30
0.0
 10
3.0635281173
 20
3.3598836251
 30
0.0
 10
3.1137716867
 20
3.3608457373
 30
0.0
 10
3.1683165482
 20
3.3618086139
 30
0.0
 10
3.2270338234
 20
3.3627720877
 30
0.0
 10
3.2897848066
 20
3.363735892
 30
0.0
 10
3.3564214351
 20
3.3647000924
 30
0.0
 10
3.4267862219
 20
3.3656645972
 30
0.0
 10
3.5007129843
 20
3.3666292714
 30
0.0
 10
3.6058938418
 20
3.3679418806
 30
0.0
 10
3.744896982
 20
3.3695720572
 30
0.0
 10
3.9197987784
 20
3.371493458
 30
0.0
 10
4.1042856621
 20
3.3734159961
 30
0.0
 10
4.2966160338
 20
3.3753394597
 30
0.0
 10
4.4949738138
 20
3.3772635351
 30
0.0
 10
4.6974863708
 20
3.3791879851
 30
0.0
 10
4.9022419986
 20
3.381112649
 30
0.0
 10
5.1073073733
 20
3.3830373371
 30
0.0
 10
5.3107463926
 20
3.3849618739
 30
0.0
 10
5.5106386136
 20
3.3868860991
 30
0.0
 10
5.7050967296
 20
3.3888097743
 30
0.0
 10
5.8922846543
 20
3.3907326515
 30
0.0
 10
6.0704353644
 20
3.392654451
 30
0.0
 10
6.2378669965
 20
3.3945746237
 30
0.0
 10
6.3929985722
 20
3.3964927171
 30
0.0
 10
6.5139115252
 20
3.3981302852
 30
0.0
 10
6.6034039022
 20
3.3994522811
 30
0.0
 10
6.6647171595
 20
3.4004160397
 30
0.0
 10
6.7219456127
 20
3.4013793043
 30
0.0
 10
6.7749539711
 20
3.4023418849
 30
0.0
 10
6.823617182
 20
3.403303779
 30
0.0
 10
6.8678203414
 20
3.4042646434
 30
0.0
 10
6.9074589819
 20
3.4052238504
 30
0.0
 10
6.9424396514
 20
3.4061813553
 30
0.0
 10
6.9686392156
 20
3.4070076063
 30
0.0
 10
6.9872091025
 20
3.4076780836
 30
0.0
 10
6.9993249677
 20
3.4081589971
 30
0.0
 10
7.0102212187
 20
3.4086393446
 30
0.0
 10
7.0198917211
 20
3.4091188723
 30
0.0
 10
7.0283316083
 20
3.4095972839
 30
0.0
 10
7.0355365748
 20
3.4100736177
 30
0.0
 10
7.0415021434
 20
3.4105476605
 30
0.0
 10
7.0456953189
 20
3.4109620782
 30
0.0
 10
7.048424696
 20
3.4113058422
 30
0.0
 10
7.0500063566
 20
3.4115433161
 30
0.0
 10
7.0512764486
 20
3.4117791183
 30
0.0
 10
7.0520150976
 20
3.4119569466
 30
0.0
 10
7.0523295722
 20
3.4120520478
 30
0.0
  0
LINE
  5
30A
100
AcDbEntity
  8
0
100
AcDbLine
 62
7
  6
CONTINUOUS
 10
7.0523295722
 20
3.4120520478
 11
7.0530718993
 21
3.412346752
  0
SPLINE
  5
30B
100
AcDbEntity
  8
0
100
AcDbSpline
 62
7
  6
CONTINUOUS
 70
0
 71
3
 72
42
 73
38
 74
0
 42
0.0000001
 43
0.0000001
 44
0.0000000001
 40
0.0
 40
0.0
 40
0.0
 40
0.0
 40
0.0970259191
 40
0.1931642975
 40
0.287457306
 40
0.3790427565
 40
0.4670512881
 40
0.5506508916
 40
0.6290537185
 40
0.701518785
 40
0.7353097014
 40
0.7673636046
 40
0.7976061838
 40
0.8259666473
 40
0.8523758895
 40
0.8767735567
 40
0.8991021835
 40
0.9193070041
 40
0.9373428517
 40
0.9531667629
 40
0.9602365718
 40
0.9667398618
 40
0.9726732018
 40
0.9780331802
 40
0.982816415
 40
0.9870196385
 40
0.9906407098
 40
0.9936784438
 40
0.9949782751
 40
0.9961319725
 40
0.9971395194
 40
0.9980009883
 40
0.9987166135
 40
0.9992869566
 40
0.9997133658
 40
0.9998736997
 40
1.0
 40
1.0
 40
1.0
 40
1.0
 10
4.9350543478
 20
3.196537576
 30
0.0
 10
4.8640614118
 20
3.195894132
 30
0.0
 10
4.7227249447
 20
3.1946131386
 30
0.0
 10
4.5123953495
 20
3.1926888314
 30
0.0
 10
4.3060468227
 20
3.1907648054
 30
0.0
 10
4.1056473289
 20
3.1888414635
 30
0.0
 10
3.9130727832
 20
3.1869189036
 30
0.0
 10
3.7301447214
 20
3.1849975595
 30
0.0
 10
3.558590778
 20
3.1830777948
 30
0.0
 10
3.423481993
 20
3.1814441565
 30
0.0
 10
3.3222863771
 20
3.1801273734
 30
0.0
 10
3.2519838652
 20
3.1791631392
 30
0.0
 10
3.1856553161
 20
3.1781992519
 30
0.0
 10
3.1234575363
 20
3.1772358285
 30
0.0
 10
3.065537139
 20
3.1762728129
 30
0.0
 10
3.0120310028
 20
3.1753104838
 30
0.0
 10
2.9630655468
 20
3.174349078
 30
0.0
 10
2.9187561189
 20
3.1733887371
 30
0.0
 10
2.8792075316
 20
3.1724299455
 30
0.0
 10
2.8492698012
 20
3.1716051102
 30
0.0
 10
2.8277697519
 20
3.1709373981
 30
0.0
 10
2.8135045933
 20
3.1704559287
 30
0.0
 10
2.8004913119
 20
3.1699748853
 30
0.0
 10
2.788737549
 20
3.1694943781
 30
0.0
 10
2.7782508882
 20
3.1690145976
 30
0.0
 10
2.769038046
 20
3.1685358848
 30
0.0
 10
2.7611043347
 20
3.168058463
 30
0.0
 10
2.755295374
 20
3.1676441742
 30
0.0
 10
2.7512914936
 20
3.1673060836
 30
0.0
 10
2.7487702818
 20
3.1670662542
 30
0.0
 10
2.7465713672
 20
3.1668270533
 30
0.0
 10
2.7446951416
 20
3.1665885984
 30
0.0
 10
2.7431413882
 20
3.1663517864
 30
0.0
 10
2.7419106337
 20
3.1661165043
 30
0.0
 10
2.7410880522
 20
3.1659097777
 30
0.0
 10
2.740596212
 20
3.1657348022
 30
0.0
 10
2.7404053666
 20
3.1656461191
 30
0.0
 10
2.740325361
 20
3.1655998599
 30
0.0
  0
SPLINE
  5
30C
100
AcDbEntity
  8
0
100
AcDbSpline
 62
7
  6
CONTINUOUS
 70
0
 71
3
 72
69
 73
65
 74
0
 42
0.0000001
 43
0.0000001
 44
0.0000000001
 40
0.0
 40
0.0
 40
0.0
 40
0.0
 40
0.0000664648
 40
0.0001191069
 40
0.0001875
 40
0.0002724734
 40
0.0003744535
 40
0.0004936854
 40
0.0006303222
 40
0.0009561703
 40
0.00135247
 40
0.001819384
 40
0.002356967
 40
0.0036440854
 40
0.005213507
 40
0.0070646505
 40
0.0091968262
 40
0.0116092172
 40
0.014300386
 40
0.0172685798
 40
0.0205120298
 40
0.0240289579
 40
0.0278175794
 40
0.0362018879
 40
0.045644946
 40
0.0561250173
 40
0.0676195279
 40
0.0801013654
 40
0.0935418462
 40
0.1079115181
 40
0.123176776
 40
0.1393026031
 40
0.1562532909
 40
0.1739894438
 40
0.2116550402
 40
0.2519565684
 40
0.2945273227
 40
0.3389787201
 40
0.3849060328
 40
0.4318909606
 40
0.4795050382
 40
0.5273146611
 40
0.5748840273
 40
0.6217797275
 40
0.667574666
 40
0.7118510809
 40
0.754205953
 40
0.7942535346
 40
0.831628155
 40
0.8659900549
 40
0.8970263301
 40
0.9244532525
 40
0.9367346153
 40
0.9480221149
 40
0.9582912052
 40
0.9675185482
 40
0.9756819958
 40
0.9827642771
 40
0.9887494426
 40
0.9936229123
 40
0.9956397878
 40
0.9973754818
 40
0.9988291264
 40
1.0
 40
1.0
 40
1.0
 40
1.0
 10
2.8167564914
 20
3.2251703407
 30
0.0
 10
2.8167563419
 20
3.2252640498
 30
0.0
 10
2.8168887962
 20
3.2254110333
 30
0.0
 10
2.8171113241
 20
3.2255399538
 30
0.0
 10
2.8173798212
 20
3.2256585701
 30
0.0
 10
2.817719969
 20
3.2257744666
 30
0.0
 10
2.8181358266
 20
3.2258920254
 30
0.0
 10
2.8186264841
 20
3.2260095251
 30
0.0
 10
2.81942958
 20
3.2261766483
 30
0.0
 10
2.8206234324
 20
3.2263804193
 30
0.0
 10
2.822283619
 20
3.2266144377
 30
0.0
 10
2.8242447154
 20
3.2268492804
 30
0.0
 10
2.8274584211
 20
3.2271836748
 30
0.0
 10
2.8322268006
 20
3.2275910214
 30
0.0
 10
2.8388478157
 20
3.2280587899
 30
0.0
 10
2.8466626972
 20
3.2285282451
 30
0.0
 10
2.8556678163
 20
3.2289991266
 30
0.0
 10
2.8658586731
 20
3.2294707997
 30
0.0
 10
2.8772293265
 20
3.2299431144
 30
0.0
 10
2.8897725862
 20
3.2304159062
 30
0.0
 10
2.9034808281
 20
3.2308890539
 30
0.0
 10
2.918346419
 20
3.2313624992
 30
0.0
 10
2.940458017
 20
3.232016349
 30
0.0
 10
2.9709238796
 20
3.2328256593
 30
0.0
 10
3.0108236401
 20
3.2337688356
 30
0.0
 10
3.0551095684
 20
3.2347132494
 30
0.0
 10
3.103680756
 20
3.2356584902
 30
0.0
 10
3.1564265561
 20
3.2366044722
 30
0.0
 10
3.2132266588
 20
3.2375510511
 30
0.0
 10
3.2739516281
 20
3.2384979566
 30
0.0
 10
3.3384631127
 20
3.2394452373
 30
0.0
 10
3.4066139561
 20
3.2403928315
 30
0.0
 10
3.47824885
 20
3.2413405931
 30
0.0
 10
3.5802509378
 20
3.2426305477
 30
0.0
 10
3.7151742094
 20
3.2442326633
 30
0.0
 10
3.8851109874
 20
3.2461204876
 30
0.0
 10
4.0646156603
 20
3.2480094472
 30
0.0
 10
4.2520525761
 20
3.2498993459
 30
0.0
 10
4.445713366
 20
3.2517898553
 30
0.0
 10
4.6438334449
 20
3.2536807642
 30
0.0
 10
4.844607523
 20
3.2555719224
 30
0.0
 10
5.0462056409
 20
3.2574631382
 30
0.0
 10
5.2467908694
 20
3.2593542727
 30
0.0
 10
5.4445354545
 20
3.2612451641
 30
0.0
 10
5.6376370714
 20
3.2631356032
 30
0.0
 10
5.8243362324
 20
3.2650254191
 30
0.0
 10
6.0029317311
 20
3.2669143156
 30
0.0
 10
6.1717957831
 20
3.2688018904
 30
0.0
 10
6.3293897568
 20
3.2706877611
 30
0.0
 10
6.4742776827
 20
3.2725710187
 30
0.0
 10
6.6051390222
 20
3.274450878
 30
0.0
 10
6.7048693116
 20
3.2760666401
 30
0.0
 10
6.7767567399
 20
3.2773764763
 30
0.0
 10
6.8244557813
 20
3.2783217023
 30
0.0
 10
6.8678480395
 20
3.2792658527
 30
0.0
 10
6.9068345664
 20
3.2802085279
 30
0.0
 10
6.9413265623
 20
3.2811495324
 30
0.0
 10
6.9712455937
 20
3.2820873194
 30
0.0
 10
6.9965235039
 20
3.2830212042
 30
0.0
 10
7.0146589186
 20
3.2838354072
 30
0.0
 10
7.0268024556
 20
3.2845056244
 30
0.0
 10
7.0341279013
 20
3.2849744191
 30
0.0
 10
7.0402578018
 20
3.285440912
 30
0.0
 10
7.0439424522
 20
3.2857856606
 30
0.0
 10
7.0455834233
 20
3.285965749
 30
0.0
  0
SPLINE
  5
30D
100
AcDbEntity
  8
0
100
AcDbSpline
 62
7
  6
CONTINUOUS
 70
0
 71
3
 72
13
 73
9
 74
0
 42
0.0000001
 43
0.0000001
 44
0.0000000001
 40
0.0
 40
0.0
 40
0.0
 40
0.0
 40
0.372884567
 40
0.6631921611
 40
0.7775615987
 40
0.8715827462
 40
0.9455329493
 40
1.0
 40
1.0
 40
1.0
 40
1.0
 10
7.0455834233
 20
3.285965749
 30
0.0
 10
7.046527275
 20
3.286069332
 30
0.0
 10
7.0482041999
 20
3.2862695892
 30
0.0
 10
7.0501628158
 20
3.2865654849
 30
0.0
 10
7.0514086534
 20
3.2868122842
 30
0.0
 10
7.0521079451
 20
3.2869813451
 30
0.0
 10
7.0526490843
 20
3.287148933
 30
0.0
 10
7.052951724
 20
3.2872773914
 30
0.0
 10
7.0530718307
 20
3.2873467517
 30
0.0
  0
SPLINE
  5
30E
100
AcDbEntity
  8
0
100
AcDbSpline
 62
7
  6
CONTINUOUS
 70
0
 71
3
 72
45
 73
41
 74
0
 42
0.0000001
 43
0.0000001
 44
0.0000000001
 40
0.0
 40
0.0
 40
0.0
 40
0.0
 40
0.0979845702
 40
0.1950516035
 40
0.2902193078
 40
0.3825983847
 40
0.4712930152
 40
0.555448612
 40
0.6342562881
 40
0.6714142821
 40
0.7069555695
 40
0.7407942838
 40
0.77284756
 40
0.8030402657
 40
0.8312985923
 40
0.8575537695
 40
0.8817446908
 40
0.9038112728
 40
0.9237007117
 40
0.9413669249
 40
0.9493520478
 40
0.9567651221
 40
0.9636023171
 40
0.9698598688
 40
0.9755340304
 40
0.9806210808
 40
0.9851175272
 40
0.989021218
 40
0.9923306373
 40
0.9950444733
 40
0.9971618451
 40
0.9979969007
 40
0.9986831479
 40
0.9989707042
 40
0.9992214389
 40
0.9994356391
 40
0.9996137663
 40
0.9997566296
 40
0.9998658212
 40
1.0
 40
1.0
 40
1.0
 40
1.0
 10
4.9350543478
 20
2.9257031073
 30
0.0
 10
4.8633462895
 20
2.9250531818
 30
0.0
 10
4.7206016538
 20
2.923759426
 30
0.0
 10
4.5082105954
 20
2.9218158907
 30
0.0
 10
4.2999221454
 20
2.9198726572
 30
0.0
 10
4.0977613894
 20
2.9179301322
 30
0.0
 10
3.9036603318
 20
2.9159884586
 30
0.0
 10
3.7194921499
 20
2.9140479697
 30
0.0
 10
3.573040599
 20
2.9124018424
 30
0.0
 10
3.4621666107
 20
2.9110763486
 30
0.0
 10
3.3842017793
 20
2.9101020084
 30
0.0
 10
3.3099731892
 20
2.9091279436
 30
0.0
 10
3.2396593643
 20
2.9081540806
 30
0.0
 10
3.1734300107
 20
2.9071806282
 30
0.0
 10
3.1114445347
 20
2.9062076104
 30
0.0
 10
3.0538520959
 20
2.9052350679
 30
0.0
 10
3.0007918297
 20
2.9042633357
 30
0.0
 10
2.9523912212
 20
2.9032925416
 30
0.0
 10
2.9087668206
 20
2.9023228781
 30
0.0
 10
2.8754476612
 20
2.9014909415
 30
0.0
 10
2.8512584563
 20
2.9008188636
 30
0.0
 10
2.8349925244
 20
2.9003321404
 30
0.0
 10
2.8199915329
 20
2.8998457243
 30
0.0
 10
2.8062638947
 20
2.8993596713
 30
0.0
 10
2.7938179743
 20
2.898874112
 30
0.0
 10
2.7826619918
 20
2.8983892111
 30
0.0
 10
2.7728030573
 20
2.8979052116
 30
0.0
 10
2.76424683
 20
2.8974224159
 30
0.0
 10
2.7569973769
 20
2.8969420754
 30
0.0
 10
2.7510586323
 20
2.8964642552
 30
0.0
 10
2.7469320935
 20
2.8960461294
 30
0.0
 10
2.744291853
 20
2.8956972205
 30
0.0
 10
2.7429844092
 20
2.8954876953
 30
0.0
 10
2.7421046997
 20
2.8953158617
 30
0.0
 10
2.7415674212
 20
2.8951951032
 30
0.0
 10
2.7411120031
 20
2.8950742546
 30
0.0
 10
2.7407397904
 20
2.8949552938
 30
0.0
 10
2.7404455063
 20
2.894833269
 30
0.0
 10
2.7402050347
 20
2.8947027233
 30
0.0
 10
2.740056118
 20
2.8945513069
 30
0.0
 10
2.7400562387
 20
2.8944531068
 30
0.0
  0
SPLINE
  5
30F
100
AcDbEntity
  8
0
100
AcDbSpline
 62
7
  6
CONTINUOUS
 70
0
 71
3
 72
45
 73
41
 74
0
 42
0.0000001
 43
0.0000001
 44
0.0000000001
 40
0.0
 40
0.0
 40
0.0
 40
0.0
 40
0.0001342489
 40
0.0002434826
 40
0.0003863783
 40
0.0005645228
 40
0.0007787207
 40
0.00102943
 40
0.0013169342
 40
0.0020029904
 40
0.0028378512
 40
0.0049551361
 40
0.007669148
 40
0.0109788111
 40
0.0148826175
 40
0.0193788572
 40
0.0244656213
 40
0.0301398191
 40
0.0363975709
 40
0.0432349575
 40
0.0506480422
 40
0.0586328763
 40
0.0762990685
 40
0.0961888144
 40
0.1182550613
 40
0.1424460955
 40
0.1687014663
 40
0.1969595003
 40
0.2271523681
 40
0.2592057245
 40
0.2930442455
 40
0.3285856839
 40
0.3657436556
 40
0.4445513708
 40
0.528706924
 40
0.6174014708
 40
0.7097807376
 40
0.8049485403
 40
0.9020148781
 40
1.0
 40
1.0
 40
1.0
 40
1.0
 10
2.7400563461
 20
3.5194531073
 30
0.0
 10
2.7400563461
 20
3.5195513587
 30
0.0
 10
2.7402054124
 20
3.5197026912
 30
0.0
 10
2.7404459905
 20
3.5198332673
 30
0.0
 10
2.7407403489
 20
3.5199552839
 30
0.0
 10
2.7411125964
 20
3.5200742498
 30
0.0
 10
2.7415680065
 20
3.5201950978
 30
0.0
 10
2.7421052248
 20
3.5203158575
 30
0.0
 10
2.7429847349
 20
3.5204876855
 30
0.0
 10
2.7442918508
 20
3.5206972297
 30
0.0
 10
2.7469317384
 20
3.5210461717
 30
0.0
 10
2.7510582025
 20
3.5214642733
 30
0.0
 10
2.7569971916
 20
3.5219420774
 30
0.0
 10
2.7642470375
 20
3.5224224048
 30
0.0
 10
2.772803376
 20
3.5229051921
 30
0.0
 10
2.782662032
 20
3.5233892101
 30
0.0
 10
2.7938176778
 20
3.5238741303
 30
0.0
 10
2.8062635609
 20
3.5243596766
 30
0.0
 10
2.8199915112
 20
3.5248457237
 30
0.0
 10
2.8349927957
 20
3.5253321342
 30
0.0
 10
2.8512586623
 20
3.5258188532
 30
0.0
 10
2.8754476446
 20
3.5264909609
 30
0.0
 10
2.9087667987
 20
3.5273228849
 30
0.0
 10
2.9523911591
 20
3.5282925223
 30
0.0
 10
3.0007918238
 20
3.5292633505
 30
0.0
 10
3.0538520635
 20
3.5302350683
 30
0.0
 10
3.1114445063
 20
3.5312075995
 30
0.0
 10
3.1734300213
 20
3.5321806394
 30
0.0
 10
3.2396593312
 20
3.533154078
 30
0.0
 10
3.3099731843
 20
3.5341279388
 30
0.0
 10
3.384201794
 20
3.5351020154
 30
0.0
 10
3.4621665697
 20
3.5360763448
 30
0.0
 10
3.5730406687
 20
3.5374018448
 30
0.0
 10
3.7194921841
 20
3.5390479676
 30
0.0
 10
3.9036602813
 20
3.5409884597
 30
0.0
 10
4.0977613636
 20
3.5429301326
 30
0.0
 10
4.2999222472
 20
3.5448726574
 30
0.0
 10
4.5082103766
 20
3.5468158889
 30
0.0
 10
4.7206013787
 20
3.5487594235
 30
0.0
 10
4.8633458935
 20
3.5500531782
 30
0.0
 10
4.9350543478
 20
3.5507031073
 30
0.0
  0
SPLINE
  5
310
100
AcDbEntity
  8
0
100
AcDbSpline
 62
7
  6
CONTINUOUS
 70
0
 71
3
 72
29
 73
25
 74
0
 42
0.0000001
 43
0.0000001
 44
0.0000000001
 40
0.0
 40
0.0
 40
0.0
 40
0.0
 40
0.1941624779
 40
0.3809549412
 40
0.4692214036
 40
0.5529724254
 40
0.6314287328
 40
0.703835954
 40
0.7694729708
 40
0.8277465162
 40
0.8780996711
 40
0.9001514852
 40
0.9200604083
 40
0.9377858269
 40
0.9532891704
 40
0.9665355787
 40
0.9775074185
 40
0.9862164639
 40
0.9897354571
 40
0.9927105935
 40
0.9951624793
 40
0.9971299764
 40
0.9986908018
 40
1.0
 40
1.0
 40
1.0
 40
1.0
 10
2.1224003844
 20
5.6063400269
 30
0.0
 10
2.1146253399
 20
5.6059336702
 30
0.0
 10
2.0993662399
 20
5.6052135385
 30
0.0
 10
2.0805633618
 20
5.6045225552
 30
0.0
 10
2.0661809855
 20
5.6041244295
 30
0.0
 10
2.0561394763
 20
5.6039124649
 30
0.0
 10
2.0467325409
 20
5.6037829865
 30
0.0
 10
2.0380511621
 20
5.6037367786
 30
0.0
 10
2.0301789992
 20
5.603774692
 30
0.0
 10
2.0231921057
 20
5.6038952712
 30
0.0
 10
2.0179545829
 20
5.6040691386
 30
0.0
 10
2.0142575804
 20
5.6042566865
 30
0.0
 10
2.0118691202
 20
5.6044107517
 30
0.0
 10
2.0097452798
 20
5.6045838804
 30
0.0
 10
2.0078914031
 20
5.6047755216
 30
0.0
 10
2.0063120642
 20
5.6049848176
 30
0.0
 10
2.0050109672
 20
5.6052112828
 30
0.0
 10
2.0041041896
 20
5.6054243176
 30
0.0
 10
2.0035234162
 20
5.6056108296
 30
0.0
 10
2.0031900914
 20
5.605744448
 30
0.0
 10
2.0029264933
 20
5.6058817965
 30
0.0
 10
2.0027317666
 20
5.6060238577
 30
0.0
 10
2.0026039869
 20
5.606173637
 30
0.0
 10
2.0025675877
 20
5.6062876018
 30
0.0
 10
2.0025648402
 20
5.6063400269
 30
0.0
  0
SPLINE
  5
311
100
AcDbEntity
  8
0
100
AcDbSpline
 62
7
  6
CONTINUOUS
 70
0
 71
3
 72
42
 73
38
 74
0
 42
0.0000001
 43
0.0000001
 44
0.0000000001
 40
0.0
 40
0.0
 40
0.0
 40
0.0
 40
0.0970272354
 40
0.1931640584
 40
0.2874572454
 40
0.3790432197
 40
0.4670515451
 40
0.5506510552
 40
0.6290541662
 40
0.7015193696
 40
0.7353101057
 40
0.7673638584
 40
0.7976069371
 40
0.825966958
 40
0.8523762238
 40
0.8767744548
 40
0.8991023585
 40
0.9193074582
 40
0.9373438535
 40
0.9531668212
 40
0.9602367384
 40
0.966740481
 40
0.9726742357
 40
0.9780342089
 40
0.9828167916
 40
0.9870196198
 40
0.9906409635
 40
0.9936792288
 40
0.9949792882
 40
0.9961331171
 40
0.9971406457
 40
0.9980018948
 40
0.9987171372
 40
0.9992871124
 40
0.9997133411
 40
0.9998736664
 40
1.0
 40
1.0
 40
1.0
 40
1.0
 10
4.9350543478
 20
4.4257031073
 30
0.0
 10
5.0060482093
 20
4.4263465597
 30
0.0
 10
5.1473844263
 20
4.4276275508
 30
0.0
 10
5.3577138654
 20
4.429551856
 30
0.0
 10
5.5640616583
 20
4.4314758779
 30
0.0
 10
5.7644614085
 20
4.4333992179
 30
0.0
 10
5.9570360159
 20
4.4353217779
 30
0.0
 10
6.1399639691
 20
4.4372431293
 30
0.0
 10
6.3115180611
 20
4.4391628878
 30
0.0
 10
6.4466269506
 20
4.4407965217
 30
0.0
 10
6.5478223707
 20
4.442113308
 30
0.0
 10
6.6181249685
 20
4.4430775599
 30
0.0
 10
6.6844534143
 20
4.4440414107
 30
0.0
 10
6.7466512196
 20
4.4450048635
 30
0.0
 10
6.8045716919
 20
4.4459678884
 30
0.0
 10
6.8580777013
 20
4.4469301625
 30
0.0
 10
6.9070432178
 20
4.4478916312
 30
0.0
 10
6.9513526979
 20
4.4488519648
 30
0.0
 10
6.990901181
 20
4.4498106753
 30
0.0
 10
7.0208386825
 20
4.4506356058
 30
0.0
 10
7.0423384408
 20
4.4513032992
 30
0.0
 10
7.0566043064
 20
4.4517847549
 30
0.0
 10
7.0696182126
 20
4.4522657836
 30
0.0
 10
7.0813717927
 20
4.4527462665
 30
0.0
 10
7.0918576748
 20
4.4532260944
 30
0.0
 10
7.1010699423
 20
4.4537048425
 30
0.0
 10
7.1090039495
 20
4.4541822463
 30
0.0
 10
7.1148136657
 20
4.4545965111
 30
0.0
 10
7.1188181989
 20
4.4549345934
 30
0.0
 10
7.1213396611
 20
4.455174415
 30
0.0
 10
7.1235384975
 20
4.4554136031
 30
0.0
 10
7.1254142657
 20
4.4556520503
 30
0.0
 10
7.1269672974
 20
4.4558888808
 30
0.0
 10
7.1281973525
 20
4.4561241995
 30
0.0
 10
7.1290195051
 20
4.4563309437
 30
0.0
 10
7.1295112307
 20
4.4565058992
 30
0.0
 10
7.1297020978
 20
4.4565945727
 30
0.0
 10
7.1297821367
 20
4.4566408231
 30
0.0
  0
SPLINE
  5
312
100
AcDbEntity
  8
0
100
AcDbSpline
 62
7
  6
CONTINUOUS
 70
0
 71
3
 72
45
 73
41
 74
0
 42
0.0000001
 43
0.0000001
 44
0.0000000001
 40
0.0
 40
0.0
 40
0.0
 40
0.0
 40
0.0979851236
 40
0.1950514618
 40
0.2902192612
 40
0.382598526
 40
0.4712930718
 40
0.5554486248
 40
0.6342563405
 40
0.6714143127
 40
0.7069557518
 40
0.7407942736
 40
0.7728476309
 40
0.8030404995
 40
0.8312985339
 40
0.8575539047
 40
0.8817449386
 40
0.9038111855
 40
0.9237009314
 40
0.9413671237
 40
0.9493519579
 40
0.9567650426
 40
0.9636024291
 40
0.9698601809
 40
0.9755343787
 40
0.9806211429
 40
0.9851173826
 40
0.989021189
 40
0.992330852
 40
0.9950448638
 40
0.9971621487
 40
0.9979970096
 40
0.9986830659
 40
0.99897057
 40
0.9992212793
 40
0.9994354773
 40
0.9996136217
 40
0.9997565175
 40
0.9998657511
 40
1.0
 40
1.0
 40
1.0
 40
1.0
 10
4.9350543478
 20
4.446537576
 30
0.0
 10
5.0067628033
 20
4.4471875051
 30
0.0
 10
5.1495073197
 20
4.4484812598
 30
0.0
 10
5.3618983209
 20
4.4504247944
 30
0.0
 10
5.5701864467
 20
4.4523680259
 30
0.0
 10
5.7723473257
 20
4.4543105506
 30
0.0
 10
5.9664484057
 20
4.4562522235
 30
0.0
 10
6.1506165025
 20
4.4581927156
 30
0.0
 10
6.2970680185
 20
4.4598388384
 30
0.0
 10
6.4079421186
 20
4.4611643384
 30
0.0
 10
6.4859068958
 20
4.4621386678
 30
0.0
 10
6.5601355072
 20
4.4631127445
 30
0.0
 10
6.6304493622
 20
4.4640866053
 30
0.0
 10
6.6966786736
 20
4.4650600439
 30
0.0
 10
6.7586641894
 20
4.4660330838
 30
0.0
 10
6.8162566324
 20
4.467005615
 30
0.0
 10
6.8693168718
 20
4.4679773328
 30
0.0
 10
6.9177175363
 20
4.468948161
 30
0.0
 10
6.9613418968
 20
4.4699177984
 30
0.0
 10
6.9946610511
 20
4.4707497225
 30
0.0
 10
7.0188500336
 20
4.4714218301
 30
0.0
 10
7.0351159002
 20
4.4719085491
 30
0.0
 10
7.0501171846
 20
4.4723949597
 30
0.0
 10
7.0638451348
 20
4.4728810068
 30
0.0
 10
7.0762910179
 20
4.4733665531
 30
0.0
 10
7.0874466638
 20
4.4738514732
 30
0.0
 10
7.0973053198
 20
4.4743354912
 30
0.0
 10
7.1058616583
 20
4.4748182786
 30
0.0
 10
7.113111504
 20
4.4752986059
 30
0.0
 10
7.119050493
 20
4.4757764101
 30
0.0
 10
7.1231769572
 20
4.4761945117
 30
0.0
 10
7.1258168449
 20
4.4765434536
 30
0.0
 10
7.1271239609
 20
4.4767529979
 30
0.0
 10
7.128003471
 20
4.4769248258
 30
0.0
 10
7.1285406892
 20
4.4770455855
 30
0.0
 10
7.1289960993
 20
4.4771664335
 30
0.0
 10
7.1293683468
 20
4.4772853994
 30
0.0
 10
7.1296627052
 20
4.477407416
 30
0.0
 10
7.1299032833
 20
4.4775379921
 30
0.0
 10
7.1300523495
 20
4.4776893246
 30
0.0
 10
7.1300523495
 20
4.477787576
 30
0.0
  0
SPLINE
  5
313
100
AcDbEntity
  8
0
100
AcDbSpline
 62
7
  6
CONTINUOUS
 70
0
 71
3
 72
42
 73
38
 74
0
 42
0.0000001
 43
0.0000001
 44
0.0000000001
 40
0.0
 40
0.0
 40
0.0
 40
0.0
 40
0.0970272359
 40
0.1931640574
 40
0.2874572424
 40
0.3790432167
 40
0.467051542
 40
0.5506510521
 40
0.6290541632
 40
0.7015193667
 40
0.7353101028
 40
0.7673638558
 40
0.7976069348
 40
0.8259669552
 40
0.8523762205
 40
0.8767744509
 40
0.8991023541
 40
0.9193074546
 40
0.937343851
 40
0.9531668193
 40
0.9602367368
 40
0.9667404799
 40
0.9726742349
 40
0.9780342081
 40
0.9828167908
 40
0.9870196192
 40
0.9906409632
 40
0.9936792287
 40
0.9949792882
 40
0.9961331171
 40
0.9971406457
 40
0.9980018948
 40
0.9987171372
 40
0.9992871124
 40
0.9997133411
 40
0.9998736663
 40
1.0
 40
1.0
 40
1.0
 40
1.0
 10
4.9350543478
 20
4.3007031073
 30
0.0
 10
5.0060482096
 20
4.3013465597
 30
0.0
 10
5.1473844259
 20
4.3026275508
 30
0.0
 10
5.3577138628
 20
4.304551856
 30
0.0
 10
5.5640616531
 20
4.3064758778
 30
0.0
 10
5.7644614018
 20
4.3083992178
 30
0.0
 10
5.9570360092
 20
4.3103217779
 30
0.0
 10
6.1399639624
 20
4.3122431293
 30
0.0
 10
6.3115180544
 20
4.3141628877
 30
0.0
 10
6.446626944
 20
4.3157965216
 30
0.0
 10
6.5478223645
 20
4.3171133079
 30
0.0
 10
6.6181249627
 20
4.3180775598
 30
0.0
 10
6.6844534085
 20
4.3190414106
 30
0.0
 10
6.7466512132
 20
4.3200048634
 30
0.0
 10
6.8045716844
 20
4.3209678883
 30
0.0
 10
6.8580776926
 20
4.3219301623
 30
0.0
 10
6.907043209
 20
4.3228916311
 30
0.0
 10
6.9513526902
 20
4.3238519646
 30
0.0
 10
6.9909011751
 20
4.3248106751
 30
0.0
 10
7.020838678
 20
4.3256356057
 30
0.0
 10
7.0423384373
 20
4.3263032991
 30
0.0
 10
7.0566043037
 20
4.3267847548
 30
0.0
 10
7.0696182105
 20
4.3272657835
 30
0.0
 10
7.0813717908
 20
4.3277462664
 30
0.0
 10
7.0918576732
 20
4.3282260944
 30
0.0
 10
7.101069941
 20
4.3287048424
 30
0.0
 10
7.1090039486
 20
4.3291822463
 30
0.0
 10
7.1148136652
 20
4.329596511
 30
0.0
 10
7.1188181987
 20
4.3299345933
 30
0.0
 10
7.1213396609
 20
4.330174415
 30
0.0
 10
7.1235384974
 20
4.3304136031
 30
0.0
 10
7.1254142656
 20
4.3306520503
 30
0.0
 10
7.1269672972
 20
4.3308888808
 30
0.0
 10
7.1281973523
 20
4.3311241995
 30
0.0
 10
7.1290195049
 20
4.3313309437
 30
0.0
 10
7.1295112306
 20
4.3315058992
 30
0.0
 10
7.1297020977
 20
4.3315945727
 30
0.0
 10
7.1297821366
 20
4.3316408231
 30
0.0
  0
SPLINE
  5
314
100
AcDbEntity
  8
0
100
AcDbSpline
 62
7
  6
CONTINUOUS
 70
0
 71
3
 72
45
 73
41
 74
0
 42
0.0000001
 43
0.0000001
 44
0.0000000001
 40
0.0
 40
0.0
 40
0.0
 40
0.0
 40
0.0979851236
 40
0.1950514618
 40
0.2902192612
 40
0.382598526
 40
0.4712930718
 40
0.5554486248
 40
0.6342563405
 40
0.6714143127
 40
0.7069557518
 40
0.7407942736
 40
0.7728476309
 40
0.8030404995
 40
0.8312985339
 40
0.8575539047
 40
0.8817449386
 40
0.9038111855
 40
0.9237009314
 40
0.9413671237
 40
0.9493519579
 40
0.9567650426
 40
0.9636024291
 40
0.9698601809
 40
0.9755343787
 40
0.9806211429
 40
0.9851173826
 40
0.989021189
 40
0.992330852
 40
0.9950448638
 40
0.9971621487
 40
0.9979970096
 40
0.9986830659
 40
0.99897057
 40
0.9992212793
 40
0.9994354773
 40
0.9996136217
 40
0.9997565175
 40
0.9998657511
 40
1.0
 40
1.0
 40
1.0
 40
1.0
 10
4.9350543478
 20
4.321537576
 30
0.0
 10
5.0067628033
 20
4.3221875051
 30
0.0
 10
5.1495073197
 20
4.3234812598
 30
0.0
 10
5.3618983209
 20
4.3254247944
 30
0.0
 10
5.5701864467
 20
4.3273680259
 30
0.0
 10
5.7723473257
 20
4.3293105506
 30
0.0
 10
5.9664484057
 20
4.3312522235
 30
0.0
 10
6.1506165025
 20
4.3331927156
 30
0.0
 10
6.2970680185
 20
4.3348388384
 30
0.0
 10
6.4079421186
 20
4.3361643384
 30
0.0
 10
6.4859068958
 20
4.3371386678
 30
0.0
 10
6.5601355072
 20
4.3381127445
 30
0.0
 10
6.6304493622
 20
4.3390866053
 30
0.0
 10
6.6966786736
 20
4.3400600439
 30
0.0
 10
6.7586641894
 20
4.3410330838
 30
0.0
 10
6.8162566324
 20
4.342005615
 30
0.0
 10
6.8693168718
 20
4.3429773328
 30
0.0
 10
6.9177175363
 20
4.343948161
 30
0.0
 10
6.9613418968
 20
4.3449177984
 30
0.0
 10
6.9946610511
 20
4.3457497225
 30
0.0
 10
7.0188500336
 20
4.3464218301
 30
0.0
 10
7.0351159002
 20
4.3469085491
 30
0.0
 10
7.0501171846
 20
4.3473949597
 30
0.0
 10
7.0638451348
 20
4.3478810068
 30
0.0
 10
7.0762910179
 20
4.3483665531
 30
0.0
 10
7.0874466638
 20
4.3488514732
 30
0.0
 10
7.0973053198
 20
4.3493354912
 30
0.0
 10
7.1058616583
 20
4.3498182786
 30
0.0
 10
7.113111504
 20
4.3502986059
 30
0.0
 10
7.119050493
 20
4.3507764101
 30
0.0
 10
7.1231769572
 20
4.3511945117
 30
0.0
 10
7.1258168449
 20
4.3515434536
 30
0.0
 10
7.1271239609
 20
4.3517529979
 30
0.0
 10
7.128003471
 20
4.3519248258
 30
0.0
 10
7.1285406892
 20
4.3520455855
 30
0.0
 10
7.1289960993
 20
4.3521664335
 30
0.0
 10
7.1293683468
 20
4.3522853994
 30
0.0
 10
7.1296627052
 20
4.352407416
 30
0.0
 10
7.1299032833
 20
4.3525379921
 30
0.0
 10
7.1300523495
 20
4.3526893246
 30
0.0
 10
7.1300523495
 20
4.352787576
 30
0.0
  0
SPLINE
  5
315
100
AcDbEntity
  8
0
100
AcDbSpline
 62
7
  6
CONTINUOUS
 70
0
 71
3
 72
42
 73
38
 74
0
 42
0.0000001
 43
0.0000001
 44
0.0000000001
 40
0.0
 40
0.0
 40
0.0
 40
0.0
 40
0.0970257288
 40
0.1931644003
 40
0.2874574234
 40
0.3790428141
 40
0.4670514178
 40
0.5506510629
 40
0.6290538396
 40
0.7015189064
 40
0.7353098111
 40
0.7673637703
 40
0.7976062462
 40
0.825966711
 40
0.8523760003
 40
0.8767735325
 40
0.8991021875
 40
0.9193070028
 40
0.937342682
 40
0.9531667111
 40
0.9602365863
 40
0.9667398439
 40
0.9726731031
 40
0.9780330026
 40
0.9828162106
 40
0.9870194624
 40
0.9906404078
 40
0.9936779293
 40
0.9949776593
 40
0.9961312789
 40
0.9971387862
 40
0.9980002685
 40
0.9987159746
 40
0.9992864795
 40
0.9997131291
 40
0.9998735853
 40
1.0
 40
1.0
 40
1.0
 40
1.0
 10
4.9350543478
 20
4.1757031073
 30
0.0
 10
5.0060471696
 20
4.1763465503
 30
0.0
 10
5.1473837618
 20
4.1776275449
 30
0.0
 10
5.357713517
 20
4.1795518536
 30
0.0
 10
5.5640622981
 20
4.1814758816
 30
0.0
 10
5.764461882
 20
4.1833992253
 30
0.0
 10
5.9570365352
 20
4.1853217865
 30
0.0
 10
6.139964708
 20
4.1872431304
 30
0.0
 10
6.3115187057
 20
4.1891628992
 30
0.0
 10
6.4466274933
 20
4.1907965364
 30
0.0
 10
6.5478231774
 20
4.1921133233
 30
0.0
 10
6.6181256711
 20
4.1930775531
 30
0.0
 10
6.6844542098
 20
4.1940414465
 30
0.0
 10
6.7466519713
 20
4.1950048698
 30
0.0
 10
6.8045723258
 20
4.1959678788
 30
0.0
 10
6.858078437
 20
4.1969302171
 30
0.0
 10
6.9070438284
 20
4.1978916193
 30
0.0
 10
6.9513531655
 20
4.1988519556
 30
0.0
 10
6.9909017254
 20
4.1998107656
 30
0.0
 10
7.0208394782
 20
4.2006355916
 30
0.0
 10
7.0423396465
 20
4.2013032948
 30
0.0
 10
7.0566047758
 20
4.2017847633
 30
0.0
 10
7.0696179211
 20
4.202265807
 30
0.0
 10
7.0813715515
 20
4.2027463163
 30
0.0
 10
7.091858159
 20
4.2032261035
 30
0.0
 10
7.1010709138
 20
4.2037048076
 30
0.0
 10
7.1090043997
 20
4.2041822425
 30
0.0
 10
7.114813039
 20
4.2045965476
 30
0.0
 10
7.1188166326
 20
4.2049346463
 30
0.0
 10
7.1213376842
 20
4.2051744799
 30
0.0
 10
7.1235365226
 20
4.2054136837
 30
0.0
 10
7.1254127889
 20
4.2056521413
 30
0.0
 10
7.1269667315
 20
4.2058889547
 30
0.0
 10
7.1281978452
 20
4.2061242435
 30
0.0
 10
7.1290208244
 20
4.2063309467
 30
0.0
 10
7.1295130432
 20
4.2065058985
 30
0.0
 10
7.1297040827
 20
4.2065945703
 30
0.0
 10
7.1297841891
 20
4.2066408224
 30
0.0
  0
SPLINE
  5
316
100
AcDbEntity
  8
0
100
AcDbSpline
 62
7
  6
CONTINUOUS
 70
0
 71
3
 72
45
 73
41
 74
0
 42
0.0000001
 43
0.0000001
 44
0.0000000001
 40
0.0
 40
0.0
 40
0.0
 40
0.0
 40
0.0979851236
 40
0.1950514618
 40
0.2902192612
 40
0.382598526
 40
0.4712930718
 40
0.5554486248
 40
0.6342563405
 40
0.6714143127
 40
0.7069557518
 40
0.7407942736
 40
0.7728476309
 40
0.8030404995
 40
0.8312985339
 40
0.8575539047
 40
0.8817449386
 40
0.9038111855
 40
0.9237009314
 40
0.9413671237
 40
0.9493519579
 40
0.9567650426
 40
0.9636024291
 40
0.9698601809
 40
0.9755343787
 40
0.9806211429
 40
0.9851173826
 40
0.989021189
 40
0.992330852
 40
0.9950448638
 40
0.9971621487
 40
0.9979970096
 40
0.9986830659
 40
0.99897057
 40
0.9992212793
 40
0.9994354773
 40
0.9996136217
 40
0.9997565175
 40
0.9998657511
 40
1.0
 40
1.0
 40
1.0
 40
1.0
 10
4.9350543478
 20
4.196537576
 30
0.0
 10
5.0067628033
 20
4.1971875051
 30
0.0
 10
5.1495073197
 20
4.1984812598
 30
0.0
 10
5.3618983209
 20
4.2004247944
 30
0.0
 10
5.5701864467
 20
4.2023680259
 30
0.0
 10
5.7723473257
 20
4.2043105506
 30
0.0
 10
5.9664484057
 20
4.2062522235
 30
0.0
 10
6.1506165025
 20
4.2081927156
 30
0.0
 10
6.2970680185
 20
4.2098388384
 30
0.0
 10
6.4079421186
 20
4.2111643384
 30
0.0
 10
6.4859068958
 20
4.2121386678
 30
0.0
 10
6.5601355072
 20
4.2131127445
 30
0.0
 10
6.6304493622
 20
4.2140866053
 30
0.0
 10
6.6966786736
 20
4.2150600439
 30
0.0
 10
6.7586641894
 20
4.2160330838
 30
0.0
 10
6.8162566324
 20
4.217005615
 30
0.0
 10
6.8693168718
 20
4.2179773328
 30
0.0
 10
6.9177175363
 20
4.218948161
 30
0.0
 10
6.9613418968
 20
4.2199177984
 30
0.0
 10
6.9946610511
 20
4.2207497225
 30
0.0
 10
7.0188500336
 20
4.2214218301
 30
0.0
 10
7.0351159002
 20
4.2219085491
 30
0.0
 10
7.0501171846
 20
4.2223949597
 30
0.0
 10
7.0638451348
 20
4.2228810068
 30
0.0
 10
7.0762910179
 20
4.2233665531
 30
0.0
 10
7.0874466638
 20
4.2238514732
 30
0.0
 10
7.0973053198
 20
4.2243354912
 30
0.0
 10
7.1058616583
 20
4.2248182786
 30
0.0
 10
7.113111504
 20
4.2252986059
 30
0.0
 10
7.119050493
 20
4.2257764101
 30
0.0
 10
7.1231769572
 20
4.2261945117
 30
0.0
 10
7.1258168449
 20
4.2265434536
 30
0.0
 10
7.1271239609
 20
4.2267529979
 30
0.0
 10
7.128003471
 20
4.2269248258
 30
0.0
 10
7.1285406892
 20
4.2270455855
 30
0.0
 10
7.1289960993
 20
4.2271664335
 30
0.0
 10
7.1293683468
 20
4.2272853994
 30
0.0
 10
7.1296627052
 20
4.227407416
 30
0.0
 10
7.1299032833
 20
4.2275379921
 30
0.0
 10
7.1300523495
 20
4.2276893246
 30
0.0
 10
7.1300523495
 20
4.227787576
 30
0.0
  0
SPLINE
  5
317
100
AcDbEntity
  8
0
100
AcDbSpline
 62
7
  6
CONTINUOUS
 70
0
 71
3
 72
15
 73
11
 74
0
 42
0.0000001
 43
0.0000001
 44
0.0000000001
 40
0.0
 40
0.0
 40
0.0
 40
0.0
 40
0.1249999797
 40
0.2499999285
 40
0.3749998842
 40
0.4999998427
 40
0.6249998345
 40
0.7499998558
 40
0.8749999271
 40
1.0
 40
1.0
 40
1.0
 40
1.0
 10
4.9350543478
 20
4.9419542378
 30
0.0
 10
4.8106927367
 20
4.9419542378
 30
0.0
 10
4.5619655153
 20
4.9438495834
 30
0.0
 10
4.1889628362
 20
4.9522429104
 30
0.0
 10
3.8161138429
 20
4.965810484
 30
0.0
 10
3.4434650382
 20
4.9840138367
 30
0.0
 10
3.0710367941
 20
5.0062427849
 30
0.0
 10
2.6988300135
 20
5.0318902106
 30
0.0
 10
2.3268328246
 20
5.0603990081
 30
0.0
 10
2.0789615267
 20
5.0809891284
 30
0.0
 10
1.9550543478
 20
5.0916119528
 30
0.0
  0
SPLINE
  5
318
100
AcDbEntity
  8
0
100
AcDbSpline
 62
7
  6
CONTINUOUS
 70
0
 71
3
 72
42
 73
38
 74
0
 42
0.0000001
 43
0.0000001
 44
0.0000000001
 40
0.0
 40
0.0
 40
0.0
 40
0.0
 40
0.0970272362
 40
0.1931640588
 40
0.287457243
 40
0.3790432146
 40
0.4670515381
 40
0.5506510473
 40
0.6290541581
 40
0.701519362
 40
0.7353100987
 40
0.7673638525
 40
0.7976069328
 40
0.8259669547
 40
0.8523762211
 40
0.8767744524
 40
0.8991023559
 40
0.9193074556
 40
0.9373438509
 40
0.9531668188
 40
0.9602367363
 40
0.9667404793
 40
0.9726742343
 40
0.9780342078
 40
0.9828167906
 40
0.987019619
 40
0.990640963
 40
0.9936792285
 40
0.994979288
 40
0.996133117
 40
0.9971406456
 40
0.9980018947
 40
0.9987171372
 40
0.9992871124
 40
0.9997133411
 40
0.9998736664
 40
1.0
 40
1.0
 40
1.0
 40
1.0
 10
4.9350543478
 20
4.0507031073
 30
0.0
 10
5.0060482098
 20
4.0513465597
 30
0.0
 10
5.1473844271
 20
4.0526275508
 30
0.0
 10
5.3577138645
 20
4.054551856
 30
0.0
 10
5.5640616531
 20
4.0564758778
 30
0.0
 10
5.7644613979
 20
4.0583992178
 30
0.0
 10
5.9570360013
 20
4.0603217778
 30
0.0
 10
6.1399639523
 20
4.0622431292
 30
0.0
 10
6.3115180438
 20
4.0641628876
 30
0.0
 10
6.4466269338
 20
4.0657965215
 30
0.0
 10
6.5478223556
 20
4.0671133078
 30
0.0
 10
6.6181249558
 20
4.0680775597
 30
0.0
 10
6.6844534044
 20
4.0690414106
 30
0.0
 10
6.7466512119
 20
4.0700048634
 30
0.0
 10
6.8045716856
 20
4.0709678883
 30
0.0
 10
6.8580776955
 20
4.0719301624
 30
0.0
 10
6.9070432121
 20
4.0728916311
 30
0.0
 10
6.9513526922
 20
4.0738519646
 30
0.0
 10
6.9909011754
 20
4.0748106751
 30
0.0
 10
7.0208386772
 20
4.0756356057
 30
0.0
 10
7.0423384361
 20
4.0763032991
 30
0.0
 10
7.0566043025
 20
4.0767847547
 30
0.0
 10
7.0696182094
 20
4.0772657835
 30
0.0
 10
7.0813717901
 20
4.0777462664
 30
0.0
 10
7.0918576727
 20
4.0782260943
 30
0.0
 10
7.1010699406
 20
4.0787048424
 30
0.0
 10
7.1090039482
 20
4.0791822462
 30
0.0
 10
7.1148136648
 20
4.079596511
 30
0.0
 10
7.1188181983
 20
4.0799345933
 30
0.0
 10
7.1213396606
 20
4.0801744149
 30
0.0
 10
7.1235384971
 20
4.0804136031
 30
0.0
 10
7.1254142655
 20
4.0806520503
 30
0.0
 10
7.1269672973
 20
4.0808888807
 30
0.0
 10
7.1281973524
 20
4.0811241995
 30
0.0
 10
7.129019505
 20
4.0813309437
 30
0.0
 10
7.1295112306
 20
4.0815058992
 30
0.0
 10
7.1297020977
 20
4.0815945727
 30
0.0
 10
7.1297821366
 20
4.0816408231
 30
0.0
  0
SPLINE
  5
319
100
AcDbEntity
  8
0
100
AcDbSpline
 62
7
  6
CONTINUOUS
 70
0
 71
3
 72
45
 73
41
 74
0
 42
0.0000001
 43
0.0000001
 44
0.0000000001
 40
0.0
 40
0.0
 40
0.0
 40
0.0
 40
0.0979836964
 40
0.1950519657
 40
0.2902196195
 40
0.3825984048
 40
0.4712932528
 40
0.5554489723
 40
0.6342564902
 40
0.6714146425
 40
0.7069556427
 40
0.7407945339
 40
0.7728478439
 40
0.803040159
 40
0.8312988525
 40
0.8575538855
 40
0.8817443715
 40
0.9038114853
 40
0.9237005381
 40
0.9413663498
 40
0.9493518569
 40
0.9567652413
 40
0.9636022759
 40
0.9698594587
 40
0.9755333162
 40
0.9806204001
 40
0.9851173012
 40
0.9890209943
 40
0.9923299575
 40
0.9950432508
 40
0.9971603641
 40
0.9979955118
 40
0.9986820553
 40
0.9989698226
 40
0.999220778
 40
0.9994351825
 40
0.9996134776
 40
0.9997564704
 40
0.9998657543
 40
1.0
 40
1.0
 40
1.0
 40
1.0
 10
4.9350543478
 20
4.071537576
 30
0.0
 10
5.0067618253
 20
4.0721874963
 30
0.0
 10
5.1495068425
 20
4.0734812555
 30
0.0
 10
5.3618983025
 20
4.075424795
 30
0.0
 10
5.5701875768
 20
4.0773680344
 30
0.0
 10
5.7723484065
 20
4.0793105633
 30
0.0
 10
5.9664496581
 20
4.081252241
 30
0.0
 10
6.1506181237
 20
4.0831927241
 30
0.0
 10
6.2970698839
 20
4.0848388691
 30
0.0
 10
6.4079437527
 20
4.0861643475
 30
0.0
 10
6.4859086827
 20
4.0871387067
 30
0.0
 10
6.5601372776
 20
4.0881127625
 30
0.0
 10
6.6304510283
 20
4.0890866179
 30
0.0
 10
6.696680443
 20
4.0900600996
 30
0.0
 10
6.7586658472
 20
4.0910330907
 30
0.0
 10
6.8162581774
 20
4.0920056333
 30
0.0
 10
6.8693184512
 20
4.0929774065
 30
0.0
 10
6.9177188883
 20
4.0939481473
 30
0.0
 10
6.9613431369
 20
4.0949178319
 30
0.0
 10
6.9946620272
 20
4.0957498104
 30
0.0
 10
7.0188514671
 20
4.0964218546
 30
0.0
 10
7.0351178037
 20
4.0969085592
 30
0.0
 10
7.0501186468
 20
4.0973949819
 30
0.0
 10
7.0638456856
 20
4.097881043
 30
0.0
 10
7.0762911474
 20
4.0983666131
 30
0.0
 10
7.0874472729
 20
4.0988515344
 30
0.0
 10
7.0973065773
 20
4.0993354828
 30
0.0
 10
7.1058628125
 20
4.0998182797
 30
0.0
 10
7.1131115387
 20
4.1002986507
 30
0.0
 10
7.1190493628
 20
4.1007765067
 30
0.0
 10
7.1231753785
 20
4.1011946681
 30
0.0
 10
7.1258157183
 20
4.1015435666
 30
0.0
 10
7.1271236075
 20
4.1017530814
 30
0.0
 10
7.1280038661
 20
4.1019248859
 30
0.0
 10
7.1285416235
 20
4.102045635
 30
0.0
 10
7.1289974951
 20
4.1021664713
 30
0.0
 10
7.1293700925
 20
4.1022854242
 30
0.0
 10
7.1296646987
 20
4.1024074379
 30
0.0
 10
7.129905397
 20
4.1025379628
 30
0.0
 10
7.1300545725
 20
4.1026893262
 30
0.0
 10
7.1300545225
 20
4.1027875754
 30
0.0
  0
SPLINE
  5
31A
100
AcDbEntity
  8
0
100
AcDbSpline
 62
7
  6
CONTINUOUS
 70
0
 71
3
 72
42
 73
38
 74
0
 42
0.0000001
 43
0.0000001
 44
0.0000000001
 40
0.0
 40
0.0
 40
0.0
 40
0.0
 40
0.0970272359
 40
0.1931640594
 40
0.2874572441
 40
0.3790432153
 40
0.4670515382
 40
0.5506510468
 40
0.6290541571
 40
0.7015193612
 40
0.7353100983
 40
0.7673638527
 40
0.7976069336
 40
0.8259669567
 40
0.8523762239
 40
0.8767744559
 40
0.89910236
 40
0.9193074589
 40
0.9373438533
 40
0.9531668207
 40
0.9602367378
 40
0.9667404803
 40
0.972674235
 40
0.9780342084
 40
0.9828167913
 40
0.9870196195
 40
0.9906409632
 40
0.9936792285
 40
0.9949792879
 40
0.9961331169
 40
0.9971406455
 40
0.9980018947
 40
0.9987171373
 40
0.9992871125
 40
0.9997133412
 40
0.9998736664
 40
1.0
 40
1.0
 40
1.0
 40
1.0
 10
4.9350543478
 20
3.9257031073
 30
0.0
 10
5.0060482096
 20
3.9263465597
 30
0.0
 10
5.1473844274
 20
3.9276275508
 30
0.0
 10
5.3577138656
 20
3.929551856
 30
0.0
 10
5.5640616549
 20
3.9314758778
 30
0.0
 10
5.7644613993
 20
3.9333992178
 30
0.0
 10
5.9570360016
 20
3.9353217778
 30
0.0
 10
6.1399639514
 20
3.9372431291
 30
0.0
 10
6.3115180422
 20
3.9391628876
 30
0.0
 10
6.4466269323
 20
3.9407965214
 30
0.0
 10
6.547822355
 20
3.9421133078
 30
0.0
 10
6.6181249564
 20
3.9430775597
 30
0.0
 10
6.6844534066
 20
3.9440414106
 30
0.0
 10
6.7466512161
 20
3.9450048634
 30
0.0
 10
6.8045716918
 20
3.9459678884
 30
0.0
 10
6.8580777033
 20
3.9469301625
 30
0.0
 10
6.9070432202
 20
3.9478916313
 30
0.0
 10
6.9513526995
 20
3.9488519648
 30
0.0
 10
6.9909011811
 20
3.9498106753
 30
0.0
 10
7.0208386816
 20
3.9506356058
 30
0.0
 10
7.0423384395
 20
3.9513032992
 30
0.0
 10
7.056604305
 20
3.9517847548
 30
0.0
 10
7.0696182113
 20
3.9522657836
 30
0.0
 10
7.0813717916
 20
3.9527462665
 30
0.0
 10
7.091857674
 20
3.9532260944
 30
0.0
 10
7.1010699417
 20
3.9537048425
 30
0.0
 10
7.1090039489
 20
3.9541822463
 30
0.0
 10
7.1148136651
 20
3.954596511
 30
0.0
 10
7.1188181983
 20
3.9549345933
 30
0.0
 10
7.1213396606
 20
3.955174415
 30
0.0
 10
7.1235384972
 20
3.9554136031
 30
0.0
 10
7.1254142656
 20
3.9556520503
 30
0.0
 10
7.1269672975
 20
3.9558888807
 30
0.0
 10
7.1281973527
 20
3.9561241995
 30
0.0
 10
7.1290195053
 20
3.9563309437
 30
0.0
 10
7.1295112309
 20
3.9565058992
 30
0.0
 10
7.1297020979
 20
3.9565945727
 30
0.0
 10
7.1297821367
 20
3.9566408231
 30
0.0
  0
SPLINE
  5
31B
100
AcDbEntity
  8
0
100
AcDbSpline
 62
7
  6
CONTINUOUS
 70
0
 71
3
 72
45
 73
41
 74
0
 42
0.0000001
 43
0.0000001
 44
0.0000000001
 40
0.0
 40
0.0
 40
0.0
 40
0.0
 40
0.0979851236
 40
0.1950514618
 40
0.2902192612
 40
0.382598526
 40
0.4712930718
 40
0.5554486248
 40
0.6342563405
 40
0.6714143127
 40
0.7069557518
 40
0.7407942736
 40
0.7728476309
 40
0.8030404995
 40
0.8312985339
 40
0.8575539047
 40
0.8817449386
 40
0.9038111855
 40
0.9237009314
 40
0.9413671237
 40
0.9493519579
 40
0.9567650426
 40
0.9636024291
 40
0.9698601809
 40
0.9755343787
 40
0.9806211429
 40
0.9851173826
 40
0.989021189
 40
0.992330852
 40
0.9950448638
 40
0.9971621487
 40
0.9979970096
 40
0.9986830659
 40
0.99897057
 40
0.9992212793
 40
0.9994354773
 40
0.9996136217
 40
0.9997565175
 40
0.9998657511
 40
1.0
 40
1.0
 40
1.0
 40
1.0
 10
4.9350543478
 20
3.946537576
 30
0.0
 10
5.0067628033
 20
3.9471875051
 30
0.0
 10
5.1495073197
 20
3.9484812598
 30
0.0
 10
5.3618983209
 20
3.9504247944
 30
0.0
 10
5.5701864467
 20
3.9523680259
 30
0.0
 10
5.7723473257
 20
3.9543105506
 30
0.0
 10
5.9664484057
 20
3.9562522235
 30
0.0
 10
6.1506165025
 20
3.9581927156
 30
0.0
 10
6.2970680185
 20
3.9598388384
 30
0.0
 10
6.4079421186
 20
3.9611643384
 30
0.0
 10
6.4859068958
 20
3.9621386678
 30
0.0
 10
6.5601355072
 20
3.9631127445
 30
0.0
 10
6.6304493622
 20
3.9640866053
 30
0.0
 10
6.6966786736
 20
3.9650600439
 30
0.0
 10
6.7586641894
 20
3.9660330838
 30
0.0
 10
6.8162566324
 20
3.967005615
 30
0.0
 10
6.8693168718
 20
3.9679773328
 30
0.0
 10
6.9177175363
 20
3.968948161
 30
0.0
 10
6.9613418968
 20
3.9699177984
 30
0.0
 10
6.9946610511
 20
3.9707497225
 30
0.0
 10
7.0188500336
 20
3.9714218301
 30
0.0
 10
7.0351159002
 20
3.9719085491
 30
0.0
 10
7.0501171846
 20
3.9723949597
 30
0.0
 10
7.0638451348
 20
3.9728810068
 30
0.0
 10
7.0762910179
 20
3.9733665531
 30
0.0
 10
7.0874466638
 20
3.9738514732
 30
0.0
 10
7.0973053198
 20
3.9743354912
 30
0.0
 10
7.1058616583
 20
3.9748182786
 30
0.0
 10
7.113111504
 20
3.9752986059
 30
0.0
 10
7.119050493
 20
3.9757764101
 30
0.0
 10
7.1231769572
 20
3.9761945117
 30
0.0
 10
7.1258168449
 20
3.9765434536
 30
0.0
 10
7.1271239609
 20
3.9767529979
 30
0.0
 10
7.128003471
 20
3.9769248258
 30
0.0
 10
7.1285406892
 20
3.9770455855
 30
0.0
 10
7.1289960993
 20
3.9771664335
 30
0.0
 10
7.1293683468
 20
3.9772853994
 30
0.0
 10
7.1296627052
 20
3.977407416
 30
0.0
 10
7.1299032833
 20
3.9775379921
 30
0.0
 10
7.1300523495
 20
3.9776893246
 30
0.0
 10
7.1300523495
 20
3.977787576
 30
0.0
  0
SPLINE
  5
31C
100
AcDbEntity
  8
0
100
AcDbSpline
 62
7
  6
CONTINUOUS
 70
0
 71
3
 72
42
 73
38
 74
0
 42
0.0000001
 43
0.0000001
 44
0.0000000001
 40
0.0
 40
0.0
 40
0.0
 40
0.0
 40
0.0970272359
 40
0.1931640604
 40
0.287457246
 40
0.3790432179
 40
0.467051541
 40
0.5506510494
 40
0.6290541594
 40
0.7015193636
 40
0.7353101011
 40
0.767363856
 40
0.7976069374
 40
0.8259669611
 40
0.8523762286
 40
0.8767744604
 40
0.8991023645
 40
0.9193074627
 40
0.9373438561
 40
0.9531668231
 40
0.9602367397
 40
0.9667404817
 40
0.972674236
 40
0.9780342091
 40
0.9828167919
 40
0.9870196199
 40
0.9906409635
 40
0.9936792285
 40
0.9949792878
 40
0.9961331168
 40
0.9971406454
 40
0.9980018947
 40
0.9987171373
 40
0.9992871125
 40
0.9997133412
 40
0.9998736664
 40
1.0
 40
1.0
 40
1.0
 40
1.0
 10
4.9350543478
 20
3.8007031073
 30
0.0
 10
5.0060482096
 20
3.8013465597
 30
0.0
 10
5.1473844281
 20
3.8026275509
 30
0.0
 10
5.3577138677
 20
3.804551856
 30
0.0
 10
5.564061659
 20
3.8064758779
 30
0.0
 10
5.7644614048
 20
3.8083992178
 30
0.0
 10
5.9570360075
 20
3.8103217778
 30
0.0
 10
6.1399639571
 20
3.8122431292
 30
0.0
 10
6.3115180476
 20
3.8141628876
 30
0.0
 10
6.446626938
 20
3.8157965215
 30
0.0
 10
6.5478223614
 20
3.8171133079
 30
0.0
 10
6.6181249638
 20
3.8180775598
 30
0.0
 10
6.6844534152
 20
3.8190414107
 30
0.0
 10
6.7466512257
 20
3.8200048636
 30
0.0
 10
6.8045717019
 20
3.8209678886
 30
0.0
 10
6.8580777134
 20
3.8219301627
 30
0.0
 10
6.9070432297
 20
3.8228916315
 30
0.0
 10
6.9513527078
 20
3.823851965
 30
0.0
 10
6.9909011878
 20
3.8248106755
 30
0.0
 10
7.020838687
 20
3.8256356059
 30
0.0
 10
7.0423384438
 20
3.8263032993
 30
0.0
 10
7.0566043083
 20
3.8267847549
 30
0.0
 10
7.0696182137
 20
3.8272657837
 30
0.0
 10
7.0813717935
 20
3.8277462666
 30
0.0
 10
7.0918576755
 20
3.8282260944
 30
0.0
 10
7.1010699428
 20
3.8287048425
 30
0.0
 10
7.1090039496
 20
3.8291822463
 30
0.0
 10
7.1148136654
 20
3.8295965111
 30
0.0
 10
7.1188181984
 20
3.8299345934
 30
0.0
 10
7.1213396606
 20
3.830174415
 30
0.0
 10
7.1235384972
 20
3.8304136031
 30
0.0
 10
7.1254142658
 20
3.8306520503
 30
0.0
 10
7.1269672977
 20
3.8308888807
 30
0.0
 10
7.128197353
 20
3.8311241995
 30
0.0
 10
7.1290195055
 20
3.8313309436
 30
0.0
 10
7.1295112311
 20
3.8315058992
 30
0.0
 10
7.1297020981
 20
3.8315945727
 30
0.0
 10
7.1297821369
 20
3.8316408231
 30
0.0
  0
SPLINE
  5
31D
100
AcDbEntity
  8
0
100
AcDbSpline
 62
7
  6
CONTINUOUS
 70
0
 71
3
 72
45
 73
41
 74
0
 42
0.0000001
 43
0.0000001
 44
0.0000000001
 40
0.0
 40
0.0
 40
0.0
 40
0.0
 40
0.0979851236
 40
0.1950514618
 40
0.2902192612
 40
0.382598526
 40
0.4712930718
 40
0.5554486248
 40
0.6342563405
 40
0.6714143127
 40
0.7069557518
 40
0.7407942736
 40
0.7728476309
 40
0.8030404995
 40
0.8312985339
 40
0.8575539047
 40
0.8817449386
 40
0.9038111855
 40
0.9237009314
 40
0.9413671237
 40
0.9493519579
 40
0.9567650426
 40
0.9636024291
 40
0.9698601809
 40
0.9755343787
 40
0.9806211429
 40
0.9851173826
 40
0.989021189
 40
0.992330852
 40
0.9950448638
 40
0.9971621487
 40
0.9979970096
 40
0.9986830659
 40
0.99897057
 40
0.9992212793
 40
0.9994354773
 40
0.9996136217
 40
0.9997565175
 40
0.9998657511
 40
1.0
 40
1.0
 40
1.0
 40
1.0
 10
4.9350543478
 20
3.821537576
 30
0.0
 10
5.0067628033
 20
3.8221875051
 30
0.0
 10
5.1495073197
 20
3.8234812598
 30
0.0
 10
5.3618983209
 20
3.8254247944
 30
0.0
 10
5.5701864467
 20
3.8273680259
 30
0.0
 10
5.7723473257
 20
3.8293105506
 30
0.0
 10
5.9664484057
 20
3.8312522235
 30
0.0
 10
6.1506165025
 20
3.8331927156
 30
0.0
 10
6.2970680185
 20
3.8348388384
 30
0.0
 10
6.4079421186
 20
3.8361643384
 30
0.0
 10
6.4859068958
 20
3.8371386678
 30
0.0
 10
6.5601355072
 20
3.8381127445
 30
0.0
 10
6.6304493622
 20
3.8390866053
 30
0.0
 10
6.6966786736
 20
3.8400600439
 30
0.0
 10
6.7586641894
 20
3.8410330838
 30
0.0
 10
6.8162566324
 20
3.842005615
 30
0.0
 10
6.8693168718
 20
3.8429773328
 30
0.0
 10
6.9177175363
 20
3.843948161
 30
0.0
 10
6.9613418968
 20
3.8449177984
 30
0.0
 10
6.9946610511
 20
3.8457497225
 30
0.0
 10
7.0188500336
 20
3.8464218301
 30
0.0
 10
7.0351159002
 20
3.8469085491
 30
0.0
 10
7.0501171846
 20
3.8473949597
 30
0.0
 10
7.0638451348
 20
3.8478810068
 30
0.0
 10
7.0762910179
 20
3.8483665531
 30
0.0
 10
7.0874466638
 20
3.8488514732
 30
0.0
 10
7.0973053198
 20
3.8493354912
 30
0.0
 10
7.1058616583
 20
3.8498182786
 30
0.0
 10
7.113111504
 20
3.8502986059
 30
0.0
 10
7.119050493
 20
3.8507764101
 30
0.0
 10
7.1231769572
 20
3.8511945117
 30
0.0
 10
7.1258168449
 20
3.8515434536
 30
0.0
 10
7.1271239609
 20
3.8517529979
 30
0.0
 10
7.128003471
 20
3.8519248258
 30
0.0
 10
7.1285406892
 20
3.8520455855
 30
0.0
 10
7.1289960993
 20
3.8521664335
 30
0.0
 10
7.1293683468
 20
3.8522853994
 30
0.0
 10
7.1296627052
 20
3.852407416
 30
0.0
 10
7.1299032833
 20
3.8525379921
 30
0.0
 10
7.1300523495
 20
3.8526893246
 30
0.0
 10
7.1300523495
 20
3.852787576
 30
0.0
  0
SPLINE
  5
31E
100
AcDbEntity
  8
0
100
AcDbSpline
 62
7
  6
CONTINUOUS
 70
0
 71
3
 72
42
 73
38
 74
0
 42
0.0000001
 43
0.0000001
 44
0.0000000001
 40
0.0
 40
0.0
 40
0.0
 40
0.0
 40
0.0970257813
 40
0.1931643235
 40
0.2874573155
 40
0.3790427029
 40
0.4670512561
 40
0.550650869
 40
0.6290536584
 40
0.7015187281
 40
0.7353096464
 40
0.7673635955
 40
0.7976061259
 40
0.8259666076
 40
0.8523758885
 40
0.8767734818
 40
0.8991021452
 40
0.919306982
 40
0.9373427428
 40
0.9531667289
 40
0.9602365658
 40
0.9667398234
 40
0.9726731097
 40
0.9780330519
 40
0.982816307
 40
0.9870196119
 40
0.9906406879
 40
0.9936783701
 40
0.994978169
 40
0.9961318374
 40
0.9971393646
 40
0.9980008289
 40
0.9987164703
 40
0.9992868558
 40
0.9997133275
 40
0.9998736841
 40
1.0
 40
1.0
 40
1.0
 40
1.0
 10
4.9350543478
 20
3.6757031073
 30
0.0
 10
5.0060471883
 20
3.6763465504
 30
0.0
 10
5.1473836848
 20
3.6776275442
 30
0.0
 10
5.3577133026
 20
3.6795518516
 30
0.0
 10
5.5640619063
 20
3.681475878
 30
0.0
 10
5.7644613725
 20
3.6833992202
 30
0.0
 10
5.957035909
 20
3.68532178
 30
0.0
 10
6.1399639797
 20
3.687243123
 30
0.0
 10
6.3115179176
 20
3.6891628895
 30
0.0
 10
6.4466266889
 20
3.6907965266
 30
0.0
 10
6.5478223496
 20
3.6921133115
 30
0.0
 10
6.618124866
 20
3.6930775428
 30
0.0
 10
6.6844534311
 20
3.6940414338
 30
0.0
 10
6.7466512215
 20
3.6950048569
 30
0.0
 10
6.8045716108
 20
3.6959678686
 30
0.0
 10
6.8580777518
 20
3.6969302036
 30
0.0
 10
6.9070431961
 20
3.6978916064
 30
0.0
 10
6.9513526025
 20
3.698851943
 30
0.0
 10
6.9909011957
 20
3.6998107446
 30
0.0
 10
7.0208389402
 20
3.700635574
 30
0.0
 10
7.0423390429
 20
3.7013032834
 30
0.0
 10
7.0566041598
 20
3.701784754
 30
0.0
 10
7.0696173525
 20
3.702265799
 30
0.0
 10
7.0813710652
 20
3.7027463078
 30
0.0
 10
7.0918577746
 20
3.7032260911
 30
0.0
 10
7.101070696
 20
3.7037047941
 30
0.0
 10
7.109004433
 20
3.7041822165
 30
0.0
 10
7.1148133358
 20
3.7045965082
 30
0.0
 10
7.1188171332
 20
3.7049346005
 30
0.0
 10
7.1213382856
 20
3.7051744307
 30
0.0
 10
7.123537161
 20
3.7054136324
 30
0.0
 10
7.1254133804
 20
3.7056520891
 30
0.0
 10
7.1269671736
 20
3.7058889025
 30
0.0
 10
7.1281980171
 20
3.70612419
 30
0.0
 10
7.1290206973
 20
3.7063309054
 30
0.0
 10
7.129512616
 20
3.7065058802
 30
0.0
 10
7.1297034922
 20
3.7065945636
 30
0.0
 10
7.1297835107
 20
3.7066408232
 30
0.0
  0
SPLINE
  5
31F
100
AcDbEntity
  8
0
100
AcDbSpline
 62
7
  6
CONTINUOUS
 70
0
 71
3
 72
45
 73
41
 74
0
 42
0.0000001
 43
0.0000001
 44
0.0000000001
 40
0.0
 40
0.0
 40
0.0
 40
0.0
 40
0.0979851236
 40
0.1950514618
 40
0.2902192612
 40
0.382598526
 40
0.4712930718
 40
0.5554486248
 40
0.6342563405
 40
0.6714143127
 40
0.7069557518
 40
0.7407942736
 40
0.7728476309
 40
0.8030404995
 40
0.8312985339
 40
0.8575539047
 40
0.8817449386
 40
0.9038111855
 40
0.9237009314
 40
0.9413671237
 40
0.9493519579
 40
0.9567650426
 40
0.9636024291
 40
0.9698601809
 40
0.9755343787
 40
0.9806211429
 40
0.9851173826
 40
0.989021189
 40
0.992330852
 40
0.9950448638
 40
0.9971621487
 40
0.9979970096
 40
0.9986830659
 40
0.99897057
 40
0.9992212793
 40
0.9994354773
 40
0.9996136217
 40
0.9997565175
 40
0.9998657511
 40
1.0
 40
1.0
 40
1.0
 40
1.0
 10
4.9350543478
 20
3.696537576
 30
0.0
 10
5.0067628033
 20
3.6971875051
 30
0.0
 10
5.1495073197
 20
3.6984812598
 30
0.0
 10
5.3618983209
 20
3.7004247944
 30
0.0
 10
5.5701864467
 20
3.7023680259
 30
0.0
 10
5.7723473257
 20
3.7043105506
 30
0.0
 10
5.9664484057
 20
3.7062522235
 30
0.0
 10
6.1506165025
 20
3.7081927156
 30
0.0
 10
6.2970680185
 20
3.7098388384
 30
0.0
 10
6.4079421186
 20
3.7111643384
 30
0.0
 10
6.4859068958
 20
3.7121386678
 30
0.0
 10
6.5601355072
 20
3.7131127445
 30
0.0
 10
6.6304493622
 20
3.7140866053
 30
0.0
 10
6.6966786736
 20
3.7150600439
 30
0.0
 10
6.7586641894
 20
3.7160330838
 30
0.0
 10
6.8162566324
 20
3.717005615
 30
0.0
 10
6.8693168718
 20
3.7179773328
 30
0.0
 10
6.9177175363
 20
3.718948161
 30
0.0
 10
6.9613418968
 20
3.7199177984
 30
0.0
 10
6.9946610511
 20
3.7207497225
 30
0.0
 10
7.0188500336
 20
3.7214218301
 30
0.0
 10
7.0351159002
 20
3.7219085491
 30
0.0
 10
7.0501171846
 20
3.7223949597
 30
0.0
 10
7.0638451348
 20
3.7228810068
 30
0.0
 10
7.0762910179
 20
3.7233665531
 30
0.0
 10
7.0874466638
 20
3.7238514732
 30
0.0
 10
7.0973053198
 20
3.7243354912
 30
0.0
 10
7.1058616583
 20
3.7248182786
 30
0.0
 10
7.113111504
 20
3.7252986059
 30
0.0
 10
7.119050493
 20
3.7257764101
 30
0.0
 10
7.1231769572
 20
3.7261945117
 30
0.0
 10
7.1258168449
 20
3.7265434536
 30
0.0
 10
7.1271239609
 20
3.7267529979
 30
0.0
 10
7.128003471
 20
3.7269248258
 30
0.0
 10
7.1285406892
 20
3.7270455855
 30
0.0
 10
7.1289960993
 20
3.7271664335
 30
0.0
 10
7.1293683468
 20
3.7272853994
 30
0.0
 10
7.1296627052
 20
3.727407416
 30
0.0
 10
7.1299032833
 20
3.7275379921
 30
0.0
 10
7.1300523495
 20
3.7276893246
 30
0.0
 10
7.1300523495
 20
3.727787576
 30
0.0
  0
SPLINE
  5
320
100
AcDbEntity
  8
0
100
AcDbSpline
 62
7
  6
CONTINUOUS
 70
0
 71
3
 72
42
 73
38
 74
0
 42
0.0000001
 43
0.0000001
 44
0.0000000001
 40
0.0
 40
0.0
 40
0.0
 40
0.0
 40
0.0970272367
 40
0.1931640635
 40
0.2874572509
 40
0.3790432242
 40
0.4670515489
 40
0.5506510587
 40
0.6290541693
 40
0.7015193725
 40
0.7353101095
 40
0.7673638638
 40
0.7976069445
 40
0.8259669677
 40
0.8523762342
 40
0.8767744649
 40
0.8991023684
 40
0.9193074657
 40
0.9373438586
 40
0.9531668252
 40
0.9602367414
 40
0.9667404832
 40
0.9726742372
 40
0.9780342101
 40
0.9828167928
 40
0.9870196207
 40
0.990640964
 40
0.9936792289
 40
0.9949792881
 40
0.996133117
 40
0.9971406455
 40
0.9980018948
 40
0.9987171373
 40
0.9992871125
 40
0.9997133412
 40
0.9998736664
 40
1.0
 40
1.0
 40
1.0
 40
1.0
 10
4.9350543478
 20
3.5507031073
 30
0.0
 10
5.0060482102
 20
3.5513465597
 30
0.0
 10
5.147384431
 20
3.5526275509
 30
0.0
 10
5.3577138741
 20
3.5545518561
 30
0.0
 10
5.5640616694
 20
3.556475878
 30
0.0
 10
5.7644614187
 20
3.558399218
 30
0.0
 10
5.9570360247
 20
3.560321778
 30
0.0
 10
6.1399639769
 20
3.5622431294
 30
0.0
 10
6.3115180683
 20
3.5641628879
 30
0.0
 10
6.446626958
 20
3.5657965218
 30
0.0
 10
6.5478223798
 20
3.5671133081
 30
0.0
 10
6.6181249808
 20
3.5680775601
 30
0.0
 10
6.684453431
 20
3.569041411
 30
0.0
 10
6.7466512398
 20
3.5700048638
 30
0.0
 10
6.8045717141
 20
3.5709678888
 30
0.0
 10
6.8580777237
 20
3.5719301629
 30
0.0
 10
6.9070432381
 20
3.5728916316
 30
0.0
 10
6.9513527147
 20
3.5738519651
 30
0.0
 10
6.9909011934
 20
3.5748106757
 30
0.0
 10
7.0208386916
 20
3.5756356061
 30
0.0
 10
7.0423384478
 20
3.5763032994
 30
0.0
 10
7.0566043116
 20
3.5767847551
 30
0.0
 10
7.0696182165
 20
3.5772657838
 30
0.0
 10
7.0813717959
 20
3.5777462667
 30
0.0
 10
7.0918576776
 20
3.5782260945
 30
0.0
 10
7.1010699445
 20
3.5787048426
 30
0.0
 10
7.1090039508
 20
3.5791822464
 30
0.0
 10
7.1148136663
 20
3.5795965111
 30
0.0
 10
7.118818199
 20
3.5799345934
 30
0.0
 10
7.1213396611
 20
3.580174415
 30
0.0
 10
7.1235384975
 20
3.5804136031
 30
0.0
 10
7.125414266
 20
3.5806520503
 30
0.0
 10
7.1269672979
 20
3.5808888808
 30
0.0
 10
7.128197353
 20
3.5811241995
 30
0.0
 10
7.1290195056
 20
3.5813309437
 30
0.0
 10
7.1295112311
 20
3.5815058992
 30
0.0
 10
7.1297020981
 20
3.5815945727
 30
0.0
 10
7.129782137
 20
3.5816408231
 30
0.0
  0
SPLINE
  5
321
100
AcDbEntity
  8
0
100
AcDbSpline
 62
7
  6
CONTINUOUS
 70
0
 71
3
 72
45
 73
41
 74
0
 42
0.0000001
 43
0.0000001
 44
0.0000000001
 40
0.0
 40
0.0
 40
0.0
 40
0.0
 40
0.0979836867
 40
0.195051763
 40
0.2902193398
 40
0.3825980818
 40
0.4712928512
 40
0.5554485162
 40
0.6342560273
 40
0.6714141553
 40
0.7069551813
 40
0.7407940719
 40
0.7728473813
 40
0.803039752
 40
0.8312984451
 40
0.8575535029
 40
0.8817440696
 40
0.9038111943
 40
0.923700332
 40
0.9413662503
 40
0.9493517566
 40
0.9567651048
 40
0.9636021445
 40
0.969859367
 40
0.9755332864
 40
0.9806204421
 40
0.9851174128
 40
0.989021228
 40
0.9923303763
 40
0.9950438416
 40
0.9971610387
 40
0.9979961718
 40
0.9986826512
 40
0.9989703652
 40
0.999221252
 40
0.9994355723
 40
0.9996137749
 40
0.9997566735
 40
0.9998658672
 40
1.0
 40
1.0
 40
1.0
 40
1.0
 10
4.9350543478
 20
3.571537576
 30
0.0
 10
5.006761785
 20
3.5721874959
 30
0.0
 10
5.1495065881
 20
3.5734812532
 30
0.0
 10
5.3618977453
 20
3.5754247899
 30
0.0
 10
5.5701866942
 20
3.5773680262
 30
0.0
 10
5.772347285
 20
3.5793105523
 30
0.0
 10
5.9664483179
 20
3.581252227
 30
0.0
 10
6.150616596
 20
3.5831927083
 30
0.0
 10
6.297068226
 20
3.5848388491
 30
0.0
 10
6.4079420398
 20
3.5861643274
 30
0.0
 10
6.4859069344
 20
3.5871386838
 30
0.0
 10
6.5601355131
 20
3.5881127385
 30
0.0
 10
6.6304492711
 20
3.5890865938
 30
0.0
 10
6.6966786953
 20
3.5900600715
 30
0.0
 10
6.7586641293
 20
3.5910330629
 30
0.0
 10
6.8162565098
 20
3.592005606
 30
0.0
 10
6.8693168444
 20
3.5929773743
 30
0.0
 10
6.9177173884
 20
3.5939481173
 30
0.0
 10
6.961341765
 20
3.594917798
 30
0.0
 10
6.9946607795
 20
3.5957497711
 30
0.0
 10
7.0188502593
 20
3.5964218167
 30
0.0
 10
7.0351165648
 20
3.5969085261
 30
0.0
 10
7.0501174073
 20
3.5973949507
 30
0.0
 10
7.0638445178
 20
3.5978810134
 30
0.0
 10
7.076290101
 20
3.5983665837
 30
0.0
 10
7.0874463703
 20
3.5988515019
 30
0.0
 10
7.0973058634
 20
3.5993354486
 30
0.0
 10
7.105862371
 20
3.5998182383
 30
0.0
 10
7.1131114464
 20
3.6002985934
 30
0.0
 10
7.1190495924
 20
3.6007764349
 30
0.0
 10
7.1231757852
 20
3.6011945864
 30
0.0
 10
7.1258161266
 20
3.6015434918
 30
0.0
 10
7.1271239172
 20
3.6017530108
 30
0.0
 10
7.1280040345
 20
3.6019248258
 30
0.0
 10
7.1285416369
 20
3.6020455776
 30
0.0
 10
7.1289973203
 20
3.6021664219
 30
0.0
 10
7.1293697106
 20
3.6022853763
 30
0.0
 10
7.1296640878
 20
3.60240741
 30
0.0
 10
7.1299045585
 20
3.6025379105
 30
0.0
 10
7.130053436
 20
3.6026894107
 30
0.0
 10
7.1300532003
 20
3.6027875769
 30
0.0
  0
SPLINE
  5
322
100
AcDbEntity
  8
0
100
AcDbSpline
 62
7
  6
CONTINUOUS
 70
0
 71
3
 72
42
 73
38
 74
0
 42
0.0000001
 43
0.0000001
 44
0.0000000001
 40
0.0
 40
0.0
 40
0.0
 40
0.0
 40
0.0001263336
 40
0.0002866588
 40
0.0007128875
 40
0.0012828627
 40
0.0019981052
 40
0.0028593544
 40
0.0038668829
 40
0.0050207119
 40
0.0063207712
 40
0.0093590363
 40
0.01298038
 40
0.0171832081
 40
0.0219657908
 40
0.027325764
 40
0.0332595185
 40
0.039763261
 40
0.0468331779
 40
0.0626561456
 40
0.0806925406
 40
0.1008976399
 40
0.1232255436
 40
0.1476237745
 40
0.1740330404
 40
0.2023930621
 40
0.2326361417
 40
0.2646898952
 40
0.2984806322
 40
0.3709458367
 40
0.449348948
 40
0.5329484579
 40
0.6209567822
 40
0.7125427544
 40
0.8068359385
 40
0.9029727628
 40
1.0
 40
1.0
 40
1.0
 40
1.0
 10
2.7403265589
 20
3.5405998602
 30
0.0
 10
2.7404065977
 20
3.5406461106
 30
0.0
 10
2.7405974648
 20
3.5407347841
 30
0.0
 10
2.7410891904
 20
3.5409097397
 30
0.0
 10
2.7419113429
 20
3.5411164838
 30
0.0
 10
2.7431413981
 20
3.5413518026
 30
0.0
 10
2.7446944299
 20
3.541588633
 30
0.0
 10
2.7465701982
 20
3.5418270802
 30
0.0
 10
2.7487690347
 20
3.5420662683
 30
0.0
 10
2.7512904968
 20
3.5423060899
 30
0.0
 10
2.7552950299
 20
3.5426441722
 30
0.0
 10
2.7611047458
 20
3.543058437
 30
0.0
 10
2.7690387527
 20
3.5435358408
 30
0.0
 10
2.7782510201
 20
3.5440145889
 30
0.0
 10
2.7887369022
 20
3.5444944167
 30
0.0
 10
2.8004904822
 20
3.5449748997
 30
0.0
 10
2.8135043881
 20
3.5454559284
 30
0.0
 10
2.8277702534
 20
3.5459373841
 30
0.0
 10
2.8492700113
 20
3.5466050775
 30
0.0
 10
2.8792075124
 20
3.547430008
 30
0.0
 10
2.9187559949
 20
3.5483887185
 30
0.0
 10
2.9630654746
 20
3.549349052
 30
0.0
 10
3.0120309907
 20
3.5503105208
 30
0.0
 10
3.0655370001
 20
3.5512727949
 30
0.0
 10
3.123457473
 20
3.5522358198
 30
0.0
 10
3.1856552796
 20
3.5531992726
 30
0.0
 10
3.2519837273
 20
3.5541631234
 30
0.0
 10
3.3222863269
 20
3.5551273753
 30
0.0
 10
3.4234817491
 20
3.5564441617
 30
0.0
 10
3.5585906402
 20
3.5580777956
 30
0.0
 10
3.730144733
 20
3.5599975541
 30
0.0
 10
3.9130726855
 20
3.5619189055
 30
0.0
 10
4.1056472905
 20
3.5638414655
 30
0.0
 10
4.3060470363
 20
3.5657648055
 30
0.0
 10
4.5123948266
 20
3.5676888273
 30
0.0
 10
4.7227242658
 20
3.5696131325
 30
0.0
 10
4.8640604851
 20
3.5708941236
 30
0.0
 10
4.9350543478
 20
3.571537576
 30
0.0
  0
SPLINE
  5
323
100
AcDbEntity
  8
0
100
AcDbSpline
 62
7
  6
CONTINUOUS
 70
0
 71
3
 72
42
 73
38
 74
0
 42
0.0000001
 43
0.0000001
 44
0.0000000001
 40
0.0
 40
0.0
 40
0.0
 40
0.0
 40
0.0970272366
 40
0.1931640629
 40
0.2874572507
 40
0.3790432244
 40
0.4670515495
 40
0.5506510594
 40
0.6290541702
 40
0.7015193732
 40
0.7353101096
 40
0.7673638628
 40
0.7976069423
 40
0.8259669644
 40
0.8523762306
 40
0.8767744614
 40
0.899102365
 40
0.9193074632
 40
0.9373438569
 40
0.9531668239
 40
0.9602367405
 40
0.9667404826
 40
0.9726742368
 40
0.9780342098
 40
0.9828167925
 40
0.9870196205
 40
0.990640964
 40
0.9936792289
 40
0.9949792882
 40
0.9961331171
 40
0.9971406456
 40
0.9980018948
 40
0.9987171373
 40
0.9992871125
 40
0.9997133412
 40
0.9998736664
 40
1.0
 40
1.0
 40
1.0
 40
1.0
 10
4.9350543478
 20
3.4257031073
 30
0.0
 10
5.0060482101
 20
3.4263465597
 30
0.0
 10
5.1473844305
 20
3.4276275509
 30
0.0
 10
5.3577138735
 20
3.4295518561
 30
0.0
 10
5.564061669
 20
3.431475878
 30
0.0
 10
5.7644614191
 20
3.433399218
 30
0.0
 10
5.9570360258
 20
3.435321778
 30
0.0
 10
6.1399639785
 20
3.4372431294
 30
0.0
 10
6.3115180698
 20
3.4391628879
 30
0.0
 10
6.446626959
 20
3.4407965218
 30
0.0
 10
6.5478223795
 20
3.4421133081
 30
0.0
 10
6.6181249785
 20
3.44307756
 30
0.0
 10
6.6844534261
 20
3.4440414109
 30
0.0
 10
6.7466512331
 20
3.4450048637
 30
0.0
 10
6.8045717065
 20
3.4459678887
 30
0.0
 10
6.858077716
 20
3.4469301628
 30
0.0
 10
6.9070432312
 20
3.4478916315
 30
0.0
 10
6.9513527091
 20
3.448851965
 30
0.0
 10
6.9909011893
 20
3.4498106755
 30
0.0
 10
7.0208386886
 20
3.450635606
 30
0.0
 10
7.0423384455
 20
3.4513032994
 30
0.0
 10
7.05660431
 20
3.451784755
 30
0.0
 10
7.0696182154
 20
3.4522657837
 30
0.0
 10
7.081371795
 20
3.4527462666
 30
0.0
 10
7.0918576768
 20
3.4532260945
 30
0.0
 10
7.1010699439
 20
3.4537048426
 30
0.0
 10
7.1090039505
 20
3.4541822464
 30
0.0
 10
7.1148136662
 20
3.4545965111
 30
0.0
 10
7.1188181991
 20
3.4549345934
 30
0.0
 10
7.1213396612
 20
3.455174415
 30
0.0
 10
7.1235384976
 20
3.4554136031
 30
0.0
 10
7.1254142659
 20
3.4556520503
 30
0.0
 10
7.1269672977
 20
3.4558888808
 30
0.0
 10
7.1281973528
 20
3.4561241995
 30
0.0
 10
7.1290195054
 20
3.4563309437
 30
0.0
 10
7.1295112309
 20
3.4565058992
 30
0.0
 10
7.129702098
 20
3.4565945727
 30
0.0
 10
7.1297821368
 20
3.4566408231
 30
0.0
  0
SPLINE
  5
324
100
AcDbEntity
  8
0
100
AcDbSpline
 62
7
  6
CONTINUOUS
 70
0
 71
3
 72
45
 73
41
 74
0
 42
0.0000001
 43
0.0000001
 44
0.0000000001
 40
0.0
 40
0.0
 40
0.0
 40
0.0
 40
0.0979851236
 40
0.1950514618
 40
0.2902192612
 40
0.382598526
 40
0.4712930718
 40
0.5554486248
 40
0.6342563405
 40
0.6714143127
 40
0.7069557518
 40
0.7407942736
 40
0.7728476309
 40
0.8030404995
 40
0.8312985339
 40
0.8575539047
 40
0.8817449386
 40
0.9038111855
 40
0.9237009314
 40
0.9413671237
 40
0.9493519579
 40
0.9567650426
 40
0.9636024291
 40
0.9698601809
 40
0.9755343787
 40
0.9806211429
 40
0.9851173826
 40
0.989021189
 40
0.992330852
 40
0.9950448638
 40
0.9971621487
 40
0.9979970096
 40
0.9986830659
 40
0.99897057
 40
0.9992212793
 40
0.9994354773
 40
0.9996136217
 40
0.9997565175
 40
0.9998657511
 40
1.0
 40
1.0
 40
1.0
 40
1.0
 10
4.9350543478
 20
3.446537576
 30
0.0
 10
5.0067628033
 20
3.4471875051
 30
0.0
 10
5.1495073197
 20
3.4484812598
 30
0.0
 10
5.3618983209
 20
3.4504247944
 30
0.0
 10
5.5701864467
 20
3.4523680259
 30
0.0
 10
5.7723473257
 20
3.4543105506
 30
0.0
 10
5.9664484057
 20
3.4562522235
 30
0.0
 10
6.1506165025
 20
3.4581927156
 30
0.0
 10
6.2970680185
 20
3.4598388384
 30
0.0
 10
6.4079421186
 20
3.4611643384
 30
0.0
 10
6.4859068958
 20
3.4621386678
 30
0.0
 10
6.5601355072
 20
3.4631127445
 30
0.0
 10
6.6304493622
 20
3.4640866053
 30
0.0
 10
6.6966786736
 20
3.4650600439
 30
0.0
 10
6.7586641894
 20
3.4660330838
 30
0.0
 10
6.8162566324
 20
3.467005615
 30
0.0
 10
6.8693168718
 20
3.4679773328
 30
0.0
 10
6.9177175363
 20
3.468948161
 30
0.0
 10
6.9613418968
 20
3.4699177984
 30
0.0
 10
6.9946610511
 20
3.4707497225
 30
0.0
 10
7.0188500336
 20
3.4714218301
 30
0.0
 10
7.0351159002
 20
3.4719085491
 30
0.0
 10
7.0501171846
 20
3.4723949597
 30
0.0
 10
7.0638451348
 20
3.4728810068
 30
0.0
 10
7.0762910179
 20
3.4733665531
 30
0.0
 10
7.0874466638
 20
3.4738514732
 30
0.0
 10
7.0973053198
 20
3.4743354912
 30
0.0
 10
7.1058616583
 20
3.4748182786
 30
0.0
 10
7.113111504
 20
3.4752986059
 30
0.0
 10
7.119050493
 20
3.4757764101
 30
0.0
 10
7.1231769572
 20
3.4761945117
 30
0.0
 10
7.1258168449
 20
3.4765434536
 30
0.0
 10
7.1271239609
 20
3.4767529979
 30
0.0
 10
7.128003471
 20
3.4769248258
 30
0.0
 10
7.1285406892
 20
3.4770455855
 30
0.0
 10
7.1289960993
 20
3.4771664335
 30
0.0
 10
7.1293683468
 20
3.4772853994
 30
0.0
 10
7.1296627052
 20
3.477407416
 30
0.0
 10
7.1299032833
 20
3.4775379921
 30
0.0
 10
7.1300523495
 20
3.4776893246
 30
0.0
 10
7.1300523495
 20
3.477787576
 30
0.0
  0
SPLINE
  5
325
100
AcDbEntity
  8
0
100
AcDbSpline
 62
7
  6
CONTINUOUS
 70
0
 71
3
 72
42
 73
38
 74
0
 42
0.0000001
 43
0.0000001
 44
0.0000000001
 40
0.0
 40
0.0
 40
0.0
 40
0.0
 40
0.0970272355
 40
0.1931640588
 40
0.287457246
 40
0.3790432204
 40
0.4670515457
 40
0.5506510558
 40
0.6290541667
 40
0.7015193702
 40
0.7353101063
 40
0.7673638589
 40
0.7976069377
 40
0.8259669587
 40
0.8523762246
 40
0.8767744557
 40
0.8991023594
 40
0.9193074589
 40
0.937343854
 40
0.9531668216
 40
0.9602367387
 40
0.9667404812
 40
0.9726742359
 40
0.978034209
 40
0.9828167917
 40
0.9870196199
 40
0.9906409636
 40
0.9936792288
 40
0.9949792882
 40
0.9961331171
 40
0.9971406457
 40
0.9980018948
 40
0.9987171372
 40
0.9992871124
 40
0.9997133411
 40
0.9998736664
 40
1.0
 40
1.0
 40
1.0
 40
1.0
 10
4.9350543478
 20
3.3007031073
 30
0.0
 10
5.0060482093
 20
3.3013465597
 30
0.0
 10
5.1473844266
 20
3.3026275508
 30
0.0
 10
5.3577138662
 20
3.304551856
 30
0.0
 10
5.5640616596
 20
3.3064758779
 30
0.0
 10
5.7644614099
 20
3.3083992179
 30
0.0
 10
5.9570360173
 20
3.3103217779
 30
0.0
 10
6.1399639705
 20
3.3122431293
 30
0.0
 10
6.3115180624
 20
3.3141628878
 30
0.0
 10
6.4466269518
 20
3.3157965217
 30
0.0
 10
6.5478223719
 20
3.317113308
 30
0.0
 10
6.6181249697
 20
3.3180775599
 30
0.0
 10
6.6844534157
 20
3.3190414107
 30
0.0
 10
6.7466512211
 20
3.3200048635
 30
0.0
 10
6.8045716936
 20
3.3209678884
 30
0.0
 10
6.8580777031
 20
3.3219301625
 30
0.0
 10
6.9070432195
 20
3.3228916313
 30
0.0
 10
6.9513526995
 20
3.3238519648
 30
0.0
 10
6.9909011822
 20
3.3248106753
 30
0.0
 10
7.0208386833
 20
3.3256356059
 30
0.0
 10
7.0423384414
 20
3.3263032992
 30
0.0
 10
7.0566043069
 20
3.3267847549
 30
0.0
 10
7.069618213
 20
3.3272657836
 30
0.0
 10
7.081371793
 20
3.3277462666
 30
0.0
 10
7.0918576751
 20
3.3282260944
 30
0.0
 10
7.1010699425
 20
3.3287048425
 30
0.0
 10
7.1090039496
 20
3.3291822463
 30
0.0
 10
7.1148136658
 20
3.3295965111
 30
0.0
 10
7.1188181989
 20
3.3299345934
 30
0.0
 10
7.1213396611
 20
3.330174415
 30
0.0
 10
7.1235384975
 20
3.3304136031
 30
0.0
 10
7.1254142657
 20
3.3306520503
 30
0.0
 10
7.1269672974
 20
3.3308888808
 30
0.0
 10
7.1281973526
 20
3.3311241995
 30
0.0
 10
7.1290195052
 20
3.3313309437
 30
0.0
 10
7.1295112307
 20
3.3315058992
 30
0.0
 10
7.1297020978
 20
3.3315945727
 30
0.0
 10
7.1297821367
 20
3.3316408231
 30
0.0
  0
SPLINE
  5
326
100
AcDbEntity
  8
0
100
AcDbSpline
 62
7
  6
CONTINUOUS
 70
0
 71
3
 72
45
 73
41
 74
0
 42
0.0000001
 43
0.0000001
 44
0.0000000001
 40
0.0
 40
0.0
 40
0.0
 40
0.0
 40
0.0979851236
 40
0.1950514618
 40
0.2902192612
 40
0.382598526
 40
0.4712930718
 40
0.5554486248
 40
0.6342563405
 40
0.6714143127
 40
0.7069557518
 40
0.7407942736
 40
0.7728476309
 40
0.8030404995
 40
0.8312985339
 40
0.8575539047
 40
0.8817449386
 40
0.9038111855
 40
0.9237009314
 40
0.9413671237
 40
0.9493519579
 40
0.9567650426
 40
0.9636024291
 40
0.9698601809
 40
0.9755343787
 40
0.9806211429
 40
0.9851173826
 40
0.989021189
 40
0.992330852
 40
0.9950448638
 40
0.9971621487
 40
0.9979970096
 40
0.9986830659
 40
0.99897057
 40
0.9992212793
 40
0.9994354773
 40
0.9996136217
 40
0.9997565175
 40
0.9998657511
 40
1.0
 40
1.0
 40
1.0
 40
1.0
 10
4.9350543478
 20
3.321537576
 30
0.0
 10
5.0067628033
 20
3.3221875051
 30
0.0
 10
5.1495073197
 20
3.3234812598
 30
0.0
 10
5.3618983209
 20
3.3254247944
 30
0.0
 10
5.5701864467
 20
3.3273680259
 30
0.0
 10
5.7723473257
 20
3.3293105506
 30
0.0
 10
5.9664484057
 20
3.3312522235
 30
0.0
 10
6.1506165025
 20
3.3331927156
 30
0.0
 10
6.2970680185
 20
3.3348388384
 30
0.0
 10
6.4079421186
 20
3.3361643384
 30
0.0
 10
6.4859068958
 20
3.3371386678
 30
0.0
 10
6.5601355072
 20
3.3381127445
 30
0.0
 10
6.6304493622
 20
3.3390866053
 30
0.0
 10
6.6966786736
 20
3.3400600439
 30
0.0
 10
6.7586641894
 20
3.3410330838
 30
0.0
 10
6.8162566324
 20
3.342005615
 30
0.0
 10
6.8693168718
 20
3.3429773328
 30
0.0
 10
6.9177175363
 20
3.343948161
 30
0.0
 10
6.9613418968
 20
3.3449177984
 30
0.0
 10
6.9946610511
 20
3.3457497225
 30
0.0
 10
7.0188500336
 20
3.3464218301
 30
0.0
 10
7.0351159002
 20
3.3469085491
 30
0.0
 10
7.0501171846
 20
3.3473949597
 30
0.0
 10
7.0638451348
 20
3.3478810068
 30
0.0
 10
7.0762910179
 20
3.3483665531
 30
0.0
 10
7.0874466638
 20
3.3488514732
 30
0.0
 10
7.0973053198
 20
3.3493354912
 30
0.0
 10
7.1058616583
 20
3.3498182786
 30
0.0
 10
7.113111504
 20
3.3502986059
 30
0.0
 10
7.119050493
 20
3.3507764101
 30
0.0
 10
7.1231769572
 20
3.3511945117
 30
0.0
 10
7.1258168449
 20
3.3515434536
 30
0.0
 10
7.1271239609
 20
3.3517529979
 30
0.0
 10
7.128003471
 20
3.3519248258
 30
0.0
 10
7.1285406892
 20
3.3520455855
 30
0.0
 10
7.1289960993
 20
3.3521664335
 30
0.0
 10
7.1293683468
 20
3.3522853994
 30
0.0
 10
7.1296627052
 20
3.352407416
 30
0.0
 10
7.1299032833
 20
3.3525379921
 30
0.0
 10
7.1300523495
 20
3.3526893246
 30
0.0
 10
7.1300523495
 20
3.352787576
 30
0.0
  0
SPLINE
  5
327
100
AcDbEntity
  8
0
100
AcDbSpline
 62
7
  6
CONTINUOUS
 70
0
 71
3
 72
42
 73
38
 74
0
 42
0.0000001
 43
0.0000001
 44
0.0000000001
 40
0.0
 40
0.0
 40
0.0
 40
0.0
 40
0.097027236
 40
0.1931640573
 40
0.2874572423
 40
0.3790432165
 40
0.4670515418
 40
0.5506510519
 40
0.6290541629
 40
0.7015193665
 40
0.7353101026
 40
0.7673638556
 40
0.7976069346
 40
0.825966955
 40
0.8523762202
 40
0.8767744506
 40
0.8991023538
 40
0.9193074544
 40
0.9373438508
 40
0.9531668192
 40
0.9602367367
 40
0.9667404798
 40
0.9726742348
 40
0.9780342081
 40
0.9828167908
 40
0.9870196191
 40
0.9906409632
 40
0.9936792287
 40
0.9949792881
 40
0.9961331172
 40
0.9971406457
 40
0.9980018948
 40
0.9987171372
 40
0.9992871124
 40
0.9997133411
 40
0.9998736663
 40
1.0
 40
1.0
 40
1.0
 40
1.0
 10
4.9350543478
 20
3.1757031073
 30
0.0
 10
5.0060482096
 20
3.1763465597
 30
0.0
 10
5.1473844259
 20
3.1776275508
 30
0.0
 10
5.3577138627
 20
3.179551856
 30
0.0
 10
5.5640616529
 20
3.1814758778
 30
0.0
 10
5.7644614014
 20
3.1833992178
 30
0.0
 10
5.9570360087
 20
3.1853217779
 30
0.0
 10
6.1399639619
 20
3.1872431293
 30
0.0
 10
6.3115180539
 20
3.1891628877
 30
0.0
 10
6.4466269435
 20
3.1907965216
 30
0.0
 10
6.547822364
 20
3.1921133079
 30
0.0
 10
6.6181249622
 20
3.1930775598
 30
0.0
 10
6.6844534081
 20
3.1940414106
 30
0.0
 10
6.7466512128
 20
3.1950048634
 30
0.0
 10
6.8045716839
 20
3.1959678883
 30
0.0
 10
6.858077692
 20
3.1969301623
 30
0.0
 10
6.9070432084
 20
3.1978916311
 30
0.0
 10
6.9513526897
 20
3.1988519646
 30
0.0
 10
6.9909011747
 20
3.1998106751
 30
0.0
 10
7.0208386777
 20
3.2006356057
 30
0.0
 10
7.042338437
 20
3.2013032991
 30
0.0
 10
7.0566043035
 20
3.2017847548
 30
0.0
 10
7.0696182103
 20
3.2022657835
 30
0.0
 10
7.0813717907
 20
3.2027462664
 30
0.0
 10
7.091857673
 20
3.2032260944
 30
0.0
 10
7.1010699409
 20
3.2037048424
 30
0.0
 10
7.1090039485
 20
3.2041822463
 30
0.0
 10
7.1148136652
 20
3.204596511
 30
0.0
 10
7.1188181986
 20
3.2049345933
 30
0.0
 10
7.1213396609
 20
3.205174415
 30
0.0
 10
7.1235384973
 20
3.2054136031
 30
0.0
 10
7.1254142655
 20
3.2056520503
 30
0.0
 10
7.1269672972
 20
3.2058888808
 30
0.0
 10
7.1281973523
 20
3.2061241995
 30
0.0
 10
7.1290195049
 20
3.2063309437
 30
0.0
 10
7.1295112306
 20
3.2065058992
 30
0.0
 10
7.1297020977
 20
3.2065945727
 30
0.0
 10
7.1297821365
 20
3.2066408231
 30
0.0
  0
SPLINE
  5
328
100
AcDbEntity
  8
0
100
AcDbSpline
 62
7
  6
CONTINUOUS
 70
0
 71
3
 72
12
 73
8
 74
0
 42
0.0000001
 43
0.0000001
 44
0.0000000001
 40
0.0
 40
0.0
 40
0.0
 40
0.0
 40
0.0591271397
 40
0.1364152293
 40
0.3473867177
 40
0.6350137929
 40
1.0
 40
1.0
 40
1.0
 40
1.0
 10
2.8170367158
 20
3.5848939312
 30
0.0
 10
2.817134822
 20
3.5849506182
 30
0.0
 10
2.8173744277
 20
3.5850578674
 30
0.0
 10
2.8180060398
 20
3.5852691155
 30
0.0
 10
2.819083627
 20
3.5855164231
 30
0.0
 10
2.8207142638
 20
3.5857983081
 30
0.0
 10
2.8219537755
 20
3.5859672526
 30
0.0
 10
2.8226477164
 20
3.5860546836
 30
0.0
  0
SPLINE
  5
329
100
AcDbEntity
  8
0
100
AcDbSpline
 62
7
  6
CONTINUOUS
 70
0
 71
3
 72
70
 73
66
 74
0
 42
0.0000001
 43
0.0000001
 44
0.0000000001
 40
0.0
 40
0.0
 40
0.0
 40
0.0
 40
0.0010435672
 40
0.0023719057
 40
0.0039844789
 40
0.0058805392
 40
0.008059238
 40
0.0105196731
 40
0.0162806417
 40
0.0231493227
 40
0.0311102021
 40
0.0401463357
 40
0.0502358329
 40
0.0613556669
 40
0.0734814639
 40
0.1006340857
 40
0.131445747
 40
0.1656327903
 40
0.2028815479
 40
0.2428510018
 40
0.2851736014
 40
0.3294609973
 40
0.3753071999
 40
0.4222909592
 40
0.4699812071
 40
0.5179403441
 40
0.5657280023
 40
0.6129058479
 40
0.6590406053
 40
0.7037089024
 40
0.7465011835
 40
0.7870240849
 40
0.8249059609
 40
0.8427471197
 40
0.8597997234
 40
0.876024171
 40
0.8913842469
 40
0.9058441276
 40
0.919370138
 40
0.9319323863
 40
0.9435014036
 40
0.9540501574
 40
0.9635557119
 40
0.9719955848
 40
0.9758094667
 40
0.9793500045
 40
0.9826153208
 40
0.9856035449
 40
0.988312815
 40
0.9907413326
 40
0.9928878756
 40
0.9947516074
 40
0.9963317545
 40
0.997627652
 40
0.9981688685
 40
0.9986388983
 40
0.999037787
 40
0.9993657381
 40
0.9995032615
 40
0.9996232693
 40
0.9997259132
 40
0.9998114369
 40
0.9998802657
 40
0.9999332278
 40
1.0
 40
1.0
 40
1.0
 40
1.0
 10
2.8226477164
 20
3.5860546836
 30
0.0
 10
2.8241081612
 20
3.5862386879
 30
0.0
 10
2.8274362846
 20
3.5865867698
 30
0.0
 10
2.8330372783
 20
3.5870533856
 30
0.0
 10
2.8398440491
 20
3.5875227229
 30
0.0
 10
2.8478524605
 20
3.5879941708
 30
0.0
 10
2.8570585397
 20
3.5884668788
 30
0.0
 10
2.8717131648
 20
3.5891338491
 30
0.0
 10
2.8929828734
 20
3.5899501688
 30
0.0
 10
2.9220114386
 20
3.5908910153
 30
0.0
 10
2.9556617527
 20
3.591834659
 30
0.0
 10
2.9938566323
 20
3.5927804047
 30
0.0
 10
3.036508513
 20
3.5937276747
 30
0.0
 10
3.08351942
 20
3.5946761202
 30
0.0
 10
3.1545958951
 20
3.5959917304
 30
0.0
 10
3.253447373
 20
3.5976138302
 30
0.0
 10
3.3834166348
 20
3.5994999565
 30
0.0
 10
3.527628169
 20
3.6013896359
 30
0.0
 10
3.6847580811
 20
3.6032820586
 30
0.0
 10
3.8533642489
 20
3.6051762588
 30
0.0
 10
4.0318992511
 20
3.6070718305
 30
0.0
 10
4.2187240607
 20
3.6089683638
 30
0.0
 10
4.4121239292
 20
3.6108655458
 30
0.0
 10
4.6103238674
 20
3.6127631977
 30
0.0
 10
4.81150431
 20
3.6146611108
 30
0.0
 10
5.0138187312
 20
3.6165591131
 30
0.0
 10
5.2154103585
 20
3.618457067
 30
0.0
 10
5.4144285174
 20
3.6203547798
 30
0.0
 10
5.6090465013
 20
3.6222520914
 30
0.0
 10
5.7974781866
 20
3.6241488005
 30
0.0
 10
5.9779937337
 20
3.6260445726
 30
0.0
 10
6.1489362383
 20
3.627939193
 30
0.0
 10
6.2846852367
 20
3.6295470206
 30
0.0
 10
6.3873298436
 20
3.6308415518
 30
0.0
 10
6.4594277246
 20
3.6317927551
 30
0.0
 10
6.5280256288
 20
3.6327437799
 30
0.0
 10
6.5929660353
 20
3.6336944746
 30
0.0
 10
6.6540997695
 20
3.6346448231
 30
0.0
 10
6.7112865619
 20
3.6355948296
 30
0.0
 10
6.7643950927
 20
3.636544214
 30
0.0
 10
6.8133033816
 20
3.6374928986
 30
0.0
 10
6.8578992286
 20
3.6384407336
 30
0.0
 10
6.8980802306
 20
3.6393872908
 30
0.0
 10
6.9287618696
 20
3.6401995489
 30
0.0
 10
6.9510306601
 20
3.6408557636
 30
0.0
 10
6.9660026728
 20
3.6413309194
 30
0.0
 10
6.9798094425
 20
3.6418057759
 30
0.0
 10
6.9924429403
 20
3.6422802748
 30
0.0
 10
7.0038952119
 20
3.6427542912
 30
0.0
 10
7.0141591707
 20
3.6432277007
 30
0.0
 10
7.0232290874
 20
3.6437002891
 30
0.0
 10
7.031100618
 20
3.6441714386
 30
0.0
 10
7.0377698681
 20
3.6446408925
 30
0.0
 10
7.0425730246
 20
3.6450497043
 30
0.0
 10
7.0458100771
 20
3.6453853124
 30
0.0
 10
7.0477852276
 20
3.6456209981
 30
0.0
 10
7.0494571729
 20
3.6458558696
 30
0.0
 10
7.0506594277
 20
3.646060394
 30
0.0
 10
7.0514681981
 20
3.6462281197
 30
0.0
 10
7.0519623578
 20
3.6463460436
 30
0.0
 10
7.0523812179
 20
3.6464640275
 30
0.0
 10
7.0527238375
 20
3.6465803368
 30
0.0
 10
7.0529943445
 20
3.6466993817
 30
0.0
 10
7.053218396
 20
3.6468286767
 30
0.0
 10
7.0533521279
 20
3.6469761573
 30
0.0
 10
7.0533520718
 20
3.6470703419
 30
0.0
  0
SPLINE
  5
32A
100
AcDbEntity
  8
0
100
AcDbSpline
 62
7
  6
CONTINUOUS
 70
0
 71
3
 72
42
 73
38
 74
0
 42
0.0000001
 43
0.0000001
 44
0.0000000001
 40
0.0
 40
0.0
 40
0.0
 40
0.0
 40
0.0970272363
 40
0.1931640578
 40
0.2874572417
 40
0.3790432149
 40
0.4670515395
 40
0.5506510493
 40
0.6290541604
 40
0.7015193641
 40
0.7353101006
 40
0.767363854
 40
0.7976069336
 40
0.8259669545
 40
0.8523762199
 40
0.8767744503
 40
0.8991023534
 40
0.9193074539
 40
0.9373438502
 40
0.9531668185
 40
0.9602367361
 40
0.9667404792
 40
0.9726742343
 40
0.9780342078
 40
0.9828167905
 40
0.987019619
 40
0.990640963
 40
0.9936792285
 40
0.994979288
 40
0.9961331171
 40
0.9971406456
 40
0.9980018947
 40
0.9987171372
 40
0.9992871124
 40
0.9997133411
 40
0.9998736663
 40
1.0
 40
1.0
 40
1.0
 40
1.0
 10
4.9350543478
 20
3.0507031073
 30
0.0
 10
5.0060482099
 20
3.0513465597
 30
0.0
 10
5.1473844264
 20
3.0526275508
 30
0.0
 10
5.3577138629
 20
3.054551856
 30
0.0
 10
5.5640616516
 20
3.0564758778
 30
0.0
 10
5.7644613982
 20
3.0583992178
 30
0.0
 10
5.957036004
 20
3.0603217778
 30
0.0
 10
6.1399639565
 20
3.0622431292
 30
0.0
 10
6.3115180485
 20
3.0641628877
 30
0.0
 10
6.4466269384
 20
3.0657965215
 30
0.0
 10
6.5478223596
 20
3.0671133079
 30
0.0
 10
6.6181249588
 20
3.0680775598
 30
0.0
 10
6.6844534059
 20
3.0690414106
 30
0.0
 10
6.7466512115
 20
3.0700048634
 30
0.0
 10
6.8045716831
 20
3.0709678882
 30
0.0
 10
6.8580776913
 20
3.0719301623
 30
0.0
 10
6.9070432075
 20
3.0728916311
 30
0.0
 10
6.9513526886
 20
3.0738519646
 30
0.0
 10
6.9909011734
 20
3.0748106751
 30
0.0
 10
7.0208386763
 20
3.0756356057
 30
0.0
 10
7.0423384357
 20
3.0763032991
 30
0.0
 10
7.0566043023
 20
3.0767847547
 30
0.0
 10
7.0696182093
 20
3.0772657835
 30
0.0
 10
7.0813717899
 20
3.0777462664
 30
0.0
 10
7.0918576725
 20
3.0782260943
 30
0.0
 10
7.1010699404
 20
3.0787048424
 30
0.0
 10
7.1090039482
 20
3.0791822462
 30
0.0
 10
7.1148136649
 20
3.079596511
 30
0.0
 10
7.1188181984
 20
3.0799345933
 30
0.0
 10
7.1213396607
 20
3.0801744149
 30
0.0
 10
7.1235384972
 20
3.0804136031
 30
0.0
 10
7.1254142655
 20
3.0806520503
 30
0.0
 10
7.1269672972
 20
3.0808888807
 30
0.0
 10
7.1281973523
 20
3.0811241995
 30
0.0
 10
7.1290195049
 20
3.0813309437
 30
0.0
 10
7.1295112306
 20
3.0815058992
 30
0.0
 10
7.1297020977
 20
3.0815945727
 30
0.0
 10
7.1297821365
 20
3.0816408231
 30
0.0
  0
SPLINE
  5
32B
100
AcDbEntity
  8
0
100
AcDbSpline
 62
7
  6
CONTINUOUS
 70
0
 71
3
 72
45
 73
41
 74
0
 42
0.0000001
 43
0.0000001
 44
0.0000000001
 40
0.0
 40
0.0
 40
0.0
 40
0.0
 40
0.0979851236
 40
0.1950514618
 40
0.2902192612
 40
0.382598526
 40
0.4712930718
 40
0.5554486248
 40
0.6342563405
 40
0.6714143127
 40
0.7069557518
 40
0.7407942736
 40
0.7728476309
 40
0.8030404995
 40
0.8312985339
 40
0.8575539047
 40
0.8817449386
 40
0.9038111855
 40
0.9237009314
 40
0.9413671237
 40
0.9493519579
 40
0.9567650426
 40
0.9636024291
 40
0.9698601809
 40
0.9755343787
 40
0.9806211429
 40
0.9851173826
 40
0.989021189
 40
0.992330852
 40
0.9950448638
 40
0.9971621487
 40
0.9979970096
 40
0.9986830659
 40
0.99897057
 40
0.9992212793
 40
0.9994354773
 40
0.9996136217
 40
0.9997565175
 40
0.9998657511
 40
1.0
 40
1.0
 40
1.0
 40
1.0
 10
4.9350543478
 20
3.071537576
 30
0.0
 10
5.0067628033
 20
3.0721875051
 30
0.0
 10
5.1495073197
 20
3.0734812598
 30
0.0
 10
5.3618983209
 20
3.0754247944
 30
0.0
 10
5.5701864467
 20
3.0773680259
 30
0.0
 10
5.7723473257
 20
3.0793105506
 30
0.0
 10
5.9664484057
 20
3.0812522235
 30
0.0
 10
6.1506165025
 20
3.0831927156
 30
0.0
 10
6.2970680185
 20
3.0848388384
 30
0.0
 10
6.4079421186
 20
3.0861643384
 30
0.0
 10
6.4859068958
 20
3.0871386678
 30
0.0
 10
6.5601355072
 20
3.0881127445
 30
0.0
 10
6.6304493622
 20
3.0890866053
 30
0.0
 10
6.6966786736
 20
3.0900600439
 30
0.0
 10
6.7586641894
 20
3.0910330838
 30
0.0
 10
6.8162566324
 20
3.092005615
 30
0.0
 10
6.8693168718
 20
3.0929773328
 30
0.0
 10
6.9177175363
 20
3.093948161
 30
0.0
 10
6.9613418968
 20
3.0949177984
 30
0.0
 10
6.9946610511
 20
3.0957497225
 30
0.0
 10
7.0188500336
 20
3.0964218301
 30
0.0
 10
7.0351159002
 20
3.0969085491
 30
0.0
 10
7.0501171846
 20
3.0973949597
 30
0.0
 10
7.0638451348
 20
3.0978810068
 30
0.0
 10
7.0762910179
 20
3.0983665531
 30
0.0
 10
7.0874466638
 20
3.0988514732
 30
0.0
 10
7.0973053198
 20
3.0993354912
 30
0.0
 10
7.1058616583
 20
3.0998182786
 30
0.0
 10
7.113111504
 20
3.1002986059
 30
0.0
 10
7.119050493
 20
3.1007764101
 30
0.0
 10
7.1231769572
 20
3.1011945117
 30
0.0
 10
7.1258168449
 20
3.1015434536
 30
0.0
 10
7.1271239609
 20
3.1017529979
 30
0.0
 10
7.128003471
 20
3.1019248258
 30
0.0
 10
7.1285406892
 20
3.1020455855
 30
0.0
 10
7.1289960993
 20
3.1021664335
 30
0.0
 10
7.1293683468
 20
3.1022853994
 30
0.0
 10
7.1296627052
 20
3.102407416
 30
0.0
 10
7.1299032833
 20
3.1025379921
 30
0.0
 10
7.1300523495
 20
3.1026893246
 30
0.0
 10
7.1300523495
 20
3.102787576
 30
0.0
  0
SPLINE
  5
32C
100
AcDbEntity
  8
0
100
AcDbSpline
 62
7
  6
CONTINUOUS
 70
0
 71
3
 72
42
 73
38
 74
0
 42
0.0000001
 43
0.0000001
 44
0.0000000001
 40
0.0
 40
0.0
 40
0.0
 40
0.0
 40
0.0970272362
 40
0.1931640586
 40
0.2874572427
 40
0.3790432145
 40
0.4670515381
 40
0.5506510475
 40
0.6290541583
 40
0.7015193621
 40
0.7353100987
 40
0.7673638525
 40
0.7976069326
 40
0.8259669543
 40
0.8523762205
 40
0.8767744516
 40
0.8991023551
 40
0.9193074549
 40
0.9373438505
 40
0.9531668185
 40
0.960236736
 40
0.9667404791
 40
0.9726742342
 40
0.9780342077
 40
0.9828167905
 40
0.987019619
 40
0.990640963
 40
0.9936792285
 40
0.994979288
 40
0.996133117
 40
0.9971406456
 40
0.9980018947
 40
0.9987171372
 40
0.9992871124
 40
0.9997133411
 40
0.9998736663
 40
1.0
 40
1.0
 40
1.0
 40
1.0
 10
4.9350543478
 20
2.9257031073
 30
0.0
 10
5.0060482098
 20
2.9263465597
 30
0.0
 10
5.147384427
 20
2.9276275508
 30
0.0
 10
5.3577138641
 20
2.929551856
 30
0.0
 10
5.5640616527
 20
2.9314758778
 30
0.0
 10
5.7644613976
 20
2.9333992178
 30
0.0
 10
5.9570360013
 20
2.9353217778
 30
0.0
 10
6.1399639526
 20
2.9372431292
 30
0.0
 10
6.3115180441
 20
2.9391628876
 30
0.0
 10
6.4466269341
 20
2.9407965215
 30
0.0
 10
6.5478223557
 20
2.9421133078
 30
0.0
 10
6.6181249557
 20
2.9430775597
 30
0.0
 10
6.6844534039
 20
2.9440414105
 30
0.0
 10
6.746651211
 20
2.9450048634
 30
0.0
 10
6.8045716843
 20
2.9459678883
 30
0.0
 10
6.8580776939
 20
2.9469301623
 30
0.0
 10
6.9070432104
 20
2.9478916311
 30
0.0
 10
6.9513526908
 20
2.9488519646
 30
0.0
 10
6.9909011744
 20
2.9498106751
 30
0.0
 10
7.0208386765
 20
2.9506356057
 30
0.0
 10
7.0423384356
 20
2.9513032991
 30
0.0
 10
7.0566043021
 20
2.9517847547
 30
0.0
 10
7.0696182091
 20
2.9522657835
 30
0.0
 10
7.0813717898
 20
2.9527462664
 30
0.0
 10
7.0918576724
 20
2.9532260943
 30
0.0
 10
7.1010699404
 20
2.9537048424
 30
0.0
 10
7.1090039481
 20
2.9541822462
 30
0.0
 10
7.1148136648
 20
2.954596511
 30
0.0
 10
7.1188181983
 20
2.9549345933
 30
0.0
 10
7.1213396606
 20
2.9551744149
 30
0.0
 10
7.1235384971
 20
2.955413603
 30
0.0
 10
7.1254142655
 20
2.9556520503
 30
0.0
 10
7.1269672972
 20
2.9558888807
 30
0.0
 10
7.1281973524
 20
2.9561241995
 30
0.0
 10
7.129019505
 20
2.9563309437
 30
0.0
 10
7.1295112306
 20
2.9565058992
 30
0.0
 10
7.1297020977
 20
2.9565945727
 30
0.0
 10
7.1297821366
 20
2.9566408231
 30
0.0
  0
SPLINE
  5
32D
100
AcDbEntity
  8
0
100
AcDbSpline
 62
7
  6
CONTINUOUS
 70
0
 71
3
 72
45
 73
41
 74
0
 42
0.0000001
 43
0.0000001
 44
0.0000000001
 40
0.0
 40
0.0
 40
0.0
 40
0.0
 40
0.0979851236
 40
0.1950514618
 40
0.2902192612
 40
0.382598526
 40
0.4712930718
 40
0.5554486248
 40
0.6342563405
 40
0.6714143127
 40
0.7069557518
 40
0.7407942736
 40
0.7728476309
 40
0.8030404995
 40
0.8312985339
 40
0.8575539047
 40
0.8817449386
 40
0.9038111855
 40
0.9237009314
 40
0.9413671237
 40
0.9493519579
 40
0.9567650426
 40
0.9636024291
 40
0.9698601809
 40
0.9755343787
 40
0.9806211429
 40
0.9851173826
 40
0.989021189
 40
0.992330852
 40
0.9950448638
 40
0.9971621487
 40
0.9979970096
 40
0.9986830659
 40
0.99897057
 40
0.9992212793
 40
0.9994354773
 40
0.9996136217
 40
0.9997565175
 40
0.9998657511
 40
1.0
 40
1.0
 40
1.0
 40
1.0
 10
4.9350543478
 20
2.946537576
 30
0.0
 10
5.0067628033
 20
2.9471875051
 30
0.0
 10
5.1495073197
 20
2.9484812598
 30
0.0
 10
5.3618983209
 20
2.9504247944
 30
0.0
 10
5.5701864467
 20
2.9523680259
 30
0.0
 10
5.7723473257
 20
2.9543105506
 30
0.0
 10
5.9664484057
 20
2.9562522235
 30
0.0
 10
6.1506165025
 20
2.9581927156
 30
0.0
 10
6.2970680185
 20
2.9598388384
 30
0.0
 10
6.4079421186
 20
2.9611643384
 30
0.0
 10
6.4859068958
 20
2.9621386678
 30
0.0
 10
6.5601355072
 20
2.9631127445
 30
0.0
 10
6.6304493622
 20
2.9640866053
 30
0.0
 10
6.6966786736
 20
2.9650600439
 30
0.0
 10
6.7586641894
 20
2.9660330838
 30
0.0
 10
6.8162566324
 20
2.967005615
 30
0.0
 10
6.8693168718
 20
2.9679773328
 30
0.0
 10
6.9177175363
 20
2.968948161
 30
0.0
 10
6.9613418968
 20
2.9699177984
 30
0.0
 10
6.9946610511
 20
2.9707497225
 30
0.0
 10
7.0188500336
 20
2.9714218301
 30
0.0
 10
7.0351159002
 20
2.9719085491
 30
0.0
 10
7.0501171846
 20
2.9723949597
 30
0.0
 10
7.0638451348
 20
2.9728810068
 30
0.0
 10
7.0762910179
 20
2.9733665531
 30
0.0
 10
7.0874466638
 20
2.9738514732
 30
0.0
 10
7.0973053198
 20
2.9743354912
 30
0.0
 10
7.1058616583
 20
2.9748182786
 30
0.0
 10
7.113111504
 20
2.9752986059
 30
0.0
 10
7.119050493
 20
2.9757764101
 30
0.0
 10
7.1231769572
 20
2.9761945117
 30
0.0
 10
7.1258168449
 20
2.9765434536
 30
0.0
 10
7.1271239609
 20
2.9767529979
 30
0.0
 10
7.128003471
 20
2.9769248258
 30
0.0
 10
7.1285406892
 20
2.9770455855
 30
0.0
 10
7.1289960993
 20
2.9771664335
 30
0.0
 10
7.1293683468
 20
2.9772853994
 30
0.0
 10
7.1296627052
 20
2.977407416
 30
0.0
 10
7.1299032833
 20
2.9775379921
 30
0.0
 10
7.1300523495
 20
2.9776893246
 30
0.0
 10
7.1300523495
 20
2.977787576
 30
0.0
  0
SPLINE
  5
32E
100
AcDbEntity
  8
0
100
AcDbSpline
 62
7
  6
CONTINUOUS
 70
0
 71
3
 72
45
 73
41
 74
0
 42
0.0000001
 43
0.0000001
 44
0.0000000001
 40
0.0
 40
0.0
 40
0.0
 40
0.0
 40
0.0001342489
 40
0.0002434826
 40
0.0003863784
 40
0.0005645228
 40
0.0007787208
 40
0.0010294301
 40
0.0013169343
 40
0.0020029905
 40
0.0028378513
 40
0.0049551362
 40
0.0076691482
 40
0.0109788116
 40
0.0148826182
 40
0.019378858
 40
0.0244656221
 40
0.0301398202
 40
0.0363975724
 40
0.0432349593
 40
0.0506480445
 40
0.0586328788
 40
0.076299072
 40
0.096188819
 40
0.1182550659
 40
0.1424460995
 40
0.1687014699
 40
0.1969595033
 40
0.227152371
 40
0.2592057276
 40
0.2930442485
 40
0.3285856871
 40
0.3657436588
 40
0.4445513741
 40
0.5287069274
 40
0.6174014742
 40
0.7097807411
 40
0.8049485421
 40
0.902014878
 40
1.0
 40
1.0
 40
1.0
 40
1.0
 10
2.7400563461
 20
3.6444531073
 30
0.0
 10
2.7400563462
 20
3.6445513588
 30
0.0
 10
2.7402054124
 20
3.6447026912
 30
0.0
 10
2.7404459906
 20
3.6448332673
 30
0.0
 10
2.7407403491
 20
3.6449552839
 30
0.0
 10
2.7411125966
 20
3.6450742499
 30
0.0
 10
2.7415680068
 20
3.6451950978
 30
0.0
 10
2.742105225
 20
3.6453158575
 30
0.0
 10
2.7429847351
 20
3.6454876855
 30
0.0
 10
2.744291851
 20
3.6456972297
 30
0.0
 10
2.7469317386
 20
3.6460461717
 30
0.0
 10
2.7510582029
 20
3.6464642733
 30
0.0
 10
2.7569971922
 20
3.6469420774
 30
0.0
 10
2.7642470386
 20
3.6474224048
 30
0.0
 10
2.7728033776
 20
3.6479051922
 30
0.0
 10
2.7826620338
 20
3.6483892102
 30
0.0
 10
2.7938176799
 20
3.6488741304
 30
0.0
 10
2.8062635634
 20
3.6493596767
 30
0.0
 10
2.8199915144
 20
3.6498457238
 30
0.0
 10
2.8349927998
 20
3.6503321344
 30
0.0
 10
2.8512586671
 20
3.6508188534
 30
0.0
 10
2.8754476506
 20
3.651490961
 30
0.0
 10
2.9087668065
 20
3.6523228851
 30
0.0
 10
2.9523911684
 20
3.6532925225
 30
0.0
 10
3.0007918335
 20
3.6542633507
 30
0.0
 10
3.0538520725
 20
3.6552350685
 30
0.0
 10
3.1114445141
 20
3.6562075996
 30
0.0
 10
3.1734300283
 20
3.6571806395
 30
0.0
 10
3.2396593378
 20
3.6581540781
 30
0.0
 10
3.3099731909
 20
3.6591279389
 30
0.0
 10
3.3842018008
 20
3.6601020155
 30
0.0
 10
3.4621665766
 20
3.6610763449
 30
0.0
 10
3.5730406758
 20
3.6624018449
 30
0.0
 10
3.7194921913
 20
3.6640479677
 30
0.0
 10
3.9036602887
 20
3.6659884598
 30
0.0
 10
4.0977613711
 20
3.6679301327
 30
0.0
 10
4.2999222536
 20
3.6698726575
 30
0.0
 10
4.5082103804
 20
3.671815889
 30
0.0
 10
4.72060138
 20
3.6737594236
 30
0.0
 10
4.8633458935
 20
3.6750531782
 30
0.0
 10
4.9350543478
 20
3.6757031073
 30
0.0
  0
SPLINE
  5
32F
100
AcDbEntity
  8
0
100
AcDbSpline
 62
7
  6
CONTINUOUS
 70
0
 71
3
 72
42
 73
38
 74
0
 42
0.0000001
 43
0.0000001
 44
0.0000000001
 40
0.0
 40
0.0
 40
0.0
 40
0.0
 40
0.0001263336
 40
0.0002866588
 40
0.0007128875
 40
0.0012828627
 40
0.0019981052
 40
0.0028593544
 40
0.0038668829
 40
0.0050207119
 40
0.0063207712
 40
0.0093590363
 40
0.01298038
 40
0.0171832081
 40
0.0219657908
 40
0.027325764
 40
0.0332595185
 40
0.039763261
 40
0.0468331779
 40
0.0626561456
 40
0.0806925406
 40
0.1008976399
 40
0.1232255436
 40
0.1476237745
 40
0.1740330404
 40
0.2023930621
 40
0.2326361417
 40
0.2646898952
 40
0.2984806322
 40
0.3709458367
 40
0.449348948
 40
0.5329484579
 40
0.6209567822
 40
0.7125427544
 40
0.8068359385
 40
0.9029727628
 40
1.0
 40
1.0
 40
1.0
 40
1.0
 10
2.7403265589
 20
3.4155998602
 30
0.0
 10
2.7404065977
 20
3.4156461106
 30
0.0
 10
2.7405974648
 20
3.4157347841
 30
0.0
 10
2.7410891904
 20
3.4159097397
 30
0.0
 10
2.7419113429
 20
3.4161164838
 30
0.0
 10
2.7431413981
 20
3.4163518026
 30
0.0
 10
2.7446944299
 20
3.416588633
 30
0.0
 10
2.7465701982
 20
3.4168270802
 30
0.0
 10
2.7487690347
 20
3.4170662683
 30
0.0
 10
2.7512904968
 20
3.4173060899
 30
0.0
 10
2.7552950299
 20
3.4176441722
 30
0.0
 10
2.7611047458
 20
3.418058437
 30
0.0
 10
2.7690387527
 20
3.4185358408
 30
0.0
 10
2.7782510201
 20
3.4190145889
 30
0.0
 10
2.7887369022
 20
3.4194944167
 30
0.0
 10
2.8004904822
 20
3.4199748997
 30
0.0
 10
2.8135043881
 20
3.4204559284
 30
0.0
 10
2.8277702534
 20
3.4209373841
 30
0.0
 10
2.8492700113
 20
3.4216050775
 30
0.0
 10
2.8792075124
 20
3.422430008
 30
0.0
 10
2.9187559949
 20
3.4233887185
 30
0.0
 10
2.9630654746
 20
3.424349052
 30
0.0
 10
3.0120309907
 20
3.4253105208
 30
0.0
 10
3.0655370001
 20
3.4262727949
 30
0.0
 10
3.123457473
 20
3.4272358198
 30
0.0
 10
3.1856552796
 20
3.4281992726
 30
0.0
 10
3.2519837273
 20
3.4291631234
 30
0.0
 10
3.3222863269
 20
3.4301273753
 30
0.0
 10
3.4234817491
 20
3.4314441617
 30
0.0
 10
3.5585906402
 20
3.4330777956
 30
0.0
 10
3.730144733
 20
3.4349975541
 30
0.0
 10
3.9130726855
 20
3.4369189055
 30
0.0
 10
4.1056472905
 20
3.4388414655
 30
0.0
 10
4.3060470363
 20
3.4407648055
 30
0.0
 10
4.5123948266
 20
3.4426888273
 30
0.0
 10
4.7227242658
 20
3.4446131325
 30
0.0
 10
4.8640604851
 20
3.4458941236
 30
0.0
 10
4.9350543478
 20
3.446537576
 30
0.0
  0
SPLINE
  5
330
100
AcDbEntity
  8
0
100
AcDbSpline
 62
7
  6
CONTINUOUS
 70
0
 71
3
 72
12
 73
8
 74
0
 42
0.0000001
 43
0.0000001
 44
0.0000000001
 40
0.0
 40
0.0
 40
0.0
 40
0.0
 40
0.0626249828
 40
0.1424286111
 40
0.3553955707
 40
0.6410000385
 40
1.0
 40
1.0
 40
1.0
 40
1.0
 10
2.8170365197
 20
3.459893931
 30
0.0
 10
2.8171214448
 20
3.4599430167
 30
0.0
 10
2.8173246399
 20
3.460036966
 30
0.0
 10
2.8178498691
 20
3.460222281
 30
0.0
 10
2.8187306506
 20
3.4604409766
 30
0.0
 10
2.8200506324
 20
3.4606899551
 30
0.0
 10
2.8210494014
 20
3.4608397901
 30
0.0
 10
2.8216063646
 20
3.460917118
 30
0.0
  0
SPLINE
  5
331
100
AcDbEntity
  8
0
100
AcDbSpline
 62
7
  6
CONTINUOUS
 70
0
 71
3
 72
70
 73
66
 74
0
 42
0.0000001
 43
0.0000001
 44
0.0000000001
 40
0.0
 40
0.0
 40
0.0
 40
0.0
 40
0.0009636904
 40
0.0022133468
 40
0.0037485791
 40
0.005568726
 40
0.0076730032
 40
0.0100605621
 40
0.0156805667
 40
0.0224149041
 40
0.0302483435
 40
0.0391641474
 40
0.049140592
 40
0.0601548541
 40
0.0721826667
 40
0.0991624397
 40
0.1298324563
 40
0.1639091332
 40
0.2010783438
 40
0.2409982856
 40
0.2833002397
 40
0.3275942317
 40
0.3734724109
 40
0.4205113634
 40
0.4682775259
 40
0.51633066
 40
0.5642275264
 40
0.6115267996
 40
0.6577921818
 40
0.7025971024
 40
0.7455289388
 40
0.7861913362
 40
0.824209514
 40
0.8421168413
 40
0.8592336673
 40
0.8755203008
 40
0.890940139
 40
0.9054568757
 40
0.9190368401
 40
0.9316497787
 40
0.9432657612
 40
0.9538578614
 40
0.9634028149
 40
0.9718777112
 40
0.9757075503
 40
0.9792629907
 40
0.9825420962
 40
0.9855429373
 40
0.9882635936
 40
0.9907022941
 40
0.9928579307
 40
0.9947296183
 40
0.9963165295
 40
0.9976179456
 40
0.9981614377
 40
0.9986334115
 40
0.9990339243
 40
0.9993632203
 40
0.999501311
 40
0.9996218151
 40
0.9997248833
 40
0.9998107587
 40
0.9998798658
 40
0.9999330322
 40
1.0
 40
1.0
 40
1.0
 40
1.0
 10
2.8216063646
 20
3.460917118
 30
0.0
 10
2.8229531052
 20
3.4611040976
 30
0.0
 10
2.8260570024
 20
3.4614542975
 30
0.0
 10
2.8313253484
 20
3.4619207774
 30
0.0
 10
2.8378057962
 20
3.4623903404
 30
0.0
 10
2.8454943657
 20
3.4628623912
 30
0.0
 10
2.8543873516
 20
3.4633358436
 30
0.0
 10
2.868638373
 20
3.4640052888
 30
0.0
 10
2.8894216943
 20
3.4648236239
 30
0.0
 10
2.9178888889
 20
3.4657660244
 30
0.0
 10
2.9510081838
 20
3.4667113872
 30
0.0
 10
2.9887032658
 20
3.4676590005
 30
0.0
 10
3.0308873491
 20
3.4686082182
 30
0.0
 10
3.0774630965
 20
3.4695586636
 30
0.0
 10
3.148025993
 20
3.4708779006
 30
0.0
 10
3.2463199093
 20
3.4725039582
 30
0.0
 10
3.3757218835
 20
3.4743939874
 30
0.0
 10
3.5195013295
 20
3.4762876694
 30
0.0
 10
3.6763323658
 20
3.4781841794
 30
0.0
 10
3.8447691054
 20
3.4800825145
 30
0.0
 10
4.0232586917
 20
3.4819822527
 30
0.0
 10
4.2101551219
 20
3.4838829789
 30
0.0
 10
4.4037352487
 20
3.4857843705
 30
0.0
 10
4.6022144417
 20
3.4876862433
 30
0.0
 10
4.803762387
 20
3.4895883892
 30
0.0
 10
5.0065208045
 20
3.4914906299
 30
0.0
 10
5.2086204653
 20
3.4933928279
 30
0.0
 10
5.408197699
 20
3.4952947905
 30
0.0
 10
5.6034123477
 20
3.4971963507
 30
0.0
 10
5.7924647404
 20
3.499097313
 30
0.0
 10
5.9736115483
 20
3.5009973411
 30
0.0
 10
6.1451824855
 20
3.5028962057
 30
0.0
 10
6.2814476443
 20
3.5045075994
 30
0.0
 10
6.3844939954
 20
3.5058049881
 30
0.0
 10
6.4568814712
 20
3.5067583423
 30
0.0
 10
6.5257590635
 20
3.5077115068
 30
0.0
 10
6.5909678579
 20
3.5086643342
 30
0.0
 10
6.6523574209
 20
3.5096168355
 30
0.0
 10
6.7097862635
 20
3.5105689788
 30
0.0
 10
6.7631218782
 20
3.5115204894
 30
0.0
 10
6.8122412427
 20
3.5124713286
 30
0.0
 10
6.8570311649
 20
3.5134212949
 30
0.0
 10
6.8973882988
 20
3.5143699651
 30
0.0
 10
6.9282050683
 20
3.5151840704
 30
0.0
 10
6.9505723405
 20
3.5158417569
 30
0.0
 10
6.965611065
 20
3.5163179812
 30
0.0
 10
6.9794795451
 20
3.5167939052
 30
0.0
 10
6.9921695008
 20
3.517269469
 30
0.0
 10
7.0036728493
 20
3.517744555
 30
0.0
 10
7.0139826183
 20
3.5182190474
 30
0.0
 10
7.0230932103
 20
3.5186926976
 30
0.0
 10
7.0310002961
 20
3.519164905
 30
0.0
 10
7.0376997601
 20
3.5196354104
 30
0.0
 10
7.0425246537
 20
3.5200451376
 30
0.0
 10
7.0457762527
 20
3.5203815049
 30
0.0
 10
7.0477601404
 20
3.5206177202
 30
0.0
 10
7.0494394324
 20
3.520853135
 30
0.0
 10
7.0506469763
 20
3.5210581188
 30
0.0
 10
7.0514593488
 20
3.521226221
 30
0.0
 10
7.0519557319
 20
3.52134441
 30
0.0
 10
7.0523764977
 20
3.5214626595
 30
0.0
 10
7.0527206856
 20
3.5215792265
 30
0.0
 10
7.0529924676
 20
3.5216985394
 30
0.0
 10
7.0532174834
 20
3.521828067
 30
0.0
 10
7.053352027
 20
3.5219758577
 30
0.0
 10
7.0533520298
 20
3.5220703416
 30
0.0
  0
SPLINE
  5
332
100
AcDbEntity
  8
0
100
AcDbSpline
 62
7
  6
CONTINUOUS
 70
0
 71
3
 72
42
 73
38
 74
0
 42
0.0000001
 43
0.0000001
 44
0.0000000001
 40
0.0
 40
0.0
 40
0.0
 40
0.0
 40
0.0001263336
 40
0.0002866588
 40
0.0007128875
 40
0.0012828627
 40
0.0019981052
 40
0.0028593544
 40
0.0038668829
 40
0.0050207119
 40
0.0063207712
 40
0.0093590363
 40
0.01298038
 40
0.0171832081
 40
0.0219657908
 40
0.027325764
 40
0.0332595185
 40
0.039763261
 40
0.0468331779
 40
0.0626561456
 40
0.0806925406
 40
0.1008976399
 40
0.1232255436
 40
0.1476237745
 40
0.1740330404
 40
0.2023930621
 40
0.2326361417
 40
0.2646898952
 40
0.2984806322
 40
0.3709458367
 40
0.449348948
 40
0.5329484579
 40
0.6209567822
 40
0.7125427544
 40
0.8068359385
 40
0.9029727628
 40
1.0
 40
1.0
 40
1.0
 40
1.0
 10
2.7403265589
 20
3.2905998602
 30
0.0
 10
2.7404065977
 20
3.2906461106
 30
0.0
 10
2.7405974648
 20
3.2907347841
 30
0.0
 10
2.7410891904
 20
3.2909097397
 30
0.0
 10
2.7419113429
 20
3.2911164838
 30
0.0
 10
2.7431413981
 20
3.2913518026
 30
0.0
 10
2.7446944299
 20
3.291588633
 30
0.0
 10
2.7465701982
 20
3.2918270802
 30
0.0
 10
2.7487690347
 20
3.2920662683
 30
0.0
 10
2.7512904968
 20
3.2923060899
 30
0.0
 10
2.7552950299
 20
3.2926441722
 30
0.0
 10
2.7611047458
 20
3.293058437
 30
0.0
 10
2.7690387527
 20
3.2935358408
 30
0.0
 10
2.7782510201
 20
3.2940145889
 30
0.0
 10
2.7887369022
 20
3.2944944167
 30
0.0
 10
2.8004904822
 20
3.2949748997
 30
0.0
 10
2.8135043881
 20
3.2954559284
 30
0.0
 10
2.8277702534
 20
3.2959373841
 30
0.0
 10
2.8492700113
 20
3.2966050775
 30
0.0
 10
2.8792075124
 20
3.297430008
 30
0.0
 10
2.9187559949
 20
3.2983887185
 30
0.0
 10
2.9630654746
 20
3.299349052
 30
0.0
 10
3.0120309907
 20
3.3003105208
 30
0.0
 10
3.0655370001
 20
3.3012727949
 30
0.0
 10
3.123457473
 20
3.3022358198
 30
0.0
 10
3.1856552796
 20
3.3031992726
 30
0.0
 10
3.2519837273
 20
3.3041631234
 30
0.0
 10
3.3222863269
 20
3.3051273753
 30
0.0
 10
3.4234817491
 20
3.3064441617
 30
0.0
 10
3.5585906402
 20
3.3080777956
 30
0.0
 10
3.730144733
 20
3.3099975541
 30
0.0
 10
3.9130726855
 20
3.3119189055
 30
0.0
 10
4.1056472905
 20
3.3138414655
 30
0.0
 10
4.3060470363
 20
3.3157648055
 30
0.0
 10
4.5123948266
 20
3.3176888273
 30
0.0
 10
4.7227242658
 20
3.3196131325
 30
0.0
 10
4.8640604851
 20
3.3208941236
 30
0.0
 10
4.9350543478
 20
3.321537576
 30
0.0
  0
SPLINE
  5
333
100
AcDbEntity
  8
0
100
AcDbSpline
 62
7
  6
CONTINUOUS
 70
0
 71
3
 72
11
 73
7
 74
0
 42
0.0000001
 43
0.0000001
 44
0.0000000001
 40
0.0
 40
0.0
 40
0.0
 40
0.0
 40
0.1493617112
 40
0.3647332373
 40
0.6480108504
 40
1.0
 40
1.0
 40
1.0
 40
1.0
 10
2.8170362553
 20
3.3348939308
 30
0.0
 10
2.8171976179
 20
3.3349872195
 30
0.0
 10
2.817625351
 20
3.3351527843
 30
0.0
 10
2.8184049845
 20
3.3353657213
 30
0.0
 10
2.8194453808
 20
3.3355809583
 30
0.0
 10
2.8202272744
 20
3.3357116701
 30
0.0
 10
2.820661358
 20
3.3357788244
 30
0.0
  0
SPLINE
  5
334
100
AcDbEntity
  8
0
100
AcDbSpline
 62
7
  6
CONTINUOUS
 70
0
 71
3
 72
70
 73
66
 74
0
 42
0.0000001
 43
0.0000001
 44
0.0000000001
 40
0.0
 40
0.0
 40
0.0
 40
0.0
 40
0.0008831335
 40
0.0020533761
 40
0.0035105188
 40
0.0052539999
 40
0.0072831047
 40
0.0095970415
 40
0.0150746116
 40
0.0216731725
 40
0.0293777835
 40
0.038171919
 40
0.0480340292
 40
0.0589414978
 40
0.070870168
 40
0.0976749894
 40
0.1282015554
 40
0.1621663697
 40
0.1992548589
 40
0.2391244367
 40
0.2814052398
 40
0.3257056663
 40
0.3716159796
 40
0.418710585
 40
0.4665533954
 40
0.5147015037
 40
0.5627087735
 40
0.6101308434
 40
0.6565283556
 40
0.7014714968
 40
0.744544529
 40
0.7853480996
 40
0.8235042573
 40
0.8414785658
 40
0.8586604128
 40
0.8750100249
 40
0.8904903654
 40
0.9050646727
 40
0.91869929
 40
0.931363547
 40
0.9430270895
 40
0.9536631074
 40
0.9632479439
 40
0.9717583096
 40
0.9756043264
 40
0.9791748651
 40
0.9824679302
 40
0.9854815329
 40
0.9882136952
 40
0.9906627345
 40
0.9928275987
 40
0.9947073486
 40
0.9963011027
 40
0.9976080881
 40
0.9981538704
 40
0.9986277993
 40
0.9990299714
 40
0.9993606446
 40
0.9994993163
 40
0.9996203283
 40
0.9997238309
 40
0.9998100661
 40
0.9998794577
 40
0.9999328329
 40
1.0
 40
1.0
 40
1.0
 40
1.0
 10
2.820661358
 20
3.3357788244
 30
0.0
 10
2.8218929898
 20
3.3359693623
 30
0.0
 10
2.8247703299
 20
3.3363216498
 30
0.0
 10
2.829702519
 20
3.3367878129
 30
0.0
 10
2.8358531277
 20
3.3372574376
 30
0.0
 10
2.8432182917
 20
3.3377300393
 30
0.0
 10
2.8517946267
 20
3.3382041968
 30
0.0
 10
2.8656373022
 20
3.3388761881
 30
0.0
 10
2.8859283635
 20
3.3396965239
 30
0.0
 10
2.9138272033
 20
3.3406404486
 30
0.0
 10
2.9464085969
 20
3.3415875121
 30
0.0
 10
2.9835971263
 20
3.3425369889
 30
0.0
 10
3.0253068091
 20
3.343488155
 30
0.0
 10
3.0714409658
 20
3.3444406051
 30
0.0
 10
3.1414821135
 20
3.3457635035
 30
0.0
 10
3.239208826
 20
3.3473935395
 30
0.0
 10
3.3680326858
 20
3.3492874824
 30
0.0
 10
3.5113702665
 20
3.3511851814
 30
0.0
 10
3.6678937646
 20
3.353085795
 30
0.0
 10
3.8361536106
 20
3.3549882836
 30
0.0
 10
4.0145915763
 20
3.3568922078
 30
0.0
 10
4.2015547121
 20
3.3587971474
 30
0.0
 10
4.3953114447
 20
3.3607027704
 30
0.0
 10
4.5940674396
 20
3.3626088858
 30
0.0
 10
4.7959815631
 20
3.3645152866
 30
0.0
 10
4.9991836997
 20
3.3664217881
 30
0.0
 10
5.2017920592
 20
3.3683282523
 30
0.0
 10
5.4019298594
 20
3.3702344873
 30
0.0
 10
5.5977433483
 20
3.3721403184
 30
0.0
 10
5.7874191577
 20
3.3740455552
 30
0.0
 10
5.9692003621
 20
3.3759498613
 30
0.0
 10
6.1414031977
 20
3.3778529917
 30
0.0
 10
6.2781875601
 20
3.3794679686
 30
0.0
 10
6.381638156
 20
3.3807682303
 30
0.0
 10
6.4543171182
 20
3.3817237475
 30
0.0
 10
6.5234762627
 20
3.3826790616
 30
0.0
 10
6.588955268
 20
3.3836340343
 30
0.0
 10
6.6506024309
 20
3.3845887007
 30
0.0
 10
6.7082750202
 20
3.3855429899
 30
0.0
 10
6.7618393315
 20
3.3864966399
 30
0.0
 10
6.8111712915
 20
3.3874496464
 30
0.0
 10
6.8561566959
 20
3.3884017518
 30
0.0
 10
6.8966912504
 20
3.3893525491
 30
0.0
 10
6.9276441406
 20
3.3901685131
 30
0.0
 10
6.950110652
 20
3.3908276764
 30
0.0
 10
6.9652166072
 20
3.3913049749
 30
0.0
 10
6.9791472334
 20
3.3917819723
 30
0.0
 10
6.9918940001
 20
3.3922586053
 30
0.0
 10
7.0034487817
 20
3.3927347746
 30
0.0
 10
7.0138047274
 20
3.3932103487
 30
0.0
 10
7.0229563672
 20
3.3936850659
 30
0.0
 10
7.0308992965
 20
3.3941583364
 30
0.0
 10
7.03762917
 20
3.3946298976
 30
0.0
 10
7.0424759044
 20
3.3950405464
 30
0.0
 10
7.0457420902
 20
3.395377676
 30
0.0
 10
7.0477347585
 20
3.3956144353
 30
0.0
 10
7.0494214745
 20
3.3958503873
 30
0.0
 10
7.0506343979
 20
3.3960558321
 30
0.0
 10
7.0514504375
 20
3.3962243126
 30
0.0
 10
7.051949084
 20
3.3963427681
 30
0.0
 10
7.0523717893
 20
3.3964612845
 30
0.0
 10
7.052717573
 20
3.3965781105
 30
0.0
 10
7.0529906525
 20
3.3966976928
 30
0.0
 10
7.0532166473
 20
3.3968274526
 30
0.0
 10
7.0533520176
 20
3.3969755548
 30
0.0
 10
7.0533520797
 20
3.3970703414
 30
0.0
  0
SPLINE
  5
335
100
AcDbEntity
  8
0
100
AcDbSpline
 62
7
  6
CONTINUOUS
 70
0
 71
3
 72
45
 73
41
 74
0
 42
0.0000001
 43
0.0000001
 44
0.0000000001
 40
0.0
 40
0.0
 40
0.0
 40
0.0
 40
0.0001342489
 40
0.0002434826
 40
0.0003863784
 40
0.0005645228
 40
0.0007787208
 40
0.0010294302
 40
0.0013169343
 40
0.0020029905
 40
0.0028378513
 40
0.0049551363
 40
0.0076691485
 40
0.010978812
 40
0.0148826187
 40
0.0193788586
 40
0.0244656228
 40
0.0301398211
 40
0.0363975735
 40
0.0432349607
 40
0.050648046
 40
0.0586328804
 40
0.0762990739
 40
0.0961888212
 40
0.1182550679
 40
0.1424461012
 40
0.1687014714
 40
0.1969595049
 40
0.2271523733
 40
0.2592057305
 40
0.2930442518
 40
0.3285856905
 40
0.3657436623
 40
0.4445513776
 40
0.5287069306
 40
0.6174014769
 40
0.7097807428
 40
0.8049485421
 40
0.9020148774
 40
1.0
 40
1.0
 40
1.0
 40
1.0
 10
2.7400563461
 20
3.7694531073
 30
0.0
 10
2.7400563462
 20
3.7695513588
 30
0.0
 10
2.7402054125
 20
3.7697026912
 30
0.0
 10
2.7404459907
 20
3.7698332673
 30
0.0
 10
2.7407403492
 20
3.7699552839
 30
0.0
 10
2.7411125967
 20
3.7700742499
 30
0.0
 10
2.7415680069
 20
3.7701950979
 30
0.0
 10
2.7421052251
 20
3.7703158576
 30
0.0
 10
2.7429847352
 20
3.7704876855
 30
0.0
 10
2.7442918511
 20
3.7706972297
 30
0.0
 10
2.7469317388
 20
3.7710461717
 30
0.0
 10
2.7510582032
 20
3.7714642733
 30
0.0
 10
2.7569971928
 20
3.7719420775
 30
0.0
 10
2.7642470395
 20
3.7724224049
 30
0.0
 10
2.7728033787
 20
3.7729051923
 30
0.0
 10
2.7826620352
 20
3.7733892102
 30
0.0
 10
2.7938176815
 20
3.7738741305
 30
0.0
 10
2.8062635654
 20
3.7743596768
 30
0.0
 10
2.8199915169
 20
3.7748457239
 30
0.0
 10
2.8349928028
 20
3.7753321345
 30
0.0
 10
2.8512586705
 20
3.7758188534
 30
0.0
 10
2.8754476544
 20
3.7764909611
 30
0.0
 10
2.9087668107
 20
3.7773228852
 30
0.0
 10
2.952391173
 20
3.7782925226
 30
0.0
 10
3.0007918379
 20
3.7792633508
 30
0.0
 10
3.0538520764
 20
3.7802350685
 30
0.0
 10
3.1114445178
 20
3.7812075997
 30
0.0
 10
3.1734300324
 20
3.7821806396
 30
0.0
 10
3.2396593429
 20
3.7831540781
 30
0.0
 10
3.3099731972
 20
3.784127939
 30
0.0
 10
3.3842018079
 20
3.7851020156
 30
0.0
 10
3.4621665842
 20
3.786076345
 30
0.0
 10
3.5730406835
 20
3.787401845
 30
0.0
 10
3.7194921989
 20
3.7890479677
 30
0.0
 10
3.9036602957
 20
3.7909884599
 30
0.0
 10
4.0977613767
 20
3.7929301327
 30
0.0
 10
4.2999222568
 20
3.7948726575
 30
0.0
 10
4.5082103812
 20
3.796815889
 30
0.0
 10
4.7206013795
 20
3.7987594236
 30
0.0
 10
4.8633458931
 20
3.8000531782
 30
0.0
 10
4.9350543478
 20
3.8007031073
 30
0.0
  0
LINE
  5
336
100
AcDbEntity
  8
0
100
AcDbLine
 62
7
  6
CONTINUOUS
 10
2.8170360152
 20
3.2098939305
 11
2.8198173256
 21
3.2106403217
  0
SPLINE
  5
337
100
AcDbEntity
  8
0
100
AcDbSpline
 62
7
  6
CONTINUOUS
 70
0
 71
3
 72
72
 73
68
 74
0
 42
0.0000001
 43
0.0000001
 44
0.0000000001
 40
0.0
 40
0.0
 40
0.0
 40
0.0
 40
0.0003651657
 40
0.0008022859
 40
0.0018926836
 40
0.003271281
 40
0.0049376304
 40
0.0068910924
 40
0.0091309346
 40
0.014465125
 40
0.0209269732
 40
0.0285018365
 40
0.037173409
 40
0.0469203196
 40
0.0577201606
 40
0.0695488871
 40
0.082377781
 40
0.0961772774
 40
0.1265590771
 40
0.1604109196
 40
0.1974178059
 40
0.2372363682
 40
0.2794956031
 40
0.3238022772
 40
0.369744757
 40
0.4168952633
 40
0.4648151684
 40
0.5130588707
 40
0.561177311
 40
0.6087230645
 40
0.6552537028
 40
0.7003361621
 40
0.7435515431
 40
0.7844974702
 40
0.8227927938
 40
0.8408346498
 40
0.858082083
 40
0.8744952329
 40
0.8900365912
 40
0.9046689791
 40
0.9183587443
 40
0.9310747554
 40
0.9427862849
 40
0.9534666234
 40
0.9630916722
 40
0.971637829
 40
0.9755001797
 40
0.9790859522
 40
0.9823930914
 40
0.9854195487
 40
0.9881633026
 40
0.9906227997
 40
0.992796989
 40
0.9946848764
 40
0.9962855251
 40
0.9975981072
 40
0.9981461843
 40
0.9986220874
 40
0.9990259502
 40
0.9993580261
 40
0.9994972892
 40
0.9996188183
 40
0.9997227628
 40
0.9998093639
 40
0.9998790446
 40
0.9999326315
 40
1.0
 40
1.0
 40
1.0
 40
1.0
 10
2.8198173256
 20
3.2106403217
 30
0.0
 10
2.8203250631
 20
3.2107290277
 30
0.0
 10
2.8214444968
 20
3.210901493
 30
0.0
 10
2.8240942367
 20
3.2112429692
 30
0.0
 10
2.828176161
 20
3.2116543458
 30
0.0
 10
2.8339943114
 20
3.2121247984
 30
0.0
 10
2.8410338527
 20
3.2125975422
 30
0.0
 10
2.8492911328
 20
3.2130724706
 30
0.0
 10
2.862722271
 20
3.2137470257
 30
0.0
 10
2.8825170277
 20
3.2145693634
 30
0.0
 10
2.9098426458
 20
3.2155147616
 30
0.0
 10
2.9418812467
 20
3.2164635033
 30
0.0
 10
2.978558342
 20
3.2174148277
 30
0.0
 10
3.019788771
 20
3.2183679476
 30
0.0
 10
3.0654765279
 20
3.2193223456
 30
0.0
 10
3.1155153208
 20
3.2202775076
 30
0.0
 10
3.169788791
 20
3.2212334916
 30
0.0
 10
3.2502473814
 20
3.2225514562
 30
0.0
 10
3.3603784678
 20
3.2241806419
 30
0.0
 10
3.5032659344
 20
3.2260826157
 30
0.0
 10
3.6594743451
 20
3.2279872553
 30
0.0
 10
3.8275504999
 20
3.2298939249
 30
0.0
 10
4.005930843
 20
3.2318020328
 30
0.0
 10
4.1929554974
 20
3.2337111929
 30
0.0
 10
4.3868844746
 20
3.2356210527
 30
0.0
 10
4.5859137293
 20
3.2375314167
 30
0.0
 10
4.7881912822
 20
3.2394420783
 30
0.0
 10
4.9918351244
 20
3.2413528469
 30
0.0
 10
5.194950832
 20
3.2432635829
 30
0.0
 10
5.3956484599
 20
3.2451740957
 30
0.0
 10
5.5920606348
 20
3.2470842035
 30
0.0
 10
5.7823602377
 20
3.2489937201
 30
0.0
 10
5.9647766706
 20
3.250902311
 30
0.0
 10
6.1376125859
 20
3.2528097144
 30
0.0
 10
6.2749172922
 20
3.2544282784
 30
0.0
 10
6.3787731374
 20
3.2557314185
 30
0.0
 10
6.4517443834
 20
3.2566891023
 30
0.0
 10
6.5211858844
 20
3.2576465678
 30
0.0
 10
6.5869359086
 20
3.258603691
 30
0.0
 10
6.6488414741
 20
3.2595605259
 30
0.0
 10
6.7067585878
 20
3.2605169623
 30
0.0
 10
6.7605523469
 20
3.2614727577
 30
0.0
 10
6.8100976166
 20
3.2624279347
 30
0.0
 10
6.855279162
 20
3.2633821789
 30
0.0
 10
6.8959917444
 20
3.2643351108
 30
0.0
 10
6.9270812229
 20
3.2651529355
 30
0.0
 10
6.9496473517
 20
3.2658135755
 30
0.0
 10
6.9648207834
 20
3.2662919495
 30
0.0
 10
6.9788137378
 20
3.2667700216
 30
0.0
 10
6.9916174527
 20
3.2672477255
 30
0.0
 10
7.0032238365
 20
3.2677249852
 30
0.0
 10
7.0136261613
 20
3.2682016358
 30
0.0
 10
7.022819062
 20
3.2686774219
 30
0.0
 10
7.0307979795
 20
3.269151756
 30
0.0
 10
7.0375583341
 20
3.2696243748
 30
0.0
 10
7.0424269221
 20
3.2700359442
 30
0.0
 10
7.0457076948
 20
3.2703738452
 30
0.0
 10
7.0477091775
 20
3.2706111505
 30
0.0
 10
7.049403389
 20
3.2708476349
 30
0.0
 10
7.0506217609
 20
3.2710535418
 30
0.0
 10
7.0514415139
 20
3.2712224013
 30
0.0
 10
7.0519424514
 20
3.2713411235
 30
0.0
 10
7.0523671194
 20
3.2714599073
 30
0.0
 10
7.0527145169
 20
3.2715769924
 30
0.0
 10
7.0529889079
 20
3.2716968446
 30
0.0
 10
7.0532158894
 20
3.2718268353
 30
0.0
 10
7.0533520941
 20
3.2719752511
 30
0.0
 10
7.0533522124
 20
3.2720703411
 30
0.0
  0
SPLINE
  5
338
100
AcDbEntity
  8
0
100
AcDbSpline
 62
7
  6
CONTINUOUS
 70
0
 71
3
 72
45
 73
41
 74
0
 42
0.0000001
 43
0.0000001
 44
0.0000000001
 40
0.0
 40
0.0
 40
0.0
 40
0.0
 40
0.0001342489
 40
0.0002434826
 40
0.0003863783
 40
0.0005645228
 40
0.0007787208
 40
0.0010294301
 40
0.0013169343
 40
0.0020029905
 40
0.0028378514
 40
0.0049551364
 40
0.0076691486
 40
0.010978812
 40
0.0148826188
 40
0.0193788587
 40
0.0244656231
 40
0.0301398214
 40
0.0363975738
 40
0.043234961
 40
0.0506480463
 40
0.0586328806
 40
0.0762990735
 40
0.0961888203
 40
0.1182550671
 40
0.142446101
 40
0.1687014719
 40
0.1969595061
 40
0.227152375
 40
0.2592057326
 40
0.293044254
 40
0.3285856929
 40
0.3657436646
 40
0.4445513797
 40
0.5287069323
 40
0.6174014776
 40
0.7097807421
 40
0.8049485414
 40
0.9020148775
 40
1.0
 40
1.0
 40
1.0
 40
1.0
 10
2.7400563462
 20
3.8944531073
 30
0.0
 10
2.7400563463
 20
3.8945513587
 30
0.0
 10
2.7402054125
 20
3.8947026912
 30
0.0
 10
2.7404459907
 20
3.8948332673
 30
0.0
 10
2.7407403491
 20
3.8949552839
 30
0.0
 10
2.7411125967
 20
3.8950742499
 30
0.0
 10
2.7415680068
 20
3.8951950979
 30
0.0
 10
2.7421052251
 20
3.8953158576
 30
0.0
 10
2.7429847352
 20
3.8954876855
 30
0.0
 10
2.7442918511
 20
3.8956972297
 30
0.0
 10
2.7469317389
 20
3.8960461717
 30
0.0
 10
2.7510582034
 20
3.8964642733
 30
0.0
 10
2.756997193
 20
3.8969420775
 30
0.0
 10
2.7642470397
 20
3.8974224049
 30
0.0
 10
2.772803379
 20
3.8979051923
 30
0.0
 10
2.7826620356
 20
3.8983892102
 30
0.0
 10
2.7938176821
 20
3.8988741305
 30
0.0
 10
2.8062635661
 20
3.8993596768
 30
0.0
 10
2.8199915177
 20
3.8998457239
 30
0.0
 10
2.8349928035
 20
3.9003321345
 30
0.0
 10
2.8512586711
 20
3.9008188535
 30
0.0
 10
2.8754476545
 20
3.9014909611
 30
0.0
 10
2.90876681
 20
3.9023228852
 30
0.0
 10
2.9523911715
 20
3.9032925226
 30
0.0
 10
3.0007918365
 20
3.9042633508
 30
0.0
 10
3.053852076
 20
3.9052350685
 30
0.0
 10
3.1114445188
 20
3.9062075997
 30
0.0
 10
3.1734300349
 20
3.9071806396
 30
0.0
 10
3.2396593465
 20
3.9081540782
 30
0.0
 10
3.3099732016
 20
3.909127939
 30
0.0
 10
3.3842018128
 20
3.9101020157
 30
0.0
 10
3.4621665892
 20
3.911076345
 30
0.0
 10
3.5730406885
 20
3.912401845
 30
0.0
 10
3.7194922034
 20
3.9140479678
 30
0.0
 10
3.903660299
 20
3.9159884599
 30
0.0
 10
4.097761378
 20
3.9179301328
 30
0.0
 10
4.2999222563
 20
3.9198726575
 30
0.0
 10
4.5082103802
 20
3.921815889
 30
0.0
 10
4.720601379
 20
3.9237594235
 30
0.0
 10
4.8633458931
 20
3.9250531782
 30
0.0
 10
4.9350543478
 20
3.9257031073
 30
0.0
  0
SPLINE
  5
339
100
AcDbEntity
  8
0
100
AcDbSpline
 62
7
  6
CONTINUOUS
 70
0
 71
3
 72
12
 73
8
 74
0
 42
0.0000001
 43
0.0000001
 44
0.0000000001
 40
0.0
 40
0.0
 40
0.0
 40
0.0
 40
0.3327675315
 40
0.6096786133
 40
0.8315188205
 40
0.9222730693
 40
1.0
 40
1.0
 40
1.0
 40
1.0
 10
7.0451641721
 20
2.7859203417
 30
0.0
 10
7.0464486004
 20
2.7861798395
 30
0.0
 10
7.0487957074
 20
2.7866882353
 30
0.0
 10
7.0519641235
 20
2.7875177933
 30
0.0
 10
7.0541725024
 20
2.7882437551
 30
0.0
 10
7.0555890859
 20
2.7888421693
 30
0.0
 10
7.0561812928
 20
2.789143422
 30
0.0
 10
7.05644635
 20
2.7892964794
 30
0.0
  0
SPLINE
  5
33A
100
AcDbEntity
  8
0
100
AcDbSpline
 62
7
  6
CONTINUOUS
 70
0
 71
3
 72
45
 73
41
 74
0
 42
0.0000001
 43
0.0000001
 44
0.0000000001
 40
0.0
 40
0.0
 40
0.0
 40
0.0
 40
0.0001342489
 40
0.0002434825
 40
0.0003863783
 40
0.0005645227
 40
0.0007787207
 40
0.00102943
 40
0.0013169341
 40
0.0020029904
 40
0.0028378514
 40
0.0049551364
 40
0.0076691484
 40
0.0109788116
 40
0.0148826182
 40
0.0193788581
 40
0.0244656224
 40
0.0301398206
 40
0.0363975726
 40
0.0432349594
 40
0.0506480443
 40
0.0586328784
 40
0.0762990703
 40
0.096188816
 40
0.1182550631
 40
0.1424460977
 40
0.1687014696
 40
0.196959505
 40
0.2271523747
 40
0.2592057328
 40
0.2930442547
 40
0.3285856938
 40
0.3657436656
 40
0.4445513805
 40
0.5287069324
 40
0.617401477
 40
0.7097807407
 40
0.8049485404
 40
0.9020148776
 40
1.0
 40
1.0
 40
1.0
 40
1.0
 10
2.7400563462
 20
4.0194531073
 30
0.0
 10
2.7400563462
 20
4.0195513587
 30
0.0
 10
2.7402054124
 20
4.0197026912
 30
0.0
 10
2.7404459905
 20
4.0198332673
 30
0.0
 10
2.7407403489
 20
4.0199552839
 30
0.0
 10
2.7411125964
 20
4.0200742499
 30
0.0
 10
2.7415680065
 20
4.0201950979
 30
0.0
 10
2.7421052248
 20
4.0203158576
 30
0.0
 10
2.7429847349
 20
4.0204876855
 30
0.0
 10
2.744291851
 20
4.0206972297
 30
0.0
 10
2.7469317389
 20
4.0210461717
 30
0.0
 10
2.7510582033
 20
4.0214642733
 30
0.0
 10
2.7569971926
 20
4.0219420775
 30
0.0
 10
2.7642470389
 20
4.0224224048
 30
0.0
 10
2.7728033777
 20
4.0229051922
 30
0.0
 10
2.7826620341
 20
4.0233892102
 30
0.0
 10
2.7938176805
 20
4.0238741304
 30
0.0
 10
2.8062635642
 20
4.0243596767
 30
0.0
 10
2.819991515
 20
4.0248457238
 30
0.0
 10
2.8349928
 20
4.0253321344
 30
0.0
 10
2.8512586668
 20
4.0258188533
 30
0.0
 10
2.875447649
 20
4.026490961
 30
0.0
 10
2.9087668028
 20
4.027322885
 30
0.0
 10
2.952391163
 20
4.0282925224
 30
0.0
 10
3.000791828
 20
4.0292633506
 30
0.0
 10
3.0538520689
 20
4.0302350684
 30
0.0
 10
3.1114445139
 20
4.0312075996
 30
0.0
 10
3.1734300321
 20
4.0321806396
 30
0.0
 10
3.2396593457
 20
4.0331540782
 30
0.0
 10
3.3099732021
 20
4.034127939
 30
0.0
 10
3.3842018141
 20
4.0351020157
 30
0.0
 10
3.4621665911
 20
4.0360763451
 30
0.0
 10
3.5730406904
 20
4.0374018451
 30
0.0
 10
3.7194922047
 20
4.0390479678
 30
0.0
 10
3.9036602991
 20
4.0409884599
 30
0.0
 10
4.0977613766
 20
4.0429301327
 30
0.0
 10
4.2999222541
 20
4.0448726575
 30
0.0
 10
4.5082103786
 20
4.0468158889
 30
0.0
 10
4.7206013784
 20
4.0487594235
 30
0.0
 10
4.8633458932
 20
4.0500531782
 30
0.0
 10
4.9350543478
 20
4.0507031073
 30
0.0
  0
SPLINE
  5
33B
100
AcDbEntity
  8
0
100
AcDbSpline
 62
7
  6
CONTINUOUS
 70
0
 71
3
 72
44
 73
40
 74
0
 42
0.0000001
 43
0.0000001
 44
0.0000000001
 40
0.0
 40
0.0
 40
0.0
 40
0.0
 40
0.0974284693
 40
0.1939219666
 40
0.2885199283
 40
0.3803631307
 40
0.4685844041
 40
0.5523497147
 40
0.6308690038
 40
0.7033996837
 40
0.7372027123
 40
0.7692552398
 40
0.7994804794
 40
0.8278085198
 40
0.8541701674
 40
0.8785021693
 40
0.9007484896
 40
0.9208538366
 40
0.9387700271
 40
0.9468943724
 40
0.9544561161
 40
0.9614501876
 40
0.9678719897
 40
0.9737182189
 40
0.9789857996
 40
0.9836716699
 40
0.9877727889
 40
0.9912861589
 40
0.9928216628
 40
0.9942095288
 40
0.9954496666
 40
0.996542003
 40
0.9974864934
 40
0.9982831424
 40
0.9989320489
 40
0.9994335175
 40
0.9997884
 40
0.9999116835
 40
1.0
 40
1.0
 40
1.0
 40
1.0
 10
4.9350543467
 20
2.8365749119
 30
0.0
 10
4.8652557847
 20
2.8361690315
 30
0.0
 10
4.726328485
 20
2.8353607202
 30
0.0
 10
4.5196304973
 20
2.8341454828
 30
0.0
 10
4.3169339816
 20
2.8329297519
 30
0.0
 10
4.1201639663
 20
2.8317137864
 30
0.0
 10
3.9311548373
 20
2.8304976519
 30
0.0
 10
3.7516914367
 20
2.8292816283
 30
0.0
 10
3.5834693685
 20
2.8280659205
 30
0.0
 10
3.4510409457
 20
2.827030717
 30
0.0
 10
3.351901737
 20
2.8261958312
 30
0.0
 10
3.283070208
 20
2.8255844595
 30
0.0
 10
3.2181612355
 20
2.8249730968
 30
0.0
 10
3.1573295158
 20
2.8243618674
 30
0.0
 10
3.1007200577
 20
2.8237507849
 30
0.0
 10
3.0484679386
 20
2.8231399013
 30
0.0
 10
3.000698286
 20
2.8225294989
 30
0.0
 10
2.9575254568
 20
2.8219196032
 30
0.0
 10
2.9244697204
 20
2.8213964641
 30
0.0
 10
2.9004000632
 20
2.8209740355
 30
0.0
 10
2.8841544157
 20
2.8206677342
 30
0.0
 10
2.8691287351
 20
2.8203615626
 30
0.0
 10
2.8553323572
 20
2.8200555198
 30
0.0
 10
2.8427731979
 20
2.8197497042
 30
0.0
 10
2.8314580927
 20
2.8194442016
 30
0.0
 10
2.8213937081
 20
2.8191391905
 30
0.0
 10
2.8125867098
 20
2.8188347948
 30
0.0
 10
2.8060366945
 20
2.8185716204
 30
0.0
 10
2.801430229
 20
2.8183577704
 30
0.0
 10
2.7984513177
 20
2.8182048177
 30
0.0
 10
2.7957903467
 20
2.818052087
 30
0.0
 10
2.7934475981
 20
2.8178996255
 30
0.0
 10
2.7914232635
 20
2.8177476628
 30
0.0
 10
2.7897177003
 20
2.8175962149
 30
0.0
 10
2.788330554
 20
2.8174464274
 30
0.0
 10
2.7872627167
 20
2.8172975323
 30
0.0
 10
2.786571598
 20
2.8171677166
 30
0.0
 10
2.7861818878
 20
2.8170544904
 30
0.0
 10
2.7860405749
 20
2.8169969897
 30
0.0
 10
2.7859857582
 20
2.8169653914
 30
0.0
  0
SPLINE
  5
33C
100
AcDbEntity
  8
0
100
AcDbSpline
 62
7
  6
CONTINUOUS
 70
0
 71
3
 72
45
 73
41
 74
0
 42
0.0000001
 43
0.0000001
 44
0.0000000001
 40
0.0
 40
0.0
 40
0.0
 40
0.0
 40
0.0001342489
 40
0.0002434825
 40
0.0003863782
 40
0.0005645226
 40
0.0007787206
 40
0.0010294299
 40
0.0013169341
 40
0.0020029904
 40
0.0028378514
 40
0.0049551364
 40
0.0076691483
 40
0.0109788113
 40
0.0148826176
 40
0.0193788574
 40
0.0244656217
 40
0.0301398195
 40
0.0363975711
 40
0.0432349574
 40
0.0506480419
 40
0.0586328758
 40
0.0762990672
 40
0.0961888121
 40
0.1182550593
 40
0.1424460944
 40
0.1687014666
 40
0.196959503
 40
0.2271523733
 40
0.2592057319
 40
0.2930442543
 40
0.3285856935
 40
0.3657436653
 40
0.4445513797
 40
0.5287069311
 40
0.6174014755
 40
0.7097807395
 40
0.8049485399
 40
0.9020148779
 40
1.0
 40
1.0
 40
1.0
 40
1.0
 10
2.7400563462
 20
4.1444531073
 30
0.0
 10
2.7400563461
 20
4.1445513587
 30
0.0
 10
2.7402054123
 20
4.1447026913
 30
0.0
 10
2.7404459903
 20
4.1448332673
 30
0.0
 10
2.7407403487
 20
4.1449552839
 30
0.0
 10
2.7411125961
 20
4.1450742499
 30
0.0
 10
2.7415680062
 20
4.1451950979
 30
0.0
 10
2.7421052245
 20
4.1453158576
 30
0.0
 10
2.7429847347
 20
4.1454876855
 30
0.0
 10
2.7442918508
 20
4.1456972297
 30
0.0
 10
2.7469317388
 20
4.1460461717
 30
0.0
 10
2.7510582031
 20
4.1464642733
 30
0.0
 10
2.7569971922
 20
4.1469420774
 30
0.0
 10
2.764247038
 20
4.1474224048
 30
0.0
 10
2.7728033765
 20
4.1479051922
 30
0.0
 10
2.7826620326
 20
4.1483892101
 30
0.0
 10
2.7938176786
 20
4.1488741303
 30
0.0
 10
2.8062635616
 20
4.1493596766
 30
0.0
 10
2.8199915115
 20
4.1498457237
 30
0.0
 10
2.8349927955
 20
4.1503321342
 30
0.0
 10
2.8512586615
 20
4.1508188532
 30
0.0
 10
2.875447643
 20
4.1514909608
 30
0.0
 10
2.9087667956
 20
4.1523228848
 30
0.0
 10
2.952391155
 20
4.1532925223
 30
0.0
 10
3.0007918198
 20
4.1542633505
 30
0.0
 10
3.0538520615
 20
4.1552350682
 30
0.0
 10
3.1114445077
 20
4.1562075995
 30
0.0
 10
3.1734300274
 20
4.1571806395
 30
0.0
 10
3.2396593425
 20
4.1581540781
 30
0.0
 10
3.3099732
 20
4.159127939
 30
0.0
 10
3.3842018129
 20
4.1601020157
 30
0.0
 10
3.4621665903
 20
4.1610763451
 30
0.0
 10
3.5730406893
 20
4.162401845
 30
0.0
 10
3.7194922029
 20
4.1640479678
 30
0.0
 10
3.9036602965
 20
4.1659884599
 30
0.0
 10
4.0977613736
 20
4.1679301327
 30
0.0
 10
4.2999222518
 20
4.1698726575
 30
0.0
 10
4.5082103776
 20
4.1718158889
 30
0.0
 10
4.7206013783
 20
4.1737594235
 30
0.0
 10
4.8633458934
 20
4.1750531782
 30
0.0
 10
4.9350543478
 20
4.1757031073
 30
0.0
  0
SPLINE
  5
33D
100
AcDbEntity
  8
0
100
AcDbSpline
 62
7
  6
CONTINUOUS
 70
0
 71
3
 72
69
 73
65
 74
0
 42
0.0000001
 43
0.0000001
 44
0.0000000001
 40
0.0
 40
0.0
 40
0.0
 40
0.0
 40
0.0000666075
 40
0.0001193655
 40
0.0001878825
 40
0.0002729787
 40
0.0003750735
 40
0.0004944061
 40
0.0006311237
 40
0.0009570545
 40
0.0013533548
 40
0.0018202639
 40
0.0023579166
 40
0.0036456601
 40
0.0052162742
 40
0.0070688548
 40
0.0092023849
 40
0.0116157893
 40
0.0143079594
 40
0.0172777057
 40
0.020523256
 40
0.024042516
 40
0.0278333815
 40
0.0362214867
 40
0.0456698746
 40
0.0561561119
 40
0.0676560181
 40
0.0801446401
 40
0.0935926285
 40
0.1079690478
 40
0.1232422538
 40
0.1393766141
 40
0.1563350886
 40
0.1740800038
 40
0.2117632507
 40
0.2520833921
 40
0.2946720389
 40
0.3391412359
 40
0.3850858178
 40
0.432086431
 40
0.4797148304
 40
0.5275367222
 40
0.5751160128
 40
0.622019128
 40
0.667818058
 40
0.7120955399
 40
0.7544480652
 40
0.7944888169
 40
0.8318534076
 40
0.8662013434
 40
0.8972185679
 40
0.9246233492
 40
0.9368915885
 40
0.9481660987
 40
0.9584200579
 40
0.9676313131
 40
0.9757789663
 40
0.9828433373
 40
0.9888097015
 40
0.9936647301
 40
0.9956715732
 40
0.9973967174
 40
0.9988396481
 40
1.0
 40
1.0
 40
1.0
 40
1.0
 10
2.8167558796
 20
4.1001703426
 30
0.0
 10
2.8167560947
 20
4.1002642564
 30
0.0
 10
2.8168892415
 20
4.1004110516
 30
0.0
 10
2.8171123273
 20
4.1005400585
 30
0.0
 10
2.8173813949
 20
4.10065869
 30
0.0
 10
2.8177220755
 20
4.100774632
 30
0.0
 10
2.8181384371
 20
4.1008922247
 30
0.0
 10
2.8186295341
 20
4.101009762
 30
0.0
 10
2.8194330362
 20
4.1011769155
 30
0.0
 10
2.8206271577
 20
4.1013807544
 30
0.0
 10
2.8222875077
 20
4.10161487
 30
0.0
 10
2.8242487634
 20
4.1018497992
 30
0.0
 10
2.8274635563
 20
4.102184351
 30
0.0
 10
2.8322347842
 20
4.1025918014
 30
0.0
 10
2.83886065
 20
4.1030596523
 30
0.0
 10
2.8466814546
 20
4.1035292136
 30
0.0
 10
2.8556922871
 20
4.1040002161
 30
0.0
 10
2.865888284
 20
4.104472076
 30
0.0
 10
2.8772644023
 20
4.1049445817
 30
0.0
 10
2.889814708
 20
4.1054175029
 30
0.0
 10
2.9035319179
 20
4.1058907651
 30
0.0
 10
2.9184074962
 20
4.106364332
 30
0.0
 10
2.9405317525
 20
4.1070183335
 30
0.0
 10
2.9710148171
 20
4.1078280243
 30
0.0
 10
3.0109376789
 20
4.1087714092
 30
0.0
 10
3.0552491312
 20
4.1097160273
 30
0.0
 10
3.1038480551
 20
4.110661673
 30
0.0
 10
3.1566236471
 20
4.1116078908
 30
0.0
 10
3.2134556038
 20
4.1125546931
 30
0.0
 10
3.2742142168
 20
4.1135019705
 30
0.0
 10
3.3387609389
 20
4.1144495018
 30
0.0
 10
3.4069486256
 20
4.1153973327
 30
0.0
 10
3.478621643
 20
4.1163454464
 30
0.0
 10
3.580675881
 20
4.1176357266
 30
0.0
 10
3.7156678347
 20
4.1192383594
 30
0.0
 10
3.8856875178
 20
4.121126693
 30
0.0
 10
4.0652756735
 20
4.1230162514
 30
0.0
 10
4.2527944829
 20
4.1249067063
 30
0.0
 10
4.4465342941
 20
4.1267977602
 30
0.0
 10
4.644728662
 20
4.1286892478
 30
0.0
 10
4.8455700811
 20
4.1305809556
 30
0.0
 10
5.0472274485
 20
4.1324727324
 30
0.0
 10
5.2478621486
 20
4.1343644315
 30
0.0
 10
5.4456444248
 20
4.1362558619
 30
0.0
 10
5.6387710644
 20
4.1381468781
 30
0.0
 10
5.825481237
 20
4.140037244
 30
0.0
 10
6.0040721766
 20
4.1419266618
 30
0.0
 10
6.1729156465
 20
4.1438148267
 30
0.0
 10
6.330472223
 20
4.1457012286
 30
0.0
 10
6.4753050298
 20
4.1475849558
 30
0.0
 10
6.6060936274
 20
4.1494654469
 30
0.0
 10
6.7057511619
 20
4.1510816
 30
0.0
 10
6.777573302
 20
4.1523920428
 30
0.0
 10
6.8252160153
 20
4.1533374048
 30
0.0
 10
6.8685475928
 20
4.1542818656
 30
0.0
 10
6.9074693077
 20
4.1552249
 30
0.0
 10
6.9418924004
 20
4.1561659577
 30
0.0
 10
6.9717385121
 20
4.1571039944
 30
0.0
 10
6.996939567
 20
4.1580382462
 30
0.0
 10
7.0150089653
 20
4.1588524447
 30
0.0
 10
7.0270978449
 20
4.1595230857
 30
0.0
 10
7.0343793532
 20
4.1599919911
 30
0.0
 10
7.0404645398
 20
4.1604585701
 30
0.0
 10
7.0441192449
 20
4.1608035984
 30
0.0
 10
7.0457453284
 20
4.1609839258
 30
0.0
  0
SPLINE
  5
33E
100
AcDbEntity
  8
0
100
AcDbSpline
 62
7
  6
CONTINUOUS
 70
0
 71
3
 72
13
 73
9
 74
0
 42
0.0000001
 43
0.0000001
 44
0.0000000001
 40
0.0
 40
0.0
 40
0.0
 40
0.0
 40
0.3722276008
 40
0.6623892429
 40
0.7768387199
 40
0.8710220811
 40
0.9452118116
 40
1.0
 40
1.0
 40
1.0
 40
1.0
 10
7.0457453284
 20
4.1609839258
 30
0.0
 10
7.0466676182
 20
4.1610862048
 30
0.0
 10
7.0483071129
 20
4.1612839731
 30
0.0
 10
7.0502224346
 20
4.1615759549
 30
0.0
 10
7.0514419959
 20
4.1618194146
 30
0.0
 10
7.0521275069
 20
4.1619862844
 30
0.0
 10
7.0526587567
 20
4.1621517327
 30
0.0
 10
7.0529561314
 20
4.1622784469
 30
0.0
 10
7.0530744095
 20
4.1623467513
 30
0.0
  0
SPLINE
  5
33F
100
AcDbEntity
  8
0
100
AcDbSpline
 62
7
  6
CONTINUOUS
 70
0
 71
3
 72
45
 73
41
 74
0
 42
0.0000001
 43
0.0000001
 44
0.0000000001
 40
0.0
 40
0.0
 40
0.0
 40
0.0
 40
0.0001342489
 40
0.0002434826
 40
0.0003863783
 40
0.0005645227
 40
0.0007787207
 40
0.00102943
 40
0.0013169341
 40
0.0020029904
 40
0.0028378512
 40
0.0049551361
 40
0.0076691479
 40
0.010978811
 40
0.0148826174
 40
0.019378857
 40
0.0244656211
 40
0.0301398189
 40
0.0363975707
 40
0.0432349571
 40
0.0506480418
 40
0.0586328758
 40
0.0762990678
 40
0.0961888135
 40
0.1182550604
 40
0.1424460945
 40
0.1687014654
 40
0.1969594996
 40
0.2271523674
 40
0.2592057239
 40
0.293044245
 40
0.3285856833
 40
0.365743655
 40
0.4445513702
 40
0.5287069234
 40
0.6174014701
 40
0.7097807368
 40
0.8049485397
 40
0.902014878
 40
1.0
 40
1.0
 40
1.0
 40
1.0
 10
2.7400563461
 20
4.6444531073
 30
0.0
 10
2.7400563461
 20
4.6445513587
 30
0.0
 10
2.7402054123
 20
4.6447026912
 30
0.0
 10
2.7404459905
 20
4.6448332673
 30
0.0
 10
2.7407403489
 20
4.6449552839
 30
0.0
 10
2.7411125964
 20
4.6450742498
 30
0.0
 10
2.7415680065
 20
4.6451950978
 30
0.0
 10
2.7421052248
 20
4.6453158575
 30
0.0
 10
2.7429847348
 20
4.6454876855
 30
0.0
 10
2.7442918507
 20
4.6456972297
 30
0.0
 10
2.7469317384
 20
4.6460461717
 30
0.0
 10
2.7510582025
 20
4.6464642732
 30
0.0
 10
2.7569971915
 20
4.6469420774
 30
0.0
 10
2.7642470373
 20
4.6474224048
 30
0.0
 10
2.7728033758
 20
4.6479051921
 30
0.0
 10
2.7826620317
 20
4.6483892101
 30
0.0
 10
2.7938176775
 20
4.6488741303
 30
0.0
 10
2.8062635605
 20
4.6493596766
 30
0.0
 10
2.8199915106
 20
4.6498457237
 30
0.0
 10
2.834992795
 20
4.6503321342
 30
0.0
 10
2.8512586614
 20
4.6508188532
 30
0.0
 10
2.8754476434
 20
4.6514909608
 30
0.0
 10
2.9087667972
 20
4.6523228849
 30
0.0
 10
2.9523911573
 20
4.6532925223
 30
0.0
 10
3.0007918218
 20
4.6542633505
 30
0.0
 10
3.0538520615
 20
4.6552350683
 30
0.0
 10
3.1114445045
 20
4.6562075994
 30
0.0
 10
3.1734300197
 20
4.6571806394
 30
0.0
 10
3.2396593298
 20
4.6581540779
 30
0.0
 10
3.3099731831
 20
4.6591279388
 30
0.0
 10
3.3842017927
 20
4.6601020154
 30
0.0
 10
3.4621665684
 20
4.6610763448
 30
0.0
 10
3.5730406673
 20
4.6624018448
 30
0.0
 10
3.7194921827
 20
4.6640479676
 30
0.0
 10
3.9036602799
 20
4.6659884597
 30
0.0
 10
4.097761362
 20
4.6679301326
 30
0.0
 10
4.2999222457
 20
4.6698726574
 30
0.0
 10
4.5082103755
 20
4.6718158889
 30
0.0
 10
4.7206013781
 20
4.6737594235
 30
0.0
 10
4.8633458934
 20
4.6750531782
 30
0.0
 10
4.9350543478
 20
4.6757031073
 30
0.0
  0
SPLINE
  5
340
100
AcDbEntity
  8
0
100
AcDbSpline
 62
7
  6
CONTINUOUS
 70
0
 71
3
 72
69
 73
65
 74
0
 42
0.0000001
 43
0.0000001
 44
0.0000000001
 40
0.0
 40
0.0
 40
0.0
 40
0.0
 40
0.0000664198
 40
0.0001189754
 40
0.0001872136
 40
0.0002719548
 40
0.0003736194
 40
0.0004924473
 40
0.0006285864
 40
0.0009531422
 40
0.0013477822
 40
0.0018127517
 40
0.0023481916
 40
0.0036306156
 40
0.0051946281
 40
0.0070393751
 40
0.0091638934
 40
0.011567162
 40
0.0142481262
 40
0.0172055568
 40
0.020437584
 40
0.0239421686
 40
0.0277172652
 40
0.0360707866
 40
0.0454805232
 40
0.0559240174
 40
0.0673775823
 40
0.0798164067
 40
0.093211198
 40
0.1075315314
 40
0.1227459688
 40
0.1388190102
 40
0.1557141328
 40
0.1733939257
 40
0.2109427253
 40
0.2511253625
 40
0.2935763556
 40
0.3379106553
 40
0.3837262567
 40
0.4306068565
 40
0.4781272065
 40
0.5258560058
 40
0.573359943
 40
0.6202081123
 40
0.6659749479
 40
0.7102453237
 40
0.7526176727
 40
0.7927067228
 40
0.8301492586
 40
0.8646056891
 40
0.8957623717
 40
0.923337546
 40
0.9357025063
 40
0.947081265
 40
0.9574469097
 40
0.9667771404
 40
0.9750508302
 40
0.9822481093
 40
0.9883540554
 40
0.993355084
 40
0.9954372429
 40
0.997239166
 40
0.998760247
 40
1.0
 40
1.0
 40
1.0
 40
1.0
 10
2.816756171
 20
3.9751703425
 30
0.0
 10
2.8167563527
 20
3.9752639629
 30
0.0
 10
2.816888692
 20
3.9754104294
 30
0.0
 10
2.8171108095
 20
3.9755392133
 30
0.0
 10
2.8173785807
 20
3.9756575747
 30
0.0
 10
2.8177176578
 20
3.9757732596
 30
0.0
 10
2.8181320635
 20
3.975890586
 30
0.0
 10
2.818620872
 20
3.9760078578
 30
0.0
 10
2.8194206553
 20
3.9761746333
 30
0.0
 10
2.8206093104
 20
3.9763780121
 30
0.0
 10
2.8222621327
 20
3.9766115971
 30
0.0
 10
2.8242145885
 20
3.9768459942
 30
0.0
 10
2.8274150389
 20
3.9771797775
 30
0.0
 10
2.8321648739
 20
3.9775862891
 30
0.0
 10
2.8387608512
 20
3.9780530938
 30
0.0
 10
2.8465461966
 20
3.978521595
 30
0.0
 10
2.8555162228
 20
3.9789915337
 30
0.0
 10
2.8656662964
 20
3.9794623266
 30
0.0
 10
2.8769914725
 20
3.9799337547
 30
0.0
 10
2.8894857006
 20
3.9804055934
 30
0.0
 10
2.9031415833
 20
3.9808777878
 30
0.0
 10
2.9179506108
 20
3.9813502829
 30
0.0
 10
2.9399764007
 20
3.9820028139
 30
0.0
 10
2.9703246337
 20
3.9828106672
 30
0.0
 10
3.0100717397
 20
3.9837519021
 30
0.0
 10
3.054189514
 20
3.9846943974
 30
0.0
 10
3.1025777309
 20
3.9856378933
 30
0.0
 10
3.1551265966
 20
3.9865819585
 30
0.0
 10
3.211716844
 20
3.9875266271
 30
0.0
 10
3.2722198956
 20
3.9884717538
 30
0.0
 10
3.3364984437
 20
3.9894171319
 30
0.0
 10
3.4044065948
 20
3.9903628236
 30
0.0
 10
3.4757900496
 20
3.991308786
 30
0.0
 10
3.5774423044
 20
3.9925961859
 30
0.0
 10
3.7119176255
 20
3.9941952569
 30
0.0
 10
3.8813076696
 20
3.9960793262
 30
0.0
 10
4.0602626102
 20
3.9979646174
 30
0.0
 10
4.2471577812
 20
3.9998508103
 30
0.0
 10
4.440296907
 20
4.0017376
 30
0.0
 10
4.6379270641
 20
4.0036248258
 30
0.0
 10
4.8382540458
 20
4.0055122777
 30
0.0
 10
5.039459677
 20
4.0073998013
 30
0.0
 10
5.2397178097
 20
4.0092872559
 30
0.0
 10
5.4372103781
 20
4.011174451
 30
0.0
 10
5.6301449433
 20
4.0130612423
 30
0.0
 10
5.8167704107
 20
4.014947403
 30
0.0
 10
5.995392466
 20
4.0168326365
 30
0.0
 10
6.1643899414
 20
4.0187166481
 30
0.0
 10
6.3222289921
 20
4.020598945
 30
0.0
 10
6.467476696
 20
4.0224786403
 30
0.0
 10
6.5988148431
 20
4.0243551914
 30
0.0
 10
6.6990149266
 20
4.0259673831
 30
0.0
 10
6.7713385652
 20
4.027274219
 30
0.0
 10
6.8194074393
 20
4.0282175631
 30
0.0
 10
6.8631978991
 20
4.0291600488
 30
0.0
 10
6.9026105991
 20
4.0301011781
 30
0.0
 10
6.9375560269
 20
4.031040436
 30
0.0
 10
6.9679549942
 20
4.0319769031
 30
0.0
 10
6.9937386007
 20
4.0329098043
 30
0.0
 10
7.0123116655
 20
4.0337221379
 30
0.0
 10
7.0248177528
 20
4.0343899758
 30
0.0
 10
7.032422201
 20
4.0348583636
 30
0.0
 10
7.0388367267
 20
4.0353247061
 30
0.0
 10
7.0427133961
 20
4.0356677069
 30
0.0
 10
7.0444517484
 20
4.0358459514
 30
0.0
  0
SPLINE
  5
341
100
AcDbEntity
  8
0
100
AcDbSpline
 62
7
  6
CONTINUOUS
 70
0
 71
3
 72
14
 73
10
 74
0
 42
0.0000001
 43
0.0000001
 44
0.0000000001
 40
0.0
 40
0.0
 40
0.0
 40
0.0
 40
0.3765223271
 40
0.5329430094
 40
0.6681715876
 40
0.7822720096
 40
0.8753718867
 40
0.9477455378
 40
1.0
 40
1.0
 40
1.0
 40
1.0
 10
7.0444517484
 20
4.0358459514
 30
0.0
 10
7.0455477853
 20
4.0359583351
 30
0.0
 10
7.0470979974
 20
4.0361306632
 30
0.0
 10
7.0490353074
 20
4.0363952414
 30
0.0
 10
7.0502082005
 20
4.0365806649
 30
0.0
 10
7.0511931454
 20
4.0367653121
 30
0.0
 10
7.0519910435
 20
4.0369486184
 30
0.0
 10
7.0526016951
 20
4.0371302163
 30
0.0
 10
7.0529408637
 20
4.0372702084
 30
0.0
 10
7.0530732333
 20
4.0373467526
 30
0.0
  0
SPLINE
  5
342
100
AcDbEntity
  8
0
100
AcDbSpline
 62
7
  6
CONTINUOUS
 70
0
 71
3
 72
45
 73
41
 74
0
 42
0.0000001
 43
0.0000001
 44
0.0000000001
 40
0.0
 40
0.0
 40
0.0
 40
0.0
 40
0.0001342489
 40
0.0002434825
 40
0.0003863781
 40
0.0005645226
 40
0.0007787205
 40
0.0010294298
 40
0.001316934
 40
0.0020029903
 40
0.0028378514
 40
0.0049551363
 40
0.007669148
 40
0.0109788107
 40
0.0148826168
 40
0.0193788564
 40
0.0244656205
 40
0.0301398179
 40
0.036397569
 40
0.0432349547
 40
0.0506480387
 40
0.0586328723
 40
0.0762990625
 40
0.096188806
 40
0.1182550524
 40
0.1424460864
 40
0.1687014578
 40
0.1969594945
 40
0.2271523652
 40
0.2592057242
 40
0.2930442472
 40
0.3285856865
 40
0.3657436584
 40
0.4445513733
 40
0.5287069254
 40
0.6174014709
 40
0.709780736
 40
0.8049485379
 40
0.9020148775
 40
1.0
 40
1.0
 40
1.0
 40
1.0
 10
2.7400563461
 20
4.2694531073
 30
0.0
 10
2.740056346
 20
4.2695513587
 30
0.0
 10
2.7402054121
 20
4.2697026913
 30
0.0
 10
2.7404459901
 20
4.2698332673
 30
0.0
 10
2.7407403485
 20
4.2699552839
 30
0.0
 10
2.7411125959
 20
4.2700742499
 30
0.0
 10
2.741568006
 20
4.2701950978
 30
0.0
 10
2.7421052243
 20
4.2703158575
 30
0.0
 10
2.7429847344
 20
4.2704876855
 30
0.0
 10
2.7442918506
 20
4.2706972297
 30
0.0
 10
2.7469317385
 20
4.2710461716
 30
0.0
 10
2.7510582027
 20
4.2714642732
 30
0.0
 10
2.7569971914
 20
4.2719420774
 30
0.0
 10
2.7642470367
 20
4.2724224047
 30
0.0
 10
2.7728033746
 20
4.2729051921
 30
0.0
 10
2.7826620302
 20
4.27338921
 30
0.0
 10
2.7938176757
 20
4.2738741302
 30
0.0
 10
2.806263558
 20
4.2743596765
 30
0.0
 10
2.8199915068
 20
4.2748457235
 30
0.0
 10
2.8349927896
 20
4.2753321341
 30
0.0
 10
2.8512586546
 20
4.275818853
 30
0.0
 10
2.8754476346
 20
4.2764909606
 30
0.0
 10
2.9087667851
 20
4.2773228846
 30
0.0
 10
2.952391142
 20
4.278292522
 30
0.0
 10
3.0007918044
 20
4.2792633501
 30
0.0
 10
3.0538520441
 20
4.2802350679
 30
0.0
 10
3.1114444892
 20
4.2812075992
 30
0.0
 10
3.1734300087
 20
4.2821806392
 30
0.0
 10
3.2396593246
 20
4.2831540779
 30
0.0
 10
3.3099731831
 20
4.2841279388
 30
0.0
 10
3.3842017968
 20
4.2851020155
 30
0.0
 10
3.4621665749
 20
4.2860763449
 30
0.0
 10
3.5730406744
 20
4.2874018449
 30
0.0
 10
3.719492189
 20
4.2890479676
 30
0.0
 10
3.9036602842
 20
4.2909884598
 30
0.0
 10
4.0977613635
 20
4.2929301326
 30
0.0
 10
4.2999222443
 20
4.2948726574
 30
0.0
 10
4.5082103732
 20
4.2968158889
 30
0.0
 10
4.7206013765
 20
4.2987594235
 30
0.0
 10
4.8633458931
 20
4.3000531782
 30
0.0
 10
4.9350543478
 20
4.3007031073
 30
0.0
  0
SPLINE
  5
343
100
AcDbEntity
  8
0
100
AcDbSpline
 62
7
  6
CONTINUOUS
 70
0
 71
3
 72
72
 73
68
 74
0
 42
0.0000001
 43
0.0000001
 44
0.0000000001
 40
0.0
 40
0.0
 40
0.0
 40
0.0
 40
0.0000674503
 40
0.0001211235
 40
0.0001909222
 40
0.0002776727
 40
0.0003817978
 40
0.0005035383
 40
0.0006430434
 40
0.0009756933
 40
0.0013802482
 40
0.0018569589
 40
0.0024059651
 40
0.0037208171
 40
0.0053242673
 40
0.0072154655
 40
0.0093934524
 40
0.0118572111
 40
0.0146056797
 40
0.0176373605
 40
0.0209502226
 40
0.0245421928
 40
0.0284111916
 40
0.0369719115
 40
0.0466133091
 40
0.0573116773
 40
0.0690427271
 40
0.0817797809
 40
0.0954919783
 40
0.1101479919
 40
0.1257141645
 40
0.1421531605
 40
0.1594272713
 40
0.1774965964
 40
0.2158485195
 40
0.2568523344
 40
0.300125593
 40
0.345264692
 40
0.3918494415
 40
0.4394454547
 40
0.4876090509
 40
0.5358915606
 40
0.5838427534
 40
0.6310159303
 40
0.6769714258
 40
0.7212805743
 40
0.7635309722
 40
0.8033287262
 40
0.8403023753
 40
0.8741082366
 40
0.9044311422
 40
0.9181963682
 40
0.9309877819
 40
0.9427758739
 40
0.9535319644
 40
0.9632320548
 40
0.9718538239
 40
0.9793759761
 40
0.9857822927
 40
0.9910582492
 40
0.9932679995
 40
0.9951907438
 40
0.9968257763
 40
0.9981724917
 40
0.9992304959
 40
0.9996512609
 40
1.0
 40
1.0
 40
1.0
 40
1.0
 10
2.8167564071
 20
3.8501703423
 30
0.0
 10
2.8167565466
 20
3.8502655548
 30
0.0
 10
2.8168930896
 20
3.8504140986
 30
0.0
 10
2.8171204713
 20
3.850544182
 30
0.0
 10
2.8173953955
 20
3.8506641435
 30
0.0
 10
2.8177434498
 20
3.8507813335
 30
0.0
 10
2.818168917
 20
3.8509002255
 30
0.0
 10
2.8186707877
 20
3.8510190556
 30
0.0
 10
2.819492054
 20
3.8511880685
 30
0.0
 10
2.8207126469
 20
3.8513941623
 30
0.0
 10
2.8224099134
 20
3.8516308623
 30
0.0
 10
2.8244149748
 20
3.8518683861
 30
0.0
 10
2.8277016491
 20
3.8522066032
 30
0.0
 10
2.832579074
 20
3.852618544
 30
0.0
 10
2.8393517689
 20
3.8530915911
 30
0.0
 10
2.8473452745
 20
3.8535663553
 30
0.0
 10
2.8565549149
 20
3.8540425741
 30
0.0
 10
2.8669760515
 20
3.8545196589
 30
0.0
 10
2.87860335
 20
3.8549973607
 30
0.0
 10
2.8914301323
 20
3.8554754985
 30
0.0
 10
2.9054483365
 20
3.8559540055
 30
0.0
 10
2.9206491174
 20
3.8564328147
 30
0.0
 10
2.9432556285
 20
3.8570940518
 30
0.0
 10
2.9744004569
 20
3.8579126288
 30
0.0
 10
3.015185177
 20
3.8588664258
 30
0.0
 10
3.0604461925
 20
3.8598215345
 30
0.0
 10
3.1100778849
 20
3.8607775894
 30
0.0
 10
3.1639645996
 20
3.8617342537
 30
0.0
 10
3.2219807731
 20
3.8626915584
 30
0.0
 10
3.2839910211
 20
3.8636492706
 30
0.0
 10
3.349850835
 20
3.8646072646
 30
0.0
 10
3.4194067102
 20
3.8655656006
 30
0.0
 10
3.4924963423
 20
3.8665241612
 30
0.0
 10
3.5965162997
 20
3.8678284666
 30
0.0
 10
3.7340316807
 20
3.8694484818
 30
0.0
 10
3.9071238575
 20
3.8713576146
 30
0.0
 10
4.0897973261
 20
3.8732679395
 30
0.0
 10
4.2803492241
 20
3.8751791882
 30
0.0
 10
4.477003398
 20
3.8770910266
 30
0.0
 10
4.6779271348
 20
3.8790032704
 30
0.0
 10
4.8812475288
 20
3.8809157347
 30
0.0
 10
5.085069315
 20
3.8828282297
 30
0.0
 10
5.2874929678
 20
3.8847406151
 30
0.0
 10
5.4866316698
 20
3.8866526983
 30
0.0
 10
5.6806290373
 20
3.8885642727
 30
0.0
 10
5.8676770858
 20
3.8904751397
 30
0.0
 10
6.0460324262
 20
3.8923849429
 30
0.0
 10
6.2140323909
 20
3.8942932947
 30
0.0
 10
6.3701112838
 20
3.896199593
 30
0.0
 10
6.5128144644
 20
3.8981031944
 30
0.0
 10
6.6227573454
 20
3.8997339866
 30
0.0
 10
6.7030375027
 20
3.9010533661
 30
0.0
 10
6.7571563605
 20
3.9020101874
 30
0.0
 10
6.8070268339
 20
3.9029661726
 30
0.0
 10
6.852532751
 20
3.9039213775
 30
0.0
 10
6.89356805
 20
3.9048752799
 30
0.0
 10
6.9300370061
 20
3.9058273489
 30
0.0
 10
6.961854798
 20
3.906776759
 30
0.0
 10
6.9889473092
 20
3.9077227436
 30
0.0
 10
7.0085402858
 20
3.9085458737
 30
0.0
 10
7.0218041282
 20
3.9092214982
 30
0.0
 10
7.0299317521
 20
3.909696694
 30
0.0
 10
7.0368389545
 20
3.9101695609
 30
0.0
 10
7.0425221528
 20
3.9106400322
 30
0.0
 10
7.0464900237
 20
3.9110516408
 30
0.0
 10
7.0490470582
 20
3.9113941068
 30
0.0
 10
7.0501196749
 20
3.911567161
 30
0.0
 10
7.0506037958
 20
3.9116564108
 30
0.0
  0
LINE
  5
344
100
AcDbEntity
  8
0
100
AcDbLine
 62
7
  6
CONTINUOUS
 10
7.0506037958
 20
3.9116564108
 11
7.0530728905
 21
3.9123467526
  0
SPLINE
  5
345
100
AcDbEntity
  8
0
100
AcDbSpline
 62
7
  6
CONTINUOUS
 70
0
 71
3
 72
70
 73
66
 74
0
 42
0.0000001
 43
0.0000001
 44
0.0000000001
 40
0.0
 40
0.0
 40
0.0
 40
0.0
 40
0.0000672486
 40
0.0001207094
 40
0.0001902179
 40
0.0002766009
 40
0.000380282
 40
0.0005015028
 40
0.0006404133
 40
0.0009716528
 40
0.0013745074
 40
0.0018492341
 40
0.0023959473
 40
0.0037052009
 40
0.005301747
 40
0.0071847904
 40
0.0093534275
 40
0.0118066967
 40
0.0145435521
 40
0.0175623604
 40
0.0208611234
 40
0.0244378282
 40
0.0282904553
 40
0.0368153085
 40
0.0464164273
 40
0.0570703861
 40
0.068753354
 40
0.0814385645
 40
0.0950955055
 40
0.1096933244
 40
0.1251983685
 40
0.1415737018
 40
0.1587821002
 40
0.1767837562
 40
0.2149962544
 40
0.2558574605
 40
0.2989881279
 40
0.3439876781
 40
0.3904390965
 40
0.4379112589
 40
0.4859635615
 40
0.5341503987
 40
0.5820244487
 40
0.6291417148
 40
0.6750650816
 40
0.7193680678
 40
0.7616401685
 40
0.8014891199
 40
0.838544595
 40
0.8724636894
 40
0.9029316571
 40
0.9296650518
 40
0.9415532573
 40
0.9524171455
 40
0.9622326054
 40
0.9709771053
 40
0.9786291678
 40
0.9851723552
 40
0.990591846
 40
0.9928757666
 40
0.9948742263
 40
0.9965864576
 40
0.998011776
 40
0.9991496642
 40
1.0
 40
1.0
 40
1.0
 40
1.0
 10
2.8167565719
 20
3.7251703421
 30
0.0
 10
2.8167566573
 20
3.7252652517
 30
0.0
 10
2.8168923656
 20
3.7254134808
 30
0.0
 10
2.8171187602
 20
3.7255433346
 30
0.0
 10
2.8173923705
 20
3.7256630263
 30
0.0
 10
2.8177388072
 20
3.7257799575
 30
0.0
 10
2.8181623065
 20
3.7258985824
 30
0.0
 10
2.8186618796
 20
3.726017146
 30
0.0
 10
2.819479421
 20
3.7261857803
 30
0.0
 10
2.8206945477
 20
3.7263914125
 30
0.0
 10
2.8223842958
 20
3.7266275808
 30
0.0
 10
2.824380536
 20
3.7268645623
 30
0.0
 10
2.8276526406
 20
3.7272020031
 30
0.0
 10
2.8325082431
 20
3.727613026
 30
0.0
 10
2.839250479
 20
3.7280850161
 30
0.0
 10
2.8472079968
 20
3.7285587182
 30
0.0
 10
2.8563763567
 20
3.729033869
 30
0.0
 10
2.8667510994
 20
3.7295098804
 30
0.0
 10
2.8783268016
 20
3.7299864916
 30
0.0
 10
2.891096662
 20
3.7304635589
 30
0.0
 10
2.9050525612
 20
3.7309409923
 30
0.0
 10
2.9201858716
 20
3.7314187271
 30
0.0
 10
2.9426927676
 20
3.7320784898
 30
0.0
 10
2.9737010391
 20
3.7328952088
 30
0.0
 10
3.0143077791
 20
3.7338468716
 30
0.0
 10
3.0593727152
 20
3.7347998452
 30
0.0
 10
3.108791168
 20
3.7357537325
 30
0.0
 10
3.1624485167
 20
3.7367082525
 30
0.0
 10
3.2202202586
 20
3.737663413
 30
0.0
 10
3.2819722037
 20
3.7386189591
 30
0.0
 10
3.3475611111
 20
3.7395748041
 30
0.0
 10
3.4168347599
 20
3.7405309911
 30
0.0
 10
3.4896322563
 20
3.7414873873
 30
0.0
 10
3.5932472099
 20
3.7427888166
 30
0.0
 10
3.7302426268
 20
3.7444052489
 30
0.0
 10
3.902702266
 20
3.7463101127
 30
0.0
 10
4.084741183
 20
3.748216157
 30
0.0
 10
4.2746701106
 20
3.7501231301
 30
0.0
 10
4.4707265924
 20
3.7520306961
 30
0.0
 10
4.6710916958
 20
3.7539386666
 30
0.0
 10
4.8739061468
 20
3.7558468641
 30
0.0
 10
5.0772878167
 20
3.7577550969
 30
0.0
 10
5.2793497887
 20
3.7596632263
 30
0.0
 10
5.478217126
 20
3.7615710654
 30
0.0
 10
5.6720442983
 20
3.7634784075
 30
0.0
 10
5.8590330316
 20
3.7653850587
 30
0.0
 10
6.0374483351
 20
3.7672906831
 30
0.0
 10
6.2056344448
 20
3.7691948585
 30
0.0
 10
6.3620309618
 20
3.7710971382
 30
0.0
 10
6.5051868446
 20
3.7729964669
 30
0.0
 10
6.6337735515
 20
3.7748919967
 30
0.0
 10
6.7312678808
 20
3.7765236489
 30
0.0
 10
6.8010954837
 20
3.7778480394
 30
0.0
 10
6.8470490459
 20
3.7788013022
 30
0.0
 10
6.888564803
 20
3.7797532571
 30
0.0
 10
6.925546348
 20
3.780703487
 30
0.0
 10
6.9579080313
 20
3.7816512331
 30
0.0
 10
6.9855748046
 20
3.7825957657
 30
0.0
 10
7.0056649209
 20
3.7834169056
 30
0.0
 10
7.0193409425
 20
3.7840899494
 30
0.0
 10
7.0277880817
 20
3.7845643788
 30
0.0
 10
7.035021313
 20
3.7850371878
 30
0.0
 10
7.041037405
 20
3.7855067784
 30
0.0
 10
7.0458325174
 20
3.7859727588
 30
0.0
 10
7.048617496
 20
3.7863258583
 30
0.0
 10
7.0498021077
 20
3.7865180477
 30
0.0
  0
SPLINE
  5
346
100
AcDbEntity
  8
0
100
AcDbSpline
 62
7
  6
CONTINUOUS
 70
0
 71
3
 72
11
 73
7
 74
0
 42
0.0000001
 43
0.0000001
 44
0.0000000001
 40
0.0
 40
0.0
 40
0.0
 40
0.0
 40
0.34875133
 40
0.6309457947
 40
0.8474043962
 40
1.0
 40
1.0
 40
1.0
 40
1.0
 10
7.0498021077
 20
3.7865180477
 30
0.0
 10
7.0501905126
 20
3.7865810619
 30
0.0
 10
7.0508917403
 20
3.7867038502
 30
0.0
 10
7.0518270504
 20
3.7869057822
 30
0.0
 10
7.0525338664
 20
3.7871056395
 30
0.0
 10
7.0529235144
 20
3.7872605762
 30
0.0
 10
7.053072563
 20
3.7873467525
 30
0.0
  0
SPLINE
  5
347
100
AcDbEntity
  8
0
100
AcDbSpline
 62
7
  6
CONTINUOUS
 70
0
 71
3
 72
45
 73
41
 74
0
 42
0.0000001
 43
0.0000001
 44
0.0000000001
 40
0.0
 40
0.0
 40
0.0
 40
0.0
 40
0.0001342489
 40
0.0002434825
 40
0.0003863782
 40
0.0005645226
 40
0.0007787205
 40
0.0010294299
 40
0.001316934
 40
0.0020029903
 40
0.0028378513
 40
0.0049551362
 40
0.0076691478
 40
0.0109788105
 40
0.0148826165
 40
0.019378856
 40
0.0244656201
 40
0.0301398176
 40
0.0363975686
 40
0.0432349543
 40
0.0506480383
 40
0.058632872
 40
0.0762990622
 40
0.0961888057
 40
0.118255052
 40
0.1424460858
 40
0.1687014568
 40
0.1969594931
 40
0.2271523632
 40
0.2592057216
 40
0.293044244
 40
0.3285856827
 40
0.3657436543
 40
0.4445513694
 40
0.5287069222
 40
0.6174014683
 40
0.709780734
 40
0.8049485365
 40
0.9020148771
 40
1.0
 40
1.0
 40
1.0
 40
1.0
 10
2.7400563461
 20
4.3944531073
 30
0.0
 10
2.740056346
 20
4.3945513587
 30
0.0
 10
2.7402054121
 20
4.3947026912
 30
0.0
 10
2.7404459902
 20
4.3948332673
 30
0.0
 10
2.7407403485
 20
4.3949552839
 30
0.0
 10
2.741112596
 20
4.3950742498
 30
0.0
 10
2.741568006
 20
4.3951950978
 30
0.0
 10
2.7421052243
 20
4.3953158575
 30
0.0
 10
2.7429847344
 20
4.3954876855
 30
0.0
 10
2.7442918505
 20
4.3956972297
 30
0.0
 10
2.7469317383
 20
4.3960461716
 30
0.0
 10
2.7510582024
 20
4.3964642732
 30
0.0
 10
2.7569971909
 20
4.3969420773
 30
0.0
 10
2.7642470361
 20
4.3974224047
 30
0.0
 10
2.7728033739
 20
4.3979051921
 30
0.0
 10
2.7826620295
 20
4.39838921
 30
0.0
 10
2.7938176749
 20
4.3988741301
 30
0.0
 10
2.8062635571
 20
4.3993596764
 30
0.0
 10
2.8199915059
 20
4.3998457235
 30
0.0
 10
2.8349927888
 20
4.400332134
 30
0.0
 10
2.8512586538
 20
4.400818853
 30
0.0
 10
2.8754476339
 20
4.4014909606
 30
0.0
 10
2.9087667844
 20
4.4023228846
 30
0.0
 10
2.9523911413
 20
4.403292522
 30
0.0
 10
3.0007918034
 20
4.4042633501
 30
0.0
 10
3.0538520425
 20
4.4052350679
 30
0.0
 10
3.1114444869
 20
4.4062075992
 30
0.0
 10
3.1734300054
 20
4.4071806391
 30
0.0
 10
3.2396593201
 20
4.4081540778
 30
0.0
 10
3.3099731774
 20
4.4091279387
 30
0.0
 10
3.3842017898
 20
4.4101020154
 30
0.0
 10
3.4621665667
 20
4.4110763448
 30
0.0
 10
3.5730406657
 20
4.4124018448
 30
0.0
 10
3.7194921807
 20
4.4140479676
 30
0.0
 10
3.903660277
 20
4.4159884597
 30
0.0
 10
4.0977613577
 20
4.4179301326
 30
0.0
 10
4.2999222399
 20
4.4198726573
 30
0.0
 10
4.5082103704
 20
4.4218158889
 30
0.0
 10
4.7206013751
 20
4.4237594235
 30
0.0
 10
4.8633458928
 20
4.4250531782
 30
0.0
 10
4.9350543478
 20
4.4257031073
 30
0.0
  0
SPLINE
  5
348
100
AcDbEntity
  8
0
100
AcDbSpline
 62
7
  6
CONTINUOUS
 70
0
 71
3
 72
69
 73
65
 74
0
 42
0.0000001
 43
0.0000001
 44
0.0000000001
 40
0.0
 40
0.0
 40
0.0
 40
0.0
 40
0.0000663692
 40
0.0001189072
 40
0.0001871545
 40
0.00027194
 40
0.0003736899
 40
0.0004926493
 40
0.000628971
 40
0.0009540611
 40
0.001349431
 40
0.0018152439
 40
0.0023515555
 40
0.0036356228
 40
0.0052013215
 40
0.0070480769
 40
0.009175206
 40
0.0115818964
 40
0.014266714
 40
0.0172279158
 40
0.0204637425
 40
0.023972426
 40
0.0277521913
 40
0.0361169845
 40
0.0455382033
 40
0.0559942282
 40
0.067462594
 40
0.0799163115
 40
0.0933268448
 40
0.1076648812
 40
0.1228969673
 40
0.1389882609
 40
0.1559032207
 40
0.1736026271
 40
0.2111924496
 40
0.2514164629
 40
0.2939096078
 40
0.3382849895
 40
0.3841395972
 40
0.4310568628
 40
0.4786100288
 40
0.5263671555
 40
0.5738940434
 40
0.6207587715
 40
0.666535616
 40
0.7108080494
 40
0.7531741117
 40
0.7932489392
 40
0.8306675467
 40
0.8650906326
 40
0.8962055321
 40
0.9237285328
 40
0.9360644106
 40
0.9474106857
 40
0.9577427356
 40
0.9670371367
 40
0.9752716482
 40
0.9824288737
 40
0.9884927262
 40
0.9934484741
 40
0.9955077742
 40
0.9972867106
 40
0.9987843779
 40
1.0
 40
1.0
 40
1.0
 40
1.0
 10
2.8167563734
 20
3.100170341
 30
0.0
 10
2.8167562305
 20
3.1002638993
 30
0.0
 10
2.8168882895
 20
3.1004106812
 30
0.0
 10
2.8171103189
 20
3.1005394773
 30
0.0
 10
2.817378139
 20
3.1006579397
 30
0.0
 10
2.8177174361
 20
3.1007736919
 30
0.0
 10
2.8181322453
 20
3.1008911004
 30
0.0
 10
2.8186216644
 20
3.1010084505
 30
0.0
 10
2.8194227229
 20
3.1011753589
 30
0.0
 10
2.8206135442
 20
3.101378869
 30
0.0
 10
2.822269511
 20
3.101612589
 30
0.0
 10
2.8242256123
 20
3.1018471318
 30
0.0
 10
2.8274311163
 20
3.1021810985
 30
0.0
 10
2.8321873305
 20
3.1025879252
 30
0.0
 10
2.838791468
 20
3.1030550966
 30
0.0
 10
2.8465864537
 20
3.1035239523
 30
0.0
 10
2.8555686845
 20
3.103994232
 30
0.0
 10
2.8657336818
 20
3.104465302
 30
0.0
 10
2.8770755303
 20
3.1049370133
 30
0.0
 10
2.8895870731
 20
3.1054092007
 30
0.0
 10
2.9032607283
 20
3.1058817436
 30
0.0
 10
2.9180889055
 20
3.1063545837
 30
0.0
 10
2.9401450781
 20
3.1070075995
 30
0.0
 10
2.9705349128
 20
3.107815878
 30
0.0
 10
3.0103356079
 20
3.1087578499
 30
0.0
 10
3.0545123705
 20
3.1097010566
 30
0.0
 10
3.1029648011
 20
3.1106450895
 30
0.0
 10
3.1555828068
 20
3.1115898634
 30
0.0
 10
3.2122466769
 20
3.1125352327
 30
0.0
 10
3.2728276169
 20
3.1134809284
 30
0.0
 10
3.3371879557
 20
3.1144269994
 30
0.0
 10
3.4051812577
 20
3.1153733831
 30
0.0
 10
3.4766529711
 20
3.1163199341
 30
0.0
 10
3.5784285142
 20
3.1176082684
 30
0.0
 10
3.7130606675
 20
3.1192083737
 30
0.0
 10
3.8826426961
 20
3.1210937965
 30
0.0
 10
4.061790632
 20
3.1229803537
 30
0.0
 10
4.248876226
 20
3.12486785
 30
0.0
 10
4.4421986456
 20
3.1267559576
 30
0.0
 10
4.640000879
 20
3.1286444656
 30
0.0
 10
4.8404851438
 20
3.1305332246
 30
0.0
 10
5.0418288087
 20
3.1324220441
 30
0.0
 10
5.2422019652
 20
3.1343107861
 30
0.0
 10
5.4397834651
 20
3.1361992905
 30
0.0
 10
5.6327770668
 20
3.1380873499
 30
0.0
 10
5.8194287529
 20
3.1399747953
 30
0.0
 10
5.9980420905
 20
3.1418613344
 30
0.0
 10
6.1669932823
 20
3.1437465707
 30
0.0
 10
6.3247468213
 20
3.1456301279
 30
0.0
 10
6.4698689365
 20
3.1475111143
 30
0.0
 10
6.6010403258
 20
3.1493887571
 30
0.0
 10
6.7010766331
 20
3.1510022826
 30
0.0
 10
6.7732469029
 20
3.1523100888
 30
0.0
 10
6.821186251
 20
3.153254176
 30
0.0
 10
6.8648372543
 20
3.1541972142
 30
0.0
 10
6.9041006275
 20
3.1551388206
 30
0.0
 10
6.938887168
 20
3.1560788086
 30
0.0
 10
6.9691179624
 20
3.1570157067
 30
0.0
 10
6.9947243157
 20
3.1579488342
 30
0.0
 10
7.0131436185
 20
3.1587619842
 30
0.0
 10
7.0255222375
 20
3.1594306284
 30
0.0
 10
7.0330296043
 20
3.1598991438
 30
0.0
 10
7.0393450635
 20
3.1603655174
 30
0.0
 10
7.0431547936
 20
3.1607091232
 30
0.0
 10
7.0448590494
 20
3.1608880204
 30
0.0
  0
SPLINE
  5
349
100
AcDbEntity
  8
0
100
AcDbSpline
 62
7
  6
CONTINUOUS
 70
0
 71
3
 72
14
 73
10
 74
0
 42
0.0000001
 43
0.0000001
 44
0.0000000001
 40
0.0
 40
0.0
 40
0.0
 40
0.0
 40
0.3752787989
 40
0.5313434507
 40
0.666421207
 40
0.7805975195
 40
0.8740176359
 40
0.9469540187
 40
1.0
 40
1.0
 40
1.0
 40
1.0
 10
7.0448590494
 20
3.1608880204
 30
0.0
 10
7.0459000844
 20
3.1609972988
 30
0.0
 10
7.0473728934
 20
3.1611649022
 30
0.0
 10
7.0492139396
 20
3.1614220141
 30
0.0
 10
7.0503301631
 20
3.1616022929
 30
0.0
 10
7.0512690517
 20
3.1617818429
 30
0.0
 10
7.052031512
 20
3.1619601442
 30
0.0
 10
7.052617433
 20
3.1621368364
 30
0.0
 10
7.0529437047
 20
3.16227277
 30
0.0
 10
7.0530718406
 20
3.1623467515
 30
0.0
  0
SPLINE
  5
34A
100
AcDbEntity
  8
0
100
AcDbSpline
 62
7
  6
CONTINUOUS
 70
0
 71
3
 72
45
 73
41
 74
0
 42
0.0000001
 43
0.0000001
 44
0.0000000001
 40
0.0
 40
0.0
 40
0.0
 40
0.0
 40
0.0001342489
 40
0.0002434825
 40
0.0003863782
 40
0.0005645226
 40
0.0007787206
 40
0.0010294299
 40
0.001316934
 40
0.0020029903
 40
0.0028378512
 40
0.0049551361
 40
0.0076691477
 40
0.0109788105
 40
0.0148826167
 40
0.0193788562
 40
0.0244656203
 40
0.0301398179
 40
0.0363975691
 40
0.0432349551
 40
0.0506480393
 40
0.0586328731
 40
0.0762990639
 40
0.0961888081
 40
0.1182550546
 40
0.1424460884
 40
0.1687014593
 40
0.1969594946
 40
0.2271523635
 40
0.2592057209
 40
0.2930442425
 40
0.3285856807
 40
0.3657436522
 40
0.4445513672
 40
0.5287069202
 40
0.6174014666
 40
0.7097807327
 40
0.8049485356
 40
0.9020148766
 40
1.0
 40
1.0
 40
1.0
 40
1.0
 10
2.7400563461
 20
4.5194531073
 30
0.0
 10
2.7400563461
 20
4.5195513587
 30
0.0
 10
2.7402054122
 20
4.5197026912
 30
0.0
 10
2.7404459903
 20
4.5198332673
 30
0.0
 10
2.7407403486
 20
4.5199552839
 30
0.0
 10
2.7411125961
 20
4.5200742498
 30
0.0
 10
2.7415680062
 20
4.5201950978
 30
0.0
 10
2.7421052245
 20
4.5203158575
 30
0.0
 10
2.7429847345
 20
4.5204876855
 30
0.0
 10
2.7442918505
 20
4.5206972297
 30
0.0
 10
2.7469317383
 20
4.5210461716
 30
0.0
 10
2.7510582023
 20
4.5214642732
 30
0.0
 10
2.7569971909
 20
4.5219420774
 30
0.0
 10
2.7642470362
 20
4.5224224047
 30
0.0
 10
2.7728033742
 20
4.5229051921
 30
0.0
 10
2.7826620299
 20
4.52338921
 30
0.0
 10
2.7938176754
 20
4.5238741302
 30
0.0
 10
2.8062635579
 20
4.5243596764
 30
0.0
 10
2.8199915071
 20
4.5248457235
 30
0.0
 10
2.8349927905
 20
4.5253321341
 30
0.0
 10
2.851258656
 20
4.5258188531
 30
0.0
 10
2.8754476367
 20
4.5264909607
 30
0.0
 10
2.9087667883
 20
4.5273228846
 30
0.0
 10
2.9523911461
 20
4.5282925221
 30
0.0
 10
3.000791809
 20
4.5292633502
 30
0.0
 10
3.0538520482
 20
4.530235068
 30
0.0
 10
3.1114444917
 20
4.5312075993
 30
0.0
 10
3.1734300086
 20
4.5321806392
 30
0.0
 10
3.239659321
 20
4.5331540778
 30
0.0
 10
3.3099731761
 20
4.5341279387
 30
0.0
 10
3.3842017868
 20
4.5351020153
 30
0.0
 10
3.4621665626
 20
4.5360763447
 30
0.0
 10
3.5730406611
 20
4.5374018447
 30
0.0
 10
3.7194921761
 20
4.5390479675
 30
0.0
 10
3.9036602728
 20
4.5409884596
 30
0.0
 10
4.0977613541
 20
4.5429301325
 30
0.0
 10
4.2999222371
 20
4.5448726573
 30
0.0
 10
4.5082103684
 20
4.5468158889
 30
0.0
 10
4.7206013741
 20
4.5487594235
 30
0.0
 10
4.8633458925
 20
4.5500531782
 30
0.0
 10
4.9350543478
 20
4.5507031073
 30
0.0
  0
SPLINE
  5
34B
100
AcDbEntity
  8
0
100
AcDbSpline
 62
7
  6
CONTINUOUS
 70
0
 71
3
 72
69
 73
65
 74
0
 42
0.0000001
 43
0.0000001
 44
0.0000000001
 40
0.0
 40
0.0
 40
0.0
 40
0.0
 40
0.0000663844
 40
0.0001189383
 40
0.0001872074
 40
0.0002720203
 40
0.0003738035
 40
0.0004928017
 40
0.0006291679
 40
0.0009543643
 40
0.0013498667
 40
0.0018158385
 40
0.002352335
 40
0.0036368481
 40
0.0052030908
 40
0.0070504844
 40
0.009178342
 40
0.0115858526
 40
0.0142715911
 40
0.0172338104
 40
0.0204707474
 40
0.0239806294
 40
0.0277616774
 40
0.0361292973
 40
0.0455536932
 40
0.0560132095
 40
0.0674853683
 40
0.0799431779
 40
0.0933580629
 40
0.1077006932
 40
0.1229376067
 40
0.1390339189
 40
0.1559540662
 40
0.1736588156
 40
0.2112596386
 40
0.2514949068
 40
0.2939993108
 40
0.3383857193
 40
0.3842508809
 40
0.4311779707
 40
0.4787399857
 40
0.5265047463
 40
0.5740378199
 40
0.6209070662
 40
0.6666865538
 40
0.7109595727
 40
0.7533240125
 40
0.7933948775
 40
0.8308070885
 40
0.8652212834
 40
0.8963247614
 40
0.9238338085
 40
0.9361617693
 40
0.947499509
 40
0.9578224155
 40
0.9671070777
 40
0.9753312681
 40
0.9824776081
 40
0.9885300301
 40
0.9934738241
 40
0.9955269597
 40
0.9972996122
 40
0.9987908818
 40
1.0
 40
1.0
 40
1.0
 40
1.0
 10
2.8167563869
 20
2.975170341
 30
0.0
 10
2.8167562478
 20
2.9752639231
 30
0.0
 10
2.8168883702
 20
2.9754107312
 30
0.0
 10
2.8171104759
 20
2.9755395464
 30
0.0
 10
2.8173783969
 20
2.9756580308
 30
0.0
 10
2.8177178186
 20
2.9757738041
 30
0.0
 10
2.8181327792
 20
2.9758912344
 30
0.0
 10
2.8186223752
 20
2.9760086062
 30
0.0
 10
2.8194237217
 20
2.9761755458
 30
0.0
 10
2.8206149727
 20
2.9763790948
 30
0.0
 10
2.8222715427
 20
2.9766128577
 30
0.0
 10
2.8242283657
 20
2.976847444
 30
0.0
 10
2.8274350653
 20
2.9771814728
 30
0.0
 10
2.8321930573
 20
2.9775883747
 30
0.0
 10
2.8387996589
 20
2.9780556325
 30
0.0
 10
2.8465975373
 20
2.9785245751
 30
0.0
 10
2.8555830806
 20
2.9789949427
 30
0.0
 10
2.8657518189
 20
2.9794661014
 30
0.0
 10
2.877097846
 20
2.9799378999
 30
0.0
 10
2.8896140061
 20
2.9804101751
 30
0.0
 10
2.9032926997
 20
2.9808828057
 30
0.0
 10
2.9181263184
 20
2.9813557336
 30
0.0
 10
2.9401905368
 20
2.9820088712
 30
0.0
 10
2.9705914192
 20
2.9828173005
 30
0.0
 10
3.010406516
 20
2.9837594464
 30
0.0
 10
3.0545991539
 20
2.9847028292
 30
0.0
 10
3.1030688586
 20
2.9856470387
 30
0.0
 10
3.1557054579
 20
2.9865919877
 30
0.0
 10
3.2123891539
 20
2.9875375334
 30
0.0
 10
3.2729910562
 20
2.988483406
 30
0.0
 10
3.3373733938
 20
2.9894296526
 30
0.0
 10
3.405389624
 20
2.9903762127
 30
0.0
 10
3.4768850813
 20
2.9913229404
 30
0.0
 10
3.5786935748
 20
2.9926115097
 30
0.0
 10
3.7133680701
 20
2.9942119081
 30
0.0
 10
3.8830016725
 20
2.9960976794
 30
0.0
 10
4.0622014634
 20
2.9979845858
 30
0.0
 10
4.2493381266
 20
2.9998724313
 30
0.0
 10
4.4427097519
 20
3.0017608878
 30
0.0
 10
4.6405582351
 20
3.0036497449
 30
0.0
 10
4.8410847016
 20
3.005538853
 30
0.0
 10
5.0424654608
 20
3.0074280214
 30
0.0
 10
5.2428695814
 20
3.0093171119
 30
0.0
 10
5.4404749384
 20
3.0112059641
 30
0.0
 10
5.6334843848
 20
3.0130943701
 30
0.0
 10
5.8201430968
 20
3.0149821606
 30
0.0
 10
5.9987539426
 20
3.0168690425
 30
0.0
 10
6.1676925527
 20
3.0187546188
 30
0.0
 10
6.3254229765
 20
3.0206385121
 30
0.0
 10
6.4705111378
 20
3.0225198285
 30
0.0
 10
6.6016375619
 20
3.0243977937
 30
0.0
 10
6.7016294805
 20
3.0260116444
 30
0.0
 10
6.7737587177
 20
3.0273197456
 30
0.0
 10
6.8216631974
 20
3.0282639985
 30
0.0
 10
6.8652766524
 20
3.0292071988
 30
0.0
 10
6.9044998451
 20
3.0301489611
 30
0.0
 10
6.9392436305
 20
3.0310890976
 30
0.0
 10
6.9694291635
 20
3.0320261261
 30
0.0
 10
6.9949878253
 20
3.0329593651
 30
0.0
 10
7.0133659001
 20
3.0337726697
 30
0.0
 10
7.0257103743
 20
3.0344415413
 30
0.0
 10
7.0331913136
 20
3.0349100991
 30
0.0
 10
7.0394798145
 20
3.0353764925
 30
0.0
 10
7.0432713728
 20
3.0357202633
 30
0.0
 10
7.0449664355
 20
3.0358993286
 30
0.0
  0
SPLINE
  5
34C
100
AcDbEntity
  8
0
100
AcDbSpline
 62
7
  6
CONTINUOUS
 70
0
 71
3
 72
14
 73
10
 74
0
 42
0.0000001
 43
0.0000001
 44
0.0000000001
 40
0.0
 40
0.0
 40
0.0
 40
0.0
 40
0.3749405468
 40
0.5309191909
 40
0.6659670227
 40
0.7801701629
 40
0.8736746581
 40
0.9467537213
 40
1.0
 40
1.0
 40
1.0
 40
1.0
 10
7.0449664355
 20
3.0358993286
 30
0.0
 10
7.0459930409
 20
3.0360077786
 30
0.0
 10
7.0474455708
 20
3.036174116
 30
0.0
 10
7.0492614189
 20
3.0364292115
 30
0.0
 10
7.0503628398
 20
3.0366081036
 30
0.0
 10
7.0512896646
 20
3.0367862778
 30
0.0
 10
7.0520427789
 20
3.0369632297
 30
0.0
 10
7.0526220912
 20
3.0371385999
 30
0.0
 10
7.0529448796
 20
3.0372734472
 30
0.0
 10
7.0530718389
 20
3.0373467516
 30
0.0
  0
SPLINE
  5
34D
100
AcDbEntity
  8
0
100
AcDbSpline
 62
7
  6
CONTINUOUS
 70
0
 71
3
 72
14
 73
10
 74
0
 42
0.0000001
 43
0.0000001
 44
0.0000000001
 40
0.0
 40
0.0
 40
0.0
 40
0.0
 40
0.3742420295
 40
0.5300506415
 40
0.665045206
 40
0.7793101594
 40
0.8729901759
 40
0.9463571366
 40
1.0
 40
1.0
 40
1.0
 40
1.0
 10
7.0451641721
 20
2.7859203417
 30
0.0
 10
7.0461637153
 20
2.7860271971
 30
0.0
 10
7.0475782492
 20
2.786191119
 30
0.0
 10
7.0493469238
 20
2.7864424133
 30
0.0
 10
7.0504207242
 20
2.7866187223
 30
0.0
 10
7.0513250808
 20
2.7867943554
 30
0.0
 10
7.0520608169
 20
2.7869688344
 30
0.0
 10
7.0526278509
 20
2.7871417985
 30
0.0
 10
7.0529441683
 20
2.7872746733
 30
0.0
 10
7.0530689338
 20
2.7873467496
 30
0.0
  0
SPLINE
  5
34E
100
AcDbEntity
  8
0
100
AcDbSpline
 62
7
  6
CONTINUOUS
 70
0
 71
3
 72
15
 73
11
 74
0
 42
0.0000001
 43
0.0000001
 44
0.0000000001
 40
0.0
 40
0.0
 40
0.0
 40
0.0
 40
0.1250000896
 40
0.2500001819
 40
0.3750002162
 40
0.5000002173
 40
0.6250001754
 40
0.7500001227
 40
0.8750000448
 40
1.0
 40
1.0
 40
1.0
 40
1.0
 10
7.9150543478
 20
5.0916119528
 30
0.0
 10
7.7911471524
 20
5.080989127
 30
0.0
 10
7.5432758205
 20
5.0603989633
 30
0.0
 10
7.1712785803
 20
5.0318901722
 30
0.0
 10
6.799071756
 20
5.0062427519
 30
0.0
 10
6.4266434888
 20
4.9840138215
 30
0.0
 10
6.0539946829
 20
4.9658104847
 30
0.0
 10
5.6811457246
 20
4.9522429175
 30
0.0
 10
5.308143105
 20
4.943849585
 30
0.0
 10
5.0594159345
 20
4.9419542378
 30
0.0
 10
4.9350543478
 20
4.9419542378
 30
0.0
  0
SPLINE
  5
34F
100
AcDbEntity
  8
0
100
AcDbSpline
 62
7
  6
CONTINUOUS
 70
0
 71
3
 72
45
 73
41
 74
0
 42
0.0000001
 43
0.0000001
 44
0.0000000001
 40
0.0
 40
0.0
 40
0.0
 40
0.0
 40
0.0001342489
 40
0.0002434826
 40
0.0003863783
 40
0.0005645228
 40
0.0007787207
 40
0.0010294301
 40
0.0013169342
 40
0.0020029904
 40
0.0028378512
 40
0.0049551361
 40
0.007669148
 40
0.0109788112
 40
0.0148826176
 40
0.0193788573
 40
0.0244656214
 40
0.0301398193
 40
0.0363975712
 40
0.0432349578
 40
0.0506480426
 40
0.0586328767
 40
0.0762990691
 40
0.0961888152
 40
0.1182550621
 40
0.1424460962
 40
0.168701467
 40
0.1969595009
 40
0.2271523686
 40
0.259205725
 40
0.293044246
 40
0.3285856844
 40
0.3657436561
 40
0.4445513714
 40
0.5287069246
 40
0.6174014714
 40
0.7097807383
 40
0.8049485408
 40
0.9020148782
 40
1.0
 40
1.0
 40
1.0
 40
1.0
 10
7.1300523496
 20
3.227787576
 30
0.0
 10
7.1300523495
 20
3.2276893246
 30
0.0
 10
7.1299032833
 20
3.2275379921
 30
0.0
 10
7.1296627051
 20
3.227407416
 30
0.0
 10
7.1293683467
 20
3.2272853994
 30
0.0
 10
7.1289960992
 20
3.2271664335
 30
0.0
 10
7.1285406891
 20
3.2270455855
 30
0.0
 10
7.1280034708
 20
3.2269248258
 30
0.0
 10
7.1271239608
 20
3.2267529979
 30
0.0
 10
7.1258168449
 20
3.2265434536
 30
0.0
 10
7.1231769572
 20
3.2261945117
 30
0.0
 10
7.1190504931
 20
3.2257764101
 30
0.0
 10
7.113111504
 20
3.2252986059
 30
0.0
 10
7.105861658
 20
3.2248182786
 30
0.0
 10
7.0973053194
 20
3.2243354912
 30
0.0
 10
7.0874466634
 20
3.2238514732
 30
0.0
 10
7.0762910175
 20
3.223366553
 30
0.0
 10
7.0638451343
 20
3.2228810067
 30
0.0
 10
7.0501171839
 20
3.2223949596
 30
0.0
 10
7.0351158992
 20
3.2219085491
 30
0.0
 10
7.0188500325
 20
3.2214218301
 30
0.0
 10
6.99466105
 20
3.2207497224
 30
0.0
 10
6.9613418956
 20
3.2199177984
 30
0.0
 10
6.9177175349
 20
3.218948161
 30
0.0
 10
6.8693168701
 20
3.2179773327
 30
0.0
 10
6.8162566305
 20
3.217005615
 30
0.0
 10
6.7586641878
 20
3.2160330838
 30
0.0
 10
6.6966786729
 20
3.2150600439
 30
0.0
 10
6.6304493632
 20
3.2140866053
 30
0.0
 10
6.5601355102
 20
3.2131127445
 30
0.0
 10
6.4859069005
 20
3.2121386679
 30
0.0
 10
6.4079421248
 20
3.2111643385
 30
0.0
 10
6.2970680258
 20
3.2098388385
 30
0.0
 10
6.1506165103
 20
3.2081927157
 30
0.0
 10
5.966448413
 20
3.2062522236
 30
0.0
 10
5.7723473306
 20
3.2043105507
 30
0.0
 10
5.5701864471
 20
3.2023680259
 30
0.0
 10
5.3618983181
 20
3.2004247944
 30
0.0
 10
5.1495073165
 20
3.1984812598
 30
0.0
 10
5.006762802
 20
3.1971875051
 30
0.0
 10
4.9350543478
 20
3.196537576
 30
0.0
  0
SPLINE
  5
350
100
AcDbEntity
  8
0
100
AcDbSpline
 62
7
  6
CONTINUOUS
 70
0
 71
3
 72
69
 73
65
 74
0
 42
0.0000001
 43
0.0000001
 44
0.0000000001
 40
0.0
 40
0.0
 40
0.0
 40
0.0
 40
0.0000663983
 40
0.0001189665
 40
0.0001872553
 40
0.0002720931
 40
0.0003739063
 40
0.0004929398
 40
0.0006293463
 40
0.0009546387
 40
0.001350261
 40
0.0018163771
 40
0.0023530415
 40
0.0036379599
 40
0.0052046969
 40
0.0070526697
 40
0.0091811873
 40
0.0115894404
 40
0.0142760136
 40
0.0172391562
 40
0.0204771002
 40
0.0239880685
 40
0.0277702774
 40
0.0361404544
 40
0.0455677265
 40
0.0560303992
 40
0.0675059826
 40
0.0799674879
 40
0.0933863007
 40
0.1077330744
 40
0.1229743429
 40
0.1390751842
 40
0.1560000142
 40
0.1737095894
 40
0.2113203556
 40
0.2515658072
 40
0.2940804104
 40
0.3384768137
 40
0.3843515412
 40
0.4312875263
 40
0.4788575422
 40
0.5266291913
 40
0.5741678295
 40
0.6210411292
 40
0.6668229814
 40
0.7110965191
 40
0.7534594939
 40
0.7935267888
 40
0.8309332351
 40
0.865339411
 40
0.8964325751
 40
0.9239290084
 40
0.9362498107
 40
0.9475798318
 40
0.9578944659
 40
0.9671703192
 40
0.9753851749
 40
0.9825216677
 40
0.9885637525
 40
0.993496739
 40
0.9955443016
 40
0.9973112737
 40
0.9987967603
 40
1.0
 40
1.0
 40
1.0
 40
1.0
 10
2.8167564025
 20
2.850170341
 30
0.0
 10
2.816756267
 20
2.8502639447
 30
0.0
 10
2.8168884467
 20
2.8504107764
 30
0.0
 10
2.8171106215
 20
2.850539609
 30
0.0
 10
2.8173786339
 20
2.8506581134
 30
0.0
 10
2.8177181682
 20
2.8507739058
 30
0.0
 10
2.8181332659
 20
2.8508913559
 30
0.0
 10
2.8186230219
 20
2.8510087474
 30
0.0
 10
2.8194246287
 20
2.8511757151
 30
0.0
 10
2.8206162682
 20
2.8513792996
 30
0.0
 10
2.8222733843
 20
2.8516131014
 30
0.0
 10
2.8242308618
 20
2.851847727
 30
0.0
 10
2.8274386467
 20
2.8521818121
 30
0.0
 10
2.8321982532
 20
2.8525887821
 30
0.0
 10
2.8388070911
 20
2.8530561183
 30
0.0
 10
2.8466075924
 20
2.8535251396
 30
0.0
 10
2.8555961355
 20
2.8539955869
 30
0.0
 10
2.865768261
 20
2.8544668262
 30
0.0
 10
2.8771180734
 20
2.8549387036
 30
0.0
 10
2.8896384186
 20
2.8554110581
 30
0.0
 10
2.9033216785
 20
2.8558837681
 30
0.0
 10
2.918160225
 20
2.8563567753
 30
0.0
 10
2.9402317222
 20
2.857010023
 30
0.0
 10
2.9706425976
 20
2.8578185889
 30
0.0
 10
3.0104707164
 20
2.8587608914
 30
0.0
 10
3.0546776996
 20
2.8597044331
 30
0.0
 10
3.103163003
 20
2.8606488021
 30
0.0
 10
3.1558163838
 20
2.8615939085
 30
0.0
 10
3.2125179673
 20
2.8625396132
 30
0.0
 10
3.2731387765
 20
2.863485645
 30
0.0
 10
3.3375409551
 20
2.8644320496
 30
0.0
 10
3.4055778702
 20
2.8653787687
 30
0.0
 10
3.4770947555
 20
2.8663256558
 30
0.0
 10
3.5789330044
 20
2.8676144372
 30
0.0
 10
3.7136457629
 20
2.8692151006
 30
0.0
 10
3.8833260049
 20
2.8711011873
 30
0.0
 10
4.0625727271
 20
2.8729884099
 30
0.0
 10
4.249755633
 20
2.8748765719
 30
0.0
 10
4.4431718057
 20
2.8767653445
 30
0.0
 10
4.6410621279
 20
2.8786545177
 30
0.0
 10
4.8416267202
 20
2.8805439412
 30
0.0
 10
5.0430409291
 20
2.8824334243
 30
0.0
 10
5.2434729118
 20
2.8843228289
 30
0.0
 10
5.4410996888
 20
2.8862119941
 30
0.0
 10
5.6341233367
 20
2.8881007125
 30
0.0
 10
5.8207883246
 20
2.8899888144
 30
0.0
 10
5.9993968949
 20
2.891876006
 30
0.0
 10
6.1683241489
 20
2.8937618899
 30
0.0
 10
6.3260337195
 20
2.8956460879
 30
0.0
 10
6.4710912294
 20
2.8975277033
 30
0.0
 10
6.6021770248
 20
2.8994059606
 30
0.0
 10
6.7021288127
 20
2.9010201056
 30
0.0
 10
6.7742209377
 20
2.9023284737
 30
0.0
 10
6.8220938722
 20
2.9032728761
 30
0.0
 10
6.8656733549
 20
2.9042162229
 30
0.0
 10
6.9048601939
 20
2.9051581256
 30
0.0
 10
6.9395652991
 20
2.9060983954
 30
0.0
 10
6.9697098877
 20
2.9070355412
 30
0.0
 10
6.9952254134
 20
2.9079688801
 30
0.0
 10
7.0135662056
 20
2.9087823232
 30
0.0
 10
7.0258798076
 20
2.9094514005
 30
0.0
 10
7.0333368542
 20
2.9099199959
 30
0.0
 10
7.0396009847
 20
2.9103864063
 30
0.0
 10
7.0433761159
 20
2.9107303265
 30
0.0
 10
7.0450628682
 20
2.9109095451
 30
0.0
  0
SPLINE
  5
351
100
AcDbEntity
  8
0
100
AcDbSpline
 62
7
  6
CONTINUOUS
 70
0
 71
3
 72
14
 73
10
 74
0
 42
0.0000001
 43
0.0000001
 44
0.0000000001
 40
0.0
 40
0.0
 40
0.0
 40
0.0
 40
0.3746317151
 40
0.5305318606
 40
0.6655524073
 40
0.7797800756
 40
0.8733616279
 40
0.9465709395
 40
1.0
 40
1.0
 40
1.0
 40
1.0
 10
7.0450628682
 20
2.9109095451
 30
0.0
 10
7.0460765222
 20
2.9110172465
 30
0.0
 10
7.0475108494
 20
2.9111824401
 30
0.0
 10
7.0493040785
 20
2.9114357139
 30
0.0
 10
7.0503922084
 20
2.9116133532
 30
0.0
 10
7.0513081985
 20
2.9117902842
 30
0.0
 10
7.0520529155
 20
2.9119660167
 30
0.0
 10
7.0526262847
 20
2.9121401921
 30
0.0
 10
7.0529459396
 20
2.9122740576
 30
0.0
 10
7.0530718384
 20
2.9123467516
 30
0.0
  0
SPLINE
  5
352
100
AcDbEntity
  8
0
100
AcDbSpline
 62
7
  6
CONTINUOUS
 70
0
 71
3
 72
47
 73
43
 74
0
 42
0.0000001
 43
0.0000001
 44
0.0000000001
 40
0.0
 40
0.0
 40
0.0
 40
0.0
 40
0.0000642774
 40
0.0001619128
 40
0.0002950097
 40
0.0004643568
 40
0.0006703284
 40
0.0009131306
 40
0.0015096702
 40
0.0022545848
 40
0.0031480628
 40
0.0041900449
 40
0.0053804042
 40
0.0067189808
 40
0.0082055946
 40
0.0116221496
 40
0.0156284493
 40
0.0202227935
 40
0.0254030195
 40
0.0311656328
 40
0.0375068729
 40
0.0444229701
 40
0.0519101483
 40
0.0599645949
 40
0.0777555804
 40
0.0977514992
 40
0.1199065602
 40
0.1441687407
 40
0.1704783804
 40
0.1987748295
 40
0.2289901123
 40
0.2610508065
 40
0.2948823082
 40
0.3304024091
 40
0.3675255526
 40
0.4462245065
 40
0.5302214972
 40
0.6187095397
 40
0.7108349887
 40
0.8057014483
 40
0.9024177621
 40
1.0
 40
1.0
 40
1.0
 40
1.0
 10
7.1238190108
 20
2.8563866181
 30
0.0
 10
7.1237858706
 20
2.8563534309
 30
0.0
 10
7.1236803538
 20
2.856294486
 30
0.0
 10
7.1234786426
 20
2.856221167
 30
0.0
 10
7.1231957344
 20
2.8561464751
 30
0.0
 10
7.1228325844
 20
2.8560710604
 30
0.0
 10
7.1223878727
 20
2.8559951339
 30
0.0
 10
7.1216329865
 20
2.8558858905
 30
0.0
 10
7.1204843918
 20
2.8557536611
 30
0.0
 10
7.1188606465
 20
2.8556023072
 30
0.0
 10
7.1169107434
 20
2.8554502803
 30
0.0
 10
7.1146350497
 20
2.8552976496
 30
0.0
 10
7.1120339722
 20
2.8551446809
 30
0.0
 10
7.1091079903
 20
2.8549914366
 30
0.0
 10
7.104558698
 20
2.8547767825
 30
0.0
 10
7.098063136
 20
2.8545127635
 30
0.0
 10
7.0892999774
 20
2.8542075592
 30
0.0
 10
7.0792492884
 20
2.8539016334
 30
0.0
 10
7.0679165907
 20
2.8535951356
 30
0.0
 10
7.0553088522
 20
2.8532882102
 30
0.0
 10
7.0414341918
 20
2.8529809477
 30
0.0
 10
7.0263009139
 20
2.8526734255
 30
0.0
 10
7.0099173492
 20
2.8523656752
 30
0.0
 10
6.9855996578
 20
2.8519409127
 30
0.0
 10
6.9521552758
 20
2.8514148614
 30
0.0
 10
6.9084224492
 20
2.8508013193
 30
0.0
 10
6.8599674595
 20
2.8501869075
 30
0.0
 10
6.8069052891
 20
2.8495717579
 30
0.0
 10
6.7493617393
 20
2.8489559338
 30
0.0
 10
6.6874742376
 20
2.8483396401
 30
0.0
 10
6.6213902452
 20
2.8477229102
 30
0.0
 10
6.551267398
 20
2.8471057483
 30
0.0
 10
6.4772737105
 20
2.8464882863
 30
0.0
 10
6.3995860487
 20
2.845870482
 30
0.0
 10
6.2891612485
 20
2.8450299089
 30
0.0
 10
6.1433654491
 20
2.8439854952
 30
0.0
 10
5.96009126
 20
2.842753479
 30
0.0
 10
5.7670201258
 20
2.8415200312
 30
0.0
 10
5.5660178535
 20
2.8402853593
 30
0.0
 10
5.3590116575
 20
2.8390495505
 30
0.0
 10
5.1480238095
 20
2.8378128592
 30
0.0
 10
5.0062547725
 20
2.8369889441
 30
0.0
 10
4.9350543467
 20
2.8365749119
 30
0.0
  0
SPLINE
  5
353
100
AcDbEntity
  8
0
100
AcDbSpline
 62
7
  6
CONTINUOUS
 70
0
 71
3
 72
42
 73
38
 74
0
 42
0.0000001
 43
0.0000001
 44
0.0000000001
 40
0.0
 40
0.0
 40
0.0
 40
0.0
 40
0.0001263336
 40
0.0002866588
 40
0.0007128875
 40
0.0012828627
 40
0.0019981052
 40
0.0028593544
 40
0.0038668829
 40
0.0050207119
 40
0.0063207712
 40
0.0093590363
 40
0.01298038
 40
0.0171832081
 40
0.0219657908
 40
0.027325764
 40
0.0332595185
 40
0.039763261
 40
0.0468331779
 40
0.0626561456
 40
0.0806925406
 40
0.1008976399
 40
0.1232255436
 40
0.1476237745
 40
0.1740330404
 40
0.2023930621
 40
0.2326361417
 40
0.2646898952
 40
0.2984806322
 40
0.3709458367
 40
0.449348948
 40
0.5329484579
 40
0.6209567822
 40
0.7125427544
 40
0.8068359385
 40
0.9029727628
 40
1.0
 40
1.0
 40
1.0
 40
1.0
 10
2.7403265589
 20
3.0405998602
 30
0.0
 10
2.7404065977
 20
3.0406461106
 30
0.0
 10
2.7405974648
 20
3.0407347841
 30
0.0
 10
2.7410891904
 20
3.0409097397
 30
0.0
 10
2.7419113429
 20
3.0411164838
 30
0.0
 10
2.7431413981
 20
3.0413518026
 30
0.0
 10
2.7446944299
 20
3.041588633
 30
0.0
 10
2.7465701982
 20
3.0418270802
 30
0.0
 10
2.7487690347
 20
3.0420662683
 30
0.0
 10
2.7512904968
 20
3.0423060899
 30
0.0
 10
2.7552950299
 20
3.0426441722
 30
0.0
 10
2.7611047458
 20
3.043058437
 30
0.0
 10
2.7690387527
 20
3.0435358408
 30
0.0
 10
2.7782510201
 20
3.0440145889
 30
0.0
 10
2.7887369022
 20
3.0444944167
 30
0.0
 10
2.8004904822
 20
3.0449748997
 30
0.0
 10
2.8135043881
 20
3.0454559284
 30
0.0
 10
2.8277702534
 20
3.0459373841
 30
0.0
 10
2.8492700113
 20
3.0466050775
 30
0.0
 10
2.8792075124
 20
3.047430008
 30
0.0
 10
2.9187559949
 20
3.0483887185
 30
0.0
 10
2.9630654746
 20
3.049349052
 30
0.0
 10
3.0120309907
 20
3.0503105208
 30
0.0
 10
3.0655370001
 20
3.0512727949
 30
0.0
 10
3.123457473
 20
3.0522358198
 30
0.0
 10
3.1856552796
 20
3.0531992726
 30
0.0
 10
3.2519837273
 20
3.0541631234
 30
0.0
 10
3.3222863269
 20
3.0551273753
 30
0.0
 10
3.4234817491
 20
3.0564441617
 30
0.0
 10
3.5585906402
 20
3.0580777956
 30
0.0
 10
3.730144733
 20
3.0599975541
 30
0.0
 10
3.9130726855
 20
3.0619189055
 30
0.0
 10
4.1056472905
 20
3.0638414655
 30
0.0
 10
4.3060470363
 20
3.0657648055
 30
0.0
 10
4.5123948266
 20
3.0676888273
 30
0.0
 10
4.7227242658
 20
3.0696131325
 30
0.0
 10
4.8640604851
 20
3.0708941236
 30
0.0
 10
4.9350543478
 20
3.071537576
 30
0.0
  0
SPLINE
  5
354
100
AcDbEntity
  8
0
100
AcDbSpline
 62
7
  6
CONTINUOUS
 70
0
 71
3
 72
13
 73
9
 74
0
 42
0.0000001
 43
0.0000001
 44
0.0000000001
 40
0.0
 40
0.0
 40
0.0
 40
0.0
 40
0.0560163096
 40
0.1310843176
 40
0.2257907125
 40
0.3404080267
 40
0.62985691
 40
1.0
 40
1.0
 40
1.0
 40
1.0
 10
2.817034987
 20
3.084893931
 30
0.0
 10
2.8171467999
 20
3.0849585743
 30
0.0
 10
2.8174255499
 20
3.08507923
 30
0.0
 10
2.817921702
 20
3.0852372934
 30
0.0
 10
2.8185581928
 20
3.0853966221
 30
0.0
 10
2.8196847093
 20
3.085628628
 30
0.0
 10
2.8214486976
 20
3.0859072041
 30
0.0
 10
2.8229577897
 20
3.0860961698
 30
0.0
 10
2.8238056071
 20
3.0861938286
 30
0.0
  0
SPLINE
  5
355
100
AcDbEntity
  8
0
100
AcDbSpline
 62
7
  6
CONTINUOUS
 70
0
 71
3
 72
69
 73
65
 74
0
 42
0.0000001
 43
0.0000001
 44
0.0000000001
 40
0.0
 40
0.0
 40
0.0
 40
0.0
 40
0.0011240304
 40
0.0025312545
 40
0.0042213353
 40
0.0061937695
 40
0.0109819996
 40
0.0168844064
 40
0.023887827
 40
0.0319777034
 40
0.041134448
 40
0.0513372125
 40
0.0625639256
 40
0.0747878261
 40
0.1021144211
 40
0.1330676489
 40
0.167365768
 40
0.20469451
 40
0.2447130444
 40
0.2870564168
 40
0.3313370679
 40
0.3771506557
 40
0.4240789022
 40
0.4716926779
 40
0.5195572102
 40
0.5672350953
 40
0.6142907093
 40
0.660294403
 40
0.7048254037
 40
0.7474772037
 40
0.7878604135
 40
0.8256052898
 40
0.8433801323
 40
0.8603676822
 40
0.8765301018
 40
0.8918303299
 40
0.9062324939
 40
0.9197048012
 40
0.9322163392
 40
0.9437375222
 40
0.9542432689
 40
0.9637094677
 40
0.9721134583
 40
0.9759114978
 40
0.9794374392
 40
0.9826891929
 40
0.9856646767
 40
0.9883620393
 40
0.9907800643
 40
0.9929176637
 40
0.9947737829
 40
0.9963474252
 40
0.9976377035
 40
0.9981764128
 40
0.9986442259
 40
0.9990412807
 40
0.9993678198
 40
0.9995047879
 40
0.9996243356
 40
0.9997266108
 40
0.9998118529
 40
0.9998804821
 40
0.9999333195
 40
1.0
 40
1.0
 40
1.0
 40
1.0
 10
2.8238056071
 20
3.0861938286
 30
0.0
 10
2.8253802451
 20
3.0863752089
 30
0.0
 10
2.828933362
 20
3.0867211808
 30
0.0
 10
2.8348678915
 20
3.0871878072
 30
0.0
 10
2.8420017392
 20
3.0876568999
 30
0.0
 10
2.8538996974
 20
3.0883288216
 30
0.0
 10
2.8717383355
 20
3.0891438489
 30
0.0
 10
2.8966721951
 20
3.0900787099
 30
0.0
 10
2.9262645116
 20
3.0910174641
 30
0.0
 10
2.96044777
 20
3.091959338
 30
0.0
 10
2.9991440292
 20
3.0929032324
 30
0.0
 10
3.0422648256
 20
3.0938485908
 30
0.0
 10
3.0897116861
 20
3.0947948721
 30
0.0
 10
3.1613031073
 20
3.0961069633
 30
0.0
 10
3.2607107791
 20
3.0977249292
 30
0.0
 10
3.3912459282
 20
3.0996072122
 30
0.0
 10
3.5358868636
 20
3.1014927762
 30
0.0
 10
3.6933121795
 20
3.1033810524
 30
0.0
 10
3.862083234
 20
3.105271111
 30
0.0
 10
4.0406580768
 20
3.1071624377
 30
0.0
 10
4.2274052322
 20
3.1090547247
 30
0.0
 10
4.4206180546
 20
3.1109476679
 30
0.0
 10
4.6185312932
 20
3.1128410316
 30
0.0
 10
4.8193367958
 20
3.1147346685
 30
0.0
 10
5.0211994461
 20
3.1166283851
 30
0.0
 10
5.2222749714
 20
3.1185220362
 30
0.0
 10
5.4207263223
 20
3.1204154675
 30
0.0
 10
5.614739897
 20
3.1223084661
 30
0.0
 10
5.8025431414
 20
3.1242008684
 30
0.0
 10
5.9824202603
 20
3.1260923717
 30
0.0
 10
6.1527273921
 20
3.1279826504
 30
0.0
 10
6.2879552957
 20
3.1295869153
 30
0.0
 10
6.3901931797
 20
3.1308785057
 30
0.0
 10
6.4619984745
 20
3.1318275988
 30
0.0
 10
6.5303138793
 20
3.1327764151
 30
0.0
 10
6.5949831402
 20
3.1337249226
 30
0.0
 10
6.6558585151
 20
3.1346731782
 30
0.0
 10
6.7128009228
 20
3.1356209668
 30
0.0
 10
6.7656801276
 20
3.1365681579
 30
0.0
 10
6.8143753282
 20
3.1375147788
 30
0.0
 10
6.8587752896
 20
3.1384603845
 30
0.0
 10
6.8987784761
 20
3.1394047371
 30
0.0
 10
6.9293232187
 20
3.1402152607
 30
0.0
 10
6.9514923495
 20
3.1408699418
 30
0.0
 10
6.9663981875
 20
3.1413440001
 30
0.0
 10
6.9801434779
 20
3.1418177552
 30
0.0
 10
6.9927196104
 20
3.1422911592
 30
0.0
 10
7.0041191677
 20
3.1427641513
 30
0.0
 10
7.0143360946
 20
3.1432365013
 30
0.0
 10
7.0233653675
 20
3.1437079938
 30
0.0
 10
7.0312022095
 20
3.1441780434
 30
0.0
 10
7.0378417903
 20
3.1446463869
 30
0.0
 10
7.0426229891
 20
3.1450542478
 30
0.0
 10
7.0458445508
 20
3.1453891422
 30
0.0
 10
7.0478098974
 20
3.1456243145
 30
0.0
 10
7.0494736662
 20
3.1458586719
 30
0.0
 10
7.0506702226
 20
3.1460627225
 30
0.0
 10
7.0514753465
 20
3.1462300508
 30
0.0
 10
7.0519674195
 20
3.1463477091
 30
0.0
 10
7.0523846011
 20
3.1464654235
 30
0.0
 10
7.0527259417
 20
3.1465814822
 30
0.0
 10
7.0529955284
 20
3.1467002386
 30
0.0
 10
7.0532189934
 20
3.1468293472
 30
0.0
 10
7.0533524288
 20
3.1469763116
 30
0.0
 10
7.0533526284
 20
3.1470703408
 30
0.0
  0
SPLINE
  5
356
100
AcDbEntity
  8
0
100
AcDbSpline
 62
7
  6
CONTINUOUS
 70
0
 71
3
 72
42
 73
38
 74
0
 42
0.0000001
 43
0.0000001
 44
0.0000000001
 40
0.0
 40
0.0
 40
0.0
 40
0.0
 40
0.0001263642
 40
0.0002867905
 40
0.0007133968
 40
0.001283848
 40
0.0019994957
 40
0.0028609217
 40
0.0038683808
 40
0.0050219667
 40
0.0063216838
 40
0.0093592664
 40
0.0129804302
 40
0.0171839667
 40
0.0219672429
 40
0.0273270706
 40
0.0332602147
 40
0.0397634111
 40
0.0468333757
 40
0.0626575192
 40
0.0806930561
 40
0.1008980166
 40
0.1232267511
 40
0.1476241611
 40
0.1740335806
 40
0.2023940654
 40
0.2326364464
 40
0.264690518
 40
0.2984814094
 40
0.3709464865
 40
0.4493491645
 40
0.5329488083
 40
0.6209574337
 40
0.7125426554
 40
0.8068356151
 40
0.902974604
 40
1.0
 40
1.0
 40
1.0
 40
1.0
 10
2.7403248808
 20
2.9155998604
 30
0.0
 10
2.7404049392
 20
2.9156461219
 30
0.0
 10
2.7405959101
 20
2.9157348065
 30
0.0
 10
2.7410880312
 20
2.9159097628
 30
0.0
 10
2.7419109144
 20
2.9161164704
 30
0.0
 10
2.7431419098
 20
2.9163517703
 30
0.0
 10
2.744695727
 20
2.9165885884
 30
0.0
 10
2.7465718725
 20
2.9168270488
 30
0.0
 10
2.7487706088
 20
2.9170662526
 30
0.0
 10
2.7512915905
 20
2.9173060842
 30
0.0
 10
2.7552951943
 20
2.9176441816
 30
0.0
 10
2.7611040286
 20
2.9180584814
 30
0.0
 10
2.7690379282
 20
2.9185358974
 30
0.0
 10
2.7782511015
 20
2.9190145772
 30
0.0
 10
2.7887379128
 20
2.9194943712
 30
0.0
 10
2.8004914543
 20
2.9199748842
 30
0.0
 10
2.8135044157
 20
2.9204559334
 30
0.0
 10
2.8277694789
 20
2.920937408
 30
0.0
 10
2.8492697485
 20
2.9216051045
 30
0.0
 10
2.8792075417
 20
2.9224299269
 30
0.0
 10
2.9187561811
 20
2.9233887541
 30
0.0
 10
2.963065572
 20
2.9243490747
 30
0.0
 10
3.0120310308
 20
2.9253104747
 30
0.0
 10
3.0655371975
 20
2.9262728245
 30
0.0
 10
3.1234575638
 20
2.9272358236
 30
0.0
 10
3.1856553562
 20
2.9281992477
 30
0.0
 10
3.251983912
 20
2.929163147
 30
0.0
 10
3.3222863979
 20
2.9301273687
 30
0.0
 10
3.4234821464
 20
2.9314441593
 30
0.0
 10
3.5585908388
 20
2.9330777916
 30
0.0
 10
3.7301447443
 20
2.934997563
 30
0.0
 10
3.9130728316
 20
2.9369189031
 30
0.0
 10
4.1056473462
 20
2.9388414626
 30
0.0
 10
4.306046745
 20
2.9407648055
 30
0.0
 10
4.5123955563
 20
2.9426888331
 30
0.0
 10
4.7227252215
 20
2.9446131411
 30
0.0
 10
4.8640617805
 20
2.9458941354
 30
0.0
 10
4.9350543478
 20
2.946537576
 30
0.0
  0
SPLINE
  5
357
100
AcDbEntity
  8
0
100
AcDbSpline
 62
7
  6
CONTINUOUS
 70
0
 71
3
 72
11
 73
7
 74
0
 42
0.0000001
 43
0.0000001
 44
0.0000000001
 40
0.0
 40
0.0
 40
0.0
 40
0.0
 40
0.1503351201
 40
0.3660837297
 40
0.6490601115
 40
1.0
 40
1.0
 40
1.0
 40
1.0
 10
2.8170345829
 20
2.9598939319
 30
0.0
 10
2.8171926541
 20
2.9599851705
 30
0.0
 10
2.8176099054
 20
2.9601476559
 30
0.0
 10
2.8183692085
 20
2.9603568185
 30
0.0
 10
2.8193797278
 20
2.9605682234
 30
0.0
 10
2.8201385335
 20
2.9606966883
 30
0.0
 10
2.8205594491
 20
2.9607626666
 30
0.0
  0
SPLINE
  5
358
100
AcDbEntity
  8
0
100
AcDbSpline
 62
7
  6
CONTINUOUS
 70
0
 71
3
 72
70
 73
66
 74
0
 42
0.0000001
 43
0.0000001
 44
0.0000000001
 40
0.0
 40
0.0
 40
0.0
 40
0.0
 40
0.0008736535
 40
0.0020342188
 40
0.0034818398
 40
0.0052162974
 40
0.007237035
 40
0.0095427606
 40
0.0150031943
 40
0.0215854682
 40
0.0292757995
 40
0.0380552258
 40
0.0479036061
 40
0.0587993183
 40
0.0707159269
 40
0.0975006405
 40
0.1280097289
 40
0.1619616388
 40
0.1990409725
 40
0.2389041707
 40
0.2811826325
 40
0.3254840011
 40
0.3713978199
 40
0.418499052
 40
0.4663508868
 40
0.5145100736
 40
0.5625303849
 40
0.6099667011
 40
0.6563797947
 40
0.7013392692
 40
0.7444285391
 40
0.7852488786
 40
0.8234214235
 40
0.8414033894
 40
0.8585925942
 40
0.8749501117
 40
0.8904373
 40
0.9050180801
 40
0.9186596852
 40
0.9313296603
 40
0.9429985034
 40
0.9536402948
 40
0.9632294554
 40
0.9717437152
 40
0.9755919669
 40
0.9791645897
 40
0.9824593076
 40
0.985473988
 40
0.9882071486
 40
0.9906575081
 40
0.9928238063
 40
0.9947048162
 40
0.9962993689
 40
0.9976065683
 40
0.9981523956
 40
0.9986264416
 40
0.9990288248
 40
0.999359768
 40
0.9994985852
 40
0.9996197437
 40
0.9997233885
 40
0.9998097569
 40
0.9998792668
 40
0.999932739
 40
1.0
 40
1.0
 40
1.0
 40
1.0
 10
2.8205594491
 20
2.9607626666
 30
0.0
 10
2.8217775111
 20
2.9609535972
 30
0.0
 10
2.824627688
 20
2.9613061507
 30
0.0
 10
2.8295193407
 20
2.9617723223
 30
0.0
 10
2.8356301635
 20
2.9622419817
 30
0.0
 10
2.842957448
 20
2.9627146455
 30
0.0
 10
2.8514978111
 20
2.9631888054
 30
0.0
 10
2.8652931831
 20
2.9638610001
 30
0.0
 10
2.8855259277
 20
2.9646817221
 30
0.0
 10
2.9133580904
 20
2.9656258732
 30
0.0
 10
2.945876366
 20
2.9665729369
 30
0.0
 10
2.9830054975
 20
2.9675227604
 30
0.0
 10
3.0246594629
 20
2.96847419
 30
0.0
 10
3.0707417546
 20
2.9694267419
 30
0.0
 10
3.1407226172
 20
2.9707502188
 30
0.0
 10
3.2383816606
 20
2.9723805709
 30
0.0
 10
3.3671374266
 20
2.9742750884
 30
0.0
 10
3.5104227333
 20
2.9761732036
 30
0.0
 10
3.6669099459
 20
2.9780742776
 30
0.0
 10
3.8351487035
 20
2.9799772947
 30
0.0
 10
4.0135800838
 20
2.9818816868
 30
0.0
 10
4.2005507954
 20
2.9837871071
 30
0.0
 10
4.3943279276
 20
2.9856932476
 30
0.0
 10
4.5931158523
 20
2.9875998452
 30
0.0
 10
4.7950726712
 20
2.9895067437
 30
0.0
 10
4.998326588
 20
2.9914137507
 30
0.0
 10
5.2009940828
 20
2.9933207014
 30
0.0
 10
5.4011973122
 20
2.9952274486
 30
0.0
 10
5.5970807698
 20
2.9971337743
 30
0.0
 10
5.7868292073
 20
2.9990394938
 30
0.0
 10
5.9686845208
 20
3.0009443293
 30
0.0
 10
6.1409613061
 20
3.0028479429
 30
0.0
 10
6.2778066368
 20
3.0044633269
 30
0.0
 10
6.3813040979
 20
3.0057639284
 30
0.0
 10
6.4540171971
 20
3.006719737
 30
0.0
 10
6.5232092504
 20
3.0076752412
 30
0.0
 10
6.5887198239
 20
3.008630489
 30
0.0
 10
6.6503971652
 20
3.0095854543
 30
0.0
 10
6.708098243
 20
3.0105399134
 30
0.0
 10
6.7616892853
 20
3.0114938482
 30
0.0
 10
6.8110461578
 20
3.0124471692
 30
0.0
 10
6.8560544037
 20
3.0133994115
 30
0.0
 10
6.8966097018
 20
3.0143505097
 30
0.0
 10
6.9275781049
 20
3.0151667494
 30
0.0
 10
6.9500567626
 20
3.0158260314
 30
0.0
 10
6.9651715188
 20
3.0163034375
 30
0.0
 10
6.9791092838
 20
3.0167805394
 30
0.0
 10
6.9918616249
 20
3.0172573363
 30
0.0
 10
7.0034214815
 20
3.0177336767
 30
0.0
 10
7.0137829789
 20
3.0182093617
 30
0.0
 10
7.0229405122
 20
3.0186841771
 30
0.0
 10
7.0308885704
 20
3.0191575354
 30
0.0
 10
7.0376218215
 20
3.0196291651
 30
0.0
 10
7.0424701603
 20
3.020039989
 30
0.0
 10
7.0457369477
 20
3.0203772484
 30
0.0
 10
7.0477301866
 20
3.0206140844
 30
0.0
 10
7.0494177884
 20
3.0208500989
 30
0.0
 10
7.0506316307
 20
3.0210555876
 30
0.0
 10
7.0514484948
 20
3.0212240985
 30
0.0
 10
7.0519477756
 20
3.0213425857
 30
0.0
 10
7.0523711031
 20
3.0214611327
 30
0.0
 10
7.0527174655
 20
3.0215779917
 30
0.0
 10
7.0529910923
 20
3.0216975967
 30
0.0
 10
7.05321754
 20
3.0218273828
 30
0.0
 10
7.0533534408
 20
3.0219754196
 30
0.0
 10
7.0533536686
 20
3.0220703408
 30
0.0
  0
SPLINE
  5
359
100
AcDbEntity
  8
0
100
AcDbSpline
 62
7
  6
CONTINUOUS
 70
0
 71
3
 72
13
 73
9
 74
0
 42
0.0000001
 43
0.0000001
 44
0.0000000001
 40
0.0
 40
0.0
 40
0.0
 40
0.0
 40
0.0543552576
 40
0.1282444184
 40
0.222246122
 40
0.3366279714
 40
0.6270180387
 40
1.0
 40
1.0
 40
1.0
 40
1.0
 10
2.817035364
 20
2.8348939326
 30
0.0
 10
2.8171564779
 20
2.8349637673
 30
0.0
 10
2.8174619164
 20
2.8350929875
 30
0.0
 10
2.8180082128
 20
2.8352615115
 30
0.0
 10
2.8187145482
 20
2.8354315296
 30
0.0
 10
2.8199733368
 20
2.8356797613
 30
0.0
 10
2.8219523693
 20
2.8359773428
 30
0.0
 10
2.8236467495
 20
2.8361787667
 30
0.0
 10
2.8246004072
 20
2.8362829584
 30
0.0
  0
SPLINE
  5
35A
100
AcDbEntity
  8
0
100
AcDbSpline
 62
7
  6
CONTINUOUS
 70
0
 71
3
 72
69
 73
65
 74
0
 42
0.0000001
 43
0.0000001
 44
0.0000000001
 40
0.0
 40
0.0
 40
0.0
 40
0.0
 40
0.0011750691
 40
0.0026328321
 40
0.0043730459
 40
0.00639468
 40
0.0112770863
 40
0.0172695424
 40
0.0243599783
 40
0.0325311927
 40
0.04176466
 40
0.0520406391
 40
0.0633346144
 40
0.0756208572
 40
0.1030584302
 40
0.1341024561
 40
0.1684704282
 40
0.2058501647
 40
0.2459002799
 40
0.2882561848
 40
0.3325325427
 40
0.3783254164
 40
0.4252179073
 40
0.4727829735
 40
0.5205870681
 40
0.568194966
 40
0.6151727339
 40
0.6610925586
 40
0.7055363652
 40
0.7480987038
 40
0.7883923718
 40
0.8260505221
 40
0.8437824998
 40
0.860729255
 40
0.8768521773
 40
0.8921135769
 40
0.9064796947
 40
0.9199178241
 40
0.932396283
 40
0.94388777
 40
0.9543661656
 40
0.9638064631
 40
0.9721884072
 40
0.9759765754
 40
0.9794930537
 40
0.9827356164
 40
0.9857026662
 40
0.9883927959
 40
0.9908046122
 40
0.9929367425
 40
0.9947878479
 40
0.9963567842
 40
0.9976431564
 40
0.9981803854
 40
0.99864702
 40
0.9990431613
 40
0.9993690148
 40
0.9995057138
 40
0.9996250355
 40
0.999727123
 40
0.999812211
 40
0.9998807152
 40
0.9999334524
 40
1.0
 40
1.0
 40
1.0
 40
1.0
 10
2.8246004072
 20
2.8362829584
 30
0.0
 10
2.8262473168
 20
2.8364628913
 30
0.0
 10
2.8299436742
 20
2.8368075802
 30
0.0
 10
2.8360916108
 20
2.8372741144
 30
0.0
 10
2.8434358581
 20
2.8377428308
 30
0.0
 10
2.855604915
 20
2.8384128046
 30
0.0
 10
2.8737696338
 20
2.839226821
 30
0.0
 10
2.8990814934
 20
2.8401608921
 30
0.0
 10
2.9290327513
 20
2.8410984274
 30
0.0
 10
2.9635552407
 20
2.8420392722
 30
0.0
 10
3.0025703899
 20
2.8429819985
 30
0.0
 10
3.045989377
 20
2.8439259413
 30
0.0
 10
3.0937133147
 20
2.844871004
 30
0.0
 10
3.1656305179
 20
2.8461807849
 30
0.0
 10
3.2653918978
 20
2.8477961418
 30
0.0
 10
3.3962854587
 20
2.8496758661
 30
0.0
 10
3.5411975579
 20
2.8515588936
 30
0.0
 10
3.6988081269
 20
2.8534444741
 30
0.0
 10
3.8676814701
 20
2.8553318444
 30
0.0
 10
4.0462787964
 20
2.8572205034
 30
0.0
 10
4.2329731597
 20
2.8591100462
 30
0.0
 10
4.4260638856
 20
2.8610002625
 30
0.0
 10
4.6237915161
 20
2.8628909029
 30
0.0
 10
4.8243548572
 20
2.8647817824
 30
0.0
 10
5.0259268817
 20
2.8666727628
 30
0.0
 10
5.2266708487
 20
2.8685636578
 30
0.0
 10
5.4247580995
 20
2.8704543309
 30
0.0
 10
5.6183841499
 20
2.8723445964
 30
0.0
 10
5.8057846646
 20
2.8742342192
 30
0.0
 10
5.9852525497
 20
2.8761229656
 30
0.0
 10
6.1551529114
 20
2.8780105401
 30
0.0
 10
6.2900463579
 20
2.8796124105
 30
0.0
 10
6.3920247327
 20
2.8809022239
 30
0.0
 10
6.4636428469
 20
2.8818498985
 30
0.0
 10
6.5317774203
 20
2.8827972881
 30
0.0
 10
6.5962732302
 20
2.8837444878
 30
0.0
 10
6.6569833713
 20
2.8846913169
 30
0.0
 10
6.713769393
 20
2.8856376647
 30
0.0
 10
6.7665019284
 20
2.8865835774
 30
0.0
 10
6.8150608763
 20
2.8875287648
 30
0.0
 10
6.8593355158
 20
2.8884729051
 30
0.0
 10
6.8992249889
 20
2.8894160304
 30
0.0
 10
6.9296824515
 20
2.8902253099
 30
0.0
 10
6.9517890582
 20
2.8908790015
 30
0.0
 10
6.9666518664
 20
2.891352347
 30
0.0
 10
6.9803563699
 20
2.8918254418
 30
0.0
 10
6.9928950796
 20
2.8922981968
 30
0.0
 10
7.0042616436
 20
2.8927704848
 30
0.0
 10
7.0144499818
 20
2.8932421188
 30
0.0
 10
7.0234540193
 20
2.8937128883
 30
0.0
 10
7.0312679688
 20
2.8941822043
 30
0.0
 10
7.0378870779
 20
2.8946499145
 30
0.0
 10
7.0426531309
 20
2.895057257
 30
0.0
 10
7.0458648265
 20
2.8953916315
 30
0.0
 10
7.0478247655
 20
2.895626458
 30
0.0
 10
7.0494843077
 20
2.8958604702
 30
0.0
 10
7.0506780116
 20
2.8960642121
 30
0.0
 10
7.0514813295
 20
2.8962312864
 30
0.0
 10
7.0519723562
 20
2.8963487709
 30
0.0
 10
7.0523886691
 20
2.8964663128
 30
0.0
 10
7.0527293034
 20
2.8965821951
 30
0.0
 10
7.0529983163
 20
2.8967007856
 30
0.0
 10
7.0532212755
 20
2.8968296672
 30
0.0
 10
7.0533543222
 20
2.8969765173
 30
0.0
 10
7.0533543446
 20
2.8970703416
 30
0.0
  0
SPLINE
  5
35B
100
AcDbEntity
  8
0
100
AcDbSpline
 62
7
  6
CONTINUOUS
 70
0
 71
3
 72
42
 73
38
 74
0
 42
0.0000001
 43
0.0000001
 44
0.0000000001
 40
0.0
 40
0.0
 40
0.0
 40
0.0
 40
0.0001263336
 40
0.0002866588
 40
0.0007128875
 40
0.0012828627
 40
0.0019981052
 40
0.0028593544
 40
0.0038668829
 40
0.0050207119
 40
0.0063207712
 40
0.0093590363
 40
0.01298038
 40
0.0171832081
 40
0.0219657908
 40
0.027325764
 40
0.0332595185
 40
0.039763261
 40
0.0468331779
 40
0.0626561456
 40
0.0806925406
 40
0.1008976399
 40
0.1232255436
 40
0.1476237745
 40
0.1740330404
 40
0.2023930621
 40
0.2326361417
 40
0.2646898952
 40
0.2984806322
 40
0.3709458367
 40
0.449348948
 40
0.5329484579
 40
0.6209567822
 40
0.7125427544
 40
0.8068359385
 40
0.9029727628
 40
1.0
 40
1.0
 40
1.0
 40
1.0
 10
2.7403265589
 20
4.0405998602
 30
0.0
 10
2.7404065977
 20
4.0406461106
 30
0.0
 10
2.7405974648
 20
4.0407347841
 30
0.0
 10
2.7410891904
 20
4.0409097397
 30
0.0
 10
2.7419113429
 20
4.0411164838
 30
0.0
 10
2.7431413981
 20
4.0413518026
 30
0.0
 10
2.7446944299
 20
4.041588633
 30
0.0
 10
2.7465701982
 20
4.0418270802
 30
0.0
 10
2.7487690347
 20
4.0420662683
 30
0.0
 10
2.7512904968
 20
4.0423060899
 30
0.0
 10
2.7552950299
 20
4.0426441722
 30
0.0
 10
2.7611047458
 20
4.043058437
 30
0.0
 10
2.7690387527
 20
4.0435358408
 30
0.0
 10
2.7782510201
 20
4.0440145889
 30
0.0
 10
2.7887369022
 20
4.0444944167
 30
0.0
 10
2.8004904822
 20
4.0449748997
 30
0.0
 10
2.8135043881
 20
4.0454559284
 30
0.0
 10
2.8277702534
 20
4.0459373841
 30
0.0
 10
2.8492700113
 20
4.0466050775
 30
0.0
 10
2.8792075124
 20
4.047430008
 30
0.0
 10
2.9187559949
 20
4.0483887185
 30
0.0
 10
2.9630654746
 20
4.049349052
 30
0.0
 10
3.0120309907
 20
4.0503105208
 30
0.0
 10
3.0655370001
 20
4.0512727949
 30
0.0
 10
3.123457473
 20
4.0522358198
 30
0.0
 10
3.1856552796
 20
4.0531992726
 30
0.0
 10
3.2519837273
 20
4.0541631234
 30
0.0
 10
3.3222863269
 20
4.0551273753
 30
0.0
 10
3.4234817491
 20
4.0564441617
 30
0.0
 10
3.5585906402
 20
4.0580777956
 30
0.0
 10
3.730144733
 20
4.0599975541
 30
0.0
 10
3.9130726855
 20
4.0619189055
 30
0.0
 10
4.1056472905
 20
4.0638414655
 30
0.0
 10
4.3060470363
 20
4.0657648055
 30
0.0
 10
4.5123948266
 20
4.0676888273
 30
0.0
 10
4.7227242658
 20
4.0696131325
 30
0.0
 10
4.8640604851
 20
4.0708941236
 30
0.0
 10
4.9350543478
 20
4.071537576
 30
0.0
  0
SPLINE
  5
35C
100
AcDbEntity
  8
0
100
AcDbSpline
 62
7
  6
CONTINUOUS
 70
0
 71
3
 72
11
 73
7
 74
0
 42
0.0000001
 43
0.0000001
 44
0.0000000001
 40
0.0
 40
0.0
 40
0.0
 40
0.0
 40
0.1566787939
 40
0.3745396453
 40
0.6553793372
 40
1.0
 40
1.0
 40
1.0
 40
1.0
 10
2.8170366806
 20
4.0848939323
 30
0.0
 10
2.8171723864
 20
4.0849722346
 30
0.0
 10
2.8175211643
 20
4.0851150259
 30
0.0
 10
2.8181497935
 20
4.085300076
 30
0.0
 10
2.818972775
 20
4.0854869096
 30
0.0
 10
2.8195878264
 20
4.0856007446
 30
0.0
 10
2.8199274674
 20
4.0856590797
 30
0.0
  0
SPLINE
  5
35D
100
AcDbEntity
  8
0
100
AcDbSpline
 62
7
  6
CONTINUOUS
 70
0
 71
3
 72
72
 73
68
 74
0
 42
0.0000001
 43
0.0000001
 44
0.0000000001
 40
0.0
 40
0.0
 40
0.0
 40
0.0
 40
0.0003704916
 40
0.0008128286
 40
0.0019136341
 40
0.0033029554
 40
0.0049801549
 40
0.0069442532
 40
0.0091941801
 40
0.0145469972
 40
0.0210278864
 40
0.0286207199
 40
0.0373081471
 40
0.0470711919
 40
0.0578859458
 40
0.0697275259
 40
0.0825694252
 40
0.0963806096
 40
0.126781906
 40
0.1606487523
 40
0.1976673042
 40
0.2374927453
 40
0.2797547078
 40
0.3240609372
 40
0.3699990497
 40
0.4171419112
 40
0.4650515292
 40
0.5132821943
 40
0.5613856381
 40
0.6089146059
 40
0.6554270162
 40
0.7004908306
 40
0.743686786
 40
0.784613083
 40
0.8228899279
 40
0.8409220986
 40
0.8581609925
 40
0.8745656137
 40
0.8900980892
 40
0.9047230243
 40
0.9184053629
 40
0.931113686
 40
0.9428192007
 40
0.9534935275
 40
0.9631124036
 40
0.9716542761
 40
0.975514636
 40
0.9790981041
 40
0.9824029141
 40
0.9854273412
 40
0.9881696699
 40
0.990628198
 40
0.9928012621
 40
0.9946876968
 40
0.9962869012
 40
0.9975984083
 40
0.9981461984
 40
0.9986220134
 40
0.9990259216
 40
0.9993580966
 40
0.9994974044
 40
0.999618962
 40
0.9997229125
 40
0.9998095001
 40
0.9998791522
 40
0.999932701
 40
1.0
 40
1.0
 40
1.0
 40
1.0
 10
2.8199274674
 20
4.0856590797
 30
0.0
 10
2.8204428528
 20
4.0857475998
 30
0.0
 10
2.8215773282
 20
4.0859198767
 30
0.0
 10
2.8242568411
 20
4.0862610847
 30
0.0
 10
2.8283760176
 20
4.0866724408
 30
0.0
 10
2.8342393112
 20
4.087142806
 30
0.0
 10
2.8413242357
 20
4.0876154609
 30
0.0
 10
2.8496259423
 20
4.0880902649
 30
0.0
 10
2.8631123564
 20
4.0887644432
 30
0.0
 10
2.882974057
 20
4.0895867395
 30
0.0
 10
2.9103775591
 20
4.0905317432
 30
0.0
 10
2.942489988
 20
4.0914802263
 30
0.0
 10
2.9792366754
 20
4.0924314706
 30
0.0
 10
3.0205322646
 20
4.0933842112
 30
0.0
 10
3.0662808237
 20
4.0943383122
 30
0.0
 10
3.1163758843
 20
4.0952933163
 30
0.0
 10
3.1707009626
 20
4.096248933
 30
0.0
 10
3.2512198617
 20
4.0975664369
 30
0.0
 10
3.36141331
 20
4.0991950891
 30
0.0
 10
3.5043622579
 20
4.10109656
 30
0.0
 10
3.6606139949
 20
4.103000589
 30
0.0
 10
3.8287158393
 20
4.10490672
 30
0.0
 10
4.0071045114
 20
4.1068142815
 30
0.0
 10
4.1941213974
 20
4.1087228434
 30
0.0
 10
4.3880277862
 20
4.1106321439
 30
0.0
 10
4.587020428
 20
4.1125419411
 30
0.0
 10
4.7892490465
 20
4.1144520137
 30
0.0
 10
4.9928335418
 20
4.1163622174
 30
0.0
 10
5.1958807435
 20
4.1182723695
 30
0.0
 10
5.3965026009
 20
4.120182301
 30
0.0
 10
5.5928339662
 20
4.1220918485
 30
0.0
 10
5.7830491914
 20
4.1240007669
 30
0.0
 10
5.9653794709
 20
4.1259087763
 30
0.0
 10
6.1381297142
 20
4.1278156492
 30
0.0
 10
6.2753634153
 20
4.1294336488
 30
0.0
 10
6.3791647717
 20
4.1307364776
 30
0.0
 10
6.4520963721
 20
4.1316938311
 30
0.0
 10
6.5214994513
 20
4.1326509831
 30
0.0
 10
6.587212681
 20
4.1336078896
 30
0.0
 10
6.6490831088
 20
4.1345643764
 30
0.0
 10
6.7069668739
 20
4.1355204948
 30
0.0
 10
6.7607294181
 20
4.1364760995
 30
0.0
 10
6.8102455831
 20
4.1374309033
 30
0.0
 10
6.8554002746
 20
4.1383848259
 30
0.0
 10
6.8960885569
 20
4.1393376106
 30
0.0
 10
6.9271596646
 20
4.1401551002
 30
0.0
 10
6.9497131021
 20
4.1408155024
 30
0.0
 10
6.9648767908
 20
4.1412937468
 30
0.0
 10
6.9788599766
 20
4.1417716914
 30
0.0
 10
6.9916551942
 20
4.1422492791
 30
0.0
 10
7.0032550335
 20
4.1427263931
 30
0.0
 10
7.0136521254
 20
4.1432028368
 30
0.0
 10
7.0228397843
 20
4.1436784498
 30
0.0
 10
7.0308128142
 20
4.1441526812
 30
0.0
 10
7.03756738
 20
4.1446252108
 30
0.0
 10
7.042431872
 20
4.1450367051
 30
0.0
 10
7.0457105129
 20
4.1453744893
 30
0.0
 10
7.0477114836
 20
4.1456117144
 30
0.0
 10
7.0494057427
 20
4.1458481096
 30
0.0
 10
7.0506243677
 20
4.1460539259
 30
0.0
 10
7.0514443606
 20
4.1462227178
 30
0.0
 10
7.0519454109
 20
4.1463413907
 30
0.0
 10
7.0523701106
 20
4.1464601306
 30
0.0
 10
7.0527174616
 20
4.146577164
 30
0.0
 10
7.052991739
 20
4.1466969814
 30
0.0
 10
7.0532185416
 20
4.1468268746
 30
0.0
 10
7.0533545253
 20
4.1469753512
 30
0.0
 10
7.053354473
 20
4.1470703407
 30
0.0
  0
SPLINE
  5
35E
100
AcDbEntity
  8
0
100
AcDbSpline
 62
7
  6
CONTINUOUS
 70
0
 71
3
 72
51
 73
47
 74
0
 42
0.0000001
 43
0.0000001
 44
0.0000000001
 40
0.0
 40
0.0
 40
0.0
 40
0.0
 40
0.000056078
 40
0.0000953461
 40
0.0001443828
 40
0.0002745522
 40
0.0004498262
 40
0.0006713506
 40
0.0009396663
 40
0.0012550619
 40
0.0016177038
 40
0.0024850706
 40
0.0035422081
 40
0.0047892442
 40
0.0062261514
 40
0.0078525547
 40
0.0096678622
 40
0.0116714541
 40
0.0138626943
 40
0.0188055158
 40
0.0244910535
 40
0.0309126119
 40
0.038061268
 40
0.045927872
 40
0.0545032427
 40
0.0637769655
 40
0.073736503
 40
0.0843691016
 40
0.0956619923
 40
0.1201712282
 40
0.1471385239
 40
0.1764297148
 40
0.2078950963
 40
0.2413775558
 40
0.2767064292
 40
0.3137048296
 40
0.3521845958
 40
0.3919526299
 40
0.4328070841
 40
0.5169475317
 40
0.6029086106
 40
0.6889562331
 40
0.7733546281
 40
0.8544011347
 40
0.9304611487
 40
1.0
 40
1.0
 40
1.0
 40
1.0
 10
2.8167545948
 20
4.6001703422
 30
0.0
 10
2.8167547087
 20
4.6002355727
 30
0.0
 10
2.816819802
 20
4.6003415535
 30
0.0
 10
2.8169502969
 20
4.6004445266
 30
0.0
 10
2.8171705921
 20
4.6005743088
 30
0.0
 10
2.8175555216
 20
4.6007253152
 30
0.0
 10
2.8181441303
 20
4.6008976942
 30
0.0
 10
2.818898571
 20
4.6010706647
 30
0.0
 10
2.8198189953
 20
4.6012449931
 30
0.0
 10
2.8209059407
 20
4.6014198615
 30
0.0
 10
2.8226863547
 20
4.6016687223
 30
0.0
 10
2.8253297965
 20
4.6019719963
 30
0.0
 10
2.8290026191
 20
4.6023202361
 30
0.0
 10
2.8333403538
 20
4.6026697014
 30
0.0
 10
2.8383419997
 20
4.6030201734
 30
0.0
 10
2.844006045
 20
4.6033712666
 30
0.0
 10
2.8503303556
 20
4.6037228388
 30
0.0
 10
2.857312584
 20
4.6040747782
 30
0.0
 10
2.8679303617
 20
4.6045642622
 30
0.0
 10
2.8828301399
 20
4.6051684001
 30
0.0
 10
2.9026504792
 20
4.6058692652
 30
0.0
 10
2.9250380471
 20
4.6065712546
 30
0.0
 10
2.9499637311
 20
4.6072742891
 30
0.0
 10
2.9773956351
 20
4.6079780353
 30
0.0
 10
3.0073001701
 20
4.6086822834
 30
0.0
 10
3.0396398431
 20
4.6093868774
 30
0.0
 10
3.0743730266
 20
4.6100918217
 30
0.0
 10
3.1114553758
 20
4.6107970667
 30
0.0
 10
3.165460155
 20
4.6117642336
 30
0.0
 10
3.2384644849
 20
4.6129638887
 30
0.0
 10
3.3324039849
 20
4.6143690672
 30
0.0
 10
3.4344357703
 20
4.6157753572
 30
0.0
 10
3.5440467207
 20
4.6171828284
 30
0.0
 10
3.660681309
 20
4.6185909363
 30
0.0
 10
3.7837524048
 20
4.6199997506
 30
0.0
 10
3.9126367855
 20
4.6214089333
 30
0.0
 10
4.0466851418
 20
4.6228185564
 30
0.0
 10
4.1852191429
 20
4.6242284089
 30
0.0
 10
4.3768639646
 20
4.626127157
 30
0.0
 10
4.6222392047
 20
4.6284815168
 30
0.0
 10
4.9201818178
 20
4.631281137
 30
0.0
 10
5.2184244922
 20
4.6340807497
 30
0.0
 10
5.5109502332
 20
4.6368792968
 30
0.0
 10
5.7918577492
 20
4.6396753654
 30
0.0
 10
6.0554796031
 20
4.6424673984
 30
0.0
 10
6.2248307001
 20
4.6444240442
 30
0.0
 10
6.3057129912
 20
4.6454203417
 30
0.0
  0
SPLINE
  5
35F
100
AcDbEntity
  8
0
100
AcDbSpline
 62
7
  6
CONTINUOUS
 70
0
 71
3
 72
42
 73
38
 74
0
 42
0.0000001
 43
0.0000001
 44
0.0000000001
 40
0.0
 40
0.0
 40
0.0
 40
0.0
 40
0.0001263336
 40
0.0002866588
 40
0.0007128875
 40
0.0012828627
 40
0.0019981052
 40
0.0028593544
 40
0.0038668829
 40
0.0050207119
 40
0.0063207712
 40
0.0093590363
 40
0.01298038
 40
0.0171832081
 40
0.0219657908
 40
0.027325764
 40
0.0332595185
 40
0.039763261
 40
0.0468331779
 40
0.0626561456
 40
0.0806925406
 40
0.1008976399
 40
0.1232255436
 40
0.1476237745
 40
0.1740330404
 40
0.2023930621
 40
0.2326361417
 40
0.2646898952
 40
0.2984806322
 40
0.3709458367
 40
0.449348948
 40
0.5329484579
 40
0.6209567822
 40
0.7125427544
 40
0.8068359385
 40
0.9029727628
 40
1.0
 40
1.0
 40
1.0
 40
1.0
 10
2.7403265589
 20
3.9155998602
 30
0.0
 10
2.7404065977
 20
3.9156461106
 30
0.0
 10
2.7405974648
 20
3.9157347841
 30
0.0
 10
2.7410891904
 20
3.9159097397
 30
0.0
 10
2.7419113429
 20
3.9161164838
 30
0.0
 10
2.7431413981
 20
3.9163518026
 30
0.0
 10
2.7446944299
 20
3.916588633
 30
0.0
 10
2.7465701982
 20
3.9168270802
 30
0.0
 10
2.7487690347
 20
3.9170662683
 30
0.0
 10
2.7512904968
 20
3.9173060899
 30
0.0
 10
2.7552950299
 20
3.9176441722
 30
0.0
 10
2.7611047458
 20
3.918058437
 30
0.0
 10
2.7690387527
 20
3.9185358408
 30
0.0
 10
2.7782510201
 20
3.9190145889
 30
0.0
 10
2.7887369022
 20
3.9194944167
 30
0.0
 10
2.8004904822
 20
3.9199748997
 30
0.0
 10
2.8135043881
 20
3.9204559284
 30
0.0
 10
2.8277702534
 20
3.9209373841
 30
0.0
 10
2.8492700113
 20
3.9216050775
 30
0.0
 10
2.8792075124
 20
3.922430008
 30
0.0
 10
2.9187559949
 20
3.9233887185
 30
0.0
 10
2.9630654746
 20
3.924349052
 30
0.0
 10
3.0120309907
 20
3.9253105208
 30
0.0
 10
3.0655370001
 20
3.9262727949
 30
0.0
 10
3.123457473
 20
3.9272358198
 30
0.0
 10
3.1856552796
 20
3.9281992726
 30
0.0
 10
3.2519837273
 20
3.9291631234
 30
0.0
 10
3.3222863269
 20
3.9301273753
 30
0.0
 10
3.4234817491
 20
3.9314441617
 30
0.0
 10
3.5585906402
 20
3.9330777956
 30
0.0
 10
3.730144733
 20
3.9349975541
 30
0.0
 10
3.9130726855
 20
3.9369189055
 30
0.0
 10
4.1056472905
 20
3.9388414655
 30
0.0
 10
4.3060470363
 20
3.9407648055
 30
0.0
 10
4.5123948266
 20
3.9426888273
 30
0.0
 10
4.7227242658
 20
3.9446131325
 30
0.0
 10
4.8640604851
 20
3.9458941236
 30
0.0
 10
4.9350543478
 20
3.946537576
 30
0.0
  0
SPLINE
  5
360
100
AcDbEntity
  8
0
100
AcDbSpline
 62
7
  6
CONTINUOUS
 70
0
 71
3
 72
42
 73
38
 74
0
 42
0.0000001
 43
0.0000001
 44
0.0000000001
 40
0.0
 40
0.0
 40
0.0
 40
0.0
 40
0.0970272363
 40
0.193164062
 40
0.2874572497
 40
0.3790432236
 40
0.4670515487
 40
0.5506510587
 40
0.6290541695
 40
0.7015193726
 40
0.7353101089
 40
0.767363862
 40
0.7976069413
 40
0.8259669631
 40
0.8523762293
 40
0.8767744602
 40
0.8991023639
 40
0.9193074624
 40
0.9373438564
 40
0.9531668234
 40
0.9602367401
 40
0.9667404823
 40
0.9726742367
 40
0.9780342097
 40
0.9828167924
 40
0.9870196204
 40
0.9906409639
 40
0.9936792289
 40
0.9949792882
 40
0.9961331171
 40
0.9971406456
 40
0.9980018948
 40
0.9987171373
 40
0.9992871125
 40
0.9997133412
 40
0.9998736664
 40
1.0
 40
1.0
 40
1.0
 40
1.0
 10
4.9350543478
 20
4.5507031073
 30
0.0
 10
5.0060482099
 20
4.5513465597
 30
0.0
 10
5.1473844295
 20
4.5526275509
 30
0.0
 10
5.3577138718
 20
4.554551856
 30
0.0
 10
5.564061667
 20
4.5564758779
 30
0.0
 10
5.7644614173
 20
4.558399218
 30
0.0
 10
5.9570360241
 20
4.560321778
 30
0.0
 10
6.1399639769
 20
4.5622431294
 30
0.0
 10
6.3115180684
 20
4.5641628879
 30
0.0
 10
6.4466269576
 20
4.5657965218
 30
0.0
 10
6.547822378
 20
4.5671133081
 30
0.0
 10
6.6181249766
 20
4.56807756
 30
0.0
 10
6.6844534238
 20
4.5690414109
 30
0.0
 10
6.7466512304
 20
4.5700048637
 30
0.0
 10
6.8045717037
 20
4.5709678886
 30
0.0
 10
6.8580777133
 20
4.5719301627
 30
0.0
 10
6.9070432289
 20
4.5728916314
 30
0.0
 10
6.9513527072
 20
4.573851965
 30
0.0
 10
6.9909011879
 20
4.5748106755
 30
0.0
 10
7.0208386876
 20
4.575635606
 30
0.0
 10
7.0423384447
 20
4.5763032993
 30
0.0
 10
7.0566043094
 20
4.576784755
 30
0.0
 10
7.0696182149
 20
4.5772657837
 30
0.0
 10
7.0813717946
 20
4.5777462666
 30
0.0
 10
7.0918576765
 20
4.5782260945
 30
0.0
 10
7.1010699437
 20
4.5787048426
 30
0.0
 10
7.1090039504
 20
4.5791822464
 30
0.0
 10
7.1148136662
 20
4.5795965111
 30
0.0
 10
7.1188181991
 20
4.5799345934
 30
0.0
 10
7.1213396612
 20
4.580174415
 30
0.0
 10
7.1235384976
 20
4.5804136031
 30
0.0
 10
7.1254142659
 20
4.5806520503
 30
0.0
 10
7.1269672976
 20
4.5808888808
 30
0.0
 10
7.1281973528
 20
4.5811241995
 30
0.0
 10
7.1290195053
 20
4.5813309437
 30
0.0
 10
7.1295112309
 20
4.5815058992
 30
0.0
 10
7.1297020979
 20
4.5815945727
 30
0.0
 10
7.1297821368
 20
4.5816408231
 30
0.0
  0
LINE
  5
361
100
AcDbEntity
  8
0
100
AcDbLine
 62
7
  6
CONTINUOUS
 10
2.8170368157
 20
3.959893932
 11
2.8191766695
 21
3.9605214817
  0
SPLINE
  5
362
100
AcDbEntity
  8
0
100
AcDbSpline
 62
7
  6
CONTINUOUS
 70
0
 71
3
 72
72
 73
68
 74
0
 42
0.0000001
 43
0.0000001
 44
0.0000000001
 40
0.0
 40
0.0
 40
0.0
 40
0.0
 40
0.0003301489
 40
0.0007323111
 40
0.0017535395
 40
0.0030645413
 40
0.004664808
 40
0.006553441
 40
0.008729431
 40
0.0139391616
 40
0.0202836019
 40
0.0277468806
 40
0.0363119169
 40
0.0459599141
 40
0.0566671161
 40
0.0684088309
 40
0.0811586272
 40
0.0948855361
 40
0.1251420839
 40
0.1588958454
 40
0.195832631
 40
0.2356068991
 40
0.2778470319
 40
0.3221592223
 40
0.3681292439
 40
0.4153277006
 40
0.4633141369
 40
0.5116401464
 40
0.5598545268
 40
0.6075070307
 40
0.6541523966
 40
0.6993554014
 40
0.7426936949
 40
0.7837622155
 40
0.8221781545
 40
0.8402778778
 40
0.8575824503
 40
0.8740504736
 40
0.8896440029
 40
0.904327147
 40
0.918064491
 40
0.9308246326
 40
0.9425782953
 40
0.9532968073
 40
0.9629560018
 40
0.9715338428
 40
0.9754104285
 40
0.9790090635
 40
0.9823279568
 40
0.9853653306
 40
0.9881194163
 40
0.9905884589
 40
0.992770791
 40
0.9946653799
 40
0.9962715709
 40
0.9975888207
 40
0.998138992
 40
0.9986168486
 40
0.9990224498
 40
0.99935596
 40
0.9994957987
 40
0.9996178002
 40
0.9997221176
 40
0.9998089978
 40
0.9998788696
 40
0.9999325683
 40
1.0
 40
1.0
 40
1.0
 40
1.0
 10
2.8191766695
 20
3.9605214817
 30
0.0
 10
2.8196339901
 20
3.9606113856
 30
0.0
 10
2.820653406
 20
3.960785135
 30
0.0
 10
2.8231050991
 20
3.9611288214
 30
0.0
 10
2.8269440473
 20
3.9615407
 30
0.0
 10
2.8324757578
 20
3.9620110806
 30
0.0
 10
2.8392355206
 20
3.9624840127
 30
0.0
 10
2.8472186301
 20
3.962959463
 30
0.0
 10
2.8602939133
 20
3.9636362768
 30
0.0
 10
2.8796597028
 20
3.9644605169
 30
0.0
 10
2.90649023
 20
3.9654069422
 30
0.0
 10
2.9380598559
 20
3.9663570656
 30
0.0
 10
2.9742948493
 20
3.9673101354
 30
0.0
 10
3.0151106714
 20
3.9682647889
 30
0.0
 10
3.0604120965
 20
3.9692208742
 30
0.0
 10
3.1100932208
 20
3.9701778973
 30
0.0
 10
3.1640380018
 20
3.9711355646
 30
0.0
 10
3.244117933
 20
3.9724565503
 30
0.0
 10
3.35384814
 20
3.9740891377
 30
0.0
 10
3.4963432951
 20
3.9759946066
 30
0.0
 10
3.6522757534
 20
3.9779027064
 30
0.0
 10
3.82018929
 20
3.9798129615
 30
0.0
 10
3.9985153609
 20
3.9817246849
 30
0.0
 10
4.1855884933
 20
3.9836374351
 30
0.0
 10
4.3796616759
 20
3.9855509394
 30
0.0
 10
4.5789220611
 20
3.9874649562
 30
0.0
 10
4.7815085614
 20
3.9893792585
 30
0.0
 10
4.9855293117
 20
3.991293698
 30
0.0
 10
5.1890786266
 20
3.993208094
 30
0.0
 10
5.3902552594
 20
3.995122271
 30
0.0
 10
5.5871805163
 20
3.9970360675
 30
0.0
 10
5.7780150777
 20
3.9989492399
 30
0.0
 10
5.9609763604
 20
4.0008614974
 30
0.0
 10
6.134355749
 20
4.0027726201
 30
0.0
 10
6.2721066342
 20
4.0043941793
 30
0.0
 10
6.3763111034
 20
4.0056998699
 30
0.0
 10
6.4495334096
 20
4.0066593614
 30
0.0
 10
6.5192173853
 20
4.0076186647
 30
0.0
 10
6.5852003037
 20
4.0085777049
 30
0.0
 10
6.6473278755
 20
4.0095363275
 30
0.0
 10
6.7054550299
 20
4.0104945995
 30
0.0
 10
6.7594460197
 20
4.0114523326
 30
0.0
 10
6.8091745918
 20
4.0124092675
 30
0.0
 10
6.8545246709
 20
4.0133653428
 30
0.0
 10
6.8953903444
 20
4.0143202431
 30
0.0
 10
6.9265976432
 20
4.0151395474
 30
0.0
 10
6.9492502324
 20
4.0158014452
 30
0.0
 10
6.9644808484
 20
4.0162807628
 30
0.0
 10
6.9785261201
 20
4.0167597786
 30
0.0
 10
6.9913783966
 20
4.0172384346
 30
0.0
 10
7.003030042
 20
4.0177166134
 30
0.0
 10
7.0134735309
 20
4.0181941175
 30
0.0
 10
7.0227022822
 20
4.0186708091
 30
0.0
 10
7.0307112078
 20
4.0191460877
 30
0.0
 10
7.037496475
 20
4.0196196581
 30
0.0
 10
7.0423831792
 20
4.0200320589
 30
0.0
 10
7.0456767649
 20
4.0203705993
 30
0.0
 10
7.0476867321
 20
4.020608353
 30
0.0
 10
7.0493884548
 20
4.020845276
 30
0.0
 10
7.0506123225
 20
4.0210515583
 30
0.0
 10
7.0514357175
 20
4.0212207476
 30
0.0
 10
7.0519387438
 20
4.0213396954
 30
0.0
 10
7.0523650694
 20
4.0214587098
 30
0.0
 10
7.0527137046
 20
4.0215760033
 30
0.0
 10
7.0529889591
 20
4.0216961092
 30
0.0
 10
7.0532164413
 20
4.0218262197
 30
0.0
 10
7.0533528664
 20
4.0219751489
 30
0.0
 10
7.0533526632
 20
4.0220703426
 30
0.0
  0
ENDSEC
  0
SECTION
  2
OBJECTS
  0
DICTIONARY
  5
C
100
AcDbDictionary
280
0
281
1
  3
ACAD_GROUP
350
D
  3
ACAD_MLINESTYLE
350
17
  3
ACAD_LAYOUT
350
1A
  3
ACAD_PLOTSETTINGS
350
19
  3
ACAD_PLOTSTYLENAME
350
E
  0
DICTIONARY
  5
D
102
{ACAD_REACTORS
330
C
102
}
100
AcDbDictionary
280
0
281
1
  0
ACDBDICTIONARYWDFLT
  5
E
102
{ACAD_REACTORS
330
C
102
}
100
AcDbDictionary
281
1
  3
Normal
350
F
100
AcDbDictionaryWithDefault
340
F
  0
DICTIONARY
  5
17
102
{ACAD_REACTORS
330
C
102
}
100
AcDbDictionary
280
0
281
1
  3
Standard
350
18
  0
DICTIONARY
  5
19
102
{ACAD_REACTORS
330
C
102
}
100
AcDbDictionary
281
1
  0
DICTIONARY
  5
1A
102
{ACAD_REACTORS
330
C
102
}
100
AcDbDictionary
281
1
  3
Model
350
363
  3
Layout1
350
364
  0
ACDBPLACEHOLDER
  5
F
102
{ACAD_REACTORS
330
E
102
}
  0
MLINESTYLE
  5
18
102
{ACAD_REACTORS
330
17
102
}
100
AcDbMlineStyle
  2
STANDARD
 70
0
  3

 62
256
 51
90.0
 52
90.0
 71
2
 49
0.5
 62
256
  6
BYLAYER
 49
-0.5
 62
256
  6
BYLAYER
  0
LAYOUT
  5
363
102
{ACAD_REACTORS
330
1A
102
}
100
AcDbPlotSettings
  1

  2
none_device
  4
ANSI_A_(11.00_x_8.50_Inches)
  6

 40
0.0
 41
0.0
 42
0.0
 43
0.0
 44
279.4
 45
215.9
 46
0.0
 47
0.0
 48
0.0
 49
0.0
140
0.0
141
0.0
142
1.0
143
1.0
 70
1024
 72
0
 73
0
 74
0
  7

 75
0
147
1.0
148
0.0
149
0.0
100
AcDbLayout
  1
Model
 70
0
 71
0
 10
0.0
 20
0.0
 11
11.0
 21
8.5
 12
0.0
 22
0.0
 32
0.0
 14
0.0
 24
0.0
 34
0.0
 15
0.0
 25
0.0
 35
0.0
146
0.0
 13
0.0
 23
0.0
 33
0.0
 16
1.0
 26
0.0
 36
0.0
 17
0.0
 27
1.0
 37
0.0
 76
0
330
202
345
0
346
0
  0
LAYOUT
  5
364
102
{ACAD_REACTORS
330
1A
102
}
100
AcDbPlotSettings
  1

  2
none_device
  4
ANSI_A_(11.00_x_8.50_Inches)
  6

 40
0.0
 41
0.0
 42
0.0
 43
0.0
 44
279.4
 45
215.9
 46
0.0
 47
0.0
 48
0.0
 49
0.0
140
0.0
141
0.0
142
1.0
143
1.0
 70
0
 72
0
 73
0
 74
0
  7

 75
0
147
1.0
148
0.0
149
0.0
100
AcDbLayout
  1
Layout1
 70
0
 71
1
 10
0.0
 20
0.0
 11
11.0
 21
8.5
 12
0.0
 22
0.0
 32
0.0
 14
0.0
 24
0.0
 34
0.0
 15
0.0
 25
0.0
 35
0.0
146
0.0
 13
0.0
 23
0.0
 33
0.0
 16
1.0
 26
0.0
 36
0.0
 17
0.0
 27
1.0
 37
0.0
 76
0
330
203
345
0
346
0
  0
ENDSEC
  0
EOF
