  0
SECTION
  2
HEADER
  9
$ACADVER
  1
AC1021
  9
$DWGCODEPAGE
  3
ANSI_1252
  9
$EXTMAX
 10
11.6929133858
 20
8.2677165354
 30
0.0
  9
$EXTMIN
 10
0.0
 20
0.0
 30
0.0
  9
$LIMMIN
 10
0.0
 20
0.0
  9
$LIMMAX
 10
11.6929133858
 20
8.2677165354
  9
$VIEWCTR
 10
5.8464566929
 20
4.1338582677
  9
$VIEWSIZE
 40
8.2677165354
  9
$CLAYER
  8
0
  9
$LTSCALE
 40
0.6431102362
  9
$CELTYPE
  6
BYLAYER
  9
$DIMSCALE
 40
1.0
  9
$DIMASZ
 40
0.1
  9
$DIMEXO
 40
0.0730807087
  9
$DIMDLI
 40
0.4443307087
  9
$DIMEXE
 40
0.2104724409
  9
$DIMCEN
 40
0.1052362205
  9
$DIMLFAC
 40
1.0
  9
$DIMBLK
  1
_FILLED
  9
$DIMTXT
 40
0.08
  9
$DIMTOL
 70
1
  9
$DIMLIM
 70
0
  9
$DIMTFAC
 40
1.0
  9
$DIMTP
 40
0.001
  9
$DIMTM
 40
0.001
  9
$PDMODE
 70
3
  9
$PDSIZE
 40
0.06
  9
$HANDSEED
  5
346
  9
$TILEMODE
 70
1
  9
$MEASUREMENT
 70
0
  9
$INSUNITS
 70
1
  0
ENDSEC
  0
SECTION
  2
CLASSES
  0
CLASS
  1
ACDBDICTIONARYWDFLT
  2
AcDbDictionaryWithDefault
  3
AutoCAD 2000
 90
0
 91
1
280
0
281
0
  0
CLASS
  1
ACDBPLACEHOLDER
  2
AcDbPlaceHolder
  3
AutoCAD 2000
 90
0
 91
1
280
0
281
0
  0
CLASS
  1
LAYOUT
  2
AcDbLayout
  3
AutoCAD 2000
 90
0
 91
0
280
0
281
0
  0
ENDSEC
  0
SECTION
  2
TABLES
  0
TABLE
  2
VPORT
  5
8
100
AcDbSymbolTable
 70
2
  0
VPORT
  5
1F4
100
AcDbSymbolTableRecord
100
AcDbViewportTableRecord
  2
*ACTIVE
 70
0
 10
0.0
 20
0.0
 11
1.0
 21
1.0
 12
5.8464566929
 22
4.1338582677
 13
0.0
 23
0.0
 14
1.0
 24
1.0
 15
0.0
 25
0.0
 16
0.0
 26
0.0
 36
1.0
 17
0.0
 27
0.0
 37
0.0
 40
8.2677165354
 41
1.4142857143
 42
50.0
 43
0.0
 44
0.0
 50
0.0
 51
0.0
 71
0
 72
100
 73
1
 74
1
 75
0
 76
0
 77
0
 78
0
  0
ENDTAB
  0
TABLE
  2
LTYPE
  5
5
100
AcDbSymbolTable
 70
6
  0
LTYPE
  5
14
100
AcDbSymbolTableRecord
100
AcDbLinetypeTableRecord
  2
BYBLOCK
 70
0
  3

 72
65
 73
0
 40
0.0
  0
LTYPE
  5
15
100
AcDbSymbolTableRecord
100
AcDbLinetypeTableRecord
  2
BYLAYER
 70
0
  3

 72
65
 73
0
 40
0.0
  0
LTYPE
  5
16
100
AcDbSymbolTableRecord
100
AcDbLinetypeTableRecord
  2
CONTINUOUS
 70
64
  3
Solid line
 72
65
 73
0
 40
0.0
  0
LTYPE
  5
1F5
100
AcDbSymbolTableRecord
100
AcDbLinetypeTableRecord
  2
CENTER
 70
64
  3
____ _ ____ _ ____ _ ____ _ ____ _ ____ _ ____
 72
65
 73
4
 40
0.6
 49
0.375
 74
0
 49
-0.075
 74
0
 49
0.075
 74
0
 49
-0.075
 74
0
  0
LTYPE
  5
1F6
100
AcDbSymbolTableRecord
100
AcDbLinetypeTableRecord
  2
HIDDEN
 70
64
  3
- - - - - - - - - - - - - - - - - - - -
 72
65
 73
2
 40
0.2
 49
0.1
 74
0
 49
-0.1
 74
0
  0
LTYPE
  5
1F7
100
AcDbSymbolTableRecord
100
AcDbLinetypeTableRecord
  2
PHANTOM
 70
64
  3
_____ _ _ _____ _ _ _____ _ _ _____
 72
65
 73
6
 40
0.8
 49
0.45
 74
0
 49
-0.05
 74
0
 49
0.1
 74
0
 49
-0.05
 74
0
 49
0.1
 74
0
 49
-0.05
 74
0
  0
LTYPE
  5
1F8
100
AcDbSymbolTableRecord
100
AcDbLinetypeTableRecord
  2
DOT
 70
64
  3
. . . . . . . . . . . . . . . . . . . .
 72
65
 73
2
 40
0.2
 49
0.1
 74
0
 49
-0.1
 74
0
  0
LTYPE
  5
1F9
100
AcDbSymbolTableRecord
100
AcDbLinetypeTableRecord
  2
DASHED
 70
64
  3
- - - - - - - - - - - - - - - - - - - -
 72
65
 73
2
 40
0.2
 49
0.1
 74
0
 49
-0.1
 74
0
  0
ENDTAB
  0
TABLE
  2
LAYER
  5
2
100
AcDbSymbolTable
 70
36
  0
LAYER
  5
10
100
AcDbSymbolTableRecord
100
AcDbLayerTableRecord
  2
0
 70
0
 62
7
  6
CONTINUOUS
370
-3
390
F
  0
LAYER
  5
1FA
100
AcDbSymbolTableRecord
100
AcDbLayerTableRecord
  2
DEFAULT_1
 70
0
 62
7
  6
CENTER
370
-3
390
F
  0
LAYER
  5
1FB
100
AcDbSymbolTableRecord
100
AcDbLayerTableRecord
  2
DEFAULT_2
 70
0
 62
7
  6
HIDDEN
370
-3
390
F
  0
LAYER
  5
1FC
100
AcDbSymbolTableRecord
100
AcDbLayerTableRecord
  2
DEFAULT_3
 70
0
 62
7
  6
PHANTOM
370
-3
390
F
  0
LAYER
  5
1FD
100
AcDbSymbolTableRecord
100
AcDbLayerTableRecord
  2
ALL_FEATURES
 70
0
 62
7
  6
CONTINUOUS
370
-3
390
F
  0
LAYER
  5
1FE
100
AcDbSymbolTableRecord
100
AcDbLayerTableRecord
  2
AXES_FEATURES
 70
0
 62
7
  6
CONTINUOUS
370
-3
390
F
  0
LAYER
  5
1FF
100
AcDbSymbolTableRecord
100
AcDbLayerTableRecord
  2
DEFAULT_COORDINATE_SYSTEM
 70
0
 62
7
  6
CONTINUOUS
370
-3
390
F
  0
LAYER
  5
200
100
AcDbSymbolTableRecord
100
AcDbLayerTableRecord
  2
DEFAULT_DATUM_AXES
 70
0
 62
7
  6
CONTINUOUS
370
-3
390
F
  0
LAYER
  5
201
100
AcDbSymbolTableRecord
100
AcDbLayerTableRecord
  2
DEFAULT_DATUM_CURVES
 70
0
 62
7
  6
CONTINUOUS
370
-3
390
F
  0
LAYER
  5
202
100
AcDbSymbolTableRecord
100
AcDbLayerTableRecord
  2
DEFAULT_DATUM_PLANES
 70
0
 62
7
  6
CONTINUOUS
370
-3
390
F
  0
LAYER
  5
203
100
AcDbSymbolTableRecord
100
AcDbLayerTableRecord
  2
DEFAULT_SURFACES
 70
0
 62
7
  6
CONTINUOUS
370
-3
390
F
  0
LAYER
  5
204
100
AcDbSymbolTableRecord
100
AcDbLayerTableRecord
  2
DIMENSIONS
 70
0
 62
7
  6
CONTINUOUS
370
-3
390
F
  0
LAYER
  5
205
100
AcDbSymbolTableRecord
100
AcDbLayerTableRecord
  2
OFFSET_LINE
 70
0
 62
7
  6
CONTINUOUS
370
-3
390
F
  0
LAYER
  5
206
100
AcDbSymbolTableRecord
100
AcDbLayerTableRecord
  2
PATTERN_DATUMS
 70
0
 62
7
  6
CONTINUOUS
370
-3
390
F
  0
ENDTAB
  0
TABLE
  2
STYLE
  5
3
100
AcDbSymbolTable
 70
1
  0
STYLE
  5
11
100
AcDbSymbolTableRecord
100
AcDbTextStyleTableRecord
  2
STANDARD
 70
0
 40
0.0
 41
0.8
 50
0.0
 71
0
 42
0.2
  3
txt
  4

  0
STYLE
  5
207
100
AcDbSymbolTableRecord
100
AcDbTextStyleTableRecord
  2
TEXTSTYLE_1
 70
0
 40
0.0
 41
0.8
 50
0.0
 71
0
 42
0.2
  3
gdt
  4

  0
ENDTAB
  0
TABLE
  2
VIEW
  5
6
100
AcDbSymbolTable
 70
0
  0
ENDTAB
  0
TABLE
  2
UCS
  5
7
100
AcDbSymbolTable
 70
0
  0
ENDTAB
  0
TABLE
  2
APPID
  5
9
100
AcDbSymbolTable
 70
1
  0
APPID
  5
208
100
AcDbSymbolTableRecord
100
AcDbRegAppTableRecord
  2
ACAD
 70
0
  0
ENDTAB
  0
TABLE
  2
BLOCK_RECORD
  5
1
100
AcDbSymbolTable
 70
0
  0
BLOCK_RECORD
  5
209
100
AcDbSymbolTableRecord
100
AcDbBlockTableRecord
  2
*Model_Space
  0
BLOCK_RECORD
  5
20A
100
AcDbSymbolTableRecord
100
AcDbBlockTableRecord
  2
*Paper_Space
  0
ENDTAB
  0
TABLE
  2
DIMSTYLE
  5
A
100
AcDbSymbolTable
 70
1
100
AcDbDimStyleTable
 71
0
  0
DIMSTYLE
105
20B
100
AcDbSymbolTableRecord
100
AcDbDimStyleTableRecord
  2
STANDARD
 70
0
  3

  4

 40
1.0
 41
0.1
 42
0.0625
 43
0.38
 44
0.18
 45
0.0
 46
0.0
 47
0.001
 48
0.001
140
0.08
141
0.09
142
0.0
143
25.4
144
1.0
145
0.0
146
1.0
147
0.09
 71
1.0
 72
0.0
 73
1
 74
1
 75
0
 76
0
 77
0
 78
4
170
0
171
2
172
0
173
0
174
0
175
0
176
0
177
0
178
0
270
2
271
3
272
3
273
2
274
2
275
0
280
0
281
0
282
0
283
1
284
4
285
0
286
0
287
3
288
0
340
11
  0
ENDTAB
  0
ENDSEC
  0
SECTION
  2
BLOCKS
  0
BLOCK
  5
20
100
AcDbEntity
  8
0
100
AcDbBlockBegin
  2
*Model_Space
 70
0
 10
0.0
 20
0.0
 30
0.0
  3
*Model_Space
  1

  0
ENDBLK
  5
21
100
AcDbEntity
  8
0
100
AcDbBlockEnd
  0
BLOCK
  5
1C
100
AcDbEntity
  8
0
100
AcDbBlockBegin
  2
*Paper_Space
 70
0
 10
0.0
 20
0.0
 30
0.0
  3
*Paper_Space
  1

  0
ENDBLK
  5
1D
100
AcDbEntity
  8
0
100
AcDbBlockEnd
  0
ENDSEC
  0
SECTION
  2
ENTITIES
  0
LINE
  5
20C
100
AcDbEntity
  8
0
100
AcDbLine
 62
7
  6
BYLAYER
 10
2.658507895
 20
4.2053404546
 11
2.6585048093
 21
4.0753404547
  0
LINE
  5
20D
100
AcDbEntity
  8
0
100
AcDbLine
 62
7
  6
BYLAYER
 10
3.408580503
 20
4.4172269632
 11
3.4085787866
 21
4.4172461948
  0
LINE
  5
20E
100
AcDbEntity
  8
0
100
AcDbLine
 62
7
  6
BYLAYER
 10
3.4085787129
 20
4.4172470537
 11
3.4085930222
 21
4.4170690483
  0
LINE
  5
20F
100
AcDbEntity
  8
0
100
AcDbLine
 62
7
  6
BYLAYER
 10
3.4085930222
 20
4.4170690483
 11
3.4086324891
 21
4.4165433188
  0
LINE
  5
210
100
AcDbEntity
  8
0
100
AcDbLine
 62
7
  6
BYLAYER
 10
3.4086324891
 20
4.4165433188
 11
3.4087858546
 21
4.414356059
  0
LINE
  5
211
100
AcDbEntity
  8
0
100
AcDbLine
 62
7
  6
BYLAYER
 10
3.4087858546
 20
4.414356059
 11
3.4090453525
 21
4.4104004419
  0
LINE
  5
212
100
AcDbEntity
  8
0
100
AcDbLine
 62
7
  6
BYLAYER
 10
3.4090453525
 20
4.4104004419
 11
3.4094805286
 21
4.4032509399
  0
LINE
  5
213
100
AcDbEntity
  8
0
100
AcDbLine
 62
7
  6
BYLAYER
 10
3.4094805286
 20
4.4032509399
 11
3.4099487761
 21
4.394979347
  0
LINE
  5
214
100
AcDbEntity
  8
0
100
AcDbLine
 62
7
  6
BYLAYER
 10
3.4099487761
 20
4.394979347
 11
3.4104436251
 21
4.3854575695
  0
LINE
  5
215
100
AcDbEntity
  8
0
100
AcDbLine
 62
7
  6
BYLAYER
 10
3.4104436251
 20
4.3854575695
 11
3.4109341512
 21
4.3751105106
  0
LINE
  5
216
100
AcDbEntity
  8
0
100
AcDbLine
 62
7
  6
BYLAYER
 10
3.4109341512
 20
4.3751105106
 11
3.4113876766
 21
4.3645025647
  0
LINE
  5
217
100
AcDbEntity
  8
0
100
AcDbLine
 62
7
  6
BYLAYER
 10
3.4113876766
 20
4.3645025647
 11
3.4117783629
 21
4.3542365141
  0
LINE
  5
218
100
AcDbEntity
  8
0
100
AcDbLine
 62
7
  6
BYLAYER
 10
3.4117783629
 20
4.3542365141
 11
3.4121569478
 21
4.3429013309
  0
LINE
  5
219
100
AcDbEntity
  8
0
100
AcDbLine
 62
7
  6
BYLAYER
 10
3.4121569478
 20
4.3429013309
 11
3.4124513019
 21
4.3326716945
  0
LINE
  5
21A
100
AcDbEntity
  8
0
100
AcDbLine
 62
7
  6
BYLAYER
 10
3.4124513019
 20
4.3326716945
 11
3.4127154644
 21
4.3217673939
  0
LINE
  5
21B
100
AcDbEntity
  8
0
100
AcDbLine
 62
7
  6
BYLAYER
 10
3.4127154644
 20
4.3217673939
 11
3.4129401544
 21
4.310236221
  0
LINE
  5
21C
100
AcDbEntity
  8
0
100
AcDbLine
 62
7
  6
BYLAYER
 10
3.4129401544
 20
4.310236221
 11
3.4131151609
 21
4.2981461761
  0
LINE
  5
21D
100
AcDbEntity
  8
0
100
AcDbLine
 62
7
  6
BYLAYER
 10
3.4131151609
 20
4.2981461761
 11
3.4131508605
 21
4.2949480468
  0
LINE
  5
21E
100
AcDbEntity
  8
0
100
AcDbLine
 62
7
  6
BYLAYER
 10
3.4131491934
 20
4.2950153057
 11
3.4131492108
 21
4.2950110254
  0
LINE
  5
21F
100
AcDbEntity
  8
0
100
AcDbLine
 62
7
  6
BYLAYER
 10
3.408389732
 20
4.2953226642
 11
3.4083944793
 21
4.495322664
  0
LINE
  5
220
100
AcDbEntity
  8
0
100
AcDbLine
 62
7
  6
BYLAYER
 10
3.4132056858
 20
4.2952633114
 11
3.4131491934
 21
4.2950153057
  0
LINE
  5
221
100
AcDbEntity
  8
0
100
AcDbLine
 62
7
  6
BYLAYER
 10
7.0359248025
 20
1.715236554
 11
4.9136144006
 21
1.7152644054
  0
LINE
  5
222
100
AcDbEntity
  8
0
100
AcDbLine
 62
7
  6
BYLAYER
 10
4.7209502151
 20
1.7752915013
 11
7.0959502145
 21
1.7752351275
  0
LINE
  5
223
100
AcDbEntity
  8
0
100
AcDbLine
 62
7
  6
BYLAYER
 10
4.9486854794
 20
1.7152609833
 11
4.7810884184
 21
1.7152893991
  0
LINE
  5
224
100
AcDbEntity
  8
0
100
AcDbLine
 62
7
  6
BYLAYER
 10
4.7809727787
 20
1.7152900749
 11
4.7810884184
 21
1.7152893991
  0
LINE
  5
225
100
AcDbEntity
  8
0
100
AcDbLine
 62
7
  6
BYLAYER
 10
3.6886062376
 20
3.9594257312
 11
3.715232586
 21
3.5859216908
  0
LINE
  5
226
100
AcDbEntity
  8
0
100
AcDbLine
 62
7
  6
BYLAYER
 10
3.7267762483
 20
3.9584088398
 11
3.7532441393
 21
3.5871275785
  0
LWPOLYLINE
  5
227
100
AcDbEntity
  8
0
100
AcDbPolyline
 62
7
  6
BYLAYER
 90
14
 70
0
 10
3.7152294625
 20
3.5860070692
 10
3.7159204414
 20
3.5802518132
 10
3.7174932727
 20
3.5734196701
 10
3.719852309
 20
3.5668176489
 10
3.7229653398
 20
3.5605358838
 10
3.7267898601
 20
3.5546601387
 10
3.73127365
 20
3.5492706363
 10
3.7363554883
 20
3.5444409591
 10
3.7419659888
 20
3.5402370457
 10
3.7480285496
 20
3.5367162891
 10
3.7544603994
 20
3.5339267546
 10
3.7611737239
 20
3.5319065258
 10
3.7680768647
 20
3.5306831836
 10
3.77507557
 20
3.5302734284
  0
LINE
  5
228
100
AcDbEntity
  8
0
100
AcDbLine
 62
7
  6
BYLAYER
 10
3.8344110663
 20
3.9583980985
 11
3.8418995781
 21
3.5871187312
  0
LINE
  5
229
100
AcDbEntity
  8
0
100
AcDbLine
 62
7
  6
BYLAYER
 10
3.8764030957
 20
4.5253612287
 11
3.8764112127
 21
4.7058160391
  0
LINE
  5
22A
100
AcDbEntity
  8
0
100
AcDbLine
 62
7
  6
BYLAYER
 10
4.0152014154
 20
4.7058024097
 11
4.0151932984
 21
4.5253475993
  0
LINE
  5
22B
100
AcDbEntity
  8
0
100
AcDbLine
 62
7
  6
BYLAYER
 10
4.0229687046
 20
4.5253471116
 11
4.0229768216
 21
4.7058019221
  0
LINE
  5
22C
100
AcDbEntity
  8
0
100
AcDbLine
 62
7
  6
BYLAYER
 10
4.2420652438
 20
3.9583835176
 11
4.2495537556
 21
3.5871041503
  0
LINE
  5
22D
100
AcDbEntity
  8
0
100
AcDbLine
 62
7
  6
BYLAYER
 10
4.0584918719
 20
3.5302794007
 11
4.0584775121
 21
2.9253072252
  0
LINE
  5
22E
100
AcDbEntity
  8
0
100
AcDbLine
 62
7
  6
BYLAYER
 10
4.3012755004
 20
4.7057893912
 11
4.3012673834
 21
4.5253345808
  0
LINE
  5
22F
100
AcDbEntity
  8
0
100
AcDbLine
 62
7
  6
BYLAYER
 10
4.3090561797
 20
4.5253343677
 11
4.3090642967
 21
4.7057891781
  0
LINE
  5
230
100
AcDbEntity
  8
0
100
AcDbLine
 62
7
  6
BYLAYER
 10
4.4485727728
 20
4.7057902766
 11
4.4485646558
 21
4.5253354662
  0
LINE
  5
231
100
AcDbEntity
  8
0
100
AcDbLine
 62
7
  6
BYLAYER
 10
4.476411012
 20
4.7602633114
 11
4.476411012
 21
4.5552633114
  0
LINE
  5
232
100
AcDbEntity
  8
0
100
AcDbLine
 62
7
  6
BYLAYER
 10
7.0959746629
 20
2.8052351263
 11
4.7209746635
 21
2.8052915001
  0
LINE
  5
233
100
AcDbEntity
  8
0
100
AcDbLine
 62
7
  6
BYLAYER
 10
7.1559760879
 20
2.865179161
 11
7.6984616311
 21
2.8652208301
  0
LINE
  5
234
100
AcDbEntity
  8
0
100
AcDbLine
 62
7
  6
BYLAYER
 10
4.1184905437
 20
2.8653057961
 11
7.6307581135
 21
2.8652017108
  0
LINE
  5
235
100
AcDbEntity
  8
0
100
AcDbLine
 62
7
  6
BYLAYER
 10
4.7209746635
 20
2.8052915
 11
4.7209502151
 21
1.7752915013
  0
LINE
  5
236
100
AcDbEntity
  8
0
100
AcDbLine
 62
7
  6
BYLAYER
 10
3.9249997083
 20
4.7284841679
 11
3.8763823109
 21
4.7058161655
  0
LINE
  5
237
100
AcDbEntity
  8
0
100
AcDbLine
 62
7
  6
BYLAYER
 10
4.0584775121
 20
2.9253072252
 11
7.758477511
 21
2.9252194008
  0
LWPOLYLINE
  5
238
100
AcDbEntity
  8
0
100
AcDbPolyline
 62
7
  6
BYLAYER
 90
14
 70
0
 10
8.0419082003
 20
3.530253196
 10
8.0489069284
 20
3.5306626224
 10
8.0558101267
 20
3.5318856404
 10
8.0625235459
 20
3.5339055539
 10
8.0689555264
 20
3.5366947861
 10
8.0750182519
 20
3.5402152574
 10
8.080628949
 20
3.5444189063
 10
8.0857110131
 20
3.5492483432
 10
8.090195055
 20
3.5546376326
 10
8.0940198508
 20
3.5605131953
 10
8.0971331766
 20
3.5667948111
 10
8.0994925236
 20
3.5733967181
 10
8.101065677
 20
3.5802287839
 10
8.101756927
 20
3.5859839923
  0
LWPOLYLINE
  5
239
100
AcDbEntity
  8
0
100
AcDbPolyline
 62
7
  6
BYLAYER
 90
14
 70
0
 10
7.2606951379
 20
3.530154518
 10
7.267693866
 20
3.5305639445
 10
7.2745970643
 20
3.5317869625
 10
7.2813104836
 20
3.5338068759
 10
7.287742464
 20
3.5365961082
 10
7.2938051896
 20
3.5401165795
 10
7.2994158866
 20
3.5443202284
 10
7.3044979507
 20
3.5491496653
 10
7.3089819926
 20
3.5545389547
 10
7.3128067884
 20
3.5604145174
 10
7.3159201142
 20
3.5666961332
 10
7.3182794612
 20
3.5732980402
 10
7.3198526146
 20
3.580130106
 10
7.3205438647
 20
3.5858853144
  0
LINE
  5
23A
100
AcDbEntity
  8
0
100
AcDbLine
 62
7
  6
BYLAYER
 10
7.0766421596
 20
3.470174632
 11
6.517604817
 21
3.470174632
  0
LINE
  5
23B
100
AcDbEntity
  8
0
100
AcDbLine
 62
7
  6
BYLAYER
 10
7.2606881821
 20
3.5301545182
 11
6.6530507763
 21
3.5301602107
  0
LINE
  5
23C
100
AcDbEntity
  8
0
100
AcDbLine
 62
7
  6
BYLAYER
 10
8.0419012445
 20
3.5302531961
 11
7.7584918722
 21
3.5302472239
  0
LINE
  5
23D
100
AcDbEntity
  8
0
100
AcDbLine
 62
7
  6
BYLAYER
 10
7.948308158
 20
3.5871041503
 11
7.7584932215
 21
3.587092887
  0
LINE
  5
23E
100
AcDbEntity
  8
0
100
AcDbLine
 62
7
  6
BYLAYER
 10
7.1670950957
 20
3.5870054724
 11
7.008397471
 21
3.5870054724
  0
LINE
  5
23F
100
AcDbEntity
  8
0
100
AcDbLine
 62
7
  6
BYLAYER
 10
6.6007432936
 20
3.5870200533
 11
6.4728419006
 21
3.5870191859
  0
LINE
  5
240
100
AcDbEntity
  8
0
100
AcDbLine
 62
7
  6
BYLAYER
 10
4.4739446743
 20
3.4702477294
 11
4.1616419475
 21
3.4702788954
  0
LINE
  5
241
100
AcDbEntity
  8
0
100
AcDbLine
 62
7
  6
BYLAYER
 10
3.805551622
 20
3.5302677359
 11
3.7750824962
 21
3.5302734283
  0
LINE
  5
242
100
AcDbEntity
  8
0
100
AcDbLine
 62
7
  6
BYLAYER
 10
4.4274226276
 20
3.5302472239
 11
3.805551622
 21
3.5302677359
  0
LINE
  5
243
100
AcDbEntity
  8
0
100
AcDbLine
 62
7
  6
BYLAYER
 10
6.6530507763
 20
3.5301602107
 11
6.5373613018
 21
3.5301717559
  0
LINE
  5
244
100
AcDbEntity
  8
0
100
AcDbLine
 62
7
  6
BYLAYER
 10
3.8418995781
 20
3.5871187312
 11
3.7532441393
 21
3.5871275785
  0
LINE
  5
245
100
AcDbEntity
  8
0
100
AcDbLine
 62
7
  6
BYLAYER
 10
4.4785043361
 20
3.5870901878
 11
4.2495537556
 21
3.5871041503
  0
LWPOLYLINE
  5
246
100
AcDbEntity
  8
0
100
AcDbPolyline
 62
7
  6
BYLAYER
 90
10
 70
0
 10
4.1049911759
 20
3.5302799997
 10
4.1087205994
 20
3.5301298954
 10
4.1141412845
 20
3.5293721271
 10
4.1192691558
 20
3.5280342512
 10
4.1239013624
 20
3.5262476162
 10
4.1279950713
 20
3.5241329536
 10
4.1315067218
 20
3.5218227492
 10
4.1342938415
 20
3.5195603395
 10
4.1363577058
 20
3.5175412902
 10
4.1376760348
 20
3.5160206818
  0
LINE
  5
247
100
AcDbEntity
  8
0
100
AcDbLine
 62
7
  6
BYLAYER
 10
7.7585019595
 20
3.9552193996
 11
7.3486622747
 21
3.9551797883
  0
LINE
  5
248
100
AcDbEntity
  8
0
100
AcDbLine
 62
7
  6
BYLAYER
 10
6.3857211933
 20
3.9551760396
 11
4.5650143317
 21
3.9552411624
  0
LINE
  5
249
100
AcDbEntity
  8
0
100
AcDbLine
 62
7
  6
BYLAYER
 10
7.1935806123
 20
3.9582848397
 11
7.0009089593
 21
3.9582848397
  0
LINE
  5
24A
100
AcDbEntity
  8
0
100
AcDbLine
 62
7
  6
BYLAYER
 10
7.9747936747
 20
3.9583835176
 11
7.7585019595
 21
3.9583835176
  0
LINE
  5
24B
100
AcDbEntity
  8
0
100
AcDbLine
 62
7
  6
BYLAYER
 10
4.4922198313
 20
3.9583835176
 11
4.2420652438
 21
3.9583835176
  0
LINE
  5
24C
100
AcDbEntity
  8
0
100
AcDbLine
 62
7
  6
BYLAYER
 10
3.8344110663
 20
3.9583980985
 11
3.7267762483
 21
3.9584088398
  0
LINE
  5
24D
100
AcDbEntity
  8
0
100
AcDbLine
 62
7
  6
BYLAYER
 10
6.5932547818
 20
3.9582994206
 11
6.4535074807
 21
3.9583133665
  0
LWPOLYLINE
  5
24E
100
AcDbEntity
  8
0
100
AcDbPolyline
 62
7
  6
BYLAYER
 90
14
 70
0
 10
3.6287532501
 20
4.0152765326
 10
3.6356468262
 20
4.0148790395
 10
3.6424808949
 20
4.013684687
 10
3.6491313792
 20
4.011709445
 10
3.6555093389
 20
4.0089797449
 10
3.6615295372
 20
4.0055320835
 10
3.6671115616
 20
4.0014125063
 10
3.6721807974
 20
3.9966760458
 10
3.6766694216
 20
3.9913860357
 10
3.6805173897
 20
3.9856132176
 10
3.6836732413
 20
3.9794347788
 10
3.6860947779
 20
3.9729333161
 10
3.6877496126
 20
3.9661957571
 10
3.6885995538
 20
3.959543735
  0
LINE
  5
24F
100
AcDbEntity
  8
0
100
AcDbLine
 62
7
  6
BYLAYER
 10
6.6464238415
 20
4.7283789638
 11
6.6338883484
 21
4.7225337486
  0
LINE
  5
250
100
AcDbEntity
  8
0
100
AcDbLine
 62
7
  6
BYLAYER
 10
8.3783679762
 20
4.2652046967
 11
8.3426808985
 21
4.265187766
  0
LINE
  5
251
100
AcDbEntity
  8
0
100
AcDbLine
 62
7
  6
BYLAYER
 10
9.0985032872
 20
4.0151875918
 11
8.8308853827
 21
4.0151396024
  0
LINE
  5
252
100
AcDbEntity
  8
0
100
AcDbLine
 62
7
  6
BYLAYER
 10
8.8308853827
 20
4.0151396024
 11
6.7261414263
 21
4.0151129189
  0
LINE
  5
253
100
AcDbEntity
  8
0
100
AcDbLine
 62
7
  6
BYLAYER
 10
7.0115027646
 20
4.0751072577
 11
9.1585048074
 21
4.0751861686
  0
LINE
  5
254
100
AcDbEntity
  8
0
100
AcDbLine
 62
7
  6
BYLAYER
 10
7.0115055483
 20
4.2051072576
 11
9.1585078931
 21
4.2051861684
  0
LINE
  5
255
100
AcDbEntity
  8
0
100
AcDbLine
 62
7
  6
BYLAYER
 10
9.0985092207
 20
4.2651875915
 11
8.3783679789
 21
4.2651189075
  0
LINE
  5
256
100
AcDbEntity
  8
0
100
AcDbLine
 62
7
  6
BYLAYER
 10
8.3426808985
 20
4.265187766
 11
7.9274867799
 21
4.2651104921
  0
LINE
  5
257
100
AcDbEntity
  8
0
100
AcDbLine
 62
7
  6
BYLAYER
 10
8.3783679789
 20
4.2651189076
 11
6.0764251914
 21
4.2651546576
  0
LINE
  5
258
100
AcDbEntity
  8
0
100
AcDbLine
 62
7
  6
BYLAYER
 10
7.928983112
 20
4.2652633114
 11
8.0878179694
 21
4.2652633114
  0
LINE
  5
259
100
AcDbEntity
  8
0
100
AcDbLine
 62
7
  6
BYLAYER
 10
6.9960888678
 20
4.015110101
 11
4.3058820874
 21
4.0151841581
  0
LINE
  5
25A
100
AcDbEntity
  8
0
100
AcDbLine
 62
7
  6
BYLAYER
 10
2.6585048093
 20
4.0753404547
 11
4.0269703438
 21
4.0751953774
  0
LINE
  5
25B
100
AcDbEntity
  8
0
100
AcDbLine
 62
7
  6
BYLAYER
 10
4.0269703438
 20
4.0751953774
 11
7.0115027646
 21
4.0751072577
  0
LINE
  5
25C
100
AcDbEntity
  8
0
100
AcDbLine
 62
7
  6
BYLAYER
 10
2.658507895
 20
4.2053404546
 11
4.2900814641
 21
4.2051819931
  0
LINE
  5
25D
100
AcDbEntity
  8
0
100
AcDbLine
 62
7
  6
BYLAYER
 10
4.2900814641
 20
4.2051819931
 11
7.0115055483
 21
4.2051072576
  0
LINE
  5
25E
100
AcDbEntity
  8
0
100
AcDbLine
 62
7
  6
BYLAYER
 10
3.4383890136
 20
4.2652361969
 11
6.0778531917
 21
4.2651239705
  0
LINE
  5
25F
100
AcDbEntity
  8
0
100
AcDbLine
 62
7
  6
BYLAYER
 10
8.0878179694
 20
4.2651622057
 11
7.9274867802
 21
4.2651702058
  0
LINE
  5
260
100
AcDbEntity
  8
0
100
AcDbLine
 62
7
  6
BYLAYER
 10
8.3796962989
 20
4.2652903472
 11
8.9778275781
 21
4.2652273339
  0
LINE
  5
261
100
AcDbEntity
  8
0
100
AcDbLine
 62
7
  6
BYLAYER
 10
4.3202459979
 20
4.0151834816
 11
2.740221748
 21
4.0153227258
  0
LINE
  5
262
100
AcDbEntity
  8
0
100
AcDbLine
 62
7
  6
BYLAYER
 10
8.9778275781
 20
4.2652273339
 11
9.0767909544
 21
4.2652038973
  0
LINE
  5
263
100
AcDbEntity
  8
0
100
AcDbLine
 62
7
  6
BYLAYER
 10
3.4431481477
 20
4.2652358454
 11
2.7211751666
 21
4.2653337055
  0
LINE
  5
264
100
AcDbEntity
  8
0
100
AcDbLine
 62
7
  6
BYLAYER
 10
3.4422170109
 20
4.2653160918
 11
3.4386056075
 21
4.2653206146
  0
LINE
  5
265
100
AcDbEntity
  8
0
100
AcDbLine
 62
7
  6
BYLAYER
 10
2.7185034811
 20
4.0153390317
 11
2.8391851243
 21
4.0152992895
  0
LINE
  5
266
100
AcDbEntity
  8
0
100
AcDbLine
 62
7
  6
BYLAYER
 10
2.7185094158
 20
4.2653390314
 11
3.4370817357
 21
4.2654076673
  0
LINE
  5
267
100
AcDbEntity
  8
0
100
AcDbLine
 62
7
  6
BYLAYER
 10
3.4386056075
 20
4.2653206146
 11
3.4384100622
 21
4.2653219502
  0
LINE
  5
268
100
AcDbEntity
  8
0
100
AcDbLine
 62
7
  6
BYLAYER
 10
4.3999997068
 20
4.7284628019
 11
4.4486150648
 21
4.7057904259
  0
LINE
  5
269
100
AcDbEntity
  8
0
100
AcDbLine
 62
7
  6
BYLAYER
 10
7.4170409204
 20
4.7284740777
 11
7.3684244864
 21
4.7058040099
  0
LINE
  5
26A
100
AcDbEntity
  8
0
100
AcDbLine
 62
7
  6
BYLAYER
 10
2.7211751666
 20
4.2653337055
 11
2.7222282082
 21
4.2653454849
  0
LINE
  5
26B
100
AcDbEntity
  8
0
100
AcDbLine
 62
7
  6
BYLAYER
 10
8.4083897306
 20
4.2952039826
 11
8.1142894784
 21
4.2951609775
  0
LINE
  5
26C
100
AcDbEntity
  8
0
100
AcDbLine
 62
7
  6
BYLAYER
 10
3.4132056858
 20
4.2952633114
 11
8.4036163382
 21
4.2952633114
  0
LINE
  5
26D
100
AcDbEntity
  8
0
100
AcDbLine
 62
7
  6
BYLAYER
 10
5.9033502833
 20
4.3702633114
 11
5.9134717408
 21
4.3702633114
  0
LINE
  5
26E
100
AcDbEntity
  8
0
100
AcDbLine
 62
7
  6
BYLAYER
 10
8.0398849709
 20
4.4201572206
 11
8.0345783517
 21
4.4201569804
  0
LINE
  5
26F
100
AcDbEntity
  8
0
100
AcDbLine
 62
7
  6
BYLAYER
 10
8.4084058898
 20
4.4202633114
 11
8.408411012
 21
4.4202633114
  0
LINE
  5
270
100
AcDbEntity
  8
0
100
AcDbLine
 62
7
  6
BYLAYER
 10
5.7850892832
 20
4.495160182
 11
4.7319565065
 21
4.4951975206
  0
LINE
  5
271
100
AcDbEntity
  8
0
100
AcDbLine
 62
7
  6
BYLAYER
 10
8.4083944779
 20
4.4952039824
 11
5.7850892832
 21
4.495160182
  0
LINE
  5
272
100
AcDbEntity
  8
0
100
AcDbLine
 62
7
  6
BYLAYER
 10
3.408411012
 20
4.4952633114
 11
5.7536519082
 21
4.4952633114
  0
LINE
  5
273
100
AcDbEntity
  8
0
100
AcDbLine
 62
7
  6
BYLAYER
 10
6.0631701158
 20
4.4952633114
 11
8.4083905907
 21
4.4952633114
  0
LINE
  5
274
100
AcDbEntity
  8
0
100
AcDbLine
 62
7
  6
BYLAYER
 10
6.0594388082
 20
4.5251549918
 11
5.7572587562
 21
4.525162185
  0
LINE
  5
275
100
AcDbEntity
  8
0
100
AcDbLine
 62
7
  6
BYLAYER
 10
6.0161130598
 20
4.5252633114
 11
8.378411012
 21
4.5252633114
  0
LINE
  5
276
100
AcDbEntity
  8
0
100
AcDbLine
 62
7
  6
BYLAYER
 10
7.9406389206
 20
4.5253475067
 11
7.5484110122
 21
4.5253351684
  0
LINE
  5
277
100
AcDbEntity
  8
0
100
AcDbLine
 62
7
  6
BYLAYER
 10
7.9520109461
 20
4.2951536307
 11
4.3188719778
 21
4.2952190647
  0
LINE
  5
278
100
AcDbEntity
  8
0
100
AcDbLine
 62
7
  6
BYLAYER
 10
4.4683901984
 20
4.4952106717
 11
3.4083944793
 21
4.495322664
  0
LINE
  5
279
100
AcDbEntity
  8
0
100
AcDbLine
 62
7
  6
BYLAYER
 10
3.4605233442
 20
4.5253074101
 11
5.8007088908
 21
4.5252633114
  0
LINE
  5
27A
100
AcDbEntity
  8
0
100
AcDbLine
 62
7
  6
BYLAYER
 10
3.6680167635
 20
4.5252723776
 11
4.3676405312
 21
4.5252178981
  0
LINE
  5
27B
100
AcDbEntity
  8
0
100
AcDbLine
 62
7
  6
BYLAYER
 10
4.0229687046
 20
4.5253471116
 11
3.8763787987
 21
4.5253612311
  0
LINE
  5
27C
100
AcDbEntity
  8
0
100
AcDbLine
 62
7
  6
BYLAYER
 10
3.7865889218
 20
4.5253673655
 11
3.4383953576
 21
4.5253219528
  0
LINE
  5
27D
100
AcDbEntity
  8
0
100
AcDbLine
 62
7
  6
BYLAYER
 10
4.3188719778
 20
4.2952190647
 11
3.4086012656
 21
4.2953212774
  0
LINE
  5
27E
100
AcDbEntity
  8
0
100
AcDbLine
 62
7
  6
BYLAYER
 10
3.4086012656
 20
4.2953212774
 11
3.408389732
 21
4.2953226642
  0
LINE
  5
27F
100
AcDbEntity
  8
0
100
AcDbLine
 62
7
  6
BYLAYER
 10
4.2440672988
 20
4.2651872336
 11
4.2442816076
 21
4.2652252828
  0
LINE
  5
280
100
AcDbEntity
  8
0
100
AcDbLine
 62
7
  6
BYLAYER
 10
3.6680167663
 20
4.5252961062
 11
3.6681363477
 21
4.5252976142
  0
LINE
  5
281
100
AcDbEntity
  8
0
100
AcDbLine
 62
7
  6
BYLAYER
 10
7.3404110118
 20
4.5552633114
 11
7.1341288568
 21
4.5552633114
  0
LINE
  5
282
100
AcDbEntity
  8
0
100
AcDbLine
 62
7
  6
BYLAYER
 10
6.6337147166
 20
4.5552633114
 11
4.476411012
 21
4.5552633114
  0
LINE
  5
283
100
AcDbEntity
  8
0
100
AcDbLine
 62
7
  6
BYLAYER
 10
7.1292113525
 20
4.7056999152
 11
7.1337159469
 21
4.7057000269
  0
LINE
  5
284
100
AcDbEntity
  8
0
100
AcDbLine
 62
7
  6
BYLAYER
 10
6.8790042824
 20
4.7056999365
 11
6.8879902789
 21
4.7056998295
  0
LINE
  5
285
100
AcDbEntity
  8
0
100
AcDbLine
 62
7
  6
BYLAYER
 10
7.7933176749
 20
4.7057893487
 11
7.8011064712
 21
4.7057895729
  0
LINE
  5
286
100
AcDbEntity
  8
0
100
AcDbLine
 62
7
  6
BYLAYER
 10
4.3012755004
 20
4.7057893912
 11
4.3090642967
 21
4.7057891781
  0
LINE
  5
287
100
AcDbEntity
  8
0
100
AcDbLine
 62
7
  6
BYLAYER
 10
7.5072435896
 20
4.705790329
 11
7.5150189958
 21
4.7057900647
  0
LINE
  5
288
100
AcDbEntity
  8
0
100
AcDbLine
 62
7
  6
BYLAYER
 10
3.9249999005
 20
4.7284841678
 11
4.3999994436
 21
4.7284627906
  0
LINE
  5
289
100
AcDbEntity
  8
0
100
AcDbLine
 62
7
  6
BYLAYER
 10
6.6464240557
 20
4.7283789638
 11
7.121423629
 21
4.7283733265
  0
LINE
  5
28A
100
AcDbEntity
  8
0
100
AcDbLine
 62
7
  6
BYLAYER
 10
7.4170411058
 20
4.7284740776
 11
7.8920406551
 21
4.7284728734
  0
LINE
  5
28B
100
AcDbEntity
  8
0
100
AcDbLine
 62
7
  6
BYLAYER
 10
4.476411012
 20
4.7602633114
 11
7.340411012
 21
4.7602633114
  0
LINE
  5
28C
100
AcDbEntity
  8
0
100
AcDbLine
 62
7
  6
BYLAYER
 10
7.310411012
 20
4.7902633114
 11
4.506411012
 21
4.7902633114
  0
LINE
  5
28D
100
AcDbEntity
  8
0
100
AcDbLine
 62
7
  6
BYLAYER
 10
4.0152014154
 20
4.7058024097
 11
4.0229768216
 21
4.7058019221
  0
LINE
  5
28E
100
AcDbEntity
  8
0
100
AcDbLine
 62
7
  6
BYLAYER
 10
6.6337165021
 20
4.7057059768
 11
6.6381979042
 21
4.7057057582
  0
LINE
  5
28F
100
AcDbEntity
  8
0
100
AcDbLine
 62
7
  6
BYLAYER
 10
6.5932547818
 20
3.9582994206
 11
6.6007432936
 21
3.5870200533
  0
LINE
  5
290
100
AcDbEntity
  8
0
100
AcDbLine
 62
7
  6
BYLAYER
 10
6.6337165021
 20
4.7057059768
 11
6.6337143604
 21
4.5252511662
  0
LINE
  5
291
100
AcDbEntity
  8
0
100
AcDbLine
 62
7
  6
BYLAYER
 10
6.6381957625
 20
4.5252509476
 11
6.6381979042
 21
4.7057057582
  0
LINE
  5
292
100
AcDbEntity
  8
0
100
AcDbLine
 62
7
  6
BYLAYER
 10
7.0009089593
 20
3.9582848397
 11
7.008397471
 21
3.5870054724
  0
LINE
  5
293
100
AcDbEntity
  8
0
100
AcDbLine
 62
7
  6
BYLAYER
 10
6.8790042824
 20
4.7056999365
 11
6.8790021407
 21
4.5252451258
  0
LINE
  5
294
100
AcDbEntity
  8
0
100
AcDbLine
 62
7
  6
BYLAYER
 10
6.8879881373
 20
4.5252450189
 11
6.8879902789
 21
4.7056998295
  0
LINE
  5
295
100
AcDbEntity
  8
0
100
AcDbLine
 62
7
  6
BYLAYER
 10
7.1214238409
 20
4.7283733264
 11
7.1339449569
 21
4.7225344533
  0
LINE
  5
296
100
AcDbEntity
  8
0
100
AcDbLine
 62
7
  6
BYLAYER
 10
7.0959746629
 20
2.8052351263
 11
7.0959502145
 21
1.7752351275
  0
LINE
  5
297
100
AcDbEntity
  8
0
100
AcDbLine
 62
7
  6
BYLAYER
 10
7.1292113525
 20
4.7056999152
 11
7.1292092108
 21
4.5252451046
  0
LINE
  5
298
100
AcDbEntity
  8
0
100
AcDbLine
 62
7
  6
BYLAYER
 10
7.1337138052
 20
4.5252452163
 11
7.1337159469
 21
4.7057000269
  0
LINE
  5
299
100
AcDbEntity
  8
0
100
AcDbLine
 62
7
  6
BYLAYER
 10
7.1341306422
 20
4.7057059344
 11
7.1341285006
 21
4.5252511237
  0
LINE
  5
29A
100
AcDbEntity
  8
0
100
AcDbLine
 62
7
  6
BYLAYER
 10
7.1935806123
 20
3.9582848397
 11
7.1670950957
 21
3.5870054724
  0
LINE
  5
29B
100
AcDbEntity
  8
0
100
AcDbLine
 62
7
  6
BYLAYER
 10
7.8920409172
 20
4.7284728941
 11
7.9406572382
 21
4.705802584
  0
LINE
  5
29C
100
AcDbEntity
  8
0
100
AcDbLine
 62
7
  6
BYLAYER
 10
7.340411012
 20
4.7602633114
 11
7.340411012
 21
4.5552633114
  0
LINE
  5
29D
100
AcDbEntity
  8
0
100
AcDbLine
 62
7
  6
BYLAYER
 10
7.3684529372
 20
4.5253489765
 11
7.3684533869
 21
4.7058037869
  0
LINE
  5
29E
100
AcDbEntity
  8
0
100
AcDbLine
 62
7
  6
BYLAYER
 10
7.5072435896
 20
4.705790329
 11
7.5072431399
 21
4.5253355185
  0
LINE
  5
29F
100
AcDbEntity
  8
0
100
AcDbLine
 62
7
  6
BYLAYER
 10
7.5150185462
 20
4.5253352543
 11
7.5150189958
 21
4.7057900647
  0
LINE
  5
2A0
100
AcDbEntity
  8
0
100
AcDbLine
 62
7
  6
BYLAYER
 10
7.3471848177
 20
3.9593020824
 11
7.3205407365
 21
3.5857999247
  0
LWPOLYLINE
  5
2A1
100
AcDbEntity
  8
0
100
AcDbPolyline
 62
7
  6
BYLAYER
 90
14
 70
0
 10
7.3471915067
 20
3.9594200789
 10
7.3480421898
 20
3.9660743592
 10
7.3496978507
 20
3.9728125647
 10
7.3521203802
 20
3.9793145592
 10
7.3552773768
 20
3.9854933846
 10
7.3591266154
 20
3.9912664058
 10
7.3636166161
 20
3.9965564202
 10
7.3686873339
 20
4.0012926865
 10
7.3742709618
 20
4.0054118689
 10
7.3802928192
 20
4.0088588725
 10
7.386672351
 20
4.0115875913
 10
7.3933242296
 20
4.0135615384
 10
7.4001594998
 20
4.0147543261
 10
7.4070404435
 20
4.0151500301
  0
LINE
  5
2A2
100
AcDbEntity
  8
0
100
AcDbLine
 62
7
  6
BYLAYER
 10
7.7585019595
 20
3.9552193996
 11
7.758477511
 21
2.9252194008
  0
LINE
  5
2A3
100
AcDbEntity
  8
0
100
AcDbLine
 62
7
  6
BYLAYER
 10
7.7933176749
 20
4.7057893487
 11
7.7933172252
 21
4.5253345383
  0
LINE
  5
2A4
100
AcDbEntity
  8
0
100
AcDbLine
 62
7
  6
BYLAYER
 10
7.8011060216
 20
4.5253347625
 11
7.8011064712
 21
4.7057895729
  0
LINE
  5
2A5
100
AcDbEntity
  8
0
100
AcDbLine
 62
7
  6
BYLAYER
 10
7.9406149476
 20
4.7058023149
 11
7.9406144979
 21
4.5253475045
  0
LINE
  5
2A6
100
AcDbEntity
  8
0
100
AcDbLine
 62
7
  6
BYLAYER
 10
7.9747936747
 20
3.9583835176
 11
7.948308158
 21
3.5871041503
  0
LINE
  5
2A7
100
AcDbEntity
  8
0
100
AcDbLine
 62
7
  6
BYLAYER
 10
8.408411012
 20
4.4952633114
 11
8.4083897306
 21
4.2952039826
  0
LINE
  5
2A8
100
AcDbEntity
  8
0
100
AcDbLine
 62
7
  6
BYLAYER
 10
8.4036728307
 20
4.295015308
 11
8.4036728133
 21
4.2950110274
  0
LINE
  5
2A9
100
AcDbEntity
  8
0
100
AcDbLine
 62
7
  6
BYLAYER
 10
8.4036711625
 20
4.2949480488
 11
8.4038006429
 21
4.3051554093
  0
LINE
  5
2AA
100
AcDbEntity
  8
0
100
AcDbLine
 62
7
  6
BYLAYER
 10
8.4038006429
 20
4.3051554093
 11
8.404013674
 21
4.317337622
  0
LINE
  5
2AB
100
AcDbEntity
  8
0
100
AcDbLine
 62
7
  6
BYLAYER
 10
8.404013674
 20
4.317337622
 11
8.4042739831
 21
4.3289157179
  0
LINE
  5
2AC
100
AcDbEntity
  8
0
100
AcDbLine
 62
7
  6
BYLAYER
 10
8.4042739831
 20
4.3289157179
 11
8.4045722661
 21
4.3398405409
  0
LINE
  5
2AD
100
AcDbEntity
  8
0
100
AcDbLine
 62
7
  6
BYLAYER
 10
8.4045722661
 20
4.3398405409
 11
8.4049659033
 21
4.3520359236
  0
LINE
  5
2AE
100
AcDbEntity
  8
0
100
AcDbLine
 62
7
  6
BYLAYER
 10
8.4049659033
 20
4.3520359236
 11
8.40538144
 21
4.363181464
  0
LINE
  5
2AF
100
AcDbEntity
  8
0
100
AcDbLine
 62
7
  6
BYLAYER
 10
8.40538144
 20
4.363181464
 11
8.4058044522
 21
4.3732457693
  0
LINE
  5
2B0
100
AcDbEntity
  8
0
100
AcDbLine
 62
7
  6
BYLAYER
 10
8.4058044522
 20
4.3732457693
 11
8.4062874634
 21
4.3836109457
  0
LINE
  5
2B1
100
AcDbEntity
  8
0
100
AcDbLine
 62
7
  6
BYLAYER
 10
8.4062874634
 20
4.3836109457
 11
8.4068009291
 21
4.3936412373
  0
LINE
  5
2B2
100
AcDbEntity
  8
0
100
AcDbLine
 62
7
  6
BYLAYER
 10
8.4068009291
 20
4.3936412373
 11
8.4073084156
 21
4.4026866598
  0
LINE
  5
2B3
100
AcDbEntity
  8
0
100
AcDbLine
 62
7
  6
BYLAYER
 10
8.4073084156
 20
4.4026866598
 11
8.4077550338
 21
4.4100587954
  0
LINE
  5
2B4
100
AcDbEntity
  8
0
100
AcDbLine
 62
7
  6
BYLAYER
 10
8.4077550338
 20
4.4100587954
 11
8.4080132809
 21
4.4140187752
  0
LINE
  5
2B5
100
AcDbEntity
  8
0
100
AcDbLine
 62
7
  6
BYLAYER
 10
8.1283978801
 20
3.9594007603
 11
8.1017537989
 21
3.5858986026
  0
LINE
  5
2B6
100
AcDbEntity
  8
0
100
AcDbLine
 62
7
  6
BYLAYER
 10
8.4080132809
 20
4.4140187752
 11
8.4081819103
 21
4.4164386648
  0
LWPOLYLINE
  5
2B7
100
AcDbEntity
  8
0
100
AcDbPolyline
 62
7
  6
BYLAYER
 90
3
 70
0
 10
8.4081819103
 20
4.4164386648
 10
8.4082287801
 20
4.4170661965
 10
8.4082358932
 20
4.4171563895
  0
LWPOLYLINE
  5
2B8
100
AcDbEntity
  8
0
100
AcDbPolyline
 62
7
  6
BYLAYER
 90
14
 70
0
 10
8.1284045691
 20
3.9595187568
 10
8.1292552522
 20
3.9661730371
 10
8.1309109131
 20
3.9729112427
 10
8.1333334426
 20
3.9794132372
 10
8.1364904392
 20
3.9855920626
 10
8.1403396778
 20
3.9913650838
 10
8.1448296786
 20
3.9966550981
 10
8.1499003963
 20
4.0013913644
 10
8.1554840242
 20
4.0055105469
 10
8.1615058816
 20
4.0089575505
 10
8.1678854134
 20
4.0116862693
 10
8.174537292
 20
4.0136602163
 10
8.1813725622
 20
4.0148530041
 10
8.185917167
 20
4.0151143517
  0
LINE
  5
2B9
100
AcDbEntity
  8
0
100
AcDbLine
 62
7
  6
BYLAYER
 10
8.4036163382
 20
4.2952633114
 11
8.4036728307
 21
4.295015308
  0
LINE
  5
2BA
100
AcDbEntity
  8
0
100
AcDbLine
 62
7
  6
BYLAYER
 10
9.1585078931
 20
4.2051861684
 11
9.1585048074
 21
4.0751861686
  0
ARC
  5
2BB
100
AcDbEntity
  8
0
100
AcDbCircle
 62
7
  6
BYLAYER
 10
4.1184775121
 20
2.925305801
 40
0.06
100
AcDbArc
 50
179.9986400087
 51
269.9986400087
  0
ARC
  5
2BC
100
AcDbEntity
  8
0
100
AcDbCircle
 62
7
  6
BYLAYER
 10
4.7809502151
 20
1.7752900771
 40
0.06
100
AcDbArc
 50
179.9986400087
 51
269.9986400087
  0
ARC
  5
2BD
100
AcDbEntity
  8
0
100
AcDbCircle
 62
7
  6
BYLAYER
 10
4.6609746636
 20
2.8052929242
 40
0.06
100
AcDbArc
 50
359.9986400087
 51
89.9986400087
  0
ARC
  5
2BE
100
AcDbEntity
  8
0
100
AcDbCircle
 62
7
  6
BYLAYER
 10
1.069329126
 20
4.2703673752
 40
2.3440087746
100
AcDbArc
 50
0.6085552714
 51
0.8861925241
  0
ARC
  5
2BF
100
AcDbEntity
  8
0
100
AcDbCircle
 62
7
  6
BYLAYER
 10
1.1387206004
 20
4.2723529469
 40
2.2745951608
100
AcDbArc
 50
0.8632172159
 51
3.318961056
  0
ARC
  5
2C0
100
AcDbEntity
  8
0
100
AcDbCircle
 62
7
  6
BYLAYER
 10
2.7185048092
 20
4.0753390305
 40
0.06
100
AcDbArc
 50
179.9986400087
 51
269.9986400087
  0
ARC
  5
2C1
100
AcDbEntity
  8
0
100
AcDbCircle
 62
7
  6
BYLAYER
 10
2.718507895
 20
4.2053390304
 40
0.06
100
AcDbArc
 50
89.9986400087
 51
179.9986400087
  0
ARC
  5
2C2
100
AcDbEntity
  8
0
100
AcDbCircle
 62
7
  6
BYLAYER
 10
3.4432199234
 20
4.2955000643
 40
0.0302402458
100
AcDbArc
 50
256.0106812487
 51
262.5718834514
  0
ARC
  5
2C3
100
AcDbEntity
  8
0
100
AcDbCircle
 62
7
  6
BYLAYER
 10
3.443178488
 20
4.2954333534
 40
0.0301706778
100
AcDbArc
 50
251.0744171931
 51
268.1681507555
  0
ARC
  5
2C4
100
AcDbEntity
  8
0
100
AcDbCircle
 62
7
  6
BYLAYER
 10
3.4432695665
 20
4.2952676558
 40
0.0300627849
100
AcDbArc
 50
180.0082794717
 51
217.416876324
  0
ARC
  5
2C5
100
AcDbEntity
  8
0
100
AcDbCircle
 62
7
  6
BYLAYER
 10
4.506411012
 20
4.7602633114
 40
0.03
100
AcDbArc
 50
90.0
 51
180.0
  0
ARC
  5
2C6
100
AcDbEntity
  8
0
100
AcDbCircle
 62
7
  6
BYLAYER
 10
4.446411012
 20
4.5552633114
 40
0.03
100
AcDbArc
 50
285.0
 51
360.0
  0
ARC
  5
2C7
100
AcDbEntity
  8
0
100
AcDbCircle
 62
7
  6
BYLAYER
 10
5.7555090174
 20
4.4952633114
 40
0.03
100
AcDbArc
 50
86.6932180982
 51
90.0
  0
ARC
  5
2C8
100
AcDbEntity
  8
0
100
AcDbCircle
 62
7
  6
BYLAYER
 10
3.4383944793
 20
4.4953219519
 40
0.03
100
AcDbArc
 50
89.9986400087
 51
179.9986400087
  0
ARC
  5
2C9
100
AcDbEntity
  8
0
100
AcDbCircle
 62
7
  6
BYLAYER
 10
3.438389732
 20
4.2953219521
 40
0.03
100
AcDbArc
 50
179.9986400087
 51
269.9986400087
  0
ARC
  5
2CA
100
AcDbEntity
  8
0
100
AcDbCircle
 62
7
  6
BYLAYER
 10
3.4431466225
 20
4.2952608475
 40
0.0299972302
100
AcDbArc
 50
180.4690130049
 51
251.0251233897
  0
ARC
  5
2CB
100
AcDbEntity
  8
0
100
AcDbCircle
 62
7
  6
BYLAYER
 10
3.4431702192
 20
4.2952029587
 40
0.0299437735
100
AcDbArc
 50
217.4340584785
 51
239.829895156
  0
ARC
  5
2CC
100
AcDbEntity
  8
0
100
AcDbCircle
 62
7
  6
BYLAYER
 10
3.4431203452
 20
4.2951573359
 40
0.0298833015
100
AcDbArc
 50
248.8849724011
 51
253.8427465935
  0
ARC
  5
2CD
100
AcDbEntity
  8
0
100
AcDbCircle
 62
7
  6
BYLAYER
 10
3.4431135809
 20
4.2950774835
 40
0.0298068342
100
AcDbArc
 50
239.8028030566
 51
246.7738638762
  0
ARC
  5
2CE
100
AcDbEntity
  8
0
100
AcDbCircle
 62
7
  6
BYLAYER
 10
3.4431642065
 20
4.2950574464
 40
0.0297941392
100
AcDbArc
 50
262.5680887493
 51
269.9691219844
  0
ARC
  5
2CF
100
AcDbEntity
  8
0
100
AcDbCircle
 62
7
  6
BYLAYER
 10
3.4431488969
 20
4.2948301447
 40
0.0295668333
100
AcDbArc
 50
268.188098076
 51
269.9985522022
  0
ARC
  5
2D0
100
AcDbEntity
  8
0
100
AcDbCircle
 62
7
  6
BYLAYER
 10
3.4429828291
 20
4.2947897744
 40
0.0294908797
100
AcDbArc
 50
246.7868687575
 51
248.8769527281
  0
ARC
  5
2D1
100
AcDbEntity
  8
0
100
AcDbCircle
 62
7
  6
BYLAYER
 10
5.8007071434
 20
4.5107940653
 40
0.0144692462
100
AcDbArc
 50
86.3295257817
 51
89.993050645
  0
ARC
  5
2D2
100
AcDbEntity
  8
0
100
AcDbCircle
 62
7
  6
BYLAYER
 10
7.6984775111
 20
2.925220825
 40
0.06
100
AcDbArc
 50
269.9986400087
 51
359.9986400087
  0
ARC
  5
2D3
100
AcDbEntity
  8
0
100
AcDbCircle
 62
7
  6
BYLAYER
 10
7.0359502145
 20
1.7752365517
 40
0.06
100
AcDbArc
 50
269.9986400087
 51
359.9986400087
  0
ARC
  5
2D4
100
AcDbEntity
  8
0
100
AcDbCircle
 62
7
  6
BYLAYER
 10
7.1559746629
 20
2.8052337021
 40
0.06
100
AcDbArc
 50
89.9986400087
 51
179.9986400087
  0
ARC
  5
2D5
100
AcDbEntity
  8
0
100
AcDbCircle
 62
7
  6
BYLAYER
 10
8.3736357155
 20
4.2952337937
 40
0.0299760314
100
AcDbArc
 50
359.5309919246
 51
0.0564111568
  0
ARC
  5
2D6
100
AcDbEntity
  8
0
100
AcDbCircle
 62
7
  6
BYLAYER
 10
10.7369331487
 20
4.2705051742
 40
2.3334481575
100
AcDbArc
 50
179.1131804078
 51
179.3920741772
  0
ARC
  5
2D7
100
AcDbEntity
  8
0
100
AcDbCircle
 62
7
  6
BYLAYER
 10
10.6431388972
 20
4.2735917249
 40
2.2396158682
100
AcDbArc
 50
176.6608941246
 51
179.1549955291
  0
ARC
  5
2D8
100
AcDbEntity
  8
0
100
AcDbCircle
 62
7
  6
BYLAYER
 10
8.1976550409
 20
4.270888874
 40
0.2468396234
100
AcDbArc
 50
171.6971692212
 51
174.358616329
  0
ARC
  5
2D9
100
AcDbEntity
  8
0
100
AcDbCircle
 62
7
  6
BYLAYER
 10
7.0332996694
 20
3.5815983324
 40
0.1316373566
100
AcDbArc
 50
333.7171661515
 51
336.9767336568
  0
ARC
  5
2DA
100
AcDbEntity
  8
0
100
AcDbCircle
 62
7
  6
BYLAYER
 10
9.0985048074
 20
4.0751875928
 40
0.06
100
AcDbArc
 50
269.9986400087
 51
359.9986400087
  0
ARC
  5
2DB
100
AcDbEntity
  8
0
100
AcDbCircle
 62
7
  6
BYLAYER
 10
9.0985078932
 20
4.2051875926
 40
0.06
100
AcDbArc
 50
359.9986400087
 51
89.9986400087
  0
ARC
  5
2DC
100
AcDbEntity
  8
0
100
AcDbCircle
 62
7
  6
BYLAYER
 10
7.8185019594
 20
3.9552179754
 40
0.06
100
AcDbArc
 50
91.9807988366
 51
179.9986400087
  0
ARC
  5
2DD
100
AcDbEntity
  8
0
100
AcDbCircle
 62
7
  6
BYLAYER
 10
7.9157764201
 20
4.2951596044
 40
0.0362345265
100
AcDbArc
 50
355.8475518144
 51
359.9905540697
  0
ARC
  5
2DE
100
AcDbEntity
  8
0
100
AcDbCircle
 62
7
  6
BYLAYER
 10
8.378411012
 20
4.4952633114
 40
0.03
100
AcDbArc
 50
0.0
 51
90.0
  0
ARC
  5
2DF
100
AcDbEntity
  8
0
100
AcDbCircle
 62
7
  6
BYLAYER
 10
7.310411012
 20
4.7602633114
 40
0.03
100
AcDbArc
 50
0.0
 51
90.0
  0
ARC
  5
2E0
100
AcDbEntity
  8
0
100
AcDbCircle
 62
7
  6
BYLAYER
 10
7.3704110117
 20
4.5552633114
 40
0.03
100
AcDbArc
 50
180.0
 51
266.1774554717
  0
ARC
  5
2E1
100
AcDbEntity
  8
0
100
AcDbCircle
 62
7
  6
BYLAYER
 10
6.0613130066
 20
4.4952633114
 40
0.03
100
AcDbArc
 50
90.0
 51
93.5420486461
  0
ARC
  5
2E2
100
AcDbEntity
  8
0
100
AcDbCircle
 62
7
  6
BYLAYER
 10
8.3783897306
 20
4.2952046947
 40
0.03
100
AcDbArc
 50
269.9986400087
 51
359.9986400087
  0
ARC
  5
2E3
100
AcDbEntity
  8
0
100
AcDbCircle
 62
7
  6
BYLAYER
 10
8.3736754019
 20
4.2952608472
 40
0.0299972299
100
AcDbArc
 50
288.9748759753
 51
359.5309919246
  0
ARC
  5
2E4
100
AcDbEntity
  8
0
100
AcDbCircle
 62
7
  6
BYLAYER
 10
8.3736357155
 20
4.2952337937
 40
0.0299760314
100
AcDbArc
 50
277.6316111634
 51
288.9748759753
  0
ARC
  5
2E5
100
AcDbEntity
  8
0
100
AcDbCircle
 62
7
  6
BYLAYER
 10
7.9274846572
 20
4.2943822964
 40
0.0292273496
100
AcDbArc
 50
270.007231626
 51
272.9434173405
  0
ARC
  5
2E6
100
AcDbEntity
  8
0
100
AcDbCircle
 62
7
  6
BYLAYER
 10
7.370313306
 20
4.5525695338
 40
0.0273062278
100
AcDbArc
 50
266.4269062241
 51
269.9640509622
  0
ARC
  5
2E7
100
AcDbEntity
  8
0
100
AcDbCircle
 62
7
  6
BYLAYER
 10
7.3702835939
 20
4.551624821
 40
0.0263615126
100
AcDbArc
 50
266.3652879246
 51
270.027340818
  0
ARC
  5
2E8
100
AcDbEntity
  8
0
100
AcDbCircle
 62
7
  6
BYLAYER
 10
8.0878169777
 20
4.2881653988
 40
0.0230031931
100
AcDbArc
 50
270.002470092
 51
273.3735756098
  0
ARC
  5
2E9
100
AcDbEntity
  8
0
100
AcDbCircle
 62
7
  6
BYLAYER
 10
7.92748536
 20
4.2849235943
 40
0.0197686475
100
AcDbArc
 50
270.0086549413
 51
274.0101038447
  0
ARC
  5
2EA
100
AcDbEntity
  8
0
100
AcDbCircle
 62
7
  6
BYLAYER
 10
6.0161150719
 20
4.5107858837
 40
0.0144774279
100
AcDbArc
 50
90.0077021595
 51
93.8508622977
  0
ARC
  5
2EB
100
AcDbEntity
  8
0
100
AcDbCircle
 62
7
  6
BYLAYER
 10
8.0878201727
 20
4.2733559992
 40
0.008193794
100
AcDbArc
 50
263.6233031858
 51
269.9791051978
  0
SPLINE
  5
2EC
100
AcDbEntity
  8
0
100
AcDbSpline
 62
7
  6
BYLAYER
 70
0
 71
3
 72
23
 73
19
 74
17
 42
0.0000001
 43
0.0000001
 44
0.0000000001
 12
0.1317534836
 22
0.0596172282
 32
0.0
 13
0.1317624717
 23
-0.0595973606
 33
0.0
 40
0.0
 40
0.0
 40
0.0
 40
0.0
 40
0.0647679953
 40
0.1287874045
 40
0.1920668296
 40
0.2546459997
 40
0.3166020829
 40
0.3780457095
 40
0.4391235433
 40
0.5000102456
 40
0.5608966694
 40
0.6219734937
 40
0.6834152466
 40
0.7453686982
 40
0.8079447341
 40
0.8712206522
 40
0.9352362598
 40
1.0
 40
1.0
 40
1.0
 40
1.0
 10
7.8011064712
 20
4.7057895729
 30
0.0
 10
7.8039509409
 20
4.7070766691
 30
0.0
 10
7.8096524052
 20
4.7095374319
 30
0.0
 10
7.8182947596
 20
4.7128659512
 30
0.0
 10
7.8269779711
 20
4.715771401
 30
0.0
 10
7.835699392
 20
4.7182163152
 30
0.0
 10
7.8444554885
 20
4.720162784
 30
0.0
 10
7.8532398503
 20
4.7215813361
 30
0.0
 10
7.8620449723
 20
4.7224422164
 30
0.0
 10
7.8708607182
 20
4.7227334715
 30
0.0
 10
7.8796764639
 20
4.7224437405
 30
0.0
 10
7.8884815913
 20
4.7215845044
 30
0.0
 10
7.8972659583
 20
4.7201676533
 30
0.0
 10
7.9060220568
 20
4.7182228857
 30
0.0
 10
7.9147434734
 20
4.7157796066
 30
0.0
 10
7.9234266804
 20
4.712875724
 30
0.0
 10
7.9320690042
 20
4.7095486732
 30
0.0
 10
7.9377704707
 20
4.7070888976
 30
0.0
 10
7.9406149476
 20
4.7058023149
 30
0.0
 11
7.8011064712
 21
4.7057895729
 31
0.0
 11
7.8097092007
 21
4.7094938491
 31
0.0
 11
7.818351684
 21
4.7128134712
 31
0.0
 11
7.8270324508
 21
4.7157094498
 31
0.0
 11
7.835748603
 21
4.7181441878
 31
0.0
 11
7.8444963005
 21
4.7200817794
 31
0.0
 11
7.8532693113
 21
4.7214918386
 31
0.0
 11
7.8620604001
 21
4.7223482658
 31
0.0
 11
7.8708607397
 21
4.7226367415
 31
0.0
 11
7.8796610893
 21
4.722349804
 31
0.0
 11
7.8884521897
 21
4.7214950037
 31
0.0
 11
7.8972251971
 21
4.720086632
 31
0.0
 11
7.905972879
 21
4.7181507305
 31
0.0
 11
7.9146890174
 21
4.715717628
 31
0.0
 11
7.9233697706
 21
4.7128232119
 31
0.0
 11
7.932012236
 21
4.7095050765
 31
0.0
 11
7.9406149476
 21
4.7058023149
 31
0.0
  0
SPLINE
  5
2ED
100
AcDbEntity
  8
0
100
AcDbSpline
 62
7
  6
BYLAYER
 70
0
 71
3
 72
15
 73
11
 74
9
 42
0.0000001
 43
0.0000001
 44
0.0000000001
 12
0.2739319197
 22
0.0621225696
 32
0.0
 13
0.2739316005
 23
-0.0621239769
 33
0.0
 40
0.0
 40
0.0
 40
0.0
 40
0.0
 40
0.1250000088
 40
0.2500001696
 40
0.3750001558
 40
0.4999999309
 40
0.624999711
 40
0.7499996389
 40
0.8749998493
 40
1.0
 40
1.0
 40
1.0
 40
1.0
 10
7.5150189958
 20
4.7057900647
 30
0.0
 10
7.5264328266
 20
4.7083785053
 30
0.0
 10
7.5493699309
 20
4.7130911035
 30
0.0
 10
7.5840818482
 20
4.7184756415
 30
0.0
 10
7.6190515208
 20
4.7218574823
 30
0.0
 10
7.654168371
 20
4.7230162682
 30
0.0
 10
7.6892851991
 20
4.7218573596
 30
0.0
 10
7.7242549089
 20
4.7184757503
 30
0.0
 10
7.7589666898
 20
4.7130902494
 30
0.0
 10
7.7819038444
 20
4.7083778509
 30
0.0
 10
7.7933176749
 20
4.7057893487
 30
0.0
 11
7.5150189958
 21
4.7057900647
 31
0.0
 11
7.5494209619
 21
4.7128103747
 31
0.0
 11
7.5841248273
 21
4.7181418609
 31
0.0
 11
7.6190760761
 21
4.7214869749
 31
0.0
 11
7.6541683678
 21
4.722629986
 31
0.0
 11
7.6892606588
 21
4.7214869109
 31
0.0
 11
7.7242118887
 21
4.7181417723
 31
0.0
 11
7.7589156833
 21
4.7128097329
 31
0.0
 11
7.7933176749
 21
4.7057893487
 31
0.0
  0
SPLINE
  5
2EE
100
AcDbEntity
  8
0
100
AcDbSpline
 62
7
  6
BYLAYER
 70
0
 71
3
 72
23
 73
19
 74
17
 42
0.0000001
 43
0.0000001
 44
0.0000000001
 12
0.1310156172
 22
0.0595654238
 32
0.0
 13
0.1310059924
 23
-0.0595865893
 33
0.0
 40
0.0
 40
0.0
 40
0.0
 40
0.0
 40
0.064793026
 40
0.1288282838
 40
0.1921144658
 40
0.2546917959
 40
0.316638392
 40
0.378066367
 40
0.4391243403
 40
0.4999893506
 40
0.560854833
 40
0.6219140196
 40
0.6833437519
 40
0.7452926508
 40
0.8078729644
 40
0.8711628076
 40
0.9352023512
 40
1.0
 40
1.0
 40
1.0
 40
1.0
 10
7.3684533869
 20
4.7058037869
 30
0.0
 10
7.3712830196
 20
4.7070902616
 30
0.0
 10
7.3769547253
 20
4.7095497958
 30
0.0
 10
7.3855525714
 20
4.7128767169
 30
0.0
 10
7.3941910935
 20
4.7157805737
 30
0.0
 10
7.402867662
 20
4.7182238968
 30
0.0
 10
7.4115787716
 20
4.7201687724
 30
0.0
 10
7.4203180413
 20
4.721585721
 30
0.0
 10
7.4290780025
 20
4.7224449797
 30
0.0
 10
7.4378485515
 20
4.7227345884
 30
0.0
 10
7.4466190973
 20
4.7224431856
 30
0.0
 10
7.4553790578
 20
4.7215822577
 30
0.0
 10
7.4641183227
 20
4.7201637063
 30
0.0
 10
7.4728294235
 20
4.7182172404
 30
0.0
 10
7.4815059759
 20
4.7157722757
 30
0.0
 10
7.4901444824
 20
4.7128667251
 30
0.0
 10
7.4987422879
 20
4.7095380279
 30
0.0
 10
7.5044139628
 20
4.7070773526
 30
0.0
 10
7.5072435896
 20
4.705790329
 30
0.0
 11
7.3684533869
 21
4.7058037869
 31
0.0
 11
7.3770118244
 21
4.7095064475
 31
0.0
 11
7.385609811
 21
4.7128244465
 31
0.0
 11
7.394245884
 21
4.7157187949
 31
0.0
 11
7.4029171603
 21
4.7181518959
 31
0.0
 11
7.4116198194
 21
4.7200878447
 31
0.0
 11
7.4203476615
 21
4.7214962563
 31
0.0
 11
7.4290934884
 21
4.7223510325
 31
0.0
 11
7.4378485186
 21
4.7226378556
 31
0.0
 11
7.4466035587
 21
4.7223492653
 31
0.0
 11
7.4553493972
 21
4.7214928141
 31
0.0
 11
7.4640772359
 21
4.7200827947
 31
0.0
 11
7.4727798794
 21
4.7181452504
 31
0.0
 11
7.4814511418
 21
4.715710511
 31
0.0
 11
7.4900872013
 21
4.7128144646
 31
0.0
 11
7.49868517
 21
4.7094947062
 31
0.0
 11
7.5072435896
 21
4.705790329
 31
0.0
  0
LINE
  5
2EF
100
AcDbEntity
  8
0
100
AcDbLine
 62
7
  6
BYLAYER
 10
7.1339240691
 20
4.7225431288
 11
7.1341306422
 21
4.7057059344
  0
LINE
  5
2F0
100
AcDbEntity
  8
0
100
AcDbLine
 62
7
  6
BYLAYER
 10
6.6339235069
 20
4.7225490771
 11
6.6337165021
 21
4.7057059768
  0
SPLINE
  5
2F1
100
AcDbEntity
  8
0
100
AcDbSpline
 62
7
  6
BYLAYER
 70
0
 71
3
 72
15
 73
11
 74
9
 42
0.0000001
 43
0.0000001
 44
0.0000000001
 12
0.2358273305
 22
0.0618027534
 32
0.0
 13
0.2358244397
 23
-0.0618137829
 33
0.0
 40
0.0
 40
0.0
 40
0.0
 40
0.0
 40
0.1254518521
 40
0.2505509096
 40
0.3753589031
 40
0.4999990551
 40
0.6246395234
 40
0.7494477567
 40
0.8745473237
 40
1.0
 40
1.0
 40
1.0
 40
1.0
 10
6.6381979042
 20
4.7057057582
 30
0.0
 10
6.6480595626
 20
4.7082901815
 30
0.0
 10
6.6678781551
 20
4.7130011687
 30
0.0
 10
6.6979213737
 20
4.7183830331
 30
0.0
 10
6.7281945456
 20
4.7217708845
 30
0.0
 10
6.7586013102
 20
4.7229301611
 30
0.0
 10
6.7890080253
 20
4.7217693001
 30
0.0
 10
6.8192811482
 20
4.7183802655
 30
0.0
 10
6.849324252
 20
4.7129969783
 30
0.0
 10
6.86914268
 20
4.708284838
 30
0.0
 10
6.8790042824
 20
4.7056999365
 30
0.0
 11
6.6381979042
 21
4.7057057582
 31
0.0
 11
6.6679650177
 21
4.7127273617
 31
0.0
 11
6.6979939793
 21
4.7180557634
 31
0.0
 11
6.7282365993
 21
4.7214010828
 31
0.0
 11
6.758601273
 21
4.7225436449
 31
0.0
 11
6.7889659667
 21
4.7213995663
 31
0.0
 11
6.8192085034
 21
4.7180529617
 31
0.0
 11
6.8492373371
 21
4.7127231282
 31
0.0
 11
6.8790042824
 21
4.7056999365
 31
0.0
  0
LINE
  5
2F2
100
AcDbEntity
  8
0
100
AcDbLine
 62
7
  6
BYLAYER
 10
7.1337159469
 20
4.7057000269
 11
7.1339240691
 21
4.7225431288
  0
SPLINE
  5
2F3
100
AcDbEntity
  8
0
100
AcDbSpline
 62
7
  6
BYLAYER
 70
0
 71
3
 72
15
 73
11
 74
9
 42
0.0000001
 43
0.0000001
 44
0.0000000001
 12
0.2362482793
 22
0.0618124186
 32
0.0
 13
0.2362482264
 23
-0.0618126208
 33
0.0
 40
0.0
 40
0.0
 40
0.0
 40
0.0
 40
0.1254464015
 40
0.250544634
 40
0.3753555658
 40
0.5000007192
 40
0.6246459592
 40
0.7494564622
 40
0.8745541492
 40
1.0
 40
1.0
 40
1.0
 40
1.0
 10
6.8879902789
 20
4.7056998295
 30
0.0
 10
6.8978691111
 20
4.7082845447
 30
0.0
 10
6.9177221985
 20
4.7129960841
 30
0.0
 10
6.9478170609
 20
4.7183786351
 30
0.0
 10
6.9781421613
 20
4.7217671789
 30
0.0
 10
7.0086010044
 20
4.722927181
 30
0.0
 10
7.0390598008
 20
4.7217670904
 30
0.0
 10
7.0693848594
 20
4.7183788517
 30
0.0
 10
7.0994796157
 20
4.712996353
 30
0.0
 10
7.1193325659
 20
4.7082846275
 30
0.0
 10
7.1292113525
 20
4.7056999152
 30
0.0
 11
6.8879902789
 21
4.7056998295
 31
0.0
 11
6.9178086546
 21
4.7127221633
 31
0.0
 11
6.9478893293
 21
4.7180513016
 31
0.0
 11
6.9781840304
 21
4.721397363
 31
0.0
 11
7.0086009954
 21
4.72254067
 31
0.0
 11
7.0390179805
 21
4.7213973363
 31
0.0
 11
7.0693125982
 21
4.7180514735
 31
0.0
 11
7.0993931451
 21
4.7127223767
 31
0.0
 11
7.1292113525
 21
4.7056999152
 31
0.0
  0
SPLINE
  5
2F4
100
AcDbEntity
  8
0
100
AcDbSpline
 62
7
  6
BYLAYER
 70
0
 71
3
 72
23
 73
19
 74
17
 42
0.0000001
 43
0.0000001
 44
0.0000000001
 12
0.131758043
 22
0.059607149
 32
0.0
 13
0.1317579112
 23
-0.0596074403
 33
0.0
 40
0.0
 40
0.0
 40
0.0
 40
0.0
 40
0.0647670316
 40
0.128785563
 40
0.1920642101
 40
0.254642716
 40
0.3165982634
 40
0.3780414959
 40
0.4391190883
 40
0.5000057092
 40
0.5608922143
 40
0.6219692798
 40
0.6834114269
 40
0.7453654143
 40
0.8079421143
 40
0.8712188106
 40
0.935235296
 40
1.0
 40
1.0
 40
1.0
 40
1.0
 10
4.3090642967
 20
4.7057891781
 30
0.0
 10
4.3119088225
 20
4.7070760375
 30
0.0
 10
4.3176103949
 20
4.7095363259
 30
0.0
 10
4.3262528918
 20
4.7128641241
 30
0.0
 10
4.3349362279
 20
4.7157688492
 30
0.0
 10
4.3436577539
 20
4.7182130354
 30
0.0
 10
4.3524139343
 20
4.7201587731
 30
0.0
 10
4.3611983574
 20
4.7215765916
 30
0.0
 10
4.3700035165
 20
4.7224367364
 30
0.0
 10
4.3788192751
 20
4.722727255
 30
0.0
 10
4.3876350081
 20
4.7224367874
 30
0.0
 10
4.3964400983
 20
4.7215768158
 30
0.0
 10
4.405224404
 20
4.7201592311
 30
0.0
 10
4.4139804186
 20
4.7182137324
 30
0.0
 10
4.42270173
 20
4.7157697252
 30
0.0
 10
4.4313848124
 20
4.712865118
 30
0.0
 10
4.4400269937
 20
4.7095373461
 30
0.0
 10
4.4457283521
 20
4.707077096
 30
0.0
 10
4.4485727728
 20
4.7057902766
 30
0.0
 11
4.3090642967
 21
4.7057891781
 31
0.0
 11
4.3176671836
 21
4.7094927363
 31
0.0
 11
4.3263098079
 21
4.7128116371
 31
0.0
 11
4.3349906976
 21
4.7157068912
 31
0.0
 11
4.3437069533
 21
4.7181409017
 31
0.0
 11
4.3524547331
 21
4.7200777632
 31
0.0
 11
4.3612278037
 21
4.7214870902
 31
0.0
 11
4.3700189288
 21
4.7223427837
 31
0.0
 11
4.3788192806
 21
4.722630525
 31
0.0
 11
4.387619618
 21
4.7223428529
 31
0.0
 11
4.396410682
 21
4.721487319
 31
0.0
 11
4.4051836296
 21
4.7200782151
 31
0.0
 11
4.4139312291
 21
4.7181415834
 31
0.0
 11
4.4226472641
 21
4.7157077535
 31
0.0
 11
4.4313278943
 21
4.7128126129
 31
0.0
 11
4.4399702186
 21
4.7094937562
 31
0.0
 11
4.4485727728
 21
4.7057902766
 31
0.0
  0
SPLINE
  5
2F5
100
AcDbEntity
  8
0
100
AcDbSpline
 62
7
  6
BYLAYER
 70
0
 71
3
 72
15
 73
11
 74
9
 42
0.0000001
 43
0.0000001
 44
0.0000000001
 12
0.2739345569
 22
0.0621109397
 32
0.0
 13
0.2739289628
 23
-0.0621356068
 33
0.0
 40
0.0
 40
0.0
 40
0.0
 40
0.0
 40
0.1250001476
 40
0.2500003556
 40
0.375000282
 40
0.5000000616
 40
0.6249998371
 40
0.7499998249
 40
0.8749999881
 40
1.0
 40
1.0
 40
1.0
 40
1.0
 10
4.0229768216
 20
4.7058019221
 30
0.0
 10
4.034390775
 20
4.7083898809
 30
0.0
 10
4.0573281533
 20
4.7131011876
 30
0.0
 10
4.0920401899
 20
4.7184850363
 30
0.0
 10
4.1270100602
 20
4.721864981
 30
0.0
 10
4.1621269433
 20
4.7230222181
 30
0.0
 10
4.1972437385
 20
4.7218617607
 30
0.0
 10
4.2322132504
 20
4.7184782553
 30
0.0
 10
4.2669249121
 20
4.7130920651
 30
0.0
 10
4.2898617925
 20
4.7083783751
 30
0.0
 10
4.3012755004
 20
4.7057893912
 30
0.0
 11
4.0229768216
 21
4.7058019221
 31
0.0
 11
4.0573791465
 21
4.7128206687
 31
0.0
 11
4.0920831941
 21
4.7181510562
 31
0.0
 11
4.1270345828
 21
4.7214945312
 31
0.0
 11
4.162126928
 21
4.7226359359
 31
0.0
 11
4.1972191655
 21
4.7214912544
 31
0.0
 11
4.2321702554
 21
4.7181444768
 31
0.0
 11
4.2668738676
 21
4.7128113387
 31
0.0
 11
4.3012755004
 21
4.7057893912
 31
0.0
  0
SPLINE
  5
2F6
100
AcDbEntity
  8
0
100
AcDbSpline
 62
7
  6
BYLAYER
 70
0
 71
3
 72
23
 73
19
 74
17
 42
0.0000001
 43
0.0000001
 44
0.0000000001
 12
0.1310161118
 22
0.059564336
 32
0.0
 13
0.1310054975
 23
-0.0595876773
 33
0.0
 40
0.0
 40
0.0
 40
0.0
 40
0.0
 40
0.0647940003
 40
0.1288301456
 40
0.1921171144
 40
0.2546951163
 40
0.3166422544
 40
0.3780706281
 40
0.4391288455
 40
0.4999939381
 40
0.5608593382
 40
0.6219182806
 40
0.6833476141
 40
0.7452959712
 40
0.807875613
 40
0.8711646694
 40
0.9352033255
 40
1.0
 40
1.0
 40
1.0
 40
1.0
 10
3.8764112127
 20
4.7058160391
 30
0.0
 10
3.8792408987
 20
4.7071025096
 30
0.0
 10
3.8849127053
 20
4.7095620354
 30
0.0
 10
3.8935106917
 20
4.7128889458
 30
0.0
 10
3.9021493359
 20
4.7157927917
 30
0.0
 10
3.910826007
 20
4.7182361042
 30
0.0
 10
3.9195371982
 20
4.7201809694
 30
0.0
 10
3.928276527
 20
4.7215979077
 30
0.0
 10
3.937036524
 20
4.7224571563
 30
0.0
 10
3.945807085
 20
4.7227467548
 30
0.0
 10
3.9545776189
 20
4.722455342
 30
0.0
 10
3.9633375435
 20
4.7215944039
 30
0.0
 10
3.9720767492
 20
4.7201758422
 30
0.0
 10
3.9807877685
 20
4.7182293659
 30
0.0
 10
3.9894642184
 20
4.7157843905
 30
0.0
 10
3.9981026027
 20
4.7128788293
 30
0.0
 10
4.0067002678
 20
4.7095501213
 30
0.0
 10
4.0123718419
 20
4.7070894375
 30
0.0
 10
4.0152014154
 20
4.7058024097
 30
0.0
 11
3.8764112127
 21
4.7058160391
 31
0.0
 11
3.8849698076
 21
4.7095186891
 31
0.0
 11
3.8935679352
 21
4.7128366775
 31
0.0
 11
3.9022041312
 21
4.7157310152
 31
0.0
 11
3.9108755109
 21
4.7181641055
 31
0.0
 11
3.9195782523
 21
4.7201000435
 31
0.0
 11
3.9283061543
 21
4.7215084444
 31
0.0
 11
3.9370520176
 21
4.7223632098
 31
0.0
 11
3.94580706
 21
4.722650022
 31
0.0
 11
3.9545620879
 21
4.7223614209
 31
0.0
 11
3.96330789
 21
4.7215049589
 31
0.0
 11
3.9720356688
 21
4.7200949288
 31
0.0
 11
3.9807382301
 21
4.7181573737
 31
0.0
 11
3.989409389
 21
4.7157226236
 31
0.0
 11
3.9980453255
 21
4.7128265666
 31
0.0
 11
4.0066431532
 21
4.7095067975
 31
0.0
 11
4.0152014154
 21
4.7058024097
 31
0.0
  0
SPLINE
  5
2F7
100
AcDbEntity
  8
0
100
AcDbSpline
 62
7
  6
BYLAYER
 70
0
 71
3
 72
8
 73
4
 74
2
 42
0.0000001
 43
0.0000001
 44
0.0000000001
 12
-0.0000824424
 22
0.0000052978
 32
0.0
 13
-0.0000824424
 23
0.0000052978
 33
0.0
 40
0.0
 40
0.0
 40
0.0
 40
0.0
 40
1.0
 40
1.0
 40
1.0
 40
1.0
 10
7.3686124018
 20
4.5253163345
 30
0.0
 10
7.368584921
 20
4.5253181004
 30
0.0
 10
7.3685574403
 20
4.5253198664
 30
0.0
 10
7.3685299595
 20
4.5253216323
 30
0.0
 11
7.3686124018
 21
4.5253163345
 31
0.0
 11
7.3685299595
 21
4.5253216323
 31
0.0
  0
SPLINE
  5
2F8
100
AcDbEntity
  8
0
100
AcDbSpline
 62
7
  6
BYLAYER
 70
0
 71
3
 72
8
 73
4
 74
2
 42
0.0000001
 43
0.0000001
 44
0.0000000001
 12
-0.0000684444
 22
0.0000046876
 32
0.0
 13
-0.0000684444
 23
0.0000046876
 33
0.0
 40
0.0
 40
0.0
 40
0.0
 40
0.0
 40
1.0
 40
1.0
 40
1.0
 40
1.0
 10
7.3685299595
 20
4.5253216323
 30
0.0
 10
7.3685071447
 20
4.5253231948
 30
0.0
 10
7.3684843299
 20
4.5253247574
 30
0.0
 10
7.368461515
 20
4.5253263199
 30
0.0
 11
7.3685299595
 21
4.5253216323
 31
0.0
 11
7.368461515
 21
4.5253263199
 31
0.0
  0
SPLINE
  5
2F9
100
AcDbEntity
  8
0
100
AcDbSpline
 62
7
  6
BYLAYER
 70
0
 71
3
 72
8
 73
4
 74
2
 42
0.0000001
 43
0.0000001
 44
0.0000000001
 12
-0.000050503
 22
0.0000037324
 32
0.0
 13
-0.000050503
 23
0.0000037324
 33
0.0
 40
0.0
 40
0.0
 40
0.0
 40
0.0
 40
1.0
 40
1.0
 40
1.0
 40
1.0
 10
7.368461515
 20
4.5253263199
 30
0.0
 10
7.3684446807
 20
4.525327564
 30
0.0
 10
7.3684278464
 20
4.5253288082
 30
0.0
 10
7.368411012
 20
4.5253300523
 30
0.0
 11
7.368461515
 21
4.5253263199
 31
0.0
 11
7.368411012
 21
4.5253300523
 31
0.0
  0
SPLINE
  5
2FA
100
AcDbEntity
  8
0
100
AcDbSpline
 62
7
  6
BYLAYER
 70
0
 71
3
 72
20
 73
16
 74
14
 42
0.0000001
 43
0.0000001
 44
0.0000000001
 12
0.0357600669
 22
-0.2087464455
 32
0.0
 13
0.211787297
 23
-0.0000412035
 33
0.0
 40
0.0
 40
0.0
 40
0.0
 40
0.0
 40
0.124908306
 40
0.1874686719
 40
0.2499920432
 40
0.3124980841
 40
0.3750035479
 40
0.4999082398
 40
0.5624217915
 40
0.6249368685
 40
0.6874485795
 40
0.7499635199
 40
0.8125001919
 40
0.8750732004
 40
1.0
 40
1.0
 40
1.0
 40
1.0
 10
5.7536519082
 20
4.4952633114
 30
0.0
 10
5.755140818
 20
4.4865719231
 30
0.0
 10
5.7585531441
 20
4.4736895618
 30
0.0
 10
5.7653021546
 20
4.457365557
 30
0.0
 10
5.7714409614
 20
4.4456102097
 30
0.0
 10
5.7785911681
 20
4.4344466048
 30
0.0
 10
5.7893922025
 20
4.4204742723
 30
0.0
 10
5.8019996268
 20
4.4079765214
 30
0.0
 10
5.8160672592
 20
4.3972986406
 30
0.0
 10
5.8272826028
 20
4.3902296315
 30
0.0
 10
5.8390682802
 20
4.3841613587
 30
0.0
 10
5.8513370834
 20
4.3791378873
 30
0.0
 10
5.8639995079
 20
4.3751902336
 30
0.0
 10
5.8812577398
 20
4.3714148194
 30
0.0
 10
5.8945309802
 20
4.3702650272
 30
0.0
 10
5.9033502833
 20
4.3702633114
 30
0.0
 11
5.7536519082
 21
4.4952633114
 31
0.0
 11
5.7604199548
 21
4.4696897452
 31
0.0
 11
5.7654823709
 21
4.4574455238
 31
0.0
 11
5.7716104498
 21
4.445707206
 31
0.0
 11
5.7787503087
 21
4.4345597095
 31
0.0
 11
5.7868460435
 21
4.4240859276
 31
0.0
 11
5.8056331278
 21
4.4054628582
 31
0.0
 11
5.8161770945
 21
4.3974559143
 31
0.0
 11
5.8273778502
 21
4.3903963103
 31
0.0
 11
5.8391483579
 21
4.3843356825
 31
0.0
 11
5.8514005583
 21
4.3793179383
 31
0.0
 11
5.8640450317
 21
4.3753767005
 31
0.0
 11
5.8769908191
 21
4.3725435816
 31
0.0
 11
5.9033502833
 21
4.3702633114
 31
0.0
  0
SPLINE
  5
2FB
100
AcDbEntity
  8
0
100
AcDbSpline
 62
7
  6
BYLAYER
 70
0
 71
3
 72
19
 73
15
 74
13
 42
0.0000001
 43
0.0000001
 44
0.0000000001
 12
0.2117621925
 22
0.0000391726
 32
0.0
 13
0.0357578674
 23
0.2087213517
 33
0.0
 40
0.0
 40
0.0
 40
0.0
 40
0.0
 40
0.124938563
 40
0.1875159672
 40
0.2500579046
 40
0.3125793081
 40
0.3750986225
 40
0.5000240693
 40
0.6249426823
 40
0.6874553286
 40
0.7499697375
 40
0.8125027092
 40
0.8750737006
 40
1.0
 40
1.0
 40
1.0
 40
1.0
 10
5.9134717408
 20
4.3702633114
 30
0.0
 10
5.9222908288
 20
4.3702649428
 30
0.0
 10
5.9355636565
 20
4.3714144853
 30
0.0
 10
5.9528213266
 20
4.3751900336
 30
0.0
 10
5.9654832058
 20
4.3791373321
 30
0.0
 10
5.9777525236
 20
4.3841608633
 30
0.0
 10
5.9934562489
 20
4.3922462581
 30
0.0
 10
6.0116838055
 20
4.4048630818
 30
0.0
 10
6.0274273286
 20
4.4204717539
 30
0.0
 10
6.0382299966
 20
4.4344451851
 30
0.0
 10
6.0453801761
 20
4.4456086107
 30
0.0
 10
6.0515194404
 20
4.4573643438
 30
0.0
 10
6.058268411
 20
4.4736889891
 30
0.0
 10
6.0616810832
 20
4.4865717161
 30
0.0
 10
6.0631701158
 20
4.4952633114
 30
0.0
 11
5.9134717408
 21
4.3702633114
 31
0.0
 11
5.9398305778
 21
4.3725433447
 31
0.0
 11
5.9527757224
 21
4.3753764069
 31
0.0
 11
5.9654197923
 21
4.3793174106
 31
0.0
 11
5.9776718773
 21
4.3843349065
 31
0.0
 11
5.9894424792
 21
4.3903954404
 31
0.0
 11
6.0111875303
 21
4.4054617152
 31
0.0
 11
6.0299747714
 21
4.4240843597
 31
0.0
 11
6.0380705786
 21
4.4345580247
 31
0.0
 11
6.0452107045
 21
4.4457055911
 31
0.0
 11
6.0513391104
 21
4.4574442609
 31
0.0
 11
6.0564017044
 21
4.469689144
 31
0.0
 11
6.0631701158
 21
4.4952633114
 31
0.0
  0
SPLINE
  5
2FC
100
AcDbEntity
  8
0
100
AcDbSpline
 62
7
  6
BYLAYER
 70
0
 71
3
 72
29
 73
25
 74
23
 42
0.0000001
 43
0.0000001
 44
0.0000000001
 12
-0.0053118271
 22
0.0314251924
 32
0.0
 13
-0.0316162185
 23
-0.0040215613
 33
0.0
 40
0.0
 40
0.0
 40
0.0
 40
0.0
 40
0.0009712582
 40
0.0021776391
 40
0.0038445287
 40
0.006056174
 40
0.0088442589
 40
0.0122214052
 40
0.0207572511
 40
0.0316671079
 40
0.0449326082
 40
0.060529624
 40
0.0784329126
 40
0.1209948852
 40
0.1720952201
 40
0.2311408701
 40
0.2975372058
 40
0.3706541258
 40
0.4497212251
 40
0.5339353451
 40
0.622497148
 40
0.7145440535
 40
0.8089387332
 40
1.0
 40
1.0
 40
1.0
 40
1.0
 10
5.7850894164
 20
4.5002633115
 30
0.0
 10
5.7850876966
 20
4.5002734854
 30
0.0
 10
5.7850752541
 20
4.5002951955
 30
0.0
 10
5.7850373257
 20
4.5003135222
 30
0.0
 10
5.784984246
 20
4.5003239855
 30
0.0
 10
5.7849133043
 20
4.5003276643
 30
0.0
 10
5.7848243267
 20
4.5003249915
 30
0.0
 10
5.7846686141
 20
4.500312185
 30
0.0
 10
5.7844282195
 20
4.5002798542
 30
0.0
 10
5.7840851694
 20
4.500224363
 30
0.0
 10
5.7836688693
 20
4.5001520341
 30
0.0
 10
5.7831795489
 20
4.500066032
 30
0.0
 10
5.782383138
 20
4.4999292796
 30
0.0
 10
5.7812127474
 20
4.4997421027
 30
0.0
 10
5.7796091942
 20
4.4994960905
 30
0.0
 10
5.7777546212
 20
4.4992165207
 30
0.0
 10
5.7756687903
 20
4.498901935
 30
0.0
 10
5.7733733056
 20
4.4985511947
 30
0.0
 10
5.770892403
 20
4.4981608429
 30
0.0
 10
5.7682521596
 20
4.4977278151
 30
0.0
 10
5.7654797716
 20
4.4972490352
 30
0.0
 10
5.7626059802
 20
4.4967226448
 30
0.0
 10
5.7586601942
 20
4.4960066225
 30
0.0
 10
5.7556654531
 20
4.495519433
 30
0.0
 10
5.7536519082
 20
4.4952633114
 30
0.0
 11
5.7850894164
 21
4.5002633115
 31
0.0
 11
5.785074799
 21
4.5002905977
 31
0.0
 11
5.7850415786
 21
4.5003099547
 31
0.0
 11
5.7849897873
 21
4.5003217857
 31
0.0
 11
5.7849194575
 21
4.5003264942
 31
0.0
 11
5.7848306213
 21
4.5003244834
 31
0.0
 11
5.784723311
 21
4.5003161566
 31
0.0
 11
5.7844533968
 21
4.5002821688
 31
0.0
 11
5.7841099729
 21
4.5002277576
 31
0.0
 11
5.783693297
 21
4.5001561496
 31
0.0
 11
5.7832036269
 21
4.5000705716
 31
0.0
 11
5.7826412205
 21
4.4999742505
 31
0.0
 11
5.7813021232
 21
4.4997577185
 31
0.0
 11
5.7796925268
 21
4.4995095403
 31
0.0
 11
5.7778318436
 21
4.4992281401
 31
0.0
 11
5.7757394857
 21
4.4989119418
 31
0.0
 11
5.7734360459
 21
4.4985591049
 31
0.0
 11
5.7709468365
 21
4.4981667312
 31
0.0
 11
5.7682983487
 21
4.4977316584
 31
0.0
 11
5.7655170738
 21
4.4972507242
 31
0.0
 11
5.7626304094
 21
4.496727929
 31
0.0
 11
5.7596693763
 21
4.4961959048
 31
0.0
 11
5.7536519082
 21
4.4952633114
 31
0.0
  0
SPLINE
  5
2FD
100
AcDbEntity
  8
0
100
AcDbSpline
 62
7
  6
BYLAYER
 70
0
 71
3
 72
14
 73
10
 74
8
 42
0.0000001
 43
0.0000001
 44
0.0000000001
 12
0.08603382
 22
-0.0092824339
 32
0.0
 13
0.0865331253
 23
0.0000000703
 33
0.0
 40
0.0
 40
0.0
 40
0.0
 40
0.0
 40
0.2573018925
 40
0.3850295699
 40
0.5117558304
 40
0.6371070642
 40
0.760635114
 40
0.8818039129
 40
1.0
 40
1.0
 40
1.0
 40
1.0
 10
5.9305694623
 20
4.5377633114
 30
0.0
 10
5.9379483506
 20
4.5369671822
 30
0.0
 10
5.9489342821
 20
4.5352652169
 30
0.0
 10
5.9634446694
 20
4.5325622314
 30
0.0
 10
5.9742026581
 20
4.5304911999
 30
0.0
 10
5.9848576013
 20
4.5285279868
 30
0.0
 10
5.9953991519
 20
4.5268400244
 30
0.0
 10
6.005798544
 20
4.5256175688
 30
0.0
 10
6.0127036645
 20
4.5252633087
 30
0.0
 10
6.0161129568
 20
4.5252633114
 30
0.0
 11
5.9305694623
 21
4.5377633114
 31
0.0
 11
5.9526006788
 21
4.5345443328
 31
0.0
 11
5.9634711978
 21
4.5325459726
 31
0.0
 11
5.9742443042
 21
4.5304981055
 31
0.0
 11
5.9849168712
 21
4.5285604626
 31
0.0
 11
5.9954769572
 21
4.5269036469
 31
0.0
 11
6.0058954334
 21
4.5257233979
 31
0.0
 11
6.0161129568
 21
4.5252633114
 31
0.0
  0
SPLINE
  5
2FE
100
AcDbEntity
  8
0
100
AcDbSpline
 62
7
  6
BYLAYER
 70
0
 71
3
 72
9
 73
5
 74
3
 42
0.0000001
 43
0.0000001
 44
0.0000000001
 12
0.0221887291
 22
-0.0000067696
 32
0.0
 13
0.0220597958
 23
-0.0023885464
 33
0.0
 40
0.0
 40
0.0
 40
0.0
 40
0.0
 40
0.5002337301
 40
1.0
 40
1.0
 40
1.0
 40
1.0
 10
5.9084243962
 20
4.5390168099
 30
0.0
 10
5.9121242465
 20
4.5390156811
 30
0.0
 10
5.9195220371
 20
4.5387942856
 30
0.0
 10
5.9268945484
 20
4.5381612164
 30
0.0
 10
5.9305694623
 20
4.5377633114
 30
0.0
 11
5.9084243962
 21
4.5390168099
 31
0.0
 11
5.9195191695
 21
4.5386911674
 31
0.0
 11
5.9305694623
 21
4.5377633114
 31
0.0
  0
SPLINE
  5
2FF
100
AcDbEntity
  8
0
100
AcDbSpline
 62
7
  6
BYLAYER
 70
0
 71
3
 72
9
 73
5
 74
3
 42
0.0000001
 43
0.0000001
 44
0.0000000001
 12
0.0220864496
 22
0.002391251
 32
0.0
 13
0.0222155197
 23
-0.0000042217
 33
0.0
 40
0.0
 40
0.0
 40
0.0
 40
0.0
 40
0.4997658956
 40
1.0
 40
1.0
 40
1.0
 40
1.0
 10
5.8862525617
 20
4.5377633114
 30
0.0
 10
5.8899319131
 20
4.5381616667
 30
0.0
 10
5.8973132648
 20
4.5387958687
 30
0.0
 10
5.904720076
 20
4.5390175139
 30
0.0
 10
5.9084243962
 20
4.5390168099
 30
0.0
 11
5.8862525617
 21
4.5377633114
 31
0.0
 11
5.8973161677
 21
4.5386925291
 31
0.0
 11
5.9084243962
 21
4.5390168099
 31
0.0
  0
LINE
  5
300
100
AcDbEntity
  8
0
100
AcDbLine
 62
7
  6
BYLAYER
 10
5.7555090174
 20
4.5252633114
 11
5.755414204
 21
4.5252234568
  0
SPLINE
  5
301
100
AcDbEntity
  8
0
100
AcDbSpline
 62
7
  6
BYLAYER
 70
0
 71
3
 72
22
 73
18
 74
16
 42
0.0000001
 43
0.0000001
 44
0.0000000001
 12
-0.0230614725
 22
-0.0193498036
 32
0.0
 13
0.0
 23
-0.0301039269
 33
0.0
 40
0.0
 40
0.0
 40
0.0
 40
0.0
 40
0.004605108
 40
0.0110897428
 40
0.0196035285
 40
0.0301981649
 40
0.0576745476
 40
0.093504847
 40
0.1374378376
 40
0.1890292749
 40
0.2478123534
 40
0.3133126072
 40
0.3849865992
 40
0.4621797167
 40
0.6304550542
 40
0.8122603101
 40
1.0
 40
1.0
 40
1.0
 40
1.0
 10
5.755414204
 20
4.5252234568
 30
0.0
 10
5.7553788038
 20
4.5251937541
 30
0.0
 10
5.7553118473
 20
4.5251020541
 30
0.0
 10
5.7552276465
 20
4.5249243281
 30
0.0
 10
5.7551427561
 20
4.5246813798
 30
0.0
 10
5.7550190475
 20
4.52423047
 30
0.0
 10
5.7548746129
 20
4.5235022821
 30
0.0
 10
5.7547156854
 20
4.5224378812
 30
0.0
 10
5.7545629508
 20
4.521128449
 30
0.0
 10
5.7544174179
 20
4.5195868144
 30
0.0
 10
5.7542810155
 20
4.5178271806
 30
0.0
 10
5.7541552305
 20
4.5158648011
 30
0.0
 10
5.7540413686
 20
4.5137166789
 30
0.0
 10
5.7539025844
 20
4.5105372594
 30
0.0
 10
5.7537691725
 20
4.5062516151
 30
0.0
 10
5.7536738079
 20
4.5008555007
 30
0.0
 10
5.7536519082
 20
4.4971472121
 30
0.0
 10
5.7536519082
 20
4.4952633114
 30
0.0
 11
5.755414204
 21
4.5252234568
 31
0.0
 11
5.7553265275
 21
4.5251160714
 31
0.0
 11
5.7552391048
 21
4.5249415281
 31
0.0
 11
5.7551521669
 21
4.524700425
 31
0.0
 11
5.7550659451
 21
4.5243933605
 31
0.0
 11
5.754896574
 21
4.5235837398
 31
0.0
 11
5.7547328314
 21
4.5225176081
 31
0.0
 11
5.7545762934
 21
4.5212043492
 31
0.0
 11
5.7544282415
 21
4.519658317
 31
0.0
 11
5.7542899414
 21
4.5178941281
 31
0.0
 11
5.7541626572
 21
4.5159264258
 31
0.0
 11
5.7540475282
 21
4.5137718309
 31
0.0
 11
5.753945486
 21
4.5114502564
 31
0.0
 11
5.7537843105
 21
4.5063870726
 31
0.0
 11
5.7536854194
 21
4.500914914
 31
0.0
 11
5.7536519082
 21
4.4952633114
 31
0.0
  0
SPLINE
  5
302
100
AcDbEntity
  8
0
100
AcDbSpline
 62
7
  6
BYLAYER
 70
0
 71
3
 72
9
 73
5
 74
3
 42
0.0000001
 43
0.0000001
 44
0.0000000001
 12
-0.0040058621
 22
-0.0124485893
 32
0.0
 13
-0.0030409243
 23
-0.012718769
 33
0.0
 40
0.0
 40
0.0
 40
0.0
 40
0.0
 40
0.4772745927
 40
1.0
 40
1.0
 40
1.0
 40
1.0
 10
5.9305694734
 20
4.5377638249
 30
0.0
 10
5.9299321747
 20
4.5357833598
 30
0.0
 10
5.9286995119
 20
4.5316006649
 30
0.0
 10
5.9276184079
 20
4.5273768977
 30
0.0
 10
5.9270885518
 20
4.5251607564
 30
0.0
 11
5.9305694734
 21
4.5377638249
 31
0.0
 11
5.9287900611
 21
4.5317814159
 31
0.0
 11
5.9270885518
 21
4.5251607564
 31
0.0
  0
SPLINE
  5
303
100
AcDbEntity
  8
0
100
AcDbSpline
 62
7
  6
BYLAYER
 70
0
 71
3
 72
9
 73
5
 74
3
 42
0.0000001
 43
0.0000001
 44
0.0000000001
 12
0.0040100744
 22
-0.012446042
 32
0.0
 13
0.0030387559
 23
-0.0127181218
 33
0.0
 40
0.0
 40
0.0
 40
0.0
 40
0.0
 40
0.4772747952
 40
1.0
 40
1.0
 40
1.0
 40
1.0
 10
5.8862525604
 20
4.5377633695
 30
0.0
 10
5.8868905296
 20
4.5357833088
 30
0.0
 10
5.8881238193
 20
4.5316011699
 30
0.0
 10
5.8892045569
 20
4.5273776893
 30
0.0
 10
5.889734035
 20
4.5251616617
 30
0.0
 11
5.8862525604
 21
4.5377633695
 31
0.0
 11
5.8880330157
 21
4.5317818325
 31
0.0
 11
5.889734035
 21
4.5251616617
 31
0.0
  0
SPLINE
  5
304
100
AcDbEntity
  8
0
100
AcDbSpline
 62
7
  6
BYLAYER
 70
0
 71
3
 72
29
 73
25
 74
23
 42
0.0000001
 43
0.0000001
 44
0.0000000001
 12
0.005311829
 22
0.0314252041
 32
0.0
 13
0.0316162281
 23
-0.0040215794
 33
0.0
 40
0.0
 40
0.0
 40
0.0
 40
0.0
 40
0.0009714384
 40
0.0021779225
 40
0.0038448646
 40
0.0060565376
 40
0.0088446385
 40
0.0122217949
 40
0.0207576544
 40
0.0316675224
 40
0.0449330327
 40
0.0605300559
 40
0.0784333471
 40
0.1209953358
 40
0.1720957086
 40
0.2311413972
 40
0.2975377498
 40
0.3706546706
 40
0.4497217601
 40
0.5339358362
 40
0.6224975376
 40
0.7145443122
 40
0.8089388798
 40
1.0
 40
1.0
 40
1.0
 40
1.0
 10
6.0317326077
 20
4.5002633115
 30
0.0
 10
6.0317343277
 20
4.5002734873
 30
0.0
 10
6.0317467697
 20
4.500295201
 30
0.0
 10
6.0317846993
 20
4.5003135339
 30
0.0
 10
6.0318377804
 20
4.500324001
 30
0.0
 10
6.031908723
 20
4.500327683
 30
0.0
 10
6.0319977013
 20
4.5003250124
 30
0.0
 10
6.0321534146
 20
4.5003122083
 30
0.0
 10
6.0323938099
 20
4.5002798785
 30
0.0
 10
6.0327368603
 20
4.5002243864
 30
0.0
 10
6.0331531605
 20
4.5001520552
 30
0.0
 10
6.0336424807
 20
4.5000660498
 30
0.0
 10
6.0344388912
 20
4.4999292919
 30
0.0
 10
6.0356092822
 20
4.4997421108
 30
0.0
 10
6.0372128369
 20
4.4994960974
 30
0.0
 10
6.0390674117
 20
4.4992165283
 30
0.0
 10
6.0411532442
 20
4.4989019442
 30
0.0
 10
6.0434487301
 20
4.4985512054
 30
0.0
 10
6.0459296335
 20
4.4981608556
 30
0.0
 10
6.0485698765
 20
4.49772783
 30
0.0
 10
6.0513422632
 20
4.4972490539
 30
0.0
 10
6.054216052
 20
4.4967226628
 30
0.0
 10
6.0581618336
 20
4.4960066314
 30
0.0
 10
6.0611565719
 20
4.4955194339
 30
0.0
 10
6.0631701158
 20
4.4952633114
 30
0.0
 11
6.0317326077
 21
4.5002633115
 31
0.0
 11
6.0317472261
 21
4.5002906037
 31
0.0
 11
6.0317804474
 21
4.5003099657
 31
0.0
 11
6.0318322395
 21
4.5003218008
 31
0.0
 11
6.03190257
 21
4.5003265124
 31
0.0
 11
6.0319914068
 21
4.500324504
 31
0.0
 11
6.0320987176
 21
4.500316179
 31
0.0
 11
6.0323686325
 21
4.5002821927
 31
0.0
 11
6.0327120568
 21
4.5002277809
 31
0.0
 11
6.0331287329
 21
4.5001561707
 31
0.0
 11
6.0336184028
 21
4.5000705896
 31
0.0
 11
6.0341808089
 21
4.4999742648
 31
0.0
 11
6.0355199064
 21
4.4997577274
 31
0.0
 11
6.0371295043
 21
4.4995095475
 31
0.0
 11
6.0389901895
 21
4.4992281477
 31
0.0
 11
6.041082549
 21
4.4989119508
 31
0.0
 11
6.04338599
 21
4.4985591155
 31
0.0
 11
6.0458752003
 21
4.4981667438
 31
0.0
 11
6.048523688
 21
4.4977316733
 31
0.0
 11
6.0513049612
 21
4.497250742
 31
0.0
 11
6.0541916224
 21
4.4967279461
 31
0.0
 11
6.057152652
 21
4.4961959161
 31
0.0
 11
6.0631701158
 21
4.4952633114
 31
0.0
  0
LINE
  5
305
100
AcDbEntity
  8
0
100
AcDbLine
 62
7
  6
BYLAYER
 10
6.0613130066
 20
4.5252633114
 11
6.0614174481
 21
4.5252149702
  0
SPLINE
  5
306
100
AcDbEntity
  8
0
100
AcDbSpline
 62
7
  6
BYLAYER
 70
0
 71
3
 72
22
 73
18
 74
16
 42
0.0000001
 43
0.0000001
 44
0.0000000001
 12
0.022102919
 22
-0.0204191498
 32
0.0
 13
0.0
 23
-0.0300912065
 33
0.0
 40
0.0
 40
0.0
 40
0.0
 40
0.0
 40
0.00478024
 40
0.0114526103
 40
0.020149206
 40
0.0309159651
 40
0.0586970509
 40
0.0947734209
 40
0.1388842175
 40
0.1905869249
 40
0.2494189956
 40
0.3149102055
 40
0.3865186159
 40
0.4635947922
 40
0.6315082615
 40
0.8128195082
 40
1.0
 40
1.0
 40
1.0
 40
1.0
 10
6.0614174481
 20
4.5252149702
 30
0.0
 10
6.0614526672
 20
4.5251824341
 30
0.0
 10
6.061519002
 20
4.5250862425
 30
0.0
 10
6.0616030403
 20
4.5249024535
 30
0.0
 10
6.0616876253
 20
4.5246538158
 30
0.0
 10
6.0618106581
 20
4.524196068
 30
0.0
 10
6.0619544491
 20
4.5234607327
 30
0.0
 10
6.0621126333
 20
4.5223892864
 30
0.0
 10
6.0622646213
 20
4.5210749352
 30
0.0
 10
6.0624093702
 20
4.5195304779
 30
0.0
 10
6.062544999
 20
4.5177700131
 30
0.0
 10
6.0626700299
 20
4.5158086762
 30
0.0
 10
6.0627831943
 20
4.5136633522
 30
0.0
 10
6.0629210762
 20
4.5104907055
 30
0.0
 10
6.0630536156
 20
4.5062166116
 30
0.0
 10
6.0631483594
 20
4.5008369643
 30
0.0
 10
6.0631701158
 20
4.497140807
 30
0.0
 10
6.0631701158
 20
4.4952633114
 30
0.0
 11
6.0614174481
 21
4.5252149702
 31
0.0
 11
6.0615048077
 21
4.5251006935
 31
0.0
 11
6.0615918909
 21
4.524919782
 31
0.0
 11
6.0616784689
 21
4.5246728276
 31
0.0
 11
6.061764313
 21
4.5243604226
 31
0.0
 11
6.0619328842
 21
4.5235416286
 31
0.0
 11
6.0620957865
 21
4.5224683392
 31
0.0
 11
6.0622514782
 21
4.5211501547
 31
0.0
 11
6.0623986946
 21
4.5196013387
 31
0.0
 11
6.0625361829
 21
4.5178363576
 31
0.0
 11
6.0626626924
 21
4.5158697129
 31
0.0
 11
6.0627771027
 21
4.513717969
 31
0.0
 11
6.062878494
 21
4.5114008711
 31
0.0
 11
6.0630386091
 21
4.5063506898
 31
0.0
 11
6.0631368327
 21
4.5008956999
 31
0.0
 11
6.0631701158
 21
4.4952633114
 31
0.0
  0
LINE
  5
307
100
AcDbEntity
  8
0
100
AcDbLine
 62
7
  6
BYLAYER
 10
8.4073233413
 20
4.4040391755
 11
8.4083978093
 21
4.4202332265
  0
LINE
  5
308
100
AcDbEntity
  8
0
100
AcDbLine
 62
7
  6
BYLAYER
 10
3.4084161342
 20
4.4202633114
 11
3.4094986827
 21
4.4040391752
  0
SPLINE
  5
309
100
AcDbEntity
  8
0
100
AcDbSpline
 62
7
  6
BYLAYER
 70
0
 71
3
 72
14
 73
10
 74
8
 42
0.0000001
 43
0.0000001
 44
0.0000000001
 12
0.0865342708
 22
-0.0000154658
 32
0.0
 13
0.0860340586
 23
0.0092909106
 33
0.0
 40
0.0
 40
0.0
 40
0.0
 40
0.0
 40
0.1181863908
 40
0.1785033373
 40
0.2394593097
 40
0.3629877444
 40
0.4883209427
 40
0.7427518543
 40
1.0
 40
1.0
 40
1.0
 40
1.0
 10
5.8007088983
 20
4.5252633114
 30
0.0
 10
5.8041179561
 20
4.5252627021
 30
0.0
 10
5.8092682054
 20
4.5255238397
 30
0.0
 10
5.8161402376
 20
4.5262197824
 30
0.0
 10
5.8231452861
 20
4.5271157143
 30
0.0
 10
5.8319714789
 20
4.5285271767
 30
0.0
 10
5.8462483648
 20
4.5311618179
 30
0.0
 10
5.8642761153
 20
4.5347054289
 30
0.0
 10
5.8788751944
 20
4.5369666216
 30
0.0
 10
5.8862525617
 20
4.5377633114
 30
0.0
 11
5.8007088983
 21
4.5252633114
 31
0.0
 11
5.8109258053
 21
4.5257214442
 31
0.0
 11
5.8161194122
 21
4.5262405306
 31
0.0
 11
5.8213522048
 21
4.5269047546
 31
0.0
 11
5.8319126217
 21
4.5285605899
 31
0.0
 11
5.842583503
 21
4.5304995852
 31
0.0
 11
5.8642256409
 21
4.5345450618
 31
0.0
 11
5.8862525617
 21
4.5377633114
 31
0.0
  0
LINE
  5
30A
100
AcDbEntity
  8
0
100
AcDbLine
 62
7
  6
BYLAYER
 10
5.913411012
 20
4.4002633114
 11
5.9134717406
 21
4.3702633114
  0
LINE
  5
30B
100
AcDbEntity
  8
0
100
AcDbLine
 62
7
  6
BYLAYER
 10
5.903411012
 20
4.4002633114
 11
5.9033502833
 21
4.3702633114
  0
SPLINE
  5
30C
100
AcDbEntity
  8
0
100
AcDbSpline
 62
7
  6
BYLAYER
 70
0
 71
3
 72
16
 73
12
 74
10
 42
0.0000001
 43
0.0000001
 44
0.0000000001
 12
0.0429065427
 22
0.0025259554
 32
0.0
 13
0.0000010202
 23
0.0429808313
 33
0.0
 40
0.0
 40
0.0
 40
0.0
 40
0.0
 40
0.1170934244
 40
0.2358679818
 40
0.3568132582
 40
0.4804866475
 40
0.6071025634
 40
0.7364579459
 40
0.8020715824
 40
0.8680441798
 40
1.0
 40
1.0
 40
1.0
 40
1.0
 10
8.0891706233
 20
4.2652020686
 30
0.0
 10
8.0908453146
 20
4.2653006595
 30
0.0
 10
8.0942073022
 20
4.2658667348
 30
0.0
 10
8.0989932248
 20
4.2677632014
 30
0.0
 10
8.1033630592
 20
4.2706589355
 30
0.0
 10
8.1071665745
 20
4.2744228936
 30
0.0
 10
8.1102665368
 20
4.2789284039
 30
0.0
 10
8.1121765542
 20
4.2831493191
 30
0.0
 10
8.1132610595
 20
4.2867313737
 30
0.0
 10
8.114047239
 20
4.290427534
 30
0.0
 10
8.1142894336
 20
4.2932704539
 30
0.0
 10
8.1142894784
 20
4.2951609775
 30
0.0
 11
8.0891706233
 21
4.2652020686
 31
0.0
 11
8.0941344692
 21
4.26603215
 31
0.0
 11
8.0988824332
 21
4.2679078262
 31
0.0
 11
8.1032238425
 21
4.2707669842
 31
0.0
 11
8.107009309
 21
4.274498698
 31
0.0
 11
8.1101047498
 21
4.2789746598
 31
0.0
 11
8.1124020961
 21
4.2840376231
 31
0.0
 11
8.1132211904
 21
4.2867361801
 31
0.0
 11
8.1138117122
 21
4.2895095657
 31
0.0
 11
8.1142894784
 21
4.2951609775
 31
0.0
  0
SPLINE
  5
30D
100
AcDbEntity
  8
0
100
AcDbSpline
 62
7
  6
BYLAYER
 70
0
 71
3
 72
22
 73
18
 74
16
 42
0.0000001
 43
0.0000001
 44
0.0000000001
 12
-0.0293378472
 22
-0.1939033671
 32
0.0
 13
-0.1961102322
 23
-0.0000434051
 33
0.0
 40
0.0
 40
0.0
 40
0.0
 40
0.0
 40
0.0671298806
 40
0.134027624
 40
0.2004878272
 40
0.2663704371
 40
0.3316110238
 40
0.3961526356
 40
0.4599441994
 40
0.5229382598
 40
0.64632908
 40
0.7068667291
 40
0.7666461689
 40
0.8257557981
 40
0.884299775
 40
0.9423609506
 40
1.0
 40
1.0
 40
1.0
 40
1.0
 10
4.7319565065
 20
4.4951975206
 30
0.0
 10
4.7313000244
 20
4.4908586173
 30
0.0
 10
4.7296429887
 20
4.4822442382
 30
0.0
 10
4.7261527246
 20
4.4695979912
 30
0.0
 10
4.7216880503
 20
4.4573473938
 30
0.0
 10
4.7162868132
 20
4.4455992426
 30
0.0
 10
4.7100060661
 20
4.4344401458
 30
0.0
 10
4.7028959066
 20
4.4239551551
 30
0.0
 10
4.6950194757
 20
4.4142188853
 30
0.0
 10
4.6836738048
 20
4.4024202701
 30
0.0
 10
4.6709804769
 20
4.392282557
 30
0.0
 10
4.6572701324
 20
4.3841338482
 30
0.0
 10
4.6466551755
 20
4.3791013334
 30
0.0
 10
4.6357327434
 20
4.3751459898
 30
0.0
 10
4.6245837849
 20
4.3723042374
 30
0.0
 10
4.6133050566
 20
4.3705912818
 30
0.0
 10
4.6057365209
 20
4.3702046015
 30
0.0
 10
4.6019686518
 20
4.3702037676
 30
0.0
 11
4.7319565065
 21
4.4951975206
 31
0.0
 11
4.7294704745
 21
4.4822695239
 31
0.0
 11
4.7259773277
 21
4.4696237812
 31
0.0
 11
4.7215106336
 21
4.4573795398
 31
0.0
 11
4.7161115939
 21
4.445641425
 31
0.0
 11
4.7098317353
 21
4.4344942868
 31
0.0
 11
4.7027243563
 21
4.4240209078
 31
0.0
 11
4.6948523741
 21
4.4142979212
 31
0.0
 11
4.6862839146
 21
4.40539863
 31
0.0
 11
4.667347868
 21
4.3903328022
 31
0.0
 11
4.6571390498
 21
4.3842726318
 31
0.0
 11
4.6465434805
 21
4.3792555525
 31
0.0
 11
4.6356417623
 21
4.3753151107
 31
0.0
 11
4.6245155208
 21
4.3724828337
 31
0.0
 11
4.6132577562
 21
4.3707761897
 31
0.0
 11
4.6019686518
 21
4.3702037676
 31
0.0
  0
SPLINE
  5
30E
100
AcDbEntity
  8
0
100
AcDbSpline
 62
7
  6
BYLAYER
 70
0
 71
3
 72
22
 73
18
 74
16
 42
0.0000001
 43
0.0000001
 44
0.0000000001
 12
-0.0126762362
 22
0.1569318903
 32
0.0
 13
-0.1574430135
 23
0.0000514424
 33
0.0
 40
0.0
 40
0.0
 40
0.0
 40
0.0
 40
0.0825425641
 40
0.1637353367
 40
0.3197653308
 40
0.3938224304
 40
0.4648021741
 40
0.5324625067
 40
0.5966219076
 40
0.6571830489
 40
0.7141849286
 40
0.7677713213
 40
0.8182335122
 40
0.8660304085
 40
0.911768916
 40
0.9561664352
 40
1.0
 40
1.0
 40
1.0
 40
1.0
 10
8.1142894784
 20
4.2951609775
 30
0.0
 10
8.1139407021
 20
4.2994788311
 30
0.0
 10
8.1130650207
 20
4.3080307355
 30
0.0
 10
8.1106178293
 20
4.3246360754
 30
0.0
 10
8.107123199
 20
4.3406279286
 30
0.0
 10
8.1025070668
 20
4.3557461515
 30
0.0
 10
8.0986262966
 20
4.3662200821
 30
0.0
 10
8.0942924745
 20
4.3759496496
 30
0.0
 10
8.0895315805
 20
4.3848640702
 30
0.0
 10
8.0843666013
 20
4.3928952249
 30
0.0
 10
8.0788336665
 20
4.3999885939
 30
0.0
 10
8.0729629476
 20
4.4060929574
 30
0.0
 10
8.066786337
 20
4.4111608697
 30
0.0
 10
8.060342437
 20
4.4151557782
 30
0.0
 10
8.0536683687
 20
4.4180330999
 30
0.0
 10
8.0468247616
 20
4.4197686114
 30
0.0
 10
8.0421854004
 20
4.420156469
 30
0.0
 10
8.0398849709
 20
4.4201572206
 30
0.0
 11
8.1142894784
 21
4.2951609775
 31
0.0
 11
8.11296189
 21
4.3080887402
 31
0.0
 11
8.1110912579
 21
4.3207343657
 31
0.0
 11
8.1057684721
 21
4.344716612
 31
0.0
 11
8.1023497326
 21
4.3558639229
 31
0.0
 11
8.0984521903
 21
4.3663374953
 31
0.0
 11
8.0941003725
 21
4.3760606931
 31
0.0
 11
8.0893212353
 21
4.3849600829
 31
0.0
 11
8.08414359
 21
4.392966759
 31
0.0
 11
8.0786020656
 21
4.4000260806
 31
0.0
 11
8.0727324817
 21
4.406086414
 31
0.0
 11
8.0665723644
 21
4.4111038542
 31
0.0
 11
8.0601615102
 21
4.415044781
 31
0.0
 11
8.0535408883
 21
4.4178775843
 31
0.0
 11
8.0467624722
 21
4.4195847127
 31
0.0
 11
8.0398849709
 21
4.4201572206
 31
0.0
  0
SPLINE
  5
30F
100
AcDbEntity
  8
0
100
AcDbSpline
 62
7
  6
BYLAYER
 70
0
 71
3
 72
21
 73
17
 74
15
 42
0.0000001
 43
0.0000001
 44
0.0000000001
 12
-0.1501502832
 22
-0.0000595481
 32
0.0
 13
-0.0216880865
 23
-0.1485756979
 33
0.0
 40
0.0
 40
0.0
 40
0.0
 40
0.0
 40
0.0440803504
 40
0.0893046502
 40
0.1362694731
 40
0.1854880836
 40
0.2373632008
 40
0.2921886582
 40
0.350141501
 40
0.4112763223
 40
0.4755831899
 40
0.5429715014
 40
0.6862131755
 40
0.7616952408
 40
0.839380772
 40
1.0
 40
1.0
 40
1.0
 40
1.0
 10
8.0345783517
 20
4.4201569804
 30
0.0
 10
8.032372126
 20
4.4201561054
 30
0.0
 10
8.0278956629
 20
4.4198021749
 30
0.0
 10
8.0212310258
 20
4.4182493969
 30
0.0
 10
8.0146117626
 20
4.4156821117
 30
0.0
 10
8.0080940268
 20
4.4121166727
 30
0.0
 10
8.0017198692
 20
4.4075867676
 30
0.0
 10
7.9955335215
 20
4.4021214564
 30
0.0
 10
7.9895791578
 20
4.3957561842
 30
0.0
 10
7.9838983254
 20
4.3885335388
 30
0.0
 10
7.978538418
 20
4.3804963431
 30
0.0
 10
7.9717397006
 20
4.3685219274
 30
0.0
 10
7.9659380237
 20
4.3553816552
 30
0.0
 10
7.9611270268
 20
4.3413426148
 30
0.0
 10
7.9568652277
 20
4.3262200207
 30
0.0
 10
7.9545638031
 20
4.3144884766
 30
0.0
 10
7.9534026285
 20
4.306533772
 30
0.0
 11
8.0345783517
 21
4.4201569804
 31
0.0
 11
8.0279795048
 21
4.4196450102
 31
0.0
 11
8.0213626958
 21
4.4181192514
 31
0.0
 11
8.0147812066
 21
4.4155871318
 31
0.0
 11
8.0082862167
 21
4.4120615116
 31
0.0
 11
8.0019239425
 21
4.4075680734
 31
0.0
 11
7.9957398926
 21
4.4021344451
 31
0.0
 11
7.9897800841
 21
4.3957941644
 31
0.0
 11
7.9840913289
 21
4.3885900226
 31
0.0
 11
7.9787204002
 21
4.3805659604
 31
0.0
 11
7.9737113803
 21
4.3717744174
 31
0.0
 11
7.9649436355
 21
4.3521348849
 31
0.0
 11
7.9612613325
 21
4.3414160993
 31
0.0
 11
7.9580910026
 21
4.3301906953
 31
0.0
 11
7.9534026285
 21
4.306533772
 31
0.0
  0
SPLINE
  5
310
100
AcDbEntity
  8
0
100
AcDbSpline
 62
7
  6
BYLAYER
 70
0
 71
3
 72
14
 73
10
 74
8
 42
0.0000001
 43
0.0000001
 44
0.0000000001
 12
0.038750547
 22
0.0027125438
 32
0.0
 13
0.0028082597
 23
0.0387437281
 33
0.0
 40
0.0
 40
0.0
 40
0.0
 40
0.0
 40
0.1129529332
 40
0.228344904
 40
0.3471058808
 40
0.4700168445
 40
0.5973617084
 40
0.7288749571
 40
1.0
 40
1.0
 40
1.0
 40
1.0
 10
7.9288678287
 20
4.2652033457
 30
0.0
 10
7.9303268247
 20
4.2653054757
 30
0.0
 10
7.9332623132
 20
4.2658384561
 30
0.0
 10
7.9374469745
 20
4.2675620747
 30
0.0
 10
7.9412983573
 20
4.2701745481
 30
0.0
 10
7.9447024073
 20
4.2735643388
 30
0.0
 10
7.9475516807
 20
4.2776345407
 30
0.0
 10
7.9505368165
 20
4.2838377063
 30
0.0
 10
7.9516620315
 20
4.2890343805
 30
0.0
 10
7.951915828
 20
4.2925358455
 30
0.0
 11
7.9288678287
 21
4.2652033457
 31
0.0
 11
7.9331862798
 21
4.2659797981
 31
0.0
 11
7.9373341609
 21
4.2676790288
 31
0.0
 11
7.9411624578
 21
4.2702532879
 31
0.0
 11
7.9445551821
 21
4.2736126749
 31
0.0
 11
7.9474058743
 21
4.2776554429
 31
0.0
 11
7.9496285465
 21
4.2822552633
 31
0.0
 11
7.951915828
 21
4.2925358455
 31
0.0
  0
SPLINE
  5
311
100
AcDbEntity
  8
0
100
AcDbSpline
 62
7
  6
BYLAYER
 70
0
 71
3
 72
18
 73
14
 74
12
 42
0.0000001
 43
0.0000001
 44
0.0000000001
 12
0.0423708831
 22
-0.0020508833
 32
0.0
 13
0.0409556032
 23
0.0110515348
 33
0.0
 40
0.0
 40
0.0
 40
0.0
 40
0.0
 40
0.0631357267
 40
0.1295671951
 40
0.2693842547
 40
0.4133190154
 40
0.5554992857
 40
0.6903135995
 40
0.7533417357
 40
0.8126294195
 40
0.917581748
 40
0.9619589934
 40
1.0
 40
1.0
 40
1.0
 40
1.0
 10
8.0723097378
 20
4.2901615035
 30
0.0
 10
8.0732014433
 20
4.2901183422
 30
0.0
 10
8.0750339501
 20
4.2900803952
 30
0.0
 10
8.0788430581
 20
4.2901489126
 30
0.0
 10
8.0837875425
 20
4.2904369342
 30
0.0
 10
8.0897933237
 20
4.290889698
 30
0.0
 10
8.0957174542
 20
4.291471473
 30
0.0
 10
8.1004876161
 20
4.2920835886
 30
0.0
 10
8.1040760519
 20
4.2926710736
 30
0.0
 10
8.1072321312
 20
4.2932798109
 30
0.0
 10
8.1100964002
 20
4.2939931742
 30
0.0
 10
8.112648347
 20
4.2947048631
 30
0.0
 10
8.1137701476
 20
4.2950208404
 30
0.0
 10
8.1142894784
 20
4.2951609775
 30
0.0
 11
8.0723097378
 21
4.2901615035
 31
0.0
 11
8.0749872378
 21
4.2900981957
 31
0.0
 11
8.0778049464
 21
4.2901424037
 31
0.0
 11
8.0837280667
 21
4.2904501169
 31
0.0
 11
8.0898161514
 21
4.2909146705
 31
0.0
 11
8.0958178395
 21
4.2915121668
 31
0.0
 11
8.1014879734
 21
4.2922573336
 31
0.0
 11
8.1041260217
 21
4.2926924069
 31
0.0
 11
8.1065946196
 21
4.2931733567
 31
0.0
 11
8.1109199691
 21
4.294228252
 31
0.0
 11
8.112734437
 21
4.294729779
 31
0.0
 11
8.1142894784
 21
4.2951609775
 31
0.0
  0
SPLINE
  5
312
100
AcDbEntity
  8
0
100
AcDbSpline
 62
7
  6
BYLAYER
 70
0
 71
3
 72
18
 73
14
 74
12
 42
0.0000001
 43
0.0000001
 44
0.0000000001
 12
0.0000008487
 22
0.0357541964
 32
0.0
 13
0.0357541963
 23
0.0000019999
 33
0.0
 40
0.0
 40
0.0
 40
0.0
 40
0.0
 40
0.1635368051
 40
0.3228809274
 40
0.4725382542
 40
0.6087815492
 40
0.7289987614
 40
0.7828426385
 40
0.832551551
 40
0.8784290164
 40
0.9210576431
 40
0.9612401865
 40
1.0
 40
1.0
 40
1.0
 40
1.0
 10
4.7319565065
 20
4.4951975206
 30
0.0
 10
4.7319565528
 20
4.4971465629
 30
0.0
 10
4.7321358138
 20
4.5009968879
 30
0.0
 10
4.7329152509
 20
4.5065829125
 30
0.0
 10
4.7341931394
 20
4.5117447761
 30
0.0
 10
4.7359074219
 20
4.5162843501
 30
0.0
 10
4.737719971
 20
4.5195319806
 30
0.0
 10
4.73935951
 20
4.5216414414
 30
0.0
 10
4.7406118377
 20
4.5229145364
 30
0.0
 10
4.7419239291
 20
4.5239205728
 30
0.0
 10
4.7432814781
 20
4.5246505219
 30
0.0
 10
4.744669063
 20
4.525096242
 30
0.0
 10
4.7456125321
 20
4.5251982843
 30
0.0
 10
4.7460744741
 20
4.5251983102
 30
0.0
 11
4.7319565065
 21
4.4951975206
 31
0.0
 11
4.7322287807
 21
4.5010383049
 31
0.0
 11
4.7330315263
 21
4.5066786885
 31
0.0
 11
4.7343374805
 21
4.5118677513
 31
0.0
 11
4.7360923273
 21
4.5164119542
 31
0.0
 11
4.7382310272
 21
4.5201403702
 31
0.0
 11
4.7394193094
 21
4.521655021
 31
0.0
 11
4.7406727051
 21
4.5229151013
 31
0.0
 11
4.7419798827
 21
4.523906015
 31
0.0
 11
4.7433262567
 21
4.5246203799
 31
0.0
 11
4.7446962972
 21
4.5250529077
 31
0.0
 11
4.7460744741
 21
4.5251983102
 31
0.0
  0
SPLINE
  5
313
100
AcDbEntity
  8
0
100
AcDbSpline
 62
7
  6
BYLAYER
 70
0
 71
3
 72
20
 73
16
 74
14
 42
0.0000001
 43
0.0000001
 44
0.0000000001
 12
-0.0161638979
 22
0.0023264512
 32
0.0
 13
0.0014200732
 23
0.0162686005
 33
0.0
 40
0.0
 40
0.0
 40
0.0
 40
0.0
 40
0.2106303129
 40
0.4034208894
 40
0.5739953167
 40
0.7181020014
 40
0.7794946152
 40
0.8335088094
 40
0.879958321
 40
0.9186851577
 40
0.9496112631
 40
0.9728894608
 40
0.9818185506
 40
0.9891127395
 40
1.0
 40
1.0
 40
1.0
 40
1.0
 10
4.7319565065
 20
4.4951975206
 30
0.0
 10
4.7308216375
 20
4.495360861
 30
0.0
 10
4.7286573671
 20
4.4957412738
 30
0.0
 10
4.7256092844
 20
4.4964319093
 30
0.0
 10
4.7229370475
 20
4.497132755
 30
0.0
 10
4.720963018
 20
4.49767536
 30
0.0
 10
4.7196078922
 20
4.49807457
 30
0.0
 10
4.7187672078
 20
4.498338492
 30
0.0
 10
4.7180503106
 20
4.4985839863
 30
0.0
 10
4.7174603061
 20
4.4988114108
 30
0.0
 10
4.717000275
 20
4.4990225042
 30
0.0
 10
4.7167019766
 20
4.4991956077
 30
0.0
 10
4.7165351286
 20
4.4993330444
 30
0.0
 10
4.7164361961
 20
4.4994412737
 30
0.0
 10
4.7163941368
 20
4.4995418064
 30
0.0
 10
4.7163992903
 20
4.4996008465
 30
0.0
 11
4.7319565065
 21
4.4951975206
 31
0.0
 11
4.7285676545
 21
4.4957867153
 31
0.0
 11
4.7254958627
 21
4.4964768317
 31
0.0
 11
4.7227992215
 21
4.4971750189
 31
0.0
 11
4.7205316021
 21
4.4978043505
 31
0.0
 11
4.7195702708
 21
4.4980889344
 31
0.0
 11
4.7187291812
 21
4.4983546932
 31
0.0
 11
4.7180122758
 21
4.4986025489
 31
0.0
 11
4.7174234966
 21
4.4988334236
 31
0.0
 11
4.7169663922
 21
4.499048176
 31
0.0
 11
4.7166426086
 21
4.4992473577
 31
0.0
 11
4.7165310469
 21
4.4993412532
 31
0.0
 11
4.7164532174
 21
4.4994314282
 31
0.0
 11
4.7163992903
 21
4.4996008465
 31
0.0
  0
SPLINE
  5
314
100
AcDbEntity
  8
0
100
AcDbSpline
 62
7
  6
BYLAYER
 70
0
 71
3
 72
16
 73
12
 74
10
 42
0.0000001
 43
0.0000001
 44
0.0000000001
 12
0.0006288704
 22
0.0063080562
 32
0.0
 13
-0.0061907819
 23
0.0013642841
 33
0.0
 40
0.0
 40
0.0
 40
0.0
 40
0.0
 40
0.0519106702
 40
0.0829192355
 40
0.1187257913
 40
0.2071991647
 40
0.3199047392
 40
0.4563845556
 40
0.6157721797
 40
0.7972188896
 40
1.0
 40
1.0
 40
1.0
 40
1.0
 10
7.9573423491
 20
4.2922162333
 30
0.0
 10
7.9573532308
 20
4.2923253851
 30
0.0
 10
7.9573132202
 20
4.2925060086
 30
0.0
 10
7.9571871959
 20
4.2927230381
 30
0.0
 10
7.956980748
 20
4.2929797999
 30
0.0
 10
7.9565999688
 20
4.2933095398
 30
0.0
 10
7.956004206
 20
4.2937040668
 30
0.0
 10
7.955238308
 20
4.2941055479
 30
0.0
 10
7.954307644
 20
4.2944969793
 30
0.0
 10
7.9532168687
 20
4.2948604484
 30
0.0
 10
7.952429404
 20
4.2950614137
 30
0.0
 10
7.9520109461
 20
4.2951536307
 30
0.0
 11
7.9573423491
 21
4.2922162333
 31
0.0
 11
7.9572843197
 21
4.2925401551
 31
0.0
 11
7.9571884325
 21
4.2927117557
 31
0.0
 11
7.9570479049
 21
4.2928900145
 31
0.0
 11
7.956632771
 21
4.2932671478
 31
0.0
 11
7.9560405368
 21
4.2936668183
 31
0.0
 11
7.9552765143
 21
4.2940728028
 31
0.0
 11
7.9543464265
 21
4.2944676003
 31
0.0
 11
7.9532559961
 21
4.29483371
 31
0.0
 11
7.9520109461
 21
4.2951536307
 31
0.0
  0
LINE
  5
315
100
AcDbEntity
  8
0
100
AcDbLine
 62
7
  6
BYLAYER
 10
4.4922198313
 20
3.9583835176
 11
4.4785043361
 21
3.5870901878
  0
LINE
  5
316
100
AcDbEntity
  8
0
100
AcDbLine
 62
7
  6
BYLAYER
 10
4.5650143317
 20
3.9552411624
 11
4.5517299101
 21
3.5839617654
  0
SPLINE
  5
317
100
AcDbEntity
  8
0
100
AcDbSpline
 62
7
  6
BYLAYER
 70
0
 71
3
 72
16
 73
12
 74
10
 42
0.0000001
 43
0.0000001
 44
0.0000000001
 12
-0.407637262
 22
-0.0048714029
 32
0.0
 13
-0.4075724902
 23
0.0087483217
 33
0.0
 40
0.0
 40
0.0
 40
0.0
 40
0.0
 40
0.1320534221
 40
0.2728154166
 40
0.4168358883
 40
0.558622949
 40
0.6927127433
 40
0.8139513946
 40
0.9177108621
 40
0.9617726995
 40
1.0
 40
1.0
 40
1.0
 40
1.0
 10
4.2495537556
 20
3.5871041503
 30
0.0
 10
4.2316104571
 20
3.5868897218
 30
0.0
 10
4.1945396929
 20
3.5865169277
 30
0.0
 10
4.1378977061
 20
3.5861176047
 30
0.0
 10
4.0799321377
 20
3.5858709308
 30
0.0
 10
4.0228727879
 20
3.5857861265
 30
0.0
 10
3.9689092033
 20
3.585865434
 30
0.0
 10
3.9201136776
 20
3.5861050854
 30
0.0
 10
3.8835527872
 20
3.5864419784
 30
0.0
 10
3.8582733827
 20
3.5868017751
 30
0.0
 10
3.8470930434
 20
3.5870072563
 30
0.0
 10
3.8418995781
 20
3.5871187312
 30
0.0
 11
4.2495537556
 21
3.5871041503
 31
0.0
 11
4.1957228182
 21
3.5865549376
 31
0.0
 11
4.138340336
 21
3.586147145
 31
0.0
 11
4.0796285664
 21
3.5858969492
 31
0.0
 11
4.0218268101
 21
3.5858138425
 31
0.0
 11
3.96716298
 21
3.5859009342
 31
0.0
 11
3.917738712
 21
3.5861549499
 31
0.0
 11
3.8754414677
 21
3.586566381
 31
0.0
 11
3.8574808197
 21
3.5868263455
 31
0.0
 11
3.8418995781
 21
3.5871187312
 31
0.0
  0
SPLINE
  5
318
100
AcDbEntity
  8
0
100
AcDbSpline
 62
7
  6
BYLAYER
 70
0
 71
3
 72
16
 73
12
 74
10
 42
0.0000001
 43
0.0000001
 44
0.0000000001
 12
-0.4076372085
 22
0.0048638322
 32
0.0
 13
-0.4075739422
 23
-0.0086736561
 33
0.0
 40
0.0
 40
0.0
 40
0.0
 40
0.0
 40
0.1320518059
 40
0.2728204694
 40
0.4169052086
 40
0.5587522382
 40
0.6928812817
 40
0.8141170977
 40
0.9178058487
 40
0.9618185551
 40
1.0
 40
1.0
 40
1.0
 40
1.0
 10
4.2420652438
 20
3.9583835176
 30
0.0
 10
4.2241221673
 20
3.9585976102
 30
0.0
 10
4.1870507391
 20
3.958971203
 30
0.0
 10
4.130399361
 20
3.9593717309
 30
0.0
 10
4.0724160388
 20
3.9596214618
 30
0.0
 10
4.0153344994
 20
3.9597099072
 30
0.0
 10
3.9613578309
 20
3.9596348466
 30
0.0
 10
3.9125669642
 20
3.9593995888
 30
0.0
 10
3.8760227154
 20
3.9590677095
 30
0.0
 10
3.8507657821
 20
3.9587119536
 30
0.0
 10
3.8395983203
 20
3.9585084894
 30
0.0
 10
3.8344110663
 20
3.9583980985
 30
0.0
 11
4.2420652438
 21
3.9583835176
 31
0.0
 11
4.1882349885
 21
3.9589331467
 31
0.0
 11
4.1308498184
 21
3.9593424265
 31
0.0
 11
4.0721118823
 21
3.9595955654
 31
0.0
 11
4.0142857045
 21
3.9596824043
 31
0.0
 11
3.9596058864
 21
3.9595995628
 31
0.0
 11
3.9101827678
 21
3.9593502674
 31
0.0
 11
3.867914313
 21
3.9589445812
 31
0.0
 11
3.8499736601
 21
3.9586875592
 31
0.0
 11
3.8344110663
 21
3.9583980985
 31
0.0
  0
SPLINE
  5
319
100
AcDbEntity
  8
0
100
AcDbSpline
 62
7
  6
BYLAYER
 70
0
 71
3
 72
28
 73
24
 74
22
 42
0.0000001
 43
0.0000001
 44
0.0000000001
 12
-0.0380324873
 22
-0.000811049
 32
0.0
 13
0.002702153
 23
-0.0379450426
 33
0.0
 40
0.0
 40
0.0
 40
0.0
 40
0.0
 40
0.2300442367
 40
0.4316842369
 40
0.521542446
 40
0.6039273753
 40
0.6787149974
 40
0.7457935817
 40
0.8051084949
 40
0.8566217777
 40
0.9002956368
 40
0.9191810676
 40
0.9360926317
 40
0.9510257527
 40
0.9639759501
 40
0.9749389083
 40
0.9839106248
 40
0.9908883122
 40
0.9958748194
 40
0.9976244845
 40
0.9988821893
 40
0.9996572445
 40
1.0
 40
1.0
 40
1.0
 40
1.0
 10
3.7532441393
 20
3.5871275785
 30
0.0
 10
3.7503277544
 20
3.5870653861
 30
0.0
 10
3.7448551358
 20
3.5869460048
 30
0.0
 10
3.7382435451
 20
3.5867931106
 30
0.0
 10
3.7335039875
 20
3.5866769751
 30
0.0
 10
3.7303725667
 20
3.5865969127
 30
0.0
 10
3.7275300005
 20
3.586520606
 30
0.0
 10
3.7249799764
 20
3.5864481313
 30
0.0
 10
3.7227250902
 20
3.5863796026
 30
0.0
 10
3.7207670056
 20
3.5863151044
 30
0.0
 10
3.7193214704
 20
3.5862625949
 30
0.0
 10
3.7183145617
 20
3.5862221403
 30
0.0
 10
3.7176718828
 20
3.5861943405
 30
0.0
 10
3.7171044991
 20
3.5861676107
 30
0.0
 10
3.7166125643
 20
3.5861419653
 30
0.0
 10
3.7161963306
 20
3.5861174669
 30
0.0
 10
3.7158557454
 20
3.5860941104
 30
0.0
 10
3.7155914679
 20
3.5860722041
 30
0.0
 10
3.7154179287
 20
3.5860533224
 30
0.0
 10
3.7153184682
 20
3.586038573
 30
0.0
 10
3.7152701663
 20
3.5860280768
 30
0.0
 10
3.7152436624
 20
3.5860209668
 30
0.0
 10
3.715228363
 20
3.5860114062
 30
0.0
 10
3.7152286717
 20
3.5860070709
 30
0.0
 11
3.7532441393
 21
3.5871275785
 31
0.0
 11
3.7444950904
 21
3.5869361135
 31
0.0
 11
3.7368265465
 21
3.5867579052
 31
0.0
 11
3.7334092677
 21
3.5866740218
 31
0.0
 11
3.7302762796
 21
3.586593752
 31
0.0
 11
3.7274323039
 21
3.5865171954
 31
0.0
 11
3.7248815957
 21
3.5864444463
 31
0.0
 11
3.7226262405
 21
3.5863755732
 31
0.0
 11
3.720667693
 21
3.586310637
 31
0.0
 11
3.7190074078
 21
3.5862496985
 31
0.0
 11
3.7182895682
 21
3.5862207475
 31
0.0
 11
3.7176468396
 21
3.5861928188
 31
0.0
 11
3.7170794039
 21
3.5861659199
 31
0.0
 11
3.716587443
 21
3.5861400587
 31
0.0
 11
3.7161711386
 21
3.5861152425
 31
0.0
 11
3.7158306727
 21
3.5860914791
 31
0.0
 11
3.7155662062
 21
3.5860687757
 31
0.0
 11
3.715377752
 21
3.5860471373
 31
0.0
 11
3.7153120133
 21
3.5860367187
 31
0.0
 11
3.715265258
 21
3.5860265678
 31
0.0
 11
3.7152374797
 21
3.586016685
 31
0.0
 11
3.7152286717
 21
3.5860070709
 31
0.0
  0
SPLINE
  5
31A
100
AcDbEntity
  8
0
100
AcDbSpline
 62
7
  6
BYLAYER
 70
0
 71
3
 72
28
 73
24
 74
22
 42
0.0000001
 43
0.0000001
 44
0.0000000001
 12
-0.0381938599
 22
0.000818677
 32
0.0
 13
-0.0028958989
 23
0.038092715
 33
0.0
 40
0.0
 40
0.0
 40
0.0
 40
0.0
 40
0.2298614843
 40
0.431356304
 40
0.521144853
 40
0.6034561237
 40
0.6781691317
 40
0.7452130542
 40
0.8045376534
 40
0.8560928507
 40
0.8998287372
 40
0.9187489412
 40
0.9356957688
 40
0.9506631638
 40
0.9636470769
 40
0.9746466713
 40
0.9836616968
 40
0.9906925726
 40
0.9957414401
 40
0.997524937
 40
0.9988177276
 40
0.9996282555
 40
1.0
 40
1.0
 40
1.0
 40
1.0
 10
3.7267762483
 20
3.9584088398
 30
0.0
 10
3.7238498159
 20
3.9584715673
 30
0.0
 10
3.7183581543
 20
3.9585920728
 30
0.0
 10
3.7117235822
 20
3.9587466095
 30
0.0
 10
3.706967599
 20
3.9588640777
 30
0.0
 10
3.7038256756
 20
3.9589450771
 30
0.0
 10
3.7009733881
 20
3.9590223043
 30
0.0
 10
3.6984138233
 20
3.9590956651
 30
0.0
 10
3.6961491661
 20
3.9591650625
 30
0.0
 10
3.6941813403
 20
3.959230419
 30
0.0
 10
3.6927279191
 20
3.9592836588
 30
0.0
 10
3.6917150694
 20
3.9593247042
 30
0.0
 10
3.6910683459
 20
3.9593529267
 30
0.0
 10
3.6904972512
 20
3.9593800798
 30
0.0
 10
3.6900019115
 20
3.9594061453
 30
0.0
 10
3.689582476
 20
3.9594310799
 30
0.0
 10
3.6892387785
 20
3.9594548351
 30
0.0
 10
3.6889713518
 20
3.9594772521
 30
0.0
 10
3.688795244
 20
3.9594963444
 30
0.0
 10
3.6886936467
 20
3.9595116191
 30
0.0
 10
3.6886439048
 20
3.9595219755
 30
0.0
 10
3.688615927
 20
3.9595300041
 30
0.0
 10
3.6885997583
 20
3.9595389303
 30
0.0
 10
3.6885993995
 20
3.9595436506
 30
0.0
 11
3.7267762483
 21
3.9584088398
 31
0.0
 11
3.7179970613
 21
3.9586021004
 31
0.0
 11
3.7103015365
 21
3.9587822282
 31
0.0
 11
3.706872427
 21
3.9588670731
 31
0.0
 11
3.7037289685
 21
3.9589482817
 31
0.0
 11
3.7008757862
 21
3.9590257418
 31
0.0
 11
3.6983155905
 21
3.959099378
 31
0.0
 11
3.6960503083
 21
3.9591691296
 31
0.0
 11
3.6940818637
 21
3.9592349361
 31
0.0
 11
3.692412181
 21
3.9592967371
 31
0.0
 11
3.6916899767
 21
3.9593261165
 31
0.0
 11
3.6910431845
 21
3.9593544719
 31
0.0
 11
3.6904720439
 21
3.9593817956
 31
0.0
 11
3.6899767211
 21
3.9594080807
 31
0.0
 11
3.6895572664
 21
3.9594333213
 31
0.0
 11
3.6892137193
 21
3.9594575115
 31
0.0
 11
3.6889461194
 21
3.9594806454
 31
0.0
 11
3.6887545064
 21
3.9595027171
 31
0.0
 11
3.6886872074
 21
3.9595133528
 31
0.0
 11
3.6886389199
 21
3.9595237208
 31
0.0
 11
3.688609649
 21
3.9595338203
 31
0.0
 11
3.6885993995
 21
3.9595436506
 31
0.0
  0
LINE
  5
31B
100
AcDbEntity
  8
0
100
AcDbLine
 62
7
  6
BYLAYER
 10
6.4044472861
 20
3.5838954976
 11
6.3857211933
 21
3.9551760396
  0
SPLINE
  5
31C
100
AcDbEntity
  8
0
100
AcDbSpline
 62
7
  6
BYLAYER
 70
0
 71
3
 72
20
 73
16
 74
14
 42
0.0000001
 43
0.0000001
 44
0.0000000001
 12
0.0690162985
 22
0.0000001634
 32
0.0
 13
0.0017650922
 23
0.0689937237
 33
0.0
 40
0.0
 40
0.0
 40
0.0
 40
0.0
 40
0.0402200732
 40
0.0817177598
 40
0.1254100009
 40
0.172034302
 40
0.2221489699
 40
0.2760793241
 40
0.3339579222
 40
0.3957901154
 40
0.4614771552
 40
0.5307789065
 40
0.6788699796
 40
0.8369193737
 40
1.0
 40
1.0
 40
1.0
 40
1.0
 10
4.2203318269
 20
3.5302472239
 30
0.0
 10
4.2212571071
 20
3.530247226
 30
0.0
 10
4.2231417126
 20
3.5304367227
 30
0.0
 10
4.2259205016
 20
3.5312671042
 30
0.0
 10
4.2286450082
 20
3.5326297422
 30
0.0
 10
4.2312858252
 20
3.5345105379
 30
0.0
 10
4.2338147664
 20
3.5368944921
 30
0.0
 10
4.2362158852
 20
3.5397517355
 30
0.0
 10
4.2384722307
 20
3.5430551092
 30
0.0
 10
4.2405650969
 20
3.546776926
 30
0.0
 10
4.2424746233
 20
3.5508870289
 30
0.0
 10
4.2448098512
 20
3.5569706738
 30
0.0
 10
4.2471391123
 20
3.5653103157
 30
0.0
 10
4.2489250772
 20
3.5759723823
 30
0.0
 10
4.2494578053
 20
3.5833536371
 30
0.0
 10
4.2495537561
 20
3.5871041503
 30
0.0
 11
4.2203318269
 21
3.5302472239
 31
0.0
 11
4.223094338
 21
3.5305189291
 31
0.0
 11
4.2258417896
 21
3.5313276945
 31
0.0
 11
4.2285450005
 21
3.5326640143
 31
0.0
 11
4.2311747894
 21
3.534518383
 31
0.0
 11
4.2337035065
 21
3.5368781277
 31
0.0
 11
4.2361096194
 21
3.5397179256
 31
0.0
 11
4.2383731225
 21
3.5430092955
 31
0.0
 11
4.2404740106
 21
3.5467237564
 31
0.0
 11
4.2423931267
 21
3.5508309941
 31
0.0
 11
4.2441147037
 21
3.5552933687
 31
0.0
 11
4.2469055584
 21
3.5651256518
 31
0.0
 11
4.2487388948
 21
3.5758784652
 31
0.0
 11
4.2495537561
 21
3.5871041503
 31
0.0
  0
SPLINE
  5
31D
100
AcDbEntity
  8
0
100
AcDbSpline
 62
7
  6
BYLAYER
 70
0
 71
3
 72
9
 73
5
 74
3
 42
0.0000001
 43
0.0000001
 44
0.0000000001
 12
-0.0132824117
 22
0.000001357
 32
0.0
 13
-0.012737893
 23
0.0037641126
 33
0.0
 40
0.0
 40
0.0
 40
0.0
 40
0.0
 40
0.4977778501
 40
1.0
 40
1.0
 40
1.0
 40
1.0
 10
3.8055470586
 20
3.5302677362
 30
0.0
 10
3.8033431618
 20
3.5302679613
 30
0.0
 10
3.7989102333
 20
3.5305966061
 30
0.0
 10
3.7945706315
 20
3.5315545794
 30
0.0
 10
3.7924382142
 20
3.5321847197
 30
0.0
 11
3.8055470586
 21
3.5302677362
 31
0.0
 11
3.7989530593
 21
3.5307510823
 31
0.0
 11
3.7924382142
 21
3.5321847197
 31
0.0
  0
SPLINE
  5
31E
100
AcDbEntity
  8
0
100
AcDbSpline
 62
7
  6
BYLAYER
 70
0
 71
3
 72
18
 73
14
 74
12
 42
0.0000001
 43
0.0000001
 44
0.0000000001
 12
-0.06892357
 22
0.0203672681
 32
0.0
 13
-0.003283086
 23
0.0717948846
 33
0.0
 40
0.0
 40
0.0
 40
0.0
 40
0.0
 40
0.1172252992
 40
0.1765605035
 40
0.2364340147
 40
0.3578918894
 40
0.4819640989
 40
0.5450369209
 40
0.6087390454
 40
0.6730380776
 40
0.7378934622
 40
0.8687063442
 40
1.0
 40
1.0
 40
1.0
 40
1.0
 10
3.7924382142
 20
3.5321847197
 30
0.0
 10
3.7897450188
 20
3.5329805727
 30
0.0
 10
3.7857843996
 20
3.5345455249
 30
0.0
 10
3.780829791
 20
3.537300423
 30
0.0
 10
3.7760399523
 20
3.5405209492
 30
0.0
 10
3.770495739
 20
3.5453478677
 30
0.0
 10
3.7657440259
 20
3.5510529533
 30
0.0
 10
3.7624422247
 20
3.5560794918
 30
0.0
 10
3.7602183935
 20
3.5600854704
 30
0.0
 10
3.7582770404
 20
3.5642826863
 30
0.0
 10
3.7560823796
 20
3.5701162551
 30
0.0
 10
3.7541153472
 20
3.5777254719
 30
0.0
 10
3.7533878224
 20
3.5839855075
 30
0.0
 10
3.7532441396
 20
3.5871275785
 30
0.0
 11
3.7924382142
 21
3.5321847197
 31
0.0
 11
3.784600722
 21
3.5352756526
 31
0.0
 11
3.7808721759
 21
3.5373452386
 31
0.0
 11
3.777300198
 21
3.5397447548
 31
0.0
 11
3.7707087994
 21
3.5454676749
 31
0.0
 11
3.764988623
 21
3.5523082536
 31
0.0
 11
3.7624983313
 21
3.5560959814
 31
0.0
 11
3.760275186
 21
3.5600982488
 31
0.0
 11
3.7583346345
 21
3.5642922246
 31
0.0
 11
3.7566913475
 21
3.5686540973
 31
0.0
 11
3.7543297943
 21
3.5777541775
 31
0.0
 11
3.7532441396
 21
3.5871275785
 31
0.0
  0
LINE
  5
31F
100
AcDbEntity
  8
0
100
AcDbLine
 62
7
  6
BYLAYER
 10
6.4728419006
 20
3.5870191859
 11
6.4535074807
 21
3.9583133665
  0
SPLINE
  5
320
100
AcDbEntity
  8
0
100
AcDbSpline
 62
7
  6
BYLAYER
 70
0
 71
3
 72
15
 73
11
 74
9
 42
0.0000001
 43
0.0000001
 44
0.0000000001
 12
-0.0850864639
 22
0.0000086926
 32
0.0
 13
-0.0038868397
 23
0.0849976405
 33
0.0
 40
0.0
 40
0.0
 40
0.0
 40
0.0
 40
0.1166093334
 40
0.2349028757
 40
0.3553682532
 40
0.4786939643
 40
0.6052221688
 40
0.7348356483
 40
0.8669617937
 40
1.0
 40
1.0
 40
1.0
 40
1.0
 10
3.8942024973
 20
3.5302588889
 30
0.0
 10
3.8908952054
 20
3.5302592268
 30
0.0
 10
3.8842129653
 20
3.5310034274
 30
0.0
 10
3.874587956
 20
3.5342300668
 30
0.0
 10
3.8656901415
 20
3.5395034833
 30
0.0
 10
3.8578379259
 20
3.5465773187
 30
0.0
 10
3.8513097829
 20
3.5552103693
 30
0.0
 10
3.8463095545
 20
3.5650869016
 30
0.0
 10
3.8430485073
 20
3.5758518228
 30
0.0
 10
3.8420719441
 20
3.58334942
 30
0.0
 10
3.8418995781
 20
3.5871187312
 30
0.0
 11
3.8942024973
 21
3.5302588889
 31
0.0
 11
3.8843397297
 21
3.5313402934
 31
0.0
 11
3.8747939314
 21
3.5345317774
 31
0.0
 11
3.8659610304
 21
3.539731951
 31
0.0
 11
3.8581493499
 21
3.5467382351
 31
0.0
 11
3.8516331904
 21
3.5553081198
 31
0.0
 11
3.8466383073
 21
3.5651405002
 31
0.0
 11
3.8433574116
 21
3.5758932479
 31
0.0
 11
3.8418995781
 21
3.5871187312
 31
0.0
  0
SPLINE
  5
321
100
AcDbEntity
  8
0
100
AcDbSpline
 62
7
  6
BYLAYER
 70
0
 71
3
 72
16
 73
12
 74
10
 42
0.0000001
 43
0.0000001
 44
0.0000000001
 12
-0.407637262
 22
-0.0048714029
 32
0.0
 13
-0.4075724902
 23
0.0087483217
 33
0.0
 40
0.0
 40
0.0
 40
0.0
 40
0.0
 40
0.1320534221
 40
0.2728154166
 40
0.4168358883
 40
0.558622949
 40
0.6927127433
 40
0.8139513946
 40
0.9177108621
 40
0.9617726995
 40
1.0
 40
1.0
 40
1.0
 40
1.0
 10
7.008397471
 20
3.5870054724
 30
0.0
 10
6.9904541726
 20
3.5867910439
 30
0.0
 10
6.9533834084
 20
3.5864182498
 30
0.0
 10
6.8967414216
 20
3.5860189268
 30
0.0
 10
6.8387758531
 20
3.5857722529
 30
0.0
 10
6.7817165034
 20
3.5856874486
 30
0.0
 10
6.7277529188
 20
3.5857667561
 30
0.0
 10
6.6789573931
 20
3.5860064074
 30
0.0
 10
6.6423965027
 20
3.5863433005
 30
0.0
 10
6.6171170982
 20
3.5867030972
 30
0.0
 10
6.6059367589
 20
3.5869085784
 30
0.0
 10
6.6007432936
 20
3.5870200533
 30
0.0
 11
7.008397471
 21
3.5870054724
 31
0.0
 11
6.9545665336
 21
3.5864562597
 31
0.0
 11
6.8971840515
 21
3.5860484671
 31
0.0
 11
6.8384722819
 21
3.5857982712
 31
0.0
 11
6.7806705256
 21
3.5857151646
 31
0.0
 11
6.7260066955
 21
3.5858022563
 31
0.0
 11
6.6765824275
 21
3.5860562719
 31
0.0
 11
6.6342851832
 21
3.5864677031
 31
0.0
 11
6.6163245352
 21
3.5867276675
 31
0.0
 11
6.6007432936
 21
3.5870200533
 31
0.0
  0
SPLINE
  5
322
100
AcDbEntity
  8
0
100
AcDbSpline
 62
7
  6
BYLAYER
 70
0
 71
3
 72
16
 73
12
 74
10
 42
0.0000001
 43
0.0000001
 44
0.0000000001
 12
-0.4076372085
 22
0.0048638322
 32
0.0
 13
-0.4075739422
 23
-0.0086736561
 33
0.0
 40
0.0
 40
0.0
 40
0.0
 40
0.0
 40
0.1320518059
 40
0.2728204694
 40
0.4169052086
 40
0.5587522382
 40
0.6928812817
 40
0.8141170977
 40
0.9178058487
 40
0.9618185551
 40
1.0
 40
1.0
 40
1.0
 40
1.0
 10
7.0009089593
 20
3.9582848397
 30
0.0
 10
6.9829658828
 20
3.9584989323
 30
0.0
 10
6.9458944546
 20
3.9588725251
 30
0.0
 10
6.8892430765
 20
3.9592730529
 30
0.0
 10
6.8312597543
 20
3.9595227839
 30
0.0
 10
6.7741782149
 20
3.9596112292
 30
0.0
 10
6.7202015464
 20
3.9595361687
 30
0.0
 10
6.6714106797
 20
3.9593009109
 30
0.0
 10
6.6348664309
 20
3.9589690316
 30
0.0
 10
6.6096094976
 20
3.9586132757
 30
0.0
 10
6.5984420358
 20
3.9584098115
 30
0.0
 10
6.5932547818
 20
3.9582994206
 30
0.0
 11
7.0009089593
 21
3.9582848397
 31
0.0
 11
6.947078704
 21
3.9588344687
 31
0.0
 11
6.8896935339
 21
3.9592437485
 31
0.0
 11
6.8309555978
 21
3.9594968875
 31
0.0
 11
6.77312942
 21
3.9595837263
 31
0.0
 11
6.7184496019
 21
3.9595008849
 31
0.0
 11
6.6690264833
 21
3.9592515894
 31
0.0
 11
6.6267580285
 21
3.9588459033
 31
0.0
 11
6.6088173756
 21
3.9585888813
 31
0.0
 11
6.5932547818
 21
3.9582994206
 31
0.0
  0
SPLINE
  5
323
100
AcDbEntity
  8
0
100
AcDbSpline
 62
7
  6
BYLAYER
 70
0
 71
3
 72
20
 73
16
 74
14
 42
0.0000001
 43
0.0000001
 44
0.0000000001
 12
-0.1766244014
 22
-0.0000531548
 32
0.0
 13
-0.0087830379
 23
0.1764058963
 33
0.0
 40
0.0
 40
0.0
 40
0.0
 40
0.0
 40
0.1211491808
 40
0.1822002088
 40
0.243491725
 40
0.305070988
 40
0.3669707568
 40
0.4291989971
 40
0.491740974
 40
0.6175499587
 40
0.680891127
 40
0.7444430062
 40
0.8081949621
 40
0.8721310616
 40
1.0
 40
1.0
 40
1.0
 40
1.0
 10
6.517604817
 20
3.470174632
 30
0.0
 10
6.5104721832
 20
3.4701724855
 30
0.0
 10
6.4997050292
 20
3.4712987589
 30
0.0
 10
6.4858189764
 20
3.4749230873
 30
0.0
 10
6.4756496617
 20
3.47869948
 30
0.0
 10
6.465857208
 20
3.4834759189
 30
0.0
 10
6.4565282292
 20
3.4892100869
 30
0.0
 10
6.4477441302
 20
3.4958438566
 30
0.0
 10
6.4368493696
 20
3.5058162464
 30
0.0
 10
6.4273722863
 20
3.5173404584
 30
0.0
 10
6.4195788731
 20
3.5300318066
 30
0.0
 10
6.4145983698
 20
3.540108717
 30
0.0
 10
6.4105407294
 20
3.5506292169
 30
0.0
 10
6.4064239936
 20
3.5651153761
 30
0.0
 10
6.4048216453
 20
3.5763765527
 30
0.0
 10
6.4044472861
 20
3.5838954976
 30
0.0
 11
6.517604817
 21
3.470174632
 31
0.0
 11
6.4963199712
 21
3.4723713499
 31
0.0
 11
6.48588562
 21
3.4750915704
 31
0.0
 11
6.475735696
 21
3.4788561658
 31
0.0
 11
6.4659590467
 21
3.4836220053
 31
0.0
 11
6.4566428291
 21
3.4893437882
 31
0.0
 11
6.4478699564
 21
3.4959649181
 31
0.0
 11
6.4397210771
 21
3.5034227728
 31
0.0
 11
6.4255902736
 21
3.5205718387
 31
0.0
 11
6.4197344768
 21
3.5301045171
 31
0.0
 11
6.4147592746
 21
3.5401665146
 31
0.0
 11
6.4107072452
 21
3.5506723259
 31
0.0
 11
6.4076191537
 21
3.5615345641
 31
0.0
 11
6.4044472861
 21
3.5838954976
 31
0.0
  0
SPLINE
  5
324
100
AcDbEntity
  8
0
100
AcDbSpline
 62
7
  6
BYLAYER
 70
0
 71
3
 72
16
 73
12
 74
10
 42
0.0000001
 43
0.0000001
 44
0.0000000001
 12
-0.0038875766
 22
0.0850137273
 32
0.0
 13
-0.0851025676
 23
0.0000086256
 33
0.0
 40
0.0
 40
0.0
 40
0.0
 40
0.0
 40
0.1331632977
 40
0.2651504021
 40
0.3946588617
 40
0.5212126011
 40
0.6445739751
 40
0.7649378972
 40
0.8243225915
 40
0.8832831133
 40
1.0
 40
1.0
 40
1.0
 40
1.0
 10
6.4535074807
 20
3.9583133665
 30
0.0
 10
6.4533349199
 20
3.962086936
 30
0.0
 10
6.4523643287
 20
3.9695868128
 30
0.0
 10
6.4490936539
 20
3.9803473367
 30
0.0
 10
6.4441014208
 20
3.9902232984
 30
0.0
 10
6.4375649566
 20
3.9988511281
 30
0.0
 10
6.4297200508
 20
4.0059327043
 30
0.0
 10
6.4222623417
 20
4.0103427808
 30
0.0
 10
6.415954444
 20
4.0128378354
 30
0.0
 10
6.4095193961
 20
4.0146185927
 30
0.0
 10
6.4045155304
 20
4.0151728733
 30
0.0
 10
6.4012045615
 20
4.0151732089
 30
0.0
 11
6.4535074807
 21
3.9583133665
 31
0.0
 11
6.4520505956
 21
3.9695518681
 31
0.0
 11
6.4487681571
 21
3.9802939973
 31
0.0
 11
6.4437776645
 21
3.9901209246
 31
0.0
 11
6.43725624
 21
3.998692095
 31
0.0
 11
6.4294431592
 21
4.0057043368
 31
0.0
 11
6.4206152353
 21
4.0108997696
 31
0.0
 11
6.4159148993
 21
4.0127565501
 31
0.0
 11
6.4110786196
 21
4.014093573
 31
0.0
 11
6.4012045615
 21
4.0151732089
 31
0.0
  0
SPLINE
  5
325
100
AcDbEntity
  8
0
100
AcDbSpline
 62
7
  6
BYLAYER
 70
0
 71
3
 72
14
 73
10
 74
8
 42
0.0000001
 43
0.0000001
 44
0.0000000001
 12
-0.0427765195
 22
-0.0865409838
 32
0.0
 13
-0.0965358534
 23
0.0000388921
 33
0.0
 40
0.0
 40
0.0
 40
0.0
 40
0.0
 40
0.2710783983
 40
0.4003627732
 40
0.5255417523
 40
0.6471530221
 40
0.7660798807
 40
0.8833944333
 40
1.0
 40
1.0
 40
1.0
 40
1.0
 10
7.1513282424
 20
3.5233089715
 30
0.0
 10
7.147462979
 20
3.5154891744
 30
0.0
 10
7.1405376157
 20
3.5044499416
 30
0.0
 10
7.1290347886
 20
3.4920044974
 30
0.0
 10
7.1197005716
 20
3.4842409141
 30
0.0
 10
7.1096443938
 20
3.4780489623
 30
0.0
 10
7.0990017069
 20
3.473530528
 30
0.0
 10
7.0879355802
 20
3.4707899104
 30
0.0
 10
7.0803943656
 20
3.4701731204
 30
0.0
 10
7.0766421596
 20
3.470174632
 30
0.0
 11
7.1513282424
 21
3.5233089715
 31
0.0
 11
7.1372424726
 21
3.5012545733
 31
0.0
 11
7.1287523062
 21
3.4921067914
 31
0.0
 11
7.1194420445
 21
3.4844030013
 31
0.0
 11
7.1094326547
 21
3.4782681694
 31
0.0
 11
7.0988566494
 21
3.4738010968
 31
0.0
 11
7.0878618039
 21
3.4710862511
 31
0.0
 11
7.0766421596
 21
3.470174632
 31
0.0
  0
SPLINE
  5
326
100
AcDbEntity
  8
0
100
AcDbSpline
 62
7
  6
BYLAYER
 70
0
 71
3
 72
20
 73
16
 74
14
 42
0.0000001
 43
0.0000001
 44
0.0000000001
 12
0.0690163009
 22
0.0000001635
 32
0.0
 13
0.0017650811
 23
0.0689937264
 33
0.0
 40
0.0
 40
0.0
 40
0.0
 40
0.0
 40
0.0402200881
 40
0.0817177941
 40
0.1254100568
 40
0.1720343773
 40
0.2221490608
 40
0.2760794294
 40
0.3339580384
 40
0.395790235
 40
0.4614772717
 40
0.5307790163
 40
0.6788700533
 40
0.836919397
 40
1.0
 40
1.0
 40
1.0
 40
1.0
 10
7.9190862294
 20
3.5302472239
 30
0.0
 10
7.92001151
 20
3.530247226
 30
0.0
 10
7.9218961164
 20
3.5304367229
 30
0.0
 10
7.9246749066
 20
3.5312671053
 30
0.0
 10
7.9273994144
 20
3.5326297439
 30
0.0
 10
7.930040233
 20
3.5345105399
 30
0.0
 10
7.9325691754
 20
3.5368944947
 30
0.0
 10
7.9349702945
 20
3.5397517392
 30
0.0
 10
7.9372266399
 20
3.543055114
 30
0.0
 10
7.9393195061
 20
3.5467769313
 30
0.0
 10
7.941229032
 20
3.5508870344
 30
0.0
 10
7.9435642584
 20
3.556970679
 30
0.0
 10
7.9458935181
 20
3.5653103193
 30
0.0
 10
7.9476794814
 20
3.5759723841
 30
0.0
 10
7.9482122079
 20
3.5833536375
 30
0.0
 10
7.948308158
 20
3.5871041503
 30
0.0
 11
7.9190862294
 21
3.5302472239
 31
0.0
 11
7.9218487416
 21
3.5305189294
 31
0.0
 11
7.9245961945
 21
3.5313276955
 31
0.0
 11
7.9272994068
 21
3.5326640161
 31
0.0
 11
7.9299291972
 21
3.5345183852
 31
0.0
 11
7.9324579154
 21
3.5368781305
 31
0.0
 11
7.9348640287
 21
3.5397179294
 31
0.0
 11
7.9371275319
 21
3.5430093003
 31
0.0
 11
7.9392284198
 21
3.5467237619
 31
0.0
 11
7.9411475354
 21
3.5508309997
 31
0.0
 11
7.9428691115
 21
3.5552933743
 31
0.0
 11
7.9456599643
 21
3.5651256557
 31
0.0
 11
7.9474932988
 21
3.5758784663
 31
0.0
 11
7.948308158
 21
3.5871041503
 31
0.0
  0
SPLINE
  5
327
100
AcDbEntity
  8
0
100
AcDbSpline
 62
7
  6
BYLAYER
 70
0
 71
3
 72
15
 73
11
 74
9
 42
0.0000001
 43
0.0000001
 44
0.0000000001
 12
-0.0039670753
 22
-0.083613708
 32
0.0
 13
-0.0837077622
 23
0.0000200517
 33
0.0
 40
0.0
 40
0.0
 40
0.0
 40
0.0
 40
0.1408663648
 40
0.279161562
 40
0.4130670578
 40
0.5416423849
 40
0.6643231325
 40
0.7811036569
 40
0.8926340767
 40
1.0
 40
1.0
 40
1.0
 40
1.0
 10
4.4785034452
 20
3.5870901879
 30
0.0
 10
4.4783171694
 20
3.5831640682
 30
0.0
 10
4.4772379949
 20
3.5753994084
 30
0.0
 10
4.473638995
 20
3.5643896284
 30
0.0
 10
4.468326044
 20
3.5544833465
 30
0.0
 10
4.4616373653
 20
3.5460003031
 30
0.0
 10
4.453905166
 20
3.5391571673
 30
0.0
 10
4.4454427743
 20
3.5341059843
 30
0.0
 10
4.4365447846
 20
3.5309821357
 30
0.0
 10
4.4304183969
 20
3.5302465057
 30
0.0
 10
4.4274226099
 20
3.5302472233
 30
0.0
 11
4.4785034452
 21
3.5870901879
 31
0.0
 11
4.4768835143
 21
3.5754103825
 31
0.0
 11
4.4732814892
 21
3.564408654
 31
0.0
 11
4.4679746716
 21
3.5545355697
 31
0.0
 11
4.4612952787
 21
3.5460962233
 31
0.0
 11
4.4535863264
 21
3.5393115924
 31
0.0
 11
4.4451729755
 21
3.5343341747
 31
0.0
 11
4.4363502902
 21
3.5312812395
 31
0.0
 11
4.4274226099
 21
3.5302472233
 31
0.0
  0
SPLINE
  5
328
100
AcDbEntity
  8
0
100
AcDbSpline
 62
7
  6
BYLAYER
 70
0
 71
3
 72
20
 73
16
 74
14
 42
0.0000001
 43
0.0000001
 44
0.0000000001
 12
-0.0666570109
 22
0.0000097045
 32
0.0
 13
-0.000001634
 23
-0.0666570116
 33
0.0
 40
0.0
 40
0.0
 40
0.0
 40
0.0
 40
0.0292606432
 40
0.0608187271
 40
0.0962962383
 40
0.136757173
 40
0.1828173103
 40
0.2346575177
 40
0.2922069404
 40
0.3552649816
 40
0.4235279404
 40
0.4965339026
 40
0.6546080175
 40
0.8246639321
 40
1.0
 40
1.0
 40
1.0
 40
1.0
 10
6.5373613018
 20
3.5301717559
 30
0.0
 10
6.5367111595
 20
3.5301718505
 30
0.0
 10
6.5353531629
 20
3.5299572308
 30
0.0
 10
6.5333958098
 20
3.5290414386
 30
0.0
 10
6.5314984225
 20
3.5275651891
 30
0.0
 10
6.5296722818
 20
3.52554788
 30
0.0
 10
6.5279315916
 20
3.5230052647
 30
0.0
 10
6.5262832459
 20
3.5199646156
 30
0.0
 10
6.5247397323
 20
3.5164537697
 30
0.0
 10
6.5233155046
 20
3.5125034278
 30
0.0
 10
6.5220258409
 20
3.5081481988
 30
0.0
 10
6.5204571009
 20
3.5016825085
 30
0.0
 10
6.5189400454
 20
3.4928884973
 30
0.0
 10
6.517854358
 20
3.4817469948
 30
0.0
 10
6.5176049125
 20
3.4740704248
 30
0.0
 10
6.517604817
 20
3.470174632
 30
0.0
 11
6.5373613018
 21
3.5301717559
 31
0.0
 11
6.5354326481
 21
3.5298811352
 31
0.0
 11
6.5335152288
 21
3.5290159764
 31
0.0
 11
6.5316308389
 21
3.5275871757
 31
0.0
 11
6.5298012735
 21
3.5256056293
 31
0.0
 11
6.5280471525
 21
3.5230858319
 31
0.0
 11
6.526384397
 21
3.5200566709
 31
0.0
 11
6.5248277531
 21
3.5165506315
 31
0.0
 11
6.523391967
 21
3.5126001989
 31
0.0
 11
6.5220911103
 21
3.5082399081
 31
0.0
 11
6.5209365551
 21
3.5035124929
 31
0.0
 11
6.5191091407
 21
3.4931354212
 31
0.0
 11
6.5179858285
 21
3.4818557982
 31
0.0
 11
6.517604817
 21
3.470174632
 31
0.0
  0
SPLINE
  5
329
100
AcDbEntity
  8
0
100
AcDbSpline
 62
7
  6
BYLAYER
 70
0
 71
3
 72
12
 73
8
 74
6
 42
0.0000001
 43
0.0000001
 44
0.0000000001
 12
-0.0684444848
 22
-0.0017750959
 32
0.0
 13
-0.0683605252
 23
-0.0038258411
 33
0.0
 40
0.0
 40
0.0
 40
0.0
 40
0.0
 40
0.0813353178
 40
0.1817766583
 40
0.4277547847
 40
0.7108787671
 40
1.0
 40
1.0
 40
1.0
 40
1.0
 10
6.4728411921
 20
3.5870328172
 30
0.0
 10
6.4709855407
 20
3.5869846912
 30
0.0
 10
6.4668389258
 20
3.5868547763
 30
0.0
 10
6.4570831579
 20
3.5864934579
 30
0.0
 10
6.4427288539
 20
3.5858687191
 30
0.0
 10
6.4240770136
 20
3.5849603176
 30
0.0
 10
6.4110354458
 20
3.5842642083
 30
0.0
 10
6.4044472861
 20
3.5838954976
 30
0.0
 11
6.4728411921
 21
3.5870328172
 31
0.0
 11
6.4672749347
 21
3.5868637005
 31
0.0
 11
6.4604025718
 21
3.5866120899
 31
0.0
 11
6.4435764615
 21
3.5858921055
 31
0.0
 11
6.4242144754
 21
3.5849520938
 31
0.0
 11
6.4044472861
 21
3.5838954976
 31
0.0
  0
SPLINE
  5
32A
100
AcDbEntity
  8
0
100
AcDbSpline
 62
7
  6
BYLAYER
 70
0
 71
3
 72
17
 73
13
 74
11
 42
0.0000001
 43
0.0000001
 44
0.0000000001
 12
-0.0678504367
 22
0.0013278295
 32
0.0
 13
-0.0678481249
 23
-0.0014411262
 33
0.0
 40
0.0
 40
0.0
 40
0.0
 40
0.0
 40
0.0381476613
 40
0.0813675551
 40
0.1293327925
 40
0.181693565
 40
0.2980968118
 40
0.4273155095
 40
0.5659359137
 40
0.7102984634
 40
0.856521543
 40
1.0
 40
1.0
 40
1.0
 40
1.0
 10
6.4535074806
 20
3.9583133687
 30
0.0
 10
6.4526447021
 20
3.9583302532
 30
0.0
 10
6.4508035317
 20
3.9583170978
 30
0.0
 10
6.4478795631
 20
3.9582153579
 30
0.0
 10
6.444636105
 20
3.9580590997
 30
0.0
 10
6.4397398106
 20
3.957809406
 30
0.0
 10
6.4330054557
 20
3.9575151869
 30
0.0
 10
6.4243207995
 20
3.9571581611
 30
0.0
 10
6.415004903
 20
3.9567590668
 30
0.0
 10
6.405308471
 20
3.9562521343
 30
0.0
 10
6.3955131366
 20
3.9555762514
 30
0.0
 10
6.3889661081
 20
3.9552449631
 30
0.0
 10
6.3857211933
 20
3.9551760396
 30
0.0
 11
6.4535074806
 21
3.9583133687
 31
0.0
 11
6.450918658
 21
3.9583067403
 31
0.0
 11
6.4479871092
 21
3.9582129061
 31
0.0
 11
6.4447355038
 21
3.9580624274
 31
0.0
 11
6.4411865115
 21
3.9578858654
 31
0.0
 11
6.4332949606
 21
3.9575310512
 31
0.0
 11
6.4245334025
 21
3.9571644635
 31
0.0
 11
6.4151352738
 21
3.9567501702
 31
0.0
 11
6.4053522957
 21
3.9562273646
 31
0.0
 11
6.3954487897
 21
3.9556024997
 31
0.0
 11
6.3857211933
 21
3.9551760396
 31
0.0
  0
SPLINE
  5
32B
100
AcDbEntity
  8
0
100
AcDbSpline
 62
7
  6
BYLAYER
 70
0
 71
3
 72
20
 73
16
 74
14
 42
0.0000001
 43
0.0000001
 44
0.0000000001
 12
-0.0645319259
 22
0.0000118014
 32
0.0
 13
-0.0000015318
 23
-0.064531927
 33
0.0
 40
0.0
 40
0.0
 40
0.0
 40
0.0
 40
0.0117857556
 40
0.0239835004
 40
0.0508483474
 40
0.0826776911
 40
0.1205828565
 40
0.1650195549
 40
0.2160675144
 40
0.2736190121
 40
0.3373445708
 40
0.4813194204
 40
0.6435543788
 40
0.8187030335
 40
1.0
 40
1.0
 40
1.0
 40
1.0
 10
6.401199998
 20
4.0151732091
 30
0.0
 10
6.4009464788
 20
4.0151732555
 30
0.0
 10
6.4004293185
 20
4.0151226688
 30
0.0
 10
6.399374179
 20
4.0148146401
 30
0.0
 10
6.3980479278
 20
4.014013292
 30
0.0
 10
6.396573595
 20
4.0125312085
 30
0.0
 10
6.3951563816
 20
4.010514984
 30
0.0
 10
6.3938001834
 20
4.0079808828
 30
0.0
 10
6.392512393
 20
4.0049476069
 30
0.0
 10
6.3913066094
 20
4.0014398129
 30
0.0
 10
6.3897586064
 20
3.9959456472
 30
0.0
 10
6.3881521389
 20
3.9881418297
 30
0.0
 10
6.3867665255
 20
3.9778745671
 30
0.0
 10
6.3859143794
 20
3.9667445915
 30
0.0
 10
6.3857212859
 20
3.9590758538
 30
0.0
 10
6.3857211933
 20
3.9551760396
 30
0.0
 11
6.401199998
 21
4.0151732091
 31
0.0
 11
6.4004429077
 21
4.0151006691
 31
0.0
 11
6.399686312
 21
4.0148835089
 31
0.0
 11
6.3981831735
 21
4.0140197477
 31
0.0
 11
6.396707721
 21
4.0125907647
 31
0.0
 11
6.3952766467
 21
4.0106069807
 31
0.0
 11
6.3939036375
 21
4.0080894632
 31
0.0
 11
6.3926011406
 21
4.0050636727
 31
0.0
 11
6.3913815228
 21
4.0015557313
 31
0.0
 11
6.3902561382
 21
3.9976003814
 31
0.0
 11
6.3883305405
 21
3.9885111416
 31
0.0
 11
6.3869000935
 21
3.97813999
 31
0.0
 11
6.3860192532
 21
3.9668716849
 31
0.0
 11
6.3857211933
 21
3.9551760396
 31
0.0
  0
SPLINE
  5
32C
100
AcDbEntity
  8
0
100
AcDbSpline
 62
7
  6
BYLAYER
 70
0
 71
3
 72
17
 73
13
 74
11
 42
0.0000001
 43
0.0000001
 44
0.0000000001
 12
0.0808049439
 22
-0.002393083
 32
0.0
 13
-0.0000019189
 23
-0.0808403723
 33
0.0
 40
0.0
 40
0.0
 40
0.0
 40
0.0
 40
0.0522132482
 40
0.1050672687
 40
0.1588646277
 40
0.21389447
 40
0.3285329645
 40
0.4505946799
 40
0.5800757156
 40
0.7160363069
 40
0.8569098064
 40
1.0
 40
1.0
 40
1.0
 40
1.0
 10
4.5223682922
 20
4.0152267412
 30
0.0
 10
4.5237746551
 20
4.015185091
 30
0.0
 10
4.5266023999
 20
4.014909871
 30
0.0
 10
4.5307832847
 20
4.0139390547
 30
0.0
 10
4.5348784895
 20
4.0124171529
 30
0.0
 10
4.5402308918
 20
4.0096296674
 30
0.0
 10
4.5465090212
 20
4.0047811205
 30
0.0
 10
4.5529455601
 20
3.9972241248
 30
0.0
 10
4.5582041269
 20
3.988143586
 30
0.0
 10
4.5620932867
 20
3.9778604745
 30
0.0
 10
4.5644749139
 20
3.9667596227
 30
0.0
 10
4.5650144232
 20
3.9590969839
 30
0.0
 10
4.5650143317
 20
3.9552411624
 30
0.0
 11
4.5223682922
 21
4.0152267412
 31
0.0
 11
4.5265696798
 21
4.0148209541
 31
0.0
 11
4.5307325693
 21
4.013858329
 31
0.0
 11
4.5348106495
 21
4.0123473523
 31
0.0
 11
4.5387597611
 21
4.0102992184
 31
0.0
 11
4.5461303563
 21
4.0046814454
 31
0.0
 11
4.5525778044
 21
3.9972116224
 31
0.0
 11
4.5578636449
 21
3.9881770135
 31
0.0
 11
4.5617858288
 21
3.9779095474
 31
0.0
 11
4.5641987536
 21
3.9667798395
 31
0.0
 11
4.5650143317
 21
3.9552411624
 31
0.0
  0
SPLINE
  5
32D
100
AcDbEntity
  8
0
100
AcDbSpline
 62
7
  6
BYLAYER
 70
0
 71
3
 72
17
 73
13
 74
11
 42
0.0000001
 43
0.0000001
 44
0.0000000001
 12
0.0728697124
 22
0.0007920484
 32
0.0
 13
0.0728413798
 23
-0.0021807598
 33
0.0
 40
0.0
 40
0.0
 40
0.0
 40
0.0
 40
0.1235761081
 40
0.2550521793
 40
0.3904318881
 40
0.5260210686
 40
0.6582382255
 40
0.7836207305
 40
0.8426843023
 40
0.8987379495
 40
0.9513237742
 40
1.0
 40
1.0
 40
1.0
 40
1.0
 10
4.4922198315
 20
3.9583835197
 30
0.0
 10
4.4952214833
 20
3.9584161458
 30
0.0
 10
4.5014180379
 20
3.9583100436
 30
0.0
 10
4.510894845
 20
3.9579465374
 30
0.0
 10
4.5206647708
 20
3.9576012446
 30
0.0
 10
4.5304521671
 20
3.9572436876
 30
0.0
 10
4.5399950206
 20
3.9568464047
 30
0.0
 10
4.5476761479
 20
3.9564225428
 30
0.0
 10
4.5535020923
 20
3.9559876744
 30
0.0
 10
4.5575633872
 20
3.9556696141
 30
0.0
 10
4.5613752758
 20
3.9553994998
 30
0.0
 10
4.5638324505
 20
3.9552765461
 30
0.0
 10
4.5650143317
 20
3.9552411624
 30
0.0
 11
4.4922198315
 21
3.9583835197
 31
0.0
 11
4.5012247522
 21
3.9582824927
 31
0.0
 11
4.5108003397
 21
3.9579549036
 31
0.0
 11
4.5206595983
 21
3.9575994736
 31
0.0
 11
4.5305336988
 21
3.9572322134
 31
0.0
 11
4.5401599535
 21
3.9568172323
 31
0.0
 11
4.5492820719
 21
3.9562937429
 31
0.0
 11
4.5535747891
 21
3.9559795536
 31
0.0
 11
4.5576477626
 21
3.9556682299
 31
0.0
 11
4.5614709557
 21
3.9554065177
 31
0.0
 11
4.5650143317
 21
3.9552411624
 31
0.0
  0
SPLINE
  5
32E
100
AcDbEntity
  8
0
100
AcDbSpline
 62
7
  6
BYLAYER
 70
0
 71
3
 72
12
 73
8
 74
6
 42
0.0000001
 43
0.0000001
 44
0.0000000001
 12
0.0732929131
 22
-0.0010653481
 32
0.0
 13
0.0730706973
 23
-0.0058016614
 33
0.0
 40
0.0
 40
0.0
 40
0.0
 40
0.0
 40
0.2556639316
 40
0.5271821893
 40
0.7847213047
 40
0.8993819848
 40
1.0
 40
1.0
 40
1.0
 40
1.0
 10
4.4785042343
 20
3.5871042159
 30
0.0
 10
4.4847503524
 20
3.5870134255
 30
0.0
 10
4.4976283508
 20
3.5867123654
 30
0.0
 10
4.5167896419
 20
3.586016733
 30
0.0
 10
4.5324997174
 20
3.5852457397
 30
0.0
 10
4.5440304754
 20
3.5845334292
 30
0.0
 10
4.5492771214
 20
3.5841563477
 30
0.0
 10
4.5517278643
 20
3.5839617638
 30
0.0
 11
4.4785042343
 21
3.5871042159
 31
0.0
 11
4.4972398183
 21
3.5866823142
 31
0.0
 11
4.517129208
 21
3.5859609696
 31
0.0
 11
4.5359835071
 21
3.5850195824
 31
0.0
 11
4.544371967
 21
3.5844973069
 31
0.0
 11
4.5517278643
 21
3.5839617638
 31
0.0
  0
SPLINE
  5
32F
100
AcDbEntity
  8
0
100
AcDbSpline
 62
7
  6
BYLAYER
 70
0
 71
3
 72
15
 73
11
 74
9
 42
0.0000001
 43
0.0000001
 44
0.0000000001
 12
0.0838608487
 22
0.000000911
 32
0.0
 13
-0.0000019905
 23
-0.0838608486
 33
0.0
 40
0.0
 40
0.0
 40
0.0
 40
0.0
 40
0.1088880256
 40
0.2208366898
 40
0.3373959993
 40
0.4597396099
 40
0.588184077
 40
0.7221445827
 40
0.8602976995
 40
1.0
 40
1.0
 40
1.0
 40
1.0
 10
4.4274202896
 20
3.5302472239
 30
0.0
 10
4.4304641037
 20
3.530247257
 30
0.0
 10
4.4366614608
 20
3.5294378157
 30
0.0
 10
4.4455181469
 20
3.5259510726
 30
0.0
 10
4.4536259495
 20
3.5202875804
 30
0.0
 10
4.4606894907
 20
3.5127420629
 30
0.0
 10
4.4664528589
 20
3.5035924299
 30
0.0
 10
4.4707357652
 20
3.4931900611
 30
0.0
 10
4.4733450958
 20
3.4819317875
 30
0.0
 10
4.473944767
 20
3.4741529139
 30
0.0
 10
4.4739446743
 20
3.4702477294
 30
0.0
 11
4.4274202896
 21
3.5302472239
 31
0.0
 11
4.4364782332
 21
3.5290909824
 31
0.0
 11
4.4452248381
 21
3.5256801889
 31
0.0
 11
4.4532716066
 21
3.5201308195
 31
0.0
 11
4.4603185882
 21
3.5126739872
 31
0.0
 11
4.4661006839
 21
3.5035859861
 31
0.0
 11
4.4704036532
 21
3.4932086962
 31
0.0
 11
4.473048291
 21
3.4819289404
 31
0.0
 11
4.4739446743
 21
3.4702477294
 31
0.0
  0
SPLINE
  5
330
100
AcDbEntity
  8
0
100
AcDbSpline
 62
7
  6
BYLAYER
 70
0
 71
3
 72
18
 73
14
 74
12
 42
0.0000001
 43
0.0000001
 44
0.0000000001
 12
0.0915292249
 22
-0.0000008165
 32
0.0
 13
-0.0000022012
 23
-0.0915292248
 33
0.0
 40
0.0
 40
0.0
 40
0.0
 40
0.0
 40
0.1211671781
 40
0.1822384095
 40
0.2435147313
 40
0.3665463229
 40
0.4285627923
 40
0.4909047128
 40
0.6165089265
 40
0.7435198137
 40
0.8075783877
 40
0.8718210091
 40
1.0
 40
1.0
 40
1.0
 40
1.0
 10
4.1049888257
 20
3.5302794007
 30
0.0
 10
4.108685605
 20
3.5302793677
 30
0.0
 10
4.1142664525
 20
3.5296858872
 30
0.0
 10
4.1214574637
 20
3.5277828727
 30
0.0
 10
4.12847271
 20
3.5251357317
 30
0.0
 10
4.135059315
 20
3.5213906173
 30
0.0
 10
4.1410006937
 20
3.5167204619
 30
0.0
 10
4.1465115819
 20
3.5114321464
 30
0.0
 10
4.1524254726
 20
3.5037772941
 30
0.0
 10
4.1568051805
 20
3.4950962267
 30
0.0
 10
4.1592902167
 20
3.4877024872
 30
0.0
 10
4.1610863892
 20
3.4800783853
 30
0.0
 10
4.1616420415
 20
3.4741896032
 30
0.0
 10
4.1616419475
 20
3.4702788954
 30
0.0
 11
4.1049888257
 21
3.5302794007
 31
0.0
 11
4.1160187054
 21
3.529122963
 31
0.0
 11
4.1214227315
 21
3.5276938398
 31
0.0
 11
4.126669477
 21
3.5257119802
 31
0.0
 11
4.1364680678
 21
3.5201624372
 31
0.0
 11
4.1409319699
 21
3.5166561315
 31
0.0
 11
4.145049227
 21
3.5127054532
 31
0.0
 11
4.152090141
 21
3.503617327
 31
0.0
 11
4.1573299264
 21
3.4932399424
 31
0.0
 11
4.1592011055
 21
3.4876833091
 31
0.0
 11
4.1605503624
 21
3.4819601268
 31
0.0
 11
4.1616419475
 21
3.4702788954
 31
0.0
  0
SPLINE
  5
331
100
AcDbEntity
  8
0
100
AcDbSpline
 62
7
  6
BYLAYER
 70
0
 71
3
 72
20
 73
16
 74
14
 42
0.0000001
 43
0.0000001
 44
0.0000000001
 12
0.0690162985
 22
0.0000001634
 32
0.0
 13
0.001765091
 23
0.0689937237
 33
0.0
 40
0.0
 40
0.0
 40
0.0
 40
0.0
 40
0.0402200721
 40
0.0817177589
 40
0.1254100013
 40
0.1720343043
 40
0.2221489745
 40
0.2760793315
 40
0.3339579322
 40
0.3957901271
 40
0.4614771677
 40
0.5307789191
 40
0.6788699887
 40
0.8369193763
 40
1.0
 40
1.0
 40
1.0
 40
1.0
 10
6.9791755424
 20
3.5301485459
 30
0.0
 10
6.9801008226
 20
3.5301485481
 30
0.0
 10
6.9819854281
 20
3.5303380448
 30
0.0
 10
6.984764217
 20
3.5311684264
 30
0.0
 10
6.9874887236
 20
3.5325310645
 30
0.0
 10
6.9901295408
 20
3.5344118602
 30
0.0
 10
6.9926584821
 20
3.5367958145
 30
0.0
 10
6.995059601
 20
3.5396530581
 30
0.0
 10
6.9973159465
 20
3.542956432
 30
0.0
 10
6.9994088128
 20
3.5466782488
 30
0.0
 10
7.0013183392
 20
3.5507883518
 30
0.0
 10
7.003653567
 20
3.5568719967
 30
0.0
 10
7.0059828282
 20
3.5652116383
 30
0.0
 10
7.007768793
 20
3.5758737047
 30
0.0
 10
7.0083015209
 20
3.5832549592
 30
0.0
 10
7.0083974716
 20
3.5870054724
 30
0.0
 11
6.9791755424
 21
3.5301485459
 31
0.0
 11
6.9819380534
 21
3.5304202512
 31
0.0
 11
6.984685505
 21
3.5312290166
 31
0.0
 11
6.9873887159
 21
3.5325653366
 31
0.0
 11
6.990018505
 21
3.5344197054
 31
0.0
 11
6.9925472222
 21
3.5367794502
 31
0.0
 11
6.9949533351
 21
3.5396192482
 31
0.0
 11
6.9972168383
 21
3.5429106183
 31
0.0
 11
6.9993177265
 21
3.5466250793
 31
0.0
 11
7.0012368426
 21
3.550732317
 31
0.0
 11
7.0029584196
 21
3.5551946916
 31
0.0
 11
7.0057492743
 21
3.5650269745
 31
0.0
 11
7.0075826105
 21
3.5757797875
 31
0.0
 11
7.0083974716
 21
3.5870054724
 31
0.0
  0
SPLINE
  5
332
100
AcDbEntity
  8
0
100
AcDbSpline
 62
7
  6
BYLAYER
 70
0
 71
3
 72
20
 73
16
 74
14
 42
0.0000001
 43
0.0000001
 44
0.0000000001
 12
0.0690163011
 22
0.0000001635
 32
0.0
 13
0.0017650781
 23
0.0689937267
 33
0.0
 40
0.0
 40
0.0
 40
0.0
 40
0.0
 40
0.0402200881
 40
0.0817177942
 40
0.1254100571
 40
0.1720343779
 40
0.2221490616
 40
0.2760794304
 40
0.3339580398
 40
0.3957902368
 40
0.4614772738
 40
0.5307790186
 40
0.6788700553
 40
0.836919398
 40
1.0
 40
1.0
 40
1.0
 40
1.0
 10
7.1378731671
 20
3.5301485459
 30
0.0
 10
7.1387984476
 20
3.5301485481
 30
0.0
 10
7.140683054
 20
3.530338045
 30
0.0
 10
7.1434618442
 20
3.5311684273
 30
0.0
 10
7.1461863521
 20
3.532531066
 30
0.0
 10
7.1488271707
 20
3.534411862
 30
0.0
 10
7.1513561131
 20
3.5367958168
 30
0.0
 10
7.1537572323
 20
3.5396530613
 30
0.0
 10
7.1560135778
 20
3.5429564361
 30
0.0
 10
7.158106444
 20
3.5466782533
 30
0.0
 10
7.16001597
 20
3.5507883565
 30
0.0
 10
7.1623511965
 20
3.5568720011
 30
0.0
 10
7.1646804563
 20
3.5652116414
 30
0.0
 10
7.1664664195
 20
3.5758737061
 30
0.0
 10
7.1669991457
 20
3.5832549595
 30
0.0
 10
7.1670950957
 20
3.5870054724
 30
0.0
 11
7.1378731671
 21
3.5301485459
 31
0.0
 11
7.1406356792
 21
3.5304202514
 31
0.0
 11
7.1433831321
 21
3.5312290175
 31
0.0
 11
7.1460863445
 21
3.5325653382
 31
0.0
 11
7.1487161349
 21
3.5344197073
 31
0.0
 11
7.1512448531
 21
3.5367794526
 31
0.0
 11
7.1536509665
 21
3.5396192514
 31
0.0
 11
7.1559144697
 21
3.5429106224
 31
0.0
 11
7.1580153577
 21
3.5466250839
 31
0.0
 11
7.1599344734
 21
3.5507323218
 31
0.0
 11
7.1616560496
 21
3.5551946964
 31
0.0
 11
7.1644469025
 21
3.5650269778
 31
0.0
 11
7.1662802368
 21
3.5757797884
 31
0.0
 11
7.1670950957
 21
3.5870054724
 31
0.0
  0
SPLINE
  5
333
100
AcDbEntity
  8
0
100
AcDbSpline
 62
7
  6
BYLAYER
 70
0
 71
3
 72
17
 73
13
 74
11
 42
0.0000001
 43
0.0000001
 44
0.0000000001
 12
-0.0944100191
 22
-0.0000069488
 32
0.0
 13
-0.0054549347
 23
0.0942522967
 33
0.0
 40
0.0
 40
0.0
 40
0.0
 40
0.0
 40
0.1238422682
 40
0.2482424709
 40
0.3729699368
 40
0.4980251923
 40
0.6233043087
 40
0.6860526684
 40
0.7488354526
 40
0.8116496096
 40
0.874532715
 40
1.0
 40
1.0
 40
1.0
 40
1.0
 10
6.5373558505
 20
3.5301717552
 30
0.0
 10
6.5334585335
 20
3.5301714684
 30
0.0
 10
6.5256300126
 20
3.5308751619
 30
0.0
 10
6.5142436111
 20
3.5339443127
 30
0.0
 10
6.5035162583
 20
3.5389453801
 30
0.0
 10
6.4937997223
 20
3.5457522158
 30
0.0
 10
6.4868428649
 20
3.552817727
 30
0.0
 10
6.4821596269
 20
3.5591844508
 30
0.0
 10
6.4791314957
 20
3.5642914176
 30
0.0
 10
6.4766331878
 20
3.5696837898
 30
0.0
 10
6.4740786424
 20
3.5771738373
 30
0.0
 10
6.4730705266
 20
3.5830773261
 30
0.0
 10
6.472842388
 20
3.587019186
 30
0.0
 11
6.5373558505
 21
3.5301717552
 31
0.0
 11
6.5257098082
 21
3.5312068475
 31
0.0
 11
6.5143691589
 21
3.5342606815
 31
0.0
 11
6.5036976937
 21
3.5392389101
 31
0.0
 11
6.4940357914
 21
3.5460242146
 31
0.0
 11
6.4857495613
 21
3.554464037
 31
0.0
 11
6.4822416597
 21
3.5592378486
 31
0.0
 11
6.4792205809
 21
3.564337481
 31
0.0
 11
6.476730915
 21
3.569719846
 31
0.0
 11
6.474816334
 21
3.5753394472
 31
0.0
 11
6.472842388
 21
3.587019186
 31
0.0
  0
SPLINE
  5
334
100
AcDbEntity
  8
0
100
AcDbSpline
 62
7
  6
BYLAYER
 70
0
 71
3
 72
15
 73
11
 74
9
 42
0.0000001
 43
0.0000001
 44
0.0000000001
 12
-0.0850864641
 22
0.0000086926
 32
0.0
 13
-0.0038868376
 23
0.0849976408
 33
0.0
 40
0.0
 40
0.0
 40
0.0
 40
0.0
 40
0.1166093333
 40
0.2349028757
 40
0.3553682535
 40
0.4786939651
 40
0.6052221701
 40
0.7348356495
 40
0.8669617943
 40
1.0
 40
1.0
 40
1.0
 40
1.0
 10
6.6530462128
 20
3.530160211
 30
0.0
 10
6.6497389209
 20
3.5301605488
 30
0.0
 10
6.6430566807
 20
3.5309047495
 30
0.0
 10
6.6334316715
 20
3.5341313889
 30
0.0
 10
6.6245338569
 20
3.5394048054
 30
0.0
 10
6.6166816412
 20
3.5464786408
 30
0.0
 10
6.6101534982
 20
3.5551116913
 30
0.0
 10
6.6051532696
 20
3.5649882236
 30
0.0
 10
6.6018922225
 20
3.5757531449
 30
0.0
 10
6.6009156595
 20
3.5832507421
 30
0.0
 10
6.6007432936
 20
3.5870200533
 30
0.0
 11
6.6530462128
 21
3.530160211
 31
0.0
 11
6.6431834452
 21
3.5312416155
 31
0.0
 11
6.6336376469
 21
3.5344330994
 31
0.0
 11
6.6248047458
 21
3.5396332731
 31
0.0
 11
6.6169930652
 21
3.5466395571
 31
0.0
 11
6.6104769056
 21
3.5552094418
 31
0.0
 11
6.6054820224
 21
3.5650418223
 31
0.0
 11
6.6022011269
 21
3.57579457
 31
0.0
 11
6.6007432936
 21
3.5870200533
 31
0.0
  0
SPLINE
  5
335
100
AcDbEntity
  8
0
100
AcDbSpline
 62
7
  6
BYLAYER
 70
0
 71
3
 72
18
 73
14
 74
12
 42
0.0000001
 43
0.0000001
 44
0.0000000001
 12
-0.0776305084
 22
-0.000518079
 32
0.0
 13
-0.0000018427
 23
-0.0776322371
 33
0.0
 40
0.0
 40
0.0
 40
0.0
 40
0.0
 40
0.0476884023
 40
0.0962635841
 40
0.1462462296
 40
0.1980822195
 40
0.2521521973
 40
0.3087281079
 40
0.4297371879
 40
0.561323098
 40
0.7020889177
 40
0.8496375658
 40
1.0
 40
1.0
 40
1.0
 40
1.0
 10
7.1143720115
 20
3.5301712359
 30
0.0
 10
7.1131379866
 20
3.5301630005
 30
0.0
 10
7.1106442914
 20
3.5299477636
 30
0.0
 10
7.1069542795
 20
3.5290497626
 30
0.0
 10
7.1033332793
 20
3.527588084
 30
0.0
 10
7.0998237629
 20
3.5255750063
 30
0.0
 10
7.096467361
 20
3.5230247495
 30
0.0
 10
7.0921373302
 20
3.5188631785
 30
0.0
 10
7.0872914585
 20
3.5124273591
 30
0.0
 10
7.0826630444
 20
3.5033152074
 30
0.0
 10
7.0792209617
 20
3.4929694916
 30
0.0
 10
7.0771242119
 20
3.4817826096
 30
0.0
 10
7.076642252
 20
3.4740656228
 30
0.0
 10
7.0766421596
 20
3.470174632
 30
0.0
 11
7.1143720115
 21
3.5301712359
 31
0.0
 11
7.1106831712
 21
3.5298575061
 31
0.0
 11
7.1070174366
 21
3.5289727288
 31
0.0
 11
7.1034162723
 21
3.5275277136
 31
0.0
 11
7.0999211429
 21
3.5255332703
 31
0.0
 11
7.0965710564
 21
3.5230041317
 31
0.0
 11
7.0933960937
 21
3.5199692871
 31
0.0
 11
7.0876837551
 21
3.5125113861
 31
0.0
 11
7.0829979557
 21
3.5034341722
 31
0.0
 11
7.0795114494
 21
3.4930773047
 31
0.0
 11
7.0773687259
 21
3.4818249702
 31
0.0
 11
7.0766421596
 21
3.470174632
 31
0.0
  0
SPLINE
  5
336
100
AcDbEntity
  8
0
100
AcDbSpline
 62
7
  6
BYLAYER
 70
0
 71
3
 72
36
 73
32
 74
30
 42
0.0000001
 43
0.0000001
 44
0.0000000001
 12
-0.0153364845
 22
-0.1526963352
 32
0.0
 13
-0.1534536212
 23
0.0018343035
 33
0.0
 40
0.0
 40
0.0
 40
0.0
 40
0.0
 40
0.0000979356
 40
0.0003146004
 40
0.0006611501
 40
0.0011397018
 40
0.0017509712
 40
0.0024952654
 40
0.0043834104
 40
0.0068046121
 40
0.0097588514
 40
0.0132459414
 40
0.0172656166
 40
0.0218175695
 40
0.0269014675
 40
0.0386603885
 40
0.0525254305
 40
0.0684773639
 40
0.0864969163
 40
0.1065647903
 40
0.1286616737
 40
0.1527681688
 40
0.2069008404
 40
0.268694548
 40
0.337868182
 40
0.4141350027
 40
0.4971626945
 40
0.5865967729
 40
0.6820806576
 40
0.7831760119
 40
1.0
 40
1.0
 40
1.0
 40
1.0
 10
8.1017577053
 20
3.5859838466
 30
0.0
 10
8.1017572046
 20
3.5859788618
 30
0.0
 10
8.1017393351
 20
3.5859701187
 30
0.0
 10
8.1017091997
 20
3.5859626018
 30
0.0
 10
8.1016551815
 20
3.5859533325
 30
0.0
 10
8.1015828197
 20
3.5859448633
 30
0.0
 10
8.1014891417
 20
3.5859362453
 30
0.0
 10
8.1013237528
 20
3.5859242466
 30
0.0
 10
8.1010654985
 20
3.5859106431
 30
0.0
 10
8.1006942376
 20
3.585896253
 30
0.0
 10
8.1002410544
 20
3.5858829332
 30
0.0
 10
8.0997060643
 20
3.5858707158
 30
0.0
 10
8.0990892983
 20
3.5858596479
 30
0.0
 10
8.0983908211
 20
3.5858497455
 30
0.0
 10
8.0972964412
 20
3.5858375293
 30
0.0
 10
8.0957256228
 20
3.5858259206
 30
0.0
 10
8.093598829
 20
3.5858172239
 30
0.0
 10
8.0911517592
 20
3.585813284
 30
0.0
 10
8.0883873821
 20
3.5858141192
 30
0.0
 10
8.0853086662
 20
3.5858197598
 30
0.0
 10
8.0819185849
 20
3.5858302151
 30
0.0
 10
8.0767859513
 20
3.5858514426
 30
0.0
 10
8.0696226943
 20
3.5858908762
 30
0.0
 10
8.0601541464
 20
3.5859553426
 30
0.0
 10
8.0495534361
 20
3.5860384914
 30
0.0
 10
8.03786662
 20
3.5861400637
 30
0.0
 10
8.0251435042
 20
3.5862596135
 30
0.0
 10
8.0114374654
 20
3.586396616
 30
0.0
 10
7.9968073024
 20
3.5865504974
 30
0.0
 10
7.975660992
 20
3.5867827052
 30
0.0
 10
7.9593989668
 20
3.5869715766
 30
0.0
 10
7.948308158
 20
3.5871041503
 30
0.0
 11
8.1017577053
 21
3.5859838466
 31
0.0
 11
8.1017464211
 21
3.585973919
 31
0.0
 11
8.1017145971
 21
3.5859642846
 31
0.0
 11
8.1016622407
 21
3.5859549439
 31
0.0
 11
8.1015893593
 21
3.5859458974
 31
0.0
 11
8.1014959602
 21
3.5859371459
 31
0.0
 11
8.1013820508
 21
3.5859286897
 31
0.0
 11
8.1010927308
 21
3.5859126659
 31
0.0
 11
8.1007214584
 21
3.5858978305
 31
0.0
 11
8.1002682926
 21
3.585884188
 31
0.0
 11
8.0997332925
 21
3.5858717429
 31
0.0
 11
8.0991165172
 21
3.5858604997
 31
0.0
 11
8.0984180257
 21
3.5858504628
 31
0.0
 11
8.0976378774
 21
3.5858416368
 31
0.0
 11
8.0958333538
 21
3.585827628
 31
0.0
 11
8.0937055806
 21
3.5858184781
 31
0.0
 11
8.0912575275
 21
3.585814187
 31
0.0
 11
8.0884921645
 21
3.5858147548
 31
0.0
 11
8.0854124613
 21
3.5858201813
 31
0.0
 11
8.0820213879
 21
3.5858304666
 31
0.0
 11
8.0783219257
 21
3.5858456104
 31
0.0
 11
8.0700145985
 21
3.5858904043
 31
0.0
 11
8.0605316683
 21
3.5859543162
 31
0.0
 11
8.0499162879
 21
3.5860370716
 31
0.0
 11
8.0382124704
 21
3.5861383748
 31
0.0
 11
8.0254712195
 21
3.58625776
 31
0.0
 11
8.0117469388
 21
3.5863946782
 31
0.0
 11
7.9970943523
 21
3.5865485764
 31
0.0
 11
7.9815807291
 21
3.5867187418
 31
0.0
 11
7.948308158
 21
3.5871041503
 31
0.0
  0
SPLINE
  5
337
100
AcDbEntity
  8
0
100
AcDbSpline
 62
7
  6
BYLAYER
 70
0
 71
3
 72
20
 73
16
 74
14
 42
0.0000001
 43
0.0000001
 44
0.0000000001
 12
-0.0690163008
 22
-0.0000001636
 32
0.0
 13
-0.0017650794
 23
-0.0689937263
 33
0.0
 40
0.0
 40
0.0
 40
0.0
 40
0.0
 40
0.0402200911
 40
0.0817178068
 40
0.1254100837
 40
0.1720344182
 40
0.2221491139
 40
0.2760794953
 40
0.3339581155
 40
0.3957903175
 40
0.4614773543
 40
0.5307790965
 40
0.6788701078
 40
0.836919412
 40
1.0
 40
1.0
 40
1.0
 40
1.0
 10
4.2712871724
 20
4.015240444
 30
0.0
 10
4.2703618917
 20
4.0152404418
 30
0.0
 10
4.2684772851
 20
4.0150509446
 30
0.0
 10
4.2656984945
 20
4.0142205616
 30
0.0
 10
4.2629739861
 20
4.0128579222
 30
0.0
 10
4.2603331665
 20
4.010977126
 30
0.0
 10
4.2578042234
 20
4.0085931706
 30
0.0
 10
4.2554031042
 20
4.005735925
 30
0.0
 10
4.253146759
 20
4.0024325493
 30
0.0
 10
4.251053893
 20
3.9987107316
 30
0.0
 10
4.2491443673
 20
3.9946006282
 30
0.0
 10
4.2468091418
 20
3.9885169839
 30
0.0
 10
4.2444798826
 20
3.9801773452
 30
0.0
 10
4.2426939196
 20
3.9695152823
 30
0.0
 10
4.2421611938
 20
3.9621340301
 30
0.0
 10
4.2420652438
 20
3.9583835176
 30
0.0
 11
4.2712871724
 21
4.015240444
 31
0.0
 11
4.2685246601
 21
4.0149687382
 31
0.0
 11
4.2657772067
 21
4.0141599715
 31
0.0
 11
4.2630739936
 21
4.0128236501
 31
0.0
 11
4.2604442023
 21
4.0109692806
 31
0.0
 11
4.2579154835
 21
4.0086095348
 31
0.0
 11
4.25550937
 21
4.0057697349
 31
0.0
 11
4.2532458669
 21
4.0024783629
 31
0.0
 11
4.2511449792
 21
3.9987639009
 31
0.0
 11
4.2492258639
 21
3.9946566629
 31
0.0
 11
4.2475042883
 21
3.9901942883
 31
0.0
 11
4.2447134363
 21
3.9803620085
 31
0.0
 11
4.2428801024
 21
3.9696092006
 31
0.0
 11
4.2420652438
 21
3.9583835176
 31
0.0
  0
SPLINE
  5
338
100
AcDbEntity
  8
0
100
AcDbSpline
 62
7
  6
BYLAYER
 70
0
 71
3
 72
36
 73
32
 74
30
 42
0.0000001
 43
0.0000001
 44
0.0000000001
 12
-0.0153364845
 22
-0.1526963351
 32
0.0
 13
-0.1534536212
 23
0.0018343035
 33
0.0
 40
0.0
 40
0.0
 40
0.0
 40
0.0
 40
0.0000979356
 40
0.0003146004
 40
0.0006611501
 40
0.0011397018
 40
0.0017509712
 40
0.0024952654
 40
0.0043834104
 40
0.0068046121
 40
0.0097588514
 40
0.0132459414
 40
0.0172656166
 40
0.0218175695
 40
0.0269014675
 40
0.0386603885
 40
0.0525254305
 40
0.0684773639
 40
0.0864969163
 40
0.1065647903
 40
0.1286616737
 40
0.1527681688
 40
0.2069008404
 40
0.268694548
 40
0.337868182
 40
0.4141350027
 40
0.4971626945
 40
0.5865967729
 40
0.6820806576
 40
0.7831760119
 40
1.0
 40
1.0
 40
1.0
 40
1.0
 10
7.3205446429
 20
3.5858851687
 30
0.0
 10
7.3205441422
 20
3.5858801839
 30
0.0
 10
7.3205262727
 20
3.5858714408
 30
0.0
 10
7.3204961373
 20
3.5858639239
 30
0.0
 10
7.3204421191
 20
3.5858546545
 30
0.0
 10
7.3203697573
 20
3.5858461853
 30
0.0
 10
7.3202760793
 20
3.5858375674
 30
0.0
 10
7.3201106904
 20
3.5858255686
 30
0.0
 10
7.3198524361
 20
3.5858119652
 30
0.0
 10
7.3194811752
 20
3.5857975751
 30
0.0
 10
7.319027992
 20
3.5857842553
 30
0.0
 10
7.3184930019
 20
3.5857720379
 30
0.0
 10
7.3178762359
 20
3.58576097
 30
0.0
 10
7.3171777587
 20
3.5857510676
 30
0.0
 10
7.3160833788
 20
3.5857388513
 30
0.0
 10
7.3145125604
 20
3.5857272426
 30
0.0
 10
7.3123857666
 20
3.585718546
 30
0.0
 10
7.3099386968
 20
3.5857146061
 30
0.0
 10
7.3071743197
 20
3.5857154413
 30
0.0
 10
7.3040956038
 20
3.5857210819
 30
0.0
 10
7.3007055225
 20
3.5857315371
 30
0.0
 10
7.2955728889
 20
3.5857527647
 30
0.0
 10
7.2884096319
 20
3.5857921983
 30
0.0
 10
7.2789410841
 20
3.5858566647
 30
0.0
 10
7.2683403737
 20
3.5859398135
 30
0.0
 10
7.2566535576
 20
3.5860413858
 30
0.0
 10
7.2439304418
 20
3.5861609356
 30
0.0
 10
7.230224403
 20
3.5862979381
 30
0.0
 10
7.21559424
 20
3.5864518195
 30
0.0
 10
7.1944479296
 20
3.5866840272
 30
0.0
 10
7.1781859044
 20
3.5868728987
 30
0.0
 10
7.1670950957
 20
3.5870054724
 30
0.0
 11
7.3205446429
 21
3.5858851687
 31
0.0
 11
7.3205333587
 21
3.5858752411
 31
0.0
 11
7.3205015347
 21
3.5858656066
 31
0.0
 11
7.3204491783
 21
3.5858562659
 31
0.0
 11
7.3203762969
 21
3.5858472195
 31
0.0
 11
7.3202828978
 21
3.585838468
 31
0.0
 11
7.3201689884
 21
3.5858300118
 31
0.0
 11
7.3198796684
 21
3.585813988
 31
0.0
 11
7.319508396
 21
3.5857991526
 31
0.0
 11
7.3190552302
 21
3.5857855101
 31
0.0
 11
7.3185202301
 21
3.585773065
 31
0.0
 11
7.3179034548
 21
3.5857618217
 31
0.0
 11
7.3172049634
 21
3.5857517849
 31
0.0
 11
7.316424815
 21
3.5857429588
 31
0.0
 11
7.3146202914
 21
3.58572895
 31
0.0
 11
7.3124925182
 21
3.5857198001
 31
0.0
 11
7.3100444651
 21
3.5857155091
 31
0.0
 11
7.3072791021
 21
3.5857160769
 31
0.0
 11
7.3041993989
 21
3.5857215034
 31
0.0
 11
7.3008083255
 21
3.5857317886
 31
0.0
 11
7.2971088633
 21
3.5857469324
 31
0.0
 11
7.2888015361
 21
3.5857917263
 31
0.0
 11
7.2793186059
 21
3.5858556383
 31
0.0
 11
7.2687032255
 21
3.5859383936
 31
0.0
 11
7.256999408
 21
3.5860396969
 31
0.0
 11
7.2442581571
 21
3.586159082
 31
0.0
 11
7.2305338764
 21
3.5862960003
 31
0.0
 11
7.21588129
 21
3.5864498985
 31
0.0
 11
7.2003676667
 21
3.5866200639
 31
0.0
 11
7.1670950957
 21
3.5870054724
 31
0.0
  0
SPLINE
  5
339
100
AcDbEntity
  8
0
100
AcDbSpline
 62
7
  6
BYLAYER
 70
0
 71
3
 72
19
 73
15
 74
13
 42
0.0000001
 43
0.0000001
 44
0.0000000001
 12
-0.0683068215
 22
-0.0030940902
 32
0.0
 13
-0.0017487251
 23
-0.0683544967
 33
0.0
 40
0.0
 40
0.0
 40
0.0
 40
0.0
 40
0.0402621728
 40
0.0819423617
 40
0.1259041871
 40
0.1728476227
 40
0.2232715013
 40
0.2774804437
 40
0.3356280858
 40
0.3976765366
 40
0.5326406848
 40
0.6802969058
 40
0.8375532142
 40
1.0
 40
1.0
 40
1.0
 40
1.0
 10
4.5208035401
 20
4.0152259767
 30
0.0
 10
4.5198868131
 20
4.0151844517
 30
0.0
 10
4.5180250839
 20
4.0149163916
 30
0.0
 10
4.5152945362
 20
4.0139890054
 30
0.0
 10
4.5126248423
 20
4.0125453882
 30
0.0
 10
4.5100453903
 20
4.0105985534
 30
0.0
 10
4.5075734952
 20
4.008173262
 30
0.0
 10
4.5052263869
 20
4.0052913176
 30
0.0
 10
4.5030241673
 20
4.0019754049
 30
0.0
 10
4.5002237231
 20
3.9968719882
 30
0.0
 10
4.4972398664
 20
3.989576195
 30
0.0
 10
4.4945780835
 20
3.9798902316
 30
0.0
 10
4.4928318143
 20
3.9693652346
 30
0.0
 10
4.4923145229
 20
3.9620848404
 30
0.0
 10
4.4922198313
 20
3.9583835176
 30
0.0
 11
4.5208035401
 21
4.0152259767
 31
0.0
 11
4.5180777265
 21
4.0148400304
 31
0.0
 11
4.5153754984
 21
4.0139343602
 31
0.0
 11
4.5127249384
 21
4.0125164755
 31
0.0
 11
4.5101528987
 21
4.0105961328
 31
0.0
 11
4.507681126
 21
4.0081924174
 31
0.0
 11
4.5053300422
 21
4.0053268345
 31
0.0
 11
4.5031198887
 21
4.0020217738
 31
0.0
 11
4.5010692897
 21
3.9983075628
 31
0.0
 11
4.4975177025
 21
3.9897899308
 31
0.0
 11
4.4948016881
 21
3.9800658414
 31
0.0
 11
4.4930150717
 21
3.9694626152
 31
0.0
 11
4.4922198313
 21
3.9583835176
 31
0.0
  0
SPLINE
  5
33A
100
AcDbEntity
  8
0
100
AcDbSpline
 62
7
  6
BYLAYER
 70
0
 71
3
 72
15
 73
11
 74
9
 42
0.0000001
 43
0.0000001
 44
0.0000000001
 12
0.0850864639
 22
-0.0000086927
 32
0.0
 13
0.0038868389
 23
-0.0849976406
 33
0.0
 40
0.0
 40
0.0
 40
0.0
 40
0.0
 40
0.1166093475
 40
0.2349029224
 40
0.35536832
 40
0.4786940364
 40
0.6052222321
 40
0.7348356893
 40
0.8669618051
 40
1.0
 40
1.0
 40
1.0
 40
1.0
 10
3.6744733291
 20
4.0152686822
 30
0.0
 10
3.6777806214
 20
4.0152683443
 30
0.0
 10
3.6844628628
 20
4.0145241424
 30
0.0
 10
3.6940878738
 20
4.0112975027
 30
0.0
 10
3.7029856896
 20
4.0060240848
 30
0.0
 10
3.7108379045
 20
3.9989502479
 30
0.0
 10
3.717366046
 20
3.9903171973
 30
0.0
 10
3.7223662733
 20
3.9804406663
 30
0.0
 10
3.7256273201
 20
3.9696757468
 30
0.0
 10
3.7266038823
 20
3.9621781507
 30
0.0
 10
3.7267762483
 20
3.9584088398
 30
0.0
 11
3.6744733291
 21
4.0152686822
 31
0.0
 11
3.6843360978
 21
4.0141872767
 31
0.0
 11
3.6938818987
 21
4.0109957918
 31
0.0
 11
3.7027148009
 21
4.0057956167
 31
0.0
 11
3.7105264808
 21
3.9987893314
 31
0.0
 11
3.7170426389
 21
3.9902194466
 31
0.0
 11
3.7220375207
 21
3.9803870676
 31
0.0
 11
3.7253184155
 21
3.9696343222
 31
0.0
 11
3.7267762483
 21
3.9584088398
 31
0.0
  0
SPLINE
  5
33B
100
AcDbEntity
  8
0
100
AcDbSpline
 62
7
  6
BYLAYER
 70
0
 71
3
 72
15
 73
11
 74
9
 42
0.0000001
 43
0.0000001
 44
0.0000000001
 12
0.0850864639
 22
-0.0000086926
 32
0.0
 13
0.0038868397
 23
-0.0849976405
 33
0.0
 40
0.0
 40
0.0
 40
0.0
 40
0.0
 40
0.1166093334
 40
0.2349028757
 40
0.3553682532
 40
0.4786939643
 40
0.6052221688
 40
0.7348356483
 40
0.8669617937
 40
1.0
 40
1.0
 40
1.0
 40
1.0
 10
3.7821081471
 20
4.0152579408
 30
0.0
 10
3.785415439
 20
4.015257603
 30
0.0
 10
3.7920976791
 20
4.0145134023
 30
0.0
 10
3.8017226884
 20
4.0112867629
 30
0.0
 10
3.8106205028
 20
4.0060133464
 30
0.0
 10
3.8184727185
 20
3.998939511
 30
0.0
 10
3.8250008614
 20
3.9903064604
 30
0.0
 10
3.8300010899
 20
3.9804299281
 30
0.0
 10
3.8332621371
 20
3.9696650069
 30
0.0
 10
3.8342387002
 20
3.9621674097
 30
0.0
 10
3.8344110663
 20
3.9583980985
 30
0.0
 11
3.7821081471
 21
4.0152579408
 31
0.0
 11
3.7919709147
 21
4.0141765363
 31
0.0
 11
3.8015167129
 21
4.0109850524
 31
0.0
 11
3.810349614
 21
4.0057848787
 31
0.0
 11
3.8181612945
 21
3.9987785947
 31
0.0
 11
3.824677454
 21
3.99020871
 31
0.0
 11
3.8296723371
 21
3.9803763295
 31
0.0
 11
3.8329532328
 21
3.9696235818
 31
0.0
 11
3.8344110663
 21
3.9583980985
 31
0.0
  0
SPLINE
  5
33C
100
AcDbEntity
  8
0
100
AcDbSpline
 62
7
  6
BYLAYER
 70
0
 71
3
 72
35
 73
31
 74
29
 42
0.0000001
 43
0.0000001
 44
0.0000000001
 12
0.0100000621
 22
0.1533005003
 32
0.0
 13
-0.1536153823
 23
-0.0018327473
 33
0.0
 40
0.0
 40
0.0
 40
0.0
 40
0.0
 40
0.0000892007
 40
0.0002954527
 40
0.0006317578
 40
0.0011004472
 40
0.0024377679
 40
0.0043103591
 40
0.0067192973
 40
0.0096646897
 40
0.0131453009
 40
0.0171596624
 40
0.0217062643
 40
0.0267835731
 40
0.0385241035
 40
0.0523687797
 40
0.0683050404
 40
0.0863195463
 40
0.1063910827
 40
0.1284936772
 40
0.152601282
 40
0.2067272969
 40
0.2685477462
 40
0.3377690947
 40
0.4140727484
 40
0.4971324562
 40
0.5865844589
 40
0.6820534696
 40
0.7831362628
 40
1.0
 40
1.0
 40
1.0
 40
1.0
 10
7.3471916649
 20
3.9594200497
 30
0.0
 10
7.3471919622
 20
3.9594246079
 30
0.0
 10
7.3471749222
 20
3.9594341548
 30
0.0
 10
7.3471464547
 20
3.9594406026
 30
0.0
 10
7.3470937871
 20
3.9594501165
 30
0.0
 10
7.3469857589
 20
3.9594624103
 30
0.0
 10
7.3467971457
 20
3.959476836
 30
0.0
 10
7.346510142
 20
3.9594916282
 30
0.0
 10
7.3461401767
 20
3.9595056478
 30
0.0
 10
7.3456879813
 20
3.9595185585
 30
0.0
 10
7.3451534535
 20
3.9595303803
 30
0.0
 10
7.3445369157
 20
3.9595410513
 30
0.0
 10
7.3438385782
 20
3.9595505633
 30
0.0
 10
7.3427445933
 20
3.9595622428
 30
0.0
 10
7.3411744367
 20
3.9595732248
 30
0.0
 10
7.3390481863
 20
3.9595812179
 30
0.0
 10
7.3366006405
 20
3.9595844621
 30
0.0
 10
7.3338342239
 20
3.9595829244
 30
0.0
 10
7.3307520433
 20
3.9595765856
 30
0.0
 10
7.3273578546
 20
3.9595654511
 30
0.0
 10
7.3222198072
 20
3.9595433289
 30
0.0
 10
7.3150479214
 20
3.9595028694
 30
0.0
 10
7.3055659307
 20
3.959437215
 30
0.0
 10
7.2949483573
 20
3.9593529957
 30
0.0
 10
7.283243262
 20
3.9592505931
 30
0.0
 10
7.2705022987
 20
3.9591304166
 30
0.0
 10
7.2567800229
 20
3.9589929678
 30
0.0
 10
7.2421349302
 20
3.958838792
 30
0.0
 10
7.2209657047
 20
3.9586062573
 30
0.0
 10
7.2046851476
 20
3.9584173251
 30
0.0
 10
7.1935806123
 20
3.9582848397
 30
0.0
 11
7.3471916649
 21
3.9594200497
 31
0.0
 11
7.3471820128
 21
3.9594297772
 31
0.0
 11
7.3471517645
 21
3.9594392127
 31
0.0
 11
7.3471009146
 21
3.9594483555
 31
0.0
 11
7.3470294574
 21
3.9594572046
 31
0.0
 11
7.346824699
 21
3.9594740188
 31
0.0
 11
7.3465374446
 21
3.9594896489
 31
0.0
 11
7.3461676501
 21
3.9595040884
 31
0.0
 11
7.3457153542
 21
3.9595173322
 31
0.0
 11
7.3451807764
 21
3.9595293781
 31
0.0
 11
7.3445641602
 21
3.9595402244
 31
0.0
 11
7.3438657491
 21
3.9595498693
 31
0.0
 11
7.3430857866
 21
3.9595583112
 31
0.0
 11
7.341282181
 21
3.9595715788
 31
0.0
 11
7.3391552911
 21
3.9595800131
 31
0.0
 11
7.3367070647
 21
3.9595836004
 31
0.0
 11
7.3339395628
 21
3.9595823281
 31
0.0
 11
7.3308560528
 21
3.9595762008
 31
0.0
 11
7.3274605303
 21
3.959565233
 31
0.0
 11
7.3237570015
 21
3.9595494393
 31
0.0
 11
7.3154419486
 21
3.9595034326
 31
0.0
 11
7.3059449239
 21
3.9594383339
 31
0.0
 11
7.2953110337
 21
3.9593544959
 31
0.0
 11
7.2835892297
 21
3.9592523407
 31
0.0
 11
7.2708296374
 21
3.9591323079
 31
0.0
 11
7.2570881427
 21
3.9589949218
 31
0.0
 11
7.2424224009
 21
3.958840733
 31
0.0
 11
7.2268943585
 21
3.9586703604
 31
0.0
 11
7.1935806123
 21
3.9582848397
 31
0.0
  0
SPLINE
  5
33D
100
AcDbEntity
  8
0
100
AcDbSpline
 62
7
  6
BYLAYER
 70
0
 71
3
 72
20
 73
16
 74
14
 42
0.0000001
 43
0.0000001
 44
0.0000000001
 12
-0.0690163008
 22
-0.0000001636
 32
0.0
 13
-0.0017650792
 23
-0.0689937263
 33
0.0
 40
0.0
 40
0.0
 40
0.0
 40
0.0
 40
0.0402200906
 40
0.0817178053
 40
0.1254100807
 40
0.1720344138
 40
0.2221491081
 40
0.2760794878
 40
0.3339581067
 40
0.395790308
 40
0.4614773448
 40
0.5307790873
 40
0.6788701016
 40
0.8369194103
 40
1.0
 40
1.0
 40
1.0
 40
1.0
 10
7.0301308879
 20
4.0151417661
 30
0.0
 10
7.0292056072
 20
4.0151417639
 30
0.0
 10
7.0273210006
 20
4.0149522667
 30
0.0
 10
7.0245422101
 20
4.0141218838
 30
0.0
 10
7.0218177017
 20
4.0127592444
 30
0.0
 10
7.0191768823
 20
4.0108784483
 30
0.0
 10
7.0166479392
 20
4.008494493
 30
0.0
 10
7.0142468201
 20
4.0056372475
 30
0.0
 10
7.0119904749
 20
4.0023338719
 30
0.0
 10
7.0098976088
 20
3.9986120542
 30
0.0
 10
7.0079880831
 20
3.9945019509
 30
0.0
 10
7.0056528575
 20
3.9884183066
 30
0.0
 10
7.0033235981
 20
3.9800786676
 30
0.0
 10
7.0015376351
 20
3.9694166045
 30
0.0
 10
7.0010049093
 20
3.9620353522
 30
0.0
 10
7.0009089593
 20
3.9582848397
 30
0.0
 11
7.0301308879
 21
4.0151417661
 31
0.0
 11
7.0273683756
 21
4.0148700603
 31
0.0
 11
7.0246209223
 21
4.0140612936
 31
0.0
 11
7.0219177093
 21
4.0127249724
 31
0.0
 11
7.0192879181
 21
4.0108706029
 31
0.0
 11
7.0167591993
 21
4.0085108571
 31
0.0
 11
7.0143530859
 21
4.0056710573
 31
0.0
 11
7.0120895828
 21
4.0023796855
 31
0.0
 11
7.009988695
 21
3.9986652235
 31
0.0
 11
7.0080695797
 21
3.9945579856
 31
0.0
 11
7.0063480039
 21
3.990095611
 31
0.0
 11
7.0035571518
 21
3.980263331
 31
0.0
 11
7.0017238179
 21
3.9695105228
 31
0.0
 11
7.0009089593
 21
3.9582848397
 31
0.0
  0
SPLINE
  5
33E
100
AcDbEntity
  8
0
100
AcDbSpline
 62
7
  6
BYLAYER
 70
0
 71
3
 72
20
 73
16
 74
14
 42
0.0000001
 43
0.0000001
 44
0.0000000001
 12
-0.0690163011
 22
-0.0000001635
 32
0.0
 13
-0.0017650781
 23
-0.0689937267
 33
0.0
 40
0.0
 40
0.0
 40
0.0
 40
0.0
 40
0.0402200881
 40
0.0817177942
 40
0.1254100571
 40
0.1720343779
 40
0.2221490616
 40
0.2760794304
 40
0.3339580398
 40
0.3957902368
 40
0.4614772738
 40
0.5307790186
 40
0.6788700553
 40
0.836919398
 40
1.0
 40
1.0
 40
1.0
 40
1.0
 10
7.2228025409
 20
4.0151417661
 30
0.0
 10
7.2218772603
 20
4.0151417639
 30
0.0
 10
7.219992654
 20
4.014952267
 30
0.0
 10
7.2172138638
 20
4.0141218847
 30
0.0
 10
7.2144893559
 20
4.012759246
 30
0.0
 10
7.2118485373
 20
4.0108784501
 30
0.0
 10
7.2093195948
 20
4.0084944953
 30
0.0
 10
7.2069184756
 20
4.0056372508
 30
0.0
 10
7.2046621302
 20
4.002333876
 30
0.0
 10
7.202569264
 20
3.9986120587
 30
0.0
 10
7.200659738
 20
3.9945019555
 30
0.0
 10
7.1983245114
 20
3.9884183109
 30
0.0
 10
7.1959952516
 20
3.9800786706
 30
0.0
 10
7.1942092885
 20
3.9694166059
 30
0.0
 10
7.1936765623
 20
3.9620353525
 30
0.0
 10
7.1935806123
 20
3.9582848397
 30
0.0
 11
7.2228025409
 21
4.0151417661
 31
0.0
 11
7.2200400288
 21
4.0148700606
 31
0.0
 11
7.2172925758
 21
4.0140612945
 31
0.0
 11
7.2145893635
 21
4.0127249739
 31
0.0
 11
7.2119595731
 21
4.0108706048
 31
0.0
 11
7.2094308548
 21
4.0085108595
 31
0.0
 11
7.2070247415
 21
4.0056710606
 31
0.0
 11
7.2047612382
 21
4.0023796896
 31
0.0
 11
7.2026603502
 21
3.9986652281
 31
0.0
 11
7.2007412346
 21
3.9945579903
 31
0.0
 11
7.1990196583
 21
3.9900956157
 31
0.0
 11
7.1962288055
 21
3.9802633342
 31
0.0
 11
7.1943954712
 21
3.9695105237
 31
0.0
 11
7.1935806123
 21
3.9582848397
 31
0.0
  0
SPLINE
  5
33F
100
AcDbEntity
  8
0
100
AcDbSpline
 62
7
  6
BYLAYER
 70
0
 71
3
 72
15
 73
11
 74
9
 42
0.0000001
 43
0.0000001
 44
0.0000000001
 12
0.0850864638
 22
-0.0000086926
 32
0.0
 13
0.0038868396
 23
-0.0849976404
 33
0.0
 40
0.0
 40
0.0
 40
0.0
 40
0.0
 40
0.1166093335
 40
0.2349028759
 40
0.3553682534
 40
0.4786939643
 40
0.6052221687
 40
0.7348356481
 40
0.8669617936
 40
1.0
 40
1.0
 40
1.0
 40
1.0
 10
6.5409518626
 20
4.0151592629
 30
0.0
 10
6.5442591545
 20
4.015158925
 30
0.0
 10
6.5509413946
 20
4.0144147244
 30
0.0
 10
6.5605664039
 20
4.011188085
 30
0.0
 10
6.5694642183
 20
4.0059146685
 30
0.0
 10
6.5773164339
 20
3.9988408331
 30
0.0
 10
6.5838445769
 20
3.9902077825
 30
0.0
 10
6.5888448053
 20
3.9803312502
 30
0.0
 10
6.5921058525
 20
3.969566329
 30
0.0
 10
6.5930824156
 20
3.9620687318
 30
0.0
 10
6.5932547816
 20
3.9582994206
 30
0.0
 11
6.5409518626
 21
4.0151592629
 31
0.0
 11
6.5508146302
 21
4.0140778584
 31
0.0
 11
6.5603604284
 21
4.0108863744
 31
0.0
 11
6.5691933295
 21
4.0056862008
 31
0.0
 11
6.5770050099
 21
3.9986799167
 31
0.0
 11
6.5835211694
 21
3.990110032
 31
0.0
 11
6.5885160525
 21
3.9802776516
 31
0.0
 11
6.5917969481
 21
3.9695249039
 31
0.0
 11
6.5932547816
 21
3.9582994206
 31
0.0
  0
SPLINE
  5
340
100
AcDbEntity
  8
0
100
AcDbSpline
 62
7
  6
BYLAYER
 70
0
 71
3
 72
35
 73
31
 74
29
 42
0.0000001
 43
0.0000001
 44
0.0000000001
 12
0.0100000621
 22
0.1533005004
 32
0.0
 13
-0.1536153823
 23
-0.0018327473
 33
0.0
 40
0.0
 40
0.0
 40
0.0
 40
0.0
 40
0.0000892007
 40
0.0002954527
 40
0.0006317578
 40
0.0011004472
 40
0.0024377679
 40
0.0043103591
 40
0.0067192973
 40
0.0096646897
 40
0.0131453009
 40
0.0171596624
 40
0.0217062643
 40
0.0267835731
 40
0.0385241035
 40
0.0523687797
 40
0.0683050404
 40
0.0863195463
 40
0.1063910827
 40
0.1284936772
 40
0.152601282
 40
0.2067272969
 40
0.2685477462
 40
0.3377690947
 40
0.4140727484
 40
0.4971324562
 40
0.5865844589
 40
0.6820534696
 40
0.7831362628
 40
1.0
 40
1.0
 40
1.0
 40
1.0
 10
8.1284047273
 20
3.9595187276
 30
0.0
 10
8.1284050246
 20
3.9595232858
 30
0.0
 10
8.1283879846
 20
3.9595328328
 30
0.0
 10
8.1283595171
 20
3.9595392806
 30
0.0
 10
8.1283068495
 20
3.9595487944
 30
0.0
 10
8.1281988213
 20
3.9595610882
 30
0.0
 10
8.1280102081
 20
3.959575514
 30
0.0
 10
8.1277232044
 20
3.9595903062
 30
0.0
 10
8.1273532391
 20
3.9596043257
 30
0.0
 10
8.1269010437
 20
3.9596172364
 30
0.0
 10
8.1263665159
 20
3.9596290582
 30
0.0
 10
8.1257499781
 20
3.9596397292
 30
0.0
 10
8.1250516406
 20
3.9596492413
 30
0.0
 10
8.1239576557
 20
3.9596609208
 30
0.0
 10
8.122387499
 20
3.9596719028
 30
0.0
 10
8.1202612487
 20
3.9596798958
 30
0.0
 10
8.1178137028
 20
3.95968314
 30
0.0
 10
8.1150472863
 20
3.9596816024
 30
0.0
 10
8.1119651057
 20
3.9596752635
 30
0.0
 10
8.108570917
 20
3.9596641291
 30
0.0
 10
8.1034328696
 20
3.9596420068
 30
0.0
 10
8.0962609838
 20
3.9596015473
 30
0.0
 10
8.0867789931
 20
3.9595358929
 30
0.0
 10
8.0761614197
 20
3.9594516736
 30
0.0
 10
8.0644563244
 20
3.9593492711
 30
0.0
 10
8.0517153611
 20
3.9592290945
 30
0.0
 10
8.0379930852
 20
3.9590916457
 30
0.0
 10
8.0233479925
 20
3.95893747
 30
0.0
 10
8.0021787671
 20
3.9587049352
 30
0.0
 10
7.98589821
 20
3.9585160031
 30
0.0
 10
7.9747936747
 20
3.9583835176
 30
0.0
 11
8.1284047273
 21
3.9595187276
 31
0.0
 11
8.1283950752
 21
3.9595284551
 31
0.0
 11
8.1283648269
 21
3.9595378906
 31
0.0
 11
8.128313977
 21
3.9595470334
 31
0.0
 11
8.1282425198
 21
3.9595558825
 31
0.0
 11
8.1280377614
 21
3.9595726968
 31
0.0
 11
8.127750507
 21
3.9595883269
 31
0.0
 11
8.1273807125
 21
3.9596027664
 31
0.0
 11
8.1269284166
 21
3.9596160101
 31
0.0
 11
8.1263938388
 21
3.959628056
 31
0.0
 11
8.1257772226
 21
3.9596389023
 31
0.0
 11
8.1250788115
 21
3.9596485473
 31
0.0
 11
8.124298849
 21
3.9596569891
 31
0.0
 11
8.1224952433
 21
3.9596702567
 31
0.0
 11
8.1203683535
 21
3.959678691
 31
0.0
 11
8.1179201271
 21
3.9596822783
 31
0.0
 11
8.1151526252
 21
3.9596810061
 31
0.0
 11
8.1120691152
 21
3.9596748788
 31
0.0
 11
8.1086735927
 21
3.9596639109
 31
0.0
 11
8.1049700639
 21
3.9596481172
 31
0.0
 11
8.096655011
 21
3.9596021105
 31
0.0
 11
8.0871579863
 21
3.9595370118
 31
0.0
 11
8.0765240961
 21
3.9594531738
 31
0.0
 11
8.0648022921
 21
3.9593510186
 31
0.0
 11
8.0520426998
 21
3.9592309858
 31
0.0
 11
8.038301205
 21
3.9590935998
 31
0.0
 11
8.0236354633
 21
3.9589394109
 31
0.0
 11
8.0081074208
 21
3.9587690383
 31
0.0
 11
7.9747936747
 21
3.9583835176
 31
0.0
  0
SPLINE
  5
341
100
AcDbEntity
  8
0
100
AcDbSpline
 62
7
  6
BYLAYER
 70
0
 71
3
 72
19
 73
15
 74
13
 42
0.0000001
 43
0.0000001
 44
0.0000000001
 12
-0.0678360098
 22
-0.0048195519
 32
0.0
 13
-0.0017392656
 23
-0.0679847575
 33
0.0
 40
0.0
 40
0.0
 40
0.0
 40
0.0
 40
0.0402267706
 40
0.0820122806
 40
0.1731046091
 40
0.2237772312
 40
0.2781961158
 40
0.3364538608
 40
0.3985351035
 40
0.4643222769
 40
0.5335695034
 40
0.6811371322
 40
0.8381881781
 40
1.0
 40
1.0
 40
1.0
 40
1.0
 10
8.0030202618
 20
4.0152050313
 30
0.0
 10
8.0021106539
 20
4.0151404063
 30
0.0
 10
8.0002648507
 20
4.0148273125
 30
0.0
 10
7.9965608194
 20
4.0134808728
 30
0.0
 10
7.9930704365
 20
4.0110856957
 30
0.0
 10
7.989931283
 20
4.0079299053
 30
0.0
 10
7.9876144536
 20
4.0050314146
 30
0.0
 10
7.9854415314
 20
4.001713267
 30
0.0
 10
7.9834282461
 20
3.9980002844
 30
0.0
 10
7.9815929458
 20
3.9939221613
 30
0.0
 10
7.9793517117
 20
3.9879167242
 30
0.0
 10
7.9771170398
 20
3.9797208336
 30
0.0
 10
7.9754014399
 20
3.969272354
 30
0.0
 10
7.9748874856
 20
3.9620504301
 30
0.0
 10
7.9747936744
 20
3.9583835176
 30
0.0
 11
8.0030202618
 21
4.0152050313
 31
0.0
 11
8.0003218097
 21
4.0147551174
 31
0.0
 11
7.9976471653
 21
4.0137951294
 31
0.0
 11
7.9924782839
 21
4.0103805062
 31
0.0
 11
7.9900356417
 21
4.0079496511
 31
0.0
 11
7.9877148794
 21
4.0050668633
 31
0.0
 11
7.9855346807
 21
4.001758743
 31
0.0
 11
7.9835137246
 21
3.9980519013
 31
0.0
 11
7.9816693939
 21
3.9939757491
 31
0.0
 11
7.9800160526
 21
3.9895662215
 31
0.0
 11
7.9773380761
 21
3.979894492
 31
0.0
 11
7.9755787864
 21
3.9693598116
 31
0.0
 11
7.9747936744
 21
3.9583835176
 31
0.0
  0
SPLINE
  5
342
100
AcDbEntity
  8
0
100
AcDbSpline
 62
7
  6
BYLAYER
 70
0
 71
3
 72
19
 73
15
 74
13
 42
0.0000001
 43
0.0000001
 44
0.0000000001
 12
-0.0624660306
 22
-0.0000511171
 32
0.0
 13
-0.0119719072
 23
0.0613080829
 33
0.0
 40
0.0
 40
0.0
 40
0.0
 40
0.0
 40
0.037380718
 40
0.0755780939
 40
0.1156349604
 40
0.1584261474
 40
0.2046429007
 40
0.2547939153
 40
0.3092206211
 40
0.3681376361
 40
0.4997689467
 40
0.6496769787
 40
0.8169458688
 40
1.0
 40
1.0
 40
1.0
 40
1.0
 10
4.1616419475
 20
3.4702788954
 30
0.0
 10
4.1608636058
 20
3.4702782584
 30
0.0
 10
4.1592858568
 20
3.4704274581
 30
0.0
 10
4.1569606748
 20
3.4710987888
 30
0.0
 10
4.1546845746
 20
3.4722072386
 30
0.0
 10
4.1524679025
 20
3.473742422
 30
0.0
 10
4.1503184202
 20
3.4756960801
 30
0.0
 10
4.1482394796
 20
3.4780561843
 30
0.0
 10
4.1462333681
 20
3.480811695
 30
0.0
 10
4.1435618349
 20
3.48516203
 30
0.0
 10
4.1404836971
 20
3.4915676912
 30
0.0
 10
4.1372616406
 20
3.5003500728
 30
0.0
 10
4.1344166556
 20
3.5103780548
 30
0.0
 10
4.1328480932
 20
3.5175059435
 30
0.0
 10
4.1321175909
 20
3.5212468428
 30
0.0
 11
4.1616419475
 21
3.4702788954
 31
0.0
 11
4.1593171004
 21
3.4704966841
 31
0.0
 11
4.1570223832
 21
3.4711504853
 31
0.0
 11
4.1547675357
 21
3.4722352153
 31
0.0
 11
4.152562298
 21
3.4737457903
 31
0.0
 11
4.1504159759
 21
3.4756765788
 31
0.0
 11
4.1483348965
 21
3.4780181898
 31
0.0
 11
4.146324136
 21
3.4807596544
 31
0.0
 11
4.1443887668
 21
3.4838899981
 31
0.0
 11
4.1407635385
 21
3.4912701765
 31
0.0
 11
4.1374919725
 21
3.500044252
 31
0.0
 11
4.1346030589
 21
3.510085566
 31
0.0
 11
4.1321175909
 21
3.5212468428
 31
0.0
  0
SPLINE
  5
343
100
AcDbEntity
  8
0
100
AcDbSpline
 62
7
  6
BYLAYER
 70
0
 71
3
 72
20
 73
16
 74
14
 42
0.0000001
 43
0.0000001
 44
0.0000000001
 12
-0.0052605584
 22
-0.1502236462
 32
0.0
 13
-0.1503157018
 23
0.0000846346
 33
0.0
 40
0.0
 40
0.0
 40
0.0
 40
0.0
 40
0.1495006544
 40
0.2955275445
 40
0.4353150854
 40
0.5022808656
 40
0.566965774
 40
0.6291990368
 40
0.688891833
 40
0.7460206014
 40
0.8006623997
 40
0.8530224837
 40
0.9034160541
 40
0.952249272
 40
1.0
 40
1.0
 40
1.0
 40
1.0
 10
4.5517299101
 20
3.5839617654
 30
0.0
 10
4.5514677578
 20
3.5764755875
 30
0.0
 10
4.5499957887
 20
3.5616919891
 30
0.0
 10
4.5450321792
 20
3.5403926246
 30
0.0
 10
4.5386798679
 20
3.5238239165
 30
0.0
 10
4.5323868215
 20
3.5117535603
 30
0.0
 10
4.5272174089
 20
3.5035150458
 30
0.0
 10
4.5215770238
 20
3.4960422576
 30
0.0
 10
4.5155257577
 20
3.4894000518
 30
0.0
 10
4.509120994
 20
3.4836502452
 30
0.0
 10
4.5024199218
 20
3.478851907
 30
0.0
 10
4.4954865959
 20
3.4750505766
 30
0.0
 10
4.4883817844
 20
3.4722977673
 30
0.0
 10
4.4811842054
 20
3.4706268822
 30
0.0
 10
4.4763372357
 20
3.4702463823
 30
0.0
 10
4.4739446743
 20
3.4702477294
 30
0.0
 11
4.5517299101
 21
3.5839617654
 31
0.0
 11
4.5494928336
 21
3.5616010917
 31
0.0
 11
4.5444683225
 21
3.5402337605
 31
0.0
 11
4.5368792604
 21
3.520639847
 31
0.0
 11
4.5322154595
 21
3.5117194482
 31
0.0
 11
4.5270345812
 21
3.5034915493
 31
0.0
 11
4.5213868288
 21
3.4960341942
 31
0.0
 11
4.5153305826
 21
3.4894135892
 31
0.0
 11
4.5089266524
 21
3.4836923745
 31
0.0
 11
4.5022368405
 21
3.4789270462
 31
0.0
 11
4.4953247506
 21
3.4751629426
 31
0.0
 11
4.4882548793
 21
3.4724432499
 31
0.0
 11
4.4811012361
 21
3.4707979934
 31
0.0
 11
4.4739446743
 21
3.4702477294
 31
0.0
  0
ENDSEC
  0
SECTION
  2
OBJECTS
  0
DICTIONARY
  5
C
100
AcDbDictionary
280
0
281
1
  3
ACAD_GROUP
350
D
  3
ACAD_MLINESTYLE
350
17
  3
ACAD_LAYOUT
350
1A
  3
ACAD_PLOTSETTINGS
350
19
  3
ACAD_PLOTSTYLENAME
350
E
  0
DICTIONARY
  5
D
102
{ACAD_REACTORS
330
C
102
}
100
AcDbDictionary
280
0
281
1
  0
ACDBDICTIONARYWDFLT
  5
E
102
{ACAD_REACTORS
330
C
102
}
100
AcDbDictionary
281
1
  3
Normal
350
F
100
AcDbDictionaryWithDefault
340
F
  0
DICTIONARY
  5
17
102
{ACAD_REACTORS
330
C
102
}
100
AcDbDictionary
280
0
281
1
  3
Standard
350
18
  0
DICTIONARY
  5
19
102
{ACAD_REACTORS
330
C
102
}
100
AcDbDictionary
281
1
  0
DICTIONARY
  5
1A
102
{ACAD_REACTORS
330
C
102
}
100
AcDbDictionary
281
1
  3
Model
350
344
  3
Layout1
350
345
  0
ACDBPLACEHOLDER
  5
F
102
{ACAD_REACTORS
330
E
102
}
  0
MLINESTYLE
  5
18
102
{ACAD_REACTORS
330
17
102
}
100
AcDbMlineStyle
  2
STANDARD
 70
0
  3

 62
256
 51
90.0
 52
90.0
 71
2
 49
0.5
 62
256
  6
BYLAYER
 49
-0.5
 62
256
  6
BYLAYER
  0
LAYOUT
  5
344
102
{ACAD_REACTORS
330
1A
102
}
100
AcDbPlotSettings
  1

  2
none_device
  4
ISO_A4_(297.00_x_210.00_MM)
  6

 40
0.0
 41
0.0
 42
0.0
 43
0.0
 44
297.0
 45
210.0
 46
0.0
 47
0.0
 48
0.0
 49
0.0
140
0.0
141
0.0
142
1.0
143
1.0
 70
1024
 72
0
 73
0
 74
0
  7

 75
0
147
1.0
148
0.0
149
0.0
100
AcDbLayout
  1
Model
 70
0
 71
0
 10
0.0
 20
0.0
 11
11.6929133858
 21
8.2677165354
 12
0.0
 22
0.0
 32
0.0
 14
0.0
 24
0.0
 34
0.0
 15
0.0
 25
0.0
 35
0.0
146
0.0
 13
0.0
 23
0.0
 33
0.0
 16
1.0
 26
0.0
 36
0.0
 17
0.0
 27
1.0
 37
0.0
 76
0
330
209
345
0
346
0
  0
LAYOUT
  5
345
102
{ACAD_REACTORS
330
1A
102
}
100
AcDbPlotSettings
  1

  2
none_device
  4
ISO_A4_(297.00_x_210.00_MM)
  6

 40
0.0
 41
0.0
 42
0.0
 43
0.0
 44
297.0
 45
210.0
 46
0.0
 47
0.0
 48
0.0
 49
0.0
140
0.0
141
0.0
142
1.0
143
1.0
 70
0
 72
0
 73
0
 74
0
  7

 75
0
147
1.0
148
0.0
149
0.0
100
AcDbLayout
  1
Layout1
 70
0
 71
1
 10
0.0
 20
0.0
 11
11.6929133858
 21
8.2677165354
 12
0.0
 22
0.0
 32
0.0
 14
0.0
 24
0.0
 34
0.0
 15
0.0
 25
0.0
 35
0.0
146
0.0
 13
0.0
 23
0.0
 33
0.0
 16
1.0
 26
0.0
 36
0.0
 17
0.0
 27
1.0
 37
0.0
 76
0
330
20A
345
0
346
0
  0
ENDSEC
  0
EOF
