999
DXF file: 278-02_front.dxf
999
Pro/ENGINEER 2013150 by Parametric Technology Corporation
  0
SECTION
  2
HEADER
  9
$ACADVER
  1
AC1021
  9
$DWGCODEPAGE
  3
ANSI_1252
  9
$EXTMAX
 10
11.0
 20
8.5
 30
0.0
  9
$EXTMIN
 10
0.0
 20
0.0
 30
0.0
  9
$LIMMIN
 10
0.0
 20
0.0
  9
$LIMMAX
 10
11.0
 20
8.5
  9
$VIEWCTR
 10
5.5
 20
4.25
  9
$VIEWSIZE
 40
8.5
  9
$CLAYER
  8
0
  9
$LTSCALE
 40
0.605
  9
$CELTYPE
  6
BYLAYER
  9
$DIMSCALE
 40
1.0
  9
$DIMASZ
 40
0.1
  9
$DIMEXO
 40
0.0625
  9
$DIMDLI
 40
0.418
  9
$DIMEXE
 40
0.125
  9
$DIMCEN
 40
0.099
  9
$DIMLFAC
 40
1.0
  9
$DIMBLK
  1
_FILLED
  9
$DIMTXT
 40
0.08
  9
$DIMTOL
 70
1
  9
$DIMLIM
 70
0
  9
$DIMTFAC
 40
1.0
  9
$DIMTP
 40
0.001
  9
$DIMTM
 40
0.001
  9
$DIMGAP
 40
0.09
  9
$DIMDSEP
 70
46
  9
$PDMODE
 70
3
  9
$PDSIZE
 40
0.06
  9
$HANDSEED
  5
362
  9
$TILEMODE
 70
1
  9
$MEASUREMENT
 70
0
  9
$INSUNITS
 70
1
  0
ENDSEC
  0
SECTION
  2
CLASSES
  0
CLASS
  1
ACDBDICTIONARYWDFLT
  2
AcDbDictionaryWithDefault
  3
AutoCAD 2000
 90
0
 91
1
280
0
281
0
  0
CLASS
  1
ACDBPLACEHOLDER
  2
AcDbPlaceHolder
  3
AutoCAD 2000
 90
0
 91
1
280
0
281
0
  0
CLASS
  1
LAYOUT
  2
AcDbLayout
  3
AutoCAD 2000
 90
0
 91
0
280
0
281
0
  0
ENDSEC
  0
SECTION
  2
TABLES
  0
TABLE
  2
VPORT
  5
8
100
AcDbSymbolTable
 70
2
  0
VPORT
  5
1F4
100
AcDbSymbolTableRecord
100
AcDbViewportTableRecord
  2
*ACTIVE
 70
0
 10
0.0
 20
0.0
 11
1.0
 21
1.0
 12
5.5
 22
4.25
 13
0.0
 23
0.0
 14
1.0
 24
1.0
 15
0.0
 25
0.0
 16
0.0
 26
0.0
 36
1.0
 17
0.0
 27
0.0
 37
0.0
 40
8.5
 41
1.2941176471
 42
50.0
 43
0.0
 44
0.0
 50
0.0
 51
0.0
 71
0
 72
100
 73
1
 74
1
 75
0
 76
0
 77
0
 78
0
  0
ENDTAB
  0
TABLE
  2
LTYPE
  5
5
100
AcDbSymbolTable
 70
6
  0
LTYPE
  5
14
100
AcDbSymbolTableRecord
100
AcDbLinetypeTableRecord
  2
BYBLOCK
 70
0
  3

 72
65
 73
0
 40
0.0
  0
LTYPE
  5
15
100
AcDbSymbolTableRecord
100
AcDbLinetypeTableRecord
  2
BYLAYER
 70
0
  3

 72
65
 73
0
 40
0.0
  0
LTYPE
  5
16
100
AcDbSymbolTableRecord
100
AcDbLinetypeTableRecord
  2
CONTINUOUS
 70
64
  3
Solid line
 72
65
 73
0
 40
0.0
  0
LTYPE
  5
1F5
100
AcDbSymbolTableRecord
100
AcDbLinetypeTableRecord
  2
CENTER
 70
64
  3
____ _ ____ _ ____ _ ____ _ ____ _ ____ _ ____
 72
65
 73
4
 40
0.6
 49
0.375
 74
0
 49
-0.075
 74
0
 49
0.075
 74
0
 49
-0.075
 74
0
  0
LTYPE
  5
1F6
100
AcDbSymbolTableRecord
100
AcDbLinetypeTableRecord
  2
HIDDEN
 70
64
  3
- - - - - - - - - - - - - - - - - - - -
 72
65
 73
2
 40
0.2
 49
0.1
 74
0
 49
-0.1
 74
0
  0
LTYPE
  5
1F7
100
AcDbSymbolTableRecord
100
AcDbLinetypeTableRecord
  2
PHANTOM
 70
64
  3
_____ _ _ _____ _ _ _____ _ _ _____
 72
65
 73
6
 40
0.8
 49
0.45
 74
0
 49
-0.05
 74
0
 49
0.1
 74
0
 49
-0.05
 74
0
 49
0.1
 74
0
 49
-0.05
 74
0
  0
LTYPE
  5
1F8
100
AcDbSymbolTableRecord
100
AcDbLinetypeTableRecord
  2
DOT
 70
64
  3
. . . . . . . . . . . . . . . . . . . .
 72
65
 73
2
 40
0.2
 49
0.1
 74
0
 49
-0.1
 74
0
  0
LTYPE
  5
1F9
100
AcDbSymbolTableRecord
100
AcDbLinetypeTableRecord
  2
DASHED
 70
64
  3
- - - - - - - - - - - - - - - - - - - -
 72
65
 73
2
 40
0.2
 49
0.1
 74
0
 49
-0.1
 74
0
  0
ENDTAB
  0
TABLE
  2
LAYER
  5
2
100
AcDbSymbolTable
 70
36
  0
LAYER
  5
10
100
AcDbSymbolTableRecord
100
AcDbLayerTableRecord
  2
0
 70
0
 62
7
  6
CONTINUOUS
370
-3
390
F
  0
LAYER
  5
1FA
100
AcDbSymbolTableRecord
100
AcDbLayerTableRecord
  2
DEFAULT_1
 70
0
 62
7
  6
CENTER
370
-3
390
F
  0
LAYER
  5
1FB
100
AcDbSymbolTableRecord
100
AcDbLayerTableRecord
  2
DEFAULT_2
 70
0
 62
8
  6
HIDDEN
370
-3
390
F
  0
LAYER
  5
1FC
100
AcDbSymbolTableRecord
100
AcDbLayerTableRecord
  2
DEFAULT_3
 70
0
 62
7
  6
PHANTOM
370
-3
390
F
  0
LAYER
  5
1FD
100
AcDbSymbolTableRecord
100
AcDbLayerTableRecord
  2
ALL_FEATURES
 70
0
 62
7
  6
CONTINUOUS
370
-3
390
F
  0
LAYER
  5
1FE
100
AcDbSymbolTableRecord
100
AcDbLayerTableRecord
  2
AXES_FEATURES
 70
0
 62
7
  6
CONTINUOUS
370
-3
390
F
  0
LAYER
  5
1FF
100
AcDbSymbolTableRecord
100
AcDbLayerTableRecord
  2
DEFAULT_COORDINATE_SYSTEM
 70
0
 62
7
  6
CONTINUOUS
370
-3
390
F
  0
LAYER
  5
200
100
AcDbSymbolTableRecord
100
AcDbLayerTableRecord
  2
DEFAULT_DATUM_AXES
 70
0
 62
7
  6
CONTINUOUS
370
-3
390
F
  0
LAYER
  5
201
100
AcDbSymbolTableRecord
100
AcDbLayerTableRecord
  2
DEFAULT_DATUM_CURVES
 70
0
 62
7
  6
CONTINUOUS
370
-3
390
F
  0
LAYER
  5
202
100
AcDbSymbolTableRecord
100
AcDbLayerTableRecord
  2
DEFAULT_DATUM_PLANES
 70
0
 62
7
  6
CONTINUOUS
370
-3
390
F
  0
LAYER
  5
203
100
AcDbSymbolTableRecord
100
AcDbLayerTableRecord
  2
DEFAULT_SURFACES
 70
0
 62
7
  6
CONTINUOUS
370
-3
390
F
  0
LAYER
  5
204
100
AcDbSymbolTableRecord
100
AcDbLayerTableRecord
  2
DIMENSIONS
 70
0
 62
7
  6
CONTINUOUS
370
-3
390
F
  0
LAYER
  5
205
100
AcDbSymbolTableRecord
100
AcDbLayerTableRecord
  2
PATTERN_DATUMS
 70
0
 62
7
  6
CONTINUOUS
370
-3
390
F
  0
ENDTAB
  0
TABLE
  2
STYLE
  5
3
100
AcDbSymbolTable
 70
1
  0
STYLE
  5
11
100
AcDbSymbolTableRecord
100
AcDbTextStyleTableRecord
  2
STANDARD
 70
0
 40
0.0
 41
0.8
 50
0.0
 71
0
 42
0.2
  3
txt
  4

  0
STYLE
  5
206
100
AcDbSymbolTableRecord
100
AcDbTextStyleTableRecord
  2
TEXTSTYLE_1
 70
0
 40
0.0
 41
0.8
 50
0.0
 71
0
 42
0.2
  3
gdt
  4

  0
ENDTAB
  0
TABLE
  2
VIEW
  5
6
100
AcDbSymbolTable
 70
0
  0
ENDTAB
  0
TABLE
  2
UCS
  5
7
100
AcDbSymbolTable
 70
0
  0
ENDTAB
  0
TABLE
  2
APPID
  5
9
100
AcDbSymbolTable
 70
1
  0
APPID
  5
207
100
AcDbSymbolTableRecord
100
AcDbRegAppTableRecord
  2
ACAD
 70
0
  0
ENDTAB
  0
TABLE
  2
BLOCK_RECORD
  5
1
100
AcDbSymbolTable
 70
0
  0
BLOCK_RECORD
  5
208
100
AcDbSymbolTableRecord
100
AcDbBlockTableRecord
  2
*Model_Space
  0
BLOCK_RECORD
  5
209
100
AcDbSymbolTableRecord
100
AcDbBlockTableRecord
  2
*Paper_Space
  0
ENDTAB
  0
TABLE
  2
DIMSTYLE
  5
A
100
AcDbSymbolTable
 70
1
100
AcDbDimStyleTable
 71
0
  0
DIMSTYLE
105
20A
100
AcDbSymbolTableRecord
100
AcDbDimStyleTableRecord
  2
STANDARD
 70
0
  3

  4

 40
1.0
 41
0.1
 42
0.0625
 43
0.38
 44
0.125
 45
0.0
 46
0.0
 47
0.001
 48
0.001
140
0.08
141
0.09
142
0.0
143
25.4
144
1.0
145
0.0
146
1.0
147
0.09
 71
1.0
 72
0.0
 73
1
 74
1
 75
0
 76
0
 77
0
 78
4
170
0
171
2
172
0
173
0
174
0
175
0
176
0
177
0
178
0
270
2
271
3
272
3
273
2
274
2
275
0
280
0
281
0
282
0
283
1
284
4
285
0
286
0
287
3
288
0
340
11
278
46
  0
ENDTAB
  0
ENDSEC
  0
SECTION
  2
BLOCKS
  0
BLOCK
  5
20
100
AcDbEntity
  8
0
100
AcDbBlockBegin
  2
*Model_Space
 70
0
 10
0.0
 20
0.0
 30
0.0
  3
*Model_Space
  1

  0
ENDBLK
  5
21
100
AcDbEntity
  8
0
100
AcDbBlockEnd
  0
BLOCK
  5
1C
100
AcDbEntity
  8
0
100
AcDbBlockBegin
  2
*Paper_Space
 70
0
 10
0.0
 20
0.0
 30
0.0
  3
*Paper_Space
  1

  0
ENDBLK
  5
1D
100
AcDbEntity
  8
0
100
AcDbBlockEnd
  0
ENDSEC
  0
SECTION
  2
ENTITIES
  0
MTEXT
  5
20B
100
AcDbEntity
  8
0
100
AcDbMText
 62
2
  6
CONTINUOUS
  7
STANDARD
 71
3
 72
1
 10
5.862046416
 20
-0.45057686
 30
0.0
 11
1.0
 21
0.0
 31
0.0
 44
0.9
  1
SCALE  1.000
 40
0.08
 41
0.768
  0
LINE
  5
20C
100
AcDbEntity
  8
0
100
AcDbLine
 62
7
  6
CONTINUOUS
 10
0.0
 20
0.0
 11
0.0
 21
8.5
  0
LINE
  5
20D
100
AcDbEntity
  8
0
100
AcDbLine
 62
7
  6
CONTINUOUS
 10
0.0
 20
0.0
 11
11.0
 21
0.0
  0
LINE
  5
20E
100
AcDbEntity
  8
0
100
AcDbLine
 62
7
  6
CONTINUOUS
 10
0.0
 20
8.5
 11
11.0
 21
8.5
  0
LINE
  5
20F
100
AcDbEntity
  8
0
100
AcDbLine
 62
7
  6
CONTINUOUS
 10
11.0
 20
0.0
 11
11.0
 21
8.5
  0
LINE
  5
210
100
AcDbEntity
  8
0
100
AcDbLine
 62
7
  6
CONTINUOUS
 10
1.2115556715
 20
5.1812870657
 11
1.2115614051
 21
4.9625370668
  0
LINE
  5
211
100
AcDbEntity
  8
0
100
AcDbLine
 62
7
  6
CONTINUOUS
 10
1.2741790236
 20
5.5105367406
 11
1.2741790236
 21
5.2272503543
  0
LINE
  5
212
100
AcDbEntity
  8
0
100
AcDbLine
 62
7
  6
CONTINUOUS
 10
1.3800103725
 20
5.5105367406
 11
1.3800103725
 21
5.4485540391
  0
LINE
  5
213
100
AcDbEntity
  8
0
100
AcDbLine
 62
7
  6
CONTINUOUS
 10
1.4447151338
 20
5.5105367406
 11
1.4447151338
 21
5.4485540391
  0
LINE
  5
214
100
AcDbEntity
  8
0
100
AcDbLine
 62
7
  6
CONTINUOUS
 10
2.3587449565
 20
5.2892330558
 11
2.3587449565
 21
5.2272503543
  0
LINE
  5
215
100
AcDbEntity
  8
0
100
AcDbLine
 62
7
  6
CONTINUOUS
 10
2.5355216518
 20
5.2892330558
 11
2.5355216518
 21
5.2272503543
  0
LINE
  5
216
100
AcDbEntity
  8
0
100
AcDbLine
 62
7
  6
CONTINUOUS
 10
2.5865717019
 20
4.5697116019
 11
2.586592019
 21
3.7945731128
  0
LINE
  5
217
100
AcDbEntity
  8
0
100
AcDbLine
 62
7
  6
CONTINUOUS
 10
2.7740995174
 20
3.5084945619
 11
2.7741097375
 21
3.1185780308
  0
LINE
  5
218
100
AcDbEntity
  8
0
100
AcDbLine
 62
7
  6
CONTINUOUS
 10
2.9210045045
 20
6.1813935475
 11
2.8991790236
 21
5.5563935475
  0
LINE
  5
219
100
AcDbEntity
  8
0
100
AcDbLine
 62
7
  6
CONTINUOUS
 10
3.1307615931
 20
5.1813935475
 11
3.1307615931
 21
5.1831609778
  0
LINE
  5
21A
100
AcDbEntity
  8
0
100
AcDbLine
 62
7
  6
CONTINUOUS
 10
4.3042840438
 20
5.8631074552
 11
4.3042777985
 21
5.8631045433
  0
LINE
  5
21B
100
AcDbEntity
  8
0
100
AcDbLine
 62
7
  6
CONTINUOUS
 10
6.2753357576
 20
1.5564029713
 11
6.29001765
 21
1.5564202032
  0
LINE
  5
21C
100
AcDbEntity
  8
0
100
AcDbLine
 62
7
  6
CONTINUOUS
 10
6.2753357576
 20
1.5564029713
 11
4.2761525547
 21
1.5563488471
  0
LINE
  5
21D
100
AcDbEntity
  8
0
100
AcDbLine
 62
7
  6
CONTINUOUS
 10
4.2586240583
 20
1.5563643508
 11
4.4081440659
 21
1.5563189233
  0
LINE
  5
21E
100
AcDbEntity
  8
0
100
AcDbLine
 62
7
  6
CONTINUOUS
 10
4.2582837192
 20
1.5563669289
 11
4.2586240583
 21
1.5563643508
  0
LINE
  5
21F
100
AcDbEntity
  8
0
100
AcDbLine
 62
7
  6
CONTINUOUS
 10
3.4616569759
 20
4.7884593538
 11
3.4616571288
 21
4.7884570962
  0
LINE
  5
220
100
AcDbEntity
  8
0
100
AcDbLine
 62
7
  6
CONTINUOUS
 10
3.4616688403
 20
4.7882841895
 11
3.5297088525
 21
3.7837763698
  0
LINE
  5
221
100
AcDbEntity
  8
0
100
AcDbLine
 62
7
  6
CONTINUOUS
 10
4.1022715961
 20
1.7123628493
 11
6.4460215953
 21
1.7124242811
  0
LINE
  5
222
100
AcDbEntity
  8
0
100
AcDbLine
 62
7
  6
CONTINUOUS
 10
3.561278569
 20
4.7936554752
 11
3.6295236467
 21
3.7861387234
  0
LINE
  5
223
100
AcDbEntity
  8
0
100
AcDbLine
 62
7
  6
CONTINUOUS
 10
4.1022429148
 20
2.8066128437
 11
4.1022715961
 21
1.7123628493
  0
LINE
  5
224
100
AcDbEntity
  8
0
100
AcDbLine
 62
7
  6
CONTINUOUS
 10
4.2105221102
 20
5.6006117
 11
4.2105201028
 21
5.5563935475
  0
LINE
  5
225
100
AcDbEntity
  8
0
100
AcDbLine
 62
7
  6
CONTINUOUS
 10
4.3042840273
 20
5.8631074398
 11
4.3042721102
 21
5.6005840219
  0
LINE
  5
226
100
AcDbEntity
  8
0
100
AcDbLine
 62
7
  6
CONTINUOUS
 10
4.3095528056
 20
5.6005822325
 11
4.3095639675
 21
5.8464466402
  0
LINE
  5
227
100
AcDbEntity
  8
0
100
AcDbLine
 62
7
  6
CONTINUOUS
 10
4.3946429438
 20
5.8615872888
 11
4.3946342435
 21
5.6699450466
  0
LINE
  5
228
100
AcDbEntity
  8
0
100
AcDbLine
 62
7
  6
CONTINUOUS
 10
4.4639249761
 20
5.8615773663
 11
4.4639162758
 21
5.6699351241
  0
LINE
  5
229
100
AcDbEntity
  8
0
100
AcDbLine
 62
7
  6
CONTINUOUS
 10
4.4928419093
 20
4.7936449881
 11
4.4624817034
 21
3.7861292786
  0
LINE
  5
22A
100
AcDbEntity
  8
0
100
AcDbLine
 62
7
  6
CONTINUOUS
 10
4.6874505061
 20
5.1809849968
 11
4.6875134265
 21
5.1813935475
  0
LINE
  5
22B
100
AcDbEntity
  8
0
100
AcDbLine
 62
7
  6
CONTINUOUS
 10
6.445992914
 20
2.8066742755
 11
4.1022429148
 21
2.8066128437
  0
LINE
  5
22C
100
AcDbEntity
  8
0
100
AcDbLine
 62
7
  6
CONTINUOUS
 10
4.5490025765
 20
5.8464123481
 11
4.5489914146
 21
5.6005479403
  0
LINE
  5
22D
100
AcDbEntity
  8
0
100
AcDbLine
 62
7
  6
CONTINUOUS
 10
4.5595528054
 20
5.6005474608
 11
4.5595639673
 21
5.8464118686
  0
LINE
  5
22E
100
AcDbEntity
  8
0
100
AcDbLine
 62
7
  6
CONTINUOUS
 10
4.7990025762
 20
5.8464244204
 11
4.7989914143
 21
5.6005600126
  0
LINE
  5
22F
100
AcDbEntity
  8
0
100
AcDbLine
 62
7
  6
CONTINUOUS
 10
4.8042721097
 20
5.6005613226
 11
4.8042840267
 21
5.8630847405
  0
LINE
  5
230
100
AcDbEntity
  8
0
100
AcDbLine
 62
7
  6
CONTINUOUS
 10
4.6937019492
 20
4.7806049141
 11
4.6637494409
 21
3.7861433197
  0
LINE
  5
231
100
AcDbEntity
  8
0
100
AcDbLine
 62
7
  6
CONTINUOUS
 10
7.6080608032
 20
3.1186170937
 11
7.7741097358
 21
3.1187090853
  0
LINE
  5
232
100
AcDbEntity
  8
0
100
AcDbLine
 62
7
  6
CONTINUOUS
 10
7.6180869866
 20
2.9627049854
 11
7.547266266
 21
2.9626474715
  0
LINE
  5
233
100
AcDbEntity
  8
0
100
AcDbLine
 62
7
  6
CONTINUOUS
 10
7.547266266
 20
2.9626474715
 11
7.3442098231
 21
2.9625904028
  0
LINE
  5
234
100
AcDbEntity
  8
0
100
AcDbLine
 62
7
  6
CONTINUOUS
 10
6.6019888427
 20
2.9624895104
 11
7.3442098231
 21
2.9625904028
  0
LINE
  5
235
100
AcDbEntity
  8
0
100
AcDbLine
 62
7
  6
CONTINUOUS
 10
2.7741097375
 20
3.1185780308
 11
7.6080608032
 21
3.1186170937
  0
LINE
  5
236
100
AcDbEntity
  8
0
100
AcDbLine
 62
7
  6
CONTINUOUS
 10
3.0857962306
 20
2.962504039
 11
6.6019888427
 21
2.9624895104
  0
LINE
  5
237
100
AcDbEntity
  8
0
100
AcDbLine
 62
7
  6
CONTINUOUS
 10
2.9301406644
 20
2.9625821323
 11
7.3442098231
 21
2.9625904028
  0
LINE
  5
238
100
AcDbEntity
  8
0
100
AcDbLine
 62
7
  6
CONTINUOUS
 10
4.8980221095
 20
5.6005804884
 11
4.8980201035
 21
5.5563935475
  0
LINE
  5
239
100
AcDbEntity
  8
0
100
AcDbLine
 62
7
  6
CONTINUOUS
 10
7.7741001878
 20
3.482709102
 11
7.7734925567
 21
3.482703676
  0
LINE
  5
23A
100
AcDbEntity
  8
0
100
AcDbLine
 62
7
  6
CONTINUOUS
 10
4.8083717473
 20
3.4823914646
 11
3.9766702439
 21
3.4824005093
  0
LINE
  5
23B
100
AcDbEntity
  8
0
100
AcDbLine
 62
7
  6
CONTINUOUS
 10
5.0332526212
 20
3.5083122327
 11
7.7581690224
 21
3.5085995024
  0
LINE
  5
23C
100
AcDbEntity
  8
0
100
AcDbLine
 62
7
  6
CONTINUOUS
 10
2.7740995174
 20
3.508494562
 11
3.7880380973
 21
3.5083263494
  0
LINE
  5
23D
100
AcDbEntity
  8
0
100
AcDbLine
 62
7
  6
CONTINUOUS
 10
2.0899943955
 20
4.9046692016
 11
2.4976408044
 21
4.7105539806
  0
LINE
  5
23E
100
AcDbEntity
  8
0
100
AcDbLine
 62
7
  6
CONTINUOUS
 10
4.5183143619
 20
3.6383093787
 11
4.7792723326
 21
3.6383753228
  0
LINE
  5
23F
100
AcDbEntity
  8
0
100
AcDbLine
 62
7
  6
CONTINUOUS
 10
4.6637494409
 20
3.7861433197
 11
4.853831128
 21
3.7861967406
  0
LINE
  5
240
100
AcDbEntity
  8
0
100
AcDbLine
 62
7
  6
CONTINUOUS
 10
3.6853563052
 20
3.6383188235
 11
4.5183143619
 21
3.6383093787
  0
LINE
  5
241
100
AcDbEntity
  8
0
100
AcDbLine
 62
7
  6
CONTINUOUS
 10
7.929456489
 20
3.6387074285
 11
8.5747196361
 21
3.6387370224
  0
LINE
  5
242
100
AcDbEntity
  8
0
100
AcDbLine
 62
7
  6
CONTINUOUS
 10
5.0242182003
 20
3.6513430751
 11
7.8513185336
 21
3.6516411195
  0
LINE
  5
243
100
AcDbEntity
  8
0
100
AcDbLine
 62
7
  6
CONTINUOUS
 10
3.6295236467
 20
3.7861387234
 11
4.4624817034
 21
3.7861292786
  0
LINE
  5
244
100
AcDbEntity
  8
0
100
AcDbLine
 62
7
  6
CONTINUOUS
 10
8.0752082317
 20
3.786536352
 11
8.5990860934
 21
3.7865581998
  0
LINE
  5
245
100
AcDbEntity
  8
0
100
AcDbLine
 62
7
  6
CONTINUOUS
 10
5.0151862953
 20
3.7943750988
 11
7.9444663262
 21
3.7946839162
  0
LINE
  5
246
100
AcDbEntity
  8
0
100
AcDbLine
 62
7
  6
CONTINUOUS
 10
2.6803457682
 20
3.6515338374
 11
3.6231115497
 21
3.6513630644
  0
LINE
  5
247
100
AcDbEntity
  8
0
100
AcDbLine
 62
7
  6
CONTINUOUS
 10
2.586592019
 20
3.7945731128
 11
3.5297094621
 21
3.7943979393
  0
LINE
  5
248
100
AcDbEntity
  8
0
100
AcDbLine
 62
7
  6
CONTINUOUS
 10
9.3365543256
 20
4.9627492884
 11
9.3365614023
 21
4.9627500304
  0
LINE
  5
249
100
AcDbEntity
  8
0
100
AcDbLine
 62
7
  6
CONTINUOUS
 10
1.2115684818
 20
4.9625363252
 11
1.2115614051
 21
4.9625370668
  0
LWPOLYLINE
  5
24A
100
AcDbEntity
  8
0
100
AcDbPolyline
 62
7
  6
CONTINUOUS
 90
28
 70
0
 10
3.3457161822
 20
4.9274155233
 10
3.3459732004
 20
4.9273665705
 10
3.3471526798
 20
4.9271207958
 10
3.349177273
 20
4.9266505972
 10
3.3521464526
 20
4.9258774754
 10
3.3560932494
 20
4.9247168662
 10
3.360829965
 20
4.923138068
 10
3.3661092419
 20
4.9211460785
 10
3.3718584844
 20
4.9186970211
 10
3.3780101948
 20
4.9157442223
 10
3.3843509266
 20
4.912323449
 10
3.3907991435
 20
4.9084253074
 10
3.3973340837
 20
4.9040062963
 10
3.4038581762
 20
4.899075247
 10
3.4103226243
 20
4.8936138372
 10
3.4166748957
 20
4.8876074209
 10
3.4228236356
 20
4.8810855347
 10
3.4287187192
 20
4.8740470859
 10
3.4343098927
 20
4.8664930088
 10
3.4395181718
 20
4.8584727587
 10
3.444294942
 20
4.8500074783
 10
3.4485985128
 20
4.8411106986
 10
3.4523730241
 20
4.8318340211
 10
3.455579256
 20
4.8222067886
 10
3.4581790498
 20
4.8122626967
 10
3.4601311756
 20
4.8020694859
 10
3.4614064194
 20
4.7916794038
 10
3.4616585268
 20
4.7884550889
  0
LINE
  5
24B
100
AcDbEntity
  8
0
100
AcDbLine
 62
7
  6
CONTINUOUS
 10
9.336548592
 20
5.1814992873
 11
9.3365556687
 21
5.1815000292
  0
LINE
  5
24C
100
AcDbEntity
  8
0
100
AcDbLine
 62
7
  6
CONTINUOUS
 10
8.9227726407
 20
4.9402563254
 11
8.9385248367
 21
4.9418873
  0
LINE
  5
24D
100
AcDbEntity
  8
0
100
AcDbLine
 62
7
  6
CONTINUOUS
 10
9.3365543256
 20
4.9627492884
 11
8.9355314104
 21
4.9417220646
  0
LINE
  5
24E
100
AcDbEntity
  8
0
100
AcDbLine
 62
7
  6
CONTINUOUS
 10
7.9396520257
 20
4.5698184029
 11
5.0549269652
 21
4.5695142828
  0
LINE
  5
24F
100
AcDbEntity
  8
0
100
AcDbLine
 62
7
  6
CONTINUOUS
 10
8.0278502937
 20
4.7106643714
 11
5.0476719463
 21
4.7103501882
  0
LINE
  5
250
100
AcDbEntity
  8
0
100
AcDbLine
 62
7
  6
CONTINUOUS
 10
3.4764854338
 20
4.5695396076
 11
2.5865717019
 21
4.5697116019
  0
LINE
  5
251
100
AcDbEntity
  8
0
100
AcDbLine
 62
7
  6
CONTINUOUS
 10
3.4669461086
 20
4.7103733085
 11
2.4976408044
 21
4.7105539806
  0
LINE
  5
252
100
AcDbEntity
  8
0
100
AcDbLine
 62
7
  6
CONTINUOUS
 10
1.2115684818
 20
4.9625363252
 11
2.0310912595
 21
4.9196085708
  0
LINE
  5
253
100
AcDbEntity
  8
0
100
AcDbLine
 62
7
  6
CONTINUOUS
 10
1.2115627482
 20
5.1812863241
 11
1.2115556715
 21
5.1812870657
  0
LINE
  5
254
100
AcDbEntity
  8
0
100
AcDbLine
 62
7
  6
CONTINUOUS
 10
3.3488825553
 20
4.9269298434
 11
3.3488986468
 21
4.9269275749
  0
LINE
  5
255
100
AcDbEntity
  8
0
100
AcDbLine
 62
7
  6
CONTINUOUS
 10
6.445992914
 20
2.8066742755
 11
6.4460215953
 21
1.7124242811
  0
LINE
  5
256
100
AcDbEntity
  8
0
100
AcDbLine
 62
7
  6
CONTINUOUS
 10
9.1038328303
 20
5.2857327045
 11
9.1683476747
 21
5.2892330558
  0
LINE
  5
257
100
AcDbEntity
  8
0
100
AcDbLine
 62
7
  6
CONTINUOUS
 10
9.2741790236
 20
5.2272503543
 11
9.0866626101
 21
5.2174230355
  0
LINE
  5
258
100
AcDbEntity
  8
0
100
AcDbLine
 62
7
  6
CONTINUOUS
 10
8.9572374653
 20
5.2106401511
 11
8.9203028942
 21
5.2087044922
  0
LINE
  5
259
100
AcDbEntity
  8
0
100
AcDbLine
 62
7
  6
CONTINUOUS
 10
8.685384507
 20
5.1963929413
 11
8.6487899226
 21
5.1944751004
  0
LINE
  5
25A
100
AcDbEntity
  8
0
100
AcDbLine
 62
7
  6
CONTINUOUS
 10
8.4916662628
 20
5.1862405983
 11
8.4573562127
 21
5.1844424847
  0
LINE
  5
25B
100
AcDbEntity
  8
0
100
AcDbLine
 62
7
  6
CONTINUOUS
 10
9.0667318869
 20
4.9626005441
 11
9.3365543256
 21
4.9627492884
  0
LINE
  5
25C
100
AcDbEntity
  8
0
100
AcDbLine
 62
7
  6
CONTINUOUS
 10
8.5025685247
 20
4.9197488512
 11
8.3016423062
 21
4.9196598349
  0
LINE
  5
25D
100
AcDbEntity
  8
0
100
AcDbLine
 62
7
  6
CONTINUOUS
 10
9.0667261533
 20
5.181350543
 11
9.336548592
 21
5.1814992873
  0
LINE
  5
25E
100
AcDbEntity
  8
0
100
AcDbLine
 62
7
  6
CONTINUOUS
 10
8.4439234405
 20
4.9048064109
 11
4.9089074065
 21
4.9044337341
  0
LINE
  5
25F
100
AcDbEntity
  8
0
100
AcDbLine
 62
7
  6
CONTINUOUS
 10
8.3016423062
 20
4.9196598349
 11
4.9021512827
 21
4.9193692797
  0
LINE
  5
260
100
AcDbEntity
  8
0
100
AcDbLine
 62
7
  6
CONTINUOUS
 10
9.0667318869
 20
4.9626005441
 11
4.4259468583
 21
4.9622327415
  0
LINE
  5
261
100
AcDbEntity
  8
0
100
AcDbLine
 62
7
  6
CONTINUOUS
 10
9.0667261533
 20
5.181350543
 11
8.0873741597
 21
5.1811806841
  0
LINE
  5
262
100
AcDbEntity
  8
0
100
AcDbLine
 62
7
  6
CONTINUOUS
 10
8.0873741597
 20
5.1811806841
 11
6.0492172187
 21
5.181023771
  0
LINE
  5
263
100
AcDbEntity
  8
0
100
AcDbLine
 62
7
  6
CONTINUOUS
 10
6.0492172187
 20
5.181023771
 11
2.8782125104
 21
5.1810098915
  0
LINE
  5
264
100
AcDbEntity
  8
0
100
AcDbLine
 62
7
  6
CONTINUOUS
 10
2.701437317
 20
5.1862405983
 11
1.7629577805
 21
5.1862405983
  0
LINE
  5
265
100
AcDbEntity
  8
0
100
AcDbLine
 62
7
  6
CONTINUOUS
 10
2.878212745
 20
5.1862405983
 11
8.7886109125
 21
5.1862405983
  0
LINE
  5
266
100
AcDbEntity
  8
0
100
AcDbLine
 62
7
  6
CONTINUOUS
 10
3.3966749356
 20
4.9044520208
 11
2.0899943954
 21
4.9046692017
  0
LINE
  5
267
100
AcDbEntity
  8
0
100
AcDbLine
 62
7
  6
CONTINUOUS
 10
3.370237613
 20
4.9193874785
 11
2.03109141
 21
4.919608563
  0
LINE
  5
268
100
AcDbEntity
  8
0
100
AcDbLine
 62
7
  6
CONTINUOUS
 10
4.4259468583
 20
4.9622327415
 11
1.2115684818
 21
4.9625363252
  0
LINE
  5
269
100
AcDbEntity
  8
0
100
AcDbLine
 62
7
  6
CONTINUOUS
 10
2.8782125104
 20
5.1810098915
 11
1.4813851906
 21
5.1811517244
  0
LINE
  5
26A
100
AcDbEntity
  8
0
100
AcDbLine
 62
7
  6
CONTINUOUS
 10
1.4813851906
 20
5.1811517244
 11
1.2115627482
 21
5.1812863241
  0
LINE
  5
26B
100
AcDbEntity
  8
0
100
AcDbLine
 62
7
  6
CONTINUOUS
 10
1.2741790236
 20
5.2272503543
 11
1.4616954371
 21
5.2174230355
  0
LINE
  5
26C
100
AcDbEntity
  8
0
100
AcDbLine
 62
7
  6
CONTINUOUS
 10
2.0566917843
 20
5.1862405983
 11
2.1491790236
 21
5.1813935475
  0
LINE
  5
26D
100
AcDbEntity
  8
0
100
AcDbLine
 62
7
  6
CONTINUOUS
 10
2.5345558958
 20
5.2762026888
 11
2.3587449565
 21
5.2892330558
  0
LINE
  5
26E
100
AcDbEntity
  8
0
100
AcDbLine
 62
7
  6
CONTINUOUS
 10
9.062630559
 20
5.2009802862
 11
8.9720476284
 21
5.2009802862
  0
LINE
  5
26F
100
AcDbEntity
  8
0
100
AcDbLine
 62
7
  6
CONTINUOUS
 10
2.5024469953
 20
5.2009802862
 11
1.4883770735
 21
5.2009802862
  0
LINE
  5
270
100
AcDbEntity
  8
0
100
AcDbLine
 62
7
  6
CONTINUOUS
 10
2.6792225118
 20
5.2009802862
 11
8.9475603283
 21
5.2009802862
  0
LINE
  5
271
100
AcDbEntity
  8
0
100
AcDbLine
 62
7
  6
CONTINUOUS
 10
2.6743114288
 20
5.2026833476
 11
2.5074582302
 21
5.2026833476
  0
LINE
  5
272
100
AcDbEntity
  8
0
100
AcDbLine
 62
7
  6
CONTINUOUS
 10
9.0866626101
 20
5.2174230355
 11
8.9871278657
 21
5.2174230355
  0
LINE
  5
273
100
AcDbEntity
  8
0
100
AcDbLine
 62
7
  6
CONTINUOUS
 10
8.9224231045
 20
5.2174230355
 11
2.6681837592
 21
5.2174230355
  0
LINE
  5
274
100
AcDbEntity
  8
0
100
AcDbLine
 62
7
  6
CONTINUOUS
 10
2.4914070639
 20
5.2174230355
 11
1.4616954371
 21
5.2174230355
  0
LINE
  5
275
100
AcDbEntity
  8
0
100
AcDbLine
 62
7
  6
CONTINUOUS
 10
9.2741790236
 20
5.2272503543
 11
9.1683476747
 21
5.2272503543
  0
LINE
  5
276
100
AcDbEntity
  8
0
100
AcDbLine
 62
7
  6
CONTINUOUS
 10
9.1036429134
 20
5.2272503543
 11
2.5355216518
 21
5.2272503543
  0
LINE
  5
277
100
AcDbEntity
  8
0
100
AcDbLine
 62
7
  6
CONTINUOUS
 10
2.3587449565
 20
5.2272503543
 11
1.2741790236
 21
5.2272503543
  0
LINE
  5
278
100
AcDbEntity
  8
0
100
AcDbLine
 62
7
  6
CONTINUOUS
 10
9.2741790236
 20
5.5105367406
 11
8.1896130907
 21
5.5105367406
  0
LINE
  5
279
100
AcDbEntity
  8
0
100
AcDbLine
 62
7
  6
CONTINUOUS
 10
8.0128363954
 20
5.5105367406
 11
1.4447151338
 21
5.5105367406
  0
LINE
  5
27A
100
AcDbEntity
  8
0
100
AcDbLine
 62
7
  6
CONTINUOUS
 10
1.3800103725
 20
5.5105367406
 11
1.2741790236
 21
5.5105367406
  0
LINE
  5
27B
100
AcDbEntity
  8
0
100
AcDbLine
 62
7
  6
CONTINUOUS
 10
4.8042840102
 20
5.8630847559
 11
4.8042902724
 21
5.8630818355
  0
LINE
  5
27C
100
AcDbEntity
  8
0
100
AcDbLine
 62
7
  6
CONTINUOUS
 10
1.3800103725
 20
5.4485540391
 11
1.4445252169
 21
5.4520543904
  0
LINE
  5
27D
100
AcDbEntity
  8
0
100
AcDbLine
 62
7
  6
CONTINUOUS
 10
2.1491790236
 20
5.5563935475
 11
2.0566917843
 21
5.5515464966
  0
LINE
  5
27E
100
AcDbEntity
  8
0
100
AcDbLine
 62
7
  6
CONTINUOUS
 10
1.8995684198
 20
5.54331201
 11
1.8629735402
 21
5.5413941537
  0
LINE
  5
27F
100
AcDbEntity
  8
0
100
AcDbLine
 62
7
  6
CONTINUOUS
 10
1.6280552751
 20
5.5290826091
 11
1.5911205818
 21
5.5271469438
  0
LINE
  5
280
100
AcDbEntity
  8
0
100
AcDbLine
 62
7
  6
CONTINUOUS
 10
1.4616954371
 20
5.5203640594
 11
1.2741790236
 21
5.5105367406
  0
LINE
  5
281
100
AcDbEntity
  8
0
100
AcDbLine
 62
7
  6
CONTINUOUS
 10
4.3946342435
 20
5.6699450466
 11
4.4639162691
 21
5.6699622329
  0
LINE
  5
282
100
AcDbEntity
  8
0
100
AcDbLine
 62
7
  6
CONTINUOUS
 10
1.4616954371
 20
5.5203640594
 11
1.5612301814
 21
5.5203640594
  0
LINE
  5
283
100
AcDbEntity
  8
0
100
AcDbLine
 62
7
  6
CONTINUOUS
 10
1.6259349427
 20
5.5203640594
 11
7.8801742879
 21
5.5203640594
  0
LINE
  5
284
100
AcDbEntity
  8
0
100
AcDbLine
 62
7
  6
CONTINUOUS
 10
8.0569509832
 20
5.5203640594
 11
9.0866626101
 21
5.5203640594
  0
LINE
  5
285
100
AcDbEntity
  8
0
100
AcDbLine
 62
7
  6
CONTINUOUS
 10
7.8740469566
 20
5.5351037473
 11
8.0408987899
 21
5.5351037473
  0
LINE
  5
286
100
AcDbEntity
  8
0
100
AcDbLine
 62
7
  6
CONTINUOUS
 10
9.0645892268
 20
5.5368068087
 11
8.0459110482
 21
5.5368068087
  0
LINE
  5
287
100
AcDbEntity
  8
0
100
AcDbLine
 62
7
  6
CONTINUOUS
 10
1.57631042
 20
5.5368068087
 11
1.4785424444
 21
5.5368068087
  0
LINE
  5
288
100
AcDbEntity
  8
0
100
AcDbLine
 62
7
  6
CONTINUOUS
 10
1.6007977189
 20
5.5368068087
 11
7.8691355393
 21
5.5368068087
  0
LINE
  5
289
100
AcDbEntity
  8
0
100
AcDbLine
 62
7
  6
CONTINUOUS
 10
8.7864001287
 20
5.5515464966
 11
7.8469207263
 21
5.5515464966
  0
LINE
  5
28A
100
AcDbEntity
  8
0
100
AcDbLine
 62
7
  6
CONTINUOUS
 10
1.7696381005
 20
5.5515464966
 11
7.6701453063
 21
5.5515464966
  0
LINE
  5
28B
100
AcDbEntity
  8
0
100
AcDbLine
 62
7
  6
CONTINUOUS
 10
7.3937308925
 20
5.5563935475
 11
5.5117650653
 21
5.5563935475
  0
LINE
  5
28C
100
AcDbEntity
  8
0
100
AcDbLine
 62
7
  6
CONTINUOUS
 10
5.4924586324
 20
5.5563935475
 11
5.3253356164
 21
5.5563935475
  0
LINE
  5
28D
100
AcDbEntity
  8
0
100
AcDbLine
 62
7
  6
CONTINUOUS
 10
5.2230224308
 20
5.5563935475
 11
5.0464573344
 21
5.5563935475
  0
LINE
  5
28E
100
AcDbEntity
  8
0
100
AcDbLine
 62
7
  6
CONTINUOUS
 10
5.0365929819
 20
5.5563935475
 11
3.7378380934
 21
5.5563935475
  0
LINE
  5
28F
100
AcDbEntity
  8
0
100
AcDbLine
 62
7
  6
CONTINUOUS
 10
2.1491974741
 20
5.5563935475
 11
3.710749476
 21
5.5563935475
  0
LINE
  5
290
100
AcDbEntity
  8
0
100
AcDbLine
 62
7
  6
CONTINUOUS
 10
7.4076671611
 20
5.5563935475
 11
8.389320647
 21
5.5563935475
  0
LINE
  5
291
100
AcDbEntity
  8
0
100
AcDbLine
 62
7
  6
CONTINUOUS
 10
7.6476206842
 20
5.6010185475
 11
8.3040355658
 21
5.6010185475
  0
LINE
  5
292
100
AcDbEntity
  8
0
100
AcDbLine
 62
7
  6
CONTINUOUS
 10
4.2105256561
 20
5.6006117035
 11
4.8980185636
 21
5.6005804849
  0
LINE
  5
293
100
AcDbEntity
  8
0
100
AcDbLine
 62
7
  6
CONTINUOUS
 10
8.4573562127
 20
5.5533446102
 11
8.4916662628
 21
5.5515464966
  0
LINE
  5
294
100
AcDbEntity
  8
0
100
AcDbLine
 62
7
  6
CONTINUOUS
 10
9.0866626101
 20
5.5203640594
 11
9.2741790236
 21
5.5105367406
  0
LINE
  5
295
100
AcDbEntity
  8
0
100
AcDbLine
 62
7
  6
CONTINUOUS
 10
8.1896130907
 20
5.4485540391
 11
8.0138021514
 21
5.4615844061
  0
LINE
  5
296
100
AcDbEntity
  8
0
100
AcDbLine
 62
7
  6
CONTINUOUS
 10
7.6273535427
 20
6.1813935475
 11
7.6491790236
 21
5.5563935475
  0
LINE
  5
297
100
AcDbEntity
  8
0
100
AcDbLine
 62
7
  6
CONTINUOUS
 10
7.4175964541
 20
5.5546261171
 11
7.4175964541
 21
5.5563935475
  0
LINE
  5
298
100
AcDbEntity
  8
0
100
AcDbLine
 62
7
  6
CONTINUOUS
 10
7.7102855658
 20
5.8620357926
 11
7.7102855658
 21
5.6010185475
  0
LINE
  5
299
100
AcDbEntity
  8
0
100
AcDbLine
 62
7
  6
CONTINUOUS
 10
7.7155662612
 20
5.6010185475
 11
7.7155662612
 21
5.846882959
  0
LINE
  5
29A
100
AcDbEntity
  8
0
100
AcDbLine
 62
7
  6
CONTINUOUS
 10
4.7990025762
 20
5.8464244204
 11
4.8042832716
 21
5.8464257303
  0
LINE
  5
29B
100
AcDbEntity
  8
0
100
AcDbLine
 62
7
  6
CONTINUOUS
 10
4.4089344945
 20
5.8505735891
 11
4.4639244771
 21
5.8505872301
  0
LINE
  5
29C
100
AcDbEntity
  8
0
100
AcDbLine
 62
7
  6
CONTINUOUS
 10
4.5490025765
 20
5.8464123481
 11
4.5595639673
 21
5.8464118686
  0
LINE
  5
29D
100
AcDbEntity
  8
0
100
AcDbLine
 62
7
  6
CONTINUOUS
 10
7.7102855658
 20
5.846882959
 11
7.7155662612
 21
5.846882959
  0
LINE
  5
29E
100
AcDbEntity
  8
0
100
AcDbLine
 62
7
  6
CONTINUOUS
 10
7.9550048704
 20
5.846882959
 11
7.9655662612
 21
5.846882959
  0
LINE
  5
29F
100
AcDbEntity
  8
0
100
AcDbLine
 62
7
  6
CONTINUOUS
 10
8.2050048704
 20
5.846882959
 11
8.2102855658
 21
5.846882959
  0
LINE
  5
2A0
100
AcDbEntity
  8
0
100
AcDbLine
 62
7
  6
CONTINUOUS
 10
7.7135063122
 20
5.8635185475
 11
8.2070648193
 21
5.8635185475
  0
LINE
  5
2A1
100
AcDbEntity
  8
0
100
AcDbLine
 62
7
  6
CONTINUOUS
 10
4.3042832721
 20
5.8464484296
 11
4.3095639675
 21
5.8464466402
  0
LINE
  5
2A2
100
AcDbEntity
  8
0
100
AcDbLine
 62
7
  6
CONTINUOUS
 10
4.3042840273
 20
5.8631074398
 11
4.8042840267
 21
5.8630847405
  0
LINE
  5
2A3
100
AcDbEntity
  8
0
100
AcDbLine
 62
7
  6
CONTINUOUS
 10
7.774100195
 20
3.4827090834
 11
7.7741097358
 21
3.1187090853
  0
LINE
  5
2A4
100
AcDbEntity
  8
0
100
AcDbLine
 62
7
  6
CONTINUOUS
 10
7.9550048704
 20
5.846882959
 11
7.9550048704
 21
5.6010185475
  0
LINE
  5
2A5
100
AcDbEntity
  8
0
100
AcDbLine
 62
7
  6
CONTINUOUS
 10
7.9655662612
 20
5.6010185475
 11
7.9655662612
 21
5.846882959
  0
LINE
  5
2A6
100
AcDbEntity
  8
0
100
AcDbLine
 62
7
  6
CONTINUOUS
 10
8.0128363954
 20
5.5105367406
 11
8.0128363954
 21
5.4485540391
  0
LINE
  5
2A7
100
AcDbEntity
  8
0
100
AcDbLine
 62
7
  6
CONTINUOUS
 10
7.6273535427
 20
6.1813935475
 11
2.9210045045
 21
6.1813935475
  0
LINE
  5
2A8
100
AcDbEntity
  8
0
100
AcDbLine
 62
7
  6
CONTINUOUS
 10
8.1896130907
 20
5.5105367406
 11
8.1896130907
 21
5.4485540391
  0
LINE
  5
2A9
100
AcDbEntity
  8
0
100
AcDbLine
 62
7
  6
CONTINUOUS
 10
8.2050048704
 20
5.846882959
 11
8.2050048704
 21
5.6010185475
  0
LINE
  5
2AA
100
AcDbEntity
  8
0
100
AcDbLine
 62
7
  6
CONTINUOUS
 10
8.2102855658
 20
5.6010185475
 11
8.2102855658
 21
5.8620357926
  0
LINE
  5
2AB
100
AcDbEntity
  8
0
100
AcDbLine
 62
7
  6
CONTINUOUS
 10
8.3040355658
 20
5.6010185475
 11
8.3040355658
 21
5.5563935475
  0
LINE
  5
2AC
100
AcDbEntity
  8
0
100
AcDbLine
 62
7
  6
CONTINUOUS
 10
8.6587032062
 20
4.7810236058
 11
8.5990860934
 21
3.7865581998
  0
LWPOLYLINE
  5
2AD
100
AcDbEntity
  8
0
100
AcDbPolyline
 62
7
  6
CONTINUOUS
 90
14
 70
0
 10
8.7909722629
 20
4.7954340301
 10
8.7925446869
 20
4.8100667604
 10
8.7959164124
 20
4.8261320757
 10
8.8009593336
 20
4.8417586118
 10
8.8076183078
 20
4.8567713952
 10
8.8158179248
 20
4.8709997133
 10
8.8254668332
 20
4.8842859981
 10
8.8364578351
 20
4.8964834476
 10
8.8486655788
 20
4.9074546082
 10
8.8619542686
 20
4.9170796875
 10
8.8761753622
 20
4.9252531657
 10
8.8911651033
 20
4.9318840596
 10
8.9067546043
 20
4.9369020636
 10
8.9227726407
 20
4.9402563254
  0
LINE
  5
2AE
100
AcDbEntity
  8
0
100
AcDbLine
 62
7
  6
CONTINUOUS
 10
8.7909617838
 20
4.7952611032
 11
8.730436109
 21
3.7854039275
  0
LINE
  5
2AF
100
AcDbEntity
  8
0
100
AcDbLine
 62
7
  6
CONTINUOUS
 10
9.1036429134
 20
5.2892330558
 11
9.1036429134
 21
5.2272503543
  0
LINE
  5
2B0
100
AcDbEntity
  8
0
100
AcDbLine
 62
7
  6
CONTINUOUS
 10
9.1683476747
 20
5.2892330558
 11
9.1683476747
 21
5.2272503543
  0
LINE
  5
2B1
100
AcDbEntity
  8
0
100
AcDbLine
 62
7
  6
CONTINUOUS
 10
9.2741790236
 20
5.5105367406
 11
9.2741790236
 21
5.2272503543
  0
LINE
  5
2B2
100
AcDbEntity
  8
0
100
AcDbLine
 62
7
  6
CONTINUOUS
 10
9.3365556687
 20
5.1815000292
 11
9.3365614023
 21
4.9627500304
  0
ARC
  5
2B3
100
AcDbEntity
  8
0
100
AcDbCircle
 62
7
  6
CONTINUOUS
 10
-57.7105948118
 20
146.1401342006
 40
155.9610146833
100
AcDbArc
 50
294.9296804908
 51
295.0983553188
  0
ARC
  5
2B4
100
AcDbEntity
  8
0
100
AcDbCircle
 62
7
  6
CONTINUOUS
 10
-55.0509558215
 20
140.4787774114
 40
149.8441780541
100
AcDbArc
 50
294.9131530331
 51
295.0887992921
  0
ARC
  5
2B5
100
AcDbEntity
  8
0
100
AcDbCircle
 62
7
  6
CONTINUOUS
 10
92.3312991286
 20
67.2624553621
 40
107.3834132247
100
AcDbArc
 50
215.5001023549
 51
215.6274037902
  0
ARC
  5
2B6
100
AcDbEntity
  8
0
100
AcDbCircle
 62
7
  6
CONTINUOUS
 10
4.0277421844
 20
65.370333471
 40
60.5784739434
100
AcDbArc
 50
269.5588092793
 51
270.4399007001
  0
ARC
  5
2B7
100
AcDbEntity
  8
0
100
AcDbCircle
 62
7
  6
CONTINUOUS
 10
3.97480359
 20
65.2484533416
 40
60.3089868843
100
AcDbArc
 50
269.5578279589
 51
270.440872706
  0
ARC
  5
2B8
100
AcDbEntity
  8
0
100
AcDbCircle
 62
7
  6
CONTINUOUS
 10
49.2356855563
 20
36.9348607026
 40
54.8901430761
100
AcDbArc
 50
215.8704317447
 51
216.1208324623
  0
ARC
  5
2B9
100
AcDbEntity
  8
0
100
AcDbCircle
 62
7
  6
CONTINUOUS
 10
4.4276718132
 20
5.4364210988
 40
0.4266991751
100
AcDbArc
 50
84.0836252526
 51
84.9303550522
  0
ARC
  5
2BA
100
AcDbEntity
  8
0
100
AcDbCircle
 62
7
  6
CONTINUOUS
 10
4.4281408609
 20
5.4416470347
 40
0.4214522349
100
AcDbArc
 50
84.9310911673
 51
85.129340674
  0
ARC
  5
2BB
100
AcDbEntity
  8
0
100
AcDbCircle
 62
7
  6
CONTINUOUS
 10
2.6180995175
 20
3.508490473
 40
0.156
100
AcDbArc
 50
0.0015017739
 51
66.4834198556
  0
ARC
  5
2BC
100
AcDbEntity
  8
0
100
AcDbCircle
 62
7
  6
CONTINUOUS
 10
7.9301001949
 20
3.4827131723
 40
0.156
100
AcDbArc
 50
90.0007850738
 51
180.0015017739
  0
ARC
  5
2BD
100
AcDbEntity
  8
0
100
AcDbCircle
 62
7
  6
CONTINUOUS
 10
2.430571702
 20
4.569707513
 40
0.156
100
AcDbArc
 50
0.0015017739
 51
64.5368967557
  0
ARC
  5
2BE
100
AcDbEntity
  8
0
100
AcDbCircle
 62
7
  6
CONTINUOUS
 10
2.0229252845
 20
4.7638227422
 40
0.156
100
AcDbArc
 50
64.5368967557
 51
87.0015017596
  0
ARC
  5
2BF
100
AcDbEntity
  8
0
100
AcDbCircle
 62
7
  6
CONTINUOUS
 10
2.7425920189
 20
3.7945772017
 40
0.156
100
AcDbArc
 50
180.0015017739
 51
246.4834198556
  0
ARC
  5
2C0
100
AcDbEntity
  8
0
100
AcDbCircle
 62
7
  6
CONTINUOUS
 10
6.2900215954
 20
1.7124201922
 40
0.156
100
AcDbArc
 50
270.0015017739
 51
0.0015017739
  0
ARC
  5
2C1
100
AcDbEntity
  8
0
100
AcDbCircle
 62
7
  6
CONTINUOUS
 10
4.258271596
 20
1.7123669382
 40
0.156
100
AcDbArc
 50
180.0015017739
 51
270.0015017739
  0
ARC
  5
2C2
100
AcDbEntity
  8
0
100
AcDbCircle
 62
7
  6
CONTINUOUS
 10
7.6181097358
 20
3.1187049964
 40
0.156
100
AcDbArc
 50
270.0015017739
 51
0.0015017739
  0
ARC
  5
2C3
100
AcDbEntity
  8
0
100
AcDbCircle
 62
7
  6
CONTINUOUS
 10
2.9301097374
 20
3.1185821197
 40
0.156
100
AcDbArc
 50
180.0015017739
 51
270.0015017739
  0
ARC
  5
2C4
100
AcDbEntity
  8
0
100
AcDbCircle
 62
7
  6
CONTINUOUS
 10
6.601992914
 20
2.8066783644
 40
0.156
100
AcDbArc
 50
91.3291366654
 51
180.0015017739
  0
ARC
  5
2C5
100
AcDbEntity
  8
0
100
AcDbCircle
 62
7
  6
CONTINUOUS
 10
3.9462429149
 20
2.8066087548
 40
0.156
100
AcDbArc
 50
0.0015017739
 51
88.6738823173
  0
ARC
  5
2C6
100
AcDbEntity
  8
0
100
AcDbCircle
 62
7
  6
CONTINUOUS
 10
8.574715523
 20
3.7947369366
 40
0.1559982759
100
AcDbArc
 50
270.0023820399
 51
356.5701187102
  0
ARC
  5
2C7
100
AcDbEntity
  8
0
100
AcDbCircle
 62
7
  6
CONTINUOUS
 10
3.6853499113
 20
3.7943162897
 40
0.1559954763
100
AcDbArc
 50
183.8741211942
 51
270.0002200468
  0
ARC
  5
2C8
100
AcDbEntity
  8
0
100
AcDbCircle
 62
7
  6
CONTINUOUS
 10
7.9294751767
 20
3.4827303998
 40
0.1559777292
100
AcDbArc
 50
90.0069205935
 51
180.0098166832
  0
ARC
  5
2C9
100
AcDbEntity
  8
0
100
AcDbCircle
 62
7
  6
CONTINUOUS
 10
8.5107149867
 20
4.7652218054
 40
0.1547416321
100
AcDbArc
 50
93.0177642735
 51
115.5712190667
  0
ARC
  5
2CA
100
AcDbEntity
  8
0
100
AcDbCircle
 62
7
  6
CONTINUOUS
 10
4.7082451336
 20
3.7757249061
 40
0.1373622353
100
AcDbArc
 50
270.0802613741
 51
288.5528233326
  0
ARC
  5
2CB
100
AcDbEntity
  8
0
100
AcDbCircle
 62
7
  6
CONTINUOUS
 10
3.3298521262
 20
4.7922001454
 40
0.1360603664
100
AcDbArc
 50
81.960217302
 51
83.0511227599
  0
ARC
  5
2CC
100
AcDbEntity
  8
0
100
AcDbCircle
 62
7
  6
CONTINUOUS
 10
3.3299756831
 20
4.7934485176
 40
0.1348062187
100
AcDbArc
 50
83.0390591723
 51
89.2423348454
  0
ARC
  5
2CD
100
AcDbEntity
  8
0
100
AcDbCircle
 62
7
  6
CONTINUOUS
 10
8.7898090236
 20
5.5359214966
 40
0.015625
100
AcDbArc
 50
3.256751624
 51
90.0
  0
ARC
  5
2CE
100
AcDbEntity
  8
0
100
AcDbCircle
 62
7
  6
CONTINUOUS
 10
1.7585490236
 20
5.5359214966
 40
0.015625
100
AcDbArc
 50
90.0
 51
176.743248376
  0
ARC
  5
2CF
100
AcDbEntity
  8
0
100
AcDbCircle
 62
7
  6
CONTINUOUS
 10
9.0710590236
 20
5.5211818087
 40
0.015625
100
AcDbArc
 50
357.0
 51
90.0
  0
ARC
  5
2D0
100
AcDbEntity
  8
0
100
AcDbCircle
 62
7
  6
CONTINUOUS
 10
1.4772990236
 20
5.5211818087
 40
0.015625
100
AcDbArc
 50
90.0
 51
183.0
  0
ARC
  5
2D1
100
AcDbEntity
  8
0
100
AcDbCircle
 62
7
  6
CONTINUOUS
 10
8.7898090236
 20
5.2018655983
 40
0.015625
100
AcDbArc
 50
270.0
 51
356.743248376
  0
ARC
  5
2D2
100
AcDbEntity
  8
0
100
AcDbCircle
 62
7
  6
CONTINUOUS
 10
1.7585490236
 20
5.2018655983
 40
0.015625
100
AcDbArc
 50
183.256751624
 51
270.0
  0
ARC
  5
2D3
100
AcDbEntity
  8
0
100
AcDbCircle
 62
7
  6
CONTINUOUS
 10
9.0710590236
 20
5.2166052862
 40
0.015625
100
AcDbArc
 50
270.0
 51
3.0
  0
ARC
  5
2D4
100
AcDbEntity
  8
0
100
AcDbCircle
 62
7
  6
CONTINUOUS
 10
1.4772990236
 20
5.2166052862
 40
0.015625
100
AcDbArc
 50
177.0
 51
270.0
  0
LINE
  5
2D5
100
AcDbEntity
  8
0
100
AcDbLine
 62
7
  6
CONTINUOUS
 10
7.7135063122
 20
5.8635185475
 11
7.7102855658
 21
5.8620357926
  0
LINE
  5
2D6
100
AcDbEntity
  8
0
100
AcDbLine
 62
7
  6
CONTINUOUS
 10
8.2102855658
 20
5.8620357926
 11
8.2070648193
 21
5.8635185475
  0
SPLINE
  5
2D7
100
AcDbEntity
  8
0
100
AcDbSpline
 62
7
  6
CONTINUOUS
 70
0
 71
3
 72
11
 73
7
 74
0
 42
0.0000001
 43
0.0000001
 44
0.0000000001
 40
0.0
 40
0.0
 40
0.0
 40
0.0
 40
0.2492927649
 40
0.4989145477
 40
0.7491094734
 40
1.0
 40
1.0
 40
1.0
 40
1.0
 10
8.0852855658
 20
5.8635185475
 30
0.0
 10
8.095355695
 20
5.8635185475
 30
0.0
 10
8.1155169634
 20
5.8627535442
 30
0.0
 10
8.145615315
 20
5.8594113727
 30
0.0
 10
8.1754891218
 20
5.8540948188
 30
0.0
 10
8.1951976402
 20
5.8494383031
 30
0.0
 10
8.2050048704
 20
5.846882959
 30
0.0
  0
SPLINE
  5
2D8
100
AcDbEntity
  8
0
100
AcDbSpline
 62
7
  6
CONTINUOUS
 70
0
 71
3
 72
11
 73
7
 74
0
 42
0.0000001
 43
0.0000001
 44
0.0000000001
 40
0.0
 40
0.0
 40
0.0
 40
0.0
 40
0.250890471
 40
0.5010854972
 40
0.7507074095
 40
1.0
 40
1.0
 40
1.0
 40
1.0
 10
7.7155662612
 20
5.846882959
 30
0.0
 10
7.7253734858
 20
5.8494383017
 30
0.0
 10
7.7450820056
 20
5.854094772
 30
0.0
 10
7.7749558227
 20
5.8594113451
 30
0.0
 10
7.8050542198
 20
5.862752841
 30
0.0
 10
7.8252154469
 20
5.8635185475
 30
0.0
 10
7.8352855658
 20
5.8635185475
 30
0.0
  0
SPLINE
  5
2D9
100
AcDbEntity
  8
0
100
AcDbSpline
 62
7
  6
CONTINUOUS
 70
0
 71
3
 72
11
 73
7
 74
0
 42
0.0000001
 43
0.0000001
 44
0.0000000001
 40
0.0
 40
0.0
 40
0.0
 40
0.0
 40
0.2492927649
 40
0.4989145477
 40
0.7491094734
 40
1.0
 40
1.0
 40
1.0
 40
1.0
 10
7.8352855658
 20
5.8635185475
 30
0.0
 10
7.845355695
 20
5.8635185475
 30
0.0
 10
7.8655169634
 20
5.8627535442
 30
0.0
 10
7.895615315
 20
5.8594113727
 30
0.0
 10
7.9254891218
 20
5.8540948188
 30
0.0
 10
7.9451976402
 20
5.8494383031
 30
0.0
 10
7.9550048704
 20
5.846882959
 30
0.0
  0
SPLINE
  5
2DA
100
AcDbEntity
  8
0
100
AcDbSpline
 62
7
  6
CONTINUOUS
 70
0
 71
3
 72
11
 73
7
 74
0
 42
0.0000001
 43
0.0000001
 44
0.0000000001
 40
0.0
 40
0.0
 40
0.0
 40
0.0
 40
0.250890471
 40
0.5010854972
 40
0.7507074095
 40
1.0
 40
1.0
 40
1.0
 40
1.0
 10
7.9655662612
 20
5.846882959
 30
0.0
 10
7.9753734858
 20
5.8494383017
 30
0.0
 10
7.9950820056
 20
5.854094772
 30
0.0
 10
8.0249558227
 20
5.8594113451
 30
0.0
 10
8.0550542198
 20
5.862752841
 30
0.0
 10
8.0752154469
 20
5.8635185475
 30
0.0
 10
8.0852855658
 20
5.8635185475
 30
0.0
  0
LINE
  5
2DB
100
AcDbEntity
  8
0
100
AcDbLine
 62
7
  6
CONTINUOUS
 10
4.4655354166
 20
5.8630605206
 11
4.4639249761
 21
5.8615773663
  0
LINE
  5
2DC
100
AcDbEntity
  8
0
100
AcDbLine
 62
7
  6
CONTINUOUS
 10
4.4089344945
 20
5.8505735891
 11
4.4025893375
 21
5.8630720148
  0
LINE
  5
2DD
100
AcDbEntity
  8
0
100
AcDbLine
 62
7
  6
CONTINUOUS
 10
4.6559016808
 20
5.1813841232
 11
4.6697195231
 21
5.1810093863
  0
LINE
  5
2DE
100
AcDbEntity
  8
0
100
AcDbLine
 62
7
  6
CONTINUOUS
 10
4.3946429438
 20
5.8615872888
 11
4.3962533843
 21
5.8630704431
  0
SPLINE
  5
2DF
100
AcDbEntity
  8
0
100
AcDbSpline
 62
7
  6
CONTINUOUS
 70
0
 71
3
 72
12
 73
8
 74
0
 42
0.0000001
 43
0.0000001
 44
0.0000000001
 40
0.0
 40
0.0
 40
0.0
 40
0.0
 40
0.2507035671
 40
0.5009052194
 40
0.6258332574
 40
0.7506586216
 40
1.0
 40
1.0
 40
1.0
 40
1.0
 10
4.3095639675
 20
5.8464466402
 30
0.0
 10
4.3165605424
 20
5.8482686244
 30
0.0
 10
4.330600587
 20
5.8516806083
 30
0.0
 10
4.3482918032
 20
5.8552782136
 30
0.0
 10
4.3625066143
 20
5.8576969562
 30
0.0
 10
4.3767476296
 20
5.8597895948
 30
0.0
 10
4.3874781026
 20
5.8609788092
 30
0.0
 10
4.3946429438
 20
5.8615872888
 30
0.0
  0
LINE
  5
2E0
100
AcDbEntity
  8
0
100
AcDbLine
 62
7
  6
CONTINUOUS
 10
4.5402023454
 20
5.1809784683
 11
4.5376746473
 21
5.1813892175
  0
SPLINE
  5
2E1
100
AcDbEntity
  8
0
100
AcDbSpline
 62
7
  6
CONTINUOUS
 70
0
 71
3
 72
11
 73
7
 74
0
 42
0.0000001
 43
0.0000001
 44
0.0000000001
 40
0.0
 40
0.0
 40
0.0
 40
0.0
 40
0.2508926137
 40
0.5010885218
 40
0.7507097886
 40
1.0
 40
1.0
 40
1.0
 40
1.0
 10
4.5595639673
 20
5.8464118686
 30
0.0
 10
4.5693712871
 20
5.8489677199
 30
0.0
 10
4.5890799646
 20
5.8536252129
 30
0.0
 10
4.6189540058
 20
5.8589433542
 30
0.0
 10
4.649052541
 20
5.8622864334
 30
0.0
 10
4.6692138714
 20
5.8630532048
 30
0.0
 10
4.679284027
 20
5.8630537327
 30
0.0
  0
SPLINE
  5
2E2
100
AcDbEntity
  8
0
100
AcDbSpline
 62
7
  6
CONTINUOUS
 70
0
 71
3
 72
11
 73
7
 74
0
 42
0.0000001
 43
0.0000001
 44
0.0000000001
 40
0.0
 40
0.0
 40
0.0
 40
0.0
 40
0.2493891033
 40
0.4991486743
 40
0.7493453259
 40
1.0
 40
1.0
 40
1.0
 40
1.0
 10
4.4716546039
 20
5.8608474177
 30
0.0
 10
4.4781666186
 20
5.8601728691
 30
0.0
 10
4.49117131
 20
5.8585267729
 30
0.0
 10
4.5105705188
 20
5.8552350188
 30
0.0
 10
4.5298619822
 20
5.8512000601
 30
0.0
 10
4.5426353179
 20
5.8480723145
 30
0.0
 10
4.5490025765
 20
5.8464123481
 30
0.0
  0
SPLINE
  5
2E3
100
AcDbEntity
  8
0
100
AcDbSpline
 62
7
  6
CONTINUOUS
 70
0
 71
3
 72
11
 73
7
 74
0
 42
0.0000001
 43
0.0000001
 44
0.0000000001
 40
0.0
 40
0.0
 40
0.0
 40
0.0
 40
0.2492951447
 40
0.4989175729
 40
0.7491116165
 40
1.0
 40
1.0
 40
1.0
 40
1.0
 10
4.679284027
 20
5.8630537327
 30
0.0
 10
4.6893541195
 20
5.8630542606
 30
0.0
 10
4.7095152844
 20
5.8622903223
 30
0.0
 10
4.7396134979
 20
5.8589497342
 30
0.0
 10
4.7694870806
 20
5.8536347486
 30
0.0
 10
4.7891954412
 20
5.8489792558
 30
0.0
 10
4.7990025762
 20
5.8464244204
 30
0.0
  0
LINE
  5
2E4
100
AcDbEntity
  8
0
100
AcDbLine
 62
7
  6
CONTINUOUS
 10
9.1036429134
 20
5.2272503543
 11
8.9224231045
 21
5.2174230355
  0
LINE
  5
2E5
100
AcDbEntity
  8
0
100
AcDbLine
 62
7
  6
CONTINUOUS
 10
2.6681837592
 20
5.2174230355
 11
2.5355216518
 21
5.2272503543
  0
LINE
  5
2E6
100
AcDbEntity
  8
0
100
AcDbLine
 62
7
  6
CONTINUOUS
 10
8.347334054
 20
5.1862405807
 11
8.2579290688
 21
5.1813935475
  0
SPLINE
  5
2E7
100
AcDbEntity
  8
0
100
AcDbSpline
 62
7
  6
CONTINUOUS
 70
0
 71
3
 72
15
 73
11
 74
0
 42
0.0000001
 43
0.0000001
 44
0.0000000001
 40
0.0
 40
0.0
 40
0.0
 40
0.0
 40
0.114190409
 40
0.2376047229
 40
0.3672131643
 40
0.5000000397
 40
0.6327869094
 40
0.7623953328
 40
0.8858096091
 40
1.0
 40
1.0
 40
1.0
 40
1.0
 10
5.0365929819
 20
5.1813935475
 30
0.0
 10
5.0546724459
 20
5.1819926389
 30
0.0
 10
5.0922990876
 20
5.183022253
 30
0.0
 10
5.1504615728
 20
5.1840955354
 30
0.0
 10
5.2115764254
 20
5.184746709
 30
0.0
 10
5.2741790416
 20
5.1849654108
 30
0.0
 10
5.3367816548
 20
5.1847467087
 30
0.0
 10
5.3978964977
 20
5.184095535
 30
0.0
 10
5.4560589713
 20
5.1830222528
 30
0.0
 10
5.4936856042
 20
5.1819926388
 30
0.0
 10
5.5117650653
 20
5.1813935475
 30
0.0
  0
SPLINE
  5
2E8
100
AcDbEntity
  8
0
100
AcDbSpline
 62
7
  6
CONTINUOUS
 70
0
 71
3
 72
22
 73
18
 74
0
 42
0.0000001
 43
0.0000001
 44
0.0000000001
 40
0.0
 40
0.0
 40
0.0
 40
0.0
 40
0.0079030279
 40
0.0179404653
 40
0.03008997
 40
0.044321963
 40
0.0788976692
 40
0.1213087679
 40
0.1710622387
 40
0.2276390541
 40
0.2903983489
 40
0.3586204799
 40
0.4315577036
 40
0.5083578217
 40
0.6700250374
 40
0.8364975377
 40
1.0
 40
1.0
 40
1.0
 40
1.0
 10
3.5018100518
 20
5.1813935475
 30
0.0
 10
3.5024156088
 20
5.1815366176
 30
0.0
 10
3.5038046834
 20
5.1817992927
 30
0.0
 10
3.50615028
 20
5.1821339234
 30
0.0
 10
3.5090003893
 20
5.1824516621
 30
0.0
 10
3.5137809434
 20
5.1828785697
 30
0.0
 10
3.5209494521
 20
5.1833335572
 30
0.0
 10
3.5309189442
 20
5.1837677267
 30
0.0
 10
3.5426250917
 20
5.1841111019
 30
0.0
 10
3.5559358929
 20
5.1843586068
 30
0.0
 10
3.5707023071
 20
5.1845072576
 30
0.0
 10
3.5867574638
 20
5.1845551372
 30
0.0
 10
3.6039180654
 20
5.1845004403
 30
0.0
 10
3.628435042
 20
5.1842885855
 30
0.0
 10
3.6603134903
 20
5.1837712888
 30
0.0
 10
3.6990100299
 20
5.1827935151
 30
0.0
 10
3.7249751092
 20
5.1819020033
 30
0.0
 10
3.7378380934
 20
5.1813935475
 30
0.0
  0
LINE
  5
2E9
100
AcDbEntity
  8
0
100
AcDbLine
 62
7
  6
CONTINUOUS
 10
3.1546271547
 20
5.1813935475
 11
3.089178163
 21
5.1862405807
  0
LINE
  5
2EA
100
AcDbEntity
  8
0
100
AcDbLine
 62
7
  6
CONTINUOUS
 10
8.389320647
 20
5.5563935475
 11
8.4573508218
 21
5.5532546728
  0
LINE
  5
2EB
100
AcDbEntity
  8
0
100
AcDbLine
 62
7
  6
CONTINUOUS
 10
2.2904289783
 20
5.5563935475
 11
2.2010239931
 21
5.5515465143
  0
SPLINE
  5
2EC
100
AcDbEntity
  8
0
100
AcDbSpline
 62
7
  6
CONTINUOUS
 70
0
 71
3
 72
22
 73
18
 74
0
 42
0.0000001
 43
0.0000001
 44
0.0000000001
 40
0.0
 40
0.0
 40
0.0
 40
0.0
 40
0.0079030279
 40
0.0179404653
 40
0.03008997
 40
0.044321963
 40
0.0788976692
 40
0.1213087679
 40
0.1710622387
 40
0.2276390541
 40
0.2903983489
 40
0.3586204799
 40
0.4315577036
 40
0.5083578217
 40
0.6700250374
 40
0.8364975377
 40
1.0
 40
1.0
 40
1.0
 40
1.0
 10
3.5018100518
 20
5.5563935475
 30
0.0
 10
3.5024156088
 20
5.5562504773
 30
0.0
 10
3.5038046834
 20
5.5559878023
 30
0.0
 10
3.50615028
 20
5.5556531715
 30
0.0
 10
3.5090003893
 20
5.5553354328
 30
0.0
 10
3.5137809434
 20
5.5549085252
 30
0.0
 10
3.5209494521
 20
5.5544535377
 30
0.0
 10
3.5309189442
 20
5.5540193682
 30
0.0
 10
3.5426250917
 20
5.553675993
 30
0.0
 10
3.5559358929
 20
5.5534284881
 30
0.0
 10
3.5707023071
 20
5.5532798373
 30
0.0
 10
3.5867574638
 20
5.5532319577
 30
0.0
 10
3.6039180654
 20
5.5532866547
 30
0.0
 10
3.628435042
 20
5.5534985094
 30
0.0
 10
3.6603134903
 20
5.5540158061
 30
0.0
 10
3.6990100299
 20
5.5549935798
 30
0.0
 10
3.7249751092
 20
5.5558850916
 30
0.0
 10
3.7378380934
 20
5.5563935475
 30
0.0
  0
SPLINE
  5
2ED
100
AcDbEntity
  8
0
100
AcDbSpline
 62
7
  6
CONTINUOUS
 70
0
 71
3
 72
15
 73
11
 74
0
 42
0.0000001
 43
0.0000001
 44
0.0000000001
 40
0.0
 40
0.0
 40
0.0
 40
0.0
 40
0.114190409
 40
0.2376047229
 40
0.3672131643
 40
0.5000000397
 40
0.6327869094
 40
0.7623953328
 40
0.8858096091
 40
1.0
 40
1.0
 40
1.0
 40
1.0
 10
5.0365929819
 20
5.5563935475
 30
0.0
 10
5.0546724459
 20
5.555794456
 30
0.0
 10
5.0922990876
 20
5.5547648419
 30
0.0
 10
5.1504615728
 20
5.5536915595
 30
0.0
 10
5.2115764254
 20
5.5530403859
 30
0.0
 10
5.2741790416
 20
5.5528216841
 30
0.0
 10
5.3367816548
 20
5.5530403862
 30
0.0
 10
5.3978964977
 20
5.5536915599
 30
0.0
 10
5.4560589713
 20
5.5547648421
 30
0.0
 10
5.4936856042
 20
5.5557944561
 30
0.0
 10
5.5117650653
 20
5.5563935475
 30
0.0
  0
LINE
  5
2EE
100
AcDbEntity
  8
0
100
AcDbLine
 62
7
  6
CONTINUOUS
 10
7.4591798841
 20
5.5515465143
 11
7.3937308925
 21
5.5563935475
  0
LINE
  5
2EF
100
AcDbEntity
  8
0
100
AcDbLine
 62
7
  6
CONTINUOUS
 10
1.6259349427
 20
5.5203640594
 11
1.4447151338
 21
5.5105367406
  0
LINE
  5
2F0
100
AcDbEntity
  8
0
100
AcDbLine
 62
7
  6
CONTINUOUS
 10
8.0128363954
 20
5.5105367406
 11
7.8801742879
 21
5.5203640594
  0
LINE
  5
2F1
100
AcDbEntity
  8
0
100
AcDbLine
 62
7
  6
CONTINUOUS
 10
8.4573508218
 20
5.1845324221
 11
8.389320647
 21
5.1813935475
  0
SPLINE
  5
2F2
100
AcDbEntity
  8
0
100
AcDbSpline
 62
7
  6
CONTINUOUS
 70
0
 71
3
 72
15
 73
11
 74
0
 42
0.0000001
 43
0.0000001
 44
0.0000000001
 40
0.0
 40
0.0
 40
0.0
 40
0.0
 40
0.1229656603
 40
0.2462430405
 40
0.3699794004
 40
0.4944906112
 40
0.6199353473
 40
0.7464406781
 40
0.8735208516
 40
1.0
 40
1.0
 40
1.0
 40
1.0
 10
1.8481096596
 20
5.551546019
 30
0.0
 10
1.8490648901
 20
5.5515467261
 30
0.0
 10
1.8509827788
 20
5.5513568499
 30
0.0
 10
1.853751959
 20
5.5505258484
 30
0.0
 10
1.8563193298
 20
5.5491667427
 30
0.0
 10
1.8585880676
 20
5.5473278466
 30
0.0
 10
1.8604874804
 20
5.5450809427
 30
0.0
 10
1.861930986
 20
5.5424940858
 30
0.0
 10
1.8628800517
 20
5.539682434
 30
0.0
 10
1.8631677881
 20
5.5377205124
 30
0.0
 10
1.8632174935
 20
5.536739246
 30
0.0
  0
SPLINE
  5
2F3
100
AcDbEntity
  8
0
100
AcDbSpline
 62
7
  6
CONTINUOUS
 70
0
 71
3
 72
15
 73
11
 74
0
 42
0.0000001
 43
0.0000001
 44
0.0000000001
 40
0.0
 40
0.0
 40
0.0
 40
0.0
 40
0.1228636787
 40
0.2460998238
 40
0.3698329271
 40
0.494243224
 40
0.6195416175
 40
0.7457842539
 40
0.8729117003
 40
1.0
 40
1.0
 40
1.0
 40
1.0
 10
1.9128144209
 20
5.551546019
 30
0.0
 10
1.9118650863
 20
5.5515453163
 30
0.0
 10
1.9099585998
 20
5.5513518072
 30
0.0
 10
1.9072092743
 20
5.5505141304
 30
0.0
 10
1.9046559901
 20
5.5491653007
 30
0.0
 10
1.9024000968
 20
5.5473378259
 30
0.0
 10
1.9005126019
 20
5.5451077923
 30
0.0
 10
1.8990625805
 20
5.5425460576
 30
0.0
 10
1.8981146521
 20
5.5397467308
 30
0.0
 10
1.8978223358
 20
5.5377919026
 30
0.0
 10
1.8977659107
 20
5.5368115477
 30
0.0
  0
SPLINE
  5
2F4
100
AcDbEntity
  8
0
100
AcDbSpline
 62
7
  6
CONTINUOUS
 70
0
 71
3
 72
15
 73
11
 74
0
 42
0.0000001
 43
0.0000001
 44
0.0000000001
 40
0.0
 40
0.0
 40
0.0
 40
0.0
 40
0.1229655743
 40
0.2462430397
 40
0.3699794007
 40
0.494490681
 40
0.6199357077
 40
0.7464410796
 40
0.8735210117
 40
1.0
 40
1.0
 40
1.0
 40
1.0
 10
1.5762838872
 20
5.5368063307
 30
0.0
 10
1.5772390731
 20
5.5368070367
 30
0.0
 10
1.5791568743
 20
5.5366171393
 30
0.0
 10
1.5819258998
 20
5.5357860726
 30
0.0
 10
1.5844930795
 20
5.534426882
 30
0.0
 10
1.5867615905
 20
5.5325879132
 30
0.0
 10
1.5886607643
 20
5.5303409818
 30
0.0
 10
1.590104055
 20
5.5277541636
 30
0.0
 10
1.5910529624
 20
5.5249426086
 30
0.0
 10
1.5913406464
 20
5.5229807783
 30
0.0
 10
1.5913903449
 20
5.521999558
 30
0.0
  0
SPLINE
  5
2F5
100
AcDbEntity
  8
0
100
AcDbSpline
 62
7
  6
CONTINUOUS
 70
0
 71
3
 72
15
 73
11
 74
0
 42
0.0000001
 43
0.0000001
 44
0.0000000001
 40
0.0
 40
0.0
 40
0.0
 40
0.0
 40
0.1227907052
 40
0.2459962032
 40
0.3697497749
 40
0.4942959106
 40
0.6198134544
 40
0.7463731868
 40
0.8735449569
 40
1.0
 40
1.0
 40
1.0
 40
1.0
 10
1.6409886485
 20
5.5368063307
 30
0.0
 10
1.639970315
 20
5.536805578
 30
0.0
 10
1.6379242161
 20
5.5365825681
 30
0.0
 10
1.6349908402
 20
5.5356214219
 30
0.0
 10
1.6322997619
 20
5.5340755181
 30
0.0
 10
1.6299733192
 20
5.531994145
 30
0.0
 10
1.6280912875
 20
5.5294751532
 30
0.0
 10
1.6267478142
 20
5.5266072888
 30
0.0
 10
1.6259894172
 20
5.5235279514
 30
0.0
 10
1.6258818937
 20
5.5214114398
 30
0.0
 10
1.6259349427
 20
5.5203640594
 30
0.0
  0
SPLINE
  5
2F6
100
AcDbEntity
  8
0
100
AcDbSpline
 62
7
  6
CONTINUOUS
 70
0
 71
3
 72
15
 73
11
 74
0
 42
0.0000001
 43
0.0000001
 44
0.0000000001
 40
0.0
 40
0.0
 40
0.0
 40
0.0
 40
0.1228631131
 40
0.2460990795
 40
0.3698317621
 40
0.4942418592
 40
0.6195402501
 40
0.745783396
 40
0.8729115984
 40
1.0
 40
1.0
 40
1.0
 40
1.0
 10
8.6355433358
 20
5.1862410652
 30
0.0
 10
8.6364926772
 20
5.1862417586
 30
0.0
 10
8.6383991794
 20
5.1864352623
 30
0.0
 10
8.6411485492
 20
5.1872728712
 30
0.0
 10
8.6437018849
 20
5.1886216693
 30
0.0
 10
8.6459578182
 20
5.1904491402
 30
0.0
 10
8.6478453733
 20
5.1926791722
 30
0.0
 10
8.6492954161
 20
5.1952409481
 30
0.0
 10
8.6502433666
 20
5.1980403136
 30
0.0
 10
8.6505357022
 20
5.1999951693
 30
0.0
 10
8.6505921323
 20
5.2009755363
 30
0.0
  0
SPLINE
  5
2F7
100
AcDbEntity
  8
0
100
AcDbSpline
 62
7
  6
CONTINUOUS
 70
0
 71
3
 72
15
 73
11
 74
0
 42
0.0000001
 43
0.0000001
 44
0.0000000001
 40
0.0
 40
0.0
 40
0.0
 40
0.0
 40
0.1229658625
 40
0.2462435554
 40
0.3699802775
 40
0.4944915881
 40
0.6199361345
 40
0.7464406632
 40
0.8735204192
 40
1.0
 40
1.0
 40
1.0
 40
1.0
 10
8.7002480971
 20
5.1862410652
 30
0.0
 10
8.6992928766
 20
5.1862403675
 30
0.0
 10
8.6973750085
 20
5.186430281
 30
0.0
 10
8.6946058797
 20
5.1872613472
 30
0.0
 10
8.6920385477
 20
5.1886204615
 30
0.0
 10
8.6897698653
 20
5.1904593746
 30
0.0
 10
8.6878705015
 20
5.1927062602
 30
0.0
 10
8.6864270116
 20
5.1952930721
 30
0.0
 10
8.6854779813
 20
5.198104693
 30
0.0
 10
8.6851902586
 20
5.2000665911
 30
0.0
 10
8.6851405536
 20
5.201047849
 30
0.0
  0
SPLINE
  5
2F8
100
AcDbEntity
  8
0
100
AcDbSpline
 62
7
  6
CONTINUOUS
 70
0
 71
3
 72
15
 73
11
 74
0
 42
0.0000001
 43
0.0000001
 44
0.0000000001
 40
0.0
 40
0.0
 40
0.0
 40
0.0
 40
0.1227902146
 40
0.2459955546
 40
0.3697487407
 40
0.4942947784
 40
0.6198124632
 40
0.7463729868
 40
0.8735453005
 40
1.0
 40
1.0
 40
1.0
 40
1.0
 10
8.9073691087
 20
5.2009807535
 30
0.0
 10
8.9083874496
 20
5.2009814963
 30
0.0
 10
8.910433565
 20
5.2012044992
 30
0.0
 10
8.9133669923
 20
5.2021655691
 30
0.0
 10
8.9160581197
 20
5.2037114536
 30
0.0
 10
8.918384613
 20
5.2057928169
 30
0.0
 10
8.9202667037
 20
5.2083118214
 30
0.0
 10
8.9216101872
 20
5.2111797352
 30
0.0
 10
8.9223686174
 20
5.2142591079
 30
0.0
 10
8.922476154
 20
5.2163756461
 30
0.0
 10
8.9224231045
 20
5.2174230355
 30
0.0
  0
SPLINE
  5
2F9
100
AcDbEntity
  8
0
100
AcDbSpline
 62
7
  6
CONTINUOUS
 70
0
 71
3
 72
15
 73
11
 74
0
 42
0.0000001
 43
0.0000001
 44
0.0000000001
 40
0.0
 40
0.0
 40
0.0
 40
0.0
 40
0.1229657759
 40
0.246243554
 40
0.3699802777
 40
0.4944916575
 40
0.6199364943
 40
0.746441065
 40
0.8735205799
 40
1.0
 40
1.0
 40
1.0
 40
1.0
 10
8.9720738699
 20
5.2009807535
 30
0.0
 10
8.971118694
 20
5.2009800568
 30
0.0
 10
8.9692009134
 20
5.2011699915
 30
0.0
 10
8.9664319392
 20
5.202001123
 30
0.0
 10
8.9638647982
 20
5.2033603221
 30
0.0
 10
8.9615963425
 20
5.2051993078
 30
0.0
 10
8.9596972178
 20
5.2074462209
 30
0.0
 10
8.9582539426
 20
5.2100329942
 30
0.0
 10
8.9573050706
 20
5.2128445184
 30
0.0
 10
8.9570174004
 20
5.2148063252
 30
0.0
 10
8.9569677023
 20
5.2157875369
 30
0.0
  0
SPLINE
  5
2FA
100
AcDbEntity
  8
0
100
AcDbSpline
 62
7
  6
CONTINUOUS
 70
0
 71
3
 72
15
 73
11
 74
0
 42
0.0000001
 43
0.0000001
 44
0.0000000001
 40
0.0
 40
0.0
 40
0.0
 40
0.0
 40
0.1437956881
 40
0.2865390488
 40
0.4243526471
 40
0.5547653413
 40
0.6767788105
 40
0.7904022975
 40
0.8972219228
 40
1.0
 40
1.0
 40
1.0
 40
1.0
 10
2.6681837592
 20
5.2174230355
 30
0.0
 10
2.6681449226
 20
5.2163756006
 30
0.0
 10
2.6682223123
 20
5.2142799791
 30
0.0
 10
2.6687681521
 20
5.2112251986
 30
0.0
 10
2.6697351444
 20
5.2083761574
 30
0.0
 10
2.6710952032
 20
5.2058615151
 30
0.0
 10
2.6727826601
 20
5.2037717959
 30
0.0
 10
2.6747526278
 20
5.202201729
 30
0.0
 10
2.6769195891
 20
5.2012144263
 30
0.0
 10
2.6784548801
 20
5.2009815
 30
0.0
 10
2.679204049
 20
5.2009807535
 30
0.0
  0
SPLINE
  5
2FB
100
AcDbEntity
  8
0
100
AcDbSpline
 62
7
  6
CONTINUOUS
 70
0
 71
3
 72
15
 73
11
 74
0
 42
0.0000001
 43
0.0000001
 44
0.0000000001
 40
0.0
 40
0.0
 40
0.0
 40
0.0
 40
0.1446729429
 40
0.2872110924
 40
0.4243106605
 40
0.5538204177
 40
0.6751963342
 40
0.7887364247
 40
0.8961138569
 40
1.0
 40
1.0
 40
1.0
 40
1.0
 10
2.513485836
 20
5.2157875369
 30
0.0
 10
2.5134496069
 20
5.2148104373
 30
0.0
 10
2.5132432145
 20
5.2128732328
 30
0.0
 10
2.5125585284
 20
5.210079729
 30
0.0
 10
2.5115171297
 20
5.2075059685
 30
0.0
 10
2.5101411446
 20
5.2052587674
 30
0.0
 10
2.5084912297
 20
5.2034097873
 30
0.0
 10
2.5066098976
 20
5.2020297031
 30
0.0
 10
2.5045637722
 20
5.2011771612
 30
0.0
 10
2.5031294671
 20
5.200980054
 30
0.0
 10
2.5024273537
 20
5.2009807535
 30
0.0
  0
SPLINE
  5
2FC
100
AcDbEntity
  8
0
100
AcDbSpline
 62
7
  6
CONTINUOUS
 70
0
 71
3
 72
15
 73
11
 74
0
 42
0.0000001
 43
0.0000001
 44
0.0000000001
 40
0.0
 40
0.0
 40
0.0
 40
0.0
 40
0.1453472197
 40
0.2879078335
 40
0.4246048521
 40
0.5539220967
 40
0.6751938806
 40
0.7887432137
 40
0.8961680046
 40
1.0
 40
1.0
 40
1.0
 40
1.0
 10
2.867177842
 20
5.2009755363
 30
0.0
 10
2.8672189746
 20
5.19999937
 30
0.0
 10
2.8674288729
 20
5.1980688583
 30
0.0
 10
2.8681123524
 20
5.1952884811
 30
0.0
 10
2.8691595983
 20
5.1927374419
 30
0.0
 10
2.8705272114
 20
5.1905080244
 30
0.0
 10
2.8721677195
 20
5.1886706491
 30
0.0
 10
2.8740398561
 20
5.1873009668
 30
0.0
 10
2.8760700225
 20
5.1864428189
 30
0.0
 10
2.8774963611
 20
5.1862417616
 30
0.0
 10
2.8781943255
 20
5.1862410652
 30
0.0
  0
SPLINE
  5
2FD
100
AcDbEntity
  8
0
100
AcDbSpline
 62
7
  6
CONTINUOUS
 70
0
 71
3
 72
15
 73
11
 74
0
 42
0.0000001
 43
0.0000001
 44
0.0000000001
 40
0.0
 40
0.0
 40
0.0
 40
0.0
 40
0.1446744771
 40
0.2872135657
 40
0.4243128205
 40
0.5538212089
 40
0.6751958023
 40
0.7887351995
 40
0.8961128128
 40
1.0
 40
1.0
 40
1.0
 40
1.0
 10
2.7124771197
 20
5.201047849
 30
0.0
 10
2.7124408856
 20
5.2000707045
 30
0.0
 10
2.7122344566
 20
5.1981334156
 30
0.0
 10
2.711549658
 20
5.1953398173
 30
0.0
 10
2.7105081051
 20
5.1927660159
 30
0.0
 10
2.7091319438
 20
5.1905188349
 30
0.0
 10
2.7074818571
 20
5.1886699204
 30
0.0
 10
2.7056003787
 20
5.1872899203
 30
0.0
 10
2.7035541392
 20
5.1864374482
 30
0.0
 10
2.7021197755
 20
5.1862403646
 30
0.0
 10
2.7014176302
 20
5.1862410652
 30
0.0
  0
SPLINE
  5
2FE
100
AcDbEntity
  8
0
100
AcDbSpline
 62
7
  6
CONTINUOUS
 70
0
 71
3
 72
15
 73
11
 74
0
 42
0.0000001
 43
0.0000001
 44
0.0000000001
 40
0.0
 40
0.0
 40
0.0
 40
0.0
 40
0.1446727009
 40
0.2872114853
 40
0.4243121654
 40
0.5538220748
 40
0.6751976013
 40
0.7887371391
 40
0.8961139744
 40
1.0
 40
1.0
 40
1.0
 40
1.0
 10
8.0348722112
 20
5.521999558
 30
0.0
 10
8.0349084406
 20
5.5229766658
 30
0.0
 10
8.0351148424
 20
5.5249138926
 30
0.0
 10
8.0357995552
 20
5.5277074296
 30
0.0
 10
8.0368409633
 20
5.5302812303
 30
0.0
 10
8.0382169829
 20
5.5325284515
 30
0.0
 10
8.0398669416
 20
5.5343774178
 30
0.0
 10
8.0417482992
 20
5.5357574924
 30
0.0
 10
8.0437944688
 20
5.5366099723
 30
0.0
 10
8.0452287861
 20
5.5368070396
 30
0.0
 10
8.0459309058
 20
5.5368063307
 30
0.0
  0
SPLINE
  5
2FF
100
AcDbEntity
  8
0
100
AcDbSpline
 62
7
  6
CONTINUOUS
 70
0
 71
3
 72
15
 73
11
 74
0
 42
0.0000001
 43
0.0000001
 44
0.0000000001
 40
0.0
 40
0.0
 40
0.0
 40
0.0
 40
0.1437958117
 40
0.2865383665
 40
0.4243508601
 40
0.5547635058
 40
0.6767773328
 40
0.790401506
 40
0.897221617
 40
1.0
 40
1.0
 40
1.0
 40
1.0
 10
7.8801742879
 20
5.5203640594
 30
0.0
 10
7.8802131242
 20
5.5214114854
 30
0.0
 10
7.8801357437
 20
5.5235070816
 30
0.0
 10
7.8795899289
 20
5.5265618248
 30
0.0
 10
7.8786229415
 20
5.5294108222
 30
0.0
 10
7.8772629257
 20
5.531925448
 30
0.0
 10
7.8755755066
 20
5.5340151762
 30
0.0
 10
7.8736055742
 20
5.5355852606
 30
0.0
 10
7.8714386581
 20
5.5365726383
 30
0.0
 10
7.8699033746
 20
5.5368055743
 30
0.0
 10
7.8691542105
 20
5.5368063307
 30
0.0
  0
SPLINE
  5
300
100
AcDbEntity
  8
0
100
AcDbSpline
 62
7
  6
CONTINUOUS
 70
0
 71
3
 72
15
 73
11
 74
0
 42
0.0000001
 43
0.0000001
 44
0.0000000001
 40
0.0
 40
0.0
 40
0.0
 40
0.0
 40
0.1446742348
 40
0.2872139587
 40
0.4243143268
 40
0.5538228672
 40
0.67519707
 40
0.7887359145
 40
0.8961129307
 40
1.0
 40
1.0
 40
1.0
 40
1.0
 10
7.8358809275
 20
5.536739246
 30
0.0
 10
7.8359171619
 20
5.5377163987
 30
0.0
 10
7.8361236003
 20
5.5396537099
 30
0.0
 10
7.8368084257
 20
5.5424473413
 30
0.0
 10
7.837849988
 20
5.545021183
 30
0.0
 10
7.8392261838
 20
5.5472683841
 30
0.0
 10
7.8408763144
 20
5.5491172848
 30
0.0
 10
7.8427578183
 20
5.5504972754
 30
0.0
 10
7.8448041021
 20
5.5513496853
 30
0.0
 10
7.8462384779
 20
5.551546729
 30
0.0
 10
7.8469406295
 20
5.551546019
 30
0.0
  0
SPLINE
  5
301
100
AcDbEntity
  8
0
100
AcDbSpline
 62
7
  6
CONTINUOUS
 70
0
 71
3
 72
15
 73
11
 74
0
 42
0.0000001
 43
0.0000001
 44
0.0000000001
 40
0.0
 40
0.0
 40
0.0
 40
0.0
 40
0.14534686
 40
0.2879063976
 40
0.4246026712
 40
0.5539201062
 40
0.6751923021
 40
0.7887424066
 40
0.8961676552
 40
1.0
 40
1.0
 40
1.0
 40
1.0
 10
7.6811802083
 20
5.5368115477
 30
0.0
 10
7.6811390792
 20
5.5377877023
 30
0.0
 10
7.6809291948
 20
5.5397181866
 30
0.0
 10
7.6802457319
 20
5.5424985253
 30
0.0
 10
7.6791984986
 20
5.5450495273
 30
0.0
 10
7.6778309316
 20
5.5472789413
 30
0.0
 10
7.6761904511
 20
5.5491163223
 30
0.0
 10
7.674318354
 20
5.5504860327
 30
0.0
 10
7.6722882254
 20
5.5513442486
 30
0.0
 10
7.6708618942
 20
5.5515453133
 30
0.0
 10
7.6701639343
 20
5.551546019
 30
0.0
  0
SPLINE
  5
302
100
AcDbEntity
  8
0
100
AcDbSpline
 62
7
  6
CONTINUOUS
 70
0
 71
3
 72
15
 73
11
 74
0
 42
0.0000001
 43
0.0000001
 44
0.0000000001
 40
0.0
 40
0.0
 40
0.0
 40
0.0
 40
0.1027780772
 40
0.2095977025
 40
0.3232211895
 40
0.4452346587
 40
0.5756473529
 40
0.7134609512
 40
0.8562043119
 40
1.0
 40
1.0
 40
1.0
 40
1.0
 10
2.5024273537
 20
5.2009807535
 30
0.0
 10
2.5016781848
 20
5.2009815
 30
0.0
 10
2.5001428938
 20
5.2012144263
 30
0.0
 10
2.4979759325
 20
5.202201729
 30
0.0
 10
2.4960059648
 20
5.2037717959
 30
0.0
 10
2.4943185079
 20
5.2058615151
 30
0.0
 10
2.4929584491
 20
5.2083761574
 30
0.0
 10
2.4919914568
 20
5.2112251986
 30
0.0
 10
2.491445617
 20
5.2142799791
 30
0.0
 10
2.4913682273
 20
5.2163756006
 30
0.0
 10
2.4914070639
 20
5.2174230355
 30
0.0
  0
SPLINE
  5
303
100
AcDbEntity
  8
0
100
AcDbSpline
 62
7
  6
CONTINUOUS
 70
0
 71
3
 72
15
 73
11
 74
0
 42
0.0000001
 43
0.0000001
 44
0.0000000001
 40
0.0
 40
0.0
 40
0.0
 40
0.0
 40
0.102778383
 40
0.209598494
 40
0.3232226672
 40
0.4452364942
 40
0.5756491399
 40
0.7134616335
 40
0.8562041883
 40
1.0
 40
1.0
 40
1.0
 40
1.0
 10
8.0459309058
 20
5.5368063307
 30
0.0
 10
8.0466800699
 20
5.5368055743
 30
0.0
 10
8.0482153534
 20
5.5365726383
 30
0.0
 10
8.0503822695
 20
5.5355852606
 30
0.0
 10
8.0523522019
 20
5.5340151762
 30
0.0
 10
8.054039621
 20
5.531925448
 30
0.0
 10
8.0553996368
 20
5.5294108222
 30
0.0
 10
8.0563666242
 20
5.5265618248
 30
0.0
 10
8.056912439
 20
5.5235070816
 30
0.0
 10
8.0569898195
 20
5.5214114854
 30
0.0
 10
8.0569509832
 20
5.5203640594
 30
0.0
  0
SPLINE
  5
304
100
AcDbEntity
  8
0
100
AcDbSpline
 62
7
  6
CONTINUOUS
 70
0
 71
3
 72
15
 73
11
 74
0
 42
0.0000001
 43
0.0000001
 44
0.0000000001
 40
0.0
 40
0.0
 40
0.0
 40
0.0
 40
0.1264546995
 40
0.2536270132
 40
0.3801875368
 40
0.5057052216
 40
0.6302512593
 40
0.7540044454
 40
0.8772097854
 40
1.0
 40
1.0
 40
1.0
 40
1.0
 10
8.9871278657
 20
5.2174230355
 30
0.0
 10
8.9871809152
 20
5.2163756461
 30
0.0
 10
8.9870733787
 20
5.2142591079
 30
0.0
 10
8.9863149485
 20
5.2111797352
 30
0.0
 10
8.984971465
 20
5.2083118214
 30
0.0
 10
8.9830893743
 20
5.2057928169
 30
0.0
 10
8.980762881
 20
5.2037114536
 30
0.0
 10
8.9780717535
 20
5.2021655691
 30
0.0
 10
8.9751383262
 20
5.2012044992
 30
0.0
 10
8.9730922109
 20
5.2009814963
 30
0.0
 10
8.9720738699
 20
5.2009807535
 30
0.0
  0
SPLINE
  5
305
100
AcDbEntity
  8
0
100
AcDbSpline
 62
7
  6
CONTINUOUS
 70
0
 71
3
 72
44
 73
40
 74
0
 42
0.0000001
 43
0.0000001
 44
0.0000000001
 40
0.0
 40
0.0
 40
0.0
 40
0.0
 40
0.0624377753
 40
0.1248758653
 40
0.1873140338
 40
0.2185344082
 40
0.249755026
 40
0.2809770419
 40
0.3121985825
 40
0.3434212943
 40
0.3746519254
 40
0.3902671053
 40
0.4058840916
 40
0.4215037535
 40
0.4371450441
 40
0.4528125966
 40
0.4684769589
 40
0.4843087344
 40
0.499987292
 40
0.5077961498
 40
0.5156611817
 40
0.5235883479
 40
0.5315210337
 40
0.5472044152
 40
0.5628525534
 40
0.570677167
 40
0.5784925935
 40
0.5941143676
 40
0.6097349281
 40
0.62535026
 40
0.656578478
 40
0.6878014611
 40
0.7190232514
 40
0.7502450219
 40
0.7814656118
 40
0.8126860252
 40
0.8751241515
 40
0.9375622319
 40
1.0
 40
1.0
 40
1.0
 40
1.0
 10
5.3253356164
 20
5.5563935475
 30
0.0
 10
5.3241488849
 20
5.5613954691
 30
0.0
 10
5.3216966564
 20
5.5713809606
 30
0.0
 10
5.3177280106
 20
5.5862850662
 30
0.0
 10
5.3141143768
 20
5.5986207951
 30
0.0
 10
5.3109799555
 20
5.6084137701
 30
0.0
 10
5.3084837676
 20
5.6157109217
 30
0.0
 10
5.3058161185
 20
5.6229475098
 30
0.0
 10
5.302935411
 20
5.6301028551
 30
0.0
 10
5.2997862414
 20
5.637145434
 30
0.0
 10
5.2968764471
 20
5.6428818166
 30
0.0
 10
5.2943024166
 20
5.6473356454
 30
0.0
 10
5.2922264123
 20
5.6505886766
 30
0.0
 10
5.2899703424
 20
5.6537236423
 30
0.0
 10
5.2874927124
 20
5.6566930903
 30
0.0
 10
5.2847578845
 20
5.6594391456
 30
0.0
 10
5.2816194715
 20
5.6617627733
 30
0.0
 10
5.2780622751
 20
5.663396741
 30
0.0
 10
5.2748208053
 20
5.6639754706
 30
0.0
 10
5.2722365642
 20
5.6637570057
 30
0.0
 10
5.2703429918
 20
5.6632919139
 30
0.0
 10
5.2685190021
 20
5.6625794997
 30
0.0
 10
5.266217666
 20
5.6613660643
 30
0.0
 10
5.2636008948
 20
5.6594357025
 30
0.0
 10
5.2613164301
 20
5.6571507755
 30
0.0
 10
5.2596250843
 20
5.6552072005
 30
0.0
 10
5.2580112909
 20
5.6532012101
 30
0.0
 10
5.2561316799
 20
5.6505889307
 30
0.0
 10
5.2540559989
 20
5.6473351955
 30
0.0
 10
5.2514814431
 20
5.6428815351
 30
0.0
 10
5.2485717531
 20
5.6371452745
 30
0.0
 10
5.2454225855
 20
5.6301028679
 30
0.0
 10
5.2425419611
 20
5.6229474634
 30
0.0
 10
5.2398742652
 20
5.6157108959
 30
0.0
 10
5.2373780836
 20
5.6084137618
 30
0.0
 10
5.2342436827
 20
5.5986207832
 30
0.0
 10
5.2306300339
 20
5.58628506
 30
0.0
 10
5.2266613919
 20
5.5713809583
 30
0.0
 10
5.2242091621
 20
5.5613954685
 30
0.0
 10
5.2230224308
 20
5.5563935475
 30
0.0
  0
SPLINE
  5
306
100
AcDbEntity
  8
0
100
AcDbSpline
 62
7
  6
CONTINUOUS
 70
0
 71
3
 72
15
 73
11
 74
0
 42
0.0000001
 43
0.0000001
 44
0.0000000001
 40
0.0
 40
0.0
 40
0.0
 40
0.0
 40
0.1270884016
 40
0.254216604
 40
0.3804597499
 40
0.5057581408
 40
0.6301682379
 40
0.7539009205
 40
0.8771368869
 40
1.0
 40
1.0
 40
1.0
 40
1.0
 10
8.7152968935
 20
5.2009755363
 30
0.0
 10
8.7152404635
 20
5.1999951693
 30
0.0
 10
8.7149481279
 20
5.1980403136
 30
0.0
 10
8.7140001774
 20
5.1952409481
 30
0.0
 10
8.7125501346
 20
5.1926791722
 30
0.0
 10
8.7106625794
 20
5.1904491402
 30
0.0
 10
8.7084066462
 20
5.1886216693
 30
0.0
 10
8.7058533105
 20
5.1872728712
 30
0.0
 10
8.7031039407
 20
5.1864352623
 30
0.0
 10
8.7011974385
 20
5.1862417586
 30
0.0
 10
8.7002480971
 20
5.1862410652
 30
0.0
  0
SPLINE
  5
307
100
AcDbEntity
  8
0
100
AcDbSpline
 62
7
  6
CONTINUOUS
 70
0
 71
3
 72
15
 73
11
 74
0
 42
0.0000001
 43
0.0000001
 44
0.0000000001
 40
0.0
 40
0.0
 40
0.0
 40
0.0
 40
0.1264550431
 40
0.2536268132
 40
0.3801865456
 40
0.5057040894
 40
0.6302502251
 40
0.7540037968
 40
0.8772092948
 40
1.0
 40
1.0
 40
1.0
 40
1.0
 10
1.5612301814
 20
5.5203640594
 30
0.0
 10
1.5611771324
 20
5.5214114398
 30
0.0
 10
1.5612846559
 20
5.5235279514
 30
0.0
 10
1.5620430529
 20
5.5266072888
 30
0.0
 10
1.5633865262
 20
5.5294751532
 30
0.0
 10
1.565268558
 20
5.531994145
 30
0.0
 10
1.5675950006
 20
5.5340755181
 30
0.0
 10
1.570286079
 20
5.5356214219
 30
0.0
 10
1.5732194548
 20
5.5365825681
 30
0.0
 10
1.5752655538
 20
5.536805578
 30
0.0
 10
1.5762838872
 20
5.5368063307
 30
0.0
  0
SPLINE
  5
308
100
AcDbEntity
  8
0
100
AcDbSpline
 62
7
  6
CONTINUOUS
 70
0
 71
3
 72
15
 73
11
 74
0
 42
0.0000001
 43
0.0000001
 44
0.0000000001
 40
0.0
 40
0.0
 40
0.0
 40
0.0
 40
0.1270882997
 40
0.2542157461
 40
0.3804583825
 40
0.505756776
 40
0.6301670729
 40
0.7539001762
 40
0.8771363213
 40
1.0
 40
1.0
 40
1.0
 40
1.0
 10
1.8330611494
 20
5.5368115477
 30
0.0
 10
1.8331175745
 20
5.5377919026
 30
0.0
 10
1.8334098908
 20
5.5397467308
 30
0.0
 10
1.8343578192
 20
5.5425460576
 30
0.0
 10
1.8358078406
 20
5.5451077923
 30
0.0
 10
1.8376953355
 20
5.5473378259
 30
0.0
 10
1.8399512288
 20
5.5491653007
 30
0.0
 10
1.842504513
 20
5.5505141304
 30
0.0
 10
1.8452538385
 20
5.5513518072
 30
0.0
 10
1.847160325
 20
5.5515453163
 30
0.0
 10
1.8481096596
 20
5.551546019
 30
0.0
  0
LINE
  5
309
100
AcDbEntity
  8
0
100
AcDbLine
 62
7
  6
CONTINUOUS
 10
8.0569509832
 20
5.5203640594
 11
8.1896130907
 21
5.5105367406
  0
LINE
  5
30A
100
AcDbEntity
  8
0
100
AcDbLine
 62
7
  6
CONTINUOUS
 10
8.3226338301
 20
5.1813935475
 11
8.4120388153
 21
5.1862405807
  0
LINE
  5
30B
100
AcDbEntity
  8
0
100
AcDbLine
 62
7
  6
CONTINUOUS
 10
8.6507883523
 20
5.1991852191
 11
8.6851405536
 21
5.201047849
  0
LINE
  5
30C
100
AcDbEntity
  8
0
100
AcDbLine
 62
7
  6
CONTINUOUS
 10
7.8755943762
 20
5.5337977003
 11
7.8872259152
 21
5.5329361499
  0
LINE
  5
30D
100
AcDbEntity
  8
0
100
AcDbLine
 62
7
  6
CONTINUOUS
 10
7.8872259152
 20
5.5329361499
 11
8.0348722112
 21
5.521999558
  0
LINE
  5
30E
100
AcDbEntity
  8
0
100
AcDbLine
 62
7
  6
CONTINUOUS
 10
7.5705075878
 20
5.5563935475
 11
7.6359565794
 21
5.5515465143
  0
LINE
  5
30F
100
AcDbEntity
  8
0
100
AcDbLine
 62
7
  6
CONTINUOUS
 10
7.6766059467
 20
5.5485359887
 11
7.6821494068
 21
5.5481254294
  0
LINE
  5
310
100
AcDbEntity
  8
0
100
AcDbLine
 62
7
  6
CONTINUOUS
 10
7.6821494068
 20
5.5481254294
 11
7.70222232
 21
5.5466387792
  0
LINE
  5
311
100
AcDbEntity
  8
0
100
AcDbLine
 62
7
  6
CONTINUOUS
 10
7.70222232
 20
5.5466387792
 11
7.8358809275
 21
5.536739246
  0
LINE
  5
312
100
AcDbEntity
  8
0
100
AcDbLine
 62
7
  6
CONTINUOUS
 10
2.7124771197
 20
5.201047849
 11
2.8461354882
 21
5.1911483334
  0
LINE
  5
313
100
AcDbEntity
  8
0
100
AcDbLine
 62
7
  6
CONTINUOUS
 10
2.8461354882
 20
5.1911483334
 11
2.8662086403
 21
5.1896616655
  0
LINE
  5
314
100
AcDbEntity
  8
0
100
AcDbLine
 62
7
  6
CONTINUOUS
 10
2.8662086403
 20
5.1896616655
 11
2.8717524345
 21
5.1892510815
  0
LINE
  5
315
100
AcDbEntity
  8
0
100
AcDbLine
 62
7
  6
CONTINUOUS
 10
2.9124014677
 20
5.1862405807
 11
2.9778504594
 21
5.1813935475
  0
LINE
  5
316
100
AcDbEntity
  8
0
100
AcDbLine
 62
7
  6
CONTINUOUS
 10
1.3800103725
 20
5.5105367406
 11
1.440680564
 21
5.513826861
  0
LINE
  5
317
100
AcDbEntity
  8
0
100
AcDbLine
 62
7
  6
CONTINUOUS
 10
1.440680564
 20
5.513826861
 11
1.470916814
 21
5.5154665413
  0
LINE
  5
318
100
AcDbEntity
  8
0
100
AcDbLine
 62
7
  6
CONTINUOUS
 10
1.470916814
 20
5.5154665413
 11
1.5612301814
 21
5.5203640594
  0
SPLINE
  5
319
100
AcDbEntity
  8
0
100
AcDbSpline
 62
7
  6
CONTINUOUS
 70
0
 71
3
 72
15
 73
11
 74
0
 42
0.0000001
 43
0.0000001
 44
0.0000000001
 40
0.0
 40
0.0
 40
0.0
 40
0.0
 40
0.1038319954
 40
0.2112567863
 40
0.3248061194
 40
0.4460779033
 40
0.5753951479
 40
0.7120921665
 40
0.8546527803
 40
1.0
 40
1.0
 40
1.0
 40
1.0
 10
2.7014176302
 20
5.1862410652
 30
0.0
 10
2.7007196658
 20
5.1862417616
 30
0.0
 10
2.6992933272
 20
5.1864428189
 30
0.0
 10
2.6972631608
 20
5.1873009668
 30
0.0
 10
2.6953910242
 20
5.1886706491
 30
0.0
 10
2.6937505161
 20
5.1905080244
 30
0.0
 10
2.692382903
 20
5.1927374419
 30
0.0
 10
2.6913356571
 20
5.1952884811
 30
0.0
 10
2.6906521776
 20
5.1980688583
 30
0.0
 10
2.6904422793
 20
5.19999937
 30
0.0
 10
2.6904011467
 20
5.2009755363
 30
0.0
  0
LINE
  5
31A
100
AcDbEntity
  8
0
100
AcDbLine
 62
7
  6
CONTINUOUS
 10
1.5913903449
 20
5.521999558
 11
1.6257452339
 21
5.5238625065
  0
SPLINE
  5
31B
100
AcDbEntity
  8
0
100
AcDbSpline
 62
7
  6
CONTINUOUS
 70
0
 71
3
 72
15
 73
11
 74
0
 42
0.0000001
 43
0.0000001
 44
0.0000000001
 40
0.0
 40
0.0
 40
0.0
 40
0.0
 40
0.1038323448
 40
0.2112575934
 40
0.3248076979
 40
0.4460798938
 40
0.5753973288
 40
0.7120936024
 40
0.85465314
 40
1.0
 40
1.0
 40
1.0
 40
1.0
 10
7.8469406295
 20
5.551546019
 30
0.0
 10
7.8476385895
 20
5.5515453133
 30
0.0
 10
7.8490649207
 20
5.5513442486
 30
0.0
 10
7.8510950493
 20
5.5504860327
 30
0.0
 10
7.8529671464
 20
5.5491163223
 30
0.0
 10
7.8546076269
 20
5.5472789413
 30
0.0
 10
7.8559751939
 20
5.5450495273
 30
0.0
 10
7.8570224272
 20
5.5424985253
 30
0.0
 10
7.8577058901
 20
5.5397181866
 30
0.0
 10
7.8579157745
 20
5.5377877023
 30
0.0
 10
7.8579569036
 20
5.5368115477
 30
0.0
  0
LINE
  5
31C
100
AcDbEntity
  8
0
100
AcDbLine
 62
7
  6
CONTINUOUS
 10
8.9871278657
 20
5.2174230355
 11
9.077441205
 21
5.2223205521
  0
LINE
  5
31D
100
AcDbEntity
  8
0
100
AcDbLine
 62
7
  6
CONTINUOUS
 10
9.077441205
 20
5.2223205521
 11
9.1076774582
 21
5.2239602325
  0
LINE
  5
31E
100
AcDbEntity
  8
0
100
AcDbLine
 62
7
  6
CONTINUOUS
 10
9.1076774582
 20
5.2239602325
 11
9.1683476747
 21
5.2272503543
  0
LINE
  5
31F
100
AcDbEntity
  8
0
100
AcDbLine
 62
7
  6
CONTINUOUS
 10
1.8632174935
 20
5.536739246
 11
1.8975696949
 21
5.5386018758
  0
LINE
  5
320
100
AcDbEntity
  8
0
100
AcDbLine
 62
7
  6
CONTINUOUS
 10
2.1363192319
 20
5.5515465143
 11
2.2257242171
 21
5.5563935475
  0
LINE
  5
321
100
AcDbEntity
  8
0
100
AcDbLine
 62
7
  6
CONTINUOUS
 10
2.513485836
 20
5.2157875369
 11
2.6611321173
 21
5.2048509461
  0
LINE
  5
322
100
AcDbEntity
  8
0
100
AcDbLine
 62
7
  6
CONTINUOUS
 10
2.6611321173
 20
5.2048509461
 11
2.6727640055
 21
5.2039893698
  0
LINE
  5
323
100
AcDbEntity
  8
0
100
AcDbLine
 62
7
  6
CONTINUOUS
 10
2.3587449565
 20
5.2272503543
 11
2.4914070639
 21
5.2174230355
  0
LINE
  5
324
100
AcDbEntity
  8
0
100
AcDbLine
 62
7
  6
CONTINUOUS
 10
8.9226128133
 20
5.2139245884
 11
8.9569677023
 21
5.2157875369
  0
LINE
  5
325
100
AcDbEntity
  8
0
100
AcDbLine
 62
7
  6
CONTINUOUS
 10
8.9385204604
 20
4.9418870998
 11
8.9366531169
 21
4.9417808783
  0
LINE
  5
326
100
AcDbEntity
  8
0
100
AcDbLine
 62
7
  6
CONTINUOUS
 10
8.9366531169
 20
4.9417808783
 11
8.6749186686
 21
4.9286301214
  0
SPLINE
  5
327
100
AcDbEntity
  8
0
100
AcDbSpline
 62
7
  6
CONTINUOUS
 70
0
 71
3
 72
24
 73
20
 74
0
 42
0.0000001
 43
0.0000001
 44
0.0000000001
 40
0.0
 40
0.0
 40
0.0
 40
0.0
 40
0.0057361519
 40
0.0141751535
 40
0.0259106265
 40
0.0410360608
 40
0.0811224231
 40
0.1333325227
 40
0.1961699691
 40
0.267922496
 40
0.3466265536
 40
0.4301060143
 40
0.6015009026
 40
0.684357346
 40
0.7619620491
 40
0.8322620104
 40
0.8942423327
 40
0.9488750809
 40
1.0
 40
1.0
 40
1.0
 40
1.0
 10
7.7734925567
 20
3.482703676
 30
0.0
 10
7.7734327984
 20
3.4827035663
 30
0.0
 10
7.7732902152
 20
3.4827726763
 30
0.0
 10
7.7731087928
 20
3.4829726018
 30
0.0
 10
7.7729028584
 20
3.4832789817
 30
0.0
 10
7.7725711867
 20
3.4838928421
 30
0.0
 10
7.7721214873
 20
3.4849191509
 30
0.0
 10
7.7715359879
 20
3.4864253713
 30
0.0
 10
7.7708696138
 20
3.4882539754
 30
0.0
 10
7.7701242173
 20
3.4903472203
 30
0.0
 10
7.7693011688
 20
3.4926412479
 30
0.0
 10
7.7680907604
 20
3.4958985602
 30
0.0
 10
7.7667648557
 20
3.4991611456
 30
0.0
 10
7.7652400778
 20
3.5022660165
 30
0.0
 10
7.7640292597
 20
3.504346172
 30
0.0
 10
7.7627339233
 20
3.5061149909
 30
0.0
 10
7.7613389149
 20
3.5074911005
 30
0.0
 10
7.7598133853
 20
3.5083937164
 30
0.0
 10
7.7587016337
 20
3.508600233
 30
0.0
 10
7.7581690224
 20
3.5085995024
 30
0.0
  0
SPLINE
  5
328
100
AcDbEntity
  8
0
100
AcDbSpline
 62
7
  6
CONTINUOUS
 70
0
 71
3
 72
15
 73
11
 74
0
 42
0.0000001
 43
0.0000001
 44
0.0000000001
 40
0.0
 40
0.0
 40
0.0
 40
0.0
 40
0.1278611685
 40
0.2550087056
 40
0.3815200053
 40
0.5073563352
 40
0.6323428056
 40
0.7562225232
 40
0.8787713077
 40
1.0
 40
1.0
 40
1.0
 40
1.0
 10
3.9766702439
 20
3.4824005093
 30
0.0
 10
3.9685395908
 20
3.4824016665
 30
0.0
 10
3.9523181056
 20
3.4830753609
 30
0.0
 10
3.9281959816
 20
3.4858017998
 30
0.0
 10
3.9043947933
 20
3.4898367974
 30
0.0
 10
3.8808960993
 20
3.4946988841
 30
0.0
 10
3.8576136653
 20
3.4997615915
 30
0.0
 10
3.8344317541
 20
3.504307564
 30
0.0
 10
3.8112570508
 20
3.5075293852
 30
0.0
 10
3.7957469933
 20
3.5083269769
 30
0.0
 10
3.7880380973
 20
3.5083263494
 30
0.0
  0
LINE
  5
329
100
AcDbEntity
  8
0
100
AcDbLine
 62
7
  6
CONTINUOUS
 10
4.7557798869
 20
4.7717483134
 11
4.6937019492
 21
4.7806049141
  0
LINE
  5
32A
100
AcDbEntity
  8
0
100
AcDbLine
 62
7
  6
CONTINUOUS
 10
4.853831128
 20
3.7861967406
 11
4.8967672105
 21
4.5776647974
  0
LINE
  5
32B
100
AcDbEntity
  8
0
100
AcDbLine
 62
7
  6
CONTINUOUS
 10
3.3317582751
 20
4.9282429499
 11
3.3554198569
 21
4.9249148544
  0
LINE
  5
32C
100
AcDbEntity
  8
0
100
AcDbLine
 62
7
  6
CONTINUOUS
 10
4.9021512827
 20
4.9193692797
 11
4.8401754176
 21
4.9282258462
  0
LINE
  5
32D
100
AcDbEntity
  8
0
100
AcDbLine
 62
7
  6
CONTINUOUS
 10
8.6587032062
 20
4.7810236058
 11
8.4863300392
 21
4.772141604
  0
LINE
  5
32E
100
AcDbEntity
  8
0
100
AcDbLine
 62
7
  6
CONTINUOUS
 10
8.070009117
 20
4.5779993344
 11
8.0752082317
 21
3.786536352
  0
SPLINE
  5
32F
100
AcDbEntity
  8
0
100
AcDbSpline
 62
7
  6
CONTINUOUS
 70
0
 71
3
 72
18
 73
14
 74
0
 42
0.0000001
 43
0.0000001
 44
0.0000000001
 40
0.0
 40
0.0
 40
0.0
 40
0.0
 40
0.0306463515
 40
0.0678959221
 40
0.1114004704
 40
0.1607552744
 40
0.2155210091
 40
0.2751992421
 40
0.4069728495
 40
0.5510466838
 40
0.7018193864
 40
0.8534600689
 40
1.0
 40
1.0
 40
1.0
 40
1.0
 10
4.8401754176
 20
4.9282258462
 30
0.0
 10
4.8361130105
 20
4.9288072219
 30
0.0
 10
4.8270863322
 20
4.9299084366
 30
0.0
 10
4.812239456
 20
4.931364598
 30
0.0
 10
4.7948724358
 20
4.9327649881
 30
0.0
 10
4.775148728
 20
4.9340965642
 30
0.0
 10
4.7532500348
 20
4.9353464017
 30
0.0
 10
4.7203177881
 20
4.9369416422
 30
0.0
 10
4.6754178736
 20
4.9386139967
 30
0.0
 10
4.6183083315
 20
4.9400988624
 30
0.0
 10
4.558526985
 20
4.9410687741
 30
0.0
 10
4.4984092074
 20
4.9414925825
 30
0.0
 10
4.4584796868
 20
4.9414041882
 30
0.0
 10
4.4388573842
 20
4.9412518389
 30
0.0
  0
SPLINE
  5
330
100
AcDbEntity
  8
0
100
AcDbSpline
 62
7
  6
CONTINUOUS
 70
0
 71
3
 72
26
 73
22
 74
0
 42
0.0000001
 43
0.0000001
 44
0.0000000001
 40
0.0
 40
0.0
 40
0.0
 40
0.0
 40
0.0056891768
 40
0.0083185358
 40
0.0114903733
 40
0.0152154803
 40
0.0194996693
 40
0.0297553404
 40
0.0422674538
 40
0.0570328909
 40
0.0740313901
 40
0.0932263446
 40
0.1145787541
 40
0.1635945069
 40
0.2206976354
 40
0.2853819053
 40
0.3571145885
 40
0.4352739076
 40
0.6081560116
 40
0.7984667689
 40
1.0
 40
1.0
 40
1.0
 40
1.0
 10
8.7909702992
 20
4.7954345333
 30
0.0
 10
8.7909866285
 20
4.7956870866
 30
0.0
 10
8.7904984745
 20
4.7959063651
 30
0.0
 10
8.7900347751
 20
4.7960243024
 30
0.0
 10
8.7896103715
 20
4.7961052517
 30
0.0
 10
8.7891198283
 20
4.7961704856
 30
0.0
 10
8.7883097249
 20
4.7962478912
 30
0.0
 10
8.7871078896
 20
4.7963063292
 30
0.0
 10
8.7854378853
 20
4.7963262196
 30
0.0
 10
8.7834684038
 20
4.7962969696
 30
0.0
 10
8.7812027418
 20
4.7962185648
 30
0.0
 10
8.7786459546
 20
4.7960908431
 30
0.0
 10
8.7746694101
 20
4.7958430318
 30
0.0
 10
8.7690157688
 20
4.79540187
 30
0.0
 10
8.7614497053
 20
4.7947030173
 30
0.0
 10
8.7528866306
 20
4.7938168606
 30
0.0
 10
8.7434010736
 20
4.7927493444
 30
0.0
 10
8.72914507
 20
4.7910361249
 30
0.0
 10
8.7096760439
 20
4.7884971803
 30
0.0
 10
8.68480009
 20
4.7849902698
 30
0.0
 10
8.6675625526
 20
4.7823983898
 30
0.0
 10
8.6587032798
 20
4.7810248352
 30
0.0
  0
SPLINE
  5
331
100
AcDbEntity
  8
0
100
AcDbSpline
 62
7
  6
CONTINUOUS
 70
0
 71
3
 72
13
 73
9
 74
0
 42
0.0000001
 43
0.0000001
 44
0.0000000001
 40
0.0
 40
0.0
 40
0.0
 40
0.0
 40
0.3102463136
 40
0.5866086355
 40
0.7088985075
 40
0.8191771704
 40
0.9165072379
 40
1.0
 40
1.0
 40
1.0
 40
1.0
 10
3.509382169
 20
4.9412623781
 30
0.0
 10
3.4920839743
 20
4.9413952913
 30
0.0
 10
3.4593755661
 20
4.9415079942
 30
0.0
 10
3.4198486558
 20
4.9412344064
 30
0.0
 10
3.3914759462
 20
4.9407285787
 30
0.0
 10
3.3730876054
 20
4.940241882
 30
0.0
 10
3.3568672834
 20
4.9396382457
 30
0.0
 10
3.3467976445
 20
4.9391208209
 30
0.0
 10
3.3421512643
 20
4.9388313727
 30
0.0
  0
SPLINE
  5
332
100
AcDbEntity
  8
0
100
AcDbSpline
 62
7
  6
CONTINUOUS
 70
0
 71
3
 72
33
 73
29
 74
0
 42
0.0000001
 43
0.0000001
 44
0.0000000001
 40
0.0
 40
0.0
 40
0.0
 40
0.0
 40
0.1225367955
 40
0.2311440218
 40
0.3255403763
 40
0.4055009817
 40
0.4400423724
 40
0.470952978
 40
0.4982363056
 40
0.521905011
 40
0.5419875097
 40
0.558541581
 40
0.5716858171
 40
0.5816864458
 40
0.5891675665
 40
0.5923972675
 40
0.5956047764
 40
0.6029293041
 40
0.612685276
 40
0.6255319939
 40
0.641753226
 40
0.6614852293
 40
0.6847986759
 40
0.711716517
 40
0.7422365352
 40
0.814025804
 40
0.9000144415
 40
1.0
 40
1.0
 40
1.0
 40
1.0
 10
3.3421512643
 20
4.9388313727
 30
0.0
 10
3.339919866
 20
4.9386923668
 30
0.0
 10
3.3357120636
 20
4.9384077042
 30
0.0
 10
3.329791984
 20
4.9379234393
 30
0.0
 10
3.3246546251
 20
4.9374086747
 30
0.0
 10
3.320871953
 20
4.9369360138
 30
0.0
 10
3.3182493263
 20
4.9365339295
 30
0.0
 10
3.3165828261
 20
4.9362403746
 30
0.0
 10
3.3151194179
 20
4.9359402956
 30
0.0
 10
3.3138596836
 20
4.9356341229
 30
0.0
 10
3.3128039088
 20
4.9353221172
 30
0.0
 10
3.3119516779
 20
4.9350054505
 30
0.0
 10
3.311300828
 20
4.9346823067
 30
0.0
 10
3.3108452147
 20
4.9343539778
 30
0.0
 10
3.3106126546
 20
4.9340390047
 30
0.0
 10
3.3105597577
 20
4.9337866671
 30
0.0
 10
3.3105858285
 20
4.9335329267
 30
0.0
 10
3.3107850659
 20
4.9332040221
 30
0.0
 10
3.3112057395
 20
4.9328508375
 30
0.0
 10
3.3118194249
 20
4.9324923834
 30
0.0
 10
3.3126335166
 20
4.9321293741
 30
0.0
 10
3.3136504019
 20
4.9317597508
 30
0.0
 10
3.3148709842
 20
4.9313847699
 30
0.0
 10
3.3162946627
 20
4.9310045039
 30
0.0
 10
3.3185892862
 20
4.9304613452
 30
0.0
 10
3.3219587947
 20
4.9297862941
 30
0.0
 10
3.3265952889
 20
4.9289961996
 30
0.0
 10
3.3299518518
 20
4.9284974945
 30
0.0
 10
3.3317582751
 20
4.9282429499
 30
0.0
  0
SPLINE
  5
333
100
AcDbEntity
  8
0
100
AcDbSpline
 62
7
  6
CONTINUOUS
 70
0
 71
3
 72
15
 73
11
 74
0
 42
0.0000001
 43
0.0000001
 44
0.0000000001
 40
0.0
 40
0.0
 40
0.0
 40
0.0
 40
0.1256248209
 40
0.2511083944
 40
0.3764410313
 40
0.5015992576
 40
0.6265590251
 40
0.7512934603
 40
0.8757805821
 40
1.0
 40
1.0
 40
1.0
 40
1.0
 10
5.0332526212
 20
3.5083122327
 30
0.0
 10
5.0237606336
 20
3.508313052
 30
0.0
 10
5.0047799951
 20
3.507529533
 30
0.0
 10
4.9765024306
 20
3.5043193708
 30
0.0
 10
4.9484551743
 20
3.4997756106
 30
0.0
 10
4.9205434132
 20
3.4947091007
 30
0.0
 10
4.8926401149
 20
3.4898427748
 30
0.0
 10
4.8646504185
 20
3.4858042494
 30
0.0
 10
4.8365538944
 20
3.4830735888
 30
0.0
 10
4.8177575451
 20
3.4823925
 30
0.0
 10
4.8083717473
 20
3.4823914646
 30
0.0
  0
LINE
  5
334
100
AcDbEntity
  8
0
100
AcDbLine
 62
7
  6
CONTINUOUS
 10
7.9396520257
 20
4.5698184029
 11
7.9444663262
 21
3.7946839162
  0
LINE
  5
335
100
AcDbEntity
  8
0
100
AcDbLine
 62
7
  6
CONTINUOUS
 10
5.0151862953
 20
3.7943750988
 11
5.0549269652
 21
4.5695142828
  0
SPLINE
  5
336
100
AcDbEntity
  8
0
100
AcDbSpline
 62
7
  6
CONTINUOUS
 70
0
 71
3
 72
28
 73
24
 74
0
 42
0.0000001
 43
0.0000001
 44
0.0000000001
 40
0.0
 40
0.0
 40
0.0
 40
0.0
 40
0.2019315431
 40
0.3922559361
 40
0.4809147643
 40
0.5643512175
 40
0.6419477854
 40
0.7131031651
 40
0.7773040745
 40
0.8340693179
 40
0.8829221876
 40
0.9234770774
 40
0.9405667364
 40
0.955495014
 40
0.9682382356
 40
0.9787780583
 40
0.9871082376
 40
0.9904550025
 40
0.993270035
 40
0.9955732841
 40
0.997401202
 40
0.9988267536
 40
1.0
 40
1.0
 40
1.0
 40
1.0
 10
8.5990860934
 20
3.7865581998
 30
0.0
 10
8.6079429781
 20
3.7860897005
 30
0.0
 10
8.6251512496
 20
3.7852463205
 30
0.0
 10
8.6462569593
 20
3.7843885234
 30
0.0
 10
8.6621666552
 20
3.7838646015
 30
0.0
 10
8.6731296287
 20
3.7835649703
 30
0.0
 10
8.6833256793
 20
3.7833511475
 30
0.0
 10
8.6926782832
 20
3.7832251483
 30
0.0
 10
8.701116716
 20
3.7831870454
 30
0.0
 10
8.7085755877
 20
3.7832359274
 30
0.0
 10
8.7149946255
 20
3.783371411
 30
0.0
 10
8.7196688714
 20
3.7835631374
 30
0.0
 10
8.7228498565
 20
3.7837702729
 30
0.0
 10
8.7248089035
 20
3.7839372672
 30
0.0
 10
8.7264771481
 20
3.7841238784
 30
0.0
 10
8.727850617
 20
3.7843296362
 30
0.0
 10
8.7288074164
 20
3.7845268788
 30
0.0
 10
8.7294195729
 20
3.784702553
 30
0.0
 10
8.7297695653
 20
3.7848290836
 30
0.0
 10
8.7300459492
 20
3.7849599683
 30
0.0
 10
8.7302498942
 20
3.7850961578
 30
0.0
 10
8.7303844884
 20
3.785240588
 30
0.0
 10
8.7304239062
 20
3.785353035
 30
0.0
 10
8.7304270886
 20
3.7854044682
 30
0.0
  0
SPLINE
  5
337
100
AcDbEntity
  8
0
100
AcDbSpline
 62
7
  6
CONTINUOUS
 70
0
 71
3
 72
18
 73
14
 74
0
 42
0.0000001
 43
0.0000001
 44
0.0000000001
 40
0.0
 40
0.0
 40
0.0
 40
0.0
 40
0.0317529138
 40
0.0695692289
 40
0.1132843354
 40
0.1626227361
 40
0.2172422384
 40
0.2767170835
 40
0.4080686162
 40
0.5518299246
 40
0.7023753943
 40
0.8537697896
 40
1.0
 40
1.0
 40
1.0
 40
1.0
 10
4.693701951
 20
4.7806049751
 30
0.0
 10
4.691739375
 20
4.7814628789
 30
0.0
 10
4.6873268938
 20
4.7830842963
 30
0.0
 10
4.6799766747
 20
4.7851880025
 30
0.0
 10
4.6713665368
 20
4.7871528387
 30
0.0
 10
4.6615682942
 20
4.7889598202
 30
0.0
 10
4.6506631229
 20
4.7905889233
 30
0.0
 10
4.6342232952
 20
4.792566263
 30
0.0
 10
4.6117221595
 20
4.794423475
 30
0.0
 10
4.5830321162
 20
4.7956944385
 30
0.0
 10
4.5529636815
 20
4.7960217498
 30
0.0
 10
4.5227342383
 20
4.7953990036
 30
0.0
 10
4.5026810135
 20
4.7943455867
 30
0.0
 10
4.492841927
 20
4.7936455647
 30
0.0
  0
SPLINE
  5
338
100
AcDbEntity
  8
0
100
AcDbSpline
 62
7
  6
CONTINUOUS
 70
0
 71
3
 72
18
 73
14
 74
0
 42
0.0000001
 43
0.0000001
 44
0.0000000001
 40
0.0
 40
0.0
 40
0.0
 40
0.0
 40
0.1461228212
 40
0.2974438796
 40
0.447769692
 40
0.5915432403
 40
0.7233211004
 40
0.7830887797
 40
0.8380434566
 40
0.8876646129
 40
0.9314670191
 40
0.9690418304
 40
1.0
 40
1.0
 40
1.0
 40
1.0
 10
4.4624817034
 20
3.7861292786
 30
0.0
 10
4.4722783709
 20
3.7855813047
 30
0.0
 10
4.4922290707
 20
3.7846205937
 30
0.0
 10
4.5222788531
 20
3.783573772
 30
0.0
 10
4.5521822096
 20
3.7829243525
 30
0.0
 10
4.5807793588
 20
3.7826964117
 30
0.0
 10
4.6032963475
 20
3.7828621883
 30
0.0
 10
4.6198446726
 20
3.7832336167
 30
0.0
 10
4.6308741221
 20
3.7836071462
 30
0.0
 10
4.640826641
 20
3.7840808719
 30
0.0
 10
4.6496052132
 20
3.7846503029
 30
0.0
 10
4.6571204446
 20
3.7853057325
 30
0.0
 10
4.661692175
 20
3.7858448395
 30
0.0
 10
4.6637494409
 20
3.7861433197
 30
0.0
  0
SPLINE
  5
339
100
AcDbEntity
  8
0
100
AcDbSpline
 62
7
  6
CONTINUOUS
 70
0
 71
3
 72
25
 73
21
 74
0
 42
0.0000001
 43
0.0000001
 44
0.0000000001
 40
0.0
 40
0.0
 40
0.0
 40
0.0
 40
0.2088954492
 40
0.4007950203
 40
0.4888114186
 40
0.5708688439
 40
0.6464972597
 40
0.7152925109
 40
0.7768735646
 40
0.8309126954
 40
0.877221289
 40
0.9156840998
 40
0.9319764686
 40
0.9463465009
 40
0.9588541083
 40
0.9695957443
 40
0.9787303204
 40
0.9865232585
 40
0.9934073905
 40
1.0
 40
1.0
 40
1.0
 40
1.0
 10
3.5612785655
 20
4.7936555261
 30
0.0
 10
3.5542079211
 20
4.794158126
 30
0.0
 10
3.5406322539
 20
4.7949924682
 30
0.0
 10
3.5240564427
 20
4.7956475589
 30
0.0
 10
3.5117752557
 20
4.7958761268
 30
0.0
 10
3.5034374328
 20
4.7959005686
 30
0.0
 10
3.4957526262
 20
4.7957819972
 30
0.0
 10
3.4887663923
 20
4.7955219032
 30
0.0
 10
3.4825205004
 20
4.7951220917
 30
0.0
 10
3.4770505799
 20
4.7945844731
 30
0.0
 10
3.4723866587
 20
4.793913831
 30
0.0
 10
3.4690244183
 20
4.7932177817
 30
0.0
 10
3.4667681545
 20
4.7925724319
 30
0.0
 10
3.4653858068
 20
4.792084189
 30
0.0
 10
3.4642175667
 20
4.791565467
 30
0.0
 10
3.4632628712
 20
4.7910159465
 30
0.0
 10
3.4625207758
 20
4.7904338295
 30
0.0
 10
3.461991742
 20
4.7898131921
 30
0.0
 10
3.4616857743
 20
4.7891471875
 30
0.0
 10
3.4616421773
 20
4.7886818386
 30
0.0
 10
3.4616572297
 20
4.7884586374
 30
0.0
  0
SPLINE
  5
33A
100
AcDbEntity
  8
0
100
AcDbSpline
 62
7
  6
CONTINUOUS
 70
0
 71
3
 72
20
 73
16
 74
0
 42
0.0000001
 43
0.0000001
 44
0.0000000001
 40
0.0
 40
0.0
 40
0.0
 40
0.0
 40
0.1861097878
 40
0.3628965703
 40
0.5254171711
 40
0.669657679
 40
0.7337761736
 40
0.7919784383
 40
0.8438904071
 40
0.8892179022
 40
0.92767802
 40
0.9590348546
 40
0.9831560469
 40
0.9924849034
 40
1.0
 40
1.0
 40
1.0
 40
1.0
 10
8.0700091189
 20
4.5779993353
 30
0.0
 10
8.0618953404
 20
4.5778732785
 30
0.0
 10
8.0460752112
 20
4.5775581779
 30
0.0
 10
8.023175471
 20
4.5768852982
 30
0.0
 10
8.0021084575
 20
4.5760368504
 30
0.0
 10
7.9859596535
 20
4.5751745537
 30
0.0
 10
7.9743628514
 20
4.574397981
 30
0.0
 10
7.9667885527
 20
4.5738103787
 30
0.0
 10
7.9600383882
 20
4.5731985849
 30
0.0
 10
7.9541551192
 20
4.5725673904
 30
0.0
 10
7.9491753684
 20
4.5719226791
 30
0.0
 10
7.9451318045
 20
4.5712678211
 30
0.0
 10
7.9423636005
 20
4.5706866671
 30
0.0
 10
7.9406454599
 20
4.5701962994
 30
0.0
 10
7.9399531324
 20
4.5699476489
 30
0.0
 10
7.9396520256
 20
4.5698184033
 30
0.0
  0
SPLINE
  5
33B
100
AcDbEntity
  8
0
100
AcDbSpline
 62
7
  6
CONTINUOUS
 70
0
 71
3
 72
21
 73
17
 74
0
 42
0.0000001
 43
0.0000001
 44
0.0000000001
 40
0.0
 40
0.0
 40
0.0
 40
0.0
 40
0.0069394918
 40
0.0157027015
 40
0.0263119943
 40
0.0387712719
 40
0.0692126685
 40
0.1069021138
 40
0.1516153032
 40
0.2031039238
 40
0.2610467269
 40
0.3250738307
 40
0.4697399944
 40
0.6333399007
 40
0.8117255541
 40
1.0
 40
1.0
 40
1.0
 40
1.0
 10
7.9444663258
 20
3.7946839792
 30
0.0
 10
7.9447397955
 20
3.7945523505
 30
0.0
 10
7.9453807118
 20
3.7943011341
 30
0.0
 10
7.9464818334
 20
3.7939653539
 30
0.0
 10
7.9478333919
 20
3.7936293038
 30
0.0
 10
7.9501243011
 20
3.7931495825
 30
0.0
 10
7.9536032693
 20
3.7925757641
 30
0.0
 10
7.9584965828
 20
3.7919308474
 30
0.0
 10
7.964318668
 20
3.7912997669
 30
0.0
 10
7.9710326028
 20
3.7906879706
 30
0.0
 10
7.9785962156
 20
3.790100277
 30
0.0
 10
7.9902317954
 20
3.7893228041
 30
0.0
 10
8.0064921247
 20
3.7884632288
 30
0.0
 10
8.0277596843
 20
3.787621705
 30
0.0
 10
8.0509416367
 20
3.7869607811
 30
0.0
 10
8.0669749202
 20
3.7866569464
 30
0.0
 10
8.0752082326
 20
3.7865361962
 30
0.0
  0
SPLINE
  5
33C
100
AcDbEntity
  8
0
100
AcDbSpline
 62
7
  6
CONTINUOUS
 70
0
 71
3
 72
12
 73
8
 74
0
 42
0.0000001
 43
0.0000001
 44
0.0000000001
 40
0.0
 40
0.0
 40
0.0
 40
0.0
 40
0.3144367793
 40
0.6047994205
 40
0.8414122542
 40
0.931717469
 40
1.0
 40
1.0
 40
1.0
 40
1.0
 10
5.0549269665
 20
4.5695142832
 30
0.0
 10
5.0383526752
 20
4.5704221075
 30
0.0
 10
5.0064718211
 20
4.5721456817
 30
0.0
 10
4.9621148356
 20
4.5744769524
 30
0.0
 10
4.929570412
 20
4.5761290989
 30
0.0
 10
4.9087318181
 20
4.5771309839
 30
0.0
 10
4.9003685947
 20
4.5775116778
 30
0.0
 10
4.8967672098
 20
4.5776647985
 30
0.0
  0
SPLINE
  5
33D
100
AcDbEntity
  8
0
100
AcDbSpline
 62
7
  6
CONTINUOUS
 70
0
 71
3
 72
12
 73
8
 74
0
 42
0.0000001
 43
0.0000001
 44
0.0000000001
 40
0.0
 40
0.0
 40
0.0
 40
0.0
 40
0.0683909676
 40
0.1589986194
 40
0.396359336
 40
0.6868107572
 40
1.0
 40
1.0
 40
1.0
 40
1.0
 10
4.8538311214
 20
3.7861966159
 30
0.0
 10
4.8575112205
 20
3.786346503
 30
0.0
 10
4.8660658134
 20
3.7867212519
 30
0.0
 10
4.8873881985
 20
3.7877182066
 30
0.0
 10
4.9206515307
 20
3.7893768175
 30
0.0
 10
4.9658821137
 20
3.7917264615
 30
0.0
 10
4.9983448118
 20
3.793455217
 30
0.0
 10
5.0151863013
 20
3.7943752179
 30
0.0
  0
SPLINE
  5
33E
100
AcDbEntity
  8
0
100
AcDbSpline
 62
7
  6
CONTINUOUS
 70
0
 71
3
 72
25
 73
21
 74
0
 42
0.0000001
 43
0.0000001
 44
0.0000000001
 40
0.0
 40
0.0
 40
0.0
 40
0.0
 40
0.1909362737
 40
0.373655779
 40
0.4597105139
 40
0.5412692845
 40
0.6176436394
 40
0.6882122378
 40
0.7524073267
 40
0.809683232
 40
0.8596207878
 40
0.9019711029
 40
0.920257618
 40
0.9366122945
 40
0.9510678174
 40
0.9637009073
 40
0.9746377521
 40
0.984084342
 40
0.9923720764
 40
1.0
 40
1.0
 40
1.0
 40
1.0
 10
8.5990860934
 20
3.7865581998
 30
0.0
 10
8.5990064824
 20
3.7768165276
 30
0.0
 10
8.5985700817
 20
3.7577536021
 30
0.0
 10
8.5973152568
 20
3.7343270971
 30
0.0
 10
8.5958743423
 20
3.7165095361
 30
0.0
 10
8.5946288435
 20
3.7041222839
 30
0.0
 10
8.5932063537
 20
3.6925496367
 30
0.0
 10
8.5916208589
 20
3.6818928356
 30
0.0
 10
8.589889998
 20
3.6722469278
 30
0.0
 10
8.5880293045
 20
3.6636987441
 30
0.0
 10
8.586054661
 20
3.6563244715
 30
0.0
 10
8.584257011
 20
3.6509699355
 30
0.0
 10
8.5827435259
 20
3.6473431061
 30
0.0
 10
8.5816463348
 20
3.6450892222
 30
0.0
 10
8.5805329851
 20
3.6431697308
 30
0.0
 10
8.5794057628
 20
3.6415862178
 30
0.0
 10
8.578265047
 20
3.6403392409
 30
0.0
 10
8.5771073697
 20
3.6394305067
 30
0.0
 10
8.5759274304
 20
3.638868121
 30
0.0
 10
8.5751112469
 20
3.6387370419
 30
0.0
 10
8.5747220531
 20
3.6387370218
 30
0.0
  0
SPLINE
  5
33F
100
AcDbEntity
  8
0
100
AcDbSpline
 62
7
  6
CONTINUOUS
 70
0
 71
3
 72
25
 73
21
 74
0
 42
0.0000001
 43
0.0000001
 44
0.0000000001
 40
0.0
 40
0.0
 40
0.0
 40
0.0
 40
0.1909450528
 40
0.3736773096
 40
0.4597307412
 40
0.5412855967
 40
0.6176565807
 40
0.6882223502
 40
0.7524155323
 40
0.8096906322
 40
0.859626339
 40
0.9019743853
 40
0.9202600142
 40
0.9366141258
 40
0.9510691507
 40
0.9637017729
 40
0.9746382222
 40
0.9840845269
 40
0.9923721099
 40
1.0
 40
1.0
 40
1.0
 40
1.0
 10
8.0752022007
 20
3.7865363517
 30
0.0
 10
8.075122586
 20
3.7767942294
 30
0.0
 10
8.0746859939
 20
3.757730206
 30
0.0
 10
8.0734312575
 20
3.7343026579
 30
0.0
 10
8.0719902275
 20
3.7164847153
 30
0.0
 10
8.0707446696
 20
3.7040979071
 30
0.0
 10
8.0693222113
 20
3.6925257735
 30
0.0
 10
8.0677366923
 20
3.681869391
 30
0.0
 10
8.0660057949
 20
3.6722237757
 30
0.0
 10
8.0641451615
 20
3.6636758154
 30
0.0
 10
8.0621705394
 20
3.6563017941
 30
0.0
 10
8.0603729071
 20
3.6509475201
 30
0.0
 10
8.0588594616
 20
3.6473208798
 30
0.0
 10
8.057762323
 20
3.6450670807
 30
0.0
 10
8.0566490113
 20
3.6431476564
 30
0.0
 10
8.0555218172
 20
3.6415642077
 30
0.0
 10
8.0543811219
 20
3.6403172904
 30
0.0
 10
8.0532234578
 20
3.6394086072
 30
0.0
 10
8.0520435267
 20
3.6388462603
 30
0.0
 10
8.0512273525
 20
3.6387151937
 30
0.0
 10
8.0508381604
 20
3.6387151737
 30
0.0
  0
SPLINE
  5
340
100
AcDbEntity
  8
0
100
AcDbSpline
 62
7
  6
CONTINUOUS
 70
0
 71
3
 72
20
 73
16
 74
0
 42
0.0000001
 43
0.0000001
 44
0.0000000001
 40
0.0
 40
0.0
 40
0.0
 40
0.0
 40
0.0711351572
 40
0.146015141
 40
0.2235327252
 40
0.3024107478
 40
0.4594655319
 40
0.5356303048
 40
0.6088194338
 40
0.7425856471
 40
0.8549338447
 40
0.901687354
 40
0.9415721311
 40
0.9743825065
 40
1.0
 40
1.0
 40
1.0
 40
1.0
 10
7.9294780944
 20
3.6387081902
 30
0.0
 10
7.9275971847
 20
3.6387080212
 30
0.0
 10
7.9237359749
 20
3.6388999221
 30
0.0
 10
7.9178616153
 20
3.6395703024
 30
0.0
 10
7.9118187094
 20
3.6405161131
 30
0.0
 10
7.903667094
 20
3.6420169983
 30
0.0
 10
7.895590572
 20
3.6437144337
 30
0.0
 10
7.8876671413
 20
3.6454049077
 30
0.0
 10
7.8803423093
 20
3.646950461
 30
0.0
 10
7.8720717997
 20
3.6486477749
 30
0.0
 10
7.864456873
 20
3.6500612882
 30
0.0
 10
7.8592595151
 20
3.6508818619
 30
0.0
 10
7.8561289994
 20
3.6513042812
 30
0.0
 10
7.8535425256
 20
3.6515672684
 30
0.0
 10
7.8519979456
 20
3.651646687
 30
0.0
 10
7.851320585
 20
3.651645812
 30
0.0
  0
SPLINE
  5
341
100
AcDbEntity
  8
0
100
AcDbSpline
 62
7
  6
CONTINUOUS
 70
0
 71
3
 72
11
 73
7
 74
0
 42
0.0000001
 43
0.0000001
 44
0.0000000001
 40
0.0
 40
0.0
 40
0.0
 40
0.0
 40
0.2505095294
 40
0.5007687138
 40
0.7506094184
 40
1.0
 40
1.0
 40
1.0
 40
1.0
 10
7.9444664592
 20
3.7946839164
 30
0.0
 10
7.9444668531
 20
3.7796545716
 30
0.0
 10
7.9400964174
 20
3.7494326384
 30
0.0
 10
7.9209514789
 20
3.7079999797
 30
0.0
 10
7.8908527381
 20
3.6737740431
 30
0.0
 10
7.8650235933
 20
3.6576440691
 30
0.0
 10
7.8513183963
 20
3.6516411194
 30
0.0
  0
SPLINE
  5
342
100
AcDbEntity
  8
0
100
AcDbSpline
 62
7
  6
CONTINUOUS
 70
0
 71
3
 72
17
 73
13
 74
0
 42
0.0000001
 43
0.0000001
 44
0.0000000001
 40
0.0
 40
0.0
 40
0.0
 40
0.0
 40
0.1569483301
 40
0.3109798171
 40
0.4584085372
 40
0.596226251
 40
0.7216678395
 40
0.8322502169
 40
0.8812335604
 40
0.9256709184
 40
0.9653331796
 40
1.0
 40
1.0
 40
1.0
 40
1.0
 10
5.0151840743
 20
3.7943750988
 30
0.0
 10
5.0151842711
 20
3.7868677506
 30
0.0
 10
5.0152887328
 20
3.7719923777
 30
0.0
 10
5.0157494493
 20
3.7500693101
 30
0.0
 10
5.0165093393
 20
3.7290701016
 30
0.0
 10
5.0175465704
 20
3.7094518532
 30
0.0
 10
5.0188408702
 20
3.691615507
 30
0.0
 10
5.0201517951
 20
3.6780437358
 30
0.0
 10
5.0213367646
 20
3.6683573283
 30
0.0
 10
5.0222339822
 20
3.6620545511
 30
0.0
 10
5.0231691404
 20
3.6564504921
 30
0.0
 10
5.0238609
 20
3.6529620806
 30
0.0
 10
5.0242194199
 20
3.6513430751
 30
0.0
  0
SPLINE
  5
343
100
AcDbEntity
  8
0
100
AcDbSpline
 62
7
  6
CONTINUOUS
 70
0
 71
3
 72
17
 73
13
 74
0
 42
0.0000001
 43
0.0000001
 44
0.0000000001
 40
0.0
 40
0.0
 40
0.0
 40
0.0
 40
0.1260736093
 40
0.2523674122
 40
0.3782891139
 40
0.5034653785
 40
0.5657461219
 40
0.627847991
 40
0.7517204783
 40
0.8136164946
 40
0.8755824365
 40
1.0
 40
1.0
 40
1.0
 40
1.0
 10
5.0242192078
 20
3.6513477721
 30
0.0
 10
5.0139070161
 20
3.6513475134
 30
0.0
 10
4.9932640547
 20
3.6511145201
 30
0.0
 10
4.9623356545
 20
3.6501242807
 30
0.0
 10
4.9315073825
 20
3.6485063756
 30
0.0
 10
4.9059356967
 20
3.6467233861
 30
0.0
 10
4.8855864924
 20
3.6451142653
 30
0.0
 10
4.8653508119
 20
3.64342516
 30
0.0
 10
4.8451497944
 20
3.6416993199
 30
0.0
 10
4.8249427337
 20
3.6401805217
 30
0.0
 10
4.8046752364
 20
3.6389066803
 30
0.0
 10
4.789429612
 20
3.6383773111
 30
0.0
 10
4.7792528767
 20
3.6383760867
 30
0.0
  0
SPLINE
  5
344
100
AcDbEntity
  8
0
100
AcDbSpline
 62
7
  6
CONTINUOUS
 70
0
 71
3
 72
16
 73
12
 74
0
 42
0.0000001
 43
0.0000001
 44
0.0000000001
 40
0.0
 40
0.0
 40
0.0
 40
0.0
 40
0.1280986916
 40
0.1921735746
 40
0.2560872507
 40
0.3830575047
 40
0.5088804824
 40
0.6334953221
 40
0.7568250452
 40
0.8788989015
 40
1.0
 40
1.0
 40
1.0
 40
1.0
 10
4.8538328793
 20
3.7861967411
 30
0.0
 10
4.8534484742
 20
3.7783358095
 30
0.0
 10
4.8520241976
 20
3.7665624082
 30
0.0
 10
4.8484933112
 20
3.7512202841
 30
0.0
 10
4.8438991382
 20
3.7362318514
 30
0.0
 10
4.8361837822
 20
3.7182880614
 30
0.0
 10
4.8239851276
 20
3.6984710458
 30
0.0
 10
4.8091111566
 20
3.6808615103
 30
0.0
 10
4.7919299577
 20
3.6658366203
 30
0.0
 10
4.7728081924
 20
3.6537787893
 30
0.0
 10
4.7590052872
 20
3.6478666497
 30
0.0
 10
4.7519508876
 20
3.6455012878
 30
0.0
  0
SPLINE
  5
345
100
AcDbEntity
  8
0
100
AcDbSpline
 62
7
  6
CONTINUOUS
 70
0
 71
3
 72
19
 73
15
 74
0
 42
0.0000001
 43
0.0000001
 44
0.0000000001
 40
0.0
 40
0.0
 40
0.0
 40
0.0
 40
0.1290515542
 40
0.1935298058
 40
0.2577209536
 40
0.321569868
 40
0.3850551876
 40
0.5107484379
 40
0.6348236849
 40
0.6963450172
 40
0.7575461959
 40
0.8184994593
 40
0.8792638424
 40
1.0
 40
1.0
 40
1.0
 40
1.0
 10
4.6637494409
 20
3.7861433197
 30
0.0
 10
4.6632692486
 20
3.7763235746
 30
0.0
 10
4.6612267494
 20
3.7616192039
 30
0.0
 10
4.6559763703
 20
3.742682122
 30
0.0
 10
4.6507903182
 20
3.7289399016
 30
0.0
 10
4.6444125212
 20
3.7157938928
 30
0.0
 10
4.6344432283
 20
3.6992692047
 30
0.0
 10
4.6193091801
 20
3.6806267792
 30
0.0
 10
4.6010475002
 20
3.6652519325
 30
0.0
 10
4.5850204171
 20
3.6553717205
 30
0.0
 10
4.5724257851
 20
3.6492216744
 30
0.0
 10
4.5593317221
 20
3.644379136
 30
0.0
 10
4.5414297158
 20
3.6397478721
 30
0.0
 10
4.527552106
 20
3.6383120113
 30
0.0
 10
4.5183541156
 20
3.6383093842
 30
0.0
  0
SPLINE
  5
346
100
AcDbEntity
  8
0
100
AcDbSpline
 62
7
  6
CONTINUOUS
 70
0
 71
3
 72
22
 73
18
 74
0
 42
0.0000001
 43
0.0000001
 44
0.0000000001
 40
0.0
 40
0.0
 40
0.0
 40
0.0
 40
0.1745756365
 40
0.3425040975
 40
0.422184903
 40
0.4982576604
 40
0.57020965
 40
0.6376021345
 40
0.7000656372
 40
0.7572931495
 40
0.8091445024
 40
0.8556982572
 40
0.8972350082
 40
0.9343625927
 40
0.9681118897
 40
0.9841895797
 40
1.0
 40
1.0
 40
1.0
 40
1.0
 10
4.4624817034
 20
3.7861292786
 30
0.0
 10
4.4626651036
 20
3.7763778806
 30
0.0
 10
4.4636712418
 20
3.7572527106
 30
0.0
 10
4.4665558854
 20
3.7338194162
 30
0.0
 10
4.469854832
 20
3.7160346799
 30
0.0
 10
4.4727146067
 20
3.7036343459
 30
0.0
 10
4.4759823119
 20
3.6920462124
 30
0.0
 10
4.4796271255
 20
3.681370518
 30
0.0
 10
4.4836113549
 20
3.6716994133
 30
0.0
 10
4.4879040354
 20
3.6631194621
 30
0.0
 10
4.4924728312
 20
3.6557057408
 30
0.0
 10
4.4972778853
 20
3.6495150094
 30
0.0
 10
4.5022948093
 20
3.6446001094
 30
0.0
 10
4.5074985183
 20
3.6410188993
 30
0.0
 10
4.512037948
 20
3.6391554996
 30
0.0
 10
4.5156414285
 20
3.6384299915
 30
0.0
 10
4.5174252138
 20
3.638309392
 30
0.0
 10
4.5183085041
 20
3.638309378
 30
0.0
  0
SPLINE
  5
347
100
AcDbEntity
  8
0
100
AcDbSpline
 62
7
  6
CONTINUOUS
 70
0
 71
3
 72
22
 73
18
 74
0
 42
0.0000001
 43
0.0000001
 44
0.0000000001
 40
0.0
 40
0.0
 40
0.0
 40
0.0
 40
0.1745756384
 40
0.3425040997
 40
0.4221849033
 40
0.4982576588
 40
0.5702096482
 40
0.6376021342
 40
0.7000656389
 40
0.7572931523
 40
0.8091445046
 40
0.855698258
 40
0.8972350079
 40
0.9343625923
 40
0.9681118896
 40
0.9841895797
 40
1.0
 40
1.0
 40
1.0
 40
1.0
 10
3.6295236467
 20
3.7861387234
 30
0.0
 10
3.6297070469
 20
3.7763873252
 30
0.0
 10
3.6307131852
 20
3.7572621552
 30
0.0
 10
3.6335978287
 20
3.7338288608
 30
0.0
 10
3.6368967753
 20
3.7160441247
 30
0.0
 10
3.6397565499
 20
3.7036437908
 30
0.0
 10
3.6430242552
 20
3.6920556574
 30
0.0
 10
3.6466690689
 20
3.6813799628
 30
0.0
 10
3.6506532984
 20
3.6717088579
 30
0.0
 10
3.6549459789
 20
3.6631289066
 30
0.0
 10
3.6595147746
 20
3.6557151852
 30
0.0
 10
3.6643198287
 20
3.649524454
 30
0.0
 10
3.6693367526
 20
3.6446095542
 30
0.0
 10
3.6745404616
 20
3.6410283442
 30
0.0
 10
3.6790798913
 20
3.6391649445
 30
0.0
 10
3.6826833718
 20
3.6384394363
 30
0.0
 10
3.6844671571
 20
3.6383188368
 30
0.0
 10
3.6853504474
 20
3.6383188227
 30
0.0
  0
LINE
  5
348
100
AcDbEntity
  8
0
100
AcDbLine
 62
7
  6
CONTINUOUS
 10
8.6749186686
 20
4.9286301214
 11
8.5025685247
 21
4.9197488512
  0
SPLINE
  5
349
100
AcDbEntity
  8
0
100
AcDbSpline
 62
7
  6
CONTINUOUS
 70
0
 71
3
 72
14
 73
10
 74
0
 42
0.0000001
 43
0.0000001
 44
0.0000000001
 40
0.0
 40
0.0
 40
0.0
 40
0.0
 40
0.3650795755
 40
0.5180543412
 40
0.6511925466
 40
0.76481303
 40
0.8596202017
 40
0.9370620584
 40
1.0
 40
1.0
 40
1.0
 40
1.0
 10
4.9089074036
 20
4.9044337341
 30
0.0
 10
4.90843088
 20
4.906411868
 30
0.0
 10
4.9076866986
 20
4.9092051895
 30
0.0
 10
4.9065176345
 20
4.9126424513
 30
0.0
 10
4.9056817486
 20
4.9147092592
 30
0.0
 10
4.9048371433
 20
4.9164178181
 30
0.0
 10
4.9039827374
 20
4.9177679131
 30
0.0
 10
4.9031188374
 20
4.9187615624
 30
0.0
 10
4.9024704298
 20
4.9192237154
 30
0.0
 10
4.9021512828
 20
4.9193692797
 30
0.0
  0
SPLINE
  5
34A
100
AcDbEntity
  8
0
100
AcDbSpline
 62
7
  6
CONTINUOUS
 70
0
 71
3
 72
21
 73
17
 74
0
 42
0.0000001
 43
0.0000001
 44
0.0000000001
 40
0.0
 40
0.0
 40
0.0
 40
0.0
 40
0.0320065952
 40
0.0665970568
 40
0.1049073244
 40
0.1477039541
 40
0.1954107564
 40
0.2481972344
 40
0.3060761264
 40
0.3688768979
 40
0.4362905033
 40
0.5079573917
 40
0.5834608137
 40
0.6623247032
 40
0.8280453375
 40
1.0
 40
1.0
 40
1.0
 40
1.0
 10
3.5093820493
 20
4.9412576329
 30
0.0
 10
3.5111179011
 20
4.9410063472
 30
0.0
 10
3.5146711192
 20
4.9400023928
 30
0.0
 10
3.5197421085
 20
4.937214499
 30
0.0
 10
3.5246597523
 20
4.9331648339
 30
0.0
 10
3.5293835522
 20
4.9278911418
 30
0.0
 10
3.5338932388
 20
4.9214448475
 30
0.0
 10
3.5381629764
 20
4.9138763458
 30
0.0
 10
3.5421571259
 20
4.9052409398
 30
0.0
 10
3.5458469897
 20
4.8956095741
 30
0.0
 10
3.5492054214
 20
4.885063049
 30
0.0
 10
3.5521997811
 20
4.8736869093
 30
0.0
 10
3.5548038713
 20
4.8615731582
 30
0.0
 10
3.5577809313
 20
4.8442826941
 30
0.0
 10
3.5603385663
 20
4.8215789886
 30
0.0
 10
3.5611665864
 20
4.8030779486
 30
0.0
 10
3.5612807864
 20
4.7936556086
 30
0.0
  0
SPLINE
  5
34B
100
AcDbEntity
  8
0
100
AcDbSpline
 62
7
  6
CONTINUOUS
 70
0
 71
3
 72
21
 73
17
 74
0
 42
0.0000001
 43
0.0000001
 44
0.0000000001
 40
0.0
 40
0.0
 40
0.0
 40
0.0
 40
0.0320571271
 40
0.0667668154
 40
0.1052338132
 40
0.1481985261
 40
0.1960655656
 40
0.2489913434
 40
0.3069795347
 40
0.3698535163
 40
0.4373002249
 40
0.5089572044
 40
0.5844059604
 40
0.6631698005
 40
0.8285541723
 40
1.0
 40
1.0
 40
1.0
 40
1.0
 10
4.4388573843
 20
4.9412518462
 30
0.0
 10
4.4406024728
 20
4.9410000201
 30
0.0
 10
4.4441782266
 20
4.9399939187
 30
0.0
 10
4.4492931085
 20
4.9372064925
 30
0.0
 10
4.4542724632
 20
4.9331578556
 30
0.0
 10
4.4590750057
 20
4.9278849561
 30
0.0
 10
4.4636792884
 20
4.9214390366
 30
0.0
 10
4.4680584007
 20
4.9138706179
 30
0.0
 10
4.4721757543
 20
4.905235078
 30
0.0
 10
4.4760015534
 20
4.895603468
 30
0.0
 10
4.4795074769
 20
4.8850566957
 30
0.0
 10
4.4826596888
 20
4.8736803007
 30
0.0
 10
4.4854307068
 20
4.8615662924
 30
0.0
 10
4.4886437273
 20
4.8442800967
 30
0.0
 10
4.4915096116
 20
4.8215812047
 30
0.0
 10
4.492587303
 20
4.8030714846
 30
0.0
 10
4.4928276444
 20
4.7936449052
 30
0.0
  0
SPLINE
  5
34C
100
AcDbEntity
  8
0
100
AcDbSpline
 62
7
  6
CONTINUOUS
 70
0
 71
3
 72
19
 73
15
 74
0
 42
0.0000001
 43
0.0000001
 44
0.0000000001
 40
0.0
 40
0.0
 40
0.0
 40
0.0
 40
0.120378781
 40
0.1811145389
 40
0.2421249369
 40
0.30345098
 40
0.3651444359
 40
0.4896265218
 40
0.61565571
 40
0.6792312622
 40
0.7431007124
 40
0.8072310925
 40
0.8715555947
 40
1.0
 40
1.0
 40
1.0
 40
1.0
 10
4.840175386
 20
4.9282211129
 30
0.0
 10
4.8310217975
 20
4.9281017136
 30
0.0
 10
4.817219899
 20
4.9265088792
 30
0.0
 10
4.7994172831
 20
4.9217325156
 30
0.0
 10
4.7863700474
 20
4.9168056906
 30
0.0
 10
4.7738022223
 20
4.9105993083
 30
0.0
 10
4.7577789447
 20
4.900677528
 30
0.0
 10
4.73947297
 20
4.8853259756
 30
0.0
 10
4.7241992306
 20
4.8667805802
 30
0.0
 10
4.7140592418
 20
4.8503618333
 30
0.0
 10
4.7075290547
 20
4.8373167744
 30
0.0
 10
4.7021640597
 20
4.8236883019
 30
0.0
 10
4.6966440101
 20
4.8049306339
 30
0.0
 10
4.6943546901
 20
4.7903507614
 30
0.0
 10
4.6936996588
 20
4.7806050211
 30
0.0
  0
SPLINE
  5
34D
100
AcDbEntity
  8
0
100
AcDbSpline
 62
7
  6
CONTINUOUS
 70
0
 71
3
 72
19
 73
15
 74
0
 42
0.0000001
 43
0.0000001
 44
0.0000000001
 40
0.0
 40
0.0
 40
0.0
 40
0.0
 40
0.1202963096
 40
0.1810975321
 40
0.2421407504
 40
0.3034638256
 40
0.3651423826
 40
0.4272354287
 40
0.4897535726
 40
0.5526595886
 40
0.6159087335
 40
0.743215388
 40
0.871560433
 40
1.0
 40
1.0
 40
1.0
 40
1.0
 10
4.9021512828
 20
4.9193692797
 30
0.0
 10
4.8930077617
 20
4.9192385561
 30
0.0
 10
4.8792155393
 20
4.9176327025
 30
0.0
 10
4.8614190429
 20
4.9128578017
 30
0.0
 10
4.8483710617
 20
4.9079270509
 30
0.0
 10
4.8358112028
 20
4.9017160452
 30
0.0
 10
4.8238361596
 20
4.8942880621
 30
0.0
 10
4.8125492849
 20
4.8857009052
 30
0.0
 10
4.8020451641
 20
4.8760354012
 30
0.0
 10
4.7924113194
 20
4.8653822677
 30
0.0
 10
4.780835275
 20
4.849952521
 30
0.0
 10
4.7689867916
 20
4.8286395837
 30
0.0
 10
4.759452657
 20
4.8008979222
 30
0.0
 10
4.7564050384
 20
4.7814917528
 30
0.0
 10
4.7557798869
 20
4.7717483134
 30
0.0
  0
SPLINE
  5
34E
100
AcDbEntity
  8
0
100
AcDbSpline
 62
7
  6
CONTINUOUS
 70
0
 71
3
 72
15
 73
11
 74
0
 42
0.0000001
 43
0.0000001
 44
0.0000000001
 40
0.0
 40
0.0
 40
0.0
 40
0.0
 40
0.1232233411
 40
0.2492788703
 40
0.3766438861
 40
0.5043411262
 40
0.6314162773
 40
0.7569852557
 40
0.8802446859
 40
1.0
 40
1.0
 40
1.0
 40
1.0
 10
4.9089074022
 20
4.9044337399
 30
0.0
 10
4.9000814528
 20
4.9035925134
 30
0.0
 10
4.8823408454
 20
4.9004131054
 30
0.0
 10
4.8566162074
 20
4.8915666079
 30
0.0
 10
4.8322945755
 20
4.8786645014
 30
0.0
 10
4.8101312183
 20
4.8622195781
 30
0.0
 10
4.7907855865
 20
4.842716982
 30
0.0
 10
4.7748269623
 20
4.8207387198
 30
0.0
 10
4.762857991
 20
4.7969498019
 30
0.0
 10
4.7576105184
 20
4.7801680246
 30
0.0
 10
4.7557798869
 20
4.7717483134
 30
0.0
  0
SPLINE
  5
34F
100
AcDbEntity
  8
0
100
AcDbSpline
 62
7
  6
CONTINUOUS
 70
0
 71
3
 72
15
 73
11
 74
0
 42
0.0000001
 43
0.0000001
 44
0.0000000001
 40
0.0
 40
0.0
 40
0.0
 40
0.0
 40
0.1236577036
 40
0.2495459013
 40
0.376855254
 40
0.5044799374
 40
0.631437891
 40
0.7570332307
 40
0.8806205313
 40
1.0
 40
1.0
 40
1.0
 40
1.0
 10
5.0476719463
 20
4.7103501882
 30
0.0
 10
5.038894795
 20
4.7095454717
 30
0.0
 10
5.0213073364
 20
4.7062264546
 30
0.0
 10
4.9959918041
 20
4.6969560521
 30
0.0
 10
4.9720627634
 20
4.6839396029
 30
0.0
 10
4.9502085316
 20
4.6675468342
 30
0.0
 10
4.9311328743
 20
4.6481547646
 30
0.0
 10
4.915456117
 20
4.6262556401
 30
0.0
 10
4.9038751394
 20
4.6025550086
 30
0.0
 10
4.8986768171
 20
4.5859567752
 30
0.0
 10
4.8967672098
 20
4.5776647985
 30
0.0
  0
SPLINE
  5
350
100
AcDbEntity
  8
0
100
AcDbSpline
 62
7
  6
CONTINUOUS
 70
0
 71
3
 72
15
 73
11
 74
0
 42
0.0000001
 43
0.0000001
 44
0.0000000001
 40
0.0
 40
0.0
 40
0.0
 40
0.0
 40
0.0362706985
 40
0.0772911246
 40
0.1726674425
 40
0.284209818
 40
0.4097006232
 40
0.5467803455
 40
0.6928413995
 40
1.0
 40
1.0
 40
1.0
 40
1.0
 10
5.0476719463
 20
4.7103501882
 30
0.0
 10
5.0479600352
 20
4.7086683202
 30
0.0
 10
5.0485169071
 20
4.7050745161
 30
0.0
 10
5.0495781991
 20
4.6970205026
 30
0.0
 10
5.0507781411
 20
4.6854158894
 30
0.0
 10
5.0519990929
 20
4.6698243467
 30
0.0
 10
5.053036838
 20
4.652253818
 30
0.0
 10
5.0538677751
 20
4.6330469267
 30
0.0
 10
5.0546904412
 20
4.6052877739
 30
0.0
 10
5.0549265877
 20
4.5839646284
 30
0.0
 10
5.0549269665
 20
4.5695142832
 30
0.0
  0
SPLINE
  5
351
100
AcDbEntity
  8
0
100
AcDbSpline
 62
7
  6
CONTINUOUS
 70
0
 71
3
 72
11
 73
7
 74
0
 42
0.0000001
 43
0.0000001
 44
0.0000000001
 40
0.0
 40
0.0
 40
0.0
 40
0.0
 40
0.2492467368
 40
0.4990580099
 40
0.749380675
 40
1.0
 40
1.0
 40
1.0
 40
1.0
 10
8.0278502937
 20
4.7106643714
 30
0.0
 10
8.0147684363
 20
4.7043830761
 30
0.0
 10
7.9902268407
 20
4.6879882317
 30
0.0
 10
7.9617861961
 20
4.6541677268
 30
0.0
 10
7.9437597145
 20
4.6137385829
 30
0.0
 10
7.9396516433
 20
4.584410026
 30
0.0
 10
7.9396520257
 20
4.5698184029
 30
0.0
  0
SPLINE
  5
352
100
AcDbEntity
  8
0
100
AcDbSpline
 62
7
  6
CONTINUOUS
 70
0
 71
3
 72
23
 73
19
 74
0
 42
0.0000001
 43
0.0000001
 44
0.0000000001
 40
0.0
 40
0.0
 40
0.0
 40
0.0
 40
0.0059719293
 40
0.0137923052
 40
0.023522786
 40
0.0351715957
 40
0.0641554988
 40
0.1005917577
 40
0.1443094652
 40
0.1951098626
 40
0.2527084651
 40
0.3167689698
 40
0.386903579
 40
0.4626163987
 40
0.6286378868
 40
0.7177966715
 40
0.8099931811
 40
1.0
 40
1.0
 40
1.0
 40
1.0
 10
8.0278502937
 20
4.7106643715
 30
0.0
 10
8.0276950873
 20
4.7104315752
 30
0.0
 10
8.0274232115
 20
4.709838154
 30
0.0
 10
8.0271257928
 20
4.7087754072
 30
0.0
 10
8.0268984327
 20
4.7074240217
 30
0.0
 10
8.0266932122
 20
4.7050717397
 30
0.0
 10
8.0267383596
 20
4.7014528472
 30
0.0
 10
8.0272727775
 20
4.6963622027
 30
0.0
 10
8.0283962059
 20
4.6903255488
 30
0.0
 10
8.0300703427
 20
4.6833960735
 30
0.0
 10
8.0322689898
 20
4.6756194479
 30
0.0
 10
8.0349593767
 20
4.6670450045
 30
0.0
 10
8.0381067647
 20
4.6577272385
 30
0.0
 10
8.0430013115
 20
4.6439595525
 30
0.0
 10
8.048443691
 20
4.6294428519
 30
0.0
 10
8.0542676435
 20
4.6142451389
 30
0.0
 10
8.0607323787
 20
4.5980925713
 30
0.0
 10
8.0660804321
 20
4.58598754
 30
0.0
 10
8.0700091189
 20
4.5779993353
 30
0.0
  0
SPLINE
  5
353
100
AcDbEntity
  8
0
100
AcDbSpline
 62
7
  6
CONTINUOUS
 70
0
 71
3
 72
23
 73
19
 74
0
 42
0.0000001
 43
0.0000001
 44
0.0000000001
 40
0.0
 40
0.0
 40
0.0
 40
0.0
 40
0.0146486774
 40
0.0240837841
 40
0.0352127766
 40
0.0481500127
 40
0.0629588708
 40
0.0796734252
 40
0.0983101768
 40
0.1413123363
 40
0.1917017604
 40
0.2491133042
 40
0.3131604466
 40
0.3834222735
 40
0.4593757048
 40
0.6261263374
 40
0.8085131873
 40
1.0
 40
1.0
 40
1.0
 40
1.0
 10
8.4439234525
 20
4.9048064166
 30
0.0
 10
8.443420442
 20
4.9043372595
 30
0.0
 10
8.4428924648
 20
4.9032663805
 30
0.0
 10
8.4425392757
 20
4.9016578635
 30
0.0
 10
8.4423867504
 20
4.9000861877
 30
0.0
 10
8.4423724567
 20
4.8982601847
 30
0.0
 10
8.4424916373
 20
4.8961744594
 30
0.0
 10
8.4427432734
 20
4.8938319658
 30
0.0
 10
8.4432791454
 20
4.8901912782
 30
0.0
 10
8.444294924
 20
4.8850270691
 30
0.0
 10
8.4459591514
 20
4.8781428647
 30
0.0
 10
8.4481174413
 20
4.8703662274
 30
0.0
 10
8.4507612905
 20
4.8617598183
 30
0.0
 10
8.4538798026
 20
4.852391397
 30
0.0
 10
8.4587860998
 20
4.8385382502
 30
0.0
 10
8.4659084659
 20
4.819888515
 30
0.0
 10
8.4755341615
 20
4.796396538
 30
0.0
 10
8.4825972978
 20
4.7803216297
 30
0.0
 10
8.4863300392
 20
4.772141604
 30
0.0
  0
SPLINE
  5
354
100
AcDbEntity
  8
0
100
AcDbSpline
 62
7
  6
CONTINUOUS
 70
0
 71
3
 72
27
 73
23
 74
0
 42
0.0000001
 43
0.0000001
 44
0.0000000001
 40
0.0
 40
0.0
 40
0.0
 40
0.0
 40
0.0078517612
 40
0.0162321538
 40
0.025690585
 40
0.036603322
 40
0.0492072683
 40
0.0636479579
 40
0.0800129684
 40
0.098329724
 40
0.1407582447
 40
0.1907521847
 40
0.2480351828
 40
0.3121905028
 40
0.3826904287
 40
0.4589819138
 40
0.5404502914
 40
0.6264133578
 40
0.7161846798
 40
0.8090041099
 40
0.9039342076
 40
1.0
 40
1.0
 40
1.0
 40
1.0
 10
8.5025685244
 20
4.9197488511
 30
0.0
 10
8.5021731205
 20
4.9197165316
 30
0.0
 10
8.5013613594
 20
4.9195241963
 30
0.0
 10
8.5002215521
 20
4.918875342
 30
0.0
 10
8.4991441693
 20
4.9178873461
 30
0.0
 10
8.4981158372
 20
4.9165696101
 30
0.0
 10
8.4971252077
 20
4.9149234684
 30
0.0
 10
8.4961653673
 20
4.9129489533
 30
0.0
 10
8.4952308924
 20
4.9106480773
 30
0.0
 10
8.4939559037
 20
4.906965006
 30
0.0
 10
8.4924782677
 20
4.9015625039
 30
0.0
 10
8.4909206529
 20
4.8941574993
 30
0.0
 10
8.4895404745
 20
4.8856035439
 30
0.0
 10
8.4883494839
 20
4.8759773225
 30
0.0
 10
8.4873494052
 20
4.865364687
 30
0.0
 10
8.4865436465
 20
4.8538587377
 30
0.0
 10
8.4859419522
 20
4.8415581161
 30
0.0
 10
8.4855645672
 20
4.8285671928
 30
0.0
 10
8.4854334533
 20
4.8149978738
 30
0.0
 10
8.4855544801
 20
4.8009756178
 30
0.0
 10
8.4858662105
 20
4.7866385199
 30
0.0
 10
8.4861656442
 20
4.7769926953
 30
0.0
 10
8.4863300392
 20
4.772141604
 30
0.0
  0
SPLINE
  5
355
100
AcDbEntity
  8
0
100
AcDbSpline
 62
7
  6
CONTINUOUS
 70
0
 71
3
 72
25
 73
21
 74
0
 42
0.0000001
 43
0.0000001
 44
0.0000000001
 40
0.0
 40
0.0
 40
0.0
 40
0.0
 40
0.0075378723
 40
0.0157901042
 40
0.0252400871
 40
0.0362037741
 40
0.0488757274
 40
0.0633744287
 40
0.0797714085
 40
0.0980959179
 40
0.1405035808
 40
0.1904691436
 40
0.2477431598
 40
0.3119081452
 40
0.3824256391
 40
0.4587362031
 40
0.5402277654
 40
0.6262257162
 40
0.8089157552
 40
1.0
 40
1.0
 40
1.0
 40
1.0
 10
8.6749186686
 20
4.9286301213
 30
0.0
 10
8.6745390339
 20
4.9286000163
 30
0.0
 10
8.6737502925
 20
4.9284066912
 30
0.0
 10
8.6726350293
 20
4.9277632294
 30
0.0
 10
8.6715585479
 20
4.9267819757
 30
0.0
 10
8.6705151496
 20
4.9254695494
 30
0.0
 10
8.6695015734
 20
4.9238271409
 30
0.0
 10
8.6685183276
 20
4.9218552963
 30
0.0
 10
8.6675676051
 20
4.9195557682
 30
0.0
 10
8.666282556
 20
4.9158753933
 30
0.0
 10
8.6648087634
 20
4.9104741045
 30
0.0
 10
8.6632646412
 20
4.9030701297
 30
0.0
 10
8.6618899094
 20
4.8945177031
 30
0.0
 10
8.6606958523
 20
4.8848919127
 30
0.0
 10
8.6596931228
 20
4.874278146
 30
0.0
 10
8.6588939031
 20
4.8627697415
 30
0.0
 10
8.658306419
 20
4.8504656997
 30
0.0
 10
8.657800418
 20
4.8327803512
 30
0.0
 10
8.6577540712
 20
4.809547521
 30
0.0
 10
8.6582813216
 20
4.7906681723
 30
0.0
 10
8.6586892211
 20
4.7810228845
 30
0.0
  0
SPLINE
  5
356
100
AcDbEntity
  8
0
100
AcDbSpline
 62
7
  6
CONTINUOUS
 70
0
 71
3
 72
11
 73
7
 74
0
 42
0.0000001
 43
0.0000001
 44
0.0000000001
 40
0.0
 40
0.0
 40
0.0
 40
0.0
 40
0.2493904255
 40
0.4992310765
 40
0.749490314
 40
1.0
 40
1.0
 40
1.0
 40
1.0
 10
7.8513185336
 20
3.6516411195
 30
0.0
 10
7.8376131559
 20
3.6456382674
 30
0.0
 10
7.8117836273
 20
3.629508392
 30
0.0
 10
7.78168439
 20
3.5952823374
 30
0.0
 10
7.7625391192
 20
3.5538493524
 30
0.0
 10
7.7581686181
 20
3.5236271258
 30
0.0
 10
7.7581690225
 20
3.5085976353
 30
0.0
  0
SPLINE
  5
357
100
AcDbEntity
  8
0
100
AcDbSpline
 62
7
  6
CONTINUOUS
 70
0
 71
3
 72
17
 73
13
 74
0
 42
0.0000001
 43
0.0000001
 44
0.0000000001
 40
0.0
 40
0.0
 40
0.0
 40
0.0
 40
0.0346671138
 40
0.0743294085
 40
0.1187666246
 40
0.1677497178
 40
0.278331465
 40
0.4037726121
 40
0.5415902421
 40
0.6890191964
 40
0.8430511448
 40
1.0
 40
1.0
 40
1.0
 40
1.0
 10
5.0242182003
 20
3.6513430751
 30
0.0
 10
5.024576993
 20
3.6497241052
 30
0.0
 10
5.0252692371
 20
3.6462357489
 30
0.0
 10
5.026204929
 20
3.6406317329
 30
0.0
 10
5.0271025147
 20
3.634328984
 30
0.0
 10
5.0282877357
 20
3.6246425941
 30
0.0
 10
5.0295984313
 20
3.611070774
 30
0.0
 10
5.0308921663
 20
3.5932343326
 30
0.0
 10
5.0319289548
 20
3.5736159542
 30
0.0
 10
5.0326884026
 20
3.5526165704
 30
0.0
 10
5.0331485765
 20
3.5306932974
 30
0.0
 10
5.0332526342
 20
3.5158177825
 30
0.0
 10
5.0332526213
 20
3.5083103629
 30
0.0
  0
SPLINE
  5
358
100
AcDbEntity
  8
0
100
AcDbSpline
 62
7
  6
CONTINUOUS
 70
0
 71
3
 72
25
 73
21
 74
0
 42
0.0000001
 43
0.0000001
 44
0.0000000001
 40
0.0
 40
0.0
 40
0.0
 40
0.0
 40
0.0087993084
 40
0.0181792496
 40
0.0285982299
 40
0.0403838955
 40
0.0537550475
 40
0.068854128
 40
0.0857724488
 40
0.1045540354
 40
0.1477171787
 40
0.1982634199
 40
0.2559570991
 40
0.3203705185
 40
0.3909383903
 40
0.4670679729
 40
0.5481090064
 40
0.6333442354
 40
0.8133881997
 40
1.0
 40
1.0
 40
1.0
 40
1.0
 10
4.7793010656
 20
3.6383753228
 30
0.0
 10
4.7797791027
 20
3.6383756808
 30
0.0
 10
4.7807709638
 20
3.6382395718
 30
0.0
 10
4.7822206275
 20
3.6376455798
 30
0.0
 10
4.7836489616
 20
3.6366772888
 30
0.0
 10
4.785057248
 20
3.6353442899
 30
0.0
 10
4.7864474539
 20
3.6336503022
 30
0.0
 10
4.7878185966
 20
3.6315971242
 30
0.0
 10
4.7891677186
 20
3.6291870243
 30
0.0
 10
4.7910205943
 20
3.625321573
 30
0.0
 10
4.7932205873
 20
3.61961062
 30
0.0
 10
4.7956305136
 20
3.6117418981
 30
0.0
 10
4.7978894448
 20
3.6026343865
 30
0.0
 10
4.7999772243
 20
3.5923748582
 30
0.0
 10
4.8018742579
 20
3.5810618959
 30
0.0
 10
4.8035579685
 20
3.5688031406
 30
0.0
 10
4.8050108516
 20
3.555713092
 30
0.0
 10
4.8066547161
 20
3.5369692025
 30
0.0
 10
4.8080084472
 20
3.5124498991
 30
0.0
 10
4.8083713583
 20
3.4925290794
 30
0.0
 10
4.8083717473
 20
3.482391079
 30
0.0
  0
SPLINE
  5
359
100
AcDbEntity
  8
0
100
AcDbSpline
 62
7
  6
CONTINUOUS
 70
0
 71
3
 72
23
 73
19
 74
0
 42
0.0000001
 43
0.0000001
 44
0.0000000001
 40
0.0
 40
0.0
 40
0.0
 40
0.0
 40
0.0417149738
 40
0.0846003267
 40
0.1295196313
 40
0.1771876439
 40
0.2022410648
 40
0.2281637254
 40
0.2827295487
 40
0.3410853891
 40
0.4032127986
 40
0.4689322974
 40
0.5379921999
 40
0.610073323
 40
0.6847870738
 40
0.8402910881
 40
0.9199719785
 40
1.0
 40
1.0
 40
1.0
 40
1.0
 10
3.8956970559
 20
3.6383853419
 30
0.0
 10
3.898348926
 20
3.6383860348
 30
0.0
 10
3.9037399068
 20
3.6378642613
 30
0.0
 10
3.9116891649
 20
3.6355649635
 30
0.0
 10
3.9194692831
 20
3.6317828514
 30
0.0
 10
3.9256301745
 20
3.627494315
 30
0.0
 10
3.9303961421
 20
3.6234138011
 30
0.0
 10
3.9352103003
 20
3.6187345984
 30
0.0
 10
3.9409771773
 20
3.6120263161
 30
0.0
 10
3.9473352457
 20
3.602873499
 30
0.0
 10
3.9531955209
 20
3.5925725515
 30
0.0
 10
3.9585095618
 20
3.5812259445
 30
0.0
 10
3.9632204508
 20
3.5689372914
 30
0.0
 10
3.9672816798
 20
3.5558200671
 30
0.0
 10
3.9718495437
 20
3.537144044
 30
0.0
 10
3.9748667693
 20
3.5176281354
 30
0.0
 10
3.9763999356
 20
3.4976432761
 30
0.0
 10
3.9766610938
 20
3.4874879855
 30
0.0
 10
3.9766609756
 20
3.4824005096
 30
0.0
  0
SPLINE
  5
35A
100
AcDbEntity
  8
0
100
AcDbSpline
 62
7
  6
CONTINUOUS
 70
0
 71
3
 72
14
 73
10
 74
0
 42
0.0000001
 43
0.0000001
 44
0.0000000001
 40
0.0
 40
0.0
 40
0.0
 40
0.0
 40
0.2181114143
 40
0.3371819512
 40
0.46208386
 40
0.5919773824
 40
0.7258517922
 40
0.8624166082
 40
1.0
 40
1.0
 40
1.0
 40
1.0
 10
3.746456066
 20
3.6384289662
 30
0.0
 10
3.7532296186
 20
3.6308961079
 30
0.0
 10
3.7620897323
 20
3.6177553747
 30
0.0
 10
3.7713143591
 20
3.5983654902
 30
0.0
 10
3.7772951749
 20
3.5820335149
 30
0.0
 10
3.7820437836
 20
3.5645976661
 30
0.0
 10
3.7854869584
 20
3.5463055576
 30
0.0
 10
3.78756746
 20
3.5274525145
 30
0.0
 10
3.7880378981
 20
3.5147146775
 30
0.0
 10
3.7880380974
 20
3.5083244821
 30
0.0
  0
SPLINE
  5
35B
100
AcDbEntity
  8
0
100
AcDbSpline
 62
7
  6
CONTINUOUS
 70
0
 71
3
 72
25
 73
21
 74
0
 42
0.0000001
 43
0.0000001
 44
0.0000000001
 40
0.0
 40
0.0
 40
0.0
 40
0.0
 40
0.0020825354
 40
0.0037180697
 40
0.0058360767
 40
0.0084614818
 40
0.0116065336
 40
0.0194777136
 40
0.041601956
 40
0.0722429796
 40
0.1112564612
 40
0.1583880832
 40
0.2133723872
 40
0.2759394173
 40
0.3457640971
 40
0.4224411181
 40
0.5055580336
 40
0.5947017036
 40
0.7889537953
 40
1.0
 40
1.0
 40
1.0
 40
1.0
 10
3.5297076001
 20
3.783776285
 30
0.0
 10
3.5297122789
 20
3.7837069908
 30
0.0
 10
3.5298158068
 20
3.7836045885
 30
0.0
 10
3.5299852564
 20
3.7835195773
 30
0.0
 10
3.5301868199
 20
3.7834449899
 30
0.0
 10
3.5304402224
 20
3.7833759787
 30
0.0
 10
3.5308854501
 20
3.7832802922
 30
0.0
 10
3.5319792666
 20
3.783117893
 30
0.0
 10
3.5339969305
 20
3.7829600682
 30
0.0
 10
3.5370552919
 20
3.7828373579
 30
0.0
 10
3.5409499943
 20
3.7827762765
 30
0.0
 10
3.5456566912
 20
3.7827764264
 30
0.0
 10
3.5511485632
 20
3.7828399193
 30
0.0
 10
3.5573962596
 20
3.7829670434
 30
0.0
 10
3.5643660811
 20
3.783157663
 30
0.0
 10
3.5720196494
 20
3.7834105676
 30
0.0
 10
3.5803157315
 20
3.7837245813
 30
0.0
 10
3.5925280629
 20
3.7842379695
 30
0.0
 10
3.6089989872
 20
3.7850230138
 30
0.0
 10
3.6224963408
 20
3.7857449839
 30
0.0
 10
3.6295236467
 20
3.7861387234
 30
0.0
  0
ELLIPSE
  5
35C
100
AcDbEntity
  8
0
100
AcDbEllipse
 62
7
  6
CONTINUOUS
 10
5.2741790236
 20
5.6580827723
 30
0.0
 11
3.9999962282
 21
-0.1484350087
 31
0.0
 40
0.0370070051
 41
-0.8152799677
 42
-0.7527697907
  0
ELLIPSE
  5
35D
100
AcDbEntity
  8
0
100
AcDbEllipse
 62
7
  6
CONTINUOUS
 10
5.2741790236
 20
5.0797043227
 30
0.0
 11
3.9999990615
 21
0.202525229
 31
0.0
 40
0.0135294546
 41
0.2298592853
 42
0.2923694623
  0
ELLIPSE
  5
35E
100
AcDbEntity
  8
0
100
AcDbEllipse
 62
7
  6
CONTINUOUS
 10
5.2741790236
 20
5.0797043227
 30
0.0
 11
3.9999962282
 21
-0.1484350087
 31
0.0
 40
0.0370070051
 41
2.3263126859
 42
2.3888228629
  0
ELLIPSE
  5
35F
100
AcDbEntity
  8
0
100
AcDbEllipse
 62
7
  6
CONTINUOUS
 10
5.2741790236
 20
5.6580827723
 30
0.0
 11
3.9999990615
 21
0.202525229
 31
0.0
 40
0.0135294546
 41
-2.9117333683
 42
-2.8492231913
  0
ENDSEC
  0
SECTION
  2
OBJECTS
  0
DICTIONARY
  5
C
100
AcDbDictionary
280
0
281
1
  3
ACAD_GROUP
350
D
  3
ACAD_MLINESTYLE
350
17
  3
ACAD_LAYOUT
350
1A
  3
ACAD_PLOTSETTINGS
350
19
  3
ACAD_PLOTSTYLENAME
350
E
  0
DICTIONARY
  5
D
102
{ACAD_REACTORS
330
C
102
}
100
AcDbDictionary
280
0
281
1
  0
ACDBDICTIONARYWDFLT
  5
E
102
{ACAD_REACTORS
330
C
102
}
100
AcDbDictionary
281
1
  3
Normal
350
F
100
AcDbDictionaryWithDefault
340
F
  0
DICTIONARY
  5
17
102
{ACAD_REACTORS
330
C
102
}
100
AcDbDictionary
280
0
281
1
  3
Standard
350
18
  0
DICTIONARY
  5
19
102
{ACAD_REACTORS
330
C
102
}
100
AcDbDictionary
281
1
  0
DICTIONARY
  5
1A
102
{ACAD_REACTORS
330
C
102
}
100
AcDbDictionary
281
1
  3
Model
350
360
  3
Layout1
350
361
  0
ACDBPLACEHOLDER
  5
F
102
{ACAD_REACTORS
330
E
102
}
  0
MLINESTYLE
  5
18
102
{ACAD_REACTORS
330
17
102
}
100
AcDbMlineStyle
  2
STANDARD
 70
0
  3

 62
256
 51
90.0
 52
90.0
 71
2
 49
0.5
 62
256
  6
BYLAYER
 49
-0.5
 62
256
  6
BYLAYER
  0
LAYOUT
  5
360
102
{ACAD_REACTORS
330
1A
102
}
100
AcDbPlotSettings
  1

  2
none_device
  4
ANSI_A_(11.00_x_8.50_Inches)
  6

 40
0.0
 41
0.0
 42
0.0
 43
0.0
 44
279.4
 45
215.9
 46
0.0
 47
0.0
 48
0.0
 49
0.0
140
0.0
141
0.0
142
1.0
143
1.0
 70
1024
 72
0
 73
0
 74
0
  7

 75
0
147
1.0
148
0.0
149
0.0
100
AcDbLayout
  1
Model
 70
0
 71
0
 10
0.0
 20
0.0
 11
11.0
 21
8.5
 12
0.0
 22
0.0
 32
0.0
 14
0.0
 24
0.0
 34
0.0
 15
0.0
 25
0.0
 35
0.0
146
0.0
 13
0.0
 23
0.0
 33
0.0
 16
1.0
 26
0.0
 36
0.0
 17
0.0
 27
1.0
 37
0.0
 76
0
330
208
345
0
346
0
  0
LAYOUT
  5
361
102
{ACAD_REACTORS
330
1A
102
}
100
AcDbPlotSettings
  1

  2
none_device
  4
ANSI_A_(11.00_x_8.50_Inches)
  6

 40
0.0
 41
0.0
 42
0.0
 43
0.0
 44
279.4
 45
215.9
 46
0.0
 47
0.0
 48
0.0
 49
0.0
140
0.0
141
0.0
142
1.0
143
1.0
 70
0
 72
0
 73
0
 74
0
  7

 75
0
147
1.0
148
0.0
149
0.0
100
AcDbLayout
  1
Layout1
 70
0
 71
1
 10
0.0
 20
0.0
 11
11.0
 21
8.5
 12
0.0
 22
0.0
 32
0.0
 14
0.0
 24
0.0
 34
0.0
 15
0.0
 25
0.0
 35
0.0
146
0.0
 13
0.0
 23
0.0
 33
0.0
 16
1.0
 26
0.0
 36
0.0
 17
0.0
 27
1.0
 37
0.0
 76
0
330
209
345
0
346
0
  0
ENDSEC
  0
EOF
