999
DXF file: 278a-01_top.dxf
999
Pro/ENGINEER 2013150 by Parametric Technology Corporation
  0
SECTION
  2
HEADER
  9
$ACADVER
  1
AC1021
  9
$DWGCODEPAGE
  3
ANSI_1252
  9
$EXTMAX
 10
11.0
 20
8.5
 30
0.0
  9
$EXTMIN
 10
0.0
 20
0.0
 30
0.0
  9
$LIMMIN
 10
0.0
 20
0.0
  9
$LIMMAX
 10
11.0
 20
8.5
  9
$VIEWCTR
 10
5.5
 20
4.25
  9
$VIEWSIZE
 40
8.5
  9
$CLAYER
  8
0
  9
$LTSCALE
 40
0.605
  9
$CELTYPE
  6
BYLAYER
  9
$DIMSCALE
 40
1.0
  9
$DIMASZ
 40
0.1
  9
$DIMEXO
 40
0.0625
  9
$DIMDLI
 40
0.418
  9
$DIMEXE
 40
0.125
  9
$DIMCEN
 40
0.099
  9
$DIMLFAC
 40
1.0
  9
$DIMBLK
  1
_FILLED
  9
$DIMTXT
 40
0.08
  9
$DIMTOL
 70
1
  9
$DIMLIM
 70
0
  9
$DIMTFAC
 40
1.0
  9
$DIMTP
 40
0.001
  9
$DIMTM
 40
0.001
  9
$DIMGAP
 40
0.09
  9
$DIMDSEP
 70
46
  9
$PDMODE
 70
3
  9
$PDSIZE
 40
0.06
  9
$HANDSEED
  5
2DA
  9
$TILEMODE
 70
1
  9
$MEASUREMENT
 70
0
  9
$INSUNITS
 70
1
  0
ENDSEC
  0
SECTION
  2
CLASSES
  0
CLASS
  1
ACDBDICTIONARYWDFLT
  2
AcDbDictionaryWithDefault
  3
AutoCAD 2000
 90
0
 91
1
280
0
281
0
  0
CLASS
  1
ACDBPLACEHOLDER
  2
AcDbPlaceHolder
  3
AutoCAD 2000
 90
0
 91
1
280
0
281
0
  0
CLASS
  1
LAYOUT
  2
AcDbLayout
  3
AutoCAD 2000
 90
0
 91
0
280
0
281
0
  0
ENDSEC
  0
SECTION
  2
TABLES
  0
TABLE
  2
VPORT
  5
8
100
AcDbSymbolTable
 70
2
  0
VPORT
  5
1F4
100
AcDbSymbolTableRecord
100
AcDbViewportTableRecord
  2
*ACTIVE
 70
0
 10
0.0
 20
0.0
 11
1.0
 21
1.0
 12
5.5
 22
4.25
 13
0.0
 23
0.0
 14
1.0
 24
1.0
 15
0.0
 25
0.0
 16
0.0
 26
0.0
 36
1.0
 17
0.0
 27
0.0
 37
0.0
 40
8.5
 41
1.2941176471
 42
50.0
 43
0.0
 44
0.0
 50
0.0
 51
0.0
 71
0
 72
100
 73
1
 74
1
 75
0
 76
0
 77
0
 78
0
  0
ENDTAB
  0
TABLE
  2
LTYPE
  5
5
100
AcDbSymbolTable
 70
6
  0
LTYPE
  5
14
100
AcDbSymbolTableRecord
100
AcDbLinetypeTableRecord
  2
BYBLOCK
 70
0
  3

 72
65
 73
0
 40
0.0
  0
LTYPE
  5
15
100
AcDbSymbolTableRecord
100
AcDbLinetypeTableRecord
  2
BYLAYER
 70
0
  3

 72
65
 73
0
 40
0.0
  0
LTYPE
  5
16
100
AcDbSymbolTableRecord
100
AcDbLinetypeTableRecord
  2
CONTINUOUS
 70
64
  3
Solid line
 72
65
 73
0
 40
0.0
  0
LTYPE
  5
1F5
100
AcDbSymbolTableRecord
100
AcDbLinetypeTableRecord
  2
CENTER
 70
64
  3
____ _ ____ _ ____ _ ____ _ ____ _ ____ _ ____
 72
65
 73
4
 40
0.6
 49
0.375
 74
0
 49
-0.075
 74
0
 49
0.075
 74
0
 49
-0.075
 74
0
  0
LTYPE
  5
1F6
100
AcDbSymbolTableRecord
100
AcDbLinetypeTableRecord
  2
HIDDEN
 70
64
  3
- - - - - - - - - - - - - - - - - - - -
 72
65
 73
2
 40
0.2
 49
0.1
 74
0
 49
-0.1
 74
0
  0
LTYPE
  5
1F7
100
AcDbSymbolTableRecord
100
AcDbLinetypeTableRecord
  2
PHANTOM
 70
64
  3
_____ _ _ _____ _ _ _____ _ _ _____
 72
65
 73
6
 40
0.8
 49
0.45
 74
0
 49
-0.05
 74
0
 49
0.1
 74
0
 49
-0.05
 74
0
 49
0.1
 74
0
 49
-0.05
 74
0
  0
LTYPE
  5
1F8
100
AcDbSymbolTableRecord
100
AcDbLinetypeTableRecord
  2
DOT
 70
64
  3
. . . . . . . . . . . . . . . . . . . .
 72
65
 73
2
 40
0.2
 49
0.1
 74
0
 49
-0.1
 74
0
  0
LTYPE
  5
1F9
100
AcDbSymbolTableRecord
100
AcDbLinetypeTableRecord
  2
DASHED
 70
64
  3
- - - - - - - - - - - - - - - - - - - -
 72
65
 73
2
 40
0.2
 49
0.1
 74
0
 49
-0.1
 74
0
  0
ENDTAB
  0
TABLE
  2
LAYER
  5
2
100
AcDbSymbolTable
 70
36
  0
LAYER
  5
10
100
AcDbSymbolTableRecord
100
AcDbLayerTableRecord
  2
0
 70
0
 62
7
  6
CONTINUOUS
370
-3
390
F
  0
LAYER
  5
1FA
100
AcDbSymbolTableRecord
100
AcDbLayerTableRecord
  2
DEFAULT_1
 70
0
 62
7
  6
CENTER
370
-3
390
F
  0
LAYER
  5
1FB
100
AcDbSymbolTableRecord
100
AcDbLayerTableRecord
  2
DEFAULT_2
 70
0
 62
8
  6
HIDDEN
370
-3
390
F
  0
LAYER
  5
1FC
100
AcDbSymbolTableRecord
100
AcDbLayerTableRecord
  2
DEFAULT_3
 70
0
 62
7
  6
PHANTOM
370
-3
390
F
  0
LAYER
  5
1FD
100
AcDbSymbolTableRecord
100
AcDbLayerTableRecord
  2
ALL_FEATURES
 70
0
 62
7
  6
CONTINUOUS
370
-3
390
F
  0
LAYER
  5
1FE
100
AcDbSymbolTableRecord
100
AcDbLayerTableRecord
  2
AXES_FEATURES
 70
0
 62
7
  6
CONTINUOUS
370
-3
390
F
  0
LAYER
  5
1FF
100
AcDbSymbolTableRecord
100
AcDbLayerTableRecord
  2
DEFAULT_COORDINATE_SYSTEM
 70
0
 62
7
  6
CONTINUOUS
370
-3
390
F
  0
LAYER
  5
200
100
AcDbSymbolTableRecord
100
AcDbLayerTableRecord
  2
DEFAULT_DATUM_AXES
 70
0
 62
7
  6
CONTINUOUS
370
-3
390
F
  0
LAYER
  5
201
100
AcDbSymbolTableRecord
100
AcDbLayerTableRecord
  2
DEFAULT_DATUM_CURVES
 70
0
 62
7
  6
CONTINUOUS
370
-3
390
F
  0
LAYER
  5
202
100
AcDbSymbolTableRecord
100
AcDbLayerTableRecord
  2
DEFAULT_DATUM_PLANES
 70
0
 62
7
  6
CONTINUOUS
370
-3
390
F
  0
LAYER
  5
203
100
AcDbSymbolTableRecord
100
AcDbLayerTableRecord
  2
DEFAULT_SURFACES
 70
0
 62
7
  6
CONTINUOUS
370
-3
390
F
  0
LAYER
  5
204
100
AcDbSymbolTableRecord
100
AcDbLayerTableRecord
  2
DIMENSIONS
 70
0
 62
7
  6
CONTINUOUS
370
-3
390
F
  0
LAYER
  5
205
100
AcDbSymbolTableRecord
100
AcDbLayerTableRecord
  2
PATTERN_DATUMS
 70
0
 62
7
  6
CONTINUOUS
370
-3
390
F
  0
ENDTAB
  0
TABLE
  2
STYLE
  5
3
100
AcDbSymbolTable
 70
1
  0
STYLE
  5
11
100
AcDbSymbolTableRecord
100
AcDbTextStyleTableRecord
  2
STANDARD
 70
0
 40
0.0
 41
0.8
 50
0.0
 71
0
 42
0.2
  3
txt
  4

  0
STYLE
  5
206
100
AcDbSymbolTableRecord
100
AcDbTextStyleTableRecord
  2
TEXTSTYLE_1
 70
0
 40
0.0
 41
0.8
 50
0.0
 71
0
 42
0.2
  3
gdt
  4

  0
ENDTAB
  0
TABLE
  2
VIEW
  5
6
100
AcDbSymbolTable
 70
0
  0
ENDTAB
  0
TABLE
  2
UCS
  5
7
100
AcDbSymbolTable
 70
0
  0
ENDTAB
  0
TABLE
  2
APPID
  5
9
100
AcDbSymbolTable
 70
1
  0
APPID
  5
207
100
AcDbSymbolTableRecord
100
AcDbRegAppTableRecord
  2
ACAD
 70
0
  0
ENDTAB
  0
TABLE
  2
BLOCK_RECORD
  5
1
100
AcDbSymbolTable
 70
0
  0
BLOCK_RECORD
  5
208
100
AcDbSymbolTableRecord
100
AcDbBlockTableRecord
  2
*Model_Space
  0
BLOCK_RECORD
  5
209
100
AcDbSymbolTableRecord
100
AcDbBlockTableRecord
  2
*Paper_Space
  0
ENDTAB
  0
TABLE
  2
DIMSTYLE
  5
A
100
AcDbSymbolTable
 70
1
100
AcDbDimStyleTable
 71
0
  0
DIMSTYLE
105
20A
100
AcDbSymbolTableRecord
100
AcDbDimStyleTableRecord
  2
STANDARD
 70
0
  3

  4

 40
1.0
 41
0.1
 42
0.0625
 43
0.38
 44
0.125
 45
0.0
 46
0.0
 47
0.001
 48
0.001
140
0.08
141
0.09
142
0.0
143
25.4
144
1.0
145
0.0
146
1.0
147
0.09
 71
1.0
 72
0.0
 73
1
 74
1
 75
0
 76
0
 77
0
 78
4
170
0
171
2
172
0
173
0
174
0
175
0
176
0
177
0
178
0
270
2
271
3
272
3
273
2
274
2
275
0
280
0
281
0
282
0
283
1
284
4
285
0
286
0
287
3
288
0
340
11
278
46
  0
ENDTAB
  0
ENDSEC
  0
SECTION
  2
BLOCKS
  0
BLOCK
  5
20
100
AcDbEntity
  8
0
100
AcDbBlockBegin
  2
*Model_Space
 70
0
 10
0.0
 20
0.0
 30
0.0
  3
*Model_Space
  1

  0
ENDBLK
  5
21
100
AcDbEntity
  8
0
100
AcDbBlockEnd
  0
BLOCK
  5
1C
100
AcDbEntity
  8
0
100
AcDbBlockBegin
  2
*Paper_Space
 70
0
 10
0.0
 20
0.0
 30
0.0
  3
*Paper_Space
  1

  0
ENDBLK
  5
1D
100
AcDbEntity
  8
0
100
AcDbBlockEnd
  0
ENDSEC
  0
SECTION
  2
ENTITIES
  0
MTEXT
  5
20B
100
AcDbEntity
  8
0
100
AcDbMText
 62
2
  6
CONTINUOUS
  7
STANDARD
 71
3
 72
1
 10
6.4615190757
 20
-2.8362235135
 30
0.0
 11
1.0
 21
0.0
 31
0.0
 44
0.9
  1
SCALE  1.000
 40
0.08
 41
0.768
  0
LINE
  5
20C
100
AcDbEntity
  8
0
100
AcDbLine
 62
7
  6
CONTINUOUS
 10
0.0
 20
0.0
 11
0.0
 21
8.5
  0
LINE
  5
20D
100
AcDbEntity
  8
0
100
AcDbLine
 62
7
  6
CONTINUOUS
 10
0.0
 20
0.0
 11
11.0
 21
0.0
  0
LINE
  5
20E
100
AcDbEntity
  8
0
100
AcDbLine
 62
7
  6
CONTINUOUS
 10
0.0
 20
8.5
 11
11.0
 21
8.5
  0
LINE
  5
20F
100
AcDbEntity
  8
0
100
AcDbLine
 62
7
  6
CONTINUOUS
 10
11.0
 20
0.0
 11
11.0
 21
8.5
  0
LINE
  5
210
100
AcDbEntity
  8
0
100
AcDbLine
 62
7
  6
CONTINUOUS
 10
5.237607687
 20
1.9576368394
 11
5.2671880859
 21
1.9576368394
  0
LINE
  5
211
100
AcDbEntity
  8
0
100
AcDbLine
 62
7
  6
CONTINUOUS
 10
5.5138312772
 20
1.9576368394
 11
5.5434116761
 21
1.9576368394
  0
LINE
  5
212
100
AcDbEntity
  8
0
100
AcDbLine
 62
7
  6
CONTINUOUS
 10
3.9506230827
 20
6.1312765649
 11
4.1653626271
 21
6.268028058
  0
LINE
  5
213
100
AcDbEntity
  8
0
100
AcDbLine
 62
7
  6
CONTINUOUS
 10
3.9667376547
 20
6.1059720086
 11
4.1653097611
 21
6.2324276743
  0
LINE
  5
214
100
AcDbEntity
  8
0
100
AcDbLine
 62
7
  6
CONTINUOUS
 10
4.411147941
 20
6.4548135704
 11
4.1699268675
 21
6.3160233675
  0
LINE
  5
215
100
AcDbEntity
  8
0
100
AcDbLine
 62
7
  6
CONTINUOUS
 10
3.6821328183
 20
2.9830131027
 11
3.545575178
 21
3.197448242
  0
LINE
  5
216
100
AcDbEntity
  8
0
100
AcDbLine
 62
7
  6
CONTINUOUS
 10
3.7074373746
 20
2.9991276747
 11
3.5811757772
 21
3.1973950376
  0
LINE
  5
217
100
AcDbEntity
  8
0
100
AcDbLine
 62
7
  6
CONTINUOUS
 10
3.3585098822
 20
3.443234505
 11
3.4973000849
 21
3.2020134318
  0
LINE
  5
218
100
AcDbEntity
  8
0
100
AcDbLine
 62
7
  6
CONTINUOUS
 10
4.3812505114
 20
5.8994785209
 11
4.2428289898
 21
5.7864115918
  0
LINE
  5
219
100
AcDbEntity
  8
0
100
AcDbLine
 62
7
  6
CONTINUOUS
 10
4.4094060921
 20
5.8837406887
 11
4.2618073112
 21
5.7631774937
  0
LINE
  5
21A
100
AcDbEntity
  8
0
100
AcDbLine
 62
7
  6
CONTINUOUS
 10
4.419281354
 20
5.8826386208
 11
4.6605024275
 21
6.0214288236
  0
LINE
  5
21B
100
AcDbEntity
  8
0
100
AcDbLine
 62
7
  6
CONTINUOUS
 10
5.237607687
 20
2.8563398128
 11
5.3020462988
 21
2.8563398128
  0
LINE
  5
21C
100
AcDbEntity
  8
0
100
AcDbLine
 62
7
  6
CONTINUOUS
 10
5.4789730643
 20
2.8563398128
 11
5.5434116761
 21
2.8563398128
  0
LINE
  5
21D
100
AcDbEntity
  8
0
100
AcDbLine
 62
7
  6
CONTINUOUS
 10
3.9139835195
 20
3.4135760662
 11
4.0269977914
 21
3.2752190099
  0
LINE
  5
21E
100
AcDbEntity
  8
0
100
AcDbLine
 62
7
  6
CONTINUOUS
 10
3.9297829796
 20
3.4416561993
 11
4.0502318895
 21
3.2941973313
  0
LINE
  5
21F
100
AcDbEntity
  8
0
100
AcDbLine
 62
7
  6
CONTINUOUS
 10
3.9306848325
 20
3.4513679194
 11
3.7918946297
 21
3.6925889926
  0
LINE
  5
220
100
AcDbEntity
  8
0
100
AcDbLine
 62
7
  6
CONTINUOUS
 10
3.9506230827
 20
6.1312765649
 11
3.9532338999
 21
6.1013903869
  0
LINE
  5
221
100
AcDbEntity
  8
0
100
AcDbLine
 62
7
  6
CONTINUOUS
 10
4.165422273
 20
6.3082479613
 11
4.1650075774
 21
6.0299492828
  0
LINE
  5
222
100
AcDbEntity
  8
0
100
AcDbLine
 62
7
  6
CONTINUOUS
 10
3.4980317484
 20
3.6930268799
 11
3.3585232724
 21
3.4522205016
  0
LINE
  5
223
100
AcDbEntity
  8
0
100
AcDbLine
 62
7
  6
CONTINUOUS
 10
3.6821328183
 20
2.9830131027
 11
3.7120189963
 21
2.98562392
  0
LINE
  5
224
100
AcDbEntity
  8
0
100
AcDbLine
 62
7
  6
CONTINUOUS
 10
3.5050754912
 20
3.1975088373
 11
3.7833741699
 21
3.1970941424
  0
LINE
  5
225
100
AcDbEntity
  8
0
100
AcDbLine
 62
7
  6
CONTINUOUS
 10
6.1202965737
 20
2.5301183162
 11
6.3611029519
 21
2.39060984
  0
LINE
  5
226
100
AcDbEntity
  8
0
100
AcDbLine
 62
7
  6
CONTINUOUS
 10
4.0502318895
 20
3.2941973313
 11
4.0426842632
 21
3.2651622949
  0
LINE
  5
227
100
AcDbEntity
  8
0
100
AcDbLine
 62
7
  6
CONTINUOUS
 10
5.2828075679
 20
5.8809272236
 11
5.3036436041
 21
5.9019238803
  0
LINE
  5
228
100
AcDbEntity
  8
0
100
AcDbLine
 62
7
  6
CONTINUOUS
 10
6.5192120519
 20
3.0826219096
 11
6.5482470882
 21
3.0750742833
  0
LINE
  5
229
100
AcDbEntity
  8
0
100
AcDbLine
 62
7
  6
CONTINUOUS
 10
5.2828075679
 20
2.9648721797
 11
5.3036436038
 21
2.9438755227
  0
LINE
  5
22A
100
AcDbEntity
  8
0
100
AcDbLine
 62
7
  6
CONTINUOUS
 10
4.665007022
 20
6.0292042299
 11
4.6654217176
 21
6.3075029084
  0
LINE
  5
22B
100
AcDbEntity
  8
0
100
AcDbLine
 62
7
  6
CONTINUOUS
 10
3.7911629663
 20
3.2015755445
 11
3.9306714423
 21
3.4423819228
  0
LINE
  5
22C
100
AcDbEntity
  8
0
100
AcDbLine
 62
7
  6
CONTINUOUS
 10
3.7841192235
 20
3.697093587
 11
3.5058205448
 21
3.697508282
  0
LINE
  5
22D
100
AcDbEntity
  8
0
100
AcDbLine
 62
7
  6
CONTINUOUS
 10
6.6117479097
 20
2.8232495344
 11
6.3709415315
 21
2.9627580105
  0
LINE
  5
22E
100
AcDbEntity
  8
0
100
AcDbLine
 62
7
  6
CONTINUOUS
 10
7.0988865448
 20
5.8627863005
 11
7.0735819885
 21
5.8466717285
  0
LINE
  5
22F
100
AcDbEntity
  8
0
100
AcDbLine
 62
7
  6
CONTINUOUS
 10
3.9506230827
 20
6.1312765649
 11
3.9667376547
 21
6.1059720086
  0
LINE
  5
230
100
AcDbEntity
  8
0
100
AcDbLine
 62
7
  6
CONTINUOUS
 10
5.5434116761
 20
1.9576368394
 11
5.5452687854
 21
1.9276943755
  0
LINE
  5
231
100
AcDbEntity
  8
0
100
AcDbLine
 62
7
  6
CONTINUOUS
 10
5.237607687
 20
6.8881625639
 11
5.2357505777
 21
6.9181050278
  0
LINE
  5
232
100
AcDbEntity
  8
0
100
AcDbLine
 62
7
  6
CONTINUOUS
 10
5.3855096816
 20
6.8928946409
 11
5.385448953
 21
6.9228945794
  0
LINE
  5
233
100
AcDbEntity
  8
0
100
AcDbLine
 62
7
  6
CONTINUOUS
 10
5.3955096816
 20
1.9529047624
 11
5.3955704101
 21
1.9229048238
  0
LINE
  5
234
100
AcDbEntity
  8
0
100
AcDbLine
 62
7
  6
CONTINUOUS
 10
5.237607687
 20
1.9576368394
 11
5.237607687
 21
2.8563398128
  0
LINE
  5
235
100
AcDbEntity
  8
0
100
AcDbLine
 62
7
  6
CONTINUOUS
 10
5.237607687
 20
5.9894595904
 11
5.237607687
 21
6.8881625639
  0
LINE
  5
236
100
AcDbEntity
  8
0
100
AcDbLine
 62
7
  6
CONTINUOUS
 10
5.2671880859
 20
1.9576368394
 11
5.2671880859
 21
2.8563398128
  0
LINE
  5
237
100
AcDbEntity
  8
0
100
AcDbLine
 62
7
  6
CONTINUOUS
 10
5.2671880859
 20
5.9894595904
 11
5.2671880859
 21
6.8881625639
  0
LINE
  5
238
100
AcDbEntity
  8
0
100
AcDbLine
 62
7
  6
CONTINUOUS
 10
5.3855096816
 20
1.9529047624
 11
5.3855096816
 21
2.7830386979
  0
LINE
  5
239
100
AcDbEntity
  8
0
100
AcDbLine
 62
7
  6
CONTINUOUS
 10
5.3855096816
 20
6.0627607054
 11
5.3855096816
 21
6.8928946409
  0
LINE
  5
23A
100
AcDbEntity
  8
0
100
AcDbLine
 62
7
  6
CONTINUOUS
 10
5.3955096816
 20
6.8928946409
 11
5.3955096816
 21
6.0627607054
  0
LINE
  5
23B
100
AcDbEntity
  8
0
100
AcDbLine
 62
7
  6
CONTINUOUS
 10
5.3955096816
 20
2.7830386979
 11
5.3955096816
 21
1.9529047624
  0
LINE
  5
23C
100
AcDbEntity
  8
0
100
AcDbLine
 62
7
  6
CONTINUOUS
 10
5.3855096816
 20
1.9529047624
 11
5.3854489528
 21
1.9229048238
  0
LINE
  5
23D
100
AcDbEntity
  8
0
100
AcDbLine
 62
7
  6
CONTINUOUS
 10
5.3955096816
 20
6.8928946409
 11
5.3955704103
 21
6.9228945794
  0
LINE
  5
23E
100
AcDbEntity
  8
0
100
AcDbLine
 62
7
  6
CONTINUOUS
 10
5.237607687
 20
1.9576368394
 11
5.2357505777
 21
1.9276943755
  0
LINE
  5
23F
100
AcDbEntity
  8
0
100
AcDbLine
 62
7
  6
CONTINUOUS
 10
5.5434116761
 20
6.8881625639
 11
5.5452687854
 21
6.9181050278
  0
LINE
  5
240
100
AcDbEntity
  8
0
100
AcDbLine
 62
7
  6
CONTINUOUS
 10
6.7307874736
 20
5.5516020719
 11
6.7540215717
 21
5.5705803934
  0
LINE
  5
241
100
AcDbEntity
  8
0
100
AcDbLine
 62
7
  6
CONTINUOUS
 10
4.0502318895
 20
3.2941973313
 11
4.0269977914
 21
3.2752190099
  0
LINE
  5
242
100
AcDbEntity
  8
0
100
AcDbLine
 62
7
  6
CONTINUOUS
 10
4.2618073112
 20
5.7631774937
 11
4.2428289898
 21
5.7864115918
  0
LINE
  5
243
100
AcDbEntity
  8
0
100
AcDbLine
 62
7
  6
CONTINUOUS
 10
6.5192120519
 20
3.0826219096
 11
6.5381903733
 21
3.0593878115
  0
LINE
  5
244
100
AcDbEntity
  8
0
100
AcDbLine
 62
7
  6
CONTINUOUS
 10
5.5138312772
 20
6.8881625639
 11
5.5138312772
 21
5.9894595904
  0
LINE
  5
245
100
AcDbEntity
  8
0
100
AcDbLine
 62
7
  6
CONTINUOUS
 10
5.5138312772
 20
2.8563398128
 11
5.5138312772
 21
1.9576368394
  0
LINE
  5
246
100
AcDbEntity
  8
0
100
AcDbLine
 62
7
  6
CONTINUOUS
 10
5.5434116761
 20
6.8881625639
 11
5.5434116761
 21
5.9894595904
  0
LINE
  5
247
100
AcDbEntity
  8
0
100
AcDbLine
 62
7
  6
CONTINUOUS
 10
5.5434116761
 20
2.8563398128
 11
5.5434116761
 21
1.9576368394
  0
LINE
  5
248
100
AcDbEntity
  8
0
100
AcDbLine
 62
7
  6
CONTINUOUS
 10
3.6821328183
 20
2.9830131027
 11
3.7074373746
 21
2.9991276747
  0
LINE
  5
249
100
AcDbEntity
  8
0
100
AcDbLine
 62
7
  6
CONTINUOUS
 10
6.8303962805
 20
2.7145228384
 11
6.8142817084
 21
2.7398273947
  0
LINE
  5
24A
100
AcDbEntity
  8
0
100
AcDbLine
 62
7
  6
CONTINUOUS
 10
6.1162298669
 20
2.8162057915
 11
6.1158151716
 21
2.5379071125
  0
LINE
  5
24B
100
AcDbEntity
  8
0
100
AcDbLine
 62
7
  6
CONTINUOUS
 10
6.9900739229
 20
5.6438344764
 11
6.8505654465
 21
5.4030280986
  0
LINE
  5
24C
100
AcDbEntity
  8
0
100
AcDbLine
 62
7
  6
CONTINUOUS
 10
6.9971176654
 20
5.1483164343
 11
7.2754163444
 21
5.1479017389
  0
LINE
  5
24D
100
AcDbEntity
  8
0
100
AcDbLine
 62
7
  6
CONTINUOUS
 10
4.1694889795
 20
6.0221604865
 11
4.4102953574
 21
5.8826520109
  0
LINE
  5
24E
100
AcDbEntity
  8
0
100
AcDbLine
 62
7
  6
CONTINUOUS
 10
6.6158146164
 20
2.537162059
 11
6.6162293118
 21
2.815460738
  0
LINE
  5
24F
100
AcDbEntity
  8
0
100
AcDbLine
 62
7
  6
CONTINUOUS
 10
6.7307874736
 20
5.551602072
 11
6.7383350999
 21
5.5806371083
  0
LINE
  5
250
100
AcDbEntity
  8
0
100
AcDbLine
 62
7
  6
CONTINUOUS
 10
5.4982117952
 20
2.9648721797
 11
5.4773757591
 21
2.9438755228
  0
LINE
  5
251
100
AcDbEntity
  8
0
100
AcDbLine
 62
7
  6
CONTINUOUS
 10
7.2761613983
 20
5.647901183
 11
6.9978627192
 21
5.6483158785
  0
LINE
  5
252
100
AcDbEntity
  8
0
100
AcDbLine
 62
7
  6
CONTINUOUS
 10
4.2618073112
 20
5.7631774937
 11
4.2327722749
 21
5.77072512
  0
LINE
  5
253
100
AcDbEntity
  8
0
100
AcDbLine
 62
7
  6
CONTINUOUS
 10
5.4982117952
 20
5.8809272236
 11
5.4773757591
 21
5.9019238804
  0
LINE
  5
254
100
AcDbEntity
  8
0
100
AcDbLine
 62
7
  6
CONTINUOUS
 10
6.8303962805
 20
2.7145228384
 11
6.8277854632
 21
2.7444090164
  0
LINE
  5
255
100
AcDbEntity
  8
0
100
AcDbLine
 62
7
  6
CONTINUOUS
 10
7.2832051408
 20
5.152383141
 11
7.4227136171
 21
5.3931895188
  0
LINE
  5
256
100
AcDbEntity
  8
0
100
AcDbLine
 62
7
  6
CONTINUOUS
 10
7.0988865448
 20
5.8627863005
 11
7.0690003668
 21
5.8601754833
  0
LINE
  5
257
100
AcDbEntity
  8
0
100
AcDbLine
 62
7
  6
CONTINUOUS
 10
5.237607687
 20
5.9894595904
 11
5.3020462988
 21
5.9894595904
  0
LINE
  5
258
100
AcDbEntity
  8
0
100
AcDbLine
 62
7
  6
CONTINUOUS
 10
5.4789730643
 20
5.9894595904
 11
5.5434116761
 21
5.9894595904
  0
LINE
  5
259
100
AcDbEntity
  8
0
100
AcDbLine
 62
7
  6
CONTINUOUS
 10
4.6609403155
 20
6.3152917047
 11
4.4201339375
 21
6.4548001803
  0
LINE
  5
25A
100
AcDbEntity
  8
0
100
AcDbLine
 62
7
  6
CONTINUOUS
 10
6.3715529708
 20
2.9620094595
 11
6.5192120519
 21
3.0826219096
  0
LINE
  5
25B
100
AcDbEntity
  8
0
100
AcDbLine
 62
7
  6
CONTINUOUS
 10
6.399579939
 20
2.9461665727
 11
6.5381903733
 21
3.0593878115
  0
LINE
  5
25C
100
AcDbEntity
  8
0
100
AcDbLine
 62
7
  6
CONTINUOUS
 10
6.3619555349
 20
2.9627714006
 11
6.1207344614
 21
2.8239811977
  0
LINE
  5
25D
100
AcDbEntity
  8
0
100
AcDbLine
 62
7
  6
CONTINUOUS
 10
6.8515142095
 20
5.4038030771
 11
6.7307874736
 21
5.5516020719
  0
LINE
  5
25E
100
AcDbEntity
  8
0
100
AcDbLine
 62
7
  6
CONTINUOUS
 10
6.8672954713
 20
5.4319054894
 11
6.7540215717
 21
5.5705803934
  0
LINE
  5
25F
100
AcDbEntity
  8
0
100
AcDbLine
 62
7
  6
CONTINUOUS
 10
6.8505520564
 20
5.394042102
 11
6.9893422591
 21
5.1528210288
  0
LINE
  5
260
100
AcDbEntity
  8
0
100
AcDbLine
 62
7
  6
CONTINUOUS
 10
6.8142817084
 20
2.7398273947
 11
6.6159285419
 21
2.6135111553
  0
LINE
  5
261
100
AcDbEntity
  8
0
100
AcDbLine
 62
7
  6
CONTINUOUS
 10
6.8303962805
 20
2.7145228384
 11
6.6158754327
 21
2.5779106168
  0
LINE
  5
262
100
AcDbEntity
  8
0
100
AcDbLine
 62
7
  6
CONTINUOUS
 10
6.3700889485
 20
2.3905964499
 11
6.611310022
 21
2.5293866528
  0
LINE
  5
263
100
AcDbEntity
  8
0
100
AcDbLine
 62
7
  6
CONTINUOUS
 10
5.5434116761
 20
6.8881625639
 11
5.5138312772
 21
6.8881625639
  0
LINE
  5
264
100
AcDbEntity
  8
0
100
AcDbLine
 62
7
  6
CONTINUOUS
 10
5.2671880859
 20
6.8881625639
 11
5.237607687
 21
6.8881625639
  0
LINE
  5
265
100
AcDbEntity
  8
0
100
AcDbLine
 62
7
  6
CONTINUOUS
 10
7.0735819885
 20
5.8466717285
 11
7.2000922956
 21
5.6480138192
  0
LINE
  5
266
100
AcDbEntity
  8
0
100
AcDbLine
 62
7
  6
CONTINUOUS
 10
7.0988865448
 20
5.8627863005
 11
7.235692619
 21
5.6479610479
  0
LINE
  5
267
100
AcDbEntity
  8
0
100
AcDbLine
 62
7
  6
CONTINUOUS
 10
7.4227270072
 20
5.4021755153
 11
7.2839368045
 21
5.6433965886
  0
ARC
  5
268
100
AcDbEntity
  8
0
100
AcDbCircle
 62
7
  6
CONTINUOUS
 10
5.3895502074
 20
3.535538038
 40
1.5826384887
100
AcDbArc
 50
265.5657361913
 51
269.8537219101
  0
ARC
  5
269
100
AcDbEntity
  8
0
100
AcDbCircle
 62
7
  6
CONTINUOUS
 10
5.3905152325
 20
2.6240807891
 40
0.3620389679
100
AcDbArc
 50
87.7012442324
 51
89.9987603181
  0
ARC
  5
26A
100
AcDbEntity
  8
0
100
AcDbCircle
 62
7
  6
CONTINUOUS
 10
5.3903507909
 20
2.6311285496
 40
0.3549912492
100
AcDbArc
 50
89.9721947408
 51
93.553017548
  0
ARC
  5
26B
100
AcDbEntity
  8
0
100
AcDbCircle
 62
7
  6
CONTINUOUS
 10
3.9760135683
 20
3.0086861393
 40
0.295
100
AcDbArc
 50
184.9926093939
 51
75.4285260872
  0
ARC
  5
26C
100
AcDbEntity
  8
0
100
AcDbCircle
 62
7
  6
CONTINUOUS
 10
3.6445973573
 20
3.4473012122
 40
0.2861163779
100
AcDbArc
 50
119.0148469277
 51
120.8143993199
  0
ARC
  5
26D
100
AcDbEntity
  8
0
100
AcDbCircle
 62
7
  6
CONTINUOUS
 10
3.6445973573
 20
3.4473012122
 40
0.2861163779
100
AcDbArc
 50
59.0148469569
 51
60.8143993448
  0
ARC
  5
26E
100
AcDbEntity
  8
0
100
AcDbCircle
 62
7
  6
CONTINUOUS
 10
3.6445973573
 20
3.4473012122
 40
0.2861163779
100
AcDbArc
 50
359.0148470007
 51
0.8143993922
  0
ARC
  5
26F
100
AcDbEntity
  8
0
100
AcDbCircle
 62
7
  6
CONTINUOUS
 10
3.6445973573
 20
3.4473012122
 40
0.2861163779
100
AcDbArc
 50
299.0148469277
 51
300.8143993199
  0
ARC
  5
270
100
AcDbEntity
  8
0
100
AcDbCircle
 62
7
  6
CONTINUOUS
 10
3.6445973573
 20
3.4473012122
 40
0.2861163779
100
AcDbArc
 50
239.0148469569
 51
240.8143993448
  0
ARC
  5
271
100
AcDbEntity
  8
0
100
AcDbCircle
 62
7
  6
CONTINUOUS
 10
3.6445973573
 20
3.4473012122
 40
0.2861163779
100
AcDbArc
 50
179.0148470007
 51
180.8143993922
  0
ARC
  5
272
100
AcDbEntity
  8
0
100
AcDbCircle
 62
7
  6
CONTINUOUS
 10
3.9760135683
 20
3.0086861393
 40
0.265
100
AcDbArc
 50
184.9926093939
 51
75.4285260872
  0
CIRCLE
  5
273
100
AcDbEntity
  8
0
100
AcDbCircle
 62
7
  6
CONTINUOUS
 10
3.6445983771
 20
3.447300518
 40
0.2375
  0
ARC
  5
274
100
AcDbEntity
  8
0
100
AcDbCircle
 62
7
  6
CONTINUOUS
 10
5.3905096816
 20
2.8563398128
 40
0.1529019946
100
AcDbArc
 50
0.0
 51
45.2200316469
  0
ARC
  5
275
100
AcDbEntity
  8
0
100
AcDbCircle
 62
7
  6
CONTINUOUS
 10
5.3905096816
 20
2.8563398128
 40
0.1529019946
100
AcDbArc
 50
134.7800129867
 51
180.0
  0
ARC
  5
276
100
AcDbEntity
  8
0
100
AcDbCircle
 62
7
  6
CONTINUOUS
 10
5.3905096816
 20
2.8563398128
 40
0.125
100
AcDbArc
 50
81.9212118539
 51
98.0787881461
  0
ARC
  5
277
100
AcDbEntity
  8
0
100
AcDbCircle
 62
7
  6
CONTINUOUS
 10
5.3905096816
 20
2.8563398128
 40
0.1233215957
100
AcDbArc
 50
134.7800083991
 51
180.0
  0
ARC
  5
278
100
AcDbEntity
  8
0
100
AcDbCircle
 62
7
  6
CONTINUOUS
 10
5.3905096816
 20
2.8563398128
 40
0.1233215957
100
AcDbArc
 50
0.0
 51
45.2199916009
  0
CIRCLE
  5
279
100
AcDbEntity
  8
0
100
AcDbCircle
 62
7
  6
CONTINUOUS
 10
5.3905096816
 20
2.8728997016
 40
0.09
  0
ARC
  5
27A
100
AcDbEntity
  8
0
100
AcDbCircle
 62
7
  6
CONTINUOUS
 10
3.6821328183
 20
2.9830131027
 40
0.03
100
AcDbArc
 50
4.9926093939
 51
32.49
  0
ARC
  5
27B
100
AcDbEntity
  8
0
100
AcDbCircle
 62
7
  6
CONTINUOUS
 10
4.0502318895
 20
3.2941973313
 40
0.03
100
AcDbArc
 50
219.243
 51
255.4285260872
  0
CIRCLE
  5
27C
100
AcDbEntity
  8
0
100
AcDbCircle
 62
7
  6
CONTINUOUS
 10
3.8405096816
 20
4.4228997016
 40
0.09
  0
ARC
  5
27D
100
AcDbEntity
  8
0
100
AcDbCircle
 62
7
  6
CONTINUOUS
 10
3.9762961192
 20
5.8373958149
 40
0.295
100
AcDbArc
 50
94.9926093939
 51
345.4285260872
  0
ARC
  5
27E
100
AcDbEntity
  8
0
100
AcDbCircle
 62
7
  6
CONTINUOUS
 10
4.4152146475
 20
6.1687260956
 40
0.2861163779
100
AcDbArc
 50
29.0148469283
 51
30.814399314
  0
ARC
  5
27F
100
AcDbEntity
  8
0
100
AcDbCircle
 62
7
  6
CONTINUOUS
 10
4.4152146475
 20
6.1687260956
 40
0.2861163779
100
AcDbArc
 50
329.0148469937
 51
330.8143993865
  0
ARC
  5
280
100
AcDbEntity
  8
0
100
AcDbCircle
 62
7
  6
CONTINUOUS
 10
4.4152146475
 20
6.1687260956
 40
0.2861163779
100
AcDbArc
 50
269.0148468615
 51
270.8143992545
  0
ARC
  5
281
100
AcDbEntity
  8
0
100
AcDbCircle
 62
7
  6
CONTINUOUS
 10
4.4152146475
 20
6.1687260956
 40
0.2861163779
100
AcDbArc
 50
209.0148469283
 51
210.814399314
  0
ARC
  5
282
100
AcDbEntity
  8
0
100
AcDbCircle
 62
7
  6
CONTINUOUS
 10
4.4152146475
 20
6.1687260956
 40
0.2861163779
100
AcDbArc
 50
149.0148469937
 51
150.8143993865
  0
ARC
  5
283
100
AcDbEntity
  8
0
100
AcDbCircle
 62
7
  6
CONTINUOUS
 10
4.4152146475
 20
6.1687260956
 40
0.2861163779
100
AcDbArc
 50
89.0148468615
 51
90.8143992545
  0
ARC
  5
284
100
AcDbEntity
  8
0
100
AcDbCircle
 62
7
  6
CONTINUOUS
 10
3.9762961192
 20
5.8373958149
 40
0.265
100
AcDbArc
 50
94.9926093939
 51
345.4285260872
  0
CIRCLE
  5
285
100
AcDbEntity
  8
0
100
AcDbCircle
 62
7
  6
CONTINUOUS
 10
4.4152154546
 20
6.1687246507
 40
0.2375
  0
ARC
  5
286
100
AcDbEntity
  8
0
100
AcDbCircle
 62
7
  6
CONTINUOUS
 10
3.9506230827
 20
6.1312765649
 40
0.03
100
AcDbArc
 50
274.9926093939
 51
302.49
  0
ARC
  5
287
100
AcDbEntity
  8
0
100
AcDbCircle
 62
7
  6
CONTINUOUS
 10
4.2618073112
 20
5.7631774937
 40
0.03
100
AcDbArc
 50
129.243
 51
165.4285260872
  0
ARC
  5
288
100
AcDbEntity
  8
0
100
AcDbCircle
 62
7
  6
CONTINUOUS
 10
5.3706295583
 20
4.4369656731
 40
1.1613466474
100
AcDbArc
 50
64.7030635694
 51
65.1457510419
  0
CIRCLE
  5
289
100
AcDbEntity
  8
0
100
AcDbCircle
 62
7
  6
CONTINUOUS
 10
5.3906072757
 20
4.4227250033
 40
3.25
  0
CIRCLE
  5
28A
100
AcDbEntity
  8
0
100
AcDbCircle
 62
7
  6
CONTINUOUS
 10
5.3906079878
 20
4.4227237286
 40
3.22
  0
CIRCLE
  5
28B
100
AcDbEntity
  8
0
100
AcDbCircle
 62
7
  6
CONTINUOUS
 10
5.3905096816
 20
4.4228997016
 40
2.5
  0
ARC
  5
28C
100
AcDbEntity
  8
0
100
AcDbCircle
 62
7
  6
CONTINUOUS
 10
5.3905096816
 20
4.4228997016
 40
2.47
100
AcDbArc
 50
273.5490865814
 51
86.4509134186
  0
ARC
  5
28D
100
AcDbEntity
  8
0
100
AcDbCircle
 62
7
  6
CONTINUOUS
 10
5.3905096816
 20
4.4228997016
 40
2.47
100
AcDbArc
 50
269.8840165614
 51
270.1159834386
  0
ARC
  5
28E
100
AcDbEntity
  8
0
100
AcDbCircle
 62
7
  6
CONTINUOUS
 10
5.3905096816
 20
4.4228997016
 40
2.47
100
AcDbArc
 50
93.5490865814
 51
266.4509134186
  0
ARC
  5
28F
100
AcDbEntity
  8
0
100
AcDbCircle
 62
7
  6
CONTINUOUS
 10
5.3905096816
 20
4.4228997016
 40
2.47
100
AcDbArc
 50
89.8840165614
 51
90.1159834386
  0
ARC
  5
290
100
AcDbEntity
  8
0
100
AcDbCircle
 62
7
  6
CONTINUOUS
 10
5.3906072757
 20
4.4227250033
 40
1.6325
100
AcDbArc
 50
268.6925587052
 51
271.3126658602
  0
ARC
  5
291
100
AcDbEntity
  8
0
100
AcDbCircle
 62
7
  6
CONTINUOUS
 10
5.3906072757
 20
4.4227250033
 40
1.6325
100
AcDbArc
 50
178.6495744318
 51
181.3378045844
  0
ARC
  5
292
100
AcDbEntity
  8
0
100
AcDbCircle
 62
7
  6
CONTINUOUS
 10
5.3906072757
 20
4.4227250033
 40
1.6325
100
AcDbArc
 50
358.6767870878
 51
1.3365551721
  0
ARC
  5
293
100
AcDbEntity
  8
0
100
AcDbCircle
 62
7
  6
CONTINUOUS
 10
5.3906072757
 20
4.4227250033
 40
1.6325
100
AcDbArc
 50
88.6704574728
 51
91.3471226122
  0
ARC
  5
294
100
AcDbEntity
  8
0
100
AcDbCircle
 62
7
  6
CONTINUOUS
 10
5.3905800976
 20
4.4227736534
 40
1.6025
100
AcDbArc
 50
87.3301346299
 51
92.6777620771
  0
ARC
  5
295
100
AcDbEntity
  8
0
100
AcDbCircle
 62
7
  6
CONTINUOUS
 10
5.3905800976
 20
4.4227736534
 40
1.6025
100
AcDbArc
 50
357.3434741602
 51
2.6653704556
  0
ARC
  5
296
100
AcDbEntity
  8
0
100
AcDbCircle
 62
7
  6
CONTINUOUS
 10
5.3905800976
 20
4.4227736534
 40
1.6025
100
AcDbArc
 50
267.3315018403
 51
272.6663291929
  0
ARC
  5
297
100
AcDbEntity
  8
0
100
AcDbCircle
 62
7
  6
CONTINUOUS
 10
5.3905800976
 20
4.4227736534
 40
1.6025
100
AcDbArc
 50
177.3309690579
 51
182.6595255915
  0
ARC
  5
298
100
AcDbEntity
  8
0
100
AcDbCircle
 62
7
  6
CONTINUOUS
 10
5.3905096816
 20
4.4228997016
 40
1.462
100
AcDbArc
 50
274.224670524
 51
359.2706781079
  0
ARC
  5
299
100
AcDbEntity
  8
0
100
AcDbCircle
 62
7
  6
CONTINUOUS
 10
5.3905096816
 20
4.4228997016
 40
1.462
100
AcDbArc
 50
0.723982775
 51
85.7753298052
  0
ARC
  5
29A
100
AcDbEntity
  8
0
100
AcDbCircle
 62
7
  6
CONTINUOUS
 10
5.3905096816
 20
4.4228997016
 40
1.462
100
AcDbArc
 50
94.2246728184
 51
179.2706781079
  0
ARC
  5
29B
100
AcDbEntity
  8
0
100
AcDbCircle
 62
7
  6
CONTINUOUS
 10
5.3905096816
 20
4.4228997016
 40
1.462
100
AcDbArc
 50
180.7239828943
 51
265.7753268793
  0
CIRCLE
  5
29C
100
AcDbEntity
  8
0
100
AcDbCircle
 62
7
  6
CONTINUOUS
 10
5.3905096816
 20
4.4228997016
 40
1.432
  0
CIRCLE
  5
29D
100
AcDbEntity
  8
0
100
AcDbCircle
 62
7
  6
CONTINUOUS
 10
5.3905096816
 20
4.4228997016
 40
1.402
  0
ARC
  5
29E
100
AcDbEntity
  8
0
100
AcDbCircle
 62
7
  6
CONTINUOUS
 10
5.3905104376
 20
4.4228958796
 40
1.1660024363
100
AcDbArc
 50
66.3228611256
 51
149.176464444
  0
ARC
  5
29F
100
AcDbEntity
  8
0
100
AcDbCircle
 62
7
  6
CONTINUOUS
 10
5.3866329409
 20
4.4252114121
 40
1.1614863406
100
AcDbArc
 50
148.647168354
 51
149.1765458314
  0
CIRCLE
  5
2A0
100
AcDbEntity
  8
0
100
AcDbCircle
 62
7
  6
CONTINUOUS
 10
5.3905096816
 20
4.4228997016
 40
1.12
  0
CIRCLE
  5
2A1
100
AcDbEntity
  8
0
100
AcDbCircle
 62
7
  6
CONTINUOUS
 10
5.3905800976
 20
4.4227736534
 40
0.985
  0
ARC
  5
2A2
100
AcDbEntity
  8
0
100
AcDbCircle
 62
7
  6
CONTINUOUS
 10
5.3895498327
 20
5.3102709932
 40
1.5826288548
100
AcDbArc
 50
90.1462654154
 51
94.4342772338
  0
ARC
  5
2A3
100
AcDbEntity
  8
0
100
AcDbCircle
 62
7
  6
CONTINUOUS
 10
5.3905096816
 20
6.2198344989
 40
0.3601548523
100
AcDbArc
 50
266.4726616825
 51
273.5273383175
  0
ARC
  5
2A4
100
AcDbEntity
  8
0
100
AcDbCircle
 62
7
  6
CONTINUOUS
 10
5.3905096816
 20
5.9894595904
 40
0.1529019946
100
AcDbArc
 50
314.779962695
 51
360.0
  0
ARC
  5
2A5
100
AcDbEntity
  8
0
100
AcDbCircle
 62
7
  6
CONTINUOUS
 10
5.3905096816
 20
5.9894595904
 40
0.1529019946
100
AcDbArc
 50
180.0
 51
225.2199922093
  0
ARC
  5
2A6
100
AcDbEntity
  8
0
100
AcDbCircle
 62
7
  6
CONTINUOUS
 10
5.3905096816
 20
5.9894595904
 40
0.125
100
AcDbArc
 50
261.9259272437
 51
278.0787881461
  0
ARC
  5
2A7
100
AcDbEntity
  8
0
100
AcDbCircle
 62
7
  6
CONTINUOUS
 10
5.3905096816
 20
5.9894595904
 40
0.1233215957
100
AcDbArc
 50
314.7800083991
 51
360.0
  0
ARC
  5
2A8
100
AcDbEntity
  8
0
100
AcDbCircle
 62
7
  6
CONTINUOUS
 10
5.3905096816
 20
5.9894595904
 40
0.1233215957
100
AcDbArc
 50
180.0
 51
225.2199916009
  0
CIRCLE
  5
2A9
100
AcDbEntity
  8
0
100
AcDbCircle
 62
7
  6
CONTINUOUS
 10
5.3905096816
 20
5.9728997016
 40
0.09
  0
ARC
  5
2AA
100
AcDbEntity
  8
0
100
AcDbCircle
 62
7
  6
CONTINUOUS
 10
5.391469532
 20
3.5355284104
 40
1.5826288548
100
AcDbArc
 50
270.1462653587
 51
274.4342771764
  0
ARC
  5
2AB
100
AcDbEntity
  8
0
100
AcDbCircle
 62
7
  6
CONTINUOUS
 10
5.3908492482
 20
2.6342041227
 40
0.351910391
100
AcDbArc
 50
86.4453101771
 51
87.689472658
  0
ARC
  5
2AC
100
AcDbEntity
  8
0
100
AcDbCircle
 62
7
  6
CONTINUOUS
 10
6.8047232439
 20
3.0084035883
 40
0.295
100
AcDbArc
 50
274.9926093939
 51
165.4285260872
  0
ARC
  5
2AD
100
AcDbEntity
  8
0
100
AcDbCircle
 62
7
  6
CONTINUOUS
 10
6.3660222417
 20
2.6766839253
 40
0.2861163779
100
AcDbArc
 50
209.0148469279
 51
210.8143993179
  0
ARC
  5
2AE
100
AcDbEntity
  8
0
100
AcDbCircle
 62
7
  6
CONTINUOUS
 10
6.3660222417
 20
2.6766839253
 40
0.2861163779
100
AcDbArc
 50
149.0148469351
 51
150.8143993259
  0
ARC
  5
2AF
100
AcDbEntity
  8
0
100
AcDbCircle
 62
7
  6
CONTINUOUS
 10
6.3660222417
 20
2.6766839253
 40
0.2861163779
100
AcDbArc
 50
89.0148469205
 51
90.8143993113
  0
ARC
  5
2B0
100
AcDbEntity
  8
0
100
AcDbCircle
 62
7
  6
CONTINUOUS
 10
6.3660222417
 20
2.6766839253
 40
0.2861163779
100
AcDbArc
 50
29.0148469279
 51
30.8143993179
  0
ARC
  5
2B1
100
AcDbEntity
  8
0
100
AcDbCircle
 62
7
  6
CONTINUOUS
 10
6.3660222417
 20
2.6766839253
 40
0.2861163779
100
AcDbArc
 50
329.0148469351
 51
330.8143993259
  0
ARC
  5
2B2
100
AcDbEntity
  8
0
100
AcDbCircle
 62
7
  6
CONTINUOUS
 10
6.3660222417
 20
2.6766839253
 40
0.2861163779
100
AcDbArc
 50
269.0148469205
 51
270.8143993113
  0
ARC
  5
2B3
100
AcDbEntity
  8
0
100
AcDbCircle
 62
7
  6
CONTINUOUS
 10
6.8047232439
 20
3.0084035883
 40
0.265
100
AcDbArc
 50
274.9926093939
 51
165.4285260872
  0
CIRCLE
  5
2B4
100
AcDbEntity
  8
0
100
AcDbCircle
 62
7
  6
CONTINUOUS
 10
6.3660225107
 20
2.6766834436
 40
0.2375
  0
ARC
  5
2B5
100
AcDbEntity
  8
0
100
AcDbCircle
 62
7
  6
CONTINUOUS
 10
6.8303962805
 20
2.7145228384
 40
0.03
100
AcDbArc
 50
94.9926093939
 51
122.49
  0
ARC
  5
2B6
100
AcDbEntity
  8
0
100
AcDbCircle
 62
7
  6
CONTINUOUS
 10
6.5192120519
 20
3.0826219096
 40
0.03
100
AcDbArc
 50
309.243
 51
345.4285260872
  0
ARC
  5
2B7
100
AcDbEntity
  8
0
100
AcDbCircle
 62
7
  6
CONTINUOUS
 10
5.3910527084
 20
4.4242531467
 40
1.1645427875
100
AcDbArc
 50
64.6965483539
 51
65.0613888471
  0
ARC
  5
2B8
100
AcDbEntity
  8
0
100
AcDbCircle
 62
7
  6
CONTINUOUS
 10
5.3920365413
 20
4.4263900769
 40
1.1621902744
100
AcDbArc
 50
65.0609486133
 51
66.3225866561
  0
ARC
  5
2B9
100
AcDbEntity
  8
0
100
AcDbCircle
 62
7
  6
CONTINUOUS
 10
5.3914691915
 20
5.3102613631
 40
1.5826384887
100
AcDbArc
 50
85.5657374895
 51
89.8537232062
  0
CIRCLE
  5
2BA
100
AcDbEntity
  8
0
100
AcDbCircle
 62
7
  6
CONTINUOUS
 10
6.9405096816
 20
4.4228997016
 40
0.09
  0
ARC
  5
2BB
100
AcDbEntity
  8
0
100
AcDbCircle
 62
7
  6
CONTINUOUS
 10
6.8050057948
 20
5.837113264
 40
0.295
100
AcDbArc
 50
4.9926093939
 51
255.4285260872
  0
ARC
  5
2BC
100
AcDbEntity
  8
0
100
AcDbCircle
 62
7
  6
CONTINUOUS
 10
7.1366395318
 20
5.3981088087
 40
0.2861163779
100
AcDbArc
 50
299.0148469277
 51
300.8143993198
  0
ARC
  5
2BD
100
AcDbEntity
  8
0
100
AcDbCircle
 62
7
  6
CONTINUOUS
 10
7.1366395318
 20
5.3981088087
 40
0.2861163779
100
AcDbArc
 50
239.0148468548
 51
240.8143992464
  0
ARC
  5
2BE
100
AcDbEntity
  8
0
100
AcDbCircle
 62
7
  6
CONTINUOUS
 10
7.1366395318
 20
5.3981088087
 40
0.2861163779
100
AcDbArc
 50
179.0148468992
 51
180.8143992871
  0
ARC
  5
2BF
100
AcDbEntity
  8
0
100
AcDbCircle
 62
7
  6
CONTINUOUS
 10
7.1366395318
 20
5.3981088087
 40
0.2861163779
100
AcDbArc
 50
119.0148469277
 51
120.8143993198
  0
ARC
  5
2C0
100
AcDbEntity
  8
0
100
AcDbCircle
 62
7
  6
CONTINUOUS
 10
7.1366395318
 20
5.3981088087
 40
0.2861163779
100
AcDbArc
 50
59.0148468548
 51
60.8143992464
  0
ARC
  5
2C1
100
AcDbEntity
  8
0
100
AcDbCircle
 62
7
  6
CONTINUOUS
 10
7.1366395318
 20
5.3981088087
 40
0.2861163779
100
AcDbArc
 50
359.0148468992
 51
0.8143992871
  0
ARC
  5
2C2
100
AcDbEntity
  8
0
100
AcDbCircle
 62
7
  6
CONTINUOUS
 10
6.8050057948
 20
5.837113264
 40
0.265
100
AcDbArc
 50
4.9926093939
 51
255.4285260872
  0
CIRCLE
  5
2C3
100
AcDbEntity
  8
0
100
AcDbCircle
 62
7
  6
CONTINUOUS
 10
7.1366395883
 20
5.3981075764
 40
0.2375
  0
ARC
  5
2C4
100
AcDbEntity
  8
0
100
AcDbCircle
 62
7
  6
CONTINUOUS
 10
7.0988865448
 20
5.8627863005
 40
0.03
100
AcDbArc
 50
184.9926093939
 51
212.49
  0
ARC
  5
2C5
100
AcDbEntity
  8
0
100
AcDbCircle
 62
7
  6
CONTINUOUS
 10
6.7307874736
 20
5.5516020719
 40
0.03
100
AcDbArc
 50
39.243
 51
75.4285260872
  0
SPLINE
  5
2C6
100
AcDbEntity
  8
0
100
AcDbSpline
 62
7
  6
CONTINUOUS
 70
0
 71
3
 72
36
 73
32
 74
0
 42
0.0000001
 43
0.0000001
 44
0.0000000001
 40
0.0
 40
0.0
 40
0.0
 40
0.0
 40
0.062475579
 40
0.093736871
 40
0.1249899825
 40
0.1562393274
 40
0.1874899358
 40
0.2499685736
 40
0.3124460342
 40
0.3436980678
 40
0.3749504307
 40
0.4062028586
 40
0.4374553548
 40
0.4687080216
 40
0.4999604237
 40
0.5312126948
 40
0.5624649697
 40
0.5937173083
 40
0.624970081
 40
0.6562227496
 40
0.687475006
 40
0.7187272271
 40
0.7499796962
 40
0.7812329703
 40
0.8124859041
 40
0.8437367154
 40
0.8749864731
 40
0.9062400744
 40
0.9375021694
 40
0.9687625851
 40
1.0
 40
1.0
 40
1.0
 40
1.0
 10
5.8668840391
 20
5.486945447
 30
0.0
 10
5.9080395353
 20
5.4674940552
 30
0.0
 10
5.9681528455
 20
5.4346406574
 30
0.0
 10
6.0439473881
 20
5.3840906004
 30
0.0
 10
6.09848703
 20
5.3428771766
 30
0.0
 10
6.1505007077
 20
5.2985336682
 30
0.0
 10
6.2162226643
 20
5.2354395946
 30
0.0
 10
6.2912308651
 20
5.1494634001
 30
0.0
 10
6.3555447889
 20
5.0552158957
 30
0.0
 10
6.4000140501
 20
4.9756971589
 30
0.0
 10
6.4297721393
 20
4.9141600498
 30
0.0
 10
6.4558251315
 20
4.8509670924
 30
0.0
 10
6.4780663433
 20
4.7863328276
 30
0.0
 10
6.49641525
 20
4.7204880643
 30
0.0
 10
6.5108084004
 20
4.6536668764
 30
0.0
 10
6.5211759881
 20
4.5861041285
 30
0.0
 10
6.5274878799
 20
4.5180427389
 30
0.0
 10
6.5297128453
 20
4.4497248057
 30
0.0
 10
6.5278305421
 20
4.3813963321
 30
0.0
 10
6.5218563229
 20
4.3133035125
 30
0.0
 10
6.5117949488
 20
4.2456937569
 30
0.0
 10
6.4976806649
 20
4.1788128212
 30
0.0
 10
6.4795657359
 20
4.1129018159
 30
0.0
 10
6.4574975362
 20
4.0482064241
 30
0.0
 10
6.4315657786
 20
3.9849619785
 30
0.0
 10
6.4018583925
 20
3.9234031951
 30
0.0
 10
6.3684710571
 20
3.8637594851
 30
0.0
 10
6.3315265664
 20
3.8062415531
 30
0.0
 10
6.2911439919
 20
3.7510723206
 30
0.0
 10
6.2474924088
 20
3.6984707224
 30
0.0
 10
6.2163143034
 20
3.6652355654
 30
0.0
 10
6.200241691
 20
3.6491206163
 30
0.0
  0
SPLINE
  5
2C7
100
AcDbEntity
  8
0
100
AcDbSpline
 62
7
  6
CONTINUOUS
 70
0
 71
3
 72
15
 73
11
 74
0
 42
0.0000001
 43
0.0000001
 44
0.0000000001
 40
0.0
 40
0.0
 40
0.0
 40
0.0
 40
0.1255707277
 40
0.2515488301
 40
0.3771157803
 40
0.5022944546
 40
0.6271346221
 40
0.7516472227
 40
0.8759172024
 40
1.0
 40
1.0
 40
1.0
 40
1.0
 10
5.5138312772
 20
1.9576368394
 30
0.0
 10
5.5138454806
 20
1.9556052363
 30
0.0
 10
5.5142744599
 20
1.9515281212
 30
0.0
 10
5.5160819256
 20
1.9456590657
 30
0.0
 10
5.5190553375
 20
1.9402884813
 30
0.0
 10
5.5230338127
 20
1.9356400563
 30
0.0
 10
5.5278605682
 20
1.9319077578
 30
0.0
 10
5.5333276682
 20
1.929228608
 30
0.0
 10
5.5392169551
 20
1.9277423702
 30
0.0
 10
5.5432650566
 20
1.927570099
 30
0.0
 10
5.5452687854
 20
1.9276943755
 30
0.0
  0
SPLINE
  5
2C8
100
AcDbEntity
  8
0
100
AcDbSpline
 62
7
  6
CONTINUOUS
 70
0
 71
3
 72
16
 73
12
 74
0
 42
0.0000001
 43
0.0000001
 44
0.0000000001
 40
0.0
 40
0.0
 40
0.0
 40
0.0
 40
0.1917022535
 40
0.3637878054
 40
0.5155341331
 40
0.58370669
 40
0.6468097133
 40
0.7582373897
 40
0.8515383022
 40
0.9301298734
 40
1.0
 40
1.0
 40
1.0
 40
1.0
 10
5.36835123
 20
2.9854373825
 30
0.0
 10
5.3685432706
 20
2.9850063544
 30
0.0
 10
5.3689247662
 20
2.9841957678
 30
0.0
 10
5.3695253131
 20
2.9830771639
 30
0.0
 10
5.3700376452
 20
2.9822582207
 30
0.0
 10
5.3704467415
 20
2.9816939607
 30
0.0
 10
5.3708221045
 20
2.981229003
 30
0.0
 10
5.3712797836
 20
2.9807514712
 30
0.0
 10
5.3718428299
 20
2.9803323818
 30
0.0
 10
5.3723980251
 20
2.9800973768
 30
0.0
 10
5.3727725871
 20
2.9800749647
 30
0.0
 10
5.3729428737
 20
2.980099074
 30
0.0
  0
SPLINE
  5
2C9
100
AcDbEntity
  8
0
100
AcDbSpline
 62
7
  6
CONTINUOUS
 70
0
 71
3
 72
15
 73
11
 74
0
 42
0.0000001
 43
0.0000001
 44
0.0000000001
 40
0.0
 40
0.0
 40
0.0
 40
0.0
 40
0.1255706945
 40
0.2515486943
 40
0.3771155678
 40
0.5022941928
 40
0.627134354
 40
0.7516470033
 40
0.875917121
 40
1.0
 40
1.0
 40
1.0
 40
1.0
 10
5.2671880859
 20
1.9576368394
 30
0.0
 10
5.2671738854
 20
1.9556052367
 30
0.0
 10
5.2667449101
 20
1.9515281227
 30
0.0
 10
5.2649374419
 20
1.9456590711
 30
0.0
 10
5.2619640319
 20
1.94028849
 30
0.0
 10
5.2579855605
 20
1.9356400644
 30
0.0
 10
5.2531588072
 20
1.9319077626
 30
0.0
 10
5.2476917047
 20
1.92922861
 30
0.0
 10
5.2418024131
 20
1.9277423725
 30
0.0
 10
5.2377543079
 20
1.9275700989
 30
0.0
 10
5.2357505777
 20
1.9276943755
 30
0.0
  0
SPLINE
  5
2CA
100
AcDbEntity
  8
0
100
AcDbSpline
 62
7
  6
CONTINUOUS
 70
0
 71
3
 72
16
 73
12
 74
0
 42
0.0000001
 43
0.0000001
 44
0.0000000001
 40
0.0
 40
0.0
 40
0.0
 40
0.0
 40
0.1916357485
 40
0.3636718141
 40
0.5153874643
 40
0.583552232
 40
0.6466525773
 40
0.7580904761
 40
0.851422879
 40
0.9300656796
 40
1.0
 40
1.0
 40
1.0
 40
1.0
 10
5.4126681429
 20
2.9854367483
 30
0.0
 10
5.4124763099
 20
2.9850056845
 30
0.0
 10
5.4120951671
 20
2.9841950116
 30
0.0
 10
5.4114950048
 20
2.9830762676
 30
0.0
 10
5.4109828569
 20
2.9822571919
 30
0.0
 10
5.4105738175
 20
2.9816928113
 30
0.0
 10
5.4101984237
 20
2.9812276966
 30
0.0
 10
5.4097405961
 20
2.9807499531
 30
0.0
 10
5.4091772312
 20
2.980330624
 30
0.0
 10
5.4086215859
 20
2.9800953985
 30
0.0
 10
5.4082466733
 20
2.9800728283
 30
0.0
 10
5.4080761748
 20
2.9800968594
 30
0.0
  0
SPLINE
  5
2CB
100
AcDbEntity
  8
0
100
AcDbSpline
 62
7
  6
CONTINUOUS
 70
0
 71
3
 72
15
 73
11
 74
0
 42
0.0000001
 43
0.0000001
 44
0.0000000001
 40
0.0
 40
0.0
 40
0.0
 40
0.0
 40
0.191675595
 40
0.3637409696
 40
0.5154739619
 40
0.6466998926
 40
0.7581317846
 40
0.8514498725
 40
0.9300758502
 40
1.0
 40
1.0
 40
1.0
 40
1.0
 10
5.4126681192
 20
5.8603609472
 30
0.0
 10
5.4124763168
 20
5.8607920982
 30
0.0
 10
5.4120952252
 20
5.8616029004
 30
0.0
 10
5.4114951065
 20
5.8627218905
 30
0.0
 10
5.4109005803
 20
5.8636726027
 30
0.0
 10
5.4103148626
 20
5.8644490125
 30
0.0
 10
5.4097407811
 20
5.8650481021
 30
0.0
 10
5.4091774041
 20
5.8654672475
 30
0.0
 10
5.408621784
 20
5.8657021892
 30
0.0
 10
5.4082469336
 20
5.8657244855
 30
0.0
 10
5.4080764903
 20
5.8657003232
 30
0.0
  0
SPLINE
  5
2CC
100
AcDbEntity
  8
0
100
AcDbSpline
 62
7
  6
CONTINUOUS
 70
0
 71
3
 72
16
 73
12
 74
0
 42
0.0000001
 43
0.0000001
 44
0.0000000001
 40
0.0
 40
0.0
 40
0.0
 40
0.0
 40
0.1916238194
 40
0.3636514674
 40
0.5153626035
 40
0.5835266577
 40
0.6466272924
 40
0.7580686041
 40
0.851407648
 40
0.930058732
 40
1.0
 40
1.0
 40
1.0
 40
1.0
 10
5.3683512155
 20
5.860362969
 30
0.0
 10
5.3685430072
 20
5.8607940317
 30
0.0
 10
5.3689240848
 20
5.8616047046
 30
0.0
 10
5.3695241898
 20
5.8627234458
 30
0.0
 10
5.3700363221
 20
5.8635425203
 30
0.0
 10
5.3704453666
 20
5.8641069034
 30
0.0
 10
5.3708207802
 20
5.8645720305
 30
0.0
 10
5.3712786483
 20
5.8650497934
 30
0.0
 10
5.3718420728
 20
5.8654691468
 30
0.0
 10
5.3723977764
 20
5.8657044036
 30
0.0
 10
5.3727727312
 20
5.8657270087
 30
0.0
 10
5.3729432534
 20
5.8657029934
 30
0.0
  0
SPLINE
  5
2CD
100
AcDbEntity
  8
0
100
AcDbSpline
 62
7
  6
CONTINUOUS
 70
0
 71
3
 72
12
 73
8
 74
0
 42
0.0000001
 43
0.0000001
 44
0.0000000001
 40
0.0
 40
0.0
 40
0.0
 40
0.0
 40
0.1262606482
 40
0.2520283819
 40
0.501400512
 40
0.7499398135
 40
1.0
 40
1.0
 40
1.0
 40
1.0
 10
5.2828075679
 20
2.9648721797
 30
0.0
 10
5.2861642466
 20
2.9664874659
 30
0.0
 10
5.292970216
 20
2.9694965344
 30
0.0
 10
5.3068350085
 20
2.9746725215
 30
0.0
 10
5.324580886
 20
2.9796758187
 30
0.0
 10
5.3463279933
 20
2.9835826858
 30
0.0
 10
5.3609878014
 20
2.9849802947
 30
0.0
 10
5.3683512313
 20
2.9854374634
 30
0.0
  0
SPLINE
  5
2CE
100
AcDbEntity
  8
0
100
AcDbSpline
 62
7
  6
CONTINUOUS
 70
0
 71
3
 72
11
 73
7
 74
0
 42
0.0000001
 43
0.0000001
 44
0.0000000001
 40
0.0
 40
0.0
 40
0.0
 40
0.0
 40
0.2519582843
 40
0.501365578
 40
0.7499139737
 40
1.0
 40
1.0
 40
1.0
 40
1.0
 10
5.4982117952
 20
5.8809272236
 30
0.0
 10
5.4915136637
 20
5.8777051765
 30
0.0
 10
5.4777669985
 20
5.8721352867
 30
0.0
 10
5.4564385202
 20
5.8661264271
 30
0.0
 10
5.4346909368
 20
5.8622113161
 30
0.0
 10
5.4200315288
 20
5.8608190334
 30
0.0
 10
5.4126681319
 20
5.8603619399
 30
0.0
  0
SPLINE
  5
2CF
100
AcDbEntity
  8
0
100
AcDbSpline
 62
7
  6
CONTINUOUS
 70
0
 71
3
 72
12
 73
8
 74
0
 42
0.0000001
 43
0.0000001
 44
0.0000000001
 40
0.0
 40
0.0
 40
0.0
 40
0.0
 40
0.2501109062
 40
0.4986678907
 40
0.7480618065
 40
0.8737369022
 40
1.0
 40
1.0
 40
1.0
 40
1.0
 10
5.3683512313
 20
5.8603619399
 30
0.0
 10
5.3609862504
 20
5.8608180792
 30
0.0
 10
5.3463247486
 20
5.8622190866
 30
0.0
 10
5.3245746329
 20
5.8661236425
 30
0.0
 10
5.3068308237
 20
5.8711289079
 30
0.0
 10
5.292968354
 20
5.876305122
 30
0.0
 10
5.2861645923
 20
5.8793125034
 30
0.0
 10
5.2828075679
 20
5.8809272236
 30
0.0
  0
SPLINE
  5
2D0
100
AcDbEntity
  8
0
100
AcDbSpline
 62
7
  6
CONTINUOUS
 70
0
 71
3
 72
12
 73
8
 74
0
 42
0.0000001
 43
0.0000001
 44
0.0000000001
 40
0.0
 40
0.0
 40
0.0
 40
0.0
 40
0.2501107247
 40
0.4986672688
 40
0.7480615187
 40
0.8737366658
 40
1.0
 40
1.0
 40
1.0
 40
1.0
 10
5.4126681319
 20
2.9854374634
 30
0.0
 10
5.4200330429
 20
2.9849805363
 30
0.0
 10
5.4346945992
 20
2.9835809182
 30
0.0
 10
5.4564445435
 20
2.9796754439
 30
0.0
 10
5.4741884056
 20
2.9746706303
 30
0.0
 10
5.4880508335
 20
2.9694943154
 30
0.0
 10
5.4948545983
 20
2.9664869661
 30
0.0
 10
5.4982116263
 20
2.9648722555
 30
0.0
  0
SPLINE
  5
2D1
100
AcDbEntity
  8
0
100
AcDbSpline
 62
7
  6
CONTINUOUS
 70
0
 71
3
 72
15
 73
11
 74
0
 42
0.0000001
 43
0.0000001
 44
0.0000000001
 40
0.0
 40
0.0
 40
0.0
 40
0.0
 40
0.1252685008
 40
0.2484803091
 40
0.3706786308
 40
0.4932426121
 40
0.6171616348
 40
0.7430135758
 40
0.8708299326
 40
1.0
 40
1.0
 40
1.0
 40
1.0
 10
5.4080765189
 20
2.9800992821
 30
0.0
 10
5.411366894
 20
2.9796320059
 30
0.0
 10
5.4178585678
 20
2.9784310156
 30
0.0
 10
5.4273464066
 20
2.9757972839
 30
0.0
 10
5.4364941354
 20
2.972350918
 30
0.0
 10
5.445321806
 20
2.9681109336
 30
0.0
 10
5.4538464121
 20
2.9630987004
 30
0.0
 10
5.4620650485
 20
2.9573544858
 30
0.0
 10
5.4699511619
 20
2.9509411775
 30
0.0
 10
5.4749432374
 20
2.9462893309
 30
0.0
 10
5.4773757591
 20
2.9438755229
 30
0.0
  0
SPLINE
  5
2D2
100
AcDbEntity
  8
0
100
AcDbSpline
 62
7
  6
CONTINUOUS
 70
0
 71
3
 72
14
 73
10
 74
0
 42
0.0000001
 43
0.0000001
 44
0.0000000001
 40
0.0
 40
0.0
 40
0.0
 40
0.0
 40
0.1291589166
 40
0.2571714536
 40
0.5067825578
 40
0.6292737063
 40
0.7515415011
 40
0.8748415027
 40
1.0
 40
1.0
 40
1.0
 40
1.0
 10
5.303643604
 20
2.9438755229
 30
0.0
 10
5.3060761957
 20
2.9462878985
 30
0.0
 10
5.3110727107
 20
2.9509411575
 30
0.0
 10
5.3215029534
 20
2.9594308541
 30
0.0
 10
5.3326974553
 20
2.9666698357
 30
0.0
 10
5.3445293675
 20
2.9723544325
 30
0.0
 10
5.3536787569
 20
2.9757991613
 30
0.0
 10
5.3631665262
 20
2.9784299412
 30
0.0
 10
5.3696560876
 20
2.9796318542
 30
0.0
 10
5.3729428442
 20
2.9800992821
 30
0.0
  0
SPLINE
  5
2D3
100
AcDbEntity
  8
0
100
AcDbSpline
 62
7
  6
CONTINUOUS
 70
0
 71
3
 72
36
 73
32
 74
0
 42
0.0000001
 43
0.0000001
 44
0.0000000001
 40
0.0
 40
0.0
 40
0.0
 40
0.0
 40
0.0312365161
 40
0.0624852391
 40
0.093729466
 40
0.1249709764
 40
0.1874314911
 40
0.2498988589
 40
0.2811501131
 40
0.3124037828
 40
0.3436590486
 40
0.374915273
 40
0.4061721067
 40
0.4374287012
 40
0.4686849985
 40
0.4999410497
 40
0.5311967076
 40
0.5624522801
 40
0.5937075454
 40
0.6249625693
 40
0.6562176248
 40
0.6874725786
 40
0.7187278502
 40
0.7499835723
 40
0.7812396844
 40
0.8124954447
 40
0.8437492161
 40
0.8750019501
 40
0.9062585741
 40
0.9375231044
 40
1.0
 40
1.0
 40
1.0
 40
1.0
 10
5.1806177687
 20
3.3227427197
 30
0.0
 10
5.1580834843
 20
3.3265444016
 30
0.0
 10
5.1132273822
 20
3.3355348621
 30
0.0
 10
5.0469007356
 20
3.3530989021
 30
0.0
 10
4.9817634836
 20
3.3746869823
 30
0.0
 10
4.8968637576
 20
3.4086961559
 30
0.0
 10
4.7948536479
 20
3.4608193035
 30
0.0
 10
4.699918038
 20
3.5249386311
 30
0.0
 10
4.629073859
 20
3.5828100348
 30
0.0
 10
4.5786413248
 20
3.6293702328
 30
0.0
 10
4.5311112318
 20
3.6788916107
 30
0.0
 10
4.4866616499
 20
3.7311993279
 30
0.0
 10
4.4454414865
 20
3.786088634
 30
0.0
 10
4.4076025462
 20
3.8433615367
 30
0.0
 10
4.3732808174
 20
3.9028078755
 30
0.0
 10
4.3425858475
 20
3.9642046732
 30
0.0
 10
4.3156356676
 20
4.0273344144
 30
0.0
 10
4.2925145423
 20
4.0919638623
 30
0.0
 10
4.2732993652
 20
4.1578598454
 30
0.0
 10
4.2580636852
 20
4.2247874173
 30
0.0
 10
4.2468436117
 20
4.292503584
 30
0.0
 10
4.2396836968
 20
4.3607688227
 30
0.0
 10
4.236602715
 20
4.4293395054
 30
0.0
 10
4.237599524
 20
4.4979730197
 30
0.0
 10
4.242679354
 20
4.5664258546
 30
0.0
 10
4.2518059185
 20
4.6344556225
 30
0.0
 10
4.264944307
 20
4.7018236203
 30
0.0
 10
4.2820507252
 20
4.768294156
 30
0.0
 10
4.3030562675
 20
4.8336502444
 30
0.0
 10
4.3361507461
 20
4.9189389854
 30
0.0
 10
4.3665968688
 20
4.9806257584
 30
0.0
 10
4.3892062917
 20
5.0203505543
 30
0.0
  0
SPLINE
  5
2D4
100
AcDbEntity
  8
0
100
AcDbSpline
 62
7
  6
CONTINUOUS
 70
0
 71
3
 72
14
 73
10
 74
0
 42
0.0000001
 43
0.0000001
 44
0.0000000001
 40
0.0
 40
0.0
 40
0.0
 40
0.0
 40
0.1291646771
 40
0.257201434
 40
0.5068211773
 40
0.6293340251
 40
0.7515890505
 40
0.874842467
 40
1.0
 40
1.0
 40
1.0
 40
1.0
 10
5.4773757591
 20
5.9019238804
 30
0.0
 10
5.474943479
 20
5.8995109737
 30
0.0
 10
5.469945979
 20
5.8948575296
 30
0.0
 10
5.4595142814
 20
5.8863681257
 30
0.0
 10
5.448319339
 20
5.8791269899
 30
0.0
 10
5.4364858735
 20
5.8734444346
 30
0.0
 10
5.4273375379
 20
5.8700000577
 30
0.0
 10
5.4178520508
 20
5.8673670603
 30
0.0
 10
5.4113634596
 20
5.8661660702
 30
0.0
 10
5.4080765189
 20
5.8657001212
 30
0.0
  0
SPLINE
  5
2D5
100
AcDbEntity
  8
0
100
AcDbSpline
 62
7
  6
CONTINUOUS
 70
0
 71
3
 72
15
 73
11
 74
0
 42
0.0000001
 43
0.0000001
 44
0.0000000001
 40
0.0
 40
0.0
 40
0.0
 40
0.0
 40
0.1252670504
 40
0.2484843165
 40
0.3706791851
 40
0.4932438027
 40
0.6171626148
 40
0.7430142133
 40
0.87083039
 40
1.0
 40
1.0
 40
1.0
 40
1.0
 10
5.3729428442
 20
5.8657001212
 30
0.0
 10
5.369652617
 20
5.866168158
 30
0.0
 10
5.3631608493
 20
5.867368822
 30
0.0
 10
5.3536727231
 20
5.8700017534
 30
0.0
 10
5.3445251396
 20
5.8734487115
 30
0.0
 10
5.3356974683
 20
5.8776884673
 30
0.0
 10
5.3271728853
 20
5.8827007563
 30
0.0
 10
5.3189542671
 20
5.8884449537
 30
0.0
 10
5.3110681941
 20
5.8948582645
 30
0.0
 10
5.3060760925
 20
5.8995100574
 30
0.0
 10
5.303643604
 20
5.9019238804
 30
0.0
  0
SPLINE
  5
2D6
100
AcDbEntity
  8
0
100
AcDbSpline
 62
7
  6
CONTINUOUS
 70
0
 71
3
 72
15
 73
11
 74
0
 42
0.0000001
 43
0.0000001
 44
0.0000000001
 40
0.0
 40
0.0
 40
0.0
 40
0.0
 40
0.1255707277
 40
0.2515488301
 40
0.3771157803
 40
0.5022944546
 40
0.6271346221
 40
0.7516472227
 40
0.8759172024
 40
1.0
 40
1.0
 40
1.0
 40
1.0
 10
5.2671880859
 20
6.8881625639
 30
0.0
 10
5.2671738825
 20
6.890194167
 30
0.0
 10
5.2667449032
 20
6.8942712821
 30
0.0
 10
5.2649374375
 20
6.9001403376
 30
0.0
 10
5.2619640256
 20
6.905510922
 30
0.0
 10
5.2579855504
 20
6.9101593469
 30
0.0
 10
5.2531587949
 20
6.9138916455
 30
0.0
 10
5.2476916949
 20
6.9165707953
 30
0.0
 10
5.241802408
 20
6.9180570331
 30
0.0
 10
5.2377543065
 20
6.9182293043
 30
0.0
 10
5.2357505777
 20
6.9181050278
 30
0.0
  0
SPLINE
  5
2D7
100
AcDbEntity
  8
0
100
AcDbSpline
 62
7
  6
CONTINUOUS
 70
0
 71
3
 72
15
 73
11
 74
0
 42
0.0000001
 43
0.0000001
 44
0.0000000001
 40
0.0
 40
0.0
 40
0.0
 40
0.0
 40
0.1255706945
 40
0.2515486943
 40
0.3771155678
 40
0.5022941928
 40
0.627134354
 40
0.7516470033
 40
0.875917121
 40
1.0
 40
1.0
 40
1.0
 40
1.0
 10
5.5138312772
 20
6.8881625639
 30
0.0
 10
5.5138454777
 20
6.8901941666
 30
0.0
 10
5.514274453
 20
6.8942712806
 30
0.0
 10
5.5160819212
 20
6.9001403322
 30
0.0
 10
5.5190553312
 20
6.9055109133
 30
0.0
 10
5.5230338026
 20
6.9101593389
 30
0.0
 10
5.5278605559
 20
6.9138916406
 30
0.0
 10
5.5333276584
 20
6.9165707932
 30
0.0
 10
5.53921695
 20
6.9180570308
 30
0.0
 10
5.5432650552
 20
6.9182293043
 30
0.0
 10
5.5452687854
 20
6.9181050278
 30
0.0
  0
ENDSEC
  0
SECTION
  2
OBJECTS
  0
DICTIONARY
  5
C
100
AcDbDictionary
280
0
281
1
  3
ACAD_GROUP
350
D
  3
ACAD_MLINESTYLE
350
17
  3
ACAD_LAYOUT
350
1A
  3
ACAD_PLOTSETTINGS
350
19
  3
ACAD_PLOTSTYLENAME
350
E
  0
DICTIONARY
  5
D
102
{ACAD_REACTORS
330
C
102
}
100
AcDbDictionary
280
0
281
1
  0
ACDBDICTIONARYWDFLT
  5
E
102
{ACAD_REACTORS
330
C
102
}
100
AcDbDictionary
281
1
  3
Normal
350
F
100
AcDbDictionaryWithDefault
340
F
  0
DICTIONARY
  5
17
102
{ACAD_REACTORS
330
C
102
}
100
AcDbDictionary
280
0
281
1
  3
Standard
350
18
  0
DICTIONARY
  5
19
102
{ACAD_REACTORS
330
C
102
}
100
AcDbDictionary
281
1
  0
DICTIONARY
  5
1A
102
{ACAD_REACTORS
330
C
102
}
100
AcDbDictionary
281
1
  3
Model
350
2D8
  3
Layout1
350
2D9
  0
ACDBPLACEHOLDER
  5
F
102
{ACAD_REACTORS
330
E
102
}
  0
MLINESTYLE
  5
18
102
{ACAD_REACTORS
330
17
102
}
100
AcDbMlineStyle
  2
STANDARD
 70
0
  3

 62
256
 51
90.0
 52
90.0
 71
2
 49
0.5
 62
256
  6
BYLAYER
 49
-0.5
 62
256
  6
BYLAYER
  0
LAYOUT
  5
2D8
102
{ACAD_REACTORS
330
1A
102
}
100
AcDbPlotSettings
  1

  2
none_device
  4
ANSI_A_(11.00_x_8.50_Inches)
  6

 40
0.0
 41
0.0
 42
0.0
 43
0.0
 44
279.4
 45
215.9
 46
0.0
 47
0.0
 48
0.0
 49
0.0
140
0.0
141
0.0
142
1.0
143
1.0
 70
1024
 72
0
 73
0
 74
0
  7

 75
0
147
1.0
148
0.0
149
0.0
100
AcDbLayout
  1
Model
 70
0
 71
0
 10
0.0
 20
0.0
 11
11.0
 21
8.5
 12
0.0
 22
0.0
 32
0.0
 14
0.0
 24
0.0
 34
0.0
 15
0.0
 25
0.0
 35
0.0
146
0.0
 13
0.0
 23
0.0
 33
0.0
 16
1.0
 26
0.0
 36
0.0
 17
0.0
 27
1.0
 37
0.0
 76
0
330
208
345
0
346
0
  0
LAYOUT
  5
2D9
102
{ACAD_REACTORS
330
1A
102
}
100
AcDbPlotSettings
  1

  2
none_device
  4
ANSI_A_(11.00_x_8.50_Inches)
  6

 40
0.0
 41
0.0
 42
0.0
 43
0.0
 44
279.4
 45
215.9
 46
0.0
 47
0.0
 48
0.0
 49
0.0
140
0.0
141
0.0
142
1.0
143
1.0
 70
0
 72
0
 73
0
 74
0
  7

 75
0
147
1.0
148
0.0
149
0.0
100
AcDbLayout
  1
Layout1
 70
0
 71
1
 10
0.0
 20
0.0
 11
11.0
 21
8.5
 12
0.0
 22
0.0
 32
0.0
 14
0.0
 24
0.0
 34
0.0
 15
0.0
 25
0.0
 35
0.0
146
0.0
 13
0.0
 23
0.0
 33
0.0
 16
1.0
 26
0.0
 36
0.0
 17
0.0
 27
1.0
 37
0.0
 76
0
330
209
345
0
346
0
  0
ENDSEC
  0
EOF
