999
DXF file: 278a-02_front.dxf
999
Pro/ENGINEER 2013150 by Parametric Technology Corporation
  0
SECTION
  2
HEADER
  9
$ACADVER
  1
AC1021
  9
$DWGCODEPAGE
  3
ANSI_1252
  9
$EXTMAX
 10
11.0
 20
8.5
 30
0.0
  9
$EXTMIN
 10
0.0
 20
0.0
 30
0.0
  9
$LIMMIN
 10
0.0
 20
0.0
  9
$LIMMAX
 10
11.0
 20
8.5
  9
$VIEWCTR
 10
5.5
 20
4.25
  9
$VIEWSIZE
 40
8.5
  9
$CLAYER
  8
0
  9
$LTSCALE
 40
0.605
  9
$CELTYPE
  6
BYLAYER
  9
$DIMSCALE
 40
1.0
  9
$DIMASZ
 40
0.1
  9
$DIMEXO
 40
0.0625
  9
$DIMDLI
 40
0.418
  9
$DIMEXE
 40
0.125
  9
$DIMCEN
 40
0.099
  9
$DIMLFAC
 40
1.0
  9
$DIMBLK
  1
_FILLED
  9
$DIMTXT
 40
0.08
  9
$DIMTOL
 70
1
  9
$DIMLIM
 70
0
  9
$DIMTFAC
 40
1.0
  9
$DIMTP
 40
0.001
  9
$DIMTM
 40
0.001
  9
$DIMGAP
 40
0.09
  9
$DIMDSEP
 70
46
  9
$PDMODE
 70
3
  9
$PDSIZE
 40
0.06
  9
$HANDSEED
  5
365
  9
$TILEMODE
 70
1
  9
$MEASUREMENT
 70
0
  9
$INSUNITS
 70
1
  0
ENDSEC
  0
SECTION
  2
CLASSES
  0
CLASS
  1
ACDBDICTIONARYWDFLT
  2
AcDbDictionaryWithDefault
  3
AutoCAD 2000
 90
0
 91
1
280
0
281
0
  0
CLASS
  1
ACDBPLACEHOLDER
  2
AcDbPlaceHolder
  3
AutoCAD 2000
 90
0
 91
1
280
0
281
0
  0
CLASS
  1
LAYOUT
  2
AcDbLayout
  3
AutoCAD 2000
 90
0
 91
0
280
0
281
0
  0
ENDSEC
  0
SECTION
  2
TABLES
  0
TABLE
  2
VPORT
  5
8
100
AcDbSymbolTable
 70
2
  0
VPORT
  5
1F4
100
AcDbSymbolTableRecord
100
AcDbViewportTableRecord
  2
*ACTIVE
 70
0
 10
0.0
 20
0.0
 11
1.0
 21
1.0
 12
5.5
 22
4.25
 13
0.0
 23
0.0
 14
1.0
 24
1.0
 15
0.0
 25
0.0
 16
0.0
 26
0.0
 36
1.0
 17
0.0
 27
0.0
 37
0.0
 40
8.5
 41
1.2941176471
 42
50.0
 43
0.0
 44
0.0
 50
0.0
 51
0.0
 71
0
 72
100
 73
1
 74
1
 75
0
 76
0
 77
0
 78
0
  0
ENDTAB
  0
TABLE
  2
LTYPE
  5
5
100
AcDbSymbolTable
 70
6
  0
LTYPE
  5
14
100
AcDbSymbolTableRecord
100
AcDbLinetypeTableRecord
  2
BYBLOCK
 70
0
  3

 72
65
 73
0
 40
0.0
  0
LTYPE
  5
15
100
AcDbSymbolTableRecord
100
AcDbLinetypeTableRecord
  2
BYLAYER
 70
0
  3

 72
65
 73
0
 40
0.0
  0
LTYPE
  5
16
100
AcDbSymbolTableRecord
100
AcDbLinetypeTableRecord
  2
CONTINUOUS
 70
64
  3
Solid line
 72
65
 73
0
 40
0.0
  0
LTYPE
  5
1F5
100
AcDbSymbolTableRecord
100
AcDbLinetypeTableRecord
  2
CENTER
 70
64
  3
____ _ ____ _ ____ _ ____ _ ____ _ ____ _ ____
 72
65
 73
4
 40
0.6
 49
0.375
 74
0
 49
-0.075
 74
0
 49
0.075
 74
0
 49
-0.075
 74
0
  0
LTYPE
  5
1F6
100
AcDbSymbolTableRecord
100
AcDbLinetypeTableRecord
  2
HIDDEN
 70
64
  3
- - - - - - - - - - - - - - - - - - - -
 72
65
 73
2
 40
0.2
 49
0.1
 74
0
 49
-0.1
 74
0
  0
LTYPE
  5
1F7
100
AcDbSymbolTableRecord
100
AcDbLinetypeTableRecord
  2
PHANTOM
 70
64
  3
_____ _ _ _____ _ _ _____ _ _ _____
 72
65
 73
6
 40
0.8
 49
0.45
 74
0
 49
-0.05
 74
0
 49
0.1
 74
0
 49
-0.05
 74
0
 49
0.1
 74
0
 49
-0.05
 74
0
  0
LTYPE
  5
1F8
100
AcDbSymbolTableRecord
100
AcDbLinetypeTableRecord
  2
DOT
 70
64
  3
. . . . . . . . . . . . . . . . . . . .
 72
65
 73
2
 40
0.2
 49
0.1
 74
0
 49
-0.1
 74
0
  0
LTYPE
  5
1F9
100
AcDbSymbolTableRecord
100
AcDbLinetypeTableRecord
  2
DASHED
 70
64
  3
- - - - - - - - - - - - - - - - - - - -
 72
65
 73
2
 40
0.2
 49
0.1
 74
0
 49
-0.1
 74
0
  0
ENDTAB
  0
TABLE
  2
LAYER
  5
2
100
AcDbSymbolTable
 70
36
  0
LAYER
  5
10
100
AcDbSymbolTableRecord
100
AcDbLayerTableRecord
  2
0
 70
0
 62
7
  6
CONTINUOUS
370
-3
390
F
  0
LAYER
  5
1FA
100
AcDbSymbolTableRecord
100
AcDbLayerTableRecord
  2
DEFAULT_1
 70
0
 62
7
  6
CENTER
370
-3
390
F
  0
LAYER
  5
1FB
100
AcDbSymbolTableRecord
100
AcDbLayerTableRecord
  2
DEFAULT_2
 70
0
 62
8
  6
HIDDEN
370
-3
390
F
  0
LAYER
  5
1FC
100
AcDbSymbolTableRecord
100
AcDbLayerTableRecord
  2
DEFAULT_3
 70
0
 62
7
  6
PHANTOM
370
-3
390
F
  0
LAYER
  5
1FD
100
AcDbSymbolTableRecord
100
AcDbLayerTableRecord
  2
ALL_FEATURES
 70
0
 62
7
  6
CONTINUOUS
370
-3
390
F
  0
LAYER
  5
1FE
100
AcDbSymbolTableRecord
100
AcDbLayerTableRecord
  2
AXES_FEATURES
 70
0
 62
7
  6
CONTINUOUS
370
-3
390
F
  0
LAYER
  5
1FF
100
AcDbSymbolTableRecord
100
AcDbLayerTableRecord
  2
DEFAULT_COORDINATE_SYSTEM
 70
0
 62
7
  6
CONTINUOUS
370
-3
390
F
  0
LAYER
  5
200
100
AcDbSymbolTableRecord
100
AcDbLayerTableRecord
  2
DEFAULT_DATUM_AXES
 70
0
 62
7
  6
CONTINUOUS
370
-3
390
F
  0
LAYER
  5
201
100
AcDbSymbolTableRecord
100
AcDbLayerTableRecord
  2
DEFAULT_DATUM_CURVES
 70
0
 62
7
  6
CONTINUOUS
370
-3
390
F
  0
LAYER
  5
202
100
AcDbSymbolTableRecord
100
AcDbLayerTableRecord
  2
DEFAULT_DATUM_PLANES
 70
0
 62
7
  6
CONTINUOUS
370
-3
390
F
  0
LAYER
  5
203
100
AcDbSymbolTableRecord
100
AcDbLayerTableRecord
  2
DEFAULT_SURFACES
 70
0
 62
7
  6
CONTINUOUS
370
-3
390
F
  0
LAYER
  5
204
100
AcDbSymbolTableRecord
100
AcDbLayerTableRecord
  2
DIMENSIONS
 70
0
 62
7
  6
CONTINUOUS
370
-3
390
F
  0
LAYER
  5
205
100
AcDbSymbolTableRecord
100
AcDbLayerTableRecord
  2
PATTERN_DATUMS
 70
0
 62
7
  6
CONTINUOUS
370
-3
390
F
  0
ENDTAB
  0
TABLE
  2
STYLE
  5
3
100
AcDbSymbolTable
 70
1
  0
STYLE
  5
11
100
AcDbSymbolTableRecord
100
AcDbTextStyleTableRecord
  2
STANDARD
 70
0
 40
0.0
 41
0.8
 50
0.0
 71
0
 42
0.2
  3
txt
  4

  0
STYLE
  5
206
100
AcDbSymbolTableRecord
100
AcDbTextStyleTableRecord
  2
TEXTSTYLE_1
 70
0
 40
0.0
 41
0.8
 50
0.0
 71
0
 42
0.2
  3
gdt
  4

  0
ENDTAB
  0
TABLE
  2
VIEW
  5
6
100
AcDbSymbolTable
 70
0
  0
ENDTAB
  0
TABLE
  2
UCS
  5
7
100
AcDbSymbolTable
 70
0
  0
ENDTAB
  0
TABLE
  2
APPID
  5
9
100
AcDbSymbolTable
 70
1
  0
APPID
  5
207
100
AcDbSymbolTableRecord
100
AcDbRegAppTableRecord
  2
ACAD
 70
0
  0
ENDTAB
  0
TABLE
  2
BLOCK_RECORD
  5
1
100
AcDbSymbolTable
 70
0
  0
BLOCK_RECORD
  5
208
100
AcDbSymbolTableRecord
100
AcDbBlockTableRecord
  2
*Model_Space
  0
BLOCK_RECORD
  5
209
100
AcDbSymbolTableRecord
100
AcDbBlockTableRecord
  2
*Paper_Space
  0
ENDTAB
  0
TABLE
  2
DIMSTYLE
  5
A
100
AcDbSymbolTable
 70
1
100
AcDbDimStyleTable
 71
0
  0
DIMSTYLE
105
20A
100
AcDbSymbolTableRecord
100
AcDbDimStyleTableRecord
  2
STANDARD
 70
0
  3

  4

 40
1.0
 41
0.1
 42
0.0625
 43
0.38
 44
0.125
 45
0.0
 46
0.0
 47
0.001
 48
0.001
140
0.08
141
0.09
142
0.0
143
25.4
144
1.0
145
0.0
146
1.0
147
0.09
 71
1.0
 72
0.0
 73
1
 74
1
 75
0
 76
0
 77
0
 78
4
170
0
171
2
172
0
173
0
174
0
175
0
176
0
177
0
178
0
270
2
271
3
272
3
273
2
274
2
275
0
280
0
281
0
282
0
283
1
284
4
285
0
286
0
287
3
288
0
340
11
278
46
  0
ENDTAB
  0
ENDSEC
  0
SECTION
  2
BLOCKS
  0
BLOCK
  5
20
100
AcDbEntity
  8
0
100
AcDbBlockBegin
  2
*Model_Space
 70
0
 10
0.0
 20
0.0
 30
0.0
  3
*Model_Space
  1

  0
ENDBLK
  5
21
100
AcDbEntity
  8
0
100
AcDbBlockEnd
  0
BLOCK
  5
1C
100
AcDbEntity
  8
0
100
AcDbBlockBegin
  2
*Paper_Space
 70
0
 10
0.0
 20
0.0
 30
0.0
  3
*Paper_Space
  1

  0
ENDBLK
  5
1D
100
AcDbEntity
  8
0
100
AcDbBlockEnd
  0
ENDSEC
  0
SECTION
  2
ENTITIES
  0
LINE
  5
20B
100
AcDbEntity
  8
0
100
AcDbLine
 62
7
  6
CONTINUOUS
 10
0.0
 20
0.0
 11
0.0
 21
8.5
  0
LINE
  5
20C
100
AcDbEntity
  8
0
100
AcDbLine
 62
7
  6
CONTINUOUS
 10
0.0
 20
0.0
 11
11.0
 21
0.0
  0
LINE
  5
20D
100
AcDbEntity
  8
0
100
AcDbLine
 62
7
  6
CONTINUOUS
 10
0.0
 20
8.5
 11
11.0
 21
8.5
  0
LINE
  5
20E
100
AcDbEntity
  8
0
100
AcDbLine
 62
7
  6
CONTINUOUS
 10
11.0
 20
0.0
 11
11.0
 21
8.5
  0
LINE
  5
20F
100
AcDbEntity
  8
0
100
AcDbLine
 62
7
  6
CONTINUOUS
 10
1.4954321221
 20
5.6184153074
 11
1.4954386672
 21
5.3684153087
  0
LINE
  5
210
100
AcDbEntity
  8
0
100
AcDbLine
 62
7
  6
CONTINUOUS
 10
1.5580557339
 20
5.9476648597
 11
1.5580557339
 21
5.6643784735
  0
LINE
  5
211
100
AcDbEntity
  8
0
100
AcDbLine
 62
7
  6
CONTINUOUS
 10
1.6638870828
 20
5.9476648597
 11
1.6638870828
 21
5.8856821582
  0
LINE
  5
212
100
AcDbEntity
  8
0
100
AcDbLine
 62
7
  6
CONTINUOUS
 10
1.7285918441
 20
5.9476648597
 11
1.7285918441
 21
5.8856821582
  0
LINE
  5
213
100
AcDbEntity
  8
0
100
AcDbLine
 62
7
  6
CONTINUOUS
 10
2.4865167364
 20
5.2546948239
 11
2.5539397352
 21
4.3404641097
  0
LINE
  5
214
100
AcDbEntity
  8
0
100
AcDbLine
 62
7
  6
CONTINUOUS
 10
2.4635065562
 20
5.2655141374
 11
2.5318095772
 21
4.3391976129
  0
LINE
  5
215
100
AcDbEntity
  8
0
100
AcDbLine
 62
7
  6
CONTINUOUS
 10
2.6426216668
 20
5.726361175
 11
2.6426216668
 21
5.6643784735
  0
LINE
  5
216
100
AcDbEntity
  8
0
100
AcDbLine
 62
7
  6
CONTINUOUS
 10
2.8193983621
 20
5.726361175
 11
2.8193983621
 21
5.6643784735
  0
LINE
  5
217
100
AcDbEntity
  8
0
100
AcDbLine
 62
7
  6
CONTINUOUS
 10
2.8579465497
 20
5.0673536512
 11
2.857965502
 21
4.3434509852
  0
LINE
  5
218
100
AcDbEntity
  8
0
100
AcDbLine
 62
7
  6
CONTINUOUS
 10
2.9779670728
 20
4.2834541272
 11
2.9779855302
 21
3.5784541308
  0
LINE
  5
219
100
AcDbEntity
  8
0
100
AcDbLine
 62
7
  6
CONTINUOUS
 10
3.4146383034
 20
5.6185216666
 11
3.4146383034
 21
5.6202890969
  0
LINE
  5
21A
100
AcDbEntity
  8
0
100
AcDbLine
 62
7
  6
CONTINUOUS
 10
3.2048812148
 20
6.6185216666
 11
3.1830557339
 21
5.9935216666
  0
LINE
  5
21B
100
AcDbEntity
  8
0
100
AcDbLine
 62
7
  6
CONTINUOUS
 10
4.5881604895
 20
6.3002360476
 11
4.5881542514
 21
6.3002331391
  0
LINE
  5
21C
100
AcDbEntity
  8
0
100
AcDbLine
 62
7
  6
CONTINUOUS
 10
6.915863961
 20
1.9685281987
 11
6.948029771
 21
1.9685580864
  0
LINE
  5
21D
100
AcDbEntity
  8
0
100
AcDbLine
 62
7
  6
CONTINUOUS
 10
4.10802611
 20
2.0284837229
 11
7.008026109
 21
2.028559647
  0
LINE
  5
21E
100
AcDbEntity
  8
0
100
AcDbLine
 62
7
  6
CONTINUOUS
 10
4.1682416372
 20
1.9684829483
 11
6.9159485278
 21
1.9685282269
  0
LINE
  5
21F
100
AcDbEntity
  8
0
100
AcDbLine
 62
7
  6
CONTINUOUS
 10
4.1680255896
 20
1.9684852842
 11
4.1682416372
 21
1.9684829483
  0
LINE
  5
220
100
AcDbEntity
  8
0
100
AcDbLine
 62
7
  6
CONTINUOUS
 10
4.1079886715
 20
3.4584837156
 11
4.10802611
 21
2.0284837229
  0
LINE
  5
221
100
AcDbEntity
  8
0
100
AcDbLine
 62
7
  6
CONTINUOUS
 10
4.3702447804
 20
5.3199535717
 11
4.4290546815
 21
4.3395837533
  0
LINE
  5
222
100
AcDbEntity
  8
0
100
AcDbLine
 62
7
  6
CONTINUOUS
 10
4.4206160043
 20
5.3226085047
 11
4.4795738947
 21
4.3400303577
  0
LINE
  5
223
100
AcDbEntity
  8
0
100
AcDbLine
 62
7
  6
CONTINUOUS
 10
4.4943985698
 20
6.0377402875
 11
4.4943965646
 21
5.9935216666
  0
LINE
  5
224
100
AcDbEntity
  8
0
100
AcDbLine
 62
7
  6
CONTINUOUS
 10
4.5881604731
 20
6.3002360323
 11
4.5881485698
 21
6.0377126413
  0
LINE
  5
225
100
AcDbEntity
  8
0
100
AcDbLine
 62
7
  6
CONTINUOUS
 10
4.5934292652
 20
6.0377108539
 11
4.5934404142
 21
6.2835752617
  0
LINE
  5
226
100
AcDbEntity
  8
0
100
AcDbLine
 62
7
  6
CONTINUOUS
 10
4.369825511
 20
5.3230444979
 11
4.3702401741
 21
5.3200323143
  0
LINE
  5
227
100
AcDbEntity
  8
0
100
AcDbLine
 62
7
  6
CONTINUOUS
 10
4.6785193897
 20
6.2987159243
 11
4.6785106994
 21
6.1070736821
  0
LINE
  5
228
100
AcDbEntity
  8
0
100
AcDbLine
 62
7
  6
CONTINUOUS
 10
4.747801422
 20
6.2987060132
 11
4.7477927317
 21
6.107063771
  0
LINE
  5
229
100
AcDbEntity
  8
0
100
AcDbLine
 62
7
  6
CONTINUOUS
 10
4.8328790232
 20
6.283541009
 11
4.8328678742
 21
6.0376766013
  0
LINE
  5
22A
100
AcDbEntity
  8
0
100
AcDbLine
 62
7
  6
CONTINUOUS
 10
4.843429265
 20
6.0376761223
 11
4.843440414
 21
6.2835405301
  0
LINE
  5
22B
100
AcDbEntity
  8
0
100
AcDbLine
 62
7
  6
CONTINUOUS
 10
4.971326984
 20
5.6181135863
 11
4.971389832
 21
5.6185216666
  0
LINE
  5
22C
100
AcDbEntity
  8
0
100
AcDbLine
 62
7
  6
CONTINUOUS
 10
8.0779870378
 20
3.5185876525
 11
7.9843862664
 21
3.5185189238
  0
LINE
  5
22D
100
AcDbEntity
  8
0
100
AcDbLine
 62
7
  6
CONTINUOUS
 10
7.0079886705
 20
3.4585596397
 11
6.592975149
 21
3.4584496289
  0
LINE
  5
22E
100
AcDbEntity
  8
0
100
AcDbLine
 62
7
  6
CONTINUOUS
 10
6.592975149
 20
3.4584496289
 11
4.5357302872
 21
3.4583944998
  0
LINE
  5
22F
100
AcDbEntity
  8
0
100
AcDbLine
 62
7
  6
CONTINUOUS
 10
7.039419742
 20
3.5183612784
 11
7.9843862664
 21
3.5185189238
  0
LINE
  5
230
100
AcDbEntity
  8
0
100
AcDbLine
 62
7
  6
CONTINUOUS
 10
2.9779855302
 20
3.5784541308
 11
8.1379855285
 21
3.5785892233
  0
LINE
  5
231
100
AcDbEntity
  8
0
100
AcDbLine
 62
7
  6
CONTINUOUS
 10
4.5208227601
 20
3.4583955161
 11
4.1079886715
 21
3.4584837156
  0
LINE
  5
232
100
AcDbEntity
  8
0
100
AcDbLine
 62
7
  6
CONTINUOUS
 10
4.5357302872
 20
3.4583944998
 11
4.5208227601
 21
3.4583955161
  0
LINE
  5
233
100
AcDbEntity
  8
0
100
AcDbLine
 62
7
  6
CONTINUOUS
 10
4.0665776953
 20
3.518284196
 11
7.039419742
 21
3.5183612784
  0
LINE
  5
234
100
AcDbEntity
  8
0
100
AcDbLine
 62
7
  6
CONTINUOUS
 10
7.9843862664
 20
3.5185189238
 11
3.0379871649
 21
3.5184557022
  0
LINE
  5
235
100
AcDbEntity
  8
0
100
AcDbLine
 62
7
  6
CONTINUOUS
 10
3.0379871625
 20
3.5184557022
 11
4.0665776953
 21
3.518284196
  0
LWPOLYLINE
  5
236
100
AcDbEntity
  8
0
100
AcDbPolyline
 62
7
  6
CONTINUOUS
 90
3
 70
0
 10
4.3677717533
 20
5.3284810042
 10
4.3689762823
 20
5.3259001837
 10
4.369825511
 20
5.3230444979
  0
LINE
  5
237
100
AcDbEntity
  8
0
100
AcDbLine
 62
7
  6
CONTINUOUS
 10
5.0828790229
 20
6.2835530675
 11
5.0828678739
 21
6.0376886597
  0
LINE
  5
238
100
AcDbEntity
  8
0
100
AcDbLine
 62
7
  6
CONTINUOUS
 10
5.0881485692
 20
6.0376899681
 11
5.0881604726
 21
6.3002133591
  0
LINE
  5
239
100
AcDbEntity
  8
0
100
AcDbLine
 62
7
  6
CONTINUOUS
 10
5.1818985691
 20
6.0377091119
 11
5.1818965653
 21
5.9935216666
  0
LINE
  5
23A
100
AcDbEntity
  8
0
100
AcDbLine
 62
7
  6
CONTINUOUS
 10
2.3662664541
 20
5.3112361241
 11
2.8464567489
 21
5.0854521748
  0
LINE
  5
23B
100
AcDbEntity
  8
0
100
AcDbLine
 62
7
  6
CONTINUOUS
 10
5.6050481513
 20
5.3226210449
 11
5.5622733905
 21
4.3400419483
  0
LINE
  5
23C
100
AcDbEntity
  8
0
100
AcDbLine
 62
7
  6
CONTINUOUS
 10
8.1972146678
 20
4.2835846128
 11
8.1979670748
 21
4.2835907715
  0
LINE
  5
23D
100
AcDbEntity
  8
0
100
AcDbLine
 62
7
  6
CONTINUOUS
 10
5.5716850978
 20
4.2831881458
 11
5.6804287329
 21
4.2832580771
  0
LINE
  5
23E
100
AcDbEntity
  8
0
100
AcDbLine
 62
7
  6
CONTINUOUS
 10
6.4613673817
 20
4.2833030282
 11
8.1972146678
 21
4.2835846128
  0
LINE
  5
23F
100
AcDbEntity
  8
0
100
AcDbLine
 62
7
  6
CONTINUOUS
 10
4.4889485879
 20
4.2831765431
 11
5.5716480837
 21
4.2831881337
  0
LINE
  5
240
100
AcDbEntity
  8
0
100
AcDbLine
 62
7
  6
CONTINUOUS
 10
5.6803917187
 20
4.283258065
 11
8.1977829908
 21
4.2835877396
  0
LINE
  5
241
100
AcDbEntity
  8
0
100
AcDbLine
 62
7
  6
CONTINUOUS
 10
5.7886062214
 20
4.2832707494
 11
6.4613673817
 21
4.2833030282
  0
LINE
  5
242
100
AcDbEntity
  8
0
100
AcDbLine
 62
7
  6
CONTINUOUS
 10
8.1985689563
 20
4.283630256
 11
8.9034480111
 21
4.283677374
  0
LINE
  5
243
100
AcDbEntity
  8
0
100
AcDbLine
 62
7
  6
CONTINUOUS
 10
8.2544779577
 20
4.2837507702
 11
8.2003543406
 21
4.2837473232
  0
LINE
  5
244
100
AcDbEntity
  8
0
100
AcDbLine
 62
7
  6
CONTINUOUS
 10
3.3954684559
 20
4.2833172304
 11
4.4876219583
 21
4.2832579283
  0
LINE
  5
245
100
AcDbEntity
  8
0
100
AcDbLine
 62
7
  6
CONTINUOUS
 10
2.5916439522
 20
4.2836098041
 11
2.9158289315
 21
4.2835926413
  0
LINE
  5
246
100
AcDbEntity
  8
0
100
AcDbLine
 62
7
  6
CONTINUOUS
 10
2.9686620978
 20
4.283403587
 11
3.3954684559
 21
4.2833172304
  0
LINE
  5
247
100
AcDbEntity
  8
0
100
AcDbLine
 62
7
  6
CONTINUOUS
 10
2.9179671346
 20
4.2834525548
 11
4.4876219718
 21
4.2832579275
  0
LINE
  5
248
100
AcDbEntity
  8
0
100
AcDbLine
 62
7
  6
CONTINUOUS
 10
8.1977176702
 20
4.2835887301
 11
8.1977829908
 21
4.2835877396
  0
LINE
  5
249
100
AcDbEntity
  8
0
100
AcDbLine
 62
7
  6
CONTINUOUS
 10
5.6734573783
 20
5.3192606977
 11
5.6308266799
 21
4.3400486096
  0
LINE
  5
24A
100
AcDbEntity
  8
0
100
AcDbLine
 62
7
  6
CONTINUOUS
 10
5.6308266799
 20
4.3400486096
 11
5.7395703149
 21
4.3401185408
  0
LINE
  5
24B
100
AcDbEntity
  8
0
100
AcDbLine
 62
7
  6
CONTINUOUS
 10
7.7204645228
 20
4.3434204385
 11
8.2579655002
 21
4.343592361
  0
LINE
  5
24C
100
AcDbEntity
  8
0
100
AcDbLine
 62
7
  6
CONTINUOUS
 10
4.4795738947
 20
4.3400303577
 11
5.5622733905
 21
4.3400419483
  0
LINE
  5
24D
100
AcDbEntity
  8
0
100
AcDbLine
 62
7
  6
CONTINUOUS
 10
8.2759346163
 20
4.3404909812
 11
8.9249168813
 21
4.3405323131
  0
LINE
  5
24E
100
AcDbEntity
  8
0
100
AcDbLine
 62
7
  6
CONTINUOUS
 10
5.7938369799
 20
4.343265046
 11
7.7204645228
 21
4.3434204385
  0
LINE
  5
24F
100
AcDbEntity
  8
0
100
AcDbLine
 62
7
  6
CONTINUOUS
 10
2.5539397352
 20
4.3404641097
 11
2.857965343
 21
4.3404480141
  0
LINE
  5
250
100
AcDbEntity
  8
0
100
AcDbLine
 62
7
  6
CONTINUOUS
 10
2.857965502
 20
4.3434509852
 11
4.4290547481
 21
4.3432525545
  0
LINE
  5
251
100
AcDbEntity
  8
0
100
AcDbLine
 62
7
  6
CONTINUOUS
 10
8.7496138728
 20
5.3114032448
 11
8.269435401
 21
5.0855941523
  0
LINE
  5
252
100
AcDbEntity
  8
0
100
AcDbLine
 62
7
  6
CONTINUOUS
 10
9.6204316041
 20
5.3686272868
 11
9.6204386645
 21
5.368628027
  0
LINE
  5
253
100
AcDbEntity
  8
0
100
AcDbLine
 62
7
  6
CONTINUOUS
 10
1.4954457277
 20
5.3684145688
 11
1.4954386672
 21
5.3684153087
  0
LINE
  5
254
100
AcDbEntity
  8
0
100
AcDbLine
 62
7
  6
CONTINUOUS
 10
4.3574228121
 20
5.3372387542
 11
4.3574412517
 21
5.3372328148
  0
LWPOLYLINE
  5
255
100
AcDbEntity
  8
0
100
AcDbPolyline
 62
7
  6
CONTINUOUS
 90
9
 70
0
 10
4.3574227732
 20
5.3372386367
 10
4.3576178373
 20
5.337174279
 10
4.3584650194
 20
5.3368572906
 10
4.3596967057
 20
5.3362950213
 10
4.361192383
 20
5.3354481073
 10
4.3628380437
 20
5.3342840318
 10
4.3645722432
 20
5.3327346105
 10
4.366275842
 20
5.3307715681
 10
4.3677717533
 20
5.3284810042
  0
LINE
  5
256
100
AcDbEntity
  8
0
100
AcDbLine
 62
7
  6
CONTINUOUS
 10
9.6204250589
 20
5.6186272855
 11
9.6204321193
 21
5.6186280258
  0
LINE
  5
257
100
AcDbEntity
  8
0
100
AcDbLine
 62
7
  6
CONTINUOUS
 10
9.6204316041
 20
5.3686272868
 11
8.8078262944
 21
5.3260191883
  0
LINE
  5
258
100
AcDbEntity
  8
0
100
AcDbLine
 62
7
  6
CONTINUOUS
 10
8.2579465479
 20
5.067495027
 11
5.8319561648
 21
5.067169064
  0
LINE
  5
259
100
AcDbEntity
  8
0
100
AcDbLine
 62
7
  6
CONTINUOUS
 10
8.269435401
 20
5.0855941523
 11
5.8331422546
 21
5.0852668579
  0
LINE
  5
25A
100
AcDbEntity
  8
0
100
AcDbLine
 62
7
  6
CONTINUOUS
 10
4.3854094616
 20
5.0671560753
 11
2.8579465497
 21
5.0673536512
  0
LINE
  5
25B
100
AcDbEntity
  8
0
100
AcDbLine
 62
7
  6
CONTINUOUS
 10
4.3843238288
 20
5.0852537359
 11
2.8464567489
 21
5.0854521748
  0
LINE
  5
25C
100
AcDbEntity
  8
0
100
AcDbLine
 62
7
  6
CONTINUOUS
 10
1.4954457277
 20
5.3684145688
 11
2.3080532673
 21
5.3258490195
  0
LINE
  5
25D
100
AcDbEntity
  8
0
100
AcDbLine
 62
7
  6
CONTINUOUS
 10
1.4954391825
 20
5.6184145675
 11
1.4954321221
 21
5.6184153074
  0
LINE
  5
25E
100
AcDbEntity
  8
0
100
AcDbLine
 62
7
  6
CONTINUOUS
 10
9.3877095406
 20
5.7228608237
 11
9.452224385
 21
5.726361175
  0
LINE
  5
25F
100
AcDbEntity
  8
0
100
AcDbLine
 62
7
  6
CONTINUOUS
 10
9.5580557339
 20
5.6643784735
 11
9.3705393204
 21
5.6545511546
  0
LINE
  5
260
100
AcDbEntity
  8
0
100
AcDbLine
 62
7
  6
CONTINUOUS
 10
9.2411141756
 20
5.6477682702
 11
9.2041796045
 21
5.6458326114
  0
LINE
  5
261
100
AcDbEntity
  8
0
100
AcDbLine
 62
7
  6
CONTINUOUS
 10
8.9692612173
 20
5.6335210604
 11
8.9326666329
 21
5.6316032195
  0
LINE
  5
262
100
AcDbEntity
  8
0
100
AcDbLine
 62
7
  6
CONTINUOUS
 10
8.7755429731
 20
5.6233687174
 11
8.741232923
 21
5.6215706039
  0
LINE
  5
263
100
AcDbEntity
  8
0
100
AcDbLine
 62
7
  6
CONTINUOUS
 10
9.570422549
 20
5.3685646228
 11
9.6204316041
 21
5.3686272868
  0
LINE
  5
264
100
AcDbEntity
  8
0
100
AcDbLine
 62
7
  6
CONTINUOUS
 10
8.7496138731
 20
5.3114032449
 11
5.7378370829
 21
5.3110130981
  0
LINE
  5
265
100
AcDbEntity
  8
0
100
AcDbLine
 62
7
  6
CONTINUOUS
 10
8.8078271746
 20
5.3260192364
 11
5.730821333
 21
5.3256221319
  0
LINE
  5
266
100
AcDbEntity
  8
0
100
AcDbLine
 62
7
  6
CONTINUOUS
 10
9.570422549
 20
5.3685646228
 11
4.7038214206
 21
5.3681113012
  0
LINE
  5
267
100
AcDbEntity
  8
0
100
AcDbLine
 62
7
  6
CONTINUOUS
 10
4.3702400438
 20
5.3109992592
 11
2.3662664544
 21
5.311236124
  0
LINE
  5
268
100
AcDbEntity
  8
0
100
AcDbLine
 62
7
  6
CONTINUOUS
 10
4.3690631545
 20
5.3256080602
 11
2.3080554429
 21
5.3258489148
  0
LINE
  5
269
100
AcDbEntity
  8
0
100
AcDbLine
 62
7
  6
CONTINUOUS
 10
4.7038214206
 20
5.3681113012
 11
1.4954457277
 21
5.3684145688
  0
LINE
  5
26A
100
AcDbEntity
  8
0
100
AcDbLine
 62
7
  6
CONTINUOUS
 10
1.5580557339
 20
5.6643784735
 11
1.7455721474
 21
5.6545511546
  0
LINE
  5
26B
100
AcDbEntity
  8
0
100
AcDbLine
 62
7
  6
CONTINUOUS
 10
2.3405684946
 20
5.6233687174
 11
2.4330557339
 21
5.6185216666
  0
LINE
  5
26C
100
AcDbEntity
  8
0
100
AcDbLine
 62
7
  6
CONTINUOUS
 10
2.8184326061
 20
5.7133308079
 11
2.6426216668
 21
5.726361175
  0
LINE
  5
26D
100
AcDbEntity
  8
0
100
AcDbLine
 62
7
  6
CONTINUOUS
 10
7.0079886705
 20
3.4585596397
 11
7.008026109
 21
2.028559647
  0
LINE
  5
26E
100
AcDbEntity
  8
0
100
AcDbLine
 62
7
  6
CONTINUOUS
 10
9.6204250589
 20
5.6186272855
 11
9.0736867019
 21
5.6184149449
  0
LINE
  5
26F
100
AcDbEntity
  8
0
100
AcDbLine
 62
7
  6
CONTINUOUS
 10
9.0736867019
 20
5.6184149449
 11
7.8236807588
 21
5.6182515884
  0
LINE
  5
270
100
AcDbEntity
  8
0
100
AcDbLine
 62
7
  6
CONTINUOUS
 10
7.8236807588
 20
5.6182515884
 11
5.5580557443
 21
5.6181247924
  0
LINE
  5
271
100
AcDbEntity
  8
0
100
AcDbLine
 62
7
  6
CONTINUOUS
 10
5.5580557443
 20
5.6181247924
 11
3.162089221
 21
5.6181384524
  0
LINE
  5
272
100
AcDbEntity
  8
0
100
AcDbLine
 62
7
  6
CONTINUOUS
 10
2.9853140273
 20
5.6233687174
 11
2.0468344908
 21
5.6233687174
  0
LINE
  5
273
100
AcDbEntity
  8
0
100
AcDbLine
 62
7
  6
CONTINUOUS
 10
3.1620894553
 20
5.6233687174
 11
9.0724876228
 21
5.6233687174
  0
LINE
  5
274
100
AcDbEntity
  8
0
100
AcDbLine
 62
7
  6
CONTINUOUS
 10
9.3465072694
 20
5.6381084053
 11
9.2559243387
 21
5.6381084053
  0
LINE
  5
275
100
AcDbEntity
  8
0
100
AcDbLine
 62
7
  6
CONTINUOUS
 10
2.7863237057
 20
5.6381084053
 11
1.7722537838
 21
5.6381084053
  0
LINE
  5
276
100
AcDbEntity
  8
0
100
AcDbLine
 62
7
  6
CONTINUOUS
 10
2.9630992221
 20
5.6381084053
 11
9.2314370386
 21
5.6381084053
  0
LINE
  5
277
100
AcDbEntity
  8
0
100
AcDbLine
 62
7
  6
CONTINUOUS
 10
2.9581881391
 20
5.6398114667
 11
2.7913349405
 21
5.6398114667
  0
LINE
  5
278
100
AcDbEntity
  8
0
100
AcDbLine
 62
7
  6
CONTINUOUS
 10
9.3705393204
 20
5.6545511546
 11
9.2710045761
 21
5.6545511546
  0
LINE
  5
279
100
AcDbEntity
  8
0
100
AcDbLine
 62
7
  6
CONTINUOUS
 10
9.2062998148
 20
5.6545511546
 11
2.9520604695
 21
5.6545511546
  0
LINE
  5
27A
100
AcDbEntity
  8
0
100
AcDbLine
 62
7
  6
CONTINUOUS
 10
2.7752837743
 20
5.6545511546
 11
1.7455721474
 21
5.6545511546
  0
LINE
  5
27B
100
AcDbEntity
  8
0
100
AcDbLine
 62
7
  6
CONTINUOUS
 10
9.5580557339
 20
5.6643784735
 11
9.452224385
 21
5.6643784735
  0
LINE
  5
27C
100
AcDbEntity
  8
0
100
AcDbLine
 62
7
  6
CONTINUOUS
 10
9.3875196237
 20
5.6643784735
 11
2.8193983621
 21
5.6643784735
  0
LINE
  5
27D
100
AcDbEntity
  8
0
100
AcDbLine
 62
7
  6
CONTINUOUS
 10
2.6426216668
 20
5.6643784735
 11
1.5580557339
 21
5.6643784735
  0
LINE
  5
27E
100
AcDbEntity
  8
0
100
AcDbLine
 62
7
  6
CONTINUOUS
 10
3.162089221
 20
5.6181384524
 11
2.0424249989
 21
5.6182308195
  0
LINE
  5
27F
100
AcDbEntity
  8
0
100
AcDbLine
 62
7
  6
CONTINUOUS
 10
2.0424249989
 20
5.6182308195
 11
1.5257133816
 21
5.6183677256
  0
LINE
  5
280
100
AcDbEntity
  8
0
100
AcDbLine
 62
7
  6
CONTINUOUS
 10
1.5257133816
 20
5.6183677256
 11
1.4954391825
 21
5.6184145675
  0
LINE
  5
281
100
AcDbEntity
  8
0
100
AcDbLine
 62
7
  6
CONTINUOUS
 10
1.6638870828
 20
5.8856821582
 11
1.7284019272
 21
5.8891825095
  0
LINE
  5
282
100
AcDbEntity
  8
0
100
AcDbLine
 62
7
  6
CONTINUOUS
 10
2.4330557339
 20
5.9935216666
 11
2.3405684946
 21
5.9886746158
  0
LINE
  5
283
100
AcDbEntity
  8
0
100
AcDbLine
 62
7
  6
CONTINUOUS
 10
2.1834451301
 20
5.9804401292
 11
2.1468502505
 21
5.9785222728
  0
LINE
  5
284
100
AcDbEntity
  8
0
100
AcDbLine
 62
7
  6
CONTINUOUS
 10
1.9119319855
 20
5.9662107282
 11
1.8749972921
 21
5.9642750629
  0
LINE
  5
285
100
AcDbEntity
  8
0
100
AcDbLine
 62
7
  6
CONTINUOUS
 10
1.7455721474
 20
5.9574921785
 11
1.5580557339
 21
5.9476648597
  0
LINE
  5
286
100
AcDbEntity
  8
0
100
AcDbLine
 62
7
  6
CONTINUOUS
 10
4.6785106994
 20
6.1070736821
 11
4.747792725
 21
6.1070908486
  0
LINE
  5
287
100
AcDbEntity
  8
0
100
AcDbLine
 62
7
  6
CONTINUOUS
 10
9.5580557339
 20
5.9476648597
 11
8.473489801
 21
5.9476648597
  0
LINE
  5
288
100
AcDbEntity
  8
0
100
AcDbLine
 62
7
  6
CONTINUOUS
 10
8.2967131057
 20
5.9476648597
 11
1.7285918441
 21
5.9476648597
  0
LINE
  5
289
100
AcDbEntity
  8
0
100
AcDbLine
 62
7
  6
CONTINUOUS
 10
1.6638870828
 20
5.9476648597
 11
1.5580557339
 21
5.9476648597
  0
LINE
  5
28A
100
AcDbEntity
  8
0
100
AcDbLine
 62
7
  6
CONTINUOUS
 10
1.7455721474
 20
5.9574921785
 11
1.8451068917
 21
5.9574921785
  0
LINE
  5
28B
100
AcDbEntity
  8
0
100
AcDbLine
 62
7
  6
CONTINUOUS
 10
1.909811653
 20
5.9574921785
 11
8.1640509982
 21
5.9574921785
  0
LINE
  5
28C
100
AcDbEntity
  8
0
100
AcDbLine
 62
7
  6
CONTINUOUS
 10
8.3408276935
 20
5.9574921785
 11
9.3705393204
 21
5.9574921785
  0
LINE
  5
28D
100
AcDbEntity
  8
0
100
AcDbLine
 62
7
  6
CONTINUOUS
 10
8.1579236669
 20
5.9722318665
 11
8.3247755002
 21
5.9722318665
  0
LINE
  5
28E
100
AcDbEntity
  8
0
100
AcDbLine
 62
7
  6
CONTINUOUS
 10
9.3484659372
 20
5.9739349278
 11
8.3297877585
 21
5.9739349278
  0
LINE
  5
28F
100
AcDbEntity
  8
0
100
AcDbLine
 62
7
  6
CONTINUOUS
 10
1.8601871303
 20
5.9739349278
 11
1.7624191547
 21
5.9739349278
  0
LINE
  5
290
100
AcDbEntity
  8
0
100
AcDbLine
 62
7
  6
CONTINUOUS
 10
1.8846744292
 20
5.9739349278
 11
8.1530122496
 21
5.9739349278
  0
LINE
  5
291
100
AcDbEntity
  8
0
100
AcDbLine
 62
7
  6
CONTINUOUS
 10
9.070276839
 20
5.9886746158
 11
8.1307974366
 21
5.9886746158
  0
LINE
  5
292
100
AcDbEntity
  8
0
100
AcDbLine
 62
7
  6
CONTINUOUS
 10
2.0535148108
 20
5.9886746158
 11
7.9540220167
 21
5.9886746158
  0
LINE
  5
293
100
AcDbEntity
  8
0
100
AcDbLine
 62
7
  6
CONTINUOUS
 10
7.6776076028
 20
5.9935216666
 11
5.7956417756
 21
5.9935216666
  0
LINE
  5
294
100
AcDbEntity
  8
0
100
AcDbLine
 62
7
  6
CONTINUOUS
 10
5.7763353427
 20
5.9935216666
 11
5.6092123267
 21
5.9935216666
  0
LINE
  5
295
100
AcDbEntity
  8
0
100
AcDbLine
 62
7
  6
CONTINUOUS
 10
5.5068991411
 20
5.9935216666
 11
5.3303340447
 21
5.9935216666
  0
LINE
  5
296
100
AcDbEntity
  8
0
100
AcDbLine
 62
7
  6
CONTINUOUS
 10
5.3204696922
 20
5.9935216666
 11
4.0217148037
 21
5.9935216666
  0
LINE
  5
297
100
AcDbEntity
  8
0
100
AcDbLine
 62
7
  6
CONTINUOUS
 10
2.4330741844
 20
5.9935216666
 11
3.9946261863
 21
5.9935216666
  0
LINE
  5
298
100
AcDbEntity
  8
0
100
AcDbLine
 62
7
  6
CONTINUOUS
 10
7.6915438714
 20
5.9935216666
 11
8.6731973573
 21
5.9935216666
  0
LINE
  5
299
100
AcDbEntity
  8
0
100
AcDbLine
 62
7
  6
CONTINUOUS
 10
5.1818950232
 20
6.0377091084
 11
4.843429265
 21
6.0376761223
  0
LINE
  5
29A
100
AcDbEntity
  8
0
100
AcDbLine
 62
7
  6
CONTINUOUS
 10
7.9314973946
 20
6.0381466666
 11
8.5879120276
 21
6.0381466666
  0
LINE
  5
29B
100
AcDbEntity
  8
0
100
AcDbLine
 62
7
  6
CONTINUOUS
 10
4.4944021157
 20
6.0377402911
 11
5.0881485776
 21
6.0376734654
  0
LINE
  5
29C
100
AcDbEntity
  8
0
100
AcDbLine
 62
7
  6
CONTINUOUS
 10
8.741232923
 20
5.9904727293
 11
8.7755429731
 21
5.9886746158
  0
LINE
  5
29D
100
AcDbEntity
  8
0
100
AcDbLine
 62
7
  6
CONTINUOUS
 10
9.3705393204
 20
5.9574921785
 11
9.5580557339
 21
5.9476648597
  0
LINE
  5
29E
100
AcDbEntity
  8
0
100
AcDbLine
 62
7
  6
CONTINUOUS
 10
8.473489801
 20
5.8856821582
 11
8.2976788617
 21
5.8987125253
  0
LINE
  5
29F
100
AcDbEntity
  8
0
100
AcDbLine
 62
7
  6
CONTINUOUS
 10
5.0881604561
 20
6.3002133745
 11
5.088166711
 21
6.3002104574
  0
LINE
  5
2A0
100
AcDbEntity
  8
0
100
AcDbLine
 62
7
  6
CONTINUOUS
 10
7.7014731644
 20
5.9917542363
 11
7.7014731644
 21
5.9935216666
  0
LINE
  5
2A1
100
AcDbEntity
  8
0
100
AcDbLine
 62
7
  6
CONTINUOUS
 10
5.0828790229
 20
6.2835530675
 11
5.0881597183
 21
6.2835543759
  0
LINE
  5
2A2
100
AcDbEntity
  8
0
100
AcDbLine
 62
7
  6
CONTINUOUS
 10
4.692810941
 20
6.2877022206
 11
4.7478009236
 21
6.2877158458
  0
LINE
  5
2A3
100
AcDbEntity
  8
0
100
AcDbLine
 62
7
  6
CONTINUOUS
 10
4.8328790232
 20
6.283541009
 11
4.843440414
 21
6.2835405301
  0
LINE
  5
2A4
100
AcDbEntity
  8
0
100
AcDbLine
 62
7
  6
CONTINUOUS
 10
7.9941620276
 20
6.2840110781
 11
7.999442723
 21
6.2840110781
  0
LINE
  5
2A5
100
AcDbEntity
  8
0
100
AcDbLine
 62
7
  6
CONTINUOUS
 10
8.2388813323
 20
6.2840110781
 11
8.249442723
 21
6.2840110781
  0
LINE
  5
2A6
100
AcDbEntity
  8
0
100
AcDbLine
 62
7
  6
CONTINUOUS
 10
8.4888813323
 20
6.2840110781
 11
8.4941620276
 21
6.2840110781
  0
LINE
  5
2A7
100
AcDbEntity
  8
0
100
AcDbLine
 62
7
  6
CONTINUOUS
 10
7.9973827741
 20
6.3006466666
 11
8.4909412812
 21
6.3006466666
  0
LINE
  5
2A8
100
AcDbEntity
  8
0
100
AcDbLine
 62
7
  6
CONTINUOUS
 10
4.5881597188
 20
6.2835770491
 11
4.5934404142
 21
6.2835752617
  0
LINE
  5
2A9
100
AcDbEntity
  8
0
100
AcDbLine
 62
7
  6
CONTINUOUS
 10
4.5881604731
 20
6.3002360323
 11
5.0881604726
 21
6.3002133591
  0
LINE
  5
2AA
100
AcDbEntity
  8
0
100
AcDbLine
 62
7
  6
CONTINUOUS
 10
7.911230253
 20
6.6185216666
 11
7.9330557339
 21
5.9935216666
  0
LINE
  5
2AB
100
AcDbEntity
  8
0
100
AcDbLine
 62
7
  6
CONTINUOUS
 10
7.9941620276
 20
6.2991639117
 11
7.9941620276
 21
6.0381466666
  0
LINE
  5
2AC
100
AcDbEntity
  8
0
100
AcDbLine
 62
7
  6
CONTINUOUS
 10
7.999442723
 20
6.0381466666
 11
7.999442723
 21
6.2840110781
  0
LINE
  5
2AD
100
AcDbEntity
  8
0
100
AcDbLine
 62
7
  6
CONTINUOUS
 10
7.911230253
 20
6.6185216666
 11
3.2048812148
 21
6.6185216666
  0
LINE
  5
2AE
100
AcDbEntity
  8
0
100
AcDbLine
 62
7
  6
CONTINUOUS
 10
8.137967071
 20
4.2835892197
 11
8.1379855285
 21
3.5785892233
  0
LINE
  5
2AF
100
AcDbEntity
  8
0
100
AcDbLine
 62
7
  6
CONTINUOUS
 10
8.2388813323
 20
6.2840110781
 11
8.2388813323
 21
6.0381466666
  0
LINE
  5
2B0
100
AcDbEntity
  8
0
100
AcDbLine
 62
7
  6
CONTINUOUS
 10
8.249442723
 20
6.0381466666
 11
8.249442723
 21
6.2840110781
  0
LINE
  5
2B1
100
AcDbEntity
  8
0
100
AcDbLine
 62
7
  6
CONTINUOUS
 10
8.2579465479
 20
5.0674950271
 11
8.2579655002
 21
4.3435923611
  0
LINE
  5
2B2
100
AcDbEntity
  8
0
100
AcDbLine
 62
7
  6
CONTINUOUS
 10
8.2967131057
 20
5.9476648597
 11
8.2967131057
 21
5.8856821582
  0
LINE
  5
2B3
100
AcDbEntity
  8
0
100
AcDbLine
 62
7
  6
CONTINUOUS
 10
8.473489801
 20
5.9476648597
 11
8.473489801
 21
5.8856821582
  0
LINE
  5
2B4
100
AcDbEntity
  8
0
100
AcDbLine
 62
7
  6
CONTINUOUS
 10
8.4888813323
 20
6.2840110781
 11
8.4888813323
 21
6.0381466666
  0
LINE
  5
2B5
100
AcDbEntity
  8
0
100
AcDbLine
 62
7
  6
CONTINUOUS
 10
8.4941620276
 20
6.0381466666
 11
8.4941620276
 21
6.2991639117
  0
LINE
  5
2B6
100
AcDbEntity
  8
0
100
AcDbLine
 62
7
  6
CONTINUOUS
 10
8.5879120276
 20
6.0381466666
 11
8.5879120276
 21
5.9935216666
  0
LINE
  5
2B7
100
AcDbEntity
  8
0
100
AcDbLine
 62
7
  6
CONTINUOUS
 10
8.9911877203
 20
5.3197468309
 11
8.9249168813
 21
4.3405323131
  0
LINE
  5
2B8
100
AcDbEntity
  8
0
100
AcDbLine
 62
7
  6
CONTINUOUS
 10
9.0298874233
 20
5.3233458413
 11
8.9633072344
 21
4.3396257207
  0
LWPOLYLINE
  5
2B9
100
AcDbEntity
  8
0
100
AcDbPolyline
 62
7
  6
CONTINUOUS
 90
11
 70
0
 10
9.0298916846
 20
5.3234111813
 10
9.0300658273
 20
5.3250173591
 10
9.0304825446
 20
5.3270655501
 10
9.0310941887
 20
5.3290143075
 10
9.0318803703
 20
5.3308474271
 10
9.0328207784
 20
5.3325533416
 10
9.0338959221
 20
5.3341241764
 10
9.035084035
 20
5.3355510811
 10
9.0363606529
 20
5.3368261564
 10
9.0377164781
 20
5.337957459
 10
9.0378963204
 20
5.3380826664
  0
LINE
  5
2BA
100
AcDbEntity
  8
0
100
AcDbLine
 62
7
  6
CONTINUOUS
 10
9.3875196237
 20
5.726361175
 11
9.3875196237
 21
5.6643784735
  0
LINE
  5
2BB
100
AcDbEntity
  8
0
100
AcDbLine
 62
7
  6
CONTINUOUS
 10
9.452224385
 20
5.726361175
 11
9.452224385
 21
5.6643784735
  0
LINE
  5
2BC
100
AcDbEntity
  8
0
100
AcDbLine
 62
7
  6
CONTINUOUS
 10
9.5580557339
 20
5.9476648597
 11
9.5580557339
 21
5.6643784735
  0
LINE
  5
2BD
100
AcDbEntity
  8
0
100
AcDbLine
 62
7
  6
CONTINUOUS
 10
9.6204321193
 20
5.6186280258
 11
9.6204386645
 21
5.368628027
  0
ARC
  5
2BE
100
AcDbEntity
  8
0
100
AcDbCircle
 62
7
  6
CONTINUOUS
 10
-77.6492279636
 20
181.402140695
 40
196.1439978935
100
AcDbArc
 50
295.9841616884
 51
296.1232150443
  0
ARC
  5
2BF
100
AcDbEntity
  8
0
100
AcDbCircle
 62
7
  6
CONTINUOUS
 10
104.7390205357
 20
33.6955701452
 40
103.0130915101
100
AcDbArc
 50
196.0042552111
 51
196.1267440743
  0
ARC
  5
2C0
100
AcDbEntity
  8
0
100
AcDbCircle
 62
7
  6
CONTINUOUS
 10
5.0121383202
 20
70.8486116441
 40
65.5286730071
100
AcDbArc
 50
269.4827883592
 51
270.5184248809
  0
ARC
  5
2C1
100
AcDbEntity
  8
0
100
AcDbCircle
 62
7
  6
CONTINUOUS
 10
5.0091777593
 20
70.8286730758
 40
65.4898104722
100
AcDbArc
 50
269.4826449816
 51
270.5185817588
  0
ARC
  5
2C2
100
AcDbEntity
  8
0
100
AcDbCircle
 62
7
  6
CONTINUOUS
 10
8.2864902548
 20
5.1249988045
 40
0.7845784224
100
AcDbArc
 50
268.5349089161
 51
269.2291253925
  0
ARC
  5
2C3
100
AcDbEntity
  8
0
100
AcDbCircle
 62
7
  6
CONTINUOUS
 10
8.2806378763
 20
4.9087369529
 40
0.5682377271
100
AcDbArc
 50
267.6955533463
 51
268.567286536
  0
ARC
  5
2C4
100
AcDbEntity
  8
0
100
AcDbCircle
 62
7
  6
CONTINUOUS
 10
4.71154833
 20
5.8735497528
 40
0.4266991621
100
AcDbArc
 50
84.0836345527
 51
84.9303644155
  0
ARC
  5
2C5
100
AcDbEntity
  8
0
100
AcDbCircle
 62
7
  6
CONTINUOUS
 10
4.7120173767
 20
5.8787756868
 40
0.4214522238
100
AcDbArc
 50
84.9311005307
 51
85.1293500748
  0
ARC
  5
2C6
100
AcDbEntity
  8
0
100
AcDbCircle
 62
7
  6
CONTINUOUS
 10
8.8160004303
 20
5.1702337876
 40
0.156
100
AcDbArc
 50
93.0015000592
 51
115.1857611629
  0
ARC
  5
2C7
100
AcDbEntity
  8
0
100
AcDbCircle
 62
7
  6
CONTINUOUS
 10
2.2998872885
 20
5.170063191
 40
0.156
100
AcDbArc
 50
64.8172389268
 51
87.0015000306
  0
ARC
  5
2C8
100
AcDbEntity
  8
0
100
AcDbCircle
 62
7
  6
CONTINUOUS
 10
8.7699265838
 20
5.1794604284
 40
0.1280156822
100
AcDbArc
 50
112.3152049923
 51
116.1227242088
  0
ARC
  5
2C9
100
AcDbEntity
  8
0
100
AcDbCircle
 62
7
  6
CONTINUOUS
 10
8.7693060612
 20
5.1811220106
 40
0.1262429369
100
AcDbArc
 50
100.9147086539
 51
112.3410085768
  0
ARC
  5
2CA
100
AcDbEntity
  8
0
100
AcDbCircle
 62
7
  6
CONTINUOUS
 10
8.7689755036
 20
5.1827584541
 40
0.1245735069
100
AcDbArc
 50
93.1482277501
 51
100.9079377882
  0
ARC
  5
2CB
100
AcDbEntity
  8
0
100
AcDbCircle
 62
7
  6
CONTINUOUS
 10
4.4889470243
 20
4.3431765505
 40
0.0600000077
100
AcDbArc
 50
183.4329217149
 51
270.0006326829
  0
ARC
  5
2CC
100
AcDbEntity
  8
0
100
AcDbCircle
 62
7
  6
CONTINUOUS
 10
8.9034441884
 20
4.3436773755
 40
0.0600000016
100
AcDbArc
 50
270.0036140649
 51
356.1280082347
  0
ARC
  5
2CD
100
AcDbEntity
  8
0
100
AcDbCircle
 62
7
  6
CONTINUOUS
 10
2.5916471287
 20
4.343609804
 40
0.06
100
AcDbArc
 50
184.2171387867
 51
269.9969860216
  0
ARC
  5
2CE
100
AcDbEntity
  8
0
100
AcDbCircle
 62
7
  6
CONTINUOUS
 10
2.917965502
 20
4.343452556
 40
0.06
100
AcDbArc
 50
180.0015000449
 51
270.0015000449
  0
ARC
  5
2CF
100
AcDbEntity
  8
0
100
AcDbCircle
 62
7
  6
CONTINUOUS
 10
8.1979655002
 20
4.3435907902
 40
0.06
100
AcDbArc
 50
270.0015000474
 51
0.0015000449
  0
ARC
  5
2D0
100
AcDbEntity
  8
0
100
AcDbCircle
 62
7
  6
CONTINUOUS
 10
4.1680261099
 20
2.0284852938
 40
0.06
100
AcDbArc
 50
180.0015000449
 51
270.0015000449
  0
ARC
  5
2D1
100
AcDbEntity
  8
0
100
AcDbCircle
 62
7
  6
CONTINUOUS
 10
6.948026109
 20
2.0285580762
 40
0.06
100
AcDbArc
 50
270.0015000449
 51
0.0015000449
  0
ARC
  5
2D2
100
AcDbEntity
  8
0
100
AcDbCircle
 62
7
  6
CONTINUOUS
 10
4.0479886715
 20
3.4584821447
 40
0.06
100
AcDbArc
 50
0.0015000449
 51
87.11922135
  0
ARC
  5
2D3
100
AcDbEntity
  8
0
100
AcDbCircle
 62
7
  6
CONTINUOUS
 10
7.0679886705
 20
3.4585612105
 40
0.06
100
AcDbArc
 50
92.8837818839
 51
180.0015000449
  0
ARC
  5
2D4
100
AcDbEntity
  8
0
100
AcDbCircle
 62
7
  6
CONTINUOUS
 10
3.0379855302
 20
3.5784557016
 40
0.06
100
AcDbArc
 50
180.0015000449
 51
270.0015000449
  0
ARC
  5
2D5
100
AcDbEntity
  8
0
100
AcDbCircle
 62
7
  6
CONTINUOUS
 10
8.0779855285
 20
3.5785876524
 40
0.06
100
AcDbArc
 50
270.0015000449
 51
0.0015000449
  0
ARC
  5
2D6
100
AcDbEntity
  8
0
100
AcDbCircle
 62
7
  6
CONTINUOUS
 10
8.3337201426
 20
5.1045867677
 40
0.0575157052
100
AcDbArc
 50
199.3389649346
 51
202.3635676479
  0
ARC
  5
2D7
100
AcDbEntity
  8
0
100
AcDbCircle
 62
7
  6
CONTINUOUS
 10
2.8379465497
 20
5.0673531276
 40
0.02
100
AcDbArc
 50
0.0015000449
 51
64.8172389268
  0
ARC
  5
2D8
100
AcDbEntity
  8
0
100
AcDbCircle
 62
7
  6
CONTINUOUS
 10
8.2779465479
 20
5.0674955507
 40
0.02
100
AcDbArc
 50
115.1857611586
 51
180.0015000449
  0
ARC
  5
2D9
100
AcDbEntity
  8
0
100
AcDbCircle
 62
7
  6
CONTINUOUS
 10
9.0736857339
 20
5.9730496158
 40
0.015625
100
AcDbArc
 50
3.256751624
 51
90.0
  0
ARC
  5
2DA
100
AcDbEntity
  8
0
100
AcDbCircle
 62
7
  6
CONTINUOUS
 10
2.0424257339
 20
5.9730496158
 40
0.015625
100
AcDbArc
 50
90.0
 51
176.743248376
  0
ARC
  5
2DB
100
AcDbEntity
  8
0
100
AcDbCircle
 62
7
  6
CONTINUOUS
 10
9.3549357339
 20
5.9583099278
 40
0.015625
100
AcDbArc
 50
357.0
 51
90.0
  0
ARC
  5
2DC
100
AcDbEntity
  8
0
100
AcDbCircle
 62
7
  6
CONTINUOUS
 10
1.7611757339
 20
5.9583099278
 40
0.015625
100
AcDbArc
 50
90.0
 51
183.0
  0
ARC
  5
2DD
100
AcDbEntity
  8
0
100
AcDbCircle
 62
7
  6
CONTINUOUS
 10
9.0736857339
 20
5.6389937174
 40
0.015625
100
AcDbArc
 50
270.0
 51
356.743248376
  0
ARC
  5
2DE
100
AcDbEntity
  8
0
100
AcDbCircle
 62
7
  6
CONTINUOUS
 10
2.0424257339
 20
5.6389937174
 40
0.015625
100
AcDbArc
 50
183.256751624
 51
270.0
  0
ARC
  5
2DF
100
AcDbEntity
  8
0
100
AcDbCircle
 62
7
  6
CONTINUOUS
 10
9.3549357339
 20
5.6537334053
 40
0.015625
100
AcDbArc
 50
270.0
 51
3.0
  0
ARC
  5
2E0
100
AcDbEntity
  8
0
100
AcDbCircle
 62
7
  6
CONTINUOUS
 10
1.7611757339
 20
5.6537334053
 40
0.015625
100
AcDbArc
 50
177.0
 51
270.0
  0
LINE
  5
2E1
100
AcDbEntity
  8
0
100
AcDbLine
 62
7
  6
CONTINUOUS
 10
7.9973827741
 20
6.3006466666
 11
7.9941620276
 21
6.2991639117
  0
LINE
  5
2E2
100
AcDbEntity
  8
0
100
AcDbLine
 62
7
  6
CONTINUOUS
 10
8.4941620276
 20
6.2991639117
 11
8.4909412812
 21
6.3006466666
  0
SPLINE
  5
2E3
100
AcDbEntity
  8
0
100
AcDbSpline
 62
7
  6
CONTINUOUS
 70
0
 71
3
 72
11
 73
7
 74
0
 42
0.0000001
 43
0.0000001
 44
0.0000000001
 40
0.0
 40
0.0
 40
0.0
 40
0.0
 40
0.2492927649
 40
0.4989145477
 40
0.7491094734
 40
1.0
 40
1.0
 40
1.0
 40
1.0
 10
8.3691620276
 20
6.3006466666
 30
0.0
 10
8.3792321569
 20
6.3006466666
 30
0.0
 10
8.3993934252
 20
6.2998816633
 30
0.0
 10
8.4294917769
 20
6.2965394918
 30
0.0
 10
8.4593655837
 20
6.2912229379
 30
0.0
 10
8.4790741021
 20
6.2865664223
 30
0.0
 10
8.4888813323
 20
6.2840110781
 30
0.0
  0
SPLINE
  5
2E4
100
AcDbEntity
  8
0
100
AcDbSpline
 62
7
  6
CONTINUOUS
 70
0
 71
3
 72
11
 73
7
 74
0
 42
0.0000001
 43
0.0000001
 44
0.0000000001
 40
0.0
 40
0.0
 40
0.0
 40
0.0
 40
0.250890471
 40
0.5010854972
 40
0.7507074095
 40
1.0
 40
1.0
 40
1.0
 40
1.0
 10
7.999442723
 20
6.2840110781
 30
0.0
 10
8.0092499477
 20
6.2865664208
 30
0.0
 10
8.0289584675
 20
6.2912228911
 30
0.0
 10
8.0588322846
 20
6.2965394643
 30
0.0
 10
8.0889306817
 20
6.2998809601
 30
0.0
 10
8.1090919088
 20
6.3006466666
 30
0.0
 10
8.1191620276
 20
6.3006466666
 30
0.0
  0
SPLINE
  5
2E5
100
AcDbEntity
  8
0
100
AcDbSpline
 62
7
  6
CONTINUOUS
 70
0
 71
3
 72
11
 73
7
 74
0
 42
0.0000001
 43
0.0000001
 44
0.0000000001
 40
0.0
 40
0.0
 40
0.0
 40
0.0
 40
0.2492927649
 40
0.4989145477
 40
0.7491094734
 40
1.0
 40
1.0
 40
1.0
 40
1.0
 10
8.1191620276
 20
6.3006466666
 30
0.0
 10
8.1292321569
 20
6.3006466666
 30
0.0
 10
8.1493934252
 20
6.2998816633
 30
0.0
 10
8.1794917769
 20
6.2965394918
 30
0.0
 10
8.2093655837
 20
6.2912229379
 30
0.0
 10
8.2290741021
 20
6.2865664223
 30
0.0
 10
8.2388813323
 20
6.2840110781
 30
0.0
  0
SPLINE
  5
2E6
100
AcDbEntity
  8
0
100
AcDbSpline
 62
7
  6
CONTINUOUS
 70
0
 71
3
 72
11
 73
7
 74
0
 42
0.0000001
 43
0.0000001
 44
0.0000000001
 40
0.0
 40
0.0
 40
0.0
 40
0.0
 40
0.250890471
 40
0.5010854972
 40
0.7507074095
 40
1.0
 40
1.0
 40
1.0
 40
1.0
 10
8.249442723
 20
6.2840110781
 30
0.0
 10
8.2592499477
 20
6.2865664208
 30
0.0
 10
8.2789584675
 20
6.2912228911
 30
0.0
 10
8.3088322846
 20
6.2965394643
 30
0.0
 10
8.3389306817
 20
6.2998809601
 30
0.0
 10
8.3590919088
 20
6.3006466666
 30
0.0
 10
8.3691620276
 20
6.3006466666
 30
0.0
  0
LINE
  5
2E7
100
AcDbEntity
  8
0
100
AcDbLine
 62
7
  6
CONTINUOUS
 10
4.7494118624
 20
6.3001891671
 11
4.747801422
 21
6.2987060132
  0
LINE
  5
2E8
100
AcDbEntity
  8
0
100
AcDbLine
 62
7
  6
CONTINUOUS
 10
4.692810941
 20
6.2877022206
 11
4.6864657834
 21
6.300200648
  0
LINE
  5
2E9
100
AcDbEntity
  8
0
100
AcDbLine
 62
7
  6
CONTINUOUS
 10
4.9397896939
 20
5.6185121937
 11
4.9535960045
 21
5.6181380109
  0
LINE
  5
2EA
100
AcDbEntity
  8
0
100
AcDbLine
 62
7
  6
CONTINUOUS
 10
4.6785193897
 20
6.2987159243
 11
4.6801298302
 21
6.3001990781
  0
SPLINE
  5
2EB
100
AcDbEntity
  8
0
100
AcDbSpline
 62
7
  6
CONTINUOUS
 70
0
 71
3
 72
12
 73
8
 74
0
 42
0.0000001
 43
0.0000001
 44
0.0000000001
 40
0.0
 40
0.0
 40
0.0
 40
0.0
 40
0.2507035688
 40
0.5009052216
 40
0.6258332595
 40
0.7506586233
 40
1.0
 40
1.0
 40
1.0
 40
1.0
 10
4.5934404142
 20
6.2835752617
 30
0.0
 10
4.600436989
 20
6.285397247
 30
0.0
 10
4.6144770334
 20
6.2888092333
 30
0.0
 10
4.6321682495
 20
6.2924068414
 30
0.0
 10
4.6463830604
 20
6.2948255864
 30
0.0
 10
4.6606240756
 20
6.2969182273
 30
0.0
 10
4.6713545485
 20
6.2981074435
 30
0.0
 10
4.6785193897
 20
6.2987159243
 30
0.0
  0
LINE
  5
2EC
100
AcDbEntity
  8
0
100
AcDbLine
 62
7
  6
CONTINUOUS
 10
4.8240790699
 20
5.6181070597
 11
4.821554277
 21
5.6185173336
  0
SPLINE
  5
2ED
100
AcDbEntity
  8
0
100
AcDbSpline
 62
7
  6
CONTINUOUS
 70
0
 71
3
 72
11
 73
7
 74
0
 42
0.0000001
 43
0.0000001
 44
0.0000000001
 40
0.0
 40
0.0
 40
0.0
 40
0.0
 40
0.2508926113
 40
0.5010885183
 40
0.7507097859
 40
1.0
 40
1.0
 40
1.0
 40
1.0
 10
4.843440414
 20
6.2835405301
 30
0.0
 10
4.8532477337
 20
6.2860963809
 30
0.0
 10
4.872956411
 20
6.2907538727
 30
0.0
 10
4.9028304519
 20
6.2960720122
 30
0.0
 10
4.932928987
 20
6.2994150895
 30
0.0
 10
4.9530903173
 20
6.3001818597
 30
0.0
 10
4.9631604728
 20
6.300182387
 30
0.0
  0
SPLINE
  5
2EE
100
AcDbEntity
  8
0
100
AcDbSpline
 62
7
  6
CONTINUOUS
 70
0
 71
3
 72
11
 73
7
 74
0
 42
0.0000001
 43
0.0000001
 44
0.0000000001
 40
0.0
 40
0.0
 40
0.0
 40
0.0
 40
0.2493891049
 40
0.4991486763
 40
0.7493453273
 40
1.0
 40
1.0
 40
1.0
 40
1.0
 10
4.7555310504
 20
6.2979760659
 30
0.0
 10
4.7620430651
 20
6.2973015184
 30
0.0
 10
4.7750477564
 20
6.2956554242
 30
0.0
 10
4.7944469653
 20
6.2923636734
 30
0.0
 10
4.8137384288
 20
6.2883287179
 30
0.0
 10
4.8265117646
 20
6.2852009744
 30
0.0
 10
4.8328790232
 20
6.283541009
 30
0.0
  0
SPLINE
  5
2EF
100
AcDbEntity
  8
0
100
AcDbSpline
 62
7
  6
CONTINUOUS
 70
0
 71
3
 72
11
 73
7
 74
0
 42
0.0000001
 43
0.0000001
 44
0.0000000001
 40
0.0
 40
0.0
 40
0.0
 40
0.0
 40
0.2492951419
 40
0.4989175694
 40
0.7491116141
 40
1.0
 40
1.0
 40
1.0
 40
1.0
 10
4.9631604728
 20
6.300182387
 30
0.0
 10
4.9732305653
 20
6.3001829143
 30
0.0
 10
4.9933917304
 20
6.2994189748
 30
0.0
 10
5.0234899441
 20
6.2960783848
 30
0.0
 10
5.053363527
 20
6.2907633974
 30
0.0
 10
5.0730718878
 20
6.2861079035
 30
0.0
 10
5.0828790229
 20
6.2835530675
 30
0.0
  0
LINE
  5
2F0
100
AcDbEntity
  8
0
100
AcDbLine
 62
7
  6
CONTINUOUS
 10
9.3875196237
 20
5.6643784735
 11
9.2062998148
 21
5.6545511546
  0
LINE
  5
2F1
100
AcDbEntity
  8
0
100
AcDbLine
 62
7
  6
CONTINUOUS
 10
2.9520604695
 20
5.6545511546
 11
2.8193983621
 21
5.6643784735
  0
LINE
  5
2F2
100
AcDbEntity
  8
0
100
AcDbLine
 62
7
  6
CONTINUOUS
 10
8.6312107643
 20
5.6233686998
 11
8.5418057791
 21
5.6185216666
  0
SPLINE
  5
2F3
100
AcDbEntity
  8
0
100
AcDbSpline
 62
7
  6
CONTINUOUS
 70
0
 71
3
 72
15
 73
11
 74
0
 42
0.0000001
 43
0.0000001
 44
0.0000000001
 40
0.0
 40
0.0
 40
0.0
 40
0.0
 40
0.114190409
 40
0.2376047229
 40
0.3672131643
 40
0.5000000397
 40
0.6327869094
 40
0.7623953328
 40
0.8858096091
 40
1.0
 40
1.0
 40
1.0
 40
1.0
 10
5.3204696922
 20
5.6185216666
 30
0.0
 10
5.3385491562
 20
5.619120758
 30
0.0
 10
5.3761757979
 20
5.6201503721
 30
0.0
 10
5.4343382831
 20
5.6212236545
 30
0.0
 10
5.4954531357
 20
5.6218748281
 30
0.0
 10
5.5580557519
 20
5.62209353
 30
0.0
 10
5.6206583651
 20
5.6218748279
 30
0.0
 10
5.681773208
 20
5.6212236541
 30
0.0
 10
5.7399356816
 20
5.6201503719
 30
0.0
 10
5.7775623145
 20
5.6191207579
 30
0.0
 10
5.7956417756
 20
5.6185216666
 30
0.0
  0
SPLINE
  5
2F4
100
AcDbEntity
  8
0
100
AcDbSpline
 62
7
  6
CONTINUOUS
 70
0
 71
3
 72
22
 73
18
 74
0
 42
0.0000001
 43
0.0000001
 44
0.0000000001
 40
0.0
 40
0.0
 40
0.0
 40
0.0
 40
0.0079030279
 40
0.0179404653
 40
0.03008997
 40
0.044321963
 40
0.0788976692
 40
0.1213087679
 40
0.1710622387
 40
0.2276390541
 40
0.2903983489
 40
0.3586204799
 40
0.4315577036
 40
0.5083578217
 40
0.6700250374
 40
0.8364975377
 40
1.0
 40
1.0
 40
1.0
 40
1.0
 10
3.7856867621
 20
5.6185216666
 30
0.0
 10
3.7862923191
 20
5.6186647367
 30
0.0
 10
3.7876813937
 20
5.6189274118
 30
0.0
 10
3.7900269903
 20
5.6192620425
 30
0.0
 10
3.7928770996
 20
5.6195797813
 30
0.0
 10
3.7976576538
 20
5.6200066889
 30
0.0
 10
3.8048261624
 20
5.6204616763
 30
0.0
 10
3.8147956545
 20
5.6208958459
 30
0.0
 10
3.826501802
 20
5.6212392211
 30
0.0
 10
3.8398126032
 20
5.621486726
 30
0.0
 10
3.8545790174
 20
5.6216353767
 30
0.0
 10
3.8706341741
 20
5.6216832564
 30
0.0
 10
3.8877947757
 20
5.6216285594
 30
0.0
 10
3.9123117523
 20
5.6214167046
 30
0.0
 10
3.9441902006
 20
5.620899408
 30
0.0
 10
3.9828867402
 20
5.6199216342
 30
0.0
 10
4.0088518196
 20
5.6190301224
 30
0.0
 10
4.0217148037
 20
5.6185216666
 30
0.0
  0
LINE
  5
2F5
100
AcDbEntity
  8
0
100
AcDbLine
 62
7
  6
CONTINUOUS
 10
3.438503865
 20
5.6185216666
 11
3.3730548733
 21
5.6233686998
  0
LINE
  5
2F6
100
AcDbEntity
  8
0
100
AcDbLine
 62
7
  6
CONTINUOUS
 10
8.6731973573
 20
5.9935216666
 11
8.7412275321
 21
5.9903827919
  0
LINE
  5
2F7
100
AcDbEntity
  8
0
100
AcDbLine
 62
7
  6
CONTINUOUS
 10
2.5743056886
 20
5.9935216666
 11
2.4849007034
 21
5.9886746334
  0
SPLINE
  5
2F8
100
AcDbEntity
  8
0
100
AcDbSpline
 62
7
  6
CONTINUOUS
 70
0
 71
3
 72
22
 73
18
 74
0
 42
0.0000001
 43
0.0000001
 44
0.0000000001
 40
0.0
 40
0.0
 40
0.0
 40
0.0
 40
0.0079030279
 40
0.0179404653
 40
0.03008997
 40
0.044321963
 40
0.0788976692
 40
0.1213087679
 40
0.1710622387
 40
0.2276390541
 40
0.2903983489
 40
0.3586204799
 40
0.4315577036
 40
0.5083578217
 40
0.6700250374
 40
0.8364975377
 40
1.0
 40
1.0
 40
1.0
 40
1.0
 10
3.7856867621
 20
5.9935216666
 30
0.0
 10
3.7862923191
 20
5.9933785964
 30
0.0
 10
3.7876813937
 20
5.9931159214
 30
0.0
 10
3.7900269903
 20
5.9927812906
 30
0.0
 10
3.7928770996
 20
5.9924635519
 30
0.0
 10
3.7976576538
 20
5.9920366443
 30
0.0
 10
3.8048261624
 20
5.9915816569
 30
0.0
 10
3.8147956545
 20
5.9911474873
 30
0.0
 10
3.826501802
 20
5.9908041121
 30
0.0
 10
3.8398126032
 20
5.9905566072
 30
0.0
 10
3.8545790174
 20
5.9904079565
 30
0.0
 10
3.8706341741
 20
5.9903600768
 30
0.0
 10
3.8877947757
 20
5.9904147738
 30
0.0
 10
3.9123117523
 20
5.9906266285
 30
0.0
 10
3.9441902006
 20
5.9911439252
 30
0.0
 10
3.9828867402
 20
5.9921216989
 30
0.0
 10
4.0088518196
 20
5.9930132107
 30
0.0
 10
4.0217148037
 20
5.9935216666
 30
0.0
  0
SPLINE
  5
2F9
100
AcDbEntity
  8
0
100
AcDbSpline
 62
7
  6
CONTINUOUS
 70
0
 71
3
 72
15
 73
11
 74
0
 42
0.0000001
 43
0.0000001
 44
0.0000000001
 40
0.0
 40
0.0
 40
0.0
 40
0.0
 40
0.114190409
 40
0.2376047229
 40
0.3672131643
 40
0.5000000397
 40
0.6327869094
 40
0.7623953328
 40
0.8858096091
 40
1.0
 40
1.0
 40
1.0
 40
1.0
 10
5.3204696922
 20
5.9935216666
 30
0.0
 10
5.3385491562
 20
5.9929225752
 30
0.0
 10
5.3761757979
 20
5.9918929611
 30
0.0
 10
5.4343382831
 20
5.9908196787
 30
0.0
 10
5.4954531357
 20
5.990168505
 30
0.0
 10
5.5580557519
 20
5.9899498032
 30
0.0
 10
5.6206583651
 20
5.9901685053
 30
0.0
 10
5.681773208
 20
5.9908196791
 30
0.0
 10
5.7399356816
 20
5.9918929613
 30
0.0
 10
5.7775623145
 20
5.9929225753
 30
0.0
 10
5.7956417756
 20
5.9935216666
 30
0.0
  0
LINE
  5
2FA
100
AcDbEntity
  8
0
100
AcDbLine
 62
7
  6
CONTINUOUS
 10
7.7430565944
 20
5.9886746334
 11
7.6776076028
 21
5.9935216666
  0
LINE
  5
2FB
100
AcDbEntity
  8
0
100
AcDbLine
 62
7
  6
CONTINUOUS
 10
1.909811653
 20
5.9574921785
 11
1.7285918441
 21
5.9476648597
  0
LINE
  5
2FC
100
AcDbEntity
  8
0
100
AcDbLine
 62
7
  6
CONTINUOUS
 10
8.2967131057
 20
5.9476648597
 11
8.1640509982
 21
5.9574921785
  0
LINE
  5
2FD
100
AcDbEntity
  8
0
100
AcDbLine
 62
7
  6
CONTINUOUS
 10
8.7412275321
 20
5.6216605413
 11
8.6731973573
 21
5.6185216666
  0
SPLINE
  5
2FE
100
AcDbEntity
  8
0
100
AcDbSpline
 62
7
  6
CONTINUOUS
 70
0
 71
3
 72
15
 73
11
 74
0
 42
0.0000001
 43
0.0000001
 44
0.0000000001
 40
0.0
 40
0.0
 40
0.0
 40
0.0
 40
0.1229656603
 40
0.2462430405
 40
0.3699794004
 40
0.4944906112
 40
0.6199353473
 40
0.7464406781
 40
0.8735208516
 40
1.0
 40
1.0
 40
1.0
 40
1.0
 10
2.1319863699
 20
5.9886741382
 30
0.0
 10
2.1329416004
 20
5.9886748452
 30
0.0
 10
2.1348594891
 20
5.988484969
 30
0.0
 10
2.1376286693
 20
5.9876539675
 30
0.0
 10
2.1401960401
 20
5.9862948618
 30
0.0
 10
2.1424647779
 20
5.9844559657
 30
0.0
 10
2.1443641908
 20
5.9822090618
 30
0.0
 10
2.1458076963
 20
5.979622205
 30
0.0
 10
2.1467567621
 20
5.9768105531
 30
0.0
 10
2.1470444985
 20
5.9748486315
 30
0.0
 10
2.1470942039
 20
5.9738673651
 30
0.0
  0
SPLINE
  5
2FF
100
AcDbEntity
  8
0
100
AcDbSpline
 62
7
  6
CONTINUOUS
 70
0
 71
3
 72
15
 73
11
 74
0
 42
0.0000001
 43
0.0000001
 44
0.0000000001
 40
0.0
 40
0.0
 40
0.0
 40
0.0
 40
0.1228636787
 40
0.2460998238
 40
0.3698329271
 40
0.494243224
 40
0.6195416175
 40
0.7457842539
 40
0.8729117003
 40
1.0
 40
1.0
 40
1.0
 40
1.0
 10
2.1966911312
 20
5.9886741382
 30
0.0
 10
2.1957417966
 20
5.9886734355
 30
0.0
 10
2.1938353101
 20
5.9884799264
 30
0.0
 10
2.1910859846
 20
5.9876422495
 30
0.0
 10
2.1885327004
 20
5.9862934198
 30
0.0
 10
2.1862768071
 20
5.9844659451
 30
0.0
 10
2.1843893122
 20
5.9822359115
 30
0.0
 10
2.1829392908
 20
5.9796741768
 30
0.0
 10
2.1819913624
 20
5.97687485
 30
0.0
 10
2.1816990461
 20
5.9749200218
 30
0.0
 10
2.181642621
 20
5.9739396668
 30
0.0
  0
SPLINE
  5
300
100
AcDbEntity
  8
0
100
AcDbSpline
 62
7
  6
CONTINUOUS
 70
0
 71
3
 72
15
 73
11
 74
0
 42
0.0000001
 43
0.0000001
 44
0.0000000001
 40
0.0
 40
0.0
 40
0.0
 40
0.0
 40
0.1229655743
 40
0.2462430397
 40
0.3699794007
 40
0.494490681
 40
0.6199357077
 40
0.7464410796
 40
0.8735210117
 40
1.0
 40
1.0
 40
1.0
 40
1.0
 10
1.8601605975
 20
5.9739344498
 30
0.0
 10
1.8611157834
 20
5.9739351559
 30
0.0
 10
1.8630335846
 20
5.9737452585
 30
0.0
 10
1.8658026101
 20
5.9729141917
 30
0.0
 10
1.8683697898
 20
5.9715550011
 30
0.0
 10
1.8706383008
 20
5.9697160324
 30
0.0
 10
1.8725374746
 20
5.967469101
 30
0.0
 10
1.8739807653
 20
5.9648822828
 30
0.0
 10
1.8749296727
 20
5.9620707277
 30
0.0
 10
1.8752173567
 20
5.9601088974
 30
0.0
 10
1.8752670552
 20
5.9591276772
 30
0.0
  0
SPLINE
  5
301
100
AcDbEntity
  8
0
100
AcDbSpline
 62
7
  6
CONTINUOUS
 70
0
 71
3
 72
15
 73
11
 74
0
 42
0.0000001
 43
0.0000001
 44
0.0000000001
 40
0.0
 40
0.0
 40
0.0
 40
0.0
 40
0.1227907052
 40
0.2459962032
 40
0.3697497749
 40
0.4942959106
 40
0.6198134544
 40
0.7463731868
 40
0.8735449569
 40
1.0
 40
1.0
 40
1.0
 40
1.0
 10
1.9248653588
 20
5.9739344498
 30
0.0
 10
1.9238470253
 20
5.9739336971
 30
0.0
 10
1.9218009264
 20
5.9737106873
 30
0.0
 10
1.9188675506
 20
5.972749541
 30
0.0
 10
1.9161764722
 20
5.9712036372
 30
0.0
 10
1.9138500296
 20
5.9691222642
 30
0.0
 10
1.9119679978
 20
5.9666032723
 30
0.0
 10
1.9106245245
 20
5.9637354079
 30
0.0
 10
1.9098661275
 20
5.9606560705
 30
0.0
 10
1.909758604
 20
5.9585395589
 30
0.0
 10
1.909811653
 20
5.9574921785
 30
0.0
  0
SPLINE
  5
302
100
AcDbEntity
  8
0
100
AcDbSpline
 62
7
  6
CONTINUOUS
 70
0
 71
3
 72
15
 73
11
 74
0
 42
0.0000001
 43
0.0000001
 44
0.0000000001
 40
0.0
 40
0.0
 40
0.0
 40
0.0
 40
0.1228631131
 40
0.2460990795
 40
0.3698317621
 40
0.4942418592
 40
0.6195402501
 40
0.745783396
 40
0.8729115984
 40
1.0
 40
1.0
 40
1.0
 40
1.0
 10
8.9194200462
 20
5.6233691843
 30
0.0
 10
8.9203693875
 20
5.6233698777
 30
0.0
 10
8.9222758897
 20
5.6235633814
 30
0.0
 10
8.9250252595
 20
5.6244009903
 30
0.0
 10
8.9275785952
 20
5.6257497885
 30
0.0
 10
8.9298345285
 20
5.6275772593
 30
0.0
 10
8.9317220837
 20
5.6298072914
 30
0.0
 10
8.9331721264
 20
5.6323690672
 30
0.0
 10
8.9341200769
 20
5.6351684327
 30
0.0
 10
8.9344124125
 20
5.6371232885
 30
0.0
 10
8.9344688426
 20
5.6381036554
 30
0.0
  0
SPLINE
  5
303
100
AcDbEntity
  8
0
100
AcDbSpline
 62
7
  6
CONTINUOUS
 70
0
 71
3
 72
15
 73
11
 74
0
 42
0.0000001
 43
0.0000001
 44
0.0000000001
 40
0.0
 40
0.0
 40
0.0
 40
0.0
 40
0.1229658625
 40
0.2462435554
 40
0.3699802775
 40
0.4944915881
 40
0.6199361345
 40
0.7464406632
 40
0.8735204192
 40
1.0
 40
1.0
 40
1.0
 40
1.0
 10
8.9841248074
 20
5.6233691843
 30
0.0
 10
8.9831695869
 20
5.6233684866
 30
0.0
 10
8.9812517188
 20
5.6235584002
 30
0.0
 10
8.97848259
 20
5.6243894664
 30
0.0
 10
8.975915258
 20
5.6257485806
 30
0.0
 10
8.9736465756
 20
5.6275874937
 30
0.0
 10
8.9717472118
 20
5.6298343793
 30
0.0
 10
8.9703037219
 20
5.6324211912
 30
0.0
 10
8.9693546916
 20
5.6352328121
 30
0.0
 10
8.9690669689
 20
5.6371947102
 30
0.0
 10
8.9690172639
 20
5.6381759681
 30
0.0
  0
SPLINE
  5
304
100
AcDbEntity
  8
0
100
AcDbSpline
 62
7
  6
CONTINUOUS
 70
0
 71
3
 72
15
 73
11
 74
0
 42
0.0000001
 43
0.0000001
 44
0.0000000001
 40
0.0
 40
0.0
 40
0.0
 40
0.0
 40
0.1227902146
 40
0.2459955546
 40
0.3697487407
 40
0.4942947784
 40
0.6198124632
 40
0.7463729868
 40
0.8735453005
 40
1.0
 40
1.0
 40
1.0
 40
1.0
 10
9.191245819
 20
5.6381088727
 30
0.0
 10
9.1922641599
 20
5.6381096154
 30
0.0
 10
9.1943102753
 20
5.6383326183
 30
0.0
 10
9.1972437026
 20
5.6392936882
 30
0.0
 10
9.19993483
 20
5.6408395727
 30
0.0
 10
9.2022613234
 20
5.642920936
 30
0.0
 10
9.204143414
 20
5.6454399406
 30
0.0
 10
9.2054868975
 20
5.6483078544
 30
0.0
 10
9.2062453277
 20
5.6513872271
 30
0.0
 10
9.2063528643
 20
5.6535037652
 30
0.0
 10
9.2062998148
 20
5.6545511546
 30
0.0
  0
SPLINE
  5
305
100
AcDbEntity
  8
0
100
AcDbSpline
 62
7
  6
CONTINUOUS
 70
0
 71
3
 72
15
 73
11
 74
0
 42
0.0000001
 43
0.0000001
 44
0.0000000001
 40
0.0
 40
0.0
 40
0.0
 40
0.0
 40
0.1229657759
 40
0.246243554
 40
0.3699802777
 40
0.4944916575
 40
0.6199364943
 40
0.746441065
 40
0.8735205799
 40
1.0
 40
1.0
 40
1.0
 40
1.0
 10
9.2559505803
 20
5.6381088727
 30
0.0
 10
9.2549954043
 20
5.638108176
 30
0.0
 10
9.2530776237
 20
5.6382981106
 30
0.0
 10
9.2503086495
 20
5.6391292421
 30
0.0
 10
9.2477415085
 20
5.6404884412
 30
0.0
 10
9.2454730528
 20
5.6423274269
 30
0.0
 10
9.2435739281
 20
5.64457434
 30
0.0
 10
9.2421306529
 20
5.6471611133
 30
0.0
 10
9.241181781
 20
5.6499726375
 30
0.0
 10
9.2408941107
 20
5.6519344443
 30
0.0
 10
9.2408444126
 20
5.652915656
 30
0.0
  0
SPLINE
  5
306
100
AcDbEntity
  8
0
100
AcDbSpline
 62
7
  6
CONTINUOUS
 70
0
 71
3
 72
15
 73
11
 74
0
 42
0.0000001
 43
0.0000001
 44
0.0000000001
 40
0.0
 40
0.0
 40
0.0
 40
0.0
 40
0.1437956881
 40
0.2865390488
 40
0.4243526471
 40
0.5547653413
 40
0.6767788105
 40
0.7904022975
 40
0.8972219228
 40
1.0
 40
1.0
 40
1.0
 40
1.0
 10
2.9520604695
 20
5.6545511546
 30
0.0
 10
2.9520216329
 20
5.6535037197
 30
0.0
 10
2.9520990226
 20
5.6514080982
 30
0.0
 10
2.9526448624
 20
5.6483533178
 30
0.0
 10
2.9536118547
 20
5.6455042765
 30
0.0
 10
2.9549719135
 20
5.6429896343
 30
0.0
 10
2.9566593705
 20
5.640899915
 30
0.0
 10
2.9586293381
 20
5.6393298482
 30
0.0
 10
2.9607962994
 20
5.6383425454
 30
0.0
 10
2.9623315904
 20
5.6381096191
 30
0.0
 10
2.9630807593
 20
5.6381088727
 30
0.0
  0
SPLINE
  5
307
100
AcDbEntity
  8
0
100
AcDbSpline
 62
7
  6
CONTINUOUS
 70
0
 71
3
 72
15
 73
11
 74
0
 42
0.0000001
 43
0.0000001
 44
0.0000000001
 40
0.0
 40
0.0
 40
0.0
 40
0.0
 40
0.1446729429
 40
0.2872110924
 40
0.4243106605
 40
0.5538204177
 40
0.6751963342
 40
0.7887364247
 40
0.8961138569
 40
1.0
 40
1.0
 40
1.0
 40
1.0
 10
2.7973625463
 20
5.652915656
 30
0.0
 10
2.7973263172
 20
5.6519385565
 30
0.0
 10
2.7971199249
 20
5.650001352
 30
0.0
 10
2.7964352387
 20
5.6472078481
 30
0.0
 10
2.79539384
 20
5.6446340876
 30
0.0
 10
2.7940178549
 20
5.6423868865
 30
0.0
 10
2.79236794
 20
5.6405379064
 30
0.0
 10
2.7904866079
 20
5.6391578223
 30
0.0
 10
2.7884404825
 20
5.6383052803
 30
0.0
 10
2.7870061774
 20
5.6381081731
 30
0.0
 10
2.786304064
 20
5.6381088727
 30
0.0
  0
SPLINE
  5
308
100
AcDbEntity
  8
0
100
AcDbSpline
 62
7
  6
CONTINUOUS
 70
0
 71
3
 72
15
 73
11
 74
0
 42
0.0000001
 43
0.0000001
 44
0.0000000001
 40
0.0
 40
0.0
 40
0.0
 40
0.0
 40
0.1453472197
 40
0.2879078335
 40
0.4246048521
 40
0.5539220967
 40
0.6751938806
 40
0.7887432137
 40
0.8961680046
 40
1.0
 40
1.0
 40
1.0
 40
1.0
 10
3.1510545523
 20
5.6381036554
 30
0.0
 10
3.1510956849
 20
5.6371274891
 30
0.0
 10
3.1513055832
 20
5.6351969775
 30
0.0
 10
3.1519890627
 20
5.6324166003
 30
0.0
 10
3.1530363086
 20
5.629865561
 30
0.0
 10
3.1544039217
 20
5.6276361435
 30
0.0
 10
3.1560444298
 20
5.6257987682
 30
0.0
 10
3.1579165664
 20
5.624429086
 30
0.0
 10
3.1599467328
 20
5.6235709381
 30
0.0
 10
3.1613730714
 20
5.6233698807
 30
0.0
 10
3.1620710358
 20
5.6233691843
 30
0.0
  0
SPLINE
  5
309
100
AcDbEntity
  8
0
100
AcDbSpline
 62
7
  6
CONTINUOUS
 70
0
 71
3
 72
15
 73
11
 74
0
 42
0.0000001
 43
0.0000001
 44
0.0000000001
 40
0.0
 40
0.0
 40
0.0
 40
0.0
 40
0.1446744771
 40
0.2872135657
 40
0.4243128205
 40
0.5538212089
 40
0.6751958023
 40
0.7887351995
 40
0.8961128128
 40
1.0
 40
1.0
 40
1.0
 40
1.0
 10
2.99635383
 20
5.6381759681
 30
0.0
 10
2.9963175959
 20
5.6371988237
 30
0.0
 10
2.996111167
 20
5.6352615347
 30
0.0
 10
2.9954263683
 20
5.6324679364
 30
0.0
 10
2.9943848154
 20
5.629894135
 30
0.0
 10
2.9930086541
 20
5.627646954
 30
0.0
 10
2.9913585674
 20
5.6257980396
 30
0.0
 10
2.989477089
 20
5.6244180394
 30
0.0
 10
2.9874308495
 20
5.6235655673
 30
0.0
 10
2.9859964858
 20
5.6233684838
 30
0.0
 10
2.9852943406
 20
5.6233691843
 30
0.0
  0
SPLINE
  5
30A
100
AcDbEntity
  8
0
100
AcDbSpline
 62
7
  6
CONTINUOUS
 70
0
 71
3
 72
15
 73
11
 74
0
 42
0.0000001
 43
0.0000001
 44
0.0000000001
 40
0.0
 40
0.0
 40
0.0
 40
0.0
 40
0.1446727009
 40
0.2872114853
 40
0.4243121654
 40
0.5538220748
 40
0.6751976013
 40
0.7887371391
 40
0.8961139744
 40
1.0
 40
1.0
 40
1.0
 40
1.0
 10
8.3187489215
 20
5.9591276772
 30
0.0
 10
8.3187851509
 20
5.960104785
 30
0.0
 10
8.3189915527
 20
5.9620420118
 30
0.0
 10
8.3196762655
 20
5.9648355487
 30
0.0
 10
8.3207176737
 20
5.9674093495
 30
0.0
 10
8.3220936932
 20
5.9696565706
 30
0.0
 10
8.3237436519
 20
5.9715055369
 30
0.0
 10
8.3256250095
 20
5.9728856116
 30
0.0
 10
8.3276711791
 20
5.9737380914
 30
0.0
 10
8.3291054964
 20
5.9739351588
 30
0.0
 10
8.3298076161
 20
5.9739344498
 30
0.0
  0
SPLINE
  5
30B
100
AcDbEntity
  8
0
100
AcDbSpline
 62
7
  6
CONTINUOUS
 70
0
 71
3
 72
15
 73
11
 74
0
 42
0.0000001
 43
0.0000001
 44
0.0000000001
 40
0.0
 40
0.0
 40
0.0
 40
0.0
 40
0.1437958117
 40
0.2865383665
 40
0.4243508601
 40
0.5547635058
 40
0.6767773328
 40
0.790401506
 40
0.897221617
 40
1.0
 40
1.0
 40
1.0
 40
1.0
 10
8.1640509982
 20
5.9574921785
 30
0.0
 10
8.1640898345
 20
5.9585396045
 30
0.0
 10
8.164012454
 20
5.9606352007
 30
0.0
 10
8.1634666392
 20
5.963689944
 30
0.0
 10
8.1624996518
 20
5.9665389413
 30
0.0
 10
8.161139636
 20
5.9690535672
 30
0.0
 10
8.1594522169
 20
5.9711432954
 30
0.0
 10
8.1574822845
 20
5.9727133798
 30
0.0
 10
8.1553153684
 20
5.9737007574
 30
0.0
 10
8.1537800849
 20
5.9739336934
 30
0.0
 10
8.1530309208
 20
5.9739344498
 30
0.0
  0
SPLINE
  5
30C
100
AcDbEntity
  8
0
100
AcDbSpline
 62
7
  6
CONTINUOUS
 70
0
 71
3
 72
15
 73
11
 74
0
 42
0.0000001
 43
0.0000001
 44
0.0000000001
 40
0.0
 40
0.0
 40
0.0
 40
0.0
 40
0.1446742348
 40
0.2872139587
 40
0.4243143268
 40
0.5538228672
 40
0.67519707
 40
0.7887359145
 40
0.8961129307
 40
1.0
 40
1.0
 40
1.0
 40
1.0
 10
8.1197576378
 20
5.9738673651
 30
0.0
 10
8.1197938722
 20
5.9748445178
 30
0.0
 10
8.1200003106
 20
5.976781829
 30
0.0
 10
8.120685136
 20
5.9795754605
 30
0.0
 10
8.1217266983
 20
5.9821493022
 30
0.0
 10
8.1231028941
 20
5.9843965032
 30
0.0
 10
8.1247530247
 20
5.9862454039
 30
0.0
 10
8.1266345287
 20
5.9876253945
 30
0.0
 10
8.1286808124
 20
5.9884778044
 30
0.0
 10
8.1301151882
 20
5.9886748481
 30
0.0
 10
8.1308173399
 20
5.9886741382
 30
0.0
  0
SPLINE
  5
30D
100
AcDbEntity
  8
0
100
AcDbSpline
 62
7
  6
CONTINUOUS
 70
0
 71
3
 72
15
 73
11
 74
0
 42
0.0000001
 43
0.0000001
 44
0.0000000001
 40
0.0
 40
0.0
 40
0.0
 40
0.0
 40
0.14534686
 40
0.2879063976
 40
0.4246026712
 40
0.5539201062
 40
0.6751923021
 40
0.7887424066
 40
0.8961676552
 40
1.0
 40
1.0
 40
1.0
 40
1.0
 10
7.9650569186
 20
5.9739396668
 30
0.0
 10
7.9650157896
 20
5.9749158214
 30
0.0
 10
7.9648059051
 20
5.9768463057
 30
0.0
 10
7.9641224422
 20
5.9796266444
 30
0.0
 10
7.9630752089
 20
5.9821776465
 30
0.0
 10
7.9617076419
 20
5.9844070604
 30
0.0
 10
7.9600671614
 20
5.9862444414
 30
0.0
 10
7.9581950643
 20
5.9876141518
 30
0.0
 10
7.9561649357
 20
5.9884723677
 30
0.0
 10
7.9547386046
 20
5.9886734324
 30
0.0
 10
7.9540406446
 20
5.9886741382
 30
0.0
  0
SPLINE
  5
30E
100
AcDbEntity
  8
0
100
AcDbSpline
 62
7
  6
CONTINUOUS
 70
0
 71
3
 72
15
 73
11
 74
0
 42
0.0000001
 43
0.0000001
 44
0.0000000001
 40
0.0
 40
0.0
 40
0.0
 40
0.0
 40
0.1027780772
 40
0.2095977025
 40
0.3232211895
 40
0.4452346587
 40
0.5756473529
 40
0.7134609512
 40
0.8562043119
 40
1.0
 40
1.0
 40
1.0
 40
1.0
 10
2.786304064
 20
5.6381088727
 30
0.0
 10
2.7855548951
 20
5.6381096191
 30
0.0
 10
2.7840196041
 20
5.6383425454
 30
0.0
 10
2.7818526428
 20
5.6393298482
 30
0.0
 10
2.7798826752
 20
5.640899915
 30
0.0
 10
2.7781952182
 20
5.6429896343
 30
0.0
 10
2.7768351594
 20
5.6455042765
 30
0.0
 10
2.7758681671
 20
5.6483533178
 30
0.0
 10
2.7753223273
 20
5.6514080982
 30
0.0
 10
2.7752449376
 20
5.6535037197
 30
0.0
 10
2.7752837743
 20
5.6545511546
 30
0.0
  0
SPLINE
  5
30F
100
AcDbEntity
  8
0
100
AcDbSpline
 62
7
  6
CONTINUOUS
 70
0
 71
3
 72
15
 73
11
 74
0
 42
0.0000001
 43
0.0000001
 44
0.0000000001
 40
0.0
 40
0.0
 40
0.0
 40
0.0
 40
0.102778383
 40
0.209598494
 40
0.3232226672
 40
0.4452364942
 40
0.5756491399
 40
0.7134616335
 40
0.8562041883
 40
1.0
 40
1.0
 40
1.0
 40
1.0
 10
8.3298076161
 20
5.9739344498
 30
0.0
 10
8.3305567802
 20
5.9739336934
 30
0.0
 10
8.3320920637
 20
5.9737007574
 30
0.0
 10
8.3342589798
 20
5.9727133798
 30
0.0
 10
8.3362289122
 20
5.9711432954
 30
0.0
 10
8.3379163313
 20
5.9690535672
 30
0.0
 10
8.3392763471
 20
5.9665389413
 30
0.0
 10
8.3402433345
 20
5.963689944
 30
0.0
 10
8.3407891493
 20
5.9606352007
 30
0.0
 10
8.3408665298
 20
5.9585396045
 30
0.0
 10
8.3408276935
 20
5.9574921785
 30
0.0
  0
SPLINE
  5
310
100
AcDbEntity
  8
0
100
AcDbSpline
 62
7
  6
CONTINUOUS
 70
0
 71
3
 72
15
 73
11
 74
0
 42
0.0000001
 43
0.0000001
 44
0.0000000001
 40
0.0
 40
0.0
 40
0.0
 40
0.0
 40
0.1264546995
 40
0.2536270132
 40
0.3801875368
 40
0.5057052216
 40
0.6302512593
 40
0.7540044454
 40
0.8772097854
 40
1.0
 40
1.0
 40
1.0
 40
1.0
 10
9.2710045761
 20
5.6545511546
 30
0.0
 10
9.2710576256
 20
5.6535037652
 30
0.0
 10
9.270950089
 20
5.6513872271
 30
0.0
 10
9.2701916588
 20
5.6483078544
 30
0.0
 10
9.2688481753
 20
5.6454399406
 30
0.0
 10
9.2669660846
 20
5.642920936
 30
0.0
 10
9.2646395913
 20
5.6408395727
 30
0.0
 10
9.2619484638
 20
5.6392936882
 30
0.0
 10
9.2590150366
 20
5.6383326183
 30
0.0
 10
9.2569689212
 20
5.6381096154
 30
0.0
 10
9.2559505803
 20
5.6381088727
 30
0.0
  0
SPLINE
  5
311
100
AcDbEntity
  8
0
100
AcDbSpline
 62
7
  6
CONTINUOUS
 70
0
 71
3
 72
44
 73
40
 74
0
 42
0.0000001
 43
0.0000001
 44
0.0000000001
 40
0.0
 40
0.0
 40
0.0
 40
0.0
 40
0.0624377753
 40
0.1248758653
 40
0.1873140338
 40
0.2185344082
 40
0.249755026
 40
0.2809770419
 40
0.3121985825
 40
0.3434212943
 40
0.3746519254
 40
0.3902671053
 40
0.4058840916
 40
0.4215037535
 40
0.4371450441
 40
0.4528125966
 40
0.4684769589
 40
0.4843087344
 40
0.499987292
 40
0.5077961498
 40
0.5156611817
 40
0.5235883479
 40
0.5315210337
 40
0.5472044152
 40
0.5628525534
 40
0.570677167
 40
0.5784925935
 40
0.5941143676
 40
0.6097349281
 40
0.62535026
 40
0.656578478
 40
0.6878014611
 40
0.7190232514
 40
0.7502450219
 40
0.7814656118
 40
0.8126860252
 40
0.8751241515
 40
0.9375622319
 40
1.0
 40
1.0
 40
1.0
 40
1.0
 10
5.6092123267
 20
5.9935216666
 30
0.0
 10
5.6080255952
 20
5.9985235882
 30
0.0
 10
5.6055733667
 20
6.0085090797
 30
0.0
 10
5.6016047209
 20
6.0234131854
 30
0.0
 10
5.5979910871
 20
6.0357489142
 30
0.0
 10
5.5948566658
 20
6.0455418892
 30
0.0
 10
5.5923604779
 20
6.0528390408
 30
0.0
 10
5.5896928288
 20
6.060075629
 30
0.0
 10
5.5868121213
 20
6.0672309742
 30
0.0
 10
5.5836629517
 20
6.0742735531
 30
0.0
 10
5.5807531574
 20
6.0800099357
 30
0.0
 10
5.5781791269
 20
6.0844637646
 30
0.0
 10
5.5761031226
 20
6.0877167958
 30
0.0
 10
5.5738470527
 20
6.0908517615
 30
0.0
 10
5.5713694227
 20
6.0938212095
 30
0.0
 10
5.5686345948
 20
6.0965672647
 30
0.0
 10
5.5654961819
 20
6.0988908924
 30
0.0
 10
5.5619389854
 20
6.1005248601
 30
0.0
 10
5.5586975156
 20
6.1011035897
 30
0.0
 10
5.5561132745
 20
6.1008851249
 30
0.0
 10
5.5542197021
 20
6.1004200331
 30
0.0
 10
5.5523957124
 20
6.0997076188
 30
0.0
 10
5.5500943763
 20
6.0984941834
 30
0.0
 10
5.5474776051
 20
6.0965638217
 30
0.0
 10
5.5451931404
 20
6.0942788947
 30
0.0
 10
5.5435017946
 20
6.0923353196
 30
0.0
 10
5.5418880013
 20
6.0903293293
 30
0.0
 10
5.5400083902
 20
6.0877170499
 30
0.0
 10
5.5379327092
 20
6.0844633147
 30
0.0
 10
5.5353581534
 20
6.0800096543
 30
0.0
 10
5.5324484634
 20
6.0742733937
 30
0.0
 10
5.5292992958
 20
6.0672309871
 30
0.0
 10
5.5264186714
 20
6.0600755825
 30
0.0
 10
5.5237509755
 20
6.0528390151
 30
0.0
 10
5.5212547939
 20
6.045541881
 30
0.0
 10
5.518120393
 20
6.0357489024
 30
0.0
 10
5.5145067442
 20
6.0234131791
 30
0.0
 10
5.5105381022
 20
6.0085090774
 30
0.0
 10
5.5080858724
 20
5.9985235876
 30
0.0
 10
5.5068991411
 20
5.9935216666
 30
0.0
  0
SPLINE
  5
312
100
AcDbEntity
  8
0
100
AcDbSpline
 62
7
  6
CONTINUOUS
 70
0
 71
3
 72
15
 73
11
 74
0
 42
0.0000001
 43
0.0000001
 44
0.0000000001
 40
0.0
 40
0.0
 40
0.0
 40
0.0
 40
0.1270884016
 40
0.254216604
 40
0.3804597499
 40
0.5057581408
 40
0.6301682379
 40
0.7539009205
 40
0.8771368869
 40
1.0
 40
1.0
 40
1.0
 40
1.0
 10
8.9991736039
 20
5.6381036554
 30
0.0
 10
8.9991171738
 20
5.6371232885
 30
0.0
 10
8.9988248382
 20
5.6351684327
 30
0.0
 10
8.9978768877
 20
5.6323690672
 30
0.0
 10
8.9964268449
 20
5.6298072914
 30
0.0
 10
8.9945392897
 20
5.6275772593
 30
0.0
 10
8.9922833565
 20
5.6257497885
 30
0.0
 10
8.9897300208
 20
5.6244009903
 30
0.0
 10
8.986980651
 20
5.6235633814
 30
0.0
 10
8.9850741488
 20
5.6233698777
 30
0.0
 10
8.9841248074
 20
5.6233691843
 30
0.0
  0
SPLINE
  5
313
100
AcDbEntity
  8
0
100
AcDbSpline
 62
7
  6
CONTINUOUS
 70
0
 71
3
 72
15
 73
11
 74
0
 42
0.0000001
 43
0.0000001
 44
0.0000000001
 40
0.0
 40
0.0
 40
0.0
 40
0.0
 40
0.1264550431
 40
0.2536268132
 40
0.3801865456
 40
0.5057040894
 40
0.6302502251
 40
0.7540037968
 40
0.8772092948
 40
1.0
 40
1.0
 40
1.0
 40
1.0
 10
1.8451068917
 20
5.9574921785
 30
0.0
 10
1.8450538427
 20
5.9585395589
 30
0.0
 10
1.8451613662
 20
5.9606560705
 30
0.0
 10
1.8459197632
 20
5.9637354079
 30
0.0
 10
1.8472632365
 20
5.9666032723
 30
0.0
 10
1.8491452683
 20
5.9691222642
 30
0.0
 10
1.8514717109
 20
5.9712036372
 30
0.0
 10
1.8541627893
 20
5.972749541
 30
0.0
 10
1.8570961651
 20
5.9737106873
 30
0.0
 10
1.8591422641
 20
5.9739336971
 30
0.0
 10
1.8601605975
 20
5.9739344498
 30
0.0
  0
SPLINE
  5
314
100
AcDbEntity
  8
0
100
AcDbSpline
 62
7
  6
CONTINUOUS
 70
0
 71
3
 72
15
 73
11
 74
0
 42
0.0000001
 43
0.0000001
 44
0.0000000001
 40
0.0
 40
0.0
 40
0.0
 40
0.0
 40
0.1270882997
 40
0.2542157461
 40
0.3804583825
 40
0.505756776
 40
0.6301670729
 40
0.7539001762
 40
0.8771363213
 40
1.0
 40
1.0
 40
1.0
 40
1.0
 10
2.1169378597
 20
5.9739396668
 30
0.0
 10
2.1169942848
 20
5.9749200218
 30
0.0
 10
2.1172866011
 20
5.97687485
 30
0.0
 10
2.1182345295
 20
5.9796741768
 30
0.0
 10
2.1196845509
 20
5.9822359115
 30
0.0
 10
2.1215720458
 20
5.9844659451
 30
0.0
 10
2.1238279391
 20
5.9862934198
 30
0.0
 10
2.1263812233
 20
5.9876422495
 30
0.0
 10
2.1291305488
 20
5.9884799264
 30
0.0
 10
2.1310370353
 20
5.9886734355
 30
0.0
 10
2.1319863699
 20
5.9886741382
 30
0.0
  0
LINE
  5
315
100
AcDbEntity
  8
0
100
AcDbLine
 62
7
  6
CONTINUOUS
 10
8.3408276935
 20
5.9574921785
 11
8.473489801
 21
5.9476648597
  0
LINE
  5
316
100
AcDbEntity
  8
0
100
AcDbLine
 62
7
  6
CONTINUOUS
 10
8.6065105404
 20
5.6185216666
 11
8.6959155256
 21
5.6233686998
  0
LINE
  5
317
100
AcDbEntity
  8
0
100
AcDbLine
 62
7
  6
CONTINUOUS
 10
8.9346650626
 20
5.6363133382
 11
8.9690172639
 21
5.6381759681
  0
LINE
  5
318
100
AcDbEntity
  8
0
100
AcDbLine
 62
7
  6
CONTINUOUS
 10
8.1594710865
 20
5.9709258195
 11
8.1711026256
 21
5.970064269
  0
LINE
  5
319
100
AcDbEntity
  8
0
100
AcDbLine
 62
7
  6
CONTINUOUS
 10
8.1711026256
 20
5.970064269
 11
8.3187489215
 21
5.9591276772
  0
LINE
  5
31A
100
AcDbEntity
  8
0
100
AcDbLine
 62
7
  6
CONTINUOUS
 10
7.8543842981
 20
5.9935216666
 11
7.9198332898
 21
5.9886746334
  0
LINE
  5
31B
100
AcDbEntity
  8
0
100
AcDbLine
 62
7
  6
CONTINUOUS
 10
7.960482657
 20
5.9856641079
 11
7.9660261171
 21
5.9852535486
  0
LINE
  5
31C
100
AcDbEntity
  8
0
100
AcDbLine
 62
7
  6
CONTINUOUS
 10
7.9660261171
 20
5.9852535486
 11
7.9860990303
 21
5.9837668984
  0
LINE
  5
31D
100
AcDbEntity
  8
0
100
AcDbLine
 62
7
  6
CONTINUOUS
 10
7.9860990303
 20
5.9837668984
 11
8.1197576378
 21
5.9738673651
  0
LINE
  5
31E
100
AcDbEntity
  8
0
100
AcDbLine
 62
7
  6
CONTINUOUS
 10
2.99635383
 20
5.6381759681
 11
3.1300121985
 21
5.6282764525
  0
LINE
  5
31F
100
AcDbEntity
  8
0
100
AcDbLine
 62
7
  6
CONTINUOUS
 10
3.1300121985
 20
5.6282764525
 11
3.1500853506
 21
5.6267897846
  0
LINE
  5
320
100
AcDbEntity
  8
0
100
AcDbLine
 62
7
  6
CONTINUOUS
 10
3.1500853506
 20
5.6267897846
 11
3.1556291448
 21
5.6263792006
  0
LINE
  5
321
100
AcDbEntity
  8
0
100
AcDbLine
 62
7
  6
CONTINUOUS
 10
3.196278178
 20
5.6233686998
 11
3.2617271697
 21
5.6185216666
  0
LINE
  5
322
100
AcDbEntity
  8
0
100
AcDbLine
 62
7
  6
CONTINUOUS
 10
1.6638870828
 20
5.9476648597
 11
1.7245572743
 21
5.9509549802
  0
LINE
  5
323
100
AcDbEntity
  8
0
100
AcDbLine
 62
7
  6
CONTINUOUS
 10
1.7245572743
 20
5.9509549802
 11
1.7547935244
 21
5.9525946604
  0
LINE
  5
324
100
AcDbEntity
  8
0
100
AcDbLine
 62
7
  6
CONTINUOUS
 10
1.7547935244
 20
5.9525946604
 11
1.8451068917
 21
5.9574921785
  0
SPLINE
  5
325
100
AcDbEntity
  8
0
100
AcDbSpline
 62
7
  6
CONTINUOUS
 70
0
 71
3
 72
15
 73
11
 74
0
 42
0.0000001
 43
0.0000001
 44
0.0000000001
 40
0.0
 40
0.0
 40
0.0
 40
0.0
 40
0.1038319954
 40
0.2112567863
 40
0.3248061194
 40
0.4460779033
 40
0.5753951479
 40
0.7120921665
 40
0.8546527803
 40
1.0
 40
1.0
 40
1.0
 40
1.0
 10
2.9852943406
 20
5.6233691843
 30
0.0
 10
2.9845963761
 20
5.6233698807
 30
0.0
 10
2.9831700375
 20
5.6235709381
 30
0.0
 10
2.9811398711
 20
5.624429086
 30
0.0
 10
2.9792677345
 20
5.6257987682
 30
0.0
 10
2.9776272264
 20
5.6276361435
 30
0.0
 10
2.9762596133
 20
5.629865561
 30
0.0
 10
2.9752123674
 20
5.6324166003
 30
0.0
 10
2.9745288879
 20
5.6351969775
 30
0.0
 10
2.9743189896
 20
5.6371274891
 30
0.0
 10
2.974277857
 20
5.6381036554
 30
0.0
  0
LINE
  5
326
100
AcDbEntity
  8
0
100
AcDbLine
 62
7
  6
CONTINUOUS
 10
1.8752670552
 20
5.9591276772
 11
1.9096219442
 21
5.9609906256
  0
SPLINE
  5
327
100
AcDbEntity
  8
0
100
AcDbSpline
 62
7
  6
CONTINUOUS
 70
0
 71
3
 72
15
 73
11
 74
0
 42
0.0000001
 43
0.0000001
 44
0.0000000001
 40
0.0
 40
0.0
 40
0.0
 40
0.0
 40
0.1038323448
 40
0.2112575934
 40
0.3248076979
 40
0.4460798938
 40
0.5753973288
 40
0.7120936024
 40
0.85465314
 40
1.0
 40
1.0
 40
1.0
 40
1.0
 10
8.1308173399
 20
5.9886741382
 30
0.0
 10
8.1315152999
 20
5.9886734324
 30
0.0
 10
8.132941631
 20
5.9884723677
 30
0.0
 10
8.1349717596
 20
5.9876141518
 30
0.0
 10
8.1368438567
 20
5.9862444414
 30
0.0
 10
8.1384843372
 20
5.9844070604
 30
0.0
 10
8.1398519042
 20
5.9821776465
 30
0.0
 10
8.1408991375
 20
5.9796266444
 30
0.0
 10
8.1415826004
 20
5.9768463057
 30
0.0
 10
8.1417924849
 20
5.9749158214
 30
0.0
 10
8.1418336139
 20
5.9739396668
 30
0.0
  0
LINE
  5
328
100
AcDbEntity
  8
0
100
AcDbLine
 62
7
  6
CONTINUOUS
 10
9.2710045761
 20
5.6545511546
 11
9.3613179153
 21
5.6594486712
  0
LINE
  5
329
100
AcDbEntity
  8
0
100
AcDbLine
 62
7
  6
CONTINUOUS
 10
9.3613179153
 20
5.6594486712
 11
9.3915541685
 21
5.6610883516
  0
LINE
  5
32A
100
AcDbEntity
  8
0
100
AcDbLine
 62
7
  6
CONTINUOUS
 10
9.3915541685
 20
5.6610883516
 11
9.452224385
 21
5.6643784735
  0
LINE
  5
32B
100
AcDbEntity
  8
0
100
AcDbLine
 62
7
  6
CONTINUOUS
 10
2.1470942039
 20
5.9738673651
 11
2.1814464052
 21
5.975729995
  0
LINE
  5
32C
100
AcDbEntity
  8
0
100
AcDbLine
 62
7
  6
CONTINUOUS
 10
2.4201959422
 20
5.9886746334
 11
2.5096009274
 21
5.9935216666
  0
LINE
  5
32D
100
AcDbEntity
  8
0
100
AcDbLine
 62
7
  6
CONTINUOUS
 10
2.7973625463
 20
5.652915656
 11
2.9450088276
 21
5.6419790652
  0
LINE
  5
32E
100
AcDbEntity
  8
0
100
AcDbLine
 62
7
  6
CONTINUOUS
 10
2.9450088276
 20
5.6419790652
 11
2.9566407158
 21
5.6411174889
  0
LINE
  5
32F
100
AcDbEntity
  8
0
100
AcDbLine
 62
7
  6
CONTINUOUS
 10
2.6426216668
 20
5.6643784735
 11
2.7752837743
 21
5.6545511546
  0
LINE
  5
330
100
AcDbEntity
  8
0
100
AcDbLine
 62
7
  6
CONTINUOUS
 10
9.2064895236
 20
5.6510527075
 11
9.2408444126
 21
5.652915656
  0
LINE
  5
331
100
AcDbEntity
  8
0
100
AcDbLine
 62
7
  6
CONTINUOUS
 10
5.7938369799
 20
4.343265046
 11
5.8319561648
 21
5.067169064
  0
SPLINE
  5
332
100
AcDbEntity
  8
0
100
AcDbSpline
 62
7
  6
CONTINUOUS
 70
0
 71
3
 72
23
 73
19
 74
0
 42
0.0000001
 43
0.0000001
 44
0.0000000001
 40
0.0
 40
0.0
 40
0.0
 40
0.0
 40
0.2107021789
 40
0.4050074236
 40
0.5775647606
 40
0.6542647023
 40
0.7240813185
 40
0.7866666584
 40
0.8416738761
 40
0.8887635564
 40
0.927695149
 40
0.9583163777
 40
0.9804964641
 40
0.9883983234
 40
0.9941845335
 40
0.996304001
 40
0.9979349833
 40
1.0
 40
1.0
 40
1.0
 40
1.0
 10
8.9249168813
 20
4.3405323131
 30
0.0
 10
8.927615226
 20
4.3403812668
 30
0.0
 10
8.9328026829
 20
4.3401041238
 30
0.0
 10
8.9402024811
 20
4.3397520518
 30
0.0
 10
8.945887254
 20
4.3395219713
 30
0.0
 10
8.9499776458
 20
4.3393870909
 30
0.0
 10
8.9526587115
 20
4.3393140145
 30
0.0
 10
8.9550620374
 20
4.3392651691
 30
0.0
 10
8.9571742322
 20
4.3392406095
 30
0.0
 10
8.9589831627
 20
4.3392406503
 30
0.0
 10
8.9604792399
 20
4.3392643063
 30
0.0
 10
8.9616549083
 20
4.3393121044
 30
0.0
 10
8.9624317653
 20
4.33937188
 30
0.0
 10
8.9628871337
 20
4.3394402572
 30
0.0
 10
8.9630850524
 20
4.339484059
 30
0.0
 10
8.9632009124
 20
4.3395267992
 30
0.0
 10
8.9632658418
 20
4.339559331
 30
0.0
 10
8.9633050955
 20
4.3395993288
 30
0.0
 10
8.9633061241
 20
4.3396257958
 30
0.0
  0
SPLINE
  5
333
100
AcDbEntity
  8
0
100
AcDbSpline
 62
7
  6
CONTINUOUS
 70
0
 71
3
 72
19
 73
15
 74
0
 42
0.0000001
 43
0.0000001
 44
0.0000000001
 40
0.0
 40
0.0
 40
0.0
 40
0.0
 40
0.0083310633
 40
0.0185336491
 40
0.0446328562
 40
0.0782979504
 40
0.1193619063
 40
0.1674906985
 40
0.222269165
 40
0.3498991491
 40
0.4974159376
 40
0.6591914459
 40
0.8291026841
 40
1.0
 40
1.0
 40
1.0
 40
1.0
 10
5.6734573894
 20
5.3192609974
 30
0.0
 10
5.6732911684
 20
5.3193547101
 30
0.0
 10
5.6729054696
 20
5.319534745
 30
0.0
 10
5.6719439611
 20
5.3198838643
 30
0.0
 10
5.6703895944
 20
5.3202856725
 30
0.0
 10
5.6681207794
 20
5.3207192923
 30
0.0
 10
5.6653352393
 20
5.3211242382
 30
0.0
 10
5.6620585395
 20
5.3214974442
 30
0.0
 10
5.6567990538
 20
5.3219705558
 30
0.0
 10
5.6492547945
 20
5.3224287547
 30
0.0
 10
5.6392528591
 20
5.3227814719
 30
0.0
 10
5.6282773983
 20
5.3229395693
 30
0.0
 10
5.6167655648
 20
5.3228973108
 30
0.0
 10
5.6089607465
 20
5.3227365392
 30
0.0
 10
5.6050481515
 20
5.3226210467
 30
0.0
  0
SPLINE
  5
334
100
AcDbEntity
  8
0
100
AcDbSpline
 62
7
  6
CONTINUOUS
 70
0
 71
3
 72
19
 73
15
 74
0
 42
0.0000001
 43
0.0000001
 44
0.0000000001
 40
0.0
 40
0.0
 40
0.0
 40
0.0
 40
0.1704201828
 40
0.3401308283
 40
0.5017240725
 40
0.649170686
 40
0.7769904825
 40
0.8320676696
 40
0.8805139542
 40
0.9218225083
 40
0.9556680905
 40
0.9817900301
 40
0.9918908401
 40
1.0
 40
1.0
 40
1.0
 40
1.0
 10
5.5622733905
 20
4.3400419483
 30
0.0
 10
5.5661678659
 20
4.3398360018
 30
0.0
 10
5.5739431775
 20
4.3394724626
 30
0.0
 10
5.5854177584
 20
4.3390664343
 30
0.0
 10
5.5963709733
 20
4.3388143552
 30
0.0
 10
5.6063680296
 20
4.3387226059
 30
0.0
 10
5.6139280408
 20
4.3387831261
 30
0.0
 10
5.6192203614
 20
4.3389265993
 30
0.0
 10
5.622531814
 20
4.3390685676
 30
0.0
 10
5.6253549434
 20
4.3392487322
 30
0.0
 10
5.6276626874
 20
4.3394642416
 30
0.0
 10
5.6292527908
 20
4.3396809271
 30
0.0
 10
5.6302472784
 20
4.339882777
 30
0.0
 10
5.6306504067
 20
4.3399906065
 30
0.0
 10
5.6308266799
 20
4.3400486096
 30
0.0
  0
SPLINE
  5
335
100
AcDbEntity
  8
0
100
AcDbSpline
 62
7
  6
CONTINUOUS
 70
0
 71
3
 72
24
 73
20
 74
0
 42
0.0000001
 43
0.0000001
 44
0.0000000001
 40
0.0
 40
0.0
 40
0.0
 40
0.0
 40
0.2015995629
 40
0.3916262234
 40
0.563332212
 40
0.6406637177
 40
0.7114927896
 40
0.7753162663
 40
0.8316709083
 40
0.8801060415
 40
0.9202899635
 40
0.937240079
 40
0.9520792622
 40
0.964806644
 40
0.975438328
 40
0.9840253219
 40
0.9907079549
 40
0.9958049381
 40
1.0
 40
1.0
 40
1.0
 40
1.0
 10
4.4206160048
 20
5.3226085021
 30
0.0
 10
4.4171971337
 20
5.3227094321
 30
0.0
 10
4.410554156
 20
5.3228589777
 30
0.0
 10
4.4009964799
 20
5.3229285169
 30
0.0
 10
4.3935470961
 20
5.3228483658
 30
0.0
 10
4.3881222856
 20
5.3226933521
 30
0.0
 10
4.3845288318
 20
5.322540931
 30
0.0
 10
4.3812936329
 20
5.3223501968
 30
0.0
 10
4.3784416406
 20
5.3221234041
 30
0.0
 10
4.3759955871
 20
5.3218623021
 30
0.0
 10
4.3742220884
 20
5.3216063733
 30
0.0
 10
4.3730222572
 20
5.3213783007
 30
0.0
 10
4.3722857698
 20
5.3212099392
 30
0.0
 10
4.3716613855
 20
5.3210349727
 30
0.0
 10
4.3711500039
 20
5.3208538843
 30
0.0
 10
4.3707510528
 20
5.3206667636
 30
0.0
 10
4.3704632417
 20
5.3204725269
 30
0.0
 10
4.3702801332
 20
5.3202650277
 30
0.0
 10
4.3702399451
 20
5.3201035834
 30
0.0
 10
4.3702438699
 20
5.3200325178
 30
0.0
  0
LINE
  5
336
100
AcDbEntity
  8
0
100
AcDbLine
 62
7
  6
CONTINUOUS
 10
8.2805307618
 20
5.0827029856
 11
8.2596131063
 21
5.0754958434
  0
SPLINE
  5
337
100
AcDbEntity
  8
0
100
AcDbSpline
 62
7
  6
CONTINUOUS
 70
0
 71
3
 72
17
 73
13
 74
0
 42
0.0000001
 43
0.0000001
 44
0.0000000001
 40
0.0
 40
0.0
 40
0.0
 40
0.0
 40
0.1743196102
 40
0.3413576927
 40
0.49596849
 40
0.6346829925
 40
0.7548878607
 40
0.8076489601
 40
0.8553946832
 40
0.8981807951
 40
0.9362620079
 40
1.0
 40
1.0
 40
1.0
 40
1.0
 10
5.8319562403
 20
5.0671704916
 30
0.0
 10
5.8286884501
 20
5.0672284876
 30
0.0
 10
5.8222910175
 20
5.0675156055
 30
0.0
 10
5.8130340784
 20
5.0684500329
 30
0.0
 10
5.8045117385
 20
5.0698603157
 30
0.0
 10
5.7969684644
 20
5.0716846505
 30
0.0
 10
5.7914263379
 20
5.0735784026
 30
0.0
 10
5.787655372
 20
5.0752905382
 30
0.0
 10
5.7852978173
 20
5.0765839893
 30
0.0
 10
5.7832953639
 20
5.0779387879
 30
0.0
 10
5.7812367896
 20
5.0797006088
 30
0.0
 10
5.7800276603
 20
5.0812471409
 30
0.0
 10
5.7795346876
 20
5.0823357398
 30
0.0
  0
LINE
  5
338
100
AcDbEntity
  8
0
100
AcDbLine
 62
7
  6
CONTINUOUS
 10
5.7395703149
 20
4.3401185408
 11
5.7938369536
 21
4.3432645458
  0
SPLINE
  5
339
100
AcDbEntity
  8
0
100
AcDbSpline
 62
7
  6
CONTINUOUS
 70
0
 71
3
 72
20
 73
16
 74
0
 42
0.0000001
 43
0.0000001
 44
0.0000000001
 40
0.0
 40
0.0
 40
0.0
 40
0.0
 40
0.1743909235
 40
0.3424859492
 40
0.4983055752
 40
0.5702730938
 40
0.6376536715
 40
0.7000660276
 40
0.7572842068
 40
0.8091867216
 40
0.8557864797
 40
0.897339326
 40
0.9344831358
 40
0.9682256905
 40
1.0
 40
1.0
 40
1.0
 40
1.0
 10
8.9249168813
 20
4.3405323131
 30
0.0
 10
8.9248466232
 20
4.3367862517
 30
0.0
 10
8.9244579899
 20
4.3294314559
 30
0.0
 10
8.9231522484
 20
4.3187967798
 30
0.0
 10
8.9214454787
 20
4.3104518209
 30
0.0
 10
8.9197257216
 20
4.3043453695
 30
0.0
 10
8.9183264571
 20
4.3002400634
 30
0.0
 10
8.9167934826
 20
4.2965228783
 30
0.0
 10
8.9151419121
 20
4.2932240152
 30
0.0
 10
8.9133857378
 20
4.2903703908
 30
0.0
 10
8.9115369088
 20
4.2879869262
 30
0.0
 10
8.9096031762
 20
4.2860992325
 30
0.0
 10
8.9076003971
 20
4.2847223244
 30
0.0
 10
8.9055441124
 20
4.2838740831
 30
0.0
 10
8.9041306686
 20
4.2836774222
 30
0.0
 10
8.9034480101
 20
4.283677374
 30
0.0
  0
SPLINE
  5
33A
100
AcDbEntity
  8
0
100
AcDbSpline
 62
7
  6
CONTINUOUS
 70
0
 71
3
 72
20
 73
16
 74
0
 42
0.0000001
 43
0.0000001
 44
0.0000000001
 40
0.0
 40
0.0
 40
0.0
 40
0.0
 40
0.1744061181
 40
0.3425313653
 40
0.4983530925
 40
0.5703107775
 40
0.6376818521
 40
0.700086907
 40
0.7572988591
 40
0.8091966337
 40
0.8557933289
 40
0.897343621
 40
0.9344850262
 40
0.9682260743
 40
1.0
 40
1.0
 40
1.0
 40
1.0
 10
8.2759490856
 20
4.3404909822
 30
0.0
 10
8.2758788214
 20
4.3367445917
 30
0.0
 10
8.2754898035
 20
4.3293888307
 30
0.0
 10
8.274184022
 20
4.3187531398
 30
0.0
 10
8.2724772805
 20
4.3104076576
 30
0.0
 10
8.2707572498
 20
4.3043016602
 30
0.0
 10
8.2693579757
 20
4.3001969618
 30
0.0
 10
8.267825082
 20
4.2964802761
 30
0.0
 10
8.2661735617
 20
4.2931818234
 30
0.0
 10
8.2644174586
 20
4.2903285102
 30
0.0
 10
8.2625687916
 20
4.2879452061
 30
0.0
 10
8.260635222
 20
4.2860575848
 30
0.0
 10
8.258632513
 20
4.2846808067
 30
0.0
 10
8.2565762711
 20
4.283832699
 30
0.0
 10
8.2551628662
 20
4.2836360913
 30
0.0
 10
8.2544802154
 20
4.2836360431
 30
0.0
  0
SPLINE
  5
33B
100
AcDbEntity
  8
0
100
AcDbSpline
 62
7
  6
CONTINUOUS
 70
0
 71
3
 72
24
 73
20
 74
0
 42
0.0000001
 43
0.0000001
 44
0.0000000001
 40
0.0
 40
0.0
 40
0.0
 40
0.0
 40
0.1922947361
 40
0.3780352536
 40
0.5490383266
 40
0.6270186115
 40
0.6990164681
 40
0.7643443013
 40
0.8224539289
 40
0.8728402224
 40
0.9150170201
 40
0.932894494
 40
0.9486017505
 40
0.962141017
 40
0.9735290464
 40
0.9828107407
 40
0.9900914704
 40
0.9956212066
 40
1.0
 40
1.0
 40
1.0
 40
1.0
 10
5.7938464494
 20
4.3432650463
 30
0.0
 10
5.7938465514
 20
4.3393711979
 30
0.0
 10
5.7937809239
 20
4.3317160527
 30
0.0
 10
5.7934944711
 20
4.320601518
 30
0.0
 10
5.7930935146
 20
4.3118069485
 30
0.0
 10
5.7926766056
 20
4.3053204978
 30
0.0
 10
5.7923356978
 20
4.3009738568
 30
0.0
 10
5.7919596502
 20
4.2970341073
 30
0.0
 10
5.7915531361
 20
4.2935374891
 30
0.0
 10
5.7911205497
 20
4.290516922
 30
0.0
 10
5.7907246613
 20
4.2883149644
 30
0.0
 10
5.7903878487
 20
4.2868180139
 30
0.0
 10
5.7901453537
 20
4.2858948564
 30
0.0
 10
5.7898999402
 20
4.2851090607
 30
0.0
 10
5.7896523586
 20
4.2844615235
 30
0.0
 10
5.789403684
 20
4.2839517237
 30
0.0
 10
5.789152707
 20
4.2835792393
 30
0.0
 10
5.7888957262
 20
4.2833366827
 30
0.0
 10
5.7886948892
 20
4.283270653
 30
0.0
 10
5.7886062214
 20
4.2832707494
 30
0.0
  0
SPLINE
  5
33C
100
AcDbEntity
  8
0
100
AcDbSpline
 62
7
  6
CONTINUOUS
 70
0
 71
3
 72
11
 73
7
 74
0
 42
0.0000001
 43
0.0000001
 44
0.0000000001
 40
0.0
 40
0.0
 40
0.0
 40
0.0
 40
0.2514229268
 40
0.5019763666
 40
0.7513828974
 40
1.0
 40
1.0
 40
1.0
 40
1.0
 10
5.7395703149
 20
4.3401185408
 30
0.0
 10
5.7391808341
 20
4.3325903547
 30
0.0
 10
5.7355353315
 20
4.3175564434
 30
0.0
 10
5.7222229908
 20
4.298735775
 30
0.0
 10
5.7029682425
 20
4.286197274
 30
0.0
 10
5.6878828608
 20
4.2832629824
 30
0.0
 10
5.6804287331
 20
4.2832580773
 30
0.0
  0
SPLINE
  5
33D
100
AcDbEntity
  8
0
100
AcDbSpline
 62
7
  6
CONTINUOUS
 70
0
 71
3
 72
11
 73
7
 74
0
 42
0.0000001
 43
0.0000001
 44
0.0000000001
 40
0.0
 40
0.0
 40
0.0
 40
0.0
 40
0.2513875789
 40
0.5019494053
 40
0.751372896
 40
1.0
 40
1.0
 40
1.0
 40
1.0
 10
5.6308266799
 20
4.3400486096
 30
0.0
 10
5.6304372536
 20
4.3325214782
 30
0.0
 10
5.6267925777
 20
4.3174883409
 30
0.0
 10
5.6134810784
 20
4.2986673303
 30
0.0
 10
5.5942257211
 20
4.2861276923
 30
0.0
 10
5.5791395127
 20
4.2831930503
 30
0.0
 10
5.5716850815
 20
4.2831881461
 30
0.0
  0
SPLINE
  5
33E
100
AcDbEntity
  8
0
100
AcDbSpline
 62
7
  6
CONTINUOUS
 70
0
 71
3
 72
22
 73
18
 74
0
 42
0.0000001
 43
0.0000001
 44
0.0000000001
 40
0.0
 40
0.0
 40
0.0
 40
0.0
 40
0.1907231493
 40
0.3736172796
 40
0.5413224361
 40
0.6177120027
 40
0.6882694888
 40
0.752403069
 40
0.8096627425
 40
0.8596555668
 40
0.9020436463
 40
0.9366504331
 40
0.9637118119
 40
0.9746540376
 40
0.9841025583
 40
0.9923851194
 40
1.0
 40
1.0
 40
1.0
 40
1.0
 10
5.5622733905
 20
4.3400419483
 30
0.0
 10
5.5623041695
 20
4.3362996417
 30
0.0
 10
5.5624732139
 20
4.3289690319
 30
0.0
 10
5.5630410485
 20
4.3183605707
 30
0.0
 10
5.5637841774
 20
4.3100125738
 30
0.0
 10
5.5645369649
 20
4.3038839113
 30
0.0
 10
5.5651458826
 20
4.2997864763
 30
0.0
 10
5.5658121582
 20
4.296078681
 30
0.0
 10
5.5665284502
 20
4.2927918206
 30
0.0
 10
5.5672874186
 20
4.2899541025
 30
0.0
 10
5.5680814597
 20
4.2875892133
 30
0.0
 10
5.5689059867
 20
4.2857185829
 30
0.0
 10
5.5696567543
 20
4.2844959074
 30
0.0
 10
5.5702862274
 20
4.283805736
 30
0.0
 10
5.5707310915
 20
4.2834557333
 30
0.0
 10
5.5711841991
 20
4.2832388014
 30
0.0
 10
5.5714977338
 20
4.2831881341
 30
0.0
 10
5.5716471555
 20
4.2831881334
 30
0.0
  0
SPLINE
  5
33F
100
AcDbEntity
  8
0
100
AcDbSpline
 62
7
  6
CONTINUOUS
 70
0
 71
3
 72
22
 73
18
 74
0
 42
0.0000001
 43
0.0000001
 44
0.0000000001
 40
0.0
 40
0.0
 40
0.0
 40
0.0
 40
0.1907231533
 40
0.373617288
 40
0.5413224369
 40
0.6177119972
 40
0.6882694785
 40
0.752403058
 40
0.8096627346
 40
0.8596555633
 40
0.9020436466
 40
0.9366504348
 40
0.9637118132
 40
0.9746540383
 40
0.9841025586
 40
0.9923851194
 40
1.0
 40
1.0
 40
1.0
 40
1.0
 10
4.4795738947
 20
4.3400303577
 30
0.0
 10
4.4796046737
 20
4.336288051
 30
0.0
 10
4.4797737182
 20
4.328957441
 30
0.0
 10
4.4803415527
 20
4.3183489798
 30
0.0
 10
4.4810846816
 20
4.3100009831
 30
0.0
 10
4.4818374691
 20
4.3038723209
 30
0.0
 10
4.4824463868
 20
4.2997748862
 30
0.0
 10
4.4831126624
 20
4.2960670909
 30
0.0
 10
4.4838289544
 20
4.2927802304
 30
0.0
 10
4.4845879228
 20
4.289942512
 30
0.0
 10
4.4853819639
 20
4.2875776227
 30
0.0
 10
4.4862064909
 20
4.2857069921
 30
0.0
 10
4.4869572585
 20
4.2844843166
 30
0.0
 10
4.4875867317
 20
4.2837941453
 30
0.0
 10
4.4880315957
 20
4.2834441426
 30
0.0
 10
4.4884847033
 20
4.2832272107
 30
0.0
 10
4.4887982381
 20
4.2831765434
 30
0.0
 10
4.4889476598
 20
4.2831765428
 30
0.0
  0
SPLINE
  5
340
100
AcDbEntity
  8
0
100
AcDbSpline
 62
7
  6
CONTINUOUS
 70
0
 71
3
 72
17
 73
13
 74
0
 42
0.0000001
 43
0.0000001
 44
0.0000000001
 40
0.0
 40
0.0
 40
0.0
 40
0.0
 40
0.1512209983
 40
0.2988755229
 40
0.4393251232
 40
0.5704263386
 40
0.6910071061
 40
0.8012861902
 40
0.8531601714
 40
0.9032675737
 40
0.9520454919
 40
1.0
 40
1.0
 40
1.0
 40
1.0
 10
2.5539397352
 20
4.3404641097
 30
0.0
 10
2.5540637011
 20
4.336708436
 30
0.0
 10
2.5547554735
 20
4.3292930428
 30
0.0
 10
2.5570748559
 20
4.318596691
 30
0.0
 10
2.5606324067
 20
4.3087699583
 30
0.0
 10
2.5652804819
 20
4.300157964
 30
0.0
 10
2.5708878898
 20
4.2930616693
 30
0.0
 10
2.5763345495
 20
4.2885143086
 30
0.0
 10
2.5809700201
 20
4.2859684947
 30
0.0
 10
2.5844770784
 20
4.284616908
 30
0.0
 10
2.5880448979
 20
4.28379626
 30
0.0
 10
2.5904523237
 20
4.2836098728
 30
0.0
 10
2.5916439543
 20
4.2836098041
 30
0.0
  0
SPLINE
  5
341
100
AcDbEntity
  8
0
100
AcDbSpline
 62
7
  6
CONTINUOUS
 70
0
 71
3
 72
13
 73
9
 74
0
 42
0.0000001
 43
0.0000001
 44
0.0000000001
 40
0.0
 40
0.0
 40
0.0
 40
0.0
 40
0.3599167432
 40
0.5111832631
 40
0.6433987624
 40
0.7569884494
 40
0.8529912241
 40
1.0
 40
1.0
 40
1.0
 40
1.0
 10
5.7378370826
 20
5.3110130981
 30
0.0
 10
5.737383762
 20
5.3129514647
 30
0.0
 10
5.7366614878
 20
5.3156894832
 30
0.0
 10
5.7354855006
 20
5.3190505437
 30
0.0
 10
5.7346270521
 20
5.3210727779
 30
0.0
 10
5.7337366115
 20
5.3227484897
 30
0.0
 10
5.732619981
 20
5.3243640033
 30
0.0
 10
5.7315757994
 20
5.3253189802
 30
0.0
 10
5.730821333
 20
5.3256221319
 30
0.0
  0
SPLINE
  5
342
100
AcDbEntity
  8
0
100
AcDbSpline
 62
7
  6
CONTINUOUS
 70
0
 71
3
 72
12
 73
8
 74
0
 42
0.0000001
 43
0.0000001
 44
0.0000000001
 40
0.0
 40
0.0
 40
0.0
 40
0.0
 40
0.0771101955
 40
0.1724045818
 40
0.4093333318
 40
0.6927931916
 40
1.0
 40
1.0
 40
1.0
 40
1.0
 10
5.8331422546
 20
5.0852668579
 30
0.0
 10
5.8330437653
 20
5.0848106611
 30
0.0
 10
5.832864984
 20
5.0837818665
 30
0.0
 10
5.8325460278
 20
5.0813246693
 30
0.0
 10
5.8322455684
 20
5.0776084606
 30
0.0
 10
5.8320262746
 20
5.072603736
 30
0.0
 10
5.8319765615
 20
5.0690284254
 30
0.0
 10
5.8319766404
 20
5.0671690647
 30
0.0
  0
SPLINE
  5
343
100
AcDbEntity
  8
0
100
AcDbSpline
 62
7
  6
CONTINUOUS
 70
0
 71
3
 72
14
 73
10
 74
0
 42
0.0000001
 43
0.0000001
 44
0.0000000001
 40
0.0
 40
0.0
 40
0.0
 40
0.0
 40
0.128235111
 40
0.2574482269
 40
0.3860576494
 40
0.5131082843
 40
0.6383295598
 40
0.7616243904
 40
1.0
 40
1.0
 40
1.0
 40
1.0
 10
5.7985141326
 20
5.099388915
 30
0.0
 10
5.7973434992
 20
5.0992888939
 30
0.0
 10
5.7950063127
 20
5.0988913077
 30
0.0
 10
5.7916412401
 20
5.0977586069
 30
0.0
 10
5.7885045324
 20
5.0961129512
 30
0.0
 10
5.7857110387
 20
5.0939959953
 30
0.0
 10
5.7833367549
 20
5.0914798517
 30
0.0
 10
5.780877737
 20
5.0877412521
 30
0.0
 10
5.7798028522
 20
5.0845032272
 30
0.0
 10
5.7795346875
 20
5.0823357399
 30
0.0
  0
SPLINE
  5
344
100
AcDbEntity
  8
0
100
AcDbSpline
 62
7
  6
CONTINUOUS
 70
0
 71
3
 72
14
 73
10
 74
0
 42
0.0000001
 43
0.0000001
 44
0.0000000001
 40
0.0
 40
0.0
 40
0.0
 40
0.0
 40
0.1282140179
 40
0.2574659098
 40
0.3861360135
 40
0.513242286
 40
0.6384963601
 40
0.7617884
 40
1.0
 40
1.0
 40
1.0
 40
1.0
 10
5.7378371221
 20
5.3110115641
 30
0.0
 10
5.7366550106
 20
5.3109249853
 30
0.0
 10
5.7342920327
 20
5.3105504511
 30
0.0
 10
5.730884429
 20
5.3094416011
 30
0.0
 10
5.7277033159
 20
5.3078086271
 30
0.0
 10
5.7248671781
 20
5.3056932055
 30
0.0
 10
5.7224546245
 20
5.3031689433
 30
0.0
 10
5.7199555705
 20
5.2994097747
 30
0.0
 10
5.7188621252
 20
5.2961452551
 30
0.0
 10
5.7185905289
 20
5.2939599142
 30
0.0
  0
SPLINE
  5
345
100
AcDbEntity
  8
0
100
AcDbSpline
 62
7
  6
CONTINUOUS
 70
0
 71
3
 72
15
 73
11
 74
0
 42
0.0000001
 43
0.0000001
 44
0.0000000001
 40
0.0
 40
0.0
 40
0.0
 40
0.0
 40
0.1235736345
 40
0.2482922435
 40
0.3732813176
 40
0.4982855168
 40
0.6235462597
 40
0.7492748942
 40
0.8751054029
 40
1.0
 40
1.0
 40
1.0
 40
1.0
 10
5.730821333
 20
5.3256221319
 30
0.0
 10
5.7295865375
 20
5.3256086553
 30
0.0
 10
5.7271025881
 20
5.325335386
 30
0.0
 10
5.7235142419
 20
5.3242454745
 30
0.0
 10
5.7201752892
 20
5.3225002119
 30
0.0
 10
5.717226622
 20
5.3201477453
 30
0.0
 10
5.7147580586
 20
5.3172859964
 30
0.0
 10
5.7128705335
 20
5.3140015274
 30
0.0
 10
5.7116176291
 20
5.3104337625
 30
0.0
 10
5.7112252921
 20
5.3079417939
 30
0.0
 10
5.7111508149
 20
5.3066959486
 30
0.0
  0
SPLINE
  5
346
100
AcDbEntity
  8
0
100
AcDbSpline
 62
7
  6
CONTINUOUS
 70
0
 71
3
 72
15
 73
11
 74
0
 42
0.0000001
 43
0.0000001
 44
0.0000000001
 40
0.0
 40
0.0
 40
0.0
 40
0.0
 40
0.1235725166
 40
0.2482912196
 40
0.3732806466
 40
0.4982852532
 40
0.6235464744
 40
0.7492756839
 40
0.8751065221
 40
1.0
 40
1.0
 40
1.0
 40
1.0
 10
5.693145422
 20
5.3381857402
 30
0.0
 10
5.6919100068
 20
5.3381732356
 30
0.0
 10
5.6894246001
 20
5.3379016634
 30
0.0
 10
5.6858337318
 20
5.3368135308
 30
0.0
 10
5.6824921008
 20
5.335069236
 30
0.0
 10
5.6795408503
 20
5.3327169124
 30
0.0
 10
5.6770699768
 20
5.3298545992
 30
0.0
 10
5.6751806152
 20
5.3265689465
 30
0.0
 10
5.6739264626
 20
5.322999588
 30
0.0
 10
5.673533724
 20
5.3205063888
 30
0.0
 10
5.6734591775
 20
5.3192599306
 30
0.0
  0
SPLINE
  5
347
100
AcDbEntity
  8
0
100
AcDbSpline
 62
7
  6
CONTINUOUS
 70
0
 71
3
 72
16
 73
12
 74
0
 42
0.0000001
 43
0.0000001
 44
0.0000000001
 40
0.0
 40
0.0
 40
0.0
 40
0.0
 40
0.017302622
 40
0.0403133404
 40
0.0701418189
 40
0.107123275
 40
0.2025177798
 40
0.3249149557
 40
0.4707648192
 40
0.6360139529
 40
1.0
 40
1.0
 40
1.0
 40
1.0
 10
5.6019152645
 20
5.3415450508
 30
0.0
 10
5.6020220335
 20
5.3415100721
 30
0.0
 10
5.6022438499
 20
5.3413538549
 30
0.0
 10
5.6025218401
 20
5.3409905641
 30
0.0
 10
5.602797649
 20
5.3404743809
 30
0.0
 10
5.6031904772
 20
5.3394958713
 30
0.0
 10
5.603627442
 20
5.337895829
 30
0.0
 10
5.60407042
 20
5.3355757232
 30
0.0
 10
5.6044500825
 20
5.3327852695
 30
0.0
 10
5.6048608415
 20
5.328420304
 30
0.0
 10
5.6050129341
 20
5.3249842419
 30
0.0
 10
5.6050531119
 20
5.3226210792
 30
0.0
  0
SPLINE
  5
348
100
AcDbEntity
  8
0
100
AcDbSpline
 62
7
  6
CONTINUOUS
 70
0
 71
3
 72
16
 73
12
 74
0
 42
0.0000001
 43
0.0000001
 44
0.0000000001
 40
0.0
 40
0.0
 40
0.0
 40
0.0
 40
0.0171392304
 40
0.0399599404
 40
0.069608663
 40
0.1064339227
 40
0.2016076658
 40
0.3239202326
 40
0.4698238712
 40
0.6352642292
 40
1.0
 40
1.0
 40
1.0
 40
1.0
 10
4.417842371
 20
5.3415320331
 30
0.0
 10
4.4179477329
 20
5.3414971388
 30
0.0
 10
4.4181660041
 20
5.3413407163
 30
0.0
 10
4.418435996
 20
5.3409771846
 30
0.0
 10
4.4187011535
 20
5.3404610399
 30
0.0
 10
4.4190747667
 20
5.3394819299
 30
0.0
 10
4.4194811704
 20
5.3378815527
 30
0.0
 10
4.4198809517
 20
5.3355617818
 30
0.0
 10
4.4202096179
 20
5.3327715096
 30
0.0
 10
4.4205418365
 20
5.3284053384
 30
0.0
 10
4.4206329224
 20
5.3249703764
 30
0.0
 10
4.4206316187
 20
5.3226084302
 30
0.0
  0
SPLINE
  5
349
100
AcDbEntity
  8
0
100
AcDbSpline
 62
7
  6
CONTINUOUS
 70
0
 71
3
 72
9
 73
5
 74
0
 42
0.0000001
 43
0.0000001
 44
0.0000000001
 40
0.0
 40
0.0
 40
0.0
 40
0.0
 40
0.2490662714
 40
1.0
 40
1.0
 40
1.0
 40
1.0
 10
4.3516612615
 20
5.3381717218
 30
0.0
 10
4.3521467299
 20
5.3381667932
 30
0.0
 10
4.3540945252
 20
5.338071159
 30
0.0
 10
4.3560265105
 20
5.3376780796
 30
0.0
 10
4.3574202776
 20
5.3372308565
 30
0.0
  0
LINE
  5
34A
100
AcDbEntity
  8
0
100
AcDbLine
 62
7
  6
CONTINUOUS
 10
5.7985141324
 20
5.0993889202
 11
5.7378370829
 21
5.3110130981
  0
SPLINE
  5
34B
100
AcDbEntity
  8
0
100
AcDbSpline
 62
7
  6
CONTINUOUS
 70
0
 71
3
 72
15
 73
11
 74
0
 42
0.0000001
 43
0.0000001
 44
0.0000000001
 40
0.0
 40
0.0
 40
0.0
 40
0.0
 40
0.1687346977
 40
0.3302143342
 40
0.47947309
 40
0.6138690132
 40
0.731988377
 40
0.8342358553
 40
0.922357894
 40
1.0
 40
1.0
 40
1.0
 40
1.0
 10
5.8331422546
 20
5.0852668579
 30
0.0
 10
5.8309245325
 20
5.0852660076
 30
0.0
 10
5.8265822017
 20
5.085443368
 30
0.0
 10
5.8203217394
 20
5.0862334503
 30
0.0
 10
5.8146054737
 20
5.087526789
 30
0.0
 10
5.8096009188
 20
5.089251284
 30
0.0
 10
5.8054189233
 20
5.0913502886
 30
0.0
 10
5.8021239193
 20
5.0937543765
 30
0.0
 10
5.7997634311
 20
5.0964119175
 30
0.0
 10
5.7987963134
 20
5.0984082408
 30
0.0
 10
5.7985141324
 20
5.0993889202
 30
0.0
  0
LINE
  5
34C
100
AcDbEntity
  8
0
100
AcDbLine
 62
7
  6
CONTINUOUS
 10
8.27817881
 20
5.0897425146
 11
8.2794497057
 21
5.0855400875
  0
LINE
  5
34D
100
AcDbEntity
  8
0
100
AcDbLine
 62
7
  6
CONTINUOUS
 10
9.0298920224
 20
5.3234110363
 11
8.9911877141
 21
5.3197467402
  0
SPLINE
  5
34E
100
AcDbEntity
  8
0
100
AcDbSpline
 62
7
  6
CONTINUOUS
 70
0
 71
3
 72
9
 73
5
 74
0
 42
0.0000001
 43
0.0000001
 44
0.0000000001
 40
0.0
 40
0.0
 40
0.0
 40
0.0
 40
0.4828674588
 40
1.0
 40
1.0
 40
1.0
 40
1.0
 10
8.762769073
 20
5.316798028
 30
0.0
 10
8.7624967773
 20
5.3152628231
 30
0.0
 10
8.7621392879
 20
5.3120462684
 30
0.0
 10
8.7620852308
 20
5.3088130488
 30
0.0
 10
8.7621340144
 20
5.3071439543
 30
0.0
  0
SPLINE
  5
34F
100
AcDbEntity
  8
0
100
AcDbSpline
 62
7
  6
CONTINUOUS
 70
0
 71
3
 72
12
 73
8
 74
0
 42
0.0000001
 43
0.0000001
 44
0.0000000001
 40
0.0
 40
0.0
 40
0.0
 40
0.0
 40
0.0928493325
 40
0.1970842071
 40
0.4366037378
 40
0.7096072807
 40
1.0
 40
1.0
 40
1.0
 40
1.0
 10
8.9938542699
 20
5.3358094149
 30
0.0
 10
8.99361082
 20
5.3353628903
 30
0.0
 10
8.9931576193
 20
5.3343800774
 30
0.0
 10
8.9923699248
 20
5.332119445
 30
0.0
 10
8.9916460738
 20
5.3288075055
 30
0.0
 10
8.9911900836
 20
5.3244275385
 30
0.0
 10
8.9911454032
 20
5.3213370018
 30
0.0
 10
8.9911921381
 20
5.3197470742
 30
0.0
  0
LINE
  5
350
100
AcDbEntity
  8
0
100
AcDbLine
 62
7
  6
CONTINUOUS
 10
4.3516612615
 20
5.3381717219
 11
4.362098781
 21
5.3348064158
  0
SPLINE
  5
351
100
AcDbEntity
  8
0
100
AcDbSpline
 62
7
  6
CONTINUOUS
 70
0
 71
3
 72
26
 73
22
 74
0
 42
0.0000001
 43
0.0000001
 44
0.0000000001
 40
0.0
 40
0.0
 40
0.0
 40
0.0
 40
0.0003862827
 40
0.0012112369
 40
0.0043697413
 40
0.0095909479
 40
0.0168902989
 40
0.026269571
 40
0.0377173822
 40
0.0512201483
 40
0.0667638679
 40
0.1039170991
 40
0.149062144
 40
0.2020830685
 40
0.2628635302
 40
0.3312869634
 40
0.4071879243
 40
0.4902374596
 40
0.5800723528
 40
0.7786451394
 40
1.0
 40
1.0
 40
1.0
 40
1.0
 10
2.5318109493
 20
4.3391977141
 30
0.0
 10
2.5318110715
 20
4.3391948618
 30
0.0
 10
2.5318205207
 20
4.339189155
 30
0.0
 10
2.5318502335
 20
4.3391829655
 30
0.0
 10
2.531920046
 20
4.3391763949
 30
0.0
 10
2.5320347458
 20
4.3391731769
 30
0.0
 10
2.5321971151
 20
4.3391724141
 30
0.0
 10
2.5324047792
 20
4.3391751659
 30
0.0
 10
2.5326585022
 20
4.339181148
 30
0.0
 10
2.5329576126
 20
4.3391905175
 30
0.0
 10
2.5334465493
 20
4.3392085945
 30
0.0
 10
2.5341689745
 20
4.3392402036
 30
0.0
 10
2.5351678679
 20
4.3392893427
 30
0.0
 10
2.5363409303
 20
4.3393516937
 30
0.0
 10
2.5376855752
 20
4.3394271555
 30
0.0
 10
2.5391988496
 20
4.3395156267
 30
0.0
 10
2.5408762374
 20
4.3396168782
 30
0.0
 10
2.5427114091
 20
4.3397304921
 30
0.0
 10
2.5454512496
 20
4.3399036871
 30
0.0
 10
2.5492108104
 20
4.3401477854
 30
0.0
 10
2.5523074775
 20
4.3403541809
 30
0.0
 10
2.5539397352
 20
4.3404641097
 30
0.0
  0
LINE
  5
352
100
AcDbEntity
  8
0
100
AcDbLine
 62
7
  6
CONTINUOUS
 10
5.730821333
 20
5.3256221319
 11
5.6931454213
 21
5.3381860829
  0
SPLINE
  5
353
100
AcDbEntity
  8
0
100
AcDbSpline
 62
7
  6
CONTINUOUS
 70
0
 71
3
 72
20
 73
16
 74
0
 42
0.0000001
 43
0.0000001
 44
0.0000000001
 40
0.0
 40
0.0
 40
0.0
 40
0.0
 40
0.007901906
 40
0.0178063291
 40
0.0435666114
 40
0.0771027099
 40
0.1181625898
 40
0.166360513
 40
0.2212469232
 40
0.2823606422
 40
0.3491204922
 40
0.4968540054
 40
0.65881208
 40
0.8289002308
 40
1.0
 40
1.0
 40
1.0
 40
1.0
 10
5.6931454213
 20
5.3381860829
 30
0.0
 10
5.6929172152
 20
5.3382627131
 30
0.0
 10
5.6923939538
 20
5.338408205
 30
0.0
 10
5.6910970743
 20
5.3386917815
 30
0.0
 10
5.6890131693
 20
5.339020265
 30
0.0
 10
5.6859771179
 20
5.3393815775
 30
0.0
 10
5.6822517608
 20
5.339726294
 30
0.0
 10
5.6778724197
 20
5.3400518852
 30
0.0
 10
5.6728791882
 20
5.3403540741
 30
0.0
 10
5.6673181922
 20
5.3406292299
 30
0.0
 10
5.6589286745
 20
5.3409679753
 30
0.0
 10
5.6474645172
 20
5.3412959394
 30
0.0
 10
5.6328499491
 20
5.3415386053
 30
0.0
 10
5.6175218269
 20
5.3416310843
 30
0.0
 10
5.6071275439
 20
5.3415916106
 30
0.0
 10
5.6019152645
 20
5.3415450434
 30
0.0
  0
LINE
  5
354
100
AcDbEntity
  8
0
100
AcDbLine
 62
7
  6
CONTINUOUS
 10
5.7111508149
 20
5.3066959486
 11
5.6734573783
 21
5.3192606977
  0
SPLINE
  5
355
100
AcDbEntity
  8
0
100
AcDbSpline
 62
7
  6
CONTINUOUS
 70
0
 71
3
 72
14
 73
10
 74
0
 42
0.0000001
 43
0.0000001
 44
0.0000000001
 40
0.0
 40
0.0
 40
0.0
 40
0.0
 40
0.349141283
 40
0.4972088833
 40
0.6278857866
 40
0.7418007376
 40
0.8402176159
 40
0.9252021409
 40
1.0
 40
1.0
 40
1.0
 40
1.0
 10
5.7185905288
 20
5.2939599142
 30
0.0
 10
5.7181033504
 20
5.2956577757
 30
0.0
 10
5.7173268687
 20
5.298056242
 30
0.0
 10
5.7160778235
 20
5.3009791606
 30
0.0
 10
5.7151629129
 20
5.3027451346
 30
0.0
 10
5.7142187956
 20
5.3042052023
 30
0.0
 10
5.7132450664
 20
5.3053588619
 30
0.0
 10
5.7122401177
 20
5.3062053089
 30
0.0
 10
5.7115098895
 20
5.306576513
 30
0.0
 10
5.7111508149
 20
5.3066959486
 30
0.0
  0
LINE
  5
356
100
AcDbEntity
  8
0
100
AcDbLine
 62
7
  6
CONTINUOUS
 10
5.7395703149
 20
4.3401185408
 11
5.7795346876
 21
5.0823357398
  0
SPLINE
  5
357
100
AcDbEntity
  8
0
100
AcDbSpline
 62
7
  6
CONTINUOUS
 70
0
 71
3
 72
9
 73
5
 74
0
 42
0.0000001
 43
0.0000001
 44
0.0000000001
 40
0.0
 40
0.0
 40
0.0
 40
0.0
 40
0.5292325983
 40
1.0
 40
1.0
 40
1.0
 40
1.0
 10
4.4178423767
 20
5.3415323675
 30
0.0
 10
4.4111798965
 20
5.3415930444
 30
0.0
 10
4.3985901058
 20
5.3416270649
 30
0.0
 10
4.3860007391
 20
5.3414799208
 30
0.0
 10
4.3800755502
 20
5.3413456145
 30
0.0
  0
SPLINE
  5
358
100
AcDbEntity
  8
0
100
AcDbSpline
 62
7
  6
CONTINUOUS
 70
0
 71
3
 72
28
 73
24
 74
0
 42
0.0000001
 43
0.0000001
 44
0.0000000001
 40
0.0
 40
0.0
 40
0.0
 40
0.0
 40
0.2475293958
 40
0.3594406467
 40
0.4628475038
 40
0.557321627
 40
0.6424370763
 40
0.7177812336
 40
0.7830730351
 40
0.8381309489
 40
0.8827962496
 40
0.9011961993
 40
0.9169647305
 40
0.9301120028
 40
0.9406907685
 40
0.9488202655
 40
0.954762958
 40
0.9591806929
 40
0.9634954184
 40
0.9692000723
 40
0.9770244818
 40
0.9872508404
 40
1.0
 40
1.0
 40
1.0
 40
1.0
 10
4.3800755502
 20
5.3413456145
 30
0.0
 10
4.3775179733
 20
5.3412876418
 30
0.0
 10
4.3738044126
 20
5.3411854473
 30
0.0
 10
4.3690242553
 20
5.3410040715
 30
0.0
 10
4.3658258381
 20
5.3408577211
 30
0.0
 10
4.3629054096
 20
5.3406972167
 30
0.0
 10
4.3602763219
 20
5.3405233857
 30
0.0
 10
4.3579505454
 20
5.3403368614
 30
0.0
 10
4.3559375888
 20
5.3401387797
 30
0.0
 10
4.3542447828
 20
5.3399302655
 30
0.0
 10
4.3530384589
 20
5.3397394738
 30
0.0
 10
4.3522400653
 20
5.3395763389
 30
0.0
 10
4.3517648901
 20
5.3394601009
 30
0.0
 10
4.3513739283
 20
5.3393419977
 30
0.0
 10
4.3510664495
 20
5.339222787
 30
0.0
 10
4.3508415523
 20
5.3391011956
 30
0.0
 10
4.3506928785
 20
5.3389777578
 30
0.0
 10
4.3506251777
 20
5.3388306531
 30
0.0
 10
4.3506747069
 20
5.3386786658
 30
0.0
 10
4.3508103502
 20
5.3385492016
 30
0.0
 10
4.3510200826
 20
5.3384202645
 30
0.0
 10
4.351311674
 20
5.3382908425
 30
0.0
 10
4.3515358618
 20
5.3382121759
 30
0.0
 10
4.3516612615
 20
5.3381717219
 30
0.0
  0
SPLINE
  5
359
100
AcDbEntity
  8
0
100
AcDbSpline
 62
7
  6
CONTINUOUS
 70
0
 71
3
 72
25
 73
21
 74
0
 42
0.0000001
 43
0.0000001
 44
0.0000000001
 40
0.0
 40
0.0
 40
0.0
 40
0.0
 40
0.0025570428
 40
0.0043905316
 40
0.0066972899
 40
0.0128524957
 40
0.0211629765
 40
0.0316779626
 40
0.04441856
 40
0.0593699935
 40
0.0764962622
 40
0.1171137031
 40
0.1659408221
 40
0.222633891
 40
0.2868199476
 40
0.357991736
 40
0.4355949881
 40
0.607867619
 40
0.7983492895
 40
1.0
 40
1.0
 40
1.0
 40
1.0
 10
4.4290618685
 20
4.3395841847
 30
0.0
 10
4.4290650367
 20
4.3395411106
 30
0.0
 10
4.4291159802
 20
4.3394746344
 30
0.0
 10
4.4292096797
 20
4.3394138896
 30
0.0
 10
4.4293677132
 20
4.3393386193
 30
0.0
 10
4.429639657
 20
4.3392570129
 30
0.0
 10
4.4300529022
 20
4.3391704455
 30
0.0
 10
4.4305803826
 20
4.3390913132
 30
0.0
 10
4.4312217973
 20
4.3390193786
 30
0.0
 10
4.4319761645
 20
4.3389552735
 30
0.0
 10
4.4332015253
 20
4.3388758102
 30
0.0
 10
4.4350003162
 20
4.3388024293
 30
0.0
 10
4.4374682271
 20
4.3387502593
 30
0.0
 10
4.4403347182
 20
4.3387314165
 30
0.0
 10
4.4435786191
 20
4.3387465123
 30
0.0
 10
4.4471754026
 20
4.3387953713
 30
0.0
 10
4.4525969854
 20
4.3389092461
 30
0.0
 10
4.4600316174
 20
4.3391382085
 30
0.0
 10
4.469557072
 20
4.3395258886
 30
0.0
 10
4.4761726254
 20
4.3398502632
 30
0.0
 10
4.4795738947
 20
4.3400303577
 30
0.0
  0
LINE
  5
35A
100
AcDbEntity
  8
0
100
AcDbLine
 62
7
  6
CONTINUOUS
 10
8.2859052336
 20
5.085321327
 11
8.2805307618
 21
5.0827029855
  0
LINE
  5
35B
100
AcDbEntity
  8
0
100
AcDbLine
 62
7
  6
CONTINUOUS
 10
8.9911877203
 20
5.3197468309
 11
8.812259279
 21
5.3098986997
  0
LINE
  5
35C
100
AcDbEntity
  8
0
100
AcDbLine
 62
7
  6
CONTINUOUS
 10
8.812259279
 20
5.3098986997
 11
8.7871417989
 21
5.3085180723
  0
LINE
  5
35D
100
AcDbEntity
  8
0
100
AcDbLine
 62
7
  6
CONTINUOUS
 10
8.7871417989
 20
5.3085180723
 11
8.7621340144
 21
5.3071439543
  0
LINE
  5
35E
100
AcDbEntity
  8
0
100
AcDbLine
 62
7
  6
CONTINUOUS
 10
8.2805307618
 20
5.0827029855
 11
8.2759346163
 21
4.3404909812
  0
ELLIPSE
  5
35F
100
AcDbEntity
  8
0
100
AcDbEllipse
 62
7
  6
CONTINUOUS
 10
5.5580557339
 20
6.0952108914
 30
0.0
 11
3.9999962282
 21
-0.1484350087
 31
0.0
 40
0.0370070051
 41
-0.8152799677
 42
-0.7527697907
  0
ELLIPSE
  5
360
100
AcDbEntity
  8
0
100
AcDbEllipse
 62
7
  6
CONTINUOUS
 10
5.5580557339
 20
5.5168324418
 30
0.0
 11
3.9999990615
 21
0.202525229
 31
0.0
 40
0.0135294546
 41
0.2298592853
 42
0.2923694623
  0
ELLIPSE
  5
361
100
AcDbEntity
  8
0
100
AcDbEllipse
 62
7
  6
CONTINUOUS
 10
5.5580557339
 20
5.5168324418
 30
0.0
 11
3.9999962282
 21
-0.1484350087
 31
0.0
 40
0.0370070051
 41
2.3263126859
 42
2.3888228629
  0
ELLIPSE
  5
362
100
AcDbEntity
  8
0
100
AcDbEllipse
 62
7
  6
CONTINUOUS
 10
5.5580557339
 20
6.0952108914
 30
0.0
 11
3.9999990615
 21
0.202525229
 31
0.0
 40
0.0135294546
 41
-2.9117333683
 42
-2.8492231913
  0
ENDSEC
  0
SECTION
  2
OBJECTS
  0
DICTIONARY
  5
C
100
AcDbDictionary
280
0
281
1
  3
ACAD_GROUP
350
D
  3
ACAD_MLINESTYLE
350
17
  3
ACAD_LAYOUT
350
1A
  3
ACAD_PLOTSETTINGS
350
19
  3
ACAD_PLOTSTYLENAME
350
E
  0
DICTIONARY
  5
D
102
{ACAD_REACTORS
330
C
102
}
100
AcDbDictionary
280
0
281
1
  0
ACDBDICTIONARYWDFLT
  5
E
102
{ACAD_REACTORS
330
C
102
}
100
AcDbDictionary
281
1
  3
Normal
350
F
100
AcDbDictionaryWithDefault
340
F
  0
DICTIONARY
  5
17
102
{ACAD_REACTORS
330
C
102
}
100
AcDbDictionary
280
0
281
1
  3
Standard
350
18
  0
DICTIONARY
  5
19
102
{ACAD_REACTORS
330
C
102
}
100
AcDbDictionary
281
1
  0
DICTIONARY
  5
1A
102
{ACAD_REACTORS
330
C
102
}
100
AcDbDictionary
281
1
  3
Model
350
363
  3
Layout1
350
364
  0
ACDBPLACEHOLDER
  5
F
102
{ACAD_REACTORS
330
E
102
}
  0
MLINESTYLE
  5
18
102
{ACAD_REACTORS
330
17
102
}
100
AcDbMlineStyle
  2
STANDARD
 70
0
  3

 62
256
 51
90.0
 52
90.0
 71
2
 49
0.5
 62
256
  6
BYLAYER
 49
-0.5
 62
256
  6
BYLAYER
  0
LAYOUT
  5
363
102
{ACAD_REACTORS
330
1A
102
}
100
AcDbPlotSettings
  1

  2
none_device
  4
ANSI_A_(11.00_x_8.50_Inches)
  6

 40
0.0
 41
0.0
 42
0.0
 43
0.0
 44
279.4
 45
215.9
 46
0.0
 47
0.0
 48
0.0
 49
0.0
140
0.0
141
0.0
142
1.0
143
1.0
 70
1024
 72
0
 73
0
 74
0
  7

 75
0
147
1.0
148
0.0
149
0.0
100
AcDbLayout
  1
Model
 70
0
 71
0
 10
0.0
 20
0.0
 11
11.0
 21
8.5
 12
0.0
 22
0.0
 32
0.0
 14
0.0
 24
0.0
 34
0.0
 15
0.0
 25
0.0
 35
0.0
146
0.0
 13
0.0
 23
0.0
 33
0.0
 16
1.0
 26
0.0
 36
0.0
 17
0.0
 27
1.0
 37
0.0
 76
0
330
208
345
0
346
0
  0
LAYOUT
  5
364
102
{ACAD_REACTORS
330
1A
102
}
100
AcDbPlotSettings
  1

  2
none_device
  4
ANSI_A_(11.00_x_8.50_Inches)
  6

 40
0.0
 41
0.0
 42
0.0
 43
0.0
 44
279.4
 45
215.9
 46
0.0
 47
0.0
 48
0.0
 49
0.0
140
0.0
141
0.0
142
1.0
143
1.0
 70
0
 72
0
 73
0
 74
0
  7

 75
0
147
1.0
148
0.0
149
0.0
100
AcDbLayout
  1
Layout1
 70
0
 71
1
 10
0.0
 20
0.0
 11
11.0
 21
8.5
 12
0.0
 22
0.0
 32
0.0
 14
0.0
 24
0.0
 34
0.0
 15
0.0
 25
0.0
 35
0.0
146
0.0
 13
0.0
 23
0.0
 33
0.0
 16
1.0
 26
0.0
 36
0.0
 17
0.0
 27
1.0
 37
0.0
 76
0
330
209
345
0
346
0
  0
ENDSEC
  0
EOF
