999
DXF file: 278a-02_top.dxf
999
Pro/ENGINEER 2013150 by Parametric Technology Corporation
  0
SECTION
  2
HEADER
  9
$ACADVER
  1
AC1021
  9
$DWGCODEPAGE
  3
ANSI_1252
  9
$EXTMAX
 10
11.0
 20
8.5
 30
0.0
  9
$EXTMIN
 10
0.0
 20
0.0
 30
0.0
  9
$LIMMIN
 10
0.0
 20
0.0
  9
$LIMMAX
 10
11.0
 20
8.5
  9
$VIEWCTR
 10
5.5
 20
4.25
  9
$VIEWSIZE
 40
8.5
  9
$CLAYER
  8
0
  9
$LTSCALE
 40
0.605
  9
$CELTYPE
  6
BYLAYER
  9
$DIMSCALE
 40
1.0
  9
$DIMASZ
 40
0.1
  9
$DIMEXO
 40
0.0625
  9
$DIMDLI
 40
0.418
  9
$DIMEXE
 40
0.125
  9
$DIMCEN
 40
0.099
  9
$DIMLFAC
 40
1.0
  9
$DIMBLK
  1
_FILLED
  9
$DIMTXT
 40
0.08
  9
$DIMTOL
 70
1
  9
$DIMLIM
 70
0
  9
$DIMTFAC
 40
1.0
  9
$DIMTP
 40
0.001
  9
$DIMTM
 40
0.001
  9
$DIMGAP
 40
0.09
  9
$DIMDSEP
 70
46
  9
$PDMODE
 70
3
  9
$PDSIZE
 40
0.06
  9
$HANDSEED
  5
2AE
  9
$TILEMODE
 70
1
  9
$MEASUREMENT
 70
0
  9
$INSUNITS
 70
1
  0
ENDSEC
  0
SECTION
  2
CLASSES
  0
CLASS
  1
ACDBDICTIONARYWDFLT
  2
AcDbDictionaryWithDefault
  3
AutoCAD 2000
 90
0
 91
1
280
0
281
0
  0
CLASS
  1
ACDBPLACEHOLDER
  2
AcDbPlaceHolder
  3
AutoCAD 2000
 90
0
 91
1
280
0
281
0
  0
CLASS
  1
LAYOUT
  2
AcDbLayout
  3
AutoCAD 2000
 90
0
 91
0
280
0
281
0
  0
ENDSEC
  0
SECTION
  2
TABLES
  0
TABLE
  2
VPORT
  5
8
100
AcDbSymbolTable
 70
2
  0
VPORT
  5
1F4
100
AcDbSymbolTableRecord
100
AcDbViewportTableRecord
  2
*ACTIVE
 70
0
 10
0.0
 20
0.0
 11
1.0
 21
1.0
 12
5.5
 22
4.25
 13
0.0
 23
0.0
 14
1.0
 24
1.0
 15
0.0
 25
0.0
 16
0.0
 26
0.0
 36
1.0
 17
0.0
 27
0.0
 37
0.0
 40
8.5
 41
1.2941176471
 42
50.0
 43
0.0
 44
0.0
 50
0.0
 51
0.0
 71
0
 72
100
 73
1
 74
1
 75
0
 76
0
 77
0
 78
0
  0
ENDTAB
  0
TABLE
  2
LTYPE
  5
5
100
AcDbSymbolTable
 70
6
  0
LTYPE
  5
14
100
AcDbSymbolTableRecord
100
AcDbLinetypeTableRecord
  2
BYBLOCK
 70
0
  3

 72
65
 73
0
 40
0.0
  0
LTYPE
  5
15
100
AcDbSymbolTableRecord
100
AcDbLinetypeTableRecord
  2
BYLAYER
 70
0
  3

 72
65
 73
0
 40
0.0
  0
LTYPE
  5
16
100
AcDbSymbolTableRecord
100
AcDbLinetypeTableRecord
  2
CONTINUOUS
 70
64
  3
Solid line
 72
65
 73
0
 40
0.0
  0
LTYPE
  5
1F5
100
AcDbSymbolTableRecord
100
AcDbLinetypeTableRecord
  2
CENTER
 70
64
  3
____ _ ____ _ ____ _ ____ _ ____ _ ____ _ ____
 72
65
 73
4
 40
0.6
 49
0.375
 74
0
 49
-0.075
 74
0
 49
0.075
 74
0
 49
-0.075
 74
0
  0
LTYPE
  5
1F6
100
AcDbSymbolTableRecord
100
AcDbLinetypeTableRecord
  2
HIDDEN
 70
64
  3
- - - - - - - - - - - - - - - - - - - -
 72
65
 73
2
 40
0.2
 49
0.1
 74
0
 49
-0.1
 74
0
  0
LTYPE
  5
1F7
100
AcDbSymbolTableRecord
100
AcDbLinetypeTableRecord
  2
PHANTOM
 70
64
  3
_____ _ _ _____ _ _ _____ _ _ _____
 72
65
 73
6
 40
0.8
 49
0.45
 74
0
 49
-0.05
 74
0
 49
0.1
 74
0
 49
-0.05
 74
0
 49
0.1
 74
0
 49
-0.05
 74
0
  0
LTYPE
  5
1F8
100
AcDbSymbolTableRecord
100
AcDbLinetypeTableRecord
  2
DOT
 70
64
  3
. . . . . . . . . . . . . . . . . . . .
 72
65
 73
2
 40
0.2
 49
0.1
 74
0
 49
-0.1
 74
0
  0
LTYPE
  5
1F9
100
AcDbSymbolTableRecord
100
AcDbLinetypeTableRecord
  2
DASHED
 70
64
  3
- - - - - - - - - - - - - - - - - - - -
 72
65
 73
2
 40
0.2
 49
0.1
 74
0
 49
-0.1
 74
0
  0
ENDTAB
  0
TABLE
  2
LAYER
  5
2
100
AcDbSymbolTable
 70
36
  0
LAYER
  5
10
100
AcDbSymbolTableRecord
100
AcDbLayerTableRecord
  2
0
 70
0
 62
7
  6
CONTINUOUS
370
-3
390
F
  0
LAYER
  5
1FA
100
AcDbSymbolTableRecord
100
AcDbLayerTableRecord
  2
DEFAULT_1
 70
0
 62
7
  6
CENTER
370
-3
390
F
  0
LAYER
  5
1FB
100
AcDbSymbolTableRecord
100
AcDbLayerTableRecord
  2
DEFAULT_2
 70
0
 62
8
  6
HIDDEN
370
-3
390
F
  0
LAYER
  5
1FC
100
AcDbSymbolTableRecord
100
AcDbLayerTableRecord
  2
DEFAULT_3
 70
0
 62
7
  6
PHANTOM
370
-3
390
F
  0
LAYER
  5
1FD
100
AcDbSymbolTableRecord
100
AcDbLayerTableRecord
  2
ALL_FEATURES
 70
0
 62
7
  6
CONTINUOUS
370
-3
390
F
  0
LAYER
  5
1FE
100
AcDbSymbolTableRecord
100
AcDbLayerTableRecord
  2
AXES_FEATURES
 70
0
 62
7
  6
CONTINUOUS
370
-3
390
F
  0
LAYER
  5
1FF
100
AcDbSymbolTableRecord
100
AcDbLayerTableRecord
  2
DEFAULT_COORDINATE_SYSTEM
 70
0
 62
7
  6
CONTINUOUS
370
-3
390
F
  0
LAYER
  5
200
100
AcDbSymbolTableRecord
100
AcDbLayerTableRecord
  2
DEFAULT_DATUM_AXES
 70
0
 62
7
  6
CONTINUOUS
370
-3
390
F
  0
LAYER
  5
201
100
AcDbSymbolTableRecord
100
AcDbLayerTableRecord
  2
DEFAULT_DATUM_CURVES
 70
0
 62
7
  6
CONTINUOUS
370
-3
390
F
  0
LAYER
  5
202
100
AcDbSymbolTableRecord
100
AcDbLayerTableRecord
  2
DEFAULT_DATUM_PLANES
 70
0
 62
7
  6
CONTINUOUS
370
-3
390
F
  0
LAYER
  5
203
100
AcDbSymbolTableRecord
100
AcDbLayerTableRecord
  2
DEFAULT_SURFACES
 70
0
 62
7
  6
CONTINUOUS
370
-3
390
F
  0
LAYER
  5
204
100
AcDbSymbolTableRecord
100
AcDbLayerTableRecord
  2
DIMENSIONS
 70
0
 62
7
  6
CONTINUOUS
370
-3
390
F
  0
LAYER
  5
205
100
AcDbSymbolTableRecord
100
AcDbLayerTableRecord
  2
PATTERN_DATUMS
 70
0
 62
7
  6
CONTINUOUS
370
-3
390
F
  0
ENDTAB
  0
TABLE
  2
STYLE
  5
3
100
AcDbSymbolTable
 70
1
  0
STYLE
  5
11
100
AcDbSymbolTableRecord
100
AcDbTextStyleTableRecord
  2
STANDARD
 70
0
 40
0.0
 41
0.8
 50
0.0
 71
0
 42
0.2
  3
txt
  4

  0
STYLE
  5
206
100
AcDbSymbolTableRecord
100
AcDbTextStyleTableRecord
  2
TEXTSTYLE_1
 70
0
 40
0.0
 41
0.8
 50
0.0
 71
0
 42
0.2
  3
gdt
  4

  0
ENDTAB
  0
TABLE
  2
VIEW
  5
6
100
AcDbSymbolTable
 70
0
  0
ENDTAB
  0
TABLE
  2
UCS
  5
7
100
AcDbSymbolTable
 70
0
  0
ENDTAB
  0
TABLE
  2
APPID
  5
9
100
AcDbSymbolTable
 70
1
  0
APPID
  5
207
100
AcDbSymbolTableRecord
100
AcDbRegAppTableRecord
  2
ACAD
 70
0
  0
ENDTAB
  0
TABLE
  2
BLOCK_RECORD
  5
1
100
AcDbSymbolTable
 70
0
  0
BLOCK_RECORD
  5
208
100
AcDbSymbolTableRecord
100
AcDbBlockTableRecord
  2
*Model_Space
  0
BLOCK_RECORD
  5
209
100
AcDbSymbolTableRecord
100
AcDbBlockTableRecord
  2
*Paper_Space
  0
ENDTAB
  0
TABLE
  2
DIMSTYLE
  5
A
100
AcDbSymbolTable
 70
1
100
AcDbDimStyleTable
 71
0
  0
DIMSTYLE
105
20A
100
AcDbSymbolTableRecord
100
AcDbDimStyleTableRecord
  2
STANDARD
 70
0
  3

  4

 40
1.0
 41
0.1
 42
0.0625
 43
0.38
 44
0.125
 45
0.0
 46
0.0
 47
0.001
 48
0.001
140
0.08
141
0.09
142
0.0
143
25.4
144
1.0
145
0.0
146
1.0
147
0.09
 71
1.0
 72
0.0
 73
1
 74
1
 75
0
 76
0
 77
0
 78
4
170
0
171
2
172
0
173
0
174
0
175
0
176
0
177
0
178
0
270
2
271
3
272
3
273
2
274
2
275
0
280
0
281
0
282
0
283
1
284
4
285
0
286
0
287
3
288
0
340
11
278
46
  0
ENDTAB
  0
ENDSEC
  0
SECTION
  2
BLOCKS
  0
BLOCK
  5
20
100
AcDbEntity
  8
0
100
AcDbBlockBegin
  2
*Model_Space
 70
0
 10
0.0
 20
0.0
 30
0.0
  3
*Model_Space
  1

  0
ENDBLK
  5
21
100
AcDbEntity
  8
0
100
AcDbBlockEnd
  0
BLOCK
  5
1C
100
AcDbEntity
  8
0
100
AcDbBlockBegin
  2
*Paper_Space
 70
0
 10
0.0
 20
0.0
 30
0.0
  3
*Paper_Space
  1

  0
ENDBLK
  5
1D
100
AcDbEntity
  8
0
100
AcDbBlockEnd
  0
ENDSEC
  0
SECTION
  2
ENTITIES
  0
LINE
  5
20B
100
AcDbEntity
  8
0
100
AcDbLine
 62
7
  6
CONTINUOUS
 10
0.0
 20
0.0
 11
0.0
 21
8.5
  0
LINE
  5
20C
100
AcDbEntity
  8
0
100
AcDbLine
 62
7
  6
CONTINUOUS
 10
0.0
 20
0.0
 11
11.0
 21
0.0
  0
LINE
  5
20D
100
AcDbEntity
  8
0
100
AcDbLine
 62
7
  6
CONTINUOUS
 10
0.0
 20
8.5
 11
11.0
 21
8.5
  0
LINE
  5
20E
100
AcDbEntity
  8
0
100
AcDbLine
 62
7
  6
CONTINUOUS
 10
11.0
 20
0.0
 11
11.0
 21
8.5
  0
LINE
  5
20F
100
AcDbEntity
  8
0
100
AcDbLine
 62
7
  6
CONTINUOUS
 10
2.5087533529
 20
3.6062520744
 11
2.5734581142
 21
3.3647706178
  0
LINE
  5
210
100
AcDbEntity
  8
0
100
AcDbLine
 62
7
  6
CONTINUOUS
 10
3.2552604265
 20
6.1882685107
 11
3.1805686893
 21
6.0937031144
  0
LINE
  5
211
100
AcDbEntity
  8
0
100
AcDbLine
 62
7
  6
CONTINUOUS
 10
3.5861416617
 20
6.5454569897
 11
3.3467030548
 21
6.4072170481
  0
LINE
  5
212
100
AcDbEntity
  8
0
100
AcDbLine
 62
7
  6
CONTINUOUS
 10
5.0689588519
 20
1.3524263896
 11
5.1881246109
 21
1.3350352585
  0
LINE
  5
213
100
AcDbEntity
  8
0
100
AcDbLine
 62
7
  6
CONTINUOUS
 10
4.8328790232
 20
1.3214875151
 11
4.5934404142
 21
1.4597274566
  0
LINE
  5
214
100
AcDbEntity
  8
0
100
AcDbLine
 62
7
  6
CONTINUOUS
 10
3.5276176747
 20
5.8431188995
 11
3.5885958805
 21
5.9161759035
  0
LINE
  5
215
100
AcDbEntity
  8
0
100
AcDbLine
 62
7
  6
CONTINUOUS
 10
3.5967030542
 20
5.9742043465
 11
3.8361416612
 21
6.1124442881
  0
LINE
  5
216
100
AcDbEntity
  8
0
100
AcDbLine
 62
7
  6
CONTINUOUS
 10
5.2316124141
 20
1.7608806036
 11
5.1367690445
 21
1.7773491839
  0
LINE
  5
217
100
AcDbEntity
  8
0
100
AcDbLine
 62
7
  6
CONTINUOUS
 10
5.0828790227
 20
1.7545002128
 11
4.8434404137
 21
1.8927401543
  0
LINE
  5
218
100
AcDbEntity
  8
0
100
AcDbLine
 62
7
  6
CONTINUOUS
 10
3.3414223594
 20
6.3980706155
 11
3.3414223603
 21
6.1215907267
  0
LINE
  5
219
100
AcDbEntity
  8
0
100
AcDbLine
 62
7
  6
CONTINUOUS
 10
3.8414223565
 20
6.1215907207
 11
3.8414223556
 21
6.3980706095
  0
LINE
  5
21A
100
AcDbEntity
  8
0
100
AcDbLine
 62
7
  6
CONTINUOUS
 10
4.5881597186
 20
1.7453537761
 11
4.5881597188
 21
1.4688738891
  0
LINE
  5
21B
100
AcDbEntity
  8
0
100
AcDbLine
 62
7
  6
CONTINUOUS
 10
3.4333896546
 20
6.4535457103
 11
3.6817794646
 21
6.0233224406
  0
LINE
  5
21C
100
AcDbEntity
  8
0
100
AcDbLine
 62
7
  6
CONTINUOUS
 10
3.4333896546
 20
6.4535457103
 11
3.4317794651
 21
6.4563351422
  0
LINE
  5
21D
100
AcDbEntity
  8
0
100
AcDbLine
 62
7
  6
CONTINUOUS
 10
5.0881597183
 20
1.4688738933
 11
5.0881597181
 21
1.7453537803
  0
LINE
  5
21E
100
AcDbEntity
  8
0
100
AcDbLine
 62
7
  6
CONTINUOUS
 10
3.7510614963
 20
6.0633224395
 11
3.5026716863
 21
6.4935457092
  0
LINE
  5
21F
100
AcDbEntity
  8
0
100
AcDbLine
 62
7
  6
CONTINUOUS
 10
3.5010614968
 20
6.4963351411
 11
3.5026716863
 21
6.4935457092
  0
LINE
  5
220
100
AcDbEntity
  8
0
100
AcDbLine
 62
7
  6
CONTINUOUS
 10
6.1895078554
 20
7.1334749756
 11
6.4720855566
 21
8.1880693134
  0
LINE
  5
221
100
AcDbEntity
  8
0
100
AcDbLine
 62
7
  6
CONTINUOUS
 10
1.7285918441
 20
3.138389383
 11
2.7831861819
 21
3.4209670842
  0
LINE
  5
222
100
AcDbEntity
  8
0
100
AcDbLine
 62
7
  6
CONTINUOUS
 10
8.2967131057
 20
1.3784665952
 11
7.5246964691
 21
2.1504832318
  0
LINE
  5
223
100
AcDbEntity
  8
0
100
AcDbLine
 62
7
  6
CONTINUOUS
 10
6.7135670132
 20
8.1233645521
 11
6.430989312
 21
7.0687702143
  0
LINE
  5
224
100
AcDbEntity
  8
0
100
AcDbLine
 62
7
  6
CONTINUOUS
 10
1.6638870828
 20
3.3798708396
 11
2.7184814206
 21
3.6624485408
  0
LINE
  5
225
100
AcDbEntity
  8
0
100
AcDbLine
 62
7
  6
CONTINUOUS
 10
7.7014731644
 20
2.3272599271
 11
8.473489801
 21
1.5552432905
  0
LINE
  5
226
100
AcDbEntity
  8
0
100
AcDbLine
 62
7
  6
CONTINUOUS
 10
4.692810941
 20
1.4353613434
 11
4.6864657834
 21
1.4243681109
  0
LINE
  5
227
100
AcDbEntity
  8
0
100
AcDbLine
 62
7
  6
CONTINUOUS
 10
4.7557478156
 20
1.384368112
 11
4.7620929732
 21
1.3953613445
  0
LINE
  5
228
100
AcDbEntity
  8
0
100
AcDbLine
 62
7
  6
CONTINUOUS
 10
4.6785193897
 20
1.4106049209
 11
4.6864657834
 21
1.4243681109
  0
LINE
  5
229
100
AcDbEntity
  8
0
100
AcDbLine
 62
7
  6
CONTINUOUS
 10
4.9285193892
 20
1.8436176186
 11
4.692810941
 21
1.4353613434
  0
LINE
  5
22A
100
AcDbEntity
  8
0
100
AcDbLine
 62
7
  6
CONTINUOUS
 10
4.7557478156
 20
1.384368112
 11
4.747801422
 21
1.370604922
  0
LINE
  5
22B
100
AcDbEntity
  8
0
100
AcDbLine
 62
7
  6
CONTINUOUS
 10
4.7620929732
 20
1.3953613445
 11
4.9978014215
 21
1.8036176198
  0
LINE
  5
22C
100
AcDbEntity
  8
0
100
AcDbLine
 62
7
  6
CONTINUOUS
 10
8.2388813323
 20
5.298804786
 11
7.999442723
 21
5.1605648406
  0
LINE
  5
22D
100
AcDbEntity
  8
0
100
AcDbLine
 62
7
  6
CONTINUOUS
 10
7.9941620276
 20
4.9731784624
 11
8.4941620276
 21
4.9731784624
  0
LINE
  5
22E
100
AcDbEntity
  8
0
100
AcDbLine
 62
7
  6
CONTINUOUS
 10
7.9941620276
 20
5.0531784624
 11
8.4941620276
 21
5.0531784624
  0
LINE
  5
22F
100
AcDbEntity
  8
0
100
AcDbLine
 62
7
  6
CONTINUOUS
 10
3.3467030557
 20
6.112444294
 11
3.5861416635
 21
5.9742043467
  0
LINE
  5
230
100
AcDbEntity
  8
0
100
AcDbLine
 62
7
  6
CONTINUOUS
 10
8.249442723
 20
4.7275521387
 11
8.4888813323
 21
4.8657920841
  0
LINE
  5
231
100
AcDbEntity
  8
0
100
AcDbLine
 62
7
  6
CONTINUOUS
 10
3.8361416602
 20
6.4072170422
 11
3.5967030524
 21
6.5454569895
  0
LINE
  5
232
100
AcDbEntity
  8
0
100
AcDbLine
 62
7
  6
CONTINUOUS
 10
4.8328790229
 20
1.8927401542
 11
4.593440414
 21
1.7545002088
  0
LINE
  5
233
100
AcDbEntity
  8
0
100
AcDbLine
 62
7
  6
CONTINUOUS
 10
7.999442723
 20
4.8657920841
 11
8.2388813323
 21
4.7275521387
  0
LINE
  5
234
100
AcDbEntity
  8
0
100
AcDbLine
 62
7
  6
CONTINUOUS
 10
4.843440414
 20
1.3214875151
 11
5.0828790229
 21
1.4597274606
  0
LINE
  5
235
100
AcDbEntity
  8
0
100
AcDbLine
 62
7
  6
CONTINUOUS
 10
8.4888813323
 20
5.1605648406
 11
8.249442723
 21
5.298804786
  0
LINE
  5
236
100
AcDbEntity
  8
0
100
AcDbLine
 62
7
  6
CONTINUOUS
 10
7.9941620276
 20
5.1514184078
 11
7.9941620276
 21
4.8749385169
  0
LINE
  5
237
100
AcDbEntity
  8
0
100
AcDbLine
 62
7
  6
CONTINUOUS
 10
7.9149371129
 20
5.2777024838
 11
7.948004222
 21
5.1875831577
  0
LINE
  5
238
100
AcDbEntity
  8
0
100
AcDbLine
 62
7
  6
CONTINUOUS
 10
8.4941620276
 20
4.8749385169
 11
8.4941620276
 21
5.1514184078
  0
LINE
  5
239
100
AcDbEntity
  8
0
100
AcDbLine
 62
7
  6
CONTINUOUS
 10
8.3503886318
 20
5.3400797191
 11
8.3054739015
 21
5.452963614
  0
LINE
  5
23A
100
AcDbEntity
  8
0
100
AcDbLine
 62
7
  6
CONTINUOUS
 10
7.6782280704
 20
1.9969516305
 11
7.8550047657
 21
2.1737283258
  0
LINE
  5
23B
100
AcDbEntity
  8
0
100
AcDbLine
 62
7
  6
CONTINUOUS
 10
6.4871857784
 20
7.278498282
 11
6.2457043218
 21
7.3432030433
  0
CIRCLE
  5
23C
100
AcDbEntity
  8
0
100
AcDbCircle
 62
7
  6
CONTINUOUS
 10
3.9682979412
 20
1.7497563738
 40
0.185
  0
ARC
  5
23D
100
AcDbEntity
  8
0
100
AcDbCircle
 62
7
  6
CONTINUOUS
 10
2.7508338012
 20
3.5417078125
 40
0.125
100
AcDbArc
 50
285.0
 51
105.0
  0
CIRCLE
  5
23E
100
AcDbEntity
  8
0
100
AcDbCircle
 62
7
  6
CONTINUOUS
 10
3.2922862663
 20
3.237355008
 40
0.125
  0
ARC
  5
23F
100
AcDbEntity
  8
0
100
AcDbCircle
 62
7
  6
CONTINUOUS
 10
5.5580557339
 20
1.5124006623
 40
0.4102529979
100
AcDbArc
 50
205.6156312534
 51
142.7225775601
  0
CIRCLE
  5
240
100
AcDbEntity
  8
0
100
AcDbCircle
 62
7
  6
CONTINUOUS
 10
4.8381485694
 20
1.6071554435
 40
0.34375
  0
ARC
  5
241
100
AcDbEntity
  8
0
100
AcDbCircle
 62
7
  6
CONTINUOUS
 10
4.8381597185
 20
1.6071138347
 40
0.2856751346
100
AcDbArc
 50
328.9408297827
 51
331.0591716039
  0
ARC
  5
242
100
AcDbEntity
  8
0
100
AcDbCircle
 62
7
  6
CONTINUOUS
 10
4.8381597185
 20
1.6071138347
 40
0.2856751346
100
AcDbArc
 50
28.9408291376
 51
31.0591709307
  0
ARC
  5
243
100
AcDbEntity
  8
0
100
AcDbCircle
 62
7
  6
CONTINUOUS
 10
4.8381597185
 20
1.6071138347
 40
0.2856751346
100
AcDbArc
 50
88.9408291095
 51
91.0591709588
  0
ARC
  5
244
100
AcDbEntity
  8
0
100
AcDbCircle
 62
7
  6
CONTINUOUS
 10
4.8381597185
 20
1.6071138347
 40
0.2856751346
100
AcDbArc
 50
148.9408297827
 51
151.0591716039
  0
ARC
  5
245
100
AcDbEntity
  8
0
100
AcDbCircle
 62
7
  6
CONTINUOUS
 10
4.8381597185
 20
1.6071138347
 40
0.2856751346
100
AcDbArc
 50
208.9408291376
 51
211.0591709307
  0
ARC
  5
246
100
AcDbEntity
  8
0
100
AcDbCircle
 62
7
  6
CONTINUOUS
 10
4.8381597185
 20
1.6071138347
 40
0.2856751346
100
AcDbArc
 50
268.9408291095
 51
271.0591709588
  0
ARC
  5
247
100
AcDbEntity
  8
0
100
AcDbCircle
 62
7
  6
CONTINUOUS
 10
4.8381604728
 20
1.6071110194
 40
0.25
100
AcDbArc
 50
249.206896058
 51
50.7931036153
  0
ARC
  5
248
100
AcDbEntity
  8
0
100
AcDbCircle
 62
7
  6
CONTINUOUS
 10
4.8381604728
 20
1.6071110194
 40
0.25
100
AcDbArc
 50
69.206896058
 51
230.7931036153
  0
ARC
  5
249
100
AcDbEntity
  8
0
100
AcDbCircle
 62
7
  6
CONTINUOUS
 10
4.8381604728
 20
1.6071110194
 40
0.2375
100
AcDbArc
 50
249.6960282373
 51
50.303971441
  0
ARC
  5
24A
100
AcDbEntity
  8
0
100
AcDbCircle
 62
7
  6
CONTINUOUS
 10
4.8381604728
 20
1.6071110194
 40
0.2375
100
AcDbArc
 50
69.6960282373
 51
230.303971441
  0
ARC
  5
24B
100
AcDbEntity
  8
0
100
AcDbCircle
 62
7
  6
CONTINUOUS
 10
4.838159906
 20
1.6071131348
 40
0.225
100
AcDbArc
 50
250.2403481631
 51
49.7596515208
  0
ARC
  5
24C
100
AcDbEntity
  8
0
100
AcDbCircle
 62
7
  6
CONTINUOUS
 10
4.838159906
 20
1.6071131348
 40
0.225
100
AcDbArc
 50
70.2403481631
 51
229.7596515208
  0
ARC
  5
24D
100
AcDbEntity
  8
0
100
AcDbCircle
 62
7
  6
CONTINUOUS
 10
4.3697058406
 20
2.0589395679
 40
0.15625
100
AcDbArc
 50
242.0
 51
61.9999999999
  0
ARC
  5
24E
100
AcDbEntity
  8
0
100
AcDbCircle
 62
7
  6
CONTINUOUS
 10
5.5319510156
 20
4.2702659284
 40
2.2309587015
100
AcDbArc
 50
143.7926518221
 51
144.0816572048
  0
CIRCLE
  5
24F
100
AcDbEntity
  8
0
100
AcDbCircle
 62
7
  6
CONTINUOUS
 10
5.5579321207
 20
4.2934393315
 40
4.0625
  0
CIRCLE
  5
250
100
AcDbEntity
  8
0
100
AcDbCircle
 62
7
  6
CONTINUOUS
 10
5.5580557339
 20
4.2939006623
 40
4.0
  0
ARC
  5
251
100
AcDbEntity
  8
0
100
AcDbCircle
 62
7
  6
CONTINUOUS
 10
5.5580557339
 20
4.2939006623
 40
3.812505
100
AcDbArc
 50
316.8789776255
 51
73.1210223745
  0
ARC
  5
252
100
AcDbEntity
  8
0
100
AcDbCircle
 62
7
  6
CONTINUOUS
 10
5.5580557339
 20
4.2939006623
 40
3.812505
100
AcDbArc
 50
76.8789776255
 51
193.1210223745
  0
ARC
  5
253
100
AcDbEntity
  8
0
100
AcDbCircle
 62
7
  6
CONTINUOUS
 10
5.5580557339
 20
4.2939006623
 40
3.812505
100
AcDbArc
 50
196.8789776255
 51
313.1210223745
  0
ARC
  5
254
100
AcDbEntity
  8
0
100
AcDbCircle
 62
7
  6
CONTINUOUS
 10
5.5580557339
 20
4.2939006623
 40
3.7812764135
100
AcDbArc
 50
196.8944072686
 51
313.1055927314
  0
ARC
  5
255
100
AcDbEntity
  8
0
100
AcDbCircle
 62
7
  6
CONTINUOUS
 10
5.5580557339
 20
4.2939006623
 40
3.7812764135
100
AcDbArc
 50
76.8944072686
 51
193.1055927314
  0
ARC
  5
256
100
AcDbEntity
  8
0
100
AcDbCircle
 62
7
  6
CONTINUOUS
 10
5.5580557339
 20
4.2939006623
 40
3.7812764135
100
AcDbArc
 50
316.8944072686
 51
73.1055927314
  0
ARC
  5
257
100
AcDbEntity
  8
0
100
AcDbCircle
 62
7
  6
CONTINUOUS
 10
5.5580557339
 20
4.2939006623
 40
3.531255
100
AcDbArc
 50
317.0286987742
 51
72.9713012258
  0
ARC
  5
258
100
AcDbEntity
  8
0
100
AcDbCircle
 62
7
  6
CONTINUOUS
 10
5.5580557339
 20
4.2939006623
 40
3.531255
100
AcDbArc
 50
77.0286987742
 51
192.9713012258
  0
ARC
  5
259
100
AcDbEntity
  8
0
100
AcDbCircle
 62
7
  6
CONTINUOUS
 10
5.5580557339
 20
4.2939006623
 40
3.531255
100
AcDbArc
 50
197.0286987742
 51
312.9713012258
  0
ARC
  5
25A
100
AcDbEntity
  8
0
100
AcDbCircle
 62
7
  6
CONTINUOUS
 10
5.5580557339
 20
4.2939006623
 40
3.5000264135
100
AcDbArc
 50
77.0466976452
 51
192.9533023548
  0
ARC
  5
25B
100
AcDbEntity
  8
0
100
AcDbCircle
 62
7
  6
CONTINUOUS
 10
5.5580557339
 20
4.2939006623
 40
3.5000264135
100
AcDbArc
 50
197.0466976452
 51
312.9533023548
  0
ARC
  5
25C
100
AcDbEntity
  8
0
100
AcDbCircle
 62
7
  6
CONTINUOUS
 10
5.5580557339
 20
4.2939006623
 40
3.5000264135
100
AcDbArc
 50
317.0466976452
 51
72.9533023548
  0
ARC
  5
25D
100
AcDbEntity
  8
0
100
AcDbCircle
 62
7
  6
CONTINUOUS
 10
5.5579333263
 20
4.293443831
 40
3.183792827
100
AcDbArc
 50
148.3753409006
 51
151.575532757
  0
ARC
  5
25E
100
AcDbEntity
  8
0
100
AcDbCircle
 62
7
  6
CONTINUOUS
 10
5.5579333263
 20
4.293443831
 40
3.183792827
100
AcDbArc
 50
117.4646876862
 51
118.5005863146
  0
ARC
  5
25F
100
AcDbEntity
  8
0
100
AcDbCircle
 62
7
  6
CONTINUOUS
 10
5.5579333263
 20
4.293443831
 40
3.183792827
100
AcDbArc
 50
28.3737510986
 51
31.6065621076
  0
ARC
  5
260
100
AcDbEntity
  8
0
100
AcDbCircle
 62
7
  6
CONTINUOUS
 10
5.5579333263
 20
4.293443831
 40
3.183792827
100
AcDbArc
 50
357.5099817043
 51
358.4848298472
  0
ARC
  5
261
100
AcDbEntity
  8
0
100
AcDbCircle
 62
7
  6
CONTINUOUS
 10
5.5579333263
 20
4.293443831
 40
3.183792827
100
AcDbArc
 50
268.4381443678
 51
271.542090862
  0
ARC
  5
262
100
AcDbEntity
  8
0
100
AcDbCircle
 62
7
  6
CONTINUOUS
 10
5.5579333638
 20
4.2934439708
 40
3.1565
100
AcDbArc
 50
146.7633166074
 51
153.2414881664
  0
ARC
  5
263
100
AcDbEntity
  8
0
100
AcDbCircle
 62
7
  6
CONTINUOUS
 10
5.5579333638
 20
4.2934439708
 40
3.1565
100
AcDbArc
 50
116.1404076424
 51
119.8557628869
  0
ARC
  5
264
100
AcDbEntity
  8
0
100
AcDbCircle
 62
7
  6
CONTINUOUS
 10
5.5579333638
 20
4.2934439708
 40
3.1565
100
AcDbArc
 50
26.7702291035
 51
33.2669698085
  0
ARC
  5
265
100
AcDbEntity
  8
0
100
AcDbCircle
 62
7
  6
CONTINUOUS
 10
5.5579333638
 20
4.2934439708
 40
3.1565
100
AcDbArc
 50
356.1623128165
 51
359.8644127014
  0
ARC
  5
266
100
AcDbEntity
  8
0
100
AcDbCircle
 62
7
  6
CONTINUOUS
 10
5.5579333638
 20
4.2934439708
 40
3.1565
100
AcDbArc
 50
266.7983616541
 51
273.2284548454
  0
ARC
  5
267
100
AcDbEntity
  8
0
100
AcDbCircle
 62
7
  6
CONTINUOUS
 10
5.5579333638
 20
4.2934439708
 40
3.1565
100
AcDbArc
 50
236.1663484442
 51
239.8375505344
  0
ARC
  5
268
100
AcDbEntity
  8
0
100
AcDbCircle
 62
7
  6
CONTINUOUS
 10
5.5580557339
 20
4.2939006623
 40
3.125
100
AcDbArc
 50
0.5522862132
 51
25.63973579
  0
ARC
  5
269
100
AcDbEntity
  8
0
100
AcDbCircle
 62
7
  6
CONTINUOUS
 10
5.5580557339
 20
4.2939006623
 40
3.125
100
AcDbArc
 50
317.292442776
 51
355.4477137868
  0
ARC
  5
26A
100
AcDbEntity
  8
0
100
AcDbCircle
 62
7
  6
CONTINUOUS
 10
5.5580557339
 20
4.2939006623
 40
3.125
100
AcDbArc
 50
34.36026421
 51
72.707557224
  0
ARC
  5
26B
100
AcDbEntity
  8
0
100
AcDbCircle
 62
7
  6
CONTINUOUS
 10
5.5580557339
 20
4.2939006623
 40
3.125
100
AcDbArc
 50
120.5522862132
 51
145.63973579
  0
ARC
  5
26C
100
AcDbEntity
  8
0
100
AcDbCircle
 62
7
  6
CONTINUOUS
 10
5.5580557339
 20
4.2939006623
 40
3.125
100
AcDbArc
 50
255.337783876
 51
265.63973579
  0
ARC
  5
26D
100
AcDbEntity
  8
0
100
AcDbCircle
 62
7
  6
CONTINUOUS
 10
5.5580557339
 20
4.2939006623
 40
3.125
100
AcDbArc
 50
240.5522862132
 51
254.6263913066
  0
ARC
  5
26E
100
AcDbEntity
  8
0
100
AcDbCircle
 62
7
  6
CONTINUOUS
 10
5.5580557339
 20
4.2939006623
 40
3.125
100
AcDbArc
 50
154.36026421
 51
192.707557224
  0
ARC
  5
26F
100
AcDbEntity
  8
0
100
AcDbCircle
 62
7
  6
CONTINUOUS
 10
5.5580557339
 20
4.2939006623
 40
3.125
100
AcDbArc
 50
77.292442776
 51
115.4477137868
  0
ARC
  5
270
100
AcDbEntity
  8
0
100
AcDbCircle
 62
7
  6
CONTINUOUS
 10
5.5580557339
 20
4.2939006623
 40
3.125
100
AcDbArc
 50
197.292442776
 51
235.4477137868
  0
ARC
  5
271
100
AcDbEntity
  8
0
100
AcDbCircle
 62
7
  6
CONTINUOUS
 10
5.5580557339
 20
4.2939006623
 40
3.125
100
AcDbArc
 50
274.36026421
 51
312.707557224
  0
ARC
  5
272
100
AcDbEntity
  8
0
100
AcDbCircle
 62
7
  6
CONTINUOUS
 10
5.5580557339
 20
4.2939006623
 40
2.6875
100
AcDbArc
 50
49.0
 51
122.0
  0
ARC
  5
273
100
AcDbEntity
  8
0
100
AcDbCircle
 62
7
  6
CONTINUOUS
 10
5.5580557339
 20
4.2939006623
 40
2.6875
100
AcDbArc
 50
289.0
 51
2.0
  0
ARC
  5
274
100
AcDbEntity
  8
0
100
AcDbCircle
 62
7
  6
CONTINUOUS
 10
5.5580557339
 20
4.2939006623
 40
2.6875
100
AcDbArc
 50
169.0
 51
242.0
  0
ARC
  5
275
100
AcDbEntity
  8
0
100
AcDbCircle
 62
7
  6
CONTINUOUS
 10
5.5580557339
 20
4.2939006623
 40
2.375
100
AcDbArc
 50
151.2342246555
 51
268.7657753445
  0
ARC
  5
276
100
AcDbEntity
  8
0
100
AcDbCircle
 62
7
  6
CONTINUOUS
 10
5.5580557339
 20
4.2939006623
 40
2.375
100
AcDbArc
 50
271.2342246555
 51
28.7657753445
  0
ARC
  5
277
100
AcDbEntity
  8
0
100
AcDbCircle
 62
7
  6
CONTINUOUS
 10
5.5580557339
 20
4.2939006623
 40
2.375
100
AcDbArc
 50
31.2342246555
 51
148.7657753445
  0
CIRCLE
  5
278
100
AcDbEntity
  8
0
100
AcDbCircle
 62
7
  6
CONTINUOUS
 10
5.5580557339
 20
4.2939006623
 40
2.3531745191
  0
ARC
  5
279
100
AcDbEntity
  8
0
100
AcDbCircle
 62
7
  6
CONTINUOUS
 10
5.5580573903
 20
4.2939008999
 40
2.2385000238
100
AcDbArc
 50
144.9636062904
 51
231.3635476504
  0
ARC
  5
27A
100
AcDbEntity
  8
0
100
AcDbCircle
 62
7
  6
CONTINUOUS
 10
5.5572915146
 20
4.2943276833
 40
2.2376295411
100
AcDbArc
 50
140.9245997765
 51
144.5737199053
  0
ARC
  5
27B
100
AcDbEntity
  8
0
100
AcDbCircle
 62
7
  6
CONTINUOUS
 10
5.5535720568
 20
4.2882843154
 40
2.2313134367
100
AcDbArc
 50
230.6179894618
 51
231.3634637989
  0
ARC
  5
27C
100
AcDbEntity
  8
0
100
AcDbCircle
 62
7
  6
CONTINUOUS
 10
5.5512591964
 20
4.2986645827
 40
2.230200129
100
AcDbArc
 50
144.5746784646
 51
144.9635452464
  0
CIRCLE
  5
27D
100
AcDbEntity
  8
0
100
AcDbCircle
 62
7
  6
CONTINUOUS
 10
5.5580557339
 20
4.2939006623
 40
2.1625
  0
CIRCLE
  5
27E
100
AcDbEntity
  8
0
100
AcDbCircle
 62
7
  6
CONTINUOUS
 10
5.557980555
 20
4.2936200909
 40
1.035
  0
ARC
  5
27F
100
AcDbEntity
  8
0
100
AcDbCircle
 62
7
  6
CONTINUOUS
 10
5.3999114288
 20
4.3185040861
 40
2.34
100
AcDbArc
 50
204.1989563883
 51
205.0538191838
  0
ARC
  5
280
100
AcDbEntity
  8
0
100
AcDbCircle
 62
7
  6
CONTINUOUS
 10
5.3999114288
 20
4.3185040861
 40
2.34
100
AcDbArc
 50
142.1230157069
 51
155.3648134438
  0
ARC
  5
281
100
AcDbEntity
  8
0
100
AcDbCircle
 62
7
  6
CONTINUOUS
 10
3.1492060733
 20
5.6846506623
 40
0.4102529979
100
AcDbArc
 50
85.6156312534
 51
22.7225775601
  0
CIRCLE
  5
282
100
AcDbEntity
  8
0
100
AcDbCircle
 62
7
  6
CONTINUOUS
 10
3.5914528177
 20
6.2598611279
 40
0.34375
  0
ARC
  5
283
100
AcDbEntity
  8
0
100
AcDbCircle
 62
7
  6
CONTINUOUS
 10
3.591422358
 20
6.2598306681
 40
0.2856751346
100
AcDbArc
 50
208.9408286018
 51
211.0591704511
  0
ARC
  5
284
100
AcDbEntity
  8
0
100
AcDbCircle
 62
7
  6
CONTINUOUS
 10
3.591422358
 20
6.2598306681
 40
0.2856751346
100
AcDbArc
 50
268.9408292749
 51
271.0591710961
  0
ARC
  5
285
100
AcDbEntity
  8
0
100
AcDbCircle
 62
7
  6
CONTINUOUS
 10
3.591422358
 20
6.2598306681
 40
0.2856751346
100
AcDbArc
 50
328.9408286299
 51
331.059170423
  0
ARC
  5
286
100
AcDbEntity
  8
0
100
AcDbCircle
 62
7
  6
CONTINUOUS
 10
3.591422358
 20
6.2598306681
 40
0.2856751346
100
AcDbArc
 50
28.9408286018
 51
31.0591704511
  0
ARC
  5
287
100
AcDbEntity
  8
0
100
AcDbCircle
 62
7
  6
CONTINUOUS
 10
3.591422358
 20
6.2598306681
 40
0.2856751346
100
AcDbArc
 50
88.9408292749
 51
91.0591710961
  0
ARC
  5
288
100
AcDbEntity
  8
0
100
AcDbCircle
 62
7
  6
CONTINUOUS
 10
3.591422358
 20
6.2598306681
 40
0.2856751346
100
AcDbArc
 50
148.9408286299
 51
151.059170423
  0
ARC
  5
289
100
AcDbEntity
  8
0
100
AcDbCircle
 62
7
  6
CONTINUOUS
 10
3.591420297
 20
6.2598286071
 40
0.25
100
AcDbArc
 50
129.2068960558
 51
290.7931038537
  0
ARC
  5
28A
100
AcDbEntity
  8
0
100
AcDbCircle
 62
7
  6
CONTINUOUS
 10
3.591420297
 20
6.2598286071
 40
0.25
100
AcDbArc
 50
309.2068960558
 51
110.7931038537
  0
ARC
  5
28B
100
AcDbEntity
  8
0
100
AcDbCircle
 62
7
  6
CONTINUOUS
 10
3.591420297
 20
6.2598286071
 40
0.2375
100
AcDbArc
 50
129.6960282252
 51
290.3039716818
  0
ARC
  5
28C
100
AcDbEntity
  8
0
100
AcDbCircle
 62
7
  6
CONTINUOUS
 10
3.591420297
 20
6.2598286071
 40
0.2375
100
AcDbArc
 50
309.6960282252
 51
110.3039716818
  0
ARC
  5
28D
100
AcDbEntity
  8
0
100
AcDbCircle
 62
7
  6
CONTINUOUS
 10
3.5914218456
 20
6.2598301558
 40
0.225
100
AcDbArc
 50
130.24034814
 51
289.7596517641
  0
ARC
  5
28E
100
AcDbEntity
  8
0
100
AcDbCircle
 62
7
  6
CONTINUOUS
 10
3.5914218456
 20
6.2598301558
 40
0.225
100
AcDbArc
 50
310.24034814
 51
109.7596517641
  0
CIRCLE
  5
28F
100
AcDbEntity
  8
0
100
AcDbCircle
 62
7
  6
CONTINUOUS
 10
4.1496410455
 20
6.9427434409
 40
0.185
  0
ARC
  5
290
100
AcDbEntity
  8
0
100
AcDbCircle
 62
7
  6
CONTINUOUS
 10
4.2166975963
 20
6.4405224057
 40
0.15625
100
AcDbArc
 50
122.0
 51
301.9999999999
  0
ARC
  5
291
100
AcDbEntity
  8
0
100
AcDbCircle
 62
7
  6
CONTINUOUS
 10
3.0733119258
 20
4.7768859319
 40
0.15625
100
AcDbArc
 50
349.0000000001
 51
169.0
  0
ARC
  5
292
100
AcDbEntity
  8
0
100
AcDbCircle
 62
7
  6
CONTINUOUS
 10
5.7159716977
 20
4.2684450572
 40
2.34
100
AcDbArc
 50
320.288897407
 51
326.3226778682
  0
CIRCLE
  5
293
100
AcDbEntity
  8
0
100
AcDbCircle
 62
7
  6
CONTINUOUS
 10
8.556228215
 20
4.1892021722
 40
0.185
  0
ARC
  5
294
100
AcDbEntity
  8
0
100
AcDbCircle
 62
7
  6
CONTINUOUS
 10
6.3821501249
 20
1.9005567678
 40
0.15625
100
AcDbArc
 50
109.0
 51
289.0
  0
ARC
  5
295
100
AcDbEntity
  8
0
100
AcDbCircle
 62
7
  6
CONTINUOUS
 10
7.6130848167
 20
2.2388715795
 40
0.125
100
AcDbArc
 50
45.0
 51
225.0
  0
CIRCLE
  5
296
100
AcDbEntity
  8
0
100
AcDbCircle
 62
7
  6
CONTINUOUS
 10
7.6059358446
 20
2.8599595714
 40
0.125
  0
ARC
  5
297
100
AcDbEntity
  8
0
100
AcDbCircle
 62
7
  6
CONTINUOUS
 10
7.9669053945
 20
5.6846506623
 40
0.4102529979
100
AcDbArc
 50
325.6156312534
 51
262.7225775601
  0
CIRCLE
  5
298
100
AcDbEntity
  8
0
100
AcDbCircle
 62
7
  6
CONTINUOUS
 10
8.2441620276
 20
5.0131784624
 40
0.34375
  0
ARC
  5
299
100
AcDbEntity
  8
0
100
AcDbCircle
 62
7
  6
CONTINUOUS
 10
8.2441620276
 20
5.0131784624
 40
0.2856751346
100
AcDbArc
 50
88.9408290894
 51
91.0591709106
  0
ARC
  5
29A
100
AcDbEntity
  8
0
100
AcDbCircle
 62
7
  6
CONTINUOUS
 10
8.2441620276
 20
5.0131784624
 40
0.2856751346
100
AcDbArc
 50
148.9408290894
 51
151.0591709106
  0
ARC
  5
29B
100
AcDbEntity
  8
0
100
AcDbCircle
 62
7
  6
CONTINUOUS
 10
8.2441620276
 20
5.0131784624
 40
0.2856751346
100
AcDbArc
 50
208.9408290894
 51
211.0591709106
  0
ARC
  5
29C
100
AcDbEntity
  8
0
100
AcDbCircle
 62
7
  6
CONTINUOUS
 10
8.2441620276
 20
5.0131784624
 40
0.2856751346
100
AcDbArc
 50
268.9408290894
 51
271.0591709106
  0
ARC
  5
29D
100
AcDbEntity
  8
0
100
AcDbCircle
 62
7
  6
CONTINUOUS
 10
8.2441620276
 20
5.0131784624
 40
0.2856751346
100
AcDbArc
 50
328.9408290894
 51
331.0591709106
  0
ARC
  5
29E
100
AcDbEntity
  8
0
100
AcDbCircle
 62
7
  6
CONTINUOUS
 10
8.2441620276
 20
5.0131784624
 40
0.2856751346
100
AcDbArc
 50
28.9408290894
 51
31.0591709106
  0
ARC
  5
29F
100
AcDbEntity
  8
0
100
AcDbCircle
 62
7
  6
CONTINUOUS
 10
8.2441620276
 20
5.0131784624
 40
0.25
100
AcDbArc
 50
9.2068962213
 51
170.7931037787
  0
ARC
  5
2A0
100
AcDbEntity
  8
0
100
AcDbCircle
 62
7
  6
CONTINUOUS
 10
8.2441620276
 20
5.0131784624
 40
0.25
100
AcDbArc
 50
189.2068962213
 51
350.7931037787
  0
ARC
  5
2A1
100
AcDbEntity
  8
0
100
AcDbCircle
 62
7
  6
CONTINUOUS
 10
8.2441620276
 20
5.0131784624
 40
0.2375
100
AcDbArc
 50
9.6960283981
 51
170.3039716019
  0
ARC
  5
2A2
100
AcDbEntity
  8
0
100
AcDbCircle
 62
7
  6
CONTINUOUS
 10
8.2441620276
 20
5.0131784624
 40
0.2375
100
AcDbArc
 50
189.6960283981
 51
350.3039716019
  0
ARC
  5
2A3
100
AcDbEntity
  8
0
100
AcDbCircle
 62
7
  6
CONTINUOUS
 10
8.2441620276
 20
5.0131784624
 40
0.225
100
AcDbArc
 50
10.2403483212
 51
169.7596516788
  0
ARC
  5
2A4
100
AcDbEntity
  8
0
100
AcDbCircle
 62
7
  6
CONTINUOUS
 10
8.2441620276
 20
5.0131784624
 40
0.225
100
AcDbArc
 50
190.2403483212
 51
349.7596516788
  0
ARC
  5
2A5
100
AcDbEntity
  8
0
100
AcDbCircle
 62
7
  6
CONTINUOUS
 10
7.218705151
 20
6.2042592873
 40
0.15625
100
AcDbArc
 50
229.0
 51
49.0
  0
ARC
  5
2A6
100
AcDbEntity
  8
0
100
AcDbCircle
 62
7
  6
CONTINUOUS
 10
8.0877637648
 20
4.3822400133
 40
0.15625
100
AcDbArc
 50
2.0
 51
181.9999999999
  0
ARC
  5
2A7
100
AcDbEntity
  8
0
100
AcDbCircle
 62
7
  6
CONTINUOUS
 10
6.3102485837
 20
7.101122595
 40
0.125
100
AcDbArc
 50
165.0
 51
345.0
  0
CIRCLE
  5
2A8
100
AcDbEntity
  8
0
100
AcDbCircle
 62
7
  6
CONTINUOUS
 10
5.7759450908
 20
6.7843874075
 40
0.125
  0
LINE
  5
2A9
100
AcDbEntity
  8
0
100
AcDbLine
 62
7
  6
CONTINUOUS
 10
3.3831345114
 20
3.3230947652
 11
3.2800815192
 21
3.3275859267
  0
SPLINE
  5
2AA
100
AcDbEntity
  8
0
100
AcDbSpline
 62
7
  6
CONTINUOUS
 70
0
 71
3
 72
45
 73
41
 74
0
 42
0.0000001
 43
0.0000001
 44
0.0000000001
 40
0.0
 40
0.0
 40
0.0
 40
0.0
 40
0.0312413762
 40
0.0624991089
 40
0.0937515029
 40
0.1093775334
 40
0.1250030498
 40
0.1562509114
 40
0.1875004506
 40
0.2031274789
 40
0.2187543667
 40
0.2500033293
 40
0.2656300056
 40
0.2812567646
 40
0.3125059524
 40
0.3437550491
 40
0.3750041634
 40
0.4062531209
 40
0.4375021531
 40
0.4687511762
 40
0.5000003615
 40
0.5312495121
 40
0.5624985514
 40
0.5937475469
 40
0.6249965721
 40
0.6562457426
 40
0.6718726463
 40
0.687499605
 40
0.7187488217
 40
0.7343756301
 40
0.7500023785
 40
0.7812512707
 40
0.8125006848
 40
0.8437504902
 40
0.8749984206
 40
0.8906240046
 40
0.9062500754
 40
0.937502621
 40
0.9687606064
 40
1.0
 40
1.0
 40
1.0
 40
1.0
 10
3.7318248845
 20
5.5881136585
 30
0.0
 10
3.7616099114
 20
5.6287988085
 30
0.0
 10
3.8239744715
 20
5.7081975126
 30
0.0
 10
3.9253264638
 20
5.820693937
 30
0.0
 10
4.0159736789
 20
5.9085205594
 30
0.0
 10
4.0919121134
 20
5.9749530555
 30
0.0
 10
4.1700536419
 20
6.038769122
 30
0.0
 10
4.2717332261
 20
6.1135044904
 30
0.0
 10
4.3782518345
 20
6.1811689552
 30
0.0
 10
4.4660656227
 20
6.2308552626
 30
0.0
 10
4.5555194062
 20
6.2775179563
 30
0.0
 10
4.6473080974
 20
6.3195862266
 30
0.0
 10
4.7410543723
 20
6.3568809697
 30
0.0
 10
4.8360216358
 20
6.3909527257
 30
0.0
 10
4.9568298547
 20
6.427437583
 30
0.0
 10
5.1044340063
 20
6.4612189618
 30
0.0
 10
5.2540063715
 20
6.4848236521
 30
0.0
 10
5.4048417226
 20
6.4981501117
 30
0.0
 10
5.5562361389
 20
6.5010995501
 30
0.0
 10
5.7074778063
 20
6.493675485
 30
0.0
 10
5.8578516725
 20
6.4758712512
 30
0.0
 10
6.006649707
 20
6.4477905565
 30
0.0
 10
6.1531596766
 20
6.4095263173
 30
0.0
 10
6.2966913197
 20
6.3612744912
 30
0.0
 10
6.4365486085
 20
6.3032342068
 30
0.0
 10
6.5494954693
 20
6.2469363012
 30
0.0
 10
6.6373410536
 20
6.1973071159
 30
0.0
 10
6.723413598
 20
6.1446660175
 30
0.0
 10
6.8067062179
 20
6.0875871624
 30
0.0
 10
6.8868590731
 20
6.0263090356
 30
0.0
 10
6.9648374303
 20
5.9622848125
 30
0.0
 10
7.0580797612
 20
5.8772407507
 30
0.0
 10
7.1626085657
 20
5.7676796353
 30
0.0
 10
7.2592673336
 20
5.6511186432
 30
0.0
 10
7.3328821303
 20
5.5486148344
 30
0.0
 10
7.387366593
 20
5.4637017882
 30
0.0
 10
7.438864926
 20
5.3769370268
 30
0.0
 10
7.4975251352
 20
5.265173001
 30
0.0
 10
7.5583550279
 20
5.1265054173
 30
0.0
 10
7.592374785
 20
5.0314429434
 30
0.0
 10
7.6076873683
 20
4.9834051316
 30
0.0
  0
SPLINE
  5
2AB
100
AcDbEntity
  8
0
100
AcDbSpline
 62
7
  6
CONTINUOUS
 70
0
 71
3
 72
44
 73
40
 74
0
 42
0.0000001
 43
0.0000001
 44
0.0000000001
 40
0.0
 40
0.0
 40
0.0
 40
0.0
 40
0.0312395114
 40
0.0624975617
 40
0.0937503826
 40
0.1093766767
 40
0.1250024578
 40
0.1562505024
 40
0.1875002327
 40
0.2187497719
 40
0.2499990157
 40
0.2812481889
 40
0.3124975919
 40
0.3281246096
 40
0.3437515545
 40
0.359378502
 40
0.3750054687
 40
0.4062546668
 40
0.4375039968
 40
0.4687533381
 40
0.5000026615
 40
0.5312519247
 40
0.5625010474
 40
0.5937502697
 40
0.6249995888
 40
0.6562490437
 40
0.6874982524
 40
0.7187474277
 40
0.749996451
 40
0.7812457744
 40
0.7968728757
 40
0.8125001061
 40
0.8437498652
 40
0.874997641
 40
0.8906231692
 40
0.906249342
 40
0.9375025717
 40
0.9687604991
 40
1.0
 40
1.0
 40
1.0
 40
1.0
 10
7.7188647379
 20
4.2083980424
 30
0.0
 10
7.7176713775
 20
4.1578757484
 30
0.0
 10
7.7117258703
 20
4.0568493078
 30
0.0
 10
7.6922498106
 20
3.9063285918
 30
0.0
 10
7.6672658162
 20
3.7823030391
 30
0.0
 10
7.6421258603
 20
3.6843454689
 30
0.0
 10
7.6135845664
 20
3.5873319936
 30
0.0
 10
7.5715703982
 20
3.4680207498
 30
0.0
 10
7.5113147512
 20
3.3287184404
 30
0.0
 10
7.4414956321
 20
3.1939491444
 30
0.0
 10
7.3624758983
 20
3.0643615716
 30
0.0
 10
7.2746439716
 20
2.9405816174
 30
0.0
 10
7.1944574737
 20
2.842749628
 30
0.0
 10
7.1263734793
 20
2.7679726189
 30
0.0
 10
7.0733879054
 20
2.7136903317
 30
0.0
 10
7.0185532086
 20
2.6612769125
 30
0.0
 10
6.9430761043
 20
2.5939706236
 30
0.0
 10
6.8444255699
 20
2.5147941667
 30
0.0
 10
6.7197728773
 20
2.4282080237
 30
0.0
 10
6.5894436855
 20
2.350420319
 30
0.0
 10
6.4540562251
 20
2.2818170226
 30
0.0
 10
6.3142712207
 20
2.2226879951
 30
0.0
 10
6.1707447291
 20
2.1733313275
 30
0.0
 10
6.0241695384
 20
2.1339409919
 30
0.0
 10
5.8752326801
 20
2.1047212357
 30
0.0
 10
5.7246445939
 20
2.0857709805
 30
0.0
 10
5.5731119644
 20
2.077193401
 30
0.0
 10
5.4213477363
 20
2.0789973791
 30
0.0
 10
5.2700655011
 20
2.0911765551
 30
0.0
 10
5.1449700954
 20
2.109913447
 30
0.0
 10
5.0458533337
 20
2.1299893887
 30
0.0
 10
4.9474794277
 20
2.1534409928
 30
0.0
 10
4.8261000495
 20
2.1890212679
 30
0.0
 10
4.7074248456
 20
2.2327751549
 30
0.0
 10
4.6144553433
 20
2.2725563803
 30
0.0
 10
4.5228834813
 20
2.3154762241
 30
0.0
 10
4.411216964
 20
2.3749369436
 30
0.0
 10
4.2824127158
 20
2.4552069488
 30
0.0
 10
4.2003455613
 20
2.5144128416
 30
0.0
 10
4.1603894209
 20
2.5453552304
 30
0.0
  0
ENDSEC
  0
SECTION
  2
OBJECTS
  0
DICTIONARY
  5
C
100
AcDbDictionary
280
0
281
1
  3
ACAD_GROUP
350
D
  3
ACAD_MLINESTYLE
350
17
  3
ACAD_LAYOUT
350
1A
  3
ACAD_PLOTSETTINGS
350
19
  3
ACAD_PLOTSTYLENAME
350
E
  0
DICTIONARY
  5
D
102
{ACAD_REACTORS
330
C
102
}
100
AcDbDictionary
280
0
281
1
  0
ACDBDICTIONARYWDFLT
  5
E
102
{ACAD_REACTORS
330
C
102
}
100
AcDbDictionary
281
1
  3
Normal
350
F
100
AcDbDictionaryWithDefault
340
F
  0
DICTIONARY
  5
17
102
{ACAD_REACTORS
330
C
102
}
100
AcDbDictionary
280
0
281
1
  3
Standard
350
18
  0
DICTIONARY
  5
19
102
{ACAD_REACTORS
330
C
102
}
100
AcDbDictionary
281
1
  0
DICTIONARY
  5
1A
102
{ACAD_REACTORS
330
C
102
}
100
AcDbDictionary
281
1
  3
Model
350
2AC
  3
Layout1
350
2AD
  0
ACDBPLACEHOLDER
  5
F
102
{ACAD_REACTORS
330
E
102
}
  0
MLINESTYLE
  5
18
102
{ACAD_REACTORS
330
17
102
}
100
AcDbMlineStyle
  2
STANDARD
 70
0
  3

 62
256
 51
90.0
 52
90.0
 71
2
 49
0.5
 62
256
  6
BYLAYER
 49
-0.5
 62
256
  6
BYLAYER
  0
LAYOUT
  5
2AC
102
{ACAD_REACTORS
330
1A
102
}
100
AcDbPlotSettings
  1

  2
none_device
  4
ANSI_A_(11.00_x_8.50_Inches)
  6

 40
0.0
 41
0.0
 42
0.0
 43
0.0
 44
279.4
 45
215.9
 46
0.0
 47
0.0
 48
0.0
 49
0.0
140
0.0
141
0.0
142
1.0
143
1.0
 70
1024
 72
0
 73
0
 74
0
  7

 75
0
147
1.0
148
0.0
149
0.0
100
AcDbLayout
  1
Model
 70
0
 71
0
 10
0.0
 20
0.0
 11
11.0
 21
8.5
 12
0.0
 22
0.0
 32
0.0
 14
0.0
 24
0.0
 34
0.0
 15
0.0
 25
0.0
 35
0.0
146
0.0
 13
0.0
 23
0.0
 33
0.0
 16
1.0
 26
0.0
 36
0.0
 17
0.0
 27
1.0
 37
0.0
 76
0
330
208
345
0
346
0
  0
LAYOUT
  5
2AD
102
{ACAD_REACTORS
330
1A
102
}
100
AcDbPlotSettings
  1

  2
none_device
  4
ANSI_A_(11.00_x_8.50_Inches)
  6

 40
0.0
 41
0.0
 42
0.0
 43
0.0
 44
279.4
 45
215.9
 46
0.0
 47
0.0
 48
0.0
 49
0.0
140
0.0
141
0.0
142
1.0
143
1.0
 70
0
 72
0
 73
0
 74
0
  7

 75
0
147
1.0
148
0.0
149
0.0
100
AcDbLayout
  1
Layout1
 70
0
 71
1
 10
0.0
 20
0.0
 11
11.0
 21
8.5
 12
0.0
 22
0.0
 32
0.0
 14
0.0
 24
0.0
 34
0.0
 15
0.0
 25
0.0
 35
0.0
146
0.0
 13
0.0
 23
0.0
 33
0.0
 16
1.0
 26
0.0
 36
0.0
 17
0.0
 27
1.0
 37
0.0
 76
0
330
209
345
0
346
0
  0
ENDSEC
  0
EOF
