999
DXF file: 278p-01_front.dxf
999
Pro/ENGINEER 2013150 by Parametric Technology Corporation
  0
SECTION
  2
HEADER
  9
$ACADVER
  1
AC1021
  9
$DWGCODEPAGE
  3
ANSI_1252
  9
$EXTMAX
 10
11.0
 20
8.5
 30
0.0
  9
$EXTMIN
 10
0.0
 20
0.0
 30
0.0
  9
$LIMMIN
 10
0.0
 20
0.0
  9
$LIMMAX
 10
11.0
 20
8.5
  9
$VIEWCTR
 10
5.5
 20
4.25
  9
$VIEWSIZE
 40
8.5
  9
$CLAYER
  8
0
  9
$LTSCALE
 40
0.605
  9
$CELTYPE
  6
BYLAYER
  9
$DIMSCALE
 40
1.0
  9
$DIMASZ
 40
0.1
  9
$DIMEXO
 40
0.0625
  9
$DIMDLI
 40
0.418
  9
$DIMEXE
 40
0.125
  9
$DIMCEN
 40
0.099
  9
$DIMLFAC
 40
1.0
  9
$DIMBLK
  1
_FILLED
  9
$DIMTXT
 40
0.08
  9
$DIMTOL
 70
1
  9
$DIMLIM
 70
0
  9
$DIMTFAC
 40
1.0
  9
$DIMTP
 40
0.001
  9
$DIMTM
 40
0.001
  9
$DIMGAP
 40
0.09
  9
$DIMDSEP
 70
46
  9
$PDMODE
 70
3
  9
$PDSIZE
 40
0.06
  9
$HANDSEED
  5
343
  9
$TILEMODE
 70
1
  9
$MEASUREMENT
 70
0
  9
$INSUNITS
 70
1
  0
ENDSEC
  0
SECTION
  2
CLASSES
  0
CLASS
  1
ACDBDICTIONARYWDFLT
  2
AcDbDictionaryWithDefault
  3
AutoCAD 2000
 90
0
 91
1
280
0
281
0
  0
CLASS
  1
ACDBPLACEHOLDER
  2
AcDbPlaceHolder
  3
AutoCAD 2000
 90
0
 91
1
280
0
281
0
  0
CLASS
  1
LAYOUT
  2
AcDbLayout
  3
AutoCAD 2000
 90
0
 91
0
280
0
281
0
  0
ENDSEC
  0
SECTION
  2
TABLES
  0
TABLE
  2
VPORT
  5
8
100
AcDbSymbolTable
 70
2
  0
VPORT
  5
1F4
100
AcDbSymbolTableRecord
100
AcDbViewportTableRecord
  2
*ACTIVE
 70
0
 10
0.0
 20
0.0
 11
1.0
 21
1.0
 12
5.5
 22
4.25
 13
0.0
 23
0.0
 14
1.0
 24
1.0
 15
0.0
 25
0.0
 16
0.0
 26
0.0
 36
1.0
 17
0.0
 27
0.0
 37
0.0
 40
8.5
 41
1.2941176471
 42
50.0
 43
0.0
 44
0.0
 50
0.0
 51
0.0
 71
0
 72
100
 73
1
 74
1
 75
0
 76
0
 77
0
 78
0
  0
ENDTAB
  0
TABLE
  2
LTYPE
  5
5
100
AcDbSymbolTable
 70
6
  0
LTYPE
  5
14
100
AcDbSymbolTableRecord
100
AcDbLinetypeTableRecord
  2
BYBLOCK
 70
0
  3

 72
65
 73
0
 40
0.0
  0
LTYPE
  5
15
100
AcDbSymbolTableRecord
100
AcDbLinetypeTableRecord
  2
BYLAYER
 70
0
  3

 72
65
 73
0
 40
0.0
  0
LTYPE
  5
16
100
AcDbSymbolTableRecord
100
AcDbLinetypeTableRecord
  2
CONTINUOUS
 70
64
  3
Solid line
 72
65
 73
0
 40
0.0
  0
LTYPE
  5
1F5
100
AcDbSymbolTableRecord
100
AcDbLinetypeTableRecord
  2
CENTER
 70
64
  3
____ _ ____ _ ____ _ ____ _ ____ _ ____ _ ____
 72
65
 73
4
 40
0.6
 49
0.375
 74
0
 49
-0.075
 74
0
 49
0.075
 74
0
 49
-0.075
 74
0
  0
LTYPE
  5
1F6
100
AcDbSymbolTableRecord
100
AcDbLinetypeTableRecord
  2
HIDDEN
 70
64
  3
- - - - - - - - - - - - - - - - - - - -
 72
65
 73
2
 40
0.2
 49
0.1
 74
0
 49
-0.1
 74
0
  0
LTYPE
  5
1F7
100
AcDbSymbolTableRecord
100
AcDbLinetypeTableRecord
  2
PHANTOM
 70
64
  3
_____ _ _ _____ _ _ _____ _ _ _____
 72
65
 73
6
 40
0.8
 49
0.45
 74
0
 49
-0.05
 74
0
 49
0.1
 74
0
 49
-0.05
 74
0
 49
0.1
 74
0
 49
-0.05
 74
0
  0
LTYPE
  5
1F8
100
AcDbSymbolTableRecord
100
AcDbLinetypeTableRecord
  2
DOT
 70
64
  3
. . . . . . . . . . . . . . . . . . . .
 72
65
 73
2
 40
0.2
 49
0.1
 74
0
 49
-0.1
 74
0
  0
LTYPE
  5
1F9
100
AcDbSymbolTableRecord
100
AcDbLinetypeTableRecord
  2
DASHED
 70
64
  3
- - - - - - - - - - - - - - - - - - - -
 72
65
 73
2
 40
0.2
 49
0.1
 74
0
 49
-0.1
 74
0
  0
ENDTAB
  0
TABLE
  2
LAYER
  5
2
100
AcDbSymbolTable
 70
36
  0
LAYER
  5
10
100
AcDbSymbolTableRecord
100
AcDbLayerTableRecord
  2
0
 70
0
 62
7
  6
CONTINUOUS
370
-3
390
F
  0
LAYER
  5
1FA
100
AcDbSymbolTableRecord
100
AcDbLayerTableRecord
  2
DEFAULT_1
 70
0
 62
7
  6
CENTER
370
-3
390
F
  0
LAYER
  5
1FB
100
AcDbSymbolTableRecord
100
AcDbLayerTableRecord
  2
DEFAULT_2
 70
0
 62
8
  6
HIDDEN
370
-3
390
F
  0
LAYER
  5
1FC
100
AcDbSymbolTableRecord
100
AcDbLayerTableRecord
  2
DEFAULT_3
 70
0
 62
7
  6
PHANTOM
370
-3
390
F
  0
LAYER
  5
1FD
100
AcDbSymbolTableRecord
100
AcDbLayerTableRecord
  2
ALL_FEATURES
 70
0
 62
7
  6
CONTINUOUS
370
-3
390
F
  0
LAYER
  5
1FE
100
AcDbSymbolTableRecord
100
AcDbLayerTableRecord
  2
AXES_FEATURES
 70
0
 62
7
  6
CONTINUOUS
370
-3
390
F
  0
LAYER
  5
1FF
100
AcDbSymbolTableRecord
100
AcDbLayerTableRecord
  2
DEFAULT_COORDINATE_SYSTEM
 70
0
 62
7
  6
CONTINUOUS
370
-3
390
F
  0
LAYER
  5
200
100
AcDbSymbolTableRecord
100
AcDbLayerTableRecord
  2
DEFAULT_DATUM_AXES
 70
0
 62
7
  6
CONTINUOUS
370
-3
390
F
  0
LAYER
  5
201
100
AcDbSymbolTableRecord
100
AcDbLayerTableRecord
  2
DEFAULT_DATUM_CURVES
 70
0
 62
7
  6
CONTINUOUS
370
-3
390
F
  0
LAYER
  5
202
100
AcDbSymbolTableRecord
100
AcDbLayerTableRecord
  2
DEFAULT_DATUM_PLANES
 70
0
 62
7
  6
CONTINUOUS
370
-3
390
F
  0
LAYER
  5
203
100
AcDbSymbolTableRecord
100
AcDbLayerTableRecord
  2
DEFAULT_SURFACES
 70
0
 62
7
  6
CONTINUOUS
370
-3
390
F
  0
LAYER
  5
204
100
AcDbSymbolTableRecord
100
AcDbLayerTableRecord
  2
DIMENSIONS
 70
0
 62
7
  6
CONTINUOUS
370
-3
390
F
  0
LAYER
  5
205
100
AcDbSymbolTableRecord
100
AcDbLayerTableRecord
  2
PATTERN_DATUMS
 70
0
 62
7
  6
CONTINUOUS
370
-3
390
F
  0
ENDTAB
  0
TABLE
  2
STYLE
  5
3
100
AcDbSymbolTable
 70
1
  0
STYLE
  5
11
100
AcDbSymbolTableRecord
100
AcDbTextStyleTableRecord
  2
STANDARD
 70
0
 40
0.0
 41
0.8
 50
0.0
 71
0
 42
0.2
  3
txt
  4

  0
STYLE
  5
206
100
AcDbSymbolTableRecord
100
AcDbTextStyleTableRecord
  2
TEXTSTYLE_1
 70
0
 40
0.0
 41
0.8
 50
0.0
 71
0
 42
0.2
  3
gdt
  4

  0
ENDTAB
  0
TABLE
  2
VIEW
  5
6
100
AcDbSymbolTable
 70
0
  0
ENDTAB
  0
TABLE
  2
UCS
  5
7
100
AcDbSymbolTable
 70
0
  0
ENDTAB
  0
TABLE
  2
APPID
  5
9
100
AcDbSymbolTable
 70
1
  0
APPID
  5
207
100
AcDbSymbolTableRecord
100
AcDbRegAppTableRecord
  2
ACAD
 70
0
  0
ENDTAB
  0
TABLE
  2
BLOCK_RECORD
  5
1
100
AcDbSymbolTable
 70
0
  0
BLOCK_RECORD
  5
208
100
AcDbSymbolTableRecord
100
AcDbBlockTableRecord
  2
*Model_Space
  0
BLOCK_RECORD
  5
209
100
AcDbSymbolTableRecord
100
AcDbBlockTableRecord
  2
*Paper_Space
  0
ENDTAB
  0
TABLE
  2
DIMSTYLE
  5
A
100
AcDbSymbolTable
 70
1
100
AcDbDimStyleTable
 71
0
  0
DIMSTYLE
105
20A
100
AcDbSymbolTableRecord
100
AcDbDimStyleTableRecord
  2
STANDARD
 70
0
  3

  4

 40
1.0
 41
0.1
 42
0.0625
 43
0.38
 44
0.125
 45
0.0
 46
0.0
 47
0.001
 48
0.001
140
0.08
141
0.09
142
0.0
143
25.4
144
1.0
145
0.0
146
1.0
147
0.09
 71
1.0
 72
0.0
 73
1
 74
1
 75
0
 76
0
 77
0
 78
4
170
0
171
2
172
0
173
0
174
0
175
0
176
0
177
0
178
0
270
2
271
3
272
3
273
2
274
2
275
0
280
0
281
0
282
0
283
1
284
4
285
0
286
0
287
3
288
0
340
11
278
46
  0
ENDTAB
  0
ENDSEC
  0
SECTION
  2
BLOCKS
  0
BLOCK
  5
20
100
AcDbEntity
  8
0
100
AcDbBlockBegin
  2
*Model_Space
 70
0
 10
0.0
 20
0.0
 30
0.0
  3
*Model_Space
  1

  0
ENDBLK
  5
21
100
AcDbEntity
  8
0
100
AcDbBlockEnd
  0
BLOCK
  5
1C
100
AcDbEntity
  8
0
100
AcDbBlockBegin
  2
*Paper_Space
 70
0
 10
0.0
 20
0.0
 30
0.0
  3
*Paper_Space
  1

  0
ENDBLK
  5
1D
100
AcDbEntity
  8
0
100
AcDbBlockEnd
  0
ENDSEC
  0
SECTION
  2
ENTITIES
  0
MTEXT
  5
20B
100
AcDbEntity
  8
0
100
AcDbMText
 62
2
  6
CONTINUOUS
  7
STANDARD
 71
3
 72
1
 10
6.8222283585
 20
-0.3824054628
 30
0.0
 11
1.0
 21
0.0
 31
0.0
 44
0.9
  1
SCALE  1.000
 40
0.08
 41
0.768
  0
LINE
  5
20C
100
AcDbEntity
  8
0
100
AcDbLine
 62
7
  6
CONTINUOUS
 10
0.0
 20
0.0
 11
0.0
 21
8.5
  0
LINE
  5
20D
100
AcDbEntity
  8
0
100
AcDbLine
 62
7
  6
CONTINUOUS
 10
0.0
 20
0.0
 11
11.0
 21
0.0
  0
LINE
  5
20E
100
AcDbEntity
  8
0
100
AcDbLine
 62
7
  6
CONTINUOUS
 10
0.0
 20
8.5
 11
11.0
 21
8.5
  0
LINE
  5
20F
100
AcDbEntity
  8
0
100
AcDbLine
 62
7
  6
CONTINUOUS
 10
11.0
 20
0.0
 11
11.0
 21
8.5
  0
LINE
  5
210
100
AcDbEntity
  8
0
100
AcDbLine
 62
7
  6
CONTINUOUS
 10
2.2274712318
 20
4.7087232426
 11
2.2274679087
 21
4.5687232428
  0
LINE
  5
211
100
AcDbEntity
  8
0
100
AcDbLine
 62
7
  6
CONTINUOUS
 10
2.9821683105
 20
4.7686460995
 11
2.9821118181
 21
4.7683980938
  0
LINE
  5
212
100
AcDbEntity
  8
0
100
AcDbLine
 62
7
  6
CONTINUOUS
 10
2.9775431277
 20
4.8906097513
 11
2.9775414113
 21
4.8906289829
  0
LINE
  5
213
100
AcDbEntity
  8
0
100
AcDbLine
 62
7
  6
CONTINUOUS
 10
2.9775413376
 20
4.8906298418
 11
2.9775556469
 21
4.8904518364
  0
LINE
  5
214
100
AcDbEntity
  8
0
100
AcDbLine
 62
7
  6
CONTINUOUS
 10
2.9775556469
 20
4.8904518364
 11
2.9775951138
 21
4.8899261069
  0
LINE
  5
215
100
AcDbEntity
  8
0
100
AcDbLine
 62
7
  6
CONTINUOUS
 10
2.9775951138
 20
4.8899261069
 11
2.9777484793
 21
4.8877388471
  0
LINE
  5
216
100
AcDbEntity
  8
0
100
AcDbLine
 62
7
  6
CONTINUOUS
 10
2.9777484793
 20
4.8877388471
 11
2.9780079772
 21
4.88378323
  0
LINE
  5
217
100
AcDbEntity
  8
0
100
AcDbLine
 62
7
  6
CONTINUOUS
 10
2.9780079772
 20
4.88378323
 11
2.9784431533
 21
4.876633728
  0
LINE
  5
218
100
AcDbEntity
  8
0
100
AcDbLine
 62
7
  6
CONTINUOUS
 10
2.9784431533
 20
4.876633728
 11
2.9789114007
 21
4.868362135
  0
LINE
  5
219
100
AcDbEntity
  8
0
100
AcDbLine
 62
7
  6
CONTINUOUS
 10
2.9789114007
 20
4.868362135
 11
2.9794062498
 21
4.8588403576
  0
LINE
  5
21A
100
AcDbEntity
  8
0
100
AcDbLine
 62
7
  6
CONTINUOUS
 10
2.9794062498
 20
4.8588403576
 11
2.9798967759
 21
4.8484932987
  0
LINE
  5
21B
100
AcDbEntity
  8
0
100
AcDbLine
 62
7
  6
CONTINUOUS
 10
2.9798967759
 20
4.8484932987
 11
2.9803503013
 21
4.8378853528
  0
LINE
  5
21C
100
AcDbEntity
  8
0
100
AcDbLine
 62
7
  6
CONTINUOUS
 10
2.9803503013
 20
4.8378853528
 11
2.9807409876
 21
4.8276193022
  0
LINE
  5
21D
100
AcDbEntity
  8
0
100
AcDbLine
 62
7
  6
CONTINUOUS
 10
2.9807409876
 20
4.8276193022
 11
2.9811195725
 21
4.816284119
  0
LINE
  5
21E
100
AcDbEntity
  8
0
100
AcDbLine
 62
7
  6
CONTINUOUS
 10
2.9811195725
 20
4.816284119
 11
2.9814139266
 21
4.8060544826
  0
LINE
  5
21F
100
AcDbEntity
  8
0
100
AcDbLine
 62
7
  6
CONTINUOUS
 10
2.9814139266
 20
4.8060544826
 11
2.9816780891
 21
4.795150182
  0
LINE
  5
220
100
AcDbEntity
  8
0
100
AcDbLine
 62
7
  6
CONTINUOUS
 10
2.9816780891
 20
4.795150182
 11
2.9819027791
 21
4.7836190091
  0
LINE
  5
221
100
AcDbEntity
  8
0
100
AcDbLine
 62
7
  6
CONTINUOUS
 10
2.9819027791
 20
4.7836190091
 11
2.9820777856
 21
4.7715289641
  0
LINE
  5
222
100
AcDbEntity
  8
0
100
AcDbLine
 62
7
  6
CONTINUOUS
 10
2.9820777856
 20
4.7715289641
 11
2.9821134852
 21
4.7683308349
  0
LINE
  5
223
100
AcDbEntity
  8
0
100
AcDbLine
 62
7
  6
CONTINUOUS
 10
2.9821118181
 20
4.7683980938
 11
2.9821118355
 21
4.7683938135
  0
LINE
  5
224
100
AcDbEntity
  8
0
100
AcDbLine
 62
7
  6
CONTINUOUS
 10
2.9773736367
 20
4.9686460995
 11
2.9773736367
 21
4.8936460995
  0
LWPOLYLINE
  5
225
100
AcDbEntity
  8
0
100
AcDbPolyline
 62
7
  6
CONTINUOUS
 90
14
 70
0
 10
3.3144686038
 20
4.1527058785
 10
3.3145000089
 20
4.1518078067
 10
3.3150560813
 20
4.1467597318
 10
3.3162473043
 20
4.1418228017
 10
3.3180544717
 20
4.1370766117
 10
3.3204484498
 20
4.1325976679
 10
3.323390644
 20
4.1284581721
 10
3.3268336101
 20
4.1247248641
 10
3.3307218359
 20
4.1214579207
 10
3.3349926416
 20
4.1187099918
 10
3.3395771759
 20
4.1165253652
 10
3.3444015336
 20
4.1149392459
 10
3.3493879479
 20
4.1139771901
 10
3.3544560416
 20
4.1136546943
  0
LINE
  5
226
100
AcDbEntity
  8
0
100
AcDbLine
 62
7
  6
CONTINUOUS
 10
3.3062352138
 20
4.4995601586
 11
3.3144661654
 21
4.1526660294
  0
LINE
  5
227
100
AcDbEntity
  8
0
100
AcDbLine
 62
7
  6
CONTINUOUS
 10
3.493962333
 20
5.201866956
 11
3.4453449355
 21
5.1791989536
  0
LINE
  5
228
100
AcDbEntity
  8
0
100
AcDbLine
 62
7
  6
CONTINUOUS
 10
3.3538614168
 20
4.4993451349
 11
3.3621015268
 21
4.1529486464
  0
LINE
  5
229
100
AcDbEntity
  8
0
100
AcDbLine
 62
7
  6
CONTINUOUS
 10
3.3726764628
 20
4.4993432572
 11
3.3749979578
 21
4.1529473594
  0
LINE
  5
22A
100
AcDbEntity
  8
0
100
AcDbLine
 62
7
  6
CONTINUOUS
 10
3.4453657204
 20
4.9987440168
 11
3.4453738374
 21
5.1791988272
  0
LINE
  5
22B
100
AcDbEntity
  8
0
100
AcDbLine
 62
7
  6
CONTINUOUS
 10
3.5841640401
 20
5.1791851978
 11
3.5841559231
 21
4.9987303874
  0
LINE
  5
22C
100
AcDbEntity
  8
0
100
AcDbLine
 62
7
  6
CONTINUOUS
 10
3.5919313293
 20
4.9987298997
 11
3.5919394463
 21
5.1791847102
  0
LINE
  5
22D
100
AcDbEntity
  8
0
100
AcDbLine
 62
7
  6
CONTINUOUS
 10
3.6449571076
 20
4.1136630467
 11
3.6449417983
 21
3.4686895978
  0
LINE
  5
22E
100
AcDbEntity
  8
0
100
AcDbLine
 62
7
  6
CONTINUOUS
 10
3.8828657717
 20
4.4993250089
 11
3.8852247974
 21
4.152929111
  0
LINE
  5
22F
100
AcDbEntity
  8
0
100
AcDbLine
 62
7
  6
CONTINUOUS
 10
3.8702381251
 20
5.1791721793
 11
3.8702300081
 21
4.9987173689
  0
LINE
  5
230
100
AcDbEntity
  8
0
100
AcDbLine
 62
7
  6
CONTINUOUS
 10
3.8780188044
 20
4.9987171558
 11
3.8780269214
 21
5.1791719662
  0
LINE
  5
231
100
AcDbEntity
  8
0
100
AcDbLine
 62
7
  6
CONTINUOUS
 10
3.9774388786
 20
3.3456817057
 11
3.97741481
 21
2.3316817069
  0
LINE
  5
232
100
AcDbEntity
  8
0
100
AcDbLine
 62
7
  6
CONTINUOUS
 10
4.0175353975
 20
5.1791730647
 11
4.0175272805
 21
4.9987182543
  0
LINE
  5
233
100
AcDbEntity
  8
0
100
AcDbLine
 62
7
  6
CONTINUOUS
 10
4.0453736367
 20
5.2336460995
 11
4.0453736367
 21
5.0286460995
  0
LINE
  5
234
100
AcDbEntity
  8
0
100
AcDbLine
 62
7
  6
CONTINUOUS
 10
6.8843912496
 20
2.238612709
 11
4.2397489657
 21
2.238647046
  0
LINE
  5
235
100
AcDbEntity
  8
0
100
AcDbLine
 62
7
  6
CONTINUOUS
 10
3.97741481
 20
2.3316817069
 11
6.9774148092
 21
2.3316104979
  0
LINE
  5
236
100
AcDbEntity
  8
0
100
AcDbLine
 62
7
  6
CONTINUOUS
 10
4.0704339546
 20
2.238679496
 11
4.2399338593
 21
2.2386470289
  0
LINE
  5
237
100
AcDbEntity
  8
0
100
AcDbLine
 62
7
  6
CONTINUOUS
 10
6.2153864661
 20
5.2017617519
 11
6.2028509731
 21
5.1959165367
  0
LINE
  5
238
100
AcDbEntity
  8
0
100
AcDbLine
 62
7
  6
CONTINUOUS
 10
6.9860035451
 20
5.2018568658
 11
6.937387111
 21
5.179186798
  0
LINE
  5
239
100
AcDbEntity
  8
0
100
AcDbLine
 62
7
  6
CONTINUOUS
 10
6.9774388778
 20
3.3456104967
 11
3.9774388786
 21
3.3456817057
  0
LINE
  5
23A
100
AcDbEntity
  8
0
100
AcDbLine
 62
7
  6
CONTINUOUS
 10
7.2799248517
 20
3.438603321
 11
3.7018027462
 21
3.4386750755
  0
LINE
  5
23B
100
AcDbEntity
  8
0
100
AcDbLine
 62
7
  6
CONTINUOUS
 10
3.6449417983
 20
3.4686895978
 11
7.3099417973
 21
3.4686026042
  0
LINE
  5
23C
100
AcDbEntity
  8
0
100
AcDbLine
 62
7
  6
CONTINUOUS
 10
3.6749573197
 20
3.4386888811
 11
3.9518829101
 21
3.4386415225
  0
LWPOLYLINE
  5
23D
100
AcDbEntity
  8
0
100
AcDbPolyline
 62
7
  6
CONTINUOUS
 90
14
 70
0
 10
7.6004581674
 20
4.1136375061
 10
7.6055262684
 20
4.1139597595
 10
7.6105127334
 20
4.1149215781
 10
7.6153371705
 20
4.1165074687
 10
7.6199218115
 20
4.1186918786
 10
7.6241927496
 20
4.1214396057
 10
7.6280811316
 20
4.1247063655
 10
7.6315242751
 20
4.1284395106
 10
7.6344666655
 20
4.1325788666
 10
7.636860856
 20
4.1370576965
 10
7.6386682484
 20
4.1418038004
 10
7.6398597057
 20
4.1467406735
 10
7.6404160177
 20
4.1517887217
 10
7.6404474656
 20
4.1526867955
  0
LWPOLYLINE
  5
23E
100
AcDbEntity
  8
0
100
AcDbPolyline
 62
7
  6
CONTINUOUS
 90
10
 70
0
 10
3.7104976219
 20
4.1136621872
 10
3.712714256
 20
4.1135375041
 10
3.7158869715
 20
4.1129727927
 10
3.7187553543
 20
4.1120343289
 10
3.7211748029
 20
4.1108678818
 10
3.7231191398
 20
4.109611213
 10
3.7245915553
 20
4.1083937919
 10
3.7255464823
 20
4.1074116898
 10
3.726004243
 20
4.1068414242
 10
3.7260813253
 20
4.1067330618
  0
LWPOLYLINE
  5
23F
100
AcDbEntity
  8
0
100
AcDbPolyline
 62
7
  6
CONTINUOUS
 90
14
 70
0
 10
6.819245105
 20
4.1135388282
 10
6.824313206
 20
4.1138610815
 10
6.829299671
 20
4.1148229001
 10
6.8341241081
 20
4.1164087908
 10
6.8387087491
 20
4.1185932006
 10
6.8429796872
 20
4.1213409278
 10
6.8468680692
 20
4.1246076876
 10
6.8503112127
 20
4.1283408326
 10
6.8532536031
 20
4.1324801886
 10
6.8556477936
 20
4.1369590185
 10
6.857455186
 20
4.1417051225
 10
6.8586466433
 20
4.1466419955
 10
6.8592029553
 20
4.1516900438
 10
6.8592344032
 20
4.1525881176
  0
LINE
  5
240
100
AcDbEntity
  8
0
100
AcDbLine
 62
7
  6
CONTINUOUS
 10
6.6544924597
 20
4.0835584854
 11
6.0563343547
 21
4.0835584854
  0
LINE
  5
241
100
AcDbEntity
  8
0
100
AcDbLine
 62
7
  6
CONTINUOUS
 10
6.8192345073
 20
4.1135388284
 11
6.168755834
 21
4.1135467778
  0
LINE
  5
242
100
AcDbEntity
  8
0
100
AcDbLine
 62
7
  6
CONTINUOUS
 10
7.6004475696
 20
4.1136375063
 11
7.3099571078
 21
4.1136291539
  0
LINE
  5
243
100
AcDbEntity
  8
0
100
AcDbLine
 62
7
  6
CONTINUOUS
 10
6.6671537629
 20
4.1528304331
 11
6.6440685129
 21
4.1528304331
  0
LINE
  5
244
100
AcDbEntity
  8
0
100
AcDbLine
 62
7
  6
CONTINUOUS
 10
4.0823101095
 20
4.1529284247
 11
3.8852247974
 21
4.152929111
  0
LINE
  5
245
100
AcDbEntity
  8
0
100
AcDbLine
 62
7
  6
CONTINUOUS
 10
7.4483668253
 20
4.152929111
 11
7.3099580407
 21
4.1529295959
  0
LINE
  5
246
100
AcDbEntity
  8
0
100
AcDbLine
 62
7
  6
CONTINUOUS
 10
4.0729485274
 20
4.0836294268
 11
3.7387912304
 21
4.0836627738
  0
LINE
  5
247
100
AcDbEntity
  8
0
100
AcDbLine
 62
7
  6
CONTINUOUS
 10
3.3969947212
 20
4.1136467448
 11
3.3544666435
 21
4.113654694
  0
LINE
  5
248
100
AcDbEntity
  8
0
100
AcDbLine
 62
7
  6
CONTINUOUS
 10
4.0499574773
 20
4.1136291538
 11
3.3969947212
 21
4.1136467448
  0
LINE
  5
249
100
AcDbEntity
  8
0
100
AcDbLine
 62
7
  6
CONTINUOUS
 10
6.168755834
 20
4.1135467778
 11
6.0658122844
 21
4.113557051
  0
LINE
  5
24A
100
AcDbEntity
  8
0
100
AcDbLine
 62
7
  6
CONTINUOUS
 10
3.3749979578
 20
4.1529473594
 11
3.3621015268
 21
4.1529486464
  0
LINE
  5
24B
100
AcDbEntity
  8
0
100
AcDbLine
 62
7
  6
CONTINUOUS
 10
6.1338416733
 20
4.1528486815
 11
6.0237202094
 21
4.1528603615
  0
LINE
  5
24C
100
AcDbEntity
  8
0
100
AcDbLine
 62
7
  6
CONTINUOUS
 10
6.1315201782
 20
4.4992445793
 11
6.1338416733
 21
4.1528486815
  0
LINE
  5
24D
100
AcDbEntity
  8
0
100
AcDbLine
 62
7
  6
CONTINUOUS
 10
6.2026791267
 20
5.1790887649
 11
6.2026769851
 21
4.9986339543
  0
LINE
  5
24E
100
AcDbEntity
  8
0
100
AcDbLine
 62
7
  6
CONTINUOUS
 10
6.2071583872
 20
4.9986337356
 11
6.2071605288
 21
5.1790885463
  0
LINE
  5
24F
100
AcDbEntity
  8
0
100
AcDbLine
 62
7
  6
CONTINUOUS
 10
6.675389351
 20
4.4992263309
 11
6.6417094872
 21
4.4992263309
  0
LINE
  5
250
100
AcDbEntity
  8
0
100
AcDbLine
 62
7
  6
CONTINUOUS
 10
7.4566024134
 20
4.4993250089
 11
7.3099664831
 21
4.4993250089
  0
LINE
  5
251
100
AcDbEntity
  8
0
100
AcDbLine
 62
7
  6
CONTINUOUS
 10
4.0864926585
 20
4.4993250089
 11
3.8828657717
 21
4.4993250089
  0
LINE
  5
252
100
AcDbEntity
  8
0
100
AcDbLine
 62
7
  6
CONTINUOUS
 10
3.3726764628
 20
4.4993432572
 11
3.3538614168
 21
4.4993451349
  0
LINE
  5
253
100
AcDbEntity
  8
0
100
AcDbLine
 62
7
  6
CONTINUOUS
 10
6.1315201782
 20
4.4992445793
 11
6.0177652872
 21
4.4992559314
  0
LWPOLYLINE
  5
254
100
AcDbEntity
  8
0
100
AcDbPolyline
 62
7
  6
CONTINUOUS
 90
14
 70
0
 10
3.2662486382
 20
4.5386564521
 10
3.2712883669
 20
4.5383375745
 10
3.2762599361
 20
4.5373831197
 10
3.28107118
 20
4.5358083559
 10
3.2856450235
 20
4.5336384916
 10
3.2899081999
 20
4.5309082659
 10
3.2937924207
 20
4.5276613881
 10
3.2972354632
 20
4.5239498364
 10
3.3001821407
 20
4.5198330626
 10
3.3025852113
 20
4.5153770429
 10
3.3044061725
 20
4.5106531622
 10
3.3056158499
 20
4.50573709
 10
3.3061948573
 20
4.5007076117
 10
3.3062362051
 20
4.4996057374
  0
LINE
  5
255
100
AcDbEntity
  8
0
100
AcDbLine
 62
7
  6
CONTINUOUS
 10
3.9689623315
 20
5.20184559
 11
4.0175776895
 21
5.179173214
  0
LINE
  5
256
100
AcDbEntity
  8
0
100
AcDbLine
 62
7
  6
CONTINUOUS
 10
6.2966309696
 20
4.7386460995
 11
6.2966309678
 21
4.7384943671
  0
LINE
  5
257
100
AcDbEntity
  8
0
100
AcDbLine
 62
7
  6
CONTINUOUS
 10
6.447966907
 20
5.1790827245
 11
6.4479647654
 21
4.9986279139
  0
LINE
  5
258
100
AcDbEntity
  8
0
100
AcDbLine
 62
7
  6
CONTINUOUS
 10
6.4569507619
 20
4.998627807
 11
6.4569529036
 21
5.1790826176
  0
LINE
  5
259
100
AcDbEntity
  8
0
100
AcDbLine
 62
7
  6
CONTINUOUS
 10
2.2602886024
 20
4.5387168757
 11
2.2612210595
 21
4.538729046
  0
LINE
  5
25A
100
AcDbEntity
  8
0
100
AcDbLine
 62
7
  6
CONTINUOUS
 10
7.3099664831
 20
4.508602603
 11
6.8688284093
 21
4.5085624345
  0
LINE
  5
25B
100
AcDbEntity
  8
0
100
AcDbLine
 62
7
  6
CONTINUOUS
 10
5.9735737392
 20
4.5085593702
 11
4.1301227133
 21
4.5086253065
  0
LINE
  5
25C
100
AcDbEntity
  8
0
100
AcDbLine
 62
7
  6
CONTINUOUS
 10
8.6937133319
 20
4.5385631535
 11
6.9074627778
 21
4.5384896085
  0
LINE
  5
25D
100
AcDbEntity
  8
0
100
AcDbLine
 62
7
  6
CONTINUOUS
 10
7.2704142769
 20
4.5384899411
 11
8.6974669937
 21
4.5385696676
  0
LINE
  5
25E
100
AcDbEntity
  8
0
100
AcDbLine
 62
7
  6
CONTINUOUS
 10
7.2704142769
 20
4.5384899411
 11
4.1196525232
 21
4.5385542729
  0
LINE
  5
25F
100
AcDbEntity
  8
0
100
AcDbLine
 62
7
  6
CONTINUOUS
 10
6.3252750636
 20
4.5684927014
 11
8.7274679068
 21
4.5685689567
  0
LINE
  5
260
100
AcDbEntity
  8
0
100
AcDbLine
 62
7
  6
CONTINUOUS
 10
3.8590416758
 20
4.5685647813
 11
6.3252750636
 21
4.5684927014
  0
LINE
  5
261
100
AcDbEntity
  8
0
100
AcDbLine
 62
7
  6
CONTINUOUS
 10
6.5155445417
 20
4.7084906347
 11
8.7274712299
 21
4.7085689565
  0
LINE
  5
262
100
AcDbEntity
  8
0
100
AcDbLine
 62
7
  6
CONTINUOUS
 10
8.697471743
 20
4.7385696674
 11
7.9426365027
 21
4.7384996114
  0
LINE
  5
263
100
AcDbEntity
  8
0
100
AcDbLine
 62
7
  6
CONTINUOUS
 10
7.1282414687
 20
4.7385985398
 11
6.9172602392
 21
4.7385766457
  0
LINE
  5
264
100
AcDbEntity
  8
0
100
AcDbLine
 62
7
  6
CONTINUOUS
 10
7.9426365027
 20
4.7384996114
 11
5.3952868656
 21
4.7385112797
  0
LINE
  5
265
100
AcDbEntity
  8
0
100
AcDbLine
 62
7
  6
CONTINUOUS
 10
6.2966309459
 20
4.7385651984
 11
4.3578652005
 21
4.7386204738
  0
LINE
  5
266
100
AcDbEntity
  8
0
100
AcDbLine
 62
7
  6
CONTINUOUS
 10
2.3792886333
 20
4.7387569149
 11
3.0095277347
 21
4.7387925158
  0
LINE
  5
267
100
AcDbEntity
  8
0
100
AcDbLine
 62
7
  6
CONTINUOUS
 10
3.8899466826
 20
4.5385647799
 11
3.9023718011
 21
4.538564194
  0
LINE
  5
268
100
AcDbEntity
  8
0
100
AcDbLine
 62
7
  6
CONTINUOUS
 10
2.2274679087
 20
4.5687232428
 11
3.8590416758
 21
4.5685647813
  0
LINE
  5
269
100
AcDbEntity
  8
0
100
AcDbLine
 62
7
  6
CONTINUOUS
 10
2.2274712318
 20
4.7087232426
 11
3.5959360035
 21
4.7085781653
  0
LINE
  5
26A
100
AcDbEntity
  8
0
100
AcDbLine
 62
7
  6
CONTINUOUS
 10
3.5959360035
 20
4.7085781653
 11
6.5155445417
 21
4.7084906347
  0
LINE
  5
26B
100
AcDbEntity
  8
0
100
AcDbLine
 62
7
  6
CONTINUOUS
 10
2.379288621
 20
4.7386824167
 11
7.942636499
 21
4.7386460995
  0
LINE
  5
26C
100
AcDbEntity
  8
0
100
AcDbLine
 62
7
  6
CONTINUOUS
 10
5.5673736337
 20
4.7385072247
 11
3.0121107723
 21
4.7386166621
  0
LINE
  5
26D
100
AcDbEntity
  8
0
100
AcDbLine
 62
7
  6
CONTINUOUS
 10
4.3578652005
 20
4.7386204738
 11
4.1370958439
 21
4.7386361638
  0
LINE
  5
26E
100
AcDbEntity
  8
0
100
AcDbLine
 62
7
  6
CONTINUOUS
 10
6.9288515713
 20
4.7386460995
 11
6.9523736364
 21
4.7386436367
  0
LINE
  5
26F
100
AcDbEntity
  8
0
100
AcDbLine
 62
7
  6
CONTINUOUS
 10
7.9426365011
 20
4.7386755515
 11
8.5756552648
 21
4.7386097836
  0
LINE
  5
270
100
AcDbEntity
  8
0
100
AcDbLine
 62
7
  6
CONTINUOUS
 10
2.2574673976
 20
4.5387225319
 11
5.979900192
 21
4.5384990353
  0
LINE
  5
271
100
AcDbEntity
  8
0
100
AcDbLine
 62
7
  6
CONTINUOUS
 10
2.2574721429
 20
4.7387225317
 11
3.0121107723
 21
4.7386166621
  0
LINE
  5
272
100
AcDbEntity
  8
0
100
AcDbLine
 62
7
  6
CONTINUOUS
 10
6.6417094872
 20
4.4992263309
 11
6.6440685129
 21
4.1528304331
  0
LINE
  5
273
100
AcDbEntity
  8
0
100
AcDbLine
 62
7
  6
CONTINUOUS
 10
6.6981739771
 20
5.1790827033
 11
6.6981718355
 21
4.9986278927
  0
LINE
  5
274
100
AcDbEntity
  8
0
100
AcDbLine
 62
7
  6
CONTINUOUS
 10
6.7026764299
 20
4.9986280044
 11
6.7026785716
 21
5.179082815
  0
LINE
  5
275
100
AcDbEntity
  8
0
100
AcDbLine
 62
7
  6
CONTINUOUS
 10
6.7030932669
 20
5.1790887225
 11
6.7030911252
 21
4.9986339118
  0
LINE
  5
276
100
AcDbEntity
  8
0
100
AcDbLine
 62
7
  6
CONTINUOUS
 10
6.675389351
 20
4.4992263309
 11
6.6671537629
 21
4.1528304331
  0
LINE
  5
277
100
AcDbEntity
  8
0
100
AcDbLine
 62
7
  6
CONTINUOUS
 10
2.2602925089
 20
4.7387168772
 11
2.2612258067
 21
4.7387290458
  0
LINE
  5
278
100
AcDbEntity
  8
0
100
AcDbLine
 62
7
  6
CONTINUOUS
 10
2.2612258067
 20
4.7387290458
 11
2.3792886333
 21
4.7387569149
  0
LINE
  5
279
100
AcDbEntity
  8
0
100
AcDbLine
 62
7
  6
CONTINUOUS
 10
2.9821683105
 20
4.7686460995
 11
7.9725789629
 21
4.7686460995
  0
LINE
  5
27A
100
AcDbEntity
  8
0
100
AcDbLine
 62
7
  6
CONTINUOUS
 10
5.472312908
 20
4.8436460995
 11
5.4824343654
 21
4.8436460995
  0
LINE
  5
27B
100
AcDbEntity
  8
0
100
AcDbLine
 62
7
  6
CONTINUOUS
 10
5.4723736367
 20
4.8736460995
 11
5.4823736367
 21
4.8736460995
  0
LINE
  5
27C
100
AcDbEntity
  8
0
100
AcDbLine
 62
7
  6
CONTINUOUS
 10
2.9773736367
 20
4.8936460995
 11
2.9773787589
 21
4.8936460995
  0
LINE
  5
27D
100
AcDbEntity
  8
0
100
AcDbLine
 62
7
  6
CONTINUOUS
 10
7.9773685145
 20
4.8936460995
 11
7.9773736367
 21
4.8936460995
  0
LINE
  5
27E
100
AcDbEntity
  8
0
100
AcDbLine
 62
7
  6
CONTINUOUS
 10
2.9773736367
 20
4.9686460995
 11
5.3226145329
 21
4.9686460995
  0
LINE
  5
27F
100
AcDbEntity
  8
0
100
AcDbLine
 62
7
  6
CONTINUOUS
 10
5.6321327405
 20
4.9686460995
 11
7.9773736367
 21
4.9686460995
  0
LINE
  5
280
100
AcDbEntity
  8
0
100
AcDbLine
 62
7
  6
CONTINUOUS
 10
5.354052041
 20
4.9736460995
 11
5.3905075592
 21
4.9736460995
  0
LINE
  5
281
100
AcDbEntity
  8
0
100
AcDbLine
 62
7
  6
CONTINUOUS
 10
5.5642397142
 20
4.9736460995
 11
5.6006952324
 21
4.9736460995
  0
LINE
  5
282
100
AcDbEntity
  8
0
100
AcDbLine
 62
7
  6
CONTINUOUS
 10
8.5756552648
 20
4.7386097836
 11
8.6937180791
 21
4.7385631532
  0
LINE
  5
283
100
AcDbEntity
  8
0
100
AcDbLine
 62
7
  6
CONTINUOUS
 10
6.9093736367
 20
5.2336460995
 11
6.9093736367
 21
5.0286460995
  0
LINE
  5
284
100
AcDbEntity
  8
0
100
AcDbLine
 62
7
  6
CONTINUOUS
 10
6.9374155619
 20
4.9987317646
 11
6.9374160116
 21
5.179186575
  0
LINE
  5
285
100
AcDbEntity
  8
0
100
AcDbLine
 62
7
  6
CONTINUOUS
 10
6.8674842592
 20
4.4994418023
 11
6.8592368395
 21
4.1525482602
  0
LWPOLYLINE
  5
286
100
AcDbEntity
  8
0
100
AcDbPolyline
 62
7
  6
CONTINUOUS
 90
14
 70
0
 10
6.86748327
 20
4.4994873767
 10
6.8675246605
 20
4.5005890646
 10
6.8681038679
 20
4.5056184322
 10
6.8693137157
 20
4.510534362
 10
6.8711348211
 20
4.5152580945
 10
6.8735380102
 20
4.5197139603
 10
6.8764847846
 20
4.523830581
 10
6.8799279302
 20
4.5275420054
 10
6.8838122849
 20
4.5307887826
 10
6.8880756236
 20
4.5335189095
 10
6.8926496473
 20
4.5356886567
 10
6.8974610826
 20
4.537263274
 10
6.9024328557
 20
4.5382175455
 10
6.9074726857
 20
4.5385361944
  0
LINE
  5
287
100
AcDbEntity
  8
0
100
AcDbLine
 62
7
  6
CONTINUOUS
 10
3.813021511
 20
4.7385685281
 11
3.8134584257
 21
4.7386460995
  0
LINE
  5
288
100
AcDbEntity
  8
0
100
AcDbLine
 62
7
  6
CONTINUOUS
 10
5.4598067993
 20
4.9936460995
 11
5.4949404741
 21
4.9936460995
  0
LINE
  5
289
100
AcDbEntity
  8
0
100
AcDbLine
 62
7
  6
CONTINUOUS
 10
3.0073736367
 20
4.9986460995
 11
5.3696715155
 21
4.9986460995
  0
LINE
  5
28A
100
AcDbEntity
  8
0
100
AcDbLine
 62
7
  6
CONTINUOUS
 10
5.5850756845
 20
4.9986460995
 11
7.9473736367
 21
4.9986460995
  0
LINE
  5
28B
100
AcDbEntity
  8
0
100
AcDbLine
 62
7
  6
CONTINUOUS
 10
7.5096015453
 20
4.9987302948
 11
7.1173736369
 21
4.9987179565
  0
LINE
  5
28C
100
AcDbEntity
  8
0
100
AcDbLine
 62
7
  6
CONTINUOUS
 10
4.0175517031
 20
4.9987182545
 11
3.7689967769
 21
4.9987219271
  0
LINE
  5
28D
100
AcDbEntity
  8
0
100
AcDbLine
 62
7
  6
CONTINUOUS
 10
6.9093736365
 20
5.0286460995
 11
6.7030914814
 21
5.0286460995
  0
LINE
  5
28E
100
AcDbEntity
  8
0
100
AcDbLine
 62
7
  6
CONTINUOUS
 10
6.2026773413
 20
5.0286460995
 11
4.0453736367
 21
5.0286460995
  0
LINE
  5
28F
100
AcDbEntity
  8
0
100
AcDbLine
 62
7
  6
CONTINUOUS
 10
6.6981739771
 20
5.1790827033
 11
6.7026785716
 21
5.179082815
  0
LINE
  5
290
100
AcDbEntity
  8
0
100
AcDbLine
 62
7
  6
CONTINUOUS
 10
6.447966907
 20
5.1790827245
 11
6.4569529036
 21
5.1790826176
  0
LINE
  5
291
100
AcDbEntity
  8
0
100
AcDbLine
 62
7
  6
CONTINUOUS
 10
7.3622802996
 20
5.1791721368
 11
7.3700690959
 21
5.179172361
  0
LINE
  5
292
100
AcDbEntity
  8
0
100
AcDbLine
 62
7
  6
CONTINUOUS
 10
3.8702381251
 20
5.1791721793
 11
3.8780269214
 21
5.1791719662
  0
LINE
  5
293
100
AcDbEntity
  8
0
100
AcDbLine
 62
7
  6
CONTINUOUS
 10
7.0762062143
 20
5.1791731171
 11
7.0839816205
 21
5.1791728528
  0
LINE
  5
294
100
AcDbEntity
  8
0
100
AcDbLine
 62
7
  6
CONTINUOUS
 10
3.4939625252
 20
5.2018669559
 11
3.9689620683
 21
5.2018455787
  0
LINE
  5
295
100
AcDbEntity
  8
0
100
AcDbLine
 62
7
  6
CONTINUOUS
 10
6.2153866804
 20
5.2017617519
 11
6.6903862537
 21
5.2017561146
  0
LINE
  5
296
100
AcDbEntity
  8
0
100
AcDbLine
 62
7
  6
CONTINUOUS
 10
6.9860037305
 20
5.2018568657
 11
7.4610032798
 21
5.2018556615
  0
LINE
  5
297
100
AcDbEntity
  8
0
100
AcDbLine
 62
7
  6
CONTINUOUS
 10
3.5919313293
 20
4.9987298997
 11
3.4453414234
 21
4.9987440191
  0
LINE
  5
298
100
AcDbEntity
  8
0
100
AcDbLine
 62
7
  6
CONTINUOUS
 10
3.5841640401
 20
5.1791851978
 11
3.5919394463
 21
5.1791847102
  0
LINE
  5
299
100
AcDbEntity
  8
0
100
AcDbLine
 62
7
  6
CONTINUOUS
 10
6.2026791267
 20
5.1790887649
 11
6.2071605288
 21
5.1790885463
  0
LINE
  5
29A
100
AcDbEntity
  8
0
100
AcDbLine
 62
7
  6
CONTINUOUS
 10
6.9774388778
 20
3.3456104967
 11
6.9774148092
 21
2.3316104979
  0
LINE
  5
29B
100
AcDbEntity
  8
0
100
AcDbLine
 62
7
  6
CONTINUOUS
 10
7.0762062143
 20
5.1791731171
 11
7.0762057646
 21
4.9987183066
  0
LINE
  5
29C
100
AcDbEntity
  8
0
100
AcDbLine
 62
7
  6
CONTINUOUS
 10
7.0839811709
 20
4.9987180424
 11
7.0839816205
 21
5.1791728528
  0
LINE
  5
29D
100
AcDbEntity
  8
0
100
AcDbLine
 62
7
  6
CONTINUOUS
 10
4.0453736367
 20
5.2336460995
 11
6.9093736367
 21
5.2336460995
  0
LINE
  5
29E
100
AcDbEntity
  8
0
100
AcDbLine
 62
7
  6
CONTINUOUS
 10
6.8793736367
 20
5.2636460995
 11
4.0753736367
 21
5.2636460995
  0
LINE
  5
29F
100
AcDbEntity
  8
0
100
AcDbLine
 62
7
  6
CONTINUOUS
 10
7.3099664831
 20
4.508602603
 11
7.3099417973
 21
3.4686026042
  0
LINE
  5
2A0
100
AcDbEntity
  8
0
100
AcDbLine
 62
7
  6
CONTINUOUS
 10
7.3622802996
 20
5.1791721368
 11
7.3622798499
 21
4.9987173264
  0
LINE
  5
2A1
100
AcDbEntity
  8
0
100
AcDbLine
 62
7
  6
CONTINUOUS
 10
7.3700686463
 20
4.9987175506
 11
7.3700690959
 21
5.179172361
  0
LINE
  5
2A2
100
AcDbEntity
  8
0
100
AcDbLine
 62
7
  6
CONTINUOUS
 10
6.6903864656
 20
5.2017561145
 11
6.7029075816
 21
5.1959172413
  0
LINE
  5
2A3
100
AcDbEntity
  8
0
100
AcDbLine
 62
7
  6
CONTINUOUS
 10
7.5095775722
 20
5.179185103
 11
7.5095771226
 21
4.9987302926
  0
LINE
  5
2A4
100
AcDbEntity
  8
0
100
AcDbLine
 62
7
  6
CONTINUOUS
 10
7.4566024134
 20
4.4993250089
 11
7.4483668253
 21
4.152929111
  0
LINE
  5
2A5
100
AcDbEntity
  8
0
100
AcDbLine
 62
7
  6
CONTINUOUS
 10
7.6486973215
 20
4.4995404802
 11
7.6404499019
 21
4.1526469382
  0
LWPOLYLINE
  5
2A6
100
AcDbEntity
  8
0
100
AcDbPolyline
 62
7
  6
CONTINUOUS
 90
14
 70
0
 10
7.6486963324
 20
4.4995860547
 10
7.6487377229
 20
4.5006877426
 10
7.6493169302
 20
4.5057171101
 10
7.650526778
 20
4.5106330399
 10
7.6523478834
 20
4.5153567724
 10
7.6547510725
 20
4.5198126382
 10
7.6576978469
 20
4.5239292589
 10
7.6611409925
 20
4.5276406833
 10
7.6650253472
 20
4.5308874605
 10
7.6692886859
 20
4.5336175874
 10
7.6738627096
 20
4.5357873346
 10
7.6786741449
 20
4.5373619519
 10
7.683645918
 20
4.5383162234
 10
7.6864600398
 20
4.5384941495
  0
LINE
  5
2A7
100
AcDbEntity
  8
0
100
AcDbLine
 62
7
  6
CONTINUOUS
 10
7.4610035418
 20
5.2018556822
 11
7.5096198629
 21
5.1791853721
  0
LINE
  5
2A8
100
AcDbEntity
  8
0
100
AcDbLine
 62
7
  6
CONTINUOUS
 10
7.9767548009
 20
4.8840270396
 11
7.9770019342
 21
4.8877849339
  0
LINE
  5
2A9
100
AcDbEntity
  8
0
100
AcDbLine
 62
7
  6
CONTINUOUS
 10
7.9770019342
 20
4.8877849339
 11
7.977144535
 21
4.8898214528
  0
LWPOLYLINE
  5
2AA
100
AcDbEntity
  8
0
100
AcDbPolyline
 62
7
  6
CONTINUOUS
 90
3
 70
0
 10
7.977144535
 20
4.8898214528
 10
7.9771914048
 20
4.8904489846
 10
7.9771985179
 20
4.8905391776
  0
LINE
  5
2AB
100
AcDbEntity
  8
0
100
AcDbLine
 62
7
  6
CONTINUOUS
 10
7.9773736367
 20
4.9686460995
 11
7.9773736367
 21
4.8936460995
  0
LINE
  5
2AC
100
AcDbEntity
  8
0
100
AcDbLine
 62
7
  6
CONTINUOUS
 10
7.9726354553
 20
4.7683980961
 11
7.9726354379
 21
4.7683938155
  0
LINE
  5
2AD
100
AcDbEntity
  8
0
100
AcDbLine
 62
7
  6
CONTINUOUS
 10
7.9726337871
 20
4.7683308369
 11
7.9727632676
 21
4.7785381974
  0
LINE
  5
2AE
100
AcDbEntity
  8
0
100
AcDbLine
 62
7
  6
CONTINUOUS
 10
7.9727632676
 20
4.7785381974
 11
7.9729762987
 21
4.7907204101
  0
LINE
  5
2AF
100
AcDbEntity
  8
0
100
AcDbLine
 62
7
  6
CONTINUOUS
 10
7.9729762987
 20
4.7907204101
 11
7.9732366078
 21
4.802298506
  0
LINE
  5
2B0
100
AcDbEntity
  8
0
100
AcDbLine
 62
7
  6
CONTINUOUS
 10
7.9732366078
 20
4.802298506
 11
7.9735348908
 21
4.813223329
  0
LINE
  5
2B1
100
AcDbEntity
  8
0
100
AcDbLine
 62
7
  6
CONTINUOUS
 10
7.9735348908
 20
4.813223329
 11
7.973928528
 21
4.8254187117
  0
LINE
  5
2B2
100
AcDbEntity
  8
0
100
AcDbLine
 62
7
  6
CONTINUOUS
 10
7.973928528
 20
4.8254187117
 11
7.9743440647
 21
4.836564252
  0
LINE
  5
2B3
100
AcDbEntity
  8
0
100
AcDbLine
 62
7
  6
CONTINUOUS
 10
7.9743440647
 20
4.836564252
 11
7.9747670769
 21
4.8466285574
  0
LINE
  5
2B4
100
AcDbEntity
  8
0
100
AcDbLine
 62
7
  6
CONTINUOUS
 10
7.9747670769
 20
4.8466285574
 11
7.9752500881
 21
4.8569937338
  0
LINE
  5
2B5
100
AcDbEntity
  8
0
100
AcDbLine
 62
7
  6
CONTINUOUS
 10
7.9752500881
 20
4.8569937338
 11
7.9757635537
 21
4.8670240254
  0
LINE
  5
2B6
100
AcDbEntity
  8
0
100
AcDbLine
 62
7
  6
CONTINUOUS
 10
7.9757635537
 20
4.8670240254
 11
7.9762710402
 21
4.8760694479
  0
LWPOLYLINE
  5
2B7
100
AcDbEntity
  8
0
100
AcDbPolyline
 62
7
  6
CONTINUOUS
 90
3
 70
0
 10
7.9762710402
 20
4.8760694479
 10
7.9767176584
 20
4.8834415835
 10
7.9767548009
 20
4.8840270396
  0
LINE
  5
2B8
100
AcDbEntity
  8
0
100
AcDbLine
 62
7
  6
CONTINUOUS
 10
7.9725789629
 20
4.7686460995
 11
7.9726354553
 21
4.7683980961
  0
LINE
  5
2B9
100
AcDbEntity
  8
0
100
AcDbLine
 62
7
  6
CONTINUOUS
 10
8.7274712299
 20
4.7085689565
 11
8.7274679068
 21
4.5685689567
  0
ARC
  5
2BA
100
AcDbEntity
  8
0
100
AcDbCircle
 62
7
  6
CONTINUOUS
 10
4.07041481
 20
2.3316794994
 40
0.093
100
AcDbArc
 50
179.9986400087
 51
269.9986400087
  0
ARC
  5
2BB
100
AcDbEntity
  8
0
100
AcDbCircle
 62
7
  6
CONTINUOUS
 10
3.8844388787
 20
3.3456839131
 40
0.093
100
AcDbArc
 50
359.9986400087
 51
89.9986400087
  0
ARC
  5
2BC
100
AcDbEntity
  8
0
100
AcDbCircle
 62
7
  6
CONTINUOUS
 10
3.6749417983
 20
3.4686888858
 40
0.03
100
AcDbArc
 50
179.9986400087
 51
269.9986400087
  0
ARC
  5
2BD
100
AcDbEntity
  8
0
100
AcDbCircle
 62
7
  6
CONTINUOUS
 10
0.6960935358
 20
4.7452347517
 40
2.2861947433
100
AcDbArc
 50
0.5867369459
 51
3.3146796421
  0
ARC
  5
2BE
100
AcDbEntity
  8
0
100
AcDbCircle
 62
7
  6
CONTINUOUS
 10
3.012185731
 20
4.7688971802
 40
0.0302549181
100
AcDbArc
 50
256.0113917099
 51
261.0338202063
  0
ARC
  5
2BF
100
AcDbEntity
  8
0
100
AcDbCircle
 62
7
  6
CONTINUOUS
 10
3.0121649628
 20
4.7688131913
 40
0.0301683997
100
AcDbArc
 50
253.8374920985
 51
256.0111063427
  0
ARC
  5
2C0
100
AcDbEntity
  8
0
100
AcDbCircle
 62
7
  6
CONTINUOUS
 10
3.0121676607
 20
4.7687859308
 40
0.0301422118
100
AcDbArc
 50
261.0347917808
 51
262.9520157015
  0
ARC
  5
2C1
100
AcDbEntity
  8
0
100
AcDbCircle
 62
7
  6
CONTINUOUS
 10
3.0122321912
 20
4.7686504439
 40
0.0300627849
100
AcDbArc
 50
180.0082794717
 51
217.416876324
  0
ARC
  5
2C2
100
AcDbEntity
  8
0
100
AcDbCircle
 62
7
  6
CONTINUOUS
 10
3.0073736367
 20
4.9686460995
 40
0.03
100
AcDbArc
 50
90.0
 51
180.0
  0
ARC
  5
2C3
100
AcDbEntity
  8
0
100
AcDbCircle
 62
7
  6
CONTINUOUS
 10
4.0753736367
 20
5.2336460995
 40
0.03
100
AcDbArc
 50
90.0
 51
180.0
  0
ARC
  5
2C4
100
AcDbEntity
  8
0
100
AcDbCircle
 62
7
  6
CONTINUOUS
 10
4.0153736367
 20
5.0286460995
 40
0.03
100
AcDbArc
 50
285.0
 51
360.0
  0
ARC
  5
2C5
100
AcDbEntity
  8
0
100
AcDbCircle
 62
7
  6
CONTINUOUS
 10
5.3244716421
 20
4.9686460995
 40
0.03
100
AcDbArc
 50
9.5940682269
 51
90.0
  0
ARC
  5
2C6
100
AcDbEntity
  8
0
100
AcDbCircle
 62
7
  6
CONTINUOUS
 10
2.2574712317
 20
4.7087225305
 40
0.03
100
AcDbArc
 50
89.9986400087
 51
179.9986400087
  0
ARC
  5
2C7
100
AcDbEntity
  8
0
100
AcDbCircle
 62
7
  6
CONTINUOUS
 10
2.2574679087
 20
4.5687225307
 40
0.03
100
AcDbArc
 50
179.9986400087
 51
269.9986400087
  0
ARC
  5
2C8
100
AcDbEntity
  8
0
100
AcDbCircle
 62
7
  6
CONTINUOUS
 10
3.0121094907
 20
4.768644933
 40
0.0299980026
100
AcDbArc
 50
180.4714872002
 51
270.0024518957
  0
ARC
  5
2C9
100
AcDbEntity
  8
0
100
AcDbCircle
 62
7
  6
CONTINUOUS
 10
3.0121328439
 20
4.7685857468
 40
0.0299437735
100
AcDbArc
 50
217.4340584785
 51
239.829895156
  0
ARC
  5
2CA
100
AcDbEntity
  8
0
100
AcDbCircle
 62
7
  6
CONTINUOUS
 10
3.0120829698
 20
4.768540124
 40
0.0298833015
100
AcDbArc
 50
248.8849724012
 51
253.8427465935
  0
ARC
  5
2CB
100
AcDbEntity
  8
0
100
AcDbCircle
 62
7
  6
CONTINUOUS
 10
3.0120762056
 20
4.7684602715
 40
0.0298068342
100
AcDbArc
 50
239.8028030565
 51
246.7738638762
  0
ARC
  5
2CC
100
AcDbEntity
  8
0
100
AcDbCircle
 62
7
  6
CONTINUOUS
 10
3.0121254933
 20
4.7684157977
 40
0.0297697018
100
AcDbArc
 50
262.9451509497
 51
269.9716715557
  0
ARC
  5
2CD
100
AcDbEntity
  8
0
100
AcDbCircle
 62
7
  6
CONTINUOUS
 10
3.0071202652
 20
4.8936523703
 40
0.0297415069
100
AcDbArc
 50
180.012080396
 51
187.5773115208
  0
ARC
  5
2CE
100
AcDbEntity
  8
0
100
AcDbCircle
 62
7
  6
CONTINUOUS
 10
3.0119454538
 20
4.7681725625
 40
0.0294908797
100
AcDbArc
 50
246.7868687574
 51
248.8769527283
  0
ARC
  5
2CF
100
AcDbEntity
  8
0
100
AcDbCircle
 62
7
  6
CONTINUOUS
 10
6.8844148092
 20
2.3316127054
 40
0.093
100
AcDbArc
 50
269.9986400087
 51
359.9986400087
  0
ARC
  5
2D0
100
AcDbEntity
  8
0
100
AcDbCircle
 62
7
  6
CONTINUOUS
 10
7.0704388778
 20
3.3456082892
 40
0.093
100
AcDbArc
 50
89.9986400087
 51
179.9986400087
  0
ARC
  5
2D1
100
AcDbEntity
  8
0
100
AcDbCircle
 62
7
  6
CONTINUOUS
 10
7.2799417973
 20
3.4686033163
 40
0.03
100
AcDbArc
 50
269.9986400087
 51
359.9986400087
  0
ARC
  5
2D2
100
AcDbEntity
  8
0
100
AcDbCircle
 62
7
  6
CONTINUOUS
 10
10.2253405545
 20
4.7463294878
 40
2.2528696665
100
AcDbArc
 50
176.664128678
 51
179.4324273616
  0
ARC
  5
2D3
100
AcDbEntity
  8
0
100
AcDbCircle
 62
7
  6
CONTINUOUS
 10
5.4823736367
 20
4.9936460995
 40
0.12
100
AcDbArc
 50
270.0
 51
350.4059317731
  0
ARC
  5
2D4
100
AcDbEntity
  8
0
100
AcDbCircle
 62
7
  6
CONTINUOUS
 10
5.4723736367
 20
4.9936460995
 40
0.12
100
AcDbArc
 50
189.5940682269
 51
270.0
  0
ARC
  5
2D5
100
AcDbEntity
  8
0
100
AcDbCircle
 62
7
  6
CONTINUOUS
 10
6.3474806023
 20
4.824040793
 40
0.0920029256
100
AcDbArc
 50
248.15066139
 51
248.4051880748
  0
ARC
  5
2D6
100
AcDbEntity
  8
0
100
AcDbCircle
 62
7
  6
CONTINUOUS
 10
6.6358786217
 20
4.1461213371
 40
0.0702614537
100
AcDbArc
 50
325.55927623
 51
332.3464300033
  0
ARC
  5
2D7
100
AcDbEntity
  8
0
100
AcDbCircle
 62
7
  6
CONTINUOUS
 10
7.9473736367
 20
4.9686460995
 40
0.03
100
AcDbArc
 50
0.0
 51
90.0
  0
ARC
  5
2D8
100
AcDbEntity
  8
0
100
AcDbCircle
 62
7
  6
CONTINUOUS
 10
6.8793736367
 20
5.2336460995
 40
0.03
100
AcDbArc
 50
0.0
 51
90.0
  0
ARC
  5
2D9
100
AcDbEntity
  8
0
100
AcDbCircle
 62
7
  6
CONTINUOUS
 10
6.9393736364
 20
5.0286460995
 40
0.03
100
AcDbArc
 50
180.0
 51
266.1774554717
  0
ARC
  5
2DA
100
AcDbEntity
  8
0
100
AcDbCircle
 62
7
  6
CONTINUOUS
 10
5.6302756313
 20
4.9686460995
 40
0.03
100
AcDbArc
 50
90.0
 51
170.4059317731
  0
ARC
  5
2DB
100
AcDbEntity
  8
0
100
AcDbCircle
 62
7
  6
CONTINUOUS
 10
8.6974712299
 20
4.7085696686
 40
0.03
100
AcDbArc
 50
359.9986400087
 51
89.9986400087
  0
ARC
  5
2DC
100
AcDbEntity
  8
0
100
AcDbCircle
 62
7
  6
CONTINUOUS
 10
8.6974679068
 20
4.5685696688
 40
0.03
100
AcDbArc
 50
269.9986400087
 51
359.9986400087
  0
ARC
  5
2DD
100
AcDbEntity
  8
0
100
AcDbCircle
 62
7
  6
CONTINUOUS
 10
7.339966483
 20
4.5086018909
 40
0.03
100
AcDbArc
 50
93.2610809867
 51
179.9986400087
  0
ARC
  5
2DE
100
AcDbEntity
  8
0
100
AcDbCircle
 62
7
  6
CONTINUOUS
 10
7.9426056934
 20
4.768615332
 40
0.0299712669
100
AcDbArc
 50
270.0588946271
 51
0.0588140539
  0
ARC
  5
2DF
100
AcDbEntity
  8
0
100
AcDbCircle
 62
7
  6
CONTINUOUS
 10
6.9392759307
 20
5.0259523219
 40
0.0273062278
100
AcDbArc
 50
266.426906224
 51
269.9640509623
  0
ARC
  5
2E0
100
AcDbEntity
  8
0
100
AcDbCircle
 62
7
  6
CONTINUOUS
 10
6.9392462186
 20
5.0250076091
 40
0.0263615126
100
AcDbArc
 50
266.3652879246
 51
270.027340818
  0
SPLINE
  5
2E1
100
AcDbEntity
  8
0
100
AcDbSpline
 62
7
  6
CONTINUOUS
 70
0
 71
3
 72
23
 73
19
 74
0
 42
0.0000001
 43
0.0000001
 44
0.0000000001
 40
0.0
 40
0.0
 40
0.0
 40
0.0
 40
0.0647679953
 40
0.1287874045
 40
0.1920668296
 40
0.2546459997
 40
0.3166020829
 40
0.3780457095
 40
0.4391235433
 40
0.5000102456
 40
0.5608966694
 40
0.6219734937
 40
0.6834152466
 40
0.7453686982
 40
0.8079447341
 40
0.8712206522
 40
0.9352362598
 40
1.0
 40
1.0
 40
1.0
 40
1.0
 10
7.3700690959
 20
5.179172361
 30
0.0
 10
7.3729135656
 20
5.1804594571
 30
0.0
 10
7.3786150299
 20
5.18292022
 30
0.0
 10
7.3872573842
 20
5.1862487393
 30
0.0
 10
7.3959405958
 20
5.1891541891
 30
0.0
 10
7.4046620167
 20
5.1915991033
 30
0.0
 10
7.4134181132
 20
5.1935455721
 30
0.0
 10
7.422202475
 20
5.1949641242
 30
0.0
 10
7.431007597
 20
5.1958250045
 30
0.0
 10
7.4398233429
 20
5.1961162596
 30
0.0
 10
7.4486390886
 20
5.1958265286
 30
0.0
 10
7.457444216
 20
5.1949672925
 30
0.0
 10
7.466228583
 20
5.1935504414
 30
0.0
 10
7.4749846815
 20
5.1916056738
 30
0.0
 10
7.4837060981
 20
5.1891623947
 30
0.0
 10
7.4923893051
 20
5.1862585121
 30
0.0
 10
7.5010316289
 20
5.1829314613
 30
0.0
 10
7.5067330954
 20
5.1804716857
 30
0.0
 10
7.5095775722
 20
5.179185103
 30
0.0
  0
SPLINE
  5
2E2
100
AcDbEntity
  8
0
100
AcDbSpline
 62
7
  6
CONTINUOUS
 70
0
 71
3
 72
15
 73
11
 74
0
 42
0.0000001
 43
0.0000001
 44
0.0000000001
 40
0.0
 40
0.0
 40
0.0
 40
0.0
 40
0.1250000088
 40
0.2500001696
 40
0.3750001558
 40
0.4999999309
 40
0.624999711
 40
0.7499996389
 40
0.8749998493
 40
1.0
 40
1.0
 40
1.0
 40
1.0
 10
7.0839816205
 20
5.1791728528
 30
0.0
 10
7.0953954513
 20
5.1817612934
 30
0.0
 10
7.1183325556
 20
5.1864738916
 30
0.0
 10
7.1530444729
 20
5.1918584295
 30
0.0
 10
7.1880141455
 20
5.1952402704
 30
0.0
 10
7.2231309957
 20
5.1963990563
 30
0.0
 10
7.2582478238
 20
5.1952401477
 30
0.0
 10
7.2932175335
 20
5.1918585384
 30
0.0
 10
7.3279293145
 20
5.1864730375
 30
0.0
 10
7.3508664691
 20
5.181760639
 30
0.0
 10
7.3622802996
 20
5.1791721368
 30
0.0
  0
SPLINE
  5
2E3
100
AcDbEntity
  8
0
100
AcDbSpline
 62
7
  6
CONTINUOUS
 70
0
 71
3
 72
23
 73
19
 74
0
 42
0.0000001
 43
0.0000001
 44
0.0000000001
 40
0.0
 40
0.0
 40
0.0
 40
0.0
 40
0.064793026
 40
0.1288282838
 40
0.1921144658
 40
0.2546917959
 40
0.316638392
 40
0.378066367
 40
0.4391243403
 40
0.4999893506
 40
0.560854833
 40
0.6219140196
 40
0.6833437519
 40
0.7452926508
 40
0.8078729644
 40
0.8711628076
 40
0.9352023512
 40
1.0
 40
1.0
 40
1.0
 40
1.0
 10
6.9374160116
 20
5.179186575
 30
0.0
 10
6.9402456443
 20
5.1804730497
 30
0.0
 10
6.94591735
 20
5.1829325839
 30
0.0
 10
6.9545151961
 20
5.186259505
 30
0.0
 10
6.9631537181
 20
5.1891633617
 30
0.0
 10
6.9718302866
 20
5.1916066849
 30
0.0
 10
6.9805413963
 20
5.1935515605
 30
0.0
 10
6.989280666
 20
5.1949685091
 30
0.0
 10
6.9980406271
 20
5.1958277678
 30
0.0
 10
7.0068111762
 20
5.1961173765
 30
0.0
 10
7.015581722
 20
5.1958259737
 30
0.0
 10
7.0243416825
 20
5.1949650458
 30
0.0
 10
7.0330809474
 20
5.1935464944
 30
0.0
 10
7.0417920481
 20
5.1916000285
 30
0.0
 10
7.0504686006
 20
5.1891550637
 30
0.0
 10
7.0591071071
 20
5.1862495132
 30
0.0
 10
7.0677049125
 20
5.182920816
 30
0.0
 10
7.0733765875
 20
5.1804601407
 30
0.0
 10
7.0762062143
 20
5.1791731171
 30
0.0
  0
LINE
  5
2E4
100
AcDbEntity
  8
0
100
AcDbLine
 62
7
  6
CONTINUOUS
 10
6.7028866938
 20
5.1959259169
 11
6.7030932669
 21
5.1790887225
  0
LINE
  5
2E5
100
AcDbEntity
  8
0
100
AcDbLine
 62
7
  6
CONTINUOUS
 10
6.2028861315
 20
5.1959318652
 11
6.2026791267
 21
5.1790887649
  0
SPLINE
  5
2E6
100
AcDbEntity
  8
0
100
AcDbSpline
 62
7
  6
CONTINUOUS
 70
0
 71
3
 72
15
 73
11
 74
0
 42
0.0000001
 43
0.0000001
 44
0.0000000001
 40
0.0
 40
0.0
 40
0.0
 40
0.0
 40
0.1254518521
 40
0.2505509096
 40
0.3753589031
 40
0.4999990551
 40
0.6246395234
 40
0.7494477567
 40
0.8745473237
 40
1.0
 40
1.0
 40
1.0
 40
1.0
 10
6.2071605288
 20
5.1790885463
 30
0.0
 10
6.2170221873
 20
5.1816729696
 30
0.0
 10
6.2368407798
 20
5.1863839568
 30
0.0
 10
6.2668839984
 20
5.1917658212
 30
0.0
 10
6.2971571703
 20
5.1951536726
 30
0.0
 10
6.3275639349
 20
5.1963129492
 30
0.0
 10
6.3579706499
 20
5.1951520882
 30
0.0
 10
6.3882437729
 20
5.1917630536
 30
0.0
 10
6.4182868767
 20
5.1863797664
 30
0.0
 10
6.4381053047
 20
5.181667626
 30
0.0
 10
6.447966907
 20
5.1790827245
 30
0.0
  0
LINE
  5
2E7
100
AcDbEntity
  8
0
100
AcDbLine
 62
7
  6
CONTINUOUS
 10
6.7026785716
 20
5.179082815
 11
6.7028866938
 21
5.1959259169
  0
SPLINE
  5
2E8
100
AcDbEntity
  8
0
100
AcDbSpline
 62
7
  6
CONTINUOUS
 70
0
 71
3
 72
15
 73
11
 74
0
 42
0.0000001
 43
0.0000001
 44
0.0000000001
 40
0.0
 40
0.0
 40
0.0
 40
0.0
 40
0.1254464015
 40
0.250544634
 40
0.3753555658
 40
0.5000007192
 40
0.6246459592
 40
0.7494564622
 40
0.8745541492
 40
1.0
 40
1.0
 40
1.0
 40
1.0
 10
6.4569529036
 20
5.1790826176
 30
0.0
 10
6.4668317358
 20
5.1816673328
 30
0.0
 10
6.4866848232
 20
5.1863788722
 30
0.0
 10
6.5167796856
 20
5.1917614232
 30
0.0
 10
6.547104786
 20
5.195149967
 30
0.0
 10
6.5775636291
 20
5.1963099691
 30
0.0
 10
6.6080224254
 20
5.1951498785
 30
0.0
 10
6.638347484
 20
5.1917616397
 30
0.0
 10
6.6684422404
 20
5.1863791411
 30
0.0
 10
6.6882951905
 20
5.1816674156
 30
0.0
 10
6.6981739771
 20
5.1790827033
 30
0.0
  0
SPLINE
  5
2E9
100
AcDbEntity
  8
0
100
AcDbSpline
 62
7
  6
CONTINUOUS
 70
0
 71
3
 72
23
 73
19
 74
0
 42
0.0000001
 43
0.0000001
 44
0.0000000001
 40
0.0
 40
0.0
 40
0.0
 40
0.0
 40
0.0647670316
 40
0.128785563
 40
0.1920642101
 40
0.254642716
 40
0.3165982634
 40
0.3780414959
 40
0.4391190883
 40
0.5000057092
 40
0.5608922143
 40
0.6219692798
 40
0.6834114269
 40
0.7453654143
 40
0.8079421143
 40
0.8712188106
 40
0.935235296
 40
1.0
 40
1.0
 40
1.0
 40
1.0
 10
3.8780269214
 20
5.1791719662
 30
0.0
 10
3.8808714472
 20
5.1804588256
 30
0.0
 10
3.8865730196
 20
5.182919114
 30
0.0
 10
3.8952155164
 20
5.1862469122
 30
0.0
 10
3.9038988526
 20
5.1891516373
 30
0.0
 10
3.9126203786
 20
5.1915958235
 30
0.0
 10
3.921376559
 20
5.1935415612
 30
0.0
 10
3.9301609821
 20
5.1949593797
 30
0.0
 10
3.9389661412
 20
5.1958195245
 30
0.0
 10
3.9477818998
 20
5.1961100431
 30
0.0
 10
3.9565976328
 20
5.1958195755
 30
0.0
 10
3.965402723
 20
5.1949596038
 30
0.0
 10
3.9741870286
 20
5.1935420192
 30
0.0
 10
3.9829430433
 20
5.1915965205
 30
0.0
 10
3.9916643547
 20
5.1891525133
 30
0.0
 10
4.0003474371
 20
5.1862479061
 30
0.0
 10
4.0089896184
 20
5.1829201342
 30
0.0
 10
4.0146909768
 20
5.1804598841
 30
0.0
 10
4.0175353975
 20
5.1791730647
 30
0.0
  0
SPLINE
  5
2EA
100
AcDbEntity
  8
0
100
AcDbSpline
 62
7
  6
CONTINUOUS
 70
0
 71
3
 72
15
 73
11
 74
0
 42
0.0000001
 43
0.0000001
 44
0.0000000001
 40
0.0
 40
0.0
 40
0.0
 40
0.0
 40
0.1250001476
 40
0.2500003556
 40
0.375000282
 40
0.5000000616
 40
0.6249998371
 40
0.7499998249
 40
0.8749999881
 40
1.0
 40
1.0
 40
1.0
 40
1.0
 10
3.5919394463
 20
5.1791847102
 30
0.0
 10
3.6033533997
 20
5.181772669
 30
0.0
 10
3.626290778
 20
5.1864839757
 30
0.0
 10
3.6610028146
 20
5.1918678244
 30
0.0
 10
3.6959726849
 20
5.1952477691
 30
0.0
 10
3.731089568
 20
5.1964050062
 30
0.0
 10
3.7662063631
 20
5.1952445488
 30
0.0
 10
3.8011758751
 20
5.1918610434
 30
0.0
 10
3.8358875367
 20
5.1864748532
 30
0.0
 10
3.8588244172
 20
5.1817611632
 30
0.0
 10
3.8702381251
 20
5.1791721793
 30
0.0
  0
SPLINE
  5
2EB
100
AcDbEntity
  8
0
100
AcDbSpline
 62
7
  6
CONTINUOUS
 70
0
 71
3
 72
23
 73
19
 74
0
 42
0.0000001
 43
0.0000001
 44
0.0000000001
 40
0.0
 40
0.0
 40
0.0
 40
0.0
 40
0.0647940003
 40
0.1288301456
 40
0.1921171144
 40
0.2546951163
 40
0.3166422544
 40
0.3780706281
 40
0.4391288455
 40
0.4999939381
 40
0.5608593382
 40
0.6219182806
 40
0.6833476141
 40
0.7452959712
 40
0.807875613
 40
0.8711646694
 40
0.9352033255
 40
1.0
 40
1.0
 40
1.0
 40
1.0
 10
3.4453738374
 20
5.1791988272
 30
0.0
 10
3.4482035234
 20
5.1804852977
 30
0.0
 10
3.4538753299
 20
5.1829448235
 30
0.0
 10
3.4624733163
 20
5.1862717338
 30
0.0
 10
3.4711119606
 20
5.1891755798
 30
0.0
 10
3.4797886317
 20
5.1916188923
 30
0.0
 10
3.4884998228
 20
5.1935637575
 30
0.0
 10
3.4972391517
 20
5.1949806958
 30
0.0
 10
3.5059991487
 20
5.1958399444
 30
0.0
 10
3.5147697097
 20
5.1961295429
 30
0.0
 10
3.5235402435
 20
5.1958381301
 30
0.0
 10
3.5323001682
 20
5.194977192
 30
0.0
 10
3.5410393739
 20
5.1935586303
 30
0.0
 10
3.5497503932
 20
5.1916121539
 30
0.0
 10
3.5584268431
 20
5.1891671786
 30
0.0
 10
3.5670652274
 20
5.1862616174
 30
0.0
 10
3.5756628925
 20
5.1829329094
 30
0.0
 10
3.5813344666
 20
5.1804722256
 30
0.0
 10
3.5841640401
 20
5.1791851978
 30
0.0
  0
LINE
  5
2EC
100
AcDbEntity
  8
0
100
AcDbLine
 62
7
  6
CONTINUOUS
 10
5.5658370194
 20
4.9074262425
 11
5.5662817079
 21
4.9078956631
  0
SPLINE
  5
2ED
100
AcDbEntity
  8
0
100
AcDbSpline
 62
7
  6
CONTINUOUS
 70
0
 71
3
 72
10
 73
6
 74
0
 42
0.0000001
 43
0.0000001
 44
0.0000000001
 40
0.0
 40
0.0
 40
0.0
 40
0.0
 40
0.5308295871
 40
0.7692261317
 40
1.0
 40
1.0
 40
1.0
 40
1.0
 10
5.5662817079
 20
4.9078956631
 30
0.0
 10
5.5666125884
 20
4.9082792828
 30
0.0
 10
5.5670336953
 20
4.9089010279
 30
0.0
 10
5.5673263378
 20
4.9098149215
 30
0.0
 10
5.5673736367
 20
4.9102640986
 30
0.0
 10
5.5673736367
 20
4.9104843399
 30
0.0
  0
SPLINE
  5
2EE
100
AcDbEntity
  8
0
100
AcDbSpline
 62
7
  6
CONTINUOUS
 70
0
 71
3
 72
8
 73
4
 74
0
 42
0.0000001
 43
0.0000001
 44
0.0000000001
 40
0.0
 40
0.0
 40
0.0
 40
0.0
 40
1.0
 40
1.0
 40
1.0
 40
1.0
 10
6.9375750265
 20
4.9986991226
 30
0.0
 10
6.9375475457
 20
4.9987008885
 30
0.0
 10
6.9375200649
 20
4.9987026545
 30
0.0
 10
6.9374925841
 20
4.9987044204
 30
0.0
  0
SPLINE
  5
2EF
100
AcDbEntity
  8
0
100
AcDbSpline
 62
7
  6
CONTINUOUS
 70
0
 71
3
 72
8
 73
4
 74
0
 42
0.0000001
 43
0.0000001
 44
0.0000000001
 40
0.0
 40
0.0
 40
0.0
 40
0.0
 40
1.0
 40
1.0
 40
1.0
 40
1.0
 10
6.9374925841
 20
4.9987044204
 30
0.0
 10
6.9374697693
 20
4.9987059829
 30
0.0
 10
6.9374469545
 20
4.9987075455
 30
0.0
 10
6.9374241397
 20
4.998709108
 30
0.0
  0
SPLINE
  5
2F0
100
AcDbEntity
  8
0
100
AcDbSpline
 62
7
  6
CONTINUOUS
 70
0
 71
3
 72
8
 73
4
 74
0
 42
0.0000001
 43
0.0000001
 44
0.0000000001
 40
0.0
 40
0.0
 40
0.0
 40
0.0
 40
1.0
 40
1.0
 40
1.0
 40
1.0
 10
6.9374241397
 20
4.998709108
 30
0.0
 10
6.9374073054
 20
4.9987103521
 30
0.0
 10
6.937390471
 20
4.9987115963
 30
0.0
 10
6.9373736367
 20
4.9987128404
 30
0.0
  0
LINE
  5
2F1
100
AcDbEntity
  8
0
100
AcDbLine
 62
7
  6
CONTINUOUS
 10
5.388910254
 20
4.9074262425
 11
5.3884097673
 21
4.907961245
  0
SPLINE
  5
2F2
100
AcDbEntity
  8
0
100
AcDbSpline
 62
7
  6
CONTINUOUS
 70
0
 71
3
 72
10
 73
6
 74
0
 42
0.0000001
 43
0.0000001
 44
0.0000000001
 40
0.0
 40
0.0
 40
0.0
 40
0.0
 40
0.5294083306
 40
0.7683169396
 40
1.0
 40
1.0
 40
1.0
 40
1.0
 10
5.3884097673
 20
4.907961245
 30
0.0
 10
5.3880947042
 20
4.9083367104
 30
0.0
 10
5.3876951772
 20
4.9089442734
 30
0.0
 10
5.3874184235
 20
4.9098328346
 30
0.0
 10
5.3873736367
 20
4.9102698409
 30
0.0
 10
5.3873736367
 20
4.9104843399
 30
0.0
  0
SPLINE
  5
2F3
100
AcDbEntity
  8
0
100
AcDbSpline
 62
7
  6
CONTINUOUS
 70
0
 71
3
 72
20
 73
16
 74
0
 42
0.0000001
 43
0.0000001
 44
0.0000000001
 40
0.0
 40
0.0
 40
0.0
 40
0.0
 40
0.124908306
 40
0.1874686719
 40
0.2499920432
 40
0.3124980841
 40
0.3750035479
 40
0.4999082398
 40
0.5624217915
 40
0.6249368685
 40
0.6874485795
 40
0.7499635199
 40
0.8125001919
 40
0.8750732004
 40
1.0
 40
1.0
 40
1.0
 40
1.0
 10
5.3226145329
 20
4.9686460995
 30
0.0
 10
5.3241034427
 20
4.9599547112
 30
0.0
 10
5.3275157688
 20
4.9470723499
 30
0.0
 10
5.3342647793
 20
4.9307483451
 30
0.0
 10
5.3404035861
 20
4.9189929978
 30
0.0
 10
5.3475537928
 20
4.9078293929
 30
0.0
 10
5.3583548272
 20
4.8938570604
 30
0.0
 10
5.3709622515
 20
4.8813593095
 30
0.0
 10
5.3850298839
 20
4.8706814287
 30
0.0
 10
5.3962452274
 20
4.8636124196
 30
0.0
 10
5.4080309049
 20
4.8575441468
 30
0.0
 10
5.420299708
 20
4.8525206754
 30
0.0
 10
5.4329621326
 20
4.8485730217
 30
0.0
 10
5.4502203645
 20
4.8447976075
 30
0.0
 10
5.4634936049
 20
4.8436478153
 30
0.0
 10
5.472312908
 20
4.8436460995
 30
0.0
  0
SPLINE
  5
2F4
100
AcDbEntity
  8
0
100
AcDbSpline
 62
7
  6
CONTINUOUS
 70
0
 71
3
 72
19
 73
15
 74
0
 42
0.0000001
 43
0.0000001
 44
0.0000000001
 40
0.0
 40
0.0
 40
0.0
 40
0.0
 40
0.124938563
 40
0.1875159672
 40
0.2500579046
 40
0.3125793081
 40
0.3750986225
 40
0.5000240693
 40
0.6249426823
 40
0.6874553286
 40
0.7499697375
 40
0.8125027092
 40
0.8750737006
 40
1.0
 40
1.0
 40
1.0
 40
1.0
 10
5.4824343654
 20
4.8436460995
 30
0.0
 10
5.4912534535
 20
4.8436477309
 30
0.0
 10
5.5045262812
 20
4.8447972734
 30
0.0
 10
5.5217839513
 20
4.8485728217
 30
0.0
 10
5.5344458304
 20
4.8525201201
 30
0.0
 10
5.5467151483
 20
4.8575436513
 30
0.0
 10
5.5624188736
 20
4.8656290462
 30
0.0
 10
5.5806464301
 20
4.8782458699
 30
0.0
 10
5.5963899533
 20
4.893854542
 30
0.0
 10
5.6071926213
 20
4.9078279732
 30
0.0
 10
5.6143428007
 20
4.9189913988
 30
0.0
 10
5.6204820651
 20
4.9307471319
 30
0.0
 10
5.6272310357
 20
4.9470717772
 30
0.0
 10
5.6306437078
 20
4.9599545042
 30
0.0
 10
5.6321327405
 20
4.9686460995
 30
0.0
  0
SPLINE
  5
2F5
100
AcDbEntity
  8
0
100
AcDbSpline
 62
7
  6
CONTINUOUS
 70
0
 71
3
 72
29
 73
25
 74
0
 42
0.0000001
 43
0.0000001
 44
0.0000000001
 40
0.0
 40
0.0
 40
0.0
 40
0.0
 40
0.0009712582
 40
0.0021776391
 40
0.0038445287
 40
0.006056174
 40
0.0088442589
 40
0.0122214052
 40
0.0207572511
 40
0.0316671079
 40
0.0449326082
 40
0.060529624
 40
0.0784329126
 40
0.1209948852
 40
0.1720952201
 40
0.2311408701
 40
0.2975372058
 40
0.3706541258
 40
0.4497212251
 40
0.5339353451
 40
0.622497148
 40
0.7145440535
 40
0.8089387332
 40
1.0
 40
1.0
 40
1.0
 40
1.0
 10
5.354052041
 20
4.9736460995
 30
0.0
 10
5.3540503213
 20
4.9736562735
 30
0.0
 10
5.3540378788
 20
4.9736779836
 30
0.0
 10
5.3539999504
 20
4.9736963103
 30
0.0
 10
5.3539468707
 20
4.9737067736
 30
0.0
 10
5.353875929
 20
4.9737104524
 30
0.0
 10
5.3537869514
 20
4.9737077796
 30
0.0
 10
5.3536312388
 20
4.9736949731
 30
0.0
 10
5.3533908442
 20
4.9736626423
 30
0.0
 10
5.3530477941
 20
4.973607151
 30
0.0
 10
5.352631494
 20
4.9735348222
 30
0.0
 10
5.3521421736
 20
4.9734488201
 30
0.0
 10
5.3513457627
 20
4.9733120677
 30
0.0
 10
5.3501753721
 20
4.9731248908
 30
0.0
 10
5.3485718188
 20
4.9728788786
 30
0.0
 10
5.3467172459
 20
4.9725993088
 30
0.0
 10
5.344631415
 20
4.9722847231
 30
0.0
 10
5.3423359303
 20
4.9719339828
 30
0.0
 10
5.3398550276
 20
4.971543631
 30
0.0
 10
5.3372147843
 20
4.9711106032
 30
0.0
 10
5.3344423963
 20
4.9706318233
 30
0.0
 10
5.3315686049
 20
4.9701054329
 30
0.0
 10
5.3276228189
 20
4.9693894105
 30
0.0
 10
5.3246280778
 20
4.9689022211
 30
0.0
 10
5.3226145329
 20
4.9686460995
 30
0.0
  0
SPLINE
  5
2F6
100
AcDbEntity
  8
0
100
AcDbSpline
 62
7
  6
CONTINUOUS
 70
0
 71
3
 72
9
 73
5
 74
0
 42
0.0000001
 43
0.0000001
 44
0.0000000001
 40
0.0
 40
0.0
 40
0.0
 40
0.0
 40
0.5011633012
 40
1.0
 40
1.0
 40
1.0
 40
1.0
 10
5.4773842409
 20
4.9961530965
 30
0.0
 10
5.4803535362
 20
4.9961523099
 30
0.0
 10
5.4862860909
 20
4.9956915979
 30
0.0
 10
5.4920885047
 20
4.994421544
 30
0.0
 10
5.4949404741
 20
4.9936460995
 30
0.0
  0
SPLINE
  5
2F7
100
AcDbEntity
  8
0
100
AcDbSpline
 62
7
  6
CONTINUOUS
 70
0
 71
3
 72
9
 73
5
 74
0
 42
0.0000001
 43
0.0000001
 44
0.0000000001
 40
0.0
 40
0.0
 40
0.0
 40
0.0
 40
0.4988373762
 40
1.0
 40
1.0
 40
1.0
 40
1.0
 10
5.4598067993
 20
4.9936460995
 30
0.0
 10
5.4626622465
 20
4.9944221788
 30
0.0
 10
5.468471559
 20
4.9956932699
 30
0.0
 10
5.4744114151
 20
4.9961546315
 30
0.0
 10
5.4773842409
 20
4.9961530965
 30
0.0
  0
SPLINE
  5
2F8
100
AcDbEntity
  8
0
100
AcDbSpline
 62
7
  6
CONTINUOUS
 70
0
 71
3
 72
13
 73
9
 74
0
 42
0.0000001
 43
0.0000001
 44
0.0000000001
 40
0.0
 40
0.0
 40
0.0
 40
0.0
 40
0.0918773665
 40
0.1884595503
 40
0.2929493559
 40
0.4078263072
 40
0.6751638596
 40
1.0
 40
1.0
 40
1.0
 40
1.0
 10
5.3873736367
 20
4.9104843399
 30
0.0
 10
5.3873736367
 20
4.9107101748
 30
0.0
 10
5.3874244961
 20
4.9111746737
 30
0.0
 10
5.3876463777
 20
4.9118639527
 30
0.0
 10
5.3880106719
 20
4.912553616
 30
0.0
 10
5.3887191822
 20
4.9135217466
 30
0.0
 10
5.3899937225
 20
4.9147218904
 30
0.0
 10
5.3911972536
 20
4.9155468675
 30
0.0
 10
5.3918772516
 20
4.9159653446
 30
0.0
  0
LINE
  5
2F9
100
AcDbEntity
  8
0
100
AcDbLine
 62
7
  6
CONTINUOUS
 10
5.3918772516
 20
4.9159653446
 11
5.3953037627
 21
4.9177717402
  0
SPLINE
  5
2FA
100
AcDbEntity
  8
0
100
AcDbSpline
 62
7
  6
CONTINUOUS
 70
0
 71
3
 72
34
 73
30
 74
0
 42
0.0000001
 43
0.0000001
 44
0.0000000001
 40
0.0
 40
0.0
 40
0.0
 40
0.0
 40
0.0207051468
 40
0.0442813536
 40
0.0706543317
 40
0.0996964924
 40
0.1312345586
 40
0.165087937
 40
0.2389264527
 40
0.3192716472
 40
0.4039502354
 40
0.4905023325
 40
0.5764142098
 40
0.6591751351
 40
0.7364647056
 40
0.8062081922
 40
0.8376996781
 40
0.866691812
 40
0.8930116474
 40
0.9165329381
 40
0.9371819974
 40
0.9549163767
 40
0.9697550441
 40
0.976139347
 40
0.981880146
 40
0.9870356539
 40
0.9916896264
 40
0.9959593635
 40
1.0
 40
1.0
 40
1.0
 40
1.0
 10
5.3953037627
 20
4.9177717402
 30
0.0
 10
5.3964200341
 20
4.9182853762
 30
0.0
 10
5.3988526628
 20
4.9192859658
 30
0.0
 10
5.4028182067
 20
4.9206533458
 30
0.0
 10
5.4073179802
 20
4.9219731011
 30
0.0
 10
5.4123233362
 20
4.923232693
 30
0.0
 10
5.4178015665
 20
4.9244190523
 30
0.0
 10
5.4259263962
 20
4.9259280772
 30
0.0
 10
5.4369779621
 20
4.9275119998
 30
0.0
 10
5.4510924708
 20
4.9288739439
 30
0.0
 10
5.4660067685
 20
4.9296548638
 30
0.0
 10
5.4812708755
 20
4.9298147907
 30
0.0
 10
5.4964143298
 20
4.9293316172
 30
0.0
 10
5.5109757265
 20
4.9282478956
 30
0.0
 10
5.5245207357
 20
4.9266239308
 30
0.0
 10
5.5349716951
 20
4.9248492003
 30
0.0
 10
5.5425253488
 20
4.9232090382
 30
0.0
 10
5.547521243
 20
4.9219480894
 30
0.0
 10
5.5520108789
 20
4.9206273102
 30
0.0
 10
5.5559660428
 20
4.919259125
 30
0.0
 10
5.5593644862
 20
4.9178559903
 30
0.0
 10
5.5621863823
 20
4.9164296867
 30
0.0
 10
5.5641354872
 20
4.915171991
 30
0.0
 10
5.5653661448
 20
4.9141461175
 30
0.0
 10
5.5660880322
 20
4.9134149221
 30
0.0
 10
5.5666551163
 20
4.9126834721
 30
0.0
 10
5.5670655582
 20
4.9119512948
 30
0.0
 10
5.5673160126
 20
4.9112188044
 30
0.0
 10
5.5673736367
 20
4.9107241366
 30
0.0
 10
5.5673736367
 20
4.9104843399
 30
0.0
  0
SPLINE
  5
2FB
100
AcDbEntity
  8
0
100
AcDbSpline
 62
7
  6
CONTINUOUS
 70
0
 71
3
 72
15
 73
11
 74
0
 42
0.0000001
 43
0.0000001
 44
0.0000000001
 40
0.0
 40
0.0
 40
0.0
 40
0.0
 40
0.1042742726
 40
0.2157431827
 40
0.333996036
 40
0.4584318627
 40
0.5881636754
 40
0.7223630385
 40
0.8600892453
 40
1.0
 40
1.0
 40
1.0
 40
1.0
 10
5.3905075592
 20
4.9736460995
 30
0.0
 10
5.3930237643
 20
4.9736444651
 30
0.0
 10
5.3982324997
 20
4.9740985635
 30
0.0
 10
5.4061299295
 20
4.9757607038
 30
0.0
 10
5.4143269981
 20
4.9782008599
 30
0.0
 10
5.4227995835
 20
4.9812023447
 30
0.0
 10
5.4315532898
 20
4.9845487769
 30
0.0
 10
5.4406241366
 20
4.987964592
 30
0.0
 10
5.4500320772
 20
4.9911747217
 30
0.0
 10
5.456508427
 20
4.9929256546
 30
0.0
 10
5.4598067993
 20
4.9936460995
 30
0.0
  0
SPLINE
  5
2FC
100
AcDbEntity
  8
0
100
AcDbSpline
 62
7
  6
CONTINUOUS
 70
0
 71
3
 72
15
 73
11
 74
0
 42
0.0000001
 43
0.0000001
 44
0.0000000001
 40
0.0
 40
0.0
 40
0.0
 40
0.0
 40
0.1400581844
 40
0.2777175516
 40
0.4118865772
 40
0.5416942092
 40
0.6661533419
 40
0.7843788707
 40
0.895712001
 40
1.0
 40
1.0
 40
1.0
 40
1.0
 10
5.4949404741
 20
4.9936460995
 30
0.0
 10
5.4982428842
 20
4.9929274827
 30
0.0
 10
5.5047209498
 20
4.9911747733
 30
0.0
 10
5.514129818
 20
4.9879635946
 30
0.0
 10
5.5231963044
 20
4.9845376132
 30
0.0
 10
5.5319555323
 20
4.9812011145
 30
0.0
 10
5.5404297067
 20
4.9781991608
 30
0.0
 10
5.5486233203
 20
4.9757592878
 30
0.0
 10
5.5565174765
 20
4.9740983605
 30
0.0
 10
5.5617231787
 20
4.9736460747
 30
0.0
 10
5.5642397142
 20
4.9736460995
 30
0.0
  0
SPLINE
  5
2FD
100
AcDbEntity
  8
0
100
AcDbSpline
 62
7
  6
CONTINUOUS
 70
0
 71
3
 72
14
 73
10
 74
0
 42
0.0000001
 43
0.0000001
 44
0.0000000001
 40
0.0
 40
0.0
 40
0.0
 40
0.0
 40
0.2573018925
 40
0.3850295699
 40
0.5117558304
 40
0.6371070642
 40
0.760635114
 40
0.8818039129
 40
1.0
 40
1.0
 40
1.0
 40
1.0
 10
5.499532087
 20
5.0111460995
 30
0.0
 10
5.5069109752
 20
5.0103499703
 30
0.0
 10
5.5178969068
 20
5.008648005
 30
0.0
 10
5.5324072941
 20
5.0059450195
 30
0.0
 10
5.5431652827
 20
5.0038739879
 30
0.0
 10
5.553820226
 20
5.0019107749
 30
0.0
 10
5.5643617766
 20
5.0002228125
 30
0.0
 10
5.5747611687
 20
4.9990003569
 30
0.0
 10
5.5816662892
 20
4.9986460968
 30
0.0
 10
5.5850755815
 20
4.9986460995
 30
0.0
  0
SPLINE
  5
2FE
100
AcDbEntity
  8
0
100
AcDbSpline
 62
7
  6
CONTINUOUS
 70
0
 71
3
 72
9
 73
5
 74
0
 42
0.0000001
 43
0.0000001
 44
0.0000000001
 40
0.0
 40
0.0
 40
0.0
 40
0.0
 40
0.5002337301
 40
1.0
 40
1.0
 40
1.0
 40
1.0
 10
5.4773870209
 20
5.012399598
 30
0.0
 10
5.4810868711
 20
5.0123984692
 30
0.0
 10
5.4884846618
 20
5.0121770737
 30
0.0
 10
5.4958571731
 20
5.0115440045
 30
0.0
 10
5.499532087
 20
5.0111460995
 30
0.0
  0
SPLINE
  5
2FF
100
AcDbEntity
  8
0
100
AcDbSpline
 62
7
  6
CONTINUOUS
 70
0
 71
3
 72
9
 73
5
 74
0
 42
0.0000001
 43
0.0000001
 44
0.0000000001
 40
0.0
 40
0.0
 40
0.0
 40
0.0
 40
0.4997658956
 40
1.0
 40
1.0
 40
1.0
 40
1.0
 10
5.4552151864
 20
5.0111460995
 30
0.0
 10
5.4588945378
 20
5.0115444548
 30
0.0
 10
5.4662758895
 20
5.0121786568
 30
0.0
 10
5.4736827007
 20
5.012400302
 30
0.0
 10
5.4773870209
 20
5.012399598
 30
0.0
  0
SPLINE
  5
300
100
AcDbEntity
  8
0
100
AcDbSpline
 62
7
  6
CONTINUOUS
 70
0
 71
3
 72
22
 73
18
 74
0
 42
0.0000001
 43
0.0000001
 44
0.0000000001
 40
0.0
 40
0.0
 40
0.0
 40
0.0
 40
0.007693834
 40
0.0143828736
 40
0.0232351242
 40
0.0343056477
 40
0.0476105587
 40
0.0631493195
 40
0.0809131895
 40
0.1229911281
 40
0.1734093746
 40
0.2316580611
 40
0.2972175353
 40
0.447878797
 40
0.6197940087
 40
0.806593159
 40
1.0
 40
1.0
 40
1.0
 40
1.0
 10
5.3244716421
 20
4.9986460995
 30
0.0
 10
5.324394191
 20
4.9986460995
 30
0.0
 10
5.3242827844
 20
4.9985064235
 30
0.0
 10
5.3241894323
 20
4.9983039753
 30
0.0
 10
5.3240995855
 20
4.9980470135
 30
0.0
 10
5.3240131185
 20
4.9977252396
 30
0.0
 10
5.3239260273
 20
4.9973323652
 30
0.0
 10
5.3238403228
 20
4.996871181
 30
0.0
 10
5.3237208714
 20
4.9961216758
 30
0.0
 10
5.3235806907
 20
4.9950204189
 30
0.0
 10
5.323427465
 20
4.9935105721
 30
0.0
 10
5.323283417
 20
4.9917625367
 30
0.0
 10
5.3230970732
 20
4.9890057639
 30
0.0
 10
5.3229053829
 20
4.9851029308
 30
0.0
 10
5.3227393465
 20
4.9799777426
 30
0.0
 10
5.3226378922
 20
4.9744204964
 30
0.0
 10
5.3226145329
 20
4.9705930591
 30
0.0
 10
5.3226145329
 20
4.9686460995
 30
0.0
  0
SPLINE
  5
301
100
AcDbEntity
  8
0
100
AcDbSpline
 62
7
  6
CONTINUOUS
 70
0
 71
3
 72
17
 73
13
 74
0
 42
0.0000001
 43
0.0000001
 44
0.0000000001
 40
0.0
 40
0.0
 40
0.0
 40
0.0
 40
0.1045413404
 40
0.1581815423
 40
0.2130091272
 40
0.2692325005
 40
0.3270391882
 40
0.4479001927
 40
0.5764286866
 40
0.7125083767
 40
0.8545879183
 40
1.0
 40
1.0
 40
1.0
 40
1.0
 10
5.5850757504
 20
4.9986460995
 30
0.0
 10
5.5838418421
 20
4.9986460995
 30
0.0
 10
5.5819657325
 20
4.9984009302
 30
0.0
 10
5.579566542
 20
4.9976379453
 30
0.0
 10
5.5777891476
 20
4.9968397995
 30
0.0
 10
5.5760686407
 20
4.9958260845
 30
0.0
 10
5.5738401544
 20
4.9941690716
 30
0.0
 10
5.5712764154
 20
4.9915719698
 30
0.0
 10
5.5686762293
 20
4.9878146135
 30
0.0
 10
5.5665881065
 20
4.9834724697
 30
0.0
 10
5.5650596854
 20
4.9786981057
 30
0.0
 10
5.56444263
 20
4.9753503705
 30
0.0
 10
5.5642397143
 20
4.9736460995
 30
0.0
  0
SPLINE
  5
302
100
AcDbEntity
  8
0
100
AcDbSpline
 62
7
  6
CONTINUOUS
 70
0
 71
3
 72
10
 73
6
 74
0
 42
0.0000001
 43
0.0000001
 44
0.0000000001
 40
0.0
 40
0.0
 40
0.0
 40
0.0
 40
0.2292168828
 40
0.4764909771
 40
1.0
 40
1.0
 40
1.0
 40
1.0
 10
5.4995320981
 20
5.011146613
 30
0.0
 10
5.4991084949
 20
5.0098302268
 30
0.0
 10
5.4982736886
 20
5.007078901
 30
0.0
 10
5.4966755547
 20
5.0012610134
 30
0.0
 10
5.4956033162
 20
4.9967340134
 30
0.0
 10
5.49494013
 20
4.9936461001
 30
0.0
  0
SPLINE
  5
303
100
AcDbEntity
  8
0
100
AcDbSpline
 62
7
  6
CONTINUOUS
 70
0
 71
3
 72
10
 73
6
 74
0
 42
0.0000001
 43
0.0000001
 44
0.0000000001
 40
0.0
 40
0.0
 40
0.0
 40
0.0
 40
0.2292172927
 40
0.4764937757
 40
1.0
 40
1.0
 40
1.0
 40
1.0
 10
5.4552151851
 20
5.0111461576
 30
0.0
 10
5.4556392608
 20
5.0098299566
 30
0.0
 10
5.4564746992
 20
5.0070788708
 30
0.0
 10
5.4580730651
 20
5.0012611944
 30
0.0
 10
5.4591444847
 20
4.9967340969
 30
0.0
 10
5.4598068289
 20
4.9936460995
 30
0.0
  0
SPLINE
  5
304
100
AcDbEntity
  8
0
100
AcDbSpline
 62
7
  6
CONTINUOUS
 70
0
 71
3
 72
17
 73
13
 74
0
 42
0.0000001
 43
0.0000001
 44
0.0000000001
 40
0.0
 40
0.0
 40
0.0
 40
0.0
 40
0.1045412191
 40
0.1581813693
 40
0.2130089112
 40
0.2692322529
 40
0.3270389243
 40
0.4478999397
 40
0.5764284848
 40
0.7125082519
 40
0.8545878648
 40
1.0
 40
1.0
 40
1.0
 40
1.0
 10
5.3696715231
 20
4.9986460995
 30
0.0
 10
5.3709054297
 20
4.9986460995
 30
0.0
 10
5.3727815369
 20
4.9984009305
 30
0.0
 10
5.3751807245
 20
4.9976379463
 30
0.0
 10
5.3769581171
 20
4.9968398009
 30
0.0
 10
5.3786786224
 20
4.9958260862
 30
0.0
 10
5.3809071074
 20
4.9941690729
 30
0.0
 10
5.3834708462
 20
4.9915719713
 30
0.0
 10
5.3860710338
 20
4.987814615
 30
0.0
 10
5.3881591587
 20
4.9834724706
 30
0.0
 10
5.3896875833
 20
4.9786981062
 30
0.0
 10
5.3903046417
 20
4.9753503706
 30
0.0
 10
5.390507559
 20
4.9736460996
 30
0.0
  0
SPLINE
  5
305
100
AcDbEntity
  8
0
100
AcDbSpline
 62
7
  6
CONTINUOUS
 70
0
 71
3
 72
29
 73
25
 74
0
 42
0.0000001
 43
0.0000001
 44
0.0000000001
 40
0.0
 40
0.0
 40
0.0
 40
0.0
 40
0.0009714384
 40
0.0021779225
 40
0.0038448646
 40
0.0060565376
 40
0.0088446385
 40
0.0122217949
 40
0.0207576544
 40
0.0316675224
 40
0.0449330327
 40
0.0605300559
 40
0.0784333471
 40
0.1209953358
 40
0.1720957086
 40
0.2311413972
 40
0.2975377498
 40
0.3706546706
 40
0.4497217601
 40
0.5339358362
 40
0.6224975376
 40
0.7145443122
 40
0.8089388798
 40
1.0
 40
1.0
 40
1.0
 40
1.0
 10
5.6006952324
 20
4.9736460995
 30
0.0
 10
5.6006969524
 20
4.9736562754
 30
0.0
 10
5.6007093944
 20
4.9736779891
 30
0.0
 10
5.600747324
 20
4.973696322
 30
0.0
 10
5.6008004051
 20
4.9737067891
 30
0.0
 10
5.6008713477
 20
4.9737104711
 30
0.0
 10
5.600960326
 20
4.9737078005
 30
0.0
 10
5.6011160393
 20
4.9736949964
 30
0.0
 10
5.6013564346
 20
4.9736626665
 30
0.0
 10
5.601699485
 20
4.9736071745
 30
0.0
 10
5.6021157852
 20
4.9735348433
 30
0.0
 10
5.6026051054
 20
4.9734488379
 30
0.0
 10
5.6034015159
 20
4.97331208
 30
0.0
 10
5.6045719069
 20
4.9731248989
 30
0.0
 10
5.6061754616
 20
4.9728788855
 30
0.0
 10
5.6080300364
 20
4.9725993164
 30
0.0
 10
5.6101158689
 20
4.9722847323
 30
0.0
 10
5.6124113548
 20
4.9719339935
 30
0.0
 10
5.6148922582
 20
4.9715436437
 30
0.0
 10
5.6175325012
 20
4.9711106181
 30
0.0
 10
5.6203048879
 20
4.970631842
 30
0.0
 10
5.6231786766
 20
4.9701054509
 30
0.0
 10
5.6271244582
 20
4.9693894195
 30
0.0
 10
5.6301191965
 20
4.968902222
 30
0.0
 10
5.6321327405
 20
4.9686460995
 30
0.0
  0
SPLINE
  5
306
100
AcDbEntity
  8
0
100
AcDbSpline
 62
7
  6
CONTINUOUS
 70
0
 71
3
 72
22
 73
18
 74
0
 42
0.0000001
 43
0.0000001
 44
0.0000000001
 40
0.0
 40
0.0
 40
0.0
 40
0.0
 40
0.0076938339
 40
0.0143828734
 40
0.0232351238
 40
0.0343056473
 40
0.0476105582
 40
0.063149319
 40
0.0809131891
 40
0.1229911282
 40
0.1734093752
 40
0.231658062
 40
0.2972175361
 40
0.4478787968
 40
0.6197940078
 40
0.8065931587
 40
1.0
 40
1.0
 40
1.0
 40
1.0
 10
5.6302756313
 20
4.9986460995
 30
0.0
 10
5.6303530824
 20
4.9986460995
 30
0.0
 10
5.630464489
 20
4.9985064235
 30
0.0
 10
5.6305578411
 20
4.9983039753
 30
0.0
 10
5.6306476879
 20
4.9980470135
 30
0.0
 10
5.6307341549
 20
4.9977252396
 30
0.0
 10
5.6308212461
 20
4.9973323652
 30
0.0
 10
5.6309069506
 20
4.996871181
 30
0.0
 10
5.631026402
 20
4.9961216758
 30
0.0
 10
5.6311665827
 20
4.9950204189
 30
0.0
 10
5.6313198084
 20
4.9935105721
 30
0.0
 10
5.6314638564
 20
4.9917625367
 30
0.0
 10
5.6316502002
 20
4.9890057639
 30
0.0
 10
5.6318418905
 20
4.9851029308
 30
0.0
 10
5.6320079269
 20
4.9799777426
 30
0.0
 10
5.6321093812
 20
4.9744204964
 30
0.0
 10
5.6321327405
 20
4.9705930591
 30
0.0
 10
5.6321327405
 20
4.9686460995
 30
0.0
  0
LINE
  5
307
100
AcDbEntity
  8
0
100
AcDbLine
 62
7
  6
CONTINUOUS
 10
7.976285966
 20
4.8774219636
 11
7.9773685145
 21
4.8936460995
  0
LINE
  5
308
100
AcDbEntity
  8
0
100
AcDbLine
 62
7
  6
CONTINUOUS
 10
2.9773787589
 20
4.8936460995
 11
2.9784613074
 21
4.8774219633
  0
SPLINE
  5
309
100
AcDbEntity
  8
0
100
AcDbSpline
 62
7
  6
CONTINUOUS
 70
0
 71
3
 72
14
 73
10
 74
0
 42
0.0000001
 43
0.0000001
 44
0.0000000001
 40
0.0
 40
0.0
 40
0.0
 40
0.0
 40
0.1181863908
 40
0.1785033373
 40
0.2394593097
 40
0.3629877444
 40
0.4883209427
 40
0.7427518543
 40
1.0
 40
1.0
 40
1.0
 40
1.0
 10
5.369671523
 20
4.9986460995
 30
0.0
 10
5.3730805807
 20
4.9986454902
 30
0.0
 10
5.3782308301
 20
4.9989066278
 30
0.0
 10
5.3851028623
 20
4.9996025705
 30
0.0
 10
5.3921079108
 20
5.0004985024
 30
0.0
 10
5.4009341036
 20
5.0019099648
 30
0.0
 10
5.4152109895
 20
5.004544606
 30
0.0
 10
5.43323874
 20
5.008088217
 30
0.0
 10
5.447837819
 20
5.0103494097
 30
0.0
 10
5.4552151864
 20
5.0111460995
 30
0.0
  0
LINE
  5
30A
100
AcDbEntity
  8
0
100
AcDbLine
 62
7
  6
CONTINUOUS
 10
5.4823736367
 20
4.8736460995
 11
5.4824343652
 21
4.8436460995
  0
LINE
  5
30B
100
AcDbEntity
  8
0
100
AcDbLine
 62
7
  6
CONTINUOUS
 10
5.4723736367
 20
4.8736460995
 11
5.472312908
 21
4.8436460995
  0
LINE
  5
30C
100
AcDbEntity
  8
0
100
AcDbLine
 62
7
  6
CONTINUOUS
 10
4.0864926585
 20
4.4993250089
 11
4.0823101095
 21
4.1529284247
  0
SPLINE
  5
30D
100
AcDbEntity
  8
0
100
AcDbSpline
 62
7
  6
CONTINUOUS
 70
0
 71
3
 72
18
 73
14
 74
0
 42
0.0000001
 43
0.0000001
 44
0.0000000001
 40
0.0
 40
0.0
 40
0.0
 40
0.0
 40
0.0399419931
 40
0.0812105945
 40
0.1247509498
 40
0.1713158953
 40
0.221468097
 40
0.2755230882
 40
0.3955527428
 40
0.5309865508
 40
0.6794687738
 40
0.8375377417
 40
1.0
 40
1.0
 40
1.0
 40
1.0
 10
3.8656821839
 20
4.1136291538
 30
0.0
 10
3.8663132087
 20
4.1136291554
 30
0.0
 10
3.8675995217
 20
4.1137616737
 30
0.0
 10
3.8694943801
 20
4.1143415465
 30
0.0
 10
3.8713503219
 20
4.1152922539
 30
0.0
 10
3.87314647
 20
4.116603524
 30
0.0
 10
3.874862998
 20
4.1182643776
 30
0.0
 10
3.8771083906
 20
4.1210128268
 30
0.0
 10
3.8796022392
 20
4.1252522842
 30
0.0
 10
3.881976657
 20
4.131194509
 30
0.0
 10
3.8837641471
 20
4.1379607453
 30
0.0
 10
3.8848807921
 20
4.1452977474
 30
0.0
 10
3.8851653572
 20
4.1503625398
 30
0.0
 10
3.8851872672
 20
4.152929111
 30
0.0
  0
SPLINE
  5
30E
100
AcDbEntity
  8
0
100
AcDbSpline
 62
7
  6
CONTINUOUS
 70
0
 71
3
 72
11
 73
7
 74
0
 42
0.0000001
 43
0.0000001
 44
0.0000000001
 40
0.0
 40
0.0
 40
0.0
 40
0.0
 40
0.2448422671
 40
0.4926538557
 40
0.7440180499
 40
1.0
 40
1.0
 40
1.0
 40
1.0
 10
3.3969916789
 20
4.113646745
 30
0.0
 10
3.3951136431
 20
4.113646937
 30
0.0
 10
3.3913265394
 20
4.1140067885
 30
0.0
 10
3.3858071418
 20
4.1155712313
 30
0.0
 10
3.380582008
 20
4.1181402205
 30
0.0
 10
3.3774243017
 20
4.1204519687
 30
0.0
 10
3.3759396685
 20
4.1217369295
 30
0.0
  0
SPLINE
  5
30F
100
AcDbEntity
  8
0
100
AcDbSpline
 62
7
  6
CONTINUOUS
 70
0
 71
3
 72
14
 73
10
 74
0
 42
0.0000001
 43
0.0000001
 44
0.0000000001
 40
0.0
 40
0.0
 40
0.0
 40
0.0
 40
0.1195649378
 40
0.240974892
 40
0.3642221589
 40
0.4891965995
 40
0.6157489254
 40
0.7435469157
 40
1.0
 40
1.0
 40
1.0
 40
1.0
 10
3.3759396685
 20
4.1217369295
 30
0.0
 10
3.3748808065
 20
4.1226533822
 30
0.0
 10
3.3728527534
 20
4.124626847
 30
0.0
 10
3.3701476059
 20
4.1279361914
 30
0.0
 10
3.3677848874
 20
4.1315739408
 30
0.0
 10
3.3657927843
 20
4.1354942202
 30
0.0
 10
3.3642030143
 20
4.1396521437
 30
0.0
 10
3.3626474415
 20
4.1454360355
 30
0.0
 10
3.3621262553
 20
4.1499453339
 30
0.0
 10
3.3620805608
 20
4.1529486485
 30
0.0
  0
SPLINE
  5
310
100
AcDbEntity
  8
0
100
AcDbSpline
 62
7
  6
CONTINUOUS
 70
0
 71
3
 72
12
 73
8
 74
0
 42
0.0000001
 43
0.0000001
 44
0.0000000001
 40
0.0
 40
0.0
 40
0.0
 40
0.0
 40
0.2728049421
 40
0.5586382151
 40
0.8139938743
 40
0.9177512077
 40
1.0
 40
1.0
 40
1.0
 40
1.0
 10
3.8852247952
 20
4.1529292715
 30
0.0
 10
3.8388273897
 20
4.1528302034
 30
0.0
 10
3.7438166395
 20
4.152691636
 30
0.0
 10
3.6053760077
 20
4.1526226703
 30
0.0
 10
3.4956862483
 20
4.1526764038
 30
0.0
 10
3.4206214053
 20
4.1528041035
 30
0.0
 10
3.3889863773
 20
4.1528925512
 30
0.0
 10
3.3749979578
 20
4.1529473594
 30
0.0
  0
SPLINE
  5
311
100
AcDbEntity
  8
0
100
AcDbSpline
 62
7
  6
CONTINUOUS
 70
0
 71
3
 72
12
 73
8
 74
0
 42
0.0000001
 43
0.0000001
 44
0.0000000001
 40
0.0
 40
0.0
 40
0.0
 40
0.0
 40
0.2728078624
 40
0.558654657
 40
0.8140112415
 40
0.917752964
 40
1.0
 40
1.0
 40
1.0
 40
1.0
 10
3.8828657717
 20
4.4993250089
 30
0.0
 10
3.8364712845
 20
4.4994237936
 30
0.0
 10
3.7414647376
 20
4.4995646407
 30
0.0
 10
3.6030313477
 20
4.499641097
 30
0.0
 10
3.4933498597
 20
4.4995965937
 30
0.0
 10
3.4182933228
 20
4.4994786629
 30
0.0
 10
3.3866635648
 20
4.4993951826
 30
0.0
 10
3.3726764628
 20
4.4993432572
 30
0.0
  0
LINE
  5
312
100
AcDbEntity
  8
0
100
AcDbLine
 62
7
  6
CONTINUOUS
 10
3.3621015252
 20
4.1529488069
 11
3.3144679753
 21
4.1527058846
  0
LINE
  5
313
100
AcDbEntity
  8
0
100
AcDbLine
 62
7
  6
CONTINUOUS
 10
3.3538614168
 20
4.4993451349
 11
3.3062360704
 21
4.4996057297
  0
SPLINE
  5
314
100
AcDbEntity
  8
0
100
AcDbSpline
 62
7
  6
CONTINUOUS
 70
0
 71
3
 72
16
 73
12
 74
0
 42
0.0000001
 43
0.0000001
 44
0.0000000001
 40
0.0
 40
0.0
 40
0.0
 40
0.0
 40
0.0376211628
 40
0.0761463621
 40
0.1593793032
 40
0.2558104822
 40
0.3688338262
 40
0.4998870624
 40
0.6492823946
 40
0.816424306
 40
1.0
 40
1.0
 40
1.0
 40
1.0
 10
3.7387912304
 20
4.0836627738
 30
0.0
 10
3.7383763867
 20
4.0836628761
 30
0.0
 10
3.737534855
 20
4.0837399077
 30
0.0
 10
3.73583265
 20
4.0842077687
 30
0.0
 10
3.73371135
 20
4.085422429
 30
0.0
 10
3.7313837769
 20
4.087690482
 30
0.0
 10
3.7292004135
 20
4.0907632417
 30
0.0
 10
3.7271637262
 20
4.0946042298
 30
0.0
 10
3.7252896768
 20
4.0991768154
 30
0.0
 10
3.7235941264
 20
4.1044286654
 30
0.0
 10
3.7226336886
 20
4.108177261
 30
0.0
 10
3.7221801627
 20
4.1101500676
 30
0.0
  0
SPLINE
  5
315
100
AcDbEntity
  8
0
100
AcDbSpline
 62
7
  6
CONTINUOUS
 70
0
 71
3
 72
11
 73
7
 74
0
 42
0.0000001
 43
0.0000001
 44
0.0000000001
 40
0.0
 40
0.0
 40
0.0
 40
0.0
 40
0.244842098
 40
0.492653644
 40
0.7440178926
 40
1.0
 40
1.0
 40
1.0
 40
1.0
 10
3.4099090762
 20
4.1136454559
 30
0.0
 10
3.4080310036
 20
4.113645648
 30
0.0
 10
3.4042438247
 20
4.1140055143
 30
0.0
 10
3.3987243241
 20
4.1155700185
 30
0.0
 10
3.3934991046
 20
4.1181391058
 30
0.0
 10
3.3903413599
 20
4.1204509396
 30
0.0
 10
3.3888567125
 20
4.1217359466
 30
0.0
  0
SPLINE
  5
316
100
AcDbEntity
  8
0
100
AcDbSpline
 62
7
  6
CONTINUOUS
 70
0
 71
3
 72
14
 73
10
 74
0
 42
0.0000001
 43
0.0000001
 44
0.0000000001
 40
0.0
 40
0.0
 40
0.0
 40
0.0
 40
0.1195650647
 40
0.2409751125
 40
0.3642224324
 40
0.4891968807
 40
0.615749166
 40
0.7435470793
 40
1.0
 40
1.0
 40
1.0
 40
1.0
 10
3.3888567125
 20
4.1217359466
 30
0.0
 10
3.3877978755
 20
4.1226524019
 30
0.0
 10
3.3857698714
 20
4.1246258667
 30
0.0
 10
3.3830647915
 20
4.1279351969
 30
0.0
 10
3.3807021339
 20
4.131572919
 30
0.0
 10
3.3787100833
 20
4.1354931595
 30
0.0
 10
3.3771203553
 20
4.1396510342
 30
0.0
 10
3.3755648241
 20
4.1454348512
 30
0.0
 10
3.3750436518
 20
4.1499440866
 30
0.0
 10
3.3749979578
 20
4.1529473594
 30
0.0
  0
LINE
  5
317
100
AcDbEntity
  8
0
100
AcDbLine
 62
7
  6
CONTINUOUS
 10
6.0237202094
 20
4.1528603615
 11
6.0177652872
 21
4.4992559314
  0
SPLINE
  5
318
100
AcDbEntity
  8
0
100
AcDbSpline
 62
7
  6
CONTINUOUS
 70
0
 71
3
 72
16
 73
12
 74
0
 42
0.0000001
 43
0.0000001
 44
0.0000000001
 40
0.0
 40
0.0
 40
0.0
 40
0.0
 40
0.1311199492
 40
0.1964452287
 40
0.2614347386
 40
0.3899632979
 40
0.5162853091
 40
0.6401698044
 40
0.7617257852
 40
0.8814036768
 40
1.0
 40
1.0
 40
1.0
 40
1.0
 10
6.0177652872
 20
4.4992559314
 30
0.0
 10
6.0177258611
 20
4.5017682428
 30
0.0
 10
6.017345211
 20
4.5055376223
 30
0.0
 10
6.016204676
 20
4.5104205397
 30
0.0
 10
6.0146621014
 20
4.5151404898
 30
0.0
 10
6.0119998011
 20
4.5206996392
 30
0.0
 10
6.0077173951
 20
4.5266088814
 30
0.0
 10
6.0025044405
 20
4.5315281151
 30
0.0
 10
5.9965420691
 20
4.5352775512
 30
0.0
 10
5.9900443166
 20
4.5377198588
 30
0.0
 10
5.9854918583
 20
4.5384151821
 30
0.0
 10
5.9832217379
 20
4.538522028
 30
0.0
  0
SPLINE
  5
319
100
AcDbEntity
  8
0
100
AcDbSpline
 62
7
  6
CONTINUOUS
 70
0
 71
3
 72
12
 73
8
 74
0
 42
0.0000001
 43
0.0000001
 44
0.0000000001
 40
0.0
 40
0.0
 40
0.0
 40
0.0
 40
0.2728049421
 40
0.5586382151
 40
0.8139938743
 40
0.9177512077
 40
1.0
 40
1.0
 40
1.0
 40
1.0
 10
6.6440685106
 20
4.1528305936
 30
0.0
 10
6.5976711052
 20
4.1527315254
 30
0.0
 10
6.502660355
 20
4.152592958
 30
0.0
 10
6.3642197232
 20
4.1525239924
 30
0.0
 10
6.2545299638
 20
4.1525777259
 30
0.0
 10
6.1794651208
 20
4.1527054256
 30
0.0
 10
6.1478300928
 20
4.1527938733
 30
0.0
 10
6.1338416733
 20
4.1528486815
 30
0.0
  0
SPLINE
  5
31A
100
AcDbEntity
  8
0
100
AcDbSpline
 62
7
  6
CONTINUOUS
 70
0
 71
3
 72
12
 73
8
 74
0
 42
0.0000001
 43
0.0000001
 44
0.0000000001
 40
0.0
 40
0.0
 40
0.0
 40
0.0
 40
0.2728078624
 40
0.558654657
 40
0.8140112415
 40
0.917752964
 40
1.0
 40
1.0
 40
1.0
 40
1.0
 10
6.6417094872
 20
4.4992263309
 30
0.0
 10
6.595315
 20
4.4993251156
 30
0.0
 10
6.5003084531
 20
4.4994659627
 30
0.0
 10
6.3618750632
 20
4.4995424191
 30
0.0
 10
6.2521935752
 20
4.4994979158
 30
0.0
 10
6.1771370383
 20
4.499379985
 30
0.0
 10
6.1455072803
 20
4.4992965047
 30
0.0
 10
6.1315201782
 20
4.4992445793
 30
0.0
  0
SPLINE
  5
31B
100
AcDbEntity
  8
0
100
AcDbSpline
 62
7
  6
CONTINUOUS
 70
0
 71
3
 72
19
 73
15
 74
0
 42
0.0000001
 43
0.0000001
 44
0.0000000001
 40
0.0
 40
0.0
 40
0.0
 40
0.0
 40
0.1491913896
 40
0.295259171
 40
0.3660903803
 40
0.4350463538
 40
0.5663033856
 40
0.6877678528
 40
0.7447639112
 40
0.7993766705
 40
0.8518421253
 40
0.9024940054
 40
0.9517266632
 40
1.0
 40
1.0
 40
1.0
 40
1.0
 10
4.1191754791
 20
4.1524044068
 30
0.0
 10
4.1191218668
 20
4.1478905596
 30
0.0
 10
4.1184257675
 20
4.1389543524
 30
0.0
 10
4.1161079021
 20
4.1280850602
 30
0.0
 10
4.1134000823
 20
4.119862952
 30
0.0
 10
4.1102659836
 20
4.112277516
 30
0.0
 10
4.1055216941
 20
4.1037287726
 30
0.0
 10
4.0995826966
 20
4.0963985122
 30
0.0
 10
4.0943262558
 20
4.0916781152
 30
0.0
 10
4.0902754293
 20
4.0887882785
 30
0.0
 10
4.0860695071
 20
4.0865055346
 30
0.0
 10
4.0817486009
 20
4.084858058
 30
0.0
 10
4.0773638725
 20
4.083857441
 30
0.0
 10
4.0744091602
 20
4.0836294407
 30
0.0
 10
4.0729485274
 20
4.0836294268
 30
0.0
  0
LINE
  5
31C
100
AcDbEntity
  8
0
100
AcDbLine
 62
7
  6
CONTINUOUS
 10
4.1232907825
 20
4.4988003094
 11
4.1191754791
 21
4.1524044068
  0
SPLINE
  5
31D
100
AcDbEntity
  8
0
100
AcDbSpline
 62
7
  6
CONTINUOUS
 70
0
 71
3
 72
18
 73
14
 74
0
 42
0.0000001
 43
0.0000001
 44
0.0000000001
 40
0.0
 40
0.0
 40
0.0
 40
0.0
 40
0.0399420022
 40
0.081210621
 40
0.1247509991
 40
0.171315966
 40
0.2214681855
 40
0.2755231946
 40
0.39555287
 40
0.5309866697
 40
0.6794688529
 40
0.8375377636
 40
1.0
 40
1.0
 40
1.0
 40
1.0
 10
7.4288617425
 20
4.1136291538
 30
0.0
 10
7.4294927673
 20
4.1136291554
 30
0.0
 10
7.4307790809
 20
4.113761674
 30
0.0
 10
7.4326739398
 20
4.1143415476
 30
0.0
 10
7.4345298823
 20
4.1152922556
 30
0.0
 10
7.4363260314
 20
4.116603526
 30
0.0
 10
7.4380425602
 20
4.1182643802
 30
0.0
 10
7.4402879527
 20
4.1210128307
 30
0.0
 10
7.4427818008
 20
4.1252522889
 30
0.0
 10
7.4451562172
 20
4.1311945138
 30
0.0
 10
7.4469437062
 20
4.1379607486
 30
0.0
 10
7.4480603508
 20
4.1452977489
 30
0.0
 10
7.4483449153
 20
4.1503625402
 30
0.0
 10
7.4483668253
 20
4.152929111
 30
0.0
  0
SPLINE
  5
31E
100
AcDbEntity
  8
0
100
AcDbSpline
 62
7
  6
CONTINUOUS
 70
0
 71
3
 72
13
 73
9
 74
0
 42
0.0000001
 43
0.0000001
 44
0.0000000001
 40
0.0
 40
0.0
 40
0.0
 40
0.0
 40
0.1011162791
 40
0.206238182
 40
0.3185664966
 40
0.4398350305
 40
0.707995722
 40
1.0
 40
1.0
 40
1.0
 40
1.0
 10
4.1301227133
 20
4.5086253065
 30
0.0
 10
4.1296803166
 20
4.5086253589
 30
0.0
 10
4.1287732529
 20
4.5084949302
 30
0.0
 10
4.1274857746
 20
4.5079229004
 30
0.0
 10
4.1263071475
 20
4.5070031274
 30
0.0
 10
4.1248899383
 20
4.5053092138
 30
0.0
 10
4.1236506087
 20
4.5025361214
 30
0.0
 10
4.1233059777
 20
4.5000777753
 30
0.0
 10
4.1232907825
 20
4.4988003094
 30
0.0
  0
SPLINE
  5
31F
100
AcDbEntity
  8
0
100
AcDbSpline
 62
7
  6
CONTINUOUS
 70
0
 71
3
 72
16
 73
12
 74
0
 42
0.0000001
 43
0.0000001
 44
0.0000000001
 40
0.0
 40
0.0
 40
0.0
 40
0.0
 40
0.1423242343
 40
0.2128379548
 40
0.2822999345
 40
0.4171853791
 40
0.5459182607
 40
0.6679694954
 40
0.7835065336
 40
0.8936798482
 40
1.0
 40
1.0
 40
1.0
 40
1.0
 10
4.0823100709
 20
4.1529284247
 30
0.0
 10
4.0822710236
 20
4.1502698856
 30
0.0
 10
4.0818734629
 20
4.1462889799
 30
0.0
 10
4.0806987278
 20
4.1411430098
 30
0.0
 10
4.0791273477
 20
4.136248732
 30
0.0
 10
4.0764742182
 20
4.1305829564
 30
0.0
 10
4.0722964856
 20
4.1246659631
 30
0.0
 10
4.0673611819
 20
4.1198653475
 30
0.0
 10
4.0618608619
 20
4.1163197561
 30
0.0
 10
4.0560022819
 20
4.1141370506
 30
0.0
 10
4.0519436709
 20
4.113629248
 30
0.0
 10
4.0499574542
 20
4.1136291539
 30
0.0
  0
SPLINE
  5
320
100
AcDbEntity
  8
0
100
AcDbSpline
 62
7
  6
CONTINUOUS
 70
0
 71
3
 72
15
 73
11
 74
0
 42
0.0000001
 43
0.0000001
 44
0.0000000001
 40
0.0
 40
0.0
 40
0.0
 40
0.0
 40
0.1273299493
 40
0.2542842781
 40
0.3805756587
 40
0.5060001099
 40
0.6305082218
 40
0.754181788
 40
0.8772534843
 40
1.0
 40
1.0
 40
1.0
 40
1.0
 10
5.9832979446
 20
4.4987337809
 30
0.0
 10
5.9832869717
 20
4.4993829177
 30
0.0
 10
5.9831416419
 20
4.5006805545
 30
0.0
 10
5.9825620486
 20
4.5025441873
 30
0.0
 10
5.9816437018
 20
4.5042561969
 30
0.0
 10
5.9804224204
 20
4.5057510093
 30
0.0
 10
5.9789454999
 20
4.506973237
 30
0.0
 10
5.9772689312
 20
4.5078785275
 30
0.0
 10
5.9754564983
 20
4.5084343094
 30
0.0
 10
5.9741995987
 20
4.5085593856
 30
0.0
 10
5.9735737392
 20
4.5085593702
 30
0.0
  0
LINE
  5
321
100
AcDbEntity
  8
0
100
AcDbLine
 62
7
  6
CONTINUOUS
 10
6.6245258994
 20
4.1135304759
 11
6.6270428063
 21
4.1138687168
  0
SPLINE
  5
322
100
AcDbEntity
  8
0
100
AcDbSpline
 62
7
  6
CONTINUOUS
 70
0
 71
3
 72
15
 73
11
 74
0
 42
0.0000001
 43
0.0000001
 44
0.0000000001
 40
0.0
 40
0.0
 40
0.0
 40
0.0
 40
0.0830391591
 40
0.1771417047
 40
0.2850280322
 40
0.4071199734
 40
0.5423432713
 40
0.6884917809
 40
0.8425060624
 40
1.0
 40
1.0
 40
1.0
 40
1.0
 10
6.6270428063
 20
4.1138687168
 30
0.0
 10
6.6282413793
 20
4.1141905125
 30
0.0
 10
6.6306816728
 20
4.1153463458
 30
0.0
 10
6.6338934172
 20
4.1182040744
 30
0.0
 10
6.636773997
 20
4.1221317103
 30
0.0
 10
6.6392643502
 20
4.1270088023
 30
0.0
 10
6.6412980388
 20
4.1326998598
 30
0.0
 10
6.6428181848
 20
4.1390382041
 30
0.0
 10
6.6437672131
 20
4.1458208241
 30
0.0
 10
6.6440108903
 20
4.150476773
 30
0.0
 10
6.6440309827
 20
4.1528304331
 30
0.0
  0
SPLINE
  5
323
100
AcDbEntity
  8
0
100
AcDbSpline
 62
7
  6
CONTINUOUS
 70
0
 71
3
 72
19
 73
15
 74
0
 42
0.0000001
 43
0.0000001
 44
0.0000000001
 40
0.0
 40
0.0
 40
0.0
 40
0.0
 40
0.0281768279
 40
0.0588540507
 40
0.09368
 40
0.1336534568
 40
0.179323881
 40
0.2309563841
 40
0.2885061387
 40
0.3517029855
 40
0.4935070619
 40
0.6528858047
 40
0.8240996014
 40
1.0
 40
1.0
 40
1.0
 40
1.0
 10
6.0658119229
 20
4.113557051
 30
0.0
 10
6.0655009149
 20
4.1135570981
 30
0.0
 10
6.0648479996
 20
4.1134469428
 30
0.0
 10
6.0639114429
 20
4.1129839085
 30
0.0
 10
6.0630032102
 20
4.1122436993
 30
0.0
 10
6.0621268343
 20
4.1112372997
 30
0.0
 10
6.0612875567
 20
4.1099716739
 30
0.0
 10
6.0604953044
 20
4.1084544211
 30
0.0
 10
6.0597553603
 20
4.1066996691
 30
0.0
 10
6.0588087606
 20
4.1039589177
 30
0.0
 10
6.05782254
 20
4.1000522448
 30
0.0
 10
6.0569783887
 20
4.0949022125
 30
0.0
 10
6.0564563687
 20
4.0893323258
 30
0.0
 10
6.0563343973
 20
4.0855000252
 30
0.0
 10
6.0563343547
 20
4.0835584854
 30
0.0
  0
LINE
  5
324
100
AcDbEntity
  8
0
100
AcDbLine
 62
7
  6
CONTINUOUS
 10
6.0237202213
 20
4.152859671
 11
5.9891568279
 21
4.1523375216
  0
LINE
  5
325
100
AcDbEntity
  8
0
100
AcDbLine
 62
7
  6
CONTINUOUS
 10
6.0177652134
 20
4.4992559299
 11
5.9832979447
 21
4.4987337809
  0
SPLINE
  5
326
100
AcDbEntity
  8
0
100
AcDbSpline
 62
7
  6
CONTINUOUS
 70
0
 71
3
 72
19
 73
15
 74
0
 42
0.0000001
 43
0.0000001
 44
0.0000000001
 40
0.0
 40
0.0
 40
0.0
 40
0.0
 40
0.0247604749
 40
0.0524760011
 40
0.0849996744
 40
0.1233400126
 40
0.1679887804
 40
0.2191418925
 40
0.2766775029
 40
0.3402548208
 40
0.4837947013
 40
0.6458966784
 40
0.8204632818
 40
1.0
 40
1.0
 40
1.0
 40
1.0
 10
5.9816962618
 20
4.5385579503
 30
0.0
 10
5.9814285334
 20
4.5385579971
 30
0.0
 10
5.9808578515
 20
4.538443704
 30
0.0
 10
5.9800544533
 20
4.5379744857
 30
0.0
 10
5.9792792354
 20
4.5372329493
 30
0.0
 10
5.9785313146
 20
4.5362274509
 30
0.0
 10
5.9778143102
 20
4.534963414
 30
0.0
 10
5.9771369591
 20
4.5334479775
 30
0.0
 10
5.9765038359
 20
4.5316948038
 30
0.0
 10
5.9756916776
 20
4.528949526
 30
0.0
 10
5.9748474048
 20
4.5250419009
 30
0.0
 10
5.9741250807
 20
4.5198966369
 30
0.0
 10
5.9736782167
 20
4.5143301727
 30
0.0
 10
5.9735737853
 20
4.5105006527
 30
0.0
 10
5.9735737392
 20
4.5085593702
 30
0.0
  0
SPLINE
  5
327
100
AcDbEntity
  8
0
100
AcDbSpline
 62
7
  6
CONTINUOUS
 70
0
 71
3
 72
19
 73
15
 74
0
 42
0.0000001
 43
0.0000001
 44
0.0000000001
 40
0.0
 40
0.0
 40
0.0
 40
0.0
 40
0.1051654796
 40
0.1592561919
 40
0.214593323
 40
0.2713610244
 40
0.3297265564
 40
0.4516350787
 40
0.5154167355
 40
0.5809938867
 40
0.6482948846
 40
0.7171419506
 40
0.8578898656
 40
1.0
 40
1.0
 40
1.0
 40
1.0
 10
4.1080659557
 20
4.5386249661
 30
0.0
 10
4.1095059176
 20
4.5386249883
 30
0.0
 10
4.1116983431
 20
4.5383151768
 30
0.0
 10
4.1144822974
 20
4.5373615526
 30
0.0
 10
4.1165352678
 20
4.5363660701
 30
0.0
 10
4.118505916
 20
4.5351053481
 30
0.0
 10
4.1210266032
 20
4.5330514608
 30
0.0
 10
4.1232579931
 20
4.5305280504
 30
0.0
 10
4.1251638072
 20
4.5276603537
 30
0.0
 10
4.1264519659
 20
4.5252914316
 30
0.0
 10
4.1275609116
 20
4.5227582251
 30
0.0
 10
4.1287942344
 20
4.5191693367
 30
0.0
 10
4.1298339677
 20
4.5144488976
 30
0.0
 10
4.1301227596
 20
4.5105711272
 30
0.0
 10
4.1301227133
 20
4.5086253065
 30
0.0
  0
LINE
  5
328
100
AcDbEntity
  8
0
100
AcDbLine
 62
7
  6
CONTINUOUS
 10
4.0864926585
 20
4.4993250089
 11
4.1232907825
 21
4.4988003094
  0
LINE
  5
329
100
AcDbEntity
  8
0
100
AcDbLine
 62
7
  6
CONTINUOUS
 10
4.0823102059
 20
4.1529291079
 11
4.1191755516
 21
4.1524044068
  0
SPLINE
  5
32A
100
AcDbEntity
  8
0
100
AcDbSpline
 62
7
  6
CONTINUOUS
 70
0
 71
3
 72
16
 73
12
 74
0
 42
0.0000001
 43
0.0000001
 44
0.0000000001
 40
0.0
 40
0.0
 40
0.0
 40
0.0
 40
0.1078168319
 40
0.2192282484
 40
0.2767933336
 40
0.3357175617
 40
0.4579934796
 40
0.5866445398
 40
0.7212965886
 40
0.8601027747
 40
1.0
 40
1.0
 40
1.0
 40
1.0
 10
4.0499559319
 20
4.1136291538
 30
0.0
 10
4.0514558989
 20
4.1136291716
 30
0.0
 10
4.0545170797
 20
4.1132161976
 30
0.0
 10
4.0581266073
 20
4.1117734945
 30
0.0
 10
4.060834193
 20
4.1101127016
 30
0.0
 10
4.0634569254
 20
4.108063786
 30
0.0
 10
4.0664026264
 20
4.1048730942
 30
0.0
 10
4.069256249
 20
4.1002977554
 30
0.0
 10
4.0713551612
 20
4.0950835701
 30
0.0
 10
4.0726464795
 20
4.089458777
 30
0.0
 10
4.0729485736
 20
4.0855757019
 30
0.0
 10
4.0729485274
 20
4.0836294268
 30
0.0
  0
SPLINE
  5
32B
100
AcDbEntity
  8
0
100
AcDbSpline
 62
7
  6
CONTINUOUS
 70
0
 71
3
 72
18
 73
14
 74
0
 42
0.0000001
 43
0.0000001
 44
0.0000000001
 40
0.0
 40
0.0
 40
0.0
 40
0.0
 40
0.0399420022
 40
0.0812106213
 40
0.1247509997
 40
0.1713159669
 40
0.2214681869
 40
0.2755231964
 40
0.3955528728
 40
0.5309866733
 40
0.6794688559
 40
0.8375377651
 40
1.0
 40
1.0
 40
1.0
 40
1.0
 10
6.6476486801
 20
4.1135304759
 30
0.0
 10
6.648279705
 20
4.1135304774
 30
0.0
 10
6.6495660185
 20
4.113662996
 30
0.0
 10
6.6514608775
 20
4.1142428696
 30
0.0
 10
6.65331682
 20
4.1151935777
 30
0.0
 10
6.6551129691
 20
4.1165048481
 30
0.0
 10
6.656829498
 20
4.1181657022
 30
0.0
 10
6.6590748905
 20
4.1209141528
 30
0.0
 10
6.6615687387
 20
4.125153611
 30
0.0
 10
6.6639431554
 20
4.1310958358
 30
0.0
 10
6.6657306445
 20
4.1378620707
 30
0.0
 10
6.6668472889
 20
4.145199071
 30
0.0
 10
6.6671318531
 20
4.1502638622
 30
0.0
 10
6.6671537629
 20
4.1528304331
 30
0.0
  0
LINE
  5
32C
100
AcDbEntity
  8
0
100
AcDbLine
 62
7
  6
CONTINUOUS
 10
5.9891568279
 20
4.1523375216
 11
5.9832979446
 21
4.4987337809
  0
SPLINE
  5
32D
100
AcDbEntity
  8
0
100
AcDbSpline
 62
7
  6
CONTINUOUS
 70
0
 71
3
 72
16
 73
12
 74
0
 42
0.0000001
 43
0.0000001
 44
0.0000000001
 40
0.0
 40
0.0
 40
0.0
 40
0.0
 40
0.123668018
 40
0.247929597
 40
0.3724528807
 40
0.4973862241
 40
0.6226480135
 40
0.7481867324
 40
0.811158829
 40
0.874240659
 40
1.0
 40
1.0
 40
1.0
 40
1.0
 10
6.0658083002
 20
4.1135570513
 30
0.0
 10
6.0631856738
 20
4.1135573537
 30
0.0
 10
6.0579160903
 20
4.114045798
 30
0.0
 10
6.0502700999
 20
4.1161849903
 30
0.0
 10
6.0431102144
 20
4.1196871479
 30
0.0
 10
6.036698371
 20
4.1244594472
 30
0.0
 10
6.0312813106
 20
4.1303691213
 30
0.0
 10
6.0278130141
 20
4.1361055945
 30
0.0
 10
6.025782641
 20
4.1410494655
 30
0.0
 10
6.0242843733
 20
4.1461822772
 30
0.0
 10
6.0237699976
 20
4.1501938495
 30
0.0
 10
6.0237201877
 20
4.1528603615
 30
0.0
  0
SPLINE
  5
32E
100
AcDbEntity
  8
0
100
AcDbSpline
 62
7
  6
CONTINUOUS
 70
0
 71
3
 72
15
 73
11
 74
0
 42
0.0000001
 43
0.0000001
 44
0.0000000001
 40
0.0
 40
0.0
 40
0.0
 40
0.0
 40
0.1164261903
 40
0.234608545
 40
0.3550465027
 40
0.4784340267
 40
0.6050882012
 40
0.7348389838
 40
0.8670447204
 40
1.0
 40
1.0
 40
1.0
 40
1.0
 10
6.1687527917
 20
4.113546778
 30
0.0
 10
6.1664974439
 20
4.1135470086
 30
0.0
 10
6.1619386209
 20
4.1140669484
 30
0.0
 10
6.1553848262
 20
4.1163173837
 30
0.0
 10
6.1493503692
 20
4.11999155
 30
0.0
 10
6.1440602258
 20
4.1249098346
 30
0.0
 10
6.1397106152
 20
4.130896867
 30
0.0
 10
6.1364425355
 20
4.137724047
 30
0.0
 10
6.1344017865
 20
4.1451345391
 30
0.0
 10
6.1338808548
 20
4.1502734388
 30
0.0
 10
6.1338416733
 20
4.1528486815
 30
0.0
  0
SPLINE
  5
32F
100
AcDbEntity
  8
0
100
AcDbSpline
 62
7
  6
CONTINUOUS
 70
0
 71
3
 72
17
 73
13
 74
0
 42
0.0000001
 43
0.0000001
 44
0.0000000001
 40
0.0
 40
0.0
 40
0.0
 40
0.0
 40
0.1215125531
 40
0.1827297034
 40
0.2441360314
 40
0.367502046
 40
0.4920578703
 40
0.6177682771
 40
0.7444726811
 40
0.8082469066
 40
0.8722155337
 40
1.0
 40
1.0
 40
1.0
 40
1.0
 10
6.0563343547
 20
4.0835584854
 30
0.0
 10
6.0520280218
 20
4.0835586635
 30
0.0
 10
6.0455288971
 20
4.0842341719
 30
0.0
 10
6.0371430552
 20
4.086404462
 30
0.0
 10
6.0289530332
 20
4.0894303691
 30
0.0
 10
6.0192818025
 20
4.0947542578
 30
0.0
 10
6.0090859222
 20
4.1033296476
 30
0.0
 10
6.0006325385
 20
4.1137781206
 30
0.0
 10
5.9953340316
 20
4.1237347974
 30
0.0
 10
5.9922608934
 20
4.1322254109
 30
0.0
 10
5.9900000241
 20
4.1410042859
 30
0.0
 10
5.9892336986
 20
4.1478095682
 30
0.0
 10
5.9891568279
 20
4.1523375216
 30
0.0
  0
SPLINE
  5
330
100
AcDbEntity
  8
0
100
AcDbSpline
 62
7
  6
CONTINUOUS
 70
0
 71
3
 72
18
 73
14
 74
0
 42
0.0000001
 43
0.0000001
 44
0.0000000001
 40
0.0
 40
0.0
 40
0.0
 40
0.0
 40
0.0399420058
 40
0.0812106365
 40
0.124751032
 40
0.171316016
 40
0.2214682503
 40
0.2755232748
 40
0.3955529705
 40
0.5309867669
 40
0.6794689187
 40
0.8375377819
 40
1.0
 40
1.0
 40
1.0
 40
1.0
 10
3.9023708545
 20
4.5386249661
 30
0.0
 10
3.9017398295
 20
4.5386249646
 30
0.0
 10
3.9004535158
 20
4.5384924457
 30
0.0
 10
3.8985586565
 20
4.5379125714
 30
0.0
 10
3.8967027135
 20
4.5369618628
 30
0.0
 10
3.8949065636
 20
4.5356505922
 30
0.0
 10
3.8931900342
 20
4.5339897376
 30
0.0
 10
3.8909446418
 20
4.5312412859
 30
0.0
 10
3.888450794
 20
4.5270018269
 30
0.0
 10
3.8860763781
 20
4.5210596021
 30
0.0
 10
3.8842888897
 20
4.5142933685
 30
0.0
 10
3.8831722453
 20
4.5069563697
 30
0.0
 10
3.8828876815
 20
4.5018915795
 30
0.0
 10
3.8828657717
 20
4.4993250089
 30
0.0
  0
SPLINE
  5
331
100
AcDbEntity
  8
0
100
AcDbSpline
 62
7
  6
CONTINUOUS
 70
0
 71
3
 72
16
 73
12
 74
0
 42
0.0000001
 43
0.0000001
 44
0.0000000001
 40
0.0
 40
0.0
 40
0.0
 40
0.0
 40
0.0430332364
 40
0.0874476811
 40
0.1829326887
 40
0.2906087638
 40
0.4117746928
 40
0.5457787678
 40
0.6905624818
 40
0.8431769563
 40
1.0
 40
1.0
 40
1.0
 40
1.0
 10
4.1068263763
 20
4.5385590462
 30
0.0
 10
4.1061493965
 20
4.5384869705
 30
0.0
 10
4.1047838243
 20
4.5382203103
 30
0.0
 10
4.1020629953
 20
4.5372021059
 30
0.0
 10
4.0987660913
 20
4.5349862404
 30
0.0
 10
4.0952943989
 20
4.5311597408
 30
0.0
 10
4.0922806455
 20
4.5262423228
 30
0.0
 10
4.0898135774
 20
4.5203944862
 30
0.0
 10
4.0879680663
 20
4.5138072242
 30
0.0
 10
4.086806995
 20
4.5067025835
 30
0.0
 10
4.0865159938
 20
4.5018059128
 30
0.0
 10
4.0864926585
 20
4.4993250089
 30
0.0
  0
SPLINE
  5
332
100
AcDbEntity
  8
0
100
AcDbSpline
 62
7
  6
CONTINUOUS
 70
0
 71
3
 72
11
 73
7
 74
0
 42
0.0000001
 43
0.0000001
 44
0.0000000001
 40
0.0
 40
0.0
 40
0.0
 40
0.0
 40
0.2448419576
 40
0.4926534687
 40
0.7440177623
 40
1.0
 40
1.0
 40
1.0
 40
1.0
 10
3.3189502984
 20
4.5386470384
 30
0.0
 10
3.3208284024
 20
4.5386468463
 30
0.0
 10
3.3246156459
 20
4.5382869673
 30
0.0
 10
3.3301352349
 20
4.5367224105
 30
0.0
 10
3.3353605278
 20
4.5341532392
 30
0.0
 10
3.3385183054
 20
4.5318413322
 30
0.0
 10
3.3400029649
 20
4.5305562857
 30
0.0
  0
SPLINE
  5
333
100
AcDbEntity
  8
0
100
AcDbSpline
 62
7
  6
CONTINUOUS
 70
0
 71
3
 72
14
 73
10
 74
0
 42
0.0000001
 43
0.0000001
 44
0.0000000001
 40
0.0
 40
0.0
 40
0.0
 40
0.0
 40
0.1195651739
 40
0.240975302
 40
0.364222667
 40
0.4891971215
 40
0.6157493716
 40
0.7435472189
 40
1.0
 40
1.0
 40
1.0
 40
1.0
 10
3.3400029649
 20
4.5305562857
 30
0.0
 10
3.3410617806
 20
4.5296398281
 30
0.0
 10
3.3430897427
 20
4.5276663634
 30
0.0
 10
3.3457947648
 20
4.5243570454
 30
0.0
 10
3.3481573703
 20
4.5207193467
 30
0.0
 10
3.3501493759
 20
4.5167991394
 30
0.0
 10
3.3517390676
 20
4.5126413064
 30
0.0
 10
3.3532945631
 20
4.5068575534
 30
0.0
 10
3.3538157234
 20
4.502348372
 30
0.0
 10
3.3538614168
 20
4.4993451349
 30
0.0
  0
SPLINE
  5
334
100
AcDbEntity
  8
0
100
AcDbSpline
 62
7
  6
CONTINUOUS
 70
0
 71
3
 72
15
 73
11
 74
0
 42
0.0000001
 43
0.0000001
 44
0.0000000001
 40
0.0
 40
0.0
 40
0.0
 40
0.0
 40
0.1164261904
 40
0.2346085448
 40
0.3550465021
 40
0.4784340254
 40
0.6050881993
 40
0.734838982
 40
0.8670447195
 40
1.0
 40
1.0
 40
1.0
 40
1.0
 10
3.3377653444
 20
4.5386451608
 30
0.0
 10
3.3400206921
 20
4.5386449301
 30
0.0
 10
3.3445795152
 20
4.5381249903
 30
0.0
 10
3.3511333098
 20
4.535874555
 30
0.0
 10
3.3571677667
 20
4.5322003887
 30
0.0
 10
3.3624579101
 20
4.5272821042
 30
0.0
 10
3.3668075205
 20
4.5212950717
 30
0.0
 10
3.3700756002
 20
4.5144678917
 30
0.0
 10
3.3721163493
 20
4.5070573996
 30
0.0
 10
3.3726372812
 20
4.5019184999
 30
0.0
 10
3.3726764628
 20
4.4993432572
 30
0.0
  0
LINE
  5
335
100
AcDbEntity
  8
0
100
AcDbLine
 62
7
  6
CONTINUOUS
 10
7.6404480908
 20
4.1526867624
 11
7.4483668253
 21
4.152929111
  0
LINE
  5
336
100
AcDbEntity
  8
0
100
AcDbLine
 62
7
  6
CONTINUOUS
 10
6.8592350284
 20
4.1525880844
 11
6.6671537629
 21
4.1528304331
  0
SPLINE
  5
337
100
AcDbEntity
  8
0
100
AcDbSpline
 62
7
  6
CONTINUOUS
 70
0
 71
3
 72
13
 73
9
 74
0
 42
0.0000001
 43
0.0000001
 44
0.0000000001
 40
0.0
 40
0.0
 40
0.0
 40
0.0
 40
0.2677243559
 40
0.5207509243
 40
0.6430520096
 40
0.7632786433
 40
0.8820540581
 40
1.0
 40
1.0
 40
1.0
 40
1.0
 10
6.6938240669
 20
4.1063847386
 30
0.0
 10
6.6914335551
 20
4.1029087399
 30
0.0
 10
6.6861278572
 20
4.0965624083
 30
0.0
 10
6.6779962253
 20
4.0903502076
 30
0.0
 10
6.6710014642
 20
4.0868366638
 30
0.0
 10
6.6656098025
 20
4.0849560666
 30
0.0
 10
6.6600859163
 20
4.0838160745
 30
0.0
 10
6.6563509911
 20
4.0835586381
 30
0.0
 10
6.6544924597
 20
4.0835584854
 30
0.0
  0
LINE
  5
338
100
AcDbEntity
  8
0
100
AcDbLine
 62
7
  6
CONTINUOUS
 10
6.8674834047
 20
4.4994873707
 11
6.675389351
 21
4.4992263309
  0
SPLINE
  5
339
100
AcDbEntity
  8
0
100
AcDbSpline
 62
7
  6
CONTINUOUS
 70
0
 71
3
 72
17
 73
13
 74
0
 42
0.0000001
 43
0.0000001
 44
0.0000000001
 40
0.0
 40
0.0
 40
0.0
 40
0.0
 40
0.1211481768
 40
0.2437104679
 40
0.3054163734
 40
0.3672935622
 40
0.4916237039
 40
0.6172351916
 40
0.6806747833
 40
0.7444845442
 40
0.8724997084
 40
1.0
 40
1.0
 40
1.0
 40
1.0
 10
3.7104976243
 20
4.1136624873
 30
0.0
 10
3.7123426672
 20
4.1136503324
 30
0.0
 10
3.7160608996
 20
4.1132271744
 30
0.0
 10
3.7205148198
 20
4.1117801344
 30
0.0
 10
3.7238732342
 20
4.1101015679
 30
0.0
 10
3.7270651065
 20
4.1080736001
 30
0.0
 10
3.7306671163
 20
4.1049280682
 30
0.0
 10
3.7336062447
 20
4.1011275621
 30
0.0
 10
3.7354990175
 20
4.097767672
 30
0.0
 10
3.7370741525
 20
4.0942075841
 30
0.0
 10
3.7384156748
 20
4.0895040283
 30
0.0
 10
3.7387912754
 20
4.0856045992
 30
0.0
 10
3.7387912304
 20
4.0836627738
 30
0.0
  0
SPLINE
  5
33A
100
AcDbEntity
  8
0
100
AcDbSpline
 62
7
  6
CONTINUOUS
 70
0
 71
3
 72
18
 73
14
 74
0
 42
0.0000001
 43
0.0000001
 44
0.0000000001
 40
0.0
 40
0.0
 40
0.0
 40
0.0
 40
0.0399420056
 40
0.0812106357
 40
0.1247510303
 40
0.1713160133
 40
0.2214682465
 40
0.2755232699
 40
0.3955529639
 40
0.5309867603
 40
0.6794689142
 40
0.8375377807
 40
1.0
 40
1.0
 40
1.0
 40
1.0
 10
6.66121457
 20
4.5385262882
 30
0.0
 10
6.660583545
 20
4.5385262866
 30
0.0
 10
6.6592972313
 20
4.5383937678
 30
0.0
 10
6.657402372
 20
4.5378138936
 30
0.0
 10
6.6555464291
 20
4.5368631849
 30
0.0
 10
6.6537502792
 20
4.5355519143
 30
0.0
 10
6.6520337498
 20
4.5338910598
 30
0.0
 10
6.6497883574
 20
4.5311426082
 30
0.0
 10
6.6472945096
 20
4.5269031493
 30
0.0
 10
6.6449200937
 20
4.5209609244
 30
0.0
 10
6.6431326052
 20
4.5141946907
 30
0.0
 10
6.6420159609
 20
4.5068576918
 30
0.0
 10
6.641731397
 20
4.5017929016
 30
0.0
 10
6.6417094872
 20
4.4992263309
 30
0.0
  0
SPLINE
  5
33B
100
AcDbEntity
  8
0
100
AcDbSpline
 62
7
  6
CONTINUOUS
 70
0
 71
3
 72
18
 73
14
 74
0
 42
0.0000001
 43
0.0000001
 44
0.0000000001
 40
0.0
 40
0.0
 40
0.0
 40
0.0
 40
0.0399420022
 40
0.0812106213
 40
0.1247509997
 40
0.1713159669
 40
0.2214681869
 40
0.2755231964
 40
0.3955528728
 40
0.5309866733
 40
0.6794688559
 40
0.8375377651
 40
1.0
 40
1.0
 40
1.0
 40
1.0
 10
6.6948944338
 20
4.5385262882
 30
0.0
 10
6.6942634089
 20
4.5385262866
 30
0.0
 10
6.6929770954
 20
4.538393768
 30
0.0
 10
6.6910822364
 20
4.5378138944
 30
0.0
 10
6.6892262939
 20
4.5368631864
 30
0.0
 10
6.6874301448
 20
4.535551916
 30
0.0
 10
6.6857136159
 20
4.5338910618
 30
0.0
 10
6.6834682234
 20
4.5311426113
 30
0.0
 10
6.6809743751
 20
4.526903153
 30
0.0
 10
6.6785999585
 20
4.5209609282
 30
0.0
 10
6.6768124694
 20
4.5141946934
 30
0.0
 10
6.675695825
 20
4.506857693
 30
0.0
 10
6.6754112608
 20
4.5017929018
 30
0.0
 10
6.675389351
 20
4.4992263309
 30
0.0
  0
SPLINE
  5
33C
100
AcDbEntity
  8
0
100
AcDbSpline
 62
7
  6
CONTINUOUS
 70
0
 71
3
 72
15
 73
11
 74
0
 42
0.0000001
 43
0.0000001
 44
0.0000000001
 40
0.0
 40
0.0
 40
0.0
 40
0.0
 40
0.1164261906
 40
0.2346085451
 40
0.3550465022
 40
0.4784340253
 40
0.605088199
 40
0.7348389816
 40
0.8670447193
 40
1.0
 40
1.0
 40
1.0
 40
1.0
 10
6.0966090599
 20
4.5385464829
 30
0.0
 10
6.0988644076
 20
4.5385462522
 30
0.0
 10
6.1034232307
 20
4.5380263124
 30
0.0
 10
6.1099770253
 20
4.5357758771
 30
0.0
 10
6.1160114822
 20
4.5321017108
 30
0.0
 10
6.1213016255
 20
4.5271834262
 30
0.0
 10
6.1256512359
 20
4.5211963938
 30
0.0
 10
6.1289193156
 20
4.5143692138
 30
0.0
 10
6.1309600646
 20
4.5069587217
 30
0.0
 10
6.1314809965
 20
4.501819822
 30
0.0
 10
6.1315201781
 20
4.4992445793
 30
0.0
  0
LINE
  5
33D
100
AcDbEntity
  8
0
100
AcDbLine
 62
7
  6
CONTINUOUS
 10
7.6486964671
 20
4.4995860486
 11
7.4566024134
 21
4.4993250089
  0
SPLINE
  5
33E
100
AcDbEntity
  8
0
100
AcDbSpline
 62
7
  6
CONTINUOUS
 70
0
 71
3
 72
17
 73
13
 74
0
 42
0.0000001
 43
0.0000001
 44
0.0000000001
 40
0.0
 40
0.0
 40
0.0
 40
0.0
 40
0.0400041809
 40
0.0817507562
 40
0.1732085445
 40
0.224205032
 40
0.2789860028
 40
0.3999281385
 40
0.5353673398
 40
0.6829850481
 40
0.8394857236
 40
1.0
 40
1.0
 40
1.0
 40
1.0
 10
7.4751001541
 20
4.5385705854
 30
0.0
 10
7.4744852462
 20
4.5385043292
 30
0.0
 10
7.4732391784
 20
4.5382453429
 30
0.0
 10
7.4707462321
 20
4.5372366795
 30
0.0
 10
7.4684140286
 20
4.5355205364
 30
0.0
 10
7.466323624
 20
4.5332971673
 30
0.0
 10
7.4642019828
 20
4.530498881
 30
0.0
 10
7.4618540628
 20
4.5262731021
 30
0.0
 10
7.4596181752
 20
4.5204246217
 30
0.0
 10
7.457939553
 20
4.5138253213
 30
0.0
 10
7.4568915004
 20
4.506708245
 30
0.0
 10
7.4566235964
 20
4.5018064793
 30
0.0
 10
7.456602413
 20
4.4993250089
 30
0.0
  0
SPLINE
  5
33F
100
AcDbEntity
  8
0
100
AcDbSpline
 62
7
  6
CONTINUOUS
 70
0
 71
3
 72
9
 73
5
 74
0
 42
0.0000001
 43
0.0000001
 44
0.0000000001
 40
0.0
 40
0.0
 40
0.0
 40
0.0
 40
0.2475238096
 40
1.0
 40
1.0
 40
1.0
 40
1.0
 10
6.6736598043
 20
4.1135566117
 30
0.0
 10
6.6733891185
 20
4.113554277
 30
0.0
 10
6.6722960551
 20
4.1135074183
 30
0.0
 10
6.6712104558
 20
4.1133113462
 30
0.0
 10
6.6704176301
 20
4.113090838
 30
0.0
  0
SPLINE
  5
340
100
AcDbEntity
  8
0
100
AcDbSpline
 62
7
  6
CONTINUOUS
 70
0
 71
3
 72
15
 73
11
 74
0
 42
0.0000001
 43
0.0000001
 44
0.0000000001
 40
0.0
 40
0.0
 40
0.0
 40
0.0
 40
0.0985493319
 40
0.2040044446
 40
0.3179063618
 40
0.4408062102
 40
0.5723006779
 40
0.7112239883
 40
0.8548883716
 40
1.0
 40
1.0
 40
1.0
 40
1.0
 10
6.6704176301
 20
4.113090838
 30
0.0
 10
6.6692870731
 20
4.1127763968
 30
0.0
 10
6.6670261092
 20
4.1118130869
 30
0.0
 10
6.6639501287
 20
4.1095591201
 30
0.0
 10
6.6612035298
 20
4.1065154485
 30
0.0
 10
6.6588469167
 20
4.1027962948
 30
0.0
 10
6.6569394847
 20
4.0985021371
 30
0.0
 10
6.6555491737
 20
4.0937581595
 30
0.0
 10
6.6546915491
 20
4.0887279052
 30
0.0
 10
6.6544925007
 20
4.0852863934
 30
0.0
 10
6.6544924597
 20
4.0835584854
 30
0.0
  0
ENDSEC
  0
SECTION
  2
OBJECTS
  0
DICTIONARY
  5
C
100
AcDbDictionary
280
0
281
1
  3
ACAD_GROUP
350
D
  3
ACAD_MLINESTYLE
350
17
  3
ACAD_LAYOUT
350
1A
  3
ACAD_PLOTSETTINGS
350
19
  3
ACAD_PLOTSTYLENAME
350
E
  0
DICTIONARY
  5
D
102
{ACAD_REACTORS
330
C
102
}
100
AcDbDictionary
280
0
281
1
  0
ACDBDICTIONARYWDFLT
  5
E
102
{ACAD_REACTORS
330
C
102
}
100
AcDbDictionary
281
1
  3
Normal
350
F
100
AcDbDictionaryWithDefault
340
F
  0
DICTIONARY
  5
17
102
{ACAD_REACTORS
330
C
102
}
100
AcDbDictionary
280
0
281
1
  3
Standard
350
18
  0
DICTIONARY
  5
19
102
{ACAD_REACTORS
330
C
102
}
100
AcDbDictionary
281
1
  0
DICTIONARY
  5
1A
102
{ACAD_REACTORS
330
C
102
}
100
AcDbDictionary
281
1
  3
Model
350
341
  3
Layout1
350
342
  0
ACDBPLACEHOLDER
  5
F
102
{ACAD_REACTORS
330
E
102
}
  0
MLINESTYLE
  5
18
102
{ACAD_REACTORS
330
17
102
}
100
AcDbMlineStyle
  2
STANDARD
 70
0
  3

 62
256
 51
90.0
 52
90.0
 71
2
 49
0.5
 62
256
  6
BYLAYER
 49
-0.5
 62
256
  6
BYLAYER
  0
LAYOUT
  5
341
102
{ACAD_REACTORS
330
1A
102
}
100
AcDbPlotSettings
  1

  2
none_device
  4
ANSI_A_(11.00_x_8.50_Inches)
  6

 40
0.0
 41
0.0
 42
0.0
 43
0.0
 44
279.4
 45
215.9
 46
0.0
 47
0.0
 48
0.0
 49
0.0
140
0.0
141
0.0
142
1.0
143
1.0
 70
1024
 72
0
 73
0
 74
0
  7

 75
0
147
1.0
148
0.0
149
0.0
100
AcDbLayout
  1
Model
 70
0
 71
0
 10
0.0
 20
0.0
 11
11.0
 21
8.5
 12
0.0
 22
0.0
 32
0.0
 14
0.0
 24
0.0
 34
0.0
 15
0.0
 25
0.0
 35
0.0
146
0.0
 13
0.0
 23
0.0
 33
0.0
 16
1.0
 26
0.0
 36
0.0
 17
0.0
 27
1.0
 37
0.0
 76
0
330
208
345
0
346
0
  0
LAYOUT
  5
342
102
{ACAD_REACTORS
330
1A
102
}
100
AcDbPlotSettings
  1

  2
none_device
  4
ANSI_A_(11.00_x_8.50_Inches)
  6

 40
0.0
 41
0.0
 42
0.0
 43
0.0
 44
279.4
 45
215.9
 46
0.0
 47
0.0
 48
0.0
 49
0.0
140
0.0
141
0.0
142
1.0
143
1.0
 70
0
 72
0
 73
0
 74
0
  7

 75
0
147
1.0
148
0.0
149
0.0
100
AcDbLayout
  1
Layout1
 70
0
 71
1
 10
0.0
 20
0.0
 11
11.0
 21
8.5
 12
0.0
 22
0.0
 32
0.0
 14
0.0
 24
0.0
 34
0.0
 15
0.0
 25
0.0
 35
0.0
146
0.0
 13
0.0
 23
0.0
 33
0.0
 16
1.0
 26
0.0
 36
0.0
 17
0.0
 27
1.0
 37
0.0
 76
0
330
209
345
0
346
0
  0
ENDSEC
  0
EOF
