999
DXF file: 278p-01_right.dxf
999
Pro/ENGINEER 2013150 by Parametric Technology Corporation
  0
SECTION
  2
HEADER
  9
$ACADVER
  1
AC1021
  9
$DWGCODEPAGE
  3
ANSI_1252
  9
$EXTMAX
 10
11.0
 20
8.5
 30
0.0
  9
$EXTMIN
 10
0.0
 20
0.0
 30
0.0
  9
$LIMMIN
 10
0.0
 20
0.0
  9
$LIMMAX
 10
11.0
 20
8.5
  9
$VIEWCTR
 10
5.5
 20
4.25
  9
$VIEWSIZE
 40
8.5
  9
$CLAYER
  8
0
  9
$LTSCALE
 40
0.605
  9
$CELTYPE
  6
BYLAYER
  9
$DIMSCALE
 40
1.0
  9
$DIMASZ
 40
0.1
  9
$DIMEXO
 40
0.0625
  9
$DIMDLI
 40
0.418
  9
$DIMEXE
 40
0.125
  9
$DIMCEN
 40
0.099
  9
$DIMLFAC
 40
1.0
  9
$DIMBLK
  1
_FILLED
  9
$DIMTXT
 40
0.08
  9
$DIMTOL
 70
1
  9
$DIMLIM
 70
0
  9
$DIMTFAC
 40
1.0
  9
$DIMTP
 40
0.001
  9
$DIMTM
 40
0.001
  9
$DIMGAP
 40
0.09
  9
$DIMDSEP
 70
46
  9
$PDMODE
 70
3
  9
$PDSIZE
 40
0.06
  9
$HANDSEED
  5
331
  9
$TILEMODE
 70
1
  9
$MEASUREMENT
 70
0
  9
$INSUNITS
 70
1
  0
ENDSEC
  0
SECTION
  2
CLASSES
  0
CLASS
  1
ACDBDICTIONARYWDFLT
  2
AcDbDictionaryWithDefault
  3
AutoCAD 2000
 90
0
 91
1
280
0
281
0
  0
CLASS
  1
ACDBPLACEHOLDER
  2
AcDbPlaceHolder
  3
AutoCAD 2000
 90
0
 91
1
280
0
281
0
  0
CLASS
  1
LAYOUT
  2
AcDbLayout
  3
AutoCAD 2000
 90
0
 91
0
280
0
281
0
  0
ENDSEC
  0
SECTION
  2
TABLES
  0
TABLE
  2
VPORT
  5
8
100
AcDbSymbolTable
 70
2
  0
VPORT
  5
1F4
100
AcDbSymbolTableRecord
100
AcDbViewportTableRecord
  2
*ACTIVE
 70
0
 10
0.0
 20
0.0
 11
1.0
 21
1.0
 12
5.5
 22
4.25
 13
0.0
 23
0.0
 14
1.0
 24
1.0
 15
0.0
 25
0.0
 16
0.0
 26
0.0
 36
1.0
 17
0.0
 27
0.0
 37
0.0
 40
8.5
 41
1.2941176471
 42
50.0
 43
0.0
 44
0.0
 50
0.0
 51
0.0
 71
0
 72
100
 73
1
 74
1
 75
0
 76
0
 77
0
 78
0
  0
ENDTAB
  0
TABLE
  2
LTYPE
  5
5
100
AcDbSymbolTable
 70
6
  0
LTYPE
  5
14
100
AcDbSymbolTableRecord
100
AcDbLinetypeTableRecord
  2
BYBLOCK
 70
0
  3

 72
65
 73
0
 40
0.0
  0
LTYPE
  5
15
100
AcDbSymbolTableRecord
100
AcDbLinetypeTableRecord
  2
BYLAYER
 70
0
  3

 72
65
 73
0
 40
0.0
  0
LTYPE
  5
16
100
AcDbSymbolTableRecord
100
AcDbLinetypeTableRecord
  2
CONTINUOUS
 70
64
  3
Solid line
 72
65
 73
0
 40
0.0
  0
LTYPE
  5
1F5
100
AcDbSymbolTableRecord
100
AcDbLinetypeTableRecord
  2
CENTER
 70
64
  3
____ _ ____ _ ____ _ ____ _ ____ _ ____ _ ____
 72
65
 73
4
 40
0.6
 49
0.375
 74
0
 49
-0.075
 74
0
 49
0.075
 74
0
 49
-0.075
 74
0
  0
LTYPE
  5
1F6
100
AcDbSymbolTableRecord
100
AcDbLinetypeTableRecord
  2
HIDDEN
 70
64
  3
- - - - - - - - - - - - - - - - - - - -
 72
65
 73
2
 40
0.2
 49
0.1
 74
0
 49
-0.1
 74
0
  0
LTYPE
  5
1F7
100
AcDbSymbolTableRecord
100
AcDbLinetypeTableRecord
  2
PHANTOM
 70
64
  3
_____ _ _ _____ _ _ _____ _ _ _____
 72
65
 73
6
 40
0.8
 49
0.45
 74
0
 49
-0.05
 74
0
 49
0.1
 74
0
 49
-0.05
 74
0
 49
0.1
 74
0
 49
-0.05
 74
0
  0
LTYPE
  5
1F8
100
AcDbSymbolTableRecord
100
AcDbLinetypeTableRecord
  2
DOT
 70
64
  3
. . . . . . . . . . . . . . . . . . . .
 72
65
 73
2
 40
0.2
 49
0.1
 74
0
 49
-0.1
 74
0
  0
LTYPE
  5
1F9
100
AcDbSymbolTableRecord
100
AcDbLinetypeTableRecord
  2
DASHED
 70
64
  3
- - - - - - - - - - - - - - - - - - - -
 72
65
 73
2
 40
0.2
 49
0.1
 74
0
 49
-0.1
 74
0
  0
ENDTAB
  0
TABLE
  2
LAYER
  5
2
100
AcDbSymbolTable
 70
36
  0
LAYER
  5
10
100
AcDbSymbolTableRecord
100
AcDbLayerTableRecord
  2
0
 70
0
 62
7
  6
CONTINUOUS
370
-3
390
F
  0
LAYER
  5
1FA
100
AcDbSymbolTableRecord
100
AcDbLayerTableRecord
  2
DEFAULT_1
 70
0
 62
7
  6
CENTER
370
-3
390
F
  0
LAYER
  5
1FB
100
AcDbSymbolTableRecord
100
AcDbLayerTableRecord
  2
DEFAULT_2
 70
0
 62
8
  6
HIDDEN
370
-3
390
F
  0
LAYER
  5
1FC
100
AcDbSymbolTableRecord
100
AcDbLayerTableRecord
  2
DEFAULT_3
 70
0
 62
7
  6
PHANTOM
370
-3
390
F
  0
LAYER
  5
1FD
100
AcDbSymbolTableRecord
100
AcDbLayerTableRecord
  2
ALL_FEATURES
 70
0
 62
7
  6
CONTINUOUS
370
-3
390
F
  0
LAYER
  5
1FE
100
AcDbSymbolTableRecord
100
AcDbLayerTableRecord
  2
AXES_FEATURES
 70
0
 62
7
  6
CONTINUOUS
370
-3
390
F
  0
LAYER
  5
1FF
100
AcDbSymbolTableRecord
100
AcDbLayerTableRecord
  2
DEFAULT_COORDINATE_SYSTEM
 70
0
 62
7
  6
CONTINUOUS
370
-3
390
F
  0
LAYER
  5
200
100
AcDbSymbolTableRecord
100
AcDbLayerTableRecord
  2
DEFAULT_DATUM_AXES
 70
0
 62
7
  6
CONTINUOUS
370
-3
390
F
  0
LAYER
  5
201
100
AcDbSymbolTableRecord
100
AcDbLayerTableRecord
  2
DEFAULT_DATUM_CURVES
 70
0
 62
7
  6
CONTINUOUS
370
-3
390
F
  0
LAYER
  5
202
100
AcDbSymbolTableRecord
100
AcDbLayerTableRecord
  2
DEFAULT_DATUM_PLANES
 70
0
 62
7
  6
CONTINUOUS
370
-3
390
F
  0
LAYER
  5
203
100
AcDbSymbolTableRecord
100
AcDbLayerTableRecord
  2
DEFAULT_SURFACES
 70
0
 62
7
  6
CONTINUOUS
370
-3
390
F
  0
LAYER
  5
204
100
AcDbSymbolTableRecord
100
AcDbLayerTableRecord
  2
DIMENSIONS
 70
0
 62
7
  6
CONTINUOUS
370
-3
390
F
  0
LAYER
  5
205
100
AcDbSymbolTableRecord
100
AcDbLayerTableRecord
  2
PATTERN_DATUMS
 70
0
 62
7
  6
CONTINUOUS
370
-3
390
F
  0
ENDTAB
  0
TABLE
  2
STYLE
  5
3
100
AcDbSymbolTable
 70
1
  0
STYLE
  5
11
100
AcDbSymbolTableRecord
100
AcDbTextStyleTableRecord
  2
STANDARD
 70
0
 40
0.0
 41
0.8
 50
0.0
 71
0
 42
0.2
  3
txt
  4

  0
STYLE
  5
206
100
AcDbSymbolTableRecord
100
AcDbTextStyleTableRecord
  2
TEXTSTYLE_1
 70
0
 40
0.0
 41
0.8
 50
0.0
 71
0
 42
0.2
  3
gdt
  4

  0
ENDTAB
  0
TABLE
  2
VIEW
  5
6
100
AcDbSymbolTable
 70
0
  0
ENDTAB
  0
TABLE
  2
UCS
  5
7
100
AcDbSymbolTable
 70
0
  0
ENDTAB
  0
TABLE
  2
APPID
  5
9
100
AcDbSymbolTable
 70
1
  0
APPID
  5
207
100
AcDbSymbolTableRecord
100
AcDbRegAppTableRecord
  2
ACAD
 70
0
  0
ENDTAB
  0
TABLE
  2
BLOCK_RECORD
  5
1
100
AcDbSymbolTable
 70
0
  0
BLOCK_RECORD
  5
208
100
AcDbSymbolTableRecord
100
AcDbBlockTableRecord
  2
*Model_Space
  0
BLOCK_RECORD
  5
209
100
AcDbSymbolTableRecord
100
AcDbBlockTableRecord
  2
*Paper_Space
  0
ENDTAB
  0
TABLE
  2
DIMSTYLE
  5
A
100
AcDbSymbolTable
 70
1
100
AcDbDimStyleTable
 71
0
  0
DIMSTYLE
105
20A
100
AcDbSymbolTableRecord
100
AcDbDimStyleTableRecord
  2
STANDARD
 70
0
  3

  4

 40
1.0
 41
0.1
 42
0.0625
 43
0.38
 44
0.125
 45
0.0
 46
0.0
 47
0.001
 48
0.001
140
0.08
141
0.09
142
0.0
143
25.4
144
1.0
145
0.0
146
1.0
147
0.09
 71
1.0
 72
0.0
 73
1
 74
1
 75
0
 76
0
 77
0
 78
4
170
0
171
2
172
0
173
0
174
0
175
0
176
0
177
0
178
0
270
2
271
3
272
3
273
2
274
2
275
0
280
0
281
0
282
0
283
1
284
4
285
0
286
0
287
3
288
0
340
11
278
46
  0
ENDTAB
  0
ENDSEC
  0
SECTION
  2
BLOCKS
  0
BLOCK
  5
20
100
AcDbEntity
  8
0
100
AcDbBlockBegin
  2
*Model_Space
 70
0
 10
0.0
 20
0.0
 30
0.0
  3
*Model_Space
  1

  0
ENDBLK
  5
21
100
AcDbEntity
  8
0
100
AcDbBlockEnd
  0
BLOCK
  5
1C
100
AcDbEntity
  8
0
100
AcDbBlockBegin
  2
*Paper_Space
 70
0
 10
0.0
 20
0.0
 30
0.0
  3
*Paper_Space
  1

  0
ENDBLK
  5
1D
100
AcDbEntity
  8
0
100
AcDbBlockEnd
  0
ENDSEC
  0
SECTION
  2
ENTITIES
  0
MTEXT
  5
20B
100
AcDbEntity
  8
0
100
AcDbMText
 62
2
  6
CONTINUOUS
  7
STANDARD
 71
3
 72
1
 10
6.8193473103
 20
-0.3824054628
 30
0.0
 11
1.0
 21
0.0
 31
0.0
 44
0.9
  1
SCALE  1.000
 40
0.08
 41
0.768
  0
LINE
  5
20C
100
AcDbEntity
  8
0
100
AcDbLine
 62
7
  6
CONTINUOUS
 10
0.0
 20
0.0
 11
0.0
 21
8.5
  0
LINE
  5
20D
100
AcDbEntity
  8
0
100
AcDbLine
 62
7
  6
CONTINUOUS
 10
0.0
 20
0.0
 11
11.0
 21
0.0
  0
LINE
  5
20E
100
AcDbEntity
  8
0
100
AcDbLine
 62
7
  6
CONTINUOUS
 10
0.0
 20
8.5
 11
11.0
 21
8.5
  0
LINE
  5
20F
100
AcDbEntity
  8
0
100
AcDbLine
 62
7
  6
CONTINUOUS
 10
11.0
 20
0.0
 11
11.0
 21
8.5
  0
LINE
  5
210
100
AcDbEntity
  8
0
100
AcDbLine
 62
7
  6
CONTINUOUS
 10
2.2274665979
 20
4.7085080097
 11
2.2274725463
 21
4.5685080098
  0
LINE
  5
211
100
AcDbEntity
  8
0
100
AcDbLine
 62
7
  6
CONTINUOUS
 10
2.9776412933
 20
4.8436460995
 11
2.9776412933
 21
4.7686460995
  0
LINE
  5
212
100
AcDbEntity
  8
0
100
AcDbLine
 62
7
  6
CONTINUOUS
 10
2.9823794905
 20
4.9688981834
 11
2.9823794861
 21
4.9688900098
  0
LINE
  5
213
100
AcDbEntity
  8
0
100
AcDbLine
 62
7
  6
CONTINUOUS
 10
2.9823808424
 20
4.9689611308
 11
2.9822353614
 21
4.9576593347
  0
LINE
  5
214
100
AcDbEntity
  8
0
100
AcDbLine
 62
7
  6
CONTINUOUS
 10
2.9822353614
 20
4.9576593347
 11
2.9820168543
 21
4.9454873223
  0
LINE
  5
215
100
AcDbEntity
  8
0
100
AcDbLine
 62
7
  6
CONTINUOUS
 10
2.9820168543
 20
4.9454873223
 11
2.9817514765
 21
4.9339295909
  0
LINE
  5
216
100
AcDbEntity
  8
0
100
AcDbLine
 62
7
  6
CONTINUOUS
 10
2.9817514765
 20
4.9339295909
 11
2.9814492209
 21
4.9230360151
  0
LINE
  5
217
100
AcDbEntity
  8
0
100
AcDbLine
 62
7
  6
CONTINUOUS
 10
2.9814492209
 20
4.9230360151
 11
2.9810517093
 21
4.9108887565
  0
LINE
  5
218
100
AcDbEntity
  8
0
100
AcDbLine
 62
7
  6
CONTINUOUS
 10
2.9810517093
 20
4.9108887565
 11
2.9806336474
 21
4.8998009356
  0
LINE
  5
219
100
AcDbEntity
  8
0
100
AcDbLine
 62
7
  6
CONTINUOUS
 10
2.9806336474
 20
4.8998009356
 11
2.9802098014
 21
4.889804666
  0
LINE
  5
21A
100
AcDbEntity
  8
0
100
AcDbLine
 62
7
  6
CONTINUOUS
 10
2.9802098014
 20
4.889804666
 11
2.9797268772
 21
4.8795280349
  0
LINE
  5
21B
100
AcDbEntity
  8
0
100
AcDbLine
 62
7
  6
CONTINUOUS
 10
2.9797268772
 20
4.8795280349
 11
2.9792156164
 21
4.8696055594
  0
LINE
  5
21C
100
AcDbEntity
  8
0
100
AcDbLine
 62
7
  6
CONTINUOUS
 10
2.9792156164
 20
4.8696055594
 11
2.9787129479
 21
4.8606929017
  0
LINE
  5
21D
100
AcDbEntity
  8
0
100
AcDbLine
 62
7
  6
CONTINUOUS
 10
2.9787129479
 20
4.8606929017
 11
2.9782731513
 21
4.8534710314
  0
LINE
  5
21E
100
AcDbEntity
  8
0
100
AcDbLine
 62
7
  6
CONTINUOUS
 10
2.9782731513
 20
4.8534710314
 11
2.9780217544
 21
4.8496343375
  0
LINE
  5
21F
100
AcDbEntity
  8
0
100
AcDbLine
 62
7
  6
CONTINUOUS
 10
2.9780217544
 20
4.8496343375
 11
2.9778754103
 21
4.8475435074
  0
LINE
  5
220
100
AcDbEntity
  8
0
100
AcDbLine
 62
7
  6
CONTINUOUS
 10
2.9778754103
 20
4.8475435074
 11
2.9778255494
 21
4.8468737788
  0
LINE
  5
221
100
AcDbEntity
  8
0
100
AcDbLine
 62
7
  6
CONTINUOUS
 10
2.9778255494
 20
4.8468737788
 11
2.9778119552
 21
4.8467020273
  0
LWPOLYLINE
  5
222
100
AcDbEntity
  8
0
100
AcDbPolyline
 62
7
  6
CONTINUOUS
 90
14
 70
0
 10
3.3145007882
 20
4.152581082
 10
3.3145322213
 20
4.1516836937
 10
3.3150885024
 20
4.1466358714
 10
3.3162798721
 20
4.1416992118
 10
3.3180871239
 20
4.1369532978
 10
3.320481125
 20
4.132474625
 10
3.3234232844
 20
4.1283353837
 10
3.3268661655
 20
4.1246023011
 10
3.3307542672
 20
4.1213355437
 10
3.3350249151
 20
4.1185877587
 10
3.3396092591
 20
4.1164032322
 10
3.3444334
 20
4.1148171639
 10
3.3494195831
 20
4.1138551039
 10
3.3544874415
 20
4.1135325456
  0
LINE
  5
223
100
AcDbEntity
  8
0
100
AcDbLine
 62
7
  6
CONTINUOUS
 10
3.3062444277
 20
4.4994347713
 11
3.3144983526
 21
4.152541231
  0
LINE
  5
224
100
AcDbEntity
  8
0
100
AcDbLine
 62
7
  6
CONTINUOUS
 10
3.4939250354
 20
5.2017538875
 11
3.4453091392
 21
5.1790826654
  0
LINE
  5
225
100
AcDbEntity
  8
0
100
AcDbLine
 62
7
  6
CONTINUOUS
 10
2.9823794861
 20
4.9688900098
 11
2.9824359671
 21
4.9686460995
  0
LINE
  5
226
100
AcDbEntity
  8
0
100
AcDbLine
 62
7
  6
CONTINUOUS
 10
3.3538706445
 20
4.4992263309
 11
3.3621336948
 21
4.1528304331
  0
LINE
  5
227
100
AcDbEntity
  8
0
100
AcDbLine
 62
7
  6
CONTINUOUS
 10
3.3726856905
 20
4.4992263309
 11
3.3750301258
 21
4.1528304331
  0
LINE
  5
228
100
AcDbEntity
  8
0
100
AcDbLine
 62
7
  6
CONTINUOUS
 10
3.4453418752
 20
4.998627807
 11
3.4453380416
 21
5.1790826176
  0
LINE
  5
229
100
AcDbEntity
  8
0
100
AcDbLine
 62
7
  6
CONTINUOUS
 10
3.5841282444
 20
5.1790827033
 11
3.5841320781
 21
4.9986278927
  0
LINE
  5
22A
100
AcDbEntity
  8
0
100
AcDbLine
 62
7
  6
CONTINUOUS
 10
3.5919074844
 20
4.9986280044
 11
3.5919036507
 21
5.179082815
  0
LINE
  5
22B
100
AcDbEntity
  8
0
100
AcDbLine
 62
7
  6
CONTINUOUS
 10
4.0399368198
 20
5.0108793437
 11
4.0398407516
 21
5.0107204538
  0
LWPOLYLINE
  5
22C
100
AcDbEntity
  8
0
100
AcDbPolyline
 62
7
  6
CONTINUOUS
 90
3
 70
0
 10
4.0398390843
 20
5.0107176962
 10
4.039630124
 20
5.0103778205
 10
4.0394125877
 20
5.0100331199
  0
LINE
  5
22D
100
AcDbEntity
  8
0
100
AcDbLine
 62
7
  6
CONTINUOUS
 10
4.0394125877
 20
5.0100331199
 11
4.0393329631
 21
5.0099095049
  0
LWPOLYLINE
  5
22E
100
AcDbEntity
  8
0
100
AcDbPolyline
 62
7
  6
CONTINUOUS
 90
5
 70
0
 10
4.0393830598
 20
5.0099867357
 10
4.0387251566
 20
5.009012983
 10
4.0375992124
 20
5.0075307863
 10
4.0361671759
 20
5.0059128727
 10
4.0344408914
 20
5.0042767751
  0
LINE
  5
22F
100
AcDbEntity
  8
0
100
AcDbLine
 62
7
  6
CONTINUOUS
 10
4.0401783399
 20
5.011146613
 11
4.0393830598
 21
5.0099867357
  0
LINE
  5
230
100
AcDbEntity
  8
0
100
AcDbLine
 62
7
  6
CONTINUOUS
 10
4.0360033311
 20
5.0057470245
 11
4.0342440494
 21
5.0041106508
  0
LINE
  5
231
100
AcDbEntity
  8
0
100
AcDbLine
 62
7
  6
CONTINUOUS
 10
3.6449918783
 20
4.1135534066
 11
3.6450192832
 21
3.4685682396
  0
LWPOLYLINE
  5
232
100
AcDbEntity
  8
0
100
AcDbPolyline
 62
7
  6
CONTINUOUS
 90
5
 70
0
 10
4.0344408914
 20
5.0042767751
 10
4.0324470557
 20
5.0027286524
 10
4.0302111574
 20
5.0013498019
 10
4.0277380366
 20
5.0001955065
 10
4.0250220565
 20
4.9993186403
  0
LINE
  5
233
100
AcDbEntity
  8
0
100
AcDbLine
 62
7
  6
CONTINUOUS
 10
3.8828749992
 20
4.4992445793
 11
3.8852569653
 21
4.1528486836
  0
LINE
  5
234
100
AcDbEntity
  8
0
100
AcDbLine
 62
7
  6
CONTINUOUS
 10
3.8702023296
 20
5.1790887225
 11
3.8702061633
 21
4.9986339118
  0
LINE
  5
235
100
AcDbEntity
  8
0
100
AcDbLine
 62
7
  6
CONTINUOUS
 10
3.8779949597
 20
4.9986341305
 11
3.877991126
 21
5.1790889411
  0
LINE
  5
236
100
AcDbEntity
  8
0
100
AcDbLine
 62
7
  6
CONTINUOUS
 10
3.977524509
 20
3.3455823674
 11
3.9775675931
 21
2.3315823686
  0
LINE
  5
237
100
AcDbEntity
  8
0
100
AcDbLine
 62
7
  6
CONTINUOUS
 10
4.0174996021
 20
5.1790947628
 11
4.0175034358
 21
4.9986399522
  0
LINE
  5
238
100
AcDbEntity
  8
0
100
AcDbLine
 62
7
  6
CONTINUOUS
 10
4.0456412933
 20
5.2336460995
 11
4.0456412933
 21
5.0286460995
  0
LINE
  5
239
100
AcDbEntity
  8
0
100
AcDbLine
 62
7
  6
CONTINUOUS
 10
6.8845633647
 20
2.238705882
 11
5.2720944802
 21
2.2386043446
  0
LINE
  5
23A
100
AcDbEntity
  8
0
100
AcDbLine
 62
7
  6
CONTINUOUS
 10
3.9775675931
 20
2.3315823686
 11
5.0688861725
 21
2.3315944803
  0
LINE
  5
23B
100
AcDbEntity
  8
0
100
AcDbLine
 62
7
  6
CONTINUOUS
 10
5.0688861725
 20
2.3315944803
 11
6.9775675904
 21
2.3317098362
  0
LINE
  5
23C
100
AcDbEntity
  8
0
100
AcDbLine
 62
7
  6
CONTINUOUS
 10
4.0705797217
 20
2.238586323
 11
5.8298549296
 21
2.2386287503
  0
LINE
  5
23D
100
AcDbEntity
  8
0
100
AcDbLine
 62
7
  6
CONTINUOUS
 10
6.2153491684
 20
5.2018433626
 11
6.2028133644
 21
5.1959969916
  0
LINE
  5
23E
100
AcDbEntity
  8
0
100
AcDbLine
 62
7
  6
CONTINUOUS
 10
6.9859662435
 20
5.2019384759
 11
6.9373513108
 21
5.1792651883
  0
LINE
  5
23F
100
AcDbEntity
  8
0
100
AcDbLine
 62
7
  6
CONTINUOUS
 10
5.0688430885
 20
3.3455944791
 11
3.977524509
 21
3.3455823674
  0
LINE
  5
240
100
AcDbEntity
  8
0
100
AcDbLine
 62
7
  6
CONTINUOUS
 10
6.9775245063
 20
3.345709835
 11
5.0688430885
 21
3.3455944791
  0
LINE
  5
241
100
AcDbEntity
  8
0
100
AcDbLine
 62
7
  6
CONTINUOUS
 10
7.280006761
 20
3.4387226898
 11
5.9115402271
 21
3.438623021
  0
LINE
  5
242
100
AcDbEntity
  8
0
100
AcDbLine
 62
7
  6
CONTINUOUS
 10
3.6450192832
 20
3.4685682396
 11
4.9782468144
 21
3.4685830361
  0
LINE
  5
243
100
AcDbEntity
  8
0
100
AcDbLine
 62
7
  6
CONTINUOUS
 10
4.9782468144
 20
3.4685830361
 11
7.3100192799
 21
3.4687239625
  0
LINE
  5
244
100
AcDbEntity
  8
0
100
AcDbLine
 62
7
  6
CONTINUOUS
 10
3.6750343514
 20
3.4385695123
 11
5.9115402271
 21
3.438623021
  0
LWPOLYLINE
  5
245
100
AcDbEntity
  8
0
100
AcDbPolyline
 62
7
  6
CONTINUOUS
 90
14
 70
0
 10
7.6004929332
 20
4.1137596554
 10
7.6055578905
 20
4.1140818459
 10
7.6105445824
 20
4.1150436581
 10
7.6153692408
 20
4.1166295995
 10
7.6199540888
 20
4.1188141171
 10
7.6242252061
 20
4.1215620052
 10
7.6281137229
 20
4.1248289675
 10
7.6315569472
 20
4.1285623441
 10
7.6344993628
 20
4.1327019529
 10
7.6368935213
 20
4.1371810494
 10
7.6387008221
 20
4.141927424
 10
7.6398921267
 20
4.1468645599
 10
7.6404482263
 20
4.1519128529
 10
7.6404796454
 20
4.152811592
  0
LWPOLYLINE
  5
246
100
AcDbEntity
  8
0
100
AcDbPolyline
 62
7
  6
CONTINUOUS
 90
10
 70
0
 10
3.7103808596
 20
4.1135568234
 10
3.7127488672
 20
4.1134316413
 10
3.7159216323
 20
4.1128671024
 10
3.718790087
 20
4.1119287882
 10
3.7212096084
 20
4.110762466
 10
3.7231540078
 20
4.1095059035
 10
3.7246264747
 20
4.108288572
 10
3.7255814364
 20
4.1073065394
 10
3.7260392071
 20
4.1067363244
 10
3.7261162795
 20
4.1066279892
  0
LWPOLYLINE
  5
247
100
AcDbEntity
  8
0
100
AcDbPolyline
 62
7
  6
CONTINUOUS
 90
14
 70
0
 10
6.8192798741
 20
4.1136609775
 10
6.8243448314
 20
4.113983168
 10
6.8293315233
 20
4.1149449802
 10
6.8341561817
 20
4.1165309215
 10
6.8387410297
 20
4.1187154392
 10
6.8430121469
 20
4.1214633273
 10
6.8469006638
 20
4.1247302896
 10
6.8503438881
 20
4.1284636662
 10
6.8532863037
 20
4.132603275
 10
6.8556804621
 20
4.1370823715
 10
6.8574877629
 20
4.1418287461
 10
6.8586790676
 20
4.146765882
 10
6.8592351672
 20
4.151814175
 10
6.8592665862
 20
4.152712914
  0
LINE
  5
248
100
AcDbEntity
  8
0
100
AcDbLine
 62
7
  6
CONTINUOUS
 10
4.0729852845
 20
4.0835584854
 11
3.7388279871
 21
4.0835584854
  0
LINE
  5
249
100
AcDbEntity
  8
0
100
AcDbLine
 62
7
  6
CONTINUOUS
 10
6.6545292154
 20
4.0836627738
 11
6.0563711111
 21
4.0836294268
  0
LINE
  5
24A
100
AcDbEntity
  8
0
100
AcDbLine
 62
7
  6
CONTINUOUS
 10
6.8192692845
 20
4.113660977
 11
6.0658470541
 21
4.1136291539
  0
LINE
  5
24B
100
AcDbEntity
  8
0
100
AcDbLine
 62
7
  6
CONTINUOUS
 10
7.6004823436
 20
4.1137596549
 11
7.3099918737
 21
4.1137387939
  0
LINE
  5
24C
100
AcDbEntity
  8
0
100
AcDbLine
 62
7
  6
CONTINUOUS
 10
3.3750301258
 20
4.1528304331
 11
3.3621336948
 21
4.1528304331
  0
LINE
  5
24D
100
AcDbEntity
  8
0
100
AcDbLine
 62
7
  6
CONTINUOUS
 10
6.6671859297
 20
4.1529486485
 11
6.6441006798
 21
4.1529473615
  0
LINE
  5
24E
100
AcDbEntity
  8
0
100
AcDbLine
 62
7
  6
CONTINUOUS
 10
4.0823422771
 20
4.1528589846
 11
3.8852569653
 21
4.1528486836
  0
LINE
  5
24F
100
AcDbEntity
  8
0
100
AcDbLine
 62
7
  6
CONTINUOUS
 10
6.1338738404
 20
4.152929111
 11
6.0237523763
 21
4.1529298015
  0
LINE
  5
250
100
AcDbEntity
  8
0
100
AcDbLine
 62
7
  6
CONTINUOUS
 10
7.4483989889
 20
4.1530473264
 11
7.3099902038
 21
4.1530400951
  0
LINE
  5
251
100
AcDbEntity
  8
0
100
AcDbLine
 62
7
  6
CONTINUOUS
 10
4.0499915687
 20
4.113557051
 11
3.3545014224
 21
4.1135325461
  0
LINE
  5
252
100
AcDbEntity
  8
0
100
AcDbLine
 62
7
  6
CONTINUOUS
 10
6.131529405
 20
4.4993250089
 11
6.1338738404
 21
4.152929111
  0
LINE
  5
253
100
AcDbEntity
  8
0
100
AcDbLine
 62
7
  6
CONTINUOUS
 10
6.2026433305
 20
5.1791721368
 11
6.2026531396
 21
4.9987173264
  0
LINE
  5
254
100
AcDbEntity
  8
0
100
AcDbLine
 62
7
  6
CONTINUOUS
 10
6.2071345416
 20
4.9987175506
 11
6.2071247326
 21
5.179172361
  0
LWPOLYLINE
  5
255
100
AcDbEntity
  8
0
100
AcDbPolyline
 62
7
  6
CONTINUOUS
 90
14
 70
0
 10
3.2662552641
 20
4.5385284159
 10
3.2712951741
 20
4.5382098525
 10
3.2762669439
 20
4.5372556704
 10
3.2810783859
 20
4.5356811456
 10
3.2856524236
 20
4.5335114949
 10
3.2899157886
 20
4.5307814664
 10
3.2938001916
 20
4.5275347795
 10
3.2972434092
 20
4.5238234273
 10
3.3001902698
 20
4.5197068609
 10
3.3025935512
 20
4.5152510363
 10
3.3044147526
 20
4.5105273326
 10
3.3056246986
 20
4.5056114173
 10
3.3062040039
 20
4.5005820531
 10
3.306245416
 20
4.4994803492
  0
LINE
  5
256
100
AcDbEntity
  8
0
100
AcDbLine
 62
7
  6
CONTINUOUS
 10
3.9689250351
 20
5.2017639787
 11
4.0175418946
 21
5.1790948222
  0
LINE
  5
257
100
AcDbEntity
  8
0
100
AcDbLine
 62
7
  6
CONTINUOUS
 10
6.4479311104
 20
5.179185103
 11
6.4479409195
 21
4.9987302926
  0
LINE
  5
258
100
AcDbEntity
  8
0
100
AcDbLine
 62
7
  6
CONTINUOUS
 10
6.456926916
 20
4.998730781
 11
6.456917107
 21
5.1791855914
  0
LINE
  5
259
100
AcDbEntity
  8
0
100
AcDbLine
 62
7
  6
CONTINUOUS
 10
3.3726856905
 20
4.4992263309
 11
3.3538706445
 21
4.4992263309
  0
LINE
  5
25A
100
AcDbEntity
  8
0
100
AcDbLine
 62
7
  6
CONTINUOUS
 10
6.6753985776
 20
4.4993451349
 11
6.6417187138
 21
4.4993432572
  0
LINE
  5
25B
100
AcDbEntity
  8
0
100
AcDbLine
 62
7
  6
CONTINUOUS
 10
6.131529405
 20
4.4993250089
 11
6.0177745139
 21
4.4993250089
  0
LINE
  5
25C
100
AcDbEntity
  8
0
100
AcDbLine
 62
7
  6
CONTINUOUS
 10
7.4566116367
 20
4.4994438128
 11
7.3099756089
 21
4.4994356379
  0
LINE
  5
25D
100
AcDbEntity
  8
0
100
AcDbLine
 62
7
  6
CONTINUOUS
 10
4.0865018858
 20
4.4992559314
 11
3.8828749992
 21
4.4992445793
  0
LINE
  5
25E
100
AcDbEntity
  8
0
100
AcDbLine
 62
7
  6
CONTINUOUS
 10
7.3099750911
 20
4.5087239613
 11
6.8688343721
 21
4.5086769278
  0
LINE
  5
25F
100
AcDbEntity
  8
0
100
AcDbLine
 62
7
  6
CONTINUOUS
 10
5.9735823499
 20
4.5086253065
 11
4.1301313246
 21
4.5085593702
  0
LINE
  5
260
100
AcDbEntity
  8
0
100
AcDbLine
 62
7
  6
CONTINUOUS
 10
8.6974476584
 20
4.5387829142
 11
6.2951123717
 21
4.5386069319
  0
LINE
  5
261
100
AcDbEntity
  8
0
100
AcDbLine
 62
7
  6
CONTINUOUS
 10
6.2951123717
 20
4.5386069319
 11
2.2793964323
 21
4.5385013125
  0
LINE
  5
262
100
AcDbEntity
  8
0
100
AcDbLine
 62
7
  6
CONTINUOUS
 10
6.3252801464
 20
4.5686076605
 11
8.7274725405
 21
4.5687841896
  0
LINE
  5
263
100
AcDbEntity
  8
0
100
AcDbLine
 62
7
  6
CONTINUOUS
 10
2.2274725463
 20
4.5685080098
 11
4.5919961351
 21
4.5685342519
  0
LINE
  5
264
100
AcDbEntity
  8
0
100
AcDbLine
 62
7
  6
CONTINUOUS
 10
4.5919961351
 20
4.5685342519
 11
6.3252801464
 21
4.5686076605
  0
LINE
  5
265
100
AcDbEntity
  8
0
100
AcDbLine
 62
7
  6
CONTINUOUS
 10
2.2274665979
 20
4.7085080097
 11
4.5919901866
 21
4.7085342517
  0
LINE
  5
266
100
AcDbEntity
  8
0
100
AcDbLine
 62
7
  6
CONTINUOUS
 10
6.5155398666
 20
4.708617118
 11
8.727466592
 21
4.7087841894
  0
LINE
  5
267
100
AcDbEntity
  8
0
100
AcDbLine
 62
7
  6
CONTINUOUS
 10
4.5919901866
 20
4.7085342517
 11
6.5155398666
 21
4.708617118
  0
LINE
  5
268
100
AcDbEntity
  8
0
100
AcDbLine
 62
7
  6
CONTINUOUS
 10
2.2574999777
 20
4.5385092853
 11
2.2969349395
 21
4.5384990353
  0
LINE
  5
269
100
AcDbEntity
  8
0
100
AcDbLine
 62
7
  6
CONTINUOUS
 10
2.2574914799
 20
4.7385092851
 11
2.2643831037
 21
4.7385045714
  0
LINE
  5
26A
100
AcDbEntity
  8
0
100
AcDbLine
 62
7
  6
CONTINUOUS
 10
6.6417187138
 20
4.4993432572
 11
6.6441006798
 21
4.1529473615
  0
LINE
  5
26B
100
AcDbEntity
  8
0
100
AcDbLine
 62
7
  6
CONTINUOUS
 10
6.6981381802
 20
5.1791990494
 11
6.6981479893
 21
4.998744239
  0
LINE
  5
26C
100
AcDbEntity
  8
0
100
AcDbLine
 62
7
  6
CONTINUOUS
 10
6.6753985776
 20
4.4993451349
 11
6.6671859297
 21
4.1529486485
  0
LINE
  5
26D
100
AcDbEntity
  8
0
100
AcDbLine
 62
7
  6
CONTINUOUS
 10
3.9171168665
 20
4.7385661822
 11
3.8656886905
 21
4.7385679431
  0
LINE
  5
26E
100
AcDbEntity
  8
0
100
AcDbLine
 62
7
  6
CONTINUOUS
 10
8.6974391606
 20
4.738782914
 11
7.117641293
 21
4.7386500315
  0
LINE
  5
26F
100
AcDbEntity
  8
0
100
AcDbLine
 62
7
  6
CONTINUOUS
 10
5.6305432878
 20
4.7386460995
 11
3.0076412933
 21
4.7386460995
  0
LINE
  5
270
100
AcDbEntity
  8
0
100
AcDbLine
 62
7
  6
CONTINUOUS
 10
2.2581145419
 20
4.7385078258
 11
3.5139146441
 21
4.7386232208
  0
LINE
  5
271
100
AcDbEntity
  8
0
100
AcDbLine
 62
7
  6
CONTINUOUS
 10
7.9499908877
 20
4.7388001001
 11
8.6755427061
 21
4.7387908868
  0
LINE
  5
272
100
AcDbEntity
  8
0
100
AcDbLine
 62
7
  6
CONTINUOUS
 10
5.6009628889
 20
4.7636460995
 11
5.3543196976
 21
4.7636460995
  0
LINE
  5
273
100
AcDbEntity
  8
0
100
AcDbLine
 62
7
  6
CONTINUOUS
 10
2.9776412933
 20
4.7686460995
 11
5.3228821894
 21
4.7686460995
  0
LINE
  5
274
100
AcDbEntity
  8
0
100
AcDbLine
 62
7
  6
CONTINUOUS
 10
5.6324003971
 20
4.7686460995
 11
7.9776412933
 21
4.7686460995
  0
LINE
  5
275
100
AcDbEntity
  8
0
100
AcDbLine
 62
7
  6
CONTINUOUS
 10
2.9776412933
 20
4.8436460995
 11
2.9776464155
 21
4.8436460995
  0
LINE
  5
276
100
AcDbEntity
  8
0
100
AcDbLine
 62
7
  6
CONTINUOUS
 10
7.9776361711
 20
4.8436460995
 11
7.9776412933
 21
4.8436460995
  0
LINE
  5
277
100
AcDbEntity
  8
0
100
AcDbLine
 62
7
  6
CONTINUOUS
 10
5.4826412933
 20
4.8636460995
 11
5.4726412933
 21
4.8636460995
  0
LINE
  5
278
100
AcDbEntity
  8
0
100
AcDbLine
 62
7
  6
CONTINUOUS
 10
5.4725805645
 20
4.8936460995
 11
5.482702022
 21
4.8936460995
  0
LINE
  5
279
100
AcDbEntity
  8
0
100
AcDbLine
 62
7
  6
CONTINUOUS
 10
2.9824359671
 20
4.9686460995
 11
7.9728466194
 21
4.9686460995
  0
LINE
  5
27A
100
AcDbEntity
  8
0
100
AcDbLine
 62
7
  6
CONTINUOUS
 10
7.117641293
 20
4.7386500315
 11
2.2659159176
 21
4.7385042256
  0
LINE
  5
27B
100
AcDbEntity
  8
0
100
AcDbLine
 62
7
  6
CONTINUOUS
 10
6.7026525837
 20
4.9987445032
 11
6.7026427747
 21
5.1791993136
  0
LINE
  5
27C
100
AcDbEntity
  8
0
100
AcDbLine
 62
7
  6
CONTINUOUS
 10
6.7030574701
 20
5.1792000296
 11
6.7030672791
 21
4.9987452192
  0
LINE
  5
27D
100
AcDbEntity
  8
0
100
AcDbLine
 62
7
  6
CONTINUOUS
 10
6.9096412933
 20
5.2336460995
 11
6.9096412933
 21
5.0286460995
  0
LINE
  5
27E
100
AcDbEntity
  8
0
100
AcDbLine
 62
7
  6
CONTINUOUS
 10
6.9373917135
 20
4.9988102343
 11
6.9373802124
 21
5.1792650445
  0
LINE
  5
27F
100
AcDbEntity
  8
0
100
AcDbLine
 62
7
  6
CONTINUOUS
 10
6.8674934716
 20
4.4995671896
 11
6.8592690252
 21
4.1526730586
  0
LWPOLYLINE
  5
280
100
AcDbEntity
  8
0
100
AcDbPolyline
 62
7
  6
CONTINUOUS
 90
14
 70
0
 10
6.8674924795
 20
4.4996127649
 10
6.8675338961
 20
4.500716385
 10
6.8681131257
 20
4.5057463877
 10
6.8693231528
 20
4.5106629224
 10
6.8711445886
 20
4.5153872068
 10
6.8735482474
 20
4.5198435425
 10
6.876495615
 20
4.5239605259
 10
6.879939463
 20
4.5276721881
 10
6.8838246092
 20
4.5309190576
 10
6.8880888009
 20
4.5336491107
 10
6.8926637102
 20
4.5358186042
 10
6.8974760318
 20
4.5373927777
 10
6.9024486576
 20
4.5383464107
 10
6.9074793098
 20
4.5386642306
  0
LINE
  5
281
100
AcDbEntity
  8
0
100
AcDbLine
 62
7
  6
CONTINUOUS
 10
3.8131917864
 20
4.7385099657
 11
3.8139583193
 21
4.7386460995
  0
LINE
  5
282
100
AcDbEntity
  8
0
100
AcDbLine
 62
7
  6
CONTINUOUS
 10
3.012378431
 20
4.9986460995
 11
7.9429041555
 21
4.9986460995
  0
LINE
  5
283
100
AcDbEntity
  8
0
100
AcDbLine
 62
7
  6
CONTINUOUS
 10
6.7026525837
 20
4.9987445032
 11
6.2026531396
 21
4.9987173264
  0
LINE
  5
284
100
AcDbEntity
  8
0
100
AcDbLine
 62
7
  6
CONTINUOUS
 10
7.0442011817
 20
4.9988104322
 11
6.9373674165
 21
4.9988102343
  0
LINE
  5
285
100
AcDbEntity
  8
0
100
AcDbLine
 62
7
  6
CONTINUOUS
 10
4.0456412933
 20
5.0286460995
 11
6.2026515127
 21
5.0286460995
  0
LINE
  5
286
100
AcDbEntity
  8
0
100
AcDbLine
 62
7
  6
CONTINUOUS
 10
6.7030656538
 20
5.0286460995
 11
6.9096412933
 21
5.0286460995
  0
LINE
  5
287
100
AcDbEntity
  8
0
100
AcDbLine
 62
7
  6
CONTINUOUS
 10
3.5841282444
 20
5.1790827033
 11
3.5919036507
 21
5.179082815
  0
LINE
  5
288
100
AcDbEntity
  8
0
100
AcDbLine
 62
7
  6
CONTINUOUS
 10
7.3622445
 20
5.179283359
 11
7.3700332963
 21
5.179284015
  0
LINE
  5
289
100
AcDbEntity
  8
0
100
AcDbLine
 62
7
  6
CONTINUOUS
 10
6.6981381802
 20
5.1791990494
 11
6.7026427747
 21
5.1791993136
  0
LINE
  5
28A
100
AcDbEntity
  8
0
100
AcDbLine
 62
7
  6
CONTINUOUS
 10
6.4479311104
 20
5.179185103
 11
6.456917107
 21
5.1791855914
  0
LINE
  5
28B
100
AcDbEntity
  8
0
100
AcDbLine
 62
7
  6
CONTINUOUS
 10
3.8702023296
 20
5.1790887225
 11
3.877991126
 21
5.1790889411
  0
LINE
  5
28C
100
AcDbEntity
  8
0
100
AcDbLine
 62
7
  6
CONTINUOUS
 10
6.2026433305
 20
5.1791721368
 11
6.2071247326
 21
5.179172361
  0
LINE
  5
28D
100
AcDbEntity
  8
0
100
AcDbLine
 62
7
  6
CONTINUOUS
 10
7.0761704153
 20
5.1792653016
 11
7.0839458215
 21
5.1792656368
  0
LINE
  5
28E
100
AcDbEntity
  8
0
100
AcDbLine
 62
7
  6
CONTINUOUS
 10
3.4939252329
 20
5.2017538875
 11
3.9689247715
 21
5.2017639744
  0
LINE
  5
28F
100
AcDbEntity
  8
0
100
AcDbLine
 62
7
  6
CONTINUOUS
 10
6.2153493816
 20
5.2018433626
 11
6.6903489547
 21
5.2018691824
  0
LINE
  5
290
100
AcDbEntity
  8
0
100
AcDbLine
 62
7
  6
CONTINUOUS
 10
6.9859664343
 20
5.2019384758
 11
7.4609659782
 21
5.2019687362
  0
LINE
  5
291
100
AcDbEntity
  8
0
100
AcDbLine
 62
7
  6
CONTINUOUS
 10
6.9356894884
 20
4.9986460016
 11
6.9335573502
 21
4.9987447637
  0
LINE
  5
292
100
AcDbEntity
  8
0
100
AcDbLine
 62
7
  6
CONTINUOUS
 10
6.9775245063
 20
3.345709835
 11
6.9775675904
 21
2.3317098362
  0
LINE
  5
293
100
AcDbEntity
  8
0
100
AcDbLine
 62
7
  6
CONTINUOUS
 10
7.0761704153
 20
5.1792653016
 11
7.0761819163
 21
4.9988104914
  0
LINE
  5
294
100
AcDbEntity
  8
0
100
AcDbLine
 62
7
  6
CONTINUOUS
 10
7.0839573226
 20
4.9988108266
 11
7.0839458215
 21
5.1792656368
  0
LINE
  5
295
100
AcDbEntity
  8
0
100
AcDbLine
 62
7
  6
CONTINUOUS
 10
4.0456412933
 20
5.2336460995
 11
6.9096412933
 21
5.2336460995
  0
LINE
  5
296
100
AcDbEntity
  8
0
100
AcDbLine
 62
7
  6
CONTINUOUS
 10
4.0756412933
 20
5.2636460995
 11
6.8796412933
 21
5.2636460995
  0
LINE
  5
297
100
AcDbEntity
  8
0
100
AcDbLine
 62
7
  6
CONTINUOUS
 10
6.9335573502
 20
4.9987447637
 11
6.9305723063
 21
4.9992400038
  0
LWPOLYLINE
  5
298
100
AcDbEntity
  8
0
100
AcDbPolyline
 62
7
  6
CONTINUOUS
 90
5
 70
0
 10
6.9305723063
 20
4.9992400038
 10
6.9278270403
 20
5.0000860406
 10
6.9253255689
 20
5.0012147557
 10
6.9230597506
 20
5.0025742901
 10
6.9210296327
 20
5.0041162769
  0
LINE
  5
299
100
AcDbEntity
  8
0
100
AcDbLine
 62
7
  6
CONTINUOUS
 10
7.3099750911
 20
4.5087239612
 11
7.3100192799
 21
3.4687239625
  0
LINE
  5
29A
100
AcDbEntity
  8
0
100
AcDbLine
 62
7
  6
CONTINUOUS
 10
7.3622445
 20
5.179283359
 11
7.362256001
 21
4.9988285488
  0
LINE
  5
29B
100
AcDbEntity
  8
0
100
AcDbLine
 62
7
  6
CONTINUOUS
 10
7.3700447974
 20
4.9988292048
 11
7.3700332963
 21
5.179284015
  0
LINE
  5
29C
100
AcDbEntity
  8
0
100
AcDbLine
 62
7
  6
CONTINUOUS
 10
6.6903491677
 20
5.2018691824
 11
6.7028699627
 21
5.1960314683
  0
LINE
  5
29D
100
AcDbEntity
  8
0
100
AcDbLine
 62
7
  6
CONTINUOUS
 10
6.9228346248
 20
5.0027293158
 11
6.9208400396
 21
5.0042781716
  0
LWPOLYLINE
  5
29E
100
AcDbEntity
  8
0
100
AcDbPolyline
 62
7
  6
CONTINUOUS
 90
5
 70
0
 10
6.9210296327
 20
5.0041162769
 10
6.9192681127
 20
5.0057599391
 10
6.9178123639
 20
5.0073785072
 10
6.9166762974
 20
5.0088448071
 10
6.9159439173
 20
5.0099116607
  0
LINE
  5
29F
100
AcDbEntity
  8
0
100
AcDbLine
 62
7
  6
CONTINUOUS
 10
6.9151025388
 20
5.0111453855
 11
6.9157866735
 21
5.0101556786
  0
LINE
  5
2A0
100
AcDbEntity
  8
0
100
AcDbLine
 62
7
  6
CONTINUOUS
 10
6.9163979467
 20
5.0092502788
 11
6.9159149398
 21
5.009963631
  0
LINE
  5
2A1
100
AcDbEntity
  8
0
100
AcDbLine
 62
7
  6
CONTINUOUS
 10
6.9157926393
 20
5.0101507164
 11
6.9159453384
 21
5.009912572
  0
LINE
  5
2A2
100
AcDbEntity
  8
0
100
AcDbLine
 62
7
  6
CONTINUOUS
 10
7.5095417719
 20
5.1793014802
 11
7.509553273
 21
4.99884667
  0
LINE
  5
2A3
100
AcDbEntity
  8
0
100
AcDbLine
 62
7
  6
CONTINUOUS
 10
7.4566116367
 20
4.4994438128
 11
7.4483989889
 21
4.1530473264
  0
LINE
  5
2A4
100
AcDbEntity
  8
0
100
AcDbLine
 62
7
  6
CONTINUOUS
 10
7.6487065308
 20
4.4996658675
 11
7.6404820844
 21
4.1527717366
  0
LWPOLYLINE
  5
2A5
100
AcDbEntity
  8
0
100
AcDbPolyline
 62
7
  6
CONTINUOUS
 90
14
 70
0
 10
7.6487055386
 20
4.4997114429
 10
7.6487469552
 20
4.5008150629
 10
7.6493261848
 20
4.5058450656
 10
7.650536212
 20
4.5107616004
 10
7.6523576478
 20
4.5154858847
 10
7.6547613065
 20
4.5199422205
 10
7.6577086741
 20
4.5240592038
 10
7.6611525222
 20
4.527770866
 10
7.6650376684
 20
4.5310177355
 10
7.6693018601
 20
4.5337477887
 10
7.6738767694
 20
4.5359172821
 10
7.6786890909
 20
4.5374914556
 10
7.6836617167
 20
4.5384450886
 10
7.6874502672
 20
4.5386844367
  0
LINE
  5
2A6
100
AcDbEntity
  8
0
100
AcDbLine
 62
7
  6
CONTINUOUS
 10
7.9729031005
 20
4.9688900078
 11
7.9728466194
 21
4.9686460995
  0
LINE
  5
2A7
100
AcDbEntity
  8
0
100
AcDbLine
 62
7
  6
CONTINUOUS
 10
7.4609662412
 20
5.2019687494
 11
7.5095840637
 21
5.1793016588
  0
LINE
  5
2A8
100
AcDbEntity
  8
0
100
AcDbLine
 62
7
  6
CONTINUOUS
 10
7.9774739494
 20
4.8466616952
 11
7.9774745568
 21
4.8466547757
  0
LINE
  5
2A9
100
AcDbEntity
  8
0
100
AcDbLine
 62
7
  6
CONTINUOUS
 10
7.977473528
 20
4.8466669241
 11
7.977457582
 21
4.8468667492
  0
LINE
  5
2AA
100
AcDbEntity
  8
0
100
AcDbLine
 62
7
  6
CONTINUOUS
 10
7.977457582
 20
4.8468667492
 11
7.9774026353
 21
4.8476062161
  0
LINE
  5
2AB
100
AcDbEntity
  8
0
100
AcDbLine
 62
7
  6
CONTINUOUS
 10
7.9774026353
 20
4.8476062161
 11
7.977230413
 21
4.8500842844
  0
LINE
  5
2AC
100
AcDbEntity
  8
0
100
AcDbLine
 62
7
  6
CONTINUOUS
 10
7.977230413
 20
4.8500842844
 11
7.976942646
 21
4.854530715
  0
LINE
  5
2AD
100
AcDbEntity
  8
0
100
AcDbLine
 62
7
  6
CONTINUOUS
 10
7.9769501769
 20
4.8544108963
 11
7.976483023
 21
4.8621760953
  0
LINE
  5
2AE
100
AcDbEntity
  8
0
100
AcDbLine
 62
7
  6
CONTINUOUS
 10
7.976483023
 20
4.8621760953
 11
7.9759953688
 21
4.8709405588
  0
LINE
  5
2AF
100
AcDbEntity
  8
0
100
AcDbLine
 62
7
  6
CONTINUOUS
 10
7.9759953688
 20
4.8709405588
 11
7.975488541
 21
4.8809003681
  0
LINE
  5
2B0
100
AcDbEntity
  8
0
100
AcDbLine
 62
7
  6
CONTINUOUS
 10
7.975488541
 20
4.8809003681
 11
7.9749991598
 21
4.8914666312
  0
LINE
  5
2B1
100
AcDbEntity
  8
0
100
AcDbLine
 62
7
  6
CONTINUOUS
 10
7.9749991598
 20
4.8914666312
 11
7.9745631637
 21
4.9019631863
  0
LINE
  5
2B2
100
AcDbEntity
  8
0
100
AcDbLine
 62
7
  6
CONTINUOUS
 10
7.9745631637
 20
4.9019631863
 11
7.9741296886
 21
4.9138042198
  0
LINE
  5
2B3
100
AcDbEntity
  8
0
100
AcDbLine
 62
7
  6
CONTINUOUS
 10
7.9741296886
 20
4.9138042198
 11
7.9737846346
 21
4.9246746277
  0
LINE
  5
2B4
100
AcDbEntity
  8
0
100
AcDbLine
 62
7
  6
CONTINUOUS
 10
7.9737846346
 20
4.9246746277
 11
7.9734692334
 21
4.9364170342
  0
LINE
  5
2B5
100
AcDbEntity
  8
0
100
AcDbLine
 62
7
  6
CONTINUOUS
 10
7.9734692334
 20
4.9364170342
 11
7.9731965592
 21
4.9489814386
  0
LINE
  5
2B6
100
AcDbEntity
  8
0
100
AcDbLine
 62
7
  6
CONTINUOUS
 10
7.9731965592
 20
4.9489814386
 11
7.9730187294
 21
4.9595730074
  0
LINE
  5
2B7
100
AcDbEntity
  8
0
100
AcDbLine
 62
7
  6
CONTINUOUS
 10
7.9730187294
 20
4.9595730074
 11
7.972901768
 21
4.9689611119
  0
LINE
  5
2B8
100
AcDbEntity
  8
0
100
AcDbLine
 62
7
  6
CONTINUOUS
 10
7.9729030961
 20
4.9688981671
 11
7.9729031005
 21
4.9688900078
  0
LINE
  5
2B9
100
AcDbEntity
  8
0
100
AcDbLine
 62
7
  6
CONTINUOUS
 10
7.9776412933
 20
4.8436460995
 11
7.9776412933
 21
4.7686460995
  0
LINE
  5
2BA
100
AcDbEntity
  8
0
100
AcDbLine
 62
7
  6
CONTINUOUS
 10
8.727466592
 20
4.7087841894
 11
8.7274725405
 21
4.5687841896
  0
ARC
  5
2BB
100
AcDbEntity
  8
0
100
AcDbCircle
 62
7
  6
CONTINUOUS
 10
4.070567593
 20
2.3315863201
 40
0.093
100
AcDbArc
 50
180.0024344517
 51
270.0024344517
  0
ARC
  5
2BC
100
AcDbEntity
  8
0
100
AcDbCircle
 62
7
  6
CONTINUOUS
 10
3.8845245091
 20
3.3455784159
 40
0.093
100
AcDbArc
 50
0.0024344517
 51
90.0024344517
  0
ARC
  5
2BD
100
AcDbEntity
  8
0
100
AcDbCircle
 62
7
  6
CONTINUOUS
 10
3.6750192831
 20
3.4685695142
 40
0.03
100
AcDbArc
 50
180.0024344517
 51
270.0024344517
  0
ARC
  5
2BE
100
AcDbEntity
  8
0
100
AcDbCircle
 62
7
  6
CONTINUOUS
 10
0.6968873748
 20
4.9920417725
 40
2.2856684277
100
AcDbArc
 50
356.6825386441
 51
359.4135208897
  0
ARC
  5
2BF
100
AcDbEntity
  8
0
100
AcDbCircle
 62
7
  6
CONTINUOUS
 10
4.0122591414
 20
5.0271788567
 40
0.0321958208
100
AcDbArc
 50
330.1337939185
 51
330.9218810528
  0
ARC
  5
2C0
100
AcDbEntity
  8
0
100
AcDbCircle
 62
7
  6
CONTINUOUS
 10
3.0076412933
 20
4.7686460995
 40
0.03
100
AcDbArc
 50
180.0
 51
270.0
  0
ARC
  5
2C1
100
AcDbEntity
  8
0
100
AcDbCircle
 62
7
  6
CONTINUOUS
 10
4.0756412933
 20
5.2336460995
 40
0.03
100
AcDbArc
 50
90.0
 51
180.0
  0
ARC
  5
2C2
100
AcDbEntity
  8
0
100
AcDbCircle
 62
7
  6
CONTINUOUS
 10
4.0156412933
 20
5.0286460995
 40
0.03
100
AcDbArc
 50
327.2107800779
 51
360.0
  0
ARC
  5
2C3
100
AcDbEntity
  8
0
100
AcDbCircle
 62
7
  6
CONTINUOUS
 10
5.3247392987
 20
4.7686460995
 40
0.03
100
AcDbArc
 50
270.0
 51
350.4048883309
  0
ARC
  5
2C4
100
AcDbEntity
  8
0
100
AcDbCircle
 62
7
  6
CONTINUOUS
 10
2.2574665978
 20
4.7085092843
 40
0.03
100
AcDbArc
 50
90.0024344517
 51
180.0024344517
  0
ARC
  5
2C5
100
AcDbEntity
  8
0
100
AcDbCircle
 62
7
  6
CONTINUOUS
 10
2.2574725463
 20
4.5685092845
 40
0.03
100
AcDbArc
 50
180.0024344517
 51
270.0024344517
  0
ARC
  5
2C6
100
AcDbEntity
  8
0
100
AcDbCircle
 62
7
  6
CONTINUOUS
 10
3.0124092365
 20
4.9686768671
 40
0.0299712669
100
AcDbArc
 50
90.0588946113
 51
180.0588140482
  0
ARC
  5
2C7
100
AcDbEntity
  8
0
100
AcDbCircle
 62
7
  6
CONTINUOUS
 10
3.007550823
 20
4.8436290243
 40
0.0299044124
100
AcDbArc
 50
172.4433417846
 51
179.9672844836
  0
ARC
  5
2C8
100
AcDbEntity
  8
0
100
AcDbCircle
 62
7
  6
CONTINUOUS
 10
6.8845675905
 20
2.3317058847
 40
0.093
100
AcDbArc
 50
270.0024344517
 51
0.0024344517
  0
ARC
  5
2C9
100
AcDbEntity
  8
0
100
AcDbCircle
 62
7
  6
CONTINUOUS
 10
7.0705245063
 20
3.3457137865
 40
0.093
100
AcDbArc
 50
90.0024344517
 51
180.0024344517
  0
ARC
  5
2CA
100
AcDbEntity
  8
0
100
AcDbCircle
 62
7
  6
CONTINUOUS
 10
7.2800192799
 20
3.4687226878
 40
0.03
100
AcDbArc
 50
270.0024344517
 51
0.0024344517
  0
ARC
  5
2CB
100
AcDbEntity
  8
0
100
AcDbCircle
 62
7
  6
CONTINUOUS
 10
10.2258889515
 20
4.9909715936
 40
2.2531505025
100
AcDbArc
 50
180.5677277808
 51
183.3332616677
  0
ARC
  5
2CC
100
AcDbEntity
  8
0
100
AcDbCircle
 62
7
  6
CONTINUOUS
 10
5.4826412933
 20
4.7436460995
 40
0.12
100
AcDbArc
 50
9.5938098745
 51
90.0
  0
ARC
  5
2CD
100
AcDbEntity
  8
0
100
AcDbCircle
 62
7
  6
CONTINUOUS
 10
5.4726412933
 20
4.7436460995
 40
0.12
100
AcDbArc
 50
90.0
 51
170.4061926337
  0
ARC
  5
2CE
100
AcDbEntity
  8
0
100
AcDbCircle
 62
7
  6
CONTINUOUS
 10
6.6359118824
 20
4.1462237039
 40
0.0702608894
100
AcDbArc
 50
325.562807156
 51
332.3517347131
  0
ARC
  5
2CF
100
AcDbEntity
  8
0
100
AcDbCircle
 62
7
  6
CONTINUOUS
 10
7.9476412933
 20
4.7686460995
 40
0.03
100
AcDbArc
 50
271.6368184066
 51
360.0
  0
ARC
  5
2D0
100
AcDbEntity
  8
0
100
AcDbCircle
 62
7
  6
CONTINUOUS
 10
6.8796412933
 20
5.2336460995
 40
0.03
100
AcDbArc
 50
0.0
 51
90.0
  0
ARC
  5
2D1
100
AcDbEntity
  8
0
100
AcDbCircle
 62
7
  6
CONTINUOUS
 10
6.9396412933
 20
5.0286460995
 40
0.03
100
AcDbArc
 50
180.0
 51
212.7894468415
  0
ARC
  5
2D2
100
AcDbEntity
  8
0
100
AcDbCircle
 62
7
  6
CONTINUOUS
 10
5.6305432878
 20
4.7686460995
 40
0.03
100
AcDbArc
 50
189.5951016363
 51
270.0
  0
ARC
  5
2D3
100
AcDbEntity
  8
0
100
AcDbCircle
 62
7
  6
CONTINUOUS
 10
8.697466592
 20
4.7087829148
 40
0.03
100
AcDbArc
 50
0.0024344517
 51
90.0024344517
  0
ARC
  5
2D4
100
AcDbEntity
  8
0
100
AcDbCircle
 62
7
  6
CONTINUOUS
 10
8.6974725405
 20
4.5687829149
 40
0.03
100
AcDbArc
 50
270.0024344517
 51
0.0024344517
  0
ARC
  5
2D5
100
AcDbEntity
  8
0
100
AcDbCircle
 62
7
  6
CONTINUOUS
 10
7.3399750911
 20
4.5087252359
 40
0.03
100
AcDbArc
 50
90.0024344517
 51
180.0024344517
  0
ARC
  5
2D6
100
AcDbEntity
  8
0
100
AcDbCircle
 62
7
  6
CONTINUOUS
 10
7.9429061862
 20
4.9686484471
 40
0.0299959653
100
AcDbArc
 50
0.4614870384
 51
90.0038785764
  0
ARC
  5
2D7
100
AcDbEntity
  8
0
100
AcDbCircle
 62
7
  6
CONTINUOUS
 10
7.9428930795
 20
4.9686290659
 40
0.0299535448
100
AcDbArc
 50
0.0325823129
 51
7.5012645148
  0
ARC
  5
2D8
100
AcDbEntity
  8
0
100
AcDbCircle
 62
7
  6
CONTINUOUS
 10
7.9428978263
 20
4.9689922671
 40
0.0296538331
100
AcDbArc
 50
82.243525732
 51
89.9877710561
  0
ARC
  5
2D9
100
AcDbEntity
  8
0
100
AcDbCircle
 62
7
  6
CONTINUOUS
 10
6.9397679144
 20
5.025317549
 40
0.0284457688
100
AcDbArc
 50
209.88044411
 51
212.1401269322
  0
ARC
  5
2DA
100
AcDbEntity
  8
0
100
AcDbCircle
 62
7
  6
CONTINUOUS
 10
6.9356532361
 20
5.021267594
 40
0.0226214999
100
AcDbArc
 50
263.5254123588
 51
270.039458669
  0
ARC
  5
2DB
100
AcDbEntity
  8
0
100
AcDbCircle
 62
7
  6
CONTINUOUS
 10
6.9356022907
 20
5.0207195841
 40
0.0220712433
100
AcDbArc
 50
256.9288468825
 51
263.4964040798
  0
SPLINE
  5
2DC
100
AcDbEntity
  8
0
100
AcDbSpline
 62
7
  6
CONTINUOUS
 70
0
 71
3
 72
23
 73
19
 74
0
 42
0.0000001
 43
0.0000001
 44
0.0000000001
 40
0.0
 40
0.0
 40
0.0
 40
0.0
 40
0.0647672339
 40
0.1287859496
 40
0.19206476
 40
0.2546434054
 40
0.3165990653
 40
0.3780423805
 40
0.4391200236
 40
0.5000066616
 40
0.5608931497
 40
0.6219701646
 40
0.6834122289
 40
0.7453661038
 40
0.8079426643
 40
0.8712191973
 40
0.9352354983
 40
1.0
 40
1.0
 40
1.0
 40
1.0
 10
7.3700332963
 20
5.179284015
 30
0.0
 10
7.3728776819
 20
5.1805712079
 30
0.0
 10
7.378578986
 20
5.183032165
 30
0.0
 10
7.3872211209
 20
5.186360977
 30
0.0
 10
7.3959041409
 20
5.1892667208
 30
0.0
 10
7.404625401
 20
5.1917119302
 30
0.0
 10
7.4133813695
 20
5.1936586951
 30
0.0
 10
7.4221656382
 20
5.1950775443
 30
0.0
 10
7.4309707037
 20
5.1959387222
 30
0.0
 10
7.4397864306
 20
5.1962302752
 30
0.0
 10
7.4486021952
 20
5.1959408421
 30
0.0
 10
7.4574073791
 20
5.1950819035
 30
0.0
 10
7.466191839
 20
5.1936653495
 30
0.0
 10
7.4749480654
 20
5.1917208781
 30
0.0
 10
7.4836696428
 20
5.1892778941
 30
0.0
 10
7.4923530411
 20
5.1863743056
 30
0.0
 10
7.5009955844
 20
5.1830475475
 30
0.0
 10
7.506697211
 20
5.180587966
 30
0.0
 10
7.5095417719
 20
5.1793014802
 30
0.0
  0
SPLINE
  5
2DD
100
AcDbEntity
  8
0
100
AcDbSpline
 62
7
  6
CONTINUOUS
 70
0
 71
3
 72
15
 73
11
 74
0
 42
0.0000001
 43
0.0000001
 44
0.0000000001
 40
0.0
 40
0.0
 40
0.0
 40
0.0
 40
0.1250000095
 40
0.2500001708
 40
0.3750001574
 40
0.4999999326
 40
0.6249997126
 40
0.7499996401
 40
0.87499985
 40
1.0
 40
1.0
 40
1.0
 40
1.0
 10
7.0839458215
 20
5.1792656368
 30
0.0
 10
7.0953594808
 20
5.1818548336
 30
0.0
 10
7.118296273
 20
5.1865689514
 30
0.0
 10
7.1530078336
 20
5.1919557891
 30
0.0
 10
7.1879772821
 20
5.1953399468
 30
0.0
 10
7.2230940555
 20
5.1965010594
 30
0.0
 10
7.2582109603
 20
5.1953444774
 30
0.0
 10
7.2931808939
 20
5.191965185
 30
0.0
 10
7.3278930315
 20
5.1865819838
 30
0.0
 10
7.3508304981
 20
5.181871105
 30
0.0
 10
7.3622445
 20
5.179283359
 30
0.0
  0
SPLINE
  5
2DE
100
AcDbEntity
  8
0
100
AcDbSpline
 62
7
  6
CONTINUOUS
 70
0
 71
3
 72
23
 73
19
 74
0
 42
0.0000001
 43
0.0000001
 44
0.0000000001
 40
0.0
 40
0.0
 40
0.0
 40
0.0
 40
0.0647937957
 40
0.1288297548
 40
0.1921165584
 40
0.2546944192
 40
0.3166414435
 40
0.3780697336
 40
0.4391278996
 40
0.499992975
 40
0.5608583923
 40
0.621917386
 40
0.6833468032
 40
0.745295274
 40
0.8078750569
 40
0.8711642785
 40
0.9352031209
 40
1.0
 40
1.0
 40
1.0
 40
1.0
 10
6.9373802124
 20
5.1792650445
 30
0.0
 10
6.9402097588
 20
5.1805517983
 30
0.0
 10
6.9458812987
 20
5.1830118919
 30
0.0
 10
6.9544789236
 20
5.1863396625
 30
0.0
 10
6.9631172523
 20
5.1892443728
 30
0.0
 10
6.9717936579
 20
5.1916885534
 30
0.0
 10
6.9805046378
 20
5.19363429
 30
0.0
 10
6.9892438128
 20
5.1950521026
 30
0.0
 10
6.9980037164
 20
5.1959122275
 30
0.0
 10
7.006774246
 20
5.1962027035
 30
0.0
 10
7.0155448113
 20
5.195912168
 30
0.0
 10
7.0243048293
 20
5.1950521062
 30
0.0
 10
7.0330441889
 20
5.1936344188
 30
0.0
 10
7.0417554195
 20
5.191688814
 30
0.0
 10
7.0504321349
 20
5.1892447067
 30
0.0
 10
7.0590708347
 20
5.1863400098
 30
0.0
 10
7.0676688614
 20
5.1830121621
 30
0.0
 10
7.0733407022
 20
5.1805520461
 30
0.0
 10
7.0761704153
 20
5.1792653016
 30
0.0
  0
LINE
  5
2DF
100
AcDbEntity
  8
0
100
AcDbLine
 62
7
  6
CONTINUOUS
 10
6.7028497666
 20
5.1960398197
 11
6.7030574701
 21
5.1792000296
  0
LINE
  5
2E0
100
AcDbEntity
  8
0
100
AcDbLine
 62
7
  6
CONTINUOUS
 10
6.202849205
 20
5.1960126411
 11
6.2026433305
 21
5.1791721368
  0
SPLINE
  5
2E1
100
AcDbEntity
  8
0
100
AcDbSpline
 62
7
  6
CONTINUOUS
 70
0
 71
3
 72
15
 73
11
 74
0
 42
0.0000001
 43
0.0000001
 44
0.0000000001
 40
0.0
 40
0.0
 40
0.0
 40
0.0
 40
0.1254521567
 40
0.250551448
 40
0.3753595897
 40
0.4999997927
 40
0.6246402101
 40
0.7494482951
 40
0.8745476283
 40
1.0
 40
1.0
 40
1.0
 40
1.0
 10
6.2071247326
 20
5.179172361
 30
0.0
 10
6.2169862175
 20
5.1817575439
 30
0.0
 10
6.2368044919
 20
5.1864700578
 30
0.0
 10
6.2668473521
 20
5.1918542384
 30
0.0
 10
6.297120298
 20
5.1952444242
 30
0.0
 10
6.3275269851
 20
5.1964060458
 30
0.0
 10
6.3579337775
 20
5.1952475297
 30
0.0
 10
6.3882071264
 20
5.1918608296
 30
0.0
 10
6.4182505886
 20
5.1864798586
 30
0.0
 10
6.4380693346
 20
5.1817692449
 30
0.0
 10
6.4479311104
 20
5.179185103
 30
0.0
  0
LINE
  5
2E2
100
AcDbEntity
  8
0
100
AcDbLine
 62
7
  6
CONTINUOUS
 10
6.7026427747
 20
5.1791993136
 11
6.7028497666
 21
5.1960398197
  0
SPLINE
  5
2E3
100
AcDbEntity
  8
0
100
AcDbSpline
 62
7
  6
CONTINUOUS
 70
0
 71
3
 72
15
 73
11
 74
0
 42
0.0000001
 43
0.0000001
 44
0.0000000001
 40
0.0
 40
0.0
 40
0.0
 40
0.0
 40
0.1254460995
 40
0.2505441001
 40
0.375354885
 40
0.4999999879
 40
0.6246452783
 40
0.7494559284
 40
0.8745538472
 40
1.0
 40
1.0
 40
1.0
 40
1.0
 10
6.456917107
 20
5.1791855914
 30
0.0
 10
6.4667957703
 20
5.1817708548
 30
0.0
 10
6.4866485516
 20
5.186483496
 30
0.0
 10
6.5167430595
 20
5.191867715
 30
0.0
 10
6.547067937
 20
5.1952579393
 30
0.0
 10
6.5775267038
 20
5.1964196291
 30
0.0
 10
6.6079855764
 20
5.1952612261
 30
0.0
 10
6.6383108577
 20
5.1918746678
 30
0.0
 10
6.6684059686
 20
5.1864938372
 30
0.0
 10
6.6882592248
 20
5.1817832134
 30
0.0
 10
6.6981381802
 20
5.1791990494
 30
0.0
  0
LINE
  5
2E4
100
AcDbEntity
  8
0
100
AcDbLine
 62
7
  6
CONTINUOUS
 10
6.3134544801
 20
4.7386479918
 11
6.31355127
 21
4.7386095466
  0
SPLINE
  5
2E5
100
AcDbEntity
  8
0
100
AcDbSpline
 62
7
  6
CONTINUOUS
 70
0
 71
3
 72
23
 73
19
 74
0
 42
0.0000001
 43
0.0000001
 44
0.0000000001
 40
0.0
 40
0.0
 40
0.0
 40
0.0
 40
0.0647662702
 40
0.1287841081
 40
0.1920621404
 40
0.2546401216
 40
0.3165952458
 40
0.3780381668
 40
0.4391155686
 40
0.5000021251
 40
0.5608886947
 40
0.6219659508
 40
0.6834084093
 40
0.7453628199
 40
0.8079400446
 40
0.8712173556
 40
0.9352345345
 40
1.0
 40
1.0
 40
1.0
 40
1.0
 10
3.877991126
 20
5.1790889411
 30
0.0
 10
3.8808355677
 20
5.1803758973
 30
0.0
 10
3.88653698
 20
5.1828363799
 30
0.0
 10
3.8951792573
 20
5.1861644708
 30
0.0
 10
3.903862402
 20
5.1890694899
 30
0.0
 10
3.9125837672
 20
5.1915139714
 30
0.0
 10
3.9213398197
 20
5.1934600052
 30
0.0
 10
3.9301241497
 20
5.1948781208
 30
0.0
 10
3.9389292524
 20
5.1957385632
 30
0.0
 10
3.947744992
 20
5.1960293796
 30
0.0
 10
3.956560744
 20
5.1957392099
 30
0.0
 10
3.9653658907
 20
5.1948795358
 30
0.0
 10
3.9741502894
 20
5.1934622482
 30
0.0
 10
3.9829064319
 20
5.1915170457
 30
0.0
 10
3.9916279042
 20
5.1890733338
 30
0.0
 10
4.000311178
 20
5.1861690206
 30
0.0
 10
4.0089535788
 20
5.1828415413
 30
0.0
 10
4.0146550973
 20
5.1803814854
 30
0.0
 10
4.0174996021
 20
5.1790947628
 30
0.0
  0
SPLINE
  5
2E6
100
AcDbEntity
  8
0
100
AcDbSpline
 62
7
  6
CONTINUOUS
 70
0
 71
3
 72
15
 73
11
 74
0
 42
0.0000001
 43
0.0000001
 44
0.0000000001
 40
0.0
 40
0.0
 40
0.0
 40
0.0
 40
0.1250001483
 40
0.2500003568
 40
0.3750002835
 40
0.5000000632
 40
0.6249998387
 40
0.7499998262
 40
0.8749999888
 40
1.0
 40
1.0
 40
1.0
 40
1.0
 10
3.5919036507
 20
5.179082815
 30
0.0
 10
3.6033174326
 20
5.1816715301
 30
0.0
 10
3.6262544989
 20
5.1863843565
 30
0.0
 10
3.6609661788
 20
5.1917705049
 30
0.0
 10
3.6959358252
 20
5.1951527665
 30
0.0
 10
3.7310526315
 20
5.1963123302
 30
0.0
 10
3.7661695035
 20
5.1951541994
 30
0.0
 10
3.8011392394
 20
5.1917730109
 30
0.0
 10
3.8358512577
 20
5.1863891204
 30
0.0
 10
3.8587884503
 20
5.1816769501
 30
0.0
 10
3.8702023296
 20
5.1790887225
 30
0.0
  0
SPLINE
  5
2E7
100
AcDbEntity
  8
0
100
AcDbSpline
 62
7
  6
CONTINUOUS
 70
0
 71
3
 72
23
 73
19
 74
0
 42
0.0000001
 43
0.0000001
 44
0.0000000001
 40
0.0
 40
0.0
 40
0.0
 40
0.0
 40
0.06479477
 40
0.1288316166
 40
0.1921192071
 40
0.2546977396
 40
0.3166453058
 40
0.3780739947
 40
0.4391324048
 40
0.4999975626
 40
0.5608628974
 40
0.621921647
 40
0.6833506655
 40
0.7452985944
 40
0.8078777056
 40
0.8711661403
 40
0.9352040952
 40
1.0
 40
1.0
 40
1.0
 40
1.0
 10
3.4453380416
 20
5.1790826176
 30
0.0
 10
3.4481676412
 20
5.1803693673
 30
0.0
 10
3.453839282
 20
5.1828294524
 30
0.0
 10
3.4624370472
 20
5.1861572122
 30
0.0
 10
3.4710754981
 20
5.1890619118
 30
0.0
 10
3.4797520063
 20
5.1915060818
 30
0.0
 10
3.4884630677
 20
5.193451808
 30
0.0
 10
3.4972023018
 20
5.1948696103
 30
0.0
 10
3.5059622413
 20
5.195729725
 30
0.0
 10
3.5147327829
 20
5.1960201909
 30
0.0
 10
3.5235033362
 20
5.1957296453
 30
0.0
 10
3.5322633183
 20
5.1948695735
 30
0.0
 10
3.5410026188
 20
5.1934518757
 30
0.0
 10
3.5497137679
 20
5.1915062604
 30
0.0
 10
3.5583903807
 20
5.1890621425
 30
0.0
 10
3.5670289583
 20
5.1861574349
 30
0.0
 10
3.5756268447
 20
5.1828295764
 30
0.0
 10
3.5812985845
 20
5.180369452
 30
0.0
 10
3.5841282444
 20
5.1790827033
 30
0.0
  0
LINE
  5
2E8
100
AcDbEntity
  8
0
100
AcDbLine
 62
7
  6
CONTINUOUS
 10
7.976548055
 20
4.8599652282
 11
7.9776361711
 21
4.8436460995
  0
LINE
  5
2E9
100
AcDbEntity
  8
0
100
AcDbLine
 62
7
  6
CONTINUOUS
 10
2.9776464155
 20
4.8436460995
 11
2.9787232812
 21
4.8597742096
  0
SPLINE
  5
2EA
100
AcDbEntity
  8
0
100
AcDbSpline
 62
7
  6
CONTINUOUS
 70
0
 71
3
 72
20
 73
16
 74
0
 42
0.0000001
 43
0.0000001
 44
0.0000000001
 40
0.0
 40
0.0
 40
0.0
 40
0.0
 40
0.124924919
 40
0.1874961149
 40
0.2500317164
 40
0.3125463134
 40
0.3750581576
 40
0.4999682318
 40
0.5624810293
 40
0.6249916824
 40
0.6874962137
 40
0.7500019588
 40
0.8125264828
 40
0.8750896768
 40
1.0
 40
1.0
 40
1.0
 40
1.0
 10
5.482702022
 20
4.8936460995
 30
0.0
 10
5.4915211977
 20
4.8936440597
 30
0.0
 10
5.5047941338
 20
4.8924946407
 30
0.0
 10
5.5220522009
 20
4.8887195102
 30
0.0
 10
5.5347142365
 20
4.884772295
 30
0.0
 10
5.5469839339
 20
4.8797483873
 30
0.0
 10
5.5626861699
 20
4.8716642006
 30
0.0
 10
5.5772809213
 20
4.8615589929
 30
0.0
 10
5.5903554665
 20
4.8496853384
 30
0.0
 10
5.5993530188
 20
4.8399496688
 30
0.0
 10
5.6074602482
 20
4.8294628223
 30
0.0
 10
5.6146096637
 20
4.8182999776
 30
0.0
 10
5.6207490845
 20
4.8065443422
 30
0.0
 10
5.6274993327
 20
4.7902205552
 30
0.0
 10
5.6309130412
 20
4.7773379039
 30
0.0
 10
5.6324003971
 20
4.7686460995
 30
0.0
  0
SPLINE
  5
2EB
100
AcDbEntity
  8
0
100
AcDbSpline
 62
7
  6
CONTINUOUS
 70
0
 71
3
 72
9
 73
5
 74
0
 42
0.0000001
 43
0.0000001
 44
0.0000000001
 40
0.0
 40
0.0
 40
0.0
 40
0.0
 40
0.5400745538
 40
1.0
 40
1.0
 40
1.0
 40
1.0
 10
6.9306106382
 20
4.9992202077
 30
0.0
 10
6.9285177759
 20
4.9997060746
 30
0.0
 10
6.9247509709
 20
5.0011748978
 30
0.0
 10
6.9215139795
 20
5.0035502335
 30
0.0
 10
6.9201651574
 20
5.0047865092
 30
0.0
  0
SPLINE
  5
2EC
100
AcDbEntity
  8
0
100
AcDbSpline
 62
7
  6
CONTINUOUS
 70
0
 71
3
 72
9
 73
5
 74
0
 42
0.0000001
 43
0.0000001
 44
0.0000000001
 40
0.0
 40
0.0
 40
0.0
 40
0.0
 40
0.2954787532
 40
1.0
 40
1.0
 40
1.0
 40
1.0
 10
6.9201651574
 20
5.0047865092
 30
0.0
 10
6.9196546789
 20
5.0052543931
 30
0.0
 10
6.9179927169
 20
5.0069091978
 30
0.0
 10
6.9165600416
 20
5.0087867343
 30
0.0
 10
6.9156814724
 20
5.0101846353
 30
0.0
  0
SPLINE
  5
2ED
100
AcDbEntity
  8
0
100
AcDbSpline
 62
7
  6
CONTINUOUS
 70
0
 71
3
 72
10
 73
6
 74
0
 42
0.0000001
 43
0.0000001
 44
0.0000000001
 40
0.0
 40
0.0
 40
0.0
 40
0.0
 40
0.4047762784
 40
0.6825308093
 40
1.0
 40
1.0
 40
1.0
 40
1.0
 10
4.040179055
 20
5.0111460995
 30
0.0
 10
4.0394848547
 20
5.0099388471
 30
0.0
 10
4.0381604255
 20
5.0079856225
 30
0.0
 10
4.0358673458
 20
5.0054136672
 30
0.0
 10
4.0343237502
 20
5.0040564848
 30
0.0
 10
4.0334565091
 20
5.0033924999
 30
0.0
  0
SPLINE
  5
2EE
100
AcDbEntity
  8
0
100
AcDbSpline
 62
7
  6
CONTINUOUS
 70
0
 71
3
 72
10
 73
6
 74
0
 42
0.0000001
 43
0.0000001
 44
0.0000000001
 40
0.0
 40
0.0
 40
0.0
 40
0.0
 40
0.4634043115
 40
0.7214894834
 40
1.0
 40
1.0
 40
1.0
 40
1.0
 10
4.0334565091
 20
5.0033924999
 30
0.0
 10
4.032076259
 20
5.0023357404
 30
0.0
 10
4.0297365234
 20
5.0009173529
 30
0.0
 10
4.0262274985
 20
4.9995707705
 30
0.0
 10
4.024260331
 20
4.9991062301
 30
0.0
 10
4.0232291806
 20
4.9989381446
 30
0.0
  0
LINE
  5
2EF
100
AcDbEntity
  8
0
100
AcDbLine
 62
7
  6
CONTINUOUS
 10
4.0408613486
 20
5.012399598
 11
4.040396933
 21
5.0115316345
  0
LINE
  5
2F0
100
AcDbEntity
  8
0
100
AcDbLine
 62
7
  6
CONTINUOUS
 10
6.9151035315
 20
5.0111460995
 11
6.9144973132
 21
5.0122470806
  0
LINE
  5
2F1
100
AcDbEntity
  8
0
100
AcDbLine
 62
7
  6
CONTINUOUS
 10
6.9144973132
 20
5.0122470806
 11
6.9144212383
 21
5.0123995975
  0
SPLINE
  5
2F2
100
AcDbEntity
  8
0
100
AcDbSpline
 62
7
  6
CONTINUOUS
 70
0
 71
3
 72
15
 73
11
 74
0
 42
0.0000001
 43
0.0000001
 44
0.0000000001
 40
0.0
 40
0.0
 40
0.0
 40
0.0
 40
0.1249589818
 40
0.2499700793
 40
0.3748574542
 40
0.4996959232
 40
0.6245736789
 40
0.7495817139
 40
0.8748007276
 40
1.0
 40
1.0
 40
1.0
 40
1.0
 10
7.9468999935
 20
4.998374787
 30
0.0
 10
7.9485146879
 20
4.9981556897
 30
0.0
 10
7.9517154962
 20
4.9974552612
 30
0.0
 10
7.9562765708
 20
4.9956388179
 30
0.0
 10
7.9604766576
 20
4.9930983645
 30
0.0
 10
7.9642105695
 20
4.9899151882
 30
0.0
 10
7.9673740772
 20
4.9861626005
 30
0.0
 10
7.9698946514
 20
4.9819449408
 30
0.0
 10
7.9716896113
 20
4.9773675014
 30
0.0
 10
7.972377386
 20
4.9741581277
 30
0.0
 10
7.9725902812
 20
4.9725394434
 30
0.0
  0
SPLINE
  5
2F3
100
AcDbEntity
  8
0
100
AcDbSpline
 62
7
  6
CONTINUOUS
 70
0
 71
3
 72
20
 73
16
 74
0
 42
0.0000001
 43
0.0000001
 44
0.0000000001
 40
0.0
 40
0.0
 40
0.0
 40
0.0
 40
0.1249103245
 40
0.1874735157
 40
0.2499980389
 40
0.3125037858
 40
0.3750083187
 40
0.4375189715
 40
0.5000317679
 40
0.6249418421
 40
0.6874536866
 40
0.7499682832
 40
0.8125038847
 40
0.8750750811
 40
1.0
 40
1.0
 40
1.0
 40
1.0
 10
5.3228821894
 20
4.7686460995
 30
0.0
 10
5.3243695491
 20
4.7773379034
 30
0.0
 10
5.3277832531
 20
4.7902205551
 30
0.0
 10
5.3345334987
 20
4.8065443433
 30
0.0
 10
5.3406729214
 20
4.8182999776
 30
0.0
 10
5.3478223392
 20
4.8294628211
 30
0.0
 10
5.3559295691
 20
4.8399496674
 30
0.0
 10
5.3649271205
 20
4.8496853379
 30
0.0
 10
5.3780016645
 20
4.8615589936
 30
0.0
 10
5.392596416
 20
4.8716642012
 30
0.0
 10
5.4082986524
 20
4.8797483873
 30
0.0
 10
5.42056835
 20
4.8847722944
 30
0.0
 10
5.4332303857
 20
4.8887195093
 30
0.0
 10
5.4504884526
 20
4.8924946408
 30
0.0
 10
5.4637613888
 20
4.8936440609
 30
0.0
 10
5.4725805645
 20
4.8936460995
 30
0.0
  0
SPLINE
  5
2F4
100
AcDbEntity
  8
0
100
AcDbSpline
 62
7
  6
CONTINUOUS
 70
0
 71
3
 72
22
 73
18
 74
0
 42
0.0000001
 43
0.0000001
 44
0.0000000001
 40
0.0
 40
0.0
 40
0.0
 40
0.0
 40
0.1934068417
 40
0.3802059932
 40
0.552121203
 40
0.7027824618
 40
0.7683419358
 40
0.8265906229
 40
0.8770088706
 40
0.9190868103
 40
0.9368506808
 40
0.9523894417
 40
0.9656943526
 40
0.976764876
 40
0.9856171263
 40
0.9923061659
 40
1.0
 40
1.0
 40
1.0
 40
1.0
 10
5.3228821894
 20
4.7686460995
 30
0.0
 10
5.3228821894
 20
4.7666991399
 30
0.0
 10
5.3229055487
 20
4.7628717026
 30
0.0
 10
5.3230070031
 20
4.7573144564
 30
0.0
 10
5.3231730395
 20
4.7521892682
 30
0.0
 10
5.3233647298
 20
4.7482864351
 30
0.0
 10
5.3235510735
 20
4.7455296624
 30
0.0
 10
5.3236951215
 20
4.743781627
 30
0.0
 10
5.3238483472
 20
4.7422717801
 30
0.0
 10
5.323988528
 20
4.7411705232
 30
0.0
 10
5.3241079794
 20
4.740421018
 30
0.0
 10
5.3241936839
 20
4.7399598338
 30
0.0
 10
5.3242807751
 20
4.7395669594
 30
0.0
 10
5.3243672421
 20
4.7392451855
 30
0.0
 10
5.3244570889
 20
4.7389882237
 30
0.0
 10
5.3245504411
 20
4.7387857755
 30
0.0
 10
5.3246618477
 20
4.7386460995
 30
0.0
 10
5.3247392988
 20
4.7386460995
 30
0.0
  0
SPLINE
  5
2F5
100
AcDbEntity
  8
0
100
AcDbSpline
 62
7
  6
CONTINUOUS
 70
0
 71
3
 72
29
 73
25
 74
0
 42
0.0000001
 43
0.0000001
 44
0.0000000001
 40
0.0
 40
0.0
 40
0.0
 40
0.0
 40
0.1910613205
 40
0.2854560412
 40
0.3775029948
 40
0.4660648347
 40
0.5502789702
 40
0.6293460723
 40
0.7024629912
 40
0.7688593201
 40
0.8279049552
 40
0.8790052754
 40
0.9215672416
 40
0.9394705289
 40
0.9550675415
 40
0.9683330378
 40
0.9792428903
 40
0.9877787313
 40
0.991155874
 40
0.9939439534
 40
0.9961555892
 40
0.9978224606
 40
0.9990288054
 40
1.0
 40
1.0
 40
1.0
 40
1.0
 10
5.3228821894
 20
4.7686460995
 30
0.0
 10
5.3248957346
 20
4.7683899773
 30
0.0
 10
5.3278904765
 20
4.7679027896
 30
0.0
 10
5.331836264
 20
4.7671867696
 30
0.0
 10
5.3347100563
 20
4.7666603787
 30
0.0
 10
5.3374824447
 20
4.766181597
 30
0.0
 10
5.3401226881
 20
4.7657485682
 30
0.0
 10
5.3426035905
 20
4.7653582156
 30
0.0
 10
5.3448990748
 20
4.765007475
 30
0.0
 10
5.3469849052
 20
4.7646928892
 30
0.0
 10
5.3488394776
 20
4.7644133199
 30
0.0
 10
5.3504430304
 20
4.7641673089
 30
0.0
 10
5.351613421
 20
4.7639801344
 30
0.0
 10
5.3524098321
 20
4.7638433846
 30
0.0
 10
5.3528991526
 20
4.763757384
 30
0.0
 10
5.3533154527
 20
4.7636850563
 30
0.0
 10
5.3536585027
 20
4.7636295656
 30
0.0
 10
5.3538988971
 20
4.7635972348
 30
0.0
 10
5.3540546095
 20
4.7635844276
 30
0.0
 10
5.3541435869
 20
4.763581754
 30
0.0
 10
5.3542145283
 20
4.7635854318
 30
0.0
 10
5.3542676074
 20
4.7635958938
 30
0.0
 10
5.3543055354
 20
4.7636142182
 30
0.0
 10
5.3543179781
 20
4.7636359271
 30
0.0
 10
5.3543196977
 20
4.7636461004
 30
0.0
  0
LINE
  5
2F6
100
AcDbEntity
  8
0
100
AcDbLine
 62
7
  6
CONTINUOUS
 10
5.4725805645
 20
4.8936460995
 11
5.4726412933
 21
4.8636460995
  0
LINE
  5
2F7
100
AcDbEntity
  8
0
100
AcDbLine
 62
7
  6
CONTINUOUS
 10
5.482702022
 20
4.8936460995
 11
5.4826412925
 21
4.8636460995
  0
SPLINE
  5
2F8
100
AcDbEntity
  8
0
100
AcDbSpline
 62
7
  6
CONTINUOUS
 70
0
 71
3
 72
29
 73
25
 74
0
 42
0.0000001
 43
0.0000001
 44
0.0000000001
 40
0.0
 40
0.0
 40
0.0
 40
0.0
 40
0.1910610857
 40
0.2854556268
 40
0.3775023696
 40
0.4660640448
 40
0.5502781067
 40
0.6293451895
 40
0.7024621069
 40
0.7688584618
 40
0.8279041596
 40
0.879004542
 40
0.9215665346
 40
0.9394698265
 40
0.9550668519
 40
0.9683323652
 40
0.9792422362
 40
0.987778099
 40
0.9911552578
 40
0.9939433624
 40
0.9961550424
 40
0.9978219982
 40
0.9990285106
 40
1.0
 40
1.0
 40
1.0
 40
1.0
 10
5.6324003971
 20
4.7686460995
 30
0.0
 10
5.6303868533
 20
4.7683899767
 30
0.0
 10
5.6273921155
 20
4.7679027781
 30
0.0
 10
5.6234463347
 20
4.7671867459
 30
0.0
 10
5.6205725464
 20
4.7666603556
 30
0.0
 10
5.61780016
 20
4.7661815808
 30
0.0
 10
5.615159917
 20
4.7657485559
 30
0.0
 10
5.6126790136
 20
4.7653582068
 30
0.0
 10
5.6103835275
 20
4.7650074684
 30
0.0
 10
5.6082976946
 20
4.7646928847
 30
0.0
 10
5.6064431194
 20
4.7644133158
 30
0.0
 10
5.6048395644
 20
4.7641673018
 30
0.0
 10
5.6036691734
 20
4.763980119
 30
0.0
 10
5.6028727631
 20
4.7638433589
 30
0.0
 10
5.602383443
 20
4.7637573521
 30
0.0
 10
5.6019671429
 20
4.7636850197
 30
0.0
 10
5.6016240924
 20
4.7636295269
 30
0.0
 10
5.601383697
 20
4.7635971969
 30
0.0
 10
5.6012279836
 20
4.7635843932
 30
0.0
 10
5.6011390051
 20
4.7635817231
 30
0.0
 10
5.6010680623
 20
4.7635854058
 30
0.0
 10
5.6010149808
 20
4.7635958739
 30
0.0
 10
5.6009770508
 20
4.7636142086
 30
0.0
 10
5.600964609
 20
4.7636359232
 30
0.0
 10
5.6009628889
 20
4.7636460996
 30
0.0
  0
SPLINE
  5
2F9
100
AcDbEntity
  8
0
100
AcDbSpline
 62
7
  6
CONTINUOUS
 70
0
 71
3
 72
22
 73
18
 74
0
 42
0.0000001
 43
0.0000001
 44
0.0000000001
 40
0.0
 40
0.0
 40
0.0
 40
0.0
 40
0.1934068413
 40
0.3802059918
 40
0.5521212021
 40
0.7027824621
 40
0.7683419363
 40
0.8265906234
 40
0.8770088709
 40
0.9190868101
 40
0.9368506804
 40
0.9523894413
 40
0.9656943523
 40
0.9767648759
 40
0.9856171264
 40
0.992306166
 40
1.0
 40
1.0
 40
1.0
 40
1.0
 10
5.6324003971
 20
4.7686460995
 30
0.0
 10
5.6324003971
 20
4.7666991399
 30
0.0
 10
5.6323770378
 20
4.7628717026
 30
0.0
 10
5.6322755834
 20
4.7573144565
 30
0.0
 10
5.632109547
 20
4.7521892683
 30
0.0
 10
5.6319178567
 20
4.7482864352
 30
0.0
 10
5.631731513
 20
4.7455296624
 30
0.0
 10
5.631587465
 20
4.743781627
 30
0.0
 10
5.6314342393
 20
4.7422717801
 30
0.0
 10
5.6312940585
 20
4.7411705233
 30
0.0
 10
5.6311746072
 20
4.740421018
 30
0.0
 10
5.6310889026
 20
4.7399598339
 30
0.0
 10
5.6310018115
 20
4.7395669594
 30
0.0
 10
5.6309153445
 20
4.7392451855
 30
0.0
 10
5.6308254977
 20
4.7389882237
 30
0.0
 10
5.6307321456
 20
4.7387857755
 30
0.0
 10
5.630620739
 20
4.7386460995
 30
0.0
 10
5.6305432878
 20
4.7386460995
 30
0.0
  0
SPLINE
  5
2FA
100
AcDbEntity
  8
0
100
AcDbSpline
 62
7
  6
CONTINUOUS
 70
0
 71
3
 72
13
 73
9
 74
0
 42
0.0000001
 43
0.0000001
 44
0.0000000001
 40
0.0
 40
0.0
 40
0.0
 40
0.0
 40
0.1011159184
 40
0.2062379351
 40
0.3185666417
 40
0.4398356271
 40
0.7079967221
 40
1.0
 40
1.0
 40
1.0
 40
1.0
 10
4.1301313246
 20
4.5085593702
 30
0.0
 10
4.1296889266
 20
4.5085593844
 30
0.0
 10
4.1287818698
 20
4.5084288761
 30
0.0
 10
4.127494431
 20
4.5078567348
 30
0.0
 10
4.1263158661
 20
4.5069368605
 30
0.0
 10
4.1248987711
 20
4.5052428266
 30
0.0
 10
4.123659626
 20
4.5024696332
 30
0.0
 10
4.1233151551
 20
4.5000112516
 30
0.0
 10
4.1233000444
 20
4.4987337809
 30
0.0
  0
SPLINE
  5
2FB
100
AcDbEntity
  8
0
100
AcDbSpline
 62
7
  6
CONTINUOUS
 70
0
 71
3
 72
9
 73
5
 74
0
 42
0.0000001
 43
0.0000001
 44
0.0000000001
 40
0.0
 40
0.0
 40
0.0
 40
0.0
 40
0.2475232351
 40
1.0
 40
1.0
 40
1.0
 40
1.0
 10
6.6736950392
 20
4.1136626023
 30
0.0
 10
6.6734243151
 20
4.113660254
 30
0.0
 10
6.6723310959
 20
4.113613329
 30
0.0
 10
6.6712453516
 20
4.1134171466
 30
0.0
 10
6.6704524298
 20
4.1131965373
 30
0.0
  0
SPLINE
  5
2FC
100
AcDbEntity
  8
0
100
AcDbSpline
 62
7
  6
CONTINUOUS
 70
0
 71
3
 72
15
 73
11
 74
0
 42
0.0000001
 43
0.0000001
 44
0.0000000001
 40
0.0
 40
0.0
 40
0.0
 40
0.0
 40
0.0985494178
 40
0.2040049026
 40
0.3179072816
 40
0.4408075082
 40
0.5723021421
 40
0.7112253156
 40
0.854889216
 40
1.0
 40
1.0
 40
1.0
 40
1.0
 10
6.6704524298
 20
4.1131965373
 30
0.0
 10
6.6693218912
 20
4.1128819952
 30
0.0
 10
6.6670609895
 20
4.1119184831
 30
0.0
 10
6.6639851618
 20
4.1096642455
 30
0.0
 10
6.6612387665
 20
4.1066203331
 30
0.0
 10
6.6588824004
 20
4.1029009726
 30
0.0
 10
6.6569752526
 20
4.0986066473
 30
0.0
 10
6.6555852553
 20
4.0938625473
 30
0.0
 10
6.6547279632
 20
4.0888322175
 30
0.0
 10
6.654529142
 20
4.085390684
 30
0.0
 10
6.6545292154
 20
4.0836627738
 30
0.0
  0
SPLINE
  5
2FD
100
AcDbEntity
  8
0
100
AcDbSpline
 62
7
  6
CONTINUOUS
 70
0
 71
3
 72
17
 73
13
 74
0
 42
0.0000001
 43
0.0000001
 44
0.0000000001
 40
0.0
 40
0.0
 40
0.0
 40
0.0
 40
0.12111689
 40
0.2436680349
 40
0.3053752473
 40
0.3672544659
 40
0.4915828246
 40
0.6171934629
 40
0.6806342147
 40
0.7444481317
 40
0.8724797237
 40
1.0
 40
1.0
 40
1.0
 40
1.0
 10
3.7103628899
 20
4.113557051
 30
0.0
 10
3.7122143142
 20
4.1135571443
 30
0.0
 10
3.7159484524
 20
4.1131546847
 30
0.0
 10
3.7204256705
 20
4.1117248186
 30
0.0
 10
3.7238040195
 20
4.1100553868
 30
0.0
 10
3.727016324
 20
4.1080334378
 30
0.0
 10
3.7306427797
 20
4.1048886007
 30
0.0
 10
3.7336030264
 20
4.1010817362
 30
0.0
 10
3.7355100499
 20
4.0977133961
 30
0.0
 10
3.7370972093
 20
4.094142481
 30
0.0
 10
3.7384491536
 20
4.0894222229
 30
0.0
 10
3.7388279032
 20
4.0855077935
 30
0.0
 10
3.7388279871
 20
4.0835584854
 30
0.0
  0
LINE
  5
2FE
100
AcDbEntity
  8
0
100
AcDbLine
 62
7
  6
CONTINUOUS
 10
4.0865018858
 20
4.4992559314
 11
4.0823422771
 21
4.1528589846
  0
SPLINE
  5
2FF
100
AcDbEntity
  8
0
100
AcDbSpline
 62
7
  6
CONTINUOUS
 70
0
 71
3
 72
16
 73
12
 74
0
 42
0.0000001
 43
0.0000001
 44
0.0000000001
 40
0.0
 40
0.0
 40
0.0
 40
0.0
 40
0.1313082466
 40
0.1967139115
 40
0.2617672812
 40
0.390347108
 40
0.5166226196
 40
0.6403850131
 40
0.7617917912
 40
0.8813929991
 40
1.0
 40
1.0
 40
1.0
 40
1.0
 10
6.0177745139
 20
4.4993250089
 30
0.0
 10
6.0177338181
 20
4.501907327
 30
0.0
 10
6.0173330124
 20
4.5057819231
 30
0.0
 10
6.0161302975
 20
4.510793131
 30
0.0
 10
6.0145041225
 20
4.5156278309
 30
0.0
 10
6.0116994256
 20
4.5213025277
 30
0.0
 10
6.0071953193
 20
4.5272879437
 30
0.0
 10
6.0017270251
 20
4.5322042844
 30
0.0
 10
5.9954954908
 20
4.5358618694
 30
0.0
 10
5.9887379828
 20
4.5381163282
 30
0.0
 10
5.9840374664
 20
4.5386249736
 30
0.0
 10
5.9817046423
 20
4.5386249661
 30
0.0
  0
SPLINE
  5
300
100
AcDbEntity
  8
0
100
AcDbSpline
 62
7
  6
CONTINUOUS
 70
0
 71
3
 72
18
 73
14
 74
0
 42
0.0000001
 43
0.0000001
 44
0.0000000001
 40
0.0
 40
0.0
 40
0.0
 40
0.0
 40
0.0399417971
 40
0.0812102555
 40
0.1247505361
 40
0.1713154683
 40
0.2214677119
 40
0.275522802
 40
0.3955527492
 40
0.5309868626
 40
0.6794692638
 40
0.8375381569
 40
1.0
 40
1.0
 40
1.0
 40
1.0
 10
7.4288960898
 20
4.1137454227
 30
0.0
 10
7.4295271228
 20
4.1137454588
 30
0.0
 10
7.4308134467
 20
4.1138780523
 30
0.0
 10
7.4327082984
 20
4.114458048
 30
0.0
 10
7.4345642116
 20
4.1154088861
 30
0.0
 10
7.4363603098
 20
4.1167202917
 30
0.0
 10
7.4380767654
 20
4.1183812855
 30
0.0
 10
7.4403220262
 20
4.1211299343
 30
0.0
 10
7.4428156525
 20
4.1253696387
 30
0.0
 10
7.4451897346
 20
4.1313121356
 30
0.0
 10
7.4469768224
 20
4.138078616
 30
0.0
 10
7.4480930113
 20
4.1454158186
 30
0.0
 10
7.4483772485
 20
4.1504807138
 30
0.0
 10
7.4483989889
 20
4.1530473264
 30
0.0
  0
SPLINE
  5
301
100
AcDbEntity
  8
0
100
AcDbSpline
 62
7
  6
CONTINUOUS
 70
0
 71
3
 72
12
 73
8
 74
0
 42
0.0000001
 43
0.0000001
 44
0.0000000001
 40
0.0
 40
0.0
 40
0.0
 40
0.0
 40
0.2728049434
 40
0.5586382206
 40
0.8139938818
 40
0.9177512132
 40
1.0
 40
1.0
 40
1.0
 40
1.0
 10
3.885256963
 20
4.1528488441
 30
0.0
 10
3.8388595635
 20
4.1527471892
 30
0.0
 10
3.7438488226
 20
4.1526028601
 30
0.0
 10
3.6054081967
 20
4.1525245295
 30
0.0
 10
3.4957184349
 20
4.1525700526
 30
0.0
 10
3.4206535836
 20
4.1526914729
 30
0.0
 10
3.3890185496
 20
4.1527770207
 30
0.0
 10
3.3750301258
 20
4.1528304331
 30
0.0
  0
SPLINE
  5
302
100
AcDbEntity
  8
0
100
AcDbSpline
 62
7
  6
CONTINUOUS
 70
0
 71
3
 72
12
 73
8
 74
0
 42
0.0000001
 43
0.0000001
 44
0.0000000001
 40
0.0
 40
0.0
 40
0.0
 40
0.0
 40
0.2728078615
 40
0.5586546521
 40
0.8140112346
 40
0.9177529588
 40
1.0
 40
1.0
 40
1.0
 40
1.0
 10
3.8828749992
 20
4.4992445793
 30
0.0
 10
3.8364805062
 20
4.4993407775
 30
0.0
 10
3.7414739501
 20
4.499475863
 30
0.0
 10
3.6030405546
 20
4.499542955
 30
0.0
 10
3.493359069
 20
4.4994902415
 30
0.0
 10
3.4183025404
 20
4.499366032
 30
0.0
 10
3.3866727884
 20
4.4992796521
 30
0.0
 10
3.3726856905
 20
4.4992263309
 30
0.0
  0
LINE
  5
303
100
AcDbEntity
  8
0
100
AcDbLine
 62
7
  6
CONTINUOUS
 10
3.3621336931
 20
4.1528305936
 11
3.3145001598
 21
4.1525810875
  0
LINE
  5
304
100
AcDbEntity
  8
0
100
AcDbLine
 62
7
  6
CONTINUOUS
 10
3.3538706445
 20
4.4992263309
 11
3.3062452813
 21
4.4994803418
  0
LINE
  5
305
100
AcDbEntity
  8
0
100
AcDbLine
 62
7
  6
CONTINUOUS
 10
6.62456025
 20
4.1136454557
 11
6.6270775535
 21
4.1139839479
  0
SPLINE
  5
306
100
AcDbEntity
  8
0
100
AcDbSpline
 62
7
  6
CONTINUOUS
 70
0
 71
3
 72
15
 73
11
 74
0
 42
0.0000001
 43
0.0000001
 44
0.0000000001
 40
0.0
 40
0.0
 40
0.0
 40
0.0
 40
0.0830394118
 40
0.177142614
 40
0.2850296448
 40
0.4071220919
 40
0.5423455471
 40
0.6884937781
 40
0.8425072998
 40
1.0
 40
1.0
 40
1.0
 40
1.0
 10
6.6270775535
 20
4.1139839479
 30
0.0
 10
6.6282761103
 20
4.1143058646
 30
0.0
 10
6.6307163279
 20
4.1154619448
 30
0.0
 10
6.633927876
 20
4.1183199882
 30
0.0
 10
6.6368081936
 20
4.1222479071
 30
0.0
 10
6.6392982237
 20
4.127125245
 30
0.0
 10
6.6413315362
 20
4.1328165041
 30
0.0
 10
6.6428512632
 20
4.1391549994
 30
0.0
 10
6.6437998433
 20
4.145937714
 30
0.0
 10
6.644043213
 20
4.1505936939
 30
0.0
 10
6.6440631496
 20
4.1529473594
 30
0.0
  0
SPLINE
  5
307
100
AcDbEntity
  8
0
100
AcDbSpline
 62
7
  6
CONTINUOUS
 70
0
 71
3
 72
18
 73
14
 74
0
 42
0.0000001
 43
0.0000001
 44
0.0000000001
 40
0.0
 40
0.0
 40
0.0
 40
0.0
 40
0.0399417971
 40
0.0812102558
 40
0.1247505367
 40
0.1713154693
 40
0.2214677132
 40
0.2755228038
 40
0.395552752
 40
0.5309868662
 40
0.6794692668
 40
0.8375381584
 40
1.0
 40
1.0
 40
1.0
 40
1.0
 10
6.6476830306
 20
4.1136467448
 30
0.0
 10
6.6483140637
 20
4.1136467809
 30
0.0
 10
6.6496003876
 20
4.1137793744
 30
0.0
 10
6.6514952393
 20
4.1143593701
 30
0.0
 10
6.6533511526
 20
4.1153102082
 30
0.0
 10
6.6551472508
 20
4.1166216138
 30
0.0
 10
6.6568637064
 20
4.1182826076
 30
0.0
 10
6.6591089673
 20
4.1210312564
 30
0.0
 10
6.6616025937
 20
4.1252709608
 30
0.0
 10
6.6639766761
 20
4.1312134576
 30
0.0
 10
6.6657637639
 20
4.137979938
 30
0.0
 10
6.6668799526
 20
4.1453171407
 30
0.0
 10
6.6671641896
 20
4.1503820359
 30
0.0
 10
6.6671859297
 20
4.1529486485
 30
0.0
  0
SPLINE
  5
308
100
AcDbEntity
  8
0
100
AcDbSpline
 62
7
  6
CONTINUOUS
 70
0
 71
3
 72
16
 73
12
 74
0
 42
0.0000001
 43
0.0000001
 44
0.0000000001
 40
0.0
 40
0.0
 40
0.0
 40
0.0
 40
0.1423240346
 40
0.212837759
 40
0.2822997928
 40
0.417185452
 40
0.5459185901
 40
0.6679700093
 40
0.7835070942
 40
0.8936802563
 40
1.0
 40
1.0
 40
1.0
 40
1.0
 10
4.0823422385
 20
4.1528589846
 30
0.0
 10
4.0823033667
 20
4.1502004013
 30
0.0
 10
4.0819060583
 20
4.1462194051
 30
0.0
 10
4.0807316327
 20
4.1410732747
 30
0.0
 10
4.0791605341
 20
4.1361788092
 30
0.0
 10
4.0765077107
 20
4.1305127614
 30
0.0
 10
4.072330269
 20
4.1245953964
 30
0.0
 10
4.0673951733
 20
4.1197943854
 30
0.0
 10
4.0618949767
 20
4.1162483933
 30
0.0
 10
4.0560364369
 20
4.1140653003
 30
0.0
 10
4.0519777953
 20
4.113557255
 30
0.0
 10
4.0499915525
 20
4.1135570511
 30
0.0
  0
LINE
  5
309
100
AcDbEntity
  8
0
100
AcDbLine
 62
7
  6
CONTINUOUS
 10
6.0237523763
 20
4.1529298015
 11
6.0177745139
 21
4.4993250089
  0
SPLINE
  5
30A
100
AcDbEntity
  8
0
100
AcDbSpline
 62
7
  6
CONTINUOUS
 70
0
 71
3
 72
16
 73
12
 74
0
 42
0.0000001
 43
0.0000001
 44
0.0000000001
 40
0.0
 40
0.0
 40
0.0
 40
0.0
 40
0.123667814
 40
0.2479293798
 40
0.3724527027
 40
0.4973860986
 40
0.6226479631
 40
0.7481867374
 40
0.8111588477
 40
0.8742406843
 40
1.0
 40
1.0
 40
1.0
 40
1.0
 10
6.0658446685
 20
4.1136291538
 30
0.0
 10
6.0632219784
 20
4.113629193
 30
0.0
 10
6.0579522136
 20
4.1141171379
 30
0.0
 10
6.0503058277
 20
4.1162556721
 30
0.0
 10
6.0431454403
 20
4.119757282
 30
0.0
 10
6.0367330169
 20
4.1245291579
 30
0.0
 10
6.0313153256
 20
4.1304385435
 30
0.0
 10
6.0278464868
 20
4.1361748977
 30
0.0
 10
6.0258156883
 20
4.141118746
 30
0.0
 10
6.0243170082
 20
4.1462515819
 30
0.0
 10
6.0238023424
 20
4.1502632243
 30
0.0
 10
6.0237523546
 20
4.1529298015
 30
0.0
  0
SPLINE
  5
30B
100
AcDbEntity
  8
0
100
AcDbSpline
 62
7
  6
CONTINUOUS
 70
0
 71
3
 72
15
 73
11
 74
0
 42
0.0000001
 43
0.0000001
 44
0.0000000001
 40
0.0
 40
0.0
 40
0.0
 40
0.0
 40
0.1164258559
 40
0.2346080954
 40
0.3550460659
 40
0.4784336915
 40
0.6050880207
 40
0.7348389572
 40
0.8670447816
 40
1.0
 40
1.0
 40
1.0
 40
1.0
 10
6.1687889042
 20
4.1136291538
 30
0.0
 10
6.1665335035
 20
4.1136291569
 30
0.0
 10
6.1619745163
 20
4.1141486695
 30
0.0
 10
6.1554203486
 20
4.1163985605
 30
0.0
 10
6.1493854103
 20
4.1200722989
 30
0.0
 10
6.1440947161
 20
4.1249902812
 30
0.0
 10
6.1397445131
 20
4.130977136
 30
0.0
 10
6.1364758278
 20
4.1378042576
 30
0.0
 10
6.1344344902
 20
4.1452148029
 30
0.0
 10
6.1339131934
 20
4.1503538043
 30
0.0
 10
6.1338738404
 20
4.152929111
 30
0.0
  0
SPLINE
  5
30C
100
AcDbEntity
  8
0
100
AcDbSpline
 62
7
  6
CONTINUOUS
 70
0
 71
3
 72
18
 73
14
 74
0
 42
0.0000001
 43
0.0000001
 44
0.0000000001
 40
0.0
 40
0.0
 40
0.0
 40
0.0
 40
0.039941788
 40
0.081210229
 40
0.1247504869
 40
0.1713153976
 40
0.2214676234
 40
0.2755226956
 40
0.395552622
 40
0.5309867437
 40
0.6794691848
 40
0.837538135
 40
1.0
 40
1.0
 40
1.0
 40
1.0
 10
3.8657165354
 20
4.1135467778
 30
0.0
 10
3.8663475684
 20
4.1135468139
 30
0.0
 10
3.8676338918
 20
4.1136794071
 30
0.0
 10
3.8695287429
 20
4.1142594021
 30
0.0
 10
3.8713846555
 20
4.1152102394
 30
0.0
 10
3.8731807526
 20
4.1165216448
 30
0.0
 10
3.8748972074
 20
4.118182638
 30
0.0
 10
3.8771424684
 20
4.1209312855
 30
0.0
 10
3.8796360952
 20
4.125170989
 30
0.0
 10
3.8820101786
 20
4.1311134858
 30
0.0
 10
3.8837972675
 20
4.1378799677
 30
0.0
 10
3.8849134568
 20
4.1452171721
 30
0.0
 10
3.8851976946
 20
4.1502820686
 30
0.0
 10
3.885219435
 20
4.1528486815
 30
0.0
  0
SPLINE
  5
30D
100
AcDbEntity
  8
0
100
AcDbSpline
 62
7
  6
CONTINUOUS
 70
0
 71
3
 72
11
 73
7
 74
0
 42
0.0000001
 43
0.0000001
 44
0.0000000001
 40
0.0
 40
0.0
 40
0.0
 40
0.0
 40
0.2448415345
 40
0.4926529
 40
0.7440173538
 40
1.0
 40
1.0
 40
1.0
 40
1.0
 10
3.3970277924
 20
4.1135304759
 30
0.0
 10
3.3951496469
 20
4.1135304785
 30
0.0
 10
3.3913622811
 20
4.1138899953
 30
0.0
 10
3.385842417
 20
4.1154540745
 30
0.0
 10
3.3806167652
 20
4.1180228397
 30
0.0
 10
3.3774587092
 20
4.1203345331
 30
0.0
 10
3.3759739035
 20
4.1216194868
 30
0.0
  0
SPLINE
  5
30E
100
AcDbEntity
  8
0
100
AcDbSpline
 62
7
  6
CONTINUOUS
 70
0
 71
3
 72
14
 73
10
 74
0
 42
0.0000001
 43
0.0000001
 44
0.0000000001
 40
0.0
 40
0.0
 40
0.0
 40
0.0
 40
0.1195651509
 40
0.2409753093
 40
0.3642227408
 40
0.4891972788
 40
0.6157496106
 40
0.7435474961
 40
1.0
 40
1.0
 40
1.0
 40
1.0
 10
3.3759739035
 20
4.1216194868
 30
0.0
 10
3.3749149808
 20
4.1225358805
 30
0.0
 10
3.3728867971
 20
4.124509232
 30
0.0
 10
3.3701814308
 20
4.1278184252
 30
0.0
 10
3.3678184716
 20
4.1314560425
 30
0.0
 10
3.3658261089
 20
4.1353762103
 30
0.0
 10
3.3642360634
 20
4.1395340448
 30
0.0
 10
3.3626801081
 20
4.1453178468
 30
0.0
 10
3.3621586222
 20
4.1498271179
 30
0.0
 10
3.3621127288
 20
4.1528304331
 30
0.0
  0
SPLINE
  5
30F
100
AcDbEntity
  8
0
100
AcDbSpline
 62
7
  6
CONTINUOUS
 70
0
 71
3
 72
19
 73
15
 74
0
 42
0.0000001
 43
0.0000001
 44
0.0000000001
 40
0.0
 40
0.0
 40
0.0
 40
0.0
 40
0.1051651584
 40
0.1592558658
 40
0.214593075
 40
0.2713609169
 40
0.3297266295
 40
0.4516355452
 40
0.5154173687
 40
0.5809946444
 40
0.6482957094
 40
0.717142773
 40
0.8578904482
 40
1.0
 40
1.0
 40
1.0
 40
1.0
 10
4.1080725803
 20
4.5385579503
 30
0.0
 10
4.1095125454
 20
4.538558043
 30
0.0
 10
4.111704993
 20
4.5382483373
 30
0.0
 10
4.1144890071
 20
4.5372948502
 30
0.0
 10
4.116542043
 20
4.5362994682
 30
0.0
 10
4.1185127742
 20
4.5350388428
 30
0.0
 10
4.121033597
 20
4.5329850791
 30
0.0
 10
4.123265153
 20
4.5304617792
 30
0.0
 10
4.1251711574
 20
4.5275941756
 30
0.0
 10
4.1264594729
 20
4.5252253168
 30
0.0
 10
4.1275685864
 20
4.5226921647
 30
0.0
 10
4.1288021463
 20
4.5191033389
 30
0.0
 10
4.1298421923
 20
4.5143829541
 30
0.0
 10
4.130131242
 20
4.5105051934
 30
0.0
 10
4.1301313246
 20
4.5085593702
 30
0.0
  0
LINE
  5
310
100
AcDbEntity
  8
0
100
AcDbLine
 62
7
  6
CONTINUOUS
 10
4.0865018858
 20
4.4992559314
 11
4.1233000444
 21
4.4987337809
  0
LINE
  5
311
100
AcDbEntity
  8
0
100
AcDbLine
 62
7
  6
CONTINUOUS
 10
4.0823423735
 20
4.1528596678
 11
4.1192077539
 21
4.1523375216
  0
SPLINE
  5
312
100
AcDbEntity
  8
0
100
AcDbSpline
 62
7
  6
CONTINUOUS
 70
0
 71
3
 72
16
 73
12
 74
0
 42
0.0000001
 43
0.0000001
 44
0.0000000001
 40
0.0
 40
0.0
 40
0.0
 40
0.0
 40
0.1078165186
 40
0.2192279841
 40
0.2767931887
 40
0.3357175756
 40
0.4579938501
 40
0.586645188
 40
0.7212973133
 40
0.8601032958
 40
1.0
 40
1.0
 40
1.0
 40
1.0
 10
4.0499907023
 20
4.113557051
 30
0.0
 10
4.0514906722
 20
4.1135571446
 30
0.0
 10
4.0545518849
 20
4.113144323
 30
0.0
 10
4.0581615031
 20
4.1117018029
 30
0.0
 10
4.0608691969
 20
4.1100411478
 30
0.0
 10
4.0634920646
 20
4.1079923648
 30
0.0
 10
4.0664379752
 20
4.1048018237
 30
0.0
 10
4.0692919002
 20
4.1002266314
 30
0.0
 10
4.071391158
 20
4.0950125537
 30
0.0
 10
4.0726828496
 20
4.0893878268
 30
0.0
 10
4.0729852018
 20
4.0855047628
 30
0.0
 10
4.0729852845
 20
4.0835584854
 30
0.0
  0
SPLINE
  5
313
100
AcDbEntity
  8
0
100
AcDbSpline
 62
7
  6
CONTINUOUS
 70
0
 71
3
 72
11
 73
7
 74
0
 42
0.0000001
 43
0.0000001
 44
0.0000000001
 40
0.0
 40
0.0
 40
0.0
 40
0.0
 40
0.2448413653
 40
0.4926526883
 40
0.7440171965
 40
1.0
 40
1.0
 40
1.0
 40
1.0
 10
3.4099451897
 20
4.1135304759
 30
0.0
 10
3.4080670075
 20
4.1135304785
 30
0.0
 10
3.4042795664
 20
4.1138900102
 30
0.0
 10
3.3987595992
 20
4.1154541507
 30
0.0
 10
3.3935338617
 20
4.1180230141
 30
0.0
 10
3.3903757674
 20
4.1203347931
 30
0.0
 10
3.3888909475
 20
4.121619793
 30
0.0
  0
SPLINE
  5
314
100
AcDbEntity
  8
0
100
AcDbSpline
 62
7
  6
CONTINUOUS
 70
0
 71
3
 72
14
 73
10
 74
0
 42
0.0000001
 43
0.0000001
 44
0.0000000001
 40
0.0
 40
0.0
 40
0.0
 40
0.0
 40
0.1195652778
 40
0.2409755298
 40
0.3642230143
 40
0.4891975601
 40
0.6157498512
 40
0.7435476598
 40
1.0
 40
1.0
 40
1.0
 40
1.0
 10
3.3888909475
 20
4.121619793
 30
0.0
 10
3.3878320497
 20
4.1225361893
 30
0.0
 10
3.3858039152
 20
4.1245095408
 30
0.0
 10
3.3830986164
 20
4.1278187197
 30
0.0
 10
3.380735718
 20
4.1314563097
 30
0.0
 10
3.3787434078
 20
4.1353764387
 30
0.0
 10
3.3771534045
 20
4.1395342244
 30
0.0
 10
3.3755974907
 20
4.1453179516
 30
0.0
 10
3.3750760187
 20
4.1498271597
 30
0.0
 10
3.3750301258
 20
4.1528304331
 30
0.0
  0
SPLINE
  5
315
100
AcDbEntity
  8
0
100
AcDbSpline
 62
7
  6
CONTINUOUS
 70
0
 71
3
 72
12
 73
8
 74
0
 42
0.0000001
 43
0.0000001
 44
0.0000000001
 40
0.0
 40
0.0
 40
0.0
 40
0.0
 40
0.2728049434
 40
0.5586382206
 40
0.8139938818
 40
0.9177512132
 40
1.0
 40
1.0
 40
1.0
 40
1.0
 10
6.6441006775
 20
4.152947522
 30
0.0
 10
6.5977032781
 20
4.1528458671
 30
0.0
 10
6.5026925372
 20
4.152701538
 30
0.0
 10
6.3642519112
 20
4.1526232074
 30
0.0
 10
6.2545621495
 20
4.1526687305
 30
0.0
 10
6.1794972981
 20
4.1527901508
 30
0.0
 10
6.1478622641
 20
4.1528756986
 30
0.0
 10
6.1338738404
 20
4.152929111
 30
0.0
  0
SPLINE
  5
316
100
AcDbEntity
  8
0
100
AcDbSpline
 62
7
  6
CONTINUOUS
 70
0
 71
3
 72
12
 73
8
 74
0
 42
0.0000001
 43
0.0000001
 44
0.0000000001
 40
0.0
 40
0.0
 40
0.0
 40
0.0
 40
0.2728078615
 40
0.5586546521
 40
0.8140112346
 40
0.9177529588
 40
1.0
 40
1.0
 40
1.0
 40
1.0
 10
6.6417187138
 20
4.4993432572
 30
0.0
 10
6.5953242207
 20
4.4994394554
 30
0.0
 10
6.5003176647
 20
4.4995745409
 30
0.0
 10
6.3618842692
 20
4.4996416329
 30
0.0
 10
6.2522027836
 20
4.4995889194
 30
0.0
 10
6.1771462549
 20
4.4994647099
 30
0.0
 10
6.1455165029
 20
4.49937833
 30
0.0
 10
6.131529405
 20
4.4993250089
 30
0.0
  0
SPLINE
  5
317
100
AcDbEntity
  8
0
100
AcDbSpline
 62
7
  6
CONTINUOUS
 70
0
 71
3
 72
19
 73
15
 74
0
 42
0.0000001
 43
0.0000001
 44
0.0000000001
 40
0.0
 40
0.0
 40
0.0
 40
0.0
 40
0.0281767283
 40
0.0588542434
 40
0.0936807196
 40
0.133654803
 40
0.1793258576
 40
0.2309589285
 40
0.2885091449
 40
0.3517063214
 40
0.4935105948
 40
0.6528888448
 40
0.82410145
 40
1.0
 40
1.0
 40
1.0
 40
1.0
 10
6.0658466926
 20
4.1136291538
 30
0.0
 10
6.0655356818
 20
4.1136291628
 30
0.0
 10
6.0648827704
 20
4.1135189252
 30
0.0
 10
6.0639462483
 20
4.1130557767
 30
0.0
 10
6.0630380668
 20
4.1123154577
 30
0.0
 10
6.0621617585
 20
4.111308952
 30
0.0
 10
6.0613225651
 20
4.1100432243
 30
0.0
 10
6.0605304132
 20
4.1085258749
 30
0.0
 10
6.0597905851
 20
4.1067710324
 30
0.0
 10
6.058844168
 20
4.1040301688
 30
0.0
 10
6.0578582063
 20
4.1001233795
 30
0.0
 10
6.0570143951
 20
4.0949732432
 30
0.0
 10
6.0564927433
 20
4.0894032923
 30
0.0
 10
6.0563710251
 20
4.0855709701
 30
0.0
 10
6.0563711111
 20
4.0836294268
 30
0.0
  0
LINE
  5
318
100
AcDbEntity
  8
0
100
AcDbLine
 62
7
  6
CONTINUOUS
 10
6.0237523882
 20
4.152929111
 11
5.9891890295
 21
4.1524044068
  0
LINE
  5
319
100
AcDbEntity
  8
0
100
AcDbLine
 62
7
  6
CONTINUOUS
 10
6.0177744401
 20
4.4993250074
 11
5.983307206
 21
4.4988003094
  0
SPLINE
  5
31A
100
AcDbEntity
  8
0
100
AcDbSpline
 62
7
  6
CONTINUOUS
 70
0
 71
3
 72
19
 73
15
 74
0
 42
0.0000001
 43
0.0000001
 44
0.0000000001
 40
0.0
 40
0.0
 40
0.0
 40
0.0
 40
0.0247604453
 40
0.0524763898
 40
0.085000716
 40
0.1233417816
 40
0.1679912499
 40
0.219144971
 40
0.2766810596
 40
0.3402587022
 40
0.4837987163
 40
0.6459000782
 40
0.8204653251
 40
1.0
 40
1.0
 40
1.0
 40
1.0
 10
5.9817028857
 20
4.5386249661
 30
0.0
 10
5.9814351541
 20
4.5386249773
 30
0.0
 10
5.9808644765
 20
4.5385106054
 30
0.0
 10
5.9800611143
 20
4.5380412817
 30
0.0
 10
5.9792859477
 20
4.5372996443
 30
0.0
 10
5.9785380941
 20
4.5362940478
 30
0.0
 10
5.9778211735
 20
4.5350299164
 30
0.0
 10
5.9771439226
 20
4.5335143902
 30
0.0
 10
5.9765109153
 20
4.5317611323
 30
0.0
 10
5.9756989398
 20
4.5290157506
 30
0.0
 10
5.9748549258
 20
4.5251080178
 30
0.0
 10
5.9741329417
 20
4.519962657
 30
0.0
 10
5.9736864458
 20
4.5143961331
 30
0.0
 10
5.9735822674
 20
4.5105665925
 30
0.0
 10
5.9735823499
 20
4.5086253065
 30
0.0
  0
LINE
  5
31B
100
AcDbEntity
  8
0
100
AcDbLine
 62
7
  6
CONTINUOUS
 10
6.8592672115
 20
4.1527128825
 11
6.6671859297
 21
4.1529486485
  0
LINE
  5
31C
100
AcDbEntity
  8
0
100
AcDbLine
 62
7
  6
CONTINUOUS
 10
7.6404802706
 20
4.1528115605
 11
7.4483989889
 21
4.1530473264
  0
LINE
  5
31D
100
AcDbEntity
  8
0
100
AcDbLine
 62
7
  6
CONTINUOUS
 10
7.6487056733
 20
4.4997114364
 11
7.4566116367
 21
4.4994438128
  0
SPLINE
  5
31E
100
AcDbEntity
  8
0
100
AcDbSpline
 62
7
  6
CONTINUOUS
 70
0
 71
3
 72
17
 73
13
 74
0
 42
0.0000001
 43
0.0000001
 44
0.0000000001
 40
0.0
 40
0.0
 40
0.0
 40
0.0
 40
0.0399494122
 40
0.0814689952
 40
0.1722019616
 40
0.2228340227
 40
0.2773066957
 40
0.3978757274
 40
0.5333452363
 40
0.6813756012
 40
0.838598244
 40
1.0
 40
1.0
 40
1.0
 40
1.0
 10
7.4755521951
 20
4.5387287046
 30
0.0
 10
7.4749297889
 20
4.5386911339
 30
0.0
 10
7.4736651767
 20
4.5384866368
 30
0.0
 10
7.4711253633
 20
4.537569981
 30
0.0
 10
7.4687363627
 20
4.5359147771
 30
0.0
 10
7.4665960053
 20
4.5337286253
 30
0.0
 10
7.464419432
 20
4.5309501831
 30
0.0
 10
7.4620079415
 20
4.5267168834
 30
0.0
 10
7.459711479
 20
4.5208254921
 30
0.0
 10
7.4579855119
 20
4.5141515711
 30
0.0
 10
7.456907863
 20
4.5069368595
 30
0.0
 10
7.4566329741
 20
4.5019629158
 30
0.0
 10
7.4566116364
 20
4.4994438128
 30
0.0
  0
SPLINE
  5
31F
100
AcDbEntity
  8
0
100
AcDbSpline
 62
7
  6
CONTINUOUS
 70
0
 71
3
 72
18
 73
14
 74
0
 42
0.0000001
 43
0.0000001
 44
0.0000000001
 40
0.0
 40
0.0
 40
0.0
 40
0.0
 40
0.0399418007
 40
0.081210271
 40
0.124750569
 40
0.1713155183
 40
0.2214677766
 40
0.2755228822
 40
0.3955528496
 40
0.5309869598
 40
0.6794693296
 40
0.8375381752
 40
1.0
 40
1.0
 40
1.0
 40
1.0
 10
3.9023778983
 20
4.538546483
 30
0.0
 10
3.9017468652
 20
4.5385464469
 30
0.0
 10
3.9004605411
 20
4.5384138532
 30
0.0
 10
3.898565689
 20
4.5378338568
 30
0.0
 10
3.8967097753
 20
4.5368830181
 30
0.0
 10
3.8949136763
 20
4.5355716123
 30
0.0
 10
3.8931972201
 20
4.5339106181
 30
0.0
 10
3.8909519594
 20
4.5311619681
 30
0.0
 10
3.8884583335
 20
4.526922263
 30
0.0
 10
3.8860842519
 20
4.5209797661
 30
0.0
 10
3.8842971647
 20
4.514213287
 30
0.0
 10
3.883180976
 20
4.5068760859
 30
0.0
 10
3.8828967395
 20
4.5018111916
 30
0.0
 10
3.8828749992
 20
4.4992445793
 30
0.0
  0
SPLINE
  5
320
100
AcDbEntity
  8
0
100
AcDbSpline
 62
7
  6
CONTINUOUS
 70
0
 71
3
 72
16
 73
12
 74
0
 42
0.0000001
 43
0.0000001
 44
0.0000000001
 40
0.0
 40
0.0
 40
0.0
 40
0.0
 40
0.0430266445
 40
0.0872993129
 40
0.1822557771
 40
0.2894029843
 40
0.410262638
 40
0.5442692283
 40
0.6893586673
 40
0.8425089875
 40
1.0
 40
1.0
 40
1.0
 40
1.0
 10
4.1072754289
 20
4.5385306398
 30
0.0
 10
4.1065900047
 20
4.5384836757
 30
0.0
 10
4.1052049203
 20
4.5382647976
 30
0.0
 10
4.102437043
 20
4.5373284684
 30
0.0
 10
4.0990694588
 20
4.5351815427
 30
0.0
 10
4.0955188905
 20
4.5313888307
 30
0.0
 10
4.0924337977
 20
4.5264665447
 30
0.0
 10
4.0899060348
 20
4.520579411
 30
0.0
 10
4.0880138658
 20
4.5139245913
 30
0.0
 10
4.0868232141
 20
4.5067321013
 30
0.0
 10
4.0865253719
 20
4.5017705717
 30
0.0
 10
4.0865018858
 20
4.4992559314
 30
0.0
  0
SPLINE
  5
321
100
AcDbEntity
  8
0
100
AcDbSpline
 62
7
  6
CONTINUOUS
 70
0
 71
3
 72
11
 73
7
 74
0
 42
0.0000001
 43
0.0000001
 44
0.0000000001
 40
0.0
 40
0.0
 40
0.0
 40
0.0
 40
0.2448412249
 40
0.492652513
 40
0.7440170662
 40
1.0
 40
1.0
 40
1.0
 40
1.0
 10
3.3189555806
 20
4.5385262882
 30
0.0
 10
3.3208337942
 20
4.5385262856
 30
0.0
 10
3.3246212998
 20
4.5381667412
 30
0.0
 10
3.3301413554
 20
4.5366025481
 30
0.0
 10
3.3353671664
 20
4.5340336007
 30
0.0
 10
3.3385252937
 20
4.5317217485
 30
0.0
 10
3.3400101256
 20
4.5304367091
 30
0.0
  0
SPLINE
  5
322
100
AcDbEntity
  8
0
100
AcDbSpline
 62
7
  6
CONTINUOUS
 70
0
 71
3
 72
14
 73
10
 74
0
 42
0.0000001
 43
0.0000001
 44
0.0000000001
 40
0.0
 40
0.0
 40
0.0
 40
0.0
 40
0.119565387
 40
0.2409757193
 40
0.3642232489
 40
0.4891978008
 40
0.6157500568
 40
0.7435477993
 40
1.0
 40
1.0
 40
1.0
 40
1.0
 10
3.3400101256
 20
4.5304367091
 30
0.0
 10
3.3410690021
 20
4.5295203105
 30
0.0
 10
3.3430970946
 20
4.527546959
 30
0.0
 10
3.3458023356
 20
4.5242377924
 30
0.0
 10
3.3481651818
 20
4.5206002258
 30
0.0
 10
3.350157447
 20
4.51668013
 30
0.0
 10
3.3517474142
 20
4.512522386
 30
0.0
 10
3.3533032922
 20
4.5067387228
 30
0.0
 10
3.3538247522
 20
4.5022295686
 30
0.0
 10
3.3538706445
 20
4.4992263309
 30
0.0
  0
SPLINE
  5
323
100
AcDbEntity
  8
0
100
AcDbSpline
 62
7
  6
CONTINUOUS
 70
0
 71
3
 72
15
 73
11
 74
0
 42
0.0000001
 43
0.0000001
 44
0.0000000001
 40
0.0
 40
0.0
 40
0.0
 40
0.0
 40
0.1164258559
 40
0.2346080953
 40
0.3550460653
 40
0.4784336903
 40
0.6050880188
 40
0.7348389554
 40
0.8670447807
 40
1.0
 40
1.0
 40
1.0
 40
1.0
 10
3.3377706266
 20
4.5385262882
 30
0.0
 10
3.3400260273
 20
4.5385262851
 30
0.0
 10
3.3445850145
 20
4.5380067725
 30
0.0
 10
3.3511391822
 20
4.5357568815
 30
0.0
 10
3.3571741204
 20
4.5320831431
 30
0.0
 10
3.3624648146
 20
4.5271651608
 30
0.0
 10
3.3668150175
 20
4.521178306
 30
0.0
 10
3.3700837027
 20
4.5143511843
 30
0.0
 10
3.3721250404
 20
4.506940639
 30
0.0
 10
3.3726463373
 20
4.5018016377
 30
0.0
 10
3.3726856905
 20
4.4992263309
 30
0.0
  0
SPLINE
  5
324
100
AcDbEntity
  8
0
100
AcDbSpline
 62
7
  6
CONTINUOUS
 70
0
 71
3
 72
15
 73
11
 74
0
 42
0.0000001
 43
0.0000001
 44
0.0000000001
 40
0.0
 40
0.0
 40
0.0
 40
0.0
 40
0.1273298049
 40
0.2542841079
 40
0.3805755526
 40
0.5060001162
 40
0.6305083394
 40
0.7541819668
 40
0.8772536329
 40
1.0
 40
1.0
 40
1.0
 40
1.0
 10
5.9833072059
 20
4.4988003094
 30
0.0
 10
5.98329619
 20
4.4994494458
 30
0.0
 10
5.9831507741
 20
4.5007470743
 30
0.0
 10
5.9825710573
 20
4.5026106717
 30
0.0
 10
5.9816525972
 20
4.504322625
 30
0.0
 10
5.980431217
 20
4.5058173627
 30
0.0
 10
5.9789542159
 20
4.5070395003
 30
0.0
 10
5.9772775876
 20
4.5079446887
 30
0.0
 10
5.9754651182
 20
4.5085003603
 30
0.0
 10
5.9742082097
 20
4.50862536
 30
0.0
 10
5.9735823499
 20
4.5086253065
 30
0.0
  0
LINE
  5
325
100
AcDbEntity
  8
0
100
AcDbLine
 62
7
  6
CONTINUOUS
 10
5.9891890295
 20
4.1524044068
 11
5.9833072059
 21
4.4988003094
  0
LINE
  5
326
100
AcDbEntity
  8
0
100
AcDbLine
 62
7
  6
CONTINUOUS
 10
6.8674926142
 20
4.4996127584
 11
6.6753985776
 21
4.4993451349
  0
SPLINE
  5
327
100
AcDbEntity
  8
0
100
AcDbSpline
 62
7
  6
CONTINUOUS
 70
0
 71
3
 72
17
 73
13
 74
0
 42
0.0000001
 43
0.0000001
 44
0.0000000001
 40
0.0
 40
0.0
 40
0.0
 40
0.0
 40
0.1215124035
 40
0.18272953
 40
0.2441358633
 40
0.3675019547
 40
0.4920579003
 40
0.6177684204
 40
0.7444728812
 40
0.8082471007
 40
0.8722156939
 40
1.0
 40
1.0
 40
1.0
 40
1.0
 10
6.0563711111
 20
4.0836294268
 30
0.0
 10
6.0520647755
 20
4.0836293466
 30
0.0
 10
6.0455656046
 20
4.0843044657
 30
0.0
 10
6.0371796217
 20
4.0864742507
 30
0.0
 10
6.0289893982
 20
4.0894996649
 30
0.0
 10
6.0193178157
 20
4.0948229703
 30
0.0
 10
6.0091213698
 20
4.1033977416
 30
0.0
 10
6.0006672955
 20
4.1138457001
 30
0.0
 10
5.9953681286
 20
4.1238020552
 30
0.0
 10
5.9922944274
 20
4.1322924833
 30
0.0
 10
5.9900329771
 20
4.1410712186
 30
0.0
 10
5.9892662001
 20
4.1478764558
 30
0.0
 10
5.9891890295
 20
4.1524044068
 30
0.0
  0
SPLINE
  5
328
100
AcDbEntity
  8
0
100
AcDbSpline
 62
7
  6
CONTINUOUS
 70
0
 71
3
 72
18
 73
14
 74
0
 42
0.0000001
 43
0.0000001
 44
0.0000000001
 40
0.0
 40
0.0
 40
0.0
 40
0.0
 40
0.0399418005
 40
0.0812102703
 40
0.1247505673
 40
0.1713155156
 40
0.2214677728
 40
0.2755228773
 40
0.395552843
 40
0.5309869532
 40
0.6794693251
 40
0.837538174
 40
1.0
 40
1.0
 40
1.0
 40
1.0
 10
6.6612216129
 20
4.5386451609
 30
0.0
 10
6.6605905798
 20
4.5386451249
 30
0.0
 10
6.6593042557
 20
4.5385125311
 30
0.0
 10
6.6574094036
 20
4.5379325348
 30
0.0
 10
6.65555349
 20
4.5369816961
 30
0.0
 10
6.653757391
 20
4.5356702903
 30
0.0
 10
6.6520409349
 20
4.5340092961
 30
0.0
 10
6.6497956741
 20
4.5312606462
 30
0.0
 10
6.6473020482
 20
4.5270209412
 30
0.0
 10
6.6449279665
 20
4.5210784443
 30
0.0
 10
6.6431408793
 20
4.5143119651
 30
0.0
 10
6.6420246906
 20
4.5069747639
 30
0.0
 10
6.641740454
 20
4.5019098696
 30
0.0
 10
6.6417187138
 20
4.4993432572
 30
0.0
  0
SPLINE
  5
329
100
AcDbEntity
  8
0
100
AcDbSpline
 62
7
  6
CONTINUOUS
 70
0
 71
3
 72
18
 73
14
 74
0
 42
0.0000001
 43
0.0000001
 44
0.0000000001
 40
0.0
 40
0.0
 40
0.0
 40
0.0
 40
0.0399417971
 40
0.0812102558
 40
0.1247505367
 40
0.1713154693
 40
0.2214677132
 40
0.2755228038
 40
0.395552752
 40
0.5309868662
 40
0.6794692668
 40
0.8375381584
 40
1.0
 40
1.0
 40
1.0
 40
1.0
 10
6.6949014767
 20
4.5386470386
 30
0.0
 10
6.6942704436
 20
4.5386470025
 30
0.0
 10
6.6929841197
 20
4.538514409
 30
0.0
 10
6.691089268
 20
4.5379344133
 30
0.0
 10
6.6892333548
 20
4.5369835752
 30
0.0
 10
6.6874372565
 20
4.5356721696
 30
0.0
 10
6.6857208009
 20
4.5340111758
 30
0.0
 10
6.68347554
 20
4.531262527
 30
0.0
 10
6.6809819136
 20
4.5270228226
 30
0.0
 10
6.6786078312
 20
4.5210803257
 30
0.0
 10
6.6768207434
 20
4.5143138454
 30
0.0
 10
6.6757045547
 20
4.5069766427
 30
0.0
 10
6.6754203178
 20
4.5019117475
 30
0.0
 10
6.6753985776
 20
4.4993451349
 30
0.0
  0
SPLINE
  5
32A
100
AcDbEntity
  8
0
100
AcDbSpline
 62
7
  6
CONTINUOUS
 70
0
 71
3
 72
13
 73
9
 74
0
 42
0.0000001
 43
0.0000001
 44
0.0000000001
 40
0.0
 40
0.0
 40
0.0
 40
0.0
 40
0.2677237937
 40
0.5207499087
 40
0.6430509444
 40
0.7632777083
 40
0.88205347
 40
1.0
 40
1.0
 40
1.0
 40
1.0
 10
6.6938593109
 20
4.1064909955
 30
0.0
 10
6.6914690303
 20
4.1030148797
 30
0.0
 10
6.6861637508
 20
4.0966682817
 30
0.0
 10
6.6780325257
 20
4.0904556737
 30
0.0
 10
6.6710379989
 20
4.0869417813
 30
0.0
 10
6.6656464606
 20
4.0850609138
 30
0.0
 10
6.6601226492
 20
4.0839206443
 30
0.0
 10
6.6563877448
 20
4.0836630204
 30
0.0
 10
6.6545292154
 20
4.0836627738
 30
0.0
  0
SPLINE
  5
32B
100
AcDbEntity
  8
0
100
AcDbSpline
 62
7
  6
CONTINUOUS
 70
0
 71
3
 72
15
 73
11
 74
0
 42
0.0000001
 43
0.0000001
 44
0.0000000001
 40
0.0
 40
0.0
 40
0.0
 40
0.0
 40
0.1164258562
 40
0.2346080956
 40
0.3550460654
 40
0.4784336901
 40
0.6050880185
 40
0.734838955
 40
0.8670447805
 40
1.0
 40
1.0
 40
1.0
 40
1.0
 10
6.0966143412
 20
4.5386249661
 30
0.0
 10
6.0988697419
 20
4.538624963
 30
0.0
 10
6.1034287291
 20
4.5381054504
 30
0.0
 10
6.1099828968
 20
4.5358555594
 30
0.0
 10
6.116017835
 20
4.532181821
 30
0.0
 10
6.121308529
 20
4.5272638387
 30
0.0
 10
6.1256587319
 20
4.5212769839
 30
0.0
 10
6.1289274171
 20
4.5144498623
 30
0.0
 10
6.1309687548
 20
4.507039317
 30
0.0
 10
6.1314900517
 20
4.5019003156
 30
0.0
 10
6.1315294049
 20
4.4993250089
 30
0.0
  0
SPLINE
  5
32C
100
AcDbEntity
  8
0
100
AcDbSpline
 62
7
  6
CONTINUOUS
 70
0
 71
3
 72
16
 73
12
 74
0
 42
0.0000001
 43
0.0000001
 44
0.0000000001
 40
0.0
 40
0.0
 40
0.0
 40
0.0
 40
0.0376213294
 40
0.0761463821
 40
0.1593784376
 40
0.2558085549
 40
0.3688311301
 40
0.4998841269
 40
0.6492798521
 40
0.8164227555
 40
1.0
 40
1.0
 40
1.0
 40
1.0
 10
3.7388279871
 20
4.0835584854
 30
0.0
 10
3.7384131363
 20
4.0835585369
 30
0.0
 10
3.737571584
 20
4.0836354676
 30
0.0
 10
3.7358693124
 20
4.0841031379
 30
0.0
 10
3.7337478798
 20
4.0853175909
 30
0.0
 10
3.7314201069
 20
4.0875854594
 30
0.0
 10
3.729236502
 20
4.0906580798
 30
0.0
 10
3.7271995314
 20
4.0944989735
 30
0.0
 10
3.7253251604
 20
4.0990715094
 30
0.0
 10
3.7236292527
 20
4.104323352
 30
0.0
 10
3.7226685686
 20
4.1080719645
 30
0.0
 10
3.7222149145
 20
4.1100447856
 30
0.0
  0
SPLINE
  5
32D
100
AcDbEntity
  8
0
100
AcDbSpline
 62
7
  6
CONTINUOUS
 70
0
 71
3
 72
19
 73
15
 74
0
 42
0.0000001
 43
0.0000001
 44
0.0000000001
 40
0.0
 40
0.0
 40
0.0
 40
0.0
 40
0.1491906454
 40
0.2952580889
 40
0.3660892707
 40
0.4350453001
 40
0.5663026477
 40
0.6877675838
 40
0.7447638752
 40
0.7993768322
 40
0.8518424187
 40
0.9024943334
 40
0.9517269007
 40
1.0
 40
1.0
 40
1.0
 40
1.0
 10
4.1192076813
 20
4.1523375216
 30
0.0
 10
4.1191543679
 20
4.1478236635
 30
0.0
 10
4.1184588579
 20
4.1388873842
 30
0.0
 10
4.116141712
 20
4.1280178988
 30
0.0
 10
4.1134344383
 20
4.1197955607
 30
0.0
 10
4.1103008402
 20
4.1122098482
 30
0.0
 10
4.1055571148
 20
4.1036606904
 30
0.0
 10
4.0996186071
 20
4.0963299168
 30
0.0
 10
4.0943624807
 20
4.0916090601
 30
0.0
 10
4.0903118469
 20
4.0887188681
 30
0.0
 10
4.0861060776
 20
4.0864357544
 30
0.0
 10
4.081785282
 20
4.0847878966
 30
0.0
 10
4.0774006213
 20
4.0837868916
 30
0.0
 10
4.0744459197
 20
4.0835586286
 30
0.0
 10
4.0729852845
 20
4.0835584854
 30
0.0
  0
LINE
  5
32E
100
AcDbEntity
  8
0
100
AcDbLine
 62
7
  6
CONTINUOUS
 10
4.1233000444
 20
4.4987337809
 11
4.1192076813
 21
4.1523375216
  0
ENDSEC
  0
SECTION
  2
OBJECTS
  0
DICTIONARY
  5
C
100
AcDbDictionary
280
0
281
1
  3
ACAD_GROUP
350
D
  3
ACAD_MLINESTYLE
350
17
  3
ACAD_LAYOUT
350
1A
  3
ACAD_PLOTSETTINGS
350
19
  3
ACAD_PLOTSTYLENAME
350
E
  0
DICTIONARY
  5
D
102
{ACAD_REACTORS
330
C
102
}
100
AcDbDictionary
280
0
281
1
  0
ACDBDICTIONARYWDFLT
  5
E
102
{ACAD_REACTORS
330
C
102
}
100
AcDbDictionary
281
1
  3
Normal
350
F
100
AcDbDictionaryWithDefault
340
F
  0
DICTIONARY
  5
17
102
{ACAD_REACTORS
330
C
102
}
100
AcDbDictionary
280
0
281
1
  3
Standard
350
18
  0
DICTIONARY
  5
19
102
{ACAD_REACTORS
330
C
102
}
100
AcDbDictionary
281
1
  0
DICTIONARY
  5
1A
102
{ACAD_REACTORS
330
C
102
}
100
AcDbDictionary
281
1
  3
Model
350
32F
  3
Layout1
350
330
  0
ACDBPLACEHOLDER
  5
F
102
{ACAD_REACTORS
330
E
102
}
  0
MLINESTYLE
  5
18
102
{ACAD_REACTORS
330
17
102
}
100
AcDbMlineStyle
  2
STANDARD
 70
0
  3

 62
256
 51
90.0
 52
90.0
 71
2
 49
0.5
 62
256
  6
BYLAYER
 49
-0.5
 62
256
  6
BYLAYER
  0
LAYOUT
  5
32F
102
{ACAD_REACTORS
330
1A
102
}
100
AcDbPlotSettings
  1

  2
none_device
  4
ANSI_A_(11.00_x_8.50_Inches)
  6

 40
0.0
 41
0.0
 42
0.0
 43
0.0
 44
279.4
 45
215.9
 46
0.0
 47
0.0
 48
0.0
 49
0.0
140
0.0
141
0.0
142
1.0
143
1.0
 70
1024
 72
0
 73
0
 74
0
  7

 75
0
147
1.0
148
0.0
149
0.0
100
AcDbLayout
  1
Model
 70
0
 71
0
 10
0.0
 20
0.0
 11
11.0
 21
8.5
 12
0.0
 22
0.0
 32
0.0
 14
0.0
 24
0.0
 34
0.0
 15
0.0
 25
0.0
 35
0.0
146
0.0
 13
0.0
 23
0.0
 33
0.0
 16
1.0
 26
0.0
 36
0.0
 17
0.0
 27
1.0
 37
0.0
 76
0
330
208
345
0
346
0
  0
LAYOUT
  5
330
102
{ACAD_REACTORS
330
1A
102
}
100
AcDbPlotSettings
  1

  2
none_device
  4
ANSI_A_(11.00_x_8.50_Inches)
  6

 40
0.0
 41
0.0
 42
0.0
 43
0.0
 44
279.4
 45
215.9
 46
0.0
 47
0.0
 48
0.0
 49
0.0
140
0.0
141
0.0
142
1.0
143
1.0
 70
0
 72
0
 73
0
 74
0
  7

 75
0
147
1.0
148
0.0
149
0.0
100
AcDbLayout
  1
Layout1
 70
0
 71
1
 10
0.0
 20
0.0
 11
11.0
 21
8.5
 12
0.0
 22
0.0
 32
0.0
 14
0.0
 24
0.0
 34
0.0
 15
0.0
 25
0.0
 35
0.0
146
0.0
 13
0.0
 23
0.0
 33
0.0
 16
1.0
 26
0.0
 36
0.0
 17
0.0
 27
1.0
 37
0.0
 76
0
330
209
345
0
346
0
  0
ENDSEC
  0
EOF
