999
DXF file: 278p-02_front.dxf
999
Pro/ENGINEER 2013150 by Parametric Technology Corporation
  0
SECTION
  2
HEADER
  9
$ACADVER
  1
AC1021
  9
$DWGCODEPAGE
  3
ANSI_1252
  9
$EXTMAX
 10
11.0
 20
8.5
 30
0.0
  9
$EXTMIN
 10
0.0
 20
0.0
 30
0.0
  9
$LIMMIN
 10
0.0
 20
0.0
  9
$LIMMAX
 10
11.0
 20
8.5
  9
$VIEWCTR
 10
5.5
 20
4.25
  9
$VIEWSIZE
 40
8.5
  9
$CLAYER
  8
0
  9
$LTSCALE
 40
0.605
  9
$CELTYPE
  6
BYLAYER
  9
$DIMSCALE
 40
1.0
  9
$DIMASZ
 40
0.1
  9
$DIMEXO
 40
0.0625
  9
$DIMDLI
 40
0.418
  9
$DIMEXE
 40
0.125
  9
$DIMCEN
 40
0.099
  9
$DIMLFAC
 40
1.0
  9
$DIMBLK
  1
_FILLED
  9
$DIMTXT
 40
0.08
  9
$DIMTOL
 70
1
  9
$DIMLIM
 70
0
  9
$DIMTFAC
 40
1.0
  9
$DIMTP
 40
0.001
  9
$DIMTM
 40
0.001
  9
$DIMGAP
 40
0.09
  9
$DIMDSEP
 70
46
  9
$PDMODE
 70
3
  9
$PDSIZE
 40
0.06
  9
$HANDSEED
  5
366
  9
$TILEMODE
 70
1
  9
$MEASUREMENT
 70
0
  9
$INSUNITS
 70
1
  0
ENDSEC
  0
SECTION
  2
CLASSES
  0
CLASS
  1
ACDBDICTIONARYWDFLT
  2
AcDbDictionaryWithDefault
  3
AutoCAD 2000
 90
0
 91
1
280
0
281
0
  0
CLASS
  1
ACDBPLACEHOLDER
  2
AcDbPlaceHolder
  3
AutoCAD 2000
 90
0
 91
1
280
0
281
0
  0
CLASS
  1
LAYOUT
  2
AcDbLayout
  3
AutoCAD 2000
 90
0
 91
0
280
0
281
0
  0
ENDSEC
  0
SECTION
  2
TABLES
  0
TABLE
  2
VPORT
  5
8
100
AcDbSymbolTable
 70
2
  0
VPORT
  5
1F4
100
AcDbSymbolTableRecord
100
AcDbViewportTableRecord
  2
*ACTIVE
 70
0
 10
0.0
 20
0.0
 11
1.0
 21
1.0
 12
5.5
 22
4.25
 13
0.0
 23
0.0
 14
1.0
 24
1.0
 15
0.0
 25
0.0
 16
0.0
 26
0.0
 36
1.0
 17
0.0
 27
0.0
 37
0.0
 40
8.5
 41
1.2941176471
 42
50.0
 43
0.0
 44
0.0
 50
0.0
 51
0.0
 71
0
 72
100
 73
1
 74
1
 75
0
 76
0
 77
0
 78
0
  0
ENDTAB
  0
TABLE
  2
LTYPE
  5
5
100
AcDbSymbolTable
 70
6
  0
LTYPE
  5
14
100
AcDbSymbolTableRecord
100
AcDbLinetypeTableRecord
  2
BYBLOCK
 70
0
  3

 72
65
 73
0
 40
0.0
  0
LTYPE
  5
15
100
AcDbSymbolTableRecord
100
AcDbLinetypeTableRecord
  2
BYLAYER
 70
0
  3

 72
65
 73
0
 40
0.0
  0
LTYPE
  5
16
100
AcDbSymbolTableRecord
100
AcDbLinetypeTableRecord
  2
CONTINUOUS
 70
64
  3
Solid line
 72
65
 73
0
 40
0.0
  0
LTYPE
  5
1F5
100
AcDbSymbolTableRecord
100
AcDbLinetypeTableRecord
  2
CENTER
 70
64
  3
____ _ ____ _ ____ _ ____ _ ____ _ ____ _ ____
 72
65
 73
4
 40
0.6
 49
0.375
 74
0
 49
-0.075
 74
0
 49
0.075
 74
0
 49
-0.075
 74
0
  0
LTYPE
  5
1F6
100
AcDbSymbolTableRecord
100
AcDbLinetypeTableRecord
  2
HIDDEN
 70
64
  3
- - - - - - - - - - - - - - - - - - - -
 72
65
 73
2
 40
0.2
 49
0.1
 74
0
 49
-0.1
 74
0
  0
LTYPE
  5
1F7
100
AcDbSymbolTableRecord
100
AcDbLinetypeTableRecord
  2
PHANTOM
 70
64
  3
_____ _ _ _____ _ _ _____ _ _ _____
 72
65
 73
6
 40
0.8
 49
0.45
 74
0
 49
-0.05
 74
0
 49
0.1
 74
0
 49
-0.05
 74
0
 49
0.1
 74
0
 49
-0.05
 74
0
  0
LTYPE
  5
1F8
100
AcDbSymbolTableRecord
100
AcDbLinetypeTableRecord
  2
DOT
 70
64
  3
. . . . . . . . . . . . . . . . . . . .
 72
65
 73
2
 40
0.2
 49
0.1
 74
0
 49
-0.1
 74
0
  0
LTYPE
  5
1F9
100
AcDbSymbolTableRecord
100
AcDbLinetypeTableRecord
  2
DASHED
 70
64
  3
- - - - - - - - - - - - - - - - - - - -
 72
65
 73
2
 40
0.2
 49
0.1
 74
0
 49
-0.1
 74
0
  0
ENDTAB
  0
TABLE
  2
LAYER
  5
2
100
AcDbSymbolTable
 70
36
  0
LAYER
  5
10
100
AcDbSymbolTableRecord
100
AcDbLayerTableRecord
  2
0
 70
0
 62
7
  6
CONTINUOUS
370
-3
390
F
  0
LAYER
  5
1FA
100
AcDbSymbolTableRecord
100
AcDbLayerTableRecord
  2
DEFAULT_1
 70
0
 62
7
  6
CENTER
370
-3
390
F
  0
LAYER
  5
1FB
100
AcDbSymbolTableRecord
100
AcDbLayerTableRecord
  2
DEFAULT_2
 70
0
 62
8
  6
HIDDEN
370
-3
390
F
  0
LAYER
  5
1FC
100
AcDbSymbolTableRecord
100
AcDbLayerTableRecord
  2
DEFAULT_3
 70
0
 62
7
  6
PHANTOM
370
-3
390
F
  0
LAYER
  5
1FD
100
AcDbSymbolTableRecord
100
AcDbLayerTableRecord
  2
ALL_FEATURES
 70
0
 62
7
  6
CONTINUOUS
370
-3
390
F
  0
LAYER
  5
1FE
100
AcDbSymbolTableRecord
100
AcDbLayerTableRecord
  2
AXES_FEATURES
 70
0
 62
7
  6
CONTINUOUS
370
-3
390
F
  0
LAYER
  5
1FF
100
AcDbSymbolTableRecord
100
AcDbLayerTableRecord
  2
DEFAULT_COORDINATE_SYSTEM
 70
0
 62
7
  6
CONTINUOUS
370
-3
390
F
  0
LAYER
  5
200
100
AcDbSymbolTableRecord
100
AcDbLayerTableRecord
  2
DEFAULT_DATUM_AXES
 70
0
 62
7
  6
CONTINUOUS
370
-3
390
F
  0
LAYER
  5
201
100
AcDbSymbolTableRecord
100
AcDbLayerTableRecord
  2
DEFAULT_DATUM_CURVES
 70
0
 62
7
  6
CONTINUOUS
370
-3
390
F
  0
LAYER
  5
202
100
AcDbSymbolTableRecord
100
AcDbLayerTableRecord
  2
DEFAULT_DATUM_PLANES
 70
0
 62
7
  6
CONTINUOUS
370
-3
390
F
  0
LAYER
  5
203
100
AcDbSymbolTableRecord
100
AcDbLayerTableRecord
  2
DEFAULT_SURFACES
 70
0
 62
7
  6
CONTINUOUS
370
-3
390
F
  0
LAYER
  5
204
100
AcDbSymbolTableRecord
100
AcDbLayerTableRecord
  2
DIMENSIONS
 70
0
 62
7
  6
CONTINUOUS
370
-3
390
F
  0
LAYER
  5
205
100
AcDbSymbolTableRecord
100
AcDbLayerTableRecord
  2
PATTERN_DATUMS
 70
0
 62
7
  6
CONTINUOUS
370
-3
390
F
  0
ENDTAB
  0
TABLE
  2
STYLE
  5
3
100
AcDbSymbolTable
 70
1
  0
STYLE
  5
11
100
AcDbSymbolTableRecord
100
AcDbTextStyleTableRecord
  2
STANDARD
 70
0
 40
0.0
 41
0.8
 50
0.0
 71
0
 42
0.2
  3
txt
  4

  0
STYLE
  5
206
100
AcDbSymbolTableRecord
100
AcDbTextStyleTableRecord
  2
TEXTSTYLE_1
 70
0
 40
0.0
 41
0.8
 50
0.0
 71
0
 42
0.2
  3
gdt
  4

  0
ENDTAB
  0
TABLE
  2
VIEW
  5
6
100
AcDbSymbolTable
 70
0
  0
ENDTAB
  0
TABLE
  2
UCS
  5
7
100
AcDbSymbolTable
 70
0
  0
ENDTAB
  0
TABLE
  2
APPID
  5
9
100
AcDbSymbolTable
 70
1
  0
APPID
  5
207
100
AcDbSymbolTableRecord
100
AcDbRegAppTableRecord
  2
ACAD
 70
0
  0
ENDTAB
  0
TABLE
  2
BLOCK_RECORD
  5
1
100
AcDbSymbolTable
 70
0
  0
BLOCK_RECORD
  5
208
100
AcDbSymbolTableRecord
100
AcDbBlockTableRecord
  2
*Model_Space
  0
BLOCK_RECORD
  5
209
100
AcDbSymbolTableRecord
100
AcDbBlockTableRecord
  2
*Paper_Space
  0
ENDTAB
  0
TABLE
  2
DIMSTYLE
  5
A
100
AcDbSymbolTable
 70
1
100
AcDbDimStyleTable
 71
0
  0
DIMSTYLE
105
20A
100
AcDbSymbolTableRecord
100
AcDbDimStyleTableRecord
  2
STANDARD
 70
0
  3

  4

 40
1.0
 41
0.1
 42
0.0625
 43
0.38
 44
0.125
 45
0.0
 46
0.0
 47
0.001
 48
0.001
140
0.08
141
0.09
142
0.0
143
25.4
144
1.0
145
0.0
146
1.0
147
0.09
 71
1.0
 72
0.0
 73
1
 74
1
 75
0
 76
0
 77
0
 78
4
170
0
171
2
172
0
173
0
174
0
175
0
176
0
177
0
178
0
270
2
271
3
272
3
273
2
274
2
275
0
280
0
281
0
282
0
283
1
284
4
285
0
286
0
287
3
288
0
340
11
278
46
  0
ENDTAB
  0
ENDSEC
  0
SECTION
  2
BLOCKS
  0
BLOCK
  5
20
100
AcDbEntity
  8
0
100
AcDbBlockBegin
  2
*Model_Space
 70
0
 10
0.0
 20
0.0
 30
0.0
  3
*Model_Space
  1

  0
ENDBLK
  5
21
100
AcDbEntity
  8
0
100
AcDbBlockEnd
  0
BLOCK
  5
1C
100
AcDbEntity
  8
0
100
AcDbBlockBegin
  2
*Paper_Space
 70
0
 10
0.0
 20
0.0
 30
0.0
  3
*Paper_Space
  1

  0
ENDBLK
  5
1D
100
AcDbEntity
  8
0
100
AcDbBlockEnd
  0
ENDSEC
  0
SECTION
  2
ENTITIES
  0
MTEXT
  5
20B
100
AcDbEntity
  8
0
100
AcDbMText
 62
2
  6
CONTINUOUS
  7
STANDARD
 71
3
 72
1
 10
5.7484543279
 20
-0.891102425
 30
0.0
 11
1.0
 21
0.0
 31
0.0
 44
0.9
  1
SCALE  1.000
 40
0.08
 41
0.768
  0
LINE
  5
20C
100
AcDbEntity
  8
0
100
AcDbLine
 62
7
  6
CONTINUOUS
 10
0.0
 20
0.0
 11
0.0
 21
8.5
  0
LINE
  5
20D
100
AcDbEntity
  8
0
100
AcDbLine
 62
7
  6
CONTINUOUS
 10
0.0
 20
0.0
 11
11.0
 21
0.0
  0
LINE
  5
20E
100
AcDbEntity
  8
0
100
AcDbLine
 62
7
  6
CONTINUOUS
 10
0.0
 20
8.5
 11
11.0
 21
8.5
  0
LINE
  5
20F
100
AcDbEntity
  8
0
100
AcDbLine
 62
7
  6
CONTINUOUS
 10
11.0
 20
0.0
 11
11.0
 21
8.5
  0
LINE
  5
210
100
AcDbEntity
  8
0
100
AcDbLine
 62
7
  6
CONTINUOUS
 10
1.1999616164
 20
5.6174497175
 11
1.1999681616
 21
5.3674497188
  0
LINE
  5
211
100
AcDbEntity
  8
0
100
AcDbLine
 62
7
  6
CONTINUOUS
 10
1.2625852283
 20
5.9466992698
 11
1.2625852283
 21
5.6634128836
  0
LINE
  5
212
100
AcDbEntity
  8
0
100
AcDbLine
 62
7
  6
CONTINUOUS
 10
1.3684165772
 20
5.9466992698
 11
1.3684165772
 21
5.8847165683
  0
LINE
  5
213
100
AcDbEntity
  8
0
100
AcDbLine
 62
7
  6
CONTINUOUS
 10
1.4331213385
 20
5.9466992698
 11
1.4331213385
 21
5.8847165683
  0
LINE
  5
214
100
AcDbEntity
  8
0
100
AcDbLine
 62
7
  6
CONTINUOUS
 10
2.1910462307
 20
5.253729234
 11
2.2584692296
 21
4.3394985198
  0
LINE
  5
215
100
AcDbEntity
  8
0
100
AcDbLine
 62
7
  6
CONTINUOUS
 10
2.1680360506
 20
5.2645485475
 11
2.2363390716
 21
4.338232023
  0
LINE
  5
216
100
AcDbEntity
  8
0
100
AcDbLine
 62
7
  6
CONTINUOUS
 10
2.3471511612
 20
5.7253955851
 11
2.3471511612
 21
5.6634128836
  0
LINE
  5
217
100
AcDbEntity
  8
0
100
AcDbLine
 62
7
  6
CONTINUOUS
 10
2.5239278565
 20
5.7253955851
 11
2.5239278565
 21
5.6634128836
  0
LINE
  5
218
100
AcDbEntity
  8
0
100
AcDbLine
 62
7
  6
CONTINUOUS
 10
2.5624760441
 20
5.0663880613
 11
2.5624949964
 21
4.3424853953
  0
LINE
  5
219
100
AcDbEntity
  8
0
100
AcDbLine
 62
7
  6
CONTINUOUS
 10
2.6824965672
 20
4.2824885373
 11
2.6825150246
 21
3.5774885409
  0
LINE
  5
21A
100
AcDbEntity
  8
0
100
AcDbLine
 62
7
  6
CONTINUOUS
 10
3.1191677978
 20
5.6175560767
 11
3.1191677978
 21
5.619323507
  0
LINE
  5
21B
100
AcDbEntity
  8
0
100
AcDbLine
 62
7
  6
CONTINUOUS
 10
2.9094107092
 20
6.6175560767
 11
2.8875852283
 21
5.9925560767
  0
LINE
  5
21C
100
AcDbEntity
  8
0
100
AcDbLine
 62
7
  6
CONTINUOUS
 10
4.2926899839
 20
6.2992704578
 11
4.2926837458
 21
6.2992675492
  0
LINE
  5
21D
100
AcDbEntity
  8
0
100
AcDbLine
 62
7
  6
CONTINUOUS
 10
6.6203934554
 20
1.9675626088
 11
6.6525592654
 21
1.9675924965
  0
LINE
  5
21E
100
AcDbEntity
  8
0
100
AcDbLine
 62
7
  6
CONTINUOUS
 10
3.8125556043
 20
2.027518133
 11
6.7125556033
 21
2.0275940571
  0
LINE
  5
21F
100
AcDbEntity
  8
0
100
AcDbLine
 62
7
  6
CONTINUOUS
 10
3.8727711316
 20
1.9675173584
 11
6.6204780221
 21
1.9675626371
  0
LINE
  5
220
100
AcDbEntity
  8
0
100
AcDbLine
 62
7
  6
CONTINUOUS
 10
3.872555084
 20
1.9675196943
 11
3.8727711316
 21
1.9675173584
  0
LINE
  5
221
100
AcDbEntity
  8
0
100
AcDbLine
 62
7
  6
CONTINUOUS
 10
3.8125181659
 20
3.4575181257
 11
3.8125556043
 21
2.027518133
  0
LINE
  5
222
100
AcDbEntity
  8
0
100
AcDbLine
 62
7
  6
CONTINUOUS
 10
4.0747742748
 20
5.3189879818
 11
4.1335841758
 21
4.3386181635
  0
LINE
  5
223
100
AcDbEntity
  8
0
100
AcDbLine
 62
7
  6
CONTINUOUS
 10
4.1251454987
 20
5.3216429148
 11
4.1841033891
 21
4.3390647678
  0
LINE
  5
224
100
AcDbEntity
  8
0
100
AcDbLine
 62
7
  6
CONTINUOUS
 10
4.1989280641
 20
6.0367746977
 11
4.198926059
 21
5.9925560767
  0
LINE
  5
225
100
AcDbEntity
  8
0
100
AcDbLine
 62
7
  6
CONTINUOUS
 10
4.2926899675
 20
6.2992704424
 11
4.2926780641
 21
6.0367470514
  0
LINE
  5
226
100
AcDbEntity
  8
0
100
AcDbLine
 62
7
  6
CONTINUOUS
 10
4.2979587595
 20
6.0367452641
 11
4.2979699086
 21
6.2826096718
  0
LINE
  5
227
100
AcDbEntity
  8
0
100
AcDbLine
 62
7
  6
CONTINUOUS
 10
4.0743550054
 20
5.322078908
 11
4.0747696685
 21
5.3190667244
  0
LINE
  5
228
100
AcDbEntity
  8
0
100
AcDbLine
 62
7
  6
CONTINUOUS
 10
4.3830488841
 20
6.2977503344
 11
4.3830401938
 21
6.1061080922
  0
LINE
  5
229
100
AcDbEntity
  8
0
100
AcDbLine
 62
7
  6
CONTINUOUS
 10
4.4523309164
 20
6.2977404233
 11
4.4523222261
 21
6.1060981811
  0
LINE
  5
22A
100
AcDbEntity
  8
0
100
AcDbLine
 62
7
  6
CONTINUOUS
 10
4.5374085176
 20
6.2825754191
 11
4.5373973686
 21
6.0367110114
  0
LINE
  5
22B
100
AcDbEntity
  8
0
100
AcDbLine
 62
7
  6
CONTINUOUS
 10
4.5479587594
 20
6.0367105325
 11
4.5479699084
 21
6.2825749402
  0
LINE
  5
22C
100
AcDbEntity
  8
0
100
AcDbLine
 62
7
  6
CONTINUOUS
 10
4.6758564784
 20
5.6171479964
 11
4.6759193264
 21
5.6175560767
  0
LINE
  5
22D
100
AcDbEntity
  8
0
100
AcDbLine
 62
7
  6
CONTINUOUS
 10
7.7825165322
 20
3.5176220626
 11
7.6889157608
 21
3.5175533339
  0
LINE
  5
22E
100
AcDbEntity
  8
0
100
AcDbLine
 62
7
  6
CONTINUOUS
 10
6.7125181649
 20
3.4575940498
 11
6.2975046434
 21
3.457484039
  0
LINE
  5
22F
100
AcDbEntity
  8
0
100
AcDbLine
 62
7
  6
CONTINUOUS
 10
6.2975046434
 20
3.457484039
 11
4.2402597816
 21
3.4574289099
  0
LINE
  5
230
100
AcDbEntity
  8
0
100
AcDbLine
 62
7
  6
CONTINUOUS
 10
6.7439492364
 20
3.5173956885
 11
7.6889157608
 21
3.5175533339
  0
LINE
  5
231
100
AcDbEntity
  8
0
100
AcDbLine
 62
7
  6
CONTINUOUS
 10
2.6825150246
 20
3.5774885409
 11
7.8425150228
 21
3.5776236334
  0
LINE
  5
232
100
AcDbEntity
  8
0
100
AcDbLine
 62
7
  6
CONTINUOUS
 10
4.2253522545
 20
3.4574299262
 11
3.8125181659
 21
3.4575181257
  0
LINE
  5
233
100
AcDbEntity
  8
0
100
AcDbLine
 62
7
  6
CONTINUOUS
 10
4.2402597816
 20
3.4574289099
 11
4.2253522545
 21
3.4574299262
  0
LINE
  5
234
100
AcDbEntity
  8
0
100
AcDbLine
 62
7
  6
CONTINUOUS
 10
3.7711071897
 20
3.5173186062
 11
6.7439492364
 21
3.5173956885
  0
LINE
  5
235
100
AcDbEntity
  8
0
100
AcDbLine
 62
7
  6
CONTINUOUS
 10
7.6889157608
 20
3.5175533339
 11
2.7425166593
 21
3.5174901123
  0
LINE
  5
236
100
AcDbEntity
  8
0
100
AcDbLine
 62
7
  6
CONTINUOUS
 10
2.7425166569
 20
3.5174901123
 11
3.7711071897
 21
3.5173186062
  0
LWPOLYLINE
  5
237
100
AcDbEntity
  8
0
100
AcDbPolyline
 62
7
  6
CONTINUOUS
 90
3
 70
0
 10
4.0723012477
 20
5.3275154143
 10
4.0735057767
 20
5.3249345938
 10
4.0743550054
 20
5.322078908
  0
LINE
  5
238
100
AcDbEntity
  8
0
100
AcDbLine
 62
7
  6
CONTINUOUS
 10
4.7874085173
 20
6.2825874776
 11
4.7873973682
 21
6.0367230698
  0
LINE
  5
239
100
AcDbEntity
  8
0
100
AcDbLine
 62
7
  6
CONTINUOUS
 10
4.7926780636
 20
6.0367243782
 11
4.792689967
 21
6.2992477692
  0
LINE
  5
23A
100
AcDbEntity
  8
0
100
AcDbLine
 62
7
  6
CONTINUOUS
 10
4.8864280634
 20
6.036743522
 11
4.8864260597
 21
5.9925560767
  0
LINE
  5
23B
100
AcDbEntity
  8
0
100
AcDbLine
 62
7
  6
CONTINUOUS
 10
2.0707959485
 20
5.3102705342
 11
2.5509862432
 21
5.0844865849
  0
LINE
  5
23C
100
AcDbEntity
  8
0
100
AcDbLine
 62
7
  6
CONTINUOUS
 10
5.3095776457
 20
5.321655455
 11
5.2668028849
 21
4.3390763584
  0
LINE
  5
23D
100
AcDbEntity
  8
0
100
AcDbLine
 62
7
  6
CONTINUOUS
 10
7.9017441622
 20
4.2826190229
 11
7.9024965692
 21
4.2826251816
  0
LINE
  5
23E
100
AcDbEntity
  8
0
100
AcDbLine
 62
7
  6
CONTINUOUS
 10
5.2762145922
 20
4.282222556
 11
5.3849582273
 21
4.2822924872
  0
LINE
  5
23F
100
AcDbEntity
  8
0
100
AcDbLine
 62
7
  6
CONTINUOUS
 10
6.165896876
 20
4.2823374383
 11
7.9017441622
 21
4.2826190229
  0
LINE
  5
240
100
AcDbEntity
  8
0
100
AcDbLine
 62
7
  6
CONTINUOUS
 10
4.1934780823
 20
4.2822109532
 11
5.276177578
 21
4.2822225439
  0
LINE
  5
241
100
AcDbEntity
  8
0
100
AcDbLine
 62
7
  6
CONTINUOUS
 10
5.3849212131
 20
4.2822924751
 11
7.9023124851
 21
4.2826221497
  0
LINE
  5
242
100
AcDbEntity
  8
0
100
AcDbLine
 62
7
  6
CONTINUOUS
 10
5.4931357158
 20
4.2823051595
 11
6.165896876
 21
4.2823374383
  0
LINE
  5
243
100
AcDbEntity
  8
0
100
AcDbLine
 62
7
  6
CONTINUOUS
 10
7.9030984507
 20
4.2826646661
 11
8.6079775055
 21
4.2827117841
  0
LINE
  5
244
100
AcDbEntity
  8
0
100
AcDbLine
 62
7
  6
CONTINUOUS
 10
7.9590074521
 20
4.2827851803
 11
7.904883835
 21
4.2827817333
  0
LINE
  5
245
100
AcDbEntity
  8
0
100
AcDbLine
 62
7
  6
CONTINUOUS
 10
3.0999979502
 20
4.2823516405
 11
4.1921514527
 21
4.2822923384
  0
LINE
  5
246
100
AcDbEntity
  8
0
100
AcDbLine
 62
7
  6
CONTINUOUS
 10
2.2961734466
 20
4.2826442142
 11
2.6203584259
 21
4.2826270514
  0
LINE
  5
247
100
AcDbEntity
  8
0
100
AcDbLine
 62
7
  6
CONTINUOUS
 10
2.6731915921
 20
4.2824379971
 11
3.0999979502
 21
4.2823516405
  0
LINE
  5
248
100
AcDbEntity
  8
0
100
AcDbLine
 62
7
  6
CONTINUOUS
 10
2.622496629
 20
4.282486965
 11
4.1921514662
 21
4.2822923376
  0
LINE
  5
249
100
AcDbEntity
  8
0
100
AcDbLine
 62
7
  6
CONTINUOUS
 10
7.9022471645
 20
4.2826231402
 11
7.9023124851
 21
4.2826221497
  0
LINE
  5
24A
100
AcDbEntity
  8
0
100
AcDbLine
 62
7
  6
CONTINUOUS
 10
5.3779868727
 20
5.3182951078
 11
5.3353561743
 21
4.3390830197
  0
LINE
  5
24B
100
AcDbEntity
  8
0
100
AcDbLine
 62
7
  6
CONTINUOUS
 10
5.3353561743
 20
4.3390830197
 11
5.4440998093
 21
4.339152951
  0
LINE
  5
24C
100
AcDbEntity
  8
0
100
AcDbLine
 62
7
  6
CONTINUOUS
 10
7.4249940172
 20
4.3424548486
 11
7.9624949945
 21
4.3426267711
  0
LINE
  5
24D
100
AcDbEntity
  8
0
100
AcDbLine
 62
7
  6
CONTINUOUS
 10
4.1841033891
 20
4.3390647678
 11
5.2668028849
 21
4.3390763584
  0
LINE
  5
24E
100
AcDbEntity
  8
0
100
AcDbLine
 62
7
  6
CONTINUOUS
 10
7.9804641107
 20
4.3395253914
 11
8.6294463756
 21
4.3395667232
  0
LINE
  5
24F
100
AcDbEntity
  8
0
100
AcDbLine
 62
7
  6
CONTINUOUS
 10
5.4983664743
 20
4.3422994561
 11
7.4249940172
 21
4.3424548486
  0
LINE
  5
250
100
AcDbEntity
  8
0
100
AcDbLine
 62
7
  6
CONTINUOUS
 10
2.2584692296
 20
4.3394985198
 11
2.5624948374
 21
4.3394824243
  0
LINE
  5
251
100
AcDbEntity
  8
0
100
AcDbLine
 62
7
  6
CONTINUOUS
 10
2.5624949964
 20
4.3424853953
 11
4.1335842424
 21
4.3422869646
  0
LINE
  5
252
100
AcDbEntity
  8
0
100
AcDbLine
 62
7
  6
CONTINUOUS
 10
8.4541433672
 20
5.3104376549
 11
7.9739648954
 21
5.0846285624
  0
LINE
  5
253
100
AcDbEntity
  8
0
100
AcDbLine
 62
7
  6
CONTINUOUS
 10
9.3249610984
 20
5.3676616969
 11
9.3249681588
 21
5.3676624372
  0
LINE
  5
254
100
AcDbEntity
  8
0
100
AcDbLine
 62
7
  6
CONTINUOUS
 10
1.1999752221
 20
5.3674489789
 11
1.1999681616
 21
5.3674497188
  0
LINE
  5
255
100
AcDbEntity
  8
0
100
AcDbLine
 62
7
  6
CONTINUOUS
 10
4.0619523065
 20
5.3362731643
 11
4.061970746
 21
5.3362672249
  0
LWPOLYLINE
  5
256
100
AcDbEntity
  8
0
100
AcDbPolyline
 62
7
  6
CONTINUOUS
 90
9
 70
0
 10
4.0619522676
 20
5.3362730468
 10
4.0621473316
 20
5.3362086892
 10
4.0629945138
 20
5.3358917007
 10
4.0642262001
 20
5.3353294314
 10
4.0657218774
 20
5.3344825175
 10
4.0673675381
 20
5.3333184419
 10
4.0691017376
 20
5.3317690206
 10
4.0708053364
 20
5.3298059782
 10
4.0723012477
 20
5.3275154143
  0
LINE
  5
257
100
AcDbEntity
  8
0
100
AcDbLine
 62
7
  6
CONTINUOUS
 10
9.3249545533
 20
5.6176616957
 11
9.3249616137
 21
5.6176624359
  0
LINE
  5
258
100
AcDbEntity
  8
0
100
AcDbLine
 62
7
  6
CONTINUOUS
 10
9.3249610984
 20
5.3676616969
 11
8.5123557888
 21
5.3250535984
  0
LINE
  5
259
100
AcDbEntity
  8
0
100
AcDbLine
 62
7
  6
CONTINUOUS
 10
7.9624760423
 20
5.0665294371
 11
5.5364856592
 21
5.0662034741
  0
LINE
  5
25A
100
AcDbEntity
  8
0
100
AcDbLine
 62
7
  6
CONTINUOUS
 10
7.9739648954
 20
5.0846285624
 11
5.537671749
 21
5.084301268
  0
LINE
  5
25B
100
AcDbEntity
  8
0
100
AcDbLine
 62
7
  6
CONTINUOUS
 10
4.089938956
 20
5.0661904854
 11
2.5624760441
 21
5.0663880613
  0
LINE
  5
25C
100
AcDbEntity
  8
0
100
AcDbLine
 62
7
  6
CONTINUOUS
 10
4.0888533232
 20
5.084288146
 11
2.5509862432
 21
5.0844865849
  0
LINE
  5
25D
100
AcDbEntity
  8
0
100
AcDbLine
 62
7
  6
CONTINUOUS
 10
1.1999752221
 20
5.3674489789
 11
2.0125827616
 21
5.3248834296
  0
LINE
  5
25E
100
AcDbEntity
  8
0
100
AcDbLine
 62
7
  6
CONTINUOUS
 10
1.1999686769
 20
5.6174489777
 11
1.1999616164
 21
5.6174497175
  0
LINE
  5
25F
100
AcDbEntity
  8
0
100
AcDbLine
 62
7
  6
CONTINUOUS
 10
9.092239035
 20
5.7218952338
 11
9.1567538794
 21
5.7253955851
  0
LINE
  5
260
100
AcDbEntity
  8
0
100
AcDbLine
 62
7
  6
CONTINUOUS
 10
9.2625852283
 20
5.6634128836
 11
9.0750688148
 21
5.6535855648
  0
LINE
  5
261
100
AcDbEntity
  8
0
100
AcDbLine
 62
7
  6
CONTINUOUS
 10
8.94564367
 20
5.6468026803
 11
8.9087090989
 21
5.6448670215
  0
LINE
  5
262
100
AcDbEntity
  8
0
100
AcDbLine
 62
7
  6
CONTINUOUS
 10
8.6737907117
 20
5.6325554705
 11
8.6371961272
 21
5.6306376296
  0
LINE
  5
263
100
AcDbEntity
  8
0
100
AcDbLine
 62
7
  6
CONTINUOUS
 10
8.4800724675
 20
5.6224031275
 11
8.4457624174
 21
5.620605014
  0
LINE
  5
264
100
AcDbEntity
  8
0
100
AcDbLine
 62
7
  6
CONTINUOUS
 10
9.2749520433
 20
5.3675990329
 11
9.3249610984
 21
5.3676616969
  0
LINE
  5
265
100
AcDbEntity
  8
0
100
AcDbLine
 62
7
  6
CONTINUOUS
 10
8.4541433675
 20
5.310437655
 11
5.4423665773
 21
5.3100475082
  0
LINE
  5
266
100
AcDbEntity
  8
0
100
AcDbLine
 62
7
  6
CONTINUOUS
 10
8.5123566689
 20
5.3250536465
 11
5.4353508274
 21
5.3246565421
  0
LINE
  5
267
100
AcDbEntity
  8
0
100
AcDbLine
 62
7
  6
CONTINUOUS
 10
9.2749520433
 20
5.3675990329
 11
4.408350915
 21
5.3671457114
  0
LINE
  5
268
100
AcDbEntity
  8
0
100
AcDbLine
 62
7
  6
CONTINUOUS
 10
4.0747695382
 20
5.3100336693
 11
2.0707959488
 21
5.3102705341
  0
LINE
  5
269
100
AcDbEntity
  8
0
100
AcDbLine
 62
7
  6
CONTINUOUS
 10
4.0735926489
 20
5.3246424704
 11
2.0125849373
 21
5.3248833249
  0
LINE
  5
26A
100
AcDbEntity
  8
0
100
AcDbLine
 62
7
  6
CONTINUOUS
 10
4.408350915
 20
5.3671457114
 11
1.1999752221
 21
5.3674489789
  0
LINE
  5
26B
100
AcDbEntity
  8
0
100
AcDbLine
 62
7
  6
CONTINUOUS
 10
1.2625852283
 20
5.6634128836
 11
1.4501016418
 21
5.6535855648
  0
LINE
  5
26C
100
AcDbEntity
  8
0
100
AcDbLine
 62
7
  6
CONTINUOUS
 10
2.045097989
 20
5.6224031275
 11
2.1375852283
 21
5.6175560767
  0
LINE
  5
26D
100
AcDbEntity
  8
0
100
AcDbLine
 62
7
  6
CONTINUOUS
 10
2.5229621005
 20
5.712365218
 11
2.3471511612
 21
5.7253955851
  0
LINE
  5
26E
100
AcDbEntity
  8
0
100
AcDbLine
 62
7
  6
CONTINUOUS
 10
6.7125181649
 20
3.4575940498
 11
6.7125556033
 21
2.0275940571
  0
LINE
  5
26F
100
AcDbEntity
  8
0
100
AcDbLine
 62
7
  6
CONTINUOUS
 10
9.3249545533
 20
5.6176616957
 11
8.7782161963
 21
5.617449355
  0
LINE
  5
270
100
AcDbEntity
  8
0
100
AcDbLine
 62
7
  6
CONTINUOUS
 10
8.7782161963
 20
5.617449355
 11
7.5282102531
 21
5.6172859985
  0
LINE
  5
271
100
AcDbEntity
  8
0
100
AcDbLine
 62
7
  6
CONTINUOUS
 10
7.5282102531
 20
5.6172859985
 11
5.2625852387
 21
5.6171592025
  0
LINE
  5
272
100
AcDbEntity
  8
0
100
AcDbLine
 62
7
  6
CONTINUOUS
 10
5.2625852387
 20
5.6171592025
 11
2.8666187153
 21
5.6171728625
  0
LINE
  5
273
100
AcDbEntity
  8
0
100
AcDbLine
 62
7
  6
CONTINUOUS
 10
2.6898435217
 20
5.6224031275
 11
1.7513639852
 21
5.6224031275
  0
LINE
  5
274
100
AcDbEntity
  8
0
100
AcDbLine
 62
7
  6
CONTINUOUS
 10
2.8666189497
 20
5.6224031275
 11
8.7770171172
 21
5.6224031275
  0
LINE
  5
275
100
AcDbEntity
  8
0
100
AcDbLine
 62
7
  6
CONTINUOUS
 10
9.0510367637
 20
5.6371428154
 11
8.9604538331
 21
5.6371428154
  0
LINE
  5
276
100
AcDbEntity
  8
0
100
AcDbLine
 62
7
  6
CONTINUOUS
 10
2.4908532
 20
5.6371428154
 11
1.4767832782
 21
5.6371428154
  0
LINE
  5
277
100
AcDbEntity
  8
0
100
AcDbLine
 62
7
  6
CONTINUOUS
 10
2.6676287165
 20
5.6371428154
 11
8.9359665329
 21
5.6371428154
  0
LINE
  5
278
100
AcDbEntity
  8
0
100
AcDbLine
 62
7
  6
CONTINUOUS
 10
2.6627176335
 20
5.6388458768
 11
2.4958644349
 21
5.6388458768
  0
LINE
  5
279
100
AcDbEntity
  8
0
100
AcDbLine
 62
7
  6
CONTINUOUS
 10
9.0750688148
 20
5.6535855648
 11
8.9755340704
 21
5.6535855648
  0
LINE
  5
27A
100
AcDbEntity
  8
0
100
AcDbLine
 62
7
  6
CONTINUOUS
 10
8.9108293092
 20
5.6535855648
 11
2.6565899639
 21
5.6535855648
  0
LINE
  5
27B
100
AcDbEntity
  8
0
100
AcDbLine
 62
7
  6
CONTINUOUS
 10
2.4798132686
 20
5.6535855648
 11
1.4501016418
 21
5.6535855648
  0
LINE
  5
27C
100
AcDbEntity
  8
0
100
AcDbLine
 62
7
  6
CONTINUOUS
 10
9.2625852283
 20
5.6634128836
 11
9.1567538794
 21
5.6634128836
  0
LINE
  5
27D
100
AcDbEntity
  8
0
100
AcDbLine
 62
7
  6
CONTINUOUS
 10
9.0920491181
 20
5.6634128836
 11
2.5239278565
 21
5.6634128836
  0
LINE
  5
27E
100
AcDbEntity
  8
0
100
AcDbLine
 62
7
  6
CONTINUOUS
 10
2.3471511612
 20
5.6634128836
 11
1.2625852283
 21
5.6634128836
  0
LINE
  5
27F
100
AcDbEntity
  8
0
100
AcDbLine
 62
7
  6
CONTINUOUS
 10
2.8666187153
 20
5.6171728625
 11
1.7469544933
 21
5.6172652297
  0
LINE
  5
280
100
AcDbEntity
  8
0
100
AcDbLine
 62
7
  6
CONTINUOUS
 10
1.7469544933
 20
5.6172652297
 11
1.230242876
 21
5.6174021357
  0
LINE
  5
281
100
AcDbEntity
  8
0
100
AcDbLine
 62
7
  6
CONTINUOUS
 10
1.230242876
 20
5.6174021357
 11
1.1999686769
 21
5.6174489777
  0
LINE
  5
282
100
AcDbEntity
  8
0
100
AcDbLine
 62
7
  6
CONTINUOUS
 10
1.3684165772
 20
5.8847165683
 11
1.4329314216
 21
5.8882169196
  0
LINE
  5
283
100
AcDbEntity
  8
0
100
AcDbLine
 62
7
  6
CONTINUOUS
 10
2.1375852283
 20
5.9925560767
 11
2.045097989
 21
5.9877090259
  0
LINE
  5
284
100
AcDbEntity
  8
0
100
AcDbLine
 62
7
  6
CONTINUOUS
 10
1.8879746245
 20
5.9794745393
 11
1.8513797449
 21
5.9775566829
  0
LINE
  5
285
100
AcDbEntity
  8
0
100
AcDbLine
 62
7
  6
CONTINUOUS
 10
1.6164614798
 20
5.9652451383
 11
1.5795267865
 21
5.9633094731
  0
LINE
  5
286
100
AcDbEntity
  8
0
100
AcDbLine
 62
7
  6
CONTINUOUS
 10
1.4501016418
 20
5.9565265886
 11
1.2625852283
 21
5.9466992698
  0
LINE
  5
287
100
AcDbEntity
  8
0
100
AcDbLine
 62
7
  6
CONTINUOUS
 10
4.3830401938
 20
6.1061080922
 11
4.4523222194
 21
6.1061252587
  0
LINE
  5
288
100
AcDbEntity
  8
0
100
AcDbLine
 62
7
  6
CONTINUOUS
 10
9.2625852283
 20
5.9466992698
 11
8.1780192954
 21
5.9466992698
  0
LINE
  5
289
100
AcDbEntity
  8
0
100
AcDbLine
 62
7
  6
CONTINUOUS
 10
8.0012426001
 20
5.9466992698
 11
1.4331213385
 21
5.9466992698
  0
LINE
  5
28A
100
AcDbEntity
  8
0
100
AcDbLine
 62
7
  6
CONTINUOUS
 10
1.3684165772
 20
5.9466992698
 11
1.2625852283
 21
5.9466992698
  0
LINE
  5
28B
100
AcDbEntity
  8
0
100
AcDbLine
 62
7
  6
CONTINUOUS
 10
1.4501016418
 20
5.9565265886
 11
1.5496363861
 21
5.9565265886
  0
LINE
  5
28C
100
AcDbEntity
  8
0
100
AcDbLine
 62
7
  6
CONTINUOUS
 10
1.6143411474
 20
5.9565265886
 11
7.8685804926
 21
5.9565265886
  0
LINE
  5
28D
100
AcDbEntity
  8
0
100
AcDbLine
 62
7
  6
CONTINUOUS
 10
8.0453571879
 20
5.9565265886
 11
9.0750688148
 21
5.9565265886
  0
LINE
  5
28E
100
AcDbEntity
  8
0
100
AcDbLine
 62
7
  6
CONTINUOUS
 10
7.8624531612
 20
5.9712662766
 11
8.0293049946
 21
5.9712662766
  0
LINE
  5
28F
100
AcDbEntity
  8
0
100
AcDbLine
 62
7
  6
CONTINUOUS
 10
9.0529954315
 20
5.972969338
 11
8.0343172529
 21
5.972969338
  0
LINE
  5
290
100
AcDbEntity
  8
0
100
AcDbLine
 62
7
  6
CONTINUOUS
 10
1.5647166247
 20
5.972969338
 11
1.4669486491
 21
5.972969338
  0
LINE
  5
291
100
AcDbEntity
  8
0
100
AcDbLine
 62
7
  6
CONTINUOUS
 10
1.5892039236
 20
5.972969338
 11
7.8575417439
 21
5.972969338
  0
LINE
  5
292
100
AcDbEntity
  8
0
100
AcDbLine
 62
7
  6
CONTINUOUS
 10
8.7748063334
 20
5.9877090259
 11
7.835326931
 21
5.9877090259
  0
LINE
  5
293
100
AcDbEntity
  8
0
100
AcDbLine
 62
7
  6
CONTINUOUS
 10
1.7580443052
 20
5.9877090259
 11
7.658551511
 21
5.9877090259
  0
LINE
  5
294
100
AcDbEntity
  8
0
100
AcDbLine
 62
7
  6
CONTINUOUS
 10
7.3821370972
 20
5.9925560767
 11
5.50017127
 21
5.9925560767
  0
LINE
  5
295
100
AcDbEntity
  8
0
100
AcDbLine
 62
7
  6
CONTINUOUS
 10
5.4808648371
 20
5.9925560767
 11
5.3137418211
 21
5.9925560767
  0
LINE
  5
296
100
AcDbEntity
  8
0
100
AcDbLine
 62
7
  6
CONTINUOUS
 10
5.2114286355
 20
5.9925560767
 11
5.0348635391
 21
5.9925560767
  0
LINE
  5
297
100
AcDbEntity
  8
0
100
AcDbLine
 62
7
  6
CONTINUOUS
 10
5.0249991866
 20
5.9925560767
 11
3.7262442981
 21
5.9925560767
  0
LINE
  5
298
100
AcDbEntity
  8
0
100
AcDbLine
 62
7
  6
CONTINUOUS
 10
2.1376036787
 20
5.9925560767
 11
3.6991556807
 21
5.9925560767
  0
LINE
  5
299
100
AcDbEntity
  8
0
100
AcDbLine
 62
7
  6
CONTINUOUS
 10
7.3960733658
 20
5.9925560767
 11
8.3777268517
 21
5.9925560767
  0
LINE
  5
29A
100
AcDbEntity
  8
0
100
AcDbLine
 62
7
  6
CONTINUOUS
 10
4.8864245175
 20
6.0367435185
 11
4.5479587594
 21
6.0367105325
  0
LINE
  5
29B
100
AcDbEntity
  8
0
100
AcDbLine
 62
7
  6
CONTINUOUS
 10
7.6360268889
 20
6.0371810767
 11
8.292441522
 21
6.0371810767
  0
LINE
  5
29C
100
AcDbEntity
  8
0
100
AcDbLine
 62
7
  6
CONTINUOUS
 10
4.19893161
 20
6.0367747012
 11
4.7926780719
 21
6.0367078755
  0
LINE
  5
29D
100
AcDbEntity
  8
0
100
AcDbLine
 62
7
  6
CONTINUOUS
 10
8.4457624174
 20
5.9895071394
 11
8.4800724675
 21
5.9877090259
  0
LINE
  5
29E
100
AcDbEntity
  8
0
100
AcDbLine
 62
7
  6
CONTINUOUS
 10
9.0750688148
 20
5.9565265886
 11
9.2625852283
 21
5.9466992698
  0
LINE
  5
29F
100
AcDbEntity
  8
0
100
AcDbLine
 62
7
  6
CONTINUOUS
 10
8.1780192954
 20
5.8847165683
 11
8.0022083561
 21
5.8977469354
  0
LINE
  5
2A0
100
AcDbEntity
  8
0
100
AcDbLine
 62
7
  6
CONTINUOUS
 10
4.7926899505
 20
6.2992477846
 11
4.7926962054
 21
6.2992448675
  0
LINE
  5
2A1
100
AcDbEntity
  8
0
100
AcDbLine
 62
7
  6
CONTINUOUS
 10
7.4060026587
 20
5.9907886464
 11
7.4060026587
 21
5.9925560767
  0
LINE
  5
2A2
100
AcDbEntity
  8
0
100
AcDbLine
 62
7
  6
CONTINUOUS
 10
4.7874085173
 20
6.2825874776
 11
4.7926892127
 21
6.282588786
  0
LINE
  5
2A3
100
AcDbEntity
  8
0
100
AcDbLine
 62
7
  6
CONTINUOUS
 10
4.3973404354
 20
6.2867366307
 11
4.452330418
 21
6.2867502559
  0
LINE
  5
2A4
100
AcDbEntity
  8
0
100
AcDbLine
 62
7
  6
CONTINUOUS
 10
4.5374085176
 20
6.2825754191
 11
4.5479699084
 21
6.2825749402
  0
LINE
  5
2A5
100
AcDbEntity
  8
0
100
AcDbLine
 62
7
  6
CONTINUOUS
 10
7.698691522
 20
6.2830454882
 11
7.7039722174
 21
6.2830454882
  0
LINE
  5
2A6
100
AcDbEntity
  8
0
100
AcDbLine
 62
7
  6
CONTINUOUS
 10
7.9434108266
 20
6.2830454882
 11
7.9539722174
 21
6.2830454882
  0
LINE
  5
2A7
100
AcDbEntity
  8
0
100
AcDbLine
 62
7
  6
CONTINUOUS
 10
8.1934108266
 20
6.2830454882
 11
8.198691522
 21
6.2830454882
  0
LINE
  5
2A8
100
AcDbEntity
  8
0
100
AcDbLine
 62
7
  6
CONTINUOUS
 10
7.7019122684
 20
6.2996810767
 11
8.1954707756
 21
6.2996810767
  0
LINE
  5
2A9
100
AcDbEntity
  8
0
100
AcDbLine
 62
7
  6
CONTINUOUS
 10
4.2926892132
 20
6.2826114592
 11
4.2979699086
 21
6.2826096718
  0
LINE
  5
2AA
100
AcDbEntity
  8
0
100
AcDbLine
 62
7
  6
CONTINUOUS
 10
4.2926899675
 20
6.2992704424
 11
4.792689967
 21
6.2992477692
  0
LINE
  5
2AB
100
AcDbEntity
  8
0
100
AcDbLine
 62
7
  6
CONTINUOUS
 10
7.6157597473
 20
6.6175560767
 11
7.6375852283
 21
5.9925560767
  0
LINE
  5
2AC
100
AcDbEntity
  8
0
100
AcDbLine
 62
7
  6
CONTINUOUS
 10
7.698691522
 20
6.2981983219
 11
7.698691522
 21
6.0371810767
  0
LINE
  5
2AD
100
AcDbEntity
  8
0
100
AcDbLine
 62
7
  6
CONTINUOUS
 10
7.7039722174
 20
6.0371810767
 11
7.7039722174
 21
6.2830454882
  0
LINE
  5
2AE
100
AcDbEntity
  8
0
100
AcDbLine
 62
7
  6
CONTINUOUS
 10
7.6157597473
 20
6.6175560767
 11
2.9094107092
 21
6.6175560767
  0
LINE
  5
2AF
100
AcDbEntity
  8
0
100
AcDbLine
 62
7
  6
CONTINUOUS
 10
7.8424965654
 20
4.2826236298
 11
7.8425150228
 21
3.5776236334
  0
LINE
  5
2B0
100
AcDbEntity
  8
0
100
AcDbLine
 62
7
  6
CONTINUOUS
 10
7.9434108266
 20
6.2830454882
 11
7.9434108266
 21
6.0371810767
  0
LINE
  5
2B1
100
AcDbEntity
  8
0
100
AcDbLine
 62
7
  6
CONTINUOUS
 10
7.9539722174
 20
6.0371810767
 11
7.9539722174
 21
6.2830454882
  0
LINE
  5
2B2
100
AcDbEntity
  8
0
100
AcDbLine
 62
7
  6
CONTINUOUS
 10
7.9624760423
 20
5.0665294372
 11
7.9624949945
 21
4.3426267712
  0
LINE
  5
2B3
100
AcDbEntity
  8
0
100
AcDbLine
 62
7
  6
CONTINUOUS
 10
8.0012426001
 20
5.9466992698
 11
8.0012426001
 21
5.8847165683
  0
LINE
  5
2B4
100
AcDbEntity
  8
0
100
AcDbLine
 62
7
  6
CONTINUOUS
 10
8.1780192954
 20
5.9466992698
 11
8.1780192954
 21
5.8847165683
  0
LINE
  5
2B5
100
AcDbEntity
  8
0
100
AcDbLine
 62
7
  6
CONTINUOUS
 10
8.1934108266
 20
6.2830454882
 11
8.1934108266
 21
6.0371810767
  0
LINE
  5
2B6
100
AcDbEntity
  8
0
100
AcDbLine
 62
7
  6
CONTINUOUS
 10
8.198691522
 20
6.0371810767
 11
8.198691522
 21
6.2981983219
  0
LINE
  5
2B7
100
AcDbEntity
  8
0
100
AcDbLine
 62
7
  6
CONTINUOUS
 10
8.292441522
 20
6.0371810767
 11
8.292441522
 21
5.9925560767
  0
LINE
  5
2B8
100
AcDbEntity
  8
0
100
AcDbLine
 62
7
  6
CONTINUOUS
 10
8.6957172147
 20
5.318781241
 11
8.6294463756
 21
4.3395667232
  0
LINE
  5
2B9
100
AcDbEntity
  8
0
100
AcDbLine
 62
7
  6
CONTINUOUS
 10
8.7344169177
 20
5.3223802514
 11
8.6678367288
 21
4.3386601308
  0
LWPOLYLINE
  5
2BA
100
AcDbEntity
  8
0
100
AcDbPolyline
 62
7
  6
CONTINUOUS
 90
11
 70
0
 10
8.734421179
 20
5.3224455914
 10
8.7345953217
 20
5.3240517692
 10
8.735012039
 20
5.3260999602
 10
8.7356236831
 20
5.3280487176
 10
8.7364098647
 20
5.3298818372
 10
8.7373502728
 20
5.3315877517
 10
8.7384254164
 20
5.3331585865
 10
8.7396135294
 20
5.3345854912
 10
8.7408901473
 20
5.3358605665
 10
8.7422459725
 20
5.3369918691
 10
8.7424258148
 20
5.3371170765
  0
LINE
  5
2BB
100
AcDbEntity
  8
0
100
AcDbLine
 62
7
  6
CONTINUOUS
 10
9.0920491181
 20
5.7253955851
 11
9.0920491181
 21
5.6634128836
  0
LINE
  5
2BC
100
AcDbEntity
  8
0
100
AcDbLine
 62
7
  6
CONTINUOUS
 10
9.1567538794
 20
5.7253955851
 11
9.1567538794
 21
5.6634128836
  0
LINE
  5
2BD
100
AcDbEntity
  8
0
100
AcDbLine
 62
7
  6
CONTINUOUS
 10
9.2625852283
 20
5.9466992698
 11
9.2625852283
 21
5.6634128836
  0
LINE
  5
2BE
100
AcDbEntity
  8
0
100
AcDbLine
 62
7
  6
CONTINUOUS
 10
9.3249616137
 20
5.6176624359
 11
9.3249681588
 21
5.3676624372
  0
ARC
  5
2BF
100
AcDbEntity
  8
0
100
AcDbCircle
 62
7
  6
CONTINUOUS
 10
-77.9446984696
 20
181.401175106
 40
196.1439978945
100
AcDbArc
 50
295.9841616884
 51
296.1232150443
  0
ARC
  5
2C0
100
AcDbEntity
  8
0
100
AcDbCircle
 62
7
  6
CONTINUOUS
 10
104.4435500317
 20
33.6946045557
 40
103.0130915118
100
AcDbArc
 50
196.0042552111
 51
196.1267440743
  0
ARC
  5
2C1
100
AcDbEntity
  8
0
100
AcDbCircle
 62
7
  6
CONTINUOUS
 10
4.7166678146
 20
70.8476460542
 40
65.5286730071
100
AcDbArc
 50
269.4827883592
 51
270.5184248809
  0
ARC
  5
2C2
100
AcDbEntity
  8
0
100
AcDbCircle
 62
7
  6
CONTINUOUS
 10
4.7137072537
 20
70.8277074859
 40
65.4898104722
100
AcDbArc
 50
269.4826449816
 51
270.5185817588
  0
ARC
  5
2C3
100
AcDbEntity
  8
0
100
AcDbCircle
 62
7
  6
CONTINUOUS
 10
7.9910197492
 20
5.1240332146
 40
0.7845784224
100
AcDbArc
 50
268.5349089161
 51
269.2291253925
  0
ARC
  5
2C4
100
AcDbEntity
  8
0
100
AcDbCircle
 62
7
  6
CONTINUOUS
 10
7.9851673707
 20
4.907771363
 40
0.5682377271
100
AcDbArc
 50
267.6955533463
 51
268.567286536
  0
ARC
  5
2C5
100
AcDbEntity
  8
0
100
AcDbCircle
 62
7
  6
CONTINUOUS
 10
4.4160778244
 20
5.8725841628
 40
0.4266991622
100
AcDbArc
 50
84.0836345527
 51
84.9303644154
  0
ARC
  5
2C6
100
AcDbEntity
  8
0
100
AcDbCircle
 62
7
  6
CONTINUOUS
 10
4.416546871
 20
5.8778100969
 40
0.4214522238
100
AcDbArc
 50
84.9311005306
 51
85.1293500748
  0
ARC
  5
2C7
100
AcDbEntity
  8
0
100
AcDbCircle
 62
7
  6
CONTINUOUS
 10
8.5205299247
 20
5.1692681977
 40
0.156
100
AcDbArc
 50
93.0015000592
 51
115.1857611629
  0
ARC
  5
2C8
100
AcDbEntity
  8
0
100
AcDbCircle
 62
7
  6
CONTINUOUS
 10
2.0044167829
 20
5.1690976011
 40
0.156
100
AcDbArc
 50
64.8172389268
 51
87.0015000306
  0
ARC
  5
2C9
100
AcDbEntity
  8
0
100
AcDbCircle
 62
7
  6
CONTINUOUS
 10
8.4744560782
 20
5.1784948385
 40
0.1280156822
100
AcDbArc
 50
112.3152049923
 51
116.1227242089
  0
ARC
  5
2CA
100
AcDbEntity
  8
0
100
AcDbCircle
 62
7
  6
CONTINUOUS
 10
8.4738355556
 20
5.1801564207
 40
0.1262429369
100
AcDbArc
 50
100.9147086539
 51
112.3410085768
  0
ARC
  5
2CB
100
AcDbEntity
  8
0
100
AcDbCircle
 62
7
  6
CONTINUOUS
 10
8.473504998
 20
5.1817928642
 40
0.1245735069
100
AcDbArc
 50
93.1482277501
 51
100.9079377882
  0
ARC
  5
2CC
100
AcDbEntity
  8
0
100
AcDbCircle
 62
7
  6
CONTINUOUS
 10
4.1934765187
 20
4.3422109606
 40
0.0600000077
100
AcDbArc
 50
183.4329217149
 51
270.0006326829
  0
ARC
  5
2CD
100
AcDbEntity
  8
0
100
AcDbCircle
 62
7
  6
CONTINUOUS
 10
8.6079736828
 20
4.3427117856
 40
0.0600000016
100
AcDbArc
 50
270.003614065
 51
356.1280082347
  0
ARC
  5
2CE
100
AcDbEntity
  8
0
100
AcDbCircle
 62
7
  6
CONTINUOUS
 10
2.2961766231
 20
4.3426442142
 40
0.06
100
AcDbArc
 50
184.2171387867
 51
269.9969860216
  0
ARC
  5
2CF
100
AcDbEntity
  8
0
100
AcDbCircle
 62
7
  6
CONTINUOUS
 10
2.6224949964
 20
4.3424869661
 40
0.06
100
AcDbArc
 50
180.0015000449
 51
270.0015000449
  0
ARC
  5
2D0
100
AcDbEntity
  8
0
100
AcDbCircle
 62
7
  6
CONTINUOUS
 10
7.9024949946
 20
4.3426252003
 40
0.06
100
AcDbArc
 50
270.0015000474
 51
0.0015000449
  0
ARC
  5
2D1
100
AcDbEntity
  8
0
100
AcDbCircle
 62
7
  6
CONTINUOUS
 10
3.8725556043
 20
2.0275197039
 40
0.06
100
AcDbArc
 50
180.0015000449
 51
270.0015000449
  0
ARC
  5
2D2
100
AcDbEntity
  8
0
100
AcDbCircle
 62
7
  6
CONTINUOUS
 10
6.6525556034
 20
2.0275924863
 40
0.06
100
AcDbArc
 50
270.0015000449
 51
0.0015000449
  0
ARC
  5
2D3
100
AcDbEntity
  8
0
100
AcDbCircle
 62
7
  6
CONTINUOUS
 10
3.7525181659
 20
3.4575165549
 40
0.06
100
AcDbArc
 50
0.0015000449
 51
87.11922135
  0
ARC
  5
2D4
100
AcDbEntity
  8
0
100
AcDbCircle
 62
7
  6
CONTINUOUS
 10
6.7725181649
 20
3.4575956206
 40
0.06
100
AcDbArc
 50
92.8837818839
 51
180.0015000449
  0
ARC
  5
2D5
100
AcDbEntity
  8
0
100
AcDbCircle
 62
7
  6
CONTINUOUS
 10
2.7425150246
 20
3.5774901117
 40
0.06
100
AcDbArc
 50
180.0015000449
 51
270.0015000449
  0
ARC
  5
2D6
100
AcDbEntity
  8
0
100
AcDbCircle
 62
7
  6
CONTINUOUS
 10
7.7825150229
 20
3.5776220626
 40
0.06
100
AcDbArc
 50
270.0015000449
 51
0.0015000449
  0
ARC
  5
2D7
100
AcDbEntity
  8
0
100
AcDbCircle
 62
7
  6
CONTINUOUS
 10
8.0382496369
 20
5.1036211779
 40
0.0575157052
100
AcDbArc
 50
199.3389649345
 51
202.363567648
  0
ARC
  5
2D8
100
AcDbEntity
  8
0
100
AcDbCircle
 62
7
  6
CONTINUOUS
 10
2.5424760441
 20
5.0663875377
 40
0.02
100
AcDbArc
 50
0.0015000449
 51
64.8172389268
  0
ARC
  5
2D9
100
AcDbEntity
  8
0
100
AcDbCircle
 62
7
  6
CONTINUOUS
 10
7.9824760422
 20
5.0665299608
 40
0.02
100
AcDbArc
 50
115.1857611586
 51
180.0015000449
  0
ARC
  5
2DA
100
AcDbEntity
  8
0
100
AcDbCircle
 62
7
  6
CONTINUOUS
 10
8.7782152283
 20
5.9720840259
 40
0.015625
100
AcDbArc
 50
3.256751624
 51
90.0
  0
ARC
  5
2DB
100
AcDbEntity
  8
0
100
AcDbCircle
 62
7
  6
CONTINUOUS
 10
1.7469552283
 20
5.9720840259
 40
0.015625
100
AcDbArc
 50
90.0
 51
176.743248376
  0
ARC
  5
2DC
100
AcDbEntity
  8
0
100
AcDbCircle
 62
7
  6
CONTINUOUS
 10
9.0594652283
 20
5.957344338
 40
0.015625
100
AcDbArc
 50
357.0
 51
90.0
  0
ARC
  5
2DD
100
AcDbEntity
  8
0
100
AcDbCircle
 62
7
  6
CONTINUOUS
 10
1.4657052283
 20
5.957344338
 40
0.015625
100
AcDbArc
 50
90.0
 51
183.0
  0
ARC
  5
2DE
100
AcDbEntity
  8
0
100
AcDbCircle
 62
7
  6
CONTINUOUS
 10
8.7782152283
 20
5.6380281275
 40
0.015625
100
AcDbArc
 50
270.0
 51
356.743248376
  0
ARC
  5
2DF
100
AcDbEntity
  8
0
100
AcDbCircle
 62
7
  6
CONTINUOUS
 10
1.7469552283
 20
5.6380281275
 40
0.015625
100
AcDbArc
 50
183.256751624
 51
270.0
  0
ARC
  5
2E0
100
AcDbEntity
  8
0
100
AcDbCircle
 62
7
  6
CONTINUOUS
 10
9.0594652283
 20
5.6527678154
 40
0.015625
100
AcDbArc
 50
270.0
 51
3.0
  0
ARC
  5
2E1
100
AcDbEntity
  8
0
100
AcDbCircle
 62
7
  6
CONTINUOUS
 10
1.4657052283
 20
5.6527678154
 40
0.015625
100
AcDbArc
 50
177.0
 51
270.0
  0
LINE
  5
2E2
100
AcDbEntity
  8
0
100
AcDbLine
 62
7
  6
CONTINUOUS
 10
7.7019122684
 20
6.2996810767
 11
7.698691522
 21
6.2981983219
  0
LINE
  5
2E3
100
AcDbEntity
  8
0
100
AcDbLine
 62
7
  6
CONTINUOUS
 10
8.198691522
 20
6.2981983219
 11
8.1954707756
 21
6.2996810767
  0
SPLINE
  5
2E4
100
AcDbEntity
  8
0
100
AcDbSpline
 62
7
  6
CONTINUOUS
 70
0
 71
3
 72
11
 73
7
 74
0
 42
0.0000001
 43
0.0000001
 44
0.0000000001
 40
0.0
 40
0.0
 40
0.0
 40
0.0
 40
0.2492927649
 40
0.4989145477
 40
0.7491094734
 40
1.0
 40
1.0
 40
1.0
 40
1.0
 10
8.073691522
 20
6.2996810767
 30
0.0
 10
8.0837616513
 20
6.2996810767
 30
0.0
 10
8.1039229196
 20
6.2989160734
 30
0.0
 10
8.1340212713
 20
6.2955739019
 30
0.0
 10
8.1638950781
 20
6.290257348
 30
0.0
 10
8.1836035965
 20
6.2856008324
 30
0.0
 10
8.1934108266
 20
6.2830454882
 30
0.0
  0
SPLINE
  5
2E5
100
AcDbEntity
  8
0
100
AcDbSpline
 62
7
  6
CONTINUOUS
 70
0
 71
3
 72
11
 73
7
 74
0
 42
0.0000001
 43
0.0000001
 44
0.0000000001
 40
0.0
 40
0.0
 40
0.0
 40
0.0
 40
0.250890471
 40
0.5010854972
 40
0.7507074095
 40
1.0
 40
1.0
 40
1.0
 40
1.0
 10
7.7039722174
 20
6.2830454882
 30
0.0
 10
7.7137794421
 20
6.2856008309
 30
0.0
 10
7.7334879619
 20
6.2902573012
 30
0.0
 10
7.763361779
 20
6.2955738744
 30
0.0
 10
7.7934601761
 20
6.2989153702
 30
0.0
 10
7.8136214032
 20
6.2996810767
 30
0.0
 10
7.823691522
 20
6.2996810767
 30
0.0
  0
SPLINE
  5
2E6
100
AcDbEntity
  8
0
100
AcDbSpline
 62
7
  6
CONTINUOUS
 70
0
 71
3
 72
11
 73
7
 74
0
 42
0.0000001
 43
0.0000001
 44
0.0000000001
 40
0.0
 40
0.0
 40
0.0
 40
0.0
 40
0.2492927649
 40
0.4989145477
 40
0.7491094734
 40
1.0
 40
1.0
 40
1.0
 40
1.0
 10
7.823691522
 20
6.2996810767
 30
0.0
 10
7.8337616513
 20
6.2996810767
 30
0.0
 10
7.8539229196
 20
6.2989160734
 30
0.0
 10
7.8840212713
 20
6.2955739019
 30
0.0
 10
7.9138950781
 20
6.290257348
 30
0.0
 10
7.9336035965
 20
6.2856008324
 30
0.0
 10
7.9434108266
 20
6.2830454882
 30
0.0
  0
SPLINE
  5
2E7
100
AcDbEntity
  8
0
100
AcDbSpline
 62
7
  6
CONTINUOUS
 70
0
 71
3
 72
11
 73
7
 74
0
 42
0.0000001
 43
0.0000001
 44
0.0000000001
 40
0.0
 40
0.0
 40
0.0
 40
0.0
 40
0.250890471
 40
0.5010854972
 40
0.7507074095
 40
1.0
 40
1.0
 40
1.0
 40
1.0
 10
7.9539722174
 20
6.2830454882
 30
0.0
 10
7.9637794421
 20
6.2856008309
 30
0.0
 10
7.9834879619
 20
6.2902573012
 30
0.0
 10
8.013361779
 20
6.2955738744
 30
0.0
 10
8.0434601761
 20
6.2989153702
 30
0.0
 10
8.0636214032
 20
6.2996810767
 30
0.0
 10
8.073691522
 20
6.2996810767
 30
0.0
  0
LINE
  5
2E8
100
AcDbEntity
  8
0
100
AcDbLine
 62
7
  6
CONTINUOUS
 10
4.4539413568
 20
6.2992235772
 11
4.4523309164
 21
6.2977404233
  0
LINE
  5
2E9
100
AcDbEntity
  8
0
100
AcDbLine
 62
7
  6
CONTINUOUS
 10
4.3973404354
 20
6.2867366307
 11
4.3909952777
 21
6.2992350581
  0
LINE
  5
2EA
100
AcDbEntity
  8
0
100
AcDbLine
 62
7
  6
CONTINUOUS
 10
4.6443191882
 20
5.6175466039
 11
4.6581254989
 21
5.617172421
  0
LINE
  5
2EB
100
AcDbEntity
  8
0
100
AcDbLine
 62
7
  6
CONTINUOUS
 10
4.3830488841
 20
6.2977503344
 11
4.3846593245
 21
6.2992334882
  0
SPLINE
  5
2EC
100
AcDbEntity
  8
0
100
AcDbSpline
 62
7
  6
CONTINUOUS
 70
0
 71
3
 72
12
 73
8
 74
0
 42
0.0000001
 43
0.0000001
 44
0.0000000001
 40
0.0
 40
0.0
 40
0.0
 40
0.0
 40
0.2507035688
 40
0.5009052216
 40
0.6258332595
 40
0.7506586233
 40
1.0
 40
1.0
 40
1.0
 40
1.0
 10
4.2979699086
 20
6.2826096718
 30
0.0
 10
4.3049664834
 20
6.2844316571
 30
0.0
 10
4.3190065278
 20
6.2878436434
 30
0.0
 10
4.3366977438
 20
6.2914412515
 30
0.0
 10
4.3509125548
 20
6.2938599965
 30
0.0
 10
4.36515357
 20
6.2959526374
 30
0.0
 10
4.3758840429
 20
6.2971418537
 30
0.0
 10
4.3830488841
 20
6.2977503344
 30
0.0
  0
LINE
  5
2ED
100
AcDbEntity
  8
0
100
AcDbLine
 62
7
  6
CONTINUOUS
 10
4.5286085643
 20
5.6171414698
 11
4.5260837714
 21
5.6175517437
  0
SPLINE
  5
2EE
100
AcDbEntity
  8
0
100
AcDbSpline
 62
7
  6
CONTINUOUS
 70
0
 71
3
 72
11
 73
7
 74
0
 42
0.0000001
 43
0.0000001
 44
0.0000000001
 40
0.0
 40
0.0
 40
0.0
 40
0.0
 40
0.2508926113
 40
0.5010885183
 40
0.7507097859
 40
1.0
 40
1.0
 40
1.0
 40
1.0
 10
4.5479699084
 20
6.2825749402
 30
0.0
 10
4.5577772281
 20
6.285130791
 30
0.0
 10
4.5774859054
 20
6.2897882828
 30
0.0
 10
4.6073599463
 20
6.2951064223
 30
0.0
 10
4.6374584813
 20
6.2984494996
 30
0.0
 10
4.6576198116
 20
6.2992162698
 30
0.0
 10
4.6676899672
 20
6.2992167971
 30
0.0
  0
SPLINE
  5
2EF
100
AcDbEntity
  8
0
100
AcDbSpline
 62
7
  6
CONTINUOUS
 70
0
 71
3
 72
11
 73
7
 74
0
 42
0.0000001
 43
0.0000001
 44
0.0000000001
 40
0.0
 40
0.0
 40
0.0
 40
0.0
 40
0.2493891049
 40
0.4991486763
 40
0.7493453273
 40
1.0
 40
1.0
 40
1.0
 40
1.0
 10
4.4600605448
 20
6.297010476
 30
0.0
 10
4.4665725595
 20
6.2963359285
 30
0.0
 10
4.4795772508
 20
6.2946898343
 30
0.0
 10
4.4989764597
 20
6.2913980835
 30
0.0
 10
4.5182679231
 20
6.287363128
 30
0.0
 10
4.5310412589
 20
6.2842353845
 30
0.0
 10
4.5374085176
 20
6.2825754191
 30
0.0
  0
SPLINE
  5
2F0
100
AcDbEntity
  8
0
100
AcDbSpline
 62
7
  6
CONTINUOUS
 70
0
 71
3
 72
11
 73
7
 74
0
 42
0.0000001
 43
0.0000001
 44
0.0000000001
 40
0.0
 40
0.0
 40
0.0
 40
0.0
 40
0.2492951419
 40
0.4989175694
 40
0.7491116141
 40
1.0
 40
1.0
 40
1.0
 40
1.0
 10
4.6676899672
 20
6.2992167971
 30
0.0
 10
4.6777600597
 20
6.2992173244
 30
0.0
 10
4.6979212248
 20
6.2984533849
 30
0.0
 10
4.7280194384
 20
6.2951127949
 30
0.0
 10
4.7578930214
 20
6.2897978075
 30
0.0
 10
4.7776013822
 20
6.2851423136
 30
0.0
 10
4.7874085173
 20
6.2825874776
 30
0.0
  0
LINE
  5
2F1
100
AcDbEntity
  8
0
100
AcDbLine
 62
7
  6
CONTINUOUS
 10
9.0920491181
 20
5.6634128836
 11
8.9108293092
 21
5.6535855648
  0
LINE
  5
2F2
100
AcDbEntity
  8
0
100
AcDbLine
 62
7
  6
CONTINUOUS
 10
2.6565899639
 20
5.6535855648
 11
2.5239278565
 21
5.6634128836
  0
LINE
  5
2F3
100
AcDbEntity
  8
0
100
AcDbLine
 62
7
  6
CONTINUOUS
 10
8.3357402587
 20
5.6224031099
 11
8.2463352735
 21
5.6175560767
  0
SPLINE
  5
2F4
100
AcDbEntity
  8
0
100
AcDbSpline
 62
7
  6
CONTINUOUS
 70
0
 71
3
 72
15
 73
11
 74
0
 42
0.0000001
 43
0.0000001
 44
0.0000000001
 40
0.0
 40
0.0
 40
0.0
 40
0.0
 40
0.114190409
 40
0.2376047229
 40
0.3672131643
 40
0.5000000397
 40
0.6327869094
 40
0.7623953328
 40
0.8858096091
 40
1.0
 40
1.0
 40
1.0
 40
1.0
 10
5.0249991866
 20
5.6175560767
 30
0.0
 10
5.0430786506
 20
5.6181551681
 30
0.0
 10
5.0807052923
 20
5.6191847822
 30
0.0
 10
5.1388677775
 20
5.6202580646
 30
0.0
 10
5.1999826301
 20
5.6209092382
 30
0.0
 10
5.2625852462
 20
5.6211279401
 30
0.0
 10
5.3251878595
 20
5.620909238
 30
0.0
 10
5.3863027024
 20
5.6202580642
 30
0.0
 10
5.444465176
 20
5.619184782
 30
0.0
 10
5.4820918088
 20
5.618155168
 30
0.0
 10
5.50017127
 20
5.6175560767
 30
0.0
  0
SPLINE
  5
2F5
100
AcDbEntity
  8
0
100
AcDbSpline
 62
7
  6
CONTINUOUS
 70
0
 71
3
 72
22
 73
18
 74
0
 42
0.0000001
 43
0.0000001
 44
0.0000000001
 40
0.0
 40
0.0
 40
0.0
 40
0.0
 40
0.0079030279
 40
0.0179404653
 40
0.03008997
 40
0.044321963
 40
0.0788976692
 40
0.1213087679
 40
0.1710622387
 40
0.2276390541
 40
0.2903983489
 40
0.3586204799
 40
0.4315577036
 40
0.5083578217
 40
0.6700250374
 40
0.8364975377
 40
1.0
 40
1.0
 40
1.0
 40
1.0
 10
3.4902162564
 20
5.6175560767
 30
0.0
 10
3.4908218135
 20
5.6176991469
 30
0.0
 10
3.492210888
 20
5.6179618219
 30
0.0
 10
3.4945564847
 20
5.6182964527
 30
0.0
 10
3.4974065939
 20
5.6186141914
 30
0.0
 10
3.5021871481
 20
5.619041099
 30
0.0
 10
3.5093556568
 20
5.6194960864
 30
0.0
 10
3.5193251489
 20
5.619930256
 30
0.0
 10
3.5310312964
 20
5.6202736312
 30
0.0
 10
3.5443420976
 20
5.6205211361
 30
0.0
 10
3.5591085118
 20
5.6206697868
 30
0.0
 10
3.5751636685
 20
5.6207176665
 30
0.0
 10
3.5923242701
 20
5.6206629695
 30
0.0
 10
3.6168412467
 20
5.6204511148
 30
0.0
 10
3.648719695
 20
5.6199338181
 30
0.0
 10
3.6874162346
 20
5.6189560444
 30
0.0
 10
3.7133813139
 20
5.6180645325
 30
0.0
 10
3.7262442981
 20
5.6175560767
 30
0.0
  0
LINE
  5
2F6
100
AcDbEntity
  8
0
100
AcDbLine
 62
7
  6
CONTINUOUS
 10
3.1430333593
 20
5.6175560767
 11
3.0775843677
 21
5.6224031099
  0
LINE
  5
2F7
100
AcDbEntity
  8
0
100
AcDbLine
 62
7
  6
CONTINUOUS
 10
8.3777268517
 20
5.9925560767
 11
8.4457570265
 21
5.989417202
  0
LINE
  5
2F8
100
AcDbEntity
  8
0
100
AcDbLine
 62
7
  6
CONTINUOUS
 10
2.278835183
 20
5.9925560767
 11
2.1894301978
 21
5.9877090435
  0
SPLINE
  5
2F9
100
AcDbEntity
  8
0
100
AcDbSpline
 62
7
  6
CONTINUOUS
 70
0
 71
3
 72
22
 73
18
 74
0
 42
0.0000001
 43
0.0000001
 44
0.0000000001
 40
0.0
 40
0.0
 40
0.0
 40
0.0
 40
0.0079030279
 40
0.0179404653
 40
0.03008997
 40
0.044321963
 40
0.0788976692
 40
0.1213087679
 40
0.1710622387
 40
0.2276390541
 40
0.2903983489
 40
0.3586204799
 40
0.4315577036
 40
0.5083578217
 40
0.6700250374
 40
0.8364975377
 40
1.0
 40
1.0
 40
1.0
 40
1.0
 10
3.4902162564
 20
5.9925560767
 30
0.0
 10
3.4908218135
 20
5.9924130065
 30
0.0
 10
3.492210888
 20
5.9921503315
 30
0.0
 10
3.4945564847
 20
5.9918157007
 30
0.0
 10
3.4974065939
 20
5.991497962
 30
0.0
 10
3.5021871481
 20
5.9910710544
 30
0.0
 10
3.5093556568
 20
5.990616067
 30
0.0
 10
3.5193251489
 20
5.9901818974
 30
0.0
 10
3.5310312964
 20
5.9898385222
 30
0.0
 10
3.5443420976
 20
5.9895910173
 30
0.0
 10
3.5591085118
 20
5.9894423666
 30
0.0
 10
3.5751636685
 20
5.9893944869
 30
0.0
 10
3.5923242701
 20
5.9894491839
 30
0.0
 10
3.6168412467
 20
5.9896610386
 30
0.0
 10
3.648719695
 20
5.9901783353
 30
0.0
 10
3.6874162346
 20
5.991156109
 30
0.0
 10
3.7133813139
 20
5.9920476209
 30
0.0
 10
3.7262442981
 20
5.9925560767
 30
0.0
  0
SPLINE
  5
2FA
100
AcDbEntity
  8
0
100
AcDbSpline
 62
7
  6
CONTINUOUS
 70
0
 71
3
 72
15
 73
11
 74
0
 42
0.0000001
 43
0.0000001
 44
0.0000000001
 40
0.0
 40
0.0
 40
0.0
 40
0.0
 40
0.114190409
 40
0.2376047229
 40
0.3672131643
 40
0.5000000397
 40
0.6327869094
 40
0.7623953328
 40
0.8858096091
 40
1.0
 40
1.0
 40
1.0
 40
1.0
 10
5.0249991866
 20
5.9925560767
 30
0.0
 10
5.0430786506
 20
5.9919569853
 30
0.0
 10
5.0807052923
 20
5.9909273712
 30
0.0
 10
5.1388677775
 20
5.9898540888
 30
0.0
 10
5.1999826301
 20
5.9892029152
 30
0.0
 10
5.2625852462
 20
5.9889842133
 30
0.0
 10
5.3251878595
 20
5.9892029154
 30
0.0
 10
5.3863027024
 20
5.9898540892
 30
0.0
 10
5.444465176
 20
5.9909273714
 30
0.0
 10
5.4820918088
 20
5.9919569854
 30
0.0
 10
5.50017127
 20
5.9925560767
 30
0.0
  0
LINE
  5
2FB
100
AcDbEntity
  8
0
100
AcDbLine
 62
7
  6
CONTINUOUS
 10
7.4475860888
 20
5.9877090435
 11
7.3821370972
 21
5.9925560767
  0
LINE
  5
2FC
100
AcDbEntity
  8
0
100
AcDbLine
 62
7
  6
CONTINUOUS
 10
1.6143411474
 20
5.9565265886
 11
1.4331213385
 21
5.9466992698
  0
LINE
  5
2FD
100
AcDbEntity
  8
0
100
AcDbLine
 62
7
  6
CONTINUOUS
 10
8.0012426001
 20
5.9466992698
 11
7.8685804926
 21
5.9565265886
  0
LINE
  5
2FE
100
AcDbEntity
  8
0
100
AcDbLine
 62
7
  6
CONTINUOUS
 10
8.4457570265
 20
5.6206949514
 11
8.3777268517
 21
5.6175560767
  0
SPLINE
  5
2FF
100
AcDbEntity
  8
0
100
AcDbSpline
 62
7
  6
CONTINUOUS
 70
0
 71
3
 72
15
 73
11
 74
0
 42
0.0000001
 43
0.0000001
 44
0.0000000001
 40
0.0
 40
0.0
 40
0.0
 40
0.0
 40
0.1229656603
 40
0.2462430405
 40
0.3699794004
 40
0.4944906112
 40
0.6199353473
 40
0.7464406781
 40
0.8735208516
 40
1.0
 40
1.0
 40
1.0
 40
1.0
 10
1.8365158643
 20
5.9877085483
 30
0.0
 10
1.8374710948
 20
5.9877092553
 30
0.0
 10
1.8393889835
 20
5.9875193791
 30
0.0
 10
1.8421581637
 20
5.9866883777
 30
0.0
 10
1.8447255345
 20
5.9853292719
 30
0.0
 10
1.8469942723
 20
5.9834903758
 30
0.0
 10
1.8488936851
 20
5.9812434719
 30
0.0
 10
1.8503371907
 20
5.9786566151
 30
0.0
 10
1.8512862564
 20
5.9758449632
 30
0.0
 10
1.8515739928
 20
5.9738830416
 30
0.0
 10
1.8516236982
 20
5.9729017752
 30
0.0
  0
SPLINE
  5
300
100
AcDbEntity
  8
0
100
AcDbSpline
 62
7
  6
CONTINUOUS
 70
0
 71
3
 72
15
 73
11
 74
0
 42
0.0000001
 43
0.0000001
 44
0.0000000001
 40
0.0
 40
0.0
 40
0.0
 40
0.0
 40
0.1228636787
 40
0.2460998238
 40
0.3698329271
 40
0.494243224
 40
0.6195416175
 40
0.7457842539
 40
0.8729117003
 40
1.0
 40
1.0
 40
1.0
 40
1.0
 10
1.9012206256
 20
5.9877085483
 30
0.0
 10
1.900271291
 20
5.9877078456
 30
0.0
 10
1.8983648045
 20
5.9875143365
 30
0.0
 10
1.895615479
 20
5.9866766597
 30
0.0
 10
1.8930621948
 20
5.9853278299
 30
0.0
 10
1.8908063015
 20
5.9835003552
 30
0.0
 10
1.8889188066
 20
5.9812703216
 30
0.0
 10
1.8874687852
 20
5.9787085869
 30
0.0
 10
1.8865208568
 20
5.9759092601
 30
0.0
 10
1.8862285405
 20
5.9739544319
 30
0.0
 10
1.8861721154
 20
5.972974077
 30
0.0
  0
SPLINE
  5
301
100
AcDbEntity
  8
0
100
AcDbSpline
 62
7
  6
CONTINUOUS
 70
0
 71
3
 72
15
 73
11
 74
0
 42
0.0000001
 43
0.0000001
 44
0.0000000001
 40
0.0
 40
0.0
 40
0.0
 40
0.0
 40
0.1229655743
 40
0.2462430397
 40
0.3699794007
 40
0.494490681
 40
0.6199357077
 40
0.7464410796
 40
0.8735210117
 40
1.0
 40
1.0
 40
1.0
 40
1.0
 10
1.5646900919
 20
5.97296886
 30
0.0
 10
1.5656452778
 20
5.972969566
 30
0.0
 10
1.567563079
 20
5.9727796686
 30
0.0
 10
1.5703321045
 20
5.9719486018
 30
0.0
 10
1.5728992842
 20
5.9705894112
 30
0.0
 10
1.5751677952
 20
5.9687504425
 30
0.0
 10
1.577066969
 20
5.9665035111
 30
0.0
 10
1.5785102597
 20
5.9639166929
 30
0.0
 10
1.5794591671
 20
5.9611051378
 30
0.0
 10
1.5797468511
 20
5.9591433076
 30
0.0
 10
1.5797965496
 20
5.9581620873
 30
0.0
  0
SPLINE
  5
302
100
AcDbEntity
  8
0
100
AcDbSpline
 62
7
  6
CONTINUOUS
 70
0
 71
3
 72
15
 73
11
 74
0
 42
0.0000001
 43
0.0000001
 44
0.0000000001
 40
0.0
 40
0.0
 40
0.0
 40
0.0
 40
0.1227907052
 40
0.2459962032
 40
0.3697497749
 40
0.4942959106
 40
0.6198134544
 40
0.7463731868
 40
0.8735449569
 40
1.0
 40
1.0
 40
1.0
 40
1.0
 10
1.6293948532
 20
5.97296886
 30
0.0
 10
1.6283765197
 20
5.9729681073
 30
0.0
 10
1.6263304208
 20
5.9727450974
 30
0.0
 10
1.6233970449
 20
5.9717839511
 30
0.0
 10
1.6207059666
 20
5.9702380473
 30
0.0
 10
1.6183795239
 20
5.9681566743
 30
0.0
 10
1.6164974922
 20
5.9656376825
 30
0.0
 10
1.6151540189
 20
5.9627698181
 30
0.0
 10
1.6143956219
 20
5.9596904806
 30
0.0
 10
1.6142880983
 20
5.957573969
 30
0.0
 10
1.6143411474
 20
5.9565265886
 30
0.0
  0
SPLINE
  5
303
100
AcDbEntity
  8
0
100
AcDbSpline
 62
7
  6
CONTINUOUS
 70
0
 71
3
 72
15
 73
11
 74
0
 42
0.0000001
 43
0.0000001
 44
0.0000000001
 40
0.0
 40
0.0
 40
0.0
 40
0.0
 40
0.1228631131
 40
0.2460990795
 40
0.3698317621
 40
0.4942418592
 40
0.6195402501
 40
0.745783396
 40
0.8729115984
 40
1.0
 40
1.0
 40
1.0
 40
1.0
 10
8.6239495405
 20
5.6224035944
 30
0.0
 10
8.6248988819
 20
5.6224042879
 30
0.0
 10
8.6268053841
 20
5.6225977915
 30
0.0
 10
8.6295547539
 20
5.6234354004
 30
0.0
 10
8.6321080896
 20
5.6247841986
 30
0.0
 10
8.6343640228
 20
5.6266116694
 30
0.0
 10
8.636251578
 20
5.6288417015
 30
0.0
 10
8.6377016208
 20
5.6314034774
 30
0.0
 10
8.6386495713
 20
5.6342028428
 30
0.0
 10
8.6389419069
 20
5.6361576986
 30
0.0
 10
8.638998337
 20
5.6371380655
 30
0.0
  0
SPLINE
  5
304
100
AcDbEntity
  8
0
100
AcDbSpline
 62
7
  6
CONTINUOUS
 70
0
 71
3
 72
15
 73
11
 74
0
 42
0.0000001
 43
0.0000001
 44
0.0000000001
 40
0.0
 40
0.0
 40
0.0
 40
0.0
 40
0.1229658625
 40
0.2462435554
 40
0.3699802775
 40
0.4944915881
 40
0.6199361345
 40
0.7464406632
 40
0.8735204192
 40
1.0
 40
1.0
 40
1.0
 40
1.0
 10
8.6886543018
 20
5.6224035944
 30
0.0
 10
8.6876990813
 20
5.6224028967
 30
0.0
 10
8.6857812132
 20
5.6225928103
 30
0.0
 10
8.6830120844
 20
5.6234238765
 30
0.0
 10
8.6804447524
 20
5.6247829908
 30
0.0
 10
8.67817607
 20
5.6266219038
 30
0.0
 10
8.6762767062
 20
5.6288687894
 30
0.0
 10
8.6748332163
 20
5.6314556014
 30
0.0
 10
8.673884186
 20
5.6342672222
 30
0.0
 10
8.6735964633
 20
5.6362291203
 30
0.0
 10
8.6735467583
 20
5.6372103782
 30
0.0
  0
SPLINE
  5
305
100
AcDbEntity
  8
0
100
AcDbSpline
 62
7
  6
CONTINUOUS
 70
0
 71
3
 72
15
 73
11
 74
0
 42
0.0000001
 43
0.0000001
 44
0.0000000001
 40
0.0
 40
0.0
 40
0.0
 40
0.0
 40
0.1227902146
 40
0.2459955546
 40
0.3697487407
 40
0.4942947784
 40
0.6198124632
 40
0.7463729868
 40
0.8735453005
 40
1.0
 40
1.0
 40
1.0
 40
1.0
 10
8.8957753134
 20
5.6371432828
 30
0.0
 10
8.8967936543
 20
5.6371440255
 30
0.0
 10
8.8988397697
 20
5.6373670284
 30
0.0
 10
8.9017731969
 20
5.6383280983
 30
0.0
 10
8.9044643244
 20
5.6398739828
 30
0.0
 10
8.9067908177
 20
5.6419553461
 30
0.0
 10
8.9086729084
 20
5.6444743507
 30
0.0
 10
8.9100163919
 20
5.6473422645
 30
0.0
 10
8.9107748221
 20
5.6504216372
 30
0.0
 10
8.9108823587
 20
5.6525381753
 30
0.0
 10
8.9108293092
 20
5.6535855648
 30
0.0
  0
SPLINE
  5
306
100
AcDbEntity
  8
0
100
AcDbSpline
 62
7
  6
CONTINUOUS
 70
0
 71
3
 72
15
 73
11
 74
0
 42
0.0000001
 43
0.0000001
 44
0.0000000001
 40
0.0
 40
0.0
 40
0.0
 40
0.0
 40
0.1229657759
 40
0.246243554
 40
0.3699802777
 40
0.4944916575
 40
0.6199364943
 40
0.746441065
 40
0.8735205799
 40
1.0
 40
1.0
 40
1.0
 40
1.0
 10
8.9604800746
 20
5.6371432828
 30
0.0
 10
8.9595248987
 20
5.6371425861
 30
0.0
 10
8.9576071181
 20
5.6373325207
 30
0.0
 10
8.9548381439
 20
5.6381636522
 30
0.0
 10
8.9522710029
 20
5.6395228513
 30
0.0
 10
8.9500025472
 20
5.641361837
 30
0.0
 10
8.9481034225
 20
5.6436087501
 30
0.0
 10
8.9466601473
 20
5.6461955235
 30
0.0
 10
8.9457112753
 20
5.6490070476
 30
0.0
 10
8.9454236051
 20
5.6509688544
 30
0.0
 10
8.945373907
 20
5.6519500661
 30
0.0
  0
SPLINE
  5
307
100
AcDbEntity
  8
0
100
AcDbSpline
 62
7
  6
CONTINUOUS
 70
0
 71
3
 72
15
 73
11
 74
0
 42
0.0000001
 43
0.0000001
 44
0.0000000001
 40
0.0
 40
0.0
 40
0.0
 40
0.0
 40
0.1437956881
 40
0.2865390488
 40
0.4243526471
 40
0.5547653413
 40
0.6767788105
 40
0.7904022975
 40
0.8972219228
 40
1.0
 40
1.0
 40
1.0
 40
1.0
 10
2.6565899639
 20
5.6535855648
 30
0.0
 10
2.6565511273
 20
5.6525381298
 30
0.0
 10
2.656628517
 20
5.6504425083
 30
0.0
 10
2.6571743568
 20
5.6473877279
 30
0.0
 10
2.6581413491
 20
5.6445386867
 30
0.0
 10
2.6595014078
 20
5.6420240444
 30
0.0
 10
2.6611888648
 20
5.6399343251
 30
0.0
 10
2.6631588325
 20
5.6383642583
 30
0.0
 10
2.6653257938
 20
5.6373769555
 30
0.0
 10
2.6668610847
 20
5.6371440292
 30
0.0
 10
2.6676102537
 20
5.6371432828
 30
0.0
  0
SPLINE
  5
308
100
AcDbEntity
  8
0
100
AcDbSpline
 62
7
  6
CONTINUOUS
 70
0
 71
3
 72
15
 73
11
 74
0
 42
0.0000001
 43
0.0000001
 44
0.0000000001
 40
0.0
 40
0.0
 40
0.0
 40
0.0
 40
0.1446729429
 40
0.2872110924
 40
0.4243106605
 40
0.5538204177
 40
0.6751963342
 40
0.7887364247
 40
0.8961138569
 40
1.0
 40
1.0
 40
1.0
 40
1.0
 10
2.5018920407
 20
5.6519500661
 30
0.0
 10
2.5018558116
 20
5.6509729666
 30
0.0
 10
2.5016494192
 20
5.6490357621
 30
0.0
 10
2.5009647331
 20
5.6462422582
 30
0.0
 10
2.4999233344
 20
5.6436684977
 30
0.0
 10
2.4985473493
 20
5.6414212967
 30
0.0
 10
2.4968974343
 20
5.6395723166
 30
0.0
 10
2.4950161023
 20
5.6381922324
 30
0.0
 10
2.4929699769
 20
5.6373396904
 30
0.0
 10
2.4915356718
 20
5.6371425832
 30
0.0
 10
2.4908335584
 20
5.6371432828
 30
0.0
  0
SPLINE
  5
309
100
AcDbEntity
  8
0
100
AcDbSpline
 62
7
  6
CONTINUOUS
 70
0
 71
3
 72
15
 73
11
 74
0
 42
0.0000001
 43
0.0000001
 44
0.0000000001
 40
0.0
 40
0.0
 40
0.0
 40
0.0
 40
0.1453472197
 40
0.2879078335
 40
0.4246048521
 40
0.5539220967
 40
0.6751938806
 40
0.7887432137
 40
0.8961680046
 40
1.0
 40
1.0
 40
1.0
 40
1.0
 10
2.8555840467
 20
5.6371380655
 30
0.0
 10
2.8556251793
 20
5.6361618992
 30
0.0
 10
2.8558350776
 20
5.6342313876
 30
0.0
 10
2.8565185571
 20
5.6314510104
 30
0.0
 10
2.857565803
 20
5.6288999712
 30
0.0
 10
2.8589334161
 20
5.6266705536
 30
0.0
 10
2.8605739242
 20
5.6248331783
 30
0.0
 10
2.8624460608
 20
5.6234634961
 30
0.0
 10
2.8644762272
 20
5.6226053482
 30
0.0
 10
2.8659025658
 20
5.6224042908
 30
0.0
 10
2.8666005302
 20
5.6224035944
 30
0.0
  0
SPLINE
  5
30A
100
AcDbEntity
  8
0
100
AcDbSpline
 62
7
  6
CONTINUOUS
 70
0
 71
3
 72
15
 73
11
 74
0
 42
0.0000001
 43
0.0000001
 44
0.0000000001
 40
0.0
 40
0.0
 40
0.0
 40
0.0
 40
0.1446744771
 40
0.2872135657
 40
0.4243128205
 40
0.5538212089
 40
0.6751958023
 40
0.7887351995
 40
0.8961128128
 40
1.0
 40
1.0
 40
1.0
 40
1.0
 10
2.7008833244
 20
5.6372103782
 30
0.0
 10
2.7008470903
 20
5.6362332338
 30
0.0
 10
2.7006406613
 20
5.6342959449
 30
0.0
 10
2.6999558627
 20
5.6315023465
 30
0.0
 10
2.6989143098
 20
5.6289285451
 30
0.0
 10
2.6975381485
 20
5.6266813641
 30
0.0
 10
2.6958880618
 20
5.6248324497
 30
0.0
 10
2.6940065833
 20
5.6234524495
 30
0.0
 10
2.6919603438
 20
5.6225999774
 30
0.0
 10
2.6905259802
 20
5.6224028939
 30
0.0
 10
2.6898238349
 20
5.6224035944
 30
0.0
  0
SPLINE
  5
30B
100
AcDbEntity
  8
0
100
AcDbSpline
 62
7
  6
CONTINUOUS
 70
0
 71
3
 72
15
 73
11
 74
0
 42
0.0000001
 43
0.0000001
 44
0.0000000001
 40
0.0
 40
0.0
 40
0.0
 40
0.0
 40
0.1446727009
 40
0.2872114853
 40
0.4243121654
 40
0.5538220748
 40
0.6751976013
 40
0.7887371391
 40
0.8961139744
 40
1.0
 40
1.0
 40
1.0
 40
1.0
 10
8.0232784159
 20
5.9581620873
 30
0.0
 10
8.0233146453
 20
5.9591391951
 30
0.0
 10
8.0235210471
 20
5.9610764219
 30
0.0
 10
8.0242057599
 20
5.9638699588
 30
0.0
 10
8.025247168
 20
5.9664437596
 30
0.0
 10
8.0266231876
 20
5.9686909807
 30
0.0
 10
8.0282731463
 20
5.970539947
 30
0.0
 10
8.0301545039
 20
5.9719200217
 30
0.0
 10
8.0322006734
 20
5.9727725015
 30
0.0
 10
8.0336349908
 20
5.9729695689
 30
0.0
 10
8.0343371104
 20
5.97296886
 30
0.0
  0
SPLINE
  5
30C
100
AcDbEntity
  8
0
100
AcDbSpline
 62
7
  6
CONTINUOUS
 70
0
 71
3
 72
15
 73
11
 74
0
 42
0.0000001
 43
0.0000001
 44
0.0000000001
 40
0.0
 40
0.0
 40
0.0
 40
0.0
 40
0.1437958117
 40
0.2865383665
 40
0.4243508601
 40
0.5547635058
 40
0.6767773328
 40
0.790401506
 40
0.897221617
 40
1.0
 40
1.0
 40
1.0
 40
1.0
 10
7.8685804926
 20
5.9565265886
 30
0.0
 10
7.8686193289
 20
5.9575740146
 30
0.0
 10
7.8685419484
 20
5.9596696108
 30
0.0
 10
7.8679961336
 20
5.9627243541
 30
0.0
 10
7.8670291462
 20
5.9655733514
 30
0.0
 10
7.8656691304
 20
5.9680879773
 30
0.0
 10
7.8639817113
 20
5.9701777055
 30
0.0
 10
7.8620117789
 20
5.9717477899
 30
0.0
 10
7.8598448628
 20
5.9727351675
 30
0.0
 10
7.8583095793
 20
5.9729681035
 30
0.0
 10
7.8575604152
 20
5.97296886
 30
0.0
  0
SPLINE
  5
30D
100
AcDbEntity
  8
0
100
AcDbSpline
 62
7
  6
CONTINUOUS
 70
0
 71
3
 72
15
 73
11
 74
0
 42
0.0000001
 43
0.0000001
 44
0.0000000001
 40
0.0
 40
0.0
 40
0.0
 40
0.0
 40
0.1446742348
 40
0.2872139587
 40
0.4243143268
 40
0.5538228672
 40
0.67519707
 40
0.7887359145
 40
0.8961129307
 40
1.0
 40
1.0
 40
1.0
 40
1.0
 10
7.8242871322
 20
5.9729017752
 30
0.0
 10
7.8243233665
 20
5.9738789279
 30
0.0
 10
7.824529805
 20
5.9758162391
 30
0.0
 10
7.8252146304
 20
5.9786098706
 30
0.0
 10
7.8262561927
 20
5.9811837123
 30
0.0
 10
7.8276323885
 20
5.9834309134
 30
0.0
 10
7.8292825191
 20
5.985279814
 30
0.0
 10
7.831164023
 20
5.9866598046
 30
0.0
 10
7.8332103068
 20
5.9875122145
 30
0.0
 10
7.8346446826
 20
5.9877092582
 30
0.0
 10
7.8353468342
 20
5.9877085483
 30
0.0
  0
SPLINE
  5
30E
100
AcDbEntity
  8
0
100
AcDbSpline
 62
7
  6
CONTINUOUS
 70
0
 71
3
 72
15
 73
11
 74
0
 42
0.0000001
 43
0.0000001
 44
0.0000000001
 40
0.0
 40
0.0
 40
0.0
 40
0.0
 40
0.14534686
 40
0.2879063976
 40
0.4246026712
 40
0.5539201062
 40
0.6751923021
 40
0.7887424066
 40
0.8961676552
 40
1.0
 40
1.0
 40
1.0
 40
1.0
 10
7.669586413
 20
5.972974077
 30
0.0
 10
7.6695452839
 20
5.9739502315
 30
0.0
 10
7.6693353995
 20
5.9758807159
 30
0.0
 10
7.6686519366
 20
5.9786610545
 30
0.0
 10
7.6676047033
 20
5.9812120566
 30
0.0
 10
7.6662371363
 20
5.9834414706
 30
0.0
 10
7.6645966558
 20
5.9852788515
 30
0.0
 10
7.6627245587
 20
5.9866485619
 30
0.0
 10
7.6606944301
 20
5.9875067778
 30
0.0
 10
7.6592680989
 20
5.9877078425
 30
0.0
 10
7.6585701389
 20
5.9877085483
 30
0.0
  0
SPLINE
  5
30F
100
AcDbEntity
  8
0
100
AcDbSpline
 62
7
  6
CONTINUOUS
 70
0
 71
3
 72
15
 73
11
 74
0
 42
0.0000001
 43
0.0000001
 44
0.0000000001
 40
0.0
 40
0.0
 40
0.0
 40
0.0
 40
0.1027780772
 40
0.2095977025
 40
0.3232211895
 40
0.4452346587
 40
0.5756473529
 40
0.7134609512
 40
0.8562043119
 40
1.0
 40
1.0
 40
1.0
 40
1.0
 10
2.4908335584
 20
5.6371432828
 30
0.0
 10
2.4900843894
 20
5.6371440292
 30
0.0
 10
2.4885490985
 20
5.6373769555
 30
0.0
 10
2.4863821372
 20
5.6383642583
 30
0.0
 10
2.4844121695
 20
5.6399343251
 30
0.0
 10
2.4827247125
 20
5.6420240444
 30
0.0
 10
2.4813646538
 20
5.6445386867
 30
0.0
 10
2.4803976615
 20
5.6473877279
 30
0.0
 10
2.4798518217
 20
5.6504425083
 30
0.0
 10
2.479774432
 20
5.6525381298
 30
0.0
 10
2.4798132686
 20
5.6535855648
 30
0.0
  0
SPLINE
  5
310
100
AcDbEntity
  8
0
100
AcDbSpline
 62
7
  6
CONTINUOUS
 70
0
 71
3
 72
15
 73
11
 74
0
 42
0.0000001
 43
0.0000001
 44
0.0000000001
 40
0.0
 40
0.0
 40
0.0
 40
0.0
 40
0.102778383
 40
0.209598494
 40
0.3232226672
 40
0.4452364942
 40
0.5756491399
 40
0.7134616335
 40
0.8562041883
 40
1.0
 40
1.0
 40
1.0
 40
1.0
 10
8.0343371104
 20
5.97296886
 30
0.0
 10
8.0350862746
 20
5.9729681035
 30
0.0
 10
8.0366215581
 20
5.9727351675
 30
0.0
 10
8.0387884742
 20
5.9717477899
 30
0.0
 10
8.0407584066
 20
5.9701777055
 30
0.0
 10
8.0424458257
 20
5.9680879773
 30
0.0
 10
8.0438058415
 20
5.9655733514
 30
0.0
 10
8.0447728288
 20
5.9627243541
 30
0.0
 10
8.0453186437
 20
5.9596696108
 30
0.0
 10
8.0453960242
 20
5.9575740146
 30
0.0
 10
8.0453571879
 20
5.9565265886
 30
0.0
  0
SPLINE
  5
311
100
AcDbEntity
  8
0
100
AcDbSpline
 62
7
  6
CONTINUOUS
 70
0
 71
3
 72
15
 73
11
 74
0
 42
0.0000001
 43
0.0000001
 44
0.0000000001
 40
0.0
 40
0.0
 40
0.0
 40
0.0
 40
0.1264546995
 40
0.2536270132
 40
0.3801875368
 40
0.5057052216
 40
0.6302512593
 40
0.7540044454
 40
0.8772097854
 40
1.0
 40
1.0
 40
1.0
 40
1.0
 10
8.9755340704
 20
5.6535855648
 30
0.0
 10
8.9755871199
 20
5.6525381753
 30
0.0
 10
8.9754795833
 20
5.6504216372
 30
0.0
 10
8.9747211532
 20
5.6473422645
 30
0.0
 10
8.9733776697
 20
5.6444743507
 30
0.0
 10
8.971495579
 20
5.6419553461
 30
0.0
 10
8.9691690857
 20
5.6398739828
 30
0.0
 10
8.9664779582
 20
5.6383280983
 30
0.0
 10
8.9635445309
 20
5.6373670284
 30
0.0
 10
8.9614984156
 20
5.6371440255
 30
0.0
 10
8.9604800746
 20
5.6371432828
 30
0.0
  0
SPLINE
  5
312
100
AcDbEntity
  8
0
100
AcDbSpline
 62
7
  6
CONTINUOUS
 70
0
 71
3
 72
44
 73
40
 74
0
 42
0.0000001
 43
0.0000001
 44
0.0000000001
 40
0.0
 40
0.0
 40
0.0
 40
0.0
 40
0.0624377753
 40
0.1248758653
 40
0.1873140338
 40
0.2185344082
 40
0.249755026
 40
0.2809770419
 40
0.3121985825
 40
0.3434212943
 40
0.3746519254
 40
0.3902671053
 40
0.4058840916
 40
0.4215037535
 40
0.4371450441
 40
0.4528125966
 40
0.4684769589
 40
0.4843087344
 40
0.499987292
 40
0.5077961498
 40
0.5156611817
 40
0.5235883479
 40
0.5315210337
 40
0.5472044152
 40
0.5628525534
 40
0.570677167
 40
0.5784925935
 40
0.5941143676
 40
0.6097349281
 40
0.62535026
 40
0.656578478
 40
0.6878014611
 40
0.7190232514
 40
0.7502450219
 40
0.7814656118
 40
0.8126860252
 40
0.8751241515
 40
0.9375622319
 40
1.0
 40
1.0
 40
1.0
 40
1.0
 10
5.3137418211
 20
5.9925560767
 30
0.0
 10
5.3125550896
 20
5.9975579983
 30
0.0
 10
5.3101028611
 20
6.0075434898
 30
0.0
 10
5.3061342153
 20
6.0224475955
 30
0.0
 10
5.3025205815
 20
6.0347833243
 30
0.0
 10
5.2993861602
 20
6.0445762993
 30
0.0
 10
5.2968899723
 20
6.0518734509
 30
0.0
 10
5.2942223232
 20
6.0591100391
 30
0.0
 10
5.2913416157
 20
6.0662653843
 30
0.0
 10
5.2881924461
 20
6.0733079632
 30
0.0
 10
5.2852826518
 20
6.0790443458
 30
0.0
 10
5.2827086213
 20
6.0834981747
 30
0.0
 10
5.2806326169
 20
6.0867512059
 30
0.0
 10
5.2783765471
 20
6.0898861716
 30
0.0
 10
5.2758989171
 20
6.0928556196
 30
0.0
 10
5.2731640892
 20
6.0956016749
 30
0.0
 10
5.2700256762
 20
6.0979253025
 30
0.0
 10
5.2664684798
 20
6.0995592702
 30
0.0
 10
5.26322701
 20
6.1001379998
 30
0.0
 10
5.2606427689
 20
6.099919535
 30
0.0
 10
5.2587491965
 20
6.0994544432
 30
0.0
 10
5.2569252068
 20
6.0987420289
 30
0.0
 10
5.2546238707
 20
6.0975285936
 30
0.0
 10
5.2520070995
 20
6.0955982318
 30
0.0
 10
5.2497226348
 20
6.0933133048
 30
0.0
 10
5.248031289
 20
6.0913697297
 30
0.0
 10
5.2464174956
 20
6.0893637394
 30
0.0
 10
5.2445378846
 20
6.08675146
 30
0.0
 10
5.2424622036
 20
6.0834977248
 30
0.0
 10
5.2398876478
 20
6.0790440644
 30
0.0
 10
5.2369779578
 20
6.0733078038
 30
0.0
 10
5.2338287902
 20
6.0662653972
 30
0.0
 10
5.2309481658
 20
6.0591099927
 30
0.0
 10
5.2282804699
 20
6.0518734252
 30
0.0
 10
5.2257842883
 20
6.0445762911
 30
0.0
 10
5.2226498874
 20
6.0347833125
 30
0.0
 10
5.2190362386
 20
6.0224475893
 30
0.0
 10
5.2150675966
 20
6.0075434875
 30
0.0
 10
5.2126153668
 20
5.9975579978
 30
0.0
 10
5.2114286355
 20
5.9925560767
 30
0.0
  0
SPLINE
  5
313
100
AcDbEntity
  8
0
100
AcDbSpline
 62
7
  6
CONTINUOUS
 70
0
 71
3
 72
15
 73
11
 74
0
 42
0.0000001
 43
0.0000001
 44
0.0000000001
 40
0.0
 40
0.0
 40
0.0
 40
0.0
 40
0.1270884016
 40
0.254216604
 40
0.3804597499
 40
0.5057581408
 40
0.6301682379
 40
0.7539009205
 40
0.8771368869
 40
1.0
 40
1.0
 40
1.0
 40
1.0
 10
8.7037030982
 20
5.6371380655
 30
0.0
 10
8.7036466682
 20
5.6361576986
 30
0.0
 10
8.7033543326
 20
5.6342028428
 30
0.0
 10
8.7024063821
 20
5.6314034774
 30
0.0
 10
8.7009563393
 20
5.6288417015
 30
0.0
 10
8.6990687841
 20
5.6266116694
 30
0.0
 10
8.6968128509
 20
5.6247841986
 30
0.0
 10
8.6942595152
 20
5.6234354004
 30
0.0
 10
8.6915101454
 20
5.6225977915
 30
0.0
 10
8.6896036432
 20
5.6224042879
 30
0.0
 10
8.6886543018
 20
5.6224035944
 30
0.0
  0
SPLINE
  5
314
100
AcDbEntity
  8
0
100
AcDbSpline
 62
7
  6
CONTINUOUS
 70
0
 71
3
 72
15
 73
11
 74
0
 42
0.0000001
 43
0.0000001
 44
0.0000000001
 40
0.0
 40
0.0
 40
0.0
 40
0.0
 40
0.1264550431
 40
0.2536268132
 40
0.3801865456
 40
0.5057040894
 40
0.6302502251
 40
0.7540037968
 40
0.8772092948
 40
1.0
 40
1.0
 40
1.0
 40
1.0
 10
1.5496363861
 20
5.9565265886
 30
0.0
 10
1.5495833371
 20
5.957573969
 30
0.0
 10
1.5496908606
 20
5.9596904806
 30
0.0
 10
1.5504492576
 20
5.9627698181
 30
0.0
 10
1.5517927309
 20
5.9656376825
 30
0.0
 10
1.5536747627
 20
5.9681566743
 30
0.0
 10
1.5560012053
 20
5.9702380473
 30
0.0
 10
1.5586922837
 20
5.9717839511
 30
0.0
 10
1.5616256595
 20
5.9727450974
 30
0.0
 10
1.5636717585
 20
5.9729681073
 30
0.0
 10
1.5646900919
 20
5.97296886
 30
0.0
  0
SPLINE
  5
315
100
AcDbEntity
  8
0
100
AcDbSpline
 62
7
  6
CONTINUOUS
 70
0
 71
3
 72
15
 73
11
 74
0
 42
0.0000001
 43
0.0000001
 44
0.0000000001
 40
0.0
 40
0.0
 40
0.0
 40
0.0
 40
0.1270882997
 40
0.2542157461
 40
0.3804583825
 40
0.505756776
 40
0.6301670729
 40
0.7539001762
 40
0.8771363213
 40
1.0
 40
1.0
 40
1.0
 40
1.0
 10
1.8214673541
 20
5.972974077
 30
0.0
 10
1.8215237792
 20
5.9739544319
 30
0.0
 10
1.8218160955
 20
5.9759092601
 30
0.0
 10
1.8227640239
 20
5.9787085869
 30
0.0
 10
1.8242140453
 20
5.9812703216
 30
0.0
 10
1.8261015402
 20
5.9835003552
 30
0.0
 10
1.8283574335
 20
5.9853278299
 30
0.0
 10
1.8309107177
 20
5.9866766597
 30
0.0
 10
1.8336600432
 20
5.9875143365
 30
0.0
 10
1.8355665297
 20
5.9877078456
 30
0.0
 10
1.8365158643
 20
5.9877085483
 30
0.0
  0
LINE
  5
316
100
AcDbEntity
  8
0
100
AcDbLine
 62
7
  6
CONTINUOUS
 10
8.0453571879
 20
5.9565265886
 11
8.1780192954
 21
5.9466992698
  0
LINE
  5
317
100
AcDbEntity
  8
0
100
AcDbLine
 62
7
  6
CONTINUOUS
 10
8.3110400348
 20
5.6175560767
 11
8.40044502
 21
5.6224031099
  0
LINE
  5
318
100
AcDbEntity
  8
0
100
AcDbLine
 62
7
  6
CONTINUOUS
 10
8.639194557
 20
5.6353477483
 11
8.6735467583
 21
5.6372103782
  0
LINE
  5
319
100
AcDbEntity
  8
0
100
AcDbLine
 62
7
  6
CONTINUOUS
 10
7.8640005809
 20
5.9699602296
 11
7.8756321199
 21
5.9690986791
  0
LINE
  5
31A
100
AcDbEntity
  8
0
100
AcDbLine
 62
7
  6
CONTINUOUS
 10
7.8756321199
 20
5.9690986791
 11
8.0232784159
 21
5.9581620873
  0
LINE
  5
31B
100
AcDbEntity
  8
0
100
AcDbLine
 62
7
  6
CONTINUOUS
 10
7.5589137925
 20
5.9925560767
 11
7.6243627841
 21
5.9877090435
  0
LINE
  5
31C
100
AcDbEntity
  8
0
100
AcDbLine
 62
7
  6
CONTINUOUS
 10
7.6650121514
 20
5.984698518
 11
7.6705556115
 21
5.9842879587
  0
LINE
  5
31D
100
AcDbEntity
  8
0
100
AcDbLine
 62
7
  6
CONTINUOUS
 10
7.6705556115
 20
5.9842879587
 11
7.6906285247
 21
5.9828013085
  0
LINE
  5
31E
100
AcDbEntity
  8
0
100
AcDbLine
 62
7
  6
CONTINUOUS
 10
7.6906285247
 20
5.9828013085
 11
7.8242871322
 21
5.9729017752
  0
LINE
  5
31F
100
AcDbEntity
  8
0
100
AcDbLine
 62
7
  6
CONTINUOUS
 10
2.7008833244
 20
5.6372103782
 11
2.8345416929
 21
5.6273108626
  0
LINE
  5
320
100
AcDbEntity
  8
0
100
AcDbLine
 62
7
  6
CONTINUOUS
 10
2.8345416929
 20
5.6273108626
 11
2.854614845
 21
5.6258241947
  0
LINE
  5
321
100
AcDbEntity
  8
0
100
AcDbLine
 62
7
  6
CONTINUOUS
 10
2.854614845
 20
5.6258241947
 11
2.8601586392
 21
5.6254136107
  0
LINE
  5
322
100
AcDbEntity
  8
0
100
AcDbLine
 62
7
  6
CONTINUOUS
 10
2.9008076724
 20
5.6224031099
 11
2.966256664
 21
5.6175560767
  0
LINE
  5
323
100
AcDbEntity
  8
0
100
AcDbLine
 62
7
  6
CONTINUOUS
 10
1.3684165772
 20
5.9466992698
 11
1.4290867687
 21
5.9499893903
  0
LINE
  5
324
100
AcDbEntity
  8
0
100
AcDbLine
 62
7
  6
CONTINUOUS
 10
1.4290867687
 20
5.9499893903
 11
1.4593230187
 21
5.9516290705
  0
LINE
  5
325
100
AcDbEntity
  8
0
100
AcDbLine
 62
7
  6
CONTINUOUS
 10
1.4593230187
 20
5.9516290705
 11
1.5496363861
 21
5.9565265886
  0
SPLINE
  5
326
100
AcDbEntity
  8
0
100
AcDbSpline
 62
7
  6
CONTINUOUS
 70
0
 71
3
 72
15
 73
11
 74
0
 42
0.0000001
 43
0.0000001
 44
0.0000000001
 40
0.0
 40
0.0
 40
0.0
 40
0.0
 40
0.1038319954
 40
0.2112567863
 40
0.3248061194
 40
0.4460779033
 40
0.5753951479
 40
0.7120921665
 40
0.8546527803
 40
1.0
 40
1.0
 40
1.0
 40
1.0
 10
2.6898238349
 20
5.6224035944
 30
0.0
 10
2.6891258705
 20
5.6224042908
 30
0.0
 10
2.6876995319
 20
5.6226053482
 30
0.0
 10
2.6856693655
 20
5.6234634961
 30
0.0
 10
2.6837972289
 20
5.6248331783
 30
0.0
 10
2.6821567208
 20
5.6266705536
 30
0.0
 10
2.6807891077
 20
5.6288999712
 30
0.0
 10
2.6797418618
 20
5.6314510104
 30
0.0
 10
2.6790583823
 20
5.6342313876
 30
0.0
 10
2.678848484
 20
5.6361618992
 30
0.0
 10
2.6788073514
 20
5.6371380655
 30
0.0
  0
LINE
  5
327
100
AcDbEntity
  8
0
100
AcDbLine
 62
7
  6
CONTINUOUS
 10
1.5797965496
 20
5.9581620873
 11
1.6141514386
 21
5.9600250358
  0
SPLINE
  5
328
100
AcDbEntity
  8
0
100
AcDbSpline
 62
7
  6
CONTINUOUS
 70
0
 71
3
 72
15
 73
11
 74
0
 42
0.0000001
 43
0.0000001
 44
0.0000000001
 40
0.0
 40
0.0
 40
0.0
 40
0.0
 40
0.1038323448
 40
0.2112575934
 40
0.3248076979
 40
0.4460798938
 40
0.5753973288
 40
0.7120936024
 40
0.85465314
 40
1.0
 40
1.0
 40
1.0
 40
1.0
 10
7.8353468342
 20
5.9877085483
 30
0.0
 10
7.8360447942
 20
5.9877078425
 30
0.0
 10
7.8374711254
 20
5.9875067778
 30
0.0
 10
7.839501254
 20
5.9866485619
 30
0.0
 10
7.8413733511
 20
5.9852788515
 30
0.0
 10
7.8430138316
 20
5.9834414706
 30
0.0
 10
7.8443813986
 20
5.9812120566
 30
0.0
 10
7.8454286319
 20
5.9786610545
 30
0.0
 10
7.8461120948
 20
5.9758807159
 30
0.0
 10
7.8463219792
 20
5.9739502315
 30
0.0
 10
7.8463631083
 20
5.972974077
 30
0.0
  0
LINE
  5
329
100
AcDbEntity
  8
0
100
AcDbLine
 62
7
  6
CONTINUOUS
 10
8.9755340704
 20
5.6535855648
 11
9.0658474097
 21
5.6584830813
  0
LINE
  5
32A
100
AcDbEntity
  8
0
100
AcDbLine
 62
7
  6
CONTINUOUS
 10
9.0658474097
 20
5.6584830813
 11
9.0960836629
 21
5.6601227618
  0
LINE
  5
32B
100
AcDbEntity
  8
0
100
AcDbLine
 62
7
  6
CONTINUOUS
 10
9.0960836629
 20
5.6601227618
 11
9.1567538794
 21
5.6634128836
  0
LINE
  5
32C
100
AcDbEntity
  8
0
100
AcDbLine
 62
7
  6
CONTINUOUS
 10
1.8516236982
 20
5.9729017752
 11
1.8859758996
 21
5.9747644051
  0
LINE
  5
32D
100
AcDbEntity
  8
0
100
AcDbLine
 62
7
  6
CONTINUOUS
 10
2.1247254365
 20
5.9877090435
 11
2.2141304218
 21
5.9925560767
  0
LINE
  5
32E
100
AcDbEntity
  8
0
100
AcDbLine
 62
7
  6
CONTINUOUS
 10
2.5018920407
 20
5.6519500661
 11
2.649538322
 21
5.6410134754
  0
LINE
  5
32F
100
AcDbEntity
  8
0
100
AcDbLine
 62
7
  6
CONTINUOUS
 10
2.649538322
 20
5.6410134754
 11
2.6611702102
 21
5.640151899
  0
LINE
  5
330
100
AcDbEntity
  8
0
100
AcDbLine
 62
7
  6
CONTINUOUS
 10
2.3471511612
 20
5.6634128836
 11
2.4798132686
 21
5.6535855648
  0
LINE
  5
331
100
AcDbEntity
  8
0
100
AcDbLine
 62
7
  6
CONTINUOUS
 10
8.9110190179
 20
5.6500871176
 11
8.945373907
 21
5.6519500661
  0
LINE
  5
332
100
AcDbEntity
  8
0
100
AcDbLine
 62
7
  6
CONTINUOUS
 10
5.4983664743
 20
4.3422994561
 11
5.5364856592
 21
5.0662034741
  0
SPLINE
  5
333
100
AcDbEntity
  8
0
100
AcDbSpline
 62
7
  6
CONTINUOUS
 70
0
 71
3
 72
23
 73
19
 74
0
 42
0.0000001
 43
0.0000001
 44
0.0000000001
 40
0.0
 40
0.0
 40
0.0
 40
0.0
 40
0.2107021789
 40
0.4050074236
 40
0.5775647606
 40
0.6542647023
 40
0.7240813185
 40
0.7866666584
 40
0.8416738761
 40
0.8887635564
 40
0.927695149
 40
0.9583163777
 40
0.9804964641
 40
0.9883983234
 40
0.9941845335
 40
0.996304001
 40
0.9979349833
 40
1.0
 40
1.0
 40
1.0
 40
1.0
 10
8.6294463756
 20
4.3395667232
 30
0.0
 10
8.6321447203
 20
4.3394156769
 30
0.0
 10
8.6373321773
 20
4.3391385339
 30
0.0
 10
8.6447319755
 20
4.338786462
 30
0.0
 10
8.6504167484
 20
4.3385563814
 30
0.0
 10
8.6545071402
 20
4.338421501
 30
0.0
 10
8.6571882059
 20
4.3383484246
 30
0.0
 10
8.6595915318
 20
4.3382995792
 30
0.0
 10
8.6617037266
 20
4.3382750196
 30
0.0
 10
8.6635126571
 20
4.3382750604
 30
0.0
 10
8.6650087343
 20
4.3382987164
 30
0.0
 10
8.6661844027
 20
4.3383465145
 30
0.0
 10
8.6669612597
 20
4.3384062901
 30
0.0
 10
8.6674166281
 20
4.3384746673
 30
0.0
 10
8.6676145468
 20
4.3385184691
 30
0.0
 10
8.6677304068
 20
4.3385612093
 30
0.0
 10
8.6677953361
 20
4.3385937412
 30
0.0
 10
8.6678345899
 20
4.338633739
 30
0.0
 10
8.6678356185
 20
4.3386602059
 30
0.0
  0
SPLINE
  5
334
100
AcDbEntity
  8
0
100
AcDbSpline
 62
7
  6
CONTINUOUS
 70
0
 71
3
 72
19
 73
15
 74
0
 42
0.0000001
 43
0.0000001
 44
0.0000000001
 40
0.0
 40
0.0
 40
0.0
 40
0.0
 40
0.0083310633
 40
0.0185336491
 40
0.0446328562
 40
0.0782979504
 40
0.1193619063
 40
0.1674906985
 40
0.222269165
 40
0.3498991491
 40
0.4974159376
 40
0.6591914459
 40
0.8291026841
 40
1.0
 40
1.0
 40
1.0
 40
1.0
 10
5.3779868838
 20
5.3182954075
 30
0.0
 10
5.3778206628
 20
5.3183891202
 30
0.0
 10
5.377434964
 20
5.3185691551
 30
0.0
 10
5.3764734555
 20
5.3189182744
 30
0.0
 10
5.3749190888
 20
5.3193200826
 30
0.0
 10
5.3726502738
 20
5.3197537024
 30
0.0
 10
5.3698647336
 20
5.3201586483
 30
0.0
 10
5.3665880339
 20
5.3205318543
 30
0.0
 10
5.3613285482
 20
5.3210049659
 30
0.0
 10
5.3537842889
 20
5.3214631648
 30
0.0
 10
5.3437823535
 20
5.321815882
 30
0.0
 10
5.3328068927
 20
5.3219739795
 30
0.0
 10
5.3212950592
 20
5.3219317209
 30
0.0
 10
5.3134902409
 20
5.3217709493
 30
0.0
 10
5.3095776458
 20
5.3216554568
 30
0.0
  0
SPLINE
  5
335
100
AcDbEntity
  8
0
100
AcDbSpline
 62
7
  6
CONTINUOUS
 70
0
 71
3
 72
19
 73
15
 74
0
 42
0.0000001
 43
0.0000001
 44
0.0000000001
 40
0.0
 40
0.0
 40
0.0
 40
0.0
 40
0.1704201828
 40
0.3401308283
 40
0.5017240725
 40
0.649170686
 40
0.7769904825
 40
0.8320676696
 40
0.8805139542
 40
0.9218225083
 40
0.9556680905
 40
0.9817900301
 40
0.9918908401
 40
1.0
 40
1.0
 40
1.0
 40
1.0
 10
5.2668028849
 20
4.3390763584
 30
0.0
 10
5.2706973603
 20
4.3388704119
 30
0.0
 10
5.2784726719
 20
4.3385068727
 30
0.0
 10
5.2899472528
 20
4.3381008445
 30
0.0
 10
5.3009004677
 20
4.3378487654
 30
0.0
 10
5.310897524
 20
4.337757016
 30
0.0
 10
5.3184575352
 20
4.3378175363
 30
0.0
 10
5.3237498558
 20
4.3379610094
 30
0.0
 10
5.3270613083
 20
4.3381029778
 30
0.0
 10
5.3298844378
 20
4.3382831424
 30
0.0
 10
5.3321921818
 20
4.3384986517
 30
0.0
 10
5.3337822852
 20
4.3387153373
 30
0.0
 10
5.3347767728
 20
4.3389171871
 30
0.0
 10
5.3351799011
 20
4.3390250166
 30
0.0
 10
5.3353561743
 20
4.3390830197
 30
0.0
  0
SPLINE
  5
336
100
AcDbEntity
  8
0
100
AcDbSpline
 62
7
  6
CONTINUOUS
 70
0
 71
3
 72
24
 73
20
 74
0
 42
0.0000001
 43
0.0000001
 44
0.0000000001
 40
0.0
 40
0.0
 40
0.0
 40
0.0
 40
0.2015995629
 40
0.3916262234
 40
0.563332212
 40
0.6406637177
 40
0.7114927896
 40
0.7753162663
 40
0.8316709083
 40
0.8801060415
 40
0.9202899635
 40
0.937240079
 40
0.9520792622
 40
0.964806644
 40
0.975438328
 40
0.9840253219
 40
0.9907079549
 40
0.9958049381
 40
1.0
 40
1.0
 40
1.0
 40
1.0
 10
4.1251454991
 20
5.3216429122
 30
0.0
 10
4.121726628
 20
5.3217438422
 30
0.0
 10
4.1150836504
 20
5.3218933878
 30
0.0
 10
4.1055259743
 20
5.321962927
 30
0.0
 10
4.0980765904
 20
5.3218827759
 30
0.0
 10
4.09265178
 20
5.3217277622
 30
0.0
 10
4.0890583261
 20
5.3215753411
 30
0.0
 10
4.0858231273
 20
5.3213846069
 30
0.0
 10
4.082971135
 20
5.3211578142
 30
0.0
 10
4.0805250815
 20
5.3208967122
 30
0.0
 10
4.0787515828
 20
5.3206407834
 30
0.0
 10
4.0775517516
 20
5.3204127108
 30
0.0
 10
4.0768152642
 20
5.3202443493
 30
0.0
 10
4.0761908799
 20
5.3200693828
 30
0.0
 10
4.0756794983
 20
5.3198882944
 30
0.0
 10
4.0752805472
 20
5.3197011737
 30
0.0
 10
4.0749927361
 20
5.3195069371
 30
0.0
 10
4.0748096276
 20
5.3192994378
 30
0.0
 10
4.0747694395
 20
5.3191379935
 30
0.0
 10
4.0747733643
 20
5.3190669279
 30
0.0
  0
LINE
  5
337
100
AcDbEntity
  8
0
100
AcDbLine
 62
7
  6
CONTINUOUS
 10
7.9850602562
 20
5.0817373957
 11
7.9641426006
 21
5.0745302536
  0
SPLINE
  5
338
100
AcDbEntity
  8
0
100
AcDbSpline
 62
7
  6
CONTINUOUS
 70
0
 71
3
 72
17
 73
13
 74
0
 42
0.0000001
 43
0.0000001
 44
0.0000000001
 40
0.0
 40
0.0
 40
0.0
 40
0.0
 40
0.1743196102
 40
0.3413576927
 40
0.49596849
 40
0.6346829925
 40
0.7548878607
 40
0.8076489601
 40
0.8553946832
 40
0.8981807951
 40
0.9362620079
 40
1.0
 40
1.0
 40
1.0
 40
1.0
 10
5.5364857347
 20
5.0662049017
 30
0.0
 10
5.5332179445
 20
5.0662628977
 30
0.0
 10
5.5268205119
 20
5.0665500156
 30
0.0
 10
5.5175635728
 20
5.067484443
 30
0.0
 10
5.5090412329
 20
5.0688947258
 30
0.0
 10
5.5014979588
 20
5.0707190606
 30
0.0
 10
5.4959558323
 20
5.0726128127
 30
0.0
 10
5.4921848664
 20
5.0743249483
 30
0.0
 10
5.4898273117
 20
5.0756183994
 30
0.0
 10
5.4878248583
 20
5.076973198
 30
0.0
 10
5.485766284
 20
5.0787350189
 30
0.0
 10
5.4845571546
 20
5.080281551
 30
0.0
 10
5.484064182
 20
5.0813701499
 30
0.0
  0
LINE
  5
339
100
AcDbEntity
  8
0
100
AcDbLine
 62
7
  6
CONTINUOUS
 10
5.4440998093
 20
4.339152951
 11
5.498366448
 21
4.3422989559
  0
SPLINE
  5
33A
100
AcDbEntity
  8
0
100
AcDbSpline
 62
7
  6
CONTINUOUS
 70
0
 71
3
 72
20
 73
16
 74
0
 42
0.0000001
 43
0.0000001
 44
0.0000000001
 40
0.0
 40
0.0
 40
0.0
 40
0.0
 40
0.1743909235
 40
0.3424859492
 40
0.4983055752
 40
0.5702730938
 40
0.6376536715
 40
0.7000660276
 40
0.7572842068
 40
0.8091867216
 40
0.8557864797
 40
0.897339326
 40
0.9344831358
 40
0.9682256905
 40
1.0
 40
1.0
 40
1.0
 40
1.0
 10
8.6294463756
 20
4.3395667232
 30
0.0
 10
8.6293761176
 20
4.3358206618
 30
0.0
 10
8.6289874843
 20
4.328465866
 30
0.0
 10
8.6276817428
 20
4.31783119
 30
0.0
 10
8.6259749731
 20
4.309486231
 30
0.0
 10
8.624255216
 20
4.3033797796
 30
0.0
 10
8.6228559515
 20
4.2992744735
 30
0.0
 10
8.6213229769
 20
4.2955572884
 30
0.0
 10
8.6196714065
 20
4.2922584253
 30
0.0
 10
8.6179152322
 20
4.2894048009
 30
0.0
 10
8.6160664032
 20
4.2870213363
 30
0.0
 10
8.6141326706
 20
4.2851336426
 30
0.0
 10
8.6121298915
 20
4.2837567345
 30
0.0
 10
8.6100736068
 20
4.2829084932
 30
0.0
 10
8.608660163
 20
4.2827118323
 30
0.0
 10
8.6079775045
 20
4.2827117841
 30
0.0
  0
SPLINE
  5
33B
100
AcDbEntity
  8
0
100
AcDbSpline
 62
7
  6
CONTINUOUS
 70
0
 71
3
 72
20
 73
16
 74
0
 42
0.0000001
 43
0.0000001
 44
0.0000000001
 40
0.0
 40
0.0
 40
0.0
 40
0.0
 40
0.1744061181
 40
0.3425313653
 40
0.4983530925
 40
0.5703107775
 40
0.6376818521
 40
0.700086907
 40
0.7572988591
 40
0.8091966337
 40
0.8557933289
 40
0.897343621
 40
0.9344850262
 40
0.9682260743
 40
1.0
 40
1.0
 40
1.0
 40
1.0
 10
7.98047858
 20
4.3395253923
 30
0.0
 10
7.9804083158
 20
4.3357790018
 30
0.0
 10
7.9800192979
 20
4.3284232408
 30
0.0
 10
7.9787135164
 20
4.3177875499
 30
0.0
 10
7.9770067749
 20
4.3094420677
 30
0.0
 10
7.9752867442
 20
4.3033360704
 30
0.0
 10
7.9738874701
 20
4.2992313719
 30
0.0
 10
7.9723545764
 20
4.2955146863
 30
0.0
 10
7.9707030561
 20
4.2922162335
 30
0.0
 10
7.968946953
 20
4.2893629203
 30
0.0
 10
7.967098286
 20
4.2869796162
 30
0.0
 10
7.9651647164
 20
4.285091995
 30
0.0
 10
7.9631620074
 20
4.2837152168
 30
0.0
 10
7.9611057654
 20
4.2828671091
 30
0.0
 10
7.9596923606
 20
4.2826705014
 30
0.0
 10
7.9590097098
 20
4.2826704532
 30
0.0
  0
SPLINE
  5
33C
100
AcDbEntity
  8
0
100
AcDbSpline
 62
7
  6
CONTINUOUS
 70
0
 71
3
 72
24
 73
20
 74
0
 42
0.0000001
 43
0.0000001
 44
0.0000000001
 40
0.0
 40
0.0
 40
0.0
 40
0.0
 40
0.1922947361
 40
0.3780352536
 40
0.5490383266
 40
0.6270186115
 40
0.6990164681
 40
0.7643443013
 40
0.8224539289
 40
0.8728402224
 40
0.9150170201
 40
0.932894494
 40
0.9486017505
 40
0.962141017
 40
0.9735290464
 40
0.9828107407
 40
0.9900914704
 40
0.9956212066
 40
1.0
 40
1.0
 40
1.0
 40
1.0
 10
5.4983759438
 20
4.3422994564
 30
0.0
 10
5.4983760457
 20
4.338405608
 30
0.0
 10
5.4983104183
 20
4.3307504629
 30
0.0
 10
5.4980239655
 20
4.3196359281
 30
0.0
 10
5.497623009
 20
4.3108413586
 30
0.0
 10
5.4972061
 20
4.3043549079
 30
0.0
 10
5.4968651922
 20
4.3000082669
 30
0.0
 10
5.4964891446
 20
4.2960685174
 30
0.0
 10
5.4960826305
 20
4.2925718992
 30
0.0
 10
5.4956500441
 20
4.2895513321
 30
0.0
 10
5.4952541557
 20
4.2873493746
 30
0.0
 10
5.494917343
 20
4.2858524241
 30
0.0
 10
5.4946748481
 20
4.2849292665
 30
0.0
 10
5.4944294346
 20
4.2841434708
 30
0.0
 10
5.494181853
 20
4.2834959337
 30
0.0
 10
5.4939331784
 20
4.2829861338
 30
0.0
 10
5.4936822014
 20
4.2826136494
 30
0.0
 10
5.4934252206
 20
4.2823710928
 30
0.0
 10
5.4932243836
 20
4.2823050631
 30
0.0
 10
5.4931357158
 20
4.2823051595
 30
0.0
  0
SPLINE
  5
33D
100
AcDbEntity
  8
0
100
AcDbSpline
 62
7
  6
CONTINUOUS
 70
0
 71
3
 72
11
 73
7
 74
0
 42
0.0000001
 43
0.0000001
 44
0.0000000001
 40
0.0
 40
0.0
 40
0.0
 40
0.0
 40
0.2514229268
 40
0.5019763666
 40
0.7513828974
 40
1.0
 40
1.0
 40
1.0
 40
1.0
 10
5.4440998093
 20
4.339152951
 30
0.0
 10
5.4437103285
 20
4.3316247648
 30
0.0
 10
5.4400648259
 20
4.3165908535
 30
0.0
 10
5.4267524852
 20
4.2977701851
 30
0.0
 10
5.4074977368
 20
4.2852316841
 30
0.0
 10
5.3924123552
 20
4.2822973925
 30
0.0
 10
5.3849582275
 20
4.2822924875
 30
0.0
  0
SPLINE
  5
33E
100
AcDbEntity
  8
0
100
AcDbSpline
 62
7
  6
CONTINUOUS
 70
0
 71
3
 72
11
 73
7
 74
0
 42
0.0000001
 43
0.0000001
 44
0.0000000001
 40
0.0
 40
0.0
 40
0.0
 40
0.0
 40
0.2513875789
 40
0.5019494053
 40
0.751372896
 40
1.0
 40
1.0
 40
1.0
 40
1.0
 10
5.3353561743
 20
4.3390830197
 30
0.0
 10
5.334966748
 20
4.3315558883
 30
0.0
 10
5.331322072
 20
4.316522751
 30
0.0
 10
5.3180105728
 20
4.2977017404
 30
0.0
 10
5.2987552155
 20
4.2851621024
 30
0.0
 10
5.2836690071
 20
4.2822274604
 30
0.0
 10
5.2762145759
 20
4.2822225562
 30
0.0
  0
SPLINE
  5
33F
100
AcDbEntity
  8
0
100
AcDbSpline
 62
7
  6
CONTINUOUS
 70
0
 71
3
 72
22
 73
18
 74
0
 42
0.0000001
 43
0.0000001
 44
0.0000000001
 40
0.0
 40
0.0
 40
0.0
 40
0.0
 40
0.1907231493
 40
0.3736172796
 40
0.5413224361
 40
0.6177120027
 40
0.6882694888
 40
0.752403069
 40
0.8096627425
 40
0.8596555668
 40
0.9020436463
 40
0.9366504331
 40
0.9637118119
 40
0.9746540376
 40
0.9841025583
 40
0.9923851194
 40
1.0
 40
1.0
 40
1.0
 40
1.0
 10
5.2668028849
 20
4.3390763584
 30
0.0
 10
5.2668336639
 20
4.3353340519
 30
0.0
 10
5.2670027083
 20
4.328003442
 30
0.0
 10
5.2675705428
 20
4.3173949808
 30
0.0
 10
5.2683136718
 20
4.3090469839
 30
0.0
 10
5.2690664593
 20
4.3029183214
 30
0.0
 10
5.269675377
 20
4.2988208864
 30
0.0
 10
5.2703416525
 20
4.2951130911
 30
0.0
 10
5.2710579446
 20
4.2918262308
 30
0.0
 10
5.271816913
 20
4.2889885126
 30
0.0
 10
5.2726109541
 20
4.2866236234
 30
0.0
 10
5.2734354811
 20
4.284752993
 30
0.0
 10
5.2741862486
 20
4.2835303175
 30
0.0
 10
5.2748157218
 20
4.2828401461
 30
0.0
 10
5.2752605858
 20
4.2824901434
 30
0.0
 10
5.2757136935
 20
4.2822732115
 30
0.0
 10
5.2760272282
 20
4.2822225442
 30
0.0
 10
5.2761766499
 20
4.2822225436
 30
0.0
  0
SPLINE
  5
340
100
AcDbEntity
  8
0
100
AcDbSpline
 62
7
  6
CONTINUOUS
 70
0
 71
3
 72
22
 73
18
 74
0
 42
0.0000001
 43
0.0000001
 44
0.0000000001
 40
0.0
 40
0.0
 40
0.0
 40
0.0
 40
0.1907231533
 40
0.373617288
 40
0.5413224369
 40
0.6177119972
 40
0.6882694785
 40
0.752403058
 40
0.8096627346
 40
0.8596555633
 40
0.9020436466
 40
0.9366504348
 40
0.9637118132
 40
0.9746540383
 40
0.9841025586
 40
0.9923851194
 40
1.0
 40
1.0
 40
1.0
 40
1.0
 10
4.1841033891
 20
4.3390647678
 30
0.0
 10
4.1841341681
 20
4.3353224611
 30
0.0
 10
4.1843032126
 20
4.3279918511
 30
0.0
 10
4.1848710471
 20
4.3173833899
 30
0.0
 10
4.185614176
 20
4.3090353932
 30
0.0
 10
4.1863669635
 20
4.302906731
 30
0.0
 10
4.1869758812
 20
4.2988092963
 30
0.0
 10
4.1876421567
 20
4.295101501
 30
0.0
 10
4.1883584488
 20
4.2918146405
 30
0.0
 10
4.1891174172
 20
4.2889769222
 30
0.0
 10
4.1899114583
 20
4.2866120328
 30
0.0
 10
4.1907359853
 20
4.2847414022
 30
0.0
 10
4.1914867529
 20
4.2835187267
 30
0.0
 10
4.192116226
 20
4.2828285554
 30
0.0
 10
4.1925610901
 20
4.2824785527
 30
0.0
 10
4.1930141977
 20
4.2822616208
 30
0.0
 10
4.1933277325
 20
4.2822109535
 30
0.0
 10
4.1934771542
 20
4.2822109529
 30
0.0
  0
SPLINE
  5
341
100
AcDbEntity
  8
0
100
AcDbSpline
 62
7
  6
CONTINUOUS
 70
0
 71
3
 72
17
 73
13
 74
0
 42
0.0000001
 43
0.0000001
 44
0.0000000001
 40
0.0
 40
0.0
 40
0.0
 40
0.0
 40
0.1512209983
 40
0.2988755229
 40
0.4393251232
 40
0.5704263386
 40
0.6910071061
 40
0.8012861902
 40
0.8531601714
 40
0.9032675737
 40
0.9520454919
 40
1.0
 40
1.0
 40
1.0
 40
1.0
 10
2.2584692296
 20
4.3394985198
 30
0.0
 10
2.2585931955
 20
4.3357428462
 30
0.0
 10
2.2592849679
 20
4.3283274529
 30
0.0
 10
2.2616043503
 20
4.3176311011
 30
0.0
 10
2.2651619011
 20
4.3078043685
 30
0.0
 10
2.2698099763
 20
4.2991923741
 30
0.0
 10
2.2754173842
 20
4.2920960794
 30
0.0
 10
2.2808640439
 20
4.2875487187
 30
0.0
 10
2.2854995145
 20
4.2850029048
 30
0.0
 10
2.2890065727
 20
4.2836513181
 30
0.0
 10
2.2925743923
 20
4.2828306701
 30
0.0
 10
2.2949818181
 20
4.2826442829
 30
0.0
 10
2.2961734487
 20
4.2826442142
 30
0.0
  0
SPLINE
  5
342
100
AcDbEntity
  8
0
100
AcDbSpline
 62
7
  6
CONTINUOUS
 70
0
 71
3
 72
13
 73
9
 74
0
 42
0.0000001
 43
0.0000001
 44
0.0000000001
 40
0.0
 40
0.0
 40
0.0
 40
0.0
 40
0.3599167432
 40
0.5111832631
 40
0.6433987624
 40
0.7569884494
 40
0.8529912241
 40
1.0
 40
1.0
 40
1.0
 40
1.0
 10
5.442366577
 20
5.3100475082
 30
0.0
 10
5.4419132564
 20
5.3119858748
 30
0.0
 10
5.4411909822
 20
5.3147238933
 30
0.0
 10
5.4400149949
 20
5.3180849538
 30
0.0
 10
5.4391565465
 20
5.320107188
 30
0.0
 10
5.4382661059
 20
5.3217828998
 30
0.0
 10
5.4371494754
 20
5.3233984134
 30
0.0
 10
5.4361052938
 20
5.3243533903
 30
0.0
 10
5.4353508274
 20
5.3246565421
 30
0.0
  0
SPLINE
  5
343
100
AcDbEntity
  8
0
100
AcDbSpline
 62
7
  6
CONTINUOUS
 70
0
 71
3
 72
12
 73
8
 74
0
 42
0.0000001
 43
0.0000001
 44
0.0000000001
 40
0.0
 40
0.0
 40
0.0
 40
0.0
 40
0.0771101955
 40
0.1724045818
 40
0.4093333318
 40
0.6927931916
 40
1.0
 40
1.0
 40
1.0
 40
1.0
 10
5.537671749
 20
5.0843012681
 30
0.0
 10
5.5375732597
 20
5.0838450712
 30
0.0
 10
5.5373944783
 20
5.0828162767
 30
0.0
 10
5.5370755222
 20
5.0803590794
 30
0.0
 10
5.5367750628
 20
5.0766428707
 30
0.0
 10
5.5365557689
 20
5.0716381461
 30
0.0
 10
5.5365060558
 20
5.0680628355
 30
0.0
 10
5.5365061348
 20
5.0662034748
 30
0.0
  0
SPLINE
  5
344
100
AcDbEntity
  8
0
100
AcDbSpline
 62
7
  6
CONTINUOUS
 70
0
 71
3
 72
14
 73
10
 74
0
 42
0.0000001
 43
0.0000001
 44
0.0000000001
 40
0.0
 40
0.0
 40
0.0
 40
0.0
 40
0.128235111
 40
0.2574482269
 40
0.3860576494
 40
0.5131082843
 40
0.6383295598
 40
0.7616243904
 40
1.0
 40
1.0
 40
1.0
 40
1.0
 10
5.503043627
 20
5.0984233251
 30
0.0
 10
5.5018729936
 20
5.098323304
 30
0.0
 10
5.499535807
 20
5.0979257179
 30
0.0
 10
5.4961707344
 20
5.0967930171
 30
0.0
 10
5.4930340268
 20
5.0951473613
 30
0.0
 10
5.4902405331
 20
5.0930304054
 30
0.0
 10
5.4878662493
 20
5.0905142618
 30
0.0
 10
5.4854072314
 20
5.0867756623
 30
0.0
 10
5.4843323466
 20
5.0835376373
 30
0.0
 10
5.4840641819
 20
5.08137015
 30
0.0
  0
SPLINE
  5
345
100
AcDbEntity
  8
0
100
AcDbSpline
 62
7
  6
CONTINUOUS
 70
0
 71
3
 72
14
 73
10
 74
0
 42
0.0000001
 43
0.0000001
 44
0.0000000001
 40
0.0
 40
0.0
 40
0.0
 40
0.0
 40
0.1282140179
 40
0.2574659098
 40
0.3861360135
 40
0.513242286
 40
0.6384963601
 40
0.7617884
 40
1.0
 40
1.0
 40
1.0
 40
1.0
 10
5.4423666165
 20
5.3100459742
 30
0.0
 10
5.4411845049
 20
5.3099593954
 30
0.0
 10
5.4388215271
 20
5.3095848613
 30
0.0
 10
5.4354139234
 20
5.3084760112
 30
0.0
 10
5.4322328103
 20
5.3068430372
 30
0.0
 10
5.4293966725
 20
5.3047276156
 30
0.0
 10
5.4269841188
 20
5.3022033534
 30
0.0
 10
5.4244850649
 20
5.2984441848
 30
0.0
 10
5.4233916196
 20
5.2951796653
 30
0.0
 10
5.4231200232
 20
5.2929943244
 30
0.0
  0
SPLINE
  5
346
100
AcDbEntity
  8
0
100
AcDbSpline
 62
7
  6
CONTINUOUS
 70
0
 71
3
 72
15
 73
11
 74
0
 42
0.0000001
 43
0.0000001
 44
0.0000000001
 40
0.0
 40
0.0
 40
0.0
 40
0.0
 40
0.1235736345
 40
0.2482922435
 40
0.3732813176
 40
0.4982855168
 40
0.6235462597
 40
0.7492748942
 40
0.8751054029
 40
1.0
 40
1.0
 40
1.0
 40
1.0
 10
5.4353508274
 20
5.324656542
 30
0.0
 10
5.4341160319
 20
5.3246430654
 30
0.0
 10
5.4316320824
 20
5.3243697961
 30
0.0
 10
5.4280437363
 20
5.3232798846
 30
0.0
 10
5.4247047836
 20
5.321534622
 30
0.0
 10
5.4217561164
 20
5.3191821554
 30
0.0
 10
5.419287553
 20
5.3163204065
 30
0.0
 10
5.4174000279
 20
5.3130359375
 30
0.0
 10
5.4161471235
 20
5.3094681726
 30
0.0
 10
5.4157547865
 20
5.306976204
 30
0.0
 10
5.4156803093
 20
5.3057303587
 30
0.0
  0
SPLINE
  5
347
100
AcDbEntity
  8
0
100
AcDbSpline
 62
7
  6
CONTINUOUS
 70
0
 71
3
 72
15
 73
11
 74
0
 42
0.0000001
 43
0.0000001
 44
0.0000000001
 40
0.0
 40
0.0
 40
0.0
 40
0.0
 40
0.1235725166
 40
0.2482912196
 40
0.3732806466
 40
0.4982852532
 40
0.6235464744
 40
0.7492756839
 40
0.8751065221
 40
1.0
 40
1.0
 40
1.0
 40
1.0
 10
5.3976749163
 20
5.3372201503
 30
0.0
 10
5.3964395012
 20
5.3372076457
 30
0.0
 10
5.3939540944
 20
5.3369360735
 30
0.0
 10
5.3903632262
 20
5.3358479409
 30
0.0
 10
5.3870215952
 20
5.3341036461
 30
0.0
 10
5.3840703447
 20
5.3317513225
 30
0.0
 10
5.3815994712
 20
5.3288890093
 30
0.0
 10
5.3797101096
 20
5.3256033566
 30
0.0
 10
5.3784559569
 20
5.3220339981
 30
0.0
 10
5.3780632184
 20
5.319540799
 30
0.0
 10
5.3779886719
 20
5.3182943407
 30
0.0
  0
SPLINE
  5
348
100
AcDbEntity
  8
0
100
AcDbSpline
 62
7
  6
CONTINUOUS
 70
0
 71
3
 72
16
 73
12
 74
0
 42
0.0000001
 43
0.0000001
 44
0.0000000001
 40
0.0
 40
0.0
 40
0.0
 40
0.0
 40
0.017302622
 40
0.0403133404
 40
0.0701418189
 40
0.107123275
 40
0.2025177798
 40
0.3249149557
 40
0.4707648192
 40
0.6360139529
 40
1.0
 40
1.0
 40
1.0
 40
1.0
 10
5.3064447589
 20
5.3405794609
 30
0.0
 10
5.3065515279
 20
5.3405444822
 30
0.0
 10
5.3067733443
 20
5.340388265
 30
0.0
 10
5.3070513344
 20
5.3400249743
 30
0.0
 10
5.3073271434
 20
5.339508791
 30
0.0
 10
5.3077199715
 20
5.3385302814
 30
0.0
 10
5.3081569364
 20
5.3369302391
 30
0.0
 10
5.3085999144
 20
5.3346101333
 30
0.0
 10
5.3089795769
 20
5.3318196797
 30
0.0
 10
5.3093903359
 20
5.3274547141
 30
0.0
 10
5.3095424285
 20
5.324018652
 30
0.0
 10
5.3095826063
 20
5.3216554893
 30
0.0
  0
SPLINE
  5
349
100
AcDbEntity
  8
0
100
AcDbSpline
 62
7
  6
CONTINUOUS
 70
0
 71
3
 72
16
 73
12
 74
0
 42
0.0000001
 43
0.0000001
 44
0.0000000001
 40
0.0
 40
0.0
 40
0.0
 40
0.0
 40
0.0171392304
 40
0.0399599404
 40
0.069608663
 40
0.1064339227
 40
0.2016076658
 40
0.3239202326
 40
0.4698238712
 40
0.6352642292
 40
1.0
 40
1.0
 40
1.0
 40
1.0
 10
4.1223718654
 20
5.3405664432
 30
0.0
 10
4.1224772273
 20
5.3405315489
 30
0.0
 10
4.1226954985
 20
5.3403751264
 30
0.0
 10
4.1229654904
 20
5.3400115948
 30
0.0
 10
4.1232306479
 20
5.33949545
 30
0.0
 10
4.1236042611
 20
5.33851634
 30
0.0
 10
4.1240106648
 20
5.3369159628
 30
0.0
 10
4.1244104461
 20
5.3345961919
 30
0.0
 10
4.1247391123
 20
5.3318059197
 30
0.0
 10
4.1250713308
 20
5.3274397485
 30
0.0
 10
4.1251624168
 20
5.3240047865
 30
0.0
 10
4.1251611131
 20
5.3216428403
 30
0.0
  0
SPLINE
  5
34A
100
AcDbEntity
  8
0
100
AcDbSpline
 62
7
  6
CONTINUOUS
 70
0
 71
3
 72
9
 73
5
 74
0
 42
0.0000001
 43
0.0000001
 44
0.0000000001
 40
0.0
 40
0.0
 40
0.0
 40
0.0
 40
0.2490662714
 40
1.0
 40
1.0
 40
1.0
 40
1.0
 10
4.0561907559
 20
5.3372061319
 30
0.0
 10
4.0566762243
 20
5.3372012033
 30
0.0
 10
4.0586240196
 20
5.3371055691
 30
0.0
 10
4.0605560049
 20
5.3367124898
 30
0.0
 10
4.061949772
 20
5.3362652667
 30
0.0
  0
LINE
  5
34B
100
AcDbEntity
  8
0
100
AcDbLine
 62
7
  6
CONTINUOUS
 10
5.5030436268
 20
5.0984233303
 11
5.4423665773
 21
5.3100475082
  0
SPLINE
  5
34C
100
AcDbEntity
  8
0
100
AcDbSpline
 62
7
  6
CONTINUOUS
 70
0
 71
3
 72
15
 73
11
 74
0
 42
0.0000001
 43
0.0000001
 44
0.0000000001
 40
0.0
 40
0.0
 40
0.0
 40
0.0
 40
0.1687346977
 40
0.3302143342
 40
0.47947309
 40
0.6138690132
 40
0.731988377
 40
0.8342358553
 40
0.922357894
 40
1.0
 40
1.0
 40
1.0
 40
1.0
 10
5.537671749
 20
5.084301268
 30
0.0
 10
5.5354540269
 20
5.0843004177
 30
0.0
 10
5.531111696
 20
5.0844777781
 30
0.0
 10
5.5248512338
 20
5.0852678604
 30
0.0
 10
5.519134968
 20
5.0865611992
 30
0.0
 10
5.5141304132
 20
5.0882856941
 30
0.0
 10
5.5099484177
 20
5.0903846987
 30
0.0
 10
5.5066534137
 20
5.0927887866
 30
0.0
 10
5.5042929255
 20
5.0954463277
 30
0.0
 10
5.5033258078
 20
5.0974426509
 30
0.0
 10
5.5030436268
 20
5.0984233303
 30
0.0
  0
LINE
  5
34D
100
AcDbEntity
  8
0
100
AcDbLine
 62
7
  6
CONTINUOUS
 10
7.9827083043
 20
5.0887769247
 11
7.9839792001
 21
5.0845744976
  0
LINE
  5
34E
100
AcDbEntity
  8
0
100
AcDbLine
 62
7
  6
CONTINUOUS
 10
8.7344215167
 20
5.3224454464
 11
8.6957172085
 21
5.3187811503
  0
SPLINE
  5
34F
100
AcDbEntity
  8
0
100
AcDbSpline
 62
7
  6
CONTINUOUS
 70
0
 71
3
 72
9
 73
5
 74
0
 42
0.0000001
 43
0.0000001
 44
0.0000000001
 40
0.0
 40
0.0
 40
0.0
 40
0.0
 40
0.4828674588
 40
1.0
 40
1.0
 40
1.0
 40
1.0
 10
8.4672985674
 20
5.3158324381
 30
0.0
 10
8.4670262717
 20
5.3142972332
 30
0.0
 10
8.4666687823
 20
5.3110806785
 30
0.0
 10
8.4666147252
 20
5.3078474589
 30
0.0
 10
8.4666635088
 20
5.3061783644
 30
0.0
  0
SPLINE
  5
350
100
AcDbEntity
  8
0
100
AcDbSpline
 62
7
  6
CONTINUOUS
 70
0
 71
3
 72
12
 73
8
 74
0
 42
0.0000001
 43
0.0000001
 44
0.0000000001
 40
0.0
 40
0.0
 40
0.0
 40
0.0
 40
0.0928493325
 40
0.1970842071
 40
0.4366037378
 40
0.7096072807
 40
1.0
 40
1.0
 40
1.0
 40
1.0
 10
8.6983837643
 20
5.334843825
 30
0.0
 10
8.6981403144
 20
5.3343973005
 30
0.0
 10
8.6976871137
 20
5.3334144875
 30
0.0
 10
8.6968994192
 20
5.3311538551
 30
0.0
 10
8.6961755681
 20
5.3278419156
 30
0.0
 10
8.695719578
 20
5.3234619486
 30
0.0
 10
8.6956748976
 20
5.3203714119
 30
0.0
 10
8.6957216325
 20
5.3187814843
 30
0.0
  0
LINE
  5
351
100
AcDbEntity
  8
0
100
AcDbLine
 62
7
  6
CONTINUOUS
 10
4.0561907559
 20
5.337206132
 11
4.0666282754
 21
5.3338408259
  0
SPLINE
  5
352
100
AcDbEntity
  8
0
100
AcDbSpline
 62
7
  6
CONTINUOUS
 70
0
 71
3
 72
26
 73
22
 74
0
 42
0.0000001
 43
0.0000001
 44
0.0000000001
 40
0.0
 40
0.0
 40
0.0
 40
0.0
 40
0.0003862827
 40
0.0012112369
 40
0.0043697413
 40
0.0095909479
 40
0.0168902989
 40
0.026269571
 40
0.0377173822
 40
0.0512201483
 40
0.0667638679
 40
0.1039170991
 40
0.149062144
 40
0.2020830685
 40
0.2628635302
 40
0.3312869634
 40
0.4071879243
 40
0.4902374596
 40
0.5800723528
 40
0.7786451394
 40
1.0
 40
1.0
 40
1.0
 40
1.0
 10
2.2363404437
 20
4.3382321242
 30
0.0
 10
2.2363405659
 20
4.3382292719
 30
0.0
 10
2.2363500151
 20
4.3382235651
 30
0.0
 10
2.2363797279
 20
4.3382173756
 30
0.0
 10
2.2364495404
 20
4.338210805
 30
0.0
 10
2.2365642402
 20
4.338207587
 30
0.0
 10
2.2367266095
 20
4.3382068242
 30
0.0
 10
2.2369342736
 20
4.338209576
 30
0.0
 10
2.2371879966
 20
4.3382155581
 30
0.0
 10
2.237487107
 20
4.3382249276
 30
0.0
 10
2.2379760437
 20
4.3382430046
 30
0.0
 10
2.2386984688
 20
4.3382746137
 30
0.0
 10
2.2396973622
 20
4.3383237528
 30
0.0
 10
2.2408704247
 20
4.3383861038
 30
0.0
 10
2.2422150696
 20
4.3384615656
 30
0.0
 10
2.243728344
 20
4.3385500368
 30
0.0
 10
2.2454057318
 20
4.3386512883
 30
0.0
 10
2.2472409034
 20
4.3387649022
 30
0.0
 10
2.2499807439
 20
4.3389380972
 30
0.0
 10
2.2537403048
 20
4.3391821955
 30
0.0
 10
2.2568369719
 20
4.339388591
 30
0.0
 10
2.2584692296
 20
4.3394985198
 30
0.0
  0
LINE
  5
353
100
AcDbEntity
  8
0
100
AcDbLine
 62
7
  6
CONTINUOUS
 10
5.4353508274
 20
5.3246565421
 11
5.3976749157
 21
5.337220493
  0
SPLINE
  5
354
100
AcDbEntity
  8
0
100
AcDbSpline
 62
7
  6
CONTINUOUS
 70
0
 71
3
 72
20
 73
16
 74
0
 42
0.0000001
 43
0.0000001
 44
0.0000000001
 40
0.0
 40
0.0
 40
0.0
 40
0.0
 40
0.007901906
 40
0.0178063291
 40
0.0435666114
 40
0.0771027099
 40
0.1181625898
 40
0.166360513
 40
0.2212469232
 40
0.2823606422
 40
0.3491204922
 40
0.4968540054
 40
0.65881208
 40
0.8289002308
 40
1.0
 40
1.0
 40
1.0
 40
1.0
 10
5.3976749157
 20
5.337220493
 30
0.0
 10
5.3974467096
 20
5.3372971232
 30
0.0
 10
5.3969234482
 20
5.3374426151
 30
0.0
 10
5.3956265687
 20
5.3377261916
 30
0.0
 10
5.3935426637
 20
5.3380546751
 30
0.0
 10
5.3905066123
 20
5.3384159876
 30
0.0
 10
5.3867812552
 20
5.3387607041
 30
0.0
 10
5.3824019141
 20
5.3390862953
 30
0.0
 10
5.3774086825
 20
5.3393884842
 30
0.0
 10
5.3718476865
 20
5.33966364
 30
0.0
 10
5.3634581689
 20
5.3400023854
 30
0.0
 10
5.3519940116
 20
5.3403303495
 30
0.0
 10
5.3373794434
 20
5.3405730154
 30
0.0
 10
5.3220513213
 20
5.3406654944
 30
0.0
 10
5.3116570383
 20
5.3406260207
 30
0.0
 10
5.3064447589
 20
5.3405794535
 30
0.0
  0
LINE
  5
355
100
AcDbEntity
  8
0
100
AcDbLine
 62
7
  6
CONTINUOUS
 10
5.4156803093
 20
5.3057303587
 11
5.3779868727
 21
5.3182951078
  0
SPLINE
  5
356
100
AcDbEntity
  8
0
100
AcDbSpline
 62
7
  6
CONTINUOUS
 70
0
 71
3
 72
14
 73
10
 74
0
 42
0.0000001
 43
0.0000001
 44
0.0000000001
 40
0.0
 40
0.0
 40
0.0
 40
0.0
 40
0.349141283
 40
0.4972088833
 40
0.6278857866
 40
0.7418007376
 40
0.8402176159
 40
0.9252021409
 40
1.0
 40
1.0
 40
1.0
 40
1.0
 10
5.4231200232
 20
5.2929943244
 30
0.0
 10
5.4226328448
 20
5.2946921858
 30
0.0
 10
5.4218563631
 20
5.2970906521
 30
0.0
 10
5.4206073179
 20
5.3000135708
 30
0.0
 10
5.4196924073
 20
5.3017795447
 30
0.0
 10
5.41874829
 20
5.3032396125
 30
0.0
 10
5.4177745608
 20
5.304393272
 30
0.0
 10
5.4167696121
 20
5.3052397191
 30
0.0
 10
5.4160393839
 20
5.3056109231
 30
0.0
 10
5.4156803093
 20
5.3057303587
 30
0.0
  0
LINE
  5
357
100
AcDbEntity
  8
0
100
AcDbLine
 62
7
  6
CONTINUOUS
 10
5.4440998093
 20
4.339152951
 11
5.484064182
 21
5.0813701499
  0
SPLINE
  5
358
100
AcDbEntity
  8
0
100
AcDbSpline
 62
7
  6
CONTINUOUS
 70
0
 71
3
 72
9
 73
5
 74
0
 42
0.0000001
 43
0.0000001
 44
0.0000000001
 40
0.0
 40
0.0
 40
0.0
 40
0.0
 40
0.5292325983
 40
1.0
 40
1.0
 40
1.0
 40
1.0
 10
4.1223718711
 20
5.3405667776
 30
0.0
 10
4.1157093909
 20
5.3406274545
 30
0.0
 10
4.1031196002
 20
5.3406614751
 30
0.0
 10
4.0905302335
 20
5.3405143309
 30
0.0
 10
4.0846050446
 20
5.3403800246
 30
0.0
  0
SPLINE
  5
359
100
AcDbEntity
  8
0
100
AcDbSpline
 62
7
  6
CONTINUOUS
 70
0
 71
3
 72
28
 73
24
 74
0
 42
0.0000001
 43
0.0000001
 44
0.0000000001
 40
0.0
 40
0.0
 40
0.0
 40
0.0
 40
0.2475293958
 40
0.3594406467
 40
0.4628475038
 40
0.557321627
 40
0.6424370763
 40
0.7177812336
 40
0.7830730351
 40
0.8381309489
 40
0.8827962496
 40
0.9011961993
 40
0.9169647305
 40
0.9301120028
 40
0.9406907685
 40
0.9488202655
 40
0.954762958
 40
0.9591806929
 40
0.9634954184
 40
0.9692000723
 40
0.9770244818
 40
0.9872508404
 40
1.0
 40
1.0
 40
1.0
 40
1.0
 10
4.0846050446
 20
5.3403800246
 30
0.0
 10
4.0820474677
 20
5.3403220519
 30
0.0
 10
4.0783339069
 20
5.3402198574
 30
0.0
 10
4.0735537497
 20
5.3400384816
 30
0.0
 10
4.0703553325
 20
5.3398921312
 30
0.0
 10
4.067434904
 20
5.3397316268
 30
0.0
 10
4.0648058163
 20
5.3395577958
 30
0.0
 10
4.0624800398
 20
5.3393712715
 30
0.0
 10
4.0604670832
 20
5.3391731898
 30
0.0
 10
4.0587742771
 20
5.3389646756
 30
0.0
 10
4.0575679533
 20
5.3387738839
 30
0.0
 10
4.0567695596
 20
5.338610749
 30
0.0
 10
4.0562943844
 20
5.338494511
 30
0.0
 10
4.0559034227
 20
5.3383764078
 30
0.0
 10
4.0555959439
 20
5.3382571971
 30
0.0
 10
4.0553710467
 20
5.3381356057
 30
0.0
 10
4.0552223729
 20
5.3380121679
 30
0.0
 10
4.0551546721
 20
5.3378650632
 30
0.0
 10
4.0552042013
 20
5.3377130759
 30
0.0
 10
4.0553398446
 20
5.3375836117
 30
0.0
 10
4.055549577
 20
5.3374546746
 30
0.0
 10
4.0558411683
 20
5.3373252526
 30
0.0
 10
4.0560653562
 20
5.337246586
 30
0.0
 10
4.0561907559
 20
5.337206132
 30
0.0
  0
SPLINE
  5
35A
100
AcDbEntity
  8
0
100
AcDbSpline
 62
7
  6
CONTINUOUS
 70
0
 71
3
 72
25
 73
21
 74
0
 42
0.0000001
 43
0.0000001
 44
0.0000000001
 40
0.0
 40
0.0
 40
0.0
 40
0.0
 40
0.0025570428
 40
0.0043905316
 40
0.0066972899
 40
0.0128524957
 40
0.0211629765
 40
0.0316779626
 40
0.04441856
 40
0.0593699935
 40
0.0764962622
 40
0.1171137031
 40
0.1659408221
 40
0.222633891
 40
0.2868199476
 40
0.357991736
 40
0.4355949881
 40
0.607867619
 40
0.7983492895
 40
1.0
 40
1.0
 40
1.0
 40
1.0
 10
4.1335913629
 20
4.3386185948
 30
0.0
 10
4.1335945311
 20
4.3385755207
 30
0.0
 10
4.1336454746
 20
4.3385090445
 30
0.0
 10
4.1337391741
 20
4.3384482997
 30
0.0
 10
4.1338972076
 20
4.3383730294
 30
0.0
 10
4.1341691514
 20
4.338291423
 30
0.0
 10
4.1345823966
 20
4.3382048556
 30
0.0
 10
4.1351098769
 20
4.3381257233
 30
0.0
 10
4.1357512917
 20
4.3380537887
 30
0.0
 10
4.1365056588
 20
4.3379896836
 30
0.0
 10
4.1377310197
 20
4.3379102203
 30
0.0
 10
4.1395298106
 20
4.3378368394
 30
0.0
 10
4.1419977215
 20
4.3377846694
 30
0.0
 10
4.1448642126
 20
4.3377658266
 30
0.0
 10
4.1481081135
 20
4.3377809224
 30
0.0
 10
4.151704897
 20
4.3378297814
 30
0.0
 10
4.1571264798
 20
4.3379436562
 30
0.0
 10
4.1645611118
 20
4.3381726186
 30
0.0
 10
4.1740865663
 20
4.3385602987
 30
0.0
 10
4.1807021197
 20
4.3388846734
 30
0.0
 10
4.1841033891
 20
4.3390647678
 30
0.0
  0
LINE
  5
35B
100
AcDbEntity
  8
0
100
AcDbLine
 62
7
  6
CONTINUOUS
 10
7.9904347279
 20
5.0843557372
 11
7.9850602562
 21
5.0817373957
  0
LINE
  5
35C
100
AcDbEntity
  8
0
100
AcDbLine
 62
7
  6
CONTINUOUS
 10
8.6957172147
 20
5.318781241
 11
8.5167887734
 21
5.3089331098
  0
LINE
  5
35D
100
AcDbEntity
  8
0
100
AcDbLine
 62
7
  6
CONTINUOUS
 10
8.5167887734
 20
5.3089331098
 11
8.4916712933
 21
5.3075524824
  0
LINE
  5
35E
100
AcDbEntity
  8
0
100
AcDbLine
 62
7
  6
CONTINUOUS
 10
8.4916712933
 20
5.3075524824
 11
8.4666635088
 21
5.3061783644
  0
LINE
  5
35F
100
AcDbEntity
  8
0
100
AcDbLine
 62
7
  6
CONTINUOUS
 10
7.9850602562
 20
5.0817373957
 11
7.9804641107
 21
4.3395253914
  0
ELLIPSE
  5
360
100
AcDbEntity
  8
0
100
AcDbEllipse
 62
7
  6
CONTINUOUS
 10
5.2625852283
 20
6.0942453015
 30
0.0
 11
3.9999962282
 21
-0.1484350087
 31
0.0
 40
0.0370070051
 41
-0.8152799677
 42
-0.7527697907
  0
ELLIPSE
  5
361
100
AcDbEntity
  8
0
100
AcDbEllipse
 62
7
  6
CONTINUOUS
 10
5.2625852283
 20
5.5158668519
 30
0.0
 11
3.9999990615
 21
0.202525229
 31
0.0
 40
0.0135294546
 41
0.2298592853
 42
0.2923694623
  0
ELLIPSE
  5
362
100
AcDbEntity
  8
0
100
AcDbEllipse
 62
7
  6
CONTINUOUS
 10
5.2625852283
 20
5.5158668519
 30
0.0
 11
3.9999962282
 21
-0.1484350087
 31
0.0
 40
0.0370070051
 41
2.3263126859
 42
2.3888228629
  0
ELLIPSE
  5
363
100
AcDbEntity
  8
0
100
AcDbEllipse
 62
7
  6
CONTINUOUS
 10
5.2625852283
 20
6.0942453015
 30
0.0
 11
3.9999990615
 21
0.202525229
 31
0.0
 40
0.0135294546
 41
-2.9117333683
 42
-2.8492231913
  0
ENDSEC
  0
SECTION
  2
OBJECTS
  0
DICTIONARY
  5
C
100
AcDbDictionary
280
0
281
1
  3
ACAD_GROUP
350
D
  3
ACAD_MLINESTYLE
350
17
  3
ACAD_LAYOUT
350
1A
  3
ACAD_PLOTSETTINGS
350
19
  3
ACAD_PLOTSTYLENAME
350
E
  0
DICTIONARY
  5
D
102
{ACAD_REACTORS
330
C
102
}
100
AcDbDictionary
280
0
281
1
  0
ACDBDICTIONARYWDFLT
  5
E
102
{ACAD_REACTORS
330
C
102
}
100
AcDbDictionary
281
1
  3
Normal
350
F
100
AcDbDictionaryWithDefault
340
F
  0
DICTIONARY
  5
17
102
{ACAD_REACTORS
330
C
102
}
100
AcDbDictionary
280
0
281
1
  3
Standard
350
18
  0
DICTIONARY
  5
19
102
{ACAD_REACTORS
330
C
102
}
100
AcDbDictionary
281
1
  0
DICTIONARY
  5
1A
102
{ACAD_REACTORS
330
C
102
}
100
AcDbDictionary
281
1
  3
Model
350
364
  3
Layout1
350
365
  0
ACDBPLACEHOLDER
  5
F
102
{ACAD_REACTORS
330
E
102
}
  0
MLINESTYLE
  5
18
102
{ACAD_REACTORS
330
17
102
}
100
AcDbMlineStyle
  2
STANDARD
 70
0
  3

 62
256
 51
90.0
 52
90.0
 71
2
 49
0.5
 62
256
  6
BYLAYER
 49
-0.5
 62
256
  6
BYLAYER
  0
LAYOUT
  5
364
102
{ACAD_REACTORS
330
1A
102
}
100
AcDbPlotSettings
  1

  2
none_device
  4
ANSI_A_(11.00_x_8.50_Inches)
  6

 40
0.0
 41
0.0
 42
0.0
 43
0.0
 44
279.4
 45
215.9
 46
0.0
 47
0.0
 48
0.0
 49
0.0
140
0.0
141
0.0
142
1.0
143
1.0
 70
1024
 72
0
 73
0
 74
0
  7

 75
0
147
1.0
148
0.0
149
0.0
100
AcDbLayout
  1
Model
 70
0
 71
0
 10
0.0
 20
0.0
 11
11.0
 21
8.5
 12
0.0
 22
0.0
 32
0.0
 14
0.0
 24
0.0
 34
0.0
 15
0.0
 25
0.0
 35
0.0
146
0.0
 13
0.0
 23
0.0
 33
0.0
 16
1.0
 26
0.0
 36
0.0
 17
0.0
 27
1.0
 37
0.0
 76
0
330
208
345
0
346
0
  0
LAYOUT
  5
365
102
{ACAD_REACTORS
330
1A
102
}
100
AcDbPlotSettings
  1

  2
none_device
  4
ANSI_A_(11.00_x_8.50_Inches)
  6

 40
0.0
 41
0.0
 42
0.0
 43
0.0
 44
279.4
 45
215.9
 46
0.0
 47
0.0
 48
0.0
 49
0.0
140
0.0
141
0.0
142
1.0
143
1.0
 70
0
 72
0
 73
0
 74
0
  7

 75
0
147
1.0
148
0.0
149
0.0
100
AcDbLayout
  1
Layout1
 70
0
 71
1
 10
0.0
 20
0.0
 11
11.0
 21
8.5
 12
0.0
 22
0.0
 32
0.0
 14
0.0
 24
0.0
 34
0.0
 15
0.0
 25
0.0
 35
0.0
146
0.0
 13
0.0
 23
0.0
 33
0.0
 16
1.0
 26
0.0
 36
0.0
 17
0.0
 27
1.0
 37
0.0
 76
0
330
209
345
0
346
0
  0
ENDSEC
  0
EOF
