999
DXF file: 278p-02_right.dxf
999
Pro/ENGINEER 2013150 by Parametric Technology Corporation
  0
SECTION
  2
HEADER
  9
$ACADVER
  1
AC1021
  9
$DWGCODEPAGE
  3
ANSI_1252
  9
$EXTMAX
 10
11.0
 20
8.5
 30
0.0
  9
$EXTMIN
 10
0.0
 20
0.0
 30
0.0
  9
$LIMMIN
 10
0.0
 20
0.0
  9
$LIMMAX
 10
11.0
 20
8.5
  9
$VIEWCTR
 10
5.5
 20
4.25
  9
$VIEWSIZE
 40
8.5
  9
$CLAYER
  8
0
  9
$LTSCALE
 40
0.605
  9
$CELTYPE
  6
BYLAYER
  9
$DIMSCALE
 40
1.0
  9
$DIMASZ
 40
0.1
  9
$DIMEXO
 40
0.0625
  9
$DIMDLI
 40
0.418
  9
$DIMEXE
 40
0.125
  9
$DIMCEN
 40
0.099
  9
$DIMLFAC
 40
1.0
  9
$DIMBLK
  1
_FILLED
  9
$DIMTXT
 40
0.08
  9
$DIMTOL
 70
1
  9
$DIMLIM
 70
0
  9
$DIMTFAC
 40
1.0
  9
$DIMTP
 40
0.001
  9
$DIMTM
 40
0.001
  9
$DIMGAP
 40
0.09
  9
$DIMDSEP
 70
46
  9
$PDMODE
 70
3
  9
$PDSIZE
 40
0.06
  9
$HANDSEED
  5
37D
  9
$TILEMODE
 70
1
  9
$MEASUREMENT
 70
0
  9
$INSUNITS
 70
1
  0
ENDSEC
  0
SECTION
  2
CLASSES
  0
CLASS
  1
ACDBDICTIONARYWDFLT
  2
AcDbDictionaryWithDefault
  3
AutoCAD 2000
 90
0
 91
1
280
0
281
0
  0
CLASS
  1
ACDBPLACEHOLDER
  2
AcDbPlaceHolder
  3
AutoCAD 2000
 90
0
 91
1
280
0
281
0
  0
CLASS
  1
LAYOUT
  2
AcDbLayout
  3
AutoCAD 2000
 90
0
 91
0
280
0
281
0
  0
ENDSEC
  0
SECTION
  2
TABLES
  0
TABLE
  2
VPORT
  5
8
100
AcDbSymbolTable
 70
2
  0
VPORT
  5
1F4
100
AcDbSymbolTableRecord
100
AcDbViewportTableRecord
  2
*ACTIVE
 70
0
 10
0.0
 20
0.0
 11
1.0
 21
1.0
 12
5.5
 22
4.25
 13
0.0
 23
0.0
 14
1.0
 24
1.0
 15
0.0
 25
0.0
 16
0.0
 26
0.0
 36
1.0
 17
0.0
 27
0.0
 37
0.0
 40
8.5
 41
1.2941176471
 42
50.0
 43
0.0
 44
0.0
 50
0.0
 51
0.0
 71
0
 72
100
 73
1
 74
1
 75
0
 76
0
 77
0
 78
0
  0
ENDTAB
  0
TABLE
  2
LTYPE
  5
5
100
AcDbSymbolTable
 70
6
  0
LTYPE
  5
14
100
AcDbSymbolTableRecord
100
AcDbLinetypeTableRecord
  2
BYBLOCK
 70
0
  3

 72
65
 73
0
 40
0.0
  0
LTYPE
  5
15
100
AcDbSymbolTableRecord
100
AcDbLinetypeTableRecord
  2
BYLAYER
 70
0
  3

 72
65
 73
0
 40
0.0
  0
LTYPE
  5
16
100
AcDbSymbolTableRecord
100
AcDbLinetypeTableRecord
  2
CONTINUOUS
 70
64
  3
Solid line
 72
65
 73
0
 40
0.0
  0
LTYPE
  5
1F5
100
AcDbSymbolTableRecord
100
AcDbLinetypeTableRecord
  2
CENTER
 70
64
  3
____ _ ____ _ ____ _ ____ _ ____ _ ____ _ ____
 72
65
 73
4
 40
0.6
 49
0.375
 74
0
 49
-0.075
 74
0
 49
0.075
 74
0
 49
-0.075
 74
0
  0
LTYPE
  5
1F6
100
AcDbSymbolTableRecord
100
AcDbLinetypeTableRecord
  2
HIDDEN
 70
64
  3
- - - - - - - - - - - - - - - - - - - -
 72
65
 73
2
 40
0.2
 49
0.1
 74
0
 49
-0.1
 74
0
  0
LTYPE
  5
1F7
100
AcDbSymbolTableRecord
100
AcDbLinetypeTableRecord
  2
PHANTOM
 70
64
  3
_____ _ _ _____ _ _ _____ _ _ _____
 72
65
 73
6
 40
0.8
 49
0.45
 74
0
 49
-0.05
 74
0
 49
0.1
 74
0
 49
-0.05
 74
0
 49
0.1
 74
0
 49
-0.05
 74
0
  0
LTYPE
  5
1F8
100
AcDbSymbolTableRecord
100
AcDbLinetypeTableRecord
  2
DOT
 70
64
  3
. . . . . . . . . . . . . . . . . . . .
 72
65
 73
2
 40
0.2
 49
0.1
 74
0
 49
-0.1
 74
0
  0
LTYPE
  5
1F9
100
AcDbSymbolTableRecord
100
AcDbLinetypeTableRecord
  2
DASHED
 70
64
  3
- - - - - - - - - - - - - - - - - - - -
 72
65
 73
2
 40
0.2
 49
0.1
 74
0
 49
-0.1
 74
0
  0
ENDTAB
  0
TABLE
  2
LAYER
  5
2
100
AcDbSymbolTable
 70
36
  0
LAYER
  5
10
100
AcDbSymbolTableRecord
100
AcDbLayerTableRecord
  2
0
 70
0
 62
7
  6
CONTINUOUS
370
-3
390
F
  0
LAYER
  5
1FA
100
AcDbSymbolTableRecord
100
AcDbLayerTableRecord
  2
DEFAULT_1
 70
0
 62
7
  6
CENTER
370
-3
390
F
  0
LAYER
  5
1FB
100
AcDbSymbolTableRecord
100
AcDbLayerTableRecord
  2
DEFAULT_2
 70
0
 62
8
  6
HIDDEN
370
-3
390
F
  0
LAYER
  5
1FC
100
AcDbSymbolTableRecord
100
AcDbLayerTableRecord
  2
DEFAULT_3
 70
0
 62
7
  6
PHANTOM
370
-3
390
F
  0
LAYER
  5
1FD
100
AcDbSymbolTableRecord
100
AcDbLayerTableRecord
  2
ALL_FEATURES
 70
0
 62
7
  6
CONTINUOUS
370
-3
390
F
  0
LAYER
  5
1FE
100
AcDbSymbolTableRecord
100
AcDbLayerTableRecord
  2
AXES_FEATURES
 70
0
 62
7
  6
CONTINUOUS
370
-3
390
F
  0
LAYER
  5
1FF
100
AcDbSymbolTableRecord
100
AcDbLayerTableRecord
  2
DEFAULT_COORDINATE_SYSTEM
 70
0
 62
7
  6
CONTINUOUS
370
-3
390
F
  0
LAYER
  5
200
100
AcDbSymbolTableRecord
100
AcDbLayerTableRecord
  2
DEFAULT_DATUM_AXES
 70
0
 62
7
  6
CONTINUOUS
370
-3
390
F
  0
LAYER
  5
201
100
AcDbSymbolTableRecord
100
AcDbLayerTableRecord
  2
DEFAULT_DATUM_CURVES
 70
0
 62
7
  6
CONTINUOUS
370
-3
390
F
  0
LAYER
  5
202
100
AcDbSymbolTableRecord
100
AcDbLayerTableRecord
  2
DEFAULT_DATUM_PLANES
 70
0
 62
7
  6
CONTINUOUS
370
-3
390
F
  0
LAYER
  5
203
100
AcDbSymbolTableRecord
100
AcDbLayerTableRecord
  2
DEFAULT_SURFACES
 70
0
 62
7
  6
CONTINUOUS
370
-3
390
F
  0
LAYER
  5
204
100
AcDbSymbolTableRecord
100
AcDbLayerTableRecord
  2
DIMENSIONS
 70
0
 62
7
  6
CONTINUOUS
370
-3
390
F
  0
LAYER
  5
205
100
AcDbSymbolTableRecord
100
AcDbLayerTableRecord
  2
PATTERN_DATUMS
 70
0
 62
7
  6
CONTINUOUS
370
-3
390
F
  0
ENDTAB
  0
TABLE
  2
STYLE
  5
3
100
AcDbSymbolTable
 70
1
  0
STYLE
  5
11
100
AcDbSymbolTableRecord
100
AcDbTextStyleTableRecord
  2
STANDARD
 70
0
 40
0.0
 41
0.8
 50
0.0
 71
0
 42
0.2
  3
txt
  4

  0
STYLE
  5
206
100
AcDbSymbolTableRecord
100
AcDbTextStyleTableRecord
  2
TEXTSTYLE_1
 70
0
 40
0.0
 41
0.8
 50
0.0
 71
0
 42
0.2
  3
gdt
  4

  0
ENDTAB
  0
TABLE
  2
VIEW
  5
6
100
AcDbSymbolTable
 70
0
  0
ENDTAB
  0
TABLE
  2
UCS
  5
7
100
AcDbSymbolTable
 70
0
  0
ENDTAB
  0
TABLE
  2
APPID
  5
9
100
AcDbSymbolTable
 70
1
  0
APPID
  5
207
100
AcDbSymbolTableRecord
100
AcDbRegAppTableRecord
  2
ACAD
 70
0
  0
ENDTAB
  0
TABLE
  2
BLOCK_RECORD
  5
1
100
AcDbSymbolTable
 70
0
  0
BLOCK_RECORD
  5
208
100
AcDbSymbolTableRecord
100
AcDbBlockTableRecord
  2
*Model_Space
  0
BLOCK_RECORD
  5
209
100
AcDbSymbolTableRecord
100
AcDbBlockTableRecord
  2
*Paper_Space
  0
ENDTAB
  0
TABLE
  2
DIMSTYLE
  5
A
100
AcDbSymbolTable
 70
1
100
AcDbDimStyleTable
 71
0
  0
DIMSTYLE
105
20A
100
AcDbSymbolTableRecord
100
AcDbDimStyleTableRecord
  2
STANDARD
 70
0
  3

  4

 40
1.0
 41
0.1
 42
0.0625
 43
0.38
 44
0.125
 45
0.0
 46
0.0
 47
0.001
 48
0.001
140
0.08
141
0.09
142
0.0
143
25.4
144
1.0
145
0.0
146
1.0
147
0.09
 71
1.0
 72
0.0
 73
1
 74
1
 75
0
 76
0
 77
0
 78
4
170
0
171
2
172
0
173
0
174
0
175
0
176
0
177
0
178
0
270
2
271
3
272
3
273
2
274
2
275
0
280
0
281
0
282
0
283
1
284
4
285
0
286
0
287
3
288
0
340
11
278
46
  0
ENDTAB
  0
ENDSEC
  0
SECTION
  2
BLOCKS
  0
BLOCK
  5
20
100
AcDbEntity
  8
0
100
AcDbBlockBegin
  2
*Model_Space
 70
0
 10
0.0
 20
0.0
 30
0.0
  3
*Model_Space
  1

  0
ENDBLK
  5
21
100
AcDbEntity
  8
0
100
AcDbBlockEnd
  0
BLOCK
  5
1C
100
AcDbEntity
  8
0
100
AcDbBlockBegin
  2
*Paper_Space
 70
0
 10
0.0
 20
0.0
 30
0.0
  3
*Paper_Space
  1

  0
ENDBLK
  5
1D
100
AcDbEntity
  8
0
100
AcDbBlockEnd
  0
ENDSEC
  0
SECTION
  2
ENTITIES
  0
MTEXT
  5
20B
100
AcDbEntity
  8
0
100
AcDbMText
 62
2
  6
CONTINUOUS
  7
STANDARD
 71
3
 72
1
 10
5.7484553968
 20
-0.891102425
 30
0.0
 11
1.0
 21
0.0
 31
0.0
 44
0.9
  1
SCALE  1.000
 40
0.08
 41
0.768
  0
LINE
  5
20C
100
AcDbEntity
  8
0
100
AcDbLine
 62
7
  6
CONTINUOUS
 10
0.0
 20
0.0
 11
0.0
 21
8.5
  0
LINE
  5
20D
100
AcDbEntity
  8
0
100
AcDbLine
 62
7
  6
CONTINUOUS
 10
0.0
 20
0.0
 11
11.0
 21
0.0
  0
LINE
  5
20E
100
AcDbEntity
  8
0
100
AcDbLine
 62
7
  6
CONTINUOUS
 10
0.0
 20
8.5
 11
11.0
 21
8.5
  0
LINE
  5
20F
100
AcDbEntity
  8
0
100
AcDbLine
 62
7
  6
CONTINUOUS
 10
11.0
 20
0.0
 11
11.0
 21
8.5
  0
LINE
  5
210
100
AcDbEntity
  8
0
100
AcDbLine
 62
7
  6
CONTINUOUS
 10
1.1999526936
 20
5.6171591388
 11
1.1999771205
 21
5.3671591401
  0
LINE
  5
211
100
AcDbEntity
  8
0
100
AcDbLine
 62
7
  6
CONTINUOUS
 10
1.262914005
 20
5.9466992698
 11
1.262914005
 21
5.6634128836
  0
LINE
  5
212
100
AcDbEntity
  8
0
100
AcDbLine
 62
7
  6
CONTINUOUS
 10
1.7770679254
 20
5.3182951078
 11
1.8358936831
 21
4.3390830197
  0
LINE
  5
213
100
AcDbEntity
  8
0
100
AcDbLine
 62
7
  6
CONTINUOUS
 10
1.7263286555
 20
5.3217573735
 11
1.7853745013
 21
4.3386254895
  0
LINE
  5
214
100
AcDbEntity
  8
0
100
AcDbLine
 62
7
  6
CONTINUOUS
 10
2.2324187911
 20
6.0367009354
 11
2.232426262
 21
5.9925560767
  0
LINE
  5
215
100
AcDbEntity
  8
0
100
AcDbLine
 62
7
  6
CONTINUOUS
 10
2.2905424667
 20
6.0367105325
 11
2.2905008578
 21
6.2825749402
  0
LINE
  5
216
100
AcDbEntity
  8
0
100
AcDbLine
 62
7
  6
CONTINUOUS
 10
2.4287408033
 20
6.2825874776
 11
2.4287824121
 21
6.0367230698
  0
LINE
  5
217
100
AcDbEntity
  8
0
100
AcDbLine
 62
7
  6
CONTINUOUS
 10
2.4379288448
 20
6.0367243782
 11
2.437887236
 21
6.282588786
  0
LINE
  5
218
100
AcDbEntity
  8
0
100
AcDbLine
 62
7
  6
CONTINUOUS
 10
2.3474799379
 20
5.9466992698
 11
2.3474799379
 21
5.8847165683
  0
LINE
  5
219
100
AcDbEntity
  8
0
100
AcDbLine
 62
7
  6
CONTINUOUS
 10
2.3261243668
 20
6.2992167982
 11
2.2904520482
 21
6.2825751727
  0
LWPOLYLINE
  5
21A
100
AcDbEntity
  8
0
100
AcDbPolyline
 62
7
  6
CONTINUOUS
 90
3
 70
0
 10
1.7248529484
 20
5.3282801681
 10
1.7258354334
 20
5.3252108964
 10
1.7263222079
 20
5.3218672774
  0
LINE
  5
21B
100
AcDbEntity
  8
0
100
AcDbLine
 62
7
  6
CONTINUOUS
 10
2.714367123
 20
6.282635576
 11
2.7144087318
 21
6.0367711683
  0
LINE
  5
21C
100
AcDbEntity
  8
0
100
AcDbLine
 62
7
  6
CONTINUOUS
 10
2.7235551643
 20
6.0367729556
 11
2.7235135555
 21
6.2826373634
  0
LINE
  5
21D
100
AcDbEntity
  8
0
100
AcDbLine
 62
7
  6
CONTINUOUS
 10
2.7726309625
 20
6.2978023676
 11
2.772663395
 21
6.1061601254
  0
LINE
  5
21E
100
AcDbEntity
  8
0
100
AcDbLine
 62
7
  6
CONTINUOUS
 10
2.5242566332
 20
5.9466992698
 11
2.5242566332
 21
5.8847165683
  0
LINE
  5
21F
100
AcDbEntity
  8
0
100
AcDbLine
 62
7
  6
CONTINUOUS
 10
2.6825831264
 20
4.2823039974
 11
2.6826520104
 21
3.5773040011
  0
LINE
  5
220
100
AcDbEntity
  8
0
100
AcDbLine
 62
7
  6
CONTINUOUS
 10
2.8126309613
 20
6.2978122787
 11
2.8126633939
 21
6.1061700364
  0
LINE
  5
221
100
AcDbEntity
  8
0
100
AcDbLine
 62
7
  6
CONTINUOUS
 10
2.861753497
 20
6.2826716161
 11
2.8617951059
 21
6.0368072083
  0
LINE
  5
222
100
AcDbEntity
  8
0
100
AcDbLine
 62
7
  6
CONTINUOUS
 10
3.1194965745
 20
5.9907886464
 11
3.1194965745
 21
5.9925560767
  0
LINE
  5
223
100
AcDbEntity
  8
0
100
AcDbLine
 62
7
  6
CONTINUOUS
 10
2.9097394859
 20
6.6175560767
 11
2.8916638583
 21
6.0999378251
  0
LINE
  5
224
100
AcDbEntity
  8
0
100
AcDbLine
 62
7
  6
CONTINUOUS
 10
3.812803452
 20
2.0274144188
 11
5.0359734701
 21
2.0275714267
  0
LINE
  5
225
100
AcDbEntity
  8
0
100
AcDbLine
 62
7
  6
CONTINUOUS
 10
5.0359734701
 20
2.0275714267
 11
6.7128034382
 21
2.0276977714
  0
LINE
  5
226
100
AcDbEntity
  8
0
100
AcDbLine
 62
7
  6
CONTINUOUS
 10
3.8728132339
 20
1.9674202843
 11
6.6528053813
 21
1.9676919065
  0
LINE
  5
227
100
AcDbEntity
  8
0
100
AcDbLine
 62
7
  6
CONTINUOUS
 10
5.732191805
 20
6.2996810767
 11
5.6965166705
 21
6.2830454882
  0
LINE
  5
228
100
AcDbEntity
  8
0
100
AcDbLine
 62
7
  6
CONTINUOUS
 10
3.8126637299
 20
3.4574144115
 11
3.812803452
 21
2.0274144188
  0
LINE
  5
229
100
AcDbEntity
  8
0
100
AcDbLine
 62
7
  6
CONTINUOUS
 10
4.1074027257
 20
5.7253955851
 11
4.1074027257
 21
5.6634128836
  0
LINE
  5
22A
100
AcDbEntity
  8
0
100
AcDbLine
 62
7
  6
CONTINUOUS
 10
4.3488841823
 20
5.7253955851
 11
4.3488841823
 21
5.6634128836
  0
LINE
  5
22B
100
AcDbEntity
  8
0
100
AcDbLine
 62
7
  6
CONTINUOUS
 10
4.3899804269
 20
5.6550956157
 11
4.3899804269
 21
5.6175560767
  0
LINE
  5
22C
100
AcDbEntity
  8
0
100
AcDbLine
 62
7
  6
CONTINUOUS
 10
6.7726578595
 20
3.5176508292
 11
7.7792042759
 21
3.5178054265
  0
LINE
  5
22D
100
AcDbEntity
  8
0
100
AcDbLine
 62
7
  6
CONTINUOUS
 10
2.6826520104
 20
3.5773040011
 11
4.8590510769
 21
3.5775833668
  0
LINE
  5
22E
100
AcDbEntity
  8
0
100
AcDbLine
 62
7
  6
CONTINUOUS
 10
6.7126637161
 20
3.457697764
 11
3.8126637299
 21
3.4574144115
  0
LINE
  5
22F
100
AcDbEntity
  8
0
100
AcDbLine
 62
7
  6
CONTINUOUS
 10
7.6593155134
 20
3.5178106474
 11
2.7426578725
 21
3.5173098638
  0
LINE
  5
230
100
AcDbEntity
  8
0
100
AcDbLine
 62
7
  6
CONTINUOUS
 10
6.7726578492
 20
3.5177564229
 11
7.6593155134
 21
3.5178106474
  0
LINE
  5
231
100
AcDbEntity
  8
0
100
AcDbLine
 62
7
  6
CONTINUOUS
 10
4.8590510769
 20
3.5775833668
 11
7.8426519857
 21
3.5778081732
  0
LINE
  5
232
100
AcDbEntity
  8
0
100
AcDbLine
 62
7
  6
CONTINUOUS
 10
7.6593155134
 20
3.5178106474
 11
7.7826578486
 21
3.5178023111
  0
LINE
  5
233
100
AcDbEntity
  8
0
100
AcDbLine
 62
7
  6
CONTINUOUS
 10
2.7426578725
 20
3.5173098638
 11
3.752662131
 21
3.517355752
  0
LINE
  5
234
100
AcDbEntity
  8
0
100
AcDbLine
 62
7
  6
CONTINUOUS
 10
7.8107047472
 20
3.7528156182
 11
8.6918910295
 21
3.7529053709
  0
LINE
  5
235
100
AcDbEntity
  8
0
100
AcDbLine
 62
7
  6
CONTINUOUS
 10
8.9704119667
 20
3.8234337428
 11
8.9358417045
 21
3.8234302188
  0
LINE
  5
236
100
AcDbEntity
  8
0
100
AcDbLine
 62
7
  6
CONTINUOUS
 10
7.7274425884
 20
4.2638079175
 11
7.6710635905
 21
4.2638021751
  0
LINE
  5
237
100
AcDbEntity
  8
0
100
AcDbLine
 62
7
  6
CONTINUOUS
 10
1.8452625298
 20
4.2822225437
 11
1.8452724434
 21
4.2822225439
  0
LINE
  5
238
100
AcDbEntity
  8
0
100
AcDbLine
 62
7
  6
CONTINUOUS
 10
1.8452724434
 20
4.2822225439
 11
5.5837721855
 21
4.2826560699
  0
LINE
  5
239
100
AcDbEntity
  8
0
100
AcDbLine
 62
7
  6
CONTINUOUS
 10
5.5837721855
 20
4.2826560699
 11
7.7243158607
 21
4.2828215816
  0
LINE
  5
23A
100
AcDbEntity
  8
0
100
AcDbLine
 62
7
  6
CONTINUOUS
 10
7.6668583579
 20
4.2828195484
 11
7.7243158607
 21
4.2828215816
  0
LINE
  5
23B
100
AcDbEntity
  8
0
100
AcDbLine
 62
7
  6
CONTINUOUS
 10
8.6764001256
 20
4.290416453
 11
7.7881539408
 21
4.290323124
  0
LINE
  5
23C
100
AcDbEntity
  8
0
100
AcDbLine
 62
7
  6
CONTINUOUS
 10
8.9696443635
 20
3.9356047426
 11
8.9703996541
 21
3.9355698935
  0
LINE
  5
23D
100
AcDbEntity
  8
0
100
AcDbLine
 62
7
  6
CONTINUOUS
 10
8.8941272308
 20
3.906999937
 11
8.6804844983
 21
3.9254673846
  0
LINE
  5
23E
100
AcDbEntity
  8
0
100
AcDbLine
 62
7
  6
CONTINUOUS
 10
8.8940489976
 20
4.6748519976
 11
8.725490286
 21
4.6602470546
  0
LINE
  5
23F
100
AcDbEntity
  8
0
100
AcDbLine
 62
7
  6
CONTINUOUS
 10
8.9703290349
 20
4.6462975814
 11
8.9695719728
 21
4.6462625742
  0
LINE
  5
240
100
AcDbEntity
  8
0
100
AcDbLine
 62
7
  6
CONTINUOUS
 10
5.6546353412
 20
4.3395253914
 11
5.9037562903
 21
4.3395667232
  0
LINE
  5
241
100
AcDbEntity
  8
0
100
AcDbLine
 62
7
  6
CONTINUOUS
 10
1.8358936831
 20
4.3390830197
 11
2.5224739758
 21
4.339152951
  0
LINE
  5
242
100
AcDbEntity
  8
0
100
AcDbLine
 62
7
  6
CONTINUOUS
 10
5.9811669582
 20
4.3395751892
 11
7.0045535988
 21
4.3396648972
  0
LINE
  5
243
100
AcDbEntity
  8
0
100
AcDbLine
 62
7
  6
CONTINUOUS
 10
2.5728998398
 20
4.3422994561
 11
5.5910742459
 21
4.3426583428
  0
LINE
  5
244
100
AcDbEntity
  8
0
100
AcDbLine
 62
7
  6
CONTINUOUS
 10
7.0429437177
 20
4.342783175
 11
7.8079704645
 21
4.3428295903
  0
LINE
  5
245
100
AcDbEntity
  8
0
100
AcDbLine
 62
7
  6
CONTINUOUS
 10
5.8741398715
 20
5.318781241
 11
5.9037562903
 21
4.3395667232
  0
LINE
  5
246
100
AcDbEntity
  8
0
100
AcDbLine
 62
7
  6
CONTINUOUS
 10
5.638441805
 20
6.0371810767
 11
5.638441805
 21
5.9925560767
  0
LINE
  5
247
100
AcDbEntity
  8
0
100
AcDbLine
 62
7
  6
CONTINUOUS
 10
5.6965654814
 20
6.0371810767
 11
5.6965654814
 21
6.2830454882
  0
LINE
  5
248
100
AcDbEntity
  8
0
100
AcDbLine
 62
7
  6
CONTINUOUS
 10
5.8348054268
 20
6.2830454882
 11
5.8348054268
 21
6.0371810767
  0
LINE
  5
249
100
AcDbEntity
  8
0
100
AcDbLine
 62
7
  6
CONTINUOUS
 10
5.8439518596
 20
6.0371810767
 11
5.8439518596
 21
6.2830454882
  0
LINE
  5
24A
100
AcDbEntity
  8
0
100
AcDbLine
 62
7
  6
CONTINUOUS
 10
8.9703178929
 20
4.758433735
 11
8.9357488011
 21
4.758430214
  0
LWPOLYLINE
  5
24B
100
AcDbEntity
  8
0
100
AcDbPolyline
 62
7
  6
CONTINUOUS
 90
8
 70
0
 10
1.7074028412
 20
5.3406407042
 10
1.7105855548
 20
5.3402160749
 10
1.7136688901
 20
5.3392838864
 10
1.7165624781
 20
5.3378689087
 10
1.7191910674
 20
5.3360080566
 10
1.7214867874
 20
5.3337495252
 10
1.7233905827
 20
5.3311512592
 10
1.7248529484
 20
5.3282801681
  0
LINE
  5
24C
100
AcDbEntity
  8
0
100
AcDbLine
 62
7
  6
CONTINUOUS
 10
5.9514355434
 20
5.3221578969
 11
5.9811669582
 21
4.3395751892
  0
LINE
  5
24D
100
AcDbEntity
  8
0
100
AcDbLine
 62
7
  6
CONTINUOUS
 10
5.942191805
 20
6.1065560767
 11
5.942191805
 21
6.2996810767
  0
LINE
  5
24E
100
AcDbEntity
  8
0
100
AcDbLine
 62
7
  6
CONTINUOUS
 10
6.022191805
 20
6.2996810767
 11
6.022191805
 21
6.1065560767
  0
LINE
  5
24F
100
AcDbEntity
  8
0
100
AcDbLine
 62
7
  6
CONTINUOUS
 10
6.1204317505
 20
6.2830454882
 11
6.1204317505
 21
6.0371810767
  0
LINE
  5
250
100
AcDbEntity
  8
0
100
AcDbLine
 62
7
  6
CONTINUOUS
 10
6.1295781833
 20
6.0371810767
 11
6.1295781833
 21
6.2830454882
  0
LINE
  5
251
100
AcDbEntity
  8
0
100
AcDbLine
 62
7
  6
CONTINUOUS
 10
7.1210452712
 20
5.3376435331
 11
7.1210430208
 21
5.3376432119
  0
LINE
  5
252
100
AcDbEntity
  8
0
100
AcDbLine
 62
7
  6
CONTINUOUS
 10
7.1233103612
 20
5.3378164841
 11
7.1210452712
 21
5.3376435331
  0
LINE
  5
253
100
AcDbEntity
  8
0
100
AcDbLine
 62
7
  6
CONTINUOUS
 10
9.3249765748
 20
5.3679529627
 11
8.845392762
 21
5.3427720552
  0
LINE
  5
254
100
AcDbEntity
  8
0
100
AcDbLine
 62
7
  6
CONTINUOUS
 10
5.5529418203
 20
5.0665574048
 11
2.5764464571
 21
5.0662034741
  0
LINE
  5
255
100
AcDbEntity
  8
0
100
AcDbLine
 62
7
  6
CONTINUOUS
 10
7.8078997336
 20
5.0667322563
 11
7.0921596817
 21
5.0666894912
  0
LINE
  5
256
100
AcDbEntity
  8
0
100
AcDbLine
 62
7
  6
CONTINUOUS
 10
5.5541615682
 20
5.0846567028
 11
2.5650167198
 21
5.084301268
  0
LINE
  5
257
100
AcDbEntity
  8
0
100
AcDbLine
 62
7
  6
CONTINUOUS
 10
7.7968147807
 20
5.0848304919
 11
7.0933833794
 21
5.084788868
  0
LINE
  5
258
100
AcDbEntity
  8
0
100
AcDbLine
 62
7
  6
CONTINUOUS
 10
1.1999776274
 20
5.367159087
 11
1.7074269877
 21
5.340614514
  0
LINE
  5
259
100
AcDbEntity
  8
0
100
AcDbLine
 62
7
  6
CONTINUOUS
 10
2.8261243573
 20
6.2993014156
 11
2.8618023065
 21
6.2826718651
  0
LINE
  5
25A
100
AcDbEntity
  8
0
100
AcDbLine
 62
7
  6
CONTINUOUS
 10
6.2678181287
 20
6.2830454882
 11
6.2678181287
 21
6.0371810767
  0
LINE
  5
25B
100
AcDbEntity
  8
0
100
AcDbLine
 62
7
  6
CONTINUOUS
 10
6.325941805
 20
6.0371810767
 11
6.325941805
 21
5.9925560767
  0
LINE
  5
25C
100
AcDbEntity
  8
0
100
AcDbLine
 62
7
  6
CONTINUOUS
 10
9.262914005
 20
5.6634128836
 11
9.0753975915
 21
5.6535855648
  0
LINE
  5
25D
100
AcDbEntity
  8
0
100
AcDbLine
 62
7
  6
CONTINUOUS
 10
8.4804012443
 20
5.6224031275
 11
8.3950461356
 21
5.6179298558
  0
LINE
  5
25E
100
AcDbEntity
  8
0
100
AcDbLine
 62
7
  6
CONTINUOUS
 10
5.7490483085
 20
5.3104842791
 11
2.0758828651
 21
5.3100475082
  0
LINE
  5
25F
100
AcDbEntity
  8
0
100
AcDbLine
 62
7
  6
CONTINUOUS
 10
8.2796775506
 20
5.3106762073
 11
7.1093284208
 21
5.3106027445
  0
LINE
  5
260
100
AcDbEntity
  8
0
100
AcDbLine
 62
7
  6
CONTINUOUS
 10
5.7681114389
 20
5.3251025585
 11
2.017190683
 21
5.3246565421
  0
LINE
  5
261
100
AcDbEntity
  8
0
100
AcDbLine
 62
7
  6
CONTINUOUS
 10
8.3376266942
 20
5.3252970961
 11
7.1093272548
 21
5.3252195442
  0
LINE
  5
262
100
AcDbEntity
  8
0
100
AcDbLine
 62
7
  6
CONTINUOUS
 10
1.1999771205
 20
5.3671591401
 11
6.110752822
 21
5.3677429593
  0
LINE
  5
263
100
AcDbEntity
  8
0
100
AcDbLine
 62
7
  6
CONTINUOUS
 10
6.110752822
 20
5.3677429593
 11
9.3249770817
 21
5.3679530159
  0
LINE
  5
264
100
AcDbEntity
  8
0
100
AcDbLine
 62
7
  6
CONTINUOUS
 10
1.262914005
 20
5.6634128836
 11
1.4504304185
 21
5.6535855648
  0
LINE
  5
265
100
AcDbEntity
  8
0
100
AcDbLine
 62
7
  6
CONTINUOUS
 10
2.0454267658
 20
5.6224031275
 11
2.0711614925
 21
5.6210544276
  0
LINE
  5
266
100
AcDbEntity
  8
0
100
AcDbLine
 62
7
  6
CONTINUOUS
 10
4.3337839605
 20
5.6795560767
 11
4.1074027257
 21
5.7253955851
  0
LINE
  5
267
100
AcDbEntity
  8
0
100
AcDbLine
 62
7
  6
CONTINUOUS
 10
6.7126637161
 20
3.457697764
 11
6.7128034382
 21
2.0276977714
  0
LINE
  5
268
100
AcDbEntity
  8
0
100
AcDbLine
 62
7
  6
CONTINUOUS
 10
2.6901728987
 20
5.6173870574
 11
1.1999526936
 21
5.6171591388
  0
LINE
  5
269
100
AcDbEntity
  8
0
100
AcDbLine
 62
7
  6
CONTINUOUS
 10
2.6901728987
 20
5.6173870574
 11
8.778544238
 21
5.6179528703
  0
LINE
  5
26A
100
AcDbEntity
  8
0
100
AcDbLine
 62
7
  6
CONTINUOUS
 10
8.778544238
 20
5.6179528703
 11
9.3249526548
 21
5.6179530146
  0
LINE
  5
26B
100
AcDbEntity
  8
0
100
AcDbLine
 62
7
  6
CONTINUOUS
 10
8.7674549281
 20
5.6224031275
 11
4.4743171944
 21
5.6224031275
  0
LINE
  5
26C
100
AcDbEntity
  8
0
100
AcDbLine
 62
7
  6
CONTINUOUS
 10
4.232837469
 20
5.6224031275
 11
1.7506928999
 21
5.6224031275
  0
LINE
  5
26D
100
AcDbEntity
  8
0
100
AcDbLine
 62
7
  6
CONTINUOUS
 10
9.0585505842
 20
5.6371428154
 11
4.4014817582
 21
5.6371428154
  0
LINE
  5
26E
100
AcDbEntity
  8
0
100
AcDbLine
 62
7
  6
CONTINUOUS
 10
4.160001912
 20
5.6371428154
 11
1.4725038018
 21
5.6371428154
  0
LINE
  5
26F
100
AcDbEntity
  8
0
100
AcDbLine
 62
7
  6
CONTINUOUS
 10
4.2287955625
 20
5.6388458768
 11
4.1618355618
 21
5.6388458768
  0
LINE
  5
270
100
AcDbEntity
  8
0
100
AcDbLine
 62
7
  6
CONTINUOUS
 10
9.0753975915
 20
5.6535855648
 11
4.3974418838
 21
5.6535855648
  0
LINE
  5
271
100
AcDbEntity
  8
0
100
AcDbLine
 62
7
  6
CONTINUOUS
 10
4.1559604272
 20
5.6535855648
 11
1.4504304185
 21
5.6535855648
  0
LINE
  5
272
100
AcDbEntity
  8
0
100
AcDbLine
 62
7
  6
CONTINUOUS
 10
4.1074027257
 20
5.6634128836
 11
1.262914005
 21
5.6634128836
  0
LINE
  5
273
100
AcDbEntity
  8
0
100
AcDbLine
 62
7
  6
CONTINUOUS
 10
4.3488841823
 20
5.6634128836
 11
9.262914005
 21
5.6634128836
  0
LINE
  5
274
100
AcDbEntity
  8
0
100
AcDbLine
 62
7
  6
CONTINUOUS
 10
4.3337839605
 20
5.6795560767
 11
4.3488841823
 21
5.6795560767
  0
LINE
  5
275
100
AcDbEntity
  8
0
100
AcDbLine
 62
7
  6
CONTINUOUS
 10
7.0709817366
 20
5.3222559091
 11
7.0045535988
 21
4.3396648972
  0
LINE
  5
276
100
AcDbEntity
  8
0
100
AcDbLine
 62
7
  6
CONTINUOUS
 10
7.1093242577
 20
5.3205660188
 11
7.0429440183
 21
4.3387541357
  0
LWPOLYLINE
  5
277
100
AcDbEntity
  8
0
100
AcDbPolyline
 62
7
  6
CONTINUOUS
 90
12
 70
0
 10
7.109327654
 20
5.3206181907
 10
7.1098390649
 20
5.3239467858
 10
7.1107669243
 20
5.3268093348
 10
7.1120585832
 20
5.329398756
 10
7.113668938
 20
5.3317146761
 10
7.1155054498
 20
5.3336929384
 10
7.1173525454
 20
5.3352219369
 10
7.1190692938
 20
5.3363350711
 10
7.1205919688
 20
5.3371155814
 10
7.1217907903
 20
5.3376038399
 10
7.1225230357
 20
5.3378454256
 10
7.1227209256
 20
5.3379019498
  0
LINE
  5
278
100
AcDbEntity
  8
0
100
AcDbLine
 62
7
  6
CONTINUOUS
 10
2.3474799379
 20
5.8847165683
 11
2.5232908772
 21
5.8977469354
  0
LINE
  5
279
100
AcDbEntity
  8
0
100
AcDbLine
 62
7
  6
CONTINUOUS
 10
2.0711614925
 20
5.9890577258
 11
2.0454267658
 21
5.9877090259
  0
LINE
  5
27A
100
AcDbEntity
  8
0
100
AcDbLine
 62
7
  6
CONTINUOUS
 10
1.4504304185
 20
5.9565265886
 11
1.262914005
 21
5.9466992698
  0
LINE
  5
27B
100
AcDbEntity
  8
0
100
AcDbLine
 62
7
  6
CONTINUOUS
 10
2.772663395
 20
6.1061601254
 11
2.8126633939
 21
6.1061700364
  0
LINE
  5
27C
100
AcDbEntity
  8
0
100
AcDbLine
 62
7
  6
CONTINUOUS
 10
2.3474799379
 20
5.9466992698
 11
1.262914005
 21
5.9466992698
  0
LINE
  5
27D
100
AcDbEntity
  8
0
100
AcDbLine
 62
7
  6
CONTINUOUS
 10
2.5242566332
 20
5.9466992698
 11
9.0923778948
 21
5.9466992698
  0
LINE
  5
27E
100
AcDbEntity
  8
0
100
AcDbLine
 62
7
  6
CONTINUOUS
 10
9.1570826561
 20
5.9466992698
 11
9.262914005
 21
5.9466992698
  0
LINE
  5
27F
100
AcDbEntity
  8
0
100
AcDbLine
 62
7
  6
CONTINUOUS
 10
1.4504304185
 20
5.9565265886
 11
2.4801420454
 21
5.9565265886
  0
LINE
  5
280
100
AcDbEntity
  8
0
100
AcDbLine
 62
7
  6
CONTINUOUS
 10
2.6569187407
 20
5.9565265886
 11
8.9111580859
 21
5.9565265886
  0
LINE
  5
281
100
AcDbEntity
  8
0
100
AcDbLine
 62
7
  6
CONTINUOUS
 10
8.9758628472
 20
5.9565265886
 11
9.0753975915
 21
5.9565265886
  0
LINE
  5
282
100
AcDbEntity
  8
0
100
AcDbLine
 62
7
  6
CONTINUOUS
 10
2.4961942387
 20
5.9712662766
 11
2.663046072
 21
5.9712662766
  0
LINE
  5
283
100
AcDbEntity
  8
0
100
AcDbLine
 62
7
  6
CONTINUOUS
 10
9.0513655405
 20
5.972969338
 11
8.9607826086
 21
5.972969338
  0
LINE
  5
284
100
AcDbEntity
  8
0
100
AcDbLine
 62
7
  6
CONTINUOUS
 10
2.4911819804
 20
5.972969338
 11
1.4771120549
 21
5.972969338
  0
LINE
  5
285
100
AcDbEntity
  8
0
100
AcDbLine
 62
7
  6
CONTINUOUS
 10
2.6679574893
 20
5.972969338
 11
8.9362953097
 21
5.972969338
  0
LINE
  5
286
100
AcDbEntity
  8
0
100
AcDbLine
 62
7
  6
CONTINUOUS
 10
2.6901723023
 20
5.9877090259
 11
1.7516927619
 21
5.9877090259
  0
LINE
  5
287
100
AcDbEntity
  8
0
100
AcDbLine
 62
7
  6
CONTINUOUS
 10
2.8669477222
 20
5.9877090259
 11
8.7773458939
 21
5.9877090259
  0
LINE
  5
288
100
AcDbEntity
  8
0
100
AcDbLine
 62
7
  6
CONTINUOUS
 10
7.0106315101
 20
5.9925560767
 11
6.6392624863
 21
5.9925560767
  0
LINE
  5
289
100
AcDbEntity
  8
0
100
AcDbLine
 62
7
  6
CONTINUOUS
 10
5.2726030423
 20
5.9925560767
 11
5.0306052793
 21
5.9925560767
  0
LINE
  5
28A
100
AcDbEntity
  8
0
100
AcDbLine
 62
7
  6
CONTINUOUS
 10
2.1469586342
 20
5.9925560767
 11
5.0148864539
 21
5.9925560767
  0
LINE
  5
28B
100
AcDbEntity
  8
0
100
AcDbLine
 62
7
  6
CONTINUOUS
 10
5.2930360786
 20
5.9925560767
 11
6.6151361427
 21
5.9925560767
  0
LINE
  5
28C
100
AcDbEntity
  8
0
100
AcDbLine
 62
7
  6
CONTINUOUS
 10
7.0266472381
 20
5.9925560767
 11
8.3879112326
 21
5.9925560767
  0
LINE
  5
28D
100
AcDbEntity
  8
0
100
AcDbLine
 62
7
  6
CONTINUOUS
 10
2.2324126454
 20
6.0367009354
 11
2.8897839429
 21
6.0368058047
  0
LINE
  5
28E
100
AcDbEntity
  8
0
100
AcDbLine
 62
7
  6
CONTINUOUS
 10
5.6384421844
 20
6.0371810767
 11
6.3259414257
 21
6.0371810767
  0
LINE
  5
28F
100
AcDbEntity
  8
0
100
AcDbLine
 62
7
  6
CONTINUOUS
 10
6.022191805
 20
6.1065560767
 11
5.942191805
 21
6.1065560767
  0
LINE
  5
290
100
AcDbEntity
  8
0
100
AcDbLine
 62
7
  6
CONTINUOUS
 10
8.387914005
 20
5.9925560767
 11
8.4804012443
 21
5.9877090259
  0
LINE
  5
291
100
AcDbEntity
  8
0
100
AcDbLine
 62
7
  6
CONTINUOUS
 10
8.6375246088
 20
5.9794745393
 11
8.6741194884
 21
5.9775566829
  0
LINE
  5
292
100
AcDbEntity
  8
0
100
AcDbLine
 62
7
  6
CONTINUOUS
 10
8.9090377534
 20
5.9652451383
 11
8.9459724468
 21
5.9633094731
  0
LINE
  5
293
100
AcDbEntity
  8
0
100
AcDbLine
 62
7
  6
CONTINUOUS
 10
9.0753975915
 20
5.9565265886
 11
9.262914005
 21
5.9466992698
  0
LINE
  5
294
100
AcDbEntity
  8
0
100
AcDbLine
 62
7
  6
CONTINUOUS
 10
9.1570826561
 20
5.8847165683
 11
9.0925678117
 21
5.8882169196
  0
LINE
  5
295
100
AcDbEntity
  8
0
100
AcDbLine
 62
7
  6
CONTINUOUS
 10
2.4287408033
 20
6.2825874776
 11
2.437887236
 21
6.282588786
  0
LINE
  5
296
100
AcDbEntity
  8
0
100
AcDbLine
 62
7
  6
CONTINUOUS
 10
2.714367123
 20
6.282635576
 11
2.7235135555
 21
6.2826373634
  0
LINE
  5
297
100
AcDbEntity
  8
0
100
AcDbLine
 62
7
  6
CONTINUOUS
 10
2.7726328263
 20
6.2867893115
 11
2.7878782678
 21
6.2867914924
  0
LINE
  5
298
100
AcDbEntity
  8
0
100
AcDbLine
 62
7
  6
CONTINUOUS
 10
2.7988672694
 20
6.2992930646
 11
2.8098414622
 21
6.2992946345
  0
LINE
  5
299
100
AcDbEntity
  8
0
100
AcDbLine
 62
7
  6
CONTINUOUS
 10
2.8098414622
 20
6.2992946345
 11
2.8261216048
 21
6.299301415
  0
LINE
  5
29A
100
AcDbEntity
  8
0
100
AcDbLine
 62
7
  6
CONTINUOUS
 10
5.8348054268
 20
6.2830454882
 11
5.8439518596
 21
6.2830454882
  0
LINE
  5
29B
100
AcDbEntity
  8
0
100
AcDbLine
 62
7
  6
CONTINUOUS
 10
6.1204317505
 20
6.2830454882
 11
6.1295781833
 21
6.2830454882
  0
LINE
  5
29C
100
AcDbEntity
  8
0
100
AcDbLine
 62
7
  6
CONTINUOUS
 10
2.3537075411
 20
6.2992162891
 11
2.7984104096
 21
6.2993005165
  0
LINE
  5
29D
100
AcDbEntity
  8
0
100
AcDbLine
 62
7
  6
CONTINUOUS
 10
5.73219488
 20
6.2996810767
 11
5.942191805
 21
6.2996810767
  0
LINE
  5
29E
100
AcDbEntity
  8
0
100
AcDbLine
 62
7
  6
CONTINUOUS
 10
6.022191805
 20
6.2996810767
 11
6.2321887301
 21
6.2996810767
  0
LINE
  5
29F
100
AcDbEntity
  8
0
100
AcDbLine
 62
7
  6
CONTINUOUS
 10
2.3261271173
 20
6.2992167988
 11
2.3533814554
 21
6.2992162646
  0
LINE
  5
2A0
100
AcDbEntity
  8
0
100
AcDbLine
 62
7
  6
CONTINUOUS
 10
7.6160885241
 20
6.6175560767
 11
7.637914005
 21
5.9925560767
  0
LINE
  5
2A1
100
AcDbEntity
  8
0
100
AcDbLine
 62
7
  6
CONTINUOUS
 10
7.7860779228
 20
5.0667304552
 11
7.7861486553
 21
4.3428120144
  0
LINE
  5
2A2
100
AcDbEntity
  8
0
100
AcDbLine
 62
7
  6
CONTINUOUS
 10
2.9097495836
 20
6.6175560767
 11
7.6160784264
 21
6.6175560767
  0
LINE
  5
2A3
100
AcDbEntity
  8
0
100
AcDbLine
 62
7
  6
CONTINUOUS
 10
6.232191805
 20
6.2996810767
 11
6.2678669396
 21
6.2830454882
  0
LINE
  5
2A4
100
AcDbEntity
  8
0
100
AcDbLine
 62
7
  6
CONTINUOUS
 10
7.8078997336
 20
5.0667322563
 11
7.8079704645
 21
4.3428295903
  0
LINE
  5
2A5
100
AcDbEntity
  8
0
100
AcDbLine
 62
7
  6
CONTINUOUS
 10
7.8426348858
 20
3.7528188704
 11
7.8426519857
 21
3.5778081732
  0
LINE
  5
2A6
100
AcDbEntity
  8
0
100
AcDbLine
 62
7
  6
CONTINUOUS
 10
8.6076506334
 20
5.3192675117
 11
8.6077527575
 21
4.2904110514
  0
LINE
  5
2A7
100
AcDbEntity
  8
0
100
AcDbLine
 62
7
  6
CONTINUOUS
 10
8.6762992857
 20
5.3228093494
 11
8.6764001256
 21
4.290416453
  0
LINE
  5
2A8
100
AcDbEntity
  8
0
100
AcDbLine
 62
7
  6
CONTINUOUS
 10
8.8257580443
 20
4.6689348577
 11
8.8256941383
 21
5.3227992518
  0
LINE
  5
2A9
100
AcDbEntity
  8
0
100
AcDbLine
 62
7
  6
CONTINUOUS
 10
8.8264967483
 20
4.6689988634
 11
8.8264328637
 21
5.322832289
  0
LWPOLYLINE
  5
2AA
100
AcDbEntity
  8
0
100
AcDbPolyline
 62
7
  6
CONTINUOUS
 90
14
 70
0
 10
8.8264328658
 20
5.3228364534
 10
8.8264493262
 20
5.3236496715
 10
8.8267609752
 20
5.3264462691
 10
8.8274437643
 20
5.3291164516
 10
8.8284598419
 20
5.3316116635
 10
8.8297677269
 20
5.3338960957
 10
8.8313235544
 20
5.3359421338
 10
8.833079303
 20
5.3377273555
 10
8.8349897153
 20
5.3392412152
 10
8.8370112701
 20
5.3404801327
 10
8.8390989371
 20
5.3414450878
 10
8.8412133542
 20
5.3421451521
 10
8.8433220827
 20
5.3425948822
 10
8.8453843991
 20
5.3428109232
  0
LINE
  5
2AB
100
AcDbEntity
  8
0
100
AcDbLine
 62
7
  6
CONTINUOUS
 10
9.0923778948
 20
5.9466992698
 11
9.0923778948
 21
5.8847165683
  0
LINE
  5
2AC
100
AcDbEntity
  8
0
100
AcDbLine
 62
7
  6
CONTINUOUS
 10
9.1570826561
 20
5.9466992698
 11
9.1570826561
 21
5.8847165683
  0
LINE
  5
2AD
100
AcDbEntity
  8
0
100
AcDbLine
 62
7
  6
CONTINUOUS
 10
9.262914005
 20
5.9466992698
 11
9.262914005
 21
5.6634128836
  0
LINE
  5
2AE
100
AcDbEntity
  8
0
100
AcDbLine
 62
7
  6
CONTINUOUS
 10
9.3249526548
 20
5.6179530146
 11
9.3249770817
 21
5.3679530159
  0
ARC
  5
2AF
100
AcDbEntity
  8
0
100
AcDbCircle
 62
7
  6
CONTINUOUS
 10
-65.9678521729
 20
57.3393938974
 40
88.6020386375
100
AcDbArc
 50
323.8706958878
 51
324.0400054812
  0
ARC
  5
2B0
100
AcDbEntity
  8
0
100
AcDbCircle
 62
7
  6
CONTINUOUS
 10
-60.4794490124
 20
53.4255807522
 40
81.8874817453
100
AcDbArc
 50
323.816791104
 51
324.0000929471
  0
ARC
  5
2B1
100
AcDbEntity
  8
0
100
AcDbCircle
 62
7
  6
CONTINUOUS
 10
-95.2345082928
 20
225.9970197171
 40
243.7573565711
100
AcDbArc
 50
295.0038936455
 51
295.1291929195
  0
ARC
  5
2B2
100
AcDbEntity
  8
0
100
AcDbCircle
 62
7
  6
CONTINUOUS
 10
-89.2565605579
 20
213.2608921662
 40
229.709202411
100
AcDbArc
 50
294.9959149374
 51
295.1288975834
  0
ARC
  5
2B3
100
AcDbEntity
  8
0
100
AcDbCircle
 62
7
  6
CONTINUOUS
 10
6.5060829697
 20
63.8702920165
 40
58.5507612475
100
AcDbArc
 50
269.4572328134
 51
270.5527992576
  0
ARC
  5
2B4
100
AcDbEntity
  8
0
100
AcDbCircle
 62
7
  6
CONTINUOUS
 10
6.5128752178
 20
63.8546322622
 40
58.5161744845
100
AcDbArc
 50
269.4570817079
 51
270.5529631528
  0
ARC
  5
2B5
100
AcDbEntity
  8
0
100
AcDbCircle
 62
7
  6
CONTINUOUS
 10
8.7511092643
 20
6.9880284512
 40
1.6668986742
100
AcDbArc
 50
267.427716323
 51
272.5645384434
  0
ARC
  5
2B6
100
AcDbEntity
  8
0
100
AcDbCircle
 62
7
  6
CONTINUOUS
 10
8.7697969735
 20
7.0056920095
 40
1.6645873137
100
AcDbArc
 50
267.4262533725
 51
271.7452431431
  0
ARC
  5
2B7
100
AcDbEntity
  8
0
100
AcDbCircle
 62
7
  6
CONTINUOUS
 10
9.828457202
 20
4.1299013355
 40
1.143940472
100
AcDbArc
 50
188.2334242501
 51
189.5216755443
  0
ARC
  5
2B8
100
AcDbEntity
  8
0
100
AcDbCircle
 62
7
  6
CONTINUOUS
 10
8.7851209127
 20
4.228999927
 40
1.1083913945
100
AcDbArc
 50
193.787827705
 51
194.6844962694
  0
ARC
  5
2B9
100
AcDbEntity
  8
0
100
AcDbCircle
 62
7
  6
CONTINUOUS
 10
2.008976718
 20
5.1663374899
 40
0.1585319399
100
AcDbArc
 50
76.0092684127
 51
85.7071883066
  0
ARC
  5
2BA
100
AcDbEntity
  8
0
100
AcDbCircle
 62
7
  6
CONTINUOUS
 10
2.0090021776
 20
5.1667720173
 40
0.1580967261
100
AcDbArc
 50
85.7046015211
 51
87.0310781933
  0
ARC
  5
2BB
100
AcDbEntity
  8
0
100
AcDbCircle
 62
7
  6
CONTINUOUS
 10
2.009080897
 20
5.1667984375
 40
0.1580594799
100
AcDbArc
 50
64.998741934
 51
76.0055156963
  0
ARC
  5
2BC
100
AcDbEntity
  8
0
100
AcDbCircle
 62
7
  6
CONTINUOUS
 10
8.3457912855
 20
5.170787482
 40
0.1547251802
100
AcDbArc
 50
93.0248081817
 51
115.2961958862
  0
ARC
  5
2BD
100
AcDbEntity
  8
0
100
AcDbCircle
 62
7
  6
CONTINUOUS
 10
2.7937963549
 20
6.1544467042
 40
0.1449096963
100
AcDbArc
 50
98.3986191605
 51
99.3869045081
  0
ARC
  5
2BE
100
AcDbEntity
  8
0
100
AcDbCircle
 62
7
  6
CONTINUOUS
 10
2.0121175527
 20
5.1674508061
 40
0.1384644953
100
AcDbArc
 50
72.3811568742
 51
87.0383391847
  0
ARC
  5
2BF
100
AcDbEntity
  8
0
100
AcDbCircle
 62
7
  6
CONTINUOUS
 10
2.0121904957
 20
5.167742895
 40
0.1381640306
100
AcDbArc
 50
65.0317058517
 51
72.373323652
  0
ARC
  5
2C0
100
AcDbEntity
  8
0
100
AcDbCircle
 62
7
  6
CONTINUOUS
 10
8.3488942245
 20
5.1688100429
 40
0.1367012852
100
AcDbArc
 50
92.9966676878
 51
115.1241780758
  0
ARC
  5
2C1
100
AcDbEntity
  8
0
100
AcDbCircle
 62
7
  6
CONTINUOUS
 10
1.8452665879
 20
4.342222551
 40
0.0600000074
100
AcDbArc
 50
183.4370011762
 51
270.0045017117
  0
ARC
  5
2C2
100
AcDbEntity
  8
0
100
AcDbCircle
 62
7
  6
CONTINUOUS
 10
6.9830806816
 20
4.3428014935
 40
0.0600000016
100
AcDbArc
 50
270.0096907997
 51
356.132120896
  0
ARC
  5
2C3
100
AcDbEntity
  8
0
100
AcDbCircle
 62
7
  6
CONTINUOUS
 10
3.8728034517
 20
2.0274202812
 40
0.06
100
AcDbArc
 50
180.0055982437
 51
270.0055982437
  0
ARC
  5
2C4
100
AcDbEntity
  8
0
100
AcDbCircle
 62
7
  6
CONTINUOUS
 10
6.6528034385
 20
2.0276919089
 40
0.06
100
AcDbArc
 50
270.0055982437
 51
0.0055982437
  0
ARC
  5
2C5
100
AcDbEntity
  8
0
100
AcDbCircle
 62
7
  6
CONTINUOUS
 10
3.7526637302
 20
3.457408549
 40
0.06
100
AcDbArc
 50
0.0055982437
 51
90.0055982437
  0
ARC
  5
2C6
100
AcDbEntity
  8
0
100
AcDbCircle
 62
7
  6
CONTINUOUS
 10
6.7726637158
 20
3.4577036265
 40
0.06
100
AcDbArc
 50
90.0055982437
 51
180.0055982437
  0
ARC
  5
2C7
100
AcDbEntity
  8
0
100
AcDbCircle
 62
7
  6
CONTINUOUS
 10
2.7426520101
 20
3.5773098635
 40
0.06
100
AcDbArc
 50
180.0055982437
 51
270.0055982437
  0
ARC
  5
2C8
100
AcDbEntity
  8
0
100
AcDbCircle
 62
7
  6
CONTINUOUS
 10
7.782651986
 20
3.5778023108
 40
0.06
100
AcDbArc
 50
270.0055982437
 51
0.0055982437
  0
ARC
  5
2C9
100
AcDbEntity
  8
0
100
AcDbCircle
 62
7
  6
CONTINUOUS
 10
2.7008392048
 20
5.9720628936
 40
0.0217224811
100
AcDbArc
 50
174.5950090567
 51
182.1016490757
  0
ARC
  5
2CA
100
AcDbEntity
  8
0
100
AcDbCircle
 62
7
  6
CONTINUOUS
 10
8.778544005
 20
5.9720840259
 40
0.015625
100
AcDbArc
 50
3.256751624
 51
90.0
  0
ARC
  5
2CB
100
AcDbEntity
  8
0
100
AcDbCircle
 62
7
  6
CONTINUOUS
 10
1.747284005
 20
5.9720840259
 40
0.015625
100
AcDbArc
 50
90.0
 51
176.743248376
  0
ARC
  5
2CC
100
AcDbEntity
  8
0
100
AcDbCircle
 62
7
  6
CONTINUOUS
 10
9.059794005
 20
5.957344338
 40
0.015625
100
AcDbArc
 50
357.0
 51
90.0
  0
ARC
  5
2CD
100
AcDbEntity
  8
0
100
AcDbCircle
 62
7
  6
CONTINUOUS
 10
1.466034005
 20
5.957344338
 40
0.015625
100
AcDbArc
 50
90.0
 51
183.0
  0
ARC
  5
2CE
100
AcDbEntity
  8
0
100
AcDbCircle
 62
7
  6
CONTINUOUS
 10
8.778544005
 20
5.6380281275
 40
0.015625
100
AcDbArc
 50
270.0
 51
356.743248376
  0
ARC
  5
2CF
100
AcDbEntity
  8
0
100
AcDbCircle
 62
7
  6
CONTINUOUS
 10
1.747284005
 20
5.6380281275
 40
0.015625
100
AcDbArc
 50
183.256751624
 51
270.0
  0
ARC
  5
2D0
100
AcDbEntity
  8
0
100
AcDbCircle
 62
7
  6
CONTINUOUS
 10
9.059794005
 20
5.6527678154
 40
0.015625
100
AcDbArc
 50
270.0
 51
3.0
  0
ARC
  5
2D1
100
AcDbEntity
  8
0
100
AcDbCircle
 62
7
  6
CONTINUOUS
 10
1.466034005
 20
5.6527678154
 40
0.015625
100
AcDbArc
 50
177.0
 51
270.0
  0
ARC
  5
2D2
100
AcDbEntity
  8
0
100
AcDbCircle
 62
7
  6
CONTINUOUS
 10
8.7510265912
 20
4.6881325519
 40
0.0100944014
100
AcDbArc
 50
90.0089305526
 51
99.9287251893
  0
ARC
  5
2D3
100
AcDbEntity
  8
0
100
AcDbCircle
 62
7
  6
CONTINUOUS
 10
87.173039178
 20
187.9432785379
 40
201.4855406447
100
AcDbArc
 50
245.0170401669
 51
245.1599088198
  0
ARC
  5
2D4
100
AcDbEntity
  8
0
100
AcDbCircle
 62
7
  6
CONTINUOUS
 10
84.0021927148
 20
181.1178205049
 40
193.9772405025
100
AcDbArc
 50
245.0152005304
 51
245.1636043933
  0
SPLINE
  5
2D5
100
AcDbEntity
  8
0
100
AcDbSpline
 62
7
  6
CONTINUOUS
 70
0
 71
3
 72
83
 73
79
 74
0
 42
0.0000001
 43
0.0000001
 44
0.0000000001
 40
0.0
 40
0.0
 40
0.0
 40
0.0
 40
0.0018618912
 40
0.0037683107
 40
0.0057598936
 40
0.0078721977
 40
0.0101349419
 40
0.0125720987
 40
0.0152024154
 40
0.0180404297
 40
0.0210973761
 40
0.0243819118
 40
0.0279003662
 40
0.0316571801
 40
0.0356555672
 40
0.0398977979
 40
0.044385349
 40
0.0491186716
 40
0.0540975223
 40
0.0593212636
 40
0.0704987872
 40
0.0826383741
 40
0.0957210055
 40
0.1097241253
 40
0.1246202061
 40
0.1403796266
 40
0.156968839
 40
0.1743520981
 40
0.1924912679
 40
0.2113454211
 40
0.2308724193
 40
0.2510272812
 40
0.2717640618
 40
0.2930347755
 40
0.3147900692
 40
0.3369795589
 40
0.3595512341
 40
0.4056294978
 40
0.4525937357
 40
0.5000032344
 40
0.5474126972
 40
0.5943768274
 40
0.6404549129
 40
0.6630264731
 40
0.6852158309
 40
0.7069709762
 40
0.7282415253
 40
0.7489781257
 40
0.7691327921
 40
0.7886595802
 40
0.8075135092
 40
0.8256524413
 40
0.8430354501
 40
0.8596244
 40
0.8753835471
 40
0.890279344
 40
0.9042821708
 40
0.9173645011
 40
0.92950378
 40
0.9406809906
 40
0.9459045739
 40
0.950883266
 40
0.9556164298
 40
0.9601038224
 40
0.9643458951
 40
0.9683441252
 40
0.9721007839
 40
0.9756190857
 40
0.9789034724
 40
0.9819602743
 40
0.9847981503
 40
0.987428337
 40
0.9898653745
 40
0.9921280131
 40
0.994240229
 40
0.996231745
 40
0.9981381227
 40
1.0
 40
1.0
 40
1.0
 40
1.0
 10
8.9703178929
 20
4.758433735
 30
0.0
 10
8.9709177694
 20
4.758433735
 30
0.0
 10
8.9721339232
 20
4.758337052
 30
0.0
 10
8.973945526
 20
4.7579052714
 30
0.0
 10
8.9757511353
 20
4.7571888039
 30
0.0
 10
8.977548709
 20
4.7561904014
 30
0.0
 10
8.979337852
 20
4.754912128
 30
0.0
 10
8.9811183015
 20
4.753355572
 30
0.0
 10
8.9828901689
 20
4.7515222889
 30
0.0
 10
8.9846532052
 20
4.7494134054
 30
0.0
 10
8.9864069486
 20
4.7470299467
 30
0.0
 10
8.9881506411
 20
4.7443729642
 30
0.0
 10
8.9898835015
 20
4.7414438669
 30
0.0
 10
8.9916047091
 20
4.7382443601
 30
0.0
 10
8.993313279
 20
4.7347762437
 30
0.0
 10
8.9950082013
 20
4.7310413817
 30
0.0
 10
8.9966883532
 20
4.7270418014
 30
0.0
 10
8.9983528026
 20
4.7227798891
 30
0.0
 10
9.0000006282
 20
4.7182582529
 30
0.0
 10
9.0022246436
 20
4.7117383361
 30
0.0
 10
9.0049417732
 20
4.7029512895
 30
0.0
 10
9.0080520006
 20
4.6916421236
 30
0.0
 10
9.0110735289
 20
4.6793693645
 30
0.0
 10
9.0139984174
 20
4.6661623083
 30
0.0
 10
9.0168199567
 20
4.6520523371
 30
0.0
 10
9.0195306282
 20
4.6370732491
 30
0.0
 10
9.0221241279
 20
4.6212609213
 30
0.0
 10
9.0245939254
 20
4.6046533187
 30
0.0
 10
9.0269338758
 20
4.5872903719
 30
0.0
 10
9.0291385402
 20
4.5692137772
 30
0.0
 10
9.0312021258
 20
4.5504670859
 30
0.0
 10
9.0331200224
 20
4.5310953478
 30
0.0
 10
9.0348872211
 20
4.5111452451
 30
0.0
 10
9.036499605
 20
4.4906647838
 30
0.0
 10
9.0379532507
 20
4.4697032737
 30
0.0
 10
9.0392444783
 20
4.4483112055
 30
0.0
 10
9.0407559718
 20
4.4190827092
 30
0.0
 10
9.0422108631
 20
4.3818599705
 30
0.0
 10
9.0432602617
 20
4.3366185936
 30
0.0
 10
9.0436142515
 20
4.2909375041
 30
0.0
 10
9.0432694547
 20
4.2452563789
 30
0.0
 10
9.0422291604
 20
4.2000148955
 30
0.0
 10
9.0407817594
 20
4.162791994
 30
0.0
 10
9.039276147
 20
4.1335633313
 30
0.0
 10
9.0379892241
 20
4.1121711314
 30
0.0
 10
9.0365397967
 20
4.0912094728
 30
0.0
 10
9.0349315341
 20
4.0707288468
 30
0.0
 10
9.0331683501
 20
4.0507785637
 30
0.0
 10
9.0312543518
 20
4.0314066297
 30
0.0
 10
9.0291945388
 20
4.0126597276
 30
0.0
 10
9.0269935121
 20
3.9945829077
 30
0.0
 10
9.0246570558
 20
3.9772197219
 30
0.0
 10
9.0221906006
 20
3.960611867
 30
0.0
 10
9.019600283
 20
3.9447992742
 30
0.0
 10
9.0168926261
 20
3.9298199094
 30
0.0
 10
9.0140739264
 20
3.91570965
 30
0.0
 10
9.011151696
 20
3.902502295
 30
0.0
 10
9.0081326379
 20
3.8902292273
 30
0.0
 10
9.0050246868
 20
3.8789197436
 30
0.0
 10
9.0023093242
 20
3.8701324132
 30
0.0
 10
9.0000866193
 20
3.8636122638
 30
0.0
 10
8.9984397036
 20
3.8590904591
 30
0.0
 10
8.9967761119
 20
3.8548283764
 30
0.0
 10
8.995096765
 20
3.8508286241
 30
0.0
 10
8.9934025944
 20
3.8470935885
 30
0.0
 10
8.9916947224
 20
3.8436252971
 30
0.0
 10
8.9899741588
 20
3.8404256139
 30
0.0
 10
8.9882418877
 20
3.837496339
 30
0.0
 10
8.9864987298
 20
3.8348391773
 30
0.0
 10
8.9847454656
 20
3.8324555384
 30
0.0
 10
8.9829828531
 20
3.8303464737
 30
0.0
 10
8.9812113537
 20
3.8285130082
 30
0.0
 10
8.9794312159
 20
3.8269562687
 30
0.0
 10
8.977642328
 20
3.8256778108
 30
0.0
 10
8.9758449521
 20
3.8246792236
 30
0.0
 10
8.9740394837
 20
3.8239625715
 30
0.0
 10
8.9722279649
 20
3.8235306069
 30
0.0
 10
8.9710118388
 20
3.8234338014
 30
0.0
 10
8.9704119667
 20
3.8234337398
 30
0.0
  0
SPLINE
  5
2D6
100
AcDbEntity
  8
0
100
AcDbSpline
 62
7
  6
CONTINUOUS
 70
0
 71
3
 72
83
 73
79
 74
0
 42
0.0000001
 43
0.0000001
 44
0.0000000001
 40
0.0
 40
0.0
 40
0.0
 40
0.0
 40
0.0018618773
 40
0.003768255
 40
0.005759771
 40
0.0078719869
 40
0.0101346255
 40
0.012571663
 40
0.0152018497
 40
0.0180397257
 40
0.0210965276
 40
0.0243809143
 40
0.0278992161
 40
0.0316558748
 40
0.0356541049
 40
0.0398961776
 40
0.0443835702
 40
0.049116734
 40
0.0540954261
 40
0.0593190094
 40
0.07049622
 40
0.0826354989
 40
0.0957178292
 40
0.109720656
 40
0.1246164529
 40
0.1403756
 40
0.1569645499
 40
0.1743475587
 40
0.1924864908
 40
0.2113404198
 40
0.2308672079
 40
0.2510218743
 40
0.2717584747
 40
0.2930290238
 40
0.3147841691
 40
0.3369735269
 40
0.3595450871
 40
0.4056231726
 40
0.4525873028
 40
0.4999967656
 40
0.5474062643
 40
0.5943705022
 40
0.6404487659
 40
0.6630204411
 40
0.6852099308
 40
0.7069652245
 40
0.7282359382
 40
0.7489727188
 40
0.7691275807
 40
0.7886545789
 40
0.8075087321
 40
0.8256479019
 40
0.843031161
 40
0.8596203734
 40
0.8753797939
 40
0.8902758747
 40
0.9042789945
 40
0.9173616259
 40
0.9295012128
 40
0.9406787364
 40
0.9459024777
 40
0.9508813284
 40
0.955614651
 40
0.9601022021
 40
0.9643444328
 40
0.9683428199
 40
0.9720996338
 40
0.9756180882
 40
0.9789026239
 40
0.9819595703
 40
0.9847975846
 40
0.9874279013
 40
0.9898650581
 40
0.9921278023
 40
0.9942401064
 40
0.9962316893
 40
0.9981381088
 40
1.0
 40
1.0
 40
1.0
 40
1.0
 10
8.9357476306
 20
4.758430214
 30
0.0
 10
8.9351477586
 20
4.7584301525
 30
0.0
 10
8.9339316325
 20
4.758333347
 30
0.0
 10
8.9321201137
 20
4.7579013823
 30
0.0
 10
8.9303146452
 20
4.7571847302
 30
0.0
 10
8.9285172693
 20
4.756186143
 30
0.0
 10
8.9267283814
 20
4.7549076852
 30
0.0
 10
8.9249482436
 20
4.7533509456
 30
0.0
 10
8.9231767442
 20
4.7515174802
 30
0.0
 10
8.9214141317
 20
4.7494084154
 30
0.0
 10
8.9196608675
 20
4.7470247765
 30
0.0
 10
8.9179177096
 20
4.7443676148
 30
0.0
 10
8.9161854386
 20
4.7414383399
 30
0.0
 10
8.9144648749
 20
4.7382386567
 30
0.0
 10
8.9127570029
 20
4.7347703653
 30
0.0
 10
8.9110628323
 20
4.7310353297
 30
0.0
 10
8.9093834854
 20
4.7270355774
 30
0.0
 10
8.9077198937
 20
4.7227734947
 30
0.0
 10
8.9060729781
 20
4.71825169
 30
0.0
 10
8.9038502731
 20
4.7117315406
 30
0.0
 10
8.9011349106
 20
4.7029442102
 30
0.0
 10
8.8980269594
 20
4.6916347265
 30
0.0
 10
8.8950079014
 20
4.6793616588
 30
0.0
 10
8.8920856709
 20
4.6661543038
 30
0.0
 10
8.8892669713
 20
4.6520440444
 30
0.0
 10
8.8865593143
 20
4.6370646796
 30
0.0
 10
8.8839689967
 20
4.6212520869
 30
0.0
 10
8.8815025416
 20
4.6046442319
 30
0.0
 10
8.8791660852
 20
4.5872810461
 30
0.0
 10
8.8769650586
 20
4.5692042262
 30
0.0
 10
8.8749052455
 20
4.5504573241
 30
0.0
 10
8.8729912472
 20
4.5310853902
 30
0.0
 10
8.8712280633
 20
4.511135107
 30
0.0
 10
8.8696198006
 20
4.490654481
 30
0.0
 10
8.8681703732
 20
4.4696928225
 30
0.0
 10
8.8668834504
 20
4.4483006225
 30
0.0
 10
8.8653778379
 20
4.4190719598
 30
0.0
 10
8.8639304369
 20
4.3818490583
 30
0.0
 10
8.8628901427
 20
4.3366075749
 30
0.0
 10
8.8625453458
 20
4.2909264497
 30
0.0
 10
8.8628993356
 20
4.2452453602
 30
0.0
 10
8.8639487343
 20
4.2000039833
 30
0.0
 10
8.8654036255
 20
4.1627812446
 30
0.0
 10
8.8669151191
 20
4.1335527483
 30
0.0
 10
8.8682063467
 20
4.1121606802
 30
0.0
 10
8.8696599923
 20
4.09119917
 30
0.0
 10
8.8712723763
 20
4.0707187087
 30
0.0
 10
8.873039575
 20
4.050768606
 30
0.0
 10
8.8749574715
 20
4.0313968679
 30
0.0
 10
8.8770210571
 20
4.0126501766
 30
0.0
 10
8.8792257216
 20
3.9945735819
 30
0.0
 10
8.881565672
 20
3.9772106352
 30
0.0
 10
8.8840354694
 20
3.9606030325
 30
0.0
 10
8.8866289691
 20
3.9447907047
 30
0.0
 10
8.8893396407
 20
3.9298116167
 30
0.0
 10
8.89216118
 20
3.9157016455
 30
0.0
 10
8.8950860685
 20
3.9024945893
 30
0.0
 10
8.8981075967
 20
3.8902218303
 30
0.0
 10
8.9012178241
 20
3.8789126643
 30
0.0
 10
8.9039349537
 20
3.8701256177
 30
0.0
 10
8.9061589691
 20
3.8636057009
 30
0.0
 10
8.9078067947
 20
3.8590840647
 30
0.0
 10
8.9094712442
 20
3.8548221524
 30
0.0
 10
8.9111513961
 20
3.8508225721
 30
0.0
 10
8.9128463183
 20
3.8470877101
 30
0.0
 10
8.9145548883
 20
3.8436195937
 30
0.0
 10
8.9162760958
 20
3.8404200869
 30
0.0
 10
8.9180089562
 20
3.8374909896
 30
0.0
 10
8.9197526487
 20
3.8348340071
 30
0.0
 10
8.9215063922
 20
3.8324505484
 30
0.0
 10
8.9232694284
 20
3.8303416649
 30
0.0
 10
8.9250412958
 20
3.8285083818
 30
0.0
 10
8.9268217453
 20
3.8269518258
 30
0.0
 10
8.9286108883
 20
3.8256735524
 30
0.0
 10
8.9304084621
 20
3.8246751499
 30
0.0
 10
8.9322140714
 20
3.8239586824
 30
0.0
 10
8.9340256741
 20
3.8235269018
 30
0.0
 10
8.9352418279
 20
3.8234302188
 30
0.0
 10
8.9358417045
 20
3.8234302188
 30
0.0
  0
SPLINE
  5
2D7
100
AcDbEntity
  8
0
100
AcDbSpline
 62
7
  6
CONTINUOUS
 70
0
 71
3
 72
75
 73
71
 74
0
 42
0.0000001
 43
0.0000001
 44
0.0000000001
 40
0.0
 40
0.0
 40
0.0
 40
0.0
 40
0.0018684871
 40
0.0038032849
 40
0.0058415191
 40
0.0080148457
 40
0.0103492697
 40
0.0128655438
 40
0.015579728
 40
0.0185042101
 40
0.0216485351
 40
0.0250200499
 40
0.0286243377
 40
0.0324651607
 40
0.036545003
 40
0.0408655191
 40
0.0454277109
 40
0.050232053
 40
0.0605648396
 40
0.0718555508
 40
0.0840906663
 40
0.0972510584
 40
0.111312849
 40
0.1262500981
 40
0.1420322488
 40
0.1586264439
 40
0.1759979689
 40
0.1941083694
 40
0.2129181897
 40
0.232385727
 40
0.2731161455
 40
0.3159320015
 40
0.3604428762
 40
0.4062402921
 40
0.4529027467
 40
0.5000000298
 40
0.5470973125
 40
0.5937597662
 40
0.6395571804
 40
0.684068053
 40
0.7268839063
 40
0.7676143214
 40
0.787081857
 40
0.805891675
 40
0.8240020736
 40
0.8413735963
 40
0.8579677889
 40
0.8737499375
 40
0.8886871837
 40
0.9027489718
 40
0.9159093614
 40
0.9281444738
 40
0.9394351825
 40
0.9497679663
 40
0.9545723066
 40
0.9591344971
 40
0.9634550119
 40
0.967534853
 40
0.9713756746
 40
0.9749799607
 40
0.9783514739
 40
0.9814957977
 40
0.9844202788
 40
0.987134462
 40
0.9896507351
 40
0.9919851581
 40
0.9941584839
 40
0.9961967172
 40
0.998131514
 40
1.0
 40
1.0
 40
1.0
 40
1.0
 10
8.9695719684
 20
4.6462645493
 30
0.0
 10
8.9691170362
 20
4.6462248584
 30
0.0
 10
8.9681960055
 20
4.6460710505
 30
0.0
 10
8.9668336653
 20
4.6456292014
 30
0.0
 10
8.9654764168
 20
4.6449758708
 30
0.0
 10
8.9641253443
 20
4.6441129103
 30
0.0
 10
8.962780577
 20
4.6430415524
 30
0.0
 10
8.9614423631
 20
4.641762742
 30
0.0
 10
8.9601106928
 20
4.6402775704
 30
0.0
 10
8.9587858406
 20
4.6385869119
 30
0.0
 10
8.9574682263
 20
4.6366916064
 30
0.0
 10
8.9561583957
 20
4.6345924957
 30
0.0
 10
8.954857058
 20
4.6322905538
 30
0.0
 10
8.9535648205
 20
4.6297870879
 30
0.0
 10
8.9522823724
 20
4.6270835857
 30
0.0
 10
8.9510104754
 20
4.6241815968
 30
0.0
 10
8.9497498509
 20
4.6210827011
 30
0.0
 10
8.9480435541
 20
4.6165802528
 30
0.0
 10
8.9459562142
 20
4.6104658223
 30
0.0
 10
8.9435640783
 20
4.6025425936
 30
0.0
 10
8.9412339898
 20
4.5938832545
 30
0.0
 10
8.9389715055
 20
4.5845080502
 30
0.0
 10
8.9367818831
 20
4.5744387835
 30
0.0
 10
8.9346709708
 20
4.5636990479
 30
0.0
 10
8.9326435214
 20
4.55231412
 30
0.0
 10
8.9307044749
 20
4.5403108208
 30
0.0
 10
8.9288588124
 20
4.5277174743
 30
0.0
 10
8.9271105716
 20
4.5145638182
 30
0.0
 10
8.9254641941
 20
4.5008809445
 30
0.0
 10
8.9233787102
 20
4.4816839484
 30
0.0
 10
8.9210697342
 20
4.4566114092
 30
0.0
 10
8.9187987066
 20
4.4253949243
 30
0.0
 10
8.917009948
 20
4.3929068517
 30
0.0
 10
8.9157206983
 20
4.3594544497
 30
0.0
 10
8.9149434879
 20
4.3253540167
 30
0.0
 10
8.9146858879
 20
4.290928041
 30
0.0
 10
8.9149505014
 20
4.2565021186
 30
0.0
 10
8.9157346592
 20
4.2224018454
 30
0.0
 10
8.9170307242
 20
4.188949708
 30
0.0
 10
8.9188261016
 20
4.1564620021
 30
0.0
 10
8.9211034889
 20
4.1252459824
 30
0.0
 10
8.923417573
 20
4.1001739161
 30
0.0
 10
8.9255069677
 20
4.0809773471
 30
0.0
 10
8.927156133
 20
4.0672948106
 30
0.0
 10
8.9289070534
 20
4.0541415125
 30
0.0
 10
8.9307552816
 20
4.041548544
 30
0.0
 10
8.9326967736
 20
4.0295456418
 30
0.0
 10
8.9347265422
 20
4.018161129
 30
0.0
 10
8.9368396426
 20
4.0074218256
 30
0.0
 10
8.9390313164
 20
3.9973530072
 30
0.0
 10
8.9412957105
 20
3.987978266
 30
0.0
 10
8.9436275634
 20
3.9793194039
 30
0.0
 10
8.9460213133
 20
3.9713966648
 30
0.0
 10
8.9481098988
 20
3.9652826614
 30
0.0
 10
8.9498171131
 20
3.9607805625
 30
0.0
 10
8.9510783689
 20
3.9576819249
 30
0.0
 10
8.952350857
 20
3.9547801962
 30
0.0
 10
8.9536338558
 20
3.9520769563
 30
0.0
 10
8.9549266032
 20
3.9495737549
 30
0.0
 10
8.9562284099
 20
3.9472720795
 30
0.0
 10
8.9575386682
 20
3.9451732369
 30
0.0
 10
8.9588566685
 20
3.943278201
 30
0.0
 10
8.9601818653
 20
3.9415878135
 30
0.0
 10
8.9615138382
 20
3.9401029144
 30
0.0
 10
8.9628523128
 20
3.9388243779
 30
0.0
 10
8.9641972986
 20
3.9377532955
 30
0.0
 10
8.9655485468
 20
3.9368906113
 30
0.0
 10
8.9669059281
 20
3.9362375582
 30
0.0
 10
8.9682683579
 20
3.9357959877
 30
0.0
 10
8.9691894195
 20
3.9356423682
 30
0.0
 10
8.9696443595
 20
3.9356027705
 30
0.0
  0
SPLINE
  5
2D8
100
AcDbEntity
  8
0
100
AcDbSpline
 62
7
  6
CONTINUOUS
 70
0
 71
3
 72
77
 73
73
 74
0
 42
0.0000001
 43
0.0000001
 44
0.0000000001
 40
0.0
 40
0.0
 40
0.0
 40
0.0
 40
0.0018616773
 40
0.0037679953
 40
0.0057595767
 40
0.0078719411
 40
0.0101347531
 40
0.0125720108
 40
0.0152025114
 40
0.0180407079
 40
0.0210977227
 40
0.0243821001
 40
0.0279003944
 40
0.0316573285
 40
0.03565595
 40
0.0398983097
 40
0.0443857095
 40
0.0491188597
 40
0.0540978682
 40
0.0593219305
 40
0.0704994881
 40
0.0826390017
 40
0.0957221736
 40
0.109725049
 40
0.1246215329
 40
0.1403811203
 40
0.1569703021
 40
0.174354004
 40
0.1924932096
 40
0.2113475886
 40
0.230874838
 40
0.2717662822
 40
0.3147922045
 40
0.3595534453
 40
0.4056320833
 40
0.4525966333
 40
0.5000065025
 40
0.5474162993
 40
0.5943806329
 40
0.6404589126
 40
0.6852196571
 40
0.7282449502
 40
0.7691356391
 40
0.7886624661
 40
0.8075163944
 40
0.8256551223
 40
0.8430383209
 40
0.8596269752
 40
0.8753860128
 40
0.8902819263
 40
0.9042842126
 40
0.9173667792
 40
0.9295056738
 40
0.9406826019
 40
0.9459063467
 40
0.9508850366
 40
0.9556178677
 40
0.9601049486
 40
0.9643469907
 40
0.9683452967
 40
0.9721019189
 40
0.9756199064
 40
0.9789039839
 40
0.9819607083
 40
0.9847986271
 40
0.9874288664
 40
0.9898658844
 40
0.9921284843
 40
0.9942406714
 40
0.9962321181
 40
0.9981383516
 40
1.0
 40
1.0
 40
1.0
 40
1.0
 10
8.9703290349
 20
4.6462975814
 30
0.0
 10
8.9707849698
 20
4.6462975814
 30
0.0
 10
8.9717093337
 20
4.6462240595
 30
0.0
 10
8.9730862997
 20
4.6458957796
 30
0.0
 10
8.9744587738
 20
4.6453511188
 30
0.0
 10
8.9758252026
 20
4.6445921988
 30
0.0
 10
8.9771853381
 20
4.6436206502
 30
0.0
 10
8.9785388845
 20
4.6424375063
 30
0.0
 10
8.979885802
 20
4.6410438571
 30
0.0
 10
8.9812259754
 20
4.6394407056
 30
0.0
 10
8.9825590416
 20
4.637628917
 30
0.0
 10
8.9838845106
 20
4.6356093437
 30
0.0
 10
8.9852017263
 20
4.6333828926
 30
0.0
 10
8.9865099946
 20
4.6309507357
 30
0.0
 10
8.987808683
 20
4.6283143399
 30
0.0
 10
8.9890970257
 20
4.6254752722
 30
0.0
 10
8.9903742508
 20
4.6224351384
 30
0.0
 10
8.9916395501
 20
4.6191955881
 30
0.0
 10
8.9928921021
 20
4.6157584461
 30
0.0
 10
8.9945825603
 20
4.6108022643
 30
0.0
 10
8.996648043
 20
4.6041228825
 30
0.0
 10
8.9990123341
 20
4.5955262844
 30
0.0
 10
9.0013088708
 20
4.5861972173
 30
0.0
 10
9.0035324588
 20
4.5761579573
 30
0.0
 10
9.0056770443
 20
4.5654323563
 30
0.0
 10
9.007737565
 20
4.5540461014
 30
0.0
 10
9.0097090709
 20
4.5420264669
 30
0.0
 10
9.0115863152
 20
4.5294023135
 30
0.0
 10
9.0133651005
 20
4.5162039713
 30
0.0
 10
9.0150409228
 20
4.5024631786
 30
0.0
 10
9.0171650712
 20
4.4831649565
 30
0.0
 10
9.0195178937
 20
4.4579382827
 30
0.0
 10
9.0218334273
 20
4.4265076478
 30
0.0
 10
9.0236592963
 20
4.3937724352
 30
0.0
 10
9.0249775805
 20
4.3600476684
 30
0.0
 10
9.0257752255
 20
4.3256578034
 30
0.0
 10
9.0260443254
 20
4.290933764
 30
0.0
 10
9.0257821268
 20
4.2562097247
 30
0.0
 10
9.0249913168
 20
4.2218198604
 30
0.0
 10
9.0236797354
 20
4.1880950947
 30
0.0
 10
9.0218603727
 20
4.1553598837
 30
0.0
 10
9.0195510863
 20
4.123929251
 30
0.0
 10
9.0172032759
 20
4.0987025546
 30
0.0
 10
9.0150829605
 20
4.0794043121
 30
0.0
 10
9.0134098691
 20
4.0656635199
 30
0.0
 10
9.0116337069
 20
4.0524651782
 30
0.0
 10
9.0097589717
 20
4.0398410254
 30
0.0
 10
9.0077898548
 20
4.0278213915
 30
0.0
 10
9.0057315972
 20
4.0164351373
 30
0.0
 10
9.0035891437
 20
4.0057095371
 30
0.0
 10
9.0013675514
 20
3.9956702778
 30
0.0
 10
8.9990728693
 20
3.9863412115
 30
0.0
 10
8.9967102874
 20
3.9777446142
 30
0.0
 10
8.9946461302
 20
3.9710652238
 30
0.0
 10
8.9929566545
 20
3.9661090344
 30
0.0
 10
8.9917047856
 20
3.9626718925
 30
0.0
 10
8.9904401303
 20
3.9594323421
 30
0.0
 10
8.9891635095
 20
3.9563922083
 30
0.0
 10
8.9878757311
 20
3.9535531404
 30
0.0
 10
8.9865775667
 20
3.9509167444
 30
0.0
 10
8.9852697818
 20
3.9484845871
 30
0.0
 10
8.9839530085
 20
3.9462581355
 30
0.0
 10
8.9826279407
 20
3.9442385614
 30
0.0
 10
8.9812952339
 20
3.9424267717
 30
0.0
 10
8.9799553783
 20
3.9408236189
 30
0.0
 10
8.9786087361
 20
3.9394299679
 30
0.0
 10
8.9772554224
 20
3.9382468221
 30
0.0
 10
8.9758954764
 20
3.9372752717
 30
0.0
 10
8.9745291939
 20
3.9365163506
 30
0.0
 10
8.9731568231
 20
3.93597169
 30
0.0
 10
8.9717799183
 20
3.935643412
 30
0.0
 10
8.9708555819
 20
3.9355698935
 30
0.0
 10
8.9703996541
 20
3.9355698935
 30
0.0
  0
SPLINE
  5
2D9
100
AcDbEntity
  8
0
100
AcDbSpline
 62
7
  6
CONTINUOUS
 70
0
 71
3
 72
83
 73
79
 74
0
 42
0.0000001
 43
0.0000001
 44
0.0000000001
 40
0.0
 40
0.0
 40
0.0
 40
0.0
 40
0.0018618773
 40
0.003768255
 40
0.005759771
 40
0.0078719869
 40
0.0101346255
 40
0.012571663
 40
0.0152018497
 40
0.0180397257
 40
0.0210965276
 40
0.0243809143
 40
0.0278992161
 40
0.0316558748
 40
0.0356541049
 40
0.0398961776
 40
0.0443835702
 40
0.049116734
 40
0.0540954261
 40
0.0593190094
 40
0.07049622
 40
0.0826354989
 40
0.0957178292
 40
0.109720656
 40
0.1246164529
 40
0.1403756
 40
0.1569645499
 40
0.1743475587
 40
0.1924864908
 40
0.2113404198
 40
0.2308672079
 40
0.2510218743
 40
0.2717584747
 40
0.2930290238
 40
0.3147841691
 40
0.3369735269
 40
0.3595450871
 40
0.4056231726
 40
0.4525873028
 40
0.4999967656
 40
0.5474062643
 40
0.5943705022
 40
0.6404487659
 40
0.6630204411
 40
0.6852099308
 40
0.7069652245
 40
0.7282359382
 40
0.7489727188
 40
0.7691275807
 40
0.7886545789
 40
0.8075087321
 40
0.8256479019
 40
0.843031161
 40
0.8596203734
 40
0.8753797939
 40
0.8902758747
 40
0.9042789945
 40
0.9173616259
 40
0.9295012128
 40
0.9406787364
 40
0.9459024777
 40
0.9508813284
 40
0.955614651
 40
0.9601022021
 40
0.9643444328
 40
0.9683428199
 40
0.9720996338
 40
0.9756180882
 40
0.9789026239
 40
0.9819595703
 40
0.9847975846
 40
0.9874279013
 40
0.9898650581
 40
0.9921278023
 40
0.9942401064
 40
0.9962316893
 40
0.9981381088
 40
1.0
 40
1.0
 40
1.0
 40
1.0
 10
8.9703167224
 20
4.758433735
 30
0.0
 10
8.9697168503
 20
4.7584336735
 30
0.0
 10
8.9685007242
 20
4.758336868
 30
0.0
 10
8.9666892054
 20
4.7579049033
 30
0.0
 10
8.9648837369
 20
4.7571882512
 30
0.0
 10
8.9630863611
 20
4.756189664
 30
0.0
 10
8.9612974731
 20
4.7549112062
 30
0.0
 10
8.9595173354
 20
4.7533544666
 30
0.0
 10
8.9577458359
 20
4.7515210012
 30
0.0
 10
8.9559832235
 20
4.7494119364
 30
0.0
 10
8.9542299593
 20
4.7470282975
 30
0.0
 10
8.9524868014
 20
4.7443711358
 30
0.0
 10
8.9507545303
 20
4.7414418609
 30
0.0
 10
8.9490339666
 20
4.7382421777
 30
0.0
 10
8.9473260946
 20
4.7347738863
 30
0.0
 10
8.9456319241
 20
4.7310388507
 30
0.0
 10
8.9439525772
 20
4.7270390984
 30
0.0
 10
8.9422889855
 20
4.7227770157
 30
0.0
 10
8.9406420698
 20
4.718255211
 30
0.0
 10
8.9384193648
 20
4.7117350616
 30
0.0
 10
8.9357040023
 20
4.7029477313
 30
0.0
 10
8.9325960511
 20
4.6916382476
 30
0.0
 10
8.9295769931
 20
4.6793651798
 30
0.0
 10
8.9266547627
 20
4.6661578249
 30
0.0
 10
8.923836063
 20
4.6520475654
 30
0.0
 10
8.9211284061
 20
4.6370682006
 30
0.0
 10
8.9185380885
 20
4.6212556079
 30
0.0
 10
8.9160716333
 20
4.6046477529
 30
0.0
 10
8.913735177
 20
4.5872845671
 30
0.0
 10
8.9115341503
 20
4.5692077472
 30
0.0
 10
8.9094743372
 20
4.5504608451
 30
0.0
 10
8.907560339
 20
4.5310889112
 30
0.0
 10
8.905797155
 20
4.511138628
 30
0.0
 10
8.9041888924
 20
4.490658002
 30
0.0
 10
8.902739465
 20
4.4696963435
 30
0.0
 10
8.9014525421
 20
4.4483041435
 30
0.0
 10
8.8999469297
 20
4.4190754808
 30
0.0
 10
8.8984995287
 20
4.3818525793
 30
0.0
 10
8.8974592344
 20
4.3366110959
 30
0.0
 10
8.8971144376
 20
4.2909299708
 30
0.0
 10
8.8974684273
 20
4.2452488812
 30
0.0
 10
8.898517826
 20
4.2000075044
 30
0.0
 10
8.8999727173
 20
4.1627847656
 30
0.0
 10
8.9014842108
 20
4.1335562693
 30
0.0
 10
8.9027754384
 20
4.1121642012
 30
0.0
 10
8.9042290841
 20
4.0912026911
 30
0.0
 10
8.905841468
 20
4.0707222297
 30
0.0
 10
8.9076086667
 20
4.050772127
 30
0.0
 10
8.9095265632
 20
4.031400389
 30
0.0
 10
8.9115901489
 20
4.0126536976
 30
0.0
 10
8.9137948133
 20
3.994577103
 30
0.0
 10
8.9161347637
 20
3.9772141562
 30
0.0
 10
8.9186045612
 20
3.9606065535
 30
0.0
 10
8.9211980608
 20
3.9447942257
 30
0.0
 10
8.9239087324
 20
3.9298151377
 30
0.0
 10
8.9267302717
 20
3.9157051665
 30
0.0
 10
8.9296551602
 20
3.9024981103
 30
0.0
 10
8.9326766885
 20
3.8902253513
 30
0.0
 10
8.9357869158
 20
3.8789161853
 30
0.0
 10
8.9385040455
 20
3.8701291387
 30
0.0
 10
8.9407280609
 20
3.8636092219
 30
0.0
 10
8.9423758865
 20
3.8590875857
 30
0.0
 10
8.9440403359
 20
3.8548256734
 30
0.0
 10
8.9457204878
 20
3.8508260931
 30
0.0
 10
8.9474154101
 20
3.8470912312
 30
0.0
 10
8.94912398
 20
3.8436231147
 30
0.0
 10
8.9508451875
 20
3.8404236079
 30
0.0
 10
8.952578048
 20
3.8374945107
 30
0.0
 10
8.9543217404
 20
3.8348375281
 30
0.0
 10
8.9560754839
 20
3.8324540694
 30
0.0
 10
8.9578385202
 20
3.8303451859
 30
0.0
 10
8.9596103875
 20
3.8285119028
 30
0.0
 10
8.9613908371
 20
3.8269553468
 30
0.0
 10
8.9631799801
 20
3.8256770734
 30
0.0
 10
8.9649775538
 20
3.8246786709
 30
0.0
 10
8.9667831631
 20
3.8239622034
 30
0.0
 10
8.9685947659
 20
3.8235304228
 30
0.0
 10
8.9698109197
 20
3.8234337398
 30
0.0
 10
8.9704107962
 20
3.8234337398
 30
0.0
  0
LINE
  5
2DA
100
AcDbEntity
  8
0
100
AcDbLine
 62
7
  6
CONTINUOUS
 10
2.7726309625
 20
6.2978023676
 11
2.7698414633
 21
6.2992847234
  0
LINE
  5
2DB
100
AcDbEntity
  8
0
100
AcDbLine
 62
7
  6
CONTINUOUS
 10
2.7988672694
 20
6.2992930646
 11
2.7878782678
 21
6.2867914924
  0
LINE
  5
2DC
100
AcDbEntity
  8
0
100
AcDbLine
 62
7
  6
CONTINUOUS
 10
2.8098414622
 20
6.2992946345
 11
2.8126309613
 21
6.2978122787
  0
SPLINE
  5
2DD
100
AcDbEntity
  8
0
100
AcDbSpline
 62
7
  6
CONTINUOUS
 70
0
 71
3
 72
11
 73
7
 74
0
 42
0.0000001
 43
0.0000001
 44
0.0000000001
 40
0.0
 40
0.0
 40
0.0
 40
0.0
 40
0.244444527
 40
0.4922427734
 40
0.7440118947
 40
1.0
 40
1.0
 40
1.0
 40
1.0
 10
2.8126309613
 20
6.2978122787
 30
0.0
 10
2.8167873407
 20
6.2972009047
 30
0.0
 10
2.8251064624
 20
6.2956005676
 30
0.0
 10
2.8374426119
 20
6.2921935717
 30
0.0
 10
2.8496966748
 20
6.2878708019
 30
0.0
 10
2.8577430294
 20
6.2844804013
 30
0.0
 10
2.861753497
 20
6.2826716161
 30
0.0
  0
SPLINE
  5
2DE
100
AcDbEntity
  8
0
100
AcDbSpline
 62
7
  6
CONTINUOUS
 70
0
 71
3
 72
14
 73
10
 74
0
 42
0.0000001
 43
0.0000001
 44
0.0000000001
 40
0.0
 40
0.0
 40
0.0
 40
0.0
 40
0.2575092578
 40
0.3840645402
 40
0.509221497
 40
0.6331350363
 40
0.7560341468
 40
0.8782129826
 40
1.0
 40
1.0
 40
1.0
 40
1.0
 10
2.2905008578
 20
6.2825749402
 30
0.0
 10
2.2961047651
 20
6.2851046752
 30
0.0
 10
2.3046006793
 20
6.2885906132
 30
0.0
 10
2.3161377974
 20
6.2924393675
 30
0.0
 10
2.3247797733
 20
6.2948536968
 30
0.0
 10
2.3334557695
 20
6.2967742944
 30
0.0
 10
2.3421597152
 20
6.2981736743
 30
0.0
 10
2.3508833959
 20
6.2990241889
 30
0.0
 10
2.3567101572
 20
6.2992165334
 30
0.0
 10
2.3596180153
 20
6.2992167971
 30
0.0
  0
SPLINE
  5
2DF
100
AcDbEntity
  8
0
100
AcDbSpline
 62
7
  6
CONTINUOUS
 70
0
 71
3
 72
11
 73
7
 74
0
 42
0.0000001
 43
0.0000001
 44
0.0000000001
 40
0.0
 40
0.0
 40
0.0
 40
0.0
 40
0.2500007303
 40
0.5000013243
 40
0.7500011052
 40
1.0
 40
1.0
 40
1.0
 40
1.0
 10
2.437887236
 20
6.282588786
 30
0.0
 10
2.4492276869
 20
6.2851497659
 30
0.0
 10
2.4720158619
 20
6.2898149965
 30
0.0
 10
2.5065024065
 20
6.2951337004
 30
0.0
 10
2.5412399648
 20
6.2984773807
 30
0.0
 10
2.5644984252
 20
6.2992458017
 30
0.0
 10
2.5761243641
 20
6.2992477692
 30
0.0
  0
SPLINE
  5
2E0
100
AcDbEntity
  8
0
100
AcDbSpline
 62
7
  6
CONTINUOUS
 70
0
 71
3
 72
14
 73
10
 74
0
 42
0.0000001
 43
0.0000001
 44
0.0000000001
 40
0.0
 40
0.0
 40
0.0
 40
0.0
 40
0.1217833697
 40
0.2439595974
 40
0.3668574307
 40
0.4907710276
 40
0.6159288143
 40
0.7424855773
 40
1.0
 40
1.0
 40
1.0
 40
1.0
 10
2.3596180153
 20
6.2992167971
 30
0.0
 10
2.36252589
 20
6.2992170608
 30
0.0
 10
2.3683527439
 20
6.2990259395
 30
0.0
 10
2.3770767485
 20
6.2981773219
 30
0.0
 10
2.3857811612
 20
6.2967793981
 30
0.0
 10
2.3944577625
 20
6.2948601217
 30
0.0
 10
2.4031005439
 20
6.2924472899
 30
0.0
 10
2.4146389978
 20
6.2886006068
 30
0.0
 10
2.4231360578
 20
6.285116188
 30
0.0
 10
2.4287408033
 20
6.2825874776
 30
0.0
  0
SPLINE
  5
2E1
100
AcDbEntity
  8
0
100
AcDbSpline
 62
7
  6
CONTINUOUS
 70
0
 71
3
 72
11
 73
7
 74
0
 42
0.0000001
 43
0.0000001
 44
0.0000000001
 40
0.0
 40
0.0
 40
0.0
 40
0.0
 40
0.2557358957
 40
0.5074625965
 40
0.7553771893
 40
1.0
 40
1.0
 40
1.0
 40
1.0
 10
2.7235135555
 20
6.2826373634
 30
0.0
 10
2.7273253433
 20
6.2843586925
 30
0.0
 10
2.7349718558
 20
6.2875959399
 30
0.0
 10
2.7466078951
 20
6.2917677677
 30
0.0
 10
2.7583180231
 20
6.2951230187
 30
0.0
 10
2.7662143981
 20
6.2967635299
 30
0.0
 10
2.7701615156
 20
6.2974159821
 30
0.0
  0
SPLINE
  5
2E2
100
AcDbEntity
  8
0
100
AcDbSpline
 62
7
  6
CONTINUOUS
 70
0
 71
3
 72
11
 73
7
 74
0
 42
0.0000001
 43
0.0000001
 44
0.0000000001
 40
0.0
 40
0.0
 40
0.0
 40
0.0
 40
0.2499991225
 40
0.4999987333
 40
0.7499992077
 40
1.0
 40
1.0
 40
1.0
 40
1.0
 10
2.5761243641
 20
6.2992477692
 30
0.0
 10
2.5877503166
 20
6.2992497367
 30
0.0
 10
2.6110090726
 20
6.2984898917
 30
0.0
 10
2.6457477205
 20
6.2951572934
 30
0.0
 10
2.6802360498
 20
6.289850281
 30
0.0
 10
2.7030258002
 20
6.2851927186
 30
0.0
 10
2.714367123
 20
6.282635576
 30
0.0
  0
SPLINE
  5
2E3
100
AcDbEntity
  8
0
100
AcDbSpline
 62
7
  6
CONTINUOUS
 70
0
 71
3
 72
14
 73
10
 74
0
 42
0.0000001
 43
0.0000001
 44
0.0000000001
 40
0.0
 40
0.0
 40
0.0
 40
0.0
 40
0.1217851712
 40
0.2439625968
 40
0.3668610569
 40
0.4907747572
 40
0.6159321767
 40
0.7424881598
 40
1.0
 40
1.0
 40
1.0
 40
1.0
 10
5.7656854541
 20
6.2996810767
 30
0.0
 10
5.7685933214
 20
6.2996810767
 30
0.0
 10
5.7744201286
 20
6.2994894284
 30
0.0
 10
5.7831439906
 20
6.2986400208
 30
0.0
 10
5.7918481686
 20
6.2972413085
 30
0.0
 10
5.8005244471
 20
6.2953212457
 30
0.0
 10
5.8091668225
 20
6.2929076303
 30
0.0
 10
5.8207046131
 20
6.2890599056
 30
0.0
 10
5.8292010978
 20
6.2855747122
 30
0.0
 10
5.8348054268
 20
6.2830454882
 30
0.0
  0
SPLINE
  5
2E4
100
AcDbEntity
  8
0
100
AcDbSpline
 62
7
  6
CONTINUOUS
 70
0
 71
3
 72
14
 73
10
 74
0
 42
0.0000001
 43
0.0000001
 44
0.0000000001
 40
0.0
 40
0.0
 40
0.0
 40
0.0
 40
0.2575118406
 40
0.384067903
 40
0.5092252269
 40
0.6331386626
 40
0.756037146
 40
0.8782147841
 40
1.0
 40
1.0
 40
1.0
 40
1.0
 10
6.1295781833
 20
6.2830454882
 30
0.0
 10
6.1351825069
 20
6.2855747097
 30
0.0
 10
6.1436789966
 20
6.2890598732
 30
0.0
 10
6.1552167779
 20
6.2929075862
 30
0.0
 10
6.1638591598
 20
6.2953211318
 30
0.0
 10
6.1725354788
 20
6.2972409432
 30
0.0
 10
6.1812396591
 20
6.2986395346
 30
0.0
 10
6.1899634824
 20
6.2994892592
 30
0.0
 10
6.1957902905
 20
6.2996810767
 30
0.0
 10
6.198698156
 20
6.2996810767
 30
0.0
  0
SPLINE
  5
2E5
100
AcDbEntity
  8
0
100
AcDbSpline
 62
7
  6
CONTINUOUS
 70
0
 71
3
 72
12
 73
8
 74
0
 42
0.0000001
 43
0.0000001
 44
0.0000000001
 40
0.0
 40
0.0
 40
0.0
 40
0.0
 40
0.2499960592
 40
0.3750065644
 40
0.5000102226
 40
0.7500070901
 40
1.0
 40
1.0
 40
1.0
 40
1.0
 10
6.022191805
 20
6.2981983219
 30
0.0
 10
6.0304600277
 20
6.2975891839
 30
0.0
 10
6.0428443747
 20
6.2963993802
 30
0.0
 10
6.0592940342
 20
6.2943041289
 30
0.0
 10
6.0756994985
 20
6.2918847158
 30
0.0
 10
6.0961162444
 20
6.2882872709
 30
0.0
 10
6.1123445581
 20
6.2848703561
 30
0.0
 10
6.1204317505
 20
6.2830454882
 30
0.0
  0
SPLINE
  5
2E6
100
AcDbEntity
  8
0
100
AcDbSpline
 62
7
  6
CONTINUOUS
 70
0
 71
3
 72
14
 73
10
 74
0
 42
0.0000001
 43
0.0000001
 44
0.0000000001
 40
0.0
 40
0.0
 40
0.0
 40
0.0
 40
0.1217851712
 40
0.2439625968
 40
0.3668610569
 40
0.4907747572
 40
0.6159321767
 40
0.7424881598
 40
1.0
 40
1.0
 40
1.0
 40
1.0
 10
6.198698156
 20
6.2996810767
 30
0.0
 10
6.2016060232
 20
6.2996810767
 30
0.0
 10
6.2074328304
 20
6.2994894284
 30
0.0
 10
6.2161566925
 20
6.2986400208
 30
0.0
 10
6.2248608705
 20
6.2972413085
 30
0.0
 10
6.233537149
 20
6.2953212457
 30
0.0
 10
6.2421795244
 20
6.2929076303
 30
0.0
 10
6.253717315
 20
6.2890599056
 30
0.0
 10
6.2622137997
 20
6.2855747122
 30
0.0
 10
6.2678181287
 20
6.2830454882
 30
0.0
  0
SPLINE
  5
2E7
100
AcDbEntity
  8
0
100
AcDbSpline
 62
7
  6
CONTINUOUS
 70
0
 71
3
 72
14
 73
10
 74
0
 42
0.0000001
 43
0.0000001
 44
0.0000000001
 40
0.0
 40
0.0
 40
0.0
 40
0.0
 40
0.2575118406
 40
0.384067903
 40
0.5092252269
 40
0.6331386626
 40
0.756037146
 40
0.8782147841
 40
1.0
 40
1.0
 40
1.0
 40
1.0
 10
5.6965654814
 20
6.2830454882
 30
0.0
 10
5.702169805
 20
6.2855747097
 30
0.0
 10
5.7106662947
 20
6.2890598732
 30
0.0
 10
5.722204076
 20
6.2929075862
 30
0.0
 10
5.7308464579
 20
6.2953211318
 30
0.0
 10
5.7395227769
 20
6.2972409432
 30
0.0
 10
5.7482269572
 20
6.2986395346
 30
0.0
 10
5.7569507805
 20
6.2994892592
 30
0.0
 10
5.7627775886
 20
6.2996810767
 30
0.0
 10
5.7656854541
 20
6.2996810767
 30
0.0
  0
SPLINE
  5
2E8
100
AcDbEntity
  8
0
100
AcDbSpline
 62
7
  6
CONTINUOUS
 70
0
 71
3
 72
12
 73
8
 74
0
 42
0.0000001
 43
0.0000001
 44
0.0000000001
 40
0.0
 40
0.0
 40
0.0
 40
0.0
 40
0.2499927209
 40
0.4999895995
 40
0.6249933451
 40
0.7500039337
 40
1.0
 40
1.0
 40
1.0
 40
1.0
 10
5.8439518596
 20
6.2830454882
 30
0.0
 10
5.8520390458
 20
6.2848703548
 30
0.0
 10
5.8682673538
 20
6.2882872686
 30
0.0
 10
5.8886840967
 20
6.2918847125
 30
0.0
 10
5.9050895667
 20
6.2943041284
 30
0.0
 10
5.9215392325
 20
6.296399377
 30
0.0
 10
5.9339235822
 20
6.2975891838
 30
0.0
 10
5.942191805
 20
6.2981983219
 30
0.0
  0
LINE
  5
2E9
100
AcDbEntity
  8
0
100
AcDbLine
 62
7
  6
CONTINUOUS
 10
2.073809919
 20
5.620933458
 11
2.0711610071
 21
5.6210544531
  0
LINE
  5
2EA
100
AcDbEntity
  8
0
100
AcDbLine
 62
7
  6
CONTINUOUS
 10
4.3974418838
 20
5.6535855648
 11
4.3488841823
 21
5.6634128836
  0
SPLINE
  5
2EB
100
AcDbEntity
  8
0
100
AcDbSpline
 62
7
  6
CONTINUOUS
 70
0
 71
3
 72
17
 73
13
 74
0
 42
0.0000001
 43
0.0000001
 44
0.0000000001
 40
0.0
 40
0.0
 40
0.0
 40
0.0
 40
0.1528921103
 40
0.3040733307
 40
0.4501409783
 40
0.5879589273
 40
0.714463943
 40
0.8268702913
 40
0.877015492
 40
0.9227553801
 40
0.9638308587
 40
1.0
 40
1.0
 40
1.0
 40
1.0
 10
6.6241651458
 20
5.6177968139
 30
0.0
 10
6.6444474375
 20
5.6183280704
 30
0.0
 10
6.6847884555
 20
5.6192588812
 30
0.0
 10
6.7445152394
 20
5.620275213
 30
0.0
 10
6.8022469585
 20
5.6208984707
 30
0.0
 10
6.8567070635
 20
5.6211216322
 30
0.0
 10
6.9067003803
 20
5.6209419076
 30
0.0
 10
6.9450567547
 20
5.6204475584
 30
0.0
 10
6.9726908299
 20
5.6198240859
 30
0.0
 10
6.9908579044
 20
5.6192771401
 30
0.0
 10
7.0071659642
 20
5.6186359935
 30
0.0
 10
7.0174037017
 20
5.6181151669
 30
0.0
 10
7.0221950836
 20
5.6178317804
 30
0.0
  0
SPLINE
  5
2EC
100
AcDbEntity
  8
0
100
AcDbSpline
 62
7
  6
CONTINUOUS
 70
0
 71
3
 72
17
 73
13
 74
0
 42
0.0000001
 43
0.0000001
 44
0.0000000001
 40
0.0
 40
0.0
 40
0.0
 40
0.0
 40
0.0516272852
 40
0.1080483748
 40
0.2324969018
 40
0.3678136907
 40
0.5082078486
 40
0.6475160331
 40
0.7796269357
 40
0.8988893606
 40
0.9520404083
 40
1.0
 40
1.0
 40
1.0
 40
1.0
 10
5.2909748886
 20
5.6176681648
 30
0.0
 10
5.2862533616
 20
5.6179208147
 30
0.0
 10
5.2763688229
 20
5.6183928155
 30
0.0
 10
5.2550914875
 20
5.6192201085
 30
0.0
 10
5.2261433097
 20
5.6200088001
 30
0.0
 10
5.1894984457
 20
5.6205754604
 30
0.0
 10
5.1514887452
 20
5.6207656067
 30
0.0
 10
5.1137726575
 20
5.6205710495
 30
0.0
 10
5.0779959713
 20
5.6200007617
 30
0.0
 10
5.0501162481
 20
5.6192074796
 30
0.0
 10
5.0299504375
 20
5.6183725092
 30
0.0
 10
5.0207022321
 20
5.617896258
 30
0.0
 10
5.0163173022
 20
5.6176406019
 30
0.0
  0
LINE
  5
2ED
100
AcDbEntity
  8
0
100
AcDbLine
 62
7
  6
CONTINUOUS
 10
4.575492524
 20
5.6175560767
 11
4.5515365304
 21
5.6224031099
  0
LINE
  5
2EE
100
AcDbEntity
  8
0
100
AcDbLine
 62
7
  6
CONTINUOUS
 10
9.0923778948
 20
5.9466992698
 11
8.9111580859
 21
5.9565265886
  0
LINE
  5
2EF
100
AcDbEntity
  8
0
100
AcDbLine
 62
7
  6
CONTINUOUS
 10
2.6569187407
 20
5.9565265886
 11
2.5242566332
 21
5.9466992698
  0
LINE
  5
2F0
100
AcDbEntity
  8
0
100
AcDbLine
 62
7
  6
CONTINUOUS
 10
8.3360690355
 20
5.9877090435
 11
8.2466640503
 21
5.9925560767
  0
LINE
  5
2F1
100
AcDbEntity
  8
0
100
AcDbLine
 62
7
  6
CONTINUOUS
 10
3.1433621361
 20
5.9925560767
 11
3.0779131444
 21
5.9877090435
  0
SPLINE
  5
2F2
100
AcDbEntity
  8
0
100
AcDbSpline
 62
7
  6
CONTINUOUS
 70
0
 71
3
 72
17
 73
13
 74
0
 42
0.0000001
 43
0.0000001
 44
0.0000000001
 40
0.0
 40
0.0
 40
0.0
 40
0.0
 40
0.0475564046
 40
0.1004802876
 40
0.2197173437
 40
0.352208055
 40
0.4920917662
 40
0.6330240094
 40
0.7686088021
 40
0.8928490978
 40
0.948920986
 40
1.0
 40
1.0
 40
1.0
 40
1.0
 10
5.0148864539
 20
5.9925560767
 30
0.0
 10
5.0192894664
 20
5.9922925293
 30
0.0
 10
5.0285964494
 20
5.9918020893
 30
0.0
 10
5.0489575087
 20
5.9909423041
 30
0.0
 10
5.0772036436
 20
5.9901264845
 30
0.0
 10
5.1135219177
 20
5.9895414866
 30
0.0
 10
5.1518566545
 20
5.9893443862
 30
0.0
 10
5.1904783328
 20
5.9895445406
 30
0.0
 10
5.2276449198
 20
5.9901331084
 30
0.0
 10
5.2569342925
 20
5.9909502047
 30
0.0
 10
5.2783791271
 20
5.9918065132
 30
0.0
 10
5.2883056797
 20
5.9922946429
 30
0.0
 10
5.2930360786
 20
5.9925560767
 30
0.0
  0
SPLINE
  5
2F3
100
AcDbEntity
  8
0
100
AcDbSpline
 62
7
  6
CONTINUOUS
 70
0
 71
3
 72
17
 73
13
 74
0
 42
0.0000001
 43
0.0000001
 44
0.0000000001
 40
0.0
 40
0.0
 40
0.0
 40
0.0
 40
0.1537206822
 40
0.3060862788
 40
0.4533326035
 40
0.5920433537
 40
0.7188878193
 40
0.830845159
 40
0.88041254
 40
0.9253090196
 40
0.9652587892
 40
1.0
 40
1.0
 40
1.0
 40
1.0
 10
6.6151361427
 20
5.9925560767
 30
0.0
 10
6.6362189551
 20
5.9919840107
 30
0.0
 10
6.6782025797
 20
5.9909826175
 30
0.0
 10
6.7403908958
 20
5.9898903718
 30
0.0
 10
6.8005257581
 20
5.9892217662
 30
0.0
 10
6.8571624279
 20
5.9889849405
 30
0.0
 10
6.9089575776
 20
5.9891829343
 30
0.0
 10
6.9485193804
 20
5.9897200627
 30
0.0
 10
6.9768326226
 20
5.9903978504
 30
0.0
 10
6.9952650154
 20
5.9909900483
 30
0.0
 10
7.0116581555
 20
5.9916825713
 30
0.0
 10
7.021890719
 20
5.9922475376
 30
0.0
 10
7.0266472381
 20
5.9925560767
 30
0.0
  0
LINE
  5
2F4
100
AcDbEntity
  8
0
100
AcDbLine
 62
7
  6
CONTINUOUS
 10
2.0738099197
 20
5.9891786955
 11
2.0711610071
 21
5.9890577003
  0
LINE
  5
2F5
100
AcDbEntity
  8
0
100
AcDbLine
 62
7
  6
CONTINUOUS
 10
2.8916669752
 20
6.1000269454
 11
2.8916348294
 21
6.0989471547
  0
LINE
  5
2F6
100
AcDbEntity
  8
0
100
AcDbLine
 62
7
  6
CONTINUOUS
 10
2.8916348294
 20
6.0989471547
 11
2.8889792635
 21
6.0098048885
  0
LINE
  5
2F7
100
AcDbEntity
  8
0
100
AcDbLine
 62
7
  6
CONTINUOUS
 10
2.0711610071
 20
5.9890577003
 11
2.1469586342
 21
5.9925560767
  0
LINE
  5
2F8
100
AcDbEntity
  8
0
100
AcDbLine
 62
7
  6
CONTINUOUS
 10
2.0711610071
 20
5.6210544531
 11
2.1469586342
 21
5.6175560767
  0
SPLINE
  5
2F9
100
AcDbEntity
  8
0
100
AcDbSpline
 62
7
  6
CONTINUOUS
 70
0
 71
3
 72
15
 73
11
 74
0
 42
0.0000001
 43
0.0000001
 44
0.0000000001
 40
0.0
 40
0.0
 40
0.0
 40
0.0
 40
0.1038323448
 40
0.2112575934
 40
0.3248076979
 40
0.4460798938
 40
0.5753973288
 40
0.7120936024
 40
0.85465314
 40
1.0
 40
1.0
 40
1.0
 40
1.0
 10
2.8669290943
 20
5.9877085483
 30
0.0
 10
2.8662311343
 20
5.9877078425
 30
0.0
 10
2.8648048032
 20
5.9875067778
 30
0.0
 10
2.8627746746
 20
5.9866485619
 30
0.0
 10
2.8609025775
 20
5.9852788515
 30
0.0
 10
2.859262097
 20
5.9834414706
 30
0.0
 10
2.85789453
 20
5.9812120566
 30
0.0
 10
2.8568472967
 20
5.9786610545
 30
0.0
 10
2.8561638338
 20
5.9758807159
 30
0.0
 10
2.8559539493
 20
5.9739502315
 30
0.0
 10
2.8559128203
 20
5.972974077
 30
0.0
  0
SPLINE
  5
2FA
100
AcDbEntity
  8
0
100
AcDbSpline
 62
7
  6
CONTINUOUS
 70
0
 71
3
 72
15
 73
11
 74
0
 42
0.0000001
 43
0.0000001
 44
0.0000000001
 40
0.0
 40
0.0
 40
0.0
 40
0.0
 40
0.1038870693
 40
0.2112640855
 40
0.32480293
 40
0.4461771328
 40
0.5756856732
 40
0.7127860413
 40
0.8553257652
 40
1.0
 40
1.0
 40
1.0
 40
1.0
 10
2.690152399
 20
5.9877085483
 30
0.0
 10
2.6908545507
 20
5.9877092582
 30
0.0
 10
2.6922889265
 20
5.9875122145
 30
0.0
 10
2.6943352103
 20
5.9866598046
 30
0.0
 10
2.6962167142
 20
5.985279814
 30
0.0
 10
2.6978668448
 20
5.9834309134
 30
0.0
 10
2.6992430406
 20
5.9811837123
 30
0.0
 10
2.7002846029
 20
5.9786098706
 30
0.0
 10
2.7009694283
 20
5.9758162391
 30
0.0
 10
2.7011758667
 20
5.9738789279
 30
0.0
 10
2.7012121011
 20
5.9729017752
 30
0.0
  0
SPLINE
  5
2FB
100
AcDbEntity
  8
0
100
AcDbSpline
 62
7
  6
CONTINUOUS
 70
0
 71
3
 72
15
 73
11
 74
0
 42
0.0000001
 43
0.0000001
 44
0.0000000001
 40
0.0
 40
0.0
 40
0.0
 40
0.0
 40
0.102778383
 40
0.209598494
 40
0.3232226672
 40
0.4452364942
 40
0.5756491399
 40
0.7134616335
 40
0.8562041883
 40
1.0
 40
1.0
 40
1.0
 40
1.0
 10
2.6679388181
 20
5.97296886
 30
0.0
 10
2.667189654
 20
5.9729681035
 30
0.0
 10
2.6656543705
 20
5.9727351675
 30
0.0
 10
2.6634874544
 20
5.9717477899
 30
0.0
 10
2.661517522
 20
5.9701777055
 30
0.0
 10
2.6598301029
 20
5.9680879773
 30
0.0
 10
2.6584700871
 20
5.9655733514
 30
0.0
 10
2.6575030997
 20
5.9627243541
 30
0.0
 10
2.6569572849
 20
5.9596696108
 30
0.0
 10
2.6568799044
 20
5.9575740146
 30
0.0
 10
2.6569187407
 20
5.9565265886
 30
0.0
  0
SPLINE
  5
2FC
100
AcDbEntity
  8
0
100
AcDbSpline
 62
7
  6
CONTINUOUS
 70
0
 71
3
 72
15
 73
11
 74
0
 42
0.0000001
 43
0.0000001
 44
0.0000000001
 40
0.0
 40
0.0
 40
0.0
 40
0.0
 40
0.1038860256
 40
0.2112628609
 40
0.3248023987
 40
0.4461779252
 40
0.5756878346
 40
0.7127885147
 40
0.8553272991
 40
1.0
 40
1.0
 40
1.0
 40
1.0
 10
2.4911621228
 20
5.97296886
 30
0.0
 10
2.4918642425
 20
5.9729695689
 30
0.0
 10
2.4932985598
 20
5.9727725015
 30
0.0
 10
2.4953447294
 20
5.9719200217
 30
0.0
 10
2.497226087
 20
5.970539947
 30
0.0
 10
2.4988760457
 20
5.9686909807
 30
0.0
 10
2.5002520653
 20
5.9664437596
 30
0.0
 10
2.5012934734
 20
5.9638699588
 30
0.0
 10
2.5019781862
 20
5.9610764219
 30
0.0
 10
2.502184588
 20
5.9591391951
 30
0.0
 10
2.5022208174
 20
5.9581620873
 30
0.0
  0
LINE
  5
2FD
100
AcDbEntity
  8
0
100
AcDbLine
 62
7
  6
CONTINUOUS
 10
2.8884650157
 20
5.9925560767
 11
2.8916356215
 21
6.0989737585
  0
LINE
  5
2FE
100
AcDbEntity
  8
0
100
AcDbLine
 62
7
  6
CONTINUOUS
 10
2.8916356215
 20
6.0989737585
 11
2.8916669721
 21
6.1000268401
  0
SPLINE
  5
2FF
100
AcDbEntity
  8
0
100
AcDbSpline
 62
7
  6
CONTINUOUS
 70
0
 71
3
 72
9
 73
5
 74
0
 42
0.0000001
 43
0.0000001
 44
0.0000000001
 40
0.0
 40
0.0
 40
0.0
 40
0.0
 40
0.5177601827
 40
1.0
 40
1.0
 40
1.0
 40
1.0
 10
4.1640418186
 20
5.6519500661
 30
0.0
 10
4.1640237729
 20
5.6506203889
 30
0.0
 10
4.1639014729
 20
5.6480529214
 30
0.0
 10
4.1636019519
 20
5.6454987917
 30
0.0
 10
4.1633978285
 20
5.6442771576
 30
0.0
  0
SPLINE
  5
300
100
AcDbEntity
  8
0
100
AcDbSpline
 62
7
  6
CONTINUOUS
 70
0
 71
3
 72
15
 73
11
 74
0
 42
0.0000001
 43
0.0000001
 44
0.0000000001
 40
0.0
 40
0.0
 40
0.0
 40
0.0
 40
0.1926421877
 40
0.3677662331
 40
0.523567547
 40
0.6584871564
 40
0.7715799076
 40
0.8636243506
 40
0.9375523788
 40
1.0
 40
1.0
 40
1.0
 40
1.0
 10
4.1633978285
 20
5.6442771576
 30
0.0
 10
4.1633101046
 20
5.6437521495
 30
0.0
 10
4.1631207622
 20
5.6427533047
 30
0.0
 10
4.1627773718
 20
5.6413472152
 30
0.0
 10
4.1623932648
 20
5.6401175699
 30
0.0
 10
4.1619747943
 20
5.6390815189
 30
0.0
 10
4.1615256039
 20
5.6382529703
 30
0.0
 10
4.161049843
 20
5.6376402973
 30
0.0
 10
4.1605458483
 20
5.6372441107
 30
0.0
 10
4.1601666806
 20
5.6371428131
 30
0.0
 10
4.1599941332
 20
5.6371432828
 30
0.0
  0
SPLINE
  5
301
100
AcDbEntity
  8
0
100
AcDbSpline
 62
7
  6
CONTINUOUS
 70
0
 71
3
 72
19
 73
15
 74
0
 42
0.0000001
 43
0.0000001
 44
0.0000000001
 40
0.0
 40
0.0
 40
0.0
 40
0.0
 40
0.1783580327
 40
0.3530574289
 40
0.5160573716
 40
0.6608959204
 40
0.7251006292
 40
0.7831400644
 40
0.8345976714
 40
0.8793372581
 40
0.9174882801
 40
0.9494793845
 40
0.9763135855
 40
1.0
 40
1.0
 40
1.0
 40
1.0
 10
4.3974418838
 20
5.6535855648
 30
0.0
 10
4.397427668
 20
5.6525380842
 30
0.0
 10
4.397455532
 20
5.6504635078
 30
0.0
 10
4.3976515847
 20
5.6474373957
 30
0.0
 10
4.3979973921
 20
5.6446226911
 30
0.0
 10
4.3984150655
 20
5.6424750466
 30
0.0
 10
4.398822451
 20
5.6409595356
 30
0.0
 10
4.3991417787
 20
5.6399898809
 30
0.0
 10
4.3994849739
 20
5.6391504932
 30
0.0
 10
4.399848589
 20
5.6384486606
 30
0.0
 10
4.4002288081
 20
5.6378886529
 30
0.0
 10
4.4006244575
 20
5.6374739817
 30
0.0
 10
4.4010379619
 20
5.6372087609
 30
0.0
 10
4.4013364693
 20
5.6371436615
 30
0.0
 10
4.4014755898
 20
5.6371432828
 30
0.0
  0
SPLINE
  5
302
100
AcDbEntity
  8
0
100
AcDbSpline
 62
7
  6
CONTINUOUS
 70
0
 71
3
 72
9
 73
5
 74
0
 42
0.0000001
 43
0.0000001
 44
0.0000000001
 40
0.0
 40
0.0
 40
0.0
 40
0.0
 40
0.5177620188
 40
1.0
 40
1.0
 40
1.0
 40
1.0
 10
4.2368776836
 20
5.6372103782
 30
0.0
 10
4.2368596365
 20
5.635880726
 30
0.0
 10
4.2367373282
 20
5.6333133161
 30
0.0
 10
4.2364377939
 20
5.6307592457
 30
0.0
 10
4.2362336641
 20
5.6295376455
 30
0.0
  0
SPLINE
  5
303
100
AcDbEntity
  8
0
100
AcDbSpline
 62
7
  6
CONTINUOUS
 70
0
 71
3
 72
15
 73
11
 74
0
 42
0.0000001
 43
0.0000001
 44
0.0000000001
 40
0.0
 40
0.0
 40
0.0
 40
0.0
 40
0.1926452784
 40
0.3677699463
 40
0.523570216
 40
0.6584879073
 40
0.7715786932
 40
0.8636219843
 40
0.9375503807
 40
1.0
 40
1.0
 40
1.0
 40
1.0
 10
4.2362336641
 20
5.6295376455
 30
0.0
 10
4.2361459301
 20
5.6290126078
 30
0.0
 10
4.2359565656
 20
5.6280137133
 30
0.0
 10
4.2356131328
 20
5.6266075638
 30
0.0
 10
4.2352289802
 20
5.6253778827
 30
0.0
 10
4.2348104633
 20
5.6243418144
 30
0.0
 10
4.2343612272
 20
5.6235132612
 30
0.0
 10
4.2338854216
 20
5.6229005906
 30
0.0
 10
4.2333813809
 20
5.6225044134
 30
0.0
 10
4.2330021897
 20
5.6224031241
 30
0.0
 10
4.2328296295
 20
5.6224035944
 30
0.0
  0
SPLINE
  5
304
100
AcDbEntity
  8
0
100
AcDbSpline
 62
7
  6
CONTINUOUS
 70
0
 71
3
 72
19
 73
15
 74
0
 42
0.0000001
 43
0.0000001
 44
0.0000000001
 40
0.0
 40
0.0
 40
0.0
 40
0.0
 40
0.1832465689
 40
0.3592612605
 40
0.5211193296
 40
0.6639387212
 40
0.7270195399
 40
0.7839609351
 40
0.8344725123
 40
0.87854096
 40
0.9163461482
 40
0.9483635161
 40
0.9756113582
 40
1.0
 40
1.0
 40
1.0
 40
1.0
 10
4.4702787732
 20
5.6371380655
 30
0.0
 10
4.4702937636
 20
5.636166131
 30
0.0
 10
4.4703690821
 20
5.6342610268
 30
0.0
 10
4.4706146766
 20
5.6315062968
 30
0.0
 10
4.4709897504
 20
5.6289826023
 30
0.0
 10
4.4714108098
 20
5.6270752308
 30
0.0
 10
4.4718094133
 20
5.6257385394
 30
0.0
 10
4.4721176345
 20
5.6248873857
 30
0.0
 10
4.4724457009
 20
5.6241526681
 30
0.0
 10
4.4727901779
 20
5.6235392741
 30
0.0
 10
4.47314845
 20
5.6230503949
 30
0.0
 10
4.473519816
 20
5.6226890239
 30
0.0
 10
4.4739061926
 20
5.6224594425
 30
0.0
 10
4.4741817145
 20
5.6224039471
 30
0.0
 10
4.4743110861
 20
5.6224035944
 30
0.0
  0
SPLINE
  5
305
100
AcDbEntity
  8
0
100
AcDbSpline
 62
7
  6
CONTINUOUS
 70
0
 71
3
 72
15
 73
11
 74
0
 42
0.0000001
 43
0.0000001
 44
0.0000000001
 40
0.0
 40
0.0
 40
0.0
 40
0.0
 40
0.1264550431
 40
0.2536268132
 40
0.3801865456
 40
0.5057040894
 40
0.6302502251
 40
0.7540037968
 40
0.8772092948
 40
1.0
 40
1.0
 40
1.0
 40
1.0
 10
8.9111580859
 20
5.9565265886
 30
0.0
 10
8.9112111349
 20
5.957573969
 30
0.0
 10
8.9111036114
 20
5.9596904806
 30
0.0
 10
8.9103452144
 20
5.9627698181
 30
0.0
 10
8.9090017411
 20
5.9656376825
 30
0.0
 10
8.9071197093
 20
5.9681566743
 30
0.0
 10
8.9047932667
 20
5.9702380473
 30
0.0
 10
8.9021021884
 20
5.9717839511
 30
0.0
 10
8.8991688125
 20
5.9727450974
 30
0.0
 10
8.8971227136
 20
5.9729681073
 30
0.0
 10
8.8961043801
 20
5.97296886
 30
0.0
  0
SPLINE
  5
306
100
AcDbEntity
  8
0
100
AcDbSpline
 62
7
  6
CONTINUOUS
 70
0
 71
3
 72
15
 73
11
 74
0
 42
0.0000001
 43
0.0000001
 44
0.0000000001
 40
0.0
 40
0.0
 40
0.0
 40
0.0
 40
0.1264789883
 40
0.2535589204
 40
0.3800642923
 40
0.505509319
 40
0.6300205993
 40
0.7537569603
 40
0.8770344257
 40
1.0
 40
1.0
 40
1.0
 40
1.0
 10
8.9457026837
 20
5.9581620873
 30
0.0
 10
8.9457523822
 20
5.9591433076
 30
0.0
 10
8.9460400662
 20
5.9611051378
 30
0.0
 10
8.9469889736
 20
5.9639166929
 30
0.0
 10
8.9484322643
 20
5.9665035111
 30
0.0
 10
8.9503314381
 20
5.9687504425
 30
0.0
 10
8.9525999491
 20
5.9705894112
 30
0.0
 10
8.9551671288
 20
5.9719486018
 30
0.0
 10
8.9579361543
 20
5.9727796686
 30
0.0
 10
8.9598539555
 20
5.972969566
 30
0.0
 10
8.9608091414
 20
5.97296886
 30
0.0
  0
SPLINE
  5
307
100
AcDbEntity
  8
0
100
AcDbSpline
 62
7
  6
CONTINUOUS
 70
0
 71
3
 72
15
 73
11
 74
0
 42
0.0000001
 43
0.0000001
 44
0.0000000001
 40
0.0
 40
0.0
 40
0.0
 40
0.0
 40
0.1270882997
 40
0.2542157461
 40
0.3804583825
 40
0.505756776
 40
0.6301670729
 40
0.7539001762
 40
0.8771363213
 40
1.0
 40
1.0
 40
1.0
 40
1.0
 10
8.6393271179
 20
5.972974077
 30
0.0
 10
8.6392706928
 20
5.9739544319
 30
0.0
 10
8.6389783765
 20
5.9759092601
 30
0.0
 10
8.6380304481
 20
5.9787085869
 30
0.0
 10
8.6365804267
 20
5.9812703216
 30
0.0
 10
8.6346929318
 20
5.9835003552
 30
0.0
 10
8.6324370385
 20
5.9853278299
 30
0.0
 10
8.6298837543
 20
5.9866766597
 30
0.0
 10
8.6271344288
 20
5.9875143365
 30
0.0
 10
8.6252279423
 20
5.9877078456
 30
0.0
 10
8.6242786077
 20
5.9877085483
 30
0.0
  0
SPLINE
  5
308
100
AcDbEntity
  8
0
100
AcDbSpline
 62
7
  6
CONTINUOUS
 70
0
 71
3
 72
15
 73
11
 74
0
 42
0.0000001
 43
0.0000001
 44
0.0000000001
 40
0.0
 40
0.0
 40
0.0
 40
0.0
 40
0.1264791484
 40
0.2535593219
 40
0.3800646527
 40
0.5055093888
 40
0.6300205996
 40
0.7537569595
 40
0.8770343397
 40
1.0
 40
1.0
 40
1.0
 40
1.0
 10
8.673875535
 20
5.9729017752
 30
0.0
 10
8.6739252405
 20
5.9738830416
 30
0.0
 10
8.6742129769
 20
5.9758449632
 30
0.0
 10
8.6751620426
 20
5.9786566151
 30
0.0
 10
8.6766055482
 20
5.9812434719
 30
0.0
 10
8.678504961
 20
5.9834903758
 30
0.0
 10
8.6807736988
 20
5.9853292719
 30
0.0
 10
8.6833410696
 20
5.9866883777
 30
0.0
 10
8.6861102498
 20
5.9875193791
 30
0.0
 10
8.6880281385
 20
5.9877092553
 30
0.0
 10
8.688983369
 20
5.9877085483
 30
0.0
  0
LINE
  5
309
100
AcDbEntity
  8
0
100
AcDbLine
 62
7
  6
CONTINUOUS
 10
2.7012121011
 20
5.9729017752
 11
2.8348704697
 21
5.9828012908
  0
LINE
  5
30A
100
AcDbEntity
  8
0
100
AcDbLine
 62
7
  6
CONTINUOUS
 10
2.8348704697
 20
5.9828012908
 11
2.8549436218
 21
5.9842879587
  0
LINE
  5
30B
100
AcDbEntity
  8
0
100
AcDbLine
 62
7
  6
CONTINUOUS
 10
2.8549436218
 20
5.9842879587
 11
2.8604870819
 21
5.984698518
  0
LINE
  5
30C
100
AcDbEntity
  8
0
100
AcDbLine
 62
7
  6
CONTINUOUS
 10
2.9011364492
 20
5.9877090435
 11
2.9665854408
 21
5.9925560767
  0
LINE
  5
30D
100
AcDbEntity
  8
0
100
AcDbLine
 62
7
  6
CONTINUOUS
 10
2.5022208174
 20
5.9581620873
 11
2.6498670987
 21
5.969098678
  0
LINE
  5
30E
100
AcDbEntity
  8
0
100
AcDbLine
 62
7
  6
CONTINUOUS
 10
2.6498670987
 20
5.969098678
 11
2.6614986524
 21
5.9699602296
  0
LINE
  5
30F
100
AcDbEntity
  8
0
100
AcDbLine
 62
7
  6
CONTINUOUS
 10
2.3474799379
 20
5.9466992698
 11
2.4801420454
 21
5.9565265886
  0
LINE
  5
310
100
AcDbEntity
  8
0
100
AcDbLine
 62
7
  6
CONTINUOUS
 10
4.1074027257
 20
5.6634128836
 11
4.1559604272
 21
5.6535855648
  0
SPLINE
  5
311
100
AcDbEntity
  8
0
100
AcDbSpline
 62
7
  6
CONTINUOUS
 70
0
 71
3
 72
15
 73
11
 74
0
 42
0.0000001
 43
0.0000001
 44
0.0000000001
 40
0.0
 40
0.0
 40
0.0
 40
0.0
 40
0.1437958117
 40
0.2865383665
 40
0.4243508601
 40
0.5547635058
 40
0.6767773328
 40
0.790401506
 40
0.897221617
 40
1.0
 40
1.0
 40
1.0
 40
1.0
 10
2.4801420454
 20
5.9565265886
 30
0.0
 10
2.4801032091
 20
5.9575740146
 30
0.0
 10
2.4801805896
 20
5.9596696108
 30
0.0
 10
2.4807264044
 20
5.9627243541
 30
0.0
 10
2.4816933918
 20
5.9655733514
 30
0.0
 10
2.4830534076
 20
5.9680879773
 30
0.0
 10
2.4847408267
 20
5.9701777055
 30
0.0
 10
2.4867107591
 20
5.9717477899
 30
0.0
 10
2.4888776752
 20
5.9727351675
 30
0.0
 10
2.4904129587
 20
5.9729681035
 30
0.0
 10
2.4911621228
 20
5.97296886
 30
0.0
  0
LINE
  5
312
100
AcDbEntity
  8
0
100
AcDbLine
 62
7
  6
CONTINUOUS
 10
4.1640418186
 20
5.6519500661
 11
4.2287955625
 21
5.6388458768
  0
SPLINE
  5
313
100
AcDbEntity
  8
0
100
AcDbSpline
 62
7
  6
CONTINUOUS
 70
0
 71
3
 72
15
 73
11
 74
0
 42
0.0000001
 43
0.0000001
 44
0.0000000001
 40
0.0
 40
0.0
 40
0.0
 40
0.0
 40
0.1228636787
 40
0.2460998238
 40
0.3698329271
 40
0.494243224
 40
0.6195416175
 40
0.7457842539
 40
0.8729117003
 40
1.0
 40
1.0
 40
1.0
 40
1.0
 10
8.688983369
 20
5.9877085483
 30
0.0
 10
8.6899327036
 20
5.9877078456
 30
0.0
 10
8.6918391901
 20
5.9875143365
 30
0.0
 10
8.6945885156
 20
5.9866766597
 30
0.0
 10
8.6971417998
 20
5.9853278299
 30
0.0
 10
8.6993976931
 20
5.9835003552
 30
0.0
 10
8.701285188
 20
5.9812703216
 30
0.0
 10
8.7027352094
 20
5.9787085869
 30
0.0
 10
8.7036831378
 20
5.9759092601
 30
0.0
 10
8.7039754541
 20
5.9739544319
 30
0.0
 10
8.7040318792
 20
5.972974077
 30
0.0
  0
SPLINE
  5
314
100
AcDbEntity
  8
0
100
AcDbSpline
 62
7
  6
CONTINUOUS
 70
0
 71
3
 72
19
 73
15
 74
0
 42
0.0000001
 43
0.0000001
 44
0.0000000001
 40
0.0
 40
0.0
 40
0.0
 40
0.0
 40
0.0236870997
 40
0.0505212796
 40
0.0825114784
 40
0.120660872
 40
0.1653983663
 40
0.2168536938
 40
0.2748909792
 40
0.3390938743
 40
0.4839304821
 40
0.6469318729
 40
0.8216359886
 40
1.0
 40
1.0
 40
1.0
 40
1.0
 10
4.2328296295
 20
5.6224035944
 30
0.0
 10
4.2326905037
 20
5.6224039737
 30
0.0
 10
4.2323919897
 20
5.6224690646
 30
0.0
 10
4.2319784644
 20
5.6227342575
 30
0.0
 10
4.2315827919
 20
5.6231488938
 30
0.0
 10
4.2312025485
 20
5.6237088603
 30
0.0
 10
4.2308389075
 20
5.6244106486
 30
0.0
 10
4.2304956833
 20
5.6252499927
 30
0.0
 10
4.2301763247
 20
5.626219609
 30
0.0
 10
4.229768892
 20
5.6277350873
 30
0.0
 10
4.2293511617
 20
5.6298827291
 30
0.0
 10
4.2290053018
 20
5.6326974803
 30
0.0
 10
4.2288092159
 20
5.6357236916
 30
0.0
 10
4.2287813448
 20
5.6377983511
 30
0.0
 10
4.2287955625
 20
5.6388458768
 30
0.0
  0
SPLINE
  5
315
100
AcDbEntity
  8
0
100
AcDbSpline
 62
7
  6
CONTINUOUS
 70
0
 71
3
 72
10
 73
6
 74
0
 42
0.0000001
 43
0.0000001
 44
0.0000000001
 40
0.0
 40
0.0
 40
0.0
 40
0.0
 40
0.2634315553
 40
0.5205486649
 40
1.0
 40
1.0
 40
1.0
 40
1.0
 10
2.679213307
 20
5.9741090435
 30
0.0
 10
2.679296244
 20
5.9749922614
 30
0.0
 10
2.6795650222
 20
5.9767305269
 30
0.0
 10
2.6804877509
 20
5.9799730647
 30
0.0
 10
2.681652676
 20
5.9822179967
 30
0.0
 10
2.6826275033
 20
5.9835050387
 30
0.0
  0
SPLINE
  5
316
100
AcDbEntity
  8
0
100
AcDbSpline
 62
7
  6
CONTINUOUS
 70
0
 71
3
 72
11
 73
7
 74
0
 42
0.0000001
 43
0.0000001
 44
0.0000000001
 40
0.0
 40
0.0
 40
0.0
 40
0.0
 40
0.2716179069
 40
0.5261013054
 40
0.7670228653
 40
1.0
 40
1.0
 40
1.0
 40
1.0
 10
2.6826275033
 20
5.9835050387
 30
0.0
 10
2.6831148524
 20
5.9841484745
 30
0.0
 10
2.6841702309
 20
5.9853174486
 30
0.0
 10
2.6860306191
 20
5.9866654407
 30
0.0
 10
2.6880456691
 20
5.9875101486
 30
0.0
 10
2.6894600611
 20
5.9877078482
 30
0.0
 10
2.690152399
 20
5.9877085483
 30
0.0
  0
LINE
  5
317
100
AcDbEntity
  8
0
100
AcDbLine
 62
7
  6
CONTINUOUS
 10
4.2368776836
 20
5.6372103782
 11
4.3340110674
 21
5.6175560767
  0
LINE
  5
318
100
AcDbEntity
  8
0
100
AcDbLine
 62
7
  6
CONTINUOUS
 10
8.9758628472
 20
5.9565265886
 11
9.0661761864
 21
5.9516290721
  0
LINE
  5
319
100
AcDbEntity
  8
0
100
AcDbLine
 62
7
  6
CONTINUOUS
 10
9.0661761864
 20
5.9516290721
 11
9.0964124396
 21
5.9499893916
  0
LINE
  5
31A
100
AcDbEntity
  8
0
100
AcDbLine
 62
7
  6
CONTINUOUS
 10
9.0964124396
 20
5.9499893916
 11
9.1570826561
 21
5.9466992698
  0
LINE
  5
31B
100
AcDbEntity
  8
0
100
AcDbLine
 62
7
  6
CONTINUOUS
 10
8.9113477947
 20
5.9600250358
 11
8.9457026837
 21
5.9581620873
  0
SPLINE
  5
31C
100
AcDbEntity
  8
0
100
AcDbSpline
 62
7
  6
CONTINUOUS
 70
0
 71
3
 72
19
 73
15
 74
0
 42
0.0000001
 43
0.0000001
 44
0.0000000001
 40
0.0
 40
0.0
 40
0.0
 40
0.0
 40
0.0236864145
 40
0.0505206155
 40
0.0825117199
 40
0.1206627419
 40
0.1654023286
 40
0.2168599356
 40
0.2748993708
 40
0.3391040796
 40
0.4839426284
 40
0.6469425711
 40
0.8216419673
 40
1.0
 40
1.0
 40
1.0
 40
1.0
 10
4.1599941332
 20
5.6371432828
 30
0.0
 10
4.1598550128
 20
5.6371436615
 30
0.0
 10
4.1595565053
 20
5.6372087609
 30
0.0
 10
4.1591430009
 20
5.6374739817
 30
0.0
 10
4.1587473515
 20
5.6378886529
 30
0.0
 10
4.1583671324
 20
5.6384486606
 30
0.0
 10
4.1580035173
 20
5.6391504932
 30
0.0
 10
4.1576603221
 20
5.6399898809
 30
0.0
 10
4.1573409945
 20
5.6409595356
 30
0.0
 10
4.1569336089
 20
5.6424750466
 30
0.0
 10
4.1565159355
 20
5.6446226911
 30
0.0
 10
4.1561701282
 20
5.6474373957
 30
0.0
 10
4.1559740755
 20
5.6504635078
 30
0.0
 10
4.1559462114
 20
5.6525380842
 30
0.0
 10
4.1559604272
 20
5.6535855648
 30
0.0
  0
LINE
  5
31D
100
AcDbEntity
  8
0
100
AcDbLine
 62
7
  6
CONTINUOUS
 10
8.3113688115
 20
5.9925560767
 11
8.4007737967
 21
5.9877090435
  0
LINE
  5
31E
100
AcDbEntity
  8
0
100
AcDbLine
 62
7
  6
CONTINUOUS
 10
8.6395233337
 20
5.9747644051
 11
8.673875535
 21
5.9729017752
  0
SPLINE
  5
31F
100
AcDbEntity
  8
0
100
AcDbSpline
 62
7
  6
CONTINUOUS
 70
0
 71
3
 72
15
 73
11
 74
0
 42
0.0000001
 43
0.0000001
 44
0.0000000001
 40
0.0
 40
0.0
 40
0.0
 40
0.0
 40
0.1227907052
 40
0.2459962032
 40
0.3697497749
 40
0.4942959106
 40
0.6198134544
 40
0.7463731868
 40
0.8735449569
 40
1.0
 40
1.0
 40
1.0
 40
1.0
 10
8.9608091414
 20
5.97296886
 30
0.0
 10
8.9618274748
 20
5.9729681073
 30
0.0
 10
8.9638735738
 20
5.9727450974
 30
0.0
 10
8.9668069496
 20
5.9717839511
 30
0.0
 10
8.969498028
 20
5.9702380473
 30
0.0
 10
8.9718244706
 20
5.9681566743
 30
0.0
 10
8.9737065024
 20
5.9656376825
 30
0.0
 10
8.9750499757
 20
5.9627698181
 30
0.0
 10
8.9758083727
 20
5.9596904806
 30
0.0
 10
8.9759158962
 20
5.957573969
 30
0.0
 10
8.9758628472
 20
5.9565265886
 30
0.0
  0
SPLINE
  5
320
100
AcDbEntity
  8
0
100
AcDbSpline
 62
7
  6
CONTINUOUS
 70
0
 71
3
 72
43
 73
39
 74
0
 42
0.0000001
 43
0.0000001
 44
0.0000000001
 40
0.0
 40
0.0
 40
0.0
 40
0.0
 40
0.0639217868
 40
0.1277816979
 40
0.1915535211
 40
0.2233945611
 40
0.2551943241
 40
0.2869418473
 40
0.3186162976
 40
0.3501905444
 40
0.3816232081
 40
0.3972556645
 40
0.4128121776
 40
0.4282665899
 40
0.443600371
 40
0.4587590457
 40
0.4735923253
 40
0.4881636062
 40
0.5022183376
 40
0.5091678791
 40
0.5162060577
 40
0.5233745045
 40
0.5306378534
 40
0.5452716976
 40
0.560187077
 40
0.5753020533
 40
0.5905530178
 40
0.6059179602
 40
0.6213649726
 40
0.6524501322
 40
0.6837084349
 40
0.7150903672
 40
0.7465641817
 40
0.7781065456
 40
0.8097039996
 40
0.8730224542
 40
0.9364656798
 40
1.0
 40
1.0
 40
1.0
 40
1.0
 10
6.4944414086
 20
5.9925560767
 30
0.0
 10
6.4933395277
 20
5.9975560447
 30
0.0
 10
6.4910682488
 20
6.007536261
 30
0.0
 10
6.4874100467
 20
6.0224374598
 30
0.0
 10
6.4840965141
 20
6.0347750764
 30
0.0
 10
6.4812352147
 20
6.0445715371
 30
0.0
 10
6.4789652748
 20
6.0518673558
 30
0.0
 10
6.4765481053
 20
6.0591018556
 30
0.0
 10
6.4739482398
 20
6.0662540715
 30
0.0
 10
6.4711186006
 20
6.0732917189
 30
0.0
 10
6.4685133338
 20
6.0790303788
 30
0.0
 10
6.4662153425
 20
6.0834900036
 30
0.0
 10
6.4643710253
 20
6.0867404365
 30
0.0
 10
6.4623737508
 20
6.0898720792
 30
0.0
 10
6.4601886317
 20
6.0928370929
 30
0.0
 10
6.4577922403
 20
6.0955735286
 30
0.0
 10
6.4550543864
 20
6.0978955538
 30
0.0
 10
6.4519534586
 20
6.0995436423
 30
0.0
 10
6.4491017778
 20
6.1001393015
 30
0.0
 10
6.4468520199
 20
6.0999188203
 30
0.0
 10
6.4452153804
 20
6.0994513321
 30
0.0
 10
6.4436453077
 20
6.0987369302
 30
0.0
 10
6.4416585372
 20
6.0975139777
 30
0.0
 10
6.4394156861
 20
6.0955702909
 30
0.0
 10
6.4370962323
 20
6.0928372746
 30
0.0
 10
6.4350034831
 20
6.0898709776
 30
0.0
 10
6.4330987602
 20
6.0867396295
 30
0.0
 10
6.4313518709
 20
6.0834883985
 30
0.0
 10
6.4291855994
 20
6.0790277374
 30
0.0
 10
6.426751153
 20
6.073288178
 30
0.0
 10
6.4241314575
 20
6.0662513253
 30
0.0
 10
6.4217449539
 20
6.0590995283
 30
0.0
 10
6.4195434244
 20
6.0518654316
 30
0.0
 10
6.4174909647
 20
6.0445698979
 30
0.0
 10
6.4149212257
 20
6.0347719453
 30
0.0
 10
6.4119751721
 20
6.0224331095
 30
0.0
 10
6.4087614033
 20
6.0075327893
 30
0.0
 10
6.4067881929
 20
5.9975550306
 30
0.0
 10
6.4058355907
 20
5.9925560767
 30
0.0
  0
LINE
  5
321
100
AcDbEntity
  8
0
100
AcDbLine
 62
7
  6
CONTINUOUS
 10
1.7750029866
 20
5.337220493
 11
1.7075255281
 21
5.3406381209
  0
LINE
  5
322
100
AcDbEntity
  8
0
100
AcDbLine
 62
7
  6
CONTINUOUS
 10
1.7075255281
 20
5.3406381209
 11
1.7074092809
 21
5.3406403059
  0
LINE
  5
323
100
AcDbEntity
  8
0
100
AcDbLine
 62
7
  6
CONTINUOUS
 10
8.8453844082
 20
5.3428109225
 11
8.8443995512
 21
5.3427737525
  0
LINE
  5
324
100
AcDbEntity
  8
0
100
AcDbLine
 62
7
  6
CONTINUOUS
 10
8.8443995512
 20
5.3427737525
 11
8.8204928607
 21
5.3418768599
  0
SPLINE
  5
325
100
AcDbEntity
  8
0
100
AcDbSpline
 62
7
  6
CONTINUOUS
 70
0
 71
3
 72
18
 73
14
 74
0
 42
0.0000001
 43
0.0000001
 44
0.0000000001
 40
0.0
 40
0.0
 40
0.0
 40
0.0
 40
0.0175593294
 40
0.0432655156
 40
0.076869482
 40
0.1180513073
 40
0.166412162
 40
0.2214847805
 40
0.3495747062
 40
0.4973852643
 40
0.6592428311
 40
0.8289397932
 40
1.0
 40
1.0
 40
1.0
 40
1.0
 10
8.6950482685
 20
5.3427838472
 30
0.0
 10
8.6945126673
 20
5.3428077958
 30
0.0
 10
8.693191404
 20
5.3428264769
 30
0.0
 10
8.6908444525
 20
5.3428178597
 30
0.0
 10
8.6877764065
 20
5.3427705746
 30
0.0
 10
8.6840173435
 20
5.3426859457
 30
0.0
 10
8.6796035006
 20
5.342563522
 30
0.0
 10
8.6725379648
 20
5.3423397312
 30
0.0
 10
8.6624390891
 20
5.3419709026
 30
0.0
 10
8.649084216
 20
5.3414249344
 30
0.0
 10
8.6344622775
 20
5.3407741889
 30
0.0
 10
8.6191334443
 20
5.3400425565
 30
0.0
 10
8.6087425704
 20
5.3395140085
 30
0.0
 10
8.6035267921
 20
5.3392402918
 30
0.0
  0
SPLINE
  5
326
100
AcDbEntity
  8
0
100
AcDbSpline
 62
7
  6
CONTINUOUS
 70
0
 71
3
 72
16
 73
12
 74
0
 42
0.0000001
 43
0.0000001
 44
0.0000000001
 40
0.0
 40
0.0
 40
0.0
 40
0.0
 40
0.1463547267
 40
0.2980403621
 40
0.4487320264
 40
0.5927576058
 40
0.7245697903
 40
0.8390620057
 40
0.9320427194
 40
0.9693425717
 40
1.0
 40
1.0
 40
1.0
 40
1.0
 10
5.9584011125
 20
5.3410848157
 30
0.0
 10
5.953367065
 20
5.3411329627
 30
0.0
 10
5.9431149651
 20
5.3411696438
 30
0.0
 10
5.9276796744
 20
5.3410707284
 30
0.0
 10
5.9123261444
 20
5.3408224754
 30
0.0
 10
5.8976593821
 20
5.3404331224
 30
0.0
 10
5.8842422484
 20
5.3399203431
 30
0.0
 10
5.8725875989
 20
5.3393030241
 30
0.0
 10
5.8641889028
 20
5.3386917692
 30
0.0
 10
5.8586799902
 20
5.3381431404
 30
0.0
 10
5.8563595844
 20
5.3378565593
 30
0.0
 10
5.8553158867
 20
5.3377056769
 30
0.0
  0
SPLINE
  5
327
100
AcDbEntity
  8
0
100
AcDbSpline
 62
7
  6
CONTINUOUS
 70
0
 71
3
 72
13
 73
9
 74
0
 42
0.0000001
 43
0.0000001
 44
0.0000000001
 40
0.0
 40
0.0
 40
0.0
 40
0.0
 40
0.313444533
 40
0.5790206375
 40
0.6960001613
 40
0.8039699174
 40
0.9046022363
 40
1.0
 40
1.0
 40
1.0
 40
1.0
 10
8.7354267369
 20
4.6858313139
 30
0.0
 10
8.7364719541
 20
4.6875186999
 30
0.0
 10
8.7385507839
 20
4.6905490521
 30
0.0
 10
8.7415398011
 20
4.6938204687
 30
0.0
 10
8.7439667738
 20
4.6957686607
 30
0.0
 10
8.7457208518
 20
4.6968631006
 30
0.0
 10
8.7474850575
 20
4.6976498823
 30
0.0
 10
8.7486909859
 20
4.6979718492
 30
0.0
 10
8.7492860846
 20
4.6980757696
 30
0.0
  0
LINE
  5
328
100
AcDbEntity
  8
0
100
AcDbLine
 62
7
  6
CONTINUOUS
 10
1.7074092956
 20
5.3406403444
 11
1.7083922501
 21
5.3405794535
  0
SPLINE
  5
329
100
AcDbEntity
  8
0
100
AcDbSpline
 62
7
  6
CONTINUOUS
 70
0
 71
3
 72
27
 73
23
 74
0
 42
0.0000001
 43
0.0000001
 44
0.0000000001
 40
0.0
 40
0.0
 40
0.0
 40
0.0
 40
0.0398075141
 40
0.0779054727
 40
0.1146119078
 40
0.1501380915
 40
0.2179744059
 40
0.2814740549
 40
0.3396634321
 40
0.3671295739
 40
0.3939170771
 40
0.420296222
 40
0.4465008453
 40
0.4727006742
 40
0.4990188544
 40
0.552473012
 40
0.6077579766
 40
0.6654926187
 40
0.7260041786
 40
0.7895812
 40
0.8564148236
 40
1.0
 40
1.0
 40
1.0
 40
1.0
 10
8.6918910295
 20
3.7529053709
 30
0.0
 10
8.694691868
 20
3.7529056562
 30
0.0
 10
8.7001789267
 20
3.7532174924
 30
0.0
 10
8.7081406131
 20
3.7545967603
 30
0.0
 10
8.7156109756
 20
3.7567648785
 30
0.0
 10
8.7247479922
 20
3.7604984111
 30
0.0
 10
8.7349102469
 20
3.7665219224
 30
0.0
 10
8.7451440961
 20
3.7751412798
 30
0.0
 10
8.7522179804
 20
3.7829343112
 30
0.0
 10
8.7569678803
 20
3.7892657429
 30
0.0
 10
8.7601201101
 20
3.7939858698
 30
0.0
 10
8.7629997156
 20
3.7987725674
 30
0.0
 10
8.7656817902
 20
3.803624788
 30
0.0
 10
8.7682117773
 20
3.8085530649
 30
0.0
 10
8.7714163728
 20
3.8152865084
 30
0.0
 10
8.7751343193
 20
3.8240366758
 30
0.0
 10
8.7792064995
 20
3.8350224959
 30
0.0
 10
8.7830088288
 20
3.8466276684
 30
0.0
 10
8.7865835663
 20
3.8589131501
 30
0.0
 10
8.7899738765
 20
3.871913043
 30
0.0
 10
8.794393549
 20
3.8906791778
 30
0.0
 10
8.797316605
 20
3.9051977523
 30
0.0
 10
8.7991508777
 20
3.9151324249
 30
0.0
  0
LINE
  5
32A
100
AcDbEntity
  8
0
100
AcDbLine
 62
7
  6
CONTINUOUS
 10
1.7153231625
 20
5.3402015202
 11
1.7225509462
 21
5.3398373534
  0
LINE
  5
32B
100
AcDbEntity
  8
0
100
AcDbLine
 62
7
  6
CONTINUOUS
 10
1.7225509462
 20
5.3398373534
 11
1.7330406712
 21
5.3393636069
  0
SPLINE
  5
32C
100
AcDbEntity
  8
0
100
AcDbSpline
 62
7
  6
CONTINUOUS
 70
0
 71
3
 72
32
 73
28
 74
0
 42
0.0000001
 43
0.0000001
 44
0.0000000001
 40
0.0
 40
0.0
 40
0.0
 40
0.0
 40
0.0171141148
 40
0.0370241328
 40
0.0596336784
 40
0.0848198786
 40
0.1124388497
 40
0.1423140474
 40
0.1742601385
 40
0.2080802531
 40
0.2804622447
 40
0.3576575307
 40
0.4377710273
 40
0.518883576
 40
0.5990871094
 40
0.676545893
 40
0.7495359781
 40
0.8164815782
 40
0.8472520133
 40
0.8760046871
 40
0.9026035233
 40
0.9269406534
 40
0.9489154102
 40
0.9684456808
 40
0.985480917
 40
0.9930553349
 40
1.0
 40
1.0
 40
1.0
 40
1.0
 10
8.7281815727
 20
3.9630539486
 30
0.0
 10
8.7266083564
 20
3.9669134403
 30
0.0
 10
8.7235847995
 20
3.9754181447
 30
0.0
 10
8.7195483277
 20
3.989374034
 30
0.0
 10
8.7156907263
 20
4.0054097736
 30
0.0
 10
8.7120419843
 20
4.0234126713
 30
0.0
 10
8.7086300209
 20
4.0432592283
 30
0.0
 10
8.7054736986
 20
4.0648127015
 30
0.0
 10
8.7025948169
 20
4.0879273628
 30
0.0
 10
8.6990735043
 20
4.1213875734
 30
0.0
 10
8.6955465916
 20
4.1659191792
 30
0.0
 10
8.6927226475
 20
4.221790994
 30
0.0
 10
8.6912808546
 20
4.2798421178
 30
0.0
 10
8.6912482394
 20
4.3386433376
 30
0.0
 10
8.6926189842
 20
4.3967819801
 30
0.0
 10
8.6953448569
 20
4.4528932169
 30
0.0
 10
8.6993513194
 20
4.5056905168
 30
0.0
 10
8.7037835423
 20
4.5470351525
 30
0.0
 10
8.7079560107
 20
4.5775521999
 30
0.0
 10
8.7112453382
 20
4.5982679142
 30
0.0
 10
8.7147640808
 20
4.6173552505
 30
0.0
 10
8.7184896572
 20
4.6347189627
 30
0.0
 10
8.7224015586
 20
4.6502734357
 30
0.0
 10
8.726478829
 20
4.6639393951
 30
0.0
 10
8.7301154099
 20
4.6740642608
 30
0.0
 10
8.733125805
 20
4.6811364945
 30
0.0
 10
8.7346540939
 20
4.6843268815
 30
0.0
 10
8.7354267369
 20
4.6858313139
 30
0.0
  0
LINE
  5
32D
100
AcDbEntity
  8
0
100
AcDbLine
 62
7
  6
CONTINUOUS
 10
2.019271697
 20
5.3057303587
 11
2.0162183649
 21
5.3058885174
  0
LINE
  5
32E
100
AcDbEntity
  8
0
100
AcDbLine
 62
7
  6
CONTINUOUS
 10
2.0162183649
 20
5.3058885174
 11
1.7770679254
 21
5.3182951078
  0
LINE
  5
32F
100
AcDbEntity
  8
0
100
AcDbLine
 62
7
  6
CONTINUOUS
 10
2.5224739758
 20
4.339152951
 11
2.5261963761
 21
5.0813701499
  0
LINE
  5
330
100
AcDbEntity
  8
0
100
AcDbLine
 62
7
  6
CONTINUOUS
 10
2.017190683
 20
5.3246565421
 11
1.7750029866
 21
5.337220493
  0
SPLINE
  5
331
100
AcDbEntity
  8
0
100
AcDbSpline
 62
7
  6
CONTINUOUS
 70
0
 71
3
 72
11
 73
7
 74
0
 42
0.0000001
 43
0.0000001
 44
0.0000000001
 40
0.0
 40
0.0
 40
0.0
 40
0.0
 40
0.2170111228
 40
0.450437711
 40
0.7094779726
 40
1.0
 40
1.0
 40
1.0
 40
1.0
 10
5.78692216
 20
5.3061783644
 30
0.0
 10
5.7853072569
 20
5.3059455098
 30
0.0
 10
5.782009448
 20
5.3050007153
 30
0.0
 10
5.7773494867
 20
5.3023205082
 30
0.0
 10
5.772912079
 20
5.2984046259
 30
0.0
 10
5.7702773822
 20
5.2952011993
 30
0.0
 10
5.7689934278
 20
5.2934341053
 30
0.0
  0
LINE
  5
332
100
AcDbEntity
  8
0
100
AcDbLine
 62
7
  6
CONTINUOUS
 10
5.8741398715
 20
5.318781241
 11
5.78692216
 21
5.3061783644
  0
LINE
  5
333
100
AcDbEntity
  8
0
100
AcDbLine
 62
7
  6
CONTINUOUS
 10
5.6146693047
 20
5.0817373957
 11
5.6546353412
 21
4.3395253914
  0
SPLINE
  5
334
100
AcDbEntity
  8
0
100
AcDbSpline
 62
7
  6
CONTINUOUS
 70
0
 71
3
 72
25
 73
21
 74
0
 42
0.0000001
 43
0.0000001
 44
0.0000000001
 40
0.0
 40
0.0
 40
0.0
 40
0.0
 40
0.00255136
 40
0.0043828946
 40
0.0066881246
 40
0.0128411186
 40
0.0211500712
 40
0.0316639645
 40
0.0444037789
 40
0.0593546679
 40
0.0764805828
 40
0.1170977737
 40
0.165925122
 40
0.222618805
 40
0.2868057998
 40
0.3579788022
 40
0.4355834992
 40
0.6078595657
 40
0.7983451676
 40
1.0
 40
1.0
 40
1.0
 40
1.0
 10
1.785381688
 20
4.3386259213
 30
0.0
 10
1.785384854
 20
4.338582944
 30
0.0
 10
1.7854358491
 20
4.3385166474
 30
0.0
 10
1.7855294979
 20
4.3384561361
 30
0.0
 10
1.7856875417
 20
4.338381108
 30
0.0
 10
1.7859594714
 20
4.3382998081
 30
0.0
 10
1.7863727001
 20
4.3382135849
 30
0.0
 10
1.7869001658
 20
4.3381348059
 30
0.0
 10
1.7875415703
 20
4.3380632291
 30
0.0
 10
1.7882959288
 20
4.3379994874
 30
0.0
 10
1.7895212866
 20
4.3379205436
 30
0.0
 10
1.7913200712
 20
4.3378478041
 30
0.0
 10
1.7937879732
 20
4.3377963768
 30
0.0
 10
1.7966544593
 20
4.3377782787
 30
0.0
 10
1.7998983585
 20
4.3377941144
 30
0.0
 10
1.803495143
 20
4.3378437032
 30
0.0
 10
1.8089167331
 20
4.3379585645
 30
0.0
 10
1.8163513752
 20
4.3381886743
 30
0.0
 10
1.825876843
 20
4.3385775581
 30
0.0
 10
1.8324924075
 20
4.3389026131
 30
0.0
 10
1.8358936831
 20
4.3390830197
 30
0.0
  0
SPLINE
  5
335
100
AcDbEntity
  8
0
100
AcDbSpline
 62
7
  6
CONTINUOUS
 70
0
 71
3
 72
11
 73
7
 74
0
 42
0.0000001
 43
0.0000001
 44
0.0000000001
 40
0.0
 40
0.0
 40
0.0
 40
0.0
 40
0.2503985977
 40
0.5007146211
 40
0.7506604871
 40
1.0
 40
1.0
 40
1.0
 40
1.0
 10
7.8079704645
 20
4.3428295903
 30
0.0
 10
7.8079736699
 20
4.3380489942
 30
0.0
 10
7.8071001041
 20
4.3284669897
 30
0.0
 10
7.803234916
 20
4.3145882641
 30
0.0
 10
7.7969504165
 20
4.3016477729
 30
0.0
 10
7.7912942346
 20
4.2939007972
 30
0.0
 10
7.7881539408
 20
4.290323124
 30
0.0
  0
LINE
  5
336
100
AcDbEntity
  8
0
100
AcDbLine
 62
7
  6
CONTINUOUS
 10
8.6076506334
 20
5.3192675117
 11
8.3417477716
 21
5.3053243996
  0
SPLINE
  5
337
100
AcDbEntity
  8
0
100
AcDbSpline
 62
7
  6
CONTINUOUS
 70
0
 71
3
 72
11
 73
7
 74
0
 42
0.0000001
 43
0.0000001
 44
0.0000000001
 40
0.0
 40
0.0
 40
0.0
 40
0.0
 40
0.2507894557
 40
0.5008393567
 40
0.7504774314
 40
1.0
 40
1.0
 40
1.0
 40
1.0
 10
7.7881516284
 20
4.2903231237
 30
0.0
 10
7.7843238517
 20
4.2861117891
 30
0.0
 10
7.7757359123
 20
4.2785117875
 30
0.0
 10
7.7607951728
 20
4.2700905547
 30
0.0
 10
7.744465166
 20
4.2649559924
 30
0.0
 10
7.7331048158
 20
4.2638052737
 30
0.0
 10
7.7274425884
 20
4.2638079175
 30
0.0
  0
SPLINE
  5
338
100
AcDbEntity
  8
0
100
AcDbSpline
 62
7
  6
CONTINUOUS
 70
0
 71
3
 72
13
 73
9
 74
0
 42
0.0000001
 43
0.0000001
 44
0.0000000001
 40
0.0
 40
0.0
 40
0.0
 40
0.0
 40
0.2680603196
 40
0.528889722
 40
0.654218667
 40
0.7750472669
 40
0.8905706217
 40
1.0
 40
1.0
 40
1.0
 40
1.0
 10
8.6077527575
 20
4.2904110514
 30
0.0
 10
8.6077556894
 20
4.2604039498
 30
0.0
 10
8.6085338882
 20
4.2011965689
 30
0.0
 10
8.6114484101
 20
4.1280101532
 30
0.0
 10
8.614964764
 20
4.071364318
 30
0.0
 10
8.6181071765
 20
4.030997433
 30
0.0
 10
8.6217652943
 20
3.9924614964
 30
0.0
 10
8.6246123762
 20
3.9674393813
 30
0.0
 10
8.6261298806
 20
3.9552840397
 30
0.0
  0
SPLINE
  5
339
100
AcDbEntity
  8
0
100
AcDbSpline
 62
7
  6
CONTINUOUS
 70
0
 71
3
 72
24
 73
20
 74
0
 42
0.0000001
 43
0.0000001
 44
0.0000000001
 40
0.0
 40
0.0
 40
0.0
 40
0.0
 40
0.2064682909
 40
0.3019927484
 40
0.3920046673
 40
0.4762454188
 40
0.5545117491
 40
0.6266231469
 40
0.6924151529
 40
0.751761056
 40
0.8046237812
 40
0.8510338627
 40
0.8911122837
 40
0.925151155
 40
0.9537681231
 40
0.9663882191
 40
0.9781237885
 40
0.9892275507
 40
1.0
 40
1.0
 40
1.0
 40
1.0
 10
8.6261298806
 20
3.9552840397
 30
0.0
 10
8.6280038599
 20
3.9402733021
 30
0.0
 10
8.6310377119
 20
3.9183513899
 30
0.0
 10
8.6357137384
 20
3.8900124155
 30
0.0
 10
8.6393032989
 20
3.8705739651
 30
0.0
 10
8.6430568117
 20
3.8524558063
 30
0.0
 10
8.6469605963
 20
3.8357131263
 30
0.0
 10
8.651001156
 20
3.8203964948
 30
0.0
 10
8.6551652525
 20
3.8065540213
 30
0.0
 10
8.6594416786
 20
3.7942287308
 30
0.0
 10
8.6638146131
 20
3.7834543269
 30
0.0
 10
8.6682693339
 20
3.7742576629
 30
0.0
 10
8.6727964667
 20
3.7666576509
 30
0.0
 10
8.67739217
 20
3.7606711156
 30
0.0
 10
8.681454144
 20
3.7568772717
 30
0.0
 10
8.684736061
 20
3.7547858941
 30
0.0
 10
8.6871095582
 20
3.7537052085
 30
0.0
 10
8.6894954525
 20
3.7530519473
 30
0.0
 10
8.6911017671
 20
3.7529052899
 30
0.0
 10
8.6918910295
 20
3.7529053709
 30
0.0
  0
SPLINE
  5
33A
100
AcDbEntity
  8
0
100
AcDbSpline
 62
7
  6
CONTINUOUS
 70
0
 71
3
 72
23
 73
19
 74
0
 42
0.0000001
 43
0.0000001
 44
0.0000000001
 40
0.0
 40
0.0
 40
0.0
 40
0.0
 40
0.2107064279
 40
0.405015593
 40
0.5775762692
 40
0.6542775918
 40
0.7240953602
 40
0.7866815877
 40
0.841689384
 40
0.8887792757
 40
0.9277106374
 40
0.9583310542
 40
0.9805094579
 40
0.9884099186
 40
0.9941940754
 40
0.9963120887
 40
0.9979411485
 40
1.0
 40
1.0
 40
1.0
 40
1.0
 10
7.0045535988
 20
4.3396648972
 30
0.0
 10
7.0072519737
 20
4.3395139133
 30
0.0
 10
7.0124394852
 20
4.3392368367
 30
0.0
 10
7.0198393504
 20
4.3388846832
 30
0.0
 10
7.0255241656
 20
4.3386543753
 30
0.0
 10
7.0296145809
 20
4.3385192065
 30
0.0
 10
7.0322956558
 20
4.3384458785
 30
0.0
 10
7.0346989844
 20
4.33839674
 30
0.0
 10
7.0368111745
 20
4.3383718477
 30
0.0
 10
7.0386200936
 20
4.3383715182
 30
0.0
 10
7.040116149
 20
4.3383947705
 30
0.0
 10
7.0412917898
 20
4.3384421348
 30
0.0
 10
7.0420686108
 20
4.3385015019
 30
0.0
 10
7.0425239666
 20
4.3385695122
 30
0.0
 10
7.042721858
 20
4.3386130856
 30
0.0
 10
7.042837721
 20
4.338655636
 30
0.0
 10
7.0429025814
 20
4.3386879863
 30
0.0
 10
7.0429418871
 20
4.3387278229
 30
0.0
 10
7.0429429075
 20
4.3387542107
 30
0.0
  0
SPLINE
  5
33B
100
AcDbEntity
  8
0
100
AcDbSpline
 62
7
  6
CONTINUOUS
 70
0
 71
3
 72
17
 73
13
 74
0
 42
0.0000001
 43
0.0000001
 44
0.0000000001
 40
0.0
 40
0.0
 40
0.0
 40
0.0
 40
0.146335619
 40
0.2980207694
 40
0.4487140872
 40
0.592696315
 40
0.7244114471
 40
0.838790798
 40
0.8881799978
 40
0.9317471707
 40
0.9691314222
 40
1.0
 40
1.0
 40
1.0
 40
1.0
 10
5.9514355423
 20
5.3221579061
 30
0.0
 10
5.9476573523
 20
5.3222757268
 30
0.0
 10
5.9399602433
 20
5.3224362154
 30
0.0
 10
5.9283689221
 20
5.3224726418
 30
0.0
 10
5.9168394639
 20
5.3223069404
 30
0.0
 10
5.905830451
 20
5.3219464769
 30
0.0
 10
5.8957679934
 20
5.321407342
 30
0.0
 10
5.8881578041
 20
5.320802969
 30
0.0
 10
5.8828327961
 20
5.3202269112
 30
0.0
 10
5.879494419
 20
5.3197865336
 30
0.0
 10
5.8766429989
 20
5.3193230245
 30
0.0
 10
5.874914831
 20
5.3189688887
 30
0.0
 10
5.8741398744
 20
5.3187811503
 30
0.0
  0
SPLINE
  5
33C
100
AcDbEntity
  8
0
100
AcDbSpline
 62
7
  6
CONTINUOUS
 70
0
 71
3
 72
16
 73
12
 74
0
 42
0.0000001
 43
0.0000001
 44
0.0000000001
 40
0.0
 40
0.0
 40
0.0
 40
0.0
 40
0.0309184202
 40
0.0684890103
 40
0.161931543
 40
0.2767444856
 40
0.4084370662
 40
0.5521640975
 40
0.7025885369
 40
0.8540386626
 40
1.0
 40
1.0
 40
1.0
 40
1.0
 10
5.9037562903
 20
4.3395667232
 30
0.0
 10
5.9045465733
 20
4.3394524176
 30
0.0
 10
5.9063038925
 20
4.3392460757
 30
0.0
 10
5.9104706938
 20
4.3388852185
 30
0.0
 10
5.9168123766
 20
4.338553305
 30
0.0
 10
5.9255893585
 20
4.3383220849
 30
0.0
 10
5.9356678947
 20
4.3382485411
 30
0.0
 10
5.9466658262
 20
4.3383390066
 30
0.0
 10
5.958171664
 20
4.3385898206
 30
0.0
 10
5.9697307961
 20
4.3389947751
 30
0.0
 10
5.9774032241
 20
4.3393643756
 30
0.0
 10
5.9811669582
 20
4.3395751892
 30
0.0
  0
SPLINE
  5
33D
100
AcDbEntity
  8
0
100
AcDbSpline
 62
7
  6
CONTINUOUS
 70
0
 71
3
 72
27
 73
23
 74
0
 42
0.0000001
 43
0.0000001
 44
0.0000000001
 40
0.0
 40
0.0
 40
0.0
 40
0.0
 40
0.2019962376
 40
0.3927664617
 40
0.4817793822
 40
0.5656232982
 40
0.6436520133
 40
0.7152330372
 40
0.779819435
 40
0.8368975343
 40
0.8859553651
 40
0.9073365724
 40
0.9265716881
 40
0.9436286741
 40
0.9584757071
 40
0.9710813396
 40
0.9814148443
 40
0.9894481228
 40
0.9951767928
 40
0.9986283788
 40
0.9995344015
 40
1.0
 40
1.0
 40
1.0
 40
1.0
 10
1.7770679077
 20
5.3182954075
 30
0.0
 10
1.7736537745
 20
5.3185911586
 30
0.0
 10
1.7670144135
 20
5.3191566165
 30
0.0
 10
1.758868219
 20
5.3198245469
 30
0.0
 10
1.7527183754
 20
5.3203107363
 30
0.0
 10
1.7484745824
 20
5.3206373436
 30
0.0
 10
1.7445249534
 20
5.3209320216
 30
0.0
 10
1.7409004027
 20
5.3211925057
 30
0.0
 10
1.7376296247
 20
5.3214169269
 30
0.0
 10
1.7347392901
 20
5.3216036151
 30
0.0
 10
1.7325797176
 20
5.3217318682
 30
0.0
 10
1.7310605475
 20
5.3218132959
 30
0.0
 10
1.7300832792
 20
5.3218612449
 30
0.0
 10
1.7292164926
 20
5.3218988963
 30
0.0
 10
1.7284618922
 20
5.3219262822
 30
0.0
 10
1.7278209656
 20
5.3219432554
 30
0.0
 10
1.7272957763
 20
5.3219503501
 30
0.0
 10
1.7268863323
 20
5.3219465716
 30
0.0
 10
1.7265958835
 20
5.3219354742
 30
0.0
 10
1.7264231665
 20
5.3219138662
 30
0.0
 10
1.726346238
 20
5.3218938705
 30
0.0
 10
1.7263257514
 20
5.3218747784
 30
0.0
 10
1.7263260829
 20
5.3218668864
 30
0.0
  0
SPLINE
  5
33E
100
AcDbEntity
  8
0
100
AcDbSpline
 62
7
  6
CONTINUOUS
 70
0
 71
3
 72
17
 73
13
 74
0
 42
0.0000001
 43
0.0000001
 44
0.0000000001
 40
0.0
 40
0.0
 40
0.0
 40
0.0
 40
0.036169848
 40
0.0766212222
 40
0.1213830827
 40
0.1704161327
 40
0.2807983212
 40
0.4061465744
 40
0.5441968581
 40
0.6918282661
 40
0.84537322
 40
1.0
 40
1.0
 40
1.0
 40
1.0
 10
5.6146693047
 20
5.0817373957
 30
0.0
 10
5.6140922833
 20
5.0812159985
 30
0.0
 10
5.6128013058
 20
5.0801866827
 30
0.0
 10
5.610617259
 20
5.0787531196
 30
0.0
 10
5.6080897707
 20
5.0773541122
 30
0.0
 10
5.6041194849
 20
5.0754752348
 30
0.0
 10
5.5983751041
 20
5.07332604
 30
0.0
 10
5.59063909
 20
5.071124849
 30
0.0
 10
5.5819888165
 20
5.069285766
 30
0.0
 10
5.5726477409
 20
5.0678628659
 30
0.0
 10
5.5628887515
 20
5.0669177306
 30
0.0
 10
5.5562658847
 20
5.0666184112
 30
0.0
 10
5.5529417678
 20
5.066558404
 30
0.0
  0
LINE
  5
33F
100
AcDbEntity
  8
0
100
AcDbLine
 62
7
  6
CONTINUOUS
 10
5.5910742688
 20
4.3426579095
 11
5.6546353173
 21
4.3395258026
  0
SPLINE
  5
340
100
AcDbEntity
  8
0
100
AcDbSpline
 62
7
  6
CONTINUOUS
 70
0
 71
3
 72
18
 73
14
 74
0
 42
0.0000001
 43
0.0000001
 44
0.0000000001
 40
0.0
 40
0.0
 40
0.0
 40
0.0
 40
0.0139196944
 40
0.0360529213
 40
0.0661761943
 40
0.1040571402
 40
0.1494046596
 40
0.2017787523
 40
0.3257479936
 40
0.4720885904
 40
0.6364655854
 40
0.8142271441
 40
1.0
 40
1.0
 40
1.0
 40
1.0
 10
2.576446461
 20
5.0662049017
 30
0.0
 10
2.5762065122
 20
5.0662467203
 30
0.0
 10
2.5755919026
 20
5.0663914849
 30
0.0
 10
2.5744710932
 20
5.0666814125
 30
0.0
 10
2.5729505547
 20
5.067101074
 30
0.0
 10
2.5710429927
 20
5.0676442106
 30
0.0
 10
2.5687648118
 20
5.0683075553
 30
0.0
 10
2.5650448026
 20
5.0694071684
 30
0.0
 10
2.5596377859
 20
5.0710335695
 30
0.0
 10
2.5523623574
 20
5.0732519428
 30
0.0
 10
2.5441934612
 20
5.0757672448
 30
0.0
 10
2.5353709221
 20
5.0785042989
 30
0.0
 10
2.5292986879
 20
5.0803994278
 30
0.0
 10
2.5261963761
 20
5.0813701499
 30
0.0
  0
SPLINE
  5
341
100
AcDbEntity
  8
0
100
AcDbSpline
 62
7
  6
CONTINUOUS
 70
0
 71
3
 72
20
 73
16
 74
0
 42
0.0000001
 43
0.0000001
 44
0.0000000001
 40
0.0
 40
0.0
 40
0.0
 40
0.0
 40
0.1911586886
 40
0.3721313295
 40
0.5375261463
 40
0.6830204566
 40
0.7470930248
 40
0.8047747595
 40
0.8556847146
 40
0.899533796
 40
0.936047091
 40
0.9650040551
 40
0.9863025096
 40
0.9940859598
 40
1.0
 40
1.0
 40
1.0
 40
1.0
 10
2.5224739759
 20
4.339152951
 30
0.0
 10
2.5256991401
 20
4.3391954216
 30
0.0
 10
2.5319772721
 20
4.3393072345
 30
0.0
 10
2.5410437256
 20
4.3395574918
 30
0.0
 10
2.5493369141
 20
4.3398791933
 30
0.0
 10
2.5556553224
 20
4.340210459
 30
0.0
 10
2.5601546712
 20
4.3405113311
 30
0.0
 10
2.5630592294
 20
4.3407388257
 30
0.0
 10
2.565620545
 20
4.3409761827
 30
0.0
 10
2.5678219585
 20
4.3412216823
 30
0.0
 10
2.5696498678
 20
4.3414727076
 30
0.0
 10
2.5710914117
 20
4.3417283333
 30
0.0
 10
2.5720461575
 20
4.3419549638
 30
0.0
 10
2.5726042046
 20
4.3421488017
 30
0.0
 10
2.5728146255
 20
4.3422470257
 30
0.0
 10
2.5728998368
 20
4.3422989559
 30
0.0
  0
SPLINE
  5
342
100
AcDbEntity
  8
0
100
AcDbSpline
 62
7
  6
CONTINUOUS
 70
0
 71
3
 72
18
 73
14
 74
0
 42
0.0000001
 43
0.0000001
 44
0.0000000001
 40
0.0
 40
0.0
 40
0.0
 40
0.0
 40
0.017563064
 40
0.0432692277
 40
0.0768745792
 40
0.1180604681
 40
0.1664280817
 40
0.2215091778
 40
0.3496158534
 40
0.4974343574
 40
0.6592850219
 40
0.8289621782
 40
1.0
 40
1.0
 40
1.0
 40
1.0
 10
8.6762992857
 20
5.3228093495
 30
0.0
 10
8.6758975037
 20
5.3228332845
 30
0.0
 10
8.6749055749
 20
5.3228519817
 30
0.0
 10
8.6731439564
 20
5.3228433401
 30
0.0
 10
8.6708411959
 20
5.3227960403
 30
0.0
 10
8.6680200264
 20
5.3227113878
 30
0.0
 10
8.6647076536
 20
5.3225889465
 30
0.0
 10
8.6594057862
 20
5.3223651441
 30
0.0
 10
8.6518289795
 20
5.3219963622
 30
0.0
 10
8.6418112516
 20
5.3214505652
 30
0.0
 10
8.6308452587
 20
5.3208001807
 30
0.0
 10
8.6193511202
 20
5.3200689815
 30
0.0
 10
8.6115607656
 20
5.319541034
 30
0.0
 10
8.6076506334
 20
5.3192674857
 30
0.0
  0
SPLINE
  5
343
100
AcDbEntity
  8
0
100
AcDbSpline
 62
7
  6
CONTINUOUS
 70
0
 71
3
 72
11
 73
7
 74
0
 42
0.0000001
 43
0.0000001
 44
0.0000000001
 40
0.0
 40
0.0
 40
0.0
 40
0.0
 40
0.2501005758
 40
0.500254476
 40
0.750270378
 40
1.0
 40
1.0
 40
1.0
 40
1.0
 10
7.7861484688
 20
4.3428120145
 30
0.0
 10
7.7861494667
 20
4.3392189418
 30
0.0
 10
7.7854736173
 20
4.3320146912
 30
0.0
 10
7.7824950411
 20
4.3215941399
 30
0.0
 10
7.7776621328
 20
4.311900522
 30
0.0
 10
7.7733291285
 20
4.3061192496
 30
0.0
 10
7.7709304286
 20
4.303451265
 30
0.0
  0
SPLINE
  5
344
100
AcDbEntity
  8
0
100
AcDbSpline
 62
7
  6
CONTINUOUS
 70
0
 71
3
 72
11
 73
7
 74
0
 42
0.0000001
 43
0.0000001
 44
0.0000000001
 40
0.0
 40
0.0
 40
0.0
 40
0.0
 40
0.2502555383
 40
0.5002254123
 40
0.7501085101
 40
1.0
 40
1.0
 40
1.0
 40
1.0
 10
7.7709304286
 20
4.303451265
 30
0.0
 10
7.7680084815
 20
4.3001990112
 30
0.0
 10
7.7614543789
 20
4.2943021927
 30
0.0
 10
7.7500050316
 20
4.2877334134
 30
0.0
 10
7.7374392643
 20
4.2837188522
 30
0.0
 10
7.7286815522
 20
4.2828206787
 30
0.0
 10
7.72431585
 20
4.2828215816
 30
0.0
  0
SPLINE
  5
345
100
AcDbEntity
  8
0
100
AcDbSpline
 62
7
  6
CONTINUOUS
 70
0
 71
3
 72
20
 73
16
 74
0
 42
0.0000001
 43
0.0000001
 44
0.0000000001
 40
0.0
 40
0.0
 40
0.0
 40
0.0
 40
0.1743859779
 40
0.3424791541
 40
0.4982993087
 40
0.5702677354
 40
0.6376494827
 40
0.7000631798
 40
0.7572827619
 40
0.8091865866
 40
0.8557874
 40
0.8973409384
 40
0.9344849231
 40
0.9682269562
 40
1.0
 40
1.0
 40
1.0
 40
1.0
 10
7.0045535988
 20
4.3396648972
 30
0.0
 10
7.0044836032
 20
4.3359185099
 30
0.0
 10
7.004095444
 20
4.3285629943
 30
0.0
 10
7.0027902945
 20
4.3179271506
 30
0.0
 10
7.0010839086
 20
4.309581132
 30
0.0
 10
6.9993643828
 20
4.3034738063
 30
0.0
 10
6.9979652424
 20
4.2993678582
 30
0.0
 10
6.9964323533
 20
4.2956500515
 30
0.0
 10
6.9947808322
 20
4.2923505966
 30
0.0
 10
6.9930246726
 20
4.2894964202
 30
0.0
 10
6.991175822
 20
4.287112455
 30
0.0
 10
6.9892420385
 20
4.2852243152
 30
0.0
 10
6.9872391862
 20
4.2838470139
 30
0.0
 10
6.985182802
 20
4.2829984405
 30
0.0
 10
6.9837692546
 20
4.2828016056
 30
0.0
 10
6.9830865455
 20
4.2828014923
 30
0.0
  0
SPLINE
  5
346
100
AcDbEntity
  8
0
100
AcDbSpline
 62
7
  6
CONTINUOUS
 70
0
 71
3
 72
20
 73
16
 74
0
 42
0.0000001
 43
0.0000001
 44
0.0000000001
 40
0.0
 40
0.0
 40
0.0
 40
0.0
 40
0.1743859816
 40
0.3424791619
 40
0.4982993091
 40
0.57026773
 40
0.637649473
 40
0.7000631698
 40
0.7572827549
 40
0.8091865837
 40
0.8557874003
 40
0.8973409398
 40
0.9344849241
 40
0.9682269565
 40
1.0
 40
1.0
 40
1.0
 40
1.0
 10
5.9811669582
 20
4.3395751892
 30
0.0
 10
5.9810969626
 20
4.3358288019
 30
0.0
 10
5.9807088033
 20
4.3284732861
 30
0.0
 10
5.9794036539
 20
4.3178374424
 30
0.0
 10
5.9776972681
 20
4.309491424
 30
0.0
 10
5.9759777424
 20
4.3033840986
 30
0.0
 10
5.974578602
 20
4.2992781507
 30
0.0
 10
5.9730457129
 20
4.2955603441
 30
0.0
 10
5.9713941917
 20
4.292260889
 30
0.0
 10
5.969638032
 20
4.2894067125
 30
0.0
 10
5.9677891814
 20
4.287022747
 30
0.0
 10
5.9658553979
 20
4.2851346071
 30
0.0
 10
5.9638525456
 20
4.2837573058
 30
0.0
 10
5.9617961614
 20
4.2829087325
 30
0.0
 10
5.960382614
 20
4.2827118976
 30
0.0
 10
5.9596999049
 20
4.2827117843
 30
0.0
  0
SPLINE
  5
347
100
AcDbEntity
  8
0
100
AcDbSpline
 62
7
  6
CONTINUOUS
 70
0
 71
3
 72
16
 73
12
 74
0
 42
0.0000001
 43
0.0000001
 44
0.0000000001
 40
0.0
 40
0.0
 40
0.0
 40
0.0
 40
0.1289595445
 40
0.1934904967
 40
0.2577815708
 40
0.3851172165
 40
0.5108247138
 40
0.6349090276
 40
0.7576234317
 40
0.8793439849
 40
1.0
 40
1.0
 40
1.0
 40
1.0
 10
5.9037562903
 20
4.3395667232
 30
0.0
 10
5.9039412652
 20
4.3357936341
 30
0.0
 10
5.9047302501
 20
4.3301414052
 30
0.0
 10
5.9067504055
 20
4.3228582127
 30
0.0
 10
5.9093964287
 20
4.3158266501
 30
0.0
 10
5.9138578236
 20
4.3076075107
 30
0.0
 10
5.9208544159
 20
4.2989763288
 30
0.0
 10
5.929260878
 20
4.2919141136
 30
0.0
 10
5.9387728143
 20
4.2866589481
 30
0.0
 10
5.9490467219
 20
4.2834498329
 30
0.0
 10
5.9561655202
 20
4.2827114745
 30
0.0
 10
5.9596999049
 20
4.2827117843
 30
0.0
  0
SPLINE
  5
348
100
AcDbEntity
  8
0
100
AcDbSpline
 62
7
  6
CONTINUOUS
 70
0
 71
3
 72
16
 73
12
 74
0
 42
0.0000001
 43
0.0000001
 44
0.0000000001
 40
0.0
 40
0.0
 40
0.0
 40
0.0
 40
0.1289717401
 40
0.1935144799
 40
0.2578168747
 40
0.3851549774
 40
0.5108518549
 40
0.6349269043
 40
0.7576330591
 40
0.8793462457
 40
1.0
 40
1.0
 40
1.0
 40
1.0
 10
5.6546408954
 20
4.3395253923
 30
0.0
 10
5.6548258878
 20
4.335751948
 30
0.0
 10
5.6556155049
 20
4.3300990659
 30
0.0
 10
5.6576363179
 20
4.3228150142
 30
0.0
 10
5.6602821347
 20
4.3157825884
 30
0.0
 10
5.664743655
 20
4.3075633153
 30
0.0
 10
5.6717408982
 20
4.2989333285
 30
0.0
 10
5.6801469458
 20
4.2918719984
 30
0.0
 10
5.6896582567
 20
4.2866172553
 30
0.0
 10
5.6999316587
 20
4.2834082521
 30
0.0
 10
5.7070501931
 20
4.2826701435
 30
0.0
 10
5.7105845101
 20
4.2826704534
 30
0.0
  0
SPLINE
  5
349
100
AcDbEntity
  8
0
100
AcDbSpline
 62
7
  6
CONTINUOUS
 70
0
 71
3
 72
23
 73
19
 74
0
 42
0.0000001
 43
0.0000001
 44
0.0000000001
 40
0.0
 40
0.0
 40
0.0
 40
0.0
 40
0.1904953701
 40
0.3745562571
 40
0.5441355194
 40
0.6215410362
 40
0.6930779955
 40
0.7580796223
 40
0.8160210718
 40
0.8664281329
 40
0.9088612374
 40
0.9430085862
 40
0.9569891359
 40
0.9689546903
 40
0.9789897743
 40
0.9872567249
 40
0.9940684196
 40
1.0
 40
1.0
 40
1.0
 40
1.0
 10
5.5910660746
 20
4.342658342
 30
0.0
 10
5.5910664551
 20
4.3387643093
 30
0.0
 10
5.5909754966
 20
4.331107446
 30
0.0
 10
5.5905771341
 20
4.3199905206
 30
0.0
 10
5.5900191577
 20
4.3111953563
 30
0.0
 10
5.5894390594
 20
4.3047098255
 30
0.0
 10
5.5889644322
 20
4.3003619632
 30
0.0
 10
5.5884408237
 20
4.2964206589
 30
0.0
 10
5.5878744134
 20
4.2929221176
 30
0.0
 10
5.5872719073
 20
4.2898983127
 30
0.0
 10
5.5866396272
 20
4.2873796159
 30
0.0
 10
5.5860610781
 20
4.2856176628
 30
0.0
 10
5.5855708947
 20
4.2844902698
 30
0.0
 10
5.5852243545
 20
4.2838403536
 30
0.0
 10
5.5848746004
 20
4.2833279082
 30
0.0
 10
5.5845199995
 20
4.2829525356
 30
0.0
 10
5.5841555078
 20
4.2827145637
 30
0.0
 10
5.5838934365
 20
4.2826561076
 30
0.0
 10
5.5837721854
 20
4.2826560699
 30
0.0
  0
SPLINE
  5
34A
100
AcDbEntity
  8
0
100
AcDbSpline
 62
7
  6
CONTINUOUS
 70
0
 71
3
 72
11
 73
7
 74
0
 42
0.0000001
 43
0.0000001
 44
0.0000000001
 40
0.0
 40
0.0
 40
0.0
 40
0.0
 40
0.2504421643
 40
0.5006256555
 40
0.7504426453
 40
1.0
 40
1.0
 40
1.0
 40
1.0
 10
2.5729006702
 20
4.3422994564
 30
0.0
 10
2.5729014326
 20
4.3344969735
 30
0.0
 10
2.5760092315
 20
4.3187305376
 30
0.0
 10
2.5893042637
 20
4.2987891992
 30
0.0
 10
2.6091728189
 20
4.28542943
 30
0.0
 10
2.6249022066
 20
4.2823044177
 30
0.0
 10
2.6326771234
 20
4.2823051595
 30
0.0
  0
SPLINE
  5
34B
100
AcDbEntity
  8
0
100
AcDbSpline
 62
7
  6
CONTINUOUS
 70
0
 71
3
 72
22
 73
18
 74
0
 42
0.0000001
 43
0.0000001
 44
0.0000000001
 40
0.0
 40
0.0
 40
0.0
 40
0.0
 40
0.1907318166
 40
0.3736547875
 40
0.5413611415
 40
0.6177398779
 40
0.688287498
 40
0.7524142597
 40
0.8096686213
 40
0.8596581866
 40
0.902045524
 40
0.9366523288
 40
0.96371309
 40
0.9746549713
 40
0.9841031908
 40
0.9923854777
 40
1.0
 40
1.0
 40
1.0
 40
1.0
 10
2.5224739759
 20
4.339152951
 30
0.0
 10
2.5225050276
 20
4.3354100113
 30
0.0
 10
2.5226747856
 20
4.3280777692
 30
0.0
 10
2.5232434685
 20
4.3174672734
 30
0.0
 10
2.523987263
 20
4.309117908
 30
0.0
 10
2.524740698
 20
4.3029889366
 30
0.0
 10
2.5253499847
 20
4.2988915824
 30
0.0
 10
2.526016563
 20
4.2951838045
 30
0.0
 10
2.526733147
 20
4.2918968889
 30
0.0
 10
2.5274923723
 20
4.2890590516
 30
0.0
 10
2.5282865928
 20
4.2866939808
 30
0.0
 10
2.5291112439
 20
4.2848231561
 30
0.0
 10
2.5298621342
 20
4.2836003678
 30
0.0
 10
2.5304916886
 20
4.2829101474
 30
0.0
 10
2.5309366003
 20
4.2825601216
 30
0.0
 10
2.5313897459
 20
4.2823431703
 30
0.0
 10
2.5317033033
 20
4.2822924852
 30
0.0
 10
2.5318527366
 20
4.2822924751
 30
0.0
  0
SPLINE
  5
34C
100
AcDbEntity
  8
0
100
AcDbSpline
 62
7
  6
CONTINUOUS
 70
0
 71
3
 72
22
 73
18
 74
0
 42
0.0000001
 43
0.0000001
 44
0.0000000001
 40
0.0
 40
0.0
 40
0.0
 40
0.0
 40
0.1907153938
 40
0.3736055261
 40
0.5413097871
 40
0.6176998476
 40
0.6882583021
 40
0.7523932583
 40
0.8096546282
 40
0.8596493278
 40
0.9020393089
 40
0.9366479557
 40
0.9637109941
 40
0.9746538454
 40
0.9841027644
 40
0.9923854104
 40
1.0
 40
1.0
 40
1.0
 40
1.0
 10
1.8358936831
 20
4.3390830197
 30
0.0
 10
1.8359247321
 20
4.3353404054
 30
0.0
 10
1.8360943228
 20
4.328009133
 30
0.0
 10
1.836662986
 20
4.3173996508
 30
0.0
 10
1.8374068001
 20
4.3090507627
 30
0.0
 10
1.8381601105
 20
4.3029213849
 30
0.0
 10
1.8387693915
 20
4.2988234305
 30
0.0
 10
1.839436007
 20
4.2951151432
 30
0.0
 10
1.8401526116
 20
4.2918278265
 30
0.0
 10
1.8409118616
 20
4.2889896972
 30
0.0
 10
1.8417061518
 20
4.2866244506
 30
0.0
 10
1.8425308908
 20
4.2847535222
 30
0.0
 10
1.8432818054
 20
4.2835306371
 30
0.0
 10
1.8439113753
 20
4.2828403278
 30
0.0
 10
1.8443562935
 20
4.2824902469
 30
0.0
 10
1.8448094432
 20
4.2822732527
 30
0.0
 10
1.8451230089
 20
4.282222554
 30
0.0
 10
1.8452724434
 20
4.2822225439
 30
0.0
  0
SPLINE
  5
34D
100
AcDbEntity
  8
0
100
AcDbSpline
 62
7
  6
CONTINUOUS
 70
0
 71
3
 72
12
 73
8
 74
0
 42
0.0000001
 43
0.0000001
 44
0.0000000001
 40
0.0
 40
0.0
 40
0.0
 40
0.0
 40
0.1047402613
 40
0.212701778
 40
0.4440290455
 40
0.704457877
 40
1.0
 40
1.0
 40
1.0
 40
1.0
 10
5.7681114389
 20
5.3251025585
 30
0.0
 10
5.7672601915
 20
5.3249700435
 30
0.0
 10
5.7655486501
 20
5.3245759758
 30
0.0
 10
5.7621249315
 20
5.323277891
 30
0.0
 10
5.7578947092
 20
5.3206456283
 30
0.0
 10
5.7531888801
 20
5.3161512316
 30
0.0
 10
5.7504070556
 20
5.312499947
 30
0.0
 10
5.7490483087
 20
5.3104842791
 30
0.0
  0
SPLINE
  5
34E
100
AcDbEntity
  8
0
100
AcDbSpline
 62
7
  6
CONTINUOUS
 70
0
 71
3
 72
13
 73
9
 74
0
 42
0.0000001
 43
0.0000001
 44
0.0000000001
 40
0.0
 40
0.0
 40
0.0
 40
0.0
 40
0.2434127864
 40
0.3673833847
 40
0.4923336639
 40
0.6183352015
 40
0.7453930492
 40
1.0
 40
1.0
 40
1.0
 40
1.0
 10
7.7968147806
 20
5.0848304919
 30
0.0
 10
7.7952129941
 20
5.0840244155
 30
0.0
 10
7.7929644843
 20
5.0824309988
 30
0.0
 10
7.7905020723
 20
5.0797575951
 30
0.0
 10
7.7889290215
 20
5.0774756784
 30
0.0
 10
7.7876719489
 20
5.0749806013
 30
0.0
 10
7.7864560133
 20
5.0714357076
 30
0.0
 10
7.7860777395
 20
5.0686060962
 30
0.0
 10
7.7860779228
 20
5.0667304552
 30
0.0
  0
SPLINE
  5
34F
100
AcDbEntity
  8
0
100
AcDbSpline
 62
7
  6
CONTINUOUS
 70
0
 71
3
 72
17
 73
13
 74
0
 42
0.0000001
 43
0.0000001
 44
0.0000000001
 40
0.0
 40
0.0
 40
0.0
 40
0.0
 40
0.0318636817
 40
0.0664154912
 40
0.1047513068
 40
0.1475647795
 40
0.2479281379
 40
0.3685056989
 40
0.5076062551
 40
0.6625046466
 40
0.8285845293
 40
1.0
 40
1.0
 40
1.0
 40
1.0
 10
7.077607669
 20
5.3411829399
 30
0.0
 10
7.0773862576
 20
5.3411509153
 30
0.0
 10
7.0769324889
 20
5.3410212158
 30
0.0
 10
7.0762852756
 20
5.3406619401
 30
0.0
 10
7.0756562035
 20
5.340142074
 30
0.0
 10
7.0748020495
 20
5.3391913875
 30
0.0
 10
7.0738333216
 20
5.3375964915
 30
0.0
 10
7.0728738956
 20
5.3352515765
 30
0.0
 10
7.0720791918
 20
5.332446005
 30
0.0
 10
7.0714845044
 20
5.3292673829
 30
0.0
 10
7.071103035
 20
5.3258287256
 30
0.0
 10
7.0709990173
 20
5.3234593855
 30
0.0
 10
7.0709865172
 20
5.3222559399
 30
0.0
  0
SPLINE
  5
350
100
AcDbEntity
  8
0
100
AcDbSpline
 62
7
  6
CONTINUOUS
 70
0
 71
3
 72
17
 73
13
 74
0
 42
0.0000001
 43
0.0000001
 44
0.0000000001
 40
0.0
 40
0.0
 40
0.0
 40
0.0
 40
0.0319259312
 40
0.0666241841
 40
0.1051519646
 40
0.1481715493
 40
0.248906083
 40
0.369708206
 40
0.5088366945
 40
0.6635420866
 40
0.8292073022
 40
1.0
 40
1.0
 40
1.0
 40
1.0
 10
5.9584011159
 20
5.3410844814
 30
0.0
 10
5.9581782414
 20
5.3410524249
 30
0.0
 10
5.9577208887
 20
5.3409224951
 30
0.0
 10
5.9570666545
 20
5.3405634497
 30
0.0
 10
5.9564277302
 20
5.3400438777
 30
0.0
 10
5.9555562569
 20
5.3390939091
 30
0.0
 10
5.9545591453
 20
5.3375003549
 30
0.0
 10
5.9535582491
 20
5.3351556462
 30
0.0
 10
5.9527149003
 20
5.3323501527
 30
0.0
 10
5.9520658785
 20
5.3291714236
 30
0.0
 10
5.9516263468
 20
5.3257326651
 30
0.0
 10
5.9514826463
 20
5.3233619673
 30
0.0
 10
5.9514501574
 20
5.3221578342
 30
0.0
  0
SPLINE
  5
351
100
AcDbEntity
  8
0
100
AcDbSpline
 62
7
  6
CONTINUOUS
 70
0
 71
3
 72
14
 73
10
 74
0
 42
0.0000001
 43
0.0000001
 44
0.0000000001
 40
0.0
 40
0.0
 40
0.0
 40
0.0
 40
0.2409397393
 40
0.364298142
 40
0.4889841026
 40
0.6152281811
 40
0.7430812101
 40
0.8718334987
 40
1.0
 40
1.0
 40
1.0
 40
1.0
 10
5.8553158867
 20
5.3377056769
 30
0.0
 10
5.8576639793
 20
5.337680681
 30
0.0
 10
5.8612486468
 20
5.3368876415
 30
0.0
 10
5.8654398735
 20
5.3345792463
 30
0.0
 10
5.868256563
 20
5.3322239262
 30
0.0
 10
5.8706199239
 20
5.3293616434
 30
0.0
 10
5.8724380928
 20
5.3260793969
 30
0.0
 10
5.8736597925
 20
5.3225154866
 30
0.0
 10
5.8740574194
 20
5.3200277727
 30
0.0
 10
5.8741415537
 20
5.3187814843
 30
0.0
  0
SPLINE
  5
352
100
AcDbEntity
  8
0
100
AcDbSpline
 62
7
  6
CONTINUOUS
 70
0
 71
3
 72
14
 73
10
 74
0
 42
0.0000001
 43
0.0000001
 44
0.0000000001
 40
0.0
 40
0.0
 40
0.0
 40
0.0
 40
0.2409439837
 40
0.3643028947
 40
0.4889886175
 40
0.6152315668
 40
0.7430827685
 40
0.8718333431
 40
1.0
 40
1.0
 40
1.0
 40
1.0
 10
5.7681114517
 20
5.3251009923
 30
0.0
 10
5.7704583087
 20
5.3250741608
 30
0.0
 10
5.7740404442
 20
5.324279178
 30
0.0
 10
5.7782282702
 20
5.3219698711
 30
0.0
 10
5.7810424806
 20
5.3196147031
 30
0.0
 10
5.7834036671
 20
5.3167532688
 30
0.0
 10
5.7852201458
 20
5.3134724585
 30
0.0
 10
5.7864407411
 20
5.3099103535
 30
0.0
 10
5.7868380542
 20
5.3074239863
 30
0.0
 10
5.78692216
 20
5.3061783644
 30
0.0
  0
SPLINE
  5
353
100
AcDbEntity
  8
0
100
AcDbSpline
 62
7
  6
CONTINUOUS
 70
0
 71
3
 72
15
 73
11
 74
0
 42
0.0000001
 43
0.0000001
 44
0.0000000001
 40
0.0
 40
0.0
 40
0.0
 40
0.0
 40
0.1227400659
 40
0.2486884281
 40
0.3761773453
 40
0.5039316826
 40
0.6311230928
 40
0.7569696856
 40
0.8803854297
 40
1.0
 40
1.0
 40
1.0
 40
1.0
 10
5.7490483124
 20
5.3104842827
 30
0.0
 10
5.7501904555
 20
5.3103970231
 30
0.0
 10
5.7524925113
 20
5.3100159496
 30
0.0
 10
5.7558359201
 20
5.3089032226
 30
0.0
 10
5.7590120364
 20
5.3072684795
 30
0.0
 10
5.7619048142
 20
5.3051542269
 30
0.0
 10
5.7644334727
 20
5.3026371066
 30
0.0
 10
5.7665096801
 20
5.2997840758
 30
0.0
 10
5.7680740139
 20
5.2967019336
 30
0.0
 10
5.7687587425
 20
5.29452546
 30
0.0
 10
5.7689934278
 20
5.2934341053
 30
0.0
  0
SPLINE
  5
354
100
AcDbEntity
  8
0
100
AcDbSpline
 62
7
  6
CONTINUOUS
 70
0
 71
3
 72
15
 73
11
 74
0
 42
0.0000001
 43
0.0000001
 44
0.0000000001
 40
0.0
 40
0.0
 40
0.0
 40
0.0
 40
0.1228698562
 40
0.2488613495
 40
0.3763332104
 40
0.5040338143
 40
0.6311582443
 40
0.756948522
 40
0.8803431871
 40
1.0
 40
1.0
 40
1.0
 40
1.0
 10
5.5949894735
 20
5.098787582
 30
0.0
 10
5.596121687
 20
5.0986867965
 30
0.0
 10
5.5984005253
 20
5.0982827186
 30
0.0
 10
5.6017048697
 20
5.0971465506
 30
0.0
 10
5.6048389481
 20
5.0954995627
 30
0.0
 10
5.6076902275
 20
5.093384147
 30
0.0
 10
5.6101805385
 20
5.0908753071
 30
0.0
 10
5.6122244173
 20
5.0880387938
 30
0.0
 10
5.6137644563
 20
5.0849787315
 30
0.0
 10
5.6144388867
 20
5.0828199258
 30
0.0
 10
5.6146705094
 20
5.0817374635
 30
0.0
  0
SPLINE
  5
355
100
AcDbEntity
  8
0
100
AcDbSpline
 62
7
  6
CONTINUOUS
 70
0
 71
3
 72
12
 73
8
 74
0
 42
0.0000001
 43
0.0000001
 44
0.0000000001
 40
0.0
 40
0.0
 40
0.0
 40
0.0
 40
0.0772398954
 40
0.1726057366
 40
0.409554775
 40
0.6929310207
 40
1.0
 40
1.0
 40
1.0
 40
1.0
 10
5.5541615682
 20
5.0846567028
 30
0.0
 10
5.5540573235
 20
5.0842007513
 30
0.0
 10
5.5538679615
 20
5.0831720186
 30
0.0
 10
5.553530164
 20
5.0807147457
 30
0.0
 10
5.5532119245
 20
5.0769979437
 30
0.0
 10
5.5529798145
 20
5.0719925452
 30
0.0
 10
5.5529273184
 20
5.068416821
 30
0.0
 10
5.5529275001
 20
5.0665574035
 30
0.0
  0
SPLINE
  5
356
100
AcDbEntity
  8
0
100
AcDbSpline
 62
7
  6
CONTINUOUS
 70
0
 71
3
 72
11
 73
7
 74
0
 42
0.0000001
 43
0.0000001
 44
0.0000000001
 40
0.0
 40
0.0
 40
0.0
 40
0.0
 40
0.2493795952
 40
0.4993978417
 40
0.7497438628
 40
1.0
 40
1.0
 40
1.0
 40
1.0
 10
2.5650167197
 20
5.0843012681
 30
0.0
 10
2.5667085674
 20
5.0835017795
 30
0.0
 10
2.5698837217
 20
5.0814030501
 30
0.0
 10
2.573578426
 20
5.0770641618
 30
0.0
 10
2.5759109639
 20
5.0718576288
 30
0.0
 10
2.5764483593
 20
5.0680812897
 30
0.0
 10
2.5764485459
 20
5.0662034748
 30
0.0
  0
SPLINE
  5
357
100
AcDbEntity
  8
0
100
AcDbSpline
 62
7
  6
CONTINUOUS
 70
0
 71
3
 72
17
 73
13
 74
0
 42
0.0000001
 43
0.0000001
 44
0.0000000001
 40
0.0
 40
0.0
 40
0.0
 40
0.0
 40
0.0142312458
 40
0.0346385638
 40
0.0623364848
 40
0.0975953022
 40
0.1906433144
 40
0.3120886004
 40
0.4584691029
 40
0.6258943314
 40
0.8086823117
 40
1.0
 40
1.0
 40
1.0
 40
1.0
 10
2.5315480911
 20
5.0984233251
 30
0.0
 10
2.5316116354
 20
5.0983657431
 30
0.0
 10
2.5317078051
 20
5.0981682568
 30
0.0
 10
2.5317560591
 20
5.0977954373
 30
0.0
 10
2.5317453424
 20
5.0972912992
 30
0.0
 10
2.5316319072
 20
5.0963575559
 30
0.0
 10
2.531302336
 20
5.0948861051
 30
0.0
 10
2.5306920211
 20
5.0927986745
 30
0.0
 10
2.5298472863
 20
5.0903148902
 30
0.0
 10
2.5287917639
 20
5.0875145551
 30
0.0
 10
2.5275622191
 20
5.0844916357
 30
0.0
 10
2.5266661351
 20
5.0824229176
 30
0.0
 10
2.526196376
 20
5.08137015
 30
0.0
  0
SPLINE
  5
358
100
AcDbEntity
  8
0
100
AcDbSpline
 62
7
  6
CONTINUOUS
 70
0
 71
3
 72
18
 73
14
 74
0
 42
0.0000001
 43
0.0000001
 44
0.0000000001
 40
0.0
 40
0.0
 40
0.0
 40
0.0
 40
0.0136435063
 40
0.0332437164
 40
0.0601698752
 40
0.094770613
 40
0.1370747325
 40
0.1869773878
 40
0.3081887855
 40
0.4549217045
 40
0.6232114761
 40
0.8072402575
 40
1.0
 40
1.0
 40
1.0
 40
1.0
 10
2.075882131
 20
5.3100459742
 30
0.0
 10
2.0759484387
 20
5.3099971915
 30
0.0
 10
2.0760550705
 20
5.3098124993
 30
0.0
 10
2.0761101285
 20
5.3094527405
 30
0.0
 10
2.0761063025
 20
5.3089613625
 30
0.0
 10
2.0760347324
 20
5.3083384879
 30
0.0
 10
2.0758971916
 20
5.307585389
 30
0.0
 10
2.0756033033
 20
5.306331337
 30
0.0
 10
2.0750620236
 20
5.3044902613
 30
0.0
 10
2.0742111431
 20
5.3019990732
 30
0.0
 10
2.073143142
 20
5.2991832453
 30
0.0
 10
2.0718971479
 20
5.2961393402
 30
0.0
 10
2.0709884026
 20
5.2940552338
 30
0.0
 10
2.0705118365
 20
5.2929943244
 30
0.0
  0
SPLINE
  5
359
100
AcDbEntity
  8
0
100
AcDbSpline
 62
7
  6
CONTINUOUS
 70
0
 71
3
 72
19
 73
15
 74
0
 42
0.0000001
 43
0.0000001
 44
0.0000000001
 40
0.0
 40
0.0
 40
0.0
 40
0.0
 40
0.015557673
 40
0.0358871825
 40
0.0630151817
 40
0.0976233126
 40
0.1398950666
 40
0.1898019872
 40
0.247052318
 40
0.3111878004
 40
0.4581166494
 40
0.6263295389
 40
0.8095022555
 40
1.0
 40
1.0
 40
1.0
 40
1.0
 10
2.0171906833
 20
5.324656542
 30
0.0
 10
2.0172911917
 20
5.3246494679
 30
0.0
 10
2.017515669
 20
5.324547483
 30
0.0
 10
2.0177821962
 20
5.3242312626
 30
0.0
 10
2.0180339788
 20
5.3237609473
 30
0.0
 10
2.0182695246
 20
5.3231283838
 30
0.0
 10
2.0184886134
 20
5.3223363721
 30
0.0
 10
2.018687022
 20
5.3213886639
 30
0.0
 10
2.0188635101
 20
5.3202931426
 30
0.0
 10
2.019077438
 20
5.3185683637
 30
0.0
 10
2.0192694429
 20
5.3161183442
 30
0.0
 10
2.0193846246
 20
5.3128924677
 30
0.0
 10
2.0193911113
 20
5.3093824776
 30
0.0
 10
2.0193240759
 20
5.3069629777
 30
0.0
 10
2.019271697
 20
5.3057303587
 30
0.0
  0
SPLINE
  5
35A
100
AcDbEntity
  8
0
100
AcDbSpline
 62
7
  6
CONTINUOUS
 70
0
 71
3
 72
19
 73
15
 74
0
 42
0.0000001
 43
0.0000001
 44
0.0000000001
 40
0.0
 40
0.0
 40
0.0
 40
0.0
 40
0.0155403643
 40
0.0358306012
 40
0.0629162304
 40
0.0974862385
 40
0.1397271079
 40
0.1896118437
 40
0.24684907
 40
0.310980289
 40
0.4579254745
 40
0.6261843342
 40
0.8094244
 40
1.0
 40
1.0
 40
1.0
 40
1.0
 10
1.7750029687
 20
5.3372201503
 30
0.0
 10
1.7751034077
 20
5.3372135956
 30
0.0
 10
1.775328109
 20
5.3371127824
 30
0.0
 10
1.7755949407
 20
5.3367974922
 30
0.0
 10
1.7758468638
 20
5.3363280937
 30
0.0
 10
1.7760825248
 20
5.3356962713
 30
0.0
 10
1.7763016984
 20
5.3349048306
 30
0.0
 10
1.7765001622
 20
5.333957493
 30
0.0
 10
1.7766766726
 20
5.332862148
 30
0.0
 10
1.7768905968
 20
5.3311372402
 30
0.0
 10
1.7770824748
 20
5.3286866419
 30
0.0
 10
1.7771973528
 20
5.3254596657
 30
0.0
 10
1.7772033953
 20
5.3219481667
 30
0.0
 10
1.7771359857
 20
5.3195275502
 30
0.0
 10
1.7770833978
 20
5.3182943407
 30
0.0
  0
SPLINE
  5
35B
100
AcDbEntity
  8
0
100
AcDbSpline
 62
7
  6
CONTINUOUS
 70
0
 71
3
 72
19
 73
15
 74
0
 42
0.0000001
 43
0.0000001
 44
0.0000000001
 40
0.0
 40
0.0
 40
0.0
 40
0.0
 40
0.0196170137
 40
0.0470443133
 40
0.1234947445
 40
0.1717004366
 40
0.2260512233
 40
0.2861912683
 40
0.3517024485
 40
0.4969514573
 40
0.5756916244
 40
0.6576634595
 40
0.8276689147
 40
1.0
 40
1.0
 40
1.0
 40
1.0
 10
7.7968147784
 20
5.0848304908
 30
0.0
 10
7.7969328762
 20
5.0847557405
 30
0.0
 10
7.7972008882
 20
5.0845530202
 30
0.0
 10
7.7978606252
 20
5.0839704218
 30
0.0
 10
7.7985992881
 20
5.0831734756
 30
0.0
 10
7.7993994825
 20
5.0821801301
 30
0.0
 10
7.8000766851
 20
5.0812385995
 30
0.0
 10
7.8007816994
 20
5.0801670529
 30
0.0
 10
7.8017960856
 20
5.0785247769
 30
0.0
 10
7.8028262819
 20
5.0767374858
 30
0.0
 10
7.8038961113
 20
5.0748382012
 30
0.0
 10
7.805038874
 20
5.0727775365
 30
0.0
 10
7.8064438764
 20
5.0701000393
 30
0.0
 10
7.8074486263
 20
5.067874202
 30
0.0
 10
7.8078997336
 20
5.0667322563
 30
0.0
  0
SPLINE
  5
35C
100
AcDbEntity
  8
0
100
AcDbSpline
 62
7
  6
CONTINUOUS
 70
0
 71
3
 72
17
 73
13
 74
0
 42
0.0000001
 43
0.0000001
 44
0.0000000001
 40
0.0
 40
0.0
 40
0.0
 40
0.0
 40
0.0202238867
 40
0.0472222287
 40
0.0811941345
 40
0.1220572276
 40
0.2235990187
 40
0.3491775425
 40
0.4947427376
 40
0.655896621
 40
0.8266526708
 40
1.0
 40
1.0
 40
1.0
 40
1.0
 10
8.279677562
 20
5.3106762109
 30
0.0
 10
8.2798135653
 20
5.3106272221
 30
0.0
 10
8.2801083903
 20
5.3104541052
 30
0.0
 10
8.2805548831
 20
5.3100827039
 30
0.0
 10
8.2810659397
 20
5.3095627591
 30
0.0
 10
8.2818864418
 20
5.308604924
 30
0.0
 10
8.2830173649
 20
5.3070558458
 30
0.0
 10
8.2844608008
 20
5.3048161471
 30
0.0
 10
8.2860252977
 20
5.3021505204
 30
0.0
 10
8.2876525839
 20
5.2991499492
 30
0.0
 10
8.2892840661
 20
5.2959274959
 30
0.0
 10
8.2903379405
 20
5.2937047406
 30
0.0
 10
8.2908533846
 20
5.2925779801
 30
0.0
  0
SPLINE
  5
35D
100
AcDbEntity
  8
0
100
AcDbSpline
 62
7
  6
CONTINUOUS
 70
0
 71
3
 72
19
 73
15
 74
0
 42
0.0000001
 43
0.0000001
 44
0.0000000001
 40
0.0
 40
0.0
 40
0.0
 40
0.0
 40
0.0158185844
 40
0.0369420786
 40
0.0650880646
 40
0.1007855764
 40
0.144135627
 40
0.1950534324
 40
0.2531929014
 40
0.318040791
 40
0.465657243
 40
0.6332387662
 40
0.814041833
 40
1.0
 40
1.0
 40
1.0
 40
1.0
 10
8.3376267742
 20
5.3252954773
 30
0.0
 10
8.3377361228
 20
5.3252892233
 30
0.0
 10
8.3379833774
 20
5.3251803096
 30
0.0
 10
8.3382945702
 20
5.3248486896
 30
0.0
 10
8.3386098612
 20
5.3243493851
 30
0.0
 10
8.3389251824
 20
5.3236761529
 30
0.0
 10
8.3392398641
 20
5.3228323753
 30
0.0
 10
8.3395485218
 20
5.3218227614
 30
0.0
 10
8.3398488968
 20
5.3206564061
 30
0.0
 10
8.340252413
 20
5.3188264226
 30
0.0
 10
8.3407059896
 20
5.3162331366
 30
0.0
 10
8.3411546444
 20
5.3128275479
 30
0.0
 10
8.3415128001
 20
5.3091445446
 30
0.0
 10
8.3416820562
 20
5.3066102888
 30
0.0
 10
8.3417477716
 20
5.3053243996
 30
0.0
  0
SPLINE
  5
35E
100
AcDbEntity
  8
0
100
AcDbSpline
 62
7
  6
CONTINUOUS
 70
0
 71
3
 72
19
 73
15
 74
0
 42
0.0000001
 43
0.0000001
 44
0.0000000001
 40
0.0
 40
0.0
 40
0.0
 40
0.0
 40
0.0158003474
 40
0.0368914462
 40
0.0650043845
 40
0.1006731339
 40
0.1440006971
 40
0.1949032423
 40
0.2530347799
 40
0.317881673
 40
0.4655148592
 40
0.6331340703
 40
0.813987882
 40
1.0
 40
1.0
 40
1.0
 40
1.0
 10
8.6035267921
 20
5.3392402918
 30
0.0
 10
8.6036360613
 20
5.339234512
 30
0.0
 10
8.603883499
 20
5.3391265911
 30
0.0
 10
8.6041949296
 20
5.3387957848
 30
0.0
 10
8.6045104164
 20
5.3382972472
 30
0.0
 10
8.6048259611
 20
5.3376245948
 30
0.0
 10
8.6051409003
 20
5.3367812209
 30
0.0
 10
8.6054498423
 20
5.3357718112
 30
0.0
 10
8.6057505246
 20
5.3346054694
 30
0.0
 10
8.606154512
 20
5.3327751664
 30
0.0
 10
8.6066086702
 20
5.3301810927
 30
0.0
 10
8.6070579768
 20
5.3267741911
 30
0.0
 10
8.6074167426
 20
5.323089544
 30
0.0
 10
8.6075863538
 20
5.3205540974
 30
0.0
 10
8.6076522302
 20
5.3192675955
 30
0.0
  0
SPLINE
  5
35F
100
AcDbEntity
  8
0
100
AcDbSpline
 62
7
  6
CONTINUOUS
 70
0
 71
3
 72
15
 73
11
 74
0
 42
0.0000001
 43
0.0000001
 44
0.0000000001
 40
0.0
 40
0.0
 40
0.0
 40
0.0
 40
0.1236292435
 40
0.2483101976
 40
0.3731930997
 40
0.4980701586
 40
0.6232371434
 40
0.7489549905
 40
0.8748883271
 40
1.0
 40
1.0
 40
1.0
 40
1.0
 10
8.6950482683
 20
5.3427838517
 30
0.0
 10
8.6938071425
 20
5.342718463
 30
0.0
 10
8.691321718
 20
5.3423371953
 30
0.0
 10
8.6877647739
 20
5.341080725
 30
0.0
 10
8.6844938735
 20
5.3391700147
 30
0.0
 10
8.6816507513
 20
5.3366607415
 30
0.0
 10
8.6793219241
 20
5.3336576179
 30
0.0
 10
8.6776059308
 20
5.3302542652
 30
0.0
 10
8.6765493764
 20
5.3265962069
 30
0.0
 10
8.6763005113
 20
5.3240670999
 30
0.0
 10
8.6762992604
 20
5.3228093505
 30
0.0
  0
SPLINE
  5
360
100
AcDbEntity
  8
0
100
AcDbSpline
 62
7
  6
CONTINUOUS
 70
0
 71
3
 72
15
 73
11
 74
0
 42
0.0000001
 43
0.0000001
 44
0.0000000001
 40
0.0
 40
0.0
 40
0.0
 40
0.0
 40
0.1236785156
 40
0.2483638552
 40
0.3732179055
 40
0.4980497613
 40
0.6231747494
 40
0.748872848
 40
0.8748238681
 40
1.0
 40
1.0
 40
1.0
 40
1.0
 10
8.844399551
 20
5.342773757
 30
0.0
 10
8.843158826
 20
5.3427083825
 30
0.0
 10
8.8406746391
 20
5.342327276
 30
0.0
 10
8.8371202306
 20
5.3410708551
 30
0.0
 10
8.8338532401
 20
5.3391600801
 30
0.0
 10
8.8310153572
 20
5.3366506213
 30
0.0
 10
8.8286929405
 20
5.3336472397
 30
0.0
 10
8.8269843588
 20
5.3302436397
 30
0.0
 10
8.8259358718
 20
5.3265854079
 30
0.0
 10
8.8256926707
 20
5.3240567427
 30
0.0
 10
8.8256941674
 20
5.3227992528
 30
0.0
  0
SPLINE
  5
361
100
AcDbEntity
  8
0
100
AcDbSpline
 62
7
  6
CONTINUOUS
 70
0
 71
3
 72
19
 73
15
 74
0
 42
0.0000001
 43
0.0000001
 44
0.0000000001
 40
0.0
 40
0.0
 40
0.0
 40
0.0
 40
0.0156926282
 40
0.0360525742
 40
0.0631783668
 40
0.0977856658
 40
0.1400721005
 40
0.1900148234
 40
0.2473197801
 40
0.3115213717
 40
0.4585809903
 40
0.6268571394
 40
0.8099174653
 40
1.0
 40
1.0
 40
1.0
 40
1.0
 10
7.72431585
 20
4.2828215816
 30
0.0
 10
7.724418784
 20
4.2828215746
 30
0.0
 10
7.7246542544
 20
4.2827347832
 30
0.0
 10
7.7249457172
 20
4.2824318708
 30
0.0
 10
7.725229377
 20
4.2819717682
 30
0.0
 10
7.7255049514
 20
4.2813459534
 30
0.0
 10
7.7257719272
 20
4.2805572788
 30
0.0
 10
7.7260258012
 20
4.279609306
 30
0.0
 10
7.7262648376
 20
4.2785100868
 30
0.0
 10
7.7265753036
 20
4.2767757186
 30
0.0
 10
7.7269009392
 20
4.2743063067
 30
0.0
 10
7.7271875466
 20
4.2710490142
 30
0.0
 10
7.7273765139
 20
4.2675020731
 30
0.0
 10
7.7274328343
 20
4.2650547036
 30
0.0
 10
7.7274425887
 20
4.2638079176
 30
0.0
  0
SPLINE
  5
362
100
AcDbEntity
  8
0
100
AcDbSpline
 62
7
  6
CONTINUOUS
 70
0
 71
3
 72
15
 73
11
 74
0
 42
0.0000001
 43
0.0000001
 44
0.0000000001
 40
0.0
 40
0.0
 40
0.0
 40
0.0
 40
0.0266166767
 40
0.0597797194
 40
0.1446617651
 40
0.2522015391
 40
0.3793091811
 40
0.522187631
 40
0.6768479607
 40
1.0
 40
1.0
 40
1.0
 40
1.0
 10
7.7709285096
 20
4.3034530484
 30
0.0
 10
7.7711083554
 20
4.3033839923
 30
0.0
 10
7.7715028759
 20
4.3032047098
 30
0.0
 10
7.7724270006
 20
4.3027118687
 30
0.0
 10
7.7738137679
 20
4.3018470932
 30
0.0
 10
7.7757166417
 20
4.3005321337
 30
0.0
 10
7.7779100651
 20
4.2989017866
 30
0.0
 10
7.7803297263
 20
4.2970061528
 30
0.0
 10
7.7838046878
 20
4.2941585087
 30
0.0
 10
7.7864181867
 20
4.2918920316
 30
0.0
 10
7.7881568846
 20
4.2903275719
 30
0.0
  0
SPLINE
  5
363
100
AcDbEntity
  8
0
100
AcDbSpline
 62
7
  6
CONTINUOUS
 70
0
 71
3
 72
24
 73
20
 74
0
 42
0.0000001
 43
0.0000001
 44
0.0000000001
 40
0.0
 40
0.0
 40
0.0
 40
0.0
 40
0.0040516405
 40
0.0089278006
 40
0.0153025107
 40
0.0234828944
 40
0.0336093677
 40
0.0457518933
 40
0.0599479877
 40
0.0762141892
 40
0.1149014695
 40
0.1616442451
 40
0.216222474
 40
0.2783964725
 40
0.3478582232
 40
0.4242034862
 40
0.5958764243
 40
0.7895835697
 40
1.0
 40
1.0
 40
1.0
 40
1.0
 10
7.1093281038
 20
5.320620055
 30
0.0
 10
7.1093315444
 20
5.320672236
 30
0.0
 10
7.1093036608
 20
5.3207907171
 30
0.0
 10
7.1091705324
 20
5.3209425269
 30
0.0
 10
7.1089612404
 20
5.3210829624
 30
0.0
 10
7.1086713994
 20
5.3212173126
 30
0.0
 10
7.1082997941
 20
5.321346387
 30
0.0
 10
7.1078453966
 20
5.3214700588
 30
0.0
 10
7.1073081385
 20
5.3215880358
 30
0.0
 10
7.1064296477
 20
5.3217465031
 30
0.0
 10
7.1051281886
 20
5.3219213614
 30
0.0
 10
7.1033294105
 20
5.3220966063
 30
0.0
 10
7.1012242144
 20
5.3222451402
 30
0.0
 10
7.0988236594
 20
5.3223655841
 30
0.0
 10
7.096140715
 20
5.322456852
 30
0.0
 10
7.0920438228
 20
5.322542517
 30
0.0
 10
7.0863421419
 20
5.3225654012
 30
0.0
 10
7.0789107068
 20
5.3224740069
 30
0.0
 10
7.0736962424
 20
5.3223408172
 30
0.0
 10
7.0709817363
 20
5.3222559064
 30
0.0
  0
LINE
  5
364
100
AcDbEntity
  8
0
100
AcDbLine
 62
7
  6
CONTINUOUS
 10
5.5529418203
 20
5.0665574048
 11
5.5910742459
 21
4.3426583428
  0
LINE
  5
365
100
AcDbEntity
  8
0
100
AcDbLine
 62
7
  6
CONTINUOUS
 10
2.5728998398
 20
4.3422994561
 11
2.5764464571
 21
5.0662034741
  0
LINE
  5
366
100
AcDbEntity
  8
0
100
AcDbLine
 62
7
  6
CONTINUOUS
 10
8.826432887
 20
5.3228364542
 11
8.8256941383
 21
5.3227992519
  0
SPLINE
  5
367
100
AcDbEntity
  8
0
100
AcDbSpline
 62
7
  6
CONTINUOUS
 70
0
 71
3
 72
17
 73
13
 74
0
 42
0.0000001
 43
0.0000001
 44
0.0000000001
 40
0.0
 40
0.0
 40
0.0
 40
0.0
 40
0.1751758369
 40
0.3437039061
 40
0.4993087787
 40
0.637869318
 40
0.7564641004
 40
0.8542042278
 40
0.8957618133
 40
0.9331805363
 40
0.9674702156
 40
1.0
 40
1.0
 40
1.0
 40
1.0
 10
7.6710635905
 20
4.2638021751
 30
0.0
 10
7.6710405428
 20
4.2650684809
 30
0.0
 10
7.6709073773
 20
4.267552294
 30
0.0
 10
7.6704557531
 20
4.2711374223
 30
0.0
 10
7.6697631966
 20
4.2744144855
 30
0.0
 10
7.6688637346
 20
4.277266923
 30
0.0
 10
7.6677860598
 20
4.2796031348
 30
0.0
 10
7.6667139314
 20
4.2811510347
 30
0.0
 10
7.6657754512
 20
4.2820253461
 30
0.0
 10
7.6650857049
 20
4.2824758233
 30
0.0
 10
7.6643780521
 20
4.2827520149
 30
0.0
 10
7.6638930565
 20
4.2828154106
 30
0.0
 10
7.6636578672
 20
4.2828154033
 30
0.0
  0
SPLINE
  5
368
100
AcDbEntity
  8
0
100
AcDbSpline
 62
7
  6
CONTINUOUS
 70
0
 71
3
 72
11
 73
7
 74
0
 42
0.0000001
 43
0.0000001
 44
0.0000000001
 40
0.0
 40
0.0
 40
0.0
 40
0.0
 40
0.1957454266
 40
0.4273391521
 40
0.6953941858
 40
1.0
 40
1.0
 40
1.0
 40
1.0
 10
8.7632266122
 20
4.6906918348
 30
0.0
 10
8.7642363643
 20
4.6891573711
 30
0.0
 10
8.7662033071
 20
4.6856511866
 30
0.0
 10
8.7688741704
 20
4.6796916551
 30
0.0
 10
8.7714982809
 20
4.6726105552
 30
0.0
 10
8.7731061571
 20
4.6674807036
 30
0.0
 10
8.7739085324
 20
4.6647371786
 30
0.0
  0
LINE
  5
369
100
AcDbEntity
  8
0
100
AcDbLine
 62
7
  6
CONTINUOUS
 10
8.6035267921
 20
5.3392402918
 11
8.3376266942
 21
5.3252970961
  0
LINE
  5
36A
100
AcDbEntity
  8
0
100
AcDbLine
 62
7
  6
CONTINUOUS
 10
7.121776831
 20
5.3375980458
 11
7.1233103515
 21
5.3378168267
  0
SPLINE
  5
36B
100
AcDbEntity
  8
0
100
AcDbSpline
 62
7
  6
CONTINUOUS
 70
0
 71
3
 72
29
 73
25
 74
0
 42
0.0000001
 43
0.0000001
 44
0.0000000001
 40
0.0
 40
0.0
 40
0.0
 40
0.0
 40
0.0738611892
 40
0.1342635841
 40
0.1593634259
 40
0.181041551
 40
0.1992961313
 40
0.2141475806
 40
0.2256650893
 40
0.2340440452
 40
0.2398786112
 40
0.2423482058
 40
0.2449094886
 40
0.2513392904
 40
0.2605238224
 40
0.2729049317
 40
0.2886501783
 40
0.3304794405
 40
0.3862570042
 40
0.455898071
 40
0.539089934
 40
0.6354800652
 40
0.744702701
 40
1.0
 40
1.0
 40
1.0
 40
1.0
 10
7.1233103515
 20
5.3378168267
 30
0.0
 10
7.1238859563
 20
5.3378990288
 30
0.0
 10
7.1249308618
 20
5.3380586553
 30
0.0
 10
7.1261652621
 20
5.3382844894
 30
0.0
 10
7.1269891048
 20
5.3384671272
 30
0.0
 10
7.1274852754
 20
5.3385936352
 30
0.0
 10
7.1278984065
 20
5.3387181412
 30
0.0
 10
7.128228177
 20
5.3388397636
 30
0.0
 10
7.1284751516
 20
5.3389596807
 30
0.0
 10
7.1286419419
 20
5.3390752852
 30
0.0
 10
7.1287225775
 20
5.3391880193
 30
0.0
 10
7.1287280135
 20
5.3392756561
 30
0.0
 10
7.1286981772
 20
5.3393628307
 30
0.0
 10
7.1285914599
 20
5.3394660863
 30
0.0
 10
7.1283982841
 20
5.3395721949
 30
0.0
 10
7.1281230852
 20
5.3396775665
 30
0.0
 10
7.1275935153
 20
5.3398293595
 30
0.0
 10
7.1267163815
 20
5.3400004588
 30
0.0
 10
7.1254125107
 20
5.3401835175
 30
0.0
 10
7.1237789265
 20
5.3403548458
 30
0.0
 10
7.1218233969
 20
5.3405140022
 30
0.0
 10
7.1195544439
 20
5.3406594209
 30
0.0
 10
7.1159307047
 20
5.3408434924
 30
0.0
 10
7.1130626314
 20
5.340941927
 30
0.0
 10
7.1110536864
 20
5.3409982102
 30
0.0
  0
SPLINE
  5
36C
100
AcDbEntity
  8
0
100
AcDbSpline
 62
7
  6
CONTINUOUS
 70
0
 71
3
 72
9
 73
5
 74
0
 42
0.0000001
 43
0.0000001
 44
0.0000000001
 40
0.0
 40
0.0
 40
0.0
 40
0.0
 40
0.4522509828
 40
1.0
 40
1.0
 40
1.0
 40
1.0
 10
7.1110536864
 20
5.3409982102
 30
0.0
 10
7.1060133894
 20
5.3411394206
 30
0.0
 10
7.0948638695
 20
5.3412801638
 30
0.0
 10
7.0837144018
 20
5.3412410991
 30
0.0
 10
7.0776076694
 20
5.3411829231
 30
0.0
  0
LINE
  5
36D
100
AcDbEntity
  8
0
100
AcDbLine
 62
7
  6
CONTINUOUS
 10
5.8553158867
 20
5.3377056769
 11
5.7681114389
 21
5.3251025585
  0
SPLINE
  5
36E
100
AcDbEntity
  8
0
100
AcDbSpline
 62
7
  6
CONTINUOUS
 70
0
 71
3
 72
24
 73
20
 74
0
 42
0.0000001
 43
0.0000001
 44
0.0000000001
 40
0.0
 40
0.0
 40
0.0
 40
0.0
 40
0.0105673848
 40
0.0218005543
 40
0.033937633
 40
0.0471651576
 40
0.061624938
 40
0.0774232957
 40
0.113308739
 40
0.1551946818
 40
0.2032183007
 40
0.2574149004
 40
0.3177338313
 40
0.3840453467
 40
0.4561945378
 40
0.5340084105
 40
0.6172715821
 40
0.7991928445
 40
1.0
 40
1.0
 40
1.0
 40
1.0
 10
7.8108698495
 20
3.7528158681
 30
0.0
 10
7.810079177
 20
3.7528162045
 30
0.0
 10
7.808445499
 20
3.7529655782
 30
0.0
 10
7.8059777875
 20
3.7536006058
 30
0.0
 10
7.8034383983
 20
3.7546452422
 30
0.0
 10
7.8008290438
 20
3.756095575
 30
0.0
 10
7.7981496277
 20
3.7579491212
 30
0.0
 10
7.7943213218
 20
3.7610925552
 30
0.0
 10
7.7894008445
 20
3.7660990932
 30
0.0
 10
7.7834846877
 20
3.7734319011
 30
0.0
 10
7.7773538182
 20
3.7823115188
 30
0.0
 10
7.7710413927
 20
3.7927128656
 30
0.0
 10
7.7645830962
 20
3.8046067726
 30
0.0
 10
7.7580188457
 20
3.8179567631
 30
0.0
 10
7.7513908088
 20
3.8327223757
 30
0.0
 10
7.744742014
 20
3.848859334
 30
0.0
 10
7.7356371804
 20
3.8728568527
 30
0.0
 10
7.7245735046
 20
3.9059371766
 30
0.0
 10
7.7167427382
 20
3.9334930053
 30
0.0
 10
7.7129335913
 20
3.948026919
 30
0.0
  0
SPLINE
  5
36F
100
AcDbEntity
  8
0
100
AcDbSpline
 62
7
  6
CONTINUOUS
 70
0
 71
3
 72
13
 73
9
 74
0
 42
0.0000001
 43
0.0000001
 44
0.0000000001
 40
0.0
 40
0.0
 40
0.0
 40
0.0
 40
0.1119738416
 40
0.2288862501
 40
0.4751303217
 40
0.733966674
 40
0.8664870703
 40
1.0
 40
1.0
 40
1.0
 40
1.0
 10
7.7086678898
 20
3.9648401781
 30
0.0
 10
7.7059814196
 20
3.9757836528
 30
0.0
 10
7.7008227921
 20
3.9982363008
 30
0.0
 10
7.6914324119
 20
4.0451246552
 30
0.0
 10
7.6817468276
 20
4.1069992776
 30
0.0
 10
7.6753072329
 20
4.1708743629
 30
0.0
 10
7.6721679633
 20
4.2236059887
 30
0.0
 10
7.6713080949
 20
4.2503684349
 30
0.0
 10
7.6710635905
 20
4.2638021751
 30
0.0
  0
SPLINE
  5
370
100
AcDbEntity
  8
0
100
AcDbSpline
 62
7
  6
CONTINUOUS
 70
0
 71
3
 72
15
 73
11
 74
0
 42
0.0000001
 43
0.0000001
 44
0.0000000001
 40
0.0
 40
0.0
 40
0.0
 40
0.0
 40
0.0843273909
 40
0.1815573567
 40
0.2923042339
 40
0.4160785348
 40
0.5516926206
 40
0.6966812437
 40
0.8477582655
 40
1.0
 40
1.0
 40
1.0
 40
1.0
 10
5.5949894725
 20
5.0987875996
 30
0.0
 10
5.5942522796
 20
5.0977781527
 30
0.0
 10
5.5924008615
 20
5.0957952568
 30
0.0
 10
5.5889295789
 20
5.0931772946
 30
0.0
 10
5.5846181854
 20
5.0907841584
 30
0.0
 10
5.579539587
 20
5.08868197
 30
0.0
 10
5.5737925556
 20
5.0869486167
 30
0.0
 10
5.5675199044
 20
5.0856450627
 30
0.0
 10
5.5609161181
 20
5.0848440452
 30
0.0
 10
5.5564182287
 20
5.0846563196
 30
0.0
 10
5.5541615682
 20
5.0846567028
 30
0.0
  0
SPLINE
  5
371
100
AcDbEntity
  8
0
100
AcDbSpline
 62
7
  6
CONTINUOUS
 70
0
 71
3
 72
20
 73
16
 74
0
 42
0.0000001
 43
0.0000001
 44
0.0000000001
 40
0.0
 40
0.0
 40
0.0
 40
0.0
 40
0.005713791
 40
0.0135449983
 40
0.0355684032
 40
0.0659333232
 40
0.1043919658
 40
0.1505828948
 40
0.2039464921
 40
0.2638936085
 40
0.3298321693
 40
0.4772748744
 40
0.6414020614
 40
0.8173002857
 40
1.0
 40
1.0
 40
1.0
 40
1.0
 10
2.5650167198
 20
5.084301268
 30
0.0
 10
2.5649474609
 20
5.0843010058
 30
0.0
 10
2.5647835069
 20
5.0843184928
 30
0.0
 10
2.5643603475
 20
5.0844011921
 30
0.0
 10
2.5636570471
 20
5.0846004781
 30
0.0
 10
2.5626115626
 20
5.0849459405
 30
0.0
 10
2.5613008845
 20
5.0854218224
 30
0.0
 10
2.5597393688
 20
5.0860221505
 30
0.0
 10
2.5579441555
 20
5.0867400919
 30
0.0
 10
2.5559349318
 20
5.0875671458
 30
0.0
 10
2.5528814103
 20
5.08885287
 30
0.0
 10
2.5486819426
 20
5.0906707732
 30
0.0
 10
2.5432807384
 20
5.0930669837
 30
0.0
 10
2.5375075645
 20
5.0956781802
 30
0.0
 10
2.533557881
 20
5.0974931969
 30
0.0
 10
2.5315480935
 20
5.0984233303
 30
0.0
  0
SPLINE
  5
372
100
AcDbEntity
  8
0
100
AcDbSpline
 62
7
  6
CONTINUOUS
 70
0
 71
3
 72
11
 73
7
 74
0
 42
0.0000001
 43
0.0000001
 44
0.0000000001
 40
0.0
 40
0.0
 40
0.0
 40
0.0
 40
0.2081039092
 40
0.4439431508
 40
0.7078809193
 40
1.0
 40
1.0
 40
1.0
 40
1.0
 10
8.7632266122
 20
4.6906918348
 30
0.0
 10
8.7642850608
 20
4.6890294931
 30
0.0
 10
8.7663671287
 20
4.6853705426
 30
0.0
 10
8.7692608735
 20
4.6793195274
 30
0.0
 10
8.7721104713
 20
4.6723793648
 30
0.0
 10
8.7738854165
 20
4.6674199253
 30
0.0
 10
8.7747700188
 20
4.6647988576
 30
0.0
  0
SPLINE
  5
373
100
AcDbEntity
  8
0
100
AcDbSpline
 62
7
  6
CONTINUOUS
 70
0
 71
3
 72
15
 73
11
 74
0
 42
0.0000001
 43
0.0000001
 44
0.0000000001
 40
0.0
 40
0.0
 40
0.0
 40
0.0
 40
0.1367408823
 40
0.2725138904
 40
0.405958855
 40
0.535895778
 40
0.6612785659
 40
0.7810809385
 40
0.8943099498
 40
1.0
 40
1.0
 40
1.0
 40
1.0
 10
8.6764001256
 20
4.290416453
 30
0.0
 10
8.6764015739
 20
4.2755938723
 30
0.0
 10
8.6766207629
 20
4.2460532021
 30
0.0
 10
8.6775892725
 20
4.2020567844
 30
0.0
 10
8.6791933217
 20
4.1588167893
 30
0.0
 10
8.6814181636
 20
4.1167320095
 30
0.0
 10
8.6842416983
 20
4.0761652542
 30
0.0
 10
8.6876417593
 20
4.0374601702
 30
0.0
 10
8.6915828837
 20
4.000952698
 30
0.0
 10
8.6946646324
 20
3.9774201417
 30
0.0
 10
8.6963074869
 20
3.9660818434
 30
0.0
  0
SPLINE
  5
374
100
AcDbEntity
  8
0
100
AcDbSpline
 62
7
  6
CONTINUOUS
 70
0
 71
3
 72
36
 73
32
 74
0
 42
0.0000001
 43
0.0000001
 44
0.0000000001
 40
0.0
 40
0.0
 40
0.0
 40
0.0
 40
0.1072088783
 40
0.2035304497
 40
0.2474297326
 40
0.2884011468
 40
0.3263877535
 40
0.3613499188
 40
0.3932774617
 40
0.4221776773
 40
0.4480805453
 40
0.4710509471
 40
0.491215738
 40
0.5088038068
 40
0.5241759747
 40
0.5378829636
 40
0.5507068625
 40
0.5636052706
 40
0.577518907
 40
0.5931951649
 40
0.6111523107
 40
0.6317280187
 40
0.6551343555
 40
0.681485854
 40
0.7108410766
 40
0.743225956
 40
0.7786451099
 40
0.8170848901
 40
0.8585013969
 40
0.9028366186
 40
1.0
 40
1.0
 40
1.0
 40
1.0
 10
8.7002766928
 20
3.9406698843
 30
0.0
 10
8.7018166811
 20
3.9315236367
 30
0.0
 10
8.7049777897
 20
3.9141985118
 30
0.0
 10
8.7095518872
 20
3.8932806476
 30
0.0
 10
8.7134183112
 20
3.8780880104
 30
0.0
 10
8.7162998283
 20
3.8678559154
 30
0.0
 10
8.7192478185
 20
3.8584498305
 30
0.0
 10
8.7222573567
 20
3.849888097
 30
0.0
 10
8.7253213242
 20
3.842185315
 30
0.0
 10
8.7284335755
 20
3.8353538831
 30
0.0
 10
8.7315883431
 20
3.8294052239
 30
0.0
 10
8.7347813385
 20
3.8243491312
 30
0.0
 10
8.7380116593
 20
3.8201928912
 30
0.0
 10
8.7412801319
 20
3.8169390549
 30
0.0
 10
8.744596266
 20
3.8145935539
 30
0.0
 10
8.7479742526
 20
3.8131801177
 30
0.0
 10
8.7514055637
 20
3.8127493925
 30
0.0
 10
8.754831403
 20
3.8133324591
 30
0.0
 10
8.7581992137
 20
3.8148897451
 30
0.0
 10
8.761506723
 20
3.8173736989
 30
0.0
 10
8.7647683777
 20
3.8207643676
 30
0.0
 10
8.7679922791
 20
3.825057121
 30
0.0
 10
8.7711785351
 20
3.8302489608
 30
0.0
 10
8.7743260189
 20
3.8363319801
 30
0.0
 10
8.7774299482
 20
3.8432961291
 30
0.0
 10
8.7804845275
 20
3.8511298119
 30
0.0
 10
8.7834834777
 20
3.859820431
 30
0.0
 10
8.7864197591
 20
3.8693528638
 30
0.0
 10
8.7892886839
 20
3.8797083049
 30
0.0
 10
8.7931348277
 20
3.8950595849
 30
0.0
 10
8.7957133603
 20
3.90703076
 30
0.0
 10
8.7973504287
 20
3.9152757278
 30
0.0
  0
SPLINE
  5
375
100
AcDbEntity
  8
0
100
AcDbSpline
 62
7
  6
CONTINUOUS
 70
0
 71
3
 72
12
 73
8
 74
0
 42
0.0000001
 43
0.0000001
 44
0.0000000001
 40
0.0
 40
0.0
 40
0.0
 40
0.0
 40
0.1040527481
 40
0.2104696672
 40
0.4384173465
 40
0.6984804447
 40
1.0
 40
1.0
 40
1.0
 40
1.0
 10
8.7510250178
 20
4.6982269532
 30
0.0
 10
8.7515385615
 20
4.6982266461
 30
0.0
 10
8.7525790016
 20
4.698144707
 30
0.0
 10
8.7546925832
 20
4.6976493283
 30
0.0
 10
8.7573692645
 20
4.6963625141
 30
0.0
 10
8.760433817
 20
4.6939208283
 30
0.0
 10
8.7622955842
 20
4.691852741
 30
0.0
 10
8.7632266122
 20
4.6906918348
 30
0.0
  0
SPLINE
  5
376
100
AcDbEntity
  8
0
100
AcDbSpline
 62
7
  6
CONTINUOUS
 70
0
 71
3
 72
14
 73
10
 74
0
 42
0.0000001
 43
0.0000001
 44
0.0000000001
 40
0.0
 40
0.0
 40
0.0
 40
0.0
 40
0.0878483049
 40
0.1817189595
 40
0.2847627484
 40
0.3993400724
 40
0.5271417397
 40
0.669358999
 40
1.0
 40
1.0
 40
1.0
 40
1.0
 10
8.7490449822
 20
4.698181428
 30
0.0
 10
8.7495583784
 20
4.6981213951
 30
0.0
 10
8.7506088426
 20
4.6978749149
 30
0.0
 10
8.752137281
 20
4.6971663704
 30
0.0
 10
8.7536514671
 20
4.6961207676
 30
0.0
 10
8.7551525789
 20
4.6947430535
 30
0.0
 10
8.7566429994
 20
4.6930352514
 30
0.0
 10
8.7587216217
 20
4.6901727142
 30
0.0
 10
8.7600980689
 20
4.6877437387
 30
0.0
 10
8.7609830259
 20
4.6860111934
 30
0.0
  0
SPLINE
  5
377
100
AcDbEntity
  8
0
100
AcDbSpline
 62
7
  6
CONTINUOUS
 70
0
 71
3
 72
11
 73
7
 74
0
 42
0.0000001
 43
0.0000001
 44
0.0000000001
 40
0.0
 40
0.0
 40
0.0
 40
0.0
 40
0.2107626723
 40
0.4476247162
 40
0.7107159279
 40
1.0
 40
1.0
 40
1.0
 40
1.0
 10
8.7609830259
 20
4.6860111934
 30
0.0
 10
8.7617324715
 20
4.6845439485
 30
0.0
 10
8.7632054568
 20
4.6813667264
 30
0.0
 10
8.7652576669
 20
4.6762016941
 30
0.0
 10
8.7672761578
 20
4.670369801
 30
0.0
 10
8.7685366612
 20
4.6662388912
 30
0.0
 10
8.769164414
 20
4.6640663873
 30
0.0
  0
ELLIPSE
  5
378
100
AcDbEntity
  8
0
100
AcDbEllipse
 62
7
  6
CONTINUOUS
 10
5.262914005
 20
6.0942453015
 30
0.0
 11
3.9999962282
 21
0.1484350087
 31
0.0
 40
0.0370070051
 41
-2.3888228629
 42
-2.3263126859
  0
ELLIPSE
  5
379
100
AcDbEntity
  8
0
100
AcDbEllipse
 62
7
  6
CONTINUOUS
 10
5.262914005
 20
6.0942453015
 30
0.0
 11
3.9999990615
 21
-0.202525229
 31
0.0
 40
0.0135294546
 41
-0.2923694623
 42
-0.2298592853
  0
ELLIPSE
  5
37A
100
AcDbEntity
  8
0
100
AcDbEllipse
 62
7
  6
CONTINUOUS
 10
5.262914005
 20
5.5158668519
 30
0.0
 11
3.9999990525
 21
-0.0543958813
 31
0.0
 40
0.0506126916
 41
1.8020289066
 42
1.8645390836
  0
ENDSEC
  0
SECTION
  2
OBJECTS
  0
DICTIONARY
  5
C
100
AcDbDictionary
280
0
281
1
  3
ACAD_GROUP
350
D
  3
ACAD_MLINESTYLE
350
17
  3
ACAD_LAYOUT
350
1A
  3
ACAD_PLOTSETTINGS
350
19
  3
ACAD_PLOTSTYLENAME
350
E
  0
DICTIONARY
  5
D
102
{ACAD_REACTORS
330
C
102
}
100
AcDbDictionary
280
0
281
1
  0
ACDBDICTIONARYWDFLT
  5
E
102
{ACAD_REACTORS
330
C
102
}
100
AcDbDictionary
281
1
  3
Normal
350
F
100
AcDbDictionaryWithDefault
340
F
  0
DICTIONARY
  5
17
102
{ACAD_REACTORS
330
C
102
}
100
AcDbDictionary
280
0
281
1
  3
Standard
350
18
  0
DICTIONARY
  5
19
102
{ACAD_REACTORS
330
C
102
}
100
AcDbDictionary
281
1
  0
DICTIONARY
  5
1A
102
{ACAD_REACTORS
330
C
102
}
100
AcDbDictionary
281
1
  3
Model
350
37B
  3
Layout1
350
37C
  0
ACDBPLACEHOLDER
  5
F
102
{ACAD_REACTORS
330
E
102
}
  0
MLINESTYLE
  5
18
102
{ACAD_REACTORS
330
17
102
}
100
AcDbMlineStyle
  2
STANDARD
 70
0
  3

 62
256
 51
90.0
 52
90.0
 71
2
 49
0.5
 62
256
  6
BYLAYER
 49
-0.5
 62
256
  6
BYLAYER
  0
LAYOUT
  5
37B
102
{ACAD_REACTORS
330
1A
102
}
100
AcDbPlotSettings
  1

  2
none_device
  4
ANSI_A_(11.00_x_8.50_Inches)
  6

 40
0.0
 41
0.0
 42
0.0
 43
0.0
 44
279.4
 45
215.9
 46
0.0
 47
0.0
 48
0.0
 49
0.0
140
0.0
141
0.0
142
1.0
143
1.0
 70
1024
 72
0
 73
0
 74
0
  7

 75
0
147
1.0
148
0.0
149
0.0
100
AcDbLayout
  1
Model
 70
0
 71
0
 10
0.0
 20
0.0
 11
11.0
 21
8.5
 12
0.0
 22
0.0
 32
0.0
 14
0.0
 24
0.0
 34
0.0
 15
0.0
 25
0.0
 35
0.0
146
0.0
 13
0.0
 23
0.0
 33
0.0
 16
1.0
 26
0.0
 36
0.0
 17
0.0
 27
1.0
 37
0.0
 76
0
330
208
345
0
346
0
  0
LAYOUT
  5
37C
102
{ACAD_REACTORS
330
1A
102
}
100
AcDbPlotSettings
  1

  2
none_device
  4
ANSI_A_(11.00_x_8.50_Inches)
  6

 40
0.0
 41
0.0
 42
0.0
 43
0.0
 44
279.4
 45
215.9
 46
0.0
 47
0.0
 48
0.0
 49
0.0
140
0.0
141
0.0
142
1.0
143
1.0
 70
0
 72
0
 73
0
 74
0
  7

 75
0
147
1.0
148
0.0
149
0.0
100
AcDbLayout
  1
Layout1
 70
0
 71
1
 10
0.0
 20
0.0
 11
11.0
 21
8.5
 12
0.0
 22
0.0
 32
0.0
 14
0.0
 24
0.0
 34
0.0
 15
0.0
 25
0.0
 35
0.0
146
0.0
 13
0.0
 23
0.0
 33
0.0
 16
1.0
 26
0.0
 36
0.0
 17
0.0
 27
1.0
 37
0.0
 76
0
330
209
345
0
346
0
  0
ENDSEC
  0
EOF
