999
DXF file: 280_right.dxf
999
Pro/ENGINEER 2018400 by Parametric Technology Corporation
  0
SECTION
  2
HEADER
  9
$ACADVER
  1
AC1027
  9
$DWGCODEPAGE
  3
ANSI_1252
  9
$EXTMAX
 10
11.0
 20
8.5
 30
0.0
  9
$EXTMIN
 10
0.0
 20
0.0
 30
0.0
  9
$LIMMIN
 10
0.0
 20
0.0
  9
$LIMMAX
 10
11.0
 20
8.5
  9
$VIEWCTR
 10
5.5
 20
4.25
  9
$VIEWSIZE
 40
8.5
  9
$CLAYER
  8
0
  9
$LTSCALE
 40
0.605
  9
$CELTYPE
  6
BYLAYER
  9
$DIMSCALE
 40
1.0
  9
$DIMASZ
 40
0.1
  9
$DIMEXO
 40
0.0625
  9
$DIMDLI
 40
0.418
  9
$DIMEXE
 40
0.125
  9
$DIMCEN
 40
0.099
  9
$DIMLFAC
 40
1.0
  9
$DIMBLK
  1
_FILLED
  9
$DIMALT
 70
1
  9
$DIMALTD
 70
2
  9
$DIMALTTD
 70
2
  9
$DIMALTF
 40
25.4
  9
$DIMTXT
 40
0.08
  9
$DIMTOL
 70
1
  9
$DIMLIM
 70
0
  9
$DIMTFAC
 40
1.0
  9
$DIMTP
 40
0.001
  9
$DIMTM
 40
0.001
  9
$DIMGAP
 40
0.09
  9
$DIMDSEP
 70
46
  9
$AUNITS
 70
0
  9
$PDMODE
 70
3
  9
$PDSIZE
 40
0.3125
  9
$HANDSEED
  5
3E0
  9
$TILEMODE
 70
1
  9
$MEASUREMENT
 70
0
  9
$INSUNITS
 70
1
  0
ENDSEC
  0
SECTION
  2
CLASSES
  0
CLASS
  1
ACDBDICTIONARYWDFLT
  2
AcDbDictionaryWithDefault
  3
AutoCAD 2000
 90
0
 91
1
280
0
281
0
  0
CLASS
  1
ACDBPLACEHOLDER
  2
AcDbPlaceHolder
  3
AutoCAD 2000
 90
0
 91
1
280
0
281
0
  0
CLASS
  1
LAYOUT
  2
AcDbLayout
  3
AutoCAD 2000
 90
0
 91
0
280
0
281
0
  0
ENDSEC
  0
SECTION
  2
TABLES
  0
TABLE
  2
VPORT
  5
8
100
AcDbSymbolTable
 70
2
  0
VPORT
  5
1F4
100
AcDbSymbolTableRecord
100
AcDbViewportTableRecord
  2
*ACTIVE
 70
0
 10
0.0
 20
0.0
 11
1.0
 21
1.0
 12
5.5
 22
4.25
 13
0.0
 23
0.0
 14
1.0
 24
1.0
 15
0.0
 25
0.0
 16
0.0
 26
0.0
 36
1.0
 17
0.0
 27
0.0
 37
0.0
 40
8.5
 41
1.2941176471
 42
50.0
 43
0.0
 44
0.0
 50
0.0
 51
0.0
 71
0
 72
100
 73
1
 74
1
 75
0
 76
0
 77
0
 78
0
  0
ENDTAB
  0
TABLE
  2
LTYPE
  5
5
100
AcDbSymbolTable
 70
6
  0
LTYPE
  5
14
100
AcDbSymbolTableRecord
100
AcDbLinetypeTableRecord
  2
BYBLOCK
 70
0
  3

 72
65
 73
0
 40
0.0
  0
LTYPE
  5
15
100
AcDbSymbolTableRecord
100
AcDbLinetypeTableRecord
  2
BYLAYER
 70
0
  3

 72
65
 73
0
 40
0.0
  0
LTYPE
  5
16
100
AcDbSymbolTableRecord
100
AcDbLinetypeTableRecord
  2
CONTINUOUS
 70
64
  3
Solid line
 72
65
 73
0
 40
0.0
  0
LTYPE
  5
1F5
100
AcDbSymbolTableRecord
100
AcDbLinetypeTableRecord
  2
CENTER
 70
64
  3
____ _ ____ _ ____ _ ____ _ ____ _ ____ _ ____
 72
65
 73
4
 40
0.6
 49
0.375
 74
0
 49
-0.075
 74
0
 49
0.075
 74
0
 49
-0.075
 74
0
  0
LTYPE
  5
1F6
100
AcDbSymbolTableRecord
100
AcDbLinetypeTableRecord
  2
HIDDEN
 70
64
  3
- - - - - - - - - - - - - - - - - - - -
 72
65
 73
2
 40
0.2
 49
0.1
 74
0
 49
-0.1
 74
0
  0
LTYPE
  5
1F7
100
AcDbSymbolTableRecord
100
AcDbLinetypeTableRecord
  2
PHANTOM
 70
64
  3
_____ _ _ _____ _ _ _____ _ _ _____
 72
65
 73
6
 40
0.8
 49
0.45
 74
0
 49
-0.05
 74
0
 49
0.1
 74
0
 49
-0.05
 74
0
 49
0.1
 74
0
 49
-0.05
 74
0
  0
LTYPE
  5
1F8
100
AcDbSymbolTableRecord
100
AcDbLinetypeTableRecord
  2
DOT
 70
64
  3
. . . . . . . . . . . . . . . . . . . .
 72
65
 73
2
 40
0.2
 49
0.1
 74
0
 49
-0.1
 74
0
  0
LTYPE
  5
1F9
100
AcDbSymbolTableRecord
100
AcDbLinetypeTableRecord
  2
DASHED
 70
64
  3
- - - - - - - - - - - - - - - - - - - -
 72
65
 73
2
 40
0.2
 49
0.1
 74
0
 49
-0.1
 74
0
  0
ENDTAB
  0
TABLE
  2
LAYER
  5
2
100
AcDbSymbolTable
 70
36
  0
LAYER
  5
10
100
AcDbSymbolTableRecord
100
AcDbLayerTableRecord
  2
0
 70
0
 62
7
  6
CONTINUOUS
370
-3
390
F
  0
LAYER
  5
1FA
100
AcDbSymbolTableRecord
100
AcDbLayerTableRecord
  2
DEFAULT_1
 70
0
 62
7
  6
CENTER
370
-3
390
F
  0
LAYER
  5
1FB
100
AcDbSymbolTableRecord
100
AcDbLayerTableRecord
  2
DEFAULT_2
 70
0
 62
8
  6
HIDDEN
370
-3
390
F
  0
LAYER
  5
1FC
100
AcDbSymbolTableRecord
100
AcDbLayerTableRecord
  2
DEFAULT_3
 70
0
 62
7
  6
PHANTOM
370
-3
390
F
  0
LAYER
  5
1FD
100
AcDbSymbolTableRecord
100
AcDbLayerTableRecord
  2
280_ASSY_DATUMS
 70
0
 62
7
  6
CONTINUOUS
370
-3
390
F
  0
LAYER
  5
1FE
100
AcDbSymbolTableRecord
100
AcDbLayerTableRecord
  2
ALL_ASSEMBLY_MEMBERS
 70
0
 62
7
  6
CONTINUOUS
370
-3
390
F
  0
LAYER
  5
1FF
100
AcDbSymbolTableRecord
100
AcDbLayerTableRecord
  2
ALL_FEATURES
 70
0
 62
7
  6
CONTINUOUS
370
-3
390
F
  0
LAYER
  5
200
100
AcDbSymbolTableRecord
100
AcDbLayerTableRecord
  2
AXES_FEATURES
 70
0
 62
7
  6
CONTINUOUS
370
-3
390
F
  0
LAYER
  5
201
100
AcDbSymbolTableRecord
100
AcDbLayerTableRecord
  2
CHAMFER_FEATURES
 70
0
 62
7
  6
CONTINUOUS
370
-3
390
F
  0
LAYER
  5
202
100
AcDbSymbolTableRecord
100
AcDbLayerTableRecord
  2
COLOR92
 70
0
 62
7
  6
CONTINUOUS
370
-3
390
F
  0
LAYER
  5
203
100
AcDbSymbolTableRecord
100
AcDbLayerTableRecord
  2
COORDINATE_SYSTEMS
 70
0
 62
7
  6
CONTINUOUS
370
-3
390
F
  0
LAYER
  5
204
100
AcDbSymbolTableRecord
100
AcDbLayerTableRecord
  2
COSMETIC
 70
0
 62
7
  6
CONTINUOUS
370
-3
390
F
  0
LAYER
  5
205
100
AcDbSymbolTableRecord
100
AcDbLayerTableRecord
  2
CSA_LOGO
 70
0
 62
7
  6
CONTINUOUS
370
-3
390
F
  0
LAYER
  5
206
100
AcDbSymbolTableRecord
100
AcDbLayerTableRecord
  2
CURVES
 70
0
 62
7
  6
CONTINUOUS
370
-3
390
F
  0
LAYER
  5
207
100
AcDbSymbolTableRecord
100
AcDbLayerTableRecord
  2
CUT_FEATURES
 70
0
 62
7
  6
CONTINUOUS
370
-3
390
F
  0
LAYER
  5
208
100
AcDbSymbolTableRecord
100
AcDbLayerTableRecord
  2
DATUM_CURVES
 70
0
 62
7
  6
CONTINUOUS
370
-3
390
F
  0
LAYER
  5
209
100
AcDbSymbolTableRecord
100
AcDbLayerTableRecord
  2
DATUM_PLANES
 70
0
 62
7
  6
CONTINUOUS
370
-3
390
F
  0
LAYER
  5
20A
100
AcDbSymbolTableRecord
100
AcDbLayerTableRecord
  2
DATUM_POINTS
 70
0
 62
7
  6
CONTINUOUS
370
-3
390
F
  0
LAYER
  5
20B
100
AcDbSymbolTableRecord
100
AcDbLayerTableRecord
  2
DEFAULT_COORDINATE_SYSTEM
 70
0
 62
7
  6
CONTINUOUS
370
-3
390
F
  0
LAYER
  5
20C
100
AcDbSymbolTableRecord
100
AcDbLayerTableRecord
  2
DEFAULT_DATUM_AXES
 70
0
 62
7
  6
CONTINUOUS
370
-3
390
F
  0
LAYER
  5
20D
100
AcDbSymbolTableRecord
100
AcDbLayerTableRecord
  2
DEFAULT_DATUM_CURVES
 70
0
 62
7
  6
CONTINUOUS
370
-3
390
F
  0
LAYER
  5
20E
100
AcDbSymbolTableRecord
100
AcDbLayerTableRecord
  2
DEFAULT_DATUM_PLANES
 70
0
 62
7
  6
CONTINUOUS
370
-3
390
F
  0
LAYER
  5
20F
100
AcDbSymbolTableRecord
100
AcDbLayerTableRecord
  2
DEFAULT_SURFACES
 70
0
 62
7
  6
CONTINUOUS
370
-3
390
F
  0
LAYER
  5
210
100
AcDbSymbolTableRecord
100
AcDbLayerTableRecord
  2
DELTA_LOGO_CURVE
 70
0
 62
7
  6
CONTINUOUS
370
-3
390
F
  0
LAYER
  5
211
100
AcDbSymbolTableRecord
100
AcDbLayerTableRecord
  2
DIMENSIONS
 70
0
 62
7
  6
CONTINUOUS
370
-3
390
F
  0
LAYER
  5
212
100
AcDbSymbolTableRecord
100
AcDbLayerTableRecord
  2
DRILL_POINT
 70
0
 62
7
  6
CONTINUOUS
370
-3
390
F
  0
LAYER
  5
213
100
AcDbSymbolTableRecord
100
AcDbLayerTableRecord
  2
DTM_PLANES
 70
0
 62
7
  6
CONTINUOUS
370
-3
390
F
  0
LAYER
  5
214
100
AcDbSymbolTableRecord
100
AcDbLayerTableRecord
  2
EXT_SURFACE
 70
0
 62
7
  6
CONTINUOUS
370
-3
390
F
  0
LAYER
  5
215
100
AcDbSymbolTableRecord
100
AcDbLayerTableRecord
  2
GTOL_DTMS
 70
0
 62
7
  6
CONTINUOUS
370
-3
390
F
  0
LAYER
  5
216
100
AcDbSymbolTableRecord
100
AcDbLayerTableRecord
  2
IMPORT
 70
0
 62
7
  6
CONTINUOUS
370
-3
390
F
  0
LAYER
  5
217
100
AcDbSymbolTableRecord
100
AcDbLayerTableRecord
  2
LOGO_CURVES
 70
0
 62
7
  6
CONTINUOUS
370
-3
390
F
  0
LAYER
  5
218
100
AcDbSymbolTableRecord
100
AcDbLayerTableRecord
  2
PLATED_SURFACE_AREA
 70
0
 62
7
  6
CONTINUOUS
370
-3
390
F
  0
LAYER
  5
219
100
AcDbSymbolTableRecord
100
AcDbLayerTableRecord
  2
POINTS
 70
0
 62
7
  6
CONTINUOUS
370
-3
390
F
  0
LAYER
  5
21A
100
AcDbSymbolTableRecord
100
AcDbLayerTableRecord
  2
PROTRUSION_FEATURES
 70
0
 62
7
  6
CONTINUOUS
370
-3
390
F
  0
LAYER
  5
21B
100
AcDbSymbolTableRecord
100
AcDbLayerTableRecord
  2
QUILTS
 70
0
 62
7
  6
CONTINUOUS
370
-3
390
F
  0
LAYER
  5
21C
100
AcDbSymbolTableRecord
100
AcDbLayerTableRecord
  2
ROUND_FEATURES
 70
0
 62
7
  6
CONTINUOUS
370
-3
390
F
  0
LAYER
  5
21D
100
AcDbSymbolTableRecord
100
AcDbLayerTableRecord
  2
START_DTMS
 70
0
 62
7
  6
CONTINUOUS
370
-3
390
F
  0
LAYER
  5
21E
100
AcDbSymbolTableRecord
100
AcDbLayerTableRecord
  2
SURFACE_FEATURES
 70
0
 62
7
  6
CONTINUOUS
370
-3
390
F
  0
LAYER
  5
21F
100
AcDbSymbolTableRecord
100
AcDbLayerTableRecord
  2
SURFS
 70
0
 62
7
  6
CONTINUOUS
370
-3
390
F
  0
LAYER
  5
220
100
AcDbSymbolTableRecord
100
AcDbLayerTableRecord
  2
WETTED_SURFACE
 70
0
 62
7
  6
CONTINUOUS
370
-3
390
F
  0
LAYER
  5
221
100
AcDbSymbolTableRecord
100
AcDbLayerTableRecord
  2
XSEC_DATUMS
 70
0
 62
7
  6
CONTINUOUS
370
-3
390
F
  0
ENDTAB
  0
TABLE
  2
STYLE
  5
3
100
AcDbSymbolTable
 70
1
  0
STYLE
  5
11
100
AcDbSymbolTableRecord
100
AcDbTextStyleTableRecord
  2
STANDARD
 70
0
 40
0.0
 41
0.8
 50
0.0
 71
0
 42
0.2
  3
txt
  4

  0
STYLE
  5
222
100
AcDbSymbolTableRecord
100
AcDbTextStyleTableRecord
  2
TEXTSTYLE_1
 70
0
 40
0.0
 41
0.8
 50
0.0
 71
0
 42
0.2
  3
gdt
  4

  0
ENDTAB
  0
TABLE
  2
VIEW
  5
6
100
AcDbSymbolTable
 70
0
  0
ENDTAB
  0
TABLE
  2
UCS
  5
7
100
AcDbSymbolTable
 70
0
  0
ENDTAB
  0
TABLE
  2
APPID
  5
9
100
AcDbSymbolTable
 70
1
  0
APPID
  5
223
100
AcDbSymbolTableRecord
100
AcDbRegAppTableRecord
  2
ACAD
 70
0
  0
ENDTAB
  0
TABLE
  2
BLOCK_RECORD
  5
1
100
AcDbSymbolTable
 70
0
  0
BLOCK_RECORD
  5
224
100
AcDbSymbolTableRecord
100
AcDbBlockTableRecord
  2
*Model_Space
  0
BLOCK_RECORD
  5
225
100
AcDbSymbolTableRecord
100
AcDbBlockTableRecord
  2
*Paper_Space
  0
BLOCK_RECORD
  5
226
100
AcDbSymbolTableRecord
100
AcDbBlockTableRecord
  2
_FILLED
  0
ENDTAB
  0
TABLE
  2
DIMSTYLE
  5
A
100
AcDbSymbolTable
 70
1
100
AcDbDimStyleTable
 71
0
  0
DIMSTYLE
105
227
100
AcDbSymbolTableRecord
100
AcDbDimStyleTableRecord
  2
STANDARD
 70
0
  3

  4

 40
1.0
 41
0.1
 42
0.0625
 43
0.38
 44
0.125
 45
0.0
 46
0.0
 47
0.001
 48
0.001
140
0.08
141
0.09
142
0.0
143
25.4
144
1.0
145
0.0
146
1.0
147
0.09
 71
1.0
 72
0.0
 73
1
 74
1
 75
0
 76
0
 77
0
 78
4
 79
1
170
1
171
2
172
0
173
0
174
0
175
0
176
0
177
0
178
0
270
2
179
3
271
3
272
3
273
2
274
2
275
0
280
0
281
0
282
0
283
1
284
4
285
0
286
0
287
3
288
0
340
11
278
46
341
226
342
226
343
226
344
226
  0
ENDTAB
  0
ENDSEC
  0
SECTION
  2
BLOCKS
  0
BLOCK
  5
20
100
AcDbEntity
  8
0
100
AcDbBlockBegin
  2
*Model_Space
 70
0
 10
0.0
 20
0.0
 30
0.0
  3
*Model_Space
  1

  0
ENDBLK
  5
21
100
AcDbEntity
  8
0
100
AcDbBlockEnd
  0
BLOCK
  5
1C
100
AcDbEntity
  8
0
100
AcDbBlockBegin
  2
*Paper_Space
 70
0
 10
0.0
 20
0.0
 30
0.0
  3
*Paper_Space
  1

  0
ENDBLK
  5
1D
100
AcDbEntity
  8
0
100
AcDbBlockEnd
  0
BLOCK
  5
228
100
AcDbEntity
  8
0
100
AcDbBlockBegin
  2
_FILLED
 70
64
 10
0.0
 20
0.0
  3
_FILLED
  1

  0
SOLID
  5
229
100
AcDbEntity
  8
0
  6
BYBLOCK
 62
0
100
AcDbTrace
 10
0.0
 20
0.0
 11
-1.0
 21
0.2
 12
-1.0
 22
-0.2
 13
-1.0
 23
-0.2
  0
ENDBLK
  5
22A
100
AcDbEntity
  8
0
  6
BYBLOCK
 62
0
100
AcDbBlockEnd
  0
ENDSEC
  0
SECTION
  2
ENTITIES
  0
MTEXT
  5
22B
100
AcDbEntity
  8
0
100
AcDbMText
 62
2
  6
CONTINUOUS
  7
STANDARD
 71
3
 72
1
 10
5.5749688308
 20
0.3013915303
 30
0.0
 11
1.0
 21
0.0
 31
0.0
 73
2
 44
0.9
  1
SCALE  1.000
 40
0.08
 41
0.768
  0
LINE
  5
22C
100
AcDbEntity
  8
0
100
AcDbLine
 62
7
  6
CONTINUOUS
 10
0.0
 20
0.0
 11
0.0
 21
8.5
  0
LINE
  5
22D
100
AcDbEntity
  8
0
100
AcDbLine
 62
7
  6
CONTINUOUS
 10
0.0
 20
0.0
 11
11.0
 21
0.0
  0
LINE
  5
22E
100
AcDbEntity
  8
0
100
AcDbLine
 62
7
  6
CONTINUOUS
 10
0.0
 20
8.5
 11
11.0
 21
8.5
  0
LINE
  5
22F
100
AcDbEntity
  8
0
100
AcDbLine
 62
7
  6
CONTINUOUS
 10
11.0
 20
0.0
 11
11.0
 21
8.5
  0
LINE
  5
230
100
AcDbEntity
  8
ALL_ASSEMBLY_MEMBERS
100
AcDbLine
 62
7
  6
CONTINUOUS
 10
4.2263171574
 20
7.7078118338
 11
4.2218188693
 21
7.7056288532
  0
LINE
  5
231
100
AcDbEntity
  8
ALL_ASSEMBLY_MEMBERS
100
AcDbLine
 62
7
  6
CONTINUOUS
 10
5.5886627113
 20
0.727995874
 11
5.5881153191
 21
0.7279810615
  0
LINE
  5
232
100
AcDbEntity
  8
ALL_ASSEMBLY_MEMBERS
100
AcDbLine
 62
7
  6
CONTINUOUS
 10
5.6281288349
 20
0.7291364691
 11
5.6274492114
 21
0.7291170987
  0
LINE
  5
233
100
AcDbEntity
  8
ALL_ASSEMBLY_MEMBERS
100
AcDbLine
 62
7
  6
CONTINUOUS
 10
5.3414040355
 20
0.6385110956
 11
6.073391237
 21
0.6385110956
  0
LINE
  5
234
100
AcDbEntity
  8
ALL_ASSEMBLY_MEMBERS
100
AcDbLine
 62
7
  6
CONTINUOUS
 10
6.0747376353
 20
0.6398510946
 11
5.7790046194
 21
0.6398510948
  0
LINE
  5
235
100
AcDbEntity
  8
ALL_ASSEMBLY_MEMBERS
100
AcDbLine
 62
7
  6
CONTINUOUS
 10
6.011887317
 20
0.6785110956
 11
6.1133976362
 21
0.6785110956
  0
LINE
  5
236
100
AcDbEntity
  8
ALL_ASSEMBLY_MEMBERS
100
AcDbLine
 62
7
  6
CONTINUOUS
 10
4.2505878568
 20
7.6234425079
 11
4.2457605399
 21
7.6210998525
  0
LINE
  5
237
100
AcDbEntity
  8
ALL_ASSEMBLY_MEMBERS
100
AcDbLine
 62
7
  6
CONTINUOUS
 10
5.7866964097
 20
0.8543843383
 11
5.7873760073
 21
0.8544058829
  0
LINE
  5
238
100
AcDbEntity
  8
ALL_ASSEMBLY_MEMBERS
100
AcDbLine
 62
7
  6
CONTINUOUS
 10
5.7704878096
 20
0.8538729712
 11
5.771330761
 21
0.8538995937
  0
LINE
  5
239
100
AcDbEntity
  8
ALL_ASSEMBLY_MEMBERS
100
AcDbLine
 62
7
  6
CONTINUOUS
 10
5.707380322
 20
0.8519101641
 11
5.7100904904
 21
0.8519940662
  0
LINE
  5
23A
100
AcDbEntity
  8
ALL_ASSEMBLY_MEMBERS
100
AcDbLine
 62
7
  6
CONTINUOUS
 10
6.1035672298
 20
0.8985110956
 11
6.1133976362
 21
0.8985110956
  0
LINE
  5
23B
100
AcDbEntity
  8
ALL_ASSEMBLY_MEMBERS
100
AcDbLine
 62
7
  6
CONTINUOUS
 10
6.0519296312
 20
0.9371710965
 11
6.0747376354
 21
0.9371710964
  0
LINE
  5
23C
100
AcDbEntity
  8
ALL_ASSEMBLY_MEMBERS
100
AcDbLine
 62
7
  6
CONTINUOUS
 10
5.3414040355
 20
0.9385110956
 11
6.073391237
 21
0.9385110956
  0
LINE
  5
23D
100
AcDbEntity
  8
ALL_ASSEMBLY_MEMBERS
100
AcDbLine
 62
7
  6
CONTINUOUS
 10
5.3423976362
 20
0.9885110956
 11
6.0723976362
 21
0.9885110956
  0
LINE
  5
23E
100
AcDbEntity
  8
ALL_ASSEMBLY_MEMBERS
100
AcDbLine
 62
7
  6
CONTINUOUS
 10
4.2848651213
 20
7.4233278472
 11
4.2780382979
 21
7.4200148484
  0
LINE
  5
23F
100
AcDbEntity
  8
ALL_ASSEMBLY_MEMBERS
100
AcDbLine
 62
7
  6
CONTINUOUS
 10
4.3115836354
 20
7.2417756691
 11
4.304756812
 21
7.2384626703
  0
LINE
  5
240
100
AcDbEntity
  8
ALL_ASSEMBLY_MEMBERS
100
AcDbLine
 62
7
  6
CONTINUOUS
 10
5.2373976362
 20
1.1785110956
 11
6.1773976362
 21
1.1785110956
  0
LINE
  5
241
100
AcDbEntity
  8
ALL_ASSEMBLY_MEMBERS
100
AcDbLine
 62
7
  6
CONTINUOUS
 10
5.3018742882
 20
0.7129626788
 11
5.3400576375
 21
0.6908889141
  0
LINE
  5
242
100
AcDbEntity
  8
ALL_ASSEMBLY_MEMBERS
100
AcDbLine
 62
7
  6
CONTINUOUS
 10
4.3424715824
 20
7.0455738715
 11
4.335644759
 21
7.0422608728
  0
LINE
  5
243
100
AcDbEntity
  8
ALL_ASSEMBLY_MEMBERS
100
AcDbLine
 62
7
  6
CONTINUOUS
 10
5.2182427853
 20
1.3335110956
 11
6.1965524872
 21
1.3335110956
  0
LINE
  5
244
100
AcDbEntity
  8
ALL_ASSEMBLY_MEMBERS
100
AcDbLine
 62
7
  6
CONTINUOUS
 10
5.3018742869
 20
0.784392671
 11
5.3400576364
 21
0.7623189064
  0
LINE
  5
245
100
AcDbEntity
  8
ALL_ASSEMBLY_MEMBERS
100
AcDbLine
 62
7
  6
CONTINUOUS
 10
5.3018742882
 20
0.8558226515
 11
5.3400576369
 21
0.8337488872
  0
LINE
  5
246
100
AcDbEntity
  8
ALL_ASSEMBLY_MEMBERS
100
AcDbLine
 62
7
  6
CONTINUOUS
 10
5.3201016483
 20
0.9167161629
 11
5.3400576375
 21
0.9051789193
  0
LINE
  5
247
100
AcDbEntity
  8
ALL_FEATURES
100
AcDbLine
 62
7
  6
CONTINUOUS
 10
4.4171684381
 20
6.8150554627
 11
4.423719962
 21
6.818234861
  0
LINE
  5
248
100
AcDbEntity
  8
ALL_ASSEMBLY_MEMBERS
100
AcDbLine
 62
7
  6
CONTINUOUS
 10
4.6242745136
 20
6.8877739123
 11
4.9841375645
 21
7.0624123583
  0
LINE
  5
249
100
AcDbEntity
  8
ALL_FEATURES
100
AcDbLine
 62
7
  6
CONTINUOUS
 10
4.4389982437
 20
6.7700725817
 11
4.4455497676
 21
6.7732519799
  0
LINE
  5
24A
100
AcDbEntity
  8
ALL_ASSEMBLY_MEMBERS
100
AcDbLine
 62
7
  6
CONTINUOUS
 10
5.2702504597
 20
7.2012604872
 11
5.3037294643
 21
7.2174688357
  0
LINE
  5
24B
100
AcDbEntity
  8
ALL_ASSEMBLY_MEMBERS
100
AcDbLine
 62
7
  6
CONTINUOUS
 10
6.1129209847
 20
0.6872788209
 11
6.0747376351
 21
0.709352586
  0
LINE
  5
24C
100
AcDbEntity
  8
ALL_ASSEMBLY_MEMBERS
100
AcDbLine
 62
7
  6
CONTINUOUS
 10
6.1129209848
 20
0.7587087827
 11
6.074737636
 21
0.7807825473
  0
LINE
  5
24D
100
AcDbEntity
  8
ALL_ASSEMBLY_MEMBERS
100
AcDbLine
 62
7
  6
CONTINUOUS
 10
6.1129209842
 20
0.8301388036
 11
6.0747376351
 21
0.8522125684
  0
LINE
  5
24E
100
AcDbEntity
  8
ALL_ASSEMBLY_MEMBERS
100
AcDbLine
 62
7
  6
CONTINUOUS
 10
4.5738675218
 20
6.5687553324
 11
4.5670406984
 21
6.5654423337
  0
LINE
  5
24F
100
AcDbEntity
  8
ALL_ASSEMBLY_MEMBERS
100
AcDbLine
 62
7
  6
CONTINUOUS
 10
6.1056540011
 20
0.9057694343
 11
6.0747376354
 21
0.923642583
  0
LINE
  5
250
100
AcDbEntity
  8
ALL_ASSEMBLY_MEMBERS
100
AcDbLine
 62
7
  6
CONTINUOUS
 10
5.3413976362
 20
0.6385110956
 11
5.3188308038
 21
0.661077928
  0
LINE
  5
251
100
AcDbEntity
  8
ALL_ASSEMBLY_MEMBERS
100
AcDbLine
 62
7
  6
CONTINUOUS
 10
4.7088860974
 20
6.423087234
 11
4.702059274
 21
6.4197742353
  0
LINE
  5
252
100
AcDbEntity
  8
ALL_ASSEMBLY_MEMBERS
100
AcDbLine
 62
7
  6
CONTINUOUS
 10
5.3018742869
 20
0.784392671
 11
5.3013976362
 21
0.7849435991
  0
LINE
  5
253
100
AcDbEntity
  8
ALL_ASSEMBLY_MEMBERS
100
AcDbLine
 62
7
  6
CONTINUOUS
 10
5.3018742882
 20
0.8558226515
 11
5.3013976362
 21
0.8563735811
  0
LINE
  5
254
100
AcDbEntity
  8
ALL_ASSEMBLY_MEMBERS
100
AcDbLine
 62
7
  6
CONTINUOUS
 10
4.8349762225
 20
6.2897592448
 11
4.8281493991
 21
6.2864462461
  0
LINE
  5
255
100
AcDbEntity
  8
ALL_ASSEMBLY_MEMBERS
100
AcDbLine
 62
7
  6
CONTINUOUS
 10
4.9709714417
 20
6.1390074333
 11
4.9661441248
 21
6.1366647779
  0
LINE
  5
256
100
AcDbEntity
  8
ALL_ASSEMBLY_MEMBERS
100
AcDbLine
 62
7
  6
CONTINUOUS
 10
5.0753410058
 20
6.0912468271
 11
5.076070846
 21
6.0914658759
  0
LINE
  5
257
100
AcDbEntity
  8
ALL_ASSEMBLY_MEMBERS
100
AcDbLine
 62
7
  6
CONTINUOUS
 10
5.075333998
 20
6.091252295
 11
5.076070846
 21
6.0914658759
  0
LINE
  5
258
100
AcDbEntity
  8
ALL_ASSEMBLY_MEMBERS
100
AcDbLine
 62
7
  6
CONTINUOUS
 10
6.0733976362
 20
0.9385110956
 11
6.0747376354
 21
0.9371710964
  0
LINE
  5
259
100
AcDbEntity
  8
ALL_ASSEMBLY_MEMBERS
100
AcDbLine
 62
7
  6
CONTINUOUS
 10
6.1074664989
 20
0.9044422328
 11
6.1133976362
 21
0.8985110956
  0
LINE
  5
25A
100
AcDbEntity
  8
ALL_ASSEMBLY_MEMBERS
100
AcDbLine
 62
7
  6
CONTINUOUS
 10
5.0222318697
 20
6.0677359908
 11
5.0177335816
 21
6.0655530102
  0
LINE
  5
25B
100
AcDbEntity
  8
ALL_ASSEMBLY_MEMBERS
100
AcDbLine
 62
7
  6
CONTINUOUS
 10
6.1129209848
 20
0.7587087827
 11
6.1133976362
 21
0.7581578537
  0
LINE
  5
25C
100
AcDbEntity
  8
ALL_ASSEMBLY_MEMBERS
100
AcDbLine
 62
7
  6
CONTINUOUS
 10
6.1129209842
 20
0.8301388036
 11
6.1133976362
 21
0.8295878739
  0
LWPOLYLINE
  5
25D
100
AcDbEntity
  8
ALL_ASSEMBLY_MEMBERS
100
AcDbPolyline
 62
7
  6
CONTINUOUS
 90
12
 70
0
 10
5.2610699613
 20
4.7735110956
 10
5.2590008128
 20
4.770574169
 10
5.2508707532
 20
4.7573463581
 10
5.2436350003
 20
4.7436751657
 10
5.237320961
 20
4.7296181935
 10
5.2319610207
 20
4.7153482475
 10
5.2274809395
 20
4.7008626554
 10
5.2238563125
 20
4.6861640894
 10
5.2211378477
 20
4.6714333725
 10
5.2193218585
 20
4.6567307788
 10
5.2183860318
 20
4.641996034
 10
5.2182427853
 20
4.6335110956
  0
LWPOLYLINE
  5
25E
100
AcDbEntity
  8
ALL_ASSEMBLY_MEMBERS
100
AcDbPolyline
 62
7
  6
CONTINUOUS
 90
13
 70
0
 10
5.2182427853
 20
1.3335110956
 10
5.2184070009
 20
1.3243856417
 10
5.2193836333
 20
1.3095572947
 10
5.2212490075
 20
1.2947848188
 10
5.2240270653
 20
1.2800092722
 10
5.2277229468
 20
1.2652895966
 10
5.2322855604
 20
1.2508026171
 10
5.2377125396
 20
1.2365512362
 10
5.2440704677
 20
1.2225325514
 10
5.2513312674
 20
1.2089146795
 10
5.2594704084
 20
1.1957536596
 10
5.2685111723
 20
1.1829934527
 10
5.2720004407
 20
1.1785110956
  0
LWPOLYLINE
  5
25F
100
AcDbEntity
  8
ALL_ASSEMBLY_MEMBERS
100
AcDbPolyline
 62
7
  6
CONTINUOUS
 90
13
 70
0
 10
5.2377092992
 20
1.3335110956
 10
5.2378659727
 20
1.3243808652
 10
5.2387974875
 20
1.3095486311
 10
5.2405765774
 20
1.2947731573
 10
5.2432259446
 20
1.2799955055
 10
5.2467502393
 20
1.2652746141
 10
5.2511003719
 20
1.2507872974
 10
5.2562738265
 20
1.2365364951
 10
5.2623342498
 20
1.2225192677
 10
5.2692549261
 20
1.2089036107
 10
5.2770122479
 20
1.1957455229
 10
5.2856278774
 20
1.1829890055
 10
5.288950447
 20
1.1785110956
  0
LWPOLYLINE
  5
260
100
AcDbEntity
  8
ALL_ASSEMBLY_MEMBERS
100
AcDbPolyline
 62
7
  6
CONTINUOUS
 90
13
 70
0
 10
5.282025848
 20
1.3335110956
 10
5.2821645939
 20
1.3243884209
 10
5.2829902484
 20
1.309562279
 10
5.2845678951
 20
1.2947914339
 10
5.2869179907
 20
1.2800168791
 10
5.2900446705
 20
1.2652976211
 10
5.2939040188
 20
1.2508106795
 10
5.2984935779
 20
1.2365590484
 10
5.3038709167
 20
1.2225397337
 10
5.3100132801
 20
1.2089207736
 10
5.3169000795
 20
1.1957581807
 10
5.3245503051
 20
1.1829959424
 10
5.3275037958
 20
1.1785110956
  0
LINE
  5
261
100
AcDbEntity
  8
ALL_ASSEMBLY_MEMBERS
100
AcDbLine
 62
7
  6
CONTINUOUS
 10
5.2182427853
 20
4.6335110956
 11
5.2182427853
 21
1.3335110956
  0
LINE
  5
262
100
AcDbEntity
  8
ALL_ASSEMBLY_MEMBERS
100
AcDbLine
 62
7
  6
CONTINUOUS
 10
5.2377092992
 20
4.6335110956
 11
5.2377092992
 21
1.3335110956
  0
LINE
  5
263
100
AcDbEntity
  8
ALL_ASSEMBLY_MEMBERS
100
AcDbLine
 62
7
  6
CONTINUOUS
 10
5.2261686729
 20
5.6982907917
 11
5.1920471927
 21
4.7735110956
  0
LWPOLYLINE
  5
264
100
AcDbEntity
  8
ALL_ASSEMBLY_MEMBERS
100
AcDbPolyline
 62
7
  6
CONTINUOUS
 90
11
 70
0
 10
5.3711416373
 20
4.7584933686
 10
5.368092742
 20
4.7504653072
 10
5.3637483468
 20
4.7375557888
 10
5.3599458652
 20
4.724297065
 10
5.3566979277
 20
4.7108305976
 10
5.3539658062
 20
4.6971562427
 10
5.3517508373
 20
4.6832741442
 10
5.3500847213
 20
4.6693261952
 10
5.3489699061
 20
4.6553596934
 10
5.3483986067
 20
4.6413273411
 10
5.3483153551
 20
4.6335110956
  0
LWPOLYLINE
  5
265
100
AcDbEntity
  8
ALL_ASSEMBLY_MEMBERS
100
AcDbPolyline
 62
7
  6
CONTINUOUS
 90
12
 70
0
 10
5.3182558837
 20
4.7735110956
 10
5.3165012465
 20
4.7705674957
 10
5.3096215644
 20
4.7573373226
 10
5.3035000907
 20
4.743664419
 10
5.2981599693
 20
4.7296063852
 10
5.293627748
 20
4.715336023
 10
5.2898391853
 20
4.7008506149
 10
5.2867733639
 20
4.6861528784
 10
5.2844739213
 20
4.6714237671
 10
5.2829380748
 20
4.6567235989
 10
5.2821468783
 20
4.641992056
 10
5.282025848
 20
4.6335110956
  0
LWPOLYLINE
  5
266
100
AcDbEntity
  8
ALL_ASSEMBLY_MEMBERS
100
AcDbPolyline
 62
7
  6
CONTINUOUS
 90
12
 70
0
 10
5.2785315011
 20
4.7735110956
 10
5.2765640464
 20
4.7705815753
 10
5.2688151796
 20
4.7573564301
 10
5.26191827
 20
4.7436872447
 10
5.2558996953
 20
4.7296315878
 10
5.2507903162
 20
4.7153621656
 10
5.2465191651
 20
4.7008762815
 10
5.2430630061
 20
4.686176632
 10
5.2404705575
 20
4.6714440133
 10
5.2387385854
 20
4.6567386908
 10
5.2378459759
 20
4.6420003991
 10
5.2377092992
 20
4.6335110956
  0
LINE
  5
267
100
AcDbEntity
  8
ALL_ASSEMBLY_MEMBERS
100
AcDbLine
 62
7
  6
CONTINUOUS
 10
4.330392681
 20
7.0305269033
 11
4.343904587
 21
6.9830517956
  0
LINE
  5
268
100
AcDbEntity
  8
ALL_ASSEMBLY_MEMBERS
100
AcDbLine
 62
7
  6
CONTINUOUS
 10
4.2995047339
 20
7.2267287008
 11
4.3477236605
 21
7.057307841
  0
LINE
  5
269
100
AcDbEntity
  8
ALL_ASSEMBLY_MEMBERS
100
AcDbLine
 62
7
  6
CONTINUOUS
 10
4.2727862198
 20
7.4082808789
 11
4.3168357135
 21
7.2535096386
  0
LINE
  5
26A
100
AcDbEntity
  8
ALL_ASSEMBLY_MEMBERS
100
AcDbLine
 62
7
  6
CONTINUOUS
 10
4.2405084618
 20
7.609365883
 11
4.2642009818
 21
7.526120415
  0
LINE
  5
26B
100
AcDbEntity
  8
ALL_ASSEMBLY_MEMBERS
100
AcDbLine
 62
7
  6
CONTINUOUS
 10
4.276987243
 20
7.4811949154
 11
4.2901171994
 21
7.4350618167
  0
LINE
  5
26C
100
AcDbEntity
  8
ALL_ASSEMBLY_MEMBERS
100
AcDbLine
 62
7
  6
CONTINUOUS
 10
4.7364060918
 20
6.3993443641
 11
4.7364125677
 21
6.3993163279
  0
LWPOLYLINE
  5
26D
100
AcDbEntity
  8
ALL_ASSEMBLY_MEMBERS
100
AcDbPolyline
 62
7
  6
CONTINUOUS
 90
11
 70
0
 10
5.3483153551
 20
1.3335110956
 10
5.3484106873
 20
1.3251051808
 10
5.3490032012
 20
1.3110291485
 10
5.3501404888
 20
1.2970417629
 10
5.3518312148
 20
1.2830972478
 10
5.3540737915
 20
1.2692413793
 10
5.356837671
 20
1.2556114856
 10
5.3601091
 20
1.2422084597
 10
5.3639129499
 20
1.2290314086
 10
5.3682399878
 20
1.2162149822
 10
5.3711680275
 20
1.208506224
  0
LINE
  5
26E
100
AcDbEntity
  8
ALL_ASSEMBLY_MEMBERS
100
AcDbLine
 62
7
  6
CONTINUOUS
 10
5.2820258479
 20
4.6335110956
 11
5.2820258479
 21
1.3335110956
  0
LINE
  5
26F
100
AcDbEntity
  8
ALL_ASSEMBLY_MEMBERS
100
AcDbLine
 62
7
  6
CONTINUOUS
 10
5.3013976362
 20
0.8653028891
 11
5.3013976362
 21
0.8563735811
  0
LINE
  5
270
100
AcDbEntity
  8
ALL_ASSEMBLY_MEMBERS
100
AcDbLine
 62
7
  6
CONTINUOUS
 10
5.3013976362
 20
0.7938728575
 11
5.3013976362
 21
0.7849435991
  0
LINE
  5
271
100
AcDbEntity
  8
ALL_ASSEMBLY_MEMBERS
100
AcDbLine
 62
7
  6
CONTINUOUS
 10
5.3013976362
 20
0.7224428761
 11
5.3013976362
 21
0.7135136085
  0
LINE
  5
272
100
AcDbEntity
  8
ALL_ASSEMBLY_MEMBERS
100
AcDbLine
 62
7
  6
CONTINUOUS
 10
5.3400576375
 20
0.9054832513
 11
5.3400576375
 21
0.8879275836
  0
LINE
  5
273
100
AcDbEntity
  8
ALL_ASSEMBLY_MEMBERS
100
AcDbLine
 62
7
  6
CONTINUOUS
 10
5.3400576369
 20
0.8340532193
 11
5.3400576369
 21
0.8164975516
  0
LINE
  5
274
100
AcDbEntity
  8
ALL_ASSEMBLY_MEMBERS
100
AcDbLine
 62
7
  6
CONTINUOUS
 10
5.3400576364
 20
0.7626232377
 11
5.3400576364
 21
0.7450675692
  0
LINE
  5
275
100
AcDbEntity
  8
ALL_ASSEMBLY_MEMBERS
100
AcDbLine
 62
7
  6
CONTINUOUS
 10
5.3400576375
 20
0.6911932462
 11
5.3400576375
 21
0.6736375786
  0
LINE
  5
276
100
AcDbEntity
  8
ALL_ASSEMBLY_MEMBERS
100
AcDbLine
 62
7
  6
CONTINUOUS
 10
5.3423976362
 20
0.9885110956
 11
5.3423976362
 21
0.9385110956
  0
LINE
  5
277
100
AcDbEntity
  8
ALL_ASSEMBLY_MEMBERS
100
AcDbLine
 62
7
  6
CONTINUOUS
 10
5.3483153551
 20
4.6335110956
 11
5.3483153551
 21
1.3335110956
  0
LINE
  5
278
100
AcDbEntity
  8
ALL_ASSEMBLY_MEMBERS
100
AcDbLine
 62
7
  6
CONTINUOUS
 10
5.433630139
 20
1.3335110956
 11
5.433630139
 21
4.6335110956
  0
LINE
  5
279
100
AcDbEntity
  8
ALL_ASSEMBLY_MEMBERS
100
AcDbLine
 62
7
  6
CONTINUOUS
 10
4.7637758547
 20
6.3614961125
 11
4.7637686555
 21
6.3615237977
  0
LINE
  5
27A
100
AcDbEntity
  8
ALL_ASSEMBLY_MEMBERS
100
AcDbLine
 62
7
  6
CONTINUOUS
 10
5.2226268082
 20
5.7581020336
 11
5.2225825684
 21
5.7583882027
  0
LINE
  5
27B
100
AcDbEntity
  8
ALL_ASSEMBLY_MEMBERS
100
AcDbLine
 62
7
  6
CONTINUOUS
 10
5.5359395449
 20
1.3335110956
 11
5.5359395449
 21
4.6335110956
  0
LINE
  5
27C
100
AcDbEntity
  8
ALL_ASSEMBLY_MEMBERS
100
AcDbLine
 62
7
  6
CONTINUOUS
 10
5.6490222933
 20
1.3335110956
 11
5.6490222933
 21
4.6335110956
  0
LINE
  5
27D
100
AcDbEntity
  8
ALL_ASSEMBLY_MEMBERS
100
AcDbLine
 62
7
  6
CONTINUOUS
 10
5.2182427853
 20
4.6335110956
 11
6.1965524872
 21
4.6335110956
  0
LINE
  5
27E
100
AcDbEntity
  8
ALL_ASSEMBLY_MEMBERS
100
AcDbLine
 62
7
  6
CONTINUOUS
 10
5.1920465615
 20
4.7735110956
 11
6.2227487108
 21
4.7735110956
  0
LINE
  5
27F
100
AcDbEntity
  8
ALL_ASSEMBLY_MEMBERS
100
AcDbLine
 62
7
  6
CONTINUOUS
 10
4.34452605
 20
6.9814232278
 11
4.5247436796
 21
6.6100636131
  0
LINE
  5
280
100
AcDbEntity
  8
ALL_ASSEMBLY_MEMBERS
100
AcDbLine
 62
7
  6
CONTINUOUS
 10
4.525638499
 20
6.6085677028
 11
4.343904587
 21
6.9830517956
  0
LINE
  5
281
100
AcDbEntity
  8
ALL_ASSEMBLY_MEMBERS
100
AcDbLine
 62
7
  6
CONTINUOUS
 10
4.5545729805
 20
6.5685770385
 11
4.330392681
 21
7.0305269033
  0
LINE
  5
282
100
AcDbEntity
  8
ALL_ASSEMBLY_MEMBERS
100
AcDbLine
 62
7
  6
CONTINUOUS
 10
4.5670406984
 20
6.5654423337
 11
4.335644759
 21
7.0422608728
  0
LINE
  5
283
100
AcDbEntity
  8
ALL_ASSEMBLY_MEMBERS
100
AcDbLine
 62
7
  6
CONTINUOUS
 10
4.3424715824
 20
7.0455738715
 11
4.5738675218
 21
6.5687553324
  0
LINE
  5
284
100
AcDbEntity
  8
ALL_ASSEMBLY_MEMBERS
100
AcDbLine
 62
7
  6
CONTINUOUS
 10
4.3477236605
 20
7.057307841
 11
4.5863352398
 21
6.5656206276
  0
LINE
  5
285
100
AcDbEntity
  8
ALL_ASSEMBLY_MEMBERS
100
AcDbLine
 62
7
  6
CONTINUOUS
 10
4.689591556
 20
6.4229089401
 11
4.2995047339
 21
7.2267287008
  0
LINE
  5
286
100
AcDbEntity
  8
ALL_ASSEMBLY_MEMBERS
100
AcDbLine
 62
7
  6
CONTINUOUS
 10
4.702059274
 20
6.4197742353
 11
4.304756812
 21
7.2384626703
  0
LINE
  5
287
100
AcDbEntity
  8
ALL_ASSEMBLY_MEMBERS
100
AcDbLine
 62
7
  6
CONTINUOUS
 10
4.3115836354
 20
7.2417756691
 11
4.7088860974
 21
6.423087234
  0
LINE
  5
288
100
AcDbEntity
  8
ALL_ASSEMBLY_MEMBERS
100
AcDbLine
 62
7
  6
CONTINUOUS
 10
4.3168357135
 20
7.2535096386
 11
4.7213538153
 21
6.4199525292
  0
LINE
  5
289
100
AcDbEntity
  8
ALL_ASSEMBLY_MEMBERS
100
AcDbLine
 62
7
  6
CONTINUOUS
 10
4.8156816812
 20
6.2895809508
 11
4.2727862198
 21
7.4082808789
  0
LINE
  5
28A
100
AcDbEntity
  8
ALL_ASSEMBLY_MEMBERS
100
AcDbLine
 62
7
  6
CONTINUOUS
 10
4.8281493991
 20
6.2864462461
 11
4.2780382979
 21
7.4200148484
  0
LINE
  5
28B
100
AcDbEntity
  8
ALL_ASSEMBLY_MEMBERS
100
AcDbLine
 62
7
  6
CONTINUOUS
 10
4.2848651213
 20
7.4233278472
 11
4.8349762225
 21
6.2897592448
  0
LINE
  5
28C
100
AcDbEntity
  8
ALL_ASSEMBLY_MEMBERS
100
AcDbLine
 62
7
  6
CONTINUOUS
 10
5.7657729792
 20
1.3335110956
 11
5.7657729792
 21
4.6335110956
  0
LINE
  5
28D
100
AcDbEntity
  8
ALL_ASSEMBLY_MEMBERS
100
AcDbLine
 62
7
  6
CONTINUOUS
 10
5.8788557275
 20
1.3335110956
 11
5.8788557275
 21
4.6335110956
  0
LINE
  5
28E
100
AcDbEntity
  8
ALL_ASSEMBLY_MEMBERS
100
AcDbLine
 62
7
  6
CONTINUOUS
 10
5.9811651335
 20
1.3335110956
 11
5.9811651335
 21
4.6335110956
  0
LINE
  5
28F
100
AcDbEntity
  8
ALL_ASSEMBLY_MEMBERS
100
AcDbLine
 62
7
  6
CONTINUOUS
 10
4.2901171994
 20
7.4350618167
 11
4.8474439405
 21
6.28662454
  0
LINE
  5
290
100
AcDbEntity
  8
ALL_ASSEMBLY_MEMBERS
100
AcDbLine
 62
7
  6
CONTINUOUS
 10
4.9536764068
 20
6.1397994827
 11
4.2405084618
 21
7.609365883
  0
LINE
  5
291
100
AcDbEntity
  8
ALL_ASSEMBLY_MEMBERS
100
AcDbLine
 62
7
  6
CONTINUOUS
 10
4.9661441248
 20
6.1366647779
 11
4.2457605399
 21
7.6210998525
  0
LINE
  5
292
100
AcDbEntity
  8
ALL_ASSEMBLY_MEMBERS
100
AcDbLine
 62
7
  6
CONTINUOUS
 10
4.2505878568
 20
7.6234425079
 11
4.9709714417
 21
6.1390074333
  0
LINE
  5
293
100
AcDbEntity
  8
ALL_ASSEMBLY_MEMBERS
100
AcDbLine
 62
7
  6
CONTINUOUS
 10
4.2218188693
 20
7.7056288532
 11
5.0177335816
 21
6.0655530102
  0
LINE
  5
294
100
AcDbEntity
  8
ALL_ASSEMBLY_MEMBERS
100
AcDbLine
 62
7
  6
CONTINUOUS
 10
4.2007761339
 20
7.7604421156
 11
5.0477731099
 21
6.0151052624
  0
LWPOLYLINE
  5
295
100
AcDbEntity
  8
ALL_ASSEMBLY_MEMBERS
100
AcDbPolyline
 62
7
  6
CONTINUOUS
 90
12
 70
0
 10
6.1965524872
 20
4.6335110956
 10
6.1964092406
 20
4.641996034
 10
6.1954734139
 20
4.6567307788
 10
6.1936574247
 20
4.6714333725
 10
6.1909389599
 20
4.6861640894
 10
6.1873143329
 20
4.7008626554
 10
6.1828342517
 20
4.7153482475
 10
6.1774743114
 20
4.7296181935
 10
6.1711602722
 20
4.7436751657
 10
6.1639245192
 20
4.7573463581
 10
6.1557944596
 20
4.770574169
 10
6.1537253111
 20
4.7735110956
  0
LWPOLYLINE
  5
296
100
AcDbEntity
  8
ALL_ASSEMBLY_MEMBERS
100
AcDbPolyline
 62
7
  6
CONTINUOUS
 90
12
 70
0
 10
6.1770859733
 20
4.6335110956
 10
6.1769492966
 20
4.6420003991
 10
6.1760566871
 20
4.6567386908
 10
6.1743247149
 20
4.6714440133
 10
6.1717322664
 20
4.686176632
 10
6.1682761074
 20
4.7008762815
 10
6.1640049563
 20
4.7153621656
 10
6.1588955772
 20
4.7296315878
 10
6.1528770025
 20
4.7436872447
 10
6.1459800928
 20
4.7573564301
 10
6.1382312261
 20
4.7705815753
 10
6.1362637713
 20
4.7735110956
  0
LWPOLYLINE
  5
297
100
AcDbEntity
  8
ALL_ASSEMBLY_MEMBERS
100
AcDbPolyline
 62
7
  6
CONTINUOUS
 90
12
 70
0
 10
6.1327694245
 20
4.6335110956
 10
6.1326483941
 20
4.641992056
 10
6.1318571976
 20
4.6567235989
 10
6.1303213511
 20
4.6714237671
 10
6.1280219085
 20
4.6861528784
 10
6.1249560872
 20
4.7008506149
 10
6.1211675245
 20
4.715336023
 10
6.1166353031
 20
4.7296063852
 10
6.1112951818
 20
4.743664419
 10
6.105173708
 20
4.7573373226
 10
6.098294026
 20
4.7705674957
 10
6.0965393888
 20
4.7735110956
  0
LWPOLYLINE
  5
298
100
AcDbEntity
  8
ALL_ASSEMBLY_MEMBERS
100
AcDbPolyline
 62
7
  6
CONTINUOUS
 90
11
 70
0
 10
6.0664799173
 20
4.6335110956
 10
6.0663999792
 20
4.6411704886
 10
6.0658444408
 20
4.6550404873
 10
6.0647586996
 20
4.6688391343
 10
6.0631362439
 20
4.6826112744
 10
6.0609801618
 20
4.6963120629
 10
6.0583209581
 20
4.7098069654
 10
6.0551631244
 20
4.7230961966
 10
6.0514715649
 20
4.7361795419
 10
6.0472573911
 20
4.748921822
 10
6.043656879
 20
4.7584852004
  0
LINE
  5
299
100
AcDbEntity
  8
ALL_ASSEMBLY_MEMBERS
100
AcDbLine
 62
7
  6
CONTINUOUS
 10
6.0664799173
 20
1.3335110956
 11
6.0664799173
 21
4.6335110956
  0
LINE
  5
29A
100
AcDbEntity
  8
ALL_ASSEMBLY_MEMBERS
100
AcDbLine
 62
7
  6
CONTINUOUS
 10
6.0723976362
 20
0.9885110956
 11
6.0723976362
 21
0.9385110956
  0
LINE
  5
29B
100
AcDbEntity
  8
ALL_ASSEMBLY_MEMBERS
100
AcDbLine
 62
7
  6
CONTINUOUS
 10
6.0747376353
 20
0.6398510946
 11
6.0747376353
 21
0.6551738965
  0
LINE
  5
29C
100
AcDbEntity
  8
ALL_ASSEMBLY_MEMBERS
100
AcDbLine
 62
7
  6
CONTINUOUS
 10
6.0747376351
 20
0.7090482539
 11
6.0747376351
 21
0.7266039221
  0
LINE
  5
29D
100
AcDbEntity
  8
ALL_ASSEMBLY_MEMBERS
100
AcDbLine
 62
7
  6
CONTINUOUS
 10
6.074737636
 20
0.7804782153
 11
6.074737636
 21
0.7980338835
  0
LINE
  5
29E
100
AcDbEntity
  8
ALL_ASSEMBLY_MEMBERS
100
AcDbLine
 62
7
  6
CONTINUOUS
 10
6.0747376351
 20
0.851908236
 11
6.0747376351
 21
0.8694639038
  0
LINE
  5
29F
100
AcDbEntity
  8
ALL_ASSEMBLY_MEMBERS
100
AcDbLine
 62
7
  6
CONTINUOUS
 10
6.0747376354
 20
0.9233382511
 11
6.0747376354
 21
0.9371710964
  0
LINE
  5
2A0
100
AcDbEntity
  8
ALL_ASSEMBLY_MEMBERS
100
AcDbLine
 62
7
  6
CONTINUOUS
 10
6.1133976362
 20
0.8985110956
 11
6.1133976362
 21
0.8920885981
  0
LINE
  5
2A1
100
AcDbEntity
  8
ALL_ASSEMBLY_MEMBERS
100
AcDbLine
 62
7
  6
CONTINUOUS
 10
6.1133976362
 20
0.8295878739
 11
6.1133976362
 21
0.8206585768
  0
LINE
  5
2A2
100
AcDbEntity
  8
ALL_ASSEMBLY_MEMBERS
100
AcDbLine
 62
7
  6
CONTINUOUS
 10
6.1133976362
 20
0.7581578537
 11
6.1133976362
 21
0.749228616
  0
LINE
  5
2A3
100
AcDbEntity
  8
ALL_ASSEMBLY_MEMBERS
100
AcDbLine
 62
7
  6
CONTINUOUS
 10
6.1133976362
 20
0.6867278918
 11
6.1133976362
 21
0.6785110956
  0
LINE
  5
2A4
100
AcDbEntity
  8
ALL_ASSEMBLY_MEMBERS
100
AcDbLine
 62
7
  6
CONTINUOUS
 10
6.1327694245
 20
1.3335110956
 11
6.1327694245
 21
4.6335110956
  0
LINE
  5
2A5
100
AcDbEntity
  8
ALL_ASSEMBLY_MEMBERS
100
AcDbLine
 62
7
  6
CONTINUOUS
 10
6.1770859733
 20
1.3335110956
 11
6.1770859733
 21
4.6335110956
  0
LINE
  5
2A6
100
AcDbEntity
  8
ALL_ASSEMBLY_MEMBERS
100
AcDbLine
 62
7
  6
CONTINUOUS
 10
6.1965524872
 20
1.3335110956
 11
6.1965524872
 21
4.6335110956
  0
LINE
  5
2A7
100
AcDbEntity
  8
ALL_ASSEMBLY_MEMBERS
100
AcDbLine
 62
7
  6
CONTINUOUS
 10
4.8756365074
 20
6.247663683
 11
4.8755605126
 21
6.2477643171
  0
LINE
  5
2A8
100
AcDbEntity
  8
ALL_ASSEMBLY_MEMBERS
100
AcDbLine
 62
7
  6
CONTINUOUS
 10
4.8864683704
 20
6.2327949512
 11
4.8755605126
 21
6.2477643171
  0
LINE
  5
2A9
100
AcDbEntity
  8
ALL_ASSEMBLY_MEMBERS
100
AcDbLine
 62
7
  6
CONTINUOUS
 10
4.5545729805
 20
6.5685770385
 11
4.525638499
 21
6.6085677028
  0
LINE
  5
2AA
100
AcDbEntity
  8
ALL_ASSEMBLY_MEMBERS
100
AcDbLine
 62
7
  6
CONTINUOUS
 10
4.689591556
 20
6.4229089401
 11
4.634592178
 21
6.4989241838
  0
LINE
  5
2AB
100
AcDbEntity
  8
ALL_ASSEMBLY_MEMBERS
100
AcDbLine
 62
7
  6
CONTINUOUS
 10
4.6072200501
 20
6.5367555022
 11
4.5863352398
 21
6.5656206276
  0
LINE
  5
2AC
100
AcDbEntity
  8
ALL_ASSEMBLY_MEMBERS
100
AcDbLine
 62
7
  6
CONTINUOUS
 10
4.7475073199
 20
6.3838054836
 11
4.7523470553
 21
6.3771183874
  0
LINE
  5
2AD
100
AcDbEntity
  8
ALL_ASSEMBLY_MEMBERS
100
AcDbLine
 62
7
  6
CONTINUOUS
 10
4.8156816812
 20
6.2895809508
 11
4.7636768619
 21
6.3614573822
  0
LINE
  5
2AE
100
AcDbEntity
  8
ALL_ASSEMBLY_MEMBERS
100
AcDbLine
 62
7
  6
CONTINUOUS
 10
4.7363131266
 20
6.3992771009
 11
4.7213538153
 21
6.4199525292
  0
LINE
  5
2AF
100
AcDbEntity
  8
ALL_ASSEMBLY_MEMBERS
100
AcDbLine
 62
7
  6
CONTINUOUS
 10
4.9536764068
 20
6.1397994827
 11
4.9029410938
 21
6.2099213156
  0
LINE
  5
2B0
100
AcDbEntity
  8
ALL_ASSEMBLY_MEMBERS
100
AcDbLine
 62
7
  6
CONTINUOUS
 10
4.8755605126
 20
6.2477643171
 11
4.8474439405
 21
6.28662454
  0
LINE
  5
2B1
100
AcDbEntity
  8
ALL_ASSEMBLY_MEMBERS
100
AcDbLine
 62
7
  6
CONTINUOUS
 10
5.0641624346
 20
5.9959596142
 11
5.0890219345
 21
5.9724738487
  0
LINE
  5
2B2
100
AcDbEntity
  8
ALL_ASSEMBLY_MEMBERS
100
AcDbLine
 62
7
  6
CONTINUOUS
 10
5.0890219345
 20
5.9724738487
 11
5.1089838056
 21
5.9535641498
  0
LINE
  5
2B3
100
AcDbEntity
  8
ALL_ASSEMBLY_MEMBERS
100
AcDbLine
 62
7
  6
CONTINUOUS
 10
5.1089838056
 20
5.9535641498
 11
5.1279462139
 21
5.935553122
  0
LINE
  5
2B4
100
AcDbEntity
  8
ALL_ASSEMBLY_MEMBERS
100
AcDbLine
 62
7
  6
CONTINUOUS
 10
5.1279462139
 20
5.935553122
 11
5.1383475547
 21
5.9256513491
  0
LINE
  5
2B5
100
AcDbEntity
  8
ALL_ASSEMBLY_MEMBERS
100
AcDbLine
 62
7
  6
CONTINUOUS
 10
5.1383475547
 20
5.9256513491
 11
5.1383726013
 21
5.9256274941
  0
LWPOLYLINE
  5
2B6
100
AcDbEntity
  8
ALL_ASSEMBLY_MEMBERS
100
AcDbPolyline
 62
7
  6
CONTINUOUS
 90
15
 70
0
 10
5.1383726013
 20
5.9256274941
 10
5.1417358688
 20
5.9223572011
 10
5.1500202295
 20
5.9137261642
 10
5.1582573655
 20
5.9042661264
 10
5.1663498229
 20
5.8940114838
 10
5.1742043427
 20
5.8830051188
 10
5.1817401698
 20
5.8712858335
 10
5.1888722765
 20
5.85891286
 10
5.1955421512
 20
5.8459121234
 10
5.2017135767
 20
5.8322587558
 10
5.2073204582
 20
5.8179820512
 10
5.2122973196
 20
5.8031481111
 10
5.2166013589
 20
5.7877832374
 10
5.2201781302
 20
5.7719604782
 10
5.2225825684
 20
5.7583882027
  0
LINE
  5
2B7
100
AcDbEntity
  8
ALL_ASSEMBLY_MEMBERS
100
AcDbLine
 62
7
  6
CONTINUOUS
 10
5.5455100398
 20
6.5824506655
 11
5.5620791231
 21
6.5430622049
  0
LINE
  5
2B8
100
AcDbEntity
  8
ALL_ASSEMBLY_MEMBERS
100
AcDbLine
 62
7
  6
CONTINUOUS
 10
5.5584048842
 20
6.5518154644
 11
5.5620791231
 21
6.5430622049
  0
LINE
  5
2B9
100
AcDbEntity
  8
ALL_ASSEMBLY_MEMBERS
100
AcDbLine
 62
7
  6
CONTINUOUS
 10
6.2227480798
 20
4.7735110956
 11
5.8717704129
 21
6.3075721758
  0
LINE
  5
2BA
100
AcDbEntity
  8
ALL_ASSEMBLY_MEMBERS
100
AcDbLine
 62
7
  6
CONTINUOUS
 10
5.8717714909
 20
6.3075669643
 11
5.8717704129
 21
6.3075721758
  0
LINE
  5
2BB
100
AcDbEntity
  8
ALL_ASSEMBLY_MEMBERS
100
AcDbLine
 62
7
  6
CONTINUOUS
 10
5.2261512864
 20
5.6978095701
 11
6.0112778641
 21
5.6978095691
  0
LINE
  5
2BC
100
AcDbEntity
  8
ALL_ASSEMBLY_MEMBERS
100
AcDbLine
 62
7
  6
CONTINUOUS
 10
5.7322291066
 20
6.7528473065
 11
5.7303448741
 21
6.7575199185
  0
LWPOLYLINE
  5
2BD
100
AcDbEntity
  8
ALL_ASSEMBLY_MEMBERS
100
AcDbPolyline
 62
7
  6
CONTINUOUS
 90
11
 70
0
 10
6.0436302592
 20
1.2085138268
 10
6.0471136943
 20
1.2177650198
 10
6.0513114177
 20
1.230415551
 10
6.0550050685
 20
1.2434181289
 10
6.0581866575
 20
1.2566443977
 10
6.0608760631
 20
1.2700950145
 10
6.06305848
 20
1.283769322
 10
6.0647045309
 20
1.297536993
 10
6.0658119723
 20
1.3113545851
 10
6.0663881969
 20
1.3252655406
 10
6.0664799173
 20
1.3335110956
  0
LWPOLYLINE
  5
2BE
100
AcDbEntity
  8
ALL_ASSEMBLY_MEMBERS
100
AcDbPolyline
 62
7
  6
CONTINUOUS
 90
13
 70
0
 10
6.0872914766
 20
1.1785110956
 10
6.0902449673
 20
1.1829959424
 10
6.097895193
 20
1.1957581807
 10
6.1047819923
 20
1.2089207736
 10
6.1109243558
 20
1.2225397337
 10
6.1163016945
 20
1.2365590484
 10
6.1208912536
 20
1.2508106795
 10
6.124750602
 20
1.2652976211
 10
6.1278772817
 20
1.2800168791
 10
6.1302273773
 20
1.2947914339
 10
6.131805024
 20
1.309562279
 10
6.1326306785
 20
1.3243884209
 10
6.1327694245
 20
1.3335110956
  0
LINE
  5
2BF
100
AcDbEntity
  8
ALL_ASSEMBLY_MEMBERS
100
AcDbLine
 62
7
  6
CONTINUOUS
 10
5.301874288
 20
0.8658538185
 11
5.3013976362
 21
0.8653028891
  0
LINE
  5
2C0
100
AcDbEntity
  8
ALL_ASSEMBLY_MEMBERS
100
AcDbLine
 62
7
  6
CONTINUOUS
 10
5.3018742881
 20
0.794423787
 11
5.3013976362
 21
0.7938728575
  0
LINE
  5
2C1
100
AcDbEntity
  8
ALL_ASSEMBLY_MEMBERS
100
AcDbLine
 62
7
  6
CONTINUOUS
 10
5.3013976362
 20
0.7224428761
 11
5.3018742869
 21
0.7229938043
  0
LINE
  5
2C2
100
AcDbEntity
  8
ALL_ASSEMBLY_MEMBERS
100
AcDbLine
 62
7
  6
CONTINUOUS
 10
5.3413976362
 20
0.9385110956
 11
5.3199683484
 21
0.9170818078
  0
LWPOLYLINE
  5
2C3
100
AcDbEntity
  8
ALL_ASSEMBLY_MEMBERS
100
AcDbPolyline
 62
7
  6
CONTINUOUS
 90
13
 70
0
 10
6.1258448254
 20
1.1785110956
 10
6.1291673951
 20
1.1829890055
 10
6.1377830245
 20
1.1957455229
 10
6.1455403464
 20
1.2089036107
 10
6.1524610227
 20
1.2225192677
 10
6.1585214459
 20
1.2365364951
 10
6.1636949006
 20
1.2507872974
 10
6.1680450332
 20
1.2652746141
 10
6.1715693279
 20
1.2799955055
 10
6.174218695
 20
1.2947731573
 10
6.175997785
 20
1.3095486311
 10
6.1769292997
 20
1.3243808652
 10
6.1770859733
 20
1.3335110956
  0
LWPOLYLINE
  5
2C4
100
AcDbEntity
  8
ALL_ASSEMBLY_MEMBERS
100
AcDbPolyline
 62
7
  6
CONTINUOUS
 90
13
 70
0
 10
6.1427948317
 20
1.1785110956
 10
6.1462841001
 20
1.1829934527
 10
6.155324864
 20
1.1957536596
 10
6.163464005
 20
1.2089146795
 10
6.1707248047
 20
1.2225325514
 10
6.1770827328
 20
1.2365512362
 10
6.182509712
 20
1.2508026171
 10
6.1870723257
 20
1.2652895966
 10
6.1907682071
 20
1.2800092722
 10
6.1935462649
 20
1.2947848188
 10
6.1954116391
 20
1.3095572947
 10
6.1963882716
 20
1.3243856417
 10
6.1965524872
 20
1.3335110956
  0
LINE
  5
2C5
100
AcDbEntity
  8
ALL_ASSEMBLY_MEMBERS
100
AcDbLine
 62
7
  6
CONTINUOUS
 10
6.1129209841
 20
0.8915376684
 11
6.1133976362
 21
0.8920885981
  0
LINE
  5
2C6
100
AcDbEntity
  8
ALL_ASSEMBLY_MEMBERS
100
AcDbLine
 62
7
  6
CONTINUOUS
 10
6.1129209848
 20
0.8201076478
 11
6.1133976362
 21
0.8206585768
  0
LINE
  5
2C7
100
AcDbEntity
  8
ALL_ASSEMBLY_MEMBERS
100
AcDbLine
 62
7
  6
CONTINUOUS
 10
6.1129209847
 20
0.7486776869
 11
6.1133976362
 21
0.749228616
  0
LINE
  5
2C8
100
AcDbEntity
  8
ALL_ASSEMBLY_MEMBERS
100
AcDbLine
 62
7
  6
CONTINUOUS
 10
5.3405842484
 20
0.8882320568
 11
5.301874288
 21
0.8658538185
  0
LINE
  5
2C9
100
AcDbEntity
  8
ALL_ASSEMBLY_MEMBERS
100
AcDbLine
 62
7
  6
CONTINUOUS
 10
6.0733976362
 20
0.6385110956
 11
6.0747376353
 21
0.6398510946
  0
LINE
  5
2CA
100
AcDbEntity
  8
ALL_ASSEMBLY_MEMBERS
100
AcDbLine
 62
7
  6
CONTINUOUS
 10
6.1117118317
 20
0.676825291
 11
6.1133976362
 21
0.6785110956
  0
LINE
  5
2CB
100
AcDbEntity
  8
ALL_ASSEMBLY_MEMBERS
100
AcDbLine
 62
7
  6
CONTINUOUS
 10
5.3405842479
 20
0.8168020249
 11
5.3018742881
 21
0.794423787
  0
LINE
  5
2CC
100
AcDbEntity
  8
ALL_ASSEMBLY_MEMBERS
100
AcDbLine
 62
7
  6
CONTINUOUS
 10
5.340584246
 20
0.7453720417
 11
5.3018742869
 21
0.7229938043
  0
LINE
  5
2CD
100
AcDbEntity
  8
ALL_ASSEMBLY_MEMBERS
100
AcDbLine
 62
7
  6
CONTINUOUS
 10
5.3405842485
 20
0.673942052
 11
5.3189637179
 21
0.6614425064
  0
LINE
  5
2CE
100
AcDbEntity
  8
ALL_ASSEMBLY_MEMBERS
100
AcDbLine
 62
7
  6
CONTINUOUS
 10
6.074211024
 20
0.8691594302
 11
6.1129209841
 21
0.8915376684
  0
LINE
  5
2CF
100
AcDbEntity
  8
ALL_ASSEMBLY_MEMBERS
100
AcDbLine
 62
7
  6
CONTINUOUS
 10
6.0742110257
 20
0.7977294103
 11
6.1129209848
 21
0.8201076478
  0
LINE
  5
2D0
100
AcDbEntity
  8
ALL_ASSEMBLY_MEMBERS
100
AcDbLine
 62
7
  6
CONTINUOUS
 10
6.0742110246
 20
0.7262994488
 11
6.1129209847
 21
0.7486776869
  0
LINE
  5
2D1
100
AcDbEntity
  8
ALL_ASSEMBLY_MEMBERS
100
AcDbLine
 62
7
  6
CONTINUOUS
 10
6.0742110241
 20
0.6548694229
 11
6.1099184467
 21
0.6755120924
  0
ARC
  5
2D2
100
AcDbEntity
  8
ALL_ASSEMBLY_MEMBERS
100
AcDbCircle
 62
7
  6
CONTINUOUS
 10
1.324458413
 20
3.6502023817
 40
4.399738551
100
AcDbArc
 50
35.5764610572
 51
35.9435388959
  0
ARC
  5
2D3
100
AcDbEntity
  8
ALL_ASSEMBLY_MEMBERS
100
AcDbCircle
 62
7
  6
CONTINUOUS
 10
0.0399730176
 20
6.2990798673
 40
4.3988328451
100
AcDbArc
 50
15.8287520829
 51
16.1973592418
  0
ARC
  5
2D4
100
AcDbEntity
  8
ALL_ASSEMBLY_MEMBERS
100
AcDbCircle
 62
7
  6
CONTINUOUS
 10
2.9806219471
 20
5.6458459069
 40
2.9659149121
100
AcDbArc
 50
40.1955390642
 51
46.7593406943
  0
ARC
  5
2D5
100
AcDbEntity
  8
ALL_ASSEMBLY_MEMBERS
100
AcDbCircle
 62
7
  6
CONTINUOUS
 10
2.9808021622
 20
5.6456326378
 40
2.9659149121
100
AcDbArc
 50
33.6371313641
 51
40.200932968
  0
ARC
  5
2D6
100
AcDbEntity
  8
ALL_ASSEMBLY_MEMBERS
100
AcDbCircle
 62
7
  6
CONTINUOUS
 10
2.9809716879
 20
5.6461444617
 40
2.9655035674
100
AcDbArc
 50
16.0171864141
 51
20.5094916604
  0
ARC
  5
2D7
100
AcDbEntity
  8
ALL_ASSEMBLY_MEMBERS
100
AcDbCircle
 62
7
  6
CONTINUOUS
 10
2.9811470806
 20
5.6462154431
 40
2.9653153981
100
AcDbArc
 50
13.125057472
 51
16.0168032494
  0
ARC
  5
2D8
100
AcDbEntity
  8
ALL_ASSEMBLY_MEMBERS
100
AcDbCircle
 62
7
  6
CONTINUOUS
 10
2.9812288126
 20
5.646223294
 40
2.9652351209
100
AcDbArc
 50
20.5098056784
 51
21.913069333
  0
ARC
  5
2D9
100
AcDbEntity
  8
ALL_ASSEMBLY_MEMBERS
100
AcDbCircle
 62
7
  6
CONTINUOUS
 10
2.9813031107
 20
5.6462514528
 40
2.9651556822
100
AcDbArc
 50
22.0104539368
 51
22.7063725071
  0
ARC
  5
2DA
100
AcDbEntity
  8
ALL_ASSEMBLY_MEMBERS
100
AcDbCircle
 62
7
  6
CONTINUOUS
 10
2.9813324539
 20
5.6462635176
 40
2.9651239562
100
AcDbArc
 50
22.7063763139
 51
33.6326578193
  0
ARC
  5
2DB
100
AcDbEntity
  8
ALL_ASSEMBLY_MEMBERS
100
AcDbCircle
 62
7
  6
CONTINUOUS
 10
2.9818922674
 20
5.6463914802
 40
2.964549704
100
AcDbArc
 50
12.8869027379
 51
13.1250145003
  0
ARC
  5
2DC
100
AcDbEntity
  8
ALL_ASSEMBLY_MEMBERS
100
AcDbCircle
 62
7
  6
CONTINUOUS
 10
5.520079998
 20
5.0364136915
 40
1.2507525972
100
AcDbArc
 50
115.0865572802
 51
115.7779462458
  0
ARC
  5
2DD
100
AcDbEntity
  8
ALL_ASSEMBLY_MEMBERS
100
AcDbCircle
 62
7
  6
CONTINUOUS
 10
4.4200272284
 20
5.5809378933
 40
1.2047579539
100
AcDbArc
 50
25.6853253646
 51
31.1919479713
  0
ARC
  5
2DE
100
AcDbEntity
  8
ALL_ASSEMBLY_MEMBERS
100
AcDbCircle
 62
7
  6
CONTINUOUS
 10
4.4223077722
 20
5.5827088404
 40
1.20192611
100
AcDbArc
 50
14.4854866692
 51
17.8259842218
  0
ARC
  5
2DF
100
AcDbEntity
  8
ALL_ASSEMBLY_MEMBERS
100
AcDbCircle
 62
7
  6
CONTINUOUS
 10
4.4239365167
 20
5.5831554773
 40
1.200260937
100
AcDbArc
 50
5.4814988486
 51
14.4842960021
  0
ARC
  5
2E0
100
AcDbEntity
  8
ALL_ASSEMBLY_MEMBERS
100
AcDbCircle
 62
7
  6
CONTINUOUS
 10
5.2951419408
 20
5.2736359565
 40
0.8462698475
100
AcDbArc
 50
107.957720496
 51
109.0205087377
  0
ARC
  5
2E1
100
AcDbEntity
  8
ALL_ASSEMBLY_MEMBERS
100
AcDbCircle
 62
7
  6
CONTINUOUS
 10
4.9074271879
 20
5.709426249
 40
0.3189359382
100
AcDbArc
 50
357.9991455222
 51
8.7787503847
  0
ARC
  5
2E2
100
AcDbEntity
  8
ALL_ASSEMBLY_MEMBERS
100
AcDbCircle
 62
7
  6
CONTINUOUS
 10
5.790577115
 20
4.6580024798
 40
0.2722978958
100
AcDbArc
 50
21.6550439283
 51
25.1111393751
  0
ARC
  5
2E3
100
AcDbEntity
  8
ALL_ASSEMBLY_MEMBERS
100
AcDbCircle
 62
7
  6
CONTINUOUS
 10
5.6242161399
 20
4.6580033626
 40
0.2722956943
100
AcDbArc
 50
154.8888486807
 51
158.3431227657
  0
ARC
  5
2E4
100
AcDbEntity
  8
ALL_ASSEMBLY_MEMBERS
100
AcDbCircle
 62
7
  6
CONTINUOUS
 10
5.7937205936
 20
1.3074705114
 40
0.2687885161
100
AcDbArc
 50
331.321576578
 51
338.3979292129
  0
ARC
  5
2E5
100
AcDbEntity
  8
ALL_ASSEMBLY_MEMBERS
100
AcDbCircle
 62
7
  6
CONTINUOUS
 10
5.6210735978
 20
1.3074699737
 40
0.2687873097
100
AcDbArc
 50
201.6037924299
 51
208.6784334575
  0
ARC
  5
2E6
100
AcDbEntity
  8
ALL_ASSEMBLY_MEMBERS
100
AcDbCircle
 62
7
  6
CONTINUOUS
 10
5.4618023981
 20
1.1785110956
 40
0.2244047619
100
AcDbArc
 50
180.0
 51
237.8528516705
  0
ARC
  5
2E7
100
AcDbEntity
  8
ALL_ASSEMBLY_MEMBERS
100
AcDbCircle
 62
7
  6
CONTINUOUS
 10
5.9529928743
 20
1.1785110956
 40
0.2244047619
100
AcDbArc
 50
302.1471483295
 51
360.0
  0
ARC
  5
2E8
100
AcDbEntity
  8
ALL_ASSEMBLY_MEMBERS
100
AcDbCircle
 62
7
  6
CONTINUOUS
 10
4.9753374028
 20
6.1300108571
 40
0.01
100
AcDbArc
 50
25.8869005305
 51
115.8869005304
  0
ARC
  5
2E9
100
AcDbEntity
  8
ALL_ASSEMBLY_MEMBERS
100
AcDbCircle
 62
7
  6
CONTINUOUS
 10
4.8393421837
 20
6.2807626686
 40
0.01
100
AcDbArc
 50
35.8869005295
 51
115.8869005304
  0
ARC
  5
2EA
100
AcDbEntity
  8
ALL_ASSEMBLY_MEMBERS
100
AcDbCircle
 62
7
  6
CONTINUOUS
 10
4.7132520585
 20
6.4140906578
 40
0.01
100
AcDbArc
 50
35.8869005304
 51
115.8869005304
  0
ARC
  5
2EB
100
AcDbEntity
  8
ALL_ASSEMBLY_MEMBERS
100
AcDbCircle
 62
7
  6
CONTINUOUS
 10
4.9617781637
 20
6.1456613541
 40
0.01
100
AcDbArc
 50
215.8869005295
 51
295.8869005304
  0
ARC
  5
2EC
100
AcDbEntity
  8
ALL_ASSEMBLY_MEMBERS
100
AcDbCircle
 62
7
  6
CONTINUOUS
 10
4.823783438
 20
6.2954428223
 40
0.01
100
AcDbArc
 50
215.8869005287
 51
295.8869005304
  0
ARC
  5
2ED
100
AcDbEntity
  8
ALL_ASSEMBLY_MEMBERS
100
AcDbCircle
 62
7
  6
CONTINUOUS
 10
0.4916955771
 20
6.4272593218
 40
3.9292764259
100
AcDbArc
 50
15.5587533758
 51
15.8272091084
  0
ARC
  5
2EE
100
AcDbEntity
  8
ALL_ASSEMBLY_MEMBERS
100
AcDbCircle
 62
7
  6
CONTINUOUS
 10
4.7563083862
 20
7.0485834547
 40
0.9029695368
100
AcDbArc
 50
102.3731117198
 51
127.9683694503
  0
ARC
  5
2EF
100
AcDbEntity
  8
ALL_ASSEMBLY_MEMBERS
100
AcDbCircle
 62
7
  6
CONTINUOUS
 10
4.6699605062
 20
7.4421954262
 40
0.5
100
AcDbArc
 50
46.7638140558
 51
102.373028687
  0
ARC
  5
2F0
100
AcDbEntity
  8
ALL_FEATURES
100
AcDbCircle
 62
7
  6
CONTINUOUS
 10
4.7190329972
 20
6.9337593901
 40
0.3243652792
100
AcDbArc
 50
210.307276371
 51
218.8281181845
  0
ARC
  5
2F1
100
AcDbEntity
  8
ALL_FEATURES
100
AcDbCircle
 62
7
  6
CONTINUOUS
 10
4.7190329972
 20
6.9337593901
 40
0.3243652792
100
AcDbArc
 50
192.9456828763
 51
201.4665246898
  0
ARC
  5
2F2
100
AcDbEntity
  8
ALL_ASSEMBLY_MEMBERS
100
AcDbCircle
 62
7
  6
CONTINUOUS
 10
4.3535226262
 20
6.9857891889
 40
0.01
100
AcDbArc
 50
195.8869005307
 51
205.8869005304
  0
ARC
  5
2F3
100
AcDbEntity
  8
ALL_ASSEMBLY_MEMBERS
100
AcDbCircle
 62
7
  6
CONTINUOUS
 10
4.5337402558
 20
6.6144295742
 40
0.01
100
AcDbArc
 50
205.8869005304
 51
215.8869005302
  0
ARC
  5
2F4
100
AcDbEntity
  8
ALL_ASSEMBLY_MEMBERS
100
AcDbCircle
 62
7
  6
CONTINUOUS
 10
4.2462218957
 20
7.6324390841
 40
0.01
100
AcDbArc
 50
295.8869005304
 51
25.8869005303
  0
ARC
  5
2F5
100
AcDbEntity
  8
ALL_ASSEMBLY_MEMBERS
100
AcDbCircle
 62
7
  6
CONTINUOUS
 10
4.2804991602
 20
7.4323244234
 40
0.01
100
AcDbArc
 50
295.8869005304
 51
15.8869005313
  0
ARC
  5
2F6
100
AcDbEntity
  8
ALL_ASSEMBLY_MEMBERS
100
AcDbCircle
 62
7
  6
CONTINUOUS
 10
4.3072176743
 20
7.2507722453
 40
0.01
100
AcDbArc
 50
295.8869005304
 51
15.8869005304
  0
ARC
  5
2F7
100
AcDbEntity
  8
ALL_ASSEMBLY_MEMBERS
100
AcDbCircle
 62
7
  6
CONTINUOUS
 10
4.578233483
 20
6.5597587562
 40
0.01
100
AcDbArc
 50
35.8869005304
 51
115.8869005304
  0
ARC
  5
2F8
100
AcDbEntity
  8
ALL_ASSEMBLY_MEMBERS
100
AcDbCircle
 62
7
  6
CONTINUOUS
 10
4.3381056213
 20
7.0545704477
 40
0.01
100
AcDbArc
 50
295.8869005304
 51
15.8869005305
  0
ARC
  5
2F9
100
AcDbEntity
  8
ALL_ASSEMBLY_MEMBERS
100
AcDbCircle
 62
7
  6
CONTINUOUS
 10
4.250126501
 20
7.6121032763
 40
0.01
100
AcDbArc
 50
115.8869005304
 51
195.8869005313
  0
ARC
  5
2FA
100
AcDbEntity
  8
ALL_ASSEMBLY_MEMBERS
100
AcDbCircle
 62
7
  6
CONTINUOUS
 10
4.282404259
 20
7.4110182722
 40
0.01
100
AcDbArc
 50
115.8869005304
 51
195.8869005321
  0
ARC
  5
2FB
100
AcDbEntity
  8
ALL_ASSEMBLY_MEMBERS
100
AcDbCircle
 62
7
  6
CONTINUOUS
 10
4.3091227731
 20
7.2294660941
 40
0.01
100
AcDbArc
 50
115.8869005304
 51
195.8869005337
  0
ARC
  5
2FC
100
AcDbEntity
  8
ALL_ASSEMBLY_MEMBERS
100
AcDbCircle
 62
7
  6
CONTINUOUS
 10
4.6976933128
 20
6.4287708115
 40
0.01
100
AcDbArc
 50
215.8869005271
 51
295.8869005304
  0
ARC
  5
2FD
100
AcDbEntity
  8
ALL_ASSEMBLY_MEMBERS
100
AcDbCircle
 62
7
  6
CONTINUOUS
 10
4.3400107202
 20
7.0332642966
 40
0.01
100
AcDbArc
 50
115.8869005304
 51
195.8869005305
  0
ARC
  5
2FE
100
AcDbEntity
  8
ALL_ASSEMBLY_MEMBERS
100
AcDbCircle
 62
7
  6
CONTINUOUS
 10
4.5626747373
 20
6.5744389099
 40
0.01
100
AcDbArc
 50
215.8869005303
 51
295.8869005304
  0
ARC
  5
2FF
100
AcDbEntity
  8
ALL_ASSEMBLY_MEMBERS
100
AcDbCircle
 62
7
  6
CONTINUOUS
 10
14.4741217098
 20
11.6701009825
 40
10.5495226943
100
AcDbArc
 50
210.3745771136
 51
211.2017883994
  0
ARC
  5
300
100
AcDbEntity
  8
ALL_ASSEMBLY_MEMBERS
100
AcDbCircle
 62
7
  6
CONTINUOUS
 10
14.4596732008
 20
11.6616038157
 40
10.53267717
100
AcDbArc
 50
209.9001750007
 51
210.1372759866
  0
ARC
  5
301
100
AcDbEntity
  8
ALL_ASSEMBLY_MEMBERS
100
AcDbCircle
 62
7
  6
CONTINUOUS
 10
14.453499143
 20
11.6578131123
 40
10.5255174477
100
AcDbArc
 50
210.1363430914
 51
210.3736332501
  0
LINE
  5
302
100
AcDbEntity
  8
ALL_ASSEMBLY_MEMBERS
100
AcDbLine
 62
7
  6
CONTINUOUS
 10
4.6350200692
 20
6.4992351268
 11
4.6349563327
 21
6.4994515264
  0
SPLINE
  5
303
100
AcDbEntity
  8
ALL_ASSEMBLY_MEMBERS
100
AcDbSpline
 62
7
  6
CONTINUOUS
 70
0
 71
3
 72
19
 73
15
 74
0
 42
0.0000001
 43
0.0000001
 44
0.0000000001
 40
0.0
 40
0.0
 40
0.0
 40
0.0
 40
0.0189922255
 40
0.040011807
 40
0.0653964958
 40
0.096476802
 40
0.1339479435
 40
0.178177481
 40
0.2293641112
 40
0.2876149078
 40
0.4254370432
 40
0.5910713605
 40
0.7831078945
 40
1.0
 40
1.0
 40
1.0
 40
1.0
 10
4.6015034575
 20
6.5663370471
 30
0.0
 10
4.6015355542
 20
6.5663525021
 30
0.0
 10
4.6015968588
 20
6.5664000922
 30
0.0
 10
4.6016576086
 20
6.5665093116
 30
0.0
 10
4.6016911368
 20
6.5666519032
 30
0.0
 10
4.6017001649
 20
6.566828478
 30
0.0
 10
4.6016851931
 20
6.567039847
 30
0.0
 10
4.601646232
 20
6.5672862619
 30
0.0
 10
4.6015831985
 20
6.567567668
 30
0.0
 10
4.6014597646
 20
6.5680148719
 30
0.0
 10
4.6012403741
 20
6.5686574284
 30
0.0
 10
4.6008973397
 20
6.5695214197
 30
0.0
 10
4.600464017
 20
6.5705083806
 30
0.0
 10
4.6001364301
 20
6.5712020297
 30
0.0
 10
4.5999588119
 20
6.5715680329
 30
0.0
  0
SPLINE
  5
304
100
AcDbEntity
  8
ALL_ASSEMBLY_MEMBERS
100
AcDbSpline
 62
7
  6
CONTINUOUS
 70
0
 71
3
 72
22
 73
18
 74
0
 42
0.0000001
 43
0.0000001
 44
0.0000000001
 40
0.0
 40
0.0
 40
0.0
 40
0.0
 40
0.0088591192
 40
0.0180753764
 40
0.0280792669
 40
0.0392054632
 40
0.0656754752
 40
0.0987062432
 40
0.1388181556
 40
0.1861172157
 40
0.2405242764
 40
0.3018836834
 40
0.369977392
 40
0.4444627969
 40
0.6110253858
 40
0.7979717848
 40
1.0
 40
1.0
 40
1.0
 40
1.0
 10
4.5331530755
 20
6.7030931556
 30
0.0
 10
4.5331970938
 20
6.7031145162
 30
0.0
 10
4.533281919
 20
6.7031692971
 30
0.0
 10
4.5333895809
 20
6.7032826055
 30
0.0
 10
4.5334782883
 20
6.7034259665
 30
0.0
 10
4.5335774785
 20
6.7036704662
 30
0.0
 10
4.5336474169
 20
6.7040577343
 30
0.0
 10
4.5336566972
 20
6.7046089246
 30
0.0
 10
4.5335954723
 20
6.7052723088
 30
0.0
 10
4.5334643662
 20
6.706044988
 30
0.0
 10
4.533263778
 20
6.7069233366
 30
0.0
 10
4.5329943928
 20
6.7079026414
 30
0.0
 10
4.532657258
 20
6.7089775229
 30
0.0
 10
4.5320989063
 20
6.7105911777
 30
0.0
 10
4.5312417919
 20
6.7127949474
 30
0.0
 10
4.5300239249
 20
6.7156115452
 30
0.0
 10
4.5291116855
 20
6.7175568666
 30
0.0
 10
4.5286245463
 20
6.7185606741
 30
0.0
  0
LINE
  5
305
100
AcDbEntity
  8
ALL_ASSEMBLY_MEMBERS
100
AcDbLine
 62
7
  6
CONTINUOUS
 10
4.2750832526
 20
7.5036962166
 11
4.2746207868
 21
7.5043422459
  0
SPLINE
  5
306
100
AcDbEntity
  8
ALL_ASSEMBLY_MEMBERS
100
AcDbSpline
 62
7
  6
CONTINUOUS
 70
0
 71
3
 72
18
 73
14
 74
0
 42
0.0000001
 43
0.0000001
 44
0.0000000001
 40
0.0
 40
0.0
 40
0.0
 40
0.0
 40
0.2190939313
 40
0.4114125004
 40
0.5762627774
 40
0.7130784985
 40
0.8215653791
 40
0.8653412847
 40
0.9024464917
 40
0.9333409386
 40
0.9588193446
 40
0.9802821847
 40
1.0
 40
1.0
 40
1.0
 40
1.0
 10
4.3069884561
 20
7.4379517936
 30
0.0
 10
4.3068854215
 20
7.4381641084
 30
0.0
 10
4.3066877474
 20
7.4385607903
 30
0.0
 10
4.3063953961
 20
7.4391084463
 30
0.0
 10
4.3061277043
 20
7.439568526
 30
0.0
 10
4.3058861568
 20
7.439938633
 30
0.0
 10
4.3056965873
 20
7.4401864972
 30
0.0
 10
4.305556342
 20
7.4403348865
 30
0.0
 10
4.3054658323
 20
7.4404146238
 30
0.0
 10
4.3053821223
 20
7.4404712537
 30
0.0
 10
4.3053045489
 20
7.4405048575
 30
0.0
 10
4.3052320938
 20
7.4405144583
 30
0.0
 10
4.3051878405
 20
7.4405029889
 30
0.0
 10
4.3051687264
 20
7.4404937293
 30
0.0
  0
SPLINE
  5
307
100
AcDbEntity
  8
ALL_ASSEMBLY_MEMBERS
100
AcDbSpline
 62
7
  6
CONTINUOUS
 70
0
 71
3
 72
19
 73
15
 74
0
 42
0.0000001
 43
0.0000001
 44
0.0000000001
 40
0.0
 40
0.0
 40
0.0
 40
0.0
 40
0.2148419447
 40
0.406048184
 40
0.5715728241
 40
0.7096386648
 40
0.7681675631
 40
0.8197003765
 40
0.8643090204
 40
0.9021594265
 40
0.9335919623
 40
0.9593115582
 40
0.9806828287
 40
1.0
 40
1.0
 40
1.0
 40
1.0
 10
4.3577423055
 20
7.3333675196
 30
0.0
 10
4.3575216994
 20
7.3338221043
 30
0.0
 10
4.3570950454
 20
7.3346766139
 30
0.0
 10
4.3564600411
 20
7.3358617431
 30
0.0
 10
4.3558726772
 20
7.33686667
 30
0.0
 10
4.3554057599
 20
7.3375797601
 30
0.0
 10
4.355056976
 20
7.3380478585
 30
0.0
 10
4.3548253244
 20
7.338328576
 30
0.0
 10
4.3546093788
 20
7.3385584802
 30
0.0
 10
4.3544094175
 20
7.3387373899
 30
0.0
 10
4.3542252643
 20
7.3388653194
 30
0.0
 10
4.3540557419
 20
7.3389421908
 30
0.0
 10
4.3538985666
 20
7.3389662917
 30
0.0
 10
4.3538026065
 20
7.3389425762
 30
0.0
 10
4.3537617265
 20
7.3389227547
 30
0.0
  0
SPLINE
  5
308
100
AcDbEntity
  8
ALL_ASSEMBLY_MEMBERS
100
AcDbSpline
 62
7
  6
CONTINUOUS
 70
0
 71
3
 72
20
 73
16
 74
0
 42
0.0000001
 43
0.0000001
 44
0.0000000001
 40
0.0
 40
0.0
 40
0.0
 40
0.0
 40
0.208503936
 40
0.3976455348
 40
0.5635872825
 40
0.7037343369
 40
0.7636417469
 40
0.8165526521
 40
0.8624285367
 40
0.9013767366
 40
0.9336608497
 40
0.9598510473
 40
0.981151061
 40
0.9906993205
 40
1.0
 40
1.0
 40
1.0
 40
1.0
 10
4.4238860098
 20
7.1970706401
 30
0.0
 10
4.4235211161
 20
7.1978225465
 30
0.0
 10
4.4228072664
 20
7.199247938
 30
0.0
 10
4.4217354062
 20
7.2012370576
 30
0.0
 10
4.4207278035
 20
7.2029479942
 30
0.0
 10
4.4199204221
 20
7.2041742221
 30
0.0
 10
4.4193146228
 20
7.2049877094
 30
0.0
 10
4.4189107085
 20
7.2054795189
 30
0.0
 10
4.4185344984
 20
7.2058842111
 30
0.0
 10
4.4181873444
 20
7.2062012099
 30
0.0
 10
4.4178694579
 20
7.2064302081
 30
0.0
 10
4.4175804751
 20
7.2065717646
 30
0.0
 10
4.4173508308
 20
7.2066145115
 30
0.0
 10
4.4171900097
 20
7.2065942902
 30
0.0
 10
4.4171182097
 20
7.2065685661
 30
0.0
 10
4.4170846881
 20
7.2065522513
 30
0.0
  0
SPLINE
  5
309
100
AcDbEntity
  8
ALL_ASSEMBLY_MEMBERS
100
AcDbSpline
 62
7
  6
CONTINUOUS
 70
0
 71
3
 72
22
 73
18
 74
0
 42
0.0000001
 43
0.0000001
 44
0.0000000001
 40
0.0
 40
0.0
 40
0.0
 40
0.0
 40
0.1999138653
 40
0.3859596285
 40
0.5524927572
 40
0.6271978149
 40
0.6956040386
 40
0.7573542882
 40
0.8121960477
 40
0.8599239734
 40
0.9004160667
 40
0.9337998492
 40
0.9605660205
 40
0.971800715
 40
0.9818787337
 40
0.9911329378
 40
1.0
 40
1.0
 40
1.0
 40
1.0
 10
4.5009119848
 20
7.0383495623
 30
0.0
 10
4.5003945286
 20
7.0394158418
 30
0.0
 10
4.4993661887
 20
7.0414604134
 30
0.0
 10
4.497801769
 20
7.0443388158
 30
0.0
 10
4.4965068474
 20
7.0465171252
 30
0.0
 10
4.4955086511
 20
7.0480580223
 30
0.0
 10
4.4948182095
 20
7.0490574822
 30
0.0
 10
4.494162828
 20
7.0499372553
 30
0.0
 10
4.4935468156
 20
7.0506924755
 30
0.0
 10
4.4929742338
 20
7.0513189066
 30
0.0
 10
4.4924479511
 20
7.0518132444
 30
0.0
 10
4.4919707315
 20
7.0521733472
 30
0.0
 10
4.4915935179
 20
7.0523731953
 30
0.0
 10
4.4913188071
 20
7.0524530011
 30
0.0
 10
4.4911377277
 20
7.0524739213
 30
0.0
 10
4.4909699097
 20
7.0524585492
 30
0.0
 10
4.4908671187
 20
7.0524232381
 30
0.0
 10
4.4908198555
 20
7.0524002229
 30
0.0
  0
SPLINE
  5
30A
100
AcDbEntity
  8
ALL_ASSEMBLY_MEMBERS
100
AcDbSpline
 62
7
  6
CONTINUOUS
 70
0
 71
3
 72
24
 73
20
 74
0
 42
0.0000001
 43
0.0000001
 44
0.0000000001
 40
0.0
 40
0.0
 40
0.0
 40
0.0
 40
0.1887735673
 40
0.3705582539
 40
0.456402992
 40
0.5378545038
 40
0.6141798587
 40
0.6847388043
 40
0.7489553511
 40
0.8062814064
 40
0.8563243664
 40
0.8988721848
 40
0.9338371465
 40
0.9485410384
 40
0.9614924431
 40
0.9728329674
 40
0.9827833099
 40
0.9916797645
 40
1.0
 40
1.0
 40
1.0
 40
1.0
 10
4.5835710378
 20
6.8680208653
 30
0.0
 10
4.5829137096
 20
6.8693753672
 30
0.0
 10
4.581578698
 20
6.8720127663
 30
0.0
 10
4.579824368
 20
6.8752031979
 30
0.0
 10
4.5784100443
 20
6.8776015303
 30
0.0
 10
4.5773871815
 20
6.8792537212
 30
0.0
 10
4.5763910888
 20
6.8807785074
 30
0.0
 10
4.5754311964
 20
6.882162022
 30
0.0
 10
4.5745168715
 20
6.8833918338
 30
0.0
 10
4.5736563758
 20
6.8844564968
 30
0.0
 10
4.5728573773
 20
6.8853470397
 30
0.0
 10
4.5721273973
 20
6.8860567551
 30
0.0
 10
4.5715520147
 20
6.8865183936
 30
0.0
 10
4.5711276906
 20
6.8867829375
 30
0.0
 10
4.5708484291
 20
6.8869212544
 30
0.0
 10
4.5705895865
 20
6.8870111706
 30
0.0
 10
4.5703508702
 20
6.8870520405
 30
0.0
 10
4.5701324452
 20
6.8870423982
 30
0.0
 10
4.569999651
 20
6.8870000753
 30
0.0
 10
4.5699399537
 20
6.886971098
 30
0.0
  0
SPLINE
  5
30B
100
AcDbEntity
  8
ALL_ASSEMBLY_MEMBERS
100
AcDbSpline
 62
7
  6
CONTINUOUS
 70
0
 71
3
 72
25
 73
21
 74
0
 42
0.0000001
 43
0.0000001
 44
0.0000000001
 40
0.0
 40
0.0
 40
0.0
 40
0.0
 40
0.1747062267
 40
0.3508656121
 40
0.4364346154
 40
0.5188900298
 40
0.5972203824
 40
0.670464233
 40
0.7377007225
 40
0.7981993509
 40
0.8513216781
 40
0.8965397215
 40
0.9161019182
 40
0.933609243
 40
0.9490674076
 40
0.9625142792
 40
0.9740560842
 40
0.9838931832
 40
0.9923623998
 40
1.0
 40
1.0
 40
1.0
 40
1.0
 10
4.6662300907
 20
6.6976921682
 30
0.0
 10
4.6654670285
 20
6.6992645476
 30
0.0
 10
4.6638692464
 20
6.702390977
 30
0.0
 10
4.6617389722
 20
6.706203333
 30
0.0
 10
4.6599708271
 20
6.709158115
 30
0.0
 10
4.6586610819
 20
6.7112460397
 30
0.0
 10
4.6573718605
 20
6.7132005882
 30
0.0
 10
4.6561203202
 20
6.7149968251
 30
0.0
 10
4.6549218108
 20
6.7166115706
 30
0.0
 10
4.6537919428
 20
6.7180253427
 30
0.0
 10
4.6527449447
 20
6.719221419
 30
0.0
 10
4.6519159714
 20
6.7200621539
 30
0.0
 10
4.6513000588
 20
6.7206087859
 30
0.0
 10
4.650888793
 20
6.7209363778
 30
0.0
 10
4.6505067369
 20
6.7212009973
 30
0.0
 10
4.6501546548
 20
6.7214017672
 30
0.0
 10
4.6498330055
 20
6.7215383193
 30
0.0
 10
4.6495414174
 20
6.7216102773
 30
0.0
 10
4.649279227
 20
6.7216159769
 30
0.0
 10
4.6491210612
 20
6.721571065
 30
0.0
 10
4.6490522787
 20
6.7215377953
 30
0.0
  0
SPLINE
  5
30C
100
AcDbEntity
  8
ALL_ASSEMBLY_MEMBERS
100
AcDbSpline
 62
7
  6
CONTINUOUS
 70
0
 71
3
 72
26
 73
22
 74
0
 42
0.0000001
 43
0.0000001
 44
0.0000000001
 40
0.0
 40
0.0
 40
0.0
 40
0.0
 40
0.0763774784
 40
0.1572495712
 40
0.3260651729
 40
0.4110902756
 40
0.4946411625
 40
0.575324839
 40
0.6517825576
 40
0.7228249585
 40
0.7873362116
 40
0.8443528018
 40
0.8930879855
 40
0.914136853
 40
0.9329044647
 40
0.9493687039
 40
0.9635310458
 40
0.9754361031
 40
0.9852222816
 40
0.9932083796
 40
1.0
 40
1.0
 40
1.0
 40
1.0
 10
4.7432560658
 20
6.5389710904
 30
0.0
 10
4.7428602179
 20
6.5397867815
 30
0.0
 10
4.742022545
 20
6.5414552217
 30
0.0
 10
4.7402086574
 20
6.5448748197
 30
0.0
 10
4.7382372679
 20
6.5483260893
 30
0.0
 10
4.7361518369
 20
6.5517456606
 30
0.0
 10
4.7345610204
 20
6.5542408321
 30
0.0
 10
4.7329753386
 20
6.5566179377
 30
0.0
 10
4.7314206826
 20
6.5588364495
 30
0.0
 10
4.7299236503
 20
6.5608599473
 30
0.0
 10
4.7285085464
 20
6.5626558634
 30
0.0
 10
4.7271981756
 20
6.564195363
 30
0.0
 10
4.7261674926
 20
6.565293808
 30
0.0
 10
4.7254065775
 20
6.5660194579
 30
0.0
 10
4.724902875
 20
6.5664587823
 30
0.0
 10
4.724439792
 20
6.5668190969
 30
0.0
 10
4.7240190181
 20
6.5670992177
 30
0.0
 10
4.7236417296
 20
6.5672984114
 30
0.0
 10
4.7233075894
 20
6.5674156674
 30
0.0
 10
4.7230146524
 20
6.5674504077
 30
0.0
 10
4.7228385131
 20
6.5674100615
 30
0.0
 10
4.7227659405
 20
6.5673749443
 30
0.0
  0
SPLINE
  5
30D
100
AcDbEntity
  8
ALL_ASSEMBLY_MEMBERS
100
AcDbSpline
 62
7
  6
CONTINUOUS
 70
0
 71
3
 72
28
 73
24
 74
0
 42
0.0000001
 43
0.0000001
 44
0.0000000001
 40
0.0
 40
0.0
 40
0.0
 40
0.0
 40
0.0640935096
 40
0.1358210188
 40
0.2134118621
 40
0.2951242252
 40
0.3792144753
 40
0.463869769
 40
0.5472555144
 40
0.6276409894
 40
0.7033700799
 40
0.7729260394
 40
0.8349280238
 40
0.8627050707
 40
0.8881624743
 40
0.9111809877
 40
0.9316479862
 40
0.9494820141
 40
0.964644787
 40
0.9771305516
 40
0.9823876418
 40
0.9870088573
 40
1.0
 40
1.0
 40
1.0
 40
1.0
 10
4.8093997701
 20
6.402674211
 30
0.0
 10
4.8090235762
 20
6.4034494026
 30
0.0
 10
4.8081953336
 20
6.4050770856
 30
0.0
 10
4.806826237
 20
6.4075986653
 30
0.0
 10
4.8052821356
 20
6.4102938263
 30
0.0
 10
4.8035992412
 20
6.4131002094
 30
0.0
 10
4.8018140703
 20
6.4159553094
 30
0.0
 10
4.7999659754
 20
6.4187969557
 30
0.0
 10
4.7980942571
 20
6.4215631779
 30
0.0
 10
4.7962391051
 20
6.4241950276
 30
0.0
 10
4.794439136
 20
6.4266375498
 30
0.0
 10
4.7927317066
 20
6.4288402685
 30
0.0
 10
4.7913702293
 20
6.4304945888
 30
0.0
 10
4.790350265
 20
6.4316607913
 30
0.0
 10
4.7896578864
 20
6.4324169009
 30
0.0
 10
4.7890134089
 20
6.4330831904
 30
0.0
 10
4.7884202314
 20
6.433655966
 30
0.0
 10
4.7878816751
 20
6.4341323028
 30
0.0
 10
4.7874001838
 20
6.4345102434
 30
0.0
 10
4.787031214
 20
6.4347546323
 30
0.0
 10
4.7867635791
 20
6.4348949954
 30
0.0
 10
4.7864849306
 20
6.4350134051
 30
0.0
 10
4.7862168462
 20
6.4350655201
 30
0.0
 10
4.78605974
 20
6.4349892325
 30
0.0
  0
SPLINE
  5
30E
100
AcDbEntity
  8
ALL_ASSEMBLY_MEMBERS
100
AcDbSpline
 62
7
  6
CONTINUOUS
 70
0
 71
3
 72
32
 73
28
 74
0
 42
0.0000001
 43
0.0000001
 44
0.0000000001
 40
0.0
 40
0.0
 40
0.0
 40
0.0
 40
0.023110548
 40
0.0492158676
 40
0.1095583587
 40
0.1792572319
 40
0.2563738308
 40
0.3388468199
 40
0.4244235814
 40
0.5108382647
 40
0.5958471258
 40
0.6772829546
 40
0.7530872423
 40
0.8213509674
 40
0.8521124718
 40
0.8803488111
 40
0.9058909103
 40
0.9285824078
 40
0.9482718892
 40
0.9648324888
 40
0.9719197137
 40
0.9782056606
 40
0.9836904145
 40
0.9883802428
 40
0.99229271
 40
0.9954678286
 40
1.0
 40
1.0
 40
1.0
 40
1.0
 10
4.8601536195
 20
6.298089937
 30
0.0
 10
4.8600060269
 20
6.2983940689
 30
0.0
 10
4.8596820614
 20
6.2990370683
 30
0.0
 10
4.8589307682
 20
6.300452722
 30
0.0
 10
4.8578072528
 20
6.3024417795
 30
0.0
 10
4.8562540994
 20
6.3050439264
 30
0.0
 10
4.8544805037
 20
6.3078907767
 30
0.0
 10
4.8525345775
 20
6.3109032921
 30
0.0
 10
4.8504686825
 20
6.3139997332
 30
0.0
 10
4.8483373499
 20
6.3170966356
 30
0.0
 10
4.8461963637
 20
6.3201128977
 30
0.0
 10
4.8441006359
 20
6.3229704648
 30
0.0
 10
4.8421040016
 20
6.3255963541
 30
0.0
 10
4.8405145792
 20
6.3276001273
 30
0.0
 10
4.8393283365
 20
6.3290348296
 30
0.0
 10
4.8385254297
 20
6.3299754261
 30
0.0
 10
4.8377834442
 20
6.3308125844
 30
0.0
 10
4.8371074898
 20
6.3315409199
 30
0.0
 10
4.8365024182
 20
6.3321553077
 30
0.0
 10
4.8360396512
 20
6.3325889973
 30
0.0
 10
4.8357065213
 20
6.332873293
 30
0.0
 10
4.8354900708
 20
6.333044385
 30
0.0
 10
4.8352940086
 20
6.3331844882
 30
0.0
 10
4.8351191504
 20
6.3332934188
 30
0.0
 10
4.8349642429
 20
6.3333711276
 30
0.0
 10
4.834805697
 20
6.3334272777
 30
0.0
 10
4.8346820889
 20
6.3334342611
 30
0.0
 10
4.834622465
 20
6.3334052779
 30
0.0
  0
SPLINE
  5
30F
100
AcDbEntity
  8
ALL_ASSEMBLY_MEMBERS
100
AcDbSpline
 62
7
  6
CONTINUOUS
 70
0
 71
3
 72
36
 73
32
 74
0
 42
0.0000001
 43
0.0000001
 44
0.0000000001
 40
0.0
 40
0.0
 40
0.0
 40
0.0
 40
0.0136924086
 40
0.0312922694
 40
0.0526332326
 40
0.0775408283
 40
0.1057964905
 40
0.1371450761
 40
0.2080755331
 40
0.2879650949
 40
0.3741750623
 40
0.4639317826
 40
0.5544131784
 40
0.6428159321
 40
0.7264133843
 40
0.7655966883
 40
0.8026139336
 40
0.8371819333
 40
0.8690246714
 40
0.8978683394
 40
0.9234766812
 40
0.9456504017
 40
0.9641941448
 40
0.9789350836
 40
0.9848489232
 40
0.989781288
 40
0.9937295246
 40
0.9967013822
 40
0.9978321659
 40
0.9987398605
 40
1.0
 40
1.0
 40
1.0
 40
1.0
 10
4.892058823
 20
6.2323455139
 30
0.0
 10
4.8919671006
 20
6.2325345186
 30
0.0
 10
4.891743676
 20
6.2329597091
 30
0.0
 10
4.8913465192
 20
6.2336629013
 30
0.0
 10
4.8908471139
 20
6.2345057607
 30
0.0
 10
4.8902496986
 20
6.2354803917
 30
0.0
 10
4.8895593594
 20
6.2365780598
 30
0.0
 10
4.8884775593
 20
6.2382636079
 30
0.0
 10
4.8869401027
 20
6.2405979262
 30
0.0
 10
4.8849052743
 20
6.2436122534
 30
0.0
 10
4.8826769704
 20
6.2468442562
 30
0.0
 10
4.8803266706
 20
6.2501893377
 30
0.0
 10
4.8779277766
 20
6.2535412073
 30
0.0
 10
4.8755550296
 20
6.2567953844
 30
0.0
 10
4.8736208726
 20
6.2593951013
 30
0.0
 10
4.8721407881
 20
6.2613497836
 30
0.0
 10
4.8711063974
 20
6.2626983091
 30
0.0
 10
4.8701318658
 20
6.263950759
 30
0.0
 10
4.8692252063
 20
6.2650970657
 30
0.0
 10
4.8683939806
 20
6.2661276979
 30
0.0
 10
4.8676452123
 20
6.2670341437
 30
0.0
 10
4.8669855237
 20
6.2678090901
 30
0.0
 10
4.8664209002
 20
6.2684457445
 30
0.0
 10
4.8660088175
 20
6.2688840803
 30
0.0
 10
4.865728609
 20
6.2691591313
 30
0.0
 10
4.8655610401
 20
6.2693123528
 30
0.0
 10
4.8654203864
 20
6.2694278307
 30
0.0
 10
4.865318865
 20
6.2694985024
 30
0.0
 10
4.8652500376
 20
6.2695337767
 30
0.0
 10
4.8652031549
 20
6.2695510314
 30
0.0
 10
4.865166468
 20
6.2695539391
 30
0.0
 10
4.8651491813
 20
6.2695452792
 30
0.0
  0
LINE
  5
310
100
AcDbEntity
  8
ALL_ASSEMBLY_MEMBERS
100
AcDbLine
 62
7
  6
CONTINUOUS
 10
4.2998808583
 20
7.3174191446
 11
4.2997082958
 21
7.3176605896
  0
SPLINE
  5
311
100
AcDbEntity
  8
ALL_ASSEMBLY_MEMBERS
100
AcDbSpline
 62
7
  6
CONTINUOUS
 70
0
 71
3
 72
18
 73
14
 74
0
 42
0.0000001
 43
0.0000001
 44
0.0000000001
 40
0.0
 40
0.0
 40
0.0
 40
0.0
 40
0.219223878
 40
0.4116792415
 40
0.5766557684
 40
0.713567239
 40
0.822095019
 40
0.865864926
 40
0.9029414157
 40
0.9337765197
 40
0.9591550775
 40
0.9804699706
 40
1.0
 40
1.0
 40
1.0
 40
1.0
 10
4.3285367358
 20
7.2583703398
 30
0.0
 10
4.3284325791
 20
7.2585849671
 30
0.0
 10
4.3282327905
 20
7.2589860145
 30
0.0
 10
4.3279374788
 20
7.2595398152
 30
0.0
 10
4.3276672441
 20
7.2600051999
 30
0.0
 10
4.3274236006
 20
7.2603797069
 30
0.0
 10
4.3272325677
 20
7.2606306564
 30
0.0
 10
4.3270913692
 20
7.2607810386
 30
0.0
 10
4.3270003384
 20
7.2608618998
 30
0.0
 10
4.3269162289
 20
7.2609194188
 30
0.0
 10
4.3268383724
 20
7.2609536917
 30
0.0
 10
4.3267656952
 20
7.2609637537
 30
0.0
 10
4.3267212943
 20
7.2609523683
 30
0.0
 10
4.3267021669
 20
7.2609431035
 30
0.0
  0
SPLINE
  5
312
100
AcDbEntity
  8
ALL_ASSEMBLY_MEMBERS
100
AcDbSpline
 62
7
  6
CONTINUOUS
 70
0
 71
3
 72
19
 73
15
 74
0
 42
0.0000001
 43
0.0000001
 44
0.0000000001
 40
0.0
 40
0.0
 40
0.0
 40
0.0
 40
0.2126269139
 40
0.403220452
 40
0.5690186587
 40
0.7078822989
 40
0.7669421757
 40
0.8190084287
 40
0.864086608
 40
0.9022858656
 40
0.9339516994
 40
0.9597686486
 40
0.9810253653
 40
1.0
 40
1.0
 40
1.0
 40
1.0
 10
4.3840178674
 20
7.1440449452
 30
0.0
 10
4.3837401927
 20
7.1446171265
 30
0.0
 10
4.3832010325
 20
7.145696171
 30
0.0
 10
4.3823964717
 20
7.1471963773
 30
0.0
 10
4.3816484233
 20
7.1484754323
 30
0.0
 10
4.3810523026
 20
7.1493865245
 30
0.0
 10
4.3806066537
 20
7.1499872452
 30
0.0
 10
4.3803103585
 20
7.1503488065
 30
0.0
 10
4.3800344724
 20
7.1506455536
 30
0.0
 10
4.3797793888
 20
7.150876906
 30
0.0
 10
4.3795451488
 20
7.1510430223
 30
0.0
 10
4.379330561
 20
7.1511442389
 30
0.0
 10
4.3791324018
 20
7.1511786706
 30
0.0
 10
4.3790111043
 20
7.1511503527
 30
0.0
 10
4.3789599848
 20
7.1511256943
 30
0.0
  0
SPLINE
  5
313
100
AcDbEntity
  8
ALL_ASSEMBLY_MEMBERS
100
AcDbSpline
 62
7
  6
CONTINUOUS
 70
0
 71
3
 72
22
 73
18
 74
0
 42
0.0000001
 43
0.0000001
 44
0.0000000001
 40
0.0
 40
0.0
 40
0.0
 40
0.0
 40
0.2017892372
 40
0.3885695241
 40
0.5550281367
 40
0.6294850848
 40
0.6975646578
 40
0.7589269092
 40
0.813354816
 40
0.8606913607
 40
0.9008567714
 40
0.9339645321
 40
0.9605385741
 40
0.9717255633
 40
0.9817943279
 40
0.9910769018
 40
1.0
 40
1.0
 40
1.0
 40
1.0
 10
4.4589541868
 20
6.9896298486
 30
0.0
 10
4.458465239
 20
6.9906373829
 30
0.0
 10
4.4574971408
 20
6.9925648098
 30
0.0
 10
4.4560294671
 20
6.9952736125
 30
0.0
 10
4.4548198354
 20
6.9973169568
 30
0.0
 10
4.4538900657
 20
6.9987581533
 30
0.0
 10
4.4532485742
 20
6.9996906244
 30
0.0
 10
4.4526401929
 20
7.0005102202
 30
0.0
 10
4.4520686036
 20
7.0012128025
 30
0.0
 10
4.451537187
 20
7.00179491
 30
0.0
 10
4.4510485944
 20
7.0022539638
 30
0.0
 10
4.450604811
 20
7.0025877354
 30
0.0
 10
4.4502533549
 20
7.0027719459
 30
0.0
 10
4.4499970643
 20
7.0028447078
 30
0.0
 10
4.4498275986
 20
7.0028632097
 30
0.0
 10
4.4496701804
 20
7.0028481144
 30
0.0
 10
4.4495735527
 20
7.0028148711
 30
0.0
 10
4.4495290071
 20
7.0027932345
 30
0.0
  0
SPLINE
  5
314
100
AcDbEntity
  8
ALL_ASSEMBLY_MEMBERS
100
AcDbSpline
 62
7
  6
CONTINUOUS
 70
0
 71
3
 72
24
 73
20
 74
0
 42
0.0000001
 43
0.0000001
 44
0.0000000001
 40
0.0
 40
0.0
 40
0.0
 40
0.0
 40
0.1860854048
 40
0.3668312054
 40
0.4526460328
 40
0.5343113014
 40
0.6110353506
 40
0.6821254879
 40
0.7469320389
 40
0.8048505269
 40
0.855474155
 40
0.8985233437
 40
0.9338488765
 40
0.9486808652
 40
0.9617166229
 40
0.9730878226
 40
0.983007762
 40
0.9918132772
 40
1.0
 40
1.0
 40
1.0
 40
1.0
 10
4.5433912172
 20
6.8156374198
 30
0.0
 10
4.5427080469
 20
6.8170451725
 30
0.0
 10
4.5413133591
 20
6.8197972536
 30
0.0
 10
4.5394767354
 20
6.8231320964
 30
0.0
 10
4.5379883961
 20
6.8256540344
 30
0.0
 10
4.5369072921
 20
6.8274000877
 30
0.0
 10
4.5358523638
 20
6.8290161065
 30
0.0
 10
4.5348344835
 20
6.830486274
 30
0.0
 10
4.5338641443
 20
6.8317961236
 30
0.0
 10
4.5329504705
 20
6.8329324653
 30
0.0
 10
4.5321025588
 20
6.8338852953
 30
0.0
 10
4.5313287949
 20
6.8346466637
 30
0.0
 10
4.530719619
 20
6.8351433555
 30
0.0
 10
4.5302712555
 20
6.8354296888
 30
0.0
 10
4.529976923
 20
6.8355802239
 30
0.0
 10
4.5297047739
 20
6.8356792291
 30
0.0
 10
4.5294545058
 20
6.8357259425
 30
0.0
 10
4.5292261618
 20
6.8357185845
 30
0.0
 10
4.5290877065
 20
6.8356749432
 30
0.0
 10
4.5290258119
 20
6.8356448081
 30
0.0
  0
SPLINE
  5
315
100
AcDbEntity
  8
ALL_ASSEMBLY_MEMBERS
100
AcDbSpline
 62
7
  6
CONTINUOUS
 70
0
 71
3
 72
26
 73
22
 74
0
 42
0.0000001
 43
0.0000001
 44
0.0000000001
 40
0.0
 40
0.0
 40
0.0
 40
0.0
 40
0.0805478587
 40
0.1644703696
 40
0.3363673161
 40
0.4216408629
 40
0.5047567207
 40
0.5844835967
 40
0.6596105823
 40
0.7290639164
 40
0.7919053891
 40
0.8472703599
 40
0.8945251186
 40
0.9149532648
 40
0.9331814623
 40
0.9492057967
 40
0.9630576179
 40
0.9748133585
 40
0.9846325809
 40
0.9928323087
 40
1.0
 40
1.0
 40
1.0
 40
1.0
 10
4.6261124157
 20
6.6451806645
 30
0.0
 10
4.6257194979
 20
6.6459903179
 30
0.0
 10
4.6248973917
 20
6.647633995
 30
0.0
 10
4.6231466699
 20
6.650959726
 30
0.0
 10
4.6212714765
 20
6.65427883
 30
0.0
 10
4.6193064127
 20
6.6575338428
 30
0.0
 10
4.6178255492
 20
6.6598776168
 30
0.0
 10
4.616357274
 20
6.6620945255
 30
0.0
 10
4.6149235179
 20
6.6641504078
 30
0.0
 10
4.6135457647
 20
6.6660143201
 30
0.0
 10
4.6122451101
 20
6.6676594869
 30
0.0
 10
4.6110396365
 20
6.6690618056
 30
0.0
 10
4.6100887745
 20
6.6700563136
 30
0.0
 10
4.6093848241
 20
6.6707092916
 30
0.0
 10
4.6089170007
 20
6.671102687
 30
0.0
 10
4.6084849265
 20
6.6714230604
 30
0.0
 10
4.6080898498
 20
6.6716698037
 30
0.0
 10
4.607732555
 20
6.6718425341
 30
0.0
 10
4.6074127486
 20
6.6719406088
 30
0.0
 10
4.6071288865
 20
6.6719618061
 30
0.0
 10
4.6069583601
 20
6.6719178802
 30
0.0
 10
4.6068863431
 20
6.6718828511
 30
0.0
  0
SPLINE
  5
316
100
AcDbEntity
  8
ALL_ASSEMBLY_MEMBERS
100
AcDbSpline
 62
7
  6
CONTINUOUS
 70
0
 71
3
 72
28
 73
24
 74
0
 42
0.0000001
 43
0.0000001
 44
0.0000000001
 40
0.0
 40
0.0
 40
0.0
 40
0.0
 40
0.0639325389
 40
0.1355354241
 40
0.2130377958
 40
0.2946956608
 40
0.3787622227
 40
0.4634193118
 40
0.5468268208
 40
0.6272485499
 40
0.7030222029
 40
0.7726272967
 40
0.8346785906
 40
0.8624802417
 40
0.8879619591
 40
0.9110041542
 40
0.931494095
 40
0.9493513118
 40
0.9645375722
 40
0.9770471415
 40
0.9823164063
 40
0.9869501316
 40
1.0
 40
1.0
 40
1.0
 40
1.0
 10
4.6961291688
 20
6.5009029128
 30
0.0
 10
4.6957534438
 20
6.5016771382
 30
0.0
 10
4.6949261376
 20
6.5033035757
 30
0.0
 10
4.6935587007
 20
6.5058244618
 30
0.0
 10
4.6920160796
 20
6.5085208541
 30
0.0
 10
4.6903343696
 20
6.5113301667
 30
0.0
 10
4.6885500028
 20
6.5141895899
 30
0.0
 10
4.6867022472
 20
6.517036581
 30
0.0
 10
4.6848303132
 20
6.519808743
 30
0.0
 10
4.6829743738
 20
6.5224467243
 30
0.0
 10
4.6811729856
 20
6.5248951573
 30
0.0
 10
4.6794635569
 20
6.5271032395
 30
0.0
 10
4.6780999012
 20
6.5287614423
 30
0.0
 10
4.6770779061
 20
6.5299302383
 30
0.0
 10
4.6763839392
 20
6.530687984
 30
0.0
 10
4.6757377966
 20
6.5313556304
 30
0.0
 10
4.6751428827
 20
6.5319294701
 30
0.0
 10
4.6746025496
 20
6.5324065963
 30
0.0
 10
4.6741192727
 20
6.5327850585
 30
0.0
 10
4.6737487849
 20
6.5330296493
 30
0.0
 10
4.6734799802
 20
6.5331699937
 30
0.0
 10
4.6731996681
 20
6.5332884305
 30
0.0
 10
4.6729302418
 20
6.5333399913
 30
0.0
 10
4.6727722162
 20
6.5332632804
 30
0.0
  0
SPLINE
  5
317
100
AcDbEntity
  8
ALL_ASSEMBLY_MEMBERS
100
AcDbSpline
 62
7
  6
CONTINUOUS
 70
0
 71
3
 72
32
 73
28
 74
0
 42
0.0000001
 43
0.0000001
 44
0.0000000001
 40
0.0
 40
0.0
 40
0.0
 40
0.0
 40
0.0194371723
 40
0.042239291
 40
0.0971391137
 40
0.1629771453
 40
0.2377623508
 40
0.3193036062
 40
0.4051803053
 40
0.4929286482
 40
0.580068384
 40
0.6641954034
 40
0.7429804127
 40
0.8142780763
 40
0.8760849367
 40
0.9028878487
 40
0.9266872154
 40
0.9473032363
 40
0.9646107628
 40
0.9719908676
 40
0.9785062872
 40
0.9841486906
 40
0.9889158085
 40
0.9928213657
 40
0.9958999795
 40
0.9982298107
 40
1.0
 40
1.0
 40
1.0
 40
1.0
 10
4.7441405106
 20
6.4019698981
 30
0.0
 10
4.7440133614
 20
6.4022319039
 30
0.0
 10
4.7437261814
 20
6.4027959995
 30
0.0
 10
4.7430344319
 20
6.404076638
 30
0.0
 10
4.7419584175
 20
6.4059392311
 30
0.0
 10
4.7404339932
 20
6.4084410623
 30
0.0
 10
4.7386512654
 20
6.4112523281
 30
0.0
 10
4.7366627488
 20
6.4142880895
 30
0.0
 10
4.7345257598
 20
6.4174583787
 30
0.0
 10
4.7323015442
 20
6.4206706572
 30
0.0
 10
4.7300523142
 20
6.4238333625
 30
0.0
 10
4.7278409811
 20
6.4268578379
 30
0.0
 10
4.7257283594
 20
6.4296600213
 30
0.0
 10
4.7237741314
 20
6.4321622343
 30
0.0
 10
4.7222592496
 20
6.4340188322
 30
0.0
 10
4.7211643354
 20
6.4352986931
 30
0.0
 10
4.7204555431
 20
6.4360964617
 30
0.0
 10
4.7198246235
 20
6.4367727502
 30
0.0
 10
4.7193457113
 20
6.4372540881
 30
0.0
 10
4.7190036494
 20
6.4375728656
 30
0.0
 10
4.7187833789
 20
6.4377657655
 30
0.0
 10
4.7185860119
 20
6.4379251365
 30
0.0
 10
4.7184118966
 20
6.4380506252
 30
0.0
 10
4.7182613557
 20
6.4381424289
 30
0.0
 10
4.7181339229
 20
6.4382005298
 30
0.0
 10
4.7180285993
 20
6.4382264755
 30
0.0
 10
4.7179648583
 20
6.4382181573
 30
0.0
 10
4.7179409773
 20
6.4382066177
 30
0.0
  0
SPLINE
  5
318
100
AcDbEntity
  8
ALL_ASSEMBLY_MEMBERS
100
AcDbSpline
 62
7
  6
CONTINUOUS
 70
0
 71
3
 72
49
 73
45
 74
0
 42
0.0000001
 43
0.0000001
 44
0.0000000001
 40
0.0
 40
0.0
 40
0.0
 40
0.0
 40
0.0017699186
 40
0.0047186133
 40
0.0088352713
 40
0.0141074056
 40
0.0205220778
 40
0.0280661773
 40
0.0464782438
 40
0.0691398429
 40
0.0958080038
 40
0.1262359867
 40
0.1601215017
 40
0.1971176208
 40
0.2368757488
 40
0.3231612635
 40
0.4157613827
 40
0.5113280445
 40
0.6064410351
 40
0.6527689059
 40
0.6977164173
 40
0.7408783306
 40
0.781866194
 40
0.8202924558
 40
0.8557879142
 40
0.8880266621
 40
0.9166890495
 40
0.9295805769
 40
0.9414696297
 40
0.9523299075
 40
0.9621351301
 40
0.9708590345
 40
0.9784753864
 40
0.9849581888
 40
0.9902894092
 40
0.9925208629
 40
0.9944618291
 40
0.9961115791
 40
0.997469474
 40
0.9985350644
 40
0.9993083779
 40
0.9997910819
 40
0.999926506
 40
1.0
 40
1.0
 40
1.0
 40
1.0
 10
4.7637686555
 20
6.3615237977
 30
0.0
 10
4.7637566291
 20
6.3615485796
 30
0.0
 10
4.763719351
 20
6.3616119881
 30
0.0
 10
4.763646974
 20
6.3617288361
 30
0.0
 10
4.763542671
 20
6.3618900946
 30
0.0
 10
4.7634072731
 20
6.362095414
 30
0.0
 10
4.7632407959
 20
6.3623441474
 30
0.0
 10
4.7629586333
 20
6.3627615168
 30
0.0
 10
4.762531374
 20
6.3633860069
 30
0.0
 10
4.7619323025
 20
6.3642535586
 30
0.0
 10
4.7612236574
 20
6.3652727014
 30
0.0
 10
4.7604123191
 20
6.3664331914
 30
0.0
 10
4.7595061051
 20
6.3677234719
 30
0.0
 10
4.7585137757
 20
6.3691307108
 30
0.0
 10
4.7570478366
 20
6.3712018636
 30
0.0
 10
4.755075007
 20
6.3739744561
 30
0.0
 10
4.7525880541
 20
6.3774472081
 30
0.0
 10
4.7500104228
 20
6.3810239797
 30
0.0
 10
4.7478446445
 20
6.384009862
 30
0.0
 10
4.7461358505
 20
6.3863539726
 30
0.0
 10
4.7449005467
 20
6.3880426819
 30
0.0
 10
4.7437115214
 20
6.3896622696
 30
0.0
 10
4.7425798424
 20
6.3911980474
 30
0.0
 10
4.7415162191
 20
6.3926357593
 30
0.0
 10
4.740530809
 20
6.3939619516
 30
0.0
 10
4.7396332744
 20
6.395164118
 30
0.0
 10
4.7389437868
 20
6.396082583
 30
0.0
 10
4.7384427608
 20
6.3967465005
 30
0.0
 10
4.7381078038
 20
6.3971886401
 30
0.0
 10
4.7378009876
 20
6.3975918365
 30
0.0
 10
4.7375230813
 20
6.3979551294
 30
0.0
 10
4.7372748549
 20
6.3982775602
 30
0.0
 10
4.7370570834
 20
6.3985581775
 30
0.0
 10
4.7368704582
 20
6.3987961254
 30
0.0
 10
4.7367343425
 20
6.3989671733
 30
0.0
 10
4.7366412426
 20
6.3990821088
 30
0.0
 10
4.7365837028
 20
6.3991521037
 30
0.0
 10
4.7365342195
 20
6.3992111383
 30
0.0
 10
4.7364928639
 20
6.3992591447
 30
0.0
 10
4.736459585
 20
6.3992962503
 30
0.0
 10
4.7364346773
 20
6.3993221697
 30
0.0
 10
4.7364184808
 20
6.3993370996
 30
0.0
 10
4.7364097508
 20
6.3993428909
 30
0.0
 10
4.7364062571
 20
6.399343971
 30
0.0
 10
4.7364052014
 20
6.3993435309
 30
0.0
  0
LINE
  5
319
100
AcDbEntity
  8
ALL_ASSEMBLY_MEMBERS
100
AcDbLine
 62
7
  6
CONTINUOUS
 10
4.3277198932
 20
7.132548333
 11
4.3274261698
 21
7.1329631237
  0
SPLINE
  5
31A
100
AcDbEntity
  8
ALL_ASSEMBLY_MEMBERS
100
AcDbSpline
 62
7
  6
CONTINUOUS
 70
0
 71
3
 72
19
 73
15
 74
0
 42
0.0000001
 43
0.0000001
 44
0.0000000001
 40
0.0
 40
0.0
 40
0.0
 40
0.0
 40
0.215587078
 40
0.407246481
 40
0.5730248559
 40
0.7111929821
 40
0.7697047565
 40
0.8211786772
 40
0.8656875623
 40
0.9033951589
 40
0.9346343534
 40
0.9600832923
 40
0.981096285
 40
1.0
 40
1.0
 40
1.0
 40
1.0
 10
4.3681154195
 20
7.0493086014
 30
0.0
 10
4.3679036956
 20
7.0497448835
 30
0.0
 10
4.3674948067
 20
7.050564744
 30
0.0
 10
4.3668876334
 20
7.051701998
 30
0.0
 10
4.3663275706
 20
7.0526662086
 30
0.0
 10
4.3658835759
 20
7.0533507681
 30
0.0
 10
4.3655526024
 20
7.0538004639
 30
0.0
 10
4.3653331986
 20
7.0540701893
 30
0.0
 10
4.3651289912
 20
7.0542913009
 30
0.0
 10
4.3649402064
 20
7.0544636484
 30
0.0
 10
4.3647666974
 20
7.0545873121
 30
0.0
 10
4.3646072769
 20
7.0546622231
 30
0.0
 10
4.364459531
 20
7.0546867603
 30
0.0
 10
4.3643692673
 20
7.0546648777
 30
0.0
 10
4.3643310199
 20
7.0546462965
 30
0.0
  0
SPLINE
  5
31B
100
AcDbEntity
  8
ALL_ASSEMBLY_MEMBERS
100
AcDbSpline
 62
7
  6
CONTINUOUS
 70
0
 71
3
 72
23
 73
19
 74
0
 42
0.0000001
 43
0.0000001
 44
0.0000000001
 40
0.0
 40
0.0
 40
0.0
 40
0.0
 40
0.1994363755
 40
0.38540687
 40
0.4714546652
 40
0.5521444501
 40
0.6270049186
 40
0.6955793291
 40
0.7575000168
 40
0.8124949248
 40
0.8603365307
 40
0.9008864804
 40
0.9342716699
 40
0.9609623146
 40
0.9721247442
 40
0.9821078293
 40
0.9912503397
 40
1.0
 40
1.0
 40
1.0
 40
1.0
 10
4.4426322909
 20
6.8957578267
 30
0.0
 10
4.4421050021
 20
6.8968443673
 30
0.0
 10
4.441056837
 20
6.8989300712
 30
0.0
 10
4.4396966034
 20
6.9014408968
 30
0.0
 10
4.4386248547
 20
6.903288593
 30
0.0
 10
4.4378638105
 20
6.904538267
 30
0.0
 10
4.4371296852
 20
6.9056800038
 30
0.0
 10
4.4364270535
 20
6.9067063063
 30
0.0
 10
4.4357604169
 20
6.9076107075
 30
0.0
 10
4.4351342063
 20
6.9083879494
 30
0.0
 10
4.4345525957
 20
6.9090333897
 30
0.0
 10
4.4340184333
 20
6.909543412
 30
0.0
 10
4.4335346922
 20
6.9099158531
 30
0.0
 10
4.433152512
 20
6.9101238767
 30
0.0
 10
4.4328742204
 20
6.9102080246
 30
0.0
 10
4.4326911259
 20
6.9102309353
 30
0.0
 10
4.4325215427
 20
6.910216446
 30
0.0
 10
4.4324177578
 20
6.9101810441
 30
0.0
 10
4.4323701211
 20
6.9101578453
 30
0.0
  0
SPLINE
  5
31C
100
AcDbEntity
  8
ALL_ASSEMBLY_MEMBERS
100
AcDbSpline
 62
7
  6
CONTINUOUS
 70
0
 71
3
 72
27
 73
23
 74
0
 42
0.0000001
 43
0.0000001
 44
0.0000000001
 40
0.0
 40
0.0
 40
0.0
 40
0.0
 40
0.1715090534
 40
0.3463599504
 40
0.4318494014
 40
0.5145205083
 40
0.5932935833
 40
0.667124064
 40
0.7350357718
 40
0.7962455907
 40
0.8500343006
 40
0.873964461
 40
0.8958556262
 40
0.9156731272
 40
0.9333940268
 40
0.9490145427
 40
0.9560492539
 40
0.9625800048
 40
0.9741890119
 40
0.9840370379
 40
0.9924574267
 40
1.0
 40
1.0
 40
1.0
 40
1.0
 10
4.5286245463
 20
6.7185606741
 30
0.0
 10
4.5278463634
 20
6.7201642115
 30
0.0
 10
4.5262070266
 20
6.7233698935
 30
0.0
 10
4.5240185748
 20
6.7272893127
 30
0.0
 10
4.5221916135
 20
6.7303504891
 30
0.0
 10
4.5208315546
 20
6.7325269017
 30
0.0
 10
4.5194901171
 20
6.7345713943
 30
0.0
 10
4.5181856855
 20
6.7364559299
 30
0.0
 10
4.5169350163
 20
6.7381547255
 30
0.0
 10
4.5157553219
 20
6.7396457636
 30
0.0
 10
4.5148105478
 20
6.7407385012
 30
0.0
 10
4.5140981718
 20
6.7414898232
 30
0.0
 10
4.5136116238
 20
6.7419681685
 30
0.0
 10
4.5131532073
 20
6.7423823969
 30
0.0
 10
4.512724411
 20
6.7427311697
 30
0.0
 10
4.5123817864
 20
6.7429741966
 30
0.0
 10
4.5121230327
 20
6.7431326898
 30
0.0
 10
4.51189323
 20
6.7432578806
 30
0.0
 10
4.5116263271
 20
6.7433756967
 30
0.0
 10
4.5113243386
 20
6.7434551975
 30
0.0
 10
4.5110533871
 20
6.7434649458
 30
0.0
 10
4.5108900388
 20
6.7434196504
 30
0.0
 10
4.5108195162
 20
6.7433854333
 30
0.0
  0
SPLINE
  5
31D
100
AcDbEntity
  8
ALL_ASSEMBLY_MEMBERS
100
AcDbSpline
 62
7
  6
CONTINUOUS
 70
0
 71
3
 72
30
 73
26
 74
0
 42
0.0000001
 43
0.0000001
 44
0.0000000001
 40
0.0
 40
0.0
 40
0.0
 40
0.0
 40
0.0594040892
 40
0.1275617423
 40
0.202687227
 40
0.2829675269
 40
0.3665557914
 40
0.4514909583
 40
0.5357953641
 40
0.6175829594
 40
0.6950255363
 40
0.7664608439
 40
0.830327005
 40
0.8589994849
 40
0.8852969946
 40
0.9090736099
 40
0.9302075307
 40
0.9486149344
 40
0.9642289285
 40
0.9770109994
 40
0.9870011971
 40
0.9910174225
 40
0.9944482576
 40
0.9973904837
 40
1.0
 40
1.0
 40
1.0
 40
1.0
 10
4.5999588119
 20
6.5715680329
 30
0.0
 10
4.5995984658
 20
6.5723105683
 30
0.0
 10
4.5987913481
 20
6.5738888966
 30
0.0
 10
4.5974404861
 20
6.5763601284
 30
0.0
 10
4.5958888338
 20
6.5790512488
 30
0.0
 10
4.5941747759
 20
6.5818954188
 30
0.0
 10
4.5923378471
 20
6.5848240195
 30
0.0
 10
4.5904210865
 20
6.5877679461
 30
0.0
 10
4.5884676335
 20
6.5906575169
 30
0.0
 10
4.5865223776
 20
6.5934263331
 30
0.0
 10
4.5846278106
 20
6.5960115217
 30
0.0
 10
4.5828266948
 20
6.5983555741
 30
0.0
 10
4.5813890289
 20
6.6001234764
 30
0.0
 10
4.5803120386
 20
6.6013750881
 30
0.0
 10
4.5795809347
 20
6.6021891826
 30
0.0
 10
4.5789012181
 20
6.6029082535
 30
0.0
 10
4.5782767653
 20
6.6035281989
 30
0.0
 10
4.577711449
 20
6.6040459004
 30
0.0
 10
4.57720859
 20
6.6044590529
 30
0.0
 10
4.5767713789
 20
6.6047652659
 30
0.0
 10
4.5764421343
 20
6.6049429765
 30
0.0
 10
4.5762125081
 20
6.6050220399
 30
0.0
 10
4.5760700185
 20
6.6050490631
 30
0.0
 10
4.5759441908
 20
6.6050478764
 30
0.0
 10
4.575868755
 20
6.6050261116
 30
0.0
 10
4.5758360947
 20
6.6050103692
 30
0.0
  0
SPLINE
  5
31E
100
AcDbEntity
  8
ALL_ASSEMBLY_MEMBERS
100
AcDbSpline
 62
7
  6
CONTINUOUS
 70
0
 71
3
 72
40
 73
36
 74
0
 42
0.0000001
 43
0.0000001
 44
0.0000000001
 40
0.0
 40
0.0
 40
0.0
 40
0.0
 40
0.0037930077
 40
0.0086861455
 40
0.0217127007
 40
0.0389503062
 40
0.060255572
 40
0.0854174578
 40
0.1141854319
 40
0.1814929329
 40
0.2596995603
 40
0.3460082804
 40
0.4373842601
 40
0.5307100595
 40
0.6228311375
 40
0.6674745013
 40
0.7106686858
 40
0.7520405033
 40
0.7912434047
 40
0.8279401125
 40
0.8617949293
 40
0.8925063443
 40
0.9198071571
 40
0.9434320885
 40
0.9537879151
 40
0.9631423899
 40
0.9714757721
 40
0.978768551
 40
0.9850016145
 40
0.9901566031
 40
0.9942175808
 40
0.9971833157
 40
0.9990729068
 40
0.9996380413
 40
1.0
 40
1.0
 40
1.0
 40
1.0
 10
4.6349563327
 20
6.4994515264
 30
0.0
 10
4.6349306472
 20
6.4995044545
 30
0.0
 10
4.6348681998
 20
6.4996238889
 30
0.0
 10
4.6347036198
 20
6.4999177261
 30
0.0
 10
4.6344231067
 20
6.5003854622
 30
0.0
 10
4.6339993753
 20
6.5010638776
 30
0.0
 10
4.6334654481
 20
6.501895322
 30
0.0
 10
4.6328264435
 20
6.5028717573
 30
0.0
 10
4.6317861956
 20
6.5044382909
 30
0.0
 10
4.6302719994
 20
6.5066776537
 30
0.0
 10
4.6282346761
 20
6.5096405033
 30
0.0
 10
4.6259633658
 20
6.5128954005
 30
0.0
 10
4.623535999
 20
6.5163272504
 30
0.0
 10
4.6210345013
 20
6.5198169874
 30
0.0
 10
4.6189364999
 20
6.5227040331
 30
0.0
 10
4.6172837299
 20
6.5249533533
 30
0.0
 10
4.6160911738
 20
6.5265640213
 30
0.0
 10
4.614942742
 20
6.5281023443
 30
0.0
 10
4.6138484921
 20
6.5295553319
 30
0.0
 10
4.612818195
 20
6.5309105037
 30
0.0
 10
4.6118611566
 20
6.5321558979
 30
0.0
 10
4.6109861974
 20
6.5332805425
 30
0.0
 10
4.6102016654
 20
6.5342744653
 30
0.0
 10
4.6096062722
 20
6.5350154162
 30
0.0
 10
4.6091803919
 20
6.5355354349
 30
0.0
 10
4.6089023754
 20
6.5358699646
 30
0.0
 10
4.6086521223
 20
6.5361657806
 30
0.0
 10
4.6084302901
 20
6.5364221862
 30
0.0
 10
4.6082375241
 20
6.5366385607
 30
0.0
 10
4.6080745503
 20
6.5368141631
 30
0.0
 10
4.6079418019
 20
6.5369489274
 30
0.0
 10
4.6078400286
 20
6.537042099
 30
0.0
 10
4.6077725539
 20
6.5370937962
 30
0.0
 10
4.6077330322
 20
6.5371120926
 30
0.0
 10
4.6077174981
 20
6.5371129734
 30
0.0
 10
4.6077124264
 20
6.5371105658
 30
0.0
  0
SPLINE
  5
31F
100
AcDbEntity
  8
ALL_ASSEMBLY_MEMBERS
100
AcDbSpline
 62
7
  6
CONTINUOUS
 70
0
 71
3
 72
25
 73
21
 74
0
 42
0.0000001
 43
0.0000001
 44
0.0000000001
 40
0.0
 40
0.0
 40
0.0
 40
0.0
 40
0.0077323554
 40
0.0162571857
 40
0.0261096026
 40
0.0376334308
 40
0.0510360821
 40
0.0664233505
 40
0.083838412
 40
0.1032930063
 40
0.1482715152
 40
0.2011369153
 40
0.2613749603
 40
0.3283784345
 40
0.4014274038
 40
0.4796181628
 40
0.5620142366
 40
0.6476222036
 40
0.8242336789
 40
1.0
 40
1.0
 40
1.0
 40
1.0
 10
4.4506918846
 20
6.8679193185
 30
0.0
 10
4.4507604938
 20
6.8679527244
 30
0.0
 10
4.4508934006
 20
6.8680481189
 30
0.0
 10
4.4510516213
 20
6.868254878
 30
0.0
 10
4.4511759478
 20
6.868524426
 30
0.0
 10
4.4512680092
 20
6.8688561748
 30
0.0
 10
4.4513283084
 20
6.8692501238
 30
0.0
 10
4.4513571053
 20
6.8697056514
 30
0.0
 10
4.4513545356
 20
6.8702216752
 30
0.0
 10
4.4513066929
 20
6.8710283142
 30
0.0
 10
4.4511596991
 20
6.8721777826
 30
0.0
 10
4.4508687678
 20
6.8737110953
 30
0.0
 10
4.4504585532
 20
6.8754410857
 30
0.0
 10
4.4499332909
 20
6.8773470147
 30
0.0
 10
4.4492989352
 20
6.8794055806
 30
0.0
 10
4.4485642404
 20
6.8815913472
 30
0.0
 10
4.4477381655
 20
6.8838764775
 30
0.0
 10
4.4465161826
 20
6.8870505467
 30
0.0
 10
4.4448466111
 20
6.8910386237
 30
0.0
 10
4.4433896179
 20
6.8941972654
 30
0.0
 10
4.4426322909
 20
6.8957578267
 30
0.0
  0
SPLINE
  5
320
100
AcDbEntity
  8
ALL_ASSEMBLY_MEMBERS
100
AcDbSpline
 62
7
  6
CONTINUOUS
 70
0
 71
3
 72
28
 73
24
 74
0
 42
0.0000001
 43
0.0000001
 44
0.0000000001
 40
0.0
 40
0.0
 40
0.0
 40
0.0
 40
0.0131079373
 40
0.0177653317
 40
0.0230627872
 40
0.0356418017
 40
0.0509129462
 40
0.0688677982
 40
0.0894659654
 40
0.1126278086
 40
0.1382385555
 40
0.1661759471
 40
0.2285097904
 40
0.2983993807
 40
0.3744348834
 40
0.4550724575
 40
0.5386212924
 40
0.6233188283
 40
0.7072994166
 40
0.7887204975
 40
0.8658180327
 40
0.9368355598
 40
1.0
 40
1.0
 40
1.0
 40
1.0
 10
4.3791707557
 20
7.0107191543
 30
0.0
 10
4.3793303953
 20
7.010796693
 30
0.0
 10
4.3794575422
 20
7.0110430681
 30
0.0
 10
4.3795386691
 20
7.0113397056
 30
0.0
 10
4.3795951812
 20
7.0116411212
 30
0.0
 10
4.3796324248
 20
7.0120885818
 30
0.0
 10
4.3796337737
 20
7.0127094199
 30
0.0
 10
4.3795923515
 20
7.013437235
 30
0.0
 10
4.3795081281
 20
7.0142687926
 30
0.0
 10
4.3793812339
 20
7.0151995644
 30
0.0
 10
4.3792125163
 20
7.0162244921
 30
0.0
 10
4.3789219454
 20
7.0177664423
 30
0.0
 10
4.3784556373
 20
7.0198847062
 30
0.0
 10
4.3777680581
 20
7.0226196064
 30
0.0
 10
4.3769471927
 20
7.0255755532
 30
0.0
 10
4.3760104692
 20
7.0286904376
 30
0.0
 10
4.3749784842
 20
7.031898479
 30
0.0
 10
4.3738738797
 20
7.035130101
 30
0.0
 10
4.3727224165
 20
7.0383147094
 30
0.0
 10
4.3715498157
 20
7.0413816822
 30
0.0
 10
4.3703836578
 20
7.044262637
 30
0.0
 10
4.3692514041
 20
7.0468898793
 30
0.0
 10
4.3684888015
 20
7.048539204
 30
0.0
 10
4.3681154195
 20
7.0493086014
 30
0.0
  0
SPLINE
  5
321
100
AcDbEntity
  8
ALL_ASSEMBLY_MEMBERS
100
AcDbSpline
 62
7
  6
CONTINUOUS
 70
0
 71
3
 72
36
 73
32
 74
0
 42
0.0000001
 43
0.0000001
 44
0.0000000001
 40
0.0
 40
0.0
 40
0.0
 40
0.0
 40
0.0011243916
 40
0.0019939036
 40
0.0031031752
 40
0.0060785812
 40
0.0100832791
 40
0.0151165598
 40
0.0211698136
 40
0.0362867606
 40
0.0553230609
 40
0.0781082352
 40
0.1044208711
 40
0.1340359018
 40
0.1667114826
 40
0.202157097
 40
0.2400727903
 40
0.2801564701
 40
0.3655009183
 40
0.455441357
 40
0.5471077356
 40
0.6375480409
 40
0.7238132146
 40
0.8030153855
 40
0.8724453056
 40
0.9027205604
 40
0.9296872296
 40
0.953091369
 40
0.9727177377
 40
0.9884046182
 40
1.0
 40
1.0
 40
1.0
 40
1.0
 10
4.3403719558
 20
7.0881177132
 30
0.0
 10
4.3403876354
 20
7.0881251392
 30
0.0
 10
4.340403785
 20
7.0881560753
 30
0.0
 10
4.3404149962
 20
7.0882015585
 30
0.0
 10
4.3404250022
 20
7.0882779639
 30
0.0
 10
4.3404262992
 20
7.0884027333
 30
0.0
 10
4.340415801
 20
7.0885879731
 30
0.0
 10
4.3403921227
 20
7.088819642
 30
0.0
 10
4.3403391162
 20
7.0892205228
 30
0.0
 10
4.3402371517
 20
7.0898326012
 30
0.0
 10
4.3400716835
 20
7.0906954725
 30
0.0
 10
4.3398558142
 20
7.0917244173
 30
0.0
 10
4.3395913353
 20
7.0929098242
 30
0.0
 10
4.33928003
 20
7.094241068
 30
0.0
 10
4.338924165
 20
7.0957065527
 30
0.0
 10
4.3385266733
 20
7.0972936832
 30
0.0
 10
4.3380906972
 20
7.0989889745
 30
0.0
 10
4.3374488302
 20
7.1014262596
 30
0.0
 10
4.3365769761
 20
7.1046330237
 30
0.0
 10
4.3354600218
 20
7.1085977686
 30
0.0
 10
4.3342877078
 20
7.1126284509
 30
0.0
 10
4.3330986471
 20
7.1165950544
 30
0.0
 10
4.3319337766
 20
7.1203679987
 30
0.0
 10
4.3308336649
 20
7.123821495
 30
0.0
 10
4.3299691874
 20
7.1264432423
 30
0.0
 10
4.329337561
 20
7.1282929191
 30
0.0
 10
4.3289257333
 20
7.129467176
 30
0.0
 10
4.3285576258
 20
7.1304825752
 30
0.0
 10
4.3282369639
 20
7.1313300047
 30
0.0
 10
4.3279670358
 20
7.132001588
 30
0.0
 10
4.3277980069
 20
7.1323873704
 30
0.0
 10
4.3277198932
 20
7.132548333
 30
0.0
  0
SPLINE
  5
322
100
AcDbEntity
  8
ALL_ASSEMBLY_MEMBERS
100
AcDbSpline
 62
7
  6
CONTINUOUS
 70
0
 71
3
 72
17
 73
13
 74
0
 42
0.0000001
 43
0.0000001
 44
0.0000000001
 40
0.0
 40
0.0
 40
0.0
 40
0.0
 40
0.0196491142
 40
0.0409909506
 40
0.0663333227
 40
0.0971140901
 40
0.1777548073
 40
0.2858831947
 40
0.4222132434
 40
0.5868208219
 40
0.7795200452
 40
1.0
 40
1.0
 40
1.0
 40
1.0
 10
4.7446984141
 20
6.40006111
 30
0.0
 10
4.7447105346
 20
6.400066965
 30
0.0
 10
4.7447336352
 20
6.4000844062
 30
0.0
 10
4.7447572669
 20
6.4001241882
 30
0.0
 10
4.7447708359
 20
6.4001759618
 30
0.0
 10
4.7447771342
 20
6.4002697994
 30
0.0
 10
4.7447572275
 20
6.4004199464
 30
0.0
 10
4.7447018192
 20
6.4006357422
 30
0.0
 10
4.7446115669
 20
6.4009013143
 30
0.0
 10
4.7444867838
 20
6.401215688
 30
0.0
 10
4.7443274516
 20
6.4015780975
 30
0.0
 10
4.7442064542
 20
6.4018340135
 30
0.0
 10
4.7441405106
 20
6.4019698981
 30
0.0
  0
SPLINE
  5
323
100
AcDbEntity
  8
ALL_ASSEMBLY_MEMBERS
100
AcDbSpline
 62
7
  6
CONTINUOUS
 70
0
 71
3
 72
19
 73
15
 74
0
 42
0.0000001
 43
0.0000001
 44
0.0000000001
 40
0.0
 40
0.0
 40
0.0
 40
0.0
 40
0.0191708315
 40
0.0404182365
 40
0.0660477971
 40
0.0974212196
 40
0.1352336475
 40
0.1798212962
 40
0.2313478851
 40
0.2898842212
 40
0.4280046865
 40
0.5936233961
 40
0.7849657081
 40
1.0
 40
1.0
 40
1.0
 40
1.0
 10
4.6980272825
 20
6.4943906542
 30
0.0
 10
4.6980675266
 20
6.4944101899
 30
0.0
 10
4.698144348
 20
6.4944701842
 30
0.0
 10
4.6982210327
 20
6.4946071125
 30
0.0
 10
4.6982641696
 20
6.4947860176
 30
0.0
 10
4.6982765286
 20
6.4950077027
 30
0.0
 10
4.6982589102
 20
6.4952730525
 30
0.0
 10
4.6982113902
 20
6.4955822162
 30
0.0
 10
4.698133944
 20
6.4959348731
 30
0.0
 10
4.6979820413
 20
6.4964939161
 30
0.0
 10
4.6977115825
 20
6.4972955606
 30
0.0
 10
4.6972876762
 20
6.4983705415
 30
0.0
 10
4.6967527935
 20
6.4995936965
 30
0.0
 10
4.6963482451
 20
6.5004514802
 30
0.0
 10
4.6961291688
 20
6.5009029128
 30
0.0
  0
SPLINE
  5
324
100
AcDbEntity
  8
ALL_ASSEMBLY_MEMBERS
100
AcDbSpline
 62
7
  6
CONTINUOUS
 70
0
 71
3
 72
21
 73
17
 74
0
 42
0.0000001
 43
0.0000001
 44
0.0000000001
 40
0.0
 40
0.0
 40
0.0
 40
0.0
 40
0.0091006396
 40
0.0184992753
 40
0.0396781978
 40
0.0659820062
 40
0.0986334596
 40
0.1381364743
 40
0.184666242
 40
0.2382475051
 40
0.2988188042
 40
0.3661909858
 40
0.4400940644
 40
0.6063105861
 40
0.7944636861
 40
1.0
 40
1.0
 40
1.0
 40
1.0
 10
4.6299546506
 20
6.631948028
 30
0.0
 10
4.6299933434
 20
6.6319668511
 30
0.0
 10
4.6300678902
 20
6.6320142877
 30
0.0
 10
4.6302005371
 20
6.6321489301
 30
0.0
 10
4.6303238007
 20
6.6323945119
 30
0.0
 10
4.6303985984
 20
6.6327682438
 30
0.0
 10
4.6304130142
 20
6.6332350224
 30
0.0
 10
4.6303674137
 20
6.6337950689
 30
0.0
 10
4.6302620375
 20
6.6344472199
 30
0.0
 10
4.6300967594
 20
6.6351890799
 30
0.0
 10
4.6298717388
 20
6.6360175631
 30
0.0
 10
4.6295879986
 20
6.6369289316
 30
0.0
 10
4.6291141941
 20
6.6383035829
 30
0.0
 10
4.6283798411
 20
6.6401914433
 30
0.0
 10
4.6273278201
 20
6.6426211557
 30
0.0
 10
4.6265366948
 20
6.6443063876
 30
0.0
 10
4.6261124157
 20
6.6451806645
 30
0.0
  0
SPLINE
  5
325
100
AcDbEntity
  8
ALL_ASSEMBLY_MEMBERS
100
AcDbSpline
 62
7
  6
CONTINUOUS
 70
0
 71
3
 72
24
 73
20
 74
0
 42
0.0000001
 43
0.0000001
 44
0.0000000001
 40
0.0
 40
0.0
 40
0.0
 40
0.0
 40
0.0084369622
 40
0.0173999486
 40
0.0273562292
 40
0.0386457424
 40
0.0514990572
 40
0.0660687352
 40
0.1006501503
 40
0.1426883629
 40
0.1921695066
 40
0.2489302723
 40
0.3125835466
 40
0.3826477593
 40
0.4586142176
 40
0.5398835725
 40
0.6257817685
 40
0.8086083231
 40
1.0
 40
1.0
 40
1.0
 40
1.0
 10
4.5495121779
 20
6.7944565386
 30
0.0
 10
4.5495693534
 20
6.7944843786
 30
0.0
 10
4.5496798166
 20
6.7945584413
 30
0.0
 10
4.5498173756
 20
6.7947144729
 30
0.0
 10
4.5499292519
 20
6.7949143471
 30
0.0
 10
4.5500162722
 20
6.7951571286
 30
0.0
 10
4.5500790463
 20
6.7954427187
 30
0.0
 10
4.5501333256
 20
6.7959075063
 30
0.0
 10
4.5501301295
 20
6.7965969711
 30
0.0
 10
4.550033326
 20
6.797543294
 30
0.0
 10
4.5498418997
 20
6.7986452005
 30
0.0
 10
4.5495564074
 20
6.799893981
 30
0.0
 10
4.5491793743
 20
6.8012796499
 30
0.0
 10
4.5487139086
 20
6.802790289
 30
0.0
 10
4.5481633928
 20
6.804412902
 30
0.0
 10
4.5475325156
 20
6.8061336705
 30
0.0
 10
4.5465714751
 20
6.8085906378
 30
0.0
 10
4.5452121423
 20
6.8117821313
 30
0.0
 10
4.5440210535
 20
6.814339568
 30
0.0
 10
4.5433912172
 20
6.8156374198
 30
0.0
  0
SPLINE
  5
326
100
AcDbEntity
  8
ALL_ASSEMBLY_MEMBERS
100
AcDbSpline
 62
7
  6
CONTINUOUS
 70
0
 71
3
 72
27
 73
23
 74
0
 42
0.0000001
 43
0.0000001
 44
0.0000000001
 40
0.0
 40
0.0
 40
0.0
 40
0.0
 40
0.0075121106
 40
0.0159109586
 40
0.0257444368
 40
0.0373439862
 40
0.0438714929
 40
0.0509038415
 40
0.0665211684
 40
0.0842377235
 40
0.1040493796
 40
0.1259334572
 40
0.1498557564
 40
0.2036260844
 40
0.264809087
 40
0.3326918147
 40
0.4064947299
 40
0.485243578
 40
0.6533848491
 40
0.7405773464
 40
0.8283144254
 40
1.0
 40
1.0
 40
1.0
 40
1.0
 10
4.4673801187
 20
6.9603256771
 30
0.0
 10
4.4674502037
 20
6.9603597211
 30
0.0
 10
4.4675860634
 20
6.9604596303
 30
0.0
 10
4.4677451203
 20
6.9606776681
 30
0.0
 10
4.4678689794
 20
6.9609631357
 30
0.0
 10
4.4679414189
 20
6.9612448594
 30
0.0
 10
4.4679853022
 20
6.9615021657
 30
0.0
 10
4.4680210614
 20
6.9618027967
 30
0.0
 10
4.4680425783
 20
6.9622213778
 30
0.0
 10
4.4680348132
 20
6.9627728273
 30
0.0
 10
4.4679943022
 20
6.9633879481
 30
0.0
 10
4.4679211568
 20
6.964064762
 30
0.0
 10
4.4677743265
 20
6.9650872577
 30
0.0
 10
4.4675044644
 20
6.9665029161
 30
0.0
 10
4.4670686956
 20
6.968348973
 30
0.0
 10
4.4665142688
 20
6.9703791582
 30
0.0
 10
4.4658476029
 20
6.9725664511
 30
0.0
 10
4.4647985705
 20
6.9757232149
 30
0.0
 10
4.4635943568
 20
6.9789736344
 30
0.0
 10
4.462263546
 20
6.9822739141
 30
0.0
 10
4.4608548813
 20
6.9855817082
 30
0.0
 10
4.4597316463
 20
6.9880278018
 30
0.0
 10
4.4589541868
 20
6.9896298486
 30
0.0
  0
SPLINE
  5
327
100
AcDbEntity
  8
ALL_ASSEMBLY_MEMBERS
100
AcDbSpline
 62
7
  6
CONTINUOUS
 70
0
 71
3
 72
29
 73
25
 74
0
 42
0.0000001
 43
0.0000001
 44
0.0000000001
 40
0.0
 40
0.0
 40
0.0
 40
0.0
 40
0.0030203232
 40
0.0062847075
 40
0.0099252637
 40
0.014034246
 40
0.0238718742
 40
0.0360879175
 40
0.0507927447
 40
0.0680191706
 40
0.0877328493
 40
0.1098677749
 40
0.1610779891
 40
0.2208692663
 40
0.2881764766
 40
0.3618389484
 40
0.44049458
 40
0.5227006972
 40
0.6068874501
 40
0.691400296
 40
0.7746020073
 40
0.8548800926
 40
0.9305883768
 40
1.0
 40
1.0
 40
1.0
 40
1.0
 10
4.3944706504
 20
7.1075228204
 30
0.0
 10
4.3945055853
 20
7.1075396796
 30
0.0
 10
4.3945739468
 20
7.1075843261
 30
0.0
 10
4.3946627239
 20
7.1076769726
 30
0.0
 10
4.3947406389
 20
7.1077957906
 30
0.0
 10
4.3948362596
 20
7.1080010746
 30
0.0
 10
4.3949240529
 20
7.1083275735
 30
0.0
 10
4.3949846733
 20
7.1087964202
 30
0.0
 10
4.3950055372
 20
7.1093636658
 30
0.0
 10
4.3949860612
 20
7.1100269761
 30
0.0
 10
4.3949264304
 20
7.1107835781
 30
0.0
 10
4.3947865271
 20
7.1119707453
 30
0.0
 10
4.3945047511
 20
7.1136581708
 30
0.0
 10
4.3940308872
 20
7.1158990812
 30
0.0
 10
4.3934144334
 20
7.1184031022
 30
0.0
 10
4.3926656354
 20
7.1211228468
 30
0.0
 10
4.3917991766
 20
7.1240077848
 30
0.0
 10
4.3908309633
 20
7.1270025395
 30
0.0
 10
4.3897804762
 20
7.1300490989
 30
0.0
 10
4.3886687084
 20
7.1330874518
 30
0.0
 10
4.3875177404
 20
7.1360574011
 30
0.0
 10
4.3863512361
 20
7.138899451
 30
0.0
 10
4.3851938719
 20
7.1415530625
 30
0.0
 10
4.3844070737
 20
7.1432429398
 30
0.0
 10
4.3840178674
 20
7.1440449452
 30
0.0
  0
SPLINE
  5
328
100
AcDbEntity
  8
ALL_ASSEMBLY_MEMBERS
100
AcDbSpline
 62
7
  6
CONTINUOUS
 70
0
 71
3
 72
32
 73
28
 74
0
 42
0.0000001
 43
0.0000001
 44
0.0000000001
 40
0.0
 40
0.0
 40
0.0
 40
0.0
 40
0.0045873107
 40
0.0077818989
 40
0.0117083482
 40
0.0164074521
 40
0.0218975113
 40
0.0281853854
 40
0.0352716443
 40
0.0518231789
 40
0.0714940618
 40
0.094157389
 40
0.1196644591
 40
0.1478614894
 40
0.1785794208
 40
0.2467473453
 40
0.322457749
 40
0.4038076538
 40
0.4887490115
 40
0.575118949
 40
0.6606794598
 40
0.7431682092
 40
0.8203366528
 40
0.8901282575
 40
0.9506060028
 40
0.9767950989
 40
1.0
 40
1.0
 40
1.0
 40
1.0
 10
4.3404784938
 20
7.2164981922
 30
0.0
 10
4.3405388441
 20
7.2165274294
 30
0.0
 10
4.3406112224
 20
7.2166289307
 30
0.0
 10
4.3406668749
 20
7.2167890014
 30
0.0
 10
4.3407029916
 20
7.2169590091
 30
0.0
 10
4.3407269537
 20
7.2171639281
 30
0.0
 10
4.3407395642
 20
7.2174046638
 30
0.0
 10
4.3407404598
 20
7.217680489
 30
0.0
 10
4.3407251889
 20
7.2181177806
 30
0.0
 10
4.3406731846
 20
7.2187490608
 30
0.0
 10
4.3405675628
 20
7.2196035186
 30
0.0
 10
4.3404162043
 20
7.220583761
 30
0.0
 10
4.3402200538
 20
7.2216828478
 30
0.0
 10
4.3399801078
 20
7.2228934836
 30
0.0
 10
4.3395896621
 20
7.2247098115
 30
0.0
 10
4.3390014566
 20
7.2271937259
 30
0.0
 10
4.3381755134
 20
7.2303811271
 30
0.0
 10
4.337227537
 20
7.233789619
 30
0.0
 10
4.3361815252
 20
7.2373320749
 30
0.0
 10
4.3350650711
 20
7.2409174771
 30
0.0
 10
4.3339075765
 20
7.2444521343
 30
0.0
 10
4.3327412138
 20
7.2478419334
 30
0.0
 10
4.3315980728
 20
7.2509955082
 30
0.0
 10
4.3305107476
 20
7.2538264879
 30
0.0
 10
4.3296401524
 20
7.2559418953
 30
0.0
 10
4.3289905926
 20
7.2574109282
 30
0.0
 10
4.3286848381
 20
7.2580651578
 30
0.0
 10
4.3285367358
 20
7.2583703398
 30
0.0
  0
SPLINE
  5
329
100
AcDbEntity
  8
ALL_ASSEMBLY_MEMBERS
100
AcDbSpline
 62
7
  6
CONTINUOUS
 70
0
 71
3
 72
39
 73
35
 74
0
 42
0.0000001
 43
0.0000001
 44
0.0000000001
 40
0.0
 40
0.0
 40
0.0
 40
0.0
 40
0.0003910115
 40
0.0009726335
 40
0.0028704492
 40
0.0058239589
 40
0.0098566388
 40
0.0149645585
 40
0.0211333202
 40
0.0283465292
 40
0.0365868609
 40
0.0560771661
 40
0.0794383751
 40
0.1064332823
 40
0.1368093107
 40
0.1703092679
 40
0.2066328192
 40
0.2454539626
 40
0.2864460492
 40
0.3292677924
 40
0.373553061
 40
0.4650375097
 40
0.5578815369
 40
0.6489918339
 40
0.7353037521
 40
0.8138277624
 40
0.8817912894
 40
0.9110201568
 40
0.9367305274
 40
0.958669748
 40
0.9766249512
 40
0.9904469713
 40
0.9957650489
 40
1.0
 40
1.0
 40
1.0
 40
1.0
 10
4.312587226
 20
7.272783154
 30
0.0
 10
4.3125926703
 20
7.272785807
 30
0.0
 10
4.3126027017
 20
7.2727984559
 30
0.0
 10
4.3126151126
 20
7.2728412217
 30
0.0
 10
4.3126185718
 20
7.2729262197
 30
0.0
 10
4.3126109239
 20
7.273063347
 30
0.0
 10
4.3125896908
 20
7.2732496853
 30
0.0
 10
4.3125551205
 20
7.2734842409
 30
0.0
 10
4.3125069436
 20
7.2737665893
 30
0.0
 10
4.3124453065
 20
7.2740957786
 30
0.0
 10
4.3123391456
 20
7.2746265232
 30
0.0
 10
4.3121723417
 20
7.2754001418
 30
0.0
 10
4.3119309884
 20
7.2764547429
 30
0.0
 10
4.3116405463
 20
7.2776710184
 30
0.0
 10
4.3113034748
 20
7.2790375681
 30
0.0
 10
4.3109224324
 20
7.2805420609
 30
0.0
 10
4.3105006642
 20
7.2821711492
 30
0.0
 10
4.3100417677
 20
7.2839104758
 30
0.0
 10
4.3095494627
 20
7.2857450643
 30
0.0
 10
4.3090277545
 20
7.2876593745
 30
0.0
 10
4.3082908368
 20
7.2903256133
 30
0.0
 10
4.3073297996
 20
7.2937337255
 30
0.0
 10
4.3061458338
 20
7.2978324394
 30
0.0
 10
4.3049588748
 20
7.3018468104
 30
0.0
 10
4.3038103958
 20
7.3056411829
 30
0.0
 10
4.3027411315
 20
7.3090848518
 30
0.0
 10
4.3019124636
 20
7.3116773516
 30
0.0
 10
4.3013164736
 20
7.3134853017
 30
0.0
 10
4.3009354617
 20
7.3146134784
 30
0.0
 10
4.3006013054
 20
7.3155731451
 30
0.0
 10
4.3003171924
 20
7.3163551581
 30
0.0
 10
4.3001106317
 20
7.3168914202
 30
0.0
 10
4.2999705507
 20
7.3172252991
 30
0.0
 10
4.2999094969
 20
7.3173601315
 30
0.0
 10
4.2998808583
 20
7.3174191446
 30
0.0
  0
LINE
  5
32A
100
AcDbEntity
  8
ALL_ASSEMBLY_MEMBERS
100
AcDbLine
 62
7
  6
CONTINUOUS
 10
4.8922801644
 20
6.2315824759
 11
4.892058823
 21
6.2323455139
  0
SPLINE
  5
32B
100
AcDbEntity
  8
ALL_ASSEMBLY_MEMBERS
100
AcDbSpline
 62
7
  6
CONTINUOUS
 70
0
 71
3
 72
18
 73
14
 74
0
 42
0.0000001
 43
0.0000001
 44
0.0000000001
 40
0.0
 40
0.0
 40
0.0
 40
0.0
 40
0.0197181756
 40
0.0411813187
 40
0.0666600064
 40
0.0975548801
 40
0.134660858
 40
0.1784380774
 40
0.2869281744
 40
0.4237448534
 40
0.5885940468
 40
0.7809099239
 40
1.0
 40
1.0
 40
1.0
 40
1.0
 10
4.8610245043
 20
6.295087543
 30
0.0
 10
4.8610436058
 20
6.2950968294
 30
0.0
 10
4.8610799987
 20
6.2951244971
 30
0.0
 10
4.8611172907
 20
6.295187357
 30
0.0
 10
4.8611388931
 20
6.2952690904
 30
0.0
 10
4.8611462034
 20
6.295369893
 30
0.0
 10
4.8611395676
 20
6.2954903364
 30
0.0
 10
4.8611097733
 20
6.2956923329
 30
0.0
 10
4.8610323528
 20
6.2959946286
 30
0.0
 10
4.860891067
 20
6.2964133946
 30
0.0
 10
4.8606952804
 20
6.2969083649
 30
0.0
 10
4.8604459574
 20
6.2974768917
 30
0.0
 10
4.8602566521
 20
6.2978776262
 30
0.0
 10
4.8601536195
 20
6.298089937
 30
0.0
  0
SPLINE
  5
32C
100
AcDbEntity
  8
ALL_ASSEMBLY_MEMBERS
100
AcDbSpline
 62
7
  6
CONTINUOUS
 70
0
 71
3
 72
19
 73
15
 74
0
 42
0.0000001
 43
0.0000001
 44
0.0000000001
 40
0.0
 40
0.0
 40
0.0
 40
0.0
 40
0.0193172263
 40
0.0406880785
 40
0.0664079997
 40
0.0978421708
 40
0.135693901
 40
0.180303514
 40
0.2318370998
 40
0.2903667678
 40
0.4284348881
 40
0.5939597854
 40
0.7851630812
 40
1.0
 40
1.0
 40
1.0
 40
1.0
 10
4.8113007558
 20
6.3961097855
 30
0.0
 10
4.8113416245
 20
6.3961296309
 30
0.0
 10
4.8114196386
 20
6.3961903304
 30
0.0
 10
4.8114979697
 20
6.3963287124
 30
0.0
 10
4.8115424746
 20
6.3965094554
 30
0.0
 10
4.8115559151
 20
6.3967332882
 30
0.0
 10
4.8115390952
 20
6.397001085
 30
0.0
 10
4.8114921059
 20
6.3973129905
 30
0.0
 10
4.8114149185
 20
6.3976686745
 30
0.0
 10
4.8112630057
 20
6.3982323228
 30
0.0
 10
4.8109917277
 20
6.3990403642
 30
0.0
 10
4.8105657235
 20
6.4001235967
 30
0.0
 10
4.8100276439
 20
6.4013557426
 30
0.0
 10
4.809620371
 20
6.4022196369
 30
0.0
 10
4.8093997701
 20
6.402674211
 30
0.0
  0
SPLINE
  5
32D
100
AcDbEntity
  8
ALL_ASSEMBLY_MEMBERS
100
AcDbSpline
 62
7
  6
CONTINUOUS
 70
0
 71
3
 72
20
 73
16
 74
0
 42
0.0000001
 43
0.0000001
 44
0.0000000001
 40
0.0
 40
0.0
 40
0.0
 40
0.0
 40
0.0093007304
 40
0.0188490995
 40
0.0401506177
 40
0.0663419727
 40
0.098625867
 40
0.1375733491
 40
0.1834492207
 40
0.2363616603
 40
0.2962704069
 40
0.436419177
 40
0.6023622446
 40
0.7915014661
 40
1.0
 40
1.0
 40
1.0
 40
1.0
 10
4.7464961395
 20
6.5277612272
 30
0.0
 10
4.7465296993
 20
6.5277774636
 30
0.0
 10
4.7465943379
 20
6.5278179476
 30
0.0
 10
4.7467097384
 20
6.5279317793
 30
0.0
 10
4.7468182258
 20
6.5281386612
 30
0.0
 10
4.7468858355
 20
6.5284532748
 30
0.0
 10
4.7469026457
 20
6.5288446965
 30
0.0
 10
4.7468684352
 20
6.5293135566
 30
0.0
 10
4.7467833069
 20
6.5298595116
 30
0.0
 10
4.7466468719
 20
6.5304811411
 30
0.0
 10
4.7463826582
 20
6.5314604174
 30
0.0
 10
4.7459189407
 20
6.5328534417
 30
0.0
 10
4.7451983388
 20
6.5347036604
 30
0.0
 10
4.7442989802
 20
6.5367764643
 30
0.0
 10
4.7436209499
 20
6.5382192036
 30
0.0
 10
4.7432560658
 20
6.5389710904
 30
0.0
  0
SPLINE
  5
32E
100
AcDbEntity
  8
ALL_ASSEMBLY_MEMBERS
100
AcDbSpline
 62
7
  6
CONTINUOUS
 70
0
 71
3
 72
22
 73
18
 74
0
 42
0.0000001
 43
0.0000001
 44
0.0000000001
 40
0.0
 40
0.0
 40
0.0
 40
0.0
 40
0.0088670434
 40
0.0181216425
 40
0.0281999285
 40
0.0394345287
 40
0.0661998015
 40
0.0995834018
 40
0.1400777798
 40
0.1878066093
 40
0.2426480721
 40
0.304398332
 40
0.3728058498
 40
0.4475119957
 40
0.6140465349
 40
0.8000911523
 40
1.0
 40
1.0
 40
1.0
 40
1.0
 10
4.6710232532
 20
6.6810699386
 30
0.0
 10
4.6710705776
 20
6.6810928273
 30
0.0
 10
4.6711619189
 20
6.6811517379
 30
0.0
 10
4.6712778131
 20
6.6812740849
 30
0.0
 10
4.671373422
 20
6.6814292844
 30
0.0
 10
4.6714807149
 20
6.6816944649
 30
0.0
 10
4.6715571451
 20
6.6821144428
 30
0.0
 10
4.6715695495
 20
6.6827121627
 30
0.0
 10
4.6715068284
 20
6.683431492
 30
0.0
 10
4.6713690173
 20
6.6842689293
 30
0.0
 10
4.6711569097
 20
6.6852201633
 30
0.0
 10
4.6708713128
 20
6.6862793953
 30
0.0
 10
4.6705133737
 20
6.6874402324
 30
0.0
 10
4.6699205275
 20
6.6891778666
 30
0.0
 10
4.669010555
 20
6.6915429967
 30
0.0
 10
4.6677173763
 20
6.6945529976
 30
0.0
 10
4.6667475338
 20
6.6966259159
 30
0.0
 10
4.6662300907
 20
6.6976921682
 30
0.0
  0
SPLINE
  5
32F
100
AcDbEntity
  8
ALL_ASSEMBLY_MEMBERS
100
AcDbSpline
 62
7
  6
CONTINUOUS
 70
0
 71
3
 72
24
 73
20
 74
0
 42
0.0000001
 43
0.0000001
 44
0.0000000001
 40
0.0
 40
0.0
 40
0.0
 40
0.0
 40
0.0083201846
 40
0.0172164586
 40
0.0271662454
 40
0.0385060012
 40
0.0514568076
 40
0.0661607506
 40
0.1011269587
 40
0.1436740227
 40
0.1937166912
 40
0.2510448129
 40
0.3152620381
 40
0.3858210086
 40
0.4621472891
 40
0.5435999608
 40
0.629445608
 40
0.811230427
 40
1.0
 40
1.0
 40
1.0
 40
1.0
 10
4.5900233742
 20
6.8455868484
 30
0.0
 10
4.5900830701
 20
6.8456158277
 30
0.0
 10
4.5901984738
 20
6.8456939699
 30
0.0
 10
4.5903412029
 20
6.8458595821
 30
0.0
 10
4.5904568171
 20
6.8460723806
 30
0.0
 10
4.5905463569
 20
6.8463313377
 30
0.0
 10
4.5906105047
 20
6.8466362923
 30
0.0
 10
4.5906652376
 20
6.8471333281
 30
0.0
 10
4.5906585909
 20
6.8478709838
 30
0.0
 10
4.590552771
 20
6.848883589
 30
0.0
 10
4.5903475824
 20
6.8500623102
 30
0.0
 10
4.5900436344
 20
6.8513970863
 30
0.0
 10
4.589643283
 20
6.8528763465
 30
0.0
 10
4.5891503833
 20
6.8544865011
 30
0.0
 10
4.5885688902
 20
6.8562125075
 30
0.0
 10
4.5879038763
 20
6.8580383851
 30
0.0
 10
4.5868949402
 20
6.8606334667
 30
0.0
 10
4.5854741476
 20
6.8639857336
 30
0.0
 10
4.5842283517
 20
6.8666663926
 30
0.0
 10
4.5835710378
 20
6.8680208653
 30
0.0
  0
SPLINE
  5
330
100
AcDbEntity
  8
ALL_ASSEMBLY_MEMBERS
100
AcDbSpline
 62
7
  6
CONTINUOUS
 70
0
 71
3
 72
25
 73
21
 74
0
 42
0.0000001
 43
0.0000001
 44
0.0000000001
 40
0.0
 40
0.0
 40
0.0
 40
0.0
 40
0.0076372809
 40
0.0161058331
 40
0.025942127
 40
0.037483542
 40
0.050930889
 40
0.0663888785
 40
0.0838952916
 40
0.1034563472
 40
0.1486736664
 40
0.2017966385
 40
0.2622946724
 40
0.3295324722
 40
0.4027777344
 40
0.4811086517
 40
0.5635652096
 40
0.6491355837
 40
0.8252964273
 40
1.0
 40
1.0
 40
1.0
 40
1.0
 10
4.5090154056
 20
7.0101002381
 30
0.0
 10
4.5090840981
 20
7.010133686
 30
0.0
 10
4.5092172438
 20
7.0102301311
 30
0.0
 10
4.5093750139
 20
7.0104395961
 30
0.0
 10
4.5094989214
 20
7.0107131612
 30
0.0
 10
4.5095906759
 20
7.0110503283
 30
0.0
 10
4.5096507868
 20
7.0114511478
 30
0.0
 10
4.5096793171
 20
7.0119150118
 30
0.0
 10
4.5096764607
 20
7.0124407725
 30
0.0
 10
4.5096281716
 20
7.0132628292
 30
0.0
 10
4.5094806547
 20
7.0144342572
 30
0.0
 10
4.5091888904
 20
7.0159968362
 30
0.0
 10
4.5087774153
 20
7.0177592464
 30
0.0
 10
4.5082504958
 20
7.0196999342
 30
0.0
 10
4.5076138241
 20
7.0217945967
 30
0.0
 10
4.5068761108
 20
7.0240168198
 30
0.0
 10
4.5060463041
 20
7.0263376888
 30
0.0
 10
4.5048191617
 20
7.0295550581
 30
0.0
 10
4.5031424154
 20
7.0335875087
 30
0.0
 10
4.5016750353
 20
7.0367772071
 30
0.0
 10
4.5009119848
 20
7.0383495623
 30
0.0
  0
SPLINE
  5
331
100
AcDbEntity
  8
ALL_ASSEMBLY_MEMBERS
100
AcDbSpline
 62
7
  6
CONTINUOUS
 70
0
 71
3
 72
26
 73
22
 74
0
 42
0.0000001
 43
0.0000001
 44
0.0000000001
 40
0.0
 40
0.0
 40
0.0
 40
0.0
 40
0.0067911325
 40
0.0147765402
 40
0.0245624292
 40
0.0364674189
 40
0.0506286838
 40
0.0670913807
 40
0.0858576778
 40
0.106906197
 40
0.1556403353
 40
0.2126549848
 40
0.2771669451
 40
0.3482093749
 40
0.4246685538
 40
0.5053541095
 40
0.5889063292
 40
0.6739331333
 40
0.8427516168
 40
0.9236235099
 40
1.0
 40
1.0
 40
1.0
 40
1.0
 10
4.4335207097
 20
7.1633987517
 30
0.0
 10
4.4335931996
 20
7.1634340259
 30
0.0
 10
4.4337338855
 20
7.1635474057
 30
0.0
 10
4.4338878628
 20
7.163799003
 30
0.0
 10
4.4340024896
 20
7.1641340425
 30
0.0
 10
4.4340794449
 20
7.1645536699
 30
0.0
 10
4.4341197696
 20
7.1650575146
 30
0.0
 10
4.4341232756
 20
7.1656442051
 30
0.0
 10
4.4340898456
 20
7.1663117035
 30
0.0
 10
4.4339906177
 20
7.1673584349
 30
0.0
 10
4.4337654785
 20
7.1688477568
 30
0.0
 10
4.4333669396
 20
7.1708297234
 30
0.0
 10
4.4328317224
 20
7.1730526297
 30
0.0
 10
4.4321684499
 20
7.175480767
 30
0.0
 10
4.4313875994
 20
7.1780748453
 30
0.0
 10
4.4305013628
 20
7.1807914464
 30
0.0
 10
4.4295255575
 20
7.1835851411
 30
0.0
 10
4.4281295989
 20
7.1873393864
 30
0.0
 10
4.4266381866
 20
7.1910236427
 30
0.0
 10
4.4250742048
 20
7.194564541
 30
0.0
 10
4.4242818526
 20
7.1962549595
 30
0.0
 10
4.4238860098
 20
7.1970706401
 30
0.0
  0
SPLINE
  5
332
100
AcDbEntity
  8
ALL_ASSEMBLY_MEMBERS
100
AcDbSpline
 62
7
  6
CONTINUOUS
 70
0
 71
3
 72
28
 73
24
 74
0
 42
0.0000001
 43
0.0000001
 44
0.0000000001
 40
0.0
 40
0.0
 40
0.0
 40
0.0
 40
0.012990367
 40
0.0176115884
 40
0.0228683726
 40
0.0353528279
 40
0.0505139414
 40
0.0683467472
 40
0.0888131631
 40
0.1118301776
 40
0.1372857165
 40
0.1650613335
 40
0.2270624418
 40
0.2966167824
 40
0.3723467363
 40
0.4527332328
 40
0.5361213337
 40
0.6207791302
 40
0.7048715028
 40
0.7865861925
 40
0.8641788681
 40
0.9359068709
 40
1.0
 40
1.0
 40
1.0
 40
1.0
 10
4.3686860972
 20
7.2950366911
 30
0.0
 10
4.3688432376
 20
7.2951128844
 30
0.0
 10
4.3689681768
 20
7.2953557344
 30
0.0
 10
4.3690475554
 20
7.2956478901
 30
0.0
 10
4.3691028956
 20
7.2959449669
 30
0.0
 10
4.3691392297
 20
7.2963859946
 30
0.0
 10
4.369140279
 20
7.2969980432
 30
0.0
 10
4.3690993311
 20
7.2977158151
 30
0.0
 10
4.3690164093
 20
7.2985361703
 30
0.0
 10
4.3688917946
 20
7.2994546831
 30
0.0
 10
4.3687262625
 20
7.3004663934
 30
0.0
 10
4.3684412697
 20
7.3019892075
 30
0.0
 10
4.3679841203
 20
7.3040823361
 30
0.0
 10
4.3673102659
 20
7.3067866082
 30
0.0
 10
4.3665052349
 20
7.3097119726
 30
0.0
 10
4.365585639
 20
7.3127978985
 30
0.0
 10
4.3645706957
 20
7.3159799955
 30
0.0
 10
4.3634818956
 20
7.3191902237
 30
0.0
 10
4.3623435802
 20
7.3223593414
 30
0.0
 10
4.3611802502
 20
7.3254179591
 30
0.0
 10
4.3600184191
 20
7.3282987031
 30
0.0
 10
4.3588846732
 20
7.3309345266
 30
0.0
 10
4.3581184972
 20
7.3325923323
 30
0.0
 10
4.3577423055
 20
7.3333675196
 30
0.0
  0
SPLINE
  5
333
100
AcDbEntity
  8
ALL_ASSEMBLY_MEMBERS
100
AcDbSpline
 62
7
  6
CONTINUOUS
 70
0
 71
3
 72
32
 73
28
 74
0
 42
0.0000001
 43
0.0000001
 44
0.0000000001
 40
0.0
 40
0.0
 40
0.0
 40
0.0
 40
0.0045320475
 40
0.0077071285
 40
0.0116193105
 40
0.0163086192
 40
0.0217926976
 40
0.0280779008
 40
0.0351644061
 40
0.0517240148
 40
0.0714124026
 40
0.0941018567
 40
0.11964184
 40
0.14787688
 40
0.1786370868
 40
0.2468974788
 40
0.3227009616
 40
0.4041362741
 40
0.4891468923
 40
0.5755639855
 40
0.6611440648
 40
0.7436202299
 40
0.820739431
 40
0.8904406738
 40
0.9507841082
 40
0.9768895098
 40
1.0
 40
1.0
 40
1.0
 40
1.0
 10
4.3189334205
 20
7.3960431823
 30
0.0
 10
4.3189930802
 20
7.3960720872
 30
0.0
 10
4.3190640743
 20
7.3961735127
 30
0.0
 10
4.3191180602
 20
7.3963328011
 30
0.0
 10
4.3191528689
 20
7.3965025627
 30
0.0
 10
4.319175497
 20
7.3967073072
 30
0.0
 10
4.3191867592
 20
7.3969479912
 30
0.0
 10
4.3191862933
 20
7.3972238641
 30
0.0
 10
4.3191690968
 20
7.3976614398
 30
0.0
 10
4.3191147485
 20
7.3982932899
 30
0.0
 10
4.3190065094
 20
7.399148722
 30
0.0
 10
4.3188526327
 20
7.4001303309
 30
0.0
 10
4.318654125
 20
7.4012311456
 30
0.0
 10
4.3184120423
 20
7.4024438315
 30
0.0
 10
4.318019011
 20
7.404263377
 30
0.0
 10
4.3174284264
 20
7.4067517853
 30
0.0
 10
4.3166010593
 20
7.4099450375
 30
0.0
 10
4.3156530238
 20
7.4133595712
 30
0.0
 10
4.3146082797
 20
7.4169078901
 30
0.0
 10
4.3134942204
 20
7.4204985837
 30
0.0
 10
4.3123400015
 20
7.4240375978
 30
0.0
 10
4.3111774939
 20
7.4274304447
 30
0.0
 10
4.310038484
 20
7.4305853864
 30
0.0
 10
4.308955319
 20
7.4334157103
 30
0.0
 10
4.3080879426
 20
7.4355291253
 30
0.0
 10
4.3074407127
 20
7.4369952959
 30
0.0
 10
4.3071360483
 20
7.4376476624
 30
0.0
 10
4.3069884561
 20
7.4379517936
 30
0.0
  0
SPLINE
  5
334
100
AcDbEntity
  8
ALL_ASSEMBLY_MEMBERS
100
AcDbSpline
 62
7
  6
CONTINUOUS
 70
0
 71
3
 72
36
 73
32
 74
0
 42
0.0000001
 43
0.0000001
 44
0.0000000001
 40
0.0
 40
0.0
 40
0.0
 40
0.0
 40
0.0012601273
 40
0.0021678095
 40
0.0032985427
 40
0.0062701892
 40
0.010218097
 40
0.0151500567
 40
0.0210634581
 40
0.0358035933
 40
0.0543460131
 40
0.0765176428
 40
0.1021239644
 40
0.1309661574
 40
0.1628066934
 40
0.1973723038
 40
0.2343878619
 40
0.2735698571
 40
0.3571647468
 40
0.4455674853
 40
0.5360501106
 40
0.625810002
 40
0.7120236504
 40
0.7919174084
 40
0.8628508962
 40
0.8942009215
 40
0.9224578065
 40
0.9473661377
 40
0.9687075032
 40
0.9863075513
 40
1.0
 40
1.0
 40
1.0
 40
1.0
 10
4.287655608
 20
7.4595386817
 30
0.0
 10
4.2876731072
 20
7.4595469035
 30
0.0
 10
4.2876935223
 20
7.4595775234
 30
0.0
 10
4.287708976
 20
7.4596250289
 30
0.0
 10
4.2877238534
 20
7.4597009202
 30
0.0
 10
4.2877311551
 20
7.459824393
 30
0.0
 10
4.2877274731
 20
7.4600063265
 30
0.0
 10
4.2877107958
 20
7.460232755
 30
0.0
 10
4.2876681119
 20
7.4606230474
 30
0.0
 10
4.2875787561
 20
7.461217958
 30
0.0
 10
4.2874280038
 20
7.46205539
 30
0.0
 10
4.2872274436
 20
7.4630530558
 30
0.0
 10
4.2869786991
 20
7.4642020654
 30
0.0
 10
4.2866834148
 20
7.4654926913
 30
0.0
 10
4.286343946
 20
7.4669141482
 30
0.0
 10
4.2859630926
 20
7.4684545989
 30
0.0
 10
4.2855437946
 20
7.4701015337
 30
0.0
 10
4.2849241
 20
7.4724736624
 30
0.0
 10
4.284078654
 20
7.4756016535
 30
0.0
 10
4.282990441
 20
7.4794791821
 30
0.0
 10
4.281841651
 20
7.4834377882
 30
0.0
 10
4.2806680994
 20
7.4873540714
 30
0.0
 10
4.2795078785
 20
7.4911045917
 30
0.0
 10
4.2783989423
 20
7.4945684302
 30
0.0
 10
4.277516451
 20
7.4972207441
 30
0.0
 10
4.2768616839
 20
7.4991136241
 30
0.0
 10
4.2764265278
 20
7.500335188
 30
0.0
 10
4.2760305317
 20
7.5014076062
 30
0.0
 10
4.275677412
 20
7.5023214795
 30
0.0
 10
4.275370747
 20
7.5030685972
 30
0.0
 10
4.2751749752
 20
7.5035072114
 30
0.0
 10
4.2750832526
 20
7.5036962166
 30
0.0
  0
SPLINE
  5
335
100
AcDbEntity
  8
ALL_ASSEMBLY_MEMBERS
100
AcDbSpline
 62
7
  6
CONTINUOUS
 70
0
 71
3
 72
19
 73
15
 74
0
 42
0.0000001
 43
0.0000001
 44
0.0000000001
 40
0.0
 40
0.0
 40
0.0
 40
0.0
 40
0.0076723847
 40
0.0138790127
 40
0.0219117497
 40
0.0437045316
 40
0.0732575609
 40
0.110552928
 40
0.1555227605
 40
0.2681213114
 40
0.4102507296
 40
0.5806980237
 40
0.7778346638
 40
1.0
 40
1.0
 40
1.0
 40
1.0
 10
4.3274261698
 20
7.1329631237
 30
0.0
 10
4.3274122043
 20
7.1329565286
 30
0.0
 10
4.3273994642
 20
7.1329267361
 30
0.0
 10
4.3273917516
 20
7.1328846029
 30
0.0
 10
4.3273862968
 20
7.1328115584
 30
0.0
 10
4.3273907905
 20
7.1326922977
 30
0.0
 10
4.3274082924
 20
7.132514519
 30
0.0
 10
4.3274394655
 20
7.1322916112
 30
0.0
 10
4.327503952
 20
7.1319046371
 30
0.0
 10
4.3276205829
 20
7.1313126417
 30
0.0
 10
4.3278033151
 20
7.1304764754
 30
0.0
 10
4.3280365977
 20
7.1294772737
 30
0.0
 10
4.3283179535
 20
7.1283239272
 30
0.0
 10
4.3285241736
 20
7.1275054505
 30
0.0
 10
4.3286346566
 20
7.1270720971
 30
0.0
  0
SPLINE
  5
336
100
AcDbEntity
  8
ALL_ASSEMBLY_MEMBERS
100
AcDbSpline
 62
7
  6
CONTINUOUS
 70
0
 71
3
 72
15
 73
11
 74
0
 42
0.0000001
 43
0.0000001
 44
0.0000000001
 40
0.0
 40
0.0
 40
0.0
 40
0.0
 40
0.10483413
 40
0.2267279339
 40
0.3603574391
 40
0.4999949256
 40
0.6396841861
 40
0.7734418252
 40
0.8953896202
 40
1.0
 40
1.0
 40
1.0
 40
1.0
 10
4.3286346566
 20
7.1270720971
 30
0.0
 10
4.3289354017
 20
7.1258924692
 30
0.0
 10
4.3296044483
 20
7.1233460041
 30
0.0
 10
4.3307010309
 20
7.1193076509
 30
0.0
 10
4.3319307784
 20
7.1148867637
 30
0.0
 10
4.3332395605
 20
7.1102734428
 30
0.0
 10
4.3345718042
 20
7.1056652924
 30
0.0
 10
4.3358715856
 20
7.1012616465
 30
0.0
 10
4.3370847016
 20
7.0972572535
 30
0.0
 10
4.3378724095
 20
7.0947469922
 30
0.0
 10
4.3382464519
 20
7.0935912488
 30
0.0
  0
LINE
  5
337
100
AcDbEntity
  8
ALL_ASSEMBLY_MEMBERS
100
AcDbLine
 62
7
  6
CONTINUOUS
 10
4.3382464519
 20
7.0935912488
 11
4.3400672834
 21
7.0885271786
  0
SPLINE
  5
338
100
AcDbEntity
  8
ALL_ASSEMBLY_MEMBERS
100
AcDbSpline
 62
7
  6
CONTINUOUS
 70
0
 71
3
 72
17
 73
13
 74
0
 42
0.0000001
 43
0.0000001
 44
0.0000000001
 40
0.0
 40
0.0
 40
0.0
 40
0.0
 40
0.0211437458
 40
0.0436902097
 40
0.0698743932
 40
0.1011797194
 40
0.1821731676
 40
0.2900534871
 40
0.4257318857
 40
0.5893889033
 40
0.7809013184
 40
1.0
 40
1.0
 40
1.0
 40
1.0
 10
4.7179409773
 20
6.4382066177
 30
0.0
 10
4.7179278515
 20
6.4382002751
 30
0.0
 10
4.7179028564
 20
6.4381820782
 30
0.0
 10
4.7178760864
 20
6.4381410512
 30
0.0
 10
4.7178595967
 20
6.4380878723
 30
0.0
 10
4.7178494918
 20
6.4379925281
 30
0.0
 10
4.7178653678
 20
6.4378403432
 30
0.0
 10
4.7179171873
 20
6.43762253
 30
0.0
 10
4.7180045618
 20
6.4373554006
 30
0.0
 10
4.7181272667
 20
6.4370399167
 30
0.0
 10
4.7182853526
 20
6.4366768121
 30
0.0
 10
4.7184061236
 20
6.4364207232
 30
0.0
 10
4.7184720764
 20
6.4362848197
 30
0.0
  0
SPLINE
  5
339
100
AcDbEntity
  8
ALL_ASSEMBLY_MEMBERS
100
AcDbSpline
 62
7
  6
CONTINUOUS
 70
0
 71
3
 72
19
 73
15
 74
0
 42
0.0000001
 43
0.0000001
 44
0.0000000001
 40
0.0
 40
0.0
 40
0.0
 40
0.0
 40
0.2140838326
 40
0.4046232435
 40
0.5696023352
 40
0.7072900565
 40
0.7657161787
 40
0.8172183097
 40
0.8618841071
 40
0.8999008246
 40
0.931637858
 40
0.9578349516
 40
0.9798750345
 40
1.0
 40
1.0
 40
1.0
 40
1.0
 10
4.3646462688
 20
7.3005631864
 30
0.0
 10
4.3648669388
 20
7.30010847
 30
0.0
 10
4.3652944006
 20
7.2992540149
 30
0.0
 10
4.3659328461
 20
7.2980701323
 30
0.0
 10
4.3665256297
 20
7.2970675298
 30
0.0
 10
4.366998835
 20
7.2963574903
 30
0.0
 10
4.3673535558
 20
7.2958925562
 30
0.0
 10
4.3675898609
 20
7.2956141255
 30
0.0
 10
4.3678107861
 20
7.2953866431
 30
0.0
 10
4.3680160417
 20
7.2952102651
 30
0.0
 10
4.3682057965
 20
7.2950850025
 30
0.0
 10
4.36838119
 20
7.2950110514
 30
0.0
 10
4.3685440564
 20
7.2949903006
 30
0.0
 10
4.3686433446
 20
7.2950159615
 30
0.0
 10
4.3686860972
 20
7.2950366911
 30
0.0
  0
SPLINE
  5
33A
100
AcDbEntity
  8
ALL_ASSEMBLY_MEMBERS
100
AcDbSpline
 62
7
  6
CONTINUOUS
 70
0
 71
3
 72
22
 73
18
 74
0
 42
0.0000001
 43
0.0000001
 44
0.0000000001
 40
0.0
 40
0.0
 40
0.0
 40
0.0
 40
0.2012726665
 40
0.3875735646
 40
0.5536254392
 40
0.6279265304
 40
0.6958922338
 40
0.7571925204
 40
0.8116202042
 40
0.8590280334
 40
0.8993472045
 40
0.9327035319
 40
0.9596282684
 40
0.9710272607
 40
0.9813265673
 40
0.9908474682
 40
1.0
 40
1.0
 40
1.0
 40
1.0
 10
4.4578064458
 20
6.9734169988
 30
0.0
 10
4.4582956937
 20
6.972408846
 30
0.0
 10
4.4592669857
 20
6.9704814707
 30
0.0
 10
4.4607468332
 20
6.9677769161
 30
0.0
 10
4.4619723392
 20
6.9657408505
 30
0.0
 10
4.4629172405
 20
6.9643074743
 30
0.0
 10
4.4635705418
 20
6.9633810632
 30
0.0
 10
4.4641912798
 20
6.9625678986
 30
0.0
 10
4.4647754827
 20
6.9618718986
 30
0.0
 10
4.4653194991
 20
6.9612963108
 30
0.0
 10
4.4658204275
 20
6.9608435512
 30
0.0
 10
4.4662760399
 20
6.9605156834
 30
0.0
 10
4.4666366729
 20
6.9603367365
 30
0.0
 10
4.4668994342
 20
6.9602677412
 30
0.0
 10
4.4670734716
 20
6.9602516389
 30
0.0
 10
4.4672350376
 20
6.9602689
 30
0.0
 10
4.467334283
 20
6.9603034122
 30
0.0
 10
4.4673801187
 20
6.9603256771
 30
0.0
  0
SPLINE
  5
33B
100
AcDbEntity
  8
ALL_ASSEMBLY_MEMBERS
100
AcDbSpline
 62
7
  6
CONTINUOUS
 70
0
 71
3
 72
24
 73
20
 74
0
 42
0.0000001
 43
0.0000001
 44
0.0000000001
 40
0.0
 40
0.0
 40
0.0
 40
0.0
 40
0.1859168249
 40
0.36649401
 40
0.452232282
 40
0.5338329907
 40
0.6105100256
 40
0.6815777349
 40
0.7463921389
 40
0.8043532286
 40
0.8550543873
 40
0.8982108774
 40
0.9336633147
 40
0.9485598751
 40
0.9616559171
 40
0.9730775127
 40
0.9830303715
 40
0.991841963
 40
1.0
 40
1.0
 40
1.0
 40
1.0
 10
4.5349834699
 20
6.8143846666
 30
0.0
 10
4.5356670208
 20
6.8129761296
 30
0.0
 10
4.5370671104
 20
6.8102247575
 30
0.0
 10
4.538920519
 20
6.8068966503
 30
0.0
 10
4.5404270281
 20
6.804383537
 30
0.0
 10
4.5415230367
 20
6.8026450952
 30
0.0
 10
4.5425938376
 20
6.8010374885
 30
0.0
 10
4.543627917
 20
6.7995760773
 30
0.0
 10
4.544614176
 20
6.7982748639
 30
0.0
 10
4.5455428728
 20
6.7971465905
 30
0.0
 10
4.5464043859
 20
6.7962009171
 30
0.0
 10
4.5471898555
 20
6.7954455423
 30
0.0
 10
4.547807039
 20
6.7949530205
 30
0.0
 10
4.5482603476
 20
6.7946691128
 30
0.0
 10
4.5485575094
 20
6.7945198628
 30
0.0
 10
4.5488316955
 20
6.7944217682
 30
0.0
 10
4.5490831637
 20
6.7943755661
 30
0.0
 10
4.5493118854
 20
6.7943829696
 30
0.0
 10
4.5494504109
 20
6.7944264629
 30
0.0
 10
4.5495121779
 20
6.7944565386
 30
0.0
  0
LINE
  5
33C
100
AcDbEntity
  8
ALL_ASSEMBLY_MEMBERS
100
AcDbLine
 62
7
  6
CONTINUOUS
 10
4.8651491813
 20
6.2695452792
 11
4.8653625679
 21
6.2687783813
  0
SPLINE
  5
33D
100
AcDbEntity
  8
ALL_ASSEMBLY_MEMBERS
100
AcDbSpline
 62
7
  6
CONTINUOUS
 70
0
 71
3
 72
20
 73
16
 74
0
 42
0.0000001
 43
0.0000001
 44
0.0000000001
 40
0.0
 40
0.0
 40
0.0
 40
0.0
 40
0.2079594347
 40
0.3966097232
 40
0.5621406634
 40
0.7020062203
 40
0.761840859
 40
0.8147361635
 40
0.8606658584
 40
0.8997507235
 40
0.932271202
 40
0.9588164745
 40
0.9805976227
 40
0.9904200543
 40
1.0
 40
1.0
 40
1.0
 40
1.0
 10
4.4266305604
 20
7.1728372658
 30
0.0
 10
4.4269955999
 20
7.172085059
 30
0.0
 10
4.4277109933
 20
7.1706596811
 30
0.0
 10
4.4287889621
 20
7.1686726588
 30
0.0
 10
4.4298060538
 20
7.1669658312
 30
0.0
 10
4.4306239469
 20
7.1657448276
 30
0.0
 10
4.4312392474
 20
7.164936492
 30
0.0
 10
4.4316504137
 20
7.1644483651
 30
0.0
 10
4.4320341432
 20
7.1640474662
 30
0.0
 10
4.4323890045
 20
7.1637342954
 30
0.0
 10
4.4327146768
 20
7.1635091258
 30
0.0
 10
4.4330114911
 20
7.1633715151
 30
0.0
 10
4.4332469368
 20
7.1633324934
 30
0.0
 10
4.4334120824
 20
7.1633550999
 30
0.0
 10
4.4334860761
 20
7.1633818987
 30
0.0
 10
4.4335207097
 20
7.1633987517
 30
0.0
  0
SPLINE
  5
33E
100
AcDbEntity
  8
ALL_ASSEMBLY_MEMBERS
100
AcDbSpline
 62
7
  6
CONTINUOUS
 70
0
 71
3
 72
19
 73
15
 74
0
 42
0.0000001
 43
0.0000001
 44
0.0000000001
 40
0.0
 40
0.0
 40
0.0
 40
0.0
 40
0.0202919616
 40
0.0424674114
 40
0.0687594772
 40
0.1005554993
 40
0.1385988549
 40
0.1832659575
 40
0.2347501153
 40
0.2931440018
 40
0.4307403022
 40
0.5956022454
 40
0.7860187685
 40
1.0
 40
1.0
 40
1.0
 40
1.0
 10
4.6727722162
 20
6.5332632804
 30
0.0
 10
4.672729392
 20
6.5332424921
 30
0.0
 10
4.6726476275
 20
6.5331805543
 30
0.0
 10
4.6725624672
 20
6.5330403238
 30
0.0
 10
4.6725111694
 20
6.5328575551
 30
0.0
 10
4.6724911579
 20
6.5326320821
 30
0.0
 10
4.672501531
 20
6.5323631631
 30
0.0
 10
4.6725421938
 20
6.5320506771
 30
0.0
 10
4.6726132076
 20
6.5316949364
 30
0.0
 10
4.6727566385
 20
6.5311321698
 30
0.0
 10
4.6730184548
 20
6.5303263273
 30
0.0
 10
4.6734352407
 20
6.5292474702
 30
0.0
 10
4.6739658482
 20
6.5280216621
 30
0.0
 10
4.6743696493
 20
6.5271630559
 30
0.0
 10
4.6745888125
 20
6.5267114444
 30
0.0
  0
SPLINE
  5
33F
100
AcDbEntity
  8
ALL_ASSEMBLY_MEMBERS
100
AcDbSpline
 62
7
  6
CONTINUOUS
 70
0
 71
3
 72
11
 73
7
 74
0
 42
0.0000001
 43
0.0000001
 44
0.0000000001
 40
0.0
 40
0.0
 40
0.0
 40
0.0
 40
0.24385961
 40
0.4993976009
 40
0.7549456149
 40
1.0
 40
1.0
 40
1.0
 40
1.0
 10
4.6105921915
 20
6.6585840062
 30
0.0
 10
4.6112539239
 20
6.6572204288
 30
0.0
 10
4.6126697427
 20
6.6544571944
 30
0.0
 10
4.6149570862
 20
6.6503592528
 30
0.0
 10
4.6173860538
 20
6.6463349651
 30
0.0
 10
4.6190849765
 20
6.6437273812
 30
0.0
 10
4.6199414014
 20
6.6424678833
 30
0.0
  0
SPLINE
  5
340
100
AcDbEntity
  8
ALL_ASSEMBLY_MEMBERS
100
AcDbSpline
 62
7
  6
CONTINUOUS
 70
0
 71
3
 72
21
 73
17
 74
0
 42
0.0000001
 43
0.0000001
 44
0.0000000001
 40
0.0
 40
0.0
 40
0.0
 40
0.0
 40
0.2018625681
 40
0.38686937
 40
0.5515779588
 40
0.6929169531
 40
0.754114015
 40
0.8086684827
 40
0.8563975689
 40
0.8972734343
 40
0.9314161876
 40
0.9591713871
 40
0.9709057425
 40
0.9814262171
 40
0.9910041465
 40
1.0
 40
1.0
 40
1.0
 40
1.0
 10
4.6199414014
 20
6.6424678833
 30
0.0
 10
4.6205042338
 20
6.641640156
 30
0.0
 10
4.6216037167
 20
6.640067804
 30
0.0
 10
4.623239816
 20
6.6378754166
 30
0.0
 10
4.6247672296
 20
6.6359783712
 30
0.0
 10
4.6259755402
 20
6.6346144453
 30
0.0
 10
4.6268697309
 20
6.6337054472
 30
0.0
 10
4.6274621842
 20
6.6331517039
 30
0.0
 10
4.6280063689
 20
6.6326952474
 30
0.0
 10
4.6284998691
 20
6.6323376651
 30
0.0
 10
4.6289405277
 20
6.6320800071
 30
0.0
 10
4.6292809746
 20
6.6319413943
 30
0.0
 10
4.6295243057
 20
6.6318901664
 30
0.0
 10
4.6296825732
 20
6.6318805752
 30
0.0
 10
4.6298266834
 20
6.6318979492
 30
0.0
 10
4.6299145384
 20
6.6319285144
 30
0.0
 10
4.6299546506
 20
6.631948028
 30
0.0
  0
SPLINE
  5
341
100
AcDbEntity
  8
ALL_ASSEMBLY_MEMBERS
100
AcDbSpline
 62
7
  6
CONTINUOUS
 70
0
 71
3
 72
18
 73
14
 74
0
 42
0.0000001
 43
0.0000001
 44
0.0000000001
 40
0.0
 40
0.0
 40
0.0
 40
0.0
 40
0.0207296959
 40
0.0430128936
 40
0.0690685
 40
0.1003264178
 40
0.1376266691
 40
0.18146651
 40
0.2897851438
 40
0.4261516755
 40
0.5903470249
 40
0.7818504296
 40
1.0
 40
1.0
 40
1.0
 40
1.0
 10
4.834622465
 20
6.3334052779
 30
0.0
 10
4.8346022935
 20
6.3333954726
 30
0.0
 10
4.8345638746
 20
6.3333670006
 30
0.0
 10
4.8345232025
 20
6.3333028036
 30
0.0
 10
4.8344984292
 20
6.3332195508
 30
0.0
 10
4.8344882334
 20
6.333117285
 30
0.0
 10
4.8344922112
 20
6.3329954933
 30
0.0
 10
4.8345184538
 20
6.3327919717
 30
0.0
 10
4.8345922199
 20
6.3324878757
 30
0.0
 10
4.8347302654
 20
6.3320673815
 30
0.0
 10
4.8349236947
 20
6.3315711351
 30
0.0
 10
4.8351716066
 20
6.3310017961
 30
0.0
 10
4.8353606584
 20
6.3306008433
 30
0.0
 10
4.8354637066
 20
6.3303885003
 30
0.0
  0
SPLINE
  5
342
100
AcDbEntity
  8
ALL_ASSEMBLY_MEMBERS
100
AcDbSpline
 62
7
  6
CONTINUOUS
 70
0
 71
3
 72
15
 73
11
 74
0
 42
0.0000001
 43
0.0000001
 44
0.0000000001
 40
0.0
 40
0.0
 40
0.0
 40
0.0
 40
0.1034095398
 40
0.2204460124
 40
0.3473788066
 40
0.4805334292
 40
0.6161557553
 40
0.7503760213
 40
0.8794905666
 40
1.0
 40
1.0
 40
1.0
 40
1.0
 10
4.6745888125
 20
6.5267114444
 30
0.0
 10
4.6750240587
 20
6.5258145684
 30
0.0
 10
4.6759969888
 20
6.523924471
 30
0.0
 10
4.6776238793
 20
6.5209968909
 30
0.0
 10
4.6794740998
 20
6.5178668362
 30
0.0
 10
4.6814896769
 20
6.5146276488
 30
0.0
 10
4.6836111197
 20
6.5113726204
 30
0.0
 10
4.6857761166
 20
6.508193408
 30
0.0
 10
4.68792237
 20
6.505178687
 30
0.0
 10
4.6893621769
 20
6.5032500928
 30
0.0
 10
4.6900700811
 20
6.5023289236
 30
0.0
  0
SPLINE
  5
343
100
AcDbEntity
  8
ALL_ASSEMBLY_MEMBERS
100
AcDbSpline
 62
7
  6
CONTINUOUS
 70
0
 71
3
 72
20
 73
16
 74
0
 42
0.0000001
 43
0.0000001
 44
0.0000000001
 40
0.0
 40
0.0
 40
0.0
 40
0.0
 40
0.2074275595
 40
0.395344524
 40
0.5609985836
 40
0.7021372824
 40
0.7628655729
 40
0.8167707589
 40
0.8637561314
 40
0.9037746097
 40
0.9368701407
 40
0.963279781
 40
0.9741942267
 40
0.9837826503
 40
1.0
 40
1.0
 40
1.0
 40
1.0
 10
4.6900700811
 20
6.5023289236
 30
0.0
 10
4.6905521985
 20
6.5017015622
 30
0.0
 10
4.6914824647
 20
6.5005145188
 30
0.0
 10
4.692841499
 20
6.4988612819
 30
0.0
 10
4.6940821138
 20
6.4974390368
 30
0.0
 10
4.6950432603
 20
6.4964176926
 30
0.0
 10
4.6957424487
 20
6.4957370514
 30
0.0
 10
4.6961993717
 20
6.4953229492
 30
0.0
 10
4.6966138008
 20
6.4949803546
 30
0.0
 10
4.6969843313
 20
6.4947102063
 30
0.0
 10
4.6973095972
 20
6.4945135306
 30
0.0
 10
4.697556663
 20
6.494404363
 30
0.0
 10
4.6977309269
 20
6.4943609838
 30
0.0
 10
4.6978702664
 20
6.4943464994
 30
0.0
 10
4.6979716331
 20
6.4943636401
 30
0.0
 10
4.6980272825
 20
6.4943906542
 30
0.0
  0
SPLINE
  5
344
100
AcDbEntity
  8
ALL_ASSEMBLY_MEMBERS
100
AcDbSpline
 62
7
  6
CONTINUOUS
 70
0
 71
3
 72
19
 73
15
 74
0
 42
0.0000001
 43
0.0000001
 44
0.0000000001
 40
0.0
 40
0.0
 40
0.0
 40
0.0
 40
0.0201250179
 40
0.0421646517
 40
0.0683620595
 40
0.1001008164
 40
0.1381189387
 40
0.1827857564
 40
0.2342886972
 40
0.2927156376
 40
0.4304058841
 40
0.5953853497
 40
0.7859216097
 40
1.0
 40
1.0
 40
1.0
 40
1.0
 10
4.78605974
 20
6.4349892325
 30
0.0
 10
4.7860169991
 20
6.4349684784
 30
0.0
 10
4.7859353972
 20
6.4349063688
 30
0.0
 10
4.7858509123
 20
6.4347655897
 30
0.0
 10
4.7858004805
 20
6.4345820411
 30
0.0
 10
4.7857814803
 20
6.4343554572
 30
0.0
 10
4.7857930354
 20
6.4340850674
 30
0.0
 10
4.7858350409
 20
6.4337707481
 30
0.0
 10
4.7859075523
 20
6.433412823
 30
0.0
 10
4.7860533056
 20
6.4328464678
 30
0.0
 10
4.7863182974
 20
6.4320353735
 30
0.0
 10
4.7867391224
 20
6.4309493215
 30
0.0
 10
4.7872740929
 20
6.4297152448
 30
0.0
 10
4.7876808225
 20
6.428850751
 30
0.0
 10
4.7879014868
 20
6.4283960462
 30
0.0
  0
SPLINE
  5
345
100
AcDbEntity
  8
ALL_ASSEMBLY_MEMBERS
100
AcDbSpline
 62
7
  6
CONTINUOUS
 70
0
 71
3
 72
22
 73
18
 74
0
 42
0.0000001
 43
0.0000001
 44
0.0000000001
 40
0.0
 40
0.0
 40
0.0
 40
0.0
 40
0.1995784766
 40
0.3853105544
 40
0.551576862
 40
0.6261802578
 40
0.69451317
 40
0.7562253897
 40
0.8110706918
 40
0.8588500489
 40
0.8994483593
 40
0.93299931
 40
0.9599955639
 40
0.9713667933
 40
0.9815911318
 40
0.9909937321
 40
1.0
 40
1.0
 40
1.0
 40
1.0
 10
4.4988127968
 20
7.0240972811
 30
0.0
 10
4.4993304841
 20
7.0230305256
 30
0.0
 10
4.5003613239
 20
7.0209860152
 30
0.0
 10
4.5019352216
 20
7.0181109549
 30
0.0
 10
4.5032424147
 20
7.0159383093
 30
0.0
 10
4.5042522086
 20
7.0144034321
 30
0.0
 10
4.5049516654
 20
7.0134086275
 30
0.0
 10
4.505616412
 20
7.0125337582
 30
0.0
 10
4.5062419045
 20
7.0117835122
 30
0.0
 10
4.5068238625
 20
7.0111619552
 30
0.0
 10
4.507359204
 20
7.0106722587
 30
0.0
 10
4.5078449747
 20
7.0103164372
 30
0.0
 10
4.5082287237
 20
7.0101203209
 30
0.0
 10
4.5085079653
 20
7.0100431371
 30
0.0
 10
4.5086921737
 20
7.010023858
 30
0.0
 10
4.5088627694
 20
7.0100406752
 30
0.0
 10
4.5089672975
 20
7.0100768133
 30
0.0
 10
4.5090154056
 20
7.0101002381
 30
0.0
  0
SPLINE
  5
346
100
AcDbEntity
  8
ALL_ASSEMBLY_MEMBERS
100
AcDbSpline
 62
7
  6
CONTINUOUS
 70
0
 71
3
 72
20
 73
16
 74
0
 42
0.0000001
 43
0.0000001
 44
0.0000000001
 40
0.0
 40
0.0
 40
0.0
 40
0.0
 40
0.009579947
 40
0.0194024549
 40
0.0411851119
 40
0.067731534
 40
0.1002516952
 40
0.1393357133
 40
0.1852653305
 40
0.2381622577
 40
0.2979983289
 40
0.4378657687
 40
0.6033983225
 40
0.7920462435
 40
1.0
 40
1.0
 40
1.0
 40
1.0
 10
4.7227659405
 20
6.5673749443
 30
0.0
 10
4.7227312699
 20
6.5673581676
 30
0.0
 10
4.72266443
 20
6.5673166254
 30
0.0
 10
4.7225444801
 20
6.5672008725
 30
0.0
 10
4.7224294777
 20
6.5669917369
 30
0.0
 10
4.7223539223
 20
6.5666734133
 30
0.0
 10
4.7223292854
 20
6.5662782455
 30
0.0
 10
4.7223557185
 20
6.5658057005
 30
0.0
 10
4.7224332139
 20
6.565256186
 30
0.0
 10
4.7225622698
 20
6.5646311378
 30
0.0
 10
4.7228165578
 20
6.5636475839
 30
0.0
 10
4.7232696666
 20
6.5622495322
 30
0.0
 10
4.7239811709
 20
6.5603944003
 30
0.0
 10
4.724875102
 20
6.5583180954
 30
0.0
 10
4.7255521657
 20
6.5568741529
 30
0.0
 10
4.7259171952
 20
6.5561219667
 30
0.0
  0
LINE
  5
347
100
AcDbEntity
  8
ALL_ASSEMBLY_MEMBERS
100
AcDbLine
 62
7
  6
CONTINUOUS
 10
4.7184720764
 20
6.4362848197
 11
4.7203386513
 21
6.4329050567
  0
SPLINE
  5
348
100
AcDbEntity
  8
ALL_ASSEMBLY_MEMBERS
100
AcDbSpline
 62
7
  6
CONTINUOUS
 70
0
 71
3
 72
15
 73
11
 74
0
 42
0.0000001
 43
0.0000001
 44
0.0000000001
 40
0.0
 40
0.0
 40
0.0
 40
0.0
 40
0.1006324099
 40
0.2167382738
 40
0.3443433115
 40
0.4790519748
 40
0.6163850615
 40
0.7518557041
 40
0.8811175157
 40
1.0
 40
1.0
 40
1.0
 40
1.0
 10
4.7203386513
 20
6.4329050567
 30
0.0
 10
4.7208703624
 20
6.432010715
 30
0.0
 10
4.7220467684
 20
6.4301030849
 30
0.0
 10
4.723976336
 20
6.4271109014
 30
0.0
 10
4.7261485699
 20
6.4238565553
 30
0.0
 10
4.7284876552
 20
6.4204501896
 30
0.0
 10
4.7309137769
 20
6.4170053062
 30
0.0
 10
4.7333462582
 20
6.4136341146
 30
0.0
 10
4.7357052406
 20
6.410445481
 30
0.0
 10
4.737258866
 20
6.4084035971
 30
0.0
 10
4.7380117632
 20
6.4074320168
 30
0.0
  0
SPLINE
  5
349
100
AcDbEntity
  8
ALL_ASSEMBLY_MEMBERS
100
AcDbSpline
 62
7
  6
CONTINUOUS
 70
0
 71
3
 72
20
 73
16
 74
0
 42
0.0000001
 43
0.0000001
 44
0.0000000001
 40
0.0
 40
0.0
 40
0.0
 40
0.0
 40
0.2138204982
 40
0.4064698443
 40
0.5753952407
 40
0.7181561862
 40
0.779075212
 40
0.8327749286
 40
0.8790933905
 40
0.917889936
 40
0.9490705605
 40
0.9727065253
 40
0.9818139346
 40
0.9892436792
 40
1.0
 40
1.0
 40
1.0
 40
1.0
 10
4.7380117632
 20
6.4074320168
 30
0.0
 10
4.7384499182
 20
6.4068665974
 30
0.0
 10
4.739288445
 20
6.4057960605
 30
0.0
 10
4.7404954418
 20
6.4042964556
 30
0.0
 10
4.7415752762
 20
6.4029999578
 30
0.0
 10
4.7423944393
 20
6.402060133
 30
0.0
 10
4.7429774079
 20
6.4014263931
 30
0.0
 10
4.7433505315
 20
6.4010381708
 30
0.0
 10
4.7436818434
 20
6.4007126524
 30
0.0
 10
4.7439698852
 20
6.4004508893
 30
0.0
 10
4.7442138206
 20
6.4002541371
 30
0.0
 10
4.7443918907
 20
6.4001348165
 30
0.0
 10
4.744513734
 20
6.4000764397
 30
0.0
 10
4.7445996214
 20
6.400047989
 30
0.0
 10
4.7446660122
 20
6.4000454578
 30
0.0
 10
4.7446984141
 20
6.40006111
 30
0.0
  0
SPLINE
  5
34A
100
AcDbEntity
  8
ALL_ASSEMBLY_MEMBERS
100
AcDbSpline
 62
7
  6
CONTINUOUS
 70
0
 71
3
 72
22
 73
18
 74
0
 42
0.0000001
 43
0.0000001
 44
0.0000000001
 40
0.0
 40
0.0
 40
0.0
 40
0.0
 40
0.0090062315
 40
0.0184092374
 40
0.0286338175
 40
0.0400048927
 40
0.0670000759
 40
0.1005506958
 40
0.1411512662
 40
0.188931435
 40
0.2437762971
 40
0.3054884604
 40
0.3738227736
 40
0.4484273887
 40
0.6146954351
 40
0.8004266338
 40
1.0
 40
1.0
 40
1.0
 40
1.0
 10
4.6490522787
 20
6.7215377953
 30
0.0
 10
4.6490041098
 20
6.7215144964
 30
0.0
 10
4.648911044
 20
6.7214547329
 30
0.0
 10
4.6487922956
 20
6.721331098
 30
0.0
 10
4.6486934612
 20
6.7211744565
 30
0.0
 10
4.6485813047
 20
6.720907341
 30
0.0
 10
4.6484978987
 20
6.7204845408
 30
0.0
 10
4.6484768396
 20
6.7198827545
 30
0.0
 10
4.6485303096
 20
6.7191591818
 30
0.0
 10
4.6486584883
 20
6.718317396
 30
0.0
 10
4.6488608203
 20
6.717361794
 30
0.0
 10
4.6491367694
 20
6.7162982396
 30
0.0
 10
4.6494854745
 20
6.7151332001
 30
0.0
 10
4.6500664157
 20
6.7133901763
 30
0.0
 10
4.6509643466
 20
6.7110189061
 30
0.0
 10
4.6522490373
 20
6.7080035249
 30
0.0
 10
4.653217285
 20
6.7059286793
 30
0.0
 10
4.6537349589
 20
6.7048619514
 30
0.0
  0
SPLINE
  5
34B
100
AcDbEntity
  8
ALL_ASSEMBLY_MEMBERS
100
AcDbSpline
 62
7
  6
CONTINUOUS
 70
0
 71
3
 72
24
 73
20
 74
0
 42
0.0000001
 43
0.0000001
 44
0.0000000001
 40
0.0
 40
0.0
 40
0.0
 40
0.0
 40
0.0083261893
 40
0.0172506481
 40
0.027244029
 40
0.0386361685
 40
0.0516430716
 40
0.0664032
 40
0.1014726981
 40
0.1441015682
 40
0.1941990904
 40
0.2515527873
 40
0.3157679615
 40
0.3863010114
 40
0.4625821425
 40
0.5439756476
 40
0.6297521882
 40
0.811385052
 40
1.0
 40
1.0
 40
1.0
 40
1.0
 10
4.5699399537
 20
6.886971098
 30
0.0
 10
4.5698801396
 20
6.8869420641
 30
0.0
 10
4.5697643886
 20
6.8868636537
 30
0.0
 10
4.5696208546
 20
6.886697599
 30
0.0
 10
4.5695038573
 20
6.8864841126
 30
0.0
 10
4.569412391
 20
6.8862241992
 30
0.0
 10
4.5693458043
 20
6.8859180374
 30
0.0
 10
4.5692869334
 20
6.885419127
 30
0.0
 10
4.569287085
 20
6.8846786263
 30
0.0
 10
4.5693839392
 20
6.8836619272
 30
0.0
 10
4.5695788831
 20
6.8824786493
 30
0.0
 10
4.5698716411
 20
6.8811389881
 30
0.0
 10
4.570260279
 20
6.8796546538
 30
0.0
 10
4.5707414214
 20
6.878039367
 30
0.0
 10
4.5713116042
 20
6.8763082971
 30
0.0
 10
4.5719662274
 20
6.8744775684
 30
0.0
 10
4.5729627915
 20
6.8718763955
 30
0.0
 10
4.5743730471
 20
6.8685179335
 30
0.0
 10
4.5756162889
 20
6.8658346555
 30
0.0
 10
4.5762738778
 20
6.8644796163
 30
0.0
  0
LINE
  5
34C
100
AcDbEntity
  8
ALL_ASSEMBLY_MEMBERS
100
AcDbLine
 62
7
  6
CONTINUOUS
 10
4.7364125677
 20
6.3993163279
 11
4.7475064252
 21
6.3838087711
  0
LINE
  5
34D
100
AcDbEntity
  8
ALL_ASSEMBLY_MEMBERS
100
AcDbLine
 62
7
  6
CONTINUOUS
 10
4.7523470553
 20
6.3771183874
 11
4.7637764366
 21
6.361496792
  0
SPLINE
  5
34E
100
AcDbEntity
  8
ALL_ASSEMBLY_MEMBERS
100
AcDbSpline
 62
7
  6
CONTINUOUS
 70
0
 71
3
 72
27
 73
23
 74
0
 42
0.0000001
 43
0.0000001
 44
0.0000000001
 40
0.0
 40
0.0
 40
0.0
 40
0.0
 40
0.0075295753
 40
0.0159240126
 40
0.0257179753
 40
0.0372423215
 40
0.0437202681
 40
0.0506956734
 40
0.0661685505
 40
0.0836985932
 40
0.103288633
 40
0.1249236432
 40
0.1485773466
 40
0.201760112
 40
0.2623058063
 40
0.3295755587
 40
0.4028368056
 40
0.4811707476
 40
0.5636217733
 40
0.6491820792
 40
0.8253181601
 40
1.0
 40
1.0
 40
1.0
 40
1.0
 10
4.4908198555
 20
7.0524002229
 30
0.0
 10
4.490752102
 20
7.0523672297
 30
0.0
 10
4.490620671
 20
7.0522713147
 30
0.0
 10
4.4904653574
 20
7.0520626973
 30
0.0
 10
4.4903431499
 20
7.0517897426
 30
0.0
 10
4.4902704872
 20
7.0515203235
 30
0.0
 10
4.4902256351
 20
7.0512743238
 30
0.0
 10
4.4901882179
 20
7.0509871246
 30
0.0
 10
4.4901631259
 20
7.0505873564
 30
0.0
 10
4.4901646042
 20
7.0500607153
 30
0.0
 10
4.4901968357
 20
7.0494733289
 30
0.0
 10
4.4902597992
 20
7.0488268909
 30
0.0
 10
4.4903900321
 20
7.0478498133
 30
0.0
 10
4.4906346221
 20
7.0464960338
 30
0.0
 10
4.4910348291
 20
7.044728858
 30
0.0
 10
4.491549091
 20
7.042782813
 30
0.0
 10
4.4921721141
 20
7.0406824862
 30
0.0
 10
4.4928960259
 20
7.0384544564
 30
0.0
 10
4.4937126437
 20
7.0361278484
 30
0.0
 10
4.4949238023
 20
7.0329031708
 30
0.0
 10
4.4965861002
 20
7.0288630827
 30
0.0
 10
4.4980494946
 20
7.025670155
 30
0.0
 10
4.4988127968
 20
7.0240972811
 30
0.0
  0
SPLINE
  5
34F
100
AcDbEntity
  8
ALL_ASSEMBLY_MEMBERS
100
AcDbSpline
 62
7
  6
CONTINUOUS
 70
0
 71
3
 72
24
 73
20
 74
0
 42
0.0000001
 43
0.0000001
 44
0.0000000001
 40
0.0
 40
0.0
 40
0.0
 40
0.0
 40
0.1886188235
 40
0.370251061
 40
0.456026448
 40
0.5374185791
 40
0.6136986613
 40
0.6842317368
 40
0.748446312
 40
0.8057979784
 40
0.8558959866
 40
0.8985258612
 40
0.9335942867
 40
0.9483544513
 40
0.9613620502
 40
0.9727550567
 40
0.982749078
 40
0.9916737682
 40
1.0
 40
1.0
 40
1.0
 40
1.0
 10
4.5762738778
 20
6.8644796163
 30
0.0
 10
4.5769314805
 20
6.8631245486
 30
0.0
 10
4.5782701271
 20
6.8604875396
 30
0.0
 10
4.5800358412
 20
6.8573015587
 30
0.0
 10
4.5814626003
 20
6.8549091825
 30
0.0
 10
4.5824957003
 20
6.8532621561
 30
0.0
 10
4.5835027684
 20
6.8517431242
 30
0.0
 10
4.5844739663
 20
6.8503656692
 30
0.0
 10
4.5853995243
 20
6.8491419173
 30
0.0
 10
4.5862707825
 20
6.8480830199
 30
0.0
 10
4.5870797019
 20
6.8471977023
 30
0.0
 10
4.5878184487
 20
6.8464924928
 30
0.0
 10
4.5884000864
 20
6.8460341916
 30
0.0
 10
4.5888284453
 20
6.845771736
 30
0.0
 10
4.5891101664
 20
6.8456345869
 30
0.0
 10
4.5893709546
 20
6.8455455917
 30
0.0
 10
4.589611069
 20
6.8455053823
 30
0.0
 10
4.5898303407
 20
6.8455153827
 30
0.0
 10
4.5899635609
 20
6.8455578122
 30
0.0
 10
4.5900233742
 20
6.8455868484
 30
0.0
  0
SPLINE
  5
350
100
AcDbEntity
  8
ALL_ASSEMBLY_MEMBERS
100
AcDbSpline
 62
7
  6
CONTINUOUS
 70
0
 71
3
 72
26
 73
22
 74
0
 42
0.0000001
 43
0.0000001
 44
0.0000000001
 40
0.0
 40
0.0
 40
0.0
 40
0.0
 40
0.0066028562
 40
0.0144437566
 40
0.0241301253
 40
0.0359724757
 40
0.0500992237
 40
0.0665485609
 40
0.0853174794
 40
0.1063805838
 40
0.1551673942
 40
0.2122490936
 40
0.2768280608
 40
0.3479296199
 40
0.4244379987
 40
0.5051634695
 40
0.5887495265
 40
0.6738084545
 40
0.8426901106
 40
0.9235942176
 40
1.0
 40
1.0
 40
1.0
 40
1.0
 10
4.4170846881
 20
7.2065522513
 30
0.0
 10
4.4170142219
 20
7.2065179558
 30
0.0
 10
4.4168774787
 20
7.2064057917
 30
0.0
 10
4.4167297232
 20
7.2061565657
 30
0.0
 10
4.4166203415
 20
7.2058237542
 30
0.0
 10
4.4165477465
 20
7.2054058417
 30
0.0
 10
4.4165108953
 20
7.2049031683
 30
0.0
 10
4.4165099844
 20
7.2043171274
 30
0.0
 10
4.4165450876
 20
7.2036497992
 30
0.0
 10
4.4166453079
 20
7.2026025242
 30
0.0
 10
4.4168687761
 20
7.2011116694
 30
0.0
 10
4.417261627
 20
7.1991266848
 30
0.0
 10
4.4177875201
 20
7.1968996182
 30
0.0
 10
4.4184384418
 20
7.1944664326
 30
0.0
 10
4.4192047902
 20
7.1918666739
 30
0.0
 10
4.4200752811
 20
7.1891439524
 30
0.0
 10
4.4210352668
 20
7.1863439631
 30
0.0
 10
4.4224116232
 20
7.1825815576
 30
0.0
 10
4.4238877088
 20
7.1788900718
 30
0.0
 10
4.4254436649
 20
7.1753446897
 30
0.0
 10
4.4262346314
 20
7.1736531241
 30
0.0
 10
4.4266305604
 20
7.1728372658
 30
0.0
  0
SPLINE
  5
351
100
AcDbEntity
  8
ALL_ASSEMBLY_MEMBERS
100
AcDbSpline
 62
7
  6
CONTINUOUS
 70
0
 71
3
 72
21
 73
17
 74
0
 42
0.0000001
 43
0.0000001
 44
0.0000000001
 40
0.0
 40
0.0
 40
0.0
 40
0.0
 40
0.0094124506
 40
0.0191231743
 40
0.0408620581
 40
0.0675897592
 40
0.100529324
 40
0.1402035629
 40
0.1868057385
 40
0.2403754616
 40
0.3008640479
 40
0.3680947738
 40
0.4418078543
 40
0.6075330533
 40
0.7951027363
 40
1.0
 40
1.0
 40
1.0
 40
1.0
 10
4.6068863431
 20
6.6718828511
 30
0.0
 10
4.6068461749
 20
6.6718633133
 30
0.0
 10
4.6067686807
 20
6.6718144578
 30
0.0
 10
4.6066298189
 20
6.671677193
 30
0.0
 10
4.6064974453
 20
6.6714284218
 30
0.0
 10
4.6064112445
 20
6.671049397
 30
0.0
 10
4.6063852443
 20
6.6705771343
 30
0.0
 10
4.6064190583
 20
6.67001158
 30
0.0
 10
4.6065126316
 20
6.6693540038
 30
0.0
 10
4.6066663013
 20
6.6686068461
 30
0.0
 10
4.6068801711
 20
6.6677732543
 30
0.0
 10
4.6071534482
 20
6.6668570267
 30
0.0
 10
4.6076139143
 20
6.6654762551
 30
0.0
 10
4.6083351847
 20
6.66358161
 30
0.0
 10
4.6093781721
 20
6.6611460808
 30
0.0
 10
4.6101676624
 20
6.6594587983
 30
0.0
 10
4.6105921915
 20
6.6585840062
 30
0.0
  0
SPLINE
  5
352
100
AcDbEntity
  8
ALL_ASSEMBLY_MEMBERS
100
AcDbSpline
 62
7
  6
CONTINUOUS
 70
0
 71
3
 72
20
 73
16
 74
0
 42
0.0000001
 43
0.0000001
 44
0.0000000001
 40
0.0
 40
0.0
 40
0.0
 40
0.0
 40
0.0164608037
 40
0.0261485834
 40
0.0371456859
 40
0.0636736428
 40
0.0968300544
 40
0.1368639154
 40
0.1838299077
 40
0.2376899
 40
0.2983542275
 40
0.4393235036
 40
0.6048027648
 40
0.7925958189
 40
1.0
 40
1.0
 40
1.0
 40
1.0
 10
4.3537617265
 20
7.3389227547
 30
0.0
 10
4.3537059548
 20
7.3388957127
 30
0.0
 10
4.3536294154
 20
7.3388272372
 30
0.0
 10
4.353553671
 20
7.3387096014
 30
0.0
 10
4.3534789871
 20
7.3385475829
 30
0.0
 10
4.3534103083
 20
7.338288894
 30
0.0
 10
4.3533613807
 20
7.3379161202
 30
0.0
 10
4.3533417994
 20
7.337463652
 30
0.0
 10
4.353351626
 20
7.3369331248
 30
0.0
 10
4.3533910137
 20
7.3363261477
 30
0.0
 10
4.3534881796
 20
7.3353688665
 30
0.0
 10
4.353689076
 20
7.3340005838
 30
0.0
 10
4.354030201
 20
7.3321707983
 30
0.0
 10
4.3544790019
 20
7.3301076034
 30
0.0
 10
4.354829839
 20
7.3286613337
 30
0.0
 10
4.355021266
 20
7.3279041937
 30
0.0
  0
SPLINE
  5
353
100
AcDbEntity
  8
ALL_ASSEMBLY_MEMBERS
100
AcDbSpline
 62
7
  6
CONTINUOUS
 70
0
 71
3
 72
15
 73
11
 74
0
 42
0.0000001
 43
0.0000001
 44
0.0000000001
 40
0.0
 40
0.0
 40
0.0
 40
0.0
 40
0.1200356362
 40
0.248856825
 40
0.3829486559
 40
0.5185848749
 40
0.651866921
 40
0.7790101751
 40
0.8963087366
 40
1.0
 40
1.0
 40
1.0
 40
1.0
 10
4.355021266
 20
7.3279041937
 30
0.0
 10
4.3553059322
 20
7.3267782705
 30
0.0
 10
4.3559296427
 20
7.3244524334
 30
0.0
 10
4.3569719714
 20
7.3208967392
 30
0.0
 10
4.3581349617
 20
7.3172200194
 30
0.0
 10
4.3593868241
 20
7.3135270064
 30
0.0
 10
4.360693264
 20
7.3099243603
 30
0.0
 10
4.3620169527
 20
7.3065175965
 30
0.0
 10
4.363319536
 20
7.3034110424
 30
0.0
 10
4.3642082673
 20
7.30146574
 30
0.0
 10
4.3646462688
 20
7.3005631864
 30
0.0
  0
LINE
  5
354
100
AcDbEntity
  8
ALL_ASSEMBLY_MEMBERS
100
AcDbLine
 62
7
  6
CONTINUOUS
 10
4.3400672834
 20
7.0885271786
 11
4.3403719558
 21
7.0881177132
  0
SPLINE
  5
355
100
AcDbEntity
  8
ALL_ASSEMBLY_MEMBERS
100
AcDbSpline
 62
7
  6
CONTINUOUS
 70
0
 71
3
 72
20
 73
16
 74
0
 42
0.0000001
 43
0.0000001
 44
0.0000000001
 40
0.0
 40
0.0
 40
0.0
 40
0.0
 40
0.0139050464
 40
0.0225133604
 40
0.0325579159
 40
0.0574738992
 40
0.0892760533
 40
0.1281560366
 40
0.1741556104
 40
0.2272472787
 40
0.2873677334
 40
0.4281804289
 40
0.5950802642
 40
0.7863196471
 40
1.0
 40
1.0
 40
1.0
 40
1.0
 10
4.3051687264
 20
7.4404937293
 30
0.0
 10
4.3051349907
 20
7.4404773865
 30
0.0
 10
4.3050898495
 20
7.4404319043
 30
0.0
 10
4.3050476822
 20
7.4403550849
 30
0.0
 10
4.3050057037
 20
7.4402449041
 30
0.0
 10
4.3049696366
 20
7.4400677378
 30
0.0
 10
4.3049469523
 20
7.4398107827
 30
0.0
 10
4.3049430726
 20
7.4394960123
 30
0.0
 10
4.3049579504
 20
7.4391242558
 30
0.0
 10
4.3049917481
 20
7.4386962926
 30
0.0
 10
4.3050661719
 20
7.4380154621
 30
0.0
 10
4.3052101389
 20
7.4370340519
 30
0.0
 10
4.3054462541
 20
7.4357097204
 30
0.0
 10
4.3057519236
 20
7.4341986803
 30
0.0
 10
4.3059877723
 20
7.4331328109
 30
0.0
 10
4.3061161724
 20
7.4325712556
 30
0.0
  0
SPLINE
  5
356
100
AcDbEntity
  8
ALL_ASSEMBLY_MEMBERS
100
AcDbSpline
 62
7
  6
CONTINUOUS
 70
0
 71
3
 72
15
 73
11
 74
0
 42
0.0000001
 43
0.0000001
 44
0.0000000001
 40
0.0
 40
0.0
 40
0.0
 40
0.0
 40
0.1121506699
 40
0.2378063296
 40
0.3723248484
 40
0.5107617168
 40
0.6479225869
 40
0.7785362009
 40
0.8974546005
 40
1.0
 40
1.0
 40
1.0
 40
1.0
 10
4.3061161724
 20
7.4325712556
 30
0.0
 10
4.3063909047
 20
7.4313697201
 30
0.0
 10
4.307010925
 20
7.428830503
 30
0.0
 10
4.308063389
 20
7.4248760809
 30
0.0
 10
4.3092638038
 20
7.4206627738
 30
0.0
 10
4.3105686812
 20
7.416348383
 30
0.0
 10
4.3119304121
 20
7.4120966304
 30
0.0
 10
4.3132974158
 20
7.4080724161
 30
0.0
 10
4.3146177138
 20
7.4044350017
 30
0.0
 10
4.3155082645
 20
7.4021692943
 30
0.0
 10
4.3159426859
 20
7.4011294069
 30
0.0
  0
LINE
  5
357
100
AcDbEntity
  8
ALL_ASSEMBLY_MEMBERS
100
AcDbLine
 62
7
  6
CONTINUOUS
 10
4.3159426859
 20
7.4011294069
 11
4.317084049
 21
7.3985707322
  0
LINE
  5
358
100
AcDbEntity
  8
ALL_ASSEMBLY_MEMBERS
100
AcDbLine
 62
7
  6
CONTINUOUS
 10
4.6077124264
 20
6.5371105658
 11
4.6077712021
 21
6.5368917793
  0
SPLINE
  5
359
100
AcDbEntity
  8
ALL_ASSEMBLY_MEMBERS
100
AcDbSpline
 62
7
  6
CONTINUOUS
 70
0
 71
3
 72
19
 73
15
 74
0
 42
0.0000001
 43
0.0000001
 44
0.0000000001
 40
0.0
 40
0.0
 40
0.0
 40
0.0
 40
0.2139513096
 40
0.404174116
 40
0.5687791981
 40
0.7061347557
 40
0.7644258142
 40
0.8158340395
 40
0.8604660624
 40
0.8985314316
 40
0.9304252097
 40
0.9569011057
 40
0.9793544206
 40
1.0
 40
1.0
 40
1.0
 40
1.0
 10
4.3752650638
 20
7.0159980138
 30
0.0
 10
4.3754769141
 20
7.0155614713
 30
0.0
 10
4.3758874361
 20
7.0147417325
 30
0.0
 10
4.3765016007
 20
7.0136070254
 30
0.0
 10
4.3770726876
 20
7.0126475454
 30
0.0
 10
4.3775294831
 20
7.011969187
 30
0.0
 10
4.3778725748
 20
7.0115259438
 30
0.0
 10
4.3781014901
 20
7.0112608836
 30
0.0
 10
4.3783158902
 20
7.0110447189
 30
0.0
 10
4.3785155266
 20
7.010877553
 30
0.0
 10
4.3787005333
 20
7.0107593509
 30
0.0
 10
4.3788720294
 20
7.0106904432
 30
0.0
 10
4.3790315001
 20
7.0106728038
 30
0.0
 10
4.3791286377
 20
7.0106986972
 30
0.0
 10
4.3791707557
 20
7.0107191543
 30
0.0
  0
SPLINE
  5
35A
100
AcDbEntity
  8
ALL_ASSEMBLY_MEMBERS
100
AcDbSpline
 62
7
  6
CONTINUOUS
 70
0
 71
3
 72
19
 73
15
 74
0
 42
0.0000001
 43
0.0000001
 44
0.0000000001
 40
0.0
 40
0.0
 40
0.0
 40
0.0
 40
0.0087562204
 40
0.0153896802
 40
0.0237991204
 40
0.0462086035
 40
0.0762403075
 40
0.1139176768
 40
0.1591986581
 40
0.2722729572
 40
0.4144937296
 40
0.5843048407
 40
0.7800696618
 40
1.0
 40
1.0
 40
1.0
 40
1.0
 10
4.2746207868
 20
7.5043422459
 30
0.0
 10
4.2746024626
 20
7.5043336525
 30
0.0
 10
4.2745828514
 20
7.5042986072
 30
0.0
 10
4.2745694762
 20
7.5042463311
 30
0.0
 10
4.2745576216
 20
7.5041599271
 30
0.0
 10
4.2745560475
 20
7.5040192563
 30
0.0
 10
4.274568436
 20
7.5038111472
 30
0.0
 10
4.2745963783
 20
7.5035514415
 30
0.0
 10
4.2746588966
 20
7.503102604
 30
0.0
 10
4.2747790279
 20
7.5024181488
 30
0.0
 10
4.2749730713
 20
7.5014548643
 30
0.0
 10
4.2752247693
 20
7.500308395
 30
0.0
 10
4.2755315222
 20
7.4989902533
 30
0.0
 10
4.2757584349
 20
7.4980565772
 30
0.0
 10
4.2758802952
 20
7.4975630515
 30
0.0
  0
SPLINE
  5
35B
100
AcDbEntity
  8
ALL_ASSEMBLY_MEMBERS
100
AcDbSpline
 62
7
  6
CONTINUOUS
 70
0
 71
3
 72
15
 73
11
 74
0
 42
0.0000001
 43
0.0000001
 44
0.0000000001
 40
0.0
 40
0.0
 40
0.0
 40
0.0
 40
0.1074492615
 40
0.2297594561
 40
0.3622567468
 40
0.4999884872
 40
0.6377865757
 40
0.7704409664
 40
0.8928088315
 40
1.0
 40
1.0
 40
1.0
 40
1.0
 10
4.2758802952
 20
7.4975630515
 30
0.0
 10
4.2761649117
 20
7.4964103746
 30
0.0
 10
4.2767940635
 20
7.4939506706
 30
0.0
 10
4.2778281145
 20
7.4900836129
 30
0.0
 10
4.2789853465
 20
7.4859032923
 30
0.0
 10
4.2802221225
 20
7.4815675682
 30
0.0
 10
4.2814924193
 20
7.4772397361
 30
0.0
 10
4.2827486724
 20
7.4730848453
 30
0.0
 10
4.2839434548
 20
7.4692648814
 30
0.0
 10
4.2847295678
 20
7.4668530609
 30
0.0
 10
4.2851072537
 20
7.4657304479
 30
0.0
  0
LINE
  5
35C
100
AcDbEntity
  8
ALL_ASSEMBLY_MEMBERS
100
AcDbLine
 62
7
  6
CONTINUOUS
 10
4.2851072537
 20
7.4657304479
 11
4.2871851878
 21
7.4601808512
  0
SPLINE
  5
35D
100
AcDbEntity
  8
ALL_ASSEMBLY_MEMBERS
100
AcDbSpline
 62
7
  6
CONTINUOUS
 70
0
 71
3
 72
24
 73
20
 74
0
 42
0.0000001
 43
0.0000001
 44
0.0000000001
 40
0.0
 40
0.0
 40
0.0
 40
0.0
 40
0.0084829253
 40
0.0175183852
 40
0.027563212
 40
0.0389481508
 40
0.0518971541
 40
0.0665583115
 40
0.1012996656
 40
0.1434576643
 40
0.1930133743
 40
0.2498025981
 40
0.3134425631
 40
0.3834575353
 40
0.4593457632
 40
0.5405152436
 40
0.6262978917
 40
0.8088702742
 40
1.0
 40
1.0
 40
1.0
 40
1.0
 10
4.5290258119
 20
6.8356448081
 30
0.0
 10
4.5289682109
 20
6.8356167634
 30
0.0
 10
4.5288567683
 20
6.8355421206
 30
0.0
 10
4.528717345
 20
6.8353851635
 30
0.0
 10
4.5286028729
 20
6.8351840504
 30
0.0
 10
4.5285125772
 20
6.8349396943
 30
0.0
 10
4.5284458904
 20
6.8346522221
 30
0.0
 10
4.528385229
 20
6.8341846622
 30
0.0
 10
4.5283788712
 20
6.8334910762
 30
0.0
 10
4.5284629749
 20
6.8325389602
 30
0.0
 10
4.5286402215
 20
6.8314307405
 30
0.0
 10
4.5289104931
 20
6.8301752899
 30
0.0
 10
4.5292718255
 20
6.8287827744
 30
0.0
 10
4.5297217019
 20
6.8272652667
 30
0.0
 10
4.5302573578
 20
6.8256359282
 30
0.0
 10
4.5308746625
 20
6.8239087518
 30
0.0
 10
4.5318196047
 20
6.8214437652
 30
0.0
 10
4.5331653815
 20
6.8182441592
 30
0.0
 10
4.5343532589
 20
6.8156832905
 30
0.0
 10
4.5349834699
 20
6.8143846666
 30
0.0
  0
SPLINE
  5
35E
100
AcDbEntity
  8
ALL_ASSEMBLY_MEMBERS
100
AcDbSpline
 62
7
  6
CONTINUOUS
 70
0
 71
3
 72
27
 73
23
 74
0
 42
0.0000001
 43
0.0000001
 44
0.0000000001
 40
0.0
 40
0.0
 40
0.0
 40
0.0
 40
0.174684225
 40
0.3508181943
 40
0.4363768218
 40
0.5188264909
 40
0.5971598269
 40
0.6704196546
 40
0.737688157
 40
0.7982346815
 40
0.8514170574
 40
0.8750707916
 40
0.8967067545
 40
0.9162980766
 40
0.933829162
 40
0.9493023176
 40
0.9562774526
 40
0.9627552578
 40
0.974280059
 40
0.9840748977
 40
0.9924700666
 40
1.0
 40
1.0
 40
1.0
 40
1.0
 10
4.6537349589
 20
6.7048619514
 30
0.0
 10
4.6544982716
 20
6.7032890558
 30
0.0
 10
4.656101052
 20
6.7001637671
 30
0.0
 10
4.6582462602
 20
6.6963580463
 30
0.0
 10
4.6600300292
 20
6.6934113078
 30
0.0
 10
4.661352441
 20
6.6913301978
 30
0.0
 10
4.6626547608
 20
6.6893828994
 30
0.0
 10
4.6639191945
 20
6.6875938782
 30
0.0
 10
4.6651297453
 20
6.6859857584
 30
0.0
 10
4.6662703337
 20
6.6845778856
 30
0.0
 10
4.6671824878
 20
6.6835480639
 30
0.0
 10
4.6678694776
 20
6.6828411707
 30
0.0
 10
4.6683383522
 20
6.6823916904
 30
0.0
 10
4.6687798587
 20
6.6820028815
 30
0.0
 10
4.6691926717
 20
6.6816758251
 30
0.0
 10
4.6695222516
 20
6.6814481624
 30
0.0
 10
4.6697710259
 20
6.6812998585
 30
0.0
 10
4.6699920346
 20
6.6811828844
 30
0.0
 10
4.6702486543
 20
6.6810732526
 30
0.0
 10
4.6705387129
 20
6.6810003366
 30
0.0
 10
4.6707987191
 20
6.6809932321
 30
0.0
 10
4.6709554084
 20
6.6810371252
 30
0.0
 10
4.6710232532
 20
6.6810699386
 30
0.0
  0
SPLINE
  5
35F
100
AcDbEntity
  8
ALL_ASSEMBLY_MEMBERS
100
AcDbSpline
 62
7
  6
CONTINUOUS
 70
0
 71
3
 72
22
 73
18
 74
0
 42
0.0000001
 43
0.0000001
 44
0.0000000001
 40
0.0
 40
0.0
 40
0.0
 40
0.0
 40
0.1987577524
 40
0.3840918383
 40
0.5502784684
 40
0.624933616
 40
0.69336124
 40
0.7552079708
 40
0.8102144134
 40
0.8581656876
 40
0.8989370474
 40
0.9326659434
 40
0.9598245597
 40
0.9712624539
 40
0.9815388552
 40
0.9909764323
 40
1.0
 40
1.0
 40
1.0
 40
1.0
 10
4.4401937503
 20
6.8822048214
 30
0.0
 10
4.4407215377
 20
6.8811172534
 30
0.0
 10
4.4417751186
 20
6.8790316385
 30
0.0
 10
4.4433889784
 20
6.876098772
 30
0.0
 10
4.4447337825
 20
6.8738815415
 30
0.0
 10
4.4457747074
 20
6.8723145053
 30
0.0
 10
4.4464968164
 20
6.8712982864
 30
0.0
 10
4.4471835927
 20
6.870404454
 30
0.0
 10
4.4478301185
 20
6.8696378909
 30
0.0
 10
4.4484317318
 20
6.869002863
 30
0.0
 10
4.4489851072
 20
6.868502694
 30
0.0
 10
4.4494868672
 20
6.8681392798
 30
0.0
 10
4.4498827296
 20
6.8679390493
 30
0.0
 10
4.4501704391
 20
6.8678603332
 30
0.0
 10
4.4503599741
 20
6.8678407961
 30
0.0
 10
4.450535225
 20
6.8678582217
 30
0.0
 10
4.4506425404
 20
6.8678952928
 30
0.0
 10
4.4506918846
 20
6.8679193185
 30
0.0
  0
SPLINE
  5
360
100
AcDbEntity
  8
ALL_ASSEMBLY_MEMBERS
100
AcDbSpline
 62
7
  6
CONTINUOUS
 70
0
 71
3
 72
22
 73
18
 74
0
 42
0.0000001
 43
0.0000001
 44
0.0000000001
 40
0.0
 40
0.0
 40
0.0
 40
0.0
 40
0.0092125909
 40
0.0187954489
 40
0.0291535686
 40
0.0406052366
 40
0.0676131699
 40
0.1010249901
 40
0.1413726738
 40
0.188780833
 40
0.2431873194
 40
0.3044516677
 40
0.3723709616
 40
0.446617414
 40
0.6125560622
 40
0.7987662967
 40
1.0
 40
1.0
 40
1.0
 40
1.0
 10
4.5108195162
 20
6.7433854333
 30
0.0
 10
4.5107735165
 20
6.7433631145
 30
0.0
 10
4.5106846802
 20
6.7433063853
 30
0.0
 10
4.5105704798
 20
6.7431901392
 30
0.0
 10
4.5104745582
 20
6.7430435555
 30
0.0
 10
4.5103647215
 20
6.7427948503
 30
0.0
 10
4.5102797888
 20
6.7424015458
 30
0.0
 10
4.5102522501
 20
6.7418417428
 30
0.0
 10
4.5102942759
 20
6.7411695104
 30
0.0
 10
4.5104056643
 20
6.7403878823
 30
0.0
 10
4.5105864501
 20
6.7395006281
 30
0.0
 10
4.5108364599
 20
6.7385125808
 30
0.0
 10
4.5111551794
 20
6.7374292595
 30
0.0
 10
4.5116898591
 20
6.7358048395
 30
0.0
 10
4.5125232466
 20
6.7335889012
 30
0.0
 10
4.5137245152
 20
6.7307617131
 30
0.0
 10
4.5146336721
 20
6.7288126104
 30
0.0
 10
4.5151212679
 20
6.7278078618
 30
0.0
  0
SPLINE
  5
361
100
AcDbEntity
  8
ALL_ASSEMBLY_MEMBERS
100
AcDbSpline
 62
7
  6
CONTINUOUS
 70
0
 71
3
 72
26
 73
22
 74
0
 42
0.0000001
 43
0.0000001
 44
0.0000000001
 40
0.0
 40
0.0
 40
0.0
 40
0.0
 40
0.0073382446
 40
0.0156129697
 40
0.025370221
 40
0.0369318582
 40
0.0504782088
 40
0.0661073364
 40
0.0838502749
 40
0.1036978489
 40
0.1495829965
 40
0.2034387802
 40
0.2646939257
 40
0.3326299707
 40
0.4064659971
 40
0.4852312929
 40
0.5678947149
 40
0.6533876696
 40
0.8283049666
 40
0.9152639057
 40
1.0
 40
1.0
 40
1.0
 40
1.0
 10
4.4495290071
 20
7.0027932345
 30
0.0
 10
4.4494605139
 20
7.0027599661
 30
0.0
 10
4.449327606
 20
7.0026609952
 30
0.0
 10
4.4491729065
 20
7.0024445147
 30
0.0
 10
4.4490522811
 20
7.0021602633
 30
0.0
 10
4.4489638048
 20
7.0018084415
 30
0.0
 10
4.4489068467
 20
7.0013889458
 30
0.0
 10
4.4488816874
 20
7.0009023277
 30
0.0
 10
4.4488882173
 20
7.0003498446
 30
0.0
 10
4.4489419458
 20
6.999485046
 30
0.0
 10
4.449096402
 20
6.9982526594
 30
0.0
 10
4.4493965117
 20
6.9966087073
 30
0.0
 10
4.44981727
 20
6.9947560117
 30
0.0
 10
4.4503540445
 20
6.9927184824
 30
0.0
 10
4.4510015298
 20
6.9905232897
 30
0.0
 10
4.4517511903
 20
6.9881997774
 30
0.0
 10
4.4525939407
 20
6.985779918
 30
0.0
 10
4.453837458
 20
6.9824440527
 30
0.0
 10
4.4552011093
 20
6.9791061366
 30
0.0
 10
4.456663634
 20
6.9758201055
 30
0.0
 10
4.4574225622
 20
6.974208036
 30
0.0
 10
4.4578064458
 20
6.9734169988
 30
0.0
  0
SPLINE
  5
362
100
AcDbEntity
  8
ALL_ASSEMBLY_MEMBERS
100
AcDbSpline
 62
7
  6
CONTINUOUS
 70
0
 71
3
 72
26
 73
22
 74
0
 42
0.0000001
 43
0.0000001
 44
0.0000000001
 40
0.0
 40
0.0
 40
0.0
 40
0.0
 40
0.0846339818
 40
0.1715203975
 40
0.3463657773
 40
0.431856294
 40
0.5145365803
 40
0.5933357204
 40
0.6672176456
 40
0.7352117462
 40
0.7965326897
 40
0.8504524592
 40
0.896397844
 40
0.9162700035
 40
0.9340308099
 40
0.9496687283
 40
0.9632150255
 40
0.9747651924
 40
0.9844956317
 40
0.9927249218
 40
1.0
 40
1.0
 40
1.0
 40
1.0
 10
4.5151212679
 20
6.7278078618
 30
0.0
 10
4.5155055223
 20
6.7270160606
 30
0.0
 10
4.5163037986
 20
6.7254207974
 30
0.0
 10
4.5179855837
 20
6.7222354437
 30
0.0
 10
4.5197723329
 20
6.7190962304
 30
0.0
 10
4.5216336522
 20
6.7160530843
 30
0.0
 10
4.5230215052
 20
6.7138918383
 30
0.0
 10
4.5243914023
 20
6.7118633057
 30
0.0
 10
4.5257235132
 20
6.7099943608
 30
0.0
 10
4.5269996685
 20
6.7083097719
 30
0.0
 10
4.5282015061
 20
6.7068305071
 30
0.0
 10
4.5293129089
 20
6.7055750537
 30
0.0
 10
4.530189163
 20
6.7046888747
 30
0.0
 10
4.5308375071
 20
6.7041096294
 30
0.0
 10
4.5312686396
 20
6.7037613228
 30
0.0
 10
4.5316672306
 20
6.7034787444
 30
0.0
 10
4.5320323253
 20
6.7032627095
 30
0.0
 10
4.5323633307
 20
6.7031133338
 30
0.0
 10
4.5326607273
 20
6.7030310639
 30
0.0
 10
4.53292562
 20
6.7030175158
 30
0.0
 10
4.5330850121
 20
6.7030601268
 30
0.0
 10
4.5331530755
 20
6.7030931556
 30
0.0
  0
SPLINE
  5
363
100
AcDbEntity
  8
ALL_ASSEMBLY_MEMBERS
100
AcDbSpline
 62
7
  6
CONTINUOUS
 70
0
 71
3
 72
12
 73
8
 74
0
 42
0.0000001
 43
0.0000001
 44
0.0000000001
 40
0.0
 40
0.0
 40
0.0
 40
0.0
 40
0.117031293
 40
0.2409081638
 40
0.4995492277
 40
0.7581721094
 40
1.0
 40
1.0
 40
1.0
 40
1.0
 10
4.7259171952
 20
6.5561219667
 30
0.0
 10
4.7263089068
 20
6.5553147989
 30
0.0
 10
4.7271389871
 20
6.5536647052
 30
0.0
 10
4.7289404489
 20
6.5502848891
 30
0.0
 10
4.7313945371
 20
6.5460243723
 30
0.0
 10
4.7344947095
 20
6.5410980011
 30
0.0
 10
4.7366684115
 20
6.5379347001
 30
0.0
 10
4.7377575961
 20
6.5364344683
 30
0.0
  0
SPLINE
  5
364
100
AcDbEntity
  8
ALL_ASSEMBLY_MEMBERS
100
AcDbSpline
 62
7
  6
CONTINUOUS
 70
0
 71
3
 72
19
 73
15
 74
0
 42
0.0000001
 43
0.0000001
 44
0.0000000001
 40
0.0
 40
0.0
 40
0.0
 40
0.0
 40
0.2041940402
 40
0.3898096156
 40
0.5539728911
 40
0.6943348729
 40
0.7549416946
 40
0.8089443997
 40
0.8562637075
 40
0.8968840927
 40
0.9309077759
 40
0.9586987781
 40
0.9811456892
 40
1.0
 40
1.0
 40
1.0
 40
1.0
 10
4.7377575961
 20
6.5364344683
 30
0.0
 10
4.7382617361
 20
6.535740071
 30
0.0
 10
4.7392402967
 20
6.5344260519
 30
0.0
 10
4.7406853766
 20
6.5326002915
 30
0.0
 10
4.7420218504
 20
6.5310323625
 30
0.0
 10
4.7430709216
 20
6.5299112381
 30
0.0
 10
4.7438436478
 20
6.5291685881
 30
0.0
 10
4.7443540953
 20
6.5287181942
 30
0.0
 10
4.7448222284
 20
6.5283479152
 30
0.0
 10
4.7452462904
 20
6.5280590432
 30
0.0
 10
4.7456250108
 20
6.5278523279
 30
0.0
 10
4.7459587443
 20
6.5277288103
 30
0.0
 10
4.7462497398
 20
6.5276886953
 30
0.0
 10
4.7464248148
 20
6.5277267203
 30
0.0
 10
4.7464961395
 20
6.5277612272
 30
0.0
  0
SPLINE
  5
365
100
AcDbEntity
  8
ALL_ASSEMBLY_MEMBERS
100
AcDbSpline
 62
7
  6
CONTINUOUS
 70
0
 71
3
 72
16
 73
12
 74
0
 42
0.0000001
 43
0.0000001
 44
0.0000000001
 40
0.0
 40
0.0
 40
0.0
 40
0.0
 40
0.0466614403
 40
0.0979181828
 40
0.2121515307
 40
0.3385338715
 40
0.4728225496
 40
0.6105682133
 40
0.7472122107
 40
0.8784025614
 40
1.0
 40
1.0
 40
1.0
 40
1.0
 10
4.5772768588
 20
6.599728959
 30
0.0
 10
4.577485218
 20
6.5992996104
 30
0.0
 10
4.577935324
 20
6.5984048527
 30
0.0
 10
4.578952323
 20
6.5964880097
 30
0.0
 10
4.5804253141
 20
6.5938908856
 30
0.0
 10
4.5824090197
 20
6.5906090993
 30
0.0
 10
4.5845968625
 20
6.5871710122
 30
0.0
 10
4.5869123152
 20
6.5836908273
 30
0.0
 10
4.5892766395
 20
6.5802821523
 30
0.0
 10
4.5916102312
 20
6.5770541064
 30
0.0
 10
4.5931695
 20
6.5749914505
 30
0.0
 10
4.5939326951
 20
6.5740095111
 30
0.0
  0
SPLINE
  5
366
100
AcDbEntity
  8
ALL_ASSEMBLY_MEMBERS
100
AcDbSpline
 62
7
  6
CONTINUOUS
 70
0
 71
3
 72
21
 73
17
 74
0
 42
0.0000001
 43
0.0000001
 44
0.0000000001
 40
0.0
 40
0.0
 40
0.0
 40
0.0
 40
0.2090838859
 40
0.3981312564
 40
0.5645812465
 40
0.7060211126
 40
0.7667550857
 40
0.8206004989
 40
0.8674170019
 40
0.9071072419
 40
0.9396755035
 40
0.9533676852
 40
0.9654076284
 40
0.9758959667
 40
0.9849903898
 40
1.0
 40
1.0
 40
1.0
 40
1.0
 10
4.5939326951
 20
6.5740095111
 30
0.0
 10
4.594400933
 20
6.5734070685
 30
0.0
 10
4.5953020866
 20
6.572267279
 30
0.0
 10
4.5966132278
 20
6.570677741
 30
0.0
 10
4.5978029998
 20
6.5693088415
 30
0.0
 10
4.5987198703
 20
6.568323838
 30
0.0
 10
4.5993831916
 20
6.5676657029
 30
0.0
 10
4.5998145517
 20
6.567264493
 30
0.0
 10
4.6002039227
 20
6.5669314026
 30
0.0
 10
4.600549752
 20
6.5666678922
 30
0.0
 10
4.6008142137
 20
6.5664980331
 30
0.0
 10
4.6010039467
 20
6.5664013321
 30
0.0
 10
4.6011263592
 20
6.5663510909
 30
0.0
 10
4.6012376469
 20
6.5663189242
 30
0.0
 10
4.6013624933
 20
6.566300933
 30
0.0
 10
4.6014541061
 20
6.5663132839
 30
0.0
 10
4.6015034575
 20
6.5663370471
 30
0.0
  0
SPLINE
  5
367
100
AcDbEntity
  8
ALL_ASSEMBLY_MEMBERS
100
AcDbSpline
 62
7
  6
CONTINUOUS
 70
0
 71
3
 72
30
 73
26
 74
0
 42
0.0000001
 43
0.0000001
 44
0.0000000001
 40
0.0
 40
0.0
 40
0.0
 40
0.0
 40
0.0028662441
 40
0.0059894749
 40
0.0095067019
 40
0.013510735
 40
0.023188062
 40
0.0352967924
 40
0.0499355106
 40
0.0671286315
 40
0.086834574
 40
0.1089814017
 40
0.1334864519
 40
0.1602603771
 40
0.220145843
 40
0.2875552577
 40
0.3613129073
 40
0.4400519459
 40
0.5223305656
 40
0.60658244
 40
0.6911586538
 40
0.7744245172
 40
0.8547658352
 40
0.9305348738
 40
1.0
 40
1.0
 40
1.0
 40
1.0
 10
4.3789599848
 20
7.1511256943
 30
0.0
 10
4.3789268477
 20
7.15110971
 30
0.0
 10
4.3788619905
 20
7.1510666118
 30
0.0
 10
4.3787786565
 20
7.1509762885
 30
0.0
 10
4.3787061001
 20
7.1508597723
 30
0.0
 10
4.3786175407
 20
7.1506569315
 30
0.0
 10
4.3785383141
 20
7.150333474
 30
0.0
 10
4.3784864623
 20
7.1498682395
 30
0.0
 10
4.37847329
 20
7.149303788
 30
0.0
 10
4.3784991903
 20
7.1486424843
 30
0.0
 10
4.3785639564
 20
7.1478871331
 30
0.0
 10
4.3786672801
 20
7.147041518
 30
0.0
 10
4.3788087421
 20
7.1461095963
 30
0.0
 10
4.3790571487
 20
7.1447043763
 30
0.0
 10
4.3794627848
 20
7.1427683216
 30
0.0
 10
4.3800690082
 20
7.1402595445
 30
0.0
 10
4.3808020692
 20
7.1375334208
 30
0.0
 10
4.3816484913
 20
7.1346409533
 30
0.0
 10
4.3825938882
 20
7.1316377854
 30
0.0
 10
4.3836205958
 20
7.128582298
 30
0.0
 10
4.3847096457
 20
7.1255350009
 30
0.0
 10
4.3858407507
 20
7.1225566845
 30
0.0
 10
4.3869918352
 20
7.1197075543
 30
0.0
 10
4.3881395812
 20
7.1170489976
 30
0.0
 10
4.3889239595
 20
7.1153574605
 30
0.0
 10
4.3893132492
 20
7.1145552834
 30
0.0
  0
SPLINE
  5
368
100
AcDbEntity
  8
ALL_ASSEMBLY_MEMBERS
100
AcDbSpline
 62
7
  6
CONTINUOUS
 70
0
 71
3
 72
41
 73
37
 74
0
 42
0.0000001
 43
0.0000001
 44
0.0000000001
 40
0.0
 40
0.0
 40
0.0
 40
0.0
 40
0.0037951422
 40
0.0086929968
 40
0.0217385399
 40
0.039007726
 40
0.0603547499
 40
0.0855643235
 40
0.1143814592
 40
0.1465490755
 40
0.1817742018
 40
0.260037044
 40
0.3463753138
 40
0.437775643
 40
0.5311402526
 40
0.6233225553
 40
0.6680012834
 40
0.7112294084
 40
0.7526300104
 40
0.7918524652
 40
0.8285555285
 40
0.8623996422
 40
0.8930819238
 40
0.9203362679
 40
0.943898577
 40
0.9542176858
 40
0.9635326572
 40
0.971824363
 40
0.9790738612
 40
0.9852625307
 40
0.9903723565
 40
0.9943874776
 40
0.9973058868
 40
0.999143208
 40
0.9996766801
 40
1.0
 40
1.0
 40
1.0
 40
1.0
 10
4.6077712021
 20
6.5368917793
 30
0.0
 10
4.6077968908
 20
6.5368388446
 30
0.0
 10
4.6078599089
 20
6.5367196397
 30
0.0
 10
4.6080271793
 20
6.5364270299
 30
0.0
 10
4.6083140242
 20
6.5359623914
 30
0.0
 10
4.6087484981
 20
6.5352895199
 30
0.0
 10
4.6092967678
 20
6.5344657228
 30
0.0
 10
4.6099530493
 20
6.5334988381
 30
0.0
 10
4.6107108303
 20
6.5323981267
 30
0.0
 10
4.6115627735
 20
6.5311737507
 30
0.0
 10
4.6128597712
 20
6.5293251648
 30
0.0
 10
4.6146508876
 20
6.526797349
 30
0.0
 10
4.6169583026
 20
6.523568022
 30
0.0
 10
4.6194117482
 20
6.5201553011
 30
0.0
 10
4.6219262477
 20
6.5166749016
 30
0.0
 10
4.6240229374
 20
6.5137862805
 30
0.0
 10
4.6256672649
 20
6.511529801
 30
0.0
 10
4.6268502079
 20
6.5099112724
 30
0.0
 10
4.6279857154
 20
6.508362855
 30
0.0
 10
4.6290641828
 20
6.5068980604
 30
0.0
 10
4.6300763377
 20
6.505529929
 30
0.0
 10
4.6310133544
 20
6.5042709158
 30
0.0
 10
4.6318670384
 20
6.5031325
 30
0.0
 10
4.6326298264
 20
6.5021251853
 30
0.0
 10
4.6332067788
 20
6.5013731703
 30
0.0
 10
4.6336182651
 20
6.5008447904
 30
0.0
 10
4.6338862463
 20
6.5005047382
 30
0.0
 10
4.6341269379
 20
6.500203778
 30
0.0
 10
4.6343397779
 20
6.4999426387
 30
0.0
 10
4.6345242285
 20
6.4997219766
 30
0.0
 10
4.6346796363
 20
6.4995425707
 30
0.0
 10
4.634805725
 20
6.4994045389
 30
0.0
 10
4.634901623
 20
6.4993086885
 30
0.0
 10
4.63496484
 20
6.4992549116
 30
0.0
 10
4.6350010578
 20
6.4992348864
 30
0.0
 10
4.6350155383
 20
6.4992329826
 30
0.0
 10
4.6350200692
 20
6.4992351268
 30
0.0
  0
SPLINE
  5
369
100
AcDbEntity
  8
ALL_ASSEMBLY_MEMBERS
100
AcDbSpline
 62
7
  6
CONTINUOUS
 70
0
 71
3
 72
15
 73
11
 74
0
 42
0.0000001
 43
0.0000001
 44
0.0000000001
 40
0.0
 40
0.0
 40
0.0
 40
0.0
 40
0.1036361506
 40
0.2208383875
 40
0.3478714854
 40
0.4810595486
 40
0.6166481564
 40
0.7507675108
 40
0.8797162205
 40
1.0
 40
1.0
 40
1.0
 40
1.0
 10
4.7879014868
 20
6.4283960462
 30
0.0
 10
4.7883378022
 20
6.4274969671
 30
0.0
 10
4.7893119866
 20
6.4256026475
 30
0.0
 10
4.7909392851
 20
6.4226688554
 30
0.0
 10
4.7927881523
 20
6.4195335382
 30
0.0
 10
4.7948010229
 20
6.4162903463
 30
0.0
 10
4.7969187918
 20
6.4130328626
 30
0.0
 10
4.7990795889
 20
6.4098530608
 30
0.0
 10
4.8012214702
 20
6.4068398471
 30
0.0
 10
4.8026587601
 20
6.4049132771
 30
0.0
 10
4.8033654833
 20
6.4039935573
 30
0.0
  0
SPLINE
  5
36A
100
AcDbEntity
  8
ALL_ASSEMBLY_MEMBERS
100
AcDbSpline
 62
7
  6
CONTINUOUS
 70
0
 71
3
 72
20
 73
16
 74
0
 42
0.0000001
 43
0.0000001
 44
0.0000000001
 40
0.0
 40
0.0
 40
0.0
 40
0.0
 40
0.2073231126
 40
0.395108652
 40
0.5606289568
 40
0.7016598653
 40
0.762353752
 40
0.8162407626
 40
0.8632282797
 40
0.9032745141
 40
0.9364301546
 40
0.9629404057
 40
0.9739222701
 40
0.9835903899
 40
1.0
 40
1.0
 40
1.0
 40
1.0
 10
4.8033654833
 20
6.4039935573
 30
0.0
 10
4.8038451968
 20
6.4033692647
 30
0.0
 10
4.804770934
 20
6.4021882839
 30
0.0
 10
4.8061239598
 20
6.4005441736
 30
0.0
 10
4.8073596944
 20
6.3991306218
 30
0.0
 10
4.8083176545
 20
6.3981162172
 30
0.0
 10
4.8090149655
 20
6.3974407084
 30
0.0
 10
4.8094709555
 20
6.3970299227
 30
0.0
 10
4.8098848208
 20
6.3966903062
 30
0.0
 10
4.81025517
 20
6.3964227654
 30
0.0
 10
4.8105806471
 20
6.3962282913
 30
0.0
 10
4.8108281078
 20
6.3961207949
 30
0.0
 10
4.8110027915
 20
6.3960785228
 30
0.0
 10
4.8111429005
 20
6.3960648588
 30
0.0
 10
4.8112446993
 20
6.3960825652
 30
0.0
 10
4.8113007558
 20
6.3961097855
 30
0.0
  0
SPLINE
  5
36B
100
AcDbEntity
  8
ALL_ASSEMBLY_MEMBERS
100
AcDbSpline
 62
7
  6
CONTINUOUS
 70
0
 71
3
 72
27
 73
23
 74
0
 42
0.0000001
 43
0.0000001
 44
0.0000000001
 40
0.0
 40
0.0
 40
0.0
 40
0.0
 40
0.007519401
 40
0.0159004899
 40
0.0256741092
 40
0.0371705175
 40
0.0436318711
 40
0.0505878786
 40
0.0660117627
 40
0.0834804816
 40
0.102998853
 40
0.124554083
 40
0.1481222527
 40
0.2011134042
 40
0.261449924
 40
0.3285173153
 40
0.4015956393
 40
0.4797877589
 40
0.5621665788
 40
0.6477470601
 40
0.8242928918
 40
1.0
 40
1.0
 40
1.0
 40
1.0
 10
4.4323701211
 20
6.9101578453
 30
0.0
 10
4.4323033339
 20
6.9101253202
 30
0.0
 10
4.43217373
 20
6.9100309287
 30
0.0
 10
4.4320201833
 20
6.909825758
 30
0.0
 10
4.431898949
 20
6.9095572798
 30
0.0
 10
4.4318264646
 20
6.9092922148
 30
0.0
 10
4.431781443
 20
6.9090501724
 30
0.0
 10
4.431743555
 20
6.9087676565
 30
0.0
 10
4.4317172819
 20
6.9083744368
 30
0.0
 10
4.4317165801
 20
6.9078563945
 30
0.0
 10
4.431745846
 20
6.9072785653
 30
0.0
 10
4.431805084
 20
6.9066425501
 30
0.0
 10
4.4319291354
 20
6.9056810576
 30
0.0
 10
4.432164053
 20
6.9043484819
 30
0.0
 10
4.4325505221
 20
6.9026083094
 30
0.0
 10
4.4330490506
 20
6.9006910801
 30
0.0
 10
4.4336547635
 20
6.8986205722
 30
0.0
 10
4.4343605599
 20
6.8964225974
 30
0.0
 10
4.4351590782
 20
6.8941254169
 30
0.0
 10
4.4363476668
 20
6.8909360061
 30
0.0
 10
4.4379871315
 20
6.8869319102
 30
0.0
 10
4.4394358832
 20
6.8837664956
 30
0.0
 10
4.4401937503
 20
6.8822048214
 30
0.0
  0
SPLINE
  5
36C
100
AcDbEntity
  8
ALL_ASSEMBLY_MEMBERS
100
AcDbSpline
 62
7
  6
CONTINUOUS
 70
0
 71
3
 72
16
 73
12
 74
0
 42
0.0000001
 43
0.0000001
 44
0.0000000001
 40
0.0
 40
0.0
 40
0.0
 40
0.0
 40
0.0391018379
 40
0.0844405894
 40
0.1914870949
 40
0.3161274648
 40
0.4528631878
 40
0.5956477627
 40
0.7383649513
 40
0.8750307638
 40
1.0
 40
1.0
 40
1.0
 40
1.0
 10
4.8354637066
 20
6.3303885003
 30
0.0
 10
4.8356557734
 20
6.3299927241
 30
0.0
 10
4.8360880104
 20
6.3291465153
 30
0.0
 10
4.8371188172
 20
6.3272546131
 30
0.0
 10
4.8386973289
 20
6.3245663662
 30
0.0
 10
4.840892069
 20
6.3210497807
 30
0.0
 10
4.8433814941
 20
6.3172443574
 30
0.0
 10
4.8460539072
 20
6.3133166524
 30
0.0
 10
4.8487922951
 20
6.3094356036
 30
0.0
 10
4.8514793287
 20
6.3057644925
 30
0.0
 10
4.853263714
 20
6.3034230939
 30
0.0
 10
4.8541304772
 20
6.3023160735
 30
0.0
  0
SPLINE
  5
36D
100
AcDbEntity
  8
ALL_ASSEMBLY_MEMBERS
100
AcDbSpline
 62
7
  6
CONTINUOUS
 70
0
 71
3
 72
20
 73
16
 74
0
 42
0.0000001
 43
0.0000001
 44
0.0000000001
 40
0.0
 40
0.0
 40
0.0
 40
0.0
 40
0.2119532536
 40
0.4030671187
 40
0.570714479
 40
0.7127480978
 40
0.7735310701
 40
0.8271929323
 40
0.8736195037
 40
0.9127452577
 40
0.9445639971
 40
0.9692019298
 40
0.9789674533
 40
0.9871867125
 40
1.0
 40
1.0
 40
1.0
 40
1.0
 10
4.8541304772
 20
6.3023160735
 30
0.0
 10
4.8545707062
 20
6.3017538179
 30
0.0
 10
4.8554150757
 20
6.3006901868
 30
0.0
 10
4.8566358442
 20
6.2992044634
 30
0.0
 10
4.8577348568
 20
6.2979240767
 30
0.0
 10
4.8585743227
 20
6.2970000074
 30
0.0
 10
4.8591762951
 20
6.2963799706
 30
0.0
 10
4.859564426
 20
6.2960015359
 30
0.0
 10
4.8599117229
 20
6.2956861369
 30
0.0
 10
4.8602170126
 20
6.2954344025
 30
0.0
 10
4.8604793663
 20
6.2952472252
 30
0.0
 10
4.8606742351
 20
6.2951368066
 30
0.0
 10
4.8608093237
 20
6.2950863351
 30
0.0
 10
4.8609102121
 20
6.2950636582
 30
0.0
 10
4.8609856797
 20
6.2950686681
 30
0.0
 10
4.8610245043
 20
6.295087543
 30
0.0
  0
SPLINE
  5
36E
100
AcDbEntity
  8
ALL_ASSEMBLY_MEMBERS
100
AcDbSpline
 62
7
  6
CONTINUOUS
 70
0
 71
3
 72
20
 73
16
 74
0
 42
0.0000001
 43
0.0000001
 44
0.0000000001
 40
0.0
 40
0.0
 40
0.0
 40
0.0
 40
0.0138751682
 40
0.0224678138
 40
0.0324970957
 40
0.0573823226
 40
0.0891536195
 40
0.1280041495
 40
0.173977328
 40
0.2270474014
 40
0.2871528385
 40
0.4279558259
 40
0.5948801368
 40
0.7861906494
 40
1.0
 40
1.0
 40
1.0
 40
1.0
 10
4.3267021669
 20
7.2609431035
 30
0.0
 10
4.3266687337
 20
7.2609269092
 30
0.0
 10
4.3266240138
 20
7.2608817894
 30
0.0
 10
4.3265823122
 20
7.260805586
 30
0.0
 10
4.3265408382
 20
7.2606962546
 30
0.0
 10
4.3265053192
 20
7.2605204536
 30
0.0
 10
4.3264831655
 20
7.260265473
 30
0.0
 10
4.3264797197
 20
7.2599530887
 30
0.0
 10
4.3264949268
 20
7.2595841066
 30
0.0
 10
4.3265289418
 20
7.2591592828
 30
0.0
 10
4.3266035079
 20
7.2584833169
 30
0.0
 10
4.3267472774
 20
7.257508755
 30
0.0
 10
4.3269826037
 20
7.2561934195
 30
0.0
 10
4.3272868877
 20
7.2546922711
 30
0.0
 10
4.3275214287
 20
7.25363323
 30
0.0
 10
4.3276490748
 20
7.2530751991
 30
0.0
  0
SPLINE
  5
36F
100
AcDbEntity
  8
ALL_ASSEMBLY_MEMBERS
100
AcDbSpline
 62
7
  6
CONTINUOUS
 70
0
 71
3
 72
15
 73
11
 74
0
 42
0.0000001
 43
0.0000001
 44
0.0000000001
 40
0.0
 40
0.0
 40
0.0
 40
0.0
 40
0.1118986619
 40
0.2373686398
 40
0.3717709808
 40
0.5101649877
 40
0.6473607717
 40
0.7780883165
 40
0.8971969674
 40
1.0
 40
1.0
 40
1.0
 40
1.0
 10
4.3276490748
 20
7.2530751991
 30
0.0
 10
4.3279233575
 20
7.2518761163
 30
0.0
 10
4.3285422367
 20
7.2493409726
 30
0.0
 10
4.3295919301
 20
7.2453911627
 30
0.0
 10
4.3307888976
 20
7.2411797901
 30
0.0
 10
4.3320899468
 20
7.2368646077
 30
0.0
 10
4.3334480488
 20
7.2326094134
 30
0.0
 10
4.3348123203
 20
7.2285793198
 30
0.0
 10
4.3361314895
 20
7.224933992
 30
0.0
 10
4.3370223835
 20
7.222662525
 30
0.0
 10
4.3374574601
 20
7.2216195658
 30
0.0
  0
LINE
  5
370
100
AcDbEntity
  8
ALL_ASSEMBLY_MEMBERS
100
AcDbLine
 62
7
  6
CONTINUOUS
 10
4.3374574601
 20
7.2216195658
 11
4.3386024579
 21
7.219050831
  0
SPLINE
  5
371
100
AcDbEntity
  8
ALL_ASSEMBLY_MEMBERS
100
AcDbSpline
 62
7
  6
CONTINUOUS
 70
0
 71
3
 72
20
 73
16
 74
0
 42
0.0000001
 43
0.0000001
 44
0.0000000001
 40
0.0
 40
0.0
 40
0.0
 40
0.0
 40
0.0028635099
 40
0.0070804611
 40
0.0207920508
 40
0.0421191308
 40
0.0712513155
 40
0.1082097269
 40
0.1529130963
 40
0.2052606687
 40
0.2651444883
 40
0.4070704059
 40
0.5777622218
 40
0.7759450863
 40
1.0
 40
1.0
 40
1.0
 40
1.0
 10
4.2997082958
 20
7.3176605896
 30
0.0
 10
4.2997038583
 20
7.3176584261
 30
0.0
 10
4.2996956611
 20
7.3176482438
 30
0.0
 10
4.2996856425
 20
7.3176137262
 30
0.0
 10
4.2996832674
 20
7.3175453459
 30
0.0
 10
4.2996903096
 20
7.3174351448
 30
0.0
 10
4.2997087961
 20
7.3172853934
 30
0.0
 10
4.299738549
 20
7.3170967419
 30
0.0
 10
4.2997797625
 20
7.3168693788
 30
0.0
 10
4.2998322993
 20
7.3166039661
 30
0.0
 10
4.2999226101
 20
7.3161751884
 30
0.0
 10
4.300064094
 20
7.3155487354
 30
0.0
 10
4.3002683071
 20
7.3146920929
 30
0.0
 10
4.3005139078
 20
7.3136997973
 30
0.0
 10
4.3006933184
 20
7.3129942978
 30
0.0
 10
4.3007894124
 20
7.3126201641
 30
0.0
  0
SPLINE
  5
372
100
AcDbEntity
  8
ALL_ASSEMBLY_MEMBERS
100
AcDbSpline
 62
7
  6
CONTINUOUS
 70
0
 71
3
 72
15
 73
11
 74
0
 42
0.0000001
 43
0.0000001
 44
0.0000000001
 40
0.0
 40
0.0
 40
0.0
 40
0.0
 40
0.1016850617
 40
0.2228890907
 40
0.3575922002
 40
0.4992467504
 40
0.6410521326
 40
0.7761595471
 40
0.8978812623
 40
1.0
 40
1.0
 40
1.0
 40
1.0
 10
4.3007894124
 20
7.3126201641
 30
0.0
 10
4.3010964991
 20
7.311424548
 30
0.0
 10
4.3017884594
 20
7.3088086595
 30
0.0
 10
4.3029302416
 20
7.3046204372
 30
0.0
 10
4.3042253114
 20
7.2999711503
 30
0.0
 10
4.3056094675
 20
7.2950871249
 30
0.0
 10
4.307016029
 20
7.2902043964
 30
0.0
 10
4.3083776485
 20
7.2855605844
 30
0.0
 10
4.3096291077
 20
7.2813866281
 30
0.0
 10
4.310431504
 20
7.278790368
 30
0.0
 10
4.3108071569
 20
7.2776089661
 30
0.0
  0
LINE
  5
373
100
AcDbEntity
  8
ALL_ASSEMBLY_MEMBERS
100
AcDbLine
 62
7
  6
CONTINUOUS
 10
4.3108071569
 20
7.2776089661
 11
4.3124104503
 21
7.2730225422
  0
LINE
  5
374
100
AcDbEntity
  8
ALL_ASSEMBLY_MEMBERS
100
AcDbLine
 62
7
  6
CONTINUOUS
 10
4.8653625679
 20
6.2687783813
 11
4.868424515
 21
6.2637303207
  0
SPLINE
  5
375
100
AcDbEntity
  8
ALL_ASSEMBLY_MEMBERS
100
AcDbSpline
 62
7
  6
CONTINUOUS
 70
0
 71
3
 72
14
 73
10
 74
0
 42
0.0000001
 43
0.0000001
 44
0.0000000001
 40
0.0
 40
0.0
 40
0.0
 40
0.0
 40
0.1051838972
 40
0.2246645664
 40
0.3542733687
 40
0.4896317558
 40
0.7597334429
 40
0.8856892085
 40
1.0
 40
1.0
 40
1.0
 40
1.0
 10
4.868424515
 20
6.2637303207
 30
0.0
 10
4.8690244402
 20
6.2628125656
 30
0.0
 10
4.8703231491
 20
6.2608636285
 30
0.0
 10
4.8724061179
 20
6.2578141081
 30
0.0
 10
4.8746966351
 20
6.2545256377
 30
0.0
 10
4.8779202417
 20
6.2499739189
 30
0.0
 10
4.8811690867
 20
6.2454868483
 30
0.0
 10
4.8843386447
 20
6.2412139309
 30
0.0
 10
4.8858490242
 20
6.239215979
 30
0.0
 10
4.8865735519
 20
6.2382699743
 30
0.0
  0
SPLINE
  5
376
100
AcDbEntity
  8
ALL_ASSEMBLY_MEMBERS
100
AcDbSpline
 62
7
  6
CONTINUOUS
 70
0
 71
3
 72
20
 73
16
 74
0
 42
0.0000001
 43
0.0000001
 44
0.0000000001
 40
0.0
 40
0.0
 40
0.0
 40
0.0
 40
0.2176255626
 40
0.4127999739
 40
0.5829875522
 40
0.7261652023
 40
0.8404319159
 40
0.8862137724
 40
0.9242761036
 40
0.9545472441
 40
0.9667543302
 40
0.9770167915
 40
0.9853605419
 40
0.9918488958
 40
1.0
 40
1.0
 40
1.0
 40
1.0
 10
4.8865735519
 20
6.2382699743
 30
0.0
 10
4.8869631533
 20
6.2377612776
 30
0.0
 10
4.887705465
 20
6.2367988816
 30
0.0
 10
4.8887657642
 20
6.2354490118
 30
0.0
 10
4.8897040826
 20
6.2342821459
 30
0.0
 10
4.8905083245
 20
6.233313357
 30
0.0
 10
4.8910938385
 20
6.2326391579
 30
0.0
 10
4.8914899807
 20
6.2322109472
 30
0.0
 10
4.8917251345
 20
6.2319708756
 30
0.0
 10
4.8918978614
 20
6.2318082774
 30
0.0
 10
4.8920168935
 20
6.2317083253
 30
0.0
 10
4.8920890067
 20
6.2316535741
 30
0.0
 10
4.8921516471
 20
6.231613005
 30
0.0
 10
4.8922104195
 20
6.2315832548
 30
0.0
 10
4.8922587148
 20
6.2315717114
 30
0.0
 10
4.8922801644
 20
6.2315824759
 30
0.0
  0
SPLINE
  5
377
100
AcDbEntity
  8
ALL_ASSEMBLY_MEMBERS
100
AcDbSpline
 62
7
  6
CONTINUOUS
 70
0
 71
3
 72
19
 73
15
 74
0
 42
0.0000001
 43
0.0000001
 44
0.0000000001
 40
0.0
 40
0.0
 40
0.0
 40
0.0
 40
0.0351409966
 40
0.0474139886
 40
0.0613277761
 40
0.0942920121
 40
0.1342730528
 40
0.1812950182
 40
0.2352949851
 40
0.2961637055
 40
0.4376956355
 40
0.6038183045
 40
0.792195324
 40
1.0
 40
1.0
 40
1.0
 40
1.0
 10
4.3643310199
 20
7.0546462965
 30
0.0
 10
4.3642087706
 20
7.0545869059
 30
0.0
 10
4.3641067947
 20
7.054404126
 30
0.0
 10
4.3640390761
 20
7.0541801287
 30
0.0
 10
4.3639908355
 20
7.0539553933
 30
0.0
 10
4.3639547286
 20
7.0536211597
 30
0.0
 10
4.3639427963
 20
7.0531568488
 30
0.0
 10
4.3639611229
 20
7.0526116201
 30
0.0
 10
4.3640094466
 20
7.051987191
 30
0.0
 10
4.3641198275
 20
7.0510015474
 30
0.0
 10
4.3643378448
 20
7.0495924415
 30
0.0
 10
4.3646993705
 20
7.0477080915
 30
0.0
 10
4.365168554
 20
7.0455842831
 30
0.0
 10
4.3655323022
 20
7.0440956811
 30
0.0
 10
4.3657301478
 20
7.0433167024
 30
0.0
  0
SPLINE
  5
378
100
AcDbEntity
  8
ALL_ASSEMBLY_MEMBERS
100
AcDbSpline
 62
7
  6
CONTINUOUS
 70
0
 71
3
 72
15
 73
11
 74
0
 42
0.0000001
 43
0.0000001
 44
0.0000000001
 40
0.0
 40
0.0
 40
0.0
 40
0.0
 40
0.1213519143
 40
0.2511466822
 40
0.3858376148
 40
0.521680295
 40
0.6547703563
 40
0.7813239387
 40
0.8976445641
 40
1.0
 40
1.0
 40
1.0
 40
1.0
 10
4.3657301478
 20
7.0433167024
 30
0.0
 10
4.3660186533
 20
7.0421807676
 30
0.0
 10
4.3666468133
 20
7.0398377025
 30
0.0
 10
4.3676893364
 20
7.0362598884
 30
0.0
 10
4.3688454539
 20
7.0325702018
 30
0.0
 10
4.3700844696
 20
7.0288739317
 30
0.0
 10
4.3713736456
 20
7.0252782107
 30
0.0
 10
4.3726771322
 20
7.0218888067
 30
0.0
 10
4.3739582496
 20
7.018810144
 30
0.0
 10
4.3748334735
 20
7.0168873564
 30
0.0
 10
4.3752650638
 20
7.0159980138
 30
0.0
  0
LINE
  5
379
100
AcDbEntity
  8
ALL_ASSEMBLY_MEMBERS
100
AcDbLine
 62
7
  6
CONTINUOUS
 10
4.2871851878
 20
7.4601808512
 11
4.287655608
 21
7.4595386817
  0
LINE
  5
37A
100
AcDbEntity
  8
ALL_ASSEMBLY_MEMBERS
100
AcDbLine
 62
7
  6
CONTINUOUS
 10
4.3124104503
 20
7.2730225422
 11
4.312587226
 21
7.272783154
  0
SPLINE
  5
37B
100
AcDbEntity
  8
ALL_ASSEMBLY_MEMBERS
100
AcDbSpline
 62
7
  6
CONTINUOUS
 70
0
 71
3
 72
18
 73
14
 74
0
 42
0.0000001
 43
0.0000001
 44
0.0000000001
 40
0.0
 40
0.0
 40
0.0
 40
0.0
 40
0.2181538443
 40
0.4096602357
 40
0.5738567846
 40
0.7102222467
 40
0.8185373205
 40
0.8623757299
 40
0.8996751477
 40
0.9309326011
 40
0.9569878865
 40
0.9792707257
 40
1.0
 40
1.0
 40
1.0
 40
1.0
 10
4.317084049
 20
7.3985707322
 30
0.0
 10
4.3171870995
 20
7.3983583847
 30
0.0
 10
4.3173851023
 20
7.3979617661
 30
0.0
 10
4.3176789652
 20
7.3974147153
 30
0.0
 10
4.3179491183
 20
7.3969556975
 30
0.0
 10
4.3181940283
 20
7.3965870668
 30
0.0
 10
4.3183872735
 20
7.3963409603
 30
0.0
 10
4.3185309142
 20
7.3961944182
 30
0.0
 10
4.3186241276
 20
7.3961159348
 30
0.0
 10
4.3187107723
 20
7.3960606663
 30
0.0
 10
4.3187915011
 20
7.396028613
 30
0.0
 10
4.318867098
 20
7.3960208401
 30
0.0
 10
4.3189132366
 20
7.3960334032
 30
0.0
 10
4.3189334205
 20
7.3960431823
 30
0.0
  0
SPLINE
  5
37C
100
AcDbEntity
  8
ALL_ASSEMBLY_MEMBERS
100
AcDbSpline
 62
7
  6
CONTINUOUS
 70
0
 71
3
 72
17
 73
13
 74
0
 42
0.0000001
 43
0.0000001
 44
0.0000000001
 40
0.0
 40
0.0
 40
0.0
 40
0.0
 40
0.4092282124
 40
0.5733091156
 40
0.7096049178
 40
0.8179008663
 40
0.8617596787
 40
0.8991068137
 40
0.9304454949
 40
0.9566227457
 40
0.9790717685
 40
1.0
 40
1.0
 40
1.0
 40
1.0
 10
4.3386024579
 20
7.219050831
 30
0.0
 10
4.3387980804
 20
7.2186477278
 30
0.0
 10
4.3390832004
 20
7.2180878677
 30
0.0
 10
4.3394779776
 20
7.2174183377
 30
0.0
 10
4.3397263537
 20
7.2170459083
 30
0.0
 10
4.3399225278
 20
7.2167974189
 30
0.0
 10
4.3400684775
 20
7.2166496225
 30
0.0
 10
4.3401632899
 20
7.2165705159
 30
0.0
 10
4.3402515028
 20
7.2165149013
 30
0.0
 10
4.3403337696
 20
7.216482796
 30
0.0
 10
4.3404108371
 20
7.216475288
 30
0.0
 10
4.340457872
 20
7.2164882018
 30
0.0
 10
4.3404784938
 20
7.2164981922
 30
0.0
  0
SPLINE
  5
37D
100
AcDbEntity
  8
ALL_ASSEMBLY_MEMBERS
100
AcDbSpline
 62
7
  6
CONTINUOUS
 70
0
 71
3
 72
19
 73
15
 74
0
 42
0.0000001
 43
0.0000001
 44
0.0000000001
 40
0.0
 40
0.0
 40
0.0
 40
0.0
 40
0.020860198
 40
0.0434121151
 40
0.069882177
 40
0.1016523231
 40
0.1394987083
 40
0.1838554934
 40
0.2349704071
 40
0.2929865274
 40
0.4299508329
 40
0.5943452813
 40
0.7848554841
 40
1.0
 40
1.0
 40
1.0
 40
1.0
 10
4.5758360947
 20
6.6050103692
 30
0.0
 10
4.5758005433
 20
6.6049932334
 30
0.0
 10
4.5757326616
 20
6.6049430427
 30
0.0
 10
4.5756607227
 20
6.604829456
 30
0.0
 10
4.575616548
 20
6.6046817863
 30
0.0
 10
4.5755976451
 20
6.6045002838
 30
0.0
 10
4.5756033467
 20
6.6042843054
 30
0.0
 10
4.5756336131
 20
6.6040336337
 30
0.0
 10
4.5756885552
 20
6.6037483088
 30
0.0
 10
4.5758014007
 20
6.6032964184
 30
0.0
 10
4.5760101553
 20
6.6026486534
 30
0.0
 10
4.5763444215
 20
6.6017799043
 30
0.0
 10
4.5767724883
 20
6.6007897481
 30
0.0
 10
4.5770991491
 20
6.6000951508
 30
0.0
 10
4.5772768588
 20
6.599728959
 30
0.0
  0
SPLINE
  5
37E
100
AcDbEntity
  8
ALL_ASSEMBLY_MEMBERS
100
AcDbSpline
 62
7
  6
CONTINUOUS
 70
0
 71
3
 72
19
 73
15
 74
0
 42
0.0000001
 43
0.0000001
 44
0.0000000001
 40
0.0
 40
0.0
 40
0.0
 40
0.0
 40
0.2116964858
 40
0.4014638535
 40
0.5665800892
 40
0.70497268
 40
0.7639063305
 40
0.8159377619
 40
0.8610922144
 40
0.8995055975
 40
0.9315569216
 40
0.9579676523
 40
0.9800456276
 40
1.0
 40
1.0
 40
1.0
 40
1.0
 10
4.3893132492
 20
7.1145552834
 30
0.0
 10
4.3895910548
 20
7.1139828322
 30
0.0
 10
4.3901317107
 20
7.1129038385
 30
0.0
 10
4.3909424383
 20
7.1114058024
 30
0.0
 10
4.3917001343
 20
7.1101308874
 30
0.0
 10
4.3923072834
 20
7.1092252008
 30
0.0
 10
4.3927631511
 20
7.1086299648
 30
0.0
 10
4.3930673707
 20
7.1082723492
 30
0.0
 10
4.3933516399
 20
7.1079797352
 30
0.0
 10
4.393615529
 20
7.1077526618
 30
0.0
 10
4.3938589319
 20
7.1075909728
 30
0.0
 10
4.3940829696
 20
7.1074944707
 30
0.0
 10
4.3942901571
 20
7.1074653747
 30
0.0
 10
4.3944166344
 20
7.1074967528
 30
0.0
 10
4.3944706504
 20
7.1075228204
 30
0.0
  0
LINE
  5
37F
100
AcDbEntity
  8
ALL_ASSEMBLY_MEMBERS
100
AcDbLine
 62
7
  6
CONTINUOUS
 10
6.1133968888
 20
0.6867278914
 11
6.1129206767
 21
0.6872788198
  0
LINE
  5
380
100
AcDbEntity
  8
ALL_ASSEMBLY_MEMBERS
100
AcDbLine
 62
7
  6
CONTINUOUS
 10
5.3013979309
 20
0.7135136094
 11
5.3018743776
 21
0.7129626782
  0
SPLINE
  5
381
100
AcDbEntity
  8
ALL_ASSEMBLY_MEMBERS
100
AcDbSpline
 62
7
  6
CONTINUOUS
 70
0
 71
3
 72
14
 73
10
 74
0
 42
0.0000001
 43
0.0000001
 44
0.0000000001
 40
0.0
 40
0.0
 40
0.0
 40
0.0
 40
0.3313694834
 40
0.4601605197
 40
0.5700042502
 40
0.6686234419
 40
0.7664549095
 40
0.8741812569
 40
1.0
 40
1.0
 40
1.0
 40
1.0
 10
5.3201020604
 20
0.9167161619
 30
0.0
 10
5.3200568905
 20
0.9167422504
 30
0.0
 10
5.3199956423
 20
0.9167827812
 30
0.0
 10
5.3199349307
 20
0.9168495088
 30
0.0
 10
5.3199085935
 20
0.916896324
 30
0.0
 10
5.3198986136
 20
0.9169444484
 30
0.0
 10
5.3199061157
 20
0.9169927186
 30
0.0
 10
5.3199302148
 20
0.9170397221
 30
0.0
 10
5.3199543551
 20
0.9170678077
 30
0.0
 10
5.3199683645
 20
0.9170818079
 30
0.0
  0
SPLINE
  5
382
100
AcDbEntity
  8
ALL_ASSEMBLY_MEMBERS
100
AcDbSpline
 62
7
  6
CONTINUOUS
 70
0
 71
3
 72
14
 73
10
 74
0
 42
0.0000001
 43
0.0000001
 44
0.0000000001
 40
0.0
 40
0.0
 40
0.0
 40
0.0
 40
0.3313631789
 40
0.4601516762
 40
0.5699942014
 40
0.6686141034
 40
0.7664480825
 40
0.8741777693
 40
1.0
 40
1.0
 40
1.0
 40
1.0
 10
5.3189641048
 20
0.6614425073
 30
0.0
 10
5.318919069
 20
0.6614164949
 30
0.0
 10
5.3188580027
 20
0.6613760823
 30
0.0
 10
5.3187974733
 20
0.6613095491
 30
0.0
 10
5.3187712163
 20
0.6612628702
 30
0.0
 10
5.3187612688
 20
0.6612148862
 30
0.0
 10
5.3187687514
 20
0.6611667571
 30
0.0
 10
5.3187927814
 20
0.661119891
 30
0.0
 10
5.3188168518
 20
0.6610918873
 30
0.0
 10
5.3188308205
 20
0.6610779279
 30
0.0
  0
LINE
  5
383
100
AcDbEntity
  8
ALL_ASSEMBLY_MEMBERS
100
AcDbLine
 62
7
  6
CONTINUOUS
 10
6.1056540507
 20
0.9057694329
 11
6.1074664712
 21
0.9044422278
  0
LINE
  5
384
100
AcDbEntity
  8
ALL_ASSEMBLY_MEMBERS
100
AcDbLine
 62
7
  6
CONTINUOUS
 10
6.1099172572
 20
0.6755121018
 11
6.1117105156
 21
0.6768252989
  0
SPLINE
  5
385
100
AcDbEntity
  8
ALL_ASSEMBLY_MEMBERS
100
AcDbSpline
 62
7
  6
CONTINUOUS
 70
0
 71
3
 72
36
 73
32
 74
0
 42
0.0000001
 43
0.0000001
 44
0.0000000001
 40
0.0
 40
0.0
 40
0.0
 40
0.0
 40
0.0949922442
 40
0.1891736843
 40
0.2816162756
 40
0.371513006
 40
0.4580593594
 40
0.5404619507
 40
0.6179799193
 40
0.6899148678
 40
0.7556157783
 40
0.7859424328
 40
0.8144932851
 40
0.8412024758
 40
0.8660129371
 40
0.8888688832
 40
0.9097166156
 40
0.9285124932
 40
0.9452163746
 40
0.9597894128
 40
0.9722026712
 40
0.977592833
 40
0.9824354999
 40
0.9867287288
 40
0.9904712434
 40
0.9936639083
 40
0.9963100676
 40
0.9974303102
 40
0.9984170329
 40
0.9992724381
 40
1.0
 40
1.0
 40
1.0
 40
1.0
 10
5.7073976362
 20
0.8117303649
 30
0.0
 10
5.6945436399
 20
0.811370439
 30
0.0
 10
5.6689453621
 20
0.8106536631
 30
0.0
 10
5.6308383679
 20
0.8095769774
 30
0.0
 10
5.593421425
 20
0.8085004124
 30
0.0
 10
5.5570384653
 20
0.8074241944
 30
0.0
 10
5.5220152121
 20
0.8063484386
 30
0.0
 10
5.4886684699
 20
0.8052732167
 30
0.0
 10
5.4573007141
 20
0.8041988725
 30
0.0
 10
5.4281952315
 20
0.803125631
 30
0.0
 10
5.4054766412
 20
0.802209855
 30
0.0
 10
5.3886287296
 20
0.8014708597
 30
0.0
 10
5.3770554516
 20
0.8009317224
 30
0.0
 10
5.366229748
 20
0.8003927821
 30
0.0
 10
5.3561759631
 20
0.7998541749
 30
0.0
 10
5.3469168402
 20
0.7993160047
 30
0.0
 10
5.3384733701
 20
0.798778275
 30
0.0
 10
5.3308645071
 20
0.7982412349
 30
0.0
 10
5.3241072869
 20
0.7977053207
 30
0.0
 10
5.3182170613
 20
0.7971706014
 30
0.0
 10
5.3138584866
 20
0.7967077677
 30
0.0
 10
5.3108160491
 20
0.7963311383
 30
0.0
 10
5.3088680273
 20
0.7960624624
 30
0.0
 10
5.3071453355
 20
0.7957942589
 30
0.0
 10
5.3056488979
 20
0.7955266937
 30
0.0
 10
5.3043794087
 20
0.7952598977
 30
0.0
 10
5.3034658707
 20
0.7950277656
 30
0.0
 10
5.3028509388
 20
0.7948379483
 30
0.0
 10
5.3024728686
 20
0.7947037691
 30
0.0
 10
5.3021516382
 20
0.7945698298
 30
0.0
 10
5.3019600663
 20
0.7944730542
 30
0.0
 10
5.3018747842
 20
0.794423788
 30
0.0
  0
LINE
  5
386
100
AcDbEntity
  8
ALL_ASSEMBLY_MEMBERS
100
AcDbLine
 62
7
  6
CONTINUOUS
 10
6.011887317
 20
0.6785110956
 11
6.0039562779
 21
0.6783055801
  0
SPLINE
  5
387
100
AcDbEntity
  8
ALL_ASSEMBLY_MEMBERS
100
AcDbSpline
 62
7
  6
CONTINUOUS
 70
0
 71
3
 72
13
 73
9
 74
0
 42
0.0000001
 43
0.0000001
 44
0.0000000001
 40
0.0
 40
0.0
 40
0.0
 40
0.0
 40
0.101729069
 40
0.2125748835
 40
0.3313945562
 40
0.4569831151
 40
0.7231588073
 40
1.0
 40
1.0
 40
1.0
 40
1.0
 10
6.0039562779
 20
0.6783055801
 30
0.0
 10
5.9939013289
 20
0.6780488427
 30
0.0
 10
5.9728895967
 20
0.6775408818
 30
0.0
 10
5.9401318275
 20
0.6768117843
 30
0.0
 10
5.9050145066
 20
0.6760806654
 30
0.0
 10
5.854541535
 20
0.6750840406
 30
0.0
 10
5.7884461044
 20
0.6738563671
 30
0.0
 10
5.7347652235
 20
0.6728923874
 30
0.0
 10
5.7073976363
 20
0.6723991331
 30
0.0
  0
LINE
  5
388
100
AcDbEntity
  8
ALL_ASSEMBLY_MEMBERS
100
AcDbLine
 62
7
  6
CONTINUOUS
 10
5.7790046194
 20
0.6398510948
 11
5.7824771538
 21
0.6401066891
  0
SPLINE
  5
389
100
AcDbEntity
  8
ALL_ASSEMBLY_MEMBERS
100
AcDbSpline
 62
7
  6
CONTINUOUS
 70
0
 71
3
 72
31
 73
27
 74
0
 42
0.0000001
 43
0.0000001
 44
0.0000000001
 40
0.0
 40
0.0
 40
0.0
 40
0.0
 40
0.1882981633
 40
0.2790784212
 40
0.3667459178
 40
0.4507111651
 40
0.5304019825
 40
0.6052867246
 40
0.6748838999
 40
0.7387564039
 40
0.7965134223
 40
0.8229903267
 40
0.8478173969
 40
0.8709590871
 40
0.8923832854
 40
0.9120664507
 40
0.9299874645
 40
0.9461268399
 40
0.9604708802
 40
0.973017343
 40
0.9786181296
 40
0.9837722964
 40
0.9884823569
 40
0.9927521758
 40
0.9965880923
 40
1.0
 40
1.0
 40
1.0
 40
1.0
 10
5.7824771538
 20
0.6401066891
 30
0.0
 10
5.8031277579
 20
0.6416270922
 30
0.0
 10
5.8337334343
 20
0.6438913525
 30
0.0
 10
5.8739462591
 20
0.6469608561
 30
0.0
 10
5.9027143129
 20
0.649220768
 30
0.0
 10
5.930260141
 20
0.6514666814
 30
0.0
 10
5.9563966094
 20
0.6536985768
 30
0.0
 10
5.980948262
 20
0.6559164199
 30
0.0
 10
6.0037542733
 20
0.6581198908
 30
0.0
 10
6.0246688281
 20
0.6603088243
 30
0.0
 10
6.0408493487
 20
0.6621698742
 30
0.0
 10
6.0527489267
 20
0.6636652039
 30
0.0
 10
6.0608633042
 20
0.6647504872
 30
0.0
 10
6.0684172651
 20
0.6658323076
 30
0.0
 10
6.0753998799
 20
0.6669108068
 30
0.0
 10
6.0818016477
 20
0.6679856393
 30
0.0
 10
6.0876140959
 20
0.6690565843
 30
0.0
 10
6.0928294224
 20
0.670123368
 30
0.0
 10
6.0974409465
 20
0.6711860367
 30
0.0
 10
6.1008963875
 20
0.6720986156
 30
0.0
 10
6.1033508226
 20
0.6728352776
 30
0.0
 10
6.1049668366
 20
0.673365758
 30
0.0
 10
6.1064284212
 20
0.6738952869
 30
0.0
 10
6.1077352602
 20
0.674423934
 30
0.0
 10
6.1088871409
 20
0.6749516741
 30
0.0
 10
6.1095924626
 20
0.6753242712
 30
0.0
 10
6.1099172572
 20
0.6755121018
 30
0.0
  0
SPLINE
  5
38A
100
AcDbEntity
  8
ALL_ASSEMBLY_MEMBERS
100
AcDbSpline
 62
7
  6
CONTINUOUS
 70
0
 71
3
 72
22
 73
18
 74
0
 42
0.0000001
 43
0.0000001
 44
0.0000000001
 40
0.0
 40
0.0
 40
0.0
 40
0.0
 40
0.0135478278
 40
0.0286189993
 40
0.0451866347
 40
0.0632235978
 40
0.1035899752
 40
0.1494680779
 40
0.2005888338
 40
0.2566323037
 40
0.3172569212
 40
0.3820850137
 40
0.4507219092
 40
0.5227429172
 40
0.6751478282
 40
0.8355496588
 40
1.0
 40
1.0
 40
1.0
 40
1.0
 10
5.3212245709
 20
0.7885110956
 30
0.0
 10
5.3229626935
 20
0.7886687633
 30
0.0
 10
5.3266362813
 20
0.7889809326
 30
0.0
 10
5.3324404086
 20
0.7894249122
 30
0.0
 10
5.3388243226
 20
0.7898695213
 30
0.0
 10
5.3484625701
 20
0.7904861959
 30
0.0
 10
5.3618749299
 20
0.7912469322
 30
0.0
 10
5.3795485621
 20
0.792131519
 30
0.0
 10
5.3992439417
 20
0.7930174661
 30
0.0
 10
5.4208406654
 20
0.7939048088
 30
0.0
 10
5.4442045364
 20
0.7947928287
 30
0.0
 10
5.4691917787
 20
0.7956815551
 30
0.0
 10
5.4956479845
 20
0.7965706914
 30
0.0
 10
5.5333815909
 20
0.7977796089
 30
0.0
 10
5.5829334147
 20
0.7992736084
 30
0.0
 10
5.6443893719
 20
0.8010368647
 30
0.0
 10
5.6862211049
 20
0.8022081185
 30
0.0
 10
5.7073976362
 20
0.8028010839
 30
0.0
  0
SPLINE
  5
38B
100
AcDbEntity
  8
ALL_ASSEMBLY_MEMBERS
100
AcDbSpline
 62
7
  6
CONTINUOUS
 70
0
 71
3
 72
36
 73
32
 74
0
 42
0.0000001
 43
0.0000001
 44
0.0000000001
 40
0.0
 40
0.0
 40
0.0
 40
0.0
 40
0.0949927828
 40
0.1891767013
 40
0.2816217736
 40
0.3715195157
 40
0.4580663045
 40
0.5404686884
 40
0.6179859227
 40
0.689919263
 40
0.7556184314
 40
0.7859441572
 40
0.814494498
 40
0.8412035309
 40
0.8660140336
 40
0.888870199
 40
0.9097180542
 40
0.9285137518
 40
0.9452174453
 40
0.9597904195
 40
0.9722033757
 40
0.9775933618
 40
0.9824358843
 40
0.9867290353
 40
0.9904715376
 40
0.9936641502
 40
0.9963102278
 40
0.9974304256
 40
0.998417105
 40
0.9992724707
 40
1.0
 40
1.0
 40
1.0
 40
1.0
 10
5.7073976362
 20
0.8831603919
 30
0.0
 10
5.6945435669
 20
0.8828004641
 30
0.0
 10
5.6689448806
 20
0.882083677
 30
0.0
 10
5.6308371421
 20
0.8810069704
 30
0.0
 10
5.5934193909
 20
0.8799303814
 30
0.0
 10
5.5570358994
 20
0.8788541457
 30
0.0
 10
5.5220124782
 20
0.8777783827
 30
0.0
 10
5.4886658045
 20
0.8767031557
 30
0.0
 10
5.4572983933
 20
0.8756288231
 30
0.0
 10
5.4281934636
 20
0.874555588
 30
0.0
 10
5.4054754517
 20
0.8736398394
 30
0.0
 10
5.3886279706
 20
0.8729008559
 30
0.0
 10
5.3770549087
 20
0.8723617271
 30
0.0
 10
5.3662292901
 20
0.8718227884
 30
0.0
 10
5.3561754914
 20
0.871284176
 30
0.0
 10
5.3469163165
 20
0.870746003
 30
0.0
 10
5.3384728244
 20
0.870208273
 30
0.0
 10
5.330863995
 20
0.869671227
 30
0.0
 10
5.3241068338
 20
0.8691353087
 30
0.0
 10
5.3182166824
 20
0.8686006011
 30
0.0
 10
5.3138581814
 20
0.8681377667
 30
0.0
 10
5.3108158285
 20
0.867761139
 30
0.0
 10
5.3088678608
 20
0.8674924653
 30
0.0
 10
5.3071452008
 20
0.8672242642
 30
0.0
 10
5.3056487813
 20
0.8669567075
 30
0.0
 10
5.3043793113
 20
0.8666899157
 30
0.0
 10
5.3034657974
 20
0.8664577866
 30
0.0
 10
5.3028508888
 20
0.866267972
 30
0.0
 10
5.3024728361
 20
0.8661337951
 30
0.0
 10
5.3021516216
 20
0.8659998583
 30
0.0
 10
5.3019600597
 20
0.8659030846
 30
0.0
 10
5.3018747821
 20
0.8658538194
 30
0.0
  0
SPLINE
  5
38C
100
AcDbEntity
  8
ALL_ASSEMBLY_MEMBERS
100
AcDbSpline
 62
7
  6
CONTINUOUS
 70
0
 71
3
 72
37
 73
33
 74
0
 42
0.0000001
 43
0.0000001
 44
0.0000000001
 40
0.0
 40
0.0
 40
0.0
 40
0.0
 40
0.0961791098
 40
0.1913979133
 40
0.2847351879
 40
0.3753877864
 40
0.4625540667
 40
0.5454398765
 40
0.6233003489
 40
0.695429764
 40
0.7611662469
 40
0.7914469881
 40
0.8199073669
 40
0.8464793452
 40
0.8711038126
 40
0.8937231654
 40
0.9142812955
 40
0.9327319716
 40
0.9490332724
 40
0.9631440526
 40
0.9693674443
 40
0.9750320171
 40
0.9801348364
 40
0.9846731058
 40
0.9886442483
 40
0.99204614
 40
0.9948784782
 40
0.9971431185
 40
0.9980640405
 40
0.9988454416
 40
0.9994894414
 40
1.0
 40
1.0
 40
1.0
 40
1.0
 10
5.7073976363
 20
0.6723991331
 30
0.0
 10
5.6949379549
 20
0.6721745686
 30
0.0
 10
5.6701430101
 20
0.6717269351
 30
0.0
 10
5.6332566879
 20
0.6710528757
 30
0.0
 10
5.5970865637
 20
0.6703777715
 30
0.0
 10
5.5619599893
 20
0.6697017697
 30
0.0
 10
5.5281878624
 20
0.6690249385
 30
0.0
 10
5.4960735454
 20
0.6683473215
 30
0.0
 10
5.4659079894
 20
0.6676691335
 30
0.0
 10
5.4379650441
 20
0.6669905193
 30
0.0
 10
5.4161863712
 20
0.666410194
 30
0.0
 10
5.4000649119
 20
0.6659410912
 30
0.0
 10
5.3890163838
 20
0.6655988143
 30
0.0
 10
5.3787011057
 20
0.6652563761
 30
0.0
 10
5.3691430852
 20
0.664913866
 30
0.0
 10
5.3603648039
 20
0.6645713724
 30
0.0
 10
5.3523871096
 20
0.6642288956
 30
0.0
 10
5.3452288457
 20
0.6638866511
 30
0.0
 10
5.338907001
 20
0.6635448221
 30
0.0
 10
5.334169325
 20
0.6632496302
 30
0.0
 10
5.3308092444
 20
0.6630099372
 30
0.0
 10
5.328614501
 20
0.6628378615
 30
0.0
 10
5.3266388205
 20
0.6626659245
 30
0.0
 10
5.32488345
 20
0.6624941984
 30
0.0
 10
5.3233496236
 20
0.6623227847
 30
0.0
 10
5.322038298
 20
0.6621519414
 30
0.0
 10
5.3209502447
 20
0.6619817531
 30
0.0
 10
5.3201844519
 20
0.6618329158
 30
0.0
 10
5.3196853038
 20
0.6617098711
 30
0.0
 10
5.3193934181
 20
0.6616243099
 30
0.0
 10
5.3191573428
 20
0.6615391384
 30
0.0
 10
5.319021388
 20
0.6614755937
 30
0.0
 10
5.3189641048
 20
0.6614425073
 30
0.0
  0
SPLINE
  5
38D
100
AcDbEntity
  8
ALL_ASSEMBLY_MEMBERS
100
AcDbSpline
 62
7
  6
CONTINUOUS
 70
0
 71
3
 72
36
 73
32
 74
0
 42
0.0000001
 43
0.0000001
 44
0.0000000001
 40
0.0
 40
0.0
 40
0.0
 40
0.0
 40
0.0949951751
 40
0.1891763011
 40
0.2816202346
 40
0.3715189156
 40
0.4580652472
 40
0.5404674713
 40
0.617984108
 40
0.6899178933
 40
0.7556172844
 40
0.7859436372
 40
0.8144931444
 40
0.8412028499
 40
0.8660142267
 40
0.8888692298
 40
0.909717005
 40
0.9285138594
 40
0.9452168389
 40
0.9597889719
 40
0.9722032417
 40
0.9775935798
 40
0.9824356268
 40
0.9867276045
 40
0.9904695347
 40
0.9936625321
 40
0.9963094272
 40
0.9974300259
 40
0.9984170126
 40
0.9992725299
 40
1.0
 40
1.0
 40
1.0
 40
1.0
 10
5.7073976362
 20
0.8742310889
 30
0.0
 10
5.7202520436
 20
0.8745910264
 30
0.0
 10
5.7458507043
 20
0.8753078126
 30
0.0
 10
5.7839582769
 20
0.8763845158
 30
0.0
 10
5.8213756649
 20
0.8774610947
 30
0.0
 10
5.8577591081
 20
0.8785373263
 30
0.0
 10
5.8927826116
 20
0.8796130993
 30
0.0
 10
5.9261291587
 20
0.8806883087
 30
0.0
 10
5.9574965618
 20
0.88176266
 30
0.0
 10
5.9866015344
 20
0.8828358727
 30
0.0
 10
6.0093197458
 20
0.8837516504
 30
0.0
 10
6.0261672491
 20
0.8844906065
 30
0.0
 10
6.0377403851
 20
0.8850297784
 30
0.0
 10
6.0485661128
 20
0.8855687087
 30
0.0
 10
6.0586199767
 20
0.8861072879
 30
0.0
 10
6.0678791095
 20
0.8866455052
 30
0.0
 10
6.0763225985
 20
0.8871832469
 30
0.0
 10
6.0839314896
 20
0.8877202376
 30
0.0
 10
6.090688603
 20
0.8882561776
 30
0.0
 10
6.0965787215
 20
0.8887909536
 30
0.0
 10
6.100937346
 20
0.8892537254
 30
0.0
 10
6.1039798665
 20
0.8896303387
 30
0.0
 10
6.1059276607
 20
0.889899005
 30
0.0
 10
6.1076500117
 20
0.8901672504
 30
0.0
 10
6.1091462412
 20
0.8904348293
 30
0.0
 10
6.1104158017
 20
0.8907016077
 30
0.0
 10
6.1113295453
 20
0.8909337151
 30
0.0
 10
6.1119446741
 20
0.8911235185
 30
0.0
 10
6.1123228536
 20
0.8912576881
 30
0.0
 10
6.1126441313
 20
0.8913916152
 30
0.0
 10
6.1128357062
 20
0.8914883948
 30
0.0
 10
6.1129209698
 20
0.8915376682
 30
0.0
  0
SPLINE
  5
38E
100
AcDbEntity
  8
ALL_ASSEMBLY_MEMBERS
100
AcDbSpline
 62
7
  6
CONTINUOUS
 70
0
 71
3
 72
19
 73
15
 74
0
 42
0.0000001
 43
0.0000001
 44
0.0000000001
 40
0.0
 40
0.0
 40
0.0
 40
0.0
 40
0.1631875585
 40
0.3222072141
 40
0.4734201816
 40
0.613336253
 40
0.6780282249
 40
0.7387000587
 40
0.7949897135
 40
0.8465655995
 40
0.8931147652
 40
0.9343684017
 40
0.9700747352
 40
1.0
 40
1.0
 40
1.0
 40
1.0
 10
5.7073976361
 20
0.9284030108
 30
0.0
 10
5.7261419949
 20
0.928762206
 30
0.0
 10
5.7631519332
 20
0.9294733997
 30
0.0
 10
5.8175301894
 20
0.9305481602
 30
0.0
 10
5.8692343213
 20
0.9316246753
 30
0.0
 10
5.9101024986
 20
0.9325445543
 30
0.0
 10
5.9405700181
 20
0.9332919462
 30
0.0
 10
5.9614321352
 20
0.9338381728
 30
0.0
 10
5.9807868483
 20
0.9343847827
 30
0.0
 10
5.9985183803
 20
0.934931455
 30
0.0
 10
6.0145215995
 20
0.9354781057
 30
0.0
 10
6.0287005023
 20
0.9360241439
 30
0.0
 10
6.0409679743
 20
0.9365692778
 30
0.0
 10
6.0484977843
 20
0.9369661082
 30
0.0
 10
6.0519296312
 20
0.9371710965
 30
0.0
  0
LINE
  5
38F
100
AcDbEntity
  8
ALL_ASSEMBLY_MEMBERS
100
AcDbLine
 62
7
  6
CONTINUOUS
 10
5.7790046194
 20
0.6398510948
 11
5.7825552183
 21
0.6399632402
  0
SPLINE
  5
390
100
AcDbEntity
  8
ALL_ASSEMBLY_MEMBERS
100
AcDbSpline
 62
7
  6
CONTINUOUS
 70
0
 71
3
 72
30
 73
26
 74
0
 42
0.0000001
 43
0.0000001
 44
0.0000000001
 40
0.0
 40
0.0
 40
0.0
 40
0.0
 40
0.1974218968
 40
0.2918845789
 40
0.3826507987
 40
0.4691324312
 40
0.5507519358
 40
0.626950317
 40
0.6972250706
 40
0.7611013101
 40
0.8181606824
 40
0.8680154328
 40
0.8901400608
 40
0.9103458938
 40
0.928597546
 40
0.9448689344
 40
0.959137289
 40
0.9713811484
 40
0.9815831515
 40
0.9859171386
 40
0.9897404735
 40
0.9930549251
 40
0.9958640096
 40
0.9981745111
 40
1.0
 40
1.0
 40
1.0
 40
1.0
 10
5.7825552183
 20
0.6399632402
 30
0.0
 10
5.8017776633
 20
0.6405709983
 30
0.0
 10
5.830197243
 20
0.6414840492
 30
0.0
 10
5.8674524004
 20
0.6427398344
 30
0.0
 10
5.8939051039
 20
0.643667432
 30
0.0
 10
5.9191058877
 20
0.6445946698
 30
0.0
 10
5.9428865447
 20
0.6455213002
 30
0.0
 10
5.9650871454
 20
0.6464473508
 30
0.0
 10
5.9855577033
 20
0.6473722895
 30
0.0
 10
6.0041618186
 20
0.6482959899
 30
0.0
 10
6.020774085
 20
0.6492177108
 30
0.0
 10
6.0333196331
 20
0.6500117993
 30
0.0
 10
6.0422768614
 20
0.6506560622
 30
0.0
 10
6.0481603684
 20
0.6511193746
 30
0.0
 10
6.0534717886
 20
0.6515821872
 30
0.0
 10
6.0582024378
 20
0.6520442778
 30
0.0
 10
6.0623448663
 20
0.6525051716
 30
0.0
 10
6.0658919891
 20
0.6529645996
 30
0.0
 10
6.0684705494
 20
0.6533639215
 30
0.0
 10
6.0702291256
 20
0.653690394
 30
0.0
 10
6.0713226904
 20
0.6539213496
 30
0.0
 10
6.0722640814
 20
0.6541517122
 30
0.0
 10
6.0730534192
 20
0.6543812852
 30
0.0
 10
6.0736906036
 20
0.6546097621
 30
0.0
 10
6.0740570504
 20
0.6547804258
 30
0.0
 10
6.0742110106
 20
0.6548694226
 30
0.0
  0
SPLINE
  5
391
100
AcDbEntity
  8
ALL_ASSEMBLY_MEMBERS
100
AcDbSpline
 62
7
  6
CONTINUOUS
 70
0
 71
3
 72
56
 73
52
 74
0
 42
0.0000001
 43
0.0000001
 44
0.0000000001
 40
0.0
 40
0.0
 40
0.0
 40
0.0
 40
0.007479161
 40
0.0158946199
 40
0.0252276142
 40
0.0354591487
 40
0.0465689937
 40
0.0585348556
 40
0.0849440632
 40
0.114487764
 40
0.1469340065
 40
0.1820308961
 40
0.2195051212
 40
0.2590649381
 40
0.3004024193
 40
0.3871092435
 40
0.4769274681
 40
0.5221312171
 40
0.5670616386
 40
0.6113686046
 40
0.6547064471
 40
0.6967376005
 40
0.7371343728
 40
0.7755818248
 40
0.8117810307
 40
0.8454491078
 40
0.8763257422
 40
0.9041688799
 40
0.928765394
 40
0.9397844047
 40
0.9499224416
 40
0.9591609867
 40
0.9674816819
 40
0.9748681726
 40
0.9813088147
 40
0.9841712067
 40
0.9867933374
 40
0.9891741063
 40
0.9913126618
 40
0.9932089476
 40
0.9948634526
 40
0.9962772461
 40
0.9974524517
 40
0.9979518892
 40
0.9983935935
 40
0.9987788903
 40
0.9991098286
 40
0.9993897065
 40
0.9996240601
 40
0.9998223745
 40
1.0
 40
1.0
 40
1.0
 40
1.0
 10
5.357996617
 20
0.7483307342
 30
0.0
 10
5.3597777142
 20
0.7485093039
 30
0.0
 10
5.3635655797
 20
0.7488619819
 30
0.0
 10
5.3695828636
 20
0.7493608092
 30
0.0
 10
5.3762608526
 20
0.7498604756
 30
0.0
 10
5.3835852958
 20
0.7503605976
 30
0.0
 10
5.391541205
 20
0.7508609386
 30
0.0
 10
5.4033645798
 20
0.7515512967
 30
0.0
 10
5.4195976407
 20
0.7524047848
 30
0.0
 10
5.4407312953
 20
0.7534004285
 30
0.0
 10
5.4639462393
 20
0.7543975478
 30
0.0
 10
5.4890607913
 20
0.75539571
 30
0.0
 10
5.5158790914
 20
0.7563946482
 30
0.0
 10
5.5441919362
 20
0.7573941966
 30
0.0
 10
5.5842826236
 20
0.7587490381
 30
0.0
 10
5.6363980127
 20
0.760420826
 30
0.0
 10
5.6894400221
 20
0.7620654629
 30
0.0
 10
5.7324883779
 20
0.7633968295
 30
0.0
 10
5.7646493084
 20
0.7643974814
 30
0.0
 10
5.7963634474
 20
0.7653980175
 30
0.0
 10
5.8273833443
 20
0.7663983798
 30
0.0
 10
5.8574669045
 20
0.7673984725
 30
0.0
 10
5.8863793668
 20
0.7683981934
 30
0.0
 10
5.9138951862
 20
0.7693974359
 30
0.0
 10
5.9397995027
 20
0.7703959545
 30
0.0
 10
5.9638904565
 20
0.771393635
 30
0.0
 10
5.9859797339
 20
0.7723898689
 30
0.0
 10
6.0058955133
 20
0.7733845708
 30
0.0
 10
6.0210595092
 20
0.774239295
 30
0.0
 10
6.0319880565
 20
0.774932021
 30
0.0
 10
6.0392456351
 20
0.7754319802
 30
0.0
 10
6.0458557862
 20
0.7759313928
 30
0.0
 10
6.0518054004
 20
0.7764301135
 30
0.0
 10
6.0570828162
 20
0.7769281162
 30
0.0
 10
6.0610543035
 20
0.7773571039
 30
0.0
 10
6.0638872328
 20
0.7777045727
 30
0.0
 10
6.065753038
 20
0.7779546376
 30
0.0
 10
6.0674439457
 20
0.77820446
 30
0.0
 10
6.0689591008
 20
0.7784540203
 30
0.0
 10
6.0702978844
 20
0.7787032052
 30
0.0
 10
6.0714599968
 20
0.7789518028
 30
0.0
 10
6.0724451282
 20
0.779199711
 30
0.0
 10
6.0731527334
 20
0.7794153641
 30
0.0
 10
6.0736277947
 20
0.7795915136
 30
0.0
 10
6.0739198955
 20
0.7797162521
 30
0.0
 10
6.0741676946
 20
0.779840865
 30
0.0
 10
6.074371375
 20
0.7799654636
 30
0.0
 10
6.0745312735
 20
0.780090325
 30
0.0
 10
6.0746477181
 20
0.78021635
 30
0.0
 10
6.0747203136
 20
0.7803451558
 30
0.0
 10
6.07473741
 20
0.7804357043
 30
0.0
 10
6.0747373609
 20
0.7804782163
 30
0.0
  0
SPLINE
  5
392
100
AcDbEntity
  8
ALL_ASSEMBLY_MEMBERS
100
AcDbSpline
 62
7
  6
CONTINUOUS
 70
0
 71
3
 72
40
 73
36
 74
0
 42
0.0000001
 43
0.0000001
 44
0.0000000001
 40
0.0
 40
0.0
 40
0.0
 40
0.0
 40
0.0003510705
 40
0.00076161
 40
0.0012705323
 40
0.00189862
 40
0.002656832
 40
0.0035512826
 40
0.0045856085
 40
0.0057620931
 40
0.0085467918
 40
0.0119128293
 40
0.0158635094
 40
0.0203992793
 40
0.0255185245
 40
0.0312190095
 40
0.0374981409
 40
0.0443530909
 40
0.0597778281
 40
0.0774589541
 40
0.097353209
 40
0.1194163221
 40
0.1435972203
 40
0.1698355336
 40
0.1980700254
 40
0.2282351933
 40
0.2940551741
 40
0.3666666237
 40
0.4453682921
 40
0.5294069053
 40
0.6179772491
 40
0.7102172674
 40
0.8052440297
 40
0.9021745186
 40
1.0
 40
1.0
 40
1.0
 40
1.0
 10
5.3013976362
 20
0.8563735811
 30
0.0
 10
5.3013976354
 20
0.856421194
 30
0.0
 10
5.3014226722
 20
0.8565251248
 30
0.0
 10
5.3015236847
 20
0.8566677917
 30
0.0
 10
5.3016825727
 20
0.8568066961
 30
0.0
 10
5.3019002519
 20
0.8569446136
 30
0.0
 10
5.302177518
 20
0.857082557
 30
0.0
 10
5.302514982
 20
0.85722071
 30
0.0
 10
5.3029128909
 20
0.8573591176
 30
0.0
 10
5.3035615839
 20
0.8575550839
 30
0.0
 10
5.3045265711
 20
0.8577946101
 30
0.0
 10
5.3058688271
 20
0.8580698293
 30
0.0
 10
5.3074526042
 20
0.8583458512
 30
0.0
 10
5.309277076
 20
0.8586225673
 30
0.0
 10
5.3113411726
 20
0.8588997536
 30
0.0
 10
5.3136435437
 20
0.8591772872
 30
0.0
 10
5.3161828172
 20
0.8594550948
 30
0.0
 10
5.3200367805
 20
0.8598411228
 30
0.0
 10
5.3254355458
 20
0.860317555
 30
0.0
 10
5.3326023158
 20
0.8608706199
 30
0.0
 10
5.3406716883
 20
0.8614247016
 30
0.0
 10
5.3496243716
 20
0.8619795043
 30
0.0
 10
5.3594389153
 20
0.8625347828
 30
0.0
 10
5.370091632
 20
0.8630905298
 30
0.0
 10
5.3815569506
 20
0.8636466109
 30
0.0
 10
5.3983865561
 20
0.8644107011
 30
0.0
 10
5.4212324872
 20
0.8653565539
 30
0.0
 10
5.4506597722
 20
0.866463023
 30
0.0
 10
5.482559456
 20
0.8675708754
 30
0.0
 10
5.5166246916
 20
0.8686797395
 30
0.0
 10
5.5525269202
 20
0.8697892793
 30
0.0
 10
5.5899200458
 20
0.8708993471
 30
0.0
 10
5.6284474612
 20
0.8720098128
 30
0.0
 10
5.6677326906
 20
0.873120432
 30
0.0
 10
5.6941355434
 20
0.8738597359
 30
0.0
 10
5.7073976362
 20
0.8742310889
 30
0.0
  0
SPLINE
  5
393
100
AcDbEntity
  8
ALL_ASSEMBLY_MEMBERS
100
AcDbSpline
 62
7
  6
CONTINUOUS
 70
0
 71
3
 72
49
 73
45
 74
0
 42
0.0000001
 43
0.0000001
 44
0.0000000001
 40
0.0
 40
0.0
 40
0.0
 40
0.0
 40
0.0073372832
 40
0.01557717
 40
0.0247019144
 40
0.0346935588
 40
0.0455331529
 40
0.0571996698
 40
0.0829278285
 40
0.1116926376
 40
0.1432760023
 40
0.1774428445
 40
0.2139358822
 40
0.2524829678
 40
0.2927941209
 40
0.3774894163
 40
0.4654849051
 40
0.5541443531
 40
0.5978918296
 40
0.6408115809
 40
0.6825826754
 40
0.7228903402
 40
0.7614339386
 40
0.7979224944
 40
0.8320846591
 40
0.8636622789
 40
0.8924213409
 40
0.9181448221
 40
0.9406431969
 40
0.9506288052
 40
0.9597483494
 40
0.9679849026
 40
0.9753223189
 40
0.9817488743
 40
0.9872551872
 40
0.9896606364
 40
0.9918330345
 40
0.9937718129
 40
0.9954772379
 40
0.996950168
 40
0.9981922457
 40
0.9992066072
 40
0.9996303267
 40
1.0
 40
1.0
 40
1.0
 40
1.0
 10
5.357996617
 20
0.7661907342
 30
0.0
 10
5.3597418866
 20
0.7663657119
 30
0.0
 10
5.3634497142
 20
0.7667114505
 30
0.0
 10
5.3693345923
 20
0.7672009261
 30
0.0
 10
5.3758559199
 20
0.7676912024
 30
0.0
 10
5.3830002737
 20
0.7681819282
 30
0.0
 10
5.3907535511
 20
0.7686728522
 30
0.0
 10
5.4022643572
 20
0.7693500043
 30
0.0
 10
5.4180581033
 20
0.7701873662
 30
0.0
 10
5.4386120026
 20
0.771164299
 30
0.0
 10
5.4611852121
 20
0.7721427128
 30
0.0
 10
5.485607443
 20
0.7731220734
 30
0.0
 10
5.511695603
 20
0.7741022358
 30
0.0
 10
5.5392535495
 20
0.7750829391
 30
0.0
 10
5.5783293301
 20
0.7764130524
 30
0.0
 10
5.6292222115
 20
0.778054748
 30
0.0
 10
5.6916692939
 20
0.7799962383
 30
0.0
 10
5.7443326713
 20
0.7816214486
 30
0.0
 10
5.7862248813
 20
0.7829362698
 30
0.0
 10
5.816913097
 20
0.7839179288
 30
0.0
 10
5.8467785854
 20
0.7848993166
 30
0.0
 10
5.8755973561
 20
0.7858804658
 30
0.0
 10
5.9031525636
 20
0.7868611234
 30
0.0
 10
5.9292376966
 20
0.7878413195
 30
0.0
 10
5.9536563643
 20
0.788820652
 30
0.0
 10
5.9762256987
 20
0.7897990909
 30
0.0
 10
5.9967757504
 20
0.7907758907
 30
0.0
 10
6.015152729
 20
0.7917509408
 30
0.0
 10
6.0290424206
 20
0.7925904994
 30
0.0
 10
6.0389646554
 20
0.7932720335
 30
0.0
 10
6.0454824993
 20
0.7937621621
 30
0.0
 10
6.0513653709
 20
0.794251626
 30
0.0
 10
6.0566020885
 20
0.7947403232
 30
0.0
 10
6.0611830156
 20
0.7952279911
 30
0.0
 10
6.0645849455
 20
0.7956495489
 30
0.0
 10
6.0669712276
 20
0.7959921457
 30
0.0
 10
6.0685097556
 20
0.796237122
 30
0.0
 10
6.0698786653
 20
0.796481771
 30
0.0
 10
6.0710774596
 20
0.7967259888
 30
0.0
 10
6.0721060216
 20
0.7969695169
 30
0.0
 10
6.0729641483
 20
0.7972122458
 30
0.0
 10
6.0735696733
 20
0.7974241233
 30
0.0
 10
6.07396558
 20
0.7975978512
 30
0.0
 10
6.074134182
 20
0.7976851978
 30
0.0
 10
6.0742107003
 20
0.7977294092
 30
0.0
  0
SPLINE
  5
394
100
AcDbEntity
  8
ALL_ASSEMBLY_MEMBERS
100
AcDbSpline
 62
7
  6
CONTINUOUS
 70
0
 71
3
 72
25
 73
21
 74
0
 42
0.0000001
 43
0.0000001
 44
0.0000000001
 40
0.0
 40
0.0
 40
0.0
 40
0.0
 40
0.0055470282
 40
0.0117191527
 40
0.0189819737
 40
0.0276258244
 40
0.0378230877
 40
0.0496779999
 40
0.0632561722
 40
0.0786006813
 40
0.1146928461
 40
0.1581082003
 40
0.2089246209
 40
0.2671865741
 40
0.3329145069
 40
0.4060954267
 40
0.4867036963
 40
0.5747090486
 40
0.7727733784
 40
1.0
 40
1.0
 40
1.0
 40
1.0
 10
5.3013976195
 20
0.7849435991
 30
0.0
 10
5.3013975937
 20
0.7849813208
 30
0.0
 10
5.3014124757
 20
0.7850615057
 30
0.0
 10
5.3014756891
 20
0.7851758228
 30
0.0
 10
5.3015771407
 20
0.7852877507
 30
0.0
 10
5.3017164208
 20
0.7853986554
 30
0.0
 10
5.3018938059
 20
0.7855093076
 30
0.0
 10
5.3021095964
 20
0.7856199582
 30
0.0
 10
5.3023639739
 20
0.7857307109
 30
0.0
 10
5.3027776657
 20
0.7858870814
 30
0.0
 10
5.3033941492
 20
0.7860785624
 30
0.0
 10
5.3042528342
 20
0.7862986886
 30
0.0
 10
5.3052662652
 20
0.7865194346
 30
0.0
 10
5.3064343375
 20
0.7867407074
 30
0.0
 10
5.3077568072
 20
0.7869623069
 30
0.0
 10
5.3092330721
 20
0.7871841802
 30
0.0
 10
5.3108623317
 20
0.7874062618
 30
0.0
 10
5.3133367396
 20
0.787714842
 30
0.0
 10
5.3168066625
 20
0.7880957129
 30
0.0
 10
5.3196856731
 20
0.7883714998
 30
0.0
 10
5.3212245709
 20
0.7885110956
 30
0.0
  0
LINE
  5
395
100
AcDbEntity
  8
ALL_ASSEMBLY_MEMBERS
100
AcDbLine
 62
7
  6
CONTINUOUS
 10
5.7073976362
 20
0.7313711144
 11
5.651342064
 21
0.7297964671
  0
LINE
  5
396
100
AcDbEntity
  8
ALL_ASSEMBLY_MEMBERS
100
AcDbLine
 62
7
  6
CONTINUOUS
 10
5.651342064
 20
0.7297964671
 11
5.6281040717
 21
0.7291364439
  0
LINE
  5
397
100
AcDbEntity
  8
ALL_ASSEMBLY_MEMBERS
100
AcDbLine
 62
7
  6
CONTINUOUS
 10
5.6274256493
 20
0.7291170709
 11
5.602668508
 21
0.7284050474
  0
LINE
  5
398
100
AcDbEntity
  8
ALL_ASSEMBLY_MEMBERS
100
AcDbLine
 62
7
  6
CONTINUOUS
 10
5.602668508
 20
0.7284050474
 11
5.6001899608
 21
0.7283331536
  0
LINE
  5
399
100
AcDbEntity
  8
ALL_ASSEMBLY_MEMBERS
100
AcDbLine
 62
7
  6
CONTINUOUS
 10
5.6001899608
 20
0.7283331536
 11
5.5886207955
 21
0.7279958658
  0
LINE
  5
39A
100
AcDbEntity
  8
ALL_ASSEMBLY_MEMBERS
100
AcDbLine
 62
7
  6
CONTINUOUS
 10
5.5881153191
 20
0.7279810615
 11
5.5756461701
 21
0.7276139039
  0
SPLINE
  5
39B
100
AcDbEntity
  8
ALL_ASSEMBLY_MEMBERS
100
AcDbSpline
 62
7
  6
CONTINUOUS
 70
0
 71
3
 72
39
 73
35
 74
0
 42
0.0000001
 43
0.0000001
 44
0.0000000001
 40
0.0
 40
0.0
 40
0.0
 40
0.0
 40
0.1067267553
 40
0.2099438599
 40
0.3090213354
 40
0.4033706892
 40
0.4924224094
 40
0.575649063
 40
0.6525447046
 40
0.7226566107
 40
0.7855586524
 40
0.8408839105
 40
0.8655984665
 40
0.8882976913
 40
0.9089514442
 40
0.9275301064
 40
0.9440047872
 40
0.9583532167
 40
0.964725708
 40
0.9705616552
 40
0.9758598172
 40
0.9806192928
 40
0.9848396967
 40
0.9885215234
 40
0.9916675385
 40
0.9942836804
 40
0.9953964071
 40
0.9963814975
 40
0.9972421475
 40
0.9979832014
 40
0.9986123139
 40
0.9991420657
 40
0.9995934826
 40
1.0
 40
1.0
 40
1.0
 40
1.0
 10
5.5756461701
 20
0.7276139039
 30
0.0
 10
5.5658649754
 20
0.727324346
 30
0.0
 10
5.5466244534
 20
0.7267473304
 30
0.0
 10
5.5183047467
 20
0.7258693288
 30
0.0
 10
5.4911204478
 20
0.7249915284
 30
0.0
 10
5.465235625
 20
0.724114174
 30
0.0
 10
5.4408049849
 20
0.7232371872
 30
0.0
 10
5.4179756921
 20
0.7223609392
 30
0.0
 10
5.3968842823
 20
0.7214853717
 30
0.0
 10
5.3776580524
 20
0.720611149
 30
0.0
 10
5.3604117463
 20
0.719738246
 30
0.0
 10
5.3473271547
 20
0.7189875721
 30
0.0
 10
5.3379269196
 20
0.7183792526
 30
0.0
 10
5.3317013879
 20
0.7179406289
 30
0.0
 10
5.3260399248
 20
0.7175024691
 30
0.0
 10
5.3209509884
 20
0.7170649375
 30
0.0
 10
5.3164424924
 20
0.716628107
 30
0.0
 10
5.3130527893
 20
0.716251651
 30
0.0
 10
5.3106369856
 20
0.7159467499
 30
0.0
 10
5.3090468734
 20
0.7157273688
 30
0.0
 10
5.3076061549
 20
0.7155081954
 30
0.0
 10
5.3063153936
 20
0.7152892792
 30
0.0
 10
5.3051751317
 20
0.7150707081
 30
0.0
 10
5.3041857121
 20
0.7148526254
 30
0.0
 10
5.3033473724
 20
0.7146351116
 30
0.0
 10
5.3027455685
 20
0.7144458974
 30
0.0
 10
5.3023417729
 20
0.7142913935
 30
0.0
 10
5.3020934293
 20
0.71418194
 30
0.0
 10
5.3018827384
 20
0.7140725801
 30
0.0
 10
5.3017095186
 20
0.7139632089
 30
0.0
 10
5.301573479
 20
0.7138535773
 30
0.0
 10
5.3014743628
 20
0.7137429355
 30
0.0
 10
5.301412593
 20
0.7136299925
 30
0.0
 10
5.3013979751
 20
0.7135508819
 30
0.0
 10
5.3013979309
 20
0.7135136094
 30
0.0
  0
SPLINE
  5
39C
100
AcDbEntity
  8
ALL_ASSEMBLY_MEMBERS
100
AcDbSpline
 62
7
  6
CONTINUOUS
 70
0
 71
3
 72
40
 73
36
 74
0
 42
0.0000001
 43
0.0000001
 44
0.0000000001
 40
0.0
 40
0.0
 40
0.0
 40
0.0
 40
0.0003510626
 40
0.0007615873
 40
0.001270479
 40
0.00189852
 40
0.0026566719
 40
0.0035510525
 40
0.0045853025
 40
0.0057617093
 40
0.008546263
 40
0.0119121967
 40
0.0158628103
 40
0.0203984143
 40
0.0255174187
 40
0.0312176369
 40
0.0374965249
 40
0.0443513047
 40
0.0597759177
 40
0.0774567294
 40
0.0973507918
 40
0.1194141706
 40
0.1435953217
 40
0.1698337327
 40
0.1980681746
 40
0.2282328693
 40
0.2940512797
 40
0.3666609205
 40
0.4453615442
 40
0.5293998003
 40
0.6179706352
 40
0.7102115763
 40
0.8052408057
 40
0.902173892
 40
1.0
 40
1.0
 40
1.0
 40
1.0
 10
6.113397636
 20
0.8295878738
 30
0.0
 10
6.1133976327
 20
0.829540262
 30
0.0
 10
6.1133725924
 20
0.8294363366
 30
0.0
 10
6.1132715869
 20
0.8292936745
 30
0.0
 10
6.1131127126
 20
0.8291547735
 30
0.0
 10
6.1128950534
 20
0.8290168593
 30
0.0
 10
6.1126178124
 20
0.8288789193
 30
0.0
 10
6.1122803771
 20
0.8287407697
 30
0.0
 10
6.1118824992
 20
0.8286023653
 30
0.0
 10
6.1112338474
 20
0.8284064026
 30
0.0
 10
6.1102689048
 20
0.8281668803
 30
0.0
 10
6.1089266911
 20
0.8278916674
 30
0.0
 10
6.1073429585
 20
0.8276156562
 30
0.0
 10
6.1055185514
 20
0.8273389422
 30
0.0
 10
6.1034545466
 20
0.8270617587
 30
0.0
 10
6.1011522778
 20
0.8267842273
 30
0.0
 10
6.0986130969
 20
0.8265064216
 30
0.0
 10
6.0947592068
 20
0.8261203943
 30
0.0
 10
6.0893605235
 20
0.825643972
 30
0.0
 10
6.0821938402
 20
0.825090898
 30
0.0
 10
6.0741245011
 20
0.8245368079
 30
0.0
 10
6.0651717735
 20
0.8239820051
 30
0.0
 10
6.0553571468
 20
0.8234267173
 30
0.0
 10
6.0447043897
 20
0.8228709617
 30
0.0
 10
6.033239129
 20
0.8223148816
 30
0.0
 10
6.0164098075
 20
0.8215507982
 30
0.0
 10
5.9935643986
 20
0.8206049655
 30
0.0
 10
5.9641377138
 20
0.8194985089
 30
0.0
 10
5.9322384654
 20
0.81839067
 30
0.0
 10
5.8981733538
 20
0.8172818002
 30
0.0
 10
5.8622709823
 20
0.8161722549
 30
0.0
 10
5.824877331
 20
0.8150621678
 30
0.0
 10
5.7863491042
 20
0.8139516779
 30
0.0
 10
5.7470631035
 20
0.8128410364
 30
0.0
 10
5.7206598139
 20
0.8121017204
 30
0.0
 10
5.7073976362
 20
0.8117303649
 30
0.0
  0
SPLINE
  5
39D
100
AcDbEntity
  8
ALL_ASSEMBLY_MEMBERS
100
AcDbSpline
 62
7
  6
CONTINUOUS
 70
0
 71
3
 72
40
 73
36
 74
0
 42
0.0000001
 43
0.0000001
 44
0.0000000001
 40
0.0
 40
0.0
 40
0.0
 40
0.0
 40
0.0003510493
 40
0.0007615453
 40
0.0012703967
 40
0.0018983895
 40
0.0026564881
 40
0.0035508127
 40
0.0045850055
 40
0.0057613559
 40
0.0085458049
 40
0.0119116552
 40
0.0158621869
 40
0.0203976222
 40
0.0255164001
 40
0.031216374
 40
0.0374950403
 40
0.0443496612
 40
0.059774114
 40
0.0774546205
 40
0.0973484814
 40
0.1194119865
 40
0.1435932666
 40
0.1698319486
 40
0.1980670535
 40
0.2282327163
 40
0.2940532287
 40
0.3666647612
 40
0.445365733
 40
0.5294031601
 40
0.6179730189
 40
0.7102133463
 40
0.8052417903
 40
0.9021741028
 40
1.0
 40
1.0
 40
1.0
 40
1.0
 10
6.1133976363
 20
0.7581578537
 30
0.0
 10
6.1133976372
 20
0.7581102437
 30
0.0
 10
6.1133726085
 20
0.7580063215
 30
0.0
 10
6.1132716199
 20
0.7578636606
 30
0.0
 10
6.1131127641
 20
0.7577247622
 30
0.0
 10
6.1128951255
 20
0.7575868513
 30
0.0
 10
6.1126179064
 20
0.757448915
 30
0.0
 10
6.112280494
 20
0.7573107692
 30
0.0
 10
6.111882639
 20
0.7571723688
 30
0.0
 10
6.1112340166
 20
0.756976411
 30
0.0
 10
6.1102691065
 20
0.756736895
 30
0.0
 10
6.1089269283
 20
0.7564616905
 30
0.0
 10
6.1073432399
 20
0.7561856889
 30
0.0
 10
6.1055188978
 20
0.7559089779
 30
0.0
 10
6.10345498
 20
0.7556317976
 30
0.0
 10
6.1011528054
 20
0.7553542684
 30
0.0
 10
6.0986137095
 20
0.7550764644
 30
0.0
 10
6.0947598928
 20
0.7546904382
 30
0.0
 10
6.0893612936
 20
0.7542140234
 30
0.0
 10
6.0821947012
 20
0.7536609429
 30
0.0
 10
6.0741254136
 20
0.7531068478
 30
0.0
 10
6.0651726782
 20
0.7525520457
 30
0.0
 10
6.0553579801
 20
0.7519967481
 30
0.0
 10
6.0447050788
 20
0.75144098
 30
0.0
 10
6.0332395598
 20
0.7508848876
 30
0.0
 10
6.0164097316
 20
0.7501207833
 30
0.0
 10
5.9935636493
 20
0.7491749206
 30
0.0
 10
5.9641363743
 20
0.7480684508
 30
0.0
 10
5.9322369331
 20
0.7469606056
 30
0.0
 10
5.8981720171
 20
0.7458517493
 30
0.0
 10
5.8622699716
 20
0.7447422155
 30
0.0
 10
5.8248766404
 20
0.7436321403
 30
0.0
 10
5.7863487062
 20
0.7425216602
 30
0.0
 10
5.7470629435
 20
0.7414110268
 30
0.0
 10
5.720659786
 20
0.7406717152
 30
0.0
 10
5.7073976362
 20
0.740300361
 30
0.0
  0
SPLINE
  5
39E
100
AcDbEntity
  8
ALL_ASSEMBLY_MEMBERS
100
AcDbSpline
 62
7
  6
CONTINUOUS
 70
0
 71
3
 72
32
 73
28
 74
0
 42
0.0000001
 43
0.0000001
 44
0.0000000001
 40
0.0
 40
0.0
 40
0.0
 40
0.0
 40
0.2250395896
 40
0.3279590699
 40
0.4241297726
 40
0.5133379068
 40
0.5954244889
 40
0.6702342487
 40
0.7376174176
 40
0.7974512481
 40
0.8496243169
 40
0.872804529
 40
0.8940302133
 40
0.9132938876
 40
0.9305918556
 40
0.9459218695
 40
0.9592839125
 40
0.9706817529
 40
0.9801261067
 40
0.9841233528
 40
0.9876439417
 40
0.9906971809
 40
0.9932975706
 40
0.9954687042
 40
0.9972513028
 40
0.9987187979
 40
1.0
 40
1.0
 40
1.0
 40
1.0
 10
6.011887317
 20
0.6785110956
 30
0.0
 10
6.0195484259
 20
0.6788354042
 30
0.0
 10
6.0307123582
 20
0.6793303765
 30
0.0
 10
6.0451469689
 20
0.6800342841
 30
0.0
 10
6.0549570872
 20
0.6805461448
 30
0.0
 10
6.0640563307
 20
0.6810576901
 30
0.0
 10
6.0724265142
 20
0.6815687655
 30
0.0
 10
6.0800515657
 20
0.682079294
 30
0.0
 10
6.0869165679
 20
0.6825892164
 30
0.0
 10
6.0930079411
 20
0.6830983052
 30
0.0
 10
6.0975935483
 20
0.6835368377
 30
0.0
 10
6.1008651787
 20
0.6838920989
 30
0.0
 10
6.1030195734
 20
0.6841477648
 30
0.0
 10
6.1049720293
 20
0.6844031993
 30
0.0
 10
6.1067217584
 20
0.6846583215
 30
0.0
 10
6.108268084
 20
0.6849130303
 30
0.0
 10
6.1096104595
 20
0.6851670964
 30
0.0
 10
6.1107482799
 20
0.6854204035
 30
0.0
 10
6.1115659986
 20
0.6856408235
 30
0.0
 10
6.1121152883
 20
0.685821081
 30
0.0
 10
6.1124523507
 20
0.685948512
 30
0.0
 10
6.1127381295
 20
0.6860757543
 30
0.0
 10
6.1129728946
 20
0.6862028798
 30
0.0
 10
6.1131571676
 20
0.6863301179
 30
0.0
 10
6.1132915805
 20
0.6864584087
 30
0.0
 10
6.1133763394
 20
0.6865899757
 30
0.0
 10
6.1133968885
 20
0.6866842359
 30
0.0
 10
6.1133968888
 20
0.6867278914
 30
0.0
  0
SPLINE
  5
39F
100
AcDbEntity
  8
ALL_ASSEMBLY_MEMBERS
100
AcDbSpline
 62
7
  6
CONTINUOUS
 70
0
 71
3
 72
22
 73
18
 74
0
 42
0.0000001
 43
0.0000001
 44
0.0000000001
 40
0.0
 40
0.0
 40
0.0
 40
0.0
 40
0.1644503412
 40
0.3248521718
 40
0.4772570828
 40
0.5492780908
 40
0.6179149863
 40
0.6827430788
 40
0.7433676963
 40
0.7994111662
 40
0.8505319221
 40
0.8964100248
 40
0.9367764022
 40
0.9548133653
 40
0.9713810007
 40
0.9864521722
 40
1.0
 40
1.0
 40
1.0
 40
1.0
 10
5.7073976362
 20
0.740300361
 30
0.0
 10
5.6862211049
 20
0.7397073957
 30
0.0
 10
5.6443893719
 20
0.7385361419
 30
0.0
 10
5.5829334147
 20
0.7367728856
 30
0.0
 10
5.5333815909
 20
0.7352788861
 30
0.0
 10
5.4956479845
 20
0.7340699686
 30
0.0
 10
5.4691917787
 20
0.7331808323
 30
0.0
 10
5.4442045364
 20
0.7322921059
 30
0.0
 10
5.4208406654
 20
0.731404086
 30
0.0
 10
5.3992439417
 20
0.7305167433
 30
0.0
 10
5.3795485621
 20
0.7296307962
 30
0.0
 10
5.3618749299
 20
0.7287462094
 30
0.0
 10
5.3484625701
 20
0.727985473
 30
0.0
 10
5.3388243226
 20
0.7273687985
 30
0.0
 10
5.3324404086
 20
0.7269241894
 30
0.0
 10
5.3266362813
 20
0.7264802098
 30
0.0
 10
5.3229626935
 20
0.7261680405
 30
0.0
 10
5.3212245709
 20
0.7260103727
 30
0.0
  0
SPLINE
  5
3A0
100
AcDbEntity
  8
ALL_ASSEMBLY_MEMBERS
100
AcDbSpline
 62
7
  6
CONTINUOUS
 70
0
 71
3
 72
55
 73
51
 74
0
 42
0.0000001
 43
0.0000001
 44
0.0000000001
 40
0.0
 40
0.0
 40
0.0
 40
0.0
 40
0.0001762766
 40
0.0003726337
 40
0.0006039029
 40
0.0008793059
 40
0.0012043066
 40
0.0015822043
 40
0.0020150737
 40
0.0025042755
 40
0.0036549612
 40
0.005039105
 40
0.0066591396
 40
0.0085160666
 40
0.0106098557
 40
0.0129400989
 40
0.0155061674
 40
0.0183072875
 40
0.0246110664
 40
0.031842916
 40
0.0399891824
 40
0.0490344433
 40
0.0589630397
 40
0.0697576766
 40
0.0938583817
 40
0.1211570186
 40
0.1514467089
 40
0.1845005022
 40
0.2200667627
 40
0.2578783739
 40
0.2976473098
 40
0.339074232
 40
0.381843913
 40
0.4256336862
 40
0.4701109052
 40
0.5149393361
 40
0.6042903812
 40
0.690984614
 40
0.7325107719
 40
0.7724005895
 40
0.8103513625
 40
0.8460770196
 40
0.8793062593
 40
0.9097888961
 40
0.9372916564
 40
0.9616138072
 40
0.9725243905
 40
0.9825724712
 40
0.9917377308
 40
1.0
 40
1.0
 40
1.0
 40
1.0
 10
5.340057794
 20
0.9054832522
 30
0.0
 10
5.3400578377
 20
0.905525154
 30
0.0
 10
5.3400746027
 20
0.9056142459
 30
0.0
 10
5.3401452831
 20
0.9057411631
 30
0.0
 10
5.3402585452
 20
0.9058654242
 30
0.0
 10
5.3404139531
 20
0.9059885567
 30
0.0
 10
5.3406118199
 20
0.9061114148
 30
0.0
 10
5.3408524808
 20
0.9062342738
 30
0.0
 10
5.3411361363
 20
0.906357247
 30
0.0
 10
5.3415973961
 20
0.9065308713
 30
0.0
 10
5.3422846565
 20
0.9067434695
 30
0.0
 10
5.343241807
 20
0.9069878611
 30
0.0
 10
5.3443712466
 20
0.9072328946
 30
0.0
 10
5.345672586
 20
0.9074784812
 30
0.0
 10
5.3471452879
 20
0.9077244601
 30
0.0
 10
5.3487885793
 20
0.9079707306
 30
0.0
 10
5.3506016629
 20
0.9082172358
 30
0.0
 10
5.3533547289
 20
0.9085597737
 30
0.0
 10
5.3572151578
 20
0.9089826829
 30
0.0
 10
5.3623457376
 20
0.9094734532
 30
0.0
 10
5.3681305293
 20
0.9099650787
 30
0.0
 10
5.3745583458
 20
0.9104574079
 30
0.0
 10
5.3816173249
 20
0.9109502274
 30
0.0
 10
5.3922503365
 20
0.9116330342
 30
0.0
 10
5.4070102836
 20
0.9124758125
 30
0.0
 10
5.4264034881
 20
0.9134562004
 30
0.0
 10
5.447927236
 20
0.9144383492
 30
0.0
 10
5.4714180324
 20
0.9154217236
 30
0.0
 10
5.49669823
 20
0.9164060902
 30
0.0
 10
5.5235757558
 20
0.917391046
 30
0.0
 10
5.5518472521
 20
0.9183765755
 30
0.0
 10
5.5812979785
 20
0.9193624053
 30
0.0
 10
5.6117049824
 20
0.9203485585
 30
0.0
 10
5.6428374226
 20
0.9213348557
 30
0.0
 10
5.6744594733
 20
0.9223213026
 30
0.0
 10
5.7169067154
 20
0.9236351231
 30
0.0
 10
5.769384362
 20
0.9252587785
 30
0.0
 10
5.8210759584
 20
0.9269054065
 30
0.0
 10
5.8610143244
 20
0.9282390701
 30
0.0
 10
5.8893712747
 20
0.9292245949
 30
0.0
 10
5.9163485662
 20
0.9302096434
 30
0.0
 10
5.9417415225
 20
0.9311939813
 30
0.0
 10
5.9653578773
 20
0.9321775415
 30
0.0
 10
5.9870178547
 20
0.9331596732
 30
0.0
 10
6.0065582565
 20
0.9341402662
 30
0.0
 10
6.0214471425
 20
0.9349827724
 30
0.0
 10
6.0321889763
 20
0.9356655619
 30
0.0
 10
6.0393326322
 20
0.9361585739
 30
0.0
 10
6.0458451869
 20
0.9366508895
 30
0.0
 10
6.0499734197
 20
0.9369965658
 30
0.0
 10
6.0519296312
 20
0.9371710965
 30
0.0
  0
SPLINE
  5
3A1
100
AcDbEntity
  8
ALL_ASSEMBLY_MEMBERS
100
AcDbSpline
 62
7
  6
CONTINUOUS
 70
0
 71
3
 72
36
 73
32
 74
0
 42
0.0000001
 43
0.0000001
 44
0.0000000001
 40
0.0
 40
0.0
 40
0.0
 40
0.0
 40
0.0949925718
 40
0.1891747423
 40
0.281617142
 40
0.3715120086
 40
0.4580558359
 40
0.540457209
 40
0.6179750028
 40
0.6899108008
 40
0.7556129109
 40
0.7859404422
 40
0.8144921502
 40
0.8412022124
 40
0.8660135473
 40
0.8888702745
 40
0.9097184357
 40
0.9285143019
 40
0.9452180449
 40
0.9597909627
 40
0.97220377
 40
0.9775936588
 40
0.9824360757
 40
0.986729118
 40
0.9904715252
 40
0.9936640991
 40
0.9963101795
 40
0.9974303879
 40
0.9984170805
 40
0.9992724596
 40
1.0
 40
1.0
 40
1.0
 40
1.0
 10
5.7073976362
 20
0.7313711144
 30
0.0
 10
5.7202516773
 20
0.7317310415
 30
0.0
 10
5.7458500991
 20
0.7324478213
 30
0.0
 10
5.7839572118
 20
0.7335245101
 30
0.0
 10
5.8213739766
 20
0.7346010708
 30
0.0
 10
5.8577563177
 20
0.7356772678
 30
0.0
 10
5.8927788131
 20
0.7367530017
 30
0.0
 10
5.9261250264
 20
0.7378282003
 30
0.0
 10
5.9574927097
 20
0.7389025417
 30
0.0
 10
5.9865984472
 20
0.7399757819
 30
0.0
 10
6.009317434
 20
0.7408915733
 30
0.0
 10
6.026165743
 20
0.7416305789
 30
0.0
 10
6.0377393735
 20
0.7421697323
 30
0.0
 10
6.048565429
 20
0.7427086913
 30
0.0
 10
6.0586195556
 20
0.7432473177
 30
0.0
 10
6.0678789605
 20
0.7437855027
 30
0.0
 10
6.0763225927
 20
0.7443232443
 30
0.0
 10
6.0839314929
 20
0.7448602974
 30
0.0
 10
6.090688676
 20
0.745396219
 30
0.0
 10
6.0965788065
 20
0.7459309246
 30
0.0
 10
6.1009372669
 20
0.7463937549
 30
0.0
 10
6.1039795723
 20
0.7467703786
 30
0.0
 10
6.105927498
 20
0.7470390489
 30
0.0
 10
6.1076501161
 20
0.747307247
 30
0.0
 10
6.1091465024
 20
0.7475748032
 30
0.0
 10
6.1104159546
 20
0.747841593
 30
0.0
 10
6.1113294654
 20
0.7480737202
 30
0.0
 10
6.1119443782
 20
0.7482635336
 30
0.0
 10
6.1123224364
 20
0.7483977102
 30
0.0
 10
6.1126436565
 20
0.7485316469
 30
0.0
 10
6.1128352221
 20
0.7486284207
 30
0.0
 10
6.1129205014
 20
0.7486776859
 30
0.0
  0
SPLINE
  5
3A2
100
AcDbEntity
  8
ALL_ASSEMBLY_MEMBERS
100
AcDbSpline
 62
7
  6
CONTINUOUS
 70
0
 71
3
 72
39
 73
35
 74
0
 42
0.0000001
 43
0.0000001
 44
0.0000000001
 40
0.0
 40
0.0
 40
0.0
 40
0.0
 40
0.0003862804
 40
0.0008272672
 40
0.0013609085
 40
0.0020089971
 40
0.0027836596
 40
0.0036919094
 40
0.0047380268
 40
0.0059247571
 40
0.0087265379
 40
0.0121066459
 40
0.0160691474
 40
0.0206144158
 40
0.0257413255
 40
0.03144806
 40
0.0377323715
 40
0.0445917285
 40
0.060023541
 40
0.0777089192
 40
0.0976049698
 40
0.1196678736
 40
0.1438473788
 40
0.1700826992
 40
0.2284704755
 40
0.294274716
 40
0.366866375
 40
0.4455451501
 40
0.5295591665
 40
0.6180975064
 40
0.7103105272
 40
0.805311019
 40
0.9021845426
 40
1.0
 40
1.0
 40
1.0
 40
1.0
 10
5.3400577615
 20
0.8340532201
 30
0.0
 10
5.3400578076
 20
0.8341006376
 30
0.0
 10
5.3400798048
 20
0.8342028138
 30
0.0
 10
5.3401704848
 20
0.8343457799
 30
0.0
 10
5.3403143454
 20
0.8344852552
 30
0.0
 10
5.3405114752
 20
0.8346235715
 30
0.0
 10
5.3407624851
 20
0.8347617446
 30
0.0
 10
5.3410678802
 20
0.8349000308
 30
0.0
 10
5.3414279108
 20
0.8350385151
 30
0.0
 10
5.3420142457
 20
0.8352343621
 30
0.0
 10
5.3428870792
 20
0.8354739215
 30
0.0
 10
5.3441017699
 20
0.835749209
 30
0.0
 10
5.3455349227
 20
0.8360252534
 30
0.0
 10
5.3471857153
 20
0.8363020012
 30
0.0
 10
5.3490531688
 20
0.836579202
 30
0.0
 10
5.351136122
 20
0.8368567443
 30
0.0
 10
5.3534333983
 20
0.8371345558
 30
0.0
 10
5.3569199035
 20
0.8375205585
 30
0.0
 10
5.3618042128
 20
0.8379969608
 30
0.0
 10
5.3682883703
 20
0.8385500382
 30
0.0
 10
5.3755890543
 20
0.8391041256
 30
0.0
 10
5.3836889062
 20
0.8396589315
 30
0.0
 10
5.3925685499
 20
0.8402142197
 30
0.0
 10
5.4059024288
 20
0.8409829261
 30
0.0
 10
5.4243438088
 20
0.8419314088
 30
0.0
 10
5.4484746464
 20
0.8430359617
 30
0.0
 10
5.4750985615
 20
0.8441423011
 30
0.0
 10
5.503959496
 20
0.8452501848
 30
0.0
 10
5.5347792586
 20
0.8463589637
 30
0.0
 10
5.5672613906
 20
0.8474685133
 30
0.0
 10
5.6010928926
 20
0.8485785382
 30
0.0
 10
5.635948093
 20
0.8496889083
 30
0.0
 10
5.6714913489
 20
0.8507995049
 30
0.0
 10
5.6953788039
 20
0.8515387676
 30
0.0
 10
5.7073803168
 20
0.8519101902
 30
0.0
  0
LINE
  5
3A3
100
AcDbEntity
  8
ALL_ASSEMBLY_MEMBERS
100
AcDbLine
 62
7
  6
CONTINUOUS
 10
5.7100904863
 20
0.8519940652
 11
5.7704877122
 21
0.8538729703
  0
LINE
  5
3A4
100
AcDbEntity
  8
ALL_ASSEMBLY_MEMBERS
100
AcDbLine
 62
7
  6
CONTINUOUS
 10
5.7713346144
 20
0.8538995809
 11
5.7866964097
 21
0.8543843383
  0
LINE
  5
3A5
100
AcDbEntity
  8
ALL_ASSEMBLY_MEMBERS
100
AcDbLine
 62
7
  6
CONTINUOUS
 10
5.7873760073
 20
0.8544058829
 11
5.7903185188
 21
0.8544992729
  0
LINE
  5
3A6
100
AcDbEntity
  8
ALL_ASSEMBLY_MEMBERS
100
AcDbLine
 62
7
  6
CONTINUOUS
 10
5.7903185188
 20
0.8544992729
 11
5.7927596947
 21
0.8545768866
  0
LINE
  5
3A7
100
AcDbEntity
  8
ALL_ASSEMBLY_MEMBERS
100
AcDbLine
 62
7
  6
CONTINUOUS
 10
5.7927596947
 20
0.8545768866
 11
5.8291655257
 21
0.8557518754
  0
SPLINE
  5
3A8
100
AcDbEntity
  8
ALL_ASSEMBLY_MEMBERS
100
AcDbSpline
 62
7
  6
CONTINUOUS
 70
0
 71
3
 72
30
 73
26
 74
0
 42
0.0000001
 43
0.0000001
 44
0.0000000001
 40
0.0
 40
0.0
 40
0.0
 40
0.0
 40
0.2020011433
 40
0.2975930467
 40
0.3888772134
 40
0.4753651784
 40
0.5565820674
 40
0.632093799
 40
0.7014883615
 40
0.7643924193
 40
0.8204692837
 40
0.8694139278
 40
0.8911327559
 40
0.91097521
 40
0.9289136851
 40
0.9449287663
 40
0.9590033782
 40
0.9711218692
 40
0.9812715768
 40
0.9856074259
 40
0.9894520024
 40
0.9928076533
 40
0.9956784341
 40
0.9980714802
 40
1.0
 40
1.0
 40
1.0
 40
1.0
 10
5.8291655257
 20
0.8557518754
 30
0.0
 10
5.8456947041
 20
0.856294071
 30
0.0
 10
5.870045275
 20
0.8571123452
 30
0.0
 10
5.9018629074
 20
0.8582465291
 30
0.0
 10
5.9242279799
 20
0.8590812614
 30
0.0
 10
5.9454153127
 20
0.8599155102
 30
0.0
 10
5.9653102961
 20
0.8607493741
 30
0.0
 10
5.9838045455
 20
0.8615825192
 30
0.0
 10
6.0007979019
 20
0.8624148511
 30
0.0
 10
6.0161980981
 20
0.8632459606
 30
0.0
 10
6.0299214213
 20
0.8640754224
 30
0.0
 10
6.0402733727
 20
0.8647901056
 30
0.0
 10
6.047660548
 20
0.8653697104
 30
0.0
 10
6.0525140487
 20
0.8657865441
 30
0.0
 10
6.0568987372
 20
0.8662029509
 30
0.0
 10
6.0608089128
 20
0.8666187389
 30
0.0
 10
6.0642397327
 20
0.867033535
 30
0.0
 10
6.06718647
 20
0.8674471068
 30
0.0
 10
6.0693352358
 20
0.8678062243
 30
0.0
 10
6.0708071409
 20
0.868099451
 30
0.0
 10
6.071728582
 20
0.8683073555
 30
0.0
 10
6.0725267538
 20
0.8685148085
 30
0.0
 10
6.0732018005
 20
0.8687216905
 30
0.0
 10
6.0737537464
 20
0.8689277898
 30
0.0
 10
6.0740740249
 20
0.869080439
 30
0.0
 10
6.0742107358
 20
0.8691594291
 30
0.0
  0
SPLINE
  5
3A9
100
AcDbEntity
  8
ALL_ASSEMBLY_MEMBERS
100
AcDbSpline
 62
7
  6
CONTINUOUS
 70
0
 71
3
 72
36
 73
32
 74
0
 42
0.0000001
 43
0.0000001
 44
0.0000000001
 40
0.0
 40
0.0
 40
0.0
 40
0.0
 40
0.094992465
 40
0.1891754744
 40
0.2816196256
 40
0.371516658
 40
0.4580624877
 40
0.5404639082
 40
0.617980963
 40
0.6899157421
 40
0.7556171025
 40
0.7859440984
 40
0.8144955572
 40
0.8412052539
 40
0.8660160717
 40
0.8888724797
 40
0.9097204534
 40
0.928515879
 40
0.9452192611
 40
0.9597920795
 40
0.9722045694
 40
0.9775942787
 40
0.9824365566
 40
0.9867295411
 40
0.9904719714
 40
0.9936644926
 40
0.9963104559
 40
0.9974305934
 40
0.9984172131
 40
0.9992725222
 40
1.0
 40
1.0
 40
1.0
 40
1.0
 10
5.7073976362
 20
0.8028010839
 30
0.0
 10
5.7202516641
 20
0.8031610103
 30
0.0
 10
5.7458501874
 20
0.8038777923
 30
0.0
 10
5.7839576398
 20
0.80495449
 30
0.0
 10
5.8213750518
 20
0.8060310682
 30
0.0
 10
5.8577581972
 20
0.8071072919
 30
0.0
 10
5.8927812665
 20
0.8081830426
 30
0.0
 10
5.92612766
 20
0.8092582542
 30
0.0
 10
5.9574951149
 20
0.8103325881
 30
0.0
 10
5.9866005155
 20
0.8114058291
 30
0.0
 10
6.0093191928
 20
0.8123216068
 30
0.0
 10
6.0261672954
 20
0.8130606153
 30
0.0
 10
6.0377407716
 20
0.8135997605
 30
0.0
 10
6.0485666749
 20
0.8141387157
 30
0.0
 10
6.0586206395
 20
0.8146773433
 30
0.0
 10
6.0678799066
 20
0.8152155249
 30
0.0
 10
6.0763234118
 20
0.8157532556
 30
0.0
 10
6.0839321786
 20
0.8162903091
 30
0.0
 10
6.0906892397
 20
0.8168262333
 30
0.0
 10
6.0965792663
 20
0.817360926
 30
0.0
 10
6.1009376455
 20
0.8178237606
 30
0.0
 10
6.1039798644
 20
0.8182003857
 30
0.0
 10
6.1059277389
 20
0.8184690553
 30
0.0
 10
6.1076503335
 20
0.818737252
 30
0.0
 10
6.10914671
 20
0.8190047963
 30
0.0
 10
6.1104161437
 20
0.8192715789
 30
0.0
 10
6.1113296225
 20
0.8195037005
 30
0.0
 10
6.1119444999
 20
0.819693509
 30
0.0
 10
6.112322529
 20
0.819827681
 30
0.0
 10
6.112643721
 20
0.8199616131
 30
0.0
 10
6.1128352682
 20
0.8200583836
 30
0.0
 10
6.1129205387
 20
0.820107647
 30
0.0
  0
SPLINE
  5
3AA
100
AcDbEntity
  8
ALL_ASSEMBLY_MEMBERS
100
AcDbSpline
 62
7
  6
CONTINUOUS
 70
0
 71
3
 72
22
 73
18
 74
0
 42
0.0000001
 43
0.0000001
 44
0.0000000001
 40
0.0
 40
0.0
 40
0.0
 40
0.0
 40
0.0576876381
 40
0.1098202828
 40
0.1574277281
 40
0.2018557086
 40
0.2447504133
 40
0.287933845
 40
0.3331895477
 40
0.3820632854
 40
0.4357786063
 40
0.4952514062
 40
0.5611493175
 40
0.6339556261
 40
0.7140215297
 40
0.8016044723
 40
1.0
 40
1.0
 40
1.0
 40
1.0
 10
6.1074664712
 20
0.9044422278
 30
0.0
 10
6.1075846348
 20
0.9043240661
 30
0.0
 10
6.1077989628
 20
0.9040879126
 30
0.0
 10
6.1080613534
 20
0.9037131873
 30
0.0
 10
6.1082464621
 20
0.9033366286
 30
0.0
 10
6.1083529132
 20
0.9029579688
 30
0.0
 10
6.1083791361
 20
0.9025780283
 30
0.0
 10
6.1083245452
 20
0.9021987605
 30
0.0
 10
6.1081902742
 20
0.9018218821
 30
0.0
 10
6.1079781601
 20
0.9014477721
 30
0.0
 10
6.1076894723
 20
0.9010759038
 30
0.0
 10
6.1073248142
 20
0.9007055791
 30
0.0
 10
6.1068843979
 20
0.9003362627
 30
0.0
 10
6.1063682888
 20
0.8999676318
 30
0.0
 10
6.1057765286
 20
0.8995994732
 30
0.0
 10
6.1048474706
 20
0.8990876695
 30
0.0
 10
6.104095194
 20
0.8987381166
 30
0.0
 10
6.1035672298
 20
0.8985110956
 30
0.0
  0
LINE
  5
3AB
100
AcDbEntity
  8
ALL_ASSEMBLY_MEMBERS
100
AcDbLine
 62
7
  6
CONTINUOUS
 10
5.3405844822
 20
0.8882320558
 11
5.3413005917
 21
0.8885587256
  0
SPLINE
  5
3AC
100
AcDbEntity
  8
ALL_ASSEMBLY_MEMBERS
100
AcDbSpline
 62
7
  6
CONTINUOUS
 70
0
 71
3
 72
63
 73
59
 74
0
 42
0.0000001
 43
0.0000001
 44
0.0000000001
 40
0.0
 40
0.0
 40
0.0
 40
0.0
 40
0.0011835512
 40
0.002639676
 40
0.0043709833
 40
0.0063785367
 40
0.0086625998
 40
0.0112229829
 40
0.0171703189
 40
0.024210455
 40
0.0323278724
 40
0.041506187
 40
0.0517266898
 40
0.0629650498
 40
0.07519583
 40
0.1025263969
 40
0.1334686016
 40
0.1677440234
 40
0.2050386966
 40
0.2450140043
 40
0.2873054364
 40
0.3315267444
 40
0.3772756027
 40
0.4241336184
 40
0.4716740969
 40
0.5194626955
 40
0.5670638611
 40
0.6140427081
 40
0.659971389
 40
0.7044299658
 40
0.7470137724
 40
0.7873340974
 40
0.8250230172
 40
0.8597384966
 40
0.8911623833
 40
0.9190117648
 40
0.9315144401
 40
0.9430321836
 40
0.9535387257
 40
0.963009117
 40
0.9714240496
 40
0.9787661455
 40
0.982029646
 40
0.9850189322
 40
0.9877330101
 40
0.9901711952
 40
0.9923330168
 40
0.9942183462
 40
0.9958276337
 40
0.9971623912
 40
0.9977279905
 40
0.998226833
 40
0.9986603255
 40
0.9990306289
 40
0.9993412355
 40
0.999598096
 40
0.9998117159
 40
1.0
 40
1.0
 40
1.0
 40
1.0
 10
5.3413005917
 20
0.8885587256
 30
0.0
 10
5.3415719385
 20
0.8886608944
 30
0.0
 10
5.3421886376
 20
0.8888579413
 30
0.0
 10
5.3432257872
 20
0.8891253059
 30
0.0
 10
5.3444701001
 20
0.8893937347
 30
0.0
 10
5.3459209565
 20
0.8896629482
 30
0.0
 10
5.3475778382
 20
0.8899327186
 30
0.0
 10
5.3501943241
 20
0.8903121218
 30
0.0
 10
5.3539750827
 20
0.8907773854
 30
0.0
 10
5.3591175524
 20
0.8913141105
 30
0.0
 10
5.365055109
 20
0.8918523492
 30
0.0
 10
5.3717744539
 20
0.892391748
 30
0.0
 10
5.3792605016
 20
0.8929317875
 30
0.0
 10
5.3874960396
 20
0.893472491
 30
0.0
 10
5.399918305
 20
0.8942220512
 30
0.0
 10
5.4171655621
 20
0.8951463147
 30
0.0
 10
5.439812401
 20
0.8962218142
 30
0.0
 10
5.4649026167
 20
0.8972990709
 30
0.0
 10
5.4922075247
 20
0.8983779227
 30
0.0
 10
5.5214775601
 20
0.8994577409
 30
0.0
 10
5.5524455238
 20
0.9005382989
 30
0.0
 10
5.584828679
 20
0.9016194124
 30
0.0
 10
5.6183311343
 20
0.9027008613
 30
0.0
 10
5.6526471153
 20
0.9037825943
 30
0.0
 10
5.6874630273
 20
0.9048644442
 30
0.0
 10
5.7224610794
 20
0.9059463671
 30
0.0
 10
5.7573214804
 20
0.9070282299
 30
0.0
 10
5.7917260248
 20
0.9081099879
 30
0.0
 10
5.8253603258
 20
0.9091914804
 30
0.0
 10
5.8579173783
 20
0.9102726506
 30
0.0
 10
5.88909974
 20
0.9113532977
 30
0.0
 10
5.9186226689
 20
0.9124332285
 30
0.0
 10
5.9462166989
 20
0.913512247
 30
0.0
 10
5.9716295812
 20
0.9145897389
 30
0.0
 10
5.9946296953
 20
0.9156655661
 30
0.0
 10
6.0121891057
 20
0.9165894641
 30
0.0
 10
6.0248740249
 20
0.9173383196
 30
0.0
 10
6.0333151079
 20
0.9178791417
 30
0.0
 10
6.0410117328
 20
0.9184193708
 30
0.0
 10
6.0479462417
 20
0.9189589774
 30
0.0
 10
6.0541029882
 20
0.9194976737
 30
0.0
 10
6.0587396426
 20
0.9199616395
 30
0.0
 10
6.0620488607
 20
0.9203375044
 30
0.0
 10
6.0642288689
 20
0.920608054
 30
0.0
 10
6.0662050315
 20
0.9208783501
 30
0.0
 10
6.0679764563
 20
0.9211483206
 30
0.0
 10
6.0695423074
 20
0.9214178582
 30
0.0
 10
6.0709018874
 20
0.9216867267
 30
0.0
 10
6.072054438
 20
0.9219548029
 30
0.0
 10
6.0728825819
 20
0.9221880575
 30
0.0
 10
6.0734386973
 20
0.9223787686
 30
0.0
 10
6.0737801433
 20
0.922513654
 30
0.0
 10
6.0740697029
 20
0.9226483624
 30
0.0
 10
6.0743076452
 20
0.9227829874
 30
0.0
 10
6.0744944613
 20
0.922917795
 30
0.0
 10
6.0746307163
 20
0.9230537709
 30
0.0
 10
6.074716349
 20
0.9231930537
 30
0.0
 10
6.0747369617
 20
0.923292125
 30
0.0
 10
6.0747369889
 20
0.9233382504
 30
0.0
  0
SPLINE
  5
3AD
100
AcDbEntity
  8
ALL_ASSEMBLY_MEMBERS
100
AcDbSpline
 62
7
  6
CONTINUOUS
 70
0
 71
3
 72
38
 73
34
 74
0
 42
0.0000001
 43
0.0000001
 44
0.0000000001
 40
0.0
 40
0.0
 40
0.0
 40
0.0
 40
0.0003733706
 40
0.000871403
 40
0.0015033102
 40
0.0022734421
 40
0.0031841079
 40
0.0042366384
 40
0.0067700988
 40
0.009877522
 40
0.0135602352
 40
0.0178184574
 40
0.0226505605
 40
0.0280539014
 40
0.0340256499
 40
0.0476624554
 40
0.0635359333
 40
0.0816107154
 40
0.1018443746
 40
0.1241939135
 40
0.148609023
 40
0.1750305556
 40
0.2033987464
 40
0.2336494956
 40
0.299503248
 40
0.3719760348
 40
0.4503771004
 40
0.5339608371
 40
0.6219271779
 40
0.7134147801
 40
0.8075385893
 40
0.9034075215
 40
1.0
 40
1.0
 40
1.0
 40
1.0
 10
5.3199683645
 20
0.9170818079
 30
0.0
 10
5.3200024982
 20
0.9171159195
 30
0.0
 10
5.3200958214
 20
0.9171812836
 30
0.0
 10
5.3202707402
 20
0.9172662418
 30
0.0
 10
5.3205012877
 20
0.9173518368
 30
0.0
 10
5.320787674
 20
0.9174377834
 30
0.0
 10
5.3211303434
 20
0.9175240875
 30
0.0
 10
5.3216984097
 20
0.9176471753
 30
0.0
 10
5.3225507186
 20
0.9177970245
 30
0.0
 10
5.3237435225
 20
0.9179689605
 30
0.0
 10
5.3251610994
 20
0.9181416111
 30
0.0
 10
5.3268028981
 20
0.9183148566
 30
0.0
 10
5.3286681208
 20
0.9184885013
 30
0.0
 10
5.3307556248
 20
0.9186624935
 30
0.0
 10
5.3339791784
 20
0.918905721
 30
0.0
 10
5.3385553989
 20
0.9192053567
 30
0.0
 10
5.3446958369
 20
0.9195523812
 30
0.0
 10
5.3516900271
 20
0.9199004541
 30
0.0
 10
5.3595220888
 20
0.9202494963
 30
0.0
 10
5.3681743151
 20
0.9205992291
 30
0.0
 10
5.37762687
 20
0.9209495619
 30
0.0
 10
5.387857782
 20
0.9213004839
 30
0.0
 10
5.3988433221
 20
0.9216519168
 30
0.0
 10
5.4149236937
 20
0.9221348397
 30
0.0
 10
5.4367034568
 20
0.922733731
 30
0.0
 10
5.4647058737
 20
0.9234359895
 30
0.0
 10
5.4950004343
 20
0.9241403704
 30
0.0
 10
5.5272979369
 20
0.9248466634
 30
0.0
 10
5.5612871693
 20
0.9255546685
 30
0.0
 10
5.5966389144
 20
0.9262643144
 30
0.0
 10
5.6330122069
 20
0.9269755215
 30
0.0
 10
5.6700453808
 20
0.9276881427
 30
0.0
 10
5.694915724
 20
0.9281638218
 30
0.0
 10
5.7073976361
 20
0.9284030108
 30
0.0
  0
LINE
  5
3AE
100
AcDbEntity
  8
ALL_ASSEMBLY_MEMBERS
100
AcDbLine
 62
7
  6
CONTINUOUS
 10
5.3405845958
 20
0.6739420531
 11
5.3409842127
 21
0.6741406368
  0
SPLINE
  5
3AF
100
AcDbEntity
  8
ALL_ASSEMBLY_MEMBERS
100
AcDbSpline
 62
7
  6
CONTINUOUS
 70
0
 71
3
 72
22
 73
18
 74
0
 42
0.0000001
 43
0.0000001
 44
0.0000000001
 40
0.0
 40
0.0
 40
0.0
 40
0.0
 40
0.0078349307
 40
0.0171737053
 40
0.0280394236
 40
0.0404455993
 40
0.0699068634
 40
0.1055881009
 40
0.1474694464
 40
0.1955106065
 40
0.2496649696
 40
0.3098822284
 40
0.3761009471
 40
0.4482359193
 40
0.6098945404
 40
0.7941169883
 40
1.0
 40
1.0
 40
1.0
 40
1.0
 10
5.3409842127
 20
0.6741406368
 30
0.0
 10
5.3411519715
 20
0.6742137729
 30
0.0
 10
5.3415273166
 20
0.6743565614
 30
0.0
 10
5.3421523276
 20
0.6745529879
 30
0.0
 10
5.3428883463
 20
0.6747499338
 30
0.0
 10
5.3440881579
 20
0.6750292476
 30
0.0
 10
5.3458677648
 20
0.6753702676
 30
0.0
 10
5.3483369672
 20
0.6757619828
 30
0.0
 10
5.3512445807
 20
0.6761550089
 30
0.0
 10
5.3545868758
 20
0.6765491449
 30
0.0
 10
5.3583599921
 20
0.6769439715
 30
0.0
 10
5.3625597087
 20
0.677339285
 30
0.0
 10
5.3671810599
 20
0.6777349344
 30
0.0
 10
5.3741672394
 20
0.6782839501
 30
0.0
 10
5.3839078757
 20
0.6789616965
 30
0.0
 10
5.3967719664
 20
0.6797492085
 30
0.0
 10
5.4058704139
 20
0.6802482556
 30
0.0
 10
5.4106728058
 20
0.6805003864
 30
0.0
  0
SPLINE
  5
3B0
100
AcDbEntity
  8
ALL_ASSEMBLY_MEMBERS
100
AcDbSpline
 62
7
  6
CONTINUOUS
 70
0
 71
3
 72
48
 73
44
 74
0
 42
0.0000001
 43
0.0000001
 44
0.0000000001
 40
0.0
 40
0.0
 40
0.0
 40
0.0
 40
0.0269256878
 40
0.0564289431
 40
0.088327813
 40
0.1224280906
 40
0.1963798074
 40
0.2764696267
 40
0.3607314189
 40
0.4470961282
 40
0.5334428444
 40
0.6176510994
 40
0.6583039702
 40
0.6976531656
 40
0.7354579748
 40
0.7714850769
 40
0.8055139801
 40
0.8373352768
 40
0.8667538575
 40
0.8935898437
 40
0.9176782687
 40
0.9388738086
 40
0.9483447602
 40
0.9570463459
 40
0.9649656858
 40
0.9720901104
 40
0.9784092576
 40
0.9839160212
 40
0.9863628173
 40
0.9886042763
 40
0.9906398276
 40
0.9924690611
 40
0.9940920604
 40
0.9955096469
 40
0.99672328
 40
0.9977355153
 40
0.9985510695
 40
0.9988879869
 40
0.9991800911
 40
0.9994305845
 40
0.9996445779
 40
0.9998302581
 40
1.0
 40
1.0
 40
1.0
 40
1.0
 10
5.4106728058
 20
0.6805003864
 30
0.0
 10
5.4166349399
 20
0.6808134048
 30
0.0
 10
5.4291318789
 20
0.6814329551
 30
0.0
 10
5.4486971517
 20
0.6823192175
 30
0.0
 10
5.4698547404
 20
0.6832063805
 30
0.0
 10
5.5008627965
 20
0.6844231019
 30
0.0
 10
5.5425533925
 20
0.6859230169
 30
0.0
 10
5.5953641265
 20
0.6876820755
 30
0.0
 10
5.6509286124
 20
0.6894433059
 30
0.0
 10
5.7078810978
 20
0.691205649
 30
0.0
 10
5.764821705
 20
0.6929680152
 30
0.0
 10
5.8116301814
 20
0.6944525486
 30
0.0
 10
5.8480214682
 20
0.6956519457
 30
0.0
 10
5.8741281593
 20
0.6965407804
 30
0.0
 10
5.8992085557
 20
0.6974292904
 30
0.0
 10
5.9231085018
 20
0.6983174799
 30
0.0
 10
5.9456807551
 20
0.6992051755
 30
0.0
 10
5.9667864986
 20
0.7000922528
 30
0.0
 10
5.986295853
 20
0.700978519
 30
0.0
 10
6.0040887184
 20
0.701863537
 30
0.0
 10
6.0200558381
 20
0.702747145
 30
0.0
 10
6.0321732582
 20
0.7035069678
 30
0.0
 10
6.0408808033
 20
0.7041227706
 30
0.0
 10
6.0466492474
 20
0.7045667703
 30
0.0
 10
6.0518957482
 20
0.7050102915
 30
0.0
 10
6.0566119713
 20
0.7054532372
 30
0.0
 10
6.0607906735
 20
0.7058955336
 30
0.0
 10
6.0639325985
 20
0.706276576
 30
0.0
 10
6.0661720667
 20
0.7065851829
 30
0.0
 10
6.0676463779
 20
0.7068072676
 30
0.0
 10
6.0689821014
 20
0.7070291419
 30
0.0
 10
6.070178661
 20
0.7072507785
 30
0.0
 10
6.0712356726
 20
0.7074721003
 30
0.0
 10
6.0721529214
 20
0.7076929781
 30
0.0
 10
6.072930559
 20
0.7079131807
 30
0.0
 10
6.0735685946
 20
0.70813262
 30
0.0
 10
6.0740095985
 20
0.708324804
 30
0.0
 10
6.0742886106
 20
0.7084827545
 30
0.0
 10
6.0744494278
 20
0.7085936596
 30
0.0
 10
6.0745757149
 20
0.7087048787
 30
0.0
 10
6.0746675674
 20
0.7088171275
 30
0.0
 10
6.0747244054
 20
0.7089313782
 30
0.0
 10
6.0747376337
 20
0.7090106163
 30
0.0
 10
6.074737635
 20
0.7090482539
 30
0.0
  0
SPLINE
  5
3B1
100
AcDbEntity
  8
ALL_ASSEMBLY_MEMBERS
100
AcDbSpline
 62
7
  6
CONTINUOUS
 70
0
 71
3
 72
18
 73
14
 74
0
 42
0.0000001
 43
0.0000001
 44
0.0000000001
 40
0.0
 40
0.0
 40
0.0
 40
0.0
 40
0.0232591265
 40
0.051513634
 40
0.0849081934
 40
0.1235277876
 40
0.1674253344
 40
0.2166351798
 40
0.3310392667
 40
0.4667114481
 40
0.6235321945
 40
0.8013510416
 40
1.0
 40
1.0
 40
1.0
 40
1.0
 10
5.3405842611
 20
0.7453720393
 30
0.0
 10
5.3407031798
 20
0.7454407947
 30
0.0
 10
5.3409771585
 20
0.7455746402
 30
0.0
 10
5.3414445439
 20
0.7457570887
 30
0.0
 10
5.3420080227
 20
0.7459400632
 30
0.0
 10
5.3426677094
 20
0.7461234345
 30
0.0
 10
5.3434237793
 20
0.7463071443
 30
0.0
 10
5.344621862
 20
0.746565542
 30
0.0
 10
5.3463611562
 20
0.7468825101
 30
0.0
 10
5.3487364337
 20
0.7472480426
 30
0.0
 10
5.3514898956
 20
0.7476144688
 30
0.0
 10
5.3546180296
 20
0.7479815531
 30
0.0
 10
5.356829283
 20
0.7482136992
 30
0.0
 10
5.357996617
 20
0.7483307342
 30
0.0
  0
SPLINE
  5
3B2
100
AcDbEntity
  8
ALL_ASSEMBLY_MEMBERS
100
AcDbSpline
 62
7
  6
CONTINUOUS
 70
0
 71
3
 72
18
 73
14
 74
0
 42
0.0000001
 43
0.0000001
 44
0.0000000001
 40
0.0
 40
0.0
 40
0.0
 40
0.0
 40
0.0216821738
 40
0.048566159
 40
0.0808050604
 40
0.1184843128
 40
0.1616549262
 40
0.2103487617
 40
0.3243593496
 40
0.4604835113
 40
0.6185806013
 40
0.7984812118
 40
1.0
 40
1.0
 40
1.0
 40
1.0
 10
5.3018742891
 20
0.7229938027
 30
0.0
 10
5.3019971979
 20
0.7230648403
 30
0.0
 10
5.3022849616
 20
0.7232021813
 30
0.0
 10
5.3027807471
 20
0.7233876833
 30
0.0
 10
5.303386905
 20
0.7235738865
 30
0.0
 10
5.3041035626
 20
0.7237606065
 30
0.0
 10
5.3049309526
 20
0.7239477423
 30
0.0
 10
5.3062529022
 20
0.7242117064
 30
0.0
 10
5.3081829754
 20
0.7245349681
 30
0.0
 10
5.3108299248
 20
0.7249073252
 30
0.0
 10
5.3139117912
 20
0.7252807037
 30
0.0
 10
5.3174244174
 20
0.7256548394
 30
0.0
 10
5.3199105501
 20
0.7258911759
 30
0.0
 10
5.3212245709
 20
0.7260103727
 30
0.0
  0
LINE
  5
3B3
100
AcDbEntity
  8
ALL_ASSEMBLY_MEMBERS
100
AcDbLine
 62
7
  6
CONTINUOUS
 10
5.3405848709
 20
0.8168020242
 11
5.340741312
 21
0.8168866402
  0
SPLINE
  5
3B4
100
AcDbEntity
  8
ALL_ASSEMBLY_MEMBERS
100
AcDbSpline
 62
7
  6
CONTINUOUS
 70
0
 71
3
 72
67
 73
63
 74
0
 42
0.0000001
 43
0.0000001
 44
0.0000000001
 40
0.0
 40
0.0
 40
0.0
 40
0.0
 40
0.0004431505
 40
0.0009526431
 40
0.0021754419
 40
0.0036751315
 40
0.0054542676
 40
0.0075135799
 40
0.0098530312
 40
0.0124721501
 40
0.0153701998
 40
0.0219991463
 40
0.0297275204
 40
0.0385373654
 40
0.048409933
 40
0.0593246653
 40
0.0712553085
 40
0.0841742069
 40
0.0980533264
 40
0.1285603478
 40
0.1624948495
 40
0.1995433134
 40
0.2393650496
 40
0.2815902227
 40
0.3258300811
 40
0.37167434
 40
0.4186995176
 40
0.4664704638
 40
0.514545193
 40
0.562478958
 40
0.6098283135
 40
0.6561553269
 40
0.701031031
 40
0.7440413579
 40
0.7847870634
 40
0.8228933207
 40
0.8580065704
 40
0.8898035275
 40
0.9043654323
 40
0.9179917156
 40
0.9306495749
 40
0.9423104983
 40
0.9529492434
 40
0.9625408054
 40
0.9710627539
 40
0.9784983614
 40
0.9818039859
 40
0.9848323469
 40
0.9875817463
 40
0.9900511942
 40
0.9922404082
 40
0.9941494631
 40
0.9957790098
 40
0.9971307545
 40
0.9977036315
 40
0.9982088322
 40
0.998647662
 40
0.9990222481
 40
0.999336131
 40
0.9995953445
 40
0.9998105559
 40
1.0
 40
1.0
 40
1.0
 40
1.0
 10
5.340741312
 20
0.8168866402
 30
0.0
 10
5.3408381844
 20
0.8169358443
 30
0.0
 10
5.3410508681
 20
0.8170329226
 30
0.0
 10
5.3415483103
 20
0.8172259172
 30
0.0
 10
5.3423058796
 20
0.8174610982
 30
0.0
 10
5.3433764824
 20
0.8177304955
 30
0.0
 10
5.3446573442
 20
0.8180008208
 30
0.0
 10
5.346147721
 20
0.8182719612
 30
0.0
 10
5.3478469037
 20
0.8185436061
 30
0.0
 10
5.3497539643
 20
0.8188156597
 30
0.0
 10
5.3527076479
 20
0.8191960229
 30
0.0
 10
5.3569126704
 20
0.8196640063
 30
0.0
 10
5.3625671076
 20
0.8202053781
 30
0.0
 10
5.3690198808
 20
0.8207480154
 30
0.0
 10
5.3762562314
 20
0.8212916179
 30
0.0
 10
5.3842596388
 20
0.8218357574
 30
0.0
 10
5.3930114776
 20
0.8223804275
 30
0.0
 10
5.4024913932
 20
0.8229255333
 30
0.0
 10
5.4165214647
 20
0.8236765115
 30
0.0
 10
5.4357018764
 20
0.8246051723
 30
0.0
 10
5.460561745
 20
0.8256896658
 30
0.0
 10
5.4877073224
 20
0.8267756662
 30
0.0
 10
5.5168870704
 20
0.827862741
 30
0.0
 10
5.5478311277
 20
0.8289506751
 30
0.0
 10
5.5802526413
 20
0.8300391242
 30
0.0
 10
5.6138516474
 20
0.8311280131
 30
0.0
 10
5.6483168425
 20
0.8322171566
 30
0.0
 10
5.6833291692
 20
0.8333064656
 30
0.0
 10
5.718564369
 20
0.8343958384
 30
0.0
 10
5.7536961544
 20
0.8354851809
 30
0.0
 10
5.788399229
 20
0.8365744029
 30
0.0
 10
5.8223521571
 20
0.8376633822
 30
0.0
 10
5.855240686
 20
0.8387520416
 30
0.0
 10
5.886760026
 20
0.8398401408
 30
0.0
 10
5.9166186114
 20
0.8409276142
 30
0.0
 10
5.9445396671
 20
0.8420140034
 30
0.0
 10
5.9702649194
 20
0.843099164
 30
0.0
 10
5.9902189083
 20
0.8440268326
 30
0.0
 10
6.0049070588
 20
0.8447763645
 30
0.0
 10
6.0149069182
 20
0.8453216023
 30
0.0
 10
6.0241943972
 20
0.845866563
 30
0.0
 10
6.0327480542
 20
0.8464111635
 30
0.0
 10
6.0405482968
 20
0.8469551902
 30
0.0
 10
6.0475769376
 20
0.8474984517
 30
0.0
 10
6.0538176767
 20
0.8480409285
 30
0.0
 10
6.0585176801
 20
0.848508158
 30
0.0
 10
6.0618724935
 20
0.8488866296
 30
0.0
 10
6.0640828959
 20
0.8491590288
 30
0.0
 10
6.0660866206
 20
0.8494311866
 30
0.0
 10
6.0678825689
 20
0.8497030432
 30
0.0
 10
6.0694699279
 20
0.8499744651
 30
0.0
 10
6.0708481459
 20
0.8502452166
 30
0.0
 10
6.0720166136
 20
0.8505151763
 30
0.0
 10
6.0728563786
 20
0.850750057
 30
0.0
 10
6.0734204987
 20
0.8509420694
 30
0.0
 10
6.07376691
 20
0.8510778728
 30
0.0
 10
6.0740606564
 20
0.8512134975
 30
0.0
 10
6.0743019727
 20
0.8513490428
 30
0.0
 10
6.0744913678
 20
0.8514847642
 30
0.0
 10
6.0746294465
 20
0.8516216598
 30
0.0
 10
6.0747161984
 20
0.8517619264
 30
0.0
 10
6.0747370157
 20
0.8518617885
 30
0.0
 10
6.0747369882
 20
0.8519082366
 30
0.0
  0
SPLINE
  5
3B5
100
AcDbEntity
  8
ALL_ASSEMBLY_MEMBERS
100
AcDbSpline
 62
7
  6
CONTINUOUS
 70
0
 71
3
 72
23
 73
19
 74
0
 42
0.0000001
 43
0.0000001
 44
0.0000000001
 40
0.0
 40
0.0
 40
0.0
 40
0.0
 40
0.0104028252
 40
0.0225608399
 40
0.0364512245
 40
0.0520501342
 40
0.069330093
 40
0.0882598514
 40
0.1309404634
 40
0.1797961621
 40
0.234481691
 40
0.2946069976
 40
0.3597483796
 40
0.4294402138
 40
0.5031909562
 40
0.6607455559
 40
0.8279267335
 40
1.0
 40
1.0
 40
1.0
 40
1.0
 10
6.1035672298
 20
0.8985110956
 30
0.0
 10
6.1022033873
 20
0.8983364948
 30
0.0
 10
6.0992408444
 20
0.8979948875
 30
0.0
 10
6.0944462816
 20
0.8975203161
 30
0.0
 10
6.0889621237
 20
0.8970444549
 30
0.0
 10
6.082798822
 20
0.8965678334
 30
0.0
 10
6.0759677059
 20
0.8960907232
 30
0.0
 10
6.0655616136
 20
0.8954271689
 30
0.0
 10
6.0509836778
 20
0.8946096822
 30
0.0
 10
6.0316803155
 20
0.8936605086
 30
0.0
 10
6.0100688425
 20
0.8927095369
 30
0.0
 10
5.9863030401
 20
0.8917570286
 30
0.0
 10
5.9605523856
 20
0.8908036112
 30
0.0
 10
5.9329997025
 20
0.8898493411
 30
0.0
 10
5.8932372664
 20
0.8885475479
 30
0.0
 10
5.8405924945
 20
0.8869421583
 30
0.0
 10
5.7749549172
 20
0.8850519559
 30
0.0
 10
5.730132178
 20
0.8837969835
 30
0.0
 10
5.7073976362
 20
0.8831603919
 30
0.0
  0
SPLINE
  5
3B6
100
AcDbEntity
  8
ALL_ASSEMBLY_MEMBERS
100
AcDbSpline
 62
7
  6
CONTINUOUS
 70
0
 71
3
 72
66
 73
62
 74
0
 42
0.0000001
 43
0.0000001
 44
0.0000000001
 40
0.0
 40
0.0
 40
0.0
 40
0.0
 40
0.0001899402
 40
0.000405934
 40
0.0006662361
 40
0.0009814684
 40
0.0013576051
 40
0.00179813
 40
0.0023051846
 40
0.0028801525
 40
0.0042371304
 40
0.0058738362
 40
0.0077919599
 40
0.0099917258
 40
0.0124727686
 40
0.0152343798
 40
0.0182756358
 40
0.0215954717
 40
0.0290650153
 40
0.0376261293
 40
0.0472592919
 40
0.0579444717
 40
0.0696575859
 40
0.0823702578
 40
0.1106780295
 40
0.1426067473
 40
0.1778619557
 40
0.2161147682
 40
0.2570122572
 40
0.3001727277
 40
0.3451963117
 40
0.3916641184
 40
0.4391442085
 40
0.4871954759
 40
0.535370968
 40
0.583222998
 40
0.630306536
 40
0.6761843698
 40
0.7204291921
 40
0.7626312513
 40
0.8023967342
 40
0.8393580387
 40
0.8731711948
 40
0.9035227643
 40
0.9173117261
 40
0.9301334521
 40
0.9419567974
 40
0.9527557269
 40
0.9625067211
 40
0.9711865519
 40
0.9787756075
 40
0.9852598011
 40
0.9880836329
 40
0.9906266815
 40
0.9928878433
 40
0.994867039
 40
0.9965650112
 40
0.9979834176
 40
0.9991257219
 40
0.9995956187
 40
1.0
 40
1.0
 40
1.0
 40
1.0
 10
5.3400579978
 20
0.6911932474
 30
0.0
 10
5.340058053
 20
0.6912398284
 30
0.0
 10
5.3400791982
 20
0.6913399871
 30
0.0
 10
5.3401666499
 20
0.6914805508
 30
0.0
 10
5.3403056038
 20
0.6916177471
 30
0.0
 10
5.3404960456
 20
0.6917537802
 30
0.0
 10
5.3407385494
 20
0.6918896453
 30
0.0
 10
5.3410336039
 20
0.6920256046
 30
0.0
 10
5.3413814639
 20
0.6921617483
 30
0.0
 10
5.3419479469
 20
0.6923542521
 30
0.0
 10
5.3427914495
 20
0.692589749
 30
0.0
 10
5.3439654746
 20
0.6928603304
 30
0.0
 10
5.345350611
 20
0.6931316974
 30
0.0
 10
5.3469460234
 20
0.6934037505
 30
0.0
 10
5.3487508411
 20
0.6936762451
 30
0.0
 10
5.3507640516
 20
0.6939490716
 30
0.0
 10
5.3529846269
 20
0.6942221618
 30
0.0
 10
5.3563552179
 20
0.6946016056
 30
0.0
 10
5.3610777826
 20
0.6950698991
 30
0.0
 10
5.3673481711
 20
0.6956136019
 30
0.0
 10
5.3744097005
 20
0.6961582791
 30
0.0
 10
5.3822462196
 20
0.6967036323
 30
0.0
 10
5.39083958
 20
0.6972494872
 30
0.0
 10
5.4037499306
 20
0.6980052762
 30
0.0
 10
5.4216158786
 20
0.6989378033
 30
0.0
 10
5.445009219
 20
0.7000236493
 30
0.0
 10
5.4708437748
 20
0.7011112342
 30
0.0
 10
5.4988795458
 20
0.7022003563
 30
0.0
 10
5.5288553322
 20
0.7032903541
 30
0.0
 10
5.5604925902
 20
0.7043811297
 30
0.0
 10
5.5934966735
 20
0.7054723706
 30
0.0
 10
5.6275606483
 20
0.7065639755
 30
0.0
 10
5.6623674976
 20
0.7076558101
 30
0.0
 10
5.6975933395
 20
0.7087477585
 30
0.0
 10
5.7329104385
 20
0.7098397412
 30
0.0
 10
5.7679900999
 20
0.710931647
 30
0.0
 10
5.8025060112
 20
0.7120234006
 30
0.0
 10
5.8361368476
 20
0.7131148454
 30
0.0
 10
5.8685699104
 20
0.7142059247
 30
0.0
 10
5.8995031179
 20
0.7152963486
 30
0.0
 10
5.9286489706
 20
0.7163860371
 30
0.0
 10
5.9557360473
 20
0.7174744893
 30
0.0
 10
5.9805124927
 20
0.7185614621
 30
0.0
 10
5.9996073445
 20
0.719492539
 30
0.0
 10
6.0135565183
 20
0.7202456984
 30
0.0
 10
6.022966293
 20
0.7207919792
 30
0.0
 10
6.0316414819
 20
0.7213379263
 30
0.0
 10
6.0395620216
 20
0.7218833789
 30
0.0
 10
6.0467096959
 20
0.7224280871
 30
0.0
 10
6.05306775
 20
0.7229717845
 30
0.0
 10
6.0586214356
 20
0.7235143635
 30
0.0
 10
6.0627389451
 20
0.7239836324
 30
0.0
 10
6.0656202227
 20
0.7243652934
 30
0.0
 10
6.0674710444
 20
0.7246378651
 30
0.0
 10
6.0691123199
 20
0.7249100236
 30
0.0
 10
6.070543237
 20
0.7251816471
 30
0.0
 10
6.0717635278
 20
0.7254523616
 30
0.0
 10
6.0727728126
 20
0.7257220331
 30
0.0
 10
6.0734786973
 20
0.7259579012
 30
0.0
 10
6.0739337892
 20
0.7261520902
 30
0.0
 10
6.0741249576
 20
0.7262498329
 30
0.0
 10
6.0742108249
 20
0.7262994478
 30
0.0
  0
SPLINE
  5
3B7
100
AcDbEntity
  8
ALL_ASSEMBLY_MEMBERS
100
AcDbSpline
 62
7
  6
CONTINUOUS
 70
0
 71
3
 72
24
 73
20
 74
0
 42
0.0000001
 43
0.0000001
 44
0.0000000001
 40
0.0
 40
0.0
 40
0.0
 40
0.0
 40
0.0060822697
 40
0.0127339728
 40
0.0203981303
 40
0.0293684047
 40
0.0398285215
 40
0.0518938988
 40
0.0811039432
 40
0.1173674504
 40
0.1608584729
 40
0.211673514
 40
0.2698691898
 40
0.3354645328
 40
0.4084477662
 40
0.4887977588
 40
0.5764878315
 40
0.7737615978
 40
1.0
 40
1.0
 40
1.0
 40
1.0
 10
5.3400575523
 20
0.7626232374
 30
0.0
 10
5.3400575501
 20
0.7626608583
 30
0.0
 10
5.3400707392
 20
0.7627400519
 30
0.0
 10
5.3401274569
 20
0.76285426
 30
0.0
 10
5.3402191471
 20
0.7629664715
 30
0.0
 10
5.340345237
 20
0.763077653
 30
0.0
 10
5.3405058302
 20
0.7631885201
 30
0.0
 10
5.3407845126
 20
0.763346425
 30
0.0
 10
5.3412251203
 20
0.7635385605
 30
0.0
 10
5.3418627482
 20
0.763757945
 30
0.0
 10
5.3426401265
 20
0.7639781077
 30
0.0
 10
5.3435573491
 20
0.7641989671
 30
0.0
 10
5.3446145624
 20
0.764420267
 30
0.0
 10
5.3458114126
 20
0.7646419076
 30
0.0
 10
5.3471473188
 20
0.76486381
 30
0.0
 10
5.3486215402
 20
0.7650859109
 30
0.0
 10
5.3508600141
 20
0.76539446
 30
0.0
 10
5.3539991514
 20
0.7657753159
 30
0.0
 10
5.3566042355
 20
0.7660511364
 30
0.0
 10
5.357996617
 20
0.7661907342
 30
0.0
  0
SPLINE
  5
3B8
100
AcDbEntity
  8
ALL_ASSEMBLY_MEMBERS
100
AcDbSpline
 62
7
  6
CONTINUOUS
 70
0
 71
3
 72
15
 73
11
 74
0
 42
0.0000001
 43
0.0000001
 44
0.0000000001
 40
0.0
 40
0.0
 40
0.0
 40
0.0
 40
0.2459396079
 40
0.3693453421
 40
0.4932690869
 40
0.5554883823
 40
0.6179184235
 40
0.7435950575
 40
0.8707632158
 40
1.0
 40
1.0
 40
1.0
 40
1.0
 10
5.433630139
 20
4.6335110956
 30
0.0
 10
5.433630139
 20
4.6451893874
 30
0.0
 10
5.4342562772
 20
4.6627369271
 30
0.0
 10
5.4363950367
 20
4.6860653977
 30
0.0
 10
5.4382903059
 20
4.7006456069
 30
0.0
 10
5.4401458834
 20
4.7123028013
 30
0.0
 10
5.4422460734
 20
4.7240030255
 30
0.0
 10
5.4453688751
 20
4.73865026
 30
0.0
 10
5.4500235158
 20
4.7561937692
 30
0.0
 10
5.4537879864
 20
4.7677807694
 30
0.0
 10
5.455854668
 20
4.7735590285
 30
0.0
  0
SPLINE
  5
3B9
100
AcDbEntity
  8
ALL_ASSEMBLY_MEMBERS
100
AcDbSpline
 62
7
  6
CONTINUOUS
 70
0
 71
3
 72
16
 73
12
 74
0
 42
0.0000001
 43
0.0000001
 44
0.0000000001
 40
0.0
 40
0.0
 40
0.0
 40
0.0
 40
0.2483733225
 40
0.3727329881
 40
0.4349864522
 40
0.4973009714
 40
0.5596864937
 40
0.6221562508
 40
0.7474231108
 40
0.8732911824
 40
1.0
 40
1.0
 40
1.0
 40
1.0
 10
5.5359395449
 20
4.6335110956
 30
0.0
 10
5.5359395449
 20
4.6451847503
 30
0.0
 10
5.5363303528
 20
4.6627070202
 30
0.0
 10
5.5375019517
 20
4.6831194292
 30
0.0
 10
5.5383810036
 20
4.694786361
 30
0.0
 10
5.5391468101
 20
4.7035400289
 30
0.0
 10
5.5400193488
 20
4.7122939528
 30
0.0
 10
5.5413325555
 20
4.7239764659
 30
0.0
 10
5.5432824035
 20
4.7385888715
 30
0.0
 10
5.546191533
 20
4.7561109678
 30
0.0
 10
5.5485568075
 20
4.7677476726
 30
0.0
 10
5.5498585651
 20
4.7735590285
 30
0.0
  0
SPLINE
  5
3BA
100
AcDbEntity
  8
ALL_ASSEMBLY_MEMBERS
100
AcDbSpline
 62
7
  6
CONTINUOUS
 70
0
 71
3
 72
15
 73
11
 74
0
 42
0.0000001
 43
0.0000001
 44
0.0000000001
 40
0.0
 40
0.0
 40
0.0
 40
0.0
 40
0.1307058454
 40
0.2585622892
 40
0.384396258
 40
0.4467695044
 40
0.5088672801
 40
0.6324068765
 40
0.7552958086
 40
1.0
 40
1.0
 40
1.0
 40
1.0
 10
5.4616547084
 20
1.1784807449
 30
0.0
 10
5.4589944742
 20
1.1848539492
 30
0.0
 10
5.4541643281
 20
1.1976465511
 30
0.0
 10
5.4482323136
 20
1.2170838426
 30
0.0
 10
5.4442941745
 20
1.2333219891
 30
0.0
 10
5.441668562
 20
1.2462851436
 30
0.0
 10
5.4393634376
 20
1.2591859164
 30
0.0
 10
5.4370187324
 20
1.2753240086
 30
0.0
 10
5.4343892837
 20
1.3011459023
 30
0.0
 10
5.433630139
 20
1.32058162
 30
0.0
 10
5.433630139
 20
1.3335110956
 30
0.0
  0
SPLINE
  5
3BB
100
AcDbEntity
  8
ALL_ASSEMBLY_MEMBERS
100
AcDbSpline
 62
7
  6
CONTINUOUS
 70
0
 71
3
 72
15
 73
11
 74
0
 42
0.0000001
 43
0.0000001
 44
0.0000000001
 40
0.0
 40
0.0
 40
0.0
 40
0.0
 40
0.1273219311
 40
0.2534729949
 40
0.3788021871
 40
0.4412474342
 40
0.5035819882
 40
0.6279882805
 40
0.7521347065
 40
1.0
 40
1.0
 40
1.0
 40
1.0
 10
5.5534910776
 20
1.1784807449
 30
0.0
 10
5.5518121117
 20
1.1849032395
 30
0.0
 10
5.548773911
 20
1.1977705405
 30
0.0
 10
5.5450694652
 20
1.2171751357
 30
0.0
 10
5.542613231
 20
1.2333609948
 30
0.0
 10
5.5409724098
 20
1.2462979536
 30
0.0
 10
5.5395277312
 20
1.2592098535
 30
0.0
 10
5.5380594661
 20
1.2753546517
 30
0.0
 10
5.5364130741
 20
1.3011866683
 30
0.0
 10
5.5359395449
 20
1.3205878666
 30
0.0
 10
5.5359395449
 20
1.3335110956
 30
0.0
  0
SPLINE
  5
3BC
100
AcDbEntity
  8
ALL_ASSEMBLY_MEMBERS
100
AcDbSpline
 62
7
  6
CONTINUOUS
 70
0
 71
3
 72
13
 73
9
 74
0
 42
0.0000001
 43
0.0000001
 44
0.0000000001
 40
0.0
 40
0.0
 40
0.0
 40
0.0
 40
0.2504052918
 40
0.375444532
 40
0.5004186525
 40
0.6253493224
 40
0.7502495494
 40
1.0
 40
1.0
 40
1.0
 40
1.0
 10
5.6549979619
 20
1.1784807449
 30
0.0
 10
5.6538495846
 20
1.1913832792
 30
0.0
 10
5.6524615292
 20
1.2107594587
 30
0.0
 10
5.6511269612
 20
1.2366120588
 30
0.0
 10
5.650343679
 20
1.2559926089
 30
0.0
 10
5.6497435356
 20
1.2753723629
 30
0.0
 10
5.6491831743
 20
1.3012100446
 30
0.0
 10
5.6490222933
 20
1.3205914321
 30
0.0
 10
5.6490222933
 20
1.3335110956
 30
0.0
  0
SPLINE
  5
3BD
100
AcDbEntity
  8
ALL_ASSEMBLY_MEMBERS
100
AcDbSpline
 62
7
  6
CONTINUOUS
 70
0
 71
3
 72
13
 73
9
 74
0
 42
0.0000001
 43
0.0000001
 44
0.0000000001
 40
0.0
 40
0.0
 40
0.0
 40
0.0
 40
0.2504052918
 40
0.375444532
 40
0.5004186525
 40
0.6253493224
 40
0.7502495494
 40
1.0
 40
1.0
 40
1.0
 40
1.0
 10
5.7597973105
 20
1.1784807449
 30
0.0
 10
5.7609456878
 20
1.1913832792
 30
0.0
 10
5.7623337432
 20
1.2107594587
 30
0.0
 10
5.7636683113
 20
1.2366120588
 30
0.0
 10
5.7644515935
 20
1.2559926089
 30
0.0
 10
5.7650517369
 20
1.2753723629
 30
0.0
 10
5.7656120982
 20
1.3012100446
 30
0.0
 10
5.7657729792
 20
1.3205914321
 30
0.0
 10
5.7657729792
 20
1.3335110956
 30
0.0
  0
SPLINE
  5
3BE
100
AcDbEntity
  8
ALL_ASSEMBLY_MEMBERS
100
AcDbSpline
 62
7
  6
CONTINUOUS
 70
0
 71
3
 72
15
 73
11
 74
0
 42
0.0000001
 43
0.0000001
 44
0.0000000001
 40
0.0
 40
0.0
 40
0.0
 40
0.0
 40
0.1273219311
 40
0.2534729949
 40
0.3788021871
 40
0.4412474342
 40
0.5035819882
 40
0.6279882805
 40
0.7521347065
 40
1.0
 40
1.0
 40
1.0
 40
1.0
 10
5.8613041948
 20
1.1784807449
 30
0.0
 10
5.8629831608
 20
1.1849032395
 30
0.0
 10
5.8660213614
 20
1.1977705405
 30
0.0
 10
5.8697258072
 20
1.2171751357
 30
0.0
 10
5.8721820415
 20
1.2333609948
 30
0.0
 10
5.8738228627
 20
1.2462979536
 30
0.0
 10
5.8752675412
 20
1.2592098535
 30
0.0
 10
5.8767358064
 20
1.2753546517
 30
0.0
 10
5.8783821984
 20
1.3011866683
 30
0.0
 10
5.8788557275
 20
1.3205878666
 30
0.0
 10
5.8788557275
 20
1.3335110956
 30
0.0
  0
SPLINE
  5
3BF
100
AcDbEntity
  8
ALL_ASSEMBLY_MEMBERS
100
AcDbSpline
 62
7
  6
CONTINUOUS
 70
0
 71
3
 72
15
 73
11
 74
0
 42
0.0000001
 43
0.0000001
 44
0.0000000001
 40
0.0
 40
0.0
 40
0.0
 40
0.0
 40
0.1307058454
 40
0.2585622892
 40
0.384396258
 40
0.4467695044
 40
0.5088672801
 40
0.6324068765
 40
0.7552958086
 40
1.0
 40
1.0
 40
1.0
 40
1.0
 10
5.9531405641
 20
1.1784807449
 30
0.0
 10
5.9558007983
 20
1.1848539492
 30
0.0
 10
5.9606309443
 20
1.1976465511
 30
0.0
 10
5.9665629588
 20
1.2170838426
 30
0.0
 10
5.970501098
 20
1.2333219891
 30
0.0
 10
5.9731267104
 20
1.2462851436
 30
0.0
 10
5.9754318348
 20
1.2591859164
 30
0.0
 10
5.9777765401
 20
1.2753240086
 30
0.0
 10
5.9804059887
 20
1.3011459023
 30
0.0
 10
5.9811651335
 20
1.32058162
 30
0.0
 10
5.9811651335
 20
1.3335110956
 30
0.0
  0
SPLINE
  5
3C0
100
AcDbEntity
  8
ALL_ASSEMBLY_MEMBERS
100
AcDbSpline
 62
7
  6
CONTINUOUS
 70
0
 71
3
 72
13
 73
9
 74
0
 42
0.0000001
 43
0.0000001
 44
0.0000000001
 40
0.0
 40
0.0
 40
0.0
 40
0.0
 40
0.2498105109
 40
0.3747359579
 40
0.499685487
 40
0.6246686198
 40
0.7497003531
 40
1.0
 40
1.0
 40
1.0
 40
1.0
 10
5.6490222933
 20
4.6335110956
 30
0.0
 10
5.6490222933
 20
4.6451821037
 30
0.0
 10
5.6491551603
 20
4.662689987
 30
0.0
 10
5.649610986
 20
4.68603075
 30
0.0
 10
5.6500961935
 20
4.7035373833
 30
0.0
 10
5.6507255947
 20
4.7210444667
 30
0.0
 10
5.6517856256
 20
4.7443949855
 30
0.0
 10
5.6528719739
 20
4.7618990282
 30
0.0
 10
5.6537612214
 20
4.7735590285
 30
0.0
  0
SPLINE
  5
3C1
100
AcDbEntity
  8
ALL_ASSEMBLY_MEMBERS
100
AcDbSpline
 62
7
  6
CONTINUOUS
 70
0
 71
3
 72
13
 73
9
 74
0
 42
0.0000001
 43
0.0000001
 44
0.0000000001
 40
0.0
 40
0.0
 40
0.0
 40
0.0
 40
0.2498105109
 40
0.3747359579
 40
0.499685487
 40
0.6246686198
 40
0.7497003531
 40
1.0
 40
1.0
 40
1.0
 40
1.0
 10
5.7657729792
 20
4.6335110956
 30
0.0
 10
5.7657729792
 20
4.6451821037
 30
0.0
 10
5.7656401122
 20
4.662689987
 30
0.0
 10
5.7651842865
 20
4.68603075
 30
0.0
 10
5.7646990789
 20
4.7035373833
 30
0.0
 10
5.7640696777
 20
4.7210444667
 30
0.0
 10
5.7630096468
 20
4.7443949855
 30
0.0
 10
5.7619232986
 20
4.7618990282
 30
0.0
 10
5.761034051
 20
4.7735590285
 30
0.0
  0
SPLINE
  5
3C2
100
AcDbEntity
  8
ALL_ASSEMBLY_MEMBERS
100
AcDbSpline
 62
7
  6
CONTINUOUS
 70
0
 71
3
 72
16
 73
12
 74
0
 42
0.0000001
 43
0.0000001
 44
0.0000000001
 40
0.0
 40
0.0
 40
0.0
 40
0.0
 40
0.2483733225
 40
0.3727329881
 40
0.4349864522
 40
0.4973009714
 40
0.5596864937
 40
0.6221562508
 40
0.7474231108
 40
0.8732911824
 40
1.0
 40
1.0
 40
1.0
 40
1.0
 10
5.8788557275
 20
4.6335110956
 30
0.0
 10
5.8788557275
 20
4.6451847503
 30
0.0
 10
5.8784649197
 20
4.6627070202
 30
0.0
 10
5.8772933207
 20
4.6831194292
 30
0.0
 10
5.8764142689
 20
4.694786361
 30
0.0
 10
5.8756484624
 20
4.7035400289
 30
0.0
 10
5.8747759236
 20
4.7122939528
 30
0.0
 10
5.8734627169
 20
4.7239764659
 30
0.0
 10
5.871512869
 20
4.7385888715
 30
0.0
 10
5.8686037395
 20
4.7561109678
 30
0.0
 10
5.866238465
 20
4.7677476726
 30
0.0
 10
5.8649367074
 20
4.7735590285
 30
0.0
  0
SPLINE
  5
3C3
100
AcDbEntity
  8
ALL_ASSEMBLY_MEMBERS
100
AcDbSpline
 62
7
  6
CONTINUOUS
 70
0
 71
3
 72
15
 73
11
 74
0
 42
0.0000001
 43
0.0000001
 44
0.0000000001
 40
0.0
 40
0.0
 40
0.0
 40
0.0
 40
0.2459396079
 40
0.3693453421
 40
0.4932690869
 40
0.5554883823
 40
0.6179184235
 40
0.7435950575
 40
0.8707632158
 40
1.0
 40
1.0
 40
1.0
 40
1.0
 10
5.9811651335
 20
4.6335110956
 30
0.0
 10
5.9811651335
 20
4.6451893874
 30
0.0
 10
5.9805389953
 20
4.6627369271
 30
0.0
 10
5.9784002358
 20
4.6860653977
 30
0.0
 10
5.9765049666
 20
4.7006456069
 30
0.0
 10
5.9746493891
 20
4.7123028013
 30
0.0
 10
5.972549199
 20
4.7240030255
 30
0.0
 10
5.9694263973
 20
4.73865026
 30
0.0
 10
5.9647717567
 20
4.7561937692
 30
0.0
 10
5.9610072861
 20
4.7677807694
 30
0.0
 10
5.9589406045
 20
4.7735590285
 30
0.0
  0
SPLINE
  5
3C4
100
AcDbEntity
  8
ALL_ASSEMBLY_MEMBERS
100
AcDbSpline
 62
7
  6
CONTINUOUS
 70
0
 71
3
 72
9
 73
5
 74
0
 42
0.0000001
 43
0.0000001
 44
0.0000000001
 40
0.0
 40
0.0
 40
0.0
 40
0.0
 40
0.4905400653
 40
1.0
 40
1.0
 40
1.0
 40
1.0
 10
5.0477727423
 20
6.01510602
 30
0.0
 10
5.0500717638
 20
6.0116780354
 30
0.0
 10
5.0552011717
 20
6.0049795382
 30
0.0
 10
5.0610443321
 20
5.9989013046
 30
0.0
 10
5.0641624346
 20
5.9959596142
 30
0.0
  0
SPLINE
  5
3C5
100
AcDbEntity
  8
ALL_ASSEMBLY_MEMBERS
100
AcDbSpline
 62
7
  6
CONTINUOUS
 70
0
 71
3
 72
9
 73
5
 74
0
 42
0.0000001
 43
0.0000001
 44
0.0000000001
 40
0.0
 40
0.0
 40
0.0
 40
0.0
 40
0.4776545202
 40
1.0
 40
1.0
 40
1.0
 40
1.0
 10
5.0342241597
 20
6.0786791642
 30
0.0
 10
5.0407341456
 20
6.0807941498
 30
0.0
 10
5.0544074383
 20
6.0850862809
 30
0.0
 10
5.0681450189
 20
6.0891668024
 30
0.0
 10
5.075333998
 20
6.091252295
 30
0.0
  0
SPLINE
  5
3C6
100
AcDbEntity
  8
ALL_ASSEMBLY_MEMBERS
100
AcDbSpline
 62
7
  6
CONTINUOUS
 70
0
 71
3
 72
22
 73
18
 74
0
 42
0.0000001
 43
0.0000001
 44
0.0000000001
 40
0.0
 40
0.0
 40
0.0
 40
0.0
 40
0.0501569486
 40
0.0762116289
 40
0.102867573
 40
0.1578641876
 40
0.214910272
 40
0.2737678207
 40
0.3341980772
 40
0.4589705042
 40
0.5231128118
 40
0.588330465
 40
0.654557356
 40
0.721738365
 40
0.7898586313
 40
0.8589266257
 40
1.0
 40
1.0
 40
1.0
 40
1.0
 10
5.076070846
 20
6.0914658759
 30
0.0
 10
5.0823611146
 20
6.0932876612
 30
0.0
 10
5.0919344108
 20
6.0960026876
 30
0.0
 10
5.1048823611
 20
6.0995722939
 30
0.0
 10
5.1184565921
 20
6.1032472675
 30
0.0
 10
5.1359626692
 20
6.1078826697
 30
0.0
 10
5.1575573185
 20
6.1135015957
 30
0.0
 10
5.1798479821
 20
6.119262806
 30
0.0
 10
5.210693831
 20
6.1272604365
 30
0.0
 10
5.2421707149
 20
6.1355754986
 30
0.0
 10
5.2741532369
 20
6.1444141046
 30
0.0
 10
5.298700282
 20
6.1514569291
 30
0.0
 10
5.3235419015
 20
6.1589058184
 30
0.0
 10
5.3486393539
 20
6.1668129295
 30
0.0
 10
5.373950755
 20
6.1752655248
 30
0.0
 10
5.4081722533
 20
6.1874700055
 30
0.0
 10
5.433689227
 20
6.1975988146
 30
0.0
 10
5.450607619
 20
6.2048816329
 30
0.0
  0
SPLINE
  5
3C7
100
AcDbEntity
  8
ALL_ASSEMBLY_MEMBERS
100
AcDbSpline
 62
7
  6
CONTINUOUS
 70
0
 71
3
 72
24
 73
20
 74
0
 42
0.0000001
 43
0.0000001
 44
0.0000000001
 40
0.0
 40
0.0
 40
0.0
 40
0.0
 40
0.0895739353
 40
0.1389844739
 40
0.1912980784
 40
0.3041802463
 40
0.3340426691
 40
0.3645341651
 40
0.4273340045
 40
0.4924360512
 40
0.5258054738
 40
0.559696637
 40
0.5940910136
 40
0.6289695322
 40
0.7001022662
 40
0.7729413486
 40
0.8473258426
 40
0.9230739516
 40
1.0
 40
1.0
 40
1.0
 40
1.0
 10
5.2702504595
 20
7.2012604878
 30
0.0
 10
5.2617104132
 20
7.1971090776
 30
0.0
 10
5.248455255
 20
7.1906764763
 30
0.0
 10
5.2302158542
 20
7.1818123812
 30
0.0
 10
5.2097630562
 20
7.171849915
 30
0.0
 10
5.1911698358
 20
7.1628018639
 30
0.0
 10
5.1746320659
 20
7.1548170035
 30
0.0
 10
5.1628675199
 20
7.1491567959
 30
0.0
 10
5.1477299224
 20
7.1418909242
 30
0.0
 10
5.1323277617
 20
7.1344711876
 30
0.0
 10
5.119703385
 20
7.1283465892
 30
0.0
 10
5.1100197421
 20
7.1236183777
 30
0.0
 10
5.1002022987
 20
7.1187996525
 30
0.0
 10
5.0868484577
 20
7.1122258715
 30
0.0
 10
5.069843514
 20
7.1038412926
 30
0.0
 10
5.0490594735
 20
7.0936511061
 30
0.0
 10
5.0277900135
 20
7.0833400795
 30
0.0
 10
5.0060981425
 20
7.0729075758
 30
0.0
 10
4.9914968414
 20
7.0659255027
 30
0.0
 10
4.9841375657
 20
7.0624123532
 30
0.0
  0
SPLINE
  5
3C8
100
AcDbEntity
  8
ALL_ASSEMBLY_MEMBERS
100
AcDbSpline
 62
7
  6
CONTINUOUS
 70
0
 71
3
 72
13
 73
9
 74
0
 42
0.0000001
 43
0.0000001
 44
0.0000000001
 40
0.0
 40
0.0
 40
0.0
 40
0.0
 40
0.3041819541
 40
0.5773978927
 40
0.7000229886
 40
0.8120073541
 40
0.9123415832
 40
1.0
 40
1.0
 40
1.0
 40
1.0
 10
5.5620791231
 20
6.5430622049
 30
0.0
 10
5.577976115
 20
6.5591885018
 30
0.0
 10
5.6073848383
 20
6.5905646705
 30
0.0
 10
5.6412956462
 20
6.6301540781
 30
0.0
 10
5.6650161061
 20
6.6595931604
 30
0.0
 10
5.6803080081
 20
6.6792896796
 30
0.0
 10
5.6937045836
 20
6.6971577034
 30
0.0
 10
5.7019232455
 20
6.7084859129
 30
0.0
 10
5.7057131552
 20
6.7137981997
 30
0.0
  0
SPLINE
  5
3C9
100
AcDbEntity
  8
ALL_ASSEMBLY_MEMBERS
100
AcDbSpline
 62
7
  6
CONTINUOUS
 70
0
 71
3
 72
18
 73
14
 74
0
 42
0.0000001
 43
0.0000001
 44
0.0000000001
 40
0.0
 40
0.0
 40
0.0
 40
0.0
 40
0.0581500852
 40
0.1174688358
 40
0.1777864914
 40
0.2389295863
 40
0.3007488238
 40
0.3631209266
 40
0.4890246396
 40
0.6158325421
 40
0.7432534492
 40
0.8712171556
 40
1.0
 40
1.0
 40
1.0
 40
1.0
 10
4.9897772232
 20
6.1691806695
 30
0.0
 10
4.9971104057
 20
6.172615209
 30
0.0
 10
5.0119871796
 20
6.1794192905
 30
0.0
 10
5.0346565436
 20
6.1893726279
 30
0.0
 10
5.0578351971
 20
6.1991972842
 30
0.0
 10
5.0814402723
 20
6.2089037991
 30
0.0
 10
5.1053891269
 20
6.2185237394
 30
0.0
 10
5.1377689905
 20
6.2313475341
 30
0.0
 10
5.1786072383
 20
6.2473911184
 30
0.0
 10
5.2277174005
 20
6.2671510492
 30
0.0
 10
5.2766964751
 20
6.2879892815
 30
0.0
 10
5.3252512939
 20
6.3104739743
 30
0.0
 10
5.3569884642
 20
6.3269811224
 30
0.0
 10
5.3726463534
 20
6.3357242219
 30
0.0
  0
SPLINE
  5
3CA
100
AcDbEntity
  8
ALL_ASSEMBLY_MEMBERS
100
AcDbSpline
 62
7
  6
CONTINUOUS
 70
0
 71
3
 72
15
 73
11
 74
0
 42
0.0000001
 43
0.0000001
 44
0.0000000001
 40
0.0
 40
0.0
 40
0.0
 40
0.0
 40
0.1327634162
 40
0.2651397126
 40
0.3960737829
 40
0.5243719656
 40
0.6495978918
 40
0.7712918871
 40
0.8883749886
 40
1.0
 40
1.0
 40
1.0
 40
1.0
 10
5.2702504595
 20
7.2012604878
 30
0.0
 10
5.2825677067
 20
7.17393548
 30
0.0
 10
5.307182584
 20
7.1193724878
 30
0.0
 10
5.3439669393
 20
7.0378709053
 30
0.0
 10
5.3803166699
 20
6.9572791511
 30
0.0
 10
5.4158964372
 20
6.878111033
 30
0.0
 10
5.4504491654
 20
6.8007685752
 30
0.0
 10
5.4837338598
 20
6.7256330033
 30
0.0
 10
5.5153993267
 20
6.6531394385
 30
0.0
 10
5.5357156786
 20
6.6056700689
 30
0.0
 10
5.5455100398
 20
6.5824506655
 30
0.0
  0
SPLINE
  5
3CB
100
AcDbEntity
  8
ALL_ASSEMBLY_MEMBERS
100
AcDbSpline
 62
7
  6
CONTINUOUS
 70
0
 71
3
 72
31
 73
27
 74
0
 42
0.0000001
 43
0.0000001
 44
0.0000000001
 40
0.0
 40
0.0
 40
0.0
 40
0.0
 40
0.0256778968
 40
0.0518931851
 40
0.0786239412
 40
0.1058469545
 40
0.1335382022
 40
0.1616739798
 40
0.19023787
 40
0.2192178379
 40
0.248601941
 40
0.278378313
 40
0.3085351646
 40
0.339058736
 40
0.4011381757
 40
0.4644796133
 40
0.5289447518
 40
0.5943919553
 40
0.6274391405
 40
0.660678241
 40
0.727667545
 40
0.7952360978
 40
0.8291995685
 40
0.8632592882
 40
0.9315747295
 40
1.0
 40
1.0
 40
1.0
 40
1.0
 10
5.3288785486
 20
6.4111173396
 30
0.0
 10
5.3256502401
 20
6.416537571
 30
0.0
 10
5.3191932076
 20
6.4275315334
 30
0.0
 10
5.3095665971
 20
6.4442792304
 30
0.0
 10
5.2998670377
 20
6.461422248
 30
0.0
 10
5.2900650969
 20
6.4789236826
 30
0.0
 10
5.2801329546
 20
6.4967477611
 30
0.0
 10
5.2700353033
 20
6.5148567433
 30
0.0
 10
5.2597780659
 20
6.5332392607
 30
0.0
 10
5.2493827518
 20
6.5518959472
 30
0.0
 10
5.2388661492
 20
6.5708260559
 30
0.0
 10
5.2282458651
 20
6.5900293022
 30
0.0
 10
5.2175407878
 20
6.6095055004
 30
0.0
 10
5.2030918391
 20
6.6359801278
 30
0.0
 10
5.1848793177
 20
6.6696888495
 30
0.0
 10
5.1629185071
 20
6.7108500836
 30
0.0
 10
5.140774227
 20
6.7528505525
 30
0.0
 10
5.122232582
 20
6.7883359285
 30
0.0
 10
5.1072999499
 20
6.8170508405
 30
0.0
 10
5.0922207659
 20
6.8461165687
 30
0.0
 10
5.0732999681
 20
6.8827442895
 30
0.0
 10
5.0544441842
 20
6.919605665
 30
0.0
 10
5.0393942081
 20
6.9493258653
 30
0.0
 10
5.0243591613
 20
6.9792591169
 30
0.0
 10
5.0057678803
 20
7.0168808106
 30
0.0
 10
4.9912662762
 20
7.0471872455
 30
0.0
 10
4.9841375635
 20
7.0624123579
 30
0.0
  0
SPLINE
  5
3CC
100
AcDbEntity
  8
ALL_ASSEMBLY_MEMBERS
100
AcDbSpline
 62
7
  6
CONTINUOUS
 70
0
 71
3
 72
14
 73
10
 74
0
 42
0.0000001
 43
0.0000001
 44
0.0000000001
 40
0.0
 40
0.0
 40
0.0
 40
0.0
 40
0.1247303801
 40
0.2506232104
 40
0.5035014933
 40
0.6293532502
 40
0.7542127403
 40
0.8777894225
 40
1.0
 40
1.0
 40
1.0
 40
1.0
 10
4.9423747994
 20
6.2322908734
 30
0.0
 10
4.9584294413
 20
6.2397881543
 30
0.0
 10
4.99090484
 20
6.2543897977
 30
0.0
 10
5.0566489449
 20
6.2825654113
 30
0.0
 10
5.1228498231
 20
6.3100716177
 30
0.0
 10
5.1883918676
 20
6.338751799
 30
0.0
 10
5.2366106281
 20
6.3611755501
 30
0.0
 10
5.2835911003
 20
6.384975993
 30
0.0
 10
5.3140115233
 20
6.4021521194
 30
0.0
 10
5.3288785486
 20
6.4111173396
 30
0.0
  0
SPLINE
  5
3CD
100
AcDbEntity
  8
ALL_ASSEMBLY_MEMBERS
100
AcDbSpline
 62
7
  6
CONTINUOUS
 70
0
 71
3
 72
11
 73
7
 74
0
 42
0.0000001
 43
0.0000001
 44
0.0000000001
 40
0.0
 40
0.0
 40
0.0
 40
0.0
 40
0.2326476128
 40
0.4791901813
 40
0.7360662068
 40
1.0
 40
1.0
 40
1.0
 40
1.0
 10
5.5455100398
 20
6.5824506655
 30
0.0
 10
5.530299867
 20
6.56730318
 30
0.0
 10
5.4981830007
 20
6.5368839174
 30
0.0
 10
5.4464612308
 20
6.4928146813
 30
0.0
 10
5.3899380891
 20
6.4501039902
 30
0.0
 10
5.3497247995
 20
6.4237069111
 30
0.0
 10
5.3288785486
 20
6.4111173396
 30
0.0
  0
SPLINE
  5
3CE
100
AcDbEntity
  8
ALL_ASSEMBLY_MEMBERS
100
AcDbSpline
 62
7
  6
CONTINUOUS
 70
0
 71
3
 72
14
 73
10
 74
0
 42
0.0000001
 43
0.0000001
 44
0.0000000001
 40
0.0
 40
0.0
 40
0.0
 40
0.0
 40
0.1253354716
 40
0.2513421874
 40
0.503774189
 40
0.6293733138
 40
0.7540785986
 40
0.8776488698
 40
1.0
 40
1.0
 40
1.0
 40
1.0
 10
4.9590072559
 20
6.1980177412
 30
0.0
 10
4.9753851234
 20
6.2053504109
 30
0.0
 10
5.0084435334
 20
6.2195758308
 30
0.0
 10
5.075196548
 20
6.2468942873
 30
0.0
 10
5.1422750676
 20
6.2735116304
 30
0.0
 10
5.2085981417
 20
6.3014874443
 30
0.0
 10
5.2573838881
 20
6.3235361181
 30
0.0
 10
5.3049148669
 20
6.3471583344
 30
0.0
 10
5.3356617486
 20
6.3643577499
 30
0.0
 10
5.3506792249
 20
6.3733758571
 30
0.0
  0
SPLINE
  5
3CF
100
AcDbEntity
  8
ALL_ASSEMBLY_MEMBERS
100
AcDbSpline
 62
7
  6
CONTINUOUS
 70
0
 71
3
 72
43
 73
39
 74
0
 42
0.0000001
 43
0.0000001
 44
0.0000000001
 40
0.0
 40
0.0
 40
0.0
 40
0.0
 40
0.0001584728
 40
0.0002927181
 40
0.0004696463
 40
0.0006907336
 40
0.0009566117
 40
0.0016235649
 40
0.0024709761
 40
0.0034981051
 40
0.0060866205
 40
0.0093779965
 40
0.0133598676
 40
0.0180194569
 40
0.0233438123
 40
0.0293199045
 40
0.0359346751
 40
0.0431750618
 40
0.0510280138
 40
0.0594805013
 40
0.0685195224
 40
0.0883053033
 40
0.1102820748
 40
0.1343472317
 40
0.1603989445
 40
0.1883362428
 40
0.2180591001
 40
0.2494685228
 40
0.2824666468
 40
0.3169568428
 40
0.3900323034
 40
0.4679522695
 40
0.5500014508
 40
0.6354988406
 40
0.7238048765
 40
0.8143302434
 40
0.9065466601
 40
1.0
 40
1.0
 40
1.0
 40
1.0
 10
5.758504323
 20
6.6851458425
 30
0.0
 10
5.7584812537
 20
6.6851611401
 30
0.0
 10
5.7584212744
 20
6.6851451832
 30
0.0
 10
5.7583529028
 20
6.6851061764
 30
0.0
 10
5.7582759305
 20
6.6850517164
 30
0.0
 10
5.7581868593
 20
6.6849780528
 30
0.0
 10
5.7580372795
 20
6.6848425894
 30
0.0
 10
5.7578179569
 20
6.6846221089
 30
0.0
 10
5.7575159742
 20
6.6842966117
 30
0.0
 10
5.7569994268
 20
6.6837127006
 30
0.0
 10
5.7562222658
 20
6.6827897279
 30
0.0
 10
5.7551329691
 20
6.6814553108
 30
0.0
 10
5.7538296561
 20
6.6798287072
 30
0.0
 10
5.7523141377
 20
6.6779171758
 30
0.0
 10
5.7505883735
 20
6.6757278211
 30
0.0
 10
5.7486541727
 20
6.6732679198
 30
0.0
 10
5.7465133432
 20
6.6705447477
 30
0.0
 10
5.7441676646
 20
6.6675656103
 30
0.0
 10
5.7416189092
 20
6.6643378197
 30
0.0
 10
5.7388688376
 20
6.6608686983
 30
0.0
 10
5.734812119
 20
6.6557756346
 30
0.0
 10
5.7292547915
 20
6.6488577887
 30
0.0
 10
5.7219954169
 20
6.6399408944
 30
0.0
 10
5.7139727726
 20
6.6302344792
 30
0.0
 10
5.7052008932
 20
6.6197971552
 30
0.0
 10
5.6956938071
 20
6.6086875343
 30
0.0
 10
5.6854655189
 20
6.5969642418
 30
0.0
 10
5.6745300289
 20
6.5846859161
 30
0.0
 10
5.6629013053
 20
6.5719111614
 30
0.0
 10
5.6461657279
 20
6.5539456639
 30
0.0
 10
5.6236431405
 20
6.5306504844
 30
0.0
 10
5.5945649965
 20
6.5021570026
 30
0.0
 10
5.5630486215
 20
6.4730767514
 30
0.0
 10
5.5292047239
 20
6.4438774672
 30
0.0
 10
5.4931434154
 20
6.41502671
 30
0.0
 10
5.4549735032
 20
6.3869917148
 30
0.0
 10
5.4148050974
 20
6.3602410846
 30
0.0
 10
5.3869099991
 20
6.3436618464
 30
0.0
 10
5.3726463534
 20
6.3357242219
 30
0.0
  0
SPLINE
  5
3D0
100
AcDbEntity
  8
ALL_ASSEMBLY_MEMBERS
100
AcDbSpline
 62
7
  6
CONTINUOUS
 70
0
 71
3
 72
11
 73
7
 74
0
 42
0.0000001
 43
0.0000001
 44
0.0000000001
 40
0.0
 40
0.0
 40
0.0
 40
0.0
 40
0.2609364852
 40
0.5165058693
 40
0.7639550122
 40
1.0
 40
1.0
 40
1.0
 40
1.0
 10
5.3506828914
 20
6.3733780589
 30
0.0
 10
5.3709454769
 20
6.3855460318
 30
0.0
 10
5.4100679853
 20
6.4113052524
 30
0.0
 10
5.4650260522
 20
6.4534306542
 30
0.0
 10
5.5155762748
 20
6.4973737128
 30
0.0
 10
5.5470692944
 20
6.5278358678
 30
0.0
 10
5.5620791231
 20
6.5430622049
 30
0.0
  0
SPLINE
  5
3D1
100
AcDbEntity
  8
ALL_ASSEMBLY_MEMBERS
100
AcDbSpline
 62
7
  6
CONTINUOUS
 70
0
 71
3
 72
39
 73
35
 74
0
 42
0.0000001
 43
0.0000001
 44
0.0000000001
 40
0.0
 40
0.0
 40
0.0
 40
0.0
 40
0.2245314617
 40
0.3271039997
 40
0.4230168956
 40
0.5121215502
 40
0.5942689023
 40
0.6693094463
 40
0.737093249
 40
0.7974699657
 40
0.8502888554
 40
0.873816914
 40
0.8953988146
 40
0.9150156097
 40
0.9326483294
 40
0.9482779821
 40
0.9618855549
 40
0.973452014
 40
0.9784638726
 40
0.9829583057
 40
0.9869329284
 40
0.9903853544
 40
0.9933131964
 40
0.9957140655
 40
0.9967161386
 40
0.9975855722
 40
0.9983220674
 40
0.9989253252
 40
0.9993950465
 40
0.9997309322
 40
0.9998485933
 40
0.9999326832
 40
0.9999831646
 40
1.0
 40
1.0
 40
1.0
 40
1.0
 10
5.7057131552
 20
6.7137981997
 30
0.0
 10
5.7077650927
 20
6.7166743845
 30
0.0
 10
5.7107363417
 20
6.7208774434
 30
0.0
 10
5.7145418193
 20
6.7263387535
 30
0.0
 10
5.7171129789
 20
6.7300627646
 30
0.0
 10
5.7194869059
 20
6.7335323386
 30
0.0
 10
5.7216621124
 20
6.7367398808
 30
0.0
 10
5.7236371113
 20
6.7396777936
 30
0.0
 10
5.7254104158
 20
6.7423384796
 30
0.0
 10
5.726980537
 20
6.7447143422
 30
0.0
 10
5.7281598396
 20
6.7465137455
 30
0.0
 10
5.729000743
 20
6.7478050383
 30
0.0
 10
5.7295549509
 20
6.7486595627
 30
0.0
 10
5.7300572466
 20
6.7494371852
 30
0.0
 10
5.730507444
 20
6.7501369564
 30
0.0
 10
5.7309053573
 20
6.7507579264
 30
0.0
 10
5.7312508002
 20
6.7512991457
 30
0.0
 10
5.7315056437
 20
6.7516999828
 30
0.0
 10
5.731683163
 20
6.7519800523
 30
0.0
 10
5.7317965704
 20
6.7521593214
 30
0.0
 10
5.7318967207
 20
6.7523179407
 30
0.0
 10
5.731983591
 20
6.7524557913
 30
0.0
 10
5.7320571572
 20
6.7525727547
 30
0.0
 10
5.7321101241
 20
6.752657125
 30
0.0
 10
5.7321458283
 20
6.7527140872
 30
0.0
 10
5.7321676132
 20
6.7527488681
 30
0.0
 10
5.73218604
 20
6.7527783384
 30
0.0
 10
5.7322011624
 20
6.7528024823
 30
0.0
 10
5.7322128259
 20
6.7528212874
 30
0.0
 10
5.73222068
 20
6.7528336108
 30
0.0
 10
5.732224935
 20
6.7528407933
 30
0.0
 10
5.732227397
 20
6.7528441563
 30
0.0
 10
5.7322280152
 20
6.7528461884
 30
0.0
 10
5.7322292396
 20
6.7528470774
 30
0.0
 10
5.7322291066
 20
6.7528473065
 30
0.0
  0
SPLINE
  5
3D2
100
AcDbEntity
  8
ALL_ASSEMBLY_MEMBERS
100
AcDbSpline
 62
7
  6
CONTINUOUS
 70
0
 71
3
 72
34
 73
30
 74
0
 42
0.0000001
 43
0.0000001
 44
0.0000000001
 40
0.0
 40
0.0
 40
0.0
 40
0.0
 40
0.0020536154
 40
0.0045035923
 40
0.0073700672
 40
0.0106688182
 40
0.0144130892
 40
0.0186145678
 40
0.0232839405
 40
0.0284312236
 40
0.0401909689
 40
0.0539366254
 40
0.069701448
 40
0.0875170245
 40
0.1074063874
 40
0.1293616551
 40
0.153366845
 40
0.1794056058
 40
0.2074535883
 40
0.2374552307
 40
0.3030650326
 40
0.3756680379
 40
0.4544650128
 40
0.5385581739
 40
0.6268918492
 40
0.7183566065
 40
0.8117884027
 40
0.9060290665
 40
1.0
 40
1.0
 40
1.0
 40
1.0
 10
4.9538142388
 20
7.8538106087
 30
0.0
 10
4.9542235469
 20
7.853528346
 30
0.0
 10
4.9550814472
 20
7.852851755
 30
0.0
 10
4.9563882265
 20
7.8516350671
 30
0.0
 10
4.9578268151
 20
7.850123308
 30
0.0
 10
4.9593991937
 20
7.8483103989
 30
0.0
 10
4.9611075303
 20
7.8461901143
 30
0.0
 10
4.9629537373
 20
7.8437566105
 30
0.0
 10
4.9649398133
 20
7.8410041642
 30
0.0
 10
4.9679108268
 20
7.8367071407
 30
0.0
 10
4.9719702145
 20
7.8304930541
 30
0.0
 10
4.9772256048
 20
7.8219941013
 30
0.0
 10
4.9830592928
 20
7.8121316025
 30
0.0
 10
4.9894714624
 20
7.8008852284
 30
0.0
 10
4.9964579778
 20
7.7882426447
 30
0.0
 10
5.004013215
 20
7.7742034171
 30
0.0
 10
5.0121267535
 20
7.7587748813
 30
0.0
 10
5.0207865587
 20
7.7419677739
 30
0.0
 10
5.0299766687
 20
7.7238013956
 30
0.0
 10
5.0433171463
 20
7.6969986963
 30
0.0
 10
5.0611396433
 20
7.6603784007
 30
0.0
 10
5.0836853956
 20
7.612921184
 30
0.0
 10
5.1077754171
 20
7.5612451538
 30
0.0
 10
5.1331528029
 20
7.5059685406
 30
0.0
 10
5.1595593284
 20
7.4477904272
 30
0.0
 10
5.1867099478
 20
7.3874675461
 30
0.0
 10
5.2143542178
 20
7.3257986873
 30
0.0
 10
5.2422442585
 20
7.2635750619
 30
0.0
 10
5.2609130722
 20
7.2220072476
 30
0.0
 10
5.2702504595
 20
7.2012604878
 30
0.0
  0
SPLINE
  5
3D3
100
AcDbEntity
  8
ALL_ASSEMBLY_MEMBERS
100
AcDbSpline
 62
7
  6
CONTINUOUS
 70
0
 71
3
 72
44
 73
40
 74
0
 42
0.0000001
 43
0.0000001
 44
0.0000000001
 40
0.0
 40
0.0
 40
0.0
 40
0.0
 40
0.000143029
 40
0.0002937148
 40
0.0004649029
 40
0.0006653985
 40
0.001173173
 40
0.0018404648
 40
0.0026755839
 40
0.0036818253
 40
0.0048603153
 40
0.0062111153
 40
0.0077337083
 40
0.0094272388
 40
0.0133226502
 40
0.0178875132
 40
0.0231107675
 40
0.0289807838
 40
0.035485616
 40
0.0426131348
 40
0.0503511024
 40
0.0676091479
 40
0.0871610624
 40
0.1089081172
 40
0.132751853
 40
0.1585942605
 40
0.1863379076
 40
0.2158860432
 40
0.247142691
 40
0.2800127392
 40
0.3144020331
 40
0.3873660703
 40
0.4653052053
 40
0.5475114513
 40
0.6333037003
 40
0.7220332734
 40
0.8130907351
 40
0.9059142759
 40
1.0
 40
1.0
 40
1.0
 40
1.0
 10
5.8313513602
 20
6.464403059
 30
0.0
 10
5.831337528
 20
6.4644202601
 30
0.0
 10
5.8313030233
 20
6.464451158
 30
0.0
 10
5.8312359861
 20
6.4644794839
 30
0.0
 10
5.8311554628
 20
6.4644906332
 30
0.0
 10
5.8310193736
 20
6.4644833236
 30
0.0
 10
5.830812778
 20
6.4644274121
 30
0.0
 10
5.8305269277
 20
6.4643062627
 30
0.0
 10
5.8301843959
 20
6.464124945
 30
0.0
 10
5.8297853949
 20
6.4638839008
 30
0.0
 10
5.8293299205
 20
6.4635832851
 30
0.0
 10
5.8288183021
 20
6.4632236658
 30
0.0
 10
5.8282508154
 20
6.462805639
 30
0.0
 10
5.8273785993
 20
6.4621394616
 30
0.0
 10
5.826153554
 20
6.4611621423
 30
0.0
 10
5.8245259413
 20
6.4598166425
 30
0.0
 10
5.8226821906
 20
6.4582546222
 30
0.0
 10
5.8206248039
 20
6.4564818047
 30
0.0
 10
5.8183563207
 20
6.4545038661
 30
0.0
 10
5.8158792255
 20
6.452326593
 30
0.0
 10
5.8121642667
 20
6.4490440296
 30
0.0
 10
5.807022795
 20
6.4444802223
 30
0.0
 10
5.8002631116
 20
6.4384827639
 30
0.0
 10
5.7927279415
 20
6.4318279977
 30
0.0
 10
5.7844370254
 20
6.4245625434
 30
0.0
 10
5.775410124
 20
6.4167330103
 30
0.0
 10
5.7656669337
 20
6.4083860885
 30
0.0
 10
5.7552271323
 20
6.3995684879
 30
0.0
 10
5.7441103833
 20
6.3903269436
 30
0.0
 10
5.7323363165
 20
6.3807081867
 30
0.0
 10
5.7154514195
 20
6.3671732923
 30
0.0
 10
5.6928678755
 20
6.3496292368
 30
0.0
 10
5.6639624341
 20
6.3282078245
 30
0.0
 10
5.6328976101
 20
6.3063940592
 30
0.0
 10
5.5998296759
 20
6.2845610496
 30
0.0
 10
5.564914513
 20
6.2630818113
 30
0.0
 10
5.5283070882
 20
6.242329184
 30
0.0
 10
5.4901633403
 20
6.2226767543
 30
0.0
 10
5.4639457533
 20
6.2106188121
 30
0.0
 10
5.450607619
 20
6.204881633
 30
0.0
  0
SPLINE
  5
3D4
100
AcDbEntity
  8
ALL_ASSEMBLY_MEMBERS
100
AcDbSpline
 62
7
  6
CONTINUOUS
 70
0
 71
3
 72
10
 73
6
 74
0
 42
0.0000001
 43
0.0000001
 44
0.0000000001
 40
0.0
 40
0.0
 40
0.0
 40
0.0
 40
0.2498902696
 40
0.4996911663
 40
1.0
 40
1.0
 40
1.0
 40
1.0
 10
4.9841375667
 20
7.0624123537
 30
0.0
 10
4.9808921546
 20
7.067437681
 30
0.0
 10
4.9746924064
 20
7.0776759567
 30
0.0
 10
4.9632873783
 20
7.0987311234
 30
0.0
 10
4.9556408479
 20
7.1149936018
 30
0.0
 10
4.9507386218
 20
7.1259214297
 30
0.0
  0
SPLINE
  5
3D5
100
AcDbEntity
  8
ALL_ASSEMBLY_MEMBERS
100
AcDbSpline
 62
7
  6
CONTINUOUS
 70
0
 71
3
 72
73
 73
69
 74
0
 42
0.0000001
 43
0.0000001
 44
0.0000000001
 40
0.0
 40
0.0
 40
0.0
 40
0.0
 40
0.0251917678
 40
0.0377780062
 40
0.0503482648
 40
0.0628953688
 40
0.0691581737
 40
0.0754129553
 40
0.0878983772
 40
0.1003520473
 40
0.1251642699
 40
0.1498474633
 40
0.1743956094
 40
0.1988005638
 40
0.2109465991
 40
0.2230536033
 40
0.2471452976
 40
0.2710630067
 40
0.2947930244
 40
0.3183212524
 40
0.3416333483
 40
0.3647148777
 40
0.3875519018
 40
0.4101322802
 40
0.4324442656
 40
0.4544760705
 40
0.4762158798
 40
0.4976518626
 40
0.5187722358
 40
0.5600206569
 40
0.5998709457
 40
0.6382331195
 40
0.6750219833
 40
0.7101600485
 40
0.7435705553
 40
0.775180804
 40
0.8049260051
 40
0.8327422945
 40
0.8585657771
 40
0.8823324144
 40
0.9039783027
 40
0.9234538178
 40
0.9323753898
 40
0.9407534522
 40
0.9485888171
 40
0.9558829127
 40
0.9626338639
 40
0.9688218534
 40
0.9744213306
 40
0.9794085409
 40
0.9816671314
 40
0.9837677112
 40
0.9857111681
 40
0.9875007066
 40
0.9891429549
 40
0.9906458093
 40
0.9920120696
 40
0.9932394931
 40
0.9943228139
 40
0.9952571761
 40
0.9960447311
 40
0.9967084718
 40
0.997014208
 40
0.9973193839
 40
0.9979915905
 40
0.9983933653
 40
0.9988555135
 40
1.0
 40
1.0
 40
1.0
 40
1.0
 10
4.9507386218
 20
7.1259214297
 30
0.0
 10
4.9476620929
 20
7.1327794931
 30
0.0
 10
4.943163812
 20
7.1431155334
 30
0.0
 10
4.937239798
 20
7.156920576
 30
0.0
 10
4.9327986318
 20
7.1672565457
 30
0.0
 10
4.9290646189
 20
7.1758427879
 30
0.0
 10
4.9260393503
 20
7.1826822107
 30
0.0
 10
4.9229863373
 20
7.1894891267
 30
0.0
 10
4.9191150073
 20
7.1979533399
 30
0.0
 10
4.9128231814
 20
7.2113985479
 30
0.0
 10
4.9047977826
 20
7.2280499461
 30
0.0
 10
4.89499075
 20
7.2478467184
 30
0.0
 10
4.885112958
 20
7.2674721339
 30
0.0
 10
4.876887934
 20
7.2837414841
 30
0.0
 10
4.8703650787
 20
7.2967118507
 30
0.0
 10
4.8639189914
 20
7.3096161552
 30
0.0
 10
4.8559845359
 20
7.3257030066
 30
0.0
 10
4.8466150812
 20
7.3449485697
 30
0.0
 10
4.8373918768
 20
7.364078142
 30
0.0
 10
4.8282917707
 20
7.3830663669
 30
0.0
 10
4.8192919676
 20
7.4018880784
 30
0.0
 10
4.8103695635
 20
7.4205182065
 30
0.0
 10
4.8015012633
 20
7.4389321298
 30
0.0
 10
4.7926999581
 20
7.4571234213
 30
0.0
 10
4.7839784001
 20
7.4750863741
 30
0.0
 10
4.7753492212
 20
7.4928153646
 30
0.0
 10
4.7668251449
 20
7.5103048158
 30
0.0
 10
4.7584185856
 20
7.527549017
 30
0.0
 10
4.7474708796
 20
7.5500300748
 30
0.0
 10
4.7341358874
 20
7.5774597402
 30
0.0
 10
4.7185714466
 20
7.6095257335
 30
0.0
 10
4.7035983024
 20
7.6403996608
 30
0.0
 10
4.6892418142
 20
7.6700100325
 30
0.0
 10
4.6755326459
 20
7.6982923181
 30
0.0
 10
4.6624992646
 20
7.7251850652
 30
0.0
 10
4.6501668932
 20
7.7506294601
 30
0.0
 10
4.6385533316
 20
7.7745673666
 30
0.0
 10
4.62767422
 20
7.796942507
 30
0.0
 10
4.6175512225
 20
7.8177017486
 30
0.0
 10
4.6082502689
 20
7.8368135259
 30
0.0
 10
4.5998323073
 20
7.8542485937
 30
0.0
 10
4.5934229003
 20
7.8677344398
 30
0.0
 10
4.5886924269
 20
7.8776350638
 30
0.0
 10
4.5854305406
 20
7.8843881761
 30
0.0
 10
4.5823319945
 20
7.8906807236
 30
0.0
 10
4.5793802587
 20
7.8965041435
 30
0.0
 10
4.5765594226
 20
7.901841759
 30
0.0
 10
4.5739379806
 20
7.9067124775
 30
0.0
 10
4.5715893296
 20
7.9111322694
 30
0.0
 10
4.5698656472
 20
7.914556534
 30
0.0
 10
4.5687040722
 20
7.9170921983
 30
0.0
 10
4.5679771259
 20
7.9188270344
 30
0.0
 10
4.5673745324
 20
7.920460657
 30
0.0
 10
4.5669041456
 20
7.9219952438
 30
0.0
 10
4.566580155
 20
7.923432964
 30
0.0
 10
4.5663749477
 20
7.9247641195
 30
0.0
 10
4.5662509188
 20
7.9259804386
 30
0.0
 10
4.5661728513
 20
7.927074826
 30
0.0
 10
4.5661057996
 20
7.9280406855
 30
0.0
 10
4.5660146143
 20
7.9288734204
 30
0.0
 10
4.5658651105
 20
7.9295711154
 30
0.0
 10
4.5656451193
 20
7.9300564964
 30
0.0
 10
4.5653959748
 20
7.9303472352
 30
0.0
 10
4.5650894218
 20
7.9305814371
 30
0.0
 10
4.5646873937
 20
7.9307133059
 30
0.0
 10
4.5642307065
 20
7.9307552246
 30
0.0
 10
4.5636302818
 20
7.930738378
 30
0.0
 10
4.563155865
 20
7.930655133
 30
0.0
 10
4.5628223138
 20
7.9305819613
 30
0.0
  0
SPLINE
  5
3D6
100
AcDbEntity
  8
ALL_ASSEMBLY_MEMBERS
100
AcDbSpline
 62
7
  6
CONTINUOUS
 70
0
 71
3
 72
27
 73
23
 74
0
 42
0.0000001
 43
0.0000001
 44
0.0000000001
 40
0.0
 40
0.0
 40
0.0
 40
0.0
 40
0.0010777608
 40
0.0043403733
 40
0.0098320955
 40
0.0175975197
 40
0.0276754312
 40
0.0400804285
 40
0.0548213074
 40
0.0719071829
 40
0.1130884068
 40
0.1633862413
 40
0.2224396212
 40
0.2896378986
 40
0.3642493609
 40
0.4453035334
 40
0.5317308045
 40
0.622303424
 40
0.7157405718
 40
0.8107064899
 40
0.9058731113
 40
1.0
 40
1.0
 40
1.0
 40
1.0
 10
5.0124641861
 20
7.8064634996
 30
0.0
 10
5.0125935532
 20
7.8062658344
 30
0.0
 10
5.0131127667
 20
7.8054686404
 30
0.0
 10
5.0142753357
 20
7.8036539761
 30
0.0
 10
5.0162094351
 20
7.8005927959
 30
0.0
 10
5.0189108756
 20
7.7962495204
 30
0.0
 10
5.0223744849
 20
7.790595955
 30
0.0
 10
5.0265892056
 20
7.7836096873
 30
0.0
 10
5.0315409683
 20
7.7752743534
 30
0.0
 10
5.0396204026
 20
7.761460927
 30
0.0
 10
5.0514164905
 20
7.7407931989
 30
0.0
 10
5.0674188575
 20
7.7119373282
 30
0.0
 10
5.0857791555
 20
7.6778712559
 30
0.0
 10
5.1062347729
 20
7.6388835274
 30
0.0
 10
5.1284590778
 20
7.5953812283
 30
0.0
 10
5.1521315749
 20
7.5478887971
 30
0.0
 10
5.1768806839
 20
7.4970268434
 30
0.0
 10
5.2023369711
 20
7.4434931868
 30
0.0
 10
5.2281047241
 20
7.3880379264
 30
0.0
 10
5.2538218934
 20
7.3314512876
 30
0.0
 10
5.2791290873
 20
7.2745146218
 30
0.0
 10
5.2956306324
 20
7.2364450279
 30
0.0
 10
5.3037346107
 20
7.2174715638
 30
0.0
  0
SPLINE
  5
3D7
100
AcDbEntity
  8
ALL_ASSEMBLY_MEMBERS
100
AcDbSpline
 62
7
  6
CONTINUOUS
 70
0
 71
3
 72
37
 73
33
 74
0
 42
0.0000001
 43
0.0000001
 44
0.0000000001
 40
0.0
 40
0.0
 40
0.0
 40
0.0
 40
0.2046344947
 40
0.3010253157
 40
0.3929559098
 40
0.4800356793
 40
0.5618662801
 40
0.6380424346
 40
0.7081526506
 40
0.7717803846
 40
0.8010325616
 40
0.8285065015
 40
0.8541491321
 40
0.877907129
 40
0.8997269322
 40
0.9195547632
 40
0.9373366456
 40
0.9530184313
 40
0.9665458402
 40
0.9724846945
 40
0.9778645811
 40
0.9826787236
 40
0.9869203716
 40
0.9905828261
 40
0.9936594886
 40
0.9961439708
 40
0.997162298
 40
0.9980304592
 40
0.9987479605
 40
0.9993146105
 40
0.9997309636
 40
1.0
 40
1.0
 40
1.0
 40
1.0
 10
5.5455100398
 20
6.5824506655
 30
0.0
 10
5.5585688913
 20
6.5954556962
 30
0.0
 10
5.5773992486
 20
6.6149732997
 30
0.0
 10
5.6012427686
 20
6.6411281094
 30
0.0
 10
5.617629364
 20
6.6597495343
 30
0.0
 10
5.632852981
 20
6.677642769
 30
0.0
 10
5.6468877065
 20
6.6946807579
 30
0.0
 10
5.6597074917
 20
6.7107361972
 30
0.0
 10
5.6712863089
 20
6.725681849
 30
0.0
 10
5.680110994
 20
6.737413198
 30
0.0
 10
5.6865336035
 20
6.7461450249
 30
0.0
 10
5.6908875181
 20
6.7521514051
 30
0.0
 10
5.6949119671
 20
6.7577852432
 30
0.0
 10
5.6986038034
 20
6.7630306754
 30
0.0
 10
5.7019598939
 20
6.7678718233
 30
0.0
 10
5.7049771086
 20
6.7722928078
 30
0.0
 10
5.7076523505
 20
6.7762777333
 30
0.0
 10
5.7099825002
 20
6.779810713
 30
0.0
 10
5.7117015302
 20
6.7824688939
 30
0.0
 10
5.7129011021
 20
6.7843579299
 30
0.0
 10
5.7136726907
 20
6.7855891145
 30
0.0
 10
5.7143556652
 20
6.7866954092
 30
0.0
 10
5.7149496509
 20
6.7876748222
 30
0.0
 10
5.7154543397
 20
6.7885253373
 30
0.0
 10
5.7158693635
 20
6.7892449588
 30
0.0
 10
5.7161568389
 20
6.7897631915
 30
0.0
 10
5.7163405392
 20
6.7901113709
 30
0.0
 10
5.7164463026
 20
6.790320733
 30
0.0
 10
5.7165293996
 20
6.7904958283
 30
0.0
 10
5.7165902625
 20
6.7906365802
 30
0.0
 10
5.7166284198
 20
6.7907424538
 30
0.0
 10
5.7166437329
 20
6.7908029794
 30
0.0
 10
5.7166448845
 20
6.7908271822
 30
0.0
  0
SPLINE
  5
3D8
100
AcDbEntity
  8
ALL_ASSEMBLY_MEMBERS
100
AcDbSpline
 62
7
  6
CONTINUOUS
 70
0
 71
3
 72
16
 73
12
 74
0
 42
0.0000001
 43
0.0000001
 44
0.0000000001
 40
0.0
 40
0.0
 40
0.0
 40
0.0
 40
0.1276694786
 40
0.2547659617
 40
0.3811830177
 40
0.5068200203
 40
0.6315924894
 40
0.6936322345
 40
0.7554296427
 40
0.87826028
 40
1.0
 40
1.0
 40
1.0
 40
1.0
 10
5.5665571443
 20
5.9506600249
 30
0.0
 10
5.5644086808
 20
5.9573123749
 30
0.0
 10
5.5600129262
 20
5.9705524698
 30
0.0
 10
5.5531153395
 20
5.9902528076
 30
0.0
 10
5.5459423636
 20
6.0097360601
 30
0.0
 10
5.538496039
 20
6.0289801815
 30
0.0
 10
5.5320306165
 20
6.0448212517
 30
0.0
 10
5.5266956547
 20
6.057345422
 30
0.0
 10
5.52127684
 20
6.069717538
 30
0.0
 10
5.5143359649
 20
6.0849907357
 30
0.0
 10
5.5086117988
 20
6.097097908
 30
0.0
 10
5.5057271135
 20
6.103107405
 30
0.0
  0
SPLINE
  5
3D9
100
AcDbEntity
  8
ALL_ASSEMBLY_MEMBERS
100
AcDbSpline
 62
7
  6
CONTINUOUS
 70
0
 71
3
 72
50
 73
46
 74
0
 42
0.0000001
 43
0.0000001
 44
0.0000000001
 40
0.0
 40
0.0
 40
0.0
 40
0.0
 40
0.1171368812
 40
0.1730796638
 40
0.2272514393
 40
0.3302319602
 40
0.4260029617
 40
0.471163932
 40
0.5144939272
 40
0.5559735058
 40
0.5955820911
 40
0.6332994301
 40
0.6691064974
 40
0.7029897843
 40
0.7349564112
 40
0.7650182693
 40
0.7931865797
 40
0.8194762169
 40
0.8319238925
 40
0.8439118269
 40
0.8664899224
 40
0.8871330064
 40
0.9057520421
 40
0.914286411
 40
0.9223069584
 40
0.9298300415
 40
0.9368891418
 40
0.9435273743
 40
0.9497629523
 40
0.9555878284
 40
0.9609731719
 40
0.9658753657
 40
0.970243894
 40
0.9740334772
 40
0.9772270488
 40
0.9786167956
 40
0.9798943989
 40
0.9811015987
 40
0.982301301
 40
0.9849806107
 40
0.9866278556
 40
0.9885591544
 40
0.9908234111
 40
0.9934617808
 40
1.0
 40
1.0
 40
1.0
 40
1.0
 10
5.3037294643
 20
7.2174688357
 30
0.0
 10
5.3095369887
 20
7.2202780561
 30
0.0
 10
5.3181171735
 20
7.2244308343
 30
0.0
 10
5.3293760751
 20
7.2298973485
 30
0.0
 10
5.3399274766
 20
7.2350359711
 30
0.0
 10
5.3524381486
 20
7.2411612543
 30
0.0
 10
5.3645089069
 20
7.2470565433
 30
0.0
 10
5.3736482357
 20
7.2514677521
 30
0.0
 10
5.3801065549
 20
7.2545545897
 30
0.0
 10
5.386293021
 20
7.2575010435
 30
0.0
 10
5.3921979092
 20
7.2603198408
 30
0.0
 10
5.3978109067
 20
7.2630248331
 30
0.0
 10
5.4031227277
 20
7.2656283304
 30
0.0
 10
5.4081224815
 20
7.2681481276
 30
0.0
 10
5.4128215606
 20
7.2705609348
 30
0.0
 10
5.4172371169
 20
7.2728368032
 30
0.0
 10
5.4213857989
 20
7.2749479491
 30
0.0
 10
5.42469239
 20
7.2765746295
 30
0.0
 10
5.4272209932
 20
7.2777626202
 30
0.0
 10
5.4295815528
 20
7.2788268709
 30
0.0
 10
5.4323785383
 20
7.280020025
 30
0.0
 10
5.4355189081
 20
7.2813377442
 30
0.0
 10
5.4379252687
 20
7.2824071006
 30
0.0
 10
5.439658041
 20
7.2832742316
 30
0.0
 10
5.4408177622
 20
7.283918397
 30
0.0
 10
5.4418705137
 20
7.2845844424
 30
0.0
 10
5.4428081876
 20
7.2852844803
 30
0.0
 10
5.4436276521
 20
7.2860168543
 30
0.0
 10
5.4443444474
 20
7.2867572616
 30
0.0
 10
5.4449718025
 20
7.2874855227
 30
0.0
 10
5.445523381
 20
7.2881808366
 30
0.0
 10
5.4460125139
 20
7.2888228798
 30
0.0
 10
5.4464526198
 20
7.2893919986
 30
0.0
 10
5.4468570767
 20
7.289868906
 30
0.0
 10
5.4471916753
 20
7.2901895104
 30
0.0
 10
5.4474585451
 20
7.2903725568
 30
0.0
 10
5.4476512193
 20
7.2904666337
 30
0.0
 10
5.4478488289
 20
7.2905191624
 30
0.0
 10
5.4481315784
 20
7.2905272224
 30
0.0
 10
5.4484274208
 20
7.2904195416
 30
0.0
 10
5.4487138831
 20
7.290227845
 30
0.0
 10
5.4489579886
 20
7.2900167926
 30
0.0
 10
5.4492184699
 20
7.2897446769
 30
0.0
 10
5.4496215647
 20
7.2892598733
 30
0.0
 10
5.4499120588
 20
7.2888453084
 30
0.0
 10
5.4501115009
 20
7.2885454948
 30
0.0
  0
SPLINE
  5
3DA
100
AcDbEntity
  8
ALL_ASSEMBLY_MEMBERS
100
AcDbSpline
 62
7
  6
CONTINUOUS
 70
0
 71
3
 72
25
 73
21
 74
0
 42
0.0000001
 43
0.0000001
 44
0.0000000001
 40
0.0
 40
0.0
 40
0.0
 40
0.0
 40
0.0014858804
 40
0.0058753193
 40
0.0130678195
 40
0.0229630626
 40
0.0504613919
 40
0.0875718872
 40
0.1334999005
 40
0.1874552188
 40
0.2486528114
 40
0.3163137368
 40
0.389666251
 40
0.4679471703
 40
0.55040356
 40
0.6362948418
 40
0.7248954452
 40
0.8154981682
 40
0.9074184701
 40
1.0
 40
1.0
 40
1.0
 40
1.0
 10
5.9218915821
 20
6.0885010139
 30
0.0
 10
5.9217261407
 20
6.088409068
 30
0.0
 10
5.9210705807
 20
6.0880480085
 30
0.0
 10
5.9196100975
 20
6.0872493136
 30
0.0
 10
5.9172038974
 20
6.0859474234
 30
0.0
 10
5.9121967583
 20
6.0832669141
 30
0.0
 10
5.9037951173
 20
6.0788527249
 30
0.0
 10
5.891265316
 20
6.0724286018
 30
0.0
 10
5.875650155
 20
6.064637416
 30
0.0
 10
5.857181896
 20
6.0556949583
 30
0.0
 10
5.8360925427
 20
6.045817371
 30
0.0
 10
5.8126141425
 20
6.0352206253
 30
0.0
 10
5.7869786745
 20
6.0241206808
 30
0.0
 10
5.7594180678
 20
6.0127334167
 30
0.0
 10
5.7301641747
 20
6.0012746379
 30
0.0
 10
5.6994487294
 20
5.9899600529
 30
0.0
 10
5.6675033674
 20
5.9790052785
 30
0.0
 10
5.6345593321
 20
5.9686257693
 30
0.0
 10
5.6008483106
 20
5.959037048
 30
0.0
 10
5.5780458897
 20
5.953322564
 30
0.0
 10
5.5665571439
 20
5.9506600266
 30
0.0
  0
SPLINE
  5
3DB
100
AcDbEntity
  8
ALL_ASSEMBLY_MEMBERS
100
AcDbSpline
 62
7
  6
CONTINUOUS
 70
0
 71
3
 72
45
 73
41
 74
0
 42
0.0000001
 43
0.0000001
 44
0.0000000001
 40
0.0
 40
0.0
 40
0.0
 40
0.0
 40
0.0001004609
 40
0.0001989817
 40
0.0003161182
 40
0.0004647127
 40
0.0008776852
 40
0.0014598869
 40
0.0022167977
 40
0.0031498962
 40
0.0042591811
 40
0.0055439882
 40
0.0070033142
 40
0.0086359657
 40
0.0104406346
 40
0.0124159399
 40
0.0168726945
 40
0.0219944732
 40
0.0277692095
 40
0.0341846876
 40
0.0412286094
 40
0.0488886331
 40
0.0660075303
 40
0.0854424597
 40
0.1070946621
 40
0.1308656965
 40
0.1566575415
 40
0.1843726723
 40
0.2139141278
 40
0.2451855752
 40
0.2780913742
 40
0.312536645
 40
0.3856694702
 40
0.4638437027
 40
0.546335925
 40
0.6324438089
 40
0.7214904864
 40
0.8128299705
 40
0.9058539075
 40
1.0
 40
1.0
 40
1.0
 40
1.0
 10
5.8717704129
 20
6.3075721758
 30
0.0
 10
5.8717672612
 20
6.3075859141
 30
0.0
 10
5.8717557492
 20
6.3076127152
 30
0.0
 10
5.8717186916
 20
6.3076400966
 30
0.0
 10
5.8716678904
 20
6.3076513252
 30
0.0
 10
5.8715722224
 20
6.307648589
 30
0.0
 10
5.8714158602
 20
6.307606334
 30
0.0
 10
5.8711879196
 20
6.307514553
 30
0.0
 10
5.8709013782
 20
6.3073740417
 30
0.0
 10
5.8705567725
 20
6.3071855793
 30
0.0
 10
5.8701542157
 20
6.3069490634
 30
0.0
 10
5.8696941419
 20
6.3066650487
 30
0.0
 10
5.8691769046
 20
6.3063339979
 30
0.0
 10
5.8686028901
 20
6.3059564692
 30
0.0
 10
5.8679724685
 20
6.3055330298
 30
0.0
 10
5.8670181238
 20
6.3048812733
 30
0.0
 10
5.8656881396
 20
6.3039544012
 30
0.0
 10
5.8639305498
 20
6.3027089055
 30
0.0
 10
5.8619561573
 20
6.3012941015
 30
0.0
 10
5.8597679296
 20
6.2997147408
 30
0.0
 10
5.8573688377
 20
6.2979755719
 30
0.0
 10
5.8537567566
 20
6.2953510171
 30
0.0
 10
5.8487397624
 20
6.2917024091
 30
0.0
 10
5.8421268602
 20
6.2869104235
 30
0.0
 10
5.8347411386
 20
6.2815943764
 30
0.0
 10
5.8266061921
 20
6.27579262
 30
0.0
 10
5.8177456248
 20
6.2695434989
 30
0.0
 10
5.8081830035
 20
6.2628854113
 30
0.0
 10
5.7979418837
 20
6.2558567687
 30
0.0
 10
5.7870458132
 20
6.2484959997
 30
0.0
 10
5.7755183173
 20
6.2408415282
 30
0.0
 10
5.7590054305
 20
6.2300785874
 30
0.0
 10
5.7369742538
 20
6.2161521054
 30
0.0
 10
5.708890701
 20
6.199195298
 30
0.0
 10
5.6788451722
 20
6.1819818325
 30
0.0
 10
5.6470253408
 20
6.1648184994
 30
0.0
 10
5.6136185962
 20
6.1480119989
 30
0.0
 10
5.5788116663
 20
6.1318688752
 30
0.0
 10
5.5427920192
 20
6.1166960786
 30
0.0
 10
5.518195072
 20
6.1074700359
 30
0.0
 10
5.5057271135
 20
6.103107405
 30
0.0
  0
SPLINE
  5
3DC
100
AcDbEntity
  8
ALL_ASSEMBLY_MEMBERS
100
AcDbSpline
 62
7
  6
CONTINUOUS
 70
0
 71
3
 72
27
 73
23
 74
0
 42
0.0000001
 43
0.0000001
 44
0.0000000001
 40
0.0
 40
0.0
 40
0.0
 40
0.0
 40
0.0411388115
 40
0.0629120506
 40
0.0855329047
 40
0.1090241605
 40
0.1333972578
 40
0.1586541965
 40
0.184789151
 40
0.2117898163
 40
0.239638523
 40
0.2977813456
 40
0.3590078274
 40
0.4230587052
 40
0.4896463357
 40
0.5584638151
 40
0.6291916662
 40
0.7015029558
 40
0.7750674228
 40
0.8495550214
 40
0.9246391781
 40
1.0
 40
1.0
 40
1.0
 40
1.0
 10
5.0641624346
 20
5.9959596142
 30
0.0
 10
5.0693412513
 20
5.9910737981
 30
0.0
 10
5.077876123
 20
5.9842355772
 30
0.0
 10
5.090257489
 20
5.9761150125
 30
0.0
 10
5.1004485488
 20
5.9702544545
 30
0.0
 10
5.1113364241
 20
5.9647424936
 30
0.0
 10
5.1228947926
 20
5.9595784477
 30
0.0
 10
5.1350952952
 20
5.9547632501
 30
0.0
 10
5.1479100984
 20
5.9502975995
 30
0.0
 10
5.1613112671
 20
5.9461822473
 30
0.0
 10
5.1801954276
 20
5.9410907638
 30
0.0
 10
5.2051062607
 20
5.9356608153
 30
0.0
 10
5.2364657501
 20
5.9306451138
 30
0.0
 10
5.2694887436
 20
5.9270479421
 30
0.0
 10
5.3039508124
 20
5.9248781972
 30
0.0
 10
5.3396281877
 20
5.9241449146
 30
0.0
 10
5.3762960644
 20
5.9248570765
 30
0.0
 10
5.4137293989
 20
5.9270235882
 30
0.0
 10
5.4517028134
 20
5.9306532451
 30
0.0
 10
5.48999108
 20
5.9357548215
 30
0.0
 10
5.5283679462
 20
5.9423368077
 30
0.0
 10
5.5538513861
 20
5.9477154446
 30
0.0
 10
5.5665571405
 20
5.9506600258
 30
0.0
  0
SPLINE
  5
3DD
100
AcDbEntity
  8
ALL_ASSEMBLY_MEMBERS
100
AcDbSpline
 62
7
  6
CONTINUOUS
 70
0
 71
3
 72
29
 73
25
 74
0
 42
0.0000001
 43
0.0000001
 44
0.0000000001
 40
0.0
 40
0.0
 40
0.0
 40
0.0
 40
0.0171707085
 40
0.0353090312
 40
0.0544834773
 40
0.0747409489
 40
0.0961110063
 40
0.1186094045
 40
0.1422387258
 40
0.166988144
 40
0.1928391487
 40
0.2197675693
 40
0.2477447169
 40
0.276738273
 40
0.3376272646
 40
0.4021279063
 40
0.4698731613
 40
0.5404630091
 40
0.6134857494
 40
0.6885222846
 40
0.7651396297
 40
0.8428896673
 40
0.9213245346
 40
1.0
 40
1.0
 40
1.0
 40
1.0
 10
5.1383726013
 20
5.9256274941
 30
0.0
 10
5.1402767876
 20
5.9238146566
 30
0.0
 10
5.1443718226
 20
5.9202721554
 30
0.0
 10
5.1511116118
 20
5.9153431337
 30
0.0
 10
5.1585870193
 20
5.9106589373
 30
0.0
 10
5.1667762822
 20
5.9062195409
 30
0.0
 10
5.1756586813
 20
5.9020244546
 30
0.0
 10
5.1852129279
 20
5.8980740271
 30
0.0
 10
5.195416564
 20
5.8943687362
 30
0.0
 10
5.2062456226
 20
5.8909086211
 30
0.0
 10
5.2176754387
 20
5.8876943115
 30
0.0
 10
5.2296811394
 20
5.8847265113
 30
0.0
 10
5.2422378342
 20
5.8820058495
 30
0.0
 10
5.259972007
 20
5.8786544067
 30
0.0
 10
5.2833559295
 20
5.8751311805
 30
0.0
 10
5.3127653747
 20
5.8719634042
 30
0.0
 10
5.3437539191
 20
5.8697961109
 30
0.0
 10
5.3761012752
 20
5.8686357567
 30
0.0
 10
5.4095850464
 20
5.8684891783
 30
0.0
 10
5.4439806276
 20
5.869362781
 30
0.0
 10
5.4790595532
 20
5.8712625504
 30
0.0
 10
5.5145895314
 20
5.8741946892
 30
0.0
 10
5.5503354013
 20
5.8781651221
 30
0.0
 10
5.5741622036
 20
5.8815094219
 30
0.0
 10
5.5860654371
 20
5.8833620721
 30
0.0
  0
ENDSEC
  0
SECTION
  2
OBJECTS
  0
DICTIONARY
  5
C
100
AcDbDictionary
280
0
281
1
  3
ACAD_GROUP
350
D
  3
ACAD_MLINESTYLE
350
17
  3
ACAD_LAYOUT
350
1A
  3
ACAD_PLOTSETTINGS
350
19
  3
ACAD_PLOTSTYLENAME
350
E
  0
DICTIONARY
  5
D
102
{ACAD_REACTORS
330
C
102
}
100
AcDbDictionary
280
0
281
1
  0
ACDBDICTIONARYWDFLT
  5
E
102
{ACAD_REACTORS
330
C
102
}
100
AcDbDictionary
281
1
  3
Normal
350
F
100
AcDbDictionaryWithDefault
340
F
  0
DICTIONARY
  5
17
102
{ACAD_REACTORS
330
C
102
}
100
AcDbDictionary
280
0
281
1
  3
Standard
350
18
  0
DICTIONARY
  5
19
102
{ACAD_REACTORS
330
C
102
}
100
AcDbDictionary
281
1
  0
DICTIONARY
  5
1A
102
{ACAD_REACTORS
330
C
102
}
100
AcDbDictionary
281
1
  3
Model
350
3DE
  3
Layout1
350
3DF
  0
ACDBPLACEHOLDER
  5
F
102
{ACAD_REACTORS
330
E
102
}
  0
MLINESTYLE
  5
18
102
{ACAD_REACTORS
330
17
102
}
100
AcDbMlineStyle
  2
STANDARD
 70
0
  3

 62
256
 51
90.0
 52
90.0
 71
2
 49
0.5
 62
256
  6
BYLAYER
 49
-0.5
 62
256
  6
BYLAYER
  0
LAYOUT
  5
3DE
102
{ACAD_REACTORS
330
1A
102
}
100
AcDbPlotSettings
  1

  2
none_device
  4
ANSI_A_(11.00_x_8.50_Inches)
  6

 40
0.0
 41
0.0
 42
0.0
 43
0.0
 44
279.4
 45
215.9
 46
0.0
 47
0.0
 48
0.0
 49
0.0
140
0.0
141
0.0
142
1.0
143
1.0
 70
1024
 72
0
 73
0
 74
0
  7

 75
0
147
1.0
148
0.0
149
0.0
100
AcDbLayout
  1
Model
 70
0
 71
0
 10
0.0
 20
0.0
 11
11.0
 21
8.5
 12
0.0
 22
0.0
 32
0.0
 14
0.0
 24
0.0
 34
0.0
 15
0.0
 25
0.0
 35
0.0
146
0.0
 13
0.0
 23
0.0
 33
0.0
 16
1.0
 26
0.0
 36
0.0
 17
0.0
 27
1.0
 37
0.0
 76
0
330
224
345
0
346
0
  0
LAYOUT
  5
3DF
102
{ACAD_REACTORS
330
1A
102
}
100
AcDbPlotSettings
  1

  2
none_device
  4
ANSI_A_(11.00_x_8.50_Inches)
  6

 40
0.0
 41
0.0
 42
0.0
 43
0.0
 44
279.4
 45
215.9
 46
0.0
 47
0.0
 48
0.0
 49
0.0
140
0.0
141
0.0
142
1.0
143
1.0
 70
0
 72
0
 73
0
 74
0
  7

 75
0
147
1.0
148
0.0
149
0.0
100
AcDbLayout
  1
Layout1
 70
0
 71
1
 10
0.0
 20
0.0
 11
11.0
 21
8.5
 12
0.0
 22
0.0
 32
0.0
 14
0.0
 24
0.0
 34
0.0
 15
0.0
 25
0.0
 35
0.0
146
0.0
 13
0.0
 23
0.0
 33
0.0
 16
1.0
 26
0.0
 36
0.0
 17
0.0
 27
1.0
 37
0.0
 76
0
330
225
345
0
346
0
  0
ENDSEC
  0
EOF
