999
DXF file: E:\BT Custom\CADOUTPUT\_RIGHT.dxf
999
Pro/ENGINEER 2018400 by Parametric Technology Corporation
  0
SECTION
  2
HEADER
  9
$ACADVER
  1
AC1018
  9
$DWGCODEPAGE
  3
ANSI_1252
  9
$EXTMAX
 10
22.0
 20
17.0
 30
0.0
  9
$EXTMIN
 10
0.0
 20
0.0
 30
0.0
  9
$LIMMIN
 10
0.0
 20
0.0
  9
$LIMMAX
 10
22.0
 20
17.0
  9
$VIEWCTR
 10
11.0
 20
8.5
  9
$VIEWSIZE
 40
17.0
  9
$CLAYER
  8
0
  9
$LTSCALE
 40
1.21
  9
$CELTYPE
  6
BYLAYER
  9
$DIMSCALE
 40
1.0
  9
$DIMASZ
 40
0.1
  9
$DIMEXO
 40
0.0625
  9
$DIMDLI
 40
0.836
  9
$DIMEXE
 40
0.125
  9
$DIMCEN
 40
0.198
  9
$DIMLFAC
 40
1.0
  9
$DIMBLK
  1
_FILLED
  9
$DIMALT
 70
1
  9
$DIMALTD
 70
2
  9
$DIMALTTD
 70
2
  9
$DIMALTF
 40
25.4
  9
$DIMTXT
 40
0.08
  9
$DIMTOL
 70
1
  9
$DIMLIM
 70
0
  9
$DIMTFAC
 40
1.0
  9
$DIMTP
 40
0.001
  9
$DIMTM
 40
0.001
  9
$DIMGAP
 40
0.09
  9
$DIMDSEP
 70
46
  9
$AUNITS
 70
0
  9
$PDMODE
 70
3
  9
$PDSIZE
 40
0.06
  9
$HANDSEED
  5
410
  9
$TILEMODE
 70
1
  9
$MEASUREMENT
 70
0
  9
$INSUNITS
 70
1
  0
ENDSEC
  0
SECTION
  2
CLASSES
  0
CLASS
  1
ACDBDICTIONARYWDFLT
  2
AcDbDictionaryWithDefault
  3
AutoCAD 2000
 90
0
 91
1
280
0
281
0
  0
CLASS
  1
ACDBPLACEHOLDER
  2
AcDbPlaceHolder
  3
AutoCAD 2000
 90
0
 91
1
280
0
281
0
  0
CLASS
  1
LAYOUT
  2
AcDbLayout
  3
AutoCAD 2000
 90
0
 91
0
280
0
281
0
  0
ENDSEC
  0
SECTION
  2
TABLES
  0
TABLE
  2
VPORT
  5
8
100
AcDbSymbolTable
 70
2
  0
VPORT
  5
1F4
100
AcDbSymbolTableRecord
100
AcDbViewportTableRecord
  2
*ACTIVE
 70
0
 10
0.0
 20
0.0
 11
1.0
 21
1.0
 12
11.0
 22
8.5
 13
0.0
 23
0.0
 14
1.0
 24
1.0
 15
0.0
 25
0.0
 16
0.0
 26
0.0
 36
1.0
 17
0.0
 27
0.0
 37
0.0
 40
17.0
 41
1.2941176471
 42
50.0
 43
0.0
 44
0.0
 50
0.0
 51
0.0
 71
0
 72
100
 73
1
 74
1
 75
0
 76
0
 77
0
 78
0
  0
ENDTAB
  0
TABLE
  2
LTYPE
  5
5
100
AcDbSymbolTable
 70
6
  0
LTYPE
  5
14
100
AcDbSymbolTableRecord
100
AcDbLinetypeTableRecord
  2
BYBLOCK
 70
0
  3

 72
65
 73
0
 40
0.0
  0
LTYPE
  5
15
100
AcDbSymbolTableRecord
100
AcDbLinetypeTableRecord
  2
BYLAYER
 70
0
  3

 72
65
 73
0
 40
0.0
  0
LTYPE
  5
16
100
AcDbSymbolTableRecord
100
AcDbLinetypeTableRecord
  2
CONTINUOUS
 70
64
  3
Solid line
 72
65
 73
0
 40
0.0
  0
LTYPE
  5
1F5
100
AcDbSymbolTableRecord
100
AcDbLinetypeTableRecord
  2
CENTER
 70
64
  3
____ _ ____ _ ____ _ ____ _ ____ _ ____ _ ____
 72
65
 73
4
 40
0.6
 49
0.375
 74
0
 49
-0.075
 74
0
 49
0.075
 74
0
 49
-0.075
 74
0
  0
LTYPE
  5
1F6
100
AcDbSymbolTableRecord
100
AcDbLinetypeTableRecord
  2
HIDDEN
 70
64
  3
- - - - - - - - - - - - - - - - - - - -
 72
65
 73
2
 40
0.2
 49
0.1
 74
0
 49
-0.1
 74
0
  0
LTYPE
  5
1F7
100
AcDbSymbolTableRecord
100
AcDbLinetypeTableRecord
  2
PHANTOM
 70
64
  3
_____ _ _ _____ _ _ _____ _ _ _____
 72
65
 73
6
 40
0.8
 49
0.45
 74
0
 49
-0.05
 74
0
 49
0.1
 74
0
 49
-0.05
 74
0
 49
0.1
 74
0
 49
-0.05
 74
0
  0
LTYPE
  5
1F8
100
AcDbSymbolTableRecord
100
AcDbLinetypeTableRecord
  2
DOT
 70
64
  3
. . . . . . . . . . . . . . . . . . . .
 72
65
 73
2
 40
0.2
 49
0.1
 74
0
 49
-0.1
 74
0
  0
LTYPE
  5
1F9
100
AcDbSymbolTableRecord
100
AcDbLinetypeTableRecord
  2
DASHED
 70
64
  3
- - - - - - - - - - - - - - - - - - - -
 72
65
 73
2
 40
0.2
 49
0.1
 74
0
 49
-0.1
 74
0
  0
ENDTAB
  0
TABLE
  2
LAYER
  5
2
100
AcDbSymbolTable
 70
36
  0
LAYER
  5
10
100
AcDbSymbolTableRecord
100
AcDbLayerTableRecord
  2
0
 70
0
 62
7
  6
CONTINUOUS
370
-3
390
F
  0
LAYER
  5
1FA
100
AcDbSymbolTableRecord
100
AcDbLayerTableRecord
  2
DEFAULT_1
 70
0
 62
7
  6
CENTER
370
-3
390
F
  0
LAYER
  5
1FB
100
AcDbSymbolTableRecord
100
AcDbLayerTableRecord
  2
DEFAULT_2
 70
0
 62
8
  6
HIDDEN
370
-3
390
F
  0
LAYER
  5
1FC
100
AcDbSymbolTableRecord
100
AcDbLayerTableRecord
  2
DEFAULT_3
 70
0
 62
7
  6
PHANTOM
370
-3
390
F
  0
LAYER
  5
1FD
100
AcDbSymbolTableRecord
100
AcDbLayerTableRecord
  2
ALL_FEATURES
 70
0
 62
7
  6
CONTINUOUS
370
-3
390
F
  0
LAYER
  5
1FE
100
AcDbSymbolTableRecord
100
AcDbLayerTableRecord
  2
AXES_FEATURES
 70
0
 62
7
  6
CONTINUOUS
370
-3
390
F
  0
LAYER
  5
1FF
100
AcDbSymbolTableRecord
100
AcDbLayerTableRecord
  2
DIMENSIONS
 70
0
 62
7
  6
CONTINUOUS
370
-3
390
F
  0
ENDTAB
  0
TABLE
  2
STYLE
  5
3
100
AcDbSymbolTable
 70
1
  0
STYLE
  5
11
100
AcDbSymbolTableRecord
100
AcDbTextStyleTableRecord
  2
STANDARD
 70
0
 40
0.0
 41
0.8
 50
0.0
 71
0
 42
0.2
  3
txt
  4

  0
STYLE
  5
200
100
AcDbSymbolTableRecord
100
AcDbTextStyleTableRecord
  2
TEXTSTYLE_1
 70
0
 40
0.0
 41
0.8
 50
0.0
 71
0
 42
0.2
  3
gdt
  4

  0
ENDTAB
  0
TABLE
  2
VIEW
  5
6
100
AcDbSymbolTable
 70
0
  0
ENDTAB
  0
TABLE
  2
UCS
  5
7
100
AcDbSymbolTable
 70
0
  0
ENDTAB
  0
TABLE
  2
APPID
  5
9
100
AcDbSymbolTable
 70
1
  0
APPID
  5
201
100
AcDbSymbolTableRecord
100
AcDbRegAppTableRecord
  2
ACAD
 70
0
  0
ENDTAB
  0
TABLE
  2
BLOCK_RECORD
  5
1
100
AcDbSymbolTable
 70
0
  0
BLOCK_RECORD
  5
202
100
AcDbSymbolTableRecord
100
AcDbBlockTableRecord
  2
*Model_Space
  0
BLOCK_RECORD
  5
203
100
AcDbSymbolTableRecord
100
AcDbBlockTableRecord
  2
*Paper_Space
  0
BLOCK_RECORD
  5
204
100
AcDbSymbolTableRecord
100
AcDbBlockTableRecord
  2
_FILLED
  0
ENDTAB
  0
TABLE
  2
DIMSTYLE
  5
A
100
AcDbSymbolTable
 70
1
100
AcDbDimStyleTable
 71
0
  0
DIMSTYLE
105
205
100
AcDbSymbolTableRecord
100
AcDbDimStyleTableRecord
  2
STANDARD
 70
0
  3

  4

 40
1.0
 41
0.1
 42
0.0625
 43
0.38
 44
0.125
 45
0.0
 46
0.0
 47
0.001
 48
0.001
140
0.08
141
0.09
142
0.0
143
25.4
144
1.0
145
0.0
146
1.0
147
0.09
 71
1.0
 72
0.0
 73
1
 74
1
 75
0
 76
0
 77
0
 78
4
 79
1
170
1
171
2
172
0
173
0
174
0
175
0
176
0
177
0
178
0
270
2
179
3
271
3
272
3
273
2
274
2
275
0
280
0
281
0
282
0
283
1
284
4
285
0
286
0
287
3
288
0
340
11
278
46
341
204
342
204
343
204
344
204
  0
ENDTAB
  0
ENDSEC
  0
SECTION
  2
BLOCKS
  0
BLOCK
  5
20
100
AcDbEntity
  8
0
100
AcDbBlockBegin
  2
*Model_Space
 70
0
 10
0.0
 20
0.0
 30
0.0
  3
*Model_Space
  1

  0
ENDBLK
  5
21
100
AcDbEntity
  8
0
100
AcDbBlockEnd
  0
BLOCK
  5
1C
100
AcDbEntity
  8
0
100
AcDbBlockBegin
  2
*Paper_Space
 70
0
 10
0.0
 20
0.0
 30
0.0
  3
*Paper_Space
  1

  0
ENDBLK
  5
1D
100
AcDbEntity
  8
0
100
AcDbBlockEnd
  0
BLOCK
  5
206
100
AcDbEntity
  8
0
100
AcDbBlockBegin
  2
_FILLED
 70
64
 10
0.0
 20
0.0
  3
_FILLED
  1

  0
SOLID
  5
207
100
AcDbEntity
  8
0
  6
BYBLOCK
 62
0
100
AcDbTrace
 10
0.0
 20
0.0
 11
-1.0
 21
0.2
 12
-1.0
 22
-0.2
 13
-1.0
 23
-0.2
  0
ENDBLK
  5
208
100
AcDbEntity
  8
0
  6
BYBLOCK
 62
0
100
AcDbBlockEnd
  0
ENDSEC
  0
SECTION
  2
ENTITIES
  0
LINE
  5
209
100
AcDbEntity
  8
0
100
AcDbLine
 62
7
  6
CONTINUOUS
 10
6.9453663651
 20
22.5509236204
 11
6.9498646532
 21
22.5531066009
  0
LINE
  5
20A
100
AcDbEntity
  8
0
100
AcDbLine
 62
7
  6
CONTINUOUS
 10
6.9693080357
 20
22.4663946196
 11
6.9741353526
 21
22.468737275
  0
LINE
  5
20B
100
AcDbEntity
  8
0
100
AcDbLine
 62
7
  6
CONTINUOUS
 10
7.0015857937
 20
22.2653096156
 11
7.0084126171
 21
22.2686226143
  0
LINE
  5
20C
100
AcDbEntity
  8
0
100
AcDbLine
 62
7
  6
CONTINUOUS
 10
7.0283043078
 20
22.0837574375
 11
7.0351311312
 21
22.0870704362
  0
LWPOLYLINE
  5
20D
100
AcDbEntity
  8
0
100
AcDbPolyline
 62
7
  6
CONTINUOUS
 90
36
 70
0
 10
13.5948463365
 20
-4.7678025377
 10
13.7488834337
 20
-4.7541442183
 10
13.9458439219
 20
-4.6886557417
 10
14.1169696267
 20
-4.5699815675
 10
14.2623661632
 20
-4.392352407
 10
14.3723262497
 20
-4.1599216546
 10
14.4461888649
 20
-3.8748875555
 10
14.4855476434
 20
-3.5477164689
 10
14.4954763615
 20
-3.1906521029
 10
14.4820100932
 20
-2.8161980352
 10
14.4506702641
 20
-2.4308951719
 10
14.4052269986
 20
-2.0357646373
 10
14.3481875954
 20
-1.6310682087
 10
14.2809946883
 20
-1.214892045
 10
14.2049520897
 20
-0.787501862
 10
14.121039804
 20
-0.3489522807
 10
14.0297565812
 20
0.1021667471
 10
13.9314278123
 20
0.5673134341
 10
13.8265260213
 20
1.0467888451
 10
13.7153390433
 20
1.5415351336
 10
13.5979590711
 20
2.0532004354
 10
13.4745172544
 20
2.5831729739
 10
13.3451925088
 20
3.1326977279
 10
13.2100969837
 20
3.70347336
 10
13.0693134176
 20
4.2976008811
 10
12.9229363215
 20
4.9175570943
 10
12.7710830556
 20
5.5663496575
 10
12.6140123378
 20
6.2473251108
 10
12.4521983077
 20
6.9642972864
 10
12.2864256415
 20
7.7218048362
 10
12.1180090128
 20
8.5251646924
 10
11.9481115469
 20
9.3860489394
 10
11.7793690914
 20
10.3200476742
 10
11.6193401676
 20
11.3368491375
 10
11.4832283844
 20
12.4364909081
 10
11.3999667169
 20
13.5518058627
  0
LINE
  5
20E
100
AcDbEntity
  8
0
100
AcDbLine
 62
7
  6
CONTINUOUS
 10
13.595883236
 20
-4.7678037736
 11
13.5948463365
 21
-4.7678025377
  0
LINE
  5
20F
100
AcDbEntity
  8
0
100
AcDbLine
 62
7
  6
CONTINUOUS
 10
13.5956931801
 20
-4.2077792718
 11
13.5949625112
 21
-4.2077783892
  0
LINE
  5
210
100
AcDbEntity
  8
0
100
AcDbLine
 62
9
  6
CONTINUOUS
 10
8.0272750955
 20
22.0627827929
 11
7.9938055854
 21
22.0465383014
  0
LINE
  5
211
100
AcDbEntity
  8
0
100
AcDbLine
 62
7
  6
CONTINUOUS
 10
7.0591922548
 20
21.8875556399
 11
7.0660190782
 21
21.8908686386
  0
LINE
  5
212
100
AcDbEntity
  8
0
100
AcDbLine
 62
7
  6
CONTINUOUS
 10
7.1472674578
 20
21.6635296281
 11
7.1407159339
 21
21.6603502299
  0
LINE
  5
213
100
AcDbEntity
  8
0
100
AcDbLine
 62
9
  6
CONTINUOUS
 10
7.7076851126
 20
21.9077070268
 11
7.3478285195
 21
21.733071714
  0
LINE
  5
214
100
AcDbEntity
  8
0
100
AcDbLine
 62
7
  6
CONTINUOUS
 10
7.1625457395
 20
21.6153673488
 11
7.1690972634
 21
21.618546747
  0
LINE
  5
215
100
AcDbEntity
  8
0
100
AcDbLine
 62
7
  6
CONTINUOUS
 10
7.2905881942
 20
21.4107371008
 11
7.2974150176
 21
21.4140500995
  0
LINE
  5
216
100
AcDbEntity
  8
0
100
AcDbLine
 62
7
  6
CONTINUOUS
 10
7.4256067698
 20
21.2650690024
 11
7.4324335932
 21
21.2683820011
  0
LINE
  5
217
100
AcDbEntity
  8
0
100
AcDbLine
 62
7
  6
CONTINUOUS
 10
7.5516968949
 20
21.1317410132
 11
7.5585237183
 21
21.1350540119
  0
LWPOLYLINE
  5
218
100
AcDbEntity
  8
0
100
AcDbPolyline
 62
7
  6
CONTINUOUS
 90
4
 70
0
 10
13.5956931801
 20
-4.2077792718
 10
13.5668271068
 20
-4.2066529221
 10
13.5008809145
 20
-4.1973139802
 10
13.431760163
 20
-4.1799102616
  0
LINE
  5
219
100
AcDbEntity
  8
0
100
AcDbLine
 62
9
  6
CONTINUOUS
 10
13.3681860755
 20
-4.1706563886
 11
13.4316839366
 21
-4.1798874979
  0
LWPOLYLINE
  5
21A
100
AcDbEntity
  8
0
100
AcDbPolyline
 62
7
  6
CONTINUOUS
 90
4
 70
0
 10
13.2714942159
 20
-4.716487209
 10
13.3954877415
 20
-4.747330787
 10
13.5304217337
 20
-4.7654920874
 10
13.595883236
 20
-4.7678037736
  0
LINE
  5
21B
100
AcDbEntity
  8
0
100
AcDbLine
 62
7
  6
CONTINUOUS
 10
9.3739998136
 20
-3.5533378044
 11
13.2715396608
 21
-4.7165007767
  0
LINE
  5
21C
100
AcDbEntity
  8
0
100
AcDbLine
 62
7
  6
CONTINUOUS
 10
7.6896916206
 20
20.981959545
 11
7.6945189375
 21
20.9843022005
  0
LINE
  5
21D
100
AcDbEntity
  8
0
100
AcDbLine
 62
7
  6
CONTINUOUS
 10
7.7412810774
 20
20.9108477774
 11
7.7457793655
 21
20.9130307579
  0
LINE
  5
21E
100
AcDbEntity
  8
0
100
AcDbLine
 62
9
  6
CONTINUOUS
 10
9.5341440895
 20
-3.0167245257
 11
9.4706462284
 21
-3.0074934164
  0
LINE
  5
21F
100
AcDbEntity
  8
0
100
AcDbLine
 62
7
  6
CONTINUOUS
 10
9.5341440895
 20
-3.0167245257
 11
13.4317601631
 21
-4.1799102616
  0
LWPOLYLINE
  5
220
100
AcDbEntity
  8
0
100
AcDbPolyline
 62
7
  6
CONTINUOUS
 90
5
 70
0
 10
8.0425186298
 20
19.6188058627
 10
8.0331188025
 20
19.6025280605
 10
8.0171749841
 20
19.5606298904
 10
8.0080354178
 20
19.5168259698
 10
8.0055733438
 20
19.4788058627
  0
LWPOLYLINE
  5
221
100
AcDbEntity
  8
0
100
AcDbPolyline
 62
7
  6
CONTINUOUS
 90
5
 70
0
 10
8.0028842671
 20
19.6188058627
 10
7.992306022
 20
19.6025471317
 10
7.9743374974
 20
19.5606559659
 10
7.9640338267
 20
19.5168461592
 10
7.961256795
 20
19.4788058627
  0
LWPOLYLINE
  5
222
100
AcDbEntity
  8
0
100
AcDbPolyline
 62
7
  6
CONTINUOUS
 90
5
 70
0
 10
7.9854628064
 20
19.6188058627
 10
7.9743588433
 20
19.6025370986
 10
7.9555082025
 20
19.5606420946
 10
7.9447018906
 20
19.5168355526
 10
7.9417902811
 20
19.4788058627
  0
LINE
  5
223
100
AcDbEntity
  8
0
100
AcDbLine
 62
7
  6
CONTINUOUS
 10
8.064945132
 20
15.7838058627
 11
8.0435171622
 21
15.7623778928
  0
LWPOLYLINE
  5
224
100
AcDbEntity
  8
0
100
AcDbPolyline
 62
7
  6
CONTINUOUS
 90
5
 70
0
 10
8.0946879129
 20
19.6037850633
 10
8.0914341538
 20
19.5951900092
 10
8.0801770914
 20
19.5558140848
 10
8.0736280807
 20
19.5145793855
 10
8.0718628509
 20
19.4788058627
  0
LINE
  5
225
100
AcDbEntity
  8
0
100
AcDbLine
 62
7
  6
CONTINUOUS
 10
8.836945132
 20
15.73738339
 11
8.8364525678
 21
15.7368233154
  0
LINE
  5
226
100
AcDbEntity
  8
0
100
AcDbLine
 62
9
  6
CONTINUOUS
 10
7.9982871737
 20
14.7442424453
 11
7.9957101321
 21
14.7413264576
  0
LWPOLYLINE
  5
227
100
AcDbEntity
  8
0
100
AcDbPolyline
 62
7
  6
CONTINUOUS
 90
5
 70
0
 10
8.8107123144
 20
16.0238058627
 10
8.8283886041
 20
16.0543371076
 10
8.8444444366
 20
16.0961248213
 10
8.8537630368
 20
16.1399971316
 10
8.8563169203
 20
16.1788058627
  0
LWPOLYLINE
  5
228
100
AcDbEntity
  8
0
100
AcDbPolyline
 62
7
  6
CONTINUOUS
 90
5
 70
0
 10
8.8492490863
 20
16.0238058627
 10
8.8691544881
 20
16.0543199981
 10
8.8872488373
 20
16.0961015302
 10
8.8977528602
 20
16.13997893
 10
8.9006334691
 20
16.1788058627
  0
LWPOLYLINE
  5
229
100
AcDbEntity
  8
0
100
AcDbPolyline
 62
7
  6
CONTINUOUS
 90
5
 70
0
 10
8.8661925562
 20
16.0238058627
 10
8.8870813912
 20
16.0543310329
 10
8.9060639498
 20
16.0961168096
 10
8.9170797762
 20
16.1399905624
 10
8.920099983
 20
16.1788058627
  0
LINE
  5
22A
100
AcDbEntity
  8
0
100
AcDbLine
 62
7
  6
CONTINUOUS
 10
10.823286654
 20
15.1156807539
 11
10.7763465909
 21
15.0828870112
  0
LWPOLYLINE
  5
22B
100
AcDbEntity
  8
0
100
AcDbPolyline
 62
7
  6
CONTINUOUS
 90
5
 70
0
 10
8.7671783825
 20
16.0538101767
 10
8.7708541435
 20
16.0636018879
 10
8.7818005456
 20
16.1022413107
 10
8.7882569102
 20
16.1428807544
 10
8.7900274131
 20
16.1788058627
  0
LINE
  5
22C
100
AcDbEntity
  8
0
100
AcDbLine
 62
7
  6
CONTINUOUS
 10
7.9417640397
 20
16.1788058627
 11
7.9417640397
 21
19.4788058627
  0
LINE
  5
22D
100
AcDbEntity
  8
0
100
AcDbLine
 62
7
  6
CONTINUOUS
 10
7.9612566778
 20
16.1788058627
 11
7.9612566778
 21
19.4788058627
  0
LINE
  5
22E
100
AcDbEntity
  8
0
100
AcDbLine
 62
7
  6
CONTINUOUS
 10
7.9155946876
 20
19.6188058394
 11
7.9496987822
 21
20.5431043372
  0
LINE
  5
22F
100
AcDbEntity
  8
0
100
AcDbLine
 62
7
  6
CONTINUOUS
 10
11.6849451001
 20
14.0738060051
 11
11.6558280806
 21
14.0510312381
  0
LWPOLYLINE
  5
230
100
AcDbEntity
  8
0
100
AcDbPolyline
 62
7
  6
CONTINUOUS
 90
5
 70
0
 10
7.9417902811
 20
16.1788058627
 10
7.9448104879
 20
16.1399905624
 10
7.9558263142
 20
16.0961168096
 10
7.9748088729
 20
16.0543310329
 10
7.9956977079
 20
16.0238058627
  0
LWPOLYLINE
  5
231
100
AcDbEntity
  8
0
100
AcDbPolyline
 62
7
  6
CONTINUOUS
 90
5
 70
0
 10
7.961256795
 20
16.1788058627
 10
7.9641374039
 20
16.13997893
 10
7.9746414268
 20
16.0961015302
 10
7.992735776
 20
16.0543199981
 10
8.0126411778
 20
16.0238058627
  0
LWPOLYLINE
  5
232
100
AcDbEntity
  8
0
100
AcDbPolyline
 62
7
  6
CONTINUOUS
 90
5
 70
0
 10
8.0055733438
 20
16.1788058627
 10
8.0081272272
 20
16.1399971316
 10
8.0174458275
 20
16.0961248213
 10
8.0335016599
 20
16.0543371076
 10
8.0511779497
 20
16.0238058627
  0
LWPOLYLINE
  5
233
100
AcDbEntity
  8
0
100
AcDbPolyline
 62
7
  6
CONTINUOUS
 90
5
 70
0
 10
8.0718628509
 20
16.1788058627
 10
8.0736820479
 20
16.1423952655
 10
8.0803128392
 20
16.1012308386
 10
8.0915783026
 20
16.0620871652
 10
8.094714347
 20
16.053803958
  0
LINE
  5
234
100
AcDbEntity
  8
0
100
AcDbLine
 62
7
  6
CONTINUOUS
 10
8.020945132
 20
14.5518058627
 11
8.0147869838
 21
14.7337791415
  0
LINE
  5
235
100
AcDbEntity
  8
0
100
AcDbLine
 62
7
  6
CONTINUOUS
 10
7.9816889465
 20
15.7118261452
 11
7.980945132
 21
15.7338058627
  0
LINE
  5
236
100
AcDbEntity
  8
0
100
AcDbLine
 62
7
  6
CONTINUOUS
 10
8.0055490429
 20
16.1788058627
 11
8.0055490429
 21
19.4788058627
  0
LINE
  5
237
100
AcDbEntity
  8
0
100
AcDbLine
 62
7
  6
CONTINUOUS
 10
8.0636729749
 20
15.750748114
 11
8.0636729749
 21
15.7338058627
  0
LINE
  5
238
100
AcDbEntity
  8
0
100
AcDbLine
 62
7
  6
CONTINUOUS
 10
8.065945132
 20
15.8338058627
 11
8.065945132
 21
15.7838058627
  0
LINE
  5
239
100
AcDbEntity
  8
0
100
AcDbLine
 62
7
  6
CONTINUOUS
 10
8.0718580831
 20
16.1788058627
 11
8.0718580831
 21
19.4788058627
  0
LINE
  5
23A
100
AcDbEntity
  8
0
100
AcDbLine
 62
7
  6
CONTINUOUS
 10
8.150945132
 20
14.5518058627
 11
8.150945132
 21
9.8709647668
  0
LINE
  5
23B
100
AcDbEntity
  8
0
100
AcDbLine
 62
7
  6
CONTINUOUS
 10
8.1571776348
 20
19.4788058627
 11
8.1571776348
 21
16.1788058627
  0
LINE
  5
23C
100
AcDbEntity
  8
0
100
AcDbLine
 62
7
  6
CONTINUOUS
 10
8.2594870407
 20
19.4788058627
 11
8.2594870407
 21
16.1788058627
  0
LINE
  5
23D
100
AcDbEntity
  8
0
100
AcDbLine
 62
7
  6
CONTINUOUS
 10
8.3725697891
 20
19.4788058627
 11
8.3725697891
 21
16.1788058627
  0
LINE
  5
23E
100
AcDbEntity
  8
0
100
AcDbLine
 62
7
  6
CONTINUOUS
 10
8.489320475
 20
19.4788058627
 11
8.489320475
 21
16.1788058627
  0
LINE
  5
23F
100
AcDbEntity
  8
0
100
AcDbLine
 62
7
  6
CONTINUOUS
 10
8.6024032234
 20
19.4788058627
 11
8.6024032234
 21
16.1788058627
  0
LINE
  5
240
100
AcDbEntity
  8
0
100
AcDbLine
 62
7
  6
CONTINUOUS
 10
8.7047126293
 20
19.4788058627
 11
8.7047126293
 21
16.1788058627
  0
LINE
  5
241
100
AcDbEntity
  8
0
100
AcDbLine
 62
7
  6
CONTINUOUS
 10
8.710945132
 20
14.5518058627
 11
8.710945132
 21
9.8709647668
  0
LINE
  5
242
100
AcDbEntity
  8
0
100
AcDbLine
 62
7
  6
CONTINUOUS
 10
8.790032181
 20
16.1788058627
 11
8.790032181
 21
19.4788058627
  0
LINE
  5
243
100
AcDbEntity
  8
0
100
AcDbLine
 62
7
  6
CONTINUOUS
 10
8.795945132
 20
15.8338058627
 11
8.795945132
 21
15.7838058627
  0
LINE
  5
244
100
AcDbEntity
  8
0
100
AcDbLine
 62
7
  6
CONTINUOUS
 10
8.7982257986
 20
15.7686428311
 11
8.7982257986
 21
15.7825250513
  0
LINE
  5
245
100
AcDbEntity
  8
0
100
AcDbLine
 62
7
  6
CONTINUOUS
 10
8.836945132
 20
15.7438058627
 11
8.836945132
 21
15.7374117113
  0
LINE
  5
246
100
AcDbEntity
  8
0
100
AcDbLine
 62
7
  6
CONTINUOUS
 10
8.8563412211
 20
16.1788058627
 11
8.8563412211
 21
19.4788058627
  0
LINE
  5
247
100
AcDbEntity
  8
0
100
AcDbLine
 62
7
  6
CONTINUOUS
 10
8.9006335863
 20
16.1788058627
 11
8.9006335863
 21
19.4788058627
  0
LINE
  5
248
100
AcDbEntity
  8
0
100
AcDbLine
 62
7
  6
CONTINUOUS
 10
8.9201262243
 20
16.1788058627
 11
8.9201262243
 21
19.4788058627
  0
LINE
  5
249
100
AcDbEntity
  8
0
100
AcDbLine
 62
7
  6
CONTINUOUS
 10
8.840945132
 20
14.5518058627
 11
8.8471041845
 21
14.7338058627
  0
LINE
  5
24A
100
AcDbEntity
  8
0
100
AcDbLine
 62
7
  6
CONTINUOUS
 10
8.1490356362
 20
9.762719729
 11
7.8206215161
 21
0.4697258421
  0
LINE
  5
24B
100
AcDbEntity
  8
0
100
AcDbLine
 62
7
  6
CONTINUOUS
 10
8.7086862677
 20
9.7429416928
 11
8.3802721476
 21
0.4499478059
  0
LWPOLYLINE
  5
24C
100
AcDbEntity
  8
0
100
AcDbPolyline
 62
7
  6
CONTINUOUS
 90
5
 70
0
 10
8.920099983
 20
19.4788058627
 10
8.9171883735
 20
19.5168355526
 10
8.9063820616
 20
19.5606420946
 10
8.8875314207
 20
19.6025370986
 10
8.8764274577
 20
19.6188058627
  0
LWPOLYLINE
  5
24D
100
AcDbEntity
  8
0
100
AcDbPolyline
 62
7
  6
CONTINUOUS
 90
5
 70
0
 10
8.9006334691
 20
19.4788058627
 10
8.8978564374
 20
19.5168461592
 10
8.8875527667
 20
19.5606559659
 10
8.869584242
 20
19.6025471317
 10
8.859005997
 20
19.6188058627
  0
LWPOLYLINE
  5
24E
100
AcDbEntity
  8
0
100
AcDbPolyline
 62
7
  6
CONTINUOUS
 90
5
 70
0
 10
8.8563169203
 20
19.4788058627
 10
8.8538548463
 20
19.5168259698
 10
8.84471528
 20
19.5606298904
 10
8.8287714616
 20
19.6025280605
 10
8.8193716342
 20
19.6188058627
  0
LWPOLYLINE
  5
24F
100
AcDbEntity
  8
0
100
AcDbPolyline
 62
7
  6
CONTINUOUS
 90
5
 70
0
 10
8.7900274131
 20
19.4788058627
 10
8.7883093327
 20
19.5141019274
 10
8.7819310143
 20
19.5548127534
 10
8.7709948598
 20
19.5936817243
 10
8.7672050087
 20
19.6037783711
  0
LINE
  5
250
100
AcDbEntity
  8
0
100
AcDbLine
 62
9
  6
CONTINUOUS
 10
9.0912312727
 20
15.5910483748
 11
9.0912312727
 21
14.8765633506
  0
LINE
  5
251
100
AcDbEntity
  8
0
100
AcDbLine
 62
9
  6
CONTINUOUS
 10
9.3550878619
 20
15.4338058627
 11
9.3550878619
 21
15.0338058627
  0
LINE
  5
252
100
AcDbEntity
  8
0
100
AcDbLine
 62
7
  6
CONTINUOUS
 10
10.2462924015
 20
15.7344443383
 11
10.245914162
 21
15.7283058627
  0
LINE
  5
253
100
AcDbEntity
  8
0
100
AcDbLine
 62
7
  6
CONTINUOUS
 10
10.7976891479
 20
15.0649398214
 11
10.7971331229
 21
15.0618058627
  0
LINE
  5
254
100
AcDbEntity
  8
0
100
AcDbLine
 62
7
  6
CONTINUOUS
 10
7.9461302931
 20
20.6036814943
 11
7.9461742968
 21
20.6033968474
  0
LINE
  5
255
100
AcDbEntity
  8
0
100
AcDbLine
 62
7
  6
CONTINUOUS
 10
10.2462924015
 20
14.7331673871
 11
10.245914162
 21
14.7393058627
  0
LINE
  5
256
100
AcDbEntity
  8
0
100
AcDbLine
 62
7
  6
CONTINUOUS
 10
9.930945132
 20
15.0038604709
 11
9.930945132
 21
15.4637513917
  0
LINE
  5
257
100
AcDbEntity
  8
0
100
AcDbLine
 62
7
  6
CONTINUOUS
 10
10.089945132
 20
14.8338060861
 11
10.089945132
 21
15.633805851
  0
LINE
  5
258
100
AcDbEntity
  8
0
100
AcDbLine
 62
7
  6
CONTINUOUS
 10
10.159945132
 20
15.7738058626
 11
10.159945132
 21
15.7653109529
  0
LINE
  5
259
100
AcDbEntity
  8
0
100
AcDbLine
 62
7
  6
CONTINUOUS
 10
10.159945132
 20
15.5821825827
 11
10.159945132
 21
15.416934233
  0
LINE
  5
25A
100
AcDbEntity
  8
0
100
AcDbLine
 62
7
  6
CONTINUOUS
 10
10.159945132
 20
15.0506774924
 11
10.159945132
 21
14.8854291427
  0
LINE
  5
25B
100
AcDbEntity
  8
0
100
AcDbLine
 62
7
  6
CONTINUOUS
 10
10.159945132
 20
14.7023007724
 11
10.159945132
 21
14.6938058627
  0
LINE
  5
25C
100
AcDbEntity
  8
0
100
AcDbLine
 62
7
  6
CONTINUOUS
 10
10.244945132
 20
14.69380848
 11
10.244945132
 21
15.7738032453
  0
LINE
  5
25D
100
AcDbEntity
  8
0
100
AcDbLine
 62
7
  6
CONTINUOUS
 10
10.245914162
 20
14.7393058627
 11
10.245914162
 21
15.7283058627
  0
LINE
  5
25E
100
AcDbEntity
  8
0
100
AcDbLine
 62
9
  6
CONTINUOUS
 10
10.2462924015
 20
14.7331861298
 11
10.2462924015
 21
15.7344443383
  0
LINE
  5
25F
100
AcDbEntity
  8
0
100
AcDbLine
 62
9
  6
CONTINUOUS
 10
10.3161098738
 20
16.0370076125
 11
10.3161098738
 21
14.4305919149
  0
LINE
  5
260
100
AcDbEntity
  8
0
100
AcDbLine
 62
9
  6
CONTINUOUS
 10
10.3866145258
 20
16.1016275271
 11
10.3866145258
 21
14.3659841983
  0
LINE
  5
261
100
AcDbEntity
  8
0
100
AcDbLine
 62
7
  6
CONTINUOUS
 10
10.6214114622
 20
15.0094810826
 11
10.6214114622
 21
14.6041306428
  0
LINE
  5
262
100
AcDbEntity
  8
0
100
AcDbLine
 62
7
  6
CONTINUOUS
 10
10.684945132
 20
16.0127546485
 11
10.684945132
 21
15.9928583632
  0
LINE
  5
263
100
AcDbEntity
  8
0
100
AcDbLine
 62
9
  6
CONTINUOUS
 10
10.7526757096
 20
16.8637581537
 11
10.7526757096
 21
15.1418535717
  0
LINE
  5
264
100
AcDbEntity
  8
0
100
AcDbLine
 62
9
  6
CONTINUOUS
 10
10.7689300953
 20
16.8802870658
 11
10.7689300953
 21
15.1253246595
  0
LINE
  5
265
100
AcDbEntity
  8
0
100
AcDbLine
 62
7
  6
CONTINUOUS
 10
10.8017594864
 20
14.6041306428
 11
10.8017594864
 21
15.0094810826
  0
LINE
  5
266
100
AcDbEntity
  8
0
100
AcDbLine
 62
7
  6
CONTINUOUS
 10
10.808945132
 20
14.5518058627
 11
10.808945132
 21
13.5518058627
  0
LINE
  5
267
100
AcDbEntity
  8
0
100
AcDbLine
 62
7
  6
CONTINUOUS
 10
8.0435158282
 20
15.7623765588
 11
8.0436459507
 21
15.7620134124
  0
LINE
  5
268
100
AcDbEntity
  8
0
100
AcDbLine
 62
7
  6
CONTINUOUS
 10
7.0674520976
 20
21.8283465105
 11
7.0539401857
 21
21.8758216392
  0
LINE
  5
269
100
AcDbEntity
  8
0
100
AcDbLine
 62
7
  6
CONTINUOUS
 10
7.0712711643
 20
21.9026025801
 11
7.0230522303
 21
22.0720234658
  0
LINE
  5
26A
100
AcDbEntity
  8
0
100
AcDbLine
 62
7
  6
CONTINUOUS
 10
7.0403832139
 20
22.0988043893
 11
6.9963337155
 21
22.2535756466
  0
LINE
  5
26B
100
AcDbEntity
  8
0
100
AcDbLine
 62
7
  6
CONTINUOUS
 10
7.0136646948
 20
22.2803565851
 11
7.0005347388
 21
22.3264896825
  0
LINE
  5
26C
100
AcDbEntity
  8
0
100
AcDbLine
 62
7
  6
CONTINUOUS
 10
6.9877484776
 20
22.3714151821
 11
6.9640559574
 21
22.4546606509
  0
LINE
  5
26D
100
AcDbEntity
  8
0
100
AcDbLine
 62
7
  6
CONTINUOUS
 10
7.4873161513
 20
21.2068185648
 11
7.4873233889
 21
21.2067908983
  0
LINE
  5
26E
100
AcDbEntity
  8
0
100
AcDbLine
 62
7
  6
CONTINUOUS
 10
7.3313186979
 20
21.3821865464
 11
7.3312612174
 21
21.3824074511
  0
LINE
  5
26F
100
AcDbEntity
  8
0
100
AcDbLine
 62
7
  6
CONTINUOUS
 10
7.4599600635
 20
21.2446110951
 11
7.4599535941
 21
21.2446391344
  0
LINE
  5
270
100
AcDbEntity
  8
0
100
AcDbLine
 62
7
  6
CONTINUOUS
 10
7.9401341285
 20
20.6331361796
 11
7.946130293
 21
20.6036814943
  0
LWPOLYLINE
  5
271
100
AcDbEntity
  8
0
100
AcDbPolyline
 62
7
  6
CONTINUOUS
 90
17
 70
0
 10
10.8394323585
 20
13.5518058627
 10
10.8945841937
 20
12.7104526491
 10
10.9806246467
 20
11.8938510091
 10
11.0825147565
 20
11.1365808435
 10
11.192994854
 20
10.4301772499
 10
11.3080888665
 20
9.7660833074
 10
11.4255445256
 20
9.1371020927
 10
11.5436442134
 20
8.5393635659
 10
11.6612987803
 20
7.9693355809
 10
11.7778639327
 20
7.4236670859
 10
11.8928127828
 20
6.9000388669
 10
12.0057662151
 20
6.3965415035
 10
12.1165006982
 20
5.9113349178
 10
12.2248915478
 20
5.4427071796
 10
12.3308089312
 20
4.9893810501
 10
12.4341464757
 20
4.5502829365
 10
12.5348325349
 20
4.1244254194
  0
LINE
  5
272
100
AcDbEntity
  8
0
100
AcDbLine
 62
7
  6
CONTINUOUS
 10
10.8867629021
 20
15.0094810826
 11
10.8867629021
 21
14.6041306428
  0
LINE
  5
273
100
AcDbEntity
  8
0
100
AcDbLine
 62
7
  6
CONTINUOUS
 10
11.2892043358
 20
14.6041306428
 11
11.2892043358
 21
15.0094810826
  0
LINE
  5
274
100
AcDbEntity
  8
0
100
AcDbLine
 62
7
  6
CONTINUOUS
 10
11.3802965719
 20
15.0094810826
 11
11.3802965719
 21
14.6041306428
  0
LINE
  5
275
100
AcDbEntity
  8
0
100
AcDbLine
 62
7
  6
CONTINUOUS
 10
11.420945132
 20
14.5518058627
 11
11.420945132
 21
13.5518058627
  0
LINE
  5
276
100
AcDbEntity
  8
0
100
AcDbLine
 62
7
  6
CONTINUOUS
 10
11.608945132
 20
14.9762897336
 11
11.608945132
 21
14.6041306428
  0
LINE
  5
277
100
AcDbEntity
  8
0
100
AcDbLine
 62
7
  6
CONTINUOUS
 10
11.6558281126
 20
14.9679717855
 11
11.6558281126
 21
14.0510311971
  0
LINE
  5
278
100
AcDbEntity
  8
0
100
AcDbLine
 62
7
  6
CONTINUOUS
 10
11.684945132
 20
14.0738060051
 11
11.684945132
 21
17.0427968784
  0
LINE
  5
279
100
AcDbEntity
  8
0
100
AcDbLine
 62
9
  6
CONTINUOUS
 10
8.150945132
 20
9.8709647668
 11
8.710945132
 21
9.8709647668
  0
LINE
  5
27A
100
AcDbEntity
  8
0
100
AcDbLine
 62
7
  6
CONTINUOUS
 10
7.9252571592
 20
20.6775627889
 11
7.9401341285
 21
20.6331361796
  0
LINE
  5
27B
100
AcDbEntity
  8
0
100
AcDbLine
 62
7
  6
CONTINUOUS
 10
7.3585038286
 20
21.3447462935
 11
7.3585671493
 21
21.344528223
  0
LINE
  5
27C
100
AcDbEntity
  8
0
100
AcDbLine
 62
7
  6
CONTINUOUS
 10
7.6156063188
 20
21.0776402811
 11
7.6158273925
 21
21.0768764504
  0
LINE
  5
27D
100
AcDbEntity
  8
0
100
AcDbLine
 62
7
  6
CONTINUOUS
 10
7.5889100637
 20
21.1140731485
 11
7.5886971223
 21
21.1148409257
  0
LWPOLYLINE
  5
27E
100
AcDbEntity
  8
0
100
AcDbPolyline
 62
7
  6
CONTINUOUS
 90
31
 70
0
 10
12.5348325349
 20
4.1244254194
 10
12.7280556265
 20
3.308963393
 10
12.8205120867
 20
2.9178740303
 10
12.9101665469
 20
2.5369463023
 10
12.9969818225
 20
2.1656118376
 10
13.0809033196
 20
1.8034142743
 10
13.1618518612
 20
1.4500282419
 10
13.2397936982
 20
1.1049397603
 10
13.314730612
 20
0.7674660601
 10
13.3866082397
 20
0.4371356111
 10
13.4553179475
 20
0.1136674061
 10
13.5206929798
 20
-0.2030124262
 10
13.582538814
 20
-0.5129149979
 10
13.6407834139
 20
-0.8168056845
 10
13.6952394563
 20
-1.1151190291
 10
13.7455786382
 20
-1.4078163848
 10
13.7913505213
 20
-1.6943889031
 10
13.8320226914
 20
-1.9740059032
 10
13.8673640434
 20
-2.2487901028
 10
13.8967787478
 20
-2.5205280969
 10
13.9191008634
 20
-2.7893077186
 10
13.9325985771
 20
-3.0536398717
 10
13.9349834549
 20
-3.3110649158
 10
13.9234132168
 20
-3.5547042365
 10
13.8956467252
 20
-3.7723557137
 10
13.852508618
 20
-3.9492205623
 10
13.799173545
 20
-4.0757313578
 10
13.7448923745
 20
-4.1509667252
 10
13.6970290373
 20
-4.1869128523
 10
13.6425728208
 20
-4.2042495186
 10
13.5949625112
 20
-4.2077783892
  0
LWPOLYLINE
  5
27F
100
AcDbEntity
  8
0
100
AcDbPolyline
 62
7
  6
CONTINUOUS
 90
3
 70
0
 10
8.7348244718
 20
20.5431082182
 10
8.7084448517
 20
20.6584883643
 10
8.6774972654
 20
20.7937610041
  0
LWPOLYLINE
  5
280
100
AcDbEntity
  8
0
100
AcDbPolyline
 62
7
  6
CONTINUOUS
 90
3
 70
0
 10
8.6774972654
 20
20.7937610041
 10
8.628964465
 20
21.0058161249
 10
8.5953179221
 20
21.1528668845
  0
LINE
  5
281
100
AcDbEntity
  8
0
100
AcDbLine
 62
7
  6
CONTINUOUS
 10
8.9462956069
 20
19.6188057255
 11
8.7348253598
 21
20.5431043372
  0
LINE
  5
282
100
AcDbEntity
  8
0
100
AcDbLine
 62
7
  6
CONTINUOUS
 10
8.5953179221
 20
21.1528668845
 11
8.5953189999
 21
21.152861674
  0
LINE
  5
283
100
AcDbEntity
  8
0
100
AcDbLine
 62
7
  6
CONTINUOUS
 10
12.064945132
 20
15.5378133414
 11
12.064945132
 21
16.467798384
  0
LINE
  5
284
100
AcDbEntity
  8
0
100
AcDbLine
 62
7
  6
CONTINUOUS
 10
7.0680735458
 20
21.8267179949
 11
7.0674520976
 21
21.8283465105
  0
LINE
  5
285
100
AcDbEntity
  8
0
100
AcDbLine
 62
7
  6
CONTINUOUS
 10
10.7763297035
 20
15.0828752132
 11
10.7764070053
 21
15.0824895005
  0
LINE
  5
286
100
AcDbEntity
  8
0
100
AcDbLine
 62
9
  6
CONTINUOUS
 10
7.9957101321
 20
15.7262852677
 11
7.9982871737
 21
15.72336928
  0
LINE
  5
287
100
AcDbEntity
  8
0
100
AcDbLine
 62
7
  6
CONTINUOUS
 10
7.9053061707
 20
20.7165502315
 11
7.9252571592
 21
20.6775627889
  0
LINE
  5
288
100
AcDbEntity
  8
0
100
AcDbLine
 62
7
  6
CONTINUOUS
 10
7.0680735458
 20
21.8267179949
 11
7.2482911754
 21
21.4553583802
  0
LINE
  5
289
100
AcDbEntity
  8
0
100
AcDbLine
 62
9
  6
CONTINUOUS
 10
7.0674520976
 20
21.8283465105
 11
7.249185963
 21
21.4538625139
  0
LINE
  5
28A
100
AcDbEntity
  8
0
100
AcDbLine
 62
9
  6
CONTINUOUS
 10
7.2781204573
 20
21.4138718319
 11
7.0539551894
 21
21.8757907222
  0
LINE
  5
28B
100
AcDbEntity
  8
0
100
AcDbLine
 62
9
  6
CONTINUOUS
 10
7.0591922548
 20
21.8875556399
 11
7.2905881942
 21
21.4107371008
  0
LINE
  5
28C
100
AcDbEntity
  8
0
100
AcDbLine
 62
9
  6
CONTINUOUS
 10
7.2974150176
 20
21.4140500995
 11
7.0660190782
 21
21.8908686386
  0
LINE
  5
28D
100
AcDbEntity
  8
0
100
AcDbLine
 62
9
  6
CONTINUOUS
 10
7.0712711643
 20
21.9026025801
 11
7.3098754274
 21
21.4109304426
  0
LINE
  5
28E
100
AcDbEntity
  8
0
100
AcDbLine
 62
9
  6
CONTINUOUS
 10
7.4131390505
 20
21.268203709
 11
7.0230632504
 21
22.0720007575
  0
LINE
  5
28F
100
AcDbEntity
  8
0
100
AcDbLine
 62
9
  6
CONTINUOUS
 10
7.0283043078
 20
22.0837574375
 11
7.4256067698
 21
21.2650690024
  0
LINE
  5
290
100
AcDbEntity
  8
0
100
AcDbLine
 62
9
  6
CONTINUOUS
 10
7.4324335932
 20
21.2683820011
 11
7.0351311312
 21
22.0870704362
  0
LINE
  5
291
100
AcDbEntity
  8
0
100
AcDbLine
 62
9
  6
CONTINUOUS
 10
7.0403832139
 20
22.0988043893
 11
7.444895858
 21
21.2652585263
  0
LINE
  5
292
100
AcDbEntity
  8
0
100
AcDbLine
 62
9
  6
CONTINUOUS
 10
7.5392291773
 20
21.1348757175
 11
6.9963404693
 21
22.2535617296
  0
LINE
  5
293
100
AcDbEntity
  8
0
100
AcDbLine
 62
9
  6
CONTINUOUS
 10
7.0015857937
 20
22.2653096156
 11
7.5516968949
 21
21.1317410132
  0
LINE
  5
294
100
AcDbEntity
  8
0
100
AcDbLine
 62
9
  6
CONTINUOUS
 10
7.5585237183
 20
21.1350540119
 11
7.0084126171
 21
22.2686226143
  0
LINE
  5
295
100
AcDbEntity
  8
0
100
AcDbLine
 62
9
  6
CONTINUOUS
 10
7.0136646948
 20
22.2803565851
 11
7.5709872669
 21
21.1319278991
  0
LINE
  5
296
100
AcDbEntity
  8
0
100
AcDbLine
 62
9
  6
CONTINUOUS
 10
7.6772239032
 20
20.9850942491
 11
6.9640608909
 21
22.4546504848
  0
LINE
  5
297
100
AcDbEntity
  8
0
100
AcDbLine
 62
9
  6
CONTINUOUS
 10
6.9693080357
 20
22.4663946196
 11
7.6896916206
 21
20.981959545
  0
LINE
  5
298
100
AcDbEntity
  8
0
100
AcDbLine
 62
9
  6
CONTINUOUS
 10
7.6945189375
 20
20.9843022005
 11
6.9741353526
 21
22.468737275
  0
LINE
  5
299
100
AcDbEntity
  8
0
100
AcDbLine
 62
7
  6
CONTINUOUS
 10
6.9453663651
 20
22.5509236204
 11
7.7412810774
 21
20.9108477774
  0
LINE
  5
29A
100
AcDbEntity
  8
0
100
AcDbLine
 62
7
  6
CONTINUOUS
 10
6.924323726
 20
22.6057366845
 11
7.7713203837
 21
20.860400487
  0
LINE
  5
29B
100
AcDbEntity
  8
0
100
AcDbLine
 62
7
  6
CONTINUOUS
 10
8.796945132
 20
15.7838058627
 11
8.798225655
 21
15.7825253397
  0
LINE
  5
29C
100
AcDbEntity
  8
0
100
AcDbLine
 62
7
  6
CONTINUOUS
 10
8.8311031776
 20
15.7496478171
 11
8.836945132
 21
15.7438058627
  0
LINE
  5
29D
100
AcDbEntity
  8
0
100
AcDbLine
 62
7
  6
CONTINUOUS
 10
7.2482911754
 20
21.4553583802
 11
7.249185963
 21
21.4538625139
  0
LINE
  5
29E
100
AcDbEntity
  8
0
100
AcDbLine
 62
7
  6
CONTINUOUS
 10
10.8089979176
 20
13.5518058627
 11
11.4208923465
 21
13.5518058627
  0
LINE
  5
29F
100
AcDbEntity
  8
0
100
AcDbLine
 62
7
  6
CONTINUOUS
 10
8.0436459172
 20
15.7620133789
 11
8.0635373782
 21
15.7505135774
  0
LINE
  5
2A0
100
AcDbEntity
  8
0
100
AcDbLine
 62
7
  6
CONTINUOUS
 10
8.8310122048
 20
15.7497387899
 11
8.8291471877
 21
15.7510959939
  0
LINE
  5
2A1
100
AcDbEntity
  8
0
100
AcDbLine
 62
7
  6
CONTINUOUS
 10
10.7764150994
 20
15.0824951518
 11
10.7976341169
 21
15.0646296468
  0
LINE
  5
2A2
100
AcDbEntity
  8
0
100
AcDbLine
 62
7
  6
CONTINUOUS
 10
7.0639215405
 20
21.9334121516
 11
7.0636147792
 21
21.9338219457
  0
LINE
  5
2A3
100
AcDbEntity
  8
0
100
AcDbLine
 62
7
  6
CONTINUOUS
 10
7.0112040895
 20
22.3048332717
 11
7.0107326836
 21
22.3054756183
  0
LINE
  5
2A4
100
AcDbEntity
  8
0
100
AcDbLine
 62
7
  6
CONTINUOUS
 10
7.249185963
 20
21.4538625139
 11
7.2781204573
 21
21.4138718319
  0
LINE
  5
2A5
100
AcDbEntity
  8
0
100
AcDbLine
 62
7
  6
CONTINUOUS
 10
7.3098827185
 20
21.4109154184
 11
7.3307675481
 21
21.3820502662
  0
LINE
  5
2A6
100
AcDbEntity
  8
0
100
AcDbLine
 62
7
  6
CONTINUOUS
 10
7.3580143603
 20
21.3443921481
 11
7.4131390505
 21
21.268203709
  0
LINE
  5
2A7
100
AcDbEntity
  8
0
100
AcDbLine
 62
7
  6
CONTINUOUS
 10
7.4449013011
 20
21.2652473102
 11
7.4598606232
 21
21.244571867
  0
LINE
  5
2A8
100
AcDbEntity
  8
0
100
AcDbLine
 62
7
  6
CONTINUOUS
 10
7.4872243577
 20
21.2067521493
 11
7.5392291773
 21
21.1348757175
  0
LINE
  5
2A9
100
AcDbEntity
  8
0
100
AcDbLine
 62
7
  6
CONTINUOUS
 10
7.5709914371
 20
21.131919306
 11
7.5991080084
 21
21.0930590842
  0
LINE
  5
2AA
100
AcDbEntity
  8
0
100
AcDbLine
 62
7
  6
CONTINUOUS
 10
7.6264885896
 20
21.0552160827
 11
7.6772239032
 21
20.9850942491
  0
LINE
  5
2AB
100
AcDbEntity
  8
0
100
AcDbLine
 62
7
  6
CONTINUOUS
 10
7.0232540299
 20
22.1629560419
 11
7.0234283541
 21
22.1627139117
  0
LINE
  5
2AC
100
AcDbEntity
  8
0
100
AcDbLine
 62
7
  6
CONTINUOUS
 10
6.9981674764
 20
22.3496372777
 11
6.9986307484
 21
22.3489909837
  0
LINE
  5
2AD
100
AcDbEntity
  8
0
100
AcDbLine
 62
7
  6
CONTINUOUS
 10
7.0509722946
 20
21.9782585561
 11
7.051267389
 21
21.9778431001
  0
LINE
  5
2AE
100
AcDbEntity
  8
0
100
AcDbLine
 62
7
  6
CONTINUOUS
 10
8.020947614
 20
14.5518058627
 11
8.8409426501
 21
14.5518058627
  0
LINE
  5
2AF
100
AcDbEntity
  8
0
100
AcDbLine
 62
7
  6
CONTINUOUS
 10
10.6779721298
 20
14.5518058627
 11
11.5519181343
 21
14.5518058627
  0
LINE
  5
2B0
100
AcDbEntity
  8
0
100
AcDbLine
 62
7
  6
CONTINUOUS
 10
10.8017594864
 20
14.6041306428
 11
10.8867629021
 21
14.6041306428
  0
LINE
  5
2B1
100
AcDbEntity
  8
0
100
AcDbLine
 62
7
  6
CONTINUOUS
 10
11.2892043358
 20
14.6041306428
 11
11.3802965719
 21
14.6041306428
  0
LINE
  5
2B2
100
AcDbEntity
  8
0
100
AcDbLine
 62
7
  6
CONTINUOUS
 10
11.6023899815
 20
14.6041306428
 11
11.608945132
 21
14.6041306428
  0
LINE
  5
2B3
100
AcDbEntity
  8
0
100
AcDbLine
 62
7
  6
CONTINUOUS
 10
10.159945132
 20
14.6938058627
 11
10.244945132
 21
14.6938058627
  0
LINE
  5
2B4
100
AcDbEntity
  8
0
100
AcDbLine
 62
7
  6
CONTINUOUS
 10
10.159945132
 20
14.7023007724
 11
10.244945132
 21
14.7023007724
  0
LINE
  5
2B5
100
AcDbEntity
  8
0
100
AcDbLine
 62
7
  6
CONTINUOUS
 10
8.9773479335
 20
14.7338058627
 11
8.0155765951
 21
14.7338058627
  0
LINE
  5
2B6
100
AcDbEntity
  8
0
100
AcDbLine
 62
9
  6
CONTINUOUS
 10
9.0000915634
 20
14.7442424453
 11
7.9982871737
 21
14.7442424453
  0
LINE
  5
2B7
100
AcDbEntity
  8
0
100
AcDbLine
 62
7
  6
CONTINUOUS
 10
10.244945132
 20
14.8038058627
 11
10.245914162
 21
14.8038058627
  0
LINE
  5
2B8
100
AcDbEntity
  8
0
100
AcDbLine
 62
7
  6
CONTINUOUS
 10
10.3866145258
 20
14.3659841983
 11
10.808945132
 21
14.2611836405
  0
LINE
  5
2B9
100
AcDbEntity
  8
0
100
AcDbLine
 62
7
  6
CONTINUOUS
 10
11.420945132
 20
14.1093169738
 11
11.6558281126
 21
14.0510311971
  0
LINE
  5
2BA
100
AcDbEntity
  8
0
100
AcDbLine
 62
7
  6
CONTINUOUS
 10
8.8292076245
 20
15.7510350649
 11
8.7983585034
 21
15.7688723245
  0
LINE
  5
2BB
100
AcDbEntity
  8
0
100
AcDbLine
 62
7
  6
CONTINUOUS
 10
7.0361370587
 20
22.1180775028
 11
7.0359579461
 21
22.1183173093
  0
LINE
  5
2BC
100
AcDbEntity
  8
0
100
AcDbLine
 62
7
  6
CONTINUOUS
 10
8.1735393536
 20
22.1340201025
 11
8.0486203166
 21
22.3078036126
  0
LINE
  5
2BD
100
AcDbEntity
  8
0
100
AcDbLine
 62
7
  6
CONTINUOUS
 10
10.244945132
 20
14.8854291427
 11
10.159945132
 21
14.8854291427
  0
LINE
  5
2BE
100
AcDbEntity
  8
0
100
AcDbLine
 62
7
  6
CONTINUOUS
 10
11.3802965719
 20
15.0094810826
 11
11.2892043358
 21
15.0094810826
  0
LINE
  5
2BF
100
AcDbEntity
  8
0
100
AcDbLine
 62
7
  6
CONTINUOUS
 10
10.8867629021
 20
15.0094810826
 11
10.8017594864
 21
15.0094810826
  0
LINE
  5
2C0
100
AcDbEntity
  8
0
100
AcDbLine
 62
7
  6
CONTINUOUS
 10
9.3550878619
 20
15.0338058627
 11
9.930945132
 21
15.0338058627
  0
LINE
  5
2C1
100
AcDbEntity
  8
0
100
AcDbLine
 62
7
  6
CONTINUOUS
 10
10.159945132
 20
15.0506774924
 11
10.244945132
 21
15.0506774924
  0
LINE
  5
2C2
100
AcDbEntity
  8
0
100
AcDbLine
 62
7
  6
CONTINUOUS
 10
11.4917661136
 20
15.0618058627
 11
10.67798467
 21
15.0618058627
  0
LINE
  5
2C3
100
AcDbEntity
  8
0
100
AcDbLine
 62
7
  6
CONTINUOUS
 10
10.244945132
 20
15.416934233
 11
10.159945132
 21
15.416934233
  0
LINE
  5
2C4
100
AcDbEntity
  8
0
100
AcDbLine
 62
7
  6
CONTINUOUS
 10
9.3550878619
 20
15.4338058627
 11
9.930945132
 21
15.4338058627
  0
LINE
  5
2C5
100
AcDbEntity
  8
0
100
AcDbLine
 62
7
  6
CONTINUOUS
 10
11.684945132
 20
15.5378058627
 11
12.064945132
 21
15.5378058627
  0
LINE
  5
2C6
100
AcDbEntity
  8
0
100
AcDbLine
 62
7
  6
CONTINUOUS
 10
10.159945132
 20
15.5821825827
 11
10.244945132
 21
15.5821825827
  0
LINE
  5
2C7
100
AcDbEntity
  8
0
100
AcDbLine
 62
7
  6
CONTINUOUS
 10
10.244945132
 20
15.6638058627
 11
10.245914162
 21
15.6638058627
  0
LINE
  5
2C8
100
AcDbEntity
  8
0
100
AcDbLine
 62
9
  6
CONTINUOUS
 10
7.9982871737
 20
15.72336928
 11
9.0000915634
 21
15.72336928
  0
LINE
  5
2C9
100
AcDbEntity
  8
0
100
AcDbLine
 62
7
  6
CONTINUOUS
 10
8.9773356796
 20
15.7338058627
 11
7.9809607701
 21
15.7338058627
  0
LINE
  5
2CA
100
AcDbEntity
  8
0
100
AcDbLine
 62
7
  6
CONTINUOUS
 10
8.836945132
 20
15.7438058627
 11
8.8271147256
 21
15.7438058627
  0
LINE
  5
2CB
100
AcDbEntity
  8
0
100
AcDbLine
 62
7
  6
CONTINUOUS
 10
10.244945132
 20
15.7653109529
 11
10.159945132
 21
15.7653109529
  0
LINE
  5
2CC
100
AcDbEntity
  8
0
100
AcDbLine
 62
7
  6
CONTINUOUS
 10
10.159945132
 20
15.7738058627
 11
10.244945132
 21
15.7738058627
  0
LINE
  5
2CD
100
AcDbEntity
  8
0
100
AcDbLine
 62
7
  6
CONTINUOUS
 10
8.7754771232
 20
15.7824658634
 11
8.7982851313
 21
15.7824658634
  0
LINE
  5
2CE
100
AcDbEntity
  8
0
100
AcDbLine
 62
7
  6
CONTINUOUS
 10
8.796945132
 20
15.7838058627
 11
8.064945132
 21
15.7838058627
  0
LINE
  5
2CF
100
AcDbEntity
  8
0
100
AcDbLine
 62
7
  6
CONTINUOUS
 10
10.7689300986
 20
15.1253246589
 11
10.823286654
 21
15.1156807539
  0
LINE
  5
2D0
100
AcDbEntity
  8
0
100
AcDbLine
 62
7
  6
CONTINUOUS
 10
11.608945132
 20
14.9762897336
 11
11.684945132
 21
14.9628058627
  0
LINE
  5
2D1
100
AcDbEntity
  8
0
100
AcDbLine
 62
7
  6
CONTINUOUS
 10
11.2700547819
 20
15.0618058627
 11
10.9183359871
 21
15.1242075844
  0
LWPOLYLINE
  5
2D2
100
AcDbEntity
  8
0
100
AcDbPolyline
 62
7
  6
CONTINUOUS
 90
4
 70
0
 10
7.7877098998
 20
20.8412544102
 10
7.8125535731
 20
20.8177836182
 10
7.8420445709
 20
20.789829202
 10
7.8618950984
 20
20.7709460706
  0
LWPOLYLINE
  5
2D3
100
AcDbEntity
  8
0
100
AcDbPolyline
 62
7
  6
CONTINUOUS
 90
3
 70
0
 10
7.8619197411
 20
20.7709226002
 10
7.8818529451
 20
20.7495029004
 10
7.9053061707
 20
20.7165502315
  0
LINE
  5
2D4
100
AcDbEntity
  8
0
100
AcDbLine
 62
7
  6
CONTINUOUS
 10
8.0486203166
 20
22.3078036126
 11
8.0486014268
 21
22.3078279843
  0
LINE
  5
2D5
100
AcDbEntity
  8
0
100
AcDbLine
 62
7
  6
CONTINUOUS
 10
10.3866145258
 20
16.1016275271
 11
10.6892871802
 21
16.1767351857
  0
LINE
  5
2D6
100
AcDbEntity
  8
0
100
AcDbLine
 62
7
  6
CONTINUOUS
 10
10.7689300986
 20
16.8802870664
 11
11.684945132
 21
17.0428058627
  0
LINE
  5
2D7
100
AcDbEntity
  8
0
100
AcDbLine
 62
7
  6
CONTINUOUS
 10
8.795945132
 20
15.8338058627
 11
8.065945132
 21
15.8338058627
  0
LINE
  5
2D8
100
AcDbEntity
  8
0
100
AcDbLine
 62
7
  6
CONTINUOUS
 10
8.9009389579
 20
16.0238058627
 11
7.9609513061
 21
16.0238058627
  0
LINE
  5
2D9
100
AcDbEntity
  8
0
100
AcDbLine
 62
9
  6
CONTINUOUS
 10
8.9201262243
 20
16.1788058627
 11
7.9417640397
 21
16.1788058627
  0
LINE
  5
2DA
100
AcDbEntity
  8
0
100
AcDbLine
 62
7
  6
CONTINUOUS
 10
11.684945132
 20
16.4678058627
 11
12.064945132
 21
16.4678058627
  0
LINE
  5
2DB
100
AcDbEntity
  8
0
100
AcDbLine
 62
9
  6
CONTINUOUS
 10
8.9201262243
 20
19.4788058627
 11
7.9417640397
 21
19.4788058627
  0
LINE
  5
2DC
100
AcDbEntity
  8
0
100
AcDbLine
 62
7
  6
CONTINUOUS
 10
7.9155944775
 20
19.6188058627
 11
8.9462958068
 21
19.6188058627
  0
LINE
  5
2DD
100
AcDbEntity
  8
0
100
AcDbLine
 62
7
  6
CONTINUOUS
 10
8.3422621833
 20
20.5431039478
 11
7.949698918
 21
20.5431080178
  0
LINE
  5
2DE
100
AcDbEntity
  8
0
100
AcDbLine
 62
9
  6
CONTINUOUS
 10
8.7348244718
 20
20.5431082182
 11
8.3422618894
 21
20.543107009
  0
ARC
  5
2DF
100
AcDbEntity
  8
0
100
AcDbCircle
 62
7
  6
CONTINUOUS
 10
5.0831955618
 20
9.8709420299
 40
3.6277495703
100
AcDbArc
 50
357.9779746347
 51
0.0003591003
  0
ARC
  5
2E0
100
AcDbEntity
  8
0
100
AcDbCircle
 62
7
  6
CONTINUOUS
 10
5.0831915615
 20
9.8709420898
 40
3.0677535706
100
AcDbArc
 50
357.9783345626
 51
0.0004235324
  0
ARC
  5
2E1
100
AcDbEntity
  8
0
100
AcDbCircle
 62
9
  6
CONTINUOUS
 10
9.4365684628
 20
-3.3431954057
 40
0.2192516357
100
AcDbArc
 50
245.2448639694
 51
253.4194133661
  0
ARC
  5
2E2
100
AcDbEntity
  8
0
100
AcDbCircle
 62
7
  6
CONTINUOUS
 10
4.1069661511
 20
18.5380112571
 40
4.3270493813
100
AcDbArc
 50
35.6308701213
 51
35.8979043427
  0
ARC
  5
2E3
100
AcDbEntity
  8
0
100
AcDbCircle
 62
7
  6
CONTINUOUS
 10
2.7879352611
 20
21.1513375413
 40
4.3734448227
100
AcDbArc
 50
15.8773438271
 51
16.141547615
  0
ARC
  5
2E4
100
AcDbEntity
  8
0
100
AcDbCircle
 62
7
  6
CONTINUOUS
 10
3.083439687
 20
21.2354890516
 40
4.0661919427
100
AcDbArc
 50
15.5965833134
 51
15.8759725481
  0
ARC
  5
2E5
100
AcDbEntity
  8
0
100
AcDbCircle
 62
7
  6
CONTINUOUS
 10
4.3526660144
 20
18.7159902121
 40
4.023660327
100
AcDbArc
 50
35.8963400591
 51
36.1786885117
  0
ARC
  5
2E6
100
AcDbEntity
  8
0
100
AcDbCircle
 62
7
  6
CONTINUOUS
 10
5.700336528
 20
20.4877158565
 40
2.9710530444
100
AcDbArc
 50
37.7788370123
 51
40.198282843
  0
ARC
  5
2E7
100
AcDbEntity
  8
0
100
AcDbCircle
 62
7
  6
CONTINUOUS
 10
5.7041694419
 20
20.4911406731
 40
2.9659149135
100
AcDbArc
 50
40.1955390655
 51
46.7593399209
  0
ARC
  5
2E8
100
AcDbEntity
  8
0
100
AcDbCircle
 62
7
  6
CONTINUOUS
 10
5.7046094077
 20
20.4914690036
 40
2.9654086304
100
AcDbArc
 50
16.0171144669
 51
20.5095636072
  0
ARC
  5
2E9
100
AcDbEntity
  8
0
100
AcDbCircle
 62
7
  6
CONTINUOUS
 10
5.7047447404
 20
20.4915232498
 40
2.9652635836
100
AcDbArc
 50
13.1250322019
 51
16.0168285198
  0
ARC
  5
2EA
100
AcDbEntity
  8
0
100
AcDbCircle
 62
7
  6
CONTINUOUS
 10
5.704776308
 20
20.491518061
 40
2.9652351214
100
AcDbArc
 50
20.5098056785
 51
21.9130693327
  0
ARC
  5
2EB
100
AcDbEntity
  8
0
100
AcDbCircle
 62
7
  6
CONTINUOUS
 10
5.7048799504
 20
20.4915582851
 40
2.9651239554
100
AcDbArc
 50
21.9131003911
 51
33.6326579123
  0
ARC
  5
2EC
100
AcDbEntity
  8
0
100
AcDbCircle
 62
7
  6
CONTINUOUS
 10
5.7054397646
 20
20.4916862476
 40
2.9645497026
100
AcDbArc
 50
12.8869015995
 51
13.1250145002
  0
ARC
  5
2ED
100
AcDbEntity
  8
0
100
AcDbCircle
 62
7
  6
CONTINUOUS
 10
5.7086103399
 20
20.4939691637
 40
2.9606827083
100
AcDbArc
 50
33.6337964092
 51
37.7806818619
  0
ARC
  5
2EE
100
AcDbEntity
  8
0
100
AcDbCircle
 62
7
  6
CONTINUOUS
 10
8.430945132
 20
15.2338058627
 40
0.7507329752
100
AcDbArc
 50
28.4152481218
 51
40.7011720417
  0
ARC
  5
2EF
100
AcDbEntity
  8
0
100
AcDbCircle
 62
7
  6
CONTINUOUS
 10
8.430945132
 20
15.2338058627
 40
0.7507329752
100
AcDbArc
 50
319.2988279583
 51
331.5847518782
  0
ARC
  5
2F0
100
AcDbEntity
  8
0
100
AcDbCircle
 62
7
  6
CONTINUOUS
 10
8.430945132
 20
15.2338058627
 40
0.6572408002
100
AcDbArc
 50
131.4690538246
 51
228.5309461754
  0
ARC
  5
2F1
100
AcDbEntity
  8
0
100
AcDbCircle
 62
9
  6
CONTINUOUS
 10
8.430945132
 20
15.2338058627
 40
0.6533492546
100
AcDbArc
 50
131.4690538246
 51
228.5309461754
  0
ARC
  5
2F2
100
AcDbEntity
  8
0
100
AcDbCircle
 62
7
  6
CONTINUOUS
 10
9.3550878619
 20
15.7338058627
 40
0.3
100
AcDbArc
 50
208.4152481218
 51
270.0
  0
ARC
  5
2F3
100
AcDbEntity
  8
0
100
AcDbCircle
 62
7
  6
CONTINUOUS
 10
9.3550878619
 20
14.7338058627
 40
0.3
100
AcDbArc
 50
90.0
 51
151.5847518782
  0
ARC
  5
2F4
100
AcDbEntity
  8
0
100
AcDbCircle
 62
7
  6
CONTINUOUS
 10
8.5172712316
 20
16.1527638739
 40
0.2687850783
100
AcDbArc
 50
331.3103040002
 51
338.3983239377
  0
ARC
  5
2F5
100
AcDbEntity
  8
0
100
AcDbCircle
 62
7
  6
CONTINUOUS
 10
8.3446181511
 20
16.1527634354
 40
0.2687840945
100
AcDbArc
 50
201.6030843022
 51
208.6897005792
  0
ARC
  5
2F6
100
AcDbEntity
  8
0
100
AcDbCircle
 62
7
  6
CONTINUOUS
 10
8.1853498939
 20
16.0238058627
 40
0.2244047619
100
AcDbArc
 50
180.0
 51
237.8528516705
  0
ARC
  5
2F7
100
AcDbEntity
  8
0
100
AcDbCircle
 62
7
  6
CONTINUOUS
 10
8.6765403701
 20
16.0238058627
 40
0.2244047619
100
AcDbArc
 50
302.1471483295
 51
360.0
  0
ARC
  5
2F8
100
AcDbEntity
  8
0
100
AcDbCircle
 62
7
  6
CONTINUOUS
 10
8.9773479335
 20
15.7038058627
 40
0.03
100
AcDbArc
 50
40.7011720417
 51
90.0
  0
ARC
  5
2F9
100
AcDbEntity
  8
0
100
AcDbCircle
 62
7
  6
CONTINUOUS
 10
8.0155765951
 20
15.7038058627
 40
0.03
100
AcDbArc
 50
90.0000000001
 51
131.4690538246
  0
ARC
  5
2FA
100
AcDbEntity
  8
0
100
AcDbCircle
 62
7
  6
CONTINUOUS
 10
8.9773479335
 20
14.7638058627
 40
0.03
100
AcDbArc
 50
270.0
 51
319.2988279583
  0
ARC
  5
2FB
100
AcDbEntity
  8
0
100
AcDbCircle
 62
7
  6
CONTINUOUS
 10
8.0155765951
 20
14.7638058627
 40
0.03
100
AcDbArc
 50
228.5309461754
 51
270.0
  0
ARC
  5
2FC
100
AcDbEntity
  8
0
100
AcDbCircle
 62
9
  6
CONTINUOUS
 10
8.022332619
 20
15.7076466611
 40
0.0287295003
100
AcDbArc
 50
145.7861690418
 51
146.8204919077
  0
ARC
  5
2FD
100
AcDbEntity
  8
0
100
AcDbCircle
 62
9
  6
CONTINUOUS
 10
8.0223326188
 20
14.7599650641
 40
0.0287295001
100
AcDbArc
 50
213.1795080698
 51
214.213830992
  0
ARC
  5
2FE
100
AcDbEntity
  8
0
100
AcDbCircle
 62
7
  6
CONTINUOUS
 10
7.1425517396
 20
20.4257285583
 40
1.2058815404
100
AcDbArc
 50
25.6857716986
 51
31.1872096944
  0
ARC
  5
2FF
100
AcDbEntity
  8
0
100
AcDbCircle
 62
9
  6
CONTINUOUS
 10
7.1470915114
 20
20.428338922
 40
1.2006549994
100
AcDbArc
 50
14.4847199663
 51
17.8288145015
  0
ARC
  5
300
100
AcDbEntity
  8
0
100
AcDbCircle
 62
7
  6
CONTINUOUS
 10
7.1477792051
 20
20.4284939752
 40
1.1999543686
100
AcDbArc
 50
5.4807210152
 51
14.4857660178
  0
ARC
  5
301
100
AcDbEntity
  8
0
100
AcDbCircle
 62
7
  6
CONTINUOUS
 10
7.6310074153
 20
20.5547240361
 40
0.3189031291
100
AcDbArc
 50
357.9125445258
 51
8.7791201497
  0
ARC
  5
302
100
AcDbEntity
  8
0
100
AcDbCircle
 62
7
  6
CONTINUOUS
 10
7.6988848987
 20
20.9753056242
 40
0.01
100
AcDbArc
 50
25.8868929427
 51
115.8869005304
  0
ARC
  5
303
100
AcDbEntity
  8
0
100
AcDbCircle
 62
7
  6
CONTINUOUS
 10
7.4798558819
 20
21.8938782218
 40
0.9029695368
100
AcDbArc
 50
102.3731119976
 51
127.9679000314
  0
ARC
  5
304
100
AcDbEntity
  8
0
100
AcDbCircle
 62
7
  6
CONTINUOUS
 10
7.3935080021
 20
22.2874901933
 40
0.5
100
AcDbArc
 50
46.7638094796
 51
102.3730286873
  0
ARC
  5
305
100
AcDbEntity
  8
0
100
AcDbCircle
 62
7
  6
CONTINUOUS
 10
7.442580493
 20
21.7790541572
 40
0.3243652792
100
AcDbArc
 50
210.307276371
 51
218.8327945083
  0
ARC
  5
306
100
AcDbEntity
  8
0
100
AcDbCircle
 62
7
  6
CONTINUOUS
 10
7.442580493
 20
21.7790541572
 40
0.3243652792
100
AcDbArc
 50
193.0201673498
 51
201.4665246898
  0
ARC
  5
307
100
AcDbEntity
  8
0
100
AcDbCircle
 62
7
  6
CONTINUOUS
 10
7.2667755461
 20
21.4831850159
 40
0.1367690444
100
AcDbArc
 50
25.9283907023
 51
31.1950926142
  0
ARC
  5
308
100
AcDbEntity
  8
0
100
AcDbCircle
 62
7
  6
CONTINUOUS
 10
7.1447732777
 20
21.6016420427
 40
0.1357929114
100
AcDbArc
 50
25.888535945
 51
27.0586364941
  0
ARC
  5
309
100
AcDbEntity
  8
0
100
AcDbCircle
 62
7
  6
CONTINUOUS
 10
7.4935783873
 20
21.6067320486
 40
0.1293271507
100
AcDbArc
 50
205.9418693928
 51
211.5261386809
  0
ARC
  5
30A
100
AcDbEntity
  8
0
100
AcDbCircle
 62
7
  6
CONTINUOUS
 10
7.3701914647
 20
21.7138723839
 40
0.1241166503
100
AcDbArc
 50
205.8890059744
 51
207.1781374877
  0
ARC
  5
30B
100
AcDbEntity
  8
0
100
AcDbCircle
 62
7
  6
CONTINUOUS
 10
7.063558216
 20
21.8785590637
 40
0.01
100
AcDbArc
 50
115.8869005304
 51
195.8870862838
  0
ARC
  5
30C
100
AcDbEntity
  8
0
100
AcDbCircle
 62
7
  6
CONTINUOUS
 10
7.2862222331
 20
21.419733677
 40
0.01
100
AcDbArc
 50
215.886714777
 51
295.8869005304
  0
ARC
  5
30D
100
AcDbEntity
  8
0
100
AcDbCircle
 62
7
  6
CONTINUOUS
 10
7.0616531171
 20
21.8998652148
 40
0.01
100
AcDbArc
 50
295.8869005304
 51
15.886733365
  0
ARC
  5
30E
100
AcDbEntity
  8
0
100
AcDbCircle
 62
7
  6
CONTINUOUS
 10
7.3017809788
 20
21.4050535233
 40
0.01
100
AcDbArc
 50
35.8870676959
 51
115.8869005304
  0
ARC
  5
30F
100
AcDbEntity
  8
0
100
AcDbCircle
 62
7
  6
CONTINUOUS
 10
7.4212408087
 20
21.2740655786
 40
0.01
100
AcDbArc
 50
215.8868876705
 51
295.8869005304
  0
ARC
  5
310
100
AcDbEntity
  8
0
100
AcDbCircle
 62
7
  6
CONTINUOUS
 10
7.0326702689
 20
22.0747608612
 40
0.01
100
AcDbArc
 50
115.8869005304
 51
195.8869133903
  0
ARC
  5
311
100
AcDbEntity
  8
0
100
AcDbCircle
 62
7
  6
CONTINUOUS
 10
6.9736739968
 20
22.4573980434
 40
0.01
100
AcDbArc
 50
115.8869005304
 51
195.8868956635
  0
ARC
  5
312
100
AcDbEntity
  8
0
100
AcDbCircle
 62
7
  6
CONTINUOUS
 10
7.6853256595
 20
20.9909561212
 40
0.01
100
AcDbArc
 50
215.8869053973
 51
295.8869005304
  0
ARC
  5
313
100
AcDbEntity
  8
0
100
AcDbCircle
 62
7
  6
CONTINUOUS
 10
7.5628896795
 20
21.1260574357
 40
0.01
100
AcDbArc
 50
35.8868925187
 51
115.8869005304
  0
ARC
  5
314
100
AcDbEntity
  8
0
100
AcDbCircle
 62
7
  6
CONTINUOUS
 10
7.5473309338
 20
21.1407375894
 40
0.01
100
AcDbArc
 50
215.8869038684
 51
295.8869005304
  0
ARC
  5
315
100
AcDbEntity
  8
0
100
AcDbCircle
 62
7
  6
CONTINUOUS
 10
7.0059517548
 20
22.2563130394
 40
0.01
100
AcDbArc
 50
115.8869005304
 51
195.8868971924
  0
ARC
  5
316
100
AcDbEntity
  8
0
100
AcDbCircle
 62
7
  6
CONTINUOUS
 10
7.004046656
 20
22.2776191905
 40
0.01
100
AcDbArc
 50
295.8869005304
 51
15.8869085421
  0
ARC
  5
317
100
AcDbEntity
  8
0
100
AcDbCircle
 62
7
  6
CONTINUOUS
 10
7.0307651701
 20
22.0960670124
 40
0.01
100
AcDbArc
 50
295.8869005304
 51
15.8868027832
  0
ARC
  5
318
100
AcDbEntity
  8
0
100
AcDbCircle
 62
7
  6
CONTINUOUS
 10
7.4367995543
 20
21.2593854249
 40
0.01
100
AcDbArc
 50
35.8869982776
 51
115.8869005304
  0
ARC
  5
319
100
AcDbEntity
  8
0
100
AcDbCircle
 62
7
  6
CONTINUOUS
 10
6.9697693915
 20
22.4777338512
 40
0.01
100
AcDbArc
 50
295.8869005304
 51
25.8869081181
  0
ARC
  5
31A
100
AcDbEntity
  8
0
100
AcDbCircle
 62
7
  6
CONTINUOUS
 10
8.5150696884
 20
19.5037056409
 40
0.271268817
100
AcDbArc
 50
21.6481714702
 51
25.1907946519
  0
ARC
  5
31B
100
AcDbEntity
  8
0
100
AcDbCircle
 62
7
  6
CONTINUOUS
 10
8.3468196133
 20
19.5037060807
 40
0.271267759
100
AcDbArc
 50
154.8092393131
 51
158.3503190182
  0
ARC
  5
31C
100
AcDbEntity
  8
0
100
AcDbCircle
 62
7
  6
CONTINUOUS
 10
7.8760288456
 20
20.9348819413
 40
0.1287103438
100
AcDbArc
 50
224.8676201538
 51
226.6713816939
  0
ARC
  5
31D
100
AcDbEntity
  8
0
100
AcDbCircle
 62
9
  6
CONTINUOUS
 10
13.661888157
 20
-3.1913993039
 40
1.0223528503
100
AcDbArc
 50
253.3047840846
 51
256.9397909906
  0
ARC
  5
31E
100
AcDbEntity
  8
0
100
AcDbCircle
 62
9
  6
CONTINUOUS
 10
13.5962131309
 20
-3.6074361329
 40
0.6003438249
100
AcDbArc
 50
266.9020813855
 51
269.6392129673
  0
ARC
  5
31F
100
AcDbEntity
  8
0
100
AcDbCircle
 62
7
  6
CONTINUOUS
 10
17.1925622874
 20
26.5123495392
 40
10.5435766415
100
AcDbArc
 50
210.374329647
 51
211.2020094873
  0
ARC
  5
320
100
AcDbEntity
  8
0
100
AcDbCircle
 62
9
  6
CONTINUOUS
 10
17.1769920151
 20
26.503085704
 40
10.5254601149
100
AcDbArc
 50
209.8991292528
 51
210.1363883264
  0
ARC
  5
321
100
AcDbEntity
  8
0
100
AcDbCircle
 62
9
  6
CONTINUOUS
 10
17.1769412609
 20
26.503024875
 40
10.5253856812
100
AcDbArc
 50
210.1362404558
 51
210.3735345019
  0
ARC
  5
322
100
AcDbEntity
  8
0
100
AcDbCircle
 62
7
  6
CONTINUOUS
 10
16.064945132
 20
16.0127625112
 40
5.38
100
AcDbArc
 50
170.8988649225
 51
179.9999999999
  0
ARC
  5
323
100
AcDbEntity
  8
0
100
AcDbCircle
 62
7
  6
CONTINUOUS
 10
16.064945132
 20
15.9928492142
 40
5.38
100
AcDbArc
 50
180.0
 51
189.1011350774
  0
ARC
  5
324
100
AcDbEntity
  8
0
100
AcDbCircle
 62
7
  6
CONTINUOUS
 10
11.734945132
 20
14.9173223434
 40
1.5
100
AcDbArc
 50
187.05199258
 51
198.9344959639
  0
ARC
  5
325
100
AcDbEntity
  8
0
100
AcDbCircle
 62
7
  6
CONTINUOUS
 10
11.734945132
 20
15.550289382
 40
1.5
100
AcDbArc
 50
161.0655040361
 51
172.94800742
  0
ARC
  5
326
100
AcDbEntity
  8
0
100
AcDbCircle
 62
7
  6
CONTINUOUS
 10
10.9495958993
 20
14.0125288027
 40
1.1269740304
100
AcDbArc
 50
68.6000264419
 51
69.576168793
  0
ARC
  5
327
100
AcDbEntity
  8
0
100
AcDbCircle
 62
7
  6
CONTINUOUS
 10
10.9697645702
 20
14.0669995585
 40
1.0688893821
100
AcDbArc
 50
69.5704112714
 51
72.5537412225
  0
ARC
  5
328
100
AcDbEntity
  8
0
100
AcDbCircle
 62
7
  6
CONTINUOUS
 10
11.064988195
 20
15.2338360874
 40
1.053914342
100
AcDbArc
 50
210.4249233761
 51
210.8241087027
  0
ARC
  5
329
100
AcDbEntity
  8
0
100
AcDbCircle
 62
7
  6
CONTINUOUS
 10
11.0649474009
 20
15.2338066761
 40
1.0538642714
100
AcDbArc
 50
202.3061990358
 51
210.4246677025
  0
ARC
  5
32A
100
AcDbEntity
  8
0
100
AcDbCircle
 62
7
  6
CONTINUOUS
 10
11.0649472371
 20
15.2338049708
 40
1.0538641862
100
AcDbArc
 50
149.176119708
 51
157.693793544
  0
ARC
  5
32B
100
AcDbEntity
  8
0
100
AcDbCircle
 62
7
  6
CONTINUOUS
 10
11.064945132
 20
15.2338058627
 40
0.9233422984
100
AcDbArc
 50
168.5605612585
 51
191.4394387415
  0
ARC
  5
32C
100
AcDbEntity
  8
0
100
AcDbCircle
 62
7
  6
CONTINUOUS
 10
10.2459562901
 20
15.2337923027
 40
0.3900169962
100
AcDbArc
 50
113.6186890456
 51
143.8704304456
  0
ARC
  5
32D
100
AcDbEntity
  8
0
100
AcDbCircle
 62
7
  6
CONTINUOUS
 10
10.245945132
 20
15.2338058627
 40
0.39
100
AcDbArc
 50
216.1289274719
 51
246.360047173
  0
ARC
  5
32E
100
AcDbEntity
  8
0
100
AcDbCircle
 62
7
  6
CONTINUOUS
 10
10.7979387297
 20
14.7397855962
 40
0.223
100
AcDbArc
 50
217.4679952771
 51
237.4538555669
  0
ARC
  5
32F
100
AcDbEntity
  8
0
100
AcDbCircle
 62
7
  6
CONTINUOUS
 10
10.7979387297
 20
14.8738261292
 40
0.223
100
AcDbArc
 50
122.5461444331
 51
142.5320047229
  0
ARC
  5
330
100
AcDbEntity
  8
0
100
AcDbCircle
 62
7
  6
CONTINUOUS
 10
11.4319515343
 20
14.7397855962
 40
0.223
100
AcDbArc
 50
302.5461444331
 51
321.39348593
  0
ARC
  5
331
100
AcDbEntity
  8
0
100
AcDbCircle
 62
7
  6
CONTINUOUS
 10
10.7115858982
 20
14.6807454098
 40
0.1192204034
100
AcDbArc
 50
261.113270145
 51
278.857957482
  0
ARC
  5
332
100
AcDbEntity
  8
0
100
AcDbCircle
 62
7
  6
CONTINUOUS
 10
10.4106988982
 20
14.4630405892
 40
0.1
100
AcDbArc
 50
198.9344823695
 51
256.063657001
  0
ARC
  5
333
100
AcDbEntity
  8
0
100
AcDbCircle
 62
7
  6
CONTINUOUS
 10
10.4106988982
 20
16.0045711362
 40
0.1
100
AcDbArc
 50
103.936342999
 51
161.0655176305
  0
ARC
  5
334
100
AcDbEntity
  8
0
100
AcDbCircle
 62
7
  6
CONTINUOUS
 10
10.7724239231
 20
16.8605946011
 40
0.02
100
AcDbArc
 50
100.0606992806
 51
170.8988649225
  0
ARC
  5
335
100
AcDbEntity
  8
0
100
AcDbCircle
 62
7
  6
CONTINUOUS
 10
10.7724239231
 20
15.1450171243
 40
0.02
100
AcDbArc
 50
189.1011350774
 51
259.9393007194
  0
SPLINE
  5
336
100
AcDbEntity
  8
0
100
AcDbSpline
 62
7
  6
CONTINUOUS
 70
0
 71
3
 72
15
 73
11
 74
0
 42
0.0000001
 43
0.0000001
 44
0.0000000001
 40
0.0
 40
0.0
 40
0.0
 40
0.0
 40
0.1280800447
 40
0.2535551778
 40
0.3772291435
 40
0.4999946153
 40
0.6227597684
 40
0.7464355127
 40
0.8719164905
 40
1.0
 40
1.0
 40
1.0
 40
1.0
 10
10.159945132
 20
15.7653109529
 30
0.0
 10
10.1569362966
 20
15.7578762883
 30
0.0
 10
10.1516267504
 20
15.7428849194
 30
0.0
 10
10.1458508749
 20
15.71994414
 30
0.0
 10
10.1423769035
 20
15.6968767809
 30
0.0
 10
10.1412176349
 20
15.6737476382
 30
0.0
 10
10.1423755686
 20
15.6506183214
 30
0.0
 10
10.145848625
 20
15.6275503131
 30
0.0
 10
10.1516257707
 20
15.6046090814
 30
0.0
 10
10.1569362152
 20
15.5896174484
 30
0.0
 10
10.159945132
 20
15.5821825827
 30
0.0
  0
SPLINE
  5
337
100
AcDbEntity
  8
0
100
AcDbSpline
 62
7
  6
CONTINUOUS
 70
0
 71
3
 72
15
 73
11
 74
0
 42
0.0000001
 43
0.0000001
 44
0.0000000001
 40
0.0
 40
0.0
 40
0.0
 40
0.0
 40
0.1280835096
 40
0.2535644873
 40
0.3772402316
 40
0.5000053847
 40
0.6227708565
 40
0.7464448222
 40
0.8719199553
 40
1.0
 40
1.0
 40
1.0
 40
1.0
 10
10.159945132
 20
14.8854291427
 30
0.0
 10
10.1569362152
 20
14.8779942769
 30
0.0
 10
10.1516257707
 20
14.8630026439
 30
0.0
 10
10.145848625
 20
14.8400614123
 30
0.0
 10
10.1423755686
 20
14.8169934039
 30
0.0
 10
10.1412176349
 20
14.7938640872
 30
0.0
 10
10.1423769035
 20
14.7707349445
 30
0.0
 10
10.1458508749
 20
14.7476675854
 30
0.0
 10
10.1516267504
 20
14.7247268059
 30
0.0
 10
10.1569362966
 20
14.7097354371
 30
0.0
 10
10.159945132
 20
14.7023007724
 30
0.0
  0
SPLINE
  5
338
100
AcDbEntity
  8
0
100
AcDbSpline
 62
7
  6
CONTINUOUS
 70
0
 71
3
 72
31
 73
27
 74
0
 42
0.0000001
 43
0.0000001
 44
0.0000000001
 40
0.0
 40
0.0
 40
0.0
 40
0.0
 40
0.2179216956
 40
0.3185191772
 40
0.4131288332
 40
0.5014689781
 40
0.5832690828
 40
0.6582929279
 40
0.7263135238
 40
0.7871335616
 40
0.8405796245
 40
0.864485887
 40
0.8864931693
 40
0.9065875168
 40
0.9247551847
 40
0.9409827621
 40
0.955259672
 40
0.9675806492
 40
0.9779423294
 40
0.9863440406
 40
0.9898114711
 40
0.9927919444
 40
0.9952893153
 40
0.9973108986
 40
0.9988707034
 40
1.0
 40
1.0
 40
1.0
 40
1.0
 10
10.923535961
 20
15.0632279995
 30
0.0
 10
10.9128638448
 20
15.0648621394
 30
0.0
 10
10.8972629779
 20
15.067235929
 30
0.0
 10
10.8770217007
 20
15.0702717128
 30
0.0
 10
10.8631258489
 20
15.072332304
 30
0.0
 10
10.8501474448
 20
15.0742307896
 30
0.0
 10
10.83812502
 20
15.0759602942
 30
0.0
 10
10.8270944926
 20
15.0775146217
 30
0.0
 10
10.8170882228
 20
15.0788881085
 30
0.0
 10
10.8081355721
 20
15.0800756636
 30
0.0
 10
10.8013443344
 20
15.0809362046
 30
0.0
 10
10.7964570559
 20
15.0815247785
 30
0.0
 10
10.7932084446
 20
15.0819003244
 30
0.0
 10
10.7902403563
 20
15.0822263775
 30
0.0
 10
10.7875549193
 20
15.0825026005
 30
0.0
 10
10.785154139
 20
15.0827287184
 30
0.0
 10
10.7830396811
 20
15.0829045038
 30
0.0
 10
10.7812128013
 20
15.083030041
 30
0.0
 10
10.7796745327
 20
15.0831052615
 30
0.0
 10
10.778573084
 20
15.0831282833
 30
0.0
 10
10.7778374014
 20
15.0831169436
 30
0.0
 10
10.7773945863
 20
15.0830963177
 30
0.0
 10
10.7770244312
 20
15.0830632929
 30
0.0
 10
10.7767262127
 20
15.0830180324
 30
0.0
 10
10.7764998467
 20
15.0829610586
 30
0.0
 10
10.7763759121
 20
15.0829071979
 30
0.0
 10
10.7763300507
 20
15.0828751511
 30
0.0
  0
SPLINE
  5
339
100
AcDbEntity
  8
0
100
AcDbSpline
 62
7
  6
CONTINUOUS
 70
0
 71
3
 72
28
 73
24
 74
0
 42
0.0000001
 43
0.0000001
 44
0.0000000001
 40
0.0
 40
0.0
 40
0.0
 40
0.0
 40
0.2269102476
 40
0.4256007641
 40
0.5141872944
 40
0.5955084176
 40
0.6694961685
 40
0.7360845204
 40
0.795210404
 40
0.8468154932
 40
0.8908495698
 40
0.9100164292
 40
0.9272795172
 40
0.9426395763
 40
0.9561016609
 40
0.9676779831
 40
0.9773934637
 40
0.9852975655
 40
0.9914922124
 40
0.9940168081
 40
0.9962194023
 40
0.9981772579
 40
1.0
 40
1.0
 40
1.0
 40
1.0
 10
10.8500804136
 20
15.0618215476
 30
0.0
 10
10.8461108907
 20
15.0622824549
 30
0.0
 10
10.8386627208
 20
15.0631231825
 30
0.0
 10
10.8296556032
 20
15.0640600364
 30
0.0
 10
10.8231928903
 20
15.0646712395
 30
0.0
 10
10.8189137875
 20
15.0650446824
 30
0.0
 10
10.8150178085
 20
15.0653505405
 30
0.0
 10
10.8115087514
 20
15.065588223
 30
0.0
 10
10.8083903732
 20
15.0657573093
 30
0.0
 10
10.805666439
 20
15.0658572868
 30
0.0
 10
10.8036444142
 20
15.0658844045
 30
0.0
 10
10.8022273731
 20
15.0658661464
 30
0.0
 10
10.8013157204
 20
15.0658353149
 30
0.0
 10
10.8005054398
 20
15.0657867865
 30
0.0
 10
10.7997968735
 20
15.0657205674
 30
0.0
 10
10.7991903535
 20
15.0656367366
 30
0.0
 10
10.7986856927
 20
15.0655354325
 30
0.0
 10
10.7982829382
 20
15.0654167319
 30
0.0
 10
10.7980139716
 20
15.0652960317
 30
0.0
 10
10.7978558427
 20
15.0651854452
 30
0.0
 10
10.7977710565
 20
15.065102781
 30
0.0
 10
10.7977122498
 20
15.0650141995
 30
0.0
 10
10.7976909634
 20
15.0649500431
 30
0.0
 10
10.7976853537
 20
15.0649184361
 30
0.0
  0
SPLINE
  5
33A
100
AcDbEntity
  8
0
100
AcDbSpline
 62
7
  6
CONTINUOUS
 70
0
 71
3
 72
37
 73
33
 74
0
 42
0.0000001
 43
0.0000001
 44
0.0000000001
 40
0.0
 40
0.0
 40
0.0
 40
0.0
 40
0.0003618588
 40
0.0009268907
 40
0.0028163023
 40
0.0057819077
 40
0.009842807
 40
0.0149975813
 40
0.0212302768
 40
0.0285225765
 40
0.0368554111
 40
0.0565644549
 40
0.0801878773
 40
0.1074865753
 40
0.1381963739
 40
0.172050876
 40
0.2087476204
 40
0.2479510497
 40
0.2893242716
 40
0.3771659143
 40
0.4692916535
 40
0.5626215764
 40
0.6540000963
 40
0.7403093582
 40
0.8185140104
 40
0.8858194186
 40
0.9145865239
 40
0.9397476392
 40
0.9610524543
 40
0.9782894147
 40
0.9913152651
 40
1.0
 40
1.0
 40
1.0
 40
1.0
 10
7.3312599064
 20
21.382405338
 30
0.0
 10
7.3312649763
 20
21.3824077458
 30
0.0
 10
7.3312805077
 20
21.3824068652
 30
0.0
 10
7.3313200222
 20
21.3823885679
 30
0.0
 10
7.331387488
 20
21.3823368697
 30
0.0
 10
7.3314892505
 20
21.3822436956
 30
0.0
 10
7.3316219864
 20
21.3821089286
 30
0.0
 10
7.3317849455
 20
21.381933327
 30
0.0
 10
7.3319776918
 20
21.3817169576
 30
0.0
 10
7.3321995045
 20
21.381460564
 30
0.0
 10
7.3325534488
 20
21.3810421202
 30
0.0
 10
7.333062655
 20
21.3804233108
 30
0.0
 10
7.3337489211
 20
21.3795693537
 30
0.0
 10
7.3345333805
 20
21.378575476
 30
0.0
 10
7.3354083012
 20
21.3774508845
 30
0.0
 10
7.3363653165
 20
21.3762055119
 30
0.0
 10
7.3373956211
 20
21.374850344
 30
0.0
 10
7.3384899036
 20
21.3733973456
 30
0.0
 10
7.3400526252
 20
21.3713040772
 30
0.0
 10
7.3420899755
 20
21.3685408181
 30
0.0
 10
7.3445820328
 20
21.3651117109
 30
0.0
 10
7.3470836571
 20
21.3616218534
 30
0.0
 10
7.3495111163
 20
21.3581899396
 30
0.0
 10
7.3517824427
 20
21.3549350383
 30
0.0
 10
7.3538197259
 20
21.3519722348
 30
0.0
 10
7.3553338727
 20
21.3497329316
 30
0.0
 10
7.3563740503
 20
21.3481664299
 30
0.0
 10
7.3570130692
 20
21.3471900304
 30
0.0
 10
7.3575468335
 20
21.3463585571
 30
0.0
 10
7.357970907
 20
21.3456802878
 30
0.0
 10
7.3582807509
 20
21.3451618078
 30
0.0
 10
7.3584450172
 20
21.3448674813
 30
0.0
 10
7.3585038286
 20
21.3447462935
 30
0.0
  0
SPLINE
  5
33B
100
AcDbEntity
  8
0
100
AcDbSpline
 62
7
  6
CONTINUOUS
 70
0
 71
3
 72
18
 73
14
 74
0
 42
0.0000001
 43
0.0000001
 44
0.0000000001
 40
0.0
 40
0.0
 40
0.0
 40
0.0
 40
0.0386720872
 40
0.0657023211
 40
0.0989868468
 40
0.1389030021
 40
0.1855745101
 40
0.2389810025
 40
0.2990444914
 40
0.4386673726
 40
0.60328028
 40
0.7910718333
 40
1.0
 40
1.0
 40
1.0
 40
1.0
 10
7.2993834759
 20
21.4503050814
 30
0.0
 10
7.2994882851
 20
21.450355611
 30
0.0
 10
7.2997054956
 20
21.4503411294
 30
0.0
 10
7.2999815983
 20
21.4502381918
 30
0.0
 10
7.3002501592
 20
21.4500969635
 30
0.0
 10
7.3005517983
 20
21.4498993588
 30
0.0
 10
7.300888536
 20
21.4496457366
 30
0.0
 10
7.301258485
 20
21.4493368722
 30
0.0
 10
7.3018236829
 20
21.4488263172
 30
0.0
 10
7.3026008937
 20
21.4480526296
 30
0.0
 10
7.3036047404
 20
21.4469642226
 30
0.0
 10
7.3047094508
 20
21.4456864185
 30
0.0
 10
7.3054668786
 20
21.4447637458
 30
0.0
 10
7.3058607335
 20
21.4442738207
 30
0.0
  0
SPLINE
  5
33C
100
AcDbEntity
  8
0
100
AcDbSpline
 62
7
  6
CONTINUOUS
 70
0
 71
3
 72
15
 73
11
 74
0
 42
0.0000001
 43
0.0000001
 44
0.0000000001
 40
0.0
 40
0.0
 40
0.0
 40
0.0
 40
0.1155501276
 40
0.243587874
 40
0.3795482464
 40
0.5184479735
 40
0.6550490029
 40
0.7841147481
 40
0.9007075452
 40
1.0
 40
1.0
 40
1.0
 40
1.0
 10
7.3058607335
 20
21.4442738207
 30
0.0
 10
7.3066486467
 20
21.4432937174
 30
0.0
 10
7.3082683157
 20
21.4411943022
 30
0.0
 10
7.3106969463
 20
21.4378525329
 30
0.0
 10
7.3131873342
 20
21.434243131
 30
0.0
 10
7.3156478608
 20
21.4305013231
 30
0.0
 10
7.3179869725
 20
21.4267707239
 30
0.0
 10
7.3201162323
 20
21.4231962438
 30
0.0
 10
7.3219522774
 20
21.4199212819
 30
0.0
 10
7.3230345186
 20
21.4178349769
 30
0.0
 10
7.3235063077
 20
21.4168628
 30
0.0
  0
SPLINE
  5
33D
100
AcDbEntity
  8
0
100
AcDbSpline
 62
7
  6
CONTINUOUS
 70
0
 71
3
 72
22
 73
18
 74
0
 42
0.0000001
 43
0.0000001
 44
0.0000000001
 40
0.0
 40
0.0
 40
0.0
 40
0.0
 40
0.0362831996
 40
0.0498616318
 40
0.0655021981
 40
0.0832458546
 40
0.1030887031
 40
0.1250076616
 40
0.1489678974
 40
0.2028234567
 40
0.2641093299
 40
0.3321032359
 40
0.4060208526
 40
0.4848869852
 40
0.6532370553
 40
0.8282910602
 40
1.0
 40
1.0
 40
1.0
 40
1.0
 10
7.2343669085
 20
21.5886801491
 30
0.0
 10
7.2347057633
 20
21.5888445229
 30
0.0
 10
7.2352996419
 20
21.5886471456
 30
0.0
 10
7.2358715777
 20
21.5883091356
 30
0.0
 10
7.2362727665
 20
21.5880255361
 30
0.0
 10
7.2367005859
 20
21.5876771477
 30
0.0
 10
7.2371593646
 20
21.5872627588
 30
0.0
 10
7.2376458516
 20
21.5867844227
 30
0.0
 10
7.2383583123
 20
21.5860330485
 30
0.0
 10
7.2393031195
 20
21.5849402726
 30
0.0
 10
7.2404828538
 20
21.5834491708
 30
0.0
 10
7.2417335304
 20
21.5817503506
 30
0.0
 10
7.243037973
 20
21.5798658305
 30
0.0
 10
7.2448666118
 20
21.5770785107
 30
0.0
 10
7.247147271
 20
21.5733338129
 30
0.0
 10
7.2497546476
 20
21.5686645917
 30
0.0
 10
7.2513938827
 20
21.5654589302
 30
0.0
 10
7.2521720421
 20
21.5638554412
 30
0.0
  0
SPLINE
  5
33E
100
AcDbEntity
  8
0
100
AcDbSpline
 62
7
  6
CONTINUOUS
 70
0
 71
3
 72
20
 73
16
 74
0
 42
0.0000001
 43
0.0000001
 44
0.0000000001
 40
0.0
 40
0.0
 40
0.0
 40
0.0
 40
0.0087514159
 40
0.0178955422
 40
0.0389691735
 40
0.0656647708
 40
0.0990549867
 40
0.1396085522
 40
0.187454726
 40
0.2424558078
 40
0.3043833893
 40
0.4478178258
 40
0.6145609815
 40
0.800544792
 40
1.0
 40
1.0
 40
1.0
 40
1.0
 10
7.1559176536
 20
21.755452617
 30
0.0
 10
7.1559652948
 20
21.7554758191
 30
0.0
 10
7.1560690774
 20
21.7555112404
 30
0.0
 10
7.1563061946
 20
21.7555314226
 30
0.0
 10
7.1566482842
 20
21.7554471395
 30
0.0
 10
7.15708181
 20
21.7552107823
 30
0.0
 10
7.1575662427
 20
21.7548380925
 30
0.0
 10
7.1581001807
 20
21.7543281608
 30
0.0
 10
7.1586818643
 20
21.7536826826
 30
0.0
 10
7.1593080701
 20
21.7529054543
 30
0.0
 10
7.1602435093
 20
21.7516359731
 30
0.0
 10
7.1614815302
 20
21.7497516804
 30
0.0
 10
7.1630113254
 20
21.747165192
 30
0.0
 10
7.1646043837
 20
21.7442248345
 30
0.0
 10
7.1656525004
 20
21.7421391294
 30
0.0
 10
7.1661797867
 20
21.7410525939
 30
0.0
  0
SPLINE
  5
33F
100
AcDbEntity
  8
0
100
AcDbSpline
 62
7
  6
CONTINUOUS
 70
0
 71
3
 72
18
 73
14
 74
0
 42
0.0000001
 43
0.0000001
 44
0.0000000001
 40
0.0
 40
0.0
 40
0.0
 40
0.0
 40
0.0189040844
 40
0.0399179752
 40
0.0653676323
 40
0.0966076902
 40
0.1343172074
 40
0.1788285944
 40
0.2887854082
 40
0.4269537099
 40
0.5927345357
 40
0.7844015417
 40
1.0
 40
1.0
 40
1.0
 40
1.0
 10
7.0878785865
 20
21.8999411177
 30
0.0
 10
7.0879168349
 20
21.8999596954
 30
0.0
 10
7.0880071007
 20
21.8999815682
 30
0.0
 10
7.0881548425
 20
21.8999570193
 30
0.0
 10
7.0883142613
 20
21.8998821069
 30
0.0
 10
7.0884877639
 20
21.8997584354
 30
0.0
 10
7.0886765647
 20
21.8995860979
 30
0.0
 10
7.0889699477
 20
21.8992681271
 30
0.0
 10
7.0893678905
 20
21.8987422352
 30
0.0
 10
7.0898751645
 20
21.8979611516
 30
0.0
 10
7.0904351093
 20
21.8969967332
 30
0.0
 10
7.0910423065
 20
21.8958595467
 30
0.0
 10
7.0914511879
 20
21.8950396577
 30
0.0
 10
7.0916629154
 20
21.8946033685
 30
0.0
  0
SPLINE
  5
340
100
AcDbEntity
  8
0
100
AcDbSpline
 62
7
  6
CONTINUOUS
 70
0
 71
3
 72
16
 73
12
 74
0
 42
0.0000001
 43
0.0000001
 44
0.0000000001
 40
0.0
 40
0.0
 40
0.0
 40
0.0
 40
0.0100440063
 40
0.0257984009
 40
0.0786470624
 40
0.1612141267
 40
0.2733497715
 40
0.4144960729
 40
0.5835659315
 40
0.7791962397
 40
1.0
 40
1.0
 40
1.0
 40
1.0
 10
7.5886966443
 20
21.1148400471
 30
0.0
 10
7.5887125743
 20
21.1148480254
 30
0.0
 10
7.588762272
 20
21.1148455577
 30
0.0
 10
7.5888878289
 20
21.1147856408
 30
0.0
 10
7.5891009975
 20
21.1146181643
 30
0.0
 10
7.5894201769
 20
21.1143180151
 30
0.0
 10
7.5898328186
 20
21.1138873758
 30
0.0
 10
7.5903341151
 20
21.1133308081
 30
0.0
 10
7.5909203275
 20
21.1126513361
 30
0.0
 10
7.5915864747
 20
21.1118545299
 30
0.0
 10
7.592053355
 20
21.1112820772
 30
0.0
 10
7.5922994693
 20
21.1109773979
 30
0.0
  0
SPLINE
  5
341
100
AcDbEntity
  8
0
100
AcDbSpline
 62
7
  6
CONTINUOUS
 70
0
 71
3
 72
15
 73
11
 74
0
 42
0.0000001
 43
0.0000001
 44
0.0000000001
 40
0.0
 40
0.0
 40
0.0
 40
0.0
 40
0.1046852637
 40
0.2297756955
 40
0.3684586544
 40
0.5133097696
 40
0.6565383921
 40
0.7902944034
 40
0.9070341757
 40
1.0
 40
1.0
 40
1.0
 40
1.0
 10
7.5922994693
 20
21.1109773979
 30
0.0
 10
7.5931286895
 20
21.1099508575
 30
0.0
 10
7.5949153974
 20
21.1076707688
 30
0.0
 10
7.5977178918
 20
21.1039667472
 30
0.0
 10
7.6007700074
 20
21.0998172437
 30
0.0
 10
7.6039062828
 20
21.0954463172
 30
0.0
 10
7.606957168
 20
21.0910909904
 30
0.0
 10
7.6097563647
 20
21.0869923691
 30
0.0
 10
7.6121477474
 20
21.0833830878
 30
0.0
 10
7.6135674854
 20
21.0811527887
 30
0.0
 10
7.6141779902
 20
21.0801524865
 30
0.0
  0
LINE
  5
342
100
AcDbEntity
  8
0
100
AcDbLine
 62
7
  6
CONTINUOUS
 10
7.6141779902
 20
21.0801524865
 11
7.6156063188
 21
21.0776402811
  0
SPLINE
  5
343
100
AcDbEntity
  8
0
100
AcDbSpline
 62
7
  6
CONTINUOUS
 70
0
 71
3
 72
17
 73
13
 74
0
 42
0.0000001
 43
0.0000001
 44
0.0000000001
 40
0.0
 40
0.0
 40
0.0
 40
0.0
 40
0.0355313079
 40
0.0614263227
 40
0.093771867
 40
0.1328465958
 40
0.178755063
 40
0.2910884722
 40
0.4305028841
 40
0.5960721914
 40
0.7863975315
 40
1.0
 40
1.0
 40
1.0
 40
1.0
 10
7.5581698904
 20
21.1787000066
 30
0.0
 10
7.5582381512
 20
21.17873319
 30
0.0
 10
7.5583833388
 20
21.1787164551
 30
0.0
 10
7.5585659801
 20
21.1786416533
 30
0.0
 10
7.5587489334
 20
21.1785399296
 30
0.0
 10
7.5589563964
 20
21.1783996178
 30
0.0
 10
7.5592911866
 20
21.1781429869
 30
0.0
 10
7.5597680527
 20
21.1777216178
 30
0.0
 10
7.5604042742
 20
21.1770968786
 30
0.0
 10
7.5611311301
 20
21.1763277672
 30
0.0
 10
7.5619424029
 20
21.1754211267
 30
0.0
 10
7.5625038596
 20
21.1747658655
 30
0.0
 10
7.5627978322
 20
21.1744169071
 30
0.0
  0
SPLINE
  5
344
100
AcDbEntity
  8
0
100
AcDbSpline
 62
7
  6
CONTINUOUS
 70
0
 71
3
 72
16
 73
12
 74
0
 42
0.0000001
 43
0.0000001
 44
0.0000000001
 40
0.0
 40
0.0
 40
0.0
 40
0.0
 40
0.110548723
 40
0.2397958672
 40
0.380983422
 40
0.5266820067
 40
0.6690438793
 40
0.8001535094
 40
0.9126672571
 40
0.9598626699
 40
1.0
 40
1.0
 40
1.0
 40
1.0
 10
7.5627978322
 20
21.1744169071
 30
0.0
 10
7.5636874887
 20
21.173360846
 30
0.0
 10
7.5655622614
 20
21.171023795
 30
0.0
 10
7.5684309988
 20
21.1672263554
 30
0.0
 10
7.5714658942
 20
21.1630059162
 30
0.0
 10
7.5745046968
 20
21.1585880863
 30
0.0
 10
7.5773829429
 20
21.1542138547
 30
0.0
 10
7.5799423625
 20
21.1501275597
 30
0.0
 10
7.5817870919
 20
21.1469972442
 30
0.0
 10
7.5829847806
 20
21.1448068707
 30
0.0
 10
7.5834822273
 20
21.1438357485
 30
0.0
 10
7.5837011153
 20
21.1433847041
 30
0.0
  0
SPLINE
  5
345
100
AcDbEntity
  8
0
100
AcDbSpline
 62
7
  6
CONTINUOUS
 70
0
 71
3
 72
17
 73
13
 74
0
 42
0.0000001
 43
0.0000001
 44
0.0000000001
 40
0.0
 40
0.0
 40
0.0
 40
0.0
 40
0.020012194
 40
0.0433489392
 40
0.0715828236
 40
0.1055903511
 40
0.1923083561
 40
0.3047642498
 40
0.4428102717
 40
0.6056554855
 40
0.7919020728
 40
1.0
 40
1.0
 40
1.0
 40
1.0
 10
7.5096071124
 20
21.2802839694
 30
0.0
 10
7.5096524313
 20
21.2803059798
 30
0.0
 10
7.5097609659
 20
21.2803332034
 30
0.0
 10
7.509942556
 20
21.2803205104
 30
0.0
 10
7.5101506955
 20
21.2802608994
 30
0.0
 10
7.5104932608
 20
21.2801062032
 30
0.0
 10
7.5109866407
 20
21.2797832256
 30
0.0
 10
7.5116458319
 20
21.2792475199
 30
0.0
 10
7.5124066711
 20
21.2785365162
 30
0.0
 10
7.5132615262
 20
21.2776567908
 30
0.0
 10
7.5142024955
 20
21.2766161434
 30
0.0
 10
7.5148472213
 20
21.2758610486
 30
0.0
 10
7.5151829141
 20
21.2754588384
 30
0.0
  0
SPLINE
  5
346
100
AcDbEntity
  8
0
100
AcDbSpline
 62
7
  6
CONTINUOUS
 70
0
 71
3
 72
15
 73
11
 74
0
 42
0.0000001
 43
0.0000001
 44
0.0000000001
 40
0.0
 40
0.0
 40
0.0
 40
0.0
 40
0.1081371815
 40
0.2305932243
 40
0.363048315
 40
0.5006948412
 40
0.6383759481
 40
0.7708527066
 40
0.8930837379
 40
1.0
 40
1.0
 40
1.0
 40
1.0
 10
7.5151829141
 20
21.2754588384
 30
0.0
 10
7.5159402467
 20
21.2745514405
 30
0.0
 10
7.5175076832
 20
21.2725767805
 30
0.0
 10
7.5198701306
 20
21.2693880349
 30
0.0
 10
7.5223280431
 20
21.2658706455
 30
0.0
 10
7.5247900948
 20
21.2621549126
 30
0.0
 10
7.5271638452
 20
21.2583818873
 30
0.0
 10
7.5293584967
 20
21.2546966493
 30
0.0
 10
7.5312871292
 20
21.2512461251
 30
0.0
 10
7.5324370724
 20
21.2490202918
 30
0.0
 10
7.5329472659
 20
21.2479689781
 30
0.0
  0
SPLINE
  5
347
100
AcDbEntity
  8
0
100
AcDbSpline
 62
7
  6
CONTINUOUS
 70
0
 71
3
 72
19
 73
15
 74
0
 42
0.0000001
 43
0.0000001
 44
0.0000000001
 40
0.0
 40
0.0
 40
0.0
 40
0.0
 40
0.0202440699
 40
0.0437389081
 40
0.0721771219
 40
0.1064925334
 40
0.1471265043
 40
0.1942401808
 40
0.2478650087
 40
0.3079607658
 40
0.4471367042
 40
0.6102754825
 40
0.7953406124
 40
1.0
 40
1.0
 40
1.0
 40
1.0
 10
7.4463133374
 20
21.4126696351
 30
0.0
 10
7.4463816554
 20
21.4127026947
 30
0.0
 10
7.4465453123
 20
21.4127425724
 30
0.0
 10
7.446817807
 20
21.4127176368
 30
0.0
 10
7.4471273841
 20
21.4126185183
 30
0.0
 10
7.4474755928
 20
21.4124460526
 30
0.0
 10
7.447862792
 20
21.4122010482
 30
0.0
 10
7.4482881334
 20
21.4118841847
 30
0.0
 10
7.4487502359
 20
21.411496421
 30
0.0
 10
7.4494479968
 20
21.4108541073
 30
0.0
 10
7.4503937671
 20
21.4098771953
 30
0.0
 10
7.4515975296
 20
21.4085019036
 30
0.0
 10
7.4529016408
 20
21.4068902995
 30
0.0
 10
7.4537849239
 20
21.4057261332
 30
0.0
 10
7.454241059
 20
21.4051091537
 30
0.0
  0
SPLINE
  5
348
100
AcDbEntity
  8
0
100
AcDbSpline
 62
7
  6
CONTINUOUS
 70
0
 71
3
 72
11
 73
7
 74
0
 42
0.0000001
 43
0.0000001
 44
0.0000000001
 40
0.0
 40
0.0
 40
0.0
 40
0.0
 40
0.2370407918
 40
0.4956417708
 40
0.756696742
 40
1.0
 40
1.0
 40
1.0
 40
1.0
 10
7.454241059
 20
21.4051091537
 30
0.0
 10
7.4553855126
 20
21.4035611374
 30
0.0
 10
7.4576796211
 20
21.4002509476
 30
0.0
 10
7.4609571907
 20
21.3950505359
 30
0.0
 10
7.4640481239
 20
21.3896783211
 30
0.0
 10
7.4659408514
 20
21.3860435733
 30
0.0
 10
7.4668035616
 20
21.3842658575
 30
0.0
  0
SPLINE
  5
349
100
AcDbEntity
  8
0
100
AcDbSpline
 62
7
  6
CONTINUOUS
 70
0
 71
3
 72
19
 73
15
 74
0
 42
0.0000001
 43
0.0000001
 44
0.0000000001
 40
0.0
 40
0.0
 40
0.0
 40
0.0
 40
0.0186875103
 40
0.0409699049
 40
0.068809255
 40
0.1031669419
 40
0.1444080541
 40
0.1925879135
 40
0.2476335658
 40
0.3093958197
 40
0.4518407961
 40
0.617013335
 40
0.8012271977
 40
1.0
 40
1.0
 40
1.0
 40
1.0
 10
7.3725997028
 20
21.5668325152
 30
0.0
 10
7.3726974886
 20
21.566879809
 30
0.0
 10
7.3729396093
 20
21.5669285505
 30
0.0
 10
7.3733383833
 20
21.5668553757
 30
0.0
 10
7.3737908796
 20
21.5666580646
 30
0.0
 10
7.374300716
 20
21.56633654
 30
0.0
 10
7.3748678414
 20
21.5658924666
 30
0.0
 10
7.3754897935
 20
21.5653274556
 30
0.0
 10
7.3761631662
 20
21.564644097
 30
0.0
 10
7.3771727917
 20
21.5635249043
 30
0.0
 10
7.3785230536
 20
21.5618537231
 30
0.0
 10
7.3802093087
 20
21.5595442764
 30
0.0
 10
7.3819873438
 20
21.5568995147
 30
0.0
 10
7.3831694354
 20
21.5550127078
 30
0.0
 10
7.3837689665
 20
21.5540250548
 30
0.0
  0
SPLINE
  5
34A
100
AcDbEntity
  8
0
100
AcDbSpline
 62
7
  6
CONTINUOUS
 70
0
 71
3
 72
22
 73
18
 74
0
 42
0.0000001
 43
0.0000001
 44
0.0000000001
 40
0.0
 40
0.0
 40
0.0
 40
0.0
 40
0.0083215359
 40
0.0172193731
 40
0.027171213
 40
0.0385133193
 40
0.0661379433
 40
0.1011062539
 40
0.1436586267
 40
0.1937055354
 40
0.2510335069
 40
0.3152525247
 40
0.3858144272
 40
0.4621425493
 40
0.6294347068
 40
0.8112214536
 40
1.0
 40
1.0
 40
1.0
 40
1.0
 10
7.2934874354
 20
21.7322658582
 30
0.0
 10
7.2935471395
 20
21.7322948391
 30
0.0
 10
7.2936799498
 20
21.7323371685
 30
0.0
 10
7.2938983963
 20
21.7323468003
 30
0.0
 10
7.2941371515
 20
21.7323059679
 30
0.0
 10
7.2945068317
 20
21.7321772447
 30
0.0
 10
7.2950194594
 20
21.7318768201
 30
0.0
 10
7.2956749207
 20
21.7313518278
 30
0.0
 10
7.2964051327
 20
21.7306415854
 30
0.0
 10
7.2972040797
 20
21.7297511778
 30
0.0
 10
7.298064613
 20
21.728686459
 30
0.0
 10
7.2989789086
 20
21.7274566548
 30
0.0
 10
7.2999388126
 20
21.7260731407
 30
0.0
 10
7.3013091573
 20
21.7239750788
 30
0.0
 10
7.3030587103
 20
21.7210668324
 30
0.0
 10
7.3051263184
 20
21.7173075618
 30
0.0
 10
7.3064612151
 20
21.7146701143
 30
0.0
 10
7.3071185336
 20
21.7133156324
 30
0.0
  0
SPLINE
  5
34B
100
AcDbEntity
  8
0
100
AcDbSpline
 62
7
  6
CONTINUOUS
 70
0
 71
3
 72
20
 73
16
 74
0
 42
0.0000001
 43
0.0000001
 44
0.0000000001
 40
0.0
 40
0.0
 40
0.0
 40
0.0
 40
0.008868683
 40
0.0181243726
 40
0.0393658387
 40
0.0661365384
 40
0.0995246424
 40
0.140019688
 40
0.1877518243
 40
0.2425991947
 40
0.3043556033
 40
0.4474641326
 40
0.6140108424
 40
0.8000687634
 40
1.0
 40
1.0
 40
1.0
 40
1.0
 10
7.2143674028
 20
21.8976950038
 30
0.0
 10
7.2144146698
 20
21.8977180225
 30
0.0
 10
7.2145174585
 20
21.8977533515
 30
0.0
 10
7.2147517669
 20
21.8977747535
 30
0.0
 10
7.2150895325
 20
21.8976955974
 30
0.0
 10
7.2155178805
 20
21.8974682621
 30
0.0
 10
7.2159957558
 20
21.8971079483
 30
0.0
 10
7.2165218245
 20
21.8966136924
 30
0.0
 10
7.2170944718
 20
21.895987226
 30
0.0
 10
7.2177104803
 20
21.8952320185
 30
0.0
 10
7.2186302736
 20
21.8939969036
 30
0.0
 10
7.2198469363
 20
21.8921600315
 30
0.0
 10
7.2213494071
 20
21.8896336832
 30
0.0
 10
7.2229136852
 20
21.8867551093
 30
0.0
 10
7.2239420258
 20
21.8847106061
 30
0.0
 10
7.2244594807
 20
21.8836443294
 30
0.0
  0
SPLINE
  5
34C
100
AcDbEntity
  8
0
100
AcDbSpline
 62
7
  6
CONTINUOUS
 70
0
 71
3
 72
19
 73
15
 74
0
 42
0.0000001
 43
0.0000001
 44
0.0000000001
 40
0.0
 40
0.0
 40
0.0
 40
0.0
 40
0.0187436888
 40
0.0400453525
 40
0.0662377295
 40
0.0985257093
 40
0.1374790701
 40
0.1833606942
 40
0.2362774175
 40
0.2961919748
 40
0.43635523
 40
0.6023112738
 40
0.7914714937
 40
1.0
 40
1.0
 40
1.0
 40
1.0
 10
7.1406322743
 20
22.0518470416
 30
0.0
 10
7.1406998237
 20
22.0518799161
 30
0.0
 10
7.1408621648
 20
22.051916802
 30
0.0
 10
7.1411277978
 20
22.0518663791
 30
0.0
 10
7.141417146
 20
22.0517251172
 30
0.0
 10
7.1417348962
 20
22.0514960042
 30
0.0
 10
7.1420820942
 20
22.0511790273
 30
0.0
 10
7.1424582842
 20
22.0507743093
 30
0.0
 10
7.1428622023
 20
22.0502824953
 30
0.0
 10
7.1434679886
 20
22.0494689896
 30
0.0
 10
7.1442753468
 20
22.0482427572
 30
0.0
 10
7.1452829299
 20
22.0465318309
 30
0.0
 10
7.1463547651
 20
22.0445427148
 30
0.0
 10
7.1470686085
 20
22.0431173205
 30
0.0
 10
7.1474335056
 20
22.0423654073
 30
0.0
  0
LINE
  5
34D
100
AcDbEntity
  8
0
100
AcDbLine
 62
7
  6
CONTINUOUS
 10
7.5991080084
 20
21.0930590842
 11
7.6004838973
 21
21.091178926
  0
LINE
  5
34E
100
AcDbEntity
  8
0
100
AcDbLine
 62
7
  6
CONTINUOUS
 10
7.6239356528
 20
21.0587813521
 11
7.6264885896
 21
21.0552160827
  0
SPLINE
  5
34F
100
AcDbEntity
  8
0
100
AcDbSpline
 62
7
  6
CONTINUOUS
 70
0
 71
3
 72
18
 73
14
 74
0
 42
0.0000001
 43
0.0000001
 44
0.0000000001
 40
0.0
 40
0.0
 40
0.0
 40
0.0
 40
0.01931755
 40
0.0406897427
 40
0.0664102799
 40
0.0978435002
 40
0.1356955752
 40
0.1803065829
 40
0.290338039
 40
0.4284050385
 40
0.5939324763
 40
0.7851465295
 40
1.0
 40
1.0
 40
1.0
 40
1.0
 10
7.0773093026
 20
22.184217584
 30
0.0
 10
7.0773501832
 20
22.1842374024
 30
0.0
 10
7.0774461453
 20
22.1842611088
 30
0.0
 10
7.0776033171
 20
22.1842369949
 30
0.0
 10
7.0777728361
 20
22.1841601191
 30
0.0
 10
7.0779569829
 20
22.1840321838
 30
0.0
 10
7.07815696
 20
22.1838532861
 30
0.0
 10
7.0784670199
 20
22.1835228675
 30
0.0
 10
7.0788866868
 20
22.1829754554
 30
0.0
 10
7.0794202744
 20
22.1821616269
 30
0.0
 10
7.0800075187
 20
22.181156475
 30
0.0
 10
7.0806425456
 20
22.1799714179
 30
0.0
 10
7.0810691918
 20
22.1791168785
 30
0.0
 10
7.0812898013
 20
22.1786622867
 30
0.0
  0
SPLINE
  5
350
100
AcDbEntity
  8
0
100
AcDbSpline
 62
7
  6
CONTINUOUS
 70
0
 71
3
 72
17
 73
13
 74
0
 42
0.0000001
 43
0.0000001
 44
0.0000000001
 40
0.0
 40
0.0
 40
0.0
 40
0.0
 40
0.019718342
 40
0.0411823191
 40
0.0666624461
 40
0.0975588759
 40
0.1783542936
 40
0.286844637
 40
0.4236710873
 40
0.5885386142
 40
0.7808796727
 40
1.0
 40
1.0
 40
1.0
 40
1.0
 10
7.0287162849
 20
22.2857885186
 30
0.0
 10
7.028735398
 20
22.2857977768
 30
0.0
 10
7.0287796503
 20
22.2858092432
 30
0.0
 10
7.0288520981
 20
22.2857996324
 30
0.0
 10
7.0289296805
 20
22.285766047
 30
0.0
 10
7.0290523997
 20
22.2856827896
 30
0.0
 10
7.0292197638
 20
22.2855124243
 30
0.0
 10
7.0294336982
 20
22.2852336561
 30
0.0
 10
7.0296751933
 20
22.2848632406
 30
0.0
 10
7.0299428922
 20
22.284403266
 30
0.0
 10
7.0302352373
 20
22.2838555604
 30
0.0
 10
7.0304329151
 20
22.28345888
 30
0.0
 10
7.0305359519
 20
22.2832465607
 30
0.0
  0
SPLINE
  5
351
100
AcDbEntity
  8
0
100
AcDbSpline
 62
7
  6
CONTINUOUS
 70
0
 71
3
 72
43
 73
39
 74
0
 42
0.0000001
 43
0.0000001
 44
0.0000000001
 40
0.0
 40
0.0
 40
0.0
 40
0.0
 40
0.0002048427
 40
0.0006874684
 40
0.0014606934
 40
0.0025261884
 40
0.0038839847
 40
0.0055336365
 40
0.0097058478
 40
0.0150369346
 40
0.0215196253
 40
0.0291357138
 40
0.0378592231
 40
0.0476639596
 40
0.0585237011
 40
0.0833032033
 40
0.1119639443
 40
0.1442007459
 40
0.1796950736
 40
0.2181213738
 40
0.2591096896
 40
0.3022727154
 40
0.3935523192
 40
0.4886702576
 40
0.5842413661
 40
0.6768445124
 40
0.7631308959
 40
0.8398837247
 40
0.873767948
 40
0.904195152
 40
0.9308625269
 40
0.9535234222
 40
0.9719351773
 40
0.9858934618
 40
0.9911652936
 40
0.9952816696
 40
0.9982301579
 40
1.0
 40
1.0
 40
1.0
 40
1.0
 10
7.4599526948
 20
21.2446382993
 30
0.0
 10
7.4599556369
 20
21.244639527
 30
0.0
 10
7.4599660254
 20
21.2446311198
 30
0.0
 10
7.4599816603
 20
21.2446178136
 30
0.0
 10
7.4600072938
 20
21.2445906314
 30
0.0
 10
7.4600402526
 20
21.2445540733
 30
0.0
 10
7.4600817245
 20
21.2445058606
 30
0.0
 10
7.4601534484
 20
21.2444203021
 30
0.0
 10
7.4602629815
 20
21.2442855583
 30
0.0
 10
7.4604179034
 20
21.2440909168
 30
0.0
 10
7.4606045121
 20
21.2438529545
 30
0.0
 10
7.4608222682
 20
21.2435723467
 30
0.0
 10
7.4610704737
 20
21.2432499231
 30
0.0
 10
7.4613483577
 20
21.2428866437
 30
0.0
 10
7.4617766358
 20
21.2423237993
 30
0.0
 10
7.4623799846
 20
21.2415254154
 30
0.0
 10
7.4631805101
 20
21.2404590347
 30
0.0
 10
7.4640779876
 20
21.2392569248
 30
0.0
 10
7.4650633627
 20
21.2379307742
 30
0.0
 10
7.4661269763
 20
21.2364930767
 30
0.0
 10
7.4672586735
 20
21.2349572912
 30
0.0
 10
7.4688744536
 20
21.2327564452
 30
0.0
 10
7.4709812419
 20
21.2298709927
 30
0.0
 10
7.4735579154
 20
21.2263187312
 30
0.0
 10
7.4761356888
 20
21.222741846
 30
0.0
 10
7.4786227449
 20
21.2192690296
 30
0.0
 10
7.4809294
 20
21.2160272748
 30
0.0
 10
7.4826982006
 20
21.2135244233
 30
0.0
 10
7.483960009
 20
21.2117278312
 30
0.0
 10
7.4847713118
 20
21.2105673772
 30
0.0
 10
7.4854799084
 20
21.2095482519
 30
0.0
 10
7.4860789857
 20
21.2086807383
 30
0.0
 10
7.4865624861
 20
21.2079738086
 30
0.0
 10
7.4868901476
 20
21.2074881493
 30
0.0
 10
7.4870901928
 20
21.2071848442
 30
0.0
 10
7.4871944812
 20
21.2070235921
 30
0.0
 10
7.4872668513
 20
21.2069067509
 30
0.0
 10
7.4873041255
 20
21.2068433455
 30
0.0
 10
7.4873161513
 20
21.2068185648
 30
0.0
  0
SPLINE
  5
352
100
AcDbEntity
  8
0
100
AcDbSpline
 62
7
  6
CONTINUOUS
 70
0
 71
3
 72
19
 73
15
 74
0
 42
0.0000001
 43
0.0000001
 44
0.0000000001
 40
0.0
 40
0.0
 40
0.0
 40
0.0
 40
0.0123943207
 40
0.0299448307
 40
0.0541355604
 40
0.0854821726
 40
0.1241611552
 40
0.1701517532
 40
0.2233607072
 40
0.2836659354
 40
0.4249984386
 40
0.5928135389
 40
0.7851762598
 40
1.0
 40
1.0
 40
1.0
 40
1.0
 10
7.4414884232
 20
21.2835013524
 30
0.0
 10
7.441518608
 20
21.2835159378
 30
0.0
 10
7.4416045553
 20
21.2835202696
 30
0.0
 10
7.4417432979
 20
21.2834712353
 30
0.0
 10
7.4419167556
 20
21.2833749636
 30
0.0
 10
7.44212495
 20
21.2832275675
 30
0.0
 10
7.4423685971
 20
21.2830295613
 30
0.0
 10
7.4426467072
 20
21.2827809571
 30
0.0
 10
7.4429584179
 20
21.2824825957
 30
0.0
 10
7.4434436382
 20
21.2819929142
 30
0.0
 10
7.4441237719
 20
21.2812604722
 30
0.0
 10
7.4450186811
 20
21.2802409351
 30
0.0
 10
7.4460200353
 20
21.2790508091
 30
0.0
 10
7.4467150839
 20
21.2781964165
 30
0.0
 10
7.4470787758
 20
21.2777432609
 30
0.0
  0
SPLINE
  5
353
100
AcDbEntity
  8
0
100
AcDbSpline
 62
7
  6
CONTINUOUS
 70
0
 71
3
 72
13
 73
9
 74
0
 42
0.0000001
 43
0.0000001
 44
0.0000000001
 40
0.0
 40
0.0
 40
0.0
 40
0.0
 40
0.1125656
 40
0.2385214334
 40
0.5117297147
 40
0.7792340681
 40
0.8978593882
 40
1.0
 40
1.0
 40
1.0
 40
1.0
 10
7.4470787758
 20
21.2777432609
 30
0.0
 10
7.4478533153
 20
21.2767781943
 30
0.0
 10
7.4494665643
 20
21.2747107836
 30
0.0
 10
7.4528410749
 20
21.270209514
 30
0.0
 10
7.457091554
 20
21.2642378699
 30
0.0
 10
7.4611341868
 20
21.2582203953
 30
0.0
 10
7.464013528
 20
21.2536901766
 30
0.0
 10
7.4652731083
 20
21.2516153656
 30
0.0
 10
7.4658401705
 20
21.250646237
 30
0.0
  0
LINE
  5
354
100
AcDbEntity
  8
0
100
AcDbLine
 62
7
  6
CONTINUOUS
 10
7.4658401705
 20
21.250646237
 11
7.4676880064
 21
21.2472646652
  0
SPLINE
  5
355
100
AcDbEntity
  8
0
100
AcDbSpline
 62
7
  6
CONTINUOUS
 70
0
 71
3
 72
17
 73
13
 74
0
 42
0.0000001
 43
0.0000001
 44
0.0000000001
 40
0.0
 40
0.0
 40
0.0
 40
0.0
 40
0.0200608526
 40
0.0434421851
 40
0.0717130731
 40
0.1057503788
 40
0.1925127804
 40
0.3049910455
 40
0.4430315196
 40
0.605841148
 40
0.7920167649
 40
1.0
 40
1.0
 40
1.0
 40
1.0
 10
7.396319584
 20
21.3785580145
 30
0.0
 10
7.3963653374
 20
21.3785802296
 30
0.0
 10
7.3964748528
 20
21.3786077475
 30
0.0
 10
7.3966580705
 20
21.3785951256
 30
0.0
 10
7.3968680234
 20
21.3785352422
 30
0.0
 10
7.3972134227
 20
21.3783796593
 30
0.0
 10
7.3977107143
 20
21.3780545577
 30
0.0
 10
7.3983748492
 20
21.3775151399
 30
0.0
 10
7.3991410357
 20
21.3767991154
 30
0.0
 10
7.4000014927
 20
21.375913109
 30
0.0
 10
7.4009482189
 20
21.3748650216
 30
0.0
 10
7.401596673
 20
21.3741044792
 30
0.0
 10
7.4019342383
 20
21.3736993772
 30
0.0
  0
SPLINE
  5
356
100
AcDbEntity
  8
0
100
AcDbSpline
 62
7
  6
CONTINUOUS
 70
0
 71
3
 72
15
 73
11
 74
0
 42
0.0000001
 43
0.0000001
 44
0.0000000001
 40
0.0
 40
0.0
 40
0.0
 40
0.0
 40
0.1083811687
 40
0.2310215417
 40
0.3635950389
 40
0.5012866269
 40
0.6389344995
 40
0.7712981575
 40
0.8933399884
 40
1.0
 40
1.0
 40
1.0
 40
1.0
 10
7.4019342383
 20
21.3736993772
 30
0.0
 10
7.4026925088
 20
21.3727893996
 30
0.0
 10
7.4042610233
 20
21.3708098404
 30
0.0
 10
7.4066236314
 20
21.3676141282
 30
0.0
 10
7.409079703
 20
21.3640911908
 30
0.0
 10
7.4115383172
 20
21.3603718608
 30
0.0
 10
7.4139075169
 20
21.3565976654
 30
0.0
 10
7.4160970648
 20
21.352914026
 30
0.0
 10
7.4180206141
 20
21.3494679914
 30
0.0
 10
7.4191677303
 20
21.3472463987
 30
0.0
 10
7.4196766646
 20
21.3461976799
 30
0.0
  0
SPLINE
  5
357
100
AcDbEntity
  8
0
100
AcDbSpline
 62
7
  6
CONTINUOUS
 70
0
 71
3
 72
19
 73
15
 74
0
 42
0.0000001
 43
0.0000001
 44
0.0000000001
 40
0.0
 40
0.0
 40
0.0
 40
0.0
 40
0.0196415152
 40
0.042659301
 40
0.0708660608
 40
0.1051539373
 40
0.1459329273
 40
0.1933743754
 40
0.2475126946
 40
0.3082273956
 40
0.4485488095
 40
0.6124628399
 40
0.7973281578
 40
1.0
 40
1.0
 40
1.0
 40
1.0
 10
7.3304337329
 20
21.5171775619
 30
0.0
 10
7.3305143713
 20
21.5172167904
 30
0.0
 10
7.3307100207
 20
21.5172619522
 30
0.0
 10
7.331035014
 20
21.5172208764
 30
0.0
 10
7.3314036395
 20
21.5170861719
 30
0.0
 10
7.3318184839
 20
21.5168596415
 30
0.0
 10
7.332279652
 20
21.5165419318
 30
0.0
 10
7.332785821
 20
21.5161334953
 30
0.0
 10
7.3333348779
 20
21.5156354685
 30
0.0
 10
7.3341617033
 20
21.5148143067
 30
0.0
 10
7.3352771245
 20
21.5135749348
 30
0.0
 10
7.336686206
 20
21.5118418844
 30
0.0
 10
7.3381980941
 20
21.5098280677
 30
0.0
 10
7.3392155771
 20
21.5083802436
 30
0.0
 10
7.3397376465
 20
21.5076162848
 30
0.0
  0
SPLINE
  5
358
100
AcDbEntity
  8
0
100
AcDbSpline
 62
7
  6
CONTINUOUS
 70
0
 71
3
 72
11
 73
7
 74
0
 42
0.0000001
 43
0.0000001
 44
0.0000000001
 40
0.0
 40
0.0
 40
0.0
 40
0.0
 40
0.24199933
 40
0.4975141639
 40
0.7545748532
 40
1.0
 40
1.0
 40
1.0
 40
1.0
 10
7.3397376465
 20
21.5076162848
 30
0.0
 10
7.3406397616
 20
21.5062961946
 30
0.0
 10
7.3424344234
 20
21.5035410748
 30
0.0
 10
7.3450045388
 20
21.4992680528
 30
0.0
 10
7.3474393769
 20
21.4948906317
 30
0.0
 10
7.3489519602
 20
21.4919342485
 30
0.0
 10
7.3496599115
 20
21.4904754316
 30
0.0
  0
SPLINE
  5
359
100
AcDbEntity
  8
0
100
AcDbSpline
 62
7
  6
CONTINUOUS
 70
0
 71
3
 72
21
 73
17
 74
0
 42
0.0000001
 43
0.0000001
 44
0.0000000001
 40
0.0
 40
0.0
 40
0.0
 40
0.0
 40
0.0085089495
 40
0.0175740656
 40
0.0276540305
 40
0.0390737
 40
0.0666797362
 40
0.1013879265
 40
0.1435308495
 40
0.193051954
 40
0.2497323147
 40
0.313280463
 40
0.4590424665
 40
0.6258099102
 40
0.8082053892
 40
1.0
 40
1.0
 40
1.0
 40
1.0
 10
7.2525732758
 20
21.680939556
 30
0.0
 10
7.2526305322
 20
21.6809674344
 30
0.0
 10
7.2527572326
 20
21.6810089898
 30
0.0
 10
7.2529655769
 20
21.6810218744
 30
0.0
 10
7.2531931709
 20
21.6809882349
 30
0.0
 10
7.2535443238
 20
21.6808757423
 30
0.0
 10
7.2540312823
 20
21.680607284
 30
0.0
 10
7.2546545602
 20
21.6801333361
 30
0.0
 10
7.2553480949
 20
21.6794884419
 30
0.0
 10
7.256107154
 20
21.6786774348
 30
0.0
 10
7.2569260372
 20
21.6777054962
 30
0.0
 10
7.2581445571
 20
21.6761307208
 30
0.0
 10
7.2597513559
 20
21.6738176598
 30
0.0
 10
7.2617193765
 20
21.6706784883
 30
0.0
 10
7.2637368449
 20
21.6671673037
 30
0.0
 10
7.2650495645
 20
21.664692864
 30
0.0
 10
7.2657024931
 20
21.6634145257
 30
0.0
  0
SPLINE
  5
35A
100
AcDbEntity
  8
0
100
AcDbSpline
 62
7
  6
CONTINUOUS
 70
0
 71
3
 72
19
 73
15
 74
0
 42
0.0000001
 43
0.0000001
 44
0.0000000001
 40
0.0
 40
0.0
 40
0.0
 40
0.0
 40
0.0180907659
 40
0.0392782558
 40
0.0658596462
 40
0.0989746396
 40
0.1391476494
 40
0.1864945164
 40
0.2409347359
 40
0.302310387
 40
0.4448616305
 40
0.6113534302
 40
0.7981685898
 40
1.0
 40
1.0
 40
1.0
 40
1.0
 10
7.1730765567
 20
21.8480880253
 30
0.0
 10
7.1731668472
 20
21.8481318879
 30
0.0
 10
7.1733897169
 20
21.8481759599
 30
0.0
 10
7.173752081
 20
21.8480920334
 30
0.0
 10
7.1741521688
 20
21.8478827551
 30
0.0
 10
7.1745963122
 20
21.8475486468
 30
0.0
 10
7.1750847886
 20
21.8470897226
 30
0.0
 10
7.175616233
 20
21.8465075576
 30
0.0
 10
7.1761878326
 20
21.8458049922
 30
0.0
 10
7.1770423297
 20
21.8446534186
 30
0.0
 10
7.1781746481
 20
21.842936395
 30
0.0
 10
7.1795771066
 20
21.8405684891
 30
0.0
 10
7.1810446296
 20
21.8378595112
 30
0.0
 10
7.1820127352
 20
21.8359321493
 30
0.0
 10
7.1825016826
 20
21.8349246157
 30
0.0
  0
SPLINE
  5
35B
100
AcDbEntity
  8
0
100
AcDbSpline
 62
7
  6
CONTINUOUS
 70
0
 71
3
 72
19
 73
15
 74
0
 42
0.0000001
 43
0.0000001
 44
0.0000000001
 40
0.0
 40
0.0
 40
0.0
 40
0.0
 40
0.0189745232
 40
0.0402313581
 40
0.0660489675
 40
0.0977154925
 40
0.1359147156
 40
0.180993078
 40
0.2330601392
 40
0.292120809
 40
0.4309832938
 40
0.5967769254
 40
0.7873700509
 40
1.0
 40
1.0
 40
1.0
 40
1.0
 10
7.102507559
 20
21.9964205237
 30
0.0
 10
7.102558676
 20
21.9964451867
 30
0.0
 10
7.1026799746
 20
21.9964735087
 30
0.0
 10
7.1028781348
 20
21.996439066
 30
0.0
 10
7.1030927206
 20
21.9963378358
 30
0.0
 10
7.1033269573
 20
21.9961717085
 30
0.0
 10
7.1035820397
 20
21.9959403513
 30
0.0
 10
7.1038579218
 20
21.9956435965
 30
0.0
 10
7.1041542117
 20
21.9952820242
 30
0.0
 10
7.104599849
 20
21.9946812934
 30
0.0
 10
7.1051959507
 20
21.9937702071
 30
0.0
 10
7.1059439819
 20
21.9924911636
 30
0.0
 10
7.106748525
 20
21.9909909548
 30
0.0
 10
7.1072876846
 20
21.9899119017
 30
0.0
 10
7.1075653632
 20
21.9893397123
 30
0.0
  0
SPLINE
  5
35C
100
AcDbEntity
  8
0
100
AcDbSpline
 62
7
  6
CONTINUOUS
 70
0
 71
3
 72
17
 73
13
 74
0
 42
0.0000001
 43
0.0000001
 44
0.0000000001
 40
0.0
 40
0.0
 40
0.0
 40
0.0
 40
0.0195306006
 40
0.0408466939
 40
0.0662270376
 40
0.0970641716
 40
0.177826412
 40
0.2863572594
 40
0.4232790577
 40
0.5882724959
 40
0.7807500398
 40
1.0
 40
1.0
 40
1.0
 40
1.0
 10
7.0502497233
 20
22.1062378917
 30
0.0
 10
7.0502688498
 20
22.1062471551
 30
0.0
 10
7.0503132499
 20
22.1062585376
 30
0.0
 10
7.05038592
 20
22.1062484654
 30
0.0
 10
7.0504637861
 20
22.1062142109
 30
0.0
 10
7.0505871649
 20
22.1061295962
 30
0.0
 10
7.0507555769
 20
22.1059569361
 30
0.0
 10
7.0509711447
 20
22.105674731
 30
0.0
 10
7.0512147315
 20
22.1052999143
 30
0.0
 10
7.051484975
 20
22.1048346355
 30
0.0
 10
7.0517802801
 20
22.1042807849
 30
0.0
 10
7.0519800727
 20
22.1038797388
 30
0.0
 10
7.0520842316
 20
22.103665107
 30
0.0
  0
SPLINE
  5
35D
100
AcDbEntity
  8
0
100
AcDbSpline
 62
7
  6
CONTINUOUS
 70
0
 71
3
 72
16
 73
12
 74
0
 42
0.0000001
 43
0.0000001
 44
0.0000000001
 40
0.0
 40
0.0
 40
0.0
 40
0.0
 40
0.0403336278
 40
0.0877262286
 40
0.2006114613
 40
0.3320207137
 40
0.4745628997
 40
0.6202757143
 40
0.7612716816
 40
0.8900993207
 40
1.0
 40
1.0
 40
1.0
 40
1.0
 10
7.0520842316
 20
22.103665107
 30
0.0
 10
7.0523046571
 20
22.1032108943
 30
0.0
 10
7.052763082
 20
22.1022127853
 30
0.0
 10
7.053750042
 20
22.0999035469
 30
0.0
 10
7.0550778011
 20
22.0965014515
 30
0.0
 10
7.0567162518
 20
22.0919444918
 30
0.0
 10
7.058382049
 20
22.0869620325
 30
0.0
 10
7.0599793467
 20
22.0818314439
 30
0.0
 10
7.0614191004
 20
22.0768327286
 30
0.0
 10
7.062623548
 20
22.0722342601
 30
0.0
 10
7.0632934401
 20
22.0693211361
 30
0.0
 10
7.0635681117
 20
22.0679731636
 30
0.0
  0
SPLINE
  5
35E
100
AcDbEntity
  8
0
100
AcDbSpline
 62
7
  6
CONTINUOUS
 70
0
 71
3
 72
16
 73
12
 74
0
 42
0.0000001
 43
0.0000001
 44
0.0000000001
 40
0.0
 40
0.0
 40
0.0
 40
0.0
 40
0.213350806
 40
0.4034123
 40
0.5687475883
 40
0.7080005912
 40
0.8202779301
 40
0.9053130445
 40
0.9377820241
 40
0.9638665853
 40
1.0
 40
1.0
 40
1.0
 40
1.0
 10
7.0635681117
 20
22.0679731636
 30
0.0
 10
7.0636575837
 20
22.0675340723
 30
0.0
 10
7.0638196035
 20
22.0667023286
 30
0.0
 10
7.0640221405
 20
22.0655249272
 30
0.0
 10
7.0641694072
 20
22.0644962958
 30
0.0
 10
7.0642608265
 20
22.0636252236
 30
0.0
 10
7.0642950872
 20
22.062918588
 30
0.0
 10
7.0642791701
 20
22.0624355408
 30
0.0
 10
7.0642281832
 20
22.0621363875
 30
0.0
 10
7.0641720476
 20
22.0619483915
 30
0.0
 10
7.0640942091
 20
22.0618260122
 30
0.0
 10
7.064025908
 20
22.0617929253
 30
0.0
  0
SPLINE
  5
35F
100
AcDbEntity
  8
0
100
AcDbSpline
 62
7
  6
CONTINUOUS
 70
0
 71
3
 72
13
 73
9
 74
0
 42
0.0000001
 43
0.0000001
 44
0.0000000001
 40
0.0
 40
0.0
 40
0.0
 40
0.0
 40
0.1101807666
 40
0.2310749455
 40
0.4917583683
 40
0.7564493569
 40
0.8823394415
 40
1.0
 40
1.0
 40
1.0
 40
1.0
 10
7.1075653632
 20
21.9893397123
 30
0.0
 10
7.1080006791
 20
21.9884426928
 30
0.0
 10
7.1088800885
 20
21.9865450853
 30
0.0
 10
7.1106427359
 20
21.9824585368
 30
0.0
 10
7.1127671177
 20
21.9770075717
 30
0.0
 10
7.1146866314
 20
21.9714334337
 30
0.0
 10
7.1160360144
 20
21.9670361937
 30
0.0
 10
7.116629765
 20
21.9649133435
 30
0.0
 10
7.1169005684
 20
21.9638836013
 30
0.0
  0
SPLINE
  5
360
100
AcDbEntity
  8
0
100
AcDbSpline
 62
7
  6
CONTINUOUS
 70
0
 71
3
 72
19
 73
15
 74
0
 42
0.0000001
 43
0.0000001
 44
0.0000000001
 40
0.0
 40
0.0
 40
0.0
 40
0.0
 40
0.2055831919
 40
0.391751579
 40
0.5558914141
 40
0.6958419148
 40
0.7562565745
 40
0.8100692289
 40
0.8571639936
 40
0.8975559038
 40
0.9314044253
 40
0.9590800597
 40
0.9813875379
 40
1.0
 40
1.0
 40
1.0
 40
1.0
 10
7.1169005684
 20
21.9638836013
 30
0.0
 10
7.1170988865
 20
21.9631294875
 30
0.0
 10
7.1174602985
 20
21.9616880501
 30
0.0
 10
7.1179156396
 20
21.9596290068
 30
0.0
 10
7.1182531923
 20
21.9577999866
 30
0.0
 10
7.1184415863
 20
21.9564295025
 30
0.0
 10
7.1185233807
 20
21.9554686953
 30
0.0
 10
7.118549808
 20
21.9548571666
 30
0.0
 10
7.1185443184
 20
21.9543209303
 30
0.0
 10
7.1185070731
 20
21.9538617304
 30
0.0
 10
7.1184386219
 20
21.9534804185
 30
0.0
 10
7.1183384845
 20
21.9531770719
 30
0.0
 10
7.118205226
 20
21.9529501982
 30
0.0
 10
7.118081612
 20
21.9528481994
 30
0.0
 10
7.1180180358
 20
21.9528175117
 30
0.0
  0
SPLINE
  5
361
100
AcDbEntity
  8
0
100
AcDbSpline
 62
7
  6
CONTINUOUS
 70
0
 71
3
 72
21
 73
17
 74
0
 42
0.0000001
 43
0.0000001
 44
0.0000000001
 40
0.0
 40
0.0
 40
0.0
 40
0.0
 40
0.171888126
 40
0.34701504
 40
0.5153550964
 40
0.6680749464
 40
0.7360401487
 40
0.7972996538
 40
0.8511372199
 40
0.8750895751
 40
0.8970013348
 40
0.9168381804
 40
0.9345773293
 40
0.9502145729
 40
0.9637872805
 40
1.0
 40
1.0
 40
1.0
 40
1.0
 10
7.1825016826
 20
21.8349246157
 30
0.0
 10
7.1832791257
 20
21.8333226027
 30
0.0
 10
7.1847798072
 20
21.8300546698
 30
0.0
 10
7.186825907
 20
21.8251221272
 30
0.0
 10
7.1886112454
 20
21.8203004827
 30
0.0
 10
7.1898462723
 20
21.8164621931
 30
0.0
 10
7.190616217
 20
21.8136441687
 30
0.0
 10
7.1910519548
 20
21.8117980192
 30
0.0
 10
7.1913218386
 20
21.8103823138
 30
0.0
 10
7.1914686533
 20
21.8093597207
 30
0.0
 10
7.1915418254
 20
21.808682967
 30
0.0
 10
7.1915822377
 20
21.8080674686
 30
0.0
 10
7.1915902951
 20
21.8075170352
 30
0.0
 10
7.19156437
 20
21.8070275101
 30
0.0
 10
7.1914757107
 20
21.8063713063
 30
0.0
 10
7.1912649617
 20
21.8057843397
 30
0.0
 10
7.190927527
 20
21.8056204044
 30
0.0
  0
SPLINE
  5
362
100
AcDbEntity
  8
0
100
AcDbSpline
 62
7
  6
CONTINUOUS
 70
0
 71
3
 72
22
 73
18
 74
0
 42
0.0000001
 43
0.0000001
 44
0.0000000001
 40
0.0
 40
0.0
 40
0.0
 40
0.0
 40
0.1913979323
 40
0.3742279344
 40
0.54139135
 40
0.6173603415
 40
0.6874272463
 40
0.7510829746
 40
0.8078453612
 40
0.8573295745
 40
0.899372407
 40
0.9339579761
 40
0.9613487707
 40
0.9726397183
 40
0.9825974052
 40
0.9915617452
 40
1.0
 40
1.0
 40
1.0
 40
1.0
 10
7.266938713
 20
21.6609321869
 30
0.0
 10
7.2675685431
 20
21.6596343481
 30
0.0
 10
7.2687597375
 20
21.6570769531
 30
0.0
 10
7.2703586606
 20
21.6533219144
 30
0.0
 10
7.2715027339
 20
21.6503209148
 30
0.0
 10
7.2722614417
 20
21.6480852757
 30
0.0
 10
7.2727268997
 20
21.6465746345
 30
0.0
 10
7.2731039483
 20
21.6451889992
 30
0.0
 10
7.2733894594
 20
21.6439401685
 30
0.0
 10
7.2735808179
 20
21.6428383901
 30
0.0
 10
7.2736778399
 20
21.6418915802
 30
0.0
 10
7.2736809294
 20
21.6411063734
 30
0.0
 10
7.2736007114
 20
21.640555538
 30
0.0
 10
7.2734768154
 20
21.6402091536
 30
0.0
 10
7.2733648905
 20
21.6400092761
 30
0.0
 10
7.2732273259
 20
21.6398532244
 30
0.0
 10
7.2731168503
 20
21.6397791524
 30
0.0
 10
7.2730596691
 20
21.6397513082
 30
0.0
  0
SPLINE
  5
363
100
AcDbEntity
  8
0
100
AcDbSpline
 62
7
  6
CONTINUOUS
 70
0
 71
3
 72
19
 73
15
 74
0
 42
0.0000001
 43
0.0000001
 44
0.0000000001
 40
0.0
 40
0.0
 40
0.0
 40
0.0
 40
0.2055641728
 40
0.3937396861
 40
0.5599755068
 40
0.701253146
 40
0.7618321328
 40
0.8154207228
 40
0.8619571517
 40
0.9014654022
 40
0.9341200978
 40
0.9604267945
 40
0.9816095823
 40
1.0
 40
1.0
 40
1.0
 40
1.0
 10
7.3496599115
 20
21.4904754316
 30
0.0
 10
7.3500841931
 20
21.4896011495
 30
0.0
 10
7.3508752722
 20
21.4879159296
 30
0.0
 10
7.3519275102
 20
21.485486213
 30
0.0
 10
7.3527767395
 20
21.4833015381
 30
0.0
 10
7.3533275205
 20
21.481649557
 30
0.0
 10
7.3536443456
 20
21.4804839154
 30
0.0
 10
7.3538095981
 20
21.4797420427
 30
0.0
 10
7.3539150232
 20
21.4790898972
 30
0.0
 10
7.3539605561
 20
21.4785298335
 30
0.0
 10
7.3539463534
 20
21.4780631132
 30
0.0
 10
7.3538709341
 20
21.4776892431
 30
0.0
 10
7.3537298492
 20
21.4774052508
 30
0.0
 10
7.3535803919
 20
21.477280871
 30
0.0
 10
7.3535022142
 20
21.4772428344
 30
0.0
  0
SPLINE
  5
364
100
AcDbEntity
  8
0
100
AcDbSpline
 62
7
  6
CONTINUOUS
 70
0
 71
3
 72
18
 73
14
 74
0
 42
0.0000001
 43
0.0000001
 44
0.0000000001
 40
0.0
 40
0.0
 40
0.0
 40
0.0
 40
0.2150456361
 40
0.4063961253
 40
0.5720186716
 40
0.7101408954
 40
0.8201733685
 40
0.8647628875
 40
0.9025766312
 40
0.9339505753
 40
0.9595808717
 40
0.9808290018
 40
1.0
 40
1.0
 40
1.0
 40
1.0
 10
7.4196766646
 20
21.3461976799
 30
0.0
 10
7.4198957443
 20
21.3457462403
 30
0.0
 10
7.4203003206
 20
21.3448884432
 30
0.0
 10
7.4208351328
 20
21.3436653096
 30
0.0
 10
7.4212592874
 20
21.3425902802
 30
0.0
 10
7.421567503
 20
21.3416748874
 30
0.0
 10
7.4217379965
 20
21.3410120311
 30
0.0
 10
7.4218064836
 20
21.3405678515
 30
0.0
 10
7.4218240818
 20
21.3403024989
 30
0.0
 10
7.4218117321
 20
21.3400808166
 30
0.0
 10
7.4217686011
 20
21.3399019125
 30
0.0
 10
7.4216919297
 20
21.33976498
 30
0.0
 10
7.4216151152
 20
21.3397049789
 30
0.0
 10
7.4215748736
 20
21.3396854409
 30
0.0
  0
SPLINE
  5
365
100
AcDbEntity
  8
0
100
AcDbSpline
 62
7
  6
CONTINUOUS
 70
0
 71
3
 72
17
 73
13
 74
0
 42
0.0000001
 43
0.0000001
 44
0.0000000001
 40
0.0
 40
0.0
 40
0.0
 40
0.0
 40
0.220486393
 40
0.4131913571
 40
0.5778030649
 40
0.7141347197
 40
0.8222613106
 40
0.9028961298
 40
0.9336734029
 40
0.9590130613
 40
0.9803527315
 40
1.0
 40
1.0
 40
1.0
 40
1.0
 10
7.4676880064
 20
21.2472646652
 30
0.0
 10
7.4677539513
 20
21.247128778
 30
0.0
 10
7.4678749517
 20
21.2468728573
 30
0.0
 10
7.46803429
 20
21.2465104428
 30
0.0
 10
7.4681590796
 20
21.2461960668
 30
0.0
 10
7.4682493375
 20
21.2459304967
 30
0.0
 10
7.4683047499
 20
21.2457147087
 30
0.0
 10
7.468324658
 20
21.2455645708
 30
0.0
 10
7.4683183586
 20
21.2454707426
 30
0.0
 10
7.4683047904
 20
21.2454189752
 30
0.0
 10
7.4682811607
 20
21.2453791981
 30
0.0
 10
7.4682580621
 20
21.2453617593
 30
0.0
 10
7.4682459427
 20
21.2453559053
 30
0.0
  0
LINE
  5
366
100
AcDbEntity
  8
0
100
AcDbLine
 62
7
  6
CONTINUOUS
 10
7.0234283541
 20
22.1627139117
 11
7.0242275285
 21
22.1606390941
  0
SPLINE
  5
367
100
AcDbEntity
  8
0
100
AcDbSpline
 62
7
  6
CONTINUOUS
 70
0
 71
3
 72
17
 73
13
 74
0
 42
0.0000001
 43
0.0000001
 44
0.0000000001
 40
0.0
 40
0.0
 40
0.0
 40
0.0
 40
0.0398099165
 40
0.0883839113
 40
0.2078417703
 40
0.3489664679
 40
0.5010257808
 40
0.6528049078
 40
0.7932490922
 40
0.9120055338
 40
0.9603374757
 40
1.0
 40
1.0
 40
1.0
 40
1.0
 10
7.0242275285
 20
22.1606390941
 30
0.0
 10
7.0244112163
 20
22.160116974
 30
0.0
 10
7.0248078425
 20
22.15895386
 30
0.0
 10
7.0257106517
 20
22.1562087931
 30
0.0
 10
7.0270021614
 20
22.1521089506
 30
0.0
 10
7.0286679898
 20
22.1466189603
 30
0.0
 10
7.0304083383
 20
22.1406822443
 30
0.0
 10
7.0320915992
 20
22.1347389146
 30
0.0
 10
7.0335933264
 20
22.1292257217
 30
0.0
 10
7.0346684165
 20
22.1250871658
 30
0.0
 10
7.0353514739
 20
22.1222949423
 30
0.0
 10
7.03562769
 20
22.1211030525
 30
0.0
 10
7.0357464514
 20
22.1205645527
 30
0.0
  0
LINE
  5
368
100
AcDbEntity
  8
0
100
AcDbLine
 62
7
  6
CONTINUOUS
 10
7.0357464514
 20
22.1205645527
 11
7.0361347144
 21
22.1180779008
  0
LINE
  5
369
100
AcDbEntity
  8
0
100
AcDbLine
 62
7
  6
CONTINUOUS
 10
6.9877484776
 20
22.3714151821
 11
6.9889693061
 21
22.3672045445
  0
LINE
  5
36A
100
AcDbEntity
  8
0
100
AcDbLine
 62
7
  6
CONTINUOUS
 10
6.9999087555
 20
22.3287351128
 11
7.0005347388
 21
22.3264896825
  0
SPLINE
  5
36B
100
AcDbEntity
  8
0
100
AcDbSpline
 62
7
  6
CONTINUOUS
 70
0
 71
3
 72
16
 73
12
 74
0
 42
0.0000001
 43
0.0000001
 44
0.0000000001
 40
0.0
 40
0.0
 40
0.0
 40
0.0
 40
0.0401650319
 40
0.0874068526
 40
0.2000532222
 40
0.3313153358
 40
0.473807589
 40
0.6195716737
 40
0.7607192748
 40
0.8897886704
 40
1.0
 40
1.0
 40
1.0
 40
1.0
 10
7.0305359519
 20
22.2832465607
 30
0.0
 10
7.0307553976
 20
22.2827943669
 30
0.0
 10
7.0312116625
 20
22.2817999775
 30
0.0
 10
7.0321938983
 20
22.2794970398
 30
0.0
 10
7.0335150563
 20
22.276100607
 30
0.0
 10
7.0351455613
 20
22.2715479624
 30
0.0
 10
7.0368044602
 20
22.2665666022
 30
0.0
 10
7.0383971015
 20
22.2614340694
 30
0.0
 10
7.0398354211
 20
22.2564306121
 30
0.0
 10
7.0410422027
 20
22.2518249752
 30
0.0
 10
7.0417161893
 20
22.2489065655
 30
0.0
 10
7.0419938117
 20
22.2475556019
 30
0.0
  0
SPLINE
  5
36C
100
AcDbEntity
  8
0
100
AcDbSpline
 62
7
  6
CONTINUOUS
 70
0
 71
3
 72
17
 73
13
 74
0
 42
0.0000001
 43
0.0000001
 44
0.0000000001
 40
0.0
 40
0.0
 40
0.0
 40
0.0
 40
0.2136107013
 40
0.4039040658
 40
0.5694210765
 40
0.7087828581
 40
0.821079266
 40
0.8669800822
 40
0.9060574797
 40
0.9384189138
 40
0.964346503
 40
1.0
 40
1.0
 40
1.0
 40
1.0
 10
7.0419938117
 20
22.2475556019
 30
0.0
 10
7.0420846651
 20
22.247113492
 30
0.0
 10
7.0422494414
 20
22.246276056
 30
0.0
 10
7.0424562292
 20
22.2450906961
 30
0.0
 10
7.0426078303
 20
22.244055271
 30
0.0
 10
7.0427027614
 20
22.2431786964
 30
0.0
 10
7.0427373778
 20
22.2425503913
 30
0.0
 10
7.042731145
 20
22.2421332693
 30
0.0
 10
7.0427126963
 20
22.2418861877
 30
0.0
 10
7.0426792801
 20
22.2416817441
 30
0.0
 10
7.0426250235
 20
22.2414937887
 30
0.0
 10
7.0425486355
 20
22.2413707628
 30
0.0
 10
7.0424808385
 20
22.2413379179
 30
0.0
  0
SPLINE
  5
36D
100
AcDbEntity
  8
0
100
AcDbSpline
 62
7
  6
CONTINUOUS
 70
0
 71
3
 72
15
 73
11
 74
0
 42
0.0000001
 43
0.0000001
 44
0.0000000001
 40
0.0
 40
0.0
 40
0.0
 40
0.0
 40
0.1070172279
 40
0.2293963912
 40
0.3620296821
 40
0.4998354139
 40
0.6375359379
 40
0.7699392122
 40
0.892207608
 40
1.0
 40
1.0
 40
1.0
 40
1.0
 10
7.0812898013
 20
22.1786622867
 30
0.0
 10
7.0818018532
 20
22.1776071435
 30
0.0
 10
7.082842595
 20
22.1753177774
 30
0.0
 10
7.084365072
 20
22.1716534303
 30
0.0
 10
7.0859070662
 20
22.167633534
 30
0.0
 10
7.0874063281
 20
22.1634189436
 30
0.0
 10
7.0888045338
 20
22.159172403
 30
0.0
 10
7.0900476259
 20
22.1550553583
 30
0.0
 10
7.0910894412
 20
22.151221558
 30
0.0
 10
7.0916687144
 20
22.148766866
 30
0.0
 10
7.0919113303
 20
22.1476107255
 30
0.0
  0
SPLINE
  5
36E
100
AcDbEntity
  8
0
100
AcDbSpline
 62
7
  6
CONTINUOUS
 70
0
 71
3
 72
17
 73
13
 74
0
 42
0.0000001
 43
0.0000001
 44
0.0000000001
 40
0.0
 40
0.0
 40
0.0
 40
0.0
 40
0.2080877725
 40
0.3942781009
 40
0.5570480619
 40
0.6950248653
 40
0.8074361442
 40
0.894158982
 40
0.9281968938
 40
0.9564830286
 40
0.9798945579
 40
1.0
 40
1.0
 40
1.0
 40
1.0
 10
7.0919113303
 20
22.1476107255
 30
0.0
 10
7.0920176615
 20
22.1471040246
 30
0.0
 10
7.0922083423
 20
22.1461416186
 30
0.0
 10
7.0924388545
 20
22.144774697
 30
0.0
 10
7.0925971385
 20
22.1435732671
 30
0.0
 10
7.0926820159
 20
22.1425480768
 30
0.0
 10
7.0926930636
 20
22.1417089314
 30
0.0
 10
7.0926406228
 20
22.1411285086
 30
0.0
 10
7.0925501317
 20
22.1407679938
 30
0.0
 10
7.0924683734
 20
22.140569827
 30
0.0
 10
7.0923664332
 20
22.14042093
 30
0.0
 10
7.0922785039
 20
22.1403532091
 30
0.0
 10
7.092233491
 20
22.1403313866
 30
0.0
  0
SPLINE
  5
36F
100
AcDbEntity
  8
0
100
AcDbSpline
 62
7
  6
CONTINUOUS
 70
0
 71
3
 72
24
 73
20
 74
0
 42
0.0000001
 43
0.0000001
 44
0.0000000001
 40
0.0
 40
0.0
 40
0.0
 40
0.0
 40
0.1572369231
 40
0.3260535847
 40
0.4946226045
 40
0.5753075736
 40
0.651768223
 40
0.722814598
 40
0.7873304031
 40
0.8443490814
 40
0.8930869713
 40
0.914136966
 40
0.9329044487
 40
0.9493681661
 40
0.9635304008
 40
0.9754363928
 40
0.9852229086
 40
0.9932086065
 40
1.0
 40
1.0
 40
1.0
 40
1.0
 10
7.1474335056
 20
22.0423654073
 30
0.0
 10
7.1482484169
 20
22.0406861867
 30
0.0
 10
7.1498449505
 20
22.0371585349
 30
0.0
 10
7.1520492588
 20
22.0317151786
 30
0.0
 10
7.1537357153
 20
22.0270461545
 30
0.0
 10
7.1549350539
 20
22.0233701408
 30
0.0
 10
7.1557158902
 20
22.020776038
 30
0.0
 10
7.1563791925
 20
22.0183478403
 30
0.0
 10
7.1569144162
 20
22.0161248298
 30
0.0
 10
7.1573129556
 20
22.0141427571
 30
0.0
 10
7.1575380904
 20
22.0126533486
 30
0.0
 10
7.1576373062
 20
22.0116065571
 30
0.0
 10
7.1576707231
 20
22.0109390254
 30
0.0
 10
7.1576672035
 20
22.010352307
 30
0.0
 10
7.1576268649
 20
22.0098484364
 30
0.0
 10
7.1575499057
 20
22.0094287859
 30
0.0
 10
7.1574352719
 20
22.0090937302
 30
0.0
 10
7.1572812779
 20
22.0088421311
 30
0.0
 10
7.1571405841
 20
22.0087287566
 30
0.0
 10
7.157068092
 20
22.0086934828
 30
0.0
  0
SPLINE
  5
370
100
AcDbEntity
  8
0
100
AcDbSpline
 62
7
  6
CONTINUOUS
 70
0
 71
3
 72
23
 73
19
 74
0
 42
0.0000001
 43
0.0000001
 44
0.0000000001
 40
0.0
 40
0.0
 40
0.0
 40
0.0
 40
0.1747036568
 40
0.3508632933
 40
0.5188811336
 40
0.5972122349
 40
0.6704577082
 40
0.7376971156
 40
0.7981992722
 40
0.8513262572
 40
0.8965470991
 40
0.9336046072
 40
0.949064168
 40
0.9625128529
 40
0.9740553307
 40
0.9838925265
 40
0.9923619193
 40
1.0
 40
1.0
 40
1.0
 40
1.0
 10
7.2244594807
 20
21.8836443294
 30
0.0
 10
7.2252225161
 20
21.8820720053
 30
0.0
 10
7.2266899659
 20
21.8788823696
 30
0.0
 10
7.2286830755
 20
21.8740883588
 30
0.0
 10
7.2301537623
 20
21.8701242937
 30
0.0
 10
7.2311613215
 20
21.8670897746
 30
0.0
 10
7.2317979684
 20
21.8649951313
 30
0.0
 10
7.2323249185
 20
21.8630544098
 30
0.0
 10
7.2327363368
 20
21.8612919976
 30
0.0
 10
7.2330283651
 20
21.8597291663
 30
0.0
 10
7.2331970289
 20
21.858384344
 30
0.0
 10
7.2332386301
 20
21.8574052738
 30
0.0
 10
7.2331983148
 20
21.8567459801
 30
0.0
 10
7.2331381564
 20
21.8563451317
 30
0.0
 10
7.2330463943
 20
21.8560079413
 30
0.0
 10
7.2329224669
 20
21.8557343601
 30
0.0
 10
7.2327646787
 20
21.8555248838
 30
0.0
 10
7.2326315227
 20
21.8554284313
 30
0.0
 10
7.2325628252
 20
21.855394979
 30
0.0
  0
SPLINE
  5
371
100
AcDbEntity
  8
0
100
AcDbSpline
 62
7
  6
CONTINUOUS
 70
0
 71
3
 72
22
 73
18
 74
0
 42
0.0000001
 43
0.0000001
 44
0.0000000001
 40
0.0
 40
0.0
 40
0.0
 40
0.0
 40
0.188775154
 40
0.3705629397
 40
0.5378564174
 40
0.6141849557
 40
0.6847464108
 40
0.7489657735
 40
0.806295653
 40
0.8563424039
 40
0.8988943917
 40
0.9338643206
 40
0.9614883882
 40
0.9728296842
 40
0.9827809302
 40
0.9916785584
 40
1.0
 40
1.0
 40
1.0
 40
1.0
 10
7.3071185336
 20
21.7133156324
 30
0.0
 10
7.3077758398
 20
21.7119611756
 30
0.0
 10
7.3090217465
 20
21.709280565
 30
0.0
 10
7.3106955645
 20
21.705330203
 30
0.0
 10
7.3118976442
 20
21.7021562508
 30
0.0
 10
7.3126979144
 20
21.6997815256
 30
0.0
 10
7.3131908051
 20
21.698171373
 30
0.0
 10
7.3135911685
 20
21.6966921487
 30
0.0
 10
7.3138951362
 20
21.6953573116
 30
0.0
 10
7.3141002511
 20
21.694178712
 30
0.0
 10
7.3142063423
 20
21.6931655918
 30
0.0
 10
7.314213218
 20
21.6923258268
 30
0.0
 10
7.3141320261
 20
21.6917372214
 30
0.0
 10
7.3140043795
 20
21.6913671843
 30
0.0
 10
7.3138887113
 20
21.6911543799
 30
0.0
 10
7.3137459777
 20
21.6909887452
 30
0.0
 10
7.3136305604
 20
21.6909105934
 30
0.0
 10
7.3135708584
 20
21.6908816101
 30
0.0
  0
SPLINE
  5
372
100
AcDbEntity
  8
0
100
AcDbSpline
 62
7
  6
CONTINUOUS
 70
0
 71
3
 72
20
 73
16
 74
0
 42
0.0000001
 43
0.0000001
 44
0.0000000001
 40
0.0
 40
0.0
 40
0.0
 40
0.0
 40
0.1999266354
 40
0.385984561
 40
0.5525324638
 40
0.6956424085
 40
0.7573984252
 40
0.8122451741
 40
0.8599780023
 40
0.9004751824
 40
0.9338631473
 40
0.9606331759
 40
0.9818751377
 40
0.9911313024
 40
1.0
 40
1.0
 40
1.0
 40
1.0
 10
7.3897775865
 20
21.5429869354
 30
0.0
 10
7.3902950293
 20
21.5419206837
 30
0.0
 10
7.3912648189
 20
21.5398477978
 30
0.0
 10
7.3925582234
 20
21.536837795
 30
0.0
 10
7.393613179
 20
21.5340942561
 30
0.0
 10
7.3943033622
 20
21.5320018727
 30
0.0
 10
7.3947044985
 20
21.5305150562
 30
0.0
 10
7.3949165986
 20
21.5295638389
 30
0.0
 10
7.3950543979
 20
21.5287263328
 30
0.0
 10
7.3951171869
 20
21.5280072236
 30
0.0
 10
7.3951045413
 20
21.527408859
 30
0.0
 10
7.3950180631
 20
21.5269316941
 30
0.0
 10
7.3948712411
 20
21.5266173859
 30
0.0
 10
7.3947094785
 20
21.5264465247
 30
0.0
 10
7.3946181237
 20
21.5263876267
 30
0.0
 10
7.394570794
 20
21.5263647372
 30
0.0
  0
LINE
  5
373
100
AcDbEntity
  8
0
100
AcDbLine
 62
7
  6
CONTINUOUS
 10
7.051267389
 20
21.9778431001
 11
7.0522156768
 21
21.9754700711
  0
SPLINE
  5
374
100
AcDbEntity
  8
0
100
AcDbSpline
 62
7
  6
CONTINUOUS
 70
0
 71
3
 72
15
 73
11
 74
0
 42
0.0000001
 43
0.0000001
 44
0.0000000001
 40
0.0
 40
0.0
 40
0.0
 40
0.0
 40
0.08751177
 40
0.2002044593
 40
0.331516251
 40
0.4739978649
 40
0.6197886101
 40
0.7610098614
 40
0.8900882958
 40
1.0
 40
1.0
 40
1.0
 40
1.0
 10
7.0522156768
 20
21.9754700711
 30
0.0
 10
7.0525930513
 20
21.9744372593
 30
0.0
 10
7.0534149716
 20
21.9720594119
 30
0.0
 10
7.0547125071
 20
21.9681010491
 30
0.0
 10
7.0561671529
 20
21.9634676472
 30
0.0
 10
7.0576919954
 20
21.9584207543
 30
0.0
 10
7.0591984216
 20
21.9532385239
 30
0.0
 10
7.060602655
 20
21.9482022747
 30
0.0
 10
7.0618288657
 20
21.9435848011
 30
0.0
 10
7.062556314
 20
21.9406710881
 30
0.0
 10
7.0628748607
 20
21.9393272732
 30
0.0
  0
SPLINE
  5
375
100
AcDbEntity
  8
0
100
AcDbSpline
 62
7
  6
CONTINUOUS
 70
0
 71
3
 72
17
 73
13
 74
0
 42
0.0000001
 43
0.0000001
 44
0.0000000001
 40
0.0
 40
0.0
 40
0.0
 40
0.0
 40
0.2211326984
 40
0.4174997487
 40
0.5874553863
 40
0.7293862568
 40
0.8420766303
 40
0.9247135474
 40
0.9545761057
 40
0.976777304
 40
0.991541739
 40
1.0
 40
1.0
 40
1.0
 40
1.0
 10
7.0628748607
 20
21.9393272732
 30
0.0
 10
7.0629775115
 20
21.9388942327
 30
0.0
 10
7.0631679937
 20
21.9380758576
 30
0.0
 10
7.0634242127
 20
21.9369216344
 30
0.0
 10
7.0636329864
 20
21.9359202771
 30
0.0
 10
7.0637929308
 20
21.9350807425
 30
0.0
 10
7.0639029295
 20
21.9344111065
 30
0.0
 10
7.0639587771
 20
21.9339606447
 30
0.0
 10
7.0639743145
 20
21.9336903762
 30
0.0
 10
7.0639709922
 20
21.933554758
 30
0.0
 10
7.0639591527
 20
21.9334659151
 30
0.0
 10
7.0639348199
 20
21.9334197411
 30
0.0
 10
7.0639194353
 20
21.9334124551
 30
0.0
  0
SPLINE
  5
376
100
AcDbEntity
  8
0
100
AcDbSpline
 62
7
  6
CONTINUOUS
 70
0
 71
3
 72
19
 73
15
 74
0
 42
0.0000001
 43
0.0000001
 44
0.0000000001
 40
0.0
 40
0.0
 40
0.0
 40
0.0
 40
0.2085236106
 40
0.3976826406
 40
0.5636409986
 40
0.703805272
 40
0.7637206842
 40
0.816638602
 40
0.8625199182
 40
0.901472306
 40
0.9337598472
 40
0.9599532057
 40
0.981256203
 40
1.0
 40
1.0
 40
1.0
 40
1.0
 10
7.4668035616
 20
21.3842658575
 30
0.0
 10
7.4671684499
 20
21.3835139622
 30
0.0
 10
7.4678464878
 20
21.3820712196
 30
0.0
 10
7.4687458605
 20
21.3799984269
 30
0.0
 10
7.469466469
 20
21.3781482251
 30
0.0
 10
7.4699302018
 20
21.3767552165
 30
0.0
 10
7.470194435
 20
21.3757759448
 30
0.0
 10
7.4703308705
 20
21.375154314
 30
0.0
 10
7.4704160317
 20
21.3746083626
 30
0.0
 10
7.4704501986
 20
21.3741394847
 30
0.0
 10
7.4704335634
 20
21.3737481017
 30
0.0
 10
7.4703654973
 20
21.3734333855
 30
0.0
 10
7.4702407746
 20
21.3731934815
 30
0.0
 10
7.4701113339
 20
21.3730887735
 30
0.0
 10
7.4700437083
 20
21.3730560553
 30
0.0
  0
SPLINE
  5
377
100
AcDbEntity
  8
0
100
AcDbSpline
 62
7
  6
CONTINUOUS
 70
0
 71
3
 72
18
 73
14
 74
0
 42
0.0000001
 43
0.0000001
 44
0.0000000001
 40
0.0
 40
0.0
 40
0.0
 40
0.0
 40
0.2148485739
 40
0.4060602886
 40
0.5715891601
 40
0.7096591542
 40
0.8196913559
 40
0.8643027824
 40
0.9021557413
 40
0.9335903565
 40
0.9593110253
 40
0.9806826102
 40
1.0
 40
1.0
 40
1.0
 40
1.0
 10
7.5329472659
 20
21.2479689781
 30
0.0
 10
7.5331678704
 20
21.2475143966
 30
0.0
 10
7.5335751718
 20
21.2466504881
 30
0.0
 10
7.5341131807
 20
21.245418364
 30
0.0
 10
7.5345394364
 20
21.2443350802
 30
0.0
 10
7.5348486013
 20
21.2434123267
 30
0.0
 10
7.5350189579
 20
21.2427439162
 30
0.0
 10
7.5350866722
 20
21.242295884
 30
0.0
 10
7.5351034716
 20
21.2420280851
 30
0.0
 10
7.5350900402
 20
21.2418042558
 30
0.0
 10
7.5350455417
 20
21.241623514
 30
0.0
 10
7.5349672245
 20
21.2414851275
 30
0.0
 10
7.5348892174
 20
21.2414244209
 30
0.0
 10
7.5348483513
 20
21.2414045734
 30
0.0
  0
SPLINE
  5
378
100
AcDbEntity
  8
0
100
AcDbSpline
 62
7
  6
CONTINUOUS
 70
0
 71
3
 72
17
 73
13
 74
0
 42
0.0000001
 43
0.0000001
 44
0.0000000001
 40
0.0
 40
0.0
 40
0.0
 40
0.0
 40
0.2191156026
 40
0.4114533583
 40
0.5763196874
 40
0.7131477004
 40
0.8216426539
 40
0.9024405851
 40
0.9333372789
 40
0.9588174266
 40
0.9802814624
 40
1.0
 40
1.0
 40
1.0
 40
1.0
 10
7.5837011153
 20
21.1433847041
 30
0.0
 10
7.5838041497
 20
21.1431723896
 30
0.0
 10
7.5839934507
 20
21.1427716542
 30
0.0
 10
7.584242815
 20
21.1422031024
 30
0.0
 10
7.5844385137
 20
21.1417081908
 30
0.0
 10
7.5845800739
 20
21.1412892727
 30
0.0
 10
7.5846666977
 20
21.1409487112
 30
0.0
 10
7.5846969769
 20
21.1407118102
 30
0.0
 10
7.5846864463
 20
21.1405638853
 30
0.0
 10
7.5846648233
 20
21.1404821571
 30
0.0
 10
7.5846275433
 20
21.1404192978
 30
0.0
 10
7.5845911532
 20
21.1403916299
 30
0.0
 10
7.5845720535
 20
21.1403823437
 30
0.0
  0
SPLINE
  5
379
100
AcDbEntity
  8
0
100
AcDbSpline
 62
7
  6
CONTINUOUS
 70
0
 71
3
 72
18
 73
14
 74
0
 42
0.0000001
 43
0.0000001
 44
0.0000000001
 40
0.0
 40
0.0
 40
0.0
 40
0.0
 40
0.2169036051
 40
0.4089488847
 40
0.5745880598
 40
0.7124110312
 40
0.8218172274
 40
0.8660485943
 40
0.9035214282
 40
0.9346029666
 40
0.959988178
 40
0.9810078228
 40
1.0
 40
1.0
 40
1.0
 40
1.0
 10
7.3235063077
 20
21.4168628
 30
0.0
 10
7.3236839284
 20
21.4164967916
 30
0.0
 10
7.324011538
 20
21.4158031319
 30
0.0
 10
7.3244448029
 20
21.4148161864
 30
0.0
 10
7.3247880405
 20
21.4139521583
 30
0.0
 10
7.3250379004
 20
21.4132188856
 30
0.0
 10
7.3251765479
 20
21.4126889866
 30
0.0
 10
7.3252327461
 20
21.4123346489
 30
0.0
 10
7.3252477023
 20
21.412123276
 30
0.0
 10
7.3252386865
 20
21.4119467022
 30
0.0
 10
7.3252051639
 20
21.4118041107
 30
0.0
 10
7.3251444176
 20
21.4116948943
 30
0.0
 10
7.3250831198
 20
21.4116473013
 30
0.0
 10
7.3250510257
 20
21.4116318444
 30
0.0
  0
SPLINE
  5
37A
100
AcDbEntity
  8
0
100
AcDbSpline
 62
7
  6
CONTINUOUS
 70
0
 71
3
 72
19
 73
15
 74
0
 42
0.0000001
 43
0.0000001
 44
0.0000000001
 40
0.0
 40
0.0
 40
0.0
 40
0.0
 40
0.2020707651
 40
0.389053452
 40
0.5556496922
 40
0.6982436004
 40
0.7596160988
 40
0.8140350858
 40
0.8613441847
 40
0.9014636469
 40
0.9345014509
 40
0.9609787273
 40
0.9820403196
 40
1.0
 40
1.0
 40
1.0
 40
1.0
 10
7.2521720421
 20
21.5638554412
 30
0.0
 10
7.2526591813
 20
21.5628516336
 30
0.0
 10
7.253571366
 20
21.5609063377
 30
0.0
 10
7.2547894643
 20
21.5580897435
 30
0.0
 10
7.2557822302
 20
21.5555355434
 30
0.0
 10
7.2564326252
 20
21.5535940962
 30
0.0
 10
7.256811362
 20
21.5522181979
 30
0.0
 10
7.2570119286
 20
21.5513398579
 30
0.0
 10
7.2571430616
 20
21.5505671248
 30
0.0
 10
7.2572042568
 20
21.549903918
 30
0.0
 10
7.2571950216
 20
21.5493522325
 30
0.0
 10
7.2571150963
 20
21.5489118312
 30
0.0
 10
7.2569601653
 20
21.5485778344
 30
0.0
 10
7.2567898369
 20
21.5484312351
 30
0.0
 10
7.2567006173
 20
21.5483879452
 30
0.0
  0
LINE
  5
37B
100
AcDbEntity
  8
0
100
AcDbLine
 62
7
  6
CONTINUOUS
 10
6.9986307484
 20
22.3489909837
 11
6.9997234234
 21
22.3463064885
  0
SPLINE
  5
37C
100
AcDbEntity
  8
0
100
AcDbSpline
 62
7
  6
CONTINUOUS
 70
0
 71
3
 72
15
 73
11
 74
0
 42
0.0000001
 43
0.0000001
 44
0.0000000001
 40
0.0
 40
0.0
 40
0.0
 40
0.0
 40
0.0930822357
 40
0.2099468464
 40
0.3438153787
 40
0.4871215907
 40
0.6319914652
 40
0.7706159789
 40
0.8955584016
 40
1.0
 40
1.0
 40
1.0
 40
1.0
 10
6.9997234234
 20
22.3463064885
 30
0.0
 10
7.0001322227
 20
22.3452055758
 30
0.0
 10
7.0010073455
 20
22.3427051427
 30
0.0
 10
7.0023652505
 20
22.338585361
 30
0.0
 10
7.0038550944
 20
22.3338423295
 30
0.0
 10
7.0053904155
 20
22.3287436862
 30
0.0
 10
7.0068844188
 20
22.3235702915
 30
0.0
 10
7.0082556102
 20
22.3186029209
 30
0.0
 10
7.0094302004
 20
22.3141108881
 30
0.0
 10
7.0101146258
 20
22.311298685
 30
0.0
 10
7.0104070952
 20
22.3100138771
 30
0.0
  0
SPLINE
  5
37D
100
AcDbEntity
  8
0
100
AcDbSpline
 62
7
  6
CONTINUOUS
 70
0
 71
3
 72
16
 73
12
 74
0
 42
0.0000001
 43
0.0000001
 44
0.0000000001
 40
0.0
 40
0.0
 40
0.0
 40
0.0
 40
0.2208332323
 40
0.4164640104
 40
0.5855161199
 40
0.7266373567
 40
0.8387500478
 40
0.9213037835
 40
0.9741583572
 40
0.9899284167
 40
1.0
 40
1.0
 40
1.0
 40
1.0
 10
7.0104070952
 20
22.3100138771
 30
0.0
 10
7.0104933716
 20
22.3096348679
 30
0.0
 10
7.0106527141
 20
22.3089193221
 30
0.0
 10
7.0108644543
 20
22.3079106914
 30
0.0
 10
7.0110338002
 20
22.3070365191
 30
0.0
 10
7.0111594803
 20
22.3063040552
 30
0.0
 10
7.0112414494
 20
22.3057180304
 30
0.0
 10
7.0112791006
 20
22.3052849419
 30
0.0
 10
7.0112784841
 20
22.3050159288
 30
0.0
 10
7.011247835
 20
22.3048812092
 30
0.0
 10
7.0112191264
 20
22.3048409605
 30
0.0
 10
7.0112030823
 20
22.30483342
 30
0.0
  0
SPLINE
  5
37E
100
AcDbEntity
  8
0
100
AcDbSpline
 62
7
  6
CONTINUOUS
 70
0
 71
3
 72
23
 73
19
 74
0
 42
0.0000001
 43
0.0000001
 44
0.0000000001
 40
0.0
 40
0.0
 40
0.0
 40
0.0
 40
0.1757663869
 40
0.3523770623
 40
0.5203730621
 40
0.5985641506
 40
0.6716134222
 40
0.7386182515
 40
0.7988600827
 40
0.851729402
 40
0.8967111734
 40
0.933570173
 40
0.9489589477
 40
0.9623629427
 40
0.9738878515
 40
0.9837411709
 40
0.9922668377
 40
1.0
 40
1.0
 40
1.0
 40
1.0
 10
7.1661797867
 20
21.7410525939
 30
0.0
 10
7.1669370987
 20
21.7394920635
 30
0.0
 10
7.1683941657
 20
21.7363334824
 30
0.0
 10
7.1703773819
 20
21.7315954152
 30
0.0
 10
7.1718424134
 20
21.7276871714
 30
0.0
 10
7.1728464325
 20
21.7247007142
 30
0.0
 10
7.173480762
 20
21.7226421671
 30
0.0
 10
7.1740060526
 20
21.7207362085
 30
0.0
 10
7.1744162059
 20
21.7190062238
 30
0.0
 10
7.1747074015
 20
21.7174726634
 30
0.0
 10
7.1748754624
 20
21.7161530987
 30
0.0
 10
7.1749165079
 20
21.7151921946
 30
0.0
 10
7.1748758243
 20
21.7145449472
 30
0.0
 10
7.1748154788
 20
21.71415097
 30
0.0
 10
7.1747234106
 20
21.7138191977
 30
0.0
 10
7.174599064
 20
21.7135496339
 30
0.0
 10
7.1744408244
 20
21.7133428645
 30
0.0
 10
7.1743079063
 20
21.7132474641
 30
0.0
 10
7.1742392918
 20
21.7132140545
 30
0.0
  0
SPLINE
  5
37F
100
AcDbEntity
  8
0
100
AcDbSpline
 62
7
  6
CONTINUOUS
 70
0
 71
3
 72
15
 73
11
 74
0
 42
0.0000001
 43
0.0000001
 44
0.0000000001
 40
0.0
 40
0.0
 40
0.0
 40
0.0
 40
0.1054977688
 40
0.2267539782
 40
0.3587115273
 40
0.4963102389
 40
0.6342687259
 40
0.7673725942
 40
0.8907449519
 40
1.0
 40
1.0
 40
1.0
 40
1.0
 10
7.0916629154
 20
21.8946033685
 30
0.0
 10
7.0921675224
 20
21.8935635664
 30
0.0
 10
7.093196835
 20
21.891301809
 30
0.0
 10
7.0947096524
 20
21.8876743422
 30
0.0
 10
7.0962517767
 20
21.8836796683
 30
0.0
 10
7.0977598828
 20
21.8794771711
 30
0.0
 10
7.0991739185
 20
21.8752288409
 30
0.0
 10
7.1004377891
 20
21.8710960578
 30
0.0
 10
7.1015031522
 20
21.8672330177
 30
0.0
 10
7.1020985853
 20
21.864754175
 30
0.0
 10
7.1023495281
 20
21.8635838382
 30
0.0
  0
SPLINE
  5
380
100
AcDbEntity
  8
0
100
AcDbSpline
 62
7
  6
CONTINUOUS
 70
0
 71
3
 72
17
 73
13
 74
0
 42
0.0000001
 43
0.0000001
 44
0.0000000001
 40
0.0
 40
0.0
 40
0.0
 40
0.0
 40
0.2079193371
 40
0.3941192803
 40
0.5570022172
 40
0.6951345402
 40
0.8076989493
 40
0.8944930657
 40
0.9285092605
 40
0.9567356867
 40
0.980044295
 40
1.0
 40
1.0
 40
1.0
 40
1.0
 10
7.1023495281
 20
21.8635838382
 30
0.0
 10
7.1024623269
 20
21.8630577713
 30
0.0
 10
7.1026648356
 20
21.8620581028
 30
0.0
 10
7.1029104224
 20
21.8606375873
 30
0.0
 10
7.1030801667
 20
21.8593880275
 30
0.0
 10
7.1031727377
 20
21.8583210716
 30
0.0
 10
7.1031878322
 20
21.8574474197
 30
0.0
 10
7.1031360553
 20
21.8568430075
 30
0.0
 10
7.103043788
 20
21.856467634
 30
0.0
 10
7.1029600111
 20
21.8562615468
 30
0.0
 10
7.102855298
 20
21.8561067847
 30
0.0
 10
7.1027645857
 20
21.8560364048
 30
0.0
 10
7.1027181349
 20
21.8560138468
 30
0.0
  0
SPLINE
  5
381
100
AcDbEntity
  8
0
100
AcDbSpline
 62
7
  6
CONTINUOUS
 70
0
 71
3
 72
37
 73
33
 74
0
 42
0.0000001
 43
0.0000001
 44
0.0000000001
 40
0.0
 40
0.0
 40
0.0
 40
0.0
 40
0.000323244
 40
0.0008566352
 40
0.0026938283
 40
0.0056121846
 40
0.0096273437
 40
0.0147371239
 40
0.0209256327
 40
0.0281748829
 40
0.0364662814
 40
0.0560995988
 40
0.0796609307
 40
0.1069138796
 40
0.137595135
 40
0.1714391747
 40
0.2081424539
 40
0.2473654776
 40
0.2887672377
 40
0.3766774378
 40
0.4688633446
 40
0.5622310885
 40
0.6536333149
 40
0.7399717315
 40
0.8182324981
 40
0.8856229277
 40
0.9144392405
 40
0.9396481303
 40
0.9609947546
 40
0.9782635025
 40
0.9913086176
 40
1.0
 40
1.0
 40
1.0
 40
1.0
 10
7.3585675781
 20
21.3445298849
 30
0.0
 10
7.3585630487
 20
21.3445277402
 30
0.0
 10
7.3585485701
 20
21.3445296429
 30
0.0
 10
7.3585123575
 20
21.3445496678
 30
0.0
 10
7.358449146
 20
21.3446034449
 30
0.0
 10
7.3583532541
 20
21.3446992979
 30
0.0
 10
7.3582271718
 20
21.344837334
 30
0.0
 10
7.358071771
 20
21.3450167421
 30
0.0
 10
7.3578873308
 20
21.3452374031
 30
0.0
 10
7.3576745005
 20
21.3454985356
 30
0.0
 10
7.3573339213
 20
21.3459244414
 30
0.0
 10
7.3568423296
 20
21.3465533496
 30
0.0
 10
7.3561774636
 20
21.3474198728
 30
0.0
 10
7.3554147267
 20
21.3484271597
 30
0.0
 10
7.3545610636
 20
21.3495655398
 30
0.0
 10
7.3536240564
 20
21.3508245405
 30
0.0
 10
7.3526118901
 20
21.3521926741
 30
0.0
 10
7.3515333954
 20
21.353657483
 30
0.0
 10
7.3499882002
 20
21.3557645347
 30
0.0
 10
7.3479641417
 20
21.3585386578
 30
0.0
 10
7.3454736275
 20
21.3619697407
 30
0.0
 10
7.342959012
 20
21.365450215
 30
0.0
 10
7.3405055079
 20
21.3688629844
 30
0.0
 10
7.3381980493
 20
21.3720922767
 30
0.0
 10
7.3361187666
 20
21.3750270333
 30
0.0
 10
7.3345678403
 20
21.3772431601
 30
0.0
 10
7.333500421
 20
21.3787936479
 30
0.0
 10
7.3328441295
 20
21.3797605071
 30
0.0
 10
7.3322960485
 20
21.3805843468
 30
0.0
 10
7.3318611727
 20
21.3812570698
 30
0.0
 10
7.3315444999
 20
21.3817721086
 30
0.0
 10
7.3313775285
 20
21.3820653192
 30
0.0
 10
7.3313186979
 20
21.3821865464
 30
0.0
  0
SPLINE
  5
382
100
AcDbEntity
  8
0
100
AcDbSpline
 62
7
  6
CONTINUOUS
 70
0
 71
3
 72
19
 73
15
 74
0
 42
0.0000001
 43
0.0000001
 44
0.0000000001
 40
0.0
 40
0.0
 40
0.0
 40
0.0
 40
0.018562665
 40
0.0401940428
 40
0.0671259188
 40
0.1004893138
 40
0.1408158678
 40
0.1882335968
 40
0.2426730429
 40
0.3039861312
 40
0.4462642823
 40
0.6123488503
 40
0.798685321
 40
1.0
 40
1.0
 40
1.0
 40
1.0
 10
7.190927527
 20
21.8056204044
 30
0.0
 10
7.1908345874
 20
21.8055752517
 30
0.0
 10
7.1906067
 20
21.8055283175
 30
0.0
 10
7.1902348139
 20
21.8056065389
 30
0.0
 10
7.1898236366
 20
21.8058102048
 30
0.0
 10
7.1893676795
 20
21.8061383684
 30
0.0
 10
7.1888668648
 20
21.8065910119
 30
0.0
 10
7.1883228252
 20
21.8071666494
 30
0.0
 10
7.1877386144
 20
21.8078626297
 30
0.0
 10
7.1868670598
 20
21.8090047832
 30
0.0
 10
7.1857151738
 20
21.8107118556
 30
0.0
 10
7.1842941936
 20
21.8130715346
 30
0.0
 10
7.1828144926
 20
21.815776292
 30
0.0
 10
7.1818431907
 20
21.8177036105
 30
0.0
 10
7.1813539416
 20
21.8187117659
 30
0.0
  0
SPLINE
  5
383
100
AcDbEntity
  8
0
100
AcDbSpline
 62
7
  6
CONTINUOUS
 70
0
 71
3
 72
19
 73
15
 74
0
 42
0.0000001
 43
0.0000001
 44
0.0000000001
 40
0.0
 40
0.0
 40
0.0
 40
0.0
 40
0.0199541325
 40
0.042032002
 40
0.0684430624
 40
0.1004947193
 40
0.138907755
 40
0.1840619149
 40
0.2360935662
 40
0.2950275136
 40
0.4334190475
 40
0.5985322675
 40
0.7883001798
 40
1.0
 40
1.0
 40
1.0
 40
1.0
 10
7.1180180358
 20
21.9528175117
 30
0.0
 10
7.1179640226
 20
21.95279144
 30
0.0
 10
7.1178375457
 20
21.952760058
 30
0.0
 10
7.117630359
 20
21.9527891636
 30
0.0
 10
7.1174063254
 20
21.9528856778
 30
0.0
 10
7.1171629286
 20
21.9530473765
 30
0.0
 10
7.1168990443
 20
21.9532744531
 30
0.0
 10
7.116614783
 20
21.9535670725
 30
0.0
 10
7.1163105733
 20
21.9539246965
 30
0.0
 10
7.1158547221
 20
21.9545199418
 30
0.0
 10
7.1152475959
 20
21.955425628
 30
0.0
 10
7.1144899199
 20
21.9567005402
 30
0.0
 10
7.1136792102
 20
21.9581985862
 30
0.0
 10
7.1131385546
 20
21.959277591
 30
0.0
 10
7.112860745
 20
21.9598500505
 30
0.0
  0
SPLINE
  5
384
100
AcDbEntity
  8
0
100
AcDbSpline
 62
7
  6
CONTINUOUS
 70
0
 71
3
 72
16
 73
12
 74
0
 42
0.0000001
 43
0.0000001
 44
0.0000000001
 40
0.0
 40
0.0
 40
0.0
 40
0.0
 40
0.0209284991
 40
0.043378323
 40
0.0695570737
 40
0.1008977938
 40
0.1820095874
 40
0.290311505
 40
0.4266199997
 40
0.5907197711
 40
1.0
 40
1.0
 40
1.0
 40
1.0
 10
7.064025908
 20
22.0617929253
 30
0.0
 10
7.064005288
 20
22.0617829364
 30
0.0
 10
7.0639582556
 20
22.0617700251
 30
0.0
 10
7.0638811973
 20
22.0617775437
 30
0.0
 10
7.0637989239
 20
22.0618096298
 30
0.0
 10
7.0636701271
 20
22.0618910673
 30
0.0
 10
7.0634953453
 20
22.0620606948
 30
0.0
 10
7.0632738156
 20
22.0623404108
 30
0.0
 10
7.0630254685
 20
22.0627131603
 30
0.0
 10
7.0626306953
 20
22.0633825513
 30
0.0
 10
7.0623455794
 20
22.0639424884
 30
0.0
 10
7.0621499537
 20
22.0643455981
 30
0.0
  0
SPLINE
  5
385
100
AcDbEntity
  8
0
100
AcDbSpline
 62
7
  6
CONTINUOUS
 70
0
 71
3
 72
16
 73
12
 74
0
 42
0.0000001
 43
0.0000001
 44
0.0000000001
 40
0.0
 40
0.0
 40
0.0
 40
0.0
 40
0.0095617197
 40
0.0249563582
 40
0.0773456198
 40
0.1596782845
 40
0.2717673627
 40
0.4130487895
 40
0.5824315769
 40
0.7785459586
 40
1.0
 40
1.0
 40
1.0
 40
1.0
 10
7.615827688
 20
21.076877239
 30
0.0
 10
7.615812565
 20
21.0768696517
 30
0.0
 10
7.61576435
 20
21.0768736646
 30
0.0
 10
7.6156435327
 20
21.0769363546
 30
0.0
 10
7.6154361657
 20
21.0771071369
 30
0.0
 10
7.6151245936
 20
21.07741163
 30
0.0
 10
7.614719942
 20
21.0778474746
 30
0.0
 10
7.6142270423
 20
21.0784099858
 30
0.0
 10
7.6136492822
 20
21.0790959579
 30
0.0
 10
7.6129914154
 20
21.0798996512
 30
0.0
 10
7.6125295745
 20
21.0804764434
 30
0.0
 10
7.6122859002
 20
21.0807833311
 30
0.0
  0
SPLINE
  5
386
100
AcDbEntity
  8
0
100
AcDbSpline
 62
7
  6
CONTINUOUS
 70
0
 71
3
 72
15
 73
11
 74
0
 42
0.0000001
 43
0.0000001
 44
0.0000000001
 40
0.0
 40
0.0
 40
0.0
 40
0.0
 40
0.1046956377
 40
0.2298246749
 40
0.3685355992
 40
0.5133808515
 40
0.6565775177
 40
0.7903031261
 40
0.9070321777
 40
1.0
 40
1.0
 40
1.0
 40
1.0
 10
7.6122859002
 20
21.0807833311
 30
0.0
 10
7.6114652876
 20
21.0818168249
 30
0.0
 10
7.6096930285
 20
21.0841086082
 30
0.0
 10
7.6069024632
 20
21.0878224039
 30
0.0
 10
7.6038520648
 20
21.0919736426
 30
0.0
 10
7.600706905
 20
21.0963375515
 30
0.0
 10
7.5976380968
 20
21.1006787537
 30
0.0
 10
7.5948153748
 20
21.1047596751
 30
0.0
 10
7.5923996939
 20
21.108351784
 30
0.0
 10
7.5909646337
 20
21.110571955
 30
0.0
 10
7.5903481138
 20
21.1115685029
 30
0.0
  0
LINE
  5
387
100
AcDbEntity
  8
0
100
AcDbLine
 62
7
  6
CONTINUOUS
 10
7.5903481138
 20
21.1115685029
 11
7.5889100637
 21
21.1140731485
  0
SPLINE
  5
388
100
AcDbEntity
  8
0
100
AcDbSpline
 62
7
  6
CONTINUOUS
 70
0
 71
3
 72
18
 73
14
 74
0
 42
0.0000001
 43
0.0000001
 44
0.0000000001
 40
0.0
 40
0.0
 40
0.0
 40
0.0
 40
0.0206458043
 40
0.0430997074
 40
0.0695760574
 40
0.1014702937
 40
0.1395369281
 40
0.184170808
 40
0.2938335953
 40
0.4311920914
 40
0.5958028206
 40
0.7860355789
 40
1.0
 40
1.0
 40
1.0
 40
1.0
 10
7.1027181349
 20
21.8560138468
 30
0.0
 10
7.1026760172
 20
21.855993393
 30
0.0
 10
7.1025788799
 20
21.8559675082
 30
0.0
 10
7.1024194157
 20
21.8559851584
 30
0.0
 10
7.1022479255
 20
21.8560540673
 30
0.0
 10
7.1020629304
 20
21.8561722758
 30
0.0
 10
7.1018632828
 20
21.856339427
 30
0.0
 10
7.1015559132
 20
21.856649635
 30
0.0
 10
7.1011422403
 20
21.8571677102
 30
0.0
 10
7.1006200916
 20
21.8579420996
 30
0.0
 10
7.1000491102
 20
21.8589018241
 30
0.0
 10
7.0994349285
 20
21.8600364612
 30
0.0
 10
7.0990244131
 20
21.8608562319
 30
0.0
 10
7.0988125596
 20
21.861292781
 30
0.0
  0
SPLINE
  5
389
100
AcDbEntity
  8
0
100
AcDbSpline
 62
7
  6
CONTINUOUS
 70
0
 71
3
 72
16
 73
12
 74
0
 42
0.0000001
 43
0.0000001
 44
0.0000000001
 40
0.0
 40
0.0
 40
0.0
 40
0.0
 40
0.0341766938
 40
0.0596095553
 40
0.0916182564
 40
0.130462341
 40
0.17623322
 40
0.2885403768
 40
0.4282266065
 40
0.5943364041
 40
1.0
 40
1.0
 40
1.0
 40
1.0
 10
7.5845720535
 20
21.1403823437
 30
0.0
 10
7.5845066935
 20
21.1403505658
 30
0.0
 10
7.5843658634
 20
21.1403714169
 30
0.0
 10
7.5841906875
 20
21.1404487007
 30
0.0
 10
7.5840128058
 20
21.1405532138
 30
0.0
 10
7.5838105487
 20
21.1406963069
 30
0.0
 10
7.583482711
 20
21.1409573923
 30
0.0
 10
7.5830143418
 20
21.1413841532
 30
0.0
 10
7.5823873609
 20
21.1420148242
 30
0.0
 10
7.5813587852
 20
21.1431245705
 30
0.0
 10
7.5805674864
 20
21.1440483093
 30
0.0
 10
7.580014931
 20
21.1447107417
 30
0.0
  0
SPLINE
  5
38A
100
AcDbEntity
  8
0
100
AcDbSpline
 62
7
  6
CONTINUOUS
 70
0
 71
3
 72
16
 73
12
 74
0
 42
0.0000001
 43
0.0000001
 44
0.0000000001
 40
0.0
 40
0.0
 40
0.0
 40
0.0
 40
0.1105668536
 40
0.2398454845
 40
0.3810420532
 40
0.5267233986
 40
0.6690629584
 40
0.8001621448
 40
0.9126735807
 40
0.959866931
 40
1.0
 40
1.0
 40
1.0
 40
1.0
 10
7.580014931
 20
21.1447107417
 30
0.0
 10
7.5791302065
 20
21.1457713959
 30
0.0
 10
7.5772610775
 20
21.1481139031
 30
0.0
 10
7.5743896404
 20
21.1519106513
 30
0.0
 10
7.5713416949
 20
21.156122513
 30
0.0
 10
7.5682817544
 20
21.1605257944
 30
0.0
 10
7.5653782291
 20
21.1648830846
 30
0.0
 10
7.562794547
 20
21.1689540769
 30
0.0
 10
7.5609337496
 20
21.1720751409
 30
0.0
 10
7.5597289958
 20
21.174261797
 30
0.0
 10
7.559230087
 20
21.17523223
 30
0.0
 10
7.5590112024
 20
21.1756832674
 30
0.0
  0
SPLINE
  5
38B
100
AcDbEntity
  8
0
100
AcDbSpline
 62
7
  6
CONTINUOUS
 70
0
 71
3
 72
18
 73
14
 74
0
 42
0.0000001
 43
0.0000001
 44
0.0000000001
 40
0.0
 40
0.0
 40
0.0
 40
0.0
 40
0.0359305109
 40
0.0620518847
 40
0.094697397
 40
0.1342048411
 40
0.1806666307
 40
0.2340356677
 40
0.2942139254
 40
0.4344661515
 40
0.6001578166
 40
0.7893802112
 40
1.0
 40
1.0
 40
1.0
 40
1.0
 10
7.3250510257
 20
21.4116318444
 30
0.0
 10
7.3249543679
 20
21.4115852928
 30
0.0
 10
7.3247490512
 20
21.4116109476
 30
0.0
 10
7.3244929897
 20
21.4117206082
 30
0.0
 10
7.3242373081
 20
21.4118688209
 30
0.0
 10
7.3239482751
 20
21.4120730893
 30
0.0
 10
7.3236232459
 20
21.4123333784
 30
0.0
 10
7.3232642398
 20
21.4126487167
 30
0.0
 10
7.3227125938
 20
21.4131685017
 30
0.0
 10
7.3219496186
 20
21.413952017
 30
0.0
 10
7.3209579398
 20
21.4150488944
 30
0.0
 10
7.3198604487
 20
21.4163324412
 30
0.0
 10
7.3191044343
 20
21.4172565541
 30
0.0
 10
7.3187104478
 20
21.4177467248
 30
0.0
  0
SPLINE
  5
38C
100
AcDbEntity
  8
0
100
AcDbSpline
 62
7
  6
CONTINUOUS
 70
0
 71
3
 72
15
 73
11
 74
0
 42
0.0000001
 43
0.0000001
 44
0.0000000001
 40
0.0
 40
0.0
 40
0.0
 40
0.0
 40
0.1156090982
 40
0.2436847846
 40
0.3796399492
 40
0.5185097565
 40
0.6550814328
 40
0.784134744
 40
0.9007218662
 40
1.0
 40
1.0
 40
1.0
 40
1.0
 10
7.3187104478
 20
21.4177467248
 30
0.0
 10
7.3179217754
 20
21.4187279362
 30
0.0
 10
7.3162943614
 20
21.4208243406
 30
0.0
 10
7.3138400009
 20
21.4241512207
 30
0.0
 10
7.3113118829
 20
21.4277372101
 30
0.0
 10
7.3088065571
 20
21.4314512842
 30
0.0
 10
7.3064215619
 20
21.4351546982
 30
0.0
 10
7.3042519039
 20
21.4387069885
 30
0.0
 10
7.3023875683
 20
21.4419680243
 30
0.0
 10
7.3012963371
 20
21.4440511507
 30
0.0
 10
7.3008243546
 20
21.4450237261
 30
0.0
  0
SPLINE
  5
38D
100
AcDbEntity
  8
0
100
AcDbSpline
 62
7
  6
CONTINUOUS
 70
0
 71
3
 72
16
 73
12
 74
0
 42
0.0000001
 43
0.0000001
 44
0.0000000001
 40
0.0
 40
0.0
 40
0.0
 40
0.0
 40
0.0403296254
 40
0.0877224113
 40
0.2006129417
 40
0.3320176745
 40
0.4745376576
 40
0.620232162
 40
0.7612395457
 40
0.8900993363
 40
1.0
 40
1.0
 40
1.0
 40
1.0
 10
7.0621499537
 20
22.0643455981
 30
0.0
 10
7.0619294921
 20
22.0647998853
 30
0.0
 10
7.0614729931
 20
22.0657991949
 30
0.0
 10
7.0604959893
 20
22.0681134352
 30
0.0
 10
7.0591919119
 20
22.0715258565
 30
0.0
 10
7.0575907177
 20
22.0760971023
 30
0.0
 10
7.0559647865
 20
22.0810935479
 30
0.0
 10
7.0544011553
 20
22.086235522
 30
0.0
 10
7.0529816441
 20
22.0912416548
 30
0.0
 10
7.0517800706
 20
22.0958426067
 30
0.0
 10
7.0510993123
 20
22.0987542045
 30
0.0
 10
7.0508153957
 20
22.1001006302
 30
0.0
  0
SPLINE
  5
38E
100
AcDbEntity
  8
0
100
AcDbSpline
 62
7
  6
CONTINUOUS
 70
0
 71
3
 72
16
 73
12
 74
0
 42
0.0000001
 43
0.0000001
 44
0.0000000001
 40
0.0
 40
0.0
 40
0.0
 40
0.0
 40
0.4058370124
 40
0.5719179837
 40
0.7115408036
 40
0.8237707995
 40
0.8695068365
 40
0.9083240546
 40
0.9403185415
 40
0.9657550815
 40
1.0
 40
1.0
 40
1.0
 40
1.0
 10
7.0508153957
 20
22.1001006302
 30
0.0
 10
7.0506407735
 20
22.1009287458
 30
0.0
 10
7.050409793
 20
22.102099296
 30
0.0
 10
7.0501795487
 20
22.1035653713
 30
0.0
 10
7.0500745133
 20
22.1044307817
 30
0.0
 10
7.0500302643
 20
22.1050502348
 30
0.0
 10
7.0500283358
 20
22.1054609396
 30
0.0
 10
7.0500410266
 20
22.1057034257
 30
0.0
 10
7.0500686661
 20
22.1059037643
 30
0.0
 10
7.050115706
 20
22.1060857092
 30
0.0
 10
7.0501854508
 20
22.1062067632
 30
0.0
 10
7.0502497233
 20
22.1062378917
 30
0.0
  0
SPLINE
  5
38F
100
AcDbEntity
  8
0
100
AcDbSpline
 62
7
  6
CONTINUOUS
 70
0
 71
3
 72
17
 73
13
 74
0
 42
0.0000001
 43
0.0000001
 44
0.0000000001
 40
0.0
 40
0.0
 40
0.0
 40
0.0
 40
0.019258489
 40
0.0419617029
 40
0.0697120151
 40
0.1033758904
 40
0.189756687
 40
0.3022398897
 40
0.4406051847
 40
0.6040096838
 40
0.7910056421
 40
1.0
 40
1.0
 40
1.0
 40
1.0
 10
7.5348483513
 20
21.2414045734
 30
0.0
 10
7.5348049132
 20
21.2413834767
 30
0.0
 10
7.5346997787
 20
21.2413583118
 30
0.0
 10
7.5345238843
 20
21.2413742251
 30
0.0
 10
7.5343213851
 20
21.2414367781
 30
0.0
 10
7.5339858198
 20
21.2415959793
 30
0.0
 10
7.5335007625
 20
21.2419239581
 30
0.0
 10
7.5328499197
 20
21.2424644112
 30
0.0
 10
7.5320957039
 20
21.2431796108
 30
0.0
 10
7.5312455296
 20
21.2440626777
 30
0.0
 10
7.5303072855
 20
21.2451056492
 30
0.0
 10
7.5296630604
 20
21.2458613636
 30
0.0
 10
7.5293272902
 20
21.2462637118
 30
0.0
  0
SPLINE
  5
390
100
AcDbEntity
  8
0
100
AcDbSpline
 62
7
  6
CONTINUOUS
 70
0
 71
3
 72
15
 73
11
 74
0
 42
0.0000001
 43
0.0000001
 44
0.0000000001
 40
0.0
 40
0.0
 40
0.0
 40
0.0
 40
0.1081704564
 40
0.230652079
 40
0.3631100058
 40
0.5007429315
 40
0.6384062862
 40
0.770871006
 40
0.8930938711
 40
1.0
 40
1.0
 40
1.0
 40
1.0
 10
7.5293272902
 20
21.2462637118
 30
0.0
 10
7.5285695597
 20
21.2471716886
 30
0.0
 10
7.5269983217
 20
21.249144937
 30
0.0
 10
7.5246235726
 20
21.2523267148
 30
0.0
 10
7.5221476908
 20
21.2558331186
 30
0.0
 10
7.5196643844
 20
21.259535815
 30
0.0
 10
7.5172689337
 20
21.2632960472
 30
0.0
 10
7.5150552394
 20
21.266970862
 30
0.0
 10
7.5131133105
 20
21.2704148871
 30
0.0
 10
7.5119592726
 20
21.2726393008
 30
0.0
 10
7.5114489826
 20
21.2736908133
 30
0.0
  0
SPLINE
  5
391
100
AcDbEntity
  8
0
100
AcDbSpline
 62
7
  6
CONTINUOUS
 70
0
 71
3
 72
13
 73
9
 74
0
 42
0.0000001
 43
0.0000001
 44
0.0000000001
 40
0.0
 40
0.0
 40
0.0
 40
0.0
 40
0.110166441
 40
0.2310461284
 40
0.4916882054
 40
0.7563583919
 40
0.8822758686
 40
1.0
 40
1.0
 40
1.0
 40
1.0
 10
7.112860745
 20
21.9598500505
 30
0.0
 10
7.1124254607
 20
21.9607470048
 30
0.0
 10
7.1115493321
 20
21.9626460575
 30
0.0
 10
7.1098034586
 20
21.966739461
 30
0.0
 10
7.1077164672
 20
21.9722047617
 30
0.0
 10
7.1058420443
 20
21.9777942071
 30
0.0
 10
7.104524431
 20
21.9822019826
 30
0.0
 10
7.1039435445
 20
21.9843293363
 30
0.0
 10
7.1036779266
 20
21.9853610854
 30
0.0
  0
SPLINE
  5
392
100
AcDbEntity
  8
0
100
AcDbSpline
 62
7
  6
CONTINUOUS
 70
0
 71
3
 72
19
 73
15
 74
0
 42
0.0000001
 43
0.0000001
 44
0.0000000001
 40
0.0
 40
0.0
 40
0.0
 40
0.0
 40
0.2063160096
 40
0.3931704572
 40
0.5578958311
 40
0.698261369
 40
0.7587915498
 40
0.812641021
 40
0.859676747
 40
0.8998951936
 40
0.9334327427
 40
0.9606288452
 40
0.9822557164
 40
1.0
 40
1.0
 40
1.0
 40
1.0
 10
7.1036779266
 20
21.9853610854
 30
0.0
 10
7.103483228
 20
21.9861173604
 30
0.0
 10
7.1031277013
 20
21.9875626404
 30
0.0
 10
7.10267699
 20
21.9896260094
 30
0.0
 10
7.1023391062
 20
21.9914575356
 30
0.0
 10
7.1021461184
 20
21.9928286828
 30
0.0
 10
7.1020580188
 20
21.9937890847
 30
0.0
 10
7.1020260868
 20
21.9943994255
 30
0.0
 10
7.1020250837
 20
21.9949338185
 30
0.0
 10
7.1020549519
 20
21.9953905007
 30
0.0
 10
7.1021151832
 20
21.9957686407
 30
0.0
 10
7.1022063415
 20
21.9960681979
 30
0.0
 10
7.1023295826
 20
21.9962912303
 30
0.0
 10
7.1024470673
 20
21.9963913376
 30
0.0
 10
7.102507559
 20
21.9964205237
 30
0.0
  0
SPLINE
  5
393
100
AcDbEntity
  8
0
100
AcDbSpline
 62
7
  6
CONTINUOUS
 70
0
 71
3
 72
23
 73
19
 74
0
 42
0.0000001
 43
0.0000001
 44
0.0000000001
 40
0.0
 40
0.0
 40
0.0
 40
0.0
 40
0.1716866798
 40
0.3466032378
 40
0.5147497689
 40
0.5935156181
 40
0.6673522972
 40
0.735291552
 40
0.7965521925
 40
0.8504127178
 40
0.8963026034
 40
0.9338853497
 40
0.9495162639
 40
0.9630640446
 40
0.9746268647
 40
0.9843851613
 40
0.9926608655
 40
1.0
 40
1.0
 40
1.0
 40
1.0
 10
7.1813539416
 20
21.8187117659
 30
0.0
 10
7.1805761651
 20
21.8203144658
 30
0.0
 10
7.1790814094
 20
21.8235870219
 30
0.0
 10
7.177060699
 20
21.828532535
 30
0.0
 10
7.1755711917
 20
21.8326499258
 30
0.0
 10
7.1745490241
 20
21.8358175231
 30
0.0
 10
7.1739015613
 20
21.8380126992
 30
0.0
 10
7.1733647449
 20
21.8400502747
 30
0.0
 10
7.1729440386
 20
21.8419029976
 30
0.0
 10
7.1726436557
 20
21.8435472132
 30
0.0
 10
7.1724670744
 20
21.8449619608
 30
0.0
 10
7.1724187326
 20
21.8459912186
 30
0.0
 10
7.1724542869
 20
21.8466836281
 30
0.0
 10
7.1725112978
 20
21.8471031542
 30
0.0
 10
7.1725997828
 20
21.8474550003
 30
0.0
 10
7.1727204279
 20
21.8477392704
 30
0.0
 10
7.1728751433
 20
21.8479557663
 30
0.0
 10
7.1730080593
 20
21.8480547496
 30
0.0
 10
7.1730765567
 20
21.8480880253
 30
0.0
  0
SPLINE
  5
394
100
AcDbEntity
  8
0
100
AcDbSpline
 62
7
  6
CONTINUOUS
 70
0
 71
3
 72
23
 73
19
 74
0
 42
0.0000001
 43
0.0000001
 44
0.0000000001
 40
0.0
 40
0.0
 40
0.0
 40
0.0
 40
0.0072759857
 40
0.0155063015
 40
0.0252378479
 40
0.0367892137
 40
0.0503368335
 40
0.0659762638
 40
0.1036010568
 40
0.149550402
 40
0.2034738093
 40
0.2647989503
 40
0.332795809
 40
0.4066787144
 40
0.4854789396
 40
0.6536415947
 40
0.8284879185
 40
1.0
 40
1.0
 40
1.0
 40
1.0
 10
7.2567006173
 20
21.5483879452
 30
0.0
 10
7.2566325459
 20
21.5483549166
 30
0.0
 10
7.2564731382
 20
21.5483123064
 30
0.0
 10
7.2562082222
 20
21.5483258541
 30
0.0
 10
7.2559107982
 20
21.548408123
 30
0.0
 10
7.2555797693
 20
21.5485575078
 30
0.0
 10
7.2552146211
 20
21.5487735173
 30
0.0
 10
7.2546475096
 20
21.5491758644
 30
0.0
 10
7.2538664516
 20
21.5498530284
 30
0.0
 10
7.2528601195
 20
21.5508697188
 30
0.0
 10
7.2517487017
 20
21.5521255216
 30
0.0
 10
7.2505468216
 20
21.5536047335
 30
0.0
 10
7.2492706643
 20
21.5552893702
 30
0.0
 10
7.2479385477
 20
21.5571582878
 30
0.0
 10
7.246071292
 20
21.5599235672
 30
0.0
 10
7.2437449736
 20
21.5636440036
 30
0.0
 10
7.2410979825
 20
21.5682952515
 30
0.0
 10
7.2394474378
 20
21.5714980795
 30
0.0
 10
7.2386687637
 20
21.5731026289
 30
0.0
  0
SPLINE
  5
395
100
AcDbEntity
  8
0
100
AcDbSpline
 62
7
  6
CONTINUOUS
 70
0
 71
3
 72
19
 73
15
 74
0
 42
0.0000001
 43
0.0000001
 44
0.0000000001
 40
0.0
 40
0.0
 40
0.0
 40
0.0
 40
0.0197084919
 40
0.0427902181
 40
0.0709456167
 40
0.1050890927
 40
0.1456396999
 40
0.1927391429
 40
0.2464041386
 40
0.3065830008
 40
0.4460202353
 40
0.6095007319
 40
0.7949464174
 40
1.0
 40
1.0
 40
1.0
 40
1.0
 10
7.4700437083
 20
21.3730560553
 30
0.0
 10
7.4699773685
 20
21.3730239593
 30
0.0
 10
7.469817153
 20
21.3729862563
 30
0.0
 10
7.4695503438
 20
21.3730142794
 30
0.0
 10
7.4692459262
 20
21.3731157984
 30
0.0
 10
7.4689021167
 20
21.3732901939
 30
0.0
 10
7.4685185184
 20
21.3735366882
 30
0.0
 10
7.4680959888
 20
21.3738546061
 30
0.0
 10
7.4676359125
 20
21.3742429437
 30
0.0
 10
7.4669397521
 20
21.3748854444
 30
0.0
 10
7.4659938634
 20
21.375860781
 30
0.0
 10
7.4647870538
 20
21.3772319145
 30
0.0
 10
7.4634770998
 20
21.3788371562
 30
0.0
 10
7.4625884166
 20
21.3799960461
 30
0.0
 10
7.4621292668
 20
21.3806101308
 30
0.0
  0
SPLINE
  5
396
100
AcDbEntity
  8
0
100
AcDbSpline
 62
7
  6
CONTINUOUS
 70
0
 71
3
 72
12
 73
8
 74
0
 42
0.0000001
 43
0.0000001
 44
0.0000000001
 40
0.0
 40
0.0
 40
0.0
 40
0.0
 40
0.2370185012
 40
0.495601772
 40
0.756663859
 40
0.8819202982
 40
1.0
 40
1.0
 40
1.0
 40
1.0
 10
7.4621292668
 20
21.3806101308
 30
0.0
 10
7.4609754438
 20
21.3821532987
 30
0.0
 10
7.4586592459
 20
21.3854524593
 30
0.0
 10
7.4553484263
 20
21.3906384863
 30
0.0
 10
7.4527119019
 20
21.3951722155
 30
0.0
 10
7.450774605
 20
21.3987865331
 30
0.0
 10
7.4498837897
 20
21.4005531317
 30
0.0
 10
7.449464691
 20
21.4014167338
 30
0.0
  0
SPLINE
  5
397
100
AcDbEntity
  8
0
100
AcDbSpline
 62
7
  6
CONTINUOUS
 70
0
 71
3
 72
22
 73
18
 74
0
 42
0.0000001
 43
0.0000001
 44
0.0000000001
 40
0.0
 40
0.0
 40
0.0
 40
0.0
 40
0.1911366245
 40
0.3737121751
 40
0.5406574458
 40
0.6165475786
 40
0.6865651673
 40
0.7502077229
 40
0.8069985055
 40
0.8565575841
 40
0.8987208695
 40
0.9334668743
 40
0.9610456623
 40
0.9724322289
 40
0.9824786603
 40
0.9915156457
 40
1.0
 40
1.0
 40
1.0
 40
1.0
 10
7.2585309657
 20
21.6596794338
 30
0.0
 10
7.2579007594
 20
21.660978048
 30
0.0
 10
7.2567127662
 20
21.663538878
 30
0.0
 10
7.2551297844
 20
21.6673035026
 30
0.0
 10
7.25400731
 20
21.6703150982
 30
0.0
 10
7.2532691434
 20
21.672559759
 30
0.0
 10
7.2528192713
 20
21.6740772624
 30
0.0
 10
7.2524579153
 20
21.6754697417
 30
0.0
 10
7.252187623
 20
21.6767252425
 30
0.0
 10
7.2520104382
 20
21.6778333427
 30
0.0
 10
7.2519261195
 20
21.6787859472
 30
0.0
 10
7.2519339016
 20
21.6795762191
 30
0.0
 10
7.2520217607
 20
21.6801303092
 30
0.0
 10
7.2521502612
 20
21.6804787506
 30
0.0
 10
7.2522647818
 20
21.6806798714
 30
0.0
 10
7.2524042117
 20
21.6808368527
 30
0.0
 10
7.2525156682
 20
21.6809115066
 30
0.0
 10
7.2525732758
 20
21.680939556
 30
0.0
  0
SPLINE
  5
398
100
AcDbEntity
  8
0
100
AcDbSpline
 62
7
  6
CONTINUOUS
 70
0
 71
3
 72
19
 73
15
 74
0
 42
0.0000001
 43
0.0000001
 44
0.0000000001
 40
0.0
 40
0.0
 40
0.0
 40
0.0
 40
0.2049256584
 40
0.3925178414
 40
0.5582613584
 40
0.6992038025
 40
0.7596992902
 40
0.8132760989
 40
0.859885028
 40
0.8995645778
 40
0.9325071497
 40
0.9592376165
 40
0.9809806048
 40
1.0
 40
1.0
 40
1.0
 40
1.0
 10
7.3341396873
 20
21.5038787733
 30
0.0
 10
7.3337151535
 20
21.5047535752
 30
0.0
 10
7.3329257067
 20
21.5064408492
 30
0.0
 10
7.3318824857
 20
21.5088763954
 30
0.0
 10
7.3310483245
 20
21.5110691267
 30
0.0
 10
7.3305147092
 20
21.5127291481
 30
0.0
 10
7.330213681
 20
21.5139015255
 30
0.0
 10
7.330060034
 20
21.5146486925
 30
0.0
 10
7.3299664087
 20
21.5153062639
 30
0.0
 10
7.3299326497
 20
21.5158718351
 30
0.0
 10
7.3299584548
 20
21.5163440409
 30
0.0
 10
7.3300452354
 20
21.5167231977
 30
0.0
 10
7.3301972264
 20
21.5170113699
 30
0.0
 10
7.3303525792
 20
21.5171380828
 30
0.0
 10
7.3304337329
 20
21.5171775619
 30
0.0
  0
SPLINE
  5
399
100
AcDbEntity
  8
0
100
AcDbSpline
 62
7
  6
CONTINUOUS
 70
0
 71
3
 72
19
 73
15
 74
0
 42
0.0000001
 43
0.0000001
 44
0.0000000001
 40
0.0
 40
0.0
 40
0.0
 40
0.0
 40
0.0184525345
 40
0.0406091408
 40
0.0684074582
 40
0.1027787025
 40
0.1440651255
 40
0.1923056406
 40
0.2474157079
 40
0.3092378703
 40
0.4517754048
 40
0.6169940604
 40
0.8012209568
 40
1.0
 40
1.0
 40
1.0
 40
1.0
 10
7.394570794
 20
21.5263647372
 30
0.0
 10
7.3944743437
 20
21.5263180922
 30
0.0
 10
7.3942342293
 20
21.5262709738
 30
0.0
 10
7.3938387118
 20
21.5263456005
 30
0.0
 10
7.3933879606
 20
21.5265430778
 30
0.0
 10
7.3928783668
 20
21.5268638276
 30
0.0
 10
7.3923100749
 20
21.5273061823
 30
0.0
 10
7.3916856807
 20
21.5278685496
 30
0.0
 10
7.3910086871
 20
21.528548316
 30
0.0
 10
7.3899925413
 20
21.5296610168
 30
0.0
 10
7.3886316628
 20
21.5313219349
 30
0.0
 10
7.3869304976
 20
21.5336175795
 30
0.0
 10
7.3851363179
 20
21.5362476165
 30
0.0
 10
7.3839440487
 20
21.5381252466
 30
0.0
 10
7.383339703
 20
21.5391084994
 30
0.0
  0
SPLINE
  5
39A
100
AcDbEntity
  8
0
100
AcDbSpline
 62
7
  6
CONTINUOUS
 70
0
 71
3
 72
18
 73
14
 74
0
 42
0.0000001
 43
0.0000001
 44
0.0000000001
 40
0.0
 40
0.0
 40
0.0
 40
0.0
 40
0.2139952444
 40
0.4044221298
 40
0.56928933
 40
0.706887937
 40
0.8167305101
 40
0.8613990945
 40
0.8994432449
 40
0.9312392322
 40
0.9575318154
 40
0.9797079504
 40
1.0
 40
1.0
 40
1.0
 40
1.0
 10
7.3981363083
 20
21.3720062115
 30
0.0
 10
7.3979171404
 20
21.3724578328
 30
0.0
 10
7.3975133078
 20
21.3733164585
 30
0.0
 10
7.3969827679
 20
21.3745422435
 30
0.0
 10
7.3965657216
 20
21.375621168
 30
0.0
 10
7.3962672829
 20
21.3765416462
 30
0.0
 10
7.3961074871
 20
21.3772095608
 30
0.0
 10
7.3960489236
 20
21.3776578962
 30
0.0
 10
7.3960385707
 20
21.3779268126
 30
0.0
 10
7.3960585737
 20
21.3781522782
 30
0.0
 10
7.3961098644
 20
21.3783350427
 30
0.0
 10
7.3961950078
 20
21.3784752773
 30
0.0
 10
7.3962767633
 20
21.3785372234
 30
0.0
 10
7.396319584
 20
21.3785580145
 30
0.0
  0
SPLINE
  5
39B
100
AcDbEntity
  8
0
100
AcDbSpline
 62
7
  6
CONTINUOUS
 70
0
 71
3
 72
22
 73
18
 74
0
 42
0.0000001
 43
0.0000001
 44
0.0000000001
 40
0.0
 40
0.0
 40
0.0
 40
0.0
 40
0.0083274774
 40
0.0172534959
 40
0.0272489621
 40
0.0386434971
 40
0.0663809862
 40
0.1014525726
 40
0.1440867804
 40
0.1941885728
 40
0.2515420952
 40
0.3157590243
 40
0.3862948976
 40
0.4625775751
 40
0.6297399151
 40
0.8113753099
 40
1.0
 40
1.0
 40
1.0
 40
1.0
 10
7.3135708584
 20
21.6908816101
 30
0.0
 10
7.313511039
 20
21.6908525698
 30
0.0
 10
7.3133778038
 20
21.6908101333
 30
0.0
 10
7.3131585119
 20
21.6908001423
 30
0.0
 10
7.3129183602
 20
21.6908403137
 30
0.0
 10
7.312545965
 20
21.6909676958
 30
0.0
 10
7.3120286388
 20
21.6912656191
 30
0.0
 10
7.3113659021
 20
21.6917869383
 30
0.0
 10
7.3106269266
 20
21.6924926608
 30
0.0
 10
7.3098180598
 20
21.6933778425
 30
0.0
 10
7.3089467671
 20
21.6944367924
 30
0.0
 10
7.3080212405
 20
21.6956605347
 30
0.0
 10
7.3070500327
 20
21.6970379857
 30
0.0
 10
7.3056646915
 20
21.6991279884
 30
0.0
 10
7.3038985563
 20
21.702028187
 30
0.0
 10
7.3018175051
 20
21.7057822532
 30
0.0
 10
7.3004789694
 20
21.7084193299
 30
0.0
 10
7.2998213736
 20
21.7097743834
 30
0.0
  0
SPLINE
  5
39C
100
AcDbEntity
  8
0
100
AcDbSpline
 62
7
  6
CONTINUOUS
 70
0
 71
3
 72
17
 73
13
 74
0
 42
0.0000001
 43
0.0000001
 44
0.0000000001
 40
0.0
 40
0.0
 40
0.0
 40
0.0
 40
0.2191060681
 40
0.4106248671
 40
0.5742863968
 40
0.7099665622
 40
0.8178450518
 40
0.8988323951
 40
0.9301340672
 40
0.9563152103
 40
0.9788589355
 40
1.0
 40
1.0
 40
1.0
 40
1.0
 10
7.4420195722
 20
21.2815795868
 30
0.0
 10
7.441953618
 20
21.2817154932
 30
0.0
 10
7.4418328436
 20
21.281971587
 30
0.0
 10
7.4416747505
 20
21.2823346968
 30
0.0
 10
7.4415520377
 20
21.2826501825
 30
0.0
 10
7.4414646558
 20
21.2829173089
 30
0.0
 10
7.4414128301
 20
21.2831351133
 30
0.0
 10
7.4413969506
 20
21.2832872882
 30
0.0
 10
7.4414070546
 20
21.2833826224
 30
0.0
 10
7.4414235415
 20
21.2834357944
 30
0.0
 10
7.4414503074
 20
21.2834768164
 30
0.0
 10
7.4414752991
 20
21.2834950109
 30
0.0
 10
7.4414884232
 20
21.2835013524
 30
0.0
  0
SPLINE
  5
39D
100
AcDbEntity
  8
0
100
AcDbSpline
 62
7
  6
CONTINUOUS
 70
0
 71
3
 72
20
 73
16
 74
0
 42
0.0000001
 43
0.0000001
 44
0.0000000001
 40
0.0
 40
0.0
 40
0.0
 40
0.0
 40
0.0090078538
 40
0.0184118995
 40
0.0399372282
 40
0.0669378799
 40
0.1004930505
 40
0.1410942847
 40
0.1888777234
 40
0.2437284254
 40
0.3054465652
 40
0.4483782555
 40
0.6146581997
 40
0.8004035665
 40
1.0
 40
1.0
 40
1.0
 40
1.0
 10
7.2325628252
 20
21.855394979
 30
0.0
 10
7.2325147135
 20
21.855371551
 30
0.0
 10
7.2324101874
 20
21.8553353964
 30
0.0
 10
7.2321722123
 20
21.8553119902
 30
0.0
 10
7.2318290119
 20
21.8553877299
 30
0.0
 10
7.2313927844
 20
21.8556110533
 30
0.0
 10
7.2309063779
 20
21.8559670657
 30
0.0
 10
7.2303712454
 20
21.8564566864
 30
0.0
 10
7.2297892263
 20
21.8570782746
 30
0.0
 10
7.2291637391
 20
21.8578285058
 30
0.0
 10
7.2282310188
 20
21.8590564525
 30
0.0
 10
7.2269993738
 20
21.8608856554
 30
0.0
 10
7.2254825826
 20
21.8634055925
 30
0.0
 10
7.2239088221
 20
21.8662808434
 30
0.0
 10
7.2228779799
 20
21.8683252927
 30
0.0
 10
7.2223602926
 20
21.8693920482
 30
0.0
  0
LINE
  5
39E
100
AcDbEntity
  8
0
100
AcDbLine
 62
7
  6
CONTINUOUS
 10
7.0359579461
 20
22.1183173093
 11
7.0351758043
 21
22.1203948356
  0
SPLINE
  5
39F
100
AcDbEntity
  8
0
100
AcDbSpline
 62
7
  6
CONTINUOUS
 70
0
 71
3
 72
17
 73
13
 74
0
 42
0.0000001
 43
0.0000001
 44
0.0000000001
 40
0.0
 40
0.0
 40
0.0
 40
0.0
 40
0.0398145824
 40
0.0883973583
 40
0.2078531698
 40
0.3489455782
 40
0.5009847822
 40
0.6527937592
 40
0.7932975223
 40
0.9120745982
 40
0.9603830136
 40
1.0
 40
1.0
 40
1.0
 40
1.0
 10
7.0351758043
 20
22.1203948356
 30
0.0
 10
7.0349973084
 20
22.1209188114
 30
0.0
 10
7.0346129516
 20
22.1220862163
 30
0.0
 10
7.0337394656
 20
22.1248408632
 30
0.0
 10
7.0324890864
 20
22.128952954
 30
0.0
 10
7.0308652392
 20
22.1344545614
 30
0.0
 10
7.0291503817
 20
22.1403981916
 30
0.0
 10
7.0274686952
 20
22.1463427835
 30
0.0
 10
7.0259444193
 20
22.1518512023
 30
0.0
 10
7.0248342553
 20
22.155981124
 30
0.0
 10
7.0241176052
 20
22.1587641497
 30
0.0
 10
7.0238243563
 20
22.1599509326
 30
0.0
 10
7.0236971129
 20
22.1604868307
 30
0.0
  0
LINE
  5
3A0
100
AcDbEntity
  8
0
100
AcDbLine
 62
7
  6
CONTINUOUS
 10
7.0236971129
 20
22.1604868307
 11
7.0232557934
 21
22.1629553811
  0
SPLINE
  5
3A1
100
AcDbEntity
  8
0
100
AcDbSpline
 62
7
  6
CONTINUOUS
 70
0
 71
3
 72
19
 73
15
 74
0
 42
0.0000001
 43
0.0000001
 44
0.0000000001
 40
0.0
 40
0.0
 40
0.0
 40
0.0
 40
0.0193009957
 40
0.0410837668
 40
0.0676310823
 40
0.1001551405
 40
0.1392447744
 40
0.1851797691
 40
0.2380804142
 40
0.297921567
 40
0.437802226
 40
0.6033475748
 40
0.7920165606
 40
1.0
 40
1.0
 40
1.0
 40
1.0
 10
7.157068092
 20
22.0086934828
 30
0.0
 10
7.1569983216
 20
22.0086595333
 30
0.0
 10
7.1568319609
 20
22.0086202927
 30
0.0
 10
7.156559124
 20
22.0086664083
 30
0.0
 10
7.1562619664
 20
22.0088037457
 30
0.0
 10
7.1559364232
 20
22.0090290201
 30
0.0
 10
7.1555815234
 20
22.0093421705
 30
0.0
 10
7.1551978154
 20
22.0097430923
 30
0.0
 10
7.154786649
 20
22.0102312219
 30
0.0
 10
7.1541713659
 20
22.0110395729
 30
0.0
 10
7.1533535002
 20
22.0122605829
 30
0.0
 10
7.1523364315
 20
22.0139674067
 30
0.0
 10
7.1512584878
 20
22.0159544336
 30
0.0
 10
7.1505430995
 20
22.0173798183
 30
0.0
 10
7.1501780562
 20
22.018132033
 30
0.0
  0
SPLINE
  5
3A2
100
AcDbEntity
  8
0
100
AcDbSpline
 62
7
  6
CONTINUOUS
 70
0
 71
3
 72
16
 73
12
 74
0
 42
0.0000001
 43
0.0000001
 44
0.0000000001
 40
0.0
 40
0.0
 40
0.0
 40
0.0
 40
0.0401621693
 40
0.0874041792
 40
0.200054588
 40
0.3313136694
 40
0.4737899695
 40
0.6195406749
 40
0.7606962409
 40
0.8897886425
 40
1.0
 40
1.0
 40
1.0
 40
1.0
 10
7.0406315449
 20
22.2438654994
 30
0.0
 10
7.0404120729
 20
22.2443177471
 30
0.0
 10
7.0399572
 20
22.2453130046
 30
0.0
 10
7.038982156
 20
22.2476195573
 30
0.0
 10
7.0376781051
 20
22.2510234523
 30
0.0
 10
7.0360745161
 20
22.2555864215
 30
0.0
 10
7.0344444357
 20
22.2605778929
 30
0.0
 10
7.0328761459
 20
22.2657186565
 30
0.0
 10
7.0314524733
 20
22.2707274739
 30
0.0
 10
7.0302477701
 20
22.2753349027
 30
0.0
 10
7.0295659192
 20
22.2782522042
 30
0.0
 10
7.0292816127
 20
22.2796020459
 30
0.0
  0
SPLINE
  5
3A3
100
AcDbEntity
  8
0
100
AcDbSpline
 62
7
  6
CONTINUOUS
 70
0
 71
3
 72
16
 73
12
 74
0
 42
0.0000001
 43
0.0000001
 44
0.0000000001
 40
0.0
 40
0.0
 40
0.0
 40
0.0
 40
0.4056525247
 40
0.5717105266
 40
0.7113425391
 40
0.8236091315
 40
0.8693701963
 40
0.9082147774
 40
0.9402374069
 40
0.9657013948
 40
1.0
 40
1.0
 40
1.0
 40
1.0
 10
7.0292816127
 20
22.2796020459
 30
0.0
 10
7.0291058707
 20
22.2804364411
 30
0.0
 10
7.0288735964
 20
22.2816160175
 30
0.0
 10
7.0286425613
 20
22.2830935536
 30
0.0
 10
7.0285374186
 20
22.2839660185
 30
0.0
 10
7.0284934367
 20
22.284590618
 30
0.0
 10
7.0284919568
 20
22.2850047939
 30
0.0
 10
7.0285050508
 20
22.2852493729
 30
0.0
 10
7.0285331806
 20
22.2854514488
 30
0.0
 10
7.0285809016
 20
22.2856350161
 30
0.0
 10
7.0286513989
 20
22.2857570888
 30
0.0
 10
7.0287162849
 20
22.2857885186
 30
0.0
  0
SPLINE
  5
3A4
100
AcDbEntity
  8
0
100
AcDbSpline
 62
7
  6
CONTINUOUS
 70
0
 71
3
 72
15
 73
11
 74
0
 42
0.0000001
 43
0.0000001
 44
0.0000000001
 40
0.0
 40
0.0
 40
0.0
 40
0.0
 40
0.1070066969
 40
0.2293769136
 40
0.3619974025
 40
0.4997848499
 40
0.6374716839
 40
0.7698786477
 40
0.8921737088
 40
1.0
 40
1.0
 40
1.0
 40
1.0
 10
7.0881937646
 20
22.1458579535
 30
0.0
 10
7.0876816175
 20
22.1469132928
 30
0.0
 10
7.0866445561
 20
22.1492050012
 30
0.0
 10
7.0851355067
 20
22.1528757909
 30
0.0
 10
7.0836136012
 20
22.1569042178
 30
0.0
 10
7.0821379179
 20
22.161127956
 30
0.0
 10
7.0807631525
 20
22.1653831401
 30
0.0
 10
7.079539771
 20
22.1695075066
 30
0.0
 10
7.0785109127
 20
22.173346648
 30
0.0
 10
7.0779349521
 20
22.175803434
 30
0.0
 10
7.077692034
 20
22.176960234
 30
0.0
  0
SPLINE
  5
3A5
100
AcDbEntity
  8
0
100
AcDbSpline
 62
7
  6
CONTINUOUS
 70
0
 71
3
 72
17
 73
13
 74
0
 42
0.0000001
 43
0.0000001
 44
0.0000000001
 40
0.0
 40
0.0
 40
0.0
 40
0.0
 40
0.208993554
 40
0.3959396637
 40
0.5592726811
 40
0.6975696877
 40
0.8100058883
 40
0.8963867707
 40
0.9300781274
 40
0.9578772717
 40
0.9806515776
 40
1.0
 40
1.0
 40
1.0
 40
1.0
 10
7.077692034
 20
22.176960234
 30
0.0
 10
7.0775856034
 20
22.1774670674
 30
0.0
 10
7.0773940591
 20
22.1784294379
 30
0.0
 10
7.0771599632
 20
22.179795628
 30
0.0
 10
7.0769961206
 20
22.1809954285
 30
0.0
 10
7.0769038459
 20
22.1820180015
 30
0.0
 10
7.076883929
 20
22.1828535269
 30
0.0
 10
7.076927335
 20
22.1834305185
 30
0.0
 10
7.0770100034
 20
22.1837883362
 30
0.0
 10
7.0770859951
 20
22.1839839112
 30
0.0
 10
7.0771819256
 20
22.1841303433
 30
0.0
 10
7.0772661595
 20
22.1841966688
 30
0.0
 10
7.0773093026
 20
22.184217584
 30
0.0
  0
SPLINE
  5
3A6
100
AcDbEntity
  8
0
100
AcDbSpline
 62
7
  6
CONTINUOUS
 70
0
 71
3
 72
18
 73
14
 74
0
 42
0.0000001
 43
0.0000001
 44
0.0000000001
 40
0.0
 40
0.0
 40
0.0
 40
0.0
 40
0.0201252845
 40
0.0421661455
 40
0.0683640414
 40
0.1001016177
 40
0.1381197245
 40
0.1827875827
 40
0.2926819704
 40
0.4303720418
 40
0.5953554634
 40
0.7859038183
 40
1.0
 40
1.0
 40
1.0
 40
1.0
 10
7.092233491
 20
22.1403313866
 30
0.0
 10
7.0921907383
 20
22.14031066
 30
0.0
 10
7.0920914493
 20
22.1402850076
 30
0.0
 10
7.0919285876
 20
22.1403057707
 30
0.0
 10
7.0917531992
 20
22.140379726
 30
0.0
 10
7.0915634534
 20
22.1405049941
 30
0.0
 10
7.0913581843
 20
22.1406813578
 30
0.0
 10
7.0910412889
 20
22.1410079786
 30
0.0
 10
7.0906139207
 20
22.1415515567
 30
0.0
 10
7.0900730273
 20
22.1423620889
 30
0.0
 10
7.0894803572
 20
22.1433649341
 30
0.0
 10
7.0888418922
 20
22.1445487435
 30
0.0
 10
7.0884144379
 20
22.1454032302
 30
0.0
 10
7.0881937646
 20
22.1458579535
 30
0.0
  0
SPLINE
  5
3A7
100
AcDbEntity
  8
0
100
AcDbSpline
 62
7
  6
CONTINUOUS
 70
0
 71
3
 72
11
 73
7
 74
0
 42
0.0000001
 43
0.0000001
 44
0.0000000001
 40
0.0
 40
0.0
 40
0.0
 40
0.0
 40
0.2379643604
 40
0.4934559831
 40
0.7519926
 40
1.0
 40
1.0
 40
1.0
 40
1.0
 10
7.1501780562
 20
22.018132033
 30
0.0
 10
7.1494566784
 20
22.0196185168
 30
0.0
 10
7.1480395049
 20
22.0227393881
 30
0.0
 10
7.1460662613
 20
22.0275747017
 30
0.0
 10
7.1442431952
 20
22.0325429405
 30
0.0
 10
7.1431498629
 20
22.0358868769
 30
0.0
 10
7.1426492621
 20
22.0375345166
 30
0.0
  0
SPLINE
  5
3A8
100
AcDbEntity
  8
0
100
AcDbSpline
 62
7
  6
CONTINUOUS
 70
0
 71
3
 72
19
 73
15
 74
0
 42
0.0000001
 43
0.0000001
 44
0.0000000001
 40
0.0
 40
0.0
 40
0.0
 40
0.0
 40
0.2022957192
 40
0.3877766648
 40
0.5528393853
 40
0.6945520218
 40
0.755865514
 40
0.8104637272
 40
0.8582196676
 40
0.8990750466
 40
0.9330797011
 40
0.960516421
 40
0.9822174938
 40
1.0
 40
1.0
 40
1.0
 40
1.0
 10
7.1426492621
 20
22.0375345166
 30
0.0
 10
7.1423596239
 20
22.0384878099
 30
0.0
 10
7.1418270226
 20
22.0403221447
 30
0.0
 10
7.1411431218
 20
22.042958114
 30
0.0
 10
7.1406167818
 20
22.0453252199
 30
0.0
 10
7.1403018121
 20
22.0471115535
 30
0.0
 10
7.1401438215
 20
22.048370765
 30
0.0
 10
7.1400758035
 20
22.0491742354
 30
0.0
 10
7.1400520956
 20
22.049879553
 30
0.0
 10
7.1400726131
 20
22.0504836887
 30
0.0
 10
7.1401368038
 20
22.0509844886
 30
0.0
 10
7.1402458934
 20
22.0513811543
 30
0.0
 10
7.1404012296
 20
22.051676346
 30
0.0
 10
7.1405535248
 20
22.0518087164
 30
0.0
 10
7.1406322743
 20
22.0518470416
 30
0.0
  0
SPLINE
  5
3A9
100
AcDbEntity
  8
0
100
AcDbSpline
 62
7
  6
CONTINUOUS
 70
0
 71
3
 72
21
 73
17
 74
0
 42
0.0000001
 43
0.0000001
 44
0.0000000001
 40
0.0
 40
0.0
 40
0.0
 40
0.0
 40
0.1748824983
 40
0.3512186245
 40
0.5194117257
 40
0.5978355487
 40
0.6711809661
 40
0.7385295864
 40
0.7991493446
 40
0.8523975427
 40
0.8977349265
 40
0.9173494979
 40
0.9349016075
 40
0.9503939779
 40
0.9638598625
 40
1.0
 40
1.0
 40
1.0
 40
1.0
 10
7.2223602926
 20
21.8693920482
 30
0.0
 10
7.221597005
 20
21.8709648921
 30
0.0
 10
7.2201335399
 20
21.8741577517
 30
0.0
 10
7.2181575884
 20
21.8789608468
 30
0.0
 10
7.2167082623
 20
21.8829344907
 30
0.0
 10
7.2157196053
 20
21.8859767674
 30
0.0
 10
7.2150965819
 20
21.8880770803
 30
0.0
 10
7.2145823544
 20
21.8900231342
 30
0.0
 10
7.2141819841
 20
21.8917904098
 30
0.0
 10
7.2138992798
 20
21.8933573015
 30
0.0
 10
7.213757321
 20
21.8945313112
 30
0.0
 10
7.2137121094
 20
21.8953555287
 30
0.0
 10
7.2137103672
 20
21.8958812659
 30
0.0
 10
7.2137404274
 20
21.8963487801
 30
0.0
 10
7.2138326368
 20
21.89697855
 30
0.0
 10
7.2140425859
 20
21.8975368206
 30
0.0
 10
7.2143674028
 20
21.8976950038
 30
0.0
  0
SPLINE
  5
3AA
100
AcDbEntity
  8
0
100
AcDbSpline
 62
7
  6
CONTINUOUS
 70
0
 71
3
 72
22
 73
18
 74
0
 42
0.0000001
 43
0.0000001
 44
0.0000000001
 40
0.0
 40
0.0
 40
0.0
 40
0.0
 40
0.1886209082
 40
0.3702563972
 40
0.5374195799
 40
0.6137025705
 40
0.6842380809
 40
0.7484554424
 40
0.8058108565
 40
0.8559128243
 40
0.8985471049
 40
0.9336205662
 40
0.9613577246
 40
0.9727515703
 40
0.982746555
 40
0.9916724758
 40
1.0
 40
1.0
 40
1.0
 40
1.0
 10
7.2998213736
 20
21.7097743834
 30
0.0
 10
7.2991637913
 20
21.711129409
 30
0.0
 10
7.2979204317
 20
21.7138126393
 30
0.0
 10
7.2962590259
 20
21.7177703286
 30
0.0
 10
7.2950735316
 20
21.7209523158
 30
0.0
 10
7.2942888705
 20
21.7233338309
 30
0.0
 10
7.2938077339
 20
21.7249491114
 30
0.0
 10
7.2934190784
 20
21.7264334081
 30
0.0
 10
7.2931263001
 20
21.7277731316
 30
0.0
 10
7.2929314245
 20
21.7289562957
 30
0.0
 10
7.2928343
 20
21.7299735114
 30
0.0
 10
7.2928348136
 20
21.7308167269
 30
0.0
 10
7.2929208787
 20
21.7314074801
 30
0.0
 10
7.2930512574
 20
21.7317788244
 30
0.0
 10
7.2931683086
 20
21.7319923202
 30
0.0
 10
7.2933118484
 20
21.7321584
 30
0.0
 10
7.2934276144
 20
21.7322368206
 30
0.0
 10
7.2934874354
 20
21.7322658582
 30
0.0
  0
SPLINE
  5
3AB
100
AcDbEntity
  8
0
100
AcDbSpline
 62
7
  6
CONTINUOUS
 70
0
 71
3
 72
17
 73
13
 74
0
 42
0.0000001
 43
0.0000001
 44
0.0000000001
 40
0.0
 40
0.0
 40
0.0
 40
0.0
 40
0.0207295791
 40
0.0430132692
 40
0.0690700777
 40
0.1003295348
 40
0.181374468
 40
0.2896950992
 40
0.4260729851
 40
0.590288188
 40
0.7818183699
 40
1.0
 40
1.0
 40
1.0
 40
1.0
 10
7.0424808385
 20
22.2413379179
 30
0.0
 10
7.0424606563
 20
22.2413281404
 30
0.0
 10
7.04241452
 20
22.2413155798
 30
0.0
 10
7.0423389319
 20
22.2413233631
 30
0.0
 10
7.0422581962
 20
22.2413553975
 30
0.0
 10
7.042131602
 20
22.241436383
 30
0.0
 10
7.0419596853
 20
22.2416045827
 30
0.0
 10
7.0417414888
 20
22.2418815724
 30
0.0
 10
7.0414966114
 20
22.2422505202
 30
0.0
 10
7.0412264601
 20
22.2427094316
 30
0.0
 10
7.0409326023
 20
22.243256532
 30
0.0
 10
7.0407345972
 20
22.2436531479
 30
0.0
 10
7.0406315449
 20
22.2438654994
 30
0.0
  0
LINE
  5
3AC
100
AcDbEntity
  8
0
100
AcDbLine
 62
7
  6
CONTINUOUS
 10
7.0636147792
 20
21.9338219457
 11
7.0626929489
 21
21.9361984442
  0
SPLINE
  5
3AD
100
AcDbEntity
  8
0
100
AcDbSpline
 62
7
  6
CONTINUOUS
 70
0
 71
3
 72
15
 73
11
 74
0
 42
0.0000001
 43
0.0000001
 44
0.0000000001
 40
0.0
 40
0.0
 40
0.0
 40
0.0
 40
0.0875141543
 40
0.2002014047
 40
0.3314720734
 40
0.4739048721
 40
0.6196910912
 40
0.7609653005
 40
0.8901041812
 40
1.0
 40
1.0
 40
1.0
 40
1.0
 10
7.0626929489
 20
21.9361984442
 30
0.0
 10
7.0623299203
 20
21.9372367192
 30
0.0
 10
7.0615451679
 20
21.9396277791
 30
0.0
 10
7.0603073822
 20
21.9436057294
 30
0.0
 10
7.0589120777
 20
21.9482573625
 30
0.0
 10
7.0574331513
 20
21.9533180193
 30
0.0
 10
7.055949061
 20
21.9585080645
 30
0.0
 10
7.0545389726
 20
21.9635454116
 30
0.0
 10
7.053280463
 20
21.9681566522
 30
0.0
 10
7.0525147573
 20
21.9710618072
 30
0.0
 10
7.0521737311
 20
21.9724002575
 30
0.0
  0
SPLINE
  5
3AE
100
AcDbEntity
  8
0
100
AcDbSpline
 62
7
  6
CONTINUOUS
 70
0
 71
3
 72
18
 73
14
 74
0
 42
0.0000001
 43
0.0000001
 44
0.0000000001
 40
0.0
 40
0.0
 40
0.0
 40
0.0
 40
0.2222131289
 40
0.419364918
 40
0.5898062585
 40
0.7319198116
 40
0.8445001967
 40
0.8894621518
 40
0.9267516256
 40
0.9563017351
 40
0.9780956997
 40
0.992315445
 40
1.0
 40
1.0
 40
1.0
 40
1.0
 10
7.0521737311
 20
21.9724002575
 30
0.0
 10
7.0520639204
 20
21.9728312393
 30
0.0
 10
7.0518589759
 20
21.9736451859
 30
0.0
 10
7.0515793966
 20
21.9747920853
 30
0.0
 10
7.0513476572
 20
21.9757856133
 30
0.0
 10
7.0511661514
 20
21.9766169207
 30
0.0
 10
7.0510504379
 20
21.9772055645
 30
0.0
 10
7.050986365
 20
21.9775901502
 30
0.0
 10
7.0509556932
 20
21.9778120496
 30
0.0
 10
7.0509377906
 20
21.9779880426
 30
0.0
 10
7.0509343585
 20
21.9781207891
 30
0.0
 10
7.0509401973
 20
21.9782053598
 30
0.0
 10
7.050959762
 20
21.9782513549
 30
0.0
 10
7.0509736697
 20
21.9782579223
 30
0.0
  0
SPLINE
  5
3AF
100
AcDbEntity
  8
0
100
AcDbSpline
 62
7
  6
CONTINUOUS
 70
0
 71
3
 72
20
 73
16
 74
0
 42
0.0000001
 43
0.0000001
 44
0.0000000001
 40
0.0
 40
0.0
 40
0.0
 40
0.0
 40
0.1995917981
 40
0.3853364767
 40
0.5516171712
 40
0.6945501498
 40
0.7562680339
 40
0.8111183384
 40
0.858902569
 40
0.8995058473
 40
0.9330610902
 40
0.9600613928
 40
0.9815874345
 40
0.9909920421
 40
1.0
 40
1.0
 40
1.0
 40
1.0
 10
7.3772824547
 20
21.5501567186
 30
0.0
 10
7.3767647796
 20
21.5512234489
 30
0.0
 10
7.3757965819
 20
21.5532982627
 30
0.0
 10
7.3745116581
 20
21.5563136523
 30
0.0
 10
7.3734706021
 20
21.5590644667
 30
0.0
 10
7.3727957138
 20
21.5611638716
 30
0.0
 10
7.3724082039
 20
21.5626564085
 30
0.0
 10
7.372205875
 20
21.5636119949
 30
0.0
 10
7.3720777041
 20
21.5644538459
 30
0.0
 10
7.3720241667
 20
21.5651772091
 30
0.0
 10
7.3720454682
 20
21.5657796167
 30
0.0
 10
7.3721399703
 20
21.5662604936
 30
0.0
 10
7.3722928378
 20
21.5665769629
 30
0.0
 10
7.3724584483
 20
21.5667494641
 30
0.0
 10
7.3725515282
 20
21.5668092156
 30
0.0
 10
7.3725997028
 20
21.5668325152
 30
0.0
  0
SPLINE
  5
3B0
100
AcDbEntity
  8
0
100
AcDbSpline
 62
7
  6
CONTINUOUS
 70
0
 71
3
 72
19
 73
15
 74
0
 42
0.0000001
 43
0.0000001
 44
0.0000000001
 40
0.0
 40
0.0
 40
0.0
 40
0.0
 40
0.2079789435
 40
0.3966465461
 40
0.5621936211
 40
0.7020752927
 40
0.7619173156
 40
0.8148190991
 40
0.8607539423
 40
0.8998428649
 40
0.9323666655
 40
0.9589149187
 40
0.9806988682
 40
1.0
 40
1.0
 40
1.0
 40
1.0
 10
7.449464691
 20
21.4014167338
 30
0.0
 10
7.4490996559
 20
21.4021689317
 30
0.0
 10
7.4484225812
 20
21.4036128824
 30
0.0
 10
7.4475286302
 20
21.405689179
 30
0.0
 10
7.4468171158
 20
21.407544291
 30
0.0
 10
7.4463639879
 20
21.4089423199
 30
0.0
 10
7.4461096794
 20
21.4099258619
 30
0.0
 10
7.4459806229
 20
21.4105509073
 30
0.0
 10
7.4459030941
 20
21.4111004167
 30
0.0
 10
7.4458766964
 20
21.4115729794
 30
0.0
 10
7.4459011672
 20
21.4119681103
 30
0.0
 10
7.4459771474
 20
21.4122865341
 30
0.0
 10
7.4461097163
 20
21.4125294291
 30
0.0
 10
7.4462434931
 20
21.412635837
 30
0.0
 10
7.4463133374
 20
21.4126696351
 30
0.0
  0
SPLINE
  5
3B1
100
AcDbEntity
  8
0
100
AcDbSpline
 62
7
  6
CONTINUOUS
 70
0
 71
3
 72
17
 73
13
 74
0
 42
0.0000001
 43
0.0000001
 44
0.0000000001
 40
0.0
 40
0.0
 40
0.0
 40
0.0
 40
0.2151809084
 40
0.4057216206
 40
0.570139152
 40
0.7071186835
 40
0.8162212039
 40
0.8983387874
 40
0.9301123717
 40
0.956584584
 40
0.9791381199
 40
1.0
 40
1.0
 40
1.0
 40
1.0
 10
7.3008243546
 20
21.4450237261
 30
0.0
 10
7.3006466407
 20
21.4453899264
 30
0.0
 10
7.3003199666
 20
21.4460845322
 30
0.0
 10
7.2998919011
 20
21.447074708
 30
0.0
 10
7.299557571
 20
21.4479434089
 30
0.0
 10
7.2993192883
 20
21.4486833191
 30
0.0
 10
7.2991789325
 20
21.4492885027
 30
0.0
 10
7.29913665
 20
21.4497113718
 30
0.0
 10
7.2991639136
 20
21.4499765158
 30
0.0
 10
7.299208128
 20
21.4501241734
 30
0.0
 10
7.2992800543
 20
21.4502377516
 30
0.0
 10
7.2993479283
 20
21.4502879435
 30
0.0
 10
7.2993834759
 20
21.4503050814
 30
0.0
  0
SPLINE
  5
3B2
100
AcDbEntity
  8
0
100
AcDbSpline
 62
7
  6
CONTINUOUS
 70
0
 71
3
 72
18
 73
14
 74
0
 42
0.0000001
 43
0.0000001
 44
0.0000000001
 40
0.0
 40
0.0
 40
0.0
 40
0.0
 40
0.2140919679
 40
0.4046382211
 40
0.5696226812
 40
0.7073151907
 40
0.8172103946
 40
0.8618787421
 40
0.8998977152
 40
0.9316365215
 40
0.9578345323
 40
0.979874875
 40
1.0
 40
1.0
 40
1.0
 40
1.0
 10
7.5114489826
 20
21.2736908133
 30
0.0
 10
7.5112283137
 20
21.2741455276
 30
0.0
 10
7.510821553
 20
21.27501004
 30
0.0
 10
7.5102866512
 20
21.2762440937
 30
0.0
 10
7.5098655658
 20
21.2773302108
 30
0.0
 10
7.5095635126
 20
21.278256662
 30
0.0
 10
7.5094009332
 20
21.2789287488
 30
0.0
 10
7.5093404315
 20
21.279379801
 30
0.0
 10
7.5093288969
 20
21.279650189
 30
0.0
 10
7.5093478886
 20
21.2798767661
 30
0.0
 10
7.509398313
 20
21.2800603113
 30
0.0
 10
7.5094827815
 20
21.280201095
 30
0.0
 10
7.5095643747
 20
21.2802632126
 30
0.0
 10
7.5096071124
 20
21.2802839694
 30
0.0
  0
SPLINE
  5
3B3
100
AcDbEntity
  8
0
100
AcDbSpline
 62
7
  6
CONTINUOUS
 70
0
 71
3
 72
17
 73
13
 74
0
 42
0.0000001
 43
0.0000001
 44
0.0000000001
 40
0.0
 40
0.0
 40
0.0
 40
0.0
 40
0.218177728
 40
0.4097051921
 40
0.5739193996
 40
0.7102985237
 40
0.8186228264
 40
0.8996697886
 40
0.9309295068
 40
0.9569864042
 40
0.9792702174
 40
1.0
 40
1.0
 40
1.0
 40
1.0
 10
7.5590112024
 20
21.1756832674
 30
0.0
 10
7.558908152
 20
21.1758956148
 30
0.0
 10
7.5587191036
 20
21.1762965687
 30
0.0
 10
7.55847115
 20
21.1768659361
 30
0.0
 10
7.5582778039
 20
21.1773621167
 30
0.0
 10
7.5581394899
 20
21.1777827828
 30
0.0
 10
7.5580569017
 20
21.1781255904
 30
0.0
 10
7.5580311418
 20
21.1783647263
 30
0.0
 10
7.558045855
 20
21.1785142891
 30
0.0
 10
7.5580706474
 20
21.178597535
 30
0.0
 10
7.5581113059
 20
21.1786617306
 30
0.0
 10
7.5581497212
 20
21.1786902018
 30
0.0
 10
7.5581698904
 20
21.1787000066
 30
0.0
  0
SPLINE
  5
3B4
100
AcDbEntity
  8
0
100
AcDbSpline
 62
7
  6
CONTINUOUS
 70
0
 71
3
 72
19
 73
15
 74
0
 42
0.0000001
 43
0.0000001
 44
0.0000000001
 40
0.0
 40
0.0
 40
0.0
 40
0.0
 40
0.201276384
 40
0.3875222122
 40
0.5534921049
 40
0.6956667436
 40
0.7569434515
 40
0.8113618042
 40
0.8587800154
 40
0.8991348065
 40
0.9325536145
 40
0.9595693558
 40
0.981313464
 40
1.0
 40
1.0
 40
1.0
 40
1.0
 10
7.2386687637
 20
21.5731026289
 30
0.0
 10
7.2381811645
 20
21.5741073844
 30
0.0
 10
7.2372720571
 20
21.5760564647
 30
0.0
 10
7.2360705367
 20
21.5788836649
 30
0.0
 10
7.2351051418
 20
21.581452293
 30
0.0
 10
7.2344851618
 20
21.5834077985
 30
0.0
 10
7.2341338177
 20
21.5847952528
 30
0.0
 10
7.2339530444
 20
21.5856824999
 30
0.0
 10
7.2338416234
 20
21.5864641748
 30
0.0
 10
7.2337996135
 20
21.5871362501
 30
0.0
 10
7.2338271446
 20
21.5876964964
 30
0.0
 10
7.2339242856
 20
21.588144913
 30
0.0
 10
7.2340950825
 20
21.5884849702
 30
0.0
 10
7.2342736193
 20
21.5886348958
 30
0.0
 10
7.2343669085
 20
21.5886801491
 30
0.0
  0
SPLINE
  5
3B5
100
AcDbEntity
  8
0
100
AcDbSpline
 62
7
  6
CONTINUOUS
 70
0
 71
3
 72
21
 73
17
 74
0
 42
0.0000001
 43
0.0000001
 44
0.0000000001
 40
0.0
 40
0.0
 40
0.0
 40
0.0
 40
0.1759072718
 40
0.3526512826
 40
0.5207894072
 40
0.59907036
 40
0.6722318874
 40
0.7393769689
 40
0.7997868465
 40
0.852843061
 40
0.8980146261
 40
0.9175573803
 40
0.9350480695
 40
0.9504913836
 40
0.9639212662
 40
1.0
 40
1.0
 40
1.0
 40
1.0
 10
7.1637412461
 20
21.7274995885
 30
0.0
 10
7.1629833929
 20
21.7290612341
 30
0.0
 10
7.1615345645
 20
21.7322265771
 30
0.0
 10
7.1595870795
 20
21.7369836903
 30
0.0
 10
7.1581666732
 20
21.7409120435
 30
0.0
 10
7.1572022453
 20
21.7439148185
 30
0.0
 10
7.1565965291
 20
21.7459853088
 30
0.0
 10
7.1560980331
 20
21.7479025454
 30
0.0
 10
7.1557114053
 20
21.7496428204
 30
0.0
 10
7.1554398796
 20
21.7511851416
 30
0.0
 10
7.1553051145
 20
21.7523403684
 30
0.0
 10
7.1552640662
 20
21.7531511773
 30
0.0
 10
7.1552645054
 20
21.7536683459
 30
0.0
 10
7.1552959345
 20
21.7541282176
 30
0.0
 10
7.1553890493
 20
21.7547482628
 30
0.0
 10
7.1555975762
 20
21.7552967335
 30
0.0
 10
7.1559176536
 20
21.755452617
 30
0.0
  0
LINE
  5
3B6
100
AcDbEntity
  8
0
100
AcDbLine
 62
7
  6
CONTINUOUS
 10
7.0107326836
 20
22.3054756183
 11
7.0096526119
 21
22.3081614434
  0
SPLINE
  5
3B7
100
AcDbEntity
  8
0
100
AcDbSpline
 62
7
  6
CONTINUOUS
 70
0
 71
3
 72
15
 73
11
 74
0
 42
0.0000001
 43
0.0000001
 44
0.0000000001
 40
0.0
 40
0.0
 40
0.0
 40
0.0
 40
0.0930783521
 40
0.2099361084
 40
0.3437845391
 40
0.4870715243
 40
0.6319459427
 40
0.770601252
 40
0.8955730055
 40
1.0
 40
1.0
 40
1.0
 40
1.0
 10
7.0096526119
 20
22.3081614434
 30
0.0
 10
7.0092504311
 20
22.3092648888
 30
0.0
 10
7.0083926164
 20
22.3117715331
 30
0.0
 10
7.0070629916
 20
22.3159006415
 30
0.0
 10
7.0056012557
 20
22.3206523995
 30
0.0
 10
7.0040877031
 20
22.3257577155
 30
0.0
 10
7.0026042865
 20
22.3309349935
 30
0.0
 10
7.0012303272
 20
22.3359030284
 30
0.0
 10
7.0000404899
 20
22.3403921634
 30
0.0
 10
6.9993378872
 20
22.3432003465
 30
0.0
 10
6.9990346528
 20
22.3444826294
 30
0.0
  0
SPLINE
  5
3B8
100
AcDbEntity
  8
0
100
AcDbSpline
 62
7
  6
CONTINUOUS
 70
0
 71
3
 72
16
 73
12
 74
0
 42
0.0000001
 43
0.0000001
 44
0.0000000001
 40
0.0
 40
0.0
 40
0.0
 40
0.0
 40
0.2214909795
 40
0.4176080831
 40
0.5869719857
 40
0.728225626
 40
0.840288505
 40
0.9226048942
 40
0.9749984708
 40
0.990409058
 40
1.0
 40
1.0
 40
1.0
 40
1.0
 10
6.9990346528
 20
22.3444826294
 30
0.0
 10
6.9989452406
 20
22.3448607254
 30
0.0
 10
6.9987795803
 20
22.3455743079
 30
0.0
 10
6.9985576091
 20
22.346579721
 30
0.0
 10
6.998378196
 20
22.3474504239
 30
0.0
 10
6.9982428796
 20
22.348179255
 30
0.0
 10
6.9981520582
 20
22.3487616538
 30
0.0
 10
6.9981064182
 20
22.3491910459
 30
0.0
 10
6.998100918
 20
22.349457293
 30
0.0
 10
6.9981264872
 20
22.3495898991
 30
0.0
 10
6.9981530662
 20
22.3496298974
 30
0.0
 10
6.998168297
 20
22.3496370431
 30
0.0
  0
SPLINE
  5
3B9
100
AcDbEntity
  8
0
100
AcDbSpline
 62
7
  6
CONTINUOUS
 70
0
 71
3
 72
15
 73
11
 74
0
 42
0.0000001
 43
0.0000001
 44
0.0000000001
 40
0.0
 40
0.0
 40
0.0
 40
0.0
 40
0.1054769567
 40
0.2267164842
 40
0.3586493384
 40
0.496210744
 40
0.634139859
 40
0.7672492664
 40
0.8906749416
 40
1.0
 40
1.0
 40
1.0
 40
1.0
 10
7.0988125596
 20
21.861292781
 30
0.0
 10
7.0983077564
 20
21.8623329872
 30
0.0
 10
7.0972863354
 20
21.8645997304
 30
0.0
 10
7.0958020796
 20
21.8682408424
 30
0.0
 10
7.094302602
 20
21.8722535662
 30
0.0
 10
7.0928444458
 20
21.876475376
 30
0.0
 10
7.0914799832
 20
21.8807419095
 30
0.0
 10
7.0902577234
 20
21.8848900759
 30
0.0
 10
7.0892196764
 20
21.8887643259
 30
0.0
 10
7.0886311854
 20
21.8912475423
 30
0.0
 10
7.0883796099
 20
21.8924192457
 30
0.0
  0
SPLINE
  5
3BA
100
AcDbEntity
  8
0
100
AcDbSpline
 62
7
  6
CONTINUOUS
 70
0
 71
3
 72
18
 73
14
 74
0
 42
0.0000001
 43
0.0000001
 44
0.0000000001
 40
0.0
 40
0.0
 40
0.0
 40
0.0
 40
0.2097802178
 40
0.3975362543
 40
0.5615802209
 40
0.7003738363
 40
0.8129917568
 40
0.859367601
 40
0.8991347525
 40
0.932433441
 40
0.9596493143
 40
0.9816298615
 40
1.0
 40
1.0
 40
1.0
 40
1.0
 10
7.0883796099
 20
21.8924192457
 30
0.0
 10
7.088266598
 20
21.8929455947
 30
0.0
 10
7.0880621854
 20
21.893945183
 30
0.0
 10
7.0878087756
 20
21.8953640369
 30
0.0
 10
7.0876266781
 20
21.8966101049
 30
0.0
 10
7.0875182713
 20
21.8976710494
 30
0.0
 10
7.0874868404
 20
21.8984355823
 30
0.0
 10
7.0875063339
 20
21.8989455642
 30
0.0
 10
7.0875390684
 20
21.8992506441
 30
0.0
 10
7.087590708
 20
21.8995033116
 30
0.0
 10
7.0876618937
 20
21.8997037277
 30
0.0
 10
7.0877535019
 20
21.8998531014
 30
0.0
 10
7.0878361818
 20
21.8999205212
 30
0.0
 10
7.0878785865
 20
21.8999411177
 30
0.0
  0
SPLINE
  5
3BB
100
AcDbEntity
  8
0
100
AcDbSpline
 62
7
  6
CONTINUOUS
 70
0
 71
3
 72
43
 73
39
 74
0
 42
0.0000001
 43
0.0000001
 44
0.0000000001
 40
0.0
 40
0.0
 40
0.0
 40
0.0
 40
0.0001970266
 40
0.000673369
 40
0.0014402813
 40
0.0024991087
 40
0.0038497855
 40
0.0054918385
 40
0.0096474379
 40
0.01496015
 40
0.0214229679
 40
0.0290181929
 40
0.03772033
 40
0.0475036601
 40
0.0583424375
 40
0.0830832574
 40
0.1117126819
 40
0.1439269064
 40
0.1794079533
 40
0.2178306697
 40
0.2588235278
 40
0.3019964957
 40
0.3933017669
 40
0.4884390428
 40
0.5840135761
 40
0.6766124509
 40
0.7629022885
 40
0.8396836305
 40
0.8735925049
 40
0.9040505395
 40
0.9307526541
 40
0.9534484739
 40
0.9718916364
 40
0.9858743035
 40
0.9911549038
 40
0.9952774369
 40
0.9982293242
 40
1.0
 40
1.0
 40
1.0
 40
1.0
 10
7.4873239346
 20
21.2067915574
 30
0.0
 10
7.4873210995
 20
21.2067903899
 30
0.0
 10
7.4873112372
 20
21.2067993331
 30
0.0
 10
7.4872962507
 20
21.2068126137
 30
0.0
 10
7.4872715162
 20
21.2068403653
 30
0.0
 10
7.4872396072
 20
21.206877354
 30
0.0
 10
7.4871993802
 20
21.2069261977
 30
0.0
 10
7.4871296961
 20
21.2070127728
 30
0.0
 10
7.4870231236
 20
21.207149014
 30
0.0
 10
7.4868722093
 20
21.2073456679
 30
0.0
 10
7.4866902406
 20
21.2075860061
 30
0.0
 10
7.4864777008
 20
21.2078693319
 30
0.0
 10
7.4862352181
 20
21.2081947951
 30
0.0
 10
7.4859634953
 20
21.2085614133
 30
0.0
 10
7.485544277
 20
21.2091293809
 30
0.0
 10
7.4849528581
 20
21.2099347581
 30
0.0
 10
7.4841668089
 20
21.2110098999
 30
0.0
 10
7.4832838957
 20
21.2122212629
 30
0.0
 10
7.4823126223
 20
21.2135568075
 30
0.0
 10
7.4812621082
 20
21.2150036403
 30
0.0
 10
7.4801421194
 20
21.2165479528
 30
0.0
 10
7.4785398629
 20
21.2187590895
 30
0.0
 10
7.4764443261
 20
21.2216533204
 30
0.0
 10
7.4738714327
 20
21.2252086896
 30
0.0
 10
7.4712871592
 20
21.2287806724
 30
0.0
 10
7.4687843207
 20
21.2322416358
 30
0.0
 10
7.4664543276
 20
21.2354666805
 30
0.0
 10
7.4646615703
 20
21.2379531219
 30
0.0
 10
7.4633796249
 20
21.2397367337
 30
0.0
 10
7.4625541186
 20
21.2408886763
 30
0.0
 10
7.4618322445
 20
21.2419002054
 30
0.0
 10
7.4612213455
 20
21.2427612325
 30
0.0
 10
7.4607280221
 20
21.2434629603
 30
0.0
 10
7.4603937017
 20
21.2439452148
 30
0.0
 10
7.460189718
 20
21.2442465756
 30
0.0
 10
7.4600834602
 20
21.2444068644
 30
0.0
 10
7.4600098935
 20
21.2445231163
 30
0.0
 10
7.4599720938
 20
21.2445863052
 30
0.0
 10
7.4599600635
 20
21.2446110951
 30
0.0
  0
SPLINE
  5
3BC
100
AcDbEntity
  8
0
100
AcDbSpline
 62
7
  6
CONTINUOUS
 70
0
 71
3
 72
19
 73
15
 74
0
 42
0.0000001
 43
0.0000001
 44
0.0000000001
 40
0.0
 40
0.0
 40
0.0
 40
0.0
 40
0.0115904205
 40
0.0285167146
 40
0.0522450494
 40
0.0832543996
 40
0.1217007559
 40
0.167550838
 40
0.2207032107
 40
0.2810307167
 40
0.4226333633
 40
0.5910020549
 40
0.7841660698
 40
1.0
 40
1.0
 40
1.0
 40
1.0
 10
7.4682459427
 20
21.2453559053
 30
0.0
 10
7.4682178408
 20
21.2453423312
 30
0.0
 10
7.4681356375
 20
21.2453412248
 30
0.0
 10
7.4680048198
 20
21.2453940714
 30
0.0
 10
7.4678389083
 20
21.2454939851
 30
0.0
 10
7.4676386061
 20
21.245645417
 30
0.0
 10
7.4674028881
 20
21.2458477093
 30
0.0
 10
7.4671328102
 20
21.2461008642
 30
0.0
 10
7.4668291144
 20
21.246403961
 30
0.0
 10
7.4663547952
 20
21.2469007884
 30
0.0
 10
7.465687596
 20
21.247641987
 30
0.0
 10
7.4648064169
 20
21.2486711048
 30
0.0
 10
7.4638169316
 20
21.2498702692
 30
0.0
 10
7.4631280786
 20
21.2507295463
 30
0.0
 10
7.4627670817
 20
21.251184986
 30
0.0
  0
SPLINE
  5
3BD
100
AcDbEntity
  8
0
100
AcDbSpline
 62
7
  6
CONTINUOUS
 70
0
 71
3
 72
14
 73
10
 74
0
 42
0.0000001
 43
0.0000001
 44
0.0000000001
 40
0.0
 40
0.0
 40
0.0
 40
0.0
 40
0.112592859
 40
0.2385879217
 40
0.5118029075
 40
0.6488573642
 40
0.7792574296
 40
0.8978689283
 40
1.0
 40
1.0
 40
1.0
 40
1.0
 10
7.4627670817
 20
21.251184986
 30
0.0
 10
7.4619980539
 20
21.2521552042
 30
0.0
 10
7.4603919615
 20
21.2542297821
 30
0.0
 10
7.4570177715
 20
21.2587338133
 30
0.0
 10
7.4535767451
 20
21.2635232016
 30
0.0
 10
7.4501956847
 20
21.2684132862
 30
0.0
 10
7.4478298166
 20
21.2719381561
 30
0.0
 10
7.4457307342
 20
21.2751789533
 30
0.0
 10
7.4444542854
 20
21.2772438421
 30
0.0
 10
7.443880523
 20
21.2782092042
 30
0.0
  0
LINE
  5
3BE
100
AcDbEntity
  8
0
100
AcDbLine
 62
7
  6
CONTINUOUS
 10
7.443880523
 20
21.2782092042
 11
7.4420195722
 21
21.2815795868
  0
SPLINE
  5
3BF
100
AcDbEntity
  8
0
100
AcDbSpline
 62
7
  6
CONTINUOUS
 70
0
 71
3
 72
18
 73
14
 74
0
 42
0.0000001
 43
0.0000001
 44
0.0000000001
 40
0.0
 40
0.0
 40
0.0
 40
0.0
 40
0.0190189147
 40
0.041524872
 40
0.0691275885
 40
0.1026895481
 40
0.1426072201
 40
0.1890399745
 40
0.3015505113
 40
0.4400239161
 40
0.60359559
 40
0.7907935468
 40
1.0
 40
1.0
 40
1.0
 40
1.0
 10
7.4215748736
 20
21.3396854409
 30
0.0
 10
7.4215317321
 20
21.339664495
 30
0.0
 10
7.4214269363
 20
21.3396398443
 30
0.0
 10
7.4212516359
 20
21.3396569362
 30
0.0
 10
7.4210495457
 20
21.3397209479
 30
0.0
 10
7.4208193537
 20
21.3398316873
 30
0.0
 10
7.4205605448
 20
21.3399886694
 30
0.0
 10
7.4201510109
 20
21.3402785451
 30
0.0
 10
7.419575643
 20
21.3407611956
 30
0.0
 10
7.418818658
 20
21.3414825826
 30
0.0
 10
7.4179647209
 20
21.3423734066
 30
0.0
 10
7.4170217868
 20
21.3434246739
 30
0.0
 10
7.4163740298
 20
21.3441860932
 30
0.0
 10
7.4160363568
 20
21.3445913871
 30
0.0
  0
SPLINE
  5
3C0
100
AcDbEntity
  8
0
100
AcDbSpline
 62
7
  6
CONTINUOUS
 70
0
 71
3
 72
15
 73
11
 74
0
 42
0.0000001
 43
0.0000001
 44
0.0000000001
 40
0.0
 40
0.0
 40
0.0
 40
0.0
 40
0.1084270342
 40
0.2311024607
 40
0.3636796395
 40
0.5013523665
 40
0.6389758228
 40
0.7713230773
 40
0.8933538493
 40
1.0
 40
1.0
 40
1.0
 40
1.0
 10
7.4160363568
 20
21.3445913871
 30
0.0
 10
7.4152775384
 20
21.3455021633
 30
0.0
 10
7.4137037769
 20
21.3474797732
 30
0.0
 10
7.411324171
 20
21.3506658524
 30
0.0
 10
7.4088432629
 20
21.354173596
 30
0.0
 10
7.4063552569
 20
21.3578748871
 30
0.0
 10
7.4039560352
 20
21.3616313725
 30
0.0
 10
7.4017401282
 20
21.3653005739
 30
0.0
 10
7.3997981677
 20
21.3687375998
 30
0.0
 10
7.3986453752
 20
21.3709572193
 30
0.0
 10
7.3981363083
 20
21.3720062115
 30
0.0
  0
SPLINE
  5
3C1
100
AcDbEntity
  8
0
100
AcDbSpline
 62
7
  6
CONTINUOUS
 70
0
 71
3
 72
20
 73
16
 74
0
 42
0.0000001
 43
0.0000001
 44
0.0000000001
 40
0.0
 40
0.0
 40
0.0
 40
0.0
 40
0.0090251767
 40
0.0184642058
 40
0.040108565
 40
0.0672715852
 40
0.1010049304
 40
0.141779434
 40
0.1897345618
 40
0.2447462072
 40
0.30659872
 40
0.4496757787
 40
0.615876062
 40
0.8012240753
 40
1.0
 40
1.0
 40
1.0
 40
1.0
 10
7.1742392918
 20
21.7132140545
 30
0.0
 10
7.1741899436
 20
21.713190026
 30
0.0
 10
7.1740826297
 20
21.7131529385
 30
0.0
 10
7.1738380024
 20
21.7131286773
 30
0.0
 10
7.1734846598
 20
21.713205904
 30
0.0
 10
7.1730346719
 20
21.7134338775
 30
0.0
 10
7.1725322619
 20
21.7137974973
 30
0.0
 10
7.1719791003
 20
21.7142975883
 30
0.0
 10
7.1713774233
 20
21.7149326452
 30
0.0
 10
7.1707309064
 20
21.7156991908
 30
0.0
 10
7.1697676628
 20
21.7169532311
 30
0.0
 10
7.1684972502
 20
21.7188208909
 30
0.0
 10
7.1669363459
 20
21.7213933957
 30
0.0
 10
7.1653226164
 20
21.7243264605
 30
0.0
 10
7.1642690342
 20
21.726412019
 30
0.0
 10
7.1637412461
 20
21.7274995885
 30
0.0
  0
SPLINE
  5
3C2
100
AcDbEntity
  8
0
100
AcDbSpline
 62
7
  6
CONTINUOUS
 70
0
 71
3
 72
19
 73
15
 74
0
 42
0.0000001
 43
0.0000001
 44
0.0000000001
 40
0.0
 40
0.0
 40
0.0
 40
0.0
 40
0.01906676
 40
0.0416789712
 40
0.0696419898
 40
0.1038091564
 40
0.1445570167
 40
0.1920320907
 40
0.2462506102
 40
0.3070781511
 40
0.4476798153
 40
0.6118921908
 40
0.7970486506
 40
1.0
 40
1.0
 40
1.0
 40
1.0
 10
7.3535022142
 20
21.4772428344
 30
0.0
 10
7.3534241952
 20
21.477204875
 30
0.0
 10
7.3532329561
 20
21.4771626269
 30
0.0
 10
7.3529152727
 20
21.4772073792
 30
0.0
 10
7.3525527352
 20
21.4773443629
 30
0.0
 10
7.3521425448
 20
21.4775722492
 30
0.0
 10
7.3516846164
 20
21.4778903646
 30
0.0
 10
7.3511802927
 20
21.4782982224
 30
0.0
 10
7.350631675
 20
21.4787945977
 30
0.0
 10
7.349803527
 20
21.4796119993
 30
0.0
 10
7.3486831553
 20
21.4808436098
 30
0.0
 10
7.347263765
 20
21.4825637794
 30
0.0
 10
7.3457377969
 20
21.484561466
 30
0.0
 10
7.3447094706
 20
21.4859976358
 30
0.0
 10
7.3441816961
 20
21.4867555035
 30
0.0
  0
SPLINE
  5
3C3
100
AcDbEntity
  8
0
100
AcDbSpline
 62
7
  6
CONTINUOUS
 70
0
 71
3
 72
11
 73
7
 74
0
 42
0.0000001
 43
0.0000001
 44
0.0000000001
 40
0.0
 40
0.0
 40
0.0
 40
0.0
 40
0.2419167139
 40
0.4974194011
 40
0.7545235641
 40
1.0
 40
1.0
 40
1.0
 40
1.0
 10
7.3441816961
 20
21.4867555035
 30
0.0
 10
7.3432661115
 20
21.4880702541
 30
0.0
 10
7.3414435209
 20
21.4908156503
 30
0.0
 10
7.3388357193
 20
21.495079411
 30
0.0
 10
7.3363721638
 20
21.4994551966
 30
0.0
 10
7.3348494698
 20
21.5024161831
 30
0.0
 10
7.3341396873
 20
21.5038787733
 30
0.0
  0
SPLINE
  5
3C4
100
AcDbEntity
  8
0
100
AcDbSpline
 62
7
  6
CONTINUOUS
 70
0
 71
3
 72
21
 73
17
 74
0
 42
0.0000001
 43
0.0000001
 44
0.0000000001
 40
0.0
 40
0.0
 40
0.0
 40
0.0
 40
0.0084789686
 40
0.0175475136
 40
0.0276574156
 40
0.039124904
 40
0.0668537484
 40
0.1016890444
 40
0.143941792
 40
0.1935448103
 40
0.2502736515
 40
0.3138347935
 40
0.4595312358
 40
0.6261509668
 40
0.8083678757
 40
1.0
 40
1.0
 40
1.0
 40
1.0
 10
7.2730596691
 20
21.6397513082
 30
0.0
 10
7.2730025708
 20
21.6397235044
 30
0.0
 10
7.2728759218
 20
21.6396820972
 30
0.0
 10
7.2726674239
 20
21.6396691704
 30
0.0
 10
7.2724389962
 20
21.6397023334
 30
0.0
 10
7.2720856114
 20
21.6398136028
 30
0.0
 10
7.2715942585
 20
21.6400793357
 30
0.0
 10
7.2709635182
 20
21.6405488204
 30
0.0
 10
7.2702603682
 20
21.641187847
 30
0.0
 10
7.2694899456
 20
21.6419917671
 30
0.0
 10
7.2686583441
 20
21.6429555837
 30
0.0
 10
7.2674209432
 20
21.6445175256
 30
0.0
 10
7.2657894192
 20
21.6468141837
 30
0.0
 10
7.2637943946
 20
21.6499363526
 30
0.0
 10
7.261755158
 20
21.6534345095
 30
0.0
 10
7.2604339692
 20
21.6559041451
 30
0.0
 10
7.2597784438
 20
21.6571810469
 30
0.0
  0
SPLINE
  5
3C5
100
AcDbEntity
  8
0
100
AcDbSpline
 62
7
  6
CONTINUOUS
 70
0
 71
3
 72
37
 73
33
 74
0
 42
0.0000001
 43
0.0000001
 44
0.0000000001
 40
0.0
 40
0.0
 40
0.0
 40
0.0
 40
0.0965008903
 40
0.1922804174
 40
0.2863197019
 40
0.377730485
 40
0.4656306435
 40
0.5491616511
 40
0.6275246979
 40
0.6999754623
 40
0.7658246057
 40
0.796080274
 40
0.8244585453
 40
0.8508953242
 40
0.8753306988
 40
0.897705415
 40
0.9179693566
 40
0.9360797513
 40
0.951994423
 40
0.9656780775
 40
0.9716750094
 40
0.9771044679
 40
0.9819634363
 40
0.9862490994
 40
0.9899600934
 40
0.9930970314
 40
0.995661563
 40
0.997657357
 40
0.9984446162
 40
0.999094027
 40
0.9996096818
 40
1.0
 40
1.0
 40
1.0
 40
1.0
 10
8.4309451319
 20
15.7736977779
 30
0.0
 10
8.4184755976
 20
15.7734571081
 30
0.0
 10
8.3936296515
 20
15.772982239
 30
0.0
 10
8.3566322581
 20
15.7722724903
 30
0.0
 10
8.3202928626
 20
15.7715614264
 30
0.0
 10
8.2849719593
 20
15.7708525323
 30
0.0
 10
8.2510094016
 20
15.7701453188
 30
0.0
 10
8.2187335009
 20
15.769439255
 30
0.0
 10
8.1884547482
 20
15.7687352698
 30
0.0
 10
8.1604618154
 20
15.768033786
 30
0.0
 10
8.1386857225
 20
15.7674359108
 30
0.0
 10
8.1226046439
 20
15.7669536913
 30
0.0
 10
8.1116156321
 20
15.7666025706
 30
0.0
 10
8.1013792359
 20
15.7662518507
 30
0.0
 10
8.0919192124
 20
15.7659017006
 30
0.0
 10
8.0832575347
 20
15.7655522424
 30
0.0
 10
8.0754139969
 20
15.7652035435
 30
0.0
 10
8.0684062212
 20
15.7648557702
 30
0.0
 10
8.0622500218
 20
15.7645088587
 30
0.0
 10
8.0576593236
 20
15.764209263
 30
0.0
 10
8.054423167
 20
15.7639662448
 30
0.0
 10
8.052325594
 20
15.7637924637
 30
0.0
 10
8.0504499824
 20
15.7636191643
 30
0.0
 10
8.0487974523
 20
15.7634464801
 30
0.0
 10
8.0473687937
 20
15.7632744686
 30
0.0
 10
8.0461642372
 20
15.7631033822
 30
0.0
 10
8.0451840081
 20
15.7629331249
 30
0.0
 10
8.0445085971
 20
15.7627836533
 30
0.0
 10
8.0440827533
 20
15.7626588365
 30
0.0
 10
8.0438451638
 20
15.7625729495
 30
0.0
 10
8.0436630181
 20
15.7624875086
 30
0.0
 10
8.0435645692
 20
15.7624220158
 30
0.0
 10
8.0435275163
 20
15.7623877844
 30
0.0
  0
SPLINE
  5
3C6
100
AcDbEntity
  8
0
100
AcDbSpline
 62
7
  6
CONTINUOUS
 70
0
 71
3
 72
48
 73
44
 74
0
 42
0.0000001
 43
0.0000001
 44
0.0000000001
 40
0.0
 40
0.0
 40
0.0
 40
0.0
 40
0.0082718953
 40
0.0174494457
 40
0.0384285091
 40
0.0627501889
 40
0.0902261083
 40
0.1206672538
 40
0.1538802543
 40
0.1896124414
 40
0.2275658649
 40
0.3089395095
 40
0.3955941218
 40
0.4849343245
 40
0.5742211521
 40
0.6179901937
 40
0.6607422791
 40
0.7021652541
 40
0.7419470375
 40
0.7797756025
 40
0.8153401504
 40
0.8483715807
 40
0.878653289
 40
0.9059722401
 40
0.9301157863
 40
0.9508719715
 40
0.9599172594
 40
0.9680555134
 40
0.9752788972
 40
0.9815799337
 40
0.9869517615
 40
0.9892874315
 40
0.9913888223
 40
0.9932556142
 40
0.9948878215
 40
0.9962860199
 40
0.9974517993
 40
0.9983887688
 40
0.9991051057
 40
0.9993865732
 40
0.9996228055
 40
0.9998225103
 40
1.0
 40
1.0
 40
1.0
 40
1.0
 10
8.775477127
 20
15.7824658636
 30
0.0
 10
8.7735186848
 20
15.7822911339
 30
0.0
 10
8.7693853371
 20
15.7819453096
 30
0.0
 10
8.7602767325
 20
15.781258147
 30
0.0
 10
8.7473545355
 20
15.7804140502
 30
0.0
 10
8.7300831334
 20
15.7794361345
 30
0.0
 10
8.7105595663
 20
15.7784555699
 30
0.0
 10
8.6889202794
 20
15.7774729016
 30
0.0
 10
8.6653166662
 20
15.7764898084
 30
0.0
 10
8.6399259949
 20
15.7755060552
 30
0.0
 10
8.6030930632
 20
15.7741617369
 30
0.0
 10
8.5541594032
 20
15.7725045118
 30
0.0
 10
8.4930142048
 20
15.7705558189
 30
0.0
 10
8.4299871646
 20
15.7686061786
 30
0.0
 10
8.3771491369
 20
15.7669707881
 30
0.0
 10
8.335380724
 20
15.7656471413
 30
0.0
 10
8.3049845226
 20
15.764661081
 30
0.0
 10
8.275536587
 20
15.7636754166
 30
0.0
 10
8.247259628
 20
15.7626902508
 30
0.0
 10
8.2203760653
 20
15.7617058466
 30
0.0
 10
8.1950981733
 20
15.7607218268
 30
0.0
 10
8.1716155963
 20
15.7597381074
 30
0.0
 10
8.1500947823
 20
15.758755845
 30
0.0
 10
8.1306888859
 20
15.7577758183
 30
0.0
 10
8.1135502815
 20
15.7567986612
 30
0.0
 10
8.1007550935
 20
15.755954674
 30
0.0
 10
8.0917630784
 20
15.7552663551
 30
0.0
 10
8.0859823749
 20
15.7547745776
 30
0.0
 10
8.0808564885
 20
15.7542837881
 30
0.0
 10
8.0763914852
 20
15.7537941299
 30
0.0
 10
8.0730884049
 20
15.7533704405
 30
0.0
 10
8.0707823691
 20
15.7530258131
 30
0.0
 10
8.0693041909
 20
15.7527798266
 30
0.0
 10
8.0679957197
 20
15.7525342423
 30
0.0
 10
8.0668575432
 20
15.7522891927
 30
0.0
 10
8.0658902799
 20
15.7520448782
 30
0.0
 10
8.0650937541
 20
15.7518017267
 30
0.0
 10
8.0644683996
 20
15.7515598881
 30
0.0
 10
8.0640585147
 20
15.7513458634
 30
0.0
 10
8.0638247172
 20
15.751167388
 30
0.0
 10
8.0637063009
 20
15.7510433384
 30
0.0
 10
8.0636305183
 20
15.7509168659
 30
0.0
 10
8.0636101252
 20
15.7508274205
 30
0.0
 10
8.0636085743
 20
15.7507852599
 30
0.0
  0
SPLINE
  5
3C7
100
AcDbEntity
  8
0
100
AcDbSpline
 62
7
  6
CONTINUOUS
 70
0
 71
3
 72
18
 73
14
 74
0
 42
0.0000001
 43
0.0000001
 44
0.0000000001
 40
0.0
 40
0.0
 40
0.0
 40
0.0
 40
0.1817828283
 40
0.3499161491
 40
0.502933799
 40
0.6394993869
 40
0.7584299486
 40
0.8109494094
 40
0.8586932022
 40
0.9015595607
 40
0.9394535383
 40
0.9722932902
 40
1.0
 40
1.0
 40
1.0
 40
1.0
 10
8.6608825273
 20
15.7352997366
 30
0.0
 10
8.6709644106
 20
15.7356423081
 30
0.0
 10
8.6903704869
 20
15.7363218987
 30
0.0
 10
8.7182599739
 20
15.7373766172
 30
0.0
 10
8.7436383645
 20
15.7384293585
 30
0.0
 10
8.7662837636
 20
15.7394812945
 30
0.0
 10
8.7833527451
 20
15.7403865563
 30
0.0
 10
8.7954943845
 20
15.741120661
 30
0.0
 10
8.8034195935
 20
15.7416486374
 30
0.0
 10
8.8105310701
 20
15.7421785322
 30
0.0
 10
8.8168127372
 20
15.7427106713
 30
0.0
 10
8.8222500866
 20
15.7432384918
 30
0.0
 10
8.8255890481
 20
15.7436152981
 30
0.0
 10
8.8271147256
 20
15.7438058627
 30
0.0
  0
SPLINE
  5
3C8
100
AcDbEntity
  8
0
100
AcDbSpline
 62
7
  6
CONTINUOUS
 70
0
 71
3
 72
19
 73
15
 74
0
 42
0.0000001
 43
0.0000001
 44
0.0000000001
 40
0.0
 40
0.0
 40
0.0
 40
0.0
 40
0.1989983625
 40
0.3665236131
 40
0.5050127048
 40
0.564465903
 40
0.6181628587
 40
0.7118092712
 40
0.7548026886
 40
0.7974261341
 40
0.841607269
 40
0.8891457028
 40
0.9415494911
 40
1.0
 40
1.0
 40
1.0
 40
1.0
 10
8.8271147256
 20
15.7438058627
 30
0.0
 10
8.8276469862
 20
15.744026945
 30
0.0
 10
8.8286139361
 20
15.7444689078
 30
0.0
 10
8.8298809001
 20
15.7452046577
 30
0.0
 10
8.8307251814
 20
15.7458509161
 30
0.0
 10
8.831235495
 20
15.7463735285
 30
0.0
 10
8.8316023557
 20
15.7468474222
 30
0.0
 10
8.8318495401
 20
15.7473544869
 30
0.0
 10
8.8319268693
 20
15.7478714894
 30
0.0
 10
8.8319031507
 20
15.7482495064
 30
0.0
 10
8.8317984305
 20
15.7486268855
 30
0.0
 10
8.831613567
 20
15.7490033971
 30
0.0
 10
8.8313492038
 20
15.7493800818
 30
0.0
 10
8.8311327125
 20
15.7496182289
 30
0.0
 10
8.8310130348
 20
15.7497379597
 30
0.0
  0
SPLINE
  5
3C9
100
AcDbEntity
  8
0
100
AcDbSpline
 62
7
  6
CONTINUOUS
 70
0
 71
3
 72
18
 73
14
 74
0
 42
0.0000001
 43
0.0000001
 44
0.0000000001
 40
0.0
 40
0.0
 40
0.0
 40
0.0
 40
0.0299257637
 40
0.0656331034
 40
0.1068878065
 40
0.1534376989
 40
0.2050142486
 40
0.2613038727
 40
0.3866650709
 40
0.5265806131
 40
0.677791371
 40
0.8368104446
 40
1.0
 40
1.0
 40
1.0
 40
1.0
 10
8.7754771232
 20
15.7824658634
 30
0.0
 10
8.7720452193
 20
15.7822608716
 30
0.0
 10
8.764515236
 20
15.781864051
 30
0.0
 10
8.7522474692
 20
15.7813189153
 30
0.0
 10
8.7380682467
 20
15.780772842
 30
0.0
 10
8.7220647439
 20
15.7802262515
 30
0.0
 10
8.7043330503
 20
15.7796797811
 30
0.0
 10
8.677549379
 20
15.7789236208
 30
0.0
 10
8.6406178059
 20
15.7779958471
 30
0.0
 10
8.59278172
 20
15.7769199216
 30
0.0
 10
8.5410779673
 20
15.7758434888
 30
0.0
 10
8.4866998415
 20
15.7747669442
 30
0.0
 10
8.4496896693
 20
15.7740595592
 30
0.0
 10
8.4309451319
 20
15.7736977779
 30
0.0
  0
SPLINE
  5
3CA
100
AcDbEntity
  8
0
100
AcDbSpline
 62
7
  6
CONTINUOUS
 70
0
 71
3
 72
32
 73
28
 74
0
 42
0.0000001
 43
0.0000001
 44
0.0000000001
 40
0.0
 40
0.0
 40
0.0
 40
0.0
 40
0.0011300051
 40
0.002478041
 40
0.0041797765
 40
0.0063036972
 40
0.0088845162
 40
0.0119410972
 40
0.0154844357
 40
0.0195213075
 40
0.0290908215
 40
0.040670623
 40
0.0542692581
 40
0.0698899547
 40
0.0875330595
 40
0.107197227
 40
0.1288800539
 40
0.1525780227
 40
0.2059342564
 40
0.2670117778
 40
0.3355334703
 40
0.4112203253
 40
0.4937921903
 40
0.5829681809
 40
0.6784669229
 40
0.7800067019
 40
1.0
 40
1.0
 40
1.0
 40
1.0
 10
8.7982257986
 20
15.7686428311
 30
0.0
 10
8.7982257986
 20
15.7685853522
 30
0.0
 10
8.798192473
 20
15.7684586053
 30
0.0
 10
8.7980609255
 20
15.7682875249
 30
0.0
 10
8.7978553926
 20
15.7681210105
 30
0.0
 10
8.7975737671
 20
15.7679554911
 30
0.0
 10
8.7972149892
 20
15.7677897701
 30
0.0
 10
8.7967782328
 20
15.7676237153
 30
0.0
 10
8.7962632272
 20
15.7674573058
 30
0.0
 10
8.7954231833
 20
15.7672215269
 30
0.0
 10
8.7941742425
 20
15.7669334676
 30
0.0
 10
8.7924377779
 20
15.766602507
 30
0.0
 10
8.7903889965
 20
15.7662705059
 30
0.0
 10
8.788028526
 20
15.7659376266
 30
0.0
 10
8.7853569228
 20
15.7656041936
 30
0.0
 10
8.7823748937
 20
15.765270348
 30
0.0
 10
8.7790831822
 20
15.7649361687
 30
0.0
 10
8.7740822729
 20
15.764471886
 30
0.0
 10
8.7670792072
 20
15.7638994896
 30
0.0
 10
8.7577966558
 20
15.763234701
 30
0.0
 10
8.7473757419
 20
15.762568597
 30
0.0
 10
8.7358595685
 20
15.7619014327
 30
0.0
 10
8.7232912291
 20
15.7612335468
 30
0.0
 10
8.7097138585
 20
15.7605651114
 30
0.0
 10
8.6951705996
 20
15.7598962472
 30
0.0
 10
8.6739776329
 20
15.7589793213
 30
0.0
 10
8.6576353361
 20
15.7583301505
 30
0.0
 10
8.6464532929
 20
15.7579030551
 30
0.0
  0
LINE
  5
3CB
100
AcDbEntity
  8
0
100
AcDbLine
 62
7
  6
CONTINUOUS
 10
8.6464532929
 20
15.7579030551
 11
8.6319546075
 21
15.7573585567
  0
SPLINE
  5
3CC
100
AcDbEntity
  8
0
100
AcDbSpline
 62
7
  6
CONTINUOUS
 70
0
 71
3
 72
14
 73
10
 74
0
 42
0.0000001
 43
0.0000001
 44
0.0000000001
 40
0.0
 40
0.0
 40
0.0
 40
0.0
 40
0.1149922381
 40
0.2376925552
 40
0.4968554662
 40
0.6283665379
 40
0.7577379037
 40
0.8824036188
 40
1.0
 40
1.0
 40
1.0
 40
1.0
 10
8.6319546075
 20
15.7573585567
 30
0.0
 10
8.6170764252
 20
15.7568087828
 30
0.0
 10
8.5863208132
 20
15.7557249251
 30
0.0
 10
8.5220268211
 20
15.7535980478
 30
0.0
 10
8.4555908861
 20
15.751536644
 30
0.0
 10
8.3882914413
 20
15.7494565904
 30
0.0
 10
8.3383981282
 20
15.7478899483
 30
0.0
 10
8.2903072894
 20
15.7463236397
 30
0.0
 10
8.2589596053
 20
15.7452424249
 30
0.0
 10
8.2437439496
 20
15.7446949647
 30
0.0
  0
LINE
  5
3CD
100
AcDbEntity
  8
0
100
AcDbLine
 62
7
  6
CONTINUOUS
 10
8.2437439496
 20
15.7446949647
 11
8.242428809
 21
15.7446475879
  0
SPLINE
  5
3CE
100
AcDbEntity
  8
0
100
AcDbSpline
 62
7
  6
CONTINUOUS
 70
0
 71
3
 72
23
 73
19
 74
0
 42
0.0000001
 43
0.0000001
 44
0.0000000001
 40
0.0
 40
0.0
 40
0.0
 40
0.0
 40
0.2031645163
 40
0.3885393982
 40
0.5532052861
 40
0.6270019392
 40
0.6948310586
 40
0.7564965766
 40
0.811803224
 40
0.8605570095
 40
0.9025661206
 40
0.9376427851
 40
0.9525252797
 40
0.9656088488
 40
0.9768837862
 40
0.9863600077
 40
0.9940551553
 40
1.0
 40
1.0
 40
1.0
 40
1.0
 10
8.242428809
 20
15.7446475879
 30
0.0
 10
8.2303733296
 20
15.7442127665
 30
0.0
 10
8.2073189516
 20
15.7433536042
 30
0.0
 10
8.1744984046
 20
15.7420159364
 30
0.0
 10
8.1493582453
 20
15.7408665389
 30
0.0
 10
8.1311954884
 20
15.7399325128
 30
0.0
 10
8.1191434271
 20
15.739258489
 30
0.0
 10
8.1081910585
 20
15.7385853616
 30
0.0
 10
8.0983736108
 20
15.7379133838
 30
0.0
 10
8.0897261767
 20
15.7372432836
 30
0.0
 10
8.082283904
 20
15.7365754921
 30
0.0
 10
8.0768534491
 20
15.7359956979
 30
0.0
 10
8.0731402374
 20
15.7355210374
 30
0.0
 10
8.0708343404
 20
15.7351854859
 30
0.0
 10
8.0688532378
 20
15.7348507038
 30
0.0
 10
8.0671968595
 20
15.7345174648
 30
0.0
 10
8.0658645295
 20
15.7341862606
 30
0.0
 10
8.0650921553
 20
15.7339371978
 30
0.0
 10
8.0647647399
 20
15.7338052911
 30
0.0
  0
SPLINE
  5
3CF
100
AcDbEntity
  8
0
100
AcDbSpline
 62
9
  6
CONTINUOUS
 70
0
 71
3
 72
9
 73
5
 74
0
 42
0.0000001
 43
0.0000001
 44
0.0000000001
 40
0.0
 40
0.0
 40
0.0
 40
0.0
 40
0.2567122503
 40
1.0
 40
1.0
 40
1.0
 40
1.0
 10
7.9985749063
 20
14.7438109542
 30
0.0
 10
7.9989102794
 20
14.7433177393
 30
0.0
 10
8.0002761115
 20
14.741438076
 30
0.0
 10
8.0018827845
 20
14.7397292302
 30
0.0
 10
8.0031980026
 20
14.7386100863
 30
0.0
  0
SPLINE
  5
3D0
100
AcDbEntity
  8
0
100
AcDbSpline
 62
9
  6
CONTINUOUS
 70
0
 71
3
 72
11
 73
7
 74
0
 42
0.0000001
 43
0.0000001
 44
0.0000000001
 40
0.0
 40
0.0
 40
0.0
 40
0.0
 40
0.2609431162
 40
0.5128785947
 40
0.7584426381
 40
1.0
 40
1.0
 40
1.0
 40
1.0
 10
8.0031980026
 20
14.7386100863
 30
0.0
 10
8.0040951593
 20
14.7378466787
 30
0.0
 10
8.0059773608
 20
14.7364782604
 30
0.0
 10
8.0090592454
 20
14.7349480066
 30
0.0
 10
8.0122819355
 20
14.7340177781
 30
0.0
 10
8.014486111
 20
14.7338058627
 30
0.0
 10
8.0155765951
 20
14.7338058627
 30
0.0
  0
SPLINE
  5
3D1
100
AcDbEntity
  8
0
100
AcDbSpline
 62
9
  6
CONTINUOUS
 70
0
 71
3
 72
14
 73
10
 74
0
 42
0.0000001
 43
0.0000001
 44
0.0000000001
 40
0.0
 40
0.0
 40
0.0
 40
0.0
 40
0.11675654
 40
0.2347144522
 40
0.3544647895
 40
0.4766513274
 40
0.6019792535
 40
0.7310091132
 40
1.0
 40
1.0
 40
1.0
 40
1.0
 10
8.0155765951
 20
15.7338058627
 30
0.0
 10
8.014777978
 20
15.7338058627
 30
0.0
 10
8.0131704278
 20
15.7336928433
 30
0.0
 10
8.0107907199
 20
15.7331934766
 30
0.0
 10
8.0084635548
 20
15.7323686059
 30
0.0
 10
8.0062191735
 20
15.7312254415
 30
0.0
 10
8.0040798789
 20
15.7297794957
 30
0.0
 10
8.0013647897
 20
15.7274374212
 30
0.0
 10
7.9996094749
 20
15.7253222545
 30
0.0
 10
7.9985749063
 20
15.7238007712
 30
0.0
  0
SPLINE
  5
3D2
100
AcDbEntity
  8
0
100
AcDbSpline
 62
7
  6
CONTINUOUS
 70
0
 71
3
 72
14
 73
10
 74
0
 42
0.0000001
 43
0.0000001
 44
0.0000000001
 40
0.0
 40
0.0
 40
0.0
 40
0.0
 40
0.247864258
 40
0.3720103101
 40
0.496416408
 40
0.6211928743
 40
0.7465227185
 40
0.8726752948
 40
1.0
 40
1.0
 40
1.0
 40
1.0
 10
8.6024032234
 20
16.1788058627
 30
0.0
 10
8.6024032234
 20
16.1658784595
 30
0.0
 10
8.6019292924
 20
16.1464710293
 30
0.0
 10
8.600282068
 20
16.1206305559
 30
0.0
 10
8.5985169611
 20
16.101237172
 30
0.0
 10
8.5962124383
 20
16.0818380959
 30
0.0
 10
8.5932671551
 20
16.0624323116
 30
0.0
 10
8.5895595668
 20
16.0430213894
 30
0.0
 10
8.5865189511
 20
16.0301499978
 30
0.0
 10
8.5848386053
 20
16.0237254695
 30
0.0
  0
SPLINE
  5
3D3
100
AcDbEntity
  8
0
100
AcDbSpline
 62
7
  6
CONTINUOUS
 70
0
 71
3
 72
11
 73
7
 74
0
 42
0.0000001
 43
0.0000001
 44
0.0000000001
 40
0.0
 40
0.0
 40
0.0
 40
0.0
 40
0.2497518811
 40
0.4995815948
 40
0.749592645
 40
1.0
 40
1.0
 40
1.0
 40
1.0
 10
8.489320475
 20
16.1788058627
 30
0.0
 10
8.489320475
 20
16.1658820286
 30
0.0
 10
8.4891064282
 20
16.1400296934
 30
0.0
 10
8.4880891589
 20
16.1012520603
 30
0.0
 10
8.4863403448
 20
16.0624659033
 30
0.0
 10
8.4844896778
 20
16.0366321501
 30
0.0
 10
8.4833403512
 20
16.0237254695
 30
0.0
  0
SPLINE
  5
3D4
100
AcDbEntity
  8
0
100
AcDbSpline
 62
7
  6
CONTINUOUS
 70
0
 71
3
 72
11
 73
7
 74
0
 42
0.0000001
 43
0.0000001
 44
0.0000000001
 40
0.0
 40
0.0
 40
0.0
 40
0.0
 40
0.2503049162
 40
0.5003180871
 40
0.7501905329
 40
1.0
 40
1.0
 40
1.0
 40
1.0
 10
8.3773572768
 20
19.6194883695
 30
0.0
 10
8.3764579591
 20
19.6077756981
 30
0.0
 10
8.3749949714
 20
19.5843376161
 30
0.0
 10
8.3735814495
 20
19.5491567403
 30
0.0
 10
8.3727479991
 20
19.5139809638
 30
0.0
 10
8.3725697891
 20
19.4905297568
 30
0.0
 10
8.3725697891
 20
19.4788058627
 30
0.0
  0
SPLINE
  5
3D5
100
AcDbEntity
  8
0
100
AcDbSpline
 62
7
  6
CONTINUOUS
 70
0
 71
3
 72
14
 73
10
 74
0
 42
0.0000001
 43
0.0000001
 44
0.0000000001
 40
0.0
 40
0.0
 40
0.0
 40
0.0
 40
0.247864258
 40
0.3720103101
 40
0.496416408
 40
0.6211928743
 40
0.7465227185
 40
0.8726752948
 40
1.0
 40
1.0
 40
1.0
 40
1.0
 10
8.2594870407
 20
16.1788058627
 30
0.0
 10
8.2594870407
 20
16.1658784595
 30
0.0
 10
8.2599609716
 20
16.1464710293
 30
0.0
 10
8.2616081961
 20
16.1206305559
 30
0.0
 10
8.263373303
 20
16.101237172
 30
0.0
 10
8.2656778258
 20
16.0818380959
 30
0.0
 10
8.2686231089
 20
16.0624323116
 30
0.0
 10
8.2723306973
 20
16.0430213894
 30
0.0
 10
8.275371313
 20
16.0301499978
 30
0.0
 10
8.2770516588
 20
16.0237254695
 30
0.0
  0
SPLINE
  5
3D6
100
AcDbEntity
  8
0
100
AcDbSpline
 62
7
  6
CONTINUOUS
 70
0
 71
3
 72
13
 73
9
 74
0
 42
0.0000001
 43
0.0000001
 44
0.0000000001
 40
0.0
 40
0.0
 40
0.0
 40
0.0
 40
0.2525813951
 40
0.3778564963
 40
0.5027119243
 40
0.6272772703
 40
0.7516345944
 40
1.0
 40
1.0
 40
1.0
 40
1.0
 10
8.2735486883
 20
19.6194883695
 30
0.0
 10
8.2709251047
 20
19.6078549012
 30
0.0
 10
8.2676949012
 20
19.5902883656
 30
0.0
 10
8.2645394589
 20
19.5667620094
 30
0.0
 10
8.2626719583
 20
19.5491673017
 30
0.0
 10
8.2612329139
 20
19.5315764341
 30
0.0
 10
8.259881568
 20
19.5081342767
 30
0.0
 10
8.2594870407
 20
19.4905324399
 30
0.0
 10
8.2594870407
 20
19.4788058627
 30
0.0
  0
SPLINE
  5
3D7
100
AcDbEntity
  8
0
100
AcDbSpline
 62
7
  6
CONTINUOUS
 70
0
 71
3
 72
14
 73
10
 74
0
 42
0.0000001
 43
0.0000001
 44
0.0000000001
 40
0.0
 40
0.0
 40
0.0
 40
0.0
 40
0.1292938894
 40
0.2564897166
 40
0.3821733379
 40
0.5068098438
 40
0.6307194766
 40
0.75410627
 40
1.0
 40
1.0
 40
1.0
 40
1.0
 10
8.1796298972
 20
19.6194883695
 30
0.0
 10
8.1775400677
 20
19.613684719
 30
0.0
 10
8.173733967
 20
19.6020464059
 30
0.0
 10
8.1690287635
 20
19.584422818
 30
0.0
 10
8.1652528455
 20
19.5668054638
 30
0.0
 10
8.162267554
 20
19.5491981347
 30
0.0
 10
8.1599677193
 20
19.5315987788
 30
0.0
 10
8.1578096414
 20
19.5081644981
 30
0.0
 10
8.1571776348
 20
19.4905371411
 30
0.0
 10
8.1571776348
 20
19.4788058627
 30
0.0
  0
SPLINE
  5
3D8
100
AcDbEntity
  8
0
100
AcDbSpline
 62
7
  6
CONTINUOUS
 70
0
 71
3
 72
15
 73
11
 74
0
 42
0.0000001
 43
0.0000001
 44
0.0000000001
 40
0.0
 40
0.0
 40
0.0
 40
0.0
 40
0.2446996363
 40
0.3675866434
 40
0.4911247525
 40
0.5532220189
 40
0.6155950124
 40
0.7414295428
 40
0.8692885987
 40
1.0
 40
1.0
 40
1.0
 40
1.0
 10
8.1571776348
 20
16.1788058627
 30
0.0
 10
8.1571776348
 20
16.1658722067
 30
0.0
 10
8.1579372732
 20
16.146430177
 30
0.0
 10
8.1605684576
 20
16.1205999585
 30
0.0
 10
8.1629147245
 20
16.1044566641
 30
0.0
 10
8.165221391
 20
16.0915517346
 30
0.0
 10
8.1678488628
 20
16.0785843518
 30
0.0
 10
8.1717899535
 20
16.0623408727
 30
0.0
 10
8.177726649
 20
16.042897248
 30
0.0
 10
8.1825606961
 20
16.0301006462
 30
0.0
 10
8.1852230977
 20
16.0237254695
 30
0.0
  0
SPLINE
  5
3D9
100
AcDbEntity
  8
0
100
AcDbSpline
 62
7
  6
CONTINUOUS
 70
0
 71
3
 72
11
 73
7
 74
0
 42
0.0000001
 43
0.0000001
 44
0.0000000001
 40
0.0
 40
0.0
 40
0.0
 40
0.0
 40
0.2497518811
 40
0.4995815948
 40
0.749592645
 40
1.0
 40
1.0
 40
1.0
 40
1.0
 10
8.3725697891
 20
16.1788058627
 30
0.0
 10
8.3725697891
 20
16.1658820286
 30
0.0
 10
8.3727838359
 20
16.1400296934
 30
0.0
 10
8.3738011051
 20
16.1012520603
 30
0.0
 10
8.3755499192
 20
16.0624659033
 30
0.0
 10
8.3774005863
 20
16.0366321501
 30
0.0
 10
8.3785499128
 20
16.0237254695
 30
0.0
  0
SPLINE
  5
3DA
100
AcDbEntity
  8
0
100
AcDbSpline
 62
7
  6
CONTINUOUS
 70
0
 71
3
 72
15
 73
11
 74
0
 42
0.0000001
 43
0.0000001
 44
0.0000000001
 40
0.0
 40
0.0
 40
0.0
 40
0.0
 40
0.2446996363
 40
0.3675866434
 40
0.4911247525
 40
0.5532220189
 40
0.6155950124
 40
0.7414295428
 40
0.8692885987
 40
1.0
 40
1.0
 40
1.0
 40
1.0
 10
8.7047126293
 20
16.1788058627
 30
0.0
 10
8.7047126293
 20
16.1658722067
 30
0.0
 10
8.7039529909
 20
16.146430177
 30
0.0
 10
8.7013218065
 20
16.1205999585
 30
0.0
 10
8.6989755395
 20
16.1044566641
 30
0.0
 10
8.6966688731
 20
16.0915517346
 30
0.0
 10
8.6940414013
 20
16.0785843518
 30
0.0
 10
8.6901003105
 20
16.0623408727
 30
0.0
 10
8.6841636151
 20
16.042897248
 30
0.0
 10
8.6793295679
 20
16.0301006462
 30
0.0
 10
8.6766671664
 20
16.0237254695
 30
0.0
  0
SPLINE
  5
3DB
100
AcDbEntity
  8
0
100
AcDbSpline
 62
7
  6
CONTINUOUS
 70
0
 71
3
 72
11
 73
7
 74
0
 42
0.0000001
 43
0.0000001
 44
0.0000000001
 40
0.0
 40
0.0
 40
0.0
 40
0.0
 40
0.2503049162
 40
0.5003180871
 40
0.7501905329
 40
1.0
 40
1.0
 40
1.0
 40
1.0
 10
8.4845329873
 20
19.6194883695
 30
0.0
 10
8.4854323049
 20
19.6077756981
 30
0.0
 10
8.4868952927
 20
19.5843376161
 30
0.0
 10
8.4883088146
 20
19.5491567403
 30
0.0
 10
8.489142265
 20
19.5139809638
 30
0.0
 10
8.489320475
 20
19.4905297568
 30
0.0
 10
8.489320475
 20
19.4788058627
 30
0.0
  0
SPLINE
  5
3DC
100
AcDbEntity
  8
0
100
AcDbSpline
 62
7
  6
CONTINUOUS
 70
0
 71
3
 72
13
 73
9
 74
0
 42
0.0000001
 43
0.0000001
 44
0.0000000001
 40
0.0
 40
0.0
 40
0.0
 40
0.0
 40
0.2525813951
 40
0.3778564963
 40
0.5027119243
 40
0.6272772703
 40
0.7516345944
 40
1.0
 40
1.0
 40
1.0
 40
1.0
 10
8.5883415758
 20
19.6194883695
 30
0.0
 10
8.5909651594
 20
19.6078549012
 30
0.0
 10
8.5941953629
 20
19.5902883656
 30
0.0
 10
8.5973508052
 20
19.5667620094
 30
0.0
 10
8.5992183057
 20
19.5491673017
 30
0.0
 10
8.6006573501
 20
19.5315764341
 30
0.0
 10
8.6020086961
 20
19.5081342767
 30
0.0
 10
8.6024032234
 20
19.4905324399
 30
0.0
 10
8.6024032234
 20
19.4788058627
 30
0.0
  0
SPLINE
  5
3DD
100
AcDbEntity
  8
0
100
AcDbSpline
 62
7
  6
CONTINUOUS
 70
0
 71
3
 72
14
 73
10
 74
0
 42
0.0000001
 43
0.0000001
 44
0.0000000001
 40
0.0
 40
0.0
 40
0.0
 40
0.0
 40
0.1292938894
 40
0.2564897166
 40
0.3821733379
 40
0.5068098438
 40
0.6307194766
 40
0.75410627
 40
1.0
 40
1.0
 40
1.0
 40
1.0
 10
8.6822603668
 20
19.6194883695
 30
0.0
 10
8.6843501963
 20
19.613684719
 30
0.0
 10
8.6881562971
 20
19.6020464059
 30
0.0
 10
8.6928615006
 20
19.584422818
 30
0.0
 10
8.6966374186
 20
19.5668054638
 30
0.0
 10
8.69962271
 20
19.5491981347
 30
0.0
 10
8.7019225448
 20
19.5315987788
 30
0.0
 10
8.7040806226
 20
19.5081644981
 30
0.0
 10
8.7047126293
 20
19.4905371411
 30
0.0
 10
8.7047126293
 20
19.4788058627
 30
0.0
  0
SPLINE
  5
3DE
100
AcDbEntity
  8
0
100
AcDbSpline
 62
7
  6
CONTINUOUS
 70
0
 71
3
 72
19
 73
15
 74
0
 42
0.0000001
 43
0.0000001
 44
0.0000000001
 40
0.0
 40
0.0
 40
0.0
 40
0.0
 40
0.0660600732
 40
0.1334434825
 40
0.2706419836
 40
0.3396642104
 40
0.4084219093
 40
0.4765087103
 40
0.5435267574
 40
0.6091051918
 40
0.6728793415
 40
0.7936979275
 40
0.9035113851
 40
1.0
 40
1.0
 40
1.0
 40
1.0
 10
11.2902294906
 20
15.0867185129
 30
0.0
 10
11.2823156376
 20
15.0892000639
 30
0.0
 10
11.2662667283
 20
15.0940161035
 30
0.0
 10
11.2334825759
 20
15.1029570203
 30
0.0
 10
11.1999837767
 20
15.1106550147
 30
0.0
 10
11.1660365256
 20
15.1169561348
 30
0.0
 10
11.1404939606
 20
15.120932731
 30
0.0
 10
11.1150976992
 20
15.1241429781
 30
0.0
 10
11.0900162626
 20
15.1265752202
 30
0.0
 10
11.0654166928
 20
15.1282652963
 30
0.0
 10
11.0340307742
 20
15.129547093
 30
0.0
 10
10.9970508894
 20
15.1296151287
 30
0.0
 10
10.9560112125
 20
15.1277380991
 30
0.0
 10
10.9302007674
 20
15.1254895958
 30
0.0
 10
10.9181537341
 20
15.124216758
 30
0.0
  0
SPLINE
  5
3DF
100
AcDbEntity
  8
0
100
AcDbSpline
 62
7
  6
CONTINUOUS
 70
0
 71
3
 72
9
 73
5
 74
0
 42
0.0000001
 43
0.0000001
 44
0.0000000001
 40
0.0
 40
0.0
 40
0.0
 40
0.0
 40
0.5077316743
 40
1.0
 40
1.0
 40
1.0
 40
1.0
 10
7.7848068519
 20
20.844080507
 30
0.0
 10
7.7822767938
 20
20.8466232826
 30
0.0
 10
7.7775061754
 20
20.8518488532
 30
0.0
 10
7.7732583054
 20
20.8575111086
 30
0.0
 10
7.771321139
 20
20.8603994438
 30
0.0
  0
SPLINE
  5
3E0
100
AcDbEntity
  8
0
100
AcDbSpline
 62
9
  6
CONTINUOUS
 70
0
 71
3
 72
24
 73
20
 74
0
 42
0.0000001
 43
0.0000001
 44
0.0000000001
 40
0.0
 40
0.0
 40
0.0
 40
0.0
 40
0.0684124062
 40
0.1367223149
 40
0.2047524072
 40
0.2723317864
 40
0.3393245068
 40
0.4056061596
 40
0.438441037
 40
0.4710498875
 40
0.5355163948
 40
0.598859352
 40
0.6300640324
 40
0.660933956
 40
0.7216118079
 40
0.7807815004
 40
0.838331443
 40
0.8941418338
 40
1.0
 40
1.0
 40
1.0
 40
1.0
 10
7.7076850775
 20
21.9077070885
 30
0.0
 10
7.7149632876
 20
21.8925565831
 30
0.0
 10
7.7295950347
 20
21.8623195899
 30
0.0
 10
7.7517854092
 20
21.8171730226
 30
0.0
 10
7.7741820452
 20
21.7723569761
 30
0.0
 10
7.7967596493
 20
21.727994686
 30
0.0
 10
7.8194001789
 20
21.684147594
 30
0.0
 10
7.8382729535
 20
21.6479626242
 30
0.0
 10
7.8532886427
 20
21.619293709
 30
0.0
 10
7.8681232854
 20
21.5910334044
 30
0.0
 10
7.8865102594
 20
21.5561724716
 30
0.0
 10
7.9048727395
 20
21.5216888859
 30
0.0
 10
7.9194664355
 20
21.4945504205
 30
0.0
 10
7.9338330456
 20
21.4680334597
 30
0.0
 10
7.9516147645
 20
21.4355527574
 30
0.0
 10
7.9727316507
 20
21.3974256574
 30
0.0
 10
7.9934120034
 20
21.3604242325
 30
0.0
 10
8.0198304127
 20
21.3134894026
 30
0.0
 10
8.0394775068
 20
21.278968522
 30
0.0
 10
8.0524256447
 20
21.2564128028
 30
0.0
  0
SPLINE
  5
3E1
100
AcDbEntity
  8
0
100
AcDbSpline
 62
9
  6
CONTINUOUS
 70
0
 71
3
 72
14
 73
10
 74
0
 42
0.0000001
 43
0.0000001
 44
0.0000000001
 40
0.0
 40
0.0
 40
0.0
 40
0.0
 40
0.1222105727
 40
0.2457872507
 40
0.3706467385
 40
0.4964984952
 40
0.7493767845
 40
0.8752696189
 40
1.0
 40
1.0
 40
1.0
 40
1.0
 10
8.0524256447
 20
21.2564128028
 30
0.0
 10
8.0375586391
 20
21.2474475906
 30
0.0
 10
8.0071382568
 20
21.2302714779
 30
0.0
 10
7.9601578477
 20
21.2064710505
 30
0.0
 10
7.9119391513
 20
21.1840473117
 30
0.0
 10
7.846397191
 20
21.1553671454
 30
0.0
 10
7.7801963946
 20
21.1278609569
 30
0.0
 10
7.7144523662
 20
21.0996853735
 30
0.0
 10
7.681977003
 20
21.0850837508
 30
0.0
 10
7.6659223782
 20
21.0775864821
 30
0.0
  0
SPLINE
  5
3E2
100
AcDbEntity
  8
0
100
AcDbSpline
 62
9
  6
CONTINUOUS
 70
0
 71
3
 72
22
 73
18
 74
0
 42
0.0000001
 43
0.0000001
 44
0.0000000001
 40
0.0
 40
0.0
 40
0.0
 40
0.0
 40
0.0769263999
 40
0.1526755523
 40
0.2270617788
 40
0.299902865
 40
0.371037129
 40
0.4403109921
 40
0.474202381
 40
0.5075717424
 40
0.5726730682
 40
0.6354721141
 40
0.6958258125
 40
0.8087059684
 40
0.8610178642
 40
0.9104270458
 40
1.0
 40
1.0
 40
1.0
 40
1.0
 10
7.7076850609
 20
21.9077071229
 30
0.0
 10
7.7150436657
 20
21.9112217572
 30
0.0
 10
7.7296439243
 20
21.918206337
 30
0.0
 10
7.7513354503
 20
21.928640298
 30
0.0
 10
7.7726063638
 20
21.9389494527
 30
0.0
 10
7.7933938214
 20
21.9491339137
 30
0.0
 10
7.8136720369
 20
21.9591257138
 30
0.0
 10
7.8302516152
 20
21.9672821112
 30
0.0
 10
7.8432565996
 20
21.9736352871
 30
0.0
 10
7.8558793347
 20
21.9797631199
 30
0.0
 10
7.8712791504
 20
21.9871873277
 30
0.0
 10
7.8892692353
 20
21.9958256377
 30
0.0
 10
7.911811573
 20
22.0066847581
 30
0.0
 10
7.933311404
 20
22.017146002
 30
0.0
 10
7.9537643354
 20
22.0271069432
 30
0.0
 10
7.9720033045
 20
22.0359709286
 30
0.0
 10
7.9852580627
 20
22.0424037741
 30
0.0
 10
7.9937979554
 20
22.0465552546
 30
0.0
  0
SPLINE
  5
3E3
100
AcDbEntity
  8
0
100
AcDbSpline
 62
9
  6
CONTINUOUS
 70
0
 71
3
 72
35
 73
31
 74
0
 42
0.0000001
 43
0.0000001
 44
0.0000000001
 40
0.0
 40
0.0
 40
0.0
 40
0.0
 40
0.0000673168
 40
0.0002690678
 40
0.0006049535
 40
0.0010746748
 40
0.0016779326
 40
0.0024144278
 40
0.0042859344
 40
0.0066868036
 40
0.0096146455
 40
0.0130670716
 40
0.0170416942
 40
0.0265479851
 40
0.0381144442
 40
0.051722017
 40
0.0673516697
 40
0.0849843894
 40
0.1046011845
 40
0.1261830852
 40
0.1497111438
 40
0.2025300335
 40
0.2629067503
 40
0.3306905531
 40
0.4057310972
 40
0.4878784493
 40
0.576983104
 40
0.672896
 40
0.7754685381
 40
1.0
 40
1.0
 40
1.0
 40
1.0
 10
8.4557766024
 20
21.5981420736
 30
0.0
 10
8.4557771276
 20
21.5981411537
 30
0.0
 10
8.4557722487
 20
21.5981376101
 30
0.0
 10
8.4557697618
 20
21.5981294833
 30
0.0
 10
8.4557599199
 20
21.5981160624
 30
0.0
 10
8.4557488181
 20
21.5980972463
 30
0.0
 10
8.4557334786
 20
21.5980731066
 30
0.0
 10
8.4557067954
 20
21.5980302669
 30
0.0
 10
8.4556648685
 20
21.5979634796
 30
0.0
 10
8.4556046623
 20
21.5978675216
 30
0.0
 10
8.4555310835
 20
21.5977505585
 30
0.0
 10
8.4554442176
 20
21.5976127077
 30
0.0
 10
8.4553019614
 20
21.5973874043
 30
0.0
 10
8.4550910834
 20
21.5970544316
 30
0.0
 10
8.4547982961
 20
21.5965939128
 30
0.0
 10
8.454452853
 20
21.5960526936
 30
0.0
 10
8.4540549398
 20
21.5954317235
 30
0.0
 10
8.4536047424
 20
21.5947319524
 30
0.0
 10
8.4531024467
 20
21.5939543298
 30
0.0
 10
8.4525482388
 20
21.5930998054
 30
0.0
 10
8.4517073354
 20
21.5918085126
 30
0.0
 10
8.4505280328
 20
21.5900091093
 30
0.0
 10
8.4489579116
 20
21.5876332467
 30
0.0
 10
8.4471846071
 20
21.5849725607
 30
0.0
 10
8.4452096082
 20
21.582034648
 30
0.0
 10
8.4430344017
 20
21.5788271057
 30
0.0
 10
8.4406604747
 20
21.5753575317
 30
0.0
 10
8.4380893151
 20
21.5716335206
 30
0.0
 10
8.4342838375
 20
21.5661722105
 30
0.0
 10
8.4313125885
 20
21.5619691517
 30
0.0
 10
8.429260651
 20
21.5590929669
 30
0.0
  0
SPLINE
  5
3E4
100
AcDbEntity
  8
0
100
AcDbSpline
 62
7
  6
CONTINUOUS
 70
0
 71
3
 72
11
 73
7
 74
0
 42
0.0000001
 43
0.0000001
 44
0.0000000001
 40
0.0
 40
0.0
 40
0.0
 40
0.0
 40
0.1879892797
 40
0.4225927641
 40
0.6958131324
 40
1.0
 40
1.0
 40
1.0
 40
1.0
 10
8.429260651
 20
21.5590929669
 30
0.0
 10
8.4211328868
 20
21.5477003433
 30
0.0
 10
8.4024293775
 20
21.5223970078
 30
0.0
 10
8.3702652796
 20
21.4817795345
 30
0.0
 10
8.3309303989
 20
21.4358570366
 30
0.0
 10
8.3015206107
 20
21.4044801088
 30
0.0
 10
8.2856232024
 20
21.3883535061
 30
0.0
  0
LINE
  5
3E5
100
AcDbEntity
  8
0
100
AcDbLine
 62
9
  6
CONTINUOUS
 10
8.2856232024
 20
21.3883535061
 11
8.2690540949
 21
21.4277420061
  0
SPLINE
  5
3E6
100
AcDbEntity
  8
0
100
AcDbSpline
 62
9
  6
CONTINUOUS
 70
0
 71
3
 72
11
 73
7
 74
0
 42
0.0000001
 43
0.0000001
 44
0.0000000001
 40
0.0
 40
0.0
 40
0.0
 40
0.0
 40
0.2639333322
 40
0.520809119
 40
0.7673517958
 40
1.0
 40
1.0
 40
1.0
 40
1.0
 10
8.0524251236
 20
21.2564115506
 30
0.0
 10
8.0732710675
 20
21.2690009052
 30
0.0
 10
8.1134837957
 20
21.2953975228
 30
0.0
 10
8.1700062241
 20
21.3381074617
 30
0.0
 10
8.2217274524
 20
21.3821759679
 30
0.0
 10
8.2538440335
 20
21.4125947467
 30
0.0
 10
8.2690540949
 20
21.4277420061
 30
0.0
  0
SPLINE
  5
3E7
100
AcDbEntity
  8
0
100
AcDbSpline
 62
7
  6
CONTINUOUS
 70
0
 71
3
 72
11
 73
7
 74
0
 42
0.0000001
 43
0.0000001
 44
0.0000000001
 40
0.0
 40
0.0
 40
0.0
 40
0.0
 40
0.2360454929
 40
0.4834947172
 40
0.7390638943
 40
1.0
 40
1.0
 40
1.0
 40
1.0
 10
8.2856232206
 20
21.3883534626
 30
0.0
 10
8.2706135163
 20
21.3731273618
 30
0.0
 10
8.2391207971
 20
21.3426657084
 30
0.0
 10
8.1885711248
 20
21.2987234041
 30
0.0
 10
8.1336137614
 20
21.2565987655
 30
0.0
 10
8.0944918043
 20
21.2308400074
 30
0.0
 10
8.074229519
 20
21.2186722485
 30
0.0
  0
SPLINE
  5
3E8
100
AcDbEntity
  8
0
100
AcDbSpline
 62
9
  6
CONTINUOUS
 70
0
 71
3
 72
34
 73
30
 74
0
 42
0.0000001
 43
0.0000001
 44
0.0000000001
 40
0.0
 40
0.0
 40
0.0
 40
0.0
 40
0.0002690366
 40
0.0006853898
 40
0.00125204
 40
0.0019695417
 40
0.0038559522
 40
0.0063404355
 40
0.0094170995
 40
0.0130795557
 40
0.0173212057
 40
0.0221353504
 40
0.033454046
 40
0.0469814613
 40
0.0626632544
 40
0.0804451452
 40
0.1002729856
 40
0.1220927991
 40
0.1458508072
 40
0.1714934499
 40
0.2282192504
 40
0.2918470145
 40
0.3619572636
 40
0.4381334541
 40
0.5199640937
 40
0.6070439043
 40
0.698974542
 40
0.7953654085
 40
1.0
 40
1.0
 40
1.0
 40
1.0
 10
8.4401923803
 20
21.6361219493
 30
0.0
 10
8.4401912287
 20
21.6360977465
 30
0.0
 10
8.4401759158
 20
21.6360372209
 30
0.0
 10
8.4401377569
 20
21.6359313478
 30
0.0
 10
8.4400769035
 20
21.6357905926
 30
0.0
 10
8.4399544195
 20
21.6355326864
 30
0.0
 10
8.4397420675
 20
21.6351263813
 30
0.0
 10
8.4394169329
 20
21.6345397079
 30
0.0
 10
8.4390018098
 20
21.6338201106
 30
0.0
 10
8.4384971544
 20
21.6329695878
 30
0.0
 10
8.4379031628
 20
21.631990174
 30
0.0
 10
8.4369391837
 20
21.6304287739
 30
0.0
 10
8.435512062
 20
21.6281705668
 30
0.0
 10
8.4335300238
 20
21.625105467
 30
0.0
 10
8.4311998373
 20
21.6215725047
 30
0.0
 10
8.4285246073
 20
21.6175875737
 30
0.0
 10
8.425507389
 20
21.6131665906
 30
0.0
 10
8.4221512985
 20
21.6083254436
 30
0.0
 10
8.4184594671
 20
21.6030800057
 30
0.0
 10
8.4129036297
 20
21.5953024477
 30
0.0
 10
8.405145876
 20
21.5846854045
 30
0.0
 10
8.3948338365
 20
21.5709766148
 30
0.0
 10
8.3832549779
 20
21.5560309648
 30
0.0
 10
8.3704352052
 20
21.5399755249
 30
0.0
 10
8.356400476
 20
21.5229375362
 30
0.0
 10
8.3411768601
 20
21.5050443014
 30
0.0
 10
8.3247902644
 20
21.4864228766
 30
0.0
 10
8.3009467445
 20
21.4602680668
 30
0.0
 10
8.2821163872
 20
21.4407504633
 30
0.0
 10
8.2690575356
 20
21.4277454326
 30
0.0
  0
SPLINE
  5
3E9
100
AcDbEntity
  8
0
100
AcDbSpline
 62
9
  6
CONTINUOUS
 70
0
 71
3
 72
14
 73
10
 74
0
 42
0.0000001
 43
0.0000001
 44
0.0000000001
 40
0.0
 40
0.0
 40
0.0
 40
0.0
 40
0.1116251093
 40
0.2287082007
 40
0.3504021335
 40
0.4756279723
 40
0.6039260211
 40
0.7348600067
 40
1.0
 40
1.0
 40
1.0
 40
1.0
 10
8.2690575356
 20
21.4277454326
 30
0.0
 10
8.259263422
 20
21.450964249
 30
0.0
 10
8.2389475999
 20
21.4984323976
 30
0.0
 10
8.2072829773
 20
21.5709240793
 30
0.0
 10
8.1739991876
 20
21.6460576613
 30
0.0
 10
8.139447408
 20
21.7233980455
 30
0.0
 10
8.1038686128
 20
21.8025640359
 30
0.0
 10
8.0551968674
 20
21.9104752669
 30
0.0
 10
8.0184032038
 20
21.9919701366
 30
0.0
 10
7.9938052358
 20
22.0465391035
 30
0.0
  0
SPLINE
  5
3EA
100
AcDbEntity
  8
0
100
AcDbSpline
 62
9
  6
CONTINUOUS
 70
0
 71
3
 72
43
 73
39
 74
0
 42
0.0000001
 43
0.0000001
 44
0.0000000001
 40
0.0
 40
0.0
 40
0.0
 40
0.0
 40
0.0941267943
 40
0.1892933264
 40
0.2842591609
 40
0.3776962315
 40
0.4682687804
 40
0.5546959878
 40
0.6357501035
 40
0.7103615157
 40
0.7775597497
 40
0.8081467165
 40
0.8366133424
 40
0.862883241
 40
0.8869113837
 40
0.9086604205
 40
0.9280927975
 40
0.9451786629
 40
0.9599195331
 40
0.9664134654
 40
0.9723245412
 40
0.9776538502
 40
0.9824024618
 40
0.9865721902
 40
0.9901678933
 40
0.9931951754
 40
0.9956596209
 40
0.9966825199
 40
0.9975667945
 40
0.9983131369
 40
0.9989222381
 40
0.9993947875
 40
0.9995800704
 40
0.9997314733
 40
0.9998490821
 40
0.9999329824
 40
0.9999832598
 40
1.0
 40
1.0
 40
1.0
 40
1.0
 10
8.0272822436
 20
22.0627660574
 30
0.0
 10
8.0191782648
 20
22.0817395251
 30
0.0
 10
8.002676718
 20
22.1198091275
 30
0.0
 10
7.97736952
 20
22.1767458072
 30
0.0
 10
7.951652345
 20
22.2333324635
 30
0.0
 10
7.9258845836
 20
22.2887877427
 30
0.0
 10
7.9004282917
 20
22.342321424
 30
0.0
 10
7.8756791597
 20
22.3931833891
 30
0.0
 10
7.8520066988
 20
22.4406758809
 30
0.0
 10
7.8297822314
 20
22.4841780778
 30
0.0
 10
7.8122259998
 20
22.5176408091
 30
0.0
 10
7.7991570357
 20
22.5420337441
 30
0.0
 10
7.7902293279
 20
22.5584675124
 30
0.0
 10
7.7818960484
 20
22.5735877611
 30
0.0
 10
7.7741887688
 20
22.5873714242
 30
0.0
 10
7.7671351601
 20
22.5998031633
 30
0.0
 10
7.7607612608
 20
22.6108707025
 30
0.0
 10
7.7550884636
 20
22.6205690494
 30
0.0
 10
7.750798506
 20
22.6277905109
 30
0.0
 10
7.7477323648
 20
22.6328898057
 30
0.0
 10
7.7457178551
 20
22.6362142734
 30
0.0
 10
7.7438913265
 20
22.6392053123
 30
0.0
 10
7.7422545592
 20
22.641864982
 30
0.0
 10
7.7408088932
 20
22.6441960557
 30
0.0
 10
7.739555088
 20
22.6462021323
 30
0.0
 10
7.7384934617
 20
22.647887524
 30
0.0
 10
7.7377281368
 20
22.6490930577
 30
0.0
 10
7.7372122691
 20
22.6499005614
 30
0.0
 10
7.7368982554
 20
22.6503901362
 30
0.0
 10
7.7366324727
 20
22.6508028932
 30
0.0
 10
7.7364149104
 20
22.6511393564
 30
0.0
 10
7.7362637641
 20
22.6513723291
 30
0.0
 10
7.7361668993
 20
22.6515209079
 30
0.0
 10
7.7361126356
 20
22.6516044292
 30
0.0
 10
7.7360699152
 20
22.6516688466
 30
0.0
 10
7.7360405523
 20
22.6517157512
 30
0.0
 10
7.7360208594
 20
22.6517421109
 30
0.0
 10
7.7360143825
 20
22.6517557241
 30
0.0
 10
7.736011711
 20
22.6517582394
 30
0.0
  0
SPLINE
  5
3EB
100
AcDbEntity
  8
0
100
AcDbSpline
 62
9
  6
CONTINUOUS
 70
0
 71
3
 72
30
 73
26
 74
0
 42
0.0000001
 43
0.0000001
 44
0.0000000001
 40
0.0
 40
0.0
 40
0.0
 40
0.0
 40
0.1882100763
 40
0.2816415155
 40
0.3731061583
 40
0.4614399218
 40
0.5455333354
 40
0.6243306781
 40
0.696934122
 40
0.7625443878
 40
0.820594151
 40
0.8706380621
 40
0.892593506
 40
0.9124830271
 40
0.9302987403
 40
0.9460636757
 40
0.9598094216
 40
0.9715692338
 40
0.9813854298
 40
0.9855869217
 40
0.9893312004
 40
0.992629954
 40
0.9954964264
 40
0.9979463961
 40
1.0
 40
1.0
 40
1.0
 40
1.0
 10
7.9938055854
 20
22.0465383014
 30
0.0
 10
7.9751036875
 20
22.0880920386
 30
0.0
 10
7.9472150173
 20
22.1503176468
 30
0.0
 10
7.9102635323
 20
22.2327486872
 30
0.0
 10
7.8831123512
 20
22.2930729806
 30
0.0
 10
7.8567051919
 20
22.3512525713
 30
0.0
 10
7.8313271872
 20
22.4065307213
 30
0.0
 10
7.8072364666
 20
22.458208225
 30
0.0
 10
7.7846902886
 20
22.5056670377
 30
0.0
 10
7.7638948904
 20
22.5483942378
 30
0.0
 10
7.7450587896
 20
22.5859975791
 30
0.0
 10
7.7305491951
 20
22.6139438534
 30
0.0
 10
7.7200066733
 20
22.6335353794
 30
0.0
 10
7.7130198635
 20
22.6461783297
 30
0.0
 10
7.7066075527
 20
22.6574251198
 30
0.0
 10
7.7007736243
 20
22.6672878299
 30
0.0
 10
7.69551831
 20
22.6757873867
 30
0.0
 10
7.6908398438
 20
22.6829472219
 30
0.0
 10
7.6872544061
 20
22.6880580496
 30
0.0
 10
7.6846552216
 20
22.6914847135
 30
0.0
 10
7.6829467955
 20
22.6936050224
 30
0.0
 10
7.681374393
 20
22.695417989
 30
0.0
 10
7.6799357717
 20
22.6969297853
 30
0.0
 10
7.6786289673
 20
22.6981465022
 30
0.0
 10
7.6777710503
 20
22.6988231079
 30
0.0
 10
7.6773617346
 20
22.6991053759
 30
0.0
  0
SPLINE
  5
3EC
100
AcDbEntity
  8
0
100
AcDbSpline
 62
9
  6
CONTINUOUS
 70
0
 71
3
 72
26
 73
22
 74
0
 42
0.0000001
 43
0.0000001
 44
0.0000000001
 40
0.0
 40
0.0
 40
0.0
 40
0.0
 40
0.0786787822
 40
0.1571169551
 40
0.2348702668
 40
0.3114908343
 40
0.3865305199
 40
0.4595563191
 40
0.5301491153
 40
0.5978971895
 40
0.6624005034
 40
0.7232920043
 40
0.7802599836
 40
0.8330348357
 40
0.8577852535
 40
0.8814155249
 40
0.9039148234
 40
0.9252857323
 40
0.9455440076
 40
0.964719212
 40
1.0
 40
1.0
 40
1.0
 40
1.0
 10
8.3096129276
 20
20.7286568621
 30
0.0
 10
8.2977096742
 20
20.7268042085
 30
0.0
 10
8.2738828324
 20
20.7234599031
 30
0.0
 10
8.2381369034
 20
20.7194894654
 30
0.0
 10
8.2026068674
 20
20.7165573252
 30
0.0
 10
8.1675278874
 20
20.7146575582
 30
0.0
 10
8.1331322525
 20
20.7137839604
 30
0.0
 10
8.0996484428
 20
20.7139305504
 30
0.0
 10
8.0673010176
 20
20.7150909078
 30
0.0
 10
8.036312539
 20
20.7172582495
 30
0.0
 10
8.0069027229
 20
20.7204259316
 30
0.0
 10
7.9792831219
 20
20.7245879274
 30
0.0
 10
7.9536580955
 20
20.7297367172
 30
0.0
 10
7.9337200882
 20
20.7349491576
 30
0.0
 10
7.9189636145
 20
20.7396635799
 30
0.0
 10
7.9087600025
 20
20.7433689871
 30
0.0
 10
7.8992056688
 20
20.7473194638
 30
0.0
 10
7.8903236408
 20
20.7515143652
 30
0.0
 10
7.8821331686
 20
20.7559545042
 30
0.0
 10
7.8724375289
 20
20.7620301718
 30
0.0
 10
7.8658321505
 20
20.7671978428
 30
0.0
 10
7.8619197808
 20
20.7709225624
 30
0.0
  0
SPLINE
  5
3ED
100
AcDbEntity
  8
0
100
AcDbSpline
 62
7
  6
CONTINUOUS
 70
0
 71
3
 72
19
 73
15
 74
0
 42
0.0000001
 43
0.0000001
 44
0.0000000001
 40
0.0
 40
0.0
 40
0.0
 40
0.0
 40
0.0925844753
 40
0.1845077016
 40
0.3637024707
 40
0.5320466904
 40
0.6836795529
 40
0.8125389573
 40
0.866495983
 40
0.9124254464
 40
0.9495371091
 40
0.9770362976
 40
0.9941245229
 40
1.0
 40
1.0
 40
1.0
 40
1.0
 10
8.2901046398
 20
20.7959548005
 30
0.0
 10
8.301593387
 20
20.7986173383
 30
0.0
 10
8.3243959568
 20
20.8043317304
 30
0.0
 10
8.3689613979
 20
20.8170086616
 30
0.0
 10
8.4221449618
 20
20.8345595495
 30
0.0
 10
8.4815884315
 20
20.8571739105
 30
0.0
 10
8.5342529903
 20
20.8794515963
 30
0.0
 10
8.5729722823
 20
20.8972340435
 30
0.0
 10
8.5991976586
 20
20.9099321864
 30
0.0
 10
8.6148128819
 20
20.9177232982
 30
0.0
 10
8.6273424844
 20
20.9241477752
 30
0.0
 10
8.6365556644
 20
20.9289872283
 30
0.0
 10
8.6422172402
 20
20.9320310153
 30
0.0
 10
8.6447849131
 20
20.9334322189
 30
0.0
 10
8.6454390755
 20
20.9337957913
 30
0.0
  0
SPLINE
  5
3EE
100
AcDbEntity
  8
0
100
AcDbSpline
 62
9
  6
CONTINUOUS
 70
0
 71
3
 72
43
 73
39
 74
0
 42
0.0000001
 43
0.0000001
 44
0.0000000001
 40
0.0
 40
0.0
 40
0.0
 40
0.0
 40
0.0082718124
 40
0.0110641668
 40
0.013150636
 40
0.0146892682
 40
0.0158600739
 40
0.0168583246
 40
0.0178443693
 40
0.0200313139
 40
0.022691873
 40
0.0258980551
 40
0.0296498027
 40
0.0339218871
 40
0.0386849283
 40
0.0439204755
 40
0.0496201207
 40
0.0623942464
 40
0.0770174813
 40
0.0935622917
 40
0.1025938258
 40
0.1121388554
 40
0.1327455108
 40
0.155301944
 40
0.1672834281
 40
0.179728093
 40
0.2060240865
 40
0.2342174615
 40
0.2643263552
 40
0.3303205407
 40
0.4039384052
 40
0.4850646143
 40
0.5735959384
 40
0.6206074244
 40
0.6694350927
 40
0.7725028057
 40
0.8827236256
 40
1.0
 40
1.0
 40
1.0
 40
1.0
 10
8.1736589914
 20
22.1338402698
 30
0.0
 10
8.1734068998
 20
22.1342192295
 30
0.0
 10
8.1730638972
 20
22.134723238
 30
0.0
 10
8.1726073824
 20
22.1352852929
 30
0.0
 10
8.1723610722
 20
22.1355393007
 30
0.0
 10
8.1721510017
 20
22.1357012841
 30
0.0
 10
8.1719618474
 20
22.1357854354
 30
0.0
 10
8.171786362
 20
22.1358015744
 30
0.0
 10
8.1715582352
 20
22.1357631128
 30
0.0
 10
8.1712662068
 20
22.1356165697
 30
0.0
 10
8.1709227738
 20
22.1353347623
 30
0.0
 10
8.1705506347
 20
22.1349577305
 30
0.0
 10
8.170137095
 20
22.1344985994
 30
0.0
 10
8.1696697349
 20
22.1339726491
 30
0.0
 10
8.1691360355
 20
22.1333965351
 30
0.0
 10
8.168528909
 20
22.1327818695
 30
0.0
 10
8.1675807899
 20
22.1318854319
 30
0.0
 10
8.1661847277
 20
22.1307127462
 30
0.0
 10
8.1642071143
 20
22.1293163549
 30
0.0
 10
8.1622883439
 20
22.1282091706
 30
0.0
 10
8.160556247
 20
22.1273515357
 30
0.0
 10
8.1585982224
 20
22.1264485073
 30
0.0
 10
8.15593365
 20
22.1253029826
 30
0.0
 10
8.1531470411
 20
22.124102099
 30
0.0
 10
8.1507938481
 20
22.123031463
 30
0.0
 10
8.1482715604
 20
22.121836529
 30
0.0
 10
8.1449702378
 20
22.1202033877
 30
0.0
 10
8.1408213324
 20
22.118092679
 30
0.0
 10
8.1347323964
 20
22.1149780288
 30
0.0
 10
8.1263810744
 20
22.1107981431
 30
0.0
 10
8.1154662384
 20
22.105469538
 30
0.0
 10
8.1033887233
 20
22.0996971794
 30
0.0
 10
8.0926314524
 20
22.0945575278
 30
0.0
 10
8.0834993132
 20
22.0901391618
 30
0.0
 10
8.0736628297
 20
22.0853402415
 30
0.0
 10
8.0607150429
 20
22.078986545
 30
0.0
 10
8.0443659186
 20
22.0710148261
 30
0.0
 10
8.0330955107
 20
22.0655673931
 30
0.0
 10
8.0272822436
 20
22.0627660574
 30
0.0
  0
SPLINE
  5
3EF
100
AcDbEntity
  8
0
100
AcDbSpline
 62
9
  6
CONTINUOUS
 70
0
 71
3
 72
72
 73
68
 74
0
 42
0.0000001
 43
0.0000001
 44
0.0000000001
 40
0.0
 40
0.0
 40
0.0
 40
0.0
 40
0.0006134204
 40
0.0011871525
 40
0.001770511
 40
0.0024095117
 40
0.0031388056
 40
0.0039812078
 40
0.0049509314
 40
0.0060570081
 40
0.0073050415
 40
0.0086971369
 40
0.0119150045
 40
0.0157153579
 40
0.0201189801
 40
0.0225593918
 40
0.0251612787
 40
0.0308437693
 40
0.0371469937
 40
0.0440434236
 40
0.0515041958
 40
0.0595068573
 40
0.0680508546
 40
0.0771404712
 40
0.0867788544
 40
0.0969686593
 40
0.1077123884
 40
0.1190069509
 40
0.1308414736
 40
0.1432044131
 40
0.1694690204
 40
0.1977111206
 40
0.2278658222
 40
0.2598786908
 40
0.2936899721
 40
0.3663601717
 40
0.4050325569
 40
0.4451343139
 40
0.4656905976
 40
0.4865672366
 40
0.5292280919
 40
0.5730093704
 40
0.5952875005
 40
0.6178087567
 40
0.6405623414
 40
0.6635375768
 40
0.6867238838
 40
0.710107284
 40
0.7336706045
 40
0.7573963184
 40
0.7693145481
 40
0.7812666589
 40
0.8052610627
 40
0.8293568749
 40
0.841436929
 40
0.8535360355
 40
0.8656531762
 40
0.877788502
 40
0.8899420572
 40
0.9021130425
 40
0.9143006754
 40
0.926505106
 40
0.938728319
 40
0.9509713654
 40
0.9632276059
 40
0.9754893904
 40
1.0
 40
1.0
 40
1.0
 40
1.0
 10
7.2863698053
 20
22.7758767275
 30
0.0
 10
7.2865627716
 20
22.7759190597
 30
0.0
 10
7.2869477628
 20
22.7759610549
 30
0.0
 10
7.2875172259
 20
22.7758592804
 30
0.0
 10
7.2880378791
 20
22.7755895493
 30
0.0
 10
7.2885066355
 20
22.7751626895
 30
0.0
 10
7.2889301117
 20
22.774586188
 30
0.0
 10
7.289314917
 20
22.7738614859
 30
0.0
 10
7.2896653738
 20
22.7729880389
 30
0.0
 10
7.2899851035
 20
22.7719657676
 30
0.0
 10
7.2902948531
 20
22.7707995711
 30
0.0
 10
7.2907424139
 20
22.7689668239
 30
0.0
 10
7.2913799001
 20
22.7663341642
 30
0.0
 10
7.2924000991
 20
22.7627979564
 30
0.0
 10
7.2935799407
 20
22.7595751228
 30
0.0
 10
7.2947966257
 20
22.7567863102
 30
0.0
 10
7.29627219
 20
22.7536629489
 30
0.0
 10
7.2984234425
 20
22.7494853118
 30
0.0
 10
7.3013137664
 20
22.7441350838
 30
0.0
 10
7.3044935351
 20
22.7382902498
 30
0.0
 10
7.3078709942
 20
22.7319299274
 30
0.0
 10
7.3113533576
 20
22.7250262889
 30
0.0
 10
7.3149641003
 20
22.7176012514
 30
0.0
 10
7.3187367473
 20
22.7096696287
 30
0.0
 10
7.3227045163
 20
22.701244014
 30
0.0
 10
7.3268999655
 20
22.6923367808
 30
0.0
 10
7.3313590336
 20
22.6829641756
 30
0.0
 10
7.3360952573
 20
22.6731370122
 30
0.0
 10
7.3410894029
 20
22.662855363
 30
0.0
 10
7.3482183925
 20
22.6482508856
 30
0.0
 10
7.3576892767
 20
22.6289095074
 30
0.0
 10
7.3696212723
 20
22.6043933286
 30
0.0
 10
7.3823202534
 20
22.578191638
 30
0.0
 10
7.3957886663
 20
22.5503697338
 30
0.0
 10
7.4152395028
 20
22.5102315552
 30
0.0
 10
7.4356390152
 20
22.4681698154
 30
0.0
 10
7.456922456
 20
22.4242852056
 30
0.0
 10
7.4709048069
 20
22.3955129123
 30
0.0
 10
7.4824064173
 20
22.3719072044
 30
0.0
 10
7.4942879114
 20
22.3475698072
 30
0.0
 10
7.5094467755
 20
22.3165089325
 30
0.0
 10
7.5246980005
 20
22.2849909375
 30
0.0
 10
7.5370125992
 20
22.2592578966
 30
0.0
 10
7.5463891883
 20
22.2396264741
 30
0.0
 10
7.5558824625
 20
22.2198019825
 30
0.0
 10
7.5655222324
 20
22.1998102077
 30
0.0
 10
7.5753452041
 20
22.1796818194
 30
0.0
 10
7.5853446185
 20
22.1594291006
 30
0.0
 10
7.5954836916
 20
22.1390517567
 30
0.0
 10
7.6040109043
 20
22.1219966972
 30
0.0
 10
7.6108727522
 20
22.1082897912
 30
0.0
 10
7.6177755089
 20
22.0945065985
 30
0.0
 10
7.62639952
 20
22.0771992173
 30
0.0
 10
7.6348781168
 20
22.059773672
 30
0.0
 10
7.6415112764
 20
22.0457122984
 30
0.0
 10
7.6463973835
 20
22.0350928131
 30
0.0
 10
7.6511649442
 20
22.0244000363
 30
0.0
 10
7.6558265038
 20
22.0136416848
 30
0.0
 10
7.6604434245
 20
22.0028453723
 30
0.0
 10
7.6650676287
 20
21.9920338415
 30
0.0
 10
7.6697537546
 20
21.9812310352
 30
0.0
 10
7.6745552934
 20
21.9704604023
 30
0.0
 10
7.6795272267
 20
21.9597473077
 30
0.0
 10
7.6847155856
 20
21.9491186158
 30
0.0
 10
7.6901197414
 20
21.9385839133
 30
0.0
 10
7.6976143936
 20
21.9246852243
 30
0.0
 10
7.7035660813
 20
21.9144409007
 30
0.0
 10
7.7076851126
 20
21.9077070268
 30
0.0
  0
SPLINE
  5
3F0
100
AcDbEntity
  8
0
100
AcDbSpline
 62
9
  6
CONTINUOUS
 70
0
 71
3
 72
42
 73
38
 74
0
 42
0.0000001
 43
0.0000001
 44
0.0000000001
 40
0.0
 40
0.0
 40
0.0
 40
0.0
 40
0.094146165
 40
0.1871701729
 40
0.2785097256
 40
0.3675564689
 40
0.4536644153
 40
0.5361566961
 40
0.6143309827
 40
0.687463857
 40
0.7548143572
 40
0.7860858239
 40
0.8156272972
 40
0.843342444
 40
0.8691343033
 40
0.8929053501
 40
0.9145575629
 40
0.9339925007
 40
0.9511114043
 40
0.9658153517
 40
0.972230831
 40
0.978005568
 40
0.9831273467
 40
0.9875841009
 40
0.9913640453
 40
0.9929966961
 40
0.9944560212
 40
0.9957408272
 40
0.9968501109
 40
0.9977832081
 40
0.9985401174
 40
0.9991223175
 40
0.9995352883
 40
0.9996838821
 40
0.9998010181
 40
0.9998995387
 40
1.0
 40
1.0
 40
1.0
 40
1.0
 10
8.2292746919
 20
20.9484021563
 30
0.0
 10
8.2417426493
 20
20.9527647876
 30
0.0
 10
8.2663395944
 20
20.9619908307
 30
0.0
 10
8.3023592382
 20
20.9771636273
 30
0.0
 10
8.337166165
 20
20.9933067507
 30
0.0
 10
8.3705729051
 20
21.0101132493
 30
0.0
 10
8.4023927361
 20
21.0272765837
 30
0.0
 10
8.4324382492
 20
21.0444900373
 30
0.0
 10
8.4605218387
 20
21.0614468757
 30
0.0
 10
8.4864555972
 20
21.0778402554
 30
0.0
 10
8.5065887289
 20
21.0910854285
 30
0.0
 10
8.5214894213
 20
21.1011515034
 30
0.0
 10
8.531730545
 20
21.1081801463
 30
0.0
 10
8.5412931622
 20
21.1148382319
 30
0.0
 10
8.5501537285
 20
21.1210873498
 30
0.0
 10
8.5582886692
 20
21.1268891087
 30
0.0
 10
8.565674399
 20
21.1322051386
 30
0.0
 10
8.5722872646
 20
21.1369971702
 30
0.0
 10
8.5781036427
 20
21.1412269047
 30
0.0
 10
8.5824440232
 20
21.1443804295
 30
0.0
 10
8.5855036723
 20
21.1465888305
 30
0.0
 10
8.5874780756
 20
21.1480036134
 30
0.0
 10
8.589235645
 20
21.1492491445
 30
0.0
 10
8.5907734167
 20
21.1503206822
 30
0.0
 10
8.5919188727
 20
21.1510988608
 30
0.0
 10
8.5927244171
 20
21.1516287165
 30
0.0
 10
8.5932416574
 20
21.151959761
 30
0.0
 10
8.5937017296
 20
21.1522437764
 30
0.0
 10
8.594104286
 20
21.1524802914
 30
0.0
 10
8.5944488909
 20
21.1526687533
 30
0.0
 10
8.5947354316
 20
21.1528092641
 30
0.0
 10
8.5949633715
 20
21.1529010444
 30
0.0
 10
8.5951197332
 20
21.152943299
 30
0.0
 10
8.5952154007
 20
21.1529460348
 30
0.0
 10
8.5952662016
 20
21.1529348059
 30
0.0
 10
8.5953032588
 20
21.1529074241
 30
0.0
 10
8.5953147705
 20
21.1528806228
 30
0.0
 10
8.5953179221
 20
21.1528668845
 30
0.0
  0
SPLINE
  5
3F1
100
AcDbEntity
  8
0
100
AcDbSpline
 62
9
  6
CONTINUOUS
 70
0
 71
3
 72
39
 73
35
 74
0
 42
0.0000001
 43
0.0000001
 44
0.0000000001
 40
0.0
 40
0.0
 40
0.0
 40
0.0
 40
0.0940863122
 40
0.186910433
 40
0.2779684635
 40
0.3666985905
 40
0.4524913749
 40
0.5346981336
 40
0.6126377546
 40
0.6856022466
 40
0.7528612852
 40
0.7841181276
 40
0.8136664473
 40
0.8414102671
 40
0.8672528355
 40
0.8910967198
 40
0.9128439098
 40
0.932395946
 40
0.949654099
 40
0.9645196645
 40
0.9710245373
 40
0.97689459
 40
0.9821178768
 40
0.9866827683
 40
0.9905782038
 40
0.9937942226
 40
0.995145031
 40
0.9963235284
 40
0.997329776
 40
0.9981649003
 40
0.9988321963
 40
0.9993399739
 40
0.999709924
 40
1.0
 40
1.0
 40
1.0
 40
1.0
 10
8.1741551412
 20
21.0501764115
 30
0.0
 10
8.1874932747
 20
21.0559135908
 30
0.0
 10
8.21371086
 20
21.0679715332
 30
0.0
 10
8.2518546055
 20
21.0876239627
 30
0.0
 10
8.2884620281
 20
21.1083765901
 30
0.0
 10
8.3233771877
 20
21.1298558265
 30
0.0
 10
8.3564451231
 20
21.1516888399
 30
0.0
 10
8.387509933
 20
21.1735025879
 30
0.0
 10
8.4164154133
 20
21.1949240551
 30
0.0
 10
8.4430049482
 20
21.2155800882
 30
0.0
 10
8.4635769082
 20
21.2322291005
 30
0.0
 10
8.4787746262
 20
21.2448632585
 30
0.0
 10
8.4892144365
 20
21.2536808601
 30
0.0
 10
8.4989576232
 20
21.2620277815
 30
0.0
 10
8.5079845262
 20
21.269857312
 30
0.0
 10
8.5162754358
 20
21.2771227727
 30
0.0
 10
8.523810624
 20
21.2837775159
 30
0.0
 10
8.5305702477
 20
21.2897750457
 30
0.0
 10
8.5365345188
 20
21.2950688229
 30
0.0
 10
8.541003811
 20
21.2990137796
 30
0.0
 10
8.5441722923
 20
21.3017765808
 30
0.0
 10
8.5462296855
 20
21.3035493956
 30
0.0
 10
8.5480734486
 20
21.305111385
 30
0.0
 10
8.5497010157
 20
21.306456987
 30
0.0
 10
8.5511098804
 20
21.3075805432
 30
0.0
 10
8.5521520293
 20
21.3083680532
 30
0.0
 10
8.5528774131
 20
21.3088780699
 30
0.0
 10
8.553332878
 20
21.3091786469
 30
0.0
 10
8.5537319338
 20
21.309419767
 30
0.0
 10
8.5540743052
 20
21.3096008778
 30
0.0
 10
8.5543605858
 20
21.3097225798
 30
0.0
 10
8.5545915508
 20
21.3097839917
 30
0.0
 10
8.5547761519
 20
21.3097880294
 30
0.0
 10
8.5548708032
 20
21.3097327114
 30
0.0
 10
8.554898856
 20
21.3096978261
 30
0.0
  0
SPLINE
  5
3F2
100
AcDbEntity
  8
0
100
AcDbSpline
 62
7
  6
CONTINUOUS
 70
0
 71
3
 72
14
 73
10
 74
0
 42
0.0000001
 43
0.0000001
 44
0.0000000001
 40
0.0
 40
0.0
 40
0.0
 40
0.0
 40
0.1217319502
 40
0.2445655372
 40
0.3684094807
 40
0.4931844765
 40
0.6188195424
 40
0.7452366164
 40
1.0
 40
1.0
 40
1.0
 40
1.0
 10
8.2292745848
 20
20.9484006379
 30
0.0
 10
8.2321840023
 20
20.9424036506
 30
0.0
 10
8.2379252451
 20
20.93030465
 30
0.0
 10
8.2462466099
 20
20.9119273877
 30
0.0
 10
8.2542875278
 20
20.8932439654
 30
0.0
 10
8.2620303117
 20
20.8742693829
 30
0.0
 10
8.2694877178
 20
20.8550297213
 30
0.0
 10
8.2790894597
 20
20.8289920574
 30
0.0
 10
8.2858280265
 20
20.8092326542
 30
0.0
 10
8.2901046634
 20
20.795954727
 30
0.0
  0
SPLINE
  5
3F3
100
AcDbEntity
  8
0
100
AcDbSpline
 62
7
  6
CONTINUOUS
 70
0
 71
3
 72
24
 73
20
 74
0
 42
0.0000001
 43
0.0000001
 44
0.0000000001
 40
0.0
 40
0.0
 40
0.0
 40
0.0
 40
0.0753632801
 40
0.1504498872
 40
0.2249399182
 40
0.2985067896
 40
0.3708204453
 40
0.441550614
 40
0.5103703523
 40
0.5769601733
 40
0.6410131633
 40
0.7022416702
 40
0.7603864226
 40
0.8152293904
 40
0.866612368
 40
0.9144642051
 40
0.937085822
 40
0.9588597966
 40
1.0
 40
1.0
 40
1.0
 40
1.0
 10
8.2901046634
 20
20.795954727
 30
0.0
 10
8.2773989202
 20
20.7930101489
 30
0.0
 10
8.2519155024
 20
20.7876315173
 30
0.0
 10
8.2135386695
 20
20.7810495364
 30
0.0
 10
8.1752504356
 20
20.7759479627
 30
0.0
 10
8.137277052
 20
20.7723183061
 30
0.0
 10
8.0998437482
 20
20.7701517924
 30
0.0
 10
8.0631758936
 20
20.769439626
 30
0.0
 10
8.0274985598
 20
20.7701729021
 30
0.0
 10
7.9930364491
 20
20.772342637
 30
0.0
 10
7.9600136909
 20
20.7759398016
 30
0.0
 10
7.9286534495
 20
20.7809554763
 30
0.0
 10
7.8991778556
 20
20.7873810384
 30
0.0
 10
7.8718062577
 20
20.7952091056
 30
0.0
 10
7.8467587141
 20
20.8044336127
 30
0.0
 10
7.827652783
 20
20.8134469285
 30
0.0
 10
7.8138053088
 20
20.8214094627
 30
0.0
 10
7.8014238348
 20
20.8295302223
 30
0.0
 10
7.7928889816
 20
20.8363683546
 30
0.0
 10
7.787710153
 20
20.8412541615
 30
0.0
  0
SPLINE
  5
3F4
100
AcDbEntity
  8
0
100
AcDbSpline
 62
9
  6
CONTINUOUS
 70
0
 71
3
 72
21
 73
17
 74
0
 42
0.0000001
 43
0.0000001
 44
0.0000000001
 40
0.0
 40
0.0
 40
0.0
 40
0.0
 40
0.075153257
 40
0.1490143977
 40
0.2216357522
 40
0.2930404606
 40
0.4320712737
 40
0.5654198336
 40
0.6296338057
 40
0.6918197228
 40
0.7516010048
 40
0.8086029987
 40
0.8624328778
 40
0.9126098403
 40
0.9586318852
 40
1.0
 40
1.0
 40
1.0
 40
1.0
 10
8.1741554209
 20
21.0501758945
 30
0.0
 10
8.1637744912
 20
21.0457072462
 30
0.0
 10
8.143034433
 20
21.0372068145
 30
0.0
 10
8.1118097836
 20
21.0255347358
 30
0.0
 10
8.0808169831
 20
21.0148888112
 30
0.0
 10
8.0402588053
 20
21.0019570473
 30
0.0
 10
7.9906056106
 20
20.9875255106
 30
0.0
 10
7.9416930187
 20
20.974489654
 30
0.0
 10
7.9038823822
 20
20.9646814194
 30
0.0
 10
7.8767736934
 20
20.9576778553
 30
0.0
 10
7.8507326024
 20
20.9508779988
 30
0.0
 10
7.8259508949
 20
20.9442298888
 30
0.0
 10
7.8026383729
 20
20.9376848943
 30
0.0
 10
7.7809965138
 20
20.9313046024
 30
0.0
 10
7.7612422302
 20
20.9251569979
 30
0.0
 10
7.7487654762
 20
20.921024657
 30
0.0
 10
7.7428845428
 20
20.9189956248
 30
0.0
  0
SPLINE
  5
3F5
100
AcDbEntity
  8
0
100
AcDbSpline
 62
9
  6
CONTINUOUS
 70
0
 71
3
 72
15
 73
11
 74
0
 42
0.0000001
 43
0.0000001
 44
0.0000000001
 40
0.0
 40
0.0
 40
0.0
 40
0.0
 40
0.1291905498
 40
0.2575428947
 40
0.3853331185
 40
0.5124604949
 40
0.6385464099
 40
0.7626403998
 40
0.8835994287
 40
1.0
 40
1.0
 40
1.0
 40
1.0
 10
8.09619298
 20
21.1810182611
 30
0.0
 10
8.0799182389
 20
21.1719307512
 30
0.0
 10
8.0469113187
 20
21.1548127185
 30
0.0
 10
7.9963941735
 20
21.1315662255
 30
0.0
 10
7.9454481812
 20
21.1100446075
 30
0.0
 10
7.8944080908
 20
21.0896238365
 30
0.0
 10
7.8437325276
 20
21.0697351749
 30
0.0
 10
7.7940060547
 20
21.0498615797
 30
0.0
 10
7.7459675934
 20
21.0295502512
 30
0.0
 10
7.7148175331
 20
21.0152983926
 30
0.0
 10
7.699694622
 20
21.0079937849
 30
0.0
  0
SPLINE
  5
3F6
100
AcDbEntity
  8
0
100
AcDbSpline
 62
9
  6
CONTINUOUS
 70
0
 71
3
 72
41
 73
37
 74
0
 42
0.0000001
 43
0.0000001
 44
0.0000000001
 40
0.0
 40
0.0
 40
0.0
 40
0.0
 40
0.0934533628
 40
0.1856698008
 40
0.276195187
 40
0.3645012403
 40
0.4499986454
 40
0.5320478399
 40
0.6099678173
 40
0.6830432874
 40
0.7175334874
 40
0.7505316151
 40
0.781941041
 40
0.8116639011
 40
0.8396012019
 40
0.8656529169
 40
0.8897180756
 40
0.9116948486
 40
0.9314806308
 40
0.9489721287
 40
0.9568250812
 40
0.9640654683
 40
0.9706802392
 40
0.9766563317
 40
0.9819806873
 40
0.9866402769
 40
0.9906221481
 40
0.9939135242
 40
0.9965020398
 40
0.9975291688
 40
0.99837658
 40
0.9990435333
 40
0.9995303536
 40
0.9997072819
 40
0.9998415272
 40
1.0
 40
1.0
 40
1.0
 40
1.0
 10
8.0961940349
 20
21.1810190924
 30
0.0
 10
8.1104576742
 20
21.1889567179
 30
0.0
 10
8.1383527596
 20
21.205535957
 30
0.0
 10
8.1785211471
 20
21.2322865859
 30
0.0
 10
8.2166910414
 20
21.2603215774
 30
0.0
 10
8.252752333
 20
21.2891723288
 30
0.0
 10
8.2865962144
 20
21.3183716055
 30
0.0
 10
8.3181125742
 20
21.3474518478
 30
0.0
 10
8.347190704
 20
21.3759453199
 30
0.0
 10
8.3697132804
 20
21.3992404908
 30
0.0
 10
8.3864488496
 20
21.4172059811
 30
0.0
 10
8.3980775673
 20
21.4299807306
 30
0.0
 10
8.4090130518
 20
21.442259051
 30
0.0
 10
8.4192413348
 20
21.4539823385
 30
0.0
 10
8.4287484164
 20
21.4650919541
 30
0.0
 10
8.43752029
 20
21.4755292745
 30
0.0
 10
8.4455429346
 20
21.4852356812
 30
0.0
 10
8.4528022914
 20
21.494152584
 30
0.0
 10
8.4592843006
 20
21.5022213915
 30
0.0
 10
8.4641879886
 20
21.5083934695
 30
0.0
 10
8.467715165
 20
21.5128603885
 30
0.0
 10
8.4700608457
 20
21.515839522
 30
0.0
 10
8.4722016731
 20
21.5185626933
 30
0.0
 10
8.4741358737
 20
21.5210225931
 30
0.0
 10
8.4758616352
 20
21.5232119471
 30
0.0
 10
8.4773771583
 20
21.5251234761
 30
0.0
 10
8.4786804544
 20
21.5267500832
 30
0.0
 10
8.479769796
 20
21.5280844872
 30
0.0
 10
8.4805468511
 20
21.5290074881
 30
0.0
 10
8.4810635613
 20
21.5295913547
 30
0.0
 10
8.4813651968
 20
21.5299169458
 30
0.0
 10
8.481612651
 20
21.5301645422
 30
0.0
 10
8.4817852328
 20
21.5303192508
 30
0.0
 10
8.4819003724
 20
21.5304009484
 30
0.0
 10
8.4819687781
 20
21.5304399488
 30
0.0
 10
8.4820287495
 20
21.5304559072
 30
0.0
 10
8.4820518188
 20
21.5304406096
 30
0.0
  0
SPLINE
  5
3F7
100
AcDbEntity
  8
0
100
AcDbSpline
 62
9
  6
CONTINUOUS
 70
0
 71
3
 72
14
 73
10
 74
0
 42
0.0000001
 43
0.0000001
 44
0.0000000001
 40
0.0
 40
0.0
 40
0.0
 40
0.0
 40
0.1223510855
 40
0.2459213208
 40
0.3706265865
 40
0.4962257107
 40
0.748657754
 40
0.8746645003
 40
1.0
 40
1.0
 40
1.0
 40
1.0
 10
8.0742294854
 20
21.2186722733
 30
0.0
 10
8.0592119357
 20
21.209654045
 30
0.0
 10
8.0284648864
 20
21.1924544088
 30
0.0
 10
7.9809336123
 20
21.1688319211
 30
0.0
 10
7.9321475345
 20
21.1467830223
 30
0.0
 10
7.8658239773
 20
21.1188069533
 30
0.0
 10
7.7987449438
 20
21.0921894068
 30
0.0
 10
7.7319914099
 20
21.0648707507
 30
0.0
 10
7.6989327422
 20
21.0506452243
 30
0.0
 10
7.6825547479
 20
21.0433124978
 30
0.0
  0
SPLINE
  5
3F8
100
AcDbEntity
  8
0
100
AcDbSpline
 62
7
  6
CONTINUOUS
 70
0
 71
3
 72
27
 73
23
 74
0
 42
0.0000001
 43
0.0000001
 44
0.0000000001
 40
0.0
 40
0.0
 40
0.0
 40
0.0
 40
0.0763590878
 40
0.1526720822
 40
0.2283419735
 40
0.3028783962
 40
0.3758097833
 40
0.4466779803
 40
0.5150836942
 40
0.5806875785
 40
0.6432402806
 40
0.7025791786
 40
0.7310360622
 40
0.7586871504
 40
0.8116433258
 40
0.8370429486
 40
0.8617861302
 40
0.9094752405
 40
0.9325802426
 40
0.9552972731
 40
0.9777283028
 40
1.0
 40
1.0
 40
1.0
 40
1.0
 10
7.8206215161
 20
0.4697258421
 30
0.0
 10
7.8165239688
 20
0.3537792971
 30
0.0
 10
7.8133511362
 20
0.1217488317
 30
0.0
 10
7.8234448603
 20
-0.2251455082
 30
0.0
 10
7.8483707044
 20
-0.5685238552
 30
0.0
 10
7.8879007246
 20
-0.9053591825
 30
0.0
 10
7.9417296193
 20
-1.2328248273
 30
0.0
 10
8.00947691
 20
-1.5481877252
 30
0.0
 10
8.0906654761
 20
-1.8488595196
 30
0.0
 10
8.1848009844
 20
-2.1324777424
 30
0.0
 10
8.2913704228
 20
-2.3968863307
 30
0.0
 10
8.391552392
 20
-2.6024495321
 30
0.0
 10
8.4779020856
 20
-2.7551907101
 30
0.0
 10
8.565610443
 20
-2.8958254309
 30
0.0
 10
8.6601868992
 20
-3.0265987234
 30
0.0
 10
8.7622158059
 20
-3.145570587
 30
0.0
 10
8.8654755445
 20
-3.2525710473
 30
0.0
 10
8.9760945769
 20
-3.3474177847
 30
0.0
 10
9.0938025995
 20
-3.4272046696
 30
0.0
 10
9.1841359038
 20
-3.4783915076
 30
0.0
 10
9.277384313
 20
-3.521098264
 30
0.0
 10
9.3415737067
 20
-3.5436607137
 30
0.0
 10
9.3739998136
 20
-3.5533378044
 30
0.0
  0
SPLINE
  5
3F9
100
AcDbEntity
  8
0
100
AcDbSpline
 62
7
  6
CONTINUOUS
 70
0
 71
3
 72
29
 73
25
 74
0
 42
0.0000001
 43
0.0000001
 44
0.0000000001
 40
0.0
 40
0.0
 40
0.0
 40
0.0
 40
0.0811673708
 40
0.1623203127
 40
0.2427956629
 40
0.3220418983
 40
0.399519633
 40
0.4746774288
 40
0.5469844494
 40
0.6159381609
 40
0.6490110662
 40
0.6810693337
 40
0.7419168391
 40
0.770612559
 40
0.7980892366
 40
0.8243039767
 40
0.8492199368
 40
0.8728044075
 40
0.8950300069
 40
0.9158821808
 40
0.9353567697
 40
0.9534514148
 40
0.970181004
 40
1.0
 40
1.0
 40
1.0
 40
1.0
 10
8.3802721476
 20
0.4499478059
 30
0.0
 10
8.3766729545
 20
0.3481029768
 30
0.0
 10
8.3736426242
 20
0.144260825
 30
0.0
 10
8.3814038707
 20
-0.1605580282
 30
0.0
 10
8.4014625542
 20
-0.462405364
 30
0.0
 10
8.4335828661
 20
-0.7585693522
 30
0.0
 10
8.4774606244
 20
-1.0464749837
 30
0.0
 10
8.5326432515
 20
-1.3235604999
 30
0.0
 10
8.5985574081
 20
-1.5872785256
 30
0.0
 10
8.6626800671
 20
-1.7966834632
 30
0.0
 10
8.7189589829
 20
-1.9553716206
 30
0.0
 10
8.7763217024
 20
-2.1027910046
 30
0.0
 10
8.838412852
 20
-2.2424262623
 30
0.0
 10
8.9054360731
 20
-2.3732032765
 30
0.0
 10
8.9561633372
 20
-2.4633840438
 30
0.0
 10
9.0081375746
 20
-2.5473205455
 30
0.0
 10
9.0610771449
 20
-2.6248034258
 30
0.0
 10
9.114690544
 20
-2.6956387199
 30
0.0
 10
9.168714929
 20
-2.7596212331
 30
0.0
 10
9.2228142891
 20
-2.8166194083
 30
0.0
 10
9.2765312831
 20
-2.8666353732
 30
0.0
 10
9.3294720026
 20
-2.9096941509
 30
0.0
 10
9.3960709822
 20
-2.9561440843
 30
0.0
 10
9.4479111137
 20
-2.9839464837
 30
0.0
 10
9.4824911313
 20
-2.9982951331
 30
0.0
  0
SPLINE
  5
3FA
100
AcDbEntity
  8
0
100
AcDbSpline
 62
7
  6
CONTINUOUS
 70
0
 71
3
 72
9
 73
5
 74
0
 42
0.0000001
 43
0.0000001
 44
0.0000000001
 40
0.0
 40
0.0
 40
0.0
 40
0.0
 40
0.2568306799
 40
1.0
 40
1.0
 40
1.0
 40
1.0
 10
9.4824911313
 20
-2.9982951331
 30
0.0
 10
9.4868287649
 20
-3.0000949929
 30
0.0
 10
9.5038042017
 20
-3.0068923637
 30
0.0
 10
9.5211225163
 20
-3.0128384303
 30
0.0
 10
9.5341440895
 20
-3.0167245257
 30
0.0
  0
SPLINE
  5
3FB
100
AcDbEntity
  8
0
100
AcDbSpline
 62
9
  6
CONTINUOUS
 70
0
 71
3
 72
26
 73
22
 74
0
 42
0.0000001
 43
0.0000001
 44
0.0000000001
 40
0.0
 40
0.0
 40
0.0
 40
0.0
 40
0.1643226736
 40
0.3379550121
 40
0.5095402882
 40
0.5911812737
 40
0.6682544834
 40
0.7395337577
 40
0.8038894464
 40
0.8602717623
 40
0.9078403382
 40
0.9280734575
 40
0.9458289167
 40
0.9610625448
 40
0.973740564
 40
0.9838451659
 40
0.9913976961
 40
0.994260516
 40
0.9965710856
 40
0.9984243272
 40
1.0
 40
1.0
 40
1.0
 40
1.0
 10
8.5537252384
 20
9.7307790205
 30
0.0
 10
8.531375952
 20
9.7307790205
 30
0.0
 10
8.4854104837
 20
9.7313072506
 30
0.0
 10
8.4161359504
 20
9.7333582515
 30
0.0
 10
8.3581402758
 20
9.7360929436
 30
0.0
 10
8.3133015785
 20
9.7388633687
 30
0.0
 10
8.2821018178
 20
9.7411272251
 30
0.0
 10
8.2532744739
 20
9.743572974
 30
0.0
 10
8.2272852148
 20
9.7461552777
 30
0.0
 10
8.2045503255
 20
9.7488361353
 30
0.0
 10
8.1878252781
 20
9.7512128222
 30
0.0
 10
8.1763545437
 20
9.753174359
 30
0.0
 10
8.1692489773
 20
9.7545612302
 30
0.0
 10
8.1631910981
 20
9.7559362949
 30
0.0
 10
8.1581977529
 20
9.757290465
 30
0.0
 10
8.1542899246
 20
9.7586174411
 30
0.0
 10
8.1517346419
 20
9.7597709394
 30
0.0
 10
8.1502872569
 20
9.7607282055
 30
0.0
 10
8.1495772898
 20
9.7613758595
 30
0.0
 10
8.1491338299
 20
9.7620322772
 30
0.0
 10
8.149034351
 20
9.7625053357
 30
0.0
 10
8.1490419601
 20
9.7627195055
 30
0.0
  0
SPLINE
  5
3FC
100
AcDbEntity
  8
0
100
AcDbSpline
 62
9
  6
CONTINUOUS
 70
0
 71
3
 72
23
 73
19
 74
0
 42
0.0000001
 43
0.0000001
 44
0.0000000001
 40
0.0
 40
0.0
 40
0.0
 40
0.0
 40
0.2120219247
 40
0.4054980034
 40
0.5759937984
 40
0.6515811986
 40
0.7203055406
 40
0.7818569527
 40
0.835948832
 40
0.8823916563
 40
0.9210442715
 40
0.9518078637
 40
0.9642306594
 40
0.9747037897
 40
0.9832956581
 40
0.9901450876
 40
0.9955278263
 40
1.0
 40
1.0
 40
1.0
 40
1.0
 10
8.2253111183
 20
0.4377851335
 30
0.0
 10
8.2363964195
 20
0.4377851335
 30
0.0
 10
8.2575977312
 20
0.4379096254
 30
0.0
 10
8.2877079465
 20
0.4385056354
 30
0.0
 10
8.3106757751
 20
0.4393582545
 30
0.0
 10
8.3271104011
 20
0.4402673504
 30
0.0
 10
8.3378482843
 20
0.4410125531
 30
0.0
 10
8.3474523942
 20
0.4418442121
 30
0.0
 10
8.3558780745
 20
0.4427592069
 30
0.0
 10
8.3630891818
 20
0.44374971
 30
0.0
 10
8.369054686
 20
0.444809411
 30
0.0
 10
8.3732236107
 20
0.44579556
 30
0.0
 10
8.3758967932
 20
0.446652299
 30
0.0
 10
8.3774275067
 20
0.4472629106
 30
0.0
 10
8.378633731
 20
0.4478871894
 30
0.0
 10
8.3795200158
 20
0.4485289779
 30
0.0
 10
8.3800977452
 20
0.4492017778
 30
0.0
 10
8.3802575216
 20
0.4497143548
 30
0.0
 10
8.3802658237
 20
0.4499480294
 30
0.0
  0
SPLINE
  5
3FD
100
AcDbEntity
  8
0
100
AcDbSpline
 62
9
  6
CONTINUOUS
 70
0
 71
3
 72
24
 73
20
 74
0
 42
0.0000001
 43
0.0000001
 44
0.0000000001
 40
0.0
 40
0.0
 40
0.0
 40
0.0
 40
0.0590395436
 40
0.1192191266
 40
0.1805533008
 40
0.2431410446
 40
0.3069353396
 40
0.3716921695
 40
0.4370921377
 40
0.5027430689
 40
0.5682374146
 40
0.6331717942
 40
0.6972091707
 40
0.7288338796
 40
0.7601530607
 40
0.8217754425
 40
0.8821554678
 40
0.9414513205
 40
1.0
 40
1.0
 40
1.0
 40
1.0
 10
9.4706462284
 20
-3.0074934164
 30
0.0
 10
9.4562020477
 20
-3.0074934164
 30
0.0
 10
9.4269691746
 20
-3.0103404352
 30
0.0
 10
9.3843088812
 20
-3.0226647109
 30
0.0
 10
9.3437620881
 20
-3.042814064
 30
0.0
 10
9.3065451468
 20
-3.0700851997
 30
0.0
 10
9.2737154705
 20
-3.1036724196
 30
0.0
 10
9.2462210036
 20
-3.1425834223
 30
0.0
 10
9.2248549452
 20
-3.1856714303
 30
0.0
 10
9.2102556429
 20
-3.2316814967
 30
0.0
 10
9.2028048677
 20
-3.2792628315
 30
0.0
 10
9.2027845718
 20
-3.3270270245
 30
0.0
 10
9.2089424991
 20
-3.3660184446
 30
0.0
 10
9.2175461893
 20
-3.3959028645
 30
0.0
 10
9.2283820461
 20
-3.4244180748
 30
0.0
 10
9.2461155315
 20
-3.4577023716
 30
0.0
 10
9.2737155517
 20
-3.4927309331
 30
0.0
 10
9.306677639
 20
-3.5216458172
 30
0.0
 10
9.3317503642
 20
-3.5363023375
 30
0.0
 10
9.3447587823
 20
-3.542299053
 30
0.0
  0
LINE
  5
3FE
100
AcDbEntity
  8
0
100
AcDbLine
 62
9
  6
CONTINUOUS
 10
13.5949625114
 20
-4.2077779904
 11
13.5924328379
 21
-4.2077680557
  0
SPLINE
  5
3FF
100
AcDbEntity
  8
0
100
AcDbSpline
 62
9
  6
CONTINUOUS
 70
0
 71
3
 72
9
 73
5
 74
0
 42
0.0000001
 43
0.0000001
 44
0.0000000001
 40
0.0
 40
0.0
 40
0.0
 40
0.0
 40
0.4800290257
 40
1.0
 40
1.0
 40
1.0
 40
1.0
 10
13.5637690263
 20
-4.2069026359
 30
0.0
 10
13.5422833172
 20
-4.2057514063
 30
0.0
 10
13.4976300206
 20
-4.2010769004
 30
0.0
 10
13.4535685854
 20
-4.1925632209
 30
0.0
 10
13.4308621329
 20
-4.1873070942
 30
0.0
  0
SPLINE
  5
400
100
AcDbEntity
  8
0
100
AcDbSpline
 62
7
  6
CONTINUOUS
 70
0
 71
3
 72
14
 73
10
 74
0
 42
0.0000001
 43
0.0000001
 44
0.0000000001
 40
0.0
 40
0.0
 40
0.0
 40
0.0
 40
0.1405868913
 40
0.2733035663
 40
0.5227322677
 40
0.6431824029
 40
0.7623363745
 40
0.8810161993
 40
1.0
 40
1.0
 40
1.0
 40
1.0
 10
11.3802965719
 20
14.6041306428
 30
0.0
 10
11.3852140488
 20
14.5993780362
 30
0.0
 10
11.3954322237
 20
14.5907862242
 30
0.0
 10
11.4170278098
 20
14.5772519431
 30
0.0
 10
11.4400523858
 20
14.5682518695
 30
0.0
 10
11.4633728328
 20
14.5634154657
 30
0.0
 10
11.4807309779
 20
14.5615513769
 30
0.0
 10
11.4981123181
 20
14.5613651281
 30
0.0
 10
11.5096516552
 20
14.5623617605
 30
0.0
 10
11.5153878475
 20
14.5631337282
 30
0.0
  0
SPLINE
  5
401
100
AcDbEntity
  8
0
100
AcDbSpline
 62
7
  6
CONTINUOUS
 70
0
 71
3
 72
13
 73
9
 74
0
 42
0.0000001
 43
0.0000001
 44
0.0000000001
 40
0.0
 40
0.0
 40
0.0
 40
0.0
 40
0.2359919315
 40
0.4756180588
 40
0.5991118939
 40
0.7267031071
 40
0.8597460323
 40
1.0
 40
1.0
 40
1.0
 40
1.0
 10
11.5001774563
 20
15.0518702957
 30
0.0
 10
11.4899105635
 20
15.0523764074
 30
0.0
 10
11.4690975246
 20
15.0516026301
 30
0.0
 10
11.4434105902
 20
15.0461724643
 30
0.0
 10
11.4233707894
 20
15.0386364662
 30
0.0
 10
11.4083918636
 20
15.0311022607
 30
0.0
 10
11.3937718688
 20
15.0214803984
 30
0.0
 10
11.3846894389
 20
15.0137266681
 30
0.0
 10
11.3802965719
 20
15.0094810826
 30
0.0
  0
SPLINE
  5
402
100
AcDbEntity
  8
0
100
AcDbSpline
 62
9
  6
CONTINUOUS
 70
0
 71
3
 72
26
 73
22
 74
0
 42
0.0000001
 43
0.0000001
 44
0.0000000001
 40
0.0
 40
0.0
 40
0.0
 40
0.0
 40
0.0015756728
 40
0.0034289144
 40
0.005739484
 40
0.0086023039
 40
0.0161548341
 40
0.026259436
 40
0.0389374552
 40
0.0541710833
 40
0.0719265425
 40
0.0921596618
 40
0.1397282377
 40
0.1961105536
 40
0.2604662423
 40
0.3317455166
 40
0.4088187263
 40
0.4904597118
 40
0.6620449879
 40
0.8356773264
 40
1.0
 40
1.0
 40
1.0
 40
1.0
 10
7.82062784
 20
0.4697256186
 30
0.0
 10
7.820620231
 20
0.4695114488
 30
0.0
 10
7.8207197098
 20
0.4690383903
 30
0.0
 10
7.8211631697
 20
0.4683819726
 30
0.0
 10
7.8218731368
 20
0.4677343186
 30
0.0
 10
7.8233205218
 20
0.4667770524
 30
0.0
 10
7.8258758045
 20
0.4656235541
 30
0.0
 10
7.8297836328
 20
0.4642965781
 30
0.0
 10
7.834776978
 20
0.4629424079
 30
0.0
 10
7.8408348572
 20
0.4615673433
 30
0.0
 10
7.8479404236
 20
0.460180472
 30
0.0
 10
7.859411158
 20
0.4582189353
 30
0.0
 10
7.8761362054
 20
0.4558422484
 30
0.0
 10
7.8988710947
 20
0.4531613907
 30
0.0
 10
7.9248603538
 20
0.450579087
 30
0.0
 10
7.9536876977
 20
0.4481333382
 30
0.0
 10
7.9848874585
 20
0.4458694817
 30
0.0
 10
8.0297261557
 20
0.4430990567
 30
0.0
 10
8.0877218303
 20
0.4403643645
 30
0.0
 10
8.1569963636
 20
0.4383133637
 30
0.0
 10
8.2029618319
 20
0.4377851335
 30
0.0
 10
8.2253111183
 20
0.4377851335
 30
0.0
  0
SPLINE
  5
403
100
AcDbEntity
  8
0
100
AcDbSpline
 62
9
  6
CONTINUOUS
 70
0
 71
3
 72
31
 73
27
 74
0
 42
0.0000001
 43
0.0000001
 44
0.0000000001
 40
0.0
 40
0.0
 40
0.0
 40
0.0
 40
0.0475779665
 40
0.1004095456
 40
0.159269341
 40
0.1910857825
 40
0.22436275
 40
0.2590922176
 40
0.2953308345
 40
0.3329512064
 40
0.3716333336
 40
0.4110587384
 40
0.4509450904
 40
0.491059319
 40
0.5311262846
 40
0.5707973369
 40
0.6096833894
 40
0.6473974433
 40
0.6837710752
 40
0.7187629311
 40
0.7522665681
 40
0.8141259954
 40
0.869259852
 40
0.918273894
 40
0.9615799769
 40
1.0
 40
1.0
 40
1.0
 40
1.0
 10
13.2714931412
 20
-4.7164907993
 30
0.0
 10
13.2598644445
 20
-4.7130074272
 30
0.0
 10
13.2358737615
 20
-4.7036472172
 30
0.0
 10
13.20095923
 20
-4.6824339231
 30
0.0
 10
13.1736695826
 20
-4.6576457415
 30
0.0
 10
13.1534685293
 20
-4.6332619925
 30
0.0
 10
13.1392132016
 20
-4.612101461
 30
0.0
 10
13.12665793
 20
-4.5885989979
 30
0.0
 10
13.1162652842
 20
-4.5628600261
 30
0.0
 10
13.1082922417
 20
-4.5352253772
 30
0.0
 10
13.1029094168
 20
-4.5061455501
 30
0.0
 10
13.1003412712
 20
-4.4761009178
 30
0.0
 10
13.1008165655
 20
-4.4455782143
 30
0.0
 10
13.1045237382
 20
-4.4151148815
 30
0.0
 10
13.1111537002
 20
-4.3852163978
 30
0.0
 10
13.1204364526
 20
-4.3563642109
 30
0.0
 10
13.1320860309
 20
-4.3290344966
 30
0.0
 10
13.1458911933
 20
-4.3036791954
 30
0.0
 10
13.1615036296
 20
-4.2805913386
 30
0.0
 10
13.1784640166
 20
-4.2598485689
 30
0.0
 10
13.201710367
 20
-4.2360177774
 30
0.0
 10
13.231905995
 20
-4.2119651259
 30
0.0
 10
13.2691895848
 20
-4.191476678
 30
0.0
 10
13.3047159578
 20
-4.1786703293
 30
0.0
 10
13.3375058228
 20
-4.1719798215
 30
0.0
 10
13.3583834539
 20
-4.1706563886
 30
0.0
 10
13.3681860755
 20
-4.1706563886
 30
0.0
  0
SPLINE
  5
404
100
AcDbEntity
  8
0
100
AcDbSpline
 62
7
  6
CONTINUOUS
 70
0
 71
3
 72
19
 73
15
 74
0
 42
0.0000001
 43
0.0000001
 44
0.0000000001
 40
0.0
 40
0.0
 40
0.0
 40
0.0
 40
0.1249409653
 40
0.1875819962
 40
0.2501196181
 40
0.3126004233
 40
0.3750787027
 40
0.4999999646
 40
0.6249213749
 40
0.6873996634
 40
0.7498803703
 40
0.8124178777
 40
0.8750588858
 40
1.0
 40
1.0
 40
1.0
 40
1.0
 10
11.2892043358
 20
15.0094810826
 30
0.0
 10
11.273950261
 20
15.0176170349
 30
0.0
 10
11.2498118005
 20
15.0276016161
 30
0.0
 10
11.2165652178
 20
15.0372461763
 30
0.0
 10
11.1912054497
 20
15.0429130366
 30
0.0
 10
11.1655919848
 20
15.0471183036
 30
0.0
 10
11.131217788
 20
15.0509557089
 30
0.0
 10
11.0879836042
 20
15.0528433147
 30
0.0
 10
11.0447495204
 20
15.0509545772
 30
0.0
 10
11.0103752705
 20
15.0471176798
 30
0.0
 10
10.9847617362
 20
15.0429130138
 30
0.0
 10
10.9594018873
 20
15.037246635
 30
0.0
 10
10.9261553019
 20
15.0276020084
 30
0.0
 10
10.9020169951
 20
15.0176170446
 30
0.0
 10
10.8867629021
 20
15.0094810826
 30
0.0
  0
SPLINE
  5
405
100
AcDbEntity
  8
0
100
AcDbSpline
 62
7
  6
CONTINUOUS
 70
0
 71
3
 72
11
 73
7
 74
0
 42
0.0000001
 43
0.0000001
 44
0.0000000001
 40
0.0
 40
0.0
 40
0.0
 40
0.0
 40
0.2832858457
 40
0.5382390147
 40
0.7744426355
 40
1.0
 40
1.0
 40
1.0
 40
1.0
 10
10.8017594864
 20
15.0094810826
 30
0.0
 10
10.7967163689
 20
15.0154833164
 30
0.0
 10
10.786113681
 20
15.0260930959
 30
0.0
 10
10.7682810352
 20
15.0381898701
 30
0.0
 10
10.7500595176
 20
15.0462733548
 30
0.0
 10
10.737595762
 20
15.049380757
 30
0.0
 10
10.7314405225
 20
15.0504182185
 30
0.0
  0
SPLINE
  5
406
100
AcDbEntity
  8
0
100
AcDbSpline
 62
7
  6
CONTINUOUS
 70
0
 71
3
 72
11
 73
7
 74
0
 42
0.0000001
 43
0.0000001
 44
0.0000000001
 40
0.0
 40
0.0
 40
0.0
 40
0.0
 40
0.2441259552
 40
0.4881660425
 40
0.7376203829
 40
1.0
 40
1.0
 40
1.0
 40
1.0
 10
10.7314405225
 20
15.0504182185
 30
0.0
 10
10.7249948029
 20
15.0515046403
 30
0.0
 10
10.711901813
 20
15.0526354307
 30
0.0
 10
10.6921321392
 20
15.0510333784
 30
0.0
 10
10.6724004072
 20
15.0461150699
 30
0.0
 10
10.6598551962
 20
15.0403583453
 30
0.0
 10
10.6537663211
 20
15.0368538185
 30
0.0
  0
SPLINE
  5
407
100
AcDbEntity
  8
0
100
AcDbSpline
 62
7
  6
CONTINUOUS
 70
0
 71
3
 72
9
 73
5
 74
0
 42
0.0000001
 43
0.0000001
 44
0.0000000001
 40
0.0
 40
0.0
 40
0.0
 40
0.0
 40
0.4747058343
 40
1.0
 40
1.0
 40
1.0
 40
1.0
 10
10.6537663211
 20
15.0368538185
 30
0.0
 10
10.6479315375
 20
15.0334955372
 30
0.0
 10
10.6362426514
 20
15.0253219963
 30
0.0
 10
10.6262037126
 20
15.0151847386
 30
0.0
 10
10.6214114622
 20
15.0094810826
 30
0.0
  0
SPLINE
  5
408
100
AcDbEntity
  8
0
100
AcDbSpline
 62
9
  6
CONTINUOUS
 70
0
 71
3
 72
23
 73
19
 74
0
 42
0.0000001
 43
0.0000001
 44
0.0000000001
 40
0.0
 40
0.0
 40
0.0
 40
0.0
 40
0.0044721737
 40
0.0098549124
 40
0.0167043419
 40
0.0252962103
 40
0.0357693406
 40
0.0481921363
 40
0.0789557285
 40
0.1176083437
 40
0.164051168
 40
0.2181430473
 40
0.2796944594
 40
0.3484188014
 40
0.4240062016
 40
0.5945019966
 40
0.7879780753
 40
1.0
 40
1.0
 40
1.0
 40
1.0
 10
8.7086799438
 20
9.7429419163
 30
0.0
 10
8.7086716417
 20
9.7427082417
 30
0.0
 10
8.7085118653
 20
9.7421956647
 30
0.0
 10
8.7079341359
 20
9.7415228648
 30
0.0
 10
8.7070478511
 20
9.7408810763
 30
0.0
 10
8.7058416268
 20
9.7402567976
 30
0.0
 10
8.7043109133
 20
9.7396461859
 30
0.0
 10
8.7016377308
 20
9.7387894469
 30
0.0
 10
8.6974688061
 20
9.7378032979
 30
0.0
 10
8.6915033019
 20
9.7367435969
 30
0.0
 10
8.6842921946
 20
9.7357530939
 30
0.0
 10
8.6758665143
 20
9.734838099
 30
0.0
 10
8.6662624044
 20
9.73400644
 30
0.0
 10
8.6555245211
 20
9.7332612373
 30
0.0
 10
8.6390898952
 20
9.7323521415
 30
0.0
 10
8.6161220666
 20
9.7314995223
 30
0.0
 10
8.5860118513
 20
9.7309035123
 30
0.0
 10
8.5648105396
 20
9.7307790205
 30
0.0
 10
8.5537252384
 20
9.7307790205
 30
0.0
  0
SPLINE
  5
409
100
AcDbEntity
  8
0
100
AcDbSpline
 62
7
  6
CONTINUOUS
 70
0
 71
3
 72
11
 73
7
 74
0
 42
0.0000001
 43
0.0000001
 44
0.0000000001
 40
0.0
 40
0.0
 40
0.0
 40
0.0
 40
0.2835805439
 40
0.5384944046
 40
0.7745465868
 40
1.0
 40
1.0
 40
1.0
 40
1.0
 10
10.6214114622
 20
14.6041306428
 30
0.0
 10
10.6265482341
 20
14.5980169431
 30
0.0
 10
10.6373572267
 20
14.5872254734
 30
0.0
 10
10.655578495
 20
14.5750154001
 30
0.0
 10
10.6741844496
 20
14.566953459
 30
0.0
 10
10.6868956636
 20
14.5639327516
 30
0.0
 10
10.6931685439
 20
14.5629561673
 30
0.0
  0
SPLINE
  5
40A
100
AcDbEntity
  8
0
100
AcDbSpline
 62
7
  6
CONTINUOUS
 70
0
 71
3
 72
11
 73
7
 74
0
 42
0.0000001
 43
0.0000001
 44
0.0000000001
 40
0.0
 40
0.0
 40
0.0
 40
0.0
 40
0.2254552264
 40
0.4615001796
 40
0.7164084928
 40
1.0
 40
1.0
 40
1.0
 40
1.0
 10
10.7299440996
 20
14.5629469334
 30
0.0
 10
10.7362219051
 20
14.5639209903
 30
0.0
 10
10.7489433657
 20
14.5669377451
 30
0.0
 10
10.7675648362
 20
14.5749990792
 30
0.0
 10
10.7858014178
 20
14.5872139747
 30
0.0
 10
10.7966189333
 20
14.5980124427
 30
0.0
 10
10.8017594864
 20
14.6041306428
 30
0.0
  0
SPLINE
  5
40B
100
AcDbEntity
  8
0
100
AcDbSpline
 62
7
  6
CONTINUOUS
 70
0
 71
3
 72
19
 73
15
 74
0
 42
0.0000001
 43
0.0000001
 44
0.0000000001
 40
0.0
 40
0.0
 40
0.0
 40
0.0
 40
0.1249403397
 40
0.1876140324
 40
0.2501875064
 40
0.3126602248
 40
0.3751108762
 40
0.4999996612
 40
0.6248891778
 40
0.6873404304
 40
0.7498134405
 40
0.8123865455
 40
0.8750598493
 40
1.0
 40
1.0
 40
1.0
 40
1.0
 10
10.8867629021
 20
14.6041306428
 30
0.0
 10
10.9020170232
 20
14.5959946657
 30
0.0
 10
10.9261560621
 20
14.5859992306
 30
0.0
 10
10.9594141245
 20
14.5763579849
 30
0.0
 10
10.9847836344
 20
14.570696285
 30
0.0
 10
11.010396266
 20
14.566485331
 30
0.0
 10
11.0447615357
 20
14.562647733
 30
0.0
 10
11.0879836173
 20
14.560776623
 30
0.0
 10
11.1312057897
 20
14.5626475068
 30
0.0
 10
11.1655713093
 20
14.5664849092
 30
0.0
 10
11.1911840078
 20
14.5706959366
 30
0.0
 10
11.216553395
 20
14.5763578946
 30
0.0
 10
11.2498112667
 20
14.5859993073
 30
0.0
 10
11.2739502378
 20
14.5959946781
 30
0.0
 10
11.2892043358
 20
14.6041306428
 30
0.0
  0
SPLINE
  5
40C
100
AcDbEntity
  8
0
100
AcDbSpline
 62
9
  6
CONTINUOUS
 70
0
 71
3
 72
58
 73
54
 74
0
 42
0.0000001
 43
0.0000001
 44
0.0000000001
 40
0.0
 40
0.0
 40
0.0
 40
0.0
 40
0.0153774867
 40
0.0312165283
 40
0.0474949511
 40
0.0641898292
 40
0.0987349546
 40
0.1346663611
 40
0.1717946607
 40
0.2099367338
 40
0.2489095702
 40
0.2885269073
 40
0.3286006172
 40
0.3689466256
 40
0.4497249901
 40
0.4897900598
 40
0.5293957338
 40
0.5683620086
 40
0.6065101816
 40
0.643663206
 40
0.6796490668
 40
0.7143018533
 40
0.7474620507
 40
0.7789788659
 40
0.8087229931
 40
0.8229002035
 40
0.8365995999
 40
0.849814307
 40
0.8625415145
 40
0.8747838204
 40
0.8865503131
 40
0.8978535948
 40
0.9087108101
 40
0.9191351841
 40
0.9291323005
 40
0.9386832433
 40
0.9477167316
 40
0.952018048
 40
0.9561584617
 40
0.9601257495
 40
0.9639099311
 40
0.9675081737
 40
0.9709294546
 40
0.9741858718
 40
0.9772916611
 40
0.9802660036
 40
0.9831383498
 40
0.9859407499
 40
0.988705188
 40
0.99146287
 40
0.9942450258
 40
0.9970815929
 40
1.0
 40
1.0
 40
1.0
 40
1.0
 10
11.2455288967
 20
13.5518058627
 30
0.0
 10
11.249794723
 20
13.4546265346
 30
0.0
 10
11.260361883
 20
13.2574309653
 30
0.0
 10
11.2816278091
 20
12.9577344523
 30
0.0
 10
11.3083454352
 20
12.6501094792
 30
0.0
 10
11.3514605028
 20
12.225179556
 30
0.0
 10
11.418171322
 20
11.6777500297
 30
0.0
 10
11.5155314072
 20
11.0040312299
 30
0.0
 10
11.6292529534
 20
10.3098226702
 30
0.0
 10
11.7573889578
 20
9.5985829189
 30
0.0
 10
11.8979896295
 20
8.873664115
 30
0.0
 10
12.0491095232
 20
8.1383918981
 30
0.0
 10
12.2088144117
 20
7.3960533786
 30
0.0
 10
12.4306668909
 20
6.4007867503
 30
0.0
 10
12.6610460461
 20
5.4075076333
 30
0.0
 10
12.8942408175
 20
4.4197132023
 30
0.0
 10
13.0674579892
 20
3.6895184277
 30
0.0
 10
13.2375128744
 20
2.9710359484
 30
0.0
 10
13.4024622116
 20
2.2672890852
 30
0.0
 10
13.5603763
 20
1.5812613029
 30
0.0
 10
13.7093213562
 20
0.9158675124
 30
0.0
 10
13.8473638016
 20
0.2739349693
 30
0.0
 10
13.9725870482
 20
-0.3418057484
 30
0.0
 10
14.0831233521
 20
-0.9287899388
 30
0.0
 10
14.1626480993
 20
-1.3993568025
 30
0.0
 10
14.2166586661
 20
-1.7598325704
 30
0.0
 10
14.2515726325
 20
-2.0174170316
 30
0.0
 10
14.2812772837
 20
-2.2664214816
 30
0.0
 10
14.3054978795
 20
-2.5067603592
 30
0.0
 10
14.3239127595
 20
-2.7384293934
 30
0.0
 10
14.336156788
 20
-2.9614919472
 30
0.0
 10
14.3417951983
 20
-3.1760630186
 30
0.0
 10
14.3402729483
 20
-3.3822237971
 30
0.0
 10
14.3309691181
 20
-3.5799254409
 30
0.0
 10
14.3129868604
 20
-3.7687545796
 30
0.0
 10
14.2856063156
 20
-3.9475776468
 30
0.0
 10
14.2537493416
 20
-4.0889681504
 30
0.0
 10
14.222398741
 20
-4.1950080446
 30
0.0
 10
14.1966115596
 20
-4.2691810708
 30
0.0
 10
14.1682251748
 20
-4.3388845412
 30
0.0
 10
14.1372799548
 20
-4.4037194625
 30
0.0
 10
14.1038051971
 20
-4.4633625381
 30
0.0
 10
14.0679809514
 20
-4.5176742683
 30
0.0
 10
14.0299394783
 20
-4.5665752095
 30
0.0
 10
13.989801415
 20
-4.6100050528
 30
0.0
 10
13.9476333996
 20
-4.6479334886
 30
0.0
 10
13.9035077464
 20
-4.6804323752
 30
0.0
 10
13.8574637597
 20
-4.7076297054
 30
0.0
 10
13.8095367699
 20
-4.729664745
 30
0.0
 10
13.7597496418
 20
-4.7466924106
 30
0.0
 10
13.708076287
 20
-4.7587937425
 30
0.0
 10
13.6544889622
 20
-4.7660557618
 30
0.0
 10
13.6180699657
 20
-4.7677062802
 30
0.0
 10
13.5996093041
 20
-4.7677962585
 30
0.0
  0
LINE
  5
40D
100
AcDbEntity
  8
0
100
AcDbLine
 62
9
  6
CONTINUOUS
 10
13.5996093041
 20
-4.7677962585
 11
13.5958832359
 21
-4.7678043196
  0
ENDSEC
  0
SECTION
  2
OBJECTS
  0
DICTIONARY
  5
C
100
AcDbDictionary
280
0
281
1
  3
ACAD_GROUP
350
D
  3
ACAD_MLINESTYLE
350
17
  3
ACAD_LAYOUT
350
1A
  3
ACAD_PLOTSETTINGS
350
19
  3
ACAD_PLOTSTYLENAME
350
E
  0
DICTIONARY
  5
D
102
{ACAD_REACTORS
330
C
102
}
100
AcDbDictionary
280
0
281
1
  0
ACDBDICTIONARYWDFLT
  5
E
102
{ACAD_REACTORS
330
C
102
}
100
AcDbDictionary
281
1
  3
Normal
350
F
100
AcDbDictionaryWithDefault
340
F
  0
DICTIONARY
  5
17
102
{ACAD_REACTORS
330
C
102
}
100
AcDbDictionary
280
0
281
1
  3
Standard
350
18
  0
DICTIONARY
  5
19
102
{ACAD_REACTORS
330
C
102
}
100
AcDbDictionary
281
1
  0
DICTIONARY
  5
1A
102
{ACAD_REACTORS
330
C
102
}
100
AcDbDictionary
281
1
  3
Model
350
40E
  3
Layout1
350
40F
  0
ACDBPLACEHOLDER
  5
F
102
{ACAD_REACTORS
330
E
102
}
  0
MLINESTYLE
  5
18
102
{ACAD_REACTORS
330
17
102
}
100
AcDbMlineStyle
  2
STANDARD
 70
0
  3

 62
256
 51
90.0
 52
90.0
 71
2
 49
0.5
 62
256
  6
BYLAYER
 49
-0.5
 62
256
  6
BYLAYER
  0
LAYOUT
  5
40E
102
{ACAD_REACTORS
330
1A
102
}
100
AcDbPlotSettings
  1

  2
none_device
  4
ANSI_C_(22.00_x_17.00_Inches)
  6

 40
0.0
 41
0.0
 42
0.0
 43
0.0
 44
558.8
 45
431.8
 46
0.0
 47
0.0
 48
0.0
 49
0.0
140
0.0
141
0.0
142
1.0
143
1.0
 70
1024
 72
0
 73
0
 74
0
  7

 75
0
147
1.0
148
0.0
149
0.0
100
AcDbLayout
  1
Model
 70
0
 71
0
 10
0.0
 20
0.0
 11
22.0
 21
17.0
 12
0.0
 22
0.0
 32
0.0
 14
0.0
 24
0.0
 34
0.0
 15
0.0
 25
0.0
 35
0.0
146
0.0
 13
0.0
 23
0.0
 33
0.0
 16
1.0
 26
0.0
 36
0.0
 17
0.0
 27
1.0
 37
0.0
 76
0
330
202
345
0
346
0
  0
LAYOUT
  5
40F
102
{ACAD_REACTORS
330
1A
102
}
100
AcDbPlotSettings
  1

  2
none_device
  4
ANSI_C_(22.00_x_17.00_Inches)
  6

 40
0.0
 41
0.0
 42
0.0
 43
0.0
 44
558.8
 45
431.8
 46
0.0
 47
0.0
 48
0.0
 49
0.0
140
0.0
141
0.0
142
1.0
143
1.0
 70
0
 72
0
 73
0
 74
0
  7

 75
0
147
1.0
148
0.0
149
0.0
100
AcDbLayout
  1
Layout1
 70
0
 71
1
 10
0.0
 20
0.0
 11
22.0
 21
17.0
 12
0.0
 22
0.0
 32
0.0
 14
0.0
 24
0.0
 34
0.0
 15
0.0
 25
0.0
 35
0.0
146
0.0
 13
0.0
 23
0.0
 33
0.0
 16
1.0
 26
0.0
 36
0.0
 17
0.0
 27
1.0
 37
0.0
 76
0
330
203
345
0
346
0
  0
ENDSEC
  0
EOF
