  0
SECTION
  2
HEADER
  9
$ACADVER
  1
AC1015
  9
$DWGCODEPAGE
  3
ANSI_1252
  9
$EXTMAX
 10
8.2677165354
 20
11.6929133858
 30
0.0
  9
$EXTMIN
 10
0.0
 20
0.0
 30
0.0
  9
$LIMMIN
 10
0.0
 20
0.0
  9
$LIMMAX
 10
8.2677165354
 20
11.6929133858
  9
$VIEWCTR
 10
4.1338582677
 20
5.8464566929
  9
$VIEWSIZE
 40
11.6929133858
  9
$CLAYER
  8
0
  9
$LTSCALE
 40
0.7622047244
  9
$CELTYPE
  6
BYLAYER
  9
$DIMSCALE
 40
1.0
  9
$DIMASZ
 40
0.1875
  9
$DIMEXO
 40
0.0866141732
  9
$DIMDLI
 40
0.5266141732
  9
$DIMEXE
 40
0.2494488189
  9
$DIMCEN
 40
0.1247244094
  9
$DIMLFAC
 40
1.0
  9
$DIMBLK
  1
_CLOSED
  9
$DIMTXT
 40
0.15625
  9
$DIMTOL
 70
0
  9
$DIMLIM
 70
0
  9
$DIMTFAC
 40
1.0
  9
$PDMODE
 70
3
  9
$PDSIZE
 40
0.3125
  9
$HANDSEED
  5
3EF
  9
$TILEMODE
 70
1
  9
$MEASUREMENT
 70
0
  9
$INSUNITS
 70
1
  0
ENDSEC
  0
SECTION
  2
CLASSES
  0
CLASS
  1
ACDBDICTIONARYWDFLT
  2
AcDbDictionaryWithDefault
  3
AutoCAD 2000
 90
0
280
0
281
0
  0
CLASS
  1
ACDBPLACEHOLDER
  2
AcDbPlaceHolder
  3
AutoCAD 2000
 90
0
280
0
281
0
  0
CLASS
  1
LAYOUT
  2
AcDbLayout
  3
AutoCAD 2000
 90
0
280
0
281
0
  0
ENDSEC
  0
SECTION
  2
TABLES
  0
TABLE
  2
VPORT
  5
8
100
AcDbSymbolTable
 70
2
  0
VPORT
  5
1F4
100
AcDbSymbolTableRecord
100
AcDbViewportTableRecord
  2
*ACTIVE
 70
0
 10
0.0
 20
0.0
 11
1.0
 21
1.0
 12
4.1338582677
 22
5.8464566929
 13
0.0
 23
0.0
 14
1.0
 24
1.0
 15
0.0
 25
0.0
 16
0.0
 26
0.0
 36
1.0
 17
0.0
 27
0.0
 37
0.0
 40
11.6929133858
 41
0.7070707071
 42
50.0
 43
0.0
 44
0.0
 50
0.0
 51
0.0
 71
0
 72
100
 73
1
 74
1
 75
0
 76
0
 77
0
 78
0
  0
ENDTAB
  0
TABLE
  2
LTYPE
  5
5
100
AcDbSymbolTable
 70
6
  0
LTYPE
  5
14
100
AcDbSymbolTableRecord
100
AcDbLinetypeTableRecord
  2
BYBLOCK
 70
0
  3

 72
65
 73
0
 40
0.0
  0
LTYPE
  5
15
100
AcDbSymbolTableRecord
100
AcDbLinetypeTableRecord
  2
BYLAYER
 70
0
  3

 72
65
 73
0
 40
0.0
  0
LTYPE
  5
16
100
AcDbSymbolTableRecord
100
AcDbLinetypeTableRecord
  2
CONTINUOUS
 70
64
  3
Solid line
 72
65
 73
0
 40
0.0
  0
LTYPE
  5
1F5
100
AcDbSymbolTableRecord
100
AcDbLinetypeTableRecord
  2
CENTER
 70
64
  3
____ _ ____ _ ____ _ ____ _ ____ _ ____ _ ____
 72
65
 73
4
 40
0.6
 49
0.375
 74
0
 49
-0.075
 74
0
 49
0.075
 74
0
 49
-0.075
 74
0
  0
LTYPE
  5
1F6
100
AcDbSymbolTableRecord
100
AcDbLinetypeTableRecord
  2
HIDDEN
 70
64
  3
- - - - - - - - - - - - - - - - - - - -
 72
65
 73
2
 40
0.2
 49
0.1
 74
0
 49
-0.1
 74
0
  0
LTYPE
  5
1F7
100
AcDbSymbolTableRecord
100
AcDbLinetypeTableRecord
  2
PHANTOM
 70
64
  3
_____ _ _ _____ _ _ _____ _ _ _____
 72
65
 73
6
 40
0.8
 49
0.45
 74
0
 49
-0.05
 74
0
 49
0.1
 74
0
 49
-0.05
 74
0
 49
0.1
 74
0
 49
-0.05
 74
0
  0
LTYPE
  5
1F8
100
AcDbSymbolTableRecord
100
AcDbLinetypeTableRecord
  2
DOT
 70
64
  3
. . . . . . . . . . . . . . . . . . . .
 72
65
 73
2
 40
0.2
 49
0.1
 74
0
 49
-0.1
 74
0
  0
LTYPE
  5
1F9
100
AcDbSymbolTableRecord
100
AcDbLinetypeTableRecord
  2
DASHED
 70
64
  3
- - - - - - - - - - - - - - - - - - - -
 72
65
 73
2
 40
0.2
 49
0.1
 74
0
 49
-0.1
 74
0
  0
ENDTAB
  0
TABLE
  2
LAYER
  5
2
100
AcDbSymbolTable
 70
36
  0
LAYER
  5
10
100
AcDbSymbolTableRecord
100
AcDbLayerTableRecord
  2
0
 70
0
 62
7
  6
CONTINUOUS
370
-3
390
F
  0
LAYER
  5
1FA
100
AcDbSymbolTableRecord
100
AcDbLayerTableRecord
  2
DEFAULT_1
 70
0
 62
7
  6
CENTER
370
-3
390
F
  0
LAYER
  5
1FB
100
AcDbSymbolTableRecord
100
AcDbLayerTableRecord
  2
DEFAULT_2
 70
0
 62
8
  6
HIDDEN
370
-3
390
F
  0
LAYER
  5
1FC
100
AcDbSymbolTableRecord
100
AcDbLayerTableRecord
  2
DEFAULT_3
 70
0
 62
7
  6
PHANTOM
370
-3
390
F
  0
LAYER
  5
1FD
100
AcDbSymbolTableRecord
100
AcDbLayerTableRecord
  2
280
 70
0
 62
7
  6
CONTINUOUS
370
-3
390
F
  0
LAYER
  5
1FE
100
AcDbSymbolTableRecord
100
AcDbLayerTableRecord
  2
284_RH
 70
0
 62
7
  6
CONTINUOUS
370
-3
390
F
  0
LAYER
  5
1FF
100
AcDbSymbolTableRecord
100
AcDbLayerTableRecord
  2
287
 70
0
 62
7
  6
CONTINUOUS
370
-3
390
F
  0
LAYER
  5
200
100
AcDbSymbolTableRecord
100
AcDbLayerTableRecord
  2
50275
 70
0
 62
7
  6
CONTINUOUS
370
-3
390
F
  0
LAYER
  5
201
100
AcDbSymbolTableRecord
100
AcDbLayerTableRecord
  2
50276
 70
0
 62
7
  6
CONTINUOUS
370
-3
390
F
  0
LAYER
  5
202
100
AcDbSymbolTableRecord
100
AcDbLayerTableRecord
  2
50277
 70
0
 62
7
  6
CONTINUOUS
370
-3
390
F
  0
LAYER
  5
203
100
AcDbSymbolTableRecord
100
AcDbLayerTableRecord
  2
50278
 70
0
 62
7
  6
CONTINUOUS
370
-3
390
F
  0
LAYER
  5
204
100
AcDbSymbolTableRecord
100
AcDbLayerTableRecord
  2
50279
 70
0
 62
7
  6
CONTINUOUS
370
-3
390
F
  0
LAYER
  5
205
100
AcDbSymbolTableRecord
100
AcDbLayerTableRecord
  2
50287-1
 70
0
 62
7
  6
CONTINUOUS
370
-3
390
F
  0
LAYER
  5
206
100
AcDbSymbolTableRecord
100
AcDbLayerTableRecord
  2
50296
 70
0
 62
7
  6
CONTINUOUS
370
-3
390
F
  0
LAYER
  5
207
100
AcDbSymbolTableRecord
100
AcDbLayerTableRecord
  2
50297
 70
0
 62
7
  6
CONTINUOUS
370
-3
390
F
  0
LAYER
  5
208
100
AcDbSymbolTableRecord
100
AcDbLayerTableRecord
  2
50298
 70
0
 62
7
  6
CONTINUOUS
370
-3
390
F
  0
LAYER
  5
209
100
AcDbSymbolTableRecord
100
AcDbLayerTableRecord
  2
50299
 70
0
 62
7
  6
CONTINUOUS
370
-3
390
F
  0
LAYER
  5
20A
100
AcDbSymbolTableRecord
100
AcDbLayerTableRecord
  2
50300
 70
0
 62
7
  6
CONTINUOUS
370
-3
390
F
  0
LAYER
  5
20B
100
AcDbSymbolTableRecord
100
AcDbLayerTableRecord
  2
50301
 70
0
 62
7
  6
CONTINUOUS
370
-3
390
F
  0
LAYER
  5
20C
100
AcDbSymbolTableRecord
100
AcDbLayerTableRecord
  2
50900_1
 70
0
 62
7
  6
CONTINUOUS
370
-3
390
F
  0
LAYER
  5
20D
100
AcDbSymbolTableRecord
100
AcDbLayerTableRecord
  2
91021
 70
0
 62
7
  6
CONTINUOUS
370
-3
390
F
  0
LAYER
  5
20E
100
AcDbSymbolTableRecord
100
AcDbLayerTableRecord
  2
91153_1
 70
0
 62
7
  6
CONTINUOUS
370
-3
390
F
  0
LAYER
  5
20F
100
AcDbSymbolTableRecord
100
AcDbLayerTableRecord
  2
91173
 70
0
 62
7
  6
CONTINUOUS
370
-3
390
F
  0
LAYER
  5
210
100
AcDbSymbolTableRecord
100
AcDbLayerTableRecord
  2
91176
 70
0
 62
7
  6
CONTINUOUS
370
-3
390
F
  0
LAYER
  5
211
100
AcDbSymbolTableRecord
100
AcDbLayerTableRecord
  2
92253
 70
0
 62
7
  6
CONTINUOUS
370
-3
390
F
  0
LAYER
  5
212
100
AcDbSymbolTableRecord
100
AcDbLayerTableRecord
  2
ALL_ASSEMBLY_MEMBERS
 70
0
 62
7
  6
CONTINUOUS
370
-3
390
F
  0
LAYER
  5
213
100
AcDbSymbolTableRecord
100
AcDbLayerTableRecord
  2
ALL_ASSEMBLY_MEMBERS_1
 70
0
 62
7
  6
CONTINUOUS
370
-3
390
F
  0
LAYER
  5
214
100
AcDbSymbolTableRecord
100
AcDbLayerTableRecord
  2
ALL_ASSEMBLY_MEMBERS_2
 70
0
 62
7
  6
CONTINUOUS
370
-3
390
F
  0
LAYER
  5
215
100
AcDbSymbolTableRecord
100
AcDbLayerTableRecord
  2
COLOR1
 70
0
 62
7
  6
CONTINUOUS
370
-3
390
F
  0
LAYER
  5
216
100
AcDbSymbolTableRecord
100
AcDbLayerTableRecord
  2
COLOR16
 70
0
 62
7
  6
CONTINUOUS
370
-3
390
F
  0
LAYER
  5
217
100
AcDbSymbolTableRecord
100
AcDbLayerTableRecord
  2
COLOR5
 70
0
 62
7
  6
CONTINUOUS
370
-3
390
F
  0
LAYER
  5
218
100
AcDbSymbolTableRecord
100
AcDbLayerTableRecord
  2
DEFAULT_COORDINATE_SYSTEM
 70
0
 62
7
  6
CONTINUOUS
370
-3
390
F
  0
LAYER
  5
219
100
AcDbSymbolTableRecord
100
AcDbLayerTableRecord
  2
DEFAULT_DATUM_AXES
 70
0
 62
7
  6
CONTINUOUS
370
-3
390
F
  0
LAYER
  5
21A
100
AcDbSymbolTableRecord
100
AcDbLayerTableRecord
  2
DEFAULT_DATUM_CURVES
 70
0
 62
7
  6
CONTINUOUS
370
-3
390
F
  0
LAYER
  5
21B
100
AcDbSymbolTableRecord
100
AcDbLayerTableRecord
  2
DEFAULT_DATUM_PLANES
 70
0
 62
7
  6
CONTINUOUS
370
-3
390
F
  0
LAYER
  5
21C
100
AcDbSymbolTableRecord
100
AcDbLayerTableRecord
  2
INTF_50275
 70
0
 62
7
  6
CONTINUOUS
370
-3
390
F
  0
LAYER
  5
21D
100
AcDbSymbolTableRecord
100
AcDbLayerTableRecord
  2
INTF_50276
 70
0
 62
7
  6
CONTINUOUS
370
-3
390
F
  0
LAYER
  5
21E
100
AcDbSymbolTableRecord
100
AcDbLayerTableRecord
  2
INTF_50277
 70
0
 62
7
  6
CONTINUOUS
370
-3
390
F
  0
LAYER
  5
21F
100
AcDbSymbolTableRecord
100
AcDbLayerTableRecord
  2
INTF_50278
 70
0
 62
7
  6
CONTINUOUS
370
-3
390
F
  0
LAYER
  5
220
100
AcDbSymbolTableRecord
100
AcDbLayerTableRecord
  2
INTF_50279
 70
0
 62
7
  6
CONTINUOUS
370
-3
390
F
  0
LAYER
  5
221
100
AcDbSymbolTableRecord
100
AcDbLayerTableRecord
  2
INTF_50296
 70
0
 62
7
  6
CONTINUOUS
370
-3
390
F
  0
LAYER
  5
222
100
AcDbSymbolTableRecord
100
AcDbLayerTableRecord
  2
INTF_50297
 70
0
 62
7
  6
CONTINUOUS
370
-3
390
F
  0
LAYER
  5
223
100
AcDbSymbolTableRecord
100
AcDbLayerTableRecord
  2
INTF_50298
 70
0
 62
7
  6
CONTINUOUS
370
-3
390
F
  0
LAYER
  5
224
100
AcDbSymbolTableRecord
100
AcDbLayerTableRecord
  2
INTF_50299
 70
0
 62
7
  6
CONTINUOUS
370
-3
390
F
  0
LAYER
  5
225
100
AcDbSymbolTableRecord
100
AcDbLayerTableRecord
  2
INTF_50300
 70
0
 62
7
  6
CONTINUOUS
370
-3
390
F
  0
LAYER
  5
226
100
AcDbSymbolTableRecord
100
AcDbLayerTableRecord
  2
INTF_50301
 70
0
 62
7
  6
CONTINUOUS
370
-3
390
F
  0
LAYER
  5
227
100
AcDbSymbolTableRecord
100
AcDbLayerTableRecord
  2
INTF_91021
 70
0
 62
7
  6
CONTINUOUS
370
-3
390
F
  0
LAYER
  5
228
100
AcDbSymbolTableRecord
100
AcDbLayerTableRecord
  2
INTF_91173
 70
0
 62
7
  6
CONTINUOUS
370
-3
390
F
  0
LAYER
  5
229
100
AcDbSymbolTableRecord
100
AcDbLayerTableRecord
  2
INTF_91176
 70
0
 62
7
  6
CONTINUOUS
370
-3
390
F
  0
LAYER
  5
22A
100
AcDbSymbolTableRecord
100
AcDbLayerTableRecord
  2
INTF_92253
 70
0
 62
7
  6
CONTINUOUS
370
-3
390
F
  0
ENDTAB
  0
TABLE
  2
STYLE
  5
3
100
AcDbSymbolTable
 70
1
  0
STYLE
  5
11
100
AcDbSymbolTableRecord
100
AcDbTextStyleTableRecord
  2
STANDARD
 70
0
 40
0.0
 41
0.8
 50
0.0
 71
0
 42
0.2
  3
txt
  4

  0
STYLE
  5
22B
100
AcDbSymbolTableRecord
100
AcDbTextStyleTableRecord
  2
TEXTSTYLE_1
 70
0
 40
0.0
 41
0.8
 50
0.0
 71
0
 42
0.2
  3
gdt
  4

  0
ENDTAB
  0
TABLE
  2
VIEW
  5
6
100
AcDbSymbolTable
 70
0
  0
ENDTAB
  0
TABLE
  2
UCS
  5
7
100
AcDbSymbolTable
 70
0
  0
ENDTAB
  0
TABLE
  2
APPID
  5
9
100
AcDbSymbolTable
 70
1
  0
APPID
  5
22C
100
AcDbSymbolTableRecord
100
AcDbRegAppTableRecord
  2
ACAD
 70
0
  0
ENDTAB
  0
TABLE
  2
BLOCK_RECORD
  5
1
100
AcDbSymbolTable
 70
0
  0
BLOCK_RECORD
  5
22D
100
AcDbSymbolTableRecord
100
AcDbBlockTableRecord
  2
*Model_Space
  0
BLOCK_RECORD
  5
22E
100
AcDbSymbolTableRecord
100
AcDbBlockTableRecord
  2
*Paper_Space
  0
ENDTAB
  0
TABLE
  2
DIMSTYLE
  5
A
100
AcDbSymbolTable
 70
1
100
AcDbDimStyleTable
 71
0
  0
DIMSTYLE
105
22F
100
AcDbSymbolTableRecord
100
AcDbDimStyleTableRecord
  2
STANDARD
 70
0
  3

  4

 40
1.0
 41
0.1875
 42
0.0625
 43
0.38
 44
0.18
 45
0.0
 46
0.0
 47
0.01
 48
0.01
140
0.15625
141
0.09
142
0.0
143
25.4
144
1.0
145
0.0
146
1.0
147
0.09
 71
0.0
 72
0.0
 73
1
 74
1
 75
0
 76
0
 77
0
 78
4
170
0
171
2
172
0
173
0
174
0
175
0
176
0
177
0
178
0
270
2
271
2
272
2
273
2
274
2
275
0
280
0
281
0
282
0
283
1
284
4
285
0
286
0
287
3
288
0
340
11
  0
ENDTAB
  0
ENDSEC
  0
SECTION
  2
BLOCKS
  0
BLOCK
  5
20
100
AcDbEntity
  8
0
100
AcDbBlockBegin
  2
*Model_Space
 70
0
 10
0.0
 20
0.0
 30
0.0
  3
*Model_Space
  1

  0
ENDBLK
  5
21
100
AcDbEntity
  8
0
100
AcDbBlockEnd
  0
BLOCK
  5
1C
100
AcDbEntity
  8
0
100
AcDbBlockBegin
  2
*Paper_Space
 70
0
 10
0.0
 20
0.0
 30
0.0
  3
*Paper_Space
  1

  0
ENDBLK
  5
1D
100
AcDbEntity
  8
0
100
AcDbBlockEnd
  0
ENDSEC
  0
SECTION
  2
ENTITIES
  0
LINE
  5
230
100
AcDbEntity
  8
0
100
AcDbLine
 62
7
  6
CONTINUOUS
 10
3.1005866073
 20
9.4828140534
 11
3.0778100794
 21
9.4536947825
  0
LWPOLYLINE
  5
231
100
AcDbEntity
  8
0
100
AcDbPolyline
 62
6
  6
CONTINUOUS
 90
4
 70
0
 10
3.265917561
 20
2.9174092088
 10
3.2757321166
 20
2.7990024218
 10
3.3067832767
 20
2.6572011261
 10
3.3443586272
 20
2.5515669583
  0
LINE
  5
232
100
AcDbEntity
  8
0
100
AcDbLine
 62
9
  6
CONTINUOUS
 10
3.2659166766
 20
2.9174091222
 11
3.2659177701
 21
2.9173568336
  0
LWPOLYLINE
  5
233
100
AcDbEntity
  8
0
100
AcDbPolyline
 62
7
  6
CONTINUOUS
 90
3
 70
0
 10
3.9179995057
 20
6.8450458057
 10
3.8869018662
 20
6.8254604871
 10
3.8645849814
 20
6.7985080548
  0
LINE
  5
234
100
AcDbEntity
  8
0
100
AcDbLine
 62
7
  6
CONTINUOUS
 10
3.8504499352
 20
6.7592070704
 11
3.8488540723
 21
6.7583413951
  0
LWPOLYLINE
  5
235
100
AcDbEntity
  8
0
100
AcDbPolyline
 62
7
  6
CONTINUOUS
 90
4
 70
0
 10
4.0605847647
 20
6.947138463
 10
4.0484908137
 20
6.9418307683
 10
4.02817169
 20
6.9228734582
 10
4.0159398865
 20
6.9006258697
  0
LINE
  5
236
100
AcDbEntity
  8
0
100
AcDbLine
 62
6
  6
CONTINUOUS
 10
3.2719081248
 20
3.0433998493
 11
3.2659177701
 21
2.9173568336
  0
LWPOLYLINE
  5
237
100
AcDbEntity
  8
0
100
AcDbPolyline
 62
7
  6
CONTINUOUS
 90
3
 70
0
 10
3.7909611113
 20
6.6371194016
 10
3.7760514991
 20
6.59798897
 10
3.7738771374
 20
6.5755268508
  0
LWPOLYLINE
  5
238
100
AcDbEntity
  8
0
100
AcDbPolyline
 62
7
  6
CONTINUOUS
 90
3
 70
0
 10
3.8188032536
 20
6.7264884256
 10
3.8027965373
 20
6.689521706
 10
3.7997322994
 20
6.6628454353
  0
LINE
  5
239
100
AcDbEntity
  8
0
100
AcDbLine
 62
7
  6
CONTINUOUS
 10
3.7997418959
 20
6.6478540009
 11
3.7909611113
 21
6.6371194016
  0
LINE
  5
23A
100
AcDbEntity
  8
0
100
AcDbLine
 62
7
  6
CONTINUOUS
 10
3.8488540723
 20
6.7583413951
 11
3.8188032536
 21
6.7264884256
  0
LINE
  5
23B
100
AcDbEntity
  8
0
100
AcDbLine
 62
9
  6
CONTINUOUS
 10
4.9173115677
 20
3.7024389982
 11
4.9172646199
 21
3.7024870127
  0
LINE
  5
23C
100
AcDbEntity
  8
0
100
AcDbLine
 62
6
  6
CONTINUOUS
 10
4.9173115677
 20
3.7024389982
 11
4.8786345512
 21
3.7421801708
  0
LINE
  5
23D
100
AcDbEntity
  8
0
100
AcDbLine
 62
6
  6
CONTINUOUS
 10
4.8786345512
 20
3.7421801708
 11
4.8804002031
 21
3.7403206585
  0
LWPOLYLINE
  5
23E
100
AcDbEntity
  8
0
100
AcDbPolyline
 62
6
  6
CONTINUOUS
 90
3
 70
0
 10
4.8804002031
 20
3.7403206585
 10
4.8481900279
 20
3.7752172615
 10
4.8387239331
 20
3.7855775574
  0
LINE
  5
23F
100
AcDbEntity
  8
0
100
AcDbLine
 62
9
  6
CONTINUOUS
 10
4.8387059978
 20
3.7855972295
 11
4.8387239331
 21
3.7855775574
  0
LINE
  5
240
100
AcDbEntity
  8
0
100
AcDbLine
 62
6
  6
CONTINUOUS
 10
4.9970709031
 20
3.6136393101
 11
4.9172646199
 21
3.7024870127
  0
LWPOLYLINE
  5
241
100
AcDbEntity
  8
0
100
AcDbPolyline
 62
6
  6
CONTINUOUS
 90
3
 70
0
 10
4.8387059978
 20
3.7855972295
 10
4.8056036979
 20
3.8241258326
 10
4.7656701167
 20
3.877635561
  0
LINE
  5
242
100
AcDbEntity
  8
0
100
AcDbLine
 62
6
  6
CONTINUOUS
 10
3.8680217866
 20
4.2714002188
 11
3.8727313393
 21
4.2188973236
  0
LINE
  5
243
100
AcDbEntity
  8
0
100
AcDbLine
 62
6
  6
CONTINUOUS
 10
3.7525847647
 20
8.0294696132
 11
3.7525847647
 21
8.0478119116
  0
LINE
  5
244
100
AcDbEntity
  8
0
100
AcDbLine
 62
7
  6
CONTINUOUS
 10
3.7738716868
 20
6.5755272513
 11
3.7738715368
 21
6.5754026971
  0
LINE
  5
245
100
AcDbEntity
  8
0
100
AcDbLine
 62
6
  6
CONTINUOUS
 10
3.8125068698
 20
6.7743838318
 11
3.8327091539
 21
7.0723593897
  0
LINE
  5
246
100
AcDbEntity
  8
0
100
AcDbLine
 62
6
  6
CONTINUOUS
 10
3.8354861267
 20
7.1133186215
 11
3.8512896746
 21
7.3464145916
  0
LINE
  5
247
100
AcDbEntity
  8
0
100
AcDbLine
 62
7
  6
CONTINUOUS
 10
3.8520350848
 20
6.7649356536
 11
3.8498672486
 21
6.7417308987
  0
LINE
  5
248
100
AcDbEntity
  8
0
100
AcDbLine
 62
7
  6
CONTINUOUS
 10
4.0159398865
 20
6.9006258697
 11
4.0138771598
 21
6.8944773467
  0
LINE
  5
249
100
AcDbEntity
  8
0
100
AcDbLine
 62
7
  6
CONTINUOUS
 10
3.8645849814
 20
6.7985080548
 11
3.8520350848
 21
6.7649356536
  0
LINE
  5
24A
100
AcDbEntity
  8
0
100
AcDbLine
 62
9
  6
CONTINUOUS
 10
4.9426734285
 20
3.6637421415
 11
4.9173115677
 21
3.7024389982
  0
LINE
  5
24B
100
AcDbEntity
  8
0
100
AcDbLine
 62
6
  6
CONTINUOUS
 10
4.7656701167
 20
3.877635561
 11
4.7385464707
 21
3.919878404
  0
LWPOLYLINE
  5
24C
100
AcDbEntity
  8
0
100
AcDbPolyline
 62
6
  6
CONTINUOUS
 90
3
 70
0
 10
5.1084242366
 20
3.4550400531
 10
5.076627731
 20
3.506025083
 10
4.9970709031
 20
3.6136393101
  0
LINE
  5
24D
100
AcDbEntity
  8
0
100
AcDbLine
 62
9
  6
CONTINUOUS
 10
4.7385233639
 20
3.9199169943
 11
4.7385464707
 21
3.919878404
  0
LINE
  5
24E
100
AcDbEntity
  8
0
100
AcDbLine
 62
6
  6
CONTINUOUS
 10
4.7385233639
 20
3.9199169943
 11
4.7217615854
 21
3.9490511582
  0
LINE
  5
24F
100
AcDbEntity
  8
0
100
AcDbLine
 62
6
  6
CONTINUOUS
 10
3.7553648212
 20
4.722294665
 11
3.8733107771
 21
4.2147698878
  0
LWPOLYLINE
  5
250
100
AcDbEntity
  8
0
100
AcDbPolyline
 62
6
  6
CONTINUOUS
 90
3
 70
0
 10
3.8728224142
 20
4.218519172
 10
3.8731571952
 20
4.2163770444
 10
3.874451275
 20
4.2028351578
  0
LWPOLYLINE
  5
251
100
AcDbEntity
  8
0
100
AcDbPolyline
 62
7
  6
CONTINUOUS
 90
3
 70
0
 10
3.849867027
 20
5.0915570128
 10
3.8500251101
 20
5.0849892942
 10
3.8508105286
 20
5.079152035
  0
LINE
  5
252
100
AcDbEntity
  8
0
100
AcDbLine
 62
6
  6
CONTINUOUS
 10
3.874451275
 20
4.2028351578
 11
3.8747968101
 21
4.1804651181
  0
LINE
  5
253
100
AcDbEntity
  8
0
100
AcDbLine
 62
7
  6
CONTINUOUS
 10
3.921053968
 20
5.157253733
 11
3.9210698407
 21
5.1550353448
  0
LINE
  5
254
100
AcDbEntity
  8
0
100
AcDbLine
 62
7
  6
CONTINUOUS
 10
3.7738715365
 20
6.575397241
 11
3.7738715365
 21
6.4867947345
  0
LINE
  5
255
100
AcDbEntity
  8
0
100
AcDbLine
 62
7
  6
CONTINUOUS
 10
3.7738715365
 20
5.985397241
 11
3.7738715365
 21
4.9484976476
  0
LINE
  5
256
100
AcDbEntity
  8
0
100
AcDbLine
 62
7
  6
CONTINUOUS
 10
3.7997418959
 20
6.6626565729
 11
3.7997418959
 21
6.5190925434
  0
LINE
  5
257
100
AcDbEntity
  8
0
100
AcDbLine
 62
7
  6
CONTINUOUS
 10
3.7997418959
 20
6.0726565729
 11
3.799741896
 21
5.0126565729
  0
LINE
  5
258
100
AcDbEntity
  8
0
100
AcDbLine
 62
7
  6
CONTINUOUS
 10
3.8498570849
 20
6.7416027475
 11
3.8498570849
 21
6.5685331105
  0
LINE
  5
259
100
AcDbEntity
  8
0
100
AcDbLine
 62
7
  6
CONTINUOUS
 10
3.8498570849
 20
6.1516027475
 11
3.8498570849
 21
5.0916027475
  0
LINE
  5
25A
100
AcDbEntity
  8
0
100
AcDbLine
 62
7
  6
CONTINUOUS
 10
3.9210681818
 20
6.8072752864
 11
3.9210681818
 21
6.6239053972
  0
LINE
  5
25B
100
AcDbEntity
  8
0
100
AcDbLine
 62
7
  6
CONTINUOUS
 10
3.9210681818
 20
6.2172752864
 11
3.9210681818
 21
5.1572752864
  0
LINE
  5
25C
100
AcDbEntity
  8
0
100
AcDbLine
 62
7
  6
CONTINUOUS
 10
3.9905847647
 20
7.592518258
 11
3.9905847647
 21
7.7642265447
  0
LINE
  5
25D
100
AcDbEntity
  8
0
100
AcDbLine
 62
7
  6
CONTINUOUS
 10
4.0110281856
 20
6.2809067192
 11
4.0110146273
 21
5.2209091111
  0
LINE
  5
25E
100
AcDbEntity
  8
0
100
AcDbLine
 62
7
  6
CONTINUOUS
 10
4.0110146273
 20
6.8709091111
 11
4.0110248059
 21
6.6700869659
  0
LINE
  5
25F
100
AcDbEntity
  8
0
100
AcDbLine
 62
6
  6
CONTINUOUS
 10
3.8747968101
 20
4.1804651181
 11
3.8728623855
 21
4.152093483
  0
LINE
  5
260
100
AcDbEntity
  8
0
100
AcDbLine
 62
6
  6
CONTINUOUS
 10
3.872862416
 20
4.1520937607
 11
3.8750472167
 21
4.1800910429
  0
LINE
  5
261
100
AcDbEntity
  8
0
100
AcDbLine
 62
7
  6
CONTINUOUS
 10
4.0138771598
 20
6.8944773467
 11
4.0110174949
 21
6.8709213081
  0
LINE
  5
262
100
AcDbEntity
  8
0
100
AcDbLine
 62
7
  6
CONTINUOUS
 10
3.9255204539
 20
6.8414553051
 11
3.92105397
 21
6.8072682369
  0
LINE
  5
263
100
AcDbEntity
  8
0
100
AcDbLine
 62
6
  6
CONTINUOUS
 10
3.3030859427
 20
3.1999694769
 11
3.2719081248
 21
3.0433998493
  0
LINE
  5
264
100
AcDbEntity
  8
0
100
AcDbLine
 62
9
  6
CONTINUOUS
 10
5.1084242366
 20
3.4550400531
 11
5.1085062754
 21
3.4549006333
  0
LWPOLYLINE
  5
265
100
AcDbEntity
  8
0
100
AcDbPolyline
 62
6
  6
CONTINUOUS
 90
3
 70
0
 10
4.7217615854
 20
3.9490511582
 10
4.7012120049
 20
3.9885524864
 10
4.6898113985
 20
4.0128905281
  0
LINE
  5
266
100
AcDbEntity
  8
0
100
AcDbLine
 62
9
  6
CONTINUOUS
 10
4.6897952817
 20
4.0129264836
 11
4.6898113985
 21
4.0128905281
  0
LWPOLYLINE
  5
267
100
AcDbEntity
  8
0
100
AcDbPolyline
 62
6
  6
CONTINUOUS
 90
3
 70
0
 10
4.6897952817
 20
4.0129264836
 10
4.6739318036
 20
4.051209397
 10
4.6602361308
 20
4.091853024
  0
LINE
  5
268
100
AcDbEntity
  8
0
100
AcDbLine
 62
7
  6
CONTINUOUS
 10
3.0778100739
 20
9.4536949937
 11
3.3927630983
 21
8.1844813136
  0
LINE
  5
269
100
AcDbEntity
  8
0
100
AcDbLine
 62
7
  6
CONTINUOUS
 10
4.0605847647
 20
6.5615106803
 11
4.0605847647
 21
7.7710139094
  0
LINE
  5
26A
100
AcDbEntity
  8
0
100
AcDbLine
 62
7
  6
CONTINUOUS
 10
4.1166628393
 20
6.3239550189
 11
4.1166503938
 21
5.2639602557
  0
LINE
  5
26B
100
AcDbEntity
  8
0
100
AcDbLine
 62
7
  6
CONTINUOUS
 10
4.2313406369
 20
6.3429001559
 11
4.2313300862
 21
5.2829079086
  0
LINE
  5
26C
100
AcDbEntity
  8
0
100
AcDbLine
 62
9
  6
CONTINUOUS
 10
4.2605847647
 20
2.0121147445
 11
4.2605847647
 21
3.3300188715
  0
LINE
  5
26D
100
AcDbEntity
  8
0
100
AcDbLine
 62
6
  6
CONTINUOUS
 10
4.2605847647
 20
3.33001888
 11
4.2605847647
 21
3.8097027175
  0
LINE
  5
26E
100
AcDbEntity
  8
0
100
AcDbLine
 62
9
  6
CONTINUOUS
 10
4.2605847647
 20
3.8097027175
 11
4.2605847647
 21
5.2566591764
  0
LINE
  5
26F
100
AcDbEntity
  8
0
100
AcDbLine
 62
6
  6
CONTINUOUS
 10
3.8726672756
 20
4.1503501539
 11
3.872862416
 21
4.1520937607
  0
LINE
  5
270
100
AcDbEntity
  8
0
100
AcDbLine
 62
6
  6
CONTINUOUS
 10
3.8738642525
 20
4.1630426885
 11
3.8703492412
 21
4.1348311344
  0
LINE
  5
271
100
AcDbEntity
  8
0
100
AcDbLine
 62
6
  6
CONTINUOUS
 10
3.8660362818
 20
4.1107869615
 11
3.8641950489
 21
4.0998065003
  0
LINE
  5
272
100
AcDbEntity
  8
0
100
AcDbLine
 62
6
  6
CONTINUOUS
 10
3.8703492412
 20
4.1348311344
 11
3.8664103082
 21
4.1128721095
  0
LINE
  5
273
100
AcDbEntity
  8
0
100
AcDbLine
 62
6
  6
CONTINUOUS
 10
3.8668338859
 20
4.1144977005
 11
3.8660362818
 21
4.1107869615
  0
LINE
  5
274
100
AcDbEntity
  8
0
100
AcDbLine
 62
6
  6
CONTINUOUS
 10
3.8668338856
 20
4.1144976993
 11
3.8609333986
 21
4.091853024
  0
LINE
  5
275
100
AcDbEntity
  8
0
100
AcDbLine
 62
6
  6
CONTINUOUS
 10
4.6602361308
 20
4.091853024
 11
4.6543356438
 21
4.1144976993
  0
LINE
  5
276
100
AcDbEntity
  8
0
100
AcDbLine
 62
6
  6
CONTINUOUS
 10
4.6483071134
 20
4.1520937607
 11
4.6461223127
 21
4.1800910429
  0
LINE
  5
277
100
AcDbEntity
  8
0
100
AcDbLine
 62
6
  6
CONTINUOUS
 10
4.6483071439
 20
4.152093483
 11
4.6463727192
 21
4.1804651181
  0
LINE
  5
278
100
AcDbEntity
  8
0
100
AcDbLine
 62
7
  6
CONTINUOUS
 10
4.3478559506
 20
6.3365517375
 11
4.3478479577
 21
5.2765615189
  0
LINE
  5
279
100
AcDbEntity
  8
0
100
AcDbLine
 62
7
  6
CONTINUOUS
 10
4.4588876947
 20
6.3053086581
 11
4.4588827618
 21
5.2453198537
  0
LINE
  5
27A
100
AcDbEntity
  8
0
100
AcDbLine
 62
7
  6
CONTINUOUS
 10
4.4605847647
 20
7.7710139094
 11
4.4605847647
 21
6.5615106803
  0
LINE
  5
27B
100
AcDbEntity
  8
0
100
AcDbLine
 62
7
  6
CONTINUOUS
 10
4.5305847647
 20
7.5925223003
 11
4.5305847647
 21
7.7635544701
  0
LINE
  5
27C
100
AcDbEntity
  8
0
100
AcDbLine
 62
7
  6
CONTINUOUS
 10
4.5574593365
 20
6.2511340354
 11
4.5574577734
 21
5.1911459417
  0
LINE
  5
27D
100
AcDbEntity
  8
0
100
AcDbLine
 62
7
  6
CONTINUOUS
 10
4.5574577734
 20
6.8411459417
 11
4.5574588817
 21
6.6514657178
  0
LINE
  5
27E
100
AcDbEntity
  8
0
100
AcDbLine
 62
7
  6
CONTINUOUS
 10
5.4433594554
 20
9.4536949937
 11
5.1284064311
 21
8.1844813136
  0
LWPOLYLINE
  5
27F
100
AcDbEntity
  8
0
100
AcDbPolyline
 62
6
  6
CONTINUOUS
 90
3
 70
0
 10
3.8609333986
 20
4.091853024
 10
3.8472377257
 20
4.051209397
 10
3.8313742477
 20
4.0129264836
  0
LINE
  5
280
100
AcDbEntity
  8
0
100
AcDbLine
 62
6
  6
CONTINUOUS
 10
4.6543356435
 20
4.1144977005
 11
4.6551332476
 21
4.1107869615
  0
LINE
  5
281
100
AcDbEntity
  8
0
100
AcDbLine
 62
6
  6
CONTINUOUS
 10
4.6547592211
 20
4.1128721095
 11
4.6508202882
 21
4.1348311344
  0
LINE
  5
282
100
AcDbEntity
  8
0
100
AcDbLine
 62
6
  6
CONTINUOUS
 10
4.6551332476
 20
4.1107869615
 11
4.6569744804
 21
4.0998065003
  0
LINE
  5
283
100
AcDbEntity
  8
0
100
AcDbLine
 62
6
  6
CONTINUOUS
 10
4.6508202882
 20
4.1348311344
 11
4.6473052768
 21
4.1630426885
  0
LINE
  5
284
100
AcDbEntity
  8
0
100
AcDbLine
 62
6
  6
CONTINUOUS
 10
4.6485022537
 20
4.1503501539
 11
4.6483071134
 21
4.1520937607
  0
LINE
  5
285
100
AcDbEntity
  8
0
100
AcDbLine
 62
7
  6
CONTINUOUS
 10
4.6380940599
 20
6.7763765606
 11
4.6360518526
 21
6.7994301879
  0
LWPOLYLINE
  5
286
100
AcDbEntity
  8
0
100
AcDbPolyline
 62
7
  6
CONTINUOUS
 90
3
 70
0
 10
4.7505557968
 20
6.530511784
 10
4.749017028
 20
6.5495464911
 10
4.7375324036
 20
6.5843430603
  0
LINE
  5
287
100
AcDbEntity
  8
0
100
AcDbLine
 62
6
  6
CONTINUOUS
 10
4.7087002635
 20
6.7738291886
 11
4.6884603755
 21
7.0723593897
  0
LINE
  5
288
100
AcDbEntity
  8
0
100
AcDbLine
 62
6
  6
CONTINUOUS
 10
4.6856833487
 20
7.1133194172
 11
4.6698798547
 21
7.3464145916
  0
LINE
  5
289
100
AcDbEntity
  8
0
100
AcDbLine
 62
7
  6
CONTINUOUS
 10
4.5566956011
 20
6.8535728207
 11
4.5574720542
 21
6.8411473489
  0
LINE
  5
28A
100
AcDbEntity
  8
0
100
AcDbLine
 62
7
  6
CONTINUOUS
 10
4.6380923722
 20
6.7763790102
 11
4.6380923722
 21
6.5969546835
  0
LINE
  5
28B
100
AcDbEntity
  8
0
100
AcDbLine
 62
7
  6
CONTINUOUS
 10
4.6380923722
 20
6.1863790102
 11
4.6380923722
 21
5.1263790102
  0
LINE
  5
28C
100
AcDbEntity
  8
0
100
AcDbLine
 62
7
  6
CONTINUOUS
 10
4.6992372511
 20
6.703710453
 11
4.699237664
 21
6.5424044985
  0
LINE
  5
28D
100
AcDbEntity
  8
0
100
AcDbLine
 62
7
  6
CONTINUOUS
 10
4.699237664
 20
6.1134949408
 11
4.699237664
 21
5.0534949408
  0
LINE
  5
28E
100
AcDbEntity
  8
0
100
AcDbLine
 62
7
  6
CONTINUOUS
 10
4.7375321519
 20
6.6198999497
 11
4.7375324036
 21
6.5032336723
  0
LINE
  5
28F
100
AcDbEntity
  8
0
100
AcDbLine
 62
7
  6
CONTINUOUS
 10
4.7375324036
 20
6.0297316893
 11
4.7375324036
 21
4.9726655885
  0
LINE
  5
290
100
AcDbEntity
  8
0
100
AcDbLine
 62
7
  6
CONTINUOUS
 10
4.7505701659
 20
6.530511794
 11
4.7505703918
 21
6.4892244916
  0
LINE
  5
291
100
AcDbEntity
  8
0
100
AcDbLine
 62
7
  6
CONTINUOUS
 10
4.7505703918
 20
5.9403524089
 11
4.7505703918
 21
4.9403952821
  0
LINE
  5
292
100
AcDbEntity
  8
0
100
AcDbLine
 62
6
  6
CONTINUOUS
 10
4.7685847647
 20
8.0478119116
 11
4.7685847647
 21
8.0294696132
  0
LINE
  5
293
100
AcDbEntity
  8
0
100
AcDbLine
 62
6
  6
CONTINUOUS
 10
4.6463727192
 20
4.1804651181
 11
4.6467182544
 21
4.2028351578
  0
LINE
  5
294
100
AcDbEntity
  8
0
100
AcDbLine
 62
7
  6
CONTINUOUS
 10
4.6379768784
 20
5.1204295289
 11
4.6380941662
 21
5.1262681823
  0
LINE
  5
295
100
AcDbEntity
  8
0
100
AcDbLine
 62
6
  6
CONTINUOUS
 10
4.6531477428
 20
4.2714002188
 11
4.64843819
 21
4.2188973236
  0
LINE
  5
296
100
AcDbEntity
  8
0
100
AcDbLine
 62
6
  6
CONTINUOUS
 10
4.6467182544
 20
4.2028351578
 11
4.6480123342
 21
4.2163770444
  0
LINE
  5
297
100
AcDbEntity
  8
0
100
AcDbLine
 62
7
  6
CONTINUOUS
 10
4.6370887036
 20
5.1114846971
 11
4.6379768784
 21
5.1204295289
  0
LINE
  5
298
100
AcDbEntity
  8
0
100
AcDbLine
 62
9
  6
CONTINUOUS
 10
3.8313742477
 20
4.0129264836
 11
3.8313581308
 21
4.0128905281
  0
LWPOLYLINE
  5
299
100
AcDbEntity
  8
0
100
AcDbPolyline
 62
6
  6
CONTINUOUS
 90
3
 70
0
 10
3.8313581308
 20
4.0128905281
 10
3.8199575245
 20
3.9885524864
 10
3.799407944
 20
3.9490511582
  0
LWPOLYLINE
  5
29A
100
AcDbEntity
  8
0
100
AcDbPolyline
 62
6
  6
CONTINUOUS
 90
3
 70
0
 10
3.4127381616
 20
3.4550279372
 10
3.3620788726
 20
3.3585381664
 10
3.3030859427
 20
3.1999694769
  0
LINE
  5
29B
100
AcDbEntity
  8
0
100
AcDbLine
 62
6
  6
CONTINUOUS
 10
3.799407944
 20
3.9490511582
 11
3.7826461655
 21
3.9199169943
  0
LINE
  5
29C
100
AcDbEntity
  8
0
100
AcDbLine
 62
9
  6
CONTINUOUS
 10
3.4127381616
 20
3.4550279372
 11
3.4126883491
 21
3.4549432872
  0
LINE
  5
29D
100
AcDbEntity
  8
0
100
AcDbLine
 62
9
  6
CONTINUOUS
 10
3.7826461655
 20
3.9199169943
 11
3.7826230586
 21
3.919878404
  0
LINE
  5
29E
100
AcDbEntity
  8
0
100
AcDbLine
 62
7
  6
CONTINUOUS
 10
4.5566956011
 20
6.8535728207
 11
4.5531534205
 21
6.8703517613
  0
LWPOLYLINE
  5
29F
100
AcDbEntity
  8
0
100
AcDbPolyline
 62
6
  6
CONTINUOUS
 90
4
 70
0
 10
5.2492635692
 20
3.0433810818
 10
5.2180943881
 20
3.1999313482
 10
5.1591169479
 20
3.3584815153
 10
5.1085174256
 20
3.454881673
  0
LINE
  5
2A0
100
AcDbEntity
  8
0
100
AcDbLine
 62
7
  6
CONTINUOUS
 10
4.6992319674
 20
6.7037114966
 11
4.6953640812
 21
6.7338992682
  0
LWPOLYLINE
  5
2A1
100
AcDbEntity
  8
0
100
AcDbPolyline
 62
7
  6
CONTINUOUS
 90
4
 70
0
 10
4.7375436149
 20
6.6199009526
 10
4.7348221258
 20
6.6449092698
 10
4.7192108625
 20
6.6828545583
 10
4.698939358
 20
6.7059952312
  0
LINE
  5
2A2
100
AcDbEntity
  8
0
100
AcDbLine
 62
6
  6
CONTINUOUS
 10
4.6480123342
 20
4.2163770444
 11
4.6483471152
 21
4.218519172
  0
LINE
  5
2A3
100
AcDbEntity
  8
0
100
AcDbLine
 62
6
  6
CONTINUOUS
 10
4.6478587523
 20
4.2147698878
 11
4.7658047082
 21
4.7222946649
  0
LWPOLYLINE
  5
2A4
100
AcDbEntity
  8
0
100
AcDbPolyline
 62
6
  6
CONTINUOUS
 90
4
 70
0
 10
3.7826230586
 20
3.919878404
 10
3.7554994127
 20
3.877635561
 10
3.7155658314
 20
3.8241258326
 10
3.6824635316
 20
3.7855972295
  0
LINE
  5
2A5
100
AcDbEntity
  8
0
100
AcDbLine
 62
9
  6
CONTINUOUS
 10
3.5784961009
 20
3.6637421415
 11
3.6038579617
 21
3.7024389982
  0
LWPOLYLINE
  5
2A6
100
AcDbEntity
  8
0
100
AcDbPolyline
 62
7
  6
CONTINUOUS
 90
5
 70
0
 10
4.5531534205
 20
6.8703517613
 10
4.5411111626
 20
6.8962754079
 10
4.5215982722
 20
6.9171533426
 10
4.49602411
 20
6.9311749924
 10
4.4671290664
 20
6.9371894022
  0
LINE
  5
2A7
100
AcDbEntity
  8
0
100
AcDbLine
 62
7
  6
CONTINUOUS
 10
4.6360518526
 20
6.7994301879
 11
4.6241435177
 21
6.8324186613
  0
LINE
  5
2A8
100
AcDbEntity
  8
0
100
AcDbLine
 62
6
  6
CONTINUOUS
 10
5.2552517592
 20
2.9173568279
 11
5.2492635692
 21
3.0433810818
  0
LINE
  5
2A9
100
AcDbEntity
  8
0
100
AcDbLine
 62
9
  6
CONTINUOUS
 10
5.2552528528
 20
2.9174091222
 11
5.2552517592
 21
2.9173568279
  0
LWPOLYLINE
  5
2AA
100
AcDbEntity
  8
0
100
AcDbPolyline
 62
6
  6
CONTINUOUS
 90
4
 70
0
 10
3.60390486
 20
3.7024869622
 10
3.5241538638
 20
3.6137064433
 10
3.4446316737
 20
3.5061613736
 10
3.4126779804
 20
3.454925656
  0
LINE
  5
2AB
100
AcDbEntity
  8
0
100
AcDbLine
 62
9
  6
CONTINUOUS
 10
3.6824635316
 20
3.7855972295
 11
3.6824455962
 21
3.7855775574
  0
LINE
  5
2AC
100
AcDbEntity
  8
0
100
AcDbLine
 62
6
  6
CONTINUOUS
 10
3.6824455962
 20
3.7855775574
 11
3.6504409544
 21
3.750742388
  0
LINE
  5
2AD
100
AcDbEntity
  8
0
100
AcDbLine
 62
6
  6
CONTINUOUS
 10
3.6504409544
 20
3.750742388
 11
3.6407693262
 21
3.7403206585
  0
LINE
  5
2AE
100
AcDbEntity
  8
0
100
AcDbLine
 62
6
  6
CONTINUOUS
 10
3.6425349781
 20
3.7421801708
 11
3.6407693262
 21
3.7403206585
  0
LINE
  5
2AF
100
AcDbEntity
  8
0
100
AcDbLine
 62
6
  6
CONTINUOUS
 10
3.6425349781
 20
3.7421801708
 11
3.6038579617
 21
3.7024389982
  0
LINE
  5
2B0
100
AcDbEntity
  8
0
100
AcDbLine
 62
9
  6
CONTINUOUS
 10
3.6038579617
 20
3.7024389982
 11
3.60390486
 21
3.7024869622
  0
LINE
  5
2B1
100
AcDbEntity
  8
0
100
AcDbLine
 62
7
  6
CONTINUOUS
 10
4.6760626945
 20
6.7728339914
 11
4.6431467156
 21
6.8023342601
  0
LWPOLYLINE
  5
2B2
100
AcDbEntity
  8
0
100
AcDbPolyline
 62
7
  6
CONTINUOUS
 90
3
 70
0
 10
4.6241435177
 20
6.8324186613
 10
4.6023557048
 20
6.8588175102
 10
4.5724670594
 20
6.8771434943
  0
LINE
  5
2B3
100
AcDbEntity
  8
0
100
AcDbLine
 62
7
  6
CONTINUOUS
 10
4.6953640812
 20
6.7338992682
 11
4.6760626945
 21
6.7728339914
  0
LINE
  5
2B4
100
AcDbEntity
  8
0
100
AcDbLine
 62
6
  6
CONTINUOUS
 10
5.2454374128
 20
2.7990024218
 11
5.2552519684
 21
2.9174092088
  0
LINE
  5
2B5
100
AcDbEntity
  8
0
100
AcDbLine
 62
7
  6
CONTINUOUS
 10
3.9285967688
 20
6.8480281512
 11
3.9179995057
 21
6.8450458057
  0
LWPOLYLINE
  5
2B6
100
AcDbEntity
  8
0
100
AcDbPolyline
 62
7
  6
CONTINUOUS
 90
5
 70
0
 10
4.0228037249
 20
6.9131100345
 10
3.9938160733
 20
6.9091654364
 10
3.9622964196
 20
6.8939927787
 10
3.9391668148
 20
6.8706120824
 10
3.9255204539
 20
6.8414553051
  0
LINE
  5
2B7
100
AcDbEntity
  8
0
100
AcDbLine
 62
7
  6
CONTINUOUS
 10
4.4671290664
 20
6.9371894022
 11
4.4605847647
 21
6.9367982768
  0
LINE
  5
2B8
100
AcDbEntity
  8
0
100
AcDbLine
 62
7
  6
CONTINUOUS
 10
4.5724670594
 20
6.8771434943
 11
4.5469691313
 21
6.8836648234
  0
LINE
  5
2B9
100
AcDbEntity
  8
0
100
AcDbLine
 62
7
  6
CONTINUOUS
 10
4.6431467156
 20
6.8023342601
 11
4.6335566192
 21
6.8063424842
  0
LWPOLYLINE
  5
2BA
100
AcDbEntity
  8
0
100
AcDbPolyline
 62
6
  6
CONTINUOUS
 90
3
 70
0
 10
5.1768109021
 20
2.5515669583
 10
5.2143862527
 20
2.6572011261
 10
5.2454374128
 20
2.7990024218
  0
LINE
  5
2BB
100
AcDbEntity
  8
0
100
AcDbLine
 62
6
  6
CONTINUOUS
 10
4.6605847647
 20
7.9778119116
 11
3.8605847647
 21
7.9778119116
  0
LINE
  5
2BC
100
AcDbEntity
  8
0
100
AcDbLine
 62
6
  6
CONTINUOUS
 10
3.7525847647
 20
8.0478119116
 11
3.8479909439
 21
8.0478119116
  0
LINE
  5
2BD
100
AcDbEntity
  8
0
100
AcDbLine
 62
6
  6
CONTINUOUS
 10
4.1651785855
 20
8.0478119116
 11
4.3559909439
 21
8.0478119116
  0
LINE
  5
2BE
100
AcDbEntity
  8
0
100
AcDbLine
 62
6
  6
CONTINUOUS
 10
4.6731785855
 20
8.0478119116
 11
4.7685847647
 21
8.0478119116
  0
LINE
  5
2BF
100
AcDbEntity
  8
0
100
AcDbLine
 62
9
  6
CONTINUOUS
 10
3.4573709414
 20
8.1139766611
 11
5.0637985879
 21
8.1139766611
  0
LINE
  5
2C0
100
AcDbEntity
  8
0
100
AcDbLine
 62
9
  6
CONTINUOUS
 10
3.3927632934
 20
8.1844813136
 11
5.1284062359
 21
8.1844813136
  0
LINE
  5
2C1
100
AcDbEntity
  8
0
100
AcDbLine
 62
7
  6
CONTINUOUS
 10
5.420582922
 20
9.4828140534
 11
5.4433575766
 21
9.4536971776
  0
LINE
  5
2C2
100
AcDbEntity
  8
0
100
AcDbLine
 62
7
  6
CONTINUOUS
 10
3.0778099409
 20
9.4536945974
 11
5.4433593564
 21
9.4536949937
  0
LINE
  5
2C3
100
AcDbEntity
  8
0
100
AcDbLine
 62
7
  6
CONTINUOUS
 10
3.1006166907
 20
9.4828119116
 11
5.4205528387
 21
9.4828119116
  0
ARC
  5
2C4
100
AcDbEntity
  8
0
100
AcDbCircle
 62
9
  6
CONTINUOUS
 10
4.1490441045
 20
1.4113302965
 40
1.9064277196
100
AcDbArc
 50
106.5456767013
 51
108.6209128918
  0
ARC
  5
2C5
100
AcDbEntity
  8
0
100
AcDbCircle
 62
9
  6
CONTINUOUS
 10
4.260347884
 20
3.4016879777
 40
1.1611143132
100
AcDbArc
 50
271.0174980777
 51
277.620514387
  0
ARC
  5
2C6
100
AcDbEntity
  8
0
100
AcDbCircle
 62
9
  6
CONTINUOUS
 10
4.2603095207
 20
3.3977269247
 40
1.1571203275
100
AcDbArc
 50
261.5869796883
 51
262.3223601094
  0
ARC
  5
2C7
100
AcDbEntity
  8
0
100
AcDbCircle
 62
9
  6
CONTINUOUS
 10
4.2600190571
 20
3.3957525965
 40
1.1551247476
100
AcDbArc
 50
261.1499788561
 51
261.5869042111
  0
ARC
  5
2C8
100
AcDbEntity
  8
0
100
AcDbCircle
 62
9
  6
CONTINUOUS
 10
4.2597389905
 20
3.3939563206
 40
1.1533067696
100
AcDbArc
 50
260.6610858598
 51
261.1499976285
  0
ARC
  5
2C9
100
AcDbEntity
  8
0
100
AcDbCircle
 62
9
  6
CONTINUOUS
 10
4.260577997
 20
3.3934416328
 40
1.1528651853
100
AcDbArc
 50
270.0003363443
 51
271.0133412804
  0
ARC
  5
2CA
100
AcDbEntity
  8
0
100
AcDbCircle
 62
9
  6
CONTINUOUS
 10
4.259497967
 20
3.3924833757
 40
1.1518142357
100
AcDbArc
 50
260.4564940733
 51
260.6610265724
  0
ARC
  5
2CB
100
AcDbEntity
  8
0
100
AcDbCircle
 62
9
  6
CONTINUOUS
 10
4.2593560851
 20
3.3916389864
 40
1.1509580092
100
AcDbArc
 50
260.286205059
 51
260.4564901647
  0
ARC
  5
2CC
100
AcDbEntity
  8
0
100
AcDbCircle
 62
9
  6
CONTINUOUS
 10
4.2541748304
 20
3.365587247
 40
1.1244057859
100
AcDbArc
 50
253.5949048861
 51
260.3224527817
  0
ARC
  5
2CD
100
AcDbEntity
  8
0
100
AcDbCircle
 62
9
  6
CONTINUOUS
 10
4.2450235274
 20
3.3336558104
 40
1.0911897677
100
AcDbArc
 50
252.2443075669
 51
253.5823267246
  0
ARC
  5
2CE
100
AcDbEntity
  8
0
100
AcDbCircle
 62
9
  6
CONTINUOUS
 10
4.2418223275
 20
3.3236512105
 40
1.0806854974
100
AcDbArc
 50
251.5521475046
 51
252.2441867062
  0
ARC
  5
2CF
100
AcDbEntity
  8
0
100
AcDbCircle
 62
9
  6
CONTINUOUS
 10
4.2351777124
 20
2.9691341474
 40
0.9552899073
100
AcDbArc
 50
144.4055867615
 51
144.754788064
  0
ARC
  5
2D0
100
AcDbEntity
  8
0
100
AcDbCircle
 62
9
  6
CONTINUOUS
 10
4.222659124
 20
2.977832403
 40
0.940046549
100
AcDbArc
 50
144.747448946
 51
149.4950141599
  0
ARC
  5
2D1
100
AcDbEntity
  8
0
100
AcDbCircle
 62
6
  6
CONTINUOUS
 10
3.0475417407
 20
4.3325852423
 40
0.8532321488
100
AcDbArc
 50
327.3521562111
 51
330.0153634024
  0
ARC
  5
2D2
100
AcDbEntity
  8
0
100
AcDbCircle
 62
6
  6
CONTINUOUS
 10
3.1495171985
 20
4.2676446234
 40
0.7323393005
100
AcDbArc
 50
318.3675034232
 51
327.3255688331
  0
ARC
  5
2D3
100
AcDbEntity
  8
0
100
AcDbCircle
 62
9
  6
CONTINUOUS
 10
3.9939767651
 20
3.0478550224
 40
0.6993668464
100
AcDbArc
 50
198.9149167608
 51
200.209136267
  0
ARC
  5
2D4
100
AcDbEntity
  8
0
100
AcDbCircle
 62
6
  6
CONTINUOUS
 10
4.2591256359
 20
4.6720853986
 40
0.5844277416
100
AcDbArc
 50
101.0825649513
 51
103.3992763165
  0
ARC
  5
2D5
100
AcDbEntity
  8
0
100
AcDbCircle
 62
6
  6
CONTINUOUS
 10
4.2539667981
 20
4.6917144518
 40
0.5641377238
100
AcDbArc
 50
103.3515762897
 51
112.548451334
  0
ARC
  5
2D6
100
AcDbEntity
  8
0
100
AcDbCircle
 62
6
  6
CONTINUOUS
 10
4.2486555201
 20
4.705488567
 40
0.5493800048
100
AcDbArc
 50
112.5877301482
 51
114.6364435098
  0
ARC
  5
2D7
100
AcDbEntity
  8
0
100
AcDbCircle
 62
6
  6
CONTINUOUS
 10
4.2395971709
 20
4.7234961054
 40
0.5292361169
100
AcDbArc
 50
114.5577188134
 51
124.5735188124
  0
ARC
  5
2D8
100
AcDbEntity
  8
0
100
AcDbCircle
 62
9
  6
CONTINUOUS
 10
3.3501827909
 20
4.212763506
 40
0.5262791613
100
AcDbArc
 50
347.6038914245
 51
348.8224565683
  0
ARC
  5
2D9
100
AcDbEntity
  8
0
100
AcDbCircle
 62
6
  6
CONTINUOUS
 10
4.2274010661
 20
4.7416403711
 40
0.507375374
100
AcDbArc
 50
124.6021959529
 51
126.3259780108
  0
ARC
  5
2DA
100
AcDbEntity
  8
0
100
AcDbCircle
 62
9
  6
CONTINUOUS
 10
3.4050143429
 20
4.2035966587
 40
0.4706757908
100
AcDbArc
 50
351.5109399417
 51
353.5007493836
  0
ARC
  5
2DB
100
AcDbEntity
  8
0
100
AcDbCircle
 62
6
  6
CONTINUOUS
 10
4.1998508536
 20
4.7738227851
 40
0.4649384347
100
AcDbArc
 50
137.3621808151
 51
137.6574103694
  0
ARC
  5
2DC
100
AcDbEntity
  8
0
100
AcDbCircle
 62
6
  6
CONTINUOUS
 10
4.1977021106
 20
4.7757620726
 40
0.4620440026
100
AcDbArc
 50
137.655683591
 51
139.183430176
  0
ARC
  5
2DD
100
AcDbEntity
  8
0
100
AcDbCircle
 62
6
  6
CONTINUOUS
 10
4.1928017102
 20
4.7799393974
 40
0.4556048873
100
AcDbArc
 50
139.1781897845
 51
141.8547679898
  0
ARC
  5
2DE
100
AcDbEntity
  8
0
100
AcDbCircle
 62
6
  6
CONTINUOUS
 10
4.1781684568
 20
4.7908943569
 40
0.4373303972
100
AcDbArc
 50
141.7993721818
 51
149.6802317465
  0
ARC
  5
2DF
100
AcDbEntity
  8
0
100
AcDbCircle
 62
6
  6
CONTINUOUS
 10
4.1665595655
 20
4.7978458302
 40
0.4238000958
100
AcDbArc
 50
149.699185663
 51
150.8611946232
  0
ARC
  5
2E0
100
AcDbEntity
  8
0
100
AcDbCircle
 62
6
  6
CONTINUOUS
 10
4.1609527759
 20
4.8009282062
 40
0.4174019962
100
AcDbArc
 50
150.8560033076
 51
153.1993158701
  0
ARC
  5
2E1
100
AcDbEntity
  8
0
100
AcDbCircle
 62
6
  6
CONTINUOUS
 10
3.4650825163
 20
4.1986803346
 40
0.410385986
100
AcDbArc
 50
357.403913281
 51
359.1389665327
  0
ARC
  5
2E2
100
AcDbEntity
  8
0
100
AcDbCircle
 62
6
  6
CONTINUOUS
 10
4.1511931958
 20
4.8057080283
 40
0.4065356426
100
AcDbArc
 50
153.1804157265
 51
162.3421108743
  0
ARC
  5
2E3
100
AcDbEntity
  8
0
100
AcDbCircle
 62
9
  6
CONTINUOUS
 10
3.7748338241
 20
3.5038117013
 40
0.2636183534
100
AcDbArc
 50
117.4710059417
 51
118.8808712078
  0
ARC
  5
2E4
100
AcDbEntity
  8
0
100
AcDbCircle
 62
9
  6
CONTINUOUS
 10
3.7691520289
 20
3.514129873
 40
0.2518392452
100
AcDbArc
 50
118.8827932026
 51
119.4870209765
  0
ARC
  5
2E5
100
AcDbEntity
  8
0
100
AcDbCircle
 62
6
  6
CONTINUOUS
 10
3.8015928235
 20
3.5571360575
 40
0.2455406303
100
AcDbArc
 50
117.8796259801
 51
118.4864235655
  0
ARC
  5
2E6
100
AcDbEntity
  8
0
100
AcDbCircle
 62
9
  6
CONTINUOUS
 10
3.5032538978
 20
2.9223648037
 40
0.2373889578
100
AcDbArc
 50
181.208804481
 51
188.0061485539
  0
ARC
  5
2E7
100
AcDbEntity
  8
0
100
AcDbCircle
 62
6
  6
CONTINUOUS
 10
4.0620295737
 20
4.0640017057
 40
0.2021370444
100
AcDbArc
 50
148.4901258253
 51
154.1939790812
  0
ARC
  5
2E8
100
AcDbEntity
  8
0
100
AcDbCircle
 62
7
  6
CONTINUOUS
 10
3.4898194912
 20
8.2085656778
 40
0.1
100
AcDbArc
 50
193.9363381127
 51
251.0655040362
  0
ARC
  5
2E9
100
AcDbEntity
  8
0
100
AcDbCircle
 62
9
  6
CONTINUOUS
 10
4.1544710943
 20
5.9473986823
 40
0.4189224787
100
AcDbArc
 50
203.9491169707
 51
204.5356259101
  0
ARC
  5
2EA
100
AcDbEntity
  8
0
100
AcDbCircle
 62
9
  6
CONTINUOUS
 10
4.143130691
 20
5.9429014906
 40
0.4067331884
100
AcDbArc
 50
189.287166767
 51
204.0186133985
  0
ARC
  5
2EB
100
AcDbEntity
  8
0
100
AcDbCircle
 62
7
  6
CONTINUOUS
 10
4.164290869
 20
6.6019015907
 40
0.3746294319
100
AcDbArc
 50
156.0995377786
 51
157.5213469122
  0
ARC
  5
2EC
100
AcDbEntity
  8
0
100
AcDbCircle
 62
7
  6
CONTINUOUS
 10
4.1525993003
 20
6.6063308354
 40
0.3621328875
100
AcDbArc
 50
157.4616316194
 51
170.9560819295
  0
ARC
  5
2ED
100
AcDbEntity
  8
0
100
AcDbCircle
 62
7
  6
CONTINUOUS
 10
4.1470871336
 20
6.6074024295
 40
0.3565208534
100
AcDbArc
 50
170.9869067752
 51
174.2949550235
  0
ARC
  5
2EE
100
AcDbEntity
  8
0
100
AcDbCircle
 62
6
  6
CONTINUOUS
 10
4.1638237153
 20
6.7308623009
 40
0.3537208174
100
AcDbArc
 50
156.3355945057
 51
163.6061423831
  0
ARC
  5
2EF
100
AcDbEntity
  8
0
100
AcDbCircle
 62
6
  6
CONTINUOUS
 10
4.1561291234
 20
6.7332342897
 40
0.3456696038
100
AcDbArc
 50
163.6233546499
 51
169.4542502262
  0
ARC
  5
2F0
100
AcDbEntity
  8
0
100
AcDbCircle
 62
6
  6
CONTINUOUS
 10
4.1506898409
 20
6.7343337679
 40
0.3401209794
100
AcDbArc
 50
169.4686375248
 51
172.0147255191
  0
ARC
  5
2F1
100
AcDbEntity
  8
0
100
AcDbCircle
 62
7
  6
CONTINUOUS
 10
4.1921357692
 20
6.7344644605
 40
0.3389330056
100
AcDbArc
 50
151.9255931993
 51
155.8451902412
  0
ARC
  5
2F2
100
AcDbEntity
  8
0
100
AcDbCircle
 62
6
  6
CONTINUOUS
 10
4.148885022
 20
6.7346046385
 40
0.3382960318
100
AcDbArc
 50
172.0176930345
 51
180.4181933071
  0
ARC
  5
2F3
100
AcDbEntity
  8
0
100
AcDbCircle
 62
7
  6
CONTINUOUS
 10
4.1883366906
 20
6.7361962194
 40
0.3347579214
100
AcDbArc
 50
155.8495607581
 51
156.1590120869
  0
ARC
  5
2F4
100
AcDbEntity
  8
0
100
AcDbCircle
 62
7
  6
CONTINUOUS
 10
4.1873789876
 20
6.7330870965
 40
0.3333245501
100
AcDbArc
 50
155.1911397441
 51
155.7739676236
  0
ARC
  5
2F5
100
AcDbEntity
  8
0
100
AcDbCircle
 62
7
  6
CONTINUOUS
 10
4.1854427711
 20
6.7374522445
 40
0.3316032537
100
AcDbArc
 50
156.1554057208
 51
158.1927768661
  0
ARC
  5
2F6
100
AcDbEntity
  8
0
100
AcDbCircle
 62
6
  6
CONTINUOUS
 10
4.1729126094
 20
6.7302527525
 40
0.3304518025
100
AcDbArc
 50
156.2920749
 51
157.9492990936
  0
ARC
  5
2F7
100
AcDbEntity
  8
0
100
AcDbCircle
 62
6
  6
CONTINUOUS
 10
4.1715415286
 20
6.7308071272
 40
0.3289728863
100
AcDbArc
 50
157.9491393349
 51
159.3755849526
  0
ARC
  5
2F8
100
AcDbEntity
  8
0
100
AcDbCircle
 62
6
  6
CONTINUOUS
 10
4.1704312696
 20
6.7312275927
 40
0.3277856794
100
AcDbArc
 50
159.3760113592
 51
160.1323936184
  0
ARC
  5
2F9
100
AcDbEntity
  8
0
100
AcDbCircle
 62
6
  6
CONTINUOUS
 10
4.1694174697
 20
6.7315924802
 40
0.3267082142
100
AcDbArc
 50
160.1321536778
 51
161.3547809575
  0
ARC
  5
2FA
100
AcDbEntity
  8
0
100
AcDbCircle
 62
6
  6
CONTINUOUS
 10
4.1574544173
 20
7.0500670347
 40
0.3255224301
100
AcDbArc
 50
168.4339357733
 51
169.9982316176
  0
ARC
  5
2FB
100
AcDbEntity
  8
0
100
AcDbCircle
 62
6
  6
CONTINUOUS
 10
4.1553816521
 20
7.0504304139
 40
0.3234180548
100
AcDbArc
 50
169.9978528195
 51
172.0163668739
  0
ARC
  5
2FC
100
AcDbEntity
  8
0
100
AcDbCircle
 62
6
  6
CONTINUOUS
 10
4.1541938573
 20
7.0506045325
 40
0.3222175891
100
AcDbArc
 50
172.0176930345
 51
177.3970429998
  0
ARC
  5
2FD
100
AcDbEntity
  8
0
100
AcDbCircle
 62
6
  6
CONTINUOUS
 10
4.1547969132
 20
7.0856048919
 40
0.3204513238
100
AcDbArc
 50
172.0179961068
 51
178.0142196087
  0
ARC
  5
2FE
100
AcDbEntity
  8
0
100
AcDbCircle
 62
7
  6
CONTINUOUS
 10
4.2605779307
 20
6.1016010298
 40
0.6250046029
100
AcDbArc
 50
322.0397869953
 51
70.3249180804
  0
ARC
  5
2FF
100
AcDbEntity
  8
0
100
AcDbCircle
 62
7
  6
CONTINUOUS
 10
4.2600176074
 20
6.1031745669
 40
0.6233298961
100
AcDbArc
 50
109.3529274897
 51
109.7613052167
  0
ARC
  5
300
100
AcDbEntity
  8
0
100
AcDbCircle
 62
7
  6
CONTINUOUS
 10
4.259862181
 20
6.1036181275
 40
0.6228598926
100
AcDbArc
 50
108.6903452573
 51
109.352959296
  0
ARC
  5
301
100
AcDbEntity
  8
0
100
AcDbCircle
 62
7
  6
CONTINUOUS
 10
4.2548393595
 20
6.5577594809
 40
0.4863047096
100
AcDbArc
 50
113.7168222896
 51
115.045205953
  0
ARC
  5
302
100
AcDbEntity
  8
0
100
AcDbCircle
 62
7
  6
CONTINUOUS
 10
4.2416817301
 20
6.5360835408
 40
0.4448053985
100
AcDbArc
 50
118.3559865568
 51
120.878538726
  0
ARC
  5
303
100
AcDbEntity
  8
0
100
AcDbCircle
 62
7
  6
CONTINUOUS
 10
4.2384652173
 20
6.541473739
 40
0.438528444
100
AcDbArc
 50
120.8792914555
 51
122.4630296486
  0
ARC
  5
304
100
AcDbEntity
  8
0
100
AcDbCircle
 62
6
  6
CONTINUOUS
 10
4.2425988837
 20
6.6658471355
 40
0.4268815432
100
AcDbArc
 50
115.3039515742
 51
124.2674724218
  0
ARC
  5
305
100
AcDbEntity
  8
0
100
AcDbCircle
 62
7
  6
CONTINUOUS
 10
4.2114609259
 20
6.6042673262
 40
0.4214454097
100
AcDbArc
 50
153.4660852671
 51
158.0074499684
  0
ARC
  5
306
100
AcDbEntity
  8
0
100
AcDbCircle
 62
7
  6
CONTINUOUS
 10
4.2095081234
 20
6.605067151
 40
0.4193351845
100
AcDbArc
 50
158.0088609087
 51
159.1197019714
  0
ARC
  5
307
100
AcDbEntity
  8
0
100
AcDbCircle
 62
7
  6
CONTINUOUS
 10
4.2083274449
 20
6.6055169521
 40
0.418071728
100
AcDbArc
 50
159.1196262887
 51
160.3790998488
  0
ARC
  5
308
100
AcDbEntity
  8
0
100
AcDbCircle
 62
7
  6
CONTINUOUS
 10
4.2024068488
 20
6.607469646
 40
0.4118392328
100
AcDbArc
 50
160.3583989658
 51
172.1970682854
  0
ARC
  5
309
100
AcDbEntity
  8
0
100
AcDbCircle
 62
6
  6
CONTINUOUS
 10
4.2230990854
 20
7.0064726394
 40
0.4056352587
100
AcDbArc
 50
129.8712966059
 51
131.9168108517
  0
ARC
  5
30A
100
AcDbEntity
  8
0
100
AcDbCircle
 62
7
  6
CONTINUOUS
 10
4.2112409853
 20
6.5750182316
 40
0.3952308535
100
AcDbArc
 50
135.4054224913
 51
136.2419603977
  0
ARC
  5
30B
100
AcDbEntity
  8
0
100
AcDbCircle
 62
6
  6
CONTINUOUS
 10
4.2166319878
 20
7.0489909954
 40
0.3935197045
100
AcDbArc
 50
133.4280748587
 51
135.5252772432
  0
ARC
  5
30C
100
AcDbEntity
  8
0
100
AcDbCircle
 62
7
  6
CONTINUOUS
 10
4.2207607458
 20
7.02900084
 40
0.3892378257
100
AcDbArc
 50
131.7773704081
 51
133.9044718454
  0
ARC
  5
30D
100
AcDbEntity
  8
0
100
AcDbCircle
 62
7
  6
CONTINUOUS
 10
3.9441012454
 20
9.5328119116
 40
1.5
100
AcDbArc
 50
251.0655040364
 51
262.6466917853
  0
ARC
  5
30E
100
AcDbEntity
  8
0
100
AcDbCircle
 62
6
  6
CONTINUOUS
 10
4.0065847647
 20
8.7242751233
 40
0.6948008292
100
AcDbArc
 50
256.8055551176
 51
283.1944448821
  0
ARC
  5
30F
100
AcDbEntity
  8
0
100
AcDbCircle
 62
7
  6
CONTINUOUS
 10
4.2605704962
 20
8.0438194233
 40
0.3900135687
100
AcDbArc
 50
300.9303911371
 51
350.2404644056
  0
ARC
  5
310
100
AcDbEntity
  8
0
100
AcDbCircle
 62
7
  6
CONTINUOUS
 10
4.2605789816
 20
8.0438064596
 40
0.3899915232
100
AcDbArc
 50
189.7806356529
 51
239.1451201792
  0
ARC
  5
311
100
AcDbEntity
  8
0
100
AcDbCircle
 62
9
  6
CONTINUOUS
 10
4.3721254249
 20
1.4113302965
 40
1.9064277196
100
AcDbArc
 50
71.3790871082
 51
73.4543232987
  0
ARC
  5
312
100
AcDbEntity
  8
0
100
AcDbCircle
 62
9
  6
CONTINUOUS
 10
4.2608185611
 20
3.4016549999
 40
1.1610811967
100
AcDbArc
 50
262.3233624249
 51
269.0387959282
  0
ARC
  5
313
100
AcDbEntity
  8
0
100
AcDbCircle
 62
9
  6
CONTINUOUS
 10
4.2608478188
 20
3.3978119701
 40
1.1572062411
100
AcDbArc
 50
277.6214295163
 51
278.4130012935
  0
ARC
  5
314
100
AcDbEntity
  8
0
100
AcDbCircle
 62
9
  6
CONTINUOUS
 10
4.2611504723
 20
3.3957525964
 40
1.1551247475
100
AcDbArc
 50
278.4130957889
 51
278.8500211439
  0
ARC
  5
315
100
AcDbEntity
  8
0
100
AcDbCircle
 62
9
  6
CONTINUOUS
 10
4.2614305389
 20
3.3939563206
 40
1.1533067695
100
AcDbArc
 50
278.8500023715
 51
279.3389141403
  0
ARC
  5
316
100
AcDbEntity
  8
0
100
AcDbCircle
 62
9
  6
CONTINUOUS
 10
4.2605908672
 20
3.3933265586
 40
1.1527501111
100
AcDbArc
 50
269.0431673078
 51
269.9996966838
  0
ARC
  5
317
100
AcDbEntity
  8
0
100
AcDbCircle
 62
9
  6
CONTINUOUS
 10
4.2616715584
 20
3.3924833997
 40
1.15181426
100
AcDbArc
 50
279.3389734291
 51
279.5434948981
  0
ARC
  5
318
100
AcDbEntity
  8
0
100
AcDbCircle
 62
9
  6
CONTINUOUS
 10
4.2618134442
 20
3.3916389865
 40
1.1509580092
100
AcDbArc
 50
279.5434988027
 51
279.7138059809
  0
ARC
  5
319
100
AcDbEntity
  8
0
100
AcDbCircle
 62
9
  6
CONTINUOUS
 10
4.2669947194
 20
3.3655871623
 40
1.1244056988
100
AcDbArc
 50
279.6775582188
 51
286.405105663
  0
ARC
  5
31A
100
AcDbEntity
  8
0
100
AcDbCircle
 62
9
  6
CONTINUOUS
 10
4.276146016
 20
3.3336557659
 40
1.091189721
100
AcDbArc
 50
286.4176838708
 51
287.7556924446
  0
ARC
  5
31B
100
AcDbEntity
  8
0
100
AcDbCircle
 62
9
  6
CONTINUOUS
 10
4.2793471802
 20
3.323651277
 40
1.0806855673
100
AcDbArc
 50
287.755813313
 51
288.4478418328
  0
ARC
  5
31C
100
AcDbEntity
  8
0
100
AcDbCircle
 62
6
  6
CONTINUOUS
 10
5.4736277887
 20
4.3325852423
 40
0.8532321488
100
AcDbArc
 50
209.9846365975
 51
212.6478437889
  0
ARC
  5
31D
100
AcDbEntity
  8
0
100
AcDbCircle
 62
6
  6
CONTINUOUS
 10
5.3716523309
 20
4.2676446234
 40
0.7323393005
100
AcDbArc
 50
212.6744311669
 51
221.6324965768
  0
ARC
  5
31E
100
AcDbEntity
  8
0
100
AcDbCircle
 62
9
  6
CONTINUOUS
 10
4.5271927482
 20
3.0478550281
 40
0.6993668634
100
AcDbArc
 50
339.7908573283
 51
341.0850772951
  0
ARC
  5
31F
100
AcDbEntity
  8
0
100
AcDbCircle
 62
6
  6
CONTINUOUS
 10
4.2606729234
 20
4.6639678569
 40
0.5926913272
100
AcDbArc
 50
90.0092645037
 51
101.0785097593
  0
ARC
  5
320
100
AcDbEntity
  8
0
100
AcDbCircle
 62
6
  6
CONTINUOUS
 10
4.2736272432
 20
4.7084576837
 40
0.546217873
100
AcDbArc
 50
59.4441190806
 51
70.8363410816
  0
ARC
  5
321
100
AcDbEntity
  8
0
100
AcDbCircle
 62
9
  6
CONTINUOUS
 10
5.1709867384
 20
4.212763506
 40
0.5262791613
100
AcDbArc
 50
191.1775434316
 51
192.3961085756
  0
ARC
  5
322
100
AcDbEntity
  8
0
100
AcDbCircle
 62
6
  6
CONTINUOUS
 10
4.3124391981
 20
4.7649627985
 40
0.4774860506
100
AcDbArc
 50
47.2595368993
 51
47.8902720877
  0
ARC
  5
323
100
AcDbEntity
  8
0
100
AcDbCircle
 62
6
  6
CONTINUOUS
 10
4.3136355084
 20
4.766256172
 40
0.4757242411
100
AcDbArc
 50
46.1273448638
 51
47.2596366292
  0
ARC
  5
324
100
AcDbEntity
  8
0
100
AcDbCircle
 62
9
  6
CONTINUOUS
 10
5.1161551864
 20
4.2035966587
 40
0.4706757908
100
AcDbArc
 50
186.4992506164
 51
188.4890600583
  0
ARC
  5
325
100
AcDbEntity
  8
0
100
AcDbCircle
 62
6
  6
CONTINUOUS
 10
4.3171729596
 20
4.7699133601
 40
0.4706361821
100
AcDbArc
 50
42.6408043539
 51
46.1292247515
  0
ARC
  5
326
100
AcDbEntity
  8
0
100
AcDbCircle
 62
6
  6
CONTINUOUS
 10
4.3266048183
 20
4.7785775496
 40
0.4578288448
100
AcDbArc
 50
36.3763032706
 51
42.642761011
  0
ARC
  5
327
100
AcDbEntity
  8
0
100
AcDbCircle
 62
6
  6
CONTINUOUS
 10
4.3379588757
 20
4.7872453316
 40
0.4435465766
100
AcDbArc
 50
34.1822724333
 51
36.3446758477
  0
ARC
  5
328
100
AcDbEntity
  8
0
100
AcDbCircle
 62
6
  6
CONTINUOUS
 10
4.3456582413
 20
4.7924751833
 40
0.4342389679
100
AcDbArc
 50
30.5420901112
 51
34.182179657
  0
ARC
  5
329
100
AcDbEntity
  8
0
100
AcDbCircle
 62
6
  6
CONTINUOUS
 10
4.3536330462
 20
4.7972884087
 40
0.4249246863
100
AcDbArc
 50
29.1342664404
 51
30.5295699665
  0
ARC
  5
32A
100
AcDbEntity
  8
0
100
AcDbCircle
 62
6
  6
CONTINUOUS
 10
4.3624149661
 20
4.802127194
 40
0.4148980466
100
AcDbArc
 50
24.0299980159
 51
29.1410274549
  0
ARC
  5
32B
100
AcDbEntity
  8
0
100
AcDbCircle
 62
6
  6
CONTINUOUS
 10
5.056087013
 20
4.1986803346
 40
0.410385986
100
AcDbArc
 50
180.8610334672
 51
182.5960867188
  0
ARC
  5
32C
100
AcDbEntity
  8
0
100
AcDbCircle
 62
9
  6
CONTINUOUS
 10
4.7463357066
 20
3.5038117036
 40
0.2636183507
100
AcDbArc
 50
61.1191284301
 51
62.5289940645
  0
ARC
  5
32D
100
AcDbEntity
  8
0
100
AcDbCircle
 62
9
  6
CONTINUOUS
 10
4.7520175023
 20
3.5141298764
 40
0.2518392414
100
AcDbArc
 50
60.5129787242
 51
61.1172064327
  0
ARC
  5
32E
100
AcDbEntity
  8
0
100
AcDbCircle
 62
6
  6
CONTINUOUS
 10
4.7195767058
 20
3.5571360575
 40
0.2455406303
100
AcDbArc
 50
61.5135764346
 51
62.1203740199
  0
ARC
  5
32F
100
AcDbEntity
  8
0
100
AcDbCircle
 62
9
  6
CONTINUOUS
 10
5.0179156311
 20
2.9223648037
 40
0.2373889583
100
AcDbArc
 50
351.9938514522
 51
358.7911941483
  0
ARC
  5
330
100
AcDbEntity
  8
0
100
AcDbCircle
 62
6
  6
CONTINUOUS
 10
4.4591399557
 20
4.0640017057
 40
0.2021370444
100
AcDbArc
 50
25.8060209188
 51
31.5098741749
  0
ARC
  5
331
100
AcDbEntity
  8
0
100
AcDbCircle
 62
9
  6
CONTINUOUS
 10
4.6246883596
 20
5.0350219899
 40
0.0833935174
100
AcDbArc
 50
78.7497185865
 51
81.2368376257
  0
ARC
  5
332
100
AcDbEntity
  8
0
100
AcDbCircle
 62
7
  6
CONTINUOUS
 10
4.2605919852
 20
6.1016003612
 40
0.6250046311
100
AcDbArc
 50
109.7620669709
 51
218.4291948284
  0
ARC
  5
333
100
AcDbEntity
  8
0
100
AcDbCircle
 62
7
  6
CONTINUOUS
 10
4.2608544696
 20
6.1023937686
 40
0.624165033
100
AcDbArc
 50
70.3244969507
 51
71.2778896301
  0
ARC
  5
334
100
AcDbEntity
  8
0
100
AcDbCircle
 62
7
  6
CONTINUOUS
 10
4.2664950136
 20
6.5581666088
 40
0.4858667958
100
AcDbArc
 50
64.8637008161
 51
66.3266429527
  0
ARC
  5
335
100
AcDbEntity
  8
0
100
AcDbCircle
 62
6
  6
CONTINUOUS
 10
4.2719247432
 20
6.6445925544
 40
0.4779279496
100
AcDbArc
 50
65.5795790603
 51
66.688731811
  0
ARC
  5
336
100
AcDbEntity
  8
0
100
AcDbCircle
 62
7
  6
CONTINUOUS
 10
4.2712981935
 20
6.5202326599
 40
0.4626518496
100
AcDbArc
 50
64.9850570729
 51
65.6501845144
  0
ARC
  5
337
100
AcDbEntity
  8
0
100
AcDbCircle
 62
6
  6
CONTINUOUS
 10
4.2726343538
 20
6.6544298043
 40
0.4397410288
100
AcDbArc
 50
64.1895744747
 51
64.6338391642
  0
ARC
  5
338
100
AcDbEntity
  8
0
100
AcDbCircle
 62
7
  6
CONTINUOUS
 10
4.2890143791
 20
6.5508277817
 40
0.4272428548
100
AcDbArc
 50
53.0080089545
 51
54.6463166151
  0
ARC
  5
339
100
AcDbEntity
  8
0
100
AcDbCircle
 62
7
  6
CONTINUOUS
 10
4.2922645964
 20
6.5551577258
 40
0.4218287768
100
AcDbArc
 50
51.1235797904
 51
53.00674173
  0
ARC
  5
33A
100
AcDbEntity
  8
0
100
AcDbCircle
 62
7
  6
CONTINUOUS
 10
4.3094212611
 20
6.6041355787
 40
0.4217620037
100
AcDbArc
 50
21.9690084656
 51
26.502420106
  0
ARC
  5
33B
100
AcDbEntity
  8
0
100
AcDbCircle
 62
7
  6
CONTINUOUS
 10
4.3117392917
 20
6.6051035599
 40
0.4192501683
100
AcDbArc
 50
20.9309659658
 51
21.9648394855
  0
ARC
  5
33C
100
AcDbEntity
  8
0
100
AcDbCircle
 62
7
  6
CONTINUOUS
 10
4.3128728239
 20
6.6055359961
 40
0.4180369515
100
AcDbArc
 50
19.6003923392
 51
20.9311093035
  0
ARC
  5
33D
100
AcDbEntity
  8
0
100
AcDbCircle
 62
7
  6
CONTINUOUS
 10
4.3160699497
 20
6.6066526216
 40
0.4146505021
100
AcDbArc
 50
14.5591119199
 51
19.603235876
  0
ARC
  5
33E
100
AcDbEntity
  8
0
100
AcDbCircle
 62
6
  6
CONTINUOUS
 10
4.2986534761
 20
7.0071458617
 40
0.4047448051
100
AcDbArc
 50
48.0806518576
 51
50.1308050976
  0
ARC
  5
33F
100
AcDbEntity
  8
0
100
AcDbCircle
 62
6
  6
CONTINUOUS
 10
4.3052600315
 20
7.0497266888
 40
0.3924887421
100
AcDbArc
 50
44.4719524364
 51
46.5748070163
  0
ARC
  5
340
100
AcDbEntity
  8
0
100
AcDbCircle
 62
7
  6
CONTINUOUS
 10
4.3010690993
 20
7.0297128776
 40
0.3882669035
100
AcDbArc
 50
46.0928046454
 51
48.2252583324
  0
ARC
  5
341
100
AcDbEntity
  8
0
100
AcDbCircle
 62
7
  6
CONTINUOUS
 10
4.2838299366
 20
6.6796791378
 40
0.3706663763
100
AcDbArc
 50
59.0615181107
 51
61.2243764658
  0
ARC
  5
342
100
AcDbEntity
  8
0
100
AcDbCircle
 62
9
  6
CONTINUOUS
 10
4.3755377073
 20
5.9438491423
 40
0.4094008314
100
AcDbArc
 50
336.5019581174
 51
345.4553489986
  0
ARC
  5
343
100
AcDbEntity
  8
0
100
AcDbCircle
 62
7
  6
CONTINUOUS
 10
4.3193453158
 20
6.6075898858
 40
0.4112447122
100
AcDbArc
 50
9.6934899989
 51
14.5474352433
  0
ARC
  5
344
100
AcDbEntity
  8
0
100
AcDbCircle
 62
7
  6
CONTINUOUS
 10
4.349655723
 20
6.5986233515
 40
0.3825570838
100
AcDbArc
 50
22.51895629
 51
32.4037306144
  0
ARC
  5
345
100
AcDbEntity
  8
0
100
AcDbCircle
 62
7
  6
CONTINUOUS
 10
4.3642868075
 20
6.6048297697
 40
0.36666461
100
AcDbArc
 50
16.7688769794
 51
22.4986967379
  0
ARC
  5
346
100
AcDbEntity
  8
0
100
AcDbCircle
 62
7
  6
CONTINUOUS
 10
4.3707485706
 20
6.6067959498
 40
0.3599103591
100
AcDbArc
 50
11.7445979211
 51
16.765967466
  0
ARC
  5
347
100
AcDbEntity
  8
0
100
AcDbCircle
 62
6
  6
CONTINUOUS
 10
4.3567959336
 20
6.7306187792
 40
0.354322208
100
AcDbArc
 50
19.327617683
 51
23.6693151574
  0
ARC
  5
348
100
AcDbEntity
  8
0
100
AcDbCircle
 62
6
  6
CONTINUOUS
 10
4.3626785872
 20
6.7326038653
 40
0.3481140971
100
AcDbArc
 50
13.5041446888
 51
19.3397590981
  0
ARC
  5
349
100
AcDbEntity
  8
0
100
AcDbCircle
 62
6
  6
CONTINUOUS
 10
4.369476002
 20
6.7341827883
 40
0.3411359108
100
AcDbArc
 50
7.9915911114
 51
13.5128838546
  0
ARC
  5
34A
100
AcDbEntity
  8
0
100
AcDbCircle
 62
6
  6
CONTINUOUS
 10
4.3722776088
 20
6.734603975
 40
0.3383029564
100
AcDbArc
 50
359.5877863232
 51
7.9869175226
  0
ARC
  5
34B
100
AcDbEntity
  8
0
100
AcDbCircle
 62
6
  6
CONTINUOUS
 10
4.3469877569
 20
6.729701313
 40
0.3318355762
100
AcDbArc
 50
23.6839552854
 51
24.0417781919
  0
ARC
  5
34C
100
AcDbEntity
  8
0
100
AcDbCircle
 62
6
  6
CONTINUOUS
 10
4.3476290388
 20
6.7299825623
 40
0.3311353309
100
AcDbArc
 50
23.1239127644
 51
23.6839615519
  0
ARC
  5
34D
100
AcDbEntity
  8
0
100
AcDbCircle
 62
6
  6
CONTINUOUS
 10
4.3494909537
 20
6.7307653582
 40
0.3291155864
100
AcDbArc
 50
19.2165203815
 51
23.1258815205
  0
ARC
  5
34E
100
AcDbEntity
  8
0
100
AcDbCircle
 62
6
  6
CONTINUOUS
 10
4.3637167418
 20
7.0500673639
 40
0.3255207717
100
AcDbArc
 50
10.0017785315
 51
11.5663850088
  0
ARC
  5
34F
100
AcDbEntity
  8
0
100
AcDbCircle
 62
6
  6
CONTINUOUS
 10
4.3657877103
 20
7.050430457
 40
0.3234182155
100
AcDbArc
 50
7.9882657571
 51
10.0021520274
  0
ARC
  5
350
100
AcDbEntity
  8
0
100
AcDbCircle
 62
6
  6
CONTINUOUS
 10
4.3669691014
 20
7.0506039006
 40
0.3222241846
100
AcDbArc
 50
2.6030403971
 51
7.9869175226
  0
ARC
  5
351
100
AcDbEntity
  8
0
100
AcDbCircle
 62
6
  6
CONTINUOUS
 10
4.3663671204
 20
7.0856043359
 40
0.3204568425
100
AcDbArc
 50
1.9875572807
 51
7.9873417402
  0
ARC
  5
352
100
AcDbEntity
  8
0
100
AcDbCircle
 62
7
  6
CONTINUOUS
 10
4.3517494588
 20
6.7502021652
 40
0.3155127483
100
AcDbArc
 50
20.7720671683
 51
31.0556645624
  0
ARC
  5
353
100
AcDbEntity
  8
0
100
AcDbCircle
 62
7
  6
CONTINUOUS
 10
4.351978017
 20
6.7544858736
 40
0.3153781759
100
AcDbArc
 50
20.132856432
 51
25.184440979
  0
ARC
  5
354
100
AcDbEntity
  8
0
100
AcDbCircle
 62
7
  6
CONTINUOUS
 10
4.3556523744
 20
6.7559048768
 40
0.3114399217
100
AcDbArc
 50
19.6663591684
 51
20.1204217254
  0
ARC
  5
355
100
AcDbEntity
  8
0
100
AcDbCircle
 62
7
  6
CONTINUOUS
 10
4.3557761587
 20
6.7518545267
 40
0.3111617993
100
AcDbArc
 50
19.9442096638
 51
20.7505450991
  0
ARC
  5
356
100
AcDbEntity
  8
0
100
AcDbCircle
 62
7
  6
CONTINUOUS
 10
4.3561778051
 20
6.7560927166
 40
0.3108819242
100
AcDbArc
 50
19.2410454699
 51
19.6663493806
  0
ARC
  5
357
100
AcDbEntity
  8
0
100
AcDbCircle
 62
7
  6
CONTINUOUS
 10
4.3562952553
 20
6.7520434083
 40
0.3106094069
100
AcDbArc
 50
19.4254606068
 51
19.9441198319
  0
ARC
  5
358
100
AcDbEntity
  8
0
100
AcDbCircle
 62
7
  6
CONTINUOUS
 10
4.3567195309
 20
6.7562817199
 40
0.3103081742
100
AcDbArc
 50
18.7657639049
 51
19.2410595588
  0
ARC
  5
359
100
AcDbEntity
  8
0
100
AcDbCircle
 62
7
  6
CONTINUOUS
 10
4.577068284
 20
9.5328119116
 40
1.5
100
AcDbArc
 50
277.3533082147
 51
288.9344959636
  0
ARC
  5
35A
100
AcDbEntity
  8
0
100
AcDbCircle
 62
6
  6
CONTINUOUS
 10
4.2605847647
 20
8.9528119116
 40
1.0538619455
100
AcDbArc
 50
241.1815015455
 51
247.6937949458
  0
ARC
  5
35B
100
AcDbEntity
  8
0
100
AcDbCircle
 62
6
  6
CONTINUOUS
 10
4.2605847647
 20
8.9528119116
 40
1.0538619455
100
AcDbArc
 50
292.3062050542
 51
298.8184984545
  0
ARC
  5
35C
100
AcDbEntity
  8
0
100
AcDbCircle
 62
6
  6
CONTINUOUS
 10
4.5162138318
 20
8.733520203
 40
0.7041784112
100
AcDbArc
 50
256.8482058971
 51
258.7415644828
  0
ARC
  5
35D
100
AcDbEntity
  8
0
100
AcDbCircle
 62
6
  6
CONTINUOUS
 10
4.5146073795
 20
8.7240215596
 40
0.6945477823
100
AcDbArc
 50
258.718554866
 51
283.1974030577
  0
ARC
  5
35E
100
AcDbEntity
  8
0
100
AcDbCircle
 62
7
  6
CONTINUOUS
 10
5.0313500382
 20
8.2085656778
 40
0.1
100
AcDbArc
 50
288.9344959637
 51
346.0636618873
  0
SPLINE
  5
35F
100
AcDbEntity
  8
0
100
AcDbSpline
 62
7
  6
CONTINUOUS
 70
0
 71
3
 72
12
 73
8
 74
6
 42
0.0000001
 43
0.0000001
 44
0.0000000001
 12
0.0785457915
 22
0.1473416764
 32
0.0
 13
0.1348026817
 23
0.098525367
 33
0.0
 40
0.0
 40
0.0
 40
0.0
 40
0.0
 40
0.2447373166
 40
0.492818253
 40
0.618240236
 40
0.7445894132
 40
1.0
 40
1.0
 40
1.0
 40
1.0
 10
3.8930825795
 20
6.8939723662
 30
0.0
 10
3.8994902749
 20
6.9059923684
 30
0.0
 10
3.9138427192
 20
6.9294505665
 30
0.0
 10
3.9350929811
 20
6.9566102637
 30
0.0
 10
3.9540286381
 20
6.9770099777
 30
0.0
 10
3.9743740003
 20
6.9965935027
 30
0.0
 10
3.9908933628
 20
7.010042519
 30
0.0
 10
4.0023700401
 20
7.0184306596
 30
0.0
 11
3.8930825795
 21
6.8939723662
 31
0.0
 11
3.9143832946
 21
6.928845431
 31
0.0
 11
3.9398874551
 21
6.9614847915
 31
0.0
 11
3.9541329704
 21
6.9768347402
 31
0.0
 11
3.9693287814
 21
6.991468641
 31
0.0
 11
4.0023700401
 21
7.0184306596
 31
0.0
  0
SPLINE
  5
360
100
AcDbEntity
  8
0
100
AcDbSpline
 62
7
  6
CONTINUOUS
 70
0
 71
3
 72
15
 73
11
 74
9
 42
0.0000001
 43
0.0000001
 44
0.0000000001
 12
0.1352777687
 22
0.270972724
 32
0.0
 13
0.2743854048
 23
0.1282144356
 33
0.0
 40
0.0
 40
0.0
 40
0.0
 40
0.0
 40
0.1239434258
 40
0.2481338515
 40
0.3726140772
 40
0.4973979345
 40
0.62251611
 40
0.7479921971
 40
0.8738209541
 40
1.0
 40
1.0
 40
1.0
 40
1.0
 10
3.8344063234
 20
6.7925385669
 30
0.0
 10
3.8399952534
 20
6.8037336628
 30
0.0
 10
3.8521889476
 20
6.8256600947
 30
0.0
 10
3.8733074724
 20
6.8568438622
 30
0.0
 10
3.8970805595
 20
6.8861661324
 30
0.0
 10
3.9233292774
 20
6.9134228251
 30
0.0
 10
3.9518453098
 20
6.9384477082
 30
0.0
 10
3.9824046467
 20
6.961108422
 30
0.0
 10
4.0147940089
 20
6.9812634866
 30
0.0
 10
4.0374298676
 20
6.9929462758
 30
0.0
 10
4.0489704304
 20
6.9983389342
 30
0.0
 11
3.8344063234
 21
6.7925385669
 31
0.0
 11
3.852643306
 21
6.8253487675
 31
0.0
 11
3.873724003
 21
6.8564987728
 31
0.0
 11
3.897462491
 21
6.8857872183
 31
0.0
 11
3.9236705962
 21
6.9130159958
 31
0.0
 11
3.9521440466
 21
6.9380199388
 31
0.0
 11
3.9826654462
 21
6.9606607358
 31
0.0
 11
4.0150164392
 21
6.9808028377
 31
0.0
 11
4.0489704304
 21
6.9983389342
 31
0.0
  0
SPLINE
  5
361
100
AcDbEntity
  8
0
100
AcDbSpline
 62
7
  6
CONTINUOUS
 70
0
 71
3
 72
14
 73
10
 74
8
 42
0.0000001
 43
0.0000001
 44
0.0000000001
 12
0.2736484761
 22
-0.1284007056
 32
0.0
 13
0.1348802431
 23
-0.2705134926
 33
0.0
 40
0.0
 40
0.0
 40
0.0
 40
0.0
 40
0.2518569181
 40
0.3773550544
 40
0.5024972683
 40
0.6273032698
 40
0.7518089997
 40
0.8760286349
 40
1.0
 40
1.0
 40
1.0
 40
1.0
 10
4.4728781353
 20
6.9980217559
 30
0.0
 10
4.4958515559
 20
6.9872422205
 30
0.0
 10
4.5290880888
 20
6.9683377179
 30
0.0
 10
4.5697491213
 20
6.9381028556
 30
0.0
 10
4.5981879802
 20
6.9130864295
 30
0.0
 10
4.6243644501
 20
6.885853725
 30
0.0
 10
4.6480702896
 20
6.8565611005
 30
0.0
 10
4.6691278915
 20
6.8254147348
 30
0.0
 10
4.6812888588
 20
6.8035194476
 30
0.0
 10
4.6868626215
 20
6.7923408052
 30
0.0
 11
4.4728781353
 21
6.9980217559
 31
0.0
 11
4.5390139518
 21
6.9603144396
 31
0.0
 11
4.5694529781
 21
6.9376753827
 31
0.0
 11
4.5978474724
 21
6.9126821255
 31
0.0
 11
4.623982982
 21
6.8854761152
 31
0.0
 11
4.6476544508
 21
6.8562177261
 31
0.0
 11
4.6686754917
 21
6.8251049347
 31
0.0
 11
4.6868626215
 21
6.7923408052
 31
0.0
  0
SPLINE
  5
362
100
AcDbEntity
  8
0
100
AcDbSpline
 62
7
  6
CONTINUOUS
 70
0
 71
3
 72
37
 73
33
 74
31
 42
0.0000001
 43
0.0000001
 44
0.0000000001
 12
0.0
 22
0.5566948465
 32
0.0
 13
0.0
 23
-0.5566948465
 33
0.0
 40
0.0
 40
0.0
 40
0.0
 40
0.0
 40
0.0203072579
 40
0.0412308491
 40
0.0632380789
 40
0.0867119182
 40
0.1119284305
 40
0.1390598207
 40
0.1681834951
 40
0.1992724299
 40
0.2322453827
 40
0.2669726663
 40
0.3032676208
 40
0.3409199104
 40
0.3796931621
 40
0.4193204497
 40
0.500000149
 40
0.5806798472
 40
0.6203071259
 40
0.6590803708
 40
0.6967326559
 40
0.7330275945
 40
0.7677548656
 40
0.8007278081
 40
0.8318167206
 40
0.8609403858
 40
0.8880717777
 40
0.913288273
 40
0.9367620766
 40
0.9587692398
 40
0.9796927669
 40
1.0
 40
1.0
 40
1.0
 40
1.0
 10
4.0306391189
 20
7.7710139094
 30
0.0
 10
4.0306391189
 20
7.7747822247
 30
0.0
 10
4.031411321
 20
7.782452595
 30
0.0
 10
4.0348085431
 20
7.7937506528
 30
0.0
 10
4.0403981344
 20
7.8047981582
 30
0.0
 10
4.0481186984
 20
7.8154626949
 30
0.0
 10
4.0578602555
 20
7.8256658013
 30
0.0
 10
4.0695306368
 20
7.8353235305
 30
0.0
 10
4.083022017
 20
7.8443490334
 30
0.0
 10
4.0981999499
 20
7.8526748463
 30
0.0
 10
4.1149267879
 20
7.8602169643
 30
0.0
 10
4.1330460817
 20
7.8668988527
 30
0.0
 10
4.1523817527
 20
7.872670035
 30
0.0
 10
4.1727525247
 20
7.8774680607
 30
0.0
 10
4.1939648687
 20
7.881244538
 30
0.0
 10
4.2232680898
 20
7.8849040745
 30
0.0
 10
4.2605848493
 20
7.8867090774
 30
0.0
 10
4.2979016069
 20
7.8849040647
 30
0.0
 10
4.3272048232
 20
7.8812445131
 30
0.0
 10
4.3484171609
 20
7.8774680233
 30
0.0
 10
4.3687879282
 20
7.8726699994
 30
0.0
 10
4.388123589
 20
7.8668988032
 30
0.0
 10
4.4062428716
 20
7.8602169066
 30
0.0
 10
4.4229697037
 20
7.8526747955
 30
0.0
 10
4.4381476214
 20
7.8443489701
 30
0.0
 10
4.4516389872
 20
7.8353234562
 30
0.0
 10
4.463309358
 20
7.8256657205
 30
0.0
 10
4.4730508871
 20
7.8154626006
 30
0.0
 10
4.4807714359
 20
7.8047980826
 30
0.0
 10
4.4863610289
 20
7.7937506118
 30
0.0
 10
4.4897582225
 20
7.7824525739
 30
0.0
 10
4.4905304104
 20
7.7747822201
 30
0.0
 10
4.4905304104
 20
7.7710139094
 30
0.0
 11
4.0306391189
 21
7.7710139094
 31
0.0
 11
4.0317497665
 21
7.7822641655
 31
0.0
 11
4.0350608855
 21
7.7934316936
 31
0.0
 11
4.0405412307
 21
7.8043889035
 31
0.0
 11
4.0481465125
 21
7.8150155766
 31
0.0
 11
4.0577935847
 21
7.825213454
 31
0.0
 11
4.0693920399
 21
7.834888359
 31
0.0
 11
4.0828370103
 21
7.8439489396
 31
0.0
 11
4.0979902453
 21
7.8523103655
 31
0.0
 11
4.1147086543
 21
7.8598888131
 31
0.0
 11
4.132835613
 21
7.8666088517
 31
0.0
 11
4.1521900711
 21
7.8724101988
 31
0.0
 11
4.172588204
 21
7.8772343884
 31
0.0
 11
4.1938360385
 21
7.8810338768
 31
0.0
 11
4.2157251764
 21
7.8837766455
 31
0.0
 11
4.2605848495
 21
7.8859845145
 31
0.0
 11
4.3054445212
 21
7.8837766309
 31
0.0
 11
4.3273336527
 21
7.8810338516
 31
0.0
 11
4.3485814817
 21
7.8772343533
 31
0.0
 11
4.368979611
 21
7.8724101597
 31
0.0
 11
4.388334057
 21
7.866608803
 31
0.0
 11
4.4064610058
 21
7.8598887578
 31
0.0
 11
4.4231794086
 21
7.8523103103
 31
0.0
 11
4.4383326256
 21
7.8439488775
 31
0.0
 11
4.4517775827
 21
7.8348882863
 31
0.0
 11
4.4633760284
 21
7.8252133685
 31
0.0
 11
4.4730230782
 21
7.8150154829
 31
0.0
 11
4.4806283464
 21
7.8043888245
 31
0.0
 11
4.4861086812
 21
7.793431651
 31
0.0
 11
4.4894197763
 21
7.7822641529
 31
0.0
 11
4.4905304104
 21
7.7710139094
 31
0.0
  0
SPLINE
  5
363
100
AcDbEntity
  8
0
100
AcDbSpline
 62
7
  6
CONTINUOUS
 70
0
 71
3
 72
12
 73
8
 74
6
 42
0.0000001
 43
0.0000001
 44
0.0000000001
 12
0.0
 22
-0.0640606971
 32
0.0
 13
-0.0473934384
 23
-0.0431002889
 33
0.0
 40
0.0
 40
0.0
 40
0.0
 40
0.0
 40
0.1126852962
 40
0.2269067118
 40
0.4641044297
 40
0.7199221058
 40
1.0
 40
1.0
 40
1.0
 40
1.0
 10
4.4905304104
 20
7.7710139094
 30
0.0
 10
4.4905304104
 20
7.7686076765
 30
0.0
 10
4.4902200913
 20
7.7637567096
 30
0.0
 10
4.4883610367
 20
7.7540012007
 30
0.0
 10
4.4836197436
 20
7.7417970354
 30
0.0
 10
4.4744485974
 20
7.7279520405
 30
0.0
 10
4.4665002511
 20
7.7196388567
 30
0.0
 10
4.462075633
 20
7.715615044
 30
0.0
 11
4.4905304104
 21
7.7710139094
 31
0.0
 11
4.4900745622
 21
7.7638096181
 31
0.0
 11
4.4887124792
 21
7.7566204086
 31
0.0
 11
4.4833023791
 21
7.7424210989
 31
0.0
 11
4.4743738287
 21
7.7286790867
 31
0.0
 11
4.462075633
 21
7.715615044
 31
0.0
  0
SPLINE
  5
364
100
AcDbEntity
  8
0
100
AcDbSpline
 62
7
  6
CONTINUOUS
 70
0
 71
3
 72
22
 73
18
 74
16
 42
0.0000001
 43
0.0000001
 44
0.0000000001
 12
-0.2420935637
 22
0.0
 32
0.0
 13
0.0
 23
-0.2420935637
 33
0.0
 40
0.0
 40
0.0
 40
0.0
 40
0.0
 40
0.1610331782
 40
0.2404460633
 40
0.3181604418
 40
0.3935351087
 40
0.4661249826
 40
0.535549677
 40
0.6014658573
 40
0.6636061104
 40
0.7218406432
 40
0.7761394897
 40
0.826597716
 40
0.8735164784
 40
0.9174896902
 40
0.9593196869
 40
1.0
 40
1.0
 40
1.0
 40
1.0
 10
4.2605847647
 20
7.8710139094
 30
0.0
 10
4.2475897327
 20
7.8710139094
 30
0.0
 10
4.2281679505
 20
7.8700553926
 30
0.0
 10
4.2026818826
 20
7.8668875372
 30
0.0
 10
4.1841982425
 20
7.8636088554
 30
0.0
 10
4.1664620467
 20
7.8594310337
 30
0.0
 10
4.149642148
 20
7.8544087347
 30
0.0
 10
4.1338886551
 20
7.8485957255
 30
0.0
 10
4.119345553
 20
7.8420436097
 30
0.0
 10
4.1061532067
 20
7.834799028
 30
0.0
 10
4.0944259907
 20
7.8269411803
 30
0.0
 10
4.0842688953
 20
7.8185445948
 30
0.0
 10
4.0757841711
 20
7.8096771297
 30
0.0
 10
4.0690809274
 20
7.8003972558
 30
0.0
 10
4.0642202694
 20
7.7907971634
 30
0.0
 10
4.0612575473
 20
7.7809722604
 30
0.0
 10
4.0605847647
 20
7.7742967234
 30
0.0
 10
4.0605847647
 20
7.7710139094
 30
0.0
 11
4.2605847647
 21
7.8710139094
 31
0.0
 11
4.2216473616
 21
7.8690861261
 31
0.0
 11
4.2025701302
 21
7.8667042651
 31
0.0
 11
4.1840480782
 21
7.8634018626
 31
0.0
 11
4.1662899606
 21
7.859203219
 31
0.0
 11
4.1494569547
 21
7.8541555202
 31
0.0
 11
4.133698343
 21
7.8483116738
 31
0.0
 11
4.1191634084
 21
7.8417245875
 31
0.0
 11
4.1059946018
 21
7.8344515479
 31
0.0
 11
4.0943070467
 21
7.8265673576
 31
0.0
 11
4.0842090349
 21
7.8181511986
 31
0.0
 11
4.0758088582
 21
7.8092822526
 31
0.0
 11
4.069202815
 21
7.8000420714
 31
0.0
 11
4.0644392305
 21
7.7905216862
 31
0.0
 11
4.0615544364
 21
7.7808144984
 31
0.0
 11
4.0605847647
 21
7.7710139094
 31
0.0
  0
SPLINE
  5
365
100
AcDbEntity
  8
0
100
AcDbSpline
 62
7
  6
CONTINUOUS
 70
0
 71
3
 72
18
 73
14
 74
12
 42
0.0000001
 43
0.0000001
 44
0.0000000001
 12
0.0
 22
-0.2275727041
 32
0.0
 13
0.2227121838
 23
-0.0467826768
 33
0.0
 40
0.0
 40
0.0
 40
0.0
 40
0.0
 40
0.1009901494
 40
0.206481345
 40
0.3181766532
 40
0.4375200802
 40
0.5655050629
 40
0.6328723602
 40
0.7024429087
 40
0.7741203901
 40
0.8478101234
 40
0.9232442209
 40
1.0
 40
1.0
 40
1.0
 40
1.0
 10
4.0605833056
 20
6.5615127873
 30
0.0
 10
4.0605833056
 20
6.5538519201
 30
0.0
 10
4.0622306147
 20
6.5381479661
 30
0.0
 10
4.0694877963
 20
6.5149779418
 30
0.0
 10
4.0816302567
 20
6.4923565657
 30
0.0
 10
4.0986242865
 20
6.4709077158
 30
0.0
 10
4.1164213525
 20
6.4548297731
 30
0.0
 10
4.1328086073
 20
6.4431698855
 30
0.0
 10
4.1463887391
 20
6.4350129611
 30
0.0
 10
4.1609755546
 20
6.4276941919
 30
0.0
 10
4.1764857366
 20
6.4213291469
 30
0.0
 10
4.1927878463
 20
6.4160063457
 30
0.0
 10
4.2040043474
 20
6.4132227994
 30
0.0
 10
4.2097024965
 20
6.4120258524
 30
0.0
 11
4.0605833056
 21
6.5615127873
 31
0.0
 11
4.0629272556
 21
6.5386500257
 31
0.0
 11
4.0700263678
 21
6.5157167605
 31
0.0
 11
4.0819619323
 21
6.4932744375
 31
0.0
 11
4.0987461543
 21
6.4719222054
 31
0.0
 11
4.1202941711
 21
6.4523262784
 31
0.0
 11
4.1327796942
 21
6.4434296505
 31
0.0
 11
4.1463464612
 21
6.4352683768
 31
0.0
 11
4.1609230964
 21
6.4279473269
 31
0.0
 11
4.1764333625
 21
6.4215710509
 31
0.0
 11
4.192749628
 21
6.4162347135
 31
0.0
 11
4.2097024965
 21
6.4120258524
 31
0.0
  0
SPLINE
  5
366
100
AcDbEntity
  8
0
100
AcDbSpline
 62
7
  6
CONTINUOUS
 70
0
 71
3
 72
18
 73
14
 74
12
 42
0.0000001
 43
0.0000001
 44
0.0000000001
 12
0.2227122217
 22
0.046782687
 32
0.0
 13
0.0
 23
0.2275727433
 33
0.0
 40
0.0
 40
0.0
 40
0.0
 40
0.0
 40
0.0767558738
 40
0.1521902142
 40
0.2258802379
 40
0.297557715
 40
0.3671281207
 40
0.4344953287
 40
0.5624802358
 40
0.681823691
 40
0.7935188084
 40
0.8990098607
 40
1.0
 40
1.0
 40
1.0
 40
1.0
 10
4.3114670283
 20
6.4120258527
 30
0.0
 10
4.3171651854
 20
6.4132228014
 30
0.0
 10
4.3283817114
 20
6.4160063645
 30
0.0
 10
4.3446838626
 20
6.4213291985
 30
0.0
 10
4.3601940953
 20
6.4276942326
 30
0.0
 10
4.3747809228
 20
6.4350130107
 30
0.0
 10
4.3883610286
 20
6.4431699487
 30
0.0
 10
4.4047482557
 20
6.4548298415
 30
0.0
 10
4.4225452942
 20
6.4709078013
 30
0.0
 10
4.4395393577
 20
6.4923566023
 30
0.0
 10
4.4516818517
 20
6.5149779446
 30
0.0
 10
4.4589389641
 20
6.5381479737
 30
0.0
 10
4.4605862231
 20
6.5538519198
 30
0.0
 10
4.4605862231
 20
6.5615127875
 30
0.0
 11
4.3114670283
 21
6.4120258527
 31
0.0
 11
4.3284199181
 21
6.41623473
 31
0.0
 11
4.344736236
 21
6.4215710944
 31
0.0
 11
4.3602465718
 21
6.4279473821
 31
0.0
 11
4.3748232078
 21
6.4352684346
 31
0.0
 11
4.388389939
 21
6.4434297101
 31
0.0
 11
4.4008754377
 21
6.4523263417
 31
0.0
 11
4.4224234331
 21
6.4719222742
 31
0.0
 11
4.4392076932
 21
6.4932744905
 31
0.0
 11
4.4511432621
 21
6.5157167669
 31
0.0
 11
4.4582423185
 21
6.5386500196
 31
0.0
 11
4.4605862231
 21
6.5615127875
 31
0.0
  0
SPLINE
  5
367
100
AcDbEntity
  8
0
100
AcDbSpline
 62
9
  6
CONTINUOUS
 70
0
 71
3
 72
26
 73
22
 74
20
 42
0.0000001
 43
0.0000001
 44
0.0000000001
 12
-0.4557092903
 22
0.8355746292
 32
0.0
 13
0.9485993073
 23
0.0775581866
 33
0.0
 40
0.0
 40
0.0
 40
0.0
 40
0.0
 40
0.0302767818
 40
0.0603502776
 40
0.1199711672
 40
0.14961664
 40
0.1791854776
 40
0.2381837433
 40
0.2972616281
 40
0.3566993648
 40
0.4167572378
 40
0.4776463187
 40
0.539521266
 40
0.6024571223
 40
0.6343470212
 40
0.6665073733
 40
0.7315857364
 40
0.7976391155
 40
0.8645436592
 40
0.9321141481
 40
1.0
 40
1.0
 40
1.0
 40
1.0
 10
3.7711574826
 20
5.7451727681
 30
0.0
 10
3.7665583457
 20
5.753605605
 30
0.0
 10
3.7579333712
 20
5.7707189989
 30
0.0
 10
3.7430859481
 20
5.8057860994
 30
0.0
 10
3.7318449236
 20
5.8420848447
 30
0.0
 10
3.7244381074
 20
5.879075714
 30
0.0
 10
3.719616267
 20
5.9162938783
 30
0.0
 10
3.7184102726
 20
5.9632821777
 30
0.0
 10
3.7248085687
 20
6.0194120832
 30
0.0
 10
3.7389140691
 20
6.0744643708
 30
0.0
 10
3.7605410427
 20
6.1276318499
 30
0.0
 10
3.7893298581
 20
6.1781727898
 30
0.0
 10
3.8248860298
 20
6.2253387981
 30
0.0
 10
3.8595648655
 20
6.2611451267
 30
0.0
 10
3.8900939523
 20
6.2874628539
 30
0.0
 10
3.9226549179
 20
6.3123572858
 30
0.0
 10
3.9664874032
 20
6.3401995383
 30
0.0
 10
4.0230675484
 20
6.3677959668
 30
0.0
 10
4.0830523208
 20
6.3893647558
 30
0.0
 10
4.1455533799
 20
6.4045261954
 30
0.0
 10
4.1882343967
 20
6.4102707232
 30
0.0
 10
4.2096998874
 20
6.4120257577
 30
0.0
 11
3.7711574826
 21
5.7451727681
 31
0.0
 11
3.7581953012
 21
5.7709092217
 31
0.0
 11
3.7470407937
 21
5.7972691681
 31
0.0
 11
3.7302903213
 21
5.8514856126
 31
0.0
 11
3.7247530094
 21
5.8791524397
 31
0.0
 11
3.7211387122
 21
5.90706196
 31
0.0
 11
3.7197142628
 21
5.9631963524
 31
0.0
 11
3.726060325
 21
6.0190653297
 31
0.0
 11
3.7400743887
 21
6.0738727577
 31
0.0
 11
3.7615619858
 21
6.1268412244
 31
0.0
 11
3.790201476
 21
6.177221999
 31
0.0
 11
3.8255980711
 21
6.2242874713
 31
0.0
 11
3.8672336216
 21
6.2673514421
 31
0.0
 11
3.8902154363
 21
6.2871771967
 31
0.0
 11
3.9145274045
 21
6.3057740871
 31
0.0
 11
3.9667836475
 21
6.3390270572
 31
0.0
 11
4.0232649952
 21
6.3666341399
 31
0.0
 11
4.083176855
 21
6.3882067522
 31
0.0
 11
4.1456660092
 21
6.4034066291
 31
0.0
 11
4.2096998874
 21
6.4120257577
 31
0.0
  0
SPLINE
  5
368
100
AcDbEntity
  8
0
100
AcDbSpline
 62
9
  6
CONTINUOUS
 70
0
 71
3
 72
27
 73
23
 74
21
 42
0.0000001
 43
0.0000001
 44
0.0000000001
 12
0.939800045
 22
-0.0768540761
 32
0.0
 13
-0.4347860349
 23
-0.8367148723
 33
0.0
 40
0.0
 40
0.0
 40
0.0
 40
0.0
 40
0.0678609222
 40
0.1353917791
 40
0.2022609308
 40
0.2682936617
 40
0.3333691272
 40
0.3655344771
 40
0.3974344596
 40
0.4604030296
 40
0.4915015072
 40
0.5223414591
 40
0.5832751207
 40
0.6134394742
 40
0.6434242138
 40
0.7029260477
 40
0.7620403364
 40
0.8210312672
 40
0.8505841436
 40
0.8802105433
 40
0.9397764986
 40
1.0
 40
1.0
 40
1.0
 40
1.0
 10
4.311469642
 20
6.4120257577
 30
0.0
 10
4.3327282079
 20
6.4102872949
 30
0.0
 10
4.3749947513
 20
6.4046226879
 30
0.0
 10
4.4369053336
 20
6.389701292
 30
0.0
 10
4.4963617726
 20
6.3685086927
 30
0.0
 10
4.5525031866
 20
6.3413930116
 30
0.0
 10
4.5960585879
 20
6.314030264
 30
0.0
 10
4.628466606
 20
6.2895562461
 30
0.0
 10
4.6588856613
 20
6.2636651242
 30
0.0
 10
4.6867383377
 20
6.2353671999
 30
0.0
 10
4.7116105996
 20
6.2049637103
 30
0.0
 10
4.7341716867
 20
6.1735946148
 30
0.0
 10
4.7535877656
 20
6.140404952
 30
0.0
 10
4.7694925382
 20
6.1058044575
 30
0.0
 10
4.7829102573
 20
6.0706465155
 30
0.0
 10
4.7951781409
 20
6.0254195657
 30
0.0
 10
4.8023632027
 20
5.9698920563
 30
0.0
 10
4.8019864749
 20
5.923323987
 30
0.0
 10
4.7978658624
 20
5.8863858473
 30
0.0
 10
4.7911997656
 20
5.8496365151
 30
0.0
 10
4.7781333637
 20
5.8043735759
 30
0.0
 10
4.7629087815
 20
5.7698003465
 30
0.0
 10
4.754180669
 20
5.7530037134
 30
0.0
 11
4.311469642
 21
6.4120257577
 31
0.0
 11
4.3748907561
 21
6.4035226891
 31
0.0
 11
4.4367871449
 21
6.3885679785
 31
0.0
 11
4.4961703028
 21
6.3673695435
 31
0.0
 11
4.5522155335
 21
6.3402433984
 31
0.0
 11
4.6041491779
 21
6.3075600453
 31
0.0
 11
4.6283475666
 21
6.289275045
 31
0.0
 11
4.6512493138
 21
6.2697738336
 31
0.0
 11
4.6928584831
 21
6.2274168219
 31
0.0
 11
4.7114198749
 21
6.2047151343
 31
0.0
 11
4.7283933293
 21
6.1811025027
 31
0.0
 11
4.7573510429
 21
6.1314767636
 31
0.0
 11
4.7692254766
 21
6.1056309254
 31
0.0
 11
4.7793029538
 21
6.0792141095
 31
0.0
 11
4.7939534959
 21
6.0250541565
 31
0.0
 11
4.8010957258
 21
5.9697725599
 31
0.0
 11
4.8006411816
 21
5.9141496705
 31
0.0
 11
4.7975545563
 21
5.8864546344
 31
0.0
 11
4.7925723707
 21
5.8589666594
 31
0.0
 11
4.7770166128
 21
5.8049968009
 31
0.0
 11
4.754180669
 21
5.7530037134
 31
0.0
  0
SPLINE
  5
369
100
AcDbEntity
  8
0
100
AcDbSpline
 62
7
  6
CONTINUOUS
 70
0
 71
3
 72
25
 73
21
 74
19
 42
0.0000001
 43
0.0000001
 44
0.0000000001
 12
-0.1023373558
 22
-0.0214979498
 32
0.0
 13
-0.1023373558
 23
0.0214979498
 33
0.0
 40
0.0
 40
0.0
 40
0.0
 40
0.0
 40
0.0616677363
 40
0.1237613547
 40
0.1861421295
 40
0.2487176119
 40
0.2800749351
 40
0.3114841159
 40
0.374368277
 40
0.4370689417
 40
0.4999767572
 40
0.5629446225
 40
0.6256744019
 40
0.6885195289
 40
0.7199176227
 40
0.7512723942
 40
0.8138549693
 40
0.8762413348
 40
0.9383338912
 40
1.0
 40
1.0
 40
1.0
 40
1.0
 10
4.3114851022
 20
6.4120251307
 30
0.0
 10
4.3093814645
 20
6.4115832207
 30
0.0
 10
4.3051696617
 20
6.4106485489
 30
0.0
 10
4.2988567248
 20
6.409149715
 30
0.0
 10
4.2925194317
 20
6.4076172716
 30
0.0
 10
4.2872315998
 20
6.4063022007
 30
0.0
 10
4.2830115601
 20
6.4051704667
 30
0.0
 10
4.2788006364
 20
6.4039642838
 30
0.0
 10
4.2735768739
 20
6.4023383269
 30
0.0
 10
4.2671714756
 20
6.4008020719
 30
0.0
 10
4.2605865983
 20
6.4003138449
 30
0.0
 10
4.254005767
 20
6.4008363564
 30
0.0
 10
4.2475949025
 20
6.4023507266
 30
0.0
 10
4.2423662001
 20
6.4039594834
 30
0.0
 10
4.2381569
 20
6.4051643053
 30
0.0
 10
4.2339373355
 20
6.4062969685
 30
0.0
 10
4.2286503524
 20
6.4076168284
 30
0.0
 10
4.2223131041
 20
6.4091512412
 30
0.0
 10
4.2159998606
 20
6.4106492331
 30
0.0
 10
4.2117880093
 20
6.4115832324
 30
0.0
 10
4.2096844272
 20
6.4120251307
 30
0.0
 11
4.3114851022
 21
6.4120251307
 31
0.0
 11
4.3051877516
 21
6.410636405
 31
0.0
 11
4.2988675284
 21
6.409147672
 31
0.0
 11
4.2925276439
 21
6.4076120053
 31
0.0
 11
4.2861822169
 21
6.4060138769
 31
0.0
 11
4.2830157383
 21
6.4051620004
 31
0.0
 11
4.2798579593
 21
6.4042585044
 31
0.0
 11
4.2735484566
 21
6.4024059078
 31
0.0
 11
4.2671491984
 21
6.4009778181
 31
0.0
 11
4.2605895391
 21
6.4004824943
 31
0.0
 11
4.2540255295
 21
6.4010029849
 31
0.0
 11
4.2476205283
 21
6.4024192613
 31
0.0
 11
4.2413101427
 21
6.4042542834
 31
0.0
 11
4.2381530586
 21
6.405155992
 31
0.0
 11
4.2349870385
 21
6.4060085452
 31
0.0
 11
4.2286419253
 21
6.4076109507
 31
0.0
 11
4.2223019674
 21
6.4091487963
 31
0.0
 11
4.2159817507
 21
6.4106370726
 31
0.0
 11
4.2096844272
 21
6.4120251307
 31
0.0
  0
SPLINE
  5
36A
100
AcDbEntity
  8
0
100
AcDbSpline
 62
9
  6
CONTINUOUS
 70
0
 71
3
 72
21
 73
17
 74
15
 42
0.0000001
 43
0.0000001
 44
0.0000000001
 12
-0.2420768828
 22
-0.0000000013
 32
0.0
 13
-0.0
 23
-0.2420768828
 33
0.0
 40
0.0
 40
0.0
 40
0.0
 40
0.0
 40
0.0808993512
 40
0.1613731637
 40
0.3182058701
 40
0.4660228816
 40
0.535478655
 40
0.6014428725
 40
0.6636248611
 40
0.7218752119
 40
0.776152719
 40
0.8265875943
 40
0.8735306715
 40
0.9175373863
 40
0.9593803217
 40
1.0
 40
1.0
 40
1.0
 40
1.0
 10
4.2605847647
 20
7.0742705379
 30
0.0
 10
4.2540568104
 20
7.0742705379
 30
0.0
 10
4.2410326831
 20
7.0739488952
 30
0.0
 10
4.2154176541
 20
7.0720584125
 30
0.0
 10
4.1846253985
 20
7.0674601748
 30
0.0
 10
4.1553540255
 20
7.0597719275
 30
0.0
 10
4.1338979263
 20
7.0518543248
 30
0.0
 10
4.1193463275
 20
7.0452996568
 30
0.0
 10
4.1061444395
 20
7.0380572148
 30
0.0
 10
4.0944121176
 20
7.0302033335
 30
0.0
 10
4.0842592539
 20
7.0218055386
 30
0.0
 10
4.0757875469
 20
7.0129299515
 30
0.0
 10
4.0690736413
 20
7.0036560644
 30
0.0
 10
4.0642087003
 20
6.9940514287
 30
0.0
 10
4.0612553865
 20
6.9842254953
 30
0.0
 10
4.0605847647
 20
6.9775545607
 30
0.0
 10
4.0605847647
 20
6.9742768657
 30
0.0
 11
4.2605847647
 21
7.0742705379
 31
0.0
 11
4.2410068492
 21
7.0737879344
 31
0.0
 11
4.2215792619
 21
7.0723483663
 31
0.0
 11
4.184042664
 21
7.0666572746
 31
0.0
 11
4.1494732096
 21
7.0574170506
 31
0.0
 11
4.1337086737
 21
7.0515708724
 31
0.0
 11
4.1191633539
 21
7.0449811942
 31
0.0
 11
4.1059839218
 21
7.0377086417
 31
0.0
 11
4.0942916158
 21
7.0298263852
 31
0.0
 11
4.0842010445
 21
7.0214107833
 31
0.0
 11
4.075811252
 21
7.0125409508
 31
0.0
 11
4.0691971203
 21
7.0033002809
 31
0.0
 11
4.0644290792
 21
6.993773877
 31
0.0
 11
4.0615499604
 21
6.9840624653
 31
0.0
 11
4.0605847647
 21
6.9742768657
 31
0.0
  0
SPLINE
  5
36B
100
AcDbEntity
  8
0
100
AcDbSpline
 62
9
  6
CONTINUOUS
 70
0
 71
3
 72
21
 73
17
 74
15
 42
0.0000001
 43
0.0000001
 44
0.0000000001
 12
0.0000000002
 22
0.2420713624
 32
0.0
 13
-0.2420713624
 23
0.0000000003
 33
0.0
 40
0.0
 40
0.0
 40
0.0
 40
0.0
 40
0.040608866
 40
0.0824447809
 40
0.126448781
 40
0.1733925883
 40
0.2238295151
 40
0.2781087775
 40
0.33636045
 40
0.3985437214
 40
0.4645094205
 40
0.5339668303
 40
0.681787158
 40
0.8386232297
 40
0.91909882
 40
1.0
 40
1.0
 40
1.0
 40
1.0
 10
4.4605847647
 20
6.9742824961
 30
0.0
 10
4.4605847647
 20
6.977559244
 30
0.0
 10
4.4599140403
 20
6.9842285853
 30
0.0
 10
4.456960585
 20
6.9940524913
 30
0.0
 10
4.4520956244
 20
7.0036559972
 30
0.0
 10
4.4453818472
 20
7.0129296339
 30
0.0
 10
4.4369102725
 20
7.0218054643
 30
0.0
 10
4.426757417
 20
7.0302034619
 30
0.0
 10
4.4150250381
 20
7.0380573202
 30
0.0
 10
4.4018231204
 20
7.0452996775
 30
0.0
 10
4.3872715215
 20
7.0518543209
 30
0.0
 10
4.3658154312
 20
7.0597719406
 30
0.0
 10
4.3365440783
 20
7.0674602026
 30
0.0
 10
4.3057518448
 20
7.0720584128
 30
0.0
 10
4.2801368391
 20
7.0739488954
 30
0.0
 10
4.2671127176
 20
7.0742705379
 30
0.0
 10
4.2605847647
 20
7.0742705379
 30
0.0
 11
4.4605847647
 21
6.9742824961
 31
0.0
 11
4.459619559
 21
6.9840652394
 31
0.0
 11
4.456740424
 21
6.9937746328
 31
0.0
 11
4.4519723788
 21
7.003300028
 31
0.0
 11
4.4453582377
 21
7.0125405899
 31
0.0
 11
4.4369684356
 21
7.0214107137
 31
0.0
 11
4.4268778617
 21
7.0298265081
 31
0.0
 11
4.4151855466
 21
7.0377087483
 31
0.0
 11
4.4020061086
 21
7.0449812222
 31
0.0
 11
4.387460782
 21
7.051570872
 31
0.0
 11
4.3716962366
 21
7.0574170614
 31
0.0
 11
4.3371267991
 21
7.066657297
 31
0.0
 11
4.2995902498
 21
7.0723483679
 31
0.0
 11
4.2801626763
 21
7.0737879343
 31
0.0
 11
4.2605847647
 21
7.0742705379
 31
0.0
  0
SPLINE
  5
36C
100
AcDbEntity
  8
0
100
AcDbSpline
 62
7
  6
CONTINUOUS
 70
0
 71
3
 72
15
 73
11
 74
9
 42
0.0000001
 43
0.0000001
 44
0.0000000001
 12
-0.0165617142
 22
0.1262622501
 32
0.0
 13
-0.1221910808
 23
-0.0358578575
 33
0.0
 40
0.0
 40
0.0
 40
0.0
 40
0.0
 40
0.1147553626
 40
0.2320392201
 40
0.352936082
 40
0.4782553513
 40
0.6069520699
 40
0.7375945808
 40
0.8693021762
 40
1.0
 40
1.0
 40
1.0
 40
1.0
 10
4.5570874149
 20
6.2507453303
 30
0.0
 10
4.5564538998
 20
6.255575087
 30
0.0
 10
4.5540628942
 20
6.2652319632
 30
0.0
 10
4.5470584367
 20
6.278656146
 30
0.0
 10
4.5364813901
 20
6.2901136755
 30
0.0
 10
4.5232656596
 20
6.2991806138
 30
0.0
 10
4.5081346138
 20
6.305594247
 30
0.0
 10
4.4917384122
 20
6.308899474
 30
0.0
 10
4.4749459239
 20
6.3086277871
 30
0.0
 10
4.4639628351
 20
6.3064153706
 30
0.0
 10
4.4586394657
 20
6.3048531893
 30
0.0
 11
4.5570874149
 21
6.2507453303
 31
0.0
 11
4.5535474206
 21
6.2649234637
 31
0.0
 11
4.5465958428
 21
6.2781424252
 31
0.0
 11
4.5362448524
 21
6.2895388021
 31
0.0
 11
4.5231320816
 21
6.2986345824
 31
0.0
 11
4.5080455706
 21
6.3050367442
 31
0.0
 11
4.4917313656
 21
6.3082956325
 31
0.0
 11
4.4749601867
 21
6.3081154153
 31
0.0
 11
4.4586394657
 21
6.3048531893
 31
0.0
  0
SPLINE
  5
36D
100
AcDbEntity
  8
0
100
AcDbSpline
 62
7
  6
CONTINUOUS
 70
0
 71
3
 72
15
 73
11
 74
9
 42
0.0000001
 43
0.0000001
 44
0.0000000001
 12
-0.0520862218
 22
0.1182451522
 32
0.0
 13
-0.1124962736
 23
-0.0635568954
 33
0.0
 40
0.0
 40
0.0
 40
0.0
 40
0.0
 40
0.1159559117
 40
0.2355290169
 40
0.3589826658
 40
0.4862253356
 40
0.615577287
 40
0.745144327
 40
0.8738456756
 40
1.0
 40
1.0
 40
1.0
 40
1.0
 10
4.4586394657
 20
6.3048531893
 30
0.0
 10
4.4566262305
 20
6.3094235974
 30
0.0
 10
4.4515064193
 20
6.3182879177
 30
0.0
 10
4.4408980887
 20
6.3297316646
 30
0.0
 10
4.4274174189
 20
6.3385215765
 30
0.0
 10
4.4120528108
 20
6.3444575376
 30
0.0
 10
4.3955866761
 20
6.3474240059
 30
0.0
 10
4.3787700501
 20
6.3471211363
 30
0.0
 10
4.3625529047
 20
6.34326082
 30
0.0
 10
4.3524771271
 20
6.3387312641
 30
0.0
 10
4.3477464967
 20
6.336058605
 30
0.0
 11
4.4586394657
 21
6.3048531893
 31
0.0
 11
4.4511389889
 21
6.3178230993
 31
0.0
 11
4.4406093739
 21
6.3291291244
 31
0.0
 11
4.4273109582
 21
6.3379379655
 31
0.0
 11
4.4119984812
 21
6.3439237792
 31
0.0
 11
4.3955477848
 21
6.3468754368
 31
0.0
 11
4.3788103999
 21
6.3465185214
 31
0.0
 11
4.3626177215
 21
6.342732765
 31
0.0
 11
4.3477464967
 21
6.336058605
 31
0.0
  0
SPLINE
  5
36E
100
AcDbEntity
  8
0
100
AcDbSpline
 62
7
  6
CONTINUOUS
 70
0
 71
3
 72
15
 73
11
 74
9
 42
0.0000001
 43
0.0000001
 44
0.0000000001
 12
-0.0823141109
 22
0.100752629
 32
0.0
 13
-0.0945253138
 23
-0.0893961417
 33
0.0
 40
0.0
 40
0.0
 40
0.0
 40
0.0
 40
0.1192223512
 40
0.2422441287
 40
0.3684473894
 40
0.4970970091
 40
0.6261874423
 40
0.7536733313
 40
0.8786191544
 40
1.0
 40
1.0
 40
1.0
 40
1.0
 10
4.3477464967
 20
6.336058605
 30
0.0
 10
4.3444752694
 20
6.3400625935
 30
0.0
 10
4.3369734999
 20
6.347535584
 30
0.0
 10
4.3234649782
 20
6.3563067619
 30
0.0
 10
4.3079273201
 20
6.3619198215
 30
0.0
 10
4.291360043
 20
6.3643775323
 30
0.0
 10
4.2745691473
 20
6.3637261931
 30
0.0
 10
4.258355204
 20
6.3598351831
 30
0.0
 10
4.2437096078
 20
6.3526055158
 30
0.0
 10
4.235200546
 20
6.3460176487
 30
0.0
 10
4.2313760251
 20
6.3424006556
 30
0.0
 11
4.3477464967
 21
6.336058605
 31
0.0
 11
4.336756966
 21
6.3470051057
 31
0.0
 11
4.3233110781
 21
6.3556874389
 31
0.0
 11
4.3079009335
 21
6.3613552011
 31
0.0
 11
4.2913510142
 21
6.3638550824
 31
0.0
 11
4.2745699454
 21
6.363170905
 31
0.0
 11
4.2584609514
 21
6.359220695
 31
0.0
 11
4.2438636993
 21
6.3520673192
 31
0.0
 11
4.2313760251
 21
6.3424006556
 31
0.0
  0
SPLINE
  5
36F
100
AcDbEntity
  8
0
100
AcDbSpline
 62
7
  6
CONTINUOUS
 70
0
 71
3
 72
14
 73
10
 74
8
 42
0.0000001
 43
0.0000001
 44
0.0000000001
 12
-0.1044605982
 22
0.0767725351
 32
0.0
 13
-0.0679966589
 23
-0.1103743316
 33
0.0
 40
0.0
 40
0.0
 40
0.0
 40
0.0
 40
0.2496896657
 40
0.3784724148
 40
0.5079588465
 40
0.6361368545
 40
0.7611286086
 40
0.8824802342
 40
1.0
 40
1.0
 40
1.0
 40
1.0
 10
4.2313760251
 20
6.3424006556
 30
0.0
 10
4.2226817812
 20
6.3487904252
 30
0.0
 10
4.2074042505
 20
6.3560959631
 30
0.0
 10
4.1855048348
 20
6.3588663972
 30
0.0
 10
4.1687398173
 20
6.3577034923
 30
0.0
 10
4.1526530291
 20
6.353474108
 30
0.0
 10
4.1380301674
 20
6.3462206855
 30
0.0
 10
4.1258710599
 20
6.3360404035
 30
0.0
 10
4.1195035448
 20
6.3278043203
 30
0.0
 10
4.1168398943
 20
6.3234805985
 30
0.0
 11
4.2313760251
 21
6.3424006556
 31
0.0
 11
4.2020712972
 21
6.3561485359
 31
0.0
 11
4.1855178437
 21
6.3583190823
 31
0.0
 11
4.1687704225
 21
6.3571761498
 31
0.0
 11
4.1527134852
 21
6.3528993184
 31
0.0
 11
4.1382449294
 21
6.345604073
 31
0.0
 11
4.1261597623
 21
6.3355324241
 31
0.0
 11
4.1168398943
 21
6.3234805985
 31
0.0
  0
SPLINE
  5
370
100
AcDbEntity
  8
0
100
AcDbSpline
 62
7
  6
CONTINUOUS
 70
0
 71
3
 72
15
 73
11
 74
9
 42
0.0000001
 43
0.0000001
 44
0.0000000001
 12
-0.118314427
 22
0.0497959856
 32
0.0
 13
-0.0347346441
 23
-0.1235777015
 33
0.0
 40
0.0
 40
0.0
 40
0.0
 40
0.0
 40
0.1285167815
 40
0.2588630032
 40
0.38912009
 40
0.5182581759
 40
0.6445803335
 40
0.7666995654
 40
0.8849449482
 40
1.0
 40
1.0
 40
1.0
 40
1.0
 10
4.1168398943
 20
6.3234805985
 30
0.0
 10
4.1117714312
 20
6.3256138051
 30
0.0
 10
4.1011562697
 20
6.3290061624
 30
0.0
 10
4.0845243653
 20
6.3310839746
 30
0.0
 10
4.0677910681
 20
6.3295720109
 30
0.0
 10
4.0518703772
 20
6.3248482832
 30
0.0
 10
4.0374694961
 20
6.3172908656
 30
0.0
 10
4.025343565
 20
6.3070932553
 30
0.0
 10
4.0164562858
 20
6.2945661101
 30
0.0
 10
4.0126671155
 20
6.2852261881
 30
0.0
 10
4.0113349834
 20
6.2804867751
 30
0.0
 11
4.1168398943
 21
6.3234805985
 31
0.0
 11
4.1011205588
 21
6.3284867436
 31
0.0
 11
4.0845080369
 21
6.3304834028
 31
0.0
 11
4.0678515271
 21
6.3290203753
 31
0.0
 11
4.0519588387
 21
6.3243066423
 31
0.0
 11
4.0376349106
 21
6.3167060916
 31
0.0
 11
4.0257157738
 21
6.3065241707
 31
0.0
 11
4.0169017147
 21
6.2941667241
 31
0.0
 11
4.0113349834
 21
6.2804867751
 31
0.0
  0
SPLINE
  5
371
100
AcDbEntity
  8
0
100
AcDbSpline
 62
7
  6
CONTINUOUS
 70
0
 71
3
 72
18
 73
14
 74
12
 42
0.0000001
 43
0.0000001
 44
0.0000000001
 12
-0.1234726118
 22
0.0217925951
 32
0.0
 13
0.0000922535
 23
-0.1253809976
 33
0.0
 40
0.0
 40
0.0
 40
0.0
 40
0.0
 40
0.1323920776
 40
0.1989195941
 40
0.2651099067
 40
0.3956818719
 40
0.5236221
 40
0.5863634418
 40
0.6480512623
 40
0.7679522842
 40
0.8267065812
 40
0.8849458956
 40
1.0
 40
1.0
 40
1.0
 40
1.0
 10
4.0113349834
 20
6.2804867751
 30
0.0
 10
4.0058860515
 20
6.2814484975
 30
0.0
 10
3.9975507181
 20
6.2822020075
 30
0.0
 10
3.9864698415
 20
6.2816961979
 30
0.0
 10
3.9755614871
 20
6.2801173095
 30
0.0
 10
3.9625157234
 20
6.2760055286
 30
0.0
 10
3.950717991
 20
6.2693913656
 30
0.0
 10
3.942414804
 20
6.2628564375
 30
0.0
 10
3.9351094742
 20
6.2557027635
 30
0.0
 10
3.9291600923
 20
6.2474545142
 30
0.0
 10
3.9251023288
 20
6.2383938609
 30
0.0
 10
3.9222983664
 20
6.2290898048
 30
0.0
 10
3.921480496
 20
6.2218070725
 30
0.0
 10
3.921484034
 20
6.2169985397
 30
0.0
 11
4.0113349834
 21
6.2804867751
 31
0.0
 11
3.9948001103
 21
6.2819496098
 31
0.0
 11
3.9864679632
 21
6.2815591986
 31
0.0
 11
3.9782567904
 21
6.2803549546
 31
0.0
 11
3.9626377492
 21
6.2754495184
 31
0.0
 11
3.9486518127
 21
6.2675935543
 31
0.0
 11
3.9424750988
 21
6.2627220869
 31
0.0
 11
3.9369578489
 21
6.2573015544
 31
0.0
 11
3.9282600399
 21
6.2450398807
 31
0.0
 11
3.9252423802
 21
6.238319641
 31
0.0
 11
3.9231290244
 21
6.2313300438
 31
0.0
 11
3.921484034
 21
6.2169985397
 31
0.0
  0
SPLINE
  5
372
100
AcDbEntity
  8
0
100
AcDbSpline
 62
7
  6
CONTINUOUS
 70
0
 71
3
 72
17
 73
13
 74
11
 42
0.0000001
 43
0.0000001
 44
0.0000000001
 12
-0.1060958506
 22
-0.0046236272
 32
0.0
 13
0.0018101432
 23
-0.1061811227
 33
0.0
 40
0.0
 40
0.0
 40
0.0
 40
0.0
 40
0.133458163
 40
0.2000614057
 40
0.2661244043
 40
0.3314402367
 40
0.3959560684
 40
0.5225868307
 40
0.64614896
 40
0.7664453798
 40
0.8838485122
 40
1.0
 40
1.0
 40
1.0
 40
1.0
 10
3.9214907206
 20
6.2161206332
 30
0.0
 10
3.9167709349
 20
6.2159149463
 30
0.0
 10
3.909701443
 20
6.2150985501
 30
0.0
 10
3.9005236666
 20
6.2129415118
 30
0.0
 10
3.8938487699
 20
6.21077567
 30
0.0
 10
3.8874641693
 20
6.2080418403
 30
0.0
 10
3.8794940609
 20
6.2036705337
 30
0.0
 10
3.8705191161
 20
6.1969516605
 30
0.0
 10
3.8616131343
 20
6.1872210188
 30
0.0
 10
3.8549106258
 20
6.1762278089
 30
0.0
 10
3.8507734762
 20
6.1642895819
 30
0.0
 10
3.8500151008
 20
6.1559675183
 30
0.0
 10
3.8500851844
 20
6.1518564866
 30
0.0
 11
3.9214907206
 21
6.2161206332
 31
0.0
 11
3.9074146746
 21
6.2144674267
 31
0.0
 11
3.9005308535
 21
6.2128423648
 31
0.0
 11
3.8938608729
 21
6.2106673059
 31
0.0
 11
3.8874878743
 21
6.2079291733
 31
0.0
 11
3.8814801326
 21
6.2046355194
 31
0.0
 11
3.8707187249
 21
6.1965711476
 31
0.0
 11
3.8618780624
 21
6.1868744363
 31
0.0
 11
3.8552746632
 21
6.1759383766
 31
0.0
 11
3.8512572149
 21
6.164135566
 31
0.0
 11
3.8500851844
 21
6.1518564866
 31
0.0
  0
SPLINE
  5
373
100
AcDbEntity
  8
0
100
AcDbSpline
 62
7
  6
CONTINUOUS
 70
0
 71
3
 72
16
 73
12
 74
10
 42
0.0000001
 43
0.0000001
 44
0.0000000001
 12
-0.0806409156
 22
-0.0249256095
 32
0.0
 13
0.0005640443
 23
-0.0844033479
 33
0.0
 40
0.0
 40
0.0
 40
0.0
 40
0.0
 40
0.1333662765
 40
0.2648783228
 40
0.3295767021
 40
0.3934568656
 40
0.5189447172
 40
0.6420025462
 40
0.7629560727
 40
0.8820875634
 40
1.0
 40
1.0
 40
1.0
 40
1.0
 10
3.8496342726
 20
6.1334666741
 30
0.0
 10
3.8460493463
 20
6.1323585955
 30
0.0
 10
3.8390531024
 20
6.129729403
 30
0.0
 10
3.8308445049
 20
6.1253471657
 30
0.0
 10
3.8248129813
 20
6.1211907446
 30
0.0
 10
3.8192742364
 20
6.1166609886
 30
0.0
 10
3.8131786272
 20
6.1102680951
 30
0.0
 10
3.8072952095
 20
6.1016434747
 30
0.0
 10
3.8029608795
 20
6.0923395219
 30
0.0
 10
3.8002783414
 20
6.0825820931
 30
0.0
 10
3.7996805882
 20
6.0758940109
 30
0.0
 10
3.7997027575
 20
6.0725766095
 30
0.0
 11
3.8496342726
 21
6.1334666741
 31
0.0
 11
3.8391052921
 21
6.1294846674
 31
0.0
 11
3.8293317071
 21
6.1242221771
 31
0.0
 11
3.8248392487
 21
6.1211174956
 31
0.0
 11
3.8206666504
 21
6.1177026534
 31
0.0
 11
3.8133585359
 21
6.1100359492
 31
0.0
 11
3.8075091393
 21
6.1014529073
 31
0.0
 11
3.8032098351
 21
6.092193214
 31
0.0
 11
3.8005668596
 21
6.0824914531
 31
0.0
 11
3.7997027575
 21
6.0725766095
 31
0.0
  0
SPLINE
  5
374
100
AcDbEntity
  8
0
100
AcDbSpline
 62
7
  6
CONTINUOUS
 70
0
 71
3
 72
13
 73
9
 74
7
 42
0.0000001
 43
0.0000001
 44
0.0000000001
 12
-0.0441649001
 22
-0.0338366781
 32
0.0
 13
-0.0002767807
 23
-0.0556361626
 33
0.0
 40
0.0
 40
0.0
 40
0.0
 40
0.0
 40
0.1311089303
 40
0.260113432
 40
0.3868640802
 40
0.5117268799
 40
0.757285593
 40
1.0
 40
1.0
 40
1.0
 40
1.0
 10
3.7985761356
 20
6.0331865263
 30
0.0
 10
3.796645998
 20
6.0317077628
 30
0.0
 10
3.7929510938
 20
6.0285924669
 30
0.0
 10
3.7879585117
 20
6.0234209804
 30
0.0
 10
3.783663471
 20
6.0177968861
 30
0.0
 10
3.7789852921
 20
6.0098292638
 30
0.0
 10
3.7749982849
 20
5.9990659017
 30
0.0
 10
3.7738782526
 20
5.9899848586
 30
0.0
 10
3.7738558597
 20
5.9854836259
 30
0.0
 11
3.7985761356
 21
6.0331865263
 31
0.0
 11
3.7930070916
 21
6.028475337
 31
0.0
 11
3.7880348965
 21
6.0232991988
 31
0.0
 11
3.7837618762
 21
6.0176891989
 31
0.0
 11
3.7802433394
 21
6.0116991794
 31
0.0
 11
3.7754995514
 21
5.9988870828
 31
0.0
 11
3.7738558597
 21
5.9854836259
 31
0.0
  0
SPLINE
  5
375
100
AcDbEntity
  8
0
100
AcDbSpline
 62
9
  6
CONTINUOUS
 70
0
 71
3
 72
36
 73
32
 74
30
 42
0.0000001
 43
0.0000001
 44
0.0000000001
 12
-0.1985355739
 22
1.2239989758
 32
0.0
 13
0.9269846761
 23
-0.8235831939
 33
0.0
 40
0.0
 40
0.0
 40
0.0
 40
0.0
 40
0.028725164
 40
0.0574052838
 40
0.086097974
 40
0.1148618834
 40
0.1437528831
 40
0.1728224301
 40
0.2021186408
 40
0.2316810705
 40
0.2615420106
 40
0.2917273823
 40
0.3222520602
 40
0.3531232168
 40
0.3843407436
 40
0.4158937216
 40
0.4477648978
 40
0.4799307643
 40
0.5123590548
 40
0.5450131919
 40
0.5778525972
 40
0.610831103
 40
0.6769741467
 40
0.7100763691
 40
0.7431183323
 40
0.7760516896
 40
0.8088287247
 40
0.8737012679
 40
0.9057631319
 40
0.937520638
 40
1.0
 40
1.0
 40
1.0
 40
1.0
 10
3.7417290068
 20
5.8772617584
 30
0.0
 10
3.7398280178
 20
5.8889816154
 30
0.0
 10
3.7370852593
 20
5.912588466
 30
0.0
 10
3.7361836007
 20
5.9482101529
 30
0.0
 10
3.7385041924
 20
5.9837870472
 30
0.0
 10
3.7440487151
 20
6.0190927391
 30
0.0
 10
3.7527620511
 20
6.0539123662
 30
0.0
 10
3.7645961
 20
6.0880313129
 30
0.0
 10
3.7794894752
 20
6.1212331599
 30
0.0
 10
3.797330107
 20
6.1533218589
 30
0.0
 10
3.8180158612
 20
6.1840974359
 30
0.0
 10
3.8414254154
 20
6.2133644621
 30
0.0
 10
3.8673984867
 20
6.2409564209
 30
0.0
 10
3.895784152
 20
6.2666977831
 30
0.0
 10
3.9264100826
 20
6.2904263651
 30
0.0
 10
3.959077637
 20
6.3120115981
 30
0.0
 10
3.9935948708
 20
6.3313105175
 30
0.0
 10
4.0297494291
 20
6.3482034915
 30
0.0
 10
4.0673137588
 20
6.3626023197
 30
0.0
 10
4.1060628139
 20
6.3744052338
 30
0.0
 10
4.1457607295
 20
6.3835421309
 30
0.0
 10
4.1996582346
 20
6.3921202064
 30
0.0
 10
4.2544290794
 20
6.3951471666
 30
0.0
 10
4.3090805934
 20
6.3926214917
 30
0.0
 10
4.3497983387
 20
6.387945508
 30
0.0
 10
4.389969553
 20
6.3805234586
 30
0.0
 10
4.4422783951
 20
6.3670918665
 30
0.0
 10
4.4927347904
 20
6.348346256
 30
0.0
 10
4.5403538011
 20
6.3245515152
 30
0.0
 10
4.5852460138
 20
6.2978451644
 30
0.0
 10
4.6164678015
 20
6.274227591
 30
0.0
 10
4.6357736052
 20
6.2570752735
 30
0.0
 11
3.7417290068
 21
5.8772617584
 31
0.0
 11
3.7376193435
 21
5.9126429674
 31
0.0
 11
3.7367201233
 21
5.9481948285
 31
0.0
 11
3.7390363116
 21
5.9836981749
 31
0.0
 11
3.7445608922
 21
6.0189348487
 31
0.0
 11
3.7532503332
 21
6.0536897662
 31
0.0
 11
3.765054116
 21
6.0877484427
 31
0.0
 11
3.7799067587
 21
6.1209005637
 31
0.0
 11
3.7977076873
 21
6.1529455945
 31
0.0
 11
3.8183511354
 21
6.1836844891
 31
0.0
 11
3.8417150353
 21
6.2129268118
 31
0.0
 11
3.8676475978
 21
6.2404978242
 31
0.0
 11
3.8959935468
 21
6.2662247332
 31
0.0
 11
3.9265816346
 21
6.2899481911
 31
0.0
 11
3.9592177957
 21
6.3115280598
 31
0.0
 11
3.993705719
 21
6.3308263419
 31
0.0
 11
4.0298349419
 21
6.3477241461
 31
0.0
 11
4.0673790796
 21
6.3621240783
 31
0.0
 11
4.1061103825
 21
6.3739311516
 31
0.0
 11
4.145791433
 21
6.3830740152
 31
0.0
 11
4.1861762324
 21
6.3895022965
 31
0.0
 11
4.2680670033
 21
6.3940527866
 31
0.0
 11
4.3090697184
 21
6.3921547843
 31
0.0
 11
4.3497737834
 21
6.3874776455
 31
0.0
 11
4.3899306755
 21
6.3800544892
 31
0.0
 11
4.4292940823
 21
6.3699348387
 31
0.0
 11
4.5046743757
 21
6.3418514519
 31
0.0
 11
4.5402315967
 21
6.3240674783
 31
0.0
 11
4.5740678194
 21
6.3039222634
 31
0.0
 11
4.6357736052
 21
6.2570752735
 31
0.0
  0
SPLINE
  5
376
100
AcDbEntity
  8
0
100
AcDbSpline
 62
9
  6
CONTINUOUS
 70
0
 71
3
 72
9
 73
5
 74
3
 42
0.0000001
 43
0.0000001
 44
0.0000000001
 12
0.0201669179
 22
-0.0274077604
 32
0.0
 13
0.0020553441
 23
-0.0339656513
 33
0.0
 40
0.0
 40
0.0
 40
0.0
 40
0.0
 40
0.5057612347
 40
1.0
 40
1.0
 40
1.0
 40
1.0
 10
4.7258113575
 20
5.0046161635
 30
0.0
 10
4.7292112393
 20
4.9999955692
 30
0.0
 10
4.7346990178
 20
4.9898764714
 30
0.0
 10
4.7371038076
 20
4.9786044415
 30
0.0
 10
4.7374424178
 20
4.9730087277
 30
0.0
 11
4.7258113575
 21
5.0046161635
 31
0.0
 11
4.7339736392
 21
4.9894649608
 31
0.0
 11
4.7374424178
 21
4.9730087277
 31
0.0
  0
SPLINE
  5
377
100
AcDbEntity
  8
0
100
AcDbSpline
 62
9
  6
CONTINUOUS
 70
0
 71
3
 72
15
 73
11
 74
9
 42
0.0000001
 43
0.0000001
 44
0.0000000001
 12
0.0912783007
 22
-0.0181552845
 32
0.0
 13
-0.0000613386
 23
-0.0930663138
 33
0.0
 40
0.0
 40
0.0
 40
0.0
 40
0.0
 40
0.1337941383
 40
0.2655783561
 40
0.394654629
 40
0.5206764692
 40
0.6438022044
 40
0.7642994969
 40
0.8826844167
 40
1.0
 40
1.0
 40
1.0
 40
1.0
 10
4.6409580295
 20
5.1168130444
 30
0.0
 10
4.6450288634
 20
5.1160033542
 30
0.0
 10
4.6530027248
 20
5.1137917299
 30
0.0
 10
4.6642241575
 20
5.1087876206
 30
0.0
 10
4.6743513923
 20
5.1022495354
 30
0.0
 10
4.6830512857
 20
5.0942913264
 30
0.0
 10
4.6900946849
 20
5.0851694392
 30
0.0
 10
4.6953194357
 20
5.0751583481
 30
0.0
 10
4.6985348694
 20
5.064516731
 30
0.0
 10
4.6992345042
 20
5.0571826702
 30
0.0
 10
4.6992321055
 20
5.0535432939
 30
0.0
 11
4.6409580295
 21
5.1168130444
 31
0.0
 11
4.6529558354
 21
5.1134816432
 31
0.0
 11
4.6641508899
 21
5.1084723535
 31
0.0
 11
4.6742240137
 21
5.1019274265
 31
0.0
 11
4.682866277
 21
5.093998591
 31
0.0
 11
4.6898571671
 21
5.0849193318
 31
0.0
 11
4.6950213633
 21
5.0749649215
 31
0.0
 11
4.6981842612
 21
5.0644110265
 31
0.0
 11
4.6992321055
 21
5.0535432939
 31
0.0
  0
SPLINE
  5
378
100
AcDbEntity
  8
0
100
AcDbSpline
 62
9
  6
CONTINUOUS
 70
0
 71
3
 72
16
 73
12
 74
10
 42
0.0000001
 43
0.0000001
 44
0.0000000001
 12
0.1152814475
 22
0.0075219081
 32
0.0
 13
0.0001676881
 23
-0.1155264607
 33
0.0
 40
0.0
 40
0.0
 40
0.0
 40
0.0
 40
0.1333560186
 40
0.2658525048
 40
0.3960999485
 40
0.5232390786
 40
0.6468714097
 40
0.7073959958
 40
0.7670659752
 40
0.8842701483
 40
1.0
 40
1.0
 40
1.0
 40
1.0
 10
4.5574720542
 20
5.1911473489
 30
0.0
 10
4.5625965458
 20
5.1914817128
 30
0.0
 10
4.572895472
 20
5.1912120064
 30
0.0
 10
4.5879119135
 20
5.1881385108
 30
0.0
 10
4.6019260965
 20
5.1825014663
 30
0.0
 10
4.6142940594
 20
5.1744372612
 30
0.0
 10
4.6229187041
 20
5.165981187
 30
0.0
 10
4.6285022074
 20
5.1584111166
 30
0.0
 10
4.6330825233
 20
5.1504792231
 30
0.0
 10
4.6370021375
 20
5.1398051145
 30
0.0
 10
4.6380876381
 20
5.1308054844
 30
0.0
 10
4.6380941069
 20
5.1263488643
 30
0.0
 11
4.5574720542
 21
5.1911473489
 31
0.0
 11
4.5728733476
 21
5.190759944
 31
0.0
 11
4.5878658069
 21
5.1876734704
 31
0.0
 11
4.6018081696
 21
5.1820144956
 31
0.0
 11
4.6141014144
 21
5.1739763376
 31
0.0
 11
4.6242682339
 21
5.1639446505
 31
0.0
 11
4.6284118852
 21
5.158312511
 31
0.0
 11
4.6318537414
 21
5.1523397781
 31
0.0
 11
4.6365067279
 21
5.1396241709
 31
0.0
 11
4.6380941069
 21
5.1263488643
 31
0.0
  0
SPLINE
  5
379
100
AcDbEntity
  8
0
100
AcDbSpline
 62
9
  6
CONTINUOUS
 70
0
 71
3
 72
11
 73
7
 74
5
 42
0.0000001
 43
0.0000001
 44
0.0000000001
 12
-0.0062525231
 22
0.0475893247
 32
0.0
 13
-0.0375942821
 23
0.0298413778
 33
0.0
 40
0.0
 40
0.0
 40
0.0
 40
0.0
 40
0.2427609931
 40
0.4894422407
 40
0.7414924372
 40
1.0
 40
1.0
 40
1.0
 40
1.0
 10
4.5574720542
 20
6.8411473489
 30
0.0
 10
4.556966098
 20
6.8449982928
 30
0.0
 10
4.555115014
 20
6.8526743047
 30
0.0
 10
4.5500757953
 20
6.8634921577
 30
0.0
 10
4.5429412643
 20
6.8733708178
 30
0.0
 10
4.5369685494
 20
6.8790212556
 30
0.0
 10
4.5337290806
 20
6.8815926629
 30
0.0
 11
4.5574720542
 21
6.8411473489
 31
0.0
 11
4.5547669274
 21
6.8524811097
 31
0.0
 11
4.5497919113
 21
6.8632254814
 31
0.0
 11
4.5427188188
 21
6.8730403973
 31
0.0
 11
4.5337290806
 21
6.8815926629
 31
0.0
  0
SPLINE
  5
37A
100
AcDbEntity
  8
0
100
AcDbSpline
 62
9
  6
CONTINUOUS
 70
0
 71
3
 72
13
 73
9
 74
7
 42
0.0000001
 43
0.0000001
 44
0.0000000001
 12
-0.0604745347
 22
0.0480031361
 32
0.0
 13
-0.074518594
 23
-0.0202101354
 33
0.0
 40
0.0
 40
0.0
 40
0.0
 40
0.0
 40
0.2430935246
 40
0.3675675599
 40
0.4933369157
 40
0.6200386349
 40
0.7471757739
 40
1.0
 40
1.0
 40
1.0
 40
1.0
 10
4.5337290806
 20
6.8815926629
 30
0.0
 10
4.528828758
 20
6.8854824134
 30
0.0
 10
4.5206181671
 20
6.8904250915
 30
0.0
 10
4.5087497975
 20
6.8949862844
 30
0.0
 10
4.4993237648
 20
6.897382959
 30
0.0
 10
4.489615709
 20
6.8986682295
 30
0.0
 10
4.4765613929
 20
6.8989240102
 30
0.0
 10
4.4667764688
 20
6.8974790718
 30
0.0
 10
4.4604964336
 20
6.8957758679
 30
0.0
 11
4.5337290806
 21
6.8815926629
 31
0.0
 11
4.5176920099
 21
6.891344701
 31
0.0
 11
4.5087221993
 21
6.8947955329
 31
0.0
 11
4.4993115244
 21
6.8971908046
 31
0.0
 11
4.48961474
 21
6.8984845579
 31
0.0
 11
4.479800303
 21
6.8986773066
 31
0.0
 11
4.4604964336
 21
6.8957758679
 31
0.0
  0
SPLINE
  5
37B
100
AcDbEntity
  8
0
100
AcDbSpline
 62
9
  6
CONTINUOUS
 70
0
 71
3
 72
21
 73
17
 74
15
 42
0.0000001
 43
0.0000001
 44
0.0000000001
 12
0.1218231999
 22
0.0357281984
 32
0.0
 13
0.0165377639
 23
-0.1258725488
 33
0.0
 40
0.0
 40
0.0
 40
0.0
 40
0.0
 40
0.1307257723
 40
0.1965555831
 40
0.2623521907
 40
0.3278994115
 40
0.393019062
 40
0.5212728039
 40
0.5842824306
 40
0.6463268087
 40
0.7073481408
 40
0.7673935808
 40
0.8265649374
 40
0.8849642584
 40
0.9427169109
 40
1.0
 40
1.0
 40
1.0
 40
1.0
 10
4.4588961898
 20
5.2453242924
 30
0.0
 10
4.4642046671
 20
5.2468811578
 30
0.0
 10
4.4724523348
 20
5.2484104394
 30
0.0
 10
4.4835556185
 20
5.248865616
 30
0.0
 10
4.4919010917
 20
5.248415245
 30
0.0
 10
4.5001353868
 20
5.2471691409
 30
0.0
 10
4.5107642909
 20
5.2444519575
 30
0.0
 10
4.5208394965
 20
5.2401944235
 30
0.0
 10
4.5299722869
 20
5.2345536839
 30
0.0
 10
4.5362110869
 20
5.2297225817
 30
0.0
 10
4.5417823559
 20
5.2243125051
 30
0.0
 10
4.5466080753
 20
5.218383155
 30
0.0
 10
4.5506479792
 20
5.2120242151
 30
0.0
 10
4.5538597509
 20
5.2053156943
 30
0.0
 10
4.5562012766
 20
5.198340804
 30
0.0
 10
4.5571562761
 20
5.193550805
 30
0.0
 10
4.5574720542
 20
5.1911473489
 30
0.0
 11
4.4588961898
 21
5.2453242924
 31
0.0
 11
4.4752068257
 21
5.2483897462
 31
0.0
 11
4.4835571372
 21
5.2487333514
 31
0.0
 11
4.4918980376
 21
5.2482809027
 31
0.0
 11
4.5001249714
 21
5.2470299209
 31
0.0
 11
4.5081341346
 21
5.2449804739
 31
0.0
 11
4.5231244914
 21
5.2386240117
 31
0.0
 11
4.5299268998
 21
5.2344148862
 31
0.0
 11
4.5361483339
 21
5.2295839699
 31
0.0
 11
4.5416997408
 21
5.224180576
 31
0.0
 11
4.54650963
 21
5.2182665663
 31
0.0
 11
4.5505337329
 21
5.2119232533
 31
0.0
 11
4.5537301226
 21
5.2052336223
 31
0.0
 11
4.556056872
 21
5.198280659
 31
0.0
 11
4.5574720542
 21
5.1911473489
 31
0.0
  0
SPLINE
  5
37C
100
AcDbEntity
  8
0
100
AcDbSpline
 62
7
  6
CONTINUOUS
 70
0
 71
3
 72
9
 73
5
 74
3
 42
0.0000001
 43
0.0000001
 44
0.0000000001
 12
0.0
 22
-0.0166848354
 32
0.0
 13
-0.0020200058
 23
-0.0165621047
 33
0.0
 40
0.0
 40
0.0
 40
0.0
 40
0.0
 40
0.236708847
 40
1.0
 40
1.0
 40
1.0
 40
1.0
 10
4.5574720542
 20
5.1911473489
 30
0.0
 10
4.5574720542
 20
5.1898308661
 30
0.0
 10
4.5573751278
 20
5.1842693381
 30
0.0
 10
4.5569091246
 20
5.1787171151
 30
0.0
 10
4.5563951738
 20
5.1745032124
 30
0.0
 11
4.5574720542
 21
5.1911473489
 31
0.0
 11
4.5574054878
 21
5.1871984617
 31
0.0
 11
4.5563951738
 21
5.1745032124
 31
0.0
  0
SPLINE
  5
37D
100
AcDbEntity
  8
0
100
AcDbSpline
 62
9
  6
CONTINUOUS
 70
0
 71
3
 72
20
 73
16
 74
14
 42
0.0000001
 43
0.0000001
 44
0.0000000001
 12
0.1121764579
 22
0.0633506572
 32
0.0
 13
0.0519571784
 23
-0.1178868741
 33
0.0
 40
0.0
 40
0.0
 40
0.0
 40
0.0
 40
0.1262553242
 40
0.1904387935
 40
0.2550235567
 40
0.3198112622
 40
0.3846268627
 40
0.5135186825
 40
0.5773491951
 40
0.6404607501
 40
0.702709744
 40
0.7640411725
 40
0.8244471992
 40
0.8839215314
 40
1.0
 40
1.0
 40
1.0
 40
1.0
 10
4.3478596892
 20
5.2765687101
 30
0.0
 10
4.3525806476
 20
5.2792348294
 30
0.0
 10
4.3601620742
 20
5.2824954621
 30
0.0
 10
4.3707547115
 20
5.2853155818
 30
0.0
 10
4.3789689092
 20
5.28667426
 30
0.0
 10
4.3873026824
 20
5.2872379213
 30
0.0
 10
4.3984115433
 20
5.2868902181
 30
0.0
 10
4.4093795861
 20
5.2849258397
 30
0.0
 10
4.4198114445
 20
5.2814380443
 30
0.0
 10
4.4272361584
 20
5.2781031695
 30
0.0
 10
4.4341798925
 20
5.2740653173
 30
0.0
 10
4.4405504908
 20
5.269366228
 30
0.0
 10
4.4462855763
 20
5.2640806926
 30
0.0
 10
4.4529372384
 20
5.2564203632
 30
0.0
 10
4.4568858199
 20
5.2498856683
 30
0.0
 10
4.4588961898
 20
5.2453242924
 30
0.0
 11
4.3478596892
 21
5.2765687101
 31
0.0
 11
4.3627776135
 21
5.2830507075
 31
0.0
 11
4.3707669143
 21
5.285181939
 31
0.0
 11
4.3789756961
 21
5.2865400992
 31
0.0
 11
4.3873034005
 21
5.2871002685
 31
0.0
 11
4.3956494652
 21
5.2868401562
 31
0.0
 11
4.411994209
 21
5.2839118935
 31
0.0
 11
4.4197916095
 21
5.2813000521
 31
0.0
 11
4.4272048431
 21
5.2779608291
 31
0.0
 11
4.4341334936
 21
5.273922809
 31
0.0
 11
4.4404905522
 21
5.2692305131
 31
0.0
 11
4.4462097912
 21
5.2639531651
 31
0.0
 11
4.4512267705
 21
5.2581621133
 31
0.0
 11
4.4588961898
 21
5.2453242924
 31
0.0
  0
SPLINE
  5
37E
100
AcDbEntity
  8
0
100
AcDbSpline
 62
7
  6
CONTINUOUS
 70
0
 71
3
 72
9
 73
5
 74
3
 42
0.0000001
 43
0.0000001
 44
0.0000000001
 12
0.0
 22
-0.0238842204
 32
0.0
 13
-0.0024824774
 23
-0.0237548582
 33
0.0
 40
0.0
 40
0.0
 40
0.0
 40
0.0
 40
0.4726520601
 40
1.0
 40
1.0
 40
1.0
 40
1.0
 10
4.4588961898
 20
5.2453242924
 30
0.0
 10
4.4588961898
 20
5.241561317
 30
0.0
 10
4.4586345992
 20
5.2335991632
 30
0.0
 10
4.4579667113
 20
5.2256628321
 30
0.0
 10
4.4575303348
 20
5.2214871403
 30
0.0
 11
4.4588961898
 21
5.2453242924
 31
0.0
 11
4.4585581403
 21
5.234040429
 31
0.0
 11
4.4575303348
 21
5.2214871403
 31
0.0
  0
SPLINE
  5
37F
100
AcDbEntity
  8
0
100
AcDbSpline
 62
9
  6
CONTINUOUS
 70
0
 71
3
 72
21
 73
17
 74
15
 42
0.0000001
 43
0.0000001
 44
0.0000000001
 12
0.0942932473
 22
0.089143636
 32
0.0
 13
0.0821169317
 23
-0.1004719556
 33
0.0
 40
0.0
 40
0.0
 40
0.0
 40
0.0
 40
0.1214937304
 40
0.1836780134
 40
0.2466049763
 40
0.3101309972
 40
0.3741231561
 40
0.4384343821
 40
0.5028627525
 40
0.5671804177
 40
0.6311625812
 40
0.6946169112
 40
0.7574176914
 40
0.819466267
 40
0.8806585347
 40
1.0
 40
1.0
 40
1.0
 40
1.0
 10
4.2313393841
 20
5.2829174005
 30
0.0
 10
4.2351580636
 20
5.2865275315
 30
0.0
 10
4.2415903315
 20
5.291329486
 30
0.0
 10
4.2510239409
 20
5.2963300515
 30
0.0
 10
4.2585941152
 20
5.2994142723
 30
0.0
 10
4.266506519
 20
5.3017529479
 30
0.0
 10
4.2746733096
 20
5.3032959408
 30
0.0
 10
4.2829899769
 20
5.3040330555
 30
0.0
 10
4.2913527068
 20
5.3039749676
 30
0.0
 10
4.2996582161
 20
5.3031262318
 30
0.0
 10
4.3078033614
 20
5.3014934798
 30
0.0
 10
4.3156840141
 20
5.2990771501
 30
0.0
 10
4.3231979251
 20
5.2958984094
 30
0.0
 10
4.33026463
 20
5.2920164283
 30
0.0
 10
4.3388980946
 20
5.2860342554
 30
0.0
 10
4.3445930376
 20
5.2805655336
 30
0.0
 10
4.3478596892
 20
5.2765687101
 30
0.0
 11
4.2313393841
 21
5.2829174005
 31
0.0
 11
4.2439272489
 21
5.2924086537
 31
0.0
 11
4.2510535416
 21
5.2961935983
 31
0.0
 11
4.258614417
 21
5.2992770293
 31
0.0
 11
4.2665196317
 21
5.3016131522
 31
0.0
 11
4.2746781839
 21
5.3031587184
 31
0.0
 11
4.2829902497
 21
5.3039000719
 31
0.0
 11
4.2913503143
 21
5.3038426487
 31
0.0
 11
4.2996527677
 21
5.3029922029
 31
0.0
 11
4.307792
 21
5.301354489
 31
0.0
 11
4.3156625415
 21
5.2989355663
 31
0.0
 11
4.3231673321
 21
5.2957598185
 31
0.0
 11
4.3302223463
 21
5.2918800306
 31
0.0
 11
4.33674468
 21
5.287351431
 31
0.0
 11
4.3478596892
 21
5.2765687101
 31
0.0
  0
SPLINE
  5
380
100
AcDbEntity
  8
0
100
AcDbSpline
 62
7
  6
CONTINUOUS
 70
0
 71
3
 72
9
 73
5
 74
3
 42
0.0000001
 43
0.0000001
 44
0.0000000001
 12
0.0
 22
-0.0275992755
 32
0.0
 13
-0.0013766946
 23
-0.0275649183
 33
0.0
 40
0.0
 40
0.0
 40
0.0
 40
0.0
 40
0.46782147
 40
1.0
 40
1.0
 40
1.0
 40
1.0
 10
4.3478596892
 20
5.2765687101
 30
0.0
 10
4.3478596892
 20
5.2722648656
 30
0.0
 10
4.3477085783
 20
5.2630649615
 30
0.0
 10
4.3473344974
 20
5.2538720802
 30
0.0
 10
4.3470902816
 20
5.2489822609
 30
0.0
 11
4.3478596892
 21
5.2765687101
 31
0.0
 11
4.3476695048
 21
5.2636585773
 31
0.0
 11
4.3470902816
 21
5.2489822609
 31
0.0
  0
SPLINE
  5
381
100
AcDbEntity
  8
0
100
AcDbSpline
 62
9
  6
CONTINUOUS
 70
0
 71
3
 72
20
 73
16
 74
14
 42
0.0000001
 43
0.0000001
 44
0.0000000001
 12
0.0679096543
 22
0.1101841419
 32
0.0
 13
0.1043070276
 23
-0.0766310008
 33
0.0
 40
0.0
 40
0.0
 40
0.0
 40
0.0
 40
0.117511186
 40
0.1777894744
 40
0.2389893165
 40
0.301052907
 40
0.3639236621
 40
0.4275067176
 40
0.4916292043
 40
0.6204863003
 40
0.684946258
 40
0.7491518545
 40
0.8129444886
 40
0.8761488521
 40
1.0
 40
1.0
 40
1.0
 40
1.0
 10
4.1166566739
 20
5.263971452
 30
0.0
 10
4.1193167219
 20
5.2682874084
 30
0.0
 10
4.1241795121
 20
5.274337407
 30
0.0
 10
4.1318812302
 20
5.281210271
 30
0.0
 10
4.1383331293
 20
5.2858298781
 30
0.0
 10
4.1453305398
 20
5.2897995321
 30
0.0
 10
4.1528012735
 20
5.2930517662
 30
0.0
 10
4.160648169
 20
5.2955550256
 30
0.0
 10
4.1714830443
 20
5.2978804699
 30
0.0
 10
4.1826457179
 20
5.2986458742
 30
0.0
 10
4.1937368919
 20
5.2977855818
 30
0.0
 10
4.2019245277
 20
5.2963230343
 30
0.0
 10
4.2098789994
 20
5.2940843084
 30
0.0
 10
4.2199691961
 20
5.2901427078
 30
0.0
 10
4.2270332024
 20
5.286081013
 30
0.0
 10
4.2313393841
 20
5.2829174005
 30
0.0
 11
4.1166566739
 21
5.263971452
 31
0.0
 11
4.1261235372
 21
5.2758755905
 31
0.0
 11
4.1319390507
 21
5.2810764264
 31
0.0
 11
4.138376942
 21
5.2856913847
 31
0.0
 11
4.1453629534
 21
5.2896566741
 31
0.0
 11
4.1528213612
 21
5.2929108052
 31
0.0
 11
4.1606593994
 21
5.295419052
 31
0.0
 11
4.168773307
 21
5.2971639546
 31
0.0
 11
4.1854129526
 21
5.2982950398
 31
0.0
 11
4.1937308502
 21
5.2976472045
 31
0.0
 11
4.2019118192
 21
5.2961875485
 31
0.0
 11
4.2098593161
 21
5.2939491021
 31
0.0
 11
4.217477182
 21
5.2909675033
 31
0.0
 11
4.2313393841
 21
5.2829174005
 31
0.0
  0
LINE
  5
382
100
AcDbEntity
  8
0
100
AcDbLine
 62
7
  6
CONTINUOUS
 10
4.2313393841
 20
5.2829174005
 11
4.2316103519
 21
5.2544945097
  0
SPLINE
  5
383
100
AcDbEntity
  8
0
100
AcDbSpline
 62
9
  6
CONTINUOUS
 70
0
 71
3
 72
14
 73
10
 74
8
 42
0.0000001
 43
0.0000001
 44
0.0000000001
 12
-0.0678386099
 22
-0.0195054907
 32
0.0
 13
-0.019114364
 23
-0.067949851
 33
0.0
 40
0.0
 40
0.0
 40
0.0
 40
0.0
 40
0.2621178165
 40
0.3904759582
 40
0.5165397562
 40
0.6403694315
 40
0.76208712
 40
0.8818601162
 40
1.0
 40
1.0
 40
1.0
 40
1.0
 10
4.0603829439
 20
6.9172095054
 30
0.0
 10
4.0544557078
 20
6.9155052598
 30
0.0
 10
4.0458583461
 20
6.9119798402
 30
0.0
 10
4.035575958
 20
6.9054595471
 30
0.0
 10
4.0286929448
 20
6.8997771024
 30
0.0
 10
4.0227014035
 20
6.8933765013
 30
0.0
 10
4.0176735965
 20
6.8863735701
 30
0.0
 10
4.0136894092
 20
6.8788802367
 30
0.0
 10
4.0117702178
 20
6.8735971706
 30
0.0
 10
4.0110174949
 20
6.8709213081
 30
0.0
 11
4.0603829439
 21
6.9172095054
 31
0.0
 11
4.0432847749
 21
6.9101397217
 31
0.0
 11
4.0356409812
 21
6.9052751733
 31
0.0
 11
4.028784173
 21
6.8996035659
 31
0.0
 11
4.0228147532
 21
6.8932186415
 31
0.0
 11
4.0178115037
 21
6.8862340286
 31
0.0
 11
4.0138529193
 21
6.87876362
 31
0.0
 11
4.0110174949
 21
6.8709213081
 31
0.0
  0
SPLINE
  5
384
100
AcDbEntity
  8
0
100
AcDbSpline
 62
9
  6
CONTINUOUS
 70
0
 71
3
 72
20
 73
16
 74
14
 42
0.0000001
 43
0.0000001
 44
0.0000000001
 12
0.0346545432
 22
0.1231937949
 32
0.0
 13
0.1179621381
 23
-0.0496244138
 33
0.0
 40
0.0
 40
0.0
 40
0.0
 40
0.0
 40
0.1151588579
 40
0.1739965436
 40
0.2337166092
 40
0.294367139
 40
0.3559939596
 40
0.4185899603
 40
0.482050185
 40
0.6107527542
 40
0.6757996315
 40
0.7410495299
 40
0.8063206992
 40
0.8714009706
 40
1.0
 40
1.0
 40
1.0
 40
1.0
 10
4.0110174949
 20
5.2209213081
 30
0.0
 10
4.0123477541
 20
5.2256502603
 30
0.0
 10
4.0153149598
 20
5.2325632592
 30
0.0
 10
4.0208126528
 20
5.2408965814
 30
0.0
 10
4.0257397499
 20
5.2467657529
 30
0.0
 10
4.0313827563
 20
5.2521213684
 30
0.0
 10
4.0376901432
 20
5.2568823267
 30
0.0
 10
4.0445761
 20
5.2609971685
 30
0.0
 10
4.0544380122
 20
5.2655962016
 30
0.0
 10
4.0650418506
 20
5.2687304313
 30
0.0
 10
4.0759953899
 20
5.2702766462
 30
0.0
 10
4.0843447907
 20
5.2706205483
 30
0.0
 10
4.0926899841
 20
5.2701628854
 30
0.0
 10
4.1036224364
 20
5.2685106371
 30
0.0
 10
4.1116000684
 20
5.2660986691
 30
0.0
 10
4.1166566739
 20
5.263971452
 30
0.0
 11
4.0110174949
 21
5.2209213081
 31
0.0
 11
4.0167685189
 21
5.2344903513
 31
0.0
 11
4.0209078432
 21
5.2407802907
 31
0.0
 11
4.025818234
 21
5.2466368016
 31
0.0
 11
4.0314460852
 21
5.2519821036
 31
0.0
 11
4.0377357095
 21
5.2567403307
 31
0.0
 11
4.0446072273
 21
5.2608578683
 31
0.0
 11
4.0519651512
 21
5.2642954582
 31
0.0
 11
4.0677572267
 21
5.268974718
 31
0.0
 11
4.0759998361
 21
5.2701386759
 31
0.0
 11
4.0843429431
 21
5.2704868274
 31
0.0
 11
4.0926835524
 21
5.2700303723
 31
0.0
 11
4.1009182919
 21
5.2687831191
 31
0.0
 11
4.1166566739
 21
5.263971452
 31
0.0
  0
SPLINE
  5
385
100
AcDbEntity
  8
0
100
AcDbSpline
 62
7
  6
CONTINUOUS
 70
0
 71
3
 72
9
 73
5
 74
3
 42
0.0000001
 43
0.0000001
 44
0.0000000001
 12
0.0
 22
-0.0262771926
 32
0.0
 13
0.0021026357
 23
-0.0261929337
 33
0.0
 40
0.0
 40
0.0
 40
0.0
 40
0.0
 40
0.4695838007
 40
1.0
 40
1.0
 40
1.0
 40
1.0
 10
4.1166566739
 20
5.263971452
 30
0.0
 10
4.1166566739
 20
5.2598583373
 30
0.0
 10
4.1168840617
 20
5.2510988659
 30
0.0
 10
4.1174534275
 20
5.242356475
 30
0.0
 10
4.1178251849
 20
5.2377254229
 30
0.0
 11
4.1166566739
 21
5.263971452
 31
0.0
 11
4.1169456384
 21
5.251635492
 31
0.0
 11
4.1178251849
 21
5.2377254229
 31
0.0
  0
SPLINE
  5
386
100
AcDbEntity
  8
0
100
AcDbSpline
 62
7
  6
CONTINUOUS
 70
0
 71
3
 72
9
 73
5
 74
3
 42
0.0000001
 43
0.0000001
 44
0.0000000001
 12
0.0
 22
-0.0207622323
 32
0.0
 13
0.0024758448
 23
-0.0206140846
 33
0.0
 40
0.0
 40
0.0
 40
0.0
 40
0.0
 40
0.4767229869
 40
1.0
 40
1.0
 40
1.0
 40
1.0
 10
4.0110174949
 20
5.2209213081
 30
0.0
 10
4.0110174949
 20
5.2176220303
 30
0.0
 10
4.0112694728
 20
5.210700267
 30
0.0
 10
4.0119294535
 20
5.2038074306
 30
0.0
 10
4.0123613044
 20
5.2002118051
 30
0.0
 11
4.0110174949
 21
5.2209213081
 31
0.0
 11
4.0113504669
 21
5.211029077
 31
0.0
 11
4.0123613044
 21
5.2002118051
 31
0.0
  0
SPLINE
  5
387
100
AcDbEntity
  8
0
100
AcDbSpline
 62
7
  6
CONTINUOUS
 70
0
 71
3
 72
12
 73
8
 74
6
 42
0.0000001
 43
0.0000001
 44
0.0000000001
 12
-0.0473961656
 22
0.0431010763
 32
0.0
 13
0.0
 23
0.0640632445
 33
0.0
 40
0.0
 40
0.0
 40
0.0
 40
0.0
 40
0.280079751
 40
0.5358977673
 40
0.7730944803
 40
0.8873152605
 40
1.0
 40
1.0
 40
1.0
 40
1.0
 10
4.0590957868
 20
7.7156133305
 30
0.0
 10
4.0546708847
 20
7.7196372434
 30
0.0
 10
4.0467220404
 20
7.7279506483
 30
0.0
 10
4.0375502434
 20
7.7417960378
 30
0.0
 10
4.0328086216
 20
7.7540006148
 30
0.0
 10
4.030949455
 20
7.7637564581
 30
0.0
 10
4.0306391189
 20
7.7686075927
 30
0.0
 10
4.0306391189
 20
7.7710139094
 30
0.0
 11
4.0590957868
 21
7.7156133305
 31
0.0
 11
4.0467967761
 21
7.7286777493
 31
0.0
 11
4.037867614
 21
7.7424201672
 31
0.0
 11
4.0324571587
 21
7.7566199193
 31
0.0
 11
4.0310949934
 21
7.7638093679
 31
0.0
 11
4.0306391189
 21
7.7710139094
 31
0.0
  0
SPLINE
  5
388
100
AcDbEntity
  8
0
100
AcDbSpline
 62
9
  6
CONTINUOUS
 70
0
 71
3
 72
20
 73
16
 74
14
 42
0.0000001
 43
0.0000001
 44
0.0000000001
 12
-0.1230530844
 22
0.0216980692
 32
0.0
 13
-0.0000400834
 23
-0.1249514553
 33
0.0
 40
0.0
 40
0.0
 40
0.0
 40
0.0
 40
0.1325262318
 40
0.198921003
 40
0.2650617351
 40
0.3307406233
 40
0.395793931
 40
0.5234430876
 40
0.5860049264
 40
0.6475634168
 40
0.7081092078
 40
0.7677381226
 40
0.8846401285
 40
0.9424431625
 40
1.0
 40
1.0
 40
1.0
 40
1.0
 10
4.0110174949
 20
6.8709213081
 30
0.0
 10
4.0055815744
 20
6.8718798292
 30
0.0
 10
3.9972520728
 20
6.8725074828
 30
0.0
 10
3.9862258036
 20
6.871777641
 30
0.0
 10
3.9780632689
 20
6.870454289
 30
0.0
 10
3.970119764
 20
6.8683637966
 30
0.0
 10
3.9600288411
 20
6.8645846476
 30
0.0
 10
3.9506732622
 20
6.8593468475
 30
0.0
 10
3.9424275292
 20
6.8528432851
 30
0.0
 10
3.9369273413
 20
6.8474434845
 30
0.0
 10
3.9321567048
 20
6.8415427212
 30
0.0
 10
3.9269030562
 20
6.8331614757
 30
0.0
 10
3.9232350247
 20
6.8239914476
 30
0.0
 10
3.9213729305
 20
6.8144793132
 30
0.0
 10
3.9210547398
 20
6.8096682928
 30
0.0
 10
3.9210539708
 20
6.8072710226
 30
0.0
 11
4.0110174949
 21
6.8709213081
 31
0.0
 11
3.9945071627
 21
6.8721944477
 31
0.0
 11
3.9862291569
 21
6.8716464622
 31
0.0
 11
3.9780718592
 21
6.8703203815
 31
0.0
 11
3.9701372207
 21
6.8682249115
 31
0.0
 11
3.9625262732
 21
6.8653707765
 31
0.0
 11
3.9486218185
 21
6.8575562386
 31
0.0
 11
3.9424882173
 21
6.8527098537
 31
0.0
 11
3.9370068461
 21
6.8473136776
 31
0.0
 11
3.9322574167
 21
6.8414250055
 31
0.0
 11
3.9283032982
 21
6.8351100886
 31
0.0
 11
3.9229072479
 21
6.8215362414
 31
0.0
 11
3.9215232734
 21
6.814447505
 31
0.0
 11
3.9210539708
 21
6.8072710226
 31
0.0
  0
SPLINE
  5
389
100
AcDbEntity
  8
0
100
AcDbSpline
 62
9
  6
CONTINUOUS
 70
0
 71
3
 72
16
 73
12
 74
10
 42
0.0000001
 43
0.0000001
 44
0.0000000001
 12
-0.1058808297
 22
-0.0046312198
 32
0.0
 13
-0.0003013146
 23
-0.1059816376
 33
0.0
 40
0.0
 40
0.0
 40
0.0
 40
0.0
 40
0.1337455094
 40
0.2660493047
 40
0.3958336383
 40
0.5224395289
 40
0.6457783865
 40
0.7659262757
 40
0.8250471577
 40
0.8836802448
 40
1.0
 40
1.0
 40
1.0
 40
1.0
 10
3.9210595453
 20
6.8064719678
 30
0.0
 10
3.9163391835
 20
6.8062654995
 30
0.0
 10
3.9069659369
 20
6.8050621331
 30
0.0
 10
3.8935171958
 20
6.8010184485
 30
0.0
 10
3.8811504941
 20
6.7948860103
 30
0.0
 10
3.870361794
 20
6.7867814368
 30
0.0
 10
3.861506035
 20
6.7770590748
 30
0.0
 10
3.8559418181
 20
6.767835602
 30
0.0
 10
3.8528033548
 20
6.7600222103
 30
0.0
 10
3.8505708618
 20
6.7520480314
 30
0.0
 10
3.8498789389
 20
6.7458427884
 30
0.0
 10
3.849867256
 20
6.7417335357
 30
0.0
 11
3.9210595453
 21
6.8064719678
 31
0.0
 11
3.9069995571
 21
6.8046728747
 31
0.0
 11
3.8935758374
 21
6.8006212758
 31
0.0
 11
3.8812730303
 21
6.7944701959
 31
0.0
 11
3.870556474
 21
6.7863957357
 31
0.0
 11
3.861775864
 21
6.7767122234
 31
0.0
 11
3.8552380289
 21
6.7657852255
 31
0.0
 11
3.8529054017
 21
6.7599698568
 31
0.0
 11
3.8512307517
 21
6.7539857081
 31
0.0
 11
3.849867256
 21
6.7417335357
 31
0.0
  0
SPLINE
  5
38A
100
AcDbEntity
  8
0
100
AcDbSpline
 62
9
  6
CONTINUOUS
 70
0
 71
3
 72
14
 73
10
 74
8
 42
0.0000001
 43
0.0000001
 44
0.0000000001
 12
-0.0805922646
 22
-0.0247817561
 32
0.0
 13
-0.0001378333
 23
-0.0843162472
 33
0.0
 40
0.0
 40
0.0
 40
0.0
 40
0.0
 40
0.264210501
 40
0.3928825492
 40
0.518672348
 40
0.6418122862
 40
0.7627183711
 40
0.8818675787
 40
1.0
 40
1.0
 40
1.0
 40
1.0
 10
3.8496992692
 20
6.7238838308
 30
0.0
 10
3.842601495
 20
6.7217012974
 30
0.0
 10
3.8324087217
 20
6.7169781433
 30
0.0
 10
3.8207726878
 20
6.7081330028
 30
0.0
 10
3.8133728598
 20
6.7004590543
 30
0.0
 10
3.8074414801
 20
6.6918675197
 30
0.0
 10
3.8030691321
 20
6.6825912187
 30
0.0
 10
3.8003581009
 20
6.6728458888
 30
0.0
 10
3.799737722
 20
6.6661626013
 30
0.0
 10
3.7997322945
 20
6.6628424405
 30
0.0
 11
3.8496992692
 21
6.7238838308
 31
0.0
 11
3.8295159014
 21
6.71445471
 31
0.0
 11
3.8208926386
 21
6.7078711257
 31
0.0
 11
3.8135471588
 21
6.7002203682
 31
0.0
 11
3.8076541452
 21
6.6916720886
 31
0.0
 11
3.8033201734
 21
6.6824448634
 31
0.0
 11
3.8006468154
 21
6.6727608641
 31
0.0
 11
3.7997322945
 21
6.6628424405
 31
0.0
  0
SPLINE
  5
38B
100
AcDbEntity
  8
0
100
AcDbSpline
 62
9
  6
CONTINUOUS
 70
0
 71
3
 72
11
 73
7
 74
5
 42
0.0000001
 43
0.0000001
 44
0.0000000001
 12
-0.0445047122
 22
-0.0344681326
 32
0.0
 13
-0.0002433848
 23
-0.0562908726
 33
0.0
 40
0.0
 40
0.0
 40
0.0
 40
0.0
 40
0.2596793031
 40
0.5116260485
 40
0.7574259307
 40
1.0
 40
1.0
 40
1.0
 40
1.0
 10
3.7989587994
 20
6.6238680996
 30
0.0
 10
3.7951064818
 20
6.620884546
 30
0.0
 10
3.7880797228
 20
6.6142272907
 30
0.0
 10
3.7800098753
 20
6.6023836794
 30
0.0
 10
3.7750486091
 20
6.5892725065
 30
0.0
 10
3.7738968187
 20
6.5800788022
 30
0.0
 10
3.7738771391
 20
6.5755272336
 30
0.0
 11
3.7989587994
 21
6.6238680996
 31
0.0
 11
3.7883794548
 21
6.6137807337
 31
0.0
 11
3.7804484812
 21
6.6020231357
 31
0.0
 11
3.7755642825
 21
6.5890774376
 31
0.0
 11
3.7738771391
 21
6.5755272336
 31
0.0
  0
SPLINE
  5
38C
100
AcDbEntity
  8
0
100
AcDbSpline
 62
7
  6
CONTINUOUS
 70
0
 71
3
 72
22
 73
18
 74
16
 42
0.0000001
 43
0.0000001
 44
0.0000000001
 12
0.0
 22
0.2420935637
 32
0.0
 13
-0.2420935637
 23
0.0
 33
0.0
 40
0.0
 40
0.0
 40
0.0
 40
0.0
 40
0.0406803131
 40
0.0825103098
 40
0.1264835216
 40
0.173402284
 40
0.2238605103
 40
0.2781593568
 40
0.3363938896
 40
0.3985341427
 40
0.464450323
 40
0.5338750174
 40
0.6064648913
 40
0.6818395582
 40
0.7595539367
 40
0.8389668218
 40
1.0
 40
1.0
 40
1.0
 40
1.0
 10
4.4605847647
 20
7.7710139094
 30
0.0
 10
4.4605847647
 20
7.7742967234
 30
0.0
 10
4.4599119821
 20
7.7809722604
 30
0.0
 10
4.4569492599
 20
7.7907971634
 30
0.0
 10
4.4520886019
 20
7.8003972558
 30
0.0
 10
4.4453853583
 20
7.8096771297
 30
0.0
 10
4.4369006341
 20
7.8185445948
 30
0.0
 10
4.4267435387
 20
7.8269411803
 30
0.0
 10
4.4150163227
 20
7.834799028
 30
0.0
 10
4.4018239764
 20
7.8420436097
 30
0.0
 10
4.3872808743
 20
7.8485957255
 30
0.0
 10
4.3715273813
 20
7.8544087347
 30
0.0
 10
4.3547074827
 20
7.8594310337
 30
0.0
 10
4.3369712868
 20
7.8636088554
 30
0.0
 10
4.3184876468
 20
7.8668875372
 30
0.0
 10
4.2930015789
 20
7.8700553926
 30
0.0
 10
4.2735797967
 20
7.8710139094
 30
0.0
 10
4.2605847647
 20
7.8710139094
 30
0.0
 11
4.4605847647
 21
7.7710139094
 31
0.0
 11
4.4596150929
 21
7.7808144984
 31
0.0
 11
4.4567302989
 21
7.7905216862
 31
0.0
 11
4.4519667144
 21
7.8000420714
 31
0.0
 11
4.4453606712
 21
7.8092822526
 31
0.0
 11
4.4369604945
 21
7.8181511986
 31
0.0
 11
4.4268624827
 21
7.8265673576
 31
0.0
 11
4.4151749276
 21
7.8344515479
 31
0.0
 11
4.4020061209
 21
7.8417245875
 31
0.0
 11
4.3874711863
 21
7.8483116738
 31
0.0
 11
4.3717125747
 21
7.8541555202
 31
0.0
 11
4.3548795687
 21
7.859203219
 31
0.0
 11
4.3371214512
 21
7.8634018626
 31
0.0
 11
4.3185993992
 21
7.8667042651
 31
0.0
 11
4.2995221678
 21
7.8690861261
 31
0.0
 11
4.2605847647
 21
7.8710139094
 31
0.0
  0
SPLINE
  5
38D
100
AcDbEntity
  8
0
100
AcDbSpline
 62
9
  6
CONTINUOUS
 70
0
 71
3
 72
13
 73
9
 74
7
 42
0.0000001
 43
0.0000001
 44
0.0000000001
 12
-0.0003227385
 22
0.0712964631
 32
0.0
 13
-0.0638833242
 23
0.0316577117
 33
0.0
 40
0.0
 40
0.0
 40
0.0
 40
0.0
 40
0.1195407513
 40
0.2398434375
 40
0.3614189034
 40
0.4847104208
 40
0.7375273857
 40
1.0
 40
1.0
 40
1.0
 40
1.0
 10
4.7375436193
 20
6.6198999886
 30
0.0
 10
4.7375307592
 20
6.6227409329
 30
0.0
 10
4.7370637808
 20
6.6284478869
 30
0.0
 10
4.7350896231
 20
6.6368375039
 30
0.0
 10
4.731884215
 20
6.6449358417
 30
0.0
 10
4.725984916
 20
6.6552307252
 30
0.0
 10
4.7156477235
 20
6.6666122528
 30
0.0
 10
4.705276867
 20
6.6733837186
 30
0.0
 10
4.6996876593
 20
6.6761534794
 30
0.0
 11
4.7375436193
 21
6.6198999886
 31
0.0
 11
4.7368558252
 21
6.6283951111
 31
0.0
 11
4.734898186
 21
6.6367459651
 31
0.0
 11
4.731713627
 21
6.6448077655
 31
0.0
 11
4.7273450736
 21
6.6524357275
 31
0.0
 11
4.715315494
 21
6.6658593965
 31
0.0
 11
4.6996876593
 21
6.6761534794
 31
0.0
  0
SPLINE
  5
38E
100
AcDbEntity
  8
0
100
AcDbSpline
 62
9
  6
CONTINUOUS
 70
0
 71
3
 72
11
 73
7
 74
5
 42
0.0000001
 43
0.0000001
 44
0.0000000001
 12
-0.0001075397
 22
0.0386029094
 32
0.0
 13
-0.023526741
 23
0.0306053694
 33
0.0
 40
0.0
 40
0.0
 40
0.0
 40
0.0
 40
0.2460464855
 40
0.4936275675
 40
0.7444925724
 40
1.0
 40
1.0
 40
1.0
 40
1.0
 10
4.7505557969
 20
6.5305117639
 30
0.0
 10
4.750546977
 20
6.5336778007
 30
0.0
 10
4.7499998146
 20
6.5400405349
 30
0.0
 10
4.7475906506
 20
6.5493582705
 30
0.0
 10
4.7435974898
 20
6.5582471088
 30
0.0
 10
4.7400050886
 20
6.5637191816
 30
0.0
 10
4.7380013363
 20
6.5663258146
 30
0.0
 11
4.7505557969
 21
6.5305117639
 31
0.0
 11
4.7497405937
 21
6.5399748629
 31
0.0
 11
4.7473479102
 21
6.549227901
 31
0.0
 11
4.7433986063
 21
6.5580701795
 31
0.0
 11
4.7380013363
 21
6.5663258146
 31
0.0
  0
SPLINE
  5
38F
100
AcDbEntity
  8
0
100
AcDbSpline
 62
9
  6
CONTINUOUS
 70
0
 71
3
 72
13
 73
9
 74
7
 42
0.0000001
 43
0.0000001
 44
0.0000000001
 12
-0.0001605197
 22
0.0703281933
 32
0.0
 13
-0.0627147235
 23
0.0318267812
 33
0.0
 40
0.0
 40
0.0
 40
0.0
 40
0.0
 40
0.1196336526
 40
0.239896248
 40
0.3615191114
 40
0.4849784933
 40
0.7377713097
 40
1.0
 40
1.0
 40
1.0
 40
1.0
 10
4.6992319698
 20
6.7037104439
 30
0.0
 10
4.6992255687
 20
6.7065149835
 30
0.0
 10
4.6987960056
 20
6.7121473842
 30
0.0
 10
4.6968753011
 20
6.7204335742
 30
0.0
 10
4.6937088622
 20
6.7284253942
 30
0.0
 10
4.6879133102
 20
6.7385928852
 30
0.0
 10
4.6778871852
 20
6.7499628767
 30
0.0
 10
4.6676984343
 20
6.7567058389
 30
0.0
 10
4.6622165677
 20
6.759487804
 30
0.0
 11
4.6992319698
 21
6.7037104439
 31
0.0
 11
4.6985869943
 21
6.7120993267
 31
0.0
 11
4.6966819749
 21
6.7203398678
 31
0.0
 11
4.6935453061
 21
6.7282975264
 31
0.0
 11
4.6892542505
 21
6.7358457768
 31
0.0
 11
4.6775291008
 21
6.7492097667
 31
0.0
 11
4.6622165677
 21
6.759487804
 31
0.0
  0
SPLINE
  5
390
100
AcDbEntity
  8
0
100
AcDbSpline
 62
9
  6
CONTINUOUS
 70
0
 71
3
 72
9
 73
5
 74
3
 42
0.0000001
 43
0.0000001
 44
0.0000000001
 12
-0.0233169498
 22
0.0118330022
 32
0.0
 13
-0.0258425117
 23
0.0039830491
 33
0.0
 40
0.0
 40
0.0
 40
0.0
 40
0.0
 40
0.4963704728
 40
1.0
 40
1.0
 40
1.0
 40
1.0
 10
4.6622165677
 20
6.759487804
 30
0.0
 10
4.6583586193
 20
6.7614456549
 30
0.0
 10
4.6502538073
 20
6.7647619828
 30
0.0
 10
4.641731749
 20
6.7667733559
 30
0.0
 10
4.6373933983
 20
6.7674420163
 30
0.0
 11
4.6622165677
 21
6.759487804
 31
0.0
 11
4.6502098379
 21
6.7644163899
 31
0.0
 11
4.6373933983
 21
6.7674420163
 31
0.0
  0
SPLINE
  5
391
100
AcDbEntity
  8
0
100
AcDbSpline
 62
7
  6
CONTINUOUS
 70
0
 71
3
 72
18
 73
14
 74
12
 42
0.0000001
 43
0.0000001
 44
0.0000000001
 12
0.0016722397
 22
0.0970063838
 32
0.0
 13
-0.0958909255
 23
0.0147636473
 33
0.0
 40
0.0
 40
0.0
 40
0.0
 40
0.0
 40
0.058365304
 40
0.1168591362
 40
0.2349539461
 40
0.3554996661
 40
0.4787503341
 40
0.6048055859
 40
0.6690571618
 40
0.7341624403
 40
0.8000414032
 40
0.8665051648
 40
1.0
 40
1.0
 40
1.0
 40
1.0
 10
4.6991788835
 20
6.1136011718
 30
0.0
 10
4.6992114171
 20
6.1154884408
 30
0.0
 10
4.6990695551
 20
6.1192745518
 30
0.0
 10
4.6979407687
 20
6.1268013204
 30
0.0
 10
4.6950091897
 20
6.1360284409
 30
0.0
 10
4.689360957
 20
6.1463529556
 30
0.0
 10
4.6817957325
 20
6.1556979664
 30
0.0
 10
4.6740710693
 20
6.1623591734
 30
0.0
 10
4.6671361008
 20
6.166864159
 30
0.0
 10
4.6615431035
 20
6.1698121259
 30
0.0
 10
4.6556613182
 20
6.1723157707
 30
0.0
 10
4.6475109477
 20
6.1750696661
 30
0.0
 10
4.641171846
 20
6.1764779393
 30
0.0
 10
4.6369048649
 20
6.1771348962
 30
0.0
 11
4.6991788835
 21
6.1136011718
 31
0.0
 11
4.698965051
 21
6.1192597812
 31
0.0
 11
4.6981290314
 21
6.1248729833
 31
0.0
 11
4.6946978395
 21
6.1358048049
 31
0.0
 11
4.6891142608
 21
6.1460813318
 31
0.0
 11
4.6815983547
 21
6.1553819769
 31
0.0
 11
4.6723383812
 21
6.1633710522
 31
0.0
 11
4.6671115593
 21
6.1667680854
 31
0.0
 11
4.6615283236
 21
6.1697221478
 31
0.0
 11
4.6556502022
 21
6.1722322504
 31
0.0
 11
4.6495430291
 21
6.1743020029
 31
0.0
 11
4.6369048649
 21
6.1771348962
 31
0.0
  0
SPLINE
  5
392
100
AcDbEntity
  8
0
100
AcDbSpline
 62
7
  6
CONTINUOUS
 70
0
 71
3
 72
14
 73
10
 74
8
 42
0.0000001
 43
0.0000001
 44
0.0000000001
 12
-0.0001556065
 22
0.0710648867
 32
0.0
 13
-0.0637518401
 23
0.0313997646
 33
0.0
 40
0.0
 40
0.0
 40
0.0
 40
0.0
 40
0.2393486324
 40
0.4836108306
 40
0.6087994718
 40
0.6723693
 40
0.7366622026
 40
0.8672556684
 40
1.0
 40
1.0
 40
1.0
 40
1.0
 10
4.7375780391
 20
6.0297063118
 30
0.0
 10
4.7375656244
 20
6.035376073
 30
0.0
 10
4.7357431084
 20
6.0468840688
 30
0.0
 10
4.7294544974
 20
6.0600840941
 30
0.0
 10
4.7231559332
 20
6.0682227118
 30
0.0
 10
4.718986938
 20
6.0725370511
 30
0.0
 10
4.7144213103
 20
6.0766230661
 30
0.0
 10
4.7081286791
 20
6.0812031941
 30
0.0
 10
4.7026748251
 20
6.0842612564
 30
0.0
 10
4.6998539266
 20
6.0856506367
 30
0.0
 11
4.7375780391
 21
6.0297063118
 31
0.0
 11
4.7349844236
 21
6.0465167333
 31
0.0
 11
4.7275436472
 21
6.0621996097
 31
0.0
 11
4.7220994663
 21
6.069235893
 31
0.0
 11
4.7189612373
 21
6.0724855344
 31
0.0
 11
4.7155598144
 21
6.07553609
 31
0.0
 11
4.7080725848
 21
6.0810198409
 31
0.0
 11
4.6998539266
 21
6.0856506367
 31
0.0
  0
SPLINE
  5
393
100
AcDbEntity
  8
0
100
AcDbSpline
 62
7
  6
CONTINUOUS
 70
0
 71
3
 72
11
 73
7
 74
5
 42
0.0000001
 43
0.0000001
 44
0.0000000001
 12
0.0000002879
 22
0.0373567929
 32
0.0
 13
-0.0227104327
 23
0.0296608533
 33
0.0
 40
0.0
 40
0.0
 40
0.0
 40
0.0
 40
0.2466501005
 40
0.4943781812
 40
0.7447627664
 40
1.0
 40
1.0
 40
1.0
 40
1.0
 10
4.7505703918
 20
5.9403524089
 30
0.0
 10
4.7505704154
 20
5.9434237611
 30
0.0
 10
4.7500809909
 20
5.9495914108
 30
0.0
 10
4.74786069
 20
5.9586362541
 30
0.0
 10
4.7441368299
 20
5.9672948867
 30
0.0
 10
4.7406767517
 20
5.9725948089
 30
0.0
 10
4.738744569
 20
5.9751183269
 30
0.0
 11
4.7505703918
 21
5.9403524089
 31
0.0
 11
4.7498370239
 21
5.949537234
 31
0.0
 11
4.747626903
 21
5.9585237755
 31
0.0
 11
4.7439252164
 21
5.9671136938
 31
0.0
 11
4.738744569
 21
5.9751183269
 31
0.0
  0
SPLINE
  5
394
100
AcDbEntity
  8
0
100
AcDbSpline
 62
7
  6
CONTINUOUS
 70
0
 71
3
 72
20
 73
16
 74
14
 42
0.0000001
 43
0.0000001
 44
0.0000000001
 12
0.0011705754
 22
0.115691205
 32
0.0
 13
-0.1154504231
 23
-0.0075514878
 33
0.0
 40
0.0
 40
0.0
 40
0.0
 40
0.0
 40
0.0578511026
 40
0.1158464038
 40
0.1741084319
 40
0.2329139715
 40
0.2925315539
 40
0.3530949731
 40
0.4769252735
 40
0.6041081046
 40
0.6688592418
 40
0.7343082872
 40
0.80042592
 40
0.8670037861
 40
1.0
 40
1.0
 40
1.0
 40
1.0
 10
4.6377090041
 20
6.1865411386
 30
0.0
 10
4.6377315771
 20
6.1887720932
 30
0.0
 10
4.6375342317
 20
6.1932462638
 30
0.0
 10
4.6364725977
 20
6.199891401
 30
0.0
 10
4.6346004795
 20
6.2063972159
 30
0.0
 10
4.6318824777
 20
6.2126651279
 30
0.0
 10
4.6283911321
 20
6.2186380251
 30
0.0
 10
4.6227532366
 20
6.2261930817
 30
0.0
 10
4.614073361
 20
6.2346294156
 30
0.0
 10
4.6037878442
 20
6.2412998783
 30
0.0
 10
4.5947458343
 20
6.2454292246
 30
0.0
 10
4.5875625865
 20
6.2478639714
 30
0.0
 10
4.5801052015
 20
6.2495863012
 30
0.0
 10
4.5699455298
 20
6.2509875933
 30
0.0
 10
4.5622055713
 20
6.2510801034
 30
0.0
 10
4.5570874149
 20
6.2507453303
 30
0.0
 11
4.6377090041
 21
6.1865411386
 31
0.0
 11
4.6374075357
 21
6.1932275523
 31
0.0
 11
4.6363412442
 21
6.1998521763
 31
0.0
 11
4.6344703211
 21
6.2063280814
 31
0.0
 11
4.6317745766
 21
6.2125748702
 31
0.0
 11
4.6283031481
 21
6.2185352255
 31
0.0
 11
4.6241204784
 21
6.2241569257
 31
0.0
 11
4.6138786953
 21
6.2341750774
 31
0.0
 11
4.6015387237
 21
6.2421905093
 31
0.0
 11
4.5947233588
 21
6.2453007634
 31
0.0
 11
4.5875529878
 21
6.2477348958
 31
0.0
 11
4.5801026744
 21
6.2494696923
 31
0.0
 11
4.5724731943
 21
6.2505304495
 31
0.0
 11
4.5570874149
 21
6.2507453303
 31
0.0
  0
SPLINE
  5
395
100
AcDbEntity
  8
0
100
AcDbSpline
 62
9
  6
CONTINUOUS
 70
0
 71
3
 72
16
 73
12
 74
10
 42
0.0000001
 43
0.0000001
 44
0.0000000001
 12
-0.0002329533
 22
0.1154946508
 32
0.0
 13
-0.1152498181
 23
-0.0075198443
 33
0.0
 40
0.0
 40
0.0
 40
0.0
 40
0.0
 40
0.1157290546
 40
0.232934702
 40
0.2926060085
 40
0.3531319896
 40
0.4767664434
 40
0.6039061598
 40
0.7341527658
 40
0.8666469698
 40
1.0
 40
1.0
 40
1.0
 40
1.0
 10
4.6380940516
 20
6.7763807318
 30
0.0
 10
4.6380850651
 20
6.780836094
 30
0.0
 10
4.6369951712
 20
6.7898326445
 30
0.0
 10
4.6330718866
 20
6.8005020988
 30
0.0
 10
4.6284896271
 20
6.8084301382
 30
0.0
 10
4.6229049942
 20
6.815996378
 30
0.0
 10
4.6142803705
 20
6.8244478682
 30
0.0
 10
4.6019141501
 20
6.8325073551
 30
0.0
 10
4.5879031722
 20
6.8381408303
 30
0.0
 10
4.5728908922
 20
6.8412122661
 30
0.0
 10
4.562595025
 20
6.8414816135
 30
0.0
 10
4.5574720542
 20
6.8411473489
 30
0.0
 11
4.6380940516
 21
6.7763807318
 31
0.0
 11
4.6365001761
 21
6.7896514726
 31
0.0
 11
4.6318427398
 21
6.8023616755
 31
0.0
 11
4.6283994192
 21
6.8083315579
 31
0.0
 11
4.6242548934
 21
6.8139608718
 31
0.0
 11
4.6140879367
 21
6.8239871889
 31
0.0
 11
4.6017963645
 21
6.8320206643
 31
0.0
 11
4.5878571208
 21
6.8376760885
 31
0.0
 11
4.5728687873
 21
6.8407604677
 31
0.0
 11
4.5574720542
 21
6.8411473489
 31
0.0
  0
SPLINE
  5
396
100
AcDbEntity
  8
0
100
AcDbSpline
 62
7
  6
CONTINUOUS
 70
0
 71
3
 72
9
 73
5
 74
3
 42
0.0000001
 43
0.0000001
 44
0.0000000001
 12
0.0001377113
 22
-0.0096576178
 32
0.0
 13
0.0009589602
 23
-0.0096108762
 33
0.0
 40
0.0
 40
0.0
 40
0.0
 40
0.0
 40
0.2428001113
 40
1.0
 40
1.0
 40
1.0
 40
1.0
 10
3.9210698407
 20
5.1550353448
 30
0.0
 10
3.9210809862
 20
5.1542537212
 30
0.0
 10
3.921163777
 20
5.1510350931
 30
0.0
 10
3.921390745
 20
5.1478206185
 30
0.0
 10
3.9216327865
 20
5.1453948337
 30
0.0
 11
3.9210698407
 21
5.1550353448
 31
0.0
 11
3.9211296889
 21
5.1526909996
 31
0.0
 11
3.9216327865
 21
5.1453948337
 31
0.0
  0
SPLINE
  5
397
100
AcDbEntity
  8
0
100
AcDbSpline
 62
7
  6
CONTINUOUS
 70
0
 71
3
 72
10
 73
6
 74
4
 42
0.0000001
 43
0.0000001
 44
0.0000000001
 12
-0.107161271
 22
-0.0509332517
 32
0.0
 13
-0.08847988
 23
-0.0790509012
 33
0.0
 40
0.0
 40
0.0
 40
0.0
 40
0.0
 40
0.504771949
 40
0.7536829133
 40
1.0
 40
1.0
 40
1.0
 40
1.0
 10
4.0601682331
 20
7.3844549231
 30
0.0
 10
4.0421375652
 20
7.3758850309
 30
0.0
 10
4.0160351932
 20
7.3612251988
 30
0.0
 10
3.9838003882
 20
7.3382712997
 30
0.0
 10
3.9687004235
 20
7.3257612723
 30
0.0
 10
3.9614357214
 20
7.3192707431
 30
0.0
 11
4.0601682331
 21
7.3844549231
 31
0.0
 11
4.0079847162
 21
7.3550642291
 31
0.0
 11
3.9839349464
 21
7.3379231067
 31
0.0
 11
3.9614357214
 21
7.3192707431
 31
0.0
  0
SPLINE
  5
398
100
AcDbEntity
  8
0
100
AcDbSpline
 62
9
  6
CONTINUOUS
 70
0
 71
3
 72
20
 73
16
 74
14
 42
0.0000001
 43
0.0000001
 44
0.0000000001
 12
0.0000404878
 22
0.1249512784
 32
0.0
 13
0.1230529103
 23
-0.0216980385
 33
0.0
 40
0.0
 40
0.0
 40
0.0
 40
0.0
 40
0.0575568333
 40
0.115359868
 40
0.2322618844
 40
0.2918908066
 40
0.3524366059
 40
0.4139951036
 40
0.4765569473
 40
0.6042061064
 40
0.6692594117
 40
0.7349382956
 40
0.8010790213
 40
0.8674737848
 40
1.0
 40
1.0
 40
1.0
 40
1.0
 10
3.9210539709
 20
5.1572712
 30
0.0
 10
3.9210547476
 20
5.1596684666
 30
0.0
 10
3.9213729527
 20
5.1644794791
 30
0.0
 10
3.923235071
 20
5.1739915949
 30
0.0
 10
3.9269031198
 20
5.1831616015
 30
0.0
 10
3.9321567793
 20
5.1915428249
 30
0.0
 10
3.9369274209
 20
5.1974435713
 30
0.0
 10
3.9424276104
 20
5.2028433559
 30
0.0
 10
3.9506733412
 20
5.209346898
 30
0.0
 10
3.9600289124
 20
5.2145846804
 30
0.0
 10
3.9701198241
 20
5.2183638152
 30
0.0
 10
3.9780633187
 20
5.2204542991
 30
0.0
 10
3.9862258417
 20
5.2217776449
 30
0.0
 10
3.9972520943
 20
5.2225074816
 30
0.0
 10
4.0055815828
 20
5.2218798277
 30
0.0
 10
4.0110174949
 20
5.2209213081
 30
0.0
 11
3.9210539709
 21
5.1572712
 31
0.0
 11
3.921523295
 21
5.1644476703
 31
0.0
 11
3.9229072875
 21
5.1715363929
 31
0.0
 11
3.9283033638
 21
5.1851102088
 31
0.0
 11
3.9322574906
 21
5.1914251092
 31
0.0
 11
3.9370069252
 21
5.1973137647
 31
0.0
 11
3.942488298
 21
5.2027099249
 31
0.0
 11
3.9486218978
 21
5.2075562947
 31
0.0
 11
3.9625263418
 21
5.2153708063
 31
0.0
 11
3.9701372807
 21
5.2182249306
 31
0.0
 11
3.9780719089
 21
5.220320392
 31
0.0
 11
3.986229195
 21
5.2216464666
 31
0.0
 11
3.9945071884
 21
5.2221944482
 31
0.0
 11
4.0110174949
 21
5.2209213081
 31
0.0
  0
SPLINE
  5
399
100
AcDbEntity
  8
0
100
AcDbSpline
 62
7
  6
CONTINUOUS
 70
0
 71
3
 72
9
 73
5
 74
3
 42
0.0000001
 43
0.0000001
 44
0.0000000001
 12
0.0731625334
 22
-0.0347738105
 32
0.0
 13
0.065231248
 23
-0.0480297666
 33
0.0
 40
0.0
 40
0.0
 40
0.0
 40
0.0
 40
0.2524922276
 40
1.0
 40
1.0
 40
1.0
 40
1.0
 10
4.4610012962
 20
7.3819549231
 30
0.0
 10
4.4671589533
 20
7.3790282175
 30
0.0
 10
4.4912727806
 20
7.3668717046
 30
0.0
 10
4.514253825
 20
7.3524525699
 30
0.0
 10
4.5305074466
 20
7.3404850287
 30
0.0
 11
4.4610012962
 21
7.3819549231
 31
0.0
 11
4.4792638437
 21
7.3727451201
 31
0.0
 11
4.5305074466
 21
7.3404850287
 31
0.0
  0
SPLINE
  5
39A
100
AcDbEntity
  8
0
100
AcDbSpline
 62
9
  6
CONTINUOUS
 70
0
 71
3
 72
16
 73
12
 74
10
 42
0.0000001
 43
0.0000001
 44
0.0000000001
 12
0.000015399
 22
0.1061353714
 32
0.0
 13
0.1060339898
 23
0.0046379191
 33
0.0
 40
0.0
 40
0.0
 40
0.0
 40
0.0
 40
0.1163254251
 40
0.1749568638
 40
0.234073166
 40
0.3542083413
 40
0.477537763
 40
0.6041397998
 40
0.7339268096
 40
0.8662404624
 40
1.0
 40
1.0
 40
1.0
 40
1.0
 10
3.8498670259
 20
5.0915795187
 30
0.0
 10
3.849867623
 20
5.0956949328
 30
0.0
 10
3.8505448764
 20
5.1019112239
 30
0.0
 10
3.8527623637
 20
5.1099020282
 30
0.0
 10
3.8558884315
 20
5.1177328473
 30
0.0
 10
3.8614443961
 20
5.1269788227
 30
0.0
 10
3.8702995897
 20
5.1367265217
 30
0.0
 10
3.8810955158
 20
5.14485379
 30
0.0
 10
3.8934764726
 20
5.1510037306
 30
0.0
 10
3.9069442124
 20
5.1550587264
 30
0.0
 10
3.9163318595
 20
5.1562651791
 30
0.0
 10
3.9210595453
 20
5.1564719678
 30
0.0
 11
3.8498670259
 21
5.0915795187
 31
0.0
 11
3.8512015202
 21
5.103853427
 31
0.0
 11
3.8528648496
 21
5.1098498794
 31
0.0
 11
3.8551883545
 21
5.1156781339
 31
0.0
 11
3.8617157367
 21
5.1266312553
 31
0.0
 11
3.8704953055
 21
5.1363398685
 31
0.0
 11
3.8812188002
 21
5.1444366828
 31
0.0
 11
3.8935354206
 21
5.1506052552
 31
0.0
 11
3.9069779749
 21
5.1546682644
 31
0.0
 11
3.9210595453
 21
5.1564719678
 31
0.0
  0
SPLINE
  5
39B
100
AcDbEntity
  8
0
100
AcDbSpline
 62
9
  6
CONTINUOUS
 70
0
 71
3
 72
15
 73
11
 74
9
 42
0.0000001
 43
0.0000001
 44
0.0000000001
 12
-0.0001496052
 22
0.0793684622
 32
0.0
 13
0.0742138698
 23
0.0281367501
 33
0.0
 40
0.0
 40
0.0
 40
0.0
 40
0.0
 40
0.1185677261
 40
0.2380344712
 40
0.3590963059
 40
0.4822027812
 40
0.6077273576
 40
0.7359711678
 40
0.8668482262
 40
1.0
 40
1.0
 40
1.0
 40
1.0
 10
3.799732319
 20
5.0126465894
 30
0.0
 10
3.7997264062
 20
5.0157834354
 30
0.0
 10
3.8002566075
 20
5.0220951081
 30
0.0
 10
3.8026484854
 20
5.0313319699
 30
0.0
 10
3.806535125
 20
5.0401762846
 30
0.0
 10
3.8118311451
 20
5.0484452499
 30
0.0
 10
3.8184573533
 20
5.0559473594
 30
0.0
 10
3.8262803361
 20
5.0625108644
 30
0.0
 10
3.8350978796
 20
5.0680402532
 30
0.0
 10
3.8414767196
 20
5.0709449766
 30
0.0
 10
3.8447706224
 20
5.072193796
 30
0.0
 11
3.799732319
 21
5.0126465894
 31
0.0
 11
3.8005164421
 21
5.0220244192
 31
0.0
 11
3.8028768399
 21
5.0312078344
 31
0.0
 11
3.8067315884
 21
5.040009218
 31
0.0
 11
3.811995005
 21
5.0482411536
 31
0.0
 11
3.8185806744
 21
5.0557167509
 31
0.0
 11
3.8263626029
 21
5.0622775514
 31
0.0
 11
3.8351558375
 21
5.0678074512
 31
0.0
 11
3.8447706224
 21
5.072193796
 31
0.0
  0
SPLINE
  5
39C
100
AcDbEntity
  8
0
100
AcDbSpline
 62
7
  6
CONTINUOUS
 70
0
 71
3
 72
12
 73
8
 74
6
 42
0.0000001
 43
0.0000001
 44
0.0000000001
 12
-0.0903674709
 22
0.1582610641
 32
0.0
 13
-0.1599444078
 23
0.0873534808
 33
0.0
 40
0.0
 40
0.0
 40
0.0
 40
0.0
 40
0.2422716339
 40
0.4895034412
 40
0.6151472473
 40
0.7421364087
 40
1.0
 40
1.0
 40
1.0
 40
1.0
 10
4.5912780943
 20
6.9159344766
 30
0.0
 10
4.5839802694
 20
6.9287151988
 30
0.0
 10
4.5672802253
 20
6.9534658314
 30
0.0
 10
4.542122776
 20
6.9812653469
 30
0.0
 10
4.5195273347
 20
7.0015839191
 30
0.0
 10
4.49508403
 20
7.0206991703
 30
0.0
 10
4.4752302909
 20
7.0332097028
 30
0.0
 10
4.4614823445
 20
7.0407181302
 30
0.0
 11
4.5912780943
 21
6.9159344766
 31
0.0
 11
4.5666364294
 21
6.9525709929
 31
0.0
 11
4.5364442979
 21
6.9860153151
 31
0.0
 11
4.5194207878
 21
7.0013290415
 31
0.0
 11
4.5011951755
 21
7.0155917758
 31
0.0
 11
4.4614823445
 21
7.0407181302
 31
0.0
  0
SPLINE
  5
39D
100
AcDbEntity
  8
0
100
AcDbSpline
 62
7
  6
CONTINUOUS
 70
0
 71
3
 72
11
 73
7
 74
5
 42
0.0000001
 43
0.0000001
 44
0.0000000001
 12
-0.1284895847
 22
-0.0753581876
 32
0.0
 13
-0.0860953578
 23
-0.1215566501
 33
0.0
 40
0.0
 40
0.0
 40
0.0
 40
0.0
 40
0.2551794789
 40
0.5069534474
 40
0.7551738975
 40
1.0
 40
1.0
 40
1.0
 40
1.0
 10
4.0590902267
 20
7.0337708453
 30
0.0
 10
4.048160925
 20
7.0273608909
 30
0.0
 10
4.0270572528
 20
7.0135507613
 30
0.0
 10
3.9978842045
 20
6.9898876224
 30
0.0
 10
3.9717834639
 20
6.9635879861
 30
0.0
 10
3.9565069557
 20
6.9443834268
 30
0.0
 10
3.9494808254
 20
6.9344633465
 30
0.0
 11
4.0590902267
 21
7.0337708453
 31
0.0
 11
4.0273005089
 21
7.0129322224
 31
0.0
 11
3.9982018099
 21
6.9892722733
 31
0.0
 11
3.9721717582
 21
6.9630131638
 31
0.0
 11
3.9494808254
 21
6.9344633465
 31
0.0
  0
SPLINE
  5
39E
100
AcDbEntity
  8
0
100
AcDbSpline
 62
7
  6
CONTINUOUS
 70
0
 71
3
 72
10
 73
6
 74
4
 42
0.0000001
 43
0.0000001
 44
0.0000000001
 12
-0.0884796942
 22
0.079050823
 32
0.0
 13
-0.1071610505
 23
0.0509332716
 33
0.0
 40
0.0
 40
0.0
 40
0.0
 40
0.0
 40
0.2463170859
 40
0.4952280418
 40
1.0
 40
1.0
 40
1.0
 40
1.0
 10
4.5597339738
 20
7.3192705939
 30
0.0
 10
4.552469287
 20
7.3257611167
 30
0.0
 10
4.5373693554
 20
7.3382711339
 30
0.0
 10
4.50513462
 20
7.3612250212
 30
0.0
 10
4.479032301
 20
7.375884849
 30
0.0
 10
4.4610016699
 20
7.3844547448
 30
0.0
 11
4.5597339738
 21
7.3192705939
 31
0.0
 11
4.5372347972
 21
7.3379229422
 31
0.0
 11
4.5131850798
 21
7.3550640546
 31
0.0
 11
4.4610016699
 21
7.3844547448
 31
0.0
  0
SPLINE
  5
39F
100
AcDbEntity
  8
0
100
AcDbSpline
 62
7
  6
CONTINUOUS
 70
0
 71
3
 72
9
 73
5
 74
3
 42
0.0000001
 43
0.0000001
 44
0.0000000001
 12
0.0651352815
 22
0.0479243772
 32
0.0
 13
0.0730362723
 23
0.0347138842
 33
0.0
 40
0.0
 40
0.0
 40
0.0
 40
0.0
 40
0.2477124794
 40
1.0
 40
1.0
 40
1.0
 40
1.0
 10
3.9907752723
 20
7.340568341
 30
0.0
 10
3.9961535463
 20
7.3445254964
 30
0.0
 10
4.0182560369
 20
7.3599638634
 30
0.0
 10
4.0418531007
 20
7.3732498042
 30
0.0
 10
4.0601678595
 20
7.3819547448
 30
0.0
 11
3.9907752723
 21
7.340568341
 31
0.0
 11
4.007195381
 21
7.3520419727
 31
0.0
 11
4.0601678595
 21
7.3819547448
 31
0.0
  0
SPLINE
  5
3A0
100
AcDbEntity
  8
0
100
AcDbSpline
 62
7
  6
CONTINUOUS
 70
0
 71
3
 72
14
 73
10
 74
8
 42
0.0000001
 43
0.0000001
 44
0.0000000001
 12
-0.2246843207
 22
-0.1146022635
 32
0.0
 13
-0.1058309054
 23
-0.2289465925
 33
0.0
 40
0.0
 40
0.0
 40
0.0
 40
0.0
 40
0.1295298472
 40
0.2578512091
 40
0.5104388155
 40
0.6348101173
 40
0.757813401
 40
0.8794992394
 40
1.0
 40
1.0
 40
1.0
 40
1.0
 10
4.0592011979
 20
7.0489483743
 30
0.0
 10
4.0495000893
 20
7.0440002364
 30
0.0
 10
4.0305609707
 20
7.0333931556
 30
0.0
 10
3.994857696
 20
7.009528937
 30
0.0
 10
3.9623893804
 20
6.9817951639
 30
0.0
 10
3.9339984864
 20
6.9507472561
 30
0.0
 10
3.9150327993
 20
6.9261386869
 30
0.0
 10
3.8984590849
 20
6.9002476149
 30
0.0
 10
3.889066994
 20
6.8821436429
 30
0.0
 10
3.8848160925
 20
6.8729475634
 30
0.0
 11
4.0592011979
 21
7.0489483743
 31
0.0
 11
4.0307001788
 21
7.0329780236
 31
0.0
 11
4.0037955486
 21
7.0149869844
 31
0.0
 11
3.9554150846
 21
6.9735369018
 31
0.0
 11
3.9342582721
 21
6.9503760125
 31
0.0
 11
3.9153364203
 21
6.9257899938
 31
0.0
 11
3.8988090398
 21
6.899927923
 31
0.0
 11
3.8848160925
 21
6.8729475634
 31
0.0
  0
SPLINE
  5
3A1
100
AcDbEntity
  8
0
100
AcDbSpline
 62
7
  6
CONTINUOUS
 70
0
 71
3
 72
12
 73
8
 74
6
 42
0.0000001
 43
0.0000001
 44
0.0000000001
 12
-0.1479947865
 22
0.2335436198
 32
0.0
 13
-0.2558330069
 23
0.1048549082
 33
0.0
 40
0.0
 40
0.0
 40
0.0
 40
0.0
 40
0.2418246057
 40
0.3648727911
 40
0.4893185569
 40
0.7421348755
 40
1.0
 40
1.0
 40
1.0
 40
1.0
 10
4.6726460044
 20
6.8036287184
 30
0.0
 10
4.6607164108
 20
6.8224542497
 30
0.0
 10
4.6402533911
 20
6.8493886511
 30
0.0
 10
4.6088526788
 20
6.8818006883
 30
0.0
 10
4.574224143
 20
6.9123152206
 30
0.0
 10
4.5259493433
 20
6.9458263916
 30
0.0
 10
4.4835871119
 20
6.966763577
 30
0.0
 10
4.4615969751
 20
6.975776385
 30
0.0
 11
4.6726460044
 21
6.8036287184
 31
0.0
 11
4.6322955383
 21
6.8569417784
 31
0.0
 11
4.6086339248
 21
6.8813870638
 31
0.0
 11
4.5828303035
 21
6.90414797
 31
0.0
 11
4.525463958
 21
6.9440875874
 31
0.0
 11
4.4615969751
 21
6.975776385
 31
0.0
  0
SPLINE
  5
3A2
100
AcDbEntity
  8
0
100
AcDbSpline
 62
7
  6
CONTINUOUS
 70
0
 71
3
 72
15
 73
11
 74
9
 42
0.0000001
 43
0.0000001
 44
0.0000000001
 12
-0.3080228975
 22
-0.1264665735
 32
0.0
 13
-0.1349019032
 23
-0.3044230216
 33
0.0
 40
0.0
 40
0.0
 40
0.0
 40
0.0
 40
0.1305834862
 40
0.2597101808
 40
0.3872416472
 40
0.5130950026
 40
0.6372365462
 40
0.759701121
 40
0.8805680103
 40
1.0
 40
1.0
 40
1.0
 40
1.0
 10
4.059284325
 20
6.9756581501
 30
0.0
 10
4.0458767571
 20
6.9701533348
 30
0.0
 10
4.0196654683
 20
6.9580553373
 30
0.0
 10
3.9823309044
 20
6.9366504518
 30
0.0
 10
3.9475117048
 20
6.912254376
 30
0.0
 10
3.9155106566
 20
6.8851086742
 30
0.0
 10
3.8866381189
 20
6.8554322254
 30
0.0
 10
3.8611446593
 20
6.8235085984
 30
0.0
 10
3.8392613328
 20
6.7896320109
 30
0.0
 10
3.8271561878
 20
6.7658015986
 30
0.0
 10
3.8217856536
 20
6.7536823162
 30
0.0
 11
4.059284325
 21
6.9756581501
 31
0.0
 11
4.0198147958
 21
6.9574167386
 31
0.0
 11
3.9825268557
 21
6.9360098547
 31
0.0
 11
3.9477609454
 21
6.9116257915
 31
0.0
 11
3.9158246732
 21
6.8844931181
 31
0.0
 11
3.8870170363
 21
6.8548488856
 31
0.0
 11
3.8615916782
 21
6.8229684767
 31
0.0
 11
3.8397795914
 21
6.789146312
 31
0.0
 11
3.8217856536
 21
6.7536823162
 31
0.0
  0
SPLINE
  5
3A3
100
AcDbEntity
  8
0
100
AcDbSpline
 62
9
  6
CONTINUOUS
 70
0
 71
3
 72
18
 73
14
 74
12
 42
0.0000001
 43
0.0000001
 44
0.0000000001
 12
0.344468441
 22
-0.3060443459
 32
0.0
 13
-0.115615478
 23
-0.4460433944
 33
0.0
 40
0.0
 40
0.0
 40
0.0
 40
0.0
 40
0.1305625192
 40
0.2588340274
 40
0.3850057869
 40
0.44744105
 40
0.5094864695
 40
0.6325882141
 40
0.6938588302
 40
0.7550166245
 40
0.8772286807
 40
0.9385155041
 40
1.0
 40
1.0
 40
1.0
 40
1.0
 10
4.6357736052
 20
6.2570752735
 30
0.0
 10
4.650765161
 20
6.2437559665
 30
0.0
 10
4.6789007325
 20
6.2154940933
 30
0.0
 10
4.7150490872
 20
6.1684977546
 30
0.0
 10
4.7394353599
 20
6.1261898858
 30
0.0
 10
4.7551598194
 20
6.0910189871
 30
0.0
 10
4.7682474378
 20
6.0552890816
 30
0.0
 10
4.7775104218
 20
6.0184378886
 30
0.0
 10
4.7827551016
 20
5.9810653218
 30
0.0
 10
4.7853000927
 20
5.9435501059
 30
0.0
 10
4.7837997542
 20
5.9058481966
 30
0.0
 10
4.7782797235
 20
5.8686042336
 30
0.0
 10
4.7741876721
 20
5.8501760896
 30
0.0
 10
4.7718181523
 20
5.8410345052
 30
0.0
 11
4.6357736052
 21
6.2570752735
 31
0.0
 11
4.6781743432
 21
6.2143958456
 31
0.0
 11
4.7141512849
 21
6.1675011673
 31
0.0
 11
4.7431398353
 21
6.1171059423
 31
0.0
 11
4.754875116
 21
6.0908390928
 31
0.0
 11
4.764702378
 21
6.0639916427
 31
0.0
 11
4.778500709
 21
6.0089722214
 31
0.0
 11
4.7824215112
 21
5.9810132953
 31
0.0
 11
4.7843276661
 21
5.9528973195
 31
0.0
 11
4.782091279
 21
5.8966284167
 31
0.0
 11
4.7779538101
 21
5.8686931822
 31
0.0
 11
4.7718181523
 21
5.8410345052
 31
0.0
  0
SPLINE
  5
3A4
100
AcDbEntity
  8
0
100
AcDbSpline
 62
6
  6
CONTINUOUS
 70
0
 71
3
 72
12
 73
8
 74
6
 42
0.0000001
 43
0.0000001
 44
0.0000000001
 12
0.0830021383
 22
0.1890228528
 32
0.0
 13
0.1705576782
 23
0.1163145402
 33
0.0
 40
0.0
 40
0.0
 40
0.0
 40
0.0
 40
0.2431241401
 40
0.4905329228
 40
0.7427352592
 40
0.8707566798
 40
1.0
 40
1.0
 40
1.0
 40
1.0
 10
3.87034863
 20
6.8631189714
 30
0.0
 10
3.8770752378
 20
6.8784376443
 30
0.0
 10
3.8930118158
 20
6.908359971
 30
0.0
 10
3.923386351
 20
6.9496650419
 30
0.0
 10
3.9536824245
 20
6.9806559969
 30
0.0
 10
3.9805819449
 20
7.0031694034
 30
0.0
 10
3.9948924414
 20
7.0136188028
 30
0.0
 10
4.0022402549
 20
7.0186297619
 30
0.0
 11
3.87034863
 21
6.8631189714
 31
0.0
 11
3.8938856865
 21
6.9074494112
 31
0.0
 11
3.9240938696
 21
6.9486346198
 31
0.0
 11
3.9604343125
 21
6.9859199617
 31
0.0
 11
3.9806974795
 21
7.0028877957
 31
0.0
 11
4.0022402549
 21
7.0186297619
 31
0.0
  0
SPLINE
  5
3A5
100
AcDbEntity
  8
0
100
AcDbSpline
 62
6
  6
CONTINUOUS
 70
0
 71
3
 72
12
 73
8
 74
6
 42
0.0000001
 43
0.0000001
 44
0.0000000001
 12
-0.0456263697
 22
0.2229522758
 32
0.0
 13
-0.1693308442
 23
0.1520412711
 33
0.0
 40
0.0
 40
0.0
 40
0.0
 40
0.0
 40
0.2436686101
 40
0.3668407098
 40
0.4910523102
 40
0.7428669681
 40
1.0
 40
1.0
 40
1.0
 40
1.0
 10
4.6826271801
 20
7.1153353129
 30
0.0
 10
4.6789212754
 20
7.1334441366
 30
0.0
 10
4.671000533
 20
7.1602987728
 30
0.0
 10
4.6561146489
 20
7.1944765047
 30
0.0
 10
4.6381995086
 20
7.2278833137
 30
0.0
 10
4.6104713402
 20
7.2673538582
 30
0.0
 10
4.5835704668
 20
7.2952791873
 30
0.0
 10
4.569056949
 20
7.3083107983
 30
0.0
 11
4.6826271801
 21
7.1153353129
 31
0.0
 11
4.6669870373
 21
7.1685363935
 31
0.0
 11
4.655804349
 21
7.1942397919
 31
0.0
 11
4.6424545365
 21
7.2191560048
 31
0.0
 11
4.6095751358
 21
7.2660915812
 31
0.0
 11
4.569056949
 21
7.3083107983
 31
0.0
  0
SPLINE
  5
3A6
100
AcDbEntity
  8
0
100
AcDbSpline
 62
6
  6
CONTINUOUS
 70
0
 71
3
 72
9
 73
5
 74
3
 42
0.0000001
 43
0.0000001
 44
0.0000000001
 12
-0.0884683547
 22
0.073899045
 32
0.0
 13
-0.1048356107
 23
0.0479292537
 33
0.0
 40
0.0
 40
0.0
 40
0.0
 40
0.0
 40
0.4954594808
 40
1.0
 40
1.0
 40
1.0
 40
1.0
 10
4.558109901
 20
7.3177915132
 30
0.0
 10
4.5434990726
 20
7.3299961741
 30
0.0
 10
4.512244434
 20
7.3525780185
 30
0.0
 10
4.4782836294
 20
7.3708111366
 30
0.0
 10
4.4606523583
 20
7.3788718868
 30
0.0
 11
4.558109901
 21
7.3177915132
 31
0.0
 11
4.5118639487
 21
7.3513054261
 31
0.0
 11
4.4606523583
 21
7.3788718868
 31
0.0
  0
SPLINE
  5
3A7
100
AcDbEntity
  8
0
100
AcDbSpline
 62
6
  6
CONTINUOUS
 70
0
 71
3
 72
19
 73
15
 74
13
 42
0.0000001
 43
0.0000001
 44
0.0000000001
 12
-0.0252865035
 22
0.3722927394
 32
0.0
 13
-0.3356092295
 23
0.1631187794
 33
0.0
 40
0.0
 40
0.0
 40
0.0
 40
0.0
 40
0.0595795081
 40
0.1193080727
 40
0.2394252645
 40
0.3000187769
 40
0.3610241357
 40
0.4224897967
 40
0.4844545886
 40
0.5469511885
 40
0.6100055261
 40
0.7377679847
 40
0.8678147521
 40
1.0
 40
1.0
 40
1.0
 40
1.0
 10
4.6698719428
 20
7.3464921541
 30
0.0
 10
4.669369757
 20
7.3538858269
 30
0.0
 10
4.6678289815
 20
7.3686619125
 30
0.0
 10
4.66260908
 20
7.3980001595
 30
0.0
 10
4.654213605
 20
7.4268292425
 30
0.0
 10
4.6428250235
 20
7.4546735492
 30
0.0
 10
4.6327546827
 20
7.475117398
 30
0.0
 10
4.6212318535
 20
7.4949740773
 30
0.0
 10
4.6083030303
 20
7.5141692188
 30
0.0
 10
4.5940136389
 20
7.5326254122
 30
0.0
 10
4.5731325436
 20
7.5562447944
 30
0.0
 10
4.5438787178
 20
7.5835630645
 30
0.0
 10
4.5045349938
 20
7.6121259481
 30
0.0
 10
4.4759833553
 20
7.6280768556
 30
0.0
 10
4.4611958256
 20
7.6352641544
 30
0.0
 11
4.6698719428
 21
7.3464921541
 31
0.0
 11
4.6675664796
 21
7.368604416
 31
0.0
 11
4.6636654969
 21
7.390548113
 31
0.0
 11
4.6511612772
 21
7.4335903864
 31
0.0
 11
4.6426060677
 21
7.4545198647
 31
0.0
 11
4.6325531174
 21
7.4749440187
 31
0.0
 11
4.6210469109
 21
7.4947850025
 31
0.0
 11
4.6081343453
 21
7.5139657597
 31
0.0
 11
4.5938623855
 21
7.5324092755
 31
0.0
 11
4.5782844421
 21
7.5500424856
 31
0.0
 11
4.543472154
 21
7.5826150878
 31
0.0
 11
4.5042350086
 21
7.6111688556
 31
0.0
 11
4.4611958256
 21
7.6352641544
 31
0.0
  0
SPLINE
  5
3A8
100
AcDbEntity
  8
0
100
AcDbSpline
 62
6
  6
CONTINUOUS
 70
0
 71
3
 72
12
 73
8
 74
6
 42
0.0000001
 43
0.0000001
 44
0.0000000001
 12
-0.0473730642
 22
0.2038629308
 32
0.0
 13
0.0634239866
 23
0.1994535025
 33
0.0
 40
0.0
 40
0.0
 40
0.0
 40
0.0
 40
0.2500345712
 40
0.3747424374
 40
0.4993883161
 40
0.748962963
 40
1.0
 40
1.0
 40
1.0
 40
1.0
 10
3.7553973558
 20
4.7223004541
 30
0.0
 10
3.7514490545
 20
4.7392913809
 30
0.0
 10
3.7472076456
 20
4.76519272
 30
0.0
 10
3.7450782221
 20
4.799986752
 30
0.0
 10
3.74532359
 20
4.8348189336
 30
0.0
 10
3.7500891317
 20
4.8783166313
 30
0.0
 10
3.7585043534
 20
4.9123335502
 30
0.0
 10
3.76381161
 20
4.9290236223
 30
0.0
 11
3.7553973558
 21
4.7223004541
 31
0.0
 11
3.7469659956
 21
4.7739477025
 31
0.0
 11
3.7453745777
 21
4.7999998456
 31
0.0
 11
3.7455581664
 21
4.8260869304
 31
0.0
 11
3.7512212015
 21
4.8780137123
 31
0.0
 11
3.76381161
 21
4.9290236223
 31
0.0
  0
SPLINE
  5
3A9
100
AcDbEntity
  8
0
100
AcDbSpline
 62
6
  6
CONTINUOUS
 70
0
 71
3
 72
9
 73
5
 74
3
 42
0.0000001
 43
0.0000001
 44
0.0000000001
 12
0.0627647083
 22
0.0681658491
 32
0.0
 13
0.0746518181
 23
0.0548916902
 33
0.0
 40
0.0
 40
0.0
 40
0.0
 40
0.0
 40
0.4965328584
 40
1.0
 40
1.0
 40
1.0
 40
1.0
 10
3.8578188282
 20
5.0887542724
 30
0.0
 10
3.8682070749
 20
5.100036467
 30
0.0
 10
3.8902636139
 20
5.1217379421
 30
0.0
 10
3.9143145435
 20
5.1412002489
 30
0.0
 10
3.9268427893
 20
5.150412303
 30
0.0
 11
3.8578188282
 21
5.0887542724
 31
0.0
 11
3.8906023744
 21
5.1210354025
 31
0.0
 11
3.9268427893
 21
5.150412303
 31
0.0
  0
SPLINE
  5
3AA
100
AcDbEntity
  8
0
100
AcDbSpline
 62
6
  6
CONTINUOUS
 70
0
 71
3
 72
22
 73
18
 74
16
 42
0.0000001
 43
0.0000001
 44
0.0000000001
 12
0.4346881853
 22
-1.0370247721
 32
0.0
 13
1.1244439499
 23
-0.0000051577
 33
0.0
 40
0.0
 40
0.0
 40
0.0
 40
0.0
 40
0.0568194791
 40
0.1143393032
 40
0.1726377091
 40
0.2317652889
 40
0.2917538527
 40
0.3526235931
 40
0.4143809622
 40
0.4769972299
 40
0.5404190772
 40
0.6045786572
 40
0.6694007843
 40
0.7348051777
 40
0.8006920384
 40
0.8669462637
 40
1.0
 40
1.0
 40
1.0
 40
1.0
 10
3.344358616
 20
2.5515669851
 30
0.0
 10
3.3525915348
 20
2.531925916
 30
0.0
 10
3.3709472752
 20
2.4931257934
 30
0.0
 10
3.4036874933
 20
2.4372244642
 30
0.0
 10
3.4415284847
 20
2.3835791418
 30
0.0
 10
3.4842213248
 20
2.3325025613
 30
0.0
 10
3.5315153755
 20
2.2842975698
 30
0.0
 10
3.5831640264
 20
2.2392778229
 30
0.0
 10
3.6388866556
 20
2.1977469212
 30
0.0
 10
3.6983032174
 20
2.1598949797
 30
0.0
 10
3.7610455781
 20
2.1259267922
 30
0.0
 10
3.826741287
 20
2.0960450737
 30
0.0
 10
3.895019868
 20
2.0704577508
 30
0.0
 10
3.9654909352
 20
2.0493659003
 30
0.0
 10
4.037722491
 20
2.0328320931
 30
0.0
 10
4.1358893995
 20
2.0169444813
 30
0.0
 10
4.2107089686
 20
2.0121149461
 30
0.0
 10
4.2605794582
 20
2.0121147174
 30
0.0
 11
3.344358616
 21
2.5515669851
 31
0.0
 11
3.3716567719
 21
2.4938020856
 31
0.0
 11
3.4043012583
 21
2.4379669919
 31
0.0
 11
3.4420535477
 21
2.3843759625
 31
0.0
 11
3.4846635519
 21
2.3333394155
 31
0.0
 11
3.5318811822
 21
2.2851677692
 31
0.0
 11
3.5834562579
 21
2.2401713653
 31
0.0
 11
3.6391061229
 21
2.1986336579
 31
0.0
 11
3.698467987
 21
2.1607717561
 31
0.0
 11
3.7611669185
 21
2.1267927162
 31
0.0
 11
3.8268279855
 21
2.0969035943
 31
0.0
 11
3.8950762499
 21
2.0713114344
 31
0.0
 11
3.9655230547
 21
2.0501949703
 31
0.0
 11
4.0377367819
 21
2.0336442869
 31
0.0
 11
4.1112774277
 21
2.0217321639
 31
0.0
 11
4.2605794582
 21
2.0121147174
 31
0.0
  0
SPLINE
  5
3AB
100
AcDbEntity
  8
0
100
AcDbSpline
 62
6
  6
CONTINUOUS
 70
0
 71
3
 72
14
 73
10
 74
8
 42
0.0000001
 43
0.0000001
 44
0.0000000001
 12
0.2411579473
 22
-0.1166348414
 32
0.0
 13
0.1091355845
 23
-0.24464314
 33
0.0
 40
0.0
 40
0.0
 40
0.0
 40
0.0
 40
0.25883951
 40
0.3861549437
 40
0.5119119695
 40
0.6361090115
 40
0.7587848236
 40
0.880037282
 40
1.0
 40
1.0
 40
1.0
 40
1.0
 10
4.4640953612
 20
7.0503020754
 30
0.0
 10
4.4849024295
 20
7.0402388404
 30
0.0
 10
4.5148435213
 20
7.0227324785
 30
0.0
 10
4.5511347308
 20
6.9948760973
 30
0.0
 10
4.5760430665
 20
6.9721281062
 30
0.0
 10
4.5985946586
 20
6.9476047903
 30
0.0
 10
4.6186087655
 20
6.9214703004
 30
0.0
 10
4.6359391639
 20
6.8939324004
 30
0.0
 10
4.6456720771
 20
6.8746746955
 30
0.0
 10
4.6500361443
 20
6.8648920101
 30
0.0
 11
4.4640953612
 21
7.0503020754
 31
0.0
 11
4.523888871
 21
7.0151942229
 31
0.0
 11
4.5509332384
 21
6.9944146792
 31
0.0
 11
4.5757979077
 21
6.9716851015
 31
0.0
 11
4.598302312
 21
6.9471808984
 31
0.0
 11
4.618270172
 21
6.921080344
 31
0.0
 11
4.6355571289
 21
6.8935812458
 31
0.0
 11
4.6500361443
 21
6.8648920101
 31
0.0
  0
SPLINE
  5
3AC
100
AcDbEntity
  8
0
100
AcDbSpline
 62
6
  6
CONTINUOUS
 70
0
 71
3
 72
9
 73
5
 74
3
 42
0.0000001
 43
0.0000001
 44
0.0000000001
 12
-0.1048366459
 22
-0.0479291712
 32
0.0
 13
-0.0884692485
 23
-0.07389939
 33
0.0
 40
0.0
 40
0.0
 40
0.0
 40
0.0
 40
0.5045404578
 40
1.0
 40
1.0
 40
1.0
 40
1.0
 10
4.0605189462
 20
7.3788727001
 30
0.0
 10
4.0428875031
 20
7.3708119647
 30
0.0
 10
4.0089263673
 20
7.3525788196
 30
0.0
 10
3.9776714047
 20
7.3299969039
 30
0.0
 10
3.9630604269
 20
7.3177921846
 30
0.0
 11
4.0605189462
 21
7.3788727001
 31
0.0
 11
4.0093068555
 21
7.3513062182
 31
0.0
 11
3.9630604269
 21
7.3177921846
 31
0.0
  0
SPLINE
  5
3AD
100
AcDbEntity
  8
0
100
AcDbSpline
 62
6
  6
CONTINUOUS
 70
0
 71
3
 72
12
 73
8
 74
6
 42
0.0000001
 43
0.0000001
 44
0.0000000001
 12
-0.1693344465
 22
-0.15204299
 32
0.0
 13
-0.045625891
 23
-0.2229562819
 33
0.0
 40
0.0
 40
0.0
 40
0.0
 40
0.0
 40
0.2571331501
 40
0.5089478247
 40
0.6331594112
 40
0.7563314827
 40
1.0
 40
1.0
 40
1.0
 40
1.0
 10
3.9521140812
 20
7.3083121508
 30
0.0
 10
3.937600248
 20
7.2952803864
 30
0.0
 10
3.9106988057
 20
7.2673546787
 30
0.0
 10
3.8829700991
 20
7.2278835004
 30
0.0
 10
3.8650546846
 20
7.1944761157
 30
0.0
 10
3.8501686059
 20
7.1602977944
 30
0.0
 10
3.8422478533
 20
7.1334426729
 30
0.0
 10
3.8385419889
 20
7.1153335307
 30
0.0
 11
3.9521140812
 21
7.3083121508
 31
0.0
 11
3.9115950337
 21
7.2660923578
 31
0.0
 11
3.8787150116
 21
7.219156035
 31
0.0
 11
3.8653649925
 21
7.1942393968
 31
0.0
 11
3.8541821636
 21
7.1685355523
 31
0.0
 11
3.8385419889
 21
7.1153335307
 31
0.0
  0
SPLINE
  5
3AE
100
AcDbEntity
  8
0
100
AcDbSpline
 62
6
  6
CONTINUOUS
 70
0
 71
3
 72
19
 73
15
 74
13
 42
0.0000001
 43
0.0000001
 44
0.0000000001
 12
-0.3356114245
 22
-0.1631181733
 32
0.0
 13
-0.0252866356
 23
-0.3722944436
 33
0.0
 40
0.0
 40
0.0
 40
0.0
 40
0.0
 40
0.1321852589
 40
0.2622320729
 40
0.3899945485
 40
0.4530488917
 40
0.5155454938
 40
0.5775102822
 40
0.6389759388
 40
0.6999812934
 40
0.7605747967
 40
0.8806919599
 40
0.9404205102
 40
1.0
 40
1.0
 40
1.0
 40
1.0
 10
4.0599752792
 20
7.6352649217
 30
0.0
 10
4.0451876515
 20
7.6280776491
 30
0.0
 10
4.0166358217
 20
7.6121267626
 30
0.0
 10
3.9772917948
 20
7.5835639003
 30
0.0
 10
3.948037752
 20
7.5562455787
 30
0.0
 10
3.9271564962
 20
7.5326261419
 30
0.0
 10
3.9128669857
 20
7.5141699046
 30
0.0
 10
3.8999380644
 20
7.4949747017
 30
0.0
 10
3.8884151484
 20
7.4751179529
 30
0.0
 10
3.878344724
 20
7.4546740315
 30
0.0
 10
3.8669560398
 20
7.4268296231
 30
0.0
 10
3.8585605124
 20
7.3980004176
 30
0.0
 10
3.8533405641
 20
7.3686620484
 30
0.0
 10
3.8517997734
 20
7.3538858996
 30
0.0
 10
3.8512975851
 20
7.3464921953
 30
0.0
 11
4.0599752792
 21
7.6352649217
 31
0.0
 11
4.0169358058
 21
7.6111696708
 31
0.0
 11
3.9776983608
 21
7.5826159074
 31
0.0
 11
3.9428858128
 21
7.5500432541
 31
0.0
 11
3.9273077488
 21
7.5324100039
 31
0.0
 11
3.9130356731
 21
7.5139664416
 31
0.0
 11
3.9001230084
 21
7.4947856251
 31
0.0
 11
3.8886167139
 21
7.4749445728
 31
0.0
 11
3.8785636802
 21
7.4545203453
 31
0.0
 11
3.8700083966
 21
7.4335907891
 31
0.0
 11
3.857504084
 21
7.39054834
 31
0.0
 11
3.8536030679
 21
7.3686045507
 31
0.0
 11
3.8512975851
 21
7.3464921953
 31
0.0
  0
SPLINE
  5
3AF
100
AcDbEntity
  8
0
100
AcDbSpline
 62
6
  6
CONTINUOUS
 70
0
 71
3
 72
22
 73
18
 74
16
 42
0.0000001
 43
0.0000001
 44
0.0000000001
 12
1.1244545367
 22
-0.0000051588
 32
0.0
 13
0.4346922716
 23
1.0370345386
 33
0.0
 40
0.0
 40
0.0
 40
0.0
 40
0.0
 40
0.1330536898
 40
0.1993079131
 40
0.2651947826
 40
0.3305991924
 40
0.3954213397
 40
0.4595809411
 40
0.5230028096
 40
0.585619096
 40
0.6473764796
 40
0.7082462274
 40
0.7682347908
 40
0.8273623621
 40
0.8856607515
 40
0.9431805516
 40
1.0
 40
1.0
 40
1.0
 40
1.0
 10
4.2605794582
 20
2.0121146902
 30
0.0
 10
4.3104503999
 20
2.0121144614
 30
0.0
 10
4.3852707013
 20
2.0169434084
 30
0.0
 10
4.4834386418
 20
2.0328304144
 30
0.0
 10
4.555671006
 20
2.0493638593
 30
0.0
 10
4.6261428971
 20
2.0704554341
 30
0.0
 10
4.6944223045
 20
2.0960425726
 30
0.0
 10
4.7601188268
 20
2.1259242031
 30
0.0
 10
4.8228619786
 20
2.1598923904
 30
0.0
 10
4.8822792989
 20
2.1977444151
 30
0.0
 10
4.9380026448
 20
2.2392754771
 30
0.0
 10
4.9896519592
 20
2.2842954585
 30
0.0
 10
5.0369466069
 20
2.3325007558
 30
0.0
 10
5.0796399716
 20
2.3835777038
 30
0.0
 10
5.1174814085
 20
2.4372234473
 30
0.0
 10
5.1502219864
 20
2.4931252432
 30
0.0
 10
5.1685779068
 20
2.5319257062
 30
0.0
 10
5.1768108985
 20
2.5515669497
 30
0.0
 11
4.2605794582
 21
2.0121146902
 31
0.0
 11
4.4098829242
 21
2.0217309513
 31
0.0
 11
4.4834243517
 21
2.033642621
 31
0.0
 11
4.5556388879
 21
2.0501929415
 31
0.0
 11
4.6260865171
 21
2.0713091311
 31
0.0
 11
4.6943356073
 21
2.0969011082
 31
0.0
 11
4.7599974874
 21
2.1267901415
 31
0.0
 11
4.8226972094
 21
2.1607691816
 31
0.0
 11
4.8820598317
 21
2.1986311669
 31
0.0
 11
4.9377104122
 21
2.2401690356
 31
0.0
 11
4.9892861492
 21
2.2851656748
 31
0.0
 11
5.0365043748
 21
2.3333376262
 31
0.0
 11
5.0791149016
 21
2.3843745398
 31
0.0
 11
5.1168676343
 21
2.4379659892
 31
0.0
 11
5.149512478
 21
2.4938015482
 31
0.0
 11
5.1768108985
 21
2.5515669497
 31
0.0
  0
SPLINE
  5
3B0
100
AcDbEntity
  8
0
100
AcDbSpline
 62
6
  6
CONTINUOUS
 70
0
 71
3
 72
9
 73
5
 74
3
 42
0.0000001
 43
0.0000001
 44
0.0000000001
 12
0.1957203136
 22
0.0000025576
 32
0.0
 13
0.1848300125
 23
-0.0643762971
 33
0.0
 40
0.0
 40
0.0
 40
0.0
 40
0.0
 40
0.5022526033
 40
1.0
 40
1.0
 40
1.0
 40
1.0
 10
4.2605770875
 20
5.2566589848
 30
0.0
 10
4.2933440999
 20
5.256659413
 30
0.0
 10
4.3586907714
 20
5.2512124841
 30
0.0
 10
4.4222666485
 20
5.235087813
 30
0.0
 10
4.4529328677
 20
5.2244067682
 30
0.0
 11
4.2605770875
 21
5.2566589848
 31
0.0
 11
4.3585384752
 21
5.2484944021
 31
0.0
 11
4.4529328677
 21
5.2244067682
 31
0.0
  0
SPLINE
  5
3B1
100
AcDbEntity
  8
0
100
AcDbSpline
 62
6
  6
CONTINUOUS
 70
0
 71
3
 72
9
 73
5
 74
3
 42
0.0000001
 43
0.0000001
 44
0.0000000001
 12
0.0868878019
 22
-0.0514085204
 32
0.0
 13
0.0748960232
 23
-0.0676972067
 33
0.0
 40
0.0
 40
0.0
 40
0.0
 40
0.0
 40
0.5035949195
 40
1.0
 40
1.0
 40
1.0
 40
1.0
 10
4.5513126517
 20
5.1788243265
 30
0.0
 10
4.5658980702
 20
5.1701946366
 30
0.0
 10
4.5940563123
 20
5.1516569189
 30
0.0
 10
4.6202257815
 20
5.130393302
 30
0.0
 10
4.6326187036
 20
5.1191915562
 30
0.0
 11
4.5513126517
 21
5.1788243265
 31
0.0
 11
4.5937543971
 21
5.1508323263
 31
0.0
 11
4.6326187036
 21
5.1191915562
 31
0.0
  0
SPLINE
  5
3B2
100
AcDbEntity
  8
0
100
AcDbSpline
 62
6
  6
CONTINUOUS
 70
0
 71
3
 72
13
 73
9
 74
7
 42
0.0000001
 43
0.0000001
 44
0.0000000001
 12
0.1034538922
 22
-0.2322735369
 32
0.0
 13
-0.0575532289
 23
-0.2476718183
 33
0.0
 40
0.0
 40
0.0
 40
0.0
 40
0.0
 40
0.252118823
 40
0.5017263413
 40
0.6261443675
 40
0.7505171922
 40
0.8750689221
 40
1.0
 40
1.0
 40
1.0
 40
1.0
 10
4.7413547863
 20
4.9710798551
 30
0.0
 10
4.7500490108
 20
4.9515596782
 30
0.0
 10
4.7643224023
 20
4.911283078
 30
0.0
 10
4.7738803861
 20
4.8588351342
 30
0.0
 10
4.7763207916
 20
4.8166217867
 30
0.0
 10
4.7755262422
 20
4.7849505072
 30
0.0
 10
4.7721317368
 20
4.7534126679
 30
0.0
 10
4.7681688719
 20
4.7326142914
 30
0.0
 10
4.765772143
 20
4.7223003223
 30
0.0
 11
4.7413547863
 21
4.9710798551
 31
0.0
 11
4.7627235929
 21
4.9106396721
 31
0.0
 11
4.7740642605
 21
4.8481931509
 31
0.0
 11
4.7758839338
 21
4.8166096407
 31
0.0
 11
4.7750946437
 21
4.7849950986
 31
0.0
 11
4.7717120633
 21
4.7535063755
 31
0.0
 11
4.765772143
 21
4.7223003223
 31
0.0
  0
SPLINE
  5
3B3
100
AcDbEntity
  8
0
100
AcDbSpline
 62
6
  6
CONTINUOUS
 70
0
 71
3
 72
15
 73
11
 74
9
 42
0.0000001
 43
0.0000001
 44
0.0000000001
 12
-0.0308064301
 22
0.2195505727
 32
0.0
 13
-0.1553112316
 23
0.158208443
 33
0.0
 40
0.0
 40
0.0
 40
0.0
 40
0.0
 40
0.121937148
 40
0.2444305173
 40
0.3676629804
 40
0.4918060131
 40
0.6170083078
 40
0.7433838631
 40
0.8710248478
 40
1.0
 40
1.0
 40
1.0
 40
1.0
 10
4.6837151444
 20
7.1301331984
 30
0.0
 10
4.682462995
 20
7.1390569886
 30
0.0
 10
4.6791963916
 20
7.156848097
 30
0.0
 10
4.6720796826
 20
7.1831003277
 30
0.0
 10
4.6627773663
 20
7.2088351276
 30
0.0
 10
4.6513265418
 20
7.2339076933
 30
0.0
 10
4.6377954387
 20
7.2581865365
 30
0.0
 10
4.6222642792
 20
7.2815478231
 30
0.0
 10
4.6048092735
 20
7.3038612984
 30
0.0
 10
4.5920145332
 20
7.3178869604
 30
0.0
 10
4.5853374366
 20
7.3246886131
 30
0.0
 11
4.6837151444
 21
7.1301331984
 31
0.0
 11
4.678839304
 21
7.1567234855
 31
0.0
 11
4.6717402114
 21
7.1829361273
 31
0.0
 11
4.6624574848
 21
7.2086315998
 31
0.0
 11
4.6510327729
 21
7.2336710444
 31
0.0
 11
4.637529763
 21
7.2579228183
 31
0.0
 11
4.6220256481
 21
7.2812597012
 31
0.0
 11
4.6045980909
 21
7.3035547048
 31
0.0
 11
4.5853374366
 21
7.3246886131
 31
0.0
  0
SPLINE
  5
3B4
100
AcDbEntity
  8
0
100
AcDbSpline
 62
6
  6
CONTINUOUS
 70
0
 71
3
 72
10
 73
6
 74
4
 42
0.0000001
 43
0.0000001
 44
0.0000000001
 12
-0.1003741517
 22
0.0950164027
 32
0.0
 13
-0.125534082
 23
0.057829762
 33
0.0
 40
0.0
 40
0.0
 40
0.0
 40
0.0
 40
0.2457904144
 40
0.4945557094
 40
1.0
 40
1.0
 40
1.0
 40
1.0
 10
4.5750595087
 20
7.3347804641
 30
0.0
 10
4.5668358406
 20
7.3425651711
 30
0.0
 10
4.5496070828
 20
7.3575284271
 30
0.0
 10
4.5123916978
 20
7.3847452792
 30
0.0
 10
4.4818775063
 20
7.4017726305
 30
0.0
 10
4.4607273447
 20
7.4115158715
 30
0.0
 11
4.5750595087
 21
7.3347804641
 31
0.0
 11
4.5494201647
 21
7.3570671745
 31
0.0
 11
4.5216780021
 21
7.3773785295
 31
0.0
 11
4.4607273447
 21
7.4115158715
 31
0.0
  0
SPLINE
  5
3B5
100
AcDbEntity
  8
0
100
AcDbSpline
 62
6
  6
CONTINUOUS
 70
0
 71
3
 72
14
 73
10
 74
8
 42
0.0000001
 43
0.0000001
 44
0.0000000001
 12
-0.2864010693
 22
-0.12341861
 32
0.0
 13
-0.1251390052
 23
-0.285653558
 33
0.0
 40
0.0
 40
0.0
 40
0.0
 40
0.0
 40
0.2593754158
 40
0.3868862893
 40
0.5127317653
 40
0.6368987593
 40
0.7594210281
 40
0.8804036645
 40
1.0
 40
1.0
 40
1.0
 40
1.0
 10
4.0601148779
 20
7.0835059902
 30
0.0
 10
4.0353530791
 20
7.0728354057
 30
0.0
 10
3.9996507904
 20
7.0537433314
 30
0.0
 10
3.9563734398
 20
7.022542168
 30
0.0
 10
3.9267244194
 20
6.996738727
 30
0.0
 10
3.8999691826
 20
6.9686622081
 30
0.0
 10
3.8763501538
 20
6.9385335826
 30
0.0
 10
3.8560753832
 20
6.9066249727
 30
0.0
 10
3.8448352526
 20
6.8842260627
 30
0.0
 10
3.8398465304
 20
6.8728383564
 30
0.0
 11
4.0601148779
 21
7.0835059902
 31
0.0
 11
3.9888516823
 21
7.0452355129
 31
0.0
 11
3.9566095658
 21
7.0219597421
 31
0.0
 11
3.9270180348
 21
6.9961795162
 31
0.0
 11
3.9003247913
 21
6.9681271342
 31
0.0
 11
3.8767691963
 21
6.9380416166
 31
0.0
 11
3.8565526295
 21
6.9061851865
 31
0.0
 11
3.8398465304
 21
6.8728383564
 31
0.0
  0
SPLINE
  5
3B6
100
AcDbEntity
  8
0
100
AcDbSpline
 62
6
  6
CONTINUOUS
 70
0
 71
3
 72
10
 73
6
 74
4
 42
0.0000001
 43
0.0000001
 44
0.0000000001
 12
-0.1255370589
 22
-0.0578303831
 32
0.0
 13
-0.1003760965
 23
-0.0950186593
 33
0.0
 40
0.0
 40
0.0
 40
0.0
 40
0.0
 40
0.5054443343
 40
0.7542096581
 40
1.0
 40
1.0
 40
1.0
 40
1.0
 10
4.0604441644
 20
7.4115167849
 30
0.0
 10
4.0392934994
 20
7.4017734384
 30
0.0
 10
4.0087785977
 20
7.3847457999
 30
0.0
 10
3.9715623812
 20
7.3575284086
 30
0.0
 10
3.9543332699
 20
7.3425648134
 30
0.0
 10
3.9461094449
 20
7.3347799238
 30
0.0
 11
4.0604441644
 21
7.4115167849
 31
0.0
 11
3.9994920882
 21
7.3773788982
 31
0.0
 11
3.9717493074
 21
7.3570671329
 31
0.0
 11
3.9461094449
 21
7.3347799238
 31
0.0
  0
SPLINE
  5
3B7
100
AcDbEntity
  8
0
100
AcDbSpline
 62
6
  6
CONTINUOUS
 70
0
 71
3
 72
15
 73
11
 74
9
 42
0.0000001
 43
0.0000001
 44
0.0000000001
 12
-0.155332452
 22
-0.1582299738
 32
0.0
 13
-0.0307901263
 23
-0.2195833859
 33
0.0
 40
0.0
 40
0.0
 40
0.0
 40
0.0
 40
0.1289755334
 40
0.2566167153
 40
0.382992304
 40
0.5081945117
 40
0.6323373822
 40
0.755569659
 40
0.8780628847
 40
1.0
 40
1.0
 40
1.0
 40
1.0
 10
3.9358322246
 20
7.324688748
 30
0.0
 10
3.929154196
 20
7.3178861496
 30
0.0
 10
3.9163577454
 20
7.3038584781
 30
0.0
 10
3.898900664
 20
7.281541655
 30
0.0
 10
3.8833680028
 20
7.2581767502
 30
0.0
 10
3.8698359899
 20
7.2338940839
 30
0.0
 10
3.858384867
 20
7.2088175482
 30
0.0
 10
3.849082899
 20
7.1830786835
 30
0.0
 10
3.8419671897
 20
7.1568223579
 30
0.0
 10
3.8387016938
 20
7.1390285442
 30
0.0
 10
3.8374502074
 20
7.1301034227
 30
0.0
 11
3.9358322246
 21
7.324688748
 31
0.0
 11
3.9165689893
 21
7.3035518024
 31
0.0
 11
3.8991393714
 21
7.2812534564
 31
0.0
 11
3.8836337646
 21
7.2579129692
 31
0.0
 11
3.8701298543
 21
7.2336573866
 31
0.0
 11
3.8587048554
 21
7.2086139875
 31
0.0
 11
3.8494224821
 21
7.1829144703
 31
0.0
 11
3.8423243922
 21
7.1566977536
 31
0.0
 11
3.8374502074
 21
7.1301034227
 31
0.0
  0
SPLINE
  5
3B8
100
AcDbEntity
  8
0
100
AcDbSpline
 62
6
  6
CONTINUOUS
 70
0
 71
3
 72
9
 73
5
 74
3
 42
0.0000001
 43
0.0000001
 44
0.0000000001
 12
0.0011799646
 22
0.0793459386
 32
0.0
 13
-0.0166898053
 23
0.0775797698
 33
0.0
 40
0.0
 40
0.0
 40
0.0
 40
0.0
 40
0.5087333274
 40
1.0
 40
1.0
 40
1.0
 40
1.0
 10
3.8754221631
 20
4.1925133399
 30
0.0
 10
3.8756222588
 20
4.2059686477
 30
0.0
 10
3.8746826007
 20
4.2324591713
 30
0.0
 10
3.8707549745
 20
4.2586903463
 30
0.0
 10
3.8680219261
 20
4.2713944647
 30
0.0
 11
3.8754221631
 21
4.1925133399
 31
0.0
 11
3.8738928732
 21
4.2328547502
 31
0.0
 11
3.8680219261
 21
4.2713944647
 31
0.0
  0
SPLINE
  5
3B9
100
AcDbEntity
  8
0
100
AcDbSpline
 62
6
  6
CONTINUOUS
 70
0
 71
3
 72
9
 73
5
 74
3
 42
0.0000001
 43
0.0000001
 44
0.0000000001
 12
-0.0011799646
 22
0.0793459386
 32
0.0
 13
0.0166898053
 23
0.0775797698
 33
0.0
 40
0.0
 40
0.0
 40
0.0
 40
0.0
 40
0.5087333274
 40
1.0
 40
1.0
 40
1.0
 40
1.0
 10
4.6457473663
 20
4.1925133399
 30
0.0
 10
4.6455472706
 20
4.2059686477
 30
0.0
 10
4.6464869287
 20
4.2324591713
 30
0.0
 10
4.6504145549
 20
4.2586903463
 30
0.0
 10
4.6531476032
 20
4.2713944647
 30
0.0
 11
4.6457473663
 21
4.1925133399
 31
0.0
 11
4.6472766562
 21
4.2328547502
 31
0.0
 11
4.6531476032
 21
4.2713944647
 31
0.0
  0
SPLINE
  5
3BA
100
AcDbEntity
  8
0
100
AcDbSpline
 62
9
  6
CONTINUOUS
 70
0
 71
3
 72
14
 73
10
 74
8
 42
0.0000001
 43
0.0000001
 44
0.0000000001
 12
-0.2214214177
 22
-0.3763152487
 32
0.0
 13
0.0000043234
 23
-0.4366241068
 33
0.0
 40
0.0
 40
0.0
 40
0.0
 40
0.0
 40
0.2566871859
 40
0.3830564018
 40
0.5085121914
 40
0.6330086101
 40
0.7563791267
 40
0.8786784523
 40
1.0
 40
1.0
 40
1.0
 40
1.0
 10
3.4126792994
 20
3.454927899
 30
0.0
 10
3.3937339525
 20
3.4227294649
 30
0.0
 10
3.3683787219
 20
3.3728584013
 30
0.0
 10
3.3413341974
 20
3.3039278614
 30
0.0
 10
3.3247135431
 20
3.2516948929
 30
0.0
 10
3.3117160668
 20
3.1988971625
 30
0.0
 10
3.3024128019
 20
3.1457886095
 30
0.0
 10
3.2968200637
 20
3.0926294396
 30
0.0
 10
3.2955654078
 20
3.0571604076
 30
0.0
 10
3.2955655827
 20
3.0395031035
 30
0.0
 11
3.4126792994
 21
3.454927899
 31
0.0
 11
3.3619902388
 21
3.3549698725
 31
0.0
 11
3.3418574531
 21
3.3035982371
 31
0.0
 11
3.325259957
 21
3.251396271
 31
0.0
 11
3.3122823546
 21
3.1986100136
 31
0.0
 11
3.302998808
 21
3.1455494815
 31
0.0
 11
3.297424602
 21
3.0924423852
 31
0.0
 11
3.2955655827
 21
3.0395031035
 31
0.0
  0
SPLINE
  5
3BB
100
AcDbEntity
  8
0
100
AcDbSpline
 62
9
  6
CONTINUOUS
 70
0
 71
3
 72
9
 73
5
 74
3
 42
0.0000001
 43
0.0000001
 44
0.0000000001
 12
0.0361336336
 22
0.0369369336
 32
0.0
 13
0.044978299
 23
0.0254348021
 33
0.0
 40
0.0
 40
0.0
 40
0.0
 40
0.0
 40
0.4805237734
 40
1.0
 40
1.0
 40
1.0
 40
1.0
 10
3.60390486
 20
3.7024869622
 30
0.0
 10
3.60969255
 20
3.7084033205
 30
0.0
 10
3.6228429241
 20
3.719653907
 30
0.0
 10
3.637401721
 20
3.7289434225
 30
0.0
 10
3.6451901067
 20
3.7333476809
 30
0.0
 11
3.60390486
 21
3.7024869622
 31
0.0
 11
3.622655894
 21
3.7187628517
 31
0.0
 11
3.6451901067
 21
3.7333476809
 31
0.0
  0
SPLINE
  5
3BC
100
AcDbEntity
  8
0
100
AcDbSpline
 62
9
  6
CONTINUOUS
 70
0
 71
3
 72
10
 73
6
 74
4
 42
0.0000001
 43
0.0000001
 44
0.0000000001
 12
0.0690914811
 22
0.0359408667
 32
0.0
 13
0.0748535847
 23
0.0215016166
 33
0.0
 40
0.0
 40
0.0
 40
0.0
 40
0.0
 40
0.2330685686
 40
0.4774939926
 40
1.0
 40
1.0
 40
1.0
 40
1.0
 10
3.6532267595
 20
3.7377056048
 30
0.0
 10
3.6585944437
 20
3.7404978335
 30
0.0
 10
3.6697821047
 20
3.7458572823
 30
0.0
 10
3.6937954237
 20
3.7557448534
 30
0.0
 10
3.7127532967
 20
3.7619389449
 30
0.0
 10
3.725790446
 20
3.7656838529
 30
0.0
 11
3.6532267595
 21
3.7377056048
 31
0.0
 11
3.6695823795
 21
3.7455777626
 31
0.0
 11
3.687172768
 21
3.7528542268
 31
0.0
 11
3.725790446
 21
3.7656838529
 31
0.0
  0
SPLINE
  5
3BD
100
AcDbEntity
  8
0
100
AcDbSpline
 62
9
  6
CONTINUOUS
 70
0
 71
3
 72
9
 73
5
 74
3
 42
0.0000001
 43
0.0000001
 44
0.0000000001
 12
-0.0361336021
 22
0.036936864
 32
0.0
 13
-0.0449782364
 23
0.025434767
 33
0.0
 40
0.0
 40
0.0
 40
0.0
 40
0.0
 40
0.4805237998
 40
1.0
 40
1.0
 40
1.0
 40
1.0
 10
4.9172646199
 20
3.7024870127
 30
0.0
 10
4.9114769346
 20
3.7084033602
 30
0.0
 10
4.8983265755
 20
3.7196539266
 30
0.0
 10
4.8837677982
 20
3.7289434282
 30
0.0
 10
4.8759794238
 20
3.7333476802
 30
0.0
 11
4.9172646199
 21
3.7024870127
 31
0.0
 11
4.8985136054
 21
3.718762874
 31
0.0
 11
4.8759794238
 21
3.7333476802
 31
0.0
  0
SPLINE
  5
3BE
100
AcDbEntity
  8
0
100
AcDbSpline
 62
9
  6
CONTINUOUS
 70
0
 71
3
 72
10
 73
6
 74
4
 42
0.0000001
 43
0.0000001
 44
0.0000000001
 12
-0.0690914811
 22
0.0359408667
 32
0.0
 13
-0.0748535847
 23
0.0215016166
 33
0.0
 40
0.0
 40
0.0
 40
0.0
 40
0.0
 40
0.2330685686
 40
0.4774939926
 40
1.0
 40
1.0
 40
1.0
 40
1.0
 10
4.8679427699
 20
3.7377056048
 30
0.0
 10
4.8625750857
 20
3.7404978335
 30
0.0
 10
4.8513874247
 20
3.7458572823
 30
0.0
 10
4.8273741057
 20
3.7557448534
 30
0.0
 10
4.8084162326
 20
3.7619389449
 30
0.0
 10
4.7953790834
 20
3.7656838529
 30
0.0
 11
4.8679427699
 21
3.7377056048
 31
0.0
 11
4.8515871498
 21
3.7455777626
 31
0.0
 11
4.8339967614
 21
3.7528542268
 31
0.0
 11
4.7953790834
 21
3.7656838529
 31
0.0
  0
SPLINE
  5
3BF
100
AcDbEntity
  8
0
100
AcDbSpline
 62
9
  6
CONTINUOUS
 70
0
 71
3
 72
14
 73
10
 74
8
 42
0.0000001
 43
0.0000001
 44
0.0000000001
 12
0.2213748287
 22
-0.3762801483
 32
0.0
 13
-0.0000054698
 23
-0.4365702289
 33
0.0
 40
0.0
 40
0.0
 40
0.0
 40
0.0
 40
0.2566848098
 40
0.3830537234
 40
0.5085095588
 40
0.6330061764
 40
0.7563771878
 40
0.8786773356
 40
1.0
 40
1.0
 40
1.0
 40
1.0
 10
5.1085162012
 20
3.4548837553
 30
0.0
 10
5.1274573865
 20
3.4226886225
 30
0.0
 10
5.1528069258
 20
3.372822879
 30
0.0
 10
5.1798451879
 20
3.3039001157
 30
0.0
 10
5.1964619599
 20
3.2516730263
 30
0.0
 10
5.2094563327
 20
3.1988813387
 30
0.0
 10
5.2187572997
 20
3.1457789223
 30
0.0
 10
5.2243485875
 20
3.0926258848
 30
0.0
 10
5.2256028491
 20
3.0571609466
 30
0.0
 10
5.2256026279
 20
3.0395056588
 30
0.0
 11
5.1085162012
 21
3.4548837553
 31
0.0
 11
5.1591938266
 21
3.3549365995
 31
0.0
 11
5.1793220146
 21
3.3035706167
 31
0.0
 11
5.1959156509
 21
3.2513744951
 31
0.0
 11
5.2088901544
 21
3.1985942939
 31
0.0
 11
5.2181714169
 21
3.1455398908
 31
0.0
 11
5.2237441843
 21
3.092438908
 31
0.0
 11
5.2256026279
 21
3.0395056588
 31
0.0
  0
SPLINE
  5
3C0
100
AcDbEntity
  8
0
100
AcDbSpline
 62
9
  6
CONTINUOUS
 70
0
 71
3
 72
11
 73
7
 74
5
 42
0.0000001
 43
0.0000001
 44
0.0000000001
 12
0.058334677
 22
-0.1127301425
 32
0.0
 13
-0.0026397266
 23
-0.1269017392
 33
0.0
 40
0.0
 40
0.0
 40
0.0
 40
0.0
 40
0.2588199994
 40
0.5100843194
 40
0.7562388327
 40
1.0
 40
1.0
 40
1.0
 40
1.0
 10
5.2255847642
 20
3.0395401812
 30
0.0
 10
5.2306174912
 20
3.0298145761
 30
0.0
 10
5.2394877529
 20
3.0100780521
 30
0.0
 10
5.2490361992
 20
2.9794565268
 30
0.0
 10
5.2545305582
 20
2.9484976856
 30
0.0
 10
5.2554673404
 20
2.9277203609
 30
0.0
 10
5.2552528528
 20
2.9174091222
 30
0.0
 11
5.2255847642
 21
3.0395401812
 31
0.0
 11
5.2389935606
 21
3.0095494192
 31
0.0
 11
5.2484390379
 21
2.9790874399
 31
0.0
 11
5.253867962
 21
2.9483185206
 31
0.0
 11
5.2552528528
 21
2.9174091222
 31
0.0
  0
SPLINE
  5
3C1
100
AcDbEntity
  8
0
100
AcDbSpline
 62
9
  6
CONTINUOUS
 70
0
 71
3
 72
11
 73
7
 74
5
 42
0.0000001
 43
0.0000001
 44
0.0000000001
 12
0.1926060793
 22
-0.1853167362
 32
0.0
 13
0.1355731301
 23
-0.2303460894
 33
0.0
 40
0.0
 40
0.0
 40
0.0
 40
0.0
 40
0.2540612842
 40
0.5056142005
 40
0.7544062676
 40
1.0
 40
1.0
 40
1.0
 40
1.0
 10
4.9426807878
 20
3.6637149663
 30
0.0
 10
4.9589920371
 20
3.6480210303
 30
0.0
 10
4.9904407425
 20
3.615714679
 30
0.0
 10
5.0340475887
 20
3.564503219
 30
0.0
 10
5.0736262215
 20
3.5110526243
 30
0.0
 10
5.097335504
 20
3.4738803935
 30
0.0
 10
5.1084341411
 20
3.4550232082
 30
0.0
 11
4.9426807878
 21
3.6637149663
 31
0.0
 11
4.9900355447
 21
3.6150453112
 31
0.0
 11
5.0336071924
 21
3.5638387136
 31
0.0
 11
5.0731571744
 21
3.5103810825
 31
0.0
 11
5.1084341411
 21
3.4550232082
 31
0.0
  0
SPLINE
  5
3C2
100
AcDbEntity
  8
0
100
AcDbSpline
 62
9
  6
CONTINUOUS
 70
0
 71
3
 72
15
 73
11
 74
9
 42
0.0000001
 43
0.0000001
 44
0.0000000001
 12
0.2935764874
 22
-0.0990268959
 32
0.0
 13
0.1423954178
 23
-0.2751672674
 33
0.0
 40
0.0
 40
0.0
 40
0.0
 40
0.0
 40
0.1471290832
 40
0.2884608444
 40
0.4235159833
 40
0.5519220031
 40
0.673504355
 40
0.7884180082
 40
0.8970407413
 40
1.0
 40
1.0
 40
1.0
 40
1.0
 10
4.9808584047
 20
3.2179205713
 30
0.0
 10
4.9952562845
 20
3.2130639925
 30
0.0
 10
5.0231929365
 20
3.2026434267
 30
0.0
 10
5.0630612032
 20
3.1845675501
 30
0.0
 10
5.0997849245
 20
3.1645023012
 30
0.0
 10
5.1330407861
 20
3.1426074449
 30
0.0
 10
5.1625125343
 20
3.1190260624
 30
0.0
 10
5.1879725305
 20
3.0939819146
 30
0.0
 10
5.20921127
 20
3.0676942072
 30
0.0
 10
5.2206977879
 20
3.0490104143
 30
0.0
 10
5.2255847634
 20
3.0395667417
 30
0.0
 11
4.9808584047
 21
3.2179205713
 31
0.0
 11
5.0235509573
 21
3.2019420338
 31
0.0
 11
5.0634053189
 21
3.1838018123
 31
0.0
 11
5.1000867716
 21
3.163667722
 31
0.0
 11
5.1332605978
 21
3.141707578
 31
0.0
 11
5.1626139463
 21
3.1180986325
 31
0.0
 11
5.1879214341
 21
3.0930558861
 31
0.0
 11
5.2089795451
 21
3.0668037766
 31
0.0
 11
5.2255847634
 21
3.0395667417
 31
0.0
  0
SPLINE
  5
3C3
100
AcDbEntity
  8
0
100
AcDbSpline
 62
9
  6
CONTINUOUS
 70
0
 71
3
 72
11
 73
7
 74
5
 42
0.0000001
 43
0.0000001
 44
0.0000000001
 12
-0.0000005901
 22
-0.2224118736
 32
0.0
 13
-0.0720968628
 23
-0.2104021955
 33
0.0
 40
0.0
 40
0.0
 40
0.0
 40
0.0
 40
0.2486566332
 40
0.4978681274
 40
0.7481562338
 40
1.0
 40
1.0
 40
1.0
 40
1.0
 10
5.2255882574
 20
3.0395334347
 30
0.0
 10
5.2255882085
 20
3.0210987055
 30
0.0
 10
5.2240230788
 20
2.9841698084
 30
0.0
 10
5.2170461712
 20
2.9290822758
 30
0.0
 10
5.2055052808
 20
2.8745267031
 30
0.0
 10
5.1948468559
 20
2.8388084243
 30
0.0
 10
5.188794474
 20
2.8211455972
 30
0.0
 11
5.2255882574
 21
3.0395334347
 31
0.0
 11
5.2232571062
 21
2.9842783996
 31
0.0
 11
5.2163058522
 21
2.9292884151
 31
0.0
 11
5.204797355
 21
2.874823981
 31
0.0
 11
5.188794474
 21
2.8211455972
 31
0.0
  0
SPLINE
  5
3C4
100
AcDbEntity
  8
0
100
AcDbSpline
 62
9
  6
CONTINUOUS
 70
0
 71
3
 72
18
 73
14
 74
12
 42
0.0000001
 43
0.0000001
 44
0.0000000001
 12
-0.2704582116
 22
-0.7347550232
 32
0.0
 13
-0.7427160974
 23
-0.2477607453
 33
0.0
 40
0.0
 40
0.0
 40
0.0
 40
0.0
 40
0.0581408705
 40
0.1167388857
 40
0.2354754984
 40
0.3565884624
 40
0.4181172889
 40
0.4802947099
 40
0.543129862
 40
0.6066255238
 40
0.7354893611
 40
0.8667151983
 40
1.0
 40
1.0
 40
1.0
 40
1.0
 10
5.183505127
 20
2.806260179
 30
0.0
 10
5.1782635684
 20
2.7920204135
 30
0.0
 10
5.1668078582
 20
2.7637612418
 30
0.0
 10
5.1400951171
 20
2.7083771905
 30
0.0
 10
5.0996061677
 20
2.6415858447
 30
0.0
 10
5.0509352003
 20
2.5795565921
 30
0.0
 10
5.0073014396
 20
2.5328432039
 30
0.0
 10
4.9720871583
 20
2.4991872565
 30
0.0
 10
4.9346550583
 20
2.4672215589
 30
0.0
 10
4.8816798019
 20
2.4268099489
 30
0.0
 10
4.810492813
 20
2.3810600597
 30
0.0
 10
4.7187906648
 20
2.3345500146
 30
0.0
 10
4.654318246
 20
2.3095074362
 30
0.0
 10
4.6213206568
 20
2.2984998556
 30
0.0
 11
5.183505127
 21
2.806260179
 31
0.0
 11
5.1664093741
 21
2.764070856
 31
0.0
 11
5.1464870289
 21
2.7227426784
 31
0.0
 11
5.0984103038
 21
2.6431743751
 31
0.0
 11
5.0399687477
 21
2.5684986245
 31
0.0
 11
5.0070942935
 21
2.5332848321
 31
0.0
 11
4.9719083944
 21
2.4996414288
 31
0.0
 11
4.9345043878
 21
2.4676840958
 31
0.0
 11
4.8949893901
 21
2.4375171065
 31
0.0
 11
4.8101746305
 21
2.3828721134
 31
0.0
 11
4.7185788952
 21
2.3363271554
 31
0.0
 11
4.6213206568
 21
2.2984998556
 31
0.0
  0
SPLINE
  5
3C5
100
AcDbEntity
  8
0
100
AcDbSpline
 62
9
  6
CONTINUOUS
 70
0
 71
3
 72
11
 73
7
 74
5
 42
0.0000001
 43
0.0000001
 44
0.0000000001
 12
0.0000005901
 22
-0.2224118012
 32
0.0
 13
0.0720968175
 23
-0.2104021346
 33
0.0
 40
0.0
 40
0.0
 40
0.0
 40
0.0
 40
0.248656634
 40
0.4978681287
 40
0.7481562349
 40
1.0
 40
1.0
 40
1.0
 40
1.0
 10
3.2955812719
 20
3.0395334347
 30
0.0
 10
3.2955813208
 20
3.0210987114
 30
0.0
 10
3.2971464496
 20
2.9841698263
 30
0.0
 10
3.3041233526
 20
2.9290823112
 30
0.0
 10
3.3156642357
 20
2.8745267556
 30
0.0
 10
3.3263226539
 20
2.8388084876
 30
0.0
 10
3.3323750319
 20
2.8211456657
 30
0.0
 11
3.2955812719
 21
3.0395334347
 31
0.0
 11
3.2979124217
 21
2.9842784173
 31
0.0
 11
3.3048636712
 21
2.9292884503
 31
0.0
 11
3.3163721611
 21
2.8748240333
 31
0.0
 11
3.3323750319
 21
2.8211456657
 31
0.0
  0
SPLINE
  5
3C6
100
AcDbEntity
  8
0
100
AcDbSpline
 62
9
  6
CONTINUOUS
 70
0
 71
3
 72
18
 73
14
 74
12
 42
0.0000001
 43
0.0000001
 44
0.0000000001
 12
0.2704580873
 22
-0.7347549388
 32
0.0
 13
0.7427159354
 23
-0.247760845
 33
0.0
 40
0.0
 40
0.0
 40
0.0
 40
0.0
 40
0.0581408713
 40
0.1167388869
 40
0.2354755003
 40
0.3565884645
 40
0.4181172909
 40
0.4802947117
 40
0.5431298635
 40
0.606625525
 40
0.7354893616
 40
0.8667151984
 40
1.0
 40
1.0
 40
1.0
 40
1.0
 10
3.3376643753
 20
2.8062602526
 30
0.0
 10
3.3429059316
 20
2.7920204885
 30
0.0
 10
3.3543616368
 20
2.7637613196
 30
0.0
 10
3.3810743671
 20
2.7083772732
 30
0.0
 10
3.4215633016
 20
2.6415859322
 30
0.0
 10
3.4702342528
 20
2.5795566824
 30
0.0
 10
3.5138679998
 20
2.5328432951
 30
0.0
 10
3.5490822704
 20
2.4991873476
 30
0.0
 10
3.5865143593
 20
2.4672216493
 30
0.0
 10
3.6394896007
 20
2.4268100372
 30
0.0
 10
3.7106765706
 20
2.3810601436
 30
0.0
 10
3.8023786962
 20
2.3345500903
 30
0.0
 10
3.8668511002
 20
2.3095075041
 30
0.0
 10
3.8998486823
 20
2.2984999191
 30
0.0
 11
3.3376643753
 21
2.8062602526
 31
0.0
 11
3.3547601208
 21
2.7640709337
 31
0.0
 11
3.374682458
 21
2.7227427597
 31
0.0
 11
3.4227591655
 21
2.6431744621
 31
0.0
 11
3.4812007021
 21
2.5684987148
 31
0.0
 11
3.5140751459
 21
2.5332849231
 31
0.0
 11
3.5492610343
 21
2.4996415198
 31
0.0
 11
3.5866650298
 21
2.467684186
 31
0.0
 11
3.6261800163
 21
2.4375171952
 31
0.0
 11
3.7109947532
 21
2.3828721969
 31
0.0
 11
3.8025904659
 21
2.3363272306
 31
0.0
 11
3.8998486823
 21
2.2984999191
 31
0.0
  0
SPLINE
  5
3C7
100
AcDbEntity
  8
0
100
AcDbSpline
 62
9
  6
CONTINUOUS
 70
0
 71
3
 72
15
 73
11
 74
9
 42
0.0000001
 43
0.0000001
 44
0.0000000001
 12
0.1423998257
 22
0.2751710841
 32
0.0
 13
0.2935833315
 23
0.0990235494
 33
0.0
 40
0.0
 40
0.0
 40
0.0
 40
0.0
 40
0.1029417266
 40
0.2115392959
 40
0.326469248
 40
0.4480834454
 40
0.5764825749
 40
0.7115159391
 40
0.8528571718
 40
1.0
 40
1.0
 40
1.0
 40
1.0
 10
3.2955847659
 20
3.0395684312
 30
0.0
 10
3.3004710605
 20
3.0490106268
 30
0.0
 10
3.3119433052
 20
3.0676975377
 30
0.0
 10
3.3331683613
 20
3.0939951303
 30
0.0
 10
3.3586442445
 20
3.1190285603
 30
0.0
 10
3.3881286681
 20
3.1426005562
 30
0.0
 10
3.421376267
 20
3.1645087866
 30
0.0
 10
3.4580933587
 20
3.1845848847
 30
0.0
 10
3.4979693188
 20
3.2026470818
 30
0.0
 10
3.5259115077
 20
3.2130602197
 30
0.0
 10
3.5403110683
 20
3.2179170881
 30
0.0
 11
3.2955847659
 21
3.0395684312
 31
0.0
 11
3.3121766842
 21
3.0668078627
 31
0.0
 11
3.333220901
 21
3.0930618739
 31
0.0
 11
3.3585405756
 21
3.1181003662
 31
0.0
 11
3.3879091255
 21
3.1417072026
 31
0.0
 11
3.4210764848
 21
3.1636745059
 31
0.0
 11
3.457748396
 21
3.1838134765
 31
0.0
 11
3.4976103559
 21
3.2019459329
 31
0.0
 11
3.5403110683
 21
3.2179170881
 31
0.0
  0
SPLINE
  5
3C8
100
AcDbEntity
  8
0
100
AcDbSpline
 62
9
  6
CONTINUOUS
 70
0
 71
3
 72
11
 73
7
 74
5
 42
0.0000001
 43
0.0000001
 44
0.0000000001
 12
-0.058334677
 22
-0.1127301425
 32
0.0
 13
0.0026397266
 23
-0.1269017392
 33
0.0
 40
0.0
 40
0.0
 40
0.0
 40
0.0
 40
0.2588199994
 40
0.5100843194
 40
0.7562388327
 40
1.0
 40
1.0
 40
1.0
 40
1.0
 10
3.2955847652
 20
3.0395401812
 30
0.0
 10
3.2905520382
 20
3.0298145761
 30
0.0
 10
3.2816817764
 20
3.0100780521
 30
0.0
 10
3.2721333301
 20
2.9794565268
 30
0.0
 10
3.2666389711
 20
2.9484976856
 30
0.0
 10
3.265702189
 20
2.9277203609
 30
0.0
 10
3.2659166766
 20
2.9174091222
 30
0.0
 11
3.2955847652
 21
3.0395401812
 31
0.0
 11
3.2821759688
 21
3.0095494192
 31
0.0
 11
3.2727304915
 21
2.9790874399
 31
0.0
 11
3.2673015674
 21
2.9483185206
 31
0.0
 11
3.2659166766
 21
2.9174091222
 31
0.0
  0
SPLINE
  5
3C9
100
AcDbEntity
  8
0
100
AcDbSpline
 62
6
  6
CONTINUOUS
 70
0
 71
3
 72
9
 73
5
 74
3
 42
0.0000001
 43
0.0000001
 44
0.0000000001
 12
-0.019263491
 22
-0.0876968112
 32
0.0
 13
-0.0320971536
 23
-0.0838545497
 33
0.0
 40
0.0
 40
0.0
 40
0.0
 40
0.0
 40
0.4889699513
 40
1.0
 40
1.0
 40
1.0
 40
1.0
 10
3.8641950489
 20
4.0998065003
 30
0.0
 10
3.8610552929
 20
4.0855127985
 30
0.0
 10
3.8534628612
 20
4.0565274034
 30
0.0
 10
3.8437039675
 20
4.0282031781
 30
0.0
 10
3.8382364308
 20
4.0139191132
 30
0.0
 11
3.8641950489
 21
4.0998065003
 31
0.0
 11
3.8531123681
 21
4.0573249042
 31
0.0
 11
3.8382364308
 21
4.0139191132
 31
0.0
  0
SPLINE
  5
3CA
100
AcDbEntity
  8
0
100
AcDbSpline
 62
6
  6
CONTINUOUS
 70
0
 71
3
 72
17
 73
13
 74
11
 42
0.0000001
 43
0.0000001
 44
0.0000000001
 12
-0.4231252661
 22
0.0
 32
0.0
 13
-0.2209927046
 23
-0.3608285123
 33
0.0
 40
0.0
 40
0.0
 40
0.0
 40
0.0
 40
0.1341086912
 40
0.268568472
 40
0.4018114705
 40
0.5322017113
 40
0.6581886108
 40
0.7191445972
 40
0.7785562683
 40
0.8363470546
 40
0.8924941691
 40
1.0
 40
1.0
 40
1.0
 40
1.0
 10
4.2605847647
 20
4.3386146566
 30
0.0
 10
4.2416698395
 20
4.3386146566
 30
0.0
 10
4.2037625657
 20
4.3364722
 30
0.0
 10
4.1477313113
 20
4.3273768098
 30
0.0
 10
4.0934070507
 20
4.3127962027
 30
0.0
 10
4.0419868734
 20
4.2931372203
 30
0.0
 10
4.0020831206
 20
4.272620029
 30
0.0
 10
3.9727796651
 20
4.2539091738
 30
0.0
 10
3.952530188
 20
4.2389981792
 30
0.0
 10
3.9339180483
 20
4.2231017357
 30
0.0
 10
3.9118266237
 20
4.201001478
 30
0.0
 10
3.8976169498
 20
4.1825781116
 30
0.0
 10
3.889697615
 20
4.169647722
 30
0.0
 11
4.2605847647
 21
4.3386146566
 31
0.0
 11
4.2039258989
 21
4.3354933599
 31
0.0
 11
4.1477632557
 21
4.3264044343
 31
0.0
 11
4.0933198627
 21
4.3117603273
 31
0.0
 11
4.0418187474
 21
4.2919734859
 31
0.0
 11
3.9944829374
 21
4.2674563574
 31
0.0
 11
3.9727592181
 21
4.2535528253
 31
0.0
 11
3.9525354603
 21
4.2386213892
 31
0.0
 11
3.9339645427
 21
4.2227136048
 31
0.0
 11
3.9171993437
 21
4.2058810283
 31
0.0
 11
3.889697615
 21
4.169647722
 31
0.0
  0
SPLINE
  5
3CB
100
AcDbEntity
  8
0
100
AcDbSpline
 62
6
  6
CONTINUOUS
 70
0
 71
3
 72
9
 73
5
 74
3
 42
0.0000001
 43
0.0000001
 44
0.0000000001
 12
-0.0172918472
 22
-0.0358743175
 32
0.0
 13
-0.0088153946
 23
-0.0388363676
 33
0.0
 40
0.0
 40
0.0
 40
0.0
 40
0.0
 40
0.5022534062
 40
1.0
 40
1.0
 40
1.0
 40
1.0
 10
3.8800510442
 20
4.1519971574
 30
0.0
 10
3.8771560811
 20
4.145991158
 30
0.0
 10
3.8720147717
 20
4.1337206447
 30
0.0
 10
3.8682964966
 20
4.1209412565
 30
0.0
 10
3.8668338857
 20
4.1144976999
 30
0.0
 11
3.8800510442
 21
4.1519971574
 31
0.0
 11
3.8723505733
 21
4.1335369758
 31
0.0
 11
3.8668338857
 21
4.1144976999
 31
0.0
  0
SPLINE
  5
3CC
100
AcDbEntity
  8
0
100
AcDbSpline
 62
6
  6
CONTINUOUS
 70
0
 71
3
 72
17
 73
13
 74
11
 42
0.0000001
 43
0.0000001
 44
0.0000000001
 12
0.4231252661
 22
0.0
 32
0.0
 13
0.2209927046
 23
-0.3608285123
 33
0.0
 40
0.0
 40
0.0
 40
0.0
 40
0.0
 40
0.1341086912
 40
0.268568472
 40
0.4018114705
 40
0.5322017113
 40
0.6581886108
 40
0.7191445972
 40
0.7785562683
 40
0.8363470546
 40
0.8924941691
 40
1.0
 40
1.0
 40
1.0
 40
1.0
 10
4.2605847647
 20
4.3386146566
 30
0.0
 10
4.2794996899
 20
4.3386146566
 30
0.0
 10
4.3174069637
 20
4.3364722
 30
0.0
 10
4.3734382181
 20
4.3273768098
 30
0.0
 10
4.4277624786
 20
4.3127962027
 30
0.0
 10
4.479182656
 20
4.2931372203
 30
0.0
 10
4.5190864088
 20
4.272620029
 30
0.0
 10
4.5483898643
 20
4.2539091738
 30
0.0
 10
4.5686393413
 20
4.2389981792
 30
0.0
 10
4.5872514811
 20
4.2231017357
 30
0.0
 10
4.6093429057
 20
4.201001478
 30
0.0
 10
4.6235525796
 20
4.1825781116
 30
0.0
 10
4.6314719143
 20
4.169647722
 30
0.0
 11
4.2605847647
 21
4.3386146566
 31
0.0
 11
4.3172436305
 21
4.3354933599
 31
0.0
 11
4.3734062736
 21
4.3264044343
 31
0.0
 11
4.4278496667
 21
4.3117603273
 31
0.0
 11
4.4793507819
 21
4.2919734859
 31
0.0
 11
4.5266865919
 21
4.2674563574
 31
0.0
 11
4.5484103113
 21
4.2535528253
 31
0.0
 11
4.568634069
 21
4.2386213892
 31
0.0
 11
4.5872049866
 21
4.2227136048
 31
0.0
 11
4.6039701857
 21
4.2058810283
 31
0.0
 11
4.6314719143
 21
4.169647722
 31
0.0
  0
SPLINE
  5
3CD
100
AcDbEntity
  8
0
100
AcDbSpline
 62
6
  6
CONTINUOUS
 70
0
 71
3
 72
9
 73
5
 74
3
 42
0.0000001
 43
0.0000001
 44
0.0000000001
 12
0.0172918472
 22
-0.0358743175
 32
0.0
 13
0.0088153946
 23
-0.0388363676
 33
0.0
 40
0.0
 40
0.0
 40
0.0
 40
0.0
 40
0.5022534062
 40
1.0
 40
1.0
 40
1.0
 40
1.0
 10
4.6411184852
 20
4.1519971574
 30
0.0
 10
4.6440134482
 20
4.145991158
 30
0.0
 10
4.6491547577
 20
4.1337206447
 30
0.0
 10
4.6528730328
 20
4.1209412565
 30
0.0
 10
4.6543356436
 20
4.1144976999
 30
0.0
 11
4.6411184852
 21
4.1519971574
 31
0.0
 11
4.6488189561
 21
4.1335369758
 31
0.0
 11
4.6543356436
 21
4.1144976999
 31
0.0
  0
SPLINE
  5
3CE
100
AcDbEntity
  8
0
100
AcDbSpline
 62
6
  6
CONTINUOUS
 70
0
 71
3
 72
9
 73
5
 74
3
 42
0.0000001
 43
0.0000001
 44
0.0000000001
 12
0.019263491
 22
-0.0876968112
 32
0.0
 13
0.0320971536
 23
-0.0838545497
 33
0.0
 40
0.0
 40
0.0
 40
0.0
 40
0.0
 40
0.4889699513
 40
1.0
 40
1.0
 40
1.0
 40
1.0
 10
4.6569744804
 20
4.0998065003
 30
0.0
 10
4.6601142365
 20
4.0855127985
 30
0.0
 10
4.6677066682
 20
4.0565274034
 30
0.0
 10
4.6774655619
 20
4.0282031781
 30
0.0
 10
4.6829330985
 20
4.0139191132
 30
0.0
 11
4.6569744804
 21
4.0998065003
 31
0.0
 11
4.6680571613
 21
4.0573249042
 31
0.0
 11
4.6829330985
 21
4.0139191132
 31
0.0
  0
SPLINE
  5
3CF
100
AcDbEntity
  8
0
100
AcDbSpline
 62
9
  6
CONTINUOUS
 70
0
 71
3
 72
21
 73
17
 74
15
 42
0.0000001
 43
0.0000001
 44
0.0000000001
 12
0.4827692939
 22
-0.0062256649
 32
0.0
 13
0.1975455682
 23
-0.4405459097
 33
0.0
 40
0.0
 40
0.0
 40
0.0
 40
0.0
 40
0.1417621515
 40
0.2838516167
 40
0.3540523851
 40
0.4231772603
 40
0.4908689034
 40
0.5567948006
 40
0.6206564294
 40
0.6822014575
 40
0.7412401816
 40
0.7976677025
 40
0.85149341
 40
0.9028786938
 40
0.9521813913
 40
1.0
 40
1.0
 40
1.0
 40
1.0
 10
4.2605847647
 20
4.1856764084
 30
0.0
 10
4.2833975693
 20
4.1853822206
 30
0.0
 10
4.329068738
 20
4.1830082039
 30
0.0
 10
4.3856446788
 20
4.1757458871
 30
0.0
 10
4.4301468464
 20
4.167274186
 30
0.0
 10
4.4625916421
 20
4.1596539864
 30
0.0
 10
4.4939946809
 20
4.1507505016
 30
0.0
 10
4.5241165587
 20
4.1405692595
 30
0.0
 10
4.5527181923
 20
4.129115811
 30
0.0
 10
4.5795615759
 20
4.1163943893
 30
0.0
 10
4.6044095906
 20
4.1024073562
 30
0.0
 10
4.6270257138
 20
4.0871535905
 30
0.0
 10
4.6471721652
 20
4.0706279101
 30
0.0
 10
4.6646079862
 20
4.0528161053
 30
0.0
 10
4.6790783201
 20
4.0337083403
 30
0.0
 10
4.6866464969
 20
4.0199485811
 30
0.0
 10
4.6897952817
 20
4.0129264836
 30
0.0
 11
4.2605847647
 21
4.1856764084
 31
0.0
 11
4.3289380074
 21
4.1821508427
 31
0.0
 11
4.3969744523
 21
4.1733590853
 31
0.0
 11
4.4302670392
 21
4.1670046123
 31
0.0
 11
4.4627522229
 21
4.1593530644
 31
0.0
 11
4.4941872689
 21
4.1504109325
 31
0.0
 11
4.5243294426
 21
4.1401847078
 31
0.0
 11
4.5529360095
 21
4.1286808811
 31
0.0
 11
4.5797642349
 21
4.1159059434
 31
0.0
 11
4.6045713844
 21
4.1018663859
 31
0.0
 11
4.6271147232
 21
4.0865686993
 31
0.0
 11
4.647151517
 21
4.0700193748
 31
0.0
 11
4.664439031
 21
4.0522249034
 31
0.0
 11
4.6787345307
 21
4.033191776
 31
0.0
 11
4.6897952817
 21
4.0129264836
 31
0.0
  0
SPLINE
  5
3D0
100
AcDbEntity
  8
0
100
AcDbSpline
 62
9
  6
CONTINUOUS
 70
0
 71
3
 72
21
 73
17
 74
15
 42
0.0000001
 43
0.0000001
 44
0.0000000001
 12
-0.4827692939
 22
-0.0062256649
 32
0.0
 13
-0.1975455682
 23
-0.4405459097
 33
0.0
 40
0.0
 40
0.0
 40
0.0
 40
0.0
 40
0.1417621515
 40
0.2838516167
 40
0.3540523851
 40
0.4231772603
 40
0.4908689034
 40
0.5567948006
 40
0.6206564294
 40
0.6822014575
 40
0.7412401816
 40
0.7976677025
 40
0.85149341
 40
0.9028786938
 40
0.9521813913
 40
1.0
 40
1.0
 40
1.0
 40
1.0
 10
4.2605847647
 20
4.1856764084
 30
0.0
 10
4.2377719601
 20
4.1853822206
 30
0.0
 10
4.1921007913
 20
4.1830082039
 30
0.0
 10
4.1355248505
 20
4.1757458871
 30
0.0
 10
4.091022683
 20
4.167274186
 30
0.0
 10
4.0585778873
 20
4.1596539864
 30
0.0
 10
4.0271748485
 20
4.1507505016
 30
0.0
 10
3.9970529707
 20
4.1405692595
 30
0.0
 10
3.9684513371
 20
4.129115811
 30
0.0
 10
3.9416079534
 20
4.1163943893
 30
0.0
 10
3.9167599388
 20
4.1024073562
 30
0.0
 10
3.8941438156
 20
4.0871535905
 30
0.0
 10
3.8739973642
 20
4.0706279101
 30
0.0
 10
3.8565615432
 20
4.0528161053
 30
0.0
 10
3.8420912093
 20
4.0337083403
 30
0.0
 10
3.8345230325
 20
4.0199485811
 30
0.0
 10
3.8313742477
 20
4.0129264836
 30
0.0
 11
4.2605847647
 21
4.1856764084
 31
0.0
 11
4.192231522
 21
4.1821508427
 31
0.0
 11
4.1241950771
 21
4.1733590853
 31
0.0
 11
4.0909024902
 21
4.1670046123
 31
0.0
 11
4.0584173065
 21
4.1593530644
 31
0.0
 11
4.0269822605
 21
4.1504109325
 31
0.0
 11
3.9968400867
 21
4.1401847078
 31
0.0
 11
3.9682335199
 21
4.1286808811
 31
0.0
 11
3.9414052944
 21
4.1159059434
 31
0.0
 11
3.916598145
 21
4.1018663859
 31
0.0
 11
3.8940548061
 21
4.0865686993
 31
0.0
 11
3.8740180124
 21
4.0700193748
 31
0.0
 11
3.8567304984
 21
4.0522249034
 31
0.0
 11
3.8424349986
 21
4.033191776
 31
0.0
 11
3.8313742477
 21
4.0129264836
 31
0.0
  0
SPLINE
  5
3D1
100
AcDbEntity
  8
0
100
AcDbSpline
 62
9
  6
CONTINUOUS
 70
0
 71
3
 72
21
 73
17
 74
15
 42
0.0000001
 43
0.0000001
 44
0.0000000001
 12
-0.5174896483
 22
-0.0123333144
 32
0.0
 13
-0.2659949981
 23
-0.444065657
 33
0.0
 40
0.0
 40
0.0
 40
0.0
 40
0.0
 40
0.14380373
 40
0.2881751526
 40
0.3594724733
 40
0.4296050157
 40
0.4981680436
 40
0.5647804793
 40
0.6290928132
 40
0.690798112
 40
0.7496475141
 40
0.8054721519
 40
0.8582140141
 40
0.9079683728
 40
0.9550388078
 40
1.0
 40
1.0
 40
1.0
 40
1.0
 10
4.2605847647
 20
4.072253501
 30
0.0
 10
4.2357791175
 20
4.0716623088
 30
0.0
 10
4.1860907001
 20
4.0692822328
 30
0.0
 10
4.124333686
 20
4.0631749244
 30
0.0
 10
4.07551276
 20
4.0561715489
 30
0.0
 10
4.0398231947
 20
4.0498774069
 30
0.0
 10
4.0051690997
 20
4.0424875259
 30
0.0
 10
3.9718088652
 20
4.0339672408
 30
0.0
 10
3.9400000822
 20
4.0242820601
 30
0.0
 10
3.9099989195
 20
4.0133965161
 30
0.0
 10
3.8820599024
 20
4.0012735906
 30
0.0
 10
3.856435605
 20
3.9878728354
 30
0.0
 10
3.83337797
 20
3.9731491905
 30
0.0
 10
3.8131391087
 20
3.9570456139
 30
0.0
 10
3.7959855791
 20
3.9395049015
 30
0.0
 10
3.7866326495
 20
3.9265722347
 30
0.0
 10
3.7826461655
 20
3.9199169943
 30
0.0
 11
4.2605847647
 21
4.072253501
 31
0.0
 11
4.1862334598
 21
4.068660418
 31
0.0
 11
4.1118741246
 21
4.0612071692
 31
0.0
 11
4.075344887
 21
4.0559464469
 31
0.0
 11
4.0395977713
 21
4.0496168403
 31
0.0
 11
4.0048941543
 21
4.0421837352
 31
0.0
 11
3.9714954123
 21
4.0336125171
 31
0.0
 11
3.939662922
 21
4.0238685719
 31
0.0
 11
3.9096580599
 21
4.0129172852
 31
0.0
 11
3.8817422025
 21
4.0007240427
 31
0.0
 11
3.8561767264
 21
3.9872542303
 31
0.0
 11
3.8332230081
 21
3.9724732335
 31
0.0
 11
3.8131424242
 21
3.9563464381
 31
0.0
 11
3.7961963511
 21
3.9388392298
 31
0.0
 11
3.7826461655
 21
3.9199169943
 31
0.0
  0
SPLINE
  5
3D2
100
AcDbEntity
  8
0
100
AcDbSpline
 62
9
  6
CONTINUOUS
 70
0
 71
3
 72
21
 73
17
 74
15
 42
0.0000001
 43
0.0000001
 44
0.0000000001
 12
0.5174896483
 22
-0.0123333144
 32
0.0
 13
0.2659949981
 23
-0.444065657
 33
0.0
 40
0.0
 40
0.0
 40
0.0
 40
0.0
 40
0.14380373
 40
0.2881751526
 40
0.3594724733
 40
0.4296050157
 40
0.4981680436
 40
0.5647804793
 40
0.6290928132
 40
0.690798112
 40
0.7496475141
 40
0.8054721519
 40
0.8582140141
 40
0.9079683728
 40
0.9550388078
 40
1.0
 40
1.0
 40
1.0
 40
1.0
 10
4.2605847647
 20
4.072253501
 30
0.0
 10
4.2853904119
 20
4.0716623088
 30
0.0
 10
4.3350788293
 20
4.0692822328
 30
0.0
 10
4.3968358434
 20
4.0631749244
 30
0.0
 10
4.4456567694
 20
4.0561715489
 30
0.0
 10
4.4813463347
 20
4.0498774069
 30
0.0
 10
4.5160004297
 20
4.0424875259
 30
0.0
 10
4.5493606642
 20
4.0339672408
 30
0.0
 10
4.5811694472
 20
4.0242820601
 30
0.0
 10
4.6111706099
 20
4.0133965161
 30
0.0
 10
4.6391096269
 20
4.0012735906
 30
0.0
 10
4.6647339244
 20
3.9878728354
 30
0.0
 10
4.6877915593
 20
3.9731491905
 30
0.0
 10
4.7080304206
 20
3.9570456139
 30
0.0
 10
4.7251839503
 20
3.9395049015
 30
0.0
 10
4.7345368798
 20
3.9265722347
 30
0.0
 10
4.7385233639
 20
3.9199169943
 30
0.0
 11
4.2605847647
 21
4.072253501
 31
0.0
 11
4.3349360695
 21
4.068660418
 31
0.0
 11
4.4092954047
 21
4.0612071692
 31
0.0
 11
4.4458246424
 21
4.0559464469
 31
0.0
 11
4.481571758
 21
4.0496168403
 31
0.0
 11
4.5162753751
 21
4.0421837352
 31
0.0
 11
4.549674117
 21
4.0336125171
 31
0.0
 11
4.5815066073
 21
4.0238685719
 31
0.0
 11
4.6115114694
 21
4.0129172852
 31
0.0
 11
4.6394273268
 21
4.0007240427
 31
0.0
 11
4.6649928029
 21
3.9872542303
 31
0.0
 11
4.6879465213
 21
3.9724732335
 31
0.0
 11
4.7080271052
 21
3.9563464381
 31
0.0
 11
4.7249731783
 21
3.9388392298
 31
0.0
 11
4.7385233639
 21
3.9199169943
 31
0.0
  0
SPLINE
  5
3D3
100
AcDbEntity
  8
0
100
AcDbSpline
 62
9
  6
CONTINUOUS
 70
0
 71
3
 72
22
 73
18
 74
16
 42
0.0000001
 43
0.0000001
 44
0.0000000001
 12
0.6002088671
 22
-0.006387731
 32
0.0
 13
0.4044476066
 23
-0.4435240927
 33
0.0
 40
0.0
 40
0.0
 40
0.0
 40
0.0
 40
0.1461370683
 40
0.2930792685
 40
0.3656488154
 40
0.4369899726
 40
0.5066484851
 40
0.5741871925
 40
0.6391919436
 40
0.7012800874
 40
0.7601129033
 40
0.8154141252
 40
0.8669979222
 40
0.8913796814
 40
0.9148272403
 40
0.9590133483
 40
1.0
 40
1.0
 40
1.0
 40
1.0
 10
4.2605847647
 20
3.8987947245
 30
0.0
 10
4.2898223528
 20
3.8984835631
 30
0.0
 10
4.3484554221
 20
3.8974080094
 30
0.0
 10
4.4215628223
 20
3.8943738652
 30
0.0
 10
4.4796317564
 20
3.8905132163
 30
0.0
 10
4.5222079114
 20
3.8868388838
 30
0.0
 10
4.5636876381
 20
3.8822847021
 30
0.0
 10
4.6037715613
 20
3.8767602368
 30
0.0
 10
4.6421614202
 20
3.87017552
 30
0.0
 10
4.6785602719
 20
3.8624404121
 30
0.0
 10
4.7126745477
 20
3.8534639828
 30
0.0
 10
4.7442106692
 20
3.843154059
 30
0.0
 10
4.7685470853
 20
3.8331905899
 30
0.0
 10
4.7863923646
 20
3.8243871158
 30
0.0
 10
4.8024670983
 20
3.815398389
 30
0.0
 10
4.8205209697
 20
3.8031982877
 30
0.0
 10
4.8331803467
 20
3.791656752
 30
0.0
 10
4.8387059978
 20
3.7855972295
 30
0.0
 11
4.2605847647
 21
3.8987947245
 31
0.0
 11
4.3482856116
 21
3.8970737221
 31
0.0
 11
4.4364044443
 21
3.8932673068
 31
0.0
 11
4.4798662015
 21
3.8903530631
 31
0.0
 11
4.5225271708
 21
3.8866426588
 31
0.0
 11
4.5640855906
 21
3.8820444912
 31
0.0
 11
4.6042396994
 21
3.876466958
 31
0.0
 11
4.6426877357
 21
3.8698184566
 31
0.0
 11
4.6791279382
 21
3.8620073846
 31
0.0
 11
4.7132585452
 21
3.8529421394
 31
0.0
 11
4.7447777954
 21
3.8425311186
 31
0.0
 11
4.7733839272
 21
3.8306827197
 31
0.0
 11
4.7865002733
 21
3.8241908777
 31
0.0
 11
4.7987751792
 21
3.8173053402
 31
0.0
 11
4.8206497899
 21
3.8023073777
 31
0.0
 11
4.8387059978
 21
3.7855972295
 31
0.0
  0
SPLINE
  5
3D4
100
AcDbEntity
  8
0
100
AcDbSpline
 62
9
  6
CONTINUOUS
 70
0
 71
3
 72
22
 73
18
 74
16
 42
0.0000001
 43
0.0000001
 44
0.0000000001
 12
-0.6002088671
 22
-0.006387731
 32
0.0
 13
-0.4044476066
 23
-0.4435240927
 33
0.0
 40
0.0
 40
0.0
 40
0.0
 40
0.0
 40
0.1461370683
 40
0.2930792685
 40
0.3656488154
 40
0.4369899726
 40
0.5066484851
 40
0.5741871925
 40
0.6391919436
 40
0.7012800874
 40
0.7601129033
 40
0.8154141252
 40
0.8669979222
 40
0.8913796814
 40
0.9148272403
 40
0.9590133483
 40
1.0
 40
1.0
 40
1.0
 40
1.0
 10
4.2605847647
 20
3.8987947245
 30
0.0
 10
4.2313471766
 20
3.8984835631
 30
0.0
 10
4.1727141072
 20
3.8974080094
 30
0.0
 10
4.099606707
 20
3.8943738652
 30
0.0
 10
4.0415377729
 20
3.8905132163
 30
0.0
 10
3.998961618
 20
3.8868388838
 30
0.0
 10
3.9574818913
 20
3.8822847021
 30
0.0
 10
3.917397968
 20
3.8767602368
 30
0.0
 10
3.8790081092
 20
3.87017552
 30
0.0
 10
3.8426092575
 20
3.8624404121
 30
0.0
 10
3.8084949817
 20
3.8534639828
 30
0.0
 10
3.7769588601
 20
3.843154059
 30
0.0
 10
3.7526224441
 20
3.8331905899
 30
0.0
 10
3.7347771648
 20
3.8243871158
 30
0.0
 10
3.7187024311
 20
3.815398389
 30
0.0
 10
3.7006485596
 20
3.8031982877
 30
0.0
 10
3.6879891826
 20
3.791656752
 30
0.0
 10
3.6824635316
 20
3.7855972295
 30
0.0
 11
4.2605847647
 21
3.8987947245
 31
0.0
 11
4.1728839178
 21
3.8970737221
 31
0.0
 11
4.0847650851
 21
3.8932673068
 31
0.0
 11
4.0413033278
 21
3.8903530631
 31
0.0
 11
3.9986423586
 21
3.8866426588
 31
0.0
 11
3.9570839388
 21
3.8820444912
 31
0.0
 11
3.91692983
 21
3.876466958
 31
0.0
 11
3.8784817936
 21
3.8698184566
 31
0.0
 11
3.8420415912
 21
3.8620073846
 31
0.0
 11
3.8079109841
 21
3.8529421394
 31
0.0
 11
3.7763917339
 21
3.8425311186
 31
0.0
 11
3.7477856021
 21
3.8306827197
 31
0.0
 11
3.7346692561
 21
3.8241908777
 31
0.0
 11
3.7223943501
 21
3.8173053402
 31
0.0
 11
3.7005197395
 21
3.8023073777
 31
0.0
 11
3.6824635316
 21
3.7855972295
 31
0.0
  0
SPLINE
  5
3D5
100
AcDbEntity
  8
0
100
AcDbSpline
 62
6
  6
CONTINUOUS
 70
0
 71
3
 72
14
 73
10
 74
8
 42
0.0000001
 43
0.0000001
 44
0.0000000001
 12
-0.3014619482
 22
-0.012404709
 32
0.0
 13
-0.2890809176
 23
-0.0864025813
 33
0.0
 40
0.0
 40
0.0
 40
0.0
 40
0.0
 40
0.2751118605
 40
0.4081094772
 40
0.5370984513
 40
0.6613923387
 40
0.7803484383
 40
0.8933840175
 40
1.0
 40
1.0
 40
1.0
 40
1.0
 10
4.0498214299
 20
3.8387500534
 30
0.0
 10
4.0221761774
 20
3.8376124926
 30
0.0
 10
3.9811821687
 20
3.8353780036
 30
0.0
 10
3.9273524753
 20
3.8308374893
 30
0.0
 10
3.8887239504
 20
3.8266623598
 30
0.0
 10
3.8516254791
 20
3.821597204
 30
0.0
 10
3.8162970428
 20
3.8155581982
 30
0.0
 10
3.7829796366
 20
3.8084623328
 30
0.0
 10
3.7616133321
 20
3.8027979623
 30
0.0
 10
3.7513397835
 20
3.7997273303
 30
0.0
 11
4.0498214299
 21
3.8387500534
 31
0.0
 11
3.966948803
 21
3.8340475029
 31
0.0
 11
3.9269656988
 21
3.8306446164
 31
0.0
 11
3.8882766511
 21
3.8264277644
 31
0.0
 11
3.8511255979
 21
3.8213122783
 31
0.0
 11
3.815756477
 21
3.8152134896
 31
0.0
 11
3.7824132262
 21
3.8080467298
 31
0.0
 11
3.7513397835
 21
3.7997273303
 31
0.0
  0
SPLINE
  5
3D6
100
AcDbEntity
  8
0
100
AcDbSpline
 62
9
  6
CONTINUOUS
 70
0
 71
3
 72
9
 73
5
 74
3
 42
0.0000001
 43
0.0000001
 44
0.0000000001
 12
-0.2108022874
 22
0.0000000001
 32
0.0
 13
-0.2106240486
 23
-0.0086668651
 33
0.0
 40
0.0
 40
0.0
 40
0.0
 40
0.0
 40
0.4993087711
 40
1.0
 40
1.0
 40
1.0
 40
1.0
 10
4.2605847647
 20
3.8421889876
 30
0.0
 10
4.225499621
 20
3.8421889876
 30
0.0
 10
4.1552315602
 20
3.841891552
 30
0.0
 10
4.0849739678
 20
3.8401965279
 30
0.0
 10
4.0498214299
 20
3.8387500534
 30
0.0
 11
4.2605847647
 21
3.8421889876
 31
0.0
 11
4.1553313127
 21
3.8415435314
 31
0.0
 11
4.0498214299
 21
3.8387500534
 31
0.0
  0
SPLINE
  5
3D7
100
AcDbEntity
  8
0
100
AcDbSpline
 62
9
  6
CONTINUOUS
 70
0
 71
3
 72
9
 73
5
 74
3
 42
0.0000001
 43
0.0000001
 44
0.0000000001
 12
0.2108022874
 22
0.0000000001
 32
0.0
 13
0.2106240486
 23
-0.0086668651
 33
0.0
 40
0.0
 40
0.0
 40
0.0
 40
0.0
 40
0.4993087711
 40
1.0
 40
1.0
 40
1.0
 40
1.0
 10
4.2605847647
 20
3.8421889876
 30
0.0
 10
4.2956699084
 20
3.8421889876
 30
0.0
 10
4.3659379692
 20
3.841891552
 30
0.0
 10
4.4361955616
 20
3.8401965279
 30
0.0
 10
4.4713480995
 20
3.8387500534
 30
0.0
 11
4.2605847647
 21
3.8421889876
 31
0.0
 11
4.3658382167
 21
3.8415435314
 31
0.0
 11
4.4713480995
 21
3.8387500534
 31
0.0
  0
SPLINE
  5
3D8
100
AcDbEntity
  8
0
100
AcDbSpline
 62
6
  6
CONTINUOUS
 70
0
 71
3
 72
14
 73
10
 74
8
 42
0.0000001
 43
0.0000001
 44
0.0000000001
 12
0.3014619482
 22
-0.012404709
 32
0.0
 13
0.2890809176
 23
-0.0864025813
 33
0.0
 40
0.0
 40
0.0
 40
0.0
 40
0.0
 40
0.2751118605
 40
0.4081094772
 40
0.5370984513
 40
0.6613923387
 40
0.7803484383
 40
0.8933840175
 40
1.0
 40
1.0
 40
1.0
 40
1.0
 10
4.4713480995
 20
3.8387500534
 30
0.0
 10
4.498993352
 20
3.8376124926
 30
0.0
 10
4.5399873607
 20
3.8353780036
 30
0.0
 10
4.5938170541
 20
3.8308374893
 30
0.0
 10
4.632445579
 20
3.8266623598
 30
0.0
 10
4.6695440503
 20
3.821597204
 30
0.0
 10
4.7048724866
 20
3.8155581982
 30
0.0
 10
4.7381898927
 20
3.8084623328
 30
0.0
 10
4.7595561972
 20
3.8027979623
 30
0.0
 10
4.7698297459
 20
3.7997273303
 30
0.0
 11
4.4713480995
 21
3.8387500534
 31
0.0
 11
4.5542207263
 21
3.8340475029
 31
0.0
 11
4.5942038306
 21
3.8306446164
 31
0.0
 11
4.6328928782
 21
3.8264277644
 31
0.0
 11
4.6700439315
 21
3.8213122783
 31
0.0
 11
4.7054130524
 21
3.8152134896
 31
0.0
 11
4.7387563032
 21
3.8080467298
 31
0.0
 11
4.7698297459
 21
3.7997273303
 31
0.0
  0
LINE
  5
3D9
100
AcDbEntity
  8
0
100
AcDbLine
 62
9
  6
CONTINUOUS
 10
4.7953790834
 20
3.7656838529
 11
4.7698297459
 21
3.7997273303
  0
SPLINE
  5
3DA
100
AcDbEntity
  8
0
100
AcDbSpline
 62
6
  6
CONTINUOUS
 70
0
 71
3
 72
9
 73
5
 74
3
 42
0.0000001
 43
0.0000001
 44
0.0000000001
 12
0.0666074589
 22
-0.0199081158
 32
0.0
 13
0.0614495947
 23
-0.0325089829
 33
0.0
 40
0.0
 40
0.0
 40
0.0
 40
0.0
 40
0.5224957383
 40
1.0
 40
1.0
 40
1.0
 40
1.0
 10
4.7698297459
 20
3.7997273303
 30
0.0
 10
4.7814304504
 20
3.7962600284
 30
0.0
 10
4.8034115908
 20
3.788841283
 30
0.0
 10
4.8246145017
 20
3.7793516625
 30
0.0
 10
4.8343953161
 20
3.7741772699
 30
0.0
 11
4.7698297459
 21
3.7997273303
 31
0.0
 11
4.8041880967
 21
3.7879421501
 31
0.0
 11
4.8343953161
 21
3.7741772699
 31
0.0
  0
SPLINE
  5
3DB
100
AcDbEntity
  8
0
100
AcDbSpline
 62
6
  6
CONTINUOUS
 70
0
 71
3
 72
9
 73
5
 74
3
 42
0.0000001
 43
0.0000001
 44
0.0000000001
 12
0.0458536719
 22
-0.0248848807
 32
0.0
 13
0.0363069714
 23
-0.0374649215
 33
0.0
 40
0.0
 40
0.0
 40
0.0
 40
0.0
 40
0.5211150196
 40
1.0
 40
1.0
 40
1.0
 40
1.0
 10
4.8366874342
 20
3.7729491211
 30
0.0
 10
4.8446524466
 20
3.7686264928
 30
0.0
 10
4.8594974755
 20
3.7594696063
 30
0.0
 10
4.8728389302
 20
3.7481606336
 30
0.0
 10
4.8786345512
 20
3.7421801708
 30
0.0
 11
4.8366874342
 21
3.7729491211
 31
0.0
 11
4.8597160697
 21
3.7584984882
 31
0.0
 11
4.8786345512
 21
3.7421801708
 31
0.0
  0
SPLINE
  5
3DC
100
AcDbEntity
  8
0
100
AcDbSpline
 62
9
  6
CONTINUOUS
 70
0
 71
3
 72
16
 73
12
 74
10
 42
0.0000001
 43
0.0000001
 44
0.0000000001
 12
0.5381459955
 22
0.0029861294
 32
0.0
 13
0.5172380227
 23
-0.1485760995
 33
0.0
 40
0.0
 40
0.0
 40
0.0
 40
0.0
 40
0.2677903074
 40
0.4015218321
 40
0.5327663048
 40
0.6598038802
 40
0.780995864
 40
0.8389244846
 40
0.8948371166
 40
0.9485752848
 40
1.0
 40
1.0
 40
1.0
 40
1.0
 10
4.2605847647
 20
3.8097027175
 30
0.0
 10
4.3086215252
 20
3.8099692697
 30
0.0
 10
4.3806591467
 20
3.8097667398
 30
0.0
 10
4.4761959251
 20
3.8070306943
 30
0.0
 10
4.5464324297
 20
3.8034165478
 30
0.0
 10
4.614293113
 20
3.7979161272
 30
0.0
 10
4.6688459774
 20
3.791403969
 30
0.0
 10
4.7104958859
 20
3.7848268642
 30
0.0
 10
4.7400470547
 20
3.7792860407
 30
0.0
 10
4.7682604343
 20
3.7730236276
 30
0.0
 10
4.7865128107
 20
3.7682306807
 30
0.0
 10
4.7953790834
 20
3.7656838529
 30
0.0
 11
4.2605847647
 21
3.8097027175
 31
0.0
 11
4.4046948705
 21
3.808872
 31
0.0
 11
4.4766315444
 21
3.806742286
 31
0.0
 11
4.5471634793
 21
3.8030259396
 31
0.0
 11
4.615296663
 21
3.7973908759
 31
0.0
 11
4.6800384921
 21
3.7895078574
 31
0.0
 11
4.7108275704
 21
3.7846207008
 31
0.0
 11
4.7403967159
 21
3.7790483583
 31
0.0
 11
4.7686218974
 21
3.7727497642
 31
0.0
 11
4.7953790834
 21
3.7656838529
 31
0.0
  0
SPLINE
  5
3DD
100
AcDbEntity
  8
0
100
AcDbSpline
 62
9
  6
CONTINUOUS
 70
0
 71
3
 72
16
 73
12
 74
10
 42
0.0000001
 43
0.0000001
 44
0.0000000001
 12
0.3528759602
 22
-0.4705563464
 32
0.0
 13
0.0021250913
 23
-0.5881668151
 33
0.0
 40
0.0
 40
0.0
 40
0.0
 40
0.0
 40
0.1249765008
 40
0.2504091858
 40
0.3759196323
 40
0.501000762
 40
0.6259303537
 40
0.6884748831
 40
0.7510094429
 40
0.8757626429
 40
1.0
 40
1.0
 40
1.0
 40
1.0
 10
4.7953790834
 20
3.7656838529
 30
0.0
 10
4.8100794843
 20
3.7460810243
 30
0.0
 10
4.8380056536
 20
3.705631004
 30
0.0
 10
4.8750509103
 20
3.6418332748
 30
0.0
 10
4.9069610113
 20
3.5752862798
 30
0.0
 10
4.93339686
 20
3.5064910922
 30
0.0
 10
4.950788932
 20
3.447658529
 30
0.0
 10
4.9618247781
 20
3.3998893309
 30
0.0
 10
4.9709202131
 20
3.3517476877
 30
0.0
 10
4.9785916687
 20
3.2910846535
 30
0.0
 10
4.9807707815
 20
3.2422545833
 30
0.0
 10
4.9808587867
 20
3.217897153
 30
0.0
 11
4.7953790834
 21
3.7656838529
 31
0.0
 11
4.8371453798
 21
3.7051947584
 31
0.0
 11
4.874185311
 21
3.64139103
 31
0.0
 11
4.9060881938
 21
3.5748190464
 31
0.0
 11
4.9324843098
 21
3.5061484547
 31
0.0
 11
4.9533027048
 21
3.435679362
 31
0.0
 11
4.9615832864
 21
3.3998365831
 31
0.0
 11
4.9684090903
 21
3.3636945045
 31
0.0
 11
4.9776121733
 21
3.2908977617
 31
0.0
 11
4.9808587867
 21
3.217897153
 31
0.0
  0
SPLINE
  5
3DE
100
AcDbEntity
  8
0
100
AcDbSpline
 62
9
  6
CONTINUOUS
 70
0
 71
3
 72
16
 73
12
 74
10
 42
0.0000001
 43
0.0000001
 44
0.0000000001
 12
-0.3528759602
 22
-0.4705563464
 32
0.0
 13
-0.0021250913
 23
-0.5881668151
 33
0.0
 40
0.0
 40
0.0
 40
0.0
 40
0.0
 40
0.1249765008
 40
0.2504091858
 40
0.3759196323
 40
0.501000762
 40
0.6259303537
 40
0.6884748831
 40
0.7510094429
 40
0.8757626429
 40
1.0
 40
1.0
 40
1.0
 40
1.0
 10
3.725790446
 20
3.7656838529
 30
0.0
 10
3.7110900451
 20
3.7460810243
 30
0.0
 10
3.6831638758
 20
3.705631004
 30
0.0
 10
3.6461186191
 20
3.6418332748
 30
0.0
 10
3.6142085181
 20
3.5752862798
 30
0.0
 10
3.5877726694
 20
3.5064910922
 30
0.0
 10
3.5703805974
 20
3.447658529
 30
0.0
 10
3.5593447513
 20
3.3998893309
 30
0.0
 10
3.5502493163
 20
3.3517476877
 30
0.0
 10
3.5425778607
 20
3.2910846535
 30
0.0
 10
3.5403987479
 20
3.2422545833
 30
0.0
 10
3.5403107426
 20
3.217897153
 30
0.0
 11
3.725790446
 21
3.7656838529
 31
0.0
 11
3.6840241496
 21
3.7051947584
 31
0.0
 11
3.6469842184
 21
3.64139103
 31
0.0
 11
3.6150813356
 21
3.5748190464
 31
0.0
 11
3.5886852196
 21
3.5061484547
 31
0.0
 11
3.5678668245
 21
3.435679362
 31
0.0
 11
3.559586243
 21
3.3998365831
 31
0.0
 11
3.5527604391
 21
3.3636945045
 31
0.0
 11
3.543557356
 21
3.2908977617
 31
0.0
 11
3.5403107426
 21
3.217897153
 31
0.0
  0
SPLINE
  5
3DF
100
AcDbEntity
  8
0
100
AcDbSpline
 62
9
  6
CONTINUOUS
 70
0
 71
3
 72
16
 73
12
 74
10
 42
0.0000001
 43
0.0000001
 44
0.0000000001
 12
-0.5381459955
 22
0.0029861294
 32
0.0
 13
-0.5172380227
 23
-0.1485760995
 33
0.0
 40
0.0
 40
0.0
 40
0.0
 40
0.0
 40
0.2677903074
 40
0.4015218321
 40
0.5327663048
 40
0.6598038802
 40
0.780995864
 40
0.8389244846
 40
0.8948371166
 40
0.9485752848
 40
1.0
 40
1.0
 40
1.0
 40
1.0
 10
4.2605847647
 20
3.8097027175
 30
0.0
 10
4.2125480042
 20
3.8099692697
 30
0.0
 10
4.1405103826
 20
3.8097667398
 30
0.0
 10
4.0449736043
 20
3.8070306943
 30
0.0
 10
3.9747370996
 20
3.8034165478
 30
0.0
 10
3.9068764164
 20
3.7979161272
 30
0.0
 10
3.8523235519
 20
3.791403969
 30
0.0
 10
3.8106736434
 20
3.7848268642
 30
0.0
 10
3.7811224746
 20
3.7792860407
 30
0.0
 10
3.752909095
 20
3.7730236276
 30
0.0
 10
3.7346567186
 20
3.7682306807
 30
0.0
 10
3.725790446
 20
3.7656838529
 30
0.0
 11
4.2605847647
 21
3.8097027175
 31
0.0
 11
4.1164746588
 21
3.808872
 31
0.0
 11
4.044537985
 21
3.806742286
 31
0.0
 11
3.9740060501
 21
3.8030259396
 31
0.0
 11
3.9058728664
 21
3.7973908759
 31
0.0
 11
3.8411310372
 21
3.7895078574
 31
0.0
 11
3.810341959
 21
3.7846207008
 31
0.0
 11
3.7807728135
 21
3.7790483583
 31
0.0
 11
3.752547632
 21
3.7727497642
 31
0.0
 11
3.725790446
 21
3.7656838529
 31
0.0
  0
SPLINE
  5
3E0
100
AcDbEntity
  8
0
100
AcDbSpline
 62
9
  6
CONTINUOUS
 70
0
 71
3
 72
33
 73
29
 74
27
 42
0.0000001
 43
0.0000001
 44
0.0000000001
 12
-0.6621275988
 22
-0.0343331032
 32
0.0
 13
-0.635976167
 23
-0.1874194069
 33
0.0
 40
0.0
 40
0.0
 40
0.0
 40
0.0
 40
0.0642026781
 40
0.1283751744
 40
0.1604106171
 40
0.1924041273
 40
0.2243544481
 40
0.256263877
 40
0.2722066382
 40
0.2881444742
 40
0.3200077919
 40
0.3518497146
 40
0.3836559248
 40
0.4154057549
 40
0.4470748425
 40
0.4786485005
 40
0.5101268316
 40
0.5415117091
 40
0.5728063003
 40
0.6040155765
 40
0.6351450632
 40
0.6661918976
 40
0.6971490632
 40
0.7587606886
 40
0.7893972061
 40
0.8199073334
 40
0.8805226355
 40
1.0
 40
1.0
 40
1.0
 40
1.0
 10
4.2605847647
 20
3.3300188715
 30
0.0
 10
4.246414643
 20
3.3292841125
 30
0.0
 10
4.2180770374
 20
3.327890265
 30
0.0
 10
4.1826474427
 20
3.3265847283
 30
0.0
 10
4.1543205039
 20
3.3259733063
 30
0.0
 10
4.1331121433
 20
3.325584311
 30
0.0
 10
4.1119334967
 20
3.3250947512
 30
0.0
 10
4.094306996
 20
3.3244655063
 30
0.0
 10
4.0802270114
 20
3.3237476743
 30
0.0
 10
4.0661671671
 20
3.3228557761
 30
0.0
 10
4.0486217869
 20
3.3214323687
 30
0.0
 10
4.0276162781
 20
3.3193408697
 30
0.0
 10
4.0066658262
 20
3.3169722596
 30
0.0
 10
3.9857745973
 20
3.3144295992
 30
0.0
 10
3.9649420764
 20
3.311831574
 30
0.0
 10
3.9441709984
 20
3.3092255902
 30
0.0
 10
3.9234722326
 20
3.3065485266
 30
0.0
 10
3.9028506684
 20
3.3037574822
 30
0.0
 10
3.8823117352
 20
3.3008036907
 30
0.0
 10
3.8618607978
 20
3.2976411753
 30
0.0
 10
3.8415070951
 20
3.2942192847
 30
0.0
 10
3.8212527057
 20
3.2905529737
 30
0.0
 10
3.7944273558
 20
3.2853764963
 30
0.0
 10
3.7677753448
 20
3.2797901165
 30
0.0
 10
3.741298939
 20
3.2738688883
 30
0.0
 10
3.7150846442
 20
3.2677875436
 30
0.0
 10
3.6698732696
 20
3.256723194
 30
0.0
 10
3.6314603272
 20
3.2462543568
 30
0.0
 10
3.6061320751
 20
3.2387902312
 30
0.0
 11
4.2605847647
 21
3.3300188715
 31
0.0
 11
4.218066278
 21
3.3279772379
 31
0.0
 11
4.1755456109
 21
3.3264674024
 31
0.0
 11
4.1543110517
 21
3.3259845876
 31
0.0
 11
4.1331029119
 21
3.3255672564
 31
0.0
 11
4.1119256145
 21
3.3250501407
 31
0.0
 11
4.0907835811
 21
3.3242679431
 31
0.0
 11
4.0802271703
 21
3.3237257831
 31
0.0
 11
4.0696812344
 21
3.3230579832
 31
0.0
 11
4.0486230265
 21
3.3213678309
 31
0.0
 11
4.0276134498
 21
3.3192933997
 31
0.0
 11
4.0066569993
 21
3.3169410493
 31
0.0
 11
3.9857581699
 21
3.31441714
 31
0.0
 11
3.9649214664
 21
3.3118263884
 31
0.0
 11
3.9441517668
 21
3.3092097582
 31
0.0
 11
3.9234544338
 21
3.3065254721
 31
0.0
 11
3.9028348625
 21
3.3037262305
 31
0.0
 11
3.882298448
 21
3.3007647341
 31
0.0
 11
3.8618505852
 21
3.2975936835
 31
0.0
 11
3.841496505
 21
3.2941738077
 31
0.0
 11
3.8212405244
 21
3.2905104331
 31
0.0
 11
3.8010866453
 21
3.2866242825
 31
0.0
 11
3.7611011979
 21
3.2782666029
 31
0.0
 11
3.7412776326
 21
3.2738365484
 31
0.0
 11
3.7215723137
 21
3.2692646546
 31
0.0
 11
3.6825377113
 21
3.2597014835
 31
0.0
 11
3.6061320751
 21
3.2387902312
 31
0.0
  0
SPLINE
  5
3E1
100
AcDbEntity
  8
0
100
AcDbSpline
 62
9
  6
CONTINUOUS
 70
0
 71
3
 72
33
 73
29
 74
27
 42
0.0000001
 43
0.0000001
 44
0.0000000001
 12
0.6621275988
 22
-0.0343331032
 32
0.0
 13
0.635976167
 23
-0.1874194069
 33
0.0
 40
0.0
 40
0.0
 40
0.0
 40
0.0
 40
0.0642026781
 40
0.1283751744
 40
0.1604106171
 40
0.1924041273
 40
0.2243544481
 40
0.256263877
 40
0.2722066382
 40
0.2881444742
 40
0.3200077919
 40
0.3518497146
 40
0.3836559248
 40
0.4154057549
 40
0.4470748425
 40
0.4786485005
 40
0.5101268316
 40
0.5415117091
 40
0.5728063003
 40
0.6040155765
 40
0.6351450632
 40
0.6661918976
 40
0.6971490632
 40
0.7587606886
 40
0.7893972061
 40
0.8199073334
 40
0.8805226355
 40
1.0
 40
1.0
 40
1.0
 40
1.0
 10
4.2605847647
 20
3.3300188715
 30
0.0
 10
4.2747548864
 20
3.3292841125
 30
0.0
 10
4.303092492
 20
3.327890265
 30
0.0
 10
4.3385220867
 20
3.3265847283
 30
0.0
 10
4.3668490254
 20
3.3259733063
 30
0.0
 10
4.3880573861
 20
3.325584311
 30
0.0
 10
4.4092360326
 20
3.3250947512
 30
0.0
 10
4.4268625334
 20
3.3244655063
 30
0.0
 10
4.440942518
 20
3.3237476743
 30
0.0
 10
4.4550023623
 20
3.3228557761
 30
0.0
 10
4.4725477424
 20
3.3214323687
 30
0.0
 10
4.4935532513
 20
3.3193408697
 30
0.0
 10
4.5145037032
 20
3.3169722596
 30
0.0
 10
4.5353949321
 20
3.3144295992
 30
0.0
 10
4.556227453
 20
3.311831574
 30
0.0
 10
4.576998531
 20
3.3092255902
 30
0.0
 10
4.5976972968
 20
3.3065485266
 30
0.0
 10
4.618318861
 20
3.3037574822
 30
0.0
 10
4.6388577942
 20
3.3008036907
 30
0.0
 10
4.6593087316
 20
3.2976411753
 30
0.0
 10
4.6796624343
 20
3.2942192847
 30
0.0
 10
4.6999168236
 20
3.2905529737
 30
0.0
 10
4.7267421736
 20
3.2853764963
 30
0.0
 10
4.7533941846
 20
3.2797901165
 30
0.0
 10
4.7798705904
 20
3.2738688883
 30
0.0
 10
4.8060848851
 20
3.2677875436
 30
0.0
 10
4.8512962597
 20
3.256723194
 30
0.0
 10
4.8897092022
 20
3.2462543568
 30
0.0
 10
4.9150374543
 20
3.2387902312
 30
0.0
 11
4.2605847647
 21
3.3300188715
 31
0.0
 11
4.3031032513
 21
3.3279772379
 31
0.0
 11
4.3456239185
 21
3.3264674024
 31
0.0
 11
4.3668584777
 21
3.3259845876
 31
0.0
 11
4.3880666174
 21
3.3255672564
 31
0.0
 11
4.4092439149
 21
3.3250501407
 31
0.0
 11
4.4303859483
 21
3.3242679431
 31
0.0
 11
4.4409423591
 21
3.3237257831
 31
0.0
 11
4.451488295
 21
3.3230579832
 31
0.0
 11
4.4725465028
 21
3.3213678309
 31
0.0
 11
4.4935560795
 21
3.3192933997
 31
0.0
 11
4.5145125301
 21
3.3169410493
 31
0.0
 11
4.5354113595
 21
3.31441714
 31
0.0
 11
4.556248063
 21
3.3118263884
 31
0.0
 11
4.5770177626
 21
3.3092097582
 31
0.0
 11
4.5977150956
 21
3.3065254721
 31
0.0
 11
4.6183346669
 21
3.3037262305
 31
0.0
 11
4.6388710814
 21
3.3007647342
 31
0.0
 11
4.6593189441
 21
3.2975936835
 31
0.0
 11
4.6796730244
 21
3.2941738077
 31
0.0
 11
4.699929005
 21
3.2905104331
 31
0.0
 11
4.7200828841
 21
3.2866242825
 31
0.0
 11
4.7600683315
 21
3.2782666029
 31
0.0
 11
4.7798918968
 21
3.2738365484
 31
0.0
 11
4.7995972156
 21
3.2692646546
 31
0.0
 11
4.838631818
 21
3.2597014835
 31
0.0
 11
4.9150374543
 21
3.2387902312
 31
0.0
  0
SPLINE
  5
3E2
100
AcDbEntity
  8
0
100
AcDbSpline
 62
9
  6
CONTINUOUS
 70
0
 71
3
 72
21
 73
17
 74
15
 42
0.0000001
 43
0.0000001
 44
0.0000000001
 12
0.9358801427
 22
0.0
 32
0.0
 13
0.0759061848
 23
0.932796812
 33
0.0
 40
0.0
 40
0.0
 40
0.0
 40
0.0
 40
0.0656231585
 40
0.1315426348
 40
0.1976942513
 40
0.2639423401
 40
0.3301374938
 40
0.3960853749
 40
0.4615871171
 40
0.5264260476
 40
0.5903955008
 40
0.6533094765
 40
0.7149934619
 40
0.7752999179
 40
0.8911300416
 40
1.0
 40
1.0
 40
1.0
 40
1.0
 10
4.2605847647
 20
2.6920461851
 30
0.0
 10
4.2810565683
 20
2.6920461851
 30
0.0
 10
4.3221130983
 20
2.6937358792
 30
0.0
 10
4.3833762304
 20
2.7014241031
 30
0.0
 10
4.4439497153
 20
2.7143906971
 30
0.0
 10
4.5032516905
 20
2.7325966529
 30
0.0
 10
4.560640225
 20
2.7559889844
 30
0.0
 10
4.6154917634
 20
2.7843344484
 30
0.0
 10
4.6671440584
 20
2.817386185
 30
0.0
 10
4.7150136596
 20
2.854721105
 30
0.0
 10
4.7585037544
 20
2.8959145957
 30
0.0
 10
4.7971776446
 20
2.940363479
 30
0.0
 10
4.830613247
 20
2.9874876955
 30
0.0
 10
4.8674208813
 20
3.0520238891
 30
0.0
 10
4.8997966469
 20
3.1354741698
 30
0.0
 10
4.9122827799
 20
3.2049385567
 30
0.0
 10
4.9150374143
 20
3.2387897401
 30
0.0
 11
4.2605847647
 21
2.6920461851
 31
0.0
 11
4.3219476903
 21
2.6945847008
 31
0.0
 11
4.3831577496
 21
2.7022867423
 31
0.0
 11
4.4436946214
 21
2.7152533652
 31
0.0
 11
4.5029580568
 21
2.733470906
 31
0.0
 11
4.5603223348
 21
2.756863908
 31
0.0
 11
4.6151397656
 21
2.7852244933
 31
0.0
 11
4.6667658557
 21
2.8182798261
 31
0.0
 11
4.7145908344
 21
2.8556296846
 31
0.0
 11
4.7580418601
 21
2.8968140842
 31
0.0
 11
4.7966590122
 21
2.9412613896
 31
0.0
 11
4.8300496534
 21
2.9883536544
 31
0.0
 11
4.8579772876
 21
3.0373993204
 31
0.0
 11
4.8971224694
 21
3.1384878439
 31
0.0
 11
4.9150374143
 21
3.2387897401
 31
0.0
  0
SPLINE
  5
3E3
100
AcDbEntity
  8
0
100
AcDbSpline
 62
9
  6
CONTINUOUS
 70
0
 71
3
 72
24
 73
20
 74
18
 42
0.0000001
 43
0.0000001
 44
0.0000000001
 12
0.0024866639
 22
-1.0293675216
 32
0.0
 13
-1.0260815817
 23
-0.0822208349
 33
0.0
 40
0.0
 40
0.0
 40
0.0
 40
0.0
 40
0.0538594551
 40
0.1085856231
 40
0.164397548
 40
0.2215074453
 40
0.2801234114
 40
0.3403506293
 40
0.371092732
 40
0.4022417744
 40
0.4656902315
 40
0.5305724201
 40
0.5966594661
 40
0.6636570863
 40
0.7312357481
 40
0.7990260425
 40
0.8666638089
 40
0.9337673323
 40
1.0
 40
1.0
 40
1.0
 40
1.0
 10
4.9808587867
 20
3.217897153
 30
0.0
 10
4.9809034302
 20
3.1994167618
 30
0.0
 10
4.9787962346
 20
3.1621170938
 30
0.0
 10
4.9689932352
 20
3.1064388768
 30
0.0
 10
4.9523382018
 20
3.0512370422
 30
0.0
 10
4.9287861247
 20
2.9971476956
 30
0.0
 10
4.8983376194
 20
2.944865235
 30
0.0
 10
4.8676916052
 20
2.9035570121
 30
0.0
 10
4.8401218771
 20
2.8719818221
 30
0.0
 10
4.8101929918
 20
2.8410740106
 30
0.0
 10
4.7692057757
 20
2.8046748744
 30
0.0
 10
4.7152842625
 20
2.7652459554
 30
0.0
 10
4.6570637112
 20
2.7300905903
 30
0.0
 10
4.595288039
 20
2.6995174219
 30
0.0
 10
4.53078183
 20
2.6736382323
 30
0.0
 10
4.4643303169
 20
2.6525536311
 30
0.0
 10
4.3967391261
 20
2.6361755345
 30
0.0
 10
4.3287468901
 20
2.6244004534
 30
0.0
 10
4.2832381382
 20
2.6193955213
 30
0.0
 10
4.2605847647
 20
2.6175802863
 30
0.0
 11
4.9808587867
 21
3.217897153
 31
0.0
 11
4.9777384787
 21
3.1625436945
 31
0.0
 11
4.9679819167
 21
3.1070615064
 31
0.0
 11
4.95142017
 21
3.0520492965
 31
0.0
 11
4.9279853713
 21
2.9981350092
 31
0.0
 11
4.8976963877
 21
2.9459507477
 31
0.0
 11
4.8608179597
 21
2.8961160128
 31
0.0
 11
4.8400149334
 21
2.8722698174
 31
0.0
 11
4.8177186081
 21
2.8492270756
 31
0.0
 11
4.7689360996
 21
2.8057998894
 31
0.0
 11
4.7150802439
 21
2.7663010448
 31
0.0
 11
4.6568797758
 21
2.7310799989
 31
0.0
 11
4.5951032932
 21
2.7004223862
 31
0.0
 11
4.5305599214
 21
2.6744756856
 31
0.0
 11
4.4640633823
 21
2.6533180764
 31
0.0
 11
4.3964052578
 21
2.6368886953
 31
0.0
 11
4.3283511354
 21
2.6250604389
 31
0.0
 11
4.2605847647
 21
2.6175802863
 31
0.0
  0
SPLINE
  5
3E4
100
AcDbEntity
  8
0
100
AcDbSpline
 62
9
  6
CONTINUOUS
 70
0
 71
3
 72
24
 73
20
 74
18
 42
0.0000001
 43
0.0000001
 44
0.0000000001
 12
-0.0024866639
 22
-1.0293675216
 32
0.0
 13
1.0260815817
 23
-0.0822208349
 33
0.0
 40
0.0
 40
0.0
 40
0.0
 40
0.0
 40
0.0538594551
 40
0.1085856231
 40
0.164397548
 40
0.2215074453
 40
0.2801234114
 40
0.3403506293
 40
0.371092732
 40
0.4022417744
 40
0.4656902315
 40
0.5305724201
 40
0.5966594661
 40
0.6636570863
 40
0.7312357481
 40
0.7990260425
 40
0.8666638089
 40
0.9337673323
 40
1.0
 40
1.0
 40
1.0
 40
1.0
 10
3.5403107426
 20
3.217897153
 30
0.0
 10
3.5402660992
 20
3.1994167618
 30
0.0
 10
3.5423732948
 20
3.1621170938
 30
0.0
 10
3.5521762941
 20
3.1064388768
 30
0.0
 10
3.5688313275
 20
3.0512370422
 30
0.0
 10
3.5923834047
 20
2.9971476956
 30
0.0
 10
3.62283191
 20
2.944865235
 30
0.0
 10
3.6534779242
 20
2.9035570121
 30
0.0
 10
3.6810476523
 20
2.8719818221
 30
0.0
 10
3.7109765375
 20
2.8410740106
 30
0.0
 10
3.7519637537
 20
2.8046748744
 30
0.0
 10
3.8058852668
 20
2.7652459554
 30
0.0
 10
3.8641058182
 20
2.7300905903
 30
0.0
 10
3.9258814903
 20
2.6995174219
 30
0.0
 10
3.9903876993
 20
2.6736382323
 30
0.0
 10
4.0568392125
 20
2.6525536311
 30
0.0
 10
4.1244304033
 20
2.6361755345
 30
0.0
 10
4.1924226393
 20
2.6244004534
 30
0.0
 10
4.2379313912
 20
2.6193955213
 30
0.0
 10
4.2605847647
 20
2.6175802863
 30
0.0
 11
3.5403107426
 21
3.217897153
 31
0.0
 11
3.5434310507
 21
3.1625436945
 31
0.0
 11
3.5531876126
 21
3.1070615064
 31
0.0
 11
3.5697493593
 21
3.0520492965
 31
0.0
 11
3.593184158
 21
2.9981350092
 31
0.0
 11
3.6234731417
 21
2.9459507477
 31
0.0
 11
3.6603515697
 21
2.8961160128
 31
0.0
 11
3.681154596
 21
2.8722698174
 31
0.0
 11
3.7034509213
 21
2.8492270756
 31
0.0
 11
3.7522334298
 21
2.8057998894
 31
0.0
 11
3.8060892855
 21
2.7663010448
 31
0.0
 11
3.8642897536
 21
2.7310799989
 31
0.0
 11
3.9260662362
 21
2.7004223862
 31
0.0
 11
3.990609608
 21
2.6744756856
 31
0.0
 11
4.0571061471
 21
2.6533180764
 31
0.0
 11
4.1247642716
 21
2.6368886953
 31
0.0
 11
4.192818394
 21
2.6250604389
 31
0.0
 11
4.2605847647
 21
2.6175802863
 31
0.0
  0
SPLINE
  5
3E5
100
AcDbEntity
  8
0
100
AcDbSpline
 62
9
  6
CONTINUOUS
 70
0
 71
3
 72
21
 73
17
 74
15
 42
0.0000001
 43
0.0000001
 44
0.0000000001
 12
-0.9358801427
 22
0.0
 32
0.0
 13
-0.0759061848
 23
0.932796812
 33
0.0
 40
0.0
 40
0.0
 40
0.0
 40
0.0
 40
0.0656231585
 40
0.1315426348
 40
0.1976942513
 40
0.2639423401
 40
0.3301374938
 40
0.3960853749
 40
0.4615871171
 40
0.5264260476
 40
0.5903955008
 40
0.6533094765
 40
0.7149934619
 40
0.7752999179
 40
0.8911300416
 40
1.0
 40
1.0
 40
1.0
 40
1.0
 10
4.2605847647
 20
2.6920461851
 30
0.0
 10
4.240112961
 20
2.6920461851
 30
0.0
 10
4.1990564311
 20
2.6937358792
 30
0.0
 10
4.1377932989
 20
2.7014241031
 30
0.0
 10
4.0772198141
 20
2.7143906971
 30
0.0
 10
4.0179178389
 20
2.7325966529
 30
0.0
 10
3.9605293044
 20
2.7559889844
 30
0.0
 10
3.905677766
 20
2.7843344484
 30
0.0
 10
3.854025471
 20
2.817386185
 30
0.0
 10
3.8061558697
 20
2.854721105
 30
0.0
 10
3.7626657749
 20
2.8959145957
 30
0.0
 10
3.7239918848
 20
2.940363479
 30
0.0
 10
3.6905562824
 20
2.9874876955
 30
0.0
 10
3.6537486481
 20
3.0520238891
 30
0.0
 10
3.6213728825
 20
3.1354741698
 30
0.0
 10
3.6088867494
 20
3.2049385567
 30
0.0
 10
3.606132115
 20
3.2387897401
 30
0.0
 11
4.2605847647
 21
2.6920461851
 31
0.0
 11
4.1992218391
 21
2.6945847008
 31
0.0
 11
4.1380117798
 21
2.7022867423
 31
0.0
 11
4.077474908
 21
2.7152533652
 31
0.0
 11
4.0182114726
 21
2.733470906
 31
0.0
 11
3.9608471946
 21
2.756863908
 31
0.0
 11
3.9060297637
 21
2.7852244933
 31
0.0
 11
3.8544036736
 21
2.8182798261
 31
0.0
 11
3.806578695
 21
2.8556296846
 31
0.0
 11
3.7631276693
 21
2.8968140842
 31
0.0
 11
3.7245105171
 21
2.9412613896
 31
0.0
 11
3.691119876
 21
2.9883536544
 31
0.0
 11
3.6631922418
 21
3.0373993204
 31
0.0
 11
3.6240470599
 21
3.1384878439
 31
0.0
 11
3.606132115
 21
3.2387897401
 31
0.0
  0
SPLINE
  5
3E6
100
AcDbEntity
  8
0
100
AcDbSpline
 62
6
  6
CONTINUOUS
 70
0
 71
3
 72
9
 73
5
 74
3
 42
0.0000001
 43
0.0000001
 44
0.0000000001
 12
-0.0666074589
 22
-0.0199081158
 32
0.0
 13
-0.0614495947
 23
-0.0325089829
 33
0.0
 40
0.0
 40
0.0
 40
0.0
 40
0.0
 40
0.5224957383
 40
1.0
 40
1.0
 40
1.0
 40
1.0
 10
3.7513397835
 20
3.7997273303
 30
0.0
 10
3.739739079
 20
3.7962600284
 30
0.0
 10
3.7177579386
 20
3.788841283
 30
0.0
 10
3.6965550277
 20
3.7793516625
 30
0.0
 10
3.6867742132
 20
3.7741772699
 30
0.0
 11
3.7513397835
 21
3.7997273303
 31
0.0
 11
3.7169814327
 21
3.7879421501
 31
0.0
 11
3.6867742132
 21
3.7741772699
 31
0.0
  0
SPLINE
  5
3E7
100
AcDbEntity
  8
0
100
AcDbSpline
 62
6
  6
CONTINUOUS
 70
0
 71
3
 72
9
 73
5
 74
3
 42
0.0000001
 43
0.0000001
 44
0.0000000001
 12
-0.0458536719
 22
-0.0248848807
 32
0.0
 13
-0.0363069714
 23
-0.0374649215
 33
0.0
 40
0.0
 40
0.0
 40
0.0
 40
0.0
 40
0.5211150196
 40
1.0
 40
1.0
 40
1.0
 40
1.0
 10
3.6844820952
 20
3.7729491211
 30
0.0
 10
3.6765170828
 20
3.7686264928
 30
0.0
 10
3.6616720539
 20
3.7594696063
 30
0.0
 10
3.6483305992
 20
3.7481606336
 30
0.0
 10
3.6425349781
 20
3.7421801708
 30
0.0
 11
3.6844820952
 21
3.7729491211
 31
0.0
 11
3.6614534596
 21
3.7584984882
 31
0.0
 11
3.6425349781
 21
3.7421801708
 31
0.0
  0
LINE
  5
3E8
100
AcDbEntity
  8
0
100
AcDbLine
 62
9
  6
CONTINUOUS
 10
3.725790446
 20
3.7656838529
 11
3.7513397835
 21
3.7997273303
  0
SPLINE
  5
3E9
100
AcDbEntity
  8
0
100
AcDbSpline
 62
9
  6
CONTINUOUS
 70
0
 71
3
 72
21
 73
17
 74
15
 42
0.0000001
 43
0.0000001
 44
0.0000000001
 12
0.5756734118
 22
-0.0000000001
 32
0.0
 13
0.0000011883
 23
-0.5756734118
 33
0.0
 40
0.0
 40
0.0
 40
0.0
 40
0.0
 40
0.1335189454
 40
0.1999439055
 40
0.2659005761
 40
0.3958033546
 40
0.4596910838
 40
0.5227237223
 40
0.5848730728
 40
0.6461588201
 40
0.7066164314
 40
0.7663074206
 40
0.8253401925
 40
0.8838627119
 40
0.9420273957
 40
1.0
 40
1.0
 40
1.0
 40
1.0
 10
4.2605847647
 20
4.6113661288
 30
0.0
 10
4.286205867
 20
4.6113661288
 30
0.0
 10
4.324676704
 20
4.6080704601
 30
0.0
 10
4.3745916188
 20
4.5972690484
 30
0.0
 10
4.4227299105
 20
4.5824019513
 30
0.0
 10
4.4682756026
 20
4.5613750985
 30
0.0
 10
4.5098120531
 20
4.5347506928
 30
0.0
 10
4.5384268808
 20
4.5123498803
 30
0.0
 10
4.5643416017
 20
4.4875930633
 30
0.0
 10
4.5873422601
 20
4.4607528788
 30
0.0
 10
4.6072217614
 20
4.4320953133
 30
0.0
 10
4.6237734521
 20
4.4018821152
 30
0.0
 10
4.636783564
 20
4.3703825673
 30
0.0
 10
4.646171464
 20
4.3379242704
 30
0.0
 10
4.6518644338
 20
4.3048281367
 30
0.0
 10
4.6531470715
 20
4.2825222075
 30
0.0
 10
4.6531470944
 20
4.2713977785
 30
0.0
 11
4.2605847647
 21
4.6113661288
 31
0.0
 11
4.3371681505
 21
4.604812279
 31
0.0
 11
4.3745400231
 21
4.5967147089
 31
0.0
 11
4.4108117045
 21
4.5854875908
 31
0.0
 11
4.4786655796
 21
4.554052965
 31
0.0
 11
4.509616333
 21
4.5341857433
 31
0.0
 11
4.5381680052
 21
4.5117917408
 31
0.0
 11
4.5640266483
 21
4.4870657131
 31
0.0
 11
4.5869673999
 21
4.4602619652
 31
0.0
 11
4.6067826698
 21
4.4316496896
 31
0.0
 11
4.6232648676
 21
4.401498079
 31
0.0
 11
4.6362288391
 21
4.3700843826
 31
0.0
 11
4.645579179
 21
4.3377180775
 31
0.0
 11
4.6512429199
 21
4.304716698
 31
0.0
 11
4.6531470944
 21
4.2713977785
 31
0.0
  0
SPLINE
  5
3EA
100
AcDbEntity
  8
0
100
AcDbSpline
 62
9
  6
CONTINUOUS
 70
0
 71
3
 72
21
 73
17
 74
15
 42
0.0000001
 43
0.0000001
 44
0.0000000001
 12
-0.5756734118
 22
-0.0000000001
 32
0.0
 13
-0.0000011883
 23
-0.5756734118
 33
0.0
 40
0.0
 40
0.0
 40
0.0
 40
0.0
 40
0.1335189454
 40
0.1999439055
 40
0.2659005761
 40
0.3958033546
 40
0.4596910838
 40
0.5227237223
 40
0.5848730728
 40
0.6461588201
 40
0.7066164314
 40
0.7663074206
 40
0.8253401925
 40
0.8838627119
 40
0.9420273957
 40
1.0
 40
1.0
 40
1.0
 40
1.0
 10
4.2605847647
 20
4.6113661288
 30
0.0
 10
4.2349636624
 20
4.6113661288
 30
0.0
 10
4.1964928253
 20
4.6080704601
 30
0.0
 10
4.1465779106
 20
4.5972690484
 30
0.0
 10
4.0984396189
 20
4.5824019513
 30
0.0
 10
4.0528939268
 20
4.5613750985
 30
0.0
 10
4.0113574762
 20
4.5347506928
 30
0.0
 10
3.9827426486
 20
4.5123498803
 30
0.0
 10
3.9568279277
 20
4.4875930633
 30
0.0
 10
3.9338272693
 20
4.4607528788
 30
0.0
 10
3.913947768
 20
4.4320953133
 30
0.0
 10
3.8973960773
 20
4.4018821152
 30
0.0
 10
3.8843859654
 20
4.3703825673
 30
0.0
 10
3.8749980654
 20
4.3379242704
 30
0.0
 10
3.8693050955
 20
4.3048281367
 30
0.0
 10
3.8680224579
 20
4.2825222075
 30
0.0
 10
3.8680224349
 20
4.2713977785
 30
0.0
 11
4.2605847647
 21
4.6113661288
 31
0.0
 11
4.1840013788
 21
4.604812279
 31
0.0
 11
4.1466295063
 21
4.5967147089
 31
0.0
 11
4.1103578249
 21
4.5854875908
 31
0.0
 11
4.0425039498
 21
4.554052965
 31
0.0
 11
4.0115531964
 21
4.5341857433
 31
0.0
 11
3.9830015241
 21
4.5117917408
 31
0.0
 11
3.9571428811
 21
4.4870657131
 31
0.0
 11
3.9342021294
 21
4.4602619652
 31
0.0
 11
3.9143868595
 21
4.4316496896
 31
0.0
 11
3.8979046618
 21
4.401498079
 31
0.0
 11
3.8849406902
 21
4.3700843826
 31
0.0
 11
3.8755903503
 21
4.3377180775
 31
0.0
 11
3.8699266094
 21
4.304716698
 31
0.0
 11
3.8680224349
 21
4.2713977785
 31
0.0
  0
SPLINE
  5
3EB
100
AcDbEntity
  8
0
100
AcDbSpline
 62
6
  6
CONTINUOUS
 70
0
 71
3
 72
14
 73
10
 74
8
 42
0.0000001
 43
0.0000001
 44
0.0000000001
 12
-0.1214435422
 22
0.2771590749
 32
0.0
 13
-0.2755258136
 23
0.1251048072
 33
0.0
 40
0.0
 40
0.0
 40
0.0
 40
0.0
 40
0.1197446136
 40
0.2408334375
 40
0.3634129403
 40
0.4875871081
 40
0.6133933697
 40
0.7408249953
 40
1.0
 40
1.0
 40
1.0
 40
1.0
 10
4.6813117517
 20
6.8728640284
 30
0.0
 10
4.6764643483
 20
6.8839267972
 30
0.0
 10
4.6655785226
 20
6.9056962766
 30
0.0
 10
4.6460210475
 20
6.9367633744
 30
0.0
 10
4.6232979352
 20
6.9661661613
 30
0.0
 10
4.5975943131
 20
6.9936509378
 30
0.0
 10
4.5691333077
 20
7.0190153645
 30
0.0
 10
4.5276000607
 20
7.0498580339
 30
0.0
 10
4.4933171439
 20
7.0689553205
 30
0.0
 10
4.4695140092
 20
7.0797633335
 30
0.0
 11
4.6813117517
 21
6.8728640284
 31
0.0
 11
4.6651263322
 21
6.9052827228
 31
0.0
 11
4.6456224109
 21
6.9363017369
 31
0.0
 11
4.6229569206
 21
6.9656635702
 31
0.0
 11
4.5973109764
 21
6.9931254961
 31
0.0
 11
4.5689031752
 21
7.0184676878
 31
0.0
 11
4.5379582627
 21
7.0414748828
 31
0.0
 11
4.4695140092
 21
7.0797633335
 31
0.0
  0
ELLIPSE
  5
3EC
100
AcDbEntity
  8
0
100
AcDbEllipse
 62
7
  6
CONTINUOUS
 10
4.2605847647
 20
9.2078748646
 30
0.0
 11
0.0
 21
0.281775597
 31
0.0
 40
0.9582093088
 41
6.0896233115
 42
6.4817417541
  0
ENDSEC
  0
SECTION
  2
OBJECTS
  0
DICTIONARY
  5
C
100
AcDbDictionary
280
0
281
1
  3
ACAD_GROUP
350
D
  3
ACAD_MLINESTYLE
350
17
  3
ACAD_LAYOUT
350
1A
  3
ACAD_PLOTSETTINGS
350
19
  3
ACAD_PLOTSTYLENAME
350
E
  0
DICTIONARY
  5
D
102
{ACAD_REACTORS
330
C
102
}
100
AcDbDictionary
280
0
281
1
  0
ACDBDICTIONARYWDFLT
  5
E
102
{ACAD_REACTORS
330
C
102
}
100
AcDbDictionary
281
1
  3
Normal
350
F
100
AcDbDictionaryWithDefault
340
F
  0
DICTIONARY
  5
17
102
{ACAD_REACTORS
330
C
102
}
100
AcDbDictionary
280
0
281
1
  3
Standard
350
18
  0
DICTIONARY
  5
19
102
{ACAD_REACTORS
330
C
102
}
100
AcDbDictionary
281
1
  0
DICTIONARY
  5
1A
102
{ACAD_REACTORS
330
C
102
}
100
AcDbDictionary
281
1
  3
Model
350
3ED
  3
Layout1
350
3EE
  0
ACDBPLACEHOLDER
  5
F
102
{ACAD_REACTORS
330
E
102
}
  0
MLINESTYLE
  5
18
102
{ACAD_REACTORS
330
17
102
}
100
AcDbMlineStyle
  2
STANDARD
 70
0
  3

 62
256
 51
90.0
 52
90.0
 71
2
 49
0.5
 62
256
  6
BYLAYER
 49
-0.5
 62
256
  6
BYLAYER
  0
LAYOUT
  5
3ED
102
{ACAD_REACTORS
330
1A
102
}
100
AcDbPlotSettings
  1

  2
none_device
  4

  6

 40
0.0
 41
0.0
 42
0.0
 43
0.0
 44
210.0
 45
297.0
 46
0.0
 47
0.0
 48
0.0
 49
0.0
140
0.0
141
0.0
142
1.0
143
1.0
 70
1024
 72
0
 73
0
 74
0
  7

 75
0
147
1.0
148
0.0
149
0.0
100
AcDbLayout
  1
Model
 70
0
 71
0
 10
0.0
 20
0.0
 11
8.2677165354
 21
11.6929133858
 12
0.0
 22
0.0
 32
0.0
 14
0.0
 24
0.0
 34
0.0
 15
0.0
 25
0.0
 35
0.0
146
0.0
 13
0.0
 23
0.0
 33
0.0
 16
1.0
 26
0.0
 36
0.0
 17
0.0
 27
1.0
 37
0.0
 76
0
330
22D
345
0
346
0
  0
LAYOUT
  5
3EE
102
{ACAD_REACTORS
330
1A
102
}
100
AcDbPlotSettings
  1

  2
none_device
  4

  6

 40
0.0
 41
0.0
 42
0.0
 43
0.0
 44
210.0
 45
297.0
 46
0.0
 47
0.0
 48
0.0
 49
0.0
140
0.0
141
0.0
142
1.0
143
1.0
 70
0
 72
0
 73
0
 74
0
  7

 75
0
147
1.0
148
0.0
149
0.0
100
AcDbLayout
  1
Layout1
 70
0
 71
1
 10
0.0
 20
0.0
 11
8.2677165354
 21
11.6929133858
 12
0.0
 22
0.0
 32
0.0
 14
0.0
 24
0.0
 34
0.0
 15
0.0
 25
0.0
 35
0.0
146
0.0
 13
0.0
 23
0.0
 33
0.0
 16
1.0
 26
0.0
 36
0.0
 17
0.0
 27
1.0
 37
0.0
 76
0
330
22E
345
0
346
0
  0
ENDSEC
  0
EOF
