999
DXF file: E:\BT Custom\CADOUTPUT\_TOP.dxf
999
Pro/ENGINEER 2018400 by Parametric Technology Corporation
  0
SECTION
  2
HEADER
  9
$ACADVER
  1
AC1018
  9
$DWGCODEPAGE
  3
ANSI_1252
  9
$EXTMAX
 10
22.0
 20
17.0
 30
0.0
  9
$EXTMIN
 10
0.0
 20
0.0
 30
0.0
  9
$LIMMIN
 10
0.0
 20
0.0
  9
$LIMMAX
 10
22.0
 20
17.0
  9
$VIEWCTR
 10
11.0
 20
8.5
  9
$VIEWSIZE
 40
17.0
  9
$CLAYER
  8
0
  9
$LTSCALE
 40
1.21
  9
$CELTYPE
  6
BYLAYER
  9
$DIMSCALE
 40
1.0
  9
$DIMASZ
 40
0.1
  9
$DIMEXO
 40
0.0625
  9
$DIMDLI
 40
0.836
  9
$DIMEXE
 40
0.125
  9
$DIMCEN
 40
0.198
  9
$DIMLFAC
 40
1.0
  9
$DIMBLK
  1
_FILLED
  9
$DIMALT
 70
1
  9
$DIMALTD
 70
2
  9
$DIMALTTD
 70
2
  9
$DIMALTF
 40
25.4
  9
$DIMTXT
 40
0.08
  9
$DIMTOL
 70
1
  9
$DIMLIM
 70
0
  9
$DIMTFAC
 40
1.0
  9
$DIMTP
 40
0.001
  9
$DIMTM
 40
0.001
  9
$DIMGAP
 40
0.09
  9
$DIMDSEP
 70
46
  9
$AUNITS
 70
0
  9
$PDMODE
 70
3
  9
$PDSIZE
 40
0.06
  9
$HANDSEED
  5
39E
  9
$TILEMODE
 70
1
  9
$MEASUREMENT
 70
0
  9
$INSUNITS
 70
1
  0
ENDSEC
  0
SECTION
  2
CLASSES
  0
CLASS
  1
ACDBDICTIONARYWDFLT
  2
AcDbDictionaryWithDefault
  3
AutoCAD 2000
 90
0
 91
1
280
0
281
0
  0
CLASS
  1
ACDBPLACEHOLDER
  2
AcDbPlaceHolder
  3
AutoCAD 2000
 90
0
 91
1
280
0
281
0
  0
CLASS
  1
LAYOUT
  2
AcDbLayout
  3
AutoCAD 2000
 90
0
 91
0
280
0
281
0
  0
ENDSEC
  0
SECTION
  2
TABLES
  0
TABLE
  2
VPORT
  5
8
100
AcDbSymbolTable
 70
2
  0
VPORT
  5
1F4
100
AcDbSymbolTableRecord
100
AcDbViewportTableRecord
  2
*ACTIVE
 70
0
 10
0.0
 20
0.0
 11
1.0
 21
1.0
 12
11.0
 22
8.5
 13
0.0
 23
0.0
 14
1.0
 24
1.0
 15
0.0
 25
0.0
 16
0.0
 26
0.0
 36
1.0
 17
0.0
 27
0.0
 37
0.0
 40
17.0
 41
1.2941176471
 42
50.0
 43
0.0
 44
0.0
 50
0.0
 51
0.0
 71
0
 72
100
 73
1
 74
1
 75
0
 76
0
 77
0
 78
0
  0
ENDTAB
  0
TABLE
  2
LTYPE
  5
5
100
AcDbSymbolTable
 70
6
  0
LTYPE
  5
14
100
AcDbSymbolTableRecord
100
AcDbLinetypeTableRecord
  2
BYBLOCK
 70
0
  3

 72
65
 73
0
 40
0.0
  0
LTYPE
  5
15
100
AcDbSymbolTableRecord
100
AcDbLinetypeTableRecord
  2
BYLAYER
 70
0
  3

 72
65
 73
0
 40
0.0
  0
LTYPE
  5
16
100
AcDbSymbolTableRecord
100
AcDbLinetypeTableRecord
  2
CONTINUOUS
 70
64
  3
Solid line
 72
65
 73
0
 40
0.0
  0
LTYPE
  5
1F5
100
AcDbSymbolTableRecord
100
AcDbLinetypeTableRecord
  2
CENTER
 70
64
  3
____ _ ____ _ ____ _ ____ _ ____ _ ____ _ ____
 72
65
 73
4
 40
0.6
 49
0.375
 74
0
 49
-0.075
 74
0
 49
0.075
 74
0
 49
-0.075
 74
0
  0
LTYPE
  5
1F6
100
AcDbSymbolTableRecord
100
AcDbLinetypeTableRecord
  2
HIDDEN
 70
64
  3
- - - - - - - - - - - - - - - - - - - -
 72
65
 73
2
 40
0.2
 49
0.1
 74
0
 49
-0.1
 74
0
  0
LTYPE
  5
1F7
100
AcDbSymbolTableRecord
100
AcDbLinetypeTableRecord
  2
PHANTOM
 70
64
  3
_____ _ _ _____ _ _ _____ _ _ _____
 72
65
 73
6
 40
0.8
 49
0.45
 74
0
 49
-0.05
 74
0
 49
0.1
 74
0
 49
-0.05
 74
0
 49
0.1
 74
0
 49
-0.05
 74
0
  0
LTYPE
  5
1F8
100
AcDbSymbolTableRecord
100
AcDbLinetypeTableRecord
  2
DOT
 70
64
  3
. . . . . . . . . . . . . . . . . . . .
 72
65
 73
2
 40
0.2
 49
0.1
 74
0
 49
-0.1
 74
0
  0
LTYPE
  5
1F9
100
AcDbSymbolTableRecord
100
AcDbLinetypeTableRecord
  2
DASHED
 70
64
  3
- - - - - - - - - - - - - - - - - - - -
 72
65
 73
2
 40
0.2
 49
0.1
 74
0
 49
-0.1
 74
0
  0
ENDTAB
  0
TABLE
  2
LAYER
  5
2
100
AcDbSymbolTable
 70
36
  0
LAYER
  5
10
100
AcDbSymbolTableRecord
100
AcDbLayerTableRecord
  2
0
 70
0
 62
7
  6
CONTINUOUS
370
-3
390
F
  0
LAYER
  5
1FA
100
AcDbSymbolTableRecord
100
AcDbLayerTableRecord
  2
DEFAULT_1
 70
0
 62
7
  6
CENTER
370
-3
390
F
  0
LAYER
  5
1FB
100
AcDbSymbolTableRecord
100
AcDbLayerTableRecord
  2
DEFAULT_2
 70
0
 62
8
  6
HIDDEN
370
-3
390
F
  0
LAYER
  5
1FC
100
AcDbSymbolTableRecord
100
AcDbLayerTableRecord
  2
DEFAULT_3
 70
0
 62
7
  6
PHANTOM
370
-3
390
F
  0
LAYER
  5
1FD
100
AcDbSymbolTableRecord
100
AcDbLayerTableRecord
  2
ALL_FEATURES
 70
0
 62
7
  6
CONTINUOUS
370
-3
390
F
  0
LAYER
  5
1FE
100
AcDbSymbolTableRecord
100
AcDbLayerTableRecord
  2
AXES_FEATURES
 70
0
 62
7
  6
CONTINUOUS
370
-3
390
F
  0
LAYER
  5
1FF
100
AcDbSymbolTableRecord
100
AcDbLayerTableRecord
  2
DIMENSIONS
 70
0
 62
7
  6
CONTINUOUS
370
-3
390
F
  0
ENDTAB
  0
TABLE
  2
STYLE
  5
3
100
AcDbSymbolTable
 70
1
  0
STYLE
  5
11
100
AcDbSymbolTableRecord
100
AcDbTextStyleTableRecord
  2
STANDARD
 70
0
 40
0.0
 41
0.8
 50
0.0
 71
0
 42
0.2
  3
txt
  4

  0
STYLE
  5
200
100
AcDbSymbolTableRecord
100
AcDbTextStyleTableRecord
  2
TEXTSTYLE_1
 70
0
 40
0.0
 41
0.8
 50
0.0
 71
0
 42
0.2
  3
gdt
  4

  0
ENDTAB
  0
TABLE
  2
VIEW
  5
6
100
AcDbSymbolTable
 70
0
  0
ENDTAB
  0
TABLE
  2
UCS
  5
7
100
AcDbSymbolTable
 70
0
  0
ENDTAB
  0
TABLE
  2
APPID
  5
9
100
AcDbSymbolTable
 70
1
  0
APPID
  5
201
100
AcDbSymbolTableRecord
100
AcDbRegAppTableRecord
  2
ACAD
 70
0
  0
ENDTAB
  0
TABLE
  2
BLOCK_RECORD
  5
1
100
AcDbSymbolTable
 70
0
  0
BLOCK_RECORD
  5
202
100
AcDbSymbolTableRecord
100
AcDbBlockTableRecord
  2
*Model_Space
  0
BLOCK_RECORD
  5
203
100
AcDbSymbolTableRecord
100
AcDbBlockTableRecord
  2
*Paper_Space
  0
BLOCK_RECORD
  5
204
100
AcDbSymbolTableRecord
100
AcDbBlockTableRecord
  2
_FILLED
  0
ENDTAB
  0
TABLE
  2
DIMSTYLE
  5
A
100
AcDbSymbolTable
 70
1
100
AcDbDimStyleTable
 71
0
  0
DIMSTYLE
105
205
100
AcDbSymbolTableRecord
100
AcDbDimStyleTableRecord
  2
STANDARD
 70
0
  3

  4

 40
1.0
 41
0.1
 42
0.0625
 43
0.38
 44
0.125
 45
0.0
 46
0.0
 47
0.001
 48
0.001
140
0.08
141
0.09
142
0.0
143
25.4
144
1.0
145
0.0
146
1.0
147
0.09
 71
1.0
 72
0.0
 73
1
 74
1
 75
0
 76
0
 77
0
 78
4
 79
1
170
1
171
2
172
0
173
0
174
0
175
0
176
0
177
0
178
0
270
2
179
3
271
3
272
3
273
2
274
2
275
0
280
0
281
0
282
0
283
1
284
4
285
0
286
0
287
3
288
0
340
11
278
46
341
204
342
204
343
204
344
204
  0
ENDTAB
  0
ENDSEC
  0
SECTION
  2
BLOCKS
  0
BLOCK
  5
20
100
AcDbEntity
  8
0
100
AcDbBlockBegin
  2
*Model_Space
 70
0
 10
0.0
 20
0.0
 30
0.0
  3
*Model_Space
  1

  0
ENDBLK
  5
21
100
AcDbEntity
  8
0
100
AcDbBlockEnd
  0
BLOCK
  5
1C
100
AcDbEntity
  8
0
100
AcDbBlockBegin
  2
*Paper_Space
 70
0
 10
0.0
 20
0.0
 30
0.0
  3
*Paper_Space
  1

  0
ENDBLK
  5
1D
100
AcDbEntity
  8
0
100
AcDbBlockEnd
  0
BLOCK
  5
206
100
AcDbEntity
  8
0
100
AcDbBlockBegin
  2
_FILLED
 70
64
 10
0.0
 20
0.0
  3
_FILLED
  1

  0
SOLID
  5
207
100
AcDbEntity
  8
0
  6
BYBLOCK
 62
0
100
AcDbTrace
 10
0.0
 20
0.0
 11
-1.0
 21
0.2
 12
-1.0
 22
-0.2
 13
-1.0
 23
-0.2
  0
ENDBLK
  5
208
100
AcDbEntity
  8
0
  6
BYBLOCK
 62
0
100
AcDbBlockEnd
  0
ENDSEC
  0
SECTION
  2
ENTITIES
  0
LINE
  5
209
100
AcDbEntity
  8
0
100
AcDbLine
 62
7
  6
CONTINUOUS
 10
7.9778228661
 20
2.8943490197
 11
7.9538505245
 21
2.9112067551
  0
LWPOLYLINE
  5
20A
100
AcDbEntity
  8
0
100
AcDbPolyline
 62
7
  6
CONTINUOUS
 90
3
 70
0
 10
8.0275598793
 20
2.8592357343
 10
8.0040509877
 20
2.8760064291
 10
7.9778228661
 20
2.8943490197
  0
LINE
  5
20B
100
AcDbEntity
  8
0
100
AcDbLine
 62
7
  6
CONTINUOUS
 10
8.0275598793
 20
2.8592357343
 11
8.0424765914
 21
2.8484066655
  0
LWPOLYLINE
  5
20C
100
AcDbEntity
  8
0
100
AcDbPolyline
 62
7
  6
CONTINUOUS
 90
3
 70
0
 10
7.965555346
 20
2.9029543024
 10
7.9481779427
 20
2.9166735125
 10
7.9362727783
 20
2.9261128243
  0
LWPOLYLINE
  5
20D
100
AcDbEntity
  8
0
100
AcDbPolyline
 62
7
  6
CONTINUOUS
 90
4
 70
0
 10
7.9362622102
 20
2.9261212174
 10
7.9097830267
 20
2.9480643491
 10
7.8871151694
 20
2.9686145934
 10
7.8718727052
 20
2.9837388903
  0
LINE
  5
20E
100
AcDbEntity
  8
0
100
AcDbLine
 62
7
  6
CONTINUOUS
 10
7.8718727052
 20
2.9837388903
 11
7.871859637
 21
2.983752467
  0
LWPOLYLINE
  5
20F
100
AcDbEntity
  8
0
100
AcDbPolyline
 62
7
  6
CONTINUOUS
 90
4
 70
0
 10
7.871859637
 20
2.983752467
 10
7.8574856473
 20
2.9989502576
 10
7.8434368852
 20
3.0143679713
 10
7.8331117992
 20
3.026117439
  0
LINE
  5
210
100
AcDbEntity
  8
0
100
AcDbLine
 62
7
  6
CONTINUOUS
 10
7.8331117992
 20
3.026117439
 11
7.8330919543
 21
3.0261404088
  0
LWPOLYLINE
  5
211
100
AcDbEntity
  8
0
100
AcDbPolyline
 62
7
  6
CONTINUOUS
 90
3
 70
0
 10
7.8330919543
 20
3.0261404088
 10
7.8240460253
 20
3.0370350253
 10
7.8212347775
 20
3.0406726754
  0
LWPOLYLINE
  5
212
100
AcDbEntity
  8
0
100
AcDbPolyline
 62
7
  6
CONTINUOUS
 90
4
 70
0
 10
6.4856866382
 20
2.0949090809
 10
6.4901012412
 20
2.0354798347
 10
6.5012056491
 20
1.9627141421
 10
6.5168433144
 20
1.896076536
  0
LINE
  5
213
100
AcDbEntity
  8
0
100
AcDbLine
 62
7
  6
CONTINUOUS
 10
6.4856805515
 20
2.094992171
 11
6.4856837442
 21
2.0949084748
  0
LINE
  5
214
100
AcDbEntity
  8
0
100
AcDbLine
 62
7
  6
CONTINUOUS
 10
6.7389598888
 20
7.863702851
 11
6.7389598888
 21
7.925702851
  0
LINE
  5
215
100
AcDbEntity
  8
0
100
AcDbLine
 62
7
  6
CONTINUOUS
 10
6.8399598888
 20
7.156702851
 11
6.8399598888
 21
5.526702851
  0
LINE
  5
216
100
AcDbEntity
  8
0
100
AcDbLine
 62
7
  6
CONTINUOUS
 10
6.8999598888
 20
4.686702851
 11
6.8999598888
 21
4.726702851
  0
LINE
  5
217
100
AcDbEntity
  8
0
100
AcDbLine
 62
7
  6
CONTINUOUS
 10
6.8999598888
 20
4.976702851
 11
6.8999598888
 21
5.271702851
  0
LINE
  5
218
100
AcDbEntity
  8
0
100
AcDbLine
 62
7
  6
CONTINUOUS
 10
6.9299598888
 20
5.271702851
 11
6.9299598888
 21
5.4637030384
  0
LINE
  5
219
100
AcDbEntity
  8
0
100
AcDbLine
 62
7
  6
CONTINUOUS
 10
6.9999598888
 20
4.606702851
 11
6.9999598888
 21
4.686702851
  0
LINE
  5
21A
100
AcDbEntity
  8
0
100
AcDbLine
 62
7
  6
CONTINUOUS
 10
7.0109598888
 20
7.863702851
 11
7.0109598888
 21
5.676702851
  0
LWPOLYLINE
  5
21B
100
AcDbEntity
  8
0
100
AcDbPolyline
 62
7
  6
CONTINUOUS
 90
6
 70
0
 10
8.431388786
 20
2.3825888125
 10
8.3946209358
 20
2.4679257859
 10
8.3368033149
 20
2.5633306535
 10
8.259575316
 20
2.6588205068
 10
8.1598282607
 20
2.7554043007
 10
8.0424765914
 20
2.8484066655
  0
LINE
  5
21C
100
AcDbEntity
  8
0
100
AcDbLine
 62
7
  6
CONTINUOUS
 10
8.4313892271
 20
2.3825875549
 11
8.4313576768
 21
2.3826771352
  0
LINE
  5
21D
100
AcDbEntity
  8
0
100
AcDbLine
 62
7
  6
CONTINUOUS
 10
7.0719106798
 20
4.9418761902
 11
7.0719106798
 21
4.7615295118
  0
LINE
  5
21E
100
AcDbEntity
  8
0
100
AcDbLine
 62
7
  6
CONTINUOUS
 10
7.1045172239
 20
4.9418761902
 11
7.1045172239
 21
4.7615295118
  0
LINE
  5
21F
100
AcDbEntity
  8
0
100
AcDbLine
 62
7
  6
CONTINUOUS
 10
7.1389528869
 20
4.9418761902
 11
7.1389528869
 21
4.7615295118
  0
LINE
  5
220
100
AcDbEntity
  8
0
100
AcDbLine
 62
7
  6
CONTINUOUS
 10
7.1750499017
 20
4.9418761902
 11
7.1750499017
 21
4.7615295118
  0
LINE
  5
221
100
AcDbEntity
  8
0
100
AcDbLine
 62
7
  6
CONTINUOUS
 10
7.2126324074
 20
4.9418761902
 11
7.2126324074
 21
4.7615295118
  0
LINE
  5
222
100
AcDbEntity
  8
0
100
AcDbLine
 62
7
  6
CONTINUOUS
 10
7.2515173057
 20
4.9418761902
 11
7.2515173057
 21
4.7615295118
  0
LINE
  5
223
100
AcDbEntity
  8
0
100
AcDbLine
 62
7
  6
CONTINUOUS
 10
7.2799598888
 20
3.9535455808
 11
7.2799598888
 21
4.529402851
  0
LINE
  5
224
100
AcDbEntity
  8
0
100
AcDbLine
 62
7
  6
CONTINUOUS
 10
7.2915151533
 20
4.9418761902
 11
7.2915151533
 21
4.7615295118
  0
LINE
  5
225
100
AcDbEntity
  8
0
100
AcDbLine
 62
7
  6
CONTINUOUS
 10
7.3324310847
 20
4.9418761902
 11
7.3324310847
 21
4.7615295118
  0
LINE
  5
226
100
AcDbEntity
  8
0
100
AcDbLine
 62
7
  6
CONTINUOUS
 10
7.3740657616
 20
4.9418761902
 11
7.3740657616
 21
4.7615295118
  0
LINE
  5
227
100
AcDbEntity
  8
0
100
AcDbLine
 62
7
  6
CONTINUOUS
 10
7.416216344
 20
4.9418761902
 11
7.416216344
 21
4.7615295118
  0
LINE
  5
228
100
AcDbEntity
  8
0
100
AcDbLine
 62
7
  6
CONTINUOUS
 10
7.4586774786
 20
4.9418761902
 11
7.4586774786
 21
4.7615295118
  0
LINE
  5
229
100
AcDbEntity
  8
0
100
AcDbLine
 62
7
  6
CONTINUOUS
 10
7.4799598886
 20
2.7721167131
 11
7.4799598886
 21
3.0386500993
  0
LINE
  5
22A
100
AcDbEntity
  8
0
100
AcDbLine
 62
9
  6
CONTINUOUS
 10
7.4799584552
 20
3.5447533259
 11
7.4799598888
 21
3.0386500993
  0
LINE
  5
22B
100
AcDbEntity
  8
0
100
AcDbLine
 62
9
  6
CONTINUOUS
 10
7.4799598888
 20
2.7721167104
 11
7.4799596797
 21
1.5227873319
  0
LINE
  5
22C
100
AcDbEntity
  8
0
100
AcDbLine
 62
7
  6
CONTINUOUS
 10
7.501242299
 20
4.9418761902
 11
7.501242299
 21
4.7615295118
  0
LINE
  5
22D
100
AcDbEntity
  8
0
100
AcDbLine
 62
7
  6
CONTINUOUS
 10
7.5437034335
 20
4.9418761902
 11
7.5437034335
 21
4.7615295118
  0
LINE
  5
22E
100
AcDbEntity
  8
0
100
AcDbLine
 62
9
  6
CONTINUOUS
 10
6.5285620999
 20
2.3826771329
 11
6.5149598894
 21
2.3061427965
  0
LINE
  5
22F
100
AcDbEntity
  8
0
100
AcDbLine
 62
9
  6
CONTINUOUS
 10
7.1227190557
 20
3.6896899001
 11
7.8372007219
 21
3.6896899001
  0
LINE
  5
230
100
AcDbEntity
  8
0
100
AcDbLine
 62
9
  6
CONTINUOUS
 10
7.2799598888
 20
3.9535455808
 11
7.6799598888
 21
3.9535455808
  0
LINE
  5
231
100
AcDbEntity
  8
0
100
AcDbLine
 62
7
  6
CONTINUOUS
 10
8.4560899094
 20
2.2962861147
 11
8.4313576768
 21
2.3826771352
  0
LINE
  5
232
100
AcDbEntity
  8
0
100
AcDbLine
 62
7
  6
CONTINUOUS
 10
7.585854016
 20
4.9418761902
 11
7.585854016
 21
4.7615295118
  0
LINE
  5
233
100
AcDbEntity
  8
0
100
AcDbLine
 62
7
  6
CONTINUOUS
 10
7.6274886929
 20
4.9418761902
 11
7.6274886929
 21
4.7615295118
  0
LINE
  5
234
100
AcDbEntity
  8
0
100
AcDbLine
 62
7
  6
CONTINUOUS
 10
7.6684046243
 20
4.9418761902
 11
7.6684046243
 21
4.7615295118
  0
LINE
  5
235
100
AcDbEntity
  8
0
100
AcDbLine
 62
7
  6
CONTINUOUS
 10
7.6799598888
 20
3.9535455808
 11
7.6799598888
 21
4.529402851
  0
LINE
  5
236
100
AcDbEntity
  8
0
100
AcDbLine
 62
7
  6
CONTINUOUS
 10
7.7084024719
 20
4.9418761902
 11
7.7084024719
 21
4.7615295118
  0
LINE
  5
237
100
AcDbEntity
  8
0
100
AcDbLine
 62
7
  6
CONTINUOUS
 10
7.7472873702
 20
4.9418761902
 11
7.7472873702
 21
4.7615295118
  0
LINE
  5
238
100
AcDbEntity
  8
0
100
AcDbLine
 62
7
  6
CONTINUOUS
 10
7.7848698758
 20
4.9418761902
 11
7.7848698758
 21
4.7615295118
  0
LINE
  5
239
100
AcDbEntity
  8
0
100
AcDbLine
 62
7
  6
CONTINUOUS
 10
7.8209668907
 20
4.9418761902
 11
7.8209668907
 21
4.7615295118
  0
LINE
  5
23A
100
AcDbEntity
  8
0
100
AcDbLine
 62
7
  6
CONTINUOUS
 10
7.8554025537
 20
4.9418761902
 11
7.8554025537
 21
4.7615295118
  0
LINE
  5
23B
100
AcDbEntity
  8
0
100
AcDbLine
 62
7
  6
CONTINUOUS
 10
7.8880090978
 20
4.9418761902
 11
7.8880090978
 21
4.7615295118
  0
LINE
  5
23C
100
AcDbEntity
  8
0
100
AcDbLine
 62
7
  6
CONTINUOUS
 10
7.9489598888
 20
7.863702851
 11
7.9489598888
 21
5.676702851
  0
LINE
  5
23D
100
AcDbEntity
  8
0
100
AcDbLine
 62
7
  6
CONTINUOUS
 10
7.9599598888
 20
4.606702851
 11
7.9599598888
 21
4.686702851
  0
LINE
  5
23E
100
AcDbEntity
  8
0
100
AcDbLine
 62
7
  6
CONTINUOUS
 10
8.0299598888
 20
5.271702851
 11
8.0299598888
 21
5.4637030317
  0
LINE
  5
23F
100
AcDbEntity
  8
0
100
AcDbLine
 62
7
  6
CONTINUOUS
 10
8.0599598888
 20
4.686702851
 11
8.0599598888
 21
4.726702851
  0
LINE
  5
240
100
AcDbEntity
  8
0
100
AcDbLine
 62
7
  6
CONTINUOUS
 10
8.0599598888
 20
4.976702851
 11
8.0599598888
 21
5.271702851
  0
LINE
  5
241
100
AcDbEntity
  8
0
100
AcDbLine
 62
9
  6
CONTINUOUS
 10
8.4449598882
 20
2.3061427965
 11
8.4313892271
 21
2.3825875549
  0
LWPOLYLINE
  5
242
100
AcDbEntity
  8
0
100
AcDbPolyline
 62
7
  6
CONTINUOUS
 90
3
 70
0
 10
8.474239226
 20
2.094992171
 10
8.4719893171
 20
2.1925704901
 10
8.4560899094
 20
2.2962861147
  0
LINE
  5
243
100
AcDbEntity
  8
0
100
AcDbLine
 62
7
  6
CONTINUOUS
 10
8.2209598888
 20
7.863702851
 11
8.2209598888
 21
7.925702851
  0
LINE
  5
244
100
AcDbEntity
  8
0
100
AcDbLine
 62
7
  6
CONTINUOUS
 10
8.4649598888
 20
5.526702851
 11
8.4649598888
 21
7.156702851
  0
LWPOLYLINE
  5
245
100
AcDbEntity
  8
0
100
AcDbPolyline
 62
7
  6
CONTINUOUS
 90
4
 70
0
 10
6.5285620999
 20
2.3826771329
 10
6.5038298683
 20
2.2962861153
 10
6.4879304604
 20
2.1925704905
 10
6.4856805515
 20
2.094992171
  0
LINE
  5
246
100
AcDbEntity
  8
0
100
AcDbLine
 62
7
  6
CONTINUOUS
 10
6.5285700452
 20
2.3826996759
 11
6.5285620999
 21
2.3826771329
  0
LINE
  5
247
100
AcDbEntity
  8
0
100
AcDbLine
 62
7
  6
CONTINUOUS
 10
7.2500143598
 20
4.529402851
 11
7.7099052806
 21
4.529402851
  0
LINE
  5
248
100
AcDbEntity
  8
0
100
AcDbLine
 62
7
  6
CONTINUOUS
 10
6.9999659778
 20
4.606702851
 11
7.9599537998
 21
4.606702851
  0
LINE
  5
249
100
AcDbEntity
  8
0
100
AcDbLine
 62
7
  6
CONTINUOUS
 10
6.8999602116
 20
4.686702851
 11
8.059959566
 21
4.686702851
  0
LINE
  5
24A
100
AcDbEntity
  8
0
100
AcDbLine
 62
7
  6
CONTINUOUS
 10
6.8849650068
 20
4.726702851
 11
8.0749547708
 21
4.726702851
  0
LINE
  5
24B
100
AcDbEntity
  8
0
100
AcDbLine
 62
7
  6
CONTINUOUS
 10
8.0749547708
 20
4.976702851
 11
6.8849650068
 21
4.976702851
  0
LINE
  5
24C
100
AcDbEntity
  8
0
100
AcDbLine
 62
9
  6
CONTINUOUS
 10
9.0079088195
 20
5.5417028529
 11
9.0079088195
 21
5.6347521192
  0
LINE
  5
24D
100
AcDbEntity
  8
0
100
AcDbLine
 62
9
  6
CONTINUOUS
 10
9.0079088195
 20
6.2486535847
 11
9.0079088195
 21
6.4347521173
  0
LINE
  5
24E
100
AcDbEntity
  8
0
100
AcDbLine
 62
9
  6
CONTINUOUS
 10
9.0079088195
 20
7.0486535828
 11
9.0079088195
 21
7.1417028491
  0
LINE
  5
24F
100
AcDbEntity
  8
0
100
AcDbLine
 62
7
  6
CONTINUOUS
 10
8.4742363451
 20
2.0949927768
 11
8.4742331394
 21
2.0949090809
  0
LINE
  5
250
100
AcDbEntity
  8
0
100
AcDbLine
 62
7
  6
CONTINUOUS
 10
8.059959566
 20
5.271702851
 11
6.8999602116
 21
5.271702851
  0
LINE
  5
251
100
AcDbEntity
  8
0
100
AcDbLine
 62
7
  6
CONTINUOUS
 10
7.2104523575
 20
5.6001070378
 11
7.0485215947
 21
5.612800719
  0
LINE
  5
252
100
AcDbEntity
  8
0
100
AcDbLine
 62
9
  6
CONTINUOUS
 10
9.1939598888
 20
7.055702851
 11
9.1939598888
 21
5.627702851
  0
LINE
  5
253
100
AcDbEntity
  8
0
100
AcDbLine
 62
7
  6
CONTINUOUS
 10
7.7494674201
 20
5.6001070378
 11
7.9113981829
 21
5.612800719
  0
LINE
  5
254
100
AcDbEntity
  8
0
100
AcDbLine
 62
7
  6
CONTINUOUS
 10
6.8399598888
 20
5.526702851
 11
6.8669598888
 21
5.526702851
  0
LINE
  5
255
100
AcDbEntity
  8
0
100
AcDbLine
 62
7
  6
CONTINUOUS
 10
8.0929598888
 20
5.526702851
 11
8.4649598888
 21
5.526702851
  0
LINE
  5
256
100
AcDbEntity
  8
0
100
AcDbLine
 62
7
  6
CONTINUOUS
 10
8.4649598888
 20
5.541702851
 11
9.1581586163
 21
5.541702851
  0
LINE
  5
257
100
AcDbEntity
  8
0
100
AcDbLine
 62
7
  6
CONTINUOUS
 10
7.2495272646
 20
5.598577851
 11
7.710392513
 21
5.598577851
  0
LINE
  5
258
100
AcDbEntity
  8
0
100
AcDbLine
 62
9
  6
CONTINUOUS
 10
7.2104523575
 20
5.6001070378
 11
7.7494674201
 21
5.6001070378
  0
LINE
  5
259
100
AcDbEntity
  8
0
100
AcDbLine
 62
9
  6
CONTINUOUS
 10
7.9113981829
 20
5.612800719
 11
7.0485215947
 21
5.612800719
  0
LINE
  5
25A
100
AcDbEntity
  8
0
100
AcDbLine
 62
7
  6
CONTINUOUS
 10
8.4649598888
 20
5.6347521221
 11
9.0079087857
 21
5.634752113
  0
LINE
  5
25B
100
AcDbEntity
  8
0
100
AcDbLine
 62
7
  6
CONTINUOUS
 10
7.0109598888
 20
5.676702851
 11
7.9489598888
 21
5.676702851
  0
LWPOLYLINE
  5
25C
100
AcDbEntity
  8
0
100
AcDbPolyline
 62
7
  6
CONTINUOUS
 90
4
 70
0
 10
8.4430764632
 20
1.896076536
 10
8.4587141285
 20
1.9627141421
 10
8.4698185364
 20
2.0354798345
 10
8.4742331394
 20
2.0949090809
  0
LINE
  5
25D
100
AcDbEntity
  8
0
100
AcDbLine
 62
7
  6
CONTINUOUS
 10
8.4649598888
 20
6.24865358
 11
9.0079087894
 21
6.248653589
  0
LINE
  5
25E
100
AcDbEntity
  8
0
100
AcDbLine
 62
7
  6
CONTINUOUS
 10
8.4649598888
 20
6.4347521221
 11
9.0079087826
 21
6.434752113
  0
LWPOLYLINE
  5
25F
100
AcDbEntity
  8
0
100
AcDbPolyline
 62
7
  6
CONTINUOUS
 90
3
 70
0
 10
7.1401540541
 20
3.0426768642
 10
7.1400392253
 20
3.042515254
 10
7.1358737521
 20
3.0370350251
  0
LINE
  5
260
100
AcDbEntity
  8
0
100
AcDbLine
 62
7
  6
CONTINUOUS
 10
10.3304510983
 20
7.3846878143
 11
10.1679323015
 21
8.300702851
  0
LINE
  5
261
100
AcDbEntity
  8
0
100
AcDbLine
 62
7
  6
CONTINUOUS
 10
10.7429323015
 20
8.680702851
 11
10.7429323015
 21
8.300702851
  0
LINE
  5
262
100
AcDbEntity
  8
0
100
AcDbLine
 62
7
  6
CONTINUOUS
 10
15.2950871284
 20
13.3356398917
 11
15.0655389402
 21
13.046130518
  0
LINE
  5
263
100
AcDbEntity
  8
0
100
AcDbLine
 62
7
  6
CONTINUOUS
 10
7.7276905253
 20
3.7924600109
 11
9.1147811281
 21
5.541702851
  0
LINE
  5
264
100
AcDbEntity
  8
0
100
AcDbLine
 62
7
  6
CONTINUOUS
 10
9.1959180359
 20
5.6440236041
 11
10.54265777
 21
7.3423804616
  0
LINE
  5
265
100
AcDbEntity
  8
0
100
AcDbLine
 62
7
  6
CONTINUOUS
 10
15.0655389402
 20
13.046130518
 11
11.605644035
 21
8.6829041295
  0
LINE
  5
266
100
AcDbEntity
  8
0
100
AcDbLine
 62
9
  6
CONTINUOUS
 10
11.6729323015
 20
8.3171086121
 11
15.6886454029
 21
13.3812748433
  0
LINE
  5
267
100
AcDbEntity
  8
0
100
AcDbLine
 62
7
  6
CONTINUOUS
 10
7.1358737521
 20
3.0370350251
 11
7.1268278233
 21
3.0261404088
  0
LINE
  5
268
100
AcDbEntity
  8
0
100
AcDbLine
 62
7
  6
CONTINUOUS
 10
7.1268079784
 20
3.026117439
 11
7.1268278233
 21
3.0261404088
  0
LWPOLYLINE
  5
269
100
AcDbEntity
  8
0
100
AcDbPolyline
 62
7
  6
CONTINUOUS
 90
4
 70
0
 10
7.1268079784
 20
3.026117439
 10
7.1164828924
 20
3.0143679713
 10
7.1024341302
 20
2.9989502576
 10
7.0880601406
 20
2.983752467
  0
LINE
  5
26A
100
AcDbEntity
  8
0
100
AcDbLine
 62
7
  6
CONTINUOUS
 10
8.4649598888
 20
7.04865358
 11
9.0079087892
 21
7.048653589
  0
LINE
  5
26B
100
AcDbEntity
  8
0
100
AcDbLine
 62
7
  6
CONTINUOUS
 10
8.4649598888
 20
7.141702851
 11
9.1581586163
 21
7.141702851
  0
LINE
  5
26C
100
AcDbEntity
  8
0
100
AcDbLine
 62
7
  6
CONTINUOUS
 10
6.8399598888
 20
7.156702851
 11
7.0109598888
 21
7.156702851
  0
LINE
  5
26D
100
AcDbEntity
  8
0
100
AcDbLine
 62
7
  6
CONTINUOUS
 10
7.9489598888
 20
7.156702851
 11
8.4649598888
 21
7.156702851
  0
LINE
  5
26E
100
AcDbEntity
  8
0
100
AcDbLine
 62
7
  6
CONTINUOUS
 10
11.197975653
 20
7.300702851
 11
11.21788895
 21
7.300702851
  0
LINE
  5
26F
100
AcDbEntity
  8
0
100
AcDbLine
 62
9
  6
CONTINUOUS
 10
10.3469800276
 20
7.3684334258
 11
12.0688845754
 21
7.3684334258
  0
LINE
  5
270
100
AcDbEntity
  8
0
100
AcDbLine
 62
9
  6
CONTINUOUS
 10
10.3304510983
 20
7.3846878143
 11
12.0854135047
 21
7.3846878143
  0
LINE
  5
271
100
AcDbEntity
  8
0
100
AcDbLine
 62
7
  6
CONTINUOUS
 10
11.3413577762
 20
7.255062606
 11
10.9967565956
 21
7.3060301949
  0
LINE
  5
272
100
AcDbEntity
  8
0
100
AcDbLine
 62
7
  6
CONTINUOUS
 10
8.1307356251
 20
3.3994409888
 11
11.204199779
 21
7.2753487013
  0
LINE
  5
273
100
AcDbEntity
  8
0
100
AcDbLine
 62
7
  6
CONTINUOUS
 10
11.4473597975
 20
7.3067781708
 11
11.4360651289
 21
7.2925346036
  0
LINE
  5
274
100
AcDbEntity
  8
0
100
AcDbLine
 62
7
  6
CONTINUOUS
 10
12.0172733974
 20
8.300702851
 11
15.7338997771
 21
12.9876680551
  0
LINE
  5
275
100
AcDbEntity
  8
0
100
AcDbLine
 62
7
  6
CONTINUOUS
 10
7.0880470723
 20
2.9837388903
 11
7.0880601406
 21
2.983752467
  0
LWPOLYLINE
  5
276
100
AcDbEntity
  8
0
100
AcDbPolyline
 62
7
  6
CONTINUOUS
 90
4
 70
0
 10
7.0880470723
 20
2.9837388903
 10
7.0728046082
 20
2.9686145934
 10
7.0501367508
 20
2.9480643491
 10
7.0236575673
 20
2.9261212174
  0
LINE
  5
277
100
AcDbEntity
  8
0
100
AcDbLine
 62
7
  6
CONTINUOUS
 10
6.7389598888
 20
7.863702851
 11
8.2209598888
 21
7.863702851
  0
LINE
  5
278
100
AcDbEntity
  8
0
100
AcDbLine
 62
7
  6
CONTINUOUS
 10
6.666957215
 20
7.925702851
 11
8.2929625626
 21
7.925702851
  0
LINE
  5
279
100
AcDbEntity
  8
0
100
AcDbLine
 62
7
  6
CONTINUOUS
 10
11.6729323015
 20
8.680702851
 11
11.6729323015
 21
8.300702851
  0
LINE
  5
27A
100
AcDbEntity
  8
0
100
AcDbLine
 62
7
  6
CONTINUOUS
 10
12.0854135047
 20
7.3846878143
 11
12.2479323015
 21
8.300702851
  0
LWPOLYLINE
  5
27B
100
AcDbEntity
  8
0
100
AcDbPolyline
 62
7
  6
CONTINUOUS
 90
6
 70
0
 10
6.9174432565
 20
2.8484067169
 10
6.8001549296
 20
2.7554594281
 10
6.7004523924
 20
2.6589381784
 10
6.6232442935
 20
2.5635121831
 10
6.5654245505
 20
2.468171575
 10
6.5286344924
 20
2.3828825281
  0
LWPOLYLINE
  5
27C
100
AcDbEntity
  8
0
100
AcDbPolyline
 62
7
  6
CONTINUOUS
 90
3
 70
0
 10
7.0236575673
 20
2.9261212174
 10
6.995390006
 20
2.9037608157
 10
6.9943644316
 20
2.9029543024
  0
LINE
  5
27D
100
AcDbEntity
  8
0
100
AcDbLine
 62
7
  6
CONTINUOUS
 10
8.4799598888
 20
8.113702851
 11
6.4799598888
 21
8.113702851
  0
LINE
  5
27E
100
AcDbEntity
  8
0
100
AcDbLine
 62
7
  6
CONTINUOUS
 10
12.2479323015
 20
8.300702851
 11
10.1679323015
 21
8.300702851
  0
LINE
  5
27F
100
AcDbEntity
  8
0
100
AcDbLine
 62
7
  6
CONTINUOUS
 10
8.6599598888
 20
8.300702851
 11
6.2999598888
 21
8.300702851
  0
LWPOLYLINE
  5
280
100
AcDbEntity
  8
0
100
AcDbPolyline
 62
7
  6
CONTINUOUS
 90
7
 70
0
 10
15.7338997771
 20
12.9876680551
 10
15.7726961181
 20
13.0531143783
 10
15.7924388506
 20
13.1265368067
 10
15.7917126474
 20
13.2025055179
 10
15.7704575105
 20
13.2757877766
 10
15.730425543
 20
13.3403494379
 10
15.6886454029
 20
13.3812748433
  0
LWPOLYLINE
  5
281
100
AcDbEntity
  8
0
100
AcDbPolyline
 62
7
  6
CONTINUOUS
 90
3
 70
0
 10
6.9558687879
 20
2.8760064277
 10
6.9323598906
 20
2.8592357287
 10
6.9174432565
 20
2.8484067169
  0
LWPOLYLINE
  5
282
100
AcDbEntity
  8
0
100
AcDbPolyline
 62
7
  6
CONTINUOUS
 90
3
 70
0
 10
7.0060692531
 20
2.9112067551
 10
6.9820969115
 20
2.8943490197
 10
6.9558687879
 20
2.8760064277
  0
LINE
  5
283
100
AcDbEntity
  8
0
100
AcDbLine
 62
7
  6
CONTINUOUS
 10
11.6729323015
 20
8.680702851
 11
10.7429323015
 21
8.680702851
  0
LWPOLYLINE
  5
284
100
AcDbEntity
  8
0
100
AcDbPolyline
 62
7
  6
CONTINUOUS
 90
37
 70
0
 10
15.6886454029
 20
13.3812748433
 10
15.6782924239
 20
13.3891005672
 10
15.6650321358
 20
13.3980846704
 10
15.6514342071
 20
13.4062095058
 10
15.6375777826
 20
13.4134649255
 10
15.6235342496
 20
13.4198525201
 10
15.6093655887
 20
13.4253832213
 10
15.5951234397
 20
13.4300747287
 10
15.5808488492
 20
13.4339489376
 10
15.5665726228
 20
13.4370295186
 10
15.5523161808
 20
13.439339753
 10
15.5380928788
 20
13.4409006927
 10
15.523956803
 20
13.441728144
 10
15.5099816833
 20
13.4418430721
 10
15.4962105879
 20
13.4412733624
 10
15.4826816201
 20
13.4400494987
 10
15.4694280429
 20
13.4382038052
 10
15.4564785096
 20
13.4357697825
 10
15.4438573728
 20
13.4327815439
 10
15.4315850447
 20
13.4292733563
 10
15.4196783855
 20
13.425279283
 10
15.408151884
 20
13.4208332436
 10
15.3970291099
 20
13.4159741635
 10
15.3863350281
 20
13.4107448577
 10
15.3760897609
 20
13.4051894437
 10
15.3663093912
 20
13.3993531723
 10
15.357006118
 20
13.3932820517
 10
15.3481884904
 20
13.387022547
 10
15.3398674535
 20
13.38062596
 10
15.3320614209
 20
13.3741541367
 10
15.3247848554
 20
13.3676719274
 10
15.3180487209
 20
13.3612471047
 10
15.3118860385
 20
13.3549766407
 10
15.3063481548
 20
13.3489899089
 10
15.3015202789
 20
13.3434722294
 10
15.2978946048
 20
13.3391293299
 10
15.2962722641
 20
13.3371270409
  0
ARC
  5
285
100
AcDbEntity
  8
0
100
AcDbCircle
 62
7
  6
CONTINUOUS
 10
-2.7375729031
 20
4.850370576
 40
10.6565708991
100
AcDbArc
 50
359.5223344324
 51
0.0071630674
  0
ARC
  5
286
100
AcDbEntity
  8
0
100
AcDbCircle
 62
7
  6
CONTINUOUS
 10
-2.7375714969
 20
4.8530351318
 40
10.6565694929
100
AcDbArc
 50
359.9928369006
 51
0.4776655996
  0
ARC
  5
287
100
AcDbEntity
  8
0
100
AcDbCircle
 62
9
  6
CONTINUOUS
 10
7.4472973587
 20
1.3211375324
 40
1.4451883378
100
AcDbArc
 50
115.483130462
 51
118.4110373405
  0
ARC
  5
288
100
AcDbEntity
  8
0
100
AcDbCircle
 62
7
  6
CONTINUOUS
 10
7.4799598888
 20
3.029402851
 40
0.7507329752
100
AcDbArc
 50
118.4152481218
 51
202.4358493286
  0
ARC
  5
289
100
AcDbEntity
  8
0
100
AcDbCircle
 62
7
  6
CONTINUOUS
 10
7.4799598888
 20
3.029402851
 40
0.7507329752
100
AcDbArc
 50
337.5643809227
 51
61.5847518782
  0
ARC
  5
28A
100
AcDbEntity
  8
0
100
AcDbCircle
 62
9
  6
CONTINUOUS
 10
7.4799598888
 20
3.029402851
 40
0.5691464314
100
AcDbArc
 50
342.908718301
 51
197.0786359537
  0
ARC
  5
28B
100
AcDbEntity
  8
0
100
AcDbCircle
 62
9
  6
CONTINUOUS
 10
7.4799598888
 20
3.029402851
 40
0.5464028015
100
AcDbArc
 50
343.725800013
 51
196.2884427825
  0
ARC
  5
28C
100
AcDbEntity
  8
0
100
AcDbCircle
 62
7
  6
CONTINUOUS
 10
7.4799598888
 20
3.029402851
 40
0.5153504435
100
AcDbArc
 50
344.8430717037
 51
195.1601339659
  0
ARC
  5
28D
100
AcDbEntity
  8
0
100
AcDbCircle
 62
9
  6
CONTINUOUS
 10
7.4799598887
 20
2.9407190973
 40
0.3925623298
100
AcDbArc
 50
6.8414453883
 51
173.1735295549
  0
ARC
  5
28E
100
AcDbEntity
  8
0
100
AcDbCircle
 62
7
  6
CONTINUOUS
 10
3.5185289544
 20
4.8530306301
 40
3.554492259
100
AcDbArc
 50
359.9785971854
 51
1.4322737138
  0
ARC
  5
28F
100
AcDbEntity
  8
0
100
AcDbCircle
 62
7
  6
CONTINUOUS
 10
3.5185295346
 20
4.8503750648
 40
3.5544916788
100
AcDbArc
 50
358.5677261676
 51
0.0214029332
  0
ARC
  5
290
100
AcDbEntity
  8
0
100
AcDbCircle
 62
7
  6
CONTINUOUS
 10
4.2452020648
 20
6.341702851
 40
5.0
100
AcDbArc
 50
351.7900972579
 51
8.2099027421
  0
ARC
  5
291
100
AcDbEntity
  8
0
100
AcDbCircle
 62
7
  6
CONTINUOUS
 10
5.8125826458
 20
4.8531445069
 40
2.1363732972
100
AcDbArc
 50
359.9613360154
 51
2.3733420361
  0
ARC
  5
292
100
AcDbEntity
  8
0
100
AcDbCircle
 62
7
  6
CONTINUOUS
 10
5.8134980972
 20
4.8502478871
 40
2.1354578225
100
AcDbArc
 50
357.6189371464
 51
0.0390376209
  0
ARC
  5
293
100
AcDbEntity
  8
0
100
AcDbCircle
 62
7
  6
CONTINUOUS
 10
7.4799598888
 20
4.844402851
 40
0.39
100
AcDbArc
 50
306.1289274719
 51
322.4320693888
  0
ARC
  5
294
100
AcDbEntity
  8
0
100
AcDbCircle
 62
7
  6
CONTINUOUS
 10
7.4799412791
 20
4.8443812601
 40
0.3899712589
100
AcDbArc
 50
217.6935901241
 51
233.8714109645
  0
ARC
  5
295
100
AcDbEntity
  8
0
100
AcDbCircle
 62
7
  6
CONTINUOUS
 10
6.9799598888
 20
3.9535455808
 40
0.3
100
AcDbArc
 50
298.4152481218
 51
360.0
  0
ARC
  5
296
100
AcDbEntity
  8
0
100
AcDbCircle
 62
7
  6
CONTINUOUS
 10
7.1367691635
 20
4.8516811779
 40
0.2816303715
100
AcDbArc
 50
173.8057106415
 51
179.9955907606
  0
ARC
  5
297
100
AcDbEntity
  8
0
100
AcDbCircle
 62
7
  6
CONTINUOUS
 10
7.1367691544
 20
4.8517245184
 40
0.281630362
100
AcDbArc
 50
180.0044080938
 51
186.1942891589
  0
ARC
  5
298
100
AcDbEntity
  8
0
100
AcDbCircle
 62
7
  6
CONTINUOUS
 10
7.1367242542
 20
4.8516836105
 40
0.2815854616
100
AcDbArc
 50
173.8052167467
 51
179.9960850358
  0
ARC
  5
299
100
AcDbEntity
  8
0
100
AcDbCircle
 62
7
  6
CONTINUOUS
 10
7.1367241882
 20
4.8517220936
 40
0.281585396
100
AcDbArc
 50
180.0039153991
 51
186.1947858623
  0
ARC
  5
29A
100
AcDbEntity
  8
0
100
AcDbCircle
 62
7
  6
CONTINUOUS
 10
7.1340514663
 20
4.8514419048
 40
0.2788980459
100
AcDbArc
 50
186.1968110039
 51
189.3840706357
  0
ARC
  5
29B
100
AcDbEntity
  8
0
100
AcDbCircle
 62
7
  6
CONTINUOUS
 10
7.1336349662
 20
4.8520207573
 40
0.2784778318
100
AcDbArc
 50
170.6109155097
 51
173.8055905029
  0
ARC
  5
29C
100
AcDbEntity
  8
0
100
AcDbCircle
 62
7
  6
CONTINUOUS
 10
7.1303765554
 20
4.851702851
 40
0.2754166667
100
AcDbArc
 50
153.0085334384
 51
160.8885348968
  0
ARC
  5
29D
100
AcDbEntity
  8
0
100
AcDbCircle
 62
7
  6
CONTINUOUS
 10
7.1303765554
 20
4.851702851
 40
0.2754166667
100
AcDbArc
 50
199.1114651032
 51
206.9914665616
  0
ARC
  5
29E
100
AcDbEntity
  8
0
100
AcDbCircle
 62
7
  6
CONTINUOUS
 10
7.1302804217
 20
4.8508260292
 40
0.2750770478
100
AcDbArc
 50
189.3855789521
 51
192.5224220553
  0
ARC
  5
29F
100
AcDbEntity
  8
0
100
AcDbCircle
 62
7
  6
CONTINUOUS
 10
7.1302779975
 20
4.8525801473
 40
0.2750745783
100
AcDbArc
 50
167.4775648373
 51
170.6118000735
  0
ARC
  5
2A0
100
AcDbEntity
  8
0
100
AcDbCircle
 62
7
  6
CONTINUOUS
 10
7.1293613964
 20
4.8506481829
 40
0.2741413234
100
AcDbArc
 50
189.3802299924
 51
192.527782659
  0
ARC
  5
2A1
100
AcDbEntity
  8
0
100
AcDbCircle
 62
7
  6
CONTINUOUS
 10
7.1293594726
 20
4.8527579267
 40
0.2741393572
100
AcDbArc
 50
167.4722131777
 51
170.617143411
  0
ARC
  5
2A2
100
AcDbEntity
  8
0
100
AcDbCircle
 62
7
  6
CONTINUOUS
 10
7.124827943
 20
4.853778375
 40
0.2694943724
100
AcDbArc
 50
160.9192507081
 51
167.4750204277
  0
ARC
  5
2A3
100
AcDbEntity
  8
0
100
AcDbCircle
 62
7
  6
CONTINUOUS
 10
7.1248279051
 20
4.8496273169
 40
0.2694943333
100
AcDbArc
 50
192.5249791142
 51
199.080749904
  0
ARC
  5
2A4
100
AcDbEntity
  8
0
100
AcDbCircle
 62
7
  6
CONTINUOUS
 10
7.123397514
 20
4.854183238
 40
0.2680101965
100
AcDbArc
 50
160.9010816849
 51
167.4931957199
  0
ARC
  5
2A5
100
AcDbEntity
  8
0
100
AcDbCircle
 62
7
  6
CONTINUOUS
 10
7.3066681206
 20
4.8514346639
 40
0.2535173642
100
AcDbArc
 50
339.2287584154
 51
0.0606100182
  0
ARC
  5
2A6
100
AcDbEntity
  8
0
100
AcDbCircle
 62
7
  6
CONTINUOUS
 10
7.1067427822
 20
4.8515277698
 40
0.2476080194
100
AcDbArc
 50
179.959487177
 51
201.3139074982
  0
ARC
  5
2A7
100
AcDbEntity
  8
0
100
AcDbCircle
 62
7
  6
CONTINUOUS
 10
7.1066493492
 20
4.8518951576
 40
0.2475137168
100
AcDbArc
 50
158.6819457103
 51
180.044515467
  0
ARC
  5
2A8
100
AcDbEntity
  8
0
100
AcDbCircle
 62
7
  6
CONTINUOUS
 10
7.3610757204
 20
4.8518099158
 40
0.2421542428
100
AcDbArc
 50
359.9746677514
 51
21.835451527
  0
ARC
  5
2A9
100
AcDbEntity
  8
0
100
AcDbCircle
 62
7
  6
CONTINUOUS
 10
7.3613093225
 20
4.8515516455
 40
0.2419183519
100
AcDbArc
 50
338.1536745332
 51
0.0358107731
  0
ARC
  5
2AA
100
AcDbEntity
  8
0
100
AcDbCircle
 62
7
  6
CONTINUOUS
 10
7.1029058753
 20
4.8516621212
 40
0.2372308112
100
AcDbArc
 50
179.99016302
 51
202.3298839845
  0
ARC
  5
2AB
100
AcDbEntity
  8
0
100
AcDbCircle
 62
7
  6
CONTINUOUS
 10
7.102781845
 20
4.8517675999
 40
0.2371054996
100
AcDbArc
 50
157.6640975692
 51
180.0156461935
  0
ARC
  5
2AC
100
AcDbEntity
  8
0
100
AcDbCircle
 62
7
  6
CONTINUOUS
 10
7.4128858454
 20
4.8516793267
 40
0.2327870144
100
AcDbArc
 50
0.0057900319
 51
22.7968536219
  0
ARC
  5
2AD
100
AcDbEntity
  8
0
100
AcDbCircle
 62
7
  6
CONTINUOUS
 10
7.4129085625
 20
4.8517218596
 40
0.2327640434
100
AcDbArc
 50
337.2020044683
 51
359.995320983
  0
ARC
  5
2AE
100
AcDbEntity
  8
0
100
AcDbCircle
 62
7
  6
CONTINUOUS
 10
7.10398736
 20
4.8517889005
 40
0.2287796993
100
AcDbArc
 50
180.0215504025
 51
203.2361956194
  0
ARC
  5
2AF
100
AcDbEntity
  8
0
100
AcDbCircle
 62
7
  6
CONTINUOUS
 10
7.103987341
 20
4.8516168364
 40
0.2287796743
100
AcDbArc
 50
156.7638105421
 51
179.9784583496
  0
ARC
  5
2B0
100
AcDbEntity
  8
0
100
AcDbCircle
 62
7
  6
CONTINUOUS
 10
7.4621377384
 20
4.8515569036
 40
0.2251714656
100
AcDbArc
 50
0.0371372745
 51
23.6474498738
  0
ARC
  5
2B1
100
AcDbEntity
  8
0
100
AcDbCircle
 62
7
  6
CONTINUOUS
 10
7.4621377693
 20
4.8518487866
 40
0.2251714338
100
AcDbArc
 50
336.3525497328
 51
359.9628657291
  0
ARC
  5
2B2
100
AcDbEntity
  8
0
100
AcDbCircle
 62
7
  6
CONTINUOUS
 10
7.2073716539
 20
4.8468977114
 40
0.2165060774
100
AcDbArc
 50
153.9798407091
 51
154.3010436037
  0
ARC
  5
2B3
100
AcDbEntity
  8
0
100
AcDbCircle
 62
7
  6
CONTINUOUS
 10
7.2495272647
 20
6.098577851
 40
0.5
100
AcDbArc
 50
265.5177750878
 51
269.9999999835
  0
ARC
  5
2B4
100
AcDbEntity
  8
0
100
AcDbCircle
 62
7
  6
CONTINUOUS
 10
6.8669311726
 20
5.4636740616
 40
0.063029933
100
AcDbArc
 50
0.0261706668
 51
89.9738958565
  0
CIRCLE
  5
2B5
100
AcDbEntity
  8
0
100
AcDbCircle
 62
7
  6
CONTINUOUS
 10
7.4799598888
 20
6.341702851
 40
0.0625
  0
ARC
  5
2B6
100
AcDbEntity
  8
0
100
AcDbCircle
 62
7
  6
CONTINUOUS
 10
7.0510223888
 20
5.644702851
 40
0.032
100
AcDbArc
 50
90.0
 51
265.5177750604
  0
ARC
  5
2B7
100
AcDbEntity
  8
0
100
AcDbCircle
 62
7
  6
CONTINUOUS
 10
6.4870959999
 20
8.300702851
 40
0.1871361111
100
AcDbArc
 50
180.0
 51
267.8145949287
  0
ARC
  5
2B8
100
AcDbEntity
  8
0
100
AcDbCircle
 62
7
  6
CONTINUOUS
 10
6.666957215
 20
8.112702851
 40
0.187
100
AcDbArc
 50
179.6936039968
 51
270.0
  0
ARC
  5
2B9
100
AcDbEntity
  8
0
100
AcDbCircle
 62
9
  6
CONTINUOUS
 10
7.5109356372
 20
1.3181200391
 40
1.4486452706
100
AcDbArc
 50
61.5870735479
 51
64.507982133
  0
ARC
  5
2BA
100
AcDbEntity
  8
0
100
AcDbCircle
 62
7
  6
CONTINUOUS
 10
9.1473374162
 20
4.8531444952
 40
2.1363735817
100
AcDbArc
 50
177.6266577339
 51
180.0386636643
  0
ARC
  5
2BB
100
AcDbEntity
  8
0
100
AcDbCircle
 62
7
  6
CONTINUOUS
 10
9.1464213659
 20
4.8502478766
 40
2.135457508
100
AcDbArc
 50
179.9609620911
 51
182.381062922
  0
ARC
  5
2BC
100
AcDbEntity
  8
0
100
AcDbCircle
 62
7
  6
CONTINUOUS
 10
7.9799598888
 20
3.9535455808
 40
0.3
100
AcDbArc
 50
180.0
 51
241.5847518782
  0
ARC
  5
2BD
100
AcDbEntity
  8
0
100
AcDbCircle
 62
7
  6
CONTINUOUS
 10
7.8231506168
 20
4.8516811792
 40
0.2816303686
100
AcDbArc
 50
0.0044089744
 51
6.1942893787
  0
ARC
  5
2BE
100
AcDbEntity
  8
0
100
AcDbCircle
 62
7
  6
CONTINUOUS
 10
7.8231506181
 20
4.8517245207
 40
0.2816303672
100
AcDbArc
 50
353.8057108296
 51
359.9955914506
  0
ARC
  5
2BF
100
AcDbEntity
  8
0
100
AcDbCircle
 62
7
  6
CONTINUOUS
 10
7.823195546
 20
4.8516836098
 40
0.2815854391
100
AcDbArc
 50
0.0039151141
 51
6.1947841183
  0
ARC
  5
2C0
100
AcDbEntity
  8
0
100
AcDbCircle
 62
7
  6
CONTINUOUS
 10
7.823195576
 20
4.8517220932
 40
0.2815854093
100
AcDbArc
 50
353.8052148454
 51
359.9960846887
  0
ARC
  5
2C1
100
AcDbEntity
  8
0
100
AcDbCircle
 62
7
  6
CONTINUOUS
 10
7.8258689807
 20
4.8519638774
 40
0.278897372
100
AcDbArc
 50
6.1968089487
 51
9.3857709999
  0
ARC
  5
2C2
100
AcDbEntity
  8
0
100
AcDbCircle
 62
7
  6
CONTINUOUS
 10
7.8262839399
 20
4.8513850606
 40
0.2784787107
100
AcDbArc
 50
350.6126086481
 51
353.8055857313
  0
ARC
  5
2C3
100
AcDbEntity
  8
0
100
AcDbCircle
 62
7
  6
CONTINUOUS
 10
7.8295432221
 20
4.851702851
 40
0.2754166667
100
AcDbArc
 50
19.1114651032
 51
26.9914665616
  0
ARC
  5
2C4
100
AcDbEntity
  8
0
100
AcDbCircle
 62
7
  6
CONTINUOUS
 10
7.8295432221
 20
4.851702851
 40
0.2754166667
100
AcDbArc
 50
333.0085334384
 51
340.8885348968
  0
ARC
  5
2C5
100
AcDbEntity
  8
0
100
AcDbCircle
 62
7
  6
CONTINUOUS
 10
7.8296402127
 20
4.8508258608
 40
0.2750761749
100
AcDbArc
 50
347.4775733657
 51
350.6134987116
  0
ARC
  5
2C6
100
AcDbEntity
  8
0
100
AcDbCircle
 62
7
  6
CONTINUOUS
 10
7.8296409353
 20
4.852579982
 40
0.2750754388
100
AcDbArc
 50
9.3872868117
 51
12.5224306147
  0
ARC
  5
2C7
100
AcDbEntity
  8
0
100
AcDbCircle
 62
7
  6
CONTINUOUS
 10
7.8305590623
 20
4.8506480384
 40
0.2741406273
100
AcDbArc
 50
347.4722158277
 51
350.6188456129
  0
ARC
  5
2C8
100
AcDbEntity
  8
0
100
AcDbCircle
 62
7
  6
CONTINUOUS
 10
7.8305596381
 20
4.8527577857
 40
0.2741400387
100
AcDbArc
 50
9.3819414172
 51
12.5277853342
  0
ARC
  5
2C9
100
AcDbEntity
  8
0
100
AcDbCircle
 62
7
  6
CONTINUOUS
 10
7.8350918478
 20
4.8537783785
 40
0.2694943588
100
AcDbArc
 50
12.5249794293
 51
19.0807495051
  0
ARC
  5
2CA
100
AcDbEntity
  8
0
100
AcDbCircle
 62
7
  6
CONTINUOUS
 10
7.8350918649
 20
4.8496273189
 40
0.2694943411
100
AcDbArc
 50
340.9192502179
 51
347.475020692
  0
ARC
  5
2CB
100
AcDbEntity
  8
0
100
AcDbCircle
 62
7
  6
CONTINUOUS
 10
7.8365222602
 20
4.8492224648
 40
0.2680102
100
AcDbArc
 50
340.9010817747
 51
347.4931957194
  0
ARC
  5
2CC
100
AcDbEntity
  8
0
100
AcDbCircle
 62
7
  6
CONTINUOUS
 10
7.6532516579
 20
4.8519710381
 40
0.253517365
100
AcDbArc
 50
159.2287584956
 51
180.0606100297
  0
ARC
  5
2CD
100
AcDbEntity
  8
0
100
AcDbCircle
 62
7
  6
CONTINUOUS
 10
7.8531769975
 20
4.8518779075
 40
0.2476080221
100
AcDbArc
 50
359.9594929081
 51
21.3139130116
  0
ARC
  5
2CE
100
AcDbEntity
  8
0
100
AcDbCircle
 62
7
  6
CONTINUOUS
 10
7.8532703994
 20
4.8515105579
 40
0.2475137467
100
AcDbArc
 50
338.6819452357
 51
0.0445123364
  0
ARC
  5
2CF
100
AcDbEntity
  8
0
100
AcDbCircle
 62
7
  6
CONTINUOUS
 10
7.5988440531
 20
4.8515957836
 40
0.2421542388
100
AcDbArc
 50
179.9746671316
 51
201.8354513122
  0
ARC
  5
2D0
100
AcDbEntity
  8
0
100
AcDbCircle
 62
7
  6
CONTINUOUS
 10
7.5986104522
 20
4.8518540552
 40
0.2419183491
100
AcDbArc
 50
158.1536739854
 51
180.0358104513
  0
ARC
  5
2D1
100
AcDbEntity
  8
0
100
AcDbCircle
 62
7
  6
CONTINUOUS
 10
7.8570139016
 20
4.8517435676
 40
0.2372308151
100
AcDbArc
 50
359.9901662157
 51
22.3298868767
  0
ARC
  5
2D2
100
AcDbEntity
  8
0
100
AcDbCircle
 62
7
  6
CONTINUOUS
 10
7.8571379345
 20
4.8516381234
 40
0.2371055023
100
AcDbArc
 50
337.6640926461
 51
0.0156410673
  0
ARC
  5
2D3
100
AcDbEntity
  8
0
100
AcDbCircle
 62
7
  6
CONTINUOUS
 10
7.5470339327
 20
4.8517263515
 40
0.2327870106
100
AcDbArc
 50
180.0057841718
 51
202.796848166
  0
ARC
  5
2D4
100
AcDbEntity
  8
0
100
AcDbCircle
 62
7
  6
CONTINUOUS
 10
7.5470112169
 20
4.8516838662
 40
0.2327640407
100
AcDbArc
 50
157.2020100383
 51
179.9953268328
  0
ARC
  5
2D5
100
AcDbEntity
  8
0
100
AcDbCircle
 62
7
  6
CONTINUOUS
 10
7.8559324083
 20
4.851616826
 40
0.2287797031
100
AcDbArc
 50
0.0215442524
 51
23.236189059
  0
ARC
  5
2D6
100
AcDbEntity
  8
0
100
AcDbCircle
 62
7
  6
CONTINUOUS
 10
7.8559324461
 20
4.8517888945
 40
0.2287796706
100
AcDbArc
 50
336.7638029431
 51
359.9784511061
  0
ARC
  5
2D7
100
AcDbEntity
  8
0
100
AcDbCircle
 62
7
  6
CONTINUOUS
 10
7.4977820361
 20
4.8518487931
 40
0.2251714619
100
AcDbArc
 50
180.0371359077
 51
203.6474489328
  0
ARC
  5
2D8
100
AcDbEntity
  8
0
100
AcDbCircle
 62
7
  6
CONTINUOUS
 10
7.4977820115
 20
4.851556914
 40
0.2251714375
100
AcDbArc
 50
156.3525497284
 51
179.9628653715
  0
ARC
  5
2D9
100
AcDbEntity
  8
0
100
AcDbCircle
 62
7
  6
CONTINUOUS
 10
7.7525494018
 20
4.8468983354
 40
0.216504655
100
AcDbArc
 50
25.69896937
 51
26.0201592683
  0
ARC
  5
2DA
100
AcDbEntity
  8
0
100
AcDbCircle
 62
7
  6
CONTINUOUS
 10
7.7103925129
 20
6.098577851
 40
0.5
100
AcDbArc
 50
270.0000000165
 51
274.4822249122
  0
ARC
  5
2DB
100
AcDbEntity
  8
0
100
AcDbCircle
 62
7
  6
CONTINUOUS
 10
9.0079088195
 20
5.6547028441
 40
0.188
100
AcDbArc
 50
323.0538757484
 51
351.7427999848
  0
ARC
  5
2DC
100
AcDbEntity
  8
0
100
AcDbCircle
 62
7
  6
CONTINUOUS
 10
8.092988572
 20
5.4636740837
 40
0.0630299265
100
AcDbArc
 50
90.0260741358
 51
179.9738493762
  0
ARC
  5
2DD
100
AcDbEntity
  8
0
100
AcDbCircle
 62
7
  6
CONTINUOUS
 10
7.9088973888
 20
5.644702851
 40
0.032
100
AcDbArc
 50
274.4822249396
 51
90.0
  0
ARC
  5
2DE
100
AcDbEntity
  8
0
100
AcDbCircle
 62
7
  6
CONTINUOUS
 10
11.4413907669
 20
4.8503750712
 40
3.5544922028
100
AcDbArc
 50
179.9785971739
 51
181.4322737252
  0
ARC
  5
2DF
100
AcDbEntity
  8
0
100
AcDbCircle
 62
7
  6
CONTINUOUS
 10
11.4413902982
 20
4.8530306365
 40
3.5544917341
100
AcDbArc
 50
178.5677261789
 51
180.0214029219
  0
ARC
  5
2E0
100
AcDbEntity
  8
0
100
AcDbCircle
 62
7
  6
CONTINUOUS
 10
17.6974928489
 20
4.8530351253
 40
10.6565710673
100
AcDbArc
 50
179.5223344362
 51
180.0071630636
  0
ARC
  5
2E1
100
AcDbEntity
  8
0
100
AcDbCircle
 62
7
  6
CONTINUOUS
 10
17.6974911085
 20
4.8503705695
 40
10.656569327
100
AcDbArc
 50
179.9928368968
 51
180.4776656034
  0
ARC
  5
2E2
100
AcDbEntity
  8
0
100
AcDbCircle
 62
7
  6
CONTINUOUS
 10
11.21788895
 20
12.680702851
 40
5.38
100
AcDbArc
 50
270.0
 51
279.1011348932
  0
ARC
  5
2E3
100
AcDbEntity
  8
0
100
AcDbCircle
 62
7
  6
CONTINUOUS
 10
11.197975653
 20
12.680702851
 40
5.38
100
AcDbArc
 50
260.8988651068
 51
270.0
  0
ARC
  5
2E4
100
AcDbEntity
  8
0
100
AcDbCircle
 62
7
  6
CONTINUOUS
 10
11.2079323015
 20
7.730702851
 40
0.494
100
AcDbArc
 50
285.669744673
 51
297.5037936621
  0
ARC
  5
2E5
100
AcDbEntity
  8
0
100
AcDbCircle
 62
7
  6
CONTINUOUS
 10
11.2079323015
 20
7.730702851
 40
0.4369756475
100
AcDbArc
 50
260.9623922534
 51
281.3783059213
  0
ARC
  5
2E6
100
AcDbEntity
  8
0
100
AcDbCircle
 62
7
  6
CONTINUOUS
 10
9.0079088195
 20
7.0287028579
 40
0.188
100
AcDbArc
 50
8.2572000152
 51
36.9461242516
  0
ARC
  5
2E7
100
AcDbEntity
  8
0
100
AcDbCircle
 62
7
  6
CONTINUOUS
 10
8.4728237777
 20
8.300702851
 40
0.1871361111
100
AcDbArc
 50
272.1854050713
 51
360.0
  0
ARC
  5
2E8
100
AcDbEntity
  8
0
100
AcDbCircle
 62
7
  6
CONTINUOUS
 10
8.2929625626
 20
8.112702851
 40
0.187
100
AcDbArc
 50
270.0
 51
0.3063960032
  0
ARC
  5
2E9
100
AcDbEntity
  8
0
100
AcDbCircle
 62
7
  6
CONTINUOUS
 10
10.3501435631
 20
7.388181642
 40
0.02
100
AcDbArc
 50
190.0606992806
 51
260.8989144854
  0
ARC
  5
2EA
100
AcDbEntity
  8
0
100
AcDbCircle
 62
7
  6
CONTINUOUS
 10
12.0657210399
 20
7.388181642
 40
0.02
100
AcDbArc
 50
279.1010855146
 51
349.9393007194
  0
SPLINE
  5
2EB
100
AcDbEntity
  8
0
100
AcDbSpline
 62
7
  6
CONTINUOUS
 70
0
 71
3
 72
11
 73
7
 74
0
 42
0.0000001
 43
0.0000001
 44
0.0000000001
 40
0.0
 40
0.0
 40
0.0
 40
0.0
 40
0.2436051954
 40
0.492582943
 40
0.7453362139
 40
1.0
 40
1.0
 40
1.0
 40
1.0
 10
6.8716254055
 20
4.9418761902
 30
0.0
 10
6.8693492724
 20
4.9347962427
 30
0.0
 10
6.8653197712
 20
4.9202894359
 30
0.0
 10
6.8609596319
 20
4.8979346809
 30
0.0
 10
6.8583046843
 20
4.874974256
 30
0.0
 10
6.8577073842
 20
4.8594772798
 30
0.0
 10
6.8577073842
 20
4.851702851
 30
0.0
  0
SPLINE
  5
2EC
100
AcDbEntity
  8
0
100
AcDbSpline
 62
7
  6
CONTINUOUS
 70
0
 71
3
 72
11
 73
7
 74
0
 42
0.0000001
 43
0.0000001
 44
0.0000000001
 40
0.0
 40
0.0
 40
0.0
 40
0.0
 40
0.2546638948
 40
0.5074172935
 40
0.7563949118
 40
1.0
 40
1.0
 40
1.0
 40
1.0
 10
6.8577073842
 20
4.851702851
 30
0.0
 10
6.8577073842
 20
4.8439284189
 30
0.0
 10
6.8583046862
 20
4.8284314355
 30
0.0
 10
6.8609596338
 20
4.8054710073
 30
0.0
 10
6.8653197705
 20
4.7831162551
 30
0.0
 10
6.8693492734
 20
4.7686094562
 30
0.0
 10
6.8716254055
 20
4.7615295118
 30
0.0
  0
SPLINE
  5
2ED
100
AcDbEntity
  8
0
100
AcDbSpline
 62
7
  6
CONTINUOUS
 70
0
 71
3
 72
10
 73
6
 74
0
 42
0.0000001
 43
0.0000001
 44
0.0000000001
 40
0.0
 40
0.0
 40
0.0
 40
0.0
 40
0.4914869468
 40
0.7446673137
 40
1.0
 40
1.0
 40
1.0
 40
1.0
 10
6.8760746408
 20
4.9418761902
 30
0.0
 10
6.871842094
 20
4.9275241368
 30
0.0
 10
6.8670654453
 20
4.9052543271
 30
0.0
 10
6.8638550346
 20
4.8749650143
 30
0.0
 10
6.8633073836
 20
4.8594763668
 30
0.0
 10
6.8633073836
 20
4.851702851
 30
0.0
  0
SPLINE
  5
2EE
100
AcDbEntity
  8
0
100
AcDbSpline
 62
7
  6
CONTINUOUS
 70
0
 71
3
 72
10
 73
6
 74
0
 42
0.0000001
 43
0.0000001
 44
0.0000000001
 40
0.0
 40
0.0
 40
0.0
 40
0.0
 40
0.2553327955
 40
0.5085132907
 40
1.0
 40
1.0
 40
1.0
 40
1.0
 10
6.8633073836
 20
4.851702851
 30
0.0
 10
6.8633073836
 20
4.8439293319
 30
0.0
 10
6.8638550366
 20
4.8284406773
 30
0.0
 10
6.8670654456
 20
4.7981513642
 30
0.0
 10
6.871842096
 20
4.7758815582
 30
0.0
 10
6.8760746408
 20
4.7615295118
 30
0.0
  0
SPLINE
  5
2EF
100
AcDbEntity
  8
0
100
AcDbSpline
 62
7
  6
CONTINUOUS
 70
0
 71
3
 72
11
 73
7
 74
0
 42
0.0000001
 43
0.0000001
 44
0.0000000001
 40
0.0
 40
0.0
 40
0.0
 40
0.0
 40
0.2420171798
 40
0.4907472357
 40
0.7441812975
 40
1.0
 40
1.0
 40
1.0
 40
1.0
 10
6.8834659443
 20
4.9418761902
 30
0.0
 10
6.881569787
 20
4.9347715697
 30
0.0
 10
6.8782196625
 20
4.9202287436
 30
0.0
 10
6.8746064754
 20
4.8978928559
 30
0.0
 10
6.8724064641
 20
4.8749527581
 30
0.0
 10
6.8719116521
 20
4.8594754896
 30
0.0
 10
6.8719116521
 20
4.851702851
 30
0.0
  0
SPLINE
  5
2F0
100
AcDbEntity
  8
0
100
AcDbSpline
 62
7
  6
CONTINUOUS
 70
0
 71
3
 72
11
 73
7
 74
0
 42
0.0000001
 43
0.0000001
 44
0.0000000001
 40
0.0
 40
0.0
 40
0.0
 40
0.0
 40
0.2558188117
 40
0.5092530018
 40
0.7579829288
 40
1.0
 40
1.0
 40
1.0
 40
1.0
 10
6.8719116521
 20
4.851702851
 30
0.0
 10
6.8719116521
 20
4.8439302091
 30
0.0
 10
6.8724064657
 20
4.8284529334
 30
0.0
 10
6.874606477
 20
4.8055128323
 30
0.0
 10
6.8782196618
 20
4.7831769475
 30
0.0
 10
6.8815697879
 20
4.7686341291
 30
0.0
 10
6.8834659443
 20
4.7615295118
 30
0.0
  0
SPLINE
  5
2F1
100
AcDbEntity
  8
0
100
AcDbSpline
 62
7
  6
CONTINUOUS
 70
0
 71
3
 72
11
 73
7
 74
0
 42
0.0000001
 43
0.0000001
 44
0.0000000001
 40
0.0
 40
0.0
 40
0.0
 40
0.0
 40
0.2412737173
 40
0.4898895656
 40
0.7436423623
 40
1.0
 40
1.0
 40
1.0
 40
1.0
 10
6.8937633063
 20
4.9418761902
 30
0.0
 10
6.8920726335
 20
4.9347597366
 30
0.0
 10
6.8890885074
 20
4.9202001617
 30
0.0
 10
6.8858749618
 20
4.8978734133
 30
0.0
 10
6.8839182982
 20
4.8749428479
 30
0.0
 10
6.8834782704
 20
4.8594746653
 30
0.0
 10
6.8834782704
 20
4.851702851
 30
0.0
  0
SPLINE
  5
2F2
100
AcDbEntity
  8
0
100
AcDbSpline
 62
7
  6
CONTINUOUS
 70
0
 71
3
 72
11
 73
7
 74
0
 42
0.0000001
 43
0.0000001
 44
0.0000000001
 40
0.0
 40
0.0
 40
0.0
 40
0.0
 40
0.256357747
 40
0.5101106723
 40
0.7587263919
 40
1.0
 40
1.0
 40
1.0
 40
1.0
 10
6.8834782704
 20
4.851702851
 30
0.0
 10
6.8834782704
 20
4.8439310334
 30
0.0
 10
6.8839182996
 20
4.8284628436
 30
0.0
 10
6.8858749633
 20
4.8055322749
 30
0.0
 10
6.8890885068
 20
4.7832055295
 30
0.0
 10
6.8920726343
 20
4.7686459622
 30
0.0
 10
6.8937633063
 20
4.7615295118
 30
0.0
  0
SPLINE
  5
2F3
100
AcDbEntity
  8
0
100
AcDbSpline
 62
7
  6
CONTINUOUS
 70
0
 71
3
 72
11
 73
7
 74
0
 42
0.0000001
 43
0.0000001
 44
0.0000000001
 40
0.0
 40
0.0
 40
0.0
 40
0.0
 40
0.2405854861
 40
0.4890966081
 40
0.7431444623
 40
1.0
 40
1.0
 40
1.0
 40
1.0
 10
6.9069165591
 20
4.9418761902
 30
0.0
 10
6.9054404631
 20
4.9347486176
 30
0.0
 10
6.9028375387
 20
4.92017361
 30
0.0
 10
6.9000384445
 20
4.8978554941
 30
0.0
 10
6.8983341264
 20
4.8749337605
 30
0.0
 10
6.8979508873
 20
4.8594739099
 30
0.0
 10
6.8979508873
 20
4.851702851
 30
0.0
  0
SPLINE
  5
2F4
100
AcDbEntity
  8
0
100
AcDbSpline
 62
7
  6
CONTINUOUS
 70
0
 71
3
 72
11
 73
7
 74
0
 42
0.0000001
 43
0.0000001
 44
0.0000000001
 40
0.0
 40
0.0
 40
0.0
 40
0.0
 40
0.2568556473
 40
0.5109036302
 40
0.7594146237
 40
1.0
 40
1.0
 40
1.0
 40
1.0
 10
6.8979508873
 20
4.851702851
 30
0.0
 10
6.8979508873
 20
4.8439317888
 30
0.0
 10
6.8983341276
 20
4.828471931
 30
0.0
 10
6.9000384457
 20
4.8055501941
 30
0.0
 10
6.9028375382
 20
4.7832320812
 30
0.0
 10
6.9054404638
 20
4.7686570812
 30
0.0
 10
6.9069165591
 20
4.7615295118
 30
0.0
  0
SPLINE
  5
2F5
100
AcDbEntity
  8
0
100
AcDbSpline
 62
7
  6
CONTINUOUS
 70
0
 71
3
 72
11
 73
7
 74
0
 42
0.0000001
 43
0.0000001
 44
0.0000000001
 40
0.0
 40
0.0
 40
0.0
 40
0.0
 40
0.2399678064
 40
0.4883857536
 40
0.7426984175
 40
1.0
 40
1.0
 40
1.0
 40
1.0
 10
6.9228616215
 20
4.9418761902
 30
0.0
 10
6.9216081585
 20
4.9347385007
 30
0.0
 10
6.9193997546
 20
4.9201497054
 30
0.0
 10
6.9170279037
 20
4.8978394763
 30
0.0
 10
6.9155837116
 20
4.8749256748
 30
0.0
 10
6.9152589934
 20
4.8594732382
 30
0.0
 10
6.9152589934
 20
4.851702851
 30
0.0
  0
SPLINE
  5
2F6
100
AcDbEntity
  8
0
100
AcDbSpline
 62
7
  6
CONTINUOUS
 70
0
 71
3
 72
11
 73
7
 74
0
 42
0.0000001
 43
0.0000001
 44
0.0000000001
 40
0.0
 40
0.0
 40
0.0
 40
0.0
 40
0.2573016923
 40
0.511614485
 40
0.760032304
 40
1.0
 40
1.0
 40
1.0
 40
1.0
 10
6.9152589934
 20
4.851702851
 30
0.0
 10
6.9152589934
 20
4.8439324605
 30
0.0
 10
6.9155837127
 20
4.8284800167
 30
0.0
 10
6.9170279048
 20
4.8055662118
 30
0.0
 10
6.9193997541
 20
4.7832559859
 30
0.0
 10
6.9216081591
 20
4.7686671981
 30
0.0
 10
6.9228616215
 20
4.7615295118
 30
0.0
  0
SPLINE
  5
2F7
100
AcDbEntity
  8
0
100
AcDbSpline
 62
7
  6
CONTINUOUS
 70
0
 71
3
 72
11
 73
7
 74
0
 42
0.0000001
 43
0.0000001
 44
0.0000000001
 40
0.0
 40
0.0
 40
0.0
 40
0.0
 40
0.2394347967
 40
0.4877729615
 40
0.7423141334
 40
1.0
 40
1.0
 40
1.0
 40
1.0
 10
6.9415208106
 20
4.9418761902
 30
0.0
 10
6.9404969165
 20
4.9347296639
 30
0.0
 10
6.9386943748
 20
4.9201290215
 30
0.0
 10
6.936760522
 20
4.8978257035
 30
0.0
 10
6.9355830048
 20
4.8749187504
 30
0.0
 10
6.9353182656
 20
4.8594726633
 30
0.0
 10
6.9353182656
 20
4.851702851
 30
0.0
  0
SPLINE
  5
2F8
100
AcDbEntity
  8
0
100
AcDbSpline
 62
7
  6
CONTINUOUS
 70
0
 71
3
 72
11
 73
7
 74
0
 42
0.0000001
 43
0.0000001
 44
0.0000000001
 40
0.0
 40
0.0
 40
0.0
 40
0.0
 40
0.2576859765
 40
0.5122272774
 40
0.7605653142
 40
1.0
 40
1.0
 40
1.0
 40
1.0
 10
6.9353182656
 20
4.851702851
 30
0.0
 10
6.9353182656
 20
4.8439330354
 30
0.0
 10
6.9355830057
 20
4.8284869411
 30
0.0
 10
6.9367605229
 20
4.8055799847
 30
0.0
 10
6.9386943744
 20
4.7832766699
 30
0.0
 10
6.940496917
 20
4.7686760348
 30
0.0
 10
6.9415208106
 20
4.7615295118
 30
0.0
  0
SPLINE
  5
2F9
100
AcDbEntity
  8
0
100
AcDbSpline
 62
7
  6
CONTINUOUS
 70
0
 71
3
 72
11
 73
7
 74
0
 42
0.0000001
 43
0.0000001
 44
0.0000000001
 40
0.0
 40
0.0
 40
0.0
 40
0.0
 40
0.2389989247
 40
0.487272274
 40
0.7420003073
 40
1.0
 40
1.0
 40
1.0
 40
1.0
 10
6.9628032208
 20
4.9418761902
 30
0.0
 10
6.9620146309
 20
4.9347223629
 30
0.0
 10
6.9606272366
 20
4.9201120691
 30
0.0
 10
6.9591400891
 20
4.8978144744
 30
0.0
 10
6.9582345555
 20
4.8749131241
 30
0.0
 10
6.9580309771
 20
4.8594721963
 30
0.0
 10
6.9580309771
 20
4.851702851
 30
0.0
  0
SPLINE
  5
2FA
100
AcDbEntity
  8
0
100
AcDbSpline
 62
7
  6
CONTINUOUS
 70
0
 71
3
 72
11
 73
7
 74
0
 42
0.0000001
 43
0.0000001
 44
0.0000000001
 40
0.0
 40
0.0
 40
0.0
 40
0.0
 40
0.2579998027
 40
0.5127279652
 40
0.7610011866
 40
1.0
 40
1.0
 40
1.0
 40
1.0
 10
6.9580309771
 20
4.851702851
 30
0.0
 10
6.9580309771
 20
4.8439335024
 30
0.0
 10
6.9582345562
 20
4.8284925674
 30
0.0
 10
6.9591400898
 20
4.8055912137
 30
0.0
 10
6.9606272363
 20
4.7832936223
 30
0.0
 10
6.9620146313
 20
4.7686833357
 30
0.0
 10
6.9628032208
 20
4.7615295118
 30
0.0
  0
SPLINE
  5
2FB
100
AcDbEntity
  8
0
100
AcDbSpline
 62
7
  6
CONTINUOUS
 70
0
 71
3
 72
11
 73
7
 74
0
 42
0.0000001
 43
0.0000001
 44
0.0000000001
 40
0.0
 40
0.0
 40
0.0
 40
0.0
 40
0.2386705844
 40
0.4868953622
 40
0.7417641555
 40
1.0
 40
1.0
 40
1.0
 40
1.0
 10
6.9866051662
 20
4.9418761902
 30
0.0
 10
6.9860563435
 20
4.9347168183
 30
0.0
 10
6.9850912598
 20
4.9200992766
 30
0.0
 10
6.9840574743
 20
4.8978060358
 30
0.0
 10
6.9834279869
 20
4.8749089071
 30
0.0
 10
6.9832864737
 20
4.8594718464
 30
0.0
 10
6.9832864737
 20
4.851702851
 30
0.0
  0
SPLINE
  5
2FC
100
AcDbEntity
  8
0
100
AcDbSpline
 62
7
  6
CONTINUOUS
 70
0
 71
3
 72
11
 73
7
 74
0
 42
0.0000001
 43
0.0000001
 44
0.0000000001
 40
0.0
 40
0.0
 40
0.0
 40
0.0
 40
0.2582359546
 40
0.5131048772
 40
0.7613295272
 40
1.0
 40
1.0
 40
1.0
 40
1.0
 10
6.9832864737
 20
4.851702851
 30
0.0
 10
6.9832864737
 20
4.8439338523
 30
0.0
 10
6.9834279874
 20
4.8284967844
 30
0.0
 10
6.9840574748
 20
4.8055996524
 30
0.0
 10
6.9850912596
 20
4.7833064148
 30
0.0
 10
6.9860563438
 20
4.7686888804
 30
0.0
 10
6.9866051662
 20
4.7615295118
 30
0.0
  0
LINE
  5
2FD
100
AcDbEntity
  8
0
100
AcDbLine
 62
7
  6
CONTINUOUS
 10
7.0128106863
 20
4.9418761902
 11
7.0127994773
 21
4.94161329
  0
LINE
  5
2FE
100
AcDbEntity
  8
0
100
AcDbLine
 62
7
  6
CONTINUOUS
 10
7.9471203006
 20
4.9416132814
 11
7.9471090912
 21
4.9418761902
  0
SPLINE
  5
2FF
100
AcDbEntity
  8
0
100
AcDbSpline
 62
7
  6
CONTINUOUS
 70
0
 71
3
 72
11
 73
7
 74
0
 42
0.0000001
 43
0.0000001
 44
0.0000000001
 40
0.0
 40
0.0
 40
0.0
 40
0.0
 40
0.2582359543
 40
0.5131048773
 40
0.7613295276
 40
1.0
 40
1.0
 40
1.0
 40
1.0
 10
7.9766333039
 20
4.851702851
 30
0.0
 10
7.9766333039
 20
4.8594718497
 30
0.0
 10
7.9764917901
 20
4.8749089176
 30
0.0
 10
7.9758623028
 20
4.8978060497
 30
0.0
 10
7.974828518
 20
4.9200992872
 30
0.0
 10
7.9738634338
 20
4.9347168217
 30
0.0
 10
7.9733146113
 20
4.9418761902
 30
0.0
  0
SPLINE
  5
300
100
AcDbEntity
  8
0
100
AcDbSpline
 62
7
  6
CONTINUOUS
 70
0
 71
3
 72
11
 73
7
 74
0
 42
0.0000001
 43
0.0000001
 44
0.0000000001
 40
0.0
 40
0.0
 40
0.0
 40
0.0
 40
0.2386705848
 40
0.4868953623
 40
0.7417641552
 40
1.0
 40
1.0
 40
1.0
 40
1.0
 10
7.9733146113
 20
4.7615295118
 30
0.0
 10
7.973863434
 20
4.7686888837
 30
0.0
 10
7.9748285177
 20
4.7833064254
 30
0.0
 10
7.9758623033
 20
4.8055996662
 30
0.0
 10
7.9764917907
 20
4.8284967949
 30
0.0
 10
7.9766333039
 20
4.8439338556
 30
0.0
 10
7.9766333039
 20
4.851702851
 30
0.0
  0
SPLINE
  5
301
100
AcDbEntity
  8
0
100
AcDbSpline
 62
7
  6
CONTINUOUS
 70
0
 71
3
 72
11
 73
7
 74
0
 42
0.0000001
 43
0.0000001
 44
0.0000000001
 40
0.0
 40
0.0
 40
0.0
 40
0.0
 40
0.2579998024
 40
0.5127279653
 40
0.761001187
 40
1.0
 40
1.0
 40
1.0
 40
1.0
 10
8.0018888005
 20
4.851702851
 30
0.0
 10
8.0018888005
 20
4.8594721996
 30
0.0
 10
8.0016852213
 20
4.8749131346
 30
0.0
 10
8.0007796877
 20
4.8978144883
 30
0.0
 10
7.9992925414
 20
4.9201120797
 30
0.0
 10
7.9979051463
 20
4.9347223663
 30
0.0
 10
7.9971165568
 20
4.9418761902
 30
0.0
  0
SPLINE
  5
302
100
AcDbEntity
  8
0
100
AcDbSpline
 62
7
  6
CONTINUOUS
 70
0
 71
3
 72
11
 73
7
 74
0
 42
0.0000001
 43
0.0000001
 44
0.0000000001
 40
0.0
 40
0.0
 40
0.0
 40
0.0
 40
0.2389989251
 40
0.4872722741
 40
0.742000307
 40
1.0
 40
1.0
 40
1.0
 40
1.0
 10
7.9971165568
 20
4.7615295118
 30
0.0
 10
7.9979051466
 20
4.7686833391
 30
0.0
 10
7.999292541
 20
4.7832936329
 30
0.0
 10
8.0007796885
 20
4.8055912276
 30
0.0
 10
8.0016852221
 20
4.8284925779
 30
0.0
 10
8.0018888005
 20
4.8439335057
 30
0.0
 10
8.0018888005
 20
4.851702851
 30
0.0
  0
SPLINE
  5
303
100
AcDbEntity
  8
0
100
AcDbSpline
 62
7
  6
CONTINUOUS
 70
0
 71
3
 72
11
 73
7
 74
0
 42
0.0000001
 43
0.0000001
 44
0.0000000001
 40
0.0
 40
0.0
 40
0.0
 40
0.0
 40
0.2576859762
 40
0.5122272775
 40
0.7605653146
 40
1.0
 40
1.0
 40
1.0
 40
1.0
 10
8.0246015119
 20
4.851702851
 30
0.0
 10
8.0246015119
 20
4.8594726666
 30
0.0
 10
8.0243367718
 20
4.8749187609
 30
0.0
 10
8.0231592547
 20
4.8978257173
 30
0.0
 10
8.0212254032
 20
4.9201290322
 30
0.0
 10
8.0194228606
 20
4.9347296672
 30
0.0
 10
8.018398967
 20
4.9418761902
 30
0.0
  0
SPLINE
  5
304
100
AcDbEntity
  8
0
100
AcDbSpline
 62
7
  6
CONTINUOUS
 70
0
 71
3
 72
11
 73
7
 74
0
 42
0.0000001
 43
0.0000001
 44
0.0000000001
 40
0.0
 40
0.0
 40
0.0
 40
0.0
 40
0.2394347971
 40
0.4877729616
 40
0.7423141331
 40
1.0
 40
1.0
 40
1.0
 40
1.0
 10
8.018398967
 20
4.7615295118
 30
0.0
 10
8.0194228611
 20
4.7686760382
 30
0.0
 10
8.0212254027
 20
4.7832766806
 30
0.0
 10
8.0231592556
 20
4.8055799986
 30
0.0
 10
8.0243367728
 20
4.8284869516
 30
0.0
 10
8.0246015119
 20
4.8439330387
 30
0.0
 10
8.0246015119
 20
4.851702851
 30
0.0
  0
SPLINE
  5
305
100
AcDbEntity
  8
0
100
AcDbSpline
 62
7
  6
CONTINUOUS
 70
0
 71
3
 72
11
 73
7
 74
0
 42
0.0000001
 43
0.0000001
 44
0.0000000001
 40
0.0
 40
0.0
 40
0.0
 40
0.0
 40
0.257301692
 40
0.5116144851
 40
0.7600323044
 40
1.0
 40
1.0
 40
1.0
 40
1.0
 10
8.0446607841
 20
4.851702851
 30
0.0
 10
8.0446607841
 20
4.8594732415
 30
0.0
 10
8.0443360648
 20
4.8749256853
 30
0.0
 10
8.0428918727
 20
4.8978394902
 30
0.0
 10
8.0405200235
 20
4.9201497161
 30
0.0
 10
8.0383116185
 20
4.9347385039
 30
0.0
 10
8.0370581561
 20
4.9418761902
 30
0.0
  0
SPLINE
  5
306
100
AcDbEntity
  8
0
100
AcDbSpline
 62
7
  6
CONTINUOUS
 70
0
 71
3
 72
11
 73
7
 74
0
 42
0.0000001
 43
0.0000001
 44
0.0000000001
 40
0.0
 40
0.0
 40
0.0
 40
0.0
 40
0.2399678068
 40
0.4883857537
 40
0.7426984172
 40
1.0
 40
1.0
 40
1.0
 40
1.0
 10
8.0370581561
 20
4.7615295118
 30
0.0
 10
8.0383116191
 20
4.7686672014
 30
0.0
 10
8.0405200229
 20
4.7832559967
 30
0.0
 10
8.0428918739
 20
4.8055662257
 30
0.0
 10
8.044336066
 20
4.8284800272
 30
0.0
 10
8.0446607841
 20
4.8439324638
 30
0.0
 10
8.0446607841
 20
4.851702851
 30
0.0
  0
SPLINE
  5
307
100
AcDbEntity
  8
0
100
AcDbSpline
 62
7
  6
CONTINUOUS
 70
0
 71
3
 72
11
 73
7
 74
0
 42
0.0000001
 43
0.0000001
 44
0.0000000001
 40
0.0
 40
0.0
 40
0.0
 40
0.0
 40
0.256855647
 40
0.5109036303
 40
0.7594146241
 40
1.0
 40
1.0
 40
1.0
 40
1.0
 10
8.0619688903
 20
4.851702851
 30
0.0
 10
8.0619688903
 20
4.8594739132
 30
0.0
 10
8.0615856498
 20
4.874933771
 30
0.0
 10
8.0598813318
 20
4.8978555079
 30
0.0
 10
8.0570822395
 20
4.9201736208
 30
0.0
 10
8.0544793138
 20
4.9347486209
 30
0.0
 10
8.0530032184
 20
4.9418761902
 30
0.0
  0
SPLINE
  5
308
100
AcDbEntity
  8
0
100
AcDbSpline
 62
7
  6
CONTINUOUS
 70
0
 71
3
 72
11
 73
7
 74
0
 42
0.0000001
 43
0.0000001
 44
0.0000000001
 40
0.0
 40
0.0
 40
0.0
 40
0.0
 40
0.2405854865
 40
0.4890966082
 40
0.743144462
 40
1.0
 40
1.0
 40
1.0
 40
1.0
 10
8.0530032184
 20
4.7615295118
 30
0.0
 10
8.0544793145
 20
4.7686570844
 30
0.0
 10
8.0570822388
 20
4.783232092
 30
0.0
 10
8.0598813331
 20
4.805550208
 30
0.0
 10
8.0615856513
 20
4.8284719415
 30
0.0
 10
8.0619688903
 20
4.8439317921
 30
0.0
 10
8.0619688903
 20
4.851702851
 30
0.0
  0
SPLINE
  5
309
100
AcDbEntity
  8
0
100
AcDbSpline
 62
7
  6
CONTINUOUS
 70
0
 71
3
 72
11
 73
7
 74
0
 42
0.0000001
 43
0.0000001
 44
0.0000000001
 40
0.0
 40
0.0
 40
0.0
 40
0.0
 40
0.2563577468
 40
0.5101106724
 40
0.7587263922
 40
1.0
 40
1.0
 40
1.0
 40
1.0
 10
8.0764415071
 20
4.851702851
 30
0.0
 10
8.0764415071
 20
4.8594746686
 30
0.0
 10
8.0760014779
 20
4.8749428584
 30
0.0
 10
8.0740448142
 20
4.8978734271
 30
0.0
 10
8.0708312709
 20
4.9202001725
 30
0.0
 10
8.0678471433
 20
4.9347597398
 30
0.0
 10
8.0661564713
 20
4.9418761902
 30
0.0
  0
SPLINE
  5
30A
100
AcDbEntity
  8
0
100
AcDbSpline
 62
7
  6
CONTINUOUS
 70
0
 71
3
 72
11
 73
7
 74
0
 42
0.0000001
 43
0.0000001
 44
0.0000000001
 40
0.0
 40
0.0
 40
0.0
 40
0.0
 40
0.2412737176
 40
0.4898895657
 40
0.743642362
 40
1.0
 40
1.0
 40
1.0
 40
1.0
 10
8.0661564713
 20
4.7615295118
 30
0.0
 10
8.067847144
 20
4.7686459654
 30
0.0
 10
8.0708312701
 20
4.7832055404
 30
0.0
 10
8.0740448158
 20
4.8055322887
 30
0.0
 10
8.0760014795
 20
4.8284628541
 30
0.0
 10
8.0764415071
 20
4.8439310367
 30
0.0
 10
8.0764415071
 20
4.851702851
 30
0.0
  0
SPLINE
  5
30B
100
AcDbEntity
  8
0
100
AcDbSpline
 62
7
  6
CONTINUOUS
 70
0
 71
3
 72
11
 73
7
 74
0
 42
0.0000001
 43
0.0000001
 44
0.0000000001
 40
0.0
 40
0.0
 40
0.0
 40
0.0
 40
0.2558188114
 40
0.5092530019
 40
0.7579829291
 40
1.0
 40
1.0
 40
1.0
 40
1.0
 10
8.0880081255
 20
4.851702851
 30
0.0
 10
8.0880081255
 20
4.8594754929
 30
0.0
 10
8.0875133117
 20
4.8749527686
 30
0.0
 10
8.0853133005
 20
4.8978928697
 30
0.0
 10
8.0817001159
 20
4.9202287545
 30
0.0
 10
8.0783499897
 20
4.9347715729
 30
0.0
 10
8.0764538333
 20
4.9418761902
 30
0.0
  0
SPLINE
  5
30C
100
AcDbEntity
  8
0
100
AcDbSpline
 62
7
  6
CONTINUOUS
 70
0
 71
3
 72
11
 73
7
 74
0
 42
0.0000001
 43
0.0000001
 44
0.0000000001
 40
0.0
 40
0.0
 40
0.0
 40
0.0
 40
0.24201718
 40
0.4907472358
 40
0.7441812972
 40
1.0
 40
1.0
 40
1.0
 40
1.0
 10
8.0764538333
 20
4.7615295118
 30
0.0
 10
8.0783499906
 20
4.7686341323
 30
0.0
 10
8.081700115
 20
4.7831769585
 30
0.0
 10
8.0853133022
 20
4.8055128461
 30
0.0
 10
8.0875133136
 20
4.8284529439
 30
0.0
 10
8.0880081255
 20
4.8439302124
 30
0.0
 10
8.0880081255
 20
4.851702851
 30
0.0
  0
SPLINE
  5
30D
100
AcDbEntity
  8
0
100
AcDbSpline
 62
7
  6
CONTINUOUS
 70
0
 71
3
 72
10
 73
6
 74
0
 42
0.0000001
 43
0.0000001
 44
0.0000000001
 40
0.0
 40
0.0
 40
0.0
 40
0.0
 40
0.2553327953
 40
0.5085132909
 40
1.0
 40
1.0
 40
1.0
 40
1.0
 10
8.096612394
 20
4.851702851
 30
0.0
 10
8.096612394
 20
4.8594763701
 30
0.0
 10
8.0960647408
 20
4.8749650247
 30
0.0
 10
8.0928543319
 20
4.9052543378
 30
0.0
 10
8.0880776815
 20
4.9275241438
 30
0.0
 10
8.0838451368
 20
4.9418761902
 30
0.0
  0
SPLINE
  5
30E
100
AcDbEntity
  8
0
100
AcDbSpline
 62
7
  6
CONTINUOUS
 70
0
 71
3
 72
10
 73
6
 74
0
 42
0.0000001
 43
0.0000001
 44
0.0000000001
 40
0.0
 40
0.0
 40
0.0
 40
0.0
 40
0.4914869469
 40
0.7446673134
 40
1.0
 40
1.0
 40
1.0
 40
1.0
 10
8.0838451368
 20
4.7615295118
 30
0.0
 10
8.0880776836
 20
4.7758815652
 30
0.0
 10
8.0928543322
 20
4.7981513749
 30
0.0
 10
8.0960647431
 20
4.8284406877
 30
0.0
 10
8.096612394
 20
4.8439293352
 30
0.0
 10
8.096612394
 20
4.851702851
 30
0.0
  0
SPLINE
  5
30F
100
AcDbEntity
  8
0
100
AcDbSpline
 62
7
  6
CONTINUOUS
 70
0
 71
3
 72
11
 73
7
 74
0
 42
0.0000001
 43
0.0000001
 44
0.0000000001
 40
0.0
 40
0.0
 40
0.0
 40
0.0
 40
0.2546638945
 40
0.5074172936
 40
0.756394912
 40
1.0
 40
1.0
 40
1.0
 40
1.0
 10
8.1022123934
 20
4.851702851
 30
0.0
 10
8.1022123934
 20
4.8594772831
 30
0.0
 10
8.1016150912
 20
4.8749742665
 30
0.0
 10
8.0989601437
 20
4.8979346947
 30
0.0
 10
8.0946000072
 20
4.920289447
 30
0.0
 10
8.0905705042
 20
4.9347962458
 30
0.0
 10
8.088294372
 20
4.9418761902
 30
0.0
  0
SPLINE
  5
310
100
AcDbEntity
  8
0
100
AcDbSpline
 62
7
  6
CONTINUOUS
 70
0
 71
3
 72
11
 73
7
 74
0
 42
0.0000001
 43
0.0000001
 44
0.0000000001
 40
0.0
 40
0.0
 40
0.0
 40
0.0
 40
0.2436051956
 40
0.4925829431
 40
0.7453362137
 40
1.0
 40
1.0
 40
1.0
 40
1.0
 10
8.088294372
 20
4.7615295118
 30
0.0
 10
8.0905705052
 20
4.7686094593
 30
0.0
 10
8.0946000062
 20
4.7831162662
 30
0.0
 10
8.0989601458
 20
4.8054710211
 30
0.0
 10
8.1016150934
 20
4.828431446
 30
0.0
 10
8.1022123934
 20
4.8439284222
 30
0.0
 10
8.1022123934
 20
4.851702851
 30
0.0
  0
SPLINE
  5
311
100
AcDbEntity
  8
0
100
AcDbSpline
 62
7
  6
CONTINUOUS
 70
0
 71
3
 72
12
 73
8
 74
0
 42
0.0000001
 43
0.0000001
 44
0.0000000001
 40
0.0
 40
0.0
 40
0.0
 40
0.0
 40
0.2537618806
 40
0.5059796872
 40
0.6310401842
 40
0.7551939279
 40
1.0
 40
1.0
 40
1.0
 40
1.0
 10
7.5167576658
 20
4.851702851
 30
0.0
 10
7.5167576658
 20
4.8439270213
 30
0.0
 10
7.5160909598
 20
4.8284150724
 30
0.0
 10
7.5136132656
 20
4.8092134119
 30
0.0
 10
7.5106668337
 20
4.7941289821
 30
0.0
 10
7.5071243848
 20
4.7794080641
 30
0.0
 10
7.5037730839
 20
4.7685911112
 30
0.0
 10
7.501242299
 20
4.7615295118
 30
0.0
  0
SPLINE
  5
312
100
AcDbEntity
  8
0
100
AcDbSpline
 62
7
  6
CONTINUOUS
 70
0
 71
3
 72
12
 73
8
 74
0
 42
0.0000001
 43
0.0000001
 44
0.0000000001
 40
0.0
 40
0.0
 40
0.0
 40
0.0
 40
0.2448061782
 40
0.3689600086
 40
0.4940205486
 40
0.7462382278
 40
1.0
 40
1.0
 40
1.0
 40
1.0
 10
7.501242299
 20
4.9418761902
 30
0.0
 10
7.503773085
 20
4.9348145877
 30
0.0
 10
7.507124384
 20
4.9239976282
 30
0.0
 10
7.5106668364
 20
4.9092767036
 30
0.0
 10
7.5136132674
 20
4.8941922736
 30
0.0
 10
7.5160909621
 20
4.8749906191
 30
0.0
 10
7.5167576658
 20
4.8594786774
 30
0.0
 10
7.5167576658
 20
4.851702851
 30
0.0
  0
SPLINE
  5
313
100
AcDbEntity
  8
0
100
AcDbSpline
 62
7
  6
CONTINUOUS
 70
0
 71
3
 72
12
 73
8
 74
0
 42
0.0000001
 43
0.0000001
 44
0.0000000001
 40
0.0
 40
0.0
 40
0.0
 40
0.0
 40
0.2543547047
 40
0.5069210935
 40
0.6319877022
 40
0.7560012579
 40
1.0
 40
1.0
 40
1.0
 40
1.0
 10
7.4867739854
 20
4.851702851
 30
0.0
 10
7.4867739854
 20
4.8594777475
 30
0.0
 10
7.4873950276
 20
4.8749794871
 30
0.0
 10
7.4897042639
 20
4.8941804549
 30
0.0
 10
7.4924524363
 20
4.9092701073
 30
0.0
 10
7.4957528158
 20
4.9239792386
 30
0.0
 10
7.4988782388
 20
4.9348024274
 30
0.0
 10
7.501242299
 20
4.9418761902
 30
0.0
  0
SPLINE
  5
314
100
AcDbEntity
  8
0
100
AcDbSpline
 62
7
  6
CONTINUOUS
 70
0
 71
3
 72
12
 73
8
 74
0
 42
0.0000001
 43
0.0000001
 44
0.0000000001
 40
0.0
 40
0.0
 40
0.0
 40
0.0
 40
0.2439988493
 40
0.3680124916
 40
0.493079143
 40
0.7456454034
 40
1.0
 40
1.0
 40
1.0
 40
1.0
 10
7.501242299
 20
4.7615295118
 30
0.0
 10
7.4988782378
 20
4.7686032777
 30
0.0
 10
7.4957528167
 20
4.7794264732
 30
0.0
 10
7.4924524339
 20
4.7941356111
 30
0.0
 10
7.4897042619
 20
4.8092252636
 30
0.0
 10
7.4873950251
 20
4.8284262253
 30
0.0
 10
7.4867739854
 20
4.8439279579
 30
0.0
 10
7.4867739854
 20
4.851702851
 30
0.0
  0
SPLINE
  5
315
100
AcDbEntity
  8
0
100
AcDbSpline
 62
7
  6
CONTINUOUS
 70
0
 71
3
 72
12
 73
8
 74
0
 42
0.0000001
 43
0.0000001
 44
0.0000000001
 40
0.0
 40
0.0
 40
0.0
 40
0.0
 40
0.245596439
 40
0.369888159
 40
0.4949432741
 40
0.7468197876
 40
1.0
 40
1.0
 40
1.0
 40
1.0
 10
7.5437034335
 20
4.9418761902
 30
0.0
 10
7.5463882187
 20
4.9348263018
 30
0.0
 10
7.5499489821
 20
4.9240155481
 30
0.0
 10
7.5537165737
 20
4.9092831745
 30
0.0
 10
7.5568468299
 20
4.8942039129
 30
0.0
 10
7.5594810573
 20
4.8750016442
 30
0.0
 10
7.5601902642
 20
4.8594796014
 30
0.0
 10
7.5601902642
 20
4.851702851
 30
0.0
  0
SPLINE
  5
316
100
AcDbEntity
  8
0
100
AcDbSpline
 62
7
  6
CONTINUOUS
 70
0
 71
3
 72
10
 73
6
 74
0
 42
0.0000001
 43
0.0000001
 44
0.0000000001
 40
0.0
 40
0.0
 40
0.0
 40
0.0
 40
0.255048036
 40
0.5080635974
 40
1.0
 40
1.0
 40
1.0
 40
1.0
 10
7.5303526613
 20
4.851702851
 30
0.0
 10
7.5303526613
 20
4.8594768232
 30
0.0
 10
7.5309257142
 20
4.8749705823
 30
0.0
 10
7.5342857221
 20
4.9052811847
 30
0.0
 10
7.5392846875
 20
4.9275476307
 30
0.0
 10
7.5437034335
 20
4.9418761902
 30
0.0
  0
SPLINE
  5
317
100
AcDbEntity
  8
0
100
AcDbSpline
 62
7
  6
CONTINUOUS
 70
0
 71
3
 72
10
 73
6
 74
0
 42
0.0000001
 43
0.0000001
 44
0.0000000001
 40
0.0
 40
0.0
 40
0.0
 40
0.0
 40
0.4919366401
 40
0.7449520726
 40
1.0
 40
1.0
 40
1.0
 40
1.0
 10
7.5437034335
 20
4.7615295118
 30
0.0
 10
7.5392846854
 20
4.7758580782
 30
0.0
 10
7.5342857218
 20
4.798124528
 30
0.0
 10
7.5309257118
 20
4.8284351302
 30
0.0
 10
7.5303526613
 20
4.8439288821
 30
0.0
 10
7.5303526613
 20
4.851702851
 30
0.0
  0
SPLINE
  5
318
100
AcDbEntity
  8
0
100
AcDbSpline
 62
7
  6
CONTINUOUS
 70
0
 71
3
 72
10
 73
6
 74
0
 42
0.0000001
 43
0.0000001
 44
0.0000000001
 40
0.0
 40
0.0
 40
0.0
 40
0.0
 40
0.2556131097
 40
0.5089561256
 40
1.0
 40
1.0
 40
1.0
 40
1.0
 10
7.5736858288
 20
4.851702851
 30
0.0
 10
7.5736858288
 20
4.8594759259
 30
0.0
 10
7.5742074519
 20
4.8749595687
 30
0.0
 10
7.5772646617
 20
4.9052279518
 30
0.0
 10
7.5818135158
 20
4.927500817
 30
0.0
 10
7.585854016
 20
4.9418761902
 30
0.0
  0
SPLINE
  5
319
100
AcDbEntity
  8
0
100
AcDbSpline
 62
7
  6
CONTINUOUS
 70
0
 71
3
 72
10
 73
6
 74
0
 42
0.0000001
 43
0.0000001
 44
0.0000000001
 40
0.0
 40
0.0
 40
0.0
 40
0.0
 40
0.4910441124
 40
0.7443869991
 40
1.0
 40
1.0
 40
1.0
 40
1.0
 10
7.585854016
 20
4.7615295118
 30
0.0
 10
7.5818135138
 20
4.7759048919
 30
0.0
 10
7.5772646615
 20
4.7981777609
 30
0.0
 10
7.5742074496
 20
4.8284461437
 30
0.0
 10
7.5736858288
 20
4.8439297794
 30
0.0
 10
7.5736858288
 20
4.851702851
 30
0.0
  0
SPLINE
  5
31A
100
AcDbEntity
  8
0
100
AcDbSpline
 62
7
  6
CONTINUOUS
 70
0
 71
3
 72
11
 73
7
 74
0
 42
0.0000001
 43
0.0000001
 44
0.0000000001
 40
0.0
 40
0.0
 40
0.0
 40
0.0
 40
0.2560927047
 40
0.5096887969
 40
0.7583605725
 40
1.0
 40
1.0
 40
1.0
 40
1.0
 10
7.6165623728
 20
4.851702851
 30
0.0
 10
7.6165623728
 20
4.8594750731
 30
0.0
 10
7.6170300618
 20
4.8749477225
 30
0.0
 10
7.6191095993
 20
4.8978829828
 30
0.0
 10
7.6225249396
 20
4.9202142494
 30
0.0
 10
7.6256940808
 20
4.9347655852
 30
0.0
 10
7.6274886929
 20
4.9418761902
 30
0.0
  0
SPLINE
  5
31B
100
AcDbEntity
  8
0
100
AcDbSpline
 62
7
  6
CONTINUOUS
 70
0
 71
3
 72
11
 73
7
 74
0
 42
0.0000001
 43
0.0000001
 44
0.0000000001
 40
0.0
 40
0.0
 40
0.0
 40
0.0
 40
0.241639537
 40
0.4903114409
 40
0.743907404
 40
1.0
 40
1.0
 40
1.0
 40
1.0
 10
7.6274886929
 20
4.7615295118
 30
0.0
 10
7.62569408
 20
4.7686401201
 30
0.0
 10
7.6225249404
 20
4.7831914635
 30
0.0
 10
7.6191095977
 20
4.805522733
 30
0.0
 10
7.61703006
 20
4.82845799
 30
0.0
 10
7.6165623728
 20
4.8439306322
 30
0.0
 10
7.6165623728
 20
4.851702851
 30
0.0
  0
SPLINE
  5
31C
100
AcDbEntity
  8
0
100
AcDbSpline
 62
7
  6
CONTINUOUS
 70
0
 71
3
 72
11
 73
7
 74
0
 42
0.0000001
 43
0.0000001
 44
0.0000000001
 40
0.0
 40
0.0
 40
0.0
 40
0.0
 40
0.2566125204
 40
0.5105163551
 40
0.7590783924
 40
1.0
 40
1.0
 40
1.0
 40
1.0
 10
7.6587734033
 20
4.851702851
 30
0.0
 10
7.6587734033
 20
4.8594742813
 30
0.0
 10
7.6591852718
 20
4.8749382003
 30
0.0
 10
7.6610168117
 20
4.8978642527
 30
0.0
 10
7.6640248552
 20
4.9201866036
 30
0.0
 10
7.6668201668
 20
4.934754073
 30
0.0
 10
7.6684046243
 20
4.9418761902
 30
0.0
  0
SPLINE
  5
31D
100
AcDbEntity
  8
0
100
AcDbSpline
 62
7
  6
CONTINUOUS
 70
0
 71
3
 72
11
 73
7
 74
0
 42
0.0000001
 43
0.0000001
 44
0.0000000001
 40
0.0
 40
0.0
 40
0.0
 40
0.0
 40
0.2409217178
 40
0.4894838832
 40
0.7433875885
 40
1.0
 40
1.0
 40
1.0
 40
1.0
 10
7.6684046243
 20
4.7615295118
 30
0.0
 10
7.6668201661
 20
4.7686516323
 30
0.0
 10
7.664024856
 20
4.7832191093
 30
0.0
 10
7.6610168102
 20
4.8055414631
 30
0.0
 10
7.6591852703
 20
4.8284675122
 30
0.0
 10
7.6587734033
 20
4.843931424
 30
0.0
 10
7.6587734033
 20
4.851702851
 30
0.0
  0
SPLINE
  5
31E
100
AcDbEntity
  8
0
100
AcDbSpline
 62
7
  6
CONTINUOUS
 70
0
 71
3
 72
13
 73
9
 74
0
 42
0.0000001
 43
0.0000001
 44
0.0000000001
 40
0.0
 40
0.0
 40
0.0
 40
0.0
 40
0.2511510401
 40
0.3766495608
 40
0.5019236427
 40
0.6269530948
 40
0.7517120661
 40
1.0
 40
1.0
 40
1.0
 40
1.0
 10
7.7279306023
 20
4.851702851
 30
0.0
 10
7.7279306023
 20
4.8439228426
 30
0.0
 10
7.7272967283
 20
4.8322425779
 30
0.0
 10
7.7252105184
 20
4.8168298931
 30
0.0
 10
7.7230330684
 20
4.8053879649
 30
0.0
 10
7.7202566603
 20
4.7941001504
 30
0.0
 10
7.7157806433
 20
4.7793293858
 30
0.0
 10
7.7115649953
 20
4.7685405602
 30
0.0
 10
7.7084024719
 20
4.7615295118
 30
0.0
  0
SPLINE
  5
31F
100
AcDbEntity
  8
0
100
AcDbSpline
 62
7
  6
CONTINUOUS
 70
0
 71
3
 72
13
 73
9
 74
0
 42
0.0000001
 43
0.0000001
 44
0.0000000001
 40
0.0
 40
0.0
 40
0.0
 40
0.0
 40
0.248288037
 40
0.3730470964
 40
0.4980765914
 40
0.6233506438
 40
0.7488490672
 40
1.0
 40
1.0
 40
1.0
 40
1.0
 10
7.7084024719
 20
4.9418761902
 30
0.0
 10
7.7115649966
 20
4.9348651389
 30
0.0
 10
7.7157806424
 20
4.9240763062
 30
0.0
 10
7.7202566636
 20
4.9093055354
 30
0.0
 10
7.723033072
 20
4.8980177177
 30
0.0
 10
7.7252105204
 20
4.8865757919
 30
0.0
 10
7.7272967311
 20
4.8711631146
 30
0.0
 10
7.7279306023
 20
4.859482856
 30
0.0
 10
7.7279306023
 20
4.851702851
 30
0.0
  0
SPLINE
  5
320
100
AcDbEntity
  8
0
100
AcDbSpline
 62
7
  6
CONTINUOUS
 70
0
 71
3
 72
11
 73
7
 74
0
 42
0.0000001
 43
0.0000001
 44
0.0000000001
 40
0.0
 40
0.0
 40
0.0
 40
0.0
 40
0.2570857954
 40
0.5112703574
 40
0.7597331991
 40
1.0
 40
1.0
 40
1.0
 40
1.0
 10
7.7001132723
 20
4.851702851
 30
0.0
 10
7.7001132723
 20
4.859473566
 30
0.0
 10
7.7004674517
 20
4.8749295925
 30
0.0
 10
7.7020426026
 20
4.8978472389
 30
0.0
 10
7.7046295454
 20
4.9201613005
 30
0.0
 10
7.707036754
 20
4.9347434194
 30
0.0
 10
7.7084024719
 20
4.9418761902
 30
0.0
  0
SPLINE
  5
321
100
AcDbEntity
  8
0
100
AcDbSpline
 62
7
  6
CONTINUOUS
 70
0
 71
3
 72
11
 73
7
 74
0
 42
0.0000001
 43
0.0000001
 44
0.0000000001
 40
0.0
 40
0.0
 40
0.0
 40
0.0
 40
0.2402669118
 40
0.4887298813
 40
0.7429143137
 40
1.0
 40
1.0
 40
1.0
 40
1.0
 10
7.7084024719
 20
4.7615295118
 30
0.0
 10
7.7070367534
 20
4.7686622859
 30
0.0
 10
7.704629546
 20
4.7832444123
 30
0.0
 10
7.7020426014
 20
4.8055584769
 30
0.0
 10
7.7004674504
 20
4.82847612
 30
0.0
 10
7.7001132723
 20
4.8439321393
 30
0.0
 10
7.7001132723
 20
4.851702851
 30
0.0
  0
SPLINE
  5
322
100
AcDbEntity
  8
0
100
AcDbSpline
 62
7
  6
CONTINUOUS
 70
0
 71
3
 72
13
 73
9
 74
0
 42
0.0000001
 43
0.0000001
 44
0.0000000001
 40
0.0
 40
0.0
 40
0.0
 40
0.0
 40
0.2507723356
 40
0.3761336402
 40
0.5013290754
 40
0.6263559842
 40
0.7512048723
 40
1.0
 40
1.0
 40
1.0
 40
1.0
 10
7.7673461563
 20
4.851702851
 30
0.0
 10
7.7673461563
 20
4.8439222186
 30
0.0
 10
7.7666946556
 20
4.8322387326
 30
0.0
 10
7.7645517161
 20
4.8168272293
 30
0.0
 10
7.762314775
 20
4.8053845032
 30
0.0
 10
7.7594625148
 20
4.7940959849
 30
0.0
 10
7.7548623215
 20
4.7793181119
 30
0.0
 10
7.7505325678
 20
4.7685335158
 30
0.0
 10
7.7472873702
 20
4.7615295118
 30
0.0
  0
SPLINE
  5
323
100
AcDbEntity
  8
0
100
AcDbSpline
 62
7
  6
CONTINUOUS
 70
0
 71
3
 72
13
 73
9
 74
0
 42
0.0000001
 43
0.0000001
 44
0.0000000001
 40
0.0
 40
0.0
 40
0.0
 40
0.0
 40
0.2487952304
 40
0.3736442067
 40
0.4986711584
 40
0.6238665641
 40
0.7492277716
 40
1.0
 40
1.0
 40
1.0
 40
1.0
 10
7.7472873702
 20
4.9418761902
 30
0.0
 10
7.7505325692
 20
4.9348721833
 30
0.0
 10
7.7548623206
 20
4.92408758
 30
0.0
 10
7.7594625182
 20
4.9093097009
 30
0.0
 10
7.7623147787
 20
4.8980211794
 30
0.0
 10
7.7645517181
 20
4.8865784557
 30
0.0
 10
7.7666946586
 20
4.8711669598
 30
0.0
 10
7.7673461563
 20
4.8594834801
 30
0.0
 10
7.7673461563
 20
4.851702851
 30
0.0
  0
SPLINE
  5
324
100
AcDbEntity
  8
0
100
AcDbSpline
 62
7
  6
CONTINUOUS
 70
0
 71
3
 72
11
 73
7
 74
0
 42
0.0000001
 43
0.0000001
 44
0.0000000001
 40
0.0
 40
0.0
 40
0.0
 40
0.0
 40
0.2575021294
 40
0.5119340672
 40
0.7603102163
 40
1.0
 40
1.0
 40
1.0
 40
1.0
 10
7.7403805762
 20
4.851702851
 30
0.0
 10
7.7403805762
 20
4.8594729412
 30
0.0
 10
7.740675471
 20
4.8749220688
 30
0.0
 10
7.7419870668
 20
4.8978323033
 30
0.0
 10
7.7441411337
 20
4.9201389379
 30
0.0
 10
7.7461478984
 20
4.9347339089
 30
0.0
 10
7.7472873702
 20
4.9418761902
 30
0.0
  0
SPLINE
  5
325
100
AcDbEntity
  8
0
100
AcDbSpline
 62
7
  6
CONTINUOUS
 70
0
 71
3
 72
11
 73
7
 74
0
 42
0.0000001
 43
0.0000001
 44
0.0000000001
 40
0.0
 40
0.0
 40
0.0
 40
0.0
 40
0.2396898951
 40
0.4880661718
 40
0.7424979798
 40
1.0
 40
1.0
 40
1.0
 40
1.0
 10
7.7472873702
 20
4.7615295118
 30
0.0
 10
7.7461478978
 20
4.7686717964
 30
0.0
 10
7.7441411342
 20
4.7832667748
 30
0.0
 10
7.7419870658
 20
4.8055734126
 30
0.0
 10
7.7406754698
 20
4.8284836437
 30
0.0
 10
7.7403805762
 20
4.8439327641
 30
0.0
 10
7.7403805762
 20
4.851702851
 30
0.0
  0
SPLINE
  5
326
100
AcDbEntity
  8
0
100
AcDbSpline
 62
7
  6
CONTINUOUS
 70
0
 71
3
 72
12
 73
8
 74
0
 42
0.0000001
 43
0.0000001
 44
0.0000000001
 40
0.0
 40
0.0
 40
0.0
 40
0.0
 40
0.245204382
 40
0.3694276114
 40
0.4944853487
 40
0.7465311119
 40
1.0
 40
1.0
 40
1.0
 40
1.0
 10
6.8716254055
 20
4.7615295118
 30
0.0
 10
6.8690159901
 20
4.7685851882
 30
0.0
 10
6.8655578421
 20
4.779399033
 30
0.0
 10
6.8619006263
 20
4.7941257376
 30
0.0
 10
6.8588604219
 20
4.8092075702
 30
0.0
 10
6.8563029182
 20
4.8284095422
 30
0.0
 10
6.8556145534
 20
4.8439265604
 30
0.0
 10
6.8556145534
 20
4.851702851
 30
0.0
  0
SPLINE
  5
327
100
AcDbEntity
  8
0
100
AcDbSpline
 62
7
  6
CONTINUOUS
 70
0
 71
3
 72
12
 73
8
 74
0
 42
0.0000001
 43
0.0000001
 44
0.0000000001
 40
0.0
 40
0.0
 40
0.0
 40
0.0
 40
0.2534689959
 40
0.5055148872
 40
0.6305725817
 40
0.754795724
 40
1.0
 40
1.0
 40
1.0
 40
1.0
 10
6.8556145534
 20
4.851702851
 30
0.0
 10
6.8556145534
 20
4.859479145
 30
0.0
 10
6.8563029211
 20
4.8749961703
 30
0.0
 10
6.858860424
 20
4.8941981483
 30
0.0
 10
6.861900629
 20
4.9092799808
 30
0.0
 10
6.8655578411
 20
4.9240066789
 30
0.0
 10
6.8690159913
 20
4.9348205169
 30
0.0
 10
6.8716254055
 20
4.9418761902
 30
0.0
  0
SPLINE
  5
328
100
AcDbEntity
  8
0
100
AcDbSpline
 62
7
  6
CONTINUOUS
 70
0
 71
3
 72
13
 73
9
 74
0
 42
0.0000001
 43
0.0000001
 44
0.0000000001
 40
0.0
 40
0.0
 40
0.0
 40
0.0
 40
0.2504576113
 40
0.3757049743
 40
0.5008352066
 40
0.6258601801
 40
0.7507839036
 40
1.0
 40
1.0
 40
1.0
 40
1.0
 10
7.8053615934
 20
4.851702851
 30
0.0
 10
7.8053615934
 20
4.8439216971
 30
0.0
 10
7.8046956884
 20
4.832235522
 30
0.0
 10
7.8025064647
 20
4.8168250088
 30
0.0
 10
7.800220971
 20
4.805381623
 30
0.0
 10
7.7973068076
 20
4.7940925284
 30
0.0
 10
7.7926051774
 20
4.7793087834
 30
0.0
 10
7.7881823728
 20
4.7685277225
 30
0.0
 10
7.7848698758
 20
4.7615295118
 30
0.0
  0
SPLINE
  5
329
100
AcDbEntity
  8
0
100
AcDbSpline
 62
7
  6
CONTINUOUS
 70
0
 71
3
 72
13
 73
9
 74
0
 42
0.0000001
 43
0.0000001
 44
0.0000000001
 40
0.0
 40
0.0
 40
0.0
 40
0.0
 40
0.2492161988
 40
0.3741400106
 40
0.499165027
 40
0.6242952297
 40
0.7495424958
 40
1.0
 40
1.0
 40
1.0
 40
1.0
 10
7.7848698758
 20
4.9418761902
 30
0.0
 10
7.7881823742
 20
4.9348779767
 30
0.0
 10
7.7926051764
 20
4.9240969085
 30
0.0
 10
7.7973068111
 20
4.9093131574
 30
0.0
 10
7.8002209748
 20
4.8980240596
 30
0.0
 10
7.8025064668
 20
4.8865806762
 30
0.0
 10
7.8046956914
 20
4.8711701705
 30
0.0
 10
7.8053615934
 20
4.8594840016
 30
0.0
 10
7.8053615934
 20
4.851702851
 30
0.0
  0
SPLINE
  5
32A
100
AcDbEntity
  8
0
100
AcDbSpline
 62
7
  6
CONTINUOUS
 70
0
 71
3
 72
11
 73
7
 74
0
 42
0.0000001
 43
0.0000001
 44
0.0000000001
 40
0.0
 40
0.0
 40
0.0
 40
0.0
 40
0.2578518919
 40
0.5124923584
 40
0.7607962804
 40
1.0
 40
1.0
 40
1.0
 40
1.0
 10
7.7793790853
 20
4.851702851
 30
0.0
 10
7.7793790853
 20
4.8594724101
 30
0.0
 10
7.7796134771
 20
4.8749157658
 30
0.0
 10
7.7806555716
 20
4.8978197602
 30
0.0
 10
7.7823669603
 20
4.920120068
 30
0.0
 10
7.783962996
 20
4.9347258155
 30
0.0
 10
7.7848698758
 20
4.9418761902
 30
0.0
  0
SPLINE
  5
32B
100
AcDbEntity
  8
0
100
AcDbSpline
 62
7
  6
CONTINUOUS
 70
0
 71
3
 72
11
 73
7
 74
0
 42
0.0000001
 43
0.0000001
 44
0.0000000001
 40
0.0
 40
0.0
 40
0.0
 40
0.0
 40
0.239203831
 40
0.48750788
 40
0.7421482173
 40
1.0
 40
1.0
 40
1.0
 40
1.0
 10
7.7848698758
 20
4.7615295118
 30
0.0
 10
7.7839629956
 20
4.7686798898
 30
0.0
 10
7.7823669607
 20
4.7832856447
 30
0.0
 10
7.7806555708
 20
4.8055859556
 30
0.0
 10
7.7796134763
 20
4.8284899466
 30
0.0
 10
7.7793790853
 20
4.8439332952
 30
0.0
 10
7.7793790853
 20
4.851702851
 30
0.0
  0
SPLINE
  5
32C
100
AcDbEntity
  8
0
100
AcDbSpline
 62
7
  6
CONTINUOUS
 70
0
 71
3
 72
13
 73
9
 74
0
 42
0.0000001
 43
0.0000001
 44
0.0000000001
 40
0.0
 40
0.0
 40
0.0
 40
0.0
 40
0.2480045703
 40
0.3727134933
 40
0.4977445103
 40
0.6230625596
 40
0.7486376415
 40
1.0
 40
1.0
 40
1.0
 40
1.0
 10
6.9069165591
 20
4.7615295118
 30
0.0
 10
6.9038010481
 20
4.7685445312
 30
0.0
 10
6.8996501892
 20
4.7793357133
 30
0.0
 10
6.8952445701
 20
4.7941024952
 30
0.0
 10
6.8925112012
 20
4.805389915
 30
0.0
 10
6.8903675077
 20
4.8168313934
 30
0.0
 10
6.8883134942
 20
4.8322447256
 30
0.0
 10
6.8876896136
 20
4.8439231927
 30
0.0
 10
6.8876896136
 20
4.851702851
 30
0.0
  0
SPLINE
  5
32D
100
AcDbEntity
  8
0
100
AcDbSpline
 62
7
  6
CONTINUOUS
 70
0
 71
3
 72
13
 73
9
 74
0
 42
0.0000001
 43
0.0000001
 44
0.0000000001
 40
0.0
 40
0.0
 40
0.0
 40
0.0
 40
0.2513624656
 40
0.376937645
 40
0.5022557241
 40
0.6272866982
 40
0.7519955331
 40
1.0
 40
1.0
 40
1.0
 40
1.0
 10
6.8876896136
 20
4.851702851
 30
0.0
 10
6.8876896136
 20
4.8594825126
 30
0.0
 10
6.8883134974
 20
4.8711609859
 30
0.0
 10
6.8903675102
 20
4.8865743255
 30
0.0
 10
6.8925112049
 20
4.8980158064
 30
0.0
 10
6.8952445732
 20
4.9093032232
 30
0.0
 10
6.8996501881
 20
4.9240699988
 30
0.0
 10
6.9038010494
 20
4.9348611738
 30
0.0
 10
6.9069165591
 20
4.9418761902
 30
0.0
  0
SPLINE
  5
32E
100
AcDbEntity
  8
0
100
AcDbSpline
 62
7
  6
CONTINUOUS
 70
0
 71
3
 72
13
 73
9
 74
0
 42
0.0000001
 43
0.0000001
 44
0.0000000001
 40
0.0
 40
0.0
 40
0.0
 40
0.0
 40
0.2485519426
 40
0.3733577544
 40
0.4983858973
 40
0.6236190157
 40
0.7490460507
 40
1.0
 40
1.0
 40
1.0
 40
1.0
 10
6.9228616215
 20
4.7615295118
 30
0.0
 10
6.9196558547
 20
4.7685368889
 30
0.0
 10
6.9153805551
 20
4.7793235251
 30
0.0
 10
6.9108396439
 20
4.7940979991
 30
0.0
 10
6.9080235881
 20
4.8053861843
 30
0.0
 10
6.9058150443
 20
4.8168285256
 30
0.0
 10
6.9036991793
 20
4.8322405898
 30
0.0
 10
6.9030560982
 20
4.8439225218
 30
0.0
 10
6.9030560982
 20
4.851702851
 30
0.0
  0
SPLINE
  5
32F
100
AcDbEntity
  8
0
100
AcDbSpline
 62
7
  6
CONTINUOUS
 70
0
 71
3
 72
13
 73
9
 74
0
 42
0.0000001
 43
0.0000001
 44
0.0000000001
 40
0.0
 40
0.0
 40
0.0
 40
0.0
 40
0.2509540562
 40
0.3763811887
 40
0.5016143368
 40
0.6266424368
 40
0.7514481604
 40
1.0
 40
1.0
 40
1.0
 40
1.0
 10
6.9030560982
 20
4.851702851
 30
0.0
 10
6.9030560982
 20
4.8594831835
 30
0.0
 10
6.9036991826
 20
4.8711651218
 30
0.0
 10
6.9058150469
 20
4.8865771934
 30
0.0
 10
6.9080235919
 20
4.8980195371
 30
0.0
 10
6.9108396472
 20
4.9093077192
 30
0.0
 10
6.915380554
 20
4.9240821871
 30
0.0
 10
6.919655856
 20
4.934868816
 30
0.0
 10
6.9228616215
 20
4.9418761902
 30
0.0
  0
SPLINE
  5
330
100
AcDbEntity
  8
0
100
AcDbSpline
 62
7
  6
CONTINUOUS
 70
0
 71
3
 72
13
 73
9
 74
0
 42
0.0000001
 43
0.0000001
 44
0.0000000001
 40
0.0
 40
0.0
 40
0.0
 40
0.0
 40
0.2502119972
 40
0.3753704975
 40
0.5004499437
 40
0.625473519
 40
0.7504557134
 40
1.0
 40
1.0
 40
1.0
 40
1.0
 10
7.8417917061
 20
4.851702851
 30
0.0
 10
7.8417917061
 20
4.8439212883
 30
0.0
 10
7.8411147036
 20
4.8322330068
 30
0.0
 10
7.8388898678
 20
4.8168232717
 30
0.0
 10
7.836567007
 20
4.8053793731
 30
0.0
 10
7.8336052032
 20
4.7940898341
 30
0.0
 10
7.8288254482
 20
4.7793015291
 30
0.0
 10
7.8243310765
 20
4.7685232392
 30
0.0
 10
7.8209668907
 20
4.7615295118
 30
0.0
  0
SPLINE
  5
331
100
AcDbEntity
  8
0
100
AcDbSpline
 62
7
  6
CONTINUOUS
 70
0
 71
3
 72
13
 73
9
 74
0
 42
0.0000001
 43
0.0000001
 44
0.0000000001
 40
0.0
 40
0.0
 40
0.0
 40
0.0
 40
0.2490169382
 40
0.3739053044
 40
0.498931217
 40
0.6240922744
 40
0.7493934791
 40
1.0
 40
1.0
 40
1.0
 40
1.0
 10
6.9415208106
 20
4.7615295118
 30
0.0
 10
6.938240024
 20
4.7685304616
 30
0.0
 10
6.9338610863
 20
4.7793132058
 30
0.0
 10
6.9292072889
 20
4.7940941807
 30
0.0
 10
6.9263223117
 20
4.8053830065
 30
0.0
 10
6.9240597118
 20
4.8168260779
 30
0.0
 10
6.9218923083
 20
4.8322370534
 30
0.0
 10
6.9212332
 20
4.8439219477
 30
0.0
 10
6.9212332
 20
4.851702851
 30
0.0
  0
SPLINE
  5
332
100
AcDbEntity
  8
0
100
AcDbSpline
 62
7
  6
CONTINUOUS
 70
0
 71
3
 72
13
 73
9
 74
0
 42
0.0000001
 43
0.0000001
 44
0.0000000001
 40
0.0
 40
0.0
 40
0.0
 40
0.0
 40
0.2506066277
 40
0.3759079297
 40
0.5010690169
 40
0.6260948866
 40
0.7509831644
 40
1.0
 40
1.0
 40
1.0
 40
1.0
 10
6.9212332
 20
4.851702851
 30
0.0
 10
6.9212332
 20
4.8594837577
 30
0.0
 10
6.9218923116
 20
4.8711686581
 30
0.0
 10
6.9240597144
 20
4.8865796411
 30
0.0
 10
6.9263223156
 20
4.8980227149
 30
0.0
 10
6.9292072921
 20
4.9093115377
 30
0.0
 10
6.9338610852
 20
4.9240925064
 30
0.0
 10
6.9382400254
 20
4.9348752433
 30
0.0
 10
6.9415208106
 20
4.9418761902
 30
0.0
  0
SPLINE
  5
333
100
AcDbEntity
  8
0
100
AcDbSpline
 62
7
  6
CONTINUOUS
 70
0
 71
3
 72
13
 73
9
 74
0
 42
0.0000001
 43
0.0000001
 44
0.0000000001
 40
0.0
 40
0.0
 40
0.0
 40
0.0
 40
0.2495443887
 40
0.3745266715
 40
0.4995502897
 40
0.6246297063
 40
0.7497881098
 40
1.0
 40
1.0
 40
1.0
 40
1.0
 10
7.8209668907
 20
4.9418761902
 30
0.0
 10
7.8243310779
 20
4.9348824599
 30
0.0
 10
7.8288254473
 20
4.9241041628
 30
0.0
 10
7.8336052067
 20
4.9093158517
 30
0.0
 10
7.8365670109
 20
4.8980263095
 30
0.0
 10
7.83888987
 20
4.8865824133
 30
0.0
 10
7.8411147066
 20
4.8711726857
 30
0.0
 10
7.8417917061
 20
4.8594844103
 30
0.0
 10
7.8417917061
 20
4.851702851
 30
0.0
  0
SPLINE
  5
334
100
AcDbEntity
  8
0
100
AcDbSpline
 62
7
  6
CONTINUOUS
 70
0
 71
3
 72
13
 73
9
 74
0
 42
0.0000001
 43
0.0000001
 44
0.0000000001
 40
0.0
 40
0.0
 40
0.0
 40
0.0
 40
0.2493922408
 40
0.3743474027
 40
0.499371657
 40
0.6244746127
 40
0.7496742161
 40
1.0
 40
1.0
 40
1.0
 40
1.0
 10
6.9628032208
 20
4.7615295118
 30
0.0
 10
6.9594629141
 20
4.7685253169
 30
0.0
 10
6.9550016201
 20
4.7793049004
 30
0.0
 10
6.9502579782
 20
4.7940910993
 30
0.0
 10
6.9473181944
 20
4.8053804361
 30
0.0
 10
6.9450126073
 20
4.8168240946
 30
0.0
 10
6.9428042306
 20
4.8322341836
 30
0.0
 10
6.9421323622
 20
4.8439214814
 30
0.0
 10
6.9421323622
 20
4.851702851
 30
0.0
  0
SPLINE
  5
335
100
AcDbEntity
  8
0
100
AcDbSpline
 62
7
  6
CONTINUOUS
 70
0
 71
3
 72
13
 73
9
 74
0
 42
0.0000001
 43
0.0000001
 44
0.0000000001
 40
0.0
 40
0.0
 40
0.0
 40
0.0
 40
0.2503258906
 40
0.3755255911
 40
0.5006285767
 40
0.6256527881
 40
0.7506078614
 40
1.0
 40
1.0
 40
1.0
 40
1.0
 10
6.9421323622
 20
4.851702851
 30
0.0
 10
6.9421323622
 20
4.8594842239
 30
0.0
 10
6.942804234
 20
4.8711715279
 30
0.0
 10
6.9450126099
 20
4.8865816243
 30
0.0
 10
6.9473181984
 20
4.8980252854
 30
0.0
 10
6.9502579815
 20
4.9093146189
 30
0.0
 10
6.9550016189
 20
4.9241008119
 30
0.0
 10
6.9594629155
 20
4.9348803879
 30
0.0
 10
6.9628032208
 20
4.9418761902
 30
0.0
  0
SPLINE
  5
336
100
AcDbEntity
  8
0
100
AcDbSpline
 62
7
  6
CONTINUOUS
 70
0
 71
3
 72
11
 73
7
 74
0
 42
0.0000001
 43
0.0000001
 44
0.0000000001
 40
0.0
 40
0.0
 40
0.0
 40
0.0
 40
0.258127974
 40
0.5129325188
 40
0.7611793568
 40
1.0
 40
1.0
 40
1.0
 40
1.0
 10
7.8169189566
 20
4.851702851
 30
0.0
 10
7.8169189566
 20
4.8594720096
 30
0.0
 10
7.8170915988
 20
4.874910844
 30
0.0
 10
7.8178595391
 20
4.897809907
 30
0.0
 10
7.8191207086
 20
4.9201051404
 30
0.0
 10
7.8202977089
 20
4.9347193624
 30
0.0
 10
7.8209668907
 20
4.9418761902
 30
0.0
  0
SPLINE
  5
337
100
AcDbEntity
  8
0
100
AcDbSpline
 62
7
  6
CONTINUOUS
 70
0
 71
3
 72
13
 73
9
 74
0
 42
0.0000001
 43
0.0000001
 44
0.0000000001
 40
0.0
 40
0.0
 40
0.0
 40
0.0
 40
0.2496720634
 40
0.3746771236
 40
0.4997002241
 40
0.6247598944
 40
0.74988372
 40
1.0
 40
1.0
 40
1.0
 40
1.0
 10
6.9866051662
 20
4.7615295118
 30
0.0
 10
6.9832210469
 20
4.7685215058
 30
0.0
 10
6.9786990571
 20
4.7792987214
 30
0.0
 10
6.9738891209
 20
4.7940888023
 30
0.0
 10
6.9709089231
 20
4.8053785162
 30
0.0
 10
6.9685716366
 20
4.8168226114
 30
0.0
 10
6.9663330525
 20
4.8322320349
 30
0.0
 10
6.9656517659
 20
4.8439211321
 30
0.0
 10
6.9656517659
 20
4.851702851
 30
0.0
  0
SPLINE
  5
338
100
AcDbEntity
  8
0
100
AcDbSpline
 62
7
  6
CONTINUOUS
 70
0
 71
3
 72
13
 73
9
 74
0
 42
0.0000001
 43
0.0000001
 44
0.0000000001
 40
0.0
 40
0.0
 40
0.0
 40
0.0
 40
0.2501163867
 40
0.3752403093
 40
0.5003000094
 40
0.625323067
 40
0.7503280385
 40
1.0
 40
1.0
 40
1.0
 40
1.0
 10
6.9656517659
 20
4.851702851
 30
0.0
 10
6.9656517659
 20
4.8594845732
 30
0.0
 10
6.966333056
 20
4.8711736766
 30
0.0
 10
6.9685716393
 20
4.8865831075
 30
0.0
 10
6.9709089272
 20
4.8980272052
 30
0.0
 10
6.9738891243
 20
4.909316916
 30
0.0
 10
6.9786990559
 20
4.9241069908
 30
0.0
 10
6.9832210482
 20
4.9348841991
 30
0.0
 10
6.9866051662
 20
4.9418761902
 30
0.0
  0
SPLINE
  5
339
100
AcDbEntity
  8
0
100
AcDbSpline
 62
7
  6
CONTINUOUS
 70
0
 71
3
 72
11
 73
7
 74
0
 42
0.0000001
 43
0.0000001
 44
0.0000000001
 40
0.0
 40
0.0
 40
0.0
 40
0.0
 40
0.2388207555
 40
0.4870677208
 40
0.7418721354
 40
1.0
 40
1.0
 40
1.0
 40
1.0
 10
7.8209668907
 20
4.7615295118
 30
0.0
 10
7.8202977086
 20
4.768686343
 30
0.0
 10
7.8191207089
 20
4.7833005722
 30
0.0
 10
7.8178595385
 20
4.8055958088
 30
0.0
 10
7.8170915981
 20
4.8284948685
 30
0.0
 10
7.8169189566
 20
4.8439336957
 30
0.0
 10
7.8169189566
 20
4.851702851
 30
0.0
  0
SPLINE
  5
33A
100
AcDbEntity
  8
0
100
AcDbSpline
 62
7
  6
CONTINUOUS
 70
0
 71
3
 72
13
 73
9
 74
0
 42
0.0000001
 43
0.0000001
 44
0.0000000001
 40
0.0
 40
0.0
 40
0.0
 40
0.0
 40
0.2498521594
 40
0.3748893778
 40
0.499911773
 40
0.6249436003
 40
0.7500186436
 40
1.0
 40
1.0
 40
1.0
 40
1.0
 10
7.0128106863
 20
4.7615295118
 30
0.0
 10
7.0093986136
 20
4.768519064
 30
0.0
 10
7.0048378666
 20
4.7792947507
 30
0.0
 10
6.9999855623
 20
4.7940873241
 30
0.0
 10
6.9969795482
 20
4.8053772792
 30
0.0
 10
6.9946220119
 20
4.8168216548
 30
0.0
 10
6.9923641341
 20
4.8322306479
 30
0.0
 10
6.9916768271
 20
4.8439209065
 30
0.0
 10
6.9916768271
 20
4.851702851
 30
0.0
  0
SPLINE
  5
33B
100
AcDbEntity
  8
0
100
AcDbSpline
 62
7
  6
CONTINUOUS
 70
0
 71
3
 72
13
 73
9
 74
0
 42
0.0000001
 43
0.0000001
 44
0.0000000001
 40
0.0
 40
0.0
 40
0.0
 40
0.0
 40
0.2499772507
 40
0.3750510961
 40
0.5000813726
 40
0.6251005437
 40
0.7501339656
 40
1.0
 40
1.0
 40
1.0
 40
1.0
 10
6.9916768271
 20
4.851702851
 30
0.0
 10
6.9916768271
 20
4.8593836279
 30
0.0
 10
6.9923463928
 20
4.8709215616
 30
0.0
 10
6.9945462253
 20
4.8861343061
 30
0.0
 10
6.9968435613
 20
4.8974357822
 30
0.0
 10
6.999773291
 20
4.9085885561
 30
0.0
 10
7.0045035708
 20
4.923208372
 30
0.0
 10
7.0089520654
 20
4.9338660305
 30
0.0
 10
7.0122812925
 20
4.9407839853
 30
0.0
  0
SPLINE
  5
33C
100
AcDbEntity
  8
0
100
AcDbSpline
 62
7
  6
CONTINUOUS
 70
0
 71
3
 72
13
 73
9
 74
0
 42
0.0000001
 43
0.0000001
 44
0.0000000001
 40
0.0
 40
0.0
 40
0.0
 40
0.0
 40
0.249929826
 40
0.3749809231
 40
0.5000030232
 40
0.625022847
 40
0.7500768502
 40
1.0
 40
1.0
 40
1.0
 40
1.0
 10
7.0412921104
 20
4.7615295118
 30
0.0
 10
7.0378680404
 20
4.7685180136
 30
0.0
 10
7.0332906515
 20
4.7792930399
 30
0.0
 10
7.0284201464
 20
4.7940866867
 30
0.0
 10
7.0254030447
 20
4.8053767453
 30
0.0
 10
7.0230368113
 20
4.8168212418
 30
0.0
 10
7.0207706479
 20
4.8322300487
 30
0.0
 10
7.0200807544
 20
4.8439208091
 30
0.0
 10
7.0200807544
 20
4.851702851
 30
0.0
  0
SPLINE
  5
33D
100
AcDbEntity
  8
0
100
AcDbSpline
 62
7
  6
CONTINUOUS
 70
0
 71
3
 72
13
 73
9
 74
0
 42
0.0000001
 43
0.0000001
 44
0.0000000001
 40
0.0
 40
0.0
 40
0.0
 40
0.0
 40
0.2499232564
 40
0.3749773566
 40
0.4999972102
 40
0.6250192674
 40
0.7500702757
 40
1.0
 40
1.0
 40
1.0
 40
1.0
 10
7.0200807544
 20
4.851702851
 30
0.0
 10
7.0200807544
 20
4.8594848963
 30
0.0
 10
7.0207706514
 20
4.8711756627
 30
0.0
 10
7.023036814
 20
4.8865844772
 30
0.0
 10
7.0254030488
 20
4.8980289761
 30
0.0
 10
7.0284201498
 20
4.9093190316
 30
0.0
 10
7.0332906504
 20
4.9241126724
 30
0.0
 10
7.0378680418
 20
4.9348876912
 30
0.0
 10
7.0412921104
 20
4.9418761902
 30
0.0
  0
SPLINE
  5
33E
100
AcDbEntity
  8
0
100
AcDbSpline
 62
7
  6
CONTINUOUS
 70
0
 71
3
 72
13
 73
9
 74
0
 42
0.0000001
 43
0.0000001
 44
0.0000000001
 40
0.0
 40
0.0
 40
0.0
 40
0.0
 40
0.2500394404
 40
0.3751355406
 40
0.5001793587
 40
0.6252020105
 40
0.7502253195
 40
1.0
 40
1.0
 40
1.0
 40
1.0
 10
7.8764590105
 20
4.851702851
 30
0.0
 10
7.8764590105
 20
4.8439210002
 30
0.0
 10
7.875774283
 20
4.8322312347
 30
0.0
 10
7.8735246815
 20
4.816822049
 30
0.0
 10
7.8711758295
 20
4.8053777914
 30
0.0
 10
7.8681808895
 20
4.794087943
 30
0.0
 10
7.8633467647
 20
4.7792964459
 30
0.0
 10
7.8588026381
 20
4.7685201092
 30
0.0
 10
7.8554025537
 20
4.7615295118
 30
0.0
  0
SPLINE
  5
33F
100
AcDbEntity
  8
0
100
AcDbSpline
 62
7
  6
CONTINUOUS
 70
0
 71
3
 72
13
 73
9
 74
0
 42
0.0000001
 43
0.0000001
 44
0.0000000001
 40
0.0
 40
0.0
 40
0.0
 40
0.0
 40
0.249903905
 40
0.3749503694
 40
0.4999725674
 40
0.6249963971
 40
0.7500574225
 40
1.0
 40
1.0
 40
1.0
 40
1.0
 10
7.0719106798
 20
4.7615295118
 30
0.0
 10
7.06849061
 20
4.768518364
 30
0.0
 10
7.0639187705
 20
4.7792936108
 30
0.0
 10
7.0590543352
 20
4.7940868995
 30
0.0
 10
7.0560409309
 20
4.8053769235
 30
0.0
 10
7.0536775978
 20
4.8168213797
 30
0.0
 10
7.0514141974
 20
4.8322302488
 30
0.0
 10
7.0507251665
 20
4.8439208416
 30
0.0
 10
7.0507251665
 20
4.851702851
 30
0.0
  0
SPLINE
  5
340
100
AcDbEntity
  8
0
100
AcDbSpline
 62
7
  6
CONTINUOUS
 70
0
 71
3
 72
13
 73
9
 74
0
 42
0.0000001
 43
0.0000001
 44
0.0000000001
 40
0.0
 40
0.0
 40
0.0
 40
0.0
 40
0.2499426841
 40
0.3750038065
 40
0.5000276661
 40
0.6250498211
 40
0.7500961967
 40
1.0
 40
1.0
 40
1.0
 40
1.0
 10
7.0507251665
 20
4.851702851
 30
0.0
 10
7.0507251665
 20
4.8594848637
 30
0.0
 10
7.0514142009
 20
4.8711754627
 30
0.0
 10
7.0536776005
 20
4.8865843393
 30
0.0
 10
7.0560409351
 20
4.8980287979
 30
0.0
 10
7.0590543386
 20
4.9093188188
 30
0.0
 10
7.0639187694
 20
4.9241121015
 30
0.0
 10
7.0684906114
 20
4.9348873408
 30
0.0
 10
7.0719106798
 20
4.9418761902
 30
0.0
  0
SPLINE
  5
341
100
AcDbEntity
  8
0
100
AcDbSpline
 62
7
  6
CONTINUOUS
 70
0
 71
3
 72
11
 73
7
 74
0
 42
0.0000001
 43
0.0000001
 44
0.0000000001
 40
0.0
 40
0.0
 40
0.0
 40
0.0
 40
0.2385493269
 40
0.4867562221
 40
0.7416769983
 40
1.0
 40
1.0
 40
1.0
 40
1.0
 10
7.1045172239
 20
4.9418761902
 30
0.0
 10
7.1049449038
 20
4.9347147608
 30
0.0
 10
7.1056968232
 20
4.9200945475
 30
0.0
 10
7.1065020724
 20
4.8978029237
 30
0.0
 10
7.1069924033
 20
4.8749073544
 30
0.0
 10
7.1071026317
 20
4.8594717176
 30
0.0
 10
7.1071026317
 20
4.851702851
 30
0.0
  0
SPLINE
  5
342
100
AcDbEntity
  8
0
100
AcDbSpline
 62
7
  6
CONTINUOUS
 70
0
 71
3
 72
11
 73
7
 74
0
 42
0.0000001
 43
0.0000001
 44
0.0000000001
 40
0.0
 40
0.0
 40
0.0
 40
0.0
 40
0.2583231119
 40
0.5132440174
 40
0.7614507848
 40
1.0
 40
1.0
 40
1.0
 40
1.0
 10
7.1071026317
 20
4.851702851
 30
0.0
 10
7.1071026317
 20
4.8439339811
 30
0.0
 10
7.106992403
 20
4.8284983371
 30
0.0
 10
7.106502072
 20
4.8056027644
 30
0.0
 10
7.1056968234
 20
4.7833111439
 30
0.0
 10
7.1049449036
 20
4.7686909378
 30
0.0
 10
7.1045172239
 20
4.7615295118
 30
0.0
  0
SPLINE
  5
343
100
AcDbEntity
  8
0
100
AcDbSpline
 62
7
  6
CONTINUOUS
 70
0
 71
3
 72
13
 73
9
 74
0
 42
0.0000001
 43
0.0000001
 44
0.0000000001
 40
0.0
 40
0.0
 40
0.0
 40
0.0
 40
0.2497747824
 40
0.37479818
 40
0.4998208747
 40
0.6248646631
 40
0.7499606664
 40
1.0
 40
1.0
 40
1.0
 40
1.0
 10
7.1045172239
 20
4.7615295118
 30
0.0
 10
7.101117138
 20
4.768520112
 30
0.0
 10
7.0965730139
 20
4.7792964561
 30
0.0
 10
7.0917388846
 20
4.7940879592
 30
0.0
 10
7.088743944
 20
4.8053778108
 30
0.0
 10
7.0863950936
 20
4.816822066
 30
0.0
 10
7.0841454913
 20
4.8322312442
 30
0.0
 10
7.0834607671
 20
4.8439210035
 30
0.0
 10
7.0834607671
 20
4.851702851
 30
0.0
  0
SPLINE
  5
344
100
AcDbEntity
  8
0
100
AcDbSpline
 62
7
  6
CONTINUOUS
 70
0
 71
3
 72
13
 73
9
 74
0
 42
0.0000001
 43
0.0000001
 44
0.0000000001
 40
0.0
 40
0.0
 40
0.0
 40
0.0
 40
0.2500394402
 40
0.3751355406
 40
0.5001793588
 40
0.6252020105
 40
0.7502253194
 40
1.0
 40
1.0
 40
1.0
 40
1.0
 10
7.0834607671
 20
4.851702851
 30
0.0
 10
7.0834607671
 20
4.8594847018
 30
0.0
 10
7.0841454948
 20
4.8711744673
 30
0.0
 10
7.0863950963
 20
4.886583653
 30
0.0
 10
7.0887439481
 20
4.8980279106
 30
0.0
 10
7.091738888
 20
4.9093177591
 30
0.0
 10
7.0965730128
 20
4.9241092561
 30
0.0
 10
7.1011171394
 20
4.9348855928
 30
0.0
 10
7.1045172239
 20
4.9418761902
 30
0.0
  0
SPLINE
  5
345
100
AcDbEntity
  8
0
100
AcDbSpline
 62
7
  6
CONTINUOUS
 70
0
 71
3
 72
11
 73
7
 74
0
 42
0.0000001
 43
0.0000001
 44
0.0000000001
 40
0.0
 40
0.0
 40
0.0
 40
0.0
 40
0.2388207551
 40
0.4870677207
 40
0.7418721358
 40
1.0
 40
1.0
 40
1.0
 40
1.0
 10
7.1389528869
 20
4.9418761902
 30
0.0
 10
7.139622069
 20
4.934719359
 30
0.0
 10
7.1407990687
 20
4.9201051298
 30
0.0
 10
7.1420602391
 20
4.8978098932
 30
0.0
 10
7.1428281794
 20
4.8749108335
 30
0.0
 10
7.1430008209
 20
4.8594720063
 30
0.0
 10
7.1430008209
 20
4.851702851
 30
0.0
  0
SPLINE
  5
346
100
AcDbEntity
  8
0
100
AcDbSpline
 62
7
  6
CONTINUOUS
 70
0
 71
3
 72
11
 73
7
 74
0
 42
0.0000001
 43
0.0000001
 44
0.0000000001
 40
0.0
 40
0.0
 40
0.0
 40
0.0
 40
0.2581279743
 40
0.5129325187
 40
0.7611793564
 40
1.0
 40
1.0
 40
1.0
 40
1.0
 10
7.1430008209
 20
4.851702851
 30
0.0
 10
7.1430008209
 20
4.8439336924
 30
0.0
 10
7.1428281788
 20
4.828494858
 30
0.0
 10
7.1420602385
 20
4.805595795
 30
0.0
 10
7.1407990689
 20
4.7833005616
 30
0.0
 10
7.1396220687
 20
4.7686863396
 30
0.0
 10
7.1389528869
 20
4.7615295118
 30
0.0
  0
SPLINE
  5
347
100
AcDbEntity
  8
0
100
AcDbSpline
 62
7
  6
CONTINUOUS
 70
0
 71
3
 72
13
 73
9
 74
0
 42
0.0000001
 43
0.0000001
 44
0.0000000001
 40
0.0
 40
0.0
 40
0.0
 40
0.0
 40
0.2495443887
 40
0.3745266716
 40
0.4995502898
 40
0.6246297063
 40
0.7497881096
 40
1.0
 40
1.0
 40
1.0
 40
1.0
 10
7.1389528869
 20
4.7615295118
 30
0.0
 10
7.1355886997
 20
4.7685232421
 30
0.0
 10
7.1310943304
 20
4.7793015392
 30
0.0
 10
7.126314571
 20
4.7940898504
 30
0.0
 10
7.1233527666
 20
4.8053793925
 30
0.0
 10
7.1210299073
 20
4.8168232886
 30
0.0
 10
7.1188050707
 20
4.8322330163
 30
0.0
 10
7.1181280715
 20
4.8439212917
 30
0.0
 10
7.1181280715
 20
4.851702851
 30
0.0
  0
SPLINE
  5
348
100
AcDbEntity
  8
0
100
AcDbSpline
 62
7
  6
CONTINUOUS
 70
0
 71
3
 72
13
 73
9
 74
0
 42
0.0000001
 43
0.0000001
 44
0.0000000001
 40
0.0
 40
0.0
 40
0.0
 40
0.0
 40
0.2502119971
 40
0.3753704975
 40
0.5004499438
 40
0.6254735191
 40
0.7504557134
 40
1.0
 40
1.0
 40
1.0
 40
1.0
 10
7.1181280715
 20
4.851702851
 30
0.0
 10
7.1181280715
 20
4.8594844137
 30
0.0
 10
7.1188050742
 20
4.8711726952
 30
0.0
 10
7.12102991
 20
4.8865824303
 30
0.0
 10
7.1233527706
 20
4.8980263289
 30
0.0
 10
7.1263145743
 20
4.9093158679
 30
0.0
 10
7.1310943293
 20
4.924104173
 30
0.0
 10
7.135588701
 20
4.9348824628
 30
0.0
 10
7.1389528869
 20
4.9418761902
 30
0.0
  0
SPLINE
  5
349
100
AcDbEntity
  8
0
100
AcDbSpline
 62
7
  6
CONTINUOUS
 70
0
 71
3
 72
11
 73
7
 74
0
 42
0.0000001
 43
0.0000001
 44
0.0000000001
 40
0.0
 40
0.0
 40
0.0
 40
0.0
 40
0.2392038306
 40
0.4875078803
 40
0.742148218
 40
1.0
 40
1.0
 40
1.0
 40
1.0
 10
7.1750499017
 20
4.9418761902
 30
0.0
 10
7.175956782
 20
4.9347258122
 30
0.0
 10
7.177552817
 20
4.9201200573
 30
0.0
 10
7.1792642067
 20
4.8978197464
 30
0.0
 10
7.1803063011
 20
4.8749157553
 30
0.0
 10
7.1805406924
 20
4.8594724068
 30
0.0
 10
7.1805406924
 20
4.851702851
 30
0.0
  0
SPLINE
  5
34A
100
AcDbEntity
  8
0
100
AcDbSpline
 62
7
  6
CONTINUOUS
 70
0
 71
3
 72
11
 73
7
 74
0
 42
0.0000001
 43
0.0000001
 44
0.0000000001
 40
0.0
 40
0.0
 40
0.0
 40
0.0
 40
0.257851891
 40
0.5124923581
 40
0.7607962809
 40
1.0
 40
1.0
 40
1.0
 40
1.0
 10
7.1805406924
 20
4.851702851
 30
0.0
 10
7.1805406924
 20
4.8439332919
 30
0.0
 10
7.1803063003
 20
4.8284899362
 30
0.0
 10
7.1792642059
 20
4.8055859418
 30
0.0
 10
7.1775528174
 20
4.783285634
 30
0.0
 10
7.1759567816
 20
4.7686798865
 30
0.0
 10
7.1750499017
 20
4.7615295118
 30
0.0
  0
SPLINE
  5
34B
100
AcDbEntity
  8
0
100
AcDbSpline
 62
7
  6
CONTINUOUS
 70
0
 71
3
 72
13
 73
9
 74
0
 42
0.0000001
 43
0.0000001
 44
0.0000000001
 40
0.0
 40
0.0
 40
0.0
 40
0.0
 40
0.2492162518
 40
0.3741399856
 40
0.4991649461
 40
0.6242952296
 40
0.7495426172
 40
1.0
 40
1.0
 40
1.0
 40
1.0
 10
7.1750499017
 20
4.7615295118
 30
0.0
 10
7.1717374028
 20
4.7685277265
 30
0.0
 10
7.167314525
 20
4.7793087623
 30
0.0
 10
7.1626129305
 20
4.7940925262
 30
0.0
 10
7.1596988996
 20
4.8053816569
 30
0.0
 10
7.1574135069
 20
4.8168250621
 30
0.0
 10
7.1552241599
 20
4.832235545
 30
0.0
 10
7.1545579867
 20
4.8439217046
 30
0.0
 10
7.1545579867
 20
4.851702851
 30
0.0
  0
SPLINE
  5
34C
100
AcDbEntity
  8
0
100
AcDbSpline
 62
7
  6
CONTINUOUS
 70
0
 71
3
 72
13
 73
9
 74
0
 42
0.0000001
 43
0.0000001
 44
0.0000000001
 40
0.0
 40
0.0
 40
0.0
 40
0.0
 40
0.2504574893
 40
0.3757049737
 40
0.500835287
 40
0.6258602048
 40
0.7507838502
 40
1.0
 40
1.0
 40
1.0
 40
1.0
 10
7.1545579867
 20
4.851702851
 30
0.0
 10
7.1545579867
 20
4.8594840007
 30
0.0
 10
7.155224163
 20
4.8711701665
 30
0.0
 10
7.1574135094
 20
4.8865806568
 30
0.0
 10
7.1596989035
 20
4.8980240644
 30
0.0
 10
7.1626129338
 20
4.909313192
 30
0.0
 10
7.1673145239
 20
4.9240969499
 30
0.0
 10
7.1717374042
 20
4.9348779783
 30
0.0
 10
7.1750499017
 20
4.9418761902
 30
0.0
  0
SPLINE
  5
34D
100
AcDbEntity
  8
0
100
AcDbSpline
 62
7
  6
CONTINUOUS
 70
0
 71
3
 72
11
 73
7
 74
0
 42
0.0000001
 43
0.0000001
 44
0.0000000001
 40
0.0
 40
0.0
 40
0.0
 40
0.0
 40
0.2396898947
 40
0.4880661717
 40
0.7424979801
 40
1.0
 40
1.0
 40
1.0
 40
1.0
 10
7.2126324074
 20
4.9418761902
 30
0.0
 10
7.2137718797
 20
4.9347339056
 30
0.0
 10
7.2157786434
 20
4.9201389272
 30
0.0
 10
7.2179327118
 20
4.8978322895
 30
0.0
 10
7.2192443076
 20
4.8749220583
 30
0.0
 10
7.2195392014
 20
4.8594729379
 30
0.0
 10
7.2195392014
 20
4.851702851
 30
0.0
  0
SPLINE
  5
34E
100
AcDbEntity
  8
0
100
AcDbSpline
 62
7
  6
CONTINUOUS
 70
0
 71
3
 72
11
 73
7
 74
0
 42
0.0000001
 43
0.0000001
 44
0.0000000001
 40
0.0
 40
0.0
 40
0.0
 40
0.0
 40
0.2575021297
 40
0.5119340671
 40
0.7603102159
 40
1.0
 40
1.0
 40
1.0
 40
1.0
 10
7.2195392014
 20
4.851702851
 30
0.0
 10
7.2195392014
 20
4.8439327608
 30
0.0
 10
7.2192443067
 20
4.8284836332
 30
0.0
 10
7.2179327108
 20
4.8055733987
 30
0.0
 10
7.2157786438
 20
4.7832667641
 30
0.0
 10
7.2137718792
 20
4.7686717931
 30
0.0
 10
7.2126324074
 20
4.7615295118
 30
0.0
  0
SPLINE
  5
34F
100
AcDbEntity
  8
0
100
AcDbSpline
 62
7
  6
CONTINUOUS
 70
0
 71
3
 72
13
 73
9
 74
0
 42
0.0000001
 43
0.0000001
 44
0.0000000001
 40
0.0
 40
0.0
 40
0.0
 40
0.0
 40
0.2487952304
 40
0.3736442068
 40
0.4986711585
 40
0.6238665641
 40
0.7492277715
 40
1.0
 40
1.0
 40
1.0
 40
1.0
 10
7.2126324074
 20
4.7615295118
 30
0.0
 10
7.2093872084
 20
4.7685335187
 30
0.0
 10
7.2050574571
 20
4.779318122
 30
0.0
 10
7.2004572594
 20
4.7940960012
 30
0.0
 10
7.1976049987
 20
4.8053845226
 30
0.0
 10
7.1953680592
 20
4.8168272462
 30
0.0
 10
7.1932251188
 20
4.8322387421
 30
0.0
 10
7.1925736212
 20
4.8439222219
 30
0.0
 10
7.1925736212
 20
4.851702851
 30
0.0
  0
SPLINE
  5
350
100
AcDbEntity
  8
0
100
AcDbSpline
 62
7
  6
CONTINUOUS
 70
0
 71
3
 72
13
 73
9
 74
0
 42
0.0000001
 43
0.0000001
 44
0.0000000001
 40
0.0
 40
0.0
 40
0.0
 40
0.0
 40
0.2507723354
 40
0.3761336401
 40
0.5013290755
 40
0.6263559843
 40
0.7512048724
 40
1.0
 40
1.0
 40
1.0
 40
1.0
 10
7.1925736212
 20
4.851702851
 30
0.0
 10
7.1925736212
 20
4.8594834834
 30
0.0
 10
7.1932251221
 20
4.8711669694
 30
0.0
 10
7.1953680617
 20
4.8865784727
 30
0.0
 10
7.1976050026
 20
4.8980211988
 30
0.0
 10
7.2004572627
 20
4.9093097171
 30
0.0
 10
7.205057456
 20
4.9240875902
 30
0.0
 10
7.2093872097
 20
4.9348721862
 30
0.0
 10
7.2126324074
 20
4.9418761902
 30
0.0
  0
SPLINE
  5
351
100
AcDbEntity
  8
0
100
AcDbSpline
 62
7
  6
CONTINUOUS
 70
0
 71
3
 72
11
 73
7
 74
0
 42
0.0000001
 43
0.0000001
 44
0.0000000001
 40
0.0
 40
0.0
 40
0.0
 40
0.0
 40
0.2402669114
 40
0.4887298812
 40
0.742914314
 40
1.0
 40
1.0
 40
1.0
 40
1.0
 10
7.2515173057
 20
4.9418761902
 30
0.0
 10
7.2528830242
 20
4.9347434161
 30
0.0
 10
7.2552902316
 20
4.9201612897
 30
0.0
 10
7.2578771762
 20
4.8978472251
 30
0.0
 10
7.2594523271
 20
4.874929582
 30
0.0
 10
7.2598065052
 20
4.8594735627
 30
0.0
 10
7.2598065052
 20
4.851702851
 30
0.0
  0
SPLINE
  5
352
100
AcDbEntity
  8
0
100
AcDbSpline
 62
7
  6
CONTINUOUS
 70
0
 71
3
 72
11
 73
7
 74
0
 42
0.0000001
 43
0.0000001
 44
0.0000000001
 40
0.0
 40
0.0
 40
0.0
 40
0.0
 40
0.2570857957
 40
0.5112703573
 40
0.7597331987
 40
1.0
 40
1.0
 40
1.0
 40
1.0
 10
7.2598065052
 20
4.851702851
 30
0.0
 10
7.2598065052
 20
4.843932136
 30
0.0
 10
7.259452326
 20
4.8284761095
 30
0.0
 10
7.257877175
 20
4.8055584631
 30
0.0
 10
7.2552902321
 20
4.7832444015
 30
0.0
 10
7.2528830235
 20
4.7686622826
 30
0.0
 10
7.2515173057
 20
4.7615295118
 30
0.0
  0
SPLINE
  5
353
100
AcDbEntity
  8
0
100
AcDbSpline
 62
7
  6
CONTINUOUS
 70
0
 71
3
 72
13
 73
9
 74
0
 42
0.0000001
 43
0.0000001
 44
0.0000000001
 40
0.0
 40
0.0
 40
0.0
 40
0.0
 40
0.2482880371
 40
0.3730470965
 40
0.4980765915
 40
0.6233506438
 40
0.7488490671
 40
1.0
 40
1.0
 40
1.0
 40
1.0
 10
7.2515173057
 20
4.7615295118
 30
0.0
 10
7.248354781
 20
4.7685405631
 30
0.0
 10
7.2441391353
 20
4.7793293959
 30
0.0
 10
7.239663114
 20
4.7941001667
 30
0.0
 10
7.2368867055
 20
4.8053879844
 30
0.0
 10
7.2347092569
 20
4.8168299101
 30
0.0
 10
7.2326230463
 20
4.8322425874
 30
0.0
 10
7.2319891753
 20
4.843922846
 30
0.0
 10
7.2319891753
 20
4.851702851
 30
0.0
  0
SPLINE
  5
354
100
AcDbEntity
  8
0
100
AcDbSpline
 62
7
  6
CONTINUOUS
 70
0
 71
3
 72
13
 73
9
 74
0
 42
0.0000001
 43
0.0000001
 44
0.0000000001
 40
0.0
 40
0.0
 40
0.0
 40
0.0
 40
0.2511510399
 40
0.3766495607
 40
0.5019236428
 40
0.6269530949
 40
0.7517120661
 40
1.0
 40
1.0
 40
1.0
 40
1.0
 10
7.2319891753
 20
4.851702851
 30
0.0
 10
7.2319891753
 20
4.8594828594
 30
0.0
 10
7.2326230495
 20
4.8711631241
 30
0.0
 10
7.2347092594
 20
4.8865758089
 30
0.0
 10
7.2368867093
 20
4.8980177371
 30
0.0
 10
7.2396631172
 20
4.9093055516
 30
0.0
 10
7.2441391342
 20
4.9240763162
 30
0.0
 10
7.2483547823
 20
4.9348651418
 30
0.0
 10
7.2515173057
 20
4.9418761902
 30
0.0
  0
SPLINE
  5
355
100
AcDbEntity
  8
0
100
AcDbSpline
 62
7
  6
CONTINUOUS
 70
0
 71
3
 72
11
 73
7
 74
0
 42
0.0000001
 43
0.0000001
 44
0.0000000001
 40
0.0
 40
0.0
 40
0.0
 40
0.0
 40
0.2409217175
 40
0.4894838831
 40
0.7433875888
 40
1.0
 40
1.0
 40
1.0
 40
1.0
 10
7.2915151533
 20
4.9418761902
 30
0.0
 10
7.2930996115
 20
4.9347540698
 30
0.0
 10
7.2958949217
 20
4.9201865928
 30
0.0
 10
7.2989029673
 20
4.8978642389
 30
0.0
 10
7.3007345072
 20
4.8749381898
 30
0.0
 10
7.3011463742
 20
4.859474278
 30
0.0
 10
7.3011463742
 20
4.851702851
 30
0.0
  0
SPLINE
  5
356
100
AcDbEntity
  8
0
100
AcDbSpline
 62
7
  6
CONTINUOUS
 70
0
 71
3
 72
11
 73
7
 74
0
 42
0.0000001
 43
0.0000001
 44
0.0000000001
 40
0.0
 40
0.0
 40
0.0
 40
0.0
 40
0.2566125207
 40
0.510516355
 40
0.7590783921
 40
1.0
 40
1.0
 40
1.0
 40
1.0
 10
7.3011463742
 20
4.851702851
 30
0.0
 10
7.3011463742
 20
4.8439314207
 30
0.0
 10
7.3007345059
 20
4.8284675017
 30
0.0
 10
7.2989029659
 20
4.8055414493
 30
0.0
 10
7.2958949223
 20
4.7832190984
 30
0.0
 10
7.2930996107
 20
4.768651629
 30
0.0
 10
7.2915151533
 20
4.7615295118
 30
0.0
  0
SPLINE
  5
357
100
AcDbEntity
  8
0
100
AcDbSpline
 62
7
  6
CONTINUOUS
 70
0
 71
3
 72
11
 73
7
 74
0
 42
0.0000001
 43
0.0000001
 44
0.0000000001
 40
0.0
 40
0.0
 40
0.0
 40
0.0
 40
0.2416395367
 40
0.4903114408
 40
0.7439074043
 40
1.0
 40
1.0
 40
1.0
 40
1.0
 10
7.3324310847
 20
4.9418761902
 30
0.0
 10
7.3342256976
 20
4.934765582
 30
0.0
 10
7.3373948372
 20
4.9202142385
 30
0.0
 10
7.3408101798
 20
4.897882969
 30
0.0
 10
7.3428897174
 20
4.874947712
 30
0.0
 10
7.3433574047
 20
4.8594750698
 30
0.0
 10
7.3433574047
 20
4.851702851
 30
0.0
  0
SPLINE
  5
358
100
AcDbEntity
  8
0
100
AcDbSpline
 62
7
  6
CONTINUOUS
 70
0
 71
3
 72
11
 73
7
 74
0
 42
0.0000001
 43
0.0000001
 44
0.0000000001
 40
0.0
 40
0.0
 40
0.0
 40
0.0
 40
0.256092705
 40
0.5096887968
 40
0.7583605723
 40
1.0
 40
1.0
 40
1.0
 40
1.0
 10
7.3433574047
 20
4.851702851
 30
0.0
 10
7.3433574047
 20
4.8439306289
 30
0.0
 10
7.342889716
 20
4.8284579795
 30
0.0
 10
7.3408101783
 20
4.8055227193
 30
0.0
 10
7.3373948378
 20
4.7831914526
 30
0.0
 10
7.3342256968
 20
4.7686401169
 30
0.0
 10
7.3324310847
 20
4.7615295118
 30
0.0
  0
SPLINE
  5
359
100
AcDbEntity
  8
0
100
AcDbSpline
 62
7
  6
CONTINUOUS
 70
0
 71
3
 72
10
 73
6
 74
0
 42
0.0000001
 43
0.0000001
 44
0.0000000001
 40
0.0
 40
0.0
 40
0.0
 40
0.0
 40
0.4910441122
 40
0.7443869994
 40
1.0
 40
1.0
 40
1.0
 40
1.0
 10
7.3740657616
 20
4.9418761902
 30
0.0
 10
7.3781062637
 20
4.9275008101
 30
0.0
 10
7.3826551161
 20
4.9052279411
 30
0.0
 10
7.3857123277
 20
4.8749595583
 30
0.0
 10
7.3862339488
 20
4.8594759226
 30
0.0
 10
7.3862339488
 20
4.851702851
 30
0.0
  0
SPLINE
  5
35A
100
AcDbEntity
  8
0
100
AcDbSpline
 62
7
  6
CONTINUOUS
 70
0
 71
3
 72
10
 73
6
 74
0
 42
0.0000001
 43
0.0000001
 44
0.0000000001
 40
0.0
 40
0.0
 40
0.0
 40
0.0
 40
0.2556131099
 40
0.5089561254
 40
1.0
 40
1.0
 40
1.0
 40
1.0
 10
7.3862339488
 20
4.851702851
 30
0.0
 10
7.3862339488
 20
4.8439297761
 30
0.0
 10
7.3857123259
 20
4.8284461333
 30
0.0
 10
7.3826551158
 20
4.7981777502
 30
0.0
 10
7.3781062618
 20
4.775904885
 30
0.0
 10
7.3740657616
 20
4.7615295118
 30
0.0
  0
SPLINE
  5
35B
100
AcDbEntity
  8
0
100
AcDbSpline
 62
7
  6
CONTINUOUS
 70
0
 71
3
 72
10
 73
6
 74
0
 42
0.0000001
 43
0.0000001
 44
0.0000000001
 40
0.0
 40
0.0
 40
0.0
 40
0.0
 40
0.49193664
 40
0.7449520728
 40
1.0
 40
1.0
 40
1.0
 40
1.0
 10
7.416216344
 20
4.9418761902
 30
0.0
 10
7.4206350922
 20
4.9275476238
 30
0.0
 10
7.4256340557
 20
4.905281174
 30
0.0
 10
7.4289940656
 20
4.8749705718
 30
0.0
 10
7.4295671162
 20
4.8594768199
 30
0.0
 10
7.4295671162
 20
4.851702851
 30
0.0
  0
SPLINE
  5
35C
100
AcDbEntity
  8
0
100
AcDbSpline
 62
7
  6
CONTINUOUS
 70
0
 71
3
 72
10
 73
6
 74
0
 42
0.0000001
 43
0.0000001
 44
0.0000000001
 40
0.0
 40
0.0
 40
0.0
 40
0.0
 40
0.2550480362
 40
0.5080635973
 40
1.0
 40
1.0
 40
1.0
 40
1.0
 10
7.4295671162
 20
4.851702851
 30
0.0
 10
7.4295671162
 20
4.8439288788
 30
0.0
 10
7.4289940636
 20
4.8284351197
 30
0.0
 10
7.4256340554
 20
4.7981245173
 30
0.0
 10
7.42063509
 20
4.7758580713
 30
0.0
 10
7.416216344
 20
4.7615295118
 30
0.0
  0
SPLINE
  5
35D
100
AcDbEntity
  8
0
100
AcDbSpline
 62
7
  6
CONTINUOUS
 70
0
 71
3
 72
12
 73
8
 74
0
 42
0.0000001
 43
0.0000001
 44
0.0000000001
 40
0.0
 40
0.0
 40
0.0
 40
0.0
 40
0.2455964392
 40
0.3698881592
 40
0.4949432742
 40
0.7468197874
 40
1.0
 40
1.0
 40
1.0
 40
1.0
 10
7.416216344
 20
4.7615295118
 30
0.0
 10
7.4135315589
 20
4.7685794002
 30
0.0
 10
7.4099707955
 20
4.7793901539
 30
0.0
 10
7.4062032039
 20
4.7941225276
 30
0.0
 10
7.4030729475
 20
4.8092017891
 30
0.0
 10
7.40043872
 20
4.8284040578
 30
0.0
 10
7.3997295133
 20
4.8439261006
 30
0.0
 10
7.3997295133
 20
4.851702851
 30
0.0
  0
SPLINE
  5
35E
100
AcDbEntity
  8
0
100
AcDbSpline
 62
7
  6
CONTINUOUS
 70
0
 71
3
 72
17
 73
13
 74
0
 42
0.0000001
 43
0.0000001
 44
0.0000000001
 40
0.0
 40
0.0
 40
0.0
 40
0.0
 40
0.1219792953
 40
0.1839974074
 40
0.2465468348
 40
0.372812459
 40
0.5
 40
0.6271875409
 40
0.7534531649
 40
0.8160025924
 40
0.8780207046
 40
1.0
 40
1.0
 40
1.0
 40
1.0
 10
7.4586774786
 20
4.9418761902
 30
0.0
 10
7.4610411478
 20
4.9348035973
 30
0.0
 10
7.4641646662
 20
4.9239804595
 30
0.0
 10
7.4674664358
 20
4.9092711844
 30
0.0
 10
7.4702159641
 20
4.8941813275
 30
0.0
 10
7.4725274335
 20
4.8749789021
 30
0.0
 10
7.4734531516
 20
4.851702851
 30
0.0
 10
7.4725274335
 20
4.8284268
 30
0.0
 10
7.4702159641
 20
4.8092243745
 30
0.0
 10
7.4674664358
 20
4.7941345176
 30
0.0
 10
7.4641646662
 20
4.7794252425
 30
0.0
 10
7.4610411478
 20
4.7686021048
 30
0.0
 10
7.4586774786
 20
4.7615295118
 30
0.0
  0
SPLINE
  5
35F
100
AcDbEntity
  8
0
100
AcDbSpline
 62
7
  6
CONTINUOUS
 70
0
 71
3
 72
12
 73
8
 74
0
 42
0.0000001
 43
0.0000001
 44
0.0000000001
 40
0.0
 40
0.0
 40
0.0
 40
0.0
 40
0.2448061784
 40
0.3689600089
 40
0.4940205488
 40
0.7462382276
 40
1.0
 40
1.0
 40
1.0
 40
1.0
 10
7.4586774786
 20
4.7615295118
 30
0.0
 10
7.4561466926
 20
4.7685911143
 30
0.0
 10
7.4527953937
 20
4.7794080739
 30
0.0
 10
7.4492529412
 20
4.7941289984
 30
0.0
 10
7.44630651
 20
4.8092134285
 30
0.0
 10
7.4438288153
 20
4.8284150829
 30
0.0
 10
7.4431621118
 20
4.8439270246
 30
0.0
 10
7.4431621118
 20
4.851702851
 30
0.0
  0
SPLINE
  5
360
100
AcDbEntity
  8
0
100
AcDbSpline
 62
7
  6
CONTINUOUS
 70
0
 71
3
 72
12
 73
8
 74
0
 42
0.0000001
 43
0.0000001
 44
0.0000000001
 40
0.0
 40
0.0
 40
0.0
 40
0.0
 40
0.2537618804
 40
0.5059796873
 40
0.6310401845
 40
0.7551939281
 40
1.0
 40
1.0
 40
1.0
 40
1.0
 10
7.4431621118
 20
4.851702851
 30
0.0
 10
7.4431621118
 20
4.8594786807
 30
0.0
 10
7.443828818
 20
4.8749906296
 30
0.0
 10
7.4463065121
 20
4.8941922901
 30
0.0
 10
7.4492529438
 20
4.90927672
 30
0.0
 10
7.4527953927
 20
4.923997638
 30
0.0
 10
7.4561466937
 20
4.9348145908
 30
0.0
 10
7.4586774786
 20
4.9418761902
 30
0.0
  0
SPLINE
  5
361
100
AcDbEntity
  8
0
100
AcDbSpline
 62
7
  6
CONTINUOUS
 70
0
 71
3
 72
13
 73
9
 74
0
 42
0.0000001
 43
0.0000001
 44
0.0000000001
 40
0.0
 40
0.0
 40
0.0
 40
0.0
 40
0.2497747824
 40
0.3747981799
 40
0.4998208746
 40
0.6248646631
 40
0.7499606665
 40
1.0
 40
1.0
 40
1.0
 40
1.0
 10
7.8554025537
 20
4.9418761902
 30
0.0
 10
7.8588026395
 20
4.93488559
 30
0.0
 10
7.8633467638
 20
4.9241092459
 30
0.0
 10
7.868180893
 20
4.9093177428
 30
0.0
 10
7.8711758334
 20
4.8980278912
 30
0.0
 10
7.8735246837
 20
4.886583636
 30
0.0
 10
7.875774286
 20
4.8711744578
 30
0.0
 10
7.8764590105
 20
4.8594846985
 30
0.0
 10
7.8764590105
 20
4.851702851
 30
0.0
  0
SPLINE
  5
362
100
AcDbEntity
  8
0
100
AcDbSpline
 62
7
  6
CONTINUOUS
 70
0
 71
3
 72
11
 73
7
 74
0
 42
0.0000001
 43
0.0000001
 44
0.0000000001
 40
0.0
 40
0.0
 40
0.0
 40
0.0
 40
0.2583231116
 40
0.5132440175
 40
0.7614507852
 40
1.0
 40
1.0
 40
1.0
 40
1.0
 10
7.8528171459
 20
4.851702851
 30
0.0
 10
7.8528171459
 20
4.8594717209
 30
0.0
 10
7.8529273746
 20
4.8749073649
 30
0.0
 10
7.8534177055
 20
4.8978029376
 30
0.0
 10
7.8542229542
 20
4.9200945581
 30
0.0
 10
7.854974874
 20
4.9347147642
 30
0.0
 10
7.8554025537
 20
4.9418761902
 30
0.0
  0
SPLINE
  5
363
100
AcDbEntity
  8
0
100
AcDbSpline
 62
7
  6
CONTINUOUS
 70
0
 71
3
 72
11
 73
7
 74
0
 42
0.0000001
 43
0.0000001
 44
0.0000000001
 40
0.0
 40
0.0
 40
0.0
 40
0.0
 40
0.2385493273
 40
0.4867562222
 40
0.741676998
 40
1.0
 40
1.0
 40
1.0
 40
1.0
 10
7.8554025537
 20
4.7615295118
 30
0.0
 10
7.8549748738
 20
4.7686909412
 30
0.0
 10
7.8542229544
 20
4.7833111545
 30
0.0
 10
7.8534177051
 20
4.8056027783
 30
0.0
 10
7.8529273742
 20
4.8284983476
 30
0.0
 10
7.8528171459
 20
4.8439339844
 30
0.0
 10
7.8528171459
 20
4.851702851
 30
0.0
  0
SPLINE
  5
364
100
AcDbEntity
  8
0
100
AcDbSpline
 62
7
  6
CONTINUOUS
 70
0
 71
3
 72
13
 73
9
 74
0
 42
0.0000001
 43
0.0000001
 44
0.0000000001
 40
0.0
 40
0.0
 40
0.0
 40
0.0
 40
0.2499426842
 40
0.3750038065
 40
0.500027666
 40
0.6250498211
 40
0.7500961967
 40
1.0
 40
1.0
 40
1.0
 40
1.0
 10
7.9091946111
 20
4.851702851
 30
0.0
 10
7.9091946111
 20
4.8439208383
 30
0.0
 10
7.9085055768
 20
4.8322302393
 30
0.0
 10
7.9062421773
 20
4.8168213627
 30
0.0
 10
7.9038788426
 20
4.8053769041
 30
0.0
 10
7.9008654389
 20
4.7940868832
 30
0.0
 10
7.8960010081
 20
4.7792936006
 30
0.0
 10
7.8914291662
 20
4.7685183612
 30
0.0
 10
7.8880090978
 20
4.7615295118
 30
0.0
  0
SPLINE
  5
365
100
AcDbEntity
  8
0
100
AcDbSpline
 62
7
  6
CONTINUOUS
 70
0
 71
3
 72
13
 73
9
 74
0
 42
0.0000001
 43
0.0000001
 44
0.0000000001
 40
0.0
 40
0.0
 40
0.0
 40
0.0
 40
0.249903905
 40
0.3749503693
 40
0.4999725673
 40
0.6249963971
 40
0.7500574227
 40
1.0
 40
1.0
 40
1.0
 40
1.0
 10
7.8880090978
 20
4.9418761902
 30
0.0
 10
7.8914291676
 20
4.934887338
 30
0.0
 10
7.8960010072
 20
4.9241120913
 30
0.0
 10
7.9008654424
 20
4.9093188026
 30
0.0
 10
7.9038788465
 20
4.8980287785
 30
0.0
 10
7.9062421795
 20
4.8865843223
 30
0.0
 10
7.9085055799
 20
4.8711754532
 30
0.0
 10
7.9091946111
 20
4.8594848604
 30
0.0
 10
7.9091946111
 20
4.851702851
 30
0.0
  0
SPLINE
  5
366
100
AcDbEntity
  8
0
100
AcDbSpline
 62
7
  6
CONTINUOUS
 70
0
 71
3
 72
13
 73
9
 74
0
 42
0.0000001
 43
0.0000001
 44
0.0000000001
 40
0.0
 40
0.0
 40
0.0
 40
0.0
 40
0.2499232565
 40
0.3749773566
 40
0.4999972101
 40
0.6250192673
 40
0.7500702757
 40
1.0
 40
1.0
 40
1.0
 40
1.0
 10
7.9398390232
 20
4.851702851
 30
0.0
 10
7.9398390232
 20
4.8439208057
 30
0.0
 10
7.9391491263
 20
4.8322300392
 30
0.0
 10
7.9368829638
 20
4.8168212248
 30
0.0
 10
7.9345167289
 20
4.8053767259
 30
0.0
 10
7.9314996277
 20
4.7940866705
 30
0.0
 10
7.9266291271
 20
4.7792930297
 30
0.0
 10
7.9220517358
 20
4.7685180108
 30
0.0
 10
7.9186276672
 20
4.7615295118
 30
0.0
  0
SPLINE
  5
367
100
AcDbEntity
  8
0
100
AcDbSpline
 62
7
  6
CONTINUOUS
 70
0
 71
3
 72
13
 73
9
 74
0
 42
0.0000001
 43
0.0000001
 44
0.0000000001
 40
0.0
 40
0.0
 40
0.0
 40
0.0
 40
0.2499298261
 40
0.374980923
 40
0.5000030231
 40
0.625022847
 40
0.7500768503
 40
1.0
 40
1.0
 40
1.0
 40
1.0
 10
7.9186276672
 20
4.9418761902
 30
0.0
 10
7.9220517372
 20
4.9348876884
 30
0.0
 10
7.9266291262
 20
4.9241126622
 30
0.0
 10
7.9314996313
 20
4.9093190153
 30
0.0
 10
7.9345167328
 20
4.8980289567
 30
0.0
 10
7.936882966
 20
4.8865844602
 30
0.0
 10
7.9391491294
 20
4.8711756532
 30
0.0
 10
7.9398390232
 20
4.8594848929
 30
0.0
 10
7.9398390232
 20
4.851702851
 30
0.0
  0
SPLINE
  5
368
100
AcDbEntity
  8
0
100
AcDbSpline
 62
7
  6
CONTINUOUS
 70
0
 71
3
 72
13
 73
9
 74
0
 42
0.0000001
 43
0.0000001
 44
0.0000000001
 40
0.0
 40
0.0
 40
0.0
 40
0.0
 40
0.2499814632
 40
0.3750566033
 40
0.5000884603
 40
0.6251108127
 40
0.7501479423
 40
1.0
 40
1.0
 40
1.0
 40
1.0
 10
7.9682429504
 20
4.851702851
 30
0.0
 10
7.9682429504
 20
4.8439209032
 30
0.0
 10
7.9675556402
 20
4.8322306384
 30
0.0
 10
7.9652977632
 20
4.8168216378
 30
0.0
 10
7.9629402253
 20
4.8053772598
 30
0.0
 10
7.9599342118
 20
4.7940873079
 30
0.0
 10
7.955081912
 20
4.7792947405
 30
0.0
 10
7.9505211626
 20
4.7685190612
 30
0.0
 10
7.9471090912
 20
4.7615295118
 30
0.0
  0
SPLINE
  5
369
100
AcDbEntity
  8
0
100
AcDbSpline
 62
7
  6
CONTINUOUS
 70
0
 71
3
 72
13
 73
9
 74
0
 42
0.0000001
 43
0.0000001
 44
0.0000000001
 40
0.0
 40
0.0
 40
0.0
 40
0.0
 40
0.2498661437
 40
0.3748996535
 40
0.4999188638
 40
0.624949107
 40
0.7500228548
 40
1.0
 40
1.0
 40
1.0
 40
1.0
 10
7.9476384603
 20
4.9407840367
 30
0.0
 10
7.9509676925
 20
4.9338660754
 30
0.0
 10
7.9554161901
 20
4.9232084039
 30
0.0
 10
7.9601464804
 20
4.9085885739
 30
0.0
 10
7.9630762138
 20
4.8974357905
 30
0.0
 10
7.9653735512
 20
4.8861343104
 30
0.0
 10
7.9675733871
 20
4.8709215642
 30
0.0
 10
7.9682429504
 20
4.8593836294
 30
0.0
 10
7.9682429504
 20
4.851702851
 30
0.0
  0
SPLINE
  5
36A
100
AcDbEntity
  8
0
100
AcDbSpline
 62
7
  6
CONTINUOUS
 70
0
 71
3
 72
13
 73
9
 74
0
 42
0.0000001
 43
0.0000001
 44
0.0000000001
 40
0.0
 40
0.0
 40
0.0
 40
0.0
 40
0.2501163868
 40
0.3752403093
 40
0.5003000093
 40
0.625323067
 40
0.7503280385
 40
1.0
 40
1.0
 40
1.0
 40
1.0
 10
7.9942680117
 20
4.851702851
 30
0.0
 10
7.9942680117
 20
4.8439211288
 30
0.0
 10
7.9935867218
 20
4.8322320254
 30
0.0
 10
7.9913481385
 20
4.8168225945
 30
0.0
 10
7.9890108505
 20
4.8053784968
 30
0.0
 10
7.9860306532
 20
4.7940887861
 30
0.0
 10
7.9812207215
 20
4.7792987112
 30
0.0
 10
7.9766987293
 20
4.7685215029
 30
0.0
 10
7.9733146113
 20
4.7615295118
 30
0.0
  0
SPLINE
  5
36B
100
AcDbEntity
  8
0
100
AcDbSpline
 62
7
  6
CONTINUOUS
 70
0
 71
3
 72
13
 73
9
 74
0
 42
0.0000001
 43
0.0000001
 44
0.0000000001
 40
0.0
 40
0.0
 40
0.0
 40
0.0
 40
0.2496720635
 40
0.3746771235
 40
0.499700224
 40
0.6247598945
 40
0.7498837201
 40
1.0
 40
1.0
 40
1.0
 40
1.0
 10
7.9733146113
 20
4.9418761902
 30
0.0
 10
7.9766987307
 20
4.9348841962
 30
0.0
 10
7.9812207206
 20
4.9241069806
 30
0.0
 10
7.9860306568
 20
4.9093168997
 30
0.0
 10
7.9890108544
 20
4.8980271858
 30
0.0
 10
7.9913481407
 20
4.8865830905
 30
0.0
 10
7.9935867248
 20
4.8711736671
 30
0.0
 10
7.9942680117
 20
4.8594845699
 30
0.0
 10
7.9942680117
 20
4.851702851
 30
0.0
  0
SPLINE
  5
36C
100
AcDbEntity
  8
0
100
AcDbSpline
 62
7
  6
CONTINUOUS
 70
0
 71
3
 72
13
 73
9
 74
0
 42
0.0000001
 43
0.0000001
 44
0.0000000001
 40
0.0
 40
0.0
 40
0.0
 40
0.0
 40
0.2503258908
 40
0.3755255912
 40
0.5006285766
 40
0.625652788
 40
0.7506078614
 40
1.0
 40
1.0
 40
1.0
 40
1.0
 10
8.0177874154
 20
4.851702851
 30
0.0
 10
8.0177874154
 20
4.8439214781
 30
0.0
 10
8.0171155438
 20
4.8322341741
 30
0.0
 10
8.0149071679
 20
4.8168240776
 30
0.0
 10
8.0126015792
 20
4.8053804166
 30
0.0
 10
8.009661796
 20
4.7940910831
 30
0.0
 10
8.0049181585
 20
4.7793048902
 30
0.0
 10
8.0004568621
 20
4.7685253141
 30
0.0
 10
7.9971165568
 20
4.7615295118
 30
0.0
  0
SPLINE
  5
36D
100
AcDbEntity
  8
0
100
AcDbSpline
 62
7
  6
CONTINUOUS
 70
0
 71
3
 72
13
 73
9
 74
0
 42
0.0000001
 43
0.0000001
 44
0.0000000001
 40
0.0
 40
0.0
 40
0.0
 40
0.0
 40
0.2493922408
 40
0.3743474026
 40
0.4993716569
 40
0.6244746128
 40
0.7496742163
 40
1.0
 40
1.0
 40
1.0
 40
1.0
 10
7.9971165568
 20
4.9418761902
 30
0.0
 10
8.0004568634
 20
4.9348803851
 30
0.0
 10
8.0049181576
 20
4.9241008017
 30
0.0
 10
8.0096617994
 20
4.9093146027
 30
0.0
 10
8.0126015831
 20
4.898025266
 30
0.0
 10
8.01490717
 20
4.8865816074
 30
0.0
 10
8.0171155468
 20
4.8711715183
 30
0.0
 10
8.0177874154
 20
4.8594842206
 30
0.0
 10
8.0177874154
 20
4.851702851
 30
0.0
  0
SPLINE
  5
36E
100
AcDbEntity
  8
0
100
AcDbSpline
 62
7
  6
CONTINUOUS
 70
0
 71
3
 72
13
 73
9
 74
0
 42
0.0000001
 43
0.0000001
 44
0.0000000001
 40
0.0
 40
0.0
 40
0.0
 40
0.0
 40
0.2506066278
 40
0.3759079298
 40
0.5010690168
 40
0.6260948865
 40
0.7509831644
 40
1.0
 40
1.0
 40
1.0
 40
1.0
 10
8.0386865775
 20
4.851702851
 30
0.0
 10
8.0386865775
 20
4.8439219443
 30
0.0
 10
8.0380274661
 20
4.8322370439
 30
0.0
 10
8.0358600634
 20
4.8168260609
 30
0.0
 10
8.033597462
 20
4.8053829871
 30
0.0
 10
8.0307124854
 20
4.7940941644
 30
0.0
 10
8.0260586923
 20
4.7793131957
 30
0.0
 10
8.0216797522
 20
4.7685304587
 30
0.0
 10
8.018398967
 20
4.7615295118
 30
0.0
  0
SPLINE
  5
36F
100
AcDbEntity
  8
0
100
AcDbSpline
 62
7
  6
CONTINUOUS
 70
0
 71
3
 72
13
 73
9
 74
0
 42
0.0000001
 43
0.0000001
 44
0.0000000001
 40
0.0
 40
0.0
 40
0.0
 40
0.0
 40
0.2490169381
 40
0.3739053043
 40
0.4989312169
 40
0.6240922744
 40
0.7493934793
 40
1.0
 40
1.0
 40
1.0
 40
1.0
 10
8.018398967
 20
4.9418761902
 30
0.0
 10
8.0216797535
 20
4.9348752404
 30
0.0
 10
8.0260586914
 20
4.9240924962
 30
0.0
 10
8.0307124888
 20
4.9093115214
 30
0.0
 10
8.0335974658
 20
4.8980226955
 30
0.0
 10
8.0358600656
 20
4.8865796241
 30
0.0
 10
8.0380274691
 20
4.8711686486
 30
0.0
 10
8.0386865775
 20
4.8594837543
 30
0.0
 10
8.0386865775
 20
4.851702851
 30
0.0
  0
SPLINE
  5
370
100
AcDbEntity
  8
0
100
AcDbSpline
 62
7
  6
CONTINUOUS
 70
0
 71
3
 72
13
 73
9
 74
0
 42
0.0000001
 43
0.0000001
 44
0.0000000001
 40
0.0
 40
0.0
 40
0.0
 40
0.0
 40
0.2509540564
 40
0.3763811887
 40
0.5016143367
 40
0.6266424367
 40
0.7514481603
 40
1.0
 40
1.0
 40
1.0
 40
1.0
 10
8.0568636794
 20
4.851702851
 30
0.0
 10
8.0568636794
 20
4.8439225185
 30
0.0
 10
8.0562205952
 20
4.8322405802
 30
0.0
 10
8.0541047309
 20
4.8168285086
 30
0.0
 10
8.0518961857
 20
4.8053861649
 30
0.0
 10
8.0490801303
 20
4.7940979829
 30
0.0
 10
8.0445392235
 20
4.779323515
 30
0.0
 10
8.0402639216
 20
4.768536886
 30
0.0
 10
8.0370581561
 20
4.7615295118
 30
0.0
  0
SPLINE
  5
371
100
AcDbEntity
  8
0
100
AcDbSpline
 62
7
  6
CONTINUOUS
 70
0
 71
3
 72
13
 73
9
 74
0
 42
0.0000001
 43
0.0000001
 44
0.0000000001
 40
0.0
 40
0.0
 40
0.0
 40
0.0
 40
0.2485519426
 40
0.3733577543
 40
0.4983858972
 40
0.6236190157
 40
0.7490460509
 40
1.0
 40
1.0
 40
1.0
 40
1.0
 10
8.0370581561
 20
4.9418761902
 30
0.0
 10
8.0402639229
 20
4.9348688131
 30
0.0
 10
8.0445392226
 20
4.924082177
 30
0.0
 10
8.0490801337
 20
4.9093077029
 30
0.0
 10
8.0518961894
 20
4.8980195177
 30
0.0
 10
8.054104733
 20
4.8865771764
 30
0.0
 10
8.0562205981
 20
4.8711651122
 30
0.0
 10
8.0568636794
 20
4.8594831802
 30
0.0
 10
8.0568636794
 20
4.851702851
 30
0.0
  0
SPLINE
  5
372
100
AcDbEntity
  8
0
100
AcDbSpline
 62
7
  6
CONTINUOUS
 70
0
 71
3
 72
13
 73
9
 74
0
 42
0.0000001
 43
0.0000001
 44
0.0000000001
 40
0.0
 40
0.0
 40
0.0
 40
0.0
 40
0.2513624657
 40
0.3769376451
 40
0.502255724
 40
0.6272866981
 40
0.7519955331
 40
1.0
 40
1.0
 40
1.0
 40
1.0
 10
8.0722301639
 20
4.851702851
 30
0.0
 10
8.0722301639
 20
4.8439231894
 30
0.0
 10
8.0716062804
 20
4.832244716
 30
0.0
 10
8.0695522676
 20
4.8168313765
 30
0.0
 10
8.0674085727
 20
4.8053898956
 30
0.0
 10
8.0646752043
 20
4.7941024789
 30
0.0
 10
8.0602695894
 20
4.7793357032
 30
0.0
 10
8.0561187281
 20
4.7685445283
 30
0.0
 10
8.0530032184
 20
4.7615295118
 30
0.0
  0
SPLINE
  5
373
100
AcDbEntity
  8
0
100
AcDbSpline
 62
7
  6
CONTINUOUS
 70
0
 71
3
 72
13
 73
9
 74
0
 42
0.0000001
 43
0.0000001
 44
0.0000000001
 40
0.0
 40
0.0
 40
0.0
 40
0.0
 40
0.2480045703
 40
0.3727134932
 40
0.4977445102
 40
0.6230625597
 40
0.7486376417
 40
1.0
 40
1.0
 40
1.0
 40
1.0
 10
8.0530032184
 20
4.9418761902
 30
0.0
 10
8.0561187294
 20
4.9348611708
 30
0.0
 10
8.0602695885
 20
4.9240699888
 30
0.0
 10
8.0646752075
 20
4.9093032069
 30
0.0
 10
8.0674085763
 20
4.898015787
 30
0.0
 10
8.0695522696
 20
4.8865743086
 30
0.0
 10
8.0716062832
 20
4.8711609764
 30
0.0
 10
8.0722301639
 20
4.8594825093
 30
0.0
 10
8.0722301639
 20
4.851702851
 30
0.0
  0
SPLINE
  5
374
100
AcDbEntity
  8
0
100
AcDbSpline
 62
7
  6
CONTINUOUS
 70
0
 71
3
 72
12
 73
8
 74
0
 42
0.0000001
 43
0.0000001
 44
0.0000000001
 40
0.0
 40
0.0
 40
0.0
 40
0.0
 40
0.2534689962
 40
0.5055148871
 40
0.6305725815
 40
0.7547957239
 40
1.0
 40
1.0
 40
1.0
 40
1.0
 10
8.1043052242
 20
4.851702851
 30
0.0
 10
8.1043052242
 20
4.843926557
 30
0.0
 10
8.1036168567
 20
4.8284095317
 30
0.0
 10
8.1010593536
 20
4.8092075537
 30
0.0
 10
8.0980191485
 20
4.7941257212
 30
0.0
 10
8.0943619364
 20
4.7793990232
 30
0.0
 10
8.0909037863
 20
4.7685851851
 30
0.0
 10
8.088294372
 20
4.7615295118
 30
0.0
  0
SPLINE
  5
375
100
AcDbEntity
  8
0
100
AcDbSpline
 62
7
  6
CONTINUOUS
 70
0
 71
3
 72
12
 73
8
 74
0
 42
0.0000001
 43
0.0000001
 44
0.0000000001
 40
0.0
 40
0.0
 40
0.0
 40
0.0
 40
0.2452043819
 40
0.3694276111
 40
0.4944853486
 40
0.7465311122
 40
1.0
 40
1.0
 40
1.0
 40
1.0
 10
8.088294372
 20
4.9418761902
 30
0.0
 10
8.0909037874
 20
4.9348205138
 30
0.0
 10
8.0943619356
 20
4.924006669
 30
0.0
 10
8.0980191513
 20
4.9092799645
 30
0.0
 10
8.1010593556
 20
4.8941981318
 30
0.0
 10
8.1036168591
 20
4.8749961598
 30
0.0
 10
8.1043052242
 20
4.8594791417
 30
0.0
 10
8.1043052242
 20
4.851702851
 30
0.0
  0
SPLINE
  5
376
100
AcDbEntity
  8
0
100
AcDbSpline
 62
7
  6
CONTINUOUS
 70
0
 71
3
 72
43
 73
39
 74
0
 42
0.0000001
 43
0.0000001
 44
0.0000000001
 40
0.0
 40
0.0
 40
0.0
 40
0.0
 40
0.0174048853
 40
0.0346919179
 40
0.0517773163
 40
0.0686183702
 40
0.0852100786
 40
0.1015694788
 40
0.1336775304
 40
0.1651962166
 40
0.1963018076
 40
0.2271203564
 40
0.2577392407
 40
0.2882183602
 40
0.3185994806
 40
0.348912377
 40
0.3791770182
 40
0.4094089027
 40
0.439618962
 40
0.5000000414
 40
0.5603811214
 40
0.5905911886
 40
0.6208230662
 40
0.6510877087
 40
0.6814005981
 40
0.7117817021
 40
0.7422608052
 40
0.7728796879
 40
0.8036982618
 40
0.834803864
 40
0.8663225393
 40
0.8984305424
 40
0.9147899237
 40
0.9313816304
 40
0.9482226915
 40
0.9653080867
 40
0.9825951126
 40
1.0
 40
1.0
 40
1.0
 40
1.0
 10
9.0079087857
 20
5.634752113
 30
0.0
 10
9.0122399858
 20
5.634752113
 30
0.0
 10
9.0208864351
 20
5.6353942383
 30
0.0
 10
9.0335022299
 20
5.6382080153
 30
0.0
 10
9.0454820162
 20
5.6426638824
 30
0.0
 10
9.0566523996
 20
5.6484946411
 30
0.0
 10
9.0669463876
 20
5.6554333722
 30
0.0
 10
9.0794235622
 20
5.6657837287
 30
0.0
 10
9.0930154563
 20
5.6804492149
 30
0.0
 10
9.1065465617
 20
5.6998196412
 30
0.0
 10
9.1177179151
 20
5.7202569471
 30
0.0
 10
9.1269363372
 20
5.7413873367
 30
0.0
 10
9.1345282413
 20
5.7629821104
 30
0.0
 10
9.1407491286
 20
5.7848926498
 30
0.0
 10
9.1458010951
 20
5.8070204961
 30
0.0
 10
9.1498394482
 20
5.8292991469
 30
0.0
 10
9.1529907061
 20
5.8516814317
 30
0.0
 10
9.15534932
 20
5.8741345382
 30
0.0
 10
9.1575282204
 20
5.9041264289
 30
0.0
 10
9.1585787989
 20
5.9417028812
 30
0.0
 10
9.1575281953
 20
5.9792793326
 30
0.0
 10
9.1553493365
 20
6.0092712275
 30
0.0
 10
9.1529906721
 20
6.031724329
 30
0.0
 10
9.1498394584
 20
6.0541066167
 30
0.0
 10
9.1458010772
 20
6.0763852574
 30
0.0
 10
9.1407491091
 20
6.0985130925
 30
0.0
 10
9.1345282342
 20
6.1204236267
 30
0.0
 10
9.1269363258
 20
6.1420184009
 30
0.0
 10
9.1177179009
 20
6.1631487988
 30
0.0
 10
9.1065465365
 20
6.1835861058
 30
0.0
 10
9.0930154338
 20
6.2029565197
 30
0.0
 10
9.0794235457
 20
6.2176219843
 30
0.0
 10
9.066946386
 20
6.2279723316
 30
0.0
 10
9.0566524002
 20
6.2349110601
 30
0.0
 10
9.0454820168
 20
6.2407418198
 30
0.0
 10
9.0335022309
 20
6.2451976863
 30
0.0
 10
9.0208864382
 20
6.2480114635
 30
0.0
 10
9.0122399901
 20
6.248653589
 30
0.0
 10
9.0079087894
 20
6.248653589
 30
0.0
  0
SPLINE
  5
377
100
AcDbEntity
  8
0
100
AcDbSpline
 62
7
  6
CONTINUOUS
 70
0
 71
3
 72
43
 73
39
 74
0
 42
0.0000001
 43
0.0000001
 44
0.0000000001
 40
0.0
 40
0.0
 40
0.0
 40
0.0
 40
0.0174049028
 40
0.0346919227
 40
0.0517772942
 40
0.0686183389
 40
0.085210041
 40
0.1015694451
 40
0.1336775311
 40
0.1651962023
 40
0.1963017834
 40
0.2271203639
 40
0.2577392715
 40
0.2882183933
 40
0.3185995093
 40
0.348912391
 40
0.3791770239
 40
0.4094089028
 40
0.4396189582
 40
0.5000000306
 40
0.560381111
 40
0.5905911741
 40
0.6208230531
 40
0.6510876983
 40
0.6814005988
 40
0.7117817124
 40
0.7422608262
 40
0.772879716
 40
0.8036983034
 40
0.8348039132
 40
0.8663225876
 40
0.8984305763
 40
0.9147899481
 40
0.9313816468
 40
0.9482227022
 40
0.9653080853
 40
0.9825951011
 40
1.0
 40
1.0
 40
1.0
 40
1.0
 10
9.0079087826
 20
6.434752113
 30
0.0
 10
9.0122399871
 20
6.434752113
 30
0.0
 10
9.0208864376
 20
6.4353942383
 30
0.0
 10
9.0335022272
 20
6.4382080138
 30
0.0
 10
9.0454820022
 20
6.4426638765
 30
0.0
 10
9.0566523775
 20
6.4484946278
 30
0.0
 10
9.0669463645
 20
6.4554333554
 30
0.0
 10
9.0794235473
 20
6.4657837146
 30
0.0
 10
9.0930154485
 20
6.480449203
 30
0.0
 10
9.1065465526
 20
6.4998196329
 30
0.0
 10
9.1177179151
 20
6.5202569357
 30
0.0
 10
9.1269363414
 20
6.5413873365
 30
0.0
 10
9.1345282401
 20
6.562982127
 30
0.0
 10
9.140749142
 20
6.5848926679
 30
0.0
 10
9.1458010923
 20
6.607020514
 30
0.0
 10
9.1498394486
 20
6.6292991571
 30
0.0
 10
9.1529907053
 20
6.6516814352
 30
0.0
 10
9.1553493196
 20
6.6741345373
 30
0.0
 10
9.1575282189
 20
6.7041264242
 30
0.0
 10
9.158578797
 20
6.7417028738
 30
0.0
 10
9.1575282022
 20
6.7792793235
 30
0.0
 10
9.1553493294
 20
6.8092712168
 30
0.0
 10
9.1529906822
 20
6.8317243203
 30
0.0
 10
9.1498394536
 20
6.8541066098
 30
0.0
 10
9.1458010838
 20
6.8763852587
 30
0.0
 10
9.1407491047
 20
6.8985130995
 30
0.0
 10
9.1345282327
 20
6.9204236416
 30
0.0
 10
9.126936319
 20
6.9420184225
 30
0.0
 10
9.1177178912
 20
6.9631488269
 30
0.0
 10
9.1065465196
 20
6.983586136
 30
0.0
 10
9.0930154153
 20
7.0029565468
 30
0.0
 10
9.0794235253
 20
7.0176220012
 30
0.0
 10
9.066946371
 20
7.0279723425
 30
0.0
 10
9.0566523892
 20
7.034911067
 30
0.0
 10
9.0454820105
 20
7.0407418217
 30
0.0
 10
9.0335022315
 20
7.045197687
 30
0.0
 10
9.0208864412
 20
7.048011463
 30
0.0
 10
9.0122399927
 20
7.048653589
 30
0.0
 10
9.0079087892
 20
7.048653589
 30
0.0
  0
SPLINE
  5
378
100
AcDbEntity
  8
0
100
AcDbSpline
 62
9
  6
CONTINUOUS
 70
0
 71
3
 72
34
 73
30
 74
0
 42
0.0000001
 43
0.0000001
 44
0.0000000001
 40
0.0
 40
0.0
 40
0.0
 40
0.0
 40
0.2045924938
 40
0.3937274066
 40
0.4814986237
 40
0.5641674394
 40
0.6412520016
 40
0.7122291699
 40
0.7765710141
 40
0.833751569
 40
0.8594966434
 40
0.8832602668
 40
0.9049788672
 40
0.9245887999
 40
0.942026355
 40
0.9572347166
 40
0.9701808571
 40
0.9808368364
 40
0.9852972818
 40
0.989174705
 40
0.9924656105
 40
0.9951665027
 40
0.997273885
 40
0.9981039171
 40
0.9987842604
 40
0.9993144776
 40
0.9996941314
 40
0.9999227847
 40
1.0
 40
1.0
 40
1.0
 40
1.0
 10
7.8231570277
 20
5.6058882639
 30
0.0
 10
7.8379776254
 20
5.5973024509
 30
0.0
 10
7.8661591174
 20
5.5801880961
 30
0.0
 10
7.8999157377
 20
5.5581471953
 30
0.0
 10
7.924784836
 20
5.5411844229
 30
0.0
 10
7.9417712698
 20
5.5293150014
 30
0.0
 10
7.9574949544
 20
5.518094932
 30
0.0
 10
7.9718778745
 20
5.5076386653
 30
0.0
 10
7.9848405676
 20
5.4980635132
 30
0.0
 10
7.9947119227
 20
5.4906771413
 30
0.0
 10
8.0018403767
 20
5.4852955723
 30
0.0
 10
8.0065902659
 20
5.4816906428
 30
0.0
 10
8.0109233768
 20
5.4783861722
 30
0.0
 10
8.0148292805
 20
5.4753948861
 30
0.0
 10
8.0182979938
 20
5.4727291364
 30
0.0
 10
8.0213215835
 20
5.4703997109
 30
0.0
 10
8.0238930904
 20
5.4684137416
 30
0.0
 10
8.0257507886
 20
5.46697559
 30
0.0
 10
8.027007257
 20
5.4660010381
 30
0.0
 10
8.0277761673
 20
5.4654039305
 30
0.0
 10
8.0284284465
 20
5.4648968011
 30
0.0
 10
8.0289634812
 20
5.4644802953
 30
0.0
 10
8.0293358209
 20
5.4641901706
 30
0.0
 10
8.0295745722
 20
5.464003824
 30
0.0
 10
8.0297093305
 20
5.4638988146
 30
0.0
 10
8.0298139907
 20
5.4638165716
 30
0.0
 10
8.0298896558
 20
5.463758524
 30
0.0
 10
8.0299338432
 20
5.4637220029
 30
0.0
 10
8.0299550534
 20
5.4637074142
 30
0.0
 10
8.0299596936
 20
5.4637029137
 30
0.0
  0
SPLINE
  5
379
100
AcDbEntity
  8
0
100
AcDbSpline
 62
9
  6
CONTINUOUS
 70
0
 71
3
 72
34
 73
30
 74
0
 42
0.0000001
 43
0.0000001
 44
0.0000000001
 40
0.0
 40
0.0
 40
0.0
 40
0.0
 40
0.000077253
 40
0.0003059394
 40
0.0006856219
 40
0.0012158635
 40
0.0018962271
 40
0.0027262754
 40
0.0048336784
 40
0.0075345765
 40
0.0108254744
 40
0.014702877
 40
0.0191632903
 40
0.0298191741
 40
0.0427651841
 40
0.0579733883
 40
0.0754107728
 40
0.095020535
 40
0.1167389709
 40
0.1405024414
 40
0.1662473804
 40
0.2234277389
 40
0.2877695197
 40
0.3587467579
 40
0.4358315054
 40
0.5185005973
 40
0.6062721119
 40
0.7954074633
 40
1.0
 40
1.0
 40
1.0
 40
1.0
 10
6.929960092
 20
5.4637029084
 30
0.0
 10
6.9299647403
 20
5.4637074045
 30
0.0
 10
6.929985938
 20
5.4637220117
 30
0.0
 10
6.9300301427
 20
5.4637585201
 30
0.0
 10
6.9301057986
 20
5.4638165769
 30
0.0
 10
6.9302104583
 20
5.4638988138
 30
0.0
 10
6.9303452078
 20
5.46400382
 30
0.0
 10
6.9305839434
 20
5.4641901549
 30
0.0
 10
6.9309562544
 20
5.4644802603
 30
0.0
 10
6.9314912461
 20
5.4648967348
 30
0.0
 10
6.9321434698
 20
5.4654038239
 30
0.0
 10
6.9329123127
 20
5.4660008819
 30
0.0
 10
6.9341686681
 20
5.4669753498
 30
0.0
 10
6.9360261973
 20
5.4684133746
 30
0.0
 10
6.9385974695
 20
5.4703991662
 30
0.0
 10
6.941620784
 20
5.4727283812
 30
0.0
 10
6.9450891842
 20
5.4753938902
 30
0.0
 10
6.9489947392
 20
5.4783849088
 30
0.0
 10
6.953327468
 20
5.4816890877
 30
0.0
 10
6.9580769435
 20
5.4852937036
 30
0.0
 10
6.9652047883
 20
5.4906748155
 30
0.0
 10
6.9750753158
 20
5.498060577
 30
0.0
 10
6.9880369362
 20
5.507634965
 30
0.0
 10
7.0024186777
 20
5.5180904388
 30
0.0
 10
7.0181410769
 20
5.5293097017
 30
0.0
 10
7.0351261107
 20
5.5411783167
 30
0.0
 10
7.0599931166
 20
5.5581399942
 30
0.0
 10
7.0937468316
 20
5.5801795119
 30
0.0
 10
7.1219259098
 20
5.5972927889
 30
0.0
 10
7.136745199
 20
5.6058781095
 30
0.0
  0
SPLINE
  5
37A
100
AcDbEntity
  8
0
100
AcDbSpline
 62
9
  6
CONTINUOUS
 70
0
 71
3
 72
38
 73
34
 74
0
 42
0.0000001
 43
0.0000001
 44
0.0000000001
 40
0.0
 40
0.0
 40
0.0
 40
0.0
 40
0.210967467
 40
0.3097099082
 40
0.4034948384
 40
0.4919509363
 40
0.5746879879
 40
0.6512985978
 40
0.7213618403
 40
0.7844584476
 40
0.8401783482
 40
0.8651459157
 40
0.8881194278
 40
0.9090555354
 40
0.9279128202
 40
0.9446512754
 40
0.9592351876
 40
0.9716297694
 40
0.9769966848
 40
0.9818067656
 40
0.98605776
 40
0.9897474156
 40
0.9928734864
 40
0.9954341476
 40
0.9965020823
 40
0.9974282353
 40
0.9982124686
 40
0.9988546437
 40
0.9993546226
 40
0.999712267
 40
0.9998376705
 40
0.9999274387
 40
1.0
 40
1.0
 40
1.0
 40
1.0
 10
7.9324954501
 20
5.6227450064
 30
0.0
 10
7.9440584943
 20
5.6164735053
 30
0.0
 10
7.960936978
 20
5.6070872375
 30
0.0
 10
7.9827533525
 20
5.5945564609
 30
0.0
 10
7.9978734912
 20
5.5857056037
 30
0.0
 10
8.0120703245
 20
5.577253961
 30
0.0
 10
8.0252944548
 20
5.5692625293
 30
0.0
 10
8.0374932773
 20
5.5617923441
 30
0.0
 10
8.0486116471
 20
5.5549031511
 30
0.0
 10
8.0585939538
 20
5.5486538244
 30
0.0
 10
8.066174495
 20
5.5438672011
 30
0.0
 10
8.0716305825
 20
5.5404019505
 30
0.0
 10
8.0752522577
 20
5.5380938119
 30
0.0
 10
8.0785496565
 20
5.5359857548
 30
0.0
 10
8.0815171456
 20
5.5340834239
 30
0.0
 10
8.0841494788
 20
5.5323921772
 30
0.0
 10
8.0864413379
 20
5.5309164902
 30
0.0
 10
8.0881360067
 20
5.5298230449
 30
0.0
 10
8.0893180752
 20
5.5290591998
 30
0.0
 10
8.090073483
 20
5.5285706591
 30
0.0
 10
8.0907409436
 20
5.5281387093
 30
0.0
 10
8.0913201757
 20
5.5277636908
 30
0.0
 10
8.0918109255
 20
5.5274459363
 30
0.0
 10
8.0921644949
 20
5.5272170882
 30
0.0
 10
8.0924029287
 20
5.5270627988
 30
0.0
 10
8.0925483844
 20
5.5269687123
 30
0.0
 10
8.0926715429
 20
5.5268890204
 30
0.0
 10
8.0927724468
 20
5.5268238869
 30
0.0
 10
8.0928508978
 20
5.5267729177
 30
0.0
 10
8.0929025772
 20
5.5267401044
 30
0.0
 10
8.0929323357
 20
5.526720152
 30
0.0
 10
8.0929478679
 20
5.5267114794
 30
0.0
 10
8.092955506
 20
5.5267039739
 30
0.0
 10
8.0929598888
 20
5.526702851
 30
0.0
  0
SPLINE
  5
37B
100
AcDbEntity
  8
0
100
AcDbSpline
 62
9
  6
CONTINUOUS
 70
0
 71
3
 72
38
 73
34
 74
0
 42
0.0000001
 43
0.0000001
 44
0.0000000001
 40
0.0
 40
0.0
 40
0.0
 40
0.0
 40
0.2109675715
 40
0.3097101789
 40
0.4034947692
 40
0.4919508221
 40
0.5746881166
 40
0.6512985751
 40
0.7213616728
 40
0.7844584057
 40
0.8401783868
 40
0.8651459556
 40
0.8881194517
 40
0.9090555371
 40
0.9279128115
 40
0.9446512704
 40
0.9592351727
 40
0.9716297004
 40
0.9769965655
 40
0.9818065908
 40
0.9860575351
 40
0.9897471565
 40
0.9928732196
 40
0.9954339011
 40
0.9965018547
 40
0.9974280315
 40
0.9982122927
 40
0.9988544991
 40
0.999354512
 40
0.9997121922
 40
0.9998376142
 40
0.999927401
 40
1.0
 40
1.0
 40
1.0
 40
1.0
 10
7.0274240385
 20
5.622744889
 30
0.0
 10
7.0158610328
 20
5.6164733488
 30
0.0
 10
6.9989825716
 20
5.6070870745
 30
0.0
 10
6.9771661856
 20
5.5945564092
 30
0.0
 10
6.9620461393
 20
5.5857054781
 30
0.0
 10
6.9478493456
 20
5.5772538404
 30
0.0
 10
6.9346251909
 20
5.5692624928
 30
0.0
 10
6.9224264113
 20
5.5617922888
 30
0.0
 10
6.9113080888
 20
5.554903081
 30
0.0
 10
6.9013257781
 20
5.5486537903
 30
0.0
 10
6.8937452333
 20
5.5438671761
 30
0.0
 10
6.8882891518
 20
5.5404019285
 30
0.0
 10
6.884667486
 20
5.5380937927
 30
0.0
 10
6.8813700969
 20
5.535985738
 30
0.0
 10
6.8784026153
 20
5.5340834095
 30
0.0
 10
6.8757702867
 20
5.5323921672
 30
0.0
 10
6.8734784343
 20
5.5309164851
 30
0.0
 10
6.8717837773
 20
5.5298230408
 30
0.0
 10
6.8706017241
 20
5.5290591946
 30
0.0
 10
6.8698463296
 20
5.528570654
 30
0.0
 10
6.8691788807
 20
5.5281387046
 30
0.0
 10
6.8685996565
 20
5.5277636865
 30
0.0
 10
6.868108909
 20
5.5274459329
 30
0.0
 10
6.8677553365
 20
5.527217087
 30
0.0
 10
6.8675168974
 20
5.5270627995
 30
0.0
 10
6.8673714362
 20
5.5269687139
 30
0.0
 10
6.8672482713
 20
5.5268890229
 30
0.0
 10
6.8671473607
 20
5.5268238893
 30
0.0
 10
6.867068902
 20
5.5267729212
 30
0.0
 10
6.8670172171
 20
5.5267401055
 30
0.0
 10
6.8669874524
 20
5.5267201557
 30
0.0
 10
6.8669719172
 20
5.5267114767
 30
0.0
 10
6.8669642725
 20
5.5267039799
 30
0.0
 10
6.8669598888
 20
5.526702851
 30
0.0
  0
SPLINE
  5
37C
100
AcDbEntity
  8
0
100
AcDbSpline
 62
7
  6
CONTINUOUS
 70
0
 71
3
 72
30
 73
26
 74
0
 42
0.0000001
 43
0.0000001
 44
0.0000000001
 40
0.0
 40
0.0
 40
0.0
 40
0.0
 40
0.0809615797
 40
0.1613860679
 40
0.2407443425
 40
0.3185120455
 40
0.3941800693
 40
0.4672983046
 40
0.5374576458
 40
0.5713087531
 40
0.6042772572
 40
0.6673899493
 40
0.6974785917
 40
0.7265613213
 40
0.7546255878
 40
0.7816632185
 40
0.8076714566
 40
0.8326542237
 40
0.85662365
 40
0.8796019139
 40
0.9227309715
 40
0.9430431253
 40
0.9626228902
 40
0.981570425
 40
1.0
 40
1.0
 40
1.0
 40
1.0
 10
7.47995812
 20
1.5227873319
 30
0.0
 10
7.5092647345
 20
1.5227873022
 30
0.0
 10
7.5676901553
 20
1.5239557721
 30
0.0
 10
7.6547018258
 20
1.5291578737
 30
0.0
 10
7.7402851685
 20
1.5377459023
 30
0.0
 10
7.823732923
 20
1.549652943
 30
0.0
 10
7.9043534022
 20
1.5648337411
 30
0.0
 10
7.9814936599
 20
1.5831461358
 30
0.0
 10
8.0430893706
 20
1.6010665153
 30
0.0
 10
8.0900874778
 20
1.6168901188
 30
0.0
 10
8.1342114361
 20
1.6331873263
 30
0.0
 10
8.1763266038
 20
1.6509580941
 30
0.0
 10
8.2161418996
 20
1.6703183313
 30
0.0
 10
8.244015261
 20
1.6851753759
 30
0.0
 10
8.2703253085
 20
1.7005675916
 30
0.0
 10
8.2950223711
 20
1.7164623897
 30
0.0
 10
8.3180565858
 20
1.7328274583
 30
0.0
 10
8.3393773643
 20
1.7496299121
 30
0.0
 10
8.3589371293
 20
1.7668403107
 30
0.0
 10
8.3821066526
 20
1.7897985104
 30
0.0
 10
8.402211597
 20
1.8139265647
 30
0.0
 10
8.4186718427
 20
1.8391018704
 30
0.0
 10
8.4288497672
 20
1.857841573
 30
0.0
 10
8.4370832531
 20
1.8767720373
 30
0.0
 10
8.4413125585
 20
1.8896496274
 30
0.0
 10
8.4430782092
 20
1.8960828991
 30
0.0
  0
SPLINE
  5
37D
100
AcDbEntity
  8
0
100
AcDbSpline
 62
7
  6
CONTINUOUS
 70
0
 71
3
 72
30
 73
26
 74
0
 42
0.0000001
 43
0.0000001
 44
0.0000000001
 40
0.0
 40
0.0
 40
0.0
 40
0.0
 40
0.0184295881
 40
0.037377135
 40
0.0569569101
 40
0.0772690722
 40
0.1203981395
 40
0.1433764047
 40
0.1673458299
 40
0.1923285939
 40
0.2183368268
 40
0.2453744505
 40
0.2734387084
 40
0.3025214278
 40
0.3326100588
 40
0.3957227255
 40
0.4286912167
 40
0.4625423113
 40
0.5327016296
 40
0.6058198468
 40
0.6814878596
 40
0.7592555626
 40
0.8386138514
 40
0.9190383704
 40
1.0
 40
1.0
 40
1.0
 40
1.0
 10
6.5168415683
 20
1.8960828991
 30
0.0
 10
6.5186072146
 20
1.8896496438
 30
0.0
 10
6.5228365074
 20
1.8767720865
 30
0.0
 10
6.531069965
 20
1.8578416694
 30
0.0
 10
6.5412478515
 20
1.8391020127
 30
0.0
 10
6.5577080316
 20
1.813926769
 30
0.0
 10
6.5778128928
 20
1.7897987699
 30
0.0
 10
6.6009823197
 20
1.7668406188
 30
0.0
 10
6.6205420017
 20
1.749630256
 30
0.0
 10
6.6418626894
 20
1.7328278354
 30
0.0
 10
6.6648968059
 20
1.716462797
 30
0.0
 10
6.6895937631
 20
1.7005680259
 30
0.0
 10
6.7159036986
 20
1.6851758338
 30
0.0
 10
6.7437769417
 20
1.6703188091
 30
0.0
 10
6.7835920688
 20
1.6509585936
 30
0.0
 10
6.8257070605
 20
1.6331878382
 30
0.0
 10
6.8698308376
 20
1.6168906355
 30
0.0
 10
6.9168287555
 20
1.6010670307
 30
0.0
 10
6.9784242245
 20
1.583146638
 30
0.0
 10
7.0555641892
 20
1.5648342089
 30
0.0
 10
7.1361843753
 20
1.5496533551
 30
0.0
 10
7.219631843
 20
1.5377462406
 30
0.0
 10
7.3052149113
 20
1.5291581196
 30
0.0
 10
7.392226325
 20
1.5239559065
 30
0.0
 10
7.4506515829
 20
1.5227873495
 30
0.0
 10
7.47995812
 20
1.5227873319
 30
0.0
  0
SPLINE
  5
37E
100
AcDbEntity
  8
0
100
AcDbSpline
 62
9
  6
CONTINUOUS
 70
0
 71
3
 72
31
 73
27
 74
0
 42
0.0000001
 43
0.0000001
 44
0.0000000001
 40
0.0
 40
0.0
 40
0.0
 40
0.0
 40
0.0313664532
 40
0.0471335564
 40
0.0629066156
 40
0.0786625449
 40
0.0944028208
 40
0.1258501023
 40
0.1572775904
 40
0.1887051634
 40
0.220131689
 40
0.2515558077
 40
0.2829787602
 40
0.3144024786
 40
0.345822993
 40
0.3772316183
 40
0.408617062
 40
0.4399750035
 40
0.5026138069
 40
0.5651689065
 40
0.6276437134
 40
0.7522951708
 40
0.8144321528
 40
0.876423784
 40
0.9382805649
 40
1.0
 40
1.0
 40
1.0
 40
1.0
 10
7.4799598888
 20
2.7721167104
 30
0.0
 10
7.487000193
 20
2.7714832025
 30
0.0
 10
7.4976109279
 20
2.7708860251
 30
0.0
 10
7.5117785619
 20
2.7703990264
 30
0.0
 10
7.5224327635
 20
2.7700855735
 30
0.0
 10
7.5330802952
 20
2.7697578657
 30
0.0
 10
7.5472578429
 20
2.7692990987
 30
0.0
 10
7.5649628374
 20
2.7686504829
 30
0.0
 10
7.5861921473
 20
2.7676574188
 30
0.0
 10
7.60740126
 20
2.766371232
 30
0.0
 10
7.6285877744
 20
2.7647631566
 30
0.0
 10
7.6497433417
 20
2.7627982482
 30
0.0
 10
7.6708582801
 20
2.7604397265
 30
0.0
 10
7.6919216741
 20
2.7576656311
 30
0.0
 10
7.7129322021
 20
2.7545404756
 30
0.0
 10
7.7338871811
 20
2.7511171417
 30
0.0
 10
7.7547882535
 20
2.7474602747
 30
0.0
 10
7.7825650117
 20
2.7422748594
 30
0.0
 10
7.8171234125
 20
2.7351501294
 30
0.0
 10
7.8582860317
 20
2.7254095452
 30
0.0
 10
7.9126480079
 20
2.7108630585
 30
0.0
 10
7.9662632116
 20
2.6939841653
 30
0.0
 10
8.0190196876
 20
2.6749953146
 30
0.0
 10
8.0580573345
 20
2.6597202913
 30
0.0
 10
8.0965526045
 20
2.6433663184
 30
0.0
 10
8.1218608218
 20
2.6317331192
 30
0.0
 10
8.134412523
 20
2.6257399626
 30
0.0
  0
SPLINE
  5
37F
100
AcDbEntity
  8
0
100
AcDbSpline
 62
9
  6
CONTINUOUS
 70
0
 71
3
 72
26
 73
22
 74
0
 42
0.0000001
 43
0.0000001
 44
0.0000000001
 40
0.0
 40
0.0
 40
0.0
 40
0.0
 40
0.0335008351
 40
0.0702403785
 40
0.1108610761
 40
0.1559104602
 40
0.1802502116
 40
0.2058271258
 40
0.2326448569
 40
0.2607019176
 40
0.2899882503
 40
0.3204705686
 40
0.3848390274
 40
0.4534155304
 40
0.5256424455
 40
0.6008991867
 40
0.6785247915
 40
0.7578516314
 40
0.8382500566
 40
0.9191266146
 40
1.0
 40
1.0
 40
1.0
 40
1.0
 10
8.134412523
 20
2.6257399626
 30
0.0
 10
8.1330267461
 20
2.6173783733
 30
0.0
 10
8.1284190335
 20
2.6001003188
 30
0.0
 10
8.1166752267
 20
2.5745044267
 30
0.0
 10
8.0995776257
 20
2.5485550253
 30
0.0
 10
8.0812534956
 20
2.5275040441
 30
0.0
 10
8.0639692948
 20
2.51080219
 30
0.0
 10
8.0492883632
 20
2.4980846533
 30
0.0
 10
8.033246032
 20
2.4855446872
 30
0.0
 10
8.0158662433
 20
2.4732307372
 30
0.0
 10
7.9971802869
 20
2.4611950671
 30
0.0
 10
7.9700949051
 20
2.4452826498
 30
0.0
 10
7.9332452694
 20
2.4264401586
 30
0.0
 10
7.8854817061
 20
2.4060261262
 30
0.0
 10
7.8339513663
 20
2.3876888988
 30
0.0
 10
7.7792508561
 20
2.3717268411
 30
0.0
 10
7.7220168124
 20
2.3583504799
 30
0.0
 10
7.6628793947
 20
2.3477727557
 30
0.0
 10
7.6024642102
 20
2.3401172883
 30
0.0
 10
7.5413503622
 20
2.3355037913
 30
0.0
 10
7.5004206946
 20
2.33446943
 30
0.0
 10
7.4799598888
 20
2.3344694299
 30
0.0
  0
SPLINE
  5
380
100
AcDbEntity
  8
0
100
AcDbSpline
 62
9
  6
CONTINUOUS
 70
0
 71
3
 72
32
 73
28
 74
0
 42
0.0000001
 43
0.0000001
 44
0.0000000001
 40
0.0
 40
0.0
 40
0.0
 40
0.0
 40
0.0167239881
 40
0.0337134301
 40
0.0511544698
 40
0.0692287935
 40
0.1078991595
 40
0.1288200097
 40
0.1509422405
 40
0.1743584087
 40
0.1991172571
 40
0.2252443841
 40
0.2527524969
 40
0.2816393611
 40
0.3118740925
 40
0.3434123628
 40
0.3762031543
 40
0.4101867439
 40
0.4452845651
 40
0.4814101167
 40
0.518473442
 40
0.5950287355
 40
0.6741528446
 40
0.7550134172
 40
0.8367939275
 40
0.9186934891
 40
1.0
 40
1.0
 40
1.0
 40
1.0
 10
8.2002338741
 20
2.5922633044
 30
0.0
 10
8.2002564324
 20
2.587601677
 30
0.0
 10
8.1997540717
 20
2.5781928067
 30
0.0
 10
8.1973513427
 20
2.5641079459
 30
0.0
 10
8.1932736669
 20
2.5500198766
 30
0.0
 10
8.1854036379
 20
2.5308609391
 30
0.0
 10
8.1740833398
 20
2.5122281864
 30
0.0
 10
8.1599051039
 20
2.4943853188
 30
0.0
 10
8.1472700352
 20
2.4808107553
 30
0.0
 10
8.1329239887
 20
2.4674431118
 30
0.0
 10
8.116899156
 20
2.4543024855
 30
0.0
 10
8.0992342551
 20
2.4414219111
 30
0.0
 10
8.0799698994
 20
2.4288355089
 30
0.0
 10
8.0591538113
 20
2.4165812798
 30
0.0
 10
8.0368514766
 20
2.4046835839
 30
0.0
 10
8.0131329987
 20
2.3931711846
 30
0.0
 10
7.9880708683
 20
2.3820740231
 30
0.0
 10
7.9617427733
 20
2.3714237006
 30
0.0
 10
7.9342378925
 20
2.3612400243
 30
0.0
 10
7.9056493501
 20
2.351544856
 30
0.0
 10
7.8657827664
 20
2.3391669801
 30
0.0
 10
7.8138996346
 20
2.3251372516
 30
0.0
 10
7.7495529203
 20
2.3106771923
 30
0.0
 10
7.6832549622
 20
2.2985039468
 30
0.0
 10
7.6157988481
 20
2.2886113763
 30
0.0
 10
7.5479260556
 20
2.2809873997
 30
0.0
 10
7.5025739818
 20
2.2773160198
 30
0.0
 10
7.4799598888
 20
2.2758194536
 30
0.0
  0
SPLINE
  5
381
100
AcDbEntity
  8
0
100
AcDbSpline
 62
9
  6
CONTINUOUS
 70
0
 71
3
 72
26
 73
22
 74
0
 42
0.0000001
 43
0.0000001
 44
0.0000000001
 40
0.0
 40
0.0
 40
0.0
 40
0.0
 40
0.033501369
 40
0.0702415416
 40
0.110862918
 40
0.1559129803
 40
0.1802530498
 40
0.2058302508
 40
0.2326482349
 40
0.260705513
 40
0.2899920213
 40
0.320474468
 40
0.3848430454
 40
0.4534194802
 40
0.5256461478
 40
0.6009024868
 40
0.6785275615
 40
0.7578537759
 40
0.8382515114
 40
0.9191273462
 40
1.0
 40
1.0
 40
1.0
 40
1.0
 10
6.8255084394
 20
2.6257328145
 30
0.0
 10
6.8268946849
 20
2.6173712477
 30
0.0
 10
6.8315033059
 20
2.6000933155
 30
0.0
 10
6.8432482968
 20
2.5744977591
 30
0.0
 10
6.8603469293
 20
2.5485488008
 30
0.0
 10
6.8786717684
 20
2.5274982359
 30
0.0
 10
6.8959564509
 20
2.5107967438
 30
0.0
 10
6.9106376828
 20
2.4980795062
 30
0.0
 10
6.9266802544
 20
2.4855398526
 30
0.0
 10
6.9440602238
 20
2.4732262269
 30
0.0
 10
6.9627462978
 20
2.4611908879
 30
0.0
 10
6.9898317291
 20
2.4452789357
 30
0.0
 10
7.026681265
 20
2.4264370224
 30
0.0
 10
7.074444509
 20
2.4060236344
 30
0.0
 10
7.1259743163
 20
2.3876870121
 30
0.0
 10
7.1806741079
 20
2.3717255012
 30
0.0
 10
7.2379072805
 20
2.3583496108
 30
0.0
 10
7.2970437094
 20
2.3477722674
 30
0.0
 10
7.3574578235
 20
2.3401170796
 30
0.0
 10
7.4185705537
 20
2.3355037531
 30
0.0
 10
7.4594994629
 20
2.33446943
 30
0.0
 10
7.4799598888
 20
2.3344694299
 30
0.0
  0
SPLINE
  5
382
100
AcDbEntity
  8
0
100
AcDbSpline
 62
9
  6
CONTINUOUS
 70
0
 71
3
 72
18
 73
14
 74
0
 42
0.0000001
 43
0.0000001
 44
0.0000000001
 40
0.0
 40
0.0
 40
0.0
 40
0.0
 40
0.121393825
 40
0.1823529164
 40
0.2434588163
 40
0.366338298
 40
0.4283060699
 40
0.490643168
 40
0.5533063796
 40
0.6162545077
 40
0.742960006
 40
0.8709159008
 40
1.0
 40
1.0
 40
1.0
 40
1.0
 10
6.5149598894
 20
2.3061427799
 30
0.0
 10
6.5197377069
 20
2.3210002235
 30
0.0
 10
6.5280698812
 20
2.3429704107
 30
0.0
 10
6.5413595956
 20
2.371319334
 30
0.0
 10
6.5561598437
 20
2.3991286383
 30
0.0
 10
6.5731043919
 20
2.4258970061
 30
0.0
 10
6.5919859152
 20
2.4514689494
 30
0.0
 10
6.6071672893
 20
2.4701175318
 30
0.0
 10
6.623297038
 20
2.488121465
 30
0.0
 10
6.6460723472
 20
2.5112345053
 30
0.0
 10
6.6767795658
 20
2.5382486653
 30
0.0
 10
6.7167028207
 20
2.5673394552
 30
0.0
 10
6.7450892006
 20
2.5843597023
 30
0.0
 10
6.7596858667
 20
2.5922556744
 30
0.0
  0
SPLINE
  5
383
100
AcDbEntity
  8
0
100
AcDbSpline
 62
9
  6
CONTINUOUS
 70
0
 71
3
 72
32
 73
28
 74
0
 42
0.0000001
 43
0.0000001
 44
0.0000000001
 40
0.0
 40
0.0
 40
0.0
 40
0.0
 40
0.0167239472
 40
0.0337134406
 40
0.0511546153
 40
0.0692291462
 40
0.1079000868
 40
0.1288212701
 40
0.1509438494
 40
0.174360363
 40
0.1991195363
 40
0.2252469607
 40
0.2527553389
 40
0.2816424284
 40
0.311877338
 40
0.3434157391
 40
0.3762066142
 40
0.4101902387
 40
0.4452880451
 40
0.4814135349
 40
0.5184767546
 40
0.5950317174
 40
0.6741553604
 40
0.7550153667
 40
0.8367952457
 40
0.9186941466
 40
1.0
 40
1.0
 40
1.0
 40
1.0
 10
6.7596858667
 20
2.5922556744
 30
0.0
 10
6.7596636039
 20
2.5875940995
 30
0.0
 10
6.7601665495
 20
2.5781853444
 30
0.0
 10
6.7625701048
 20
2.5641007173
 30
0.0
 10
6.7666485596
 20
2.5500129006
 30
0.0
 10
6.7745195964
 20
2.5308543076
 30
0.0
 10
6.78584075
 20
2.5122219608
 30
0.0
 10
6.8000197093
 20
2.494379488
 30
0.0
 10
6.8126552812
 20
2.4808052353
 30
0.0
 10
6.8270017634
 20
2.4674379072
 30
0.0
 10
6.8430269596
 20
2.4542975988
 30
0.0
 10
6.8606921534
 20
2.4414173458
 30
0.0
 10
6.8799567324
 20
2.4288312685
 30
0.0
 10
6.9007729715
 20
2.4165773636
 30
0.0
 10
6.9230753839
 20
2.4046799876
 30
0.0
 10
6.9467938694
 20
2.3931679043
 30
0.0
 10
6.97185594
 20
2.3820710539
 30
0.0
 10
6.9981839092
 20
2.3714210343
 30
0.0
 10
7.0256886004
 20
2.3612376499
 30
0.0
 10
7.0542768937
 20
2.3515427623
 30
0.0
 10
7.0941430479
 20
2.3391652546
 30
0.0
 10
7.1460255226
 20
2.3251359403
 30
0.0
 10
7.2103713244
 20
2.3106762982
 30
0.0
 10
7.2766682489
 20
2.2985033957
 30
0.0
 10
7.3441232498
 20
2.28861109
 30
0.0
 10
7.4119948897
 20
2.2809872995
 30
0.0
 10
7.4573461847
 20
2.2773159941
 30
0.0
 10
7.4799598888
 20
2.2758194536
 30
0.0
  0
SPLINE
  5
384
100
AcDbEntity
  8
0
100
AcDbSpline
 62
9
  6
CONTINUOUS
 70
0
 71
3
 72
11
 73
7
 74
0
 42
0.0000001
 43
0.0000001
 44
0.0000000001
 40
0.0
 40
0.0
 40
0.0
 40
0.0
 40
0.2510221312
 40
0.5011302401
 40
0.750669499
 40
1.0
 40
1.0
 40
1.0
 40
1.0
 10
6.5149598894
 20
2.3061427965
 30
0.0
 10
6.5094575364
 20
2.2890855455
 30
0.0
 10
6.4999376897
 20
2.2545400432
 30
0.0
 10
6.490239749
 20
2.2017603639
 30
0.0
 10
6.48521559
 20
2.148453762
 30
0.0
 10
6.4850031966
 20
2.1127812693
 30
0.0
 10
6.4856805515
 20
2.094992171
 30
0.0
  0
SPLINE
  5
385
100
AcDbEntity
  8
0
100
AcDbSpline
 62
9
  6
CONTINUOUS
 70
0
 71
3
 72
15
 73
11
 74
0
 42
0.0000001
 43
0.0000001
 44
0.0000000001
 40
0.0
 40
0.0
 40
0.0
 40
0.0
 40
0.1196466371
 40
0.2424113245
 40
0.3676423257
 40
0.4945273658
 40
0.6221562064
 40
0.7495727768
 40
0.8758224779
 40
1.0
 40
1.0
 40
1.0
 40
1.0
 10
7.9362622102
 20
2.9261212174
 30
0.0
 10
7.9209641701
 20
2.938270537
 30
0.0
 10
7.8886559613
 20
2.9612665686
 30
0.0
 10
7.8366703665
 20
2.9914251746
 30
0.0
 10
7.7812492232
 20
3.0175713384
 30
0.0
 10
7.7231913045
 20
3.0395121675
 30
0.0
 10
7.6632882507
 20
3.0570576043
 30
0.0
 10
7.6023325182
 20
3.0700131234
 30
0.0
 10
7.5411232515
 20
3.0781828258
 30
0.0
 10
7.5002343827
 20
3.080329365
 30
0.0
 10
7.4799598893
 20
3.0805095378
 30
0.0
  0
SPLINE
  5
386
100
AcDbEntity
  8
0
100
AcDbSpline
 62
9
  6
CONTINUOUS
 70
0
 71
3
 72
15
 73
11
 74
0
 42
0.0000001
 43
0.0000001
 44
0.0000000001
 40
0.0
 40
0.0
 40
0.0
 40
0.0
 40
0.1196466371
 40
0.2424113245
 40
0.3676423257
 40
0.4945273658
 40
0.6221562064
 40
0.7495727768
 40
0.8758224779
 40
1.0
 40
1.0
 40
1.0
 40
1.0
 10
7.0236575673
 20
2.9261212174
 30
0.0
 10
7.0389556075
 20
2.938270537
 30
0.0
 10
7.0712638163
 20
2.9612665686
 30
0.0
 10
7.1232494112
 20
2.9914251747
 30
0.0
 10
7.1786705545
 20
3.0175713384
 30
0.0
 10
7.2367284733
 20
3.0395121675
 30
0.0
 10
7.2966315272
 20
3.0570576044
 30
0.0
 10
7.3575872597
 20
3.0700131234
 30
0.0
 10
7.4187965265
 20
3.0781828258
 30
0.0
 10
7.4596853954
 20
3.080329365
 30
0.0
 10
7.4799598888
 20
3.0805095378
 30
0.0
  0
SPLINE
  5
387
100
AcDbEntity
  8
0
100
AcDbSpline
 62
9
  6
CONTINUOUS
 70
0
 71
3
 72
15
 73
11
 74
0
 42
0.0000001
 43
0.0000001
 44
0.0000000001
 40
0.0
 40
0.0
 40
0.0
 40
0.0
 40
0.1223833592
 40
0.2469333135
 40
0.3730681334
 40
0.5000424766
 40
0.627026978
 40
0.7531802121
 40
0.8777198521
 40
1.0
 40
1.0
 40
1.0
 40
1.0
 10
7.0880601406
 20
2.983752467
 30
0.0
 10
7.1004321508
 20
2.9966053727
 30
0.0
 10
7.1269072085
 20
3.0211187157
 30
0.0
 10
7.1705031628
 20
3.053770082
 30
0.0
 10
7.2176274759
 20
3.0823917841
 30
0.0
 10
7.267513802
 20
3.1066777693
 30
0.0
 10
7.3194045555
 20
3.1263256563
 30
0.0
 10
7.3725446681
 20
3.1410266363
 30
0.0
 10
7.4261706792
 20
3.1504682972
 30
0.0
 10
7.46213727
 20
3.1530710764
 30
0.0
 10
7.4799598884
 20
3.153356575
 30
0.0
  0
SPLINE
  5
388
100
AcDbEntity
  8
0
100
AcDbSpline
 62
9
  6
CONTINUOUS
 70
0
 71
3
 72
64
 73
60
 74
0
 42
0.0000001
 43
0.0000001
 44
0.0000000001
 40
0.0
 40
0.0
 40
0.0
 40
0.0
 40
0.0209284347
 40
0.0418533706
 40
0.0627599582
 40
0.0732016555
 40
0.0836331524
 40
0.1044596032
 40
0.1252279376
 40
0.1459289945
 40
0.1665587201
 40
0.1871182955
 40
0.2076030033
 40
0.2280018853
 40
0.2482997857
 40
0.2684782934
 40
0.2885184637
 40
0.3084095103
 40
0.3281440348
 40
0.3477154837
 40
0.3671183308
 40
0.3863482236
 40
0.4053999321
 40
0.4242655772
 40
0.4429367196
 40
0.4796590876
 40
0.5154954828
 40
0.550384106
 40
0.5842727217
 40
0.6171157502
 40
0.6488763978
 40
0.6795225897
 40
0.7090319464
 40
0.7374014039
 40
0.751161882
 40
0.7646398159
 40
0.7907292599
 40
0.8156315453
 40
0.8393428158
 40
0.8507981416
 40
0.8620218505
 40
0.8730454902
 40
0.8838858214
 40
0.8945445196
 40
0.9050215199
 40
0.9153146995
 40
0.9253869906
 40
0.935151912
 40
0.9398890407
 40
0.9445122184
 40
0.9490090708
 40
0.953390983
 40
0.9576979111
 40
0.9619732873
 40
0.9706138836
 40
0.9750807661
 40
0.9797044889
 40
0.9894730538
 40
1.0
 40
1.0
 40
1.0
 40
1.0
 10
7.4799596808
 20
1.8848275243
 30
0.0
 10
7.4878406129
 20
1.8852362881
 30
0.0
 10
7.5036044686
 20
1.8859910399
 30
0.0
 10
7.5272500895
 20
1.8869531578
 30
0.0
 10
7.5469494203
 20
1.8876282497
 30
0.0
 10
7.5626963259
 20
1.8881009768
 30
0.0
 10
7.5784142156
 20
1.8885312706
 30
0.0
 10
7.5980252505
 20
1.8890403295
 30
0.0
 10
7.6215042969
 20
1.8897662996
 30
0.0
 10
7.6448995956
 20
1.8907666153
 30
0.0
 10
7.6681944419
 20
1.8922056281
 30
0.0
 10
7.6913640166
 20
1.8942299675
 30
0.0
 10
7.7143981342
 20
1.8967342889
 30
0.0
 10
7.7372868333
 20
1.89962686
 30
0.0
 10
7.7600196605
 20
1.9028119266
 30
0.0
 10
7.7825865149
 20
1.9061967942
 30
0.0
 10
7.8049827539
 20
1.9096820674
 30
0.0
 10
7.8271895665
 20
1.9132931798
 30
0.0
 10
7.8491904229
 20
1.9170651904
 30
0.0
 10
7.8709701609
 20
1.921031289
 30
0.0
 10
7.8925137807
 20
1.9252239187
 30
0.0
 10
7.9138043895
 20
1.9296803151
 30
0.0
 10
7.9348271528
 20
1.9344154287
 30
0.0
 10
7.9555733841
 20
1.9394088614
 30
0.0
 10
7.9827005041
 20
1.9463531528
 30
0.0
 10
8.0158431337
 20
1.9555871493
 30
0.0
 10
8.0545694046
 20
1.9675108258
 30
0.0
 10
8.0919269528
 20
1.9801968627
 30
0.0
 10
8.1278130201
 20
1.993650439
 30
0.0
 10
8.1621282251
 20
2.0078745306
 30
0.0
 10
8.1947928213
 20
2.0228273526
 30
0.0
 10
8.2257339875
 20
2.0384650937
 30
0.0
 10
8.2548830937
 20
2.0547514757
 30
0.0
 10
8.2778519604
 20
2.0689906083
 30
0.0
 10
8.2952450028
 20
2.0807054041
 30
0.0
 10
8.3116254228
 20
2.0923718379
 30
0.0
 10
8.3308715915
 20
2.1072434116
 30
0.0
 10
8.3522166044
 20
2.1256425469
 30
0.0
 10
8.3685325332
 20
2.1413780638
 30
0.0
 10
8.3804418588
 20
2.154195794
 30
0.0
 10
8.3887141361
 20
2.1638482473
 30
0.0
 10
8.396404562
 20
2.1736781986
 30
0.0
 10
8.4035102572
 20
2.1836784914
 30
0.0
 10
8.4100408816
 20
2.1938189096
 30
0.0
 10
8.4160004222
 20
2.2040672069
 30
0.0
 10
8.4213792855
 20
2.2143829512
 30
0.0
 10
8.4261932134
 20
2.2246772577
 30
0.0
 10
8.4298181378
 20
2.233206929
 30
0.0
 10
8.4324905378
 20
2.2399052731
 30
0.0
 10
8.4343621745
 20
2.2447838523
 30
0.0
 10
8.4361338809
 20
2.2495569457
 30
0.0
 10
8.4378025775
 20
2.2542407337
 30
0.0
 10
8.4393430936
 20
2.2588807522
 30
0.0
 10
8.4412123629
 20
2.2651007833
 30
0.0
 10
8.4427592213
 20
2.2714790278
 30
0.0
 10
8.4438961327
 20
2.278069751
 30
0.0
 10
8.4447807627
 20
2.2851280747
 30
0.0
 10
8.4453279222
 20
2.2945200215
 30
0.0
 10
8.4451737309
 20
2.3021791799
 30
0.0
 10
8.4449598868
 20
2.3061428316
 30
0.0
  0
SPLINE
  5
389
100
AcDbEntity
  8
0
100
AcDbSpline
 62
9
  6
CONTINUOUS
 70
0
 71
3
 72
15
 73
11
 74
0
 42
0.0000001
 43
0.0000001
 44
0.0000000001
 40
0.0
 40
0.0
 40
0.0
 40
0.0
 40
0.1223833592
 40
0.2469333136
 40
0.3730681335
 40
0.5000424767
 40
0.627026978
 40
0.7531802121
 40
0.8777198521
 40
1.0
 40
1.0
 40
1.0
 40
1.0
 10
7.871859637
 20
2.983752467
 30
0.0
 10
7.8594876267
 20
2.9966053727
 30
0.0
 10
7.8330125691
 20
3.0211187157
 30
0.0
 10
7.7894166147
 20
3.0537700821
 30
0.0
 10
7.7422923015
 20
3.0823917842
 30
0.0
 10
7.6924059754
 20
3.1066777694
 30
0.0
 10
7.6405152219
 20
3.1263256563
 30
0.0
 10
7.5873751092
 20
3.1410266364
 30
0.0
 10
7.5337490981
 20
3.1504682972
 30
0.0
 10
7.4977825072
 20
3.1530710765
 30
0.0
 10
7.4799598888
 20
3.153356575
 30
0.0
  0
SPLINE
  5
38A
100
AcDbEntity
  8
0
100
AcDbSpline
 62
7
  6
CONTINUOUS
 70
0
 71
3
 72
16
 73
12
 74
0
 42
0.0000001
 43
0.0000001
 44
0.0000000001
 40
0.0
 40
0.0
 40
0.0
 40
0.0
 40
0.1263029638
 40
0.253847313
 40
0.3817818589
 40
0.5091814796
 40
0.6351772648
 40
0.7590932428
 40
0.8806021883
 40
0.9405353395
 40
1.0
 40
1.0
 40
1.0
 40
1.0
 10
7.8209377511
 20
3.0408891486
 30
0.0
 10
7.8115866086
 20
3.0555189881
 30
0.0
 10
7.7909532888
 20
3.0837837698
 30
0.0
 10
7.7552750733
 20
3.1224179303
 30
0.0
 10
7.7154187221
 20
3.15696332
 30
0.0
 10
7.6721587209
 20
3.1867644767
 30
0.0
 10
7.6262517895
 20
3.2111701478
 30
0.0
 10
7.5784592055
 20
3.2295146203
 30
0.0
 10
7.537460406
 20
3.2392291398
 30
0.0
 10
7.5045561104
 20
3.2432118345
 30
0.0
 10
7.4881345888
 20
3.2438967945
 30
0.0
 10
7.4799598888
 20
3.2438967945
 30
0.0
  0
SPLINE
  5
38B
100
AcDbEntity
  8
0
100
AcDbSpline
 62
9
  6
CONTINUOUS
 70
0
 71
3
 72
13
 73
9
 74
0
 42
0.0000001
 43
0.0000001
 44
0.0000000001
 40
0.0
 40
0.0
 40
0.0
 40
0.0
 40
0.2509931911
 40
0.5010765996
 40
0.625911276
 40
0.7506456709
 40
0.8753256797
 40
1.0
 40
1.0
 40
1.0
 40
1.0
 10
8.4449598868
 20
2.3061428316
 30
0.0
 10
8.4504622163
 20
2.2890856548
 30
0.0
 10
8.4599746465
 20
2.2545389454
 30
0.0
 10
8.4680580274
 20
2.2105214712
 30
0.0
 10
8.47218904
 20
2.1750729321
 30
0.0
 10
8.4741159035
 20
2.1484093706
 30
0.0
 10
8.4748652656
 20
2.1216990983
 30
0.0
 10
8.4745764713
 20
2.1038889072
 30
0.0
 10
8.4742363451
 20
2.0949927768
 30
0.0
  0
SPLINE
  5
38C
100
AcDbEntity
  8
0
100
AcDbSpline
 62
9
  6
CONTINUOUS
 70
0
 71
3
 72
15
 73
11
 74
0
 42
0.0000001
 43
0.0000001
 44
0.0000000001
 40
0.0
 40
0.0
 40
0.0
 40
0.0
 40
0.1243966598
 40
0.2502824332
 40
0.3770557711
 40
0.5040025127
 40
0.6303799253
 40
0.7554985947
 40
0.8788091256
 40
1.0
 40
1.0
 40
1.0
 40
1.0
 10
7.8330919543
 20
3.0261404088
 30
0.0
 10
7.8221922696
 20
3.0387555454
 30
0.0
 10
7.7987903293
 20
3.0628982943
 30
0.0
 10
7.7599149182
 20
3.0953142828
 30
0.0
 10
7.717688635
 20
3.1238427561
 30
0.0
 10
7.6728022811
 20
3.1481029977
 30
0.0
 10
7.6259378021
 20
3.1677179822
 30
0.0
 10
7.5777720577
 20
3.1823033906
 30
0.0
 10
7.5289916145
 20
3.1914691445
 30
0.0
 10
7.496201819
 20
3.193718024
 30
0.0
 10
7.4799598888
 20
3.1937767189
 30
0.0
  0
SPLINE
  5
38D
100
AcDbEntity
  8
0
100
AcDbSpline
 62
9
  6
CONTINUOUS
 70
0
 71
3
 72
15
 73
11
 74
0
 42
0.0000001
 43
0.0000001
 44
0.0000000001
 40
0.0
 40
0.0
 40
0.0
 40
0.0
 40
0.1243966598
 40
0.2502824332
 40
0.3770557711
 40
0.5040025127
 40
0.6303799253
 40
0.7554985947
 40
0.8788091256
 40
1.0
 40
1.0
 40
1.0
 40
1.0
 10
7.1268278233
 20
3.0261404088
 30
0.0
 10
7.137727508
 20
3.0387555455
 30
0.0
 10
7.1611294482
 20
3.0628982943
 30
0.0
 10
7.2000048594
 20
3.0953142828
 30
0.0
 10
7.2422311426
 20
3.1238427561
 30
0.0
 10
7.2871174964
 20
3.1481029978
 30
0.0
 10
7.3339819754
 20
3.1677179822
 30
0.0
 10
7.3821477198
 20
3.1823033906
 30
0.0
 10
7.4309281631
 20
3.1914691445
 30
0.0
 10
7.4637179586
 20
3.193718024
 30
0.0
 10
7.4799598888
 20
3.1937767189
 30
0.0
  0
SPLINE
  5
38E
100
AcDbEntity
  8
0
100
AcDbSpline
 62
7
  6
CONTINUOUS
 70
0
 71
3
 72
16
 73
12
 74
0
 42
0.0000001
 43
0.0000001
 44
0.0000000001
 40
0.0
 40
0.0
 40
0.0
 40
0.0
 40
0.126367517
 40
0.2539424083
 40
0.3818775187
 40
0.5092568996
 40
0.6352232694
 40
0.7591122286
 40
0.8806052958
 40
0.9405354104
 40
1.0
 40
1.0
 40
1.0
 40
1.0
 10
7.1401357226
 20
3.0426840506
 30
0.0
 10
7.1495170643
 20
3.0571983648
 30
0.0
 10
7.1701783857
 20
3.0852327598
 30
0.0
 10
7.2058243866
 20
3.1235425617
 30
0.0
 10
7.2455823982
 20
3.157785645
 30
0.0
 10
7.288689756
 20
3.1873162791
 30
0.0
 10
7.3344012319
 20
3.2114928579
 30
0.0
 10
7.3819670059
 20
3.2296596345
 30
0.0
 10
7.4227573382
 20
3.2392767541
 30
0.0
 10
7.4554912145
 20
3.2432189194
 30
0.0
 10
7.4718274214
 20
3.2438967948
 30
0.0
 10
7.4799598888
 20
3.2438967948
 30
0.0
  0
SPLINE
  5
38F
100
AcDbEntity
  8
0
100
AcDbSpline
 62
9
  6
CONTINUOUS
 70
0
 71
3
 72
20
 73
16
 74
0
 42
0.0000001
 43
0.0000001
 44
0.0000000001
 40
0.0
 40
0.0
 40
0.0
 40
0.0
 40
0.1464881093
 40
0.217174332
 40
0.2861058456
 40
0.4184719155
 40
0.4820303369
 40
0.5440200675
 40
0.6045944907
 40
0.6639114221
 40
0.779132984
 40
0.8353012166
 40
0.8907066598
 40
0.9455403212
 40
1.0
 40
1.0
 40
1.0
 40
1.0
 10
6.9174432565
 20
2.8484067169
 30
0.0
 10
6.9051471956
 20
2.8394158115
 30
0.0
 10
6.8874210619
 20
2.8253685176
 30
0.0
 10
6.8653687054
 20
2.8053860745
 30
0.0
 10
6.8452984815
 20
2.7854495021
 30
0.0
 10
6.8271534674
 20
2.7646554153
 30
0.0
 10
6.8112098577
 20
2.7430761173
 30
0.0
 10
6.8005829035
 20
2.7268882861
 30
0.0
 10
6.7911357226
 20
2.7104897612
 30
0.0
 10
6.780247437
 20
2.6885882563
 30
0.0
 10
6.7716265516
 20
2.6661093297
 30
0.0
 10
6.7655280254
 20
2.6433119848
 30
0.0
 10
6.762248893
 20
2.6263057095
 30
0.0
 10
6.7602310003
 20
2.6092844494
 30
0.0
 10
6.7597262806
 20
2.5979185007
 30
0.0
 10
6.7596858667
 20
2.5922556744
 30
0.0
  0
SPLINE
  5
390
100
AcDbEntity
  8
0
100
AcDbSpline
 62
9
  6
CONTINUOUS
 70
0
 71
3
 72
11
 73
7
 74
0
 42
0.0000001
 43
0.0000001
 44
0.0000000001
 40
0.0
 40
0.0
 40
0.0
 40
0.0
 40
0.2460671289
 40
0.4956099412
 40
0.7473616807
 40
1.0
 40
1.0
 40
1.0
 40
1.0
 10
7.4799598888
 20
3.0542343214
 30
0.0
 10
7.462496252
 20
3.0542343214
 30
0.0
 10
7.4273131481
 20
3.0530613198
 30
0.0
 10
7.3744836691
 20
3.0479887518
 30
0.0
 10
7.3215940388
 20
3.0396833579
 30
0.0
 10
7.2865948301
 20
3.0320525273
 30
0.0
 10
7.269196554
 20
3.0277183699
 30
0.0
  0
SPLINE
  5
391
100
AcDbEntity
  8
0
100
AcDbSpline
 62
7
  6
CONTINUOUS
 70
0
 71
3
 72
13
 73
9
 74
0
 42
0.0000001
 43
0.0000001
 44
0.0000000001
 40
0.0
 40
0.0
 40
0.0
 40
0.0
 40
0.2570222642
 40
0.3845162651
 40
0.5109041578
 40
0.6359002081
 40
0.7592428858
 40
1.0
 40
1.0
 40
1.0
 40
1.0
 10
7.269196554
 20
3.0277183699
 30
0.0
 10
7.2451442475
 20
3.0217265993
 30
0.0
 10
7.209500971
 20
3.011291632
 30
0.0
 10
7.1631756038
 20
2.9944769931
 30
0.0
 10
7.1293920878
 20
2.9805237869
 30
0.0
 10
7.0966340805
 20
2.9652275691
 30
0.0
 10
7.0548783662
 20
2.943266885
 30
0.0
 10
7.02502227
 20
2.9246192275
 30
0.0
 10
7.0060692531
 20
2.9112067551
 30
0.0
  0
SPLINE
  5
392
100
AcDbEntity
  8
0
100
AcDbSpline
 62
9
  6
CONTINUOUS
 70
0
 71
3
 72
20
 73
16
 74
0
 42
0.0000001
 43
0.0000001
 44
0.0000000001
 40
0.0
 40
0.0
 40
0.0
 40
0.0
 40
0.1464876819
 40
0.2171737701
 40
0.2861052065
 40
0.4184712981
 40
0.4820297824
 40
0.5440195947
 40
0.6045941102
 40
0.6639111358
 40
0.7791329252
 40
0.8353012491
 40
0.8907067416
 40
0.9455403968
 40
1.0
 40
1.0
 40
1.0
 40
1.0
 10
8.0424765914
 20
2.8484066655
 30
0.0
 10
8.0547723251
 20
2.8394159965
 30
0.0
 10
8.0724980052
 20
2.8253690869
 30
0.0
 10
8.0945498484
 20
2.8053872226
 30
0.0
 10
8.1146196688
 20
2.7854512198
 30
0.0
 10
8.1327643892
 20
2.7646577448
 30
0.0
 10
8.1487078342
 20
2.7430790916
 30
0.0
 10
8.1593347329
 20
2.7268917419
 30
0.0
 10
8.1687819259
 20
2.7104937081
 30
0.0
 10
8.1796703206
 20
2.6885928547
 30
0.0
 10
8.1882914546
 20
2.6661145926
 30
0.0
 10
8.1943903814
 20
2.6433178927
 30
0.0
 10
8.1976698799
 20
2.626312091
 30
0.0
 10
8.199688208
 20
2.6092912941
 30
0.0
 10
8.2001932653
 20
2.5979256383
 30
0.0
 10
8.2002338587
 20
2.5922629548
 30
0.0
  0
SPLINE
  5
393
100
AcDbEntity
  8
0
100
AcDbSpline
 62
9
  6
CONTINUOUS
 70
0
 71
3
 72
15
 73
11
 74
0
 42
0.0000001
 43
0.0000001
 44
0.0000000001
 40
0.0
 40
0.0
 40
0.0
 40
0.0
 40
0.1251484469
 40
0.2520461649
 40
0.3797982375
 40
0.5074791629
 40
0.6341696409
 40
0.7589931593
 40
0.8811564358
 40
1.0
 40
1.0
 40
1.0
 40
1.0
 10
7.4799598888
 20
3.0386500993
 30
0.0
 10
7.457578897
 20
3.0386372188
 30
0.0
 10
7.4124892757
 20
3.0368579538
 30
0.0
 10
7.344938916
 20
3.0292728597
 30
0.0
 10
7.2776348311
 20
3.0169111569
 30
0.0
 10
7.2113827738
 20
2.9999358306
 30
0.0
 10
7.1469827024
 20
2.978508349
 30
0.0
 10
7.0852318671
 20
2.952791489
 30
0.0
 10
7.0269331958
 20
2.9229523009
 30
0.0
 10
6.9903313007
 20
2.9000591876
 30
0.0
 10
6.9728818411
 20
2.8879255219
 30
0.0
  0
SPLINE
  5
394
100
AcDbEntity
  8
0
100
AcDbSpline
 62
9
  6
CONTINUOUS
 70
0
 71
3
 72
11
 73
7
 74
0
 42
0.0000001
 43
0.0000001
 44
0.0000000001
 40
0.0
 40
0.0
 40
0.0
 40
0.0
 40
0.2460671289
 40
0.4956099412
 40
0.7473616807
 40
1.0
 40
1.0
 40
1.0
 40
1.0
 10
7.4799598888
 20
3.0542343214
 30
0.0
 10
7.4974235256
 20
3.0542343214
 30
0.0
 10
7.5326066294
 20
3.0530613198
 30
0.0
 10
7.5854361085
 20
3.0479887518
 30
0.0
 10
7.6383257388
 20
3.0396833579
 30
0.0
 10
7.6733249474
 20
3.0320525273
 30
0.0
 10
7.6907232236
 20
3.0277183699
 30
0.0
  0
SPLINE
  5
395
100
AcDbEntity
  8
0
100
AcDbSpline
 62
7
  6
CONTINUOUS
 70
0
 71
3
 72
13
 73
9
 74
0
 42
0.0000001
 43
0.0000001
 44
0.0000000001
 40
0.0
 40
0.0
 40
0.0
 40
0.0
 40
0.2570222642
 40
0.3845162651
 40
0.5109041578
 40
0.6359002081
 40
0.7592428858
 40
1.0
 40
1.0
 40
1.0
 40
1.0
 10
7.6907232236
 20
3.0277183699
 30
0.0
 10
7.71477553
 20
3.0217265993
 30
0.0
 10
7.7504188065
 20
3.011291632
 30
0.0
 10
7.7967441738
 20
2.9944769931
 30
0.0
 10
7.8305276898
 20
2.9805237869
 30
0.0
 10
7.8632856971
 20
2.9652275691
 30
0.0
 10
7.9050414114
 20
2.943266885
 30
0.0
 10
7.9348975075
 20
2.9246192275
 30
0.0
 10
7.9538505245
 20
2.9112067551
 30
0.0
  0
SPLINE
  5
396
100
AcDbEntity
  8
0
100
AcDbSpline
 62
9
  6
CONTINUOUS
 70
0
 71
3
 72
18
 73
14
 74
0
 42
0.0000001
 43
0.0000001
 44
0.0000000001
 40
0.0
 40
0.0
 40
0.0
 40
0.0
 40
0.121393717
 40
0.2434278422
 40
0.3663035357
 40
0.4282695768
 40
0.4906072314
 40
0.5532720545
 40
0.6162215877
 40
0.7429299669
 40
0.8067663135
 40
0.870919693
 40
1.0
 40
1.0
 40
1.0
 40
1.0
 10
8.4449598881
 20
2.3061427799
 30
0.0
 10
8.4401817984
 20
2.3209995738
 30
0.0
 10
8.4290472723
 20
2.350316112
 30
0.0
 10
8.4079293383
 20
2.3924896221
 30
0.0
 10
8.3868032164
 20
2.4258901869
 30
0.0
 10
8.3679282839
 20
2.4514659231
 30
0.0
 10
8.3527486968
 20
2.4701148382
 30
0.0
 10
8.3366177602
 20
2.4881175254
 30
0.0
 10
8.313837762
 20
2.5112247567
 30
0.0
 10
8.2893193522
 20
2.5327781907
 30
0.0
 10
8.2633017225
 20
2.5526731801
 30
0.0
 10
8.2361667603
 20
2.5715530213
 30
0.0
 10
8.2148296504
 20
2.5843601789
 30
0.0
 10
8.2002339108
 20
2.5922556744
 30
0.0
  0
SPLINE
  5
397
100
AcDbEntity
  8
0
100
AcDbSpline
 62
9
  6
CONTINUOUS
 70
0
 71
3
 72
15
 73
11
 74
0
 42
0.0000001
 43
0.0000001
 44
0.0000000001
 40
0.0
 40
0.0
 40
0.0
 40
0.0
 40
0.1251483926
 40
0.2520460504
 40
0.3797980683
 40
0.5074789563
 40
0.6341694249
 40
0.7589929712
 40
0.8811563192
 40
1.0
 40
1.0
 40
1.0
 40
1.0
 10
7.4799598886
 20
3.0386500993
 30
0.0
 10
7.5023407447
 20
3.0386372189
 30
0.0
 10
7.5474300915
 20
3.0368579753
 30
0.0
 10
7.6149800451
 20
3.029272971
 30
0.0
 10
7.6822837365
 20
3.0169114129
 30
0.0
 10
7.7485354273
 20
2.9999362837
 30
0.0
 10
7.8129351736
 20
2.9785090485
 30
0.0
 10
7.8746857391
 20
2.9527924811
 30
0.0
 10
7.9329842104
 20
2.9229536294
 30
0.0
 10
7.9695860195
 20
2.9000607764
 30
0.0
 10
7.9870354542
 20
2.8879272479
 30
0.0
  0
SPLINE
  5
398
100
AcDbEntity
  8
0
100
AcDbSpline
 62
9
  6
CONTINUOUS
 70
0
 71
3
 72
64
 73
60
 74
0
 42
0.0000001
 43
0.0000001
 44
0.0000000001
 40
0.0
 40
0.0
 40
0.0
 40
0.0
 40
0.0209285936
 40
0.0418537225
 40
0.0627607248
 40
0.073202791
 40
0.0836348018
 40
0.1044625767
 40
0.1252322962
 40
0.1459343981
 40
0.1665644742
 40
0.1871235323
 40
0.2076070611
 40
0.2280043555
 40
0.248300479
 40
0.2684772168
 40
0.2885158154
 40
0.308405715
 40
0.3281397547
 40
0.3477116135
 40
0.3671159923
 40
0.3863487523
 40
0.4054044933
 40
0.4242746073
 40
0.4429498966
 40
0.4796766378
 40
0.5155085256
 40
0.5503871962
 40
0.5842671448
 40
0.6171080603
 40
0.6488730868
 40
0.6795286585
 40
0.7090493268
 40
0.7374253248
 40
0.7511851863
 40
0.764659357
 40
0.7907362247
 40
0.8156270517
 40
0.839334026
 40
0.8507900812
 40
0.8620164612
 40
0.8730447254
 40
0.8838911319
 40
0.894556085
 40
0.9050383212
 40
0.9153347249
 40
0.9254082315
 40
0.9351724939
 40
0.9399085823
 40
0.9445302285
 40
0.9490249975
 40
0.9534040864
 40
0.9577078225
 40
0.9619801113
 40
0.9706167497
 40
0.9750837024
 40
0.9797090983
 40
0.9894807458
 40
1.0
 40
1.0
 40
1.0
 40
1.0
 10
7.4799598888
 20
1.8848275286
 30
0.0
 10
7.4720785537
 20
1.8852330174
 30
0.0
 10
7.4563140757
 20
1.8859844672
 30
0.0
 10
7.4326676875
 20
1.8869474587
 30
0.0
 10
7.4129676346
 20
1.8876249014
 30
0.0
 10
7.3972199178
 20
1.8880984975
 30
0.0
 10
7.3815008399
 20
1.8885284648
 30
0.0
 10
7.3618881063
 20
1.8890355221
 30
0.0
 10
7.3384070171
 20
1.8897578604
 30
0.0
 10
7.3150099989
 20
1.8907546526
 30
0.0
 10
7.2917141762
 20
1.8921918462
 30
0.0
 10
7.2685446212
 20
1.8942166372
 30
0.0
 10
7.2455114136
 20
1.8967226443
 30
0.0
 10
7.2226242482
 20
1.8996177626
 30
0.0
 10
7.1998932673
 20
1.9028056926
 30
0.0
 10
7.1773282623
 20
1.9061932536
 30
0.0
 10
7.1549335422
 20
1.9096805119
 30
0.0
 10
7.1327276556
 20
1.9132928624
 30
0.0
 10
7.1107268606
 20
1.917065394
 30
0.0
 10
7.0889460376
 20
1.9210313004
 30
0.0
 10
7.0673999163
 20
1.9252230705
 30
0.0
 10
7.0461052298
 20
1.9296778162
 30
0.0
 10
7.0250771482
 20
1.9344109743
 30
0.0
 10
7.0043250613
 20
1.9394024694
 30
0.0
 10
6.9771916213
 20
1.9463443027
 30
0.0
 10
6.9440458819
 20
1.9555757661
 30
0.0
 10
6.9053234142
 20
1.9675021118
 30
0.0
 10
6.8679758319
 20
1.9801931427
 30
0.0
 10
6.8320989471
 20
1.9936512223
 30
0.0
 10
6.7977858371
 20
2.0078760108
 30
0.0
 10
6.7651151742
 20
2.0228279112
 30
0.0
 10
6.7341619171
 20
2.0384642939
 30
0.0
 10
6.7049991045
 20
2.0547486855
 30
0.0
 10
6.6820214777
 20
2.0689873034
 30
0.0
 10
6.664627359
 20
2.0807028404
 30
0.0
 10
6.6482540234
 20
2.0923690126
 30
0.0
 10
6.6290218828
 20
2.1072426401
 30
0.0
 10
6.6076938216
 20
2.1256459198
 30
0.0
 10
6.5913845994
 20
2.141380641
 30
0.0
 10
6.5794738606
 20
2.154197074
 30
0.0
 10
6.5711966352
 20
2.1638495923
 30
0.0
 10
6.5634981308
 20
2.173679934
 30
0.0
 10
6.5563825231
 20
2.1836813393
 30
0.0
 10
6.5498415604
 20
2.1938232931
 30
0.0
 10
6.5438729067
 20
2.2040730308
 30
0.0
 10
6.5384876617
 20
2.2143899026
 30
0.0
 10
6.5336717535
 20
2.224685187
 30
0.0
 10
6.5300483068
 20
2.2332155435
 30
0.0
 10
6.5273790233
 20
2.2399139939
 30
0.0
 10
6.5255106876
 20
2.2447920855
 30
0.0
 10
6.5237432331
 20
2.2495642879
 30
0.0
 10
6.5220792424
 20
2.254246627
 30
0.0
 10
6.520543865
 20
2.2588848495
 30
0.0
 10
6.5186816966
 20
2.2651031366
 30
0.0
 10
6.5171424446
 20
2.2714806796
 30
0.0
 10
6.5160129448
 20
2.278071974
 30
0.0
 10
6.5151354537
 20
2.2851331708
 30
0.0
 10
6.5145947055
 20
2.2945244135
 30
0.0
 10
6.5147479824
 20
2.3021818413
 30
0.0
 10
6.5149598894
 20
2.3061427799
 30
0.0
  0
SPLINE
  5
399
100
AcDbEntity
  8
0
100
AcDbSpline
 62
9
  6
CONTINUOUS
 70
0
 71
3
 72
31
 73
27
 74
0
 42
0.0000001
 43
0.0000001
 44
0.0000000001
 40
0.0
 40
0.0
 40
0.0
 40
0.0
 40
0.0313678724
 40
0.0471348039
 40
0.062907161
 40
0.0786625868
 40
0.0944026894
 40
0.1258503653
 40
0.1572787107
 40
0.1887064589
 40
0.2201323755
 40
0.2515554926
 40
0.2829776482
 40
0.3144011542
 40
0.3458218031
 40
0.3772305626
 40
0.4086158878
 40
0.4399737061
 40
0.5026125883
 40
0.5651682521
 40
0.6276433704
 40
0.752293646
 40
0.814429558
 40
0.8764209053
 40
0.9382789244
 40
1.0
 40
1.0
 40
1.0
 40
1.0
 10
7.479959889
 20
2.7721167131
 30
0.0
 10
7.4729190303
 20
2.7714861007
 30
0.0
 10
7.4623078773
 20
2.7708928694
 30
0.0
 10
7.4481401274
 20
2.7704074373
 30
0.0
 10
7.4374863341
 20
2.7700920767
 30
0.0
 10
7.4268392502
 20
2.7697611953
 30
0.0
 10
7.4126619861
 20
2.7692972922
 30
0.0
 10
7.3949570745
 20
2.7686416181
 30
0.0
 10
7.3737278105
 20
2.7676428804
 30
0.0
 10
7.3525186634
 20
2.7663574177
 30
0.0
 10
7.3313322802
 20
2.7647530685
 30
0.0
 10
7.3101769346
 20
2.7627924023
 30
0.0
 10
7.2890623974
 20
2.7604348782
 30
0.0
 10
7.2679994626
 20
2.7576593653
 30
0.0
 10
7.2469892078
 20
2.754532854
 30
0.0
 10
7.2260343261
 20
2.7511092594
 30
0.0
 10
7.2051330196
 20
2.7474543545
 30
0.0
 10
7.1773559873
 20
2.7422711694
 30
0.0
 10
7.1427971013
 20
2.7351488484
 30
0.0
 10
7.1016338395
 20
2.7254107314
 30
0.0
 10
7.0472715202
 20
2.7108664457
 30
0.0
 10
6.993658446
 20
2.6939825832
 30
0.0
 10
6.9409042595
 20
2.6749897498
 30
0.0
 10
6.9018680081
 20
2.6597116442
 30
0.0
 10
6.8633736408
 20
2.64335448
 30
0.0
 10
6.8380647215
 20
2.6317216412
 30
0.0
 10
6.8255118738
 20
2.6257301488
 30
0.0
  0
SPLINE
  5
39A
100
AcDbEntity
  8
0
100
AcDbSpline
 62
9
  6
CONTINUOUS
 70
0
 71
3
 72
23
 73
19
 74
0
 42
0.0000001
 43
0.0000001
 44
0.0000000001
 40
0.0
 40
0.0
 40
0.0
 40
0.0
 40
0.0314325635
 40
0.0436105017
 40
0.0577674628
 40
0.0739595609
 40
0.0922000989
 40
0.1124728347
 40
0.1347506772
 40
0.1851783539
 40
0.2431622272
 40
0.3082071258
 40
0.3796944357
 40
0.4569885815
 40
0.539400453
 40
0.6261757618
 40
0.8096759857
 40
1.0
 40
1.0
 40
1.0
 40
1.0
 10
8.6816495542
 20
4.9954859687
 30
0.0
 10
8.6835165809
 20
4.997840453
 30
0.0
 10
8.6886821901
 20
4.9981385342
 30
0.0
 10
8.6939911224
 20
4.9973415402
 30
0.0
 10
8.6979885684
 20
4.996416354
 30
0.0
 10
8.702426532
 20
4.9950741038
 30
0.0
 10
8.7073573941
 20
4.9933161517
 30
0.0
 10
8.7127495277
 20
4.9911480669
 30
0.0
 10
8.7208859519
 20
4.9875655839
 30
0.0
 10
8.7321041506
 20
4.982054795
 30
0.0
 10
8.7466898367
 20
4.9741603038
 30
0.0
 10
8.7627641814
 20
4.9648064783
 30
0.0
 10
8.7801712689
 20
4.9540866258
 30
0.0
 10
8.7987408662
 20
4.9420984258
 30
0.0
 10
8.8182976484
 20
4.9289526721
 30
0.0
 10
8.8459676805
 20
4.9096850507
 30
0.0
 10
8.8815187782
 20
4.8836941315
 30
0.0
 10
8.9098081941
 20
4.861850298
 30
0.0
 10
8.924064585
 20
4.8505454606
 30
0.0
  0
SPLINE
  5
39B
100
AcDbEntity
  8
0
100
AcDbSpline
 62
9
  6
CONTINUOUS
 70
0
 71
3
 72
23
 73
19
 74
0
 42
0.0000001
 43
0.0000001
 44
0.0000000001
 40
0.0
 40
0.0
 40
0.0
 40
0.0
 40
0.1903240143
 40
0.3738242382
 40
0.460599547
 40
0.5430114185
 40
0.6203055643
 40
0.6917928742
 40
0.7568377728
 40
0.8148216461
 40
0.8652493228
 40
0.8875271653
 40
0.9077999011
 40
0.9260404391
 40
0.9422325372
 40
0.9563894983
 40
0.9685674365
 40
1.0
 40
1.0
 40
1.0
 40
1.0
 10
8.924064585
 20
4.8505454606
 30
0.0
 10
8.9383209758
 20
4.8392406233
 30
0.0
 10
8.9660371647
 20
4.8166739002
 30
0.0
 10
8.9994462517
 20
4.7879817177
 30
0.0
 10
9.0245128651
 20
4.7654309571
 30
0.0
 10
9.0417696928
 20
4.7493847591
 30
0.0
 10
9.057674448
 20
4.7340359598
 30
0.0
 10
9.0720792959
 20
4.71953002
 30
0.0
 10
9.0848503311
 20
4.7060104316
 30
0.0
 10
9.0958611684
 20
4.6936077427
 30
0.0
 10
9.1037835778
 20
4.6839406745
 30
0.0
 10
9.109126086
 20
4.6768348186
 30
0.0
 10
9.1124659898
 20
4.6720786921
 30
0.0
 10
9.1153014295
 20
4.6676782287
 30
0.0
 10
9.1176197746
 20
4.6636629538
 30
0.0
 10
9.1194316367
 20
4.6599815546
 30
0.0
 10
9.1214175692
 20
4.6549939667
 30
0.0
 10
9.1223045809
 20
4.6498963612
 30
0.0
 10
9.1204375542
 20
4.6475418769
 30
0.0
  0
ENDSEC
  0
SECTION
  2
OBJECTS
  0
DICTIONARY
  5
C
100
AcDbDictionary
280
0
281
1
  3
ACAD_GROUP
350
D
  3
ACAD_MLINESTYLE
350
17
  3
ACAD_LAYOUT
350
1A
  3
ACAD_PLOTSETTINGS
350
19
  3
ACAD_PLOTSTYLENAME
350
E
  0
DICTIONARY
  5
D
102
{ACAD_REACTORS
330
C
102
}
100
AcDbDictionary
280
0
281
1
  0
ACDBDICTIONARYWDFLT
  5
E
102
{ACAD_REACTORS
330
C
102
}
100
AcDbDictionary
281
1
  3
Normal
350
F
100
AcDbDictionaryWithDefault
340
F
  0
DICTIONARY
  5
17
102
{ACAD_REACTORS
330
C
102
}
100
AcDbDictionary
280
0
281
1
  3
Standard
350
18
  0
DICTIONARY
  5
19
102
{ACAD_REACTORS
330
C
102
}
100
AcDbDictionary
281
1
  0
DICTIONARY
  5
1A
102
{ACAD_REACTORS
330
C
102
}
100
AcDbDictionary
281
1
  3
Model
350
39C
  3
Layout1
350
39D
  0
ACDBPLACEHOLDER
  5
F
102
{ACAD_REACTORS
330
E
102
}
  0
MLINESTYLE
  5
18
102
{ACAD_REACTORS
330
17
102
}
100
AcDbMlineStyle
  2
STANDARD
 70
0
  3

 62
256
 51
90.0
 52
90.0
 71
2
 49
0.5
 62
256
  6
BYLAYER
 49
-0.5
 62
256
  6
BYLAYER
  0
LAYOUT
  5
39C
102
{ACAD_REACTORS
330
1A
102
}
100
AcDbPlotSettings
  1

  2
none_device
  4
ANSI_C_(22.00_x_17.00_Inches)
  6

 40
0.0
 41
0.0
 42
0.0
 43
0.0
 44
558.8
 45
431.8
 46
0.0
 47
0.0
 48
0.0
 49
0.0
140
0.0
141
0.0
142
1.0
143
1.0
 70
1024
 72
0
 73
0
 74
0
  7

 75
0
147
1.0
148
0.0
149
0.0
100
AcDbLayout
  1
Model
 70
0
 71
0
 10
0.0
 20
0.0
 11
22.0
 21
17.0
 12
0.0
 22
0.0
 32
0.0
 14
0.0
 24
0.0
 34
0.0
 15
0.0
 25
0.0
 35
0.0
146
0.0
 13
0.0
 23
0.0
 33
0.0
 16
1.0
 26
0.0
 36
0.0
 17
0.0
 27
1.0
 37
0.0
 76
0
330
202
345
0
346
0
  0
LAYOUT
  5
39D
102
{ACAD_REACTORS
330
1A
102
}
100
AcDbPlotSettings
  1

  2
none_device
  4
ANSI_C_(22.00_x_17.00_Inches)
  6

 40
0.0
 41
0.0
 42
0.0
 43
0.0
 44
558.8
 45
431.8
 46
0.0
 47
0.0
 48
0.0
 49
0.0
140
0.0
141
0.0
142
1.0
143
1.0
 70
0
 72
0
 73
0
 74
0
  7

 75
0
147
1.0
148
0.0
149
0.0
100
AcDbLayout
  1
Layout1
 70
0
 71
1
 10
0.0
 20
0.0
 11
22.0
 21
17.0
 12
0.0
 22
0.0
 32
0.0
 14
0.0
 24
0.0
 34
0.0
 15
0.0
 25
0.0
 35
0.0
146
0.0
 13
0.0
 23
0.0
 33
0.0
 16
1.0
 26
0.0
 36
0.0
 17
0.0
 27
1.0
 37
0.0
 76
0
330
203
345
0
346
0
  0
ENDSEC
  0
EOF
