999
DXF file: E:\BT Custom\CADOUTPUT\_FRONT.dxf
999
Pro/ENGINEER 2018400 by Parametric Technology Corporation
  0
SECTION
  2
HEADER
  9
$ACADVER
  1
AC1018
  9
$DWGCODEPAGE
  3
ANSI_1252
  9
$EXTMAX
 10
22.0
 20
17.0
 30
0.0
  9
$EXTMIN
 10
0.0
 20
0.0
 30
0.0
  9
$LIMMIN
 10
0.0
 20
0.0
  9
$LIMMAX
 10
22.0
 20
17.0
  9
$VIEWCTR
 10
11.0
 20
8.5
  9
$VIEWSIZE
 40
17.0
  9
$CLAYER
  8
0
  9
$LTSCALE
 40
1.21
  9
$CELTYPE
  6
BYLAYER
  9
$DIMSCALE
 40
1.0
  9
$DIMASZ
 40
0.1
  9
$DIMEXO
 40
0.0625
  9
$DIMDLI
 40
0.836
  9
$DIMEXE
 40
0.125
  9
$DIMCEN
 40
0.198
  9
$DIMLFAC
 40
1.0
  9
$DIMBLK
  1
_FILLED
  9
$DIMALT
 70
1
  9
$DIMALTD
 70
2
  9
$DIMALTTD
 70
2
  9
$DIMALTF
 40
25.4
  9
$DIMTXT
 40
0.08
  9
$DIMTOL
 70
1
  9
$DIMLIM
 70
0
  9
$DIMTFAC
 40
1.0
  9
$DIMTP
 40
0.001
  9
$DIMTM
 40
0.001
  9
$DIMGAP
 40
0.09
  9
$DIMDSEP
 70
46
  9
$AUNITS
 70
0
  9
$PDMODE
 70
3
  9
$PDSIZE
 40
0.06
  9
$HANDSEED
  5
614
  9
$TILEMODE
 70
1
  9
$MEASUREMENT
 70
0
  9
$INSUNITS
 70
1
  0
ENDSEC
  0
SECTION
  2
CLASSES
  0
CLASS
  1
ACDBDICTIONARYWDFLT
  2
AcDbDictionaryWithDefault
  3
AutoCAD 2000
 90
0
 91
1
280
0
281
0
  0
CLASS
  1
ACDBPLACEHOLDER
  2
AcDbPlaceHolder
  3
AutoCAD 2000
 90
0
 91
1
280
0
281
0
  0
CLASS
  1
LAYOUT
  2
AcDbLayout
  3
AutoCAD 2000
 90
0
 91
0
280
0
281
0
  0
ENDSEC
  0
SECTION
  2
TABLES
  0
TABLE
  2
VPORT
  5
8
100
AcDbSymbolTable
 70
2
  0
VPORT
  5
1F4
100
AcDbSymbolTableRecord
100
AcDbViewportTableRecord
  2
*ACTIVE
 70
0
 10
0.0
 20
0.0
 11
1.0
 21
1.0
 12
11.0
 22
8.5
 13
0.0
 23
0.0
 14
1.0
 24
1.0
 15
0.0
 25
0.0
 16
0.0
 26
0.0
 36
1.0
 17
0.0
 27
0.0
 37
0.0
 40
17.0
 41
1.2941176471
 42
50.0
 43
0.0
 44
0.0
 50
0.0
 51
0.0
 71
0
 72
100
 73
1
 74
1
 75
0
 76
0
 77
0
 78
0
  0
ENDTAB
  0
TABLE
  2
LTYPE
  5
5
100
AcDbSymbolTable
 70
6
  0
LTYPE
  5
14
100
AcDbSymbolTableRecord
100
AcDbLinetypeTableRecord
  2
BYBLOCK
 70
0
  3

 72
65
 73
0
 40
0.0
  0
LTYPE
  5
15
100
AcDbSymbolTableRecord
100
AcDbLinetypeTableRecord
  2
BYLAYER
 70
0
  3

 72
65
 73
0
 40
0.0
  0
LTYPE
  5
16
100
AcDbSymbolTableRecord
100
AcDbLinetypeTableRecord
  2
CONTINUOUS
 70
64
  3
Solid line
 72
65
 73
0
 40
0.0
  0
LTYPE
  5
1F5
100
AcDbSymbolTableRecord
100
AcDbLinetypeTableRecord
  2
CENTER
 70
64
  3
____ _ ____ _ ____ _ ____ _ ____ _ ____ _ ____
 72
65
 73
4
 40
0.6
 49
0.375
 74
0
 49
-0.075
 74
0
 49
0.075
 74
0
 49
-0.075
 74
0
  0
LTYPE
  5
1F6
100
AcDbSymbolTableRecord
100
AcDbLinetypeTableRecord
  2
HIDDEN
 70
64
  3
- - - - - - - - - - - - - - - - - - - -
 72
65
 73
2
 40
0.2
 49
0.1
 74
0
 49
-0.1
 74
0
  0
LTYPE
  5
1F7
100
AcDbSymbolTableRecord
100
AcDbLinetypeTableRecord
  2
PHANTOM
 70
64
  3
_____ _ _ _____ _ _ _____ _ _ _____
 72
65
 73
6
 40
0.8
 49
0.45
 74
0
 49
-0.05
 74
0
 49
0.1
 74
0
 49
-0.05
 74
0
 49
0.1
 74
0
 49
-0.05
 74
0
  0
LTYPE
  5
1F8
100
AcDbSymbolTableRecord
100
AcDbLinetypeTableRecord
  2
DOT
 70
64
  3
. . . . . . . . . . . . . . . . . . . .
 72
65
 73
2
 40
0.2
 49
0.1
 74
0
 49
-0.1
 74
0
  0
LTYPE
  5
1F9
100
AcDbSymbolTableRecord
100
AcDbLinetypeTableRecord
  2
DASHED
 70
64
  3
- - - - - - - - - - - - - - - - - - - -
 72
65
 73
2
 40
0.2
 49
0.1
 74
0
 49
-0.1
 74
0
  0
ENDTAB
  0
TABLE
  2
LAYER
  5
2
100
AcDbSymbolTable
 70
36
  0
LAYER
  5
10
100
AcDbSymbolTableRecord
100
AcDbLayerTableRecord
  2
0
 70
0
 62
7
  6
CONTINUOUS
370
-3
390
F
  0
LAYER
  5
1FA
100
AcDbSymbolTableRecord
100
AcDbLayerTableRecord
  2
DEFAULT_1
 70
0
 62
7
  6
CENTER
370
-3
390
F
  0
LAYER
  5
1FB
100
AcDbSymbolTableRecord
100
AcDbLayerTableRecord
  2
DEFAULT_2
 70
0
 62
8
  6
HIDDEN
370
-3
390
F
  0
LAYER
  5
1FC
100
AcDbSymbolTableRecord
100
AcDbLayerTableRecord
  2
DEFAULT_3
 70
0
 62
7
  6
PHANTOM
370
-3
390
F
  0
LAYER
  5
1FD
100
AcDbSymbolTableRecord
100
AcDbLayerTableRecord
  2
ALL_FEATURES
 70
0
 62
7
  6
CONTINUOUS
370
-3
390
F
  0
LAYER
  5
1FE
100
AcDbSymbolTableRecord
100
AcDbLayerTableRecord
  2
AXES_FEATURES
 70
0
 62
7
  6
CONTINUOUS
370
-3
390
F
  0
LAYER
  5
1FF
100
AcDbSymbolTableRecord
100
AcDbLayerTableRecord
  2
DIMENSIONS
 70
0
 62
7
  6
CONTINUOUS
370
-3
390
F
  0
ENDTAB
  0
TABLE
  2
STYLE
  5
3
100
AcDbSymbolTable
 70
1
  0
STYLE
  5
11
100
AcDbSymbolTableRecord
100
AcDbTextStyleTableRecord
  2
STANDARD
 70
0
 40
0.0
 41
0.8
 50
0.0
 71
0
 42
0.2
  3
txt
  4

  0
STYLE
  5
200
100
AcDbSymbolTableRecord
100
AcDbTextStyleTableRecord
  2
TEXTSTYLE_1
 70
0
 40
0.0
 41
0.8
 50
0.0
 71
0
 42
0.2
  3
gdt
  4

  0
ENDTAB
  0
TABLE
  2
VIEW
  5
6
100
AcDbSymbolTable
 70
0
  0
ENDTAB
  0
TABLE
  2
UCS
  5
7
100
AcDbSymbolTable
 70
0
  0
ENDTAB
  0
TABLE
  2
APPID
  5
9
100
AcDbSymbolTable
 70
1
  0
APPID
  5
201
100
AcDbSymbolTableRecord
100
AcDbRegAppTableRecord
  2
ACAD
 70
0
  0
ENDTAB
  0
TABLE
  2
BLOCK_RECORD
  5
1
100
AcDbSymbolTable
 70
0
  0
BLOCK_RECORD
  5
202
100
AcDbSymbolTableRecord
100
AcDbBlockTableRecord
  2
*Model_Space
  0
BLOCK_RECORD
  5
203
100
AcDbSymbolTableRecord
100
AcDbBlockTableRecord
  2
*Paper_Space
  0
BLOCK_RECORD
  5
204
100
AcDbSymbolTableRecord
100
AcDbBlockTableRecord
  2
_FILLED
  0
ENDTAB
  0
TABLE
  2
DIMSTYLE
  5
A
100
AcDbSymbolTable
 70
1
100
AcDbDimStyleTable
 71
0
  0
DIMSTYLE
105
205
100
AcDbSymbolTableRecord
100
AcDbDimStyleTableRecord
  2
STANDARD
 70
0
  3

  4

 40
1.0
 41
0.1
 42
0.0625
 43
0.38
 44
0.125
 45
0.0
 46
0.0
 47
0.001
 48
0.001
140
0.08
141
0.09
142
0.0
143
25.4
144
1.0
145
0.0
146
1.0
147
0.09
 71
1.0
 72
0.0
 73
1
 74
1
 75
0
 76
0
 77
0
 78
4
 79
1
170
1
171
2
172
0
173
0
174
0
175
0
176
0
177
0
178
0
270
2
179
3
271
3
272
3
273
2
274
2
275
0
280
0
281
0
282
0
283
1
284
4
285
0
286
0
287
3
288
0
340
11
278
46
341
204
342
204
343
204
344
204
  0
ENDTAB
  0
ENDSEC
  0
SECTION
  2
BLOCKS
  0
BLOCK
  5
20
100
AcDbEntity
  8
0
100
AcDbBlockBegin
  2
*Model_Space
 70
0
 10
0.0
 20
0.0
 30
0.0
  3
*Model_Space
  1

  0
ENDBLK
  5
21
100
AcDbEntity
  8
0
100
AcDbBlockEnd
  0
BLOCK
  5
1C
100
AcDbEntity
  8
0
100
AcDbBlockBegin
  2
*Paper_Space
 70
0
 10
0.0
 20
0.0
 30
0.0
  3
*Paper_Space
  1

  0
ENDBLK
  5
1D
100
AcDbEntity
  8
0
100
AcDbBlockEnd
  0
BLOCK
  5
206
100
AcDbEntity
  8
0
100
AcDbBlockBegin
  2
_FILLED
 70
64
 10
0.0
 20
0.0
  3
_FILLED
  1

  0
SOLID
  5
207
100
AcDbEntity
  8
0
  6
BYBLOCK
 62
0
100
AcDbTrace
 10
0.0
 20
0.0
 11
-1.0
 21
0.2
 12
-1.0
 22
-0.2
 13
-1.0
 23
-0.2
  0
ENDBLK
  5
208
100
AcDbEntity
  8
0
  6
BYBLOCK
 62
0
100
AcDbBlockEnd
  0
ENDSEC
  0
SECTION
  2
ENTITIES
  0
LINE
  5
209
100
AcDbEntity
  8
0
100
AcDbLine
 62
7
  6
CONTINUOUS
 10
18.2389651481
 20
-9.7456953097
 11
17.9880478054
 21
-9.7581976179
  0
LWPOLYLINE
  5
20A
100
AcDbEntity
  8
0
100
AcDbPolyline
 62
7
  6
CONTINUOUS
 90
36
 70
0
 10
17.9887608199
 20
-10.3182220715
 10
18.0682649591
 20
-10.3172597007
 10
18.4273640931
 20
-10.2852573087
 10
18.7501888201
 20
-10.2044450463
 10
19.0374004601
 20
-10.0674832703
 10
19.280257093
 20
-9.868305836
 10
19.4664092265
 20
-9.6074087493
 10
19.5870099907
 20
-9.2930494772
 10
19.6412384722
 20
-8.9406000016
 10
19.6375102585
 20
-8.5636243013
 10
19.5875675568
 20
-8.1743128507
 10
19.5014095596
 20
-7.77508058
 10
19.3858617383
 20
-7.3660520251
 10
19.2453069381
 20
-6.9464268023
 10
19.0827191231
 20
-6.514895023
 10
18.9007383603
 20
-6.0716067563
 10
18.7011077449
 20
-5.61598489
 10
18.4846859086
 20
-5.1463068257
 10
18.2524807999
 20
-4.6618427738
 10
18.0053471868
 20
-4.1618611693
 10
17.7436842265
 20
-3.6448862623
 10
17.4676688805
 20
-3.1091456567
 10
17.1777427938
 20
-2.5533763416
 10
16.8742267762
 20
-1.9759309476
 10
16.5573366493
 20
-1.374701702
 10
16.2272808132
 20
-0.7471501582
 10
15.8842432691
 20
-0.0900742987
 10
15.5286905281
 20
0.6001292077
 10
15.1616729327
 20
1.3273538225
 10
14.7850018384
 20
2.0961230293
 10
14.4017732756
 20
2.911566595
 10
14.014484383
 20
3.7856955282
 10
13.6280061072
 20
4.7371082318
 10
13.2600817192
 20
5.7757950062
 10
12.9484851923
 20
6.8940307849
 10
12.7618829143
 20
8.0013876121
  0
LINE
  5
20B
100
AcDbEntity
  8
0
100
AcDbLine
 62
7
  6
CONTINUOUS
 10
17.9887608199
 20
-10.3182220715
 11
17.9886216338
 21
-10.3182220832
  0
LINE
  5
20C
100
AcDbEntity
  8
0
100
AcDbLine
 62
7
  6
CONTINUOUS
 10
17.9883442954
 20
-9.7581976029
 11
17.9880478054
 21
-9.7581976179
  0
LINE
  5
20D
100
AcDbEntity
  8
0
100
AcDbLine
 62
7
  6
CONTINUOUS
 10
17.9883442954
 20
-9.7581976029
 11
17.898062781
 21
-9.756829653
  0
LWPOLYLINE
  5
20E
100
AcDbEntity
  8
0
100
AcDbPolyline
 62
7
  6
CONTINUOUS
 90
3
 70
0
 10
17.898062781
 20
-9.756829653
 10
17.6798535142
 20
-9.7434613562
 10
17.4817052451
 20
-9.7210997191
  0
LINE
  5
20F
100
AcDbEntity
  8
0
100
AcDbLine
 62
9
  6
CONTINUOUS
 10
17.4072282054
 20
-10.2761250974
 11
17.4076047484
 21
-10.2761501366
  0
LINE
  5
210
100
AcDbEntity
  8
0
100
AcDbLine
 62
9
  6
CONTINUOUS
 10
8.7393272056
 20
-9.1129871643
 11
8.7389506626
 21
-9.1129621251
  0
LWPOLYLINE
  5
211
100
AcDbEntity
  8
0
100
AcDbPolyline
 62
7
  6
CONTINUOUS
 90
3
 70
0
 10
17.4072277584
 20
-10.2761250374
 10
17.737377271
 20
-10.3096434132
 10
17.9886216338
 20
-10.3182220832
  0
LINE
  5
212
100
AcDbEntity
  8
0
100
AcDbLine
 62
7
  6
CONTINUOUS
 10
8.7389506626
 20
-9.1129621251
 11
17.4072282054
 21
-10.2761250974
  0
LINE
  5
213
100
AcDbEntity
  8
0
100
AcDbLine
 62
7
  6
CONTINUOUS
 10
4.5135434813
 20
-8.863946971
 11
4.3830434813
 21
-8.863946971
  0
LINE
  5
214
100
AcDbEntity
  8
0
100
AcDbLine
 62
7
  6
CONTINUOUS
 10
4.8668724264
 20
-8.7916123879
 11
4.7846355885
 21
-8.7916123879
  0
LINE
  5
215
100
AcDbEntity
  8
0
100
AcDbLine
 62
7
  6
CONTINUOUS
 10
4.1119513741
 20
-8.7916123879
 11
4.0297145361
 21
-8.7916123879
  0
LINE
  5
216
100
AcDbEntity
  8
0
100
AcDbLine
 62
7
  6
CONTINUOUS
 10
8.8134273984
 20
-8.5579367061
 11
17.481704941
 21
-9.7210996783
  0
LINE
  5
217
100
AcDbEntity
  8
0
100
AcDbLine
 62
7
  6
CONTINUOUS
 10
3.9080365199
 20
-7.4766123879
 11
4.9885504427
 21
-7.4766123879
  0
LINE
  5
218
100
AcDbEntity
  8
0
100
AcDbLine
 62
7
  6
CONTINUOUS
 10
3.6111355909
 20
27.4333876121
 11
3.6522540099
 21
27.5046068029
  0
LINE
  5
219
100
AcDbEntity
  8
0
100
AcDbLine
 62
7
  6
CONTINUOUS
 10
3.9885961171
 20
28.0871684213
 11
4.0297145361
 21
28.1583876121
  0
LINE
  5
21A
100
AcDbEntity
  8
0
100
AcDbLine
 62
7
  6
CONTINUOUS
 10
4.0297145361
 20
-8.7916123879
 11
3.9885961171
 21
-8.7203931971
  0
LINE
  5
21B
100
AcDbEntity
  8
0
100
AcDbLine
 62
7
  6
CONTINUOUS
 10
3.6522540099
 20
-8.1378315787
 11
3.6111355909
 21
-8.0666123879
  0
LINE
  5
21C
100
AcDbEntity
  8
0
100
AcDbLine
 62
7
  6
CONTINUOUS
 10
5.2854513716
 20
27.4333876121
 11
5.2443329526
 21
27.3621684213
  0
LINE
  5
21D
100
AcDbEntity
  8
0
100
AcDbLine
 62
9
  6
CONTINUOUS
 10
5.4865359147
 20
-5.068641805
 11
5.4879720992
 21
-5.0685297362
  0
LINE
  5
21E
100
AcDbEntity
  8
0
100
AcDbLine
 62
7
  6
CONTINUOUS
 10
5.2443329526
 20
-7.9953931971
 11
5.2854513716
 21
-8.0666123879
  0
LINE
  5
21F
100
AcDbEntity
  8
0
100
AcDbLine
 62
7
  6
CONTINUOUS
 10
2.2292934813
 20
10.0542590688
 11
2.2292934813
 21
9.3125161555
  0
LINE
  5
220
100
AcDbEntity
  8
0
100
AcDbLine
 62
9
  6
CONTINUOUS
 10
2.2425261145
 20
10.0700179454
 11
2.2425261145
 21
9.2967572788
  0
LINE
  5
221
100
AcDbEntity
  8
0
100
AcDbLine
 62
9
  6
CONTINUOUS
 10
2.3005051813
 20
10.1118376121
 11
2.3005051813
 21
9.2549376121
  0
LINE
  5
222
100
AcDbEntity
  8
0
100
AcDbLine
 62
9
  6
CONTINUOUS
 10
2.3432934813
 20
10.1259578608
 11
2.3432934813
 21
9.7696722694
  0
LINE
  5
223
100
AcDbEntity
  8
0
100
AcDbLine
 62
9
  6
CONTINUOUS
 10
2.3432934813
 20
9.5971029549
 11
2.3432934813
 21
9.2408173635
  0
LINE
  5
224
100
AcDbEntity
  8
0
100
AcDbLine
 62
7
  6
CONTINUOUS
 10
2.3602934798
 20
9.2487876114
 11
2.3602934798
 21
9.5568646514
  0
LINE
  5
225
100
AcDbEntity
  8
0
100
AcDbLine
 62
7
  6
CONTINUOUS
 10
2.3602934798
 20
9.8099105729
 11
2.3602934798
 21
10.1179876128
  0
LINE
  5
226
100
AcDbEntity
  8
0
100
AcDbLine
 62
9
  6
CONTINUOUS
 10
2.4000849705
 20
9.2098514492
 11
2.4000849301
 21
9.5003539321
  0
LINE
  5
227
100
AcDbEntity
  8
0
100
AcDbLine
 62
9
  6
CONTINUOUS
 10
2.4000851462
 20
9.8664215452
 11
2.4000849705
 21
10.1569237751
  0
LINE
  5
228
100
AcDbEntity
  8
0
100
AcDbLine
 62
7
  6
CONTINUOUS
 10
2.4082934813
 20
9.2105320104
 11
2.4082934813
 21
9.208881636
  0
LINE
  5
229
100
AcDbEntity
  8
0
100
AcDbLine
 62
7
  6
CONTINUOUS
 10
2.4082934813
 20
10.1562431611
 11
2.4082934813
 21
10.1578935883
  0
LINE
  5
22A
100
AcDbEntity
  8
0
100
AcDbLine
 62
7
  6
CONTINUOUS
 10
6.6537325364
 20
17.536307107
 11
6.6440952507
 21
17.5237436995
  0
LINE
  5
22B
100
AcDbEntity
  8
0
100
AcDbLine
 62
7
  6
CONTINUOUS
 10
6.3106133239
 20
17.0891469639
 11
6.30084767
 21
17.0764185954
  0
LINE
  5
22C
100
AcDbEntity
  8
0
100
AcDbLine
 62
9
  6
CONTINUOUS
 10
5.9063351294
 20
16.5137755259
 11
5.9001338853
 21
16.5056939438
  0
LINE
  5
22D
100
AcDbEntity
  8
0
100
AcDbLine
 62
9
  6
CONTINUOUS
 10
6.0006297041
 20
16.6366626048
 11
5.9926161019
 21
16.6262190756
  0
LINE
  5
22E
100
AcDbEntity
  8
0
100
AcDbLine
 62
9
  6
CONTINUOUS
 10
5.8578178624
 20
16.7770034333
 11
5.8475155248
 21
16.7688085922
  0
LINE
  5
22F
100
AcDbEntity
  8
0
100
AcDbLine
 62
9
  6
CONTINUOUS
 10
5.7365938499
 20
16.6805775219
 11
5.7286230882
 21
16.6742372834
  0
LINE
  5
230
100
AcDbEntity
  8
0
100
AcDbLine
 62
7
  6
CONTINUOUS
 10
5.7981146169
 20
16.7533678168
 11
5.7627819303
 21
16.7255755096
  0
LINE
  5
231
100
AcDbEntity
  8
0
100
AcDbLine
 62
7
  6
CONTINUOUS
 10
5.8210248935
 20
16.7213153424
 11
5.7884995207
 21
16.6957370314
  0
LINE
  5
232
100
AcDbEntity
  8
0
100
AcDbLine
 62
9
  6
CONTINUOUS
 10
4.9579182752
 20
16.4882044013
 11
4.9584549871
 21
16.4885896401
  0
LINE
  5
233
100
AcDbEntity
  8
0
100
AcDbLine
 62
9
  6
CONTINUOUS
 10
4.9305654503
 20
16.4964197469
 11
4.9311036043
 21
16.4968058188
  0
LINE
  5
234
100
AcDbEntity
  8
0
100
AcDbLine
 62
9
  6
CONTINUOUS
 10
5.0507880996
 20
16.3382274949
 11
5.0303801582
 21
16.3248538551
  0
LINE
  5
235
100
AcDbEntity
  8
0
100
AcDbLine
 62
9
  6
CONTINUOUS
 10
4.7791021911
 20
16.2047129107
 11
4.7791954951
 21
16.2047696336
  0
LINE
  5
236
100
AcDbEntity
  8
0
100
AcDbLine
 62
9
  6
CONTINUOUS
 10
7.2085282018
 20
17.7053209283
 11
7.2198708384
 21
17.7120022425
  0
LINE
  5
237
100
AcDbEntity
  8
0
100
AcDbLine
 62
9
  6
CONTINUOUS
 10
7.3419923649
 20
17.7839373202
 11
7.3507679356
 21
17.7891065373
  0
LINE
  5
238
100
AcDbEntity
  8
0
100
AcDbLine
 62
9
  6
CONTINUOUS
 10
4.7014191325
 20
16.3392636405
 11
4.7015146651
 21
16.3393159507
  0
LINE
  5
239
100
AcDbEntity
  8
0
100
AcDbLine
 62
9
  6
CONTINUOUS
 10
4.9311033135
 20
16.496806394
 11
4.9528892943
 21
16.5077934205
  0
LINE
  5
23A
100
AcDbEntity
  8
0
100
AcDbLine
 62
9
  6
CONTINUOUS
 10
5.0297764209
 20
16.3245813139
 11
5.0303798458
 21
16.3248543329
  0
LINE
  5
23B
100
AcDbEntity
  8
0
100
AcDbLine
 62
9
  6
CONTINUOUS
 10
5.0369400316
 20
16.3526494498
 11
5.036337361
 21
16.3523768651
  0
LINE
  5
23C
100
AcDbEntity
  8
0
100
AcDbLine
 62
9
  6
CONTINUOUS
 10
7.2883684333
 20
17.5217009202
 11
7.3009901819
 21
17.5254396524
  0
LINE
  5
23D
100
AcDbEntity
  8
0
100
AcDbLine
 62
9
  6
CONTINUOUS
 10
7.4368867884
 20
17.5656940657
 11
7.4466526579
 21
17.5685868466
  0
LINE
  5
23E
100
AcDbEntity
  8
0
100
AcDbLine
 62
7
  6
CONTINUOUS
 10
2.8002934813
 20
9.2092162553
 11
2.8002934813
 21
9.208881636
  0
LINE
  5
23F
100
AcDbEntity
  8
0
100
AcDbLine
 62
7
  6
CONTINUOUS
 10
2.8002934813
 20
10.1575575986
 11
2.8002934813
 21
10.1578935883
  0
LINE
  5
240
100
AcDbEntity
  8
0
100
AcDbLine
 62
9
  6
CONTINUOUS
 10
2.8082318639
 20
10.1582671671
 11
2.8082318593
 21
9.8667376242
  0
LINE
  5
241
100
AcDbEntity
  8
0
100
AcDbLine
 62
9
  6
CONTINUOUS
 10
2.8082316829
 20
9.5000373935
 11
2.8082318639
 21
9.2085080571
  0
LINE
  5
242
100
AcDbEntity
  8
0
100
AcDbLine
 62
7
  6
CONTINUOUS
 10
2.8522934813
 20
9.2694286578
 11
2.8522934813
 21
9.5657181786
  0
LINE
  5
243
100
AcDbEntity
  8
0
100
AcDbLine
 62
7
  6
CONTINUOUS
 10
2.8522934813
 20
9.8010570457
 11
2.8522934813
 21
10.097338224
  0
LINE
  5
244
100
AcDbEntity
  8
0
100
AcDbLine
 62
9
  6
CONTINUOUS
 10
2.9490534813
 20
9.8658876121
 11
2.9490534813
 21
9.5008876121
  0
LINE
  5
245
100
AcDbEntity
  8
0
100
AcDbLine
 62
7
  6
CONTINUOUS
 10
3.3632934813
 20
9.5008876121
 11
3.3632934813
 21
9.8658876121
  0
LINE
  5
246
100
AcDbEntity
  8
0
100
AcDbLine
 62
7
  6
CONTINUOUS
 10
3.3862934813
 20
10.0033876121
 11
3.3862934813
 21
9.3633876121
  0
LINE
  5
247
100
AcDbEntity
  8
0
100
AcDbLine
 62
7
  6
CONTINUOUS
 10
3.7592934813
 20
10.6729174092
 11
3.7592934813
 21
10.626300998
  0
LINE
  5
248
100
AcDbEntity
  8
0
100
AcDbLine
 62
7
  6
CONTINUOUS
 10
3.7592934813
 20
10.4964742263
 11
3.7592934813
 21
10.4511041471
  0
LINE
  5
249
100
AcDbEntity
  8
0
100
AcDbLine
 62
7
  6
CONTINUOUS
 10
3.7592934813
 20
8.6938578151
 11
3.7592934813
 21
8.7404742263
  0
LINE
  5
24A
100
AcDbEntity
  8
0
100
AcDbLine
 62
7
  6
CONTINUOUS
 10
3.7592934813
 20
8.870300998
 11
3.7592934813
 21
8.9156710771
  0
LINE
  5
24B
100
AcDbEntity
  8
0
100
AcDbLine
 62
7
  6
CONTINUOUS
 10
3.7982934813
 20
10.4333876121
 11
3.7982934813
 21
10.0633875478
  0
LINE
  5
24C
100
AcDbEntity
  8
0
100
AcDbLine
 62
7
  6
CONTINUOUS
 10
3.7982934813
 20
9.3033877027
 11
3.7982934813
 21
8.9333876121
  0
LINE
  5
24D
100
AcDbEntity
  8
0
100
AcDbLine
 62
7
  6
CONTINUOUS
 10
3.9482934813
 20
-7.4766123879
 11
3.9482934813
 21
8.5883876121
  0
LINE
  5
24E
100
AcDbEntity
  8
0
100
AcDbLine
 62
7
  6
CONTINUOUS
 10
3.9482934813
 20
10.7783876121
 11
3.9482934813
 21
26.8433876121
  0
LINE
  5
24F
100
AcDbEntity
  8
0
100
AcDbLine
 62
9
  6
CONTINUOUS
 10
6.1731509542
 20
16.5350398372
 11
6.1679017468
 21
16.5229675058
  0
LINE
  5
250
100
AcDbEntity
  8
0
100
AcDbLine
 62
9
  6
CONTINUOUS
 10
6.111385723
 20
16.3929895781
 11
6.1073245247
 21
16.3836494439
  0
LINE
  5
251
100
AcDbEntity
  8
0
100
AcDbLine
 62
7
  6
CONTINUOUS
 10
2.7720807769
 20
10.5915648351
 11
2.8295602934
 21
10.6736540921
  0
LINE
  5
252
100
AcDbEntity
  8
0
100
AcDbLine
 62
7
  6
CONTINUOUS
 10
6.3476992452
 20
17.0404681173
 11
6.3573385051
 21
17.0530302732
  0
LINE
  5
253
100
AcDbEntity
  8
0
100
AcDbLine
 62
7
  6
CONTINUOUS
 10
6.6909434866
 20
17.4877957253
 11
6.7005841116
 21
17.5003566289
  0
LINE
  5
254
100
AcDbEntity
  8
0
100
AcDbLine
 62
7
  6
CONTINUOUS
 10
6.1106727741
 20
14.4983877068
 11
5.9667261165
 21
14.3206283887
  0
LINE
  5
255
100
AcDbEntity
  8
0
100
AcDbLine
 62
7
  6
CONTINUOUS
 10
2.7720807769
 20
8.7752103891
 11
2.8295602934
 21
8.6931211321
  0
LINE
  5
256
100
AcDbEntity
  8
0
100
AcDbLine
 62
7
  6
CONTINUOUS
 10
4.9482934813
 20
-7.4766123879
 11
4.9482934813
 21
8.5883876121
  0
LINE
  5
257
100
AcDbEntity
  8
0
100
AcDbLine
 62
7
  6
CONTINUOUS
 10
4.9482934813
 20
10.7783876121
 11
4.9482934813
 21
15.8033562241
  0
LINE
  5
258
100
AcDbEntity
  8
0
100
AcDbLine
 62
7
  6
CONTINUOUS
 10
4.9482934813
 20
18.7734190002
 11
4.9482934813
 21
26.8433876121
  0
LINE
  5
259
100
AcDbEntity
  8
0
100
AcDbLine
 62
7
  6
CONTINUOUS
 10
5.0982934813
 20
10.4333876121
 11
5.0982934813
 21
10.348387393
  0
LINE
  5
25A
100
AcDbEntity
  8
0
100
AcDbLine
 62
7
  6
CONTINUOUS
 10
5.0982934813
 20
9.0183878312
 11
5.0982934813
 21
8.9333876121
  0
LINE
  5
25B
100
AcDbEntity
  8
0
100
AcDbLine
 62
7
  6
CONTINUOUS
 10
5.1372934813
 20
10.6729174092
 11
5.1372934813
 21
10.626300998
  0
LINE
  5
25C
100
AcDbEntity
  8
0
100
AcDbLine
 62
7
  6
CONTINUOUS
 10
5.1372934813
 20
10.4964742263
 11
5.1372934813
 21
10.4511041471
  0
LINE
  5
25D
100
AcDbEntity
  8
0
100
AcDbLine
 62
7
  6
CONTINUOUS
 10
5.1372934813
 20
8.6938578151
 11
5.1372934813
 21
8.7404742263
  0
LINE
  5
25E
100
AcDbEntity
  8
0
100
AcDbLine
 62
7
  6
CONTINUOUS
 10
5.1372934813
 20
8.870300998
 11
5.1372934813
 21
8.9156710771
  0
LINE
  5
25F
100
AcDbEntity
  8
0
100
AcDbLine
 62
7
  6
CONTINUOUS
 10
5.3122934813
 20
10.3183824369
 11
5.3122934813
 21
9.0483927873
  0
LINE
  5
260
100
AcDbEntity
  8
0
100
AcDbLine
 62
9
  6
CONTINUOUS
 10
5.3272934813
 20
10.3333876121
 11
5.3272934813
 21
9.0333876121
  0
LINE
  5
261
100
AcDbEntity
  8
0
100
AcDbLine
 62
7
  6
CONTINUOUS
 10
5.3722934813
 20
9.0333876121
 11
5.3722934813
 21
10.3333876121
  0
LINE
  5
262
100
AcDbEntity
  8
0
100
AcDbLine
 62
9
  6
CONTINUOUS
 10
6.7616416735
 20
18.2292555883
 11
6.7643635786
 21
18.2390704573
  0
LINE
  5
263
100
AcDbEntity
  8
0
100
AcDbLine
 62
9
  6
CONTINUOUS
 10
6.7202472399
 20
18.0799920678
 11
6.723765123
 21
18.0926771444
  0
LINE
  5
264
100
AcDbEntity
  8
0
100
AcDbLine
 62
7
  6
CONTINUOUS
 10
2.4365061857
 20
8.7752103891
 11
2.3790266691
 21
8.6931211321
  0
LINE
  5
265
100
AcDbEntity
  8
0
100
AcDbLine
 62
7
  6
CONTINUOUS
 10
2.4365061857
 20
10.5915648351
 11
2.3790266691
 21
10.6736540921
  0
LINE
  5
266
100
AcDbEntity
  8
0
100
AcDbLine
 62
7
  6
CONTINUOUS
 10
6.0907158908
 20
9.0013876121
 11
6.0845568384
 21
9.1833876121
  0
LINE
  5
267
100
AcDbEntity
  8
0
100
AcDbLine
 62
7
  6
CONTINUOUS
 10
5.4872934813
 20
10.3333876121
 11
5.4872934813
 21
9.0333876121
  0
LINE
  5
268
100
AcDbEntity
  8
0
100
AcDbLine
 62
9
  6
CONTINUOUS
 10
5.5153679133
 20
9.0333876121
 11
5.5153679133
 21
10.3333876121
  0
LINE
  5
269
100
AcDbEntity
  8
0
100
AcDbLine
 62
9
  6
CONTINUOUS
 10
5.5438855655
 20
10.3127013131
 11
5.5438855641
 21
9.0540739109
  0
LINE
  5
26A
100
AcDbEntity
  8
0
100
AcDbLine
 62
9
  6
CONTINUOUS
 10
5.7062574594
 20
10.0466732806
 11
5.7062574592
 21
9.3201019437
  0
LINE
  5
26B
100
AcDbEntity
  8
0
100
AcDbLine
 62
7
  6
CONTINUOUS
 10
5.7222934813
 20
9.3466552372
 11
5.7222934813
 21
10.0201199866
  0
LINE
  5
26C
100
AcDbEntity
  8
0
100
AcDbLine
 62
7
  6
CONTINUOUS
 10
5.7402934813
 20
9.4133912264
 11
5.7402934813
 21
9.9533872482
  0
LINE
  5
26D
100
AcDbEntity
  8
0
100
AcDbLine
 62
7
  6
CONTINUOUS
 10
5.8657158908
 20
10.3383876121
 11
5.8657158908
 21
10.4083876121
  0
LINE
  5
26E
100
AcDbEntity
  8
0
100
AcDbLine
 62
7
  6
CONTINUOUS
 10
5.8657158908
 20
14.1883876121
 11
5.8657158908
 21
14.2583876121
  0
LINE
  5
26F
100
AcDbEntity
  8
0
100
AcDbLine
 62
7
  6
CONTINUOUS
 10
6.1257158908
 20
14.5381228127
 11
6.1257158908
 21
15.1755669026
  0
LINE
  5
270
100
AcDbEntity
  8
0
100
AcDbLine
 62
7
  6
CONTINUOUS
 10
6.1357158908
 20
10.1833876121
 11
6.1357158908
 21
10.2983876121
  0
LINE
  5
271
100
AcDbEntity
  8
0
100
AcDbLine
 62
7
  6
CONTINUOUS
 10
6.2207158908
 20
9.0013876121
 11
6.2207158908
 21
4.3205465162
  0
LINE
  5
272
100
AcDbEntity
  8
0
100
AcDbLine
 62
7
  6
CONTINUOUS
 10
6.7807158908
 20
9.0013876121
 11
6.7807158908
 21
4.3205465162
  0
LINE
  5
273
100
AcDbEntity
  8
0
100
AcDbLine
 62
9
  6
CONTINUOUS
 10
6.5222197649
 20
18.1095874911
 11
6.5225643707
 21
18.1227471495
  0
LINE
  5
274
100
AcDbEntity
  8
0
100
AcDbLine
 62
9
  6
CONTINUOUS
 10
6.5262745145
 20
18.264431861
 11
6.5265411138
 21
18.2746132348
  0
LINE
  5
275
100
AcDbEntity
  8
0
100
AcDbLine
 62
7
  6
CONTINUOUS
 10
6.2169414663
 20
4.2243520819
 11
5.4865359147
 21
-5.068641805
  0
LINE
  5
276
100
AcDbEntity
  8
0
100
AcDbLine
 62
9
  6
CONTINUOUS
 10
6.2183776508
 20
4.2244641508
 11
6.2169414663
 21
4.2243520819
  0
LINE
  5
277
100
AcDbEntity
  8
0
100
AcDbLine
 62
9
  6
CONTINUOUS
 10
6.2207158908
 20
4.3205465162
 11
6.7807158908
 21
4.3205465162
  0
LINE
  5
278
100
AcDbEntity
  8
0
100
AcDbLine
 62
7
  6
CONTINUOUS
 10
6.8657158908
 20
10.2983876121
 11
6.8657158908
 21
10.1833876121
  0
LINE
  5
279
100
AcDbEntity
  8
0
100
AcDbLine
 62
7
  6
CONTINUOUS
 10
6.8757158908
 20
14.5381228129
 11
6.8757158908
 21
15.1755669026
  0
LINE
  5
27A
100
AcDbEntity
  8
0
100
AcDbLine
 62
7
  6
CONTINUOUS
 10
7.1357158908
 20
10.3383876121
 11
7.1357158908
 21
10.4083876121
  0
LINE
  5
27B
100
AcDbEntity
  8
0
100
AcDbLine
 62
7
  6
CONTINUOUS
 10
7.1357158908
 20
14.1883876121
 11
7.1357158908
 21
14.2583876121
  0
LINE
  5
27C
100
AcDbEntity
  8
0
100
AcDbLine
 62
7
  6
CONTINUOUS
 10
6.9107158908
 20
9.0013876121
 11
6.9176698891
 21
9.2068782627
  0
LINE
  5
27D
100
AcDbEntity
  8
0
100
AcDbLine
 62
7
  6
CONTINUOUS
 10
6.9487633651
 20
10.1256904775
 11
6.9507158908
 21
10.1833876121
  0
LINE
  5
27E
100
AcDbEntity
  8
0
100
AcDbLine
 62
7
  6
CONTINUOUS
 10
6.7752197231
 20
4.1804728388
 11
6.0448141715
 21
-5.1125210481
  0
LINE
  5
27F
100
AcDbEntity
  8
0
100
AcDbLine
 62
9
  6
CONTINUOUS
 10
6.9104643727
 20
10.1678237647
 11
6.9078580082
 21
10.1650773725
  0
LINE
  5
280
100
AcDbEntity
  8
0
100
AcDbLine
 62
7
  6
CONTINUOUS
 10
2.3432934813
 20
9.2408173635
 11
2.3602934798
 21
9.2487876114
  0
LINE
  5
281
100
AcDbEntity
  8
0
100
AcDbLine
 62
7
  6
CONTINUOUS
 10
2.3432934813
 20
10.1259578608
 11
2.3602934798
 21
10.1179876128
  0
LINE
  5
282
100
AcDbEntity
  8
0
100
AcDbLine
 62
9
  6
CONTINUOUS
 10
6.9078576073
 20
9.2016974713
 11
6.9104640049
 21
9.1989511106
  0
LINE
  5
283
100
AcDbEntity
  8
0
100
AcDbLine
 62
7
  6
CONTINUOUS
 10
6.5072058876
 20
17.0128734934
 11
6.5092724457
 21
16.9971747087
  0
LINE
  5
284
100
AcDbEntity
  8
0
100
AcDbLine
 62
7
  6
CONTINUOUS
 10
6.4336094426
 20
17.5718922759
 11
6.4356768617
 21
17.556193643
  0
LINE
  5
285
100
AcDbEntity
  8
0
100
AcDbLine
 62
7
  6
CONTINUOUS
 10
6.5678223391
 20
17.0048829484
 11
6.5657551807
 21
17.0205816397
  0
LINE
  5
286
100
AcDbEntity
  8
0
100
AcDbLine
 62
7
  6
CONTINUOUS
 10
6.4942731883
 20
17.5635536543
 11
6.492159336
 21
17.5796005156
  0
LINE
  5
287
100
AcDbEntity
  8
0
100
AcDbLine
 62
7
  6
CONTINUOUS
 10
12.1641424923
 20
8.0013876121
 11
12.7759263975
 21
8.0013876121
  0
LWPOLYLINE
  5
288
100
AcDbEntity
  8
0
100
AcDbPolyline
 62
7
  6
CONTINUOUS
 90
5
 70
0
 10
6.9104645611
 20
10.1678235859
 10
6.904798853
 20
10.1724950334
 10
6.8933278627
 20
10.1788117682
 10
6.880105668
 20
10.1825415221
 10
6.8697235277
 20
10.1833876118
  0
LINE
  5
289
100
AcDbEntity
  8
0
100
AcDbLine
 62
7
  6
CONTINUOUS
 10
4.9282156891
 20
16.2908659075
 11
4.9282194249
 21
16.2908600184
  0
LINE
  5
28A
100
AcDbEntity
  8
0
100
AcDbLine
 62
7
  6
CONTINUOUS
 10
4.9282242896
 20
16.2908624774
 11
4.928635497
 21
16.2902030264
  0
LINE
  5
28B
100
AcDbEntity
  8
0
100
AcDbLine
 62
7
  6
CONTINUOUS
 10
4.6373561414
 20
16.2008607409
 11
4.6272101193
 21
16.2184341667
  0
LINE
  5
28C
100
AcDbEntity
  8
0
100
AcDbLine
 62
9
  6
CONTINUOUS
 10
4.7065982754
 20
16.2414867123
 11
4.6970143076
 21
16.2580866315
  0
LINE
  5
28D
100
AcDbEntity
  8
0
100
AcDbLine
 62
9
  6
CONTINUOUS
 10
5.2698855919
 20
16.5907531889
 11
5.2811326756
 21
16.5712751149
  0
LINE
  5
28E
100
AcDbEntity
  8
0
100
AcDbLine
 62
7
  6
CONTINUOUS
 10
5.2881957172
 20
16.601288699
 11
5.2937884392
 21
16.591567721
  0
LINE
  5
28F
100
AcDbEntity
  8
0
100
AcDbLine
 62
7
  6
CONTINUOUS
 10
4.8502224741
 20
16.4260183411
 11
4.8505832284
 21
16.4253298089
  0
LINE
  5
290
100
AcDbEntity
  8
0
100
AcDbLine
 62
7
  6
CONTINUOUS
 10
4.8502224709
 20
16.4260183393
 11
4.8505832268
 21
16.4253298119
  0
LINE
  5
291
100
AcDbEntity
  8
0
100
AcDbLine
 62
9
  6
CONTINUOUS
 10
6.7884047349
 20
16.5189288497
 11
6.7930149184
 21
16.5065983309
  0
LINE
  5
292
100
AcDbEntity
  8
0
100
AcDbLine
 62
9
  6
CONTINUOUS
 10
6.8426509634
 20
16.3738407025
 11
6.8462177818
 21
16.3643008388
  0
LINE
  5
293
100
AcDbEntity
  8
0
100
AcDbLine
 62
9
  6
CONTINUOUS
 10
6.3229147804
 20
18.0903966039
 11
6.3200655399
 21
18.1032487318
  0
LINE
  5
294
100
AcDbEntity
  8
0
100
AcDbLine
 62
9
  6
CONTINUOUS
 10
6.2893888537
 20
18.2416223693
 11
6.2871844391
 21
18.2515658091
  0
LINE
  5
295
100
AcDbEntity
  8
0
100
AcDbLine
 62
7
  6
CONTINUOUS
 10
3.8672886633
 20
8.5883876121
 11
5.0292982992
 21
8.5883876121
  0
LINE
  5
296
100
AcDbEntity
  8
0
100
AcDbLine
 62
9
  6
CONTINUOUS
 10
5.0391160421
 20
8.5964871112
 11
3.8574709204
 21
8.5964871112
  0
LINE
  5
297
100
AcDbEntity
  8
0
100
AcDbLine
 62
9
  6
CONTINUOUS
 10
5.1222433098
 20
8.6763430751
 11
3.7743436527
 21
8.6763430751
  0
LINE
  5
298
100
AcDbEntity
  8
0
100
AcDbLine
 62
9
  6
CONTINUOUS
 10
2.3790266691
 20
8.6931211321
 11
2.8295602934
 21
8.6931211321
  0
LINE
  5
299
100
AcDbEntity
  8
0
100
AcDbLine
 62
9
  6
CONTINUOUS
 10
3.7592934813
 20
8.6938578151
 11
5.1372851868
 21
8.6938578151
  0
LINE
  5
29A
100
AcDbEntity
  8
0
100
AcDbLine
 62
7
  6
CONTINUOUS
 10
5.1372934813
 20
8.7404742263
 11
3.7592934813
 21
8.7404742263
  0
LINE
  5
29B
100
AcDbEntity
  8
0
100
AcDbLine
 62
9
  6
CONTINUOUS
 10
2.7720807769
 20
8.7752103891
 11
2.4365061857
 21
8.7752103891
  0
LINE
  5
29C
100
AcDbEntity
  8
0
100
AcDbLine
 62
7
  6
CONTINUOUS
 10
2.4152056302
 20
8.8003876121
 11
2.7933813323
 21
8.8003876121
  0
LINE
  5
29D
100
AcDbEntity
  8
0
100
AcDbLine
 62
9
  6
CONTINUOUS
 10
2.413376188
 20
8.8252507707
 11
2.7952107745
 21
8.8252507707
  0
LINE
  5
29E
100
AcDbEntity
  8
0
100
AcDbLine
 62
7
  6
CONTINUOUS
 10
3.7592934813
 20
8.870300998
 11
5.1372934813
 21
8.870300998
  0
LINE
  5
29F
100
AcDbEntity
  8
0
100
AcDbLine
 62
9
  6
CONTINUOUS
 10
5.1372934813
 20
8.9156710771
 11
3.7593004604
 21
8.9156710771
  0
LINE
  5
2A0
100
AcDbEntity
  8
0
100
AcDbLine
 62
7
  6
CONTINUOUS
 10
5.1195769382
 20
8.9333876121
 11
3.7770100243
 21
8.9333876121
  0
LINE
  5
2A1
100
AcDbEntity
  8
0
100
AcDbLine
 62
7
  6
CONTINUOUS
 10
6.0907920013
 20
9.0013876121
 11
6.9106397803
 21
9.0013876121
  0
LINE
  5
2A2
100
AcDbEntity
  8
0
100
AcDbLine
 62
7
  6
CONTINUOUS
 10
12.0331399155
 20
9.0013876121
 11
12.9069289743
 21
9.0013876121
  0
LINE
  5
2A3
100
AcDbEntity
  8
0
100
AcDbLine
 62
7
  6
CONTINUOUS
 10
5.5153679133
 20
9.0333876121
 11
5.4872934813
 21
9.0333876121
  0
LINE
  5
2A4
100
AcDbEntity
  8
0
100
AcDbLine
 62
7
  6
CONTINUOUS
 10
5.3722934813
 20
9.0333876121
 11
5.3272934813
 21
9.0333876121
  0
LINE
  5
2A5
100
AcDbEntity
  8
0
100
AcDbLine
 62
7
  6
CONTINUOUS
 10
11.9760344449
 20
9.0537123922
 11
11.9863224877
 21
9.0537123922
  0
LINE
  5
2A6
100
AcDbEntity
  8
0
100
AcDbLine
 62
7
  6
CONTINUOUS
 10
12.2221369816
 20
9.0537123922
 11
12.3150349965
 21
9.0537123922
  0
LINE
  5
2A7
100
AcDbEntity
  8
0
100
AcDbLine
 62
7
  6
CONTINUOUS
 10
12.7161358933
 20
9.0537123922
 11
12.7987469537
 21
9.0537123922
  0
LINE
  5
2A8
100
AcDbEntity
  8
0
100
AcDbLine
 62
7
  6
CONTINUOUS
 10
5.3122934813
 20
9.0983876121
 11
5.1782934813
 21
9.0983876121
  0
LINE
  5
2A9
100
AcDbEntity
  8
0
100
AcDbLine
 62
7
  6
CONTINUOUS
 10
5.9015346821
 20
9.1833876121
 11
6.8697325966
 21
9.1833876121
  0
LINE
  5
2AA
100
AcDbEntity
  8
0
100
AcDbLine
 62
9
  6
CONTINUOUS
 10
2.7909714113
 20
9.1867215965
 11
2.4176155512
 21
9.1867215965
  0
LINE
  5
2AB
100
AcDbEntity
  8
0
100
AcDbLine
 62
9
  6
CONTINUOUS
 10
6.9078576071
 20
9.2016974714
 11
5.9420614384
 21
9.2016974713
  0
LINE
  5
2AC
100
AcDbEntity
  8
0
100
AcDbLine
 62
9
  6
CONTINUOUS
 10
5.9420614384
 20
9.2016974713
 11
5.8628605373
 21
9.2016967609
  0
LINE
  5
2AD
100
AcDbEntity
  8
0
100
AcDbLine
 62
9
  6
CONTINUOUS
 10
2.4082934813
 20
9.2088816335
 11
2.8002934813
 21
9.2088816335
  0
LINE
  5
2AE
100
AcDbEntity
  8
0
100
AcDbLine
 62
7
  6
CONTINUOUS
 10
3.7382934813
 20
9.3633876121
 11
3.3862934813
 21
9.3633876121
  0
LINE
  5
2AF
100
AcDbEntity
  8
0
100
AcDbLine
 62
7
  6
CONTINUOUS
 10
5.7222934813
 20
9.4358876121
 11
5.7402934813
 21
9.4358876121
  0
LINE
  5
2B0
100
AcDbEntity
  8
0
100
AcDbLine
 62
7
  6
CONTINUOUS
 10
12.7987469537
 20
9.459062832
 11
12.7161358933
 21
9.459062832
  0
LINE
  5
2B1
100
AcDbEntity
  8
0
100
AcDbLine
 62
7
  6
CONTINUOUS
 10
12.3150349965
 20
9.459062832
 11
12.2221369816
 21
9.459062832
  0
LINE
  5
2B2
100
AcDbEntity
  8
0
100
AcDbLine
 62
7
  6
CONTINUOUS
 10
11.9863224877
 20
9.459062832
 11
11.9760344449
 21
9.459062832
  0
LINE
  5
2B3
100
AcDbEntity
  8
0
100
AcDbLine
 62
7
  6
CONTINUOUS
 10
6.8907590057
 20
14.498387709
 11
7.0347056651
 21
14.3206283887
  0
LINE
  5
2B4
100
AcDbEntity
  8
0
100
AcDbLine
 62
7
  6
CONTINUOUS
 10
11.9150344449
 20
9.6948876121
 11
11.9150344449
 21
9.5948876121
  0
LINE
  5
2B5
100
AcDbEntity
  8
0
100
AcDbLine
 62
7
  6
CONTINUOUS
 10
11.9760355332
 20
9.0537123922
 11
11.9760355332
 21
9.459062832
  0
LINE
  5
2B6
100
AcDbEntity
  8
0
100
AcDbLine
 62
7
  6
CONTINUOUS
 10
11.9863224877
 20
9.459062832
 11
11.9863224877
 21
9.0537123922
  0
LINE
  5
2B7
100
AcDbEntity
  8
0
100
AcDbLine
 62
7
  6
CONTINUOUS
 10
12.0150344449
 20
9.7948876121
 11
12.0150344449
 21
10.4548876121
  0
LINE
  5
2B8
100
AcDbEntity
  8
0
100
AcDbLine
 62
7
  6
CONTINUOUS
 10
12.1050344449
 20
9.5148876121
 11
12.1050344449
 21
9.5948876121
  0
LINE
  5
2B9
100
AcDbEntity
  8
0
100
AcDbLine
 62
7
  6
CONTINUOUS
 10
12.1640344449
 20
9.0013876121
 11
12.1640344449
 21
8.0013876121
  0
LINE
  5
2BA
100
AcDbEntity
  8
0
100
AcDbLine
 62
7
  6
CONTINUOUS
 10
12.2221369816
 20
9.0537123922
 11
12.2221369816
 21
9.459062832
  0
LINE
  5
2BB
100
AcDbEntity
  8
0
100
AcDbLine
 62
7
  6
CONTINUOUS
 10
12.3150349965
 20
9.459062832
 11
12.3150349965
 21
9.0537123922
  0
LINE
  5
2BC
100
AcDbEntity
  8
0
100
AcDbLine
 62
7
  6
CONTINUOUS
 10
12.1010344449
 20
9.5148876121
 11
12.0975344449
 21
9.5113876121
  0
LWPOLYLINE
  5
2BD
100
AcDbEntity
  8
0
100
AcDbPolyline
 62
7
  6
CONTINUOUS
 90
5
 70
0
 10
6.8697198187
 20
9.1833876128
 10
6.8797318833
 20
9.1841732038
 10
6.8929597476
 20
9.1878138484
 10
6.9044604612
 20
9.1940401815
 10
6.9104650326
 20
9.1989520859
  0
LINE
  5
2BE
100
AcDbEntity
  8
0
100
AcDbLine
 62
7
  6
CONTINUOUS
 10
2.8092713021
 20
10.1583548482
 11
2.8092910169
 21
10.1583552899
  0
LINE
  5
2BF
100
AcDbEntity
  8
0
100
AcDbLine
 62
7
  6
CONTINUOUS
 10
3.3632934813
 20
9.5008876121
 11
2.9490534813
 21
9.5008876121
  0
LINE
  5
2C0
100
AcDbEntity
  8
0
100
AcDbLine
 62
7
  6
CONTINUOUS
 10
12.90689356
 20
9.5113876121
 11
12.0331753298
 21
9.5113876121
  0
LINE
  5
2C1
100
AcDbEntity
  8
0
100
AcDbLine
 62
7
  6
CONTINUOUS
 10
12.8390281851
 20
9.5148876121
 11
12.1010407047
 21
9.5148876121
  0
LINE
  5
2C2
100
AcDbEntity
  8
0
100
AcDbLine
 62
7
  6
CONTINUOUS
 10
3.3632934813
 20
9.5283876121
 11
3.3862934813
 21
9.5283876121
  0
LINE
  5
2C3
100
AcDbEntity
  8
0
100
AcDbLine
 62
7
  6
CONTINUOUS
 10
11.9150415518
 20
9.5948876121
 11
13.025027338
 21
9.5948876121
  0
LINE
  5
2C4
100
AcDbEntity
  8
0
100
AcDbLine
 62
7
  6
CONTINUOUS
 10
13.0250344449
 20
9.6948876121
 11
11.9150344449
 21
9.6948876121
  0
LINE
  5
2C5
100
AcDbEntity
  8
0
100
AcDbLine
 62
9
  6
CONTINUOUS
 10
12.0150344449
 20
9.7948876121
 11
12.9250344449
 21
9.7948876121
  0
LINE
  5
2C6
100
AcDbEntity
  8
0
100
AcDbLine
 62
7
  6
CONTINUOUS
 10
3.3632934813
 20
9.8383876121
 11
3.3862934813
 21
9.8383876121
  0
LINE
  5
2C7
100
AcDbEntity
  8
0
100
AcDbLine
 62
7
  6
CONTINUOUS
 10
3.3632934813
 20
9.8658876121
 11
2.9490534813
 21
9.8658876121
  0
LINE
  5
2C8
100
AcDbEntity
  8
0
100
AcDbLine
 62
7
  6
CONTINUOUS
 10
5.7222934813
 20
9.9308876121
 11
5.7402934813
 21
9.9308876121
  0
LINE
  5
2C9
100
AcDbEntity
  8
0
100
AcDbLine
 62
7
  6
CONTINUOUS
 10
3.7382934813
 20
10.0033876121
 11
3.3862934813
 21
10.0033876121
  0
LINE
  5
2CA
100
AcDbEntity
  8
0
100
AcDbLine
 62
9
  6
CONTINUOUS
 10
2.8002934813
 20
10.1578935907
 11
2.4082934813
 21
10.1578935907
  0
LINE
  5
2CB
100
AcDbEntity
  8
0
100
AcDbLine
 62
9
  6
CONTINUOUS
 10
5.8628610906
 20
10.1650791461
 11
6.9078576073
 21
10.1650777529
  0
LINE
  5
2CC
100
AcDbEntity
  8
0
100
AcDbLine
 62
9
  6
CONTINUOUS
 10
2.4176155512
 20
10.1800536278
 11
2.7909714113
 21
10.1800536278
  0
LINE
  5
2CD
100
AcDbEntity
  8
0
100
AcDbLine
 62
7
  6
CONTINUOUS
 10
6.950595885
 20
10.1833876121
 11
5.9015346821
 21
10.1833876121
  0
LINE
  5
2CE
100
AcDbEntity
  8
0
100
AcDbLine
 62
7
  6
CONTINUOUS
 10
6.1357158908
 20
10.2233876121
 11
6.8657158908
 21
10.2233876121
  0
LINE
  5
2CF
100
AcDbEntity
  8
0
100
AcDbLine
 62
7
  6
CONTINUOUS
 10
5.3122934813
 20
10.2683876121
 11
5.1782934813
 21
10.2683876121
  0
LINE
  5
2D0
100
AcDbEntity
  8
0
100
AcDbLine
 62
7
  6
CONTINUOUS
 10
5.9057158908
 20
10.2983876121
 11
7.0957158908
 21
10.2983876121
  0
LINE
  5
2D1
100
AcDbEntity
  8
0
100
AcDbLine
 62
7
  6
CONTINUOUS
 10
5.5153679133
 20
10.3333876121
 11
5.4872934813
 21
10.3333876121
  0
LINE
  5
2D2
100
AcDbEntity
  8
0
100
AcDbLine
 62
7
  6
CONTINUOUS
 10
5.3722934813
 20
10.3333876121
 11
5.3272934813
 21
10.3333876121
  0
LINE
  5
2D3
100
AcDbEntity
  8
0
100
AcDbLine
 62
9
  6
CONTINUOUS
 10
5.8657158908
 20
10.3383876121
 11
7.1357158908
 21
10.3383876121
  0
LINE
  5
2D4
100
AcDbEntity
  8
0
100
AcDbLine
 62
9
  6
CONTINUOUS
 10
7.1357158908
 20
10.4083876121
 11
5.8657158908
 21
10.4083876121
  0
LINE
  5
2D5
100
AcDbEntity
  8
0
100
AcDbLine
 62
7
  6
CONTINUOUS
 10
3.7770100243
 20
10.4333876121
 11
5.1195769382
 21
10.4333876121
  0
LINE
  5
2D6
100
AcDbEntity
  8
0
100
AcDbLine
 62
9
  6
CONTINUOUS
 10
5.903452918
 20
10.4483235477
 11
7.0979788636
 21
10.4483235477
  0
LINE
  5
2D7
100
AcDbEntity
  8
0
100
AcDbLine
 62
9
  6
CONTINUOUS
 10
3.7592934813
 20
10.4511041471
 11
5.1372865022
 21
10.4511041471
  0
LINE
  5
2D8
100
AcDbEntity
  8
0
100
AcDbLine
 62
7
  6
CONTINUOUS
 10
12.9500344449
 20
10.4548876121
 11
11.9900344449
 21
10.4548876121
  0
LINE
  5
2D9
100
AcDbEntity
  8
0
100
AcDbLine
 62
7
  6
CONTINUOUS
 10
5.1372934813
 20
10.4964742263
 11
3.7592934813
 21
10.4964742263
  0
LINE
  5
2DA
100
AcDbEntity
  8
0
100
AcDbLine
 62
9
  6
CONTINUOUS
 10
7.0416085843
 20
10.5135355614
 11
5.9598231973
 21
10.5135355614
  0
LINE
  5
2DB
100
AcDbEntity
  8
0
100
AcDbLine
 62
9
  6
CONTINUOUS
 10
2.413376188
 20
10.5415244535
 11
2.7952107745
 21
10.5415244535
  0
LINE
  5
2DC
100
AcDbEntity
  8
0
100
AcDbLine
 62
7
  6
CONTINUOUS
 10
2.7933813323
 20
10.5663876121
 11
2.4152056302
 21
10.5663876121
  0
LINE
  5
2DD
100
AcDbEntity
  8
0
100
AcDbLine
 62
9
  6
CONTINUOUS
 10
2.4365061857
 20
10.5915648351
 11
2.7720807769
 21
10.5915648351
  0
LINE
  5
2DE
100
AcDbEntity
  8
0
100
AcDbLine
 62
7
  6
CONTINUOUS
 10
3.7592934813
 20
10.626300998
 11
5.1372934813
 21
10.626300998
  0
LINE
  5
2DF
100
AcDbEntity
  8
0
100
AcDbLine
 62
9
  6
CONTINUOUS
 10
5.1372934813
 20
10.6729174092
 11
3.7593017757
 21
10.6729174092
  0
LINE
  5
2E0
100
AcDbEntity
  8
0
100
AcDbLine
 62
9
  6
CONTINUOUS
 10
2.8295602934
 20
10.6736540921
 11
2.3790266691
 21
10.6736540921
  0
LINE
  5
2E1
100
AcDbEntity
  8
0
100
AcDbLine
 62
9
  6
CONTINUOUS
 10
3.7743436527
 20
10.6904321491
 11
5.1222433098
 21
10.6904321491
  0
LINE
  5
2E2
100
AcDbEntity
  8
0
100
AcDbLine
 62
9
  6
CONTINUOUS
 10
3.8574709204
 20
10.770288113
 11
5.0391160421
 21
10.770288113
  0
LINE
  5
2E3
100
AcDbEntity
  8
0
100
AcDbLine
 62
7
  6
CONTINUOUS
 10
5.0292982992
 20
10.7783876121
 11
3.8672886633
 21
10.7783876121
  0
LINE
  5
2E4
100
AcDbEntity
  8
0
100
AcDbLine
 62
7
  6
CONTINUOUS
 10
12.8390344449
 20
9.5148876121
 11
12.841073548
 21
9.512848509
  0
LINE
  5
2E5
100
AcDbEntity
  8
0
100
AcDbLine
 62
9
  6
CONTINUOUS
 10
6.966008066
 20
16.611383292
 11
6.9734643276
 21
16.6005343508
  0
LINE
  5
2E6
100
AcDbEntity
  8
0
100
AcDbLine
 62
9
  6
CONTINUOUS
 10
7.0537429328
 20
16.4837282371
 11
7.0595117085
 21
16.4753346285
  0
LWPOLYLINE
  5
2E7
100
AcDbEntity
  8
0
100
AcDbPolyline
 62
7
  6
CONTINUOUS
 90
46
 70
0
 10
12.3180765867
 20
7.1695297561
 10
12.5011760732
 20
6.371384933
 10
12.7188801927
 20
5.6295963889
 10
12.9559023076
 20
4.9363817466
 10
13.2035146041
 20
4.2841016664
 10
13.4568290832
 20
3.6658512475
 10
13.7121804582
 20
3.0777367214
 10
13.9670822265
 20
2.5165458708
 10
14.2200390364
 20
1.9791291714
 10
14.4699352008
 20
1.4630782444
 10
14.7158807983
 20
0.9666051532
 10
14.9573210129
 20
0.4880105795
 10
15.1939415615
 20
0.0256693706
 10
15.4254938177
 20
-0.4217603332
 10
15.6517229462
 20
-0.8553046411
 10
15.8724508639
 20
-1.275904565
 10
16.0875521888
 20
-1.6844202387
 10
16.2969301656
 20
-2.0816210243
 10
16.5004829341
 20
-2.468154681
 10
16.6981767762
 20
-2.8447162965
 10
16.8899626971
 20
-3.2119120249
 10
17.0757543663
 20
-3.5702335424
 10
17.255427616
 20
-3.9200715057
 10
17.428799556
 20
-4.2616858066
 10
17.5958478056
 20
-4.5956498514
 10
17.7565313489
 20
-4.9225151868
 10
17.9106862202
 20
-5.2426263566
 10
18.0580346653
 20
-5.5561468896
 10
18.198160702
 20
-5.863003562
 10
18.3307248253
 20
-6.1633491834
 10
18.4556847074
 20
-6.4581706475
 10
18.572680931
 20
-6.7480259044
 10
18.6810135865
 20
-7.0329837464
 10
18.779672645
 20
-7.3125419863
 10
18.8673148689
 20
-7.5854035815
 10
18.9434017924
 20
-7.8536908184
 10
19.0064010094
 20
-8.1186639857
 10
19.0534937861
 20
-8.3790600721
 10
19.0808447675
 20
-8.631115196
 10
19.0839728526
 20
-8.8744998052
 10
19.0550918632
 20
-9.1090979379
 10
18.9827465747
 20
-9.3237141648
 10
18.8590022501
 20
-9.4985819924
 10
18.6826229557
 20
-9.6256101099
 10
18.4712499521
 20
-9.7044899677
 10
18.2389651481
 20
-9.7456953097
  0
LINE
  5
2E8
100
AcDbEntity
  8
0
100
AcDbLine
 62
7
  6
CONTINUOUS
 10
12.1994087293
 20
8.0013876121
 11
12.3180765867
 21
7.1695297561
  0
LINE
  5
2E9
100
AcDbEntity
  8
0
100
AcDbLine
 62
7
  6
CONTINUOUS
 10
12.7161358933
 20
9.0537123922
 11
12.7161358933
 21
9.459062832
  0
LINE
  5
2EA
100
AcDbEntity
  8
0
100
AcDbLine
 62
7
  6
CONTINUOUS
 10
12.7760344449
 20
9.0013876121
 11
12.7760344449
 21
8.0013876121
  0
LINE
  5
2EB
100
AcDbEntity
  8
0
100
AcDbLine
 62
7
  6
CONTINUOUS
 10
12.7987469537
 20
9.459062832
 11
12.7987469537
 21
9.0537123922
  0
LINE
  5
2EC
100
AcDbEntity
  8
0
100
AcDbLine
 62
7
  6
CONTINUOUS
 10
12.8350344449
 20
9.5148876121
 11
12.8350344449
 21
9.5948876121
  0
LINE
  5
2ED
100
AcDbEntity
  8
0
100
AcDbLine
 62
7
  6
CONTINUOUS
 10
12.9250344449
 20
9.7948876121
 11
12.9250344449
 21
10.4548876121
  0
LINE
  5
2EE
100
AcDbEntity
  8
0
100
AcDbLine
 62
7
  6
CONTINUOUS
 10
12.9640333566
 20
9.0537123922
 11
12.9640333566
 21
9.459062832
  0
LINE
  5
2EF
100
AcDbEntity
  8
0
100
AcDbLine
 62
7
  6
CONTINUOUS
 10
13.0250344449
 20
9.6948876121
 11
13.0250344449
 21
9.5948876121
  0
LINE
  5
2F0
100
AcDbEntity
  8
0
100
AcDbLine
 62
7
  6
CONTINUOUS
 10
3.6111355909
 20
-8.0666123879
 11
3.6522540099
 21
-7.9953931971
  0
LINE
  5
2F1
100
AcDbEntity
  8
0
100
AcDbLine
 62
7
  6
CONTINUOUS
 10
3.6522540099
 20
27.3621684213
 11
3.6111355909
 21
27.4333876121
  0
LINE
  5
2F2
100
AcDbEntity
  8
0
100
AcDbLine
 62
7
  6
CONTINUOUS
 10
5.2854513716
 20
-8.0666123879
 11
5.2443329526
 21
-8.1378315787
  0
LINE
  5
2F3
100
AcDbEntity
  8
0
100
AcDbLine
 62
7
  6
CONTINUOUS
 10
4.9079908454
 20
-8.7203931971
 11
4.8668724264
 21
-8.7916123879
  0
LINE
  5
2F4
100
AcDbEntity
  8
0
100
AcDbLine
 62
9
  6
CONTINUOUS
 10
5.8156942171
 20
17.7417935701
 11
5.8047168267
 21
17.7490593548
  0
LINE
  5
2F5
100
AcDbEntity
  8
0
100
AcDbLine
 62
9
  6
CONTINUOUS
 10
5.6865274402
 20
17.827287216
 11
5.6780344221
 21
17.8329086139
  0
LINE
  5
2F6
100
AcDbEntity
  8
0
100
AcDbLine
 62
7
  6
CONTINUOUS
 10
6.7001230143
 20
17.098158941
 11
6.7126849076
 21
17.0885193913
  0
LINE
  5
2F7
100
AcDbEntity
  8
0
100
AcDbLine
 62
7
  6
CONTINUOUS
 10
6.252796396
 20
17.4414042577
 11
6.2653586131
 21
17.4317650944
  0
LINE
  5
2F8
100
AcDbEntity
  8
0
100
AcDbLine
 62
7
  6
CONTINUOUS
 10
6.3013087811
 20
17.4786162982
 11
6.2887468741
 21
17.4882558329
  0
LINE
  5
2F9
100
AcDbEntity
  8
0
100
AcDbLine
 62
7
  6
CONTINUOUS
 10
6.7486353857
 20
17.1353709665
 11
6.736072631
 21
17.1450092819
  0
LINE
  5
2FA
100
AcDbEntity
  8
0
100
AcDbLine
 62
7
  6
CONTINUOUS
 10
7.2075169821
 20
16.6953110771
 11
7.1853304128
 21
16.7139278192
  0
LINE
  5
2FB
100
AcDbEntity
  8
0
100
AcDbLine
 62
9
  6
CONTINUOUS
 10
7.1159690637
 20
16.744057581
 11
7.1258283507
 21
16.7353348137
  0
LINE
  5
2FC
100
AcDbEntity
  8
0
100
AcDbLine
 62
9
  6
CONTINUOUS
 10
7.2319803811
 20
16.6414194153
 11
7.239608404
 21
16.6346707196
  0
LINE
  5
2FD
100
AcDbEntity
  8
0
100
AcDbLine
 62
7
  6
CONTINUOUS
 10
4.8668724264
 20
28.1583876121
 11
4.9079908454
 21
28.0871684213
  0
LINE
  5
2FE
100
AcDbEntity
  8
0
100
AcDbLine
 62
7
  6
CONTINUOUS
 10
5.2443329526
 20
27.5046068029
 11
5.2854513716
 21
27.4333876121
  0
LINE
  5
2FF
100
AcDbEntity
  8
0
100
AcDbLine
 62
9
  6
CONTINUOUS
 10
5.9598231973
 20
14.0832396629
 11
7.0416085843
 21
14.0832396629
  0
LINE
  5
300
100
AcDbEntity
  8
0
100
AcDbLine
 62
9
  6
CONTINUOUS
 10
5.903452918
 20
14.1484516765
 11
7.0979788636
 21
14.1484516765
  0
LINE
  5
301
100
AcDbEntity
  8
0
100
AcDbLine
 62
9
  6
CONTINUOUS
 10
5.8657158908
 20
14.1883876121
 11
7.1357158908
 21
14.1883876121
  0
LINE
  5
302
100
AcDbEntity
  8
0
100
AcDbLine
 62
9
  6
CONTINUOUS
 10
7.1357158908
 20
14.2583876121
 11
5.8657158908
 21
14.2583876121
  0
LINE
  5
303
100
AcDbEntity
  8
0
100
AcDbLine
 62
7
  6
CONTINUOUS
 10
7.0957147623
 20
14.2983876121
 11
5.9057170194
 21
14.2983876121
  0
LINE
  5
304
100
AcDbEntity
  8
0
100
AcDbLine
 62
9
  6
CONTINUOUS
 10
5.9667261165
 20
14.3206283887
 11
7.0347056651
 21
14.3206283887
  0
LINE
  5
305
100
AcDbEntity
  8
0
100
AcDbLine
 62
7
  6
CONTINUOUS
 10
6.8907590057
 20
14.498387709
 11
6.1106727741
 21
14.4983877068
  0
LINE
  5
306
100
AcDbEntity
  8
0
100
AcDbLine
 62
9
  6
CONTINUOUS
 10
6.1257158908
 20
14.5381228127
 11
6.8757158908
 21
14.5381228129
  0
LINE
  5
307
100
AcDbEntity
  8
0
100
AcDbLine
 62
9
  6
CONTINUOUS
 10
5.7263534587
 20
17.5626037338
 11
5.7139443686
 21
17.566998031
  0
LINE
  5
308
100
AcDbEntity
  8
0
100
AcDbLine
 62
9
  6
CONTINUOUS
 10
5.5803407018
 20
17.6143095818
 11
5.5707400249
 21
17.6177093525
  0
LINE
  5
309
100
AcDbEntity
  8
0
100
AcDbLine
 62
7
  6
CONTINUOUS
 10
6.7756570621
 20
17.2947996966
 11
6.7919287943
 21
17.296944167
  0
LINE
  5
30A
100
AcDbEntity
  8
0
100
AcDbLine
 62
7
  6
CONTINUOUS
 10
6.2172112271
 20
17.2212811639
 11
6.2331169913
 21
17.2233751158
  0
LINE
  5
30B
100
AcDbEntity
  8
0
100
AcDbLine
 62
7
  6
CONTINUOUS
 10
6.2252017645
 20
17.2818977989
 11
6.2095029874
 21
17.2798310573
  0
LINE
  5
30C
100
AcDbEntity
  8
0
100
AcDbLine
 62
7
  6
CONTINUOUS
 10
6.7842205546
 20
17.3554940604
 11
6.768522119
 21
17.3534257605
  0
LINE
  5
30D
100
AcDbEntity
  8
0
100
AcDbLine
 62
9
  6
CONTINUOUS
 10
7.3214154027
 20
17.3242201242
 11
7.3345670433
 21
17.3247943298
  0
LINE
  5
30E
100
AcDbEntity
  8
0
100
AcDbLine
 62
9
  6
CONTINUOUS
 10
7.4761654251
 20
17.3309766382
 11
7.4863405942
 21
17.3314209026
  0
LINE
  5
30F
100
AcDbEntity
  8
0
100
AcDbLine
 62
7
  6
CONTINUOUS
 10
5.574343923
 20
17.3596680503
 11
5.6217107906
 21
17.3560233685
  0
LINE
  5
310
100
AcDbEntity
  8
0
100
AcDbLine
 62
9
  6
CONTINUOUS
 10
5.6830164745
 20
17.3671231079
 11
5.6699131348
 21
17.3683848179
  0
LINE
  5
311
100
AcDbEntity
  8
0
100
AcDbLine
 62
9
  6
CONTINUOUS
 10
5.5288325212
 20
17.3819693369
 11
5.5186941135
 21
17.3829455555
  0
LINE
  5
312
100
AcDbEntity
  8
0
100
AcDbLine
 62
7
  6
CONTINUOUS
 10
4.9885504427
 20
26.8433876121
 11
3.9080365199
 21
26.8433876121
  0
LINE
  5
313
100
AcDbEntity
  8
0
100
AcDbLine
 62
7
  6
CONTINUOUS
 10
4.0297145361
 20
28.1583876121
 11
4.1119513741
 21
28.1583876121
  0
LINE
  5
314
100
AcDbEntity
  8
0
100
AcDbLine
 62
7
  6
CONTINUOUS
 10
4.7846355885
 20
28.1583876121
 11
4.8668724264
 21
28.1583876121
  0
LINE
  5
315
100
AcDbEntity
  8
0
100
AcDbLine
 62
7
  6
CONTINUOUS
 10
4.3830434813
 20
28.2307221953
 11
4.5135434813
 21
28.2307221953
  0
ARC
  5
316
100
AcDbEntity
  8
0
100
AcDbCircle
 62
7
  6
CONTINUOUS
 10
4.4482934813
 20
-8.0666123879
 40
1.4225
100
AcDbArc
 50
110.6018839063
 51
69.393300578
  0
ARC
  5
317
100
AcDbEntity
  8
0
100
AcDbCircle
 62
7
  6
CONTINUOUS
 10
4.4482934813
 20
-8.0666123879
 40
1.2225
100
AcDbArc
 50
114.1457272205
 51
65.8434945077
  0
ARC
  5
318
100
AcDbEntity
  8
0
100
AcDbCircle
 62
9
  6
CONTINUOUS
 10
4.4482934813
 20
-8.0666123879
 40
1.0224999992
100
AcDbArc
 50
119.291380996
 51
60.6955877767
  0
ARC
  5
319
100
AcDbEntity
  8
0
100
AcDbCircle
 62
7
  6
CONTINUOUS
 10
4.4482934813
 20
-8.0666123879
 40
0.895
100
AcDbArc
 50
124.0708303616
 51
55.9300764622
  0
ARC
  5
31A
100
AcDbEntity
  8
0
100
AcDbCircle
 62
7
  6
CONTINUOUS
 10
4.4482934813
 20
-8.0666123879
 40
0.88
100
AcDbArc
 50
124.624463171
 51
55.3537698102
  0
ARC
  5
31B
100
AcDbEntity
  8
0
100
AcDbCircle
 62
9
  6
CONTINUOUS
 10
4.4482934813
 20
-8.0666123879
 40
0.8449999966
100
AcDbArc
 50
126.352276958
 51
53.6341318589
  0
ARC
  5
31C
100
AcDbEntity
  8
0
100
AcDbCircle
 62
7
  6
CONTINUOUS
 10
4.4482934813
 20
-8.0666123879
 40
0.8
100
AcDbArc
 50
132.4811128754
 51
265.3216160604
  0
ARC
  5
31D
100
AcDbEntity
  8
0
100
AcDbCircle
 62
7
  6
CONTINUOUS
 10
4.4482934813
 20
-8.0666123879
 40
0.8
100
AcDbArc
 50
274.6783839396
 51
47.5188871246
  0
CIRCLE
  5
31E
100
AcDbEntity
  8
0
100
AcDbCircle
 62
7
  6
CONTINUOUS
 10
2.6042934813
 20
9.6833876121
 40
0.275
  0
ARC
  5
31F
100
AcDbEntity
  8
0
100
AcDbCircle
 62
7
  6
CONTINUOUS
 10
2.6042934813
 20
8.5353876121
 40
0.275
100
AcDbArc
 50
145.0
 51
35.0
  0
ARC
  5
320
100
AcDbEntity
  8
0
100
AcDbCircle
 62
7
  6
CONTINUOUS
 10
2.2427934813
 20
9.0080116532
 40
0.25
100
AcDbArc
 50
313.0260516848
 51
45.6300695472
  0
ARC
  5
321
100
AcDbEntity
  8
0
100
AcDbCircle
 62
7
  6
CONTINUOUS
 10
2.9657934813
 20
9.0080116532
 40
0.25
100
AcDbArc
 50
134.3699304528
 51
226.9739483152
  0
ARC
  5
322
100
AcDbEntity
  8
0
100
AcDbCircle
 62
7
  6
CONTINUOUS
 10
2.2427934813
 20
10.3587635711
 40
0.25
100
AcDbArc
 50
314.3699304528
 51
46.9739483152
  0
ARC
  5
323
100
AcDbEntity
  8
0
100
AcDbCircle
 62
7
  6
CONTINUOUS
 10
2.9657934813
 20
10.3587635711
 40
0.25
100
AcDbArc
 50
133.0260516848
 51
225.6300695472
  0
ARC
  5
324
100
AcDbEntity
  8
0
100
AcDbCircle
 62
7
  6
CONTINUOUS
 10
3.7592934813
 20
8.5774821003
 40
0.1
100
AcDbArc
 50
10.9557085281
 51
81.3439972277
  0
ARC
  5
325
100
AcDbEntity
  8
0
100
AcDbCircle
 62
7
  6
CONTINUOUS
 10
2.9490534813
 20
9.9626476121
 40
0.09676
100
AcDbArc
 50
180.0000152274
 51
270.0
  0
ARC
  5
326
100
AcDbEntity
  8
0
100
AcDbCircle
 62
7
  6
CONTINUOUS
 10
2.9490534813
 20
9.4041276121
 40
0.09676
100
AcDbArc
 50
90.0
 51
179.9999847726
  0
ARC
  5
327
100
AcDbEntity
  8
0
100
AcDbCircle
 62
7
  6
CONTINUOUS
 10
2.2283433751
 20
10.1507821077
 40
0.082
100
AcDbArc
 50
279.9599782617
 51
331.6450205529
  0
ARC
  5
328
100
AcDbEntity
  8
0
100
AcDbCircle
 62
7
  6
CONTINUOUS
 10
2.2283433751
 20
9.2159931166
 40
0.082
100
AcDbArc
 50
28.3549794471
 51
80.0400217383
  0
ARC
  5
329
100
AcDbEntity
  8
0
100
AcDbCircle
 62
7
  6
CONTINUOUS
 10
3.7876169831
 20
8.8053876121
 40
0.0708235019
100
AcDbArc
 50
113.5729717355
 51
246.4270282645
  0
ARC
  5
32A
100
AcDbEntity
  8
0
100
AcDbCircle
 62
7
  6
CONTINUOUS
 10
2.4212414281
 20
10.0960377611
 40
0.06478
100
AcDbArc
 50
109.8042344034
 51
160.193974891
  0
ARC
  5
32B
100
AcDbEntity
  8
0
100
AcDbCircle
 62
7
  6
CONTINUOUS
 10
2.7875134813
 20
10.0973465657
 40
0.06478
100
AcDbArc
 50
0.0000006763
 51
70.3535688227
  0
ARC
  5
32C
100
AcDbEntity
  8
0
100
AcDbCircle
 62
7
  6
CONTINUOUS
 10
2.7875134813
 20
9.2694286586
 40
0.06478
100
AcDbArc
 50
289.6464311773
 51
359.9999993237
  0
ARC
  5
32D
100
AcDbEntity
  8
0
100
AcDbCircle
 62
7
  6
CONTINUOUS
 10
2.4212414281
 20
9.2707374632
 40
0.06478
100
AcDbArc
 50
199.8060251259
 51
250.1957656198
  0
ARC
  5
32E
100
AcDbEntity
  8
0
100
AcDbCircle
 62
7
  6
CONTINUOUS
 10
2.814063699
 20
9.2723123059
 40
0.0640702281
100
AcDbArc
 50
264.7775348868
 51
265.2886179067
  0
ARC
  5
32F
100
AcDbEntity
  8
0
100
AcDbCircle
 62
7
  6
CONTINUOUS
 10
2.8137176252
 20
10.0983962428
 40
0.0601217326
100
AcDbArc
 50
94.6857155113
 51
95.2352218824
  0
ARC
  5
330
100
AcDbEntity
  8
0
100
AcDbCircle
 62
7
  6
CONTINUOUS
 10
2.3293699037
 20
9.2705154103
 40
0.0328
100
AcDbArc
 50
208.3549794476
 51
295.118975836
  0
ARC
  5
331
100
AcDbEntity
  8
0
100
AcDbCircle
 62
7
  6
CONTINUOUS
 10
2.3293699037
 20
10.0962598139
 40
0.0328
100
AcDbArc
 50
64.881024164
 51
151.6450205524
  0
ARC
  5
332
100
AcDbEntity
  8
0
100
AcDbCircle
 62
7
  6
CONTINUOUS
 10
2.4392934813
 20
9.208881636
 40
0.031
100
AcDbArc
 50
180.0
 51
225.6300714454
  0
ARC
  5
333
100
AcDbEntity
  8
0
100
AcDbCircle
 62
7
  6
CONTINUOUS
 10
2.7692934813
 20
9.208881636
 40
0.031
100
AcDbArc
 50
314.3699285546
 51
360.0
  0
ARC
  5
334
100
AcDbEntity
  8
0
100
AcDbCircle
 62
7
  6
CONTINUOUS
 10
2.4392934813
 20
10.1578935883
 40
0.031
100
AcDbArc
 50
134.3699285546
 51
180.0
  0
ARC
  5
335
100
AcDbEntity
  8
0
100
AcDbCircle
 62
7
  6
CONTINUOUS
 10
2.7692934813
 20
10.1578935883
 40
0.031
100
AcDbArc
 50
0.0
 51
45.6300714454
  0
ARC
  5
336
100
AcDbEntity
  8
0
100
AcDbCircle
 62
7
  6
CONTINUOUS
 10
3.7770100163
 20
8.9156710771
 40
0.017716535
100
AcDbArc
 50
89.999974056
 51
180.0
  0
ARC
  5
337
100
AcDbEntity
  8
0
100
AcDbCircle
 62
7
  6
CONTINUOUS
 10
3.7770100163
 20
8.6938578151
 40
0.017716535
100
AcDbArc
 50
180.0
 51
261.3440147986
  0
ARC
  5
338
100
AcDbEntity
  8
0
100
AcDbCircle
 62
7
  6
CONTINUOUS
 10
3.7770100163
 20
10.4511041471
 40
0.017716535
100
AcDbArc
 50
180.0
 51
270.000025944
  0
ARC
  5
339
100
AcDbEntity
  8
0
100
AcDbCircle
 62
7
  6
CONTINUOUS
 10
2.423399753
 20
8.7843876121
 40
0.016
100
AcDbArc
 50
325.0000000002
 51
90.0
  0
ARC
  5
33A
100
AcDbEntity
  8
0
100
AcDbCircle
 62
7
  6
CONTINUOUS
 10
2.7851872096
 20
8.7843876121
 40
0.016
100
AcDbArc
 50
90.0
 51
214.9999999998
  0
ARC
  5
33B
100
AcDbEntity
  8
0
100
AcDbCircle
 62
7
  6
CONTINUOUS
 10
2.7842934813
 20
8.8135540742
 40
0.016
100
AcDbArc
 50
304.6234510999
 51
46.9739483152
  0
ARC
  5
33C
100
AcDbEntity
  8
0
100
AcDbCircle
 62
7
  6
CONTINUOUS
 10
2.4242934813
 20
8.8135540742
 40
0.016
100
AcDbArc
 50
133.0260516848
 51
235.3765489001
  0
ARC
  5
33D
100
AcDbEntity
  8
0
100
AcDbCircle
 62
7
  6
CONTINUOUS
 10
2.2452934813
 20
9.3125161392
 40
0.016
100
AcDbArc
 50
179.9999417828
 51
260.0400107703
  0
ARC
  5
33E
100
AcDbEntity
  8
0
100
AcDbCircle
 62
7
  6
CONTINUOUS
 10
2.2452934813
 20
10.054259085
 40
0.016
100
AcDbArc
 50
99.9599892297
 51
180.0000582172
  0
ARC
  5
33F
100
AcDbEntity
  8
0
100
AcDbCircle
 62
7
  6
CONTINUOUS
 10
3.8672886644
 20
8.5983876121
 40
0.01
100
AcDbArc
 50
190.9557073551
 51
269.9999937158
  0
ARC
  5
340
100
AcDbEntity
  8
0
100
AcDbCircle
 62
7
  6
CONTINUOUS
 10
4.9923668101
 20
4.3205725379
 40
1.7883490809
100
AcDbArc
 50
355.5068308638
 51
359.9991663079
  0
ARC
  5
341
100
AcDbEntity
  8
0
100
AcDbCircle
 62
7
  6
CONTINUOUS
 10
4.9925820279
 20
4.3205640931
 40
1.228133863
100
AcDbArc
 50
355.506844545
 51
359.9991799891
  0
ARC
  5
342
100
AcDbEntity
  8
0
100
AcDbCircle
 62
7
  6
CONTINUOUS
 10
6.4507158908
 20
9.6833876121
 40
0.76
100
AcDbArc
 50
140.6687519154
 51
159.1904264223
  0
ARC
  5
343
100
AcDbEntity
  8
0
100
AcDbCircle
 62
7
  6
CONTINUOUS
 10
6.4507083611
 20
9.6833831576
 40
0.7599910142
100
AcDbArc
 50
200.8094612143
 51
219.3313484101
  0
ARC
  5
344
100
AcDbEntity
  8
0
100
AcDbCircle
 62
7
  6
CONTINUOUS
 10
6.4507158908
 20
9.6833876121
 40
0.6678675411
100
AcDbArc
 50
313.5023020156
 51
46.4977537508
  0
ARC
  5
345
100
AcDbEntity
  8
0
100
AcDbCircle
 62
9
  6
CONTINUOUS
 10
6.4507158908
 20
9.6833876121
 40
0.6640812757
100
AcDbArc
 50
313.5021804663
 51
46.4978195231
  0
ARC
  5
346
100
AcDbEntity
  8
0
100
AcDbCircle
 62
7
  6
CONTINUOUS
 10
5.1372934813
 20
8.5774821003
 40
0.1
100
AcDbArc
 50
98.6560027723
 51
169.0442914719
  0
ARC
  5
347
100
AcDbEntity
  8
0
100
AcDbCircle
 62
7
  6
CONTINUOUS
 10
5.1089699794
 20
8.8053876121
 40
0.0708235019
100
AcDbArc
 50
293.5729717355
 51
66.4270282645
  0
ARC
  5
348
100
AcDbEntity
  8
0
100
AcDbCircle
 62
7
  6
CONTINUOUS
 10
5.4297934813
 20
10.3162484756
 40
0.06
100
AcDbArc
 50
16.5978421359
 51
163.4021578641
  0
ARC
  5
349
100
AcDbEntity
  8
0
100
AcDbCircle
 62
7
  6
CONTINUOUS
 10
5.4297934813
 20
9.0505267486
 40
0.06
100
AcDbArc
 50
196.5978421359
 51
343.4021578641
  0
ARC
  5
34A
100
AcDbEntity
  8
0
100
AcDbCircle
 62
7
  6
CONTINUOUS
 10
5.9015346821
 20
9.2333876121
 40
0.05
100
AcDbArc
 50
219.3312480846
 51
270.0
  0
ARC
  5
34B
100
AcDbEntity
  8
0
100
AcDbCircle
 62
7
  6
CONTINUOUS
 10
5.9015346821
 20
10.1333876121
 40
0.05
100
AcDbArc
 50
90.0
 51
140.6687519154
  0
ARC
  5
34C
100
AcDbEntity
  8
0
100
AcDbCircle
 62
7
  6
CONTINUOUS
 10
5.9057158908
 20
10.4083876121
 40
0.04
100
AcDbArc
 50
93.2432014018
 51
180.0
  0
ARC
  5
34D
100
AcDbEntity
  8
0
100
AcDbCircle
 62
7
  6
CONTINUOUS
 10
7.0957158908
 20
10.4083876121
 40
0.04
100
AcDbArc
 50
0.0
 51
86.7567985982
  0
ARC
  5
34E
100
AcDbEntity
  8
0
100
AcDbCircle
 62
7
  6
CONTINUOUS
 10
5.9057158908
 20
10.3383876121
 40
0.04
100
AcDbArc
 50
180.0
 51
270.0
  0
ARC
  5
34F
100
AcDbEntity
  8
0
100
AcDbCircle
 62
7
  6
CONTINUOUS
 10
7.0957158908
 20
10.3383876121
 40
0.04
100
AcDbArc
 50
270.0
 51
360.0
  0
ARC
  5
350
100
AcDbEntity
  8
0
100
AcDbCircle
 62
7
  6
CONTINUOUS
 10
5.5153680353
 20
9.0633879395
 40
0.0300000097
100
AcDbArc
 50
270.0
 51
341.9125924186
  0
ARC
  5
351
100
AcDbEntity
  8
0
100
AcDbCircle
 62
7
  6
CONTINUOUS
 10
5.5153680367
 20
10.303387285
 40
0.0300000095
100
AcDbArc
 50
18.0874067824
 51
90.0
  0
ARC
  5
352
100
AcDbEntity
  8
0
100
AcDbCircle
 62
7
  6
CONTINUOUS
 10
5.6922934895
 20
10.0201213106
 40
0.0299999927
100
AcDbArc
 50
0.0
 51
62.2596296374
  0
ARC
  5
353
100
AcDbEntity
  8
0
100
AcDbCircle
 62
7
  6
CONTINUOUS
 10
5.6922934896
 20
9.3466539137
 40
0.0299999927
100
AcDbArc
 50
297.7403699688
 51
360.0
  0
ARC
  5
354
100
AcDbEntity
  8
0
100
AcDbCircle
 62
7
  6
CONTINUOUS
 10
5.1195769463
 20
8.9156710771
 40
0.017716535
100
AcDbArc
 50
0.0
 51
90.000025944
  0
ARC
  5
355
100
AcDbEntity
  8
0
100
AcDbCircle
 62
7
  6
CONTINUOUS
 10
5.1195769463
 20
8.6938578151
 40
0.017716535
100
AcDbArc
 50
278.6559852014
 51
360.0
  0
ARC
  5
356
100
AcDbEntity
  8
0
100
AcDbCircle
 62
7
  6
CONTINUOUS
 10
5.1195769463
 20
10.4511041471
 40
0.017716535
100
AcDbArc
 50
269.999974056
 51
360.0
  0
ARC
  5
357
100
AcDbEntity
  8
0
100
AcDbCircle
 62
7
  6
CONTINUOUS
 10
5.3272934813
 20
9.0483876121
 40
0.015
100
AcDbArc
 50
180.0
 51
270.0
  0
ARC
  5
358
100
AcDbEntity
  8
0
100
AcDbCircle
 62
7
  6
CONTINUOUS
 10
5.3272934813
 20
10.3183876121
 40
0.015
100
AcDbArc
 50
90.0
 51
180.0
  0
ARC
  5
359
100
AcDbEntity
  8
0
100
AcDbCircle
 62
7
  6
CONTINUOUS
 10
5.0292982982
 20
8.5983876121
 40
0.01
100
AcDbArc
 50
270.0000062842
 51
349.0442926449
  0
ARC
  5
35A
100
AcDbEntity
  8
0
100
AcDbCircle
 62
7
  6
CONTINUOUS
 10
-13.0542847314
 20
12.2983876121
 40
20.175
100
AcDbArc
 50
354.9244926841
 51
5.0755073159
  0
ARC
  5
35B
100
AcDbEntity
  8
0
100
AcDbCircle
 62
9
  6
CONTINUOUS
 10
-19.4129315203
 20
58.4432050816
 40
48.5217850036
100
AcDbArc
 50
299.8006707521
 51
300.0045987721
  0
ARC
  5
35C
100
AcDbEntity
  8
0
100
AcDbCircle
 62
9
  6
CONTINUOUS
 10
-19.4129025471
 20
58.4431548114
 40
48.5217269818
100
AcDbArc
 50
299.8006705644
 51
300.0045988291
  0
ARC
  5
35D
100
AcDbEntity
  8
0
100
AcDbCircle
 62
9
  6
CONTINUOUS
 10
-18.1152126442
 20
56.0076012335
 40
45.9175274066
100
AcDbArc
 50
299.9073029667
 51
300.1220751206
  0
ARC
  5
35E
100
AcDbEntity
  8
0
100
AcDbCircle
 62
9
  6
CONTINUOUS
 10
-18.1107509153
 20
55.9998781336
 40
45.9086081591
100
AcDbArc
 50
299.9072839804
 51
300.1220958168
  0
ARC
  5
35F
100
AcDbEntity
  8
0
100
AcDbCircle
 62
7
  6
CONTINUOUS
 10
2.6042934813
 20
10.8313876121
 40
0.275
100
AcDbArc
 50
325.0
 51
215.0
  0
ARC
  5
360
100
AcDbEntity
  8
0
100
AcDbCircle
 62
7
  6
CONTINUOUS
 10
3.7592934813
 20
10.7892931239
 40
0.1
100
AcDbArc
 50
278.6560027723
 51
349.0442914719
  0
ARC
  5
361
100
AcDbEntity
  8
0
100
AcDbCircle
 62
7
  6
CONTINUOUS
 10
3.7876169831
 20
10.5613876121
 40
0.0708235019
100
AcDbArc
 50
113.5729717356
 51
246.4270282644
  0
ARC
  5
362
100
AcDbEntity
  8
0
100
AcDbCircle
 62
7
  6
CONTINUOUS
 10
3.7770100163
 20
10.6729174091
 40
0.017716535
100
AcDbArc
 50
98.6559852014
 51
180.0
  0
ARC
  5
363
100
AcDbEntity
  8
0
100
AcDbCircle
 62
7
  6
CONTINUOUS
 10
2.423399753
 20
10.5823876121
 40
0.016
100
AcDbArc
 50
270.0
 51
34.9999999998
  0
ARC
  5
364
100
AcDbEntity
  8
0
100
AcDbCircle
 62
7
  6
CONTINUOUS
 10
2.7851872096
 20
10.5823876121
 40
0.016
100
AcDbArc
 50
145.0000000002
 51
270.0
  0
ARC
  5
365
100
AcDbEntity
  8
0
100
AcDbCircle
 62
7
  6
CONTINUOUS
 10
2.7842934813
 20
10.55322115
 40
0.016
100
AcDbArc
 50
313.0260516848
 51
55.3765489001
  0
ARC
  5
366
100
AcDbEntity
  8
0
100
AcDbCircle
 62
7
  6
CONTINUOUS
 10
2.4242934813
 20
10.55322115
 40
0.016
100
AcDbArc
 50
124.6234510999
 51
226.9739483152
  0
ARC
  5
367
100
AcDbEntity
  8
0
100
AcDbCircle
 62
7
  6
CONTINUOUS
 10
3.8672886644
 20
10.7683876121
 40
0.01
100
AcDbArc
 50
90.0000062842
 51
169.0442926449
  0
ARC
  5
368
100
AcDbEntity
  8
0
100
AcDbCircle
 62
9
  6
CONTINUOUS
 10
0.8599538246
 20
24.276106392
 40
8.8607082845
100
AcDbArc
 50
299.8476389377
 51
299.9842293647
  0
ARC
  5
369
100
AcDbEntity
  8
0
100
AcDbCircle
 62
9
  6
CONTINUOUS
 10
0.8603116112
 20
24.2754879964
 40
8.8599938536
100
AcDbArc
 50
299.8476224193
 51
299.9842240027
  0
ARC
  5
36A
100
AcDbEntity
  8
0
100
AcDbCircle
 62
7
  6
CONTINUOUS
 10
2.0547393821
 20
20.9334389822
 40
5.4573752259
100
AcDbArc
 50
299.6684351534
 51
299.7939545147
  0
ARC
  5
36B
100
AcDbEntity
  8
0
100
AcDbCircle
 62
7
  6
CONTINUOUS
 10
2.0547651541
 20
20.9333820382
 40
5.4573130072
100
AcDbArc
 50
299.6684965672
 51
299.7940172055
  0
ARC
  5
36C
100
AcDbEntity
  8
0
100
AcDbCircle
 62
7
  6
CONTINUOUS
 10
4.4482934813
 20
27.4333876121
 40
1.4225
100
AcDbArc
 50
290.6018839063
 51
249.393300578
  0
ARC
  5
36D
100
AcDbEntity
  8
0
100
AcDbCircle
 62
7
  6
CONTINUOUS
 10
4.4482934813
 20
27.4333876121
 40
1.2225
100
AcDbArc
 50
294.1457272205
 51
245.8434945077
  0
ARC
  5
36E
100
AcDbEntity
  8
0
100
AcDbCircle
 62
9
  6
CONTINUOUS
 10
4.4482934813
 20
27.4333876121
 40
1.0224999992
100
AcDbArc
 50
299.291380996
 51
240.6955877767
  0
ARC
  5
36F
100
AcDbEntity
  8
0
100
AcDbCircle
 62
7
  6
CONTINUOUS
 10
4.4482934813
 20
27.4333876121
 40
0.895
100
AcDbArc
 50
304.0708303616
 51
235.9300764622
  0
ARC
  5
370
100
AcDbEntity
  8
0
100
AcDbCircle
 62
7
  6
CONTINUOUS
 10
4.4482934813
 20
27.4333876121
 40
0.88
100
AcDbArc
 50
304.624463171
 51
235.3537698102
  0
ARC
  5
371
100
AcDbEntity
  8
0
100
AcDbCircle
 62
9
  6
CONTINUOUS
 10
4.4482934813
 20
27.4333876121
 40
0.8449999966
100
AcDbArc
 50
306.352276958
 51
233.6341318589
  0
ARC
  5
372
100
AcDbEntity
  8
0
100
AcDbCircle
 62
7
  6
CONTINUOUS
 10
4.4482934813
 20
27.4333876121
 40
0.8
100
AcDbArc
 50
312.4811128754
 51
85.3216160604
  0
ARC
  5
373
100
AcDbEntity
  8
0
100
AcDbCircle
 62
7
  6
CONTINUOUS
 10
4.4482934813
 20
27.4333876121
 40
0.8
100
AcDbArc
 50
94.6783839396
 51
227.5188871246
  0
ARC
  5
374
100
AcDbEntity
  8
0
100
AcDbCircle
 62
7
  6
CONTINUOUS
 10
5.1372934813
 20
10.7892931239
 40
0.1
100
AcDbArc
 50
190.9557085281
 51
261.3439972277
  0
ARC
  5
375
100
AcDbEntity
  8
0
100
AcDbCircle
 62
7
  6
CONTINUOUS
 10
5.1089699794
 20
10.5613876121
 40
0.0708235019
100
AcDbArc
 50
293.5729717356
 51
66.4270282644
  0
ARC
  5
376
100
AcDbEntity
  8
0
100
AcDbCircle
 62
7
  6
CONTINUOUS
 10
6.0657158908
 20
14.5381228127
 40
0.06
100
AcDbArc
 50
318.5281678499
 51
360.0
  0
ARC
  5
377
100
AcDbEntity
  8
0
100
AcDbCircle
 62
7
  6
CONTINUOUS
 10
5.9200973589
 20
14.3583876121
 40
0.06
100
AcDbArc
 50
270.0
 51
321.0
  0
ARC
  5
378
100
AcDbEntity
  8
0
100
AcDbCircle
 62
7
  6
CONTINUOUS
 10
5.9000584588
 20
14.0885477731
 40
0.06
100
AcDbArc
 50
354.9244926841
 51
86.7567985982
  0
ARC
  5
379
100
AcDbEntity
  8
0
100
AcDbCircle
 62
7
  6
CONTINUOUS
 10
5.9000584588
 20
10.5082274512
 40
0.06
100
AcDbArc
 50
273.2432014018
 51
5.0755073159
  0
ARC
  5
37A
100
AcDbEntity
  8
0
100
AcDbCircle
 62
7
  6
CONTINUOUS
 10
5.9057158908
 20
14.2583876121
 40
0.04
100
AcDbArc
 50
90.0
 51
180.0
  0
ARC
  5
37B
100
AcDbEntity
  8
0
100
AcDbCircle
 62
7
  6
CONTINUOUS
 10
5.9057158908
 20
14.1883876121
 40
0.04
100
AcDbArc
 50
180.0
 51
266.7567985982
  0
ARC
  5
37C
100
AcDbEntity
  8
0
100
AcDbCircle
 62
7
  6
CONTINUOUS
 10
5.1195769463
 20
10.6729174091
 40
0.017716535
100
AcDbArc
 50
0.0
 51
81.3440147986
  0
ARC
  5
37D
100
AcDbEntity
  8
0
100
AcDbCircle
 62
7
  6
CONTINUOUS
 10
5.0292982982
 20
10.7683876121
 40
0.01
100
AcDbArc
 50
10.9557073551
 51
89.9999937158
  0
CIRCLE
  5
37E
100
AcDbEntity
  8
0
100
AcDbCircle
 62
7
  6
CONTINUOUS
 10
4.9415442815
 20
16.8706088385
 40
0.0826771654
  0
CIRCLE
  5
37F
100
AcDbEntity
  8
0
100
AcDbCircle
 62
9
  6
CONTINUOUS
 10
4.9415442815
 20
16.8706088385
 40
0.0769109535
  0
CIRCLE
  5
380
100
AcDbEntity
  8
0
100
AcDbCircle
 62
9
  6
CONTINUOUS
 10
4.9415442815
 20
16.8706088385
 40
0.0687574628
  0
CIRCLE
  5
381
100
AcDbEntity
  8
0
100
AcDbCircle
 62
9
  6
CONTINUOUS
 10
4.9415442815
 20
16.8706088385
 40
0.0548379698
  0
CIRCLE
  5
382
100
AcDbEntity
  8
0
100
AcDbCircle
 62
7
  6
CONTINUOUS
 10
5.2076482774
 20
16.7527814696
 40
0.0708661417
  0
CIRCLE
  5
383
100
AcDbEntity
  8
0
100
AcDbCircle
 62
9
  6
CONTINUOUS
 10
5.2076482774
 20
16.7527814696
 40
0.0651002345
  0
CIRCLE
  5
384
100
AcDbEntity
  8
0
100
AcDbCircle
 62
9
  6
CONTINUOUS
 10
5.2076482774
 20
16.7527814696
 40
0.0569463945
  0
CIRCLE
  5
385
100
AcDbEntity
  8
0
100
AcDbCircle
 62
9
  6
CONTINUOUS
 10
5.2076482774
 20
16.7527814696
 40
0.0430269203
  0
CIRCLE
  5
386
100
AcDbEntity
  8
0
100
AcDbCircle
 62
7
  6
CONTINUOUS
 10
5.1130834175
 20
17.1057023313
 40
0.0708661417
  0
CIRCLE
  5
387
100
AcDbEntity
  8
0
100
AcDbCircle
 62
9
  6
CONTINUOUS
 10
5.1130834175
 20
17.1057023313
 40
0.0651002345
  0
CIRCLE
  5
388
100
AcDbEntity
  8
0
100
AcDbCircle
 62
9
  6
CONTINUOUS
 10
5.1130834175
 20
17.1057023313
 40
0.0569463945
  0
CIRCLE
  5
389
100
AcDbEntity
  8
0
100
AcDbCircle
 62
9
  6
CONTINUOUS
 10
5.1130834175
 20
17.1057023313
 40
0.0430269203
  0
ARC
  5
38A
100
AcDbEntity
  8
0
100
AcDbCircle
 62
7
  6
CONTINUOUS
 10
5.1131814584
 20
17.1057041519
 40
0.0176203964
100
AcDbArc
 50
7.5357461483
 51
187.4642538128
  0
ARC
  5
38B
100
AcDbEntity
  8
0
100
AcDbCircle
 62
7
  6
CONTINUOUS
 10
5.1131785889
 20
17.1057259475
 40
0.0176203964
100
AcDbArc
 50
187.5357415515
 51
7.464258489
  0
CIRCLE
  5
38C
100
AcDbEntity
  8
0
100
AcDbCircle
 62
7
  6
CONTINUOUS
 10
5.359323055
 20
16.1469947764
 40
0.0826771654
  0
CIRCLE
  5
38D
100
AcDbEntity
  8
0
100
AcDbCircle
 62
9
  6
CONTINUOUS
 10
5.359323055
 20
16.1469947764
 40
0.0769109535
  0
CIRCLE
  5
38E
100
AcDbEntity
  8
0
100
AcDbCircle
 62
9
  6
CONTINUOUS
 10
5.359323055
 20
16.1469947764
 40
0.0687574628
  0
CIRCLE
  5
38F
100
AcDbEntity
  8
0
100
AcDbCircle
 62
9
  6
CONTINUOUS
 10
5.359323055
 20
16.1469947764
 40
0.0548379698
  0
CIRCLE
  5
390
100
AcDbEntity
  8
0
100
AcDbCircle
 62
7
  6
CONTINUOUS
 10
5.3903335582
 20
16.4363612814
 40
0.0708661417
  0
CIRCLE
  5
391
100
AcDbEntity
  8
0
100
AcDbCircle
 62
9
  6
CONTINUOUS
 10
5.3903335582
 20
16.4363612814
 40
0.0651002345
  0
CIRCLE
  5
392
100
AcDbEntity
  8
0
100
AcDbCircle
 62
9
  6
CONTINUOUS
 10
5.3903335582
 20
16.4363612814
 40
0.0569463945
  0
CIRCLE
  5
393
100
AcDbEntity
  8
0
100
AcDbCircle
 62
9
  6
CONTINUOUS
 10
5.3903335582
 20
16.4363612814
 40
0.0430269203
  0
ARC
  5
394
100
AcDbEntity
  8
0
100
AcDbCircle
 62
7
  6
CONTINUOUS
 10
5.3904175538
 20
16.4364118785
 40
0.0176203964
100
AcDbArc
 50
37.5357461391
 51
217.4642538203
  0
ARC
  5
395
100
AcDbEntity
  8
0
100
AcDbCircle
 62
7
  6
CONTINUOUS
 10
5.390404171
 20
16.4364293193
 40
0.0176203964
100
AcDbArc
 50
217.5357415616
 51
37.4642584772
  0
CIRCLE
  5
396
100
AcDbEntity
  8
0
100
AcDbCircle
 62
7
  6
CONTINUOUS
 10
5.6486895601
 20
16.1780052796
 40
0.0708661417
  0
CIRCLE
  5
397
100
AcDbEntity
  8
0
100
AcDbCircle
 62
9
  6
CONTINUOUS
 10
5.6486895601
 20
16.1780052796
 40
0.0651002345
  0
CIRCLE
  5
398
100
AcDbEntity
  8
0
100
AcDbCircle
 62
9
  6
CONTINUOUS
 10
5.6486895601
 20
16.1780052796
 40
0.0569463945
  0
CIRCLE
  5
399
100
AcDbEntity
  8
0
100
AcDbCircle
 62
9
  6
CONTINUOUS
 10
5.6486895601
 20
16.1780052796
 40
0.0430269203
  0
CIRCLE
  5
39A
100
AcDbEntity
  8
0
100
AcDbCircle
 62
7
  6
CONTINUOUS
 10
4.8865426625
 20
17.2883876121
 40
0.0826771654
  0
CIRCLE
  5
39B
100
AcDbEntity
  8
0
100
AcDbCircle
 62
9
  6
CONTINUOUS
 10
4.8865426625
 20
17.2883876121
 40
0.0769109535
  0
CIRCLE
  5
39C
100
AcDbEntity
  8
0
100
AcDbCircle
 62
9
  6
CONTINUOUS
 10
4.8865426625
 20
17.2883876121
 40
0.0687574628
  0
CIRCLE
  5
39D
100
AcDbEntity
  8
0
100
AcDbCircle
 62
9
  6
CONTINUOUS
 10
4.8865426625
 20
17.2883876121
 40
0.0548379698
  0
CIRCLE
  5
39E
100
AcDbEntity
  8
0
100
AcDbCircle
 62
7
  6
CONTINUOUS
 10
4.9415442815
 20
17.7061663857
 40
0.0826771654
  0
CIRCLE
  5
39F
100
AcDbEntity
  8
0
100
AcDbCircle
 62
9
  6
CONTINUOUS
 10
4.9415442815
 20
17.7061663857
 40
0.0769109535
  0
CIRCLE
  5
3A0
100
AcDbEntity
  8
0
100
AcDbCircle
 62
9
  6
CONTINUOUS
 10
4.9415442815
 20
17.7061663857
 40
0.0687574628
  0
CIRCLE
  5
3A1
100
AcDbEntity
  8
0
100
AcDbCircle
 62
9
  6
CONTINUOUS
 10
4.9415442815
 20
17.7061663857
 40
0.0548379698
  0
CIRCLE
  5
3A2
100
AcDbEntity
  8
0
100
AcDbCircle
 62
7
  6
CONTINUOUS
 10
5.1130834175
 20
17.471072893
 40
0.0708661417
  0
CIRCLE
  5
3A3
100
AcDbEntity
  8
0
100
AcDbCircle
 62
9
  6
CONTINUOUS
 10
5.1130834175
 20
17.471072893
 40
0.0651002345
  0
CIRCLE
  5
3A4
100
AcDbEntity
  8
0
100
AcDbCircle
 62
9
  6
CONTINUOUS
 10
5.1130834175
 20
17.471072893
 40
0.0569463945
  0
CIRCLE
  5
3A5
100
AcDbEntity
  8
0
100
AcDbCircle
 62
9
  6
CONTINUOUS
 10
5.1130834175
 20
17.471072893
 40
0.0430269203
  0
CIRCLE
  5
3A6
100
AcDbEntity
  8
0
100
AcDbCircle
 62
7
  6
CONTINUOUS
 10
5.2076482774
 20
17.8239937547
 40
0.0708661417
  0
CIRCLE
  5
3A7
100
AcDbEntity
  8
0
100
AcDbCircle
 62
9
  6
CONTINUOUS
 10
5.2076482774
 20
17.8239937547
 40
0.0651002345
  0
CIRCLE
  5
3A8
100
AcDbEntity
  8
0
100
AcDbCircle
 62
9
  6
CONTINUOUS
 10
5.2076482774
 20
17.8239937547
 40
0.0569463945
  0
CIRCLE
  5
3A9
100
AcDbEntity
  8
0
100
AcDbCircle
 62
9
  6
CONTINUOUS
 10
5.2076482774
 20
17.8239937547
 40
0.0430269203
  0
ARC
  5
3AA
100
AcDbEntity
  8
0
100
AcDbCircle
 62
7
  6
CONTINUOUS
 10
5.2077340936
 20
17.823946311
 40
0.0176203964
100
AcDbArc
 50
337.5357415749
 51
157.4642583837
  0
ARC
  5
3AB
100
AcDbEntity
  8
0
100
AcDbCircle
 62
7
  6
CONTINUOUS
 10
5.2077425064
 20
17.8239666212
 40
0.0176203964
100
AcDbArc
 50
157.5357461215
 51
337.4642539166
  0
CIRCLE
  5
3AC
100
AcDbEntity
  8
0
100
AcDbCircle
 62
7
  6
CONTINUOUS
 10
5.102800869
 20
18.0954742263
 40
0.0826771654
  0
CIRCLE
  5
3AD
100
AcDbEntity
  8
0
100
AcDbCircle
 62
9
  6
CONTINUOUS
 10
5.102800869
 20
18.0954742263
 40
0.0769109535
  0
CIRCLE
  5
3AE
100
AcDbEntity
  8
0
100
AcDbCircle
 62
9
  6
CONTINUOUS
 10
5.102800869
 20
18.0954742263
 40
0.0687574628
  0
CIRCLE
  5
3AF
100
AcDbEntity
  8
0
100
AcDbCircle
 62
9
  6
CONTINUOUS
 10
5.102800869
 20
18.0954742263
 40
0.0548379698
  0
CIRCLE
  5
3B0
100
AcDbEntity
  8
0
100
AcDbCircle
 62
7
  6
CONTINUOUS
 10
5.5993728766
 20
17.3751770731
 40
0.0708661417
  0
ARC
  5
3B1
100
AcDbEntity
  8
0
100
AcDbCircle
 62
7
  6
CONTINUOUS
 10
5.5993728766
 20
17.3751770731
 40
0.0708661417
100
AcDbArc
 50
174.5
 51
354.5000009079
  0
CIRCLE
  5
3B2
100
AcDbEntity
  8
0
100
AcDbCircle
 62
9
  6
CONTINUOUS
 10
5.5993728766
 20
17.3751770731
 40
0.0674067293
  0
CIRCLE
  5
3B3
100
AcDbEntity
  8
0
100
AcDbCircle
 62
9
  6
CONTINUOUS
 10
5.5993728766
 20
17.3751770731
 40
0.0546404342
  0
CIRCLE
  5
3B4
100
AcDbEntity
  8
0
100
AcDbCircle
 62
9
  6
CONTINUOUS
 10
5.5993728766
 20
17.3751770731
 40
0.0462887627
  0
CIRCLE
  5
3B5
100
AcDbEntity
  8
0
100
AcDbCircle
 62
7
  6
CONTINUOUS
 10
5.5993728766
 20
17.3751770731
 40
0.0295275591
  0
ARC
  5
3B6
100
AcDbEntity
  8
0
100
AcDbCircle
 62
9
  6
CONTINUOUS
 10
5.6568322466
 20
17.5864576497
 40
0.0915891769
100
AcDbArc
 50
159.2388524227
 51
160.0489770543
  0
ARC
  5
3B7
100
AcDbEntity
  8
0
100
AcDbCircle
 62
9
  6
CONTINUOUS
 10
5.6477379924
 20
17.5902931857
 40
0.0833491419
100
AcDbArc
 50
339.5320466509
 51
340.5970322006
  0
CIRCLE
  5
3B8
100
AcDbEntity
  8
0
100
AcDbCircle
 62
7
  6
CONTINUOUS
 10
5.6471428871
 20
17.5906536658
 40
0.0708661417
  0
ARC
  5
3B9
100
AcDbEntity
  8
0
100
AcDbCircle
 62
7
  6
CONTINUOUS
 10
5.6471428871
 20
17.5906536658
 40
0.0708661417
100
AcDbArc
 50
340.4999991536
 51
160.5000000001
  0
CIRCLE
  5
3BA
100
AcDbEntity
  8
0
100
AcDbCircle
 62
9
  6
CONTINUOUS
 10
5.6471428871
 20
17.5906536658
 40
0.0674067293
  0
CIRCLE
  5
3BB
100
AcDbEntity
  8
0
100
AcDbCircle
 62
9
  6
CONTINUOUS
 10
5.6471428871
 20
17.5906536658
 40
0.0546404342
  0
CIRCLE
  5
3BC
100
AcDbEntity
  8
0
100
AcDbCircle
 62
9
  6
CONTINUOUS
 10
5.6471428871
 20
17.5906536658
 40
0.0462887627
  0
CIRCLE
  5
3BD
100
AcDbEntity
  8
0
100
AcDbCircle
 62
7
  6
CONTINUOUS
 10
5.6471428871
 20
17.5906536658
 40
0.0295275591
  0
CIRCLE
  5
3BE
100
AcDbEntity
  8
0
100
AcDbCircle
 62
7
  6
CONTINUOUS
 10
5.3903335582
 20
18.1404139429
 40
0.0708661417
  0
CIRCLE
  5
3BF
100
AcDbEntity
  8
0
100
AcDbCircle
 62
9
  6
CONTINUOUS
 10
5.3903335582
 20
18.1404139429
 40
0.0651002345
  0
CIRCLE
  5
3C0
100
AcDbEntity
  8
0
100
AcDbCircle
 62
9
  6
CONTINUOUS
 10
5.3903335582
 20
18.1404139429
 40
0.0569463945
  0
CIRCLE
  5
3C1
100
AcDbEntity
  8
0
100
AcDbCircle
 62
9
  6
CONTINUOUS
 10
5.3903335582
 20
18.1404139429
 40
0.0430269203
  0
CIRCLE
  5
3C2
100
AcDbEntity
  8
0
100
AcDbCircle
 62
7
  6
CONTINUOUS
 10
5.359323055
 20
18.4297804479
 40
0.0826771654
  0
CIRCLE
  5
3C3
100
AcDbEntity
  8
0
100
AcDbCircle
 62
9
  6
CONTINUOUS
 10
5.359323055
 20
18.4297804479
 40
0.0769109535
  0
CIRCLE
  5
3C4
100
AcDbEntity
  8
0
100
AcDbCircle
 62
9
  6
CONTINUOUS
 10
5.359323055
 20
18.4297804479
 40
0.0687574628
  0
CIRCLE
  5
3C5
100
AcDbEntity
  8
0
100
AcDbCircle
 62
9
  6
CONTINUOUS
 10
5.359323055
 20
18.4297804479
 40
0.0548379698
  0
CIRCLE
  5
3C6
100
AcDbEntity
  8
0
100
AcDbCircle
 62
7
  6
CONTINUOUS
 10
5.6486895601
 20
18.3987699447
 40
0.0708661417
  0
CIRCLE
  5
3C7
100
AcDbEntity
  8
0
100
AcDbCircle
 62
9
  6
CONTINUOUS
 10
5.6486895601
 20
18.3987699447
 40
0.0651002345
  0
CIRCLE
  5
3C8
100
AcDbEntity
  8
0
100
AcDbCircle
 62
9
  6
CONTINUOUS
 10
5.6486895601
 20
18.3987699447
 40
0.0569463945
  0
CIRCLE
  5
3C9
100
AcDbEntity
  8
0
100
AcDbCircle
 62
9
  6
CONTINUOUS
 10
5.6486895601
 20
18.3987699447
 40
0.0430269203
  0
ARC
  5
3CA
100
AcDbEntity
  8
0
100
AcDbCircle
 62
7
  6
CONTINUOUS
 10
5.6487401572
 20
18.3986859492
 40
0.0176203964
100
AcDbArc
 50
307.5357415656
 51
127.4642583955
  0
ARC
  5
3CB
100
AcDbEntity
  8
0
100
AcDbCircle
 62
7
  6
CONTINUOUS
 10
5.648757598
 20
18.398699332
 40
0.0176203964
100
AcDbArc
 50
127.5357461325
 51
307.464253908
  0
CIRCLE
  5
3CC
100
AcDbEntity
  8
0
100
AcDbCircle
 62
7
  6
CONTINUOUS
 10
5.6936292766
 20
15.8904725903
 40
0.0826771654
  0
CIRCLE
  5
3CD
100
AcDbEntity
  8
0
100
AcDbCircle
 62
9
  6
CONTINUOUS
 10
5.6936292766
 20
15.8904725903
 40
0.0769109535
  0
CIRCLE
  5
3CE
100
AcDbEntity
  8
0
100
AcDbCircle
 62
7
  6
CONTINUOUS
 10
5.9651097483
 20
15.9953199987
 40
0.0708661417
  0
CIRCLE
  5
3CF
100
AcDbEntity
  8
0
100
AcDbCircle
 62
9
  6
CONTINUOUS
 10
5.6936292766
 20
15.8904725903
 40
0.0687574628
  0
CIRCLE
  5
3D0
100
AcDbEntity
  8
0
100
AcDbCircle
 62
9
  6
CONTINUOUS
 10
5.9651097483
 20
15.9953199987
 40
0.0651002345
  0
CIRCLE
  5
3D1
100
AcDbEntity
  8
0
100
AcDbCircle
 62
9
  6
CONTINUOUS
 10
5.9651097483
 20
15.9953199987
 40
0.0569463945
  0
CIRCLE
  5
3D2
100
AcDbEntity
  8
0
100
AcDbCircle
 62
9
  6
CONTINUOUS
 10
5.6936292766
 20
15.8904725903
 40
0.0548379698
  0
CIRCLE
  5
3D3
100
AcDbEntity
  8
0
100
AcDbCircle
 62
9
  6
CONTINUOUS
 10
5.9651097483
 20
15.9953199987
 40
0.0430269203
  0
ARC
  5
3D4
100
AcDbEntity
  8
0
100
AcDbCircle
 62
7
  6
CONTINUOUS
 10
5.9651368817
 20
15.9954142277
 40
0.0176203964
100
AcDbArc
 50
247.5357416306
 51
67.4642584058
  0
ARC
  5
3D5
100
AcDbEntity
  8
0
100
AcDbCircle
 62
7
  6
CONTINUOUS
 10
5.965157192
 20
15.9954058149
 40
0.0176203964
100
AcDbArc
 50
67.5357460631
 51
247.4642538938
  0
ARC
  5
3D6
100
AcDbEntity
  8
0
100
AcDbCircle
 62
9
  6
CONTINUOUS
 10
5.7780905768
 20
16.7117242383
 40
0.1030426648
100
AcDbArc
 50
39.3099687355
 51
40.1923584252
  0
ARC
  5
3D7
100
AcDbEntity
  8
0
100
AcDbCircle
 62
9
  6
CONTINUOUS
 10
5.8003681859
 20
16.7304215538
 40
0.0911266627
100
AcDbArc
 50
217.2473919176
 51
218.0648420492
  0
ARC
  5
3D8
100
AcDbEntity
  8
0
100
AcDbCircle
 62
9
  6
CONTINUOUS
 10
5.7970515586
 20
16.7290567332
 40
0.0876793226
100
AcDbArc
 50
218.6989391179
 51
219.499140566
  0
ARC
  5
3D9
100
AcDbEntity
  8
0
100
AcDbCircle
 62
9
  6
CONTINUOUS
 10
5.7934413355
 20
16.7255176059
 40
0.0824324545
100
AcDbArc
 50
37.5789761615
 51
38.6514521006
  0
ARC
  5
3DA
100
AcDbEntity
  8
0
100
AcDbCircle
 62
9
  6
CONTINUOUS
 10
5.7948939973
 20
16.7264995231
 40
0.0806824458
100
AcDbArc
 50
24.7306737914
 51
37.6554792412
  0
ARC
  5
3DB
100
AcDbEntity
  8
0
100
AcDbCircle
 62
9
  6
CONTINUOUS
 10
5.7903813608
 20
16.7245394377
 40
0.0795111312
100
AcDbArc
 50
202.8800029394
 51
204.7489077794
  0
CIRCLE
  5
3DC
100
AcDbEntity
  8
0
100
AcDbCircle
 62
7
  6
CONTINUOUS
 10
5.7920549614
 20
16.7246932561
 40
0.0708661417
  0
CIRCLE
  5
3DD
100
AcDbEntity
  8
0
100
AcDbCircle
 62
7
  6
CONTINUOUS
 10
5.7920549614
 20
16.7246932561
 40
0.0708661417
  0
CIRCLE
  5
3DE
100
AcDbEntity
  8
0
100
AcDbCircle
 62
9
  6
CONTINUOUS
 10
5.7920549614
 20
16.7246932561
 40
0.0674067293
  0
CIRCLE
  5
3DF
100
AcDbEntity
  8
0
100
AcDbCircle
 62
9
  6
CONTINUOUS
 10
5.7920549614
 20
16.7246932561
 40
0.0546404342
  0
CIRCLE
  5
3E0
100
AcDbEntity
  8
0
100
AcDbCircle
 62
9
  6
CONTINUOUS
 10
5.7920549614
 20
16.7246932561
 40
0.0462887627
  0
CIRCLE
  5
3E1
100
AcDbEntity
  8
0
100
AcDbCircle
 62
7
  6
CONTINUOUS
 10
5.7920549614
 20
16.7246932561
 40
0.0295275591
  0
ARC
  5
3E2
100
AcDbEntity
  8
0
100
AcDbCircle
 62
9
  6
CONTINUOUS
 10
5.940520742
 20
16.5597972421
 40
0.0975773886
100
AcDbArc
 50
51.0684632131
 51
51.9744769329
  0
ARC
  5
3E3
100
AcDbEntity
  8
0
100
AcDbCircle
 62
9
  6
CONTINUOUS
 10
5.9515613744
 20
16.5728268743
 40
0.0845673549
100
AcDbArc
 50
232.5459276929
 51
233.388141028
  0
ARC
  5
3E4
100
AcDbEntity
  8
0
100
AcDbCircle
 62
9
  6
CONTINUOUS
 10
5.9505610345
 20
16.5713327427
 40
0.0827735886
100
AcDbArc
 50
218.6477721504
 51
231.596321902
  0
ARC
  5
3E5
100
AcDbEntity
  8
0
100
AcDbCircle
 62
9
  6
CONTINUOUS
 10
5.9501603312
 20
16.571001178
 40
0.0822535674
100
AcDbArc
 50
216.8728602157
 51
218.6417116849
  0
ARC
  5
3E6
100
AcDbEntity
  8
0
100
AcDbCircle
 62
9
  6
CONTINUOUS
 10
5.9497741575
 20
16.5703865884
 40
0.08154333
100
AcDbArc
 50
231.6166210292
 51
232.5000919093
  0
ARC
  5
3E7
100
AcDbEntity
  8
0
100
AcDbCircle
 62
9
  6
CONTINUOUS
 10
5.9552343224
 20
16.5751158761
 40
0.0763054995
100
AcDbArc
 50
36.0636271028
 51
38.8884994228
  0
CIRCLE
  5
3E8
100
AcDbEntity
  8
0
100
AcDbCircle
 62
7
  6
CONTINUOUS
 10
5.9494752268
 20
16.5699967922
 40
0.0708661417
  0
ARC
  5
3E9
100
AcDbEntity
  8
0
100
AcDbCircle
 62
7
  6
CONTINUOUS
 10
5.9494752268
 20
16.5699967922
 40
0.0708661417
100
AcDbArc
 50
217.6091257957
 51
211.0760984468
  0
CIRCLE
  5
3EA
100
AcDbEntity
  8
0
100
AcDbCircle
 62
9
  6
CONTINUOUS
 10
5.9494752268
 20
16.5699967922
 40
0.0674067293
  0
CIRCLE
  5
3EB
100
AcDbEntity
  8
0
100
AcDbCircle
 62
9
  6
CONTINUOUS
 10
5.9494752268
 20
16.5699967922
 40
0.0546404342
  0
CIRCLE
  5
3EC
100
AcDbEntity
  8
0
100
AcDbCircle
 62
9
  6
CONTINUOUS
 10
5.9494752268
 20
16.5699967922
 40
0.0462887628
  0
CIRCLE
  5
3ED
100
AcDbEntity
  8
0
100
AcDbCircle
 62
7
  6
CONTINUOUS
 10
5.9494752268
 20
16.5699967922
 40
0.0295275591
  0
CIRCLE
  5
3EE
100
AcDbEntity
  8
0
100
AcDbCircle
 62
7
  6
CONTINUOUS
 10
5.9995122123
 20
16.9990175334
 40
0.0295275591
  0
CIRCLE
  5
3EF
100
AcDbEntity
  8
0
100
AcDbCircle
 62
7
  6
CONTINUOUS
 10
6.0829371172
 20
15.7292160028
 40
0.0826771654
  0
CIRCLE
  5
3F0
100
AcDbEntity
  8
0
100
AcDbCircle
 62
9
  6
CONTINUOUS
 10
6.0829371172
 20
15.7292160028
 40
0.0769109535
  0
CIRCLE
  5
3F1
100
AcDbEntity
  8
0
100
AcDbCircle
 62
9
  6
CONTINUOUS
 10
6.0829371172
 20
15.7292160028
 40
0.0687574628
  0
CIRCLE
  5
3F2
100
AcDbEntity
  8
0
100
AcDbCircle
 62
9
  6
CONTINUOUS
 10
6.0829371172
 20
15.7292160028
 40
0.0548379698
  0
ARC
  5
3F3
100
AcDbEntity
  8
0
100
AcDbCircle
 62
9
  6
CONTINUOUS
 10
6.1447057221
 20
16.4677403053
 40
0.0920253488
100
AcDbArc
 50
245.2316351992
 51
246.0332620348
  0
ARC
  5
3F4
100
AcDbEntity
  8
0
100
AcDbCircle
 62
9
  6
CONTINUOUS
 10
6.1422167188
 20
16.4649012978
 40
0.088427176
100
AcDbArc
 50
246.7597439312
 51
247.5533664269
  0
ARC
  5
3F5
100
AcDbEntity
  8
0
100
AcDbCircle
 62
9
  6
CONTINUOUS
 10
6.1397664773
 20
16.4580751736
 40
0.0838931748
100
AcDbArc
 50
65.4854276177
 51
66.5505503113
  0
ARC
  5
3F6
100
AcDbEntity
  8
0
100
AcDbCircle
 62
9
  6
CONTINUOUS
 10
6.1380870687
 20
16.4568631801
 40
0.0792654041
100
AcDbArc
 50
230.9082375105
 51
232.7624767323
  0
CIRCLE
  5
3F7
100
AcDbEntity
  8
0
100
AcDbCircle
 62
7
  6
CONTINUOUS
 10
6.1396438993
 20
16.4579788834
 40
0.0708661417
  0
ARC
  5
3F8
100
AcDbEntity
  8
0
100
AcDbCircle
 62
7
  6
CONTINUOUS
 10
6.1396438993
 20
16.4579788834
 40
0.0708661417
100
AcDbArc
 50
246.5
 51
66.4999995299
  0
CIRCLE
  5
3F9
100
AcDbEntity
  8
0
100
AcDbCircle
 62
9
  6
CONTINUOUS
 10
6.1396438993
 20
16.4579788834
 40
0.0674067293
  0
CIRCLE
  5
3FA
100
AcDbEntity
  8
0
100
AcDbCircle
 62
9
  6
CONTINUOUS
 10
6.1396438993
 20
16.4579788834
 40
0.0546404342
  0
CIRCLE
  5
3FB
100
AcDbEntity
  8
0
100
AcDbCircle
 62
9
  6
CONTINUOUS
 10
6.1396438993
 20
16.4579788834
 40
0.0462887626
  0
CIRCLE
  5
3FC
100
AcDbEntity
  8
0
100
AcDbCircle
 62
7
  6
CONTINUOUS
 10
6.1396438993
 20
16.4579788834
 40
0.0295275591
  0
CIRCLE
  5
3FD
100
AcDbEntity
  8
0
100
AcDbCircle
 62
7
  6
CONTINUOUS
 10
6.31803061
 20
15.9007551388
 40
0.0708661417
  0
CIRCLE
  5
3FE
100
AcDbEntity
  8
0
100
AcDbCircle
 62
9
  6
CONTINUOUS
 10
6.31803061
 20
15.9007551388
 40
0.0651002345
  0
CIRCLE
  5
3FF
100
AcDbEntity
  8
0
100
AcDbCircle
 62
9
  6
CONTINUOUS
 10
6.31803061
 20
15.9007551388
 40
0.0569463945
  0
CIRCLE
  5
400
100
AcDbEntity
  8
0
100
AcDbCircle
 62
9
  6
CONTINUOUS
 10
6.31803061
 20
15.9007551388
 40
0.0430269203
  0
CIRCLE
  5
401
100
AcDbEntity
  8
0
100
AcDbCircle
 62
9
  6
CONTINUOUS
 10
6.0381717331
 20
17.2274925185
 40
0.1439792358
  0
CIRCLE
  5
402
100
AcDbEntity
  8
0
100
AcDbCircle
 62
9
  6
CONTINUOUS
 10
6.2167071139
 20
16.9182601679
 40
0.1439792321
  0
CIRCLE
  5
403
100
AcDbEntity
  8
0
100
AcDbCircle
 62
9
  6
CONTINUOUS
 10
6.0381717331
 20
17.2274925185
 40
0.130060568
  0
CIRCLE
  5
404
100
AcDbEntity
  8
0
100
AcDbCircle
 62
9
  6
CONTINUOUS
 10
6.2167071139
 20
16.9182601679
 40
0.1300605664
  0
CIRCLE
  5
405
100
AcDbEntity
  8
0
100
AcDbCircle
 62
9
  6
CONTINUOUS
 10
6.0381717331
 20
17.2274925185
 40
0.1219067236
  0
CIRCLE
  5
406
100
AcDbEntity
  8
0
100
AcDbCircle
 62
9
  6
CONTINUOUS
 10
6.2167071139
 20
16.9182601679
 40
0.1219067236
  0
CIRCLE
  5
407
100
AcDbEntity
  8
0
100
AcDbCircle
 62
9
  6
CONTINUOUS
 10
6.0381717331
 20
17.2274925185
 40
0.1079869821
  0
CIRCLE
  5
408
100
AcDbEntity
  8
0
100
AcDbCircle
 62
9
  6
CONTINUOUS
 10
6.2167071139
 20
16.9182601679
 40
0.1079869821
  0
CIRCLE
  5
409
100
AcDbEntity
  8
0
100
AcDbCircle
 62
7
  6
CONTINUOUS
 10
6.0381717331
 20
17.2274925185
 40
0.0885826772
  0
CIRCLE
  5
40A
100
AcDbEntity
  8
0
100
AcDbCircle
 62
7
  6
CONTINUOUS
 10
6.2167071139
 20
16.9182601679
 40
0.0885826772
  0
CIRCLE
  5
40B
100
AcDbEntity
  8
0
100
AcDbCircle
 62
7
  6
CONTINUOUS
 10
6.3509269159
 20
16.7293675473
 40
0.0295275591
  0
ARC
  5
40C
100
AcDbEntity
  8
0
100
AcDbCircle
 62
9
  6
CONTINUOUS
 10
5.7540557863
 20
17.7817216905
 40
0.091648168
100
AcDbArc
 50
145.2375363393
 51
146.0467231491
  0
ARC
  5
40D
100
AcDbEntity
  8
0
100
AcDbCircle
 62
9
  6
CONTINUOUS
 10
5.7512975427
 20
17.7847803704
 40
0.0876575655
100
AcDbArc
 50
146.6981659872
 51
147.4980579694
  0
ARC
  5
40E
100
AcDbEntity
  8
0
100
AcDbCircle
 62
9
  6
CONTINUOUS
 10
5.7461129754
 20
17.787679083
 40
0.0833487342
100
AcDbArc
 50
325.5320597725
 51
326.5970508611
  0
CIRCLE
  5
40F
100
AcDbEntity
  8
0
100
AcDbCircle
 62
7
  6
CONTINUOUS
 10
5.7456224299
 20
17.7881730713
 40
0.0708661417
  0
CIRCLE
  5
410
100
AcDbEntity
  8
0
100
AcDbCircle
 62
9
  6
CONTINUOUS
 10
5.7456224299
 20
17.7881730713
 40
0.0674067293
  0
CIRCLE
  5
411
100
AcDbEntity
  8
0
100
AcDbCircle
 62
9
  6
CONTINUOUS
 10
5.7456224299
 20
17.7881730713
 40
0.0546404338
  0
CIRCLE
  5
412
100
AcDbEntity
  8
0
100
AcDbCircle
 62
9
  6
CONTINUOUS
 10
5.7456224299
 20
17.7881730713
 40
0.0462887621
  0
CIRCLE
  5
413
100
AcDbEntity
  8
0
100
AcDbCircle
 62
7
  6
CONTINUOUS
 10
5.7456224299
 20
17.7881730713
 40
0.0295275591
  0
CIRCLE
  5
414
100
AcDbEntity
  8
0
100
AcDbCircle
 62
7
  6
CONTINUOUS
 10
5.941695826
 20
17.438176587
 40
0.0295275591
  0
CIRCLE
  5
415
100
AcDbEntity
  8
0
100
AcDbCircle
 62
7
  6
CONTINUOUS
 10
5.6936292766
 20
18.686302634
 40
0.0826771654
  0
CIRCLE
  5
416
100
AcDbEntity
  8
0
100
AcDbCircle
 62
9
  6
CONTINUOUS
 10
5.6936292766
 20
18.686302634
 40
0.0769109536
  0
CIRCLE
  5
417
100
AcDbEntity
  8
0
100
AcDbCircle
 62
7
  6
CONTINUOUS
 10
5.9651097483
 20
18.5814552255
 40
0.0708661417
  0
CIRCLE
  5
418
100
AcDbEntity
  8
0
100
AcDbCircle
 62
9
  6
CONTINUOUS
 10
5.6936292766
 20
18.686302634
 40
0.0687574628
  0
CIRCLE
  5
419
100
AcDbEntity
  8
0
100
AcDbCircle
 62
9
  6
CONTINUOUS
 10
5.9651097483
 20
18.5814552255
 40
0.0651002345
  0
CIRCLE
  5
41A
100
AcDbEntity
  8
0
100
AcDbCircle
 62
9
  6
CONTINUOUS
 10
5.9651097483
 20
18.5814552255
 40
0.0569463945
  0
CIRCLE
  5
41B
100
AcDbEntity
  8
0
100
AcDbCircle
 62
9
  6
CONTINUOUS
 10
5.6936292766
 20
18.686302634
 40
0.0548379698
  0
CIRCLE
  5
41C
100
AcDbEntity
  8
0
100
AcDbCircle
 62
9
  6
CONTINUOUS
 10
5.9651097483
 20
18.5814552255
 40
0.0430269203
  0
CIRCLE
  5
41D
100
AcDbEntity
  8
0
100
AcDbCircle
 62
9
  6
CONTINUOUS
 10
6.4398207972
 20
17.7509317699
 40
0.1439792358
  0
CIRCLE
  5
41E
100
AcDbEntity
  8
0
100
AcDbCircle
 62
9
  6
CONTINUOUS
 10
6.1305884466
 20
17.572396389
 40
0.1439792321
  0
CIRCLE
  5
41F
100
AcDbEntity
  8
0
100
AcDbCircle
 62
9
  6
CONTINUOUS
 10
6.4398207972
 20
17.7509317699
 40
0.130060568
  0
CIRCLE
  5
420
100
AcDbEntity
  8
0
100
AcDbCircle
 62
9
  6
CONTINUOUS
 10
6.1305884466
 20
17.572396389
 40
0.1300605664
  0
CIRCLE
  5
421
100
AcDbEntity
  8
0
100
AcDbCircle
 62
9
  6
CONTINUOUS
 10
6.4398207972
 20
17.7509317699
 40
0.1219067236
  0
CIRCLE
  5
422
100
AcDbEntity
  8
0
100
AcDbCircle
 62
9
  6
CONTINUOUS
 10
6.1305884466
 20
17.572396389
 40
0.1219067236
  0
CIRCLE
  5
423
100
AcDbEntity
  8
0
100
AcDbCircle
 62
9
  6
CONTINUOUS
 10
6.4398207972
 20
17.7509317699
 40
0.1079869821
  0
CIRCLE
  5
424
100
AcDbEntity
  8
0
100
AcDbCircle
 62
9
  6
CONTINUOUS
 10
6.1305884466
 20
17.572396389
 40
0.1079869821
  0
CIRCLE
  5
425
100
AcDbEntity
  8
0
100
AcDbCircle
 62
7
  6
CONTINUOUS
 10
6.4398207972
 20
17.7509317699
 40
0.0885826772
  0
CIRCLE
  5
426
100
AcDbEntity
  8
0
100
AcDbCircle
 62
7
  6
CONTINUOUS
 10
6.1305884466
 20
17.572396389
 40
0.0885826772
  0
CIRCLE
  5
427
100
AcDbEntity
  8
0
100
AcDbCircle
 62
7
  6
CONTINUOUS
 10
6.2113458121
 20
17.7895912907
 40
0.0295275591
  0
CIRCLE
  5
428
100
AcDbEntity
  8
0
100
AcDbCircle
 62
7
  6
CONTINUOUS
 10
6.0829371172
 20
18.8475592215
 40
0.0826771654
  0
CIRCLE
  5
429
100
AcDbEntity
  8
0
100
AcDbCircle
 62
9
  6
CONTINUOUS
 10
6.0829371172
 20
18.8475592215
 40
0.0769109535
  0
CIRCLE
  5
42A
100
AcDbEntity
  8
0
100
AcDbCircle
 62
9
  6
CONTINUOUS
 10
6.0829371172
 20
18.8475592215
 40
0.0687574628
  0
CIRCLE
  5
42B
100
AcDbEntity
  8
0
100
AcDbCircle
 62
9
  6
CONTINUOUS
 10
6.0829371172
 20
18.8475592215
 40
0.0548379698
  0
ARC
  5
42C
100
AcDbEntity
  8
0
100
AcDbCircle
 62
9
  6
CONTINUOUS
 10
6.3064524734
 20
18.1660534529
 40
0.0876564679
100
AcDbArc
 50
102.698088384
 51
103.497986185
  0
CIRCLE
  5
42D
100
AcDbEntity
  8
0
100
AcDbCircle
 62
7
  6
CONTINUOUS
 10
6.304727264
 20
18.1724351776
 40
0.0708661417
  0
CIRCLE
  5
42E
100
AcDbEntity
  8
0
100
AcDbCircle
 62
7
  6
CONTINUOUS
 10
6.304727264
 20
18.1724351776
 40
0.0708661417
  0
CIRCLE
  5
42F
100
AcDbEntity
  8
0
100
AcDbCircle
 62
9
  6
CONTINUOUS
 10
6.304727264
 20
18.1724351776
 40
0.0674067293
  0
CIRCLE
  5
430
100
AcDbEntity
  8
0
100
AcDbCircle
 62
9
  6
CONTINUOUS
 10
6.304727264
 20
18.1724351776
 40
0.0546404342
  0
CIRCLE
  5
431
100
AcDbEntity
  8
0
100
AcDbCircle
 62
9
  6
CONTINUOUS
 10
6.304727264
 20
18.1724351776
 40
0.0462887627
  0
CIRCLE
  5
432
100
AcDbEntity
  8
0
100
AcDbCircle
 62
7
  6
CONTINUOUS
 10
6.304727264
 20
18.1724351776
 40
0.0295275591
  0
CIRCLE
  5
433
100
AcDbEntity
  8
0
100
AcDbCircle
 62
7
  6
CONTINUOUS
 10
6.31803061
 20
18.6760200854
 40
0.0708661417
  0
CIRCLE
  5
434
100
AcDbEntity
  8
0
100
AcDbCircle
 62
9
  6
CONTINUOUS
 10
6.31803061
 20
18.6760200854
 40
0.0651002345
  0
CIRCLE
  5
435
100
AcDbEntity
  8
0
100
AcDbCircle
 62
9
  6
CONTINUOUS
 10
6.31803061
 20
18.6760200854
 40
0.0569463945
  0
CIRCLE
  5
436
100
AcDbEntity
  8
0
100
AcDbCircle
 62
9
  6
CONTINUOUS
 10
6.31803061
 20
18.6760200854
 40
0.0430269203
  0
ARC
  5
437
100
AcDbEntity
  8
0
100
AcDbCircle
 62
7
  6
CONTINUOUS
 10
6.3180324306
 20
18.6759220446
 40
0.0176203964
100
AcDbArc
 50
277.5357415696
 51
97.4642583931
  0
ARC
  5
438
100
AcDbEntity
  8
0
100
AcDbCircle
 62
7
  6
CONTINUOUS
 10
6.3180542262
 20
18.675924914
 40
0.0176203964
100
AcDbArc
 50
97.5357461317
 51
277.4642539105
  0
ARC
  5
439
100
AcDbEntity
  8
0
100
AcDbCircle
 62
7
  6
CONTINUOUS
 10
7.0813344228
 20
14.3583876121
 40
0.06
100
AcDbArc
 50
219.0
 51
270.0
  0
ARC
  5
43A
100
AcDbEntity
  8
0
100
AcDbCircle
 62
7
  6
CONTINUOUS
 10
6.9357158908
 20
14.5381228129
 40
0.06
100
AcDbArc
 50
180.0
 51
221.4718295498
  0
ARC
  5
43B
100
AcDbEntity
  8
0
100
AcDbCircle
 62
7
  6
CONTINUOUS
 10
7.1013733228
 20
14.0885477731
 40
0.06
100
AcDbArc
 50
93.2432014018
 51
185.0755073159
  0
ARC
  5
43C
100
AcDbEntity
  8
0
100
AcDbCircle
 62
7
  6
CONTINUOUS
 10
7.1013733228
 20
10.5082274512
 40
0.06
100
AcDbArc
 50
174.9244926841
 51
266.7567985982
  0
ARC
  5
43D
100
AcDbEntity
  8
0
100
AcDbCircle
 62
7
  6
CONTINUOUS
 10
7.0957158908
 20
14.2583876121
 40
0.04
100
AcDbArc
 50
0.0
 51
90.0
  0
ARC
  5
43E
100
AcDbEntity
  8
0
100
AcDbCircle
 62
7
  6
CONTINUOUS
 10
7.0957158908
 20
14.1883876121
 40
0.04
100
AcDbArc
 50
273.2432014018
 51
360.0
  0
CIRCLE
  5
43F
100
AcDbEntity
  8
0
100
AcDbCircle
 62
7
  6
CONTINUOUS
 10
6.5007158908
 20
15.6742143838
 40
0.0826771654
  0
CIRCLE
  5
440
100
AcDbEntity
  8
0
100
AcDbCircle
 62
9
  6
CONTINUOUS
 10
6.5007158908
 20
15.6742143838
 40
0.0769109535
  0
CIRCLE
  5
441
100
AcDbEntity
  8
0
100
AcDbCircle
 62
7
  6
CONTINUOUS
 10
6.6834011717
 20
15.9007551388
 40
0.0708661417
  0
CIRCLE
  5
442
100
AcDbEntity
  8
0
100
AcDbCircle
 62
9
  6
CONTINUOUS
 10
6.5007158908
 20
15.6742143838
 40
0.0687574628
  0
CIRCLE
  5
443
100
AcDbEntity
  8
0
100
AcDbCircle
 62
9
  6
CONTINUOUS
 10
6.6834011717
 20
15.9007551388
 40
0.0651002345
  0
CIRCLE
  5
444
100
AcDbEntity
  8
0
100
AcDbCircle
 62
9
  6
CONTINUOUS
 10
6.6834011717
 20
15.9007551388
 40
0.0569463945
  0
CIRCLE
  5
445
100
AcDbEntity
  8
0
100
AcDbCircle
 62
9
  6
CONTINUOUS
 10
6.5007158908
 20
15.6742143838
 40
0.0548379698
  0
CIRCLE
  5
446
100
AcDbEntity
  8
0
100
AcDbCircle
 62
9
  6
CONTINUOUS
 10
6.6834011717
 20
15.9007551388
 40
0.0430269203
  0
ARC
  5
447
100
AcDbEntity
  8
0
100
AcDbCircle
 62
7
  6
CONTINUOUS
 10
6.6833775554
 20
15.9008503102
 40
0.0176203964
100
AcDbArc
 50
277.5357416358
 51
97.4642584047
  0
ARC
  5
448
100
AcDbEntity
  8
0
100
AcDbCircle
 62
7
  6
CONTINUOUS
 10
6.683399351
 20
15.9008531797
 40
0.0176203964
100
AcDbArc
 50
97.535746062
 51
277.464253899
  0
CIRCLE
  5
449
100
AcDbEntity
  8
0
100
AcDbCircle
 62
9
  6
CONTINUOUS
 10
6.5616109844
 20
16.8258434544
 40
0.1439792358
  0
CIRCLE
  5
44A
100
AcDbEntity
  8
0
100
AcDbCircle
 62
9
  6
CONTINUOUS
 10
6.5616109844
 20
16.8258434544
 40
0.130060568
  0
CIRCLE
  5
44B
100
AcDbEntity
  8
0
100
AcDbCircle
 62
9
  6
CONTINUOUS
 10
6.5616109844
 20
16.8258434544
 40
0.1219067236
  0
CIRCLE
  5
44C
100
AcDbEntity
  8
0
100
AcDbCircle
 62
9
  6
CONTINUOUS
 10
6.5616109844
 20
16.8258434544
 40
0.1079869821
  0
CIRCLE
  5
44D
100
AcDbEntity
  8
0
100
AcDbCircle
 62
7
  6
CONTINUOUS
 10
6.5616109844
 20
16.8258434544
 40
0.0885826772
  0
ARC
  5
44E
100
AcDbEntity
  8
0
100
AcDbCircle
 62
9
  6
CONTINUOUS
 10
6.8235201289
 20
16.4280322789
 40
0.0974436076
100
AcDbArc
 50
111.1226712881
 51
112.0556617787
  0
ARC
  5
44F
100
AcDbEntity
  8
0
100
AcDbCircle
 62
9
  6
CONTINUOUS
 10
6.8203755786
 20
16.4358606637
 40
0.0760832397
100
AcDbArc
 50
289.8560325189
 51
290.7420277761
  0
CIRCLE
  5
450
100
AcDbEntity
  8
0
100
AcDbCircle
 62
7
  6
CONTINUOUS
 10
6.8178328109
 20
16.4402198817
 40
0.0708661417
  0
CIRCLE
  5
451
100
AcDbEntity
  8
0
100
AcDbCircle
 62
9
  6
CONTINUOUS
 10
6.8178328109
 20
16.4402198817
 40
0.0674067293
  0
CIRCLE
  5
452
100
AcDbEntity
  8
0
100
AcDbCircle
 62
9
  6
CONTINUOUS
 10
6.8178328109
 20
16.4402198817
 40
0.0546404342
  0
CIRCLE
  5
453
100
AcDbEntity
  8
0
100
AcDbCircle
 62
9
  6
CONTINUOUS
 10
6.8178328109
 20
16.4402198817
 40
0.0462887627
  0
CIRCLE
  5
454
100
AcDbEntity
  8
0
100
AcDbCircle
 62
7
  6
CONTINUOUS
 10
6.8178328109
 20
16.4402198817
 40
0.0295275591
  0
CIRCLE
  5
455
100
AcDbEntity
  8
0
100
AcDbCircle
 62
7
  6
CONTINUOUS
 10
6.7900859696
 20
16.7871839336
 40
0.0295275591
  0
CIRCLE
  5
456
100
AcDbEntity
  8
0
100
AcDbCircle
 62
7
  6
CONTINUOUS
 10
6.9184946644
 20
15.7292160028
 40
0.0826771654
  0
CIRCLE
  5
457
100
AcDbEntity
  8
0
100
AcDbCircle
 62
9
  6
CONTINUOUS
 10
6.9184946644
 20
15.7292160028
 40
0.0769109535
  0
CIRCLE
  5
458
100
AcDbEntity
  8
0
100
AcDbCircle
 62
7
  6
CONTINUOUS
 10
7.0363220334
 20
15.9953199987
 40
0.0708661417
  0
CIRCLE
  5
459
100
AcDbEntity
  8
0
100
AcDbCircle
 62
9
  6
CONTINUOUS
 10
6.9184946644
 20
15.7292160028
 40
0.0687574628
  0
CIRCLE
  5
45A
100
AcDbEntity
  8
0
100
AcDbCircle
 62
9
  6
CONTINUOUS
 10
7.0363220334
 20
15.9953199987
 40
0.0651002345
  0
CIRCLE
  5
45B
100
AcDbEntity
  8
0
100
AcDbCircle
 62
9
  6
CONTINUOUS
 10
7.0363220334
 20
15.9953199987
 40
0.0569463945
  0
CIRCLE
  5
45C
100
AcDbEntity
  8
0
100
AcDbCircle
 62
9
  6
CONTINUOUS
 10
6.9184946644
 20
15.7292160028
 40
0.0548379698
  0
CIRCLE
  5
45D
100
AcDbEntity
  8
0
100
AcDbCircle
 62
9
  6
CONTINUOUS
 10
7.0363220334
 20
15.9953199987
 40
0.0430269203
  0
ARC
  5
45E
100
AcDbEntity
  8
0
100
AcDbCircle
 62
9
  6
CONTINUOUS
 10
7.0224667328
 20
16.5311852993
 40
0.0980779185
100
AcDbArc
 50
125.1452014573
 51
126.0719655971
  0
ARC
  5
45F
100
AcDbEntity
  8
0
100
AcDbCircle
 62
9
  6
CONTINUOUS
 10
7.0081512938
 20
16.5513557727
 40
0.0917449965
100
AcDbArc
 50
303.2360377701
 51
304.0432417897
  0
ARC
  5
460
100
AcDbEntity
  8
0
100
AcDbCircle
 62
9
  6
CONTINUOUS
 10
7.0096132058
 20
16.5474023718
 40
0.0876564679
100
AcDbArc
 50
304.6980883819
 51
305.497986183
  0
CIRCLE
  5
461
100
AcDbEntity
  8
0
100
AcDbCircle
 62
7
  6
CONTINUOUS
 10
7.0136034282
 20
16.5421316146
 40
0.0708661417
  0
CIRCLE
  5
462
100
AcDbEntity
  8
0
100
AcDbCircle
 62
9
  6
CONTINUOUS
 10
7.0136034282
 20
16.5421316146
 40
0.0674067293
  0
CIRCLE
  5
463
100
AcDbEntity
  8
0
100
AcDbCircle
 62
9
  6
CONTINUOUS
 10
7.0136034282
 20
16.5421316146
 40
0.0546404342
  0
CIRCLE
  5
464
100
AcDbEntity
  8
0
100
AcDbCircle
 62
9
  6
CONTINUOUS
 10
7.0136034282
 20
16.5421316146
 40
0.0462887627
  0
CIRCLE
  5
465
100
AcDbEntity
  8
0
100
AcDbCircle
 62
7
  6
CONTINUOUS
 10
7.0136034282
 20
16.5421316146
 40
0.0295275591
  0
CIRCLE
  5
466
100
AcDbEntity
  8
0
100
AcDbCircle
 62
9
  6
CONTINUOUS
 10
6.870843335
 20
17.0043788352
 40
0.1439792321
  0
CIRCLE
  5
467
100
AcDbEntity
  8
0
100
AcDbCircle
 62
9
  6
CONTINUOUS
 10
6.870843335
 20
17.0043788352
 40
0.1300605664
  0
CIRCLE
  5
468
100
AcDbEntity
  8
0
100
AcDbCircle
 62
9
  6
CONTINUOUS
 10
6.870843335
 20
17.0043788352
 40
0.1219067236
  0
CIRCLE
  5
469
100
AcDbEntity
  8
0
100
AcDbCircle
 62
9
  6
CONTINUOUS
 10
6.870843335
 20
17.0043788352
 40
0.1079869821
  0
CIRCLE
  5
46A
100
AcDbEntity
  8
0
100
AcDbCircle
 62
7
  6
CONTINUOUS
 10
6.870843335
 20
17.0043788352
 40
0.0885826772
  0
ARC
  5
46B
100
AcDbEntity
  8
0
100
AcDbCircle
 62
9
  6
CONTINUOUS
 10
7.1886432047
 20
16.6810100628
 40
0.0962106999
100
AcDbArc
 50
139.0571460345
 51
139.9928033556
  0
ARC
  5
46C
100
AcDbEntity
  8
0
100
AcDbCircle
 62
9
  6
CONTINUOUS
 10
7.1714298987
 20
16.6959617321
 40
0.0916784296
100
AcDbArc
 50
317.235509117
 51
318.0451461567
  0
ARC
  5
46D
100
AcDbEntity
  8
0
100
AcDbCircle
 62
9
  6
CONTINUOUS
 10
7.1738307713
 20
16.6924694928
 40
0.0875638688
100
AcDbArc
 50
318.6942495321
 51
319.5001877395
  0
ARC
  5
46E
100
AcDbEntity
  8
0
100
AcDbCircle
 62
9
  6
CONTINUOUS
 10
7.1754094796
 20
16.6921289298
 40
0.0789286398
100
AcDbArc
 50
137.7659184156
 51
138.8587142261
  0
CIRCLE
  5
46F
100
AcDbEntity
  8
0
100
AcDbCircle
 62
7
  6
CONTINUOUS
 10
7.1789041419
 20
16.6883773322
 40
0.0708661417
  0
ARC
  5
470
100
AcDbEntity
  8
0
100
AcDbCircle
 62
7
  6
CONTINUOUS
 10
7.1789041419
 20
16.6883773322
 40
0.0708661417
100
AcDbArc
 50
138.499998711
 51
318.5
  0
CIRCLE
  5
471
100
AcDbEntity
  8
0
100
AcDbCircle
 62
9
  6
CONTINUOUS
 10
7.1789041419
 20
16.6883773322
 40
0.0674067292
  0
CIRCLE
  5
472
100
AcDbEntity
  8
0
100
AcDbCircle
 62
9
  6
CONTINUOUS
 10
7.1789041419
 20
16.6883773322
 40
0.0546404346
  0
CIRCLE
  5
473
100
AcDbEntity
  8
0
100
AcDbCircle
 62
9
  6
CONTINUOUS
 10
7.1789041419
 20
16.6883773322
 40
0.0462887633
  0
CIRCLE
  5
474
100
AcDbEntity
  8
0
100
AcDbCircle
 62
7
  6
CONTINUOUS
 10
7.1789041419
 20
16.6883773322
 40
0.0295275591
  0
CIRCLE
  5
475
100
AcDbEntity
  8
0
100
AcDbCircle
 62
7
  6
CONTINUOUS
 10
7.0597359556
 20
17.1385986372
 40
0.0295275591
  0
ARC
  5
476
100
AcDbEntity
  8
0
100
AcDbCircle
 62
7
  6
CONTINUOUS
 10
6.5007158908
 20
17.2883876121
 40
2.1497084296
100
AcDbArc
 50
211.3267920237
 51
208.7632150813
  0
ARC
  5
477
100
AcDbEntity
  8
0
100
AcDbCircle
 62
9
  6
CONTINUOUS
 10
6.5007158908
 20
17.2883876121
 40
2.025
100
AcDbArc
 50
212.2046302397
 51
207.7953725402
  0
ARC
  5
478
100
AcDbEntity
  8
0
100
AcDbCircle
 62
7
  6
CONTINUOUS
 10
6.5007158908
 20
17.2883876121
 40
1.877
100
AcDbArc
 50
212.3603575934
 51
207.6178448732
  0
ARC
  5
479
100
AcDbEntity
  8
0
100
AcDbCircle
 62
7
  6
CONTINUOUS
 10
6.5007158908
 20
17.2883876121
 40
1.8749065617
100
AcDbArc
 50
212.3645156414
 51
207.6167076399
  0
ARC
  5
47A
100
AcDbEntity
  8
0
100
AcDbCircle
 62
7
  6
CONTINUOUS
 10
6.5007158908
 20
17.2883876121
 40
1.865
100
AcDbArc
 50
30.0803854403
 51
92.0678528912
  0
ARC
  5
47B
100
AcDbEntity
  8
0
100
AcDbCircle
 62
7
  6
CONTINUOUS
 10
6.5007158908
 20
17.2883876121
 40
1.865
100
AcDbArc
 50
206.4122277444
 51
207.6114599196
  0
ARC
  5
47C
100
AcDbEntity
  8
0
100
AcDbCircle
 62
7
  6
CONTINUOUS
 10
6.5007158908
 20
17.2883876121
 40
1.865
100
AcDbArc
 50
212.3840401833
 51
215.0781478226
  0
ARC
  5
47D
100
AcDbEntity
  8
0
100
AcDbCircle
 62
7
  6
CONTINUOUS
 10
6.5007158908
 20
17.2883876121
 40
1.865
100
AcDbArc
 50
268.334002653
 51
271.6906948663
  0
ARC
  5
47E
100
AcDbEntity
  8
0
100
AcDbCircle
 62
7
  6
CONTINUOUS
 10
6.5007158908
 20
17.2883876121
 40
1.8622047244
100
AcDbArc
 50
212.4133019933
 51
207.5866972358
  0
ARC
  5
47F
100
AcDbEntity
  8
0
100
AcDbCircle
 62
9
  6
CONTINUOUS
 10
6.5007158908
 20
17.2883876121
 40
1.7683598047
100
AcDbArc
 50
213.1646759673
 51
206.8353242141
  0
ARC
  5
480
100
AcDbEntity
  8
0
100
AcDbCircle
 62
9
  6
CONTINUOUS
 10
6.5007158908
 20
17.2883876121
 40
1.75857485
100
AcDbArc
 50
213.2340769713
 51
206.7659278357
  0
ARC
  5
481
100
AcDbEntity
  8
0
100
AcDbCircle
 62
9
  6
CONTINUOUS
 10
6.5007158908
 20
17.2883876121
 40
1.7579204953
100
AcDbArc
 50
213.2374412786
 51
206.7625587217
  0
ARC
  5
482
100
AcDbEntity
  8
0
100
AcDbCircle
 62
9
  6
CONTINUOUS
 10
6.5007158908
 20
17.2883876121
 40
1.7335217585
100
AcDbArc
 50
213.2374456713
 51
206.7625528486
  0
CIRCLE
  5
483
100
AcDbEntity
  8
0
100
AcDbCircle
 62
9
  6
CONTINUOUS
 10
6.5007158908
 20
17.2883876121
 40
1.2864016238
  0
ARC
  5
484
100
AcDbEntity
  8
0
100
AcDbCircle
 62
9
  6
CONTINUOUS
 10
6.5007158908
 20
17.2883876121
 40
1.2864016238
100
AcDbArc
 50
210.0
 51
210.7172245659
  0
ARC
  5
485
100
AcDbEntity
  8
0
100
AcDbCircle
 62
9
  6
CONTINUOUS
 10
6.5007158908
 20
17.2883876121
 40
1.2864016238
100
AcDbArc
 50
30.0
 51
30.7172245658
  0
CIRCLE
  5
486
100
AcDbEntity
  8
0
100
AcDbCircle
 62
9
  6
CONTINUOUS
 10
6.5007158908
 20
17.2883876121
 40
1.270345173
  0
CIRCLE
  5
487
100
AcDbEntity
  8
0
100
AcDbCircle
 62
9
  6
CONTINUOUS
 10
6.5007158908
 20
17.2883876121
 40
1.270345173
  0
CIRCLE
  5
488
100
AcDbEntity
  8
0
100
AcDbCircle
 62
9
  6
CONTINUOUS
 10
6.5007158908
 20
17.2883876121
 40
1.2686221422
  0
ARC
  5
489
100
AcDbEntity
  8
0
100
AcDbCircle
 62
9
  6
CONTINUOUS
 10
6.5007158908
 20
17.2883876121
 40
1.2686221422
100
AcDbArc
 50
30.0
 51
210.0
  0
CIRCLE
  5
48A
100
AcDbEntity
  8
0
100
AcDbCircle
 62
9
  6
CONTINUOUS
 10
6.5007158908
 20
17.2883876121
 40
1.2621655827
  0
ARC
  5
48B
100
AcDbEntity
  8
0
100
AcDbCircle
 62
9
  6
CONTINUOUS
 10
6.5007158908
 20
17.2883876121
 40
1.2621655774
100
AcDbArc
 50
209.0671034207
 51
210.0
  0
CIRCLE
  5
48C
100
AcDbEntity
  8
0
100
AcDbCircle
 62
7
  6
CONTINUOUS
 10
6.5007158908
 20
17.2883876121
 40
1.1732283464
  0
ARC
  5
48D
100
AcDbEntity
  8
0
100
AcDbCircle
 62
7
  6
CONTINUOUS
 10
6.5007158907
 20
17.2883876123
 40
1.1732283462
100
AcDbArc
 50
29.9996511208
 51
210.0003488792
  0
CIRCLE
  5
48E
100
AcDbEntity
  8
0
100
AcDbCircle
 62
7
  6
CONTINUOUS
 10
6.5007158908
 20
17.2883876121
 40
1.1653404974
  0
CIRCLE
  5
48F
100
AcDbEntity
  8
0
100
AcDbCircle
 62
7
  6
CONTINUOUS
 10
6.5007158908
 20
17.2883876121
 40
1.1653404974
  0
CIRCLE
  5
490
100
AcDbEntity
  8
0
100
AcDbCircle
 62
7
  6
CONTINUOUS
 10
6.5007158908
 20
17.2883876121
 40
1.1614173228
  0
ARC
  5
491
100
AcDbEntity
  8
0
100
AcDbCircle
 62
7
  6
CONTINUOUS
 10
6.5007158908
 20
17.2883876121
 40
0.8937007874
100
AcDbArc
 50
316.802340994
 51
320.0
  0
ARC
  5
492
100
AcDbEntity
  8
0
100
AcDbCircle
 62
7
  6
CONTINUOUS
 10
6.5007158908
 20
17.2883876121
 40
0.8937007874
100
AcDbArc
 50
14.8055325994
 51
18.1914279563
  0
ARC
  5
493
100
AcDbEntity
  8
0
100
AcDbCircle
 62
7
  6
CONTINUOUS
 10
6.5007158908
 20
17.2883876121
 40
0.8937007874
100
AcDbArc
 50
72.8085922347
 51
76.1926660052
  0
CIRCLE
  5
494
100
AcDbEntity
  8
0
100
AcDbCircle
 62
9
  6
CONTINUOUS
 10
6.5007158908
 20
17.2883876121
 40
0.7233776624
  0
CIRCLE
  5
495
100
AcDbEntity
  8
0
100
AcDbCircle
 62
9
  6
CONTINUOUS
 10
6.5007158908
 20
17.2883876121
 40
0.6903545
  0
CIRCLE
  5
496
100
AcDbEntity
  8
0
100
AcDbCircle
 62
9
  6
CONTINUOUS
 10
6.5007158908
 20
17.2883876121
 40
0.6619775031
  0
CIRCLE
  5
497
100
AcDbEntity
  8
0
100
AcDbCircle
 62
9
  6
CONTINUOUS
 10
6.5007158908
 20
17.2883876121
 40
0.6434795449
  0
CIRCLE
  5
498
100
AcDbEntity
  8
0
100
AcDbCircle
 62
7
  6
CONTINUOUS
 10
6.5007158908
 20
17.2883876121
 40
0.2913385827
  0
CIRCLE
  5
499
100
AcDbEntity
  8
0
100
AcDbCircle
 62
7
  6
CONTINUOUS
 10
6.5007158908
 20
17.2883876121
 40
0.2755905512
  0
CIRCLE
  5
49A
100
AcDbEntity
  8
0
100
AcDbCircle
 62
9
  6
CONTINUOUS
 10
6.5007158908
 20
17.2883876121
 40
0.2650026166
  0
CIRCLE
  5
49B
100
AcDbEntity
  8
0
100
AcDbCircle
 62
9
  6
CONTINUOUS
 10
6.7847246677
 20
17.6585150563
 40
0.1439792321
  0
CIRCLE
  5
49C
100
AcDbEntity
  8
0
100
AcDbCircle
 62
9
  6
CONTINUOUS
 10
6.7847246677
 20
17.6585150563
 40
0.1300605664
  0
CIRCLE
  5
49D
100
AcDbEntity
  8
0
100
AcDbCircle
 62
9
  6
CONTINUOUS
 10
6.7847246677
 20
17.6585150563
 40
0.1219067236
  0
CIRCLE
  5
49E
100
AcDbEntity
  8
0
100
AcDbCircle
 62
9
  6
CONTINUOUS
 10
6.7847246677
 20
17.6585150563
 40
0.1079869821
  0
CIRCLE
  5
49F
100
AcDbEntity
  8
0
100
AcDbCircle
 62
7
  6
CONTINUOUS
 10
6.7847246677
 20
17.6585150563
 40
0.0885826772
  0
CIRCLE
  5
4A0
100
AcDbEntity
  8
0
100
AcDbCircle
 62
7
  6
CONTINUOUS
 10
6.6505048657
 20
17.8474076769
 40
0.0295275591
  0
CIRCLE
  5
4A1
100
AcDbEntity
  8
0
100
AcDbCircle
 62
7
  6
CONTINUOUS
 10
6.5244194267
 20
18.1935891269
 40
0.0708661417
  0
ARC
  5
4A2
100
AcDbEntity
  8
0
100
AcDbCircle
 62
7
  6
CONTINUOUS
 10
6.5244194267
 20
18.1935891269
 40
0.0708661417
100
AcDbArc
 50
268.5000005504
 51
88.5
  0
CIRCLE
  5
4A3
100
AcDbEntity
  8
0
100
AcDbCircle
 62
9
  6
CONTINUOUS
 10
6.5244194267
 20
18.1935891269
 40
0.0674067293
  0
CIRCLE
  5
4A4
100
AcDbEntity
  8
0
100
AcDbCircle
 62
9
  6
CONTINUOUS
 10
6.5244194267
 20
18.1935891269
 40
0.0546404342
  0
CIRCLE
  5
4A5
100
AcDbEntity
  8
0
100
AcDbCircle
 62
9
  6
CONTINUOUS
 10
6.5244194267
 20
18.1935891269
 40
0.0462887627
  0
CIRCLE
  5
4A6
100
AcDbEntity
  8
0
100
AcDbCircle
 62
7
  6
CONTINUOUS
 10
6.5244194267
 20
18.1935891269
 40
0.0295275591
  0
CIRCLE
  5
4A7
100
AcDbEntity
  8
0
100
AcDbCircle
 62
7
  6
CONTINUOUS
 10
6.5007158908
 20
18.9025608405
 40
0.0826771654
  0
CIRCLE
  5
4A8
100
AcDbEntity
  8
0
100
AcDbCircle
 62
9
  6
CONTINUOUS
 10
6.5007158908
 20
18.9025608405
 40
0.0769109535
  0
CIRCLE
  5
4A9
100
AcDbEntity
  8
0
100
AcDbCircle
 62
9
  6
CONTINUOUS
 10
6.5007158908
 20
18.9025608405
 40
0.0687574628
  0
CIRCLE
  5
4AA
100
AcDbEntity
  8
0
100
AcDbCircle
 62
9
  6
CONTINUOUS
 10
6.5007158908
 20
18.9025608405
 40
0.0548379698
  0
ARC
  5
4AB
100
AcDbEntity
  8
0
100
AcDbCircle
 62
9
  6
CONTINUOUS
 10
6.7422221465
 20
18.1593711365
 40
0.0827187367
100
AcDbArc
 50
60.6549297898
 51
73.6103303726
  0
ARC
  5
4AC
100
AcDbEntity
  8
0
100
AcDbCircle
 62
9
  6
CONTINUOUS
 10
6.7423643541
 20
18.1596327128
 40
0.0824210334
100
AcDbArc
 50
58.898837171
 51
60.6519891543
  0
ARC
  5
4AD
100
AcDbEntity
  8
0
100
AcDbCircle
 62
9
  6
CONTINUOUS
 10
6.7426871394
 20
18.1608037287
 40
0.0812131625
100
AcDbArc
 50
73.6398663932
 51
74.5196167371
  0
CIRCLE
  5
4AE
100
AcDbEntity
  8
0
100
AcDbCircle
 62
7
  6
CONTINUOUS
 10
6.7427033967
 20
18.160966369
 40
0.0708661417
  0
ARC
  5
4AF
100
AcDbEntity
  8
0
100
AcDbCircle
 62
7
  6
CONTINUOUS
 10
6.7427033967
 20
18.160966369
 40
0.0708661417
100
AcDbArc
 50
74.5000000002
 51
254.4999986186
  0
CIRCLE
  5
4B0
100
AcDbEntity
  8
0
100
AcDbCircle
 62
9
  6
CONTINUOUS
 10
6.7427033967
 20
18.160966369
 40
0.0674067293
  0
CIRCLE
  5
4B1
100
AcDbEntity
  8
0
100
AcDbCircle
 62
9
  6
CONTINUOUS
 10
6.7427033967
 20
18.160966369
 40
0.0546404342
  0
CIRCLE
  5
4B2
100
AcDbEntity
  8
0
100
AcDbCircle
 62
9
  6
CONTINUOUS
 10
6.7427033967
 20
18.160966369
 40
0.0462887627
  0
CIRCLE
  5
4B3
100
AcDbEntity
  8
0
100
AcDbCircle
 62
7
  6
CONTINUOUS
 10
6.7427033967
 20
18.160966369
 40
0.0295275591
  0
CIRCLE
  5
4B4
100
AcDbEntity
  8
0
100
AcDbCircle
 62
7
  6
CONTINUOUS
 10
6.6834011717
 20
18.6760200854
 40
0.0708661417
  0
CIRCLE
  5
4B5
100
AcDbEntity
  8
0
100
AcDbCircle
 62
9
  6
CONTINUOUS
 10
6.6834011717
 20
18.6760200854
 40
0.0651002345
  0
CIRCLE
  5
4B6
100
AcDbEntity
  8
0
100
AcDbCircle
 62
9
  6
CONTINUOUS
 10
6.6834011717
 20
18.6760200854
 40
0.0569463945
  0
CIRCLE
  5
4B7
100
AcDbEntity
  8
0
100
AcDbCircle
 62
9
  6
CONTINUOUS
 10
6.6834011717
 20
18.6760200854
 40
0.0430269203
  0
CIRCLE
  5
4B8
100
AcDbEntity
  8
0
100
AcDbCircle
 62
9
  6
CONTINUOUS
 10
6.9632600486
 20
17.3492827057
 40
0.1439792358
  0
CIRCLE
  5
4B9
100
AcDbEntity
  8
0
100
AcDbCircle
 62
9
  6
CONTINUOUS
 10
6.9632600486
 20
17.3492827057
 40
0.130060568
  0
CIRCLE
  5
4BA
100
AcDbEntity
  8
0
100
AcDbCircle
 62
9
  6
CONTINUOUS
 10
6.9632600486
 20
17.3492827057
 40
0.1219067236
  0
CIRCLE
  5
4BB
100
AcDbEntity
  8
0
100
AcDbCircle
 62
9
  6
CONTINUOUS
 10
6.9632600486
 20
17.3492827057
 40
0.1079869821
  0
CIRCLE
  5
4BC
100
AcDbEntity
  8
0
100
AcDbCircle
 62
7
  6
CONTINUOUS
 10
6.9632600486
 20
17.3492827057
 40
0.0885826772
  0
CIRCLE
  5
4BD
100
AcDbEntity
  8
0
100
AcDbCircle
 62
7
  6
CONTINUOUS
 10
7.0019195694
 20
17.5777576909
 40
0.0295275591
  0
ARC
  5
4BE
100
AcDbEntity
  8
0
100
AcDbCircle
 62
9
  6
CONTINUOUS
 10
7.296525692
 20
17.7588538944
 40
0.1030015276
100
AcDbArc
 50
211.3140956448
 51
212.1978251144
  0
ARC
  5
4BF
100
AcDbEntity
  8
0
100
AcDbCircle
 62
9
  6
CONTINUOUS
 10
7.2717323026
 20
17.7433662605
 40
0.0913172596
100
AcDbArc
 50
29.2442384129
 51
30.0592452668
  0
ARC
  5
4C0
100
AcDbEntity
  8
0
100
AcDbCircle
 62
9
  6
CONTINUOUS
 10
7.2797633106
 20
17.7472089606
 40
0.082444513
100
AcDbArc
 50
30.5435046225
 51
31.4012801125
  0
CIRCLE
  5
4C1
100
AcDbEntity
  8
0
100
AcDbCircle
 62
7
  6
CONTINUOUS
 10
7.2809312723
 20
17.7479695943
 40
0.0708661417
  0
CIRCLE
  5
4C2
100
AcDbEntity
  8
0
100
AcDbCircle
 62
9
  6
CONTINUOUS
 10
7.2809312723
 20
17.7479695943
 40
0.0674067293
  0
CIRCLE
  5
4C3
100
AcDbEntity
  8
0
100
AcDbCircle
 62
9
  6
CONTINUOUS
 10
7.2809312723
 20
17.7479695943
 40
0.0546404342
  0
CIRCLE
  5
4C4
100
AcDbEntity
  8
0
100
AcDbCircle
 62
9
  6
CONTINUOUS
 10
7.2809312723
 20
17.7479695943
 40
0.0462887627
  0
CIRCLE
  5
4C5
100
AcDbEntity
  8
0
100
AcDbCircle
 62
7
  6
CONTINUOUS
 10
7.2809312723
 20
17.7479695943
 40
0.0295275591
  0
CIRCLE
  5
4C6
100
AcDbEntity
  8
0
100
AcDbCircle
 62
7
  6
CONTINUOUS
 10
6.9184946644
 20
18.8475592215
 40
0.0826771654
  0
CIRCLE
  5
4C7
100
AcDbEntity
  8
0
100
AcDbCircle
 62
9
  6
CONTINUOUS
 10
6.9184946644
 20
18.8475592215
 40
0.0769109535
  0
CIRCLE
  5
4C8
100
AcDbEntity
  8
0
100
AcDbCircle
 62
7
  6
CONTINUOUS
 10
7.0363220334
 20
18.5814552255
 40
0.0708661417
  0
CIRCLE
  5
4C9
100
AcDbEntity
  8
0
100
AcDbCircle
 62
9
  6
CONTINUOUS
 10
6.9184946644
 20
18.8475592215
 40
0.0687574628
  0
CIRCLE
  5
4CA
100
AcDbEntity
  8
0
100
AcDbCircle
 62
9
  6
CONTINUOUS
 10
7.0363220334
 20
18.5814552255
 40
0.0651002345
  0
CIRCLE
  5
4CB
100
AcDbEntity
  8
0
100
AcDbCircle
 62
9
  6
CONTINUOUS
 10
7.0363220334
 20
18.5814552255
 40
0.0569463945
  0
CIRCLE
  5
4CC
100
AcDbEntity
  8
0
100
AcDbCircle
 62
9
  6
CONTINUOUS
 10
6.9184946644
 20
18.8475592215
 40
0.0548379698
  0
CIRCLE
  5
4CD
100
AcDbEntity
  8
0
100
AcDbCircle
 62
9
  6
CONTINUOUS
 10
7.0363220334
 20
18.5814552255
 40
0.0430269203
  0
ARC
  5
4CE
100
AcDbEntity
  8
0
100
AcDbCircle
 62
7
  6
CONTINUOUS
 10
7.0362745897
 20
18.5813694094
 40
0.0176203964
100
AcDbArc
 50
247.5357415817
 51
67.4642583845
  0
ARC
  5
4CF
100
AcDbEntity
  8
0
100
AcDbCircle
 62
7
  6
CONTINUOUS
 10
7.036294214
 20
18.5813612701
 40
0.0176194003
100
AcDbArc
 50
67.5333449442
 51
247.4666550617
  0
CIRCLE
  5
4D0
100
AcDbEntity
  8
0
100
AcDbCircle
 62
7
  6
CONTINUOUS
 10
7.307802505
 20
15.8904725903
 40
0.0826771654
  0
CIRCLE
  5
4D1
100
AcDbEntity
  8
0
100
AcDbCircle
 62
9
  6
CONTINUOUS
 10
7.307802505
 20
15.8904725903
 40
0.0769109536
  0
CIRCLE
  5
4D2
100
AcDbEntity
  8
0
100
AcDbCircle
 62
9
  6
CONTINUOUS
 10
7.307802505
 20
15.8904725903
 40
0.0687574628
  0
CIRCLE
  5
4D3
100
AcDbEntity
  8
0
100
AcDbCircle
 62
9
  6
CONTINUOUS
 10
7.307802505
 20
15.8904725903
 40
0.0548379698
  0
CIRCLE
  5
4D4
100
AcDbEntity
  8
0
100
AcDbCircle
 62
7
  6
CONTINUOUS
 10
7.3527422216
 20
16.1780052796
 40
0.0708661417
  0
CIRCLE
  5
4D5
100
AcDbEntity
  8
0
100
AcDbCircle
 62
9
  6
CONTINUOUS
 10
7.3527422216
 20
16.1780052796
 40
0.0651002345
  0
CIRCLE
  5
4D6
100
AcDbEntity
  8
0
100
AcDbCircle
 62
9
  6
CONTINUOUS
 10
7.3527422216
 20
16.1780052796
 40
0.0569463945
  0
CIRCLE
  5
4D7
100
AcDbEntity
  8
0
100
AcDbCircle
 62
9
  6
CONTINUOUS
 10
7.3527422216
 20
16.1780052796
 40
0.0430269203
  0
ARC
  5
4D8
100
AcDbEntity
  8
0
100
AcDbCircle
 62
7
  6
CONTINUOUS
 10
7.3526741836
 20
16.1780758923
 40
0.0176203964
100
AcDbArc
 50
307.5357416369
 51
127.4642584019
  0
ARC
  5
4D9
100
AcDbEntity
  8
0
100
AcDbCircle
 62
7
  6
CONTINUOUS
 10
7.3526916244
 20
16.1780892751
 40
0.0176203964
100
AcDbArc
 50
127.5357460611
 51
307.4642538982
  0
CIRCLE
  5
4DA
100
AcDbEntity
  8
0
100
AcDbCircle
 62
7
  6
CONTINUOUS
 10
7.6421087266
 20
16.1469947764
 40
0.0826771654
  0
CIRCLE
  5
4DB
100
AcDbEntity
  8
0
100
AcDbCircle
 62
9
  6
CONTINUOUS
 10
7.6421087266
 20
16.1469947764
 40
0.0769109535
  0
CIRCLE
  5
4DC
100
AcDbEntity
  8
0
100
AcDbCircle
 62
9
  6
CONTINUOUS
 10
7.6421087266
 20
16.1469947764
 40
0.0687574628
  0
CIRCLE
  5
4DD
100
AcDbEntity
  8
0
100
AcDbCircle
 62
9
  6
CONTINUOUS
 10
7.6421087266
 20
16.1469947764
 40
0.0548379698
  0
CIRCLE
  5
4DE
100
AcDbEntity
  8
0
100
AcDbCircle
 62
7
  6
CONTINUOUS
 10
7.6110982234
 20
16.4363612814
 40
0.0708661417
  0
CIRCLE
  5
4DF
100
AcDbEntity
  8
0
100
AcDbCircle
 62
9
  6
CONTINUOUS
 10
7.6110982234
 20
16.4363612814
 40
0.0651002345
  0
CIRCLE
  5
4E0
100
AcDbEntity
  8
0
100
AcDbCircle
 62
9
  6
CONTINUOUS
 10
7.6110982234
 20
16.4363612814
 40
0.0569463945
  0
CIRCLE
  5
4E1
100
AcDbEntity
  8
0
100
AcDbCircle
 62
9
  6
CONTINUOUS
 10
7.6110982234
 20
16.4363612814
 40
0.0430269203
  0
CIRCLE
  5
4E2
100
AcDbEntity
  8
0
100
AcDbCircle
 62
7
  6
CONTINUOUS
 10
7.8986309127
 20
16.481300998
 40
0.0826771654
  0
CIRCLE
  5
4E3
100
AcDbEntity
  8
0
100
AcDbCircle
 62
9
  6
CONTINUOUS
 10
7.8986309127
 20
16.481300998
 40
0.0769109535
  0
CIRCLE
  5
4E4
100
AcDbEntity
  8
0
100
AcDbCircle
 62
9
  6
CONTINUOUS
 10
7.8986309127
 20
16.481300998
 40
0.0687574628
  0
CIRCLE
  5
4E5
100
AcDbEntity
  8
0
100
AcDbCircle
 62
9
  6
CONTINUOUS
 10
7.8986309127
 20
16.481300998
 40
0.0548379698
  0
CIRCLE
  5
4E6
100
AcDbEntity
  8
0
100
AcDbCircle
 62
7
  6
CONTINUOUS
 10
7.7937835042
 20
16.7527814696
 40
0.0708661417
  0
CIRCLE
  5
4E7
100
AcDbEntity
  8
0
100
AcDbCircle
 62
9
  6
CONTINUOUS
 10
7.7937835042
 20
16.7527814696
 40
0.0651002345
  0
CIRCLE
  5
4E8
100
AcDbEntity
  8
0
100
AcDbCircle
 62
9
  6
CONTINUOUS
 10
7.7937835042
 20
16.7527814696
 40
0.0569463945
  0
CIRCLE
  5
4E9
100
AcDbEntity
  8
0
100
AcDbCircle
 62
9
  6
CONTINUOUS
 10
7.7937835042
 20
16.7527814696
 40
0.0430269203
  0
ARC
  5
4EA
100
AcDbEntity
  8
0
100
AcDbCircle
 62
7
  6
CONTINUOUS
 10
7.7936892753
 20
16.752808603
 40
0.0176203964
100
AcDbArc
 50
337.5357416343
 51
157.4642584021
  0
ARC
  5
4EB
100
AcDbEntity
  8
0
100
AcDbCircle
 62
7
  6
CONTINUOUS
 10
7.7936976881
 20
16.7528289133
 40
0.0176203964
100
AcDbArc
 50
157.5357460624
 51
337.4642538945
  0
CIRCLE
  5
4EC
100
AcDbEntity
  8
0
100
AcDbCircle
 62
7
  6
CONTINUOUS
 10
7.8883483641
 20
17.1057023313
 40
0.0708661417
  0
CIRCLE
  5
4ED
100
AcDbEntity
  8
0
100
AcDbCircle
 62
9
  6
CONTINUOUS
 10
7.8883483641
 20
17.1057023313
 40
0.0651002345
  0
CIRCLE
  5
4EE
100
AcDbEntity
  8
0
100
AcDbCircle
 62
9
  6
CONTINUOUS
 10
7.8883483641
 20
17.1057023313
 40
0.0569463945
  0
CIRCLE
  5
4EF
100
AcDbEntity
  8
0
100
AcDbCircle
 62
9
  6
CONTINUOUS
 10
7.8883483641
 20
17.1057023313
 40
0.0430269203
  0
CIRCLE
  5
4F0
100
AcDbEntity
  8
0
100
AcDbCircle
 62
7
  6
CONTINUOUS
 10
8.0598875002
 20
16.8706088385
 40
0.0826771654
  0
CIRCLE
  5
4F1
100
AcDbEntity
  8
0
100
AcDbCircle
 62
9
  6
CONTINUOUS
 10
8.0598875002
 20
16.8706088385
 40
0.0769109535
  0
CIRCLE
  5
4F2
100
AcDbEntity
  8
0
100
AcDbCircle
 62
9
  6
CONTINUOUS
 10
8.0598875002
 20
16.8706088385
 40
0.0687574628
  0
CIRCLE
  5
4F3
100
AcDbEntity
  8
0
100
AcDbCircle
 62
9
  6
CONTINUOUS
 10
8.0598875002
 20
16.8706088385
 40
0.0548379698
  0
ARC
  5
4F4
100
AcDbEntity
  8
0
100
AcDbCircle
 62
9
  6
CONTINUOUS
 10
7.3626928651
 20
17.5434007724
 40
0.0876562383
100
AcDbArc
 50
16.6980829956
 51
17.497976331
  0
CIRCLE
  5
4F5
100
AcDbEntity
  8
0
100
AcDbCircle
 62
7
  6
CONTINUOUS
 10
7.3689384854
 20
17.5455668613
 40
0.0708661417
  0
CIRCLE
  5
4F6
100
AcDbEntity
  8
0
100
AcDbCircle
 62
9
  6
CONTINUOUS
 10
7.3689384854
 20
17.5455668613
 40
0.0674067293
  0
CIRCLE
  5
4F7
100
AcDbEntity
  8
0
100
AcDbCircle
 62
9
  6
CONTINUOUS
 10
7.3689384854
 20
17.5455668613
 40
0.0546404342
  0
CIRCLE
  5
4F8
100
AcDbEntity
  8
0
100
AcDbCircle
 62
9
  6
CONTINUOUS
 10
7.3689384854
 20
17.5455668613
 40
0.0462887627
  0
CIRCLE
  5
4F9
100
AcDbEntity
  8
0
100
AcDbCircle
 62
7
  6
CONTINUOUS
 10
7.3689384854
 20
17.5455668613
 40
0.0295275591
  0
CIRCLE
  5
4FA
100
AcDbEntity
  8
0
100
AcDbCircle
 62
7
  6
CONTINUOUS
 10
7.4053658552
 20
17.3278854826
 40
0.0708661417
  0
CIRCLE
  5
4FB
100
AcDbEntity
  8
0
100
AcDbCircle
 62
9
  6
CONTINUOUS
 10
7.4053658552
 20
17.3278854826
 40
0.0674067293
  0
CIRCLE
  5
4FC
100
AcDbEntity
  8
0
100
AcDbCircle
 62
9
  6
CONTINUOUS
 10
7.4053658552
 20
17.3278854826
 40
0.0546404342
  0
CIRCLE
  5
4FD
100
AcDbEntity
  8
0
100
AcDbCircle
 62
9
  6
CONTINUOUS
 10
7.4053658552
 20
17.3278854826
 40
0.0462887627
  0
CIRCLE
  5
4FE
100
AcDbEntity
  8
0
100
AcDbCircle
 62
7
  6
CONTINUOUS
 10
7.4053658552
 20
17.3278854826
 40
0.0295275591
  0
CIRCLE
  5
4FF
100
AcDbEntity
  8
0
100
AcDbCircle
 62
7
  6
CONTINUOUS
 10
7.3527422216
 20
18.3987699447
 40
0.0708661417
  0
CIRCLE
  5
500
100
AcDbEntity
  8
0
100
AcDbCircle
 62
9
  6
CONTINUOUS
 10
7.3527422216
 20
18.3987699447
 40
0.0651002345
  0
CIRCLE
  5
501
100
AcDbEntity
  8
0
100
AcDbCircle
 62
9
  6
CONTINUOUS
 10
7.3527422216
 20
18.3987699447
 40
0.0569463945
  0
CIRCLE
  5
502
100
AcDbEntity
  8
0
100
AcDbCircle
 62
9
  6
CONTINUOUS
 10
7.3527422216
 20
18.3987699447
 40
0.0430269203
  0
CIRCLE
  5
503
100
AcDbEntity
  8
0
100
AcDbCircle
 62
7
  6
CONTINUOUS
 10
7.307802505
 20
18.686302634
 40
0.0826771654
  0
CIRCLE
  5
504
100
AcDbEntity
  8
0
100
AcDbCircle
 62
9
  6
CONTINUOUS
 10
7.307802505
 20
18.686302634
 40
0.0769109535
  0
CIRCLE
  5
505
100
AcDbEntity
  8
0
100
AcDbCircle
 62
9
  6
CONTINUOUS
 10
7.307802505
 20
18.686302634
 40
0.0687574628
  0
CIRCLE
  5
506
100
AcDbEntity
  8
0
100
AcDbCircle
 62
9
  6
CONTINUOUS
 10
7.307802505
 20
18.686302634
 40
0.0548379698
  0
CIRCLE
  5
507
100
AcDbEntity
  8
0
100
AcDbCircle
 62
7
  6
CONTINUOUS
 10
7.6110982234
 20
18.1404139429
 40
0.0708661417
  0
CIRCLE
  5
508
100
AcDbEntity
  8
0
100
AcDbCircle
 62
9
  6
CONTINUOUS
 10
7.6110982234
 20
18.1404139429
 40
0.0651002345
  0
CIRCLE
  5
509
100
AcDbEntity
  8
0
100
AcDbCircle
 62
9
  6
CONTINUOUS
 10
7.6110982234
 20
18.1404139429
 40
0.0569463945
  0
CIRCLE
  5
50A
100
AcDbEntity
  8
0
100
AcDbCircle
 62
9
  6
CONTINUOUS
 10
7.6110982234
 20
18.1404139429
 40
0.0430269203
  0
ARC
  5
50B
100
AcDbEntity
  8
0
100
AcDbCircle
 62
7
  6
CONTINUOUS
 10
7.6110142279
 20
18.1403633457
 40
0.0176203964
100
AcDbArc
 50
217.5357414987
 51
37.4642584668
  0
ARC
  5
50C
100
AcDbEntity
  8
0
100
AcDbCircle
 62
7
  6
CONTINUOUS
 10
7.6110271534
 20
18.1403464848
 40
0.0176194003
100
AcDbArc
 50
37.5333449525
 51
217.4666550527
  0
CIRCLE
  5
50D
100
AcDbEntity
  8
0
100
AcDbCircle
 62
7
  6
CONTINUOUS
 10
7.6421087266
 20
18.4297804479
 40
0.0826771654
  0
CIRCLE
  5
50E
100
AcDbEntity
  8
0
100
AcDbCircle
 62
9
  6
CONTINUOUS
 10
7.6421087266
 20
18.4297804479
 40
0.0769109535
  0
CIRCLE
  5
50F
100
AcDbEntity
  8
0
100
AcDbCircle
 62
9
  6
CONTINUOUS
 10
7.6421087266
 20
18.4297804479
 40
0.0687574628
  0
CIRCLE
  5
510
100
AcDbEntity
  8
0
100
AcDbCircle
 62
9
  6
CONTINUOUS
 10
7.6421087266
 20
18.4297804479
 40
0.0548379698
  0
CIRCLE
  5
511
100
AcDbEntity
  8
0
100
AcDbCircle
 62
7
  6
CONTINUOUS
 10
7.8883483641
 20
17.471072893
 40
0.0708661417
  0
CIRCLE
  5
512
100
AcDbEntity
  8
0
100
AcDbCircle
 62
9
  6
CONTINUOUS
 10
7.8883483641
 20
17.471072893
 40
0.0651002345
  0
CIRCLE
  5
513
100
AcDbEntity
  8
0
100
AcDbCircle
 62
9
  6
CONTINUOUS
 10
7.8883483641
 20
17.471072893
 40
0.0569463945
  0
CIRCLE
  5
514
100
AcDbEntity
  8
0
100
AcDbCircle
 62
9
  6
CONTINUOUS
 10
7.8883483641
 20
17.471072893
 40
0.0430269203
  0
ARC
  5
515
100
AcDbEntity
  8
0
100
AcDbCircle
 62
7
  6
CONTINUOUS
 10
7.8882531927
 20
17.4710492767
 40
0.0176203964
100
AcDbArc
 50
7.5357462165
 51
187.4642538257
  0
ARC
  5
516
100
AcDbEntity
  8
0
100
AcDbCircle
 62
7
  6
CONTINUOUS
 10
7.8882503233
 20
17.4710710723
 40
0.0176203964
100
AcDbArc
 50
187.5357414848
 51
7.464258478
  0
CIRCLE
  5
517
100
AcDbEntity
  8
0
100
AcDbCircle
 62
7
  6
CONTINUOUS
 10
7.7937835042
 20
17.8239937547
 40
0.0708661417
  0
CIRCLE
  5
518
100
AcDbEntity
  8
0
100
AcDbCircle
 62
9
  6
CONTINUOUS
 10
7.7937835042
 20
17.8239937547
 40
0.0651002345
  0
CIRCLE
  5
519
100
AcDbEntity
  8
0
100
AcDbCircle
 62
9
  6
CONTINUOUS
 10
7.7937835042
 20
17.8239937547
 40
0.0569463945
  0
CIRCLE
  5
51A
100
AcDbEntity
  8
0
100
AcDbCircle
 62
9
  6
CONTINUOUS
 10
7.7937835042
 20
17.8239937547
 40
0.0430269203
  0
CIRCLE
  5
51B
100
AcDbEntity
  8
0
100
AcDbCircle
 62
7
  6
CONTINUOUS
 10
8.1148891192
 20
17.2883876121
 40
0.0826771654
  0
CIRCLE
  5
51C
100
AcDbEntity
  8
0
100
AcDbCircle
 62
9
  6
CONTINUOUS
 10
8.1148891192
 20
17.2883876121
 40
0.0769109535
  0
CIRCLE
  5
51D
100
AcDbEntity
  8
0
100
AcDbCircle
 62
9
  6
CONTINUOUS
 10
8.1148891192
 20
17.2883876121
 40
0.0687574628
  0
CIRCLE
  5
51E
100
AcDbEntity
  8
0
100
AcDbCircle
 62
9
  6
CONTINUOUS
 10
8.1148891192
 20
17.2883876121
 40
0.0548379698
  0
CIRCLE
  5
51F
100
AcDbEntity
  8
0
100
AcDbCircle
 62
7
  6
CONTINUOUS
 10
8.0598875002
 20
17.7061663857
 40
0.0826771654
  0
CIRCLE
  5
520
100
AcDbEntity
  8
0
100
AcDbCircle
 62
9
  6
CONTINUOUS
 10
8.0598875002
 20
17.7061663857
 40
0.0769109535
  0
CIRCLE
  5
521
100
AcDbEntity
  8
0
100
AcDbCircle
 62
9
  6
CONTINUOUS
 10
8.0598875002
 20
17.7061663857
 40
0.0687574628
  0
CIRCLE
  5
522
100
AcDbEntity
  8
0
100
AcDbCircle
 62
9
  6
CONTINUOUS
 10
8.0598875002
 20
17.7061663857
 40
0.0548379698
  0
CIRCLE
  5
523
100
AcDbEntity
  8
0
100
AcDbCircle
 62
7
  6
CONTINUOUS
 10
7.8986309127
 20
18.0954742263
 40
0.0826771654
  0
CIRCLE
  5
524
100
AcDbEntity
  8
0
100
AcDbCircle
 62
9
  6
CONTINUOUS
 10
7.8986309127
 20
18.0954742263
 40
0.0769113022
  0
CIRCLE
  5
525
100
AcDbEntity
  8
0
100
AcDbCircle
 62
9
  6
CONTINUOUS
 10
7.8986309127
 20
18.0954742263
 40
0.0687574886
  0
CIRCLE
  5
526
100
AcDbEntity
  8
0
100
AcDbCircle
 62
9
  6
CONTINUOUS
 10
7.8986309127
 20
18.0954742263
 40
0.0548380036
  0
ARC
  5
527
100
AcDbEntity
  8
0
100
AcDbCircle
 62
9
  6
CONTINUOUS
 10
35.9586328635
 20
-37.4688304358
 40
62.1408708825
100
AcDbArc
 50
119.9966189927
 51
120.193532084
  0
ARC
  5
528
100
AcDbEntity
  8
0
100
AcDbCircle
 62
9
  6
CONTINUOUS
 10
35.9584833327
 20
-37.4685727866
 40
62.1405729858
100
AcDbArc
 50
119.9966264532
 51
120.1935323914
  0
ARC
  5
529
100
AcDbEntity
  8
0
100
AcDbCircle
 62
9
  6
CONTINUOUS
 10
28.2575478316
 20
-24.1307742896
 40
46.6723066355
100
AcDbArc
 50
119.9913600724
 51
120.2033691435
  0
ARC
  5
52A
100
AcDbEntity
  8
0
100
AcDbCircle
 62
9
  6
CONTINUOUS
 10
28.2575307651
 20
-24.1307447426
 40
46.6722725138
100
AcDbArc
 50
119.9913600581
 51
120.2033692842
  0
ARC
  5
52B
100
AcDbEntity
  8
0
100
AcDbCircle
 62
9
  6
CONTINUOUS
 10
27.7337275509
 20
-23.4050935862
 40
45.9358348341
100
AcDbArc
 50
119.8779797699
 51
120.0926475921
  0
ARC
  5
52C
100
AcDbEntity
  8
0
100
AcDbCircle
 62
9
  6
CONTINUOUS
 10
27.7283511341
 20
-23.3957752289
 40
45.925076713
100
AcDbArc
 50
119.87795501
 51
120.0926709128
  0
ARC
  5
52D
100
AcDbEntity
  8
0
100
AcDbCircle
 62
9
  6
CONTINUOUS
 10
9.7316169797
 20
8.9099409318
 40
8.8601835187
100
AcDbArc
 50
120.0157904175
 51
120.1523908627
  0
ARC
  5
52E
100
AcDbEntity
  8
0
100
AcDbCircle
 62
9
  6
CONTINUOUS
 10
9.730681033
 20
8.9115517349
 40
8.8583205388
100
AcDbArc
 50
120.015822689
 51
120.1523895879
  0
ARC
  5
52F
100
AcDbEntity
  8
0
100
AcDbCircle
 62
7
  6
CONTINUOUS
 10
17.9997094131
 20
-6.3846624278
 40
3.3736999011
100
AcDbArc
 50
266.9397781979
 51
268.0055251783
  0
ARC
  5
530
100
AcDbEntity
  8
0
100
AcDbCircle
 62
7
  6
CONTINUOUS
 10
17.9885164705
 20
-6.7542272276
 40
3.0039699063
100
AcDbArc
 50
267.9735611498
 51
269.9910609844
  0
ARC
  5
531
100
AcDbEntity
  8
0
100
AcDbCircle
 62
7
  6
CONTINUOUS
 10
12.7870408472
 20
9.1893673456
 40
0.223
100
AcDbArc
 50
302.5461444331
 51
322.5320047229
  0
ARC
  5
532
100
AcDbEntity
  8
0
100
AcDbCircle
 62
7
  6
CONTINUOUS
 10
12.7870408472
 20
9.3234078786
 40
0.223
100
AcDbArc
 50
37.4679952771
 51
57.4538555669
  0
ARC
  5
533
100
AcDbEntity
  8
0
100
AcDbCircle
 62
7
  6
CONTINUOUS
 10
12.1530280426
 20
9.3234078786
 40
0.223
100
AcDbArc
 50
122.5461444331
 51
142.5320047229
  0
ARC
  5
534
100
AcDbEntity
  8
0
100
AcDbCircle
 62
7
  6
CONTINUOUS
 10
12.1530280426
 20
9.1893673456
 40
0.223
100
AcDbArc
 50
217.4679952771
 51
237.4538555669
  0
ARC
  5
535
100
AcDbEntity
  8
0
100
AcDbCircle
 62
7
  6
CONTINUOUS
 10
12.8816707551
 20
9.3995046077
 40
0.1021790476
100
AcDbArc
 50
100.4224659624
 51
102.2278046153
  0
ARC
  5
536
100
AcDbEntity
  8
0
100
AcDbCircle
 62
7
  6
CONTINUOUS
 10
12.8813280561
 20
9.4011029316
 40
0.1005444012
100
AcDbArc
 50
102.2298556384
 51
103.4430173948
  0
ARC
  5
537
100
AcDbEntity
  8
0
100
AcDbCircle
 62
7
  6
CONTINUOUS
 10
11.9150344449
 20
9.7948876121
 40
0.1
100
AcDbArc
 50
270.0
 51
360.0
  0
ARC
  5
538
100
AcDbEntity
  8
0
100
AcDbCircle
 62
7
  6
CONTINUOUS
 10
13.0250344449
 20
9.7948876121
 40
0.1
100
AcDbArc
 50
180.0
 51
270.0
  0
ARC
  5
539
100
AcDbEntity
  8
0
100
AcDbCircle
 62
7
  6
CONTINUOUS
 10
12.881392502
 20
9.401713223
 40
0.0999566151
100
AcDbArc
 50
79.5123140628
 51
100.4946252148
  0
ARC
  5
53A
100
AcDbEntity
  8
0
100
AcDbCircle
 62
7
  6
CONTINUOUS
 10
26.0557165131
 20
12.2983876121
 40
20.175
100
AcDbArc
 50
174.9244926841
 51
185.0755073159
  0
ARC
  5
53B
100
AcDbEntity
  8
0
100
AcDbCircle
 62
7
  6
CONTINUOUS
 10
12.4700344449
 20
11.0948876121
 40
1.0
100
AcDbArc
 50
297.1347694181
 51
242.8707124951
  0
ARC
  5
53C
100
AcDbEntity
  8
0
100
AcDbCircle
 62
9
  6
CONTINUOUS
 10
12.4700344449
 20
11.0948876121
 40
0.8699999967
100
AcDbArc
 50
301.6002843921
 51
238.4107242372
  0
ARC
  5
53D
100
AcDbEntity
  8
0
100
AcDbCircle
 62
7
  6
CONTINUOUS
 10
12.4700344449
 20
11.0948876121
 40
0.832
100
AcDbArc
 50
303.2521025349
 51
236.7493586343
  0
ARC
  5
53E
100
AcDbEntity
  8
0
100
AcDbCircle
 62
7
  6
CONTINUOUS
 10
12.4700344449
 20
11.0948876121
 40
0.8
100
AcDbArc
 50
306.8698976458
 51
233.1301023542
  0
SPLINE
  5
53F
100
AcDbEntity
  8
0
100
AcDbSpline
 62
7
  6
CONTINUOUS
 70
0
 71
3
 72
23
 73
19
 74
0
 42
0.0000001
 43
0.0000001
 44
0.0000000001
 40
0.0
 40
0.0
 40
0.0
 40
0.0
 40
0.0412606434
 40
0.0843903225
 40
0.1297035546
 40
0.1774717454
 40
0.2279266995
 40
0.2812652033
 40
0.3376538623
 40
0.3972336993
 40
0.460124274
 40
0.5264272381
 40
0.5962293367
 40
0.6696049059
 40
0.7466179347
 40
0.8273237605
 40
0.9117704613
 40
1.0
 40
1.0
 40
1.0
 40
1.0
 10
5.7062576044
 20
10.046673417
 30
0.0
 10
5.7023845459
 20
10.0487103241
 30
0.0
 10
5.6946654468
 20
10.0532711541
 30
0.0
 10
5.683482233
 20
10.0613083387
 30
0.0
 10
5.6724635648
 20
10.0706735535
 30
0.0
 10
5.6616089715
 20
10.0813643281
 30
0.0
 10
5.6509159976
 20
10.093380067
 30
0.0
 10
5.640383056
 20
10.1067204878
 30
0.0
 10
5.6300087268
 20
10.1213857644
 30
0.0
 10
5.6197919655
 20
10.1373762453
 30
0.0
 10
5.6097319893
 20
10.1546923708
 30
0.0
 10
5.5998282392
 20
10.1733345952
 30
0.0
 10
5.5900803228
 20
10.1933033506
 30
0.0
 10
5.5804879711
 20
10.2145990315
 30
0.0
 10
5.571051008
 20
10.2372219764
 30
0.0
 10
5.5617693099
 20
10.2611725165
 30
0.0
 10
5.5526428451
 20
10.2864507831
 30
0.0
 10
5.5467909297
 20
10.3038059263
 30
0.0
 10
5.5438858964
 20
10.3127010187
 30
0.0
  0
SPLINE
  5
540
100
AcDbEntity
  8
0
100
AcDbSpline
 62
7
  6
CONTINUOUS
 70
0
 71
3
 72
23
 73
19
 74
0
 42
0.0000001
 43
0.0000001
 44
0.0000000001
 40
0.0
 40
0.0
 40
0.0
 40
0.0
 40
0.0412606435
 40
0.0843903226
 40
0.1297035548
 40
0.1774717457
 40
0.2279266998
 40
0.2812652036
 40
0.3376538625
 40
0.3972336996
 40
0.4601242743
 40
0.5264272383
 40
0.5962293369
 40
0.6696049061
 40
0.7466179348
 40
0.8273237606
 40
0.9117704613
 40
1.0
 40
1.0
 40
1.0
 40
1.0
 10
5.706257605
 20
9.3201018077
 30
0.0
 10
5.7023845465
 20
9.3180649007
 30
0.0
 10
5.6946654474
 20
9.3135040708
 30
0.0
 10
5.6834822336
 20
9.3054668863
 30
0.0
 10
5.6724635655
 20
9.2961016716
 30
0.0
 10
5.6616089722
 20
9.2854108972
 30
0.0
 10
5.6509159982
 20
9.2733951584
 30
0.0
 10
5.6403830567
 20
9.2600547378
 30
0.0
 10
5.6300087276
 20
9.2453894614
 30
0.0
 10
5.6197919663
 20
9.2293989807
 30
0.0
 10
5.60973199
 20
9.2120828553
 30
0.0
 10
5.5998282399
 20
9.1934406312
 30
0.0
 10
5.5900803235
 20
9.173471876
 30
0.0
 10
5.5804879719
 20
9.1521761953
 30
0.0
 10
5.5710510088
 20
9.1295532507
 30
0.0
 10
5.5617693106
 20
9.1056027108
 30
0.0
 10
5.5526428458
 20
9.0803244444
 30
0.0
 10
5.5467909305
 20
9.0629693014
 30
0.0
 10
5.5438858972
 20
9.0540742091
 30
0.0
  0
SPLINE
  5
541
100
AcDbEntity
  8
0
100
AcDbSpline
 62
9
  6
CONTINUOUS
 70
0
 71
3
 72
23
 73
19
 74
0
 42
0.0000001
 43
0.0000001
 44
0.0000000001
 40
0.0
 40
0.0
 40
0.0
 40
0.0
 40
0.0873975776
 40
0.171105987
 40
0.2511701092
 40
0.3276412423
 40
0.4005782658
 40
0.4700490454
 40
0.5361321274
 40
0.5989187732
 40
0.6585153897
 40
0.7150464005
 40
0.7686575777
 40
0.8195198047
 40
0.8678331423
 40
0.913830922
 40
0.9577833682
 40
1.0
 40
1.0
 40
1.0
 40
1.0
 10
5.5438862232
 20
10.281901236
 30
0.0
 10
5.5467921547
 20
10.2734388516
 30
0.0
 10
5.5526462702
 20
10.2569272164
 30
0.0
 10
5.5617732416
 20
10.2328853455
 30
0.0
 10
5.5710555515
 20
10.2101061383
 30
0.0
 10
5.5804932472
 20
10.1885894805
 30
0.0
 10
5.5900864758
 20
10.1683350596
 30
0.0
 10
5.5998354382
 20
10.1493425664
 30
0.0
 10
5.6097404287
 20
10.1316116483
 30
0.0
 10
5.6198018631
 20
10.1151419322
 30
0.0
 10
5.6300203151
 20
10.0999330451
 30
0.0
 10
5.6403965636
 20
10.0859846551
 30
0.0
 10
5.6509316162
 20
10.0732965501
 30
0.0
 10
5.6616267942
 20
10.0618687192
 30
0.0
 10
5.6724835138
 20
10.0517016028
 30
0.0
 10
5.6835039023
 20
10.04279595
 30
0.0
 10
5.694688128
 20
10.0351541621
 30
0.0
 10
5.7023921811
 20
10.0308268122
 30
0.0
 10
5.7062575923
 20
10.0288934062
 30
0.0
  0
LINE
  5
542
100
AcDbEntity
  8
0
100
AcDbLine
 62
7
  6
CONTINUOUS
 10
2.4000849705
 20
10.1569237751
 11
2.4056040731
 21
10.1564593033
  0
SPLINE
  5
543
100
AcDbEntity
  8
0
100
AcDbSpline
 62
7
  6
CONTINUOUS
 70
0
 71
3
 72
10
 73
6
 74
0
 42
0.0000001
 43
0.0000001
 44
0.0000000001
 40
0.0
 40
0.0
 40
0.0
 40
0.0
 40
0.3669045977
 40
0.6653558403
 40
1.0
 40
1.0
 40
1.0
 40
1.0
 10
2.4056040731
 20
10.1564593033
 30
0.0
 10
2.4298459855
 20
10.1544504503
 30
0.0
 10
2.4738720255
 20
10.1515490768
 30
0.0
 10
2.5401299719
 20
10.1490918156
 30
0.0
 10
2.5821074097
 20
10.1486537328
 30
0.0
 10
2.6042934813
 20
10.1487305272
 30
0.0
  0
SPLINE
  5
544
100
AcDbEntity
  8
0
100
AcDbSpline
 62
7
  6
CONTINUOUS
 70
0
 71
3
 72
16
 73
12
 74
0
 42
0.0000001
 43
0.0000001
 44
0.0000000001
 40
0.0
 40
0.0
 40
0.0
 40
0.0
 40
0.1833896665
 40
0.3606166216
 40
0.5257374582
 40
0.6020131503
 40
0.6732373946
 40
0.7388069661
 40
0.7981792151
 40
0.8963588384
 40
1.0
 40
1.0
 40
1.0
 40
1.0
 10
2.6042934813
 20
10.1487305272
 30
0.0
 10
2.6167776665
 20
10.1487737396
 30
0.0
 10
2.6413262381
 20
10.1490532314
 30
0.0
 10
2.6771045581
 20
10.1500027051
 30
0.0
 10
2.7055786437
 20
10.1511915078
 30
0.0
 10
2.7268318505
 20
10.1522939589
 30
0.0
 10
2.7413120951
 20
10.1531380185
 30
0.0
 10
2.7546383037
 20
10.1540006703
 30
0.0
 10
2.7697897798
 20
10.1550685111
 30
0.0
 10
2.787518118
 20
10.1564354484
 30
0.0
 10
2.8012058507
 20
10.1576237976
 30
0.0
 10
2.8082318315
 20
10.1582671773
 30
0.0
  0
SPLINE
  5
545
100
AcDbEntity
  8
0
100
AcDbSpline
 62
7
  6
CONTINUOUS
 70
0
 71
3
 72
10
 73
6
 74
0
 42
0.0000001
 43
0.0000001
 44
0.0000000001
 40
0.0
 40
0.0
 40
0.0
 40
0.0
 40
0.3267622584
 40
0.6393809812
 40
1.0
 40
1.0
 40
1.0
 40
1.0
 10
2.8082318315
 20
9.208508047
 30
0.0
 10
2.786080818
 20
9.2105364487
 30
0.0
 10
2.7426742534
 20
9.2138442822
 30
0.0
 10
2.6746719455
 20
9.2170964094
 30
0.0
 10
2.6288417574
 20
9.2179597262
 30
0.0
 10
2.6042934813
 20
9.2180446971
 30
0.0
  0
SPLINE
  5
546
100
AcDbEntity
  8
0
100
AcDbSpline
 62
7
  6
CONTINUOUS
 70
0
 71
3
 72
13
 73
9
 74
0
 42
0.0000001
 43
0.0000001
 44
0.0000000001
 40
0.0
 40
0.0
 40
0.0
 40
0.0
 40
0.3345808456
 40
0.4904579795
 40
0.6330080513
 40
0.7583636652
 40
0.8631241754
 40
1.0
 40
1.0
 40
1.0
 40
1.0
 10
2.6042934813
 20
9.2180446971
 30
0.0
 10
2.5821128997
 20
9.2181214724
 30
0.0
 10
2.5495946058
 20
9.2177814556
 30
0.0
 10
2.5076493526
 20
9.2164796466
 30
0.0
 10
2.4795813019
 20
9.2152483824
 30
0.0
 10
2.454913056
 20
9.2138822884
 30
0.0
 10
2.4306356788
 20
9.2122879016
 30
0.0
 10
2.4146627438
 20
9.2110665604
 30
0.0
 10
2.4056196867
 20
9.2103172168
 30
0.0
  0
LINE
  5
547
100
AcDbEntity
  8
0
100
AcDbLine
 62
7
  6
CONTINUOUS
 10
2.4056196867
 20
9.2103172168
 11
2.4000849705
 21
9.2098514492
  0
LINE
  5
548
100
AcDbEntity
  8
0
100
AcDbLine
 62
7
  6
CONTINUOUS
 10
2.8088062789
 20
10.1583170356
 11
2.8089699373
 21
10.1583302675
  0
LINE
  5
549
100
AcDbEntity
  8
0
100
AcDbLine
 62
7
  6
CONTINUOUS
 10
2.8089699373
 20
10.1583302675
 11
2.8092713021
 21
10.1583548482
  0
LINE
  5
54A
100
AcDbEntity
  8
0
100
AcDbLine
 62
7
  6
CONTINUOUS
 10
2.8092934813
 20
9.2084198706
 11
2.8089759647
 21
9.2084443303
  0
LINE
  5
54B
100
AcDbEntity
  8
0
100
AcDbLine
 62
7
  6
CONTINUOUS
 10
2.8089759647
 20
9.2084443303
 11
2.8088011951
 21
9.2084585653
  0
SPLINE
  5
54C
100
AcDbEntity
  8
0
100
AcDbSpline
 62
7
  6
CONTINUOUS
 70
0
 71
3
 72
8
 73
4
 74
0
 42
0.0000001
 43
0.0000001
 44
0.0000000001
 40
0.0
 40
0.0
 40
0.0
 40
0.0
 40
1.0
 40
1.0
 40
1.0
 40
1.0
 10
2.3992934813
 20
10.1569863954
 30
0.0
 10
2.3993228141
 20
10.1569842535
 30
0.0
 10
2.3993521468
 20
10.1569821116
 30
0.0
 10
2.3993814796
 20
10.1569799697
 30
0.0
  0
LINE
  5
54D
100
AcDbEntity
  8
0
100
AcDbLine
 62
7
  6
CONTINUOUS
 10
2.3993814796
 20
10.1569799697
 11
2.3996453913
 21
10.1569597497
  0
LINE
  5
54E
100
AcDbEntity
  8
0
100
AcDbLine
 62
7
  6
CONTINUOUS
 10
2.3996453913
 20
10.1569597497
 11
2.4000849705
 21
10.1569237751
  0
LINE
  5
54F
100
AcDbEntity
  8
0
100
AcDbLine
 62
7
  6
CONTINUOUS
 10
2.4000849705
 20
9.2098514492
 11
2.3996453914
 21
9.2098154746
  0
LINE
  5
550
100
AcDbEntity
  8
0
100
AcDbLine
 62
7
  6
CONTINUOUS
 10
2.3996453914
 20
9.2098154746
 11
2.3993814797
 21
9.2097952545
  0
SPLINE
  5
551
100
AcDbEntity
  8
0
100
AcDbSpline
 62
7
  6
CONTINUOUS
 70
0
 71
3
 72
8
 73
4
 74
0
 42
0.0000001
 43
0.0000001
 44
0.0000000001
 40
0.0
 40
0.0
 40
0.0
 40
0.0
 40
1.0
 40
1.0
 40
1.0
 40
1.0
 10
2.3993814797
 20
9.2097952545
 30
0.0
 10
2.3993521469
 20
9.2097931126
 30
0.0
 10
2.3993228141
 20
9.2097909707
 30
0.0
 10
2.3992934813
 20
9.2097888288
 30
0.0
  0
SPLINE
  5
552
100
AcDbEntity
  8
0
100
AcDbSpline
 62
9
  6
CONTINUOUS
 70
0
 71
3
 72
11
 73
7
 74
0
 42
0.0000001
 43
0.0000001
 44
0.0000000001
 40
0.0
 40
0.0
 40
0.0
 40
0.0
 40
0.2550136688
 40
0.5060935004
 40
0.754039075
 40
1.0
 40
1.0
 40
1.0
 40
1.0
 10
6.9078576071
 20
9.2016974713
 30
0.0
 10
6.9055217653
 20
9.1988166622
 30
0.0
 10
6.9002286862
 20
9.1935983753
 30
0.0
 10
6.8908364237
 20
9.1877699497
 30
0.0
 10
6.8805176668
 20
9.1841939403
 30
0.0
 10
6.8733097419
 20
9.1833877
 30
0.0
 10
6.8697325982
 20
9.1833876121
 30
0.0
  0
SPLINE
  5
553
100
AcDbEntity
  8
0
100
AcDbSpline
 62
9
  6
CONTINUOUS
 70
0
 71
3
 72
11
 73
7
 74
0
 42
0.0000001
 43
0.0000001
 44
0.0000000001
 40
0.0
 40
0.0
 40
0.0
 40
0.0
 40
0.2459154523
 40
0.49386315
 40
0.7450239305
 40
1.0
 40
1.0
 40
1.0
 40
1.0
 10
6.8697325978
 20
10.1833876121
 30
0.0
 10
6.87330908
 20
10.1833875503
 30
0.0
 10
6.8805164707
 20
10.1825819395
 30
0.0
 10
6.890835502
 20
10.1790051304
 30
0.0
 10
6.9002288948
 20
10.1731772495
 30
0.0
 10
6.9055221988
 20
10.1679582092
 30
0.0
 10
6.9078576072
 20
10.165077753
 30
0.0
  0
SPLINE
  5
554
100
AcDbEntity
  8
0
100
AcDbSpline
 62
7
  6
CONTINUOUS
 70
0
 71
3
 72
11
 73
7
 74
0
 42
0.0000001
 43
0.0000001
 44
0.0000000001
 40
0.0
 40
0.0
 40
0.0
 40
0.0
 40
0.3170093114
 40
0.589697754
 40
0.8175217031
 40
1.0
 40
1.0
 40
1.0
 40
1.0
 10
6.1554302098
 20
10.2233876121
 30
0.0
 10
6.1533477219
 20
10.2232121416
 30
0.0
 10
6.1494755334
 20
10.2228657217
 30
0.0
 10
6.1441146935
 20
10.2223080487
 30
0.0
 10
6.13964618
 20
10.2217531911
 30
0.0
 10
6.1369716989
 20
10.221343064
 30
0.0
 10
6.1357879726
 20
10.2211287053
 30
0.0
  0
SPLINE
  5
555
100
AcDbEntity
  8
0
100
AcDbSpline
 62
7
  6
CONTINUOUS
 70
0
 71
3
 72
23
 73
19
 74
0
 42
0.0000001
 43
0.0000001
 44
0.0000000001
 40
0.0
 40
0.0
 40
0.0
 40
0.0
 40
0.0084450332
 40
0.0188206001
 40
0.0311286246
 40
0.0453387223
 40
0.0614074262
 40
0.0792904115
 40
0.1203194659
 40
0.1680643307
 40
0.2221606768
 40
0.2822429067
 40
0.3479095074
 40
0.4185830646
 40
0.4936312738
 40
0.6543212865
 40
0.8249063153
 40
1.0
 40
1.0
 40
1.0
 40
1.0
 10
6.8656860963
 20
10.1996463917
 30
0.0
 10
6.8646337904
 20
10.1994551057
 30
0.0
 10
6.862278146
 20
10.1990868332
 30
0.0
 10
6.8583673902
 20
10.1985865302
 30
0.0
 10
6.8537216338
 20
10.1980847444
 30
0.0
 10
6.8483515067
 20
10.1975813097
 30
0.0
 10
6.8422727066
 20
10.1970766893
 30
0.0
 10
6.8328027594
 20
10.1963700091
 30
0.0
 10
6.8193223931
 20
10.1955025385
 30
0.0
 10
6.8012558541
 20
10.1944982505
 30
0.0
 10
6.780773132
 20
10.1934911182
 30
0.0
 10
6.7580183207
 20
10.1924819415
 30
0.0
 10
6.7331621619
 20
10.191472742
 30
0.0
 10
6.7064091967
 20
10.1904623553
 30
0.0
 10
6.66762714
 20
10.1890822983
 30
0.0
 10
6.6161949594
 20
10.1873818728
 30
0.0
 10
6.5520953482
 20
10.1853810871
 30
0.0
 10
6.5083359123
 20
10.1840499029
 30
0.0
 10
6.4861708941
 20
10.183373197
 30
0.0
  0
SPLINE
  5
556
100
AcDbEntity
  8
0
100
AcDbSpline
 62
7
  6
CONTINUOUS
 70
0
 71
3
 72
25
 73
21
 74
0
 42
0.0000001
 43
0.0000001
 44
0.0000000001
 40
0.0
 40
0.0
 40
0.0
 40
0.0
 40
0.0186087425
 40
0.0395086241
 40
0.0625902354
 40
0.0877408734
 40
0.1437787916
 40
0.2065677931
 40
0.274916821
 40
0.347532057
 40
0.4230370524
 40
0.5000007964
 40
0.6524690812
 40
0.7250839524
 40
0.7934326628
 40
0.8562214632
 40
0.912259207
 40
0.9604915067
 40
0.9813917566
 40
1.0
 40
1.0
 40
1.0
 40
1.0
 10
6.8657158908
 20
10.2185979158
 30
0.0
 10
6.8611937422
 20
10.2183164372
 30
0.0
 10
6.851589564
 20
10.2177686553
 30
0.0
 10
6.8363692007
 20
10.2170016997
 30
0.0
 10
6.8195543895
 20
10.2162302156
 30
0.0
 10
6.7941891136
 20
10.215156549
 30
0.0
 10
6.7591577538
 20
10.2138379316
 30
0.0
 10
6.7136095153
 20
10.2123028032
 30
0.0
 10
6.6640230334
 20
10.2107635057
 30
0.0
 10
6.6113391016
 20
10.2092226312
 30
0.0
 10
6.5565568229
 20
10.2076804117
 30
0.0
 10
6.4823383695
 20
10.2056296384
 30
0.0
 10
6.4088232607
 20
10.2036003321
 30
0.0
 10
6.3374082939
 20
10.2015115429
 30
0.0
 10
6.2878220182
 20
10.199972845
 30
0.0
 10
6.2422739485
 20
10.1984367161
 30
0.0
 10
6.2016267625
 20
10.1969065786
 30
0.0
 10
6.1711783079
 20
10.1955847697
 30
0.0
 10
6.1498426409
 20
10.1944960666
 30
0.0
 10
6.1402383972
 20
10.1939509762
 30
0.0
 10
6.1357158908
 20
10.1936773085
 30
0.0
  0
SPLINE
  5
557
100
AcDbEntity
  8
0
100
AcDbSpline
 62
7
  6
CONTINUOUS
 70
0
 71
3
 72
24
 73
20
 74
0
 42
0.0000001
 43
0.0000001
 44
0.0000000001
 40
0.0
 40
0.0
 40
0.0
 40
0.0
 40
0.0175964357
 40
0.0370666885
 40
0.0583359259
 40
0.0813275036
 40
0.1059625099
 40
0.1321609659
 40
0.1888816702
 40
0.250709039
 40
0.3167937357
 40
0.3862285671
 40
0.4580601856
 40
0.6049475356
 40
0.7494121217
 40
0.8182472776
 40
0.8835401432
 40
0.9444122199
 40
1.0
 40
1.0
 40
1.0
 40
1.0
 10
6.1357158908
 20
10.2021765857
 30
0.0
 10
6.1395288413
 20
10.2024179329
 30
0.0
 10
6.1475634094
 20
10.2028848337
 30
0.0
 10
6.1602127498
 20
10.2035358938
 30
0.0
 10
6.1740348597
 20
10.2041878223
 30
0.0
 10
6.1889791342
 20
10.2048479549
 30
0.0
 10
6.2049945165
 20
10.2055107919
 30
0.0
 10
6.2283293546
 20
10.206417422
 30
0.0
 10
6.2597372619
 20
10.20753532
 30
0.0
 10
6.2998036893
 20
10.2088487468
 30
0.0
 10
6.3426319843
 20
10.21016331
 30
0.0
 10
6.387633361
 20
10.2114787097
 30
0.0
 10
6.4501730399
 20
10.2132466963
 30
0.0
 10
6.5289986009
 20
10.2154120957
 30
0.0
 10
6.6071729027
 20
10.2175933696
 30
0.0
 10
6.6676353589
 20
10.2193758357
 30
0.0
 10
6.7099538812
 20
10.2206900664
 30
0.0
 10
6.7493946768
 20
10.2220026721
 30
0.0
 10
6.7746640986
 20
10.2229214834
 30
0.0
 10
6.7867244488
 20
10.2233876121
 30
0.0
  0
SPLINE
  5
558
100
AcDbEntity
  8
0
100
AcDbSpline
 62
7
  6
CONTINUOUS
 70
0
 71
3
 72
17
 73
13
 74
0
 42
0.0000001
 43
0.0000001
 44
0.0000000001
 40
0.0
 40
0.0
 40
0.0
 40
0.0
 40
0.1166044403
 40
0.2399484785
 40
0.3038373756
 40
0.3687696926
 40
0.499999687
 40
0.6312297338
 40
0.6961621119
 40
0.7600510894
 40
0.8833953314
 40
1.0
 40
1.0
 40
1.0
 40
1.0
 10
3.7382934813
 20
9.36338796
 30
0.0
 10
3.7419516691
 20
9.3633879785
 30
0.0
 10
3.749494067
 20
9.3626876555
 30
0.0
 10
3.758720427
 20
9.3600505057
 30
0.0
 10
3.7659228131
 20
9.3567472789
 30
0.0
 10
3.7729742029
 20
9.3526227365
 30
0.0
 10
3.7810337157
 20
9.3461279519
 30
0.0
 10
3.7875284743
 20
9.3380684159
 30
0.0
 10
3.7916529976
 20
9.3310170079
 30
0.0
 10
3.7949562075
 20
9.3238146021
 30
0.0
 10
3.7975933372
 20
9.3145882199
 30
0.0
 10
3.7982936456
 20
9.3070458072
 30
0.0
 10
3.7982936204
 20
9.3033876122
 30
0.0
  0
SPLINE
  5
559
100
AcDbEntity
  8
0
100
AcDbSpline
 62
7
  6
CONTINUOUS
 70
0
 71
3
 72
17
 73
13
 74
0
 42
0.0000001
 43
0.0000001
 44
0.0000000001
 40
0.0
 40
0.0
 40
0.0
 40
0.0
 40
0.1166046442
 40
0.2399487949
 40
0.3038377082
 40
0.3687700181
 40
0.4999999525
 40
0.6312298952
 40
0.6961622148
 40
0.7600511407
 40
0.8833953225
 40
1.0
 40
1.0
 40
1.0
 40
1.0
 10
3.7382934813
 20
10.003387558
 30
0.0
 10
3.7419516579
 20
10.0033875549
 30
0.0
 10
3.7494940264
 20
10.0040879028
 30
0.0
 10
3.7587203452
 20
10.0067250641
 30
0.0
 10
3.7659226961
 20
10.0100282851
 30
0.0
 10
3.7729740485
 20
10.0141528103
 30
0.0
 10
3.781033521
 20
10.0206475551
 30
0.0
 10
3.787528261
 20
10.028707032
 30
0.0
 10
3.7916527826
 20
10.0357583876
 30
0.0
 10
3.7949560005
 20
10.0429607418
 30
0.0
 10
3.7975931583
 20
10.0521870639
 30
0.0
 10
3.798293504
 20
10.0597294346
 30
0.0
 10
3.7982935
 20
10.0633876123
 30
0.0
  0
SPLINE
  5
55A
100
AcDbEntity
  8
0
100
AcDbSpline
 62
7
  6
CONTINUOUS
 70
0
 71
3
 72
21
 73
17
 74
0
 42
0.0000001
 43
0.0000001
 44
0.0000000001
 40
0.0
 40
0.0
 40
0.0
 40
0.0
 40
0.0573681602
 40
0.1166631417
 40
0.1776236391
 40
0.2400880727
 40
0.3039427093
 40
0.3688401987
 40
0.4999997899
 40
0.631159417
 40
0.6960569483
 40
0.7599116399
 40
0.8223761386
 40
0.8833367079
 40
0.9426317646
 40
1.0
 40
1.0
 40
1.0
 40
1.0
 10
5.1782934813
 20
10.2683872858
 30
0.0
 10
5.1758924761
 20
10.2683872752
 30
0.0
 10
5.1710071379
 20
10.2686121834
 30
0.0
 10
5.1636327177
 20
10.2696271678
 30
0.0
 10
5.1561755316
 20
10.2713737396
 30
0.0
 10
5.1487417763
 20
10.2738996535
 30
0.0
 10
5.1414540241
 20
10.2772416088
 30
0.0
 10
5.1320527746
 20
10.2827408671
 30
0.0
 10
5.1213064864
 20
10.2914005411
 30
0.0
 10
5.1126468279
 20
10.3021468439
 30
0.0
 10
5.1071475795
 20
10.3115481056
 30
0.0
 10
5.1038056302
 20
10.3188358679
 30
0.0
 10
5.1012797212
 20
10.3262696334
 30
0.0
 10
5.0995331532
 20
10.3337268294
 30
0.0
 10
5.0985181716
 20
10.3411012594
 30
0.0
 10
5.0982932646
 20
10.3459866039
 30
0.0
 10
5.0982932757
 20
10.3483876122
 30
0.0
  0
SPLINE
  5
55B
100
AcDbEntity
  8
0
100
AcDbSpline
 62
7
  6
CONTINUOUS
 70
0
 71
3
 72
21
 73
17
 74
0
 42
0.0000001
 43
0.0000001
 44
0.0000000001
 40
0.0
 40
0.0
 40
0.0
 40
0.0
 40
0.0573681602
 40
0.1166631417
 40
0.1776236391
 40
0.2400880727
 40
0.3039427092
 40
0.3688401986
 40
0.4999997899
 40
0.631159417
 40
0.6960569483
 40
0.7599116399
 40
0.8223761386
 40
0.8833367079
 40
0.9426317646
 40
1.0
 40
1.0
 40
1.0
 40
1.0
 10
5.1782934813
 20
9.0983879385
 30
0.0
 10
5.1758924761
 20
9.0983879491
 30
0.0
 10
5.1710071379
 20
9.0981630409
 30
0.0
 10
5.1636327177
 20
9.0971480565
 30
0.0
 10
5.1561755316
 20
9.0954014847
 30
0.0
 10
5.1487417763
 20
9.0928755708
 30
0.0
 10
5.1414540241
 20
9.0895336156
 30
0.0
 10
5.1320527746
 20
9.0840343572
 30
0.0
 10
5.1213064864
 20
9.0753746832
 30
0.0
 10
5.1126468279
 20
9.0646283804
 30
0.0
 10
5.1071475794
 20
9.0552271187
 30
0.0
 10
5.1038056301
 20
9.0479393564
 30
0.0
 10
5.1012797211
 20
9.0405055909
 30
0.0
 10
5.0995331531
 20
9.0330483948
 30
0.0
 10
5.0985181716
 20
9.0256739649
 30
0.0
 10
5.0982932646
 20
9.0207886204
 30
0.0
 10
5.0982932757
 20
9.0183876121
 30
0.0
  0
SPLINE
  5
55C
100
AcDbEntity
  8
0
100
AcDbSpline
 62
9
  6
CONTINUOUS
 70
0
 71
3
 72
67
 73
63
 74
0
 42
0.0000001
 43
0.0000001
 44
0.0000000001
 40
0.0
 40
0.0
 40
0.0
 40
0.0
 40
0.0000547701
 40
0.0002175655
 40
0.0004879918
 40
0.0008656542
 40
0.0013501581
 40
0.0019411089
 40
0.0034407728
 40
0.0053605149
 40
0.0076923084
 40
0.0104271528
 40
0.013556048
 40
0.0209546695
 40
0.0297895746
 40
0.0399568632
 40
0.0513526608
 40
0.0638746612
 40
0.0774267596
 40
0.1072433165
 40
0.1400850805
 40
0.1753873811
 40
0.2126513947
 40
0.2514836363
 40
0.2915368611
 40
0.3325078184
 40
0.3741090617
 40
0.4160470482
 40
0.4370726582
 40
0.458072941
 40
0.4790552088
 40
0.5000008347
 40
0.52094646
 40
0.5419286885
 40
0.5629288608
 40
0.5839543446
 40
0.6258921868
 40
0.6674933504
 40
0.7084641667
 40
0.7485172267
 40
0.7873492909
 40
0.8246131851
 40
0.8599154678
 40
0.8927572316
 40
0.9225737207
 40
0.9361257623
 40
0.9486476966
 40
0.9600434221
 40
0.9702106311
 40
0.9790454464
 40
0.9864439653
 40
0.9895728063
 40
0.9923076097
 40
0.9946393922
 40
0.9965591704
 40
0.9980589205
 40
0.9986499175
 40
0.9991344583
 40
0.99951214
 40
0.9997825595
 40
0.9999453139
 40
1.0
 40
1.0
 40
1.0
 40
1.0
 10
5.1782932769
 20
9.0983879385
 30
0.0
 10
5.1782732704
 20
9.0984061039
 30
0.0
 10
5.1781973623
 20
9.0984820714
 30
0.0
 10
5.178022859
 20
9.0986479265
 30
0.0
 10
5.1777357822
 20
9.0989266132
 30
0.0
 10
5.1773335194
 20
9.0993144831
 30
0.0
 10
5.1768180048
 20
9.099812748
 30
0.0
 10
5.1759042594
 20
9.1006955404
 30
0.0
 10
5.1744815976
 20
9.1020707305
 30
0.0
 10
5.1724417233
 20
9.1040432279
 30
0.0
 10
5.1699645613
 20
9.1064402001
 30
0.0
 10
5.1670597559
 20
9.1092531451
 30
0.0
 10
5.1623610362
 20
9.1138071961
 30
0.0
 10
5.1555061622
 20
9.12046109
 30
0.0
 10
5.1461723994
 20
9.1295470134
 30
0.0
 10
5.1354434988
 20
9.1400270674
 30
0.0
 10
5.1234364481
 20
9.1518019978
 30
0.0
 10
5.1102656534
 20
9.1647753571
 30
0.0
 10
5.0906727981
 20
9.1841801722
 30
0.0
 10
5.0640869646
 20
9.2107711282
 30
0.0
 10
5.0301918965
 20
9.2452274861
 30
0.0
 10
4.9941340035
 20
9.2827068287
 30
0.0
 10
4.9565858262
 20
9.3228482298
 30
0.0
 10
4.9183112424
 20
9.3655066302
 30
0.0
 10
4.8800244532
 20
9.4105876621
 30
0.0
 10
4.8427238475
 20
9.4582555091
 30
0.0
 10
4.8077843353
 20
9.5088365546
 30
0.0
 10
4.7824494015
 20
9.5539413563
 30
0.0
 10
4.7662641253
 20
9.5921251481
 30
0.0
 10
4.756837862
 20
9.6218091433
 30
0.0
 10
4.7508511566
 20
9.6523492635
 30
0.0
 10
4.7487088455
 20
9.6833889745
 30
0.0
 10
4.7508514089
 20
9.7144286481
 30
0.0
 10
4.7568383403
 20
9.7449686487
 30
0.0
 10
4.766264821
 20
9.7746524326
 30
0.0
 10
4.7824503382
 20
9.8128359138
 30
0.0
 10
4.8077853466
 20
9.8579404708
 30
0.0
 10
4.8427251131
 20
9.9085211281
 30
0.0
 10
4.8800257844
 20
9.9561886689
 30
0.0
 10
4.9183121381
 20
10.001269757
 30
0.0
 10
4.9565866535
 20
10.0439279183
 30
0.0
 10
4.9941348898
 20
10.0840690499
 30
0.0
 10
5.0301926984
 20
10.1215483783
 30
0.0
 10
5.0640876379
 20
10.1560048034
 30
0.0
 10
5.0906734221
 20
10.1825957221
 30
0.0
 10
5.1102662256
 20
10.2020004557
 30
0.0
 10
5.1234369634
 20
10.2149737357
 30
0.0
 10
5.1354439419
 20
10.2267485863
 30
0.0
 10
5.1461727569
 20
10.2372285575
 30
0.0
 10
5.1555064206
 20
10.2463143902
 30
0.0
 10
5.1623612044
 20
10.2529682023
 30
0.0
 10
5.1670598531
 20
10.2575221862
 30
0.0
 10
5.169964621
 20
10.2603350947
 30
0.0
 10
5.1724417793
 20
10.2627320594
 30
0.0
 10
5.1744816951
 20
10.2647045931
 30
0.0
 10
5.1759044239
 20
10.2660798334
 30
0.0
 10
5.1768182288
 20
10.2669626844
 30
0.0
 10
5.1773337902
 20
10.2674609731
 30
0.0
 10
5.17773605
 20
10.2678488828
 30
0.0
 10
5.1780231663
 20
10.2681275049
 30
0.0
 10
5.1781975341
 20
10.2682934127
 30
0.0
 10
5.1782734883
 20
10.2683692375
 30
0.0
 10
5.1782934237
 20
10.2683874194
 30
0.0
  0
SPLINE
  5
55D
100
AcDbEntity
  8
0
100
AcDbSpline
 62
9
  6
CONTINUOUS
 70
0
 71
3
 72
113
 73
109
 74
0
 42
0.0000001
 43
0.0000001
 44
0.0000000001
 40
0.0
 40
0.0
 40
0.0
 40
0.0
 40
0.0000035553
 40
0.0000139963
 40
0.0000313187
 40
0.0000555182
 40
0.0000865902
 40
0.0001245304
 40
0.0002209975
 40
0.000344884
 40
0.0004961543
 40
0.0006747729
 40
0.0008807043
 40
0.0013743316
 40
0.001976476
 40
0.0026864644
 40
0.003503623
 40
0.0044272661
 40
0.0054564416
 40
0.0065899325
 40
0.0078265105
 40
0.0106039582
 40
0.0137779002
 40
0.0173365846
 40
0.0212675063
 40
0.0255569387
 40
0.0301910256
 40
0.0351558537
 40
0.0404374913
 40
0.0518949787
 40
0.0644520947
 40
0.0780040619
 40
0.0924528421
 40
0.1077076255
 40
0.1236865967
 40
0.1403160214
 40
0.1575289242
 40
0.175266442
 40
0.212107432
 40
0.2504798008
 40
0.2701491572
 40
0.2900991665
 40
0.3103025056
 40
0.3307354904
 40
0.3513759392
 40
0.3722047531
 40
0.3932030247
 40
0.403760549
 40
0.4143539783
 40
0.4356332934
 40
0.457019837
 40
0.4677468778
 40
0.4784892605
 40
0.4892421549
 40
0.5000004266
 40
0.5107586957
 40
0.5215116118
 40
0.5322539236
 40
0.5429809709
 40
0.5643675176
 40
0.5856468858
 40
0.6067957887
 40
0.6277942112
 40
0.6486232015
 40
0.6692637687
 40
0.689696858
 40
0.7099002462
 40
0.729850314
 40
0.749519733
 40
0.7688784619
 40
0.7878927321
 40
0.82473355
 40
0.8424710773
 40
0.8596840148
 40
0.8763134064
 40
0.8922923688
 40
0.9075472028
 40
0.921995986
 40
0.9355479387
 40
0.9481050521
 40
0.9595625165
 40
0.9648441466
 40
0.9698089746
 40
0.9744430696
 40
0.9787325172
 40
0.9826634517
 40
0.9862221338
 40
0.9893960563
 40
0.9921734825
 40
0.9934100508
 40
0.9945435355
 40
0.9955727109
 40
0.9964963618
 40
0.9973135311
 40
0.9980235327
 40
0.9986256932
 40
0.99911934
 40
0.9993252811
 40
0.9995039076
 40
0.9996551828
 40
0.9997790698
 40
0.9998755317
 40
0.9999134669
 40
0.9999445319
 40
0.9999687223
 40
0.9999860335
 40
0.9999964609
 40
1.0
 40
1.0
 40
1.0
 40
1.0
 10
5.0982934813
 20
9.0183876121
 30
0.0
 10
5.0982930772
 20
9.0183894139
 30
0.0
 10
5.0982868303
 20
9.0183943012
 30
0.0
 10
5.0982782836
 20
9.0184077454
 30
0.0
 10
5.0982604233
 20
9.0184283297
 30
0.0
 10
5.0982371535
 20
9.0184578602
 30
0.0
 10
5.0982065723
 20
9.0184954446
 30
0.0
 10
5.0981526136
 20
9.018562315
 30
0.0
 10
5.0980681805
 20
9.0186665793
 30
0.0
 10
5.0979467448
 20
9.0188165946
 30
0.0
 10
5.0977983837
 20
9.0189997186
 30
0.0
 10
5.0976231648
 20
9.0192159214
 30
0.0
 10
5.0973359219
 20
9.0195702102
 30
0.0
 10
5.0969100093
 20
9.0200952515
 30
0.0
 10
5.096319122
 20
9.0208235645
 30
0.0
 10
5.0956224567
 20
9.0216824388
 30
0.0
 10
5.0948208021
 20
9.0226711549
 30
0.0
 10
5.093915054
 20
9.0237888933
 30
0.0
 10
5.0929062132
 20
9.0250345566
 30
0.0
 10
5.0917953928
 20
9.0264067754
 30
0.0
 10
5.0901136938
 20
9.0284850904
 30
0.0
 10
5.0877661365
 20
9.0313878539
 30
0.0
 10
5.0846618351
 20
9.0352296988
 30
0.0
 10
5.0811835653
 20
9.0395395804
 30
0.0
 10
5.0773445933
 20
9.0443028513
 30
0.0
 10
5.0731585996
 20
9.0495037929
 30
0.0
 10
5.0686397811
 20
9.0551261626
 30
0.0
 10
5.0638031581
 20
9.0611542404
 30
0.0
 10
5.0567572492
 20
9.0699532935
 30
0.0
 10
5.0472657511
 20
9.0818456769
 30
0.0
 10
5.0351298144
 20
9.097123163
 30
0.0
 10
5.0220735993
 20
9.1136536404
 30
0.0
 10
5.0082054293
 20
9.1313280908
 30
0.0
 10
4.9936270136
 20
9.150047307
 30
0.0
 10
4.978435463
 20
9.1697242845
 30
0.0
 10
4.9627219612
 20
9.1902827605
 30
0.0
 10
4.9465719278
 20
9.2116567186
 30
0.0
 10
4.9242853098
 20
9.2415500076
 30
0.0
 10
4.8958637075
 20
9.2805757755
 30
0.0
 10
4.8676427602
 20
9.3209807184
 30
0.0
 10
4.8451350803
 20
9.3546603939
 30
0.0
 10
4.8282948772
 20
9.3807731371
 30
0.0
 10
4.8117617618
 20
9.4075494652
 30
0.0
 10
4.795676346
 20
9.4350147893
 30
0.0
 10
4.7802268026
 20
9.4632159206
 30
0.0
 10
4.7656328786
 20
9.4922006409
 30
0.0
 10
4.7544385242
 20
9.5170105172
 30
0.0
 10
4.7462175467
 20
9.537302258
 30
0.0
 10
4.73852941
 20
9.5579575179
 30
0.0
 10
4.7301140342
 20
9.5843313482
 30
0.0
 10
4.7236976181
 20
9.6113445077
 30
0.0
 10
4.7199743489
 20
9.6332958244
 30
0.0
 10
4.7179376805
 20
9.649913231
 30
0.0
 10
4.7166971958
 20
9.666625477
 30
0.0
 10
4.7162825038
 20
9.6833871011
 30
0.0
 10
4.7166976608
 20
9.7001487074
 30
0.0
 10
4.7179373766
 20
9.7168609751
 30
0.0
 10
4.7199739956
 20
9.7334783909
 30
0.0
 10
4.723697553
 20
9.755429565
 30
0.0
 10
4.7301134493
 20
9.7824432851
 30
0.0
 10
4.7401974099
 20
9.8140423227
 30
0.0
 10
4.7521759613
 20
9.8447488249
 30
0.0
 10
4.7656321334
 20
9.8745739278
 30
0.0
 10
4.7802268239
 20
9.9035590243
 30
0.0
 10
4.7956760729
 20
9.9317604124
 30
0.0
 10
4.8117616493
 20
9.9592258462
 30
0.0
 10
4.8282949944
 20
9.9860021607
 30
0.0
 10
4.8451356446
 20
10.0121146965
 30
0.0
 10
4.8621556329
 20
10.0375841011
 30
0.0
 10
4.8792520714
 20
10.0624139969
 30
0.0
 10
4.9017818685
 20
10.0943273069
 30
0.0
 10
4.9242856547
 20
10.1252251588
 30
0.0
 10
4.9465719891
 20
10.1551184607
 30
0.0
 10
4.9627218527
 20
10.1764925769
 30
0.0
 10
4.9784354805
 20
10.1970509469
 30
0.0
 10
4.9936271202
 20
10.2167278622
 30
0.0
 10
5.0082054129
 20
10.2354472032
 30
0.0
 10
5.0220736251
 20
10.2531216465
 30
0.0
 10
5.0351298735
 20
10.2696520882
 30
0.0
 10
5.0472657541
 20
10.2849295922
 30
0.0
 10
5.0567572634
 20
10.2968219448
 30
0.0
 10
5.0638031709
 20
10.3056209786
 30
0.0
 10
5.0686397931
 20
10.3116490575
 30
0.0
 10
5.0731586116
 20
10.3172714426
 30
0.0
 10
5.0773446007
 20
10.322472412
 30
0.0
 10
5.0811835666
 20
10.327235705
 30
0.0
 10
5.0846618372
 20
10.3315455799
 30
0.0
 10
5.0877661452
 20
10.3353873905
 30
0.0
 10
5.0901137095
 20
10.3382901145
 30
0.0
 10
5.0917954087
 20
10.3403684044
 30
0.0
 10
5.0929062282
 20
10.3417406132
 30
0.0
 10
5.0939150683
 20
10.342986278
 30
0.0
 10
5.0948208137
 20
10.344104031
 30
0.0
 10
5.0956224647
 20
10.3450927712
 30
0.0
 10
5.0963191265
 20
10.3459516751
 30
0.0
 10
5.0969100124
 20
10.3466800218
 30
0.0
 10
5.0973359261
 20
10.3472050925
 30
0.0
 10
5.0976231716
 20
10.347559404
 30
0.0
 10
5.0977983928
 20
10.34777562
 30
0.0
 10
5.097946755
 20
10.3479587519
 30
0.0
 10
5.0980681917
 20
10.348108767
 30
0.0
 10
5.0981526234
 20
10.3482130247
 30
0.0
 10
5.0982065847
 20
10.3482798833
 30
0.0
 10
5.0982371593
 20
10.3483174551
 30
0.0
 10
5.0982604399
 20
10.3483469689
 30
0.0
 10
5.0982782665
 20
10.3483675345
 30
0.0
 10
5.0982868633
 20
10.3483809525
 30
0.0
 10
5.0982930476
 20
10.3483858259
 30
0.0
 10
5.0982934813
 20
10.3483876121
 30
0.0
  0
SPLINE
  5
55E
100
AcDbEntity
  8
0
100
AcDbSpline
 62
9
  6
CONTINUOUS
 70
0
 71
3
 72
82
 73
78
 74
0
 42
0.0000001
 43
0.0000001
 44
0.0000000001
 40
0.0
 40
0.0
 40
0.0
 40
0.0
 40
0.0000114714
 40
0.0000457895
 40
0.0001029371
 40
0.0001828966
 40
0.0002856508
 40
0.0004111823
 40
0.0007305077
 40
0.0011407341
 40
0.0016417224
 40
0.0022332564
 40
0.0029149203
 40
0.0036862662
 40
0.0045468464
 40
0.0065339195
 40
0.0088721323
 40
0.0115561967
 40
0.0145805889
 40
0.01793949
 40
0.0216260747
 40
0.0256333121
 40
0.034580539
 40
0.0447191017
 40
0.0559846208
 40
0.0683113611
 40
0.0816341525
 40
0.0958889632
 40
0.1110143005
 40
0.1269510416
 40
0.1610377803
 40
0.197739141
 40
0.2366901678
 40
0.2775614138
 40
0.3200463504
 40
0.3638456638
 40
0.408654514
 40
0.4541512006
 40
0.4999982045
 40
0.5229456046
 40
0.5458488256
 40
0.591346123
 40
0.6361542792
 40
0.679954127
 40
0.7224388425
 40
0.7633101621
 40
0.8022610294
 40
0.8389622957
 40
0.873049018
 40
0.88898575
 40
0.9041110762
 40
0.9183658787
 40
0.9316886612
 40
0.9440153948
 40
0.9552809092
 40
0.9654194704
 40
0.9743666989
 40
0.9783739377
 40
0.9820605219
 40
0.9854194227
 40
0.9884438117
 40
0.9911278689
 40
0.9934660783
 40
0.9954531525
 40
0.9963137332
 40
0.9970850804
 40
0.997766747
 40
0.9983582857
 40
0.9988592801
 40
0.999269511
 40
0.9995888384
 40
0.9997143696
 40
0.9998171224
 40
0.9998970793
 40
0.9999542229
 40
0.9999885356
 40
1.0
 40
1.0
 40
1.0
 40
1.0
 10
3.7982934813
 20
10.0633876121
 30
0.0
 10
3.798293862
 20
10.0633846025
 30
0.0
 10
3.7983014951
 20
10.0633744157
 30
0.0
 10
3.79831125
 20
10.0633493085
 30
0.0
 10
3.7983324672
 20
10.0633089791
 30
0.0
 10
3.7983598192
 20
10.0632518524
 30
0.0
 10
3.7983958993
 20
10.0631787153
 30
0.0
 10
3.7984594967
 20
10.0630486324
 30
0.0
 10
3.7985589985
 20
10.0628455627
 30
0.0
 10
3.7987020002
 20
10.0625532587
 30
0.0
 10
3.7988766035
 20
10.0621962694
 30
0.0
 10
3.7990826253
 20
10.0617747428
 30
0.0
 10
3.7993198748
 20
10.0612888997
 30
0.0
 10
3.7995881157
 20
10.0607390121
 30
0.0
 10
3.8000073124
 20
10.0598786657
 30
0.0
 10
3.8006070567
 20
10.0586453664
 30
0.0
 10
3.801415855
 20
10.0569775179
 30
0.0
 10
3.8023416876
 20
10.055061555
 30
0.0
 10
3.8033815824
 20
10.0529009315
 30
0.0
 10
3.8045323396
 20
10.0504994465
 30
0.0
 10
3.8057902347
 20
10.0478610944
 30
0.0
 10
3.8076755778
 20
10.0438847097
 30
0.0
 10
3.81027194
 20
10.0383571781
 30
0.0
 10
3.8136443881
 20
10.0310736601
 30
0.0
 10
3.817341389
 20
10.0229557295
 30
0.0
 10
3.8213240311
 20
10.0140428527
 30
0.0
 10
3.8255521464
 20
10.0043741526
 30
0.0
 10
3.8299851926
 20
9.9939877594
 30
0.0
 10
3.8345818895
 20
9.9829201794
 30
0.0
 10
3.8410201442
 20
9.966939593
 30
0.0
 10
3.849210841
 20
9.945515061
 30
0.0
 10
3.8588333485
 20
9.9181321374
 30
0.0
 10
3.8681295085
 20
9.8887472021
 30
0.0
 10
3.8767705848
 20
9.8575707103
 30
0.0
 10
3.8844297997
 20
9.8248179543
 30
0.0
 10
3.8907948223
 20
9.7907267851
 30
0.0
 10
3.8955790679
 20
9.7555714758
 30
0.0
 10
3.89855364
 20
9.7196720878
 30
0.0
 10
3.8993929449
 20
9.6894428331
 30
0.0
 10
3.8990580993
 20
9.6651931583
 30
0.0
 10
3.8980503081
 20
9.6410547037
 30
0.0
 10
3.8955808697
 20
9.6112030041
 30
0.0
 10
3.8907933849
 20
9.5760484781
 30
0.0
 10
3.8844305403
 20
9.5419569179
 30
0.0
 10
3.8767701152
 20
9.5092043395
 30
0.0
 10
3.8681296509
 20
9.4780277747
 30
0.0
 10
3.8588332705
 20
9.44864295
 30
0.0
 10
3.8492108137
 20
9.4212600886
 30
0.0
 10
3.8410201215
 20
9.3998355877
 30
0.0
 10
3.8345818701
 20
9.3838550105
 30
0.0
 10
3.8299851733
 20
9.3727874386
 30
0.0
 10
3.825552129
 20
9.3624010527
 30
0.0
 10
3.8213240172
 20
9.3527323579
 30
0.0
 10
3.8173413783
 20
9.3438194856
 30
0.0
 10
3.8136443804
 20
9.3357015573
 30
0.0
 10
3.8102719325
 20
9.3284180406
 30
0.0
 10
3.8076755701
 20
9.3228905087
 30
0.0
 10
3.8057902273
 20
9.3189141231
 30
0.0
 10
3.8045323333
 20
9.3162757703
 30
0.0
 10
3.8033815763
 20
9.3138742863
 30
0.0
 10
3.8023416811
 20
9.3117136661
 30
0.0
 10
3.8014158496
 20
9.3097977068
 30
0.0
 10
3.8006070515
 20
9.3081298609
 30
0.0
 10
3.8000073079
 20
9.306896562
 30
0.0
 10
3.7995881126
 20
9.3060362139
 30
0.0
 10
3.7993198728
 20
9.3054863245
 30
0.0
 10
3.7990826239
 20
9.3050004785
 30
0.0
 10
3.798876602
 20
9.304578948
 30
0.0
 10
3.7987019978
 20
9.3042219546
 30
0.0
 10
3.7985589965
 20
9.303929647
 30
0.0
 10
3.7984594929
 20
9.3037265757
 30
0.0
 10
3.7983958979
 20
9.3035964924
 30
0.0
 10
3.7983598132
 20
9.3035233571
 30
0.0
 10
3.7983324745
 20
9.3034662307
 30
0.0
 10
3.7983112289
 20
9.3034259086
 30
0.0
 10
3.7983015256
 20
9.3034007986
 30
0.0
 10
3.7982938412
 20
9.3033906224
 30
0.0
 10
3.7982934813
 20
9.3033876121
 30
0.0
  0
SPLINE
  5
55F
100
AcDbEntity
  8
0
100
AcDbSpline
 62
9
  6
CONTINUOUS
 70
0
 71
3
 72
73
 73
69
 74
0
 42
0.0000001
 43
0.0000001
 44
0.0000000001
 40
0.0
 40
0.0
 40
0.0
 40
0.0
 40
0.0000113807
 40
0.0000453796
 40
0.0001019511
 40
0.0001810496
 40
0.0004066455
 40
0.0007218026
 40
0.0011261565
 40
0.001619343
 40
0.0022009978
 40
0.0028707568
 40
0.0044731316
 40
0.0064235567
 40
0.0087191234
 40
0.0113569244
 40
0.0143333704
 40
0.0176421392
 40
0.0252286653
 40
0.0340606793
 40
0.0440825744
 40
0.0552375817
 40
0.0674636529
 40
0.0806978459
 40
0.0948778126
 40
0.1258349392
 40
0.1598849035
 40
0.1966082562
 40
0.2356328862
 40
0.2766205682
 40
0.3192508324
 40
0.3632292801
 40
0.4082284874
 40
0.4539384072
 40
0.4999999141
 40
0.5460616301
 40
0.5917719529
 40
0.6367715913
 40
0.6807505774
 40
0.7233814431
 40
0.7643696604
 40
0.8033946819
 40
0.8401182598
 40
0.8741682444
 40
0.9051250445
 40
0.9193046765
 40
0.9325384597
 40
0.9447641007
 40
0.9559187127
 40
0.9659402908
 40
0.9747720617
 40
0.9823584019
 40
0.9856670939
 40
0.9886434712
 40
0.9912812098
 40
0.9935767193
 40
0.9955270917
 40
0.9971294175
 40
0.9977991531
 40
0.9983807852
 40
0.9988739495
 40
0.9992782818
 40
0.9995934175
 40
0.9998189922
 40
0.9998980802
 40
0.9999546413
 40
0.9999886297
 40
1.0
 40
1.0
 40
1.0
 40
1.0
 10
3.7382937078
 20
10.003387558
 30
0.0
 10
3.7382955213
 20
10.0033856904
 30
0.0
 10
3.7383001352
 20
10.0033761679
 30
0.0
 10
3.7383136529
 20
10.0033572785
 30
0.0
 10
3.7383340217
 20
10.003324155
 30
0.0
 10
3.7383788342
 20
10.0032547763
 30
0.0
 10
3.738454857
 20
10.0031350609
 30
0.0
 10
3.7385711423
 20
10.0029528395
 30
0.0
 10
3.73872001
 20
10.0027187771
 30
0.0
 10
3.7389014845
 20
10.0024332208
 30
0.0
 10
3.739115283
 20
10.0020962739
 30
0.0
 10
3.7394646737
 20
10.0015448897
 30
0.0
 10
3.7399808203
 20
10.0007285213
 30
0.0
 10
3.7406942682
 20
9.999596925
 30
0.0
 10
3.7415323188
 20
9.998263908
 30
0.0
 10
3.7424933051
 20
9.996730967
 30
0.0
 10
3.7435751042
 20
9.9950002347
 30
0.0
 10
3.7452519953
 20
9.9923065922
 30
0.0
 10
3.7476236486
 20
9.9884677656
 30
0.0
 10
3.7507746573
 20
9.9833055759
 30
0.0
 10
3.7543151986
 20
9.9774250076
 30
0.0
 10
3.758212194
 20
9.9708530346
 30
0.0
 10
3.7624263731
 20
9.9636151841
 30
0.0
 10
3.7669177731
 20
9.9557384622
 30
0.0
 10
3.7734153882
 20
9.9440743971
 30
0.0
 10
3.7819628101
 20
9.9281029461
 30
0.0
 10
3.7923884164
 20
9.9072961936
 30
0.0
 10
3.8029253286
 20
9.8844933049
 30
0.0
 10
3.8132074578
 20
9.8598428589
 30
0.0
 10
3.8228697627
 20
9.8334957599
 30
0.0
 10
3.8315279457
 20
9.8056087965
 30
0.0
 10
3.8387896115
 20
9.7763755991
 30
0.0
 10
3.8443134835
 20
9.7460433453
 30
0.0
 10
3.8477466449
 20
9.7149213528
 30
0.0
 10
3.8489428879
 20
9.6833875452
 30
0.0
 10
3.8477475043
 20
9.6518536087
 30
0.0
 10
3.8443147458
 20
9.6207313122
 30
0.0
 10
3.8387903147
 20
9.5903988236
 30
0.0
 10
3.8315278304
 20
9.561165464
 30
0.0
 10
3.8228692683
 20
9.5332782254
 30
0.0
 10
3.813206814
 20
9.5069308099
 30
0.0
 10
3.8029245541
 20
9.4822801323
 30
0.0
 10
3.7923875328
 20
9.4594771331
 30
0.0
 10
3.7819618531
 20
9.4386704377
 30
0.0
 10
3.7734144416
 20
9.4226991478
 30
0.0
 10
3.7669169271
 20
9.4110353072
 30
0.0
 10
3.7624256549
 20
9.4031588217
 30
0.0
 10
3.7582116162
 20
9.3959212166
 30
0.0
 10
3.7543147519
 20
9.3893494695
 30
0.0
 10
3.750774318
 20
9.3834690916
 30
0.0
 10
3.7476233918
 20
9.3783070516
 30
0.0
 10
3.7452517941
 20
9.3744683266
 30
0.0
 10
3.74357494
 20
9.3717747503
 30
0.0
 10
3.7424931646
 20
9.3700440593
 30
0.0
 10
3.7415322006
 20
9.3685111551
 30
0.0
 10
3.7406941712
 20
9.3671781714
 30
0.0
 10
3.7399807437
 20
9.3660466052
 30
0.0
 10
3.739464614
 20
9.36523026
 30
0.0
 10
3.7391152365
 20
9.3646788931
 30
0.0
 10
3.7389014478
 20
9.3643419585
 30
0.0
 10
3.7387199827
 20
9.3640564144
 30
0.0
 10
3.7385711254
 20
9.3638223628
 30
0.0
 10
3.7384548476
 20
9.3636401546
 30
0.0
 10
3.7383788373
 20
9.3635204444
 30
0.0
 10
3.7383340257
 20
9.3634510782
 30
0.0
 10
3.7383136712
 20
9.3634179513
 30
0.0
 10
3.7383001417
 20
9.3633990829
 30
0.0
 10
3.738295548
 20
9.363389548
 30
0.0
 10
3.7382937298
 20
9.3633876884
 30
0.0
  0
SPLINE
  5
560
100
AcDbEntity
  8
0
100
AcDbSpline
 62
9
  6
CONTINUOUS
 70
0
 71
3
 72
33
 73
29
 74
0
 42
0.0000001
 43
0.0000001
 44
0.0000000001
 40
0.0
 40
0.0
 40
0.0
 40
0.0
 40
0.031384176
 40
0.0627778824
 40
0.0784679514
 40
0.094153204
 40
0.1255121761
 40
0.156862582
 40
0.188180941
 40
0.2194656248
 40
0.2507325923
 40
0.2819812758
 40
0.3132008532
 40
0.375511262
 40
0.4377619178
 40
0.499973912
 40
0.5621929579
 40
0.6244473384
 40
0.6867705557
 40
0.7491858509
 40
0.7804628433
 40
0.8117659335
 40
0.8430968317
 40
0.8744508281
 40
0.9058184508
 40
0.9372055253
 40
0.9686163279
 40
1.0
 40
1.0
 40
1.0
 40
1.0
 10
7.1149493011
 20
16.7428623654
 30
0.0
 10
7.1132263289
 20
16.7408094425
 30
0.0
 10
7.1099508191
 20
16.7365556147
 30
0.0
 10
7.1063608002
 20
16.7308842185
 30
0.0
 10
7.103846833
 20
16.7261474495
 30
0.0
 10
7.1015833382
 20
16.7212894776
 30
0.0
 10
7.099216569
 20
16.7150145388
 30
0.0
 10
7.0971104976
 20
16.7072540237
 30
0.0
 10
7.0957388208
 20
16.6993366093
 30
0.0
 10
7.0951339917
 20
16.691330242
 30
0.0
 10
7.0953244187
 20
16.68330924
 30
0.0
 10
7.0962996538
 20
16.6753505856
 30
0.0
 10
7.0986322263
 20
16.6649383872
 30
0.0
 10
7.10342815
 20
16.6524350776
 30
0.0
 10
7.1118926362
 20
16.638803042
 30
0.0
 10
7.1228468406
 20
16.6270788633
 30
0.0
 10
7.1358528031
 20
16.6176891137
 30
0.0
 10
7.1504242614
 20
16.610957361
 30
0.0
 10
7.1660308377
 20
16.6071391804
 30
0.0
 10
7.1794330485
 20
16.6065365266
 30
0.0
 10
7.1900665249
 20
16.6076166649
 30
0.0
 10
7.1979417324
 20
16.6092003894
 30
0.0
 10
7.2056340695
 20
16.6115340144
 30
0.0
 10
7.2130720136
 20
16.6145981434
 30
0.0
 10
7.2201814571
 20
16.6183738275
 30
0.0
 10
7.226878905
 20
16.6228497615
 30
0.0
 10
7.2330993328
 20
16.6279668265
 30
0.0
 10
7.2369159313
 20
16.6317457424
 30
0.0
 10
7.2387356918
 20
16.6337133212
 30
0.0
  0
SPLINE
  5
561
100
AcDbEntity
  8
0
100
AcDbSpline
 62
9
  6
CONTINUOUS
 70
0
 71
3
 72
33
 73
29
 74
0
 42
0.0000001
 43
0.0000001
 44
0.0000000001
 40
0.0
 40
0.0
 40
0.0
 40
0.0
 40
0.0627042609
 40
0.0940955095
 40
0.1254565994
 40
0.156795259
 40
0.1881171153
 40
0.2194188152
 40
0.2506949403
 40
0.2819464453
 40
0.313173334
 40
0.3754875274
 40
0.4377350068
 40
0.4688808465
 40
0.5000225936
 40
0.5311651559
 40
0.5623126969
 40
0.6245670565
 40
0.6868825478
 40
0.7181076934
 40
0.7493568176
 40
0.7806291592
 40
0.8119259338
 40
0.8432441537
 40
0.8745804591
 40
0.9059370816
 40
0.9373192445
 40
1.0
 40
1.0
 40
1.0
 40
1.0
 10
7.3501329307
 20
17.7901649182
 30
0.0
 10
7.3473248549
 20
17.7947650894
 30
0.0
 10
7.3424191098
 20
17.8012801811
 30
0.0
 10
7.3347329921
 20
17.8088600602
 30
0.0
 10
7.3284350828
 20
17.8139558635
 30
0.0
 10
7.3216755882
 20
17.818408008
 30
0.0
 10
7.3145163237
 20
17.8221734904
 30
0.0
 10
7.3070299156
 20
17.8252229396
 30
0.0
 10
7.2992867106
 20
17.8275228954
 30
0.0
 10
7.291361773
 20
17.8290548456
 30
0.0
 10
7.2806685185
 20
17.8300587698
 30
0.0
 10
7.2672060394
 20
17.829349092
 30
0.0
 10
7.2541449457
 20
17.8260409139
 30
0.0
 10
7.2442471296
 20
17.8219284296
 30
0.0
 10
7.2371554505
 20
17.8181328048
 30
0.0
 10
7.2304649408
 20
17.8136676408
 30
0.0
 10
7.2221710523
 20
17.8068773288
 30
0.0
 10
7.2130966286
 20
17.7969165898
 30
0.0
 10
7.2061233838
 20
17.7853787615
 30
0.0
 10
7.2019645053
 20
17.7754765982
 30
0.0
 10
7.1995790312
 20
17.7677662173
 30
0.0
 10
7.1979543166
 20
17.759854758
 30
0.0
 10
7.1971123506
 20
17.7518160974
 30
0.0
 10
7.1970560035
 20
17.7437281552
 30
0.0
 10
7.1977919297
 20
17.7356686367
 30
0.0
 10
7.1993135443
 20
17.7277128959
 30
0.0
 10
7.2023745521
 20
17.7173639002
 30
0.0
 10
7.2058067823
 20
17.7099705478
 30
0.0
 10
7.2085282945
 20
17.7053209819
 30
0.0
  0
SPLINE
  5
562
100
AcDbEntity
  8
0
100
AcDbSpline
 62
9
  6
CONTINUOUS
 70
0
 71
3
 72
32
 73
28
 74
0
 42
0.0000001
 43
0.0000001
 44
0.0000000001
 40
0.0
 40
0.0
 40
0.0
 40
0.0
 40
0.0313954855
 40
0.0627987833
 40
0.0784926832
 40
0.0941815191
 40
0.125550402
 40
0.1569188236
 40
0.1882613153
 40
0.2195681883
 40
0.2508507735
 40
0.313304674
 40
0.3756683574
 40
0.4379783408
 40
0.4691418715
 40
0.5002966407
 40
0.5314507203
 40
0.5626051484
 40
0.6248623748
 40
0.6871649243
 40
0.718371172
 40
0.7495975049
 40
0.8120548791
 40
0.8433451515
 40
0.8746597972
 40
0.9372997038
 40
1.0
 40
1.0
 40
1.0
 40
1.0
 10
7.2093644199
 20
17.7039701324
 30
0.0
 10
7.2106887885
 20
17.7018670368
 30
0.0
 10
7.2134929612
 20
17.6977553679
 30
0.0
 10
7.2174090926
 20
17.6929201696
 30
0.0
 10
7.220799146
 20
17.6892829636
 30
0.0
 10
7.2243612103
 20
17.6858180587
 30
0.0
 10
7.2291164989
 20
17.6818113849
 30
0.0
 10
7.2352305976
 20
17.6775423326
 30
0.0
 10
7.241687042
 20
17.6738213262
 30
0.0
 10
7.2484404289
 20
17.6706845349
 30
0.0
 10
7.2577689661
 20
17.6673400707
 30
0.0
 10
7.2699360738
 20
17.6647815959
 30
0.0
 10
7.2848210831
 20
17.6644101749
 30
0.0
 10
7.297084565
 20
17.6662911149
 30
0.0
 10
7.3065618608
 20
17.6690720815
 30
0.0
 10
7.3134540954
 20
17.6717935085
 30
0.0
 10
7.3200714266
 20
17.6751260048
 30
0.0
 10
7.3284553408
 20
17.6803383752
 30
0.0
 10
7.3380085292
 20
17.6882394878
 30
0.0
 10
7.3460076118
 20
17.6977148244
 30
0.0
 10
7.3513180296
 20
17.7060538143
 30
0.0
 10
7.3558615366
 20
17.7148465816
 30
0.0
 10
7.3591959662
 20
17.7242291766
 30
0.0
 10
7.3612194942
 20
17.733931378
 30
0.0
 10
7.3623647075
 20
17.7437919085
 30
0.0
 10
7.362144038
 20
17.7562587085
 30
0.0
 10
7.36017822
 20
17.7660509017
 30
0.0
 10
7.3587478558
 20
17.770803859
 30
0.0
  0
SPLINE
  5
563
100
AcDbEntity
  8
0
100
AcDbSpline
 62
9
  6
CONTINUOUS
 70
0
 71
3
 72
9
 73
5
 74
0
 42
0.0000001
 43
0.0000001
 44
0.0000000001
 40
0.0
 40
0.0
 40
0.0
 40
0.0
 40
0.2502221138
 40
1.0
 40
1.0
 40
1.0
 40
1.0
 10
7.3587478558
 20
17.770803859
 30
0.0
 10
7.3582984598
 20
17.7722971571
 30
0.0
 10
7.3563282846
 20
17.7782117983
 30
0.0
 10
7.3536935366
 20
17.7839005357
 30
0.0
 10
7.3514107334
 20
17.7879778011
 30
0.0
  0
SPLINE
  5
564
100
AcDbEntity
  8
0
100
AcDbSpline
 62
9
  6
CONTINUOUS
 70
0
 71
3
 72
36
 73
32
 74
0
 42
0.0000001
 43
0.0000001
 44
0.0000000001
 40
0.0
 40
0.0
 40
0.0
 40
0.0
 40
0.031378278
 40
0.0627650663
 40
0.0784517214
 40
0.0941339185
 40
0.1254870438
 40
0.1568313701
 40
0.1881435892
 40
0.2194225434
 40
0.2506831309
 40
0.281925202
 40
0.3131385068
 40
0.3754349949
 40
0.4376719849
 40
0.4688076455
 40
0.4999436253
 40
0.5310810261
 40
0.5622212508
 40
0.5933702363
 40
0.6245335101
 40
0.6868424488
 40
0.7492434169
 40
0.7805132834
 40
0.8118091443
 40
0.8431327923
 40
0.8744796286
 40
0.9058401112
 40
0.9372198472
 40
0.9686233308
 40
1.0
 40
1.0
 40
1.0
 40
1.0
 10
6.9647183618
 20
16.6104595306
 30
0.0
 10
6.9625521444
 20
16.6088814421
 30
0.0
 10
6.9583472368
 20
16.6055440301
 30
0.0
 10
6.9534908418
 20
16.6009111661
 30
0.0
 10
6.9499037504
 20
16.5969252745
 30
0.0
 10
6.9465307081
 20
16.5927606103
 30
0.0
 10
6.9427151177
 20
16.5872454553
 30
0.0
 10
6.9387960562
 20
16.5802239805
 30
0.0
 10
6.9355543201
 20
16.5728717051
 30
0.0
 10
6.9330346441
 20
16.5652484212
 30
0.0
 10
6.9312803851
 20
16.5574195991
 30
0.0
 10
6.9303014829
 20
16.5494617593
 30
0.0
 10
6.9300450978
 20
16.5387948304
 30
0.0
 10
6.9316740896
 20
16.5255049288
 30
0.0
 10
6.9357799128
 20
16.5127672028
 30
0.0
 10
6.9404909352
 20
16.5032167593
 30
0.0
 10
6.944707813
 20
16.4964286476
 30
0.0
 10
6.949560419
 20
16.4900797203
 30
0.0
 10
6.9550048243
 20
16.4842289888
 30
0.0
 10
6.9609875387
 20
16.4789257221
 30
0.0
 10
6.9696067979
 20
16.4726568491
 30
0.0
 10
6.9814679855
 20
16.4664167726
 30
0.0
 10
6.9943242389
 20
16.462592627
 30
0.0
 10
7.0049028249
 20
16.4610686856
 30
0.0
 10
7.012926747
 20
16.4607008367
 30
0.0
 10
7.020954635
 20
16.4611048001
 30
0.0
 10
7.0289123558
 20
16.4622790194
 30
0.0
 10
7.0367234494
 20
16.4642229491
 30
0.0
 10
7.0443042167
 20
16.4669457697
 30
0.0
 10
7.0515771435
 20
16.4704062387
 30
0.0
 10
7.0561941832
 20
16.4731496111
 30
0.0
 10
7.0584357559
 20
16.4746184463
 30
0.0
  0
SPLINE
  5
565
100
AcDbEntity
  8
0
100
AcDbSpline
 62
9
  6
CONTINUOUS
 70
0
 71
3
 72
34
 73
30
 74
0
 42
0.0000001
 43
0.0000001
 44
0.0000000001
 40
0.0
 40
0.0
 40
0.0
 40
0.0
 40
0.0313627234
 40
0.0627668771
 40
0.0941450375
 40
0.1255004392
 40
0.1568487273
 40
0.188174484
 40
0.2194668164
 40
0.2507366205
 40
0.3131319337
 40
0.3754322739
 40
0.4065999428
 40
0.437748289
 40
0.4688840874
 40
0.5000217725
 40
0.5311617595
 40
0.562302456
 40
0.6245494727
 40
0.6868605359
 40
0.7492621823
 40
0.7805393255
 40
0.8118362898
 40
0.8431559208
 40
0.8744982485
 40
0.9058565039
 40
0.9372372084
 40
0.968637975
 40
1.0
 40
1.0
 40
1.0
 40
1.0
 10
7.3214155095
 20
17.3242201302
 30
0.0
 10
7.3212927811
 20
17.3269259728
 30
0.0
 10
7.3213111386
 20
17.3323568874
 30
0.0
 10
7.3221389195
 20
17.340458645
 30
0.0
 10
7.3237941892
 20
17.3484335365
 30
0.0
 10
7.3262509669
 20
17.3561925318
 30
0.0
 10
7.3294411797
 20
17.3636735625
 30
0.0
 10
7.3333131601
 20
17.3708190652
 30
0.0
 10
7.3378481446
 20
17.3775572588
 30
0.0
 10
7.3447409203
 20
17.3858803794
 30
0.0
 10
7.3548565474
 20
17.3949218663
 30
0.0
 10
7.3665593853
 20
17.4017564905
 30
0.0
 10
7.3765416782
 20
17.4058139995
 30
0.0
 10
7.3842878305
 20
17.4081273738
 30
0.0
 10
7.3922209546
 20
17.4096687817
 30
0.0
 10
7.4002670926
 20
17.4104145977
 30
0.0
 10
7.408348541
 20
17.410368635
 30
0.0
 10
7.419059296
 20
17.4092496363
 30
0.0
 10
7.4321771508
 20
17.4059023689
 30
0.0
 10
7.4468543323
 20
17.3989346448
 30
0.0
 10
7.4577088032
 20
17.3907912565
 30
0.0
 10
7.4653125725
 20
17.3831116674
 30
0.0
 10
7.470439284
 20
17.3768115111
 30
0.0
 10
7.4749360865
 20
17.3700417146
 30
0.0
 10
7.4787582544
 20
17.3628629312
 30
0.0
 10
7.4818594976
 20
17.355338122
 30
0.0
 10
7.4841818276
 20
17.3475315532
 30
0.0
 10
7.4857071732
 20
17.3395325813
 30
0.0
 10
7.4862132895
 20
17.3341264827
 30
0.0
 10
7.4863407998
 20
17.3314209216
 30
0.0
  0
SPLINE
  5
566
100
AcDbEntity
  8
0
100
AcDbSpline
 62
9
  6
CONTINUOUS
 70
0
 71
3
 72
40
 73
36
 74
0
 42
0.0000001
 43
0.0000001
 44
0.0000000001
 40
0.0
 40
0.0
 40
0.0
 40
0.0
 40
0.0313578249
 40
0.0627582106
 40
0.0784453565
 40
0.0941164465
 40
0.1254502136
 40
0.1411304394
 40
0.1568117004
 40
0.1881329417
 40
0.2193905762
 40
0.2506367917
 40
0.2818964148
 40
0.3131343833
 40
0.3443308653
 40
0.3755091013
 40
0.4066852512
 40
0.437842999
 40
0.4689696387
 40
0.5000887192
 40
0.5312338683
 40
0.5624034037
 40
0.6246252757
 40
0.6557754797
 40
0.6869836513
 40
0.7182435387
 40
0.7495032032
 40
0.7807361318
 40
0.8119911138
 40
0.8433126336
 40
0.8589911987
 40
0.8746658488
 40
0.905996304
 40
0.9373549427
 40
1.0
 40
1.0
 40
1.0
 40
1.0
 10
7.4466528247
 20
17.5685869055
 30
0.0
 10
7.4474661248
 20
17.566002806
 30
0.0
 10
7.4488090898
 20
17.560737133
 30
0.0
 10
7.4497658057
 20
17.5540139639
 30
0.0
 10
7.4500864787
 20
17.5485991584
 30
0.0
 10
7.4501135422
 20
17.5431809747
 30
0.0
 10
7.449728275
 20
17.5377693457
 30
0.0
 10
7.4489804011
 20
17.5324036935
 30
0.0
 10
7.4480105192
 20
17.5270746307
 30
0.0
 10
7.4463759299
 20
17.5205041931
 30
0.0
 10
7.4436663231
 20
17.5128493817
 30
0.0
 10
7.4401450458
 20
17.5055368563
 30
0.0
 10
7.435889126
 20
17.498630595
 30
0.0
 10
7.4309769125
 20
17.4921810716
 30
0.0
 10
7.4254722592
 20
17.4862392663
 30
0.0
 10
7.4194295791
 20
17.4808537943
 30
0.0
 10
7.4129048226
 20
17.4760692143
 30
0.0
 10
7.4059517649
 20
17.471939122
 30
0.0
 10
7.3986239524
 20
17.4685264742
 30
0.0
 10
7.3909862001
 20
17.465884791
 30
0.0
 10
7.3831240707
 20
17.463999483
 30
0.0
 10
7.372464279
 20
17.4624702614
 30
0.0
 10
7.3616189301
 20
17.4624510887
 30
0.0
 10
7.3509722662
 20
17.4641329666
 30
0.0
 10
7.3431354139
 20
17.4661837149
 30
0.0
 10
7.3355136588
 20
17.4689496297
 30
0.0
 10
7.3281717767
 20
17.4723981507
 30
0.0
 10
7.3212098204
 20
17.4765670456
 30
0.0
 10
7.3147454919
 20
17.4814808025
 30
0.0
 10
7.3097956936
 20
17.486101749
 30
0.0
 10
7.3060974889
 20
17.4900586673
 30
0.0
 10
7.3025747771
 20
17.4941733072
 30
0.0
 10
7.2985230325
 20
17.4996122466
 30
0.0
 10
7.2929142062
 20
17.508883662
 30
0.0
 10
7.2897889027
 20
17.5164786341
 30
0.0
 10
7.2883685529
 20
17.521700958
 30
0.0
  0
SPLINE
  5
567
100
AcDbEntity
  8
0
100
AcDbSpline
 62
9
  6
CONTINUOUS
 70
0
 71
3
 72
36
 73
32
 74
0
 42
0.0000001
 43
0.0000001
 44
0.0000000001
 40
0.0
 40
0.0
 40
0.0
 40
0.0
 40
0.0313579316
 40
0.0627574775
 40
0.0941314579
 40
0.1254823743
 40
0.1568262831
 40
0.1881482277
 40
0.2194369075
 40
0.2507026229
 40
0.2819509805
 40
0.3131694118
 40
0.3754625086
 40
0.4066266061
 40
0.4377715535
 40
0.4689030662
 40
0.5000358743
 40
0.5311712439
 40
0.5623070048
 40
0.6245424322
 40
0.6868422184
 40
0.7180585351
 40
0.7493048498
 40
0.7805751477
 40
0.8118649172
 40
0.8431769966
 40
0.8745121098
 40
0.9058636949
 40
0.9372357064
 40
0.9686314888
 40
1.0
 40
1.0
 40
1.0
 40
1.0
 10
7.2883685529
 20
17.521700958
 30
0.0
 10
7.2875985132
 20
17.5242845032
 30
0.0
 10
7.2863073898
 20
17.529533315
 30
0.0
 10
7.2851504334
 20
17.5375558155
 30
0.0
 10
7.2848187789
 20
17.5456554696
 30
0.0
 10
7.2853098834
 20
17.5537409062
 30
0.0
 10
7.2865734523
 20
17.5617362125
 30
0.0
 10
7.2885732234
 20
17.569574216
 30
0.0
 10
7.2913073813
 20
17.5771811513
 30
0.0
 10
7.2947757911
 20
17.5844760195
 30
0.0
 10
7.2989497865
 20
17.5913853704
 30
0.0
 10
7.3053871305
 20
17.599982044
 30
0.0
 10
7.3130786265
 20
17.6075631088
 30
0.0
 10
7.3217057114
 20
17.6139323679
 30
0.0
 10
7.3286042372
 20
17.6180743634
 30
0.0
 10
7.3358709391
 20
17.621522604
 30
0.0
 10
7.3434423611
 20
17.6242347767
 30
0.0
 10
7.3512429172
 20
17.6261958566
 30
0.0
 10
7.3618435513
 20
17.6277798449
 30
0.0
 10
7.3753142842
 20
17.6278229102
 30
0.0
 10
7.3885546128
 20
17.6252852785
 30
0.0
 10
7.3986860196
 20
17.6217180988
 30
0.0
 10
7.4059986136
 20
17.6183008221
 30
0.0
 10
7.4129486861
 20
17.6141852895
 30
0.0
 10
7.4194714442
 20
17.6094117884
 30
0.0
 10
7.425509154
 20
17.6040297462
 30
0.0
 10
7.4310037986
 20
17.5980868446
 30
0.0
 10
7.4358963732
 20
17.5916320437
 30
0.0
 10
7.4401183041
 20
17.5847127073
 30
0.0
 10
7.4436206535
 20
17.5774029632
 30
0.0
 10
7.445482183
 20
17.5723285404
 30
0.0
 10
7.4462930364
 20
17.5697565589
 30
0.0
  0
SPLINE
  5
568
100
AcDbEntity
  8
0
100
AcDbSpline
 62
9
  6
CONTINUOUS
 70
0
 71
3
 72
27
 73
23
 74
0
 42
0.0000001
 43
0.0000001
 44
0.0000000001
 40
0.0
 40
0.0
 40
0.0
 40
0.0
 40
0.0313780793
 40
0.0627931003
 40
0.0941973609
 40
0.1255812209
 40
0.1882329331
 40
0.2508012644
 40
0.3132848168
 40
0.375682104
 40
0.4380106126
 40
0.500293219
 40
0.5625540926
 40
0.6248275109
 40
0.6560086404
 40
0.6872027985
 40
0.7495808554
 40
0.8120423493
 40
0.8433379487
 40
0.8746582021
 40
0.9372911229
 40
1.0
 40
1.0
 40
1.0
 40
1.0
 10
6.0006296275
 20
16.6366625051
 30
0.0
 10
5.9986577844
 20
16.6381567916
 30
0.0
 10
5.9945848611
 20
16.6409839724
 30
0.0
 10
5.9881359136
 20
16.6446863957
 30
0.0
 10
5.9813783839
 20
16.6477959577
 30
0.0
 10
5.9720410075
 20
16.6510916566
 30
0.0
 10
5.9598788601
 20
16.6536096915
 30
0.0
 10
5.9450058884
 20
16.6539830381
 30
0.0
 10
5.930323302
 20
16.6516940343
 30
0.0
 10
5.9163020017
 20
16.6468339723
 30
0.0
 10
5.9033827236
 20
16.6395650656
 30
0.0
 10
5.8919694552
 20
16.6301218622
 30
0.0
 10
5.8824214562
 20
16.618804258
 30
0.0
 10
5.8762673688
 20
16.6080981781
 30
0.0
 10
5.8725452347
 20
16.5989898396
 30
0.0
 10
5.8696515124
 20
16.5895765609
 30
0.0
 10
5.8676260394
 20
16.5773709033
 30
0.0
 10
5.8678114515
 20
16.5649911254
 30
0.0
 10
5.8692811991
 20
16.5552274933
 30
0.0
 10
5.8716271251
 20
16.5456224375
 30
0.0
 10
5.8761624773
 20
16.5340588613
 30
0.0
 10
5.8813931508
 20
16.5256010091
 30
0.0
 10
5.8843600292
 20
16.5216456352
 30
0.0
  0
SPLINE
  5
569
100
AcDbEntity
  8
0
100
AcDbSpline
 62
9
  6
CONTINUOUS
 70
0
 71
3
 72
10
 73
6
 74
0
 42
0.0000001
 43
0.0000001
 44
0.0000000001
 40
0.0
 40
0.0
 40
0.0
 40
0.0
 40
0.49972449
 40
0.7499641269
 40
1.0
 40
1.0
 40
1.0
 40
1.0
 10
6.7202472712
 20
18.0799921892
 30
0.0
 10
6.7164794361
 20
18.0810302381
 30
0.0
 10
6.7109232183
 20
18.0829891891
 30
0.0
 10
6.7038663877
 20
18.086370887
 30
0.0
 10
6.700469629
 20
18.0883218614
 30
0.0
 10
6.6988112354
 20
18.0893579942
 30
0.0
  0
SPLINE
  5
56A
100
AcDbEntity
  8
0
100
AcDbSpline
 62
9
  6
CONTINUOUS
 70
0
 71
3
 72
33
 73
29
 74
0
 42
0.0000001
 43
0.0000001
 44
0.0000000001
 40
0.0
 40
0.0
 40
0.0
 40
0.0
 40
0.0626690645
 40
0.0940164264
 40
0.1253346909
 40
0.1566253878
 40
0.1879013763
 40
0.2191573953
 40
0.2503833072
 40
0.3127174914
 40
0.3438978268
 40
0.3750606269
 40
0.4062094532
 40
0.4373575099
 40
0.4995978136
 40
0.5618597733
 40
0.6241830176
 40
0.6553955385
 40
0.6866297242
 40
0.7178914628
 40
0.7491757714
 40
0.8117382809
 40
0.8430814188
 40
0.8744425509
 40
0.9058179304
 40
0.9372173767
 40
0.9686295212
 40
1.0
 40
1.0
 40
1.0
 40
1.0
 10
6.6988112354
 20
18.0893579942
 30
0.0
 10
6.694636321
 20
18.0919664015
 30
0.0
 10
6.6887205573
 20
18.0964722686
 30
0.0
 10
6.6817094556
 20
18.1033944733
 30
0.0
 10
6.6769159183
 20
18.1090198422
 30
0.0
 10
6.6726432979
 20
18.1150429978
 30
0.0
 10
6.6689397991
 20
18.1214265236
 30
0.0
 10
6.6658309144
 20
18.1281148481
 30
0.0
 10
6.6625223566
 20
18.1373556948
 30
0.0
 10
6.660489982
 20
18.1470040795
 30
0.0
 10
6.6597291778
 20
18.1567769665
 30
0.0
 10
6.6597982189
 20
18.16413062
 30
0.0
 10
6.6605195056
 20
18.1714468196
 30
0.0
 10
6.662358124
 20
18.1810662515
 30
0.0
 10
6.6662644093
 20
18.1927277889
 30
0.0
 10
6.6733563117
 20
18.2056590592
 30
0.0
 10
6.6810684236
 20
18.2152511884
 30
0.0
 10
6.6881820766
 20
18.2220093883
 30
0.0
 10
6.6939669122
 20
18.2265781961
 30
0.0
 10
6.7001441805
 20
18.2306106258
 30
0.0
 10
6.708827318
 20
18.2352342198
 30
0.0
 10
6.718102142
 20
18.2386829161
 30
0.0
 10
6.7277053985
 20
18.2408714379
 30
0.0
 10
6.7350382951
 20
18.2418700382
 30
0.0
 10
6.7424356076
 20
18.2422038302
 30
0.0
 10
6.7498363307
 20
18.2418467253
 30
0.0
 10
6.7571725516
 20
18.2408227682
 30
0.0
 10
6.7619867645
 20
18.2397209411
 30
0.0
 10
6.7643636175
 20
18.2390706314
 30
0.0
  0
SPLINE
  5
56B
100
AcDbEntity
  8
0
100
AcDbSpline
 62
9
  6
CONTINUOUS
 70
0
 71
3
 72
36
 73
32
 74
0
 42
0.0000001
 43
0.0000001
 44
0.0000000001
 40
0.0
 40
0.0
 40
0.0
 40
0.0
 40
0.0313579316
 40
0.0627574775
 40
0.094131458
 40
0.1254823744
 40
0.1568262831
 40
0.1881482278
 40
0.2194369076
 40
0.2507026231
 40
0.2819509806
 40
0.313169412
 40
0.3754625088
 40
0.4066266063
 40
0.4377715538
 40
0.4689030665
 40
0.5000358746
 40
0.5311712442
 40
0.5623070051
 40
0.6245424327
 40
0.6868422189
 40
0.7180585355
 40
0.7493048503
 40
0.7805751484
 40
0.8118649179
 40
0.8431769971
 40
0.8745121101
 40
0.9058636953
 40
0.9372357066
 40
0.9686314888
 40
1.0
 40
1.0
 40
1.0
 40
1.0
 10
6.322914756
 20
18.0903967081
 30
0.0
 10
6.3202837889
 20
18.0898087631
 30
0.0
 10
6.3149576987
 20
18.0888869234
 30
0.0
 10
6.3068740354
 20
18.0882924068
 30
0.0
 10
6.2987709766
 20
18.0885265636
 30
0.0
 10
6.2907394934
 20
18.0895804834
 30
0.0
 10
6.2828518054
 20
18.0913986988
 30
0.0
 10
6.275172392
 20
18.0939403501
 30
0.0
 10
6.2677747119
 20
18.0971984807
 30
0.0
 10
6.2607395578
 20
18.1011673061
 30
0.0
 10
6.254138201
 20
18.1058131059
 30
0.0
 10
6.2460115149
 20
18.1128344425
 30
0.0
 10
6.2389854489
 20
18.1210360309
 30
0.0
 10
6.2332335002
 20
18.1300863978
 30
0.0
 10
6.2295828112
 20
18.1372570502
 30
0.0
 10
6.2266498699
 20
18.1447465879
 30
0.0
 10
6.2244724597
 20
18.152488758
 30
0.0
 10
6.2230602963
 20
18.1604071103
 30
0.0
 10
6.2222196295
 20
18.1710924152
 30
0.0
 10
6.2231163402
 20
18.1845333382
 30
0.0
 10
6.2265713888
 20
18.1975643979
 30
0.0
 10
6.2308366107
 20
18.2074222911
 30
0.0
 10
6.2347556641
 20
18.2144786946
 30
0.0
 10
6.2393459842
 20
18.221124752
 30
0.0
 10
6.2445628616
 20
18.2272986387
 30
0.0
 10
6.2503529626
 20
18.2329462088
 30
0.0
 10
6.2566646748
 20
18.2380129127
 30
0.0
 10
6.2634450412
 20
18.2424433045
 30
0.0
 10
6.2706420297
 20
18.2461722818
 30
0.0
 10
6.2781782793
 20
18.2491561971
 30
0.0
 10
6.2833701948
 20
18.2506592185
 30
0.0
 10
6.2859924732
 20
18.2512886848
 30
0.0
  0
SPLINE
  5
56C
100
AcDbEntity
  8
0
100
AcDbSpline
 62
9
  6
CONTINUOUS
 70
0
 71
3
 72
35
 73
31
 74
0
 42
0.0000001
 43
0.0000001
 44
0.0000000001
 40
0.0
 40
0.0
 40
0.0
 40
0.0
 40
0.0313751085
 40
0.0627764514
 40
0.0941466974
 40
0.1254989424
 40
0.1568433528
 40
0.1881628617
 40
0.2194494664
 40
0.2507157055
 40
0.2819632656
 40
0.3131796219
 40
0.3754757802
 40
0.4066404339
 40
0.4377859242
 40
0.4689196032
 40
0.5000554126
 40
0.5311934298
 40
0.5623321551
 40
0.624576311
 40
0.6868840585
 40
0.7492801131
 40
0.780553911
 40
0.81184713
 40
0.8431626018
 40
0.8745009035
 40
0.9058554382
 40
0.9372305165
 40
0.9686290214
 40
1.0
 40
1.0
 40
1.0
 40
1.0
 10
5.8148292552
 20
17.7405082828
 30
0.0
 10
5.8133119734
 20
17.7382979823
 30
0.0
 10
5.8100604358
 20
17.7340192469
 30
0.0
 10
5.8045815756
 20
17.7281109167
 30
0.0
 10
5.7985279095
 20
17.7227941693
 30
0.0
 10
5.7919792958
 20
17.7181115838
 30
0.0
 10
5.7850216028
 20
17.7140724169
 30
0.0
 10
5.7777253395
 20
17.7106961014
 30
0.0
 10
5.7701465659
 20
17.7080301827
 30
0.0
 10
5.7623478382
 20
17.7061250477
 30
0.0
 10
5.7544043223
 20
17.7049992234
 30
0.0
 10
5.7437392402
 20
17.7045530371
 30
0.0
 10
5.7330674776
 20
17.7056954138
 30
0.0
 10
5.7227342244
 20
17.7083091617
 30
0.0
 10
5.7152012459
 20
17.7109961089
 30
0.0
 10
5.7079679111
 20
17.7144015406
 30
0.0
 10
5.7011046031
 20
17.718500549
 30
0.0
 10
5.6946701065
 20
17.7232459707
 30
0.0
 10
5.6867510036
 20
17.7303730603
 30
0.0
 10
5.6781874543
 20
17.7406692478
 30
0.0
 10
5.6704467287
 20
17.7547539424
 30
0.0
 10
5.6664252035
 20
17.7675600283
 30
0.0
 10
5.6647321003
 20
17.7781162864
 30
0.0
 10
5.6642291134
 20
17.7861356881
 30
0.0
 10
5.6644951475
 20
17.7941710224
 30
0.0
 10
5.6655305304
 20
17.8021494803
 30
0.0
 10
5.6673358143
 20
17.8099954355
 30
0.0
 10
5.6699187625
 20
17.8176272418
 30
0.0
 10
5.6732533571
 20
17.8249616002
 30
0.0
 10
5.6759291384
 20
17.8296204901
 30
0.0
 10
5.6773694982
 20
17.8318812518
 30
0.0
  0
SPLINE
  5
56D
100
AcDbEntity
  8
0
100
AcDbSpline
 62
9
  6
CONTINUOUS
 70
0
 71
3
 72
35
 73
31
 74
0
 42
0.0000001
 43
0.0000001
 44
0.0000000001
 40
0.0
 40
0.0
 40
0.0
 40
0.0
 40
0.0313750235
 40
0.0627760437
 40
0.0941456805
 40
0.1254976115
 40
0.1568414933
 40
0.1881599446
 40
0.2194454416
 40
0.2507109662
 40
0.2819572755
 40
0.3131718651
 40
0.3754657528
 40
0.4066291227
 40
0.437773255
 40
0.4689065489
 40
0.5000424249
 40
0.5311802234
 40
0.562319174
 40
0.6245653632
 40
0.6868748133
 40
0.7492762145
 40
0.7805520155
 40
0.811847619
 40
0.8431658221
 40
0.8745064709
 40
0.9058628546
 40
0.9372418106
 40
0.9686403853
 40
1.0
 40
1.0
 40
1.0
 40
1.0
 10
5.7258251296
 20
17.5611473721
 30
0.0
 10
5.724883173
 20
17.5586237035
 30
0.0
 10
5.7227520842
 20
17.5536623508
 30
0.0
 10
5.7188417619
 20
17.546573164
 30
0.0
 10
5.7142241197
 20
17.5399239174
 30
0.0
 10
5.7089679993
 20
17.5337755314
 30
0.0
 10
5.7031555112
 20
17.5281580083
 30
0.0
 10
5.6968506309
 20
17.5231083422
 30
0.0
 10
5.6900967752
 20
17.5186873289
 30
0.0
 10
5.6829435649
 20
17.5149597862
 30
0.0
 10
5.6754611363
 20
17.5119611077
 30
0.0
 10
5.6651587095
 20
17.5089804409
 30
0.0
 10
5.654469534
 20
17.507553723
 30
0.0
 10
5.643760784
 20
17.5076501646
 30
0.0
 10
5.6357687074
 20
17.5084879105
 30
0.0
 10
5.6278998703
 20
17.5101034077
 30
0.0
 10
5.6202292139
 20
17.5124864871
 30
0.0
 10
5.6128260983
 20
17.515605544
 30
0.0
 10
5.6034139022
 20
17.5207053281
 30
0.0
 10
5.5926301625
 20
17.5287553013
 30
0.0
 10
5.5817747024
 20
17.5407131053
 30
0.0
 10
5.5748650266
 20
17.5522970632
 30
0.0
 10
5.5707597782
 20
17.5622247769
 30
0.0
 10
5.5684097103
 20
17.5699493658
 30
0.0
 10
5.5668111927
 20
17.577868454
 30
0.0
 10
5.5659827252
 20
17.5859103207
 30
0.0
 10
5.565943334
 20
17.5940005286
 30
0.0
 10
5.5667222927
 20
17.6020590097
 30
0.0
 10
5.5683018537
 20
17.6099978418
 30
0.0
 10
5.5698498719
 20
17.6151683413
 30
0.0
 10
5.5707398271
 20
17.6177094119
 30
0.0
  0
SPLINE
  5
56E
100
AcDbEntity
  8
0
100
AcDbSpline
 62
9
  6
CONTINUOUS
 70
0
 71
3
 72
31
 73
27
 74
0
 42
0.0000001
 43
0.0000001
 44
0.0000000001
 40
0.0
 40
0.0
 40
0.0
 40
0.0
 40
0.0313984692
 40
0.0628051308
 40
0.078500602
 40
0.0941907259
 40
0.1255621617
 40
0.1569342841
 40
0.1882818551
 40
0.2195934688
 40
0.2508798936
 40
0.3133450276
 40
0.3757195392
 40
0.4380412316
 40
0.4692097792
 40
0.5003680196
 40
0.5315250434
 40
0.5626827053
 40
0.6249447538
 40
0.6872484688
 40
0.7496153128
 40
0.8120688826
 40
0.8433572031
 40
0.8746678885
 40
0.9373006375
 40
1.0
 40
1.0
 40
1.0
 40
1.0
 10
5.8568030246
 20
16.7782234211
 30
0.0
 10
5.8552164486
 20
16.7801012706
 30
0.0
 10
5.8519055989
 20
16.7837442882
 30
0.0
 10
5.8474102327
 20
16.7879476965
 30
0.0
 10
5.8435960634
 20
16.7910524759
 30
0.0
 10
5.8396381507
 20
16.7939670433
 30
0.0
 10
5.8344398905
 20
16.797254472
 30
0.0
 10
5.8278775636
 20
16.8006221901
 30
0.0
 10
5.8210557608
 20
16.8034144617
 30
0.0
 10
5.8140229306
 20
16.8056032335
 30
0.0
 10
5.8044402893
 20
16.807668663
 30
0.0
 10
5.7921786934
 20
16.8086099979
 30
0.0
 10
5.7775304637
 20
16.8070805776
 30
0.0
 10
5.7657348163
 20
16.8036962057
 30
0.0
 10
5.7567780679
 20
16.7997937811
 30
0.0
 10
5.7503470499
 20
16.7962774119
 30
0.0
 10
5.7442578804
 20
16.7921994867
 30
0.0
 10
5.7366577241
 20
16.7860690995
 30
0.0
 10
5.7282219948
 20
16.777169935
 30
0.0
 10
5.7201339963
 20
16.7648822701
 30
0.0
 10
5.7143286969
 20
16.7513471196
 30
0.0
 10
5.7115752004
 20
16.7393658891
 30
0.0
 10
5.7106726035
 20
16.729605357
 30
0.0
 10
5.7106438838
 20
16.7197886711
 30
0.0
 10
5.71223307
 20
16.7075616093
 30
0.0
 10
5.7152174844
 20
16.6981481917
 30
0.0
 10
5.7171260732
 20
16.6936253175
 30
0.0
  0
SPLINE
  5
56F
100
AcDbEntity
  8
0
100
AcDbSpline
 62
9
  6
CONTINUOUS
 70
0
 71
3
 72
9
 73
5
 74
0
 42
0.0000001
 43
0.0000001
 44
0.0000000001
 40
0.0
 40
0.0
 40
0.0
 40
0.0
 40
0.250226647
 40
1.0
 40
1.0
 40
1.0
 40
1.0
 10
5.7181732352
 20
16.6912527049
 30
0.0
 10
5.7188260901
 20
16.6898364285
 30
0.0
 10
5.7216000229
 20
16.6842533416
 30
0.0
 10
5.7250004046
 20
16.6789861937
 30
0.0
 10
5.7278286692
 20
16.6752664347
 30
0.0
  0
SPLINE
  5
570
100
AcDbEntity
  8
0
100
AcDbSpline
 62
9
  6
CONTINUOUS
 70
0
 71
3
 72
36
 73
32
 74
0
 42
0.0000001
 43
0.0000001
 44
0.0000000001
 40
0.0
 40
0.0
 40
0.0
 40
0.0
 40
0.0313650979
 40
0.0627548192
 40
0.0784434873
 40
0.0941260442
 40
0.1254784532
 40
0.1568258854
 40
0.1881431982
 40
0.2194252937
 40
0.2506869568
 40
0.2819315389
 40
0.3131481413
 40
0.3754463809
 40
0.4376855242
 40
0.4688216641
 40
0.4999575135
 40
0.5310946046
 40
0.5622342113
 40
0.5933824316
 40
0.6245446571
 40
0.6868500906
 40
0.7492476968
 40
0.780516575
 40
0.8118113907
 40
0.8431341346
 40
0.8744803737
 40
0.905840506
 40
0.9372199284
 40
0.9686233707
 40
1.0
 40
1.0
 40
1.0
 40
1.0
 10
5.8156941263
 20
17.7417936285
 30
0.0
 10
5.8171554405
 20
17.7440586343
 30
0.0
 10
5.8198973125
 20
17.7487111805
 30
0.0
 10
5.8227916376
 20
17.7548115212
 30
0.0
 10
5.8247329802
 20
17.7598460653
 30
0.0
 10
5.8264055216
 20
17.7649727055
 30
0.0
 10
5.8279999891
 20
17.7715300515
 30
0.0
 10
5.8291374588
 20
17.7795413329
 30
0.0
 10
5.8295163231
 20
17.787618277
 30
0.0
 10
5.8291178796
 20
17.7956877589
 30
0.0
 10
5.8279230114
 20
17.8036720942
 30
0.0
 10
5.8259470837
 20
17.8114944689
 30
0.0
 10
5.822303151
 20
17.8215939104
 30
0.0
 10
5.8159201302
 20
17.8334600998
 30
0.0
 10
5.8074047128
 20
17.8438929625
 30
0.0
 10
5.7994860579
 20
17.8511118215
 30
0.0
 10
5.7930407621
 20
17.8559193611
 30
0.0
 10
5.7861590994
 20
17.8600776242
 30
0.0
 10
5.778904393
 20
17.8635465097
 30
0.0
 10
5.7713460641
 20
17.8662996323
 30
0.0
 10
5.7609622714
 20
17.8689767763
 30
0.0
 10
5.7475537488
 20
17.8704165589
 30
0.0
 10
5.7341115093
 20
17.8692111507
 30
0.0
 10
5.723657
 20
17.8666931459
 30
0.0
 10
5.7160224738
 20
17.8640416854
 30
0.0
 10
5.7086743779
 20
17.8606631465
 30
0.0
 10
5.7016820971
 20
17.8565872259
 30
0.0
 10
5.6951175371
 20
17.8518436633
 30
0.0
 10
5.689062964
 20
17.8464557977
 30
0.0
 10
5.6835767476
 20
17.8404911416
 30
0.0
 10
5.680302201
 20
17.8361924426
 30
0.0
 10
5.6787647152
 20
17.833977229
 30
0.0
  0
SPLINE
  5
571
100
AcDbEntity
  8
0
100
AcDbSpline
 62
9
  6
CONTINUOUS
 70
0
 71
3
 72
28
 73
24
 74
0
 42
0.0000001
 43
0.0000001
 44
0.0000000001
 40
0.0
 40
0.0
 40
0.0
 40
0.0
 40
0.0627260014
 40
0.1254628319
 40
0.1568250044
 40
0.1881704748
 40
0.2507470292
 40
0.313233298
 40
0.3756277513
 40
0.4379505734
 40
0.5002258588
 40
0.5624785574
 40
0.6247431283
 40
0.6559204943
 40
0.6871112684
 40
0.7183187725
 40
0.749544214
 40
0.8119982029
 40
0.8432914336
 40
0.8746090903
 40
0.9059461285
 40
0.9372976703
 40
1.0
 40
1.0
 40
1.0
 40
1.0
 10
6.7202472712
 20
18.0799921892
 30
0.0
 10
6.7250140957
 20
18.0786700161
 30
0.0
 10
6.734810343
 20
18.0768902164
 30
0.0
 10
6.7472466884
 20
18.0768870641
 30
0.0
 10
6.7570624825
 20
18.0782137147
 30
0.0
 10
6.7667060082
 20
18.080415942
 30
0.0
 10
6.7783217395
 20
18.0847760713
 30
0.0
 10
6.7910775556
 20
18.0924014869
 30
0.0
 10
6.8022577471
 20
18.102164536
 30
0.0
 10
6.811511411
 20
18.1137473899
 30
0.0
 10
6.8185538549
 20
18.1267813324
 30
0.0
 10
6.8231632188
 20
18.1408538972
 30
0.0
 10
6.8248557651
 20
18.15308727
 30
0.0
 10
6.8248924958
 20
18.1629269716
 30
0.0
 10
6.8242583903
 20
18.1702896139
 30
0.0
 10
6.8229686136
 20
18.1775700603
 30
0.0
 10
6.8203904657
 20
18.1870860157
 30
0.0
 10
6.8165329859
 20
18.1962242919
 30
0.0
 10
6.8115102071
 20
18.2047242708
 30
0.0
 10
6.8071769825
 20
18.2107468409
 30
0.0
 10
6.8023197767
 20
18.2163617773
 30
0.0
 10
6.7951980269
 20
18.223235539
 30
0.0
 10
6.7891731338
 20
18.2276519806
 30
0.0
 10
6.7849389972
 20
18.2302062668
 30
0.0
  0
SPLINE
  5
572
100
AcDbEntity
  8
0
100
AcDbSpline
 62
9
  6
CONTINUOUS
 70
0
 71
3
 72
36
 73
32
 74
0
 42
0.0000001
 43
0.0000001
 44
0.0000000001
 40
0.0
 40
0.0
 40
0.0
 40
0.0
 40
0.031364195
 40
0.0627549931
 40
0.0784449791
 40
0.0941286157
 40
0.1254815037
 40
0.1568278807
 40
0.1881450146
 40
0.2194279968
 40
0.2506903275
 40
0.2819348452
 40
0.3131509154
 40
0.375447047
 40
0.4376835781
 40
0.4688184384
 40
0.4999534741
 40
0.531090285
 40
0.5622297622
 40
0.5933778269
 40
0.6245403416
 40
0.6868473915
 40
0.7492475432
 40
0.7805182513
 40
0.8118156567
 40
0.8431411139
 40
0.8744890538
 40
0.9058503327
 40
0.9372328641
 40
0.9686360065
 40
1.0
 40
1.0
 40
1.0
 40
1.0
 10
6.322914756
 20
18.0903967081
 30
0.0
 10
6.3255531797
 20
18.091010712
 30
0.0
 10
6.330784046
 20
18.0924594924
 30
0.0
 10
6.337132776
 20
18.0948568229
 30
0.0
 10
6.3420477651
 20
18.0971490221
 30
0.0
 10
6.3468323061
 20
18.0996951702
 30
0.0
 10
6.3525572486
 20
18.1033317969
 30
0.0
 10
6.3589625638
 20
18.1083423823
 30
0.0
 10
6.3648600838
 20
18.1139333777
 30
0.0
 10
6.3701856057
 20
18.12006314
 30
0.0
 10
6.3748714732
 20
18.1266872483
 30
0.0
 10
6.3788749046
 20
18.1337386739
 30
0.0
 10
6.3832456616
 20
18.143604296
 30
0.0
 10
6.3868446321
 20
18.1566592652
 30
0.0
 10
6.3878871669
 20
18.1701538049
 30
0.0
 10
6.3871255693
 20
18.1808955953
 30
0.0
 10
6.3857611481
 20
18.1888605946
 30
0.0
 10
6.3836257595
 20
18.1966540621
 30
0.0
 10
6.3807385489
 20
18.2042024797
 30
0.0
 10
6.3771314292
 20
18.2114377541
 30
0.0
 10
6.3714063854
 20
18.2205688439
 30
0.0
 10
6.3626100556
 20
18.2308814253
 30
0.0
 10
6.3519541209
 20
18.239275964
 30
0.0
 10
6.3425720019
 20
18.2446416834
 30
0.0
 10
6.3351591601
 20
18.2479634037
 30
0.0
 10
6.3274536361
 20
18.250552485
 30
0.0
 10
6.3195271917
 20
18.2523814501
 30
0.0
 10
6.311453356
 20
18.2534210295
 30
0.0
 10
6.303310235
 20
18.2536289156
 30
0.0
 10
6.2951887793
 20
18.2530284889
 30
0.0
 10
6.2898337099
 20
18.2521310414
 30
0.0
 10
6.2871843847
 20
18.2515660083
 30
0.0
  0
SPLINE
  5
573
100
AcDbEntity
  8
0
100
AcDbSpline
 62
9
  6
CONTINUOUS
 70
0
 71
3
 72
37
 73
33
 74
0
 42
0.0000001
 43
0.0000001
 44
0.0000000001
 40
0.0
 40
0.0
 40
0.0
 40
0.0
 40
0.0313621511
 40
0.0627609985
 40
0.0784585572
 40
0.0941485781
 40
0.1255057552
 40
0.1568498284
 40
0.1881714254
 40
0.2194663903
 40
0.2507376533
 40
0.3131410322
 40
0.3754525875
 40
0.4066199351
 40
0.4377729879
 40
0.4689147444
 40
0.5000513858
 40
0.5311877864
 40
0.5623259747
 40
0.6245596193
 40
0.686853228
 40
0.7180683131
 40
0.7493104195
 40
0.7805729509
 40
0.8118573602
 40
0.8431735395
 40
0.8745205552
 40
0.9058751651
 40
0.9215582984
 40
0.9372460253
 40
0.96863404
 40
1.0
 40
1.0
 40
1.0
 40
1.0
 10
5.5186939355
 20
17.3829455645
 30
0.0
 10
5.5184537682
 20
17.3802474731
 30
0.0
 10
5.5182123801
 20
17.3748237103
 30
0.0
 10
5.5185419175
 20
17.3680442575
 30
0.0
 10
5.5192070541
 20
17.3626601632
 30
0.0
 10
5.5201475531
 20
17.3573210192
 30
0.0
 10
5.5218284877
 20
17.3507496051
 30
0.0
 10
5.5246107118
 20
17.3431068665
 30
0.0
 10
5.5281178304
 20
17.3357744306
 30
0.0
 10
5.532316348
 20
17.3288210597
 30
0.0
 10
5.5387846777
 20
17.3201620711
 30
0.0
 10
5.5484125614
 20
17.3106046213
 30
0.0
 10
5.5597220646
 20
17.3031309147
 30
0.0
 10
5.569483443
 20
17.2985599337
 30
0.0
 10
5.5771048429
 20
17.2958595148
 30
0.0
 10
5.5849495851
 20
17.2939135023
 30
0.0
 10
5.5929462466
 20
17.2927480228
 30
0.0
 10
5.6010186992
 20
17.2923687859
 30
0.0
 10
5.6117730527
 20
17.2929192429
 30
0.0
 10
5.6250441422
 20
17.2955800903
 30
0.0
 10
5.63755974
 20
17.3007543564
 30
0.0
 10
5.6468138621
 20
17.3063022602
 30
0.0
 10
5.6533227831
 20
17.3111373112
 30
0.0
 10
5.6593289414
 20
17.3165922605
 30
0.0
 10
5.6647735696
 20
17.3226163779
 30
0.0
 10
5.6696130454
 20
17.3291452772
 30
0.0
 10
5.6738035614
 20
17.3361154379
 30
0.0
 10
5.6767054331
 20
17.3422461018
 30
0.0
 10
5.6786380723
 20
17.3473096005
 30
0.0
 10
5.6803018525
 20
17.3524708154
 30
0.0
 10
5.681898842
 20
17.3590657172
 30
0.0
 10
5.6827128525
 20
17.3644310869
 30
0.0
 10
5.6830163415
 20
17.3671231222
 30
0.0
  0
SPLINE
  5
574
100
AcDbEntity
  8
0
100
AcDbSpline
 62
9
  6
CONTINUOUS
 70
0
 71
3
 72
39
 73
35
 74
0
 42
0.0000001
 43
0.0000001
 44
0.0000000001
 40
0.0
 40
0.0
 40
0.0
 40
0.0
 40
0.031373774
 40
0.0627616865
 40
0.0784402509
 40
0.0941111999
 40
0.1254525315
 40
0.1568117861
 40
0.1881415082
 40
0.219414196
 40
0.2506507624
 40
0.281886558
 40
0.3131195638
 40
0.3754283533
 40
0.4065814703
 40
0.4377295962
 40
0.4688742915
 40
0.5000137388
 40
0.5311515627
 40
0.5622947566
 40
0.5934505179
 40
0.6246156477
 40
0.6557867489
 40
0.6869760424
 40
0.7181996659
 40
0.7494497413
 40
0.7807050763
 40
0.8119814043
 40
0.8433042929
 40
0.8589792192
 40
0.8746514176
 40
0.905983474
 40
0.9373537679
 40
1.0
 40
1.0
 40
1.0
 40
1.0
 10
5.6830163415
 20
17.3671231222
 30
0.0
 10
5.6832106124
 20
17.3698263568
 30
0.0
 10
5.6834213751
 20
17.3752491677
 30
0.0
 10
5.6831309582
 20
17.3820290017
 30
0.0
 10
5.6824978044
 20
17.3874138233
 30
0.0
 10
5.6815717615
 20
17.3927520172
 30
0.0
 10
5.6798758413
 20
17.3993200702
 30
0.0
 10
5.6770718826
 20
17.406955988
 30
0.0
 10
5.6735799106
 20
17.4142961658
 30
0.0
 10
5.6694063739
 20
17.4212611428
 30
0.0
 10
5.6645477637
 20
17.4277575237
 30
0.0
 10
5.6590571412
 20
17.4337246752
 30
0.0
 10
5.6510194141
 20
17.4409238569
 30
0.0
 10
5.6419924846
 20
17.4469484226
 30
0.0
 10
5.6322370559
 20
17.4515317814
 30
0.0
 10
5.6246137424
 20
17.4542280571
 30
0.0
 10
5.6167656889
 20
17.4561658755
 30
0.0
 10
5.6087667022
 20
17.4573285229
 30
0.0
 10
5.6006926709
 20
17.4577079913
 30
0.0
 10
5.5926187864
 20
17.4572921631
 30
0.0
 10
5.5846225313
 20
17.4560864866
 30
0.0
 10
5.5767784274
 20
17.4541113228
 30
0.0
 10
5.56916071
 20
17.4513820039
 30
0.0
 10
5.5618385118
 20
17.4479259565
 30
0.0
 10
5.5548796917
 20
17.4437729462
 30
0.0
 10
5.5483573659
 20
17.4389529689
 30
0.0
 10
5.5423528331
 20
17.4334923942
 30
0.0
 10
5.5369526891
 20
17.4274262525
 30
0.0
 10
5.5329618601
 20
17.4219549701
 30
0.0
 10
5.5300734177
 20
17.4173743821
 30
0.0
 10
5.5273878017
 20
17.4126714478
 30
0.0
 10
5.5244328679
 20
17.4065659451
 30
0.0
 10
5.5206716837
 20
17.3964054228
 30
0.0
 10
5.5190375415
 20
17.3883463057
 30
0.0
 10
5.5186939355
 20
17.3829455645
 30
0.0
  0
SPLINE
  5
575
100
AcDbEntity
  8
0
100
AcDbSpline
 62
9
  6
CONTINUOUS
 70
0
 71
3
 72
36
 73
32
 74
0
 42
0.0000001
 43
0.0000001
 44
0.0000000001
 40
0.0
 40
0.0
 40
0.0
 40
0.0
 40
0.0313655695
 40
0.0627548206
 40
0.0784429127
 40
0.0941250723
 40
0.1254774107
 40
0.1568251651
 40
0.188142243
 40
0.2194238252
 40
0.250685093
 40
0.2819293155
 40
0.3131456264
 40
0.3754436119
 40
0.4376824363
 40
0.4688188061
 40
0.4999548118
 40
0.5310918672
 40
0.5622315634
 40
0.5933800611
 40
0.624542605
 40
0.686848398
 40
0.7492464558
 40
0.7805155501
 40
0.8118105777
 40
0.8431334798
 40
0.8744798139
 40
0.9058400675
 40
0.9372197099
 40
0.9686233311
 40
1.0
 40
1.0
 40
1.0
 40
1.0
 10
5.7263533574
 20
17.5626037682
 30
0.0
 10
5.7272214067
 20
17.5651556988
 30
0.0
 10
5.7287548832
 20
17.5703336118
 30
0.0
 10
5.7300890192
 20
17.5769525048
 30
0.0
 10
5.7307562029
 20
17.5823068359
 30
0.0
 10
5.7311397319
 20
17.5876856535
 30
0.0
 10
5.7311006794
 20
17.5944339549
 30
0.0
 10
5.7302659021
 20
17.6024823865
 30
0.0
 10
5.7286792356
 20
17.6104109412
 30
0.0
 10
5.7263401886
 20
17.6181441234
 30
0.0
 10
5.7232491226
 20
17.6256020238
 30
0.0
 10
5.719439617
 20
17.632713955
 30
0.0
 10
5.7134608583
 20
17.6416318377
 30
0.0
 10
5.7043974739
 20
17.6516018753
 30
0.0
 10
5.6936108751
 20
17.6596645042
 30
0.0
 10
5.6841809742
 20
17.6647530071
 30
0.0
 10
5.6767642216
 20
17.667858802
 30
0.0
 10
5.669081072
 20
17.6702289572
 30
0.0
 10
5.6612026626
 20
17.6718397576
 30
0.0
 10
5.6532027759
 20
17.6726825709
 30
0.0
 10
5.6424797264
 20
17.6727681781
 30
0.0
 10
5.6291210908
 20
17.6709216718
 30
0.0
 10
5.6163696681
 20
17.6665001776
 30
0.0
 10
5.6068348134
 20
17.6615278093
 30
0.0
 10
5.6000684467
 20
17.6571082096
 30
0.0
 10
5.5937558975
 20
17.6520524228
 30
0.0
 10
5.5879573424
 20
17.6464060102
 30
0.0
 10
5.5827353251
 20
17.6402152495
 30
0.0
 10
5.5781639595
 20
17.6335227334
 30
0.0
 10
5.574283496
 20
17.6264081114
 30
0.0
 10
5.5721461445
 20
17.6214449179
 30
0.0
 10
5.5711902974
 20
17.6189235376
 30
0.0
  0
SPLINE
  5
576
100
AcDbEntity
  8
0
100
AcDbSpline
 62
9
  6
CONTINUOUS
 70
0
 71
3
 72
32
 73
28
 74
0
 42
0.0000001
 43
0.0000001
 44
0.0000000001
 40
0.0
 40
0.0
 40
0.0
 40
0.0
 40
0.0626941646
 40
0.1253795317
 40
0.1879724128
 40
0.2504857564
 40
0.31290169
 40
0.3752291227
 40
0.4064033108
 40
0.4375650028
 40
0.4687173776
 40
0.499864641
 40
0.5310122716
 40
0.5621640345
 40
0.5933256813
 40
0.6244991561
 40
0.6868168526
 40
0.7180419105
 40
0.7492903401
 40
0.7805608215
 40
0.8118543933
 40
0.8431716518
 40
0.8745105291
 40
0.9058677298
 40
0.9372445976
 40
0.9686385675
 40
1.0
 40
1.0
 40
1.0
 40
1.0
 10
6.5265411218
 20
18.2746134409
 30
0.0
 10
6.5211289206
 20
18.2747495854
 30
0.0
 10
6.5102483792
 20
18.2739617211
 30
0.0
 10
6.4945033854
 20
18.2696179759
 30
0.0
 10
6.4799239808
 20
18.262278158
 30
0.0
 10
6.4670769648
 20
18.25224934
 30
0.0
 10
6.4564498522
 20
18.2399262196
 30
0.0
 10
6.4497694448
 20
18.2281280086
 30
0.0
 10
6.445887017
 20
18.218072081
 30
0.0
 10
6.4437264139
 20
18.2102794948
 30
0.0
 10
6.4423351752
 20
18.2023165818
 30
0.0
 10
6.4417319437
 20
18.1942565784
 30
0.0
 10
6.4419171306
 20
18.1861763233
 30
0.0
 10
6.4428911376
 20
18.1781516715
 30
0.0
 10
6.4446481333
 20
18.1702581678
 30
0.0
 10
6.448000468
 20
18.1600155968
 30
0.0
 10
6.4528521915
 20
18.1503081591
 30
0.0
 10
6.4590351054
 20
18.1414662295
 30
0.0
 10
6.4643108759
 20
18.1353081269
 30
0.0
 10
6.470166953
 20
18.1296918238
 30
0.0
 10
6.4765529367
 20
18.1246761572
 30
0.0
 10
6.4834031485
 20
18.1203052461
 30
0.0
 10
6.4906535217
 20
18.1166237362
 30
0.0
 10
6.4982354984
 20
18.1136702933
 30
0.0
 10
6.5060800235
 20
18.1114885093
 30
0.0
 10
6.5141012957
 20
18.1100978479
 30
0.0
 10
6.5195130014
 20
18.1096755566
 30
0.0
 10
6.5222197685
 20
18.109587598
 30
0.0
  0
SPLINE
  5
577
100
AcDbEntity
  8
0
100
AcDbSpline
 62
9
  6
CONTINUOUS
 70
0
 71
3
 72
43
 73
39
 74
0
 42
0.0000001
 43
0.0000001
 44
0.0000000001
 40
0.0
 40
0.0
 40
0.0
 40
0.0
 40
0.0626675826
 40
0.094057024
 40
0.1254250994
 40
0.1567524464
 40
0.1880433808
 40
0.2193372132
 40
0.2506406192
 40
0.2819102611
 40
0.313103692
 40
0.3286833532
 40
0.3442613094
 40
0.3754302069
 40
0.3910295513
 40
0.406626899
 40
0.4377804152
 40
0.4688834132
 40
0.4999822994
 40
0.531119716
 40
0.5622898378
 40
0.5934553933
 40
0.6245912686
 40
0.6557185355
 40
0.6869028678
 40
0.702527078
 40
0.7181640356
 40
0.7494154029
 40
0.7806095808
 40
0.8118385752
 40
0.8431754969
 40
0.8588651682
 40
0.8745476234
 40
0.9058763163
 40
0.9215430881
 40
0.9372265215
 40
0.9686278999
 40
1.0
 40
1.0
 40
1.0
 40
1.0
 10
6.7884047717
 20
16.5189287494
 30
0.0
 10
6.7934687734
 20
16.5207741653
 30
0.0
 10
6.8013453284
 20
16.522870187
 30
0.0
 10
6.812072248
 20
16.524123178
 30
0.0
 10
6.8201771668
 20
16.5242620694
 30
0.0
 10
6.828246553
 20
16.5235910151
 30
0.0
 10
6.8361973884
 20
16.5220908844
 30
0.0
 10
6.8439581084
 20
16.5198166915
 30
0.0
 10
6.851473446
 20
16.5168382758
 30
0.0
 10
6.8586834588
 20
16.513200548
 30
0.0
 10
6.8643604365
 20
16.5095946563
 30
0.0
 10
6.8686415261
 20
16.5063612405
 30
0.0
 10
6.8727398229
 20
16.5029027701
 30
0.0
 10
6.876568978
 20
16.4991347644
 30
0.0
 10
6.8801232081
 20
16.4951158698
 30
0.0
 10
6.8834982106
 20
16.4909467783
 30
0.0
 10
6.8873617228
 20
16.4854656452
 30
0.0
 10
6.8913437714
 20
16.4784779253
 30
0.0
 10
6.894573572
 20
16.4711126505
 30
0.0
 10
6.8970484691
 20
16.4634565543
 30
0.0
 10
6.8987853068
 20
16.4555951034
 30
0.0
 10
6.8997771917
 20
16.4476052433
 30
0.0
 10
6.899979393
 20
16.4395581339
 30
0.0
 10
6.8993375394
 20
16.4315326384
 30
0.0
 10
6.8981480087
 20
16.4249255489
 30
0.0
 10
6.8968475572
 20
16.4197133164
 30
0.0
 10
6.8953290982
 20
16.4145544846
 30
0.0
 10
6.8930185187
 20
16.4082379894
 30
0.0
 10
6.889471761
 20
16.4009840182
 30
0.0
 10
6.8850737657
 20
16.3942041264
 30
0.0
 10
6.8808560282
 20
16.3889471314
 30
0.0
 10
6.877227551
 20
16.3849552601
 30
0.0
 10
6.8734408975
 20
16.3811141937
 30
0.0
 10
6.8694049294
 20
16.3775266063
 30
0.0
 10
6.8651201003
 20
16.3742521021
 30
0.0
 10
6.8606633826
 20
16.3712041025
 30
0.0
 10
6.8547956509
 20
16.3678458742
 30
0.0
 10
6.8498445914
 20
16.3656643761
 30
0.0
 10
6.8473212887
 20
16.3647087974
 30
0.0
  0
SPLINE
  5
578
100
AcDbEntity
  8
0
100
AcDbSpline
 62
9
  6
CONTINUOUS
 70
0
 71
3
 72
35
 73
31
 74
0
 42
0.0000001
 43
0.0000001
 44
0.0000000001
 40
0.0
 40
0.0
 40
0.0
 40
0.0
 40
0.0313715215
 40
0.0627741951
 40
0.0941440407
 40
0.1254930531
 40
0.1568342876
 40
0.1881521836
 40
0.2194379883
 40
0.2507046016
 40
0.281952032
 40
0.3131682606
 40
0.3443599048
 40
0.3755398975
 40
0.437778757
 40
0.468912254
 40
0.5000469533
 40
0.5311828793
 40
0.5623207277
 40
0.6245670383
 40
0.6868758641
 40
0.7492743006
 40
0.7805481885
 40
0.8118418583
 40
0.8431583766
 40
0.8744977104
 40
0.9058528807
 40
0.937228938
 40
0.9686285693
 40
1.0
 40
1.0
 40
1.0
 40
1.0
 10
7.1169703278
 20
16.7451816933
 30
0.0
 10
7.1187724123
 20
16.747166766
 30
0.0
 10
7.1225830614
 20
16.7509581718
 30
0.0
 10
7.1288375848
 20
16.7560401217
 30
0.0
 10
7.1355772512
 20
16.7604564181
 30
0.0
 10
7.1427140694
 20
16.7641822885
 30
0.0
 10
7.1501640521
 20
16.7672199882
 30
0.0
 10
7.1578572502
 20
16.7695568129
 30
0.0
 10
7.1657328613
 20
16.7711495522
 30
0.0
 10
7.1737218372
 20
16.771954485
 30
0.0
 10
7.1817452517
 20
16.7719672112
 30
0.0
 10
7.1897239338
 20
16.7711853066
 30
0.0
 10
7.1975812018
 20
16.769619911
 30
0.0
 10
7.2077894195
 20
16.7665460924
 30
0.0
 10
7.2175192109
 20
16.7620413464
 30
0.0
 10
7.2264338659
 20
16.7562075469
 30
0.0
 10
7.2326633716
 20
16.7511950887
 30
0.0
 10
7.2383774688
 20
16.7456020938
 30
0.0
 10
7.2452310171
 20
16.7374431089
 30
0.0
 10
7.2522837209
 20
16.7260561398
 30
0.0
 10
7.2579933822
 20
16.7110297873
 30
0.0
 10
7.2601972935
 20
16.697787027
 30
0.0
 10
7.2604074685
 20
16.687096087
 30
0.0
 10
7.2597906272
 20
16.6790833143
 30
0.0
 10
7.2584099588
 20
16.67116162
 30
0.0
 10
7.2562755678
 20
16.663403102
 30
0.0
 10
7.2533970099
 20
16.6558828096
 30
0.0
 10
7.2497772792
 20
16.6486830501
 30
0.0
 10
7.2454545471
 20
16.641882411
 30
0.0
 10
7.2421562284
 20
16.6376402189
 30
0.0
 10
7.2404150458
 20
16.6356015272
 30
0.0
  0
SPLINE
  5
579
100
AcDbEntity
  8
0
100
AcDbSpline
 62
9
  6
CONTINUOUS
 70
0
 71
3
 72
31
 73
27
 74
0
 42
0.0000001
 43
0.0000001
 44
0.0000000001
 40
0.0
 40
0.0
 40
0.0
 40
0.0
 40
0.0313793002
 40
0.0627909244
 40
0.0941799255
 40
0.1255527836
 40
0.1569223972
 40
0.1882744875
 40
0.2195951669
 40
0.2508881519
 40
0.2821658598
 40
0.3134252593
 40
0.3446575593
 40
0.375867799
 40
0.4070654079
 40
0.4382505725
 40
0.5005128467
 40
0.5627570498
 40
0.6250107422
 40
0.6873006348
 40
0.7496566894
 40
0.8120982515
 40
0.8433806193
 40
0.8746854906
 40
0.9373096942
 40
1.0
 40
1.0
 40
1.0
 40
1.0
 10
6.5222197685
 20
18.109587598
 30
0.0
 10
6.5246933872
 20
18.1095473032
 30
0.0
 10
6.5296486878
 20
18.1096568391
 30
0.0
 10
6.5370420899
 20
18.1104332029
 30
0.0
 10
6.5443364298
 20
18.1118769634
 30
0.0
 10
6.5514559847
 20
18.1140100321
 30
0.0
 10
6.5583496121
 20
18.1167766267
 30
0.0
 10
6.5649713613
 20
18.1201327125
 30
0.0
 10
6.5712702407
 20
18.1240504348
 30
0.0
 10
6.5771903565
 20
18.1285111899
 30
0.0
 10
6.582675354
 20
18.1334901701
 30
0.0
 10
6.5876850987
 20
18.138940399
 30
0.0
 10
6.5921764237
 20
18.1448186474
 30
0.0
 10
6.5961161753
 20
18.1510736366
 30
0.0
 10
6.5994852196
 20
18.1576497657
 30
0.0
 10
6.6031861879
 20
18.1667641495
 30
0.0
 10
6.6062807144
 20
18.178716727
 30
0.0
 10
6.6073428966
 20
18.1934812149
 30
0.0
 10
6.6057689091
 20
18.2082016041
 30
0.0
 10
6.6016123085
 20
18.2224199106
 30
0.0
 10
6.5949949903
 20
18.235688793
 30
0.0
 10
6.5875762888
 20
18.2455969051
 30
0.0
 10
6.5806539267
 20
18.252630543
 30
0.0
 10
6.573114771
 20
18.2590217405
 30
0.0
 10
6.5626634936
 20
18.265721684
 30
0.0
 10
6.5534727025
 20
18.2695160693
 30
0.0
 10
6.5487486233
 20
18.2709691605
 30
0.0
  0
SPLINE
  5
57A
100
AcDbEntity
  8
0
100
AcDbSpline
 62
9
  6
CONTINUOUS
 70
0
 71
3
 72
9
 73
5
 74
0
 42
0.0000001
 43
0.0000001
 44
0.0000000001
 40
0.0
 40
0.0
 40
0.0
 40
0.0
 40
0.5001328701
 40
1.0
 40
1.0
 40
1.0
 40
1.0
 10
6.5487486233
 20
18.2709691605
 30
0.0
 10
6.5451548775
 20
18.2720745696
 30
0.0
 10
6.5378024007
 20
18.273768778
 30
0.0
 10
6.5302968307
 20
18.2744847157
 30
0.0
 10
6.5265411218
 20
18.2746134409
 30
0.0
  0
SPLINE
  5
57B
100
AcDbEntity
  8
0
100
AcDbSpline
 62
9
  6
CONTINUOUS
 70
0
 71
3
 72
36
 73
32
 74
0
 42
0.0000001
 43
0.0000001
 44
0.0000000001
 40
0.0
 40
0.0
 40
0.0
 40
0.0
 40
0.0313579316
 40
0.0627574775
 40
0.094131458
 40
0.1254823744
 40
0.1568262831
 40
0.1881482278
 40
0.2194369076
 40
0.2507026231
 40
0.2819509806
 40
0.313169412
 40
0.3754625089
 40
0.4066266063
 40
0.4377715538
 40
0.4689030665
 40
0.5000358746
 40
0.5311712442
 40
0.5623070051
 40
0.6245424327
 40
0.6868422189
 40
0.7180585355
 40
0.7493048503
 40
0.7805751484
 40
0.8118649179
 40
0.8431769971
 40
0.8745121101
 40
0.9058636953
 40
0.9372357066
 40
0.9686314888
 40
1.0
 40
1.0
 40
1.0
 40
1.0
 10
6.9660081277
 20
16.6113832046
 30
0.0
 10
6.9682272699
 20
16.6129139153
 30
0.0
 10
6.9728202074
 20
16.6157638187
 30
0.0
 10
6.9800925397
 20
16.6193432385
 30
0.0
 10
6.9876932817
 20
16.6221615913
 30
0.0
 10
6.9955347485
 20
16.6241930604
 30
0.0
 10
7.0035292009
 20
16.6254620204
 30
0.0
 10
7.0116015485
 20
16.6259822013
 30
0.0
 10
7.0196810752
 20
16.6257325348
 30
0.0
 10
7.0276907046
 20
16.6246881192
 30
0.0
 10
7.0355517233
 20
16.6228535204
 30
0.0
 10
7.0457168945
 20
16.6193877606
 30
0.0
 10
7.0553037185
 20
16.6144153909
 30
0.0
 10
7.0640271596
 20
16.6081787548
 30
0.0
 10
7.0700981931
 20
16.6028978138
 30
0.0
 10
7.0756231992
 20
16.5970523345
 30
0.0
 10
7.0805423267
 20
16.5906895917
 30
0.0
 10
7.0848179288
 20
16.5838768289
 30
0.0
 10
7.0896001671
 20
16.574284506
 30
0.0
 10
7.0938038099
 20
16.5614863855
 30
0.0
 10
7.0954818654
 20
16.5481099134
 30
0.0
 10
7.0952200524
 20
16.5373720538
 30
0.0
 10
7.0942297445
 20
16.5293613671
 30
0.0
 10
7.0924633308
 20
16.5214796858
 30
0.0
 10
7.089939105
 20
16.5138010811
 30
0.0
 10
7.0866862338
 20
16.5063957352
 30
0.0
 10
7.0827321369
 20
16.4993335602
 30
0.0
 10
7.0781051447
 20
16.4926858025
 30
0.0
 10
7.0728291126
 20
16.4865323156
 30
0.0
 10
7.0669594179
 20
16.4809425487
 30
0.0
 10
7.0627085995
 20
16.4776040458
 30
0.0
 10
7.0605130675
 20
16.476038092
 30
0.0
  0
SPLINE
  5
57C
100
AcDbEntity
  8
0
100
AcDbSpline
 62
9
  6
CONTINUOUS
 70
0
 71
3
 72
36
 73
32
 74
0
 42
0.0000001
 43
0.0000001
 44
0.0000000001
 40
0.0
 40
0.0
 40
0.0
 40
0.0
 40
0.0313782819
 40
0.0627927265
 40
0.0941901834
 40
0.125560703
 40
0.1569177232
 40
0.1882599559
 40
0.2508140147
 40
0.313283597
 40
0.3445174804
 40
0.3757263275
 40
0.4380343523
 40
0.5002928677
 40
0.5314325008
 40
0.5625718837
 40
0.5937259228
 40
0.624899111
 40
0.6560745672
 40
0.687237066
 40
0.7184003443
 40
0.7496041882
 40
0.7808583667
 40
0.8121298498
 40
0.8433775211
 40
0.8589998599
 40
0.874628676
 40
0.9059250559
 40
0.9372835291
 40
0.9686525698
 40
1.0
 40
1.0
 40
1.0
 40
1.0
 10
5.9011261626
 20
16.5049451615
 30
0.0
 10
5.9030955316
 20
16.5034819481
 30
0.0
 10
5.9071662312
 20
16.5007238672
 30
0.0
 10
5.9136106919
 20
16.4971398641
 30
0.0
 10
5.9203546889
 20
16.4941558577
 30
0.0
 10
5.9273397801
 20
16.4918066263
 30
0.0
 10
5.9345020447
 20
16.4900895342
 30
0.0
 10
5.9441986546
 20
16.4886455116
 30
0.0
 10
5.9564910739
 20
16.4884313126
 30
0.0
 10
5.9686171852
 20
16.4904163252
 30
0.0
 10
5.9779705087
 20
16.4932669946
 30
0.0
 10
5.9870199494
 20
16.4969378092
 30
0.0
 10
5.9976593518
 20
16.5030040136
 30
0.0
 10
6.0070631551
 20
16.5108431091
 30
0.0
 10
6.0136535445
 20
16.5180263166
 30
0.0
 10
6.0180994429
 20
16.5238357286
 30
0.0
 10
6.0220222222
 20
16.5300124471
 30
0.0
 10
6.0253992717
 20
16.5365070106
 30
0.0
 10
6.0281964962
 20
16.5432726394
 30
0.0
 10
6.0303729179
 20
16.5502630371
 30
0.0
 10
6.03188061
 20
16.5574298205
 30
0.0
 10
6.0327378948
 20
16.5647089529
 30
0.0
 10
6.0329796563
 20
16.5720417122
 30
0.0
 10
6.0326305994
 20
16.5793736809
 30
0.0
 10
6.031800405
 20
16.5854366353
 30
0.0
 10
6.03078751
 20
16.5902190956
 30
0.0
 10
6.0295346147
 20
16.5949482948
 30
0.0
 10
6.0275447571
 20
16.6007466136
 30
0.0
 10
6.0245648599
 20
16.6074758731
 30
0.0
 10
6.0210620613
 20
16.6139526534
 30
0.0
 10
6.0183601428
 20
16.6180545661
 30
0.0
 10
6.0169169228
 20
16.6200356498
 30
0.0
  0
SPLINE
  5
57D
100
AcDbEntity
  8
0
100
AcDbSpline
 62
9
  6
CONTINUOUS
 70
0
 71
3
 72
9
 73
5
 74
0
 42
0.0000001
 43
0.0000001
 44
0.0000000001
 40
0.0
 40
0.0
 40
0.0
 40
0.0
 40
0.2500172068
 40
1.0
 40
1.0
 40
1.0
 40
1.0
 10
6.0146281714
 20
16.6230209902
 30
0.0
 10
6.0136845419
 20
16.6241904994
 30
0.0
 10
6.0097694851
 20
16.6287540819
 30
0.0
 10
6.0053440337
 20
16.6328697055
 30
0.0
 10
6.0018375264
 20
16.6357024378
 30
0.0
  0
SPLINE
  5
57E
100
AcDbEntity
  8
0
100
AcDbSpline
 62
9
  6
CONTINUOUS
 70
0
 71
3
 72
10
 73
6
 74
0
 42
0.0000001
 43
0.0000001
 44
0.0000000001
 40
0.0
 40
0.0
 40
0.0
 40
0.0
 40
0.4998248733
 40
0.7500095993
 40
1.0
 40
1.0
 40
1.0
 40
1.0
 10
6.1745758248
 20
16.5344058628
 30
0.0
 10
6.1778988657
 20
16.5328904374
 30
0.0
 10
6.182745189
 20
16.5302863675
 30
0.0
 10
6.1888045378
 20
16.5261958724
 30
0.0
 10
6.191687512
 20
16.5239433432
 30
0.0
 10
6.1930872376
 20
16.5227696193
 30
0.0
  0
SPLINE
  5
57F
100
AcDbEntity
  8
0
100
AcDbSpline
 62
9
  6
CONTINUOUS
 70
0
 71
3
 72
30
 73
26
 74
0
 42
0.0000001
 43
0.0000001
 44
0.0000000001
 40
0.0
 40
0.0
 40
0.0
 40
0.0
 40
0.0626832658
 40
0.0940379981
 40
0.1253646884
 40
0.1566631932
 40
0.1879457759
 40
0.2503810221
 40
0.3127281747
 40
0.3439149414
 40
0.3750851398
 40
0.4062400823
 40
0.4373922556
 40
0.4996456408
 40
0.5619182145
 40
0.6242485304
 40
0.6554670423
 40
0.6867051375
 40
0.749194626
 40
0.8117657361
 40
0.8744136835
 40
0.9057933477
 40
0.9371946187
 40
0.9686123898
 40
1.0
 40
1.0
 40
1.0
 40
1.0
 10
6.1930872376
 20
16.5227696193
 30
0.0
 10
6.1968396596
 20
16.5196230684
 30
0.0
 10
6.2020477619
 20
16.5143700183
 30
0.0
 10
6.2080030428
 20
16.5065853767
 30
0.0
 10
6.2119532781
 20
16.5003846003
 30
0.0
 10
6.2153385589
 20
16.4938644569
 30
0.0
 10
6.2190393336
 20
16.4848138755
 30
0.0
 10
6.222109302
 20
16.4729404188
 30
0.0
 10
6.2229938164
 20
16.4607198817
 30
0.0
 10
6.2224373174
 20
16.450983567
 30
0.0
 10
6.2213889084
 20
16.4437439029
 30
0.0
 10
6.2197065157
 20
16.4366270769
 30
0.0
 10
6.2166193621
 20
16.4273871021
 30
0.0
 10
6.2112302665
 20
16.4164056514
 30
0.0
 10
6.2025498613
 20
16.4045793371
 30
0.0
 10
6.1936924263
 20
16.3961282584
 30
0.0
 10
6.1858003923
 20
16.3903856697
 30
0.0
 10
6.1774129802
 20
16.3853698796
 30
0.0
 10
6.1661253759
 20
16.3805313142
 30
0.0
 10
6.1517717559
 20
16.3771932724
 30
0.0
 10
6.1394840342
 20
16.3765481762
 30
0.0
 10
6.1297066742
 20
16.3773508215
 30
0.0
 10
6.1224477662
 20
16.3786266855
 30
0.0
 10
6.1153349726
 20
16.3805521635
 30
0.0
 10
6.1107195658
 20
16.3822374848
 30
0.0
 10
6.1084532116
 20
16.3831737564
 30
0.0
  0
SPLINE
  5
580
100
AcDbEntity
  8
0
100
AcDbSpline
 62
9
  6
CONTINUOUS
 70
0
 71
3
 72
31
 73
27
 74
0
 42
0.0000001
 43
0.0000001
 44
0.0000000001
 40
0.0
 40
0.0
 40
0.0
 40
0.0
 40
0.0313815306
 40
0.0627909276
 40
0.0941731282
 40
0.1255431158
 40
0.1569139303
 40
0.1882657998
 40
0.2195829758
 40
0.2508719538
 40
0.2821470002
 40
0.3134039767
 40
0.3446340738
 40
0.375843618
 40
0.4381641044
 40
0.4693326682
 40
0.5004892876
 40
0.5627363103
 40
0.6249915055
 40
0.6872862241
 40
0.749645119
 40
0.8120901973
 40
0.8433741677
 40
0.8746807498
 40
0.9373075006
 40
1.0
 40
1.0
 40
1.0
 40
1.0
 10
7.3214155095
 20
17.3242201302
 30
0.0
 10
7.3215560084
 20
17.3217502603
 30
0.0
 10
7.3220166663
 20
17.3168162485
 30
0.0
 10
7.323298558
 20
17.3094951137
 30
0.0
 10
7.3252386321
 20
17.3023183958
 30
0.0
 10
7.3278628283
 20
17.2953661685
 30
0.0
 10
7.3311052219
 20
17.2886842073
 30
0.0
 10
7.3349143343
 20
17.2823135085
 30
0.0
 10
7.3392595596
 20
17.2763032821
 30
0.0
 10
7.344120784
 20
17.2707093918
 30
0.0
 10
7.3494691273
 20
17.2655860053
 30
0.0
 10
7.3552541734
 20
17.2609693354
 30
0.0
 10
7.3614310299
 20
17.2568995773
 30
0.0
 10
7.3701055304
 20
17.2522438331
 30
0.0
 10
7.379362293
 20
17.2487588963
 30
0.0
 10
7.388944775
 20
17.2465383588
 30
0.0
 10
7.3986833144
 20
17.2451856124
 30
0.0
 10
7.411026006
 20
17.2451531133
 30
0.0
 10
7.4255984108
 20
17.2477487525
 30
0.0
 10
7.4394926484
 20
17.2528840396
 30
0.0
 10
7.4522694936
 20
17.260406044
 30
0.0
 10
7.4616375572
 20
17.2684951426
 30
0.0
 10
7.468172394
 20
17.2758895312
 30
0.0
 10
7.4740238816
 20
17.2838541148
 30
0.0
 10
7.4799814491
 20
17.2947447894
 30
0.0
 10
7.4831275197
 20
17.3041764854
 30
0.0
 10
7.4842489033
 20
17.3089897457
 30
0.0
  0
SPLINE
  5
581
100
AcDbEntity
  8
0
100
AcDbSpline
 62
9
  6
CONTINUOUS
 70
0
 71
3
 72
9
 73
5
 74
0
 42
0.0000001
 43
0.0000001
 44
0.0000000001
 40
0.0
 40
0.0
 40
0.0
 40
0.0
 40
0.500143992
 40
1.0
 40
1.0
 40
1.0
 40
1.0
 10
7.4842489033
 20
17.3089897457
 30
0.0
 10
7.4851029682
 20
17.3126556066
 30
0.0
 10
7.4862839734
 20
17.3201159658
 30
0.0
 10
7.4864755346
 20
17.3276614671
 30
0.0
 10
7.4863407998
 20
17.3314209216
 30
0.0
  0
SPLINE
  5
582
100
AcDbEntity
  8
0
100
AcDbSpline
 62
9
  6
CONTINUOUS
 70
0
 71
3
 72
36
 73
32
 74
0
 42
0.0000001
 43
0.0000001
 44
0.0000000001
 40
0.0
 40
0.0
 40
0.0
 40
0.0
 40
0.0313697296
 40
0.0627270504
 40
0.0940764722
 40
0.125402044
 40
0.1566965305
 40
0.1879707932
 40
0.2192295693
 40
0.2504619316
 40
0.2816650278
 40
0.3128540443
 40
0.3440327257
 40
0.3751952151
 40
0.4063409856
 40
0.4374811027
 40
0.4686242926
 40
0.4997686403
 40
0.5620077806
 40
0.624306511
 40
0.6555077264
 40
0.6867276429
 40
0.7179751524
 40
0.7492473215
 40
0.8117848241
 40
0.8431160035
 40
0.8744668594
 40
0.9058318077
 40
0.9372187296
 40
0.9686244942
 40
1.0
 40
1.0
 40
1.0
 40
1.0
 10
5.8681765993
 20
16.7602532979
 30
0.0
 10
5.869217101
 20
16.7579902554
 30
0.0
 10
5.8710825173
 20
16.7533628673
 30
0.0
 10
5.8732331445
 20
16.7461995925
 30
0.0
 10
5.8747484811
 20
16.7388791528
 30
0.0
 10
5.8756290475
 20
16.7314606597
 30
0.0
 10
5.8758511547
 20
16.7239985484
 30
0.0
 10
5.8753906469
 20
16.7165522212
 30
0.0
 10
5.8742481562
 20
16.7091847838
 30
0.0
 10
5.8724371194
 20
16.7019582641
 30
0.0
 10
5.8699672237
 20
16.6949356317
 30
0.0
 10
5.8668769741
 20
16.6881684361
 30
0.0
 10
5.8632045714
 20
16.6817026767
 30
0.0
 10
5.8589819993
 20
16.675586111
 30
0.0
 10
5.8542340026
 20
16.6698710818
 30
0.0
 10
5.8489859199
 20
16.6646135494
 30
0.0
 10
5.8432818377
 20
16.6598543559
 30
0.0
 10
5.8351408062
 20
16.6542229675
 30
0.0
 10
5.8240549709
 20
16.6485968455
 30
0.0
 10
5.8121455176
 20
16.6450184482
 30
0.0
 10
5.8023535464
 20
16.6434647566
 30
0.0
 10
5.7949213394
 20
16.64297728
 30
0.0
 10
5.7874701364
 20
16.6431724432
 30
0.0
 10
5.7775973191
 20
16.6443250212
 30
0.0
 10
5.7679114136
 20
16.6468105861
 30
0.0
 10
5.7586857567
 20
16.6505436695
 30
0.0
 10
5.7520317521
 20
16.6539563894
 30
0.0
 10
5.7457111103
 20
16.6579606624
 30
0.0
 10
5.7397893833
 20
16.6625426093
 30
0.0
 10
5.7343166025
 20
16.6676513789
 30
0.0
 10
5.730979805
 20
16.6713645187
 30
0.0
 10
5.7293952012
 20
16.6732868406
 30
0.0
  0
SPLINE
  5
583
100
AcDbEntity
  8
0
100
AcDbSpline
 62
9
  6
CONTINUOUS
 70
0
 71
3
 72
34
 73
30
 74
0
 42
0.0000001
 43
0.0000001
 44
0.0000000001
 40
0.0
 40
0.0
 40
0.0
 40
0.0
 40
0.0313825484
 40
0.0627741313
 40
0.0784633266
 40
0.0941480021
 40
0.1255055696
 40
0.1568536519
 40
0.1881696179
 40
0.2194526907
 40
0.250717546
 40
0.2819632851
 40
0.3131798128
 40
0.3754830597
 40
0.4377260296
 40
0.4999310175
 40
0.5621441967
 40
0.6243939519
 40
0.6867143366
 40
0.7179470997
 40
0.7492027328
 40
0.7804795201
 40
0.8117831319
 40
0.8431146123
 40
0.8744679172
 40
0.905834484
 40
0.9372229872
 40
0.9686314822
 40
1.0
 40
1.0
 40
1.0
 40
1.0
 10
6.7869293567
 20
16.518344914
 30
0.0
 10
6.7844329462
 20
16.5173334103
 30
0.0
 10
6.7795212136
 20
16.5151002946
 30
0.0
 10
6.773661748
 20
16.5117579452
 30
0.0
 10
6.7691983886
 20
16.50873736
 30
0.0
 10
6.7649011063
 20
16.5054899818
 30
0.0
 10
6.7598468238
 20
16.5010308246
 30
0.0
 10
6.7543303288
 20
16.4951248553
 30
0.0
 10
6.7493984731
 20
16.4887301222
 30
0.0
 10
6.7451097535
 20
16.4818948627
 30
0.0
 10
6.7415223185
 20
16.4746735571
 30
0.0
 10
6.738664212
 20
16.4671393122
 30
0.0
 10
6.7358693007
 20
16.456786697
 30
0.0
 10
6.7342987856
 20
16.4434198649
 30
0.0
 10
6.7354836519
 20
16.4273369442
 30
0.0
 10
6.7397889776
 20
16.4117968924
 30
0.0
 10
6.7470214924
 20
16.3973876606
 30
0.0
 10
6.7568923324
 20
16.3846313596
 30
0.0
 10
6.767031751
 20
16.3757710322
 30
0.0
 10
6.7760560132
 20
16.3699729482
 30
0.0
 10
6.7832296301
 20
16.3662955425
 30
0.0
 10
6.7907350468
 20
16.363339049
 30
0.0
 10
6.7984988156
 20
16.3611258829
 30
0.0
 10
6.8064459705
 20
16.3596695871
 30
0.0
 10
6.814502152
 20
16.3589870986
 30
0.0
 10
6.822592224
 20
16.3590971178
 30
0.0
 10
6.8306343265
 20
16.3600300625
 30
0.0
 10
6.8385432936
 20
16.3617503543
 30
0.0
 10
6.8436889514
 20
16.3633768575
 30
0.0
 10
6.8462178516
 20
16.3643006449
 30
0.0
  0
SPLINE
  5
584
100
AcDbEntity
  8
0
100
AcDbSpline
 62
9
  6
CONTINUOUS
 70
0
 71
3
 72
31
 73
27
 74
0
 42
0.0000001
 43
0.0000001
 44
0.0000000001
 40
0.0
 40
0.0
 40
0.0
 40
0.0
 40
0.0313784668
 40
0.062790836
 40
0.0941821693
 40
0.1255559881
 40
0.1569251255
 40
0.1882771629
 40
0.2195989435
 40
0.2508932835
 40
0.2821718804
 40
0.3134320629
 40
0.3446651055
 40
0.3758755512
 40
0.4070732718
 40
0.4382587242
 40
0.5005209758
 40
0.5627640396
 40
0.625017229
 40
0.6873055284
 40
0.749660582
 40
0.8121009789
 40
0.8433828181
 40
0.8746871272
 40
0.9373104426
 40
1.0
 40
1.0
 40
1.0
 40
1.0
 10
6.1731509122
 20
16.5350397388
 30
0.0
 10
6.1708735958
 20
16.5360063506
 30
0.0
 10
6.1662384817
 20
16.5377631044
 30
0.0
 10
6.1590913369
 20
16.5398103051
 30
0.0
 10
6.1517862222
 20
16.5412012344
 30
0.0
 10
6.144385628
 20
16.541890575
 30
0.0
 10
6.1369572841
 20
16.541908649
 30
0.0
 10
6.1295601652
 20
16.5412774893
 30
0.0
 10
6.1222520016
 20
16.5400039776
 30
0.0
 10
6.1150915306
 20
16.5380853167
 30
0.0
 10
6.1081403278
 20
16.5355233762
 30
0.0
 10
6.1014533374
 20
16.5323463973
 30
0.0
 10
6.0950866143
 20
16.5285785691
 30
0.0
 10
6.0890906245
 20
16.52425423
 30
0.0
 10
6.0835037667
 20
16.5194181666
 30
0.0
 10
6.0766585264
 20
16.5123528663
 30
0.0
 10
6.0693113669
 20
16.5024297402
 30
0.0
 10
6.0627971243
 20
16.4891370258
 30
0.0
 10
6.0587429359
 20
16.4748984887
 30
0.0
 10
6.0572712678
 20
16.4601580315
 30
0.0
 10
6.0584378316
 20
16.4453763514
 30
0.0
 10
6.0616056672
 20
16.4334106907
 30
0.0
 10
6.0653898013
 20
16.4242961561
 30
0.0
 10
6.0699866145
 20
16.4155463373
 30
0.0
 10
6.0771681717
 20
16.4054196491
 30
0.0
 10
6.084269014
 20
16.3984590309
 30
0.0
 10
6.0881051403
 20
16.3953423613
 30
0.0
  0
SPLINE
  5
585
100
AcDbEntity
  8
0
100
AcDbSpline
 62
9
  6
CONTINUOUS
 70
0
 71
3
 72
9
 73
5
 74
0
 42
0.0000001
 43
0.0000001
 44
0.0000000001
 40
0.0
 40
0.0
 40
0.0
 40
0.0
 40
0.2502098675
 40
1.0
 40
1.0
 40
1.0
 40
1.0
 10
6.0901219369
 20
16.3937573132
 30
0.0
 10
6.0913632041
 20
16.3928138471
 30
0.0
 10
6.0964339896
 20
16.3891889716
 30
0.0
 10
6.1019092933
 20
16.3861378976
 30
0.0
 10
6.1061516286
 20
16.3841804663
 30
0.0
  0
LINE
  5
586
100
AcDbEntity
  8
0
100
AcDbLine
 62
7
  6
CONTINUOUS
 10
4.7664130667
 20
16.1974311502
 11
4.7694630099
 21
16.1991782191
  0
LINE
  5
587
100
AcDbEntity
  8
0
100
AcDbLine
 62
7
  6
CONTINUOUS
 10
4.7791020186
 20
16.2047128115
 11
4.825816694
 21
16.2316182501
  0
LINE
  5
588
100
AcDbEntity
  8
0
100
AcDbLine
 62
7
  6
CONTINUOUS
 10
4.825816694
 20
16.2316182501
 11
4.8916013632
 21
16.2696325646
  0
LINE
  5
589
100
AcDbEntity
  8
0
100
AcDbLine
 62
7
  6
CONTINUOUS
 10
4.8916013632
 20
16.2696325646
 11
4.9282206572
 21
16.2908580758
  0
LINE
  5
58A
100
AcDbEntity
  8
0
100
AcDbLine
 62
7
  6
CONTINUOUS
 10
4.6901996868
 20
16.3327486337
 11
4.6808634743
 21
16.327304729
  0
LINE
  5
58B
100
AcDbEntity
  8
0
100
AcDbLine
 62
7
  6
CONTINUOUS
 10
4.850582463
 20
16.4253313531
 11
4.8131427139
 21
16.4038005414
  0
LINE
  5
58C
100
AcDbEntity
  8
0
100
AcDbLine
 62
7
  6
CONTINUOUS
 10
4.8131427139
 20
16.4038005414
 11
4.7402916031
 21
16.3617665313
  0
LINE
  5
58D
100
AcDbEntity
  8
0
100
AcDbLine
 62
7
  6
CONTINUOUS
 10
4.7402916031
 20
16.3617665313
 11
4.7014191971
 21
16.3392634634
  0
LINE
  5
58E
100
AcDbEntity
  8
0
100
AcDbLine
 62
7
  6
CONTINUOUS
 10
5.299410676
 20
16.5818637967
 11
5.2937884907
 21
16.5915677552
  0
LINE
  5
58F
100
AcDbEntity
  8
0
100
AcDbLine
 62
9
  6
CONTINUOUS
 10
5.0507874147
 20
16.3382270461
 11
5.2658136533
 21
16.4629522861
  0
SPLINE
  5
590
100
AcDbEntity
  8
0
100
AcDbSpline
 62
9
  6
CONTINUOUS
 70
0
 71
3
 72
22
 73
18
 74
0
 42
0.0000001
 43
0.0000001
 44
0.0000000001
 40
0.0
 40
0.0
 40
0.0
 40
0.0
 40
0.0618487529
 40
0.1237882713
 40
0.1856632758
 40
0.2475722347
 40
0.309662027
 40
0.3719383507
 40
0.4343066567
 40
0.4967053066
 40
0.5279418329
 40
0.5592208741
 40
0.6219132703
 40
0.6847767086
 40
0.7477228656
 40
0.8737841393
 40
1.0
 40
1.0
 40
1.0
 40
1.0
 10
5.2658136533
 20
16.4629522861
 30
0.0
 10
5.2682206602
 20
16.4644386036
 30
0.0
 10
5.2729549215
 20
16.4675525077
 30
0.0
 10
5.2797018381
 20
16.472723556
 30
0.0
 10
5.2859742263
 20
16.4784733594
 30
0.0
 10
5.2916036905
 20
16.4848659213
 30
0.0
 10
5.296566207
 20
16.4918079735
 30
0.0
 10
5.3008715779
 20
16.4991978223
 30
0.0
 10
5.3045140676
 20
16.506951548
 30
0.0
 10
5.3069200037
 20
16.5136830506
 30
0.0
 10
5.3084218944
 20
16.5191980884
 30
0.0
 10
5.3096275957
 20
16.5247991675
 30
0.0
 10
5.3105797044
 20
16.5319231113
 30
0.0
 10
5.3108611378
 20
16.540554344
 30
0.0
 10
5.3101243342
 20
16.5520667935
 30
0.0
 10
5.3071001296
 20
16.5662600862
 30
0.0
 10
5.3023917155
 20
16.5769197329
 30
0.0
 10
5.2994306327
 20
16.5818755355
 30
0.0
  0
SPLINE
  5
591
100
AcDbEntity
  8
0
100
AcDbSpline
 62
9
  6
CONTINUOUS
 70
0
 71
3
 72
14
 73
10
 74
0
 42
0.0000001
 43
0.0000001
 44
0.0000000001
 40
0.0
 40
0.0
 40
0.0
 40
0.0
 40
0.2388185921
 40
0.3680980477
 40
0.5000614001
 40
0.6319167167
 40
0.7609059581
 40
0.884070901
 40
1.0
 40
1.0
 40
1.0
 40
1.0
 10
4.9305654137
 20
16.4964197286
 30
0.0
 10
4.931710508
 20
16.4941560241
 30
0.0
 10
4.9341901626
 20
16.4909657939
 30
0.0
 10
4.9385790431
 20
16.4879255132
 30
0.0
 10
4.942450764
 20
16.4862717385
 30
0.0
 10
4.9465871969
 20
16.4855183549
 30
0.0
 10
4.9506948583
 20
16.4856146224
 30
0.0
 10
4.95452336
 20
16.486529557
 30
0.0
 10
4.9568506383
 20
16.4875890441
 30
0.0
 10
4.9579175528
 20
16.4882040048
 30
0.0
  0
SPLINE
  5
592
100
AcDbEntity
  8
0
100
AcDbSpline
 62
9
  6
CONTINUOUS
 70
0
 71
3
 72
18
 73
14
 74
0
 42
0.0000001
 43
0.0000001
 44
0.0000000001
 40
0.0
 40
0.0
 40
0.0
 40
0.0
 40
0.1718617942
 40
0.3453268571
 40
0.5117225564
 40
0.6635150646
 40
0.7936970938
 40
0.8486768258
 40
0.8960858084
 40
0.9353490548
 40
0.9659685983
 40
0.9876184716
 40
1.0
 40
1.0
 40
1.0
 40
1.0
 10
5.0065040298
 20
16.3353974767
 30
0.0
 10
5.0082049498
 20
16.3363845343
 30
0.0
 10
5.01162466
 20
16.3383644085
 30
0.0
 10
5.016697534
 20
16.3412889752
 30
0.0
 10
5.0215768487
 20
16.3440894695
 30
0.0
 10
5.0260321695
 20
16.346633705
 30
0.0
 10
5.0293854292
 20
16.348536878
 30
0.0
 10
5.0317040493
 20
16.3498431102
 30
0.0
 10
5.033118303
 20
16.3506350826
 30
0.0
 10
5.0342918481
 20
16.3512862745
 30
0.0
 10
5.0352100952
 20
16.3517903023
 30
0.0
 10
5.0358626756
 20
16.3521384082
 30
0.0
 10
5.0362082955
 20
16.3523184271
 30
0.0
 10
5.036337361
 20
16.3523768651
 30
0.0
  0
SPLINE
  5
593
100
AcDbEntity
  8
0
100
AcDbSpline
 62
9
  6
CONTINUOUS
 70
0
 71
3
 72
18
 73
14
 74
0
 42
0.0000001
 43
0.0000001
 44
0.0000000001
 40
0.0
 40
0.0
 40
0.0
 40
0.0
 40
0.1680541974
 40
0.3402395817
 40
0.5076173073
 40
0.6597729006
 40
0.787268274
 40
0.8401990665
 40
0.8853782684
 40
0.9227870032
 40
0.9533209739
 40
0.9784046784
 40
1.0
 40
1.0
 40
1.0
 40
1.0
 10
5.0204164795
 20
16.3210101382
 30
0.0
 10
5.0198294202
 20
16.3220142811
 30
0.0
 10
5.0185960497
 20
16.3240213945
 30
0.0
 10
5.0166216944
 20
16.3269292589
 30
0.0
 10
5.0145564442
 20
16.3296369895
 30
0.0
 10
5.0125251965
 20
16.3319739952
 30
0.0
 10
5.0108587659
 20
16.3335705366
 30
0.0
 10
5.0096219732
 20
16.3345261007
 30
0.0
 10
5.0088304211
 20
16.3350325019
 30
0.0
 10
5.0081210857
 20
16.3353703097
 30
0.0
 10
5.007496952
 20
16.3355451159
 30
0.0
 10
5.0069563102
 20
16.335564759
 30
0.0
 10
5.0066391498
 20
16.3354695467
 30
0.0
 10
5.0065072095
 20
16.3353993142
 30
0.0
  0
LINE
  5
594
100
AcDbEntity
  8
0
100
AcDbLine
 62
7
  6
CONTINUOUS
 10
5.2755073099
 20
16.5810131081
 11
5.2937884907
 21
16.5915677552
  0
SPLINE
  5
595
100
AcDbEntity
  8
0
100
AcDbSpline
 62
9
  6
CONTINUOUS
 70
0
 71
3
 72
18
 73
14
 74
0
 42
0.0000001
 43
0.0000001
 44
0.0000000001
 40
0.0
 40
0.0
 40
0.0
 40
0.0
 40
0.0183998678
 40
0.0406174416
 40
0.0687599508
 40
0.1042547494
 40
0.1479683416
 40
0.1998638994
 40
0.3266582377
 40
0.4800381602
 40
0.6503509791
 40
0.8268586372
 40
1.0
 40
1.0
 40
1.0
 40
1.0
 10
5.2525594866
 20
16.4777188589
 30
0.0
 10
5.2526705139
 20
16.4777770396
 30
0.0
 10
5.2529474139
 20
16.4778474475
 30
0.0
 10
5.253419089
 20
16.4777927763
 30
0.0
 10
5.2539711776
 20
16.4775890844
 30
0.0
 10
5.2546089626
 20
16.4772267405
 30
0.0
 10
5.2553314154
 20
16.4766994028
 30
0.0
 10
5.2564812999
 20
16.4757111249
 30
0.0
 10
5.2580539927
 20
16.4740788468
 30
0.0
 10
5.2600038431
 20
16.4717068218
 30
0.0
 10
5.2620209446
 20
16.4689584533
 30
0.0
 10
5.2639800612
 20
16.4660061108
 30
0.0
 10
5.265219426
 20
16.4639712238
 30
0.0
 10
5.2658138873
 20
16.462952467
 30
0.0
  0
SPLINE
  5
596
100
AcDbEntity
  8
0
100
AcDbSpline
 62
9
  6
CONTINUOUS
 70
0
 71
3
 72
18
 73
14
 74
0
 42
0.0000001
 43
0.0000001
 44
0.0000000001
 40
0.0
 40
0.0
 40
0.0
 40
0.0
 40
0.1821152424
 40
0.3581218117
 40
0.5208922839
 40
0.6651106194
 40
0.7863656934
 40
0.8374542214
 40
0.8818472736
 40
0.9195421194
 40
0.9509873454
 40
0.9771786578
 40
1.0
 40
1.0
 40
1.0
 40
1.0
 10
5.0507881071
 20
16.3382274733
 30
0.0
 10
5.0501530118
 20
16.3393139131
 30
0.0
 10
5.0488535373
 20
16.3414212283
 30
0.0
 10
5.0468207837
 20
16.3443934547
 30
0.0
 10
5.0447884076
 20
16.3470435392
 30
0.0
 10
5.0428386758
 20
16.3492723828
 30
0.0
 10
5.0412609816
 20
16.3507947201
 30
0.0
 10
5.0400827611
 20
16.3517214329
 30
0.0
 10
5.0393123344
 20
16.352227483
 30
0.0
 10
5.0386088948
 20
16.3525802026
 30
0.0
 10
5.037976301
 20
16.3527777911
 30
0.0
 10
5.037414768
 20
16.3528176491
 30
0.0
 10
5.0370792176
 20
16.3527235453
 30
0.0
 10
5.0369399857
 20
16.3526494934
 30
0.0
  0
LINE
  5
597
100
AcDbEntity
  8
0
100
AcDbLine
 62
9
  6
CONTINUOUS
 10
5.2525598705
 20
16.4777191639
 11
5.0369400316
 21
16.3526494498
  0
LINE
  5
598
100
AcDbEntity
  8
0
100
AcDbLine
 62
9
  6
CONTINUOUS
 10
5.0065040298
 20
16.3353974767
 11
4.9286354986
 21
16.2902030273
  0
SPLINE
  5
599
100
AcDbEntity
  8
0
100
AcDbSpline
 62
9
  6
CONTINUOUS
 70
0
 71
3
 72
52
 73
48
 74
0
 42
0.0000001
 43
0.0000001
 44
0.0000000001
 40
0.0
 40
0.0
 40
0.0
 40
0.0
 40
0.1086786533
 40
0.2116862356
 40
0.3060366789
 40
0.3492427185
 40
0.3894534105
 40
0.4264162055
 40
0.4599179844
 40
0.4897560422
 40
0.515727729
 40
0.527202489
 40
0.5376478381
 40
0.5470518759
 40
0.5554027263
 40
0.5626885519
 40
0.5688975825
 40
0.5740181731
 40
0.5780389456
 40
0.5809514184
 40
0.582758223
 40
0.5832521467
 40
0.5834005867
 40
0.5834906191
 40
0.5835522677
 40
0.5836477153
 40
0.5838027207
 40
0.5840230421
 40
0.5846658208
 40
0.58558192
 40
0.5867728401
 40
0.5882391481
 40
0.5899810662
 40
0.5919986601
 40
0.5968607463
 40
0.6028222793
 40
0.6098701911
 40
0.6179890393
 40
0.6271633027
 40
0.6373774152
 40
0.6486157839
 40
0.6741028258
 40
0.7034858141
 40
0.7365746903
 40
0.8130612199
 40
0.9017412019
 40
1.0
 40
1.0
 40
1.0
 40
1.0
 10
4.7791867167
 20
16.2047646357
 30
0.0
 10
4.7760727392
 20
16.2029735378
 30
0.0
 10
4.7700048203
 20
16.1994890753
 30
0.0
 10
4.7612247592
 20
16.1944648446
 30
0.0
 10
4.7543161224
 20
16.1905276603
 30
0.0
 10
4.7492060764
 20
16.187626757
 30
0.0
 10
4.7457432333
 20
16.1856666522
 30
0.0
 10
4.7425569133
 20
16.1838692128
 30
0.0
 10
4.7396664002
 20
16.1822452381
 30
0.0
 10
4.7370895491
 20
16.1808047104
 30
0.0
 10
4.7351452874
 20
16.1797247375
 30
0.0
 10
4.733759153
 20
16.178960097
 30
0.0
 10
4.7328514032
 20
16.1784620364
 30
0.0
 10
4.7320329542
 20
16.1780158869
 30
0.0
 10
4.7313048641
 20
16.1776222004
 30
0.0
 10
4.7306681615
 20
16.1772815168
 30
0.0
 10
4.7301239828
 20
16.1769943661
 30
0.0
 10
4.7296731781
 20
16.1767612343
 30
0.0
 10
4.7293173669
 20
16.1765825304
 30
0.0
 10
4.729055818
 20
16.1764582046
 30
0.0
 10
4.7288986501
 20
16.176390294
 30
0.0
 10
4.7288202492
 20
16.176364916
 30
0.0
 10
4.7287969118
 20
16.1763621137
 30
0.0
 10
4.7287858644
 20
16.1763626358
 30
0.0
 10
4.7287817582
 20
16.1763711387
 30
0.0
 10
4.728787402
 20
16.1763808484
 30
0.0
 10
4.7287965465
 20
16.176392944
 30
0.0
 10
4.7288205091
 20
16.1764170456
 30
0.0
 10
4.728865343
 20
16.1764548647
 30
0.0
 10
4.7289376309
 20
16.1765101531
 30
0.0
 10
4.7290334612
 20
16.1765791545
 30
0.0
 10
4.7291530136
 20
16.1766619645
 30
0.0
 10
4.7292962669
 20
16.176758486
 30
0.0
 10
4.7295341152
 20
16.1769154798
 30
0.0
 10
4.7298909815
 20
16.1771453124
 30
0.0
 10
4.7303904515
 20
16.1774607579
 30
0.0
 10
4.7309832763
 20
16.1778299605
 30
0.0
 10
4.7316682048
 20
16.1782521366
 30
0.0
 10
4.7324439306
 20
16.1787264507
 30
0.0
 10
4.733309133
 20
16.1792520872
 30
0.0
 10
4.734637059
 20
16.1800545754
 30
0.0
 10
4.7365106881
 20
16.1811791183
 30
0.0
 10
4.7390078206
 20
16.1826682879
 30
0.0
 10
4.7429579953
 20
16.1850121856
 30
0.0
 10
4.7486029212
 20
16.188340889
 30
0.0
 10
4.7561142985
 20
16.1927452928
 30
0.0
 10
4.7614507266
 20
16.1958605937
 30
0.0
 10
4.7642569682
 20
16.1974958132
 30
0.0
  0
LINE
  5
59A
100
AcDbEntity
  8
0
100
AcDbLine
 62
9
  6
CONTINUOUS
 10
4.7642569682
 20
16.1974958132
 11
4.7780747158
 21
16.2055436991
  0
SPLINE
  5
59B
100
AcDbEntity
  8
0
100
AcDbSpline
 62
9
  6
CONTINUOUS
 70
0
 71
3
 72
12
 73
8
 74
0
 42
0.0000001
 43
0.0000001
 44
0.0000000001
 40
0.0
 40
0.0
 40
0.0
 40
0.0
 40
0.295416982
 40
0.5717537221
 40
0.8116327431
 40
0.9131019827
 40
1.0
 40
1.0
 40
1.0
 40
1.0
 10
4.9274898304
 20
16.2921474299
 30
0.0
 10
4.9594120238
 20
16.3105752099
 30
0.0
 10
5.0212326299
 20
16.3461748159
 30
0.0
 10
5.1091053642
 20
16.3965093728
 30
0.0
 10
5.1760835023
 20
16.434635021
 30
0.0
 10
5.2226028564
 20
16.4609216198
 30
0.0
 10
5.2430953569
 20
16.4724296817
 30
0.0
 10
5.2525598705
 20
16.4777191639
 30
0.0
  0
LINE
  5
59C
100
AcDbEntity
  8
0
100
AcDbLine
 62
9
  6
CONTINUOUS
 10
4.8502224709
 20
16.4260183393
 11
4.9283013291
 21
16.4708601421
  0
LINE
  5
59D
100
AcDbEntity
  8
0
100
AcDbLine
 62
9
  6
CONTINUOUS
 10
4.9584549871
 20
16.4885896401
 11
5.1745782076
 21
16.6127868982
  0
SPLINE
  5
59E
100
AcDbEntity
  8
0
100
AcDbSpline
 62
9
  6
CONTINUOUS
 70
0
 71
3
 72
12
 73
8
 74
0
 42
0.0000001
 43
0.0000001
 44
0.0000000001
 40
0.0
 40
0.0
 40
0.0
 40
0.0
 40
0.0868977891
 40
0.1883668997
 40
0.4282459044
 40
0.7045828031
 40
1.0
 40
1.0
 40
1.0
 40
1.0
 10
5.1745782076
 20
16.6127868982
 30
0.0
 10
5.165265159
 20
16.6072351492
 30
0.0
 10
5.1450526938
 20
16.5952421876
 30
0.0
 10
5.0990282408
 20
16.5680985937
 30
0.0
 10
5.0325214567
 20
16.5291566857
 30
0.0
 10
4.9449941327
 20
16.4782239717
 30
0.0
 10
4.883253687
 20
16.4424855715
 30
0.0
 10
4.8513336729
 20
16.4240540362
 30
0.0
  0
SPLINE
  5
59F
100
AcDbEntity
  8
0
100
AcDbSpline
 62
9
  6
CONTINUOUS
 70
0
 71
3
 72
52
 73
48
 74
0
 42
0.0000001
 43
0.0000001
 44
0.0000000001
 40
0.0
 40
0.0
 40
0.0
 40
0.0
 40
0.0982547878
 40
0.1869296776
 40
0.2634103437
 40
0.2964960605
 40
0.3258757223
 40
0.3513592953
 40
0.3625958851
 40
0.3728081852
 40
0.3819805996
 40
0.3900975592
 40
0.3971435401
 40
0.4031030971
 40
0.4079631779
 40
0.4099797652
 40
0.4117206739
 40
0.4131859699
 40
0.4143758759
 40
0.4152909604
 40
0.4159327293
 40
0.4161525549
 40
0.416307085
 40
0.4164021355
 40
0.4164637534
 40
0.4165541653
 40
0.4167030798
 40
0.4171980182
 40
0.4190069181
 40
0.4219215248
 40
0.4259444424
 40
0.4310671661
 40
0.4372783168
 40
0.4445662491
 40
0.4529191922
 40
0.4623253084
 40
0.4727727214
 40
0.4842495306
 40
0.5102251812
 40
0.5400669939
 40
0.5735723573
 40
0.6105386049
 40
0.6507525646
 40
0.6939615043
 40
0.7883160014
 40
0.8913241275
 40
1.0
 40
1.0
 40
1.0
 40
1.0
 10
4.6877456133
 20
16.3300155132
 30
0.0
 10
4.6849262168
 20
16.3284027694
 30
0.0
 10
4.6795598598
 20
16.3253388162
 30
0.0
 10
4.6719896049
 20
16.3210358414
 30
0.0
 10
4.6662843
 20
16.3178114919
 30
0.0
 10
4.6622793373
 20
16.3155624942
 30
0.0
 10
4.6597411732
 20
16.3141445376
 30
0.0
 10
4.6578305527
 20
16.3130842463
 30
0.0
 10
4.6564716966
 20
16.3123355231
 30
0.0
 10
4.6555839584
 20
16.3118491006
 30
0.0
 10
4.6547854159
 20
16.3114145124
 30
0.0
 10
4.6540774366
 20
16.3110324944
 30
0.0
 10
4.6534613971
 20
16.3107037605
 30
0.0
 10
4.6529386018
 20
16.3104290024
 30
0.0
 10
4.6525612376
 20
16.3102349283
 30
0.0
 10
4.6523064456
 20
16.3101074978
 30
0.0
 10
4.6521513024
 20
16.3100317405
 30
0.0
 10
4.6520198862
 20
16.3099696546
 30
0.0
 10
4.6519122933
 20
16.3099212086
 30
0.0
 10
4.6518283466
 20
16.3098862975
 30
0.0
 10
4.6517732507
 20
16.3098664163
 30
0.0
 10
4.6517404462
 20
16.309857752
 30
0.0
 10
4.6517254489
 20
16.3098558978
 30
0.0
 10
4.6517142289
 20
16.3098558995
 30
0.0
 10
4.6517090018
 20
16.3098637612
 30
0.0
 10
4.6517141189
 20
16.3098735813
 30
0.0
 10
4.6517282689
 20
16.3098924394
 30
0.0
 10
4.6517895636
 20
16.3099476893
 30
0.0
 10
4.651927117
 20
16.3100499654
 30
0.0
 10
4.6521657674
 20
16.310214418
 30
0.0
 10
4.6524986473
 20
16.3104333386
 30
0.0
 10
4.6529261698
 20
16.3107073081
 30
0.0
 10
4.6534471676
 20
16.3110351394
 30
0.0
 10
4.6540607955
 20
16.3114163351
 30
0.0
 10
4.654766026
 20
16.3118501774
 30
0.0
 10
4.6555618769
 20
16.312336045
 30
0.0
 10
4.6564473413
 20
16.3128732976
 30
0.0
 10
4.6578029591
 20
16.3136916085
 30
0.0
 10
4.6597108239
 20
16.3148356618
 30
0.0
 10
4.6622473329
 20
16.3163473336
 30
0.0
 10
4.6650995561
 20
16.3180389281
 30
0.0
 10
4.6682499204
 20
16.319899973
 30
0.0
 10
4.6716794239
 20
16.3219191634
 30
0.0
 10
4.6767474478
 20
16.3248945661
 30
0.0
 10
4.6836122945
 20
16.3289094989
 30
0.0
 10
4.692354266
 20
16.3340016115
 30
0.0
 10
4.6984063309
 20
16.3375146233
 30
0.0
 10
4.7015146511
 20
16.3393159712
 30
0.0
  0
LINE
  5
5A0
100
AcDbEntity
  8
0
100
AcDbLine
 62
9
  6
CONTINUOUS
 10
4.9391450002
 20
16.2738402629
 11
5.0204157802
 21
16.3210092777
  0
SPLINE
  5
5A1
100
AcDbEntity
  8
0
100
AcDbSpline
 62
9
  6
CONTINUOUS
 70
0
 71
3
 72
19
 73
15
 74
0
 42
0.0000001
 43
0.0000001
 44
0.0000000001
 40
0.0
 40
0.0
 40
0.0
 40
0.0
 40
0.167693736
 40
0.33050196
 40
0.4829727185
 40
0.6210289802
 40
0.6836737387
 40
0.7416349891
 40
0.7947912405
 40
0.843236445
 40
0.8872527899
 40
0.9274049804
 40
0.9645877355
 40
1.0
 40
1.0
 40
1.0
 40
1.0
 10
4.7065985708
 20
16.2414868671
 30
0.0
 10
4.708776639
 20
16.2377430124
 30
0.0
 10
4.7133707867
 20
16.2305351471
 30
0.0
 10
4.7209271828
 20
16.2205905309
 30
0.0
 10
4.7288435239
 20
16.2119395226
 30
0.0
 10
4.7357012998
 20
16.2058862165
 30
0.0
 10
4.74114667
 20
16.2020058802
 30
0.0
 10
4.7450007643
 20
16.1996953169
 30
0.0
 10
4.7487241611
 20
16.1979121989
 30
0.0
 10
4.7522842065
 20
16.1966704253
 30
0.0
 10
4.7556533204
 20
16.1959858335
 30
0.0
 10
4.7588029748
 20
16.1958761617
 30
0.0
 10
4.7616978028
 20
16.1963431828
 30
0.0
 10
4.7634549777
 20
16.1970528477
 30
0.0
 10
4.7642556296
 20
16.1974950625
 30
0.0
  0
SPLINE
  5
5A2
100
AcDbEntity
  8
0
100
AcDbSpline
 62
9
  6
CONTINUOUS
 70
0
 71
3
 72
17
 73
13
 74
0
 42
0.0000001
 43
0.0000001
 44
0.0000000001
 40
0.0
 40
0.0
 40
0.0
 40
0.0
 40
0.1239513696
 40
0.2479728478
 40
0.372171679
 40
0.4344865148
 40
0.4968776066
 40
0.6217802428
 40
0.7472368878
 40
0.8102192217
 40
0.8733539184
 40
1.0
 40
1.0
 40
1.0
 40
1.0
 10
5.2811327725
 20
16.5712751843
 30
0.0
 10
5.2833841075
 20
16.5673914949
 30
0.0
 10
5.287056483
 20
16.5591082373
 30
0.0
 10
5.2898498025
 20
16.545825919
 30
0.0
 10
5.2897884656
 20
16.5344898884
 30
0.0
 10
5.288372406
 20
16.5255749397
 30
0.0
 10
5.2860626098
 20
16.5168205178
 30
0.0
 10
5.2815252566
 20
16.5063578125
 30
0.0
 10
5.2750854332
 20
16.4969297884
 30
0.0
 10
5.2689480459
 20
16.4901805407
 30
0.0
 10
5.2621985399
 20
16.483983293
 30
0.0
 10
5.2565295208
 20
16.480016883
 30
0.0
 10
5.2525599402
 20
16.4777191233
 30
0.0
  0
LINE
  5
5A3
100
AcDbEntity
  8
0
100
AcDbLine
 62
9
  6
CONTINUOUS
 10
5.1684168138
 20
16.6316485682
 11
4.952888807
 21
16.5077932237
  0
SPLINE
  5
5A4
100
AcDbEntity
  8
0
100
AcDbSpline
 62
9
  6
CONTINUOUS
 70
0
 71
3
 72
18
 73
14
 74
0
 42
0.0000001
 43
0.0000001
 44
0.0000000001
 40
0.0
 40
0.0
 40
0.0
 40
0.0
 40
0.1731413637
 40
0.3496490174
 40
0.5199618328
 40
0.6733417379
 40
0.8001360748
 40
0.852031639
 40
0.8957452323
 40
0.9312400354
 40
0.9593825579
 40
0.9816001409
 40
1.0
 40
1.0
 40
1.0
 40
1.0
 10
5.1684173422
 20
16.6316488268
 30
0.0
 10
5.169002378
 20
16.6306246276
 30
0.0
 10
5.1701449536
 20
16.6285338583
 30
0.0
 10
5.17172219
 20
16.6253610361
 30
0.0
 10
5.1730937873
 20
16.6222399855
 30
0.0
 10
5.1741730879
 20
16.6193653486
 30
0.0
 10
5.1748003296
 20
16.6171872149
 30
0.0
 10
5.1750812573
 20
16.6156972453
 30
0.0
 10
5.1751767165
 20
16.6148079133
 30
0.0
 10
5.1751716211
 20
16.6140744029
 30
0.0
 10
5.1750719781
 20
16.6134944339
 30
0.0
 10
5.1748834867
 20
16.6130586157
 30
0.0
 10
5.1746840615
 20
16.6128540171
 30
0.0
 10
5.1745781619
 20
16.612786955
 30
0.0
  0
SPLINE
  5
5A5
100
AcDbEntity
  8
0
100
AcDbSpline
 62
9
  6
CONTINUOUS
 70
0
 71
3
 72
18
 73
14
 74
0
 42
0.0000001
 43
0.0000001
 44
0.0000000001
 40
0.0
 40
0.0
 40
0.0
 40
0.0
 40
0.0230429502
 40
0.0493562737
 40
0.0808061373
 40
0.1183989449
 40
0.162612401
 40
0.2135190198
 40
0.3346360955
 40
0.4790240435
 40
0.6419353468
 40
0.8179348542
 40
1.0
 40
1.0
 40
1.0
 40
1.0
 10
4.9584550915
 20
16.4885896299
 30
0.0
 10
4.958590195
 20
16.4886739515
 30
0.0
 10
4.9588420056
 20
16.4889182423
 30
0.0
 10
4.9590916357
 20
16.489425749
 30
0.0
 10
4.9592376115
 20
16.490072688
 30
0.0
 10
4.9592811047
 20
16.4908567771
 30
0.0
 10
4.9592215065
 20
16.4917736133
 30
0.0
 10
4.9589975168
 20
16.4932524981
 30
0.0
 10
4.9584614803
 20
16.4953769144
 30
0.0
 10
4.9575267237
 20
16.4981881275
 30
0.0
 10
4.956266811
 20
16.5012844049
 30
0.0
 10
4.9547053884
 20
16.5045308945
 30
0.0
 10
4.9535190817
 20
16.5067040821
 30
0.0
 10
4.952889281
 20
16.5077934447
 30
0.0
  0
SPLINE
  5
5A6
100
AcDbEntity
  8
0
100
AcDbSpline
 62
9
  6
CONTINUOUS
 70
0
 71
3
 72
17
 73
13
 74
0
 42
0.0000001
 43
0.0000001
 44
0.0000000001
 40
0.0
 40
0.0
 40
0.0
 40
0.0
 40
0.1266459785
 40
0.1897810331
 40
0.2527636795
 40
0.3782203432
 40
0.5031228216
 40
0.5655140395
 40
0.6278290729
 40
0.7520278299
 40
0.876048082
 40
1.0
 40
1.0
 40
1.0
 40
1.0
 10
5.1745782336
 20
16.6127869944
 30
0.0
 10
5.1785529409
 20
16.6150758817
 30
0.0
 10
5.1848224806
 20
16.6180022
 30
0.0
 10
5.193564234
 20
16.6207488516
 30
0.0
 10
5.2024779791
 20
16.6226894015
 30
0.0
 10
5.2138628228
 20
16.6235524809
 30
0.0
 10
5.2251924876
 20
16.6222505758
 30
0.0
 10
5.2339289492
 20
16.6198736715
 30
0.0
 10
5.242357564
 20
16.6166425095
 30
0.0
 10
5.2522055098
 20
16.6110276485
 30
0.0
 10
5.2623117393
 20
16.6019674793
 30
0.0
 10
5.2676490328
 20
16.5946454626
 30
0.0
 10
5.2698867402
 20
16.5907538739
 30
0.0
  0
SPLINE
  5
5A7
100
AcDbEntity
  8
0
100
AcDbSpline
 62
7
  6
CONTINUOUS
 70
0
 71
3
 72
25
 73
21
 74
0
 42
0.0000001
 43
0.0000001
 44
0.0000000001
 40
0.0
 40
0.0
 40
0.0
 40
0.0
 40
0.0759612643
 40
0.1520128802
 40
0.2279195079
 40
0.3037688928
 40
0.3795643514
 40
0.4553984209
 40
0.5311680856
 40
0.5690669761
 40
0.6068742355
 40
0.644550308
 40
0.6819980314
 40
0.742862229
 40
0.7736473785
 40
0.8038135495
 40
0.8410540375
 40
0.8864564046
 40
0.9397156228
 40
1.0
 40
1.0
 40
1.0
 40
1.0
 10
4.6373561497
 20
16.2008607299
 30
0.0
 10
4.6390812317
 20
16.1978736314
 30
0.0
 10
4.6430066721
 20
16.1921561112
 30
0.0
 10
4.6501273963
 20
16.1845909018
 30
0.0
 10
4.6583333023
 20
16.1782225535
 30
0.0
 10
4.6674097651
 20
16.1731989044
 30
0.0
 10
4.677147962
 20
16.169630201
 30
0.0
 10
4.687314892
 20
16.1676064647
 30
0.0
 10
4.6959498616
 20
16.1672386783
 30
0.0
 10
4.7028153109
 20
16.1677465722
 30
0.0
 10
4.7079114004
 20
16.168516523
 30
0.0
 10
4.712913387
 20
16.1696710507
 30
0.0
 10
4.7188106375
 20
16.1715207067
 30
0.0
 10
4.7242194794
 20
16.1738222538
 30
0.0
 10
4.7291159465
 20
16.1763972306
 30
0.0
 10
4.7330299578
 20
16.1785333647
 30
0.0
 10
4.7375067861
 20
16.181023483
 30
0.0
 10
4.742887615
 20
16.1840455369
 30
0.0
 10
4.7491702318
 20
16.1875988297
 30
0.0
 10
4.7536526225
 20
16.190147037
 30
0.0
 10
4.7560313295
 20
16.1915019988
 30
0.0
  0
LINE
  5
5A8
100
AcDbEntity
  8
0
100
AcDbLine
 62
7
  6
CONTINUOUS
 10
4.769463011
 20
16.1991782195
 11
4.7791018349
 21
16.2047127904
  0
LINE
  5
5A9
100
AcDbEntity
  8
0
100
AcDbLine
 62
7
  6
CONTINUOUS
 10
4.7791019302
 20
16.2047131276
 11
4.8258166972
 21
16.231618242
  0
LINE
  5
5AA
100
AcDbEntity
  8
0
100
AcDbLine
 62
7
  6
CONTINUOUS
 10
4.8258166972
 20
16.231618242
 11
4.8916013821
 21
16.2696325433
  0
LINE
  5
5AB
100
AcDbEntity
  8
0
100
AcDbLine
 62
7
  6
CONTINUOUS
 10
4.8916013821
 20
16.2696325433
 11
4.928220556
 21
16.2908582352
  0
LINE
  5
5AC
100
AcDbEntity
  8
0
100
AcDbLine
 62
7
  6
CONTINUOUS
 10
4.7014190615
 20
16.3392636037
 11
4.6901997699
 21
16.3327486984
  0
LINE
  5
5AD
100
AcDbEntity
  8
0
100
AcDbLine
 62
7
  6
CONTINUOUS
 10
4.6901997699
 20
16.3327486984
 11
4.6808635288
 21
16.3273047867
  0
SPLINE
  5
5AE
100
AcDbEntity
  8
0
100
AcDbSpline
 62
7
  6
CONTINUOUS
 70
0
 71
3
 72
26
 73
22
 74
0
 42
0.0000001
 43
0.0000001
 44
0.0000000001
 40
0.0
 40
0.0
 40
0.0
 40
0.0
 40
0.0622249944
 40
0.1176015646
 40
0.1651668589
 40
0.204413512
 40
0.2359321789
 40
0.2499339228
 40
0.2650716123
 40
0.2867799259
 40
0.3190054911
 40
0.355821122
 40
0.3934063302
 40
0.4690145309
 40
0.5447576128
 40
0.6205487721
 40
0.6963344724
 40
0.7721632006
 40
0.8480381093
 40
0.9240505014
 40
1.0
 40
1.0
 40
1.0
 40
1.0
 10
4.6808635288
 20
16.3273047867
 30
0.0
 10
4.6783738162
 20
16.3258498643
 30
0.0
 10
4.6736706562
 20
16.3230962915
 30
0.0
 10
4.6670734434
 20
16.3192150477
 30
0.0
 10
4.6614031496
 20
16.3158583174
 30
0.0
 10
4.656695608
 20
16.3130457933
 30
0.0
 10
4.653335551
 20
16.311010531
 30
0.0
 10
4.6509476904
 20
16.3095272077
 30
0.0
 10
4.6489608526
 20
16.3082600714
 30
0.0
 10
4.6463110242
 20
16.3064630834
 30
0.0
 10
4.6429540998
 20
16.3039250091
 30
0.0
 10
4.6392267477
 20
16.3006733251
 30
0.0
 10
4.6343532914
 20
16.2957077629
 30
0.0
 10
4.6289677597
 20
16.2887545386
 30
0.0
 10
4.6238865911
 20
16.2794871194
 30
0.0
 10
4.6203174016
 20
16.2695290306
 30
0.0
 10
4.6183546015
 20
16.2591303816
 30
0.0
 10
4.6180485332
 20
16.248548951
 30
0.0
 10
4.6194070407
 20
16.2380387812
 30
0.0
 10
4.6224100215
 20
16.227872685
 30
0.0
 10
4.6254506041
 20
16.2214825067
 30
0.0
 10
4.6272101093
 20
16.2184341791
 30
0.0
  0
LINE
  5
5AF
100
AcDbEntity
  8
0
100
AcDbLine
 62
7
  6
CONTINUOUS
 10
4.8505825878
 20
16.4253311146
 11
4.8131427031
 21
16.4038005726
  0
LINE
  5
5B0
100
AcDbEntity
  8
0
100
AcDbLine
 62
7
  6
CONTINUOUS
 10
4.8131427031
 20
16.4038005726
 11
4.7402915829
 21
16.361766555
  0
LINE
  5
5B1
100
AcDbEntity
  8
0
100
AcDbLine
 62
7
  6
CONTINUOUS
 10
4.7402915829
 20
16.361766555
 11
4.7014195688
 21
16.3392633495
  0
LINE
  5
5B2
100
AcDbEntity
  8
0
100
AcDbLine
 62
9
  6
CONTINUOUS
 10
5.2994260807
 20
16.5818729421
 11
5.293779629
 21
16.5915626365
  0
SPLINE
  5
5B3
100
AcDbEntity
  8
0
100
AcDbSpline
 62
9
  6
CONTINUOUS
 70
0
 71
3
 72
22
 73
18
 74
0
 42
0.0000001
 43
0.0000001
 44
0.0000000001
 40
0.0
 40
0.0
 40
0.0
 40
0.0
 40
0.061848694
 40
0.1237881668
 40
0.1856631701
 40
0.247572116
 40
0.3096618618
 40
0.371938173
 40
0.4343065301
 40
0.4967051532
 40
0.5279415976
 40
0.5592205056
 40
0.6219126897
 40
0.6847762514
 40
0.747722762
 40
0.8737837908
 40
1.0
 40
1.0
 40
1.0
 40
1.0
 10
5.2658136496
 20
16.4629522849
 30
0.0
 10
5.2682206713
 20
16.464438552
 30
0.0
 10
5.2729549388
 20
16.4675524009
 30
0.0
 10
5.279701814
 20
16.4727234428
 30
0.0
 10
5.2859741351
 20
16.4784732653
 30
0.0
 10
5.2916035568
 20
16.4848658134
 30
0.0
 10
5.296566073
 20
16.4918078186
 30
0.0
 10
5.3008714692
 20
16.4991976127
 30
0.0
 10
5.3045139926
 20
16.5069512858
 30
0.0
 10
5.3069199428
 20
16.5136827516
 30
0.0
 10
5.3084218206
 20
16.5191977584
 30
0.0
 10
5.3096274848
 20
16.5247988027
 30
0.0
 10
5.3105795479
 20
16.5319227123
 30
0.0
 10
5.3108610597
 20
16.540553912
 30
0.0
 10
5.3101248489
 20
16.5520663469
 30
0.0
 10
5.3071006868
 20
16.5662597886
 30
0.0
 10
5.3023891709
 20
16.5769183475
 30
0.0
 10
5.2994260807
 20
16.5818729421
 30
0.0
  0
SPLINE
  5
5B4
100
AcDbEntity
  8
0
100
AcDbSpline
 62
9
  6
CONTINUOUS
 70
0
 71
3
 72
18
 73
14
 74
0
 42
0.0000001
 43
0.0000001
 44
0.0000000001
 40
0.0
 40
0.0
 40
0.0
 40
0.0
 40
0.012385548
 40
0.0340448275
 40
0.064672637
 40
0.1039379809
 40
0.1513441419
 40
0.2063184385
 40
0.336492252
 40
0.4882804212
 40
0.6546700207
 40
0.8281335907
 40
1.0
 40
1.0
 40
1.0
 40
1.0
 10
4.9579182752
 20
16.4882044013
 30
0.0
 10
4.9578030853
 20
16.4881218697
 30
0.0
 10
4.9574742859
 20
16.4879125261
 30
0.0
 10
4.9568464082
 20
16.4875213472
 30
0.0
 10
4.9559507378
 20
16.4869780672
 30
0.0
 10
4.9548001149
 20
16.4862873858
 30
0.0
 10
4.9534073808
 20
16.4854587473
 30
0.0
 10
4.9511173274
 20
16.4841041774
 30
0.0
 10
4.9477931583
 20
16.4821521379
 30
0.0
 10
4.9433629519
 20
16.4795663042
 30
0.0
 10
4.9384988115
 20
16.476741417
 30
0.0
 10
4.9334303975
 20
16.4738108763
 30
0.0
 10
4.9300063878
 20
16.471839513
 30
0.0
 10
4.9283013037
 20
16.4708601275
 30
0.0
  0
SPLINE
  5
5B5
100
AcDbEntity
  8
0
100
AcDbSpline
 62
9
  6
CONTINUOUS
 70
0
 71
3
 72
14
 73
10
 74
0
 42
0.0000001
 43
0.0000001
 44
0.0000000001
 40
0.0
 40
0.0
 40
0.0
 40
0.0
 40
0.2388183077
 40
0.3680976551
 40
0.5000609583
 40
0.6319163028
 40
0.7609056435
 40
0.8840707346
 40
1.0
 40
1.0
 40
1.0
 40
1.0
 10
4.9305654137
 20
16.4964197286
 30
0.0
 10
4.9317105032
 20
16.4941560286
 30
0.0
 10
4.9341901521
 20
16.4909658045
 30
0.0
 10
4.938579026
 20
16.4879255338
 30
0.0
 10
4.9424507431
 20
16.4862717668
 30
0.0
 10
4.946587173
 20
16.4855183907
 30
0.0
 10
4.9506948321
 20
16.4856146647
 30
0.0
 10
4.9545233322
 20
16.4865296042
 30
0.0
 10
4.9568506097
 20
16.4875890933
 30
0.0
 10
4.9579175241
 20
16.4882040548
 30
0.0
  0
SPLINE
  5
5B6
100
AcDbEntity
  8
0
100
AcDbSpline
 62
9
  6
CONTINUOUS
 70
0
 71
3
 72
18
 73
14
 74
0
 42
0.0000001
 43
0.0000001
 44
0.0000000001
 40
0.0
 40
0.0
 40
0.0
 40
0.0
 40
0.1710190871
 40
0.3435976921
 40
0.5096545933
 40
0.6611092953
 40
0.7905161311
 40
0.8453757989
 40
0.892959437
 40
0.9327339789
 40
0.9641703039
 40
0.9867502478
 40
1.0
 40
1.0
 40
1.0
 40
1.0
 10
5.0204163607
 20
16.3210103409
 30
0.0
 10
5.020943596
 20
16.3212305744
 30
0.0
 10
5.0220047272
 20
16.3216686226
 30
0.0
 10
5.0235832186
 20
16.3223072758
 30
0.0
 10
5.0251053683
 20
16.3229108089
 30
0.0
 10
5.0264977381
 20
16.323450189
 30
0.0
 10
5.027547886
 20
16.3238444136
 30
0.0
 10
5.0282761279
 20
16.324108414
 30
0.0
 10
5.0287243012
 20
16.3242663842
 30
0.0
 10
5.029100202
 20
16.3243935269
 30
0.0
 10
5.0293987851
 20
16.3244894541
 30
0.0
 10
5.0296147045
 20
16.3245502304
 30
0.0
 10
5.0297317797
 20
16.3245786799
 30
0.0
 10
5.029775923
 20
16.3245820016
 30
0.0
  0
SPLINE
  5
5B7
100
AcDbEntity
  8
0
100
AcDbSpline
 62
9
  6
CONTINUOUS
 70
0
 71
3
 72
18
 73
14
 74
0
 42
0.0000001
 43
0.0000001
 44
0.0000000001
 40
0.0
 40
0.0
 40
0.0
 40
0.0
 40
0.013249784
 40
0.0358297591
 40
0.0672661141
 40
0.1070406842
 40
0.1546243483
 40
0.2094840395
 40
0.3388909117
 40
0.4903456335
 40
0.6564025224
 40
0.8289810594
 40
1.0
 40
1.0
 40
1.0
 40
1.0
 10
4.9305657665
 20
16.4964190317
 30
0.0
 10
4.9305408181
 20
16.4963824632
 30
0.0
 10
4.9304576423
 20
16.4962952978
 30
0.0
 10
4.9302970485
 20
16.4961386941
 30
0.0
 10
4.9300646814
 20
16.4959280769
 30
0.0
 10
4.9297666219
 20
16.4956661084
 30
0.0
 10
4.9294057289
 20
16.495356964
 30
0.0
 10
4.9288129767
 20
16.4948582881
 30
0.0
 10
4.927946494
 20
16.4941459455
 30
0.0
 10
4.9267831921
 20
16.4932098079
 30
0.0
 10
4.9254994424
 20
16.4921933543
 30
0.0
 10
4.9241571075
 20
16.4911456678
 30
0.0
 10
4.9232471816
 20
16.4904457257
 30
0.0
 10
4.9227928366
 20
16.4900992436
 30
0.0
  0
SPLINE
  5
5B8
100
AcDbEntity
  8
0
100
AcDbSpline
 62
9
  6
CONTINUOUS
 70
0
 71
3
 72
14
 73
10
 74
0
 42
0.0000001
 43
0.0000001
 44
0.0000000001
 40
0.0
 40
0.0
 40
0.0
 40
0.0
 40
0.1159300682
 40
0.2390957174
 40
0.36808525
 40
0.4999405828
 40
0.6319035807
 40
0.7611825166
 40
1.0
 40
1.0
 40
1.0
 40
1.0
 10
5.0363370302
 20
16.3523765853
 30
0.0
 10
5.0352710198
 20
16.35176007
 30
0.0
 10
5.033189884
 20
16.3502742935
 30
0.0
 10
5.0304833531
 20
16.3474161508
 30
0.0
 10
5.0283462382
 20
16.3439069433
 30
0.0
 10
5.0269305518
 20
16.3399480261
 30
0.0
 10
5.0264269618
 20
16.335768188
 30
0.0
 10
5.0268655328
 20
16.3304472611
 30
0.0
 10
5.0283885229
 20
16.3267047805
 30
0.0
 10
5.0297763865
 20
16.3245812912
 30
0.0
  0
SPLINE
  5
5B9
100
AcDbEntity
  8
0
100
AcDbSpline
 62
9
  6
CONTINUOUS
 70
0
 71
3
 72
18
 73
14
 74
0
 42
0.0000001
 43
0.0000001
 44
0.0000000001
 40
0.0
 40
0.0
 40
0.0
 40
0.0
 40
0.1680542537
 40
0.3402396943
 40
0.5076174674
 40
0.6597730899
 40
0.7872684643
 40
0.8401992454
 40
0.8853784272
 40
0.9227871327
 40
0.9533210653
 40
0.978404725
 40
1.0
 40
1.0
 40
1.0
 40
1.0
 10
5.0204164809
 20
16.3210101391
 30
0.0
 10
5.0198294205
 20
16.3220142837
 30
0.0
 10
5.0185960478
 20
16.3240214003
 30
0.0
 10
5.0166216892
 20
16.3269292695
 30
0.0
 10
5.014556436
 20
16.3296370048
 30
0.0
 10
5.0125251858
 20
16.3319740145
 30
0.0
 10
5.0108587535
 20
16.3335705589
 30
0.0
 10
5.00962196
 20
16.3345261249
 30
0.0
 10
5.0088304074
 20
16.335032527
 30
0.0
 10
5.0081210719
 20
16.3353703356
 30
0.0
 10
5.0074969383
 20
16.3355451423
 30
0.0
 10
5.0069562966
 20
16.3355647856
 30
0.0
 10
5.0066391364
 20
16.3354695733
 30
0.0
 10
5.0065071963
 20
16.3353993408
 30
0.0
  0
LINE
  5
5BA
100
AcDbEntity
  8
0
100
AcDbLine
 62
9
  6
CONTINUOUS
 10
5.2811314849
 20
16.5712744584
 11
5.2755085411
 21
16.581013819
  0
SPLINE
  5
5BB
100
AcDbEntity
  8
0
100
AcDbSpline
 62
9
  6
CONTINUOUS
 70
0
 71
3
 72
18
 73
14
 74
0
 42
0.0000001
 43
0.0000001
 44
0.0000000001
 40
0.0
 40
0.0
 40
0.0
 40
0.0
 40
0.0183989396
 40
0.0406158199
 40
0.0687578675
 40
0.1042523864
 40
0.1479658356
 40
0.1998613546
 40
0.3266558528
 40
0.4800361664
 40
0.650349545
 40
0.8268578877
 40
1.0
 40
1.0
 40
1.0
 40
1.0
 10
5.2525596167
 20
16.4777189343
 30
0.0
 10
5.2526706388
 20
16.4777771099
 30
0.0
 10
5.2529475294
 20
16.4778475058
 30
0.0
 10
5.2534191854
 20
16.4777928176
 30
0.0
 10
5.2539712546
 20
16.4775891112
 30
0.0
 10
5.2546090207
 20
16.4772267543
 30
0.0
 10
5.2553314552
 20
16.4766994051
 30
0.0
 10
5.2564813157
 20
16.4757111117
 30
0.0
 10
5.2580539819
 20
16.4740788203
 30
0.0
 10
5.2600038088
 20
16.471706787
 30
0.0
 10
5.2620208945
 20
16.4689584154
 30
0.0
 10
5.2639800046
 20
16.4660060745
 30
0.0
 10
5.2652193703
 20
16.4639711912
 30
0.0
 10
5.2658138333
 20
16.4629524366
 30
0.0
  0
SPLINE
  5
5BC
100
AcDbEntity
  8
0
100
AcDbSpline
 62
9
  6
CONTINUOUS
 70
0
 71
3
 72
18
 73
14
 74
0
 42
0.0000001
 43
0.0000001
 44
0.0000000001
 40
0.0
 40
0.0
 40
0.0
 40
0.0
 40
0.1821152431
 40
0.3581218124
 40
0.5208922842
 40
0.6651106192
 40
0.7863656927
 40
0.8374542206
 40
0.8818472728
 40
0.9195421188
 40
0.950987345
 40
0.9771786576
 40
1.0
 40
1.0
 40
1.0
 40
1.0
 10
5.0507881072
 20
16.3382274729
 30
0.0
 10
5.0501530119
 20
16.3393139127
 30
0.0
 10
5.0488535374
 20
16.3414212279
 30
0.0
 10
5.0468207838
 20
16.3443934542
 30
0.0
 10
5.0447884078
 20
16.3470435386
 30
0.0
 10
5.042838676
 20
16.3492723821
 30
0.0
 10
5.0412609818
 20
16.3507947193
 30
0.0
 10
5.0400827614
 20
16.3517214321
 30
0.0
 10
5.0393123348
 20
16.3522274822
 30
0.0
 10
5.0386088952
 20
16.3525802018
 30
0.0
 10
5.0379763014
 20
16.3527777903
 30
0.0
 10
5.0374147684
 20
16.3528176483
 30
0.0
 10
5.037079218
 20
16.3527235445
 30
0.0
 10
5.036939986
 20
16.3526494926
 30
0.0
  0
LINE
  5
5BD
100
AcDbEntity
  8
0
100
AcDbLine
 62
9
  6
CONTINUOUS
 10
5.0065040386
 20
16.3353974817
 11
4.928635497
 21
16.2902030264
  0
LINE
  5
5BE
100
AcDbEntity
  8
0
100
AcDbLine
 62
9
  6
CONTINUOUS
 10
4.7642569699
 20
16.1974958141
 11
4.7780747159
 21
16.2055436989
  0
SPLINE
  5
5BF
100
AcDbEntity
  8
0
100
AcDbSpline
 62
9
  6
CONTINUOUS
 70
0
 71
3
 72
11
 73
7
 74
0
 42
0.0000001
 43
0.0000001
 44
0.0000000001
 40
0.0
 40
0.0
 40
0.0
 40
0.0
 40
0.2495284333
 40
0.4992516916
 40
0.7495684194
 40
1.0
 40
1.0
 40
1.0
 40
1.0
 10
5.0369403291
 20
16.3526496309
 30
0.0
 10
5.03465481
 20
16.3513278983
 30
0.0
 10
5.0305781192
 20
16.3476998755
 30
0.0
 10
5.0271593901
 20
16.340307233
 30
0.0
 10
5.0269108284
 20
16.3321572572
 30
0.0
 10
5.028929009
 20
16.3270715829
 30
0.0
 10
5.0303798503
 20
16.3248543358
 30
0.0
  0
SPLINE
  5
5C0
100
AcDbEntity
  8
0
100
AcDbSpline
 62
9
  6
CONTINUOUS
 70
0
 71
3
 72
11
 73
7
 74
0
 42
0.0000001
 43
0.0000001
 44
0.0000000001
 40
0.0
 40
0.0
 40
0.0
 40
0.0
 40
0.2504079772
 40
0.5006299758
 40
0.7504785761
 40
1.0
 40
1.0
 40
1.0
 40
1.0
 10
4.9311036043
 20
16.4968058188
 30
0.0
 10
4.9322995099
 20
16.494441568
 30
0.0
 10
4.9356946116
 20
16.4901537484
 30
0.0
 10
4.9428739436
 20
16.486287635
 30
0.0
 10
4.9509869569
 20
16.4855560244
 30
0.0
 10
4.9561683449
 20
16.4872716559
 30
0.0
 10
4.9584557146
 20
16.4885900613
 30
0.0
  0
LINE
  5
5C1
100
AcDbEntity
  8
0
100
AcDbLine
 62
9
  6
CONTINUOUS
 10
4.8502224741
 20
16.4260183411
 11
4.9283013037
 21
16.4708601275
  0
LINE
  5
5C2
100
AcDbEntity
  8
0
100
AcDbLine
 62
9
  6
CONTINUOUS
 10
4.7016250892
 20
16.3379586217
 11
4.6877455904
 21
16.3300155002
  0
SPLINE
  5
5C3
100
AcDbEntity
  8
0
100
AcDbSpline
 62
9
  6
CONTINUOUS
 70
0
 71
3
 72
52
 73
48
 74
0
 42
0.0000001
 43
0.0000001
 44
0.0000000001
 40
0.0
 40
0.0
 40
0.0
 40
0.0
 40
0.0982555675
 40
0.1869312575
 40
0.2634128016
 40
0.2964989921
 40
0.325879154
 40
0.3513632527
 40
0.3626001144
 40
0.3728126928
 40
0.3819853919
 40
0.3901026432
 40
0.3971489227
 40
0.4031087855
 40
0.4079691779
 40
0.4099859225
 40
0.4117269894
 40
0.4131924444
 40
0.4143825102
 40
0.415297755
 40
0.4159396838
 40
0.4161595881
 40
0.4163141936
 40
0.4164093072
 40
0.4164709298
 40
0.4165612813
 40
0.4167101203
 40
0.4172048972
 40
0.4190134629
 40
0.421927729
 40
0.425950303
 40
0.431072683
 40
0.4372834904
 40
0.4445710803
 40
0.4529236824
 40
0.4623294594
 40
0.4727765352
 40
0.4842530098
 40
0.5102280108
 40
0.5400692043
 40
0.5735739752
 40
0.6105396538
 40
0.6507530774
 40
0.6939615446
 40
0.7883154021
 40
0.8913235072
 40
1.0
 40
1.0
 40
1.0
 40
1.0
 10
4.6877455904
 20
16.3300155002
 30
0.0
 10
4.6849262224
 20
16.3284027744
 30
0.0
 10
4.6795599178
 20
16.3253388518
 30
0.0
 10
4.671989732
 20
16.3210359133
 30
0.0
 10
4.6662844698
 20
16.3178115872
 30
0.0
 10
4.6622795271
 20
16.3155626005
 30
0.0
 10
4.6597413663
 20
16.3141446453
 30
0.0
 10
4.6578307434
 20
16.3130843523
 30
0.0
 10
4.6564718814
 20
16.3123356251
 30
0.0
 10
4.6555841354
 20
16.3118491978
 30
0.0
 10
4.654785583
 20
16.3114146034
 30
0.0
 10
4.6540775915
 20
16.3110325781
 30
0.0
 10
4.6534615376
 20
16.3107038354
 30
0.0
 10
4.6529387255
 20
16.3104290674
 30
0.0
 10
4.652561346
 20
16.3102349841
 30
0.0
 10
4.6523065407
 20
16.3101075456
 30
0.0
 10
4.6521513866
 20
16.3100317819
 30
0.0
 10
4.6520199591
 20
16.3099696893
 30
0.0
 10
4.6519123542
 20
16.3099212365
 30
0.0
 10
4.6518283954
 20
16.309886318
 30
0.0
 10
4.6517732882
 20
16.3098664311
 30
0.0
 10
4.651740476
 20
16.3098577609
 30
0.0
 10
4.6517254708
 20
16.309855904
 30
0.0
 10
4.6517142492
 20
16.3098559002
 30
0.0
 10
4.6517090088
 20
16.3098637533
 30
0.0
 10
4.6517141186
 20
16.3098735747
 30
0.0
 10
4.6517282598
 20
16.309892425
 30
0.0
 10
4.6517895358
 20
16.3099476681
 30
0.0
 10
4.6519270635
 20
16.3100499246
 30
0.0
 10
4.6521656798
 20
16.3102143594
 30
0.0
 10
4.6524985244
 20
16.3104332581
 30
0.0
 10
4.6529260093
 20
16.3107072061
 30
0.0
 10
4.653446968
 20
16.3110350144
 30
0.0
 10
4.6540605552
 20
16.3114161864
 30
0.0
 10
4.6547657433
 20
16.3118500041
 30
0.0
 10
4.6555615504
 20
16.3123358462
 30
0.0
 10
4.6564469695
 20
16.3128730725
 30
0.0
 10
4.6578025244
 20
16.3136913471
 30
0.0
 10
4.6597103081
 20
16.3148353535
 30
0.0
 10
4.662246717
 20
16.3163469676
 30
0.0
 10
4.6650988366
 20
16.3180385025
 30
0.0
 10
4.6682490942
 20
16.319899486
 30
0.0
 10
4.6716784895
 20
16.321918614
 30
0.0
 10
4.6767463728
 20
16.3248939362
 30
0.0
 10
4.6836110605
 20
16.3289087787
 30
0.0
 10
4.6923528689
 20
16.3340008011
 30
0.0
 10
4.6984048402
 20
16.3375137586
 30
0.0
 10
4.7015131221
 20
16.3393150825
 30
0.0
  0
SPLINE
  5
5C4
100
AcDbEntity
  8
0
100
AcDbSpline
 62
9
  6
CONTINUOUS
 70
0
 71
3
 72
18
 73
14
 74
0
 42
0.0000001
 43
0.0000001
 44
0.0000000001
 40
0.0
 40
0.0
 40
0.0
 40
0.0
 40
0.1680541921
 40
0.3402395392
 40
0.5076172058
 40
0.6597728627
 40
0.7872681677
 40
0.8401989284
 40
0.8853782267
 40
0.9227870482
 40
0.9533209921
 40
0.9784046636
 40
1.0
 40
1.0
 40
1.0
 40
1.0
 10
4.9227927171
 20
16.4900994533
 30
0.0
 10
4.9233688013
 20
16.4890889722
 30
0.0
 10
4.9244903282
 20
16.4870172827
 30
0.0
 10
4.926021437
 20
16.4838535053
 30
0.0
 10
4.9273337763
 20
16.4807110767
 30
0.0
 10
4.9283420609
 20
16.4777834588
 30
0.0
 10
4.928891493
 20
16.4755420144
 30
0.0
 10
4.929100639
 20
16.4739931364
 30
0.0
 10
4.9291434206
 20
16.4730544294
 30
0.0
 10
4.9290813057
 20
16.4722712208
 30
0.0
 10
4.9289206258
 20
16.4716433007
 30
0.0
 10
4.9286673159
 20
16.4711652694
 30
0.0
 10
4.92842628
 20
16.470938206
 30
0.0
 10
4.9282994871
 20
16.4708590574
 30
0.0
  0
LINE
  5
5C5
100
AcDbEntity
  8
0
100
AcDbLine
 62
9
  6
CONTINUOUS
 10
4.9227915313
 20
16.4900992256
 11
4.8413066907
 21
16.4433011868
  0
LINE
  5
5C6
100
AcDbEntity
  8
0
100
AcDbLine
 62
9
  6
CONTINUOUS
 10
4.9391450008
 20
16.2738402633
 11
5.0204157801
 21
16.3210092778
  0
SPLINE
  5
5C7
100
AcDbEntity
  8
0
100
AcDbSpline
 62
9
  6
CONTINUOUS
 70
0
 71
3
 72
33
 73
29
 74
0
 42
0.0000001
 43
0.0000001
 44
0.0000000001
 40
0.0
 40
0.0
 40
0.0
 40
0.0
 40
0.2141699829
 40
0.3145749499
 40
0.4096984086
 40
0.4990605872
 40
0.5822430005
 40
0.6588301565
 40
0.7284469212
 40
0.7907492398
 40
0.8453953399
 40
0.8697539228
 40
0.8921001225
 40
0.9124081243
 40
0.930652124
 40
0.9468063343
 40
0.9608451756
 40
0.9727501235
 40
0.9825118456
 40
0.9865863253
 40
0.9901218254
 40
0.9931173562
 40
0.995572013
 40
0.9974850722
 40
0.9988562797
 40
0.999687079
 40
0.999903235
 40
1.0
 40
1.0
 40
1.0
 40
1.0
 10
4.6970143055
 20
16.2580866352
 30
0.0
 10
4.6920446386
 20
16.2552310464
 30
0.0
 10
4.6847435947
 20
16.251039424
 30
0.0
 10
4.6752310891
 20
16.2455867941
 30
0.0
 10
4.6686145145
 20
16.2417985259
 30
0.0
 10
4.6623959456
 20
16.2382427441
 30
0.0
 10
4.6566059186
 20
16.2349368803
 30
0.0
 10
4.6512725338
 20
16.2318969861
 30
0.0
 10
4.6464221897
 20
16.2291380775
 30
0.0
 10
4.6420795919
 20
16.2266741595
 30
0.0
 10
4.6387879162
 20
16.2248124243
 30
0.0
 10
4.6364251019
 20
16.2234804756
 30
0.0
 10
4.6348618616
 20
16.2226014967
 30
0.0
 10
4.6334402243
 20
16.2218045631
 30
0.0
 10
4.6321620031
 20
16.221090684
 30
0.0
 10
4.631029008
 20
16.2204608622
 30
0.0
 10
4.6300428893
 20
16.2199159951
 30
0.0
 10
4.6292049061
 20
16.2194567715
 30
0.0
 10
4.6285992015
 20
16.2191286118
 30
0.0
 10
4.6281890966
 20
16.2189096057
 30
0.0
 10
4.6279380887
 20
16.218777177
 30
0.0
 10
4.6277245572
 20
16.218666383
 30
0.0
 10
4.6275490175
 20
16.2185773527
 30
0.0
 10
4.627410428
 20
16.2185097457
 30
0.0
 10
4.6273116671
 20
16.2184641855
 30
0.0
 10
4.62724924
 20
16.2184394087
 30
0.0
 10
4.6272219686
 20
16.2184319012
 30
0.0
 10
4.6272114598
 20
16.2184318447
 30
0.0
 10
4.6272101651
 20
16.2184340874
 30
0.0
  0
SPLINE
  5
5C8
100
AcDbEntity
  8
0
100
AcDbSpline
 62
9
  6
CONTINUOUS
 70
0
 71
3
 72
33
 73
29
 74
0
 42
0.0000001
 43
0.0000001
 44
0.0000000001
 40
0.0
 40
0.0
 40
0.0
 40
0.0
 40
0.2141695371
 40
0.3145742699
 40
0.4096975344
 40
0.4990595697
 40
0.5822418824
 40
0.6588289727
 40
0.7284457076
 40
0.7907480339
 40
0.8453941817
 40
0.8697528053
 40
0.892099057
 40
0.9124071218
 40
0.930651195
 40
0.9468054891
 40
0.9608444238
 40
0.9727494752
 40
0.9825113106
 40
0.9865858507
 40
0.9901214135
 40
0.9931170095
 40
0.9955717339
 40
0.9974848631
 40
0.9988561427
 40
0.9996870158
 40
0.999903208
 40
1.0
 40
1.0
 40
1.0
 40
1.0
 10
4.7065982824
 20
16.2414867003
 30
0.0
 10
4.7016404472
 20
16.2386106425
 30
0.0
 10
4.6943598881
 20
16.2343835763
 30
0.0
 10
4.6848815378
 20
16.228871835
 30
0.0
 10
4.6782925275
 20
16.225035855
 30
0.0
 10
4.6721038574
 20
16.2214283108
 30
0.0
 10
4.6663458916
 20
16.2180669324
 30
0.0
 10
4.6610465811
 20
16.2149680307
 30
0.0
 10
4.6562321293
 20
16.2121469599
 30
0.0
 10
4.6519270176
 20
16.2096181131
 30
0.0
 10
4.6486688706
 20
16.2076982996
 30
0.0
 10
4.6463339613
 20
16.2063180108
 30
0.0
 10
4.644791121
 20
16.2054036897
 30
0.0
 10
4.6433901345
 20
16.2045709781
 30
0.0
 10
4.642132782
 20
16.2038209416
 30
0.0
 10
4.641020837
 20
16.2031546467
 30
0.0
 10
4.6400559015
 20
16.2025730741
 30
0.0
 10
4.6392392016
 20
16.20207697
 30
0.0
 10
4.6386521464
 20
16.2017164938
 30
0.0
 10
4.6382574218
 20
16.2014708352
 30
0.0
 10
4.6380172257
 20
16.2013196697
 30
0.0
 10
4.6378145038
 20
16.2011901423
 30
0.0
 10
4.6376496258
 20
16.2010826343
 30
0.0
 10
4.6375217756
 20
16.200996415
 30
0.0
 10
4.6374329336
 20
16.2009336624
 30
0.0
 10
4.637380257
 20
16.2008919879
 30
0.0
 10
4.6373601171
 20
16.2008721201
 30
0.0
 10
4.6373548109
 20
16.2008630483
 30
0.0
 10
4.6373561049
 20
16.2008608042
 30
0.0
  0
SPLINE
  5
5C9
100
AcDbEntity
  8
0
100
AcDbSpline
 62
9
  6
CONTINUOUS
 70
0
 71
3
 72
19
 73
15
 74
0
 42
0.0000001
 43
0.0000001
 44
0.0000000001
 40
0.0
 40
0.0
 40
0.0
 40
0.0
 40
0.1676937914
 40
0.3305020506
 40
0.4829728226
 40
0.6210290756
 40
0.6836738223
 40
0.7416350568
 40
0.7947912894
 40
0.8432364741
 40
0.8872528009
 40
0.9274049783
 40
0.9645877287
 40
1.0
 40
1.0
 40
1.0
 40
1.0
 10
4.7065985394
 20
16.2414868489
 30
0.0
 10
4.7087766098
 20
16.2377429925
 30
0.0
 10
4.7133707617
 20
16.2305351244
 30
0.0
 10
4.7209271641
 20
16.2205905054
 30
0.0
 10
4.7288435111
 20
16.2119394967
 30
0.0
 10
4.7357012915
 20
16.2058861922
 30
0.0
 10
4.7411466646
 20
16.2020058586
 30
0.0
 10
4.7450007606
 20
16.1996952981
 30
0.0
 10
4.7487241588
 20
16.1979121834
 30
0.0
 10
4.7522842051
 20
16.1966704138
 30
0.0
 10
4.7556533196
 20
16.1959858266
 30
0.0
 10
4.7588029741
 20
16.1958761601
 30
0.0
 10
4.7616978018
 20
16.196343187
 30
0.0
 10
4.7634549756
 20
16.197052856
 30
0.0
 10
4.7642556268
 20
16.1974950728
 30
0.0
  0
SPLINE
  5
5CA
100
AcDbEntity
  8
0
100
AcDbSpline
 62
9
  6
CONTINUOUS
 70
0
 71
3
 72
17
 73
13
 74
0
 42
0.0000001
 43
0.0000001
 44
0.0000000001
 40
0.0
 40
0.0
 40
0.0
 40
0.0
 40
0.1239513694
 40
0.2479728474
 40
0.3721716785
 40
0.4344865142
 40
0.496877606
 40
0.6217802423
 40
0.7472368874
 40
0.8102192213
 40
0.8733539181
 40
1.0
 40
1.0
 40
1.0
 40
1.0
 10
5.2811327724
 20
16.5712751844
 30
0.0
 10
5.2833841077
 20
16.5673914946
 30
0.0
 10
5.2870564834
 20
16.5591082362
 30
0.0
 10
5.2898498028
 20
16.5458259164
 30
0.0
 10
5.2897884653
 20
16.5344898848
 30
0.0
 10
5.2883724051
 20
16.5255749353
 30
0.0
 10
5.286062608
 20
16.5168205126
 30
0.0
 10
5.2815252535
 20
16.5063578066
 30
0.0
 10
5.2750854284
 20
16.4969297823
 30
0.0
 10
5.2689480398
 20
16.4901805346
 30
0.0
 10
5.2621985324
 20
16.4839832871
 30
0.0
 10
5.2565295122
 20
16.4800168773
 30
0.0
 10
5.2525599309
 20
16.4777191179
 30
0.0
  0
SPLINE
  5
5CB
100
AcDbEntity
  8
0
100
AcDbSpline
 62
9
  6
CONTINUOUS
 70
0
 71
3
 72
13
 73
9
 74
0
 42
0.0000001
 43
0.0000001
 44
0.0000000001
 40
0.0
 40
0.0
 40
0.0
 40
0.0
 40
0.0819626972
 40
0.1803327953
 40
0.2933021214
 40
0.4188909615
 40
0.6987351342
 40
1.0
 40
1.0
 40
1.0
 40
1.0
 10
5.2811314849
 20
16.5712744584
 30
0.0
 10
5.2704262637
 20
16.5652897716
 30
0.0
 10
5.2469033728
 20
16.5520677615
 30
0.0
 10
5.2087034589
 20
16.5304585975
 30
0.0
 10
5.1648724098
 20
16.505545726
 30
0.0
 10
5.097495387
 20
16.4671055889
 30
0.0
 10
5.0057534578
 20
16.414514179
 30
0.0
 10
4.9304057878
 20
16.3711113004
 30
0.0
 10
4.8913655124
 20
16.3485713345
 30
0.0
  0
SPLINE
  5
5CC
100
AcDbEntity
  8
0
100
AcDbSpline
 62
9
  6
CONTINUOUS
 70
0
 71
3
 72
14
 73
10
 74
0
 42
0.0000001
 43
0.0000001
 44
0.0000000001
 40
0.0
 40
0.0
 40
0.0
 40
0.0
 40
0.2795637387
 40
0.4241096672
 40
0.5650932029
 40
0.6975723339
 40
0.8169034187
 40
0.9189040872
 40
1.0
 40
1.0
 40
1.0
 40
1.0
 10
4.6970143077
 20
16.2580866314
 30
0.0
 10
4.7505842338
 20
16.2887668999
 30
0.0
 10
4.831771217
 20
16.3354512989
 30
0.0
 10
4.939820197
 20
16.3978734147
 30
0.0
 10
5.0196795026
 20
16.4441626459
 30
0.0
 10
5.0946541971
 20
16.4877756975
 30
0.0
 10
5.1621169936
 20
16.527182281
 30
0.0
 10
5.2197038446
 20
16.560999869
 30
0.0
 10
5.2545025071
 20
16.5815856106
 30
0.0
 10
5.2698855921
 20
16.5907531887
 30
0.0
  0
LINE
  5
5CD
100
AcDbEntity
  8
0
100
AcDbLine
 62
7
  6
CONTINUOUS
 10
5.2881956309
 20
16.6012887503
 11
5.2937884591
 21
16.5915677345
  0
SPLINE
  5
5CE
100
AcDbEntity
  8
0
100
AcDbSpline
 62
9
  6
CONTINUOUS
 70
0
 71
3
 72
18
 73
14
 74
0
 42
0.0000001
 43
0.0000001
 44
0.0000000001
 40
0.0
 40
0.0
 40
0.0
 40
0.0
 40
0.1731421154
 40
0.3496504559
 40
0.5199638329
 40
0.6733441305
 40
0.8001386276
 40
0.8520341527
 40
0.8957476025
 40
0.9312421248
 40
0.9593841842
 40
0.9816010715
 40
1.0
 40
1.0
 40
1.0
 40
1.0
 10
5.1684172887
 20
16.6316487952
 30
0.0
 10
5.1690023217
 20
16.6306245955
 30
0.0
 10
5.1701448937
 20
16.6285338273
 30
0.0
 10
5.1717221319
 20
16.6253610116
 30
0.0
 10
5.1730937398
 20
16.622239973
 30
0.0
 10
5.1741730594
 20
16.6193653525
 30
0.0
 10
5.1748003261
 20
16.6171872352
 30
0.0
 10
5.1750812792
 20
16.6156972787
 30
0.0
 10
5.1751767576
 20
16.6148079567
 30
0.0
 10
5.175171683
 20
16.6140744562
 30
0.0
 10
5.1750720623
 20
16.6134944969
 30
0.0
 10
5.1748835951
 20
16.6130586867
 30
0.0
 10
5.1746841851
 20
16.6128540903
 30
0.0
 10
5.1745782926
 20
16.6127870302
 30
0.0
  0
SPLINE
  5
5CF
100
AcDbEntity
  8
0
100
AcDbSpline
 62
9
  6
CONTINUOUS
 70
0
 71
3
 72
18
 73
14
 74
0
 42
0.0000001
 43
0.0000001
 44
0.0000000001
 40
0.0
 40
0.0
 40
0.0
 40
0.0
 40
0.0230429505
 40
0.0493562744
 40
0.0808061382
 40
0.1183989459
 40
0.1626124019
 40
0.2135190205
 40
0.3346360963
 40
0.4790240444
 40
0.6419353472
 40
0.8179348539
 40
1.0
 40
1.0
 40
1.0
 40
1.0
 10
4.9584550909
 20
16.4885896306
 30
0.0
 10
4.9585901945
 20
16.4886739522
 30
0.0
 10
4.9588420051
 20
16.488918243
 30
0.0
 10
4.9590916351
 20
16.4894257497
 30
0.0
 10
4.9592376109
 20
16.4900726887
 30
0.0
 10
4.9592811042
 20
16.4908567778
 30
0.0
 10
4.959221506
 20
16.491773614
 30
0.0
 10
4.9589975163
 20
16.4932524987
 30
0.0
 10
4.9584614798
 20
16.495376915
 30
0.0
 10
4.9575267233
 20
16.498188128
 30
0.0
 10
4.9562668106
 20
16.5012844053
 30
0.0
 10
4.9547053878
 20
16.5045308947
 30
0.0
 10
4.9535190808
 20
16.506704082
 30
0.0
 10
4.95288928
 20
16.5077934445
 30
0.0
  0
SPLINE
  5
5D0
100
AcDbEntity
  8
0
100
AcDbSpline
 62
9
  6
CONTINUOUS
 70
0
 71
3
 72
21
 73
17
 74
0
 42
0.0000001
 43
0.0000001
 44
0.0000000001
 40
0.0
 40
0.0
 40
0.0
 40
0.0
 40
0.0618014329
 40
0.1236846576
 40
0.1855641455
 40
0.2475132131
 40
0.3095861662
 40
0.3717911583
 40
0.4963939371
 40
0.6215285467
 40
0.6843452597
 40
0.7472573979
 40
0.8103242048
 40
0.8735845966
 40
0.9368805299
 40
1.0
 40
1.0
 40
1.0
 40
1.0
 10
5.1684168109
 20
16.6316485655
 30
0.0
 10
5.1708958022
 20
16.6330073082
 30
0.0
 10
5.1759502337
 20
16.635561769
 30
0.0
 10
5.1838080281
 20
16.6387965457
 30
0.0
 10
5.1919349154
 20
16.6413156801
 30
0.0
 10
5.200283089
 20
16.6430061485
 30
0.0
 10
5.2087702397
 20
16.6438806835
 30
0.0
 10
5.2201680925
 20
16.6439639422
 30
0.0
 10
5.2344024782
 20
16.6420218534
 30
0.0
 10
5.247994094
 20
16.6372618802
 30
0.0
 10
5.2581486632
 20
16.6318831573
 30
0.0
 10
5.2653458074
 20
16.6270826272
 30
0.0
 10
5.2720461931
 20
16.6215809329
 30
0.0
 10
5.2781969866
 20
16.6154453999
 30
0.0
 10
5.283699958
 20
16.6087174648
 30
0.0
 10
5.2868225738
 20
16.6038288316
 30
0.0
 10
5.2882109986
 20
16.601297357
 30
0.0
  0
SPLINE
  5
5D1
100
AcDbEntity
  8
0
100
AcDbSpline
 62
9
  6
CONTINUOUS
 70
0
 71
3
 72
17
 73
13
 74
0
 42
0.0000001
 43
0.0000001
 44
0.0000000001
 40
0.0
 40
0.0
 40
0.0
 40
0.0
 40
0.1266459788
 40
0.1897810335
 40
0.25276368
 40
0.3782203438
 40
0.5031228222
 40
0.5655140402
 40
0.6278290735
 40
0.7520278303
 40
0.8760480822
 40
1.0
 40
1.0
 40
1.0
 40
1.0
 10
5.1745782233
 20
16.6127869885
 30
0.0
 10
5.1785529308
 20
16.6150758766
 30
0.0
 10
5.1848224708
 20
16.6180021961
 30
0.0
 10
5.1935642248
 20
16.6207488492
 30
0.0
 10
5.2024779707
 20
16.6226894004
 30
0.0
 10
5.2138628155
 20
16.6235524811
 30
0.0
 10
5.2251924818
 20
16.6222505769
 30
0.0
 10
5.2339289446
 20
16.619873673
 30
0.0
 10
5.2423575605
 20
16.6166425112
 30
0.0
 10
5.2522055077
 20
16.6110276502
 30
0.0
 10
5.2623117386
 20
16.6019674803
 30
0.0
 10
5.2676490328
 20
16.5946454627
 30
0.0
 10
5.2698867403
 20
16.5907538736
 30
0.0
  0
SPLINE
  5
5D2
100
AcDbEntity
  8
0
100
AcDbSpline
 62
9
  6
CONTINUOUS
 70
0
 71
3
 72
19
 73
15
 74
0
 42
0.0000001
 43
0.0000001
 44
0.0000000001
 40
0.0
 40
0.0
 40
0.0
 40
0.0
 40
0.1676930349
 40
0.3305006624
 40
0.4829710362
 40
0.6210271997
 40
0.6836720259
 40
0.7416334199
 40
0.7947898884
 40
0.843235377
 40
0.8872520615
 40
0.9274046105
 40
0.9645876477
 40
1.0
 40
1.0
 40
1.0
 40
1.0
 10
4.6970147586
 20
16.2580868914
 30
0.0
 10
4.6948615321
 20
16.2618450569
 30
0.0
 10
4.6909164345
 20
16.2694275919
 30
0.0
 10
4.6860823674
 20
16.2809438653
 30
0.0
 10
4.6825485544
 20
16.2921250693
 30
0.0
 10
4.6807351218
 20
16.3010906984
 30
0.0
 10
4.6800973231
 20
16.3077466826
 30
0.0
 10
4.6800233483
 20
16.3122397088
 30
0.0
 10
4.680340801
 20
16.3163558334
 30
0.0
 10
4.6810453924
 20
16.320059828
 30
0.0
 10
4.6821370495
 20
16.3233198894
 30
0.0
 10
4.6836168685
 20
16.326102442
 30
0.0
 10
4.6854686977
 20
16.3283759709
 30
0.0
 10
4.6869618476
 20
16.329542937
 30
0.0
 10
4.6877451308
 20
16.330015235
 30
0.0
  0
SPLINE
  5
5D3
100
AcDbEntity
  8
0
100
AcDbSpline
 62
7
  6
CONTINUOUS
 70
0
 71
3
 72
9
 73
5
 74
0
 42
0.0000001
 43
0.0000001
 44
0.0000000001
 40
0.0
 40
0.0
 40
0.0
 40
0.0
 40
0.4892899584
 40
1.0
 40
1.0
 40
1.0
 40
1.0
 10
12.2008348773
 20
8.0013876121
 30
0.0
 10
12.2173799928
 20
7.8172816618
 30
0.0
 10
12.2655113433
 20
7.4422207479
 30
0.0
 10
12.3370381194
 20
7.0710435916
 30
0.0
 10
12.3784130802
 20
6.8825919798
 30
0.0
  0
SPLINE
  5
5D4
100
AcDbEntity
  8
0
100
AcDbSpline
 62
7
  6
CONTINUOUS
 70
0
 71
3
 72
63
 73
59
 74
0
 42
0.0000001
 43
0.0000001
 44
0.0000000001
 40
0.0
 40
0.0
 40
0.0
 40
0.0
 40
0.017138573
 40
0.0346410103
 40
0.0524986563
 40
0.0707007929
 40
0.0892349323
 40
0.108086883
 40
0.1466755135
 40
0.186320713
 40
0.2268610747
 40
0.2681248162
 40
0.30993102
 40
0.3520878004
 40
0.3943974685
 40
0.47866864
 40
0.5202198029
 40
0.5611025899
 40
0.6011066524
 40
0.6400214343
 40
0.6776367822
 40
0.7137412101
 40
0.7311618574
 40
0.7481267432
 40
0.7646100361
 40
0.7805865632
 40
0.7960319479
 40
0.8109214418
 40
0.8252290246
 40
0.8389297813
 40
0.8520005029
 40
0.8644197453
 40
0.8761660432
 40
0.8872199409
 40
0.8975628905
 40
0.9071788078
 40
0.9160576935
 40
0.9241962486
 40
0.9316049221
 40
0.935045743
 40
0.9383165692
 40
0.9443807168
 40
0.9472087043
 40
0.9499233965
 40
0.9525428044
 40
0.9550908365
 40
0.9575991122
 40
0.9601005164
 40
0.9626280109
 40
0.965213081
 40
0.9678843031
 40
0.97067076
 40
0.9736022601
 40
0.9767083105
 40
0.9835226618
 40
0.991247955
 40
0.9954906872
 40
1.0
 40
1.0
 40
1.0
 40
1.0
 10
12.3784130802
 20
6.8825919798
 30
0.0
 10
12.4012176948
 20
6.7787232075
 30
0.0
 10
12.4503029153
 20
6.5694278077
 30
0.0
 10
12.5328041938
 20
6.2542692359
 30
0.0
 10
12.6245075687
 20
5.9347947601
 30
0.0
 10
12.7249496283
 20
5.6112551887
 30
0.0
 10
12.8336693027
 20
5.2838979538
 30
0.0
 10
12.9902617763
 20
4.8392303463
 30
0.0
 10
13.2044203006
 20
4.2760679159
 30
0.0
 10
13.4852516811
 20
3.5946138036
 30
0.0
 10
13.7883641823
 20
2.9046232066
 30
0.0
 10
14.110217928
 20
2.2083931175
 30
0.0
 10
14.4472581833
 20
1.5082518627
 30
0.0
 10
14.795979816
 20
0.8066107877
 30
0.0
 10
15.2711669611
 20
-0.1263547751
 30
0.0
 10
15.7546756011
 20
-1.0508044054
 30
0.0
 10
16.2371620193
 20
-1.9657651188
 30
0.0
 10
16.5913555432
 20
-2.6378597771
 30
0.0
 10
16.9360175815
 20
-3.2964843561
 30
0.0
 10
17.2675923011
 20
-3.939067167
 30
0.0
 10
17.5825057612
 20
-4.5629933478
 30
0.0
 10
17.8309879257
 20
-5.0710191667
 30
0.0
 10
18.0181125705
 20
-5.4663567772
 30
0.0
 10
18.150364277
 20
-5.7529547681
 30
0.0
 10
18.2757523918
 20
-6.0328320052
 30
0.0
 10
18.3938248851
 20
-6.3056312006
 30
0.0
 10
18.5041236486
 20
-6.5709886355
 30
0.0
 10
18.6061988266
 20
-6.8285115708
 30
0.0
 10
18.6996383107
 20
-7.0777663361
 30
0.0
 10
18.784017007
 20
-7.3183084618
 30
0.0
 10
18.8589139705
 20
-7.5496895592
 30
0.0
 10
18.923893357
 20
-7.7714461789
 30
0.0
 10
18.9785879465
 20
-7.9830680905
 30
0.0
 10
19.0226019979
 20
-8.1840078675
 30
0.0
 10
19.055670217
 20
-8.3736452497
 30
0.0
 10
19.0775623429
 20
-8.5513228437
 30
0.0
 10
19.0881734146
 20
-8.7163484223
 30
0.0
 10
19.0876265754
 20
-8.8680394709
 30
0.0
 10
19.0777552949
 20
-8.9856070049
 30
0.0
 10
19.0642655935
 20
-9.0722121177
 30
0.0
 10
19.0481751393
 20
-9.1498554793
 30
0.0
 10
19.0270210262
 20
-9.2225098975
 30
0.0
 10
19.0004589948
 20
-9.2894959976
 30
0.0
 10
18.9787807364
 20
-9.3353078533
 30
0.0
 10
18.9549509901
 20
-9.3780599396
 30
0.0
 10
18.9288884129
 20
-9.4179726199
 30
0.0
 10
18.9003724103
 20
-9.4552571291
 30
0.0
 10
18.8691929966
 20
-9.4901745664
 30
0.0
 10
18.8351424073
 20
-9.5229844654
 30
0.0
 10
18.7980216257
 20
-9.5539472287
 30
0.0
 10
18.757441297
 20
-9.5830687724
 30
0.0
 10
18.7130455772
 20
-9.6103287666
 30
0.0
 10
18.6644823204
 20
-9.6357052536
 30
0.0
 10
18.5915125144
 20
-9.667989318
 30
0.0
 10
18.4874136137
 20
-9.7027757168
 30
0.0
 10
18.3733443618
 20
-9.7276235049
 30
0.0
 10
18.2721615186
 20
-9.742453592
 30
0.0
 10
18.2181168208
 20
-9.7479741311
 30
0.0
 10
18.1902315444
 20
-9.750271162
 30
0.0
  0
SPLINE
  5
5D5
100
AcDbEntity
  8
0
100
AcDbSpline
 62
7
  6
CONTINUOUS
 70
0
 71
3
 72
9
 73
5
 74
0
 42
0.0000001
 43
0.0000001
 44
0.0000000001
 40
0.0
 40
0.0
 40
0.0
 40
0.0
 40
0.2383369768
 40
1.0
 40
1.0
 40
1.0
 40
1.0
 10
18.1902315444
 20
-9.750271162
 30
0.0
 10
18.1742317527
 20
-9.7515891341
 30
0.0
 10
18.1070391674
 20
-9.7563608548
 30
0.0
 10
18.0396486527
 20
-9.7581889744
 30
0.0
 10
17.9883442953
 20
-9.7581970661
 30
0.0
  0
SPLINE
  5
5D6
100
AcDbEntity
  8
0
100
AcDbSpline
 62
7
  6
CONTINUOUS
 70
0
 71
3
 72
9
 73
5
 74
0
 42
0.0000001
 43
0.0000001
 44
0.0000000001
 40
0.0
 40
0.0
 40
0.0
 40
0.0
 40
0.4816438192
 40
1.0
 40
1.0
 40
1.0
 40
1.0
 10
17.8196025701
 20
-9.7535513467
 30
0.0
 10
17.7651100346
 20
-9.7506479683
 30
0.0
 10
17.6521017295
 20
-9.7420095209
 30
0.0
 10
17.5395360011
 20
-9.7288852945
 30
0.0
 10
17.4813283982
 20
-9.7210746392
 30
0.0
  0
SPLINE
  5
5D7
100
AcDbEntity
  8
0
100
AcDbSpline
 62
7
  6
CONTINUOUS
 70
0
 71
3
 72
9
 73
5
 74
0
 42
0.0000001
 43
0.0000001
 44
0.0000000001
 40
0.0
 40
0.0
 40
0.0
 40
0.0
 40
0.4797939593
 40
1.0
 40
1.0
 40
1.0
 40
1.0
 10
17.9886216338
 20
-10.3182226703
 30
0.0
 10
17.8954040541
 20
-10.3182242221
 30
0.0
 10
17.7010790004
 20
-10.3103224281
 30
0.0
 10
17.5077760425
 20
-10.289591739
 30
0.0
 10
17.4076047484
 20
-10.2761501366
 30
0.0
  0
SPLINE
  5
5D8
100
AcDbEntity
  8
0
100
AcDbSpline
 62
7
  6
CONTINUOUS
 70
0
 71
3
 72
27
 73
23
 74
0
 42
0.0000001
 43
0.0000001
 44
0.0000000001
 40
0.0
 40
0.0
 40
0.0
 40
0.0
 40
0.0626392289
 40
0.1253184685
 40
0.187968024
 40
0.2505978804
 40
0.2819169196
 40
0.3132309643
 40
0.3445384161
 40
0.3758385227
 40
0.4383979432
 40
0.5009245462
 40
0.5634161535
 40
0.6258717498
 40
0.6570953021
 40
0.6883105684
 40
0.7195176299
 40
0.7507158795
 40
0.8130669238
 40
0.8753968268
 40
0.9377269389
 40
1.0
 40
1.0
 40
1.0
 40
1.0
 10
6.0448141715
 20
-5.1125210481
 30
0.0
 10
6.0368439908
 20
-5.2139261385
 30
0.0
 10
6.0304918435
 20
-5.4176831926
 30
0.0
 10
6.0497039377
 20
-5.7227473574
 30
0.0
 10
6.0976085876
 20
-6.0246393251
 30
0.0
 10
6.1610451392
 20
-6.2713186741
 30
0.0
 10
6.225538914
 20
-6.4642996507
 30
0.0
 10
6.2806702619
 20
-6.6065985301
 30
0.0
 10
6.3424505421
 20
-6.7461063266
 30
0.0
 10
6.4334791853
 20
-6.9279068174
 30
0.0
 10
6.5631572944
 20
-7.1467311867
 30
0.0
 10
6.7428105113
 20
-7.3932656937
 30
0.0
 10
6.9448235125
 20
-7.6216135985
 30
0.0
 10
7.1304135413
 20
-7.7950497283
 30
0.0
 10
7.2880984589
 20
-7.9226958193
 30
0.0
 10
7.4107566043
 20
-8.0126841769
 30
0.0
 10
7.5375168112
 20
-8.0967207175
 30
0.0
 10
7.711537027
 20
-8.2005676867
 30
0.0
 10
7.9379635921
 20
-8.3146490552
 30
0.0
 10
8.221346006
 20
-8.4250725258
 30
0.0
 10
8.5138197348
 20
-8.5079672263
 30
0.0
 10
8.7132024764
 20
-8.5444879075
 30
0.0
 10
8.8134273984
 20
-8.5579367061
 30
0.0
  0
SPLINE
  5
5D9
100
AcDbEntity
  8
0
100
AcDbSpline
 62
7
  6
CONTINUOUS
 70
0
 71
3
 72
29
 73
25
 74
0
 42
0.0000001
 43
0.0000001
 44
0.0000000001
 40
0.0
 40
0.0
 40
0.0
 40
0.0
 40
0.0625923775
 40
0.125225059
 40
0.1878302491
 40
0.2191344308
 40
0.2504370648
 40
0.2817378229
 40
0.3130351533
 40
0.3443276435
 40
0.3756146959
 40
0.438154225
 40
0.5006699962
 40
0.5631603862
 40
0.6256246535
 40
0.6568562011
 40
0.6880818657
 40
0.7193016637
 40
0.7505148916
 40
0.7817207864
 40
0.8129198729
 40
0.8752933103
 40
0.9376727187
 40
1.0
 40
1.0
 40
1.0
 40
1.0
 10
5.4865359147
 20
-5.068641805
 30
0.0
 10
5.4771840328
 20
-5.1876263635
 30
0.0
 10
5.4697358414
 20
-5.4267110945
 30
0.0
 10
5.4922904768
 20
-5.7846493907
 30
0.0
 10
5.539183114
 20
-6.0799354066
 30
0.0
 10
5.5932093685
 20
-6.312570895
 30
0.0
 10
5.6419324811
 20
-6.4849509558
 30
0.0
 10
5.6987251479
 20
-6.654824879
 30
0.0
 10
5.7634521064
 20
-6.8218162707
 30
0.0
 10
5.8359874761
 20
-6.98554316
 30
0.0
 10
5.9428708527
 20
-7.1989205459
 30
0.0
 10
6.0951472485
 20
-7.4557732411
 30
0.0
 10
6.3061215671
 20
-7.7451740444
 30
0.0
 10
6.5433800328
 20
-8.0132581354
 30
0.0
 10
6.7613667535
 20
-8.2168922856
 30
0.0
 10
6.9465925935
 20
-8.36677869
 30
0.0
 10
7.0906887795
 20
-8.4724574274
 30
0.0
 10
7.2396086899
 20
-8.5711518475
 30
0.0
 10
7.3930067371
 20
-8.6626572593
 30
0.0
 10
7.5505449946
 20
-8.7467609408
 30
0.0
 10
7.7655966729
 20
-8.8487267547
 30
0.0
 10
8.0431445002
 20
-8.9568567566
 30
0.0
 10
8.3868393875
 20
-9.0542401936
 30
0.0
 10
8.6211603706
 20
-9.0971562969
 30
0.0
 10
8.7389506626
 20
-9.1129621252
 30
0.0
  0
SPLINE
  5
5DA
100
AcDbEntity
  8
0
100
AcDbSpline
 62
7
  6
CONTINUOUS
 70
0
 71
3
 72
66
 73
62
 74
0
 42
0.0000001
 43
0.0000001
 44
0.0000000001
 40
0.0
 40
0.0
 40
0.0
 40
0.0
 40
0.0140963273
 40
0.0286764916
 40
0.0437328935
 40
0.0592544067
 40
0.0752270241
 40
0.0916345466
 40
0.108458618
 40
0.1256789378
 40
0.1432736749
 40
0.1612206172
 40
0.1980774416
 40
0.2360553527
 40
0.2749460393
 40
0.3145321401
 40
0.3545939669
 40
0.394908997
 40
0.4352507403
 40
0.4753901098
 40
0.5150987525
 40
0.5541495613
 40
0.5923169666
 40
0.6293780807
 40
0.6651165172
 40
0.6824247285
 40
0.6993250772
 40
0.7157936733
 40
0.7318076566
 40
0.7473450129
 40
0.762384977
 40
0.7769106557
 40
0.7909085784
 40
0.8043675028
 40
0.8172790332
 40
0.8296406021
 40
0.8414565651
 40
0.8527403903
 40
0.8581907763
 40
0.8635185019
 40
0.8687285626
 40
0.8738270118
 40
0.8788210808
 40
0.883719158
 40
0.8932590731
 40
0.9025340056
 40
0.9071045464
 40
0.9116403473
 40
0.9161521656
 40
0.9206541644
 40
0.925158091
 40
0.9296697602
 40
0.9341958387
 40
0.9387446666
 40
0.9479526982
 40
0.9574022389
 40
0.9671916099
 40
0.9774658029
 40
0.9828267833
 40
0.9883585095
 40
1.0
 40
1.0
 40
1.0
 40
1.0
 10
12.760457727
 20
8.0013876121
 30
0.0
 10
12.769966159
 20
7.9039924515
 30
0.0
 10
12.7935495339
 20
7.7062549725
 30
0.0
 10
12.8409173446
 20
7.4063126658
 30
0.0
 10
12.9004213783
 20
7.098461607
 30
0.0
 10
12.9716017609
 20
6.7831913496
 30
0.0
 10
13.0540059713
 20
6.4609830917
 30
0.0
 10
13.1471146871
 20
6.1323017908
 30
0.0
 10
13.2504017797
 20
5.7976053086
 30
0.0
 10
13.3633431779
 20
5.4573515686
 30
0.0
 10
13.485419356
 20
5.1119917365
 30
0.0
 10
13.6612076279
 20
4.6411152987
 30
0.0
 10
13.9009335603
 20
4.043179619
 30
0.0
 10
14.2137817647
 20
3.3182413753
 30
0.0
 10
14.5499946892
 20
2.5829719806
 30
0.0
 10
14.9052648676
 20
1.8406684345
 30
0.0
 10
15.2752331089
 20
1.094540723
 30
0.0
 10
15.6555295136
 20
0.347742773
 30
0.0
 10
16.0417965103
 20
-0.396584081
 30
0.0
 10
16.4296843137
 20
-1.1353118954
 30
0.0
 10
16.8148437365
 20
-1.8653466733
 30
0.0
 10
17.1929354173
 20
-2.5836326032
 30
0.0
 10
17.5596359266
 20
-3.2871414919
 30
0.0
 10
17.9106468919
 20
-3.9728791885
 30
0.0
 10
18.1894032532
 20
-4.5328969848
 30
0.0
 10
18.4005339776
 20
-4.9701803942
 30
0.0
 10
18.5505459911
 20
-5.2884069788
 30
0.0
 10
18.6933821932
 20
-5.6000632281
 30
0.0
 10
18.8285097967
 20
-5.9048182267
 30
0.0
 10
18.9553964379
 20
-6.2023453637
 30
0.0
 10
19.0735268822
 20
-6.4923330851
 30
0.0
 10
19.1823433745
 20
-6.7745227122
 30
0.0
 10
19.2812745399
 20
-7.0486932248
 30
0.0
 10
19.369756058
 20
-7.3146354965
 30
0.0
 10
19.4472413022
 20
-7.5721554832
 30
0.0
 10
19.5131285154
 20
-7.8211176585
 30
0.0
 10
19.566803287
 20
-8.0614415671
 30
0.0
 10
19.6011518818
 20
-8.2567342054
 30
0.0
 10
19.6214957694
 20
-8.408551625
 30
0.0
 10
19.6330272432
 20
-8.5189600572
 30
0.0
 10
19.640863884
 20
-8.6272453124
 30
0.0
 10
19.6448486445
 20
-8.7334253501
 30
0.0
 10
19.6448232033
 20
-8.8375204895
 30
0.0
 10
19.6392985543
 20
-8.9723363632
 30
0.0
 10
19.6216920156
 20
-9.1362722316
 30
0.0
 10
19.587374233
 20
-9.2953404868
 30
0.0
 10
19.54918538
 20
-9.4171748639
 30
0.0
 10
19.5150983012
 20
-9.5054318781
 30
0.0
 10
19.4752028528
 20
-9.5907024901
 30
0.0
 10
19.4292706023
 20
-9.6726355325
 30
0.0
 10
19.3772473498
 20
-9.7508460311
 30
0.0
 10
19.319270091
 20
-9.8249646263
 30
0.0
 10
19.2554656067
 20
-9.8945657761
 30
0.0
 10
19.1624377859
 20
-9.9810821863
 30
0.0
 10
19.0315361276
 20
-10.0761959726
 30
0.0
 10
18.855801946
 20
-10.1677010378
 30
0.0
 10
18.6623661703
 20
-10.2369153937
 30
0.0
 10
18.4899168307
 20
-10.2762311849
 30
0.0
 10
18.3445632737
 20
-10.298076661
 30
0.0
 10
18.1888921521
 20
-10.3139958536
 30
0.0
 10
18.0695772832
 20
-10.3182180263
 30
0.0
 10
17.9887608199
 20
-10.3182226652
 30
0.0
  0
SPLINE
  5
5DB
100
AcDbEntity
  8
0
100
AcDbSpline
 62
9
  6
CONTINUOUS
 70
0
 71
3
 72
42
 73
38
 74
0
 42
0.0000001
 43
0.0000001
 44
0.0000000001
 40
0.0
 40
0.0
 40
0.0
 40
0.0
 40
0.0070456937
 40
0.0185290586
 40
0.0343343475
 40
0.0543380455
 40
0.0783494865
 40
0.1061377743
 40
0.1720727494
 40
0.2497588323
 40
0.3364191364
 40
0.4289125629
 40
0.5239251336
 40
0.618024357
 40
0.6636745818
 40
0.7078353174
 40
0.7501032674
 40
0.7901100052
 40
0.8274924372
 40
0.8618969414
 40
0.8930286194
 40
0.9206150837
 40
0.9443871821
 40
0.9547738216
 40
0.9641339242
 40
0.9724477472
 40
0.9796955725
 40
0.9858577251
 40
0.9909149498
 40
0.9930253366
 40
0.9948565189
 40
0.9964083569
 40
0.9976807884
 40
0.9986739158
 40
0.9993882645
 40
0.9998258607
 40
1.0
 40
1.0
 40
1.0
 40
1.0
 10
5.4879720992
 20
-5.0685297362
 30
0.0
 10
5.4892840739
 20
-5.0685297362
 30
0.0
 10
5.4927332828
 20
-5.0686534319
 30
0.0
 10
5.4991189226
 20
-5.0689569378
 30
0.0
 10
5.5079112895
 20
-5.0694581318
 30
0.0
 10
5.5190292203
 20
-5.0701435419
 30
0.0
 10
5.5323714564
 20
-5.0710130324
 30
0.0
 10
5.5542448154
 20
-5.0724921371
 30
0.0
 10
5.5860836612
 20
-5.0747401999
 30
0.0
 10
5.6288501966
 20
-5.0778656065
 30
0.0
 10
5.6765420643
 20
-5.0814453808
 30
0.0
 10
5.7274448629
 20
-5.0853505171
 30
0.0
 10
5.7797226459
 20
-5.0894410328
 30
0.0
 10
5.8232992205
 20
-5.0929161974
 30
0.0
 10
5.857433369
 20
-5.0956795057
 30
0.0
 10
5.881945836
 20
-5.0976846797
 30
0.0
 10
5.9054091636
 20
-5.0996256626
 30
0.0
 10
5.9276127581
 20
-5.1014847705
 30
0.0
 10
5.9483552435
 20
-5.103245053
 30
0.0
 10
5.967448872
 20
-5.1048908097
 30
0.0
 10
5.984722788
 20
-5.1064069624
 30
0.0
 10
6.0000218106
 20
-5.1077795563
 30
0.0
 10
6.0114707699
 20
-5.1088356016
 30
0.0
 10
6.0195380545
 20
-5.1096021746
 30
0.0
 10
6.0247386887
 20
-5.1101077297
 30
0.0
 10
6.029356361
 20
-5.1105691342
 30
0.0
 10
6.0333801113
 20
-5.1109851899
 30
0.0
 10
6.0367989353
 20
-5.1113547296
 30
0.0
 10
6.0392650491
 20
-5.1116374373
 30
0.0
 10
6.0409280432
 20
-5.1118417846
 30
0.0
 10
6.0419428634
 20
-5.1119734549
 30
0.0
 10
6.0428003634
 20
-5.1120927346
 30
0.0
 10
6.0435063397
 20
-5.1121997885
 30
0.0
 10
6.0440450266
 20
-5.1122933297
 30
0.0
 10
6.0444552072
 20
-5.1123748675
 30
0.0
 10
6.044659422
 20
-5.1124378515
 30
0.0
 10
6.0448033259
 20
-5.1124877246
 30
0.0
 10
6.0448026723
 20
-5.1125201444
 30
0.0
  0
SPLINE
  5
5DC
100
AcDbEntity
  8
0
100
AcDbSpline
 62
9
  6
CONTINUOUS
 70
0
 71
3
 72
39
 73
35
 74
0
 42
0.0000001
 43
0.0000001
 44
0.0000000001
 40
0.0
 40
0.0
 40
0.0
 40
0.0
 40
0.0024755853
 40
0.0054588183
 40
0.0092473295
 40
0.013983506
 40
0.0197349786
 40
0.0265351108
 40
0.0343988296
 40
0.0433214591
 40
0.0642807685
 40
0.0892665183
 40
0.1180974735
 40
0.1505117352
 40
0.1862010566
 40
0.2248511703
 40
0.3095600212
 40
0.4014533513
 40
0.49707674
 40
0.592825378
 40
0.6850855632
 40
0.7703927869
 40
0.8455319597
 40
0.8784152591
 40
0.9077494448
 40
0.9332737021
 40
0.9547977599
 40
0.9640080692
 40
0.9721603093
 40
0.9792496885
 40
0.9852873833
 40
0.9902990716
 40
0.9943384468
 40
1.0
 40
1.0
 40
1.0
 40
1.0
 10
8.8134273471
 20
-8.5579370887
 30
0.0
 10
8.8138921537
 20
-8.5580003895
 30
0.0
 10
8.8148833079
 20
-8.5584242855
 30
0.0
 10
8.8161103666
 20
-8.5597119348
 30
0.0
 10
8.8172155307
 20
-8.5616044533
 30
0.0
 10
8.8182206354
 20
-8.5641230778
 30
0.0
 10
8.8191307498
 20
-8.5672735497
 30
0.0
 10
8.81994215
 20
-8.5710583674
 30
0.0
 10
8.8206508714
 20
-8.5754727204
 30
0.0
 10
8.8215025121
 20
-8.5825756768
 30
0.0
 10
8.822240487
 20
-8.5929516446
 30
0.0
 10
8.822670055
 20
-8.6071166632
 30
0.0
 10
8.8226650135
 20
-8.6234586419
 30
0.0
 10
8.8222269167
 20
-8.6418227553
 30
0.0
 10
8.8213585591
 20
-8.6620338784
 30
0.0
 10
8.8195740273
 20
-8.6921200228
 30
0.0
 10
8.8162869733
 20
-8.7327802823
 30
0.0
 10
8.8109797212
 20
-8.7840938924
 30
0.0
 10
8.8043903972
 20
-8.8373672314
 30
0.0
 10
8.7967629798
 20
-8.8905719006
 30
0.0
 10
8.7883948281
 20
-8.941685873
 30
0.0
 10
8.7796080243
 20
-8.988762115
 30
0.0
 10
8.7719215276
 20
-9.0245879546
 30
0.0
 10
8.765734474
 20
-9.0498712459
 30
0.0
 10
8.7614123769
 20
-9.0659278519
 30
0.0
 10
8.7572396303
 20
-9.0797892774
 30
0.0
 10
8.7537706153
 20
-9.0898745565
 30
0.0
 10
8.7510581073
 20
-9.09672733
 30
0.0
 10
8.7491929677
 20
-9.1009697027
 30
0.0
 10
8.7473916045
 20
-9.1045810904
 30
0.0
 10
8.7456678498
 20
-9.1075529722
 30
0.0
 10
8.7440008472
 20
-9.109899229
 30
0.0
 10
8.7421427278
 20
-9.1119295804
 30
0.0
 10
8.7404000102
 20
-9.1129871643
 30
0.0
 10
8.7393272056
 20
-9.1129871643
 30
0.0
  0
SPLINE
  5
5DD
100
AcDbEntity
  8
0
100
AcDbSpline
 62
9
  6
CONTINUOUS
 70
0
 71
3
 72
42
 73
38
 74
0
 42
0.0000001
 43
0.0000001
 44
0.0000000001
 40
0.0
 40
0.0
 40
0.0
 40
0.0
 40
0.0001741393
 40
0.0006117355
 40
0.0013260842
 40
0.0023192116
 40
0.0035916431
 40
0.0051434811
 40
0.0069746634
 40
0.0090850502
 40
0.0141422749
 40
0.0203044275
 40
0.0275522528
 40
0.0358660758
 40
0.0452261784
 40
0.0556128179
 40
0.0793849163
 40
0.1069713806
 40
0.1381030586
 40
0.1725075628
 40
0.2098899948
 40
0.2498967326
 40
0.2921646826
 40
0.3363254182
 40
0.381975643
 40
0.4760748664
 40
0.5710874371
 40
0.6635808636
 40
0.7502411677
 40
0.8279272506
 40
0.8938622257
 40
0.9216505135
 40
0.9456619545
 40
0.9656656525
 40
0.9814709414
 40
0.9929543063
 40
1.0
 40
1.0
 40
1.0
 40
1.0
 10
6.7752082239
 20
4.1804737426
 30
0.0
 10
6.7752088775
 20
4.1805061624
 30
0.0
 10
6.7750649736
 20
4.1805560355
 30
0.0
 10
6.7748607588
 20
4.1806190194
 30
0.0
 10
6.7744505782
 20
4.1807005573
 30
0.0
 10
6.7739118913
 20
4.1807940984
 30
0.0
 10
6.773205915
 20
4.1809011524
 30
0.0
 10
6.772348415
 20
4.181020432
 30
0.0
 10
6.7713335948
 20
4.1811521023
 30
0.0
 10
6.7696706007
 20
4.1813564496
 30
0.0
 10
6.7672044869
 20
4.1816391574
 30
0.0
 10
6.7637856629
 20
4.182008697
 30
0.0
 10
6.7597619125
 20
4.1824247527
 30
0.0
 10
6.7551442402
 20
4.1828861573
 30
0.0
 10
6.7499436061
 20
4.1833917124
 30
0.0
 10
6.7418763215
 20
4.1841582853
 30
0.0
 10
6.7304273621
 20
4.1852143307
 30
0.0
 10
6.7151283396
 20
4.1865869245
 30
0.0
 10
6.6978544236
 20
4.1881030772
 30
0.0
 10
6.6787607951
 20
4.1897488339
 30
0.0
 10
6.6580183097
 20
4.1915091164
 30
0.0
 10
6.6358147152
 20
4.1933682243
 30
0.0
 10
6.6123513876
 20
4.1953092072
 30
0.0
 10
6.5878389206
 20
4.1973143813
 30
0.0
 10
6.5537047721
 20
4.2000776895
 30
0.0
 10
6.5101281974
 20
4.2035528542
 30
0.0
 10
6.4578504145
 20
4.2076433699
 30
0.0
 10
6.4069476159
 20
4.2115485062
 30
0.0
 10
6.3592557482
 20
4.2151282804
 30
0.0
 10
6.3164892128
 20
4.218253687
 30
0.0
 10
6.284650367
 20
4.2205017499
 30
0.0
 10
6.262777008
 20
4.2219808545
 30
0.0
 10
6.2494347719
 20
4.222850345
 30
0.0
 10
6.2383168411
 20
4.2235357552
 30
0.0
 10
6.2295244742
 20
4.2240369492
 30
0.0
 10
6.2231388344
 20
4.224340455
 30
0.0
 10
6.2196896255
 20
4.2244641508
 30
0.0
 10
6.2183776508
 20
4.2244641508
 30
0.0
  0
SPLINE
  5
5DE
100
AcDbEntity
  8
0
100
AcDbSpline
 62
7
  6
CONTINUOUS
 70
0
 71
3
 72
11
 73
7
 74
0
 42
0.0000001
 43
0.0000001
 44
0.0000000001
 40
0.0
 40
0.0
 40
0.0
 40
0.0
 40
0.2889852062
 40
0.5449256202
 40
0.7788128836
 40
1.0
 40
1.0
 40
1.0
 40
1.0
 10
12.9640333566
 20
9.459062832
 30
0.0
 10
12.9594473533
 20
9.4650183899
 30
0.0
 10
12.9498241872
 20
9.4755582883
 30
0.0
 10
12.9334654962
 20
9.487703941
 30
0.0
 10
12.9167344117
 20
9.4958258969
 30
0.0
 10
12.9052453235
 20
9.4989593599
 30
0.0
 10
12.8995870248
 20
9.499999968
 30
0.0
  0
SPLINE
  5
5DF
100
AcDbEntity
  8
0
100
AcDbSpline
 62
7
  6
CONTINUOUS
 70
0
 71
3
 72
9
 73
5
 74
0
 42
0.0000001
 43
0.0000001
 44
0.0000000001
 40
0.0
 40
0.0
 40
0.0
 40
0.0
 40
0.4859086745
 40
1.0
 40
1.0
 40
1.0
 40
1.0
 10
12.8579536753
 20
9.498892578
 30
0.0
 10
12.8528842268
 20
9.4976807307
 30
0.0
 10
12.8426305519
 20
9.4943569128
 30
0.0
 10
12.8330697598
 20
9.4893683983
 30
0.0
 10
12.8283997224
 20
9.486435568
 30
0.0
  0
SPLINE
  5
5E0
100
AcDbEntity
  8
0
100
AcDbSpline
 62
7
  6
CONTINUOUS
 70
0
 71
3
 72
9
 73
5
 74
0
 42
0.0000001
 43
0.0000001
 44
0.0000000001
 40
0.0
 40
0.0
 40
0.0
 40
0.0
 40
0.470899792
 40
1.0
 40
1.0
 40
1.0
 40
1.0
 10
12.8283997224
 20
9.486435568
 30
0.0
 10
12.8230140229
 20
9.4830532947
 30
0.0
 10
12.8122226618
 20
9.4747968785
 30
0.0
 10
12.8031066323
 20
9.4647244761
 30
0.0
 10
12.7987469537
 20
9.459062832
 30
0.0
  0
SPLINE
  5
5E1
100
AcDbEntity
  8
0
100
AcDbSpline
 62
7
  6
CONTINUOUS
 70
0
 71
3
 72
19
 73
15
 74
0
 42
0.0000001
 43
0.0000001
 44
0.0000000001
 40
0.0
 40
0.0
 40
0.0
 40
0.0
 40
0.1249797415
 40
0.1876248481
 40
0.2501601176
 40
0.3126341002
 40
0.3751026304
 40
0.4999999648
 40
0.6248974483
 40
0.6873659872
 40
0.7498398699
 40
0.8123750235
 40
0.8750201073
 40
1.0
 40
1.0
 40
1.0
 40
1.0
 10
12.7161358933
 20
9.459062832
 30
0.0
 10
12.7009361645
 20
9.4671968929
 30
0.0
 10
12.6768792423
 20
9.4771819587
 30
0.0
 10
12.6437400223
 20
9.4868275949
 30
0.0
 10
12.6184643491
 20
9.4924946175
 30
0.0
 10
12.5929358918
 20
9.4966999736
 30
0.0
 10
12.5586763051
 20
9.5005374002
 30
0.0
 10
12.5155854299
 20
9.502425094
 30
0.0
 10
12.4724946551
 20
9.5005362685
 30
0.0
 10
12.4382350155
 20
9.4966993498
 30
0.0
 10
12.4127064888
 20
9.4924945948
 30
0.0
 10
12.3874307348
 20
9.4868280535
 30
0.0
 10
12.3542915121
 20
9.4771823508
 30
0.0
 10
12.3302347437
 20
9.4671969027
 30
0.0
 10
12.3150349965
 20
9.459062832
 30
0.0
  0
SPLINE
  5
5E2
100
AcDbEntity
  8
0
100
AcDbSpline
 62
7
  6
CONTINUOUS
 70
0
 71
3
 72
14
 73
10
 74
0
 42
0.0000001
 43
0.0000001
 44
0.0000000001
 40
0.0
 40
0.0
 40
0.0
 40
0.0
 40
0.1383474719
 40
0.2699318927
 40
0.5193321629
 40
0.6404425731
 40
0.7604655353
 40
0.8800946917
 40
1.0
 40
1.0
 40
1.0
 40
1.0
 10
12.2221369816
 20
9.459062832
 30
0.0
 10
12.2168760449
 20
9.4638515338
 30
0.0
 10
12.2059427165
 20
9.4724947273
 30
0.0
 10
12.1828789759
 20
9.4860722093
 30
0.0
 10
12.1583802424
 20
9.4950268316
 30
0.0
 10
12.1335901191
 20
9.4998197773
 30
0.0
 10
12.1151023514
 20
9.5016585335
 30
0.0
 10
12.0965901274
 20
9.5018075638
 30
0.0
 10
12.0842956388
 20
9.5007785772
 30
0.0
 10
12.0781809065
 20
9.4999875266
 30
0.0
  0
SPLINE
  5
5E3
100
AcDbEntity
  8
0
100
AcDbSpline
 62
7
  6
CONTINUOUS
 70
0
 71
3
 72
11
 73
7
 74
0
 42
0.0000001
 43
0.0000001
 44
0.0000000001
 40
0.0
 40
0.0
 40
0.0
 40
0.0
 40
0.2367184308
 40
0.4790571681
 40
0.7317114595
 40
1.0
 40
1.0
 40
1.0
 40
1.0
 10
12.0781809065
 20
9.4999875266
 30
0.0
 10
12.0701942847
 20
9.4989543134
 30
0.0
 10
12.0541324584
 20
9.4959031351
 30
0.0
 10
12.0304661035
 20
9.487920591
 30
0.0
 10
12.0072849722
 20
9.4759854793
 30
0.0
 10
11.993072211
 20
9.4652066832
 30
0.0
 10
11.9863224877
 20
9.459062832
 30
0.0
  0
SPLINE
  5
5E4
100
AcDbEntity
  8
0
100
AcDbSpline
 62
7
  6
CONTINUOUS
 70
0
 71
3
 72
11
 73
7
 74
0
 42
0.0000001
 43
0.0000001
 44
0.0000000001
 40
0.0
 40
0.0
 40
0.0
 40
0.0
 40
0.26830995
 40
0.5209670547
 40
0.7632991128
 40
1.0
 40
1.0
 40
1.0
 40
1.0
 10
11.9863224877
 20
9.0537123922
 30
0.0
 10
11.993101836
 20
9.0475415752
 30
0.0
 10
12.0073815164
 20
9.036720494
 30
0.0
 10
12.0306784772
 20
9.0247622098
 30
0.0
 10
12.0544575518
 20
9.0167790467
 30
0.0
 10
12.0705936984
 20
9.0137435627
 30
0.0
 10
12.0786163676
 20
9.0127233443
 30
0.0
  0
SPLINE
  5
5E5
100
AcDbEntity
  8
0
100
AcDbSpline
 62
7
  6
CONTINUOUS
 70
0
 71
3
 72
14
 73
10
 74
0
 42
0.0000001
 43
0.0000001
 44
0.0000000001
 40
0.0
 40
0.0
 40
0.0
 40
0.0
 40
0.1198699721
 40
0.2394817032
 40
0.35949379
 40
0.4805970026
 40
0.7300521138
 40
0.8616561877
 40
1.0
 40
1.0
 40
1.0
 40
1.0
 10
12.0786163676
 20
9.0127233443
 30
0.0
 10
12.0847137172
 20
9.0119479629
 30
0.0
 10
12.0969728433
 20
9.0109479009
 30
0.0
 10
12.1154289242
 20
9.0111312488
 30
0.0
 10
12.1338599557
 20
9.0129902221
 30
0.0
 10
12.1585748873
 20
9.017805927
 30
0.0
 10
12.1829975861
 20
9.0267600496
 30
0.0
 10
12.2059907778
 20
9.0403151247
 30
0.0
 10
12.2168910502
 20
9.0489373488
 30
0.0
 10
12.2221369816
 20
9.0537123922
 30
0.0
  0
SPLINE
  5
5E6
100
AcDbEntity
  8
0
100
AcDbSpline
 62
7
  6
CONTINUOUS
 70
0
 71
3
 72
19
 73
15
 74
0
 42
0.0000001
 43
0.0000001
 44
0.0000000001
 40
0.0
 40
0.0
 40
0.0
 40
0.0
 40
0.1249791493
 40
0.1876569019
 40
0.2502280032
 40
0.3126939037
 40
0.3751348083
 40
0.4999996607
 40
0.6248652443
 40
0.6873067498
 40
0.7497729421
 40
0.8123436751
 40
0.8750210395
 40
1.0
 40
1.0
 40
1.0
 40
1.0
 10
12.3150349965
 20
9.0537123922
 30
0.0
 10
12.3302347762
 20
9.0455783041
 30
0.0
 10
12.3542922558
 20
9.0355823919
 30
0.0
 10
12.3874429306
 20
9.0259400647
 30
0.0
 10
12.4127283196
 20
9.0202782019
 30
0.0
 10
12.438255939
 20
9.0160671604
 30
0.0
 10
12.4725066297
 20
9.0122295404
 30
0.0
 10
12.5155854432
 20
9.0103583427
 30
0.0
 10
12.5586643472
 20
9.0122293142
 30
0.0
 10
12.5929152872
 20
9.0160667386
 30
0.0
 10
12.6184429733
 20
9.0202778536
 30
0.0
 10
12.6437282398
 20
9.0259399744
 30
0.0
 10
12.6768787243
 20
9.0355824686
 30
0.0
 10
12.7009361365
 20
9.0455783164
 30
0.0
 10
12.7161358933
 20
9.0537123922
 30
0.0
  0
SPLINE
  5
5E7
100
AcDbEntity
  8
0
100
AcDbSpline
 62
7
  6
CONTINUOUS
 70
0
 71
3
 72
11
 73
7
 74
0
 42
0.0000001
 43
0.0000001
 44
0.0000000001
 40
0.0
 40
0.0
 40
0.0
 40
0.0
 40
0.2893594109
 40
0.545243334
 40
0.7789359171
 40
1.0
 40
1.0
 40
1.0
 40
1.0
 10
12.7987469537
 20
9.0537123922
 30
0.0
 10
12.8034174815
 20
9.0476470677
 30
0.0
 10
12.8132254268
 20
9.0369279048
 30
0.0
 10
12.8299422949
 20
9.024665573
 30
0.0
 10
12.8470284128
 20
9.0165636179
 30
0.0
 10
12.858745501
 20
9.0135173537
 30
0.0
 10
12.8645113
 20
9.0125379167
 30
0.0
  0
SPLINE
  5
5E8
100
AcDbEntity
  8
0
100
AcDbSpline
 62
7
  6
CONTINUOUS
 70
0
 71
3
 72
11
 73
7
 74
0
 42
0.0000001
 43
0.0000001
 44
0.0000000001
 40
0.0
 40
0.0
 40
0.0
 40
0.0
 40
0.2434979927
 40
0.4870051726
 40
0.7364771288
 40
1.0
 40
1.0
 40
1.0
 40
1.0
 10
12.8645113
 20
9.0125379167
 30
0.0
 10
12.8700859057
 20
9.0115909578
 30
0.0
 10
12.8814178118
 20
9.0106207688
 30
0.0
 10
12.8985340848
 20
9.0120933617
 30
0.0
 10
12.9156228258
 20
9.0165273706
 30
0.0
 10
12.9264730536
 20
9.0216446904
 30
0.0
 10
12.9317515483
 20
9.0247407362
 30
0.0
  0
SPLINE
  5
5E9
100
AcDbEntity
  8
0
100
AcDbSpline
 62
7
  6
CONTINUOUS
 70
0
 71
3
 72
9
 73
5
 74
0
 42
0.0000001
 43
0.0000001
 44
0.0000000001
 40
0.0
 40
0.0
 40
0.0
 40
0.0
 40
0.4691209986
 40
1.0
 40
1.0
 40
1.0
 40
1.0
 10
12.9317515483
 20
9.0247407362
 30
0.0
 10
12.9376298185
 20
9.028188574
 30
0.0
 10
12.9494473285
 20
9.0368152271
 30
0.0
 10
12.9593281982
 20
9.047602095
 30
0.0
 10
12.9640333566
 20
9.0537123922
 30
0.0
  0
SPLINE
  5
5EA
100
AcDbEntity
  8
0
100
AcDbSpline
 62
9
  6
CONTINUOUS
 70
0
 71
3
 72
15
 73
11
 74
0
 42
0.0000001
 43
0.0000001
 44
0.0000000001
 40
0.0
 40
0.0
 40
0.0
 40
0.0
 40
0.0832640045
 40
0.115576479
 40
0.1539444131
 40
0.2513790014
 40
0.3803442046
 40
0.5452378859
 40
0.7503734277
 40
1.0
 40
1.0
 40
1.0
 40
1.0
 10
17.4076047484
 20
-10.2761501366
 30
0.0
 10
17.4089890445
 20
-10.2761501366
 30
0.0
 10
17.4107545289
 20
-10.2748113849
 30
0.0
 10
17.4123966145
 20
-10.2729025691
 30
0.0
 10
17.414041575
 20
-10.2706235083
 30
0.0
 10
17.4162160815
 20
-10.2667938725
 30
0.0
 10
17.4189610768
 20
-10.2608881053
 30
0.0
 10
17.4220038395
 20
-10.2531672654
 30
0.0
 10
17.4253518285
 20
-10.2434214863
 30
0.0
 10
17.4275580196
 20
-10.2361885357
 30
0.0
 10
17.4287185213
 20
-10.2322039554
 30
0.0
  0
SPLINE
  5
5EB
100
AcDbEntity
  8
0
100
AcDbSpline
 62
9
  6
CONTINUOUS
 70
0
 71
3
 72
9
 73
5
 74
0
 42
0.0000001
 43
0.0000001
 44
0.0000000001
 40
0.0
 40
0.0
 40
0.0
 40
0.0
 40
0.4476803209
 40
1.0
 40
1.0
 40
1.0
 40
1.0
 10
17.4287185213
 20
-10.2322039554
 30
0.0
 10
17.4307433137
 20
-10.225251835
 30
0.0
 10
17.4349268417
 20
-10.2096238629
 30
0.0
 10
17.4386561187
 20
-10.1938834335
 30
0.0
 10
17.4406215559
 20
-10.1851688607
 30
0.0
  0
SPLINE
  5
5EC
100
AcDbEntity
  8
0
100
AcDbSpline
 62
9
  6
CONTINUOUS
 70
0
 71
3
 72
14
 73
10
 74
0
 42
0.0000001
 43
0.0000001
 44
0.0000000001
 40
0.0
 40
0.0
 40
0.0
 40
0.0
 40
0.2117028241
 40
0.3377425098
 40
0.4721508594
 40
0.6102343398
 40
0.7473217358
 40
0.878785084
 40
1.0
 40
1.0
 40
1.0
 40
1.0
 10
17.4406215559
 20
-10.1851688607
 30
0.0
 10
17.4456080318
 20
-10.1630592723
 30
0.0
 10
17.4526195308
 20
-10.127572404
 30
0.0
 10
17.4611550608
 20
-10.0777495105
 30
0.0
 10
17.4676900542
 20
-10.0355838676
 30
0.0
 10
17.473721007
 20
-9.9921491392
 30
0.0
 10
17.4789868699
 20
-9.9489324458
 30
0.0
 10
17.4833826488
 20
-9.9074347124
 30
0.0
 10
17.4857856541
 20
-9.8804880606
 30
0.0
 10
17.4868021202
 20
-9.8675506491
 30
0.0
  0
SPLINE
  5
5ED
100
AcDbEntity
  8
0
100
AcDbSpline
 62
9
  6
CONTINUOUS
 70
0
 71
3
 72
9
 73
5
 74
0
 42
0.0000001
 43
0.0000001
 44
0.0000000001
 40
0.0
 40
0.0
 40
0.0
 40
0.0
 40
0.5502427547
 40
1.0
 40
1.0
 40
1.0
 40
1.0
 10
17.4868021202
 20
-9.8675506491
 30
0.0
 10
17.4879080314
 20
-9.8534747961
 30
0.0
 10
17.4896223708
 20
-9.8278690772
 30
0.0
 10
17.4906036619
 20
-9.8022223717
 30
0.0
 10
17.4908089371
 20
-9.7906834252
 30
0.0
  0
SPLINE
  5
5EE
100
AcDbEntity
  8
0
100
AcDbSpline
 62
9
  6
CONTINUOUS
 70
0
 71
3
 72
18
 73
14
 74
0
 42
0.0000001
 43
0.0000001
 44
0.0000000001
 40
0.0
 40
0.0
 40
0.0
 40
0.0
 40
0.2607323407
 40
0.4725627568
 40
0.6400753523
 40
0.7683090142
 40
0.8624175988
 40
0.8983526629
 40
0.9278101701
 40
0.951607291
 40
0.9707180584
 40
0.9863560663
 40
1.0
 40
1.0
 40
1.0
 40
1.0
 10
17.4908089371
 20
-9.7906834252
 30
0.0
 10
17.4909200907
 20
-9.7844352488
 30
0.0
 10
17.4909947157
 20
-9.773107401
 30
0.0
 10
17.4906095332
 20
-9.757768324
 30
0.0
 10
17.4898038802
 20
-9.7456240012
 30
0.0
 10
17.4886585228
 20
-9.736346197
 30
0.0
 10
17.4874188723
 20
-9.7302672116
 30
0.0
 10
17.4862632
 20
-9.7266192749
 30
0.0
 10
17.4854341317
 20
-9.7246447163
 30
0.0
 10
17.4845679043
 20
-9.7231352302
 30
0.0
 10
17.4836627943
 20
-9.7220500159
 30
0.0
 10
17.4827136419
 20
-9.7213573404
 30
0.0
 10
17.4820296175
 20
-9.7211412332
 30
0.0
 10
17.4817053473
 20
-9.7210989585
 30
0.0
  0
ELLIPSE
  5
5EF
100
AcDbEntity
  8
0
100
AcDbEllipse
 62
7
  6
CONTINUOUS
 10
7.8982968228
 20
18.0952813394
 30
0.0
 11
0.0150088799
 21
0.0086653808
 31
0.0
 40
0.9900227071
 41
0.0
 42
6.2831853072
  0
ELLIPSE
  5
5F0
100
AcDbEntity
  8
0
100
AcDbEllipse
 62
7
  6
CONTINUOUS
 10
4.9419169103
 20
16.8707086841
 30
0.0
 11
0.0167402303
 21
0.0044855312
 31
0.0
 40
0.9900227071
 41
0.0
 42
6.2831853072
  0
ELLIPSE
  5
5F1
100
AcDbEntity
  8
0
100
AcDbEllipse
 62
7
  6
CONTINUOUS
 10
4.8869284362
 20
17.2883876121
 30
0.0
 11
0.0173307617
 21
0.0
 31
0.0
 40
0.9900227071
 41
0.0
 42
6.2831853072
  0
ELLIPSE
  5
5F2
100
AcDbEntity
  8
0
100
AcDbEllipse
 62
7
  6
CONTINUOUS
 10
4.9419169103
 20
17.7060665401
 30
0.0
 11
0.0167402303
 21
-0.0044855312
 31
0.0
 40
0.9900227071
 41
0.0
 42
6.2831853072
  0
ELLIPSE
  5
5F3
100
AcDbEntity
  8
0
100
AcDbEllipse
 62
7
  6
CONTINUOUS
 10
7.7935597961
 20
17.8239010917
 30
0.0
 11
0.0161442363
 21
0.0066871616
 31
0.0
 40
0.9960990528
 41
0.0
 42
6.2831853072
  0
ELLIPSE
  5
5F4
100
AcDbEntity
  8
0
100
AcDbEllipse
 62
7
  6
CONTINUOUS
 10
5.1031349588
 20
18.0952813394
 30
0.0
 11
0.0150088799
 21
-0.0086653808
 31
0.0
 40
0.9900227071
 41
0.0
 42
6.2831853072
  0
ELLIPSE
  5
5F5
100
AcDbEntity
  8
0
100
AcDbEllipse
 62
7
  6
CONTINUOUS
 10
5.6488369655
 20
16.1781973821
 30
0.0
 11
0.010637738
 21
0.01386337
 31
0.0
 40
0.9960990528
 41
0.0
 42
6.2831853072
  0
ELLIPSE
  5
5F6
100
AcDbEntity
  8
0
100
AcDbEllipse
 62
7
  6
CONTINUOUS
 10
6.3180622156
 20
15.9009952072
 30
0.0
 11
0.0022808663
 21
0.0173248996
 31
0.0
 40
0.9960990528
 41
0.0
 42
6.2831853072
  0
ELLIPSE
  5
5F7
100
AcDbEntity
  8
0
100
AcDbEllipse
 62
7
  6
CONTINUOUS
 10
7.0362293704
 20
15.9955437069
 30
0.0
 11
-0.0066871616
 21
0.0161442363
 31
0.0
 40
0.9960990528
 41
0.0
 42
6.2831853072
  0
ELLIPSE
  5
5F8
100
AcDbEntity
  8
0
100
AcDbEllipse
 62
7
  6
CONTINUOUS
 10
7.6109061209
 20
16.4365086868
 30
0.0
 11
0.01386337
 21
-0.010637738
 31
0.0
 40
0.9960990528
 41
0.0
 42
6.2831853072
  0
ELLIPSE
  5
5F9
100
AcDbEntity
  8
0
100
AcDbEllipse
 62
7
  6
CONTINUOUS
 10
7.8881082957
 20
17.1057339369
 30
0.0
 11
0.0173248996
 21
-0.0022808663
 31
0.0
 40
0.9960990528
 41
0.0
 42
6.2831853072
  0
ELLIPSE
  5
5FA
100
AcDbEntity
  8
0
100
AcDbEllipse
 62
7
  6
CONTINUOUS
 10
5.3595958383
 20
18.4295076647
 30
0.0
 11
-0.0122546991
 21
0.0122546991
 31
0.0
 40
0.9900227071
 41
0.0
 42
6.2831853072
  0
ELLIPSE
  5
5FB
100
AcDbEntity
  8
0
100
AcDbEllipse
 62
7
  6
CONTINUOUS
 10
8.0595148713
 20
17.7060665401
 30
0.0
 11
0.0167402303
 21
0.0044855312
 31
0.0
 40
0.9900227071
 41
0.0
 42
6.2831853072
  0
ELLIPSE
  5
5FC
100
AcDbEntity
  8
0
100
AcDbEllipse
 62
7
  6
CONTINUOUS
 10
8.1145033454
 20
17.2883876121
 30
0.0
 11
0.0173307617
 21
0.0
 31
0.0
 40
0.9900227071
 41
0.0
 42
6.2831853072
  0
ELLIPSE
  5
5FD
100
AcDbEntity
  8
0
100
AcDbEllipse
 62
7
  6
CONTINUOUS
 10
8.0595148713
 20
16.8707086841
 30
0.0
 11
0.0167402303
 21
-0.0044855312
 31
0.0
 40
0.9900227071
 41
0.0
 42
6.2831853072
  0
ELLIPSE
  5
5FE
100
AcDbEntity
  8
0
100
AcDbEllipse
 62
7
  6
CONTINUOUS
 10
7.8982968228
 20
16.4814938848
 30
0.0
 11
0.0150088799
 21
-0.0086653808
 31
0.0
 40
0.9900227071
 41
0.0
 42
6.2831853072
  0
ELLIPSE
  5
5FF
100
AcDbEntity
  8
0
100
AcDbEllipse
 62
7
  6
CONTINUOUS
 10
7.6418359433
 20
16.1472675596
 30
0.0
 11
-0.0122546991
 21
0.0122546991
 31
0.0
 40
0.9900227071
 41
0.0
 42
6.2831853072
  0
ELLIPSE
  5
600
100
AcDbEntity
  8
0
100
AcDbEllipse
 62
7
  6
CONTINUOUS
 10
5.6938221635
 20
18.6859685441
 30
0.0
 11
-0.0086653808
 21
0.0150088799
 31
0.0
 40
0.9900227071
 41
0.0
 42
6.2831853072
  0
ELLIPSE
  5
601
100
AcDbEntity
  8
0
100
AcDbEllipse
 62
7
  6
CONTINUOUS
 10
7.3076096181
 20
15.8908066802
 30
0.0
 11
-0.0086653808
 21
0.0150088799
 31
0.0
 40
0.9900227071
 41
0.0
 42
6.2831853072
  0
ELLIPSE
  5
602
100
AcDbEntity
  8
0
100
AcDbEllipse
 62
7
  6
CONTINUOUS
 10
6.9183948188
 20
15.7295886316
 30
0.0
 11
-0.0044855312
 21
0.0167402303
 31
0.0
 40
0.9900227071
 41
0.0
 42
6.2831853072
  0
ELLIPSE
  5
603
100
AcDbEntity
  8
0
100
AcDbEllipse
 62
7
  6
CONTINUOUS
 10
6.5007158908
 20
15.6746001575
 30
0.0
 11
-0.0
 21
0.0173307617
 31
0.0
 40
0.9900227071
 41
0.0
 42
6.2831853072
  0
ELLIPSE
  5
604
100
AcDbEntity
  8
0
100
AcDbEllipse
 62
7
  6
CONTINUOUS
 10
6.0830369628
 20
15.7295886316
 30
0.0
 11
0.0044855312
 21
0.0167402303
 31
0.0
 40
0.9900227071
 41
0.0
 42
6.2831853072
  0
ELLIPSE
  5
605
100
AcDbEntity
  8
0
100
AcDbEllipse
 62
7
  6
CONTINUOUS
 10
5.6938221635
 20
15.8908066802
 30
0.0
 11
0.0086653808
 21
0.0150088799
 31
0.0
 40
0.9900227071
 41
0.0
 42
6.2831853072
  0
ELLIPSE
  5
606
100
AcDbEntity
  8
0
100
AcDbEllipse
 62
7
  6
CONTINUOUS
 10
6.0830369628
 20
18.8471865926
 30
0.0
 11
-0.0044855312
 21
0.0167402303
 31
0.0
 40
0.9900227071
 41
0.0
 42
6.2831853072
  0
ELLIPSE
  5
607
100
AcDbEntity
  8
0
100
AcDbEllipse
 62
7
  6
CONTINUOUS
 10
5.3595958383
 20
16.1472675596
 30
0.0
 11
0.0122546991
 21
0.0122546991
 31
0.0
 40
0.9900227071
 41
0.0
 42
6.2831853072
  0
ELLIPSE
  5
608
100
AcDbEntity
  8
0
100
AcDbEllipse
 62
7
  6
CONTINUOUS
 10
6.5007158908
 20
18.9021750667
 30
0.0
 11
-0.0
 21
0.0173307617
 31
0.0
 40
0.9900227071
 41
0.0
 42
6.2831853072
  0
ELLIPSE
  5
609
100
AcDbEntity
  8
0
100
AcDbEllipse
 62
7
  6
CONTINUOUS
 10
7.3525948161
 20
18.3985778422
 30
0.0
 11
0.010637738
 21
0.01386337
 31
0.0
 40
0.9960990528
 41
0.0
 42
6.2831853072
  0
ELLIPSE
  5
60A
100
AcDbEntity
  8
0
100
AcDbEllipse
 62
7
  6
CONTINUOUS
 10
6.6833695661
 20
18.675780017
 30
0.0
 11
0.0022808663
 21
0.0173248996
 31
0.0
 40
0.9960990528
 41
0.0
 42
6.2831853072
  0
ELLIPSE
  5
60B
100
AcDbEntity
  8
0
100
AcDbEllipse
 62
7
  6
CONTINUOUS
 10
5.9652024112
 20
18.5812315174
 30
0.0
 11
-0.0066871616
 21
0.0161442363
 31
0.0
 40
0.9960990528
 41
0.0
 42
6.2831853072
  0
ELLIPSE
  5
60C
100
AcDbEntity
  8
0
100
AcDbEllipse
 62
7
  6
CONTINUOUS
 10
5.3905256608
 20
18.1402665374
 30
0.0
 11
0.01386337
 21
-0.010637738
 31
0.0
 40
0.9960990528
 41
0.0
 42
6.2831853072
  0
ELLIPSE
  5
60D
100
AcDbEntity
  8
0
100
AcDbEllipse
 62
7
  6
CONTINUOUS
 10
6.9183948188
 20
18.8471865926
 30
0.0
 11
0.0044855312
 21
0.0167402303
 31
0.0
 40
0.9900227071
 41
0.0
 42
6.2831853072
  0
ELLIPSE
  5
60E
100
AcDbEntity
  8
0
100
AcDbEllipse
 62
7
  6
CONTINUOUS
 10
5.1133234859
 20
17.4710412874
 30
0.0
 11
0.0173248996
 21
-0.0022808663
 31
0.0
 40
0.9960990528
 41
0.0
 42
6.2831853072
  0
ELLIPSE
  5
60F
100
AcDbEntity
  8
0
100
AcDbEllipse
 62
7
  6
CONTINUOUS
 10
5.2078719856
 20
16.7528741325
 30
0.0
 11
0.0161442363
 21
0.0066871616
 31
0.0
 40
0.9960990528
 41
0.0
 42
6.2831853072
  0
ELLIPSE
  5
610
100
AcDbEntity
  8
0
100
AcDbEllipse
 62
7
  6
CONTINUOUS
 10
7.6418359433
 20
18.4295076647
 30
0.0
 11
0.0122546991
 21
0.0122546991
 31
0.0
 40
0.9900227071
 41
0.0
 42
6.2831853072
  0
ELLIPSE
  5
611
100
AcDbEntity
  8
0
100
AcDbEllipse
 62
7
  6
CONTINUOUS
 10
7.3076096181
 20
18.6859685441
 30
0.0
 11
0.0086653808
 21
0.0150088799
 31
0.0
 40
0.9900227071
 41
0.0
 42
6.2831853072
  0
ENDSEC
  0
SECTION
  2
OBJECTS
  0
DICTIONARY
  5
C
100
AcDbDictionary
280
0
281
1
  3
ACAD_GROUP
350
D
  3
ACAD_MLINESTYLE
350
17
  3
ACAD_LAYOUT
350
1A
  3
ACAD_PLOTSETTINGS
350
19
  3
ACAD_PLOTSTYLENAME
350
E
  0
DICTIONARY
  5
D
102
{ACAD_REACTORS
330
C
102
}
100
AcDbDictionary
280
0
281
1
  0
ACDBDICTIONARYWDFLT
  5
E
102
{ACAD_REACTORS
330
C
102
}
100
AcDbDictionary
281
1
  3
Normal
350
F
100
AcDbDictionaryWithDefault
340
F
  0
DICTIONARY
  5
17
102
{ACAD_REACTORS
330
C
102
}
100
AcDbDictionary
280
0
281
1
  3
Standard
350
18
  0
DICTIONARY
  5
19
102
{ACAD_REACTORS
330
C
102
}
100
AcDbDictionary
281
1
  0
DICTIONARY
  5
1A
102
{ACAD_REACTORS
330
C
102
}
100
AcDbDictionary
281
1
  3
Model
350
612
  3
Layout1
350
613
  0
ACDBPLACEHOLDER
  5
F
102
{ACAD_REACTORS
330
E
102
}
  0
MLINESTYLE
  5
18
102
{ACAD_REACTORS
330
17
102
}
100
AcDbMlineStyle
  2
STANDARD
 70
0
  3

 62
256
 51
90.0
 52
90.0
 71
2
 49
0.5
 62
256
  6
BYLAYER
 49
-0.5
 62
256
  6
BYLAYER
  0
LAYOUT
  5
612
102
{ACAD_REACTORS
330
1A
102
}
100
AcDbPlotSettings
  1

  2
none_device
  4
ANSI_C_(22.00_x_17.00_Inches)
  6

 40
0.0
 41
0.0
 42
0.0
 43
0.0
 44
558.8
 45
431.8
 46
0.0
 47
0.0
 48
0.0
 49
0.0
140
0.0
141
0.0
142
1.0
143
1.0
 70
1024
 72
0
 73
0
 74
0
  7

 75
0
147
1.0
148
0.0
149
0.0
100
AcDbLayout
  1
Model
 70
0
 71
0
 10
0.0
 20
0.0
 11
22.0
 21
17.0
 12
0.0
 22
0.0
 32
0.0
 14
0.0
 24
0.0
 34
0.0
 15
0.0
 25
0.0
 35
0.0
146
0.0
 13
0.0
 23
0.0
 33
0.0
 16
1.0
 26
0.0
 36
0.0
 17
0.0
 27
1.0
 37
0.0
 76
0
330
202
345
0
346
0
  0
LAYOUT
  5
613
102
{ACAD_REACTORS
330
1A
102
}
100
AcDbPlotSettings
  1

  2
none_device
  4
ANSI_C_(22.00_x_17.00_Inches)
  6

 40
0.0
 41
0.0
 42
0.0
 43
0.0
 44
558.8
 45
431.8
 46
0.0
 47
0.0
 48
0.0
 49
0.0
140
0.0
141
0.0
142
1.0
143
1.0
 70
0
 72
0
 73
0
 74
0
  7

 75
0
147
1.0
148
0.0
149
0.0
100
AcDbLayout
  1
Layout1
 70
0
 71
1
 10
0.0
 20
0.0
 11
22.0
 21
17.0
 12
0.0
 22
0.0
 32
0.0
 14
0.0
 24
0.0
 34
0.0
 15
0.0
 25
0.0
 35
0.0
146
0.0
 13
0.0
 23
0.0
 33
0.0
 16
1.0
 26
0.0
 36
0.0
 17
0.0
 27
1.0
 37
0.0
 76
0
330
203
345
0
346
0
  0
ENDSEC
  0
EOF
