999
DXF file: E:\BT Custom\CADOUTPUT\_TOP.dxf
999
Pro/ENGINEER 2018400 by Parametric Technology Corporation
  0
SECTION
  2
HEADER
  9
$ACADVER
  1
AC1018
  9
$DWGCODEPAGE
  3
ANSI_1252
  9
$EXTMAX
 10
22.0
 20
17.0
 30
0.0
  9
$EXTMIN
 10
0.0
 20
0.0
 30
0.0
  9
$LIMMIN
 10
0.0
 20
0.0
  9
$LIMMAX
 10
22.0
 20
17.0
  9
$VIEWCTR
 10
11.0
 20
8.5
  9
$VIEWSIZE
 40
17.0
  9
$CLAYER
  8
0
  9
$LTSCALE
 40
1.21
  9
$CELTYPE
  6
BYLAYER
  9
$DIMSCALE
 40
1.0
  9
$DIMASZ
 40
0.1
  9
$DIMEXO
 40
0.0625
  9
$DIMDLI
 40
0.836
  9
$DIMEXE
 40
0.125
  9
$DIMCEN
 40
0.198
  9
$DIMLFAC
 40
1.0
  9
$DIMBLK
  1
_FILLED
  9
$DIMALT
 70
1
  9
$DIMALTD
 70
2
  9
$DIMALTTD
 70
2
  9
$DIMALTF
 40
25.4
  9
$DIMTXT
 40
0.08
  9
$DIMTOL
 70
1
  9
$DIMLIM
 70
0
  9
$DIMTFAC
 40
1.0
  9
$DIMTP
 40
0.001
  9
$DIMTM
 40
0.001
  9
$DIMGAP
 40
0.09
  9
$DIMDSEP
 70
46
  9
$AUNITS
 70
0
  9
$PDMODE
 70
3
  9
$PDSIZE
 40
0.06
  9
$HANDSEED
  5
5C3
  9
$TILEMODE
 70
1
  9
$MEASUREMENT
 70
0
  9
$INSUNITS
 70
1
  0
ENDSEC
  0
SECTION
  2
CLASSES
  0
CLASS
  1
ACDBDICTIONARYWDFLT
  2
AcDbDictionaryWithDefault
  3
AutoCAD 2000
 90
0
 91
1
280
0
281
0
  0
CLASS
  1
ACDBPLACEHOLDER
  2
AcDbPlaceHolder
  3
AutoCAD 2000
 90
0
 91
1
280
0
281
0
  0
CLASS
  1
LAYOUT
  2
AcDbLayout
  3
AutoCAD 2000
 90
0
 91
0
280
0
281
0
  0
ENDSEC
  0
SECTION
  2
TABLES
  0
TABLE
  2
VPORT
  5
8
100
AcDbSymbolTable
 70
2
  0
VPORT
  5
1F4
100
AcDbSymbolTableRecord
100
AcDbViewportTableRecord
  2
*ACTIVE
 70
0
 10
0.0
 20
0.0
 11
1.0
 21
1.0
 12
11.0
 22
8.5
 13
0.0
 23
0.0
 14
1.0
 24
1.0
 15
0.0
 25
0.0
 16
0.0
 26
0.0
 36
1.0
 17
0.0
 27
0.0
 37
0.0
 40
17.0
 41
1.2941176471
 42
50.0
 43
0.0
 44
0.0
 50
0.0
 51
0.0
 71
0
 72
100
 73
1
 74
1
 75
0
 76
0
 77
0
 78
0
  0
ENDTAB
  0
TABLE
  2
LTYPE
  5
5
100
AcDbSymbolTable
 70
6
  0
LTYPE
  5
14
100
AcDbSymbolTableRecord
100
AcDbLinetypeTableRecord
  2
BYBLOCK
 70
0
  3

 72
65
 73
0
 40
0.0
  0
LTYPE
  5
15
100
AcDbSymbolTableRecord
100
AcDbLinetypeTableRecord
  2
BYLAYER
 70
0
  3

 72
65
 73
0
 40
0.0
  0
LTYPE
  5
16
100
AcDbSymbolTableRecord
100
AcDbLinetypeTableRecord
  2
CONTINUOUS
 70
64
  3
Solid line
 72
65
 73
0
 40
0.0
  0
LTYPE
  5
1F5
100
AcDbSymbolTableRecord
100
AcDbLinetypeTableRecord
  2
CENTER
 70
64
  3
____ _ ____ _ ____ _ ____ _ ____ _ ____ _ ____
 72
65
 73
4
 40
0.6
 49
0.375
 74
0
 49
-0.075
 74
0
 49
0.075
 74
0
 49
-0.075
 74
0
  0
LTYPE
  5
1F6
100
AcDbSymbolTableRecord
100
AcDbLinetypeTableRecord
  2
HIDDEN
 70
64
  3
- - - - - - - - - - - - - - - - - - - -
 72
65
 73
2
 40
0.2
 49
0.1
 74
0
 49
-0.1
 74
0
  0
LTYPE
  5
1F7
100
AcDbSymbolTableRecord
100
AcDbLinetypeTableRecord
  2
PHANTOM
 70
64
  3
_____ _ _ _____ _ _ _____ _ _ _____
 72
65
 73
6
 40
0.8
 49
0.45
 74
0
 49
-0.05
 74
0
 49
0.1
 74
0
 49
-0.05
 74
0
 49
0.1
 74
0
 49
-0.05
 74
0
  0
LTYPE
  5
1F8
100
AcDbSymbolTableRecord
100
AcDbLinetypeTableRecord
  2
DOT
 70
64
  3
. . . . . . . . . . . . . . . . . . . .
 72
65
 73
2
 40
0.2
 49
0.1
 74
0
 49
-0.1
 74
0
  0
LTYPE
  5
1F9
100
AcDbSymbolTableRecord
100
AcDbLinetypeTableRecord
  2
DASHED
 70
64
  3
- - - - - - - - - - - - - - - - - - - -
 72
65
 73
2
 40
0.2
 49
0.1
 74
0
 49
-0.1
 74
0
  0
ENDTAB
  0
TABLE
  2
LAYER
  5
2
100
AcDbSymbolTable
 70
36
  0
LAYER
  5
10
100
AcDbSymbolTableRecord
100
AcDbLayerTableRecord
  2
0
 70
0
 62
7
  6
CONTINUOUS
370
-3
390
F
  0
LAYER
  5
1FA
100
AcDbSymbolTableRecord
100
AcDbLayerTableRecord
  2
DEFAULT_1
 70
0
 62
7
  6
CENTER
370
-3
390
F
  0
LAYER
  5
1FB
100
AcDbSymbolTableRecord
100
AcDbLayerTableRecord
  2
DEFAULT_2
 70
0
 62
8
  6
HIDDEN
370
-3
390
F
  0
LAYER
  5
1FC
100
AcDbSymbolTableRecord
100
AcDbLayerTableRecord
  2
DEFAULT_3
 70
0
 62
7
  6
PHANTOM
370
-3
390
F
  0
LAYER
  5
1FD
100
AcDbSymbolTableRecord
100
AcDbLayerTableRecord
  2
ALL_FEATURES
 70
0
 62
7
  6
CONTINUOUS
370
-3
390
F
  0
LAYER
  5
1FE
100
AcDbSymbolTableRecord
100
AcDbLayerTableRecord
  2
AXES_FEATURES
 70
0
 62
7
  6
CONTINUOUS
370
-3
390
F
  0
LAYER
  5
1FF
100
AcDbSymbolTableRecord
100
AcDbLayerTableRecord
  2
DIMENSIONS
 70
0
 62
7
  6
CONTINUOUS
370
-3
390
F
  0
ENDTAB
  0
TABLE
  2
STYLE
  5
3
100
AcDbSymbolTable
 70
1
  0
STYLE
  5
11
100
AcDbSymbolTableRecord
100
AcDbTextStyleTableRecord
  2
STANDARD
 70
0
 40
0.0
 41
0.8
 50
0.0
 71
0
 42
0.2
  3
txt
  4

  0
STYLE
  5
200
100
AcDbSymbolTableRecord
100
AcDbTextStyleTableRecord
  2
TEXTSTYLE_1
 70
0
 40
0.0
 41
0.8
 50
0.0
 71
0
 42
0.2
  3
gdt
  4

  0
ENDTAB
  0
TABLE
  2
VIEW
  5
6
100
AcDbSymbolTable
 70
0
  0
ENDTAB
  0
TABLE
  2
UCS
  5
7
100
AcDbSymbolTable
 70
0
  0
ENDTAB
  0
TABLE
  2
APPID
  5
9
100
AcDbSymbolTable
 70
1
  0
APPID
  5
201
100
AcDbSymbolTableRecord
100
AcDbRegAppTableRecord
  2
ACAD
 70
0
  0
ENDTAB
  0
TABLE
  2
BLOCK_RECORD
  5
1
100
AcDbSymbolTable
 70
0
  0
BLOCK_RECORD
  5
202
100
AcDbSymbolTableRecord
100
AcDbBlockTableRecord
  2
*Model_Space
  0
BLOCK_RECORD
  5
203
100
AcDbSymbolTableRecord
100
AcDbBlockTableRecord
  2
*Paper_Space
  0
BLOCK_RECORD
  5
204
100
AcDbSymbolTableRecord
100
AcDbBlockTableRecord
  2
_FILLED
  0
ENDTAB
  0
TABLE
  2
DIMSTYLE
  5
A
100
AcDbSymbolTable
 70
1
100
AcDbDimStyleTable
 71
0
  0
DIMSTYLE
105
205
100
AcDbSymbolTableRecord
100
AcDbDimStyleTableRecord
  2
STANDARD
 70
0
  3

  4

 40
1.0
 41
0.1
 42
0.0625
 43
0.38
 44
0.125
 45
0.0
 46
0.0
 47
0.001
 48
0.001
140
0.08
141
0.09
142
0.0
143
25.4
144
1.0
145
0.0
146
1.0
147
0.09
 71
1.0
 72
0.0
 73
1
 74
1
 75
0
 76
0
 77
0
 78
4
 79
1
170
1
171
2
172
0
173
0
174
0
175
0
176
0
177
0
178
0
270
2
179
3
271
3
272
3
273
2
274
2
275
0
280
0
281
0
282
0
283
1
284
4
285
0
286
0
287
3
288
0
340
11
278
46
341
204
342
204
343
204
344
204
  0
ENDTAB
  0
ENDSEC
  0
SECTION
  2
BLOCKS
  0
BLOCK
  5
20
100
AcDbEntity
  8
0
100
AcDbBlockBegin
  2
*Model_Space
 70
0
 10
0.0
 20
0.0
 30
0.0
  3
*Model_Space
  1

  0
ENDBLK
  5
21
100
AcDbEntity
  8
0
100
AcDbBlockEnd
  0
BLOCK
  5
1C
100
AcDbEntity
  8
0
100
AcDbBlockBegin
  2
*Paper_Space
 70
0
 10
0.0
 20
0.0
 30
0.0
  3
*Paper_Space
  1

  0
ENDBLK
  5
1D
100
AcDbEntity
  8
0
100
AcDbBlockEnd
  0
BLOCK
  5
206
100
AcDbEntity
  8
0
100
AcDbBlockBegin
  2
_FILLED
 70
64
 10
0.0
 20
0.0
  3
_FILLED
  1

  0
SOLID
  5
207
100
AcDbEntity
  8
0
  6
BYBLOCK
 62
0
100
AcDbTrace
 10
0.0
 20
0.0
 11
-1.0
 21
0.2
 12
-1.0
 22
-0.2
 13
-1.0
 23
-0.2
  0
ENDBLK
  5
208
100
AcDbEntity
  8
0
  6
BYBLOCK
 62
0
100
AcDbBlockEnd
  0
ENDSEC
  0
SECTION
  2
ENTITIES
  0
LINE
  5
209
100
AcDbEntity
  8
0
100
AcDbLine
 62
7
  6
CONTINUOUS
 10
2.3389194768
 20
8.4793768396
 11
2.3389194768
 21
7.7376351474
  0
LINE
  5
20A
100
AcDbEntity
  8
0
100
AcDbLine
 62
9
  6
CONTINUOUS
 10
2.35215211
 20
8.4951363268
 11
2.35215211
 21
7.7218756602
  0
LINE
  5
20B
100
AcDbEntity
  8
0
100
AcDbLine
 62
9
  6
CONTINUOUS
 10
2.4101311768
 20
7.6800559935
 11
2.4101311768
 21
8.5369559935
  0
LINE
  5
20C
100
AcDbEntity
  8
0
100
AcDbLine
 62
9
  6
CONTINUOUS
 10
2.4529194768
 20
8.5510762422
 11
2.4529194768
 21
8.1947906508
  0
LINE
  5
20D
100
AcDbEntity
  8
0
100
AcDbLine
 62
9
  6
CONTINUOUS
 10
2.4529194768
 20
8.0222213363
 11
2.4529194768
 21
7.6659357449
  0
LINE
  5
20E
100
AcDbEntity
  8
0
100
AcDbLine
 62
7
  6
CONTINUOUS
 10
2.4699194753
 20
7.6739059928
 11
2.4699194753
 21
7.9819830328
  0
LINE
  5
20F
100
AcDbEntity
  8
0
100
AcDbLine
 62
7
  6
CONTINUOUS
 10
2.4699194753
 20
8.2350289543
 11
2.4699194753
 21
8.5431059942
  0
LINE
  5
210
100
AcDbEntity
  8
0
100
AcDbLine
 62
9
  6
CONTINUOUS
 10
2.5097099208
 20
8.291538497
 11
2.5097109661
 21
8.5820421565
  0
LINE
  5
211
100
AcDbEntity
  8
0
100
AcDbLine
 62
9
  6
CONTINUOUS
 10
2.509710966
 20
7.6349698306
 11
2.5097097445
 21
7.9254736965
  0
LINE
  5
212
100
AcDbEntity
  8
0
100
AcDbLine
 62
7
  6
CONTINUOUS
 10
2.5179194768
 20
7.6356505734
 11
2.5179194768
 21
7.6340000149
  0
LINE
  5
213
100
AcDbEntity
  8
0
100
AcDbLine
 62
7
  6
CONTINUOUS
 10
2.5179194768
 20
8.5813614443
 11
2.5179194768
 21
8.5830119721
  0
LINE
  5
214
100
AcDbEntity
  8
0
100
AcDbLine
 62
7
  6
CONTINUOUS
 10
2.9099194768
 20
7.6343347628
 11
2.9099194768
 21
7.6340000149
  0
LINE
  5
215
100
AcDbEntity
  8
0
100
AcDbLine
 62
7
  6
CONTINUOUS
 10
2.9099194768
 20
8.5826773869
 11
2.9099194768
 21
8.5830119721
  0
LINE
  5
216
100
AcDbEntity
  8
0
100
AcDbLine
 62
9
  6
CONTINUOUS
 10
2.9178588645
 20
7.9251571637
 11
2.9178578126
 21
7.6336264263
  0
LINE
  5
217
100
AcDbEntity
  8
0
100
AcDbLine
 62
9
  6
CONTINUOUS
 10
2.9178578113
 20
8.5833855613
 11
2.9178590918
 21
8.2918545573
  0
LINE
  5
218
100
AcDbEntity
  8
0
100
AcDbLine
 62
7
  6
CONTINUOUS
 10
2.9619194768
 20
7.69454704
 11
2.9619194768
 21
7.99083656
  0
LINE
  5
219
100
AcDbEntity
  8
0
100
AcDbLine
 62
7
  6
CONTINUOUS
 10
2.9619194768
 20
8.2261754271
 11
2.9619194768
 21
8.5224597265
  0
LINE
  5
21A
100
AcDbEntity
  8
0
100
AcDbLine
 62
9
  6
CONTINUOUS
 10
3.0586794768
 20
8.2910059935
 11
3.0586794768
 21
7.9260059935
  0
LINE
  5
21B
100
AcDbEntity
  8
0
100
AcDbLine
 62
7
  6
CONTINUOUS
 10
3.1354194768
 20
10.2315059935
 11
3.1354194768
 21
10.2545059935
  0
LINE
  5
21C
100
AcDbEntity
  8
0
100
AcDbLine
 62
7
  6
CONTINUOUS
 10
3.3354194768
 20
10.0315059935
 11
3.3354194768
 21
10.0045059935
  0
LINE
  5
21D
100
AcDbEntity
  8
0
100
AcDbLine
 62
7
  6
CONTINUOUS
 10
3.4729194768
 20
7.9260107348
 11
3.4729194768
 21
8.2910012523
  0
LINE
  5
21E
100
AcDbEntity
  8
0
100
AcDbLine
 62
7
  6
CONTINUOUS
 10
3.4959194768
 20
8.4284976294
 11
3.4959194768
 21
7.7885143577
  0
LINE
  5
21F
100
AcDbEntity
  8
0
100
AcDbLine
 62
7
  6
CONTINUOUS
 10
3.6779194768
 20
9.7835059935
 11
3.6779194768
 21
9.8045059935
  0
LINE
  5
220
100
AcDbEntity
  8
0
100
AcDbLine
 62
7
  6
CONTINUOUS
 10
3.7207615865
 20
9.5192700069
 11
3.7207615865
 21
9.7485059935
  0
LINE
  5
221
100
AcDbEntity
  8
0
100
AcDbLine
 62
7
  6
CONTINUOUS
 10
2.8817067724
 20
9.0166832165
 11
2.939186289
 21
9.0987724735
  0
LINE
  5
222
100
AcDbEntity
  8
0
100
AcDbLine
 62
7
  6
CONTINUOUS
 10
4.1393405316
 20
9.5192700069
 11
4.1393405316
 21
9.7485059935
  0
LINE
  5
223
100
AcDbEntity
  8
0
100
AcDbLine
 62
7
  6
CONTINUOUS
 10
2.5461321812
 20
7.2003287705
 11
2.4886526646
 21
7.1182395135
  0
LINE
  5
224
100
AcDbEntity
  8
0
100
AcDbLine
 62
7
  6
CONTINUOUS
 10
2.8817067724
 20
7.2003287705
 11
2.939186289
 21
7.1182395135
  0
LINE
  5
225
100
AcDbEntity
  8
0
100
AcDbLine
 62
7
  6
CONTINUOUS
 10
4.7053418864
 20
5.7753443959
 11
4.7053418864
 21
5.5922955683
  0
LINE
  5
226
100
AcDbEntity
  8
0
100
AcDbLine
 62
7
  6
CONTINUOUS
 10
4.9134914927
 20
4.9942147184
 11
4.9134914927
 21
5.0291345349
  0
LINE
  5
227
100
AcDbEntity
  8
0
100
AcDbLine
 62
7
  6
CONTINUOUS
 10
4.9684931116
 20
5.0291345349
 11
4.9684931116
 21
4.9942147184
  0
LINE
  5
228
100
AcDbEntity
  8
0
100
AcDbLine
 62
7
  6
CONTINUOUS
 10
4.976498422
 20
9.5192700069
 11
4.976498422
 21
9.7485059935
  0
LINE
  5
229
100
AcDbEntity
  8
0
100
AcDbLine
 62
7
  6
CONTINUOUS
 10
4.9903418864
 20
5.9979167251
 11
4.9903418864
 21
5.9639282925
  0
LINE
  5
22A
100
AcDbEntity
  8
0
100
AcDbLine
 62
7
  6
CONTINUOUS
 10
4.9274111952
 20
4.9721412055
 11
4.9192577046
 21
4.9802946962
  0
LINE
  5
22B
100
AcDbEntity
  8
0
100
AcDbLine
 62
7
  6
CONTINUOUS
 10
4.9824125365
 20
4.9721414833
 11
4.9742593235
 21
4.9802946962
  0
LINE
  5
22C
100
AcDbEntity
  8
0
100
AcDbLine
 62
7
  6
CONTINUOUS
 10
2.5461321812
 20
9.0166832165
 11
2.4886526646
 21
9.0987724735
  0
LINE
  5
22D
100
AcDbEntity
  8
0
100
AcDbLine
 62
7
  6
CONTINUOUS
 10
5.1297496992
 20
5.0291345349
 11
5.1297496992
 21
4.9942147184
  0
LINE
  5
22E
100
AcDbEntity
  8
0
100
AcDbLine
 62
7
  6
CONTINUOUS
 10
5.1518432713
 20
4.9675186194
 11
5.1518432713
 21
4.9526675501
  0
LINE
  5
22F
100
AcDbEntity
  8
0
100
AcDbLine
 62
7
  6
CONTINUOUS
 10
5.2464081312
 20
4.9663758687
 11
5.2464081312
 21
4.9526675501
  0
LINE
  5
230
100
AcDbEntity
  8
0
100
AcDbLine
 62
7
  6
CONTINUOUS
 10
5.2951040299
 20
5.0161868675
 11
5.2951040299
 21
4.9942147184
  0
LINE
  5
231
100
AcDbEntity
  8
0
100
AcDbLine
 62
7
  6
CONTINUOUS
 10
5.3862718852
 20
5.0291345349
 11
5.3862718852
 21
4.9942147184
  0
LINE
  5
232
100
AcDbEntity
  8
0
100
AcDbLine
 62
7
  6
CONTINUOUS
 10
5.3881404147
 20
4.9731488274
 11
5.3881404147
 21
4.9526675501
  0
LINE
  5
233
100
AcDbEntity
  8
0
100
AcDbLine
 62
7
  6
CONTINUOUS
 10
5.3950773671
 20
9.5192700069
 11
5.3950773671
 21
9.7485059935
  0
LINE
  5
234
100
AcDbEntity
  8
0
100
AcDbLine
 62
7
  6
CONTINUOUS
 10
5.4219194768
 20
8.7435018358
 11
5.4219194768
 21
7.4735101513
  0
LINE
  5
235
100
AcDbEntity
  8
0
100
AcDbLine
 62
7
  6
CONTINUOUS
 10
5.4290934121
 20
4.9663758687
 11
5.4290934121
 21
4.9526675501
  0
LINE
  5
236
100
AcDbEntity
  8
0
100
AcDbLine
 62
9
  6
CONTINUOUS
 10
5.4369194768
 20
8.7585059935
 11
5.4369194768
 21
7.4585059935
  0
LINE
  5
237
100
AcDbEntity
  8
0
100
AcDbLine
 62
7
  6
CONTINUOUS
 10
5.4379194768
 20
9.7835059935
 11
5.4379194768
 21
9.8045059935
  0
LINE
  5
238
100
AcDbEntity
  8
0
100
AcDbLine
 62
7
  6
CONTINUOUS
 10
5.4489245635
 20
4.9044214884
 11
5.4489245635
 21
4.897647998
  0
LINE
  5
239
100
AcDbEntity
  8
0
100
AcDbLine
 62
7
  6
CONTINUOUS
 10
5.4819194768
 20
7.4585059935
 11
5.4819194768
 21
8.7585059935
  0
LINE
  5
23A
100
AcDbEntity
  8
0
100
AcDbLine
 62
7
  6
CONTINUOUS
 10
5.5516262159
 20
5.0192365397
 11
5.5516262159
 21
4.9942147184
  0
LINE
  5
23B
100
AcDbEntity
  8
0
100
AcDbLine
 62
7
  6
CONTINUOUS
 10
5.5708256955
 20
4.9749988028
 11
5.5708256955
 21
4.9526675501
  0
LINE
  5
23C
100
AcDbEntity
  8
0
100
AcDbLine
 62
7
  6
CONTINUOUS
 10
5.5969194768
 20
8.7585059935
 11
5.5969194768
 21
7.4585059935
  0
LINE
  5
23D
100
AcDbEntity
  8
0
100
AcDbLine
 62
9
  6
CONTINUOUS
 10
5.6249939088
 20
7.4585059935
 11
5.6249939088
 21
8.7585059935
  0
LINE
  5
23E
100
AcDbEntity
  8
0
100
AcDbLine
 62
7
  6
CONTINUOUS
 10
5.6381327304
 20
4.859404594
 11
5.6381327304
 21
4.8329693195
  0
LWPOLYLINE
  5
23F
100
AcDbEntity
  8
0
100
AcDbPolyline
 62
7
  6
CONTINUOUS
 90
4
 70
0
 10
5.7791915059
 20
4.8670959219
 10
5.7792125141
 20
4.8670777925
 10
5.780642328
 20
4.8660775896
 10
5.7830816498
 20
4.8629913767
  0
LINE
  5
240
100
AcDbEntity
  8
0
100
AcDbLine
 62
7
  6
CONTINUOUS
 10
5.1657626962
 20
4.930594315
 11
5.1576091786
 21
4.9387478326
  0
LINE
  5
241
100
AcDbEntity
  8
0
100
AcDbLine
 62
7
  6
CONTINUOUS
 10
5.143669124
 20
4.9721414833
 11
5.135515911
 21
4.9802946962
  0
LINE
  5
242
100
AcDbEntity
  8
0
100
AcDbLine
 62
7
  6
CONTINUOUS
 10
5.260327556
 20
4.930594315
 11
5.2521740385
 21
4.9387478326
  0
LINE
  5
243
100
AcDbEntity
  8
0
100
AcDbLine
 62
7
  6
CONTINUOUS
 10
5.4001913101
 20
4.9721414833
 11
5.3920380971
 21
4.9802946962
  0
LINE
  5
244
100
AcDbEntity
  8
0
100
AcDbLine
 62
7
  6
CONTINUOUS
 10
5.4430128369
 20
4.930594315
 11
5.4348593193
 21
4.9387478326
  0
LINE
  5
245
100
AcDbEntity
  8
0
100
AcDbLine
 62
7
  6
CONTINUOUS
 10
5.654358401
 20
4.8118513627
 11
5.6415921428
 21
4.8246176209
  0
LINE
  5
246
100
AcDbEntity
  8
0
100
AcDbLine
 62
7
  6
CONTINUOUS
 10
5.7021284115
 20
4.8118513627
 11
5.6893621533
 21
4.8246176209
  0
LINE
  5
247
100
AcDbEntity
  8
0
100
AcDbLine
 62
7
  6
CONTINUOUS
 10
5.8006079544
 20
4.8118513627
 11
5.7878416961
 21
4.824617621
  0
LINE
  5
248
100
AcDbEntity
  8
0
100
AcDbLine
 62
7
  6
CONTINUOUS
 10
5.7013688387
 20
4.930594315
 11
5.6932153211
 21
4.9387478326
  0
LINE
  5
249
100
AcDbEntity
  8
0
100
AcDbLine
 62
7
  6
CONTINUOUS
 10
5.7344975317
 20
4.9721414833
 11
5.7263443186
 21
4.9802946964
  0
LINE
  5
24A
100
AcDbEntity
  8
0
100
AcDbLine
 62
7
  6
CONTINUOUS
 10
6.0258903818
 20
4.7089950865
 11
6.0177371606
 21
4.7171483077
  0
LINE
  5
24B
100
AcDbEntity
  8
0
100
AcDbLine
 62
7
  6
CONTINUOUS
 10
6.1183070953
 20
4.7089950865
 11
6.1101538758
 21
4.717148306
  0
LINE
  5
24C
100
AcDbEntity
  8
0
100
AcDbLine
 62
7
  6
CONTINUOUS
 10
5.9483643721
 20
4.7358668707
 11
5.9199873864
 21
4.8138319982
  0
LWPOLYLINE
  5
24D
100
AcDbEntity
  8
0
100
AcDbPolyline
 62
7
  6
CONTINUOUS
 90
3
 70
0
 10
5.7830816498
 20
4.8629913767
 10
5.7843744193
 20
4.8582170597
 10
5.7843854562
 20
4.8577099373
  0
LINE
  5
24E
100
AcDbEntity
  8
0
100
AcDbLine
 62
7
  6
CONTINUOUS
 10
5.6846060997
 20
4.8641933675
 11
5.6859032033
 21
4.8588515762
  0
LINE
  5
24F
100
AcDbEntity
  8
0
100
AcDbLine
 62
7
  6
CONTINUOUS
 10
5.6376115845
 20
4.8628728021
 11
5.6381320475
 21
4.8594072913
  0
LINE
  5
250
100
AcDbEntity
  8
0
100
AcDbLine
 62
9
  6
CONTINUOUS
 10
5.6535111958
 20
8.7378195879
 11
5.6535111984
 21
7.4791923988
  0
LINE
  5
251
100
AcDbEntity
  8
0
100
AcDbLine
 62
7
  6
CONTINUOUS
 10
5.6859027409
 20
4.8588514396
 11
5.6859027409
 21
4.8329693195
  0
LINE
  5
252
100
AcDbEntity
  8
0
100
AcDbLine
 62
7
  6
CONTINUOUS
 10
5.6874494139
 20
4.9949022651
 11
5.6874494139
 21
4.9526675501
  0
LINE
  5
253
100
AcDbEntity
  8
0
100
AcDbLine
 62
7
  6
CONTINUOUS
 10
5.7205781068
 20
5.0291345349
 11
5.7205781068
 21
4.9942147184
  0
LINE
  5
254
100
AcDbEntity
  8
0
100
AcDbLine
 62
7
  6
CONTINUOUS
 10
5.7804194768
 20
10.0315059935
 11
5.7804194768
 21
10.0045059935
  0
LINE
  5
255
100
AcDbEntity
  8
0
100
AcDbLine
 62
7
  6
CONTINUOUS
 10
5.7843822837
 20
4.8577085042
 11
5.7843822837
 21
4.8329693195
  0
LINE
  5
256
100
AcDbEntity
  8
0
100
AcDbLine
 62
9
  6
CONTINUOUS
 10
5.8158834744
 20
8.471791687
 11
5.8158834744
 21
7.7452203
  0
LINE
  5
257
100
AcDbEntity
  8
0
100
AcDbLine
 62
7
  6
CONTINUOUS
 10
5.8291816973
 20
4.9663758687
 11
5.8291816973
 21
4.9526675501
  0
LINE
  5
258
100
AcDbEntity
  8
0
100
AcDbLine
 62
7
  6
CONTINUOUS
 10
5.831919475
 20
8.445239729
 11
5.831919475
 21
7.771772258
  0
LINE
  5
259
100
AcDbEntity
  8
0
100
AcDbLine
 62
7
  6
CONTINUOUS
 10
5.8499194768
 20
8.3785059935
 11
5.8499194768
 21
7.8385059935
  0
LINE
  5
25A
100
AcDbEntity
  8
0
100
AcDbLine
 62
7
  6
CONTINUOUS
 10
5.8859324375
 20
5.0232129486
 11
5.8859324375
 21
4.9942147184
  0
LINE
  5
25B
100
AcDbEntity
  8
0
100
AcDbLine
 62
7
  6
CONTINUOUS
 10
5.9261145672
 20
4.8401777082
 11
5.9261145672
 21
4.8329693195
  0
LINE
  5
25C
100
AcDbEntity
  8
0
100
AcDbLine
 62
7
  6
CONTINUOUS
 10
5.9804194768
 20
10.2315059935
 11
5.9804194768
 21
10.2545059935
  0
LINE
  5
25D
100
AcDbEntity
  8
0
100
AcDbLine
 62
7
  6
CONTINUOUS
 10
6.0038696021
 20
4.9916891996
 11
6.0038696021
 21
4.9526675501
  0
LINE
  5
25E
100
AcDbEntity
  8
0
100
AcDbLine
 62
7
  6
CONTINUOUS
 10
6.1098859474
 20
5.0291345349
 11
6.1098859474
 21
4.9942147184
  0
LINE
  5
25F
100
AcDbEntity
  8
0
100
AcDbLine
 62
7
  6
CONTINUOUS
 10
6.1263418864
 20
6.7340499654
 11
6.1263418864
 21
6.7540499654
  0
LINE
  5
260
100
AcDbEntity
  8
0
100
AcDbLine
 62
7
  6
CONTINUOUS
 10
6.1456018856
 20
4.9663758687
 11
6.1456018856
 21
4.9526675501
  0
LINE
  5
261
100
AcDbEntity
  8
0
100
AcDbLine
 62
7
  6
CONTINUOUS
 10
6.2353418864
 20
8.1085059935
 11
6.2353418864
 21
7.028227279
  0
LINE
  5
262
100
AcDbEntity
  8
0
100
AcDbLine
 62
7
  6
CONTINUOUS
 10
6.0177890269
 20
4.930594315
 11
6.0096355094
 21
4.9387478325
  0
LINE
  5
263
100
AcDbEntity
  8
0
100
AcDbLine
 62
7
  6
CONTINUOUS
 10
6.1238053722
 20
4.9721414833
 11
6.1156521593
 21
4.9802946962
  0
LINE
  5
264
100
AcDbEntity
  8
0
100
AcDbLine
 62
7
  6
CONTINUOUS
 10
6.4275394459
 20
4.7089950865
 11
6.4193862248
 21
4.7171483077
  0
LINE
  5
265
100
AcDbEntity
  8
0
100
AcDbLine
 62
7
  6
CONTINUOUS
 10
6.3597127885
 20
4.8118513627
 11
6.3469465303
 21
4.8246176209
  0
LINE
  5
266
100
AcDbEntity
  8
0
100
AcDbLine
 62
7
  6
CONTINUOUS
 10
6.3707098886
 20
4.930594315
 11
6.362556371
 21
4.9387478326
  0
LINE
  5
267
100
AcDbEntity
  8
0
100
AcDbLine
 62
7
  6
CONTINUOUS
 10
6.5794049511
 20
4.8118513627
 11
6.566638693
 21
4.8246176209
  0
LINE
  5
268
100
AcDbEntity
  8
0
100
AcDbLine
 62
7
  6
CONTINUOUS
 10
6.7724433165
 20
4.7089950865
 11
6.7642900969
 21
4.717148306
  0
LINE
  5
269
100
AcDbEntity
  8
0
100
AcDbLine
 62
7
  6
CONTINUOUS
 10
6.5415841458
 20
4.9721414833
 11
6.5334309329
 21
4.9802946962
  0
LINE
  5
26A
100
AcDbEntity
  8
0
100
AcDbLine
 62
7
  6
CONTINUOUS
 10
6.7976889212
 20
4.8118513627
 11
6.784922663
 21
4.8246176209
  0
LINE
  5
26B
100
AcDbEntity
  8
0
100
AcDbLine
 62
7
  6
CONTINUOUS
 10
6.7360804503
 20
4.930594315
 11
6.7279269327
 21
4.9387478326
  0
LINE
  5
26C
100
AcDbEntity
  8
0
100
AcDbLine
 62
7
  6
CONTINUOUS
 10
6.2752402781
 20
5.0278464302
 11
6.2752402781
 21
4.9942147184
  0
LINE
  5
26D
100
AcDbEntity
  8
0
100
AcDbLine
 62
7
  6
CONTINUOUS
 10
6.3434871178
 20
4.8512156755
 11
6.3434871178
 21
4.8329693195
  0
LINE
  5
26E
100
AcDbEntity
  8
0
100
AcDbLine
 62
7
  6
CONTINUOUS
 10
6.3567904638
 20
4.9881072076
 11
6.3567904638
 21
4.9526675501
  0
LINE
  5
26F
100
AcDbEntity
  8
0
100
AcDbLine
 62
7
  6
CONTINUOUS
 10
6.4852193926
 20
4.8466653999
 11
6.4852194013
 21
4.8329693195
  0
LINE
  5
270
100
AcDbEntity
  8
0
100
AcDbLine
 62
7
  6
CONTINUOUS
 10
6.4985227473
 20
4.9844007919
 11
6.4985227473
 21
4.9526675501
  0
LINE
  5
271
100
AcDbEntity
  8
0
100
AcDbLine
 62
7
  6
CONTINUOUS
 10
6.527664721
 20
5.0291345349
 11
6.527664721
 21
4.9942147184
  0
LINE
  5
272
100
AcDbEntity
  8
0
100
AcDbLine
 62
7
  6
CONTINUOUS
 10
6.5631792805
 20
4.8486647446
 11
6.5631792805
 21
4.8329693195
  0
LINE
  5
273
100
AcDbEntity
  8
0
100
AcDbLine
 62
7
  6
CONTINUOUS
 10
6.6930190517
 20
5.0291345349
 11
6.6930190517
 21
4.9942147184
  0
LINE
  5
274
100
AcDbEntity
  8
0
100
AcDbLine
 62
7
  6
CONTINUOUS
 10
6.7049115426
 20
4.8492186868
 11
6.704911564
 21
4.8329693195
  0
LINE
  5
275
100
AcDbEntity
  8
0
100
AcDbLine
 62
7
  6
CONTINUOUS
 10
6.7221610255
 20
4.9844007909
 11
6.7221610255
 21
4.9526675501
  0
LINE
  5
276
100
AcDbEntity
  8
0
100
AcDbLine
 62
7
  6
CONTINUOUS
 10
6.7814632505
 20
4.846129978
 11
6.7814632505
 21
4.8329693195
  0
LINE
  5
277
100
AcDbEntity
  8
0
100
AcDbLine
 62
7
  6
CONTINUOUS
 10
6.5631792805
 20
4.8486647446
 11
6.5631793604
 21
4.8486804272
  0
LWPOLYLINE
  5
278
100
AcDbEntity
  8
0
100
AcDbPolyline
 62
7
  6
CONTINUOUS
 90
5
 70
0
 10
6.7049097211
 20
4.8492209582
 10
6.7049306558
 20
4.8498831701
 10
6.706391633
 20
4.8545544307
 10
6.7084752581
 20
4.8569043766
 10
6.708844677
 20
4.8571562999
  0
LWPOLYLINE
  5
279
100
AcDbEntity
  8
0
100
AcDbPolyline
 62
7
  6
CONTINUOUS
 90
3
 70
0
 10
5.9261131
 20
4.8401792398
 10
5.9268010704
 20
4.844082845
 10
5.9291418752
 20
4.8479087452
  0
LINE
  5
27A
100
AcDbEntity
  8
0
100
AcDbLine
 62
7
  6
CONTINUOUS
 10
6.1721130352
 20
6.8504612699
 11
6.2153418525
 21
6.9835058892
  0
LWPOLYLINE
  5
27B
100
AcDbEntity
  8
0
100
AcDbPolyline
 62
7
  6
CONTINUOUS
 90
6
 70
0
 10
6.3407350305
 20
4.8586536202
 10
6.3397662568
 20
4.8590494416
 10
6.3400402943
 20
4.8588274709
 10
6.3420642958
 20
4.856471799
 10
6.3434708998
 20
4.8518512711
 10
6.343489847
 20
4.8512183545
  0
LINE
  5
27C
100
AcDbEntity
  8
0
100
AcDbLine
 62
7
  6
CONTINUOUS
 10
6.9593629194
 20
4.9721414833
 11
6.9512097065
 21
4.9802946962
  0
LINE
  5
27D
100
AcDbEntity
  8
0
100
AcDbLine
 62
7
  6
CONTINUOUS
 10
7.089001312
 20
4.930594315
 11
7.0808477944
 21
4.9387478326
  0
LINE
  5
27E
100
AcDbEntity
  8
0
100
AcDbLine
 62
7
  6
CONTINUOUS
 10
7.3359167968
 20
4.8118513627
 11
7.3231505386
 21
4.8246176209
  0
LINE
  5
27F
100
AcDbEntity
  8
0
100
AcDbLine
 62
7
  6
CONTINUOUS
 10
7.34867076
 20
4.9721414833
 11
7.3405175471
 21
4.9802946962
  0
LINE
  5
280
100
AcDbEntity
  8
0
100
AcDbLine
 62
7
  6
CONTINUOUS
 10
7.4054215002
 20
4.930594315
 11
7.3972679826
 21
4.9387478326
  0
LINE
  5
281
100
AcDbEntity
  8
0
100
AcDbLine
 62
7
  6
CONTINUOUS
 10
7.663777502
 20
4.930594315
 11
7.6556239844
 21
4.9387478326
  0
LWPOLYLINE
  5
282
100
AcDbEntity
  8
0
100
AcDbPolyline
 62
7
  6
CONTINUOUS
 90
3
 70
0
 10
7.3166137712
 20
4.847694871
 10
7.319139091
 20
4.8434021229
 10
7.3196907484
 20
4.8398858544
  0
LINE
  5
283
100
AcDbEntity
  8
0
100
AcDbLine
 62
7
  6
CONTINUOUS
 10
6.8638933089
 20
4.9881072067
 11
6.8638933089
 21
4.9526675501
  0
LINE
  5
284
100
AcDbEntity
  8
0
100
AcDbLine
 62
7
  6
CONTINUOUS
 10
6.9231955312
 20
4.8517491138
 11
6.923195534
 21
4.8329693195
  0
LINE
  5
285
100
AcDbEntity
  8
0
100
AcDbLine
 62
7
  6
CONTINUOUS
 10
6.9454434946
 20
5.0278464649
 11
6.9454434946
 21
4.9942147184
  0
LINE
  5
286
100
AcDbEntity
  8
0
100
AcDbLine
 62
7
  6
CONTINUOUS
 10
6.9853418864
 20
8.1085059935
 11
6.9853418864
 21
7.028227279
  0
LINE
  5
287
100
AcDbEntity
  8
0
100
AcDbLine
 62
7
  6
CONTINUOUS
 10
7.0750818872
 20
4.9663758687
 11
7.0750818872
 21
4.9526675501
  0
LINE
  5
288
100
AcDbEntity
  8
0
100
AcDbLine
 62
7
  6
CONTINUOUS
 10
7.0943418864
 20
6.7340499654
 11
7.0943418864
 21
6.7540499654
  0
LINE
  5
289
100
AcDbEntity
  8
0
100
AcDbLine
 62
7
  6
CONTINUOUS
 10
7.1107978253
 20
5.0291345349
 11
7.1107978253
 21
4.9942147184
  0
LINE
  5
28A
100
AcDbEntity
  8
0
100
AcDbLine
 62
7
  6
CONTINUOUS
 10
7.2168141706
 20
4.9916892005
 11
7.2168141706
 21
4.9526675501
  0
LINE
  5
28B
100
AcDbEntity
  8
0
100
AcDbLine
 62
7
  6
CONTINUOUS
 10
7.3196911261
 20
4.8398868303
 11
7.3196911261
 21
4.8329693195
  0
LINE
  5
28C
100
AcDbEntity
  8
0
100
AcDbLine
 62
7
  6
CONTINUOUS
 10
7.3347513352
 20
5.0232129565
 11
7.3347513352
 21
4.9942147184
  0
LINE
  5
28D
100
AcDbEntity
  8
0
100
AcDbLine
 62
7
  6
CONTINUOUS
 10
7.3915020754
 20
4.9663758687
 11
7.3915020754
 21
4.9526675501
  0
LINE
  5
28E
100
AcDbEntity
  8
0
100
AcDbLine
 62
7
  6
CONTINUOUS
 10
7.4614234096
 20
4.8579996271
 11
7.4614234096
 21
4.8329693195
  0
LWPOLYLINE
  5
28F
100
AcDbEntity
  8
0
100
AcDbPolyline
 62
7
  6
CONTINUOUS
 90
4
 70
0
 10
6.4852198566
 20
4.846668226
 10
6.4865984862
 20
4.8518576772
 10
6.4887253709
 20
4.8543824297
 10
6.4894405923
 20
4.854879952
  0
LINE
  5
290
100
AcDbEntity
  8
0
100
AcDbLine
 62
7
  6
CONTINUOUS
 10
2.4699194753
 20
7.6739059928
 11
2.4529194768
 21
7.6659357449
  0
LWPOLYLINE
  5
291
100
AcDbEntity
  8
0
100
AcDbPolyline
 62
7
  6
CONTINUOUS
 90
7
 70
0
 10
5.6296231039
 20
4.8707097406
 10
5.6295625725
 20
4.8707224929
 10
5.6300795037
 20
4.8705746899
 10
5.6316957137
 20
4.8699090108
 10
5.6339657528
 20
4.8684025858
 10
5.6360721199
 20
4.8660679189
 10
5.6376115845
 20
4.8628728021
  0
LWPOLYLINE
  5
292
100
AcDbEntity
  8
0
100
AcDbPolyline
 62
7
  6
CONTINUOUS
 90
5
 70
0
 10
5.6795758602
 20
4.8691300277
 10
5.6793542343
 20
4.8692023103
 10
5.6799432893
 20
4.868935269
 10
5.6819162009
 20
4.8676007413
 10
5.6846060997
 20
4.8641933675
  0
LWPOLYLINE
  5
293
100
AcDbEntity
  8
0
100
AcDbPolyline
 62
7
  6
CONTINUOUS
 90
5
 70
0
 10
6.7773359259
 20
4.8543808577
 10
6.7770146193
 20
4.8545090058
 10
6.7779383386
 20
4.8538880056
 10
6.7801582458
 20
4.8512014337
 10
6.7814637799
 20
4.8461277798
  0
LWPOLYLINE
  5
294
100
AcDbEntity
  8
0
100
AcDbPolyline
 62
7
  6
CONTINUOUS
 90
5
 70
0
 10
6.5593931363
 20
4.8565604076
 10
6.5592109674
 20
4.8566368939
 10
6.5606371321
 20
4.8554232074
 10
6.5627173425
 20
4.8517338393
 10
6.5631788785
 20
4.8486783133
  0
LINE
  5
295
100
AcDbEntity
  8
0
100
AcDbLine
 62
7
  6
CONTINUOUS
 10
7.6829769816
 20
4.9721414833
 11
7.6748237687
 21
4.9802946962
  0
LINE
  5
296
100
AcDbEntity
  8
0
100
AcDbLine
 62
7
  6
CONTINUOUS
 10
7.8464627829
 20
4.930594315
 11
7.8383092653
 21
4.9387478325
  0
LINE
  5
297
100
AcDbEntity
  8
0
100
AcDbLine
 62
7
  6
CONTINUOUS
 10
7.9394991677
 20
4.9721414833
 11
7.931345606
 21
4.980295045
  0
LINE
  5
298
100
AcDbEntity
  8
0
100
AcDbLine
 62
7
  6
CONTINUOUS
 10
8.1007557552
 20
4.9721414833
 11
8.0926025423
 21
4.9802946962
  0
LINE
  5
299
100
AcDbEntity
  8
0
100
AcDbLine
 62
7
  6
CONTINUOUS
 10
7.0485707376
 20
6.8504612699
 11
7.0053419203
 21
6.9835058892
  0
LINE
  5
29A
100
AcDbEntity
  8
0
100
AcDbLine
 62
7
  6
CONTINUOUS
 10
7.5001056659
 20
5.0291345349
 11
7.5001056659
 21
4.9942147184
  0
LINE
  5
29B
100
AcDbEntity
  8
0
100
AcDbLine
 62
7
  6
CONTINUOUS
 10
7.5332343589
 20
4.9949022958
 11
7.5332343589
 21
4.9526675501
  0
LINE
  5
29C
100
AcDbEntity
  8
0
100
AcDbLine
 62
7
  6
CONTINUOUS
 10
7.5494306227
 20
4.8590226448
 11
7.5494306227
 21
4.8329693195
  0
LINE
  5
29D
100
AcDbEntity
  8
0
100
AcDbLine
 62
7
  6
CONTINUOUS
 10
7.5858579925
 20
4.8594442503
 11
7.5858579925
 21
4.8329693195
  0
LINE
  5
29E
100
AcDbEntity
  8
0
100
AcDbLine
 62
7
  6
CONTINUOUS
 10
7.6498580772
 20
4.9749987877
 11
7.6498580772
 21
4.9526675501
  0
LINE
  5
29F
100
AcDbEntity
  8
0
100
AcDbLine
 62
7
  6
CONTINUOUS
 10
7.6690575568
 20
5.0192365397
 11
7.6690575568
 21
4.9942147184
  0
LINE
  5
2A0
100
AcDbEntity
  8
0
100
AcDbLine
 62
7
  6
CONTINUOUS
 10
7.7717592092
 20
4.9044214884
 11
7.7717592092
 21
4.897647998
  0
LINE
  5
2A1
100
AcDbEntity
  8
0
100
AcDbLine
 62
7
  6
CONTINUOUS
 10
7.7915903607
 20
4.9663758687
 11
7.7915903607
 21
4.9526675501
  0
LINE
  5
2A2
100
AcDbEntity
  8
0
100
AcDbLine
 62
7
  6
CONTINUOUS
 10
7.8325433581
 20
4.9731488266
 11
7.8325433581
 21
4.9526675501
  0
LINE
  5
2A3
100
AcDbEntity
  8
0
100
AcDbLine
 62
7
  6
CONTINUOUS
 10
7.8344118875
 20
5.0291345349
 11
7.8344118875
 21
4.9942147184
  0
LINE
  5
2A4
100
AcDbEntity
  8
0
100
AcDbLine
 62
7
  6
CONTINUOUS
 10
7.9255797429
 20
5.0161868709
 11
7.9255797429
 21
4.9942147184
  0
LINE
  5
2A5
100
AcDbEntity
  8
0
100
AcDbLine
 62
7
  6
CONTINUOUS
 10
7.9742756415
 20
4.9663758687
 11
7.9742756415
 21
4.9526675501
  0
LINE
  5
2A6
100
AcDbEntity
  8
0
100
AcDbLine
 62
7
  6
CONTINUOUS
 10
8.0688405014
 20
4.9675186248
 11
8.0688405014
 21
4.9526675501
  0
LINE
  5
2A7
100
AcDbEntity
  8
0
100
AcDbLine
 62
7
  6
CONTINUOUS
 10
7.5494309189
 20
4.8590223978
 11
7.5494494722
 21
4.8596875207
  0
LINE
  5
2A8
100
AcDbEntity
  8
0
100
AcDbLine
 62
7
  6
CONTINUOUS
 10
7.58585887
 20
4.8594457893
 11
7.5860716047
 21
4.8616775511
  0
LWPOLYLINE
  5
2A9
100
AcDbEntity
  8
0
100
AcDbPolyline
 62
7
  6
CONTINUOUS
 90
4
 70
0
 10
6.9231956899
 20
4.8517497719
 10
6.9245485578
 20
4.8568901862
 10
6.9265505129
 20
4.8593032196
 10
6.9270482285
 20
4.859663424
  0
LINE
  5
2AA
100
AcDbEntity
  8
0
100
AcDbLine
 62
7
  6
CONTINUOUS
 10
4.8439229836
 20
5.0291345349
 11
4.8419794634
 21
5.0293781606
  0
LWPOLYLINE
  5
2AB
100
AcDbEntity
  8
0
100
AcDbPolyline
 62
7
  6
CONTINUOUS
 90
5
 70
0
 10
7.3121669486
 20
4.8505357476
 10
7.3119968415
 20
4.8505611659
 10
7.3121507248
 20
4.8505191247
 10
7.3136568106
 20
4.8499232668
 10
7.3166137712
 20
4.847694871
  0
LINE
  5
2AC
100
AcDbEntity
  8
0
100
AcDbLine
 62
9
  6
CONTINUOUS
 10
7.5857905437
 20
4.8594557196
 11
7.5858579919
 21
4.8594443143
  0
LINE
  5
2AD
100
AcDbEntity
  8
0
100
AcDbLine
 62
7
  6
CONTINUOUS
 10
5.3481761828
 20
4.9197612643
 11
5.4371135401
 21
4.9044214884
  0
LINE
  5
2AE
100
AcDbEntity
  8
0
100
AcDbLine
 62
7
  6
CONTINUOUS
 10
8.0909340736
 20
5.0291345349
 11
8.0909340736
 21
4.9942147184
  0
LINE
  5
2AF
100
AcDbEntity
  8
0
100
AcDbLine
 62
7
  6
CONTINUOUS
 10
8.2303418864
 20
5.9979167251
 11
8.2303418864
 21
5.9639282925
  0
LINE
  5
2B0
100
AcDbEntity
  8
0
100
AcDbLine
 62
7
  6
CONTINUOUS
 10
8.2521906611
 20
5.0291345349
 11
8.2521906611
 21
4.9942147184
  0
LINE
  5
2B1
100
AcDbEntity
  8
0
100
AcDbLine
 62
7
  6
CONTINUOUS
 10
8.3071922801
 20
4.9942147184
 11
8.3071922801
 21
5.0291345349
  0
LINE
  5
2B2
100
AcDbEntity
  8
0
100
AcDbLine
 62
7
  6
CONTINUOUS
 10
8.5153418864
 20
5.7753443959
 11
8.5153418864
 21
5.5922955683
  0
LINE
  5
2B3
100
AcDbEntity
  8
0
100
AcDbLine
 62
7
  6
CONTINUOUS
 10
7.461419786
 20
4.8579992932
 11
7.4626365071
 21
4.8631297949
  0
LINE
  5
2B4
100
AcDbEntity
  8
0
100
AcDbLine
 62
7
  6
CONTINUOUS
 10
7.5494494722
 20
4.8596875207
 11
7.5508065669
 21
4.8645244697
  0
LWPOLYLINE
  5
2B5
100
AcDbEntity
  8
0
100
AcDbPolyline
 62
7
  6
CONTINUOUS
 90
7
 70
0
 10
7.5860716047
 20
4.8616775511
 10
7.5870977422
 20
4.8647127253
 10
7.5887775463
 20
4.8672190688
 10
7.5908629233
 20
4.869096829
 10
7.5930779033
 20
4.8703242667
 10
7.5945570244
 20
4.8708313538
 10
7.5950493426
 20
4.8709494685
  0
LINE
  5
2B6
100
AcDbEntity
  8
0
100
AcDbLine
 62
7
  6
CONTINUOUS
 10
7.2723194006
 20
4.7358668707
 11
7.3006963863
 21
4.8138319982
  0
LINE
  5
2B7
100
AcDbEntity
  8
0
100
AcDbLine
 62
7
  6
CONTINUOUS
 10
5.1199280175
 20
4.9721414833
 11
5.1280812305
 21
4.9802946962
  0
LINE
  5
2B8
100
AcDbEntity
  8
0
100
AcDbLine
 62
7
  6
CONTINUOUS
 10
6.0398209725
 20
4.7032294719
 11
6.4343197248
 21
4.7032294719
  0
LINE
  5
2B9
100
AcDbEntity
  8
0
100
AcDbLine
 62
7
  6
CONTINUOUS
 10
6.441466526
 20
4.7032294719
 11
6.6574270595
 21
4.7032294719
  0
LINE
  5
2BA
100
AcDbEntity
  8
0
100
AcDbLine
 62
7
  6
CONTINUOUS
 10
6.7285153384
 20
4.7032294719
 11
6.7792172467
 21
4.7032294719
  0
LINE
  5
2BB
100
AcDbEntity
  8
0
100
AcDbLine
 62
7
  6
CONTINUOUS
 10
6.7863640479
 20
4.7032294719
 11
7.1808628002
 21
4.7032294719
  0
LINE
  5
2BC
100
AcDbEntity
  8
0
100
AcDbLine
 62
9
  6
CONTINUOUS
 10
6.0258910049
 20
4.7089944633
 11
6.4005452207
 21
4.7089944633
  0
LINE
  5
2BD
100
AcDbEntity
  8
0
100
AcDbLine
 62
9
  6
CONTINUOUS
 10
6.4275400691
 20
4.7089944633
 11
6.6713535164
 21
4.7089944633
  0
LINE
  5
2BE
100
AcDbEntity
  8
0
100
AcDbLine
 62
9
  6
CONTINUOUS
 10
6.7724439396
 20
4.7089944633
 11
7.1947927678
 21
4.7089944633
  0
LINE
  5
2BF
100
AcDbEntity
  8
0
100
AcDbLine
 62
7
  6
CONTINUOUS
 10
5.0010595906
 20
4.7090433716
 11
4.991829904
 21
4.7090433716
  0
LINE
  5
2C0
100
AcDbEntity
  8
0
100
AcDbLine
 62
9
  6
CONTINUOUS
 10
4.9918299146
 20
4.7090433716
 11
4.991882007
 21
4.7090433752
  0
LINE
  5
2C1
100
AcDbEntity
  8
0
100
AcDbLine
 62
9
  6
CONTINUOUS
 10
6.7675225364
 20
4.7139158665
 11
6.6762749196
 21
4.7139158665
  0
LINE
  5
2C2
100
AcDbEntity
  8
0
100
AcDbLine
 62
9
  6
CONTINUOUS
 10
6.4226186659
 20
4.7139158665
 11
6.367042569
 21
4.7139158665
  0
LINE
  5
2C3
100
AcDbEntity
  8
0
100
AcDbLine
 62
9
  6
CONTINUOUS
 10
7.2029466121
 20
4.7171483077
 11
6.7642900969
 21
4.717148306
  0
LINE
  5
2C4
100
AcDbEntity
  8
0
100
AcDbLine
 62
9
  6
CONTINUOUS
 10
6.6795073608
 20
4.7171483077
 11
6.4193862248
 21
4.7171483077
  0
LINE
  5
2C5
100
AcDbEntity
  8
0
100
AcDbLine
 62
9
  6
CONTINUOUS
 10
6.3702750085
 20
4.717148306
 11
6.0177502536
 21
4.7171483077
  0
LINE
  5
2C6
100
AcDbEntity
  8
0
100
AcDbLine
 62
7
  6
CONTINUOUS
 10
5.9668658415
 20
4.7229145113
 11
7.2538179312
 21
4.7229145113
  0
LINE
  5
2C7
100
AcDbEntity
  8
0
100
AcDbLine
 62
9
  6
CONTINUOUS
 10
5.9483643833
 20
4.7358668401
 11
7.2723193895
 21
4.7358668401
  0
LINE
  5
2C8
100
AcDbEntity
  8
0
100
AcDbLine
 62
7
  6
CONTINUOUS
 10
5.6627101122
 20
4.808391994
 11
5.8030468616
 21
4.808391994
  0
LINE
  5
2C9
100
AcDbEntity
  8
0
100
AcDbLine
 62
7
  6
CONTINUOUS
 10
5.8089638189
 20
4.808391994
 11
5.921967386
 21
4.808391994
  0
LINE
  5
2CA
100
AcDbEntity
  8
0
100
AcDbLine
 62
7
  6
CONTINUOUS
 10
6.3680695439
 20
4.808391994
 11
6.4606369752
 21
4.808391994
  0
LINE
  5
2CB
100
AcDbEntity
  8
0
100
AcDbLine
 62
7
  6
CONTINUOUS
 10
6.5877631586
 20
4.808391994
 11
6.6803276859
 21
4.808391994
  0
LINE
  5
2CC
100
AcDbEntity
  8
0
100
AcDbLine
 62
7
  6
CONTINUOUS
 10
6.8060471746
 20
4.808391994
 11
6.8986116099
 21
4.808391994
  0
LINE
  5
2CD
100
AcDbEntity
  8
0
100
AcDbLine
 62
7
  6
CONTINUOUS
 10
7.2987163867
 20
4.808391994
 11
7.334812173
 21
4.808391994
  0
LINE
  5
2CE
100
AcDbEntity
  8
0
100
AcDbLine
 62
7
  6
CONTINUOUS
 10
7.3442711073
 20
4.808391994
 11
7.5612701359
 21
4.808391994
  0
LINE
  5
2CF
100
AcDbEntity
  8
0
100
AcDbLine
 62
9
  6
CONTINUOUS
 10
5.6543584379
 20
4.8118513258
 11
5.9207082922
 21
4.8118513258
  0
LINE
  5
2D0
100
AcDbEntity
  8
0
100
AcDbLine
 62
9
  6
CONTINUOUS
 10
6.3597128254
 20
4.8118513258
 11
6.4689936938
 21
4.8118513258
  0
LINE
  5
2D1
100
AcDbEntity
  8
0
100
AcDbLine
 62
9
  6
CONTINUOUS
 10
6.5794049881
 20
4.8118513258
 11
6.6886858564
 21
4.8118513258
  0
LINE
  5
2D2
100
AcDbEntity
  8
0
100
AcDbLine
 62
9
  6
CONTINUOUS
 10
6.7976889581
 20
4.8118513258
 11
6.9069698265
 21
4.8118513258
  0
LINE
  5
2D3
100
AcDbEntity
  8
0
100
AcDbLine
 62
9
  6
CONTINUOUS
 10
7.2999754807
 20
4.8118513263
 11
7.569632285
 21
4.8118513258
  0
LINE
  5
2D4
100
AcDbEntity
  8
0
100
AcDbLine
 62
9
  6
CONTINUOUS
 10
7.3006963863
 20
4.8138319982
 11
6.9089504988
 21
4.8138319982
  0
LINE
  5
2D5
100
AcDbEntity
  8
0
100
AcDbLine
 62
9
  6
CONTINUOUS
 10
6.7957082857
 20
4.8138319982
 11
6.6906665288
 21
4.8138319982
  0
LINE
  5
2D6
100
AcDbEntity
  8
0
100
AcDbLine
 62
9
  6
CONTINUOUS
 10
6.5774243157
 20
4.8138319982
 11
6.4709743661
 21
4.8138319982
  0
LINE
  5
2D7
100
AcDbEntity
  8
0
100
AcDbLine
 62
9
  6
CONTINUOUS
 10
6.357732153
 20
4.8138319982
 11
5.9199873864
 21
4.8138319982
  0
LINE
  5
2D8
100
AcDbEntity
  8
0
100
AcDbLine
 62
9
  6
CONTINUOUS
 10
7.5823985801
 20
4.8246176209
 11
7.5461610817
 21
4.8246176209
  0
LINE
  5
2D9
100
AcDbEntity
  8
0
100
AcDbLine
 62
9
  6
CONTINUOUS
 10
7.5459712102
 20
4.8246176209
 11
7.3069087602
 21
4.8246176208
  0
LINE
  5
2DA
100
AcDbEntity
  8
0
100
AcDbLine
 62
9
  6
CONTINUOUS
 10
6.9197361215
 20
4.8246176209
 11
6.784922663
 21
4.8246176209
  0
LINE
  5
2DB
100
AcDbEntity
  8
0
100
AcDbLine
 62
9
  6
CONTINUOUS
 10
6.7014521515
 20
4.8246176209
 11
6.566638693
 21
4.8246176209
  0
LINE
  5
2DC
100
AcDbEntity
  8
0
100
AcDbLine
 62
9
  6
CONTINUOUS
 10
6.4817599889
 20
4.8246176209
 11
6.3469465303
 21
4.8246176209
  0
LINE
  5
2DD
100
AcDbEntity
  8
0
100
AcDbLine
 62
9
  6
CONTINUOUS
 10
5.9226551548
 20
4.824617621
 11
5.6415921428
 21
4.8246176209
  0
LINE
  5
2DE
100
AcDbEntity
  8
0
100
AcDbLine
 62
9
  6
CONTINUOUS
 10
5.6381327304
 20
4.8329693195
 11
5.9261145672
 21
4.8329693195
  0
LINE
  5
2DF
100
AcDbEntity
  8
0
100
AcDbLine
 62
9
  6
CONTINUOUS
 10
6.3434871178
 20
4.8329693195
 11
6.4852194013
 21
4.8329693195
  0
LINE
  5
2E0
100
AcDbEntity
  8
0
100
AcDbLine
 62
9
  6
CONTINUOUS
 10
6.5631792805
 20
4.8329693195
 11
6.704911564
 21
4.8329693195
  0
LINE
  5
2E1
100
AcDbEntity
  8
0
100
AcDbLine
 62
9
  6
CONTINUOUS
 10
6.7814632505
 20
4.8329693195
 11
6.923195534
 21
4.8329693195
  0
LINE
  5
2E2
100
AcDbEntity
  8
0
100
AcDbLine
 62
9
  6
CONTINUOUS
 10
7.3161819204
 20
4.8329693195
 11
7.5858579925
 21
4.8329693195
  0
LINE
  5
2E3
100
AcDbEntity
  8
0
100
AcDbLine
 62
9
  6
CONTINUOUS
 10
6.7814632505
 20
4.8395344513
 11
6.704911564
 21
4.8395344513
  0
LINE
  5
2E4
100
AcDbEntity
  8
0
100
AcDbLine
 62
9
  6
CONTINUOUS
 10
6.5631792805
 20
4.8395344513
 11
6.4852194013
 21
4.8395344513
  0
LINE
  5
2E5
100
AcDbEntity
  8
0
100
AcDbLine
 62
9
  6
CONTINUOUS
 10
6.3434871178
 20
4.8395344513
 11
5.9261145671
 21
4.8395344513
  0
LINE
  5
2E6
100
AcDbEntity
  8
0
100
AcDbLine
 62
9
  6
CONTINUOUS
 10
7.3196911261
 20
4.8395344513
 11
6.923195534
 21
4.8395344513
  0
LINE
  5
2E7
100
AcDbEntity
  8
0
100
AcDbLine
 62
7
  6
CONTINUOUS
 10
5.4489245635
 20
4.897647998
 11
7.7717592092
 21
4.897647998
  0
LINE
  5
2E8
100
AcDbEntity
  8
0
100
AcDbLine
 62
7
  6
CONTINUOUS
 10
5.4371301935
 20
4.9044214884
 11
7.7835540951
 21
4.9044214884
  0
LINE
  5
2E9
100
AcDbEntity
  8
0
100
AcDbLine
 62
9
  6
CONTINUOUS
 10
5.3481761828
 20
4.9197612643
 11
7.87250759
 21
4.9197612643
  0
LINE
  5
2EA
100
AcDbEntity
  8
0
100
AcDbLine
 62
7
  6
CONTINUOUS
 10
5.1796824991
 20
4.9248287005
 11
5.2657339023
 21
4.9248287005
  0
LINE
  5
2EB
100
AcDbEntity
  8
0
100
AcDbLine
 62
7
  6
CONTINUOUS
 10
5.2742539313
 20
4.9248287005
 11
5.3602946146
 21
4.9248287005
  0
LINE
  5
2EC
100
AcDbEntity
  8
0
100
AcDbLine
 62
7
  6
CONTINUOUS
 10
5.4569447873
 20
4.9248287005
 11
5.5429743203
 21
4.9248287005
  0
LINE
  5
2ED
100
AcDbEntity
  8
0
100
AcDbLine
 62
7
  6
CONTINUOUS
 10
5.7152973743
 20
4.9248287005
 11
5.801333737
 21
4.9248287005
  0
LINE
  5
2EE
100
AcDbEntity
  8
0
100
AcDbLine
 62
7
  6
CONTINUOUS
 10
6.0317106593
 20
4.9248287005
 11
6.1177608284
 21
4.9248287005
  0
LINE
  5
2EF
100
AcDbEntity
  8
0
100
AcDbLine
 62
7
  6
CONTINUOUS
 10
6.3846323599
 20
4.9248287005
 11
6.4706808511
 21
4.9248287005
  0
LINE
  5
2F0
100
AcDbEntity
  8
0
100
AcDbLine
 62
7
  6
CONTINUOUS
 10
6.7500096104
 20
4.9248287005
 11
6.836044724
 21
4.9248287005
  0
LINE
  5
2F1
100
AcDbEntity
  8
0
100
AcDbLine
 62
7
  6
CONTINUOUS
 10
7.1029332115
 20
4.9248287005
 11
7.1889628463
 21
4.9248287005
  0
LINE
  5
2F2
100
AcDbEntity
  8
0
100
AcDbLine
 62
7
  6
CONTINUOUS
 10
7.4193491989
 20
4.9248287005
 11
7.5053872354
 21
4.9248287005
  0
LINE
  5
2F3
100
AcDbEntity
  8
0
100
AcDbLine
 62
7
  6
CONTINUOUS
 10
7.6776982501
 20
4.9248287005
 11
7.7637501878
 21
4.9248287005
  0
LINE
  5
2F4
100
AcDbEntity
  8
0
100
AcDbLine
 62
7
  6
CONTINUOUS
 10
7.8603857038
 20
4.9248287005
 11
7.9464332957
 21
4.9248287005
  0
LINE
  5
2F5
100
AcDbEntity
  8
0
100
AcDbLine
 62
7
  6
CONTINUOUS
 10
7.9549669785
 20
4.9248287005
 11
8.0409817408
 21
4.9248287005
  0
LINE
  5
2F6
100
AcDbEntity
  8
0
100
AcDbLine
 62
9
  6
CONTINUOUS
 10
5.3685845584
 20
4.926828245
 11
5.4486492684
 21
4.926828245
  0
LINE
  5
2F7
100
AcDbEntity
  8
0
100
AcDbLine
 62
9
  6
CONTINUOUS
 10
5.5512698392
 20
4.926828245
 11
5.7070052702
 21
4.926828245
  0
LINE
  5
2F8
100
AcDbEntity
  8
0
100
AcDbLine
 62
9
  6
CONTINUOUS
 10
5.809625841
 20
4.926828245
 11
6.0234254584
 21
4.926828245
  0
LINE
  5
2F9
100
AcDbEntity
  8
0
100
AcDbLine
 62
9
  6
CONTINUOUS
 10
6.1260460292
 20
4.926828245
 11
6.3763463201
 21
4.926828245
  0
LINE
  5
2FA
100
AcDbEntity
  8
0
100
AcDbLine
 62
9
  6
CONTINUOUS
 10
6.4789668909
 20
4.926828245
 11
6.7417168818
 21
4.926828245
  0
LINE
  5
2FB
100
AcDbEntity
  8
0
100
AcDbLine
 62
9
  6
CONTINUOUS
 10
6.8443374526
 20
4.926828245
 11
7.0946377435
 21
4.926828245
  0
LINE
  5
2FC
100
AcDbEntity
  8
0
100
AcDbLine
 62
9
  6
CONTINUOUS
 10
7.1972583143
 20
4.926828245
 11
7.4054215002
 21
4.926828245
  0
LINE
  5
2FD
100
AcDbEntity
  8
0
100
AcDbLine
 62
9
  6
CONTINUOUS
 10
7.5136785025
 20
4.926828245
 11
7.663777502
 21
4.926828245
  0
LINE
  5
2FE
100
AcDbEntity
  8
0
100
AcDbLine
 62
9
  6
CONTINUOUS
 10
7.7720345159
 20
4.9268282528
 11
7.8520992028
 21
4.9268282528
  0
LINE
  5
2FF
100
AcDbEntity
  8
0
100
AcDbLine
 62
9
  6
CONTINUOUS
 10
5.1657630186
 20
4.9305939926
 11
5.3742206674
 21
4.9305939926
  0
LINE
  5
300
100
AcDbEntity
  8
0
100
AcDbLine
 62
9
  6
CONTINUOUS
 10
5.4430131593
 20
4.9305939926
 11
5.5569059483
 21
4.9305939926
  0
LINE
  5
301
100
AcDbEntity
  8
0
100
AcDbLine
 62
9
  6
CONTINUOUS
 10
5.7013691611
 20
4.9305939926
 11
5.8152619501
 21
4.9305939926
  0
LINE
  5
302
100
AcDbEntity
  8
0
100
AcDbLine
 62
9
  6
CONTINUOUS
 10
6.0177893493
 20
4.9305939926
 11
6.1316821383
 21
4.9305939926
  0
LINE
  5
303
100
AcDbEntity
  8
0
100
AcDbLine
 62
9
  6
CONTINUOUS
 10
6.370710211
 20
4.9305939926
 11
6.484603
 21
4.9305939926
  0
LINE
  5
304
100
AcDbEntity
  8
0
100
AcDbLine
 62
9
  6
CONTINUOUS
 10
6.7360807727
 20
4.9305939926
 11
6.8499735617
 21
4.9305939926
  0
LINE
  5
305
100
AcDbEntity
  8
0
100
AcDbLine
 62
9
  6
CONTINUOUS
 10
7.0890016344
 20
4.9305939926
 11
7.2028944234
 21
4.9305939926
  0
LINE
  5
306
100
AcDbEntity
  8
0
100
AcDbLine
 62
9
  6
CONTINUOUS
 10
7.4054218227
 20
4.9305939926
 11
7.5193146116
 21
4.9305939926
  0
LINE
  5
307
100
AcDbEntity
  8
0
100
AcDbLine
 62
9
  6
CONTINUOUS
 10
7.6637778245
 20
4.9305939926
 11
7.7776706134
 21
4.9305939926
  0
LINE
  5
308
100
AcDbEntity
  8
0
100
AcDbLine
 62
9
  6
CONTINUOUS
 10
7.8464631053
 20
4.9305939926
 11
8.0549207541
 21
4.9305939926
  0
LINE
  5
309
100
AcDbEntity
  8
0
100
AcDbLine
 62
9
  6
CONTINUOUS
 10
8.0630740335
 20
4.9387478326
 11
7.9744932573
 21
4.9387478326
  0
LINE
  5
30A
100
AcDbEntity
  8
0
100
AcDbLine
 62
9
  6
CONTINUOUS
 10
7.9685097342
 20
4.9387478325
 11
7.8383092653
 21
4.9387478325
  0
LINE
  5
30B
100
AcDbEntity
  8
0
100
AcDbLine
 62
9
  6
CONTINUOUS
 10
7.7858244534
 20
4.9387478326
 11
7.6556239844
 21
4.9387478326
  0
LINE
  5
30C
100
AcDbEntity
  8
0
100
AcDbLine
 62
9
  6
CONTINUOUS
 10
7.5274684516
 20
4.9387478326
 11
7.3972679826
 21
4.9387478326
  0
LINE
  5
30D
100
AcDbEntity
  8
0
100
AcDbLine
 62
9
  6
CONTINUOUS
 10
7.2110482634
 20
4.9387478326
 11
7.0808477944
 21
4.9387478326
  0
LINE
  5
30E
100
AcDbEntity
  8
0
100
AcDbLine
 62
9
  6
CONTINUOUS
 10
6.8581274017
 20
4.9387478326
 11
6.7279269327
 21
4.9387478326
  0
LINE
  5
30F
100
AcDbEntity
  8
0
100
AcDbLine
 62
9
  6
CONTINUOUS
 10
6.49275684
 20
4.9387478326
 11
6.362556371
 21
4.9387478326
  0
LINE
  5
310
100
AcDbEntity
  8
0
100
AcDbLine
 62
9
  6
CONTINUOUS
 10
6.1398359783
 20
4.9387478325
 11
6.0096355094
 21
4.9387478325
  0
LINE
  5
311
100
AcDbEntity
  8
0
100
AcDbLine
 62
9
  6
CONTINUOUS
 10
5.8234157901
 20
4.9387478326
 11
5.6932153211
 21
4.9387478326
  0
LINE
  5
312
100
AcDbEntity
  8
0
100
AcDbLine
 62
9
  6
CONTINUOUS
 10
5.5650597883
 20
4.9387478326
 11
5.4348593193
 21
4.9387478326
  0
LINE
  5
313
100
AcDbEntity
  8
0
100
AcDbLine
 62
9
  6
CONTINUOUS
 10
5.3823745074
 20
4.9387478326
 11
5.1576091786
 21
4.9387478326
  0
LINE
  5
314
100
AcDbEntity
  8
0
100
AcDbLine
 62
9
  6
CONTINUOUS
 10
7.8337657029
 20
4.9465225765
 11
7.7903680158
 21
4.9465225765
  0
LINE
  5
315
100
AcDbEntity
  8
0
100
AcDbLine
 62
9
  6
CONTINUOUS
 10
7.651080422
 20
4.9465225765
 11
7.532012014
 21
4.9465225765
  0
LINE
  5
316
100
AcDbEntity
  8
0
100
AcDbLine
 62
9
  6
CONTINUOUS
 10
7.3927244202
 20
4.9465225765
 11
7.2155918258
 21
4.9465225765
  0
LINE
  5
317
100
AcDbEntity
  8
0
100
AcDbLine
 62
9
  6
CONTINUOUS
 10
7.076304232
 20
4.9465225765
 11
6.8626709641
 21
4.9465225765
  0
LINE
  5
318
100
AcDbEntity
  8
0
100
AcDbLine
 62
9
  6
CONTINUOUS
 10
6.7233833703
 20
4.9465225765
 11
6.4973004024
 21
4.9465225765
  0
LINE
  5
319
100
AcDbEntity
  8
0
100
AcDbLine
 62
9
  6
CONTINUOUS
 10
6.3580128086
 20
4.9465225765
 11
6.1443795407
 21
4.9465225765
  0
LINE
  5
31A
100
AcDbEntity
  8
0
100
AcDbLine
 62
9
  6
CONTINUOUS
 10
6.0050919469
 20
4.9465225765
 11
5.8279593525
 21
4.9465225765
  0
LINE
  5
31B
100
AcDbEntity
  8
0
100
AcDbLine
 62
9
  6
CONTINUOUS
 10
5.6886717587
 20
4.9465225765
 11
5.5696033507
 21
4.9465225765
  0
LINE
  5
31C
100
AcDbEntity
  8
0
100
AcDbLine
 62
9
  6
CONTINUOUS
 10
5.4303157569
 20
4.9465225765
 11
5.3869180699
 21
4.9465225765
  0
LINE
  5
31D
100
AcDbEntity
  8
0
100
AcDbLine
 62
9
  6
CONTINUOUS
 10
5.1518432713
 20
4.9526675501
 11
5.3881404147
 21
4.9526675501
  0
LINE
  5
31E
100
AcDbEntity
  8
0
100
AcDbLine
 62
9
  6
CONTINUOUS
 10
5.4290934121
 20
4.9526675501
 11
5.5708256955
 21
4.9526675501
  0
LINE
  5
31F
100
AcDbEntity
  8
0
100
AcDbLine
 62
9
  6
CONTINUOUS
 10
5.6874494139
 20
4.9526675501
 11
5.8291816973
 21
4.9526675501
  0
LINE
  5
320
100
AcDbEntity
  8
0
100
AcDbLine
 62
9
  6
CONTINUOUS
 10
6.0038696021
 20
4.9526675501
 11
6.1456018856
 21
4.9526675501
  0
LINE
  5
321
100
AcDbEntity
  8
0
100
AcDbLine
 62
9
  6
CONTINUOUS
 10
6.3567904638
 20
4.9526675501
 11
6.4985227473
 21
4.9526675501
  0
LINE
  5
322
100
AcDbEntity
  8
0
100
AcDbLine
 62
9
  6
CONTINUOUS
 10
6.7221610255
 20
4.9526675501
 11
6.8638933089
 21
4.9526675501
  0
LINE
  5
323
100
AcDbEntity
  8
0
100
AcDbLine
 62
9
  6
CONTINUOUS
 10
7.0750818872
 20
4.9526675501
 11
7.2168141706
 21
4.9526675501
  0
LINE
  5
324
100
AcDbEntity
  8
0
100
AcDbLine
 62
9
  6
CONTINUOUS
 10
7.3915020754
 20
4.9526675501
 11
7.5332343589
 21
4.9526675501
  0
LINE
  5
325
100
AcDbEntity
  8
0
100
AcDbLine
 62
9
  6
CONTINUOUS
 10
7.6498580772
 20
4.9526675501
 11
7.7915903607
 21
4.9526675501
  0
LINE
  5
326
100
AcDbEntity
  8
0
100
AcDbLine
 62
9
  6
CONTINUOUS
 10
7.8325433581
 20
4.9526675501
 11
8.0688398911
 21
4.9526675501
  0
LINE
  5
327
100
AcDbEntity
  8
0
100
AcDbLine
 62
9
  6
CONTINUOUS
 10
7.8325433581
 20
4.9641659984
 11
7.7915903607
 21
4.9641659984
  0
LINE
  5
328
100
AcDbEntity
  8
0
100
AcDbLine
 62
9
  6
CONTINUOUS
 10
7.6498580772
 20
4.9641659984
 11
7.5332343589
 21
4.9641659984
  0
LINE
  5
329
100
AcDbEntity
  8
0
100
AcDbLine
 62
9
  6
CONTINUOUS
 10
7.3920098423
 20
4.9641659984
 11
7.2168141706
 21
4.9641659984
  0
LINE
  5
32A
100
AcDbEntity
  8
0
100
AcDbLine
 62
9
  6
CONTINUOUS
 10
7.0750818872
 20
4.9641659984
 11
6.8638933089
 21
4.9641659984
  0
LINE
  5
32B
100
AcDbEntity
  8
0
100
AcDbLine
 62
9
  6
CONTINUOUS
 10
6.7221610255
 20
4.9641659984
 11
6.4985227473
 21
4.9641659984
  0
LINE
  5
32C
100
AcDbEntity
  8
0
100
AcDbLine
 62
9
  6
CONTINUOUS
 10
6.3567904638
 20
4.9641659984
 11
6.1456018856
 21
4.9641659984
  0
LINE
  5
32D
100
AcDbEntity
  8
0
100
AcDbLine
 62
9
  6
CONTINUOUS
 10
6.0038696021
 20
4.9641659984
 11
5.8306744304
 21
4.9641659984
  0
LINE
  5
32E
100
AcDbEntity
  8
0
100
AcDbLine
 62
9
  6
CONTINUOUS
 10
5.6874494139
 20
4.9641659984
 11
5.5708256955
 21
4.9641659984
  0
LINE
  5
32F
100
AcDbEntity
  8
0
100
AcDbLine
 62
9
  6
CONTINUOUS
 10
5.4290934121
 20
4.9641659984
 11
5.3881404147
 21
4.9641659984
  0
LINE
  5
330
100
AcDbEntity
  8
0
100
AcDbLine
 62
7
  6
CONTINUOUS
 10
4.9413306882
 20
4.9663758687
 11
5.1059930622
 21
4.9663758687
  0
LINE
  5
331
100
AcDbEntity
  8
0
100
AcDbLine
 62
7
  6
CONTINUOUS
 10
5.1575955464
 20
4.9663758687
 11
5.2672581826
 21
4.9663758687
  0
LINE
  5
332
100
AcDbEntity
  8
0
100
AcDbLine
 62
7
  6
CONTINUOUS
 10
5.4141139406
 20
4.9663758687
 11
5.5237841606
 21
4.9663758687
  0
LINE
  5
333
100
AcDbEntity
  8
0
100
AcDbLine
 62
7
  6
CONTINUOUS
 10
5.7484177897
 20
4.9663758687
 11
5.8580927546
 21
4.9663758687
  0
LINE
  5
334
100
AcDbEntity
  8
0
100
AcDbLine
 62
7
  6
CONTINUOUS
 10
6.1377265895
 20
4.9663758687
 11
6.247399636
 21
4.9663758687
  0
LINE
  5
335
100
AcDbEntity
  8
0
100
AcDbLine
 62
7
  6
CONTINUOUS
 10
6.5555035707
 20
4.9663758687
 11
6.6651753583
 21
4.9663758687
  0
LINE
  5
336
100
AcDbEntity
  8
0
100
AcDbLine
 62
7
  6
CONTINUOUS
 10
6.973290348
 20
4.9663758687
 11
7.0829509719
 21
4.9663758687
  0
LINE
  5
337
100
AcDbEntity
  8
0
100
AcDbLine
 62
7
  6
CONTINUOUS
 10
7.3626002805
 20
4.9663758687
 11
7.4722567206
 21
4.9663758687
  0
LINE
  5
338
100
AcDbEntity
  8
0
100
AcDbLine
 62
7
  6
CONTINUOUS
 10
7.6969067796
 20
4.9663758687
 11
7.8065626647
 21
4.9663758687
  0
LINE
  5
339
100
AcDbEntity
  8
0
100
AcDbLine
 62
7
  6
CONTINUOUS
 10
7.9534271801
 20
4.9663758687
 11
8.0630866364
 21
4.9663758687
  0
LINE
  5
33A
100
AcDbEntity
  8
0
100
AcDbLine
 62
7
  6
CONTINUOUS
 10
8.1146793884
 20
4.9663758687
 11
8.2793530845
 21
4.9663758687
  0
LINE
  5
33B
100
AcDbEntity
  8
0
100
AcDbLine
 62
9
  6
CONTINUOUS
 10
4.9274111952
 20
4.9721412055
 11
5.1199277398
 21
4.9721412055
  0
LINE
  5
33C
100
AcDbEntity
  8
0
100
AcDbLine
 62
9
  6
CONTINUOUS
 10
5.1436694017
 20
4.9721412055
 11
5.2811843273
 21
4.9721412055
  0
LINE
  5
33D
100
AcDbEntity
  8
0
100
AcDbLine
 62
9
  6
CONTINUOUS
 10
5.4001915878
 20
4.9721412055
 11
5.5377065134
 21
4.9721412055
  0
LINE
  5
33E
100
AcDbEntity
  8
0
100
AcDbLine
 62
9
  6
CONTINUOUS
 10
5.7344978094
 20
4.9721412055
 11
5.872012735
 21
4.9721412055
  0
LINE
  5
33F
100
AcDbEntity
  8
0
100
AcDbLine
 62
9
  6
CONTINUOUS
 10
6.12380565
 20
4.9721412055
 11
6.2613205756
 21
4.9721412055
  0
LINE
  5
340
100
AcDbEntity
  8
0
100
AcDbLine
 62
9
  6
CONTINUOUS
 10
6.5415844236
 20
4.9721412055
 11
6.6790993491
 21
4.9721412055
  0
LINE
  5
341
100
AcDbEntity
  8
0
100
AcDbLine
 62
9
  6
CONTINUOUS
 10
6.9593631972
 20
4.9721412055
 11
7.0968781227
 21
4.9721412055
  0
LINE
  5
342
100
AcDbEntity
  8
0
100
AcDbLine
 62
9
  6
CONTINUOUS
 10
7.3486710378
 20
4.9721412055
 11
7.4861859633
 21
4.9721412055
  0
LINE
  5
343
100
AcDbEntity
  8
0
100
AcDbLine
 62
9
  6
CONTINUOUS
 10
7.6829772594
 20
4.9721412055
 11
7.8204921849
 21
4.9721412055
  0
LINE
  5
344
100
AcDbEntity
  8
0
100
AcDbLine
 62
9
  6
CONTINUOUS
 10
8.100756033
 20
4.9721412055
 11
8.2932725775
 21
4.9721412055
  0
LINE
  5
345
100
AcDbEntity
  8
0
100
AcDbLine
 62
9
  6
CONTINUOUS
 10
7.9394994196
 20
4.9721412314
 11
8.0770143968
 21
4.9721412314
  0
LINE
  5
346
100
AcDbEntity
  8
0
100
AcDbLine
 62
9
  6
CONTINUOUS
 10
8.3014260682
 20
4.9802946962
 11
8.0926025423
 21
4.9802946962
  0
LINE
  5
347
100
AcDbEntity
  8
0
100
AcDbLine
 62
9
  6
CONTINUOUS
 10
7.8286456756
 20
4.9802946962
 11
7.6748237687
 21
4.9802946962
  0
LINE
  5
348
100
AcDbEntity
  8
0
100
AcDbLine
 62
9
  6
CONTINUOUS
 10
7.494339454
 20
4.9802946962
 11
7.3405175471
 21
4.9802946962
  0
LINE
  5
349
100
AcDbEntity
  8
0
100
AcDbLine
 62
9
  6
CONTINUOUS
 10
7.1050316134
 20
4.9802946962
 11
6.9512097065
 21
4.9802946962
  0
LINE
  5
34A
100
AcDbEntity
  8
0
100
AcDbLine
 62
9
  6
CONTINUOUS
 10
6.6872528398
 20
4.9802946962
 11
6.5334309329
 21
4.9802946962
  0
LINE
  5
34B
100
AcDbEntity
  8
0
100
AcDbLine
 62
9
  6
CONTINUOUS
 10
6.2694740662
 20
4.9802946962
 11
6.1156521593
 21
4.9802946962
  0
LINE
  5
34C
100
AcDbEntity
  8
0
100
AcDbLine
 62
9
  6
CONTINUOUS
 10
5.8801662258
 20
4.9802946964
 11
5.7263443186
 21
4.9802946964
  0
LINE
  5
34D
100
AcDbEntity
  8
0
100
AcDbLine
 62
9
  6
CONTINUOUS
 10
5.5458600041
 20
4.9802946962
 11
5.3920380971
 21
4.9802946962
  0
LINE
  5
34E
100
AcDbEntity
  8
0
100
AcDbLine
 62
9
  6
CONTINUOUS
 10
5.289337818
 20
4.9802946962
 11
5.135515911
 21
4.9802946962
  0
LINE
  5
34F
100
AcDbEntity
  8
0
100
AcDbLine
 62
9
  6
CONTINUOUS
 10
5.1280812305
 20
4.9802946962
 11
4.9192577046
 21
4.9802946962
  0
LINE
  5
350
100
AcDbEntity
  8
0
100
AcDbLine
 62
9
  6
CONTINUOUS
 10
8.0851682104
 20
4.980295045
 11
7.931345606
 21
4.980295045
  0
LINE
  5
351
100
AcDbEntity
  8
0
100
AcDbLine
 62
9
  6
CONTINUOUS
 10
4.9134914927
 20
4.9942147184
 11
5.2951040299
 21
4.9942147184
  0
LINE
  5
352
100
AcDbEntity
  8
0
100
AcDbLine
 62
9
  6
CONTINUOUS
 10
5.3862718852
 20
4.9942147184
 11
5.5516262159
 21
4.9942147184
  0
LINE
  5
353
100
AcDbEntity
  8
0
100
AcDbLine
 62
9
  6
CONTINUOUS
 10
5.7205781068
 20
4.9942147184
 11
5.8859324375
 21
4.9942147184
  0
LINE
  5
354
100
AcDbEntity
  8
0
100
AcDbLine
 62
9
  6
CONTINUOUS
 10
6.1098859474
 20
4.9942147184
 11
6.2752402781
 21
4.9942147184
  0
LINE
  5
355
100
AcDbEntity
  8
0
100
AcDbLine
 62
9
  6
CONTINUOUS
 10
6.527664721
 20
4.9942147184
 11
6.6930190517
 21
4.9942147184
  0
LINE
  5
356
100
AcDbEntity
  8
0
100
AcDbLine
 62
9
  6
CONTINUOUS
 10
6.9454434946
 20
4.9942147184
 11
7.1107978253
 21
4.9942147184
  0
LINE
  5
357
100
AcDbEntity
  8
0
100
AcDbLine
 62
9
  6
CONTINUOUS
 10
7.3347513352
 20
4.9942147184
 11
7.5001056659
 21
4.9942147184
  0
LINE
  5
358
100
AcDbEntity
  8
0
100
AcDbLine
 62
9
  6
CONTINUOUS
 10
7.6690575568
 20
4.9942147184
 11
7.8344118875
 21
4.9942147184
  0
LINE
  5
359
100
AcDbEntity
  8
0
100
AcDbLine
 62
9
  6
CONTINUOUS
 10
7.9255797429
 20
4.9942147184
 11
8.3071922801
 21
4.9942147184
  0
LINE
  5
35A
100
AcDbEntity
  8
0
100
AcDbLine
 62
7
  6
CONTINUOUS
 10
4.9134914927
 20
5.0244582467
 11
4.9074113805
 21
5.0244545798
  0
LINE
  5
35B
100
AcDbEntity
  8
0
100
AcDbLine
 62
7
  6
CONTINUOUS
 10
4.8492179565
 20
5.0291345349
 11
8.3750899135
 21
5.0291345349
  0
LINE
  5
35C
100
AcDbEntity
  8
0
100
AcDbLine
 62
9
  6
CONTINUOUS
 10
6.6930188923
 20
5.029371933
 11
6.664632882
 21
5.0293732446
  0
LINE
  5
35D
100
AcDbEntity
  8
0
100
AcDbLine
 62
9
  6
CONTINUOUS
 10
5.131871126
 20
5.0293750631
 11
4.8530152306
 21
5.0293767086
  0
LINE
  5
35E
100
AcDbEntity
  8
0
100
AcDbLine
 62
9
  6
CONTINUOUS
 10
6.664632882
 20
5.0293732446
 11
6.5510780103
 21
5.0293736066
  0
LINE
  5
35F
100
AcDbEntity
  8
0
100
AcDbLine
 62
9
  6
CONTINUOUS
 10
6.1354913884
 20
5.0293733549
 11
5.1334889184
 21
5.0293751471
  0
LINE
  5
360
100
AcDbEntity
  8
0
100
AcDbLine
 62
9
  6
CONTINUOUS
 10
8.3787051522
 20
5.0293748514
 11
6.9668355883
 21
5.029374574
  0
LINE
  5
361
100
AcDbEntity
  8
0
100
AcDbLine
 62
9
  6
CONTINUOUS
 10
6.9454434187
 20
5.0293740264
 11
6.6930188923
 21
5.029371933
  0
LINE
  5
362
100
AcDbEntity
  8
0
100
AcDbLine
 62
9
  6
CONTINUOUS
 10
6.9668355883
 20
5.029374574
 11
6.9500631367
 21
5.0293742562
  0
LINE
  5
363
100
AcDbEntity
  8
0
100
AcDbLine
 62
9
  6
CONTINUOUS
 10
6.5510780103
 20
5.0293736066
 11
6.5457684633
 21
5.0293734598
  0
LINE
  5
364
100
AcDbEntity
  8
0
100
AcDbLine
 62
9
  6
CONTINUOUS
 10
6.9500631367
 20
5.0293742562
 11
6.9454434187
 21
5.0293740264
  0
LINE
  5
365
100
AcDbEntity
  8
0
100
AcDbLine
 62
9
  6
CONTINUOUS
 10
5.1334889184
 20
5.0293751471
 11
5.131871126
 21
5.0293750631
  0
LINE
  5
366
100
AcDbEntity
  8
0
100
AcDbLine
 62
9
  6
CONTINUOUS
 10
4.8530152306
 20
5.0293767086
 11
4.8419763842
 21
5.0293754216
  0
LINE
  5
367
100
AcDbEntity
  8
0
100
AcDbLine
 62
7
  6
CONTINUOUS
 10
4.7333418864
 20
5.0497426416
 11
8.4873418864
 21
5.0497426416
  0
LINE
  5
368
100
AcDbEntity
  8
0
100
AcDbLine
 62
9
  6
CONTINUOUS
 10
8.6353418864
 20
5.057498993
 11
4.5853418864
 21
5.057498993
  0
LINE
  5
369
100
AcDbEntity
  8
0
100
AcDbLine
 62
9
  6
CONTINUOUS
 10
6.5457684633
 20
5.0293734598
 11
6.2609677441
 21
5.0293705989
  0
LINE
  5
36A
100
AcDbEntity
  8
0
100
AcDbLine
 62
9
  6
CONTINUOUS
 10
6.2752403806
 20
5.0293696378
 11
6.1354913884
 21
5.0293733549
  0
LINE
  5
36B
100
AcDbEntity
  8
0
100
AcDbLine
 62
7
  6
CONTINUOUS
 10
4.7333418864
 20
5.0497426416
 11
4.5853418864
 21
5.057498993
  0
LINE
  5
36C
100
AcDbEntity
  8
0
100
AcDbLine
 62
7
  6
CONTINUOUS
 10
8.2422071535
 20
5.9456573834
 11
8.4708471346
 21
5.8438603052
  0
LINE
  5
36D
100
AcDbEntity
  8
0
100
AcDbLine
 62
7
  6
CONTINUOUS
 10
2.4699194753
 20
8.5431059942
 11
2.4529194768
 21
8.5510762422
  0
LINE
  5
36E
100
AcDbEntity
  8
0
100
AcDbLine
 62
7
  6
CONTINUOUS
 10
5.281184605
 20
4.9721414833
 11
5.289337818
 21
4.9802946962
  0
LINE
  5
36F
100
AcDbEntity
  8
0
100
AcDbLine
 62
7
  6
CONTINUOUS
 10
5.3742209899
 20
4.930594315
 11
5.3823745074
 21
4.9387478326
  0
LINE
  5
370
100
AcDbEntity
  8
0
100
AcDbLine
 62
7
  6
CONTINUOUS
 10
5.5377067911
 20
4.9721414833
 11
5.5458600041
 21
4.9802946962
  0
LINE
  5
371
100
AcDbEntity
  8
0
100
AcDbLine
 62
7
  6
CONTINUOUS
 10
5.5569062707
 20
4.930594315
 11
5.5650597883
 21
4.9387478326
  0
LINE
  5
372
100
AcDbEntity
  8
0
100
AcDbLine
 62
7
  6
CONTINUOUS
 10
5.8152622725
 20
4.930594315
 11
5.8234157901
 21
4.9387478326
  0
LINE
  5
373
100
AcDbEntity
  8
0
100
AcDbLine
 62
7
  6
CONTINUOUS
 10
5.8720130127
 20
4.9721414833
 11
5.8801662258
 21
4.9802946964
  0
LINE
  5
374
100
AcDbEntity
  8
0
100
AcDbLine
 62
7
  6
CONTINUOUS
 10
7.5950493426
 20
4.8709494685
 11
7.5951355969
 21
4.8709669102
  0
LINE
  5
375
100
AcDbEntity
  8
0
100
AcDbLine
 62
7
  6
CONTINUOUS
 10
7.87250759
 20
4.9197612643
 11
7.7835702332
 21
4.9044214884
  0
LINE
  5
376
100
AcDbEntity
  8
0
100
AcDbLine
 62
9
  6
CONTINUOUS
 10
5.6381327304
 20
4.859404594
 11
5.638458984
 21
4.8594557193
  0
LINE
  5
377
100
AcDbEntity
  8
0
100
AcDbLine
 62
7
  6
CONTINUOUS
 10
8.3767607891
 20
5.0291345349
 11
8.3787043093
 21
5.0293781606
  0
LINE
  5
378
100
AcDbEntity
  8
0
100
AcDbLine
 62
7
  6
CONTINUOUS
 10
8.4873418864
 20
5.0497426416
 11
8.6353418864
 21
5.057498993
  0
LINE
  5
379
100
AcDbEntity
  8
0
100
AcDbLine
 62
7
  6
CONTINUOUS
 10
4.4604047449
 20
5.1672206783
 11
8.7602790278
 21
5.1672206783
  0
LINE
  5
37A
100
AcDbEntity
  8
0
100
AcDbLine
 62
9
  6
CONTINUOUS
 10
8.7114244933
 20
5.2377647641
 11
4.5092592794
 21
5.2377647641
  0
LINE
  5
37B
100
AcDbEntity
  8
0
100
AcDbLine
 62
9
  6
CONTINUOUS
 10
8.612577332
 20
5.312908437
 11
4.6081064407
 21
5.312908437
  0
LINE
  5
37C
100
AcDbEntity
  8
0
100
AcDbLine
 62
9
  6
CONTINUOUS
 10
4.7053418864
 20
5.5922955683
 11
8.5153418864
 21
5.5922955683
  0
LWPOLYLINE
  5
37D
100
AcDbEntity
  8
0
100
AcDbPolyline
 62
7
  6
CONTINUOUS
 90
4
 70
0
 10
7.4626365071
 20
4.8631297949
 10
7.4651196528
 20
4.8663697607
 10
7.4667467154
 20
4.867520345
 10
7.4668915665
 20
4.8675964286
  0
LINE
  5
37E
100
AcDbEntity
  8
0
100
AcDbLine
 62
7
  6
CONTINUOUS
 10
5.9098888965
 20
4.8118513627
 11
5.9226551548
 21
4.824617621
  0
LINE
  5
37F
100
AcDbEntity
  8
0
100
AcDbLine
 62
7
  6
CONTINUOUS
 10
6.1316824607
 20
4.930594315
 11
6.1398359783
 21
4.9387478325
  0
LINE
  5
380
100
AcDbEntity
  8
0
100
AcDbLine
 62
7
  6
CONTINUOUS
 10
6.2613208533
 20
4.9721414833
 11
6.2694740662
 21
4.9802946962
  0
LINE
  5
381
100
AcDbEntity
  8
0
100
AcDbLine
 62
7
  6
CONTINUOUS
 10
6.4846033224
 20
4.930594315
 11
6.49275684
 21
4.9387478326
  0
LINE
  5
382
100
AcDbEntity
  8
0
100
AcDbLine
 62
7
  6
CONTINUOUS
 10
6.362121789
 20
4.7089950865
 11
6.3702750085
 21
4.717148306
  0
LINE
  5
383
100
AcDbEntity
  8
0
100
AcDbLine
 62
7
  6
CONTINUOUS
 10
6.4689937307
 20
4.8118513627
 11
6.4817599889
 21
4.8246176209
  0
LINE
  5
384
100
AcDbEntity
  8
0
100
AcDbLine
 62
7
  6
CONTINUOUS
 10
6.6790996269
 20
4.9721414833
 11
6.6872528398
 21
4.9802946962
  0
LINE
  5
385
100
AcDbEntity
  8
0
100
AcDbLine
 62
7
  6
CONTINUOUS
 10
6.6886858933
 20
4.8118513627
 11
6.7014521515
 21
4.8246176209
  0
LINE
  5
386
100
AcDbEntity
  8
0
100
AcDbLine
 62
7
  6
CONTINUOUS
 10
6.8499738841
 20
4.930594315
 11
6.8581274017
 21
4.9387478326
  0
LINE
  5
387
100
AcDbEntity
  8
0
100
AcDbLine
 62
7
  6
CONTINUOUS
 10
5.9333437596
 20
4.8506392199
 11
5.9335431822
 21
4.8506920607
  0
LINE
  5
388
100
AcDbEntity
  8
0
100
AcDbLine
 62
9
  6
CONTINUOUS
 10
8.5153418864
 20
5.7753443959
 11
4.7053418864
 21
5.7753443959
  0
LINE
  5
389
100
AcDbEntity
  8
0
100
AcDbLine
 62
9
  6
CONTINUOUS
 10
4.7498366381
 20
5.8438603052
 11
8.4708471346
 21
5.8438603052
  0
LINE
  5
38A
100
AcDbEntity
  8
0
100
AcDbLine
 62
9
  6
CONTINUOUS
 10
8.2422071535
 20
5.9456573834
 11
4.9784766192
 21
5.9456573834
  0
LINE
  5
38B
100
AcDbEntity
  8
0
100
AcDbLine
 62
9
  6
CONTINUOUS
 10
4.9903418864
 20
5.9639282925
 11
8.2303418864
 21
5.9639282925
  0
LINE
  5
38C
100
AcDbEntity
  8
0
100
AcDbLine
 62
9
  6
CONTINUOUS
 10
8.2303418864
 20
5.9979167251
 11
4.9903418864
 21
5.9979167251
  0
LINE
  5
38D
100
AcDbEntity
  8
0
100
AcDbLine
 62
9
  6
CONTINUOUS
 10
5.0060274933
 20
6.0174458319
 11
8.2146562794
 21
6.0174458319
  0
LWPOLYLINE
  5
38E
100
AcDbEntity
  8
0
100
AcDbPolyline
 62
7
  6
CONTINUOUS
 90
4
 70
0
 10
7.5508065669
 20
4.8645244697
 10
7.5534854493
 20
4.8678567192
 10
7.5555513725
 20
4.8692395672
 10
7.556240192
 20
4.8695484166
  0
LINE
  5
38F
100
AcDbEntity
  8
0
100
AcDbLine
 62
7
  6
CONTINUOUS
 10
6.6713541396
 20
4.7089950865
 11
6.6795073608
 21
4.7171483077
  0
LINE
  5
390
100
AcDbEntity
  8
0
100
AcDbLine
 62
7
  6
CONTINUOUS
 10
6.9069698634
 20
4.8118513627
 11
6.9197361215
 21
4.8246176209
  0
LINE
  5
391
100
AcDbEntity
  8
0
100
AcDbLine
 62
7
  6
CONTINUOUS
 10
7.0968784005
 20
4.9721414833
 11
7.1050316134
 21
4.9802946962
  0
LINE
  5
392
100
AcDbEntity
  8
0
100
AcDbLine
 62
7
  6
CONTINUOUS
 10
7.2028947458
 20
4.930594315
 11
7.2110482634
 21
4.9387478326
  0
LINE
  5
393
100
AcDbEntity
  8
0
100
AcDbLine
 62
7
  6
CONTINUOUS
 10
7.0162580101
 20
4.7089950865
 11
7.0244112296
 21
4.717148306
  0
LINE
  5
394
100
AcDbEntity
  8
0
100
AcDbLine
 62
7
  6
CONTINUOUS
 10
7.194793391
 20
4.7089950865
 11
7.2029466121
 21
4.7171483077
  0
LINE
  5
395
100
AcDbEntity
  8
0
100
AcDbLine
 62
7
  6
CONTINUOUS
 10
7.4861862411
 20
4.9721414833
 11
7.494339454
 21
4.9802946962
  0
LINE
  5
396
100
AcDbEntity
  8
0
100
AcDbLine
 62
7
  6
CONTINUOUS
 10
7.519314934
 20
4.930594315
 11
7.5274684516
 21
4.9387478326
  0
LINE
  5
397
100
AcDbEntity
  8
0
100
AcDbLine
 62
7
  6
CONTINUOUS
 10
7.445197739
 20
4.8118513627
 11
7.4579639971
 21
4.8246176209
  0
LINE
  5
398
100
AcDbEntity
  8
0
100
AcDbLine
 62
7
  6
CONTINUOUS
 10
7.533204952
 20
4.8118513627
 11
7.5459712102
 21
4.8246176209
  0
LINE
  5
399
100
AcDbEntity
  8
0
100
AcDbLine
 62
7
  6
CONTINUOUS
 10
7.5696323219
 20
4.8118513627
 11
7.5823985801
 21
4.8246176209
  0
LWPOLYLINE
  5
39A
100
AcDbEntity
  8
0
100
AcDbPolyline
 62
7
  6
CONTINUOUS
 90
3
 70
0
 10
5.9291418752
 20
4.8479087452
 10
5.9318465224
 20
4.8500072339
 10
5.9333437596
 20
4.8506392199
  0
LINE
  5
39B
100
AcDbEntity
  8
0
100
AcDbLine
 62
7
  6
CONTINUOUS
 10
4.9784766192
 20
5.9456573834
 11
4.7498366381
 21
5.8438603052
  0
LINE
  5
39C
100
AcDbEntity
  8
0
100
AcDbLine
 62
7
  6
CONTINUOUS
 10
7.150340836
 20
6.6740499654
 11
6.0703429367
 21
6.6740499654
  0
LINE
  5
39D
100
AcDbEntity
  8
0
100
AcDbLine
 62
9
  6
CONTINUOUS
 10
6.1263418864
 20
6.7340499654
 11
7.0943418864
 21
6.7340499654
  0
LINE
  5
39E
100
AcDbEntity
  8
0
100
AcDbLine
 62
9
  6
CONTINUOUS
 10
7.0943418864
 20
6.7540499654
 11
6.1263418864
 21
6.7540499654
  0
LINE
  5
39F
100
AcDbEntity
  8
0
100
AcDbLine
 62
9
  6
CONTINUOUS
 10
7.0638995377
 20
6.825895168
 11
6.156784235
 21
6.825895168
  0
LINE
  5
3A0
100
AcDbEntity
  8
0
100
AcDbLine
 62
9
  6
CONTINUOUS
 10
6.1721130352
 20
6.8504612699
 11
7.0485707376
 21
6.8504612699
  0
LINE
  5
3A1
100
AcDbEntity
  8
0
100
AcDbLine
 62
7
  6
CONTINUOUS
 10
7.7776709358
 20
4.930594315
 11
7.7858244534
 21
4.9387478326
  0
LINE
  5
3A2
100
AcDbEntity
  8
0
100
AcDbLine
 62
7
  6
CONTINUOUS
 10
7.8204924627
 20
4.9721414833
 11
7.8286456756
 21
4.9802946962
  0
LINE
  5
3A3
100
AcDbEntity
  8
0
100
AcDbLine
 62
7
  6
CONTINUOUS
 10
7.9603562167
 20
4.930594315
 11
7.9685097342
 21
4.9387478325
  0
LINE
  5
3A4
100
AcDbEntity
  8
0
100
AcDbLine
 62
7
  6
CONTINUOUS
 10
8.0770146488
 20
4.9721414833
 11
8.0851682104
 21
4.980295045
  0
LINE
  5
3A5
100
AcDbEntity
  8
0
100
AcDbLine
 62
7
  6
CONTINUOUS
 10
8.0549210766
 20
4.930594315
 11
8.0630745942
 21
4.9387478326
  0
LINE
  5
3A6
100
AcDbEntity
  8
0
100
AcDbLine
 62
7
  6
CONTINUOUS
 10
8.2382712363
 20
4.9721414833
 11
8.2464244492
 21
4.9802946962
  0
LINE
  5
3A7
100
AcDbEntity
  8
0
100
AcDbLine
 62
7
  6
CONTINUOUS
 10
8.2932725775
 20
4.9721412055
 11
8.3014260682
 21
4.9802946962
  0
LWPOLYLINE
  5
3A8
100
AcDbEntity
  8
0
100
AcDbPolyline
 62
7
  6
CONTINUOUS
 90
7
 70
0
 10
19.503707769
 20
9.135971697
 10
19.5776712808
 20
9.153797976
 10
19.6440660854
 20
9.1908433319
 10
19.6980132519
 20
9.2443360948
 10
19.735720177
 20
9.3106705359
 10
19.7540833757
 20
9.3843832177
 10
19.7542853814
 20
9.442867644
  0
LINE
  5
3A9
100
AcDbEntity
  8
0
100
AcDbLine
 62
7
  6
CONTINUOUS
 10
7.0053418835
 20
6.9835060025
 11
6.2153418525
 21
6.9835058892
  0
LINE
  5
3AA
100
AcDbEntity
  8
0
100
AcDbLine
 62
9
  6
CONTINUOUS
 10
6.2353418864
 20
7.0282273193
 11
6.9853418864
 21
7.028227279
  0
LINE
  5
3AB
100
AcDbEntity
  8
0
100
AcDbLine
 62
9
  6
CONTINUOUS
 10
2.4886526646
 20
7.1182395135
 11
2.939186289
 21
7.1182395135
  0
LINE
  5
3AC
100
AcDbEntity
  8
0
100
AcDbLine
 62
9
  6
CONTINUOUS
 10
2.8817067724
 20
7.2003287705
 11
2.5461321812
 21
7.2003287705
  0
LINE
  5
3AD
100
AcDbEntity
  8
0
100
AcDbLine
 62
7
  6
CONTINUOUS
 10
2.5248285871
 20
7.2255059935
 11
2.9030103665
 21
7.2255059935
  0
LINE
  5
3AE
100
AcDbEntity
  8
0
100
AcDbLine
 62
9
  6
CONTINUOUS
 10
2.5230021836
 20
7.2503691521
 11
2.90483677
 21
7.2503691521
  0
LINE
  5
3AF
100
AcDbEntity
  8
0
100
AcDbLine
 62
7
  6
CONTINUOUS
 10
5.62499362
 20
7.4585059935
 11
5.5969194768
 21
7.4585059935
  0
LINE
  5
3B0
100
AcDbEntity
  8
0
100
AcDbLine
 62
7
  6
CONTINUOUS
 10
5.4819194768
 20
7.4585059935
 11
5.4369194768
 21
7.4585059935
  0
LINE
  5
3B1
100
AcDbEntity
  8
0
100
AcDbLine
 62
9
  6
CONTINUOUS
 10
6.9853418864
 20
7.4835059935
 11
6.2353418864
 21
7.4835059935
  0
LINE
  5
3B2
100
AcDbEntity
  8
0
100
AcDbLine
 62
7
  6
CONTINUOUS
 10
5.1024379883
 20
7.5235059935
 11
5.4219194768
 21
7.5235059935
  0
LINE
  5
3B3
100
AcDbEntity
  8
0
100
AcDbLine
 62
7
  6
CONTINUOUS
 10
11.5796604404
 20
10.2245059935
 11
11.5796604404
 21
10.2545059935
  0
LINE
  5
3B4
100
AcDbEntity
  8
0
100
AcDbLine
 62
9
  6
CONTINUOUS
 10
2.9005974068
 20
7.6118399779
 11
2.5272415468
 21
7.6118399779
  0
LINE
  5
3B5
100
AcDbEntity
  8
0
100
AcDbLine
 62
9
  6
CONTINUOUS
 10
2.5179194768
 20
7.6340000149
 11
2.9099080688
 21
7.6340000149
  0
LINE
  5
3B6
100
AcDbEntity
  8
0
100
AcDbLine
 62
9
  6
CONTINUOUS
 10
7.1245356815
 20
7.7389164525
 11
7.224423162
 21
7.7389169524
  0
LINE
  5
3B7
100
AcDbEntity
  8
0
100
AcDbLine
 62
7
  6
CONTINUOUS
 10
7.198209162
 20
7.7835059935
 11
7.1531776035
 21
7.7835059935
  0
LINE
  5
3B8
100
AcDbEntity
  8
0
100
AcDbLine
 62
7
  6
CONTINUOUS
 10
3.4959194768
 20
7.7885059935
 11
3.8271901919
 21
7.7885059935
  0
LINE
  5
3B9
100
AcDbEntity
  8
0
100
AcDbLine
 62
7
  6
CONTINUOUS
 10
5.8319194768
 20
7.8610059935
 11
5.8499194768
 21
7.8610059935
  0
LINE
  5
3BA
100
AcDbEntity
  8
0
100
AcDbLine
 62
7
  6
CONTINUOUS
 10
3.4729194768
 20
7.9260059935
 11
3.0586794768
 21
7.9260059935
  0
LINE
  5
3BB
100
AcDbEntity
  8
0
100
AcDbLine
 62
7
  6
CONTINUOUS
 10
3.4959194768
 20
7.9535059935
 11
3.4729194768
 21
7.9535059935
  0
LINE
  5
3BC
100
AcDbEntity
  8
0
100
AcDbLine
 62
7
  6
CONTINUOUS
 10
11.8996993341
 20
9.9745059935
 11
11.8996993341
 21
9.9418559329
  0
LINE
  5
3BD
100
AcDbEntity
  8
0
100
AcDbLine
 62
7
  6
CONTINUOUS
 10
12.0296604404
 20
10.2645059935
 11
12.0296604404
 21
10.2545059935
  0
LINE
  5
3BE
100
AcDbEntity
  8
0
100
AcDbLine
 62
7
  6
CONTINUOUS
 10
12.2333814433
 20
9.9418559329
 11
12.2333814433
 21
9.9745059935
  0
LINE
  5
3BF
100
AcDbEntity
  8
0
100
AcDbLine
 62
7
  6
CONTINUOUS
 10
12.2459783312
 20
9.9745059935
 11
12.2459783312
 21
9.9418559329
  0
LWPOLYLINE
  5
3C0
100
AcDbEntity
  8
0
100
AcDbPolyline
 62
7
  6
CONTINUOUS
 90
3
 70
0
 10
18.6272530994
 20
9.0470066757
 10
19.1361384934
 20
9.098674482
 10
19.4555597997
 20
9.1311035964
  0
LINE
  5
3C1
100
AcDbEntity
  8
0
100
AcDbLine
 62
7
  6
CONTINUOUS
 10
7.2036163839
 20
7.8872955417
 11
11.8647116712
 21
8.3604858596
  0
LINE
  5
3C2
100
AcDbEntity
  8
0
100
AcDbLine
 62
7
  6
CONTINUOUS
 10
13.3520785574
 20
8.5114820453
 11
13.4831442225
 21
8.524787717
  0
LINE
  5
3C3
100
AcDbEntity
  8
0
100
AcDbLine
 62
7
  6
CONTINUOUS
 10
13.7054975062
 20
8.5473549163
 11
17.6074996171
 21
8.9434892456
  0
LINE
  5
3C4
100
AcDbEntity
  8
0
100
AcDbLine
 62
7
  6
CONTINUOUS
 10
17.5823725796
 20
8.9409377954
 11
18.2339220202
 21
9.0070775637
  0
LINE
  5
3C5
100
AcDbEntity
  8
0
100
AcDbLine
 62
7
  6
CONTINUOUS
 10
13.3520796859
 20
8.5114856444
 11
13.7054975062
 21
8.5473549163
  0
LWPOLYLINE
  5
3C6
100
AcDbEntity
  8
0
100
AcDbPolyline
 62
7
  6
CONTINUOUS
 90
3
 70
0
 10
17.978253323
 20
8.9811257992
 10
18.3189942248
 20
9.0157128556
 10
18.6272530994
 20
9.0470066757
  0
LINE
  5
3C7
100
AcDbEntity
  8
0
100
AcDbLine
 62
9
  6
CONTINUOUS
 10
13.3740658581
 20
8.7951533369
 11
19.7542853814
 21
9.442867644
  0
LINE
  5
3C8
100
AcDbEntity
  8
0
100
AcDbLine
 62
7
  6
CONTINUOUS
 10
19.4555597997
 20
9.1311035964
 11
19.503707769
 21
9.135971697
  0
LINE
  5
3C9
100
AcDbEntity
  8
0
100
AcDbLine
 62
7
  6
CONTINUOUS
 10
3.4959194768
 20
8.2635059935
 11
3.4729194768
 21
8.2635059935
  0
LINE
  5
3CA
100
AcDbEntity
  8
0
100
AcDbLine
 62
7
  6
CONTINUOUS
 10
3.4729194768
 20
8.2910059935
 11
3.0586794768
 21
8.2910059935
  0
LINE
  5
3CB
100
AcDbEntity
  8
0
100
AcDbLine
 62
7
  6
CONTINUOUS
 10
5.8319194768
 20
8.3560059935
 11
5.8499194768
 21
8.3560059935
  0
LINE
  5
3CC
100
AcDbEntity
  8
0
100
AcDbLine
 62
7
  6
CONTINUOUS
 10
3.4959194768
 20
8.4285059935
 11
3.8249575051
 21
8.4285059935
  0
LINE
  5
3CD
100
AcDbEntity
  8
0
100
AcDbLine
 62
7
  6
CONTINUOUS
 10
7.1531776035
 20
8.4335059935
 11
7.198209162
 21
8.4335059935
  0
LINE
  5
3CE
100
AcDbEntity
  8
0
100
AcDbLine
 62
9
  6
CONTINUOUS
 10
7.224423162
 20
8.4780950346
 11
7.1245357031
 21
8.4780955083
  0
LINE
  5
3CF
100
AcDbEntity
  8
0
100
AcDbLine
 62
9
  6
CONTINUOUS
 10
2.9099194768
 20
8.5830119721
 11
2.5179308849
 21
8.5830119721
  0
LINE
  5
3D0
100
AcDbEntity
  8
0
100
AcDbLine
 62
9
  6
CONTINUOUS
 10
2.5272415468
 20
8.6051720092
 11
2.9005974068
 21
8.6051720092
  0
LINE
  5
3D1
100
AcDbEntity
  8
0
100
AcDbLine
 62
7
  6
CONTINUOUS
 10
5.1005615761
 20
8.6935059935
 11
5.4219194768
 21
8.6935059935
  0
LINE
  5
3D2
100
AcDbEntity
  8
0
100
AcDbLine
 62
7
  6
CONTINUOUS
 10
4.0444194768
 20
8.721953424
 11
5.0714194768
 21
8.721953424
  0
LINE
  5
3D3
100
AcDbEntity
  8
0
100
AcDbLine
 62
7
  6
CONTINUOUS
 10
5.6249936174
 20
8.7585059935
 11
5.5969194768
 21
8.7585059935
  0
LINE
  5
3D4
100
AcDbEntity
  8
0
100
AcDbLine
 62
7
  6
CONTINUOUS
 10
5.4819194768
 20
8.7585059935
 11
5.4369194768
 21
8.7585059935
  0
LINE
  5
3D5
100
AcDbEntity
  8
0
100
AcDbLine
 62
7
  6
CONTINUOUS
 10
12.9133425496
 20
9.9418559329
 11
12.9133425496
 21
9.9745059935
  0
LINE
  5
3D6
100
AcDbEntity
  8
0
100
AcDbLine
 62
7
  6
CONTINUOUS
 10
12.9259394376
 20
9.9745059935
 11
12.9259394376
 21
9.9418559329
  0
LINE
  5
3D7
100
AcDbEntity
  8
0
100
AcDbLine
 62
7
  6
CONTINUOUS
 10
19.4471504688
 20
9.6931451094
 11
19.3756421271
 21
9.6858664747
  0
LINE
  5
3D8
100
AcDbEntity
  8
0
100
AcDbLine
 62
7
  6
CONTINUOUS
 10
18.2624202696
 20
9.5728600874
 11
17.5258125796
 21
9.4980741938
  0
LINE
  5
3D9
100
AcDbEntity
  8
0
100
AcDbLine
 62
7
  6
CONTINUOUS
 10
7.2270165301
 20
8.4525494242
 11
11.8076472752
 21
8.9175710521
  0
LINE
  5
3DA
100
AcDbEntity
  8
0
100
AcDbLine
 62
7
  6
CONTINUOUS
 10
17.5509227275
 20
9.5006227788
 11
13.294732509
 21
9.0685351392
  0
LWPOLYLINE
  5
3DB
100
AcDbEntity
  8
0
100
AcDbPolyline
 62
7
  6
CONTINUOUS
 90
4
 70
0
 10
19.2692746937
 20
9.6750712215
 10
18.8439332165
 20
9.6318901772
 10
18.5706811403
 20
9.6041548131
 10
18.2624202696
 20
9.5728600874
  0
LINE
  5
3DC
100
AcDbEntity
  8
0
100
AcDbLine
 62
7
  6
CONTINUOUS
 10
19.3989976492
 20
9.6882368316
 11
19.2692746937
 21
9.6750712215
  0
LINE
  5
3DD
100
AcDbEntity
  8
0
100
AcDbLine
 62
9
  6
CONTINUOUS
 10
2.90483677
 20
8.9666428349
 11
2.5230021836
 21
8.9666428349
  0
LINE
  5
3DE
100
AcDbEntity
  8
0
100
AcDbLine
 62
7
  6
CONTINUOUS
 10
2.9030103665
 20
8.9915059935
 11
2.5248285871
 21
8.9915059935
  0
LINE
  5
3DF
100
AcDbEntity
  8
0
100
AcDbLine
 62
9
  6
CONTINUOUS
 10
2.5461321812
 20
9.0166832165
 11
2.8817067724
 21
9.0166832165
  0
LINE
  5
3E0
100
AcDbEntity
  8
0
100
AcDbLine
 62
9
  6
CONTINUOUS
 10
2.939186289
 20
9.0987724735
 11
2.4886526646
 21
9.0987724735
  0
LINE
  5
3E1
100
AcDbEntity
  8
0
100
AcDbLine
 62
7
  6
CONTINUOUS
 10
12.0304220193
 20
9.296173559
 11
13.1288988616
 21
9.296173559
  0
LINE
  5
3E2
100
AcDbEntity
  8
0
100
AcDbLine
 62
9
  6
CONTINUOUS
 10
3.8509639264
 20
9.3850902237
 11
5.2648750272
 21
9.3850902237
  0
LINE
  5
3E3
100
AcDbEntity
  8
0
100
AcDbLine
 62
7
  6
CONTINUOUS
 10
13.1296604404
 20
10.2645059935
 11
13.1296604404
 21
10.2545059935
  0
LINE
  5
3E4
100
AcDbEntity
  8
0
100
AcDbLine
 62
7
  6
CONTINUOUS
 10
13.2596215468
 20
9.9418559329
 11
13.2596215468
 21
9.9745059935
  0
LINE
  5
3E5
100
AcDbEntity
  8
0
100
AcDbLine
 62
7
  6
CONTINUOUS
 10
3.7129304642
 20
9.7485059935
 11
5.4029084894
 21
9.7485059935
  0
LINE
  5
3E6
100
AcDbEntity
  8
0
100
AcDbLine
 62
7
  6
CONTINUOUS
 10
12.0296604421
 20
9.7545059924
 11
13.1296604388
 21
9.7545059924
  0
LINE
  5
3E7
100
AcDbEntity
  8
0
100
AcDbLine
 62
9
  6
CONTINUOUS
 10
3.6779194768
 20
9.7835059935
 11
5.4379194768
 21
9.7835059935
  0
LINE
  5
3E8
100
AcDbEntity
  8
0
100
AcDbLine
 62
7
  6
CONTINUOUS
 10
3.5354194776
 20
9.8045059935
 11
5.580419476
 21
9.8045059935
  0
LINE
  5
3E9
100
AcDbEntity
  8
0
100
AcDbLine
 62
9
  6
CONTINUOUS
 10
12.2333814433
 20
9.9418559329
 11
12.2459783312
 21
9.9418559329
  0
LINE
  5
3EA
100
AcDbEntity
  8
0
100
AcDbLine
 62
9
  6
CONTINUOUS
 10
12.9133425496
 20
9.9418559329
 11
12.9259394376
 21
9.9418559329
  0
LINE
  5
3EB
100
AcDbEntity
  8
0
100
AcDbLine
 62
7
  6
CONTINUOUS
 10
11.8772727853
 20
9.9745059935
 11
13.2820480402
 21
9.9745059935
  0
LINE
  5
3EC
100
AcDbEntity
  8
0
100
AcDbLine
 62
7
  6
CONTINUOUS
 10
13.5796604404
 20
10.2245059935
 11
13.5796604404
 21
10.2545059935
  0
LINE
  5
3ED
100
AcDbEntity
  8
0
100
AcDbLine
 62
9
  6
CONTINUOUS
 10
3.3354194768
 20
10.0045059935
 11
5.7804194768
 21
10.0045059935
  0
LINE
  5
3EE
100
AcDbEntity
  8
0
100
AcDbLine
 62
7
  6
CONTINUOUS
 10
5.7804194768
 20
10.0315059935
 11
3.3354194768
 21
10.0315059935
  0
LINE
  5
3EF
100
AcDbEntity
  8
0
100
AcDbLine
 62
7
  6
CONTINUOUS
 10
11.7096604437
 20
10.0945059935
 11
13.4496604372
 21
10.0945059935
  0
LINE
  5
3F0
100
AcDbEntity
  8
0
100
AcDbLine
 62
9
  6
CONTINUOUS
 10
11.5796604404
 20
10.2245059935
 11
13.5796604404
 21
10.2245059935
  0
LINE
  5
3F1
100
AcDbEntity
  8
0
100
AcDbLine
 62
9
  6
CONTINUOUS
 10
3.1354194768
 20
10.2315059935
 11
5.9804068752
 21
10.2315059935
  0
LINE
  5
3F2
100
AcDbEntity
  8
0
100
AcDbLine
 62
7
  6
CONTINUOUS
 10
13.5796604404
 20
10.2545059935
 11
11.5796604404
 21
10.2545059935
  0
LINE
  5
3F3
100
AcDbEntity
  8
0
100
AcDbLine
 62
7
  6
CONTINUOUS
 10
5.9804194768
 20
10.2545059935
 11
3.1354194768
 21
10.2545059935
  0
LINE
  5
3F4
100
AcDbEntity
  8
0
100
AcDbLine
 62
7
  6
CONTINUOUS
 10
13.1296604404
 20
10.2645059935
 11
12.0296604404
 21
10.2645059935
  0
LWPOLYLINE
  5
3F5
100
AcDbEntity
  8
0
100
AcDbPolyline
 62
7
  6
CONTINUOUS
 90
37
 70
0
 10
19.7542853814
 20
9.442867644
 10
19.7526757452
 20
9.4557453456
 10
19.7498691847
 20
9.471514701
 10
19.7462112771
 20
9.4869269145
 10
19.7417499353
 20
9.5019181802
 10
19.736536077
 20
9.5164384372
 10
19.7306207565
 20
9.5304508814
 10
19.7240526685
 20
9.5439308394
 10
19.7168761288
 20
9.5568641571
 10
19.7091295845
 20
9.5692452585
 10
19.7008446598
 20
9.5810750236
 10
19.692045757
 20
9.5923585586
 10
19.6827819196
 20
9.6030681166
 10
19.6731195866
 20
9.6131654677
 10
19.6631087767
 20
9.6226391854
 10
19.6527979097
 20
9.6314832134
 10
19.642233349
 20
9.6396962487
 10
19.6314590871
 20
9.6472811126
 10
19.6205165569
 20
9.6542441362
 10
19.6094445539
 20
9.6605945823
 10
19.5982792506
 20
9.6663441177
 10
19.5870550631
 20
9.6715060087
 10
19.5758163276
 20
9.6760905031
 10
19.5646111413
 20
9.6801095609
 10
19.5534851583
 20
9.6835795212
 10
19.5424820281
 20
9.6865204091
 10
19.5316432352
 20
9.6889555613
 10
19.5210080465
 20
9.6909112498
 10
19.5106208666
 20
9.6924154014
 10
19.5005388653
 20
9.6934979419
 10
19.4908186117
 20
9.6941937242
 10
19.4815163294
 20
9.6945421467
 10
19.4727245521
 20
9.6945871577
 10
19.464571817
 20
9.6943821634
 10
19.4572503748
 20
9.6939953089
 10
19.4516092853
 20
9.6935658917
 10
19.4490428244
 20
9.6933325915
  0
ARC
  5
3F6
100
AcDbEntity
  8
0
100
AcDbCircle
 62
9
  6
CONTINUOUS
 10
5.5512159524
 20
3.1208346427
 40
1.7555505827
100
AcDbArc
 50
82.3876824812
 51
82.5256594315
  0
ARC
  5
3F7
100
AcDbEntity
  8
0
100
AcDbCircle
 62
9
  6
CONTINUOUS
 10
5.5886332161
 20
3.6299875073
 40
1.2339461799
100
AcDbArc
 50
80.9380704965
 51
81.0597620154
  0
ARC
  5
3F8
100
AcDbEntity
  8
0
100
AcDbCircle
 62
9
  6
CONTINUOUS
 10
4.805942239
 20
4.7695714228
 40
0.0137317703
100
AcDbArc
 50
231.4691225601
 51
242.1702989359
  0
ARC
  5
3F9
100
AcDbEntity
  8
0
100
AcDbCircle
 62
7
  6
CONTINUOUS
 10
4.5403418864
 20
5.1640499654
 40
0.08
100
AcDbArc
 50
112.8632234308
 51
177.7285491583
  0
ARC
  5
3FA
100
AcDbEntity
  8
0
100
AcDbCircle
 62
7
  6
CONTINUOUS
 10
4.9091890659
 20
4.6516626722
 40
0.3728022678
100
AcDbArc
 50
94.069677108
 51
102.1874714621
  0
ARC
  5
3FB
100
AcDbEntity
  8
0
100
AcDbCircle
 62
7
  6
CONTINUOUS
 10
4.9091893969
 20
4.6516823323
 40
0.3727826446
100
AcDbArc
 50
94.0699423519
 51
102.1881542434
  0
ARC
  5
3FC
100
AcDbEntity
  8
0
100
AcDbCircle
 62
7
  6
CONTINUOUS
 10
4.9090303694
 20
4.6532852912
 40
0.3711724801
100
AcDbArc
 50
90.2600132456
 51
94.0630178572
  0
ARC
  5
3FD
100
AcDbEntity
  8
0
100
AcDbCircle
 62
7
  6
CONTINUOUS
 10
4.9090307264
 20
4.6533038502
 40
0.371153957
100
AcDbArc
 50
90.1922635134
 51
94.0632758743
  0
ARC
  5
3FE
100
AcDbEntity
  8
0
100
AcDbCircle
 62
7
  6
CONTINUOUS
 10
4.9090222835
 20
4.6702171991
 40
0.3542410468
100
AcDbArc
 50
89.2769881235
 51
89.9998238926
  0
ARC
  5
3FF
100
AcDbEntity
  8
0
100
AcDbCircle
 62
7
  6
CONTINUOUS
 10
4.9090228096
 20
4.6702427805
 40
0.354215467
100
AcDbArc
 50
89.2770198414
 51
89.9999092511
  0
ARC
  5
400
100
AcDbEntity
  8
0
100
AcDbCircle
 62
7
  6
CONTINUOUS
 10
5.0327196671
 20
4.742479317
 40
0.2910406947
100
AcDbArc
 50
72.5547036528
 51
72.8900231281
  0
ARC
  5
401
100
AcDbEntity
  8
0
100
AcDbCircle
 62
9
  6
CONTINUOUS
 10
4.9232932247
 20
5.196682554
 40
0.5173450786
100
AcDbArc
 50
326.9352133147
 51
327.3051127485
  0
ARC
  5
402
100
AcDbEntity
  8
0
100
AcDbCircle
 62
7
  6
CONTINUOUS
 10
4.9356378454
 20
5.1986873386
 40
0.514252569
100
AcDbArc
 50
326.028968188
 51
326.6758966823
  0
ARC
  5
403
100
AcDbEntity
  8
0
100
AcDbCircle
 62
7
  6
CONTINUOUS
 10
5.0003589873
 20
5.1369340763
 40
0.4293702327
100
AcDbArc
 50
242.1130790669
 51
244.2558294622
  0
ARC
  5
404
100
AcDbEntity
  8
0
100
AcDbCircle
 62
9
  6
CONTINUOUS
 10
4.9067395362
 20
5.1840888793
 40
0.426798487
100
AcDbArc
 50
322.1925624674
 51
322.544089549
  0
ARC
  5
405
100
AcDbEntity
  8
0
100
AcDbCircle
 62
9
  6
CONTINUOUS
 10
4.9078581731
 20
5.1832211036
 40
0.4253827246
100
AcDbArc
 50
321.8736132394
 51
322.1925453701
  0
ARC
  5
406
100
AcDbEntity
  8
0
100
AcDbCircle
 62
9
  6
CONTINUOUS
 10
4.9917528063
 20
5.0942200645
 40
0.3851770247
100
AcDbArc
 50
276.4110282727
 51
279.0037944957
  0
ARC
  5
407
100
AcDbEntity
  8
0
100
AcDbCircle
 62
9
  6
CONTINUOUS
 10
4.9917944478
 20
5.0937987374
 40
0.3847536827
100
AcDbArc
 50
271.3738320846
 51
276.4118469152
  0
ARC
  5
408
100
AcDbEntity
  8
0
100
AcDbCircle
 62
9
  6
CONTINUOUS
 10
4.9918035249
 20
5.0935086313
 40
0.3844634423
100
AcDbArc
 50
270.7201936232
 51
271.3735162893
  0
ARC
  5
409
100
AcDbEntity
  8
0
100
AcDbCircle
 62
9
  6
CONTINUOUS
 10
4.9918042581
 20
5.0934726237
 40
0.3844274275
100
AcDbArc
 50
270.0115926064
 51
271.3735356248
  0
ARC
  5
40A
100
AcDbEntity
  8
0
100
AcDbCircle
 62
9
  6
CONTINUOUS
 10
4.9918046643
 20
5.0934198732
 40
0.384374677
100
AcDbArc
 50
270.0115587419
 51
270.7201900972
  0
ARC
  5
40B
100
AcDbEntity
  8
0
100
AcDbCircle
 62
7
  6
CONTINUOUS
 10
5.114162403
 20
4.9942147184
 40
0.0196850394
100
AcDbArc
 50
314.9999999999
 51
334.5973246504
  0
ARC
  5
40C
100
AcDbEntity
  8
0
100
AcDbCircle
 62
7
  6
CONTINUOUS
 10
4.988178151
 20
4.9942147184
 40
0.0196850394
100
AcDbArc
 50
180.0
 51
225.0000000001
  0
ARC
  5
40D
100
AcDbEntity
  8
0
100
AcDbCircle
 62
7
  6
CONTINUOUS
 10
4.9963319613
 20
4.9860609081
 40
0.0196850394
100
AcDbArc
 50
225.0011432902
 51
270.0
  0
ARC
  5
40E
100
AcDbEntity
  8
0
100
AcDbCircle
 62
7
  6
CONTINUOUS
 10
5.1060085927
 20
4.9860609081
 40
0.0196850394
100
AcDbArc
 50
270.0
 51
314.9988567098
  0
ARC
  5
40F
100
AcDbEntity
  8
0
100
AcDbCircle
 62
7
  6
CONTINUOUS
 10
5.1494347385
 20
4.9942147184
 40
0.0196850394
100
AcDbArc
 50
180.0
 51
224.9999999997
  0
ARC
  5
410
100
AcDbEntity
  8
0
100
AcDbCircle
 62
7
  6
CONTINUOUS
 10
5.1575885488
 20
4.9860609081
 40
0.0196850394
100
AcDbArc
 50
225.00114329
 51
270.0
  0
ARC
  5
411
100
AcDbEntity
  8
0
100
AcDbCircle
 62
7
  6
CONTINUOUS
 10
4.9413303423
 20
4.9860609081
 40
0.0196850394
100
AcDbArc
 50
225.0011432902
 51
270.001006738
  0
ARC
  5
412
100
AcDbEntity
  8
0
100
AcDbCircle
 62
7
  6
CONTINUOUS
 10
4.933176532
 20
4.9942147184
 40
0.0196850394
100
AcDbArc
 50
180.0
 51
225.0024588144
  0
ARC
  5
413
100
AcDbEntity
  8
0
100
AcDbCircle
 62
7
  6
CONTINUOUS
 10
4.2553418864
 20
5.5922955683
 40
0.45
100
AcDbArc
 50
321.6210152008
 51
360.0
  0
ARC
  5
414
100
AcDbEntity
  8
0
100
AcDbCircle
 62
7
  6
CONTINUOUS
 10
4.4121261328
 20
5.46812351
 40
0.25
100
AcDbArc
 50
292.8632234306
 51
321.6210152008
  0
ARC
  5
415
100
AcDbEntity
  8
0
100
AcDbCircle
 62
7
  6
CONTINUOUS
 10
4.7803418864
 20
5.7753443959
 40
0.075
100
AcDbArc
 50
114.0000000002
 51
180.0
  0
ARC
  5
416
100
AcDbEntity
  8
0
100
AcDbCircle
 62
7
  6
CONTINUOUS
 10
5.4872818422
 20
4.7607703582
 40
0.2322759993
100
AcDbArc
 50
74.2838736112
 51
74.5026483344
  0
ARC
  5
417
100
AcDbEntity
  8
0
100
AcDbCircle
 62
7
  6
CONTINUOUS
 10
5.2235702287
 20
4.8705634258
 40
0.164188845
100
AcDbArc
 50
69.7608399032
 51
69.9780853203
  0
ARC
  5
418
100
AcDbEntity
  8
0
100
AcDbCircle
 62
7
  6
CONTINUOUS
 10
5.2754189905
 20
4.9942147184
 40
0.0196850394
100
AcDbArc
 50
315.0000000003
 51
360.0
  0
ARC
  5
419
100
AcDbEntity
  8
0
100
AcDbCircle
 62
7
  6
CONTINUOUS
 10
5.2672651802
 20
4.9860609081
 40
0.0196850394
100
AcDbArc
 50
270.0
 51
314.99885671
  0
ARC
  5
41A
100
AcDbEntity
  8
0
100
AcDbCircle
 62
7
  6
CONTINUOUS
 10
5.5319411766
 20
4.9942147184
 40
0.0196850394
100
AcDbArc
 50
315.0000000002
 51
360.0
  0
ARC
  5
41B
100
AcDbEntity
  8
0
100
AcDbCircle
 62
7
  6
CONTINUOUS
 10
5.4059569246
 20
4.9942147184
 40
0.0196850394
100
AcDbArc
 50
180.0
 51
224.9999999998
  0
ARC
  5
41C
100
AcDbEntity
  8
0
100
AcDbCircle
 62
7
  6
CONTINUOUS
 10
5.4141107349
 20
4.9860609081
 40
0.0196850394
100
AcDbArc
 50
225.0011432895
 51
270.0
  0
ARC
  5
41D
100
AcDbEntity
  8
0
100
AcDbCircle
 62
7
  6
CONTINUOUS
 10
5.5237873663
 20
4.9860609081
 40
0.0196850394
100
AcDbArc
 50
270.0
 51
314.9988567095
  0
ARC
  5
41E
100
AcDbEntity
  8
0
100
AcDbCircle
 62
7
  6
CONTINUOUS
 10
5.1715283107
 20
4.9526675501
 40
0.0196850394
100
AcDbArc
 50
180.0
 51
224.9999999998
  0
ARC
  5
41F
100
AcDbEntity
  8
0
100
AcDbCircle
 62
7
  6
CONTINUOUS
 10
5.2657367051
 20
4.9445137398
 40
0.0196850394
100
AcDbArc
 50
270.0
 51
282.7092229253
  0
ARC
  5
420
100
AcDbEntity
  8
0
100
AcDbCircle
 62
7
  6
CONTINUOUS
 10
5.179682121
 20
4.9445137398
 40
0.0196850394
100
AcDbArc
 50
225.0013272051
 51
270.0
  0
ARC
  5
421
100
AcDbEntity
  8
0
100
AcDbCircle
 62
7
  6
CONTINUOUS
 10
5.4487784514
 20
4.9526675501
 40
0.0196850394
100
AcDbArc
 50
180.0
 51
224.9999999999
  0
ARC
  5
422
100
AcDbEntity
  8
0
100
AcDbCircle
 62
7
  6
CONTINUOUS
 10
5.5511406562
 20
4.9526675501
 40
0.0196850394
100
AcDbArc
 50
315.0000000001
 51
360.0
  0
ARC
  5
423
100
AcDbEntity
  8
0
100
AcDbCircle
 62
7
  6
CONTINUOUS
 10
5.5429868459
 20
4.9445137398
 40
0.0196850394
100
AcDbArc
 50
270.0
 51
314.998672795
  0
ARC
  5
424
100
AcDbEntity
  8
0
100
AcDbCircle
 62
7
  6
CONTINUOUS
 10
5.4569322617
 20
4.9445137398
 40
0.0196850394
100
AcDbArc
 50
225.0013272058
 51
270.0
  0
ARC
  5
425
100
AcDbEntity
  8
0
100
AcDbCircle
 62
7
  6
CONTINUOUS
 10
5.360301565
 20
4.9445137398
 40
0.0196850394
100
AcDbArc
 50
270.0
 51
314.9986727946
  0
ARC
  5
426
100
AcDbEntity
  8
0
100
AcDbCircle
 62
7
  6
CONTINUOUS
 10
5.3684553753
 20
4.9526675501
 40
0.0196850394
100
AcDbArc
 50
315.0000000002
 51
360.0
  0
ARC
  5
427
100
AcDbEntity
  8
0
100
AcDbCircle
 62
7
  6
CONTINUOUS
 10
5.2660931706
 20
4.9526675501
 40
0.0196850394
100
AcDbArc
 50
180.0
 51
224.9999999998
  0
ARC
  5
428
100
AcDbEntity
  8
0
100
AcDbCircle
 62
7
  6
CONTINUOUS
 10
5.2742469809
 20
4.9445137398
 40
0.0196850394
100
AcDbArc
 50
225.0013272053
 51
270.0
  0
ARC
  5
429
100
AcDbEntity
  8
0
100
AcDbCircle
 62
7
  6
CONTINUOUS
 10
5.3495637957
 20
4.9275145242
 40
0.0078740157
100
AcDbArc
 50
200.3751729783
 51
259.8531132105
  0
ARC
  5
42A
100
AcDbEntity
  8
0
100
AcDbCircle
 62
7
  6
CONTINUOUS
 10
6.0475791154
 20
4.6888801202
 40
0.3115871096
100
AcDbArc
 50
88.8102006203
 51
89.9931356118
  0
ARC
  5
42B
100
AcDbEntity
  8
0
100
AcDbCircle
 62
7
  6
CONTINUOUS
 10
6.0598830419
 20
4.7207947522
 40
0.2786790932
100
AcDbArc
 50
79.5767978335
 51
80.6135101857
  0
ARC
  5
42C
100
AcDbEntity
  8
0
100
AcDbCircle
 62
7
  6
CONTINUOUS
 10
5.7151249461
 20
4.7622271022
 40
0.2382401306
100
AcDbArc
 50
88.7184356219
 51
89.987966584
  0
ARC
  5
42D
100
AcDbEntity
  8
0
100
AcDbCircle
 62
7
  6
CONTINUOUS
 10
5.8829915944
 20
4.800366692
 40
0.0393700787
100
AcDbArc
 50
20.0
 51
28.762807137
  0
ARC
  5
42E
100
AcDbEntity
  8
0
100
AcDbCircle
 62
7
  6
CONTINUOUS
 10
6.0398098066
 20
4.7229145113
 40
0.0196850394
100
AcDbArc
 50
225.0025651318
 51
270.0
  0
ARC
  5
42F
100
AcDbEntity
  8
0
100
AcDbCircle
 62
7
  6
CONTINUOUS
 10
6.0038171467
 20
4.7032294719
 40
0.0196850394
100
AcDbArc
 50
44.9999999999
 51
89.9960818712
  0
ARC
  5
430
100
AcDbEntity
  8
0
100
AcDbCircle
 62
7
  6
CONTINUOUS
 10
5.9668622584
 20
4.7425995507
 40
0.0196850394
100
AcDbArc
 50
200.0000948198
 51
270.0
  0
ARC
  5
431
100
AcDbEntity
  8
0
100
AcDbCircle
 62
7
  6
CONTINUOUS
 10
5.649943754
 20
4.8329693195
 40
0.0118110236
100
AcDbArc
 50
180.0
 51
225.0000000007
  0
ARC
  5
432
100
AcDbEntity
  8
0
100
AcDbCircle
 62
7
  6
CONTINUOUS
 10
5.6627100559
 20
4.8202030176
 40
0.0118110236
100
AcDbArc
 50
225.0002531655
 51
270.0
  0
ARC
  5
433
100
AcDbEntity
  8
0
100
AcDbCircle
 62
7
  6
CONTINUOUS
 10
5.8030576988
 20
4.8202030176
 40
0.0118110236
100
AcDbArc
 50
270.0
 51
284.6898599032
  0
ARC
  5
434
100
AcDbEntity
  8
0
100
AcDbCircle
 62
7
  6
CONTINUOUS
 10
5.6977137645
 20
4.8329693195
 40
0.0118110236
100
AcDbArc
 50
180.0
 51
225.0000000003
  0
ARC
  5
435
100
AcDbEntity
  8
0
100
AcDbCircle
 62
7
  6
CONTINUOUS
 10
5.7104800664
 20
4.8202030176
 40
0.0118110236
100
AcDbArc
 50
225.0002531646
 51
270.0
  0
ARC
  5
436
100
AcDbEntity
  8
0
100
AcDbCircle
 62
7
  6
CONTINUOUS
 10
5.9015372416
 20
4.8202030176
 40
0.0118110236
100
AcDbArc
 50
270.0
 51
314.9997441386
  0
ARC
  5
437
100
AcDbEntity
  8
0
100
AcDbCircle
 62
7
  6
CONTINUOUS
 10
5.9143035436
 20
4.8329693195
 40
0.0118110236
100
AcDbArc
 50
314.9999999999
 51
360.0
  0
ARC
  5
438
100
AcDbEntity
  8
0
100
AcDbCircle
 62
7
  6
CONTINUOUS
 10
5.7961933073
 20
4.8329693195
 40
0.0118110236
100
AcDbArc
 50
180.0
 51
225.0
  0
ARC
  5
439
100
AcDbEntity
  8
0
100
AcDbCircle
 62
7
  6
CONTINUOUS
 10
5.8089596092
 20
4.8202030176
 40
0.0118110236
100
AcDbArc
 50
225.0002558629
 51
270.0
  0
ARC
  5
43A
100
AcDbEntity
  8
0
100
AcDbCircle
 62
9
  6
CONTINUOUS
 10
5.7980183131
 20
4.9311311651
 40
0.0670141119
100
AcDbArc
 50
254.1248809714
 51
254.479093525
  0
ARC
  5
43B
100
AcDbEntity
  8
0
100
AcDbCircle
 62
7
  6
CONTINUOUS
 10
5.8662473982
 20
4.9942147184
 40
0.0196850394
100
AcDbArc
 50
315.0000000002
 51
360.0
  0
ARC
  5
43C
100
AcDbEntity
  8
0
100
AcDbCircle
 62
7
  6
CONTINUOUS
 10
5.7402631462
 20
4.9942147184
 40
0.0196850394
100
AcDbArc
 50
180.0
 51
224.9999999998
  0
ARC
  5
43D
100
AcDbEntity
  8
0
100
AcDbCircle
 62
7
  6
CONTINUOUS
 10
5.7484169565
 20
4.9860609081
 40
0.0196850394
100
AcDbArc
 50
225.0011432897
 51
270.0
  0
ARC
  5
43E
100
AcDbEntity
  8
0
100
AcDbCircle
 62
7
  6
CONTINUOUS
 10
5.8580935879
 20
4.9860609081
 40
0.0196850394
100
AcDbArc
 50
270.0
 51
314.9988567103
  0
ARC
  5
43F
100
AcDbEntity
  8
0
100
AcDbCircle
 62
7
  6
CONTINUOUS
 10
6.0235546415
 20
4.9526675501
 40
0.0196850394
100
AcDbArc
 50
180.0
 51
224.9999999996
  0
ARC
  5
440
100
AcDbEntity
  8
0
100
AcDbCircle
 62
7
  6
CONTINUOUS
 10
6.0317084517
 20
4.9445137398
 40
0.0196850394
100
AcDbArc
 50
225.0013272065
 51
270.0
  0
ARC
  5
441
100
AcDbEntity
  8
0
100
AcDbCircle
 62
7
  6
CONTINUOUS
 10
5.8013428477
 20
4.9445137398
 40
0.0196850394
100
AcDbArc
 50
270.0
 51
314.9986727883
  0
ARC
  5
442
100
AcDbEntity
  8
0
100
AcDbCircle
 62
7
  6
CONTINUOUS
 10
5.809496658
 20
4.9526675501
 40
0.0196850394
100
AcDbArc
 50
315.0000000001
 51
360.0
  0
ARC
  5
443
100
AcDbEntity
  8
0
100
AcDbCircle
 62
7
  6
CONTINUOUS
 10
5.7071344532
 20
4.9526675501
 40
0.0196850394
100
AcDbArc
 50
180.0
 51
224.9999999999
  0
ARC
  5
444
100
AcDbEntity
  8
0
100
AcDbCircle
 62
7
  6
CONTINUOUS
 10
5.7152882635
 20
4.9445137398
 40
0.0196850394
100
AcDbArc
 50
225.0013272118
 51
270.0
  0
ARC
  5
445
100
AcDbEntity
  8
0
100
AcDbCircle
 62
9
  6
CONTINUOUS
 10
5.6265865233
 20
4.859455249
 40
0.0118719934
100
AcDbArc
 50
0.0026129955
 51
20.6649644513
  0
ARC
  5
446
100
AcDbEntity
  8
0
100
AcDbCircle
 62
9
  6
CONTINUOUS
 10
5.6266819056
 20
4.8595042058
 40
0.0117648074
100
AcDbArc
 50
20.6058143978
 51
81.9953531241
  0
ARC
  5
447
100
AcDbEntity
  8
0
100
AcDbCircle
 62
9
  6
CONTINUOUS
 10
7.7508820918
 20
2.6152809344
 40
2.2649535615
100
AcDbArc
 50
97.1880215873
 51
97.3165989558
  0
ARC
  5
448
100
AcDbEntity
  8
0
100
AcDbCircle
 62
7
  6
CONTINUOUS
 10
6.8022791859
 20
4.658712808
 40
0.3417544196
100
AcDbArc
 50
90.0003572661
 51
90.3847572356
  0
ARC
  5
449
100
AcDbEntity
  8
0
100
AcDbCircle
 62
7
  6
CONTINUOUS
 10
6.4184043843
 20
4.6591878091
 40
0.3412794185
100
AcDbArc
 50
89.7139472839
 51
89.9996082306
  0
ARC
  5
44A
100
AcDbEntity
  8
0
100
AcDbCircle
 62
7
  6
CONTINUOUS
 10
6.779224902
 20
4.7229145113
 40
0.0196850394
100
AcDbArc
 50
270.0
 51
280.6595944687
  0
ARC
  5
44B
100
AcDbEntity
  8
0
100
AcDbCircle
 62
7
  6
CONTINUOUS
 10
6.7863627413
 20
4.7229145113
 40
0.0196850394
100
AcDbArc
 50
225.0025651903
 51
270.0
  0
ARC
  5
44C
100
AcDbEntity
  8
0
100
AcDbCircle
 62
7
  6
CONTINUOUS
 10
6.7503700814
 20
4.7032294719
 40
0.0196850394
100
AcDbArc
 50
44.999999999
 51
89.9960710504
  0
ARC
  5
44D
100
AcDbEntity
  8
0
100
AcDbCircle
 62
7
  6
CONTINUOUS
 10
6.6574347148
 20
4.7229145113
 40
0.0196850394
100
AcDbArc
 50
270.0
 51
314.9974348679
  0
ARC
  5
44E
100
AcDbEntity
  8
0
100
AcDbCircle
 62
7
  6
CONTINUOUS
 10
6.4414588708
 20
4.7229145113
 40
0.0196850394
100
AcDbArc
 50
225.0025651318
 51
270.0
  0
ARC
  5
44F
100
AcDbEntity
  8
0
100
AcDbCircle
 62
7
  6
CONTINUOUS
 10
6.6934273747
 20
4.7032294719
 40
0.0196850394
100
AcDbArc
 50
90.0039181288
 51
135.0000000001
  0
ARC
  5
450
100
AcDbEntity
  8
0
100
AcDbCircle
 62
7
  6
CONTINUOUS
 10
6.4054662108
 20
4.7032294719
 40
0.0196850394
100
AcDbArc
 50
44.9999999999
 51
89.9960818715
  0
ARC
  5
451
100
AcDbEntity
  8
0
100
AcDbCircle
 62
7
  6
CONTINUOUS
 10
6.3482023642
 20
4.7229145113
 40
0.0196850394
100
AcDbArc
 50
270.0
 51
314.9974348101
  0
ARC
  5
452
100
AcDbEntity
  8
0
100
AcDbCircle
 62
7
  6
CONTINUOUS
 10
6.1322265202
 20
4.7229145113
 40
0.0196850394
100
AcDbArc
 50
225.0025651903
 51
270.0
  0
ARC
  5
453
100
AcDbEntity
  8
0
100
AcDbCircle
 62
7
  6
CONTINUOUS
 10
6.3841950241
 20
4.7032294719
 40
0.0196850394
100
AcDbArc
 50
90.0039289499
 51
135.000000001
  0
ARC
  5
454
100
AcDbEntity
  8
0
100
AcDbCircle
 62
7
  6
CONTINUOUS
 10
6.0962338602
 20
4.7032294719
 40
0.0196850394
100
AcDbArc
 50
44.999999999
 51
89.9960710504
  0
ARC
  5
455
100
AcDbEntity
  8
0
100
AcDbCircle
 62
7
  6
CONTINUOUS
 10
6.4343210314
 20
4.7229145113
 40
0.0196850394
100
AcDbArc
 50
270.0
 51
280.6595944996
  0
ARC
  5
456
100
AcDbEntity
  8
0
100
AcDbCircle
 62
7
  6
CONTINUOUS
 10
6.4606420758
 20
4.8202030176
 40
0.0118110236
100
AcDbArc
 50
270.0
 51
314.9997468354
  0
ARC
  5
457
100
AcDbEntity
  8
0
100
AcDbCircle
 62
7
  6
CONTINUOUS
 10
6.3680644434
 20
4.8202030176
 40
0.0118110236
100
AcDbArc
 50
225.0002531647
 51
270.0
  0
ARC
  5
458
100
AcDbEntity
  8
0
100
AcDbCircle
 62
7
  6
CONTINUOUS
 10
6.6803342384
 20
4.8202030176
 40
0.0118110236
100
AcDbArc
 50
270.0
 51
314.9997468341
  0
ARC
  5
459
100
AcDbEntity
  8
0
100
AcDbCircle
 62
7
  6
CONTINUOUS
 10
6.587756606
 20
4.8202030176
 40
0.0118110236
100
AcDbArc
 50
225.0002531647
 51
270.0
  0
ARC
  5
45A
100
AcDbEntity
  8
0
100
AcDbCircle
 62
7
  6
CONTINUOUS
 10
6.8986182085
 20
4.8202030176
 40
0.0118110236
100
AcDbArc
 50
270.0
 51
314.999746836
  0
ARC
  5
45B
100
AcDbEntity
  8
0
100
AcDbCircle
 62
7
  6
CONTINUOUS
 10
6.8060405761
 20
4.8202030176
 40
0.0118110236
100
AcDbArc
 50
225.0002531659
 51
270.0
  0
ARC
  5
45C
100
AcDbEntity
  8
0
100
AcDbCircle
 62
9
  6
CONTINUOUS
 10
6.9100992883
 20
4.9150492457
 40
0.0585440147
100
AcDbArc
 50
286.0765992528
 51
286.8705220384
  0
ARC
  5
45D
100
AcDbEntity
  8
0
100
AcDbCircle
 62
9
  6
CONTINUOUS
 10
6.6938656799
 20
4.9105038659
 40
0.0560588685
100
AcDbArc
 50
284.8318839772
 51
286.0923629905
  0
ARC
  5
45E
100
AcDbEntity
  8
0
100
AcDbCircle
 62
9
  6
CONTINUOUS
 10
6.4770542811
 20
4.9062290965
 40
0.0534306275
100
AcDbArc
 50
282.741140828
 51
284.4505092153
  0
ARC
  5
45F
100
AcDbEntity
  8
0
100
AcDbCircle
 62
9
  6
CONTINUOUS
 10
6.9117275699
 20
4.9096407186
 40
0.0528957121
100
AcDbArc
 50
286.8828734209
 51
287.178817424
  0
ARC
  5
460
100
AcDbEntity
  8
0
100
AcDbCircle
 62
7
  6
CONTINUOUS
 10
6.2555552388
 20
4.9942147184
 40
0.0196850394
100
AcDbArc
 50
315.0000000002
 51
360.0
  0
ARC
  5
461
100
AcDbEntity
  8
0
100
AcDbCircle
 62
7
  6
CONTINUOUS
 10
6.1295709868
 20
4.9942147184
 40
0.0196850394
100
AcDbArc
 50
180.0
 51
224.9999999998
  0
ARC
  5
462
100
AcDbEntity
  8
0
100
AcDbCircle
 62
7
  6
CONTINUOUS
 10
6.1377247971
 20
4.9860609081
 40
0.0196850394
100
AcDbArc
 50
225.0011432896
 51
270.0
  0
ARC
  5
463
100
AcDbEntity
  8
0
100
AcDbCircle
 62
7
  6
CONTINUOUS
 10
6.2474014285
 20
4.9860609081
 40
0.0196850394
100
AcDbArc
 50
270.0
 51
314.9988567095
  0
ARC
  5
464
100
AcDbEntity
  8
0
100
AcDbCircle
 62
7
  6
CONTINUOUS
 10
6.6733340124
 20
4.9942147184
 40
0.0196850394
100
AcDbArc
 50
315.0000000003
 51
360.0
  0
ARC
  5
465
100
AcDbEntity
  8
0
100
AcDbCircle
 62
7
  6
CONTINUOUS
 10
6.5473497604
 20
4.9942147184
 40
0.0196850394
100
AcDbArc
 50
180.0
 51
224.9999999997
  0
ARC
  5
466
100
AcDbEntity
  8
0
100
AcDbCircle
 62
7
  6
CONTINUOUS
 10
6.5555035707
 20
4.9860609081
 40
0.0196850394
100
AcDbArc
 50
225.0011432902
 51
270.0
  0
ARC
  5
467
100
AcDbEntity
  8
0
100
AcDbCircle
 62
7
  6
CONTINUOUS
 10
6.6651802021
 20
4.9860609081
 40
0.0196850394
100
AcDbArc
 50
270.0
 51
314.9988567098
  0
ARC
  5
468
100
AcDbEntity
  8
0
100
AcDbCircle
 62
7
  6
CONTINUOUS
 10
6.965128534
 20
4.9942147184
 40
0.0196850394
100
AcDbArc
 50
180.0
 51
225.0000000001
  0
ARC
  5
469
100
AcDbEntity
  8
0
100
AcDbCircle
 62
7
  6
CONTINUOUS
 10
6.9732823443
 20
4.9860609081
 40
0.0196850394
100
AcDbArc
 50
225.0011432902
 51
270.0
  0
ARC
  5
46A
100
AcDbEntity
  8
0
100
AcDbCircle
 62
7
  6
CONTINUOUS
 10
6.1259168462
 20
4.9526675501
 40
0.0196850394
100
AcDbArc
 50
315.0000000004
 51
360.0
  0
ARC
  5
46B
100
AcDbEntity
  8
0
100
AcDbCircle
 62
7
  6
CONTINUOUS
 10
6.1177630359
 20
4.9445137398
 40
0.0196850394
100
AcDbArc
 50
270.0
 51
314.9986727934
  0
ARC
  5
46C
100
AcDbEntity
  8
0
100
AcDbCircle
 62
7
  6
CONTINUOUS
 10
6.4706838976
 20
4.9445137398
 40
0.0196850394
100
AcDbArc
 50
270.0
 51
314.998672795
  0
ARC
  5
46D
100
AcDbEntity
  8
0
100
AcDbCircle
 62
7
  6
CONTINUOUS
 10
6.4788377079
 20
4.9526675501
 40
0.0196850394
100
AcDbArc
 50
315.0000000001
 51
360.0
  0
ARC
  5
46E
100
AcDbEntity
  8
0
100
AcDbCircle
 62
7
  6
CONTINUOUS
 10
6.3764755032
 20
4.9526675501
 40
0.0196850394
100
AcDbArc
 50
180.0
 51
224.9999999999
  0
ARC
  5
46F
100
AcDbEntity
  8
0
100
AcDbCircle
 62
7
  6
CONTINUOUS
 10
6.3846293134
 20
4.9445137398
 40
0.0196850394
100
AcDbArc
 50
225.0013272053
 51
270.0
  0
ARC
  5
470
100
AcDbEntity
  8
0
100
AcDbCircle
 62
7
  6
CONTINUOUS
 10
6.8360544593
 20
4.9445137398
 40
0.0196850394
100
AcDbArc
 50
270.0
 51
314.9986727949
  0
ARC
  5
471
100
AcDbEntity
  8
0
100
AcDbCircle
 62
7
  6
CONTINUOUS
 10
6.7499998751
 20
4.9445137398
 40
0.0196850394
100
AcDbArc
 50
225.0013272051
 51
270.0
  0
ARC
  5
472
100
AcDbEntity
  8
0
100
AcDbCircle
 62
7
  6
CONTINUOUS
 10
6.7418460648
 20
4.9526675501
 40
0.0196850394
100
AcDbArc
 50
180.0
 51
224.9999999998
  0
ARC
  5
473
100
AcDbEntity
  8
0
100
AcDbCircle
 62
7
  6
CONTINUOUS
 10
6.8442082696
 20
4.9526675501
 40
0.0196850394
100
AcDbArc
 50
315.0000000002
 51
360.0
  0
ARC
  5
474
100
AcDbEntity
  8
0
100
AcDbCircle
 62
7
  6
CONTINUOUS
 10
6.4734083777
 20
4.8329693195
 40
0.0118110236
100
AcDbArc
 50
315.0000000004
 51
360.0
  0
ARC
  5
475
100
AcDbEntity
  8
0
100
AcDbCircle
 62
7
  6
CONTINUOUS
 10
6.3552981415
 20
4.8329693195
 40
0.0118110236
100
AcDbArc
 50
180.0
 51
224.9999999996
  0
ARC
  5
476
100
AcDbEntity
  8
0
100
AcDbCircle
 62
7
  6
CONTINUOUS
 10
6.6931005403
 20
4.8329693195
 40
0.0118110236
100
AcDbArc
 50
314.9999999996
 51
360.0
  0
ARC
  5
477
100
AcDbEntity
  8
0
100
AcDbCircle
 62
7
  6
CONTINUOUS
 10
6.5749903041
 20
4.8329693195
 40
0.0118110236
100
AcDbArc
 50
180.0
 51
225.0000000004
  0
ARC
  5
478
100
AcDbEntity
  8
0
100
AcDbCircle
 62
7
  6
CONTINUOUS
 10
6.9113845104
 20
4.8329693195
 40
0.0118110236
100
AcDbArc
 50
314.9999999994
 51
360.0
  0
ARC
  5
479
100
AcDbEntity
  8
0
100
AcDbCircle
 62
7
  6
CONTINUOUS
 10
6.7932742742
 20
4.8329693195
 40
0.0118110236
100
AcDbArc
 50
180.0
 51
225.0000000006
  0
ARC
  5
47A
100
AcDbEntity
  8
0
100
AcDbCircle
 62
7
  6
CONTINUOUS
 10
7.1731285296
 20
4.6879750666
 40
0.312492167
100
AcDbArc
 50
90.0112215036
 51
90.8821195162
  0
ARC
  5
47B
100
AcDbEntity
  8
0
100
AcDbCircle
 62
7
  6
CONTINUOUS
 10
7.1595461631
 20
4.7280004521
 40
0.2713662439
100
AcDbArc
 50
99.4755185356
 51
100.4351524351
  0
ARC
  5
47C
100
AcDbEntity
  8
0
100
AcDbCircle
 62
7
  6
CONTINUOUS
 10
7.5056565263
 20
4.7534997398
 40
0.246967532
100
AcDbArc
 50
90.0342742197
 51
91.2588008815
  0
ARC
  5
47D
100
AcDbEntity
  8
0
100
AcDbCircle
 62
7
  6
CONTINUOUS
 10
7.7312655384
 20
4.7684448496
 40
0.2243095539
100
AcDbArc
 50
105.5086731636
 51
105.9119768456
  0
ARC
  5
47E
100
AcDbEntity
  8
0
100
AcDbCircle
 62
7
  6
CONTINUOUS
 10
7.3376921784
 20
4.800366692
 40
0.0393700787
100
AcDbArc
 50
117.4883173629
 51
160.0
  0
ARC
  5
47F
100
AcDbEntity
  8
0
100
AcDbCircle
 62
7
  6
CONTINUOUS
 10
7.1808739661
 20
4.7229145113
 40
0.0196850394
100
AcDbArc
 50
270.0
 51
314.9974348682
  0
ARC
  5
480
100
AcDbEntity
  8
0
100
AcDbCircle
 62
7
  6
CONTINUOUS
 10
7.2168666261
 20
4.7032294719
 40
0.0196850394
100
AcDbArc
 50
90.0039181288
 51
135.0000000001
  0
ARC
  5
481
100
AcDbEntity
  8
0
100
AcDbCircle
 62
7
  6
CONTINUOUS
 10
7.0023385853
 20
4.7229145113
 40
0.0196850394
100
AcDbArc
 50
270.0
 51
314.9974348101
  0
ARC
  5
482
100
AcDbEntity
  8
0
100
AcDbCircle
 62
7
  6
CONTINUOUS
 10
7.0383312452
 20
4.7032294719
 40
0.0196850394
100
AcDbArc
 50
90.0039289499
 51
135.000000001
  0
ARC
  5
483
100
AcDbEntity
  8
0
100
AcDbCircle
 62
7
  6
CONTINUOUS
 10
7.2538215144
 20
4.7425995507
 40
0.0196850394
100
AcDbArc
 50
270.0
 51
339.9999051803
  0
ARC
  5
484
100
AcDbEntity
  8
0
100
AcDbCircle
 62
7
  6
CONTINUOUS
 10
7.3348189537
 20
4.8202030176
 40
0.0118110236
100
AcDbArc
 50
270.0
 51
292.4997467748
  0
ARC
  5
485
100
AcDbEntity
  8
0
100
AcDbCircle
 62
7
  6
CONTINUOUS
 10
7.4368460841
 20
4.8202030176
 40
0.0118110236
100
AcDbArc
 50
270.0
 51
314.9997468355
  0
ARC
  5
486
100
AcDbEntity
  8
0
100
AcDbCircle
 62
7
  6
CONTINUOUS
 10
7.3442684517
 20
4.8202030176
 40
0.0118110236
100
AcDbArc
 50
225.0002531656
 51
270.0
  0
ARC
  5
487
100
AcDbEntity
  8
0
100
AcDbCircle
 62
7
  6
CONTINUOUS
 10
7.5248532971
 20
4.8202030176
 40
0.0118110236
100
AcDbArc
 50
270.0
 51
314.9997468347
  0
ARC
  5
488
100
AcDbEntity
  8
0
100
AcDbCircle
 62
7
  6
CONTINUOUS
 10
7.561280667
 20
4.8202030176
 40
0.0118110236
100
AcDbArc
 50
270.0
 51
314.9997468346
  0
ARC
  5
489
100
AcDbEntity
  8
0
100
AcDbCircle
 62
7
  6
CONTINUOUS
 10
7.449612386
 20
4.8329693195
 40
0.0118110236
100
AcDbArc
 50
314.9999999998
 51
360.0
  0
ARC
  5
48A
100
AcDbEntity
  8
0
100
AcDbCircle
 62
7
  6
CONTINUOUS
 10
7.3315021498
 20
4.8329693195
 40
0.0118110236
100
AcDbArc
 50
180.0
 51
225.0000000002
  0
ARC
  5
48B
100
AcDbEntity
  8
0
100
AcDbCircle
 62
7
  6
CONTINUOUS
 10
7.0911127859
 20
4.9942147184
 40
0.0196850394
100
AcDbArc
 50
314.9999999999
 51
360.0
  0
ARC
  5
48C
100
AcDbEntity
  8
0
100
AcDbCircle
 62
7
  6
CONTINUOUS
 10
7.0829589757
 20
4.9860609081
 40
0.0196850394
100
AcDbArc
 50
270.0
 51
314.9988567098
  0
ARC
  5
48D
100
AcDbEntity
  8
0
100
AcDbCircle
 62
7
  6
CONTINUOUS
 10
7.3544363746
 20
4.9942147184
 40
0.0196850394
100
AcDbArc
 50
180.0
 51
224.9999999997
  0
ARC
  5
48E
100
AcDbEntity
  8
0
100
AcDbCircle
 62
7
  6
CONTINUOUS
 10
7.3625901848
 20
4.9860609081
 40
0.0196850394
100
AcDbArc
 50
225.00114329
 51
270.0
  0
ARC
  5
48F
100
AcDbEntity
  8
0
100
AcDbCircle
 62
7
  6
CONTINUOUS
 10
7.4722668162
 20
4.9860609081
 40
0.0196850394
100
AcDbArc
 50
270.0
 51
314.99885671
  0
ARC
  5
490
100
AcDbEntity
  8
0
100
AcDbCircle
 62
7
  6
CONTINUOUS
 10
7.4111871148
 20
4.9526675501
 40
0.0196850394
100
AcDbArc
 50
180.0
 51
224.9999999999
  0
ARC
  5
491
100
AcDbEntity
  8
0
100
AcDbCircle
 62
7
  6
CONTINUOUS
 10
7.419340925
 20
4.9445137398
 40
0.0196850394
100
AcDbArc
 50
225.0013272058
 51
270.0
  0
ARC
  5
492
100
AcDbEntity
  8
0
100
AcDbCircle
 62
7
  6
CONTINUOUS
 10
7.188975321
 20
4.9445137398
 40
0.0196850394
100
AcDbArc
 50
270.0
 51
314.9986727946
  0
ARC
  5
493
100
AcDbEntity
  8
0
100
AcDbCircle
 62
7
  6
CONTINUOUS
 10
7.1971291313
 20
4.9526675501
 40
0.0196850394
100
AcDbArc
 50
315.0000000002
 51
360.0
  0
ARC
  5
494
100
AcDbEntity
  8
0
100
AcDbCircle
 62
7
  6
CONTINUOUS
 10
7.0947669265
 20
4.9526675501
 40
0.0196850394
100
AcDbArc
 50
180.0
 51
224.9999999998
  0
ARC
  5
495
100
AcDbEntity
  8
0
100
AcDbCircle
 62
7
  6
CONTINUOUS
 10
7.1029207368
 20
4.9445137398
 40
0.0196850394
100
AcDbArc
 50
225.0013272053
 51
270.0
  0
ARC
  5
496
100
AcDbEntity
  8
0
100
AcDbCircle
 62
9
  6
CONTINUOUS
 10
7.5976588901
 20
4.8594471411
 40
0.0118680643
100
AcDbArc
 50
159.2858967565
 51
164.9315695892
  0
ARC
  5
497
100
AcDbEntity
  8
0
100
AcDbCircle
 62
9
  6
CONTINUOUS
 10
7.5976064429
 20
4.8594624881
 40
0.0118150243
100
AcDbArc
 50
176.2091034957
 51
180.0328207074
  0
ARC
  5
498
100
AcDbEntity
  8
0
100
AcDbCircle
 62
9
  6
CONTINUOUS
 10
7.5976040267
 20
4.8594603985
 40
0.0118116509
100
AcDbArc
 50
132.6354792335
 51
155.5624792122
  0
ARC
  5
499
100
AcDbEntity
  8
0
100
AcDbCircle
 62
7
  6
CONTINUOUS
 10
7.537619599
 20
4.8329693195
 40
0.0118110236
100
AcDbArc
 50
314.9999999998
 51
360.0
  0
ARC
  5
49A
100
AcDbEntity
  8
0
100
AcDbCircle
 62
7
  6
CONTINUOUS
 10
7.5740469689
 20
4.8329693195
 40
0.0118110236
100
AcDbArc
 50
315.0000000005
 51
360.0
  0
ARC
  5
49B
100
AcDbEntity
  8
0
100
AcDbCircle
 62
9
  6
CONTINUOUS
 10
7.5975727892
 20
4.8594598739
 40
0.0117816181
100
AcDbArc
 50
164.8825056591
 51
176.1855970089
  0
ARC
  5
49C
100
AcDbEntity
  8
0
100
AcDbCircle
 62
9
  6
CONTINUOUS
 10
7.5975787143
 20
4.8595106713
 40
0.0117543813
100
AcDbArc
 50
97.8830174273
 51
132.6402287808
  0
ARC
  5
49D
100
AcDbEntity
  8
0
100
AcDbCircle
 62
9
  6
CONTINUOUS
 10
7.5975241983
 20
4.8594940535
 40
0.0117254868
100
AcDbArc
 50
155.5613660507
 51
159.2675172561
  0
ARC
  5
49E
100
AcDbEntity
  8
0
100
AcDbCircle
 62
7
  6
CONTINUOUS
 10
7.4804206265
 20
4.9942147184
 40
0.0196850394
100
AcDbArc
 50
315.0000000003
 51
360.0
  0
ARC
  5
49F
100
AcDbEntity
  8
0
100
AcDbCircle
 62
7
  6
CONTINUOUS
 10
7.8147268481
 20
4.9942147184
 40
0.0196850394
100
AcDbArc
 50
315.0000000002
 51
360.0
  0
ARC
  5
4A0
100
AcDbEntity
  8
0
100
AcDbCircle
 62
7
  6
CONTINUOUS
 10
7.6887425962
 20
4.9942147184
 40
0.0196850394
100
AcDbArc
 50
180.0
 51
224.9999999998
  0
ARC
  5
4A1
100
AcDbEntity
  8
0
100
AcDbCircle
 62
7
  6
CONTINUOUS
 10
7.6968964064
 20
4.9860609081
 40
0.0196850394
100
AcDbArc
 50
225.0011432895
 51
270.0
  0
ARC
  5
4A2
100
AcDbEntity
  8
0
100
AcDbCircle
 62
7
  6
CONTINUOUS
 10
7.8065730378
 20
4.9860609081
 40
0.0196850394
100
AcDbArc
 50
270.0
 51
314.9988567094
  0
ARC
  5
4A3
100
AcDbEntity
  8
0
100
AcDbCircle
 62
7
  6
CONTINUOUS
 10
7.5135493195
 20
4.9526675501
 40
0.0196850394
100
AcDbArc
 50
315.0000000001
 51
360.0
  0
ARC
  5
4A4
100
AcDbEntity
  8
0
100
AcDbCircle
 62
7
  6
CONTINUOUS
 10
7.5053955092
 20
4.9445137398
 40
0.0196850394
100
AcDbArc
 50
270.0
 51
314.998672795
  0
ARC
  5
4A5
100
AcDbEntity
  8
0
100
AcDbCircle
 62
7
  6
CONTINUOUS
 10
7.763751511
 20
4.9445137398
 40
0.0196850394
100
AcDbArc
 50
270.0
 51
314.9986727883
  0
ARC
  5
4A6
100
AcDbEntity
  8
0
100
AcDbCircle
 62
7
  6
CONTINUOUS
 10
7.7719053213
 20
4.9526675501
 40
0.0196850394
100
AcDbArc
 50
315.0000000001
 51
360.0
  0
ARC
  5
4A7
100
AcDbEntity
  8
0
100
AcDbCircle
 62
7
  6
CONTINUOUS
 10
7.6695431166
 20
4.9526675501
 40
0.0196850394
100
AcDbArc
 50
180.0
 51
224.9999999999
  0
ARC
  5
4A8
100
AcDbEntity
  8
0
100
AcDbCircle
 62
7
  6
CONTINUOUS
 10
7.6776969269
 20
4.9445137398
 40
0.0196850394
100
AcDbArc
 50
225.0013272118
 51
270.0
  0
ARC
  5
4A9
100
AcDbEntity
  8
0
100
AcDbCircle
 62
7
  6
CONTINUOUS
 10
7.8603822077
 20
4.9445137398
 40
0.0196850394
100
AcDbArc
 50
225.0013272065
 51
270.0
  0
ARC
  5
4AA
100
AcDbEntity
  8
0
100
AcDbCircle
 62
7
  6
CONTINUOUS
 10
7.8522283974
 20
4.9526675501
 40
0.0196850394
100
AcDbArc
 50
180.0
 51
224.9999999996
  0
ARC
  5
4AB
100
AcDbEntity
  8
0
100
AcDbCircle
 62
7
  6
CONTINUOUS
 10
7.871119977
 20
4.9275145242
 40
0.0078740157
100
AcDbArc
 50
280.1468867895
 51
339.6248379632
  0
ARC
  5
4AC
100
AcDbEntity
  8
0
100
AcDbCircle
 62
7
  6
CONTINUOUS
 10
2.7139194768
 20
6.9605059935
 40
0.275
100
AcDbArc
 50
145.0
 51
35.0
  0
ARC
  5
4AD
100
AcDbEntity
  8
0
100
AcDbCircle
 62
7
  6
CONTINUOUS
 10
3.0754194768
 20
7.4331300346
 40
0.25
100
AcDbArc
 50
134.3699304528
 51
226.9739483152
  0
ARC
  5
4AE
100
AcDbEntity
  8
0
100
AcDbCircle
 62
7
  6
CONTINUOUS
 10
2.3524194768
 20
7.4331300346
 40
0.25
100
AcDbArc
 50
313.0260516848
 51
45.6300695472
  0
ARC
  5
4AF
100
AcDbEntity
  8
0
100
AcDbCircle
 62
7
  6
CONTINUOUS
 10
3.0586794768
 20
7.8292459935
 40
0.09676
100
AcDbArc
 50
90.0
 51
179.9999847726
  0
ARC
  5
4B0
100
AcDbEntity
  8
0
100
AcDbCircle
 62
7
  6
CONTINUOUS
 10
2.3379693706
 20
7.641111498
 40
0.082
100
AcDbArc
 50
28.3549794473
 51
80.0400199476
  0
ARC
  5
4B1
100
AcDbEntity
  8
0
100
AcDbCircle
 62
7
  6
CONTINUOUS
 10
2.5308674236
 20
7.6958558446
 40
0.06478
100
AcDbArc
 50
199.8060251259
 51
250.1957656572
  0
ARC
  5
4B2
100
AcDbEntity
  8
0
100
AcDbCircle
 62
7
  6
CONTINUOUS
 10
2.8971394768
 20
7.69454704
 40
0.06478
100
AcDbArc
 50
289.6464311773
 51
359.9999993237
  0
ARC
  5
4B3
100
AcDbEntity
  8
0
100
AcDbCircle
 62
7
  6
CONTINUOUS
 10
2.4389958993
 20
7.6956337917
 40
0.0328
100
AcDbArc
 50
208.3549794476
 51
295.1189758354
  0
ARC
  5
4B4
100
AcDbEntity
  8
0
100
AcDbCircle
 62
7
  6
CONTINUOUS
 10
2.5489194768
 20
7.6340000174
 40
0.031
100
AcDbArc
 50
180.0
 51
225.630086753
  0
ARC
  5
4B5
100
AcDbEntity
  8
0
100
AcDbCircle
 62
7
  6
CONTINUOUS
 10
2.8789194768
 20
7.6340000174
 40
0.031
100
AcDbArc
 50
314.369913247
 51
360.0
  0
ARC
  5
4B6
100
AcDbEntity
  8
0
100
AcDbCircle
 62
7
  6
CONTINUOUS
 10
2.8948132051
 20
7.2095059935
 40
0.016
100
AcDbArc
 50
90.0
 51
214.9999999998
  0
ARC
  5
4B7
100
AcDbEntity
  8
0
100
AcDbCircle
 62
7
  6
CONTINUOUS
 10
2.5330257485
 20
7.2095059935
 40
0.016
100
AcDbArc
 50
325.0000000002
 51
90.0
  0
ARC
  5
4B8
100
AcDbEntity
  8
0
100
AcDbCircle
 62
7
  6
CONTINUOUS
 10
2.5339194768
 20
7.2386724556
 40
0.016
100
AcDbArc
 50
133.0260516848
 51
235.3765489002
  0
ARC
  5
4B9
100
AcDbEntity
  8
0
100
AcDbCircle
 62
7
  6
CONTINUOUS
 10
2.8939194768
 20
7.2386724556
 40
0.016
100
AcDbArc
 50
304.6234510998
 51
46.9739483152
  0
ARC
  5
4BA
100
AcDbEntity
  8
0
100
AcDbCircle
 62
7
  6
CONTINUOUS
 10
2.3549194768
 20
7.7376345206
 40
0.016
100
AcDbArc
 50
180.0
 51
260.0400107703
  0
CIRCLE
  5
4BB
100
AcDbEntity
  8
0
100
AcDbCircle
 62
7
  6
CONTINUOUS
 10
2.7139194768
 20
8.1085059935
 40
0.275
  0
ARC
  5
4BC
100
AcDbEntity
  8
0
100
AcDbCircle
 62
7
  6
CONTINUOUS
 10
2.3524194768
 20
8.7838819525
 40
0.25
100
AcDbArc
 50
314.3699304528
 51
46.9739483152
  0
ARC
  5
4BD
100
AcDbEntity
  8
0
100
AcDbCircle
 62
7
  6
CONTINUOUS
 10
3.0754194768
 20
8.7838819525
 40
0.25
100
AcDbArc
 50
133.0260516848
 51
225.6300695472
  0
ARC
  5
4BE
100
AcDbEntity
  8
0
100
AcDbCircle
 62
7
  6
CONTINUOUS
 10
3.0586794768
 20
8.3877659935
 40
0.09676
100
AcDbArc
 50
180.0000152274
 51
270.0
  0
ARC
  5
4BF
100
AcDbEntity
  8
0
100
AcDbCircle
 62
7
  6
CONTINUOUS
 10
2.3379693706
 20
8.5759004891
 40
0.082
100
AcDbArc
 50
279.9599800524
 51
331.6450205527
  0
ARC
  5
4C0
100
AcDbEntity
  8
0
100
AcDbCircle
 62
7
  6
CONTINUOUS
 10
2.5308674237
 20
8.5211561425
 40
0.06478
100
AcDbArc
 50
109.8042343673
 51
160.193974891
  0
ARC
  5
4C1
100
AcDbEntity
  8
0
100
AcDbCircle
 62
7
  6
CONTINUOUS
 10
2.8971394768
 20
8.5224649471
 40
0.06478
100
AcDbArc
 50
0.0000006763
 51
70.3535688227
  0
ARC
  5
4C2
100
AcDbEntity
  8
0
100
AcDbCircle
 62
7
  6
CONTINUOUS
 10
2.4389958993
 20
8.5213781953
 40
0.0328
100
AcDbArc
 50
64.8810241646
 51
151.6450205524
  0
ARC
  5
4C3
100
AcDbEntity
  8
0
100
AcDbCircle
 62
7
  6
CONTINUOUS
 10
2.8789194768
 20
8.5830119697
 40
0.031
100
AcDbArc
 50
0.0
 51
45.630086753
  0
ARC
  5
4C4
100
AcDbEntity
  8
0
100
AcDbCircle
 62
7
  6
CONTINUOUS
 10
2.5489194768
 20
8.5830119697
 40
0.031
100
AcDbArc
 50
134.369913247
 51
180.0
  0
ARC
  5
4C5
100
AcDbEntity
  8
0
100
AcDbCircle
 62
7
  6
CONTINUOUS
 10
2.3549194768
 20
8.4793774664
 40
0.016
100
AcDbArc
 50
99.9599892297
 51
180.0
  0
ARC
  5
4C6
100
AcDbEntity
  8
0
100
AcDbCircle
 62
7
  6
CONTINUOUS
 10
4.5961601559
 20
7.8727109789
 40
1.9
100
AcDbArc
 50
282.4577510794
 51
320.8853497804
  0
ARC
  5
4C7
100
AcDbEntity
  8
0
100
AcDbCircle
 62
7
  6
CONTINUOUS
 10
4.5579194768
 20
8.1085059935
 40
0.8
100
AcDbArc
 50
129.9317760382
 51
50.0682239618
  0
ARC
  5
4C8
100
AcDbEntity
  8
0
100
AcDbCircle
 62
7
  6
CONTINUOUS
 10
3.5966535187
 20
8.9511141684
 40
0.503
100
AcDbArc
 50
332.8972289464
 51
59.629654148
  0
CIRCLE
  5
4C9
100
AcDbEntity
  8
0
100
AcDbCircle
 62
7
  6
CONTINUOUS
 10
4.5579194768
 20
8.1085059935
 40
0.06525
  0
ARC
  5
4CA
100
AcDbEntity
  8
0
100
AcDbCircle
 62
7
  6
CONTINUOUS
 10
4.556733967
 20
11.0165285377
 40
1.6201127617
100
AcDbArc
 50
270.0419259057
 51
270.2830760085
  0
ARC
  5
4CB
100
AcDbEntity
  8
0
100
AcDbCircle
 62
7
  6
CONTINUOUS
 10
4.0279194768
 20
9.6870616349
 40
0.35
100
AcDbArc
 50
208.6465260707
 51
239.6296542756
  0
ARC
  5
4CC
100
AcDbEntity
  8
0
100
AcDbCircle
 62
7
  6
CONTINUOUS
 10
2.7139194768
 20
9.2565059935
 40
0.275
100
AcDbArc
 50
325.0
 51
215.0
  0
ARC
  5
4CD
100
AcDbEntity
  8
0
100
AcDbCircle
 62
7
  6
CONTINUOUS
 10
3.3354194768
 20
10.2315059935
 40
0.2
100
AcDbArc
 50
180.0
 51
270.0
  0
ARC
  5
4CE
100
AcDbEntity
  8
0
100
AcDbCircle
 62
7
  6
CONTINUOUS
 10
3.5354194768
 20
10.0045059935
 40
0.2
100
AcDbArc
 50
180.0
 51
270.0000002303
  0
ARC
  5
4CF
100
AcDbEntity
  8
0
100
AcDbCircle
 62
7
  6
CONTINUOUS
 10
3.7129194768
 20
9.7835059935
 40
0.035
100
AcDbArc
 50
180.0
 51
270.0
  0
ARC
  5
4D0
100
AcDbEntity
  8
0
100
AcDbCircle
 62
7
  6
CONTINUOUS
 10
2.5330257485
 20
9.0075059935
 40
0.016
100
AcDbArc
 50
270.0
 51
34.9999999998
  0
ARC
  5
4D1
100
AcDbEntity
  8
0
100
AcDbCircle
 62
7
  6
CONTINUOUS
 10
2.8948132051
 20
9.0075059935
 40
0.016
100
AcDbArc
 50
145.0000000002
 51
270.0
  0
ARC
  5
4D2
100
AcDbEntity
  8
0
100
AcDbCircle
 62
7
  6
CONTINUOUS
 10
2.8939194768
 20
8.9783395314
 40
0.016
100
AcDbArc
 50
313.0260516848
 51
55.3765489002
  0
ARC
  5
4D3
100
AcDbEntity
  8
0
100
AcDbCircle
 62
7
  6
CONTINUOUS
 10
2.5339194768
 20
8.9783395314
 40
0.016
100
AcDbArc
 50
124.6234510998
 51
226.9739483152
  0
ARC
  5
4D4
100
AcDbEntity
  8
0
100
AcDbCircle
 62
7
  6
CONTINUOUS
 10
4.9703418864
 20
5.9639282925
 40
0.02
100
AcDbArc
 50
294.0000000012
 51
360.0
  0
ARC
  5
4D5
100
AcDbEntity
  8
0
100
AcDbCircle
 62
7
  6
CONTINUOUS
 10
5.0103418864
 20
5.9979167251
 40
0.02
100
AcDbArc
 50
102.4577510794
 51
180.0
  0
ARC
  5
4D6
100
AcDbEntity
  8
0
100
AcDbCircle
 62
7
  6
CONTINUOUS
 10
5.5191854349
 20
8.9511141684
 40
0.503
100
AcDbArc
 50
120.370345852
 51
207.1027710536
  0
ARC
  5
4D7
100
AcDbEntity
  8
0
100
AcDbCircle
 62
7
  6
CONTINUOUS
 10
5.8644853478
 20
8.0327872899
 40
0.28
100
AcDbArc
 50
263.1126514506
 51
274.8836773985
  0
ARC
  5
4D8
100
AcDbEntity
  8
0
100
AcDbCircle
 62
9
  6
CONTINUOUS
 10
5.8755273478
 20
8.033122006
 40
0.27922209
100
AcDbArc
 50
260.8060718249
 51
272.4616119472
  0
ARC
  5
4D9
100
AcDbEntity
  8
0
100
AcDbCircle
 62
7
  6
CONTINUOUS
 10
5.5394194768
 20
7.47564513
 40
0.06
100
AcDbArc
 50
196.5978421359
 51
343.4021578641
  0
ARC
  5
4DA
100
AcDbEntity
  8
0
100
AcDbCircle
 62
7
  6
CONTINUOUS
 10
5.5394194768
 20
8.741366857
 40
0.06
100
AcDbArc
 50
16.5978421359
 51
163.4021578641
  0
ARC
  5
4DB
100
AcDbEntity
  8
0
100
AcDbCircle
 62
7
  6
CONTINUOUS
 10
5.62499362
 20
7.4885062756
 40
0.0300000097
100
AcDbArc
 50
270.0
 51
341.9128973252
  0
ARC
  5
4DC
100
AcDbEntity
  8
0
100
AcDbCircle
 62
7
  6
CONTINUOUS
 10
5.6249936174
 20
8.7285057117
 40
0.0300000095
100
AcDbArc
 50
18.0871016452
 51
90.0
  0
ARC
  5
4DD
100
AcDbEntity
  8
0
100
AcDbCircle
 62
7
  6
CONTINUOUS
 10
5.8019194823
 20
8.4452397288
 40
0.0299999927
100
AcDbArc
 50
0.0
 51
62.2595816273
  0
ARC
  5
4DE
100
AcDbEntity
  8
0
100
AcDbCircle
 62
7
  6
CONTINUOUS
 10
5.8019194823
 20
7.7717722583
 40
0.0299999927
100
AcDbArc
 50
297.7404183293
 51
360.0
  0
ARC
  5
4DF
100
AcDbEntity
  8
0
100
AcDbCircle
 62
7
  6
CONTINUOUS
 10
5.4369194768
 20
7.4735059935
 40
0.015
100
AcDbArc
 50
180.0
 51
270.0
  0
ARC
  5
4E0
100
AcDbEntity
  8
0
100
AcDbCircle
 62
7
  6
CONTINUOUS
 10
5.4369194768
 20
8.7435059935
 40
0.015
100
AcDbArc
 50
90.0
 51
180.0
  0
ARC
  5
4E1
100
AcDbEntity
  8
0
100
AcDbCircle
 62
7
  6
CONTINUOUS
 10
6.6103418864
 20
7.2592128454
 40
2.5590551181
100
AcDbArc
 50
264.5049555658
 51
265.9886462846
  0
ARC
  5
4E2
100
AcDbEntity
  8
0
100
AcDbCircle
 62
7
  6
CONTINUOUS
 10
6.6103418864
 20
7.2592128454
 40
2.5590551181
100
AcDbArc
 50
267.3528405073
 51
273.7405671051
  0
ARC
  5
4E3
100
AcDbEntity
  8
0
100
AcDbCircle
 62
7
  6
CONTINUOUS
 10
6.2263418864
 20
6.7540499654
 40
0.1
100
AcDbArc
 50
134.0731757116
 51
180.0
  0
ARC
  5
4E4
100
AcDbEntity
  8
0
100
AcDbCircle
 62
7
  6
CONTINUOUS
 10
6.9943418864
 20
6.7540499654
 40
0.1
100
AcDbArc
 50
0.0
 51
45.9268242884
  0
ARC
  5
4E5
100
AcDbEntity
  8
0
100
AcDbCircle
 62
7
  6
CONTINUOUS
 10
6.1753418864
 20
7.028227279
 40
0.06
100
AcDbArc
 50
311.8102714498
 51
360.0
  0
ARC
  5
4E6
100
AcDbEntity
  8
0
100
AcDbCircle
 62
7
  6
CONTINUOUS
 10
7.1056341285
 20
6.8690022895
 40
0.06
100
AcDbArc
 50
198.0000000005
 51
225.9268242888
  0
ARC
  5
4E7
100
AcDbEntity
  8
0
100
AcDbCircle
 62
7
  6
CONTINUOUS
 10
7.0453418864
 20
7.028227279
 40
0.06
100
AcDbArc
 50
180.0
 51
228.1897285506
  0
ARC
  5
4E8
100
AcDbEntity
  8
0
100
AcDbCircle
 62
7
  6
CONTINUOUS
 10
6.1150496442
 20
6.8690022895
 40
0.06
100
AcDbArc
 50
314.0731757112
 51
341.9999999995
  0
ARC
  5
4E9
100
AcDbEntity
  8
0
100
AcDbCircle
 62
7
  6
CONTINUOUS
 10
6.1863418864
 20
6.7340499654
 40
0.06
100
AcDbArc
 50
180.0
 51
270.0
  0
ARC
  5
4EA
100
AcDbEntity
  8
0
100
AcDbCircle
 62
7
  6
CONTINUOUS
 10
7.0343418864
 20
6.7340499654
 40
0.06
100
AcDbArc
 50
270.0
 51
360.0
  0
ARC
  5
4EB
100
AcDbEntity
  8
0
100
AcDbCircle
 62
7
  6
CONTINUOUS
 10
6.5603418864
 20
8.1085059935
 40
0.76
100
AcDbArc
 50
304.0867832536
 51
330.902230147
  0
ARC
  5
4EC
100
AcDbEntity
  8
0
100
AcDbCircle
 62
7
  6
CONTINUOUS
 10
6.5603418864
 20
8.1085059935
 40
0.76
100
AcDbArc
 50
200.8095735777
 51
244.6277684861
  0
ARC
  5
4ED
100
AcDbEntity
  8
0
100
AcDbCircle
 62
7
  6
CONTINUOUS
 10
6.5603418864
 20
8.1085059935
 40
0.76
100
AcDbArc
 50
29.097769853
 51
159.1904264223
  0
ARC
  5
4EE
100
AcDbEntity
  8
0
100
AcDbCircle
 62
7
  6
CONTINUOUS
 10
6.6103418864
 20
8.1085059935
 40
0.635
100
AcDbArc
 50
306.3469686567
 51
233.6530313433
  0
ARC
  5
4EF
100
AcDbEntity
  8
0
100
AcDbCircle
 62
9
  6
CONTINUOUS
 10
6.6103418864
 20
8.1085059935
 40
0.595
100
AcDbArc
 50
309.2952412839
 51
230.7088924639
  0
ARC
  5
4F0
100
AcDbEntity
  8
0
100
AcDbCircle
 62
9
  6
CONTINUOUS
 10
6.5603418864
 20
8.1085059935
 40
0.5878559417
100
AcDbArc
 50
157.0858472358
 51
203.2452202835
  0
ARC
  5
4F1
100
AcDbEntity
  8
0
100
AcDbCircle
 62
9
  6
CONTINUOUS
 10
6.6103418864
 20
8.1085059935
 40
0.580618532
100
AcDbArc
 50
310.4589933101
 51
229.5498721844
  0
ARC
  5
4F2
100
AcDbEntity
  8
0
100
AcDbCircle
 62
9
  6
CONTINUOUS
 10
6.6103418864
 20
8.1085059935
 40
0.5339897743
100
AcDbArc
 50
314.8821753819
 51
225.1793641955
  0
ARC
  5
4F3
100
AcDbEntity
  8
0
100
AcDbCircle
 62
7
  6
CONTINUOUS
 10
6.6103418864
 20
8.1085059935
 40
0.3900431149
100
AcDbArc
 50
344.7994138529
 51
195.2053897471
  0
ARC
  5
4F4
100
AcDbEntity
  8
0
100
AcDbCircle
 62
7
  6
CONTINUOUS
 10
6.6103418864
 20
8.1085059935
 40
0.375
100
AcDbArc
 50
0.0
 51
180.0
  0
ARC
  5
4F5
100
AcDbEntity
  8
0
100
AcDbCircle
 62
7
  6
CONTINUOUS
 10
7.1982094275
 20
7.7535059935
 40
0.03
100
AcDbArc
 50
330.902230147
 51
90.0
  0
ARC
  5
4F6
100
AcDbEntity
  8
0
100
AcDbCircle
 62
7
  6
CONTINUOUS
 10
7.1982094275
 20
8.4635059935
 40
0.03
100
AcDbArc
 50
270.0
 51
29.0977698531
  0
ARC
  5
4F7
100
AcDbEntity
  8
0
100
AcDbCircle
 62
7
  6
CONTINUOUS
 10
6.6103418864
 20
11.9720519961
 40
7.1691060898
100
AcDbArc
 50
260.6768182412
 51
262.1369697736
  0
ARC
  5
4F8
100
AcDbEntity
  8
0
100
AcDbCircle
 62
7
  6
CONTINUOUS
 10
6.6103418864
 20
11.9720519961
 40
7.1691060898
100
AcDbArc
 50
277.8955430007
 51
279.3231817588
  0
ARC
  5
4F9
100
AcDbEntity
  8
0
100
AcDbCircle
 62
7
  6
CONTINUOUS
 10
6.6103418861
 20
11.9720873069
 40
7.1643816812
100
AcDbArc
 50
284.2898330323
 51
284.9326914327
  0
ARC
  5
4FA
100
AcDbEntity
  8
0
100
AcDbCircle
 62
7
  6
CONTINUOUS
 10
6.6103418861
 20
11.9720873069
 40
7.1643816812
100
AcDbArc
 50
255.0673085672
 51
255.7101669717
  0
ARC
  5
4FB
100
AcDbEntity
  8
0
100
AcDbCircle
 62
7
  6
CONTINUOUS
 10
5.0879194768
 20
9.6870616349
 40
0.35
100
AcDbArc
 50
300.3703457244
 51
331.3534739293
  0
ARC
  5
4FC
100
AcDbEntity
  8
0
100
AcDbCircle
 62
7
  6
CONTINUOUS
 10
5.7804194768
 20
10.2315059935
 40
0.2
100
AcDbArc
 50
270.0
 51
360.0
  0
ARC
  5
4FD
100
AcDbEntity
  8
0
100
AcDbCircle
 62
7
  6
CONTINUOUS
 10
5.5804194768
 20
10.0045059935
 40
0.2
100
AcDbArc
 50
269.9999997697
 51
360.0
  0
ARC
  5
4FE
100
AcDbEntity
  8
0
100
AcDbCircle
 62
7
  6
CONTINUOUS
 10
5.4029194768
 20
9.7835059935
 40
0.035
100
AcDbArc
 50
270.0
 51
360.0
  0
ARC
  5
4FF
100
AcDbEntity
  8
0
100
AcDbCircle
 62
9
  6
CONTINUOUS
 10
8.1908231044
 20
-0.2372949195
 40
5.1430675328
100
AcDbArc
 50
96.7688932791
 51
97.0796370255
  0
ARC
  5
500
100
AcDbEntity
  8
0
100
AcDbCircle
 62
7
  6
CONTINUOUS
 10
8.9653418864
 20
5.5922955683
 40
0.45
100
AcDbArc
 50
180.0
 51
218.3789847992
  0
ARC
  5
501
100
AcDbEntity
  8
0
100
AcDbCircle
 62
7
  6
CONTINUOUS
 10
8.182571833
 20
4.7597512993
 40
0.2729490055
100
AcDbArc
 50
107.1008469881
 51
107.5006532918
  0
ARC
  5
502
100
AcDbEntity
  8
0
100
AcDbCircle
 62
7
  6
CONTINUOUS
 10
8.80855764
 20
5.46812351
 40
0.25
100
AcDbArc
 50
218.3789847992
 51
247.1367765694
  0
ARC
  5
503
100
AcDbEntity
  8
0
100
AcDbCircle
 62
7
  6
CONTINUOUS
 10
8.6803418864
 20
5.1640499654
 40
0.08
100
AcDbArc
 50
2.2714508417
 51
67.1367765692
  0
ARC
  5
504
100
AcDbEntity
  8
0
100
AcDbCircle
 62
7
  6
CONTINUOUS
 10
8.4403418864
 20
5.7753443959
 40
0.075
100
AcDbArc
 50
0.0
 51
65.9999999998
  0
ARC
  5
505
100
AcDbEntity
  8
0
100
AcDbCircle
 62
7
  6
CONTINUOUS
 10
8.2793534304
 20
4.9860609081
 40
0.0196850394
100
AcDbArc
 50
269.998993262
 51
314.9988567098
  0
ARC
  5
506
100
AcDbEntity
  8
0
100
AcDbCircle
 62
7
  6
CONTINUOUS
 10
8.2875072407
 20
4.9942147184
 40
0.0196850394
100
AcDbArc
 50
314.9975411856
 51
360.0
  0
ARC
  5
507
100
AcDbEntity
  8
0
100
AcDbCircle
 62
7
  6
CONTINUOUS
 10
8.0712490342
 20
4.9942147184
 40
0.0196850394
100
AcDbArc
 50
315.0000000002
 51
360.0
  0
ARC
  5
508
100
AcDbEntity
  8
0
100
AcDbCircle
 62
7
  6
CONTINUOUS
 10
8.0630952239
 20
4.9860609081
 40
0.0196850394
100
AcDbArc
 50
270.0
 51
314.9989630351
  0
ARC
  5
509
100
AcDbEntity
  8
0
100
AcDbCircle
 62
7
  6
CONTINUOUS
 10
7.9534185925
 20
4.9860609081
 40
0.0196850394
100
AcDbArc
 50
225.0010369649
 51
270.0
  0
ARC
  5
50A
100
AcDbEntity
  8
0
100
AcDbCircle
 62
7
  6
CONTINUOUS
 10
7.9452647822
 20
4.9942147184
 40
0.0196850394
100
AcDbArc
 50
180.0
 51
224.9999999998
  0
ARC
  5
50B
100
AcDbEntity
  8
0
100
AcDbCircle
 62
7
  6
CONTINUOUS
 10
7.9549470676
 20
4.9445137398
 40
0.0196850394
100
AcDbArc
 50
257.2907770745
 51
270.0
  0
ARC
  5
50C
100
AcDbEntity
  8
0
100
AcDbCircle
 62
7
  6
CONTINUOUS
 10
8.049155462
 20
4.9526675501
 40
0.0196850394
100
AcDbArc
 50
315.0000000001
 51
360.0
  0
ARC
  5
50D
100
AcDbEntity
  8
0
100
AcDbCircle
 62
7
  6
CONTINUOUS
 10
8.0410016517
 20
4.9445137398
 40
0.0196850394
100
AcDbArc
 50
270.0
 51
314.998672795
  0
ARC
  5
50E
100
AcDbEntity
  8
0
100
AcDbCircle
 62
7
  6
CONTINUOUS
 10
7.9464367919
 20
4.9445137398
 40
0.0196850394
100
AcDbArc
 50
270.0
 51
314.9986727934
  0
ARC
  5
50F
100
AcDbEntity
  8
0
100
AcDbCircle
 62
7
  6
CONTINUOUS
 10
7.9545906021
 20
4.9526675501
 40
0.0196850394
100
AcDbArc
 50
315.0000000004
 51
360.0
  0
ARC
  5
510
100
AcDbEntity
  8
0
100
AcDbCircle
 62
7
  6
CONTINUOUS
 10
8.2325056217
 20
4.9942147184
 40
0.0196850394
100
AcDbArc
 50
315.0000000002
 51
360.0
  0
ARC
  5
511
100
AcDbEntity
  8
0
100
AcDbCircle
 62
7
  6
CONTINUOUS
 10
8.1065213697
 20
4.9942147184
 40
0.0196850394
100
AcDbArc
 50
205.4025424871
 51
224.9999999998
  0
ARC
  5
512
100
AcDbEntity
  8
0
100
AcDbCircle
 62
7
  6
CONTINUOUS
 10
8.11467518
 20
4.9860609081
 40
0.0196850394
100
AcDbArc
 50
225.0011432896
 51
270.0
  0
ARC
  5
513
100
AcDbEntity
  8
0
100
AcDbCircle
 62
7
  6
CONTINUOUS
 10
8.2243518114
 20
4.9860609081
 40
0.0196850394
100
AcDbArc
 50
270.0
 51
314.9988567095
  0
ARC
  5
514
100
AcDbEntity
  8
0
100
AcDbCircle
 62
7
  6
CONTINUOUS
 10
8.6245236169
 20
7.8727109789
 40
1.9
100
AcDbArc
 50
219.1146502196
 51
257.5422489206
  0
ARC
  5
515
100
AcDbEntity
  8
0
100
AcDbCircle
 62
7
  6
CONTINUOUS
 10
12.5796604404
 20
8.7145059935
 40
0.8
100
AcDbArc
 50
133.3574725906
 51
46.6425274094
  0
ARC
  5
516
100
AcDbEntity
  8
0
100
AcDbCircle
 62
7
  6
CONTINUOUS
 10
11.8691604404
 20
9.525072452
 40
0.28
100
AcDbArc
 50
305.1650817959
 51
55.0253263796
  0
ARC
  5
517
100
AcDbEntity
  8
0
100
AcDbCircle
 62
7
  6
CONTINUOUS
 10
13.2901604404
 20
9.525072452
 40
0.28
100
AcDbArc
 50
124.974673615
 51
234.8349182041
  0
ARC
  5
518
100
AcDbEntity
  8
0
100
AcDbCircle
 62
7
  6
CONTINUOUS
 10
12.0996604404
 20
9.941855933
 40
0.2
100
AcDbArc
 50
180.0
 51
249.5126853831
  0
ARC
  5
519
100
AcDbEntity
  8
0
100
AcDbCircle
 62
7
  6
CONTINUOUS
 10
13.0596604404
 20
9.9418559329
 40
0.2
100
AcDbArc
 50
290.4873146103
 51
360.0
  0
ARC
  5
51A
100
AcDbEntity
  8
0
100
AcDbCircle
 62
7
  6
CONTINUOUS
 10
12.0372488248
 20
9.9418598399
 40
0.1961326186
100
AcDbArc
 50
355.5651636461
 51
359.9988586597
  0
ARC
  5
51B
100
AcDbEntity
  8
0
100
AcDbCircle
 62
7
  6
CONTINUOUS
 10
12.095075032
 20
9.9418559927
 40
0.1953756979
100
AcDbArc
 50
180.0000175304
 51
180.1669684604
  0
ARC
  5
51C
100
AcDbEntity
  8
0
100
AcDbCircle
 62
7
  6
CONTINUOUS
 10
13.0642465866
 20
9.9418559928
 40
0.1953749601
100
AcDbArc
 50
359.8330244428
 51
359.9999824593
  0
ARC
  5
51D
100
AcDbEntity
  8
0
100
AcDbCircle
 62
7
  6
CONTINUOUS
 10
12.0388183381
 20
9.941763694
 40
0.1945603716
100
AcDbArc
 50
355.3824574716
 51
355.5576527298
  0
ARC
  5
51E
100
AcDbEntity
  8
0
100
AcDbCircle
 62
7
  6
CONTINUOUS
 10
13.0655151648
 20
9.9418003304
 40
0.1941062322
100
AcDbArc
 50
348.5567518271
 51
359.8483633692
  0
ARC
  5
51F
100
AcDbEntity
  8
0
100
AcDbCircle
 62
7
  6
CONTINUOUS
 10
12.0404475551
 20
9.9416156527
 40
0.1929245254
100
AcDbArc
 50
350.4442759086
 51
355.38732868
  0
ARC
  5
520
100
AcDbEntity
  8
0
100
AcDbCircle
 62
7
  6
CONTINUOUS
 10
12.0922080443
 20
9.9416380894
 40
0.1925082014
100
AcDbArc
 50
180.1046012839
 51
191.4870320403
  0
ARC
  5
521
100
AcDbEntity
  8
0
100
AcDbCircle
 62
7
  6
CONTINUOUS
 10
12.0434939548
 20
9.941160286
 40
0.1898448102
100
AcDbArc
 50
350.2090824401
 51
350.427171336
  0
ARC
  5
522
100
AcDbEntity
  8
0
100
AcDbCircle
 62
7
  6
CONTINUOUS
 10
13.0737170541
 20
9.9403950278
 40
0.1857887423
100
AcDbArc
 50
347.0355710828
 51
348.479695598
  0
ARC
  5
523
100
AcDbEntity
  8
0
100
AcDbCircle
 62
7
  6
CONTINUOUS
 10
12.0853400282
 20
9.9403377926
 40
0.1855188275
100
AcDbArc
 50
191.515904705
 51
192.9650417572
  0
ARC
  5
524
100
AcDbEntity
  8
0
100
AcDbCircle
 62
7
  6
CONTINUOUS
 10
13.107078801
 20
9.9392161737
 40
0.1808794206
100
AcDbArc
 50
195.2099988793
 51
195.3615637975
  0
ARC
  5
525
100
AcDbEntity
  8
0
100
AcDbCircle
 62
7
  6
CONTINUOUS
 10
13.1062696669
 20
9.9389924976
 40
0.1800399403
100
AcDbArc
 50
195.3611380492
 51
195.9076950017
  0
ARC
  5
526
100
AcDbEntity
  8
0
100
AcDbCircle
 62
7
  6
CONTINUOUS
 10
13.4496604404
 20
10.2245059935
 40
0.13
100
AcDbArc
 50
269.9999985601
 51
360.0
  0
ARC
  5
527
100
AcDbEntity
  8
0
100
AcDbCircle
 62
7
  6
CONTINUOUS
 10
11.7096604404
 20
10.2245059935
 40
0.13
100
AcDbArc
 50
180.0
 51
270.0000014399
  0
ARC
  5
528
100
AcDbEntity
  8
0
100
AcDbCircle
 62
7
  6
CONTINUOUS
 10
13.2820456265
 20
10.1045059935
 40
0.13
100
AcDbArc
 50
270.0000000166
 51
355.5882742142
  0
ARC
  5
529
100
AcDbEntity
  8
0
100
AcDbCircle
 62
7
  6
CONTINUOUS
 10
11.8772752544
 20
10.1045059935
 40
0.13
100
AcDbArc
 50
184.4117257858
 51
269.9999999834
  0
ARC
  5
52A
100
AcDbEntity
  8
0
100
AcDbCircle
 62
7
  6
CONTINUOUS
 10
8.2503418864
 20
5.9639282925
 40
0.02
100
AcDbArc
 50
180.0
 51
245.9999999988
  0
ARC
  5
52B
100
AcDbEntity
  8
0
100
AcDbCircle
 62
7
  6
CONTINUOUS
 10
8.2103418864
 20
5.9979167251
 40
0.02
100
AcDbArc
 50
0.0
 51
77.5422489206
  0
SPLINE
  5
52C
100
AcDbEntity
  8
0
100
AcDbSpline
 62
7
  6
CONTINUOUS
 70
0
 71
3
 72
23
 73
19
 74
0
 42
0.0000001
 43
0.0000001
 44
0.0000000001
 40
0.0
 40
0.0
 40
0.0
 40
0.0
 40
0.041260617
 40
0.0843902656
 40
0.1297034657
 40
0.1774716253
 40
0.2279265508
 40
0.2812650303
 40
0.3376536703
 40
0.3972334949
 40
0.4601240644
 40
0.5264270313
 40
0.5962291412
 40
0.6696047305
 40
0.7466177887
 40
0.8273236533
 40
0.9117704027
 40
1.0
 40
1.0
 40
1.0
 40
1.0
 10
5.8158834267
 20
8.4717915629
 30
0.0
 10
5.8120103559
 20
8.4738284559
 30
0.0
 10
5.8042912316
 20
8.4783892598
 30
0.0
 10
5.7931079788
 20
8.4864264123
 30
0.0
 10
5.7820892707
 20
8.4957916009
 30
0.0
 10
5.7712346364
 20
8.506482355
 30
0.0
 10
5.7605416204
 20
8.5184980793
 30
0.0
 10
5.7500086357
 20
8.5318384911
 30
0.0
 10
5.7396342623
 20
8.5465037646
 30
0.0
 10
5.7294174555
 20
8.5624942481
 30
0.0
 10
5.7193574327
 20
8.579810382
 30
0.0
 10
5.7094536349
 20
8.5984526205
 30
0.0
 10
5.6997056696
 20
8.6184213959
 30
0.0
 10
5.6901132679
 20
8.6397171025
 30
0.0
 10
5.6806762535
 20
8.6623400788
 30
0.0
 10
5.6713945029
 20
8.6862906562
 30
0.0
 10
5.6622679845
 20
8.7115689659
 30
0.0
 10
5.6564160337
 20
8.7289241401
 30
0.0
 10
5.6535109824
 20
8.7378192491
 30
0.0
  0
SPLINE
  5
52D
100
AcDbEntity
  8
0
100
AcDbSpline
 62
7
  6
CONTINUOUS
 70
0
 71
3
 72
23
 73
19
 74
0
 42
0.0000001
 43
0.0000001
 44
0.0000000001
 40
0.0
 40
0.0
 40
0.0
 40
0.0
 40
0.041260617
 40
0.0843902655
 40
0.1297034656
 40
0.1774716253
 40
0.2279265508
 40
0.2812650303
 40
0.3376536703
 40
0.397233495
 40
0.4601240645
 40
0.5264270314
 40
0.5962291412
 40
0.6696047306
 40
0.7466177887
 40
0.8273236534
 40
0.9117704028
 40
1.0
 40
1.0
 40
1.0
 40
1.0
 10
5.815883426
 20
7.7452204237
 30
0.0
 10
5.8120103553
 20
7.7431835307
 30
0.0
 10
5.8042912309
 20
7.7386227268
 30
0.0
 10
5.7931079782
 20
7.7305855741
 30
0.0
 10
5.7820892701
 20
7.7212203855
 30
0.0
 10
5.7712346358
 20
7.7105296313
 30
0.0
 10
5.7605416198
 20
7.6985139069
 30
0.0
 10
5.750008635
 20
7.6851734949
 30
0.0
 10
5.7396342617
 20
7.6705082213
 30
0.0
 10
5.7294174549
 20
7.6545177377
 30
0.0
 10
5.7193574321
 20
7.6372016037
 30
0.0
 10
5.7094536343
 20
7.618559365
 30
0.0
 10
5.699705669
 20
7.5985905896
 30
0.0
 10
5.6901132673
 20
7.5772948828
 30
0.0
 10
5.680676253
 20
7.5546719064
 30
0.0
 10
5.6713945024
 20
7.5307213289
 30
0.0
 10
5.662267984
 20
7.5054430191
 30
0.0
 10
5.6564160332
 20
7.4880878448
 30
0.0
 10
5.6535109819
 20
7.4791927358
 30
0.0
  0
SPLINE
  5
52E
100
AcDbEntity
  8
0
100
AcDbSpline
 62
9
  6
CONTINUOUS
 70
0
 71
3
 72
15
 73
11
 74
0
 42
0.0000001
 43
0.0000001
 44
0.0000000001
 40
0.0
 40
0.0
 40
0.0
 40
0.0
 40
0.1309096365
 40
0.2587601209
 40
0.3841994092
 40
0.5079133492
 40
0.6306167236
 40
0.753042017
 40
0.8759266869
 40
1.0
 40
1.0
 40
1.0
 40
1.0
 10
5.6535122187
 20
7.9140392245
 30
0.0
 10
5.6593690552
 20
7.9195809098
 30
0.0
 10
5.6713079558
 20
7.9301606986
 30
0.0
 10
5.6900841121
 20
7.9445947443
 30
0.0
 10
5.7094921885
 20
7.9573822574
 30
0.0
 10
5.729530515
 20
7.9685202221
 30
0.0
 10
5.750197841
 20
7.9780069428
 30
0.0
 10
5.7714925668
 20
7.985840985
 30
0.0
 10
5.7934107597
 20
7.9920213031
 30
0.0
 10
5.8083405628
 20
7.9950195435
 30
0.0
 10
5.8158835878
 20
7.9962453991
 30
0.0
  0
SPLINE
  5
52F
100
AcDbEntity
  8
0
100
AcDbSpline
 62
7
  6
CONTINUOUS
 70
0
 71
3
 72
13
 73
9
 74
0
 42
0.0000001
 43
0.0000001
 44
0.0000000001
 40
0.0
 40
0.0
 40
0.0
 40
0.0
 40
0.2922613194
 40
0.5637532668
 40
0.687883327
 40
0.8026318554
 40
0.9069695918
 40
1.0
 40
1.0
 40
1.0
 40
1.0
 10
6.8022770549
 20
5.0004672276
 30
0.0
 10
6.8071039513
 20
5.0004672276
 30
0.0
 10
6.8164159057
 20
5.0002719054
 30
0.0
 10
6.8277569283
 20
4.9995153445
 30
0.0
 10
6.8361365923
 20
4.9985927963
 30
0.0
 10
6.8417491282
 20
4.9977898653
 30
0.0
 10
6.8468218113
 20
4.9968661413
 30
0.0
 10
6.8500002333
 20
4.9961345577
 30
0.0
 10
6.8514858352
 20
4.9957425124
 30
0.0
  0
SPLINE
  5
530
100
AcDbEntity
  8
0
100
AcDbSpline
 62
7
  6
CONTINUOUS
 70
0
 71
3
 72
15
 73
11
 74
0
 42
0.0000001
 43
0.0000001
 44
0.0000000001
 40
0.0
 40
0.0
 40
0.0
 40
0.0
 40
0.1938829291
 40
0.3668117484
 40
0.5186127296
 40
0.6494193352
 40
0.7600324932
 40
0.8524382113
 40
0.9303218176
 40
1.0
 40
1.0
 40
1.0
 40
1.0
 10
6.8514858352
 20
4.9957425124
 30
0.0
 10
6.8524423228
 20
4.9954900985
 30
0.0
 10
6.8542424796
 20
4.9949750662
 30
0.0
 10
6.8567455668
 20
4.994112397
 30
0.0
 10
6.8588892261
 20
4.9932083877
 30
0.0
 10
6.8606649379
 20
4.9922671176
 30
0.0
 10
6.8620671829
 20
4.9912904208
 30
0.0
 10
6.8630944698
 20
4.9902772639
 30
0.0
 10
6.8637407052
 20
4.9892173993
 30
0.0
 10
6.8638933366
 20
4.9884590484
 30
0.0
 10
6.8638930246
 20
4.9881035353
 30
0.0
  0
SPLINE
  5
531
100
AcDbEntity
  8
0
100
AcDbSpline
 62
7
  6
CONTINUOUS
 70
0
 71
3
 72
9
 73
5
 74
0
 42
0.0000001
 43
0.0000001
 44
0.0000000001
 40
0.0
 40
0.0
 40
0.0
 40
0.0
 40
0.5342875577
 40
1.0
 40
1.0
 40
1.0
 40
1.0
 10
7.9539304633
 20
5.0291246396
 30
0.0
 10
7.9513509805
 20
5.0283434556
 30
0.0
 10
7.9465397073
 20
5.026825645
 30
0.0
 10
7.9417756886
 20
5.0251632323
 30
0.0
 10
7.9395754958
 20
5.0243397344
 30
0.0
  0
SPLINE
  5
532
100
AcDbEntity
  8
0
100
AcDbSpline
 62
7
  6
CONTINUOUS
 70
0
 71
3
 72
17
 73
13
 74
0
 42
0.0000001
 43
0.0000001
 44
0.0000000001
 40
0.0
 40
0.0
 40
0.0
 40
0.0
 40
0.2061288879
 40
0.3897894718
 40
0.5501514981
 40
0.6865066558
 40
0.7984941048
 40
0.8454573332
 40
0.8865444417
 40
0.9219918072
 40
0.9522151311
 40
1.0
 40
1.0
 40
1.0
 40
1.0
 10
7.9395754958
 20
5.0243397344
 30
0.0
 10
7.9385081523
 20
5.0239402443
 30
0.0
 10
7.9364980434
 20
5.0231623555
 30
0.0
 10
7.9336940581
 20
5.0219822713
 30
0.0
 10
7.9312855693
 20
5.0208606376
 30
0.0
 10
7.9292875325
 20
5.0198029777
 30
0.0
 10
7.9279010201
 20
5.0189357352
 30
0.0
 10
7.9270186557
 20
5.0182674493
 30
0.0
 10
7.9265059047
 20
5.0178158688
 30
0.0
 10
7.9261020674
 20
5.0173821729
 30
0.0
 10
7.9257385106
 20
5.016873271
 30
0.0
 10
7.9255796316
 20
5.0164457542
 30
0.0
 10
7.9255796262
 20
5.0161815589
 30
0.0
  0
LINE
  5
533
100
AcDbEntity
  8
0
100
AcDbLine
 62
7
  6
CONTINUOUS
 10
6.9454445392
 20
5.0278420146
 11
6.9456382759
 21
5.0291273433
  0
SPLINE
  5
534
100
AcDbEntity
  8
0
100
AcDbSpline
 62
7
  6
CONTINUOUS
 70
0
 71
3
 72
13
 73
9
 74
0
 42
0.0000001
 43
0.0000001
 44
0.0000000001
 40
0.0
 40
0.0
 40
0.0
 40
0.0
 40
0.0912119759
 40
0.1879427515
 40
0.2930671585
 40
0.4087181824
 40
0.6768720806
 40
1.0
 40
1.0
 40
1.0
 40
1.0
 10
7.3347521905
 20
5.0232090332
 30
0.0
 10
7.334752052
 20
5.023441655
 30
0.0
 10
7.3348026217
 20
5.0239221231
 30
0.0
 10
7.3350217649
 20
5.024640559
 30
0.0
 10
7.3353823553
 20
5.0253690047
 30
0.0
 10
7.3360831296
 20
5.0264040371
 30
0.0
 10
7.3373401771
 20
5.0277123305
 30
0.0
 10
7.338533014
 20
5.028640264
 30
0.0
 10
7.339206424
 20
5.0291152785
 30
0.0
  0
SPLINE
  5
535
100
AcDbEntity
  8
0
100
AcDbSpline
 62
7
  6
CONTINUOUS
 70
0
 71
3
 72
16
 73
12
 74
0
 42
0.0000001
 43
0.0000001
 44
0.0000000001
 40
0.0
 40
0.0
 40
0.0
 40
0.0
 40
0.0604278865
 40
0.0952922045
 40
0.1342357589
 40
0.2261015876
 40
0.3384185179
 40
0.4720844236
 40
0.6272229932
 40
0.8034048272
 40
1.0
 40
1.0
 40
1.0
 40
1.0
 10
7.6690586061
 20
5.0192370401
 30
0.0
 10
7.6690580199
 20
5.0195935861
 30
0.0
 10
7.6691980587
 20
5.0201581999
 30
0.0
 10
7.6695705459
 20
5.0208577146
 30
0.0
 10
7.6701412698
 20
5.0216550192
 30
0.0
 10
7.6711617608
 20
5.0226743017
 30
0.0
 10
7.6727468731
 20
5.02388809
 30
0.0
 10
7.6747520489
 20
5.0251502757
 30
0.0
 10
7.6771670653
 20
5.0264551284
 30
0.0
 10
7.6799797221
 20
5.0277960012
 30
0.0
 10
7.6820020656
 20
5.0286622798
 30
0.0
 10
7.683075384
 20
5.0291022204
 30
0.0
  0
SPLINE
  5
536
100
AcDbEntity
  8
0
100
AcDbSpline
 62
7
  6
CONTINUOUS
 70
0
 71
3
 72
16
 73
12
 74
0
 42
0.0000001
 43
0.0000001
 44
0.0000000001
 40
0.0
 40
0.0
 40
0.0
 40
0.0
 40
0.0326569394
 40
0.066163428
 40
0.1402944359
 40
0.2300833135
 40
0.3396034374
 40
0.4709433553
 40
0.6248511139
 40
0.8013116568
 40
1.0
 40
1.0
 40
1.0
 40
1.0
 10
6.0038699486
 20
4.9916867186
 30
0.0
 10
6.0038698035
 20
4.9918537682
 30
0.0
 10
6.0039050267
 20
4.9921933242
 30
0.0
 10
6.0041270361
 20
4.992880642
 30
0.0
 10
6.0047143902
 20
4.9937269642
 30
0.0
 10
6.0057930133
 20
4.9946317127
 30
0.0
 10
6.0072615994
 20
4.9954825995
 30
0.0
 10
6.0091213323
 20
4.9962779254
 30
0.0
 10
6.0113666474
 20
4.9970172509
 30
0.0
 10
6.0139877644
 20
4.9976963885
 30
0.0
 10
6.0158681401
 20
4.9980832587
 30
0.0
 10
6.0168674386
 20
4.99826864
 30
0.0
  0
SPLINE
  5
537
100
AcDbEntity
  8
0
100
AcDbSpline
 62
7
  6
CONTINUOUS
 70
0
 71
3
 72
11
 73
7
 74
0
 42
0.0000001
 43
0.0000001
 44
0.0000000001
 40
0.0
 40
0.0
 40
0.0
 40
0.0
 40
0.2060584878
 40
0.4443702875
 40
0.7109991533
 40
1.0
 40
1.0
 40
1.0
 40
1.0
 10
6.0168674386
 20
4.99826864
 30
0.0
 10
6.0189517944
 20
4.9986553118
 30
0.0
 10
6.0234799701
 20
4.9993108027
 30
0.0
 10
6.0307663855
 20
4.9999778112
 30
0.0
 10
6.0389264538
 20
5.0003813734
 30
0.0
 10
6.0446432206
 20
5.0004672276
 30
0.0
 10
6.0476164455
 20
5.0004672276
 30
0.0
  0
SPLINE
  5
538
100
AcDbEntity
  8
0
100
AcDbSpline
 62
7
  6
CONTINUOUS
 70
0
 71
3
 72
11
 73
7
 74
0
 42
0.0000001
 43
0.0000001
 44
0.0000000001
 40
0.0
 40
0.0
 40
0.0
 40
0.0
 40
0.2885076622
 40
0.5549217022
 40
0.7933781846
 40
1.0
 40
1.0
 40
1.0
 40
1.0
 10
7.1730673273
 20
5.0004672276
 30
0.0
 10
7.1760164732
 20
5.0004672276
 30
0.0
 10
7.1816893899
 20
5.0003826645
 30
0.0
 10
7.1897915834
 20
4.9999855369
 30
0.0
 10
7.1970369528
 20
4.9993292915
 30
0.0
 10
7.2015442671
 20
4.9986845211
 30
0.0
 10
7.2036218754
 20
4.9983043599
 30
0.0
  0
SPLINE
  5
539
100
AcDbEntity
  8
0
100
AcDbSpline
 62
7
  6
CONTINUOUS
 70
0
 71
3
 72
16
 73
12
 74
0
 42
0.0000001
 43
0.0000001
 44
0.0000000001
 40
0.0
 40
0.0
 40
0.0
 40
0.0
 40
0.1989288818
 40
0.3756121375
 40
0.5296916078
 40
0.6611177809
 40
0.7706286869
 40
0.8602922221
 40
0.9341696315
 40
0.9675136273
 40
1.0
 40
1.0
 40
1.0
 40
1.0
 10
7.2036218754
 20
4.9983043599
 30
0.0
 10
7.2046356757
 20
4.9981188544
 30
0.0
 10
7.2065434983
 20
4.9977313244
 30
0.0
 10
7.2092032825
 20
4.9970499165
 30
0.0
 10
7.2114820432
 20
4.9963073322
 30
0.0
 10
7.2133695918
 20
4.9955079156
 30
0.0
 10
7.2148603214
 20
4.9946524288
 30
0.0
 10
7.2159554655
 20
4.9937425698
 30
0.0
 10
7.2165526428
 20
4.992890226
 30
0.0
 10
7.2167781711
 20
4.9921974452
 30
0.0
 10
7.2168139695
 20
4.9918552578
 30
0.0
 10
7.2168138508
 20
4.9916869489
 30
0.0
  0
SPLINE
  5
53A
100
AcDbEntity
  8
0
100
AcDbSpline
 62
7
  6
CONTINUOUS
 70
0
 71
3
 72
15
 73
11
 74
0
 42
0.0000001
 43
0.0000001
 44
0.0000000001
 40
0.0
 40
0.0
 40
0.0
 40
0.0
 40
0.1446870914
 40
0.2889591088
 40
0.4297416837
 40
0.5645244252
 40
0.6909618176
 40
0.806904425
 40
0.9104046012
 40
1.0
 40
1.0
 40
1.0
 40
1.0
 10
6.4201082358
 20
5.0004629743
 30
0.0
 10
6.4233660859
 20
5.0004467314
 30
0.0
 10
6.4298723056
 20
5.0003226132
 30
0.0
 10
6.4395395611
 20
4.9998761006
 30
0.0
 10
6.4489682631
 20
4.9991755337
 30
0.0
 10
6.4579729755
 20
4.9982391135
 30
0.0
 10
6.4663882679
 20
4.9970844579
 30
0.0
 10
6.4740616874
 20
4.9957392924
 30
0.0
 10
6.480856556
 20
4.9942277974
 30
0.0
 10
6.4850440751
 20
4.9930424124
 30
0.0
 10
6.4869597743
 20
4.9924099515
 30
0.0
  0
SPLINE
  5
53B
100
AcDbEntity
  8
0
100
AcDbSpline
 62
7
  6
CONTINUOUS
 70
0
 71
3
 72
15
 73
11
 74
0
 42
0.0000001
 43
0.0000001
 44
0.0000000001
 40
0.0
 40
0.0
 40
0.0
 40
0.0
 40
0.1915598663
 40
0.3629761965
 40
0.5140850661
 40
0.6450014523
 40
0.756409392
 40
0.8501007255
 40
0.9294058687
 40
1.0
 40
1.0
 40
1.0
 40
1.0
 10
6.4869597743
 20
4.9924099515
 30
0.0
 10
6.4878520473
 20
4.9921153709
 30
0.0
 10
6.4895316787
 20
4.9915223275
 30
0.0
 10
6.4918634193
 20
4.9905585136
 30
0.0
 10
6.4938604435
 20
4.9895745729
 30
0.0
 10
6.495514985
 20
4.9885751175
 30
0.0
 10
6.4968214816
 20
4.9875621494
 30
0.0
 10
6.4977775383
 20
4.9865345985
 30
0.0
 10
6.4983776815
 20
4.9854849231
 30
0.0
 10
6.4985226229
 20
4.9847455283
 30
0.0
 10
6.4985227374
 20
4.9843992487
 30
0.0
  0
SPLINE
  5
53C
100
AcDbEntity
  8
0
100
AcDbSpline
 62
7
  6
CONTINUOUS
 70
0
 71
3
 72
12
 73
8
 74
0
 42
0.0000001
 43
0.0000001
 44
0.0000000001
 40
0.0
 40
0.0
 40
0.0
 40
0.0
 40
0.2663769331
 40
0.5352260219
 40
0.7861208484
 40
0.8987813454
 40
1.0
 40
1.0
 40
1.0
 40
1.0
 10
5.2952551897
 20
4.9954968835
 30
0.0
 10
5.3018379571
 20
4.9944426407
 30
0.0
 10
5.3150400084
 20
4.9921684833
 30
0.0
 10
5.3343568973
 20
4.9884294214
 30
0.0
 10
5.3498324997
 20
4.9851031625
 30
0.0
 10
5.3611511485
 20
4.9824200624
 30
0.0
 10
5.3663391941
 20
4.9811007903
 30
0.0
 10
5.3687872529
 20
4.980449501
 30
0.0
  0
SPLINE
  5
53D
100
AcDbEntity
  8
0
100
AcDbSpline
 62
7
  6
CONTINUOUS
 70
0
 71
3
 72
14
 73
10
 74
0
 42
0.0000001
 43
0.0000001
 44
0.0000000001
 40
0.0
 40
0.0
 40
0.0
 40
0.0
 40
0.3491819851
 40
0.5008265106
 40
0.6360270401
 40
0.7540083341
 40
0.8542464552
 40
0.9363321635
 40
1.0
 40
1.0
 40
1.0
 40
1.0
 10
5.3687872529
 20
4.980449501
 30
0.0
 10
5.3709641723
 20
4.9798703466
 30
0.0
 10
5.3740789374
 20
4.9790098773
 30
0.0
 10
5.3780072724
 20
4.9778244444
 30
0.0
 10
5.3804929233
 20
4.9770224221
 30
0.0
 10
5.3826450497
 20
4.9762689258
 30
0.0
 10
5.3844523034
 20
4.9755692838
 30
0.0
 10
5.3859044542
 20
4.9749283706
 30
0.0
 10
5.3867381311
 20
4.9744892265
 30
0.0
 10
5.3870866516
 20
4.9742718886
 30
0.0
  0
SPLINE
  5
53E
100
AcDbEntity
  8
0
100
AcDbSpline
 62
7
  6
CONTINUOUS
 70
0
 71
3
 72
11
 73
7
 74
0
 42
0.0000001
 43
0.0000001
 44
0.0000000001
 40
0.0
 40
0.0
 40
0.0
 40
0.0
 40
0.3512603248
 40
0.6287922437
 40
0.8395401491
 40
1.0
 40
1.0
 40
1.0
 40
1.0
 10
5.3870866516
 20
4.9742718886
 30
0.0
 10
5.3872445562
 20
4.9741734191
 30
0.0
 10
5.3875215684
 20
4.9739873985
 30
0.0
 10
5.3878599339
 20
4.9736963155
 30
0.0
 10
5.388076797
 20
4.9734260995
 30
0.0
 10
5.3881402914
 20
4.9732307893
 30
0.0
 10
5.3881403809
 20
4.9731457805
 30
0.0
  0
SPLINE
  5
53F
100
AcDbEntity
  8
0
100
AcDbSpline
 62
7
  6
CONTINUOUS
 70
0
 71
3
 72
9
 73
5
 74
0
 42
0.0000001
 43
0.0000001
 44
0.0000000001
 40
0.0
 40
0.0
 40
0.0
 40
0.0
 40
0.5325373741
 40
1.0
 40
1.0
 40
1.0
 40
1.0
 10
7.5055087908
 20
5.0004672276
 30
0.0
 10
7.5078663222
 20
5.0004672276
 30
0.0
 10
7.5122936964
 20
5.0003961696
 30
0.0
 10
7.5167155485
 20
5.0001434123
 30
0.0
 10
7.518777138
 20
4.999963249
 30
0.0
  0
SPLINE
  5
540
100
AcDbEntity
  8
0
100
AcDbSpline
 62
7
  6
CONTINUOUS
 70
0
 71
3
 72
17
 73
13
 74
0
 42
0.0000001
 43
0.0000001
 44
0.0000000001
 40
0.0
 40
0.0
 40
0.0
 40
0.0
 40
0.207064847
 40
0.3899499927
 40
0.5481205481
 40
0.6813001629
 40
0.7899262791
 40
0.8757017309
 40
0.9112251366
 40
0.942870085
 40
0.9719089515
 40
1.0
 40
1.0
 40
1.0
 40
1.0
 10
7.518777138
 20
4.999963249
 30
0.0
 10
7.5198833063
 20
4.9998665804
 30
0.0
 10
7.5219637695
 20
4.999650124
 30
0.0
 10
7.5248725458
 20
4.9992195143
 30
0.0
 10
7.5273650794
 20
4.9987073558
 30
0.0
 10
7.5294306406
 20
4.9981170501
 30
0.0
 10
7.5310604029
 20
4.9974526594
 30
0.0
 10
7.5321210004
 20
4.9968006798
 30
0.0
 10
7.5327119002
 20
4.9962269138
 30
0.0
 10
7.5330124373
 20
4.9958030593
 30
0.0
 10
7.5331945471
 20
4.995358191
 30
0.0
 10
7.5332339545
 20
4.9950502268
 30
0.0
 10
7.5332338074
 20
4.9948995888
 30
0.0
  0
SPLINE
  5
541
100
AcDbEntity
  8
0
100
AcDbSpline
 62
7
  6
CONTINUOUS
 70
0
 71
3
 72
11
 73
7
 74
0
 42
0.0000001
 43
0.0000001
 44
0.0000000001
 40
0.0
 40
0.0
 40
0.0
 40
0.0
 40
0.2510262293
 40
0.5070822157
 40
0.7594859896
 40
1.0
 40
1.0
 40
1.0
 40
1.0
 10
6.0540490423
 20
5.0004000504
 30
0.0
 10
6.0583603355
 20
5.0003118888
 30
0.0
 10
6.0670665423
 20
4.9999679073
 30
0.0
 10
6.0800800601
 20
4.9990058097
 30
0.0
 10
6.0928740889
 20
4.9976239106
 30
0.0
 10
6.1012575028
 20
4.9964166749
 30
0.0
 10
6.1053337423
 20
4.9957425124
 30
0.0
  0
SPLINE
  5
542
100
AcDbEntity
  8
0
100
AcDbSpline
 62
7
  6
CONTINUOUS
 70
0
 71
3
 72
17
 73
13
 74
0
 42
0.0000001
 43
0.0000001
 44
0.0000000001
 40
0.0
 40
0.0
 40
0.0
 40
0.0
 40
0.0285539183
 40
0.058010192
 40
0.0899913849
 40
0.1257564849
 40
0.2117511343
 40
0.3203171998
 40
0.4532386917
 40
0.6110249216
 40
0.7934446256
 40
1.0
 40
1.0
 40
1.0
 40
1.0
 10
5.6874498141
 20
4.9949004841
 30
0.0
 10
5.6874496766
 20
4.9950479692
 30
0.0
 10
5.6874873569
 20
4.9953491105
 30
0.0
 10
5.6876616251
 20
4.9957847447
 30
0.0
 10
5.6879493928
 20
4.9962004312
 30
0.0
 10
5.6885145728
 20
4.9967630054
 30
0.0
 10
5.6895302734
 20
4.9974045523
 30
0.0
 10
5.6910930557
 20
4.9980604662
 30
0.0
 10
5.6930740267
 20
4.9986457531
 30
0.0
 10
5.6954653663
 20
4.9991565838
 30
0.0
 10
5.6982572189
 20
4.9995898259
 30
0.0
 10
5.7002547589
 20
4.9998105314
 30
0.0
 10
5.7013170073
 20
4.9999099301
 30
0.0
  0
SPLINE
  5
543
100
AcDbEntity
  8
0
100
AcDbSpline
 62
7
  6
CONTINUOUS
 70
0
 71
3
 72
9
 73
5
 74
0
 42
0.0000001
 43
0.0000001
 44
0.0000000001
 40
0.0
 40
0.0
 40
0.0
 40
0.0
 40
0.4652513186
 40
1.0
 40
1.0
 40
1.0
 40
1.0
 10
5.7013170073
 20
4.9999099301
 30
0.0
 10
5.7034590907
 20
5.0001103731
 30
0.0
 10
5.7080774699
 20
5.0003895257
 30
0.0
 10
5.7127021672
 20
5.0004672276
 30
0.0
 10
5.7151749819
 20
5.0004672276
 30
0.0
  0
SPLINE
  5
544
100
AcDbEntity
  8
0
100
AcDbSpline
 62
7
  6
CONTINUOUS
 70
0
 71
3
 72
19
 73
15
 74
0
 42
0.0000001
 43
0.0000001
 44
0.0000000001
 40
0.0
 40
0.0
 40
0.0
 40
0.0
 40
0.2080846467
 40
0.394475112
 40
0.557571589
 40
0.6959686978
 40
0.7556282124
 40
0.8088242851
 40
0.8555246263
 40
0.8957590665
 40
0.9296901343
 40
0.9577299612
 40
0.9806709304
 40
1.0
 40
1.0
 40
1.0
 40
1.0
 10
5.5501987657
 20
4.984362846
 30
0.0
 10
5.5517442738
 20
4.9839279133
 30
0.0
 10
5.5546656223
 20
4.9830724627
 30
0.0
 10
5.5587614148
 20
4.9817540012
 30
0.0
 10
5.562304693
 20
4.9804805398
 30
0.0
 10
5.5648839734
 20
4.9794215099
 30
0.0
 10
5.5666377212
 20
4.9785943196
 30
0.0
 10
5.5677289313
 20
4.9780233996
 30
0.0
 10
5.5686598707
 20
4.9774722432
 30
0.0
 10
5.5694281608
 20
4.9769418593
 30
0.0
 10
5.57003254
 20
4.9764327385
 30
0.0
 10
5.5704731916
 20
4.9759439502
 30
0.0
 10
5.5707511889
 20
4.9754721624
 30
0.0
 10
5.5708237682
 20
4.9751453638
 30
0.0
 10
5.5708240624
 20
4.9749962247
 30
0.0
  0
SPLINE
  5
545
100
AcDbEntity
  8
0
100
AcDbSpline
 62
7
  6
CONTINUOUS
 70
0
 71
3
 72
15
 73
11
 74
0
 42
0.0000001
 43
0.0000001
 44
0.0000000001
 40
0.0
 40
0.0
 40
0.0
 40
0.0
 40
0.0702028496
 40
0.1484769408
 40
0.2410828815
 40
0.3517226567
 40
0.4824096471
 40
0.6339587245
 40
0.8065358279
 40
1.0
 40
1.0
 40
1.0
 40
1.0
 10
6.3567905183
 20
4.9881036564
 30
0.0
 10
6.3567903799
 20
4.9884546332
 30
0.0
 10
6.3569392559
 20
4.9892021421
 30
0.0
 10
6.3575688264
 20
4.9902491534
 30
0.0
 10
6.3585708318
 20
4.9912509982
 30
0.0
 10
6.3599390069
 20
4.992217322
 30
0.0
 10
6.3616718589
 20
4.9931493418
 30
0.0
 10
6.3637640551
 20
4.9940454735
 30
0.0
 10
6.3662076046
 20
4.9949015414
 30
0.0
 10
6.3679654756
 20
4.9954132639
 30
0.0
 10
6.3688995789
 20
4.9956641841
 30
0.0
  0
SPLINE
  5
546
100
AcDbEntity
  8
0
100
AcDbSpline
 62
7
  6
CONTINUOUS
 70
0
 71
3
 72
13
 73
9
 74
0
 42
0.0000001
 43
0.0000001
 44
0.0000000001
 40
0.0
 40
0.0
 40
0.0
 40
0.0
 40
0.0924907214
 40
0.1964714635
 40
0.3110432031
 40
0.4351635588
 40
0.7070258308
 40
1.0
 40
1.0
 40
1.0
 40
1.0
 10
6.3688995789
 20
4.9956641841
 30
0.0
 10
6.3703840113
 20
4.9960629343
 30
0.0
 10
6.3735652873
 20
4.9968065457
 30
0.0
 10
6.3786498876
 20
4.9977445544
 30
0.0
 10
6.384287137
 20
4.9985603746
 30
0.0
 10
6.392720923
 20
4.9994989731
 30
0.0
 10
6.4041499844
 20
5.0002687923
 30
0.0
 10
6.4135379298
 20
5.0004672276
 30
0.0
 10
6.4184067179
 20
5.0004672276
 30
0.0
  0
SPLINE
  5
547
100
AcDbEntity
  8
0
100
AcDbSpline
 62
7
  6
CONTINUOUS
 70
0
 71
3
 72
11
 73
7
 74
0
 42
0.0000001
 43
0.0000001
 44
0.0000000001
 40
0.0
 40
0.0
 40
0.0
 40
0.0
 40
0.2405312915
 40
0.493471978
 40
0.749824464
 40
1.0
 40
1.0
 40
1.0
 40
1.0
 10
7.1148721781
 20
4.9956641841
 30
0.0
 10
7.1191189455
 20
4.9963738645
 30
0.0
 10
7.1278643057
 20
4.9976377928
 30
0.0
 10
7.1412130075
 20
4.9990668803
 30
0.0
 10
7.1547758874
 20
5.0000385882
 30
0.0
 10
7.1638398566
 20
5.0003615221
 30
0.0
 10
7.1683176246
 20
5.0004301988
 30
0.0
  0
SPLINE
  5
548
100
AcDbEntity
  8
0
100
AcDbSpline
 62
7
  6
CONTINUOUS
 70
0
 71
3
 72
19
 73
15
 74
0
 42
0.0000001
 43
0.0000001
 44
0.0000000001
 40
0.0
 40
0.0
 40
0.0
 40
0.0
 40
0.0195786486
 40
0.0427113388
 40
0.0708773601
 40
0.1048779763
 40
0.1451302023
 40
0.1918007035
 40
0.2449327117
 40
0.3045064579
 40
0.4427131472
 40
0.6056399137
 40
0.7919175783
 40
1.0
 40
1.0
 40
1.0
 40
1.0
 10
7.6498596578
 20
4.9749968707
 30
0.0
 10
7.6498598881
 20
4.9751430765
 30
0.0
 10
7.6499292326
 20
4.9754627528
 30
0.0
 10
7.6501965724
 20
4.9759252844
 30
0.0
 10
7.6506210632
 20
4.97640406
 30
0.0
 10
7.6512035364
 20
4.9769022172
 30
0.0
 10
7.6519440448
 20
4.9774207381
 30
0.0
 10
7.6528413091
 20
4.9779593365
 30
0.0
 10
7.653893191
 20
4.9785170622
 30
0.0
 10
7.655584184
 20
4.9793251042
 30
0.0
 10
7.6580728276
 20
4.9803599957
 30
0.0
 10
7.6614936992
 20
4.9816054584
 30
0.0
 10
7.6654508283
 20
4.9828960118
 30
0.0
 10
7.6682744438
 20
4.9837337101
 30
0.0
 10
7.6697687749
 20
4.9841597634
 30
0.0
  0
LINE
  5
549
100
AcDbEntity
  8
0
100
AcDbLine
 62
7
  6
CONTINUOUS
 10
6.2750458466
 20
5.0291273671
 11
6.275239547
 21
5.0278431944
  0
SPLINE
  5
54A
100
AcDbEntity
  8
0
100
AcDbSpline
 62
7
  6
CONTINUOUS
 70
0
 71
3
 72
13
 73
9
 74
0
 42
0.0000001
 43
0.0000001
 44
0.0000000001
 40
0.0
 40
0.0
 40
0.0
 40
0.0
 40
0.3230480168
 40
0.5911187175
 40
0.7067504021
 40
0.8118878805
 40
0.9086830308
 40
1.0
 40
1.0
 40
1.0
 40
1.0
 10
5.8814807537
 20
5.029113716
 30
0.0
 10
5.8821537203
 20
5.0286390598
 30
0.0
 10
5.8833458059
 20
5.0277119405
 30
0.0
 10
5.8846020298
 20
5.0264045791
 30
0.0
 10
5.8853021134
 20
5.0253700073
 30
0.0
 10
5.8856622144
 20
5.0246415456
 30
0.0
 10
5.885880977
 20
5.0239228602
 30
0.0
 10
5.885931455
 20
5.023442176
 30
0.0
 10
5.8859313166
 20
5.0232093896
 30
0.0
  0
SPLINE
  5
54B
100
AcDbEntity
  8
0
100
AcDbSpline
 62
7
  6
CONTINUOUS
 70
0
 71
3
 72
16
 73
12
 74
0
 42
0.0000001
 43
0.0000001
 44
0.0000000001
 40
0.0
 40
0.0
 40
0.0
 40
0.0
 40
0.1965850165
 40
0.372745805
 40
0.5278656315
 40
0.6615384348
 40
0.7738999385
 40
0.8658156016
 40
0.9047728901
 40
0.9396354267
 40
1.0
 40
1.0
 40
1.0
 40
1.0
 10
5.5375822729
 20
5.029113716
 30
0.0
 10
5.5386575336
 20
5.028673472
 30
0.0
 10
5.5406835308
 20
5.0278066964
 30
0.0
 10
5.5435013085
 20
5.0264649389
 30
0.0
 10
5.5459207098
 20
5.0251587635
 30
0.0
 10
5.5479294698
 20
5.0238943126
 30
0.0
 10
5.5495175286
 20
5.0226777864
 30
0.0
 10
5.5505400608
 20
5.0216561985
 30
0.0
 10
5.5511120547
 20
5.0208573057
 30
0.0
 10
5.5514852035
 20
5.0201569794
 30
0.0
 10
5.5516256788
 20
5.0195918461
 30
0.0
 10
5.5516251205
 20
5.0192350681
 30
0.0
  0
LINE
  5
54C
100
AcDbEntity
  8
0
100
AcDbLine
 62
7
  6
CONTINUOUS
 10
5.266790587
 20
5.029113716
 11
5.2797851292
 21
5.0248289819
  0
SPLINE
  5
54D
100
AcDbEntity
  8
0
100
AcDbSpline
 62
7
  6
CONTINUOUS
 70
0
 71
3
 72
17
 73
13
 74
0
 42
0.0000001
 43
0.0000001
 44
0.0000000001
 40
0.0
 40
0.0
 40
0.0
 40
0.0
 40
0.2064924669
 40
0.3905705809
 40
0.5513135521
 40
0.6879168163
 40
0.7999604651
 40
0.8468642398
 40
0.8878232876
 40
0.9230660815
 40
0.9530028849
 40
1.0
 40
1.0
 40
1.0
 40
1.0
 10
5.2803696443
 20
5.0246147264
 30
0.0
 10
5.2814915313
 20
5.0242010622
 30
0.0
 10
5.283605059
 20
5.0233952068
 30
0.0
 10
5.2865546192
 20
5.0221725088
 30
0.0
 10
5.2890897621
 20
5.0210107104
 30
0.0
 10
5.2911938098
 20
5.0199162945
 30
0.0
 10
5.2926552032
 20
5.0190204304
 30
0.0
 10
5.2935860298
 20
5.0183307176
 30
0.0
 10
5.2941266876
 20
5.0178654439
 30
0.0
 10
5.2945526298
 20
5.0174188914
 30
0.0
 10
5.2949353807
 20
5.0168967387
 30
0.0
 10
5.2951041852
 20
5.0164557267
 30
0.0
 10
5.2951040959
 20
5.016183584
 30
0.0
  0
SPLINE
  5
54E
100
AcDbEntity
  8
0
100
AcDbSpline
 62
7
  6
CONTINUOUS
 70
0
 71
3
 72
10
 73
6
 74
0
 42
0.0000001
 43
0.0000001
 44
0.0000000001
 40
0.0
 40
0.0
 40
0.0
 40
0.0
 40
0.5494708469
 40
0.7889664534
 40
1.0
 40
1.0
 40
1.0
 40
1.0
 10
5.0875597017
 20
5.029113716
 30
0.0
 10
5.0932283168
 20
5.0276727281
 30
0.0
 10
5.1013525506
 20
5.0255420162
 30
0.0
 10
5.1116006299
 20
5.0226630052
 30
0.0
 10
5.11619888
 20
5.0213000496
 30
0.0
 10
5.1183458047
 20
5.0206390743
 30
0.0
  0
SPLINE
  5
54F
100
AcDbEntity
  8
0
100
AcDbSpline
 62
7
  6
CONTINUOUS
 70
0
 71
3
 72
10
 73
6
 74
0
 42
0.0000001
 43
0.0000001
 44
0.0000000001
 40
0.0
 40
0.0
 40
0.0
 40
0.0
 40
0.5672503839
 40
0.801074318
 40
1.0
 40
1.0
 40
1.0
 40
1.0
 10
5.1199722392
 20
5.0201331926
 30
0.0
 10
5.1218645403
 20
5.0195382998
 30
0.0
 10
5.1245288354
 20
5.0186709444
 30
0.0
 10
5.1278204985
 20
5.0174900476
 30
0.0
 10
5.1292316749
 20
5.0169427708
 30
0.0
 10
5.1298750598
 20
5.0166783039
 30
0.0
  0
SPLINE
  5
550
100
AcDbEntity
  8
0
100
AcDbSpline
 62
7
  6
CONTINUOUS
 70
0
 71
3
 72
16
 73
12
 74
0
 42
0.0000001
 43
0.0000001
 44
0.0000000001
 40
0.0
 40
0.0
 40
0.0
 40
0.0
 40
0.0712879302
 40
0.1510950708
 40
0.2450439256
 40
0.3564916436
 40
0.4194187236
 40
0.487292426
 40
0.6380632488
 40
0.8090065224
 40
1.0
 40
1.0
 40
1.0
 40
1.0
 10
6.7221610928
 20
4.9843990817
 30
0.0
 10
6.722161267
 20
4.9847393462
 30
0.0
 10
6.7223005746
 20
4.9854645156
 30
0.0
 10
6.7228795202
 20
4.9864966016
 30
0.0
 10
6.7238035431
 20
4.987507457
 30
0.0
 10
6.7248122441
 20
4.9883032611
 30
0.0
 10
6.725777486
 20
4.9889404293
 30
0.0
 10
6.7269360406
 20
4.9896227125
 30
0.0
 10
6.7286001308
 20
4.9904571775
 30
0.0
 10
6.7308566286
 20
4.9914074835
 30
0.0
 10
6.7324828029
 20
4.9919929602
 30
0.0
 10
6.7333467394
 20
4.9922839675
 30
0.0
  0
SPLINE
  5
551
100
AcDbEntity
  8
0
100
AcDbSpline
 62
7
  6
CONTINUOUS
 70
0
 71
3
 72
15
 73
11
 74
0
 42
0.0000001
 43
0.0000001
 44
0.0000000001
 40
0.0
 40
0.0
 40
0.0
 40
0.0
 40
0.0889351465
 40
0.1919440276
 40
0.3075833626
 40
0.4339187173
 40
0.5688044037
 40
0.7098817849
 40
0.8546329936
 40
1.0
 40
1.0
 40
1.0
 40
1.0
 10
6.7333467394
 20
4.9922839675
 30
0.0
 10
6.7352390674
 20
4.9929213769
 30
0.0
 10
6.7393841167
 20
4.9941165411
 30
0.0
 10
6.7461221922
 20
4.9956412036
 30
0.0
 10
6.7537501736
 20
4.9969999781
 30
0.0
 10
6.7621320531
 20
4.9981691878
 30
0.0
 10
6.7711156913
 20
4.999121627
 30
0.0
 10
6.7805357096
 20
4.9998391048
 30
0.0
 10
6.7902070965
 20
5.0003025968
 30
0.0
 10
6.7967204794
 20
5.0004376619
 30
0.0
 10
6.7999842263
 20
5.0004595219
 30
0.0
  0
SPLINE
  5
552
100
AcDbEntity
  8
0
100
AcDbSpline
 62
7
  6
CONTINUOUS
 70
0
 71
3
 72
10
 73
6
 74
0
 42
0.0000001
 43
0.0000001
 44
0.0000000001
 40
0.0
 40
0.0
 40
0.0
 40
0.0
 40
0.3703751084
 40
0.6488329567
 40
1.0
 40
1.0
 40
1.0
 40
1.0
 10
7.8325432506
 20
4.9731456339
 30
0.0
 10
7.8325434317
 20
4.9733314883
 30
0.0
 10
7.8327515943
 20
4.9736316013
 30
0.0
 10
7.8331223577
 20
4.9739555349
 30
0.0
 10
7.8333847924
 20
4.9741371385
 30
0.0
 10
7.8335333416
 20
4.9742319286
 30
0.0
  0
SPLINE
  5
553
100
AcDbEntity
  8
0
100
AcDbSpline
 62
7
  6
CONTINUOUS
 70
0
 71
3
 72
14
 73
10
 74
0
 42
0.0000001
 43
0.0000001
 44
0.0000000001
 40
0.0
 40
0.0
 40
0.0
 40
0.0
 40
0.0634260481
 40
0.1452666442
 40
0.2452979598
 40
0.3631449447
 40
0.4983109725
 40
0.6500549907
 40
1.0
 40
1.0
 40
1.0
 40
1.0
 10
7.8335333416
 20
4.9742319286
 30
0.0
 10
7.8338645197
 20
4.9744432555
 30
0.0
 10
7.8346588726
 20
4.9748701217
 30
0.0
 10
7.8360453238
 20
4.9754924761
 30
0.0
 10
7.8377738015
 20
4.9761715352
 30
0.0
 10
7.8398349811
 20
4.9769025933
 30
0.0
 10
7.8422184971
 20
4.9776805951
 30
0.0
 10
7.8459917072
 20
4.9788314657
 30
0.0
 10
7.8489853028
 20
4.9796667401
 30
0.0
 10
7.8510785577
 20
4.9802293649
 30
0.0
  0
SPLINE
  5
554
100
AcDbEntity
  8
0
100
AcDbSpline
 62
7
  6
CONTINUOUS
 70
0
 71
3
 72
13
 73
9
 74
0
 42
0.0000001
 43
0.0000001
 44
0.0000000001
 40
0.0
 40
0.0
 40
0.0
 40
0.0
 40
0.1001696177
 40
0.2122111016
 40
0.3339298026
 40
0.4629149487
 40
0.7325585074
 40
1.0
 40
1.0
 40
1.0
 40
1.0
 10
7.8510785577
 20
4.9802293649
 30
0.0
 10
7.8535262726
 20
4.9808872614
 30
0.0
 10
7.8587278521
 20
4.9822214771
 30
0.0
 10
7.8669465565
 20
4.9841837118
 30
0.0
 10
7.8759040809
 20
4.9861870644
 30
0.0
 10
7.8887872229
 20
4.9889043161
 30
0.0
 10
7.9053339176
 20
4.9921123818
 30
0.0
 10
7.9187269434
 20
4.9944243434
 30
0.0
 10
7.9254088014
 20
4.9954948087
 30
0.0
  0
SPLINE
  5
555
100
AcDbEntity
  8
0
100
AcDbSpline
 62
7
  6
CONTINUOUS
 70
0
 71
3
 72
10
 73
6
 74
0
 42
0.0000001
 43
0.0000001
 44
0.0000000001
 40
0.0
 40
0.0
 40
0.0
 40
0.0
 40
0.199320171
 40
0.433261014
 40
1.0
 40
1.0
 40
1.0
 40
1.0
 10
8.0907861752
 20
5.0166672176
 30
0.0
 10
8.091418051
 20
5.0169275157
 30
0.0
 10
8.0928026645
 20
5.017466374
 30
0.0
 10
8.0960284425
 20
5.0186287065
 30
0.0
 10
8.098638363
 20
5.0194820283
 30
0.0
 10
8.1004915159
 20
5.0200664567
 30
0.0
  0
SPLINE
  5
556
100
AcDbEntity
  8
0
100
AcDbSpline
 62
7
  6
CONTINUOUS
 70
0
 71
3
 72
10
 73
6
 74
0
 42
0.0000001
 43
0.0000001
 44
0.0000000001
 40
0.0
 40
0.0
 40
0.0
 40
0.0
 40
0.2109264455
 40
0.4503882118
 40
1.0
 40
1.0
 40
1.0
 40
1.0
 10
8.1023099621
 20
5.0206328657
 30
0.0
 10
8.1044583692
 20
5.0212941931
 30
0.0
 10
8.1090610373
 20
5.0226569848
 30
0.0
 10
8.1193220283
 20
5.0255366147
 30
0.0
 10
8.1274565385
 20
5.0276717948
 30
0.0
 10
8.1331332198
 20
5.0291152785
 30
0.0
  0
LINE
  5
557
100
AcDbEntity
  8
0
100
AcDbLine
 62
7
  6
CONTINUOUS
 10
2.917857827
 20
7.6336264284
 11
2.9120502848
 21
7.6341504953
  0
SPLINE
  5
558
100
AcDbEntity
  8
0
100
AcDbSpline
 62
7
  6
CONTINUOUS
 70
0
 71
3
 72
10
 73
6
 74
0
 42
0.0000001
 43
0.0000001
 44
0.0000000001
 40
0.0
 40
0.0
 40
0.0
 40
0.0
 40
0.3695853274
 40
0.667070278
 40
1.0
 40
1.0
 40
1.0
 40
1.0
 10
2.9120502848
 20
7.6341504953
 30
0.0
 10
2.8877057892
 20
7.6363144189
 30
0.0
 10
2.8436974485
 20
7.6394890432
 30
0.0
 10
2.7776252013
 20
7.6423665665
 30
0.0
 10
2.7359358088
 20
7.6430868723
 30
0.0
 10
2.7139194768
 20
7.6431630785
 30
0.0
  0
SPLINE
  5
559
100
AcDbEntity
  8
0
100
AcDbSpline
 62
7
  6
CONTINUOUS
 70
0
 71
3
 72
10
 73
6
 74
0
 42
0.0000001
 43
0.0000001
 44
0.0000000001
 40
0.0
 40
0.0
 40
0.0
 40
0.0
 40
0.3348080252
 40
0.633331985
 40
1.0
 40
1.0
 40
1.0
 40
1.0
 10
2.7139194768
 20
7.6431630785
 30
0.0
 10
2.6917176882
 20
7.6432399266
 30
0.0
 10
2.6497154025
 20
7.6428001095
 30
0.0
 10
2.5834429383
 20
7.6403429188
 30
0.0
 10
2.539418265
 20
7.6374392651
 30
0.0
 10
2.5151867282
 20
7.6354307731
 30
0.0
  0
LINE
  5
55A
100
AcDbEntity
  8
0
100
AcDbLine
 62
7
  6
CONTINUOUS
 10
2.5151867282
 20
7.6354307731
 11
2.509710966
 21
7.6349698306
  0
SPLINE
  5
55B
100
AcDbEntity
  8
0
100
AcDbSpline
 62
7
  6
CONTINUOUS
 70
0
 71
3
 72
14
 73
10
 74
0
 42
0.0000001
 43
0.0000001
 44
0.0000000001
 40
0.0
 40
0.0
 40
0.0
 40
0.0
 40
0.3223821141
 40
0.3937896759
 40
0.4703879108
 40
0.5515261318
 40
0.6365071659
 40
0.8150760583
 40
1.0
 40
1.0
 40
1.0
 40
1.0
 10
2.5097109661
 20
8.5820421565
 30
0.0
 10
2.5316000274
 20
8.5801716089
 30
0.0
 10
2.5583749187
 20
8.5782960666
 30
0.0
 10
2.590385739
 20
8.5766193511
 30
0.0
 10
2.6059848294
 20
8.5759089882
 30
0.0
 10
2.6225126132
 20
8.5752684558
 30
0.0
 10
2.6459899701
 20
8.5745261989
 30
0.0
 10
2.6765465733
 20
8.5739175806
 30
0.0
 10
2.7013178464
 20
8.57380529
 30
0.0
 10
2.7139194768
 20
8.5738489086
 30
0.0
  0
SPLINE
  5
55C
100
AcDbEntity
  8
0
100
AcDbSpline
 62
7
  6
CONTINUOUS
 70
0
 71
3
 72
14
 73
10
 74
0
 42
0.0000001
 43
0.0000001
 44
0.0000000001
 40
0.0
 40
0.0
 40
0.0
 40
0.0
 40
0.1834225224
 40
0.3606608761
 40
0.445092667
 40
0.5257841577
 40
0.602055561
 40
0.6732711358
 40
1.0
 40
1.0
 40
1.0
 40
1.0
 10
2.7139194768
 20
8.5738489086
 30
0.0
 10
2.7264057743
 20
8.573892128
 30
0.0
 10
2.7509570952
 20
8.5741714458
 30
0.0
 10
2.7812470033
 20
8.5749769073
 30
0.0
 10
2.8045363231
 20
8.5758648
 30
0.0
 10
2.8209525051
 20
8.5766060733
 30
0.0
 10
2.8364649374
 20
8.5774101569
 30
0.0
 10
2.8686915841
 20
8.5792980744
 30
0.0
 10
2.89570864
 20
8.5813572863
 30
0.0
 10
2.917857827
 20
8.5833855587
 30
0.0
  0
LINE
  5
55D
100
AcDbEntity
  8
0
100
AcDbLine
 62
7
  6
CONTINUOUS
 10
2.917857827
 20
8.5833855587
 11
2.9189194887
 21
8.5834737946
  0
LINE
  5
55E
100
AcDbEntity
  8
0
100
AcDbLine
 62
7
  6
CONTINUOUS
 10
2.5089194703
 20
7.6349072148
 11
2.509710966
 21
7.6349698306
  0
SPLINE
  5
55F
100
AcDbEntity
  8
0
100
AcDbSpline
 62
7
  6
CONTINUOUS
 70
0
 71
3
 72
8
 73
4
 74
0
 42
0.0000001
 43
0.0000001
 44
0.0000000001
 40
0.0
 40
0.0
 40
0.0
 40
0.0
 40
1.0
 40
1.0
 40
1.0
 40
1.0
 10
2.5089194703
 20
8.5821047723
 30
0.0
 10
2.5089488046
 20
8.5821026003
 30
0.0
 10
2.5089781389
 20
8.5821004283
 30
0.0
 10
2.5090074732
 20
8.5820982563
 30
0.0
  0
LINE
  5
560
100
AcDbEntity
  8
0
100
AcDbLine
 62
7
  6
CONTINUOUS
 10
2.5090074732
 20
8.5820982563
 11
2.5097109661
 21
8.5820421565
  0
LINE
  5
561
100
AcDbEntity
  8
0
100
AcDbLine
 62
7
  6
CONTINUOUS
 10
2.9189194887
 20
7.6335381924
 11
2.9188014199
 21
7.6335472077
  0
LINE
  5
562
100
AcDbEntity
  8
0
100
AcDbLine
 62
7
  6
CONTINUOUS
 10
2.9188014199
 20
7.6335472077
 11
2.917857827
 21
7.6336264284
  0
SPLINE
  5
563
100
AcDbEntity
  8
0
100
AcDbSpline
 62
9
  6
CONTINUOUS
 70
0
 71
3
 72
17
 73
13
 74
0
 42
0.0000001
 43
0.0000001
 44
0.0000000001
 40
0.0
 40
0.0
 40
0.0
 40
0.0
 40
0.0175353797
 40
0.037203131
 40
0.0613210378
 40
0.0911855187
 40
0.1705099614
 40
0.2779102328
 40
0.4143342799
 40
0.5802164811
 40
0.7755889943
 40
1.0
 40
1.0
 40
1.0
 40
1.0
 10
5.6859032037
 20
4.8588517555
 30
0.0
 10
5.6859032792
 20
4.8588764736
 30
0.0
 10
5.6859156492
 20
4.8589294793
 30
0.0
 10
5.685968965
 20
4.858999661
 30
0.0
 10
5.6860524867
 20
4.8590626251
 30
0.0
 10
5.6862207252
 20
4.8591477205
 30
0.0
 10
5.6865153339
 20
4.8592343659
 30
0.0
 10
5.6869637459
 20
4.8593152143
 30
0.0
 10
5.6875382537
 20
4.8593783763
 30
0.0
 10
5.6882384418
 20
4.859423543
 30
0.0
 10
5.6890637041
 20
4.8594500465
 30
0.0
 10
5.6896554628
 20
4.8594549693
 30
0.0
 10
5.6899717973
 20
4.859454865
 30
0.0
  0
SPLINE
  5
564
100
AcDbEntity
  8
0
100
AcDbSpline
 62
9
  6
CONTINUOUS
 70
0
 71
3
 72
23
 73
19
 74
0
 42
0.0000001
 43
0.0000001
 44
0.0000000001
 40
0.0
 40
0.0
 40
0.0
 40
0.0
 40
0.2017014698
 40
0.3888134311
 40
0.4753706618
 40
0.5565219829
 40
0.6317584956
 40
0.7006405924
 40
0.7627655189
 40
0.8178215472
 40
0.8655622258
 40
0.9058483285
 40
0.9387244903
 40
0.9644856536
 40
0.9749772985
 40
0.9841416378
 40
0.9923220868
 40
1.0
 40
1.0
 40
1.0
 40
1.0
 10
6.8712676689
 20
4.8594557119
 30
0.0
 10
6.8748765292
 20
4.8594557171
 30
0.0
 10
6.8818335616
 20
4.8593714045
 30
0.0
 10
6.8903336416
 20
4.8590325027
 30
0.0
 10
6.8966687919
 20
4.8586165312
 30
0.0
 10
6.9010003741
 20
4.8582496111
 30
0.0
 10
6.9050085554
 20
4.8578221366
 30
0.0
 10
6.9086672272
 20
4.8573376832
 30
0.0
 10
6.9119531098
 20
4.8567994457
 30
0.0
 10
6.91484578
 20
4.8562118741
 30
0.0
 10
6.9173277251
 20
4.8555796085
 30
0.0
 10
6.9193864821
 20
4.8549068832
 30
0.0
 10
6.9210115879
 20
4.8541997921
 30
0.0
 10
6.9220715665
 20
4.853543616
 30
0.0
 10
6.9226657781
 20
4.8529850641
 30
0.0
 10
6.9229671079
 20
4.8525845059
 30
0.0
 10
6.9231526258
 20
4.8521722069
 30
0.0
 10
6.9231952843
 20
4.8518871375
 30
0.0
 10
6.9231956899
 20
4.8517497642
 30
0.0
  0
SPLINE
  5
565
100
AcDbEntity
  8
0
100
AcDbSpline
 62
9
  6
CONTINUOUS
 70
0
 71
3
 72
16
 73
12
 74
0
 42
0.0000001
 43
0.0000001
 44
0.0000000001
 40
0.0
 40
0.0
 40
0.0
 40
0.0
 40
0.1904966612
 40
0.3671826061
 40
0.5228214242
 40
0.6538942622
 40
0.7612987481
 40
0.8560019523
 40
0.8985881635
 40
0.9369516537
 40
1.0
 40
1.0
 40
1.0
 40
1.0
 10
6.871267669
 20
4.8594557119
 30
0.0
 10
6.87126757
 20
4.8602366562
 30
0.0
 10
6.871307354
 20
4.8617422507
 30
0.0
 10
6.8714777555
 20
4.8638798145
 30
0.0
 10
6.8717364408
 20
4.8657629521
 30
0.0
 10
6.8720568706
 20
4.8673478622
 30
0.0
 10
6.8724264472
 20
4.8686641747
 30
0.0
 10
6.8727890069
 20
4.8696020685
 30
0.0
 10
6.8731267953
 20
4.8702401814
 30
0.0
 10
6.8734545317
 20
4.8707290641
 30
0.0
 10
6.8737601978
 20
4.8710346438
 30
0.0
 10
6.8739895741
 20
4.8711537742
 30
0.0
  0
LINE
  5
566
100
AcDbEntity
  8
0
100
AcDbLine
 62
9
  6
CONTINUOUS
 10
6.7774753824
 20
4.8537555489
 11
6.7740303616
 21
4.8546586688
  0
SPLINE
  5
567
100
AcDbEntity
  8
0
100
AcDbSpline
 62
9
  6
CONTINUOUS
 70
0
 71
3
 72
34
 73
30
 74
0
 42
0.0000001
 43
0.0000001
 44
0.0000000001
 40
0.0
 40
0.0
 40
0.0
 40
0.0
 40
0.0157068908
 40
0.0284538783
 40
0.0384518402
 40
0.0425497888
 40
0.0461538035
 40
0.0493944273
 40
0.0524521862
 40
0.0555435951
 40
0.0588821202
 40
0.0626424741
 40
0.0669510815
 40
0.0775066177
 40
0.0909052855
 40
0.1072570591
 40
0.1265849075
 40
0.1488521967
 40
0.1739780673
 40
0.2018679614
 40
0.265514152
 40
0.3388722938
 40
0.4208151832
 40
0.5097702503
 40
0.6040746163
 40
0.702047602
 40
0.8019383614
 40
0.9019174306
 40
1.0
 40
1.0
 40
1.0
 40
1.0
 10
6.7740303616
 20
4.8546586688
 30
0.0
 10
6.7734679076
 20
4.8548366751
 30
0.0
 10
6.7724579712
 20
4.855191378
 30
0.0
 10
6.7711472012
 20
4.8558027631
 30
0.0
 10
6.7702997354
 20
4.8563638625
 30
0.0
 10
6.7698281109
 20
4.8568357836
 30
0.0
 10
6.7695893134
 20
4.8571733707
 30
0.0
 10
6.7694437464
 20
4.8575195881
 30
0.0
 10
6.7693963186
 20
4.8578736558
 30
0.0
 10
6.7694498378
 20
4.8582304538
 30
0.0
 10
6.7696018737
 20
4.8585854139
 30
0.0
 10
6.7698488863
 20
4.8589383425
 30
0.0
 10
6.7703374443
 20
4.8594420753
 30
0.0
 10
6.7712113231
 20
4.8600575718
 30
0.0
 10
6.7725563159
 20
4.8607562891
 30
0.0
 10
6.7742633593
 20
4.8614574022
 30
0.0
 10
6.7763253151
 20
4.8621568673
 30
0.0
 10
6.7787339859
 20
4.862851209
 30
0.0
 10
6.781477538
 20
4.8635374854
 30
0.0
 10
6.7857575044
 20
4.8644789277
 30
0.0
 10
6.7918524025
 20
4.8655899941
 30
0.0
 10
6.7999891616
 20
4.8667897692
 30
0.0
 10
6.8090995456
 20
4.8678785861
 30
0.0
 10
6.8190146083
 20
4.8688409736
 30
0.0
 10
6.8295466462
 20
4.8696578643
 30
0.0
 10
6.8405013044
 20
4.8703147668
 30
0.0
 10
6.8516784454
 20
4.8707964332
 30
0.0
 10
6.8628663495
 20
4.8710840074
 30
0.0
 10
6.8703056384
 20
4.8711506533
 30
0.0
 10
6.8739896131
 20
4.8711524897
 30
0.0
  0
SPLINE
  5
568
100
AcDbEntity
  8
0
100
AcDbSpline
 62
9
  6
CONTINUOUS
 70
0
 71
3
 72
20
 73
16
 74
0
 42
0.0000001
 43
0.0000001
 44
0.0000000001
 40
0.0
 40
0.0
 40
0.0
 40
0.0
 40
0.0436581718
 40
0.0957166127
 40
0.1551344681
 40
0.2207723167
 40
0.3655840106
 40
0.5191040169
 40
0.6698324925
 40
0.7406390129
 40
0.8066406231
 40
0.8666171277
 40
0.9194636865
 40
0.9641950568
 40
1.0
 40
1.0
 40
1.0
 40
1.0
 10
7.4603941103
 20
4.8711524898
 30
0.0
 10
7.4582377738
 20
4.8711520443
 30
0.0
 10
7.4535102574
 20
4.8710649558
 30
0.0
 10
7.445853825
 20
4.8707566416
 30
0.0
 10
7.4371197274
 20
4.8702589516
 30
0.0
 10
7.4238231248
 20
4.8693244966
 30
0.0
 10
7.4059130283
 20
4.8677597755
 30
0.0
 10
7.3838542001
 20
4.8654385159
 30
0.0
 10
7.3654659769
 20
4.8631863752
 30
0.0
 10
7.351396064
 20
4.8612536572
 30
0.0
 10
7.3417817848
 20
4.8598260085
 30
0.0
 10
7.3330622178
 20
4.8584171696
 30
0.0
 10
7.3254000144
 20
4.8570550268
 30
0.0
 10
7.3189390323
 20
4.8557658845
 30
0.0
 10
7.3150614166
 20
4.8548726329
 30
0.0
 10
7.3133501549
 20
4.8544265209
 30
0.0
  0
SPLINE
  5
569
100
AcDbEntity
  8
0
100
AcDbSpline
 62
9
  6
CONTINUOUS
 70
0
 71
3
 72
25
 73
21
 74
0
 42
0.0000001
 43
0.0000001
 44
0.0000000001
 40
0.0
 40
0.0
 40
0.0
 40
0.0
 40
0.2179303744
 40
0.3068648273
 40
0.3822817786
 40
0.4441483954
 40
0.4926277433
 40
0.5283851925
 40
0.5420360087
 40
0.5534327261
 40
0.5634088825
 40
0.5731756831
 40
0.5840207596
 40
0.5969175706
 40
0.6309094638
 40
0.6775294073
 40
0.7375402806
 40
0.8112440505
 40
0.8987605244
 40
1.0
 40
1.0
 40
1.0
 40
1.0
 10
7.3133501549
 20
4.8544265209
 30
0.0
 10
7.3124319483
 20
4.8541871519
 30
0.0
 10
7.3111435786
 20
4.8538305021
 30
0.0
 10
7.3095614105
 20
4.8533123407
 30
0.0
 10
7.3086382611
 20
4.8529682036
 30
0.0
 10
7.3078966588
 20
4.8526428938
 30
0.0
 10
7.307338459
 20
4.852337136
 30
0.0
 10
7.3069936907
 20
4.8520795078
 30
0.0
 10
7.3068234952
 20
4.8518748675
 30
0.0
 10
7.3067535279
 20
4.8517373307
 30
0.0
 10
7.3067328741
 20
4.8516002362
 30
0.0
 10
7.3067661733
 20
4.8514678755
 30
0.0
 10
7.3068498491
 20
4.8513456207
 30
0.0
 10
7.3070406107
 20
4.851179284
 30
0.0
 10
7.3074113158
 20
4.8509992267
 30
0.0
 10
7.3079966588
 20
4.8508188545
 30
0.0
 10
7.3087665075
 20
4.8506586852
 30
0.0
 10
7.3097199142
 20
4.8505196374
 30
0.0
 10
7.3108570207
 20
4.8504029332
 30
0.0
 10
7.3116769141
 20
4.8503446081
 30
0.0
 10
7.3121169306
 20
4.8503181937
 30
0.0
  0
SPLINE
  5
56A
100
AcDbEntity
  8
0
100
AcDbSpline
 62
9
  6
CONTINUOUS
 70
0
 71
3
 72
19
 73
15
 74
0
 42
0.0000001
 43
0.0000001
 44
0.0000000001
 40
0.0
 40
0.0
 40
0.0
 40
0.0
 40
0.017268373
 40
0.0368883473
 40
0.0612086315
 40
0.0915202245
 40
0.1284624251
 40
0.1723305921
 40
0.2232658642
 40
0.2813291178
 40
0.4188608656
 40
0.5847991429
 40
0.7787883719
 40
1.0
 40
1.0
 40
1.0
 40
1.0
 10
5.7843854563
 20
4.8577099536
 30
0.0
 10
5.7843856354
 20
4.8577803318
 30
0.0
 10
5.7844225294
 20
4.857932255
 30
0.0
 10
5.784579641
 20
4.8581323436
 30
0.0
 10
5.7848254618
 20
4.8583124972
 30
0.0
 10
5.7851610768
 20
4.8584784712
 30
0.0
 10
5.7855878794
 20
4.8586318478
 30
0.0
 10
5.7861063655
 20
4.8587729295
 30
0.0
 10
5.7867162344
 20
4.8589015133
 30
0.0
 10
5.7877078157
 20
4.8590651795
 30
0.0
 10
5.7891732492
 20
4.8592272282
 30
0.0
 10
5.7911966317
 20
4.8593609499
 30
0.0
 10
5.7935641205
 20
4.8594401156
 30
0.0
 10
5.7952563772
 20
4.8594550449
 30
0.0
 10
5.7961579409
 20
4.8594548649
 30
0.0
  0
LINE
  5
56B
100
AcDbEntity
  8
0
100
AcDbLine
 62
9
  6
CONTINUOUS
 10
7.4671138249
 20
4.8674095201
 11
7.4697028356
 21
4.8682692009
  0
SPLINE
  5
56C
100
AcDbEntity
  8
0
100
AcDbSpline
 62
9
  6
CONTINUOUS
 70
0
 71
3
 72
25
 73
21
 74
0
 42
0.0000001
 43
0.0000001
 44
0.0000000001
 40
0.0
 40
0.0
 40
0.0
 40
0.0
 40
0.05920963
 40
0.1064580456
 40
0.1422123764
 40
0.1561215629
 40
0.1677237289
 40
0.1775235605
 40
0.1863449761
 40
0.205192576
 40
0.2172796202
 40
0.2317784996
 40
0.2689618488
 40
0.3179583355
 40
0.3792832464
 40
0.4532159788
 40
0.5396580179
 40
0.6381149704
 40
0.748038508
 40
1.0
 40
1.0
 40
1.0
 40
1.0
 10
7.4697028356
 20
4.8682692009
 30
0.0
 10
7.4699673506
 20
4.8683725032
 30
0.0
 10
7.4704390753
 20
4.8685692489
 30
0.0
 10
7.4710471174
 20
4.8688790559
 30
0.0
 10
7.4714360852
 20
4.8691386928
 30
0.0
 10
7.4716474151
 20
4.8693441661
 30
0.0
 10
7.4717479096
 20
4.8694819022
 30
0.0
 10
7.4718032445
 20
4.869617981
 30
0.0
 10
7.4718117613
 20
4.8698021334
 30
0.0
 10
7.4717020817
 20
4.869976412
 30
0.0
 10
7.4715320376
 20
4.8701117757
 30
0.0
 10
7.4712659979
 20
4.8702655046
 30
0.0
 10
7.4708102331
 20
4.8704318582
 30
0.0
 10
7.4701225052
 20
4.8705998785
 30
0.0
 10
7.4692503649
 20
4.8707462888
 30
0.0
 10
7.4681941107
 20
4.8708703996
 30
0.0
 10
7.4669566708
 20
4.8709715338
 30
0.0
 10
7.4655447851
 20
4.8710504375
 30
0.0
 10
7.463338292
 20
4.8711297115
 30
0.0
 10
7.4616025217
 20
4.8711499091
 30
0.0
 10
7.4603941103
 20
4.8711524898
 30
0.0
  0
SPLINE
  5
56D
100
AcDbEntity
  8
0
100
AcDbSpline
 62
9
  6
CONTINUOUS
 70
0
 71
3
 72
24
 73
20
 74
0
 42
0.0000001
 43
0.0000001
 44
0.0000000001
 40
0.0
 40
0.0
 40
0.0
 40
0.0
 40
0.1913270701
 40
0.3744852487
 40
0.4609081681
 40
0.5428680976
 40
0.6196173282
 40
0.6904340147
 40
0.7547559623
 40
0.8121082168
 40
0.8620429822
 40
0.904212909
 40
0.9385414471
 40
0.9528134832
 40
0.9652201876
 40
0.9758689508
 40
0.9849535096
 40
0.9928187407
 40
1.0
 40
1.0
 40
1.0
 40
1.0
 10
6.6359005043
 20
4.8594558405
 30
0.0
 10
6.6404381251
 20
4.8594559676
 30
0.0
 10
6.6493201089
 20
4.8593295263
 30
0.0
 10
6.6602427973
 20
4.8588519037
 30
0.0
 10
6.6685603561
 20
4.8582720157
 30
0.0
 10
6.6743518627
 20
4.8577603944
 30
0.0
 10
6.6797636738
 20
4.857169106
 30
0.0
 10
6.6847450727
 20
4.8565023963
 30
0.0
 10
6.6892515884
 20
4.8557678464
 30
0.0
 10
6.6932443364
 20
4.8549740167
 30
0.0
 10
6.6966887067
 20
4.854129617
 30
0.0
 10
6.6995543578
 20
4.85324072
 30
0.0
 10
6.7015544673
 20
4.8524307769
 30
0.0
 10
6.7028315205
 20
4.8517475755
 30
0.0
 10
6.7035726888
 20
4.8512606046
 30
0.0
 10
6.704156954
 20
4.8507672802
 30
0.0
 10
6.7045829716
 20
4.8502648759
 30
0.0
 10
6.704846988
 20
4.8497499042
 30
0.0
 10
6.7049091341
 20
4.8493912418
 30
0.0
 10
6.7049097212
 20
4.849220928
 30
0.0
  0
SPLINE
  5
56E
100
AcDbEntity
  8
0
100
AcDbSpline
 62
9
  6
CONTINUOUS
 70
0
 71
3
 72
15
 73
11
 74
0
 42
0.0000001
 43
0.0000001
 44
0.0000000001
 40
0.0
 40
0.0
 40
0.0
 40
0.0
 40
0.3851292423
 40
0.5471007023
 40
0.6820094838
 40
0.7905277326
 40
0.8829646505
 40
0.955796052
 40
0.9819718164
 40
1.0
 40
1.0
 40
1.0
 40
1.0
 10
6.63590051
 20
4.8594557206
 30
0.0
 10
6.6359004897
 20
4.8609583558
 30
0.0
 10
6.6359106167
 20
4.8630929751
 30
0.0
 10
6.6359462473
 20
4.8657537083
 30
0.0
 10
6.6359775684
 20
4.8673351189
 30
0.0
 10
6.6360132776
 20
4.8686450962
 30
0.0
 10
6.6360539689
 20
4.8697124871
 30
0.0
 10
6.6360936068
 20
4.8704586013
 30
0.0
 10
6.6361330903
 20
4.8709134521
 30
0.0
 10
6.6361540767
 20
4.8710848541
 30
0.0
 10
6.6361671093
 20
4.8711539756
 30
0.0
  0
SPLINE
  5
56F
100
AcDbEntity
  8
0
100
AcDbSpline
 62
9
  6
CONTINUOUS
 70
0
 71
3
 72
24
 73
20
 74
0
 42
0.0000001
 43
0.0000001
 44
0.0000000001
 40
0.0
 40
0.0
 40
0.0
 40
0.0
 40
0.0075691138
 40
0.0156712123
 40
0.0247981265
 40
0.0353003547
 40
0.0474071751
 40
0.061249837
 40
0.0943879125
 40
0.1349948116
 40
0.183086961
 40
0.2385636236
 40
0.3011297813
 40
0.3703700943
 40
0.4458481744
 40
0.527114325
 40
0.6136463888
 40
0.8000407071
 40
1.0
 40
1.0
 40
1.0
 40
1.0
 10
6.3434898472
 20
4.8512184007
 30
0.0
 10
6.3434903345
 20
4.8513631388
 30
0.0
 10
6.3435364887
 20
4.8516642225
 30
0.0
 10
6.3437365458
 20
4.8520994337
 30
0.0
 10
6.3440617034
 20
4.8525226464
 30
0.0
 10
6.3445093692
 20
4.8529355485
 30
0.0
 10
6.3450790635
 20
4.8533396504
 30
0.0
 10
6.3460607901
 20
4.8539016339
 30
0.0
 10
6.3476048308
 20
4.8545626113
 30
0.0
 10
6.3498228171
 20
4.8552810156
 30
0.0
 10
6.3524969112
 20
4.855958517
 30
0.0
 10
6.3556116168
 20
4.8565884095
 30
0.0
 10
6.3591466447
 20
4.8571663719
 30
0.0
 10
6.3630763676
 20
4.8576883706
 30
0.0
 10
6.3673733833
 20
4.8581499317
 30
0.0
 10
6.3720087743
 20
4.8585465531
 30
0.0
 10
6.3787672042
 20
4.8589953083
 30
0.0
 10
6.387803934
 20
4.8593635864
 30
0.0
 10
6.3951923148
 20
4.859455297
 30
0.0
 10
6.3990159989
 20
4.859454865
 30
0.0
  0
SPLINE
  5
570
100
AcDbEntity
  8
0
100
AcDbSpline
 62
9
  6
CONTINUOUS
 70
0
 71
3
 72
25
 73
21
 74
0
 42
0.0000001
 43
0.0000001
 44
0.0000000001
 40
0.0
 40
0.0
 40
0.0
 40
0.0
 40
0.0070824479
 40
0.0149118072
 40
0.0240180936
 40
0.0347346286
 40
0.0472592884
 40
0.0617055896
 40
0.078123796
 40
0.0965308646
 40
0.1392896649
 40
0.1898297741
 40
0.2477884545
 40
0.3127116356
 40
0.3840266173
 40
0.4610930189
 40
0.5431862374
 40
0.6295238297
 40
0.8115379187
 40
1.0
 40
1.0
 40
1.0
 40
1.0
 10
6.5631788787
 20
4.848678332
 30
0.0
 10
6.5631807252
 20
4.848855205
 30
0.0
 10
6.5632512883
 20
4.8492289648
 30
0.0
 10
6.5635387917
 20
4.8497630209
 30
0.0
 10
6.5639970524
 20
4.8502852812
 30
0.0
 10
6.5646231261
 20
4.8507997731
 30
0.0
 10
6.5654169422
 20
4.8513084781
 30
0.0
 10
6.5663781549
 20
4.8518110617
 30
0.0
 10
6.5675050468
 20
4.852307167
 30
0.0
 10
6.5693179898
 20
4.8529930404
 30
0.0
 10
6.5719893388
 20
4.8538068964
 30
0.0
 10
6.5756615415
 20
4.8546984314
 30
0.0
 10
6.5799117759
 20
4.8555376719
 30
0.0
 10
6.58469987
 20
4.8563147874
 30
0.0
 10
6.5899805682
 20
4.8570218105
 30
0.0
 10
6.5957026298
 20
4.857650649
 30
0.0
 10
6.601810069
 20
4.858194819
 30
0.0
 10
6.6105411146
 20
4.8588101263
 30
0.0
 10
6.6219406104
 20
4.8593198543
 30
0.0
 10
6.6311936943
 20
4.859455731
 30
0.0
 10
6.6359004942
 20
4.8594557233
 30
0.0
  0
SPLINE
  5
571
100
AcDbEntity
  8
0
100
AcDbSpline
 62
9
  6
CONTINUOUS
 70
0
 71
3
 72
25
 73
21
 74
0
 42
0.0000001
 43
0.0000001
 44
0.0000000001
 40
0.0
 40
0.0
 40
0.0
 40
0.0
 40
0.17831291
 40
0.3563358239
 40
0.4425142765
 40
0.5253759393
 40
0.603873391
 40
0.6771026449
 40
0.7442350481
 40
0.8044630877
 40
0.8571502776
 40
0.9018288288
 40
0.9210429568
 40
0.9381227393
 40
0.953072551
 40
0.9659382227
 40
0.9768093162
 40
0.985855356
 40
0.9933953049
 40
1.0
 40
1.0
 40
1.0
 40
1.0
 10
6.3990148293
 20
4.8594558407
 30
0.0
 10
6.404282182
 20
4.8594559917
 30
0.0
 10
6.4148089237
 20
4.8592749506
 30
0.0
 10
6.4278675268
 20
4.8586349911
 30
0.0
 10
6.4380917392
 20
4.8578714886
 30
0.0
 10
6.4453731973
 20
4.8571963954
 30
0.0
 10
6.4522597457
 20
4.8564195144
 30
0.0
 10
6.4586669949
 20
4.8555521173
 30
0.0
 10
6.4645173256
 20
4.8546072143
 30
0.0
 10
6.4697400759
 20
4.8535959245
 30
0.0
 10
6.4742732647
 20
4.852531155
 30
0.0
 10
6.4775836286
 20
4.8515722078
 30
0.0
 10
6.4798384267
 20
4.8507718665
 30
0.0
 10
6.4812395671
 20
4.8501970368
 30
0.0
 10
6.4824343196
 20
4.8496189376
 30
0.0
 10
6.4834210747
 20
4.8490392807
 30
0.0
 10
6.4841995592
 20
4.8484588554
 30
0.0
 10
6.4847697988
 20
4.8478755894
 30
0.0
 10
6.485130167
 20
4.8472831951
 30
0.0
 10
6.4852193149
 20
4.8468633346
 30
0.0
 10
6.4852198565
 20
4.8466682331
 30
0.0
  0
SPLINE
  5
572
100
AcDbEntity
  8
0
100
AcDbSpline
 62
9
  6
CONTINUOUS
 70
0
 71
3
 72
16
 73
12
 74
0
 42
0.0000001
 43
0.0000001
 44
0.0000000001
 40
0.0
 40
0.0
 40
0.0
 40
0.0
 40
0.3725940471
 40
0.5301389835
 40
0.6623199586
 40
0.7699638814
 40
0.8638269068
 40
0.9053798907
 40
0.9421469596
 40
0.9736609068
 40
1.0
 40
1.0
 40
1.0
 40
1.0
 10
6.3990148493
 20
4.8594557202
 30
0.0
 10
6.3990150054
 20
4.860959717
 30
0.0
 10
6.3989306488
 20
4.8631018555
 30
0.0
 10
6.3986356889
 20
4.8657597833
 30
0.0
 10
6.3983764708
 20
4.8673436864
 30
0.0
 10
6.3980779816
 20
4.868657875
 30
0.0
 10
6.3977848628
 20
4.869596409
 30
0.0
 10
6.3975112606
 20
4.8702360101
 30
0.0
 10
6.3972995915
 20
4.8706266637
 30
0.0
 10
6.3970747661
 20
4.8709369309
 30
0.0
 10
6.3968999254
 20
4.8710965718
 30
0.0
 10
6.3968104347
 20
4.8711539756
 30
0.0
  0
LINE
  5
573
100
AcDbEntity
  8
0
100
AcDbLine
 62
9
  6
CONTINUOUS
 10
6.3399283929
 20
4.8583677478
 11
6.3371640363
 21
4.8592645215
  0
SPLINE
  5
574
100
AcDbEntity
  8
0
100
AcDbSpline
 62
9
  6
CONTINUOUS
 70
0
 71
3
 72
28
 73
24
 74
0
 42
0.0000001
 43
0.0000001
 44
0.0000000001
 40
0.0
 40
0.0
 40
0.0
 40
0.0
 40
0.0206416144
 40
0.0384674859
 40
0.0535442522
 40
0.066006079
 40
0.0761215892
 40
0.084435616
 40
0.091915161
 40
0.099825311
 40
0.1092473426
 40
0.1208371102
 40
0.1349412026
 40
0.1517428358
 40
0.1713428862
 40
0.1937984881
 40
0.247237037
 40
0.3116090161
 40
0.3862473314
 40
0.470354841
 40
0.5630716545
 40
0.7706689367
 40
1.0
 40
1.0
 40
1.0
 40
1.0
 10
6.3371640363
 20
4.8592645215
 30
0.0
 10
6.3366934895
 20
4.85943647
 30
0.0
 10
6.335823601
 20
4.8597770039
 30
0.0
 10
6.3346449752
 20
4.8603270544
 30
0.0
 10
6.333689257
 20
4.8608773424
 30
0.0
 10
6.3329558327
 20
4.8614279897
 30
0.0
 10
6.3324431935
 20
4.8619829919
 30
0.0
 10
6.3321556861
 20
4.8625568773
 30
0.0
 10
6.3321268869
 20
4.8631503944
 30
0.0
 10
6.3323648105
 20
4.8637204716
 30
0.0
 10
6.3328313645
 20
4.8642547717
 30
0.0
 10
6.3335150175
 20
4.864770107
 30
0.0
 10
6.334418461
 20
4.8652722044
 30
0.0
 10
6.3355435861
 20
4.8657620442
 30
0.0
 10
6.3368911715
 20
4.8662386376
 30
0.0
 10
6.3391157483
 20
4.8668919802
 30
0.0
 10
6.3424406682
 20
4.8676370847
 30
0.0
 10
6.3470466421
 20
4.8684193791
 30
0.0
 10
6.3524174871
 20
4.8691194585
 30
0.0
 10
6.3584906312
 20
4.8697299573
 30
0.0
 10
6.367794332
 20
4.8704403143
 30
0.0
 10
6.3806393698
 20
4.8710151843
 30
0.0
 10
6.3912444313
 20
4.8711497463
 30
0.0
 10
6.3968103802
 20
4.8711524897
 30
0.0
  0
SPLINE
  5
575
100
AcDbEntity
  8
0
100
AcDbSpline
 62
9
  6
CONTINUOUS
 70
0
 71
3
 72
13
 73
9
 74
0
 42
0.0000001
 43
0.0000001
 44
0.0000000001
 40
0.0
 40
0.0
 40
0.0
 40
0.0
 40
0.087362479
 40
0.1800647189
 40
0.2818452778
 40
0.3955057775
 40
0.6654681322
 40
1.0
 40
1.0
 40
1.0
 40
1.0
 10
6.7814637829
 20
4.8461293672
 30
0.0
 10
6.7814640644
 20
4.8462447071
 30
0.0
 10
6.7814937474
 20
4.8464831435
 30
0.0
 10
6.7816211699
 20
4.8468353848
 30
0.0
 10
6.7818293305
 20
4.847187199
 30
0.0
 10
6.782236418
 20
4.8476845931
 30
0.0
 10
6.782967068
 20
4.8482994622
 30
0.0
 10
6.7836476846
 20
4.8487192197
 30
0.0
 10
6.7840336887
 20
4.8489338569
 30
0.0
  0
SPLINE
  5
576
100
AcDbEntity
  8
0
100
AcDbSpline
 62
9
  6
CONTINUOUS
 70
0
 71
3
 72
18
 73
14
 74
0
 42
0.0000001
 43
0.0000001
 44
0.0000000001
 40
0.0
 40
0.0
 40
0.0
 40
0.0
 40
0.0272141228
 40
0.061010114
 40
0.1012367412
 40
0.1476597475
 40
0.1999681514
 40
0.2576914174
 40
0.3873025861
 40
0.531948664
 40
0.6861562871
 40
0.8441672082
 40
1.0
 40
1.0
 40
1.0
 40
1.0
 10
6.7840336887
 20
4.8489338569
 30
0.0
 10
6.784733758
 20
4.8493231298
 30
0.0
 10
6.7863727952
 20
4.8500691169
 30
0.0
 10
6.789182745
 20
4.851065396
 30
0.0
 10
6.7925909741
 20
4.8520478983
 30
0.0
 10
6.7965684014
 20
4.8530051873
 30
0.0
 10
6.8010812762
 20
4.8539259811
 30
0.0
 10
6.808029974
 20
4.8551421885
 30
0.0
 10
6.8177127546
 20
4.8564792506
 30
0.0
 10
6.8302610468
 20
4.857758904
 30
0.0
 10
6.8436760787
 20
4.8587182325
 30
0.0
 10
6.8574414374
 20
4.8593137325
 30
0.0
 10
6.8666795571
 20
4.8594553903
 30
0.0
 10
6.8712663278
 20
4.8594548651
 30
0.0
  0
SPLINE
  5
577
100
AcDbEntity
  8
0
100
AcDbSpline
 62
9
  6
CONTINUOUS
 70
0
 71
3
 72
32
 73
28
 74
0
 42
0.0000001
 43
0.0000001
 44
0.0000000001
 40
0.0
 40
0.0
 40
0.0
 40
0.0
 40
0.0531351088
 40
0.1164102125
 40
0.1882578699
 40
0.2667815881
 40
0.3499568696
 40
0.4356650589
 40
0.5217231246
 40
0.6059884398
 40
0.6863756102
 40
0.7608802334
 40
0.8277117304
 40
0.8577090482
 40
0.8851812757
 40
0.9099747471
 40
0.9319384309
 40
0.9509264257
 40
0.966832229
 40
0.9736135164
 40
0.9796083531
 40
0.9848167771
 40
0.9892445208
 40
0.9929079409
 40
0.995845082
 40
0.9981447042
 40
1.0
 40
1.0
 40
1.0
 40
1.0
 10
5.7961534245
 20
4.8594558414
 30
0.0
 10
5.7984942668
 20
4.8594559614
 30
0.0
 10
5.80362258
 20
4.8593384745
 30
0.0
 10
5.8119064522
 20
4.8589255733
 30
0.0
 10
5.8212957111
 20
4.8582618334
 30
0.0
 10
5.8315458853
 20
4.8573669065
 30
0.0
 10
5.8423894066
 20
4.8562610773
 30
0.0
 10
5.8535470661
 20
4.8549741094
 30
0.0
 10
5.8647350859
 20
4.8535391941
 30
0.0
 10
5.875671461
 20
4.8519921822
 30
0.0
 10
5.8860828704
 20
4.8503744726
 30
0.0
 10
5.8957108244
 20
4.8487244582
 30
0.0
 10
5.9031266525
 20
4.8473146035
 30
0.0
 10
5.9084865225
 20
4.8461919953
 30
0.0
 10
5.9120228025
 20
4.8453985199
 30
0.0
 10
5.9152011365
 20
4.8446283254
 30
0.0
 10
5.9180012781
 20
4.8438867528
 30
0.0
 10
5.9204042513
 20
4.8431785212
 30
0.0
 10
5.9221453337
 20
4.8425934149
 30
0.0
 10
5.9233243646
 20
4.8421384229
 30
0.0
 10
5.9240529846
 20
4.8418266672
 30
0.0
 10
5.9246731501
 20
4.8415266046
 30
0.0
 10
5.9251840099
 20
4.8412386884
 30
0.0
 10
5.9255854779
 20
4.840963445
 30
0.0
 10
5.9258777905
 20
4.8406996316
 30
0.0
 10
5.9260637467
 20
4.8404442481
 30
0.0
 10
5.9261133887
 20
4.8402608943
 30
0.0
 10
5.9261130997
 20
4.8401791606
 30
0.0
  0
SPLINE
  5
578
100
AcDbEntity
  8
0
100
AcDbSpline
 62
9
  6
CONTINUOUS
 70
0
 71
3
 72
13
 73
9
 74
0
 42
0.0000001
 43
0.0000001
 44
0.0000000001
 40
0.0
 40
0.0
 40
0.0
 40
0.0
 40
0.2922037569
 40
0.5437675921
 40
0.6527621143
 40
0.7634674658
 40
0.8795815465
 40
1.0
 40
1.0
 40
1.0
 40
1.0
 10
5.7961534358
 20
4.8594557202
 30
0.0
 10
5.7961540488
 20
4.8609787169
 30
0.0
 10
5.7956953827
 20
4.863836456
 30
0.0
 10
5.794094403
 20
4.8669075257
 30
0.0
 10
5.7924541181
 20
4.8687481092
 30
0.0
 10
5.7910827345
 20
4.869850317
 30
0.0
 10
5.7894767372
 20
4.8707090995
 30
0.0
 10
5.7882795293
 20
4.8710508975
 30
0.0
 10
5.7876604177
 20
4.8711539744
 30
0.0
  0
SPLINE
  5
579
100
AcDbEntity
  8
0
100
AcDbSpline
 62
9
  6
CONTINUOUS
 70
0
 71
3
 72
28
 73
24
 74
0
 42
0.0000001
 43
0.0000001
 44
0.0000000001
 40
0.0
 40
0.0
 40
0.0
 40
0.0
 40
0.0845188109
 40
0.1556244808
 40
0.2133168986
 40
0.2577461282
 40
0.2751543303
 40
0.289552422
 40
0.3012475755
 40
0.3108125805
 40
0.3192667269
 40
0.3280277876
 40
0.3383897467
 40
0.3511703978
 40
0.3668139549
 40
0.3855643071
 40
0.4328848085
 40
0.4937900171
 40
0.5685761392
 40
0.6572538495
 40
0.7592231413
 40
0.8737300529
 40
1.0
 40
1.0
 40
1.0
 40
1.0
 10
5.7796871689
 20
4.8666729589
 30
0.0
 10
5.7791287686
 20
4.8668318043
 30
0.0
 10
5.7781044145
 20
4.8671380359
 30
0.0
 10
5.7767171918
 20
4.867611905
 30
0.0
 10
5.7756140856
 20
4.868059116
 30
0.0
 10
5.7748794613
 20
4.8684312421
 30
0.0
 10
5.7744450844
 20
4.8687250707
 30
0.0
 10
5.7742178305
 20
4.8689205596
 30
0.0
 10
5.774060776
 20
4.8691106308
 30
0.0
 10
5.7739744206
 20
4.8692996758
 30
0.0
 10
5.7739688568
 20
4.8694894841
 30
0.0
 10
5.7740487817
 20
4.8696670323
 30
0.0
 10
5.7742022242
 20
4.8698271494
 30
0.0
 10
5.774424788
 20
4.8699759134
 30
0.0
 10
5.774717877
 20
4.8701158599
 30
0.0
 10
5.7752465061
 20
4.8703063943
 30
0.0
 10
5.7760966866
 20
4.8705101661
 30
0.0
 10
5.7773385272
 20
4.8707082957
 30
0.0
 10
5.778871705
 20
4.8708709683
 30
0.0
 10
5.7806908407
 20
4.8709967455
 30
0.0
 10
5.7827851975
 20
4.8710863578
 30
0.0
 10
5.7851389971
 20
4.8711400718
 30
0.0
 10
5.786792901
 20
4.8711517298
 30
0.0
 10
5.7876602402
 20
4.8711524897
 30
0.0
  0
SPLINE
  5
57A
100
AcDbEntity
  8
0
100
AcDbSpline
 62
9
  6
CONTINUOUS
 70
0
 71
3
 72
30
 73
26
 74
0
 42
0.0000001
 43
0.0000001
 44
0.0000000001
 40
0.0
 40
0.0
 40
0.0
 40
0.0
 40
0.0038929456
 40
0.0067978601
 40
0.0104668457
 40
0.0149361739
 40
0.0202196471
 40
0.0263214314
 40
0.0332406642
 40
0.0495081355
 40
0.0689358648
 40
0.0914096087
 40
0.1167929407
 40
0.1756012455
 40
0.2438517695
 40
0.3197838471
 40
0.4014389579
 40
0.4867150928
 40
0.5734051224
 40
0.6592466963
 40
0.7419775776
 40
0.8193942551
 40
0.8894170078
 40
0.9501597909
 40
1.0
 40
1.0
 40
1.0
 40
1.0
 10
7.3196907464
 20
4.8398873819
 30
0.0
 10
7.319690858
 20
4.8400613368
 30
0.0
 10
7.319887452
 20
4.8403418772
 30
0.0
 10
7.3202432464
 20
4.8406324427
 30
0.0
 10
7.3206625584
 20
4.8408999212
 30
0.0
 10
7.3211935263
 20
4.8411774758
 30
0.0
 10
7.3218395847
 20
4.8414697526
 30
0.0
 10
7.3225987379
 20
4.8417744119
 30
0.0
 10
7.3238289638
 20
4.8422215798
 30
0.0
 10
7.3256441197
 20
4.8427992751
 30
0.0
 10
7.3281464848
 20
4.8435034292
 30
0.0
 10
7.3310605096
 20
4.8442448318
 30
0.0
 10
7.3357018422
 20
4.8453300916
 30
0.0
 10
7.3423707734
 20
4.8467224066
 30
0.0
 10
7.3512876618
 20
4.8483874856
 30
0.0
 10
7.3612378782
 20
4.8500726368
 30
0.0
 10
7.371962636
 20
4.8517333682
 30
0.0
 10
7.3831835287
 20
4.8533254086
 30
0.0
 10
7.3946082365
 20
4.8548066236
 30
0.0
 10
7.4059369112
 20
4.8561376686
 30
0.0
 10
7.4168693451
 20
4.8572830326
 30
0.0
 10
7.4271127478
 20
4.8582120103
 30
0.0
 10
7.4363903854
 20
4.8589004948
 30
0.0
 10
7.4444497218
 20
4.8593307302
 30
0.0
 10
7.4493909165
 20
4.8594557279
 30
0.0
 10
7.45161801
 20
4.8594557209
 30
0.0
  0
SPLINE
  5
57B
100
AcDbEntity
  8
0
100
AcDbSpline
 62
9
  6
CONTINUOUS
 70
0
 71
3
 72
16
 73
12
 74
0
 42
0.0000001
 43
0.0000001
 44
0.0000000001
 40
0.0
 40
0.0
 40
0.0
 40
0.0
 40
0.029149388
 40
0.0651532976
 40
0.107653667
 40
0.1562796456
 40
0.2698955006
 40
0.4014645847
 40
0.5459049674
 40
0.6976351206
 40
1.0
 40
1.0
 40
1.0
 40
1.0
 10
5.6899666905
 20
4.8594558407
 30
0.0
 10
5.6908516773
 20
4.8594559149
 30
0.0
 10
5.6928296904
 20
4.8594096684
 30
0.0
 10
5.6960943921
 20
4.8592510282
 30
0.0
 10
5.6999457815
 20
4.8589947617
 30
0.0
 10
5.7061420846
 20
4.858498045
 30
0.0
 10
5.7150215591
 20
4.8576408468
 30
0.0
 10
5.7267789265
 20
4.8563371568
 30
0.0
 10
5.7396691816
 20
4.8547579827
 30
0.0
 10
5.7576832828
 20
4.8523682844
 30
0.0
 10
5.7713252241
 20
4.8503690699
 30
0.0
 10
5.7803936076
 20
4.8489424397
 30
0.0
  0
SPLINE
  5
57C
100
AcDbEntity
  8
0
100
AcDbSpline
 62
9
  6
CONTINUOUS
 70
0
 71
3
 72
13
 73
9
 74
0
 42
0.0000001
 43
0.0000001
 44
0.0000000001
 40
0.0
 40
0.0
 40
0.0
 40
0.0
 40
0.2791114628
 40
0.5257232784
 40
0.6356771153
 40
0.7496117132
 40
0.8715076395
 40
1.0
 40
1.0
 40
1.0
 40
1.0
 10
5.6899666973
 20
4.8594557202
 30
0.0
 10
5.6899673933
 20
4.8609843324
 30
0.0
 10
5.6894313555
 20
4.8638930336
 30
0.0
 10
5.6876091575
 20
4.8669412869
 30
0.0
 10
5.6857707313
 20
4.8687600346
 30
0.0
 10
5.6842178565
 20
4.8698602182
 30
0.0
 10
5.6824028316
 20
4.870714693
 30
0.0
 10
5.6810622251
 20
4.8710514365
 30
0.0
 10
5.6803660204
 20
4.8711539756
 30
0.0
  0
LINE
  5
57D
100
AcDbEntity
  8
0
100
AcDbLine
 62
9
  6
CONTINUOUS
 10
5.6817600443
 20
4.868490086
 11
5.6790684876
 21
4.869139285
  0
SPLINE
  5
57E
100
AcDbEntity
  8
0
100
AcDbSpline
 62
9
  6
CONTINUOUS
 70
0
 71
3
 72
24
 73
20
 74
0
 42
0.0000001
 43
0.0000001
 44
0.0000000001
 40
0.0
 40
0.0
 40
0.0
 40
0.0
 40
0.1026928028
 40
0.1915704431
 40
0.266566537
 40
0.3276672459
 40
0.374966664
 40
0.408853216
 40
0.4211767878
 40
0.4309410388
 40
0.4390816386
 40
0.4471509228
 40
0.4567598621
 40
0.4689412492
 40
0.502859482
 40
0.5508119608
 40
0.6130304528
 40
0.7795078872
 40
1.0
 40
1.0
 40
1.0
 40
1.0
 10
5.6790684876
 20
4.869139285
 30
0.0
 10
5.6787809446
 20
4.8692149873
 30
0.0
 10
5.6782457598
 20
4.8693609023
 30
0.0
 10
5.6775061267
 20
4.8695819585
 30
0.0
 10
5.6768884429
 20
4.8697890098
 30
0.0
 10
5.6763928692
 20
4.8699812554
 30
0.0
 10
5.6760209638
 20
4.8701583281
 30
0.0
 10
5.6757900425
 20
4.8703041108
 30
0.0
 10
5.6756753375
 20
4.8704197306
 30
0.0
 10
5.6756289394
 20
4.8704954593
 30
0.0
 10
5.6756164648
 20
4.8705724561
 30
0.0
 10
5.6756437217
 20
4.8706451713
 30
0.0
 10
5.6757048005
 20
4.870708413
 30
0.0
 10
5.6758423357
 20
4.8707943065
 30
0.0
 10
5.6761032069
 20
4.8708809865
 30
0.0
 10
5.6765119553
 20
4.8709637987
 30
0.0
 10
5.6773074515
 20
4.8710643252
 30
0.0
 10
5.6786069293
 20
4.8711360277
 30
0.0
 10
5.6797274008
 20
4.871151561
 30
0.0
 10
5.6803658226
 20
4.8711524897
 30
0.0
  0
LINE
  5
57F
100
AcDbEntity
  8
0
100
AcDbLine
 62
9
  6
CONTINUOUS
 10
7.4613416171
 20
4.8493839696
 11
7.4625797617
 21
4.8495726095
  0
SPLINE
  5
580
100
AcDbEntity
  8
0
100
AcDbSpline
 62
9
  6
CONTINUOUS
 70
0
 71
3
 72
16
 73
12
 74
0
 42
0.0000001
 43
0.0000001
 44
0.0000000001
 40
0.0
 40
0.0
 40
0.0
 40
0.0
 40
0.3163485199
 40
0.4706888952
 40
0.6151937598
 40
0.7447100228
 40
0.8545456421
 40
0.9007832306
 40
0.9406900392
 40
0.9738749474
 40
1.0
 40
1.0
 40
1.0
 40
1.0
 10
7.4625797617
 20
4.8495726095
 30
0.0
 10
7.4713935727
 20
4.8509119313
 30
0.0
 10
7.4845235341
 20
4.8528009986
 30
0.0
 10
7.5017110974
 20
4.8550711541
 30
0.0
 10
7.5136920825
 20
4.8565492857
 30
0.0
 10
7.5244413009
 20
4.857763744
 30
0.0
 10
7.532450043
 20
4.8585638698
 30
0.0
 10
7.5379536216
 20
4.8590266018
 30
0.0
 10
7.5413081722
 20
4.8592644098
 30
0.0
 10
7.5441004238
 20
4.8594117481
 30
0.0
 10
7.5457717525
 20
4.8594551517
 30
0.0
 10
7.5465079803
 20
4.859454865
 30
0.0
  0
SPLINE
  5
581
100
AcDbEntity
  8
0
100
AcDbSpline
 62
9
  6
CONTINUOUS
 70
0
 71
3
 72
18
 73
14
 74
0
 42
0.0000001
 43
0.0000001
 44
0.0000000001
 40
0.0
 40
0.0
 40
0.0
 40
0.0
 40
0.0144113819
 40
0.0361157882
 40
0.0650326711
 40
0.1010420441
 40
0.1439835397
 40
0.1936747533
 40
0.3123699361
 40
0.455023204
 40
0.6191315056
 40
0.8018382322
 40
1.0
 40
1.0
 40
1.0
 40
1.0
 10
5.6384585167
 20
4.8594557904
 30
0.0
 10
5.6386568703
 20
4.8594557938
 30
0.0
 10
5.6391536825
 20
4.8594302359
 30
0.0
 10
5.6400459374
 20
4.8593604082
 30
0.0
 10
5.6412329325
 20
4.8592463407
 30
0.0
 10
5.6427092524
 20
4.8590893347
 30
0.0
 10
5.6444685188
 20
4.858889238
 30
0.0
 10
5.6473567546
 20
4.8585452005
 30
0.0
 10
5.6516045155
 20
4.8580120562
 30
0.0
 10
5.6574109914
 20
4.8572531424
 30
0.0
 10
5.664087693
 20
4.8563545673
 30
0.0
 10
5.671518551
 20
4.8553319596
 30
0.0
 10
5.6767099775
 20
4.8546044374
 30
0.0
 10
5.6794106217
 20
4.8542230999
 30
0.0
  0
LINE
  5
582
100
AcDbEntity
  8
0
100
AcDbLine
 62
9
  6
CONTINUOUS
 10
5.6794106217
 20
4.8542230999
 11
5.6849452123
 21
4.8534376993
  0
LINE
  5
583
100
AcDbEntity
  8
0
100
AcDbLine
 62
9
  6
CONTINUOUS
 10
5.6849452123
 20
4.8534376993
 11
5.6857208739
 21
4.8533270275
  0
LINE
  5
584
100
AcDbEntity
  8
0
100
AcDbLine
 62
9
  6
CONTINUOUS
 10
7.5495376209
 20
4.8544585906
 11
7.5502229483
 21
4.8545577053
  0
SPLINE
  5
585
100
AcDbEntity
  8
0
100
AcDbSpline
 62
9
  6
CONTINUOUS
 70
0
 71
3
 72
20
 73
16
 74
0
 42
0.0000001
 43
0.0000001
 44
0.0000000001
 40
0.0
 40
0.0
 40
0.0
 40
0.0
 40
0.2086890032
 40
0.3986304043
 40
0.5668116599
 40
0.7106175826
 40
0.7725682524
 40
0.8275006162
 40
0.8752320521
 40
0.9155903726
 40
0.9484036421
 40
0.9735005025
 40
0.9907161406
 40
0.9963456758
 40
1.0
 40
1.0
 40
1.0
 40
1.0
 10
7.5502229483
 20
4.8545577053
 30
0.0
 10
7.5526946093
 20
4.8549150516
 30
0.0
 10
7.5574162226
 20
4.8555953413
 30
0.0
 10
7.5641310401
 20
4.8565545173
 30
0.0
 10
7.5700784855
 20
4.8573949266
 30
0.0
 10
7.5745105478
 20
4.858012482
 30
0.0
 10
7.5776012882
 20
4.8584361244
 30
0.0
 10
7.5795534508
 20
4.8587000643
 30
0.0
 10
7.5812500792
 20
4.8589254664
 30
0.0
 10
7.5826849038
 20
4.8591114577
 30
0.0
 10
7.5838517788
 20
4.8592576324
 30
0.0
 10
7.5847446006
 20
4.8593627038
 30
0.0
 10
7.5853151702
 20
4.8594238105
 30
0.0
 10
7.5856312352
 20
4.8594490937
 30
0.0
 10
7.5857422752
 20
4.8594549775
 30
0.0
 10
7.5857860059
 20
4.859454865
 30
0.0
  0
SPLINE
  5
586
100
AcDbEntity
  8
0
100
AcDbSpline
 62
9
  6
CONTINUOUS
 70
0
 71
3
 72
26
 73
22
 74
0
 42
0.0000001
 43
0.0000001
 44
0.0000000001
 40
0.0
 40
0.0
 40
0.0
 40
0.0
 40
0.1108302549
 40
0.2074622688
 40
0.2900633467
 40
0.3589734935
 40
0.4146545305
 40
0.4578291464
 40
0.4751327536
 40
0.4899030287
 40
0.5136581109
 40
0.5245627195
 40
0.5361889994
 40
0.5494815992
 40
0.5650968643
 40
0.6047670424
 40
0.6570944914
 40
0.7226799364
 40
0.8016980148
 40
0.8941605261
 40
1.0
 40
1.0
 40
1.0
 40
1.0
 10
5.9331297016
 20
4.8503852366
 30
0.0
 10
5.9335754045
 20
4.8504152615
 30
0.0
 10
5.9344091693
 20
4.8504804359
 30
0.0
 10
5.9355716495
 20
4.8506072218
 30
0.0
 10
5.9365611067
 20
4.8507552585
 30
0.0
 10
5.9373798328
 20
4.8509232431
 30
0.0
 10
5.938030272
 20
4.8511105199
 30
0.0
 10
5.9384642325
 20
4.851292121
 30
0.0
 10
5.9387217362
 20
4.851454645
 30
0.0
 10
5.9388929951
 20
4.8516000916
 30
0.0
 10
5.9390075469
 20
4.8517774306
 30
0.0
 10
5.9390176332
 20
4.8519674424
 30
0.0
 10
5.9389787415
 20
4.852108567
 30
0.0
 10
5.9388963931
 20
4.8522511613
 30
0.0
 10
5.9387154893
 20
4.8524616112
 30
0.0
 10
5.9383682329
 20
4.8527273117
 30
0.0
 10
5.9378153611
 20
4.8530410635
 30
0.0
 10
5.9370930453
 20
4.853372211
 30
0.0
 10
5.9362026478
 20
4.8537197032
 30
0.0
 10
5.9351451356
 20
4.8540825402
 30
0.0
 10
5.9343812598
 20
4.8543181507
 30
0.0
 10
5.9339721914
 20
4.8544391803
 30
0.0
  0
SPLINE
  5
587
100
AcDbEntity
  8
0
100
AcDbSpline
 62
9
  6
CONTINUOUS
 70
0
 71
3
 72
21
 73
17
 74
0
 42
0.0000001
 43
0.0000001
 44
0.0000000001
 40
0.0
 40
0.0
 40
0.0
 40
0.0
 40
0.0151305091
 40
0.0326420717
 40
0.0744104341
 40
0.1245124671
 40
0.1821579253
 40
0.2463192481
 40
0.3157617359
 40
0.4652712317
 40
0.6197417612
 40
0.7676033535
 40
0.83558062
 40
0.8977494735
 40
0.9527813118
 40
1.0
 40
1.0
 40
1.0
 40
1.0
 10
5.9339721914
 20
4.8544391803
 30
0.0
 10
5.9332589189
 20
4.8546502138
 30
0.0
 10
5.9317111235
 20
4.855075101
 30
0.0
 10
5.9281591658
 20
4.8559510305
 30
0.0
 10
5.9229001395
 20
4.8570782523
 30
0.0
 10
5.9156765124
 20
4.8584397944
 30
0.0
 10
5.9073425199
 20
4.8598455462
 30
0.0
 10
5.8980487478
 20
4.8612703224
 30
0.0
 10
5.8842656556
 20
4.8632072172
 30
0.0
 10
5.8660453488
 20
4.8654624775
 30
0.0
 10
5.8439522751
 20
4.8677798544
 30
0.0
 10
5.8258122148
 20
4.8693329464
 30
0.0
 10
5.812176385
 20
4.8702631913
 30
0.0
 10
5.8030860698
 20
4.8707617922
 30
0.0
 10
5.7950082433
 20
4.8710647179
 30
0.0
 10
5.7899815708
 20
4.8711479175
 30
0.0
 10
5.7876602402
 20
4.8711524897
 30
0.0
  0
LINE
  5
588
100
AcDbEntity
  8
0
100
AcDbLine
 62
9
  6
CONTINUOUS
 10
7.5941759783
 20
4.8708076737
 11
7.5957783934
 21
4.8710733043
  0
LINE
  5
589
100
AcDbEntity
  8
0
100
AcDbLine
 62
9
  6
CONTINUOUS
 10
7.5957783934
 20
4.8710733043
 11
7.5960248208
 21
4.8711391277
  0
SPLINE
  5
58A
100
AcDbEntity
  8
0
100
AcDbSpline
 62
9
  6
CONTINUOUS
 70
0
 71
3
 72
9
 73
5
 74
0
 42
0.0000001
 43
0.0000001
 44
0.0000000001
 40
0.0
 40
0.0
 40
0.0
 40
0.0
 40
0.2082936304
 40
1.0
 40
1.0
 40
1.0
 40
1.0
 10
7.5960021254
 20
4.8711501728
 30
0.0
 10
7.5959996847
 20
4.8711504696
 30
0.0
 10
7.5959879394
 20
4.8711516701
 30
0.0
 10
7.5959761366
 20
4.8711522067
 30
0.0
 10
7.5959667953
 20
4.8711524897
 30
0.0
  0
SPLINE
  5
58B
100
AcDbEntity
  8
0
100
AcDbSpline
 62
9
  6
CONTINUOUS
 70
0
 71
3
 72
31
 73
27
 74
0
 42
0.0000001
 43
0.0000001
 44
0.0000000001
 40
0.0
 40
0.0
 40
0.0
 40
0.0
 40
0.0251043365
 40
0.0472805219
 40
0.0665320932
 40
0.0828951429
 40
0.0964681971
 40
0.1074869655
 40
0.116431208
 40
0.1241942637
 40
0.1320991443
 40
0.1414184273
 40
0.152949822
 40
0.1671021725
 40
0.1840802413
 40
0.2039876553
 40
0.2268575116
 40
0.2526740656
 40
0.3129939399
 40
0.3845323005
 40
0.4665650929
 40
0.5582524723
 40
0.6586177572
 40
0.7665818221
 40
0.8808915455
 40
1.0
 40
1.0
 40
1.0
 40
1.0
 10
6.9273505754
 20
4.85910481
 30
0.0
 10
6.9279163089
 20
4.859279717
 30
0.0
 10
6.9289763962
 20
4.8596271962
 30
0.0
 10
6.9304448492
 20
4.8601826173
 30
0.0
 10
6.9316906625
 20
4.8607383966
 30
0.0
 10
6.9327115343
 20
4.861292968
 30
0.0
 10
6.9335068479
 20
4.8618463543
 30
0.0
 10
6.9340775438
 20
4.8624010371
 30
0.0
 10
6.9344245743
 20
4.8629683365
 30
0.0
 10
6.9345179287
 20
4.8635608752
 30
0.0
 10
6.9343299694
 20
4.8641388381
 30
0.0
 10
6.933897793
 20
4.864673662
 30
0.0
 10
6.9332437815
 20
4.8651844922
 30
0.0
 10
6.9323650175
 20
4.8656799542
 30
0.0
 10
6.9312602104
 20
4.8661617405
 30
0.0
 10
6.9299293225
 20
4.8666287032
 30
0.0
 10
6.9283748282
 20
4.8670796834
 30
0.0
 10
6.9258764652
 20
4.867689919
 30
0.0
 10
6.9222197512
 20
4.8683813375
 30
0.0
 10
6.9172238139
 20
4.8690920649
 30
0.0
 10
6.9114709844
 20
4.869711058
 30
0.0
 10
6.9050260743
 20
4.8702287472
 30
0.0
 10
6.8979607352
 20
4.870638496
 30
0.0
 10
6.8903557878
 20
4.8709350103
 30
0.0
 10
6.8823050148
 20
4.8711138201
 30
0.0
 10
6.8767991118
 20
4.8711526306
 30
0.0
 10
6.8739896131
 20
4.8711524897
 30
0.0
  0
SPLINE
  5
58C
100
AcDbEntity
  8
0
100
AcDbSpline
 62
9
  6
CONTINUOUS
 70
0
 71
3
 72
35
 73
31
 74
0
 42
0.0000001
 43
0.0000001
 44
0.0000000001
 40
0.0
 40
0.0
 40
0.0
 40
0.0
 40
0.0194360689
 40
0.0357837547
 40
0.0491226543
 40
0.0596264903
 40
0.0639332479
 40
0.0677130683
 40
0.0711002281
 40
0.0742836744
 40
0.0774931122
 40
0.0809572948
 40
0.084862045
 40
0.0893339032
 40
0.1002590002
 40
0.114095313
 40
0.1309686999
 40
0.1508989057
 40
0.1738487943
 40
0.1997586927
 40
0.2285491086
 40
0.26010692
 40
0.3310227782
 40
0.4113536334
 40
0.4996481545
 40
0.5942896934
 40
0.6935135396
 40
0.7954914549
 40
0.898336075
 40
1.0
 40
1.0
 40
1.0
 40
1.0
 10
6.4903875547
 20
4.8544888243
 30
0.0
 10
6.4910824143
 20
4.8546686935
 30
0.0
 10
6.492354425
 20
4.8550295167
 30
0.0
 10
6.4940644765
 20
4.8556416525
 30
0.0
 10
6.4954094448
 20
4.8562742251
 30
0.0
 10
6.4962835606
 20
4.8568515159
 30
0.0
 10
6.4967732169
 20
4.857336119
 30
0.0
 10
6.4970218833
 20
4.8576823336
 30
0.0
 10
6.4971743604
 20
4.8580369164
 30
0.0
 10
6.4972253874
 20
4.8583992645
 30
0.0
 10
6.4971716846
 20
4.8587640355
 30
0.0
 10
6.4970156508
 20
4.8591261042
 30
0.0
 10
6.4967616554
 20
4.8594849841
 30
0.0
 10
6.4962614478
 20
4.8599958738
 30
0.0
 10
6.4953711201
 20
4.8606193347
 30
0.0
 10
6.4940028517
 20
4.8613247925
 30
0.0
 10
6.4922683716
 20
4.8620295067
 30
0.0
 10
6.490174969
 20
4.8627302221
 30
0.0
 10
6.4877302847
 20
4.8634236047
 30
0.0
 10
6.4849445428
 20
4.864105792
 30
0.0
 10
6.4818293799
 20
4.8647731023
 30
0.0
 10
6.4770660179
 20
4.8656743507
 30
0.0
 10
6.4703952539
 20
4.8667216685
 30
0.0
 10
6.461617695
 20
4.8678285473
 30
0.0
 10
6.4519438115
 20
4.8688061978
 30
0.0
 10
6.4415561916
 20
4.869635314
 30
0.0
 10
6.430650661
 20
4.8703020707
 30
0.0
 10
6.4194324134
 20
4.8707899981
 30
0.0
 10
6.4081172081
 20
4.8710794903
 30
0.0
 10
6.4005647654
 20
4.8711482017
 30
0.0
 10
6.3968103802
 20
4.8711524897
 30
0.0
  0
SPLINE
  5
58D
100
AcDbEntity
  8
0
100
AcDbSpline
 62
9
  6
CONTINUOUS
 70
0
 71
3
 72
24
 73
20
 74
0
 42
0.0000001
 43
0.0000001
 44
0.0000000001
 40
0.0
 40
0.0
 40
0.0
 40
0.0
 40
0.0649281628
 40
0.1172146142
 40
0.1568379827
 40
0.1839506243
 40
0.1930557001
 40
0.1995956238
 40
0.2045729416
 40
0.2099828539
 40
0.2175067039
 40
0.2278583427
 40
0.2580142639
 40
0.3014724421
 40
0.3586161494
 40
0.429690799
 40
0.5148917227
 40
0.7283484305
 40
1.0
 40
1.0
 40
1.0
 40
1.0
 10
5.628319931
 20
4.8711524897
 30
0.0
 10
5.6282809856
 20
4.8711520495
 30
0.0
 10
5.6282106985
 20
4.8711504892
 30
0.0
 10
5.628116674
 20
4.8711452505
 30
0.0
 10
5.6280458219
 20
4.8711371737
 30
0.0
 10
5.6280008818
 20
4.8711279938
 30
0.0
 10
5.6279773513
 20
4.8711176962
 30
0.0
 10
5.6279671605
 20
4.8711101579
 30
0.0
 10
5.6279631821
 20
4.8710999345
 30
0.0
 10
5.6279676589
 20
4.8710893751
 30
0.0
 10
5.6279776755
 20
4.8710795497
 30
0.0
 10
5.6280016249
 20
4.8710633187
 30
0.0
 10
5.6280477653
 20
4.8710425868
 30
0.0
 10
5.6281216037
 20
4.8710161773
 30
0.0
 10
5.6282202953
 20
4.8709865699
 30
0.0
 10
5.6283440018
 20
4.870953601
 30
0.0
 10
5.6285595487
 20
4.8709012795
 30
0.0
 10
5.6288939437
 20
4.8708288715
 30
0.0
 10
5.6291794205
 20
4.870772415
 30
0.0
 10
5.6293394486
 20
4.8707416775
 30
0.0
  0
LINE
  5
58E
100
AcDbEntity
  8
0
100
AcDbLine
 62
9
  6
CONTINUOUS
 10
7.5521697963
 20
4.8659688973
 11
7.5569462375
 21
4.8665608547
  0
LINE
  5
58F
100
AcDbEntity
  8
0
100
AcDbLine
 62
9
  6
CONTINUOUS
 10
7.5846361938
 20
4.8699236068
 11
7.5959667953
 21
4.8711524897
  0
LINE
  5
590
100
AcDbEntity
  8
0
100
AcDbLine
 62
9
  6
CONTINUOUS
 10
5.6839448218
 20
4.864963051
 11
5.6789391441
 21
4.8655740029
  0
LINE
  5
591
100
AcDbEntity
  8
0
100
AcDbLine
 62
9
  6
CONTINUOUS
 10
5.6789391441
 20
4.8655740029
 11
5.6399497796
 21
4.8701021678
  0
LINE
  5
592
100
AcDbEntity
  8
0
100
AcDbLine
 62
9
  6
CONTINUOUS
 10
5.6399497796
 20
4.8701021678
 11
5.628319931
 21
4.8711524897
  0
SPLINE
  5
593
100
AcDbEntity
  8
0
100
AcDbSpline
 62
9
  6
CONTINUOUS
 70
0
 71
3
 72
17
 73
13
 74
0
 42
0.0000001
 43
0.0000001
 44
0.0000000001
 40
0.0
 40
0.0
 40
0.0
 40
0.0
 40
0.2243992094
 40
0.4195580169
 40
0.5854234659
 40
0.7220527813
 40
0.8297160433
 40
0.8729228416
 40
0.9092960993
 40
0.9392200332
 40
0.9633886861
 40
1.0
 40
1.0
 40
1.0
 40
1.0
 10
7.546512784
 20
4.8594556247
 30
0.0
 10
7.5467395349
 20
4.859455628
 30
0.0
 10
7.5471635126
 20
4.8594519672
 30
0.0
 10
7.5477548179
 20
4.8594327097
 30
0.0
 10
7.5482567905
 20
4.859400366
 30
0.0
 10
7.5486688773
 20
4.8593550051
 30
0.0
 10
7.5489553989
 20
4.8593041624
 30
0.0
 10
7.5491379482
 20
4.8592537701
 30
0.0
 10
7.5492419831
 20
4.8592157533
 30
0.0
 10
7.5493237755
 20
4.8591737736
 30
0.0
 10
7.5493975085
 20
4.8591198133
 30
0.0
 10
7.5494308263
 20
4.8590594041
 30
0.0
 10
7.5494309189
 20
4.8590224092
 30
0.0
  0
SPLINE
  5
594
100
AcDbEntity
  8
0
100
AcDbSpline
 62
9
  6
CONTINUOUS
 70
0
 71
3
 72
26
 73
22
 74
0
 42
0.0000001
 43
0.0000001
 44
0.0000000001
 40
0.0
 40
0.0
 40
0.0
 40
0.0
 40
0.1173262232
 40
0.2192457487
 40
0.3056693701
 40
0.3765450493
 40
0.4319006185
 40
0.4538261008
 40
0.4719985288
 40
0.4865625813
 40
0.4978358952
 40
0.5065401411
 40
0.5140623953
 40
0.5323724589
 40
0.5617092272
 40
0.6037593896
 40
0.6585613703
 40
0.7257445116
 40
0.8048832813
 40
0.8961502418
 40
1.0
 40
1.0
 40
1.0
 40
1.0
 10
7.5562788203
 20
4.8711524897
 30
0.0
 10
7.5565481721
 20
4.871154601
 30
0.0
 10
7.5570515531
 20
4.8711549142
 30
0.0
 10
7.5577532335
 20
4.8711414007
 30
0.0
 10
7.5583478537
 20
4.8711142038
 30
0.0
 10
7.5588344591
 20
4.8710734425
 30
0.0
 10
7.5591717251
 20
4.8710261807
 30
0.0
 10
7.5593857269
 20
4.8709783221
 30
0.0
 10
7.5595059777
 20
4.870941959
 30
0.0
 10
7.5595992904
 20
4.8709022986
 30
0.0
 10
7.5596661839
 20
4.8708588373
 30
0.0
 10
7.5597082597
 20
4.8708093817
 30
0.0
 10
7.5597235877
 20
4.8707272699
 30
0.0
 10
7.5596418411
 20
4.8706142094
 30
0.0
 10
7.5594740459
 20
4.8704998211
 30
0.0
 10
7.5592142967
 20
4.870366787
 30
0.0
 10
7.5588659784
 20
4.8702246174
 30
0.0
 10
7.5584304207
 20
4.8700703442
 30
0.0
 10
7.557910344
 20
4.8699058622
 30
0.0
 10
7.5573052841
 20
4.8697313714
 30
0.0
 10
7.5568723848
 20
4.8696161262
 30
0.0
 10
7.5566415166
 20
4.8695565929
 30
0.0
  0
SPLINE
  5
595
100
AcDbEntity
  8
0
100
AcDbSpline
 62
9
  6
CONTINUOUS
 70
0
 71
3
 72
13
 73
9
 74
0
 42
0.0000001
 43
0.0000001
 44
0.0000000001
 40
0.0
 40
0.0
 40
0.0
 40
0.0
 40
0.2772334368
 40
0.5231622427
 40
0.6332658192
 40
0.7476690284
 40
0.870382421
 40
1.0
 40
1.0
 40
1.0
 40
1.0
 10
7.546512784
 20
4.8594556247
 30
0.0
 10
7.5465120779
 20
4.8609851343
 30
0.0
 10
7.5470602037
 20
4.863901743
 30
0.0
 10
7.5489152679
 20
4.8669460049
 30
0.0
 10
7.5507828897
 20
4.8687615464
 30
0.0
 10
7.5523627561
 20
4.8698613836
 30
0.0
 10
7.5542088702
 20
4.8707152375
 30
0.0
 10
7.5555709238
 20
4.8710513149
 30
0.0
 10
7.5562786534
 20
4.8711537633
 30
0.0
  0
SPLINE
  5
596
100
AcDbEntity
  8
0
100
AcDbSpline
 62
9
  6
CONTINUOUS
 70
0
 71
3
 72
13
 73
9
 74
0
 42
0.0000001
 43
0.0000001
 44
0.0000000001
 40
0.0
 40
0.0
 40
0.0
 40
0.0
 40
0.2937849657
 40
0.5732722404
 40
0.7002907037
 40
0.8153179242
 40
0.9160300785
 40
1.0
 40
1.0
 40
1.0
 40
1.0
 10
7.4674779278
 20
4.8624339589
 30
0.0
 10
7.4753735907
 20
4.8634298176
 30
0.0
 10
7.4907904662
 20
4.8652959484
 30
0.0
 10
7.5096454225
 20
4.8673850181
 30
0.0
 10
7.523701679
 20
4.868803866
 30
0.0
 10
7.5329463321
 20
4.8696678944
 30
0.0
 10
7.5410365107
 20
4.8703489814
 30
0.0
 10
7.5460267536
 20
4.8707068282
 30
0.0
 10
7.5482972333
 20
4.8708441071
 30
0.0
  0
LINE
  5
597
100
AcDbEntity
  8
0
100
AcDbLine
 62
9
  6
CONTINUOUS
 10
7.5482972333
 20
4.8708441071
 11
7.5562788203
 21
4.8711524897
  0
LINE
  5
598
100
AcDbEntity
  8
0
100
AcDbLine
 62
9
  6
CONTINUOUS
 10
5.7795817798
 20
4.861468693
 11
5.7785314372
 21
4.8616061957
  0
SPLINE
  5
599
100
AcDbEntity
  8
0
100
AcDbSpline
 62
9
  6
CONTINUOUS
 70
0
 71
3
 72
13
 73
9
 74
0
 42
0.0000001
 43
0.0000001
 44
0.0000000001
 40
0.0
 40
0.0
 40
0.0
 40
0.0
 40
0.2820485561
 40
0.5593768917
 40
0.688180426
 40
0.8063325132
 40
0.9111871289
 40
1.0
 40
1.0
 40
1.0
 40
1.0
 10
5.7785314372
 20
4.8616061957
 30
0.0
 10
5.7702240473
 20
4.8626912682
 30
0.0
 10
5.7537337384
 20
4.8647326916
 30
0.0
 10
5.7334172535
 20
4.866997281
 30
0.0
 10
5.7179216745
 20
4.8685526072
 30
0.0
 10
5.707515215
 20
4.86950898
 30
0.0
 10
5.6982836458
 20
4.8702641844
 30
0.0
 10
5.6925441
 20
4.8706578831
 30
0.0
 10
5.6899103124
 20
4.8708085298
 30
0.0
  0
LINE
  5
59A
100
AcDbEntity
  8
0
100
AcDbLine
 62
9
  6
CONTINUOUS
 10
5.6899103124
 20
4.8708085298
 11
5.6803658226
 21
4.8711524897
  0
SPLINE
  5
59B
100
AcDbEntity
  8
0
100
AcDbSpline
 62
9
  6
CONTINUOUS
 70
0
 71
3
 72
35
 73
31
 74
0
 42
0.0000001
 43
0.0000001
 44
0.0000000001
 40
0.0
 40
0.0
 40
0.0
 40
0.0
 40
0.2163991526
 40
0.3209728346
 40
0.4209302247
 40
0.5148015121
 40
0.6012019325
 40
0.6788422886
 40
0.7466557883
 40
0.7765796209
 40
0.8037305548
 40
0.8280391628
 40
0.8494466703
 40
0.8679235659
 40
0.8834987335
 40
0.8962626834
 40
0.9064261249
 40
0.9106788934
 40
0.9145029703
 40
0.9180427509
 40
0.921478532
 40
0.925006473
 40
0.9288083945
 40
0.9330307872
 40
0.937781335
 40
0.9431348896
 40
0.9491397419
 40
0.9632120887
 40
0.980147752
 40
1.0
 40
1.0
 40
1.0
 40
1.0
 10
6.6361671174
 20
4.8711524898
 30
0.0
 10
6.6293677015
 20
4.8711515164
 30
0.0
 10
6.6192814155
 20
4.8709961065
 30
0.0
 10
6.6060657389
 20
4.8704639182
 30
0.0
 10
6.5967048887
 20
4.8699207856
 30
0.0
 10
6.5879257875
 20
4.8692380321
 30
0.0
 10
6.5798616606
 20
4.8684286864
 30
0.0
 10
6.5726345378
 20
4.8675045625
 30
0.0
 10
6.5671934763
 20
4.866621855
 30
0.0
 10
6.5633448425
 20
4.8658539992
 30
0.0
 10
6.5608517482
 20
4.8652835201
 30
0.0
 10
6.5586381035
 20
4.8646968445
 30
0.0
 10
6.556711712
 20
4.8640962936
 30
0.0
 10
6.5550790537
 20
4.8634840788
 30
0.0
 10
6.5537431799
 20
4.8628627163
 30
0.0
 10
6.5527063998
 20
4.8622346327
 30
0.0
 10
6.5520527133
 20
4.861672261
 30
0.0
 10
6.5517078825
 20
4.8612115148
 30
0.0
 10
6.5515433419
 20
4.8608830692
 30
0.0
 10
6.5514591755
 20
4.8605511932
 30
0.0
 10
6.5514578073
 20
4.8602177761
 30
0.0
 10
6.5515392782
 20
4.859886289
 30
0.0
 10
6.5517012698
 20
4.8595587962
 30
0.0
 10
6.5519416137
 20
4.8592351956
 30
0.0
 10
6.5522594084
 20
4.8589147242
 30
0.0
 10
6.5526543424
 20
4.8585968327
 30
0.0
 10
6.5533192982
 20
4.8581523126
 30
0.0
 10
6.5543533449
 20
4.8576135232
 30
0.0
 10
6.5558329571
 20
4.8570066181
 30
0.0
 10
6.5569297937
 20
4.8566392966
 30
0.0
 10
6.55752568
 20
4.8564548764
 30
0.0
  0
LINE
  5
59C
100
AcDbEntity
  8
0
100
AcDbLine
 62
9
  6
CONTINUOUS
 10
6.55752568
 20
4.8564548764
 11
6.559693963
 21
4.8558422606
  0
SPLINE
  5
59D
100
AcDbEntity
  8
0
100
AcDbSpline
 62
9
  6
CONTINUOUS
 70
0
 71
3
 72
31
 73
27
 74
0
 42
0.0000001
 43
0.0000001
 44
0.0000000001
 40
0.0
 40
0.0
 40
0.0
 40
0.0
 40
0.0220158798
 40
0.0411027714
 40
0.0572537421
 40
0.07052027
 40
0.0810916525
 40
0.0894584862
 40
0.0931193026
 40
0.0966460983
 40
0.1002364413
 40
0.1040779308
 40
0.1083240842
 40
0.113086904
 40
0.1244356719
 40
0.1385092751
 40
0.1554747
 40
0.1753991156
 40
0.1982812584
 40
0.2527782565
 40
0.3185033252
 40
0.3946033713
 40
0.4800505882
 40
0.5735669377
 40
0.7793798431
 40
1.0
 40
1.0
 40
1.0
 40
1.0
 10
6.7094044463
 20
4.856641602
 30
0.0
 10
6.7100460039
 20
4.8568270728
 30
0.0
 10
6.711237252
 20
4.8571969238
 30
0.0
 10
6.712866386
 20
4.8578019952
 30
0.0
 10
6.7142056701
 20
4.8584153293
 30
0.0
 10
6.7152516486
 20
4.8590368085
 30
0.0
 10
6.7160044932
 20
4.8596675893
 30
0.0
 10
6.7164047988
 20
4.8602431158
 30
0.0
 10
6.7165369606
 20
4.8607003425
 30
0.0
 10
6.7165506453
 20
4.8610302768
 30
0.0
 10
6.7164828717
 20
4.8613588721
 30
0.0
 10
6.7163356055
 20
4.8616837306
 30
0.0
 10
6.7161113438
 20
4.8620047029
 30
0.0
 10
6.7156861303
 20
4.8624548699
 30
0.0
 10
6.7149443079
 20
4.8630019161
 30
0.0
 10
6.7138115121
 20
4.8636144037
 30
0.0
 10
6.712386048
 20
4.8642174801
 30
0.0
 10
6.7106711059
 20
4.8648088955
 30
0.0
 10
6.7078342792
 20
4.8656275621
 30
0.0
 10
6.7035941241
 20
4.8665737395
 30
0.0
 10
6.6977223595
 20
4.8675756492
 30
0.0
 10
6.6908867181
 20
4.8684815815
 30
0.0
 10
6.6831895421
 20
4.8692746965
 30
0.0
 10
6.6715534371
 20
4.8701974502
 30
0.0
 10
6.6557956358
 20
4.8709587039
 30
0.0
 10
6.6428593975
 20
4.8711449716
 30
0.0
 10
6.6361671174
 20
4.8711524898
 30
0.0
  0
SPLINE
  5
59E
100
AcDbEntity
  8
0
100
AcDbSpline
 62
9
  6
CONTINUOUS
 70
0
 71
3
 72
19
 73
15
 74
0
 42
0.0000001
 43
0.0000001
 44
0.0000000001
 40
0.0
 40
0.0
 40
0.0
 40
0.0
 40
0.2217949457
 40
0.4159815496
 40
0.5820335841
 40
0.7195215003
 40
0.7774814993
 40
0.8282496738
 40
0.8718888456
 40
0.9085947542
 40
0.9387389611
 40
0.9629930767
 40
0.9826377304
 40
1.0
 40
1.0
 40
1.0
 40
1.0
 10
7.4516183575
 20
4.8594558405
 30
0.0
 10
7.4523712394
 20
4.859455882
 30
0.0
 10
7.4537833471
 20
4.859443081
 30
0.0
 10
7.4557582286
 20
4.8593770208
 30
0.0
 10
7.4574444168
 20
4.8592661907
 30
0.0
 10
7.4586649149
 20
4.859131778
 30
0.0
 10
7.4594897398
 20
4.858995615
 30
0.0
 10
7.4599959714
 20
4.8588885373
 30
0.0
 10
7.4604255277
 20
4.8587707632
 30
0.0
 10
7.4607785394
 20
4.8586424549
 30
0.0
 10
7.4610559526
 20
4.8585035343
 30
0.0
 10
7.4612592949
 20
4.8583527598
 30
0.0
 10
7.4613892504
 20
4.8581852061
 30
0.0
 10
7.4614196541
 20
4.858058249
 30
0.0
 10
7.461419786
 20
4.857999313
 30
0.0
  0
SPLINE
  5
59F
100
AcDbEntity
  8
0
100
AcDbSpline
 62
9
  6
CONTINUOUS
 70
0
 71
3
 72
13
 73
9
 74
0
 42
0.0000001
 43
0.0000001
 44
0.0000000001
 40
0.0
 40
0.0
 40
0.0
 40
0.0
 40
0.2887839439
 40
0.5390200849
 40
0.6482498958
 40
0.7597934563
 40
0.8774324775
 40
1.0
 40
1.0
 40
1.0
 40
1.0
 10
7.4516183604
 20
4.85945572
 30
0.0
 10
7.451617725
 20
4.8609800861
 30
0.0
 10
7.4520955268
 20
4.8638504464
 30
0.0
 10
7.4537530099
 20
4.8669163576
 30
0.0
 10
7.4554442388
 20
4.8687513313
 30
0.0
 10
7.456862017
 20
4.8698530751
 30
0.0
 10
7.4585214619
 20
4.8707107057
 30
0.0
 10
7.4597551887
 20
4.8710510545
 30
0.0
 10
7.4603939312
 20
4.8711539756
 30
0.0
  0
LINE
  5
5A0
100
AcDbEntity
  8
0
100
AcDbLine
 62
7
  6
CONTINUOUS
 10
4.9601226312
 20
4.9663758687
 11
4.9602092223
 21
4.9450017806
  0
SPLINE
  5
5A1
100
AcDbEntity
  8
0
100
AcDbSpline
 62
7
  6
CONTINUOUS
 70
0
 71
3
 72
11
 73
7
 74
0
 42
0.0000001
 43
0.0000001
 44
0.0000000001
 40
0.0
 40
0.0
 40
0.0
 40
0.0
 40
0.2519148709
 40
0.502224629
 40
0.7514269423
 40
1.0
 40
1.0
 40
1.0
 40
1.0
 10
4.8138604661
 20
4.750182067
 30
0.0
 10
4.8277906614
 20
4.7434652311
 30
0.0
 10
4.8563139979
 20
4.7315693116
 30
0.0
 10
4.9006876566
 20
4.7186230448
 30
0.0
 10
4.9460361329
 20
4.7107914624
 30
0.0
 10
4.9766228506
 20
4.7090431891
 30
0.0
 10
4.9918826972
 20
4.7090447519
 30
0.0
  0
SPLINE
  5
5A2
100
AcDbEntity
  8
0
100
AcDbSpline
 62
7
  6
CONTINUOUS
 70
0
 71
3
 72
17
 73
13
 74
0
 42
0.0000001
 43
0.0000001
 44
0.0000000001
 40
0.0
 40
0.0
 40
0.0
 40
0.0
 40
0.1295673961
 40
0.2575659547
 40
0.3840706142
 40
0.4468167567
 40
0.5092308834
 40
0.633096455
 40
0.755966881
 40
0.8171583919
 40
0.8782232199
 40
1.0
 40
1.0
 40
1.0
 40
1.0
 10
5.3621178992
 20
4.9113365284
 30
0.0
 10
5.3517209378
 20
4.8959057367
 30
0.0
 10
5.3293574856
 20
4.8663306579
 30
0.0
 10
5.2912776127
 20
4.8262765788
 30
0.0
 10
5.2561774988
 20
4.7970490119
 30
0.0
 10
5.226422265
 20
4.7765025178
 30
0.0
 10
5.1957959332
 20
4.758001583
 30
0.0
 10
5.1557371549
 20
4.7385819876
 30
0.0
 10
5.1137067241
 20
4.7244324302
 30
0.0
 10
5.0793950349
 20
4.7164660926
 30
0.0
 10
5.0447986088
 20
4.7107716429
 30
0.0
 10
5.01849997
 20
4.7090434034
 30
0.0
 10
5.0010121314
 20
4.7090448074
 30
0.0
  0
SPLINE
  5
5A3
100
AcDbEntity
  8
0
100
AcDbSpline
 62
9
  6
CONTINUOUS
 70
0
 71
3
 72
23
 73
19
 74
0
 42
0.0000001
 43
0.0000001
 44
0.0000000001
 40
0.0
 40
0.0
 40
0.0
 40
0.0
 40
0.0592867691
 40
0.1200497502
 40
0.1821463985
 40
0.2455126867
 40
0.3100060114
 40
0.3753219279
 40
0.4410880736
 40
0.5069039423
 40
0.5723650514
 40
0.6370982605
 40
0.700785853
 40
0.7631978061
 40
0.8242147128
 40
0.8839152819
 40
0.9424777003
 40
1.0
 40
1.0
 40
1.0
 40
1.0
 10
4.7973716088
 20
4.8159981904
 30
0.0
 10
4.7944063156
 20
4.8175673657
 30
0.0
 10
4.7886715705
 20
4.8212791316
 30
0.0
 10
4.7810101573
 20
4.8282366789
 30
0.0
 10
4.7743977946
 20
4.8364966053
 30
0.0
 10
4.7689890255
 20
4.8458306218
 30
0.0
 10
4.7649212128
 20
4.8560165568
 30
0.0
 10
4.7622740211
 20
4.8667989788
 30
0.0
 10
4.7611326686
 20
4.8779173608
 30
0.0
 10
4.7615046619
 20
4.8890960164
 30
0.0
 10
4.7633988434
 20
4.9000605411
 30
0.0
 10
4.7667525543
 20
4.9105451185
 30
0.0
 10
4.7715048311
 20
4.9202846348
 30
0.0
 10
4.7775211527
 20
4.9290472813
 30
0.0
 10
4.7846737476
 20
4.9366059513
 30
0.0
 10
4.7927840604
 20
4.9427802131
 30
0.0
 10
4.8016527872
 20
4.947388493
 30
0.0
 10
4.8079588503
 20
4.9493704171
 30
0.0
 10
4.8111406467
 20
4.9500570513
 30
0.0
  0
SPLINE
  5
5A4
100
AcDbEntity
  8
0
100
AcDbSpline
 62
9
  6
CONTINUOUS
 70
0
 71
3
 72
11
 73
7
 74
0
 42
0.0000001
 43
0.0000001
 44
0.0000000001
 40
0.0
 40
0.0
 40
0.0
 40
0.0
 40
0.2498664488
 40
0.4992234679
 40
0.7489731127
 40
1.0
 40
1.0
 40
1.0
 40
1.0
 10
4.8111406467
 20
4.9500570513
 30
0.0
 10
4.8233999781
 20
4.9527029752
 30
0.0
 10
4.8482445073
 20
4.9564939091
 30
0.0
 10
4.8859159399
 20
4.9575471517
 30
0.0
 10
4.9234868228
 20
4.9539352356
 30
0.0
 10
4.9480960212
 20
4.9484697589
 30
0.0
 10
4.9602092223
 20
4.9450017806
 30
0.0
  0
SPLINE
  5
5A5
100
AcDbEntity
  8
0
100
AcDbSpline
 62
9
  6
CONTINUOUS
 70
0
 71
3
 72
17
 73
13
 74
0
 42
0.0000001
 43
0.0000001
 44
0.0000000001
 40
0.0
 40
0.0
 40
0.0
 40
0.0
 40
0.1315774512
 40
0.2609880766
 40
0.3882697624
 40
0.4511659546
 40
0.5135727015
 40
0.6369805223
 40
0.7588776753
 40
0.8194387974
 40
0.8798023257
 40
1.0
 40
1.0
 40
1.0
 40
1.0
 10
5.3568564336
 20
4.9144258016
 30
0.0
 10
5.346634249
 20
4.8987239745
 30
0.0
 10
5.3246365409
 20
4.8686565502
 30
0.0
 10
5.2870801736
 20
4.8279274826
 30
0.0
 10
5.2524403174
 20
4.7982306302
 30
0.0
 10
5.2231021399
 20
4.7773903884
 30
0.0
 10
5.1930045319
 20
4.7586886681
 30
0.0
 10
5.1536863648
 20
4.7390706511
 30
0.0
 10
5.1124167495
 20
4.7247460972
 30
0.0
 10
5.0787714615
 20
4.7166737258
 30
0.0
 10
5.0449096598
 20
4.7108885192
 30
0.0
 10
5.0191610366
 20
4.7090888383
 30
0.0
 10
5.0020454527
 20
4.7090446449
 30
0.0
  0
SPLINE
  5
5A6
100
AcDbEntity
  8
0
100
AcDbSpline
 62
9
  6
CONTINUOUS
 70
0
 71
3
 72
17
 73
13
 74
0
 42
0.0000001
 43
0.0000001
 44
0.0000000001
 40
0.0
 40
0.0
 40
0.0
 40
0.0
 40
0.0400731604
 40
0.0819175301
 40
0.1262091254
 40
0.1734779407
 40
0.2781714024
 40
0.3973810873
 40
0.5308766456
 40
0.6773812077
 40
0.8348507466
 40
1.0
 40
1.0
 40
1.0
 40
1.0
 10
4.7973882208
 20
4.7588294356
 30
0.0
 10
4.7967584714
 20
4.7593301814
 30
0.0
 10
4.7955575569
 20
4.7604667293
 30
0.0
 10
4.794007233
 20
4.7624821842
 30
0.0
 10
4.7926840724
 20
4.7648202217
 30
0.0
 10
4.7911820846
 20
4.7684722437
 30
0.0
 10
4.7899716923
 20
4.7738186389
 30
0.0
 10
4.7895329563
 20
4.7810026668
 30
0.0
 10
4.79007378
 20
4.7890179
 30
0.0
 10
4.7915730933
 20
4.797685691
 30
0.0
 10
4.7940035271
 20
4.8067964109
 30
0.0
 10
4.7961570914
 20
4.8129128639
 30
0.0
 10
4.7973711247
 20
4.8159984013
 30
0.0
  0
LINE
  5
5A7
100
AcDbEntity
  8
0
100
AcDbLine
 62
7
  6
CONTINUOUS
 10
4.9601226316
 20
4.9663758687
 11
4.9602092239
 21
4.9450013832
  0
SPLINE
  5
5A8
100
AcDbEntity
  8
0
100
AcDbSpline
 62
7
  6
CONTINUOUS
 70
0
 71
3
 72
11
 73
7
 74
0
 42
0.0000001
 43
0.0000001
 44
0.0000000001
 40
0.0
 40
0.0
 40
0.0
 40
0.0
 40
0.2519148717
 40
0.5022246294
 40
0.7514269422
 40
1.0
 40
1.0
 40
1.0
 40
1.0
 10
4.8138604745
 20
4.7501820868
 30
0.0
 10
4.8277906819
 20
4.7434652441
 30
0.0
 10
4.8563140443
 20
4.7315693139
 30
0.0
 10
4.9006877447
 20
4.7186230407
 30
0.0
 10
4.9460362639
 20
4.710791462
 30
0.0
 10
4.9766230099
 20
4.7090431982
 30
0.0
 10
4.9918828704
 20
4.7090447675
 30
0.0
  0
SPLINE
  5
5A9
100
AcDbEntity
  8
0
100
AcDbSpline
 62
7
  6
CONTINUOUS
 70
0
 71
3
 72
17
 73
13
 74
0
 42
0.0000001
 43
0.0000001
 44
0.0000000001
 40
0.0
 40
0.0
 40
0.0
 40
0.0
 40
0.1295673948
 40
0.2575659526
 40
0.3840706121
 40
0.4468167546
 40
0.5092308816
 40
0.6330964538
 40
0.7559668804
 40
0.8171583915
 40
0.8782232196
 40
1.0
 40
1.0
 40
1.0
 40
1.0
 10
5.3621178831
 20
4.9113365389
 30
0.0
 10
5.3517209265
 20
4.8959057531
 30
0.0
 10
5.329357485
 20
4.8663306848
 30
0.0
 10
5.2912776311
 20
4.8262766183
 30
0.0
 10
5.2561775348
 20
4.7970490585
 30
0.0
 10
5.226422316
 20
4.7765025678
 30
0.0
 10
5.1957959996
 20
4.7580016347
 30
0.0
 10
5.155737241
 20
4.7385820383
 30
0.0
 10
5.1137068303
 20
4.7244324757
 30
0.0
 10
5.0793951569
 20
4.7164661312
 30
0.0
 10
5.0447987461
 20
4.7107716729
 30
0.0
 10
5.0185001182
 20
4.7090434251
 30
0.0
 10
5.0010122865
 20
4.7090448226
 30
0.0
  0
SPLINE
  5
5AA
100
AcDbEntity
  8
0
100
AcDbSpline
 62
7
  6
CONTINUOUS
 70
0
 71
3
 72
28
 73
24
 74
0
 42
0.0000001
 43
0.0000001
 44
0.0000000001
 40
0.0
 40
0.0
 40
0.0
 40
0.0
 40
0.061441365
 40
0.0922519735
 40
0.1230999276
 40
0.1849046455
 40
0.2469758638
 40
0.2781521453
 40
0.3094071143
 40
0.3721119328
 40
0.4351085529
 40
0.4667163245
 40
0.4983668137
 40
0.5616984789
 40
0.6250182303
 40
0.6566551472
 40
0.6882445341
 40
0.7511956817
 40
0.8138419968
 40
0.8761646858
 40
0.9072409619
 40
0.9382565034
 40
1.0
 40
1.0
 40
1.0
 40
1.0
 10
4.830486728
 20
5.0160649198
 30
0.0
 10
4.8238172527
 20
5.014625717
 30
0.0
 10
4.8139629072
 20
5.011601236
 30
0.0
 10
4.8014851325
 20
5.0059907551
 30
0.0
 10
4.7894784652
 20
4.9993413882
 30
0.0
 10
4.7755142584
 20
4.9891935588
 30
0.0
 10
4.7633263784
 20
4.9769245693
 30
0.0
 10
4.7547747162
 20
4.9660459095
 30
0.0
 10
4.7470415733
 20
4.9544857526
 30
0.0
 10
4.7390187071
 20
4.9389344774
 30
0.0
 10
4.7333527794
 20
4.9223408591
 30
0.0
 10
4.7302765335
 20
4.9086514033
 30
0.0
 10
4.7281796597
 20
4.8947403102
 30
0.0
 10
4.7274297378
 20
4.8771141426
 30
0.0
 10
4.7291755922
 20
4.8595600825
 30
0.0
 10
4.732056765
 20
4.845794955
 30
0.0
 10
4.7359019258
 20
4.8323103988
 30
0.0
 10
4.7425058681
 20
4.8160793526
 30
0.0
 10
4.7531602383
 20
4.7980495371
 30
0.0
 10
4.764177493
 20
4.7845774591
 30
0.0
 10
4.7741217283
 20
4.7749670495
 30
0.0
 10
4.7847444562
 20
4.7662181701
 30
0.0
 10
4.7934696071
 20
4.7606321128
 30
0.0
 10
4.7995299155
 20
4.757425115
 30
0.0
  0
SPLINE
  5
5AB
100
AcDbEntity
  8
0
100
AcDbSpline
 62
9
  6
CONTINUOUS
 70
0
 71
3
 72
21
 73
17
 74
0
 42
0.0000001
 43
0.0000001
 44
0.0000000001
 40
0.0
 40
0.0
 40
0.0
 40
0.0
 40
0.1308720875
 40
0.2588216463
 40
0.3218526328
 40
0.3842989296
 40
0.446245609
 40
0.5077923342
 40
0.5690511521
 40
0.6301417166
 40
0.6911866409
 40
0.7523074112
 40
0.8136362831
 40
0.8753080037
 40
0.9374199999
 40
1.0
 40
1.0
 40
1.0
 40
1.0
 10
5.2424858215
 20
4.920590566
 30
0.0
 10
5.229078509
 20
4.9035078468
 30
0.0
 10
5.19992217
 20
4.8716961288
 30
0.0
 10
5.1577500096
 20
4.8385101458
 30
0.0
 10
5.1216277018
 20
4.8168934599
 30
0.0
 10
5.0936270558
 20
4.8032675374
 30
0.0
 10
5.0647710018
 20
4.7922347659
 30
0.0
 10
5.0352344342
 20
4.7838730222
 30
0.0
 10
5.0052052455
 20
4.7782244585
 30
0.0
 10
4.9748692738
 20
4.7753377579
 30
0.0
 10
4.9444195275
 20
4.7752195805
 30
0.0
 10
4.914045911
 20
4.7778762558
 30
0.0
 10
4.8839359648
 20
4.7832908679
 30
0.0
 10
4.8542752155
 20
4.7914312276
 30
0.0
 10
4.8252629914
 20
4.8022439397
 30
0.0
 10
4.8065497529
 20
4.811141415
 30
0.0
 10
4.7973715859
 20
4.8159982043
 30
0.0
  0
SPLINE
  5
5AC
100
AcDbEntity
  8
0
100
AcDbSpline
 62
9
  6
CONTINUOUS
 70
0
 71
3
 72
23
 73
19
 74
0
 42
0.0000001
 43
0.0000001
 44
0.0000000001
 40
0.0
 40
0.0
 40
0.0
 40
0.0
 40
0.0592867204
 40
0.1200496403
 40
0.1821462129
 40
0.2455124105
 40
0.3100056409
 40
0.3753214722
 40
0.4410875493
 40
0.5069033804
 40
0.5723644901
 40
0.637097737
 40
0.7007854022
 40
0.7631974802
 40
0.8242145378
 40
0.8839152324
 40
0.942477732
 40
1.0
 40
1.0
 40
1.0
 40
1.0
 10
4.7973715859
 20
4.8159982043
 30
0.0
 10
4.7944063236
 20
4.8175673617
 30
0.0
 10
4.7886716387
 20
4.821279085
 30
0.0
 10
4.7810102991
 20
4.8282365448
 30
0.0
 10
4.7743979818
 20
4.8364963563
 30
0.0
 10
4.7689892269
 20
4.8458302405
 30
0.0
 10
4.7649213959
 20
4.8560160347
 30
0.0
 10
4.762274151
 20
4.866798316
 30
0.0
 10
4.76113271
 20
4.8779165668
 30
0.0
 10
4.7615045812
 20
4.8890951096
 30
0.0
 10
4.7633986095
 20
4.9000595488
 30
0.0
 10
4.7667521417
 20
4.9105440754
 30
0.0
 10
4.7715042231
 20
4.9202835821
 30
0.0
 10
4.7775203335
 20
4.9290462683
 30
0.0
 10
4.7846727028
 20
4.9366050401
 30
0.0
 10
4.7927828058
 20
4.9427794455
 30
0.0
 10
4.8016513573
 20
4.9473878779
 30
0.0
 10
4.8079573521
 20
4.9493698416
 30
0.0
 10
4.8111391177
 20
4.9500564582
 30
0.0
  0
SPLINE
  5
5AD
100
AcDbEntity
  8
0
100
AcDbSpline
 62
9
  6
CONTINUOUS
 70
0
 71
3
 72
11
 73
7
 74
0
 42
0.0000001
 43
0.0000001
 44
0.0000000001
 40
0.0
 40
0.0
 40
0.0
 40
0.0
 40
0.2498664019
 40
0.4992235292
 40
0.7489729704
 40
1.0
 40
1.0
 40
1.0
 40
1.0
 10
4.8111391177
 20
4.9500564582
 30
0.0
 10
4.823398551
 20
4.9527025624
 30
0.0
 10
4.8482433267
 20
4.9564937944
 30
0.0
 10
4.8859151746
 20
4.9575472675
 30
0.0
 10
4.923486488
 20
4.9539352888
 30
0.0
 10
4.9480959216
 20
4.9484695452
 30
0.0
 10
4.9602092239
 20
4.9450013832
 30
0.0
  0
SPLINE
  5
5AE
100
AcDbEntity
  8
0
100
AcDbSpline
 62
9
  6
CONTINUOUS
 70
0
 71
3
 72
17
 73
13
 74
0
 42
0.0000001
 43
0.0000001
 44
0.0000000001
 40
0.0
 40
0.0
 40
0.0
 40
0.0
 40
0.1315774362
 40
0.2609880511
 40
0.388269733
 40
0.4511659261
 40
0.5135726749
 40
0.6369805032
 40
0.7588776583
 40
0.819438776
 40
0.8798023023
 40
1.0
 40
1.0
 40
1.0
 40
1.0
 10
5.3568564177
 20
4.9144257772
 30
0.0
 10
5.3466342664
 20
4.8987240035
 30
0.0
 10
5.3246366359
 20
4.8686566776
 30
0.0
 10
5.2870804157
 20
4.8279277257
 30
0.0
 10
5.2524407013
 20
4.7982309398
 30
0.0
 10
5.2231026466
 20
4.7773907273
 30
0.0
 10
5.1930051633
 20
4.7586890216
 30
0.0
 10
5.1536871599
 20
4.7390709944
 30
0.0
 10
5.1124177124
 20
4.7247463904
 30
0.0
 10
5.0787725568
 20
4.7166739518
 30
0.0
 10
5.0449108799
 20
4.7108886626
 30
0.0
 10
5.0191623438
 20
4.7090889042
 30
0.0
 10
5.0020468123
 20
4.7090446485
 30
0.0
  0
LINE
  5
5AF
100
AcDbEntity
  8
0
100
AcDbLine
 62
9
  6
CONTINUOUS
 10
5.0020468123
 20
4.7090446485
 11
5.0010595391
 21
4.7090433716
  0
SPLINE
  5
5B0
100
AcDbEntity
  8
0
100
AcDbSpline
 62
9
  6
CONTINUOUS
 70
0
 71
3
 72
16
 73
12
 74
0
 42
0.0000001
 43
0.0000001
 44
0.0000000001
 40
0.0
 40
0.0
 40
0.0
 40
0.0
 40
0.1202372318
 40
0.2413294077
 40
0.3636102319
 40
0.4873531963
 40
0.6127640007
 40
0.7399581527
 40
0.8042693916
 40
0.8690529358
 40
1.0
 40
1.0
 40
1.0
 40
1.0
 10
5.0520329625
 20
4.7137891995
 30
0.0
 10
5.0667575685
 20
4.7161222639
 30
0.0
 10
5.0960666883
 20
4.7225260741
 30
0.0
 10
5.1388162904
 20
4.7371326073
 30
0.0
 10
5.1800531314
 20
4.7566301461
 30
0.0
 10
5.2193583932
 20
4.7808055459
 30
0.0
 10
5.2563297492
 20
4.8094161925
 30
0.0
 10
5.2847962426
 20
4.8366112312
 30
0.0
 10
5.3060557592
 20
4.8602454641
 30
0.0
 10
5.3264068177
 20
4.885266759
 30
0.0
 10
5.3403123682
 20
4.9052180036
 30
0.0
 10
5.3489540657
 20
4.9189633905
 30
0.0
  0
SPLINE
  5
5B1
100
AcDbEntity
  8
0
100
AcDbSpline
 62
9
  6
CONTINUOUS
 70
0
 71
3
 72
19
 73
15
 74
0
 42
0.0000001
 43
0.0000001
 44
0.0000000001
 40
0.0
 40
0.0
 40
0.0
 40
0.0
 40
0.0410766959
 40
0.0832415864
 40
0.1273940458
 40
0.1742935213
 40
0.2244934224
 40
0.2783662074
 40
0.3361050042
 40
0.3976989076
 40
0.5318367026
 40
0.6790614838
 40
0.836538695
 40
1.0
 40
1.0
 40
1.0
 40
1.0
 10
4.8304865462
 20
5.0160621547
 30
0.0
 10
4.8294934048
 20
5.0158467688
 30
0.0
 10
4.8275173856
 20
5.0152192313
 30
0.0
 10
4.8247223686
 20
5.013729125
 30
0.0
 10
4.8221088824
 20
5.0116971177
 30
0.0
 10
4.8197002146
 20
5.0091492219
 30
0.0
 10
4.8175091905
 20
5.0061126993
 30
0.0
 10
4.8155522242
 20
5.0026116367
 30
0.0
 10
4.8138443972
 20
4.9986747721
 30
0.0
 10
4.8118551552
 20
4.9927210238
 30
0.0
 10
4.810125585
 20
4.9843831651
 30
0.0
 10
4.8092430504
 20
4.9735404209
 30
0.0
 10
4.8095318007
 20
4.9619429322
 30
0.0
 10
4.8104782091
 20
4.954046345
 30
0.0
 10
4.8111408379
 20
4.9500570038
 30
0.0
  0
SPLINE
  5
5B2
100
AcDbEntity
  8
0
100
AcDbSpline
 62
7
  6
CONTINUOUS
 70
0
 71
3
 72
38
 73
34
 74
0
 42
0.0000001
 43
0.0000001
 44
0.0000000001
 40
0.0
 40
0.0
 40
0.0
 40
0.0
 40
0.0483593437
 40
0.0934013228
 40
0.1349826546
 40
0.1733620774
 40
0.2089747142
 40
0.2422949706
 40
0.2737686505
 40
0.3037854716
 40
0.33267275
 40
0.3606970816
 40
0.4149294121
 40
0.4414682512
 40
0.4677572351
 40
0.4938767862
 40
0.5198922212
 40
0.5458590794
 40
0.5718282906
 40
0.5978510848
 40
0.6239836175
 40
0.6502924748
 40
0.6768597541
 40
0.7037902356
 40
0.7312174994
 40
0.7593133911
 40
0.7882950395
 40
0.818434326
 40
0.8500645315
 40
0.8835812703
 40
0.9194346158
 40
0.95809894
 40
1.0
 40
1.0
 40
1.0
 40
1.0
 10
12.2305736501
 20
9.9088765511
 30
0.0
 10
12.2294100581
 20
9.9021337179
 30
0.0
 10
12.2264548754
 20
9.889219594
 30
0.0
 10
12.2201564214
 20
9.8711500841
 30
0.0
 10
12.2125306693
 20
9.8551522972
 30
0.0
 10
12.2039276882
 20
9.8412088235
 30
0.0
 10
12.1946180167
 20
9.8291789196
 30
0.0
 10
12.1848012599
 20
9.8188762165
 30
0.0
 10
12.1746214377
 20
9.8101076166
 30
0.0
 10
12.1641827358
 20
9.8026912427
 30
0.0
 10
12.1535590525
 20
9.7964627993
 30
0.0
 10
12.1393792123
 20
9.7896318889
 30
0.0
 10
12.1247983821
 20
9.7845148138
 30
0.0
 10
12.1100820179
 20
9.78089869
 30
0.0
 10
12.0990896248
 20
9.7788743768
 30
0.0
 10
12.0880767161
 20
9.7774739302
 30
0.0
 10
12.0770512277
 20
9.776655675
 30
0.0
 10
12.0660198146
 20
9.7764047032
 30
0.0
 10
12.0549886633
 20
9.7767084485
 30
0.0
 10
12.0439641092
 20
9.7775807143
 30
0.0
 10
12.0329526307
 20
9.7790381957
 30
0.0
 10
12.0219633412
 20
9.7811230275
 30
0.0
 10
12.0110065546
 20
9.7838835413
 30
0.0
 10
12.0000977201
 20
9.7873909861
 30
0.0
 10
11.9892570559
 20
9.7917300235
 30
0.0
 10
11.9785123972
 20
9.79700382
 30
0.0
 10
11.9679041154
 20
9.8033378668
 30
0.0
 10
11.9574862654
 20
9.8108747291
 30
0.0
 10
11.9473357227
 20
9.8197799828
 30
0.0
 10
11.9375599158
 20
9.8302372099
 30
0.0
 10
11.9283072961
 20
9.8424403743
 30
0.0
 10
11.9197843662
 20
9.8565714941
 30
0.0
 10
11.9149741057
 20
9.8669358493
 30
0.0
 10
11.9127643204
 20
9.8724373289
 30
0.0
  0
SPLINE
  5
5B3
100
AcDbEntity
  8
0
100
AcDbSpline
 62
7
  6
CONTINUOUS
 70
0
 71
3
 72
9
 73
5
 74
0
 42
0.0000001
 43
0.0000001
 44
0.0000000001
 40
0.0
 40
0.0
 40
0.0
 40
0.0
 40
0.2402094857
 40
1.0
 40
1.0
 40
1.0
 40
1.0
 10
11.9127643204
 20
9.8724373289
 30
0.0
 10
11.911942193
 20
9.8744840966
 30
0.0
 10
11.9086867137
 20
9.8830711647
 30
0.0
 10
11.9061159483
 20
9.8919165776
 30
0.0
 10
11.9045506073
 20
9.8987154352
 30
0.0
  0
SPLINE
  5
5B4
100
AcDbEntity
  8
0
100
AcDbSpline
 62
7
  6
CONTINUOUS
 70
0
 71
3
 72
45
 73
41
 74
0
 42
0.0000001
 43
0.0000001
 44
0.0000000001
 40
0.0
 40
0.0
 40
0.0
 40
0.0
 40
0.0156249363
 40
0.0312504136
 40
0.0468763572
 40
0.0625031808
 40
0.0781306677
 40
0.0937590153
 40
0.1249919924
 40
0.1562347945
 40
0.1874830353
 40
0.2187339196
 40
0.2499857662
 40
0.2812380934
 40
0.3124907145
 40
0.3437428723
 40
0.3749945442
 40
0.4062463339
 40
0.4374976119
 40
0.468748854
 40
0.4999999867
 40
0.5312511196
 40
0.5625023666
 40
0.5937536461
 40
0.6250054446
 40
0.656257128
 40
0.6875092945
 40
0.7187619004
 40
0.7500142332
 40
0.7812660711
 40
0.8125168952
 40
0.8437650872
 40
0.8750078588
 40
0.9062408668
 40
0.9218692111
 40
0.9374966983
 40
0.9531235688
 40
0.9687495311
 40
0.9843750507
 40
1.0
 40
1.0
 40
1.0
 40
1.0
 10
12.9133425496
 20
9.9418559329
 30
0.0
 10
12.9133425496
 20
9.9376141162
 30
0.0
 10
12.912789697
 20
9.9291201965
 30
0.0
 10
12.9103383361
 20
9.9165998769
 30
0.0
 10
12.9063657927
 20
9.9044767522
 30
0.0
 10
12.9010188126
 20
9.8928986017
 30
0.0
 10
12.8944649828
 20
9.8819615402
 30
0.0
 10
12.884351619
 20
9.8683136981
 30
0.0
 10
12.8695090823
 20
9.853028274
 30
0.0
 10
12.8492906532
 20
9.8374712314
 30
0.0
 10
12.8274020615
 20
9.824394534
 30
0.0
 10
12.8043685256
 20
9.813492332
 30
0.0
 10
12.7805450313
 20
9.8044692291
 30
0.0
 10
12.756175583
 20
9.7970668808
 30
0.0
 10
12.7314283191
 20
9.7910651601
 30
0.0
 10
12.7064206224
 20
9.7862796954
 30
0.0
 10
12.6812347519
 20
9.7825589861
 30
0.0
 10
12.6559285757
 20
9.779786314
 30
0.0
 10
12.6305443147
 20
9.7778688999
 30
0.0
 10
12.6051133405
 20
9.7767429486
 30
0.0
 10
12.579660451
 20
9.7763732392
 30
0.0
 10
12.5542075605
 20
9.7767429513
 30
0.0
 10
12.5287765838
 20
9.7778688904
 30
0.0
 10
12.5033923199
 20
9.7797863208
 30
0.0
 10
12.4780861362
 20
9.7825589782
 30
0.0
 10
12.452900259
 20
9.7862796962
 30
0.0
 10
12.4278925603
 20
9.791065158
 30
0.0
 10
12.4031452986
 20
9.7970668863
 30
0.0
 10
12.3787758519
 20
9.8044692227
 30
0.0
 10
12.3549523764
 20
9.8134923268
 30
0.0
 10
12.3319188662
 20
9.8243945082
 30
0.0
 10
12.3100303051
 20
9.8374711817
 30
0.0
 10
12.2898118727
 20
9.8530281993
 30
0.0
 10
12.2749693365
 20
9.8683136216
 30
0.0
 10
12.2648559469
 20
9.8819614543
 30
0.0
 10
12.2583021147
 20
9.8928985283
 30
0.0
 10
12.2529551129
 20
9.9044766882
 30
0.0
 10
12.2489825544
 20
9.9165998393
 30
0.0
 10
12.2465311857
 20
9.9291201779
 30
0.0
 10
12.2459783312
 20
9.9376141127
 30
0.0
 10
12.2459783312
 20
9.9418559329
 30
0.0
  0
SPLINE
  5
5B5
100
AcDbEntity
  8
0
100
AcDbSpline
 62
7
  6
CONTINUOUS
 70
0
 71
3
 72
9
 73
5
 74
0
 42
0.0000001
 43
0.0000001
 44
0.0000000001
 40
0.0
 40
0.0
 40
0.0
 40
0.0
 40
0.2597811519
 40
1.0
 40
1.0
 40
1.0
 40
1.0
 10
13.2547699548
 20
9.8987140498
 30
0.0
 10
13.2542348099
 20
9.8963897967
 30
0.0
 10
13.2520021972
 20
9.8874835954
 30
0.0
 10
13.2490906464
 20
9.8787465198
 30
0.0
 10
13.246557713
 20
9.8724401971
 30
0.0
  0
SPLINE
  5
5B6
100
AcDbEntity
  8
0
100
AcDbSpline
 62
7
  6
CONTINUOUS
 70
0
 71
3
 72
33
 73
29
 74
0
 42
0.0000001
 43
0.0000001
 44
0.0000000001
 40
0.0
 40
0.0
 40
0.0
 40
0.0
 40
0.0426819092
 40
0.0821580079
 40
0.1188320751
 40
0.1531583479
 40
0.1855720182
 40
0.2164597676
 40
0.2461508841
 40
0.2749162496
 40
0.3029750043
 40
0.3305019243
 40
0.3844566927
 40
0.4375962028
 40
0.4904302769
 40
0.5433599228
 40
0.5700008492
 40
0.5968410691
 40
0.6514530049
 40
0.7082025975
 40
0.7378677131
 40
0.7687220734
 40
0.8010934611
 40
0.8353671916
 40
0.8719775359
 40
0.9113788514
 40
0.953977648
 40
1.0
 40
1.0
 40
1.0
 40
1.0
 10
13.246557713
 20
9.8724401971
 30
0.0
 10
13.2444116047
 20
9.8670969648
 30
0.0
 10
13.2397506234
 20
9.8570138641
 30
0.0
 10
13.2315219709
 20
9.8432234215
 30
0.0
 10
13.2225943188
 20
9.8312565678
 30
0.0
 10
13.2131600694
 20
9.8209482501
 30
0.0
 10
13.2033590324
 20
9.8121209577
 30
0.0
 10
13.1932937598
 20
9.8046047239
 30
0.0
 10
13.183037422
 20
9.7982464884
 30
0.0
 10
13.172643134
 20
9.792912062
 30
0.0
 10
13.1621503738
 20
9.7884819258
 30
0.0
 10
13.1481622775
 20
9.7836860932
 30
0.0
 10
13.1304559258
 20
9.7794397243
 30
0.0
 10
13.1090115896
 20
9.776745331
 30
0.0
 10
13.0875476271
 20
9.7762091916
 30
0.0
 10
13.0697002292
 20
9.7775138224
 30
0.0
 10
13.055501488
 20
9.7796725533
 30
0.0
 10
13.0412211271
 20
9.7826571806
 30
0.0
 10
13.023332764
 20
9.788092138
 30
0.0
 10
13.005996531
 20
9.7961166513
 30
0.0
 10
12.9925196809
 20
9.8044337405
 30
0.0
 10
12.9824483668
 20
9.8119195901
 30
0.0
 10
12.9726398402
 20
9.8207123316
 30
0.0
 10
12.9631949393
 20
9.8309819269
 30
0.0
 10
12.9542528447
 20
9.8429051527
 30
0.0
 10
12.9460034069
 20
9.8566503174
 30
0.0
 10
12.938702123
 20
9.8723360739
 30
0.0
 10
12.934826212
 20
9.8836746458
 30
0.0
 10
12.9331244448
 20
9.8896456418
 30
0.0
  0
SPLINE
  5
5B7
100
AcDbEntity
  8
0
100
AcDbSpline
 62
7
  6
CONTINUOUS
 70
0
 71
3
 72
9
 73
5
 74
0
 42
0.0000001
 43
0.0000001
 44
0.0000000001
 40
0.0
 40
0.0
 40
0.0
 40
0.0
 40
0.4879470044
 40
1.0
 40
1.0
 40
1.0
 40
1.0
 10
12.9325354555
 20
9.8917610861
 30
0.0
 10
12.9303746185
 20
9.8997087935
 30
0.0
 10
12.9270524029
 20
9.9163140566
 30
0.0
 10
12.9259394376
 20
9.9332128232
 30
0.0
 10
12.9259394376
 20
9.9418559329
 30
0.0
  0
SPLINE
  5
5B8
100
AcDbEntity
  8
0
100
AcDbSpline
 62
7
  6
CONTINUOUS
 70
0
 71
3
 72
17
 73
13
 74
0
 42
0.0000001
 43
0.0000001
 44
0.0000000001
 40
0.0
 40
0.0
 40
0.0
 40
0.0
 40
0.125004054
 40
0.2500065145
 40
0.3750071861
 40
0.5000029506
 40
0.6249908142
 40
0.749965269
 40
0.8124758181
 40
0.8749845044
 40
0.9374940625
 40
1.0
 40
1.0
 40
1.0
 40
1.0
 10
4.5647382689
 20
9.3964372159
 30
0.0
 10
4.5830195613
 20
9.3965525935
 30
0.0
 10
4.6195832226
 20
9.3977069849
 30
0.0
 10
4.6742594117
 20
9.4023218398
 30
0.0
 10
4.7285819017
 20
9.4101127825
 30
0.0
 10
4.7822683635
 20
9.4215470238
 30
0.0
 10
4.8348779236
 20
9.4372511127
 30
0.0
 10
4.8772841237
 20
9.4545487854
 30
0.0
 10
4.9097913055
 20
9.471328933
 30
0.0
 10
4.9332988019
 20
9.4855004153
 30
0.0
 10
4.9557099696
 20
9.5013513806
 30
0.0
 10
4.9697551978
 20
9.5130979632
 30
0.0
 10
4.976498422
 20
9.5192700069
 30
0.0
  0
SPLINE
  5
5B9
100
AcDbEntity
  8
0
100
AcDbSpline
 62
7
  6
CONTINUOUS
 70
0
 71
3
 72
33
 73
29
 74
0
 42
0.0000001
 43
0.0000001
 44
0.0000000001
 40
0.0
 40
0.0
 40
0.0
 40
0.0
 40
0.0407637772
 40
0.0793006942
 40
0.1158245396
 40
0.1505759968
 40
0.1837951409
 40
0.2157147232
 40
0.2465505072
 40
0.2764964162
 40
0.3057225961
 40
0.3343761274
 40
0.3904202193
 40
0.4454395465
 40
0.5000000072
 40
0.5545604695
 40
0.6095797979
 40
0.6656238911
 40
0.6942774232
 40
0.7235036062
 40
0.7534495159
 40
0.7842852986
 40
0.8162048794
 40
0.8494240162
 40
0.8841754713
 40
0.9206993271
 40
0.9592362398
 40
1.0
 40
1.0
 40
1.0
 40
1.0
 10
3.7207615865
 20
9.5192700069
 30
0.0
 10
3.7240898161
 20
9.5131773787
 30
0.0
 10
3.7310097842
 20
9.5015608036
 30
0.0
 10
3.7424022247
 20
9.4854338053
 30
0.0
 10
3.7543681941
 20
9.4710356868
 30
0.0
 10
3.7667924015
 20
9.4582688968
 30
0.0
 10
3.7795812816
 20
9.4470246308
 30
0.0
 10
3.7926570597
 20
9.4371910492
 30
0.0
 10
3.8059572951
 20
9.4286584445
 30
0.0
 10
3.8194317031
 20
9.4213231029
 30
0.0
 10
3.8330404332
 20
9.4150879364
 30
0.0
 10
3.8511823932
 20
9.4081773196
 30
0.0
 10
3.8741703648
 20
9.4017965404
 30
0.0
 10
3.9020835635
 20
9.3973767474
 30
0.0
 10
3.930051063
 20
9.3959373413
 30
0.0
 10
3.9580185626
 20
9.3973767489
 30
0.0
 10
3.9859317619
 20
9.4017965424
 30
0.0
 10
4.008919734
 20
9.408177322
 30
0.0
 10
4.0270616941
 20
9.4150879412
 30
0.0
 10
4.0406704255
 20
9.4213231067
 30
0.0
 10
4.0541448328
 20
9.4286584506
 30
0.0
 10
4.0674450672
 20
9.4371910561
 30
0.0
 10
4.0805208441
 20
9.4470246363
 30
0.0
 10
4.0933097218
 20
9.4582689024
 30
0.0
 10
4.1057339296
 20
9.4710356921
 30
0.0
 10
4.1176998979
 20
9.4854338124
 30
0.0
 10
4.129092338
 20
9.5015608088
 30
0.0
 10
4.1360123034
 20
9.5131773813
 30
0.0
 10
4.1393405316
 20
9.5192700069
 30
0.0
  0
SPLINE
  5
5BA
100
AcDbEntity
  8
0
100
AcDbSpline
 62
7
  6
CONTINUOUS
 70
0
 71
3
 72
30
 73
26
 74
0
 42
0.0000001
 43
0.0000001
 44
0.0000000001
 40
0.0
 40
0.0
 40
0.0
 40
0.0
 40
0.0812280798
 40
0.1188714929
 40
0.1547883367
 40
0.1891887759
 40
0.2222810159
 40
0.2542609624
 40
0.285307495
 40
0.3155817165
 40
0.3452250508
 40
0.4030685002
 40
0.459650455
 40
0.5155435793
 40
0.5711887096
 40
0.6269757126
 40
0.6833238591
 40
0.7407625476
 40
0.8000111891
 40
0.8306251694
 40
0.8620836472
 40
0.8945563252
 40
0.9282306397
 40
0.9633083837
 40
1.0
 40
1.0
 40
1.0
 40
1.0
 10
4.976498422
 20
9.5192700069
 30
0.0
 10
4.9825180756
 20
9.5082504814
 30
0.0
 10
4.9924402164
 20
9.4926830955
 30
0.0
 10
5.0074803719
 20
9.4740535027
 30
0.0
 10
5.0188888747
 20
9.4618514496
 30
0.0
 10
5.0306310547
 20
9.4509847045
 30
0.0
 10
5.0426420078
 20
9.4413629194
 30
0.0
 10
5.0548679856
 20
9.4328985196
 30
0.0
 10
5.067264302
 20
9.4255057918
 30
0.0
 10
5.0797954971
 20
9.4191044286
 30
0.0
 10
5.0965037481
 20
9.4118537477
 30
0.0
 10
5.1176954164
 20
9.4048321506
 30
0.0
 10
5.1434904112
 20
9.3993308813
 30
0.0
 10
5.1693665322
 20
9.3964997318
 30
0.0
 10
5.1952690889
 20
9.3961695685
 30
0.0
 10
5.2211564036
 20
9.3983197027
 30
0.0
 10
5.2469808718
 20
9.4030810981
 30
0.0
 10
5.2726683673
 20
9.4107314362
 30
0.0
 10
5.2936355557
 20
9.4197727146
 30
0.0
 10
5.3100826155
 20
9.4288081886
 30
0.0
 10
5.3224051647
 20
9.4366882904
 30
0.0
 10
5.3345372676
 20
9.4456788316
 30
0.0
 10
5.3464311805
 20
9.4558673381
 30
0.0
 10
5.3580266285
 20
9.4673421147
 30
0.0
 10
5.3653338994
 20
9.4757054278
 30
0.0
 10
5.3689120296
 20
9.4801062953
 30
0.0
  0
SPLINE
  5
5BB
100
AcDbEntity
  8
0
100
AcDbSpline
 62
7
  6
CONTINUOUS
 70
0
 71
3
 72
9
 73
5
 74
0
 42
0.0000001
 43
0.0000001
 44
0.0000000001
 40
0.0
 40
0.0
 40
0.0
 40
0.0
 40
0.4836073386
 40
1.0
 40
1.0
 40
1.0
 40
1.0
 10
5.3689120296
 20
9.4801062953
 30
0.0
 10
5.3737068594
 20
9.4860036242
 30
0.0
 10
5.3830461982
 20
9.4986752035
 30
0.0
 10
5.3911865896
 20
9.5121475834
 30
0.0
 10
5.3950773671
 20
9.5192700069
 30
0.0
  0
SPLINE
  5
5BC
100
AcDbEntity
  8
0
100
AcDbSpline
 62
7
  6
CONTINUOUS
 70
0
 71
3
 72
17
 73
13
 74
0
 42
0.0000001
 43
0.0000001
 44
0.0000000001
 40
0.0
 40
0.0
 40
0.0
 40
0.0
 40
0.0625059676
 40
0.125015635
 40
0.1875244483
 40
0.2500351579
 40
0.3750092142
 40
0.4999969946
 40
0.6249927977
 40
0.7499935237
 40
0.8749959866
 40
1.0
 40
1.0
 40
1.0
 40
1.0
 10
4.1393405316
 20
9.5192700069
 30
0.0
 10
4.1461885104
 20
9.5130020818
 30
0.0
 10
4.1604608267
 20
9.5010823907
 30
0.0
 10
4.1832499926
 20
9.4850262675
 30
0.0
 10
4.2071622216
 20
9.4706993149
 30
0.0
 10
4.2402329452
 20
9.4537714752
 30
0.0
 10
4.2833733109
 20
9.4363869883
 30
0.0
 10
4.3368769996
 20
9.4206969436
 30
0.0
 10
4.3914566672
 20
9.40936515
 30
0.0
 10
4.4466645466
 20
9.4017467576
 30
0.0
 10
4.5022154334
 20
9.3973674862
 30
0.0
 10
4.5393538336
 20
9.3964158023
 30
0.0
 10
4.5579194768
 20
9.3964158023
 30
0.0
  0
SPLINE
  5
5BD
100
AcDbEntity
  8
0
100
AcDbSpline
 62
7
  6
CONTINUOUS
 70
0
 71
3
 72
25
 73
21
 74
0
 42
0.0000001
 43
0.0000001
 44
0.0000000001
 40
0.0
 40
0.0
 40
0.0
 40
0.0
 40
0.0371329313
 40
0.071898901
 40
0.1050172291
 40
0.1370658205
 40
0.1993048953
 40
0.2599091251
 40
0.3195082742
 40
0.3785061627
 40
0.4958310111
 40
0.6137797304
 40
0.6735722291
 40
0.7342810628
 40
0.7962867863
 40
0.8601950604
 40
0.8931497425
 40
0.9271347451
 40
0.9625811286
 40
1.0
 40
1.0
 40
1.0
 40
1.0
 10
4.4606334568
 20
5.1672442473
 30
0.0
 10
4.4608578692
 20
5.1650665625
 30
0.0
 10
4.4614909442
 20
5.1608672462
 30
0.0
 10
4.4629917899
 20
5.1548522213
 30
0.0
 10
4.4649010525
 20
5.149271933
 30
0.0
 10
4.4678193942
 20
5.1423468885
 30
0.0
 10
4.4719674869
 20
5.1341958335
 30
0.0
 10
4.4776714325
 20
5.1250633482
 30
0.0
 10
4.4839283751
 20
5.1165389018
 30
0.0
 10
4.492937523
 20
5.1059282477
 30
0.0
 10
4.50544714
 20
5.0938454422
 30
0.0
 10
4.519229972
 20
5.0831664185
 30
0.0
 10
4.5311071108
 20
5.0756284241
 30
0.0
 10
4.5405578072
 20
5.0704677573
 30
0.0
 10
4.5505599868
 20
5.0658611606
 30
0.0
 10
4.5593602019
 20
5.0626206111
 30
0.0
 10
4.5667574871
 20
5.0604227537
 30
0.0
 10
4.5726360365
 20
5.0590337543
 30
0.0
 10
4.5788553914
 20
5.0580009652
 30
0.0
 10
4.5831388346
 20
5.05761445
 30
0.0
 10
4.5853418864
 20
5.057498993
 30
0.0
  0
SPLINE
  5
5BE
100
AcDbEntity
  8
0
100
AcDbSpline
 62
7
  6
CONTINUOUS
 70
0
 71
3
 72
25
 73
21
 74
0
 42
0.0000001
 43
0.0000001
 44
0.0000000001
 40
0.0
 40
0.0
 40
0.0
 40
0.0
 40
0.0371329313
 40
0.071898901
 40
0.1050172291
 40
0.1370658205
 40
0.1993048953
 40
0.2599091251
 40
0.3195082742
 40
0.3785061627
 40
0.4958310111
 40
0.6137797304
 40
0.6735722291
 40
0.7342810628
 40
0.7962867863
 40
0.8601950604
 40
0.8931497425
 40
0.9271347451
 40
0.9625811286
 40
1.0
 40
1.0
 40
1.0
 40
1.0
 10
8.7600503159
 20
5.1672442473
 30
0.0
 10
8.7598259035
 20
5.1650665625
 30
0.0
 10
8.7591928285
 20
5.1608672462
 30
0.0
 10
8.7576919828
 20
5.1548522213
 30
0.0
 10
8.7557827202
 20
5.149271933
 30
0.0
 10
8.7528643785
 20
5.1423468885
 30
0.0
 10
8.7487162859
 20
5.1341958335
 30
0.0
 10
8.7430123402
 20
5.1250633482
 30
0.0
 10
8.7367553976
 20
5.1165389018
 30
0.0
 10
8.7277462498
 20
5.1059282477
 30
0.0
 10
8.7152366327
 20
5.0938454422
 30
0.0
 10
8.7014538008
 20
5.0831664185
 30
0.0
 10
8.6895766619
 20
5.0756284241
 30
0.0
 10
8.6801259656
 20
5.0704677573
 30
0.0
 10
8.670123786
 20
5.0658611606
 30
0.0
 10
8.6613235708
 20
5.0626206111
 30
0.0
 10
8.6539262856
 20
5.0604227537
 30
0.0
 10
8.6480477363
 20
5.0590337543
 30
0.0
 10
8.6418283814
 20
5.0580009652
 30
0.0
 10
8.6375449382
 20
5.05761445
 30
0.0
 10
8.6353418864
 20
5.057498993
 30
0.0
  0
SPLINE
  5
5BF
100
AcDbEntity
  8
0
100
AcDbSpline
 62
9
  6
CONTINUOUS
 70
0
 71
3
 72
23
 73
19
 74
0
 42
0.0000001
 43
0.0000001
 44
0.0000000001
 40
0.0
 40
0.0
 40
0.0
 40
0.0
 40
0.0314325635
 40
0.0436105017
 40
0.0577674628
 40
0.0739595609
 40
0.0922000989
 40
0.1124728347
 40
0.1347506772
 40
0.1851783539
 40
0.2431622272
 40
0.3082071258
 40
0.3796944357
 40
0.4569885815
 40
0.539400453
 40
0.6261757618
 40
0.8096759857
 40
1.0
 40
1.0
 40
1.0
 40
1.0
 10
8.8575350261
 20
8.6180782362
 30
0.0
 10
8.8605245539
 20
8.6183817304
 30
0.0
 10
8.8643401432
 20
8.6148869273
 30
0.0
 10
8.8674707325
 20
8.6105258067
 30
0.0
 10
8.8695949485
 20
8.607015358
 30
0.0
 10
8.8717273862
 20
8.6028983365
 30
0.0
 10
8.8739055466
 20
8.5981381459
 30
0.0
 10
8.8761113684
 20
8.5927613396
 30
0.0
 10
8.8792169316
 20
8.5844312099
 30
0.0
 10
8.8830891971
 20
8.5725475095
 30
0.0
 10
8.8876009663
 20
8.5565878989
 30
0.0
 10
8.8921047276
 20
8.5385436549
 30
0.0
 10
8.896558644
 20
8.5185915983
 30
0.0
 10
8.9009140292
 20
8.4969218613
 30
0.0
 10
8.905128047
 20
8.4737373703
 30
0.0
 10
8.9106112656
 20
8.4404686729
 30
0.0
 10
8.9167706867
 20
8.3968628251
 30
0.0
 10
8.9208391948
 20
8.361353793
 30
0.0
 10
8.922676851
 20
8.3432522172
 30
0.0
  0
SPLINE
  5
5C0
100
AcDbEntity
  8
0
100
AcDbSpline
 62
9
  6
CONTINUOUS
 70
0
 71
3
 72
23
 73
19
 74
0
 42
0.0000001
 43
0.0000001
 44
0.0000000001
 40
0.0
 40
0.0
 40
0.0
 40
0.0
 40
0.1903240143
 40
0.3738242382
 40
0.460599547
 40
0.5430114185
 40
0.6203055643
 40
0.6917928742
 40
0.7568377728
 40
0.8148216461
 40
0.8652493228
 40
0.8875271653
 40
0.9077999011
 40
0.9260404391
 40
0.9422325372
 40
0.9563894983
 40
0.9685674365
 40
1.0
 40
1.0
 40
1.0
 40
1.0
 10
8.922676851
 20
8.3432522172
 30
0.0
 10
8.9245145071
 20
8.3251506414
 30
0.0
 10
8.9276651504
 20
8.2895484285
 30
0.0
 10
8.9303947328
 20
8.2455943865
 30
0.0
 10
8.931709295
 20
8.2119024908
 30
0.0
 10
8.9322405706
 20
8.1883441309
 30
0.0
 10
8.9323289472
 20
8.166241211
 30
0.0
 10
8.9319756057
 20
8.1458011258
 30
0.0
 10
8.9311900288
 20
8.1272199127
 30
0.0
 10
8.9299776647
 20
8.1106791932
 30
0.0
 10
8.9285726335
 20
8.0982597462
 30
0.0
 10
8.9272045116
 20
8.0894754519
 30
0.0
 10
8.926124254
 20
8.0837650457
 30
0.0
 10
8.9249471739
 20
8.078664234
 30
0.0
 10
8.9236856279
 20
8.0742026583
 30
0.0
 10
8.9223102347
 20
8.0703369323
 30
0.0
 10
8.9201199573
 20
8.065435642
 30
0.0
 10
8.9170845539
 20
8.061245332
 30
0.0
 10
8.9140950261
 20
8.0609418378
 30
0.0
  0
ENDSEC
  0
SECTION
  2
OBJECTS
  0
DICTIONARY
  5
C
100
AcDbDictionary
280
0
281
1
  3
ACAD_GROUP
350
D
  3
ACAD_MLINESTYLE
350
17
  3
ACAD_LAYOUT
350
1A
  3
ACAD_PLOTSETTINGS
350
19
  3
ACAD_PLOTSTYLENAME
350
E
  0
DICTIONARY
  5
D
102
{ACAD_REACTORS
330
C
102
}
100
AcDbDictionary
280
0
281
1
  0
ACDBDICTIONARYWDFLT
  5
E
102
{ACAD_REACTORS
330
C
102
}
100
AcDbDictionary
281
1
  3
Normal
350
F
100
AcDbDictionaryWithDefault
340
F
  0
DICTIONARY
  5
17
102
{ACAD_REACTORS
330
C
102
}
100
AcDbDictionary
280
0
281
1
  3
Standard
350
18
  0
DICTIONARY
  5
19
102
{ACAD_REACTORS
330
C
102
}
100
AcDbDictionary
281
1
  0
DICTIONARY
  5
1A
102
{ACAD_REACTORS
330
C
102
}
100
AcDbDictionary
281
1
  3
Model
350
5C1
  3
Layout1
350
5C2
  0
ACDBPLACEHOLDER
  5
F
102
{ACAD_REACTORS
330
E
102
}
  0
MLINESTYLE
  5
18
102
{ACAD_REACTORS
330
17
102
}
100
AcDbMlineStyle
  2
STANDARD
 70
0
  3

 62
256
 51
90.0
 52
90.0
 71
2
 49
0.5
 62
256
  6
BYLAYER
 49
-0.5
 62
256
  6
BYLAYER
  0
LAYOUT
  5
5C1
102
{ACAD_REACTORS
330
1A
102
}
100
AcDbPlotSettings
  1

  2
none_device
  4
ANSI_C_(22.00_x_17.00_Inches)
  6

 40
0.0
 41
0.0
 42
0.0
 43
0.0
 44
558.8
 45
431.8
 46
0.0
 47
0.0
 48
0.0
 49
0.0
140
0.0
141
0.0
142
1.0
143
1.0
 70
1024
 72
0
 73
0
 74
0
  7

 75
0
147
1.0
148
0.0
149
0.0
100
AcDbLayout
  1
Model
 70
0
 71
0
 10
0.0
 20
0.0
 11
22.0
 21
17.0
 12
0.0
 22
0.0
 32
0.0
 14
0.0
 24
0.0
 34
0.0
 15
0.0
 25
0.0
 35
0.0
146
0.0
 13
0.0
 23
0.0
 33
0.0
 16
1.0
 26
0.0
 36
0.0
 17
0.0
 27
1.0
 37
0.0
 76
0
330
202
345
0
346
0
  0
LAYOUT
  5
5C2
102
{ACAD_REACTORS
330
1A
102
}
100
AcDbPlotSettings
  1

  2
none_device
  4
ANSI_C_(22.00_x_17.00_Inches)
  6

 40
0.0
 41
0.0
 42
0.0
 43
0.0
 44
558.8
 45
431.8
 46
0.0
 47
0.0
 48
0.0
 49
0.0
140
0.0
141
0.0
142
1.0
143
1.0
 70
0
 72
0
 73
0
 74
0
  7

 75
0
147
1.0
148
0.0
149
0.0
100
AcDbLayout
  1
Layout1
 70
0
 71
1
 10
0.0
 20
0.0
 11
22.0
 21
17.0
 12
0.0
 22
0.0
 32
0.0
 14
0.0
 24
0.0
 34
0.0
 15
0.0
 25
0.0
 35
0.0
146
0.0
 13
0.0
 23
0.0
 33
0.0
 16
1.0
 26
0.0
 36
0.0
 17
0.0
 27
1.0
 37
0.0
 76
0
330
203
345
0
346
0
  0
ENDSEC
  0
EOF
