999
DXF file: E:\BT Custom\CADOUTPUT\_TOP.dxf
999
Pro/ENGINEER 2018400 by Parametric Technology Corporation
  0
SECTION
  2
HEADER
  9
$ACADVER
  1
AC1018
  9
$DWGCODEPAGE
  3
ANSI_1252
  9
$EXTMAX
 10
22.0
 20
17.0
 30
0.0
  9
$EXTMIN
 10
0.0
 20
0.0
 30
0.0
  9
$LIMMIN
 10
0.0
 20
0.0
  9
$LIMMAX
 10
22.0
 20
17.0
  9
$VIEWCTR
 10
11.0
 20
8.5
  9
$VIEWSIZE
 40
17.0
  9
$CLAYER
  8
0
  9
$LTSCALE
 40
1.21
  9
$CELTYPE
  6
BYLAYER
  9
$DIMSCALE
 40
1.0
  9
$DIMASZ
 40
0.1
  9
$DIMEXO
 40
0.0625
  9
$DIMDLI
 40
0.836
  9
$DIMEXE
 40
0.125
  9
$DIMCEN
 40
0.198
  9
$DIMLFAC
 40
1.0
  9
$DIMBLK
  1
_FILLED
  9
$DIMALT
 70
1
  9
$DIMALTD
 70
2
  9
$DIMALTTD
 70
2
  9
$DIMALTF
 40
25.4
  9
$DIMTXT
 40
0.08
  9
$DIMTOL
 70
1
  9
$DIMLIM
 70
0
  9
$DIMTFAC
 40
1.0
  9
$DIMTP
 40
0.001
  9
$DIMTM
 40
0.001
  9
$DIMGAP
 40
0.09
  9
$DIMDSEP
 70
46
  9
$AUNITS
 70
0
  9
$PDMODE
 70
3
  9
$PDSIZE
 40
0.06
  9
$HANDSEED
  5
551
  9
$TILEMODE
 70
1
  9
$MEASUREMENT
 70
0
  9
$INSUNITS
 70
1
  0
ENDSEC
  0
SECTION
  2
CLASSES
  0
CLASS
  1
ACDBDICTIONARYWDFLT
  2
AcDbDictionaryWithDefault
  3
AutoCAD 2000
 90
0
 91
1
280
0
281
0
  0
CLASS
  1
ACDBPLACEHOLDER
  2
AcDbPlaceHolder
  3
AutoCAD 2000
 90
0
 91
1
280
0
281
0
  0
CLASS
  1
LAYOUT
  2
AcDbLayout
  3
AutoCAD 2000
 90
0
 91
0
280
0
281
0
  0
ENDSEC
  0
SECTION
  2
TABLES
  0
TABLE
  2
VPORT
  5
8
100
AcDbSymbolTable
 70
2
  0
VPORT
  5
1F4
100
AcDbSymbolTableRecord
100
AcDbViewportTableRecord
  2
*ACTIVE
 70
0
 10
0.0
 20
0.0
 11
1.0
 21
1.0
 12
11.0
 22
8.5
 13
0.0
 23
0.0
 14
1.0
 24
1.0
 15
0.0
 25
0.0
 16
0.0
 26
0.0
 36
1.0
 17
0.0
 27
0.0
 37
0.0
 40
17.0
 41
1.2941176471
 42
50.0
 43
0.0
 44
0.0
 50
0.0
 51
0.0
 71
0
 72
100
 73
1
 74
1
 75
0
 76
0
 77
0
 78
0
  0
ENDTAB
  0
TABLE
  2
LTYPE
  5
5
100
AcDbSymbolTable
 70
6
  0
LTYPE
  5
14
100
AcDbSymbolTableRecord
100
AcDbLinetypeTableRecord
  2
BYBLOCK
 70
0
  3

 72
65
 73
0
 40
0.0
  0
LTYPE
  5
15
100
AcDbSymbolTableRecord
100
AcDbLinetypeTableRecord
  2
BYLAYER
 70
0
  3

 72
65
 73
0
 40
0.0
  0
LTYPE
  5
16
100
AcDbSymbolTableRecord
100
AcDbLinetypeTableRecord
  2
CONTINUOUS
 70
64
  3
Solid line
 72
65
 73
0
 40
0.0
  0
LTYPE
  5
1F5
100
AcDbSymbolTableRecord
100
AcDbLinetypeTableRecord
  2
CENTER
 70
64
  3
____ _ ____ _ ____ _ ____ _ ____ _ ____ _ ____
 72
65
 73
4
 40
0.6
 49
0.375
 74
0
 49
-0.075
 74
0
 49
0.075
 74
0
 49
-0.075
 74
0
  0
LTYPE
  5
1F6
100
AcDbSymbolTableRecord
100
AcDbLinetypeTableRecord
  2
HIDDEN
 70
64
  3
- - - - - - - - - - - - - - - - - - - -
 72
65
 73
2
 40
0.2
 49
0.1
 74
0
 49
-0.1
 74
0
  0
LTYPE
  5
1F7
100
AcDbSymbolTableRecord
100
AcDbLinetypeTableRecord
  2
PHANTOM
 70
64
  3
_____ _ _ _____ _ _ _____ _ _ _____
 72
65
 73
6
 40
0.8
 49
0.45
 74
0
 49
-0.05
 74
0
 49
0.1
 74
0
 49
-0.05
 74
0
 49
0.1
 74
0
 49
-0.05
 74
0
  0
LTYPE
  5
1F8
100
AcDbSymbolTableRecord
100
AcDbLinetypeTableRecord
  2
DOT
 70
64
  3
. . . . . . . . . . . . . . . . . . . .
 72
65
 73
2
 40
0.2
 49
0.1
 74
0
 49
-0.1
 74
0
  0
LTYPE
  5
1F9
100
AcDbSymbolTableRecord
100
AcDbLinetypeTableRecord
  2
DASHED
 70
64
  3
- - - - - - - - - - - - - - - - - - - -
 72
65
 73
2
 40
0.2
 49
0.1
 74
0
 49
-0.1
 74
0
  0
ENDTAB
  0
TABLE
  2
LAYER
  5
2
100
AcDbSymbolTable
 70
36
  0
LAYER
  5
10
100
AcDbSymbolTableRecord
100
AcDbLayerTableRecord
  2
0
 70
0
 62
7
  6
CONTINUOUS
370
-3
390
F
  0
LAYER
  5
1FA
100
AcDbSymbolTableRecord
100
AcDbLayerTableRecord
  2
DEFAULT_1
 70
0
 62
7
  6
CENTER
370
-3
390
F
  0
LAYER
  5
1FB
100
AcDbSymbolTableRecord
100
AcDbLayerTableRecord
  2
DEFAULT_2
 70
0
 62
8
  6
HIDDEN
370
-3
390
F
  0
LAYER
  5
1FC
100
AcDbSymbolTableRecord
100
AcDbLayerTableRecord
  2
DEFAULT_3
 70
0
 62
7
  6
PHANTOM
370
-3
390
F
  0
LAYER
  5
1FD
100
AcDbSymbolTableRecord
100
AcDbLayerTableRecord
  2
ALL_FEATURES
 70
0
 62
7
  6
CONTINUOUS
370
-3
390
F
  0
LAYER
  5
1FE
100
AcDbSymbolTableRecord
100
AcDbLayerTableRecord
  2
AXES_FEATURES
 70
0
 62
7
  6
CONTINUOUS
370
-3
390
F
  0
LAYER
  5
1FF
100
AcDbSymbolTableRecord
100
AcDbLayerTableRecord
  2
DIMENSIONS
 70
0
 62
7
  6
CONTINUOUS
370
-3
390
F
  0
ENDTAB
  0
TABLE
  2
STYLE
  5
3
100
AcDbSymbolTable
 70
1
  0
STYLE
  5
11
100
AcDbSymbolTableRecord
100
AcDbTextStyleTableRecord
  2
STANDARD
 70
0
 40
0.0
 41
0.8
 50
0.0
 71
0
 42
0.2
  3
txt
  4

  0
STYLE
  5
200
100
AcDbSymbolTableRecord
100
AcDbTextStyleTableRecord
  2
TEXTSTYLE_1
 70
0
 40
0.0
 41
0.8
 50
0.0
 71
0
 42
0.2
  3
gdt
  4

  0
ENDTAB
  0
TABLE
  2
VIEW
  5
6
100
AcDbSymbolTable
 70
0
  0
ENDTAB
  0
TABLE
  2
UCS
  5
7
100
AcDbSymbolTable
 70
0
  0
ENDTAB
  0
TABLE
  2
APPID
  5
9
100
AcDbSymbolTable
 70
1
  0
APPID
  5
201
100
AcDbSymbolTableRecord
100
AcDbRegAppTableRecord
  2
ACAD
 70
0
  0
ENDTAB
  0
TABLE
  2
BLOCK_RECORD
  5
1
100
AcDbSymbolTable
 70
0
  0
BLOCK_RECORD
  5
202
100
AcDbSymbolTableRecord
100
AcDbBlockTableRecord
  2
*Model_Space
  0
BLOCK_RECORD
  5
203
100
AcDbSymbolTableRecord
100
AcDbBlockTableRecord
  2
*Paper_Space
  0
BLOCK_RECORD
  5
204
100
AcDbSymbolTableRecord
100
AcDbBlockTableRecord
  2
_FILLED
  0
ENDTAB
  0
TABLE
  2
DIMSTYLE
  5
A
100
AcDbSymbolTable
 70
1
100
AcDbDimStyleTable
 71
0
  0
DIMSTYLE
105
205
100
AcDbSymbolTableRecord
100
AcDbDimStyleTableRecord
  2
STANDARD
 70
0
  3

  4

 40
1.0
 41
0.1
 42
0.0625
 43
0.38
 44
0.125
 45
0.0
 46
0.0
 47
0.001
 48
0.001
140
0.08
141
0.09
142
0.0
143
25.4
144
1.0
145
0.0
146
1.0
147
0.09
 71
1.0
 72
0.0
 73
1
 74
1
 75
0
 76
0
 77
0
 78
4
 79
1
170
1
171
2
172
0
173
0
174
0
175
0
176
0
177
0
178
0
270
2
179
3
271
3
272
3
273
2
274
2
275
0
280
0
281
0
282
0
283
1
284
4
285
0
286
0
287
3
288
0
340
11
278
46
341
204
342
204
343
204
344
204
  0
ENDTAB
  0
ENDSEC
  0
SECTION
  2
BLOCKS
  0
BLOCK
  5
20
100
AcDbEntity
  8
0
100
AcDbBlockBegin
  2
*Model_Space
 70
0
 10
0.0
 20
0.0
 30
0.0
  3
*Model_Space
  1

  0
ENDBLK
  5
21
100
AcDbEntity
  8
0
100
AcDbBlockEnd
  0
BLOCK
  5
1C
100
AcDbEntity
  8
0
100
AcDbBlockBegin
  2
*Paper_Space
 70
0
 10
0.0
 20
0.0
 30
0.0
  3
*Paper_Space
  1

  0
ENDBLK
  5
1D
100
AcDbEntity
  8
0
100
AcDbBlockEnd
  0
BLOCK
  5
206
100
AcDbEntity
  8
0
100
AcDbBlockBegin
  2
_FILLED
 70
64
 10
0.0
 20
0.0
  3
_FILLED
  1

  0
SOLID
  5
207
100
AcDbEntity
  8
0
  6
BYBLOCK
 62
0
100
AcDbTrace
 10
0.0
 20
0.0
 11
-1.0
 21
0.2
 12
-1.0
 22
-0.2
 13
-1.0
 23
-0.2
  0
ENDBLK
  5
208
100
AcDbEntity
  8
0
  6
BYBLOCK
 62
0
100
AcDbBlockEnd
  0
ENDSEC
  0
SECTION
  2
ENTITIES
  0
LINE
  5
209
100
AcDbEntity
  8
0
100
AcDbLine
 62
7
  6
CONTINUOUS
 10
3.6664397863
 20
5.6794545324
 11
3.6664397863
 21
5.4964057049
  0
LINE
  5
20A
100
AcDbEntity
  8
0
100
AcDbLine
 62
7
  6
CONTINUOUS
 10
3.8745893926
 20
4.8983248549
 11
3.8745893926
 21
4.9332446715
  0
LINE
  5
20B
100
AcDbEntity
  8
0
100
AcDbLine
 62
7
  6
CONTINUOUS
 10
3.9295910115
 20
4.9332446715
 11
3.9295910115
 21
4.8983248549
  0
LINE
  5
20C
100
AcDbEntity
  8
0
100
AcDbLine
 62
7
  6
CONTINUOUS
 10
3.9514397863
 20
5.9020268617
 11
3.9514397863
 21
5.8680384291
  0
LINE
  5
20D
100
AcDbEntity
  8
0
100
AcDbLine
 62
7
  6
CONTINUOUS
 10
4.090847599
 20
4.9332446715
 11
4.090847599
 21
4.8983248549
  0
LINE
  5
20E
100
AcDbEntity
  8
0
100
AcDbLine
 62
7
  6
CONTINUOUS
 10
4.1129411712
 20
4.871628756
 11
4.1129411712
 21
4.8567776867
  0
LINE
  5
20F
100
AcDbEntity
  8
0
100
AcDbLine
 62
7
  6
CONTINUOUS
 10
4.2075060311
 20
4.8704860053
 11
4.2075060311
 21
4.8567776867
  0
LINE
  5
210
100
AcDbEntity
  8
0
100
AcDbLine
 62
7
  6
CONTINUOUS
 10
4.2562019298
 20
4.9202970041
 11
4.2562019298
 21
4.8983248549
  0
LINE
  5
211
100
AcDbEntity
  8
0
100
AcDbLine
 62
7
  6
CONTINUOUS
 10
4.3473697851
 20
4.9332446715
 11
4.3473697851
 21
4.8983248549
  0
LINE
  5
212
100
AcDbEntity
  8
0
100
AcDbLine
 62
7
  6
CONTINUOUS
 10
4.3492383146
 20
4.877258964
 11
4.3492383146
 21
4.8567776867
  0
LINE
  5
213
100
AcDbEntity
  8
0
100
AcDbLine
 62
7
  6
CONTINUOUS
 10
4.390191312
 20
4.8704860053
 11
4.390191312
 21
4.8567776867
  0
LINE
  5
214
100
AcDbEntity
  8
0
100
AcDbLine
 62
7
  6
CONTINUOUS
 10
4.4100224634
 20
4.808531625
 11
4.4100224634
 21
4.8017581345
  0
LINE
  5
215
100
AcDbEntity
  8
0
100
AcDbLine
 62
7
  6
CONTINUOUS
 10
4.5127241158
 20
4.9233466762
 11
4.5127241158
 21
4.8983248549
  0
LINE
  5
216
100
AcDbEntity
  8
0
100
AcDbLine
 62
7
  6
CONTINUOUS
 10
4.5319235954
 20
4.8791089393
 11
4.5319235954
 21
4.8567776867
  0
LINE
  5
217
100
AcDbEntity
  8
0
100
AcDbLine
 62
7
  6
CONTINUOUS
 10
4.5713073981
 20
10.025395857
 11
4.5713073981
 21
10.075395857
  0
LINE
  5
218
100
AcDbEntity
  8
0
100
AcDbLine
 62
7
  6
CONTINUOUS
 10
4.5714397863
 20
10.275395857
 11
4.5714397863
 21
10.350395857
  0
LINE
  5
219
100
AcDbEntity
  8
0
100
AcDbLine
 62
7
  6
CONTINUOUS
 10
4.5992306303
 20
4.7635147306
 11
4.5992306303
 21
4.7370794561
  0
LINE
  5
21A
100
AcDbEntity
  8
0
100
AcDbLine
 62
7
  6
CONTINUOUS
 10
3.8885090951
 20
4.8762513421
 11
3.8803556044
 21
4.8844048328
  0
LINE
  5
21B
100
AcDbEntity
  8
0
100
AcDbLine
 62
7
  6
CONTINUOUS
 10
3.9435104364
 20
4.8762516198
 11
3.9353572234
 21
4.8844048328
  0
LINE
  5
21C
100
AcDbEntity
  8
0
100
AcDbLine
 62
7
  6
CONTINUOUS
 10
4.1268605961
 20
4.8347044516
 11
4.1187070785
 21
4.8428579691
  0
LINE
  5
21D
100
AcDbEntity
  8
0
100
AcDbLine
 62
7
  6
CONTINUOUS
 10
4.1047670239
 20
4.8762516198
 11
4.0966138109
 21
4.8844048328
  0
LINE
  5
21E
100
AcDbEntity
  8
0
100
AcDbLine
 62
7
  6
CONTINUOUS
 10
4.2214254559
 20
4.8347044516
 11
4.2132719383
 21
4.8428579691
  0
LINE
  5
21F
100
AcDbEntity
  8
0
100
AcDbLine
 62
7
  6
CONTINUOUS
 10
4.36128921
 20
4.8762516198
 11
4.353135997
 21
4.8844048328
  0
LINE
  5
220
100
AcDbEntity
  8
0
100
AcDbLine
 62
7
  6
CONTINUOUS
 10
4.4041107368
 20
4.8347044516
 11
4.3959572192
 21
4.8428579691
  0
LINE
  5
221
100
AcDbEntity
  8
0
100
AcDbLine
 62
7
  6
CONTINUOUS
 10
4.6154563009
 20
4.7159614993
 11
4.6026900427
 21
4.7287277574
  0
LINE
  5
222
100
AcDbEntity
  8
0
100
AcDbLine
 62
7
  6
CONTINUOUS
 10
4.6632263114
 20
4.7159614993
 11
4.6504600532
 21
4.7287277574
  0
LINE
  5
223
100
AcDbEntity
  8
0
100
AcDbLine
 62
7
  6
CONTINUOUS
 10
4.909462272
 20
4.6399770072
 11
4.8810852863
 21
4.7179421347
  0
LWPOLYLINE
  5
224
100
AcDbEntity
  8
0
100
AcDbPolyline
 62
7
  6
CONTINUOUS
 90
3
 70
0
 10
4.7441795497
 20
4.7671015132
 10
4.7454723192
 20
4.7623271962
 10
4.7454833561
 20
4.7618200738
  0
LINE
  5
225
100
AcDbEntity
  8
0
100
AcDbLine
 62
7
  6
CONTINUOUS
 10
4.6457039996
 20
4.7683035041
 11
4.6470011032
 21
4.7629617127
  0
LINE
  5
226
100
AcDbEntity
  8
0
100
AcDbLine
 62
7
  6
CONTINUOUS
 10
4.5987094844
 20
4.7669829386
 11
4.5992299474
 21
4.7635174278
  0
LINE
  5
227
100
AcDbEntity
  8
0
100
AcDbLine
 62
7
  6
CONTINUOUS
 10
4.6470006408
 20
4.7629615762
 11
4.6470006408
 21
4.7370794561
  0
LINE
  5
228
100
AcDbEntity
  8
0
100
AcDbLine
 62
7
  6
CONTINUOUS
 10
4.6485473138
 20
4.8990124017
 11
4.6485473138
 21
4.8567776867
  0
LINE
  5
229
100
AcDbEntity
  8
0
100
AcDbLine
 62
7
  6
CONTINUOUS
 10
4.6816760067
 20
4.9332446715
 11
4.6816760067
 21
4.8983248549
  0
LINE
  5
22A
100
AcDbEntity
  8
0
100
AcDbLine
 62
7
  6
CONTINUOUS
 10
4.7454801836
 20
4.7618186408
 11
4.7454801836
 21
4.7370794561
  0
LINE
  5
22B
100
AcDbEntity
  8
0
100
AcDbLine
 62
7
  6
CONTINUOUS
 10
4.7902795972
 20
4.8704860053
 11
4.7902795972
 21
4.8567776867
  0
LINE
  5
22C
100
AcDbEntity
  8
0
100
AcDbLine
 62
7
  6
CONTINUOUS
 10
4.8470303374
 20
4.9273230851
 11
4.8470303374
 21
4.8983248549
  0
LINE
  5
22D
100
AcDbEntity
  8
0
100
AcDbLine
 62
7
  6
CONTINUOUS
 10
4.8872124671
 20
4.7442878447
 11
4.8872124671
 21
4.7370794561
  0
LINE
  5
22E
100
AcDbEntity
  8
0
100
AcDbLine
 62
7
  6
CONTINUOUS
 10
4.9214397863
 20
8.9678565388
 11
4.9214397863
 21
8.9956134541
  0
LINE
  5
22F
100
AcDbEntity
  8
0
100
AcDbLine
 62
7
  6
CONTINUOUS
 10
4.9214397863
 20
9.110395857
 11
4.9214397863
 21
9.145395857
  0
LINE
  5
230
100
AcDbEntity
  8
0
100
AcDbLine
 62
7
  6
CONTINUOUS
 10
4.964967502
 20
4.8957993362
 11
4.964967502
 21
4.8567776867
  0
LINE
  5
231
100
AcDbEntity
  8
0
100
AcDbLine
 62
7
  6
CONTINUOUS
 10
5.0014397863
 20
9.160395857
 11
5.0014397863
 21
9.620395857
  0
LINE
  5
232
100
AcDbEntity
  8
0
100
AcDbLine
 62
7
  6
CONTINUOUS
 10
5.0709838473
 20
4.9332446715
 11
5.0709838473
 21
4.8983248549
  0
LINE
  5
233
100
AcDbEntity
  8
0
100
AcDbLine
 62
7
  6
CONTINUOUS
 10
5.0874397863
 20
6.6381601019
 11
5.0874397863
 21
6.6581601019
  0
LINE
  5
234
100
AcDbEntity
  8
0
100
AcDbLine
 62
7
  6
CONTINUOUS
 10
5.1066997854
 20
4.8704860053
 11
5.1066997854
 21
4.8567776867
  0
LWPOLYLINE
  5
235
100
AcDbEntity
  8
0
100
AcDbPolyline
 62
7
  6
CONTINUOUS
 90
4
 70
0
 10
4.7402894058
 20
4.7712060585
 10
4.7403104139
 20
4.771187929
 10
4.7417402279
 20
4.7701877261
 10
4.7441795497
 20
4.7671015132
  0
LINE
  5
236
100
AcDbEntity
  8
0
100
AcDbLine
 62
7
  6
CONTINUOUS
 10
4.7617058542
 20
4.7159614993
 11
4.748939596
 21
4.7287277575
  0
LINE
  5
237
100
AcDbEntity
  8
0
100
AcDbLine
 62
7
  6
CONTINUOUS
 10
4.6624667386
 20
4.8347044516
 11
4.654313221
 21
4.8428579691
  0
LINE
  5
238
100
AcDbEntity
  8
0
100
AcDbLine
 62
7
  6
CONTINUOUS
 10
4.6955954316
 20
4.8762516198
 11
4.6874422185
 21
4.8844048329
  0
LINE
  5
239
100
AcDbEntity
  8
0
100
AcDbLine
 62
7
  6
CONTINUOUS
 10
4.9869882817
 20
4.613105223
 11
4.9788350605
 21
4.6212584442
  0
LINE
  5
23A
100
AcDbEntity
  8
0
100
AcDbLine
 62
7
  6
CONTINUOUS
 10
5.0794049952
 20
4.613105223
 11
5.0712517757
 21
4.6212584425
  0
LINE
  5
23B
100
AcDbEntity
  8
0
100
AcDbLine
 62
7
  6
CONTINUOUS
 10
4.9788869268
 20
4.8347044516
 11
4.9707334093
 21
4.8428579691
  0
LINE
  5
23C
100
AcDbEntity
  8
0
100
AcDbLine
 62
7
  6
CONTINUOUS
 10
5.0849032721
 20
4.8762516198
 11
5.0767500592
 21
4.8844048328
  0
LINE
  5
23D
100
AcDbEntity
  8
0
100
AcDbLine
 62
7
  6
CONTINUOUS
 10
5.3886373458
 20
4.613105223
 11
5.3804841246
 21
4.6212584442
  0
LINE
  5
23E
100
AcDbEntity
  8
0
100
AcDbLine
 62
7
  6
CONTINUOUS
 10
5.3208106884
 20
4.7159614993
 11
5.3080444302
 21
4.7287277574
  0
LINE
  5
23F
100
AcDbEntity
  8
0
100
AcDbLine
 62
7
  6
CONTINUOUS
 10
5.3318077885
 20
4.8347044516
 11
5.3236542709
 21
4.8428579691
  0
LINE
  5
240
100
AcDbEntity
  8
0
100
AcDbLine
 62
7
  6
CONTINUOUS
 10
5.1964397863
 20
8.0126161301
 11
5.1964397863
 21
6.9323374156
  0
LINE
  5
241
100
AcDbEntity
  8
0
100
AcDbLine
 62
7
  6
CONTINUOUS
 10
5.236338178
 20
4.9319565667
 11
5.236338178
 21
4.8983248549
  0
LINE
  5
242
100
AcDbEntity
  8
0
100
AcDbLine
 62
7
  6
CONTINUOUS
 10
5.2589397863
 20
8.759395857
 11
5.2589397863
 21
8.755395857
  0
LINE
  5
243
100
AcDbEntity
  8
0
100
AcDbLine
 62
7
  6
CONTINUOUS
 10
5.3045850177
 20
4.7553258121
 11
5.3045850177
 21
4.7370794561
  0
LINE
  5
244
100
AcDbEntity
  8
0
100
AcDbLine
 62
7
  6
CONTINUOUS
 10
5.3178883637
 20
4.8922173442
 11
5.3178883637
 21
4.8567776867
  0
LINE
  5
245
100
AcDbEntity
  8
0
100
AcDbLine
 62
7
  6
CONTINUOUS
 10
5.4463172925
 20
4.7507755365
 11
5.4463173012
 21
4.7370794561
  0
LINE
  5
246
100
AcDbEntity
  8
0
100
AcDbLine
 62
7
  6
CONTINUOUS
 10
5.4596206471
 20
4.8885109284
 11
5.4596206471
 21
4.8567776867
  0
LINE
  5
247
100
AcDbEntity
  8
0
100
AcDbLine
 62
7
  6
CONTINUOUS
 10
5.4887626209
 20
4.9332446715
 11
5.4887626209
 21
4.8983248549
  0
LINE
  5
248
100
AcDbEntity
  8
0
100
AcDbLine
 62
7
  6
CONTINUOUS
 10
5.5242771804
 20
4.7527748812
 11
5.5242771804
 21
4.7370794561
  0
LINE
  5
249
100
AcDbEntity
  8
0
100
AcDbLine
 62
9
  6
CONTINUOUS
 10
5.5714398535
 20
8.9392049806
 11
5.5714386777
 21
8.7782300225
  0
LINE
  5
24A
100
AcDbEntity
  8
0
100
AcDbLine
 62
7
  6
CONTINUOUS
 10
5.6541169516
 20
4.9332446715
 11
5.6541169516
 21
4.8983248549
  0
LINE
  5
24B
100
AcDbEntity
  8
0
100
AcDbLine
 62
7
  6
CONTINUOUS
 10
5.6660094425
 20
4.7533288233
 11
5.6660094639
 21
4.7370794561
  0
LINE
  5
24C
100
AcDbEntity
  8
0
100
AcDbLine
 62
7
  6
CONTINUOUS
 10
5.6832589254
 20
4.8885109275
 11
5.6832589254
 21
4.8567776867
  0
LINE
  5
24D
100
AcDbEntity
  8
0
100
AcDbLine
 62
7
  6
CONTINUOUS
 10
5.5242771804
 20
4.7527748812
 11
5.5242772603
 21
4.7527905638
  0
LWPOLYLINE
  5
24E
100
AcDbEntity
  8
0
100
AcDbPolyline
 62
7
  6
CONTINUOUS
 90
3
 70
0
 10
4.8872109999
 20
4.7442893763
 10
4.8878989703
 20
4.7481929816
 10
4.8902397751
 20
4.7520188817
  0
LINE
  5
24F
100
AcDbEntity
  8
0
100
AcDbLine
 62
7
  6
CONTINUOUS
 10
5.1332109351
 20
6.7545714064
 11
5.1764397523
 21
6.8876160257
  0
LINE
  5
250
100
AcDbEntity
  8
0
100
AcDbLine
 62
7
  6
CONTINUOUS
 10
5.540502851
 20
4.7159614993
 11
5.5277365928
 21
4.7287277574
  0
LINE
  5
251
100
AcDbEntity
  8
0
100
AcDbLine
 62
7
  6
CONTINUOUS
 10
5.7335412164
 20
4.613105223
 11
5.7253879968
 21
4.6212584425
  0
LINE
  5
252
100
AcDbEntity
  8
0
100
AcDbLine
 62
7
  6
CONTINUOUS
 10
5.5026820457
 20
4.8762516198
 11
5.4945288328
 21
4.8844048328
  0
LINE
  5
253
100
AcDbEntity
  8
0
100
AcDbLine
 62
7
  6
CONTINUOUS
 10
5.7587868211
 20
4.7159614993
 11
5.7460205629
 21
4.7287277574
  0
LINE
  5
254
100
AcDbEntity
  8
0
100
AcDbLine
 62
7
  6
CONTINUOUS
 10
5.6971783502
 20
4.8347044516
 11
5.6890248326
 21
4.8428579691
  0
LINE
  5
255
100
AcDbEntity
  8
0
100
AcDbLine
 62
7
  6
CONTINUOUS
 10
5.9204608193
 20
4.8762516198
 11
5.9123076064
 21
4.8844048328
  0
LINE
  5
256
100
AcDbEntity
  8
0
100
AcDbLine
 62
7
  6
CONTINUOUS
 10
6.0500992119
 20
4.8347044516
 11
6.0419456943
 21
4.8428579691
  0
LWPOLYLINE
  5
257
100
AcDbEntity
  8
0
100
AcDbPolyline
 62
7
  6
CONTINUOUS
 90
3
 70
0
 10
6.2777116711
 20
4.7518050075
 10
6.2802369909
 20
4.7475122595
 10
6.2807886482
 20
4.743995991
  0
LINE
  5
258
100
AcDbEntity
  8
0
100
AcDbLine
 62
7
  6
CONTINUOUS
 10
5.7425611504
 20
4.7502401145
 11
5.7425611504
 21
4.7370794561
  0
LINE
  5
259
100
AcDbEntity
  8
0
100
AcDbLine
 62
7
  6
CONTINUOUS
 10
5.8249912088
 20
4.8922173433
 11
5.8249912088
 21
4.8567776867
  0
LINE
  5
25A
100
AcDbEntity
  8
0
100
AcDbLine
 62
7
  6
CONTINUOUS
 10
5.8839397863
 20
8.759395857
 11
5.8839397863
 21
8.755395857
  0
LINE
  5
25B
100
AcDbEntity
  8
0
100
AcDbLine
 62
7
  6
CONTINUOUS
 10
5.8842934311
 20
4.7558592503
 11
5.8842934339
 21
4.7370794561
  0
LINE
  5
25C
100
AcDbEntity
  8
0
100
AcDbLine
 62
7
  6
CONTINUOUS
 10
5.9065413945
 20
4.9319566015
 11
5.9065413945
 21
4.8983248549
  0
LINE
  5
25D
100
AcDbEntity
  8
0
100
AcDbLine
 62
7
  6
CONTINUOUS
 10
5.9464397863
 20
8.0126161301
 11
5.9464397863
 21
6.9323374156
  0
LINE
  5
25E
100
AcDbEntity
  8
0
100
AcDbLine
 62
7
  6
CONTINUOUS
 10
6.0361797871
 20
4.8704860053
 11
6.0361797871
 21
4.8567776867
  0
LINE
  5
25F
100
AcDbEntity
  8
0
100
AcDbLine
 62
7
  6
CONTINUOUS
 10
6.0554397863
 20
6.6381601019
 11
6.0554397863
 21
6.6581601019
  0
LINE
  5
260
100
AcDbEntity
  8
0
100
AcDbLine
 62
7
  6
CONTINUOUS
 10
6.0718957252
 20
4.9332446715
 11
6.0718957252
 21
4.8983248549
  0
LINE
  5
261
100
AcDbEntity
  8
0
100
AcDbLine
 62
7
  6
CONTINUOUS
 10
6.1414397863
 20
9.160395857
 11
6.1414397863
 21
9.620395857
  0
LINE
  5
262
100
AcDbEntity
  8
0
100
AcDbLine
 62
7
  6
CONTINUOUS
 10
6.1779120705
 20
4.895799337
 11
6.1779120705
 21
4.8567776867
  0
LINE
  5
263
100
AcDbEntity
  8
0
100
AcDbLine
 62
7
  6
CONTINUOUS
 10
6.2214397863
 20
8.9678565387
 11
6.2214397863
 21
8.9956134541
  0
LINE
  5
264
100
AcDbEntity
  8
0
100
AcDbLine
 62
7
  6
CONTINUOUS
 10
6.2214397863
 20
9.110395857
 11
6.2214397863
 21
9.145395857
  0
LWPOLYLINE
  5
265
100
AcDbEntity
  8
0
100
AcDbPolyline
 62
7
  6
CONTINUOUS
 90
5
 70
0
 10
5.6660076209
 20
4.7533310948
 10
5.6660285557
 20
4.7539933067
 10
5.6674895329
 20
4.7586645673
 10
5.669573158
 20
4.7610145132
 10
5.6699425769
 20
4.7612664364
  0
LINE
  5
266
100
AcDbEntity
  8
0
100
AcDbLine
 62
7
  6
CONTINUOUS
 10
6.2970146967
 20
4.7159614993
 11
6.2842484385
 21
4.7287277574
  0
LINE
  5
267
100
AcDbEntity
  8
0
100
AcDbLine
 62
7
  6
CONTINUOUS
 10
6.3097686599
 20
4.8762516198
 11
6.301615447
 21
4.8844048328
  0
LINE
  5
268
100
AcDbEntity
  8
0
100
AcDbLine
 62
7
  6
CONTINUOUS
 10
6.3665194001
 20
4.8347044516
 11
6.3583658825
 21
4.8428579691
  0
LINE
  5
269
100
AcDbEntity
  8
0
100
AcDbLine
 62
7
  6
CONTINUOUS
 10
6.6248754019
 20
4.8347044516
 11
6.6167218843
 21
4.8428579691
  0
LINE
  5
26A
100
AcDbEntity
  8
0
100
AcDbLine
 62
7
  6
CONTINUOUS
 10
6.6440748815
 20
4.8762516198
 11
6.6359216686
 21
4.8844048328
  0
LINE
  5
26B
100
AcDbEntity
  8
0
100
AcDbLine
 62
7
  6
CONTINUOUS
 10
6.8075606828
 20
4.8347044516
 11
6.7994071652
 21
4.8428579691
  0
LINE
  5
26C
100
AcDbEntity
  8
0
100
AcDbLine
 62
7
  6
CONTINUOUS
 10
6.0096686375
 20
6.7545714064
 11
5.9664398202
 21
6.8876160257
  0
LINE
  5
26D
100
AcDbEntity
  8
0
100
AcDbLine
 62
7
  6
CONTINUOUS
 10
6.280789026
 20
4.7439969668
 11
6.280789026
 21
4.7370794561
  0
LINE
  5
26E
100
AcDbEntity
  8
0
100
AcDbLine
 62
7
  6
CONTINUOUS
 10
6.2958492351
 20
4.927323093
 11
6.2958492351
 21
4.8983248549
  0
LINE
  5
26F
100
AcDbEntity
  8
0
100
AcDbLine
 62
7
  6
CONTINUOUS
 10
6.3525999753
 20
4.8704860053
 11
6.3525999753
 21
4.8567776867
  0
LINE
  5
270
100
AcDbEntity
  8
0
100
AcDbLine
 62
7
  6
CONTINUOUS
 10
6.4225213095
 20
4.7621097637
 11
6.4225213095
 21
4.7370794561
  0
LINE
  5
271
100
AcDbEntity
  8
0
100
AcDbLine
 62
7
  6
CONTINUOUS
 10
6.4612035658
 20
4.9332446715
 11
6.4612035658
 21
4.8983248549
  0
LINE
  5
272
100
AcDbEntity
  8
0
100
AcDbLine
 62
7
  6
CONTINUOUS
 10
6.4943322587
 20
4.8990124323
 11
6.4943322587
 21
4.8567776867
  0
LINE
  5
273
100
AcDbEntity
  8
0
100
AcDbLine
 62
7
  6
CONTINUOUS
 10
6.5105285226
 20
4.7631327814
 11
6.5105285226
 21
4.7370794561
  0
LINE
  5
274
100
AcDbEntity
  8
0
100
AcDbLine
 62
7
  6
CONTINUOUS
 10
6.5469558924
 20
4.7635543868
 11
6.5469558924
 21
4.7370794561
  0
LINE
  5
275
100
AcDbEntity
  8
0
100
AcDbLine
 62
7
  6
CONTINUOUS
 10
6.5714397863
 20
10.275395857
 11
6.5714397863
 21
10.350395857
  0
LINE
  5
276
100
AcDbEntity
  8
0
100
AcDbLine
 62
7
  6
CONTINUOUS
 10
6.5715721744
 20
10.025395857
 11
6.5715721744
 21
10.075395857
  0
LINE
  5
277
100
AcDbEntity
  8
0
100
AcDbLine
 62
7
  6
CONTINUOUS
 10
6.6109559771
 20
4.8791089242
 11
6.6109559771
 21
4.8567776867
  0
LINE
  5
278
100
AcDbEntity
  8
0
100
AcDbLine
 62
7
  6
CONTINUOUS
 10
6.6301554567
 20
4.9233466763
 11
6.6301554567
 21
4.8983248549
  0
LINE
  5
279
100
AcDbEntity
  8
0
100
AcDbLine
 62
7
  6
CONTINUOUS
 10
6.7328571091
 20
4.808531625
 11
6.7328571091
 21
4.8017581345
  0
LINE
  5
27A
100
AcDbEntity
  8
0
100
AcDbLine
 62
7
  6
CONTINUOUS
 10
6.7526882606
 20
4.8704860053
 11
6.7526882606
 21
4.8567776867
  0
LINE
  5
27B
100
AcDbEntity
  8
0
100
AcDbLine
 62
7
  6
CONTINUOUS
 10
6.5105288188
 20
4.7631325344
 11
6.5105473721
 21
4.7637976572
  0
LWPOLYLINE
  5
27C
100
AcDbEntity
  8
0
100
AcDbPolyline
 62
7
  6
CONTINUOUS
 90
4
 70
0
 10
5.8842935898
 20
4.7558599084
 10
5.8856464577
 20
4.7610003228
 10
5.8876484128
 20
4.7634133561
 10
5.8881461284
 20
4.7637735606
  0
LWPOLYLINE
  5
27D
100
AcDbEntity
  8
0
100
AcDbPolyline
 62
7
  6
CONTINUOUS
 90
4
 70
0
 10
5.4463177565
 20
4.7507783625
 10
5.4476963861
 20
4.7559678137
 10
5.4498232708
 20
4.7584925662
 10
5.4505384921
 20
4.7589900885
  0
LWPOLYLINE
  5
27E
100
AcDbEntity
  8
0
100
AcDbPolyline
 62
7
  6
CONTINUOUS
 90
5
 70
0
 10
4.6406737601
 20
4.7732401643
 10
4.6404521342
 20
4.7733124468
 10
4.6410411892
 20
4.7730454056
 10
4.6430141008
 20
4.7717108778
 10
4.6457039996
 20
4.7683035041
  0
LWPOLYLINE
  5
27F
100
AcDbEntity
  8
0
100
AcDbPolyline
 62
7
  6
CONTINUOUS
 90
5
 70
0
 10
5.7384338258
 20
4.7584909942
 10
5.7381125192
 20
4.7586191423
 10
5.7390362385
 20
4.7579981422
 10
5.7412561457
 20
4.7553115702
 10
5.7425616798
 20
4.7502379164
  0
LWPOLYLINE
  5
280
100
AcDbEntity
  8
0
100
AcDbPolyline
 62
7
  6
CONTINUOUS
 90
6
 70
0
 10
5.3018329304
 20
4.7627637567
 10
5.3008641567
 20
4.7631595782
 10
5.3011381942
 20
4.7629376075
 10
5.3031621957
 20
4.7605819356
 10
5.3045687997
 20
4.7559614077
 10
5.3045877469
 20
4.755328491
  0
LWPOLYLINE
  5
281
100
AcDbEntity
  8
0
100
AcDbPolyline
 62
7
  6
CONTINUOUS
 90
5
 70
0
 10
5.5204910362
 20
4.7606705441
 10
5.5203088673
 20
4.7607470304
 10
5.521735032
 20
4.7595333439
 10
5.5238152424
 20
4.7558439759
 10
5.5242767784
 20
4.7527884498
  0
LINE
  5
282
100
AcDbEntity
  8
0
100
AcDbLine
 62
7
  6
CONTINUOUS
 10
6.9005970676
 20
4.8762516198
 11
6.8924435059
 21
4.8844051815
  0
LINE
  5
283
100
AcDbEntity
  8
0
100
AcDbLine
 62
7
  6
CONTINUOUS
 10
7.0618536551
 20
4.8762516198
 11
7.0537004422
 21
4.8844048328
  0
LINE
  5
284
100
AcDbEntity
  8
0
100
AcDbLine
 62
7
  6
CONTINUOUS
 10
6.7936412579
 20
4.8772589632
 11
6.7936412579
 21
4.8567776867
  0
LINE
  5
285
100
AcDbEntity
  8
0
100
AcDbLine
 62
7
  6
CONTINUOUS
 10
6.7955097874
 20
4.9332446715
 11
6.7955097874
 21
4.8983248549
  0
LINE
  5
286
100
AcDbEntity
  8
0
100
AcDbLine
 62
7
  6
CONTINUOUS
 10
6.8866776428
 20
4.9202970074
 11
6.8866776428
 21
4.8983248549
  0
LINE
  5
287
100
AcDbEntity
  8
0
100
AcDbLine
 62
7
  6
CONTINUOUS
 10
6.9353735414
 20
4.8704860053
 11
6.9353735414
 21
4.8567776867
  0
LINE
  5
288
100
AcDbEntity
  8
0
100
AcDbLine
 62
7
  6
CONTINUOUS
 10
7.0299384013
 20
4.8716287613
 11
7.0299384013
 21
4.8567776867
  0
LINE
  5
289
100
AcDbEntity
  8
0
100
AcDbLine
 62
7
  6
CONTINUOUS
 10
7.0520319735
 20
4.9332446715
 11
7.0520319735
 21
4.8983248549
  0
LINE
  5
28A
100
AcDbEntity
  8
0
100
AcDbLine
 62
7
  6
CONTINUOUS
 10
7.1914397863
 20
5.9020268617
 11
7.1914397863
 21
5.8680384291
  0
LINE
  5
28B
100
AcDbEntity
  8
0
100
AcDbLine
 62
7
  6
CONTINUOUS
 10
7.213288561
 20
4.9332446715
 11
7.213288561
 21
4.8983248549
  0
LINE
  5
28C
100
AcDbEntity
  8
0
100
AcDbLine
 62
7
  6
CONTINUOUS
 10
7.26829018
 20
4.8983248549
 11
7.26829018
 21
4.9332446715
  0
LINE
  5
28D
100
AcDbEntity
  8
0
100
AcDbLine
 62
7
  6
CONTINUOUS
 10
6.5469567699
 20
4.7635559259
 11
6.5471695046
 21
4.7657876877
  0
LINE
  5
28E
100
AcDbEntity
  8
0
100
AcDbLine
 62
7
  6
CONTINUOUS
 10
6.4225176859
 20
4.7621094297
 11
6.423734407
 21
4.7672399314
  0
LINE
  5
28F
100
AcDbEntity
  8
0
100
AcDbLine
 62
7
  6
CONTINUOUS
 10
4.3092740827
 20
4.8238714009
 11
4.3982114399
 21
4.808531625
  0
LWPOLYLINE
  5
290
100
AcDbEntity
  8
0
100
AcDbPolyline
 62
7
  6
CONTINUOUS
 90
7
 70
0
 10
4.5907210038
 20
4.7748198772
 10
4.5906604724
 20
4.7748326294
 10
4.5911774036
 20
4.7746848264
 10
4.5927936136
 20
4.7740191474
 10
4.5950636527
 20
4.7725127224
 10
4.5971700198
 20
4.7701780554
 10
4.5987094844
 20
4.7669829386
  0
LINE
  5
291
100
AcDbEntity
  8
0
100
AcDbLine
 62
7
  6
CONTINUOUS
 10
7.4764397863
 20
5.6794545324
 11
7.4764397863
 21
5.4964057049
  0
LINE
  5
292
100
AcDbEntity
  8
0
100
AcDbLine
 62
7
  6
CONTINUOUS
 10
6.5105473721
 20
4.7637976572
 11
6.5119044668
 21
4.7686346062
  0
LWPOLYLINE
  5
293
100
AcDbEntity
  8
0
100
AcDbPolyline
 62
7
  6
CONTINUOUS
 90
7
 70
0
 10
6.5471695046
 20
4.7657876877
 10
6.5481956421
 20
4.7688228619
 10
6.5498754461
 20
4.7713292054
 10
6.5519608232
 20
4.7732069655
 10
6.5541758032
 20
4.7744344032
 10
6.5556549243
 20
4.7749414904
 10
6.5561472425
 20
4.7750596051
  0
LINE
  5
294
100
AcDbEntity
  8
0
100
AcDbLine
 62
7
  6
CONTINUOUS
 10
6.2334173005
 20
4.6399770072
 11
6.2617942862
 21
4.7179421347
  0
LINE
  5
295
100
AcDbEntity
  8
0
100
AcDbLine
 62
7
  6
CONTINUOUS
 10
3.8050208835
 20
4.9332446715
 11
3.8030773633
 21
4.9334882971
  0
LWPOLYLINE
  5
296
100
AcDbEntity
  8
0
100
AcDbPolyline
 62
7
  6
CONTINUOUS
 90
5
 70
0
 10
6.2732648485
 20
4.7546458842
 10
6.2730947414
 20
4.7546713024
 10
6.2732486247
 20
4.7546292613
 10
6.2747547105
 20
4.7540334034
 10
6.2777116711
 20
4.7518050075
  0
LINE
  5
297
100
AcDbEntity
  8
0
100
AcDbLine
 62
9
  6
CONTINUOUS
 10
6.5468884436
 20
4.7635658561
 11
6.5469558918
 21
4.7635544509
  0
LINE
  5
298
100
AcDbEntity
  8
0
100
AcDbLine
 62
7
  6
CONTINUOUS
 10
4.0810259174
 20
4.8762516198
 11
4.0891791304
 21
4.8844048328
  0
LINE
  5
299
100
AcDbEntity
  8
0
100
AcDbLine
 62
7
  6
CONTINUOUS
 10
4.2422825049
 20
4.8762516198
 11
4.2504357179
 21
4.8844048328
  0
LINE
  5
29A
100
AcDbEntity
  8
0
100
AcDbLine
 62
7
  6
CONTINUOUS
 10
4.3353188897
 20
4.8347044516
 11
4.3434724073
 21
4.8428579691
  0
LINE
  5
29B
100
AcDbEntity
  8
0
100
AcDbLine
 62
7
  6
CONTINUOUS
 10
4.498804691
 20
4.8762516198
 11
4.506957904
 21
4.8844048328
  0
LINE
  5
29C
100
AcDbEntity
  8
0
100
AcDbLine
 62
7
  6
CONTINUOUS
 10
4.5180041706
 20
4.8347044516
 11
4.5261576882
 21
4.8428579691
  0
LINE
  5
29D
100
AcDbEntity
  8
0
100
AcDbLine
 62
7
  6
CONTINUOUS
 10
5.0009188724
 20
4.6073396085
 11
5.3954176247
 21
4.6073396085
  0
LINE
  5
29E
100
AcDbEntity
  8
0
100
AcDbLine
 62
7
  6
CONTINUOUS
 10
5.4025644259
 20
4.6073396085
 11
5.6185249594
 21
4.6073396085
  0
LINE
  5
29F
100
AcDbEntity
  8
0
100
AcDbLine
 62
7
  6
CONTINUOUS
 10
5.6896132383
 20
4.6073396085
 11
5.7403151466
 21
4.6073396085
  0
LINE
  5
2A0
100
AcDbEntity
  8
0
100
AcDbLine
 62
7
  6
CONTINUOUS
 10
5.7474619478
 20
4.6073396085
 11
6.1419607001
 21
4.6073396085
  0
LINE
  5
2A1
100
AcDbEntity
  8
0
100
AcDbLine
 62
9
  6
CONTINUOUS
 10
4.9869889048
 20
4.6131045999
 11
5.3616431206
 21
4.6131045998
  0
LINE
  5
2A2
100
AcDbEntity
  8
0
100
AcDbLine
 62
9
  6
CONTINUOUS
 10
5.388637969
 20
4.6131045999
 11
5.6324514163
 21
4.6131045999
  0
LINE
  5
2A3
100
AcDbEntity
  8
0
100
AcDbLine
 62
9
  6
CONTINUOUS
 10
5.7335418395
 20
4.6131045998
 11
6.1558906677
 21
4.6131045999
  0
LINE
  5
2A4
100
AcDbEntity
  8
0
100
AcDbLine
 62
7
  6
CONTINUOUS
 10
3.9621574904
 20
4.6131535082
 11
3.9529278039
 21
4.6131535082
  0
LINE
  5
2A5
100
AcDbEntity
  8
0
100
AcDbLine
 62
9
  6
CONTINUOUS
 10
3.9529278145
 20
4.6131535082
 11
3.9529799069
 21
4.6131535117
  0
LINE
  5
2A6
100
AcDbEntity
  8
0
100
AcDbLine
 62
9
  6
CONTINUOUS
 10
5.7286204363
 20
4.618026003
 11
5.6373728195
 21
4.618026003
  0
LINE
  5
2A7
100
AcDbEntity
  8
0
100
AcDbLine
 62
9
  6
CONTINUOUS
 10
5.3837165658
 20
4.618026003
 11
5.3281404689
 21
4.618026003
  0
LINE
  5
2A8
100
AcDbEntity
  8
0
100
AcDbLine
 62
9
  6
CONTINUOUS
 10
6.164044512
 20
4.6212584442
 11
5.7253879968
 21
4.6212584425
  0
LINE
  5
2A9
100
AcDbEntity
  8
0
100
AcDbLine
 62
9
  6
CONTINUOUS
 10
5.6406052606
 20
4.6212584442
 11
5.3804841246
 21
4.6212584442
  0
LINE
  5
2AA
100
AcDbEntity
  8
0
100
AcDbLine
 62
9
  6
CONTINUOUS
 10
5.3313729084
 20
4.6212584425
 11
4.9788481534
 21
4.6212584442
  0
LINE
  5
2AB
100
AcDbEntity
  8
0
100
AcDbLine
 62
7
  6
CONTINUOUS
 10
4.9279637414
 20
4.6270246479
 11
6.2149158311
 21
4.6270246479
  0
LINE
  5
2AC
100
AcDbEntity
  8
0
100
AcDbLine
 62
9
  6
CONTINUOUS
 10
4.9094622832
 20
4.6399769766
 11
6.2334172894
 21
4.6399769766
  0
LINE
  5
2AD
100
AcDbEntity
  8
0
100
AcDbLine
 62
7
  6
CONTINUOUS
 10
4.6238080121
 20
4.7125021305
 11
4.7641447615
 21
4.7125021305
  0
LINE
  5
2AE
100
AcDbEntity
  8
0
100
AcDbLine
 62
7
  6
CONTINUOUS
 10
4.7700617188
 20
4.7125021305
 11
4.8830652859
 21
4.7125021305
  0
LINE
  5
2AF
100
AcDbEntity
  8
0
100
AcDbLine
 62
7
  6
CONTINUOUS
 10
5.3291674438
 20
4.7125021305
 11
5.4217348751
 21
4.7125021305
  0
LINE
  5
2B0
100
AcDbEntity
  8
0
100
AcDbLine
 62
7
  6
CONTINUOUS
 10
5.5488610585
 20
4.7125021305
 11
5.6414255858
 21
4.7125021305
  0
LINE
  5
2B1
100
AcDbEntity
  8
0
100
AcDbLine
 62
7
  6
CONTINUOUS
 10
5.7671450745
 20
4.7125021305
 11
5.8597095098
 21
4.7125021305
  0
LINE
  5
2B2
100
AcDbEntity
  8
0
100
AcDbLine
 62
7
  6
CONTINUOUS
 10
6.2598142866
 20
4.7125021305
 11
6.2959100729
 21
4.7125021305
  0
LINE
  5
2B3
100
AcDbEntity
  8
0
100
AcDbLine
 62
7
  6
CONTINUOUS
 10
6.3053690072
 20
4.7125021305
 11
6.5223680358
 21
4.7125021305
  0
LINE
  5
2B4
100
AcDbEntity
  8
0
100
AcDbLine
 62
9
  6
CONTINUOUS
 10
4.6154563378
 20
4.7159614624
 11
4.8818061921
 21
4.7159614624
  0
LINE
  5
2B5
100
AcDbEntity
  8
0
100
AcDbLine
 62
9
  6
CONTINUOUS
 10
5.3208107253
 20
4.7159614624
 11
5.4300915936
 21
4.7159614624
  0
LINE
  5
2B6
100
AcDbEntity
  8
0
100
AcDbLine
 62
9
  6
CONTINUOUS
 10
5.5405028879
 20
4.7159614624
 11
5.6497837563
 21
4.7159614624
  0
LINE
  5
2B7
100
AcDbEntity
  8
0
100
AcDbLine
 62
9
  6
CONTINUOUS
 10
5.758786858
 20
4.7159614624
 11
5.8680677263
 21
4.7159614624
  0
LINE
  5
2B8
100
AcDbEntity
  8
0
100
AcDbLine
 62
9
  6
CONTINUOUS
 10
6.2610733806
 20
4.7159614628
 11
6.5307301849
 21
4.7159614624
  0
LINE
  5
2B9
100
AcDbEntity
  8
0
100
AcDbLine
 62
9
  6
CONTINUOUS
 10
6.2617942862
 20
4.7179421347
 11
5.8700483987
 21
4.7179421347
  0
LINE
  5
2BA
100
AcDbEntity
  8
0
100
AcDbLine
 62
9
  6
CONTINUOUS
 10
5.7568061856
 20
4.7179421347
 11
5.6517644287
 21
4.7179421347
  0
LINE
  5
2BB
100
AcDbEntity
  8
0
100
AcDbLine
 62
9
  6
CONTINUOUS
 10
5.5385222156
 20
4.7179421347
 11
5.432072266
 21
4.7179421347
  0
LINE
  5
2BC
100
AcDbEntity
  8
0
100
AcDbLine
 62
9
  6
CONTINUOUS
 10
5.3188300529
 20
4.7179421347
 11
4.8810852863
 21
4.7179421347
  0
LINE
  5
2BD
100
AcDbEntity
  8
0
100
AcDbLine
 62
9
  6
CONTINUOUS
 10
6.54349648
 20
4.7287277574
 11
6.5072589815
 21
4.7287277574
  0
LINE
  5
2BE
100
AcDbEntity
  8
0
100
AcDbLine
 62
9
  6
CONTINUOUS
 10
6.5070691101
 20
4.7287277574
 11
6.26800666
 21
4.7287277574
  0
LINE
  5
2BF
100
AcDbEntity
  8
0
100
AcDbLine
 62
9
  6
CONTINUOUS
 10
5.8808340214
 20
4.7287277574
 11
5.7460205629
 21
4.7287277574
  0
LINE
  5
2C0
100
AcDbEntity
  8
0
100
AcDbLine
 62
9
  6
CONTINUOUS
 10
5.6625500514
 20
4.7287277574
 11
5.5277365928
 21
4.7287277574
  0
LINE
  5
2C1
100
AcDbEntity
  8
0
100
AcDbLine
 62
9
  6
CONTINUOUS
 10
5.4428578887
 20
4.7287277574
 11
5.3080444302
 21
4.7287277574
  0
LINE
  5
2C2
100
AcDbEntity
  8
0
100
AcDbLine
 62
9
  6
CONTINUOUS
 10
4.8837530547
 20
4.7287277575
 11
4.6026900427
 21
4.7287277574
  0
LINE
  5
2C3
100
AcDbEntity
  8
0
100
AcDbLine
 62
9
  6
CONTINUOUS
 10
4.5992306303
 20
4.7370794561
 11
4.8872124671
 21
4.7370794561
  0
LINE
  5
2C4
100
AcDbEntity
  8
0
100
AcDbLine
 62
9
  6
CONTINUOUS
 10
5.3045850177
 20
4.7370794561
 11
5.4463173012
 21
4.7370794561
  0
LINE
  5
2C5
100
AcDbEntity
  8
0
100
AcDbLine
 62
9
  6
CONTINUOUS
 10
5.5242771804
 20
4.7370794561
 11
5.6660094639
 21
4.7370794561
  0
LINE
  5
2C6
100
AcDbEntity
  8
0
100
AcDbLine
 62
9
  6
CONTINUOUS
 10
5.7425611504
 20
4.7370794561
 11
5.8842934339
 21
4.7370794561
  0
LINE
  5
2C7
100
AcDbEntity
  8
0
100
AcDbLine
 62
9
  6
CONTINUOUS
 10
6.2772798203
 20
4.7370794561
 11
6.5469558924
 21
4.7370794561
  0
LINE
  5
2C8
100
AcDbEntity
  8
0
100
AcDbLine
 62
9
  6
CONTINUOUS
 10
5.7425611504
 20
4.7436445878
 11
5.6660094639
 21
4.7436445878
  0
LINE
  5
2C9
100
AcDbEntity
  8
0
100
AcDbLine
 62
9
  6
CONTINUOUS
 10
5.5242771804
 20
4.7436445878
 11
5.4463173012
 21
4.7436445878
  0
LINE
  5
2CA
100
AcDbEntity
  8
0
100
AcDbLine
 62
9
  6
CONTINUOUS
 10
5.3045850177
 20
4.7436445878
 11
4.887212467
 21
4.7436445878
  0
LINE
  5
2CB
100
AcDbEntity
  8
0
100
AcDbLine
 62
9
  6
CONTINUOUS
 10
6.280789026
 20
4.7436445878
 11
5.8842934339
 21
4.7436445878
  0
LINE
  5
2CC
100
AcDbEntity
  8
0
100
AcDbLine
 62
7
  6
CONTINUOUS
 10
4.4100224634
 20
4.8017581345
 11
6.7328571091
 21
4.8017581345
  0
LINE
  5
2CD
100
AcDbEntity
  8
0
100
AcDbLine
 62
7
  6
CONTINUOUS
 10
4.3982280934
 20
4.808531625
 11
6.744651995
 21
4.808531625
  0
LINE
  5
2CE
100
AcDbEntity
  8
0
100
AcDbLine
 62
9
  6
CONTINUOUS
 10
4.3092740827
 20
4.8238714009
 11
6.8336054899
 21
4.8238714008
  0
LINE
  5
2CF
100
AcDbEntity
  8
0
100
AcDbLine
 62
7
  6
CONTINUOUS
 10
4.140780399
 20
4.828938837
 11
4.2268318021
 21
4.828938837
  0
LINE
  5
2D0
100
AcDbEntity
  8
0
100
AcDbLine
 62
7
  6
CONTINUOUS
 10
4.2353518312
 20
4.828938837
 11
4.3213925145
 21
4.828938837
  0
LINE
  5
2D1
100
AcDbEntity
  8
0
100
AcDbLine
 62
7
  6
CONTINUOUS
 10
4.4180426872
 20
4.828938837
 11
4.5040722202
 21
4.828938837
  0
LINE
  5
2D2
100
AcDbEntity
  8
0
100
AcDbLine
 62
7
  6
CONTINUOUS
 10
4.6763952741
 20
4.828938837
 11
4.7624316369
 21
4.828938837
  0
LINE
  5
2D3
100
AcDbEntity
  8
0
100
AcDbLine
 62
7
  6
CONTINUOUS
 10
4.9928085591
 20
4.828938837
 11
5.0788587283
 21
4.828938837
  0
LINE
  5
2D4
100
AcDbEntity
  8
0
100
AcDbLine
 62
7
  6
CONTINUOUS
 10
5.3457302598
 20
4.828938837
 11
5.431778751
 21
4.828938837
  0
LINE
  5
2D5
100
AcDbEntity
  8
0
100
AcDbLine
 62
7
  6
CONTINUOUS
 10
5.7111075103
 20
4.828938837
 11
5.7971426239
 21
4.828938837
  0
LINE
  5
2D6
100
AcDbEntity
  8
0
100
AcDbLine
 62
7
  6
CONTINUOUS
 10
6.0640311114
 20
4.828938837
 11
6.1500607462
 21
4.828938837
  0
LINE
  5
2D7
100
AcDbEntity
  8
0
100
AcDbLine
 62
7
  6
CONTINUOUS
 10
6.3804470988
 20
4.828938837
 11
6.4664851353
 21
4.828938837
  0
LINE
  5
2D8
100
AcDbEntity
  8
0
100
AcDbLine
 62
7
  6
CONTINUOUS
 10
6.63879615
 20
4.828938837
 11
6.7248480877
 21
4.828938837
  0
LINE
  5
2D9
100
AcDbEntity
  8
0
100
AcDbLine
 62
7
  6
CONTINUOUS
 10
6.8214836037
 20
4.828938837
 11
6.9075311956
 21
4.828938837
  0
LINE
  5
2DA
100
AcDbEntity
  8
0
100
AcDbLine
 62
7
  6
CONTINUOUS
 10
6.9160648784
 20
4.828938837
 11
7.0020796407
 21
4.828938837
  0
LINE
  5
2DB
100
AcDbEntity
  8
0
100
AcDbLine
 62
9
  6
CONTINUOUS
 10
4.3296824582
 20
4.8309383816
 11
4.4097471683
 21
4.8309383816
  0
LINE
  5
2DC
100
AcDbEntity
  8
0
100
AcDbLine
 62
9
  6
CONTINUOUS
 10
4.5123677391
 20
4.8309383816
 11
4.6681031701
 21
4.8309383816
  0
LINE
  5
2DD
100
AcDbEntity
  8
0
100
AcDbLine
 62
9
  6
CONTINUOUS
 10
4.7707237409
 20
4.8309383816
 11
4.9845233583
 21
4.8309383816
  0
LINE
  5
2DE
100
AcDbEntity
  8
0
100
AcDbLine
 62
9
  6
CONTINUOUS
 10
5.0871439291
 20
4.8309383816
 11
5.33744422
 21
4.8309383816
  0
LINE
  5
2DF
100
AcDbEntity
  8
0
100
AcDbLine
 62
9
  6
CONTINUOUS
 10
5.4400647908
 20
4.8309383816
 11
5.7028147817
 21
4.8309383816
  0
LINE
  5
2E0
100
AcDbEntity
  8
0
100
AcDbLine
 62
9
  6
CONTINUOUS
 10
5.8054353525
 20
4.8309383816
 11
6.0557356434
 21
4.8309383816
  0
LINE
  5
2E1
100
AcDbEntity
  8
0
100
AcDbLine
 62
9
  6
CONTINUOUS
 10
6.1583562142
 20
4.8309383816
 11
6.3665194001
 21
4.8309383816
  0
LINE
  5
2E2
100
AcDbEntity
  8
0
100
AcDbLine
 62
9
  6
CONTINUOUS
 10
6.4747764024
 20
4.8309383816
 11
6.6248754019
 21
4.8309383816
  0
LINE
  5
2E3
100
AcDbEntity
  8
0
100
AcDbLine
 62
9
  6
CONTINUOUS
 10
6.7331324158
 20
4.8309383893
 11
6.8131971027
 21
4.8309383893
  0
LINE
  5
2E4
100
AcDbEntity
  8
0
100
AcDbLine
 62
9
  6
CONTINUOUS
 10
4.1268609185
 20
4.8347041291
 11
4.3353185673
 21
4.8347041291
  0
LINE
  5
2E5
100
AcDbEntity
  8
0
100
AcDbLine
 62
9
  6
CONTINUOUS
 10
4.4041110592
 20
4.8347041291
 11
4.5180038482
 21
4.8347041291
  0
LINE
  5
2E6
100
AcDbEntity
  8
0
100
AcDbLine
 62
9
  6
CONTINUOUS
 10
4.662467061
 20
4.8347041291
 11
4.77635985
 21
4.8347041291
  0
LINE
  5
2E7
100
AcDbEntity
  8
0
100
AcDbLine
 62
9
  6
CONTINUOUS
 10
4.9788872492
 20
4.8347041291
 11
5.0927800382
 21
4.8347041291
  0
LINE
  5
2E8
100
AcDbEntity
  8
0
100
AcDbLine
 62
9
  6
CONTINUOUS
 10
5.3318081109
 20
4.8347041291
 11
5.4457008999
 21
4.8347041291
  0
LINE
  5
2E9
100
AcDbEntity
  8
0
100
AcDbLine
 62
9
  6
CONTINUOUS
 10
5.6971786726
 20
4.8347041291
 11
5.8110714616
 21
4.8347041291
  0
LINE
  5
2EA
100
AcDbEntity
  8
0
100
AcDbLine
 62
9
  6
CONTINUOUS
 10
6.0500995343
 20
4.8347041291
 11
6.1639923233
 21
4.8347041291
  0
LINE
  5
2EB
100
AcDbEntity
  8
0
100
AcDbLine
 62
9
  6
CONTINUOUS
 10
6.3665197225
 20
4.8347041291
 11
6.4804125115
 21
4.8347041291
  0
LINE
  5
2EC
100
AcDbEntity
  8
0
100
AcDbLine
 62
9
  6
CONTINUOUS
 10
6.6248757244
 20
4.8347041291
 11
6.7387685133
 21
4.8347041291
  0
LINE
  5
2ED
100
AcDbEntity
  8
0
100
AcDbLine
 62
9
  6
CONTINUOUS
 10
6.8075610052
 20
4.8347041291
 11
7.016018654
 21
4.8347041291
  0
LINE
  5
2EE
100
AcDbEntity
  8
0
100
AcDbLine
 62
7
  6
CONTINUOUS
 10
3.6944397863
 20
4.9538527782
 11
3.5464397863
 21
4.9616091295
  0
LINE
  5
2EF
100
AcDbEntity
  8
0
100
AcDbLine
 62
7
  6
CONTINUOUS
 10
7.2033050534
 20
5.8497675199
 11
7.4319450345
 21
5.7479704417
  0
LINE
  5
2F0
100
AcDbEntity
  8
0
100
AcDbLine
 62
7
  6
CONTINUOUS
 10
4.7763601724
 20
4.8347044516
 11
4.78451369
 21
4.8428579691
  0
LINE
  5
2F1
100
AcDbEntity
  8
0
100
AcDbLine
 62
7
  6
CONTINUOUS
 10
4.8331109126
 20
4.8762516198
 11
4.8412641257
 21
4.8844048329
  0
LINE
  5
2F2
100
AcDbEntity
  8
0
100
AcDbLine
 62
7
  6
CONTINUOUS
 10
4.8709867964
 20
4.7159614993
 11
4.8837530547
 21
4.7287277575
  0
LINE
  5
2F3
100
AcDbEntity
  8
0
100
AcDbLine
 62
7
  6
CONTINUOUS
 10
5.0927803606
 20
4.8347044516
 11
5.1009338782
 21
4.8428579691
  0
LINE
  5
2F4
100
AcDbEntity
  8
0
100
AcDbLine
 62
7
  6
CONTINUOUS
 10
5.2224187532
 20
4.8762516198
 11
5.2305719661
 21
4.8844048328
  0
LINE
  5
2F5
100
AcDbEntity
  8
0
100
AcDbLine
 62
7
  6
CONTINUOUS
 10
7.4484397863
 20
4.9538527782
 11
7.5964397863
 21
4.9616091295
  0
LINE
  5
2F6
100
AcDbEntity
  8
0
100
AcDbLine
 62
9
  6
CONTINUOUS
 10
7.0241719334
 20
4.8428579691
 11
6.9355911572
 21
4.8428579691
  0
LINE
  5
2F7
100
AcDbEntity
  8
0
100
AcDbLine
 62
9
  6
CONTINUOUS
 10
6.9296076341
 20
4.8428579691
 11
6.7994071652
 21
4.8428579691
  0
LINE
  5
2F8
100
AcDbEntity
  8
0
100
AcDbLine
 62
9
  6
CONTINUOUS
 10
6.7469223533
 20
4.8428579691
 11
6.6167218843
 21
4.8428579691
  0
LINE
  5
2F9
100
AcDbEntity
  8
0
100
AcDbLine
 62
9
  6
CONTINUOUS
 10
6.4885663515
 20
4.8428579691
 11
6.3583658825
 21
4.8428579691
  0
LINE
  5
2FA
100
AcDbEntity
  8
0
100
AcDbLine
 62
9
  6
CONTINUOUS
 10
6.1721461633
 20
4.8428579691
 11
6.0419456943
 21
4.8428579691
  0
LINE
  5
2FB
100
AcDbEntity
  8
0
100
AcDbLine
 62
9
  6
CONTINUOUS
 10
5.8192253016
 20
4.8428579691
 11
5.6890248326
 21
4.8428579691
  0
LINE
  5
2FC
100
AcDbEntity
  8
0
100
AcDbLine
 62
9
  6
CONTINUOUS
 10
5.4538547399
 20
4.8428579691
 11
5.3236542709
 21
4.8428579691
  0
LINE
  5
2FD
100
AcDbEntity
  8
0
100
AcDbLine
 62
9
  6
CONTINUOUS
 10
5.1009338782
 20
4.8428579691
 11
4.9707334093
 21
4.8428579691
  0
LINE
  5
2FE
100
AcDbEntity
  8
0
100
AcDbLine
 62
9
  6
CONTINUOUS
 10
4.78451369
 20
4.8428579691
 11
4.654313221
 21
4.8428579691
  0
LINE
  5
2FF
100
AcDbEntity
  8
0
100
AcDbLine
 62
9
  6
CONTINUOUS
 10
4.5261576882
 20
4.8428579691
 11
4.3959572192
 21
4.8428579691
  0
LINE
  5
300
100
AcDbEntity
  8
0
100
AcDbLine
 62
9
  6
CONTINUOUS
 10
4.3434724073
 20
4.8428579691
 11
4.1187070785
 21
4.8428579691
  0
LINE
  5
301
100
AcDbEntity
  8
0
100
AcDbLine
 62
9
  6
CONTINUOUS
 10
6.7948636028
 20
4.8506327131
 11
6.7514659157
 21
4.8506327131
  0
LINE
  5
302
100
AcDbEntity
  8
0
100
AcDbLine
 62
9
  6
CONTINUOUS
 10
6.6121783219
 20
4.8506327131
 11
6.4931099139
 21
4.8506327131
  0
LINE
  5
303
100
AcDbEntity
  8
0
100
AcDbLine
 62
9
  6
CONTINUOUS
 10
6.3538223201
 20
4.8506327131
 11
6.1766897257
 21
4.8506327131
  0
LINE
  5
304
100
AcDbEntity
  8
0
100
AcDbLine
 62
9
  6
CONTINUOUS
 10
6.0374021319
 20
4.8506327131
 11
5.823768864
 21
4.8506327131
  0
LINE
  5
305
100
AcDbEntity
  8
0
100
AcDbLine
 62
9
  6
CONTINUOUS
 10
5.6844812702
 20
4.8506327131
 11
5.4583983023
 21
4.8506327131
  0
LINE
  5
306
100
AcDbEntity
  8
0
100
AcDbLine
 62
9
  6
CONTINUOUS
 10
5.3191107085
 20
4.8506327131
 11
5.1054774406
 21
4.8506327131
  0
LINE
  5
307
100
AcDbEntity
  8
0
100
AcDbLine
 62
9
  6
CONTINUOUS
 10
4.9661898468
 20
4.8506327131
 11
4.7890572524
 21
4.8506327131
  0
LINE
  5
308
100
AcDbEntity
  8
0
100
AcDbLine
 62
9
  6
CONTINUOUS
 10
4.6497696586
 20
4.8506327131
 11
4.5307012506
 21
4.8506327131
  0
LINE
  5
309
100
AcDbEntity
  8
0
100
AcDbLine
 62
9
  6
CONTINUOUS
 10
4.3914136568
 20
4.8506327131
 11
4.3480159697
 21
4.8506327131
  0
LINE
  5
30A
100
AcDbEntity
  8
0
100
AcDbLine
 62
9
  6
CONTINUOUS
 10
4.1129411712
 20
4.8567776867
 11
4.3492383146
 21
4.8567776867
  0
LINE
  5
30B
100
AcDbEntity
  8
0
100
AcDbLine
 62
9
  6
CONTINUOUS
 10
4.390191312
 20
4.8567776867
 11
4.5319235954
 21
4.8567776867
  0
LINE
  5
30C
100
AcDbEntity
  8
0
100
AcDbLine
 62
9
  6
CONTINUOUS
 10
4.6485473138
 20
4.8567776867
 11
4.7902795972
 21
4.8567776867
  0
LINE
  5
30D
100
AcDbEntity
  8
0
100
AcDbLine
 62
9
  6
CONTINUOUS
 10
4.964967502
 20
4.8567776867
 11
5.1066997854
 21
4.8567776867
  0
LINE
  5
30E
100
AcDbEntity
  8
0
100
AcDbLine
 62
9
  6
CONTINUOUS
 10
5.3178883637
 20
4.8567776867
 11
5.4596206471
 21
4.8567776867
  0
LINE
  5
30F
100
AcDbEntity
  8
0
100
AcDbLine
 62
9
  6
CONTINUOUS
 10
5.6832589254
 20
4.8567776867
 11
5.8249912088
 21
4.8567776867
  0
LINE
  5
310
100
AcDbEntity
  8
0
100
AcDbLine
 62
9
  6
CONTINUOUS
 10
6.0361797871
 20
4.8567776867
 11
6.1779120705
 21
4.8567776867
  0
LINE
  5
311
100
AcDbEntity
  8
0
100
AcDbLine
 62
9
  6
CONTINUOUS
 10
6.3525999753
 20
4.8567776867
 11
6.4943322587
 21
4.8567776867
  0
LINE
  5
312
100
AcDbEntity
  8
0
100
AcDbLine
 62
9
  6
CONTINUOUS
 10
6.6109559771
 20
4.8567776867
 11
6.7526882606
 21
4.8567776867
  0
LINE
  5
313
100
AcDbEntity
  8
0
100
AcDbLine
 62
9
  6
CONTINUOUS
 10
6.7936412579
 20
4.8567776867
 11
7.029937791
 21
4.8567776867
  0
LINE
  5
314
100
AcDbEntity
  8
0
100
AcDbLine
 62
9
  6
CONTINUOUS
 10
6.7936412579
 20
4.868276135
 11
6.7526882606
 21
4.868276135
  0
LINE
  5
315
100
AcDbEntity
  8
0
100
AcDbLine
 62
9
  6
CONTINUOUS
 10
6.6109559771
 20
4.868276135
 11
6.4943322587
 21
4.868276135
  0
LINE
  5
316
100
AcDbEntity
  8
0
100
AcDbLine
 62
9
  6
CONTINUOUS
 10
6.3531077422
 20
4.868276135
 11
6.1779120705
 21
4.868276135
  0
LINE
  5
317
100
AcDbEntity
  8
0
100
AcDbLine
 62
9
  6
CONTINUOUS
 10
6.0361797871
 20
4.868276135
 11
5.8249912088
 21
4.868276135
  0
LINE
  5
318
100
AcDbEntity
  8
0
100
AcDbLine
 62
9
  6
CONTINUOUS
 10
5.6832589254
 20
4.868276135
 11
5.4596206471
 21
4.868276135
  0
LINE
  5
319
100
AcDbEntity
  8
0
100
AcDbLine
 62
9
  6
CONTINUOUS
 10
5.3178883637
 20
4.868276135
 11
5.1066997854
 21
4.868276135
  0
LINE
  5
31A
100
AcDbEntity
  8
0
100
AcDbLine
 62
9
  6
CONTINUOUS
 10
4.964967502
 20
4.868276135
 11
4.7917723302
 21
4.868276135
  0
LINE
  5
31B
100
AcDbEntity
  8
0
100
AcDbLine
 62
9
  6
CONTINUOUS
 10
4.6485473138
 20
4.868276135
 11
4.5319235954
 21
4.868276135
  0
LINE
  5
31C
100
AcDbEntity
  8
0
100
AcDbLine
 62
9
  6
CONTINUOUS
 10
4.390191312
 20
4.868276135
 11
4.3492383146
 21
4.868276135
  0
LINE
  5
31D
100
AcDbEntity
  8
0
100
AcDbLine
 62
7
  6
CONTINUOUS
 10
3.9024285881
 20
4.8704860053
 11
4.0670909621
 21
4.8704860053
  0
LINE
  5
31E
100
AcDbEntity
  8
0
100
AcDbLine
 62
7
  6
CONTINUOUS
 10
4.1186934463
 20
4.8704860053
 11
4.2283560825
 21
4.8704860053
  0
LINE
  5
31F
100
AcDbEntity
  8
0
100
AcDbLine
 62
7
  6
CONTINUOUS
 10
4.3752118405
 20
4.8704860053
 11
4.4848820605
 21
4.8704860053
  0
LINE
  5
320
100
AcDbEntity
  8
0
100
AcDbLine
 62
7
  6
CONTINUOUS
 10
4.7095156896
 20
4.8704860053
 11
4.8191906545
 21
4.8704860053
  0
LINE
  5
321
100
AcDbEntity
  8
0
100
AcDbLine
 62
7
  6
CONTINUOUS
 10
5.0988244894
 20
4.8704860053
 11
5.2084975359
 21
4.8704860053
  0
LINE
  5
322
100
AcDbEntity
  8
0
100
AcDbLine
 62
7
  6
CONTINUOUS
 10
5.5166014706
 20
4.8704860053
 11
5.6262732582
 21
4.8704860053
  0
LINE
  5
323
100
AcDbEntity
  8
0
100
AcDbLine
 62
7
  6
CONTINUOUS
 10
5.9343882479
 20
4.8704860053
 11
6.0440488718
 21
4.8704860053
  0
LINE
  5
324
100
AcDbEntity
  8
0
100
AcDbLine
 62
7
  6
CONTINUOUS
 10
6.3236981804
 20
4.8704860053
 11
6.4333546205
 21
4.8704860053
  0
LINE
  5
325
100
AcDbEntity
  8
0
100
AcDbLine
 62
7
  6
CONTINUOUS
 10
6.6580046795
 20
4.8704860053
 11
6.7676605646
 21
4.8704860053
  0
LINE
  5
326
100
AcDbEntity
  8
0
100
AcDbLine
 62
7
  6
CONTINUOUS
 10
6.91452508
 20
4.8704860053
 11
7.0241845362
 21
4.8704860053
  0
LINE
  5
327
100
AcDbEntity
  8
0
100
AcDbLine
 62
7
  6
CONTINUOUS
 10
7.0757772883
 20
4.8704860053
 11
7.2404509844
 21
4.8704860053
  0
LINE
  5
328
100
AcDbEntity
  8
0
100
AcDbLine
 62
9
  6
CONTINUOUS
 10
3.8885090951
 20
4.8762513421
 11
4.0810256397
 21
4.8762513421
  0
LINE
  5
329
100
AcDbEntity
  8
0
100
AcDbLine
 62
9
  6
CONTINUOUS
 10
4.1047673016
 20
4.8762513421
 11
4.2422822272
 21
4.8762513421
  0
LINE
  5
32A
100
AcDbEntity
  8
0
100
AcDbLine
 62
9
  6
CONTINUOUS
 10
4.3612894877
 20
4.8762513421
 11
4.4988044133
 21
4.8762513421
  0
LINE
  5
32B
100
AcDbEntity
  8
0
100
AcDbLine
 62
9
  6
CONTINUOUS
 10
4.6955957093
 20
4.8762513421
 11
4.8331106349
 21
4.8762513421
  0
LINE
  5
32C
100
AcDbEntity
  8
0
100
AcDbLine
 62
9
  6
CONTINUOUS
 10
5.0849035499
 20
4.8762513421
 11
5.2224184754
 21
4.8762513421
  0
LINE
  5
32D
100
AcDbEntity
  8
0
100
AcDbLine
 62
9
  6
CONTINUOUS
 10
5.5026823235
 20
4.8762513421
 11
5.640197249
 21
4.8762513421
  0
LINE
  5
32E
100
AcDbEntity
  8
0
100
AcDbLine
 62
9
  6
CONTINUOUS
 10
5.9204610971
 20
4.8762513421
 11
6.0579760226
 21
4.8762513421
  0
LINE
  5
32F
100
AcDbEntity
  8
0
100
AcDbLine
 62
9
  6
CONTINUOUS
 10
6.3097689377
 20
4.8762513421
 11
6.4472838632
 21
4.8762513421
  0
LINE
  5
330
100
AcDbEntity
  8
0
100
AcDbLine
 62
9
  6
CONTINUOUS
 10
6.6440751593
 20
4.8762513421
 11
6.7815900848
 21
4.8762513421
  0
LINE
  5
331
100
AcDbEntity
  8
0
100
AcDbLine
 62
9
  6
CONTINUOUS
 10
6.9005973195
 20
4.8762513679
 11
7.0381122967
 21
4.8762513679
  0
LINE
  5
332
100
AcDbEntity
  8
0
100
AcDbLine
 62
9
  6
CONTINUOUS
 10
7.0618539328
 20
4.8762513421
 11
7.2543704774
 21
4.8762513421
  0
LINE
  5
333
100
AcDbEntity
  8
0
100
AcDbLine
 62
9
  6
CONTINUOUS
 10
7.2625239681
 20
4.8844048328
 11
7.0537004422
 21
4.8844048328
  0
LINE
  5
334
100
AcDbEntity
  8
0
100
AcDbLine
 62
9
  6
CONTINUOUS
 10
6.7897435755
 20
4.8844048328
 11
6.6359216686
 21
4.8844048328
  0
LINE
  5
335
100
AcDbEntity
  8
0
100
AcDbLine
 62
9
  6
CONTINUOUS
 10
6.4554373539
 20
4.8844048328
 11
6.301615447
 21
4.8844048328
  0
LINE
  5
336
100
AcDbEntity
  8
0
100
AcDbLine
 62
9
  6
CONTINUOUS
 10
6.0661295133
 20
4.8844048328
 11
5.9123076064
 21
4.8844048328
  0
LINE
  5
337
100
AcDbEntity
  8
0
100
AcDbLine
 62
9
  6
CONTINUOUS
 10
5.6483507397
 20
4.8844048328
 11
5.4945288328
 21
4.8844048328
  0
LINE
  5
338
100
AcDbEntity
  8
0
100
AcDbLine
 62
9
  6
CONTINUOUS
 10
5.2305719661
 20
4.8844048328
 11
5.0767500592
 21
4.8844048328
  0
LINE
  5
339
100
AcDbEntity
  8
0
100
AcDbLine
 62
9
  6
CONTINUOUS
 10
4.8412641257
 20
4.8844048329
 11
4.6874422185
 21
4.8844048329
  0
LINE
  5
33A
100
AcDbEntity
  8
0
100
AcDbLine
 62
9
  6
CONTINUOUS
 10
4.506957904
 20
4.8844048328
 11
4.353135997
 21
4.8844048328
  0
LINE
  5
33B
100
AcDbEntity
  8
0
100
AcDbLine
 62
9
  6
CONTINUOUS
 10
4.2504357179
 20
4.8844048328
 11
4.0966138109
 21
4.8844048328
  0
LINE
  5
33C
100
AcDbEntity
  8
0
100
AcDbLine
 62
9
  6
CONTINUOUS
 10
4.0891791304
 20
4.8844048328
 11
3.8803556044
 21
4.8844048328
  0
LINE
  5
33D
100
AcDbEntity
  8
0
100
AcDbLine
 62
9
  6
CONTINUOUS
 10
7.0462661103
 20
4.8844051815
 11
6.8924435059
 21
4.8844051815
  0
LINE
  5
33E
100
AcDbEntity
  8
0
100
AcDbLine
 62
9
  6
CONTINUOUS
 10
3.8745893926
 20
4.8983248549
 11
4.2562019298
 21
4.8983248549
  0
LINE
  5
33F
100
AcDbEntity
  8
0
100
AcDbLine
 62
9
  6
CONTINUOUS
 10
4.3473697851
 20
4.8983248549
 11
4.5127241158
 21
4.8983248549
  0
LINE
  5
340
100
AcDbEntity
  8
0
100
AcDbLine
 62
9
  6
CONTINUOUS
 10
4.6816760067
 20
4.8983248549
 11
4.8470303374
 21
4.8983248549
  0
LINE
  5
341
100
AcDbEntity
  8
0
100
AcDbLine
 62
9
  6
CONTINUOUS
 10
5.0709838473
 20
4.8983248549
 11
5.236338178
 21
4.8983248549
  0
LINE
  5
342
100
AcDbEntity
  8
0
100
AcDbLine
 62
9
  6
CONTINUOUS
 10
5.4887626209
 20
4.8983248549
 11
5.6541169516
 21
4.8983248549
  0
LINE
  5
343
100
AcDbEntity
  8
0
100
AcDbLine
 62
9
  6
CONTINUOUS
 10
5.9065413945
 20
4.8983248549
 11
6.0718957252
 21
4.8983248549
  0
LINE
  5
344
100
AcDbEntity
  8
0
100
AcDbLine
 62
9
  6
CONTINUOUS
 10
6.2958492351
 20
4.8983248549
 11
6.4612035658
 21
4.8983248549
  0
LINE
  5
345
100
AcDbEntity
  8
0
100
AcDbLine
 62
9
  6
CONTINUOUS
 10
6.6301554567
 20
4.8983248549
 11
6.7955097874
 21
4.8983248549
  0
LINE
  5
346
100
AcDbEntity
  8
0
100
AcDbLine
 62
9
  6
CONTINUOUS
 10
6.8866776428
 20
4.8983248549
 11
7.26829018
 21
4.8983248549
  0
LINE
  5
347
100
AcDbEntity
  8
0
100
AcDbLine
 62
7
  6
CONTINUOUS
 10
3.8745893926
 20
4.9285683833
 11
3.8685092804
 21
4.9285647164
  0
LINE
  5
348
100
AcDbEntity
  8
0
100
AcDbLine
 62
9
  6
CONTINUOUS
 10
5.6541167922
 20
4.9334820695
 11
5.6257307819
 21
4.9334833811
  0
LINE
  5
349
100
AcDbEntity
  8
0
100
AcDbLine
 62
7
  6
CONTINUOUS
 10
3.8103158824
 20
4.9332446715
 11
7.3361878134
 21
4.9332446715
  0
LINE
  5
34A
100
AcDbEntity
  8
0
100
AcDbLine
 62
9
  6
CONTINUOUS
 10
4.0929690259
 20
4.9334851997
 11
3.8141131305
 21
4.9334868451
  0
LINE
  5
34B
100
AcDbEntity
  8
0
100
AcDbLine
 62
9
  6
CONTINUOUS
 10
6.0462904964
 20
4.9334838777
 11
5.9279334882
 21
4.9334847105
  0
LINE
  5
34C
100
AcDbEntity
  8
0
100
AcDbLine
 62
9
  6
CONTINUOUS
 10
5.6257307819
 20
4.9334833811
 11
5.5121759102
 21
4.9334837431
  0
LINE
  5
34D
100
AcDbEntity
  8
0
100
AcDbLine
 62
9
  6
CONTINUOUS
 10
5.0965892883
 20
4.9334834914
 11
4.0945868183
 21
4.9334852837
  0
LINE
  5
34E
100
AcDbEntity
  8
0
100
AcDbLine
 62
9
  6
CONTINUOUS
 10
7.339803052
 20
4.933484988
 11
6.0462904964
 21
4.9334838777
  0
LINE
  5
34F
100
AcDbEntity
  8
0
100
AcDbLine
 62
9
  6
CONTINUOUS
 10
5.9065413186
 20
4.9334841629
 11
5.6541167922
 21
4.9334820695
  0
LINE
  5
350
100
AcDbEntity
  8
0
100
AcDbLine
 62
9
  6
CONTINUOUS
 10
5.9279334882
 20
4.9334847105
 11
5.9111610366
 21
4.9334843927
  0
LINE
  5
351
100
AcDbEntity
  8
0
100
AcDbLine
 62
9
  6
CONTINUOUS
 10
5.5121759102
 20
4.9334837431
 11
5.5068663632
 21
4.9334835964
  0
LINE
  5
352
100
AcDbEntity
  8
0
100
AcDbLine
 62
9
  6
CONTINUOUS
 10
5.9111610366
 20
4.9334843927
 11
5.9065413186
 21
4.9334841629
  0
LINE
  5
353
100
AcDbEntity
  8
0
100
AcDbLine
 62
9
  6
CONTINUOUS
 10
4.0945868183
 20
4.9334852837
 11
4.0929690259
 21
4.9334851997
  0
LINE
  5
354
100
AcDbEntity
  8
0
100
AcDbLine
 62
9
  6
CONTINUOUS
 10
3.8141131305
 20
4.9334868451
 11
3.8030742841
 21
4.9334855579
  0
LINE
  5
355
100
AcDbEntity
  8
0
100
AcDbLine
 62
7
  6
CONTINUOUS
 10
3.6944397863
 20
4.9538527782
 11
7.4484397863
 21
4.9538527782
  0
LINE
  5
356
100
AcDbEntity
  8
0
100
AcDbLine
 62
9
  6
CONTINUOUS
 10
7.5964397863
 20
4.9616091295
 11
3.5464397863
 21
4.9616091295
  0
LINE
  5
357
100
AcDbEntity
  8
0
100
AcDbLine
 62
7
  6
CONTINUOUS
 10
3.4215026448
 20
5.0713308149
 11
7.7213769277
 21
5.0713308149
  0
LINE
  5
358
100
AcDbEntity
  8
0
100
AcDbLine
 62
9
  6
CONTINUOUS
 10
7.6725223932
 20
5.1418749006
 11
3.4703571793
 21
5.1418749006
  0
LINE
  5
359
100
AcDbEntity
  8
0
100
AcDbLine
 62
9
  6
CONTINUOUS
 10
7.5736752319
 20
5.2170185735
 11
3.5692043406
 21
5.2170185735
  0
LINE
  5
35A
100
AcDbEntity
  8
0
100
AcDbLine
 62
9
  6
CONTINUOUS
 10
5.5068663632
 20
4.9334835964
 11
5.222065644
 21
4.9334807354
  0
LINE
  5
35B
100
AcDbEntity
  8
0
100
AcDbLine
 62
9
  6
CONTINUOUS
 10
5.2363382805
 20
4.9334797743
 11
5.0965892883
 21
4.9334834914
  0
LWPOLYLINE
  5
35C
100
AcDbEntity
  8
0
100
AcDbPolyline
 62
7
  6
CONTINUOUS
 90
4
 70
0
 10
6.423734407
 20
4.7672399314
 10
6.4262175527
 20
4.7704798973
 10
6.4278446153
 20
4.7716304815
 10
6.4279894664
 20
4.7717065652
  0
LWPOLYLINE
  5
35D
100
AcDbEntity
  8
0
100
AcDbPolyline
 62
7
  6
CONTINUOUS
 90
4
 70
0
 10
6.5119044668
 20
4.7686346062
 10
6.5145833492
 20
4.7719668558
 10
6.5166492724
 20
4.7733497038
 10
6.5173380919
 20
4.7736585531
  0
LINE
  5
35E
100
AcDbEntity
  8
0
100
AcDbLine
 62
7
  6
CONTINUOUS
 10
5.4457012223
 20
4.8347044516
 11
5.4538547399
 21
4.8428579691
  0
LINE
  5
35F
100
AcDbEntity
  8
0
100
AcDbLine
 62
7
  6
CONTINUOUS
 10
5.3232196889
 20
4.613105223
 11
5.3313729084
 21
4.6212584425
  0
LINE
  5
360
100
AcDbEntity
  8
0
100
AcDbLine
 62
7
  6
CONTINUOUS
 10
5.4300916306
 20
4.7159614993
 11
5.4428578887
 21
4.7287277574
  0
LINE
  5
361
100
AcDbEntity
  8
0
100
AcDbLine
 62
7
  6
CONTINUOUS
 10
5.6401975268
 20
4.8762516198
 11
5.6483507397
 21
4.8844048328
  0
LINE
  5
362
100
AcDbEntity
  8
0
100
AcDbLine
 62
7
  6
CONTINUOUS
 10
5.6497837932
 20
4.7159614993
 11
5.6625500514
 21
4.7287277574
  0
LINE
  5
363
100
AcDbEntity
  8
0
100
AcDbLine
 62
7
  6
CONTINUOUS
 10
5.811071784
 20
4.8347044516
 11
5.8192253016
 21
4.8428579691
  0
LINE
  5
364
100
AcDbEntity
  8
0
100
AcDbLine
 62
7
  6
CONTINUOUS
 10
5.6324520395
 20
4.613105223
 11
5.6406052606
 21
4.6212584442
  0
LINE
  5
365
100
AcDbEntity
  8
0
100
AcDbLine
 62
7
  6
CONTINUOUS
 10
5.8680677632
 20
4.7159614993
 11
5.8808340214
 21
4.7287277574
  0
LINE
  5
366
100
AcDbEntity
  8
0
100
AcDbLine
 62
7
  6
CONTINUOUS
 10
6.0579763004
 20
4.8762516198
 11
6.0661295133
 21
4.8844048328
  0
LINE
  5
367
100
AcDbEntity
  8
0
100
AcDbLine
 62
7
  6
CONTINUOUS
 10
6.1639926457
 20
4.8347044516
 11
6.1721461633
 21
4.8428579691
  0
LWPOLYLINE
  5
368
100
AcDbEntity
  8
0
100
AcDbPolyline
 62
7
  6
CONTINUOUS
 90
3
 70
0
 10
4.8902397751
 20
4.7520188817
 10
4.8929444223
 20
4.7541173705
 10
4.8944416595
 20
4.7547493565
  0
LINE
  5
369
100
AcDbEntity
  8
0
100
AcDbLine
 62
7
  6
CONTINUOUS
 10
6.5561472425
 20
4.7750596051
 11
6.5562334968
 21
4.7750770467
  0
LINE
  5
36A
100
AcDbEntity
  8
0
100
AcDbLine
 62
7
  6
CONTINUOUS
 10
6.8336054899
 20
4.8238714008
 11
6.744668133
 21
4.808531625
  0
LINE
  5
36B
100
AcDbEntity
  8
0
100
AcDbLine
 62
9
  6
CONTINUOUS
 10
4.5992306303
 20
4.7635147306
 11
4.5995568839
 21
4.7635658558
  0
LINE
  5
36C
100
AcDbEntity
  8
0
100
AcDbLine
 62
7
  6
CONTINUOUS
 10
7.337858689
 20
4.9332446715
 11
7.3398022092
 21
4.9334882971
  0
LINE
  5
36D
100
AcDbEntity
  8
0
100
AcDbLine
 62
9
  6
CONTINUOUS
 10
3.6664397863
 20
5.4964057049
 11
7.4764397863
 21
5.4964057049
  0
LINE
  5
36E
100
AcDbEntity
  8
0
100
AcDbLine
 62
9
  6
CONTINUOUS
 10
7.4764397863
 20
5.6794545324
 11
3.6664397863
 21
5.6794545324
  0
LINE
  5
36F
100
AcDbEntity
  8
0
100
AcDbLine
 62
9
  6
CONTINUOUS
 10
3.710934538
 20
5.7479704417
 11
7.4319450345
 21
5.7479704417
  0
LINE
  5
370
100
AcDbEntity
  8
0
100
AcDbLine
 62
9
  6
CONTINUOUS
 10
7.2033050534
 20
5.8497675199
 11
3.9395745191
 21
5.8497675199
  0
LINE
  5
371
100
AcDbEntity
  8
0
100
AcDbLine
 62
9
  6
CONTINUOUS
 10
3.9514397863
 20
5.8680384291
 11
7.1914397863
 21
5.8680384291
  0
LINE
  5
372
100
AcDbEntity
  8
0
100
AcDbLine
 62
9
  6
CONTINUOUS
 10
7.1914397863
 20
5.9020268617
 11
3.9514397863
 21
5.9020268617
  0
LINE
  5
373
100
AcDbEntity
  8
0
100
AcDbLine
 62
9
  6
CONTINUOUS
 10
3.9671253932
 20
5.9215559685
 11
7.1757541793
 21
5.9215559685
  0
LINE
  5
374
100
AcDbEntity
  8
0
100
AcDbLine
 62
7
  6
CONTINUOUS
 10
5.97735591
 20
4.613105223
 11
5.9855091295
 21
4.6212584425
  0
LINE
  5
375
100
AcDbEntity
  8
0
100
AcDbLine
 62
7
  6
CONTINUOUS
 10
6.1558912909
 20
4.613105223
 11
6.164044512
 21
4.6212584442
  0
LINE
  5
376
100
AcDbEntity
  8
0
100
AcDbLine
 62
7
  6
CONTINUOUS
 10
6.447284141
 20
4.8762516198
 11
6.4554373539
 21
4.8844048328
  0
LINE
  5
377
100
AcDbEntity
  8
0
100
AcDbLine
 62
7
  6
CONTINUOUS
 10
6.4804128339
 20
4.8347044516
 11
6.4885663515
 21
4.8428579691
  0
LINE
  5
378
100
AcDbEntity
  8
0
100
AcDbLine
 62
7
  6
CONTINUOUS
 10
6.4062956388
 20
4.7159614993
 11
6.419061897
 21
4.7287277574
  0
LINE
  5
379
100
AcDbEntity
  8
0
100
AcDbLine
 62
7
  6
CONTINUOUS
 10
6.4943028519
 20
4.7159614993
 11
6.5070691101
 21
4.7287277574
  0
LINE
  5
37A
100
AcDbEntity
  8
0
100
AcDbLine
 62
7
  6
CONTINUOUS
 10
6.5307302218
 20
4.7159614993
 11
6.54349648
 21
4.7287277574
  0
LINE
  5
37B
100
AcDbEntity
  8
0
100
AcDbLine
 62
7
  6
CONTINUOUS
 10
6.7387688357
 20
4.8347044516
 11
6.7469223533
 21
4.8428579691
  0
LINE
  5
37C
100
AcDbEntity
  8
0
100
AcDbLine
 62
7
  6
CONTINUOUS
 10
6.7815903626
 20
4.8762516198
 11
6.7897435755
 21
4.8844048328
  0
LINE
  5
37D
100
AcDbEntity
  8
0
100
AcDbLine
 62
7
  6
CONTINUOUS
 10
6.9214541166
 20
4.8347044516
 11
6.9296076341
 21
4.8428579691
  0
LINE
  5
37E
100
AcDbEntity
  8
0
100
AcDbLine
 62
7
  6
CONTINUOUS
 10
3.9395745191
 20
5.8497675199
 11
3.710934538
 21
5.7479704417
  0
LINE
  5
37F
100
AcDbEntity
  8
0
100
AcDbLine
 62
7
  6
CONTINUOUS
 10
4.8944416595
 20
4.7547493565
 11
4.8946410821
 21
4.7548021972
  0
LINE
  5
380
100
AcDbEntity
  8
0
100
AcDbLine
 62
7
  6
CONTINUOUS
 10
10.5181655667
 20
10.320395857
 11
10.5181655667
 21
10.350395857
  0
LINE
  5
381
100
AcDbEntity
  8
0
100
AcDbLine
 62
7
  6
CONTINUOUS
 10
7.0381125486
 20
4.8762516198
 11
7.0462661103
 21
4.8844051815
  0
LINE
  5
382
100
AcDbEntity
  8
0
100
AcDbLine
 62
7
  6
CONTINUOUS
 10
7.0160189765
 20
4.8347044516
 11
7.0241724941
 21
4.8428579691
  0
LINE
  5
383
100
AcDbEntity
  8
0
100
AcDbLine
 62
7
  6
CONTINUOUS
 10
7.1993691362
 20
4.8762516198
 11
7.2075223491
 21
4.8844048328
  0
LINE
  5
384
100
AcDbEntity
  8
0
100
AcDbLine
 62
7
  6
CONTINUOUS
 10
7.2543704774
 20
4.8762513421
 11
7.2625239681
 21
4.8844048328
  0
LINE
  5
385
100
AcDbEntity
  8
0
100
AcDbLine
 62
7
  6
CONTINUOUS
 10
6.1114387359
 20
6.5781601019
 11
5.0314408366
 21
6.5781601019
  0
LINE
  5
386
100
AcDbEntity
  8
0
100
AcDbLine
 62
9
  6
CONTINUOUS
 10
5.0874397863
 20
6.6381601019
 11
6.0554397863
 21
6.6381601019
  0
LINE
  5
387
100
AcDbEntity
  8
0
100
AcDbLine
 62
9
  6
CONTINUOUS
 10
6.0554397863
 20
6.6581601019
 11
5.0874397863
 21
6.6581601019
  0
LINE
  5
388
100
AcDbEntity
  8
0
100
AcDbLine
 62
9
  6
CONTINUOUS
 10
6.0249974376
 20
6.7300053045
 11
5.1178821349
 21
6.7300053045
  0
LINE
  5
389
100
AcDbEntity
  8
0
100
AcDbLine
 62
9
  6
CONTINUOUS
 10
5.1332109351
 20
6.7545714064
 11
6.0096686375
 21
6.7545714064
  0
LINE
  5
38A
100
AcDbEntity
  8
0
100
AcDbLine
 62
7
  6
CONTINUOUS
 10
5.9664397833
 20
6.887616139
 11
5.1764397523
 21
6.8876160257
  0
LINE
  5
38B
100
AcDbEntity
  8
0
100
AcDbLine
 62
9
  6
CONTINUOUS
 10
5.1964397863
 20
6.9323374559
 11
5.9464397863
 21
6.9323374156
  0
LINE
  5
38C
100
AcDbEntity
  8
0
100
AcDbLine
 62
7
  6
CONTINUOUS
 10
10.8382044603
 20
10.070395857
 11
10.8382044603
 21
10.0377457964
  0
LINE
  5
38D
100
AcDbEntity
  8
0
100
AcDbLine
 62
7
  6
CONTINUOUS
 10
10.9681655667
 20
10.360395857
 11
10.9681655667
 21
10.350395857
  0
LWPOLYLINE
  5
38E
100
AcDbEntity
  8
0
100
AcDbPolyline
 62
7
  6
CONTINUOUS
 90
7
 70
0
 10
18.4250639949
 20
9.4544601784
 10
18.4984155474
 20
9.474657382
 10
18.5635838399
 20
9.5138201465
 10
18.6157816611
 20
9.5690212327
 10
18.6513344048
 20
9.6365347328
 10
18.6673160075
 20
9.7108001683
 10
18.6656358708
 20
9.7692608052
  0
LINE
  5
38F
100
AcDbEntity
  8
0
100
AcDbLine
 62
9
  6
CONTINUOUS
 10
5.9464397863
 20
7.3876161301
 11
5.1964397863
 21
7.3876161301
  0
LINE
  5
390
100
AcDbEntity
  8
0
100
AcDbLine
 62
7
  6
CONTINUOUS
 10
11.1718865695
 20
10.0377457964
 11
11.1718865695
 21
10.070395857
  0
LINE
  5
391
100
AcDbEntity
  8
0
100
AcDbLine
 62
7
  6
CONTINUOUS
 10
11.1844834575
 20
10.070395857
 11
11.1844834575
 21
10.0377457964
  0
LINE
  5
392
100
AcDbEntity
  8
0
100
AcDbLine
 62
7
  6
CONTINUOUS
 10
11.8518476759
 20
10.0377457964
 11
11.8518476759
 21
10.070395857
  0
LINE
  5
393
100
AcDbEntity
  8
0
100
AcDbLine
 62
7
  6
CONTINUOUS
 10
11.8644445638
 20
10.070395857
 11
11.8644445638
 21
10.0377457964
  0
LINE
  5
394
100
AcDbEntity
  8
0
100
AcDbLine
 62
7
  6
CONTINUOUS
 10
12.0681655667
 20
10.360395857
 11
12.0681655667
 21
10.350395857
  0
LINE
  5
395
100
AcDbEntity
  8
0
100
AcDbLine
 62
7
  6
CONTINUOUS
 10
12.198126673
 20
10.0377457964
 11
12.198126673
 21
10.070395857
  0
LINE
  5
396
100
AcDbEntity
  8
0
100
AcDbLine
 62
7
  6
CONTINUOUS
 10
4.9381997449
 20
7.6451557581
 11
4.8764106537
 21
7.6368664766
  0
LINE
  5
397
100
AcDbEntity
  8
0
100
AcDbLine
 62
7
  6
CONTINUOUS
 10
6.2920068932
 20
7.8267750116
 11
10.8143636861
 21
8.4334693003
  0
LINE
  5
398
100
AcDbEntity
  8
0
100
AcDbLine
 62
7
  6
CONTINUOUS
 10
12.29783787
 20
8.6324839636
 11
12.4272865839
 21
8.6498500847
  0
LINE
  5
399
100
AcDbEntity
  8
0
100
AcDbLine
 62
7
  6
CONTINUOUS
 10
12.2978384227
 20
8.6324875056
 11
16.5360320328
 21
9.2010571484
  0
LWPOLYLINE
  5
39A
100
AcDbEntity
  8
0
100
AcDbPolyline
 62
7
  6
CONTINUOUS
 90
8
 70
0
 10
16.511000115
 20
9.1976984278
 10
17.2448339797
 20
9.2961393579
 10
17.5519261625
 20
9.3373367881
 10
17.8241409629
 20
9.3738605816
 10
18.058885319
 20
9.4053538447
 10
18.2478687565
 20
9.4307047982
 10
18.3770976183
 20
9.44804519
 10
18.4250639949
 20
9.4544601784
  0
LINE
  5
39B
100
AcDbEntity
  8
0
100
AcDbLine
 62
7
  6
CONTINUOUS
 10
12.5181655667
 20
10.320395857
 11
12.5181655667
 21
10.350395857
  0
LINE
  5
39C
100
AcDbEntity
  8
0
100
AcDbLine
 62
9
  6
CONTINUOUS
 10
12.3089006375
 20
8.9164764856
 11
18.6656358708
 21
9.7692608052
  0
LINE
  5
39D
100
AcDbEntity
  8
0
100
AcDbLine
 62
7
  6
CONTINUOUS
 10
18.350606061
 20
10.0095249996
 11
18.2793689821
 21
9.9999489853
  0
LINE
  5
39E
100
AcDbEntity
  8
0
100
AcDbLine
 62
7
  6
CONTINUOUS
 10
17.1703602419
 20
9.8511774762
 11
16.4365406738
 21
9.7527261673
  0
LINE
  5
39F
100
AcDbEntity
  8
0
100
AcDbLine
 62
7
  6
CONTINUOUS
 10
12.5743018093
 20
9.2345955701
 11
12.2223926234
 21
9.1873759587
  0
LINE
  5
3A0
100
AcDbEntity
  8
0
100
AcDbLine
 62
7
  6
CONTINUOUS
 10
4.8245211112
 20
8.1949220684
 11
4.8019512125
 21
8.1918942161
  0
LINE
  5
3A1
100
AcDbEntity
  8
0
100
AcDbLine
 62
7
  6
CONTINUOUS
 10
6.2580253927
 20
8.387233047
 11
10.7385849135
 21
8.9883200456
  0
LINE
  5
3A2
100
AcDbEntity
  8
0
100
AcDbLine
 62
7
  6
CONTINUOUS
 10
12.2223910707
 20
9.1873792447
 11
12.352816802
 21
9.2048764369
  0
LINE
  5
3A3
100
AcDbEntity
  8
0
100
AcDbLine
 62
7
  6
CONTINUOUS
 10
16.4615558029
 20
9.7560814807
 11
12.5743018093
 21
9.2345955701
  0
LWPOLYLINE
  5
3A4
100
AcDbEntity
  8
0
100
AcDbPolyline
 62
7
  6
CONTINUOUS
 90
6
 70
0
 10
18.3026361296
 20
10.0030696987
 10
18.1734040309
 20
9.9857364028
 10
17.9844190377
 20
9.9603812093
 10
17.7496724171
 20
9.9288901689
 10
17.4774543906
 20
9.8923758758
 10
17.1703602419
 20
9.8511774762
  0
LINE
  5
3A5
100
AcDbEntity
  8
0
100
AcDbLine
 62
7
  6
CONTINUOUS
 10
5.2589397863
 20
8.755395857
 11
5.8839397863
 21
8.755395857
  0
LINE
  5
3A6
100
AcDbEntity
  8
0
100
AcDbLine
 62
7
  6
CONTINUOUS
 10
5.2441317193
 20
8.759395857
 11
5.8987478532
 21
8.759395857
  0
LINE
  5
3A7
100
AcDbEntity
  8
0
100
AcDbLine
 62
9
  6
CONTINUOUS
 10
5.9265922236
 20
8.7782302174
 11
5.2162873445
 21
8.7782302235
  0
LINE
  5
3A8
100
AcDbEntity
  8
0
100
AcDbLine
 62
9
  6
CONTINUOUS
 10
6.2003331717
 20
8.939204668
 11
4.9425463618
 21
8.9392046205
  0
LINE
  5
3A9
100
AcDbEntity
  8
0
100
AcDbLine
 62
9
  6
CONTINUOUS
 10
4.9214397863
 20
8.9678565388
 11
6.2214397863
 21
8.9678565388
  0
LINE
  5
3AA
100
AcDbEntity
  8
0
100
AcDbLine
 62
7
  6
CONTINUOUS
 10
6.2214397863
 20
8.9956134541
 11
4.9214397863
 21
8.9956134541
  0
LINE
  5
3AB
100
AcDbEntity
  8
0
100
AcDbLine
 62
7
  6
CONTINUOUS
 10
4.9214397863
 20
9.110395857
 11
6.2214397863
 21
9.110395857
  0
LINE
  5
3AC
100
AcDbEntity
  8
0
100
AcDbLine
 62
9
  6
CONTINUOUS
 10
6.2214397863
 20
9.145395857
 11
4.9214397863
 21
9.145395857
  0
LINE
  5
3AD
100
AcDbEntity
  8
0
100
AcDbLine
 62
7
  6
CONTINUOUS
 10
6.2064342399
 20
9.160395857
 11
4.9364453326
 21
9.160395857
  0
LINE
  5
3AE
100
AcDbEntity
  8
0
100
AcDbLine
 62
7
  6
CONTINUOUS
 10
10.9689271455
 20
9.3920634225
 11
12.0674039878
 21
9.3920634225
  0
LINE
  5
3AF
100
AcDbEntity
  8
0
100
AcDbLine
 62
9
  6
CONTINUOUS
 10
6.1414397863
 20
9.620395857
 11
5.0014397863
 21
9.620395857
  0
LINE
  5
3B0
100
AcDbEntity
  8
0
100
AcDbLine
 62
7
  6
CONTINUOUS
 10
10.9681655683
 20
9.8503958558
 11
12.068165565
 21
9.8503958558
  0
LINE
  5
3B1
100
AcDbEntity
  8
0
100
AcDbLine
 62
7
  6
CONTINUOUS
 10
4.5963074175
 20
10.000395857
 11
6.546572155
 21
10.000395857
  0
LINE
  5
3B2
100
AcDbEntity
  8
0
100
AcDbLine
 62
9
  6
CONTINUOUS
 10
4.5713073981
 20
10.025395857
 11
6.5715721744
 21
10.025395857
  0
LINE
  5
3B3
100
AcDbEntity
  8
0
100
AcDbLine
 62
9
  6
CONTINUOUS
 10
11.1718865695
 20
10.0377457964
 11
11.1844834575
 21
10.0377457964
  0
LINE
  5
3B4
100
AcDbEntity
  8
0
100
AcDbLine
 62
9
  6
CONTINUOUS
 10
11.8518476759
 20
10.0377457964
 11
11.8644445638
 21
10.0377457964
  0
LINE
  5
3B5
100
AcDbEntity
  8
0
100
AcDbLine
 62
7
  6
CONTINUOUS
 10
10.8157779115
 20
10.070395857
 11
12.2205531664
 21
10.070395857
  0
LINE
  5
3B6
100
AcDbEntity
  8
0
100
AcDbLine
 62
7
  6
CONTINUOUS
 10
6.5715721744
 20
10.075395857
 11
4.5713073981
 21
10.075395857
  0
LINE
  5
3B7
100
AcDbEntity
  8
0
100
AcDbLine
 62
7
  6
CONTINUOUS
 10
10.6481655699
 20
10.190395857
 11
12.3881655634
 21
10.190395857
  0
LINE
  5
3B8
100
AcDbEntity
  8
0
100
AcDbLine
 62
7
  6
CONTINUOUS
 10
4.5714397863
 20
10.275395857
 11
6.5714397863
 21
10.275395857
  0
LINE
  5
3B9
100
AcDbEntity
  8
0
100
AcDbLine
 62
9
  6
CONTINUOUS
 10
10.5181655667
 20
10.320395857
 11
12.5181655667
 21
10.320395857
  0
LINE
  5
3BA
100
AcDbEntity
  8
0
100
AcDbLine
 62
7
  6
CONTINUOUS
 10
12.5181655667
 20
10.350395857
 11
10.5181655667
 21
10.350395857
  0
LINE
  5
3BB
100
AcDbEntity
  8
0
100
AcDbLine
 62
7
  6
CONTINUOUS
 10
6.5714397863
 20
10.350395857
 11
4.5714397863
 21
10.350395857
  0
LINE
  5
3BC
100
AcDbEntity
  8
0
100
AcDbLine
 62
7
  6
CONTINUOUS
 10
12.0681655667
 20
10.360395857
 11
10.9681655667
 21
10.360395857
  0
LWPOLYLINE
  5
3BD
100
AcDbEntity
  8
0
100
AcDbPolyline
 62
7
  6
CONTINUOUS
 90
37
 70
0
 10
18.6656358708
 20
9.7692608052
 10
18.6636126619
 20
9.7820800389
 10
18.6603000947
 20
9.7977509116
 10
18.6561481141
 20
9.8130374308
 10
18.6512066617
 20
9.8278773656
 10
18.6455282396
 20
9.8422223196
 10
18.6391650602
 20
9.8560371506
 10
18.6321665868
 20
9.8692987651
 10
18.6245775678
 20
9.8819944423
 10
18.6164366099
 20
9.8941198463
 10
18.6077752923
 20
9.9056768745
 10
18.5986178407
 20
9.9166714155
 10
18.5890141661
 20
9.9270773152
 10
18.579031903
 20
9.9368585013
 10
18.5687214122
 20
9.946005163
 10
18.5581312831
 20
9.9545128053
 10
18.5473078972
 20
9.9623816178
 10
18.5362951335
 20
9.969615836
 10
18.5251341994
 20
9.9762231211
 10
18.5138635724
 20
9.9822139794
 10
18.5025190308
 20
9.9876012358
 10
18.4911345461
 20
9.9923992573
 10
18.4797541016
 20
9.9966197132
 10
18.4684253848
 20
10.0002761048
 10
18.4571935002
 20
10.0033862322
 10
18.4461014304
 20
10.0059715145
 10
18.4351898876
 20
10.0080566115
 10
18.4244972727
 20
10.009669045
 10
18.4140670685
 20
10.0108381566
 10
18.4039554526
 20
10.0115956961
 10
18.3942178429
 20
10.0119783189
 10
18.3849091661
 20
10.012027212
 10
18.3761204938
 20
10.0117892789
 10
18.3679785778
 20
10.0113220346
 10
18.3606733765
 20
10.0106997753
 10
18.3550490274
 20
10.0100890494
 10
18.3524914033
 20
10.0097732809
  0
ARC
  5
3BE
100
AcDbEntity
  8
0
100
AcDbCircle
 62
7
  6
CONTINUOUS
 10
3.5014397863
 20
5.0681601019
 40
0.08
100
AcDbArc
 50
112.8632234308
 51
177.7285491583
  0
ARC
  5
3BF
100
AcDbEntity
  8
0
100
AcDbCircle
 62
9
  6
CONTINUOUS
 10
3.7670401389
 20
4.6736815593
 40
0.0137317703
100
AcDbArc
 50
231.4691225602
 51
242.1702989359
  0
ARC
  5
3C0
100
AcDbEntity
  8
0
100
AcDbCircle
 62
7
  6
CONTINUOUS
 10
3.2164397863
 20
5.4964057049
 40
0.45
100
AcDbArc
 50
321.6210152008
 51
360.0
  0
ARC
  5
3C1
100
AcDbEntity
  8
0
100
AcDbCircle
 62
7
  6
CONTINUOUS
 10
3.3732240326
 20
5.3722336465
 40
0.25
100
AcDbArc
 50
292.8632234306
 51
321.6210152008
  0
ARC
  5
3C2
100
AcDbEntity
  8
0
100
AcDbCircle
 62
7
  6
CONTINUOUS
 10
3.7414397863
 20
5.6794545324
 40
0.075
100
AcDbArc
 50
114.0000000002
 51
180.0
  0
ARC
  5
3C3
100
AcDbEntity
  8
0
100
AcDbCircle
 62
7
  6
CONTINUOUS
 10
3.8702869658
 20
4.5557728087
 40
0.3728022678
100
AcDbArc
 50
94.069677108
 51
102.1874714621
  0
ARC
  5
3C4
100
AcDbEntity
  8
0
100
AcDbCircle
 62
7
  6
CONTINUOUS
 10
3.8702872968
 20
4.5557924689
 40
0.3727826446
100
AcDbArc
 50
94.0699423519
 51
102.1881542434
  0
ARC
  5
3C5
100
AcDbEntity
  8
0
100
AcDbCircle
 62
7
  6
CONTINUOUS
 10
3.8701282693
 20
4.5573954278
 40
0.3711724801
100
AcDbArc
 50
90.2600132456
 51
94.0630178572
  0
ARC
  5
3C6
100
AcDbEntity
  8
0
100
AcDbCircle
 62
7
  6
CONTINUOUS
 10
3.8701286263
 20
4.5574139868
 40
0.371153957
100
AcDbArc
 50
90.1922635134
 51
94.0632758743
  0
ARC
  5
3C7
100
AcDbEntity
  8
0
100
AcDbCircle
 62
7
  6
CONTINUOUS
 10
3.8701201834
 20
4.5743273356
 40
0.3542410468
100
AcDbArc
 50
89.2769881235
 51
89.9998238926
  0
ARC
  5
3C8
100
AcDbEntity
  8
0
100
AcDbCircle
 62
7
  6
CONTINUOUS
 10
3.8701207095
 20
4.574352917
 40
0.354215467
100
AcDbArc
 50
89.2770198414
 51
89.9999092511
  0
ARC
  5
3C9
100
AcDbEntity
  8
0
100
AcDbCircle
 62
7
  6
CONTINUOUS
 10
3.993817567
 20
4.6465894536
 40
0.2910406947
100
AcDbArc
 50
72.5547036528
 51
72.8900231281
  0
ARC
  5
3CA
100
AcDbEntity
  8
0
100
AcDbCircle
 62
9
  6
CONTINUOUS
 10
3.8843911245
 20
5.1007926906
 40
0.5173450788
100
AcDbArc
 50
326.9352133148
 51
327.3051127485
  0
ARC
  5
3CB
100
AcDbEntity
  8
0
100
AcDbCircle
 62
7
  6
CONTINUOUS
 10
3.8967357453
 20
5.1027974752
 40
0.514252569
100
AcDbArc
 50
326.028968188
 51
326.6758966823
  0
ARC
  5
3CC
100
AcDbEntity
  8
0
100
AcDbCircle
 62
7
  6
CONTINUOUS
 10
3.9614568871
 20
5.0410442129
 40
0.4293702327
100
AcDbArc
 50
242.1130790669
 51
244.2558294622
  0
ARC
  5
3CD
100
AcDbEntity
  8
0
100
AcDbCircle
 62
9
  6
CONTINUOUS
 10
3.8678374362
 20
5.0881990157
 40
0.4267984868
100
AcDbArc
 50
322.1925624674
 51
322.5440895491
  0
ARC
  5
3CE
100
AcDbEntity
  8
0
100
AcDbCircle
 62
9
  6
CONTINUOUS
 10
3.8689560729
 20
5.0873312402
 40
0.4253827247
100
AcDbArc
 50
321.8736132394
 51
322.19254537
  0
ARC
  5
3CF
100
AcDbEntity
  8
0
100
AcDbCircle
 62
9
  6
CONTINUOUS
 10
3.9528507062
 20
4.9983302011
 40
0.3851770247
100
AcDbArc
 50
276.4110282727
 51
279.0037944957
  0
ARC
  5
3D0
100
AcDbEntity
  8
0
100
AcDbCircle
 62
9
  6
CONTINUOUS
 10
3.9528923477
 20
4.9979088739
 40
0.3847536827
100
AcDbArc
 50
271.3738320846
 51
276.4118469152
  0
ARC
  5
3D1
100
AcDbEntity
  8
0
100
AcDbCircle
 62
9
  6
CONTINUOUS
 10
3.9529014248
 20
4.9976187678
 40
0.3844634423
100
AcDbArc
 50
270.7201936232
 51
271.3735162893
  0
ARC
  5
3D2
100
AcDbEntity
  8
0
100
AcDbCircle
 62
9
  6
CONTINUOUS
 10
3.9529021579
 20
4.9975827603
 40
0.3844274275
100
AcDbArc
 50
270.0115926064
 51
271.3735356248
  0
ARC
  5
3D3
100
AcDbEntity
  8
0
100
AcDbCircle
 62
9
  6
CONTINUOUS
 10
3.9529025642
 20
4.9975300098
 40
0.384374677
100
AcDbArc
 50
270.011558742
 51
270.7201900972
  0
ARC
  5
3D4
100
AcDbEntity
  8
0
100
AcDbCircle
 62
7
  6
CONTINUOUS
 10
4.0752603029
 20
4.8983248549
 40
0.0196850394
100
AcDbArc
 50
314.9999999999
 51
334.5973246504
  0
ARC
  5
3D5
100
AcDbEntity
  8
0
100
AcDbCircle
 62
7
  6
CONTINUOUS
 10
3.9492760509
 20
4.8983248549
 40
0.0196850394
100
AcDbArc
 50
180.0
 51
225.0000000001
  0
ARC
  5
3D6
100
AcDbEntity
  8
0
100
AcDbCircle
 62
7
  6
CONTINUOUS
 10
3.9574298612
 20
4.8901710446
 40
0.0196850394
100
AcDbArc
 50
225.0011432902
 51
270.0
  0
ARC
  5
3D7
100
AcDbEntity
  8
0
100
AcDbCircle
 62
7
  6
CONTINUOUS
 10
4.0671064926
 20
4.8901710446
 40
0.0196850394
100
AcDbArc
 50
270.0
 51
314.9988567098
  0
ARC
  5
3D8
100
AcDbEntity
  8
0
100
AcDbCircle
 62
7
  6
CONTINUOUS
 10
3.9024282422
 20
4.8901710446
 40
0.0196850394
100
AcDbArc
 50
225.0011432902
 51
270.001006738
  0
ARC
  5
3D9
100
AcDbEntity
  8
0
100
AcDbCircle
 62
7
  6
CONTINUOUS
 10
3.8942744319
 20
4.8983248549
 40
0.0196850394
100
AcDbArc
 50
180.0
 51
225.0024588144
  0
ARC
  5
3DA
100
AcDbEntity
  8
0
100
AcDbCircle
 62
7
  6
CONTINUOUS
 10
4.1846681287
 20
4.7746735626
 40
0.1641888448
100
AcDbArc
 50
69.7608399031
 51
69.9780853205
  0
ARC
  5
3DB
100
AcDbEntity
  8
0
100
AcDbCircle
 62
7
  6
CONTINUOUS
 10
4.2365168904
 20
4.8983248549
 40
0.0196850394
100
AcDbArc
 50
315.0000000003
 51
360.0
  0
ARC
  5
3DC
100
AcDbEntity
  8
0
100
AcDbCircle
 62
7
  6
CONTINUOUS
 10
4.1105326384
 20
4.8983248549
 40
0.0196850394
100
AcDbArc
 50
180.0
 51
224.9999999997
  0
ARC
  5
3DD
100
AcDbEntity
  8
0
100
AcDbCircle
 62
7
  6
CONTINUOUS
 10
4.1186864487
 20
4.8901710446
 40
0.0196850394
100
AcDbArc
 50
225.00114329
 51
270.0
  0
ARC
  5
3DE
100
AcDbEntity
  8
0
100
AcDbCircle
 62
7
  6
CONTINUOUS
 10
4.2283630801
 20
4.8901710446
 40
0.0196850394
100
AcDbArc
 50
270.0
 51
314.99885671
  0
ARC
  5
3DF
100
AcDbEntity
  8
0
100
AcDbCircle
 62
7
  6
CONTINUOUS
 10
4.1326262106
 20
4.8567776867
 40
0.0196850394
100
AcDbArc
 50
180.0
 51
224.9999999998
  0
ARC
  5
3E0
100
AcDbEntity
  8
0
100
AcDbCircle
 62
7
  6
CONTINUOUS
 10
4.226834605
 20
4.8486238764
 40
0.0196850394
100
AcDbArc
 50
270.0
 51
282.7092229253
  0
ARC
  5
3E1
100
AcDbEntity
  8
0
100
AcDbCircle
 62
7
  6
CONTINUOUS
 10
4.1407800209
 20
4.8486238764
 40
0.0196850394
100
AcDbArc
 50
225.0013272051
 51
270.0
  0
ARC
  5
3E2
100
AcDbEntity
  8
0
100
AcDbCircle
 62
7
  6
CONTINUOUS
 10
4.3213994649
 20
4.8486238764
 40
0.0196850394
100
AcDbArc
 50
270.0
 51
314.9986727946
  0
ARC
  5
3E3
100
AcDbEntity
  8
0
100
AcDbCircle
 62
7
  6
CONTINUOUS
 10
4.2271910705
 20
4.8567776867
 40
0.0196850394
100
AcDbArc
 50
180.0
 51
224.9999999998
  0
ARC
  5
3E4
100
AcDbEntity
  8
0
100
AcDbCircle
 62
7
  6
CONTINUOUS
 10
4.2353448808
 20
4.8486238764
 40
0.0196850394
100
AcDbArc
 50
225.0013272053
 51
270.0
  0
ARC
  5
3E5
100
AcDbEntity
  8
0
100
AcDbCircle
 62
7
  6
CONTINUOUS
 10
4.3106616956
 20
4.8316246608
 40
0.0078740157
100
AcDbArc
 50
200.3751729783
 51
259.8531132105
  0
ARC
  5
3E6
100
AcDbEntity
  8
0
100
AcDbCircle
 62
9
  6
CONTINUOUS
 10
4.5123138524
 20
3.0249447803
 40
1.7555505816
100
AcDbArc
 50
82.3876824811
 51
82.5256594316
  0
ARC
  5
3E7
100
AcDbEntity
  8
0
100
AcDbCircle
 62
9
  6
CONTINUOUS
 10
4.5497311158
 20
3.5340976427
 40
1.2339461811
100
AcDbArc
 50
80.9380704965
 51
81.0597620153
  0
ARC
  5
3E8
100
AcDbEntity
  8
0
100
AcDbCircle
 62
7
  6
CONTINUOUS
 10
4.676222846
 20
4.6663372388
 40
0.2382401306
100
AcDbArc
 50
88.7184356219
 51
89.987966584
  0
ARC
  5
3E9
100
AcDbEntity
  8
0
100
AcDbCircle
 62
7
  6
CONTINUOUS
 10
4.4483797421
 20
4.6648804949
 40
0.2322759992
100
AcDbArc
 50
74.2838736111
 51
74.5026483345
  0
ARC
  5
3EA
100
AcDbEntity
  8
0
100
AcDbCircle
 62
7
  6
CONTINUOUS
 10
4.8440894943
 20
4.7044768285
 40
0.0393700787
100
AcDbArc
 50
20.0
 51
28.762807137
  0
ARC
  5
3EB
100
AcDbEntity
  8
0
100
AcDbCircle
 62
7
  6
CONTINUOUS
 10
4.6238079558
 20
4.7243131542
 40
0.0118110236
100
AcDbArc
 50
225.0002531655
 51
270.0
  0
ARC
  5
3EC
100
AcDbEntity
  8
0
100
AcDbCircle
 62
7
  6
CONTINUOUS
 10
4.7641555987
 20
4.7243131542
 40
0.0118110236
100
AcDbArc
 50
270.0
 51
284.6898599032
  0
ARC
  5
3ED
100
AcDbEntity
  8
0
100
AcDbCircle
 62
7
  6
CONTINUOUS
 10
4.6715779663
 20
4.7243131542
 40
0.0118110236
100
AcDbArc
 50
225.0002531646
 51
270.0
  0
ARC
  5
3EE
100
AcDbEntity
  8
0
100
AcDbCircle
 62
7
  6
CONTINUOUS
 10
4.8626351415
 20
4.7243131542
 40
0.0118110236
100
AcDbArc
 50
270.0
 51
314.9997441386
  0
ARC
  5
3EF
100
AcDbEntity
  8
0
100
AcDbCircle
 62
7
  6
CONTINUOUS
 10
4.7700575091
 20
4.7243131542
 40
0.0118110236
100
AcDbArc
 50
225.0002558629
 51
270.0
  0
ARC
  5
3F0
100
AcDbEntity
  8
0
100
AcDbCircle
 62
9
  6
CONTINUOUS
 10
4.7591162129
 20
4.8352413016
 40
0.0670141119
100
AcDbArc
 50
254.1248809713
 51
254.479093525
  0
ARC
  5
3F1
100
AcDbEntity
  8
0
100
AcDbCircle
 62
7
  6
CONTINUOUS
 10
4.4930390765
 20
4.8983248549
 40
0.0196850394
100
AcDbArc
 50
315.0000000002
 51
360.0
  0
ARC
  5
3F2
100
AcDbEntity
  8
0
100
AcDbCircle
 62
7
  6
CONTINUOUS
 10
4.3670548245
 20
4.8983248549
 40
0.0196850394
100
AcDbArc
 50
180.0
 51
224.9999999998
  0
ARC
  5
3F3
100
AcDbEntity
  8
0
100
AcDbCircle
 62
7
  6
CONTINUOUS
 10
4.3752086348
 20
4.8901710446
 40
0.0196850394
100
AcDbArc
 50
225.0011432895
 51
270.0
  0
ARC
  5
3F4
100
AcDbEntity
  8
0
100
AcDbCircle
 62
7
  6
CONTINUOUS
 10
4.4848852662
 20
4.8901710446
 40
0.0196850394
100
AcDbArc
 50
270.0
 51
314.9988567095
  0
ARC
  5
3F5
100
AcDbEntity
  8
0
100
AcDbCircle
 62
7
  6
CONTINUOUS
 10
4.8273452981
 20
4.8983248549
 40
0.0196850394
100
AcDbArc
 50
315.0000000002
 51
360.0
  0
ARC
  5
3F6
100
AcDbEntity
  8
0
100
AcDbCircle
 62
7
  6
CONTINUOUS
 10
4.7013610461
 20
4.8983248549
 40
0.0196850394
100
AcDbArc
 50
180.0
 51
224.9999999998
  0
ARC
  5
3F7
100
AcDbEntity
  8
0
100
AcDbCircle
 62
7
  6
CONTINUOUS
 10
4.7095148564
 20
4.8901710446
 40
0.0196850394
100
AcDbArc
 50
225.0011432897
 51
270.0
  0
ARC
  5
3F8
100
AcDbEntity
  8
0
100
AcDbCircle
 62
7
  6
CONTINUOUS
 10
4.8191914878
 20
4.8901710446
 40
0.0196850394
100
AcDbArc
 50
270.0
 51
314.9988567103
  0
ARC
  5
3F9
100
AcDbEntity
  8
0
100
AcDbCircle
 62
7
  6
CONTINUOUS
 10
4.4098763513
 20
4.8567776867
 40
0.0196850394
100
AcDbArc
 50
180.0
 51
224.9999999999
  0
ARC
  5
3FA
100
AcDbEntity
  8
0
100
AcDbCircle
 62
7
  6
CONTINUOUS
 10
4.512238556
 20
4.8567776867
 40
0.0196850394
100
AcDbArc
 50
315.0000000001
 51
360.0
  0
ARC
  5
3FB
100
AcDbEntity
  8
0
100
AcDbCircle
 62
7
  6
CONTINUOUS
 10
4.5040847458
 20
4.8486238764
 40
0.0196850394
100
AcDbArc
 50
270.0
 51
314.998672795
  0
ARC
  5
3FC
100
AcDbEntity
  8
0
100
AcDbCircle
 62
7
  6
CONTINUOUS
 10
4.4180301616
 20
4.8486238764
 40
0.0196850394
100
AcDbArc
 50
225.0013272058
 51
270.0
  0
ARC
  5
3FD
100
AcDbEntity
  8
0
100
AcDbCircle
 62
7
  6
CONTINUOUS
 10
4.3295532752
 20
4.8567776867
 40
0.0196850394
100
AcDbArc
 50
315.0000000002
 51
360.0
  0
ARC
  5
3FE
100
AcDbEntity
  8
0
100
AcDbCircle
 62
7
  6
CONTINUOUS
 10
4.7624407476
 20
4.8486238764
 40
0.0196850394
100
AcDbArc
 50
270.0
 51
314.9986727883
  0
ARC
  5
3FF
100
AcDbEntity
  8
0
100
AcDbCircle
 62
7
  6
CONTINUOUS
 10
4.7705945579
 20
4.8567776867
 40
0.0196850394
100
AcDbArc
 50
315.0000000001
 51
360.0
  0
ARC
  5
400
100
AcDbEntity
  8
0
100
AcDbCircle
 62
7
  6
CONTINUOUS
 10
4.6682323531
 20
4.8567776867
 40
0.0196850394
100
AcDbArc
 50
180.0
 51
224.9999999999
  0
ARC
  5
401
100
AcDbEntity
  8
0
100
AcDbCircle
 62
7
  6
CONTINUOUS
 10
4.6763861634
 20
4.8486238764
 40
0.0196850394
100
AcDbArc
 50
225.0013272118
 51
270.0
  0
ARC
  5
402
100
AcDbEntity
  8
0
100
AcDbCircle
 62
9
  6
CONTINUOUS
 10
4.5876844232
 20
4.7635653856
 40
0.0118719934
100
AcDbArc
 50
0.0026129954
 51
20.6649644513
  0
ARC
  5
403
100
AcDbEntity
  8
0
100
AcDbCircle
 62
7
  6
CONTINUOUS
 10
4.6110416539
 20
4.7370794561
 40
0.0118110236
100
AcDbArc
 50
180.0
 51
225.0000000007
  0
ARC
  5
404
100
AcDbEntity
  8
0
100
AcDbCircle
 62
7
  6
CONTINUOUS
 10
4.6588116644
 20
4.7370794561
 40
0.0118110236
100
AcDbArc
 50
180.0
 51
225.0000000003
  0
ARC
  5
405
100
AcDbEntity
  8
0
100
AcDbCircle
 62
7
  6
CONTINUOUS
 10
4.8754014434
 20
4.7370794561
 40
0.0118110236
100
AcDbArc
 50
315.0
 51
360.0
  0
ARC
  5
406
100
AcDbEntity
  8
0
100
AcDbCircle
 62
7
  6
CONTINUOUS
 10
4.7572912072
 20
4.7370794561
 40
0.0118110236
100
AcDbArc
 50
180.0
 51
225.0
  0
ARC
  5
407
100
AcDbEntity
  8
0
100
AcDbCircle
 62
9
  6
CONTINUOUS
 10
4.5877798055
 20
4.7636143423
 40
0.0117648074
100
AcDbArc
 50
20.6058143979
 51
81.995353124
  0
ARC
  5
408
100
AcDbEntity
  8
0
100
AcDbCircle
 62
7
  6
CONTINUOUS
 10
5.3795022842
 20
4.5632979456
 40
0.3412794185
100
AcDbArc
 50
89.7139472839
 51
89.9996082306
  0
ARC
  5
409
100
AcDbEntity
  8
0
100
AcDbCircle
 62
7
  6
CONTINUOUS
 10
5.0086770153
 20
4.5929902567
 40
0.3115871096
100
AcDbArc
 50
88.8102006204
 51
89.9931356118
  0
ARC
  5
40A
100
AcDbEntity
  8
0
100
AcDbCircle
 62
7
  6
CONTINUOUS
 10
5.0209809418
 20
4.6249048887
 40
0.2786790932
100
AcDbArc
 50
79.5767978335
 51
80.6135101857
  0
ARC
  5
40B
100
AcDbEntity
  8
0
100
AcDbCircle
 62
7
  6
CONTINUOUS
 10
5.4025567706
 20
4.6270246479
 40
0.0196850394
100
AcDbArc
 50
225.0025651318
 51
270.0
  0
ARC
  5
40C
100
AcDbEntity
  8
0
100
AcDbCircle
 62
7
  6
CONTINUOUS
 10
5.3665641107
 20
4.6073396085
 40
0.0196850394
100
AcDbArc
 50
44.9999999999
 51
89.9960818715
  0
ARC
  5
40D
100
AcDbEntity
  8
0
100
AcDbCircle
 62
7
  6
CONTINUOUS
 10
5.3093002641
 20
4.6270246479
 40
0.0196850394
100
AcDbArc
 50
270.0
 51
314.9974348101
  0
ARC
  5
40E
100
AcDbEntity
  8
0
100
AcDbCircle
 62
7
  6
CONTINUOUS
 10
5.0933244201
 20
4.6270246479
 40
0.0196850394
100
AcDbArc
 50
225.0025651903
 51
270.0
  0
ARC
  5
40F
100
AcDbEntity
  8
0
100
AcDbCircle
 62
7
  6
CONTINUOUS
 10
5.345292924
 20
4.6073396085
 40
0.0196850394
100
AcDbArc
 50
90.0039289499
 51
135.000000001
  0
ARC
  5
410
100
AcDbEntity
  8
0
100
AcDbCircle
 62
7
  6
CONTINUOUS
 10
5.0573317601
 20
4.6073396085
 40
0.0196850394
100
AcDbArc
 50
44.999999999
 51
89.9960710504
  0
ARC
  5
411
100
AcDbEntity
  8
0
100
AcDbCircle
 62
7
  6
CONTINUOUS
 10
5.0009077065
 20
4.6270246479
 40
0.0196850394
100
AcDbArc
 50
225.0025651318
 51
270.0
  0
ARC
  5
412
100
AcDbEntity
  8
0
100
AcDbCircle
 62
7
  6
CONTINUOUS
 10
4.9649150466
 20
4.6073396085
 40
0.0196850394
100
AcDbArc
 50
44.9999999999
 51
89.9960818712
  0
ARC
  5
413
100
AcDbEntity
  8
0
100
AcDbCircle
 62
7
  6
CONTINUOUS
 10
5.3954189313
 20
4.6270246479
 40
0.0196850394
100
AcDbArc
 50
270.0
 51
280.6595944996
  0
ARC
  5
414
100
AcDbEntity
  8
0
100
AcDbCircle
 62
7
  6
CONTINUOUS
 10
4.9279601582
 20
4.6467096872
 40
0.0196850394
100
AcDbArc
 50
200.0000948198
 51
270.0
  0
ARC
  5
415
100
AcDbEntity
  8
0
100
AcDbCircle
 62
7
  6
CONTINUOUS
 10
5.4217399757
 20
4.7243131542
 40
0.0118110236
100
AcDbArc
 50
270.0
 51
314.9997468354
  0
ARC
  5
416
100
AcDbEntity
  8
0
100
AcDbCircle
 62
7
  6
CONTINUOUS
 10
5.3291623433
 20
4.7243131542
 40
0.0118110236
100
AcDbArc
 50
225.0002531647
 51
270.0
  0
ARC
  5
417
100
AcDbEntity
  8
0
100
AcDbCircle
 62
9
  6
CONTINUOUS
 10
5.438152181
 20
4.8103392331
 40
0.0534306275
100
AcDbArc
 50
282.7411408279
 51
284.4505092155
  0
ARC
  5
418
100
AcDbEntity
  8
0
100
AcDbCircle
 62
7
  6
CONTINUOUS
 10
5.2166531387
 20
4.8983248549
 40
0.0196850394
100
AcDbArc
 50
315.0000000002
 51
360.0
  0
ARC
  5
419
100
AcDbEntity
  8
0
100
AcDbCircle
 62
7
  6
CONTINUOUS
 10
5.0906688867
 20
4.8983248549
 40
0.0196850394
100
AcDbArc
 50
180.0
 51
224.9999999998
  0
ARC
  5
41A
100
AcDbEntity
  8
0
100
AcDbCircle
 62
7
  6
CONTINUOUS
 10
5.098822697
 20
4.8901710446
 40
0.0196850394
100
AcDbArc
 50
225.0011432896
 51
270.0
  0
ARC
  5
41B
100
AcDbEntity
  8
0
100
AcDbCircle
 62
7
  6
CONTINUOUS
 10
5.2084993284
 20
4.8901710446
 40
0.0196850394
100
AcDbArc
 50
270.0
 51
314.9988567095
  0
ARC
  5
41C
100
AcDbEntity
  8
0
100
AcDbCircle
 62
7
  6
CONTINUOUS
 10
4.9846525414
 20
4.8567776867
 40
0.0196850394
100
AcDbArc
 50
180.0
 51
224.9999999996
  0
ARC
  5
41D
100
AcDbEntity
  8
0
100
AcDbCircle
 62
7
  6
CONTINUOUS
 10
5.0870147461
 20
4.8567776867
 40
0.0196850394
100
AcDbArc
 50
315.0000000004
 51
360.0
  0
ARC
  5
41E
100
AcDbEntity
  8
0
100
AcDbCircle
 62
7
  6
CONTINUOUS
 10
5.0788609358
 20
4.8486238764
 40
0.0196850394
100
AcDbArc
 50
270.0
 51
314.9986727934
  0
ARC
  5
41F
100
AcDbEntity
  8
0
100
AcDbCircle
 62
7
  6
CONTINUOUS
 10
4.9928063516
 20
4.8486238764
 40
0.0196850394
100
AcDbArc
 50
225.0013272065
 51
270.0
  0
ARC
  5
420
100
AcDbEntity
  8
0
100
AcDbCircle
 62
7
  6
CONTINUOUS
 10
5.4317817975
 20
4.8486238764
 40
0.0196850394
100
AcDbArc
 50
270.0
 51
314.998672795
  0
ARC
  5
421
100
AcDbEntity
  8
0
100
AcDbCircle
 62
7
  6
CONTINUOUS
 10
5.4399356078
 20
4.8567776867
 40
0.0196850394
100
AcDbArc
 50
315.0000000001
 51
360.0
  0
ARC
  5
422
100
AcDbEntity
  8
0
100
AcDbCircle
 62
7
  6
CONTINUOUS
 10
5.3375734031
 20
4.8567776867
 40
0.0196850394
100
AcDbArc
 50
180.0
 51
224.9999999999
  0
ARC
  5
423
100
AcDbEntity
  8
0
100
AcDbCircle
 62
7
  6
CONTINUOUS
 10
5.3457272133
 20
4.8486238764
 40
0.0196850394
100
AcDbArc
 50
225.0013272053
 51
270.0
  0
ARC
  5
424
100
AcDbEntity
  8
0
100
AcDbCircle
 62
7
  6
CONTINUOUS
 10
5.4345062776
 20
4.7370794561
 40
0.0118110236
100
AcDbArc
 50
315.0000000004
 51
360.0
  0
ARC
  5
425
100
AcDbEntity
  8
0
100
AcDbCircle
 62
7
  6
CONTINUOUS
 10
5.3163960414
 20
4.7370794561
 40
0.0118110236
100
AcDbArc
 50
180.0
 51
224.9999999996
  0
ARC
  5
426
100
AcDbEntity
  8
0
100
AcDbCircle
 62
9
  6
CONTINUOUS
 10
7.1519210043
 20
-0.3331847826
 40
5.1430675324
100
AcDbArc
 50
96.7688932791
 51
97.0796370255
  0
ARC
  5
427
100
AcDbEntity
  8
0
100
AcDbCircle
 62
9
  6
CONTINUOUS
 10
6.7119799915
 20
2.5193910721
 40
2.2649535603
100
AcDbArc
 50
97.1880215872
 51
97.3165989559
  0
ARC
  5
428
100
AcDbEntity
  8
0
100
AcDbCircle
 62
7
  6
CONTINUOUS
 10
5.7633770858
 20
4.5628229445
 40
0.3417544196
100
AcDbArc
 50
90.0003572661
 51
90.3847572356
  0
ARC
  5
429
100
AcDbEntity
  8
0
100
AcDbCircle
 62
7
  6
CONTINUOUS
 10
5.7403228019
 20
4.6270246479
 40
0.0196850394
100
AcDbArc
 50
270.0
 51
280.6595944687
  0
ARC
  5
42A
100
AcDbEntity
  8
0
100
AcDbCircle
 62
7
  6
CONTINUOUS
 10
5.9634364852
 20
4.6270246479
 40
0.0196850394
100
AcDbArc
 50
270.0
 51
314.9974348101
  0
ARC
  5
42B
100
AcDbEntity
  8
0
100
AcDbCircle
 62
7
  6
CONTINUOUS
 10
5.7474606412
 20
4.6270246479
 40
0.0196850394
100
AcDbArc
 50
225.0025651903
 51
270.0
  0
ARC
  5
42C
100
AcDbEntity
  8
0
100
AcDbCircle
 62
7
  6
CONTINUOUS
 10
5.9994291451
 20
4.6073396085
 40
0.0196850394
100
AcDbArc
 50
90.0039289499
 51
135.000000001
  0
ARC
  5
42D
100
AcDbEntity
  8
0
100
AcDbCircle
 62
7
  6
CONTINUOUS
 10
5.7114679812
 20
4.6073396085
 40
0.0196850394
100
AcDbArc
 50
44.999999999
 51
89.9960710504
  0
ARC
  5
42E
100
AcDbEntity
  8
0
100
AcDbCircle
 62
7
  6
CONTINUOUS
 10
5.6185326146
 20
4.6270246479
 40
0.0196850394
100
AcDbArc
 50
270.0
 51
314.9974348679
  0
ARC
  5
42F
100
AcDbEntity
  8
0
100
AcDbCircle
 62
7
  6
CONTINUOUS
 10
5.6545252746
 20
4.6073396085
 40
0.0196850394
100
AcDbArc
 50
90.0039181288
 51
135.0000000001
  0
ARC
  5
430
100
AcDbEntity
  8
0
100
AcDbCircle
 62
7
  6
CONTINUOUS
 10
5.6414321383
 20
4.7243131542
 40
0.0118110236
100
AcDbArc
 50
270.0
 51
314.9997468341
  0
ARC
  5
431
100
AcDbEntity
  8
0
100
AcDbCircle
 62
7
  6
CONTINUOUS
 10
5.5488545059
 20
4.7243131542
 40
0.0118110236
100
AcDbArc
 50
225.0002531647
 51
270.0
  0
ARC
  5
432
100
AcDbEntity
  8
0
100
AcDbCircle
 62
7
  6
CONTINUOUS
 10
5.8597161083
 20
4.7243131542
 40
0.0118110236
100
AcDbArc
 50
270.0
 51
314.999746836
  0
ARC
  5
433
100
AcDbEntity
  8
0
100
AcDbCircle
 62
7
  6
CONTINUOUS
 10
5.767138476
 20
4.7243131542
 40
0.0118110236
100
AcDbArc
 50
225.0002531659
 51
270.0
  0
ARC
  5
434
100
AcDbEntity
  8
0
100
AcDbCircle
 62
9
  6
CONTINUOUS
 10
5.8711971882
 20
4.8191593823
 40
0.0585440147
100
AcDbArc
 50
286.0765992526
 51
286.8705220385
  0
ARC
  5
435
100
AcDbEntity
  8
0
100
AcDbCircle
 62
9
  6
CONTINUOUS
 10
5.6549635798
 20
4.8146140024
 40
0.0560588685
100
AcDbArc
 50
284.8318839772
 51
286.0923629905
  0
ARC
  5
436
100
AcDbEntity
  8
0
100
AcDbCircle
 62
9
  6
CONTINUOUS
 10
5.8728254698
 20
4.8137508551
 40
0.052895712
100
AcDbArc
 50
286.8828734206
 51
287.1788174242
  0
ARC
  5
437
100
AcDbEntity
  8
0
100
AcDbCircle
 62
7
  6
CONTINUOUS
 10
5.6344319122
 20
4.8983248549
 40
0.0196850394
100
AcDbArc
 50
315.0000000003
 51
360.0
  0
ARC
  5
438
100
AcDbEntity
  8
0
100
AcDbCircle
 62
7
  6
CONTINUOUS
 10
5.5084476603
 20
4.8983248549
 40
0.0196850394
100
AcDbArc
 50
180.0
 51
224.9999999997
  0
ARC
  5
439
100
AcDbEntity
  8
0
100
AcDbCircle
 62
7
  6
CONTINUOUS
 10
5.5166014706
 20
4.8901710446
 40
0.0196850394
100
AcDbArc
 50
225.0011432902
 51
270.0
  0
ARC
  5
43A
100
AcDbEntity
  8
0
100
AcDbCircle
 62
7
  6
CONTINUOUS
 10
5.626278102
 20
4.8901710446
 40
0.0196850394
100
AcDbArc
 50
270.0
 51
314.9988567098
  0
ARC
  5
43B
100
AcDbEntity
  8
0
100
AcDbCircle
 62
7
  6
CONTINUOUS
 10
6.0522106858
 20
4.8983248549
 40
0.0196850394
100
AcDbArc
 50
314.9999999999
 51
360.0
  0
ARC
  5
43C
100
AcDbEntity
  8
0
100
AcDbCircle
 62
7
  6
CONTINUOUS
 10
5.9262264339
 20
4.8983248549
 40
0.0196850394
100
AcDbArc
 50
180.0
 51
225.0000000001
  0
ARC
  5
43D
100
AcDbEntity
  8
0
100
AcDbCircle
 62
7
  6
CONTINUOUS
 10
5.9343802441
 20
4.8901710446
 40
0.0196850394
100
AcDbArc
 50
225.0011432902
 51
270.0
  0
ARC
  5
43E
100
AcDbEntity
  8
0
100
AcDbCircle
 62
7
  6
CONTINUOUS
 10
6.0440568756
 20
4.8901710446
 40
0.0196850394
100
AcDbArc
 50
270.0
 51
314.9988567098
  0
ARC
  5
43F
100
AcDbEntity
  8
0
100
AcDbCircle
 62
7
  6
CONTINUOUS
 10
6.0558648264
 20
4.8567776867
 40
0.0196850394
100
AcDbArc
 50
180.0
 51
224.9999999998
  0
ARC
  5
440
100
AcDbEntity
  8
0
100
AcDbCircle
 62
7
  6
CONTINUOUS
 10
6.0640186367
 20
4.8486238764
 40
0.0196850394
100
AcDbArc
 50
225.0013272053
 51
270.0
  0
ARC
  5
441
100
AcDbEntity
  8
0
100
AcDbCircle
 62
7
  6
CONTINUOUS
 10
5.7971523592
 20
4.8486238764
 40
0.0196850394
100
AcDbArc
 50
270.0
 51
314.9986727949
  0
ARC
  5
442
100
AcDbEntity
  8
0
100
AcDbCircle
 62
7
  6
CONTINUOUS
 10
5.711097775
 20
4.8486238764
 40
0.0196850394
100
AcDbArc
 50
225.0013272051
 51
270.0
  0
ARC
  5
443
100
AcDbEntity
  8
0
100
AcDbCircle
 62
7
  6
CONTINUOUS
 10
5.7029439647
 20
4.8567776867
 40
0.0196850394
100
AcDbArc
 50
180.0
 51
224.9999999998
  0
ARC
  5
444
100
AcDbEntity
  8
0
100
AcDbCircle
 62
7
  6
CONTINUOUS
 10
5.8053061695
 20
4.8567776867
 40
0.0196850394
100
AcDbArc
 50
315.0000000002
 51
360.0
  0
ARC
  5
445
100
AcDbEntity
  8
0
100
AcDbCircle
 62
7
  6
CONTINUOUS
 10
5.6541984402
 20
4.7370794561
 40
0.0118110236
100
AcDbArc
 50
314.9999999996
 51
360.0
  0
ARC
  5
446
100
AcDbEntity
  8
0
100
AcDbCircle
 62
7
  6
CONTINUOUS
 10
5.536088204
 20
4.7370794561
 40
0.0118110236
100
AcDbArc
 50
180.0
 51
225.0000000004
  0
ARC
  5
447
100
AcDbEntity
  8
0
100
AcDbCircle
 62
7
  6
CONTINUOUS
 10
5.8724824103
 20
4.7370794561
 40
0.0118110236
100
AcDbArc
 50
314.9999999994
 51
360.0
  0
ARC
  5
448
100
AcDbEntity
  8
0
100
AcDbCircle
 62
7
  6
CONTINUOUS
 10
5.754372174
 20
4.7370794561
 40
0.0118110236
100
AcDbArc
 50
180.0
 51
225.0000000006
  0
ARC
  5
449
100
AcDbEntity
  8
0
100
AcDbCircle
 62
7
  6
CONTINUOUS
 10
6.1342264294
 20
4.5920852031
 40
0.312492167
100
AcDbArc
 50
90.0112215036
 51
90.8821195162
  0
ARC
  5
44A
100
AcDbEntity
  8
0
100
AcDbCircle
 62
7
  6
CONTINUOUS
 10
6.120644063
 20
4.6321105886
 40
0.2713662439
100
AcDbArc
 50
99.4755185356
 51
100.4351524351
  0
ARC
  5
44B
100
AcDbEntity
  8
0
100
AcDbCircle
 62
7
  6
CONTINUOUS
 10
6.4667544262
 20
4.6576098764
 40
0.246967532
100
AcDbArc
 50
90.0342742197
 51
91.2588008815
  0
ARC
  5
44C
100
AcDbEntity
  8
0
100
AcDbCircle
 62
7
  6
CONTINUOUS
 10
6.2987900783
 20
4.7044768285
 40
0.0393700787
100
AcDbArc
 50
117.4883173629
 51
160.0
  0
ARC
  5
44D
100
AcDbEntity
  8
0
100
AcDbCircle
 62
7
  6
CONTINUOUS
 10
6.141971866
 20
4.6270246479
 40
0.0196850394
100
AcDbArc
 50
270.0
 51
314.9974348682
  0
ARC
  5
44E
100
AcDbEntity
  8
0
100
AcDbCircle
 62
7
  6
CONTINUOUS
 10
6.177964526
 20
4.6073396085
 40
0.0196850394
100
AcDbArc
 50
90.0039181288
 51
135.0000000001
  0
ARC
  5
44F
100
AcDbEntity
  8
0
100
AcDbCircle
 62
7
  6
CONTINUOUS
 10
6.2149194143
 20
4.6467096872
 40
0.0196850394
100
AcDbArc
 50
270.0
 51
339.9999051803
  0
ARC
  5
450
100
AcDbEntity
  8
0
100
AcDbCircle
 62
7
  6
CONTINUOUS
 10
6.2959168536
 20
4.7243131542
 40
0.0118110236
100
AcDbArc
 50
270.0
 51
292.4997467748
  0
ARC
  5
451
100
AcDbEntity
  8
0
100
AcDbCircle
 62
7
  6
CONTINUOUS
 10
6.397943984
 20
4.7243131542
 40
0.0118110236
100
AcDbArc
 50
270.0
 51
314.9997468355
  0
ARC
  5
452
100
AcDbEntity
  8
0
100
AcDbCircle
 62
7
  6
CONTINUOUS
 10
6.3053663516
 20
4.7243131542
 40
0.0118110236
100
AcDbArc
 50
225.0002531656
 51
270.0
  0
ARC
  5
453
100
AcDbEntity
  8
0
100
AcDbCircle
 62
7
  6
CONTINUOUS
 10
6.485951197
 20
4.7243131542
 40
0.0118110236
100
AcDbArc
 50
270.0
 51
314.9997468347
  0
ARC
  5
454
100
AcDbEntity
  8
0
100
AcDbCircle
 62
7
  6
CONTINUOUS
 10
6.5223785669
 20
4.7243131542
 40
0.0118110236
100
AcDbArc
 50
270.0
 51
314.9997468346
  0
ARC
  5
455
100
AcDbEntity
  8
0
100
AcDbCircle
 62
7
  6
CONTINUOUS
 10
6.4415185264
 20
4.8983248549
 40
0.0196850394
100
AcDbArc
 50
315.0000000003
 51
360.0
  0
ARC
  5
456
100
AcDbEntity
  8
0
100
AcDbCircle
 62
7
  6
CONTINUOUS
 10
6.3155342744
 20
4.8983248549
 40
0.0196850394
100
AcDbArc
 50
180.0
 51
224.9999999997
  0
ARC
  5
457
100
AcDbEntity
  8
0
100
AcDbCircle
 62
7
  6
CONTINUOUS
 10
6.3236880847
 20
4.8901710446
 40
0.0196850394
100
AcDbArc
 50
225.00114329
 51
270.0
  0
ARC
  5
458
100
AcDbEntity
  8
0
100
AcDbCircle
 62
7
  6
CONTINUOUS
 10
6.4333647161
 20
4.8901710446
 40
0.0196850394
100
AcDbArc
 50
270.0
 51
314.99885671
  0
ARC
  5
459
100
AcDbEntity
  8
0
100
AcDbCircle
 62
7
  6
CONTINUOUS
 10
6.3722850147
 20
4.8567776867
 40
0.0196850394
100
AcDbArc
 50
180.0
 51
224.9999999999
  0
ARC
  5
45A
100
AcDbEntity
  8
0
100
AcDbCircle
 62
7
  6
CONTINUOUS
 10
6.4746472194
 20
4.8567776867
 40
0.0196850394
100
AcDbArc
 50
315.0000000001
 51
360.0
  0
ARC
  5
45B
100
AcDbEntity
  8
0
100
AcDbCircle
 62
7
  6
CONTINUOUS
 10
6.4664934091
 20
4.8486238764
 40
0.0196850394
100
AcDbArc
 50
270.0
 51
314.998672795
  0
ARC
  5
45C
100
AcDbEntity
  8
0
100
AcDbCircle
 62
7
  6
CONTINUOUS
 10
6.3804388249
 20
4.8486238764
 40
0.0196850394
100
AcDbArc
 50
225.0013272058
 51
270.0
  0
ARC
  5
45D
100
AcDbEntity
  8
0
100
AcDbCircle
 62
7
  6
CONTINUOUS
 10
6.1500732209
 20
4.8486238764
 40
0.0196850394
100
AcDbArc
 50
270.0
 51
314.9986727946
  0
ARC
  5
45E
100
AcDbEntity
  8
0
100
AcDbCircle
 62
7
  6
CONTINUOUS
 10
6.1582270312
 20
4.8567776867
 40
0.0196850394
100
AcDbArc
 50
315.0000000002
 51
360.0
  0
ARC
  5
45F
100
AcDbEntity
  8
0
100
AcDbCircle
 62
7
  6
CONTINUOUS
 10
6.6306410165
 20
4.8567776867
 40
0.0196850394
100
AcDbArc
 50
180.0
 51
224.9999999999
  0
ARC
  5
460
100
AcDbEntity
  8
0
100
AcDbCircle
 62
7
  6
CONTINUOUS
 10
6.6387948268
 20
4.8486238764
 40
0.0196850394
100
AcDbArc
 50
225.0013272118
 51
270.0
  0
ARC
  5
461
100
AcDbEntity
  8
0
100
AcDbCircle
 62
9
  6
CONTINUOUS
 10
6.55875679
 20
4.7635572777
 40
0.0118680643
100
AcDbArc
 50
159.2858967566
 51
164.9315695889
  0
ARC
  5
462
100
AcDbEntity
  8
0
100
AcDbCircle
 62
9
  6
CONTINUOUS
 10
6.5587043428
 20
4.7635726247
 40
0.0118150243
100
AcDbArc
 50
176.2091034957
 51
180.0328207074
  0
ARC
  5
463
100
AcDbEntity
  8
0
100
AcDbCircle
 62
9
  6
CONTINUOUS
 10
6.5587019266
 20
4.7635705351
 40
0.0118116509
100
AcDbArc
 50
132.6354792334
 51
155.5624792122
  0
ARC
  5
464
100
AcDbEntity
  8
0
100
AcDbCircle
 62
7
  6
CONTINUOUS
 10
6.4107102859
 20
4.7370794561
 40
0.0118110236
100
AcDbArc
 50
314.9999999998
 51
360.0
  0
ARC
  5
465
100
AcDbEntity
  8
0
100
AcDbCircle
 62
7
  6
CONTINUOUS
 10
6.2926000497
 20
4.7370794561
 40
0.0118110236
100
AcDbArc
 50
180.0
 51
225.0000000002
  0
ARC
  5
466
100
AcDbEntity
  8
0
100
AcDbCircle
 62
7
  6
CONTINUOUS
 10
6.4987174989
 20
4.7370794561
 40
0.0118110236
100
AcDbArc
 50
314.9999999998
 51
360.0
  0
ARC
  5
467
100
AcDbEntity
  8
0
100
AcDbCircle
 62
7
  6
CONTINUOUS
 10
6.5351448688
 20
4.7370794561
 40
0.0118110236
100
AcDbArc
 50
315.0000000005
 51
360.0
  0
ARC
  5
468
100
AcDbEntity
  8
0
100
AcDbCircle
 62
9
  6
CONTINUOUS
 10
6.5586706891
 20
4.7635700104
 40
0.0117816181
100
AcDbArc
 50
164.882505659
 51
176.185597009
  0
ARC
  5
469
100
AcDbEntity
  8
0
100
AcDbCircle
 62
9
  6
CONTINUOUS
 10
6.5586766142
 20
4.7636208079
 40
0.0117543813
100
AcDbArc
 50
97.8830174272
 51
132.6402287808
  0
ARC
  5
46A
100
AcDbEntity
  8
0
100
AcDbCircle
 62
9
  6
CONTINUOUS
 10
6.5586220982
 20
4.7636041901
 40
0.0117254868
100
AcDbArc
 50
155.5613660509
 51
159.2675172559
  0
ARC
  5
46B
100
AcDbEntity
  8
0
100
AcDbCircle
 62
7
  6
CONTINUOUS
 10
7.1436697328
 20
4.6638614359
 40
0.2729490055
100
AcDbArc
 50
107.1008469881
 51
107.5006532919
  0
ARC
  5
46C
100
AcDbEntity
  8
0
100
AcDbCircle
 62
7
  6
CONTINUOUS
 10
6.6923634383
 20
4.6725549861
 40
0.2243095539
100
AcDbArc
 50
105.5086731637
 51
105.9119768456
  0
ARC
  5
46D
100
AcDbEntity
  8
0
100
AcDbCircle
 62
7
  6
CONTINUOUS
 10
7.6414397863
 20
5.0681601019
 40
0.08
100
AcDbArc
 50
2.2714508417
 51
67.1367765692
  0
ARC
  5
46E
100
AcDbEntity
  8
0
100
AcDbCircle
 62
7
  6
CONTINUOUS
 10
7.2404513303
 20
4.8901710446
 40
0.0196850394
100
AcDbArc
 50
269.998993262
 51
314.9988567098
  0
ARC
  5
46F
100
AcDbEntity
  8
0
100
AcDbCircle
 62
7
  6
CONTINUOUS
 10
7.2486051406
 20
4.8983248549
 40
0.0196850394
100
AcDbArc
 50
314.9975411856
 51
360.0
  0
ARC
  5
470
100
AcDbEntity
  8
0
100
AcDbCircle
 62
7
  6
CONTINUOUS
 10
6.775824748
 20
4.8983248549
 40
0.0196850394
100
AcDbArc
 50
315.0000000002
 51
360.0
  0
ARC
  5
471
100
AcDbEntity
  8
0
100
AcDbCircle
 62
7
  6
CONTINUOUS
 10
6.649840496
 20
4.8983248549
 40
0.0196850394
100
AcDbArc
 50
180.0
 51
224.9999999998
  0
ARC
  5
472
100
AcDbEntity
  8
0
100
AcDbCircle
 62
7
  6
CONTINUOUS
 10
6.6579943063
 20
4.8901710446
 40
0.0196850394
100
AcDbArc
 50
225.0011432895
 51
270.0
  0
ARC
  5
473
100
AcDbEntity
  8
0
100
AcDbCircle
 62
7
  6
CONTINUOUS
 10
6.7676709377
 20
4.8901710446
 40
0.0196850394
100
AcDbArc
 50
270.0
 51
314.9988567094
  0
ARC
  5
474
100
AcDbEntity
  8
0
100
AcDbCircle
 62
7
  6
CONTINUOUS
 10
6.7248494109
 20
4.8486238764
 40
0.0196850394
100
AcDbArc
 50
270.0
 51
314.9986727883
  0
ARC
  5
475
100
AcDbEntity
  8
0
100
AcDbCircle
 62
7
  6
CONTINUOUS
 10
6.7330032212
 20
4.8567776867
 40
0.0196850394
100
AcDbArc
 50
315.0000000001
 51
360.0
  0
ARC
  5
476
100
AcDbEntity
  8
0
100
AcDbCircle
 62
7
  6
CONTINUOUS
 10
7.0323469341
 20
4.8983248549
 40
0.0196850394
100
AcDbArc
 50
315.0000000002
 51
360.0
  0
ARC
  5
477
100
AcDbEntity
  8
0
100
AcDbCircle
 62
7
  6
CONTINUOUS
 10
7.0241931238
 20
4.8901710446
 40
0.0196850394
100
AcDbArc
 50
270.0
 51
314.9989630351
  0
ARC
  5
478
100
AcDbEntity
  8
0
100
AcDbCircle
 62
7
  6
CONTINUOUS
 10
6.9145164924
 20
4.8901710446
 40
0.0196850394
100
AcDbArc
 50
225.0010369649
 51
270.0
  0
ARC
  5
479
100
AcDbEntity
  8
0
100
AcDbCircle
 62
7
  6
CONTINUOUS
 10
6.9063626821
 20
4.8983248549
 40
0.0196850394
100
AcDbArc
 50
180.0
 51
224.9999999998
  0
ARC
  5
47A
100
AcDbEntity
  8
0
100
AcDbCircle
 62
7
  6
CONTINUOUS
 10
6.9160449675
 20
4.8486238764
 40
0.0196850394
100
AcDbArc
 50
257.2907770745
 51
270.0
  0
ARC
  5
47B
100
AcDbEntity
  8
0
100
AcDbCircle
 62
7
  6
CONTINUOUS
 10
7.0102533619
 20
4.8567776867
 40
0.0196850394
100
AcDbArc
 50
315.0000000001
 51
360.0
  0
ARC
  5
47C
100
AcDbEntity
  8
0
100
AcDbCircle
 62
7
  6
CONTINUOUS
 10
7.0020995516
 20
4.8486238764
 40
0.0196850394
100
AcDbArc
 50
270.0
 51
314.998672795
  0
ARC
  5
47D
100
AcDbEntity
  8
0
100
AcDbCircle
 62
7
  6
CONTINUOUS
 10
6.8214801076
 20
4.8486238764
 40
0.0196850394
100
AcDbArc
 50
225.0013272065
 51
270.0
  0
ARC
  5
47E
100
AcDbEntity
  8
0
100
AcDbCircle
 62
7
  6
CONTINUOUS
 10
6.9075346918
 20
4.8486238764
 40
0.0196850394
100
AcDbArc
 50
270.0
 51
314.9986727935
  0
ARC
  5
47F
100
AcDbEntity
  8
0
100
AcDbCircle
 62
7
  6
CONTINUOUS
 10
6.915688502
 20
4.8567776867
 40
0.0196850394
100
AcDbArc
 50
315.0000000004
 51
360.0
  0
ARC
  5
480
100
AcDbEntity
  8
0
100
AcDbCircle
 62
7
  6
CONTINUOUS
 10
6.8133262973
 20
4.8567776867
 40
0.0196850394
100
AcDbArc
 50
180.0
 51
224.9999999996
  0
ARC
  5
481
100
AcDbEntity
  8
0
100
AcDbCircle
 62
7
  6
CONTINUOUS
 10
7.1936035216
 20
4.8983248549
 40
0.0196850394
100
AcDbArc
 50
315.0000000002
 51
360.0
  0
ARC
  5
482
100
AcDbEntity
  8
0
100
AcDbCircle
 62
7
  6
CONTINUOUS
 10
7.0676192696
 20
4.8983248549
 40
0.0196850394
100
AcDbArc
 50
205.4025424871
 51
224.9999999998
  0
ARC
  5
483
100
AcDbEntity
  8
0
100
AcDbCircle
 62
7
  6
CONTINUOUS
 10
7.0757730799
 20
4.8901710446
 40
0.0196850394
100
AcDbArc
 50
225.0011432896
 51
270.0
  0
ARC
  5
484
100
AcDbEntity
  8
0
100
AcDbCircle
 62
7
  6
CONTINUOUS
 10
7.1854497113
 20
4.8901710446
 40
0.0196850394
100
AcDbArc
 50
270.0
 51
314.9988567095
  0
ARC
  5
485
100
AcDbEntity
  8
0
100
AcDbCircle
 62
7
  6
CONTINUOUS
 10
6.8322178769
 20
4.8316246608
 40
0.0078740157
100
AcDbArc
 50
280.1468867895
 51
339.6248379632
  0
ARC
  5
486
100
AcDbEntity
  8
0
100
AcDbCircle
 62
7
  6
CONTINUOUS
 10
7.7696555399
 20
5.3722336465
 40
0.25
100
AcDbArc
 50
218.3789847992
 51
247.1367765694
  0
ARC
  5
487
100
AcDbEntity
  8
0
100
AcDbCircle
 62
7
  6
CONTINUOUS
 10
7.4014397863
 20
5.6794545324
 40
0.075
100
AcDbArc
 50
0.0
 51
65.9999999998
  0
ARC
  5
488
100
AcDbEntity
  8
0
100
AcDbCircle
 62
7
  6
CONTINUOUS
 10
3.5572580557
 20
7.7768211155
 40
1.9
100
AcDbArc
 50
282.4577510794
 51
320.8853497804
  0
ARC
  5
489
100
AcDbEntity
  8
0
100
AcDbCircle
 62
7
  6
CONTINUOUS
 10
4.8284061776
 20
7.9129348649
 40
0.28
100
AcDbArc
 50
97.6408631379
 51
277.6408631379
  0
ARC
  5
48A
100
AcDbEntity
  8
0
100
AcDbCircle
 62
7
  6
CONTINUOUS
 10
5.1874397863
 20
6.6581601019
 40
0.1
100
AcDbArc
 50
134.0731757116
 51
180.0
  0
ARC
  5
48B
100
AcDbEntity
  8
0
100
AcDbCircle
 62
7
  6
CONTINUOUS
 10
5.1364397863
 20
6.9323374156
 40
0.06
100
AcDbArc
 50
311.8102714498
 51
360.0
  0
ARC
  5
48C
100
AcDbEntity
  8
0
100
AcDbCircle
 62
7
  6
CONTINUOUS
 10
5.0761475441
 20
6.7731124261
 40
0.06
100
AcDbArc
 50
314.0731757112
 51
341.9999999995
  0
ARC
  5
48D
100
AcDbEntity
  8
0
100
AcDbCircle
 62
7
  6
CONTINUOUS
 10
5.1474397863
 20
6.6381601019
 40
0.06
100
AcDbArc
 50
180.0
 51
270.0
  0
ARC
  5
48E
100
AcDbEntity
  8
0
100
AcDbCircle
 62
7
  6
CONTINUOUS
 10
5.2441320588
 20
8.7893958798
 40
0.0299999999
100
AcDbArc
 50
201.850654038
 51
269.9989208552
  0
ARC
  5
48F
100
AcDbEntity
  8
0
100
AcDbCircle
 62
7
  6
CONTINUOUS
 10
3.9314397863
 20
5.8680384291
 40
0.02
100
AcDbArc
 50
294.0000000012
 51
360.0
  0
ARC
  5
490
100
AcDbEntity
  8
0
100
AcDbCircle
 62
7
  6
CONTINUOUS
 10
3.9714397863
 20
5.9020268617
 40
0.02
100
AcDbArc
 50
102.4577510794
 51
180.0
  0
ARC
  5
491
100
AcDbEntity
  8
0
100
AcDbCircle
 62
7
  6
CONTINUOUS
 10
4.6214397863
 20
9.620395857
 40
0.38
100
AcDbArc
 50
0.0
 51
89.9999989198
  0
ARC
  5
492
100
AcDbEntity
  8
0
100
AcDbCircle
 62
7
  6
CONTINUOUS
 10
4.6544397863
 20
10.1753408721
 40
0.13
100
AcDbArc
 50
129.6771957253
 51
230.2469514845
  0
ARC
  5
493
100
AcDbEntity
  8
0
100
AcDbCircle
 62
7
  6
CONTINUOUS
 10
4.9389397863
 20
9.0530046556
 40
0.06
100
AcDbArc
 50
106.9577633
 51
253.0422367
  0
ARC
  5
494
100
AcDbEntity
  8
0
100
AcDbCircle
 62
7
  6
CONTINUOUS
 10
4.9514400738
 20
8.9678560315
 40
0.0300000244
100
AcDbArc
 50
179.9992226953
 51
252.7550843763
  0
ARC
  5
495
100
AcDbEntity
  8
0
100
AcDbCircle
 62
7
  6
CONTINUOUS
 10
4.5963073981
 20
10.025395857
 40
0.025
100
AcDbArc
 50
180.0
 51
270.000044291
  0
ARC
  5
496
100
AcDbEntity
  8
0
100
AcDbCircle
 62
7
  6
CONTINUOUS
 10
4.9364397863
 20
9.145395857
 40
0.015
100
AcDbArc
 50
90.0
 51
180.0
  0
ARC
  5
497
100
AcDbEntity
  8
0
100
AcDbCircle
 62
7
  6
CONTINUOUS
 10
5.5714397863
 20
7.1633229819
 40
2.5590551181
100
AcDbArc
 50
264.5049555658
 51
265.9886462846
  0
ARC
  5
498
100
AcDbEntity
  8
0
100
AcDbCircle
 62
7
  6
CONTINUOUS
 10
5.5714397863
 20
7.1633229819
 40
2.5590551181
100
AcDbArc
 50
267.3528405073
 51
273.7405671051
  0
ARC
  5
499
100
AcDbEntity
  8
0
100
AcDbCircle
 62
7
  6
CONTINUOUS
 10
5.9554397863
 20
6.6581601019
 40
0.1
100
AcDbArc
 50
0.0
 51
45.9268242884
  0
ARC
  5
49A
100
AcDbEntity
  8
0
100
AcDbCircle
 62
7
  6
CONTINUOUS
 10
6.0667320284
 20
6.7731124261
 40
0.06
100
AcDbArc
 50
198.0000000005
 51
225.9268242888
  0
ARC
  5
49B
100
AcDbEntity
  8
0
100
AcDbCircle
 62
7
  6
CONTINUOUS
 10
6.0064397863
 20
6.9323374156
 40
0.06
100
AcDbArc
 50
180.0
 51
228.1897285506
  0
ARC
  5
49C
100
AcDbEntity
  8
0
100
AcDbCircle
 62
7
  6
CONTINUOUS
 10
5.9954397863
 20
6.6381601019
 40
0.06
100
AcDbArc
 50
270.0
 51
360.0
  0
ARC
  5
49D
100
AcDbEntity
  8
0
100
AcDbCircle
 62
7
  6
CONTINUOUS
 10
5.5714397863
 20
8.0626161301
 40
0.76
100
AcDbArc
 50
114.2792467882
 51
240.3944617006
  0
ARC
  5
49E
100
AcDbEntity
  8
0
100
AcDbCircle
 62
7
  6
CONTINUOUS
 10
5.5714397863
 20
8.0626161301
 40
0.76
100
AcDbArc
 50
299.6072785524
 51
65.7207532118
  0
ARC
  5
49F
100
AcDbEntity
  8
0
100
AcDbCircle
 62
7
  6
CONTINUOUS
 10
5.5714397863
 20
8.0126161301
 40
0.635
100
AcDbArc
 50
306.3469686567
 51
233.6530313433
  0
ARC
  5
4A0
100
AcDbEntity
  8
0
100
AcDbCircle
 62
9
  6
CONTINUOUS
 10
5.5714397863
 20
8.0126161301
 40
0.595
100
AcDbArc
 50
309.2952412839
 51
230.7088924639
  0
ARC
  5
4A1
100
AcDbEntity
  8
0
100
AcDbCircle
 62
9
  6
CONTINUOUS
 10
5.5714397863
 20
8.0626161301
 40
0.5878559417
100
AcDbArc
 50
66.932840166
 51
112.4259942664
  0
ARC
  5
4A2
100
AcDbEntity
  8
0
100
AcDbCircle
 62
9
  6
CONTINUOUS
 10
5.5714397863
 20
8.0126161301
 40
0.580618532
100
AcDbArc
 50
310.4589933101
 51
229.5498721844
  0
ARC
  5
4A3
100
AcDbEntity
  8
0
100
AcDbCircle
 62
9
  6
CONTINUOUS
 10
5.5714397863
 20
8.0126161301
 40
0.5339897743
100
AcDbArc
 50
314.8821753819
 51
225.1793641955
  0
ARC
  5
4A4
100
AcDbEntity
  8
0
100
AcDbCircle
 62
7
  6
CONTINUOUS
 10
5.5714397863
 20
8.0126161301
 40
0.3900431149
100
AcDbArc
 50
344.7994138529
 51
195.2053897471
  0
ARC
  5
4A5
100
AcDbEntity
  8
0
100
AcDbCircle
 62
7
  6
CONTINUOUS
 10
5.5714397863
 20
8.0126161301
 40
0.375
100
AcDbArc
 50
0.0
 51
180.0
  0
ARC
  5
4A6
100
AcDbEntity
  8
0
100
AcDbCircle
 62
7
  6
CONTINUOUS
 10
5.8987475139
 20
8.7893958793
 40
0.0299999994
100
AcDbArc
 50
270.0010787476
 51
338.1493468586
  0
ARC
  5
4A7
100
AcDbEntity
  8
0
100
AcDbCircle
 62
7
  6
CONTINUOUS
 10
7.2114397863
 20
5.8680384291
 40
0.02
100
AcDbArc
 50
180.0
 51
245.9999999988
  0
ARC
  5
4A8
100
AcDbEntity
  8
0
100
AcDbCircle
 62
7
  6
CONTINUOUS
 10
7.1714397863
 20
5.9020268617
 40
0.02
100
AcDbArc
 50
0.0
 51
77.5422489206
  0
ARC
  5
4A9
100
AcDbEntity
  8
0
100
AcDbCircle
 62
7
  6
CONTINUOUS
 10
7.5856215168
 20
7.7768211155
 40
1.9
100
AcDbArc
 50
219.1146502196
 51
257.5422489206
  0
ARC
  5
4AA
100
AcDbEntity
  8
0
100
AcDbCircle
 62
7
  6
CONTINUOUS
 10
5.5714397862
 20
11.8761621327
 40
7.1691060898
100
AcDbArc
 50
260.6768182412
 51
262.1369697736
  0
ARC
  5
4AB
100
AcDbEntity
  8
0
100
AcDbCircle
 62
7
  6
CONTINUOUS
 10
5.5714397863
 20
11.8761621326
 40
7.1691060898
100
AcDbArc
 50
277.8955430007
 51
279.3231817588
  0
ARC
  5
4AC
100
AcDbEntity
  8
0
100
AcDbCircle
 62
7
  6
CONTINUOUS
 10
5.571439786
 20
11.8761974434
 40
7.1643816812
100
AcDbArc
 50
284.2898330323
 51
284.9326914327
  0
ARC
  5
4AD
100
AcDbEntity
  8
0
100
AcDbCircle
 62
7
  6
CONTINUOUS
 10
5.571439786
 20
11.8761974434
 40
7.1643816812
100
AcDbArc
 50
255.0673085672
 51
255.7101669717
  0
ARC
  5
4AE
100
AcDbEntity
  8
0
100
AcDbCircle
 62
7
  6
CONTINUOUS
 10
6.5214397863
 20
9.620395857
 40
0.38
100
AcDbArc
 50
90.0000010802
 51
180.0
  0
ARC
  5
4AF
100
AcDbEntity
  8
0
100
AcDbCircle
 62
7
  6
CONTINUOUS
 10
6.4884397863
 20
10.1753408721
 40
0.13
100
AcDbArc
 50
309.7530485155
 51
50.3228042747
  0
ARC
  5
4B0
100
AcDbEntity
  8
0
100
AcDbCircle
 62
7
  6
CONTINUOUS
 10
6.2039397863
 20
9.0530046556
 40
0.06
100
AcDbArc
 50
286.9577633
 51
73.0422367
  0
ARC
  5
4B1
100
AcDbEntity
  8
0
100
AcDbCircle
 62
7
  6
CONTINUOUS
 10
6.1914394987
 20
8.9678560304
 40
0.0300000243
100
AcDbArc
 50
287.2449094416
 51
0.0007793625
  0
ARC
  5
4B2
100
AcDbEntity
  8
0
100
AcDbCircle
 62
7
  6
CONTINUOUS
 10
6.5465721744
 20
10.025395857
 40
0.025
100
AcDbArc
 50
269.999955709
 51
360.0
  0
ARC
  5
4B3
100
AcDbEntity
  8
0
100
AcDbCircle
 62
7
  6
CONTINUOUS
 10
6.2064397863
 20
9.145395857
 40
0.015
100
AcDbArc
 50
0.0
 51
90.0
  0
ARC
  5
4B4
100
AcDbEntity
  8
0
100
AcDbCircle
 62
7
  6
CONTINUOUS
 10
7.9264397863
 20
5.4964057049
 40
0.45
100
AcDbArc
 50
180.0
 51
218.3789847992
  0
ARC
  5
4B5
100
AcDbEntity
  8
0
100
AcDbCircle
 62
7
  6
CONTINUOUS
 10
11.5181655667
 20
8.810395857
 40
0.8
100
AcDbArc
 50
133.3574725906
 51
46.6425274094
  0
ARC
  5
4B6
100
AcDbEntity
  8
0
100
AcDbCircle
 62
7
  6
CONTINUOUS
 10
10.8076655667
 20
9.6209623154
 40
0.28
100
AcDbArc
 50
305.1650817959
 51
55.0253263796
  0
ARC
  5
4B7
100
AcDbEntity
  8
0
100
AcDbCircle
 62
7
  6
CONTINUOUS
 10
12.2286655667
 20
9.6209623154
 40
0.28
100
AcDbArc
 50
124.974673615
 51
234.8349182041
  0
ARC
  5
4B8
100
AcDbEntity
  8
0
100
AcDbCircle
 62
7
  6
CONTINUOUS
 10
11.0381655667
 20
10.0377457964
 40
0.2
100
AcDbArc
 50
180.0
 51
249.5126853831
  0
ARC
  5
4B9
100
AcDbEntity
  8
0
100
AcDbCircle
 62
7
  6
CONTINUOUS
 10
11.9981655667
 20
10.0377457964
 40
0.2
100
AcDbArc
 50
290.4873146103
 51
360.0
  0
ARC
  5
4BA
100
AcDbEntity
  8
0
100
AcDbCircle
 62
7
  6
CONTINUOUS
 10
10.975753951
 20
10.0377497034
 40
0.1961326186
100
AcDbArc
 50
355.565163646
 51
359.9988586597
  0
ARC
  5
4BB
100
AcDbEntity
  8
0
100
AcDbCircle
 62
7
  6
CONTINUOUS
 10
11.0335801588
 20
10.0377458562
 40
0.1953756985
100
AcDbArc
 50
180.0000175305
 51
180.1669684601
  0
ARC
  5
4BC
100
AcDbEntity
  8
0
100
AcDbCircle
 62
7
  6
CONTINUOUS
 10
12.0027517129
 20
10.0377458562
 40
0.1953749601
100
AcDbArc
 50
359.8330244428
 51
359.9999824593
  0
ARC
  5
4BD
100
AcDbEntity
  8
0
100
AcDbCircle
 62
7
  6
CONTINUOUS
 10
10.9773234666
 20
10.0376535573
 40
0.1945603694
100
AcDbArc
 50
355.3824574711
 51
355.5576527313
  0
ARC
  5
4BE
100
AcDbEntity
  8
0
100
AcDbCircle
 62
7
  6
CONTINUOUS
 10
12.004020291
 20
10.0376901939
 40
0.1941062322
100
AcDbArc
 50
348.5567518271
 51
359.8483633692
  0
ARC
  5
4BF
100
AcDbEntity
  8
0
100
AcDbCircle
 62
7
  6
CONTINUOUS
 10
10.9789526813
 20
10.0375055162
 40
0.1929245254
100
AcDbArc
 50
350.4442759087
 51
355.3873286799
  0
ARC
  5
4C0
100
AcDbEntity
  8
0
100
AcDbCircle
 62
7
  6
CONTINUOUS
 10
11.0307131705
 20
10.0375279529
 40
0.1925082014
100
AcDbArc
 50
180.1046012839
 51
191.4870320403
  0
ARC
  5
4C1
100
AcDbEntity
  8
0
100
AcDbCircle
 62
7
  6
CONTINUOUS
 10
10.9819990817
 20
10.0370501493
 40
0.1898448095
100
AcDbArc
 50
350.2090824395
 51
350.4271713362
  0
ARC
  5
4C2
100
AcDbEntity
  8
0
100
AcDbCircle
 62
7
  6
CONTINUOUS
 10
12.0122221804
 20
10.0362848912
 40
0.1857887423
100
AcDbArc
 50
347.0355710828
 51
348.479695598
  0
ARC
  5
4C3
100
AcDbEntity
  8
0
100
AcDbCircle
 62
7
  6
CONTINUOUS
 10
11.0238451545
 20
10.036227656
 40
0.1855188275
100
AcDbArc
 50
191.515904705
 51
192.9650417572
  0
ARC
  5
4C4
100
AcDbEntity
  8
0
100
AcDbCircle
 62
7
  6
CONTINUOUS
 10
12.0455839271
 20
10.0351060371
 40
0.1808794204
100
AcDbArc
 50
195.2099988793
 51
195.3615637977
  0
ARC
  5
4C5
100
AcDbEntity
  8
0
100
AcDbCircle
 62
7
  6
CONTINUOUS
 10
12.0447747932
 20
10.034882361
 40
0.1800399403
100
AcDbArc
 50
195.3611380492
 51
195.9076950016
  0
ARC
  5
4C6
100
AcDbEntity
  8
0
100
AcDbCircle
 62
7
  6
CONTINUOUS
 10
12.3881655667
 20
10.320395857
 40
0.13
100
AcDbArc
 50
269.9999985601
 51
360.0
  0
ARC
  5
4C7
100
AcDbEntity
  8
0
100
AcDbCircle
 62
7
  6
CONTINUOUS
 10
10.6481655667
 20
10.320395857
 40
0.13
100
AcDbArc
 50
180.0
 51
270.0000014399
  0
ARC
  5
4C8
100
AcDbEntity
  8
0
100
AcDbCircle
 62
7
  6
CONTINUOUS
 10
12.2205507527
 20
10.200395857
 40
0.13
100
AcDbArc
 50
270.0000000166
 51
355.5882742142
  0
ARC
  5
4C9
100
AcDbEntity
  8
0
100
AcDbCircle
 62
7
  6
CONTINUOUS
 10
10.8157803806
 20
10.200395857
 40
0.13
100
AcDbArc
 50
184.4117257858
 51
269.9999999834
  0
SPLINE
  5
4CA
100
AcDbEntity
  8
0
100
AcDbSpline
 62
7
  6
CONTINUOUS
 70
0
 71
3
 72
23
 73
19
 74
0
 42
0.0000001
 43
0.0000001
 44
0.0000000001
 40
0.0
 40
0.0
 40
0.0
 40
0.0
 40
0.0937864102
 40
0.1830179815
 40
0.2677342535
 40
0.3479814401
 40
0.4238139265
 40
0.4952961747
 40
0.5625051655
 40
0.6255335392
 40
0.6844936456
 40
0.739522758
 40
0.7907897365
 40
0.838503401
 40
0.882922713
 40
0.9243684317
 40
0.9632350076
 40
1.0
 40
1.0
 40
1.0
 40
1.0
 10
4.9425462476
 20
8.9392051865
 30
0.0
 10
4.9522642663
 20
8.936188746
 30
0.0
 10
4.9711769753
 20
8.930134796
 30
0.0
 10
4.9986620625
 20
8.9207288137
 30
0.0
 10
5.0245544025
 20
8.911224795
 30
0.0
 10
5.0488542526
 20
8.90162276
 30
0.0
 10
5.0715621047
 20
8.8919226421
 30
0.0
 10
5.0926785204
 20
8.882124306
 30
0.0
 10
5.1122041952
 20
8.8722274903
 30
0.0
 10
5.1301399617
 20
8.8622317409
 30
0.0
 10
5.146486791
 20
8.8521363118
 30
0.0
 10
5.1612457584
 20
8.8419400101
 30
0.0
 10
5.1744179198
 20
8.8316410403
 30
0.0
 10
5.1860041035
 20
8.8212366586
 30
0.0
 10
5.1960042878
 20
8.8107234009
 30
0.0
 10
5.2044172942
 20
8.8000957374
 30
0.0
 10
5.2112381198
 20
8.7893513434
 30
0.0
 10
5.2148024661
 20
8.7819322951
 30
0.0
 10
5.2162870907
 20
8.7782300392
 30
0.0
  0
SPLINE
  5
4CB
100
AcDbEntity
  8
0
100
AcDbSpline
 62
7
  6
CONTINUOUS
 70
0
 71
3
 72
23
 73
19
 74
0
 42
0.0000001
 43
0.0000001
 44
0.0000000001
 40
0.0
 40
0.0
 40
0.0
 40
0.0
 40
0.0937863774
 40
0.1830179206
 40
0.2677341691
 40
0.3479813369
 40
0.423813809
 40
0.4952960477
 40
0.5625050336
 40
0.6255334069
 40
0.6844935174
 40
0.7395226383
 40
0.7907896294
 40
0.8385033102
 40
0.882922642
 40
0.924368383
 40
0.963234983
 40
1.0
 40
1.0
 40
1.0
 40
1.0
 10
6.2003334083
 20
8.9392049047
 30
0.0
 10
6.1906153945
 20
8.9361884734
 30
0.0
 10
6.1717026945
 20
8.9301345413
 30
0.0
 10
6.1442176196
 20
8.9207285851
 30
0.0
 10
6.1183252897
 20
8.911224591
 30
0.0
 10
6.0940254476
 20
8.9016225791
 30
0.0
 10
6.0713176013
 20
8.8919224828
 30
0.0
 10
6.0502011893
 20
8.8821241668
 30
0.0
 10
6.0306755162
 20
8.8722273696
 30
0.0
 10
6.0127397491
 20
8.8622316372
 30
0.0
 10
5.9963929173
 20
8.8521362236
 30
0.0
 10
5.9816339451
 20
8.8419399357
 30
0.0
 10
5.9684617769
 20
8.8316409783
 30
0.0
 10
5.9568755842
 20
8.8212366075
 30
0.0
 10
5.9468753889
 20
8.8107233591
 30
0.0
 10
5.9384623693
 20
8.8000957034
 30
0.0
 10
5.9316415283
 20
8.7893513157
 30
0.0
 10
5.9280771701
 20
8.7819322708
 30
0.0
 10
5.9265925391
 20
8.7782300162
 30
0.0
  0
SPLINE
  5
4CC
100
AcDbEntity
  8
0
100
AcDbSpline
 62
7
  6
CONTINUOUS
 70
0
 71
3
 72
13
 73
9
 74
0
 42
0.0000001
 43
0.0000001
 44
0.0000000001
 40
0.0
 40
0.0
 40
0.0
 40
0.0
 40
0.2922613194
 40
0.5637532668
 40
0.687883327
 40
0.8026318554
 40
0.9069695918
 40
1.0
 40
1.0
 40
1.0
 40
1.0
 10
5.7633749548
 20
4.9045773642
 30
0.0
 10
5.7682018512
 20
4.9045773642
 30
0.0
 10
5.7775138056
 20
4.9043820419
 30
0.0
 10
5.7888548281
 20
4.9036254811
 30
0.0
 10
5.7972344922
 20
4.9027029329
 30
0.0
 10
5.8028470281
 20
4.9019000018
 30
0.0
 10
5.8079197112
 20
4.9009762779
 30
0.0
 10
5.8110981331
 20
4.9002446942
 30
0.0
 10
5.8125837351
 20
4.8998526489
 30
0.0
  0
SPLINE
  5
4CD
100
AcDbEntity
  8
0
100
AcDbSpline
 62
7
  6
CONTINUOUS
 70
0
 71
3
 72
15
 73
11
 74
0
 42
0.0000001
 43
0.0000001
 44
0.0000000001
 40
0.0
 40
0.0
 40
0.0
 40
0.0
 40
0.1938829291
 40
0.3668117484
 40
0.5186127296
 40
0.6494193352
 40
0.7600324932
 40
0.8524382113
 40
0.9303218176
 40
1.0
 40
1.0
 40
1.0
 40
1.0
 10
5.8125837351
 20
4.8998526489
 30
0.0
 10
5.8135402227
 20
4.8996002351
 30
0.0
 10
5.8153403795
 20
4.8990852027
 30
0.0
 10
5.8178434667
 20
4.8982225336
 30
0.0
 10
5.819987126
 20
4.8973185243
 30
0.0
 10
5.8217628378
 20
4.8963772542
 30
0.0
 10
5.8231650828
 20
4.8954005573
 30
0.0
 10
5.8241923697
 20
4.8943874005
 30
0.0
 10
5.8248386051
 20
4.8933275359
 30
0.0
 10
5.8249912365
 20
4.8925691849
 30
0.0
 10
5.8249909245
 20
4.8922136719
 30
0.0
  0
SPLINE
  5
4CE
100
AcDbEntity
  8
0
100
AcDbSpline
 62
7
  6
CONTINUOUS
 70
0
 71
3
 72
9
 73
5
 74
0
 42
0.0000001
 43
0.0000001
 44
0.0000000001
 40
0.0
 40
0.0
 40
0.0
 40
0.0
 40
0.5342875577
 40
1.0
 40
1.0
 40
1.0
 40
1.0
 10
6.9150283632
 20
4.9332347761
 30
0.0
 10
6.9124488804
 20
4.9324535922
 30
0.0
 10
6.9076376072
 20
4.9309357816
 30
0.0
 10
6.9028735885
 20
4.9292733688
 30
0.0
 10
6.9006733957
 20
4.9284498709
 30
0.0
  0
SPLINE
  5
4CF
100
AcDbEntity
  8
0
100
AcDbSpline
 62
7
  6
CONTINUOUS
 70
0
 71
3
 72
17
 73
13
 74
0
 42
0.0000001
 43
0.0000001
 44
0.0000000001
 40
0.0
 40
0.0
 40
0.0
 40
0.0
 40
0.2061288879
 40
0.3897894718
 40
0.5501514981
 40
0.6865066558
 40
0.7984941048
 40
0.8454573332
 40
0.8865444417
 40
0.9219918072
 40
0.9522151311
 40
1.0
 40
1.0
 40
1.0
 40
1.0
 10
6.9006733957
 20
4.9284498709
 30
0.0
 10
6.8996060522
 20
4.9280503809
 30
0.0
 10
6.8975959433
 20
4.927272492
 30
0.0
 10
6.894791958
 20
4.9260924078
 30
0.0
 10
6.8923834692
 20
4.9249707742
 30
0.0
 10
6.8903854324
 20
4.9239131142
 30
0.0
 10
6.88899892
 20
4.9230458718
 30
0.0
 10
6.8881165556
 20
4.9223775858
 30
0.0
 10
6.8876038046
 20
4.9219260053
 30
0.0
 10
6.8871999673
 20
4.9214923094
 30
0.0
 10
6.8868364105
 20
4.9209834075
 30
0.0
 10
6.8866775315
 20
4.9205558908
 30
0.0
 10
6.8866775261
 20
4.9202916955
 30
0.0
  0
LINE
  5
4D0
100
AcDbEntity
  8
0
100
AcDbLine
 62
7
  6
CONTINUOUS
 10
5.9065424391
 20
4.9319521512
 11
5.9067361758
 21
4.9332374798
  0
SPLINE
  5
4D1
100
AcDbEntity
  8
0
100
AcDbSpline
 62
7
  6
CONTINUOUS
 70
0
 71
3
 72
13
 73
9
 74
0
 42
0.0000001
 43
0.0000001
 44
0.0000000001
 40
0.0
 40
0.0
 40
0.0
 40
0.0
 40
0.0912119759
 40
0.1879427515
 40
0.2930671585
 40
0.4087181824
 40
0.6768720806
 40
1.0
 40
1.0
 40
1.0
 40
1.0
 10
6.2958500904
 20
4.9273191697
 30
0.0
 10
6.2958499519
 20
4.9275517916
 30
0.0
 10
6.2959005216
 20
4.9280322596
 30
0.0
 10
6.2961196648
 20
4.9287506956
 30
0.0
 10
6.2964802552
 20
4.9294791413
 30
0.0
 10
6.2971810295
 20
4.9305141736
 30
0.0
 10
6.298438077
 20
4.9318224671
 30
0.0
 10
6.2996309139
 20
4.9327504006
 30
0.0
 10
6.3003043238
 20
4.9332254151
 30
0.0
  0
SPLINE
  5
4D2
100
AcDbEntity
  8
0
100
AcDbSpline
 62
7
  6
CONTINUOUS
 70
0
 71
3
 72
16
 73
12
 74
0
 42
0.0000001
 43
0.0000001
 44
0.0000000001
 40
0.0
 40
0.0
 40
0.0
 40
0.0
 40
0.0604278865
 40
0.0952922045
 40
0.1342357589
 40
0.2261015876
 40
0.3384185179
 40
0.4720844236
 40
0.6272229932
 40
0.8034048272
 40
1.0
 40
1.0
 40
1.0
 40
1.0
 10
6.630156506
 20
4.9233471767
 30
0.0
 10
6.6301559198
 20
4.9237037226
 30
0.0
 10
6.6302959586
 20
4.9242683365
 30
0.0
 10
6.6306684458
 20
4.9249678512
 30
0.0
 10
6.6312391697
 20
4.9257651557
 30
0.0
 10
6.6322596607
 20
4.9267844383
 30
0.0
 10
6.6338447729
 20
4.9279982265
 30
0.0
 10
6.6358499488
 20
4.9292604122
 30
0.0
 10
6.6382649652
 20
4.9305652649
 30
0.0
 10
6.641077622
 20
4.9319061378
 30
0.0
 10
6.6430999655
 20
4.9327724163
 30
0.0
 10
6.6441732839
 20
4.9332123569
 30
0.0
  0
SPLINE
  5
4D3
100
AcDbEntity
  8
0
100
AcDbSpline
 62
7
  6
CONTINUOUS
 70
0
 71
3
 72
16
 73
12
 74
0
 42
0.0000001
 43
0.0000001
 44
0.0000000001
 40
0.0
 40
0.0
 40
0.0
 40
0.0
 40
0.0326569394
 40
0.066163428
 40
0.1402944359
 40
0.2300833135
 40
0.3396034374
 40
0.4709433553
 40
0.6248511139
 40
0.8013116568
 40
1.0
 40
1.0
 40
1.0
 40
1.0
 10
4.9649678485
 20
4.8957968551
 30
0.0
 10
4.9649677034
 20
4.8959639047
 30
0.0
 10
4.9650029266
 20
4.8963034608
 30
0.0
 10
4.965224936
 20
4.8969907785
 30
0.0
 10
4.9658122901
 20
4.8978371008
 30
0.0
 10
4.9668909132
 20
4.8987418492
 30
0.0
 10
4.9683594993
 20
4.899592736
 30
0.0
 10
4.9702192322
 20
4.900388062
 30
0.0
 10
4.9724645472
 20
4.9011273874
 30
0.0
 10
4.9750856643
 20
4.901806525
 30
0.0
 10
4.97696604
 20
4.9021933953
 30
0.0
 10
4.9779653385
 20
4.9023787765
 30
0.0
  0
SPLINE
  5
4D4
100
AcDbEntity
  8
0
100
AcDbSpline
 62
7
  6
CONTINUOUS
 70
0
 71
3
 72
11
 73
7
 74
0
 42
0.0000001
 43
0.0000001
 44
0.0000000001
 40
0.0
 40
0.0
 40
0.0
 40
0.0
 40
0.2060584878
 40
0.4443702875
 40
0.7109991533
 40
1.0
 40
1.0
 40
1.0
 40
1.0
 10
4.9779653385
 20
4.9023787765
 30
0.0
 10
4.9800496943
 20
4.9027654483
 30
0.0
 10
4.98457787
 20
4.9034209392
 30
0.0
 10
4.9918642854
 20
4.9040879478
 30
0.0
 10
5.0000243537
 20
4.9044915099
 30
0.0
 10
5.0057411205
 20
4.9045773642
 30
0.0
 10
5.0087143454
 20
4.9045773642
 30
0.0
  0
SPLINE
  5
4D5
100
AcDbEntity
  8
0
100
AcDbSpline
 62
7
  6
CONTINUOUS
 70
0
 71
3
 72
11
 73
7
 74
0
 42
0.0000001
 43
0.0000001
 44
0.0000000001
 40
0.0
 40
0.0
 40
0.0
 40
0.0
 40
0.2885076622
 40
0.5549217022
 40
0.7933781846
 40
1.0
 40
1.0
 40
1.0
 40
1.0
 10
6.1341652272
 20
4.9045773642
 30
0.0
 10
6.1371143731
 20
4.9045773642
 30
0.0
 10
6.1427872898
 20
4.9044928011
 30
0.0
 10
6.1508894833
 20
4.9040956734
 30
0.0
 10
6.1581348527
 20
4.903439428
 30
0.0
 10
6.162642167
 20
4.9027946577
 30
0.0
 10
6.1647197753
 20
4.9024144964
 30
0.0
  0
SPLINE
  5
4D6
100
AcDbEntity
  8
0
100
AcDbSpline
 62
7
  6
CONTINUOUS
 70
0
 71
3
 72
16
 73
12
 74
0
 42
0.0000001
 43
0.0000001
 44
0.0000000001
 40
0.0
 40
0.0
 40
0.0
 40
0.0
 40
0.1989288818
 40
0.3756121375
 40
0.5296916078
 40
0.6611177809
 40
0.7706286869
 40
0.8602922221
 40
0.9341696315
 40
0.9675136273
 40
1.0
 40
1.0
 40
1.0
 40
1.0
 10
6.1647197753
 20
4.9024144964
 30
0.0
 10
6.1657335756
 20
4.902228991
 30
0.0
 10
6.1676413982
 20
4.9018414609
 30
0.0
 10
6.1703011824
 20
4.901160053
 30
0.0
 10
6.1725799431
 20
4.9004174687
 30
0.0
 10
6.1744674917
 20
4.8996180522
 30
0.0
 10
6.1759582213
 20
4.8987625653
 30
0.0
 10
6.1770533654
 20
4.8978527063
 30
0.0
 10
6.1776505427
 20
4.8970003626
 30
0.0
 10
6.177876071
 20
4.8963075818
 30
0.0
 10
6.1779118693
 20
4.8959653943
 30
0.0
 10
6.1779117507
 20
4.8957970854
 30
0.0
  0
SPLINE
  5
4D7
100
AcDbEntity
  8
0
100
AcDbSpline
 62
7
  6
CONTINUOUS
 70
0
 71
3
 72
15
 73
11
 74
0
 42
0.0000001
 43
0.0000001
 44
0.0000000001
 40
0.0
 40
0.0
 40
0.0
 40
0.0
 40
0.1446870914
 40
0.2889591088
 40
0.4297416837
 40
0.5645244252
 40
0.6909618176
 40
0.806904425
 40
0.9104046012
 40
1.0
 40
1.0
 40
1.0
 40
1.0
 10
5.3812061357
 20
4.9045731109
 30
0.0
 10
5.3844639858
 20
4.904556868
 30
0.0
 10
5.3909702055
 20
4.9044327498
 30
0.0
 10
5.400637461
 20
4.9039862371
 30
0.0
 10
5.410066163
 20
4.9032856702
 30
0.0
 10
5.4190708753
 20
4.9023492501
 30
0.0
 10
5.4274861678
 20
4.9011945944
 30
0.0
 10
5.4351595872
 20
4.899849429
 30
0.0
 10
5.4419544559
 20
4.898337934
 30
0.0
 10
5.446141975
 20
4.897152549
 30
0.0
 10
5.4480576742
 20
4.8965200881
 30
0.0
  0
SPLINE
  5
4D8
100
AcDbEntity
  8
0
100
AcDbSpline
 62
7
  6
CONTINUOUS
 70
0
 71
3
 72
15
 73
11
 74
0
 42
0.0000001
 43
0.0000001
 44
0.0000000001
 40
0.0
 40
0.0
 40
0.0
 40
0.0
 40
0.1915598663
 40
0.3629761965
 40
0.5140850661
 40
0.6450014523
 40
0.756409392
 40
0.8501007255
 40
0.9294058687
 40
1.0
 40
1.0
 40
1.0
 40
1.0
 10
5.4480576742
 20
4.8965200881
 30
0.0
 10
5.4489499472
 20
4.8962255075
 30
0.0
 10
5.4506295786
 20
4.8956324641
 30
0.0
 10
5.4529613192
 20
4.8946686502
 30
0.0
 10
5.4549583434
 20
4.8936847094
 30
0.0
 10
5.4566128849
 20
4.892685254
 30
0.0
 10
5.4579193815
 20
4.8916722859
 30
0.0
 10
5.4588754381
 20
4.8906447351
 30
0.0
 10
5.4594755814
 20
4.8895950597
 30
0.0
 10
5.4596205228
 20
4.8888556649
 30
0.0
 10
5.4596206373
 20
4.8885093853
 30
0.0
  0
SPLINE
  5
4D9
100
AcDbEntity
  8
0
100
AcDbSpline
 62
7
  6
CONTINUOUS
 70
0
 71
3
 72
12
 73
8
 74
0
 42
0.0000001
 43
0.0000001
 44
0.0000000001
 40
0.0
 40
0.0
 40
0.0
 40
0.0
 40
0.2663769331
 40
0.5352260219
 40
0.7861208484
 40
0.8987813454
 40
1.0
 40
1.0
 40
1.0
 40
1.0
 10
4.2563530896
 20
4.89960702
 30
0.0
 10
4.262935857
 20
4.8985527773
 30
0.0
 10
4.2761379083
 20
4.8962786199
 30
0.0
 10
4.2954547972
 20
4.892539558
 30
0.0
 10
4.3109303996
 20
4.8892132991
 30
0.0
 10
4.3222490484
 20
4.8865301989
 30
0.0
 10
4.327437094
 20
4.8852109268
 30
0.0
 10
4.3298851528
 20
4.8845596376
 30
0.0
  0
SPLINE
  5
4DA
100
AcDbEntity
  8
0
100
AcDbSpline
 62
7
  6
CONTINUOUS
 70
0
 71
3
 72
14
 73
10
 74
0
 42
0.0000001
 43
0.0000001
 44
0.0000000001
 40
0.0
 40
0.0
 40
0.0
 40
0.0
 40
0.3491819851
 40
0.5008265106
 40
0.6360270401
 40
0.7540083341
 40
0.8542464552
 40
0.9363321635
 40
1.0
 40
1.0
 40
1.0
 40
1.0
 10
4.3298851528
 20
4.8845596376
 30
0.0
 10
4.3320620722
 20
4.8839804831
 30
0.0
 10
4.3351768373
 20
4.8831200139
 30
0.0
 10
4.3391051723
 20
4.881934581
 30
0.0
 10
4.3415908232
 20
4.8811325587
 30
0.0
 10
4.3437429496
 20
4.8803790624
 30
0.0
 10
4.3455502033
 20
4.8796794203
 30
0.0
 10
4.3470023541
 20
4.8790385071
 30
0.0
 10
4.347836031
 20
4.878599363
 30
0.0
 10
4.3481845515
 20
4.8783820252
 30
0.0
  0
SPLINE
  5
4DB
100
AcDbEntity
  8
0
100
AcDbSpline
 62
7
  6
CONTINUOUS
 70
0
 71
3
 72
11
 73
7
 74
0
 42
0.0000001
 43
0.0000001
 44
0.0000000001
 40
0.0
 40
0.0
 40
0.0
 40
0.0
 40
0.3512603248
 40
0.6287922437
 40
0.8395401491
 40
1.0
 40
1.0
 40
1.0
 40
1.0
 10
4.3481845515
 20
4.8783820252
 30
0.0
 10
4.3483424561
 20
4.8782835557
 30
0.0
 10
4.3486194683
 20
4.8780975351
 30
0.0
 10
4.3489578338
 20
4.8778064521
 30
0.0
 10
4.3491746968
 20
4.877536236
 30
0.0
 10
4.3492381913
 20
4.8773409258
 30
0.0
 10
4.3492382808
 20
4.877255917
 30
0.0
  0
SPLINE
  5
4DC
100
AcDbEntity
  8
0
100
AcDbSpline
 62
7
  6
CONTINUOUS
 70
0
 71
3
 72
9
 73
5
 74
0
 42
0.0000001
 43
0.0000001
 44
0.0000000001
 40
0.0
 40
0.0
 40
0.0
 40
0.0
 40
0.5325373741
 40
1.0
 40
1.0
 40
1.0
 40
1.0
 10
6.4666066907
 20
4.9045773642
 30
0.0
 10
6.468964222
 20
4.9045773642
 30
0.0
 10
6.4733915963
 20
4.9045063061
 30
0.0
 10
6.4778134484
 20
4.9042535488
 30
0.0
 10
6.4798750379
 20
4.9040733856
 30
0.0
  0
SPLINE
  5
4DD
100
AcDbEntity
  8
0
100
AcDbSpline
 62
7
  6
CONTINUOUS
 70
0
 71
3
 72
17
 73
13
 74
0
 42
0.0000001
 43
0.0000001
 44
0.0000000001
 40
0.0
 40
0.0
 40
0.0
 40
0.0
 40
0.207064847
 40
0.3899499927
 40
0.5481205481
 40
0.6813001629
 40
0.7899262791
 40
0.8757017309
 40
0.9112251366
 40
0.942870085
 40
0.9719089515
 40
1.0
 40
1.0
 40
1.0
 40
1.0
 10
6.4798750379
 20
4.9040733856
 30
0.0
 10
6.4809812062
 20
4.903976717
 30
0.0
 10
6.4830616694
 20
4.9037602606
 30
0.0
 10
6.4859704457
 20
4.9033296508
 30
0.0
 10
6.4884629793
 20
4.9028174924
 30
0.0
 10
6.4905285405
 20
4.9022271866
 30
0.0
 10
6.4921583027
 20
4.901562796
 30
0.0
 10
6.4932189003
 20
4.9009108164
 30
0.0
 10
6.4938098001
 20
4.9003370503
 30
0.0
 10
6.4941103372
 20
4.8999131958
 30
0.0
 10
6.494292447
 20
4.8994683275
 30
0.0
 10
6.4943318544
 20
4.8991603634
 30
0.0
 10
6.4943317073
 20
4.8990097254
 30
0.0
  0
SPLINE
  5
4DE
100
AcDbEntity
  8
0
100
AcDbSpline
 62
7
  6
CONTINUOUS
 70
0
 71
3
 72
11
 73
7
 74
0
 42
0.0000001
 43
0.0000001
 44
0.0000000001
 40
0.0
 40
0.0
 40
0.0
 40
0.0
 40
0.2510262293
 40
0.5070822157
 40
0.7594859896
 40
1.0
 40
1.0
 40
1.0
 40
1.0
 10
5.0151469422
 20
4.904510187
 30
0.0
 10
5.0194582354
 20
4.9044220254
 30
0.0
 10
5.0281644422
 20
4.9040780438
 30
0.0
 10
5.04117796
 20
4.9031159462
 30
0.0
 10
5.0539719887
 20
4.9017340472
 30
0.0
 10
5.0623554026
 20
4.9005268114
 30
0.0
 10
5.0664316422
 20
4.8998526489
 30
0.0
  0
SPLINE
  5
4DF
100
AcDbEntity
  8
0
100
AcDbSpline
 62
7
  6
CONTINUOUS
 70
0
 71
3
 72
17
 73
13
 74
0
 42
0.0000001
 43
0.0000001
 44
0.0000000001
 40
0.0
 40
0.0
 40
0.0
 40
0.0
 40
0.0285539183
 40
0.058010192
 40
0.0899913849
 40
0.1257564849
 40
0.2117511343
 40
0.3203171998
 40
0.4532386917
 40
0.6110249216
 40
0.7934446256
 40
1.0
 40
1.0
 40
1.0
 40
1.0
 10
4.648547714
 20
4.8990106206
 30
0.0
 10
4.6485475765
 20
4.8991581057
 30
0.0
 10
4.6485852568
 20
4.8994592471
 30
0.0
 10
4.648759525
 20
4.8998948812
 30
0.0
 10
4.6490472927
 20
4.9003105677
 30
0.0
 10
4.6496124727
 20
4.900873142
 30
0.0
 10
4.6506281733
 20
4.9015146889
 30
0.0
 10
4.6521909556
 20
4.9021706028
 30
0.0
 10
4.6541719266
 20
4.9027558897
 30
0.0
 10
4.6565632661
 20
4.9032667203
 30
0.0
 10
4.6593551188
 20
4.9036999624
 30
0.0
 10
4.6613526588
 20
4.9039206679
 30
0.0
 10
4.6624149072
 20
4.9040200666
 30
0.0
  0
SPLINE
  5
4E0
100
AcDbEntity
  8
0
100
AcDbSpline
 62
7
  6
CONTINUOUS
 70
0
 71
3
 72
9
 73
5
 74
0
 42
0.0000001
 43
0.0000001
 44
0.0000000001
 40
0.0
 40
0.0
 40
0.0
 40
0.0
 40
0.4652513186
 40
1.0
 40
1.0
 40
1.0
 40
1.0
 10
4.6624149072
 20
4.9040200666
 30
0.0
 10
4.6645569906
 20
4.9042205096
 30
0.0
 10
4.6691753698
 20
4.9044996623
 30
0.0
 10
4.6738000671
 20
4.9045773642
 30
0.0
 10
4.6762728818
 20
4.9045773642
 30
0.0
  0
SPLINE
  5
4E1
100
AcDbEntity
  8
0
100
AcDbSpline
 62
7
  6
CONTINUOUS
 70
0
 71
3
 72
19
 73
15
 74
0
 42
0.0000001
 43
0.0000001
 44
0.0000000001
 40
0.0
 40
0.0
 40
0.0
 40
0.0
 40
0.2080846467
 40
0.394475112
 40
0.557571589
 40
0.6959686978
 40
0.7556282124
 40
0.8088242851
 40
0.8555246263
 40
0.8957590665
 40
0.9296901343
 40
0.9577299612
 40
0.9806709304
 40
1.0
 40
1.0
 40
1.0
 40
1.0
 10
4.5112966656
 20
4.8884729826
 30
0.0
 10
4.5128421737
 20
4.8880380499
 30
0.0
 10
4.5157635222
 20
4.8871825993
 30
0.0
 10
4.5198593147
 20
4.8858641377
 30
0.0
 10
4.5234025929
 20
4.8845906763
 30
0.0
 10
4.5259818732
 20
4.8835316464
 30
0.0
 10
4.527735621
 20
4.8827044562
 30
0.0
 10
4.5288268311
 20
4.8821335362
 30
0.0
 10
4.5297577706
 20
4.8815823798
 30
0.0
 10
4.5305260606
 20
4.8810519959
 30
0.0
 10
4.5311304399
 20
4.8805428751
 30
0.0
 10
4.5315710915
 20
4.8800540868
 30
0.0
 10
4.5318490888
 20
4.879582299
 30
0.0
 10
4.5319216681
 20
4.8792555004
 30
0.0
 10
4.5319219622
 20
4.8791063613
 30
0.0
  0
SPLINE
  5
4E2
100
AcDbEntity
  8
0
100
AcDbSpline
 62
7
  6
CONTINUOUS
 70
0
 71
3
 72
15
 73
11
 74
0
 42
0.0000001
 43
0.0000001
 44
0.0000000001
 40
0.0
 40
0.0
 40
0.0
 40
0.0
 40
0.0702028496
 40
0.1484769408
 40
0.2410828815
 40
0.3517226567
 40
0.4824096471
 40
0.6339587245
 40
0.8065358279
 40
1.0
 40
1.0
 40
1.0
 40
1.0
 10
5.3178884182
 20
4.892213793
 30
0.0
 10
5.3178882798
 20
4.8925647697
 30
0.0
 10
5.3180371557
 20
4.8933122787
 30
0.0
 10
5.3186667263
 20
4.8943592899
 30
0.0
 10
5.3196687317
 20
4.8953611348
 30
0.0
 10
5.3210369068
 20
4.8963274586
 30
0.0
 10
5.3227697588
 20
4.8972594784
 30
0.0
 10
5.324861955
 20
4.8981556101
 30
0.0
 10
5.3273055045
 20
4.8990116779
 30
0.0
 10
5.3290633755
 20
4.8995234005
 30
0.0
 10
5.3299974788
 20
4.8997743206
 30
0.0
  0
SPLINE
  5
4E3
100
AcDbEntity
  8
0
100
AcDbSpline
 62
7
  6
CONTINUOUS
 70
0
 71
3
 72
13
 73
9
 74
0
 42
0.0000001
 43
0.0000001
 44
0.0000000001
 40
0.0
 40
0.0
 40
0.0
 40
0.0
 40
0.0924907214
 40
0.1964714635
 40
0.3110432031
 40
0.4351635588
 40
0.7070258308
 40
1.0
 40
1.0
 40
1.0
 40
1.0
 10
5.3299974788
 20
4.8997743206
 30
0.0
 10
5.3314819112
 20
4.9001730709
 30
0.0
 10
5.3346631872
 20
4.9009166822
 30
0.0
 10
5.3397477874
 20
4.901854691
 30
0.0
 10
5.3453850369
 20
4.9026705111
 30
0.0
 10
5.3538188229
 20
4.9036091096
 30
0.0
 10
5.3652478843
 20
4.9043789288
 30
0.0
 10
5.3746358297
 20
4.9045773642
 30
0.0
 10
5.3795046178
 20
4.9045773642
 30
0.0
  0
SPLINE
  5
4E4
100
AcDbEntity
  8
0
100
AcDbSpline
 62
7
  6
CONTINUOUS
 70
0
 71
3
 72
11
 73
7
 74
0
 42
0.0000001
 43
0.0000001
 44
0.0000000001
 40
0.0
 40
0.0
 40
0.0
 40
0.0
 40
0.2405312915
 40
0.493471978
 40
0.749824464
 40
1.0
 40
1.0
 40
1.0
 40
1.0
 10
6.075970078
 20
4.8997743206
 30
0.0
 10
6.0802168454
 20
4.900484001
 30
0.0
 10
6.0889622056
 20
4.9017479293
 30
0.0
 10
6.1023109074
 20
4.9031770168
 30
0.0
 10
6.1158737873
 20
4.9041487248
 30
0.0
 10
6.1249377565
 20
4.9044716586
 30
0.0
 10
6.1294155245
 20
4.9045403353
 30
0.0
  0
SPLINE
  5
4E5
100
AcDbEntity
  8
0
100
AcDbSpline
 62
7
  6
CONTINUOUS
 70
0
 71
3
 72
19
 73
15
 74
0
 42
0.0000001
 43
0.0000001
 44
0.0000000001
 40
0.0
 40
0.0
 40
0.0
 40
0.0
 40
0.0195786486
 40
0.0427113388
 40
0.0708773601
 40
0.1048779763
 40
0.1451302023
 40
0.1918007035
 40
0.2449327117
 40
0.3045064579
 40
0.4427131472
 40
0.6056399137
 40
0.7919175783
 40
1.0
 40
1.0
 40
1.0
 40
1.0
 10
6.6109575577
 20
4.8791070072
 30
0.0
 10
6.6109577879
 20
4.879253213
 30
0.0
 10
6.6110271325
 20
4.8795728894
 30
0.0
 10
6.6112944723
 20
4.8800354209
 30
0.0
 10
6.6117189631
 20
4.8805141965
 30
0.0
 10
6.6123014363
 20
4.8810123538
 30
0.0
 10
6.6130419447
 20
4.8815308747
 30
0.0
 10
6.613939209
 20
4.8820694731
 30
0.0
 10
6.6149910909
 20
4.8826271988
 30
0.0
 10
6.6166820839
 20
4.8834352408
 30
0.0
 10
6.6191707274
 20
4.8844701322
 30
0.0
 10
6.6225915991
 20
4.8857155949
 30
0.0
 10
6.6265487282
 20
4.8870061484
 30
0.0
 10
6.6293723437
 20
4.8878438467
 30
0.0
 10
6.6308666748
 20
4.8882699
 30
0.0
  0
LINE
  5
4E6
100
AcDbEntity
  8
0
100
AcDbLine
 62
7
  6
CONTINUOUS
 10
5.2361437465
 20
4.9332375036
 11
5.2363374469
 21
4.9319533309
  0
SPLINE
  5
4E7
100
AcDbEntity
  8
0
100
AcDbSpline
 62
7
  6
CONTINUOUS
 70
0
 71
3
 72
13
 73
9
 74
0
 42
0.0000001
 43
0.0000001
 44
0.0000000001
 40
0.0
 40
0.0
 40
0.0
 40
0.0
 40
0.3230480168
 40
0.5911187175
 40
0.7067504021
 40
0.8118878805
 40
0.9086830308
 40
1.0
 40
1.0
 40
1.0
 40
1.0
 10
4.8425786536
 20
4.9332238525
 30
0.0
 10
4.8432516202
 20
4.9327491963
 30
0.0
 10
4.8444437058
 20
4.931822077
 30
0.0
 10
4.8456999297
 20
4.9305147157
 30
0.0
 10
4.8464000133
 20
4.9294801438
 30
0.0
 10
4.8467601143
 20
4.9287516822
 30
0.0
 10
4.8469788769
 20
4.9280329968
 30
0.0
 10
4.8470293549
 20
4.9275523126
 30
0.0
 10
4.8470292165
 20
4.9273195262
 30
0.0
  0
SPLINE
  5
4E8
100
AcDbEntity
  8
0
100
AcDbSpline
 62
7
  6
CONTINUOUS
 70
0
 71
3
 72
16
 73
12
 74
0
 42
0.0000001
 43
0.0000001
 44
0.0000000001
 40
0.0
 40
0.0
 40
0.0
 40
0.0
 40
0.1965850165
 40
0.372745805
 40
0.5278656315
 40
0.6615384348
 40
0.7738999385
 40
0.8658156016
 40
0.9047728901
 40
0.9396354267
 40
1.0
 40
1.0
 40
1.0
 40
1.0
 10
4.4986801728
 20
4.9332238525
 30
0.0
 10
4.4997554334
 20
4.9327836085
 30
0.0
 10
4.5017814307
 20
4.9319168329
 30
0.0
 10
4.5045992084
 20
4.9305750755
 30
0.0
 10
4.5070186097
 20
4.9292689001
 30
0.0
 10
4.5090273697
 20
4.9280044491
 30
0.0
 10
4.5106154285
 20
4.9267879229
 30
0.0
 10
4.5116379606
 20
4.925766335
 30
0.0
 10
4.5122099546
 20
4.9249674422
 30
0.0
 10
4.5125831034
 20
4.924267116
 30
0.0
 10
4.5127235787
 20
4.9237019827
 30
0.0
 10
4.5127230204
 20
4.9233452046
 30
0.0
  0
LINE
  5
4E9
100
AcDbEntity
  8
0
100
AcDbLine
 62
7
  6
CONTINUOUS
 10
4.2278884869
 20
4.9332238525
 11
4.2408830291
 21
4.9289391184
  0
SPLINE
  5
4EA
100
AcDbEntity
  8
0
100
AcDbSpline
 62
7
  6
CONTINUOUS
 70
0
 71
3
 72
17
 73
13
 74
0
 42
0.0000001
 43
0.0000001
 44
0.0000000001
 40
0.0
 40
0.0
 40
0.0
 40
0.0
 40
0.2064924669
 40
0.3905705809
 40
0.5513135521
 40
0.6879168163
 40
0.7999604651
 40
0.8468642398
 40
0.8878232876
 40
0.9230660815
 40
0.9530028849
 40
1.0
 40
1.0
 40
1.0
 40
1.0
 10
4.2414675442
 20
4.928724863
 30
0.0
 10
4.2425894312
 20
4.9283111988
 30
0.0
 10
4.2447029589
 20
4.9275053433
 30
0.0
 10
4.2476525191
 20
4.9262826454
 30
0.0
 10
4.250187662
 20
4.9251208469
 30
0.0
 10
4.2522917096
 20
4.9240264311
 30
0.0
 10
4.2537531031
 20
4.9231305669
 30
0.0
 10
4.2546839297
 20
4.9224408542
 30
0.0
 10
4.2552245875
 20
4.9219755804
 30
0.0
 10
4.2556505297
 20
4.921529028
 30
0.0
 10
4.2560332806
 20
4.9210068752
 30
0.0
 10
4.2562020851
 20
4.9205658633
 30
0.0
 10
4.2562019958
 20
4.9202937205
 30
0.0
  0
SPLINE
  5
4EB
100
AcDbEntity
  8
0
100
AcDbSpline
 62
7
  6
CONTINUOUS
 70
0
 71
3
 72
10
 73
6
 74
0
 42
0.0000001
 43
0.0000001
 44
0.0000000001
 40
0.0
 40
0.0
 40
0.0
 40
0.0
 40
0.5494708469
 40
0.7889664534
 40
1.0
 40
1.0
 40
1.0
 40
1.0
 10
4.0486576016
 20
4.9332238525
 30
0.0
 10
4.0543262167
 20
4.9317828646
 30
0.0
 10
4.0624504504
 20
4.9296521527
 30
0.0
 10
4.0726985297
 20
4.9267731417
 30
0.0
 10
4.0772967799
 20
4.9254101861
 30
0.0
 10
4.0794437046
 20
4.9247492108
 30
0.0
  0
SPLINE
  5
4EC
100
AcDbEntity
  8
0
100
AcDbSpline
 62
7
  6
CONTINUOUS
 70
0
 71
3
 72
10
 73
6
 74
0
 42
0.0000001
 43
0.0000001
 44
0.0000000001
 40
0.0
 40
0.0
 40
0.0
 40
0.0
 40
0.5672503839
 40
0.801074318
 40
1.0
 40
1.0
 40
1.0
 40
1.0
 10
4.0810701391
 20
4.9242433292
 30
0.0
 10
4.0829624402
 20
4.9236484363
 30
0.0
 10
4.0856267353
 20
4.9227810809
 30
0.0
 10
4.0889183984
 20
4.9216001842
 30
0.0
 10
4.0903295748
 20
4.9210529073
 30
0.0
 10
4.0909729597
 20
4.9207884405
 30
0.0
  0
SPLINE
  5
4ED
100
AcDbEntity
  8
0
100
AcDbSpline
 62
7
  6
CONTINUOUS
 70
0
 71
3
 72
16
 73
12
 74
0
 42
0.0000001
 43
0.0000001
 44
0.0000000001
 40
0.0
 40
0.0
 40
0.0
 40
0.0
 40
0.0712879302
 40
0.1510950708
 40
0.2450439256
 40
0.3564916436
 40
0.4194187236
 40
0.487292426
 40
0.6380632488
 40
0.8090065224
 40
1.0
 40
1.0
 40
1.0
 40
1.0
 10
5.6832589927
 20
4.8885092182
 30
0.0
 10
5.6832591668
 20
4.8888494827
 30
0.0
 10
5.6833984745
 20
4.8895746521
 30
0.0
 10
5.68397742
 20
4.8906067382
 30
0.0
 10
5.684901443
 20
4.8916175935
 30
0.0
 10
5.6859101439
 20
4.8924133976
 30
0.0
 10
5.6868753859
 20
4.8930505659
 30
0.0
 10
5.6880339405
 20
4.8937328491
 30
0.0
 10
5.6896980306
 20
4.894567314
 30
0.0
 10
5.6919545285
 20
4.8955176201
 30
0.0
 10
5.6935807027
 20
4.8961030967
 30
0.0
 10
5.6944446393
 20
4.896394104
 30
0.0
  0
SPLINE
  5
4EE
100
AcDbEntity
  8
0
100
AcDbSpline
 62
7
  6
CONTINUOUS
 70
0
 71
3
 72
15
 73
11
 74
0
 42
0.0000001
 43
0.0000001
 44
0.0000000001
 40
0.0
 40
0.0
 40
0.0
 40
0.0
 40
0.0889351465
 40
0.1919440276
 40
0.3075833626
 40
0.4339187173
 40
0.5688044037
 40
0.7098817849
 40
0.8546329936
 40
1.0
 40
1.0
 40
1.0
 40
1.0
 10
5.6944446393
 20
4.896394104
 30
0.0
 10
5.6963369673
 20
4.8970315134
 30
0.0
 10
5.7004820166
 20
4.8982266776
 30
0.0
 10
5.7072200921
 20
4.8997513401
 30
0.0
 10
5.7148480735
 20
4.9011101147
 30
0.0
 10
5.723229953
 20
4.9022793243
 30
0.0
 10
5.7322135912
 20
4.9032317635
 30
0.0
 10
5.7416336095
 20
4.9039492413
 30
0.0
 10
5.7513049964
 20
4.9044127334
 30
0.0
 10
5.7578183792
 20
4.9045477985
 30
0.0
 10
5.7610821262
 20
4.9045696585
 30
0.0
  0
SPLINE
  5
4EF
100
AcDbEntity
  8
0
100
AcDbSpline
 62
7
  6
CONTINUOUS
 70
0
 71
3
 72
10
 73
6
 74
0
 42
0.0000001
 43
0.0000001
 44
0.0000000001
 40
0.0
 40
0.0
 40
0.0
 40
0.0
 40
0.3703751084
 40
0.6488329567
 40
1.0
 40
1.0
 40
1.0
 40
1.0
 10
6.7936411505
 20
4.8772557705
 30
0.0
 10
6.7936413316
 20
4.8774416248
 30
0.0
 10
6.7938494942
 20
4.8777417379
 30
0.0
 10
6.7942202576
 20
4.8780656715
 30
0.0
 10
6.7944826923
 20
4.8782472751
 30
0.0
 10
6.7946312414
 20
4.8783420652
 30
0.0
  0
SPLINE
  5
4F0
100
AcDbEntity
  8
0
100
AcDbSpline
 62
7
  6
CONTINUOUS
 70
0
 71
3
 72
14
 73
10
 74
0
 42
0.0000001
 43
0.0000001
 44
0.0000000001
 40
0.0
 40
0.0
 40
0.0
 40
0.0
 40
0.0634260481
 40
0.1452666442
 40
0.2452979598
 40
0.3631449447
 40
0.4983109725
 40
0.6500549907
 40
1.0
 40
1.0
 40
1.0
 40
1.0
 10
6.7946312414
 20
4.8783420652
 30
0.0
 10
6.7949624196
 20
4.878553392
 30
0.0
 10
6.7957567725
 20
4.8789802583
 30
0.0
 10
6.7971432237
 20
4.8796026127
 30
0.0
 10
6.7988717014
 20
4.8802816718
 30
0.0
 10
6.800932881
 20
4.8810127298
 30
0.0
 10
6.803316397
 20
4.8817907316
 30
0.0
 10
6.8070896071
 20
4.8829416023
 30
0.0
 10
6.8100832027
 20
4.8837768767
 30
0.0
 10
6.8121764576
 20
4.8843395014
 30
0.0
  0
SPLINE
  5
4F1
100
AcDbEntity
  8
0
100
AcDbSpline
 62
7
  6
CONTINUOUS
 70
0
 71
3
 72
13
 73
9
 74
0
 42
0.0000001
 43
0.0000001
 44
0.0000000001
 40
0.0
 40
0.0
 40
0.0
 40
0.0
 40
0.1001696177
 40
0.2122111016
 40
0.3339298026
 40
0.4629149487
 40
0.7325585074
 40
1.0
 40
1.0
 40
1.0
 40
1.0
 10
6.8121764576
 20
4.8843395014
 30
0.0
 10
6.8146241724
 20
4.8849973979
 30
0.0
 10
6.819825752
 20
4.8863316137
 30
0.0
 10
6.8280444564
 20
4.8882938484
 30
0.0
 10
6.8370019808
 20
4.8902972009
 30
0.0
 10
6.8498851227
 20
4.8930144527
 30
0.0
 10
6.8664318175
 20
4.8962225183
 30
0.0
 10
6.8798248433
 20
4.89853448
 30
0.0
 10
6.8865067013
 20
4.8996049452
 30
0.0
  0
SPLINE
  5
4F2
100
AcDbEntity
  8
0
100
AcDbSpline
 62
7
  6
CONTINUOUS
 70
0
 71
3
 72
10
 73
6
 74
0
 42
0.0000001
 43
0.0000001
 44
0.0000000001
 40
0.0
 40
0.0
 40
0.0
 40
0.0
 40
0.199320171
 40
0.433261014
 40
1.0
 40
1.0
 40
1.0
 40
1.0
 10
7.0518840751
 20
4.9207773541
 30
0.0
 10
7.0525159509
 20
4.9210376522
 30
0.0
 10
7.0539005644
 20
4.9215765106
 30
0.0
 10
7.0571263423
 20
4.922738843
 30
0.0
 10
7.0597362628
 20
4.9235921648
 30
0.0
 10
7.0615894158
 20
4.9241765933
 30
0.0
  0
SPLINE
  5
4F3
100
AcDbEntity
  8
0
100
AcDbSpline
 62
7
  6
CONTINUOUS
 70
0
 71
3
 72
10
 73
6
 74
0
 42
0.0000001
 43
0.0000001
 44
0.0000000001
 40
0.0
 40
0.0
 40
0.0
 40
0.0
 40
0.2109264455
 40
0.4503882118
 40
1.0
 40
1.0
 40
1.0
 40
1.0
 10
7.0634078619
 20
4.9247430023
 30
0.0
 10
7.0655562691
 20
4.9254043296
 30
0.0
 10
7.0701589372
 20
4.9267671214
 30
0.0
 10
7.0804199282
 20
4.9296467513
 30
0.0
 10
7.0885544384
 20
4.9317819314
 30
0.0
 10
7.0942311197
 20
4.9332254151
 30
0.0
  0
SPLINE
  5
4F4
100
AcDbEntity
  8
0
100
AcDbSpline
 62
9
  6
CONTINUOUS
 70
0
 71
3
 72
17
 73
13
 74
0
 42
0.0000001
 43
0.0000001
 44
0.0000000001
 40
0.0
 40
0.0
 40
0.0
 40
0.0
 40
0.0175353797
 40
0.037203131
 40
0.0613210378
 40
0.0911855187
 40
0.1705099614
 40
0.2779102328
 40
0.4143342799
 40
0.5802164811
 40
0.7755889943
 40
1.0
 40
1.0
 40
1.0
 40
1.0
 10
4.6470011036
 20
4.762961892
 30
0.0
 10
4.6470011791
 20
4.7629866102
 30
0.0
 10
4.6470135491
 20
4.7630396159
 30
0.0
 10
4.6470668649
 20
4.7631097975
 30
0.0
 10
4.6471503866
 20
4.7631727617
 30
0.0
 10
4.6473186251
 20
4.7632578571
 30
0.0
 10
4.6476132338
 20
4.7633445024
 30
0.0
 10
4.6480616458
 20
4.7634253508
 30
0.0
 10
4.6486361536
 20
4.7634885129
 30
0.0
 10
4.6493363416
 20
4.7635336796
 30
0.0
 10
4.650161604
 20
4.763560183
 30
0.0
 10
4.6507533627
 20
4.7635651059
 30
0.0
 10
4.6510696972
 20
4.7635650016
 30
0.0
  0
SPLINE
  5
4F5
100
AcDbEntity
  8
0
100
AcDbSpline
 62
9
  6
CONTINUOUS
 70
0
 71
3
 72
23
 73
19
 74
0
 42
0.0000001
 43
0.0000001
 44
0.0000000001
 40
0.0
 40
0.0
 40
0.0
 40
0.0
 40
0.2017014698
 40
0.3888134311
 40
0.4753706618
 40
0.5565219829
 40
0.6317584956
 40
0.7006405924
 40
0.7627655189
 40
0.8178215472
 40
0.8655622258
 40
0.9058483285
 40
0.9387244903
 40
0.9644856536
 40
0.9749772985
 40
0.9841416378
 40
0.9923220868
 40
1.0
 40
1.0
 40
1.0
 40
1.0
 10
5.8323655688
 20
4.7635658485
 30
0.0
 10
5.835974429
 20
4.7635658537
 30
0.0
 10
5.8429314615
 20
4.763481541
 30
0.0
 10
5.8514315415
 20
4.7631426393
 30
0.0
 10
5.8577666918
 20
4.7627266678
 30
0.0
 10
5.862098274
 20
4.7623597476
 30
0.0
 10
5.8661064553
 20
4.7619322731
 30
0.0
 10
5.869765127
 20
4.7614478198
 30
0.0
 10
5.8730510097
 20
4.7609095822
 30
0.0
 10
5.8759436799
 20
4.7603220106
 30
0.0
 10
5.878425625
 20
4.7596897451
 30
0.0
 10
5.880484382
 20
4.7590170198
 30
0.0
 10
5.8821094878
 20
4.7583099286
 30
0.0
 10
5.8831694664
 20
4.7576537526
 30
0.0
 10
5.8837636779
 20
4.7570952007
 30
0.0
 10
5.8840650078
 20
4.7566946424
 30
0.0
 10
5.8842505257
 20
4.7562823434
 30
0.0
 10
5.8842931842
 20
4.755997274
 30
0.0
 10
5.8842935898
 20
4.7558599008
 30
0.0
  0
SPLINE
  5
4F6
100
AcDbEntity
  8
0
100
AcDbSpline
 62
9
  6
CONTINUOUS
 70
0
 71
3
 72
16
 73
12
 74
0
 42
0.0000001
 43
0.0000001
 44
0.0000000001
 40
0.0
 40
0.0
 40
0.0
 40
0.0
 40
0.1904966612
 40
0.3671826061
 40
0.5228214242
 40
0.6538942622
 40
0.7612987481
 40
0.8560019523
 40
0.8985881635
 40
0.9369516537
 40
1.0
 40
1.0
 40
1.0
 40
1.0
 10
5.8323655689
 20
4.7635658485
 30
0.0
 10
5.8323654699
 20
4.7643467927
 30
0.0
 10
5.8324052539
 20
4.7658523872
 30
0.0
 10
5.8325756554
 20
4.7679899511
 30
0.0
 10
5.8328343406
 20
4.7698730887
 30
0.0
 10
5.8331547705
 20
4.7714579987
 30
0.0
 10
5.8335243471
 20
4.7727743112
 30
0.0
 10
5.8338869068
 20
4.7737122051
 30
0.0
 10
5.8342246952
 20
4.7743503179
 30
0.0
 10
5.8345524316
 20
4.7748392006
 30
0.0
 10
5.8348580976
 20
4.7751447804
 30
0.0
 10
5.835087474
 20
4.7752639108
 30
0.0
  0
LINE
  5
4F7
100
AcDbEntity
  8
0
100
AcDbLine
 62
9
  6
CONTINUOUS
 10
5.7385732823
 20
4.7578656854
 11
5.7351282615
 21
4.7587688053
  0
SPLINE
  5
4F8
100
AcDbEntity
  8
0
100
AcDbSpline
 62
9
  6
CONTINUOUS
 70
0
 71
3
 72
34
 73
30
 74
0
 42
0.0000001
 43
0.0000001
 44
0.0000000001
 40
0.0
 40
0.0
 40
0.0
 40
0.0
 40
0.0157068908
 40
0.0284538783
 40
0.0384518402
 40
0.0425497888
 40
0.0461538035
 40
0.0493944273
 40
0.0524521862
 40
0.0555435951
 40
0.0588821202
 40
0.0626424741
 40
0.0669510815
 40
0.0775066177
 40
0.0909052855
 40
0.1072570591
 40
0.1265849075
 40
0.1488521967
 40
0.1739780673
 40
0.2018679614
 40
0.265514152
 40
0.3388722938
 40
0.4208151832
 40
0.5097702503
 40
0.6040746163
 40
0.702047602
 40
0.8019383614
 40
0.9019174306
 40
1.0
 40
1.0
 40
1.0
 40
1.0
 10
5.7351282615
 20
4.7587688053
 30
0.0
 10
5.7345658075
 20
4.7589468117
 30
0.0
 10
5.733555871
 20
4.7593015145
 30
0.0
 10
5.7322451011
 20
4.7599128997
 30
0.0
 10
5.7313976353
 20
4.760473999
 30
0.0
 10
5.7309260108
 20
4.7609459202
 30
0.0
 10
5.7306872133
 20
4.7612835073
 30
0.0
 10
5.7305416463
 20
4.7616297247
 30
0.0
 10
5.7304942185
 20
4.7619837923
 30
0.0
 10
5.7305477377
 20
4.7623405904
 30
0.0
 10
5.7306997735
 20
4.7626955505
 30
0.0
 10
5.7309467862
 20
4.7630484791
 30
0.0
 10
5.7314353442
 20
4.7635522119
 30
0.0
 10
5.732309223
 20
4.7641677083
 30
0.0
 10
5.7336542158
 20
4.7648664257
 30
0.0
 10
5.7353612592
 20
4.7655675387
 30
0.0
 10
5.737423215
 20
4.7662670038
 30
0.0
 10
5.7398318858
 20
4.7669613455
 30
0.0
 10
5.7425754379
 20
4.767647622
 30
0.0
 10
5.7468554043
 20
4.7685890643
 30
0.0
 10
5.7529503024
 20
4.7697001307
 30
0.0
 10
5.7610870615
 20
4.7708999058
 30
0.0
 10
5.7701974455
 20
4.7719887227
 30
0.0
 10
5.7801125082
 20
4.7729511102
 30
0.0
 10
5.7906445461
 20
4.7737680008
 30
0.0
 10
5.8015992043
 20
4.7744249034
 30
0.0
 10
5.8127763453
 20
4.7749065698
 30
0.0
 10
5.8239642494
 20
4.775194144
 30
0.0
 10
5.8314035383
 20
4.7752607898
 30
0.0
 10
5.835087513
 20
4.7752626263
 30
0.0
  0
SPLINE
  5
4F9
100
AcDbEntity
  8
0
100
AcDbSpline
 62
9
  6
CONTINUOUS
 70
0
 71
3
 72
20
 73
16
 74
0
 42
0.0000001
 43
0.0000001
 44
0.0000000001
 40
0.0
 40
0.0
 40
0.0
 40
0.0
 40
0.0436581718
 40
0.0957166127
 40
0.1551344681
 40
0.2207723167
 40
0.3655840106
 40
0.5191040169
 40
0.6698324925
 40
0.7406390129
 40
0.8066406231
 40
0.8666171277
 40
0.9194636865
 40
0.9641950568
 40
1.0
 40
1.0
 40
1.0
 40
1.0
 10
6.4214920102
 20
4.7752626264
 30
0.0
 10
6.4193356737
 20
4.7752621809
 30
0.0
 10
6.4146081573
 20
4.7751750924
 30
0.0
 10
6.4069517249
 20
4.7748667782
 30
0.0
 10
6.3982176273
 20
4.7743690881
 30
0.0
 10
6.3849210247
 20
4.7734346331
 30
0.0
 10
6.3670109282
 20
4.7718699121
 30
0.0
 10
6.3449521
 20
4.7695486525
 30
0.0
 10
6.3265638768
 20
4.7672965118
 30
0.0
 10
6.3124939639
 20
4.7653637937
 30
0.0
 10
6.3028796847
 20
4.763936145
 30
0.0
 10
6.2941601177
 20
4.7625273061
 30
0.0
 10
6.2864979143
 20
4.7611651634
 30
0.0
 10
6.2800369322
 20
4.759876021
 30
0.0
 10
6.2761593165
 20
4.7589827694
 30
0.0
 10
6.2744480548
 20
4.7585366574
 30
0.0
  0
SPLINE
  5
4FA
100
AcDbEntity
  8
0
100
AcDbSpline
 62
9
  6
CONTINUOUS
 70
0
 71
3
 72
25
 73
21
 74
0
 42
0.0000001
 43
0.0000001
 44
0.0000000001
 40
0.0
 40
0.0
 40
0.0
 40
0.0
 40
0.2179303744
 40
0.3068648273
 40
0.3822817786
 40
0.4441483954
 40
0.4926277433
 40
0.5283851925
 40
0.5420360087
 40
0.5534327261
 40
0.5634088825
 40
0.5731756831
 40
0.5840207596
 40
0.5969175706
 40
0.6309094638
 40
0.6775294073
 40
0.7375402806
 40
0.8112440505
 40
0.8987605244
 40
1.0
 40
1.0
 40
1.0
 40
1.0
 10
6.2744480548
 20
4.7585366574
 30
0.0
 10
6.2735298482
 20
4.7582972884
 30
0.0
 10
6.2722414784
 20
4.7579406386
 30
0.0
 10
6.2706593104
 20
4.7574224772
 30
0.0
 10
6.269736161
 20
4.7570783402
 30
0.0
 10
6.2689945587
 20
4.7567530303
 30
0.0
 10
6.2684363589
 20
4.7564472726
 30
0.0
 10
6.2680915906
 20
4.7561896443
 30
0.0
 10
6.2679213951
 20
4.7559850041
 30
0.0
 10
6.2678514278
 20
4.7558474673
 30
0.0
 10
6.267830774
 20
4.7557103727
 30
0.0
 10
6.2678640732
 20
4.7555780121
 30
0.0
 10
6.267947749
 20
4.7554557573
 30
0.0
 10
6.2681385106
 20
4.7552894205
 30
0.0
 10
6.2685092156
 20
4.7551093633
 30
0.0
 10
6.2690945587
 20
4.7549289911
 30
0.0
 10
6.2698644074
 20
4.7547688218
 30
0.0
 10
6.2708178141
 20
4.7546297739
 30
0.0
 10
6.2719549206
 20
4.7545130697
 30
0.0
 10
6.272774814
 20
4.7544547447
 30
0.0
 10
6.2732148305
 20
4.7544283303
 30
0.0
  0
SPLINE
  5
4FB
100
AcDbEntity
  8
0
100
AcDbSpline
 62
9
  6
CONTINUOUS
 70
0
 71
3
 72
19
 73
15
 74
0
 42
0.0000001
 43
0.0000001
 44
0.0000000001
 40
0.0
 40
0.0
 40
0.0
 40
0.0
 40
0.017268373
 40
0.0368883473
 40
0.0612086315
 40
0.0915202245
 40
0.1284624251
 40
0.1723305921
 40
0.2232658642
 40
0.2813291178
 40
0.4188608656
 40
0.5847991429
 40
0.7787883719
 40
1.0
 40
1.0
 40
1.0
 40
1.0
 10
4.7454833562
 20
4.7618200901
 30
0.0
 10
4.7454835353
 20
4.7618904684
 30
0.0
 10
4.7455204293
 20
4.7620423915
 30
0.0
 10
4.7456775409
 20
4.7622424801
 30
0.0
 10
4.7459233617
 20
4.7624226338
 30
0.0
 10
4.7462589767
 20
4.7625886078
 30
0.0
 10
4.7466857793
 20
4.7627419844
 30
0.0
 10
4.7472042654
 20
4.762883066
 30
0.0
 10
4.7478141343
 20
4.7630116499
 30
0.0
 10
4.7488057156
 20
4.7631753161
 30
0.0
 10
4.7502711491
 20
4.7633373647
 30
0.0
 10
4.7522945316
 20
4.7634710865
 30
0.0
 10
4.7546620204
 20
4.7635502522
 30
0.0
 10
4.7563542771
 20
4.7635651814
 30
0.0
 10
4.7572558408
 20
4.7635650014
 30
0.0
  0
LINE
  5
4FC
100
AcDbEntity
  8
0
100
AcDbLine
 62
9
  6
CONTINUOUS
 10
6.4282117248
 20
4.7715196566
 11
6.4308007355
 21
4.7723793374
  0
SPLINE
  5
4FD
100
AcDbEntity
  8
0
100
AcDbSpline
 62
9
  6
CONTINUOUS
 70
0
 71
3
 72
25
 73
21
 74
0
 42
0.0000001
 43
0.0000001
 44
0.0000000001
 40
0.0
 40
0.0
 40
0.0
 40
0.0
 40
0.05920963
 40
0.1064580456
 40
0.1422123764
 40
0.1561215629
 40
0.1677237289
 40
0.1775235605
 40
0.1863449761
 40
0.205192576
 40
0.2172796202
 40
0.2317784996
 40
0.2689618488
 40
0.3179583355
 40
0.3792832464
 40
0.4532159788
 40
0.5396580179
 40
0.6381149704
 40
0.748038508
 40
1.0
 40
1.0
 40
1.0
 40
1.0
 10
6.4308007355
 20
4.7723793374
 30
0.0
 10
6.4310652505
 20
4.7724826398
 30
0.0
 10
6.4315369752
 20
4.7726793854
 30
0.0
 10
6.4321450173
 20
4.7729891924
 30
0.0
 10
6.4325339851
 20
4.7732488294
 30
0.0
 10
6.432745315
 20
4.7734543026
 30
0.0
 10
6.4328458094
 20
4.7735920388
 30
0.0
 10
6.4329011444
 20
4.7737281176
 30
0.0
 10
6.4329096612
 20
4.7739122699
 30
0.0
 10
6.4327999816
 20
4.7740865486
 30
0.0
 10
6.4326299375
 20
4.7742219123
 30
0.0
 10
6.4323638978
 20
4.7743756412
 30
0.0
 10
6.431908133
 20
4.7745419948
 30
0.0
 10
6.4312204051
 20
4.774710015
 30
0.0
 10
6.4303482648
 20
4.7748564254
 30
0.0
 10
6.4292920106
 20
4.7749805361
 30
0.0
 10
6.4280545707
 20
4.7750816703
 30
0.0
 10
6.4266426849
 20
4.775160574
 30
0.0
 10
6.4244361919
 20
4.775239848
 30
0.0
 10
6.4227004216
 20
4.7752600457
 30
0.0
 10
6.4214920102
 20
4.7752626264
 30
0.0
  0
SPLINE
  5
4FE
100
AcDbEntity
  8
0
100
AcDbSpline
 62
9
  6
CONTINUOUS
 70
0
 71
3
 72
24
 73
20
 74
0
 42
0.0000001
 43
0.0000001
 44
0.0000000001
 40
0.0
 40
0.0
 40
0.0
 40
0.0
 40
0.1913270701
 40
0.3744852487
 40
0.4609081681
 40
0.5428680976
 40
0.6196173282
 40
0.6904340147
 40
0.7547559623
 40
0.8121082168
 40
0.8620429822
 40
0.904212909
 40
0.9385414471
 40
0.9528134832
 40
0.9652201876
 40
0.9758689508
 40
0.9849535096
 40
0.9928187407
 40
1.0
 40
1.0
 40
1.0
 40
1.0
 10
5.5969984042
 20
4.7635659771
 30
0.0
 10
5.601536025
 20
4.7635661041
 30
0.0
 10
5.6104180087
 20
4.7634396629
 30
0.0
 10
5.6213406972
 20
4.7629620403
 30
0.0
 10
5.629658256
 20
4.7623821522
 30
0.0
 10
5.6354497626
 20
4.7618705309
 30
0.0
 10
5.6408615737
 20
4.7612792426
 30
0.0
 10
5.6458429726
 20
4.7606125329
 30
0.0
 10
5.6503494883
 20
4.759877983
 30
0.0
 10
5.6543422363
 20
4.7590841532
 30
0.0
 10
5.6577866066
 20
4.7582397536
 30
0.0
 10
5.6606522577
 20
4.7573508565
 30
0.0
 10
5.6626523672
 20
4.7565409135
 30
0.0
 10
5.6639294204
 20
4.755857712
 30
0.0
 10
5.6646705886
 20
4.7553707411
 30
0.0
 10
5.6652548539
 20
4.7548774167
 30
0.0
 10
5.6656808715
 20
4.7543750124
 30
0.0
 10
5.6659448878
 20
4.7538600408
 30
0.0
 10
5.666007034
 20
4.7535013784
 30
0.0
 10
5.6660076211
 20
4.7533310646
 30
0.0
  0
SPLINE
  5
4FF
100
AcDbEntity
  8
0
100
AcDbSpline
 62
9
  6
CONTINUOUS
 70
0
 71
3
 72
15
 73
11
 74
0
 42
0.0000001
 43
0.0000001
 44
0.0000000001
 40
0.0
 40
0.0
 40
0.0
 40
0.0
 40
0.3851292423
 40
0.5471007023
 40
0.6820094838
 40
0.7905277326
 40
0.8829646505
 40
0.955796052
 40
0.9819718164
 40
1.0
 40
1.0
 40
1.0
 40
1.0
 10
5.5969984099
 20
4.7635658572
 30
0.0
 10
5.5969983896
 20
4.7650684923
 30
0.0
 10
5.5970085166
 20
4.7672031117
 30
0.0
 10
5.5970441472
 20
4.7698638448
 30
0.0
 10
5.5970754683
 20
4.7714452555
 30
0.0
 10
5.5971111775
 20
4.7727552327
 30
0.0
 10
5.5971518688
 20
4.7738226236
 30
0.0
 10
5.5971915067
 20
4.7745687378
 30
0.0
 10
5.5972309902
 20
4.7750235887
 30
0.0
 10
5.5972519766
 20
4.7751949906
 30
0.0
 10
5.5972650092
 20
4.7752641122
 30
0.0
  0
SPLINE
  5
500
100
AcDbEntity
  8
0
100
AcDbSpline
 62
9
  6
CONTINUOUS
 70
0
 71
3
 72
24
 73
20
 74
0
 42
0.0000001
 43
0.0000001
 44
0.0000000001
 40
0.0
 40
0.0
 40
0.0
 40
0.0
 40
0.0075691138
 40
0.0156712123
 40
0.0247981265
 40
0.0353003547
 40
0.0474071751
 40
0.061249837
 40
0.0943879125
 40
0.1349948116
 40
0.183086961
 40
0.2385636236
 40
0.3011297813
 40
0.3703700943
 40
0.4458481744
 40
0.527114325
 40
0.6136463888
 40
0.8000407071
 40
1.0
 40
1.0
 40
1.0
 40
1.0
 10
5.304587747
 20
4.7553285372
 30
0.0
 10
5.3045882344
 20
4.7554732754
 30
0.0
 10
5.3046343886
 20
4.7557743591
 30
0.0
 10
5.3048344457
 20
4.7562095702
 30
0.0
 10
5.3051596033
 20
4.7566327829
 30
0.0
 10
5.3056072691
 20
4.7570456851
 30
0.0
 10
5.3061769634
 20
4.757449787
 30
0.0
 10
5.30715869
 20
4.7580117705
 30
0.0
 10
5.3087027307
 20
4.7586727479
 30
0.0
 10
5.310920717
 20
4.7593911522
 30
0.0
 10
5.3135948111
 20
4.7600686535
 30
0.0
 10
5.3167095167
 20
4.760698546
 30
0.0
 10
5.3202445446
 20
4.7612765085
 30
0.0
 10
5.3241742675
 20
4.7617985071
 30
0.0
 10
5.3284712832
 20
4.7622600683
 30
0.0
 10
5.3331066742
 20
4.7626566896
 30
0.0
 10
5.3398651041
 20
4.7631054449
 30
0.0
 10
5.3489018339
 20
4.763473723
 30
0.0
 10
5.3562902147
 20
4.7635654335
 30
0.0
 10
5.3601138988
 20
4.7635650016
 30
0.0
  0
SPLINE
  5
501
100
AcDbEntity
  8
0
100
AcDbSpline
 62
9
  6
CONTINUOUS
 70
0
 71
3
 72
25
 73
21
 74
0
 42
0.0000001
 43
0.0000001
 44
0.0000000001
 40
0.0
 40
0.0
 40
0.0
 40
0.0
 40
0.0070824479
 40
0.0149118072
 40
0.0240180936
 40
0.0347346286
 40
0.0472592884
 40
0.0617055896
 40
0.078123796
 40
0.0965308646
 40
0.1392896649
 40
0.1898297741
 40
0.2477884545
 40
0.3127116356
 40
0.3840266173
 40
0.4610930189
 40
0.5431862374
 40
0.6295238297
 40
0.8115379187
 40
1.0
 40
1.0
 40
1.0
 40
1.0
 10
5.5242767786
 20
4.7527884686
 30
0.0
 10
5.5242786251
 20
4.7529653415
 30
0.0
 10
5.5243491882
 20
4.7533391013
 30
0.0
 10
5.5246366916
 20
4.7538731575
 30
0.0
 10
5.5250949523
 20
4.7543954177
 30
0.0
 10
5.525721026
 20
4.7549099096
 30
0.0
 10
5.5265148421
 20
4.7554186146
 30
0.0
 10
5.5274760548
 20
4.7559211982
 30
0.0
 10
5.5286029467
 20
4.7564173036
 30
0.0
 10
5.5304158897
 20
4.757103177
 30
0.0
 10
5.5330872387
 20
4.757917033
 30
0.0
 10
5.5367594414
 20
4.7588085679
 30
0.0
 10
5.5410096758
 20
4.7596478085
 30
0.0
 10
5.5457977699
 20
4.760424924
 30
0.0
 10
5.551078468
 20
4.7611319471
 30
0.0
 10
5.5568005297
 20
4.7617607856
 30
0.0
 10
5.5629079689
 20
4.7623049556
 30
0.0
 10
5.5716390145
 20
4.7629202628
 30
0.0
 10
5.5830385102
 20
4.7634299908
 30
0.0
 10
5.5922915942
 20
4.7635658675
 30
0.0
 10
5.5969983941
 20
4.7635658598
 30
0.0
  0
SPLINE
  5
502
100
AcDbEntity
  8
0
100
AcDbSpline
 62
9
  6
CONTINUOUS
 70
0
 71
3
 72
25
 73
21
 74
0
 42
0.0000001
 43
0.0000001
 44
0.0000000001
 40
0.0
 40
0.0
 40
0.0
 40
0.0
 40
0.17831291
 40
0.3563358239
 40
0.4425142765
 40
0.5253759393
 40
0.603873391
 40
0.6771026449
 40
0.7442350481
 40
0.8044630877
 40
0.8571502776
 40
0.9018288288
 40
0.9210429568
 40
0.9381227393
 40
0.953072551
 40
0.9659382227
 40
0.9768093162
 40
0.985855356
 40
0.9933953049
 40
1.0
 40
1.0
 40
1.0
 40
1.0
 10
5.3601127292
 20
4.7635659772
 30
0.0
 10
5.3653800819
 20
4.7635661283
 30
0.0
 10
5.3759068236
 20
4.7633850871
 30
0.0
 10
5.3889654266
 20
4.7627451277
 30
0.0
 10
5.399189639
 20
4.7619816252
 30
0.0
 10
5.4064710972
 20
4.7613065319
 30
0.0
 10
5.4133576456
 20
4.760529651
 30
0.0
 10
5.4197648948
 20
4.7596622539
 30
0.0
 10
5.4256152255
 20
4.7587173508
 30
0.0
 10
5.4308379758
 20
4.7577060611
 30
0.0
 10
5.4353711646
 20
4.7566412916
 30
0.0
 10
5.4386815285
 20
4.7556823443
 30
0.0
 10
5.4409363266
 20
4.754882003
 30
0.0
 10
5.442337467
 20
4.7543071734
 30
0.0
 10
5.4435322195
 20
4.7537290741
 30
0.0
 10
5.4445189746
 20
4.7531494172
 30
0.0
 10
5.4452974591
 20
4.7525689919
 30
0.0
 10
5.4458676987
 20
4.7519857259
 30
0.0
 10
5.4462280669
 20
4.7513933316
 30
0.0
 10
5.4463172148
 20
4.7509734712
 30
0.0
 10
5.4463177564
 20
4.7507783696
 30
0.0
  0
SPLINE
  5
503
100
AcDbEntity
  8
0
100
AcDbSpline
 62
9
  6
CONTINUOUS
 70
0
 71
3
 72
16
 73
12
 74
0
 42
0.0000001
 43
0.0000001
 44
0.0000000001
 40
0.0
 40
0.0
 40
0.0
 40
0.0
 40
0.3725940471
 40
0.5301389835
 40
0.6623199586
 40
0.7699638814
 40
0.8638269068
 40
0.9053798907
 40
0.9421469596
 40
0.9736609068
 40
1.0
 40
1.0
 40
1.0
 40
1.0
 10
5.3601127492
 20
4.7635658567
 30
0.0
 10
5.3601129053
 20
4.7650698536
 30
0.0
 10
5.3600285487
 20
4.7672119921
 30
0.0
 10
5.3597335888
 20
4.7698699198
 30
0.0
 10
5.3594743707
 20
4.771453823
 30
0.0
 10
5.3591758815
 20
4.7727680116
 30
0.0
 10
5.3588827627
 20
4.7737065456
 30
0.0
 10
5.3586091605
 20
4.7743461466
 30
0.0
 10
5.3583974914
 20
4.7747368002
 30
0.0
 10
5.358172666
 20
4.7750470674
 30
0.0
 10
5.3579978253
 20
4.7752067083
 30
0.0
 10
5.3579083346
 20
4.7752641121
 30
0.0
  0
LINE
  5
504
100
AcDbEntity
  8
0
100
AcDbLine
 62
9
  6
CONTINUOUS
 10
5.3010262928
 20
4.7624778843
 11
5.2982619362
 21
4.763374658
  0
SPLINE
  5
505
100
AcDbEntity
  8
0
100
AcDbSpline
 62
9
  6
CONTINUOUS
 70
0
 71
3
 72
28
 73
24
 74
0
 42
0.0000001
 43
0.0000001
 44
0.0000000001
 40
0.0
 40
0.0
 40
0.0
 40
0.0
 40
0.0206416144
 40
0.0384674859
 40
0.0535442522
 40
0.066006079
 40
0.0761215892
 40
0.084435616
 40
0.091915161
 40
0.099825311
 40
0.1092473426
 40
0.1208371102
 40
0.1349412026
 40
0.1517428358
 40
0.1713428862
 40
0.1937984881
 40
0.247237037
 40
0.3116090161
 40
0.3862473314
 40
0.470354841
 40
0.5630716545
 40
0.7706689367
 40
1.0
 40
1.0
 40
1.0
 40
1.0
 10
5.2982619362
 20
4.763374658
 30
0.0
 10
5.2977913894
 20
4.7635466066
 30
0.0
 10
5.2969215009
 20
4.7638871404
 30
0.0
 10
5.2957428751
 20
4.764437191
 30
0.0
 10
5.2947871569
 20
4.7649874789
 30
0.0
 10
5.2940537326
 20
4.7655381262
 30
0.0
 10
5.2935410933
 20
4.7660931284
 30
0.0
 10
5.293253586
 20
4.7666670139
 30
0.0
 10
5.2932247868
 20
4.767260531
 30
0.0
 10
5.2934627104
 20
4.7678306082
 30
0.0
 10
5.2939292643
 20
4.7683649082
 30
0.0
 10
5.2946129174
 20
4.7688802436
 30
0.0
 10
5.2955163609
 20
4.7693823409
 30
0.0
 10
5.296641486
 20
4.7698721807
 30
0.0
 10
5.2979890714
 20
4.7703487742
 30
0.0
 10
5.3002136482
 20
4.7710021168
 30
0.0
 10
5.3035385681
 20
4.7717472213
 30
0.0
 10
5.308144542
 20
4.7725295157
 30
0.0
 10
5.313515387
 20
4.773229595
 30
0.0
 10
5.319588531
 20
4.7738400939
 30
0.0
 10
5.3288922318
 20
4.7745504509
 30
0.0
 10
5.3417372697
 20
4.7751253209
 30
0.0
 10
5.3523423312
 20
4.7752598829
 30
0.0
 10
5.3579082801
 20
4.7752626263
 30
0.0
  0
SPLINE
  5
506
100
AcDbEntity
  8
0
100
AcDbSpline
 62
9
  6
CONTINUOUS
 70
0
 71
3
 72
13
 73
9
 74
0
 42
0.0000001
 43
0.0000001
 44
0.0000000001
 40
0.0
 40
0.0
 40
0.0
 40
0.0
 40
0.087362479
 40
0.1800647189
 40
0.2818452778
 40
0.3955057775
 40
0.6654681322
 40
1.0
 40
1.0
 40
1.0
 40
1.0
 10
5.7425616828
 20
4.7502395038
 30
0.0
 10
5.7425619643
 20
4.7503548436
 30
0.0
 10
5.7425916473
 20
4.75059328
 30
0.0
 10
5.7427190698
 20
4.7509455214
 30
0.0
 10
5.7429272304
 20
4.7512973355
 30
0.0
 10
5.7433343179
 20
4.7517947297
 30
0.0
 10
5.7440649679
 20
4.7524095988
 30
0.0
 10
5.7447455845
 20
4.7528293562
 30
0.0
 10
5.7451315886
 20
4.7530439934
 30
0.0
  0
SPLINE
  5
507
100
AcDbEntity
  8
0
100
AcDbSpline
 62
9
  6
CONTINUOUS
 70
0
 71
3
 72
18
 73
14
 74
0
 42
0.0000001
 43
0.0000001
 44
0.0000000001
 40
0.0
 40
0.0
 40
0.0
 40
0.0
 40
0.0272141228
 40
0.061010114
 40
0.1012367412
 40
0.1476597475
 40
0.1999681514
 40
0.2576914174
 40
0.3873025861
 40
0.531948664
 40
0.6861562871
 40
0.8441672082
 40
1.0
 40
1.0
 40
1.0
 40
1.0
 10
5.7451315886
 20
4.7530439934
 30
0.0
 10
5.7458316579
 20
4.7534332663
 30
0.0
 10
5.747470695
 20
4.7541792535
 30
0.0
 10
5.7502806449
 20
4.7551755325
 30
0.0
 10
5.753688874
 20
4.7561580349
 30
0.0
 10
5.7576663013
 20
4.7571153238
 30
0.0
 10
5.7621791761
 20
4.7580361177
 30
0.0
 10
5.7691278739
 20
4.7592523251
 30
0.0
 10
5.7788106545
 20
4.7605893871
 30
0.0
 10
5.7913589467
 20
4.7618690405
 30
0.0
 10
5.8047739786
 20
4.7628283691
 30
0.0
 10
5.8185393372
 20
4.763423869
 30
0.0
 10
5.827777457
 20
4.7635655268
 30
0.0
 10
5.8323642277
 20
4.7635650017
 30
0.0
  0
SPLINE
  5
508
100
AcDbEntity
  8
0
100
AcDbSpline
 62
9
  6
CONTINUOUS
 70
0
 71
3
 72
32
 73
28
 74
0
 42
0.0000001
 43
0.0000001
 44
0.0000000001
 40
0.0
 40
0.0
 40
0.0
 40
0.0
 40
0.0531351088
 40
0.1164102125
 40
0.1882578699
 40
0.2667815881
 40
0.3499568696
 40
0.4356650589
 40
0.5217231246
 40
0.6059884398
 40
0.6863756102
 40
0.7608802334
 40
0.8277117304
 40
0.8577090482
 40
0.8851812757
 40
0.9099747471
 40
0.9319384309
 40
0.9509264257
 40
0.966832229
 40
0.9736135164
 40
0.9796083531
 40
0.9848167771
 40
0.9892445208
 40
0.9929079409
 40
0.995845082
 40
0.9981447042
 40
1.0
 40
1.0
 40
1.0
 40
1.0
 10
4.7572513244
 20
4.763565978
 30
0.0
 10
4.7595921667
 20
4.7635660979
 30
0.0
 10
4.7647204798
 20
4.7634486111
 30
0.0
 10
4.7730043521
 20
4.7630357099
 30
0.0
 10
4.782393611
 20
4.76237197
 30
0.0
 10
4.7926437852
 20
4.761477043
 30
0.0
 10
4.8034873065
 20
4.7603712138
 30
0.0
 10
4.814644966
 20
4.759084246
 30
0.0
 10
4.8258329858
 20
4.7576493306
 30
0.0
 10
4.8367693609
 20
4.7561023187
 30
0.0
 10
4.8471807703
 20
4.7544846091
 30
0.0
 10
4.8568087243
 20
4.7528345947
 30
0.0
 10
4.8642245523
 20
4.7514247401
 30
0.0
 10
4.8695844224
 20
4.7503021319
 30
0.0
 10
4.8731207024
 20
4.7495086565
 30
0.0
 10
4.8762990364
 20
4.7487384619
 30
0.0
 10
4.879099178
 20
4.7479968894
 30
0.0
 10
4.8815021512
 20
4.7472886577
 30
0.0
 10
4.8832432335
 20
4.7467035515
 30
0.0
 10
4.8844222645
 20
4.7462485594
 30
0.0
 10
4.8851508844
 20
4.7459368037
 30
0.0
 10
4.88577105
 20
4.7456367411
 30
0.0
 10
4.8862819098
 20
4.745348825
 30
0.0
 10
4.8866833778
 20
4.7450735816
 30
0.0
 10
4.8869756904
 20
4.7448097681
 30
0.0
 10
4.8871616466
 20
4.7445543847
 30
0.0
 10
4.8872112886
 20
4.7443710308
 30
0.0
 10
4.8872109996
 20
4.7442892971
 30
0.0
  0
SPLINE
  5
509
100
AcDbEntity
  8
0
100
AcDbSpline
 62
9
  6
CONTINUOUS
 70
0
 71
3
 72
13
 73
9
 74
0
 42
0.0000001
 43
0.0000001
 44
0.0000000001
 40
0.0
 40
0.0
 40
0.0
 40
0.0
 40
0.2922037569
 40
0.5437675921
 40
0.6527621143
 40
0.7634674658
 40
0.8795815465
 40
1.0
 40
1.0
 40
1.0
 40
1.0
 10
4.7572513357
 20
4.7635658567
 30
0.0
 10
4.7572519487
 20
4.7650888534
 30
0.0
 10
4.7567932826
 20
4.7679465925
 30
0.0
 10
4.7551923029
 20
4.7710176623
 30
0.0
 10
4.753552018
 20
4.7728582457
 30
0.0
 10
4.7521806344
 20
4.7739604536
 30
0.0
 10
4.7505746371
 20
4.7748192361
 30
0.0
 10
4.7493774292
 20
4.7751610341
 30
0.0
 10
4.7487583175
 20
4.7752641109
 30
0.0
  0
SPLINE
  5
50A
100
AcDbEntity
  8
0
100
AcDbSpline
 62
9
  6
CONTINUOUS
 70
0
 71
3
 72
28
 73
24
 74
0
 42
0.0000001
 43
0.0000001
 44
0.0000000001
 40
0.0
 40
0.0
 40
0.0
 40
0.0
 40
0.0845188109
 40
0.1556244808
 40
0.2133168986
 40
0.2577461282
 40
0.2751543303
 40
0.289552422
 40
0.3012475755
 40
0.3108125805
 40
0.3192667269
 40
0.3280277876
 40
0.3383897467
 40
0.3511703978
 40
0.3668139549
 40
0.3855643071
 40
0.4328848085
 40
0.4937900171
 40
0.5685761392
 40
0.6572538495
 40
0.7592231413
 40
0.8737300529
 40
1.0
 40
1.0
 40
1.0
 40
1.0
 10
4.7407850688
 20
4.7707830954
 30
0.0
 10
4.7402266684
 20
4.7709419409
 30
0.0
 10
4.7392023144
 20
4.7712481724
 30
0.0
 10
4.7378150917
 20
4.7717220415
 30
0.0
 10
4.7367119854
 20
4.7721692525
 30
0.0
 10
4.7359773612
 20
4.7725413787
 30
0.0
 10
4.7355429843
 20
4.7728352073
 30
0.0
 10
4.7353157304
 20
4.7730306962
 30
0.0
 10
4.7351586759
 20
4.7732207673
 30
0.0
 10
4.7350723205
 20
4.7734098124
 30
0.0
 10
4.7350667567
 20
4.7735996206
 30
0.0
 10
4.7351466816
 20
4.7737771689
 30
0.0
 10
4.7353001241
 20
4.773937286
 30
0.0
 10
4.7355226878
 20
4.7740860499
 30
0.0
 10
4.7358157769
 20
4.7742259965
 30
0.0
 10
4.736344406
 20
4.7744165309
 30
0.0
 10
4.7371945865
 20
4.7746203027
 30
0.0
 10
4.7384364271
 20
4.7748184322
 30
0.0
 10
4.7399696048
 20
4.7749811049
 30
0.0
 10
4.7417887406
 20
4.7751068821
 30
0.0
 10
4.7438830974
 20
4.7751964944
 30
0.0
 10
4.746236897
 20
4.7752502084
 30
0.0
 10
4.7478908009
 20
4.7752618664
 30
0.0
 10
4.7487581401
 20
4.7752626263
 30
0.0
  0
SPLINE
  5
50B
100
AcDbEntity
  8
0
100
AcDbSpline
 62
9
  6
CONTINUOUS
 70
0
 71
3
 72
30
 73
26
 74
0
 42
0.0000001
 43
0.0000001
 44
0.0000000001
 40
0.0
 40
0.0
 40
0.0
 40
0.0
 40
0.0038929456
 40
0.0067978601
 40
0.0104668457
 40
0.0149361739
 40
0.0202196471
 40
0.0263214314
 40
0.0332406642
 40
0.0495081355
 40
0.0689358648
 40
0.0914096087
 40
0.1167929407
 40
0.1756012455
 40
0.2438517695
 40
0.3197838471
 40
0.4014389579
 40
0.4867150928
 40
0.5734051224
 40
0.6592466963
 40
0.7419775776
 40
0.8193942551
 40
0.8894170078
 40
0.9501597909
 40
1.0
 40
1.0
 40
1.0
 40
1.0
 10
6.2807886463
 20
4.7439975184
 30
0.0
 10
6.2807887579
 20
4.7441714734
 30
0.0
 10
6.2809853519
 20
4.7444520138
 30
0.0
 10
6.2813411462
 20
4.7447425792
 30
0.0
 10
6.2817604583
 20
4.7450100577
 30
0.0
 10
6.2822914262
 20
4.7452876124
 30
0.0
 10
6.2829374846
 20
4.7455798891
 30
0.0
 10
6.2836966378
 20
4.7458845485
 30
0.0
 10
6.2849268637
 20
4.7463317163
 30
0.0
 10
6.2867420196
 20
4.7469094116
 30
0.0
 10
6.2892443847
 20
4.7476135657
 30
0.0
 10
6.2921584095
 20
4.7483549683
 30
0.0
 10
6.2967997421
 20
4.7494402282
 30
0.0
 10
6.3034686733
 20
4.7508325431
 30
0.0
 10
6.3123855617
 20
4.7524976222
 30
0.0
 10
6.3223357781
 20
4.7541827734
 30
0.0
 10
6.3330605359
 20
4.7558435047
 30
0.0
 10
6.3442814286
 20
4.7574355451
 30
0.0
 10
6.3557061364
 20
4.7589167602
 30
0.0
 10
6.3670348111
 20
4.7602478052
 30
0.0
 10
6.3779672449
 20
4.7613931691
 30
0.0
 10
6.3882106477
 20
4.7623221468
 30
0.0
 10
6.3974882853
 20
4.7630106313
 30
0.0
 10
6.4055476217
 20
4.7634408667
 30
0.0
 10
6.4104888164
 20
4.7635658645
 30
0.0
 10
6.4127159099
 20
4.7635658574
 30
0.0
  0
SPLINE
  5
50C
100
AcDbEntity
  8
0
100
AcDbSpline
 62
9
  6
CONTINUOUS
 70
0
 71
3
 72
16
 73
12
 74
0
 42
0.0000001
 43
0.0000001
 44
0.0000000001
 40
0.0
 40
0.0
 40
0.0
 40
0.0
 40
0.029149388
 40
0.0651532976
 40
0.107653667
 40
0.1562796456
 40
0.2698955006
 40
0.4014645847
 40
0.5459049674
 40
0.6976351206
 40
1.0
 40
1.0
 40
1.0
 40
1.0
 10
4.6510645904
 20
4.7635659772
 30
0.0
 10
4.6519495772
 20
4.7635660515
 30
0.0
 10
4.6539275903
 20
4.763519805
 30
0.0
 10
4.657192292
 20
4.7633611647
 30
0.0
 10
4.6610436814
 20
4.7631048982
 30
0.0
 10
4.6672399845
 20
4.7626081816
 30
0.0
 10
4.676119459
 20
4.7617509833
 30
0.0
 10
4.6878768264
 20
4.7604472933
 30
0.0
 10
4.7007670815
 20
4.7588681193
 30
0.0
 10
4.7187811827
 20
4.756478421
 30
0.0
 10
4.732423124
 20
4.7544792064
 30
0.0
 10
4.7414915075
 20
4.7530525762
 30
0.0
  0
SPLINE
  5
50D
100
AcDbEntity
  8
0
100
AcDbSpline
 62
9
  6
CONTINUOUS
 70
0
 71
3
 72
13
 73
9
 74
0
 42
0.0000001
 43
0.0000001
 44
0.0000000001
 40
0.0
 40
0.0
 40
0.0
 40
0.0
 40
0.2791114628
 40
0.5257232784
 40
0.6356771153
 40
0.7496117132
 40
0.8715076395
 40
1.0
 40
1.0
 40
1.0
 40
1.0
 10
4.6510645972
 20
4.7635658567
 30
0.0
 10
4.6510652932
 20
4.765094469
 30
0.0
 10
4.6505292554
 20
4.7680031701
 30
0.0
 10
4.6487070574
 20
4.7710514235
 30
0.0
 10
4.6468686312
 20
4.7728701712
 30
0.0
 10
4.6453157564
 20
4.7739703548
 30
0.0
 10
4.6435007315
 20
4.7748248295
 30
0.0
 10
4.642160125
 20
4.775161573
 30
0.0
 10
4.6414639203
 20
4.7752641121
 30
0.0
  0
LINE
  5
50E
100
AcDbEntity
  8
0
100
AcDbLine
 62
9
  6
CONTINUOUS
 10
4.6428579441
 20
4.7726002225
 11
4.6401663874
 21
4.7732494215
  0
SPLINE
  5
50F
100
AcDbEntity
  8
0
100
AcDbSpline
 62
9
  6
CONTINUOUS
 70
0
 71
3
 72
24
 73
20
 74
0
 42
0.0000001
 43
0.0000001
 44
0.0000000001
 40
0.0
 40
0.0
 40
0.0
 40
0.0
 40
0.1026928028
 40
0.1915704431
 40
0.266566537
 40
0.3276672459
 40
0.374966664
 40
0.408853216
 40
0.4211767878
 40
0.4309410388
 40
0.4390816386
 40
0.4471509228
 40
0.4567598621
 40
0.4689412492
 40
0.502859482
 40
0.5508119608
 40
0.6130304528
 40
0.7795078872
 40
1.0
 40
1.0
 40
1.0
 40
1.0
 10
4.6401663874
 20
4.7732494215
 30
0.0
 10
4.6398788445
 20
4.7733251239
 30
0.0
 10
4.6393436596
 20
4.7734710389
 30
0.0
 10
4.6386040266
 20
4.7736920951
 30
0.0
 10
4.6379863428
 20
4.7738991463
 30
0.0
 10
4.6374907691
 20
4.774091392
 30
0.0
 10
4.6371188637
 20
4.7742684646
 30
0.0
 10
4.6368879424
 20
4.7744142474
 30
0.0
 10
4.6367732374
 20
4.7745298671
 30
0.0
 10
4.6367268393
 20
4.7746055959
 30
0.0
 10
4.6367143647
 20
4.7746825926
 30
0.0
 10
4.6367416216
 20
4.7747553078
 30
0.0
 10
4.6368027004
 20
4.7748185495
 30
0.0
 10
4.6369402356
 20
4.774904443
 30
0.0
 10
4.6372011068
 20
4.774991123
 30
0.0
 10
4.6376098552
 20
4.7750739352
 30
0.0
 10
4.6384053514
 20
4.7751744618
 30
0.0
 10
4.6397048292
 20
4.7752461642
 30
0.0
 10
4.6408253007
 20
4.7752616976
 30
0.0
 10
4.6414637225
 20
4.7752626263
 30
0.0
  0
LINE
  5
510
100
AcDbEntity
  8
0
100
AcDbLine
 62
9
  6
CONTINUOUS
 10
6.422439517
 20
4.7534941061
 11
6.4236776616
 21
4.7536827461
  0
SPLINE
  5
511
100
AcDbEntity
  8
0
100
AcDbSpline
 62
9
  6
CONTINUOUS
 70
0
 71
3
 72
16
 73
12
 74
0
 42
0.0000001
 43
0.0000001
 44
0.0000000001
 40
0.0
 40
0.0
 40
0.0
 40
0.0
 40
0.3163485199
 40
0.4706888952
 40
0.6151937598
 40
0.7447100228
 40
0.8545456421
 40
0.9007832306
 40
0.9406900392
 40
0.9738749474
 40
1.0
 40
1.0
 40
1.0
 40
1.0
 10
6.4236776616
 20
4.7536827461
 30
0.0
 10
6.4324914726
 20
4.7550220679
 30
0.0
 10
6.445621434
 20
4.7569111351
 30
0.0
 10
6.4628089973
 20
4.7591812906
 30
0.0
 10
6.4747899824
 20
4.7606594223
 30
0.0
 10
6.4855392008
 20
4.7618738805
 30
0.0
 10
6.4935479429
 20
4.7626740064
 30
0.0
 10
6.4990515215
 20
4.7631367383
 30
0.0
 10
6.5024060721
 20
4.7633745463
 30
0.0
 10
6.5051983237
 20
4.7635218847
 30
0.0
 10
6.5068696524
 20
4.7635652882
 30
0.0
 10
6.5076058802
 20
4.7635650016
 30
0.0
  0
SPLINE
  5
512
100
AcDbEntity
  8
0
100
AcDbSpline
 62
9
  6
CONTINUOUS
 70
0
 71
3
 72
18
 73
14
 74
0
 42
0.0000001
 43
0.0000001
 44
0.0000000001
 40
0.0
 40
0.0
 40
0.0
 40
0.0
 40
0.0144113819
 40
0.0361157882
 40
0.0650326711
 40
0.1010420441
 40
0.1439835397
 40
0.1936747533
 40
0.3123699361
 40
0.455023204
 40
0.6191315056
 40
0.8018382322
 40
1.0
 40
1.0
 40
1.0
 40
1.0
 10
4.5995564166
 20
4.763565927
 30
0.0
 10
4.5997547702
 20
4.7635659304
 30
0.0
 10
4.6002515824
 20
4.7635403725
 30
0.0
 10
4.6011438373
 20
4.7634705448
 30
0.0
 10
4.6023308324
 20
4.7633564772
 30
0.0
 10
4.6038071523
 20
4.7631994713
 30
0.0
 10
4.6055664187
 20
4.7629993746
 30
0.0
 10
4.6084546545
 20
4.7626553371
 30
0.0
 10
4.6127024154
 20
4.7621221927
 30
0.0
 10
4.6185088913
 20
4.7613632789
 30
0.0
 10
4.6251855929
 20
4.7604647039
 30
0.0
 10
4.6326164509
 20
4.7594420961
 30
0.0
 10
4.6378078774
 20
4.7587145739
 30
0.0
 10
4.6405085216
 20
4.7583332364
 30
0.0
  0
LINE
  5
513
100
AcDbEntity
  8
0
100
AcDbLine
 62
9
  6
CONTINUOUS
 10
4.6405085216
 20
4.7583332364
 11
4.6460431122
 21
4.7575478358
  0
LINE
  5
514
100
AcDbEntity
  8
0
100
AcDbLine
 62
9
  6
CONTINUOUS
 10
4.6460431122
 20
4.7575478358
 11
4.6468187737
 21
4.757437164
  0
LINE
  5
515
100
AcDbEntity
  8
0
100
AcDbLine
 62
9
  6
CONTINUOUS
 10
6.5106355208
 20
4.7585687272
 11
6.5113208482
 21
4.7586678418
  0
SPLINE
  5
516
100
AcDbEntity
  8
0
100
AcDbSpline
 62
9
  6
CONTINUOUS
 70
0
 71
3
 72
20
 73
16
 74
0
 42
0.0000001
 43
0.0000001
 44
0.0000000001
 40
0.0
 40
0.0
 40
0.0
 40
0.0
 40
0.2086890032
 40
0.3986304043
 40
0.5668116599
 40
0.7106175826
 40
0.7725682524
 40
0.8275006162
 40
0.8752320521
 40
0.9155903726
 40
0.9484036421
 40
0.9735005025
 40
0.9907161406
 40
0.9963456758
 40
1.0
 40
1.0
 40
1.0
 40
1.0
 10
6.5113208482
 20
4.7586678418
 30
0.0
 10
6.5137925092
 20
4.7590251881
 30
0.0
 10
6.5185141225
 20
4.7597054778
 30
0.0
 10
6.5252289399
 20
4.7606646538
 30
0.0
 10
6.5311763854
 20
4.7615050631
 30
0.0
 10
6.5356084477
 20
4.7621226185
 30
0.0
 10
6.5386991881
 20
4.7625462609
 30
0.0
 10
6.5406513507
 20
4.7628102008
 30
0.0
 10
6.5423479791
 20
4.763035603
 30
0.0
 10
6.5437828037
 20
4.7632215942
 30
0.0
 10
6.5449496787
 20
4.763367769
 30
0.0
 10
6.5458425005
 20
4.7634728404
 30
0.0
 10
6.5464130701
 20
4.763533947
 30
0.0
 10
6.5467291351
 20
4.7635592302
 30
0.0
 10
6.546840175
 20
4.7635651141
 30
0.0
 10
6.5468839058
 20
4.7635650016
 30
0.0
  0
SPLINE
  5
517
100
AcDbEntity
  8
0
100
AcDbSpline
 62
9
  6
CONTINUOUS
 70
0
 71
3
 72
26
 73
22
 74
0
 42
0.0000001
 43
0.0000001
 44
0.0000000001
 40
0.0
 40
0.0
 40
0.0
 40
0.0
 40
0.1108302549
 40
0.2074622688
 40
0.2900633467
 40
0.3589734935
 40
0.4146545305
 40
0.4578291464
 40
0.4751327536
 40
0.4899030287
 40
0.5136581109
 40
0.5245627195
 40
0.5361889994
 40
0.5494815992
 40
0.5650968643
 40
0.6047670424
 40
0.6570944914
 40
0.7226799364
 40
0.8016980148
 40
0.8941605261
 40
1.0
 40
1.0
 40
1.0
 40
1.0
 10
4.8942276015
 20
4.7544953731
 30
0.0
 10
4.8946733044
 20
4.7545253981
 30
0.0
 10
4.8955070691
 20
4.7545905725
 30
0.0
 10
4.8966695493
 20
4.7547173583
 30
0.0
 10
4.8976590066
 20
4.7548653951
 30
0.0
 10
4.8984777327
 20
4.7550333797
 30
0.0
 10
4.8991281719
 20
4.7552206565
 30
0.0
 10
4.8995621323
 20
4.7554022576
 30
0.0
 10
4.8998196361
 20
4.7555647815
 30
0.0
 10
4.899990895
 20
4.7557102281
 30
0.0
 10
4.9001054468
 20
4.7558875671
 30
0.0
 10
4.9001155331
 20
4.7560775789
 30
0.0
 10
4.9000766414
 20
4.7562187035
 30
0.0
 10
4.899994293
 20
4.7563612979
 30
0.0
 10
4.8998133892
 20
4.7565717477
 30
0.0
 10
4.8994661328
 20
4.7568374482
 30
0.0
 10
4.898913261
 20
4.7571512001
 30
0.0
 10
4.8981909452
 20
4.7574823475
 30
0.0
 10
4.8973005477
 20
4.7578298397
 30
0.0
 10
4.8962430355
 20
4.7581926767
 30
0.0
 10
4.8954791597
 20
4.7584282872
 30
0.0
 10
4.8950700912
 20
4.7585493169
 30
0.0
  0
SPLINE
  5
518
100
AcDbEntity
  8
0
100
AcDbSpline
 62
9
  6
CONTINUOUS
 70
0
 71
3
 72
21
 73
17
 74
0
 42
0.0000001
 43
0.0000001
 44
0.0000000001
 40
0.0
 40
0.0
 40
0.0
 40
0.0
 40
0.0151305091
 40
0.0326420717
 40
0.0744104341
 40
0.1245124671
 40
0.1821579253
 40
0.2463192481
 40
0.3157617359
 40
0.4652712317
 40
0.6197417612
 40
0.7676033535
 40
0.83558062
 40
0.8977494735
 40
0.9527813118
 40
1.0
 40
1.0
 40
1.0
 40
1.0
 10
4.8950700912
 20
4.7585493169
 30
0.0
 10
4.8943568188
 20
4.7587603503
 30
0.0
 10
4.8928090234
 20
4.7591852376
 30
0.0
 10
4.8892570656
 20
4.760061167
 30
0.0
 10
4.8839980394
 20
4.7611883889
 30
0.0
 10
4.8767744123
 20
4.762549931
 30
0.0
 10
4.8684404198
 20
4.7639556828
 30
0.0
 10
4.8591466477
 20
4.765380459
 30
0.0
 10
4.8453635555
 20
4.7673173538
 30
0.0
 10
4.8271432487
 20
4.7695726141
 30
0.0
 10
4.805050175
 20
4.771889991
 30
0.0
 10
4.7869101147
 20
4.7734430829
 30
0.0
 10
4.7732742849
 20
4.7743733278
 30
0.0
 10
4.7641839697
 20
4.7748719288
 30
0.0
 10
4.7561061432
 20
4.7751748544
 30
0.0
 10
4.7510794707
 20
4.775258054
 30
0.0
 10
4.7487581401
 20
4.7752626263
 30
0.0
  0
LINE
  5
519
100
AcDbEntity
  8
0
100
AcDbLine
 62
9
  6
CONTINUOUS
 10
6.5552738782
 20
4.7749178103
 11
6.5568762933
 21
4.7751834408
  0
LINE
  5
51A
100
AcDbEntity
  8
0
100
AcDbLine
 62
9
  6
CONTINUOUS
 10
6.5568762933
 20
4.7751834408
 11
6.5571227207
 21
4.7752492643
  0
SPLINE
  5
51B
100
AcDbEntity
  8
0
100
AcDbSpline
 62
9
  6
CONTINUOUS
 70
0
 71
3
 72
9
 73
5
 74
0
 42
0.0000001
 43
0.0000001
 44
0.0000000001
 40
0.0
 40
0.0
 40
0.0
 40
0.0
 40
0.2082936304
 40
1.0
 40
1.0
 40
1.0
 40
1.0
 10
6.5571000253
 20
4.7752603093
 30
0.0
 10
6.5570975845
 20
4.7752606061
 30
0.0
 10
6.5570858393
 20
4.7752618067
 30
0.0
 10
6.5570740365
 20
4.7752623433
 30
0.0
 10
6.5570646952
 20
4.7752626263
 30
0.0
  0
SPLINE
  5
51C
100
AcDbEntity
  8
0
100
AcDbSpline
 62
9
  6
CONTINUOUS
 70
0
 71
3
 72
31
 73
27
 74
0
 42
0.0000001
 43
0.0000001
 44
0.0000000001
 40
0.0
 40
0.0
 40
0.0
 40
0.0
 40
0.0251043365
 40
0.0472805219
 40
0.0665320932
 40
0.0828951429
 40
0.0964681971
 40
0.1074869655
 40
0.116431208
 40
0.1241942637
 40
0.1320991443
 40
0.1414184273
 40
0.152949822
 40
0.1671021725
 40
0.1840802413
 40
0.2039876553
 40
0.2268575116
 40
0.2526740656
 40
0.3129939399
 40
0.3845323005
 40
0.4665650929
 40
0.5582524723
 40
0.6586177572
 40
0.7665818221
 40
0.8808915455
 40
1.0
 40
1.0
 40
1.0
 40
1.0
 10
5.8884484753
 20
4.7632149466
 30
0.0
 10
5.8890142088
 20
4.7633898535
 30
0.0
 10
5.8900742961
 20
4.7637373328
 30
0.0
 10
5.8915427491
 20
4.7642927539
 30
0.0
 10
5.8927885624
 20
4.7648485332
 30
0.0
 10
5.8938094342
 20
4.7654031046
 30
0.0
 10
5.8946047478
 20
4.7659564908
 30
0.0
 10
5.8951754437
 20
4.7665111737
 30
0.0
 10
5.8955224742
 20
4.767078473
 30
0.0
 10
5.8956158286
 20
4.7676710118
 30
0.0
 10
5.8954278693
 20
4.7682489747
 30
0.0
 10
5.8949956929
 20
4.7687837985
 30
0.0
 10
5.8943416814
 20
4.7692946287
 30
0.0
 10
5.8934629174
 20
4.7697900908
 30
0.0
 10
5.8923581103
 20
4.770271877
 30
0.0
 10
5.8910272224
 20
4.7707388397
 30
0.0
 10
5.889472728
 20
4.7711898199
 30
0.0
 10
5.8869743651
 20
4.7718000556
 30
0.0
 10
5.8833176511
 20
4.7724914741
 30
0.0
 10
5.8783217137
 20
4.7732022015
 30
0.0
 10
5.8725688843
 20
4.7738211946
 30
0.0
 10
5.8661239742
 20
4.7743388838
 30
0.0
 10
5.8590586351
 20
4.7747486326
 30
0.0
 10
5.8514536877
 20
4.7750451469
 30
0.0
 10
5.8434029147
 20
4.7752239567
 30
0.0
 10
5.8378970117
 20
4.7752627671
 30
0.0
 10
5.835087513
 20
4.7752626263
 30
0.0
  0
SPLINE
  5
51D
100
AcDbEntity
  8
0
100
AcDbSpline
 62
9
  6
CONTINUOUS
 70
0
 71
3
 72
35
 73
31
 74
0
 42
0.0000001
 43
0.0000001
 44
0.0000000001
 40
0.0
 40
0.0
 40
0.0
 40
0.0
 40
0.0194360689
 40
0.0357837547
 40
0.0491226543
 40
0.0596264903
 40
0.0639332479
 40
0.0677130683
 40
0.0711002281
 40
0.0742836744
 40
0.0774931122
 40
0.0809572948
 40
0.084862045
 40
0.0893339032
 40
0.1002590002
 40
0.114095313
 40
0.1309686999
 40
0.1508989057
 40
0.1738487943
 40
0.1997586927
 40
0.2285491086
 40
0.26010692
 40
0.3310227782
 40
0.4113536334
 40
0.4996481545
 40
0.5942896934
 40
0.6935135396
 40
0.7954914549
 40
0.898336075
 40
1.0
 40
1.0
 40
1.0
 40
1.0
 10
5.4514854546
 20
4.7585989609
 30
0.0
 10
5.4521803142
 20
4.7587788301
 30
0.0
 10
5.4534523249
 20
4.7591396532
 30
0.0
 10
5.4551623764
 20
4.759751789
 30
0.0
 10
5.4565073446
 20
4.7603843616
 30
0.0
 10
5.4573814605
 20
4.7609616524
 30
0.0
 10
5.4578711168
 20
4.7614462555
 30
0.0
 10
5.4581197831
 20
4.7617924701
 30
0.0
 10
5.4582722603
 20
4.762147053
 30
0.0
 10
5.4583232873
 20
4.762509401
 30
0.0
 10
5.4582695845
 20
4.7628741721
 30
0.0
 10
5.4581135506
 20
4.7632362408
 30
0.0
 10
5.4578595553
 20
4.7635951207
 30
0.0
 10
5.4573593476
 20
4.7641060104
 30
0.0
 10
5.45646902
 20
4.7647294713
 30
0.0
 10
5.4551007516
 20
4.7654349291
 30
0.0
 10
5.4533662715
 20
4.7661396433
 30
0.0
 10
5.4512728689
 20
4.7668403587
 30
0.0
 10
5.4488281846
 20
4.7675337412
 30
0.0
 10
5.4460424427
 20
4.7682159286
 30
0.0
 10
5.4429272798
 20
4.7688832388
 30
0.0
 10
5.4381639177
 20
4.7697844872
 30
0.0
 10
5.4314931538
 20
4.7708318051
 30
0.0
 10
5.4227155949
 20
4.7719386839
 30
0.0
 10
5.4130417113
 20
4.7729163344
 30
0.0
 10
5.4026540915
 20
4.7737454506
 30
0.0
 10
5.3917485609
 20
4.7744122072
 30
0.0
 10
5.3805303133
 20
4.7749001347
 30
0.0
 10
5.369215108
 20
4.7751896269
 30
0.0
 10
5.3616626653
 20
4.7752583382
 30
0.0
 10
5.3579082801
 20
4.7752626263
 30
0.0
  0
SPLINE
  5
51E
100
AcDbEntity
  8
0
100
AcDbSpline
 62
9
  6
CONTINUOUS
 70
0
 71
3
 72
24
 73
20
 74
0
 42
0.0000001
 43
0.0000001
 44
0.0000000001
 40
0.0
 40
0.0
 40
0.0
 40
0.0
 40
0.0649281628
 40
0.1172146142
 40
0.1568379827
 40
0.1839506243
 40
0.1930557001
 40
0.1995956238
 40
0.2045729416
 40
0.2099828539
 40
0.2175067039
 40
0.2278583427
 40
0.2580142639
 40
0.3014724421
 40
0.3586161494
 40
0.429690799
 40
0.5148917227
 40
0.7283484305
 40
1.0
 40
1.0
 40
1.0
 40
1.0
 10
4.5894178309
 20
4.7752626263
 30
0.0
 10
4.5893788855
 20
4.7752621861
 30
0.0
 10
4.5893085984
 20
4.7752606258
 30
0.0
 10
4.5892145739
 20
4.775255387
 30
0.0
 10
4.5891437218
 20
4.7752473102
 30
0.0
 10
4.5890987817
 20
4.7752381304
 30
0.0
 10
4.5890752512
 20
4.7752278328
 30
0.0
 10
4.5890650604
 20
4.7752202945
 30
0.0
 10
4.589061082
 20
4.775210071
 30
0.0
 10
4.5890655587
 20
4.7751995116
 30
0.0
 10
4.5890755754
 20
4.7751896862
 30
0.0
 10
4.5890995248
 20
4.7751734553
 30
0.0
 10
4.5891456652
 20
4.7751527233
 30
0.0
 10
4.5892195036
 20
4.7751263138
 30
0.0
 10
4.5893181951
 20
4.7750967064
 30
0.0
 10
4.5894419017
 20
4.7750637375
 30
0.0
 10
4.5896574486
 20
4.7750114161
 30
0.0
 10
4.5899918436
 20
4.7749390081
 30
0.0
 10
4.5902773204
 20
4.7748825515
 30
0.0
 10
4.5904373485
 20
4.774851814
 30
0.0
  0
LINE
  5
51F
100
AcDbEntity
  8
0
100
AcDbLine
 62
9
  6
CONTINUOUS
 10
6.5132676962
 20
4.7700790339
 11
6.5180441374
 21
4.7706709913
  0
LINE
  5
520
100
AcDbEntity
  8
0
100
AcDbLine
 62
9
  6
CONTINUOUS
 10
6.5457340937
 20
4.7740337434
 11
6.5570646952
 21
4.7752626263
  0
LINE
  5
521
100
AcDbEntity
  8
0
100
AcDbLine
 62
9
  6
CONTINUOUS
 10
4.6450427217
 20
4.7690731875
 11
4.640037044
 21
4.7696841395
  0
LINE
  5
522
100
AcDbEntity
  8
0
100
AcDbLine
 62
9
  6
CONTINUOUS
 10
4.640037044
 20
4.7696841395
 11
4.6010476795
 21
4.7742123044
  0
LINE
  5
523
100
AcDbEntity
  8
0
100
AcDbLine
 62
9
  6
CONTINUOUS
 10
4.6010476795
 20
4.7742123044
 11
4.5894178309
 21
4.7752626263
  0
SPLINE
  5
524
100
AcDbEntity
  8
0
100
AcDbSpline
 62
9
  6
CONTINUOUS
 70
0
 71
3
 72
17
 73
13
 74
0
 42
0.0000001
 43
0.0000001
 44
0.0000000001
 40
0.0
 40
0.0
 40
0.0
 40
0.0
 40
0.2243992094
 40
0.4195580169
 40
0.5854234659
 40
0.7220527813
 40
0.8297160433
 40
0.8729228416
 40
0.9092960993
 40
0.9392200332
 40
0.9633886861
 40
1.0
 40
1.0
 40
1.0
 40
1.0
 10
6.5076106839
 20
4.7635657612
 30
0.0
 10
6.5078374348
 20
4.7635657646
 30
0.0
 10
6.5082614125
 20
4.7635621038
 30
0.0
 10
6.5088527178
 20
4.7635428462
 30
0.0
 10
6.5093546903
 20
4.7635105026
 30
0.0
 10
6.5097667772
 20
4.7634651416
 30
0.0
 10
6.5100532988
 20
4.7634142989
 30
0.0
 10
6.5102358481
 20
4.7633639067
 30
0.0
 10
6.510339883
 20
4.7633258899
 30
0.0
 10
6.5104216754
 20
4.7632839102
 30
0.0
 10
6.5104954083
 20
4.7632299498
 30
0.0
 10
6.5105287262
 20
4.7631695406
 30
0.0
 10
6.5105288188
 20
4.7631325457
 30
0.0
  0
SPLINE
  5
525
100
AcDbEntity
  8
0
100
AcDbSpline
 62
9
  6
CONTINUOUS
 70
0
 71
3
 72
26
 73
22
 74
0
 42
0.0000001
 43
0.0000001
 44
0.0000000001
 40
0.0
 40
0.0
 40
0.0
 40
0.0
 40
0.1173262232
 40
0.2192457487
 40
0.3056693701
 40
0.3765450493
 40
0.4319006185
 40
0.4538261008
 40
0.4719985288
 40
0.4865625813
 40
0.4978358952
 40
0.5065401411
 40
0.5140623953
 40
0.5323724589
 40
0.5617092272
 40
0.6037593896
 40
0.6585613703
 40
0.7257445116
 40
0.8048832813
 40
0.8961502418
 40
1.0
 40
1.0
 40
1.0
 40
1.0
 10
6.5173767202
 20
4.7752626263
 30
0.0
 10
6.517646072
 20
4.7752647376
 30
0.0
 10
6.518149453
 20
4.7752650508
 30
0.0
 10
6.5188511334
 20
4.7752515373
 30
0.0
 10
6.5194457535
 20
4.7752243403
 30
0.0
 10
6.519932359
 20
4.7751835791
 30
0.0
 10
6.520269625
 20
4.7751363173
 30
0.0
 10
6.5204836267
 20
4.7750884586
 30
0.0
 10
6.5206038776
 20
4.7750520956
 30
0.0
 10
6.5206971903
 20
4.7750124352
 30
0.0
 10
6.5207640838
 20
4.7749689739
 30
0.0
 10
6.5208061596
 20
4.7749195183
 30
0.0
 10
6.5208214875
 20
4.7748374064
 30
0.0
 10
6.520739741
 20
4.7747243459
 30
0.0
 10
6.5205719458
 20
4.7746099577
 30
0.0
 10
6.5203121965
 20
4.7744769235
 30
0.0
 10
6.5199638783
 20
4.774334754
 30
0.0
 10
6.5195283205
 20
4.7741804808
 30
0.0
 10
6.5190082439
 20
4.7740159987
 30
0.0
 10
6.518403184
 20
4.7738415079
 30
0.0
 10
6.5179702847
 20
4.7737262628
 30
0.0
 10
6.5177394165
 20
4.7736667295
 30
0.0
  0
SPLINE
  5
526
100
AcDbEntity
  8
0
100
AcDbSpline
 62
9
  6
CONTINUOUS
 70
0
 71
3
 72
13
 73
9
 74
0
 42
0.0000001
 43
0.0000001
 44
0.0000000001
 40
0.0
 40
0.0
 40
0.0
 40
0.0
 40
0.2772334368
 40
0.5231622427
 40
0.6332658192
 40
0.7476690284
 40
0.870382421
 40
1.0
 40
1.0
 40
1.0
 40
1.0
 10
6.5076106838
 20
4.7635657612
 30
0.0
 10
6.5076099778
 20
4.7650952708
 30
0.0
 10
6.5081581036
 20
4.7680118796
 30
0.0
 10
6.5100131678
 20
4.7710561415
 30
0.0
 10
6.5118807896
 20
4.772871683
 30
0.0
 10
6.513460656
 20
4.7739715201
 30
0.0
 10
6.51530677
 20
4.774825374
 30
0.0
 10
6.5166688237
 20
4.7751614515
 30
0.0
 10
6.5173765533
 20
4.7752638999
 30
0.0
  0
SPLINE
  5
527
100
AcDbEntity
  8
0
100
AcDbSpline
 62
9
  6
CONTINUOUS
 70
0
 71
3
 72
13
 73
9
 74
0
 42
0.0000001
 43
0.0000001
 44
0.0000000001
 40
0.0
 40
0.0
 40
0.0
 40
0.0
 40
0.2937849657
 40
0.5732722404
 40
0.7002907037
 40
0.8153179242
 40
0.9160300785
 40
1.0
 40
1.0
 40
1.0
 40
1.0
 10
6.4285758277
 20
4.7665440955
 30
0.0
 10
6.4364714906
 20
4.7675399542
 30
0.0
 10
6.4518883661
 20
4.769406085
 30
0.0
 10
6.4707433224
 20
4.7714951546
 30
0.0
 10
6.4847995789
 20
4.7729140026
 30
0.0
 10
6.494044232
 20
4.7737780309
 30
0.0
 10
6.5021344106
 20
4.774459118
 30
0.0
 10
6.5071246535
 20
4.7748169648
 30
0.0
 10
6.5093951331
 20
4.7749542437
 30
0.0
  0
LINE
  5
528
100
AcDbEntity
  8
0
100
AcDbLine
 62
9
  6
CONTINUOUS
 10
6.5093951331
 20
4.7749542437
 11
6.5173767202
 21
4.7752626263
  0
LINE
  5
529
100
AcDbEntity
  8
0
100
AcDbLine
 62
9
  6
CONTINUOUS
 10
4.7406796797
 20
4.7655788296
 11
4.739629337
 21
4.7657163323
  0
SPLINE
  5
52A
100
AcDbEntity
  8
0
100
AcDbSpline
 62
9
  6
CONTINUOUS
 70
0
 71
3
 72
13
 73
9
 74
0
 42
0.0000001
 43
0.0000001
 44
0.0000000001
 40
0.0
 40
0.0
 40
0.0
 40
0.0
 40
0.2820485561
 40
0.5593768917
 40
0.688180426
 40
0.8063325132
 40
0.9111871289
 40
1.0
 40
1.0
 40
1.0
 40
1.0
 10
4.739629337
 20
4.7657163323
 30
0.0
 10
4.7313219472
 20
4.7668014048
 30
0.0
 10
4.7148316383
 20
4.7688428282
 30
0.0
 10
4.6945151534
 20
4.7711074176
 30
0.0
 10
4.6790195744
 20
4.7726627437
 30
0.0
 10
4.6686131149
 20
4.7736191165
 30
0.0
 10
4.6593815457
 20
4.7743743209
 30
0.0
 10
4.6536419998
 20
4.7747680197
 30
0.0
 10
4.6510082123
 20
4.7749186663
 30
0.0
  0
LINE
  5
52B
100
AcDbEntity
  8
0
100
AcDbLine
 62
9
  6
CONTINUOUS
 10
4.6510082123
 20
4.7749186663
 11
4.6414637225
 21
4.7752626263
  0
SPLINE
  5
52C
100
AcDbEntity
  8
0
100
AcDbSpline
 62
9
  6
CONTINUOUS
 70
0
 71
3
 72
35
 73
31
 74
0
 42
0.0000001
 43
0.0000001
 44
0.0000000001
 40
0.0
 40
0.0
 40
0.0
 40
0.0
 40
0.2163991526
 40
0.3209728346
 40
0.4209302247
 40
0.5148015121
 40
0.6012019325
 40
0.6788422886
 40
0.7466557883
 40
0.7765796209
 40
0.8037305548
 40
0.8280391628
 40
0.8494466703
 40
0.8679235659
 40
0.8834987335
 40
0.8962626834
 40
0.9064261249
 40
0.9106788934
 40
0.9145029703
 40
0.9180427509
 40
0.921478532
 40
0.925006473
 40
0.9288083945
 40
0.9330307872
 40
0.937781335
 40
0.9431348896
 40
0.9491397419
 40
0.9632120887
 40
0.980147752
 40
1.0
 40
1.0
 40
1.0
 40
1.0
 10
5.5972650173
 20
4.7752626264
 30
0.0
 10
5.5904656014
 20
4.7752616529
 30
0.0
 10
5.5803793153
 20
4.775106243
 30
0.0
 10
5.5671636388
 20
4.7745740548
 30
0.0
 10
5.5578027886
 20
4.7740309222
 30
0.0
 10
5.5490236874
 20
4.7733481687
 30
0.0
 10
5.5409595605
 20
4.7725388229
 30
0.0
 10
5.5337324376
 20
4.771614699
 30
0.0
 10
5.5282913762
 20
4.7707319916
 30
0.0
 10
5.5244427424
 20
4.7699641357
 30
0.0
 10
5.521949648
 20
4.7693936566
 30
0.0
 10
5.5197360034
 20
4.768806981
 30
0.0
 10
5.5178096119
 20
4.7682064301
 30
0.0
 10
5.5161769535
 20
4.7675942153
 30
0.0
 10
5.5148410798
 20
4.7669728529
 30
0.0
 10
5.5138042997
 20
4.7663447692
 30
0.0
 10
5.5131506132
 20
4.7657823976
 30
0.0
 10
5.5128057824
 20
4.7653216513
 30
0.0
 10
5.5126412418
 20
4.7649932057
 30
0.0
 10
5.5125570754
 20
4.7646613297
 30
0.0
 10
5.5125557072
 20
4.7643279127
 30
0.0
 10
5.5126371781
 20
4.7639964256
 30
0.0
 10
5.5127991697
 20
4.7636689327
 30
0.0
 10
5.5130395136
 20
4.7633453322
 30
0.0
 10
5.5133573083
 20
4.7630248607
 30
0.0
 10
5.5137522423
 20
4.7627069692
 30
0.0
 10
5.514417198
 20
4.7622624491
 30
0.0
 10
5.5154512448
 20
4.7617236597
 30
0.0
 10
5.516930857
 20
4.7611167547
 30
0.0
 10
5.5180276936
 20
4.7607494332
 30
0.0
 10
5.5186235799
 20
4.760565013
 30
0.0
  0
LINE
  5
52D
100
AcDbEntity
  8
0
100
AcDbLine
 62
9
  6
CONTINUOUS
 10
5.5186235799
 20
4.760565013
 11
5.5207918629
 21
4.7599523972
  0
SPLINE
  5
52E
100
AcDbEntity
  8
0
100
AcDbSpline
 62
9
  6
CONTINUOUS
 70
0
 71
3
 72
31
 73
27
 74
0
 42
0.0000001
 43
0.0000001
 44
0.0000000001
 40
0.0
 40
0.0
 40
0.0
 40
0.0
 40
0.0220158798
 40
0.0411027714
 40
0.0572537421
 40
0.07052027
 40
0.0810916525
 40
0.0894584862
 40
0.0931193026
 40
0.0966460983
 40
0.1002364413
 40
0.1040779308
 40
0.1083240842
 40
0.113086904
 40
0.1244356719
 40
0.1385092751
 40
0.1554747
 40
0.1753991156
 40
0.1982812584
 40
0.2527782565
 40
0.3185033252
 40
0.3946033713
 40
0.4800505882
 40
0.5735669377
 40
0.7793798431
 40
1.0
 40
1.0
 40
1.0
 40
1.0
 10
5.6705023462
 20
4.7607517385
 30
0.0
 10
5.6711439038
 20
4.7609372093
 30
0.0
 10
5.6723351519
 20
4.7613070603
 30
0.0
 10
5.6739642859
 20
4.7619121317
 30
0.0
 10
5.67530357
 20
4.7625254659
 30
0.0
 10
5.6763495485
 20
4.7631469451
 30
0.0
 10
5.6771023931
 20
4.7637777259
 30
0.0
 10
5.6775026987
 20
4.7643532523
 30
0.0
 10
5.6776348605
 20
4.7648104791
 30
0.0
 10
5.6776485451
 20
4.7651404133
 30
0.0
 10
5.6775807716
 20
4.7654690087
 30
0.0
 10
5.6774335054
 20
4.7657938672
 30
0.0
 10
5.6772092437
 20
4.7661148394
 30
0.0
 10
5.6767840302
 20
4.7665650064
 30
0.0
 10
5.6760422078
 20
4.7671120527
 30
0.0
 10
5.674909412
 20
4.7677245403
 30
0.0
 10
5.6734839479
 20
4.7683276166
 30
0.0
 10
5.6717690058
 20
4.768919032
 30
0.0
 10
5.6689321791
 20
4.7697376986
 30
0.0
 10
5.664692024
 20
4.770683876
 30
0.0
 10
5.6588202593
 20
4.7716857857
 30
0.0
 10
5.651984618
 20
4.772591718
 30
0.0
 10
5.644287442
 20
4.773384833
 30
0.0
 10
5.632651337
 20
4.7743075868
 30
0.0
 10
5.6168935357
 20
4.7750688405
 30
0.0
 10
5.6039572974
 20
4.7752551082
 30
0.0
 10
5.5972650173
 20
4.7752626264
 30
0.0
  0
SPLINE
  5
52F
100
AcDbEntity
  8
0
100
AcDbSpline
 62
9
  6
CONTINUOUS
 70
0
 71
3
 72
19
 73
15
 74
0
 42
0.0000001
 43
0.0000001
 44
0.0000000001
 40
0.0
 40
0.0
 40
0.0
 40
0.0
 40
0.2217949457
 40
0.4159815496
 40
0.5820335841
 40
0.7195215003
 40
0.7774814993
 40
0.8282496738
 40
0.8718888456
 40
0.9085947542
 40
0.9387389611
 40
0.9629930767
 40
0.9826377304
 40
1.0
 40
1.0
 40
1.0
 40
1.0
 10
6.4127162574
 20
4.763565977
 30
0.0
 10
6.4134691392
 20
4.7635660185
 30
0.0
 10
6.414881247
 20
4.7635532175
 30
0.0
 10
6.4168561285
 20
4.7634871574
 30
0.0
 10
6.4185423166
 20
4.7633763272
 30
0.0
 10
6.4197628148
 20
4.7632419145
 30
0.0
 10
6.4205876397
 20
4.7631057515
 30
0.0
 10
6.4210938713
 20
4.7629986738
 30
0.0
 10
6.4215234276
 20
4.7628808998
 30
0.0
 10
6.4218764393
 20
4.7627525914
 30
0.0
 10
6.4221538525
 20
4.7626136709
 30
0.0
 10
6.4223571948
 20
4.7624628963
 30
0.0
 10
6.4224871503
 20
4.7622953426
 30
0.0
 10
6.422517554
 20
4.7621683856
 30
0.0
 10
6.4225176859
 20
4.7621094496
 30
0.0
  0
SPLINE
  5
530
100
AcDbEntity
  8
0
100
AcDbSpline
 62
9
  6
CONTINUOUS
 70
0
 71
3
 72
13
 73
9
 74
0
 42
0.0000001
 43
0.0000001
 44
0.0000000001
 40
0.0
 40
0.0
 40
0.0
 40
0.0
 40
0.2887839439
 40
0.5390200849
 40
0.6482498958
 40
0.7597934563
 40
0.8774324775
 40
1.0
 40
1.0
 40
1.0
 40
1.0
 10
6.4127162603
 20
4.7635658566
 30
0.0
 10
6.4127156249
 20
4.7650902227
 30
0.0
 10
6.4131934266
 20
4.767960583
 30
0.0
 10
6.4148509098
 20
4.7710264942
 30
0.0
 10
6.4165421387
 20
4.7728614679
 30
0.0
 10
6.4179599169
 20
4.7739632117
 30
0.0
 10
6.4196193618
 20
4.7748208423
 30
0.0
 10
6.4208530886
 20
4.7751611911
 30
0.0
 10
6.4214918311
 20
4.7752641122
 30
0.0
  0
LINE
  5
531
100
AcDbEntity
  8
0
100
AcDbLine
 62
7
  6
CONTINUOUS
 10
3.9212205311
 20
4.8704860053
 11
3.9213071222
 21
4.8491119171
  0
SPLINE
  5
532
100
AcDbEntity
  8
0
100
AcDbSpline
 62
7
  6
CONTINUOUS
 70
0
 71
3
 72
11
 73
7
 74
0
 42
0.0000001
 43
0.0000001
 44
0.0000000001
 40
0.0
 40
0.0
 40
0.0
 40
0.0
 40
0.2519148709
 40
0.502224629
 40
0.7514269423
 40
1.0
 40
1.0
 40
1.0
 40
1.0
 10
3.774958366
 20
4.6542922036
 30
0.0
 10
3.7888885612
 20
4.6475753677
 30
0.0
 10
3.8174118978
 20
4.6356794482
 30
0.0
 10
3.8617855565
 20
4.6227331813
 30
0.0
 10
3.9071340328
 20
4.6149015989
 30
0.0
 10
3.9377207505
 20
4.6131533256
 30
0.0
 10
3.9529805971
 20
4.6131548885
 30
0.0
  0
SPLINE
  5
533
100
AcDbEntity
  8
0
100
AcDbSpline
 62
7
  6
CONTINUOUS
 70
0
 71
3
 72
17
 73
13
 74
0
 42
0.0000001
 43
0.0000001
 44
0.0000000001
 40
0.0
 40
0.0
 40
0.0
 40
0.0
 40
0.1295673961
 40
0.2575659547
 40
0.3840706142
 40
0.4468167567
 40
0.5092308834
 40
0.633096455
 40
0.755966881
 40
0.8171583919
 40
0.8782232199
 40
1.0
 40
1.0
 40
1.0
 40
1.0
 10
4.3232157991
 20
4.8154466649
 30
0.0
 10
4.3128188377
 20
4.8000158733
 30
0.0
 10
4.2904553855
 20
4.7704407944
 30
0.0
 10
4.2523755126
 20
4.7303867153
 30
0.0
 10
4.2172753987
 20
4.7011591484
 30
0.0
 10
4.1875201649
 20
4.6806126544
 30
0.0
 10
4.1568938331
 20
4.6621117196
 30
0.0
 10
4.1168350548
 20
4.6426921242
 30
0.0
 10
4.074804624
 20
4.6285425667
 30
0.0
 10
4.0404929348
 20
4.6205762292
 30
0.0
 10
4.0058965087
 20
4.6148817795
 30
0.0
 10
3.9795978699
 20
4.61315354
 30
0.0
 10
3.9621100313
 20
4.6131549439
 30
0.0
  0
SPLINE
  5
534
100
AcDbEntity
  8
0
100
AcDbSpline
 62
9
  6
CONTINUOUS
 70
0
 71
3
 72
23
 73
19
 74
0
 42
0.0000001
 43
0.0000001
 44
0.0000000001
 40
0.0
 40
0.0
 40
0.0
 40
0.0
 40
0.0592867691
 40
0.1200497502
 40
0.1821463985
 40
0.2455126867
 40
0.3100060114
 40
0.3753219279
 40
0.4410880736
 40
0.5069039423
 40
0.5723650514
 40
0.6370982605
 40
0.700785853
 40
0.7631978061
 40
0.8242147128
 40
0.8839152819
 40
0.9424777003
 40
1.0
 40
1.0
 40
1.0
 40
1.0
 10
3.7584695087
 20
4.7201083269
 30
0.0
 10
3.7555042155
 20
4.7216775023
 30
0.0
 10
3.7497694704
 20
4.7253892682
 30
0.0
 10
3.7421080572
 20
4.7323468154
 30
0.0
 10
3.7354956945
 20
4.7406067418
 30
0.0
 10
3.7300869254
 20
4.7499407583
 30
0.0
 10
3.7260191127
 20
4.7601266933
 30
0.0
 10
3.723371921
 20
4.7709091153
 30
0.0
 10
3.7222305685
 20
4.7820274974
 30
0.0
 10
3.7226025618
 20
4.793206153
 30
0.0
 10
3.7244967433
 20
4.8041706776
 30
0.0
 10
3.7278504542
 20
4.8146552551
 30
0.0
 10
3.732602731
 20
4.8243947714
 30
0.0
 10
3.7386190526
 20
4.8331574178
 30
0.0
 10
3.7457716475
 20
4.8407160878
 30
0.0
 10
3.7538819603
 20
4.8468903496
 30
0.0
 10
3.7627506871
 20
4.8514986296
 30
0.0
 10
3.7690567502
 20
4.8534805536
 30
0.0
 10
3.7722385465
 20
4.8541671878
 30
0.0
  0
SPLINE
  5
535
100
AcDbEntity
  8
0
100
AcDbSpline
 62
9
  6
CONTINUOUS
 70
0
 71
3
 72
11
 73
7
 74
0
 42
0.0000001
 43
0.0000001
 44
0.0000000001
 40
0.0
 40
0.0
 40
0.0
 40
0.0
 40
0.2498664488
 40
0.4992234679
 40
0.7489731127
 40
1.0
 40
1.0
 40
1.0
 40
1.0
 10
3.7722385465
 20
4.8541671878
 30
0.0
 10
3.784497878
 20
4.8568131117
 30
0.0
 10
3.8093424072
 20
4.8606040457
 30
0.0
 10
3.8470138398
 20
4.8616572883
 30
0.0
 10
3.8845847227
 20
4.8580453722
 30
0.0
 10
3.9091939211
 20
4.8525798954
 30
0.0
 10
3.9213071222
 20
4.8491119171
 30
0.0
  0
SPLINE
  5
536
100
AcDbEntity
  8
0
100
AcDbSpline
 62
9
  6
CONTINUOUS
 70
0
 71
3
 72
17
 73
13
 74
0
 42
0.0000001
 43
0.0000001
 44
0.0000000001
 40
0.0
 40
0.0
 40
0.0
 40
0.0
 40
0.1315774512
 40
0.2609880766
 40
0.3882697624
 40
0.4511659546
 40
0.5135727015
 40
0.6369805223
 40
0.7588776753
 40
0.8194387974
 40
0.8798023257
 40
1.0
 40
1.0
 40
1.0
 40
1.0
 10
4.3179543335
 20
4.8185359381
 30
0.0
 10
4.3077321489
 20
4.802834111
 30
0.0
 10
4.2857344408
 20
4.7727666868
 30
0.0
 10
4.2481780735
 20
4.7320376191
 30
0.0
 10
4.2135382173
 20
4.7023407668
 30
0.0
 10
4.1842000398
 20
4.6815005249
 30
0.0
 10
4.1541024318
 20
4.6627988046
 30
0.0
 10
4.1147842647
 20
4.6431807876
 30
0.0
 10
4.0735146494
 20
4.6288562337
 30
0.0
 10
4.0398693614
 20
4.6207838623
 30
0.0
 10
4.0060075597
 20
4.6149986558
 30
0.0
 10
3.9802589365
 20
4.6131989748
 30
0.0
 10
3.9631433526
 20
4.6131547814
 30
0.0
  0
SPLINE
  5
537
100
AcDbEntity
  8
0
100
AcDbSpline
 62
9
  6
CONTINUOUS
 70
0
 71
3
 72
17
 73
13
 74
0
 42
0.0000001
 43
0.0000001
 44
0.0000000001
 40
0.0
 40
0.0
 40
0.0
 40
0.0
 40
0.0400731604
 40
0.0819175301
 40
0.1262091254
 40
0.1734779407
 40
0.2781714024
 40
0.3973810873
 40
0.5308766456
 40
0.6773812077
 40
0.8348507466
 40
1.0
 40
1.0
 40
1.0
 40
1.0
 10
3.7584861207
 20
4.6629395722
 30
0.0
 10
3.7578563713
 20
4.663440318
 30
0.0
 10
3.7566554568
 20
4.6645768658
 30
0.0
 10
3.7551051329
 20
4.6665923208
 30
0.0
 10
3.7537819722
 20
4.6689303582
 30
0.0
 10
3.7522799845
 20
4.6725823802
 30
0.0
 10
3.7510695922
 20
4.6779287755
 30
0.0
 10
3.7506308562
 20
4.6851128033
 30
0.0
 10
3.7511716799
 20
4.6931280366
 30
0.0
 10
3.7526709932
 20
4.7017958275
 30
0.0
 10
3.755101427
 20
4.7109065475
 30
0.0
 10
3.7572549913
 20
4.7170230005
 30
0.0
 10
3.7584690246
 20
4.7201085379
 30
0.0
  0
LINE
  5
538
100
AcDbEntity
  8
0
100
AcDbLine
 62
7
  6
CONTINUOUS
 10
3.9212205315
 20
4.8704860053
 11
3.9213071238
 21
4.8491115198
  0
SPLINE
  5
539
100
AcDbEntity
  8
0
100
AcDbSpline
 62
7
  6
CONTINUOUS
 70
0
 71
3
 72
11
 73
7
 74
0
 42
0.0000001
 43
0.0000001
 44
0.0000000001
 40
0.0
 40
0.0
 40
0.0
 40
0.0
 40
0.2519148717
 40
0.5022246294
 40
0.7514269422
 40
1.0
 40
1.0
 40
1.0
 40
1.0
 10
3.7749583744
 20
4.6542922234
 30
0.0
 10
3.7888885818
 20
4.6475753806
 30
0.0
 10
3.8174119442
 20
4.6356794504
 30
0.0
 10
3.8617856446
 20
4.6227331772
 30
0.0
 10
3.9071341638
 20
4.6149015986
 30
0.0
 10
3.9377209098
 20
4.6131533347
 30
0.0
 10
3.9529807703
 20
4.613154904
 30
0.0
  0
SPLINE
  5
53A
100
AcDbEntity
  8
0
100
AcDbSpline
 62
7
  6
CONTINUOUS
 70
0
 71
3
 72
17
 73
13
 74
0
 42
0.0000001
 43
0.0000001
 44
0.0000000001
 40
0.0
 40
0.0
 40
0.0
 40
0.0
 40
0.1295673948
 40
0.2575659526
 40
0.3840706121
 40
0.4468167546
 40
0.5092308816
 40
0.6330964538
 40
0.7559668804
 40
0.8171583915
 40
0.8782232196
 40
1.0
 40
1.0
 40
1.0
 40
1.0
 10
4.323215783
 20
4.8154466754
 30
0.0
 10
4.3128188264
 20
4.8000158896
 30
0.0
 10
4.2904553849
 20
4.7704408214
 30
0.0
 10
4.2523755309
 20
4.7303867549
 30
0.0
 10
4.2172754347
 20
4.7011591951
 30
0.0
 10
4.1875202159
 20
4.6806127044
 30
0.0
 10
4.1568938995
 20
4.6621117712
 30
0.0
 10
4.1168351409
 20
4.6426921749
 30
0.0
 10
4.0748047302
 20
4.6285426122
 30
0.0
 10
4.0404930568
 20
4.6205762678
 30
0.0
 10
4.0058966459
 20
4.6148818095
 30
0.0
 10
3.9795980181
 20
4.6131535616
 30
0.0
 10
3.9621101864
 20
4.6131549591
 30
0.0
  0
SPLINE
  5
53B
100
AcDbEntity
  8
0
100
AcDbSpline
 62
7
  6
CONTINUOUS
 70
0
 71
3
 72
28
 73
24
 74
0
 42
0.0000001
 43
0.0000001
 44
0.0000000001
 40
0.0
 40
0.0
 40
0.0
 40
0.0
 40
0.061441365
 40
0.0922519735
 40
0.1230999276
 40
0.1849046455
 40
0.2469758638
 40
0.2781521453
 40
0.3094071143
 40
0.3721119328
 40
0.4351085529
 40
0.4667163245
 40
0.4983668137
 40
0.5616984789
 40
0.6250182303
 40
0.6566551472
 40
0.6882445341
 40
0.7511956817
 40
0.8138419968
 40
0.8761646858
 40
0.9072409619
 40
0.9382565034
 40
1.0
 40
1.0
 40
1.0
 40
1.0
 10
3.7915846279
 20
4.9201750563
 30
0.0
 10
3.7849151525
 20
4.9187358536
 30
0.0
 10
3.7750608071
 20
4.9157113725
 30
0.0
 10
3.7625830323
 20
4.9101008916
 30
0.0
 10
3.7505763651
 20
4.9034515247
 30
0.0
 10
3.7366121583
 20
4.8933036953
 30
0.0
 10
3.7244242783
 20
4.8810347059
 30
0.0
 10
3.7158726161
 20
4.8701560461
 30
0.0
 10
3.7081394732
 20
4.8585958892
 30
0.0
 10
3.700116607
 20
4.843044614
 30
0.0
 10
3.6944506793
 20
4.8264509956
 30
0.0
 10
3.6913744334
 20
4.8127615399
 30
0.0
 10
3.6892775596
 20
4.7988504468
 30
0.0
 10
3.6885276377
 20
4.7812242792
 30
0.0
 10
3.690273492
 20
4.7636702191
 30
0.0
 10
3.6931546649
 20
4.7499050915
 30
0.0
 10
3.6969998257
 20
4.7364205353
 30
0.0
 10
3.7036037679
 20
4.7201894892
 30
0.0
 10
3.7142581382
 20
4.7021596737
 30
0.0
 10
3.7252753929
 20
4.6886875957
 30
0.0
 10
3.7352196281
 20
4.679077186
 30
0.0
 10
3.7458423561
 20
4.6703283067
 30
0.0
 10
3.754567507
 20
4.6647422494
 30
0.0
 10
3.7606278154
 20
4.6615352516
 30
0.0
  0
SPLINE
  5
53C
100
AcDbEntity
  8
0
100
AcDbSpline
 62
9
  6
CONTINUOUS
 70
0
 71
3
 72
21
 73
17
 74
0
 42
0.0000001
 43
0.0000001
 44
0.0000000001
 40
0.0
 40
0.0
 40
0.0
 40
0.0
 40
0.1308720875
 40
0.2588216463
 40
0.3218526328
 40
0.3842989296
 40
0.446245609
 40
0.5077923342
 40
0.5690511521
 40
0.6301417166
 40
0.6911866409
 40
0.7523074112
 40
0.8136362831
 40
0.8753080037
 40
0.9374199999
 40
1.0
 40
1.0
 40
1.0
 40
1.0
 10
4.2035837214
 20
4.8247007025
 30
0.0
 10
4.1901764089
 20
4.8076179833
 30
0.0
 10
4.1610200699
 20
4.7758062653
 30
0.0
 10
4.1188479095
 20
4.7426202823
 30
0.0
 10
4.0827256017
 20
4.7210035964
 30
0.0
 10
4.0547249557
 20
4.7073776739
 30
0.0
 10
4.0258689016
 20
4.6963449025
 30
0.0
 10
3.9963323341
 20
4.6879831587
 30
0.0
 10
3.9663031454
 20
4.682334595
 30
0.0
 10
3.9359671737
 20
4.6794478944
 30
0.0
 10
3.9055174274
 20
4.6793297171
 30
0.0
 10
3.8751438109
 20
4.6819863923
 30
0.0
 10
3.8450338646
 20
4.6874010045
 30
0.0
 10
3.8153731154
 20
4.6955413641
 30
0.0
 10
3.7863608913
 20
4.7063540762
 30
0.0
 10
3.7676476528
 20
4.7152515515
 30
0.0
 10
3.7584694858
 20
4.7201083408
 30
0.0
  0
SPLINE
  5
53D
100
AcDbEntity
  8
0
100
AcDbSpline
 62
9
  6
CONTINUOUS
 70
0
 71
3
 72
23
 73
19
 74
0
 42
0.0000001
 43
0.0000001
 44
0.0000000001
 40
0.0
 40
0.0
 40
0.0
 40
0.0
 40
0.0592867204
 40
0.1200496403
 40
0.1821462129
 40
0.2455124105
 40
0.3100056409
 40
0.3753214722
 40
0.4410875493
 40
0.5069033804
 40
0.5723644901
 40
0.637097737
 40
0.7007854022
 40
0.7631974802
 40
0.8242145378
 40
0.8839152324
 40
0.942477732
 40
1.0
 40
1.0
 40
1.0
 40
1.0
 10
3.7584694858
 20
4.7201083408
 30
0.0
 10
3.7555042235
 20
4.7216774982
 30
0.0
 10
3.7497695386
 20
4.7253892215
 30
0.0
 10
3.742108199
 20
4.7323466813
 30
0.0
 10
3.7354958816
 20
4.7406064928
 30
0.0
 10
3.7300871268
 20
4.749940377
 30
0.0
 10
3.7260192958
 20
4.7601261713
 30
0.0
 10
3.7233720509
 20
4.7709084526
 30
0.0
 10
3.7222306099
 20
4.7820267034
 30
0.0
 10
3.7226024811
 20
4.7932052462
 30
0.0
 10
3.7244965094
 20
4.8041696853
 30
0.0
 10
3.7278500416
 20
4.8146542119
 30
0.0
 10
3.732602123
 20
4.8243937187
 30
0.0
 10
3.7386182334
 20
4.8331564049
 30
0.0
 10
3.7457706026
 20
4.8407151766
 30
0.0
 10
3.7538807057
 20
4.8468895821
 30
0.0
 10
3.7627492572
 20
4.8514980144
 30
0.0
 10
3.769055252
 20
4.8534799782
 30
0.0
 10
3.7722370176
 20
4.8541665948
 30
0.0
  0
SPLINE
  5
53E
100
AcDbEntity
  8
0
100
AcDbSpline
 62
9
  6
CONTINUOUS
 70
0
 71
3
 72
11
 73
7
 74
0
 42
0.0000001
 43
0.0000001
 44
0.0000000001
 40
0.0
 40
0.0
 40
0.0
 40
0.0
 40
0.2498664019
 40
0.4992235292
 40
0.7489729704
 40
1.0
 40
1.0
 40
1.0
 40
1.0
 10
3.7722370176
 20
4.8541665948
 30
0.0
 10
3.7844964509
 20
4.8568126989
 30
0.0
 10
3.8093412266
 20
4.860603931
 30
0.0
 10
3.8470130745
 20
4.861657404
 30
0.0
 10
3.8845843879
 20
4.8580454253
 30
0.0
 10
3.9091938215
 20
4.8525796817
 30
0.0
 10
3.9213071238
 20
4.8491115198
 30
0.0
  0
SPLINE
  5
53F
100
AcDbEntity
  8
0
100
AcDbSpline
 62
9
  6
CONTINUOUS
 70
0
 71
3
 72
17
 73
13
 74
0
 42
0.0000001
 43
0.0000001
 44
0.0000000001
 40
0.0
 40
0.0
 40
0.0
 40
0.0
 40
0.1315774362
 40
0.2609880511
 40
0.388269733
 40
0.4511659261
 40
0.5135726749
 40
0.6369805032
 40
0.7588776583
 40
0.819438776
 40
0.8798023023
 40
1.0
 40
1.0
 40
1.0
 40
1.0
 10
4.3179543176
 20
4.8185359138
 30
0.0
 10
4.3077321663
 20
4.80283414
 30
0.0
 10
4.2857345358
 20
4.7727668141
 30
0.0
 10
4.2481783155
 20
4.7320378623
 30
0.0
 10
4.2135386012
 20
4.7023410764
 30
0.0
 10
4.1842005465
 20
4.6815008638
 30
0.0
 10
4.1541030632
 20
4.6627991581
 30
0.0
 10
4.1147850598
 20
4.6431811309
 30
0.0
 10
4.0735156122
 20
4.6288565269
 30
0.0
 10
4.0398704567
 20
4.6207840884
 30
0.0
 10
4.0060087798
 20
4.6149987992
 30
0.0
 10
3.9802602437
 20
4.6131990408
 30
0.0
 10
3.9631447122
 20
4.613154785
 30
0.0
  0
LINE
  5
540
100
AcDbEntity
  8
0
100
AcDbLine
 62
9
  6
CONTINUOUS
 10
3.9631447122
 20
4.613154785
 11
3.962157439
 21
4.6131535082
  0
SPLINE
  5
541
100
AcDbEntity
  8
0
100
AcDbSpline
 62
9
  6
CONTINUOUS
 70
0
 71
3
 72
16
 73
12
 74
0
 42
0.0000001
 43
0.0000001
 44
0.0000000001
 40
0.0
 40
0.0
 40
0.0
 40
0.0
 40
0.1202372318
 40
0.2413294077
 40
0.3636102319
 40
0.4873531963
 40
0.6127640007
 40
0.7399581527
 40
0.8042693916
 40
0.8690529358
 40
1.0
 40
1.0
 40
1.0
 40
1.0
 10
4.0131308624
 20
4.617899336
 30
0.0
 10
4.0278554684
 20
4.6202324004
 30
0.0
 10
4.0571645882
 20
4.6266362106
 30
0.0
 10
4.0999141903
 20
4.6412427439
 30
0.0
 10
4.1411510313
 20
4.6607402827
 30
0.0
 10
4.1804562931
 20
4.6849156824
 30
0.0
 10
4.2174276491
 20
4.7135263291
 30
0.0
 10
4.2458941425
 20
4.7407213677
 30
0.0
 10
4.2671536591
 20
4.7643556006
 30
0.0
 10
4.2875047176
 20
4.7893768955
 30
0.0
 10
4.3014102681
 20
4.8093281402
 30
0.0
 10
4.3100519656
 20
4.8230735271
 30
0.0
  0
SPLINE
  5
542
100
AcDbEntity
  8
0
100
AcDbSpline
 62
9
  6
CONTINUOUS
 70
0
 71
3
 72
19
 73
15
 74
0
 42
0.0000001
 43
0.0000001
 44
0.0000000001
 40
0.0
 40
0.0
 40
0.0
 40
0.0
 40
0.0410766959
 40
0.0832415864
 40
0.1273940458
 40
0.1742935213
 40
0.2244934224
 40
0.2783662074
 40
0.3361050042
 40
0.3976989076
 40
0.5318367026
 40
0.6790614838
 40
0.836538695
 40
1.0
 40
1.0
 40
1.0
 40
1.0
 10
3.791584446
 20
4.9201722912
 30
0.0
 10
3.7905913047
 20
4.9199569054
 30
0.0
 10
3.7886152855
 20
4.9193293679
 30
0.0
 10
3.7858202685
 20
4.9178392615
 30
0.0
 10
3.7832067823
 20
4.9158072543
 30
0.0
 10
3.7807981145
 20
4.9132593584
 30
0.0
 10
3.7786070904
 20
4.9102228358
 30
0.0
 10
3.7766501241
 20
4.9067217733
 30
0.0
 10
3.7749422971
 20
4.9027849087
 30
0.0
 10
3.7729530551
 20
4.8968311604
 30
0.0
 10
3.7712234849
 20
4.8884933016
 30
0.0
 10
3.7703409503
 20
4.8776505575
 30
0.0
 10
3.7706297006
 20
4.8660530688
 30
0.0
 10
3.771576109
 20
4.8581564815
 30
0.0
 10
3.7722387378
 20
4.8541671404
 30
0.0
  0
SPLINE
  5
543
100
AcDbEntity
  8
0
100
AcDbSpline
 62
7
  6
CONTINUOUS
 70
0
 71
3
 72
38
 73
34
 74
0
 42
0.0000001
 43
0.0000001
 44
0.0000000001
 40
0.0
 40
0.0
 40
0.0
 40
0.0
 40
0.0483593437
 40
0.0934013228
 40
0.1349826546
 40
0.1733620774
 40
0.2089747142
 40
0.2422949706
 40
0.2737686505
 40
0.3037854716
 40
0.33267275
 40
0.3606970816
 40
0.4149294121
 40
0.4414682512
 40
0.4677572351
 40
0.4938767862
 40
0.5198922212
 40
0.5458590794
 40
0.5718282906
 40
0.5978510848
 40
0.6239836175
 40
0.6502924748
 40
0.6768597541
 40
0.7037902356
 40
0.7312174994
 40
0.7593133911
 40
0.7882950395
 40
0.818434326
 40
0.8500645315
 40
0.8835812703
 40
0.9194346158
 40
0.95809894
 40
1.0
 40
1.0
 40
1.0
 40
1.0
 10
11.1690787764
 20
10.0047664145
 30
0.0
 10
11.1679151843
 20
9.9980235813
 30
0.0
 10
11.1649600016
 20
9.9851094574
 30
0.0
 10
11.1586615476
 20
9.9670399476
 30
0.0
 10
11.1510357955
 20
9.9510421606
 30
0.0
 10
11.1424328144
 20
9.937098687
 30
0.0
 10
11.1331231429
 20
9.9250687831
 30
0.0
 10
11.1233063862
 20
9.9147660799
 30
0.0
 10
11.113126564
 20
9.9059974801
 30
0.0
 10
11.102687862
 20
9.8985811062
 30
0.0
 10
11.0920641788
 20
9.8923526627
 30
0.0
 10
11.0778843385
 20
9.8855217523
 30
0.0
 10
11.0633035084
 20
9.8804046772
 30
0.0
 10
11.0485871441
 20
9.8767885534
 30
0.0
 10
11.0375947511
 20
9.8747642402
 30
0.0
 10
11.0265818423
 20
9.8733637936
 30
0.0
 10
11.0155563539
 20
9.8725455385
 30
0.0
 10
11.0045249408
 20
9.8722945667
 30
0.0
 10
10.9934937896
 20
9.872598312
 30
0.0
 10
10.9824692354
 20
9.8734705777
 30
0.0
 10
10.9714577569
 20
9.8749280591
 30
0.0
 10
10.9604684674
 20
9.8770128909
 30
0.0
 10
10.9495116808
 20
9.8797734048
 30
0.0
 10
10.9386028463
 20
9.8832808495
 30
0.0
 10
10.9277621821
 20
9.887619887
 30
0.0
 10
10.9170175234
 20
9.8928936835
 30
0.0
 10
10.9064092416
 20
9.8992277303
 30
0.0
 10
10.8959913916
 20
9.9067645925
 30
0.0
 10
10.885840849
 20
9.9156698463
 30
0.0
 10
10.876065042
 20
9.9261270733
 30
0.0
 10
10.8668124223
 20
9.9383302377
 30
0.0
 10
10.8582894925
 20
9.9524613576
 30
0.0
 10
10.8534792319
 20
9.9628257127
 30
0.0
 10
10.8512694466
 20
9.9683271924
 30
0.0
  0
SPLINE
  5
544
100
AcDbEntity
  8
0
100
AcDbSpline
 62
7
  6
CONTINUOUS
 70
0
 71
3
 72
9
 73
5
 74
0
 42
0.0000001
 43
0.0000001
 44
0.0000000001
 40
0.0
 40
0.0
 40
0.0
 40
0.0
 40
0.2402094857
 40
1.0
 40
1.0
 40
1.0
 40
1.0
 10
10.8512694466
 20
9.9683271924
 30
0.0
 10
10.8504473192
 20
9.9703739601
 30
0.0
 10
10.8471918399
 20
9.9789610281
 30
0.0
 10
10.8446210745
 20
9.987806441
 30
0.0
 10
10.8430557335
 20
9.9946052986
 30
0.0
  0
SPLINE
  5
545
100
AcDbEntity
  8
0
100
AcDbSpline
 62
7
  6
CONTINUOUS
 70
0
 71
3
 72
45
 73
41
 74
0
 42
0.0000001
 43
0.0000001
 44
0.0000000001
 40
0.0
 40
0.0
 40
0.0
 40
0.0
 40
0.0156249363
 40
0.0312504136
 40
0.0468763572
 40
0.0625031808
 40
0.0781306677
 40
0.0937590153
 40
0.1249919924
 40
0.1562347945
 40
0.1874830353
 40
0.2187339196
 40
0.2499857662
 40
0.2812380934
 40
0.3124907145
 40
0.3437428723
 40
0.3749945442
 40
0.4062463339
 40
0.4374976119
 40
0.468748854
 40
0.4999999867
 40
0.5312511196
 40
0.5625023666
 40
0.5937536461
 40
0.6250054446
 40
0.656257128
 40
0.6875092945
 40
0.7187619004
 40
0.7500142332
 40
0.7812660711
 40
0.8125168952
 40
0.8437650872
 40
0.8750078588
 40
0.9062408668
 40
0.9218692111
 40
0.9374966983
 40
0.9531235688
 40
0.9687495311
 40
0.9843750507
 40
1.0
 40
1.0
 40
1.0
 40
1.0
 10
11.8518476759
 20
10.0377457964
 30
0.0
 10
11.8518476759
 20
10.0335039797
 30
0.0
 10
11.8512948232
 20
10.0250100599
 30
0.0
 10
11.8488434623
 20
10.0124897403
 30
0.0
 10
11.8448709189
 20
10.0003666157
 30
0.0
 10
11.8395239388
 20
9.9887884651
 30
0.0
 10
11.832970109
 20
9.9778514036
 30
0.0
 10
11.8228567452
 20
9.9642035615
 30
0.0
 10
11.8080142085
 20
9.9489181375
 30
0.0
 10
11.7877957794
 20
9.9333610948
 30
0.0
 10
11.7659071878
 20
9.9202843974
 30
0.0
 10
11.7428736518
 20
9.9093821954
 30
0.0
 10
11.7190501575
 20
9.9003590926
 30
0.0
 10
11.6946807093
 20
9.8929567442
 30
0.0
 10
11.6699334453
 20
9.8869550235
 30
0.0
 10
11.6449257486
 20
9.8821695588
 30
0.0
 10
11.6197398782
 20
9.8784488495
 30
0.0
 10
11.594433702
 20
9.8756761775
 30
0.0
 10
11.5690494409
 20
9.8737587634
 30
0.0
 10
11.5436184668
 20
9.8726328121
 30
0.0
 10
11.5181655773
 20
9.8722631027
 30
0.0
 10
11.4927126867
 20
9.8726328148
 30
0.0
 10
11.46728171
 20
9.8737587538
 30
0.0
 10
11.4418974461
 20
9.8756761842
 30
0.0
 10
11.4165912625
 20
9.8784488417
 30
0.0
 10
11.3914053852
 20
9.8821695597
 30
0.0
 10
11.3663976865
 20
9.8869550214
 30
0.0
 10
11.3416504248
 20
9.8929567497
 30
0.0
 10
11.3172809781
 20
9.9003590861
 30
0.0
 10
11.2934575026
 20
9.9093821902
 30
0.0
 10
11.2704239925
 20
9.9202843716
 30
0.0
 10
11.2485354313
 20
9.9333610452
 30
0.0
 10
11.2283169989
 20
9.9489180628
 30
0.0
 10
11.2134744627
 20
9.964203485
 30
0.0
 10
11.2033610732
 20
9.9778513178
 30
0.0
 10
11.1968072409
 20
9.9887883918
 30
0.0
 10
11.1914602391
 20
10.0003665517
 30
0.0
 10
11.1874876806
 20
10.0124897027
 30
0.0
 10
11.1850363119
 20
10.0250100414
 30
0.0
 10
11.1844834575
 20
10.0335039761
 30
0.0
 10
11.1844834575
 20
10.0377457964
 30
0.0
  0
SPLINE
  5
546
100
AcDbEntity
  8
0
100
AcDbSpline
 62
7
  6
CONTINUOUS
 70
0
 71
3
 72
9
 73
5
 74
0
 42
0.0000001
 43
0.0000001
 44
0.0000000001
 40
0.0
 40
0.0
 40
0.0
 40
0.0
 40
0.2597811519
 40
1.0
 40
1.0
 40
1.0
 40
1.0
 10
12.193275081
 20
9.9946039133
 30
0.0
 10
12.1927399361
 20
9.9922796602
 30
0.0
 10
12.1905073234
 20
9.9833734588
 30
0.0
 10
12.1875957726
 20
9.9746363833
 30
0.0
 10
12.1850628392
 20
9.9683300605
 30
0.0
  0
SPLINE
  5
547
100
AcDbEntity
  8
0
100
AcDbSpline
 62
7
  6
CONTINUOUS
 70
0
 71
3
 72
33
 73
29
 74
0
 42
0.0000001
 43
0.0000001
 44
0.0000000001
 40
0.0
 40
0.0
 40
0.0
 40
0.0
 40
0.0426819092
 40
0.0821580079
 40
0.1188320751
 40
0.1531583479
 40
0.1855720182
 40
0.2164597676
 40
0.2461508841
 40
0.2749162496
 40
0.3029750043
 40
0.3305019243
 40
0.3844566927
 40
0.4375962028
 40
0.4904302769
 40
0.5433599228
 40
0.5700008492
 40
0.5968410691
 40
0.6514530049
 40
0.7082025975
 40
0.7378677131
 40
0.7687220734
 40
0.8010934611
 40
0.8353671916
 40
0.8719775359
 40
0.9113788514
 40
0.953977648
 40
1.0
 40
1.0
 40
1.0
 40
1.0
 10
12.1850628392
 20
9.9683300605
 30
0.0
 10
12.1829167309
 20
9.9629868283
 30
0.0
 10
12.1782557497
 20
9.9529037276
 30
0.0
 10
12.1700270971
 20
9.9391132849
 30
0.0
 10
12.161099445
 20
9.9271464313
 30
0.0
 10
12.1516651957
 20
9.9168381135
 30
0.0
 10
12.1418641586
 20
9.9080108212
 30
0.0
 10
12.1317988861
 20
9.9004945874
 30
0.0
 10
12.1215425483
 20
9.8941363518
 30
0.0
 10
12.1111482602
 20
9.8888019254
 30
0.0
 10
12.1006555
 20
9.8843717893
 30
0.0
 10
12.0866674038
 20
9.8795759567
 30
0.0
 10
12.068961052
 20
9.8753295878
 30
0.0
 10
12.0475167158
 20
9.8726351944
 30
0.0
 10
12.0260527533
 20
9.8720990551
 30
0.0
 10
12.0082053555
 20
9.8734036858
 30
0.0
 10
11.9940066142
 20
9.8755624167
 30
0.0
 10
11.9797262534
 20
9.8785470441
 30
0.0
 10
11.9618378902
 20
9.8839820014
 30
0.0
 10
11.9445016572
 20
9.8920065147
 30
0.0
 10
11.9310248071
 20
9.9003236039
 30
0.0
 10
11.920953493
 20
9.9078094535
 30
0.0
 10
11.9111449664
 20
9.916602195
 30
0.0
 10
11.9017000655
 20
9.9268717903
 30
0.0
 10
11.8927579709
 20
9.9387950161
 30
0.0
 10
11.8845085331
 20
9.9525401809
 30
0.0
 10
11.8772072492
 20
9.9682259374
 30
0.0
 10
11.8733313382
 20
9.9795645092
 30
0.0
 10
11.8716295711
 20
9.9855355052
 30
0.0
  0
SPLINE
  5
548
100
AcDbEntity
  8
0
100
AcDbSpline
 62
7
  6
CONTINUOUS
 70
0
 71
3
 72
9
 73
5
 74
0
 42
0.0000001
 43
0.0000001
 44
0.0000000001
 40
0.0
 40
0.0
 40
0.0
 40
0.0
 40
0.4879470044
 40
1.0
 40
1.0
 40
1.0
 40
1.0
 10
11.8710405817
 20
9.9876509496
 30
0.0
 10
11.8688797448
 20
9.9955986569
 30
0.0
 10
11.8655575291
 20
10.0122039201
 30
0.0
 10
11.8644445638
 20
10.0291026866
 30
0.0
 10
11.8644445638
 20
10.0377457964
 30
0.0
  0
SPLINE
  5
549
100
AcDbEntity
  8
0
100
AcDbSpline
 62
7
  6
CONTINUOUS
 70
0
 71
3
 72
25
 73
21
 74
0
 42
0.0000001
 43
0.0000001
 44
0.0000000001
 40
0.0
 40
0.0
 40
0.0
 40
0.0
 40
0.0371329313
 40
0.071898901
 40
0.1050172291
 40
0.1370658205
 40
0.1993048953
 40
0.2599091251
 40
0.3195082742
 40
0.3785061627
 40
0.4958310111
 40
0.6137797304
 40
0.6735722291
 40
0.7342810628
 40
0.7962867863
 40
0.8601950604
 40
0.8931497425
 40
0.9271347451
 40
0.9625811286
 40
1.0
 40
1.0
 40
1.0
 40
1.0
 10
3.4217313567
 20
5.0713543839
 30
0.0
 10
3.4219557691
 20
5.0691766991
 30
0.0
 10
3.4225888441
 20
5.0649773827
 30
0.0
 10
3.4240896898
 20
5.0589623579
 30
0.0
 10
3.4259989524
 20
5.0533820696
 30
0.0
 10
3.4289172941
 20
5.046457025
 30
0.0
 10
3.4330653868
 20
5.0383059701
 30
0.0
 10
3.4387693324
 20
5.0291734848
 30
0.0
 10
3.445026275
 20
5.0206490384
 30
0.0
 10
3.4540354228
 20
5.0100383843
 30
0.0
 10
3.4665450399
 20
4.9979555787
 30
0.0
 10
3.4803278718
 20
4.9872765551
 30
0.0
 10
3.4922050107
 20
4.9797385607
 30
0.0
 10
3.5016557071
 20
4.9745778939
 30
0.0
 10
3.5116578867
 20
4.9699712972
 30
0.0
 10
3.5204581018
 20
4.9667307476
 30
0.0
 10
3.527855387
 20
4.9645328902
 30
0.0
 10
3.5337339364
 20
4.9631438909
 30
0.0
 10
3.5399532913
 20
4.9621111017
 30
0.0
 10
3.5442367345
 20
4.9617245866
 30
0.0
 10
3.5464397863
 20
4.9616091295
 30
0.0
  0
SPLINE
  5
54A
100
AcDbEntity
  8
0
100
AcDbSpline
 62
7
  6
CONTINUOUS
 70
0
 71
3
 72
25
 73
21
 74
0
 42
0.0000001
 43
0.0000001
 44
0.0000000001
 40
0.0
 40
0.0
 40
0.0
 40
0.0
 40
0.0371329313
 40
0.071898901
 40
0.1050172291
 40
0.1370658205
 40
0.1993048953
 40
0.2599091251
 40
0.3195082742
 40
0.3785061627
 40
0.4958310111
 40
0.6137797304
 40
0.6735722291
 40
0.7342810628
 40
0.7962867863
 40
0.8601950604
 40
0.8931497425
 40
0.9271347451
 40
0.9625811286
 40
1.0
 40
1.0
 40
1.0
 40
1.0
 10
7.7211482158
 20
5.0713543839
 30
0.0
 10
7.7209238034
 20
5.0691766991
 30
0.0
 10
7.7202907284
 20
5.0649773827
 30
0.0
 10
7.7187898827
 20
5.0589623579
 30
0.0
 10
7.7168806201
 20
5.0533820696
 30
0.0
 10
7.7139622784
 20
5.046457025
 30
0.0
 10
7.7098141858
 20
5.0383059701
 30
0.0
 10
7.7041102401
 20
5.0291734848
 30
0.0
 10
7.6978532975
 20
5.0206490384
 30
0.0
 10
7.6888441497
 20
5.0100383843
 30
0.0
 10
7.6763345326
 20
4.9979555787
 30
0.0
 10
7.6625517007
 20
4.9872765551
 30
0.0
 10
7.6506745618
 20
4.9797385607
 30
0.0
 10
7.6412238655
 20
4.9745778939
 30
0.0
 10
7.6312216858
 20
4.9699712972
 30
0.0
 10
7.6224214707
 20
4.9667307476
 30
0.0
 10
7.6150241855
 20
4.9645328902
 30
0.0
 10
7.6091456361
 20
4.9631438909
 30
0.0
 10
7.6029262813
 20
4.9621111017
 30
0.0
 10
7.5986428381
 20
4.9617245866
 30
0.0
 10
7.5964397863
 20
4.9616091295
 30
0.0
  0
SPLINE
  5
54B
100
AcDbEntity
  8
0
100
AcDbSpline
 62
9
  6
CONTINUOUS
 70
0
 71
3
 72
17
 73
13
 74
0
 42
0.0000001
 43
0.0000001
 44
0.0000000001
 40
0.0
 40
0.0
 40
0.0
 40
0.0
 40
0.1247729347
 40
0.187243113
 40
0.2497219489
 40
0.3745793293
 40
0.4995091655
 40
0.6244941344
 40
0.7495457659
 40
0.8122209957
 40
0.8749487058
 40
1.0
 40
1.0
 40
1.0
 40
1.0
 10
4.8019512125
 20
8.1918942161
 30
0.0
 10
4.7838729583
 20
8.1894689378
 30
0.0
 10
4.7570101837
 20
8.183112328
 30
0.0
 10
4.7230585798
 20
8.1695815357
 30
0.0
 10
4.6905884678
 20
8.1527535837
 30
0.0
 10
4.6533137882
 20
8.1258513037
 30
0.0
 10
4.6158077645
 20
8.0854390362
 30
0.0
 10
4.5868450994
 20
8.0384928181
 30
0.0
 10
4.5708011203
 20
7.9953465827
 30
0.0
 10
4.5631878887
 20
7.9594790775
 30
0.0
 10
4.5591421558
 20
7.9230482885
 30
0.0
 10
4.5600983549
 20
7.8953848497
 30
0.0
 10
4.5625290438
 20
7.8772662642
 30
0.0
  0
SPLINE
  5
54C
100
AcDbEntity
  8
0
100
AcDbSpline
 62
9
  6
CONTINUOUS
 70
0
 71
3
 72
23
 73
19
 74
0
 42
0.0000001
 43
0.0000001
 44
0.0000000001
 40
0.0
 40
0.0
 40
0.0
 40
0.0
 40
0.0314325635
 40
0.0436105017
 40
0.0577674628
 40
0.0739595609
 40
0.0922000989
 40
0.1124728347
 40
0.1347506772
 40
0.1851783539
 40
0.2431622272
 40
0.3082071258
 40
0.3796944357
 40
0.4569885815
 40
0.539400453
 40
0.6261757618
 40
0.8096759857
 40
1.0
 40
1.0
 40
1.0
 40
1.0
 10
7.8010709577
 20
8.5942394762
 30
0.0
 10
7.8040491707
 20
8.5946390168
 30
0.0
 10
7.8079752472
 20
8.5912688099
 30
0.0
 10
7.8112445566
 20
8.5870106909
 30
0.0
 10
7.8134806392
 20
8.5835704178
 30
0.0
 10
7.815744459
 20
8.5795241508
 30
0.0
 10
7.8180746749
 20
8.5748365191
 30
0.0
 10
7.8204523807
 20
8.5695334812
 30
0.0
 10
7.8238244003
 20
8.5613076033
 30
0.0
 10
7.8280770796
 20
8.5495546677
 30
0.0
 10
7.8331000948
 20
8.5337485123
 30
0.0
 10
7.8381821901
 20
8.5158585454
 30
0.0
 10
7.8432758599
 20
8.49606015
 30
0.0
 10
7.8483263249
 20
8.4745417931
 30
0.0
 10
7.8532842407
 20
8.4515049173
 30
0.0
 10
7.8598352112
 20
8.4184299012
 30
0.0
 10
7.8673946851
 20
8.3750448486
 30
0.0
 10
7.8726037721
 20
8.3396851324
 30
0.0
 10
7.875022988
 20
8.3216520677
 30
0.0
  0
SPLINE
  5
54D
100
AcDbEntity
  8
0
100
AcDbSpline
 62
9
  6
CONTINUOUS
 70
0
 71
3
 72
17
 73
13
 74
0
 42
0.0000001
 43
0.0000001
 44
0.0000000001
 40
0.0
 40
0.0
 40
0.0
 40
0.0
 40
0.1250512942
 40
0.1877790043
 40
0.2504542341
 40
0.3755058656
 40
0.5004908345
 40
0.6254206707
 40
0.7502780511
 40
0.812756887
 40
0.8752270653
 40
1.0
 40
1.0
 40
1.0
 40
1.0
 10
4.5625290438
 20
7.8772662642
 30
0.0
 10
4.5649597326
 20
7.8591476788
 30
0.0
 10
4.5713284688
 20
7.8322103559
 30
0.0
 10
4.5848330463
 20
7.7981340191
 30
0.0
 10
4.6016305191
 20
7.7655413186
 30
0.0
 10
4.6284790626
 20
7.7281493059
 30
0.0
 10
4.6687910511
 20
7.6904965909
 30
0.0
 10
4.7156221947
 20
7.6613985297
 30
0.0
 10
4.7586694088
 20
7.6452717892
 30
0.0
 10
4.7944266933
 20
7.6375968461
 30
0.0
 10
4.8307440691
 20
7.6334929501
 30
0.0
 10
4.8583323995
 20
7.6344411983
 30
0.0
 10
4.8764106537
 20
7.6368664766
 30
0.0
  0
SPLINE
  5
54E
100
AcDbEntity
  8
0
100
AcDbSpline
 62
9
  6
CONTINUOUS
 70
0
 71
3
 72
23
 73
19
 74
0
 42
0.0000001
 43
0.0000001
 44
0.0000000001
 40
0.0
 40
0.0
 40
0.0
 40
0.0
 40
0.1903240143
 40
0.3738242382
 40
0.460599547
 40
0.5430114185
 40
0.6203055643
 40
0.6917928742
 40
0.7568377728
 40
0.8148216461
 40
0.8652493228
 40
0.8875271653
 40
0.9077999011
 40
0.9260404391
 40
0.9422325372
 40
0.9563894983
 40
0.9685674365
 40
1.0
 40
1.0
 40
1.0
 40
1.0
 10
7.875022988
 20
8.3216520677
 30
0.0
 10
7.8774422039
 20
8.3036190031
 30
0.0
 10
7.8817369
 20
8.2681366173
 30
0.0
 10
7.8858795165
 20
8.2242931781
 30
0.0
 10
7.8882776083
 20
8.1906610347
 30
0.0
 10
7.8895667203
 20
8.1671319727
 30
0.0
 10
7.8903663265
 20
8.1450433441
 30
0.0
 10
7.8906709331
 20
8.1246024746
 30
0.0
 10
7.8904837093
 20
8.106005605
 30
0.0
 10
7.889804256
 20
8.0894344381
 30
0.0
 10
7.8887996122
 20
8.0769762092
 30
0.0
 10
7.8877148788
 20
8.0681524381
 30
0.0
 10
7.8868189424
 20
8.0624102265
 30
0.0
 10
7.8858066169
 20
8.057274178
 30
0.0
 10
7.8846892984
 20
8.0527743162
 30
0.0
 10
7.8834390172
 20
8.048866332
 30
0.0
 10
7.8814075984
 20
8.0438970967
 30
0.0
 10
7.8785086119
 20
8.0396112773
 30
0.0
 10
7.8755303989
 20
8.0392117367
 30
0.0
  0
ENDSEC
  0
SECTION
  2
OBJECTS
  0
DICTIONARY
  5
C
100
AcDbDictionary
280
0
281
1
  3
ACAD_GROUP
350
D
  3
ACAD_MLINESTYLE
350
17
  3
ACAD_LAYOUT
350
1A
  3
ACAD_PLOTSETTINGS
350
19
  3
ACAD_PLOTSTYLENAME
350
E
  0
DICTIONARY
  5
D
102
{ACAD_REACTORS
330
C
102
}
100
AcDbDictionary
280
0
281
1
  0
ACDBDICTIONARYWDFLT
  5
E
102
{ACAD_REACTORS
330
C
102
}
100
AcDbDictionary
281
1
  3
Normal
350
F
100
AcDbDictionaryWithDefault
340
F
  0
DICTIONARY
  5
17
102
{ACAD_REACTORS
330
C
102
}
100
AcDbDictionary
280
0
281
1
  3
Standard
350
18
  0
DICTIONARY
  5
19
102
{ACAD_REACTORS
330
C
102
}
100
AcDbDictionary
281
1
  0
DICTIONARY
  5
1A
102
{ACAD_REACTORS
330
C
102
}
100
AcDbDictionary
281
1
  3
Model
350
54F
  3
Layout1
350
550
  0
ACDBPLACEHOLDER
  5
F
102
{ACAD_REACTORS
330
E
102
}
  0
MLINESTYLE
  5
18
102
{ACAD_REACTORS
330
17
102
}
100
AcDbMlineStyle
  2
STANDARD
 70
0
  3

 62
256
 51
90.0
 52
90.0
 71
2
 49
0.5
 62
256
  6
BYLAYER
 49
-0.5
 62
256
  6
BYLAYER
  0
LAYOUT
  5
54F
102
{ACAD_REACTORS
330
1A
102
}
100
AcDbPlotSettings
  1

  2
none_device
  4
ANSI_C_(22.00_x_17.00_Inches)
  6

 40
0.0
 41
0.0
 42
0.0
 43
0.0
 44
558.8
 45
431.8
 46
0.0
 47
0.0
 48
0.0
 49
0.0
140
0.0
141
0.0
142
1.0
143
1.0
 70
1024
 72
0
 73
0
 74
0
  7

 75
0
147
1.0
148
0.0
149
0.0
100
AcDbLayout
  1
Model
 70
0
 71
0
 10
0.0
 20
0.0
 11
22.0
 21
17.0
 12
0.0
 22
0.0
 32
0.0
 14
0.0
 24
0.0
 34
0.0
 15
0.0
 25
0.0
 35
0.0
146
0.0
 13
0.0
 23
0.0
 33
0.0
 16
1.0
 26
0.0
 36
0.0
 17
0.0
 27
1.0
 37
0.0
 76
0
330
202
345
0
346
0
  0
LAYOUT
  5
550
102
{ACAD_REACTORS
330
1A
102
}
100
AcDbPlotSettings
  1

  2
none_device
  4
ANSI_C_(22.00_x_17.00_Inches)
  6

 40
0.0
 41
0.0
 42
0.0
 43
0.0
 44
558.8
 45
431.8
 46
0.0
 47
0.0
 48
0.0
 49
0.0
140
0.0
141
0.0
142
1.0
143
1.0
 70
0
 72
0
 73
0
 74
0
  7

 75
0
147
1.0
148
0.0
149
0.0
100
AcDbLayout
  1
Layout1
 70
0
 71
1
 10
0.0
 20
0.0
 11
22.0
 21
17.0
 12
0.0
 22
0.0
 32
0.0
 14
0.0
 24
0.0
 34
0.0
 15
0.0
 25
0.0
 35
0.0
146
0.0
 13
0.0
 23
0.0
 33
0.0
 16
1.0
 26
0.0
 36
0.0
 17
0.0
 27
1.0
 37
0.0
 76
0
330
203
345
0
346
0
  0
ENDSEC
  0
EOF
