999
DXF file: 280j_top.dxf
999
Pro/ENGINEER 2019352 by Parametric Technology Corporation
  0
SECTION
  2
HEADER
  9
$ACADVER
  1
AC1032
  9
$DWGCODEPAGE
  3
ANSI_1252
  9
$EXTMAX
 10
11.0
 20
8.5
 30
0.0
  9
$EXTMIN
 10
0.0
 20
0.0
 30
0.0
  9
$LIMMIN
 10
0.0
 20
0.0
  9
$LIMMAX
 10
11.0
 20
8.5
  9
$VIEWCTR
 10
5.5
 20
4.25
  9
$VIEWSIZE
 40
8.5
  9
$CLAYER
  8
0
  9
$LTSCALE
 40
0.605
  9
$CELTYPE
  6
BYLAYER
  9
$DIMSCALE
 40
1.0
  9
$DIMASZ
 40
0.1
  9
$DIMEXO
 40
0.0625
  9
$DIMDLI
 40
0.418
  9
$DIMEXE
 40
0.125
  9
$DIMCEN
 40
0.099
  9
$DIMLFAC
 40
1.0
  9
$DIMBLK
  1
_FILLED
  9
$DIMALT
 70
1
  9
$DIMALTD
 70
2
  9
$DIMALTTD
 70
2
  9
$DIMALTF
 40
25.4
  9
$DIMTXT
 40
0.08
  9
$DIMTOL
 70
1
  9
$DIMLIM
 70
0
  9
$DIMTFAC
 40
1.0
  9
$DIMTP
 40
0.001
  9
$DIMTM
 40
0.001
  9
$DIMGAP
 40
0.09
  9
$DIMDSEP
 70
46
  9
$AUNITS
 70
0
  9
$PDMODE
 70
3
  9
$PDSIZE
 40
0.3125
  9
$HANDSEED
  5
323
  9
$TILEMODE
 70
1
  9
$MEASUREMENT
 70
0
  9
$INSUNITS
 70
1
  0
ENDSEC
  0
SECTION
  2
CLASSES
  0
CLASS
  1
ACDBDICTIONARYWDFLT
  2
AcDbDictionaryWithDefault
  3
AutoCAD 2000
 90
0
 91
1
280
0
281
0
  0
CLASS
  1
ACDBPLACEHOLDER
  2
AcDbPlaceHolder
  3
AutoCAD 2000
 90
0
 91
1
280
0
281
0
  0
CLASS
  1
LAYOUT
  2
AcDbLayout
  3
AutoCAD 2000
 90
0
 91
0
280
0
281
0
  0
ENDSEC
  0
SECTION
  2
TABLES
  0
TABLE
  2
VPORT
  5
8
100
AcDbSymbolTable
 70
2
  0
VPORT
  5
1F4
100
AcDbSymbolTableRecord
100
AcDbViewportTableRecord
  2
*ACTIVE
 70
0
 10
0.0
 20
0.0
 11
1.0
 21
1.0
 12
5.5
 22
4.25
 13
0.0
 23
0.0
 14
1.0
 24
1.0
 15
0.0
 25
0.0
 16
0.0
 26
0.0
 36
1.0
 17
0.0
 27
0.0
 37
0.0
 40
8.5
 41
1.2941176471
 42
50.0
 43
0.0
 44
0.0
 50
0.0
 51
0.0
 71
0
 72
100
 73
1
 74
1
 75
0
 76
0
 77
0
 78
0
  0
ENDTAB
  0
TABLE
  2
LTYPE
  5
5
100
AcDbSymbolTable
 70
6
  0
LTYPE
  5
14
100
AcDbSymbolTableRecord
100
AcDbLinetypeTableRecord
  2
BYBLOCK
 70
0
  3

 72
65
 73
0
 40
0.0
  0
LTYPE
  5
15
100
AcDbSymbolTableRecord
100
AcDbLinetypeTableRecord
  2
BYLAYER
 70
0
  3

 72
65
 73
0
 40
0.0
  0
LTYPE
  5
16
100
AcDbSymbolTableRecord
100
AcDbLinetypeTableRecord
  2
CONTINUOUS
 70
64
  3
Solid line
 72
65
 73
0
 40
0.0
  0
LTYPE
  5
1F5
100
AcDbSymbolTableRecord
100
AcDbLinetypeTableRecord
  2
CENTER
 70
64
  3
____ _ ____ _ ____ _ ____ _ ____ _ ____ _ ____
 72
65
 73
4
 40
0.6
 49
0.375
 74
0
 49
-0.075
 74
0
 49
0.075
 74
0
 49
-0.075
 74
0
  0
LTYPE
  5
1F6
100
AcDbSymbolTableRecord
100
AcDbLinetypeTableRecord
  2
HIDDEN
 70
64
  3
- - - - - - - - - - - - - - - - - - - -
 72
65
 73
2
 40
0.2
 49
0.1
 74
0
 49
-0.1
 74
0
  0
LTYPE
  5
1F7
100
AcDbSymbolTableRecord
100
AcDbLinetypeTableRecord
  2
PHANTOM
 70
64
  3
_____ _ _ _____ _ _ _____ _ _ _____
 72
65
 73
6
 40
0.8
 49
0.45
 74
0
 49
-0.05
 74
0
 49
0.1
 74
0
 49
-0.05
 74
0
 49
0.1
 74
0
 49
-0.05
 74
0
  0
LTYPE
  5
1F8
100
AcDbSymbolTableRecord
100
AcDbLinetypeTableRecord
  2
DOT
 70
64
  3
. . . . . . . . . . . . . . . . . . . .
 72
65
 73
2
 40
0.2
 49
0.1
 74
0
 49
-0.1
 74
0
  0
LTYPE
  5
1F9
100
AcDbSymbolTableRecord
100
AcDbLinetypeTableRecord
  2
DASHED
 70
64
  3
- - - - - - - - - - - - - - - - - - - -
 72
65
 73
2
 40
0.2
 49
0.1
 74
0
 49
-0.1
 74
0
  0
ENDTAB
  0
TABLE
  2
LAYER
  5
2
100
AcDbSymbolTable
 70
36
  0
LAYER
  5
10
100
AcDbSymbolTableRecord
100
AcDbLayerTableRecord
  2
0
 70
0
 62
7
  6
CONTINUOUS
370
-3
390
F
  0
LAYER
  5
1FA
100
AcDbSymbolTableRecord
100
AcDbLayerTableRecord
  2
DEFAULT_1
 70
0
 62
7
  6
CENTER
370
-3
390
F
  0
LAYER
  5
1FB
100
AcDbSymbolTableRecord
100
AcDbLayerTableRecord
  2
DEFAULT_2
 70
0
 62
8
  6
HIDDEN
370
-3
390
F
  0
LAYER
  5
1FC
100
AcDbSymbolTableRecord
100
AcDbLayerTableRecord
  2
DEFAULT_3
 70
0
 62
7
  6
PHANTOM
370
-3
390
F
  0
LAYER
  5
1FD
100
AcDbSymbolTableRecord
100
AcDbLayerTableRecord
  2
DEFAULT_COORDINATE_SYSTEM
 70
0
 62
7
  6
CONTINUOUS
370
-3
390
F
  0
LAYER
  5
1FE
100
AcDbSymbolTableRecord
100
AcDbLayerTableRecord
  2
DEFAULT_DATUM_AXES
 70
0
 62
7
  6
CONTINUOUS
370
-3
390
F
  0
LAYER
  5
1FF
100
AcDbSymbolTableRecord
100
AcDbLayerTableRecord
  2
DEFAULT_DATUM_PLANES
 70
0
 62
7
  6
CONTINUOUS
370
-3
390
F
  0
ENDTAB
  0
TABLE
  2
STYLE
  5
3
100
AcDbSymbolTable
 70
1
  0
STYLE
  5
11
100
AcDbSymbolTableRecord
100
AcDbTextStyleTableRecord
  2
STANDARD
 70
0
 40
0.0
 41
0.8
 50
0.0
 71
0
 42
0.2
  3
txt
  4

  0
STYLE
  5
200
100
AcDbSymbolTableRecord
100
AcDbTextStyleTableRecord
  2
TEXTSTYLE_1
 70
0
 40
0.0
 41
0.8
 50
0.0
 71
0
 42
0.2
  3
gdt
  4

  0
ENDTAB
  0
TABLE
  2
VIEW
  5
6
100
AcDbSymbolTable
 70
0
  0
ENDTAB
  0
TABLE
  2
UCS
  5
7
100
AcDbSymbolTable
 70
0
  0
ENDTAB
  0
TABLE
  2
APPID
  5
9
100
AcDbSymbolTable
 70
1
  0
APPID
  5
201
100
AcDbSymbolTableRecord
100
AcDbRegAppTableRecord
  2
ACAD
 70
0
  0
ENDTAB
  0
TABLE
  2
BLOCK_RECORD
  5
1
100
AcDbSymbolTable
 70
0
  0
BLOCK_RECORD
  5
202
100
AcDbSymbolTableRecord
100
AcDbBlockTableRecord
  2
*Model_Space
  0
BLOCK_RECORD
  5
203
100
AcDbSymbolTableRecord
100
AcDbBlockTableRecord
  2
*Paper_Space
  0
BLOCK_RECORD
  5
204
100
AcDbSymbolTableRecord
100
AcDbBlockTableRecord
  2
_FILLED
  0
ENDTAB
  0
TABLE
  2
DIMSTYLE
  5
A
100
AcDbSymbolTable
 70
1
100
AcDbDimStyleTable
 71
0
  0
DIMSTYLE
105
205
100
AcDbSymbolTableRecord
100
AcDbDimStyleTableRecord
  2
STANDARD
 70
0
  3

  4

 40
1.0
 41
0.1
 42
0.0625
 43
0.38
 44
0.125
 45
0.0
 46
0.0
 47
0.001
 48
0.001
140
0.08
141
0.09
142
0.0
143
25.4
144
1.0
145
0.0
146
1.0
147
0.09
 71
1.0
 72
0.0
 73
1
 74
1
 75
0
 76
0
 77
0
 78
4
 79
1
170
1
171
2
172
0
173
0
174
0
175
0
176
0
177
0
178
0
270
2
179
3
271
3
272
3
273
2
274
2
275
0
280
0
281
0
282
0
283
1
284
4
285
0
286
0
287
3
288
0
340
11
278
46
341
204
342
204
343
204
344
204
  0
ENDTAB
  0
ENDSEC
  0
SECTION
  2
BLOCKS
  0
BLOCK
  5
20
100
AcDbEntity
  8
0
100
AcDbBlockBegin
  2
*Model_Space
 70
0
 10
0.0
 20
0.0
 30
0.0
  3
*Model_Space
  1

  0
ENDBLK
  5
21
100
AcDbEntity
  8
0
100
AcDbBlockEnd
  0
BLOCK
  5
1C
100
AcDbEntity
  8
0
100
AcDbBlockBegin
  2
*Paper_Space
 70
0
 10
0.0
 20
0.0
 30
0.0
  3
*Paper_Space
  1

  0
ENDBLK
  5
1D
100
AcDbEntity
  8
0
100
AcDbBlockEnd
  0
BLOCK
  5
206
100
AcDbEntity
  8
0
100
AcDbBlockBegin
  2
_FILLED
 70
64
 10
0.0
 20
0.0
  3
_FILLED
  1

  0
SOLID
  5
207
100
AcDbEntity
  8
0
  6
BYBLOCK
 62
0
100
AcDbTrace
 10
0.0
 20
0.0
 11
-1.0
 21
0.2
 12
-1.0
 22
-0.2
 13
-1.0
 23
-0.2
  0
ENDBLK
  5
208
100
AcDbEntity
  8
0
  6
BYBLOCK
 62
0
100
AcDbBlockEnd
  0
ENDSEC
  0
SECTION
  2
ENTITIES
  0
MTEXT
  5
209
100
AcDbEntity
  8
0
100
AcDbMText
 62
2
  6
CONTINUOUS
  7
STANDARD
 71
3
 72
1
 10
5.0545698714
 20
3.7474019004
 30
0.0
 11
1.0
 21
0.0
 31
0.0
 73
2
 44
0.9
  1
SCALE 0.250
 40
0.08
 41
0.704
  0
LINE
  5
20A
100
AcDbEntity
  8
0
100
AcDbLine
 62
7
  6
CONTINUOUS
 10
0.0
 20
0.0
 11
0.0
 21
8.5
  0
LINE
  5
20B
100
AcDbEntity
  8
0
100
AcDbLine
 62
7
  6
CONTINUOUS
 10
0.0
 20
0.0
 11
11.0
 21
0.0
  0
LINE
  5
20C
100
AcDbEntity
  8
0
100
AcDbLine
 62
7
  6
CONTINUOUS
 10
0.0
 20
8.5
 11
11.0
 21
8.5
  0
LINE
  5
20D
100
AcDbEntity
  8
0
100
AcDbLine
 62
7
  6
CONTINUOUS
 10
11.0
 20
0.0
 11
11.0
 21
8.5
  0
LINE
  5
20E
100
AcDbEntity
  8
0
100
AcDbLine
 62
7
  6
CONTINUOUS
 10
3.2703308048
 20
3.9899012726
 11
3.2703308048
 21
4.377740635
  0
LINE
  5
20F
100
AcDbEntity
  8
0
100
AcDbLine
 62
7
  6
CONTINUOUS
 10
3.2828308048
 20
3.9774012726
 11
3.2828308048
 21
4.3893304332
  0
LINE
  5
210
100
AcDbEntity
  8
0
100
AcDbLine
 62
7
  6
CONTINUOUS
 10
3.289509737
 20
4.0802550353
 11
3.289509737
 21
4.0176701251
  0
LINE
  5
211
100
AcDbEntity
  8
0
100
AcDbLine
 62
7
  6
CONTINUOUS
 10
3.2903308048
 20
4.3930501845
 11
3.2903308048
 21
4.3921399827
  0
LINE
  5
212
100
AcDbEntity
  8
0
100
AcDbLine
 62
7
  6
CONTINUOUS
 10
3.2965808048
 20
4.0783820023
 11
3.2965808048
 21
4.0157970921
  0
LINE
  5
213
100
AcDbEntity
  8
0
100
AcDbLine
 62
7
  6
CONTINUOUS
 10
3.3178308048
 20
3.9960944352
 11
3.3178308048
 21
3.9914039847
  0
LINE
  5
214
100
AcDbEntity
  8
0
100
AcDbLine
 62
7
  6
CONTINUOUS
 10
3.3178308048
 20
4.0980846592
 11
3.3178308048
 21
4.1065138721
  0
LINE
  5
215
100
AcDbEntity
  8
0
100
AcDbLine
 62
7
  6
CONTINUOUS
 10
3.3797058048
 20
4.3930501845
 11
3.3797058048
 21
4.6199051887
  0
LINE
  5
216
100
AcDbEntity
  8
0
100
AcDbLine
 62
7
  6
CONTINUOUS
 10
3.3872058048
 20
4.3930501845
 11
3.3872058048
 21
4.6274051887
  0
LINE
  5
217
100
AcDbEntity
  8
0
100
AcDbLine
 62
7
  6
CONTINUOUS
 10
3.492678937
 20
4.3930501845
 11
3.492678937
 21
4.3921399827
  0
LINE
  5
218
100
AcDbEntity
  8
0
100
AcDbLine
 62
7
  6
CONTINUOUS
 10
3.5792326726
 20
4.3930501845
 11
3.5792326726
 21
4.3921399827
  0
LINE
  5
219
100
AcDbEntity
  8
0
100
AcDbLine
 62
7
  6
CONTINUOUS
 10
3.6847058048
 20
4.3930501845
 11
3.6847058048
 21
4.6274051887
  0
LINE
  5
21A
100
AcDbEntity
  8
0
100
AcDbLine
 62
7
  6
CONTINUOUS
 10
3.6922058048
 20
4.3930501845
 11
3.6922058048
 21
4.6199051887
  0
LINE
  5
21B
100
AcDbEntity
  8
0
100
AcDbLine
 62
7
  6
CONTINUOUS
 10
3.7540808048
 20
3.9960944352
 11
3.7540808048
 21
3.9914039847
  0
LINE
  5
21C
100
AcDbEntity
  8
0
100
AcDbLine
 62
7
  6
CONTINUOUS
 10
3.7540808048
 20
4.0980846592
 11
3.7540808048
 21
4.1065138721
  0
LINE
  5
21D
100
AcDbEntity
  8
0
100
AcDbLine
 62
7
  6
CONTINUOUS
 10
3.7753308048
 20
4.0157970921
 11
3.7753308048
 21
4.0783820023
  0
LINE
  5
21E
100
AcDbEntity
  8
0
100
AcDbLine
 62
7
  6
CONTINUOUS
 10
3.7815808048
 20
4.3930501845
 11
3.7815808048
 21
4.3921399827
  0
LINE
  5
21F
100
AcDbEntity
  8
0
100
AcDbLine
 62
7
  6
CONTINUOUS
 10
3.7824018726
 20
4.0176701251
 11
3.7824018726
 21
4.0802550353
  0
LINE
  5
220
100
AcDbEntity
  8
0
100
AcDbLine
 62
7
  6
CONTINUOUS
 10
3.7890808048
 20
3.9774012726
 11
3.7890808048
 21
4.3893304332
  0
LINE
  5
221
100
AcDbEntity
  8
0
100
AcDbLine
 62
7
  6
CONTINUOUS
 10
3.8015808048
 20
4.377740635
 11
3.8015808048
 21
3.9899012726
  0
LINE
  5
222
100
AcDbEntity
  8
0
100
AcDbLine
 62
7
  6
CONTINUOUS
 10
4.8172058048
 20
4.6274051887
 11
4.8172058048
 21
4.5549051887
  0
LWPOLYLINE
  5
223
100
AcDbEntity
  8
0
100
AcDbPolyline
 62
7
  6
CONTINUOUS
 90
155
 70
0
 10
6.7764872372
 20
4.2328135739
 10
6.7767947605
 20
4.2328481485
 10
6.7771058888
 20
4.2328845294
 10
6.7774207658
 20
4.2329227858
 10
6.7777390641
 20
4.2329629296
 10
6.778060695
 20
4.2330049995
 10
6.7783857229
 20
4.2330490543
 10
6.7787140486
 20
4.2330951315
 10
6.7790456552
 20
4.2331432796
 10
6.7793805318
 20
4.2331935484
 10
6.7797185863
 20
4.2332459756
 10
6.7800597754
 20
4.2333006057
 10
6.7804041111
 20
4.2333574925
 10
6.7807515847
 20
4.2334166872
 10
6.7811020791
 20
4.2334782224
 10
6.7814556763
 20
4.2335421655
 10
6.7818126636
 20
4.2336086253
 10
6.7821729924
 20
4.2336776527
 10
6.7825366704
 20
4.2337493095
 10
6.7829040659
 20
4.2338237328
 10
6.783275147
 20
4.2339009849
 10
6.7836498975
 20
4.2339811317
 10
6.7840287049
 20
4.2340643301
 10
6.7844115546
 20
4.2341506554
 10
6.7847984044
 20
4.2342401777
 10
6.7851895957
 20
4.2343330601
 10
6.7855852609
 20
4.2344294238
 10
6.7859852006
 20
4.2345293115
 10
6.7863892565
 20
4.2346327735
 10
6.7867974936
 20
4.2347399172
 10
6.7872097737
 20
4.2348507983
 10
6.7876256348
 20
4.2349653805
 10
6.7880450389
 20
4.2350837384
 10
6.7884679479
 20
4.235205947
 10
6.7888939017
 20
4.2353319559
 10
6.7893228518
 20
4.2354618301
 10
6.7897547684
 20
4.2355956403
 10
6.7901892219
 20
4.2357333302
 10
6.7906260946
 20
4.2358749351
 10
6.7910654244
 20
4.2360205405
 10
6.7915070171
 20
4.2361701551
 10
6.7919507905
 20
4.2363238228
 10
6.792396743
 20
4.2364816155
 10
6.7928448004
 20
4.2366435799
 10
6.7932949174
 20
4.2368097734
 10
6.7937470498
 20
4.2369802537
 10
6.7942011248
 20
4.2371550681
 10
6.7946570948
 20
4.2373342733
 10
6.7951149123
 20
4.2375179263
 10
6.7955745031
 20
4.2377060736
 10
6.7960358171
 20
4.2378987712
 10
6.7964988036
 20
4.2380960754
 10
6.7969633863
 20
4.2382980315
 10
6.7974295125
 20
4.2385046946
 10
6.7978971281
 20
4.23871612
 10
6.7983661546
 20
4.2389323515
 10
6.7988365361
 20
4.2391534434
 10
6.7993082157
 20
4.2393794494
 10
6.7997811119
 20
4.2396104119
 10
6.8002551644
 20
4.239846383
 10
6.8007303147
 20
4.240087416
 10
6.8012064826
 20
4.2403335533
 10
6.801683541
 20
4.2405848117
 10
6.8021614925
 20
4.2408412761
 10
6.8026404487
 20
4.2411030943
 10
6.8031202525
 20
4.2413702706
 10
6.8036009254
 20
4.241642908
 10
6.804082837
 20
4.2419213166
 10
6.8045659031
 20
4.2422055563
 10
6.8050500515
 20
4.2424956942
 10
6.8055356545
 20
4.2427920722
 10
6.8060226231
 20
4.2430947637
 10
6.8065108668
 20
4.2434038419
 10
6.8070007388
 20
4.2437196693
 10
6.8074921374
 20
4.2440423292
 10
6.8079849589
 20
4.2443719043
 10
6.8084795355
 20
4.2447087779
 10
6.8089757668
 20
4.2450530537
 10
6.8094735185
 20
4.2454048133
 10
6.8099730537
 20
4.2457644274
 10
6.8104743202
 20
4.2461320555
 10
6.8109771038
 20
4.2465077405
 10
6.8114814095
 20
4.2468916913
 10
6.8119871194
 20
4.2472840299
 10
6.8124940614
 20
4.2476848385
 10
6.8130021514
 20
4.2480942706
 10
6.8135112351
 20
4.2485124271
 10
6.814021155
 20
4.2489394081
 10
6.8145318138
 20
4.2493753671
 10
6.8150430459
 20
4.2498204031
 10
6.8155546819
 20
4.2502746138
 10
6.8160666114
 20
4.2507381519
 10
6.8165786598
 20
4.2512111171
 10
6.8170906423
 20
4.2516936006
 10
6.8176024243
 20
4.2521857439
 10
6.8181138238
 20
4.2526876474
 10
6.8186246389
 20
4.2531993934
 10
6.8191346966
 20
4.253721095
 10
6.8196437962
 20
4.25425284
 10
6.820151731
 20
4.2547947113
 10
6.8206583118
 20
4.2553468124
 10
6.8211633249
 20
4.255909223
 10
6.8216665528
 20
4.2564820199
 10
6.8221677937
 20
4.2570652997
 10
6.822666822
 20
4.257659134
 10
6.8231634081
 20
4.2582635912
 10
6.8236573374
 20
4.25887876
 10
6.8241483699
 20
4.2595046995
 10
6.8246362664
 20
4.2601414717
 10
6.8251208065
 20
4.2607891653
 10
6.825601713
 20
4.2614477947
 10
6.82607876
 20
4.2621174454
 10
6.8265517924
 20
4.2627983106
 10
6.8270205268
 20
4.2634904087
 10
6.8274847103
 20
4.2641938037
 10
6.8279442145
 20
4.2649087598
 10
6.828398753
 20
4.2656353117
 10
6.8288480357
 20
4.2663734899
 10
6.8292919066
 20
4.2671235555
 10
6.8297300587
 20
4.2678855333
 10
6.8301621812
 20
4.2686594422
 10
6.8305880879
 20
4.2694455367
 10
6.8310074508
 20
4.2702438287
 10
6.8314199374
 20
4.2710543238
 10
6.8318253308
 20
4.2718772673
 10
6.8322232699
 20
4.2727126329
 10
6.8326134122
 20
4.2735604331
 10
6.8329955394
 20
4.2744209718
 10
6.8333692465
 20
4.2752941585
 10
6.8337341856
 20
4.2761800354
 10
6.8340901832
 20
4.277079108
 10
6.8344368241
 20
4.2779913271
 10
6.834773699
 20
4.2789166605
 10
6.8351005899
 20
4.279855644
 10
6.8354170482
 20
4.2808082214
 10
6.8357226207
 20
4.2817743259
 10
6.8360170249
 20
4.2827544782
 10
6.8362997722
 20
4.2837485969
 10
6.8365703694
 20
4.2847565879
 10
6.8368284668
 20
4.2857789506
 10
6.8370735347
 20
4.2868155722
 10
6.8373050386
 20
4.2878663256
 10
6.8375225594
 20
4.2889316815
 10
6.8377255253
 20
4.2900114889
 10
6.8379133596
 20
4.2911055808
 10
6.8380855725
 20
4.292214391
 10
6.8382415494
 20
4.2933377231
 10
6.8383806715
 20
4.2944753625
 10
6.8385023767
 20
4.2956276969
 10
6.8386060083
 20
4.2967944764
 10
6.838690906
 20
4.2979754304
 10
6.8387564351
 20
4.2991708902
 10
6.8388019039
 20
4.3003807512
 10
6.8388265985
 20
4.3016044699
 10
6.8388311773
 20
4.3024051887
  0
LINE
  5
224
100
AcDbEntity
  8
0
100
AcDbLine
 62
7
  6
CONTINUOUS
 10
6.7758842903
 20
4.2327497723
 11
6.7764872372
 21
4.2328135739
  0
LINE
  5
225
100
AcDbEntity
  8
0
100
AcDbLine
 62
7
  6
CONTINUOUS
 10
6.7752990572
 20
4.2326928834
 11
6.7758842903
 21
4.2327497723
  0
LINE
  5
226
100
AcDbEntity
  8
0
100
AcDbLine
 62
7
  6
CONTINUOUS
 10
3.7890808048
 20
3.9774012726
 11
3.2828308048
 21
3.9774012726
  0
LINE
  5
227
100
AcDbEntity
  8
0
100
AcDbLine
 62
7
  6
CONTINUOUS
 10
3.7890808048
 20
3.9852186902
 11
3.2828308048
 21
3.9852186902
  0
LINE
  5
228
100
AcDbEntity
  8
0
100
AcDbLine
 62
7
  6
CONTINUOUS
 10
3.3178308048
 20
3.9914039847
 11
3.7540808048
 21
3.9914039847
  0
LINE
  5
229
100
AcDbEntity
  8
0
100
AcDbLine
 62
7
  6
CONTINUOUS
 10
3.3178308048
 20
3.9960944352
 11
3.7540808048
 21
3.9960944352
  0
LINE
  5
22A
100
AcDbEntity
  8
0
100
AcDbLine
 62
7
  6
CONTINUOUS
 10
4.9109558048
 20
4.5499051887
 11
4.9109558048
 21
4.3024051887
  0
LINE
  5
22B
100
AcDbEntity
  8
0
100
AcDbLine
 62
7
  6
CONTINUOUS
 10
6.7747367377
 20
4.2326428848
 11
6.7752990572
 21
4.2326928834
  0
LINE
  5
22C
100
AcDbEntity
  8
0
100
AcDbLine
 62
7
  6
CONTINUOUS
 10
6.7742015966
 20
4.2325995357
 11
6.7747367377
 21
4.2326428848
  0
LINE
  5
22D
100
AcDbEntity
  8
0
100
AcDbLine
 62
7
  6
CONTINUOUS
 10
6.7737022333
 20
4.2325627993
 11
6.7742015966
 21
4.2325995357
  0
LINE
  5
22E
100
AcDbEntity
  8
0
100
AcDbLine
 62
7
  6
CONTINUOUS
 10
6.7732443932
 20
4.2325322616
 11
6.7737022333
 21
4.2325627993
  0
LINE
  5
22F
100
AcDbEntity
  8
0
100
AcDbLine
 62
7
  6
CONTINUOUS
 10
6.7728296359
 20
4.2325071883
 11
6.7732443932
 21
4.2325322616
  0
LINE
  5
230
100
AcDbEntity
  8
0
100
AcDbLine
 62
7
  6
CONTINUOUS
 10
6.7724575354
 20
4.2324867848
 11
6.7728296359
 21
4.2325071883
  0
LINE
  5
231
100
AcDbEntity
  8
0
100
AcDbLine
 62
7
  6
CONTINUOUS
 10
6.7721206529
 20
4.2324700142
 11
6.7724575354
 21
4.2324867848
  0
LINE
  5
232
100
AcDbEntity
  8
0
100
AcDbLine
 62
7
  6
CONTINUOUS
 10
6.2859691725
 20
4.2324057764
 11
6.285955805
 21
4.2324051887
  0
LINE
  5
233
100
AcDbEntity
  8
0
100
AcDbLine
 62
7
  6
CONTINUOUS
 10
6.7716706992
 20
4.2324501295
 11
6.7721206529
 21
4.2324700142
  0
LINE
  5
234
100
AcDbEntity
  8
0
100
AcDbLine
 62
7
  6
CONTINUOUS
 10
6.7712709896
 20
4.2324348673
 11
6.7716706992
 21
4.2324501295
  0
LINE
  5
235
100
AcDbEntity
  8
0
100
AcDbLine
 62
7
  6
CONTINUOUS
 10
6.7709146116
 20
4.2324231537
 11
6.7712709896
 21
4.2324348673
  0
LINE
  5
236
100
AcDbEntity
  8
0
100
AcDbLine
 62
7
  6
CONTINUOUS
 10
6.7705103192
 20
4.2324120067
 11
6.7709146116
 21
4.2324231537
  0
LINE
  5
237
100
AcDbEntity
  8
0
100
AcDbLine
 62
7
  6
CONTINUOUS
 10
6.7701808556
 20
4.2324045821
 11
6.7705103192
 21
4.2324120067
  0
LINE
  5
238
100
AcDbEntity
  8
0
100
AcDbLine
 62
7
  6
CONTINUOUS
 10
3.7540808048
 20
4.0980846592
 11
3.3178308048
 21
4.0980846592
  0
LINE
  5
239
100
AcDbEntity
  8
0
100
AcDbLine
 62
7
  6
CONTINUOUS
 10
3.7540808048
 20
4.1065138721
 11
3.3178308048
 21
4.1065138721
  0
LINE
  5
23A
100
AcDbEntity
  8
0
100
AcDbLine
 62
7
  6
CONTINUOUS
 10
3.7890808048
 20
4.1127064702
 11
3.2828308048
 21
4.1127064702
  0
LINE
  5
23B
100
AcDbEntity
  8
0
100
AcDbLine
 62
7
  6
CONTINUOUS
 10
3.7890808048
 20
4.1289788508
 11
3.2828308048
 21
4.1289788508
  0
LINE
  5
23C
100
AcDbEntity
  8
0
100
AcDbLine
 62
7
  6
CONTINUOUS
 10
6.7697897274
 20
4.2323976535
 11
6.7701808556
 21
4.2324045821
  0
LINE
  5
23D
100
AcDbEntity
  8
0
100
AcDbLine
 62
7
  6
CONTINUOUS
 10
6.7693876403
 20
4.2323925672
 11
6.7697897274
 21
4.2323976535
  0
LWPOLYLINE
  5
23E
100
AcDbEntity
  8
0
100
AcDbPolyline
 62
7
  6
CONTINUOUS
 90
3
 70
0
 10
6.7677967763
 20
4.2324017606
 10
6.7678615123
 20
4.2324023252
 10
6.7679555287
 20
4.2324021427
  0
LINE
  5
23F
100
AcDbEntity
  8
0
100
AcDbLine
 62
7
  6
CONTINUOUS
 10
6.7689534627
 20
4.2323891846
 11
6.7693876403
 21
4.2323925672
  0
LINE
  5
240
100
AcDbEntity
  8
0
100
AcDbLine
 62
7
  6
CONTINUOUS
 10
6.2859691726
 20
4.2324052659
 11
6.285955805
 21
4.2324051931
  0
LINE
  5
241
100
AcDbEntity
  8
0
100
AcDbLine
 62
7
  6
CONTINUOUS
 10
6.7159728366
 20
4.2324187784
 11
6.7188205491
 21
4.2324253248
  0
LINE
  5
242
100
AcDbEntity
  8
0
100
AcDbLine
 62
7
  6
CONTINUOUS
 10
6.7144897677
 20
4.232415484
 11
6.7159728366
 21
4.2324187784
  0
LINE
  5
243
100
AcDbEntity
  8
0
100
AcDbLine
 62
7
  6
CONTINUOUS
 10
6.7188205491
 20
4.2324253248
 11
6.7201867806
 21
4.2324283515
  0
LWPOLYLINE
  5
244
100
AcDbEntity
  8
0
100
AcDbPolyline
 62
7
  6
CONTINUOUS
 90
3
 70
0
 10
6.7574186324
 20
4.2323951141
 10
6.7575705904
 20
4.2323954325
 10
6.7577208595
 20
4.2323957521
  0
LINE
  5
245
100
AcDbEntity
  8
0
100
AcDbLine
 62
7
  6
CONTINUOUS
 10
6.7201867806
 20
4.2324283515
 11
6.7215156525
 21
4.2324310959
  0
LWPOLYLINE
  5
246
100
AcDbEntity
  8
0
100
AcDbPolyline
 62
7
  6
CONTINUOUS
 90
4
 70
0
 10
6.75679369
 20
4.2323938614
 10
6.7569525147
 20
4.2323941705
 10
6.7571096055
 20
4.2323944826
 10
6.7574186324
 20
4.2323951141
  0
LINE
  5
247
100
AcDbEntity
  8
0
100
AcDbLine
 62
7
  6
CONTINUOUS
 10
6.6606381025
 20
4.2324148695
 11
6.667527766
 21
4.2324291289
  0
LINE
  5
248
100
AcDbEntity
  8
0
100
AcDbLine
 62
7
  6
CONTINUOUS
 10
6.7121889033
 20
4.2324109146
 11
6.7144897677
 21
4.232415484
  0
LWPOLYLINE
  5
249
100
AcDbEntity
  8
0
100
AcDbPolyline
 62
7
  6
CONTINUOUS
 90
4
 70
0
 10
6.7561408224
 20
4.2323926662
 10
6.7563066985
 20
4.2323929578
 10
6.7564707939
 20
4.2323932546
 10
6.75679369
 20
4.2323938614
  0
LINE
  5
24A
100
AcDbEntity
  8
0
100
AcDbLine
 62
7
  6
CONTINUOUS
 10
6.667527766
 20
4.2324291289
 11
6.6701357373
 21
4.2324340799
  0
LWPOLYLINE
  5
24B
100
AcDbEntity
  8
0
100
AcDbPolyline
 62
7
  6
CONTINUOUS
 90
3
 70
0
 10
6.7556323871
 20
4.2323918274
 10
6.7558036793
 20
4.2323921004
 10
6.7561408224
 20
4.2323926662
  0
LINE
  5
24C
100
AcDbEntity
  8
0
100
AcDbLine
 62
7
  6
CONTINUOUS
 10
6.7552842991
 20
4.2323913036
 11
6.7556323871
 21
4.2323918274
  0
LINE
  5
24D
100
AcDbEntity
  8
0
100
AcDbLine
 62
7
  6
CONTINUOUS
 10
6.7215156525
 20
4.2324310959
 11
6.7240647366
 21
4.2324354884
  0
LWPOLYLINE
  5
24E
100
AcDbEntity
  8
0
100
AcDbPolyline
 62
7
  6
CONTINUOUS
 90
3
 70
0
 10
6.7547482118
 20
4.2323905823
 10
6.754928786
 20
4.2323908134
 10
6.7552842991
 20
4.2323913036
  0
LINE
  5
24F
100
AcDbEntity
  8
0
100
AcDbLine
 62
7
  6
CONTINUOUS
 10
6.7543813622
 20
4.2323901508
 11
6.7547482118
 21
4.2323905823
  0
LINE
  5
250
100
AcDbEntity
  8
0
100
AcDbLine
 62
7
  6
CONTINUOUS
 10
6.7684071264
 20
4.2323874923
 11
6.7689534627
 21
4.2323891846
  0
LINE
  5
251
100
AcDbEntity
  8
0
100
AcDbLine
 62
7
  6
CONTINUOUS
 10
6.7216347595
 20
4.2323907249
 11
6.7299554705
 21
4.2323992153
  0
LINE
  5
252
100
AcDbEntity
  8
0
100
AcDbLine
 62
7
  6
CONTINUOUS
 10
6.7299554705
 20
4.2323992153
 11
6.7325265892
 21
4.2324017049
  0
LWPOLYLINE
  5
253
100
AcDbEntity
  8
0
100
AcDbPolyline
 62
7
  6
CONTINUOUS
 90
3
 70
0
 10
6.7538166264
 20
4.2323895892
 10
6.7540068179
 20
4.2323897642
 10
6.7543813622
 20
4.2323901508
  0
LINE
  5
254
100
AcDbEntity
  8
0
100
AcDbLine
 62
7
  6
CONTINUOUS
 10
6.7534303305
 20
4.2323892787
 11
6.7538166264
 21
4.2323895892
  0
LINE
  5
255
100
AcDbEntity
  8
0
100
AcDbLine
 62
7
  6
CONTINUOUS
 10
6.7123631171
 20
4.232383514
 11
6.7216347595
 21
4.2323907249
  0
LINE
  5
256
100
AcDbEntity
  8
0
100
AcDbLine
 62
7
  6
CONTINUOUS
 10
6.753036057
 20
4.2323890249
 11
6.7534303305
 21
4.2323892787
  0
LINE
  5
257
100
AcDbEntity
  8
0
100
AcDbLine
 62
7
  6
CONTINUOUS
 10
6.7526336867
 20
4.2323888325
 11
6.753036057
 21
4.2323890249
  0
LINE
  5
258
100
AcDbEntity
  8
0
100
AcDbLine
 62
7
  6
CONTINUOUS
 10
6.7522230984
 20
4.2323887063
 11
6.7526336867
 21
4.2323888325
  0
LINE
  5
259
100
AcDbEntity
  8
0
100
AcDbLine
 62
7
  6
CONTINUOUS
 10
6.6446787304
 20
4.2323991074
 11
6.6606381025
 21
4.2324148695
  0
LINE
  5
25A
100
AcDbEntity
  8
0
100
AcDbLine
 62
7
  6
CONTINUOUS
 10
6.7518041702
 20
4.2323886512
 11
6.7522230984
 21
4.2323887063
  0
LINE
  5
25B
100
AcDbEntity
  8
0
100
AcDbLine
 62
7
  6
CONTINUOUS
 10
6.6701357373
 20
4.2324340799
 11
6.6809745954
 21
4.2324447109
  0
LWPOLYLINE
  5
25C
100
AcDbEntity
  8
0
100
AcDbPolyline
 62
7
  6
CONTINUOUS
 90
3
 70
0
 10
6.7532666684
 20
4.2324051181
 10
6.7548619188
 20
4.232405235
 10
6.7563609472
 20
4.2324053713
  0
LINE
  5
25D
100
AcDbEntity
  8
0
100
AcDbLine
 62
7
  6
CONTINUOUS
 10
6.5506326955
 20
4.2323934524
 11
6.6155040707
 21
4.2324094135
  0
LWPOLYLINE
  5
25E
100
AcDbEntity
  8
0
100
AcDbPolyline
 62
7
  6
CONTINUOUS
 90
5
 70
0
 10
6.4466222177
 20
4.2323992365
 10
6.450389743
 20
4.2323993615
 10
6.4541249281
 20
4.2323995908
 10
6.4578290322
 20
4.2323999186
 10
6.4674789967
 20
4.2324011868
  0
LINE
  5
25F
100
AcDbEntity
  8
0
100
AcDbLine
 62
7
  6
CONTINUOUS
 10
6.5476603312
 20
4.2323933791
 11
6.5506326955
 21
4.2323934524
  0
LINE
  5
260
100
AcDbEntity
  8
0
100
AcDbLine
 62
7
  6
CONTINUOUS
 10
3.8015808048
 20
4.2324051887
 11
4.9323995308
 21
4.2324051887
  0
LINE
  5
261
100
AcDbEntity
  8
0
100
AcDbLine
 62
7
  6
CONTINUOUS
 10
5.5637043368
 20
4.2324051887
 11
6.3335702165
 21
4.2324055616
  0
LINE
  5
262
100
AcDbEntity
  8
0
100
AcDbLine
 62
7
  6
CONTINUOUS
 10
6.2965926693
 20
4.2324049754
 11
6.5806626915
 21
4.2324062357
  0
LINE
  5
263
100
AcDbEntity
  8
0
100
AcDbLine
 62
7
  6
CONTINUOUS
 10
6.7325265892
 20
4.2324017049
 11
6.7439700182
 21
4.2324059514
  0
LINE
  5
264
100
AcDbEntity
  8
0
100
AcDbLine
 62
7
  6
CONTINUOUS
 10
6.7513767754
 20
4.2323886719
 11
6.7518041702
 21
4.2323886512
  0
LINE
  5
265
100
AcDbEntity
  8
0
100
AcDbLine
 62
7
  6
CONTINUOUS
 10
6.4115793794
 20
4.2324020717
 11
6.4312232364
 21
4.2323997803
  0
LWPOLYLINE
  5
266
100
AcDbEntity
  8
0
100
AcDbPolyline
 62
7
  6
CONTINUOUS
 90
3
 70
0
 10
6.7479476231
 20
4.2324054094
 10
6.7498099068
 20
4.2324051938
 10
6.7532666684
 20
4.2324051181
  0
LWPOLYLINE
  5
267
100
AcDbEntity
  8
0
100
AcDbPolyline
 62
7
  6
CONTINUOUS
 90
4
 70
0
 10
6.5355052226
 20
4.2323948711
 10
6.5385830851
 20
4.232394251
 10
6.5416350341
 20
4.2323937869
 10
6.5476603312
 20
4.2323933791
  0
LINE
  5
268
100
AcDbEntity
  8
0
100
AcDbLine
 62
7
  6
CONTINUOUS
 10
5.1395120783
 20
4.2324051887
 11
5.2513567081
 21
4.2323982147
  0
LINE
  5
269
100
AcDbEntity
  8
0
100
AcDbLine
 62
7
  6
CONTINUOUS
 10
5.2513567081
 20
4.2323982147
 11
5.5700742277
 21
4.2324060371
  0
LINE
  5
26A
100
AcDbEntity
  8
0
100
AcDbLine
 62
7
  6
CONTINUOUS
 10
6.750940785
 20
4.2323887733
 11
6.7513767754
 21
4.2323886719
  0
LINE
  5
26B
100
AcDbEntity
  8
0
100
AcDbLine
 62
7
  6
CONTINUOUS
 10
6.6869337895
 20
4.2323835093
 11
6.7123631171
 21
4.232383514
  0
LINE
  5
26C
100
AcDbEntity
  8
0
100
AcDbLine
 62
7
  6
CONTINUOUS
 10
6.6155040707
 20
4.2324094135
 11
6.6467777276
 21
4.2324071537
  0
LWPOLYLINE
  5
26D
100
AcDbEntity
  8
0
100
AcDbPolyline
 62
7
  6
CONTINUOUS
 90
3
 70
0
 10
6.621638361
 20
4.2324084847
 10
6.6237085528
 20
4.2324074991
 10
6.6257498489
 20
4.2324064652
  0
LINE
  5
26E
100
AcDbEntity
  8
0
100
AcDbLine
 62
7
  6
CONTINUOUS
 10
6.7504960696
 20
4.2323889602
 11
6.750940785
 21
4.2323887733
  0
LWPOLYLINE
  5
26F
100
AcDbEntity
  8
0
100
AcDbPolyline
 62
7
  6
CONTINUOUS
 90
3
 70
0
 10
6.6317080721
 20
4.232403312
 10
6.6336413538
 20
4.232402329
 10
6.6355480048
 20
4.2324014256
  0
LINE
  5
270
100
AcDbEntity
  8
0
100
AcDbLine
 62
7
  6
CONTINUOUS
 10
6.6257498489
 20
4.2324064652
 11
6.6317080721
 21
4.232403312
  0
LWPOLYLINE
  5
271
100
AcDbEntity
  8
0
100
AcDbPolyline
 62
7
  6
CONTINUOUS
 90
3
 70
0
 10
6.6564039263
 20
4.2324030174
 10
6.6610681539
 20
4.2324002315
 10
6.6656325909
 20
4.2323971979
  0
LWPOLYLINE
  5
272
100
AcDbEntity
  8
0
100
AcDbPolyline
 62
7
  6
CONTINUOUS
 90
4
 70
0
 10
6.6656325909
 20
4.2323971979
 10
6.6744584701
 20
4.2323910366
 10
6.6787201899
 20
4.2323881867
 10
6.6869337895
 20
4.2323835093
  0
LINE
  5
273
100
AcDbEntity
  8
0
100
AcDbLine
 62
7
  6
CONTINUOUS
 10
6.7498123421
 20
4.2323894112
 11
6.7504960696
 21
4.2323889602
  0
LWPOLYLINE
  5
274
100
AcDbEntity
  8
0
100
AcDbPolyline
 62
7
  6
CONTINUOUS
 90
3
 70
0
 10
6.7563609472
 20
4.2324053713
 10
6.762470768
 20
4.2324027887
 10
6.7677967763
 20
4.2324017606
  0
LINE
  5
275
100
AcDbEntity
  8
0
100
AcDbLine
 62
7
  6
CONTINUOUS
 10
6.7493452355
 20
4.2323898324
 11
6.7498123421
 21
4.2323894112
  0
LINE
  5
276
100
AcDbEntity
  8
0
100
AcDbLine
 62
7
  6
CONTINUOUS
 10
6.7488689172
 20
4.2323903554
 11
6.7493452355
 21
4.2323898324
  0
LINE
  5
277
100
AcDbEntity
  8
0
100
AcDbLine
 62
7
  6
CONTINUOUS
 10
6.7240647366
 20
4.2324354884
 11
6.7319407829
 21
4.2324367946
  0
LINE
  5
278
100
AcDbEntity
  8
0
100
AcDbLine
 62
7
  6
CONTINUOUS
 10
6.7481362353
 20
4.2323913412
 11
6.7488689172
 21
4.2323903554
  0
LINE
  5
279
100
AcDbEntity
  8
0
100
AcDbLine
 62
7
  6
CONTINUOUS
 10
6.7678912107
 20
4.2323877858
 11
6.7684071264
 21
4.2323874923
  0
LINE
  5
27A
100
AcDbEntity
  8
0
100
AcDbLine
 62
7
  6
CONTINUOUS
 10
6.6809745954
 20
4.2324447109
 11
6.691602405
 21
4.2324330488
  0
LINE
  5
27B
100
AcDbEntity
  8
0
100
AcDbLine
 62
7
  6
CONTINUOUS
 10
6.6993105594
 20
4.2324151912
 11
6.7121889033
 21
4.2324109146
  0
LWPOLYLINE
  5
27C
100
AcDbEntity
  8
0
100
AcDbPolyline
 62
7
  6
CONTINUOUS
 90
3
 70
0
 10
6.691602405
 20
4.2324330488
 10
6.6945652669
 20
4.2324264709
 10
6.6955331117
 20
4.2324241694
  0
LWPOLYLINE
  5
27D
100
AcDbEntity
  8
0
100
AcDbPolyline
 62
7
  6
CONTINUOUS
 90
3
 70
0
 10
6.6955331117
 20
4.2324241694
 10
6.6974402039
 20
4.2324195731
 10
6.6993105594
 20
4.2324151912
  0
LINE
  5
27E
100
AcDbEntity
  8
0
100
AcDbLine
 62
7
  6
CONTINUOUS
 10
6.767711201
 20
4.232388191
 11
6.7678912107
 21
4.2323877858
  0
LINE
  5
27F
100
AcDbEntity
  8
0
100
AcDbLine
 62
7
  6
CONTINUOUS
 10
6.7319407829
 20
4.2324367946
 11
6.736702442
 21
4.2324260998
  0
LINE
  5
280
100
AcDbEntity
  8
0
100
AcDbLine
 62
7
  6
CONTINUOUS
 10
6.7437318716
 20
4.2324015508
 11
6.7481362353
 21
4.2323913412
  0
LINE
  5
281
100
AcDbEntity
  8
0
100
AcDbLine
 62
7
  6
CONTINUOUS
 10
6.767563284
 20
4.2323886127
 11
6.767711201
 21
4.232388191
  0
LINE
  5
282
100
AcDbEntity
  8
0
100
AcDbLine
 62
7
  6
CONTINUOUS
 10
6.736702442
 20
4.2324260998
 11
6.7379969203
 21
4.2324218706
  0
LINE
  5
283
100
AcDbEntity
  8
0
100
AcDbLine
 62
7
  6
CONTINUOUS
 10
6.7674496985
 20
4.2323889832
 11
6.767563284
 21
4.2323886127
  0
LWPOLYLINE
  5
284
100
AcDbEntity
  8
0
100
AcDbPolyline
 62
7
  6
CONTINUOUS
 90
4
 70
0
 10
6.7379969203
 20
4.2324218706
 10
6.738821065
 20
4.2324189772
 10
6.7392206911
 20
4.2324175329
 10
6.7396116441
 20
4.232416101
  0
LINE
  5
285
100
AcDbEntity
  8
0
100
AcDbLine
 62
7
  6
CONTINUOUS
 10
6.7673725942
 20
4.2323892551
 11
6.7674496985
 21
4.2323889832
  0
LWPOLYLINE
  5
286
100
AcDbEntity
  8
0
100
AcDbPolyline
 62
7
  6
CONTINUOUS
 90
4
 70
0
 10
6.7410915728
 20
4.2324106157
 10
6.7414422923
 20
4.2324093277
 10
6.7417865351
 20
4.2324080789
 10
6.7421242753
 20
4.2324068741
  0
LINE
  5
287
100
AcDbEntity
  8
0
100
AcDbLine
 62
7
  6
CONTINUOUS
 10
6.7396116441
 20
4.232416101
 11
6.7410915728
 21
4.2324106157
  0
LINE
  5
288
100
AcDbEntity
  8
0
100
AcDbLine
 62
7
  6
CONTINUOUS
 10
6.7672943205
 20
4.2323895462
 11
6.7673725942
 21
4.2323892551
  0
LINE
  5
289
100
AcDbEntity
  8
0
100
AcDbLine
 62
7
  6
CONTINUOUS
 10
6.7647734974
 20
4.232401126
 11
6.7648270311
 21
4.2324009174
  0
LINE
  5
28A
100
AcDbEntity
  8
0
100
AcDbLine
 62
7
  6
CONTINUOUS
 10
6.7672148188
 20
4.2323898563
 11
6.7672943205
 21
4.2323895462
  0
LWPOLYLINE
  5
28B
100
AcDbEntity
  8
0
100
AcDbPolyline
 62
7
  6
CONTINUOUS
 90
3
 70
0
 10
6.7648270311
 20
4.2324009174
 10
6.7649481776
 20
4.2324004298
 10
6.765007957
 20
4.2324001819
  0
LINE
  5
28C
100
AcDbEntity
  8
0
100
AcDbLine
 62
7
  6
CONTINUOUS
 10
6.7671340361
 20
4.2323901847
 11
6.7672148188
 21
4.2323898563
  0
LINE
  5
28D
100
AcDbEntity
  8
0
100
AcDbLine
 62
7
  6
CONTINUOUS
 10
6.765007957
 20
4.2324001819
 11
6.7651259494
 21
4.2323996795
  0
LWPOLYLINE
  5
28E
100
AcDbEntity
  8
0
100
AcDbPolyline
 62
7
  6
CONTINUOUS
 90
3
 70
0
 10
6.7670103541
 20
4.2323907104
 10
6.7670519245
 20
4.2323905308
 10
6.7671340361
 20
4.2323901847
  0
LWPOLYLINE
  5
28F
100
AcDbEntity
  8
0
100
AcDbPolyline
 62
7
  6
CONTINUOUS
 90
3
 70
0
 10
6.7651259494
 20
4.2323996795
 10
6.7652418742
 20
4.2323991701
 10
6.7652990693
 20
4.2323989134
  0
LWPOLYLINE
  5
290
100
AcDbEntity
  8
0
100
AcDbPolyline
 62
7
  6
CONTINUOUS
 90
3
 70
0
 10
6.7668835191
 20
4.2323912744
 10
6.7669261576
 20
4.2323910823
 10
6.7670103541
 20
4.2323907104
  0
LWPOLYLINE
  5
291
100
AcDbEntity
  8
0
100
AcDbPolyline
 62
7
  6
CONTINUOUS
 90
4
 70
0
 10
6.7652990693
 20
4.2323989134
 10
6.7654119465
 20
4.2323983973
 10
6.7654676343
 20
4.2323981385
 10
6.7655228269
 20
4.2323978794
  0
LWPOLYLINE
  5
292
100
AcDbEntity
  8
0
100
AcDbPolyline
 62
7
  6
CONTINUOUS
 90
4
 70
0
 10
6.7667092413
 20
4.232392082
 10
6.7667533801
 20
4.2323918744
 10
6.766797136
 20
4.2323916705
 10
6.7668835191
 20
4.2323912744
  0
LWPOLYLINE
  5
293
100
AcDbEntity
  8
0
100
AcDbPolyline
 62
7
  6
CONTINUOUS
 90
6
 70
0
 10
6.7655228269
 20
4.2323978794
 10
6.7656317436
 20
4.2323973614
 10
6.7656854735
 20
4.2323971029
 10
6.765738725
 20
4.232396845
 10
6.7657914991
 20
4.2323965879
 10
6.7658438009
 20
4.2323963319
  0
LWPOLYLINE
  5
294
100
AcDbEntity
  8
0
100
AcDbPolyline
 62
7
  6
CONTINUOUS
 90
6
 70
0
 10
6.7664360855
 20
4.2323934006
 10
6.7664826269
 20
4.2323931727
 10
6.7665287555
 20
4.2323929478
 10
6.7665744762
 20
4.2323927262
 10
6.7666197945
 20
4.232392508
 10
6.7667092413
 20
4.232392082
  0
LINE
  5
295
100
AcDbEntity
  8
0
100
AcDbLine
 62
7
  6
CONTINUOUS
 10
6.7658438009
 20
4.2323963319
 11
6.7664360855
 21
4.2323934006
  0
LINE
  5
296
100
AcDbEntity
  8
0
100
AcDbLine
 62
7
  6
CONTINUOUS
 10
6.7679555287
 20
4.2324021427
 11
6.7686083033
 21
4.232393435
  0
LWPOLYLINE
  5
297
100
AcDbEntity
  8
0
100
AcDbPolyline
 62
7
  6
CONTINUOUS
 90
9
 70
0
 10
3.5477541625
 20
4.3951874915
 10
3.5464393527
 20
4.3952932269
 10
3.545143689
 20
4.3953896599
 10
3.543864921
 20
4.3954758707
 10
3.5426012612
 20
4.3955511032
 10
3.5413538229
 20
4.3956146576
 10
3.5401254548
 20
4.3956660288
 10
3.5389163593
 20
4.3957049395
 10
3.537676596
 20
4.3957323038
  0
LINE
  5
298
100
AcDbEntity
  8
0
100
AcDbLine
 62
7
  6
CONTINUOUS
 10
3.5648185411
 20
4.3936732547
 11
3.561847205
 21
4.3939122917
  0
LINE
  5
299
100
AcDbEntity
  8
0
100
AcDbLine
 62
7
  6
CONTINUOUS
 10
3.5504361459
 20
4.3949542474
 11
3.5477541625
 21
4.3951874915
  0
LINE
  5
29A
100
AcDbEntity
  8
0
100
AcDbLine
 62
7
  6
CONTINUOUS
 10
3.561847205
 20
4.3939122917
 11
3.558893637
 21
4.394171005
  0
LINE
  5
29B
100
AcDbEntity
  8
0
100
AcDbLine
 62
7
  6
CONTINUOUS
 10
3.558893637
 20
4.394171005
 11
3.5504361459
 21
4.3949542474
  0
LINE
  5
29C
100
AcDbEntity
  8
0
100
AcDbLine
 62
7
  6
CONTINUOUS
 10
5.1609558048
 20
4.5499051887
 11
5.1609558048
 21
4.3024051887
  0
LWPOLYLINE
  5
29D
100
AcDbEntity
  8
0
100
AcDbPolyline
 62
7
  6
CONTINUOUS
 90
4
 70
0
 10
6.7686082742
 20
4.3724169423
 10
6.7679555323
 20
4.3724082348
 10
6.7678615146
 20
4.3724080523
 10
6.7677967719
 20
4.3724086169
  0
LINE
  5
29E
100
AcDbEntity
  8
0
100
AcDbLine
 62
7
  6
CONTINUOUS
 10
6.7658167928
 20
4.3724139132
 11
6.7657578493
 21
4.3724136255
  0
LWPOLYLINE
  5
29F
100
AcDbEntity
  8
0
100
AcDbPolyline
 62
7
  6
CONTINUOUS
 90
3
 70
0
 10
6.7665325497
 20
4.3724174481
 10
6.7664806494
 20
4.3724171951
 10
6.7658167928
 20
4.3724139132
  0
LWPOLYLINE
  5
2A0
100
AcDbEntity
  8
0
100
AcDbPolyline
 62
7
  6
CONTINUOUS
 90
4
 70
0
 10
6.7657578493
 20
4.3724136255
 10
6.7656381975
 20
4.3724130471
 10
6.7655774747
 20
4.3724127569
 10
6.7655161478
 20
4.3724124666
  0
LWPOLYLINE
  5
2A1
100
AcDbEntity
  8
0
100
AcDbPolyline
 62
7
  6
CONTINUOUS
 90
4
 70
0
 10
6.7667352784
 20
4.3724184182
 10
6.7666853121
 20
4.3724181822
 10
6.766634873
 20
4.3724179418
 10
6.7665325497
 20
4.3724174481
  0
LWPOLYLINE
  5
2A2
100
AcDbEntity
  8
0
100
AcDbPolyline
 62
7
  6
CONTINUOUS
 90
3
 70
0
 10
6.7655161478
 20
4.3724124666
 10
6.7653916519
 20
4.3724118865
 10
6.7653284723
 20
4.3724115973
  0
LWPOLYLINE
  5
2A3
100
AcDbEntity
  8
0
100
AcDbPolyline
 62
7
  6
CONTINUOUS
 90
3
 70
0
 10
6.766882419
 20
4.3724190981
 10
6.7668338238
 20
4.3724188763
 10
6.7667352784
 20
4.3724184182
  0
LINE
  5
2A4
100
AcDbEntity
  8
0
100
AcDbLine
 62
7
  6
CONTINUOUS
 10
6.7653284723
 20
4.3724115973
 11
6.7652002163
 21
4.3724110226
  0
LINE
  5
2A5
100
AcDbEntity
  8
0
100
AcDbLine
 62
7
  6
CONTINUOUS
 10
6.766978293
 20
4.3724195267
 11
6.766882419
 21
4.3724190981
  0
LINE
  5
2A6
100
AcDbEntity
  8
0
100
AcDbLine
 62
7
  6
CONTINUOUS
 10
6.7670724671
 20
4.3724199343
 11
6.766978293
 21
4.3724195267
  0
LINE
  5
2A7
100
AcDbEntity
  8
0
100
AcDbLine
 62
7
  6
CONTINUOUS
 10
6.7671650148
 20
4.3724203202
 11
6.7670724671
 21
4.3724199343
  0
LINE
  5
2A8
100
AcDbEntity
  8
0
100
AcDbLine
 62
7
  6
CONTINUOUS
 10
6.767256003
 20
4.3724206835
 11
6.7671650148
 21
4.3724203202
  0
LINE
  5
2A9
100
AcDbEntity
  8
0
100
AcDbLine
 62
7
  6
CONTINUOUS
 10
6.7673455095
 20
4.3724210233
 11
6.767256003
 21
4.3724206835
  0
LINE
  5
2AA
100
AcDbEntity
  8
0
100
AcDbLine
 62
7
  6
CONTINUOUS
 10
6.7674771758
 20
4.3724214873
 11
6.7673455095
 21
4.3724210233
  0
LWPOLYLINE
  5
2AB
100
AcDbEntity
  8
0
100
AcDbPolyline
 62
7
  6
CONTINUOUS
 90
13
 70
0
 10
3.5359558051
 20
4.3957460827
 10
3.5352996753
 20
4.3957440864
 10
3.5341386356
 20
4.3957302421
 10
3.5329585569
 20
4.3957034586
 10
3.5317625566
 20
4.3956641771
 10
3.5305506693
 20
4.395612874
 10
3.5293201232
 20
4.3955499346
 10
3.5280730308
 20
4.395476042
 10
3.5268123564
 20
4.3953921021
 10
3.5255362357
 20
4.3952987314
 10
3.5242426216
 20
4.3951964323
 10
3.5229323112
 20
4.395086088
 10
3.5202609251
 20
4.3948456022
  0
LINE
  5
2AC
100
AcDbEntity
  8
0
100
AcDbLine
 62
7
  6
CONTINUOUS
 10
6.7676904335
 20
4.3724221318
 11
6.7674771758
 21
4.3724214873
  0
LINE
  5
2AD
100
AcDbEntity
  8
0
100
AcDbLine
 62
7
  6
CONTINUOUS
 10
6.7454223206
 20
4.3724135626
 11
6.7445127277
 21
4.3724111313
  0
LINE
  5
2AE
100
AcDbEntity
  8
0
100
AcDbLine
 62
7
  6
CONTINUOUS
 10
6.7460119513
 20
4.3724149851
 11
6.7454223206
 21
4.3724135626
  0
LINE
  5
2AF
100
AcDbEntity
  8
0
100
AcDbLine
 62
7
  6
CONTINUOUS
 10
6.7468721052
 20
4.3724168331
 11
6.7460119513
 21
4.3724149851
  0
LINE
  5
2B0
100
AcDbEntity
  8
0
100
AcDbLine
 62
7
  6
CONTINUOUS
 10
6.7474298131
 20
4.372417882
 11
6.7468721052
 21
4.3724168331
  0
LINE
  5
2B1
100
AcDbEntity
  8
0
100
AcDbLine
 62
7
  6
CONTINUOUS
 10
6.7482435799
 20
4.3724191943
 11
6.7474298131
 21
4.372417882
  0
LINE
  5
2B2
100
AcDbEntity
  8
0
100
AcDbLine
 62
7
  6
CONTINUOUS
 10
6.7487713393
 20
4.3724199034
 11
6.7482435799
 21
4.3724191943
  0
LINE
  5
2B3
100
AcDbEntity
  8
0
100
AcDbLine
 62
7
  6
CONTINUOUS
 10
6.7495415563
 20
4.3724207332
 11
6.7487713393
 21
4.3724199034
  0
LINE
  5
2B4
100
AcDbEntity
  8
0
100
AcDbLine
 62
7
  6
CONTINUOUS
 10
6.7500411664
 20
4.3724211391
 11
6.7495415563
 21
4.3724207332
  0
LINE
  5
2B5
100
AcDbEntity
  8
0
100
AcDbLine
 62
7
  6
CONTINUOUS
 10
6.6744574678
 20
4.3724193402
 11
6.6656314965
 21
4.3724131788
  0
LINE
  5
2B6
100
AcDbEntity
  8
0
100
AcDbLine
 62
7
  6
CONTINUOUS
 10
6.682877468
 20
4.37242473
 11
6.6744574678
 21
4.3724193402
  0
LINE
  5
2B7
100
AcDbEntity
  8
0
100
AcDbLine
 62
7
  6
CONTINUOUS
 10
6.6656314965
 20
4.3724131788
 11
6.6564027364
 21
4.3724073594
  0
LINE
  5
2B8
100
AcDbEntity
  8
0
100
AcDbLine
 62
7
  6
CONTINUOUS
 10
6.7507704657
 20
4.3724215425
 11
6.7500411664
 21
4.3724211391
  0
LINE
  5
2B9
100
AcDbEntity
  8
0
100
AcDbLine
 62
7
  6
CONTINUOUS
 10
6.694731725
 20
4.3724296615
 11
6.682877468
 21
4.37242473
  0
LINE
  5
2BA
100
AcDbEntity
  8
0
100
AcDbLine
 62
7
  6
CONTINUOUS
 10
6.6564027364
 20
4.3724073594
 11
6.6418130457
 21
4.3724019672
  0
LINE
  5
2BB
100
AcDbEntity
  8
0
100
AcDbLine
 62
7
  6
CONTINUOUS
 10
6.751243626
 20
4.3724216832
 11
6.7507704657
 21
4.3724215425
  0
LWPOLYLINE
  5
2BC
100
AcDbEntity
  8
0
100
AcDbPolyline
 62
7
  6
CONTINUOUS
 90
3
 70
0
 10
6.6423667765
 20
4.3724111283
 10
6.6408780193
 20
4.3724108461
 10
6.6378572308
 20
4.3724099121
  0
LINE
  5
2BD
100
AcDbEntity
  8
0
100
AcDbLine
 62
7
  6
CONTINUOUS
 10
6.538203077
 20
4.3724160578
 11
6.5357233032
 21
4.3724155549
  0
LWPOLYLINE
  5
2BE
100
AcDbEntity
  8
0
100
AcDbPolyline
 62
7
  6
CONTINUOUS
 90
3
 70
0
 10
6.7515822932
 20
4.3724052836
 10
6.7498097138
 20
4.3724051836
 10
6.7438890537
 20
4.3724093061
  0
LWPOLYLINE
  5
2BF
100
AcDbEntity
  8
0
100
AcDbPolyline
 62
7
  6
CONTINUOUS
 90
4
 70
0
 10
6.5479307181
 20
4.3724169995
 10
6.5455278965
 20
4.3724169363
 10
6.5431057295
 20
4.3724167551
 10
6.538203077
 20
4.3724160578
  0
LINE
  5
2C0
100
AcDbEntity
  8
0
100
AcDbLine
 62
7
  6
CONTINUOUS
 10
3.8015808048
 20
4.3724051887
 11
4.9109558048
 21
4.3724051887
  0
LINE
  5
2C1
100
AcDbEntity
  8
0
100
AcDbLine
 62
7
  6
CONTINUOUS
 10
5.1609558048
 20
4.3724018171
 11
5.2222300503
 21
4.3724051887
  0
LINE
  5
2C2
100
AcDbEntity
  8
0
100
AcDbLine
 62
7
  6
CONTINUOUS
 10
3.5792326901
 20
4.3921428452
 11
3.7815808048
 21
4.3921399827
  0
LINE
  5
2C3
100
AcDbEntity
  8
0
100
AcDbLine
 62
7
  6
CONTINUOUS
 10
3.2903308048
 20
4.3921399827
 11
3.4926878299
 21
4.3921399827
  0
LINE
  5
2C4
100
AcDbEntity
  8
0
100
AcDbLine
 62
7
  6
CONTINUOUS
 10
3.2903308048
 20
4.3930501845
 11
3.493345541
 21
4.3930517412
  0
LINE
  5
2C5
100
AcDbEntity
  8
0
100
AcDbLine
 62
7
  6
CONTINUOUS
 10
6.6418130457
 20
4.3724019672
 11
6.6155024608
 21
4.3724009641
  0
LINE
  5
2C6
100
AcDbEntity
  8
0
100
AcDbLine
 62
7
  6
CONTINUOUS
 10
6.7519344416
 20
4.3724217172
 11
6.751243626
 21
4.3724216832
  0
LWPOLYLINE
  5
2C7
100
AcDbEntity
  8
0
100
AcDbPolyline
 62
7
  6
CONTINUOUS
 90
3
 70
0
 10
5.5386959676
 20
4.3724090771
 10
5.4915189189
 20
4.3724188939
 10
5.2009954183
 20
4.3724028576
  0
LINE
  5
2C8
100
AcDbEntity
  8
0
100
AcDbLine
 62
7
  6
CONTINUOUS
 10
6.7548617774
 20
4.3724051425
 11
6.7515822932
 21
4.3724052836
  0
LINE
  5
2C9
100
AcDbEntity
  8
0
100
AcDbLine
 62
7
  6
CONTINUOUS
 10
6.6155024608
 20
4.3724009641
 11
5.5386959676
 21
4.3724090771
  0
LWPOLYLINE
  5
2CA
100
AcDbEntity
  8
0
100
AcDbPolyline
 62
7
  6
CONTINUOUS
 90
3
 70
0
 10
6.5550186219
 20
4.372416463
 10
6.5526766583
 20
4.372416763
 10
6.5479307181
 20
4.3724169995
  0
LINE
  5
2CB
100
AcDbEntity
  8
0
100
AcDbLine
 62
7
  6
CONTINUOUS
 10
6.4675126986
 20
4.3724091899
 11
6.4619209423
 21
4.372409989
  0
LINE
  5
2CC
100
AcDbEntity
  8
0
100
AcDbLine
 62
7
  6
CONTINUOUS
 10
6.7523827206
 20
4.3724216306
 11
6.7519344416
 21
4.3724217172
  0
LWPOLYLINE
  5
2CD
100
AcDbEntity
  8
0
100
AcDbPolyline
 62
7
  6
CONTINUOUS
 90
4
 70
0
 10
6.5641732726
 20
4.3724141251
 10
6.5619172256
 20
4.372414869
 10
6.5596395384
 20
4.3724155112
 10
6.5550186219
 20
4.372416463
  0
LINE
  5
2CE
100
AcDbEntity
  8
0
100
AcDbLine
 62
7
  6
CONTINUOUS
 10
6.7528214405
 20
4.3724214636
 11
6.7523827206
 21
4.3724216306
  0
LINE
  5
2CF
100
AcDbEntity
  8
0
100
AcDbLine
 62
7
  6
CONTINUOUS
 10
6.7532508329
 20
4.3724212223
 11
6.7528214405
 21
4.3724214636
  0
LINE
  5
2D0
100
AcDbEntity
  8
0
100
AcDbLine
 62
7
  6
CONTINUOUS
 10
6.7186522597
 20
4.3724223518
 11
6.694731725
 21
4.3724296615
  0
LINE
  5
2D1
100
AcDbEntity
  8
0
100
AcDbLine
 62
7
  6
CONTINUOUS
 10
6.7536711205
 20
4.3724209123
 11
6.7532508329
 21
4.3724212223
  0
LINE
  5
2D2
100
AcDbEntity
  8
0
100
AcDbLine
 62
7
  6
CONTINUOUS
 10
6.7540824893
 20
4.3724205396
 11
6.7536711205
 21
4.3724209123
  0
LINE
  5
2D3
100
AcDbEntity
  8
0
100
AcDbLine
 62
7
  6
CONTINUOUS
 10
6.7439697672
 20
4.372404426
 11
6.7299550743
 21
4.3724111625
  0
LWPOLYLINE
  5
2D4
100
AcDbEntity
  8
0
100
AcDbPolyline
 62
7
  6
CONTINUOUS
 90
3
 70
0
 10
6.7299550743
 20
4.3724111625
 10
6.7245116316
 20
4.3724168009
 10
6.7186522597
 20
4.3724223518
  0
LWPOLYLINE
  5
2D5
100
AcDbEntity
  8
0
100
AcDbPolyline
 62
7
  6
CONTINUOUS
 90
4
 70
0
 10
6.7677967719
 20
4.3724086169
 10
6.754683273
 20
4.3724198753
 10
6.754485147
 20
4.3724201098
 10
6.7540824893
 20
4.3724205396
  0
LINE
  5
2D6
100
AcDbEntity
  8
0
100
AcDbLine
 62
7
  6
CONTINUOUS
 10
6.7685243698
 20
4.3724227242
 11
6.7676904335
 21
4.3724221318
  0
LWPOLYLINE
  5
2D7
100
AcDbEntity
  8
0
100
AcDbPolyline
 62
7
  6
CONTINUOUS
 90
12
 70
0
 10
3.7815808048
 20
4.3930501845
 10
3.5785289392
 20
4.3930519518
 10
3.5773442589
 20
4.3930633728
 10
3.5761069132
 20
4.3930857407
 10
3.5748125052
 20
4.39311975
 10
3.5734678367
 20
4.3931657093
 10
3.5720903842
 20
4.3932231949
 10
3.5706803781
 20
4.3932922176
 10
3.5692381666
 20
4.3933727036
 10
3.5677804868
 20
4.3934634063
 10
3.5663071078
 20
4.3935638007
 10
3.5648185411
 20
4.3936732547
  0
LINE
  5
2D8
100
AcDbEntity
  8
0
100
AcDbLine
 62
7
  6
CONTINUOUS
 10
3.536564804
 20
4.3957443377
 11
3.5359558051
 21
4.3957460827
  0
LINE
  5
2D9
100
AcDbEntity
  8
0
100
AcDbLine
 62
7
  6
CONTINUOUS
 10
6.2859558049
 20
4.3724051844
 11
6.2859691725
 21
4.3724051115
  0
LINE
  5
2DA
100
AcDbEntity
  8
0
100
AcDbLine
 62
7
  6
CONTINUOUS
 10
6.7690333431
 20
4.3724207211
 11
6.7685243698
 21
4.3724227242
  0
LINE
  5
2DB
100
AcDbEntity
  8
0
100
AcDbLine
 62
7
  6
CONTINUOUS
 10
6.769423659
 20
4.3724174349
 11
6.7690333431
 21
4.3724207211
  0
LINE
  5
2DC
100
AcDbEntity
  8
0
100
AcDbLine
 62
7
  6
CONTINUOUS
 10
3.536564804
 20
4.3957443377
 11
3.5377455062
 21
4.3957307309
  0
LINE
  5
2DD
100
AcDbEntity
  8
0
100
AcDbLine
 62
7
  6
CONTINUOUS
 10
6.7697906319
 20
4.3724127103
 11
6.769423659
 21
4.3724174349
  0
LINE
  5
2DE
100
AcDbEntity
  8
0
100
AcDbLine
 62
7
  6
CONTINUOUS
 10
6.7701884982
 20
4.3724056398
 11
6.7697906319
 21
4.3724127103
  0
LINE
  5
2DF
100
AcDbEntity
  8
0
100
AcDbLine
 62
7
  6
CONTINUOUS
 10
6.7705214516
 20
4.372398094
 11
6.7701884982
 21
4.3724056398
  0
LINE
  5
2E0
100
AcDbEntity
  8
0
100
AcDbLine
 62
7
  6
CONTINUOUS
 10
6.7709283245
 20
4.3723868059
 11
6.7705214516
 21
4.372398094
  0
LINE
  5
2E1
100
AcDbEntity
  8
0
100
AcDbLine
 62
7
  6
CONTINUOUS
 10
6.7712861097
 20
4.3723749738
 11
6.7709283245
 21
4.3723868059
  0
LINE
  5
2E2
100
AcDbEntity
  8
0
100
AcDbLine
 62
7
  6
CONTINUOUS
 10
6.7715488652
 20
4.3723651389
 11
6.7712861097
 21
4.3723749738
  0
LINE
  5
2E3
100
AcDbEntity
  8
0
100
AcDbLine
 62
7
  6
CONTINUOUS
 10
6.2859558049
 20
4.3724051887
 11
6.2859691724
 21
4.372404601
  0
LINE
  5
2E4
100
AcDbEntity
  8
0
100
AcDbLine
 62
7
  6
CONTINUOUS
 10
5.2547058048
 20
4.6274051887
 11
5.2547058048
 21
4.5549051887
  0
LINE
  5
2E5
100
AcDbEntity
  8
0
100
AcDbLine
 62
7
  6
CONTINUOUS
 10
3.5202609251
 20
4.3948456022
 11
3.5132183537
 21
4.3941887414
  0
LINE
  5
2E6
100
AcDbEntity
  8
0
100
AcDbLine
 62
7
  6
CONTINUOUS
 10
3.5132183537
 20
4.3941887414
 11
3.5102494107
 21
4.3939277726
  0
LWPOLYLINE
  5
2E7
100
AcDbEntity
  8
0
100
AcDbPolyline
 62
7
  6
CONTINUOUS
 90
12
 70
0
 10
3.5102494107
 20
4.3939277726
 10
3.5072458426
 20
4.3936848635
 10
3.505735288
 20
4.3935731131
 10
3.504239179
 20
4.3934705274
 10
3.5027578483
 20
4.3933777785
 10
3.5012908747
 20
4.3932954309
 10
3.4998575748
 20
4.3932249029
 10
3.498458251
 20
4.3931662514
 10
3.4970934124
 20
4.393119514
 10
3.4957834352
 20
4.3930851999
 10
3.4945359177
 20
4.3930628912
 10
3.493345541
 20
4.3930517412
  0
LINE
  5
2E8
100
AcDbEntity
  8
0
100
AcDbLine
 62
7
  6
CONTINUOUS
 10
5.2497058048
 20
4.5499051887
 11
4.8222058048
 21
4.5499051887
  0
LINE
  5
2E9
100
AcDbEntity
  8
0
100
AcDbLine
 62
7
  6
CONTINUOUS
 10
5.2547058048
 20
4.5549051887
 11
4.8172058048
 21
4.5549051887
  0
LINE
  5
2EA
100
AcDbEntity
  8
0
100
AcDbLine
 62
7
  6
CONTINUOUS
 10
6.771982689
 20
4.3723467656
 11
6.7715488652
 21
4.3723651389
  0
LINE
  5
2EB
100
AcDbEntity
  8
0
100
AcDbLine
 62
7
  6
CONTINUOUS
 10
6.7723048421
 20
4.3723313942
 11
6.771982689
 21
4.3723467656
  0
LINE
  5
2EC
100
AcDbEntity
  8
0
100
AcDbLine
 62
7
  6
CONTINUOUS
 10
6.7726605322
 20
4.3723127066
 11
6.7723048421
 21
4.3723313942
  0
LINE
  5
2ED
100
AcDbEntity
  8
0
100
AcDbLine
 62
7
  6
CONTINUOUS
 10
6.7730564027
 20
4.3722897853
 11
6.7726605322
 21
4.3723127066
  0
LINE
  5
2EE
100
AcDbEntity
  8
0
100
AcDbLine
 62
7
  6
CONTINUOUS
 10
6.7734946728
 20
4.3722617946
 11
6.7730564027
 21
4.3722897853
  0
LINE
  5
2EF
100
AcDbEntity
  8
0
100
AcDbLine
 62
7
  6
CONTINUOUS
 10
6.773976696
 20
4.3722278303
 11
6.7734946728
 21
4.3722617946
  0
LINE
  5
2F0
100
AcDbEntity
  8
0
100
AcDbLine
 62
7
  6
CONTINUOUS
 10
6.7744957018
 20
4.3721875281
 11
6.773976696
 21
4.3722278303
  0
LINE
  5
2F1
100
AcDbEntity
  8
0
100
AcDbLine
 62
7
  6
CONTINUOUS
 10
6.775047215
 20
4.3721404509
 11
6.7744957018
 21
4.3721875281
  0
LINE
  5
2F2
100
AcDbEntity
  8
0
100
AcDbLine
 62
7
  6
CONTINUOUS
 10
6.775622607
 20
4.3720866553
 11
6.775047215
 21
4.3721404509
  0
LINE
  5
2F3
100
AcDbEntity
  8
0
100
AcDbLine
 62
7
  6
CONTINUOUS
 10
3.3797058048
 20
4.6199051887
 11
3.6922058048
 21
4.6199051887
  0
LINE
  5
2F4
100
AcDbEntity
  8
0
100
AcDbLine
 62
7
  6
CONTINUOUS
 10
5.2547058048
 20
4.6274051887
 11
4.8172058048
 21
4.6274051887
  0
LINE
  5
2F5
100
AcDbEntity
  8
0
100
AcDbLine
 62
7
  6
CONTINUOUS
 10
3.3872058048
 20
4.6274051887
 11
3.6847058048
 21
4.6274051887
  0
LWPOLYLINE
  5
2F6
100
AcDbEntity
  8
0
100
AcDbPolyline
 62
7
  6
CONTINUOUS
 90
157
 70
0
 10
6.8388311773
 20
4.3024051887
 10
6.8388270378
 20
4.3031665265
 10
6.8388030322
 20
4.3043902357
 10
6.8387582454
 20
4.3056000995
 10
6.8386933909
 20
4.3067955741
 10
6.8386091604
 20
4.3079765543
 10
6.8385061886
 20
4.3091433712
 10
6.8383851357
 20
4.3102957538
 10
6.8382466582
 20
4.3114334519
 10
6.8380913185
 20
4.3125568526
 10
6.837919735
 20
4.3136657412
 10
6.8377325224
 20
4.3147599209
 10
6.8375301706
 20
4.3158398251
 10
6.8373132562
 20
4.3169052865
 10
6.8370823509
 20
4.3179561539
 10
6.836837874
 20
4.3189928976
 10
6.8365803599
 20
4.3200153903
 10
6.8363103383
 20
4.3210235188
 10
6.8360281592
 20
4.3220177821
 10
6.8357343156
 20
4.3229980862
 10
6.8354292961
 20
4.3239643492
 10
6.8351133834
 20
4.3249170916
 10
6.8347870308
 20
4.3258562464
 10
6.8344506867
 20
4.3267817571
 10
6.8341045696
 20
4.3276941593
 10
6.8337490886
 20
4.3285934206
 10
6.8333846589
 20
4.3294794916
 10
6.8330114543
 20
4.3303528777
 10
6.8326298227
 20
4.3312136208
 10
6.8322401691
 20
4.3320616303
 10
6.8318427118
 20
4.3328972099
 10
6.8314377934
 20
4.333720372
 10
6.8310257748
 20
4.3345310902
 10
6.8306068733
 20
4.3353296096
 10
6.8301814211
 20
4.3361159356
 10
6.8297497463
 20
4.33689008
 10
6.8293120351
 20
4.3376522973
 10
6.8288685985
 20
4.3384026062
 10
6.8284197432
 20
4.3391410313
 10
6.8279656255
 20
4.3398678335
 10
6.8275065354
 20
4.3405830434
 10
6.8270427594
 20
4.3412866953
 10
6.826574426
 20
4.3419790535
 10
6.8261017879
 20
4.342660182
 10
6.8256251286
 20
4.3433300988
 10
6.8251446034
 20
4.3439889972
 10
6.824660438
 20
4.3446369624
 10
6.8241729096
 20
4.3452740088
 10
6.8236822389
 20
4.3459002248
 10
6.8231886649
 20
4.3465156723
 10
6.8226924276
 20
4.3471204103
 10
6.822193742
 20
4.3477145272
 10
6.8216928373
 20
4.3482980913
 10
6.8211899393
 20
4.3488711741
 10
6.8206852501
 20
4.3494338719
 10
6.8201789869
 20
4.3499862615
 10
6.8196713637
 20
4.3505284223
 10
6.8191625696
 20
4.3510604578
 10
6.8186528115
 20
4.3515824508
 10
6.8181422901
 20
4.3520944887
 10
6.8176311784
 20
4.3525966848
 10
6.8171196786
 20
4.353089121
 10
6.8166079725
 20
4.3535718977
 10
6.816096195
 20
4.3540451561
 10
6.815584531
 20
4.3545089875
 10
6.8150731551
 20
4.3549634912
 10
6.814562178
 20
4.35540882
 10
6.814051769
 20
4.3558450713
 10
6.8135420939
 20
4.3562723442
 10
6.8130332502
 20
4.356690792
 10
6.8125253953
 20
4.3571005145
 10
6.8120186838
 20
4.3575016128
 10
6.8115131999
 20
4.3578942401
 10
6.8110091157
 20
4.3582784786
 10
6.8105065494
 20
4.3586544502
 10
6.810005496
 20
4.3590223635
 10
6.80950617
 20
4.3593822616
 10
6.8090086236
 20
4.3597343037
 10
6.8085125938
 20
4.360078861
 10
6.8080182152
 20
4.3604160147
 10
6.8075255882
 20
4.3607458686
 10
6.8070343807
 20
4.3610688062
 10
6.8065446965
 20
4.3613849103
 10
6.8060566374
 20
4.3616942639
 10
6.8055698502
 20
4.3619972299
 10
6.8050844256
 20
4.3622938815
 10
6.8046004526
 20
4.362584292
 10
6.804117559
 20
4.3628688035
 10
6.8036358171
 20
4.3631474831
 10
6.8031553111
 20
4.3634203908
 10
6.8026756715
 20
4.3636878369
 10
6.802196877
 20
4.3639499243
 10
6.8017190846
 20
4.3642066573
 10
6.8012421827
 20
4.3644581838
 10
6.8007661685
 20
4.3647045888
 10
6.8002911694
 20
4.3649458889
 10
6.7998172651
 20
4.3651821268
 10
6.7993445142
 20
4.3654133556
 10
6.7988729771
 20
4.3656396276
 10
6.7984027347
 20
4.365860985
 10
6.7979338443
 20
4.3660774816
 10
6.7974663615
 20
4.3662891717
 10
6.7970003647
 20
4.3664960993
 10
6.7965359079
 20
4.3666983193
 10
6.7960730439
 20
4.3668958871
 10
6.7956118486
 20
4.3670888479
 10
6.7951523727
 20
4.367277258
 10
6.7946946665
 20
4.3674611733
 10
6.7942388036
 20
4.3676406403
 10
6.7937848317
 20
4.3678157161
 10
6.7933327984
 20
4.3679864574
 10
6.7928827762
 20
4.3681529113
 10
6.7924348091
 20
4.3683151357
 10
6.7919889427
 20
4.3684731876
 10
6.7915452505
 20
4.3686271142
 10
6.7911037346
 20
4.368776987
 10
6.7906644769
 20
4.3689228499
 10
6.7902276703
 20
4.3690647119
 10
6.7897932772
 20
4.3692026583
 10
6.789361415
 20
4.3693367245
 10
6.7889325106
 20
4.3694668545
 10
6.7885065938
 20
4.3695931191
 10
6.7880837131
 20
4.369715583
 10
6.7876643258
 20
4.3698341961
 10
6.7872484699
 20
4.3699490334
 10
6.7868361835
 20
4.3700601693
 10
6.786427926
 20
4.3701675677
 10
6.7860238335
 20
4.3702712845
 10
6.7856238433
 20
4.3703714264
 10
6.7852281171
 20
4.3704680426
 10
6.7848368546
 20
4.3705611754
 10
6.7844499234
 20
4.3706509462
 10
6.7840669846
 20
4.3707375175
 10
6.7836880812
 20
4.370820959
 10
6.7833132272
 20
4.3709013463
 10
6.7829420363
 20
4.3709788361
 10
6.782574525
 20
4.3710534943
 10
6.7822107251
 20
4.3711253831
 10
6.7818502686
 20
4.3711946397
 10
6.7814931491
 20
4.3712613257
 10
6.7811394141
 20
4.371325492
 10
6.7807887742
 20
4.3713872481
 10
6.7804411481
 20
4.3714466611
 10
6.7800966522
 20
4.3715037637
 10
6.779755291
 20
4.3715586077
 10
6.7794170507
 20
4.371611247
 10
6.7790819765
 20
4.3716617257
 10
6.7787501615
 20
4.3717100811
 10
6.7784216179
 20
4.3717563628
 10
6.7780963614
 20
4.3718006194
 10
6.7777744892
 20
4.3718428885
 10
6.7774559401
 20
4.3718832283
 10
6.7771407997
 20
4.3719216778
 10
6.776829385
 20
4.3719582499
 10
6.7765215535
 20
4.3719930136
 10
6.7762174686
 20
4.3720260017
 10
6.775622607
 20
4.3720866553
  0
ARC
  5
2F7
100
AcDbEntity
  8
0
100
AcDbCircle
 62
7
  6
CONTINUOUS
 10
3.5359558048
 20
4.3024051887
 40
0.1275
100
AcDbArc
 50
45.3118968518
 51
134.6881031482
  0
ARC
  5
2F8
100
AcDbEntity
  8
0
100
AcDbCircle
 62
7
  6
CONTINUOUS
 10
5.0359558048
 20
4.3024051887
 40
0.125
100
AcDbArc
 50
180.0
 51
359.9999967858
  0
ARC
  5
2F9
100
AcDbEntity
  8
0
100
AcDbCircle
 62
7
  6
CONTINUOUS
 10
3.5359226562
 20
4.2966352593
 40
0.0991125651
100
AcDbArc
 50
88.7807154277
 51
88.94623913
  0
ARC
  5
2FA
100
AcDbEntity
  8
0
100
AcDbCircle
 62
7
  6
CONTINUOUS
 10
3.5359780448
 20
4.2976587174
 40
0.0980890795
100
AcDbArc
 50
91.0722157542
 51
91.2687702793
  0
ARC
  5
2FB
100
AcDbEntity
  8
0
100
AcDbCircle
 62
7
  6
CONTINUOUS
 10
3.5359602693
 20
4.2990698554
 40
0.0966776846
100
AcDbArc
 50
88.9827699832
 51
90.0026458933
  0
ARC
  5
2FC
100
AcDbEntity
  8
0
100
AcDbCircle
 62
7
  6
CONTINUOUS
 10
3.5359455014
 20
4.2996765108
 40
0.0960710307
100
AcDbArc
 50
89.9938551792
 51
91.0753292412
  0
ARC
  5
2FD
100
AcDbEntity
  8
0
100
AcDbCircle
 62
7
  6
CONTINUOUS
 10
3.7890808048
 20
3.9899012726
 40
0.0125
100
AcDbArc
 50
270.0
 51
359.9999958226
  0
ARC
  5
2FE
100
AcDbEntity
  8
0
100
AcDbCircle
 62
7
  6
CONTINUOUS
 10
3.2828308048
 20
3.9899012726
 40
0.0125
100
AcDbArc
 50
180.0000041767
 51
270.0
  0
ARC
  5
2FF
100
AcDbEntity
  8
0
100
AcDbCircle
 62
7
  6
CONTINUOUS
 10
3.3872058048
 20
4.6199051887
 40
0.0075
100
AcDbArc
 50
90.0
 51
180.0
  0
ARC
  5
300
100
AcDbEntity
  8
0
100
AcDbCircle
 62
7
  6
CONTINUOUS
 10
3.6847058048
 20
4.6199051887
 40
0.0075
100
AcDbArc
 50
0.0
 51
90.0
  0
ARC
  5
301
100
AcDbEntity
  8
0
100
AcDbCircle
 62
7
  6
CONTINUOUS
 10
5.2497058048
 20
4.5549051887
 40
0.005
100
AcDbArc
 50
270.0
 51
360.0
  0
ARC
  5
302
100
AcDbEntity
  8
0
100
AcDbCircle
 62
7
  6
CONTINUOUS
 10
4.8222058048
 20
4.5549051887
 40
0.005
100
AcDbArc
 50
180.0
 51
270.0
  0
SPLINE
  5
303
100
AcDbEntity
  8
0
100
AcDbSpline
 62
7
  6
CONTINUOUS
 70
0
 71
3
 72
11
 73
7
 74
0
 42
0.0000001
 43
0.0000001
 44
0.0000000001
 40
0.0
 40
0.0
 40
0.0
 40
0.0
 40
0.2489747556
 40
0.4988046069
 40
0.7492426772
 40
1.0
 40
1.0
 40
1.0
 40
1.0
 10
3.3041237844
 20
3.9946916643
 30
0.0
 10
3.3051738915
 20
3.9941531622
 30
0.0
 10
3.3073451379
 20
3.9932005992
 30
0.0
 10
3.3107516397
 20
3.9921685519
 30
0.0
 10
3.314264237
 20
3.9915434711
 30
0.0
 10
3.3166422244
 20
3.9914039847
 30
0.0
 10
3.3178308048
 20
3.9914039847
 30
0.0
  0
SPLINE
  5
304
100
AcDbEntity
  8
0
100
AcDbSpline
 62
7
  6
CONTINUOUS
 70
0
 71
3
 72
11
 73
7
 74
0
 42
0.0000001
 43
0.0000001
 44
0.0000000001
 40
0.0
 40
0.0
 40
0.0
 40
0.0
 40
0.2507573828
 40
0.5011954572
 40
0.7510252702
 40
1.0
 40
1.0
 40
1.0
 40
1.0
 10
3.7540808048
 20
3.9914039847
 30
0.0
 10
3.7552693855
 20
3.9914039847
 30
0.0
 10
3.7576473732
 20
3.9915434712
 30
0.0
 10
3.7611599706
 20
3.9921685521
 30
0.0
 10
3.7645664722
 20
3.9932005994
 30
0.0
 10
3.7667377182
 20
3.9941531622
 30
0.0
 10
3.7677878252
 20
3.9946916643
 30
0.0
  0
SPLINE
  5
305
100
AcDbEntity
  8
0
100
AcDbSpline
 62
7
  6
CONTINUOUS
 70
0
 71
3
 72
23
 73
19
 74
0
 42
0.0000001
 43
0.0000001
 44
0.0000000001
 40
0.0
 40
0.0
 40
0.0
 40
0.0
 40
0.0634070293
 40
0.1267606059
 40
0.1899982069
 40
0.2530472514
 40
0.3158204426
 40
0.3782161317
 40
0.4401400121
 40
0.5015463997
 40
0.5625079008
 40
0.6232636472
 40
0.6841916373
 40
0.7456964441
 40
0.8080657382
 40
0.8713735219
 40
0.9354646089
 40
1.0
 40
1.0
 40
1.0
 40
1.0
 10
3.8015808048
 20
4.377740635
 30
0.0
 10
3.8015808048
 20
4.3783354892
 30
0.0
 10
3.801502253
 20
4.3795261812
 30
0.0
 10
3.8011516098
 20
4.3812787941
 30
0.0
 10
3.8005767385
 20
4.3829678381
 30
0.0
 10
3.7997917794
 20
4.3845637409
 30
0.0
 10
3.7988161123
 20
4.3860410078
 30
0.0
 10
3.7976736247
 20
4.3873791093
 30
0.0
 10
3.7963911918
 20
4.38856432
 30
0.0
 10
3.7949959983
 20
4.3895910847
 30
0.0
 10
3.7935120366
 20
4.3904622725
 30
0.0
 10
3.7919570444
 20
4.3911874699
 30
0.0
 10
3.790341684
 20
4.3917795128
 30
0.0
 10
3.7886716618
 20
4.3922507371
 30
0.0
 10
3.7869515869
 20
4.3926105485
 30
0.0
 10
3.7851884088
 20
4.3928648131
 30
0.0
 10
3.7833932334
 20
4.3930165702
 30
0.0
 10
3.7821862447
 20
4.3930501845
 30
0.0
 10
3.7815808048
 20
4.3930501845
 30
0.0
  0
SPLINE
  5
306
100
AcDbEntity
  8
0
100
AcDbSpline
 62
7
  6
CONTINUOUS
 70
0
 71
3
 72
23
 73
19
 74
0
 42
0.0000001
 43
0.0000001
 44
0.0000000001
 40
0.0
 40
0.0
 40
0.0
 40
0.0
 40
0.0634070293
 40
0.1267606059
 40
0.1899982069
 40
0.2530472514
 40
0.3158204426
 40
0.3782161317
 40
0.4401400121
 40
0.5015463997
 40
0.5625079008
 40
0.6232636472
 40
0.6841916373
 40
0.7456964441
 40
0.8080657382
 40
0.8713735219
 40
0.9354646089
 40
1.0
 40
1.0
 40
1.0
 40
1.0
 10
3.2703308048
 20
4.377740635
 30
0.0
 10
3.2703308048
 20
4.3783354892
 30
0.0
 10
3.2704093566
 20
4.3795261812
 30
0.0
 10
3.2707599998
 20
4.3812787941
 30
0.0
 10
3.2713348711
 20
4.3829678381
 30
0.0
 10
3.2721198302
 20
4.3845637409
 30
0.0
 10
3.2730954974
 20
4.3860410078
 30
0.0
 10
3.274237985
 20
4.3873791093
 30
0.0
 10
3.2755204178
 20
4.38856432
 30
0.0
 10
3.2769156113
 20
4.3895910847
 30
0.0
 10
3.278399573
 20
4.3904622725
 30
0.0
 10
3.2799545653
 20
4.3911874699
 30
0.0
 10
3.2815699256
 20
4.3917795128
 30
0.0
 10
3.2832399479
 20
4.3922507371
 30
0.0
 10
3.2849600228
 20
4.3926105485
 30
0.0
 10
3.2867232008
 20
4.3928648131
 30
0.0
 10
3.2885183762
 20
4.3930165702
 30
0.0
 10
3.289725365
 20
4.3930501845
 30
0.0
 10
3.2903308048
 20
4.3930501845
 30
0.0
  0
SPLINE
  5
307
100
AcDbEntity
  8
0
100
AcDbSpline
 62
7
  6
CONTINUOUS
 70
0
 71
3
 72
15
 73
11
 74
0
 42
0.0000001
 43
0.0000001
 44
0.0000000001
 40
0.0
 40
0.0
 40
0.0
 40
0.0
 40
0.1289150563
 40
0.2566254684
 40
0.3830654978
 40
0.5082583331
 40
0.6323171982
 40
0.7554393543
 40
0.8778927964
 40
1.0
 40
1.0
 40
1.0
 40
1.0
 10
3.7677878249
 20
3.9946916648
 30
0.0
 10
3.7688826844
 20
3.9952531211
 30
0.0
 10
3.7709937114
 20
3.9965109474
 30
0.0
 10
3.773873423
 20
3.9987799067
 30
0.0
 10
3.7764040846
 20
4.0013845473
 30
0.0
 10
3.7785397986
 20
4.0042787857
 30
0.0
 10
3.780242428
 20
4.0074115707
 30
0.0
 10
3.7814811684
 20
4.0107276283
 30
0.0
 10
3.7822335691
 20
4.014167019
 30
0.0
 10
3.7824018726
 20
4.0165046755
 30
0.0
 10
3.7824018726
 20
4.0176701251
 30
0.0
  0
SPLINE
  5
308
100
AcDbEntity
  8
0
100
AcDbSpline
 62
7
  6
CONTINUOUS
 70
0
 71
3
 72
34
 73
30
 74
0
 42
0.0000001
 43
0.0000001
 44
0.0000000001
 40
0.0
 40
0.0
 40
0.0
 40
0.0
 40
0.0955774512
 40
0.1902493715
 40
0.2831227539
 40
0.3733201073
 40
0.4599921732
 40
0.5423260036
 40
0.6195542567
 40
0.6909640137
 40
0.7559068086
 40
0.7857717273
 40
0.813811835
 40
0.8399695677
 40
0.8641944025
 40
0.8864437192
 40
0.9066840974
 40
0.9248937208
 40
0.941065944
 40
0.9552149245
 40
0.9673861541
 40
0.9727602479
 40
0.9776824408
 40
0.9821790989
 40
0.9862857542
 40
0.9900500927
 40
0.9935349652
 40
0.9968198891
 40
1.0
 40
1.0
 40
1.0
 40
1.0
 10
4.1170108139
 20
4.3024051887
 30
0.0
 10
4.1170108139
 20
4.3001180589
 30
0.0
 10
4.1169813581
 20
4.2955654121
 30
0.0
 10
4.1168490327
 20
4.2887915034
 30
0.0
 10
4.1166299482
 20
4.2821486343
 30
0.0
 10
4.1163262719
 20
4.2757007186
 30
0.0
 10
4.1159410299
 20
4.2695098075
 30
0.0
 10
4.1154780586
 20
4.2636354459
 30
0.0
 10
4.1149420493
 20
4.2581340652
 30
0.0
 10
4.1143383644
 20
4.2530585236
 30
0.0
 10
4.1137694846
 20
4.2491212965
 30
0.0
 10
4.1132795385
 20
4.2462225868
 30
0.0
 10
4.1129092795
 20
4.244245246
 30
0.0
 10
4.1125268404
 20
4.2424078577
 30
0.0
 10
4.1121331684
 20
4.2407147896
 30
0.0
 10
4.111729274
 20
4.2391700344
 30
0.0
 10
4.1113161916
 20
4.2377771755
 30
0.0
 10
4.1108949876
 20
4.2365393832
 30
0.0
 10
4.1104667391
 20
4.2354592241
 30
0.0
 10
4.1100324693
 20
4.2345389588
 30
0.0
 10
4.1096519556
 20
4.233881197
 30
0.0
 10
4.1093415761
 20
4.2334417668
 30
0.0
 10
4.1091174299
 20
4.233167341
 30
0.0
 10
4.1088922324
 20
4.2329342534
 30
0.0
 10
4.1086659004
 20
4.2327426496
 30
0.0
 10
4.1084383209
 20
4.2325927546
 30
0.0
 10
4.1082093545
 20
4.2324849373
 30
0.0
 10
4.1079791552
 20
4.2324198052
 30
0.0
 10
4.1078240903
 20
4.2324051931
 30
0.0
 10
4.1077479916
 20
4.2324051931
 30
0.0
  0
SPLINE
  5
309
100
AcDbEntity
  8
0
100
AcDbSpline
 62
7
  6
CONTINUOUS
 70
0
 71
3
 72
23
 73
19
 74
0
 42
0.0000001
 43
0.0000001
 44
0.0000000001
 40
0.0
 40
0.0
 40
0.0
 40
0.0
 40
0.0648279313
 40
0.1295675168
 40
0.1941369293
 40
0.2584568171
 40
0.3224581187
 40
0.3860826861
 40
0.4492860225
 40
0.5120390927
 40
0.5743297265
 40
0.6361634495
 40
0.6975636583
 40
0.7585710851
 40
0.8192424259
 40
0.8796486862
 40
0.9398706197
 40
1.0
 40
1.0
 40
1.0
 40
1.0
 10
3.3178308048
 20
4.1065138721
 30
0.0
 10
3.3169045209
 20
4.1065138721
 30
0.0
 10
3.3150521067
 20
4.1064295768
 30
0.0
 10
3.3123004181
 20
4.1060513443
 30
0.0
 10
3.3096015787
 20
4.1054249919
 30
0.0
 10
3.3069817909
 20
4.1045564662
 30
0.0
 10
3.3044661556
 20
4.1034540695
 30
0.0
 10
3.3020788826
 20
4.1021283174
 30
0.0
 10
3.2998429455
 20
4.1005918788
 30
0.0
 10
3.2977798947
 20
4.0988594481
 30
0.0
 10
3.2959096453
 20
4.0969476109
 30
0.0
 10
3.2942502863
 20
4.0948746946
 30
0.0
 10
3.2928179026
 20
4.0926606032
 30
0.0
 10
3.2916264116
 20
4.0903266261
 30
0.0
 10
3.2906874043
 20
4.0878952805
 30
0.0
 10
3.2900100577
 20
4.085389941
 30
0.0
 10
3.2896009626
 20
4.0828351925
 30
0.0
 10
3.289509737
 20
4.0811141846
 30
0.0
 10
3.289509737
 20
4.0802550353
 30
0.0
  0
SPLINE
  5
30A
100
AcDbEntity
  8
0
100
AcDbSpline
 62
7
  6
CONTINUOUS
 70
0
 71
3
 72
15
 73
11
 74
0
 42
0.0000001
 43
0.0000001
 44
0.0000000001
 40
0.0
 40
0.0
 40
0.0
 40
0.0
 40
0.1221072036
 40
0.2445606457
 40
0.3676828018
 40
0.4917416669
 40
0.6169345022
 40
0.7433745316
 40
0.8710849437
 40
1.0
 40
1.0
 40
1.0
 40
1.0
 10
3.289509737
 20
4.0176701251
 30
0.0
 10
3.289509737
 20
4.0165046755
 30
0.0
 10
3.2896780405
 20
4.014167019
 30
0.0
 10
3.2904304413
 20
4.0107276283
 30
0.0
 10
3.2916691816
 20
4.0074115707
 30
0.0
 10
3.2933718111
 20
4.0042787857
 30
0.0
 10
3.295507525
 20
4.0013845473
 30
0.0
 10
3.2980381866
 20
3.9987799067
 30
0.0
 10
3.3009178982
 20
3.9965109474
 30
0.0
 10
3.3030289252
 20
3.9952531211
 30
0.0
 10
3.3041237847
 20
3.9946916648
 30
0.0
  0
SPLINE
  5
30B
100
AcDbEntity
  8
0
100
AcDbSpline
 62
7
  6
CONTINUOUS
 70
0
 71
3
 72
23
 73
19
 74
0
 42
0.0000001
 43
0.0000001
 44
0.0000000001
 40
0.0
 40
0.0
 40
0.0
 40
0.0
 40
0.0601293803
 40
0.1203513138
 40
0.1807575741
 40
0.2414289149
 40
0.3024363417
 40
0.3638365505
 40
0.4256702735
 40
0.4879609073
 40
0.5507139775
 40
0.6139173139
 40
0.6775418813
 40
0.7415431829
 40
0.8058630707
 40
0.8704324832
 40
0.9351720687
 40
1.0
 40
1.0
 40
1.0
 40
1.0
 10
3.7824018726
 20
4.0802550353
 30
0.0
 10
3.7824018726
 20
4.0811141846
 30
0.0
 10
3.782310647
 20
4.0828351925
 30
0.0
 10
3.781901552
 20
4.085389941
 30
0.0
 10
3.7812242053
 20
4.0878952805
 30
0.0
 10
3.780285198
 20
4.0903266261
 30
0.0
 10
3.779093707
 20
4.0926606032
 30
0.0
 10
3.7776613233
 20
4.0948746946
 30
0.0
 10
3.7760019643
 20
4.0969476109
 30
0.0
 10
3.7741317149
 20
4.0988594481
 30
0.0
 10
3.7720686641
 20
4.1005918788
 30
0.0
 10
3.769832727
 20
4.1021283174
 30
0.0
 10
3.767445454
 20
4.1034540695
 30
0.0
 10
3.7649298187
 20
4.1045564662
 30
0.0
 10
3.7623100309
 20
4.1054249919
 30
0.0
 10
3.7596111915
 20
4.1060513443
 30
0.0
 10
3.756859503
 20
4.1064295768
 30
0.0
 10
3.7550070887
 20
4.1065138721
 30
0.0
 10
3.7540808048
 20
4.1065138721
 30
0.0
  0
SPLINE
  5
30C
100
AcDbEntity
  8
0
100
AcDbSpline
 62
7
  6
CONTINUOUS
 70
0
 71
3
 72
20
 73
16
 74
0
 42
0.0000001
 43
0.0000001
 44
0.0000000001
 40
0.0
 40
0.0
 40
0.0
 40
0.0
 40
0.0326067643
 40
0.0670459303
 40
0.1048184232
 40
0.1469655313
 40
0.1940960735
 40
0.2464837984
 40
0.3041535814
 40
0.3669464756
 40
0.434564373
 40
0.506601126
 40
0.6618576905
 40
0.8281020803
 40
1.0
 40
1.0
 40
1.0
 40
1.0
 10
3.2828308048
 20
4.3893304332
 30
0.0
 10
3.2828308048
 20
4.3894230097
 30
0.0
 10
3.282856606
 20
4.389614185
 30
0.0
 10
3.2829697629
 20
4.3898922083
 30
0.0
 10
3.2831541095
 20
4.3901619245
 30
0.0
 10
3.283406492
 20
4.3904215744
 30
0.0
 10
3.283724244
 20
4.3906697815
 30
0.0
 10
3.2841044876
 20
4.3909047849
 30
0.0
 10
3.2845438346
 20
4.3911246596
 30
0.0
 10
3.2850382843
 20
4.3913274335
 30
0.0
 10
3.2855832538
 20
4.3915112342
 30
0.0
 10
3.2863907008
 20
4.3917341662
 30
0.0
 10
3.2874888479
 20
4.3919495144
 30
0.0
 10
3.2888822934
 20
4.3921051418
 30
0.0
 10
3.2898427559
 20
4.3921399827
 30
0.0
 10
3.2903308048
 20
4.3921399827
 30
0.0
  0
SPLINE
  5
30D
100
AcDbEntity
  8
0
100
AcDbSpline
 62
7
  6
CONTINUOUS
 70
0
 71
3
 72
17
 73
13
 74
0
 42
0.0000001
 43
0.0000001
 44
0.0000000001
 40
0.0
 40
0.0
 40
0.0
 40
0.0
 40
0.1266051056
 40
0.1896599406
 40
0.2524820209
 40
0.3773764517
 40
0.5014020445
 40
0.6249448064
 40
0.7486875712
 40
0.8109591801
 40
0.8736204828
 40
1.0
 40
1.0
 40
1.0
 40
1.0
 10
3.4926878299
 20
4.3921399827
 30
0.0
 10
3.4945180196
 20
4.3921397228
 30
0.0
 10
3.4972599207
 20
4.39219264
 30
0.0
 10
3.5009066568
 20
4.392344369
 30
0.0
 10
3.5045265473
 20
4.392540928
 30
0.0
 10
3.5090219749
 20
4.3928610865
 30
0.0
 10
3.5143862242
 20
4.3933263834
 30
0.0
 10
3.5197299676
 20
4.3938319852
 30
0.0
 10
3.5241856648
 20
4.3942474282
 30
0.0
 10
3.5277699041
 20
4.3945251127
 30
0.0
 10
3.5313958239
 20
4.3947507955
 30
0.0
 10
3.5341288763
 20
4.3948363445
 30
0.0
 10
3.5359558048
 20
4.3948358809
 30
0.0
  0
SPLINE
  5
30E
100
AcDbEntity
  8
0
100
AcDbSpline
 62
7
  6
CONTINUOUS
 70
0
 71
3
 72
20
 73
16
 74
0
 42
0.0000001
 43
0.0000001
 44
0.0000000001
 40
0.0
 40
0.0
 40
0.0
 40
0.0
 40
0.1263837191
 40
0.1890369823
 40
0.2512875853
 40
0.3132472698
 40
0.3750477087
 40
0.4985905125
 40
0.6226143763
 40
0.6849377681
 40
0.7475091142
 40
0.8103302223
 40
0.8733849257
 40
0.9366352878
 40
1.0
 40
1.0
 40
1.0
 40
1.0
 10
3.5359558048
 20
4.3948358809
 30
0.0
 10
3.5377831809
 20
4.3948360794
 30
0.0
 10
3.5405168143
 20
4.394752724
 30
0.0
 10
3.5441430929
 20
4.3945256803
 30
0.0
 10
3.5468367739
 20
4.3943143699
 30
0.0
 10
3.5495159388
 20
4.3940784864
 30
0.0
 10
3.5530764253
 20
4.3937484674
 30
0.0
 10
3.5575295271
 20
4.3933257585
 30
0.0
 10
3.5619936107
 20
4.392938965
 30
0.0
 10
3.5655826331
 20
4.3926692093
 30
0.0
 10
3.5682910583
 20
4.3924918685
 30
0.0
 10
3.5710118576
 20
4.3923441278
 30
0.0
 10
3.573744113
 20
4.3922295801
 30
0.0
 10
3.5764857332
 20
4.3921579304
 30
0.0
 10
3.5783165027
 20
4.39214275
 30
0.0
 10
3.5792326901
 20
4.3921428452
 30
0.0
  0
SPLINE
  5
30F
100
AcDbEntity
  8
0
100
AcDbSpline
 62
7
  6
CONTINUOUS
 70
0
 71
3
 72
20
 73
16
 74
0
 42
0.0000001
 43
0.0000001
 44
0.0000000001
 40
0.0
 40
0.0
 40
0.0
 40
0.0
 40
0.1718979197
 40
0.3381423095
 40
0.493398874
 40
0.565435627
 40
0.6330535244
 40
0.6958464186
 40
0.7535162016
 40
0.8059039265
 40
0.8530344687
 40
0.8951815768
 40
0.9329540697
 40
0.9673932357
 40
1.0
 40
1.0
 40
1.0
 40
1.0
 10
3.7815808048
 20
4.3921399827
 30
0.0
 10
3.7820688537
 20
4.3921399827
 30
0.0
 10
3.7830293162
 20
4.3921051418
 30
0.0
 10
3.7844227617
 20
4.3919495144
 30
0.0
 10
3.7855209089
 20
4.3917341662
 30
0.0
 10
3.7863283558
 20
4.3915112342
 30
0.0
 10
3.7868733253
 20
4.3913274335
 30
0.0
 10
3.787367775
 20
4.3911246596
 30
0.0
 10
3.787807122
 20
4.3909047849
 30
0.0
 10
3.7881873656
 20
4.3906697815
 30
0.0
 10
3.7885051177
 20
4.3904215744
 30
0.0
 10
3.7887575002
 20
4.3901619245
 30
0.0
 10
3.7889418467
 20
4.3898922083
 30
0.0
 10
3.7890550036
 20
4.389614185
 30
0.0
 10
3.7890808048
 20
4.3894230097
 30
0.0
 10
3.7890808048
 20
4.3893304332
 30
0.0
  0
SPLINE
  5
310
100
AcDbEntity
  8
0
100
AcDbSpline
 62
7
  6
CONTINUOUS
 70
0
 71
3
 72
21
 73
17
 74
0
 42
0.0000001
 43
0.0000001
 44
0.0000000001
 40
0.0
 40
0.0
 40
0.0
 40
0.0
 40
0.1718940591
 40
0.3381329816
 40
0.4174616601
 40
0.4934217298
 40
0.5654542697
 40
0.6330681735
 40
0.6958575397
 40
0.7535243212
 40
0.805909551
 40
0.8530381545
 40
0.8951836086
 40
0.9329554283
 40
0.9673930622
 40
1.0
 40
1.0
 40
1.0
 40
1.0
 10
3.2828308048
 20
4.1127064702
 30
0.0
 10
3.2820173754
 20
4.1127064702
 30
0.0
 10
3.2804167045
 20
4.1127645806
 30
0.0
 10
3.2784512134
 20
4.1129839056
 30
0.0
 10
3.2769523663
 20
4.1132480966
 30
0.0
 10
3.2759021139
 20
4.113482668
 30
0.0
 10
3.2749181993
 20
4.1137544064
 30
0.0
 10
3.2740099372
 20
4.1140607158
 30
0.0
 10
3.2731858657
 20
4.1143986708
 30
0.0
 10
3.2724536286
 20
4.1147651209
 30
0.0
 10
3.2718198907
 20
4.1151567863
 30
0.0
 10
3.2712903051
 20
4.1155704626
 30
0.0
 10
3.2708696568
 20
4.1160032086
 30
0.0
 10
3.2705624159
 20
4.1164527418
 30
0.0
 10
3.2703738047
 20
4.1169161183
 30
0.0
 10
3.2703308048
 20
4.1172347515
 30
0.0
 10
3.2703308048
 20
4.1173890526
 30
0.0
  0
SPLINE
  5
311
100
AcDbEntity
  8
0
100
AcDbSpline
 62
7
  6
CONTINUOUS
 70
0
 71
3
 72
21
 73
17
 74
0
 42
0.0000001
 43
0.0000001
 44
0.0000000001
 40
0.0
 40
0.0
 40
0.0
 40
0.0
 40
0.1718940591
 40
0.3381329816
 40
0.4174616601
 40
0.4934217298
 40
0.5654542697
 40
0.6330681735
 40
0.6958575397
 40
0.7535243212
 40
0.805909551
 40
0.8530381545
 40
0.8951836086
 40
0.9329554283
 40
0.9673930622
 40
1.0
 40
1.0
 40
1.0
 40
1.0
 10
3.2828308048
 20
3.9852186902
 30
0.0
 10
3.2820173754
 20
3.9852186902
 30
0.0
 10
3.2804167045
 20
3.9852768006
 30
0.0
 10
3.2784512134
 20
3.9854961256
 30
0.0
 10
3.2769523663
 20
3.9857603166
 30
0.0
 10
3.2759021139
 20
3.985994888
 30
0.0
 10
3.2749181993
 20
3.9862666264
 30
0.0
 10
3.2740099372
 20
3.9865729358
 30
0.0
 10
3.2731858657
 20
3.9869108908
 30
0.0
 10
3.2724536286
 20
3.9872773409
 30
0.0
 10
3.2718198907
 20
3.9876690063
 30
0.0
 10
3.2712903051
 20
3.9880826826
 30
0.0
 10
3.2708696568
 20
3.9885154286
 30
0.0
 10
3.2705624159
 20
3.9889649618
 30
0.0
 10
3.2703738047
 20
3.9894283383
 30
0.0
 10
3.2703308048
 20
3.9897469715
 30
0.0
 10
3.2703308048
 20
3.9899012726
 30
0.0
  0
SPLINE
  5
312
100
AcDbEntity
  8
0
100
AcDbSpline
 62
7
  6
CONTINUOUS
 70
0
 71
3
 72
21
 73
17
 74
0
 42
0.0000001
 43
0.0000001
 44
0.0000000001
 40
0.0
 40
0.0
 40
0.0
 40
0.0
 40
0.0326069378
 40
0.0670445717
 40
0.1048163914
 40
0.1469618455
 40
0.194090449
 40
0.2464756788
 40
0.3041424603
 40
0.3669318265
 40
0.4345457303
 40
0.5065782702
 40
0.5825383399
 40
0.6618670184
 40
0.8281059409
 40
1.0
 40
1.0
 40
1.0
 40
1.0
 10
3.8015808048
 20
4.1173890526
 30
0.0
 10
3.8015808048
 20
4.1172347515
 30
0.0
 10
3.801537805
 20
4.1169161183
 30
0.0
 10
3.8013491937
 20
4.1164527418
 30
0.0
 10
3.8010419528
 20
4.1160032086
 30
0.0
 10
3.8006213046
 20
4.1155704626
 30
0.0
 10
3.800091719
 20
4.1151567863
 30
0.0
 10
3.7994579811
 20
4.1147651209
 30
0.0
 10
3.798725744
 20
4.1143986708
 30
0.0
 10
3.7979016725
 20
4.1140607158
 30
0.0
 10
3.7969934103
 20
4.1137544064
 30
0.0
 10
3.7960094957
 20
4.113482668
 30
0.0
 10
3.7949592433
 20
4.1132480966
 30
0.0
 10
3.7934603962
 20
4.1129839056
 30
0.0
 10
3.7914949051
 20
4.1127645806
 30
0.0
 10
3.7898942342
 20
4.1127064702
 30
0.0
 10
3.7890808048
 20
4.1127064702
 30
0.0
  0
SPLINE
  5
313
100
AcDbEntity
  8
0
100
AcDbSpline
 62
7
  6
CONTINUOUS
 70
0
 71
3
 72
21
 73
17
 74
0
 42
0.0000001
 43
0.0000001
 44
0.0000000001
 40
0.0
 40
0.0
 40
0.0
 40
0.0
 40
0.0326069378
 40
0.0670445717
 40
0.1048163914
 40
0.1469618455
 40
0.194090449
 40
0.2464756788
 40
0.3041424603
 40
0.3669318265
 40
0.4345457303
 40
0.5065782702
 40
0.5825383399
 40
0.6618670184
 40
0.8281059409
 40
1.0
 40
1.0
 40
1.0
 40
1.0
 10
3.8015808048
 20
3.9899012726
 30
0.0
 10
3.8015808048
 20
3.9897469715
 30
0.0
 10
3.801537805
 20
3.9894283383
 30
0.0
 10
3.8013491937
 20
3.9889649618
 30
0.0
 10
3.8010419528
 20
3.9885154286
 30
0.0
 10
3.8006213046
 20
3.9880826826
 30
0.0
 10
3.800091719
 20
3.9876690063
 30
0.0
 10
3.7994579811
 20
3.9872773409
 30
0.0
 10
3.798725744
 20
3.9869108908
 30
0.0
 10
3.7979016725
 20
3.9865729358
 30
0.0
 10
3.7969934103
 20
3.9862666264
 30
0.0
 10
3.7960094957
 20
3.985994888
 30
0.0
 10
3.7949592433
 20
3.9857603166
 30
0.0
 10
3.7934603962
 20
3.9854961256
 30
0.0
 10
3.7914949051
 20
3.9852768006
 30
0.0
 10
3.7898942342
 20
3.9852186902
 30
0.0
 10
3.7890808048
 20
3.9852186902
 30
0.0
  0
SPLINE
  5
314
100
AcDbEntity
  8
0
100
AcDbSpline
 62
7
  6
CONTINUOUS
 70
0
 71
3
 72
21
 73
17
 74
0
 42
0.0000001
 43
0.0000001
 44
0.0000000001
 40
0.0
 40
0.0
 40
0.0
 40
0.0
 40
0.0601461558
 40
0.1203860733
 40
0.1808094884
 40
0.2414983136
 40
0.3025232719
 40
0.3639411279
 40
0.4257926209
 40
0.4881011584
 40
0.6139472107
 40
0.741468889
 40
0.8058073111
 40
0.8703950572
 40
0.9351539824
 40
1.0
 40
1.0
 40
1.0
 40
1.0
 10
3.8015808048
 20
4.377740635
 30
0.0
 10
3.8015808048
 20
4.3781198325
 30
0.0
 10
3.8015405394
 20
4.3788794304
 30
0.0
 10
3.8013599834
 20
4.3800070141
 30
0.0
 10
3.8010610208
 20
4.3811127925
 30
0.0
 10
3.8006465755
 20
4.3821859079
 30
0.0
 10
3.8001206841
 20
4.3832160522
 30
0.0
 10
3.7994884941
 20
4.3841932697
 30
0.0
 10
3.7987560424
 20
4.3851082286
 30
0.0
 10
3.7976523727
 20
4.3862365748
 30
0.0
 10
3.7960564835
 20
4.3874478487
 30
0.0
 10
3.7942494532
 20
4.3883405024
 30
0.0
 10
3.7927129782
 20
4.3888498054
 30
0.0
 10
3.7915217202
 20
4.3891263007
 30
0.0
 10
3.7903072341
 20
4.3892932242
 30
0.0
 10
3.789489633
 20
4.3893304332
 30
0.0
 10
3.7890808048
 20
4.3893304332
 30
0.0
  0
SPLINE
  5
315
100
AcDbEntity
  8
0
100
AcDbSpline
 62
7
  6
CONTINUOUS
 70
0
 71
3
 72
21
 73
17
 74
0
 42
0.0000001
 43
0.0000001
 44
0.0000000001
 40
0.0
 40
0.0
 40
0.0
 40
0.0
 40
0.0601456675
 40
0.120384877
 40
0.1808079144
 40
0.2414965608
 40
0.3025216172
 40
0.3639397025
 40
0.4257913738
 40
0.4880999951
 40
0.6139462079
 40
0.7414682004
 40
0.8058068225
 40
0.8703947455
 40
0.9351538705
 40
1.0
 40
1.0
 40
1.0
 40
1.0
 10
3.2703308048
 20
4.1173890526
 30
0.0
 10
3.2703308048
 20
4.117768247
 30
0.0
 10
3.2703710692
 20
4.1185278374
 30
0.0
 10
3.2705516226
 20
4.1196554114
 30
0.0
 10
3.2708505799
 20
4.1207611828
 30
0.0
 10
3.2712650214
 20
4.1218342966
 30
0.0
 10
3.2717909102
 20
4.1228644433
 30
0.0
 10
3.2724230995
 20
4.1238416652
 30
0.0
 10
3.2731555511
 20
4.124756628
 30
0.0
 10
3.2742592205
 20
4.1258849783
 30
0.0
 10
3.2758551106
 20
4.1270962569
 30
0.0
 10
3.2776621436
 20
4.127988915
 30
0.0
 10
3.2791986224
 20
4.1284982205
 30
0.0
 10
3.2803898837
 20
4.1287747174
 30
0.0
 10
3.2816043728
 20
4.1289416416
 30
0.0
 10
3.2824219759
 20
4.1289788508
 30
0.0
 10
3.2828308048
 20
4.1289788508
 30
0.0
  0
SPLINE
  5
316
100
AcDbEntity
  8
0
100
AcDbSpline
 62
7
  6
CONTINUOUS
 70
0
 71
3
 72
21
 73
17
 74
0
 42
0.0000001
 43
0.0000001
 44
0.0000000001
 40
0.0
 40
0.0
 40
0.0
 40
0.0
 40
0.0601461558
 40
0.1203860733
 40
0.1808094884
 40
0.2414983136
 40
0.3025232719
 40
0.3639411279
 40
0.4257926209
 40
0.4881011584
 40
0.6139472107
 40
0.741468889
 40
0.8058073111
 40
0.8703950572
 40
0.9351539824
 40
1.0
 40
1.0
 40
1.0
 40
1.0
 10
3.2703308048
 20
4.377740635
 30
0.0
 10
3.2703308048
 20
4.3781198325
 30
0.0
 10
3.2703710703
 20
4.3788794304
 30
0.0
 10
3.2705516262
 20
4.3800070141
 30
0.0
 10
3.2708505888
 20
4.3811127925
 30
0.0
 10
3.2712650341
 20
4.3821859079
 30
0.0
 10
3.2717909256
 20
4.3832160522
 30
0.0
 10
3.2724231155
 20
4.3841932697
 30
0.0
 10
3.2731555673
 20
4.3851082286
 30
0.0
 10
3.2742592369
 20
4.3862365748
 30
0.0
 10
3.2758551262
 20
4.3874478487
 30
0.0
 10
3.2776621564
 20
4.3883405024
 30
0.0
 10
3.2791986315
 20
4.3888498054
 30
0.0
 10
3.2803898894
 20
4.3891263007
 30
0.0
 10
3.2816043755
 20
4.3892932242
 30
0.0
 10
3.2824219766
 20
4.3893304332
 30
0.0
 10
3.2828308048
 20
4.3893304332
 30
0.0
  0
SPLINE
  5
317
100
AcDbEntity
  8
0
100
AcDbSpline
 62
7
  6
CONTINUOUS
 70
0
 71
3
 72
21
 73
17
 74
0
 42
0.0000001
 43
0.0000001
 44
0.0000000001
 40
0.0
 40
0.0
 40
0.0
 40
0.0
 40
0.060145674
 40
0.1203848929
 40
0.1808079374
 40
0.2414965898
 40
0.3025216486
 40
0.3639397317
 40
0.425791397
 40
0.488100016
 40
0.613946228
 40
0.7414682147
 40
0.8058068323
 40
0.8703947514
 40
0.9351538724
 40
1.0
 40
1.0
 40
1.0
 40
1.0
 10
3.8015808048
 20
4.1173890526
 30
0.0
 10
3.8015808048
 20
4.117768247
 30
0.0
 10
3.8015405404
 20
4.1185278375
 30
0.0
 10
3.801359987
 20
4.1196554117
 30
0.0
 10
3.8010610296
 20
4.1207611832
 30
0.0
 10
3.800646588
 20
4.1218342971
 30
0.0
 10
3.8001206991
 20
4.1228644438
 30
0.0
 10
3.7994885098
 20
4.1238416656
 30
0.0
 10
3.7987560582
 20
4.1247566284
 30
0.0
 10
3.7976523889
 20
4.1258849786
 30
0.0
 10
3.7960564987
 20
4.1270962571
 30
0.0
 10
3.7942494658
 20
4.1279889151
 30
0.0
 10
3.792712987
 20
4.1284982205
 30
0.0
 10
3.7915217258
 20
4.1287747174
 30
0.0
 10
3.7903072368
 20
4.1289416416
 30
0.0
 10
3.7894896337
 20
4.1289788508
 30
0.0
 10
3.7890808048
 20
4.1289788508
 30
0.0
  0
SPLINE
  5
318
100
AcDbEntity
  8
0
100
AcDbSpline
 62
7
  6
CONTINUOUS
 70
0
 71
3
 72
34
 73
30
 74
0
 42
0.0000001
 43
0.0000001
 44
0.0000000001
 40
0.0
 40
0.0
 40
0.0
 40
0.0
 40
0.0031801109
 40
0.0064650348
 40
0.0099499073
 40
0.0137142458
 40
0.0178209011
 40
0.0223175592
 40
0.0272397521
 40
0.0326138459
 40
0.0447850755
 40
0.058934056
 40
0.0751062792
 40
0.0933159026
 40
0.1135562808
 40
0.1358055975
 40
0.1600304323
 40
0.186188165
 40
0.2142282727
 40
0.2440931914
 40
0.3090359863
 40
0.3804457433
 40
0.4576739964
 40
0.5400078268
 40
0.6266798927
 40
0.7168772461
 40
0.8097506285
 40
0.9044225488
 40
1.0
 40
1.0
 40
1.0
 40
1.0
 10
4.1077479916
 20
4.3724051844
 30
0.0
 10
4.1078240903
 20
4.3724051844
 30
0.0
 10
4.1079791552
 20
4.3723905722
 30
0.0
 10
4.1082093545
 20
4.3723254401
 30
0.0
 10
4.1084383209
 20
4.3722176229
 30
0.0
 10
4.1086659004
 20
4.3720677279
 30
0.0
 10
4.1088922324
 20
4.3718761241
 30
0.0
 10
4.1091174299
 20
4.3716430365
 30
0.0
 10
4.1093415761
 20
4.3713686107
 30
0.0
 10
4.1096519556
 20
4.3709291805
 30
0.0
 10
4.1100324693
 20
4.3702714187
 30
0.0
 10
4.1104667391
 20
4.3693511534
 30
0.0
 10
4.1108949876
 20
4.3682709943
 30
0.0
 10
4.1113161916
 20
4.367033202
 30
0.0
 10
4.111729274
 20
4.3656403431
 30
0.0
 10
4.1121331684
 20
4.3640955878
 30
0.0
 10
4.1125268404
 20
4.3624025197
 30
0.0
 10
4.1129092795
 20
4.3605651315
 30
0.0
 10
4.1132795385
 20
4.3585877907
 30
0.0
 10
4.1137694846
 20
4.3556890809
 30
0.0
 10
4.1143383644
 20
4.3517518539
 30
0.0
 10
4.1149420493
 20
4.3466763123
 30
0.0
 10
4.1154780586
 20
4.3411749316
 30
0.0
 10
4.1159410299
 20
4.3353005699
 30
0.0
 10
4.1163262719
 20
4.3291096588
 30
0.0
 10
4.1166299482
 20
4.3226617432
 30
0.0
 10
4.1168490327
 20
4.3160188741
 30
0.0
 10
4.1169813581
 20
4.3092449654
 30
0.0
 10
4.1170108139
 20
4.3046923185
 30
0.0
 10
4.1170108139
 20
4.3024051887
 30
0.0
  0
SPLINE
  5
319
100
AcDbEntity
  8
0
100
AcDbSpline
 62
7
  6
CONTINUOUS
 70
0
 71
3
 72
15
 73
11
 74
0
 42
0.0000001
 43
0.0000001
 44
0.0000000001
 40
0.0
 40
0.0
 40
0.0
 40
0.0
 40
0.1540897795
 40
0.3050518409
 40
0.449880096
 40
0.5857749775
 40
0.7102863565
 40
0.8214638592
 40
0.9180796148
 40
1.0
 40
1.0
 40
1.0
 40
1.0
 10
3.2965808048
 20
4.0783820023
 30
0.0
 10
3.2961974799
 20
4.0783820023
 30
0.0
 10
3.2954384235
 20
4.0784036975
 30
0.0
 10
3.2943228566
 20
4.0785008743
 30
0.0
 10
3.2932600861
 20
4.0786602054
 30
0.0
 10
3.2922748415
 20
4.0788778746
 30
0.0
 10
3.2913898274
 20
4.0791486019
 30
0.0
 10
3.2906247574
 20
4.0794662795
 30
0.0
 10
3.2899965329
 20
4.0798234886
 30
0.0
 10
3.2896496142
 20
4.0801068288
 30
0.0
 10
3.289509737
 20
4.0802550353
 30
0.0
  0
SPLINE
  5
31A
100
AcDbEntity
  8
0
100
AcDbSpline
 62
7
  6
CONTINUOUS
 70
0
 71
3
 72
15
 73
11
 74
0
 42
0.0000001
 43
0.0000001
 44
0.0000000001
 40
0.0
 40
0.0
 40
0.0
 40
0.0
 40
0.1540897795
 40
0.3050518409
 40
0.449880096
 40
0.5857749775
 40
0.7102863565
 40
0.8214638592
 40
0.9180796148
 40
1.0
 40
1.0
 40
1.0
 40
1.0
 10
3.2965808048
 20
4.0157970921
 30
0.0
 10
3.2961974799
 20
4.0157970921
 30
0.0
 10
3.2954384235
 20
4.0158187873
 30
0.0
 10
3.2943228566
 20
4.0159159641
 30
0.0
 10
3.2932600861
 20
4.0160752952
 30
0.0
 10
3.2922748415
 20
4.0162929644
 30
0.0
 10
3.2913898274
 20
4.0165636917
 30
0.0
 10
3.2906247574
 20
4.0168813693
 30
0.0
 10
3.2899965329
 20
4.0172385784
 30
0.0
 10
3.2896496142
 20
4.0175219186
 30
0.0
 10
3.289509737
 20
4.0176701251
 30
0.0
  0
SPLINE
  5
31B
100
AcDbEntity
  8
0
100
AcDbSpline
 62
7
  6
CONTINUOUS
 70
0
 71
3
 72
15
 73
11
 74
0
 42
0.0000001
 43
0.0000001
 44
0.0000000001
 40
0.0
 40
0.0
 40
0.0
 40
0.0
 40
0.1540897795
 40
0.3050518409
 40
0.449880096
 40
0.5857749775
 40
0.7102863565
 40
0.8214638592
 40
0.9180796148
 40
1.0
 40
1.0
 40
1.0
 40
1.0
 10
3.7753308048
 20
4.0157970921
 30
0.0
 10
3.7757141297
 20
4.0157970921
 30
0.0
 10
3.7764731861
 20
4.0158187873
 30
0.0
 10
3.7775887531
 20
4.0159159641
 30
0.0
 10
3.7786515235
 20
4.0160752952
 30
0.0
 10
3.7796367681
 20
4.0162929644
 30
0.0
 10
3.7805217823
 20
4.0165636917
 30
0.0
 10
3.7812868522
 20
4.0168813693
 30
0.0
 10
3.7819150767
 20
4.0172385784
 30
0.0
 10
3.7822619954
 20
4.0175219186
 30
0.0
 10
3.7824018726
 20
4.0176701251
 30
0.0
  0
SPLINE
  5
31C
100
AcDbEntity
  8
0
100
AcDbSpline
 62
7
  6
CONTINUOUS
 70
0
 71
3
 72
15
 73
11
 74
0
 42
0.0000001
 43
0.0000001
 44
0.0000000001
 40
0.0
 40
0.0
 40
0.0
 40
0.0
 40
0.1540897795
 40
0.3050518409
 40
0.449880096
 40
0.5857749775
 40
0.7102863565
 40
0.8214638592
 40
0.9180796148
 40
1.0
 40
1.0
 40
1.0
 40
1.0
 10
3.7753308048
 20
4.0783820023
 30
0.0
 10
3.7757141297
 20
4.0783820023
 30
0.0
 10
3.7764731861
 20
4.0784036975
 30
0.0
 10
3.7775887531
 20
4.0785008743
 30
0.0
 10
3.7786515235
 20
4.0786602054
 30
0.0
 10
3.7796367681
 20
4.0788778746
 30
0.0
 10
3.7805217823
 20
4.0791486019
 30
0.0
 10
3.7812868522
 20
4.0794662795
 30
0.0
 10
3.7819150767
 20
4.0798234886
 30
0.0
 10
3.7822619954
 20
4.0801068288
 30
0.0
 10
3.7824018726
 20
4.0802550353
 30
0.0
  0
SPLINE
  5
31D
100
AcDbEntity
  8
0
100
AcDbSpline
 62
7
  6
CONTINUOUS
 70
0
 71
3
 72
23
 73
19
 74
0
 42
0.0000001
 43
0.0000001
 44
0.0000000001
 40
0.0
 40
0.0
 40
0.0
 40
0.0
 40
0.0601288833
 40
0.1203507024
 40
0.1807570507
 40
0.2414285251
 40
0.3024360848
 40
0.3638363543
 40
0.4256701471
 40
0.4879609003
 40
0.5507140972
 40
0.6139175186
 40
0.6775421574
 40
0.7415435998
 40
0.8058636292
 40
0.8704331388
 40
0.9351726041
 40
1.0
 40
1.0
 40
1.0
 40
1.0
 10
3.2965808048
 20
4.0157970921
 30
0.0
 10
3.2965808048
 20
4.0151524564
 30
0.0
 10
3.2966492527
 20
4.0138611481
 30
0.0
 10
3.2969562038
 20
4.0119442622
 30
0.0
 10
3.2974644326
 20
4.0100644422
 30
0.0
 10
3.298168995
 20
4.0082401399
 30
0.0
 10
3.2990630016
 20
4.0064888958
 30
0.0
 10
3.3001377543
 20
4.0048276047
 30
0.0
 10
3.3013828114
 20
4.0032722398
 30
0.0
 10
3.3027861072
 20
4.0018377374
 30
0.0
 10
3.3043340692
 20
4.0005378505
 30
0.0
 10
3.3060117528
 20
3.9993850237
 30
0.0
 10
3.3078029866
 20
3.9983902793
 30
0.0
 10
3.3096905337
 20
3.9975631223
 30
0.0
 10
3.3116562292
 20
3.9969114443
 30
0.0
 10
3.313681237
 20
3.9964414776
 30
0.0
 10
3.3157458915
 20
3.9961576832
 30
0.0
 10
3.3171357968
 20
3.9960944352
 30
0.0
 10
3.3178308048
 20
3.9960944352
 30
0.0
  0
SPLINE
  5
31E
100
AcDbEntity
  8
0
100
AcDbSpline
 62
7
  6
CONTINUOUS
 70
0
 71
3
 72
23
 73
19
 74
0
 42
0.0000001
 43
0.0000001
 44
0.0000000001
 40
0.0
 40
0.0
 40
0.0
 40
0.0
 40
0.0648273959
 40
0.1295668612
 40
0.1941363708
 40
0.2584564001
 40
0.3224578425
 40
0.3860824814
 40
0.4492859028
 40
0.5120390997
 40
0.5743298528
 40
0.6361636457
 40
0.6975639152
 40
0.7585714749
 40
0.8192429493
 40
0.8796492976
 40
0.9398711167
 40
1.0
 40
1.0
 40
1.0
 40
1.0
 10
3.7540808048
 20
3.9960944352
 30
0.0
 10
3.7547758128
 20
3.9960944352
 30
0.0
 10
3.7561657182
 20
3.9961576832
 30
0.0
 10
3.7582303726
 20
3.9964414776
 30
0.0
 10
3.7602553804
 20
3.9969114443
 30
0.0
 10
3.7622210759
 20
3.9975631223
 30
0.0
 10
3.764108623
 20
3.9983902793
 30
0.0
 10
3.7658998569
 20
3.9993850237
 30
0.0
 10
3.7675775404
 20
4.0005378505
 30
0.0
 10
3.7691255024
 20
4.0018377374
 30
0.0
 10
3.7705287983
 20
4.0032722398
 30
0.0
 10
3.7717738553
 20
4.0048276047
 30
0.0
 10
3.7728486081
 20
4.0064888958
 30
0.0
 10
3.7737426147
 20
4.0082401399
 30
0.0
 10
3.774447177
 20
4.0100644422
 30
0.0
 10
3.7749554058
 20
4.0119442622
 30
0.0
 10
3.775262357
 20
4.0138611481
 30
0.0
 10
3.7753308048
 20
4.0151524564
 30
0.0
 10
3.7753308048
 20
4.0157970921
 30
0.0
  0
SPLINE
  5
31F
100
AcDbEntity
  8
0
100
AcDbSpline
 62
7
  6
CONTINUOUS
 70
0
 71
3
 72
23
 73
19
 74
0
 42
0.0000001
 43
0.0000001
 44
0.0000000001
 40
0.0
 40
0.0
 40
0.0
 40
0.0
 40
0.0601288833
 40
0.1203507024
 40
0.1807570507
 40
0.2414285251
 40
0.3024360848
 40
0.3638363543
 40
0.4256701471
 40
0.4879609003
 40
0.5507140972
 40
0.6139175186
 40
0.6775421574
 40
0.7415435998
 40
0.8058636292
 40
0.8704331388
 40
0.9351726041
 40
1.0
 40
1.0
 40
1.0
 40
1.0
 10
3.7753308048
 20
4.0783820023
 30
0.0
 10
3.7753308048
 20
4.0790266381
 30
0.0
 10
3.775262357
 20
4.0803179464
 30
0.0
 10
3.7749554058
 20
4.0822348323
 30
0.0
 10
3.774447177
 20
4.0841146523
 30
0.0
 10
3.7737426147
 20
4.0859389545
 30
0.0
 10
3.7728486081
 20
4.0876901987
 30
0.0
 10
3.7717738553
 20
4.0893514898
 30
0.0
 10
3.7705287983
 20
4.0909068547
 30
0.0
 10
3.7691255024
 20
4.0923413571
 30
0.0
 10
3.7675775404
 20
4.093641244
 30
0.0
 10
3.7658998569
 20
4.0947940708
 30
0.0
 10
3.764108623
 20
4.0957888152
 30
0.0
 10
3.7622210759
 20
4.0966159722
 30
0.0
 10
3.7602553804
 20
4.0972676502
 30
0.0
 10
3.7582303726
 20
4.0977376168
 30
0.0
 10
3.7561657182
 20
4.0980214113
 30
0.0
 10
3.7547758128
 20
4.0980846592
 30
0.0
 10
3.7540808048
 20
4.0980846592
 30
0.0
  0
SPLINE
  5
320
100
AcDbEntity
  8
0
100
AcDbSpline
 62
7
  6
CONTINUOUS
 70
0
 71
3
 72
23
 73
19
 74
0
 42
0.0000001
 43
0.0000001
 44
0.0000000001
 40
0.0
 40
0.0
 40
0.0
 40
0.0
 40
0.0648273959
 40
0.1295668612
 40
0.1941363708
 40
0.2584564001
 40
0.3224578425
 40
0.3860824814
 40
0.4492859028
 40
0.5120390997
 40
0.5743298528
 40
0.6361636457
 40
0.6975639152
 40
0.7585714749
 40
0.8192429493
 40
0.8796492976
 40
0.9398711167
 40
1.0
 40
1.0
 40
1.0
 40
1.0
 10
3.3178308048
 20
4.0980846592
 30
0.0
 10
3.3171357968
 20
4.0980846592
 30
0.0
 10
3.3157458915
 20
4.0980214113
 30
0.0
 10
3.313681237
 20
4.0977376168
 30
0.0
 10
3.3116562292
 20
4.0972676502
 30
0.0
 10
3.3096905337
 20
4.0966159722
 30
0.0
 10
3.3078029866
 20
4.0957888152
 30
0.0
 10
3.3060117528
 20
4.0947940708
 30
0.0
 10
3.3043340692
 20
4.093641244
 30
0.0
 10
3.3027861072
 20
4.0923413571
 30
0.0
 10
3.3013828114
 20
4.0909068547
 30
0.0
 10
3.3001377543
 20
4.0893514898
 30
0.0
 10
3.2990630016
 20
4.0876901987
 30
0.0
 10
3.298168995
 20
4.0859389545
 30
0.0
 10
3.2974644326
 20
4.0841146523
 30
0.0
 10
3.2969562038
 20
4.0822348323
 30
0.0
 10
3.2966492527
 20
4.0803179464
 30
0.0
 10
3.2965808048
 20
4.0790266381
 30
0.0
 10
3.2965808048
 20
4.0783820023
 30
0.0
  0
ENDSEC
  0
SECTION
  2
OBJECTS
  0
DICTIONARY
  5
C
100
AcDbDictionary
280
0
281
1
  3
ACAD_GROUP
350
D
  3
ACAD_MLINESTYLE
350
17
  3
ACAD_LAYOUT
350
1A
  3
ACAD_PLOTSETTINGS
350
19
  3
ACAD_PLOTSTYLENAME
350
E
  0
DICTIONARY
  5
D
102
{ACAD_REACTORS
330
C
102
}
100
AcDbDictionary
280
0
281
1
  0
ACDBDICTIONARYWDFLT
  5
E
102
{ACAD_REACTORS
330
C
102
}
100
AcDbDictionary
281
1
  3
Normal
350
F
100
AcDbDictionaryWithDefault
340
F
  0
DICTIONARY
  5
17
102
{ACAD_REACTORS
330
C
102
}
100
AcDbDictionary
280
0
281
1
  3
Standard
350
18
  0
DICTIONARY
  5
19
102
{ACAD_REACTORS
330
C
102
}
100
AcDbDictionary
281
1
  0
DICTIONARY
  5
1A
102
{ACAD_REACTORS
330
C
102
}
100
AcDbDictionary
281
1
  3
Model
350
321
  3
Layout1
350
322
  0
ACDBPLACEHOLDER
  5
F
102
{ACAD_REACTORS
330
E
102
}
  0
MLINESTYLE
  5
18
102
{ACAD_REACTORS
330
17
102
}
100
AcDbMlineStyle
  2
STANDARD
 70
0
  3

 62
256
 51
90.0
 52
90.0
 71
2
 49
0.5
 62
256
  6
BYLAYER
 49
-0.5
 62
256
  6
BYLAYER
  0
LAYOUT
  5
321
102
{ACAD_REACTORS
330
1A
102
}
100
AcDbPlotSettings
  1

  2
none_device
  4
ANSI_A_(11.00_x_8.50_Inches)
  6

 40
0.0
 41
0.0
 42
0.0
 43
0.0
 44
279.4
 45
215.9
 46
0.0
 47
0.0
 48
0.0
 49
0.0
140
0.0
141
0.0
142
1.0
143
1.0
 70
1024
 72
0
 73
0
 74
0
  7

 75
0
147
1.0
148
0.0
149
0.0
100
AcDbLayout
  1
Model
 70
0
 71
0
 10
0.0
 20
0.0
 11
11.0
 21
8.5
 12
0.0
 22
0.0
 32
0.0
 14
0.0
 24
0.0
 34
0.0
 15
0.0
 25
0.0
 35
0.0
146
0.0
 13
0.0
 23
0.0
 33
0.0
 16
1.0
 26
0.0
 36
0.0
 17
0.0
 27
1.0
 37
0.0
 76
0
330
202
345
0
346
0
  0
LAYOUT
  5
322
102
{ACAD_REACTORS
330
1A
102
}
100
AcDbPlotSettings
  1

  2
none_device
  4
ANSI_A_(11.00_x_8.50_Inches)
  6

 40
0.0
 41
0.0
 42
0.0
 43
0.0
 44
279.4
 45
215.9
 46
0.0
 47
0.0
 48
0.0
 49
0.0
140
0.0
141
0.0
142
1.0
143
1.0
 70
0
 72
0
 73
0
 74
0
  7

 75
0
147
1.0
148
0.0
149
0.0
100
AcDbLayout
  1
Layout1
 70
0
 71
1
 10
0.0
 20
0.0
 11
11.0
 21
8.5
 12
0.0
 22
0.0
 32
0.0
 14
0.0
 24
0.0
 34
0.0
 15
0.0
 25
0.0
 35
0.0
146
0.0
 13
0.0
 23
0.0
 33
0.0
 16
1.0
 26
0.0
 36
0.0
 17
0.0
 27
1.0
 37
0.0
 76
0
330
203
345
0
346
0
  0
ENDSEC
  0
EOF
