999
DXF file: E:\BT Custom\CADOUTPUT\_RIGHT.dxf
999
Pro/ENGINEER 2018400 by Parametric Technology Corporation
  0
SECTION
  2
HEADER
  9
$ACADVER
  1
AC1018
  9
$DWGCODEPAGE
  3
ANSI_1252
  9
$EXTMAX
 10
22.0
 20
17.0
 30
0.0
  9
$EXTMIN
 10
0.0
 20
0.0
 30
0.0
  9
$LIMMIN
 10
0.0
 20
0.0
  9
$LIMMAX
 10
22.0
 20
17.0
  9
$VIEWCTR
 10
11.0
 20
8.5
  9
$VIEWSIZE
 40
17.0
  9
$CLAYER
  8
0
  9
$LTSCALE
 40
1.21
  9
$CELTYPE
  6
BYLAYER
  9
$DIMSCALE
 40
1.0
  9
$DIMASZ
 40
0.1
  9
$DIMEXO
 40
0.0625
  9
$DIMDLI
 40
0.836
  9
$DIMEXE
 40
0.125
  9
$DIMCEN
 40
0.198
  9
$DIMLFAC
 40
1.0
  9
$DIMBLK
  1
_FILLED
  9
$DIMALT
 70
1
  9
$DIMALTD
 70
2
  9
$DIMALTTD
 70
2
  9
$DIMALTF
 40
25.4
  9
$DIMTXT
 40
0.08
  9
$DIMTOL
 70
1
  9
$DIMLIM
 70
0
  9
$DIMTFAC
 40
1.0
  9
$DIMTP
 40
0.001
  9
$DIMTM
 40
0.001
  9
$DIMGAP
 40
0.09
  9
$DIMDSEP
 70
46
  9
$AUNITS
 70
0
  9
$PDMODE
 70
3
  9
$PDSIZE
 40
0.06
  9
$HANDSEED
  5
624
  9
$TILEMODE
 70
1
  9
$MEASUREMENT
 70
0
  9
$INSUNITS
 70
1
  0
ENDSEC
  0
SECTION
  2
CLASSES
  0
CLASS
  1
ACDBDICTIONARYWDFLT
  2
AcDbDictionaryWithDefault
  3
AutoCAD 2000
 90
0
 91
1
280
0
281
0
  0
CLASS
  1
ACDBPLACEHOLDER
  2
AcDbPlaceHolder
  3
AutoCAD 2000
 90
0
 91
1
280
0
281
0
  0
CLASS
  1
LAYOUT
  2
AcDbLayout
  3
AutoCAD 2000
 90
0
 91
0
280
0
281
0
  0
ENDSEC
  0
SECTION
  2
TABLES
  0
TABLE
  2
VPORT
  5
8
100
AcDbSymbolTable
 70
2
  0
VPORT
  5
1F4
100
AcDbSymbolTableRecord
100
AcDbViewportTableRecord
  2
*ACTIVE
 70
0
 10
0.0
 20
0.0
 11
1.0
 21
1.0
 12
11.0
 22
8.5
 13
0.0
 23
0.0
 14
1.0
 24
1.0
 15
0.0
 25
0.0
 16
0.0
 26
0.0
 36
1.0
 17
0.0
 27
0.0
 37
0.0
 40
17.0
 41
1.2941176471
 42
50.0
 43
0.0
 44
0.0
 50
0.0
 51
0.0
 71
0
 72
100
 73
1
 74
1
 75
0
 76
0
 77
0
 78
0
  0
ENDTAB
  0
TABLE
  2
LTYPE
  5
5
100
AcDbSymbolTable
 70
6
  0
LTYPE
  5
14
100
AcDbSymbolTableRecord
100
AcDbLinetypeTableRecord
  2
BYBLOCK
 70
0
  3

 72
65
 73
0
 40
0.0
  0
LTYPE
  5
15
100
AcDbSymbolTableRecord
100
AcDbLinetypeTableRecord
  2
BYLAYER
 70
0
  3

 72
65
 73
0
 40
0.0
  0
LTYPE
  5
16
100
AcDbSymbolTableRecord
100
AcDbLinetypeTableRecord
  2
CONTINUOUS
 70
64
  3
Solid line
 72
65
 73
0
 40
0.0
  0
LTYPE
  5
1F5
100
AcDbSymbolTableRecord
100
AcDbLinetypeTableRecord
  2
CENTER
 70
64
  3
____ _ ____ _ ____ _ ____ _ ____ _ ____ _ ____
 72
65
 73
4
 40
0.6
 49
0.375
 74
0
 49
-0.075
 74
0
 49
0.075
 74
0
 49
-0.075
 74
0
  0
LTYPE
  5
1F6
100
AcDbSymbolTableRecord
100
AcDbLinetypeTableRecord
  2
HIDDEN
 70
64
  3
- - - - - - - - - - - - - - - - - - - -
 72
65
 73
2
 40
0.2
 49
0.1
 74
0
 49
-0.1
 74
0
  0
LTYPE
  5
1F7
100
AcDbSymbolTableRecord
100
AcDbLinetypeTableRecord
  2
PHANTOM
 70
64
  3
_____ _ _ _____ _ _ _____ _ _ _____
 72
65
 73
6
 40
0.8
 49
0.45
 74
0
 49
-0.05
 74
0
 49
0.1
 74
0
 49
-0.05
 74
0
 49
0.1
 74
0
 49
-0.05
 74
0
  0
LTYPE
  5
1F8
100
AcDbSymbolTableRecord
100
AcDbLinetypeTableRecord
  2
DOT
 70
64
  3
. . . . . . . . . . . . . . . . . . . .
 72
65
 73
2
 40
0.2
 49
0.1
 74
0
 49
-0.1
 74
0
  0
LTYPE
  5
1F9
100
AcDbSymbolTableRecord
100
AcDbLinetypeTableRecord
  2
DASHED
 70
64
  3
- - - - - - - - - - - - - - - - - - - -
 72
65
 73
2
 40
0.2
 49
0.1
 74
0
 49
-0.1
 74
0
  0
ENDTAB
  0
TABLE
  2
LAYER
  5
2
100
AcDbSymbolTable
 70
36
  0
LAYER
  5
10
100
AcDbSymbolTableRecord
100
AcDbLayerTableRecord
  2
0
 70
0
 62
7
  6
CONTINUOUS
370
-3
390
F
  0
LAYER
  5
1FA
100
AcDbSymbolTableRecord
100
AcDbLayerTableRecord
  2
DEFAULT_1
 70
0
 62
7
  6
CENTER
370
-3
390
F
  0
LAYER
  5
1FB
100
AcDbSymbolTableRecord
100
AcDbLayerTableRecord
  2
DEFAULT_2
 70
0
 62
8
  6
HIDDEN
370
-3
390
F
  0
LAYER
  5
1FC
100
AcDbSymbolTableRecord
100
AcDbLayerTableRecord
  2
DEFAULT_3
 70
0
 62
7
  6
PHANTOM
370
-3
390
F
  0
LAYER
  5
1FD
100
AcDbSymbolTableRecord
100
AcDbLayerTableRecord
  2
ALL_FEATURES
 70
0
 62
7
  6
CONTINUOUS
370
-3
390
F
  0
LAYER
  5
1FE
100
AcDbSymbolTableRecord
100
AcDbLayerTableRecord
  2
AXES_FEATURES
 70
0
 62
7
  6
CONTINUOUS
370
-3
390
F
  0
LAYER
  5
1FF
100
AcDbSymbolTableRecord
100
AcDbLayerTableRecord
  2
DIMENSIONS
 70
0
 62
7
  6
CONTINUOUS
370
-3
390
F
  0
ENDTAB
  0
TABLE
  2
STYLE
  5
3
100
AcDbSymbolTable
 70
1
  0
STYLE
  5
11
100
AcDbSymbolTableRecord
100
AcDbTextStyleTableRecord
  2
STANDARD
 70
0
 40
0.0
 41
0.8
 50
0.0
 71
0
 42
0.2
  3
txt
  4

  0
STYLE
  5
200
100
AcDbSymbolTableRecord
100
AcDbTextStyleTableRecord
  2
TEXTSTYLE_1
 70
0
 40
0.0
 41
0.8
 50
0.0
 71
0
 42
0.2
  3
gdt
  4

  0
ENDTAB
  0
TABLE
  2
VIEW
  5
6
100
AcDbSymbolTable
 70
0
  0
ENDTAB
  0
TABLE
  2
UCS
  5
7
100
AcDbSymbolTable
 70
0
  0
ENDTAB
  0
TABLE
  2
APPID
  5
9
100
AcDbSymbolTable
 70
1
  0
APPID
  5
201
100
AcDbSymbolTableRecord
100
AcDbRegAppTableRecord
  2
ACAD
 70
0
  0
ENDTAB
  0
TABLE
  2
BLOCK_RECORD
  5
1
100
AcDbSymbolTable
 70
0
  0
BLOCK_RECORD
  5
202
100
AcDbSymbolTableRecord
100
AcDbBlockTableRecord
  2
*Model_Space
  0
BLOCK_RECORD
  5
203
100
AcDbSymbolTableRecord
100
AcDbBlockTableRecord
  2
*Paper_Space
  0
BLOCK_RECORD
  5
204
100
AcDbSymbolTableRecord
100
AcDbBlockTableRecord
  2
_FILLED
  0
ENDTAB
  0
TABLE
  2
DIMSTYLE
  5
A
100
AcDbSymbolTable
 70
1
100
AcDbDimStyleTable
 71
0
  0
DIMSTYLE
105
205
100
AcDbSymbolTableRecord
100
AcDbDimStyleTableRecord
  2
STANDARD
 70
0
  3

  4

 40
1.0
 41
0.1
 42
0.0625
 43
0.38
 44
0.125
 45
0.0
 46
0.0
 47
0.001
 48
0.001
140
0.08
141
0.09
142
0.0
143
25.4
144
1.0
145
0.0
146
1.0
147
0.09
 71
1.0
 72
0.0
 73
1
 74
1
 75
0
 76
0
 77
0
 78
4
 79
1
170
1
171
2
172
0
173
0
174
0
175
0
176
0
177
0
178
0
270
2
179
3
271
3
272
3
273
2
274
2
275
0
280
0
281
0
282
0
283
1
284
4
285
0
286
0
287
3
288
0
340
11
278
46
341
204
342
204
343
204
344
204
  0
ENDTAB
  0
ENDSEC
  0
SECTION
  2
BLOCKS
  0
BLOCK
  5
20
100
AcDbEntity
  8
0
100
AcDbBlockBegin
  2
*Model_Space
 70
0
 10
0.0
 20
0.0
 30
0.0
  3
*Model_Space
  1

  0
ENDBLK
  5
21
100
AcDbEntity
  8
0
100
AcDbBlockEnd
  0
BLOCK
  5
1C
100
AcDbEntity
  8
0
100
AcDbBlockBegin
  2
*Paper_Space
 70
0
 10
0.0
 20
0.0
 30
0.0
  3
*Paper_Space
  1

  0
ENDBLK
  5
1D
100
AcDbEntity
  8
0
100
AcDbBlockEnd
  0
BLOCK
  5
206
100
AcDbEntity
  8
0
100
AcDbBlockBegin
  2
_FILLED
 70
64
 10
0.0
 20
0.0
  3
_FILLED
  1

  0
SOLID
  5
207
100
AcDbEntity
  8
0
  6
BYBLOCK
 62
0
100
AcDbTrace
 10
0.0
 20
0.0
 11
-1.0
 21
0.2
 12
-1.0
 22
-0.2
 13
-1.0
 23
-0.2
  0
ENDBLK
  5
208
100
AcDbEntity
  8
0
  6
BYBLOCK
 62
0
100
AcDbBlockEnd
  0
ENDSEC
  0
SECTION
  2
ENTITIES
  0
LWPOLYLINE
  5
209
100
AcDbEntity
  8
0
100
AcDbPolyline
 62
7
  6
CONTINUOUS
 90
39
 70
0
 10
13.0819901736
 20
-10.4336787736
 10
13.1921065653
 20
-10.4163825186
 10
13.3213707117
 20
-10.3428346299
 10
13.4160705883
 20
-10.2262812526
 10
13.4806615654
 20
-10.0747692256
 10
13.5270211004
 20
-9.8722058767
 10
13.5583070221
 20
-9.6125382327
 10
13.5756380646
 20
-9.315874157
 10
13.5822208428
 20
-9.0019660991
 10
13.581033815
 20
-8.6741875211
 10
13.57387338
 20
-8.3337412303
 10
13.5618652843
 20
-7.9801748353
 10
13.545881972
 20
-7.6170173236
 10
13.5265620209
 20
-7.2452610401
 10
13.5043321563
 20
-6.8644854497
 10
13.4795738546
 20
-6.47531546
 10
13.4525320607
 20
-6.0773569948
 10
13.4233162244
 20
-5.6691126699
 10
13.3919760839
 20
-5.2489366234
 10
13.3586512878
 20
-4.8167437806
 10
13.3234446091
 20
-4.372104776
 10
13.2864083378
 20
-3.9140668306
 10
13.2475635033
 20
-3.4413911034
 10
13.2069624536
 20
-2.9532370487
 10
13.1646404254
 20
-2.4484840769
 10
13.1206179803
 20
-1.9256940047
 10
13.0749151274
 20
-1.3832110931
 10
13.0275680753
 20
-0.8192669577
 10
12.9786218393
 20
-0.2317703698
 10
12.9281523496
 20
0.3816149196
 10
12.8762603326
 20
1.02381349
 10
12.823067553
 20
1.6988105598
 10
12.7688272649
 20
2.4108987478
 10
12.7139456622
 20
3.1653446686
 10
12.6590161355
 20
3.969851251
 10
12.6051890846
 20
4.8328061699
 10
12.5542798037
 20
5.7694459141
 10
12.5101094106
 20
6.799504866
 10
12.4818116629
 20
7.8859303208
  0
LINE
  5
20A
100
AcDbEntity
  8
0
100
AcDbLine
 62
7
  6
CONTINUOUS
 10
13.0822172211
 20
-10.4336793262
 11
13.0819901736
 21
-10.4336787736
  0
LINE
  5
20B
100
AcDbEntity
  8
0
100
AcDbLine
 62
7
  6
CONTINUOUS
 10
11.2869851719
 20
-8.9774539761
 11
11.1832301285
 21
-8.9774539761
  0
LINE
  5
20C
100
AcDbEntity
  8
0
100
AcDbLine
 62
7
  6
CONTINUOUS
 10
12.8900701285
 20
-8.9070696792
 11
12.9412609266
 21
-8.9070696792
  0
LINE
  5
20D
100
AcDbEntity
  8
0
100
AcDbLine
 62
7
  6
CONTINUOUS
 10
12.2701267226
 20
-8.8370696792
 11
12.8900701285
 21
-8.8370696792
  0
LINE
  5
20E
100
AcDbEntity
  8
0
100
AcDbLine
 62
7
  6
CONTINUOUS
 10
10.6987301285
 20
-7.7218785386
 11
10.9755080311
 21
-7.7218785386
  0
LINE
  5
20F
100
AcDbEntity
  8
0
100
AcDbLine
 62
7
  6
CONTINUOUS
 10
11.5380814884
 20
-7.7218785386
 11
11.7927301285
 21
-7.7218785386
  0
LINE
  5
210
100
AcDbEntity
  8
0
100
AcDbLine
 62
7
  6
CONTINUOUS
 10
11.7927301285
 20
-7.6744741089
 11
11.5325565746
 21
-7.6744741089
  0
LINE
  5
211
100
AcDbEntity
  8
0
100
AcDbLine
 62
7
  6
CONTINUOUS
 10
10.9695971859
 20
-7.6744741089
 11
10.6987301285
 21
-7.6744741089
  0
LINE
  5
212
100
AcDbEntity
  8
0
100
AcDbLine
 62
7
  6
CONTINUOUS
 10
12.2701267226
 20
-7.6270696792
 11
12.8900701285
 21
-7.6270696792
  0
LINE
  5
213
100
AcDbEntity
  8
0
100
AcDbLine
 62
7
  6
CONTINUOUS
 10
10.6987301285
 20
-7.5624741089
 11
10.9556319372
 21
-7.5624741089
  0
LINE
  5
214
100
AcDbEntity
  8
0
100
AcDbLine
 62
7
  6
CONTINUOUS
 10
11.519503146
 20
-7.5624741089
 11
11.7927301285
 21
-7.5624741089
  0
LINE
  5
215
100
AcDbEntity
  8
0
100
AcDbLine
 62
7
  6
CONTINUOUS
 10
12.8900701285
 20
-7.5570696792
 11
12.9412609266
 21
-7.5570696792
  0
LINE
  5
216
100
AcDbEntity
  8
0
100
AcDbLine
 62
7
  6
CONTINUOUS
 10
11.7927230198
 20
-7.5150696792
 11
11.5139782323
 21
-7.5150696792
  0
LINE
  5
217
100
AcDbEntity
  8
0
100
AcDbLine
 62
7
  6
CONTINUOUS
 10
10.9497210921
 20
-7.5150696792
 11
10.6987372372
 21
-7.5150696792
  0
LWPOLYLINE
  5
218
100
AcDbEntity
  8
0
100
AcDbPolyline
 62
7
  6
CONTINUOUS
 90
4
 70
0
 10
12.815003257
 20
-10.3282513657
 10
12.8879353489
 20
-10.3796998811
 10
12.9892649651
 20
-10.4216340248
 10
13.0822172211
 20
-10.4336793262
  0
LINE
  5
219
100
AcDbEntity
  8
0
100
AcDbLine
 62
7
  6
CONTINUOUS
 10
11.4295108598
 20
-9.1653755062
 11
12.8153447561
 21
-10.3285384785
  0
LINE
  5
21A
100
AcDbEntity
  8
0
100
AcDbLine
 62
7
  6
CONTINUOUS
 10
11.7895282712
 20
-8.7364379077
 11
12.9811158331
 21
-9.7365653644
  0
LINE
  5
21B
100
AcDbEntity
  8
0
100
AcDbLine
 62
7
  6
CONTINUOUS
 10
7.8730910057
 20
17.834907835
 11
7.9510561332
 21
17.8632848207
  0
LINE
  5
21C
100
AcDbEntity
  8
0
100
AcDbLine
 62
7
  6
CONTINUOUS
 10
8.1093653405
 20
18.8558610119
 11
8.1175188312
 21
18.8640145026
  0
LINE
  5
21D
100
AcDbEntity
  8
0
100
AcDbLine
 62
7
  6
CONTINUOUS
 10
8.1093656182
 20
18.8008596707
 11
8.1175188312
 21
18.8090128836
  0
LINE
  5
21E
100
AcDbEntity
  8
0
100
AcDbLine
 62
7
  6
CONTINUOUS
 10
8.06781845
 20
18.617509511
 11
8.0759719676
 21
18.6256630286
  0
LINE
  5
21F
100
AcDbEntity
  8
0
100
AcDbLine
 62
7
  6
CONTINUOUS
 10
8.1093656182
 20
18.6396030832
 11
8.1175188312
 21
18.6477562961
  0
LINE
  5
220
100
AcDbEntity
  8
0
100
AcDbLine
 62
7
  6
CONTINUOUS
 10
8.06781845
 20
18.5229446511
 11
8.0759719676
 21
18.5310981687
  0
LINE
  5
221
100
AcDbEntity
  8
0
100
AcDbLine
 62
7
  6
CONTINUOUS
 10
8.1093656182
 20
18.3830808971
 11
8.1175188312
 21
18.39123411
  0
LINE
  5
222
100
AcDbEntity
  8
0
100
AcDbLine
 62
7
  6
CONTINUOUS
 10
8.06781845
 20
18.3402593703
 11
8.0759719676
 21
18.3484128878
  0
LINE
  5
223
100
AcDbEntity
  8
0
100
AcDbLine
 62
7
  6
CONTINUOUS
 10
7.9490754977
 20
18.1327723066
 11
7.9618417559
 21
18.1455385648
  0
LINE
  5
224
100
AcDbEntity
  8
0
100
AcDbLine
 62
7
  6
CONTINUOUS
 10
7.9490754977
 20
18.1001495487
 11
7.9618417559
 21
18.1129158069
  0
LINE
  5
225
100
AcDbEntity
  8
0
100
AcDbLine
 62
7
  6
CONTINUOUS
 10
8.06781845
 20
18.0819033684
 11
8.0759719676
 21
18.090056886
  0
LINE
  5
226
100
AcDbEntity
  8
0
100
AcDbLine
 62
7
  6
CONTINUOUS
 10
8.1093656182
 20
18.0487746755
 11
8.1175191799
 21
18.0569282372
  0
LINE
  5
227
100
AcDbEntity
  8
0
100
AcDbLine
 62
7
  6
CONTINUOUS
 10
7.8462192215
 20
17.7573818254
 11
7.8543724426
 21
17.7655350465
  0
LINE
  5
228
100
AcDbEntity
  8
0
100
AcDbLine
 62
7
  6
CONTINUOUS
 10
7.8462192215
 20
17.6649651118
 11
7.854372441
 21
17.6731183313
  0
LINE
  5
229
100
AcDbEntity
  8
0
100
AcDbLine
 62
7
  6
CONTINUOUS
 10
7.9490754977
 20
17.6871527741
 11
7.9618417559
 21
17.6999190323
  0
LINE
  5
22A
100
AcDbEntity
  8
0
100
AcDbLine
 62
7
  6
CONTINUOUS
 10
8.06781845
 20
17.7654831802
 11
8.0759719675
 21
17.7736366978
  0
LINE
  5
22B
100
AcDbEntity
  8
0
100
AcDbLine
 62
7
  6
CONTINUOUS
 10
8.1093656182
 20
17.6594668349
 11
8.1175188312
 21
17.6676200478
  0
LINE
  5
22C
100
AcDbEntity
  8
0
100
AcDbLine
 62
7
  6
CONTINUOUS
 10
7.9490754977
 20
17.484750041
 11
7.9618417559
 21
17.4975162992
  0
LINE
  5
22D
100
AcDbEntity
  8
0
100
AcDbLine
 62
7
  6
CONTINUOUS
 10
7.8462192215
 20
17.3557327612
 11
7.8543724426
 21
17.3638859824
  0
LINE
  5
22E
100
AcDbEntity
  8
0
100
AcDbLine
 62
7
  6
CONTINUOUS
 10
8.06781845
 20
17.4125623185
 11
8.0759719676
 21
17.4207158361
  0
LINE
  5
22F
100
AcDbEntity
  8
0
100
AcDbLine
 62
7
  6
CONTINUOUS
 10
7.9490754977
 20
17.2670686623
 11
7.9618417559
 21
17.2798349205
  0
LWPOLYLINE
  5
230
100
AcDbEntity
  8
0
100
AcDbPolyline
 62
7
  6
CONTINUOUS
 90
4
 70
0
 10
8.005395049
 20
18.1528419938
 10
8.0037186586
 20
18.1513275503
 10
8.001661555
 20
18.1501016526
 10
7.9992998651
 20
18.1492937035
  0
LWPOLYLINE
  5
231
100
AcDbEntity
  8
0
100
AcDbPolyline
 62
7
  6
CONTINUOUS
 90
3
 70
0
 10
7.9850474956
 20
16.5004075681
 10
7.9807329938
 20
16.4980079065
 10
7.9775021285
 20
16.4975405549
  0
LINE
  5
232
100
AcDbEntity
  8
0
100
AcDbLine
 62
7
  6
CONTINUOUS
 10
7.9863682719
 20
16.5020538992
 11
7.9850474956
 21
16.5004075681
  0
LINE
  5
233
100
AcDbEntity
  8
0
100
AcDbLine
 62
7
  6
CONTINUOUS
 10
7.8462192215
 20
17.0108288907
 11
7.854372441
 21
17.0189821102
  0
LINE
  5
234
100
AcDbEntity
  8
0
100
AcDbLine
 62
7
  6
CONTINUOUS
 10
8.1093656182
 20
17.2416880613
 11
8.1175188312
 21
17.2498412742
  0
LINE
  5
235
100
AcDbEntity
  8
0
100
AcDbLine
 62
7
  6
CONTINUOUS
 10
8.06781845
 20
17.0471917568
 11
8.0759719676
 21
17.0553452744
  0
LINE
  5
236
100
AcDbEntity
  8
0
100
AcDbLine
 62
7
  6
CONTINUOUS
 10
8.1093656182
 20
16.8239092877
 11
8.1175188312
 21
16.8320625007
  0
LINE
  5
237
100
AcDbEntity
  8
0
100
AcDbLine
 62
7
  6
CONTINUOUS
 10
7.9490754977
 20
16.627560512
 11
7.9618417558
 21
16.6403267701
  0
LINE
  5
238
100
AcDbEntity
  8
0
100
AcDbLine
 62
7
  6
CONTINUOUS
 10
8.06781845
 20
16.6942708951
 11
8.0759719676
 21
16.7024244127
  0
LINE
  5
239
100
AcDbEntity
  8
0
100
AcDbLine
 62
7
  6
CONTINUOUS
 10
7.9490754977
 20
16.4813147943
 11
7.9618417559
 21
16.4940810525
  0
LINE
  5
23A
100
AcDbEntity
  8
0
100
AcDbLine
 62
7
  6
CONTINUOUS
 10
8.1093656182
 20
16.4346014471
 11
8.1175188312
 21
16.4427546601
  0
LINE
  5
23B
100
AcDbEntity
  8
0
100
AcDbLine
 62
7
  6
CONTINUOUS
 10
8.06781845
 20
16.3778507069
 11
8.0759719676
 21
16.3860042245
  0
LINE
  5
23C
100
AcDbEntity
  8
0
100
AcDbLine
 62
7
  6
CONTINUOUS
 10
8.06781845
 20
16.1194947051
 11
8.0759719676
 21
16.1276482227
  0
LINE
  5
23D
100
AcDbEntity
  8
0
100
AcDbLine
 62
7
  6
CONTINUOUS
 10
8.1093656182
 20
16.1002952255
 11
8.1175188312
 21
16.1084484385
  0
LINE
  5
23E
100
AcDbEntity
  8
0
100
AcDbLine
 62
7
  6
CONTINUOUS
 10
8.06781845
 20
15.9368094243
 11
8.0759719675
 21
15.9449629418
  0
LINE
  5
23F
100
AcDbEntity
  8
0
100
AcDbLine
 62
7
  6
CONTINUOUS
 10
8.1093656182
 20
15.8437730395
 11
8.1175188313
 21
15.8519262525
  0
LINE
  5
240
100
AcDbEntity
  8
0
100
AcDbLine
 62
7
  6
CONTINUOUS
 10
8.1093656182
 20
15.6825164519
 11
8.1175188312
 21
15.6906696649
  0
LINE
  5
241
100
AcDbEntity
  8
0
100
AcDbLine
 62
7
  6
CONTINUOUS
 10
10.1207300241
 20
16.7779302869
 11
9.9876854048
 21
16.7347014696
  0
LWPOLYLINE
  5
242
100
AcDbEntity
  8
0
100
AcDbPolyline
 62
7
  6
CONTINUOUS
 90
5
 70
0
 10
7.9943042975
 20
17.2866310667
 10
7.9945594164
 20
17.2872240882
 10
7.9940625989
 20
17.2865453119
 10
7.9913860441
 20
17.2844512033
 10
7.9866197749
 20
17.2832946675
  0
LWPOLYLINE
  5
243
100
AcDbEntity
  8
0
100
AcDbPolyline
 62
7
  6
CONTINUOUS
 90
6
 70
0
 10
7.9993802364
 20
17.7066987851
 10
7.9996952335
 20
17.7074185273
 10
7.999340232
 20
17.7069242981
 10
7.9969480653
 20
17.7048711031
 10
7.9922787722
 20
17.7034063833
 10
7.9915022027
 20
17.7033786255
  0
LWPOLYLINE
  5
244
100
AcDbEntity
  8
0
100
AcDbPolyline
 62
7
  6
CONTINUOUS
 90
5
 70
0
 10
7.9967468783
 20
17.5040908267
 10
7.9970629849
 20
17.5048120919
 10
7.9966238738
 20
17.5042263406
 10
7.994060776
 20
17.5021961895
 10
7.9891543918
 20
17.5009741503
  0
LINE
  5
245
100
AcDbEntity
  8
0
100
AcDbLine
 62
7
  6
CONTINUOUS
 10
8.1663586699
 20
18.9393492236
 11
8.1666022955
 21
18.9412927437
  0
LWPOLYLINE
  5
246
100
AcDbEntity
  8
0
100
AcDbPolyline
 62
7
  6
CONTINUOUS
 90
7
 70
0
 10
8.0082602854
 20
18.1585421844
 10
8.0082647071
 20
18.1585692436
 10
8.0082322719
 20
18.1583976998
 10
8.0080867952
 20
18.1577717535
 10
8.0076177758
 20
18.1563651257
 10
8.0067156581
 20
18.1545889847
 10
8.005395049
 20
18.1528419938
  0
LINE
  5
247
100
AcDbEntity
  8
0
100
AcDbLine
 62
7
  6
CONTINUOUS
 10
8.0569853993
 20
18.4350960244
 11
8.0416456234
 21
18.3461586672
  0
LWPOLYLINE
  5
248
100
AcDbEntity
  8
0
100
AcDbPolyline
 62
7
  6
CONTINUOUS
 90
6
 70
0
 10
7.9886830438
 20
16.6491850916
 10
7.988790971
 20
16.6496467635
 10
7.9887072415
 20
16.6494821627
 10
7.9873897507
 20
16.6474623946
 10
7.9837349443
 20
16.6447574672
 10
7.9792005603
 20
16.6437863537
  0
LWPOLYLINE
  5
249
100
AcDbEntity
  8
0
100
AcDbPolyline
 62
7
  6
CONTINUOUS
 90
6
 70
0
 10
8.0067662269
 20
18.1228343522
 10
8.0068981032
 20
18.1233103259
 10
8.0068815029
 20
18.123276081
 10
8.0064352695
 20
18.1223132913
 10
8.0049019381
 20
18.1201580865
 10
8.0016209816
 20
18.1176546438
  0
LINE
  5
24A
100
AcDbEntity
  8
0
100
AcDbLine
 62
7
  6
CONTINUOUS
 10
8.9810844402
 20
15.3124250725
 11
9.0828815184
 21
15.5410650536
  0
LINE
  5
24B
100
AcDbEntity
  8
0
100
AcDbLine
 62
9
  6
CONTINUOUS
 10
10.9657301285
 20
4.2050892249
 11
11.5257301285
 21
4.2050892249
  0
LINE
  5
24C
100
AcDbEntity
  8
0
100
AcDbLine
 62
7
  6
CONTINUOUS
 10
7.9874701523
 20
17.9658335848
 11
7.9874700924
 21
17.9658713022
  0
LINE
  5
24D
100
AcDbEntity
  8
0
100
AcDbLine
 62
7
  6
CONTINUOUS
 10
7.8404536069
 20
17.7434512346
 11
7.8404536069
 21
17.3489524823
  0
LINE
  5
24E
100
AcDbEntity
  8
0
100
AcDbLine
 62
7
  6
CONTINUOUS
 10
7.8404536069
 20
17.3418056811
 11
7.8404536069
 21
17.1258451476
  0
LINE
  5
24F
100
AcDbEntity
  8
0
100
AcDbLine
 62
7
  6
CONTINUOUS
 10
7.8404536069
 20
17.0547568688
 11
7.8404536069
 21
17.0040549604
  0
LINE
  5
250
100
AcDbEntity
  8
0
100
AcDbLine
 62
7
  6
CONTINUOUS
 10
7.8404536069
 20
16.9969081592
 11
7.8404536069
 21
16.602409407
  0
LINE
  5
251
100
AcDbEntity
  8
0
100
AcDbLine
 62
9
  6
CONTINUOUS
 10
7.8462185983
 20
17.7573812022
 11
7.8462185983
 21
17.3827269864
  0
LINE
  5
252
100
AcDbEntity
  8
0
100
AcDbLine
 62
9
  6
CONTINUOUS
 10
7.8462185983
 20
17.355732138
 11
7.8462185983
 21
17.1119186907
  0
LINE
  5
253
100
AcDbEntity
  8
0
100
AcDbLine
 62
9
  6
CONTINUOUS
 10
7.8462185983
 20
17.0108282675
 11
7.8462185983
 21
16.5884794394
  0
LINE
  5
254
100
AcDbEntity
  8
0
100
AcDbLine
 62
7
  6
CONTINUOUS
 10
7.8462675126
 20
16.2331140432
 11
7.8462675066
 21
16.2491395178
  0
LINE
  5
255
100
AcDbEntity
  8
0
100
AcDbLine
 62
9
  6
CONTINUOUS
 10
7.8511400015
 20
17.0157496707
 11
7.8511400015
 21
17.1069972876
  0
LINE
  5
256
100
AcDbEntity
  8
0
100
AcDbLine
 62
9
  6
CONTINUOUS
 10
7.8511400015
 20
17.3606535412
 11
7.8511400015
 21
17.4162296381
  0
LINE
  5
257
100
AcDbEntity
  8
0
100
AcDbLine
 62
9
  6
CONTINUOUS
 10
7.8543724426
 20
16.580325595
 11
7.854372441
 21
17.0189821102
  0
LINE
  5
258
100
AcDbEntity
  8
0
100
AcDbLine
 62
9
  6
CONTINUOUS
 10
7.8543724426
 20
17.1037648464
 11
7.8543724426
 21
17.3638859824
  0
LINE
  5
259
100
AcDbEntity
  8
0
100
AcDbLine
 62
9
  6
CONTINUOUS
 10
7.854372441
 20
17.4129971986
 11
7.8543724426
 21
17.7655219536
  0
LINE
  5
25A
100
AcDbEntity
  8
0
100
AcDbLine
 62
7
  6
CONTINUOUS
 10
7.8601386463
 20
17.816407018
 11
7.8601386463
 21
16.5294536236
  0
LINE
  5
25B
100
AcDbEntity
  8
0
100
AcDbLine
 62
9
  6
CONTINUOUS
 10
7.8730909751
 20
17.8349078239
 11
7.8730909751
 21
16.5109528177
  0
LINE
  5
25C
100
AcDbEntity
  8
0
100
AcDbLine
 62
7
  6
CONTINUOUS
 10
7.945616129
 20
18.1244204658
 11
7.945616129
 21
17.9992204455
  0
LINE
  5
25D
100
AcDbEntity
  8
0
100
AcDbLine
 62
7
  6
CONTINUOUS
 10
7.945616129
 20
17.6787944993
 11
7.945616129
 21
17.5862301067
  0
LINE
  5
25E
100
AcDbEntity
  8
0
100
AcDbLine
 62
7
  6
CONTINUOUS
 10
7.945616129
 20
17.4763917867
 11
7.945616129
 21
17.3838273531
  0
LINE
  5
25F
100
AcDbEntity
  8
0
100
AcDbLine
 62
7
  6
CONTINUOUS
 10
7.945616129
 20
17.2587118551
 11
7.945616129
 21
17.1661445273
  0
LINE
  5
260
100
AcDbEntity
  8
0
100
AcDbLine
 62
7
  6
CONTINUOUS
 10
7.945616129
 20
16.6192081752
 11
7.945616129
 21
16.5266319066
  0
LINE
  5
261
100
AcDbEntity
  8
0
100
AcDbLine
 62
7
  6
CONTINUOUS
 10
7.945616129
 20
16.4845558204
 11
7.945616129
 21
16.3803859961
  0
LINE
  5
262
100
AcDbEntity
  8
0
100
AcDbLine
 62
7
  6
CONTINUOUS
 10
7.945616129
 20
16.3779964509
 11
7.945616129
 21
16.278476512
  0
LINE
  5
263
100
AcDbEntity
  8
0
100
AcDbLine
 62
9
  6
CONTINUOUS
 10
7.9490754608
 20
18.1327722697
 11
7.9490754608
 21
17.9908686434
  0
LINE
  5
264
100
AcDbEntity
  8
0
100
AcDbLine
 62
9
  6
CONTINUOUS
 10
7.9490754608
 20
17.6871527372
 11
7.9490754608
 21
17.5778718688
  0
LINE
  5
265
100
AcDbEntity
  8
0
100
AcDbLine
 62
9
  6
CONTINUOUS
 10
7.9490754608
 20
17.4847500041
 11
7.9490754608
 21
17.3754691357
  0
LINE
  5
266
100
AcDbEntity
  8
0
100
AcDbLine
 62
9
  6
CONTINUOUS
 10
7.9490754608
 20
17.2670686254
 11
7.9490754608
 21
17.157787757
  0
LINE
  5
267
100
AcDbEntity
  8
0
100
AcDbLine
 62
9
  6
CONTINUOUS
 10
7.9490754612
 20
16.6275604755
 11
7.9490754612
 21
16.5182796063
  0
LINE
  5
268
100
AcDbEntity
  8
0
100
AcDbLine
 62
9
  6
CONTINUOUS
 10
7.9490754608
 20
16.4813147574
 11
7.9490754608
 21
16.2701221562
  0
LINE
  5
269
100
AcDbEntity
  8
0
100
AcDbLine
 62
9
  6
CONTINUOUS
 10
7.9510561332
 20
16.4832954298
 11
7.9510561332
 21
16.5182796063
  0
LINE
  5
26A
100
AcDbEntity
  8
0
100
AcDbLine
 62
9
  6
CONTINUOUS
 10
7.9510561332
 20
16.6295411475
 11
7.9510561332
 21
17.1558070847
  0
LINE
  5
26B
100
AcDbEntity
  8
0
100
AcDbLine
 62
9
  6
CONTINUOUS
 10
7.9510561332
 20
17.2690492978
 11
7.9510561332
 21
17.3734884634
  0
LINE
  5
26C
100
AcDbEntity
  8
0
100
AcDbLine
 62
9
  6
CONTINUOUS
 10
7.9510561332
 20
17.4867306765
 11
7.9510561332
 21
17.5758911964
  0
LINE
  5
26D
100
AcDbEntity
  8
0
100
AcDbLine
 62
9
  6
CONTINUOUS
 10
7.9510561332
 20
17.6871527741
 11
7.9510561332
 21
17.8632848207
  0
LINE
  5
26E
100
AcDbEntity
  8
0
100
AcDbLine
 62
9
  6
CONTINUOUS
 10
7.9618417559
 20
16.2573558611
 11
7.9618417559
 21
16.4940810525
  0
LINE
  5
26F
100
AcDbEntity
  8
0
100
AcDbLine
 62
9
  6
CONTINUOUS
 10
7.9618417558
 20
16.5055133117
 11
7.9618417558
 21
16.6403267701
  0
LINE
  5
270
100
AcDbEntity
  8
0
100
AcDbLine
 62
9
  6
CONTINUOUS
 10
7.9618417559
 20
17.1450214619
 11
7.9618417559
 21
17.2798349205
  0
LINE
  5
271
100
AcDbEntity
  8
0
100
AcDbLine
 62
9
  6
CONTINUOUS
 10
7.9618417559
 20
17.3627028406
 11
7.9618417559
 21
17.4975162992
  0
LINE
  5
272
100
AcDbEntity
  8
0
100
AcDbLine
 62
9
  6
CONTINUOUS
 10
7.9618417559
 20
17.5651055737
 11
7.9618417559
 21
17.6999190323
  0
LINE
  5
273
100
AcDbEntity
  8
0
100
AcDbLine
 62
9
  6
CONTINUOUS
 10
7.9618417559
 20
17.9781023483
 11
7.9618417559
 21
18.1455385648
  0
LINE
  5
274
100
AcDbEntity
  8
0
100
AcDbLine
 62
9
  6
CONTINUOUS
 10
7.9701934545
 20
18.1489979773
 11
7.9701934545
 21
17.9746429359
  0
LINE
  5
275
100
AcDbEntity
  8
0
100
AcDbLine
 62
9
  6
CONTINUOUS
 10
7.9701934545
 20
17.7033784447
 11
7.9701934545
 21
17.5616461613
  0
LINE
  5
276
100
AcDbEntity
  8
0
100
AcDbLine
 62
9
  6
CONTINUOUS
 10
7.9701934545
 20
17.5009757117
 11
7.9701934545
 21
17.3592434282
  0
LINE
  5
277
100
AcDbEntity
  8
0
100
AcDbLine
 62
9
  6
CONTINUOUS
 10
7.9701934545
 20
17.283294333
 11
7.9701934545
 21
17.1415620495
  0
LINE
  5
278
100
AcDbEntity
  8
0
100
AcDbLine
 62
9
  6
CONTINUOUS
 10
7.9701934545
 20
16.6437861826
 11
7.9701934545
 21
16.5020538992
  0
LINE
  5
279
100
AcDbEntity
  8
0
100
AcDbLine
 62
9
  6
CONTINUOUS
 10
7.9701934545
 20
16.4975404649
 11
7.9701934545
 21
16.2538964486
  0
LINE
  5
27A
100
AcDbEntity
  8
0
100
AcDbLine
 62
9
  6
CONTINUOUS
 10
7.9767585862
 20
16.4975404649
 11
7.9767585862
 21
16.5020538992
  0
LINE
  5
27B
100
AcDbEntity
  8
0
100
AcDbLine
 62
9
  6
CONTINUOUS
 10
7.9767585862
 20
16.6437861826
 11
7.9767585862
 21
17.1415620495
  0
LINE
  5
27C
100
AcDbEntity
  8
0
100
AcDbLine
 62
9
  6
CONTINUOUS
 10
7.9767585862
 20
17.283294333
 11
7.9767585862
 21
17.3592434282
  0
LINE
  5
27D
100
AcDbEntity
  8
0
100
AcDbLine
 62
9
  6
CONTINUOUS
 10
7.9767585862
 20
17.5009757117
 11
7.9767585862
 21
17.56164584
  0
LINE
  5
27E
100
AcDbEntity
  8
0
100
AcDbLine
 62
9
  6
CONTINUOUS
 10
7.9767585849
 20
17.7033784447
 11
7.9767585862
 21
17.8963082297
  0
LINE
  5
27F
100
AcDbEntity
  8
0
100
AcDbLine
 62
7
  6
CONTINUOUS
 10
8.034874404
 20
18.0943446333
 11
8.0348721329
 21
16.0115129979
  0
LINE
  5
280
100
AcDbEntity
  8
0
100
AcDbLine
 62
7
  6
CONTINUOUS
 10
8.034872133
 20
18.3343476436
 11
8.034874404
 21
18.0943446333
  0
LINE
  5
281
100
AcDbEntity
  8
0
100
AcDbLine
 62
7
  6
CONTINUOUS
 10
8.0416456234
 20
18.3461450494
 11
8.0416456234
 21
15.9997150762
  0
LINE
  5
282
100
AcDbEntity
  8
0
100
AcDbLine
 62
9
  6
CONTINUOUS
 10
8.0569853993
 20
18.4350960244
 11
8.0569853992
 21
15.9107646172
  0
LINE
  5
283
100
AcDbEntity
  8
0
100
AcDbLine
 62
7
  6
CONTINUOUS
 10
8.0620528354
 20
18.603589708
 11
8.0620528354
 21
18.5175383049
  0
LINE
  5
284
100
AcDbEntity
  8
0
100
AcDbLine
 62
7
  6
CONTINUOUS
 10
8.0620528354
 20
18.5090182758
 11
8.0620528354
 21
18.4229775926
  0
LINE
  5
285
100
AcDbEntity
  8
0
100
AcDbLine
 62
7
  6
CONTINUOUS
 10
8.0620528354
 20
18.3263274198
 11
8.0620528354
 21
18.2402978869
  0
LINE
  5
286
100
AcDbEntity
  8
0
100
AcDbLine
 62
7
  6
CONTINUOUS
 10
8.0620528354
 20
18.0679748329
 11
8.0620528354
 21
17.9819384702
  0
LINE
  5
287
100
AcDbEntity
  8
0
100
AcDbLine
 62
7
  6
CONTINUOUS
 10
8.0620528354
 20
17.7515615479
 11
8.0620528354
 21
17.6655113788
  0
LINE
  5
288
100
AcDbEntity
  8
0
100
AcDbLine
 62
7
  6
CONTINUOUS
 10
8.0620528354
 20
17.3986400371
 11
8.0620528354
 21
17.3125911661
  0
LINE
  5
289
100
AcDbEntity
  8
0
100
AcDbLine
 62
7
  6
CONTINUOUS
 10
8.0620528354
 20
17.0332625968
 11
8.0620528354
 21
16.9472274831
  0
LINE
  5
28A
100
AcDbEntity
  8
0
100
AcDbLine
 62
7
  6
CONTINUOUS
 10
8.0620528354
 20
16.6803389957
 11
8.0620528354
 21
16.5943093608
  0
LINE
  5
28B
100
AcDbEntity
  8
0
100
AcDbLine
 62
7
  6
CONTINUOUS
 10
8.0620528354
 20
16.3639230083
 11
8.0620528354
 21
16.2778849718
  0
LINE
  5
28C
100
AcDbEntity
  8
0
100
AcDbLine
 62
7
  6
CONTINUOUS
 10
8.0620528354
 20
16.1055739571
 11
8.0620528354
 21
16.0195220193
  0
LINE
  5
28D
100
AcDbEntity
  8
0
100
AcDbLine
 62
7
  6
CONTINUOUS
 10
8.0620528354
 20
15.9228865033
 11
8.0620528354
 21
15.8368389114
  0
LINE
  5
28E
100
AcDbEntity
  8
0
100
AcDbLine
 62
7
  6
CONTINUOUS
 10
8.0620528354
 20
15.8283052286
 11
8.0620528354
 21
15.7422904663
  0
LINE
  5
28F
100
AcDbEntity
  8
0
100
AcDbLine
 62
9
  6
CONTINUOUS
 10
8.06405238
 20
18.4090515397
 11
8.06405238
 21
18.3346229388
  0
LINE
  5
290
100
AcDbEntity
  8
0
100
AcDbLine
 62
9
  6
CONTINUOUS
 10
8.06405238
 20
18.232002368
 11
8.06405238
 21
18.0762669369
  0
LINE
  5
291
100
AcDbEntity
  8
0
100
AcDbLine
 62
9
  6
CONTINUOUS
 10
8.06405238
 20
17.9736463661
 11
8.0640523877
 21
17.7598467603
  0
LINE
  5
292
100
AcDbEntity
  8
0
100
AcDbLine
 62
9
  6
CONTINUOUS
 10
8.0640523877
 20
17.6572261663
 11
8.0640523877
 21
17.4069258986
  0
LINE
  5
293
100
AcDbEntity
  8
0
100
AcDbLine
 62
9
  6
CONTINUOUS
 10
8.0640523877
 20
17.3043053046
 11
8.0640523877
 21
17.0415553369
  0
LINE
  5
294
100
AcDbEntity
  8
0
100
AcDbLine
 62
9
  6
CONTINUOUS
 10
8.0640523877
 20
16.9389347429
 11
8.0640523877
 21
16.6886344752
  0
LINE
  5
295
100
AcDbEntity
  8
0
100
AcDbLine
 62
9
  6
CONTINUOUS
 10
8.0640523877
 20
16.5860138812
 11
8.0640523877
 21
16.372214287
  0
LINE
  5
296
100
AcDbEntity
  8
0
100
AcDbLine
 62
9
  6
CONTINUOUS
 10
8.0640523877
 20
16.269593693
 11
8.0640523877
 21
16.1138582852
  0
LINE
  5
297
100
AcDbEntity
  8
0
100
AcDbLine
 62
9
  6
CONTINUOUS
 10
8.0640523877
 20
16.0112376912
 11
8.0640523877
 21
15.9368091018
  0
LINE
  5
298
100
AcDbEntity
  8
0
100
AcDbLine
 62
9
  6
CONTINUOUS
 10
8.0678181275
 20
18.6175091886
 11
8.0678181275
 21
18.4090515397
  0
LINE
  5
299
100
AcDbEntity
  8
0
100
AcDbLine
 62
9
  6
CONTINUOUS
 10
8.0678181275
 20
18.3402590478
 11
8.0678181275
 21
18.2263662589
  0
LINE
  5
29A
100
AcDbEntity
  8
0
100
AcDbLine
 62
9
  6
CONTINUOUS
 10
8.0678181275
 20
18.081903046
 11
8.0678181275
 21
17.9680102571
  0
LINE
  5
29B
100
AcDbEntity
  8
0
100
AcDbLine
 62
9
  6
CONTINUOUS
 10
8.0678181275
 20
17.7654828578
 11
8.0678181275
 21
17.6515900688
  0
LINE
  5
29C
100
AcDbEntity
  8
0
100
AcDbLine
 62
9
  6
CONTINUOUS
 10
8.0678181275
 20
17.4125619961
 11
8.0678181275
 21
17.2986692071
  0
LINE
  5
29D
100
AcDbEntity
  8
0
100
AcDbLine
 62
9
  6
CONTINUOUS
 10
8.0678181275
 20
17.0471914344
 11
8.0678181275
 21
16.9332986455
  0
LINE
  5
29E
100
AcDbEntity
  8
0
100
AcDbLine
 62
9
  6
CONTINUOUS
 10
8.0678181275
 20
16.6942705727
 11
8.0678181275
 21
16.5803777838
  0
LINE
  5
29F
100
AcDbEntity
  8
0
100
AcDbLine
 62
9
  6
CONTINUOUS
 10
8.0678181275
 20
16.3778503845
 11
8.0678181275
 21
16.2639575955
  0
LINE
  5
2A0
100
AcDbEntity
  8
0
100
AcDbLine
 62
9
  6
CONTINUOUS
 10
8.0678181275
 20
16.1194943827
 11
8.0678181275
 21
16.0056015937
  0
LINE
  5
2A1
100
AcDbEntity
  8
0
100
AcDbLine
 62
9
  6
CONTINUOUS
 10
8.0678181275
 20
15.9368091018
 11
8.0678181275
 21
15.728351453
  0
LINE
  5
2A2
100
AcDbEntity
  8
0
100
AcDbLine
 62
9
  6
CONTINUOUS
 10
8.0759719676
 20
15.7201981736
 11
8.0759719676
 21
15.8087789498
  0
LINE
  5
2A3
100
AcDbEntity
  8
0
100
AcDbLine
 62
9
  6
CONTINUOUS
 10
8.0759719675
 20
15.8147624729
 11
8.0759719675
 21
15.9449629418
  0
LINE
  5
2A4
100
AcDbEntity
  8
0
100
AcDbLine
 62
9
  6
CONTINUOUS
 10
8.0759719676
 20
15.9974477537
 11
8.0759719676
 21
16.1276482227
  0
LINE
  5
2A5
100
AcDbEntity
  8
0
100
AcDbLine
 62
9
  6
CONTINUOUS
 10
8.0759719676
 20
16.2558037555
 11
8.0759719676
 21
16.3860042245
  0
LINE
  5
2A6
100
AcDbEntity
  8
0
100
AcDbLine
 62
9
  6
CONTINUOUS
 10
8.0759719676
 20
16.5722239437
 11
8.0759719676
 21
16.7024244127
  0
LINE
  5
2A7
100
AcDbEntity
  8
0
100
AcDbLine
 62
9
  6
CONTINUOUS
 10
8.0759719676
 20
16.9251448054
 11
8.0759719676
 21
17.0553452744
  0
LINE
  5
2A8
100
AcDbEntity
  8
0
100
AcDbLine
 62
9
  6
CONTINUOUS
 10
8.0759719676
 20
17.2905153671
 11
8.0759719676
 21
17.4207158361
  0
LINE
  5
2A9
100
AcDbEntity
  8
0
100
AcDbLine
 62
9
  6
CONTINUOUS
 10
8.0759719675
 20
17.6434362289
 11
8.0759719675
 21
17.7736366978
  0
LINE
  5
2AA
100
AcDbEntity
  8
0
100
AcDbLine
 62
9
  6
CONTINUOUS
 10
8.0759719676
 20
17.959856417
 11
8.0759719676
 21
18.090056886
  0
LINE
  5
2AB
100
AcDbEntity
  8
0
100
AcDbLine
 62
9
  6
CONTINUOUS
 10
8.0759719676
 20
18.2182124189
 11
8.0759719676
 21
18.3484128878
  0
LINE
  5
2AC
100
AcDbEntity
  8
0
100
AcDbLine
 62
9
  6
CONTINUOUS
 10
8.0759719676
 20
18.4008976997
 11
8.0759719676
 21
18.6256630286
  0
LINE
  5
2AD
100
AcDbEntity
  8
0
100
AcDbLine
 62
9
  6
CONTINUOUS
 10
8.0837467115
 20
15.9495065043
 11
8.0837467115
 21
15.9929041913
  0
LINE
  5
2AE
100
AcDbEntity
  8
0
100
AcDbLine
 62
9
  6
CONTINUOUS
 10
8.0837467115
 20
16.1321917851
 11
8.0837467115
 21
16.2512601931
  0
LINE
  5
2AF
100
AcDbEntity
  8
0
100
AcDbLine
 62
9
  6
CONTINUOUS
 10
8.0837467115
 20
16.3905477869
 11
8.0837467115
 21
16.5676803813
  0
LINE
  5
2B0
100
AcDbEntity
  8
0
100
AcDbLine
 62
9
  6
CONTINUOUS
 10
8.0837467115
 20
16.7069679751
 11
8.0837467115
 21
16.920601243
  0
LINE
  5
2B1
100
AcDbEntity
  8
0
100
AcDbLine
 62
9
  6
CONTINUOUS
 10
8.0837467115
 20
17.0598888368
 11
8.0837467115
 21
17.2859718047
  0
LINE
  5
2B2
100
AcDbEntity
  8
0
100
AcDbLine
 62
9
  6
CONTINUOUS
 10
8.0837467115
 20
17.4252593985
 11
8.0837467115
 21
17.6388926664
  0
LINE
  5
2B3
100
AcDbEntity
  8
0
100
AcDbLine
 62
9
  6
CONTINUOUS
 10
8.0837467115
 20
17.7781802602
 11
8.0837467115
 21
17.9553128546
  0
LINE
  5
2B4
100
AcDbEntity
  8
0
100
AcDbLine
 62
9
  6
CONTINUOUS
 10
8.0837467115
 20
18.0943446333
 11
8.0837467115
 21
18.2136688564
  0
LINE
  5
2B5
100
AcDbEntity
  8
0
100
AcDbLine
 62
9
  6
CONTINUOUS
 10
8.0837467115
 20
18.3529564503
 11
8.0837467115
 21
18.3963541373
  0
LINE
  5
2B6
100
AcDbEntity
  8
0
100
AcDbLine
 62
9
  6
CONTINUOUS
 10
8.0898916851
 20
18.6314289358
 11
8.0898916851
 21
18.3951317925
  0
LINE
  5
2B7
100
AcDbEntity
  8
0
100
AcDbLine
 62
9
  6
CONTINUOUS
 10
8.0898916851
 20
18.3541787951
 11
8.0898916851
 21
18.2124465116
  0
LINE
  5
2B8
100
AcDbEntity
  8
0
100
AcDbLine
 62
9
  6
CONTINUOUS
 10
8.0898916851
 20
18.0958227933
 11
8.0898916851
 21
17.9540905098
  0
LINE
  5
2B9
100
AcDbEntity
  8
0
100
AcDbLine
 62
9
  6
CONTINUOUS
 10
8.0898916851
 20
17.7794026051
 11
8.0898916851
 21
17.6376703216
  0
LINE
  5
2BA
100
AcDbEntity
  8
0
100
AcDbLine
 62
9
  6
CONTINUOUS
 10
8.0898916851
 20
17.4264817434
 11
8.0898916851
 21
17.2847494599
  0
LINE
  5
2BB
100
AcDbEntity
  8
0
100
AcDbLine
 62
9
  6
CONTINUOUS
 10
8.0898916851
 20
17.0611111817
 11
8.0898916851
 21
16.9193788982
  0
LINE
  5
2BC
100
AcDbEntity
  8
0
100
AcDbLine
 62
9
  6
CONTINUOUS
 10
8.0898916851
 20
16.70819032
 11
8.0898916851
 21
16.5664580365
  0
LINE
  5
2BD
100
AcDbEntity
  8
0
100
AcDbLine
 62
9
  6
CONTINUOUS
 10
8.0898916851
 20
16.3917701318
 11
8.0898916851
 21
16.2500378483
  0
LINE
  5
2BE
100
AcDbEntity
  8
0
100
AcDbLine
 62
9
  6
CONTINUOUS
 10
8.0898916851
 20
16.1334141299
 11
8.0898916851
 21
15.9916818465
  0
LINE
  5
2BF
100
AcDbEntity
  8
0
100
AcDbLine
 62
9
  6
CONTINUOUS
 10
8.0898916851
 20
15.9507288491
 11
8.0898916851
 21
15.7144317057
  0
LINE
  5
2C0
100
AcDbEntity
  8
0
100
AcDbLine
 62
9
  6
CONTINUOUS
 10
8.1013901334
 20
15.9507288491
 11
8.1013901334
 21
15.9916818465
  0
LINE
  5
2C1
100
AcDbEntity
  8
0
100
AcDbLine
 62
9
  6
CONTINUOUS
 10
8.1013901334
 20
16.1334141299
 11
8.1013901334
 21
16.2500378483
  0
LINE
  5
2C2
100
AcDbEntity
  8
0
100
AcDbLine
 62
9
  6
CONTINUOUS
 10
8.1013901334
 20
16.3932626915
 11
8.1013901334
 21
16.5664580365
  0
LINE
  5
2C3
100
AcDbEntity
  8
0
100
AcDbLine
 62
9
  6
CONTINUOUS
 10
8.1013901334
 20
16.70819032
 11
8.1013901334
 21
16.9193788982
  0
LINE
  5
2C4
100
AcDbEntity
  8
0
100
AcDbLine
 62
9
  6
CONTINUOUS
 10
8.1013901334
 20
17.0611111817
 11
8.1013901334
 21
17.2847494599
  0
LINE
  5
2C5
100
AcDbEntity
  8
0
100
AcDbLine
 62
9
  6
CONTINUOUS
 10
8.1013901334
 20
17.4264817434
 11
8.1013901334
 21
17.6376703216
  0
LINE
  5
2C6
100
AcDbEntity
  8
0
100
AcDbLine
 62
9
  6
CONTINUOUS
 10
8.1013901334
 20
18.0958227933
 11
8.1013901334
 21
18.2124465116
  0
LINE
  5
2C7
100
AcDbEntity
  8
0
100
AcDbLine
 62
9
  6
CONTINUOUS
 10
8.1013901334
 20
18.3541787951
 11
8.1013901334
 21
18.3951317925
  0
LINE
  5
2C8
100
AcDbEntity
  8
0
100
AcDbLine
 62
9
  6
CONTINUOUS
 10
8.101390128
 20
17.7794026051
 11
8.1013901334
 21
17.9525979332
  0
LINE
  5
2C9
100
AcDbEntity
  8
0
100
AcDbLine
 62
7
  6
CONTINUOUS
 10
8.1036000037
 20
18.8419415189
 11
8.1036000037
 21
18.6772828188
  0
LINE
  5
2CA
100
AcDbEntity
  8
0
100
AcDbLine
 62
7
  6
CONTINUOUS
 10
8.1036000037
 20
18.6256766608
 11
8.1036000037
 21
18.5160140245
  0
LINE
  5
2CB
100
AcDbEntity
  8
0
100
AcDbLine
 62
7
  6
CONTINUOUS
 10
8.1036000037
 20
18.3691582666
 11
8.1036000037
 21
18.2594880465
  0
LINE
  5
2CC
100
AcDbEntity
  8
0
100
AcDbLine
 62
7
  6
CONTINUOUS
 10
8.1036000037
 20
18.0348542796
 11
8.1036000037
 21
17.9251795903
  0
LINE
  5
2CD
100
AcDbEntity
  8
0
100
AcDbLine
 62
7
  6
CONTINUOUS
 10
8.1036000037
 20
17.6455456176
 11
8.1036000037
 21
17.5358725711
  0
LINE
  5
2CE
100
AcDbEntity
  8
0
100
AcDbLine
 62
7
  6
CONTINUOUS
 10
8.1036000037
 20
17.2277637928
 11
8.1036000037
 21
17.1180968488
  0
LINE
  5
2CF
100
AcDbEntity
  8
0
100
AcDbLine
 62
7
  6
CONTINUOUS
 10
8.1036000037
 20
16.8099818591
 11
8.1036000037
 21
16.7003212352
  0
LINE
  5
2D0
100
AcDbEntity
  8
0
100
AcDbLine
 62
7
  6
CONTINUOUS
 10
8.1036000037
 20
16.4206719266
 11
8.1036000037
 21
16.3110154866
  0
LINE
  5
2D1
100
AcDbEntity
  8
0
100
AcDbLine
 62
7
  6
CONTINUOUS
 10
8.1036000037
 20
16.0863654275
 11
8.1036000037
 21
15.9767095425
  0
LINE
  5
2D2
100
AcDbEntity
  8
0
100
AcDbLine
 62
7
  6
CONTINUOUS
 10
8.1036000037
 20
15.8298451517
 11
8.1036000037
 21
15.7201854461
  0
LINE
  5
2D3
100
AcDbEntity
  8
0
100
AcDbLine
 62
7
  6
CONTINUOUS
 10
8.1036000037
 20
15.6685928187
 11
8.1036000037
 21
15.5039191226
  0
LINE
  5
2D4
100
AcDbEntity
  8
0
100
AcDbLine
 62
9
  6
CONTINUOUS
 10
8.1093653405
 20
18.8558610119
 11
8.1093653405
 21
18.6633444674
  0
LINE
  5
2D5
100
AcDbEntity
  8
0
100
AcDbLine
 62
9
  6
CONTINUOUS
 10
8.1093653405
 20
18.6396028054
 11
8.1093653405
 21
18.5020878799
  0
LINE
  5
2D6
100
AcDbEntity
  8
0
100
AcDbLine
 62
9
  6
CONTINUOUS
 10
8.1093653405
 20
18.3830806193
 11
8.1093653405
 21
18.2455656938
  0
LINE
  5
2D7
100
AcDbEntity
  8
0
100
AcDbLine
 62
9
  6
CONTINUOUS
 10
8.1093653663
 20
18.0487744236
 11
8.1093653663
 21
17.9112594463
  0
LINE
  5
2D8
100
AcDbEntity
  8
0
100
AcDbLine
 62
9
  6
CONTINUOUS
 10
8.1093653405
 20
17.6594665571
 11
8.1093653405
 21
17.5219516316
  0
LINE
  5
2D9
100
AcDbEntity
  8
0
100
AcDbLine
 62
9
  6
CONTINUOUS
 10
8.1093653405
 20
17.2416877836
 11
8.1093653405
 21
17.104172858
  0
LINE
  5
2DA
100
AcDbEntity
  8
0
100
AcDbLine
 62
9
  6
CONTINUOUS
 10
8.1093653405
 20
16.82390901
 11
8.1093653405
 21
16.6863940844
  0
LINE
  5
2DB
100
AcDbEntity
  8
0
100
AcDbLine
 62
9
  6
CONTINUOUS
 10
8.1093653405
 20
16.4346011694
 11
8.1093653405
 21
16.2970862438
  0
LINE
  5
2DC
100
AcDbEntity
  8
0
100
AcDbLine
 62
9
  6
CONTINUOUS
 10
8.1093653405
 20
16.1002949478
 11
8.1093653405
 21
15.9627800222
  0
LINE
  5
2DD
100
AcDbEntity
  8
0
100
AcDbLine
 62
9
  6
CONTINUOUS
 10
8.1093653405
 20
15.8437727617
 11
8.1093653405
 21
15.7062578361
  0
LINE
  5
2DE
100
AcDbEntity
  8
0
100
AcDbLine
 62
9
  6
CONTINUOUS
 10
8.1093653405
 20
15.6825161742
 11
8.1093653405
 21
15.4899996297
  0
LINE
  5
2DF
100
AcDbEntity
  8
0
100
AcDbLine
 62
9
  6
CONTINUOUS
 10
8.1175188312
 20
15.481846139
 11
8.1175188312
 21
15.6906696649
  0
LINE
  5
2E0
100
AcDbEntity
  8
0
100
AcDbLine
 62
9
  6
CONTINUOUS
 10
8.1175188313
 20
15.6981043453
 11
8.1175188313
 21
15.8519262525
  0
LINE
  5
2E1
100
AcDbEntity
  8
0
100
AcDbLine
 62
9
  6
CONTINUOUS
 10
8.1175188312
 20
15.9546265315
 11
8.1175188312
 21
16.1084484385
  0
LINE
  5
2E2
100
AcDbEntity
  8
0
100
AcDbLine
 62
9
  6
CONTINUOUS
 10
8.1175188312
 20
16.2889327531
 11
8.1175188312
 21
16.4427546601
  0
LINE
  5
2E3
100
AcDbEntity
  8
0
100
AcDbLine
 62
9
  6
CONTINUOUS
 10
8.1175188312
 20
16.6782405937
 11
8.1175188312
 21
16.8320625007
  0
LINE
  5
2E4
100
AcDbEntity
  8
0
100
AcDbLine
 62
9
  6
CONTINUOUS
 10
8.1175188312
 20
17.0960193673
 11
8.1175188312
 21
17.2498412742
  0
LINE
  5
2E5
100
AcDbEntity
  8
0
100
AcDbLine
 62
9
  6
CONTINUOUS
 10
8.1175188312
 20
17.5137981409
 11
8.1175188312
 21
17.6676200478
  0
LINE
  5
2E6
100
AcDbEntity
  8
0
100
AcDbLine
 62
9
  6
CONTINUOUS
 10
8.1175188312
 20
18.2374122031
 11
8.1175188312
 21
18.39123411
  0
LINE
  5
2E7
100
AcDbEntity
  8
0
100
AcDbLine
 62
9
  6
CONTINUOUS
 10
8.1175188312
 20
18.4939343892
 11
8.1175188312
 21
18.6477562961
  0
LINE
  5
2E8
100
AcDbEntity
  8
0
100
AcDbLine
 62
9
  6
CONTINUOUS
 10
8.1175188312
 20
18.6551909767
 11
8.1175188312
 21
18.8640145026
  0
LINE
  5
2E9
100
AcDbEntity
  8
0
100
AcDbLine
 62
9
  6
CONTINUOUS
 10
8.1175191799
 20
17.9031056327
 11
8.1175191799
 21
18.0569282372
  0
LINE
  5
2EA
100
AcDbEntity
  8
0
100
AcDbLine
 62
9
  6
CONTINUOUS
 10
8.1314388534
 20
18.8697807145
 11
8.1314388534
 21
18.4881681773
  0
LINE
  5
2EB
100
AcDbEntity
  8
0
100
AcDbLine
 62
9
  6
CONTINUOUS
 10
8.1314388534
 20
18.3970003219
 11
8.1314388534
 21
18.2316459912
  0
LINE
  5
2EC
100
AcDbEntity
  8
0
100
AcDbLine
 62
9
  6
CONTINUOUS
 10
8.1314388534
 20
18.0626941003
 11
8.1314388534
 21
17.8973397696
  0
LINE
  5
2ED
100
AcDbEntity
  8
0
100
AcDbLine
 62
9
  6
CONTINUOUS
 10
8.1314388534
 20
17.6733862597
 11
8.1314388534
 21
17.508031929
  0
LINE
  5
2EE
100
AcDbEntity
  8
0
100
AcDbLine
 62
9
  6
CONTINUOUS
 10
8.1314388534
 20
17.2556074861
 11
8.1314388534
 21
17.0902531554
  0
LINE
  5
2EF
100
AcDbEntity
  8
0
100
AcDbLine
 62
9
  6
CONTINUOUS
 10
8.1314388534
 20
16.8378287125
 11
8.1314388534
 21
16.6724743818
  0
LINE
  5
2F0
100
AcDbEntity
  8
0
100
AcDbLine
 62
9
  6
CONTINUOUS
 10
8.1314388534
 20
16.448520872
 11
8.1314388534
 21
16.2831665413
  0
LINE
  5
2F1
100
AcDbEntity
  8
0
100
AcDbLine
 62
9
  6
CONTINUOUS
 10
8.1314388534
 20
16.1142146504
 11
8.1314388534
 21
15.9488603197
  0
LINE
  5
2F2
100
AcDbEntity
  8
0
100
AcDbLine
 62
9
  6
CONTINUOUS
 10
8.1314388534
 20
15.8576924643
 11
8.1314388534
 21
15.4760799271
  0
LINE
  5
2F3
100
AcDbEntity
  8
0
100
AcDbLine
 62
7
  6
CONTINUOUS
 10
8.1663586699
 20
18.9390498461
 11
8.1663586699
 21
15.4065986896
  0
LINE
  5
2F4
100
AcDbEntity
  8
0
100
AcDbLine
 62
9
  6
CONTINUOUS
 10
8.1665989862
 20
15.4045670549
 11
8.1666002074
 21
17.9711426092
  0
LINE
  5
2F5
100
AcDbEntity
  8
0
100
AcDbLine
 62
7
  6
CONTINUOUS
 10
8.1869667766
 20
15.2959303208
 11
8.1869667766
 21
19.0499303208
  0
LINE
  5
2F6
100
AcDbEntity
  8
0
100
AcDbLine
 62
9
  6
CONTINUOUS
 10
8.1947231279
 20
15.1479303208
 11
8.1947231279
 21
19.1979303208
  0
LINE
  5
2F7
100
AcDbEntity
  8
0
100
AcDbLine
 62
9
  6
CONTINUOUS
 10
8.1666002074
 20
17.9711426092
 11
8.1665992063
 21
18.9412944466
  0
LINE
  5
2F8
100
AcDbEntity
  8
0
100
AcDbLine
 62
7
  6
CONTINUOUS
 10
8.1869667766
 20
19.0499303208
 11
8.1947231279
 21
19.1979303208
  0
LINE
  5
2F9
100
AcDbEntity
  8
0
100
AcDbLine
 62
7
  6
CONTINUOUS
 10
10.8556870118
 20
14.3829304155
 11
10.7117403542
 21
14.2051710973
  0
LINE
  5
2FA
100
AcDbEntity
  8
0
100
AcDbLine
 62
7
  6
CONTINUOUS
 10
8.1869667766
 20
15.2959303208
 11
8.1947231279
 21
15.1479303208
  0
LINE
  5
2FB
100
AcDbEntity
  8
0
100
AcDbLine
 62
7
  6
CONTINUOUS
 10
8.3044448133
 20
19.3228674622
 11
8.3044448133
 21
15.0229931794
  0
LINE
  5
2FC
100
AcDbEntity
  8
0
100
AcDbLine
 62
9
  6
CONTINUOUS
 10
8.374988899
 20
15.0718477138
 11
8.374988899
 21
19.2740129277
  0
LINE
  5
2FD
100
AcDbEntity
  8
0
100
AcDbLine
 62
9
  6
CONTINUOUS
 10
8.450132572
 20
15.1706948752
 11
8.450132572
 21
19.1751657664
  0
LINE
  5
2FE
100
AcDbEntity
  8
0
100
AcDbLine
 62
9
  6
CONTINUOUS
 10
8.7295197033
 20
19.0779303208
 11
8.7295197033
 21
15.2679303208
  0
LINE
  5
2FF
100
AcDbEntity
  8
0
100
AcDbLine
 62
9
  6
CONTINUOUS
 10
8.9125685308
 20
15.2679303208
 11
8.9125685308
 21
19.0779303208
  0
LINE
  5
300
100
AcDbEntity
  8
0
100
AcDbLine
 62
9
  6
CONTINUOUS
 10
8.9810844402
 20
19.033435569
 11
8.9810844402
 21
15.3124250725
  0
LINE
  5
301
100
AcDbEntity
  8
0
100
AcDbLine
 62
9
  6
CONTINUOUS
 10
9.0828815184
 20
15.5410650536
 11
9.0828815184
 21
18.8047955879
  0
LINE
  5
302
100
AcDbEntity
  8
0
100
AcDbLine
 62
9
  6
CONTINUOUS
 10
9.1011524275
 20
18.7929303208
 11
9.1011524275
 21
15.5529303208
  0
LINE
  5
303
100
AcDbEntity
  8
0
100
AcDbLine
 62
9
  6
CONTINUOUS
 10
9.1351408601
 20
15.5529303208
 11
9.1351408601
 21
18.7929303208
  0
LINE
  5
304
100
AcDbEntity
  8
0
100
AcDbLine
 62
9
  6
CONTINUOUS
 10
9.1546699669
 20
18.7772447138
 11
9.1546699669
 21
15.5686159278
  0
LINE
  5
305
100
AcDbEntity
  8
0
100
AcDbLine
 62
7
  6
CONTINUOUS
 10
8.0569853992
 20
15.9107646172
 11
8.0416456234
 21
15.999701974
  0
LINE
  5
306
100
AcDbEntity
  8
0
100
AcDbLine
 62
9
  6
CONTINUOUS
 10
7.9962970079
 20
18.1163752183
 11
7.9966798522
 21
18.1137978499
  0
LINE
  5
307
100
AcDbEntity
  8
0
100
AcDbLine
 62
7
  6
CONTINUOUS
 10
8.1663586699
 20
15.406511418
 11
8.1666022955
 21
15.4045678979
  0
LINE
  5
308
100
AcDbEntity
  8
0
100
AcDbLine
 62
7
  6
CONTINUOUS
 10
10.8357301285
 20
8.8859303208
 11
10.8295710761
 21
9.0679303208
  0
LINE
  5
309
100
AcDbEntity
  8
0
100
AcDbLine
 62
7
  6
CONTINUOUS
 10
9.8112741003
 20
16.6329303208
 11
9.8112741003
 21
17.7129303208
  0
LINE
  5
30A
100
AcDbEntity
  8
0
100
AcDbLine
 62
9
  6
CONTINUOUS
 10
9.8712741003
 20
17.6569303208
 11
9.8712741003
 21
16.6889303208
  0
LINE
  5
30B
100
AcDbEntity
  8
0
100
AcDbLine
 62
9
  6
CONTINUOUS
 10
9.8912741003
 20
16.6889303208
 11
9.8912741003
 21
17.6569303208
  0
LINE
  5
30C
100
AcDbEntity
  8
0
100
AcDbLine
 62
9
  6
CONTINUOUS
 10
9.9631193029
 20
16.7193726694
 11
9.9631193029
 21
17.6264879721
  0
LINE
  5
30D
100
AcDbEntity
  8
0
100
AcDbLine
 62
9
  6
CONTINUOUS
 10
9.9876854048
 20
17.611159172
 11
9.9876854048
 21
16.7347014696
  0
LINE
  5
30E
100
AcDbEntity
  8
0
100
AcDbLine
 62
7
  6
CONTINUOUS
 10
10.1207300241
 20
16.7779302869
 11
10.1207300808
 21
17.5679303363
  0
LINE
  5
30F
100
AcDbEntity
  8
0
100
AcDbLine
 62
9
  6
CONTINUOUS
 10
10.165451414
 20
17.5479303208
 11
10.165451414
 21
16.7979303208
  0
LINE
  5
310
100
AcDbEntity
  8
0
100
AcDbLine
 62
7
  6
CONTINUOUS
 10
10.5567301285
 20
10.5574601178
 11
10.5567301285
 21
10.5108437066
  0
LINE
  5
311
100
AcDbEntity
  8
0
100
AcDbLine
 62
7
  6
CONTINUOUS
 10
10.5567301285
 20
10.381016935
 11
10.5567301285
 21
10.3356468558
  0
LINE
  5
312
100
AcDbEntity
  8
0
100
AcDbLine
 62
7
  6
CONTINUOUS
 10
10.5567301285
 20
8.5784005237
 11
10.5567301285
 21
8.625016935
  0
LINE
  5
313
100
AcDbEntity
  8
0
100
AcDbLine
 62
7
  6
CONTINUOUS
 10
10.5567301285
 20
8.7548437066
 11
10.5567301285
 21
8.8002137858
  0
LINE
  5
314
100
AcDbEntity
  8
0
100
AcDbLine
 62
7
  6
CONTINUOUS
 10
10.5957301285
 20
8.8179303208
 11
10.5957301285
 21
9.1755095806
  0
LINE
  5
315
100
AcDbEntity
  8
0
100
AcDbLine
 62
7
  6
CONTINUOUS
 10
10.5957301285
 20
9.9593182404
 11
10.5957301285
 21
10.3179303208
  0
LINE
  5
316
100
AcDbEntity
  8
0
100
AcDbLine
 62
7
  6
CONTINUOUS
 10
10.6107301285
 20
14.1429303208
 11
10.6107301285
 21
14.0729303208
  0
LINE
  5
317
100
AcDbEntity
  8
0
100
AcDbLine
 62
7
  6
CONTINUOUS
 10
10.6107301285
 20
10.2929303208
 11
10.6107301285
 21
10.2229303208
  0
LINE
  5
318
100
AcDbEntity
  8
0
100
AcDbLine
 62
9
  6
CONTINUOUS
 10
10.6207301285
 20
16.7979303208
 11
10.6207301285
 21
17.5479303208
  0
LINE
  5
319
100
AcDbEntity
  8
0
100
AcDbLine
 62
7
  6
CONTINUOUS
 10
10.6987301285
 20
26.7577391801
 11
10.6987301285
 21
26.7103347505
  0
LINE
  5
31A
100
AcDbEntity
  8
0
100
AcDbLine
 62
7
  6
CONTINUOUS
 10
10.6987301285
 20
26.5983347505
 11
10.6987301285
 21
26.5509303208
  0
LINE
  5
31B
100
AcDbEntity
  8
0
100
AcDbLine
 62
7
  6
CONTINUOUS
 10
10.6987301285
 20
-7.7218785386
 11
10.6987301285
 21
-7.6744741089
  0
LINE
  5
31C
100
AcDbEntity
  8
0
100
AcDbLine
 62
7
  6
CONTINUOUS
 10
10.6987301285
 20
-7.5624741089
 11
10.6987301285
 21
-7.5150696792
  0
LINE
  5
31D
100
AcDbEntity
  8
0
100
AcDbLine
 62
7
  6
CONTINUOUS
 10
10.7457301285
 20
-7.5150696792
 11
10.7457301285
 21
8.4729303208
  0
LINE
  5
31E
100
AcDbEntity
  8
0
100
AcDbLine
 62
7
  6
CONTINUOUS
 10
10.7457301285
 20
14.2471449729
 11
10.7457301285
 21
16.7627866377
  0
LINE
  5
31F
100
AcDbEntity
  8
0
100
AcDbLine
 62
7
  6
CONTINUOUS
 10
10.7457301285
 20
17.5369942378
 11
10.7457301285
 21
26.5509303208
  0
LINE
  5
320
100
AcDbEntity
  8
0
100
AcDbLine
 62
7
  6
CONTINUOUS
 10
10.8367301285
 20
10.0906888813
 11
10.8367301285
 21
10.0991166332
  0
LINE
  5
321
100
AcDbEntity
  8
0
100
AcDbLine
 62
7
  6
CONTINUOUS
 10
10.8707301285
 20
16.5479303208
 11
10.8707301285
 21
14.4226655214
  0
LINE
  5
322
100
AcDbEntity
  8
0
100
AcDbLine
 62
9
  6
CONTINUOUS
 10
10.8761410874
 20
10.0496204615
 11
10.8761410871
 21
9.08624018
  0
LINE
  5
323
100
AcDbEntity
  8
0
100
AcDbLine
 62
7
  6
CONTINUOUS
 10
10.8807301285
 20
10.1079303208
 11
10.8807301285
 21
10.1829303208
  0
LINE
  5
324
100
AcDbEntity
  8
0
100
AcDbLine
 62
7
  6
CONTINUOUS
 10
10.8367301285
 20
10.0991795502
 11
10.8372368142
 21
10.0997421286
  0
LINE
  5
325
100
AcDbEntity
  8
0
100
AcDbLine
 62
7
  6
CONTINUOUS
 10
10.8514687235
 20
10.1079303208
 11
10.8372368699
 21
10.0997016442
  0
LINE
  5
326
100
AcDbEntity
  8
0
100
AcDbLine
 62
7
  6
CONTINUOUS
 10
11.6154727783
 20
10.1032254358
 11
11.6236100346
 21
10.1079303208
  0
LINE
  5
327
100
AcDbEntity
  8
0
100
AcDbLine
 62
7
  6
CONTINUOUS
 10
11.894164653
 20
7.8859303208
 11
12.505975604
 21
7.8859303208
  0
LINE
  5
328
100
AcDbEntity
  8
0
100
AcDbLine
 62
7
  6
CONTINUOUS
 10
10.6647253105
 20
8.4729303208
 11
10.9657301285
 21
8.4729303208
  0
LINE
  5
329
100
AcDbEntity
  8
0
100
AcDbLine
 62
7
  6
CONTINUOUS
 10
11.5257301285
 20
8.4729303208
 11
11.8267349465
 21
8.4729303208
  0
LINE
  5
32A
100
AcDbEntity
  8
0
100
AcDbLine
 62
9
  6
CONTINUOUS
 10
11.8365526893
 20
8.4810298199
 11
11.5257301285
 21
8.4810298199
  0
LINE
  5
32B
100
AcDbEntity
  8
0
100
AcDbLine
 62
9
  6
CONTINUOUS
 10
10.9657301285
 20
8.4810298199
 11
10.6549075677
 21
8.4810298199
  0
LINE
  5
32C
100
AcDbEntity
  8
0
100
AcDbLine
 62
9
  6
CONTINUOUS
 10
11.8940701285
 20
8.5608857838
 11
11.5257301285
 21
8.5608857838
  0
LINE
  5
32D
100
AcDbEntity
  8
0
100
AcDbLine
 62
9
  6
CONTINUOUS
 10
10.9657301285
 20
8.5608857838
 11
10.5717803
 21
8.5608857838
  0
LINE
  5
32E
100
AcDbEntity
  8
0
100
AcDbLine
 62
9
  6
CONTINUOUS
 10
10.5567301285
 20
8.5784005237
 11
10.9657301285
 21
8.5784005237
  0
LINE
  5
32F
100
AcDbEntity
  8
0
100
AcDbLine
 62
9
  6
CONTINUOUS
 10
11.5257301285
 20
8.5784005237
 11
11.8940701285
 21
8.5784005237
  0
LINE
  5
330
100
AcDbEntity
  8
0
100
AcDbLine
 62
7
  6
CONTINUOUS
 10
11.8940701285
 20
8.625016935
 11
11.5257301285
 21
8.625016935
  0
LINE
  5
331
100
AcDbEntity
  8
0
100
AcDbLine
 62
7
  6
CONTINUOUS
 10
10.9657301285
 20
8.625016935
 11
10.5567301285
 21
8.625016935
  0
LINE
  5
332
100
AcDbEntity
  8
0
100
AcDbLine
 62
7
  6
CONTINUOUS
 10
10.5567301285
 20
8.7548437066
 11
10.9657301285
 21
8.7548437066
  0
LINE
  5
333
100
AcDbEntity
  8
0
100
AcDbLine
 62
7
  6
CONTINUOUS
 10
11.5257301285
 20
8.7548437066
 11
11.8940701285
 21
8.7548437066
  0
LINE
  5
334
100
AcDbEntity
  8
0
100
AcDbLine
 62
9
  6
CONTINUOUS
 10
11.8940701285
 20
8.8002137858
 11
11.5257301285
 21
8.8002137858
  0
LINE
  5
335
100
AcDbEntity
  8
0
100
AcDbLine
 62
9
  6
CONTINUOUS
 10
10.9657301285
 20
8.8002137858
 11
10.5567371076
 21
8.8002137858
  0
LINE
  5
336
100
AcDbEntity
  8
0
100
AcDbLine
 62
7
  6
CONTINUOUS
 10
11.8940701285
 20
8.8179303208
 11
11.5257301285
 21
8.8179303208
  0
LINE
  5
337
100
AcDbEntity
  8
0
100
AcDbLine
 62
7
  6
CONTINUOUS
 10
10.9657301285
 20
8.8179303208
 11
10.5744466715
 21
8.8179303208
  0
LINE
  5
338
100
AcDbEntity
  8
0
100
AcDbLine
 62
7
  6
CONTINUOUS
 10
10.8357374333
 20
8.8859303208
 11
11.6557228237
 21
8.8859303208
  0
LINE
  5
339
100
AcDbEntity
  8
0
100
AcDbLine
 62
7
  6
CONTINUOUS
 10
11.7631022664
 20
8.8859303208
 11
12.6370379907
 21
8.8859303208
  0
LINE
  5
33A
100
AcDbEntity
  8
0
100
AcDbLine
 62
7
  6
CONTINUOUS
 10
11.7868744458
 20
8.9382551009
 11
11.8511813397
 21
8.9382551009
  0
LINE
  5
33B
100
AcDbEntity
  8
0
100
AcDbLine
 62
7
  6
CONTINUOUS
 10
12.2279482899
 20
8.9382551009
 11
12.3285027054
 21
8.9382551009
  0
LINE
  5
33C
100
AcDbEntity
  8
0
100
AcDbLine
 62
7
  6
CONTINUOUS
 10
12.6411439726
 20
8.9382551009
 11
12.6773914943
 21
8.9382551009
  0
LINE
  5
33D
100
AcDbEntity
  8
0
100
AcDbLine
 62
7
  6
CONTINUOUS
 10
11.7227487627
 20
9.0679303208
 11
11.6007301271
 21
9.0679303208
  0
LINE
  5
33E
100
AcDbEntity
  8
0
100
AcDbLine
 62
7
  6
CONTINUOUS
 10
10.89073013
 20
9.0679303208
 11
10.6965538976
 21
9.0679303208
  0
LINE
  5
33F
100
AcDbEntity
  8
0
100
AcDbLine
 62
9
  6
CONTINUOUS
 10
10.8761410871
 20
9.08624018
 11
10.6578757311
 21
9.0862382959
  0
LINE
  5
340
100
AcDbEntity
  8
0
100
AcDbLine
 62
9
  6
CONTINUOUS
 10
11.7227487627
 20
9.086239623
 11
11.6153191696
 21
9.0862401801
  0
LINE
  5
341
100
AcDbEntity
  8
0
100
AcDbLine
 62
9
  6
CONTINUOUS
 10
7.996675298
 20
18.1489979773
 11
7.9966798553
 21
18.1489736932
  0
LWPOLYLINE
  5
342
100
AcDbEntity
  8
0
100
AcDbPolyline
 62
7
  6
CONTINUOUS
 90
46
 70
0
 10
11.921706942
 20
7.8859303208
 10
11.9398889798
 20
7.096314676
 10
11.9684563194
 20
6.318542199
 10
12.0023550496
 20
5.5951294127
 10
12.0392294561
 20
4.9186959362
 10
12.0777538746
 20
4.2819005954
 10
12.1171875773
 20
3.677829726
 10
12.1569620426
 20
3.1027576094
 10
12.196688417
 20
2.5536730793
 10
12.2361352033
 20
2.0275655862
 10
12.2751357369
 20
1.522060317
 10
12.313549196
 20
1.0354766511
 10
12.3512863476
 20
0.5662064229
 10
12.3882963105
 20
0.1126997378
 10
12.4245446366
 20
-0.326392404
 10
12.4599911611
 20
-0.7520536551
 10
12.4946069825
 20
-1.1651771791
 10
12.5283721615
 20
-1.566585561
 10
12.5612729311
 20
-1.9570340835
 10
12.5932947871
 20
-2.3371579041
 10
12.6244292574
 20
-2.7075803563
 10
12.6546704157
 20
-3.068892456
 10
12.6840077628
 20
-3.4215875976
 10
12.7124258055
 20
-3.766071539
 10
12.7399023653
 20
-4.1026478371
 10
12.7664206029
 20
-4.4316743302
 10
12.7919811469
 20
-4.753727103
 10
12.8165711051
 20
-5.0692339447
 10
12.8401624926
 20
-5.3784686719
 10
12.8627133053
 20
-5.6815679339
 10
12.8841629047
 20
-5.9784673646
 10
12.9044803081
 20
-6.2695996895
 10
12.9236378989
 20
-6.5556195112
 10
12.9415678377
 20
-6.8368152703
 10
12.9581652617
 20
-7.1131399425
 10
12.9732910025
 20
-7.3841824838
 10
12.9867959608
 20
-7.6496068633
 10
12.9985821111
 20
-7.9108403044
 10
13.0084443775
 20
-8.1686503137
 10
13.0160447775
 20
-8.4227259419
 10
13.0209257265
 20
-8.6718990181
 10
13.0225394149
 20
-8.9155600801
 10
13.0201421461
 20
-9.149993662
 10
13.0129168198
 20
-9.3692655342
 10
13.0002454674
 20
-9.566055552
 10
12.9824830387
 20
-9.7287051512
  0
LINE
  5
343
100
AcDbEntity
  8
0
100
AcDbLine
 62
7
  6
CONTINUOUS
 10
10.9207301285
 20
9.0979303208
 11
10.9207301285
 21
10.0379303208
  0
LINE
  5
344
100
AcDbEntity
  8
0
100
AcDbLine
 62
7
  6
CONTINUOUS
 10
10.9657301285
 20
8.8859303208
 11
10.9657301285
 21
4.2050892249
  0
LINE
  5
345
100
AcDbEntity
  8
0
100
AcDbLine
 62
7
  6
CONTINUOUS
 10
11.0611874505
 20
10.1079303208
 11
11.0611874505
 21
10.1031406244
  0
LINE
  5
346
100
AcDbEntity
  8
0
100
AcDbLine
 62
7
  6
CONTINUOUS
 10
11.1830666176
 20
10.0841886954
 11
11.1830666176
 21
10.0679303208
  0
LINE
  5
347
100
AcDbEntity
  8
0
100
AcDbLine
 62
7
  6
CONTINUOUS
 10
11.3083936394
 20
10.0701712233
 11
11.3083936394
 21
10.0880312233
  0
LINE
  5
348
100
AcDbEntity
  8
0
100
AcDbLine
 62
9
  6
CONTINUOUS
 10
11.3977221484
 20
11.226651626
 11
11.3977221484
 21
10.1322090155
  0
LINE
  5
349
100
AcDbEntity
  8
0
100
AcDbLine
 62
7
  6
CONTINUOUS
 10
11.4000701285
 20
11.2794303208
 11
11.4000701285
 21
10.0794303208
  0
LINE
  5
34A
100
AcDbEntity
  8
0
100
AcDbLine
 62
7
  6
CONTINUOUS
 10
11.4500701285
 20
10.0794303208
 11
11.4500701285
 21
11.2794303208
  0
LINE
  5
34B
100
AcDbEntity
  8
0
100
AcDbLine
 62
7
  6
CONTINUOUS
 10
11.5257301285
 20
8.8859303208
 11
11.5257301285
 21
4.2050892249
  0
LINE
  5
34C
100
AcDbEntity
  8
0
100
AcDbLine
 62
7
  6
CONTINUOUS
 10
11.5500701285
 20
11.2794303208
 11
11.5500701285
 21
10.0794303208
  0
LINE
  5
34D
100
AcDbEntity
  8
0
100
AcDbLine
 62
7
  6
CONTINUOUS
 10
11.5707301285
 20
10.0379303208
 11
11.5707301285
 21
9.0979303208
  0
LINE
  5
34E
100
AcDbEntity
  8
0
100
AcDbLine
 62
7
  6
CONTINUOUS
 10
11.6000701285
 20
10.0794303208
 11
11.6000701285
 21
11.2794303208
  0
LINE
  5
34F
100
AcDbEntity
  8
0
100
AcDbLine
 62
7
  6
CONTINUOUS
 10
11.6107301285
 20
10.1079303208
 11
11.6107301285
 21
10.1294303208
  0
LINE
  5
350
100
AcDbEntity
  8
0
100
AcDbLine
 62
9
  6
CONTINUOUS
 10
11.6153191696
 20
9.0862401801
 11
11.6153191696
 21
10.0496204616
  0
LINE
  5
351
100
AcDbEntity
  8
0
100
AcDbLine
 62
7
  6
CONTINUOUS
 10
11.6159883644
 20
10.0859600501
 11
11.6159883644
 21
10.1032254358
  0
LINE
  5
352
100
AcDbEntity
  8
0
100
AcDbLine
 62
7
  6
CONTINUOUS
 10
11.6207301285
 20
16.5479303208
 11
11.6207301285
 21
14.4226655216
  0
LINE
  5
353
100
AcDbEntity
  8
0
100
AcDbLine
 62
7
  6
CONTINUOUS
 10
11.6450701285
 20
9.5794303208
 11
11.6450701285
 21
9.4794303208
  0
LINE
  5
354
100
AcDbEntity
  8
0
100
AcDbLine
 62
7
  6
CONTINUOUS
 10
11.7227487627
 20
9.3436055407
 11
11.7227487627
 21
8.9382551009
  0
LINE
  5
355
100
AcDbEntity
  8
0
100
AcDbLine
 62
7
  6
CONTINUOUS
 10
11.7450701285
 20
10.1466052636
 11
11.7450701285
 21
9.6794303208
  0
LINE
  5
356
100
AcDbEntity
  8
0
100
AcDbLine
 62
7
  6
CONTINUOUS
 10
11.7457301285
 20
-7.5150696792
 11
11.7457301285
 21
8.4729303208
  0
LINE
  5
357
100
AcDbEntity
  8
0
100
AcDbLine
 62
7
  6
CONTINUOUS
 10
11.7457301285
 20
14.2471449729
 11
11.7457301285
 21
26.5509303208
  0
LINE
  5
358
100
AcDbEntity
  8
0
100
AcDbLine
 62
7
  6
CONTINUOUS
 10
11.7868744458
 20
8.9382551009
 11
11.7868744458
 21
9.3436055407
  0
LINE
  5
359
100
AcDbEntity
  8
0
100
AcDbLine
 62
7
  6
CONTINUOUS
 10
11.7927301285
 20
26.7577391801
 11
11.7927301285
 21
26.7103347505
  0
LINE
  5
35A
100
AcDbEntity
  8
0
100
AcDbLine
 62
7
  6
CONTINUOUS
 10
11.7927301285
 20
26.5983347505
 11
11.7927301285
 21
26.5509303208
  0
LINE
  5
35B
100
AcDbEntity
  8
0
100
AcDbLine
 62
7
  6
CONTINUOUS
 10
11.7927301285
 20
-7.7218785386
 11
11.7927301285
 21
-7.6744741089
  0
LINE
  5
35C
100
AcDbEntity
  8
0
100
AcDbLine
 62
7
  6
CONTINUOUS
 10
11.7927301285
 20
-7.5624741089
 11
11.7927301285
 21
-7.5150696792
  0
LINE
  5
35D
100
AcDbEntity
  8
0
100
AcDbLine
 62
7
  6
CONTINUOUS
 10
11.8350701285
 20
9.3994303208
 11
11.8350701285
 21
9.4794303208
  0
LINE
  5
35E
100
AcDbEntity
  8
0
100
AcDbLine
 62
7
  6
CONTINUOUS
 10
11.8511813397
 20
9.3436055407
 11
11.8511813397
 21
8.9382551009
  0
LINE
  5
35F
100
AcDbEntity
  8
0
100
AcDbLine
 62
7
  6
CONTINUOUS
 10
11.8807301285
 20
14.1429303208
 11
11.8807301285
 21
14.0729303208
  0
LINE
  5
360
100
AcDbEntity
  8
0
100
AcDbLine
 62
7
  6
CONTINUOUS
 10
11.8940701285
 20
8.8859303208
 11
11.8940701285
 21
7.8859303208
  0
LINE
  5
361
100
AcDbEntity
  8
0
100
AcDbLine
 62
7
  6
CONTINUOUS
 10
11.9237301285
 20
27.6054248745
 11
11.9237301285
 21
26.9304357671
  0
LINE
  5
362
100
AcDbEntity
  8
0
100
AcDbLine
 62
7
  6
CONTINUOUS
 10
11.9237301285
 20
-7.8945751255
 11
11.9237301285
 21
-8.5695642329
  0
LINE
  5
363
100
AcDbEntity
  8
0
100
AcDbLine
 62
7
  6
CONTINUOUS
 10
10.9650111672
 20
4.0904732881
 11
10.8482381675
 21
-5.2025205989
  0
LINE
  5
364
100
AcDbEntity
  8
0
100
AcDbLine
 62
7
  6
CONTINUOUS
 10
11.5249669613
 20
4.0834370499
 11
11.4081939616
 21
-5.209556837
  0
LINE
  5
365
100
AcDbEntity
  8
0
100
AcDbLine
 62
7
  6
CONTINUOUS
 10
11.6557301285
 20
8.8859303208
 11
11.661889181
 21
9.0679303208
  0
LINE
  5
366
100
AcDbEntity
  8
0
100
AcDbLine
 62
7
  6
CONTINUOUS
 10
11.8310701285
 20
9.3994303208
 11
11.8275701285
 21
9.3959303208
  0
LINE
  5
367
100
AcDbEntity
  8
0
100
AcDbLine
 62
7
  6
CONTINUOUS
 10
11.763094481
 20
9.3959303208
 11
11.7432546181
 21
9.3816814518
  0
LINE
  5
368
100
AcDbEntity
  8
0
100
AcDbLine
 62
7
  6
CONTINUOUS
 10
12.6568856389
 20
8.9001791897
 11
12.637045776
 21
8.8859303208
  0
LINE
  5
369
100
AcDbEntity
  8
0
100
AcDbLine
 62
7
  6
CONTINUOUS
 10
12.6773914943
 20
9.3436055407
 11
12.6411439726
 21
9.3436055407
  0
LINE
  5
36A
100
AcDbEntity
  8
0
100
AcDbLine
 62
7
  6
CONTINUOUS
 10
12.3285027054
 20
9.3436055407
 11
12.2279482899
 21
9.3436055407
  0
LINE
  5
36B
100
AcDbEntity
  8
0
100
AcDbLine
 62
7
  6
CONTINUOUS
 10
11.8511813397
 20
9.3436055407
 11
11.7868744458
 21
9.3436055407
  0
LINE
  5
36C
100
AcDbEntity
  8
0
100
AcDbLine
 62
7
  6
CONTINUOUS
 10
11.5707301285
 20
9.3659303208
 11
10.9207301285
 21
9.3659303208
  0
LINE
  5
36D
100
AcDbEntity
  8
0
100
AcDbLine
 62
7
  6
CONTINUOUS
 10
10.9207301285
 20
9.3684303208
 11
11.5707301285
 21
9.3684303208
  0
LINE
  5
36E
100
AcDbEntity
  8
0
100
AcDbLine
 62
7
  6
CONTINUOUS
 10
12.6370350463
 20
9.3959303208
 11
11.7631052107
 21
9.3959303208
  0
LINE
  5
36F
100
AcDbEntity
  8
0
100
AcDbLine
 62
7
  6
CONTINUOUS
 10
12.5690701285
 20
9.3994303208
 11
11.8310701285
 21
9.3994303208
  0
LINE
  5
370
100
AcDbEntity
  8
0
100
AcDbLine
 62
7
  6
CONTINUOUS
 10
10.9207301285
 20
9.4009303208
 11
11.5707301285
 21
9.4009303208
  0
LINE
  5
371
100
AcDbEntity
  8
0
100
AcDbLine
 62
7
  6
CONTINUOUS
 10
11.5707301285
 20
9.4059303208
 11
10.9207301285
 21
9.4059303208
  0
LINE
  5
372
100
AcDbEntity
  8
0
100
AcDbLine
 62
7
  6
CONTINUOUS
 10
10.9207301285
 20
9.4359303208
 11
11.5707301285
 21
9.4359303208
  0
LINE
  5
373
100
AcDbEntity
  8
0
100
AcDbLine
 62
7
  6
CONTINUOUS
 10
11.6450701285
 20
9.4794303208
 11
12.7550701285
 21
9.4794303208
  0
LINE
  5
374
100
AcDbEntity
  8
0
100
AcDbLine
 62
7
  6
CONTINUOUS
 10
12.7550701285
 20
9.5794303208
 11
11.6450701285
 21
9.5794303208
  0
LINE
  5
375
100
AcDbEntity
  8
0
100
AcDbLine
 62
9
  6
CONTINUOUS
 10
11.7450701285
 20
9.6794303208
 11
12.6550701285
 21
9.6794303208
  0
LINE
  5
376
100
AcDbEntity
  8
0
100
AcDbLine
 62
7
  6
CONTINUOUS
 10
13.3550701285
 20
9.6794303208
 11
13.4300701285
 21
9.6794303208
  0
LINE
  5
377
100
AcDbEntity
  8
0
100
AcDbLine
 62
7
  6
CONTINUOUS
 10
13.1000701285
 20
9.6798145111
 11
13.1750701285
 21
9.6798145111
  0
LINE
  5
378
100
AcDbEntity
  8
0
100
AcDbLine
 62
9
  6
CONTINUOUS
 10
11.6153191696
 20
10.0496204616
 11
11.7450701285
 21
10.0496231566
  0
LINE
  5
379
100
AcDbEntity
  8
0
100
AcDbLine
 62
9
  6
CONTINUOUS
 10
10.6578695651
 20
10.0496148212
 11
10.8761410874
 21
10.0496204615
  0
LINE
  5
37A
100
AcDbEntity
  8
0
100
AcDbLine
 62
7
  6
CONTINUOUS
 10
11.7450701285
 20
10.0679303208
 11
11.5436953987
 21
10.0679303208
  0
LINE
  5
37B
100
AcDbEntity
  8
0
100
AcDbLine
 62
7
  6
CONTINUOUS
 10
11.4564448583
 20
10.0679303208
 11
10.6965520213
 21
10.0679303208
  0
LINE
  5
37C
100
AcDbEntity
  8
0
100
AcDbLine
 62
7
  6
CONTINUOUS
 10
11.6000701285
 20
10.0794303208
 11
11.5500701285
 21
10.0794303208
  0
LINE
  5
37D
100
AcDbEntity
  8
0
100
AcDbLine
 62
7
  6
CONTINUOUS
 10
11.4500701285
 20
10.0794303208
 11
11.4000701285
 21
10.0794303208
  0
LINE
  5
37E
100
AcDbEntity
  8
0
100
AcDbLine
 62
7
  6
CONTINUOUS
 10
10.8514294745
 20
10.1079303208
 11
11.4000701285
 21
10.1079303208
  0
LINE
  5
37F
100
AcDbEntity
  8
0
100
AcDbLine
 62
7
  6
CONTINUOUS
 10
11.6000701285
 20
10.1079303208
 11
11.6235938936
 21
10.1079303208
  0
LINE
  5
380
100
AcDbEntity
  8
0
100
AcDbLine
 62
7
  6
CONTINUOUS
 10
11.6000701285
 20
10.1294303208
 11
11.7250701285
 21
10.1294303208
  0
LINE
  5
381
100
AcDbEntity
  8
0
100
AcDbLine
 62
7
  6
CONTINUOUS
 10
12.6750701285
 20
10.1294303208
 11
12.7200701285
 21
10.1294303208
  0
LINE
  5
382
100
AcDbEntity
  8
0
100
AcDbLine
 62
7
  6
CONTINUOUS
 10
13.4300701285
 20
10.1294303208
 11
13.4400701285
 21
10.1294303208
  0
LINE
  5
383
100
AcDbEntity
  8
0
100
AcDbLine
 62
7
  6
CONTINUOUS
 10
10.6507301285
 20
10.1829303208
 11
11.3598668615
 21
10.1829303208
  0
LINE
  5
384
100
AcDbEntity
  8
0
100
AcDbLine
 62
9
  6
CONTINUOUS
 10
10.6107301285
 20
10.2229303208
 11
11.3319176328
 21
10.2229303208
  0
LINE
  5
385
100
AcDbEntity
  8
0
100
AcDbLine
 62
9
  6
CONTINUOUS
 10
11.2914114351
 20
10.2929303208
 11
10.6107301285
 21
10.2929303208
  0
LINE
  5
386
100
AcDbEntity
  8
0
100
AcDbLine
 62
7
  6
CONTINUOUS
 10
10.5744466715
 20
10.3179303208
 11
10.6200795483
 21
10.3179303208
  0
LINE
  5
387
100
AcDbEntity
  8
0
100
AcDbLine
 62
9
  6
CONTINUOUS
 10
10.6484671557
 20
10.3328662564
 11
11.2735105807
 21
10.3328662564
  0
LINE
  5
388
100
AcDbEntity
  8
0
100
AcDbLine
 62
9
  6
CONTINUOUS
 10
10.5567301285
 20
10.3356468558
 11
10.6616405288
 21
10.3356468558
  0
LINE
  5
389
100
AcDbEntity
  8
0
100
AcDbLine
 62
7
  6
CONTINUOUS
 10
10.7032793057
 20
10.381016935
 11
10.5567301285
 21
10.381016935
  0
LINE
  5
38A
100
AcDbEntity
  8
0
100
AcDbLine
 62
9
  6
CONTINUOUS
 10
11.2466298299
 20
10.39807827
 11
10.7048483298
 21
10.39807827
  0
LINE
  5
38B
100
AcDbEntity
  8
0
100
AcDbLine
 62
7
  6
CONTINUOUS
 10
10.8371783676
 20
10.0901705566
 11
10.8756496003
 21
10.0679303208
  0
LINE
  5
38C
100
AcDbEntity
  8
0
100
AcDbLine
 62
7
  6
CONTINUOUS
 10
11.6476992694
 20
10.0679303208
 11
11.6161223554
 21
10.0861917246
  0
LINE
  5
38D
100
AcDbEntity
  8
0
100
AcDbLine
 62
7
  6
CONTINUOUS
 10
11.7432546181
 20
8.9001791897
 11
11.763094481
 21
8.8859303208
  0
LINE
  5
38E
100
AcDbEntity
  8
0
100
AcDbLine
 62
7
  6
CONTINUOUS
 10
12.637045776
 20
9.3959303208
 11
12.6568856389
 21
9.3816814518
  0
LINE
  5
38F
100
AcDbEntity
  8
0
100
AcDbLine
 62
7
  6
CONTINUOUS
 10
10.8367301285
 20
10.0906803273
 11
10.8371783426
 21
10.0901512493
  0
LINE
  5
390
100
AcDbEntity
  8
0
100
AcDbLine
 62
7
  6
CONTINUOUS
 10
8.004030912
 20
16.3508976821
 11
8.0041762108
 21
16.3506426677
  0
LINE
  5
391
100
AcDbEntity
  8
0
100
AcDbLine
 62
7
  6
CONTINUOUS
 10
12.2279482899
 20
8.9382551009
 11
12.2279482899
 21
9.3436055407
  0
LINE
  5
392
100
AcDbEntity
  8
0
100
AcDbLine
 62
7
  6
CONTINUOUS
 10
12.2701267226
 20
27.8729303208
 11
12.2701267226
 21
26.6629303208
  0
LINE
  5
393
100
AcDbEntity
  8
0
100
AcDbLine
 62
7
  6
CONTINUOUS
 10
12.2701267226
 20
-7.6270696792
 11
12.2701267226
 21
-8.8370696792
  0
LINE
  5
394
100
AcDbEntity
  8
0
100
AcDbLine
 62
7
  6
CONTINUOUS
 10
12.3285027054
 20
9.3436055407
 11
12.3285027054
 21
8.9382551009
  0
LINE
  5
395
100
AcDbEntity
  8
0
100
AcDbLine
 62
7
  6
CONTINUOUS
 10
12.5060701285
 20
8.8859303208
 11
12.5060701285
 21
7.8859303208
  0
LINE
  5
396
100
AcDbEntity
  8
0
100
AcDbLine
 62
7
  6
CONTINUOUS
 10
12.5650701285
 20
9.3994303208
 11
12.5650701285
 21
9.4794303208
  0
LINE
  5
397
100
AcDbEntity
  8
0
100
AcDbLine
 62
7
  6
CONTINUOUS
 10
12.6411439726
 20
8.9382551009
 11
12.6411439726
 21
9.3436055407
  0
LINE
  5
398
100
AcDbEntity
  8
0
100
AcDbLine
 62
7
  6
CONTINUOUS
 10
12.6550701285
 20
10.1466052516
 11
12.6550701285
 21
9.6794303208
  0
LINE
  5
399
100
AcDbEntity
  8
0
100
AcDbLine
 62
7
  6
CONTINUOUS
 10
12.6773914943
 20
9.3436055407
 11
12.6773914943
 21
8.9382551009
  0
LINE
  5
39A
100
AcDbEntity
  8
0
100
AcDbLine
 62
9
  6
CONTINUOUS
 10
12.7200701285
 20
10.1294303208
 11
12.7200701285
 21
11.2294303208
  0
LINE
  5
39B
100
AcDbEntity
  8
0
100
AcDbLine
 62
7
  6
CONTINUOUS
 10
12.7550701285
 20
9.5794303208
 11
12.7550701285
 21
9.4794303208
  0
LINE
  5
39C
100
AcDbEntity
  8
0
100
AcDbLine
 62
7
  6
CONTINUOUS
 10
12.8900701285
 20
27.9429295876
 11
12.8900701285
 21
26.592931054
  0
LINE
  5
39D
100
AcDbEntity
  8
0
100
AcDbLine
 62
7
  6
CONTINUOUS
 10
12.8900701285
 20
-7.5570704124
 11
12.8900701285
 21
-8.907068946
  0
LINE
  5
39E
100
AcDbEntity
  8
0
100
AcDbLine
 62
7
  6
CONTINUOUS
 10
12.9412609266
 20
-8.9070696792
 11
12.9412609266
 21
-7.5570696792
  0
LINE
  5
39F
100
AcDbEntity
  8
0
100
AcDbLine
 62
7
  6
CONTINUOUS
 10
12.9412609266
 20
26.5929303208
 11
12.9412609266
 21
27.9429303208
  0
LINE
  5
3A0
100
AcDbEntity
  8
0
100
AcDbLine
 62
7
  6
CONTINUOUS
 10
13.0882381697
 20
27.9429303208
 11
13.0882381697
 21
26.5929303208
  0
LINE
  5
3A1
100
AcDbEntity
  8
0
100
AcDbLine
 62
7
  6
CONTINUOUS
 10
13.1000701285
 20
11.6790455775
 11
13.1000701285
 21
9.679815064
  0
LINE
  5
3A2
100
AcDbEntity
  8
0
100
AcDbLine
 62
7
  6
CONTINUOUS
 10
13.1394289678
 20
26.5929303208
 11
13.1394289678
 21
27.9429303208
  0
LINE
  5
3A3
100
AcDbEntity
  8
0
100
AcDbLine
 62
7
  6
CONTINUOUS
 10
13.1750701285
 20
9.6798145111
 11
13.1750701285
 21
11.6790461305
  0
LINE
  5
3A4
100
AcDbEntity
  8
0
100
AcDbLine
 62
7
  6
CONTINUOUS
 10
13.2300701285
 20
28.3429303208
 11
13.2300701285
 21
26.1929303208
  0
LINE
  5
3A5
100
AcDbEntity
  8
0
100
AcDbLine
 62
7
  6
CONTINUOUS
 10
13.2775701285
 20
28.3429303208
 11
13.2775701285
 21
26.1929303208
  0
LINE
  5
3A6
100
AcDbEntity
  8
0
100
AcDbLine
 62
7
  6
CONTINUOUS
 10
13.3550701285
 20
11.6794303208
 11
13.3550701285
 21
9.6794303208
  0
LINE
  5
3A7
100
AcDbEntity
  8
0
100
AcDbLine
 62
9
  6
CONTINUOUS
 10
13.3900701285
 20
28.4554303208
 11
13.3900701285
 21
26.0804303208
  0
LINE
  5
3A8
100
AcDbEntity
  8
0
100
AcDbLine
 62
7
  6
CONTINUOUS
 10
13.4300701285
 20
9.6794308739
 11
13.4300701285
 21
11.6794297676
  0
LINE
  5
3A9
100
AcDbEntity
  8
0
100
AcDbLine
 62
7
  6
CONTINUOUS
 10
13.4300701285
 20
26.0804401913
 11
13.4300701285
 21
28.4554204503
  0
LINE
  5
3AA
100
AcDbEntity
  8
0
100
AcDbLine
 62
7
  6
CONTINUOUS
 10
13.4400701285
 20
10.1294394214
 11
13.4400701285
 21
11.2294212202
  0
LINE
  5
3AB
100
AcDbEntity
  8
0
100
AcDbLine
 62
7
  6
CONTINUOUS
 10
10.5567301285
 20
10.5108437066
 11
10.6973354062
 21
10.5108437066
  0
LINE
  5
3AC
100
AcDbEntity
  8
0
100
AcDbLine
 62
9
  6
CONTINUOUS
 10
10.694234122
 20
10.5574601178
 11
10.556738423
 21
10.5574601178
  0
LINE
  5
3AD
100
AcDbEntity
  8
0
100
AcDbLine
 62
9
  6
CONTINUOUS
 10
10.5717803
 20
10.5749748578
 11
10.6930689061
 21
10.5749748578
  0
LINE
  5
3AE
100
AcDbEntity
  8
0
100
AcDbLine
 62
9
  6
CONTINUOUS
 10
10.6549075677
 20
10.6548308217
 11
10.6877562698
 21
10.6548308217
  0
LINE
  5
3AF
100
AcDbEntity
  8
0
100
AcDbLine
 62
7
  6
CONTINUOUS
 10
10.6872174285
 20
10.6629303208
 11
10.6647253105
 21
10.6629303208
  0
LINE
  5
3B0
100
AcDbEntity
  8
0
100
AcDbLine
 62
7
  6
CONTINUOUS
 10
11.6000701285
 20
11.2294303208
 11
12.7200701285
 21
11.2294303208
  0
LINE
  5
3B1
100
AcDbEntity
  8
0
100
AcDbLine
 62
7
  6
CONTINUOUS
 10
13.4300701285
 20
11.2294303208
 11
13.4400701285
 21
11.2294303208
  0
LINE
  5
3B2
100
AcDbEntity
  8
0
100
AcDbLine
 62
7
  6
CONTINUOUS
 10
11.6000701285
 20
11.2794303208
 11
11.5500701285
 21
11.2794303208
  0
LINE
  5
3B3
100
AcDbEntity
  8
0
100
AcDbLine
 62
7
  6
CONTINUOUS
 10
11.4500701285
 20
11.2794303208
 11
11.4000701285
 21
11.2794303208
  0
LINE
  5
3B4
100
AcDbEntity
  8
0
100
AcDbLine
 62
7
  6
CONTINUOUS
 10
13.1000701285
 20
11.6790461305
 11
13.1750701285
 21
11.6790461305
  0
LINE
  5
3B5
100
AcDbEntity
  8
0
100
AcDbLine
 62
7
  6
CONTINUOUS
 10
13.3550701285
 20
11.6794303208
 11
13.4300701285
 21
11.6794303208
  0
LINE
  5
3B6
100
AcDbEntity
  8
0
100
AcDbLine
 62
7
  6
CONTINUOUS
 10
12.5690701285
 20
9.3994303208
 11
12.5704101285
 21
9.3980903208
  0
LINE
  5
3B7
100
AcDbEntity
  8
0
100
AcDbLine
 62
7
  6
CONTINUOUS
 10
8.1093653405
 20
15.4899996297
 11
8.1175188312
 21
15.481846139
  0
LINE
  5
3B8
100
AcDbEntity
  8
0
100
AcDbLine
 62
7
  6
CONTINUOUS
 10
8.1093656182
 20
15.5450009709
 11
8.1175188312
 21
15.5368477579
  0
LINE
  5
3B9
100
AcDbEntity
  8
0
100
AcDbLine
 62
7
  6
CONTINUOUS
 10
8.9810844402
 20
19.033435569
 11
9.0828815184
 21
18.8047955879
  0
LWPOLYLINE
  5
3BA
100
AcDbEntity
  8
0
100
AcDbPolyline
 62
7
  6
CONTINUOUS
 90
4
 70
0
 10
8.0013540164
 20
16.2525980386
 10
8.0047240409
 20
16.2499438412
 10
8.0060279497
 20
16.2480373887
 10
8.0062822437
 20
16.2474915478
  0
LINE
  5
3BB
100
AcDbEntity
  8
0
100
AcDbLine
 62
7
  6
CONTINUOUS
 10
8.06781845
 20
15.7283511306
 11
8.0759719676
 21
15.720197613
  0
LINE
  5
3BC
100
AcDbEntity
  8
0
100
AcDbLine
 62
7
  6
CONTINUOUS
 10
8.1093656182
 20
15.7062575584
 11
8.1175188313
 21
15.6981043453
  0
LINE
  5
3BD
100
AcDbEntity
  8
0
100
AcDbLine
 62
7
  6
CONTINUOUS
 10
8.06781845
 20
15.8229159905
 11
8.0759719675
 21
15.8147624729
  0
LINE
  5
3BE
100
AcDbEntity
  8
0
100
AcDbLine
 62
7
  6
CONTINUOUS
 10
8.1093656182
 20
15.9627797445
 11
8.1175188312
 21
15.9546265315
  0
LINE
  5
3BF
100
AcDbEntity
  8
0
100
AcDbLine
 62
7
  6
CONTINUOUS
 10
8.06781845
 20
16.0056012713
 11
8.0759719676
 21
15.9974477537
  0
LINE
  5
3C0
100
AcDbEntity
  8
0
100
AcDbLine
 62
7
  6
CONTINUOUS
 10
7.9490754977
 20
16.2701221193
 11
7.9618417559
 21
16.2573558611
  0
LINE
  5
3C1
100
AcDbEntity
  8
0
100
AcDbLine
 62
7
  6
CONTINUOUS
 10
7.9490754977
 20
16.3720338521
 11
7.9618417559
 21
16.3592675939
  0
LINE
  5
3C2
100
AcDbEntity
  8
0
100
AcDbLine
 62
7
  6
CONTINUOUS
 10
8.06781845
 20
16.2639572731
 11
8.0759719676
 21
16.2558037555
  0
LINE
  5
3C3
100
AcDbEntity
  8
0
100
AcDbLine
 62
7
  6
CONTINUOUS
 10
8.1093656182
 20
16.2970859661
 11
8.1175188312
 21
16.2889327531
  0
LINE
  5
3C4
100
AcDbEntity
  8
0
100
AcDbLine
 62
7
  6
CONTINUOUS
 10
7.8462192215
 20
16.5884788162
 11
7.8543724426
 21
16.580325595
  0
LINE
  5
3C5
100
AcDbEntity
  8
0
100
AcDbLine
 62
7
  6
CONTINUOUS
 10
7.9490754977
 20
16.5182795698
 11
7.9618417558
 21
16.5055133117
  0
LINE
  5
3C6
100
AcDbEntity
  8
0
100
AcDbLine
 62
7
  6
CONTINUOUS
 10
7.8462192215
 20
16.767014197
 11
7.854372441
 21
16.7588609775
  0
LINE
  5
3C7
100
AcDbEntity
  8
0
100
AcDbLine
 62
7
  6
CONTINUOUS
 10
8.06781845
 20
16.5803774613
 11
8.0759719676
 21
16.5722239437
  0
LINE
  5
3C8
100
AcDbEntity
  8
0
100
AcDbLine
 62
7
  6
CONTINUOUS
 10
8.1093656182
 20
16.6863938067
 11
8.1175188312
 21
16.6782405937
  0
LINE
  5
3C9
100
AcDbEntity
  8
0
100
AcDbLine
 62
7
  6
CONTINUOUS
 10
7.8462192215
 20
17.1119180676
 11
7.8543724426
 21
17.1037648464
  0
LINE
  5
3CA
100
AcDbEntity
  8
0
100
AcDbLine
 62
7
  6
CONTINUOUS
 10
8.06781845
 20
16.933298323
 11
8.0759719676
 21
16.9251448054
  0
LINE
  5
3CB
100
AcDbEntity
  8
0
100
AcDbLine
 62
7
  6
CONTINUOUS
 10
7.9490754977
 20
17.1577877201
 11
7.9618417559
 21
17.1450214619
  0
LINE
  5
3CC
100
AcDbEntity
  8
0
100
AcDbLine
 62
7
  6
CONTINUOUS
 10
8.1093656182
 20
17.1041725803
 11
8.1175188312
 21
17.0960193673
  0
LINE
  5
3CD
100
AcDbEntity
  8
0
100
AcDbLine
 62
7
  6
CONTINUOUS
 10
7.8462192215
 20
17.4211504181
 11
7.854372441
 21
17.4129971986
  0
LINE
  5
3CE
100
AcDbEntity
  8
0
100
AcDbLine
 62
7
  6
CONTINUOUS
 10
7.9490754977
 20
17.3754690988
 11
7.9618417559
 21
17.3627028406
  0
LINE
  5
3CF
100
AcDbEntity
  8
0
100
AcDbLine
 62
7
  6
CONTINUOUS
 10
8.06781845
 20
17.2986688847
 11
8.0759719676
 21
17.2905153671
  0
LINE
  5
3D0
100
AcDbEntity
  8
0
100
AcDbLine
 62
7
  6
CONTINUOUS
 10
7.9490754977
 20
17.5778718319
 11
7.9618417559
 21
17.5651055737
  0
LINE
  5
3D1
100
AcDbEntity
  8
0
100
AcDbLine
 62
7
  6
CONTINUOUS
 10
11.6357732434
 20
14.3829304177
 11
11.7797199028
 21
14.2051710973
  0
LINE
  5
3D2
100
AcDbEntity
  8
0
100
AcDbLine
 62
9
  6
CONTINUOUS
 10
10.704837435
 20
13.9677823715
 11
11.786622822
 21
13.9677823715
  0
LINE
  5
3D3
100
AcDbEntity
  8
0
100
AcDbLine
 62
9
  6
CONTINUOUS
 10
10.6484671557
 20
14.0329943852
 11
11.8429931013
 21
14.0329943852
  0
LINE
  5
3D4
100
AcDbEntity
  8
0
100
AcDbLine
 62
9
  6
CONTINUOUS
 10
10.6107301285
 20
14.0729303208
 11
11.8807301285
 21
14.0729303208
  0
LINE
  5
3D5
100
AcDbEntity
  8
0
100
AcDbLine
 62
9
  6
CONTINUOUS
 10
11.8807301285
 20
14.1429303208
 11
10.6107301285
 21
14.1429303208
  0
LINE
  5
3D6
100
AcDbEntity
  8
0
100
AcDbLine
 62
7
  6
CONTINUOUS
 10
11.8407301285
 20
14.1829303208
 11
10.6507301285
 21
14.1829303208
  0
LINE
  5
3D7
100
AcDbEntity
  8
0
100
AcDbLine
 62
9
  6
CONTINUOUS
 10
10.7117403542
 20
14.2051710973
 11
11.7797199028
 21
14.2051710973
  0
LINE
  5
3D8
100
AcDbEntity
  8
0
100
AcDbLine
 62
7
  6
CONTINUOUS
 10
11.6357732434
 20
14.3829304177
 11
10.8556870136
 21
14.3829304177
  0
LINE
  5
3D9
100
AcDbEntity
  8
0
100
AcDbLine
 62
9
  6
CONTINUOUS
 10
10.8707301285
 20
14.4226655216
 11
11.6207301285
 21
14.4226655216
  0
LINE
  5
3DA
100
AcDbEntity
  8
0
100
AcDbLine
 62
7
  6
CONTINUOUS
 10
8.1093656182
 20
17.5219513538
 11
8.1175188312
 21
17.5137981409
  0
LINE
  5
3DB
100
AcDbEntity
  8
0
100
AcDbLine
 62
7
  6
CONTINUOUS
 10
8.06781845
 20
17.6515897464
 11
8.0759719675
 21
17.6434362289
  0
LINE
  5
3DC
100
AcDbEntity
  8
0
100
AcDbLine
 62
7
  6
CONTINUOUS
 10
7.9490754977
 20
17.9908686065
 11
7.9618417559
 21
17.9781023483
  0
LINE
  5
3DD
100
AcDbEntity
  8
0
100
AcDbLine
 62
7
  6
CONTINUOUS
 10
8.1093656182
 20
17.9112591944
 11
8.1175191799
 21
17.9031056327
  0
LINE
  5
3DE
100
AcDbEntity
  8
0
100
AcDbLine
 62
7
  6
CONTINUOUS
 10
8.06781845
 20
17.9680099346
 11
8.0759719676
 21
17.959856417
  0
LINE
  5
3DF
100
AcDbEntity
  8
0
100
AcDbLine
 62
7
  6
CONTINUOUS
 10
8.06781845
 20
18.2263659364
 11
8.0759719676
 21
18.2182124189
  0
LINE
  5
3E0
100
AcDbEntity
  8
0
100
AcDbLine
 62
7
  6
CONTINUOUS
 10
8.1093656182
 20
18.245565416
 11
8.1175188312
 21
18.2374122031
  0
LINE
  5
3E1
100
AcDbEntity
  8
0
100
AcDbLine
 62
7
  6
CONTINUOUS
 10
8.06781845
 20
18.4090512173
 11
8.0759719676
 21
18.4008976997
  0
LINE
  5
3E2
100
AcDbEntity
  8
0
100
AcDbLine
 62
7
  6
CONTINUOUS
 10
8.1093656182
 20
18.5020876021
 11
8.1175188312
 21
18.4939343892
  0
LINE
  5
3E3
100
AcDbEntity
  8
0
100
AcDbLine
 62
7
  6
CONTINUOUS
 10
8.1093656182
 20
18.6633441896
 11
8.1175188312
 21
18.6551909767
  0
LINE
  5
3E4
100
AcDbEntity
  8
0
100
AcDbLine
 62
7
  6
CONTINUOUS
 10
12.9824830387
 20
-9.7287051512
 11
12.9619437802
 21
-9.8467875739
  0
LINE
  5
3E5
100
AcDbEntity
  8
0
100
AcDbLine
 62
7
  6
CONTINUOUS
 10
8.7295197033
 20
15.2679303208
 11
8.9125685308
 21
15.2679303208
  0
LINE
  5
3E6
100
AcDbEntity
  8
0
100
AcDbLine
 62
7
  6
CONTINUOUS
 10
8.1314388534
 20
15.4760799271
 11
8.1663586699
 21
15.4760799271
  0
LINE
  5
3E7
100
AcDbEntity
  8
0
100
AcDbLine
 62
7
  6
CONTINUOUS
 10
8.1663586699
 20
15.5310815461
 11
8.1314388534
 21
15.5310815461
  0
LINE
  5
3E8
100
AcDbEntity
  8
0
100
AcDbLine
 62
7
  6
CONTINUOUS
 10
9.1011524275
 20
15.5529303208
 11
9.1351408601
 21
15.5529303208
  0
LINE
  5
3E9
100
AcDbEntity
  8
0
100
AcDbLine
 62
7
  6
CONTINUOUS
 10
8.1663586699
 20
15.6923381336
 11
8.1314388534
 21
15.6923381336
  0
LINE
  5
3EA
100
AcDbEntity
  8
0
100
AcDbLine
 62
7
  6
CONTINUOUS
 10
8.1047427544
 20
15.7144317057
 11
8.0898916851
 21
15.7144317057
  0
LINE
  5
3EB
100
AcDbEntity
  8
0
100
AcDbLine
 62
7
  6
CONTINUOUS
 10
7.9960149959
 20
16.2538962823
 11
8.0013540164
 21
16.2525980386
  0
LINE
  5
3EC
100
AcDbEntity
  8
0
100
AcDbLine
 62
7
  6
CONTINUOUS
 10
7.8730910057
 20
16.5109528065
 11
7.9505285491
 21
16.4827678457
  0
LINE
  5
3ED
100
AcDbEntity
  8
0
100
AcDbLine
 62
7
  6
CONTINUOUS
 10
12.9619437802
 20
-9.8467875739
 11
12.941470214
 21
-9.9218791221
  0
LINE
  5
3EE
100
AcDbEntity
  8
0
100
AcDbLine
 62
7
  6
CONTINUOUS
 10
8.1036000037
 20
15.8089965656
 11
8.0898916851
 21
15.8089965656
  0
LINE
  5
3EF
100
AcDbEntity
  8
0
100
AcDbLine
 62
7
  6
CONTINUOUS
 10
8.1534110052
 20
15.8576924643
 11
8.1314388534
 21
15.8576924643
  0
LINE
  5
3F0
100
AcDbEntity
  8
0
100
AcDbLine
 62
7
  6
CONTINUOUS
 10
8.1663586699
 20
15.9488603197
 11
8.1314388534
 21
15.9488603197
  0
LINE
  5
3F1
100
AcDbEntity
  8
0
100
AcDbLine
 62
7
  6
CONTINUOUS
 10
8.1103729616
 20
15.9507288491
 11
8.0898916851
 21
15.9507288491
  0
LINE
  5
3F2
100
AcDbEntity
  8
0
100
AcDbLine
 62
7
  6
CONTINUOUS
 10
8.1036000037
 20
15.9916818465
 11
8.0898916851
 21
15.9916818465
  0
LINE
  5
3F3
100
AcDbEntity
  8
0
100
AcDbLine
 62
7
  6
CONTINUOUS
 10
8.0416456234
 20
16.0115129979
 11
8.0348721329
 21
16.0115129979
  0
LINE
  5
3F4
100
AcDbEntity
  8
0
100
AcDbLine
 62
7
  6
CONTINUOUS
 10
8.1564606746
 20
16.1142146504
 11
8.1314388534
 21
16.1142146504
  0
LINE
  5
3F5
100
AcDbEntity
  8
0
100
AcDbLine
 62
7
  6
CONTINUOUS
 10
8.1122229221
 20
16.1334141299
 11
8.0898916851
 21
16.1334141299
  0
LINE
  5
3F6
100
AcDbEntity
  8
0
100
AcDbLine
 62
7
  6
CONTINUOUS
 10
8.132126417
 20
16.2500378483
 11
8.0898916851
 21
16.2500378483
  0
LINE
  5
3F7
100
AcDbEntity
  8
0
100
AcDbLine
 62
7
  6
CONTINUOUS
 10
7.9960128767
 20
16.2538964486
 11
7.9701934545
 21
16.2538964486
  0
LINE
  5
3F8
100
AcDbEntity
  8
0
100
AcDbLine
 62
7
  6
CONTINUOUS
 10
8.1663586699
 20
16.2831665413
 11
8.1314388534
 21
16.2831665413
  0
LINE
  5
3F9
100
AcDbEntity
  8
0
100
AcDbLine
 62
7
  6
CONTINUOUS
 10
7.9948293207
 20
16.3558081815
 11
7.9701934545
 21
16.3558081815
  0
LINE
  5
3FA
100
AcDbEntity
  8
0
100
AcDbLine
 62
7
  6
CONTINUOUS
 10
8.1036000037
 20
16.3917701318
 11
8.0898916851
 21
16.3917701318
  0
LINE
  5
3FB
100
AcDbEntity
  8
0
100
AcDbLine
 62
7
  6
CONTINUOUS
 10
8.1604370807
 20
16.448520872
 11
8.1314388534
 21
16.448520872
  0
LINE
  5
3FC
100
AcDbEntity
  8
0
100
AcDbLine
 62
7
  6
CONTINUOUS
 10
7.9775043858
 20
16.4975404649
 11
7.9701934545
 21
16.4975404649
  0
LINE
  5
3FD
100
AcDbEntity
  8
0
100
AcDbLine
 62
7
  6
CONTINUOUS
 10
7.9931356544
 20
16.502053909
 11
7.9701934545
 21
16.5020538992
  0
LINE
  5
3FE
100
AcDbEntity
  8
0
100
AcDbLine
 62
9
  6
CONTINUOUS
 10
11.6207301285
 20
16.5479303208
 11
10.8707301285
 21
16.5479303208
  0
LINE
  5
3FF
100
AcDbEntity
  8
0
100
AcDbLine
 62
7
  6
CONTINUOUS
 10
8.1289133354
 20
16.5664580365
 11
8.0898916851
 21
16.5664580365
  0
LINE
  5
400
100
AcDbEntity
  8
0
100
AcDbLine
 62
7
  6
CONTINUOUS
 10
7.9791990047
 20
16.6437861826
 11
7.9701934545
 21
16.6437861826
  0
LINE
  5
401
100
AcDbEntity
  8
0
100
AcDbLine
 62
7
  6
CONTINUOUS
 10
8.1663586699
 20
16.6724743818
 11
8.1314388534
 21
16.6724743818
  0
LINE
  5
402
100
AcDbEntity
  8
0
100
AcDbLine
 62
7
  6
CONTINUOUS
 10
9.8912741003
 20
16.6889303208
 11
9.8712741003
 21
16.6889303208
  0
LINE
  5
403
100
AcDbEntity
  8
0
100
AcDbLine
 62
7
  6
CONTINUOUS
 10
8.1036000037
 20
16.70819032
 11
8.0898916851
 21
16.70819032
  0
LINE
  5
404
100
AcDbEntity
  8
0
100
AcDbLine
 62
7
  6
CONTINUOUS
 10
10.1654514946
 20
16.7979303208
 11
10.6207301285
 21
16.7979303208
  0
LINE
  5
405
100
AcDbEntity
  8
0
100
AcDbLine
 62
7
  6
CONTINUOUS
 10
8.1650705999
 20
16.8378287125
 11
8.1314388534
 21
16.8378287125
  0
LINE
  5
406
100
AcDbEntity
  8
0
100
AcDbLine
 62
7
  6
CONTINUOUS
 10
8.1253313304
 20
16.9193788982
 11
8.0898916851
 21
16.9193788982
  0
LWPOLYLINE
  5
407
100
AcDbEntity
  8
0
100
AcDbPolyline
 62
7
  6
CONTINUOUS
 90
5
 70
0
 10
7.9948272089
 20
16.3558103375
 10
7.9953297885
 20
16.3557994992
 10
8.0000549279
 20
16.3545319991
 10
8.0030971937
 20
16.3521655884
 10
8.004030912
 20
16.3508976821
  0
LWPOLYLINE
  5
408
100
AcDbEntity
  8
0
100
AcDbPolyline
 62
7
  6
CONTINUOUS
 90
5
 70
0
 10
7.9931335026
 20
16.5020559697
 10
7.9938143453
 20
16.5020352218
 10
7.9984975344
 20
16.5006529638
 10
8.0011630422
 20
16.4984550047
 10
8.001733168
 20
16.4976568025
  0
LWPOLYLINE
  5
409
100
AcDbEntity
  8
0
100
AcDbPolyline
 62
7
  6
CONTINUOUS
 90
4
 70
0
 10
7.9857192926
 20
17.1415644765
 10
7.9890877832
 20
17.141000549
 10
7.9926412132
 20
17.1388552462
 10
7.993625304
 20
17.1376857814
  0
LWPOLYLINE
  5
40A
100
AcDbEntity
  8
0
100
AcDbPolyline
 62
7
  6
CONTINUOUS
 90
4
 70
0
 10
7.9808251607
 20
17.56164584
 10
7.9853641202
 20
17.5606483555
 10
7.9886260093
 20
17.5582606185
 10
7.9895424897
 20
17.5570383581
  0
LWPOLYLINE
  5
40B
100
AcDbEntity
  8
0
100
AcDbPolyline
 62
7
  6
CONTINUOUS
 90
4
 70
0
 10
7.9831766017
 20
17.3592431331
 10
7.9881324966
 20
17.3580044422
 10
7.9908952297
 20
17.3557783637
 10
7.9914994074
 20
17.3549253389
  0
LINE
  5
40C
100
AcDbEntity
  8
0
100
AcDbLine
 62
7
  6
CONTINUOUS
 10
10.1207300241
 20
17.5679303547
 11
9.9876854048
 21
17.611159172
  0
LINE
  5
40D
100
AcDbEntity
  8
0
100
AcDbLine
 62
7
  6
CONTINUOUS
 10
7.9857222158
 20
17.1415621304
 11
7.9857063813
 21
17.1415620495
  0
LINE
  5
40E
100
AcDbEntity
  8
0
100
AcDbLine
 62
7
  6
CONTINUOUS
 10
8.1216249148
 20
17.0611111817
 11
8.0898916851
 21
17.0611111817
  0
LINE
  5
40F
100
AcDbEntity
  8
0
100
AcDbLine
 62
7
  6
CONTINUOUS
 10
8.1663586699
 20
17.0902531554
 11
8.1314388534
 21
17.0902531554
  0
LINE
  5
410
100
AcDbEntity
  8
0
100
AcDbLine
 62
7
  6
CONTINUOUS
 10
7.9857063813
 20
17.1415620495
 11
7.9701934545
 21
17.1415620495
  0
LINE
  5
411
100
AcDbEntity
  8
0
100
AcDbLine
 62
7
  6
CONTINUOUS
 10
8.1663586699
 20
17.2556074861
 11
8.1314388534
 21
17.2556074861
  0
LINE
  5
412
100
AcDbEntity
  8
0
100
AcDbLine
 62
7
  6
CONTINUOUS
 10
7.9866172113
 20
17.283294333
 11
7.9701934545
 21
17.283294333
  0
LINE
  5
413
100
AcDbEntity
  8
0
100
AcDbLine
 62
7
  6
CONTINUOUS
 10
8.1216249144
 20
17.2847494599
 11
8.0898916851
 21
17.2847494599
  0
LINE
  5
414
100
AcDbEntity
  8
0
100
AcDbLine
 62
7
  6
CONTINUOUS
 10
7.9831794588
 20
17.3592434282
 11
7.9701934545
 21
17.3592434282
  0
LINE
  5
415
100
AcDbEntity
  8
0
100
AcDbLine
 62
7
  6
CONTINUOUS
 10
8.1253313301
 20
17.4264817434
 11
8.0898916851
 21
17.4264817434
  0
LINE
  5
416
100
AcDbEntity
  8
0
100
AcDbLine
 62
7
  6
CONTINUOUS
 10
7.9891453366
 20
17.5009757117
 11
7.9701934545
 21
17.5009757117
  0
LINE
  5
417
100
AcDbEntity
  8
0
100
AcDbLine
 62
7
  6
CONTINUOUS
 10
8.1650705882
 20
17.508031929
 11
8.1314388534
 21
17.508031929
  0
LINE
  5
418
100
AcDbEntity
  8
0
100
AcDbLine
 62
7
  6
CONTINUOUS
 10
10.165451414
 20
17.5479303208
 11
10.6207301285
 21
17.5479303208
  0
LINE
  5
419
100
AcDbEntity
  8
0
100
AcDbLine
 62
7
  6
CONTINUOUS
 10
7.9808298329
 20
17.5616461613
 11
7.9701934545
 21
17.5616461613
  0
LINE
  5
41A
100
AcDbEntity
  8
0
100
AcDbLine
 62
7
  6
CONTINUOUS
 10
8.1036000037
 20
17.6376703216
 11
8.0898916851
 21
17.6376703216
  0
LINE
  5
41B
100
AcDbEntity
  8
0
100
AcDbLine
 62
7
  6
CONTINUOUS
 10
9.8912741003
 20
17.6569303208
 11
9.8712741003
 21
17.6569303208
  0
LINE
  5
41C
100
AcDbEntity
  8
0
100
AcDbLine
 62
7
  6
CONTINUOUS
 10
8.1663586699
 20
17.6733862597
 11
8.1314388534
 21
17.6733862597
  0
LINE
  5
41D
100
AcDbEntity
  8
0
100
AcDbLine
 62
7
  6
CONTINUOUS
 10
7.9914974681
 20
17.7033784447
 11
7.9701934545
 21
17.7033784447
  0
LINE
  5
41E
100
AcDbEntity
  8
0
100
AcDbLine
 62
7
  6
CONTINUOUS
 10
8.1289133346
 20
17.7794026051
 11
8.0898916851
 21
17.7794026051
  0
LINE
  5
41F
100
AcDbEntity
  8
0
100
AcDbLine
 62
7
  6
CONTINUOUS
 10
8.1604370842
 20
17.8973397696
 11
8.1314388534
 21
17.8973397696
  0
LINE
  5
420
100
AcDbEntity
  8
0
100
AcDbLine
 62
7
  6
CONTINUOUS
 10
8.1036000037
 20
17.9540905098
 11
8.0898916851
 21
17.9540905098
  0
LINE
  5
421
100
AcDbEntity
  8
0
100
AcDbLine
 62
7
  6
CONTINUOUS
 10
7.9760406201
 20
17.9746429359
 11
7.9701934545
 21
17.9746429359
  0
LINE
  5
422
100
AcDbEntity
  8
0
100
AcDbLine
 62
7
  6
CONTINUOUS
 10
8.1663586699
 20
18.0626941003
 11
8.1314388534
 21
18.0626941003
  0
LINE
  5
423
100
AcDbEntity
  8
0
100
AcDbLine
 62
7
  6
CONTINUOUS
 10
8.1321264007
 20
18.0958227933
 11
8.0898916851
 21
18.0958227933
  0
LINE
  5
424
100
AcDbEntity
  8
0
100
AcDbLine
 62
7
  6
CONTINUOUS
 10
7.996296526
 20
18.1163752194
 11
7.9701934545
 21
18.1163752194
  0
LINE
  5
425
100
AcDbEntity
  8
0
100
AcDbLine
 62
7
  6
CONTINUOUS
 10
7.996675298
 20
18.1489979773
 11
7.9701934545
 21
18.1489979773
  0
LINE
  5
426
100
AcDbEntity
  8
0
100
AcDbLine
 62
7
  6
CONTINUOUS
 10
8.1122229505
 20
18.2124465116
 11
8.0898916851
 21
18.2124465116
  0
LINE
  5
427
100
AcDbEntity
  8
0
100
AcDbLine
 62
7
  6
CONTINUOUS
 10
8.1564606747
 20
18.2316459912
 11
8.1314388534
 21
18.2316459912
  0
LINE
  5
428
100
AcDbEntity
  8
0
100
AcDbLine
 62
7
  6
CONTINUOUS
 10
8.0416456234
 20
18.3343476436
 11
8.034872133
 21
18.3343476436
  0
LINE
  5
429
100
AcDbEntity
  8
0
100
AcDbLine
 62
7
  6
CONTINUOUS
 10
8.1036000037
 20
18.3541787951
 11
8.0898916851
 21
18.3541787951
  0
LWPOLYLINE
  5
42A
100
AcDbEntity
  8
0
100
AcDbPolyline
 62
7
  6
CONTINUOUS
 90
7
 70
0
 10
7.9760405692
 20
17.9746424611
 10
7.9789404457
 20
17.974277901
 10
7.9829275502
 20
17.9724046213
 10
7.9856457361
 20
17.9696237191
 10
7.9869989904
 20
17.9669886529
 10
7.9874322222
 20
17.965339911
 10
7.9874726257
 20
17.9650648355
  0
LWPOLYLINE
  5
42B
100
AcDbEntity
  8
0
100
AcDbPolyline
 62
7
  6
CONTINUOUS
 90
3
 70
0
 10
8.0016209816
 20
18.1176546438
 10
7.9969748571
 20
18.1163937706
 10
7.9962972443
 20
18.1163745746
  0
LINE
  5
42C
100
AcDbEntity
  8
0
100
AcDbLine
 62
7
  6
CONTINUOUS
 10
7.9992998651
 20
18.1492937035
 11
7.9966762545
 21
18.1489984717
  0
LINE
  5
42D
100
AcDbEntity
  8
0
100
AcDbLine
 62
7
  6
CONTINUOUS
 10
8.1103729624
 20
18.3951317925
 11
8.0898916851
 21
18.3951317925
  0
LINE
  5
42E
100
AcDbEntity
  8
0
100
AcDbLine
 62
7
  6
CONTINUOUS
 10
8.1663586699
 20
18.3970003219
 11
8.1314388534
 21
18.3970003219
  0
LINE
  5
42F
100
AcDbEntity
  8
0
100
AcDbLine
 62
7
  6
CONTINUOUS
 10
8.153411013
 20
18.4881681773
 11
8.1314388534
 21
18.4881681773
  0
LINE
  5
430
100
AcDbEntity
  8
0
100
AcDbLine
 62
7
  6
CONTINUOUS
 10
8.1036000037
 20
18.5368640759
 11
8.0898916851
 21
18.5368640759
  0
LINE
  5
431
100
AcDbEntity
  8
0
100
AcDbLine
 62
7
  6
CONTINUOUS
 10
8.1047427544
 20
18.6314289358
 11
8.0898916851
 21
18.6314289358
  0
LINE
  5
432
100
AcDbEntity
  8
0
100
AcDbLine
 62
7
  6
CONTINUOUS
 10
8.1663586699
 20
18.653522508
 11
8.1314388534
 21
18.653522508
  0
LINE
  5
433
100
AcDbEntity
  8
0
100
AcDbLine
 62
7
  6
CONTINUOUS
 10
9.1011524275
 20
18.7929303208
 11
9.1351408601
 21
18.7929303208
  0
LINE
  5
434
100
AcDbEntity
  8
0
100
AcDbLine
 62
7
  6
CONTINUOUS
 10
8.1663586699
 20
18.8147790955
 11
8.1314388534
 21
18.8147790955
  0
LINE
  5
435
100
AcDbEntity
  8
0
100
AcDbLine
 62
7
  6
CONTINUOUS
 10
8.1314388534
 20
18.8697807145
 11
8.1663586699
 21
18.8697807145
  0
LINE
  5
436
100
AcDbEntity
  8
0
100
AcDbLine
 62
7
  6
CONTINUOUS
 10
8.7295197033
 20
19.0779303208
 11
8.9125685308
 21
19.0779303208
  0
LINE
  5
437
100
AcDbEntity
  8
0
100
AcDbLine
 62
7
  6
CONTINUOUS
 10
13.3900701285
 20
26.0804303208
 11
13.4300701285
 21
26.0804303208
  0
LINE
  5
438
100
AcDbEntity
  8
0
100
AcDbLine
 62
7
  6
CONTINUOUS
 10
13.2300701285
 20
26.1929303208
 11
13.2775701285
 21
26.1929303208
  0
LINE
  5
439
100
AcDbEntity
  8
0
100
AcDbLine
 62
7
  6
CONTINUOUS
 10
10.6987372372
 20
26.5509303208
 11
11.7927230198
 21
26.5509303208
  0
LINE
  5
43A
100
AcDbEntity
  8
0
100
AcDbLine
 62
7
  6
CONTINUOUS
 10
12.8900701285
 20
26.5929303208
 11
12.9412609266
 21
26.5929303208
  0
LINE
  5
43B
100
AcDbEntity
  8
0
100
AcDbLine
 62
7
  6
CONTINUOUS
 10
13.0882381697
 20
26.5929303208
 11
13.1394289678
 21
26.5929303208
  0
LINE
  5
43C
100
AcDbEntity
  8
0
100
AcDbLine
 62
7
  6
CONTINUOUS
 10
11.7927301285
 20
26.5983347505
 11
10.6987301285
 21
26.5983347505
  0
LINE
  5
43D
100
AcDbEntity
  8
0
100
AcDbLine
 62
7
  6
CONTINUOUS
 10
12.2701267226
 20
26.6629303208
 11
12.8900701285
 21
26.6629303208
  0
LINE
  5
43E
100
AcDbEntity
  8
0
100
AcDbLine
 62
7
  6
CONTINUOUS
 10
10.6987301285
 20
26.7103347505
 11
11.7927301285
 21
26.7103347505
  0
LINE
  5
43F
100
AcDbEntity
  8
0
100
AcDbLine
 62
7
  6
CONTINUOUS
 10
11.7927301285
 20
26.7577391801
 11
10.6987301285
 21
26.7577391801
  0
LINE
  5
440
100
AcDbEntity
  8
0
100
AcDbLine
 62
7
  6
CONTINUOUS
 10
12.2701267226
 20
27.8729303208
 11
12.8900701285
 21
27.8729303208
  0
LINE
  5
441
100
AcDbEntity
  8
0
100
AcDbLine
 62
7
  6
CONTINUOUS
 10
12.8900701285
 20
27.9429303208
 11
12.9412609266
 21
27.9429303208
  0
LINE
  5
442
100
AcDbEntity
  8
0
100
AcDbLine
 62
7
  6
CONTINUOUS
 10
13.0882381697
 20
27.9429303208
 11
13.1394289678
 21
27.9429303208
  0
LINE
  5
443
100
AcDbEntity
  8
0
100
AcDbLine
 62
7
  6
CONTINUOUS
 10
11.1832301285
 20
28.0133146176
 11
11.3082301285
 21
28.0133146176
  0
LINE
  5
444
100
AcDbEntity
  8
0
100
AcDbLine
 62
7
  6
CONTINUOUS
 10
13.2300701285
 20
28.3429303208
 11
13.2775701285
 21
28.3429303208
  0
LINE
  5
445
100
AcDbEntity
  8
0
100
AcDbLine
 62
7
  6
CONTINUOUS
 10
13.3900701285
 20
28.4554303208
 11
13.4300701285
 21
28.4554303208
  0
ARC
  5
446
100
AcDbEntity
  8
0
100
AcDbCircle
 62
7
  6
CONTINUOUS
 10
-8.3092704937
 20
12.1829303208
 40
20.175
100
AcDbArc
 50
357.2909172192
 51
5.0755073159
  0
ARC
  5
447
100
AcDbEntity
  8
0
100
AcDbCircle
 62
7
  6
CONTINUOUS
 10
1.8338268937
 20
4.2050614852
 40
9.6919032349
100
AcDbArc
 50
359.280972006
 51
0.0001639889
  0
ARC
  5
448
100
AcDbEntity
  8
0
100
AcDbCircle
 62
7
  6
CONTINUOUS
 10
1.8338212812
 20
4.2050615148
 40
9.1319088473
100
AcDbArc
 50
359.2810271991
 51
0.0001738594
  0
ARC
  5
449
100
AcDbEntity
  8
0
100
AcDbCircle
 62
7
  6
CONTINUOUS
 10
10.7407301285
 20
-7.6184741089
 40
0.07
100
AcDbArc
 50
126.8698976458
 51
233.1301023542
  0
ARC
  5
44A
100
AcDbEntity
  8
0
100
AcDbCircle
 62
9
  6
CONTINUOUS
 10
6.4278959793
 20
16.1422081734
 40
1.5843451009
100
AcDbArc
 50
7.5483904244
 51
7.7309227284
  0
ARC
  5
44B
100
AcDbEntity
  8
0
100
AcDbCircle
 62
7
  6
CONTINUOUS
 10
7.8969754369
 20
15.600700375
 40
0.2729490028
100
AcDbArc
 50
17.1008470377
 51
17.5006532928
  0
ARC
  5
44C
100
AcDbEntity
  8
0
100
AcDbCircle
 62
7
  6
CONTINUOUS
 10
8.6053476449
 20
14.9747145672
 40
0.25
100
AcDbArc
 50
128.3789847991
 51
157.1367765694
  0
ARC
  5
44D
100
AcDbEntity
  8
0
100
AcDbCircle
 62
7
  6
CONTINUOUS
 10
8.0059839913
 20
15.7855293547
 40
0.166097277
100
AcDbArc
 50
20.0354900914
 51
20.205616036
  0
ARC
  5
44E
100
AcDbEntity
  8
0
100
AcDbCircle
 62
7
  6
CONTINUOUS
 10
8.3012741003
 20
15.1029303208
 40
0.08
100
AcDbArc
 50
272.2714508417
 51
337.1367765692
  0
ARC
  5
44F
100
AcDbEntity
  8
0
100
AcDbCircle
 62
7
  6
CONTINUOUS
 10
8.1232850431
 20
15.5039187767
 40
0.0196850394
100
AcDbArc
 50
179.998993262
 51
224.9988567098
  0
ARC
  5
450
100
AcDbEntity
  8
0
100
AcDbCircle
 62
7
  6
CONTINUOUS
 10
8.1314388534
 20
15.4957649664
 40
0.0196850394
100
AcDbArc
 50
224.9975411857
 51
270.0
  0
ARC
  5
451
100
AcDbEntity
  8
0
100
AcDbCircle
 62
7
  6
CONTINUOUS
 10
8.1314388534
 20
15.5507665854
 40
0.0196850394
100
AcDbArc
 50
225.0000000002
 51
270.0
  0
ARC
  5
452
100
AcDbEntity
  8
0
100
AcDbCircle
 62
7
  6
CONTINUOUS
 10
8.1314388534
 20
15.6767508374
 40
0.0196850394
100
AcDbArc
 50
115.4026752971
 51
134.9999999998
  0
ARC
  5
453
100
AcDbEntity
  8
0
100
AcDbCircle
 62
7
  6
CONTINUOUS
 10
8.1232850431
 20
15.6685970271
 40
0.0196850394
100
AcDbArc
 50
135.0011432896
 51
180.0
  0
ARC
  5
454
100
AcDbEntity
  8
0
100
AcDbCircle
 62
7
  6
CONTINUOUS
 10
8.1232850431
 20
15.5589203957
 40
0.0196850394
100
AcDbArc
 50
180.0
 51
224.9988567095
  0
ARC
  5
455
100
AcDbEntity
  8
0
100
AcDbCircle
 62
7
  6
CONTINUOUS
 10
8.1314388534
 20
15.7120231729
 40
0.0196850394
100
AcDbArc
 50
225.0000000002
 51
270.0
  0
ARC
  5
456
100
AcDbEntity
  8
0
100
AcDbCircle
 62
7
  6
CONTINUOUS
 10
8.1232850431
 20
15.8298536146
 40
0.0196850394
100
AcDbArc
 50
135.0011432897
 51
180.0
  0
ARC
  5
457
100
AcDbEntity
  8
0
100
AcDbCircle
 62
7
  6
CONTINUOUS
 10
8.1232850431
 20
15.7201769832
 40
0.0196850394
100
AcDbArc
 50
180.0
 51
224.9988567103
  0
ARC
  5
458
100
AcDbEntity
  8
0
100
AcDbCircle
 62
7
  6
CONTINUOUS
 10
8.0817378748
 20
15.8283251396
 40
0.0196850394
100
AcDbArc
 50
167.2907770745
 51
180.0
  0
ARC
  5
459
100
AcDbEntity
  8
0
100
AcDbCircle
 62
7
  6
CONTINUOUS
 10
8.0898916851
 20
15.7341167451
 40
0.0196850394
100
AcDbArc
 50
225.0000000001
 51
270.0
  0
ARC
  5
45A
100
AcDbEntity
  8
0
100
AcDbCircle
 62
7
  6
CONTINUOUS
 10
8.0817378748
 20
15.7422705554
 40
0.0196850394
100
AcDbArc
 50
180.0
 51
224.998672795
  0
ARC
  5
45B
100
AcDbEntity
  8
0
100
AcDbCircle
 62
7
  6
CONTINUOUS
 10
8.0898916851
 20
15.828681605
 40
0.0196850394
100
AcDbArc
 50
225.0000000004
 51
270.0
  0
ARC
  5
45C
100
AcDbEntity
  8
0
100
AcDbCircle
 62
7
  6
CONTINUOUS
 10
7.9056689846
 20
16.0520066687
 40
0.2243095538
100
AcDbArc
 50
15.5086731637
 51
15.9119768458
  0
ARC
  5
45D
100
AcDbEntity
  8
0
100
AcDbCircle
 62
7
  6
CONTINUOUS
 10
7.9747836196
 20
16.2331152865
 40
0.1285161186
100
AcDbArc
 50
173.0424336459
 51
179.9830432091
  0
ARC
  5
45E
100
AcDbEntity
  8
0
100
AcDbCircle
 62
7
  6
CONTINUOUS
 10
7.8251992015
 20
16.6101436776
 40
0.3124921671
100
AcDbArc
 50
0.0112215036
 51
0.8821195161
  0
ARC
  5
45F
100
AcDbEntity
  8
0
100
AcDbCircle
 62
7
  6
CONTINUOUS
 10
7.8652245871
 20
16.6237260441
 40
0.2713662439
100
AcDbArc
 50
9.4755185355
 51
10.4351524352
  0
ARC
  5
460
100
AcDbEntity
  8
0
100
AcDbCircle
 62
7
  6
CONTINUOUS
 10
7.8907238747
 20
16.2776156808
 40
0.246967532
100
AcDbArc
 50
0.0342742198
 51
1.2588008813
  0
ARC
  5
461
100
AcDbEntity
  8
0
100
AcDbCircle
 62
7
  6
CONTINUOUS
 10
7.8601386463
 20
16.602398241
 40
0.0196850394
100
AcDbArc
 50
180.0
 51
224.9974348679
  0
ARC
  5
462
100
AcDbEntity
  8
0
100
AcDbCircle
 62
7
  6
CONTINUOUS
 10
7.8404536069
 20
16.5664055811
 40
0.0196850394
100
AcDbArc
 50
0.0039181288
 51
45.0000000001
  0
ARC
  5
463
100
AcDbEntity
  8
0
100
AcDbCircle
 62
7
  6
CONTINUOUS
 10
7.8798236857
 20
16.5294506928
 40
0.0196850394
100
AcDbArc
 50
180.0
 51
249.9999051803
  0
ARC
  5
464
100
AcDbEntity
  8
0
100
AcDbCircle
 62
7
  6
CONTINUOUS
 10
7.9574271526
 20
16.380385507
 40
0.0118110236
100
AcDbArc
 50
180.0
 51
224.9997468348
  0
ARC
  5
465
100
AcDbEntity
  8
0
100
AcDbCircle
 62
7
  6
CONTINUOUS
 10
7.9701934545
 20
16.3676192051
 40
0.0118110236
100
AcDbArc
 50
225.0
 51
270.0
  0
ARC
  5
466
100
AcDbEntity
  8
0
100
AcDbCircle
 62
7
  6
CONTINUOUS
 10
7.9701934545
 20
16.4857294413
 40
0.0118110236
100
AcDbArc
 50
90.0
 51
135.0
  0
ARC
  5
467
100
AcDbEntity
  8
0
100
AcDbCircle
 62
7
  6
CONTINUOUS
 10
7.9574271526
 20
16.4729631394
 40
0.0118110236
100
AcDbArc
 50
135.0002531649
 51
180.0
  0
ARC
  5
468
100
AcDbEntity
  8
0
100
AcDbCircle
 62
7
  6
CONTINUOUS
 10
7.9574271526
 20
16.5266312247
 40
0.0118110236
100
AcDbArc
 50
180.0
 51
224.999749965
  0
ARC
  5
469
100
AcDbEntity
  8
0
100
AcDbCircle
 62
7
  6
CONTINUOUS
 10
7.9701934545
 20
16.5138649228
 40
0.0118110236
100
AcDbArc
 50
225.0000000002
 51
270.0
  0
ARC
  5
46A
100
AcDbEntity
  8
0
100
AcDbCircle
 62
7
  6
CONTINUOUS
 10
7.9701934545
 20
16.631975159
 40
0.0118110236
100
AcDbArc
 50
90.0
 51
134.9999999998
  0
ARC
  5
46B
100
AcDbEntity
  8
0
100
AcDbCircle
 62
7
  6
CONTINUOUS
 10
7.9574271526
 20
16.6192088571
 40
0.0118110236
100
AcDbArc
 50
135.0002500351
 51
180.0
  0
ARC
  5
46C
100
AcDbEntity
  8
0
100
AcDbCircle
 62
7
  6
CONTINUOUS
 10
7.9574271526
 20
16.2784737742
 40
0.0118110236
100
AcDbArc
 50
180.0
 51
224.9997468355
  0
ARC
  5
46D
100
AcDbEntity
  8
0
100
AcDbCircle
 62
7
  6
CONTINUOUS
 10
7.9701934545
 20
16.2657074722
 40
0.0118110236
100
AcDbArc
 50
225.0
 51
270.0
  0
ARC
  5
46E
100
AcDbEntity
  8
0
100
AcDbCircle
 62
7
  6
CONTINUOUS
 10
7.9574271526
 20
16.3710514066
 40
0.0118110236
100
AcDbArc
 50
157.5002563998
 51
180.0
  0
ARC
  5
46F
100
AcDbEntity
  8
0
100
AcDbCircle
 62
7
  6
CONTINUOUS
 10
8.0898916851
 20
16.0113668858
 40
0.0196850394
100
AcDbArc
 50
225.0000000001
 51
270.0
  0
ARC
  5
470
100
AcDbEntity
  8
0
100
AcDbCircle
 62
7
  6
CONTINUOUS
 10
8.0817378748
 20
16.0195206961
 40
0.0196850394
100
AcDbArc
 50
180.0
 51
224.9986727883
  0
ARC
  5
471
100
AcDbEntity
  8
0
100
AcDbCircle
 62
7
  6
CONTINUOUS
 10
8.0817378748
 20
15.9228899994
 40
0.0196850394
100
AcDbArc
 50
135.0013272065
 51
180.0
  0
ARC
  5
472
100
AcDbEntity
  8
0
100
AcDbCircle
 62
7
  6
CONTINUOUS
 10
8.0817378748
 20
15.8368354153
 40
0.0196850394
100
AcDbArc
 50
180.0
 51
224.9986727935
  0
ARC
  5
473
100
AcDbEntity
  8
0
100
AcDbCircle
 62
7
  6
CONTINUOUS
 10
8.0898916851
 20
15.9310438097
 40
0.0196850394
100
AcDbArc
 50
90.0
 51
134.9999999996
  0
ARC
  5
474
100
AcDbEntity
  8
0
100
AcDbCircle
 62
7
  6
CONTINUOUS
 10
8.0647386592
 20
15.9121522301
 40
0.0078740157
100
AcDbArc
 50
190.1468867902
 51
249.6248379632
  0
ARC
  5
475
100
AcDbEntity
  8
0
100
AcDbCircle
 62
7
  6
CONTINUOUS
 10
8.0266849323
 20
16.2332410431
 40
0.1804161275
100
AcDbArc
 50
180.0454016304
 51
194.4391442525
  0
ARC
  5
476
100
AcDbEntity
  8
0
100
AcDbCircle
 62
7
  6
CONTINUOUS
 10
8.0817378748
 20
16.1055752803
 40
0.0196850394
100
AcDbArc
 50
135.0013272118
 51
180.0
  0
ARC
  5
477
100
AcDbEntity
  8
0
100
AcDbCircle
 62
7
  6
CONTINUOUS
 10
8.0898916851
 20
16.1137290906
 40
0.0196850394
100
AcDbArc
 50
90.0
 51
134.9999999999
  0
ARC
  5
478
100
AcDbEntity
  8
0
100
AcDbCircle
 62
7
  6
CONTINUOUS
 10
8.1314388534
 20
15.8380074249
 40
0.0196850394
100
AcDbArc
 50
90.0
 51
134.9999999997
  0
ARC
  5
479
100
AcDbEntity
  8
0
100
AcDbCircle
 62
7
  6
CONTINUOUS
 10
8.1314388534
 20
15.968545359
 40
0.0196850394
100
AcDbArc
 50
225.0000000002
 51
270.0
  0
ARC
  5
47A
100
AcDbEntity
  8
0
100
AcDbCircle
 62
7
  6
CONTINUOUS
 10
8.1232850431
 20
15.9766991693
 40
0.0196850394
100
AcDbArc
 50
180.0
 51
224.9988567095
  0
ARC
  5
47B
100
AcDbEntity
  8
0
100
AcDbCircle
 62
9
  6
CONTINUOUS
 10
8.1599165473
 20
16.0894680005
 40
0.3783732273
100
AcDbArc
 50
124.3398522784
 51
124.8035706247
  0
ARC
  5
47C
100
AcDbEntity
  8
0
100
AcDbCircle
 62
9
  6
CONTINUOUS
 10
8.1577236777
 20
16.0926255484
 40
0.374528909
100
AcDbArc
 50
124.8038187407
 51
124.9688983929
  0
ARC
  5
47D
100
AcDbEntity
  8
0
100
AcDbCircle
 62
7
  6
CONTINUOUS
 10
8.1527206479
 20
16.0767381148
 40
0.3705535291
100
AcDbArc
 50
124.0497122392
 51
124.2862121683
  0
ARC
  5
47E
100
AcDbEntity
  8
0
100
AcDbCircle
 62
7
  6
CONTINUOUS
 10
8.151146803
 20
16.0790474399
 40
0.3677588968
100
AcDbArc
 50
124.2862965703
 51
124.4560829863
  0
ARC
  5
47F
100
AcDbEntity
  8
0
100
AcDbCircle
 62
9
  6
CONTINUOUS
 10
8.1530901853
 20
16.0992125731
 40
0.3664754834
100
AcDbArc
 50
124.9654988438
 51
125.8374020376
  0
ARC
  5
480
100
AcDbEntity
  8
0
100
AcDbCircle
 62
7
  6
CONTINUOUS
 10
8.1493459134
 20
16.0816699866
 40
0.3645775522
100
AcDbArc
 50
124.4558987995
 51
124.7531144932
  0
ARC
  5
481
100
AcDbEntity
  8
0
100
AcDbCircle
 62
7
  6
CONTINUOUS
 10
8.1648499987
 20
16.1394883243
 40
0.3599767454
100
AcDbArc
 50
127.6336997222
 51
127.8625776332
  0
ARC
  5
482
100
AcDbEntity
  8
0
100
AcDbCircle
 62
7
  6
CONTINUOUS
 10
8.1464732286
 20
16.0858084874
 40
0.3595397445
100
AcDbArc
 50
124.7529349419
 51
125.2946706608
  0
ARC
  5
483
100
AcDbEntity
  8
0
100
AcDbCircle
 62
9
  6
CONTINUOUS
 10
8.1473506494
 20
16.1071523659
 40
0.3566784144
100
AcDbArc
 50
125.8367126284
 51
126.4743683483
  0
ARC
  5
484
100
AcDbEntity
  8
0
100
AcDbCircle
 62
7
  6
CONTINUOUS
 10
8.1626036261
 20
16.1423735643
 40
0.3563201358
100
AcDbArc
 50
127.8621587672
 51
128.3397705631
  0
ARC
  5
485
100
AcDbEntity
  8
0
100
AcDbCircle
 62
7
  6
CONTINUOUS
 10
8.1587169505
 20
16.1472782982
 40
0.350062131
100
AcDbArc
 50
128.3387924394
 51
128.997450824
  0
ARC
  5
486
100
AcDbEntity
  8
0
100
AcDbCircle
 62
7
  6
CONTINUOUS
 10
8.1561193221
 20
16.1504893096
 40
0.3459319658
100
AcDbArc
 50
128.9977547173
 51
129.2959481298
  0
ARC
  5
487
100
AcDbEntity
  8
0
100
AcDbCircle
 62
9
  6
CONTINUOUS
 10
8.1017158359
 20
16.1303468905
 40
0.202300493
100
AcDbArc
 50
137.7740233072
 51
138.1561715429
  0
ARC
  5
488
100
AcDbEntity
  8
0
100
AcDbCircle
 62
7
  6
CONTINUOUS
 10
8.1314388534
 20
16.094529611
 40
0.0196850394
100
AcDbArc
 50
90.0
 51
134.9999999998
  0
ARC
  5
489
100
AcDbEntity
  8
0
100
AcDbCircle
 62
7
  6
CONTINUOUS
 10
8.1232850431
 20
16.0863758007
 40
0.0196850394
100
AcDbArc
 50
135.0011432895
 51
180.0
  0
ARC
  5
48A
100
AcDbEntity
  8
0
100
AcDbCircle
 62
9
  6
CONTINUOUS
 10
8.0704570479
 20
16.3702803641
 40
0.0694123501
100
AcDbArc
 50
195.4283952461
 51
196.0285165155
  0
ARC
  5
48B
100
AcDbEntity
  8
0
100
AcDbCircle
 62
9
  6
CONTINUOUS
 10
8.0612922373
 20
16.516471085
 40
0.0628795015
100
AcDbArc
 50
196.6795310398
 51
197.1213002056
  0
ARC
  5
48C
100
AcDbEntity
  8
0
100
AcDbCircle
 62
9
  6
CONTINUOUS
 10
8.0552008751
 20
16.514596375
 40
0.0565061799
100
AcDbArc
 50
197.1229639366
 51
197.7781172612
  0
ARC
  5
48D
100
AcDbEntity
  8
0
100
AcDbCircle
 62
7
  6
CONTINUOUS
 10
8.1314388534
 20
16.3028515806
 40
0.0196850394
100
AcDbArc
 50
225.0000000003
 51
270.0
  0
ARC
  5
48E
100
AcDbEntity
  8
0
100
AcDbCircle
 62
7
  6
CONTINUOUS
 10
8.1314388534
 20
16.4288358326
 40
0.0196850394
100
AcDbArc
 50
90.0
 51
134.9999999997
  0
ARC
  5
48F
100
AcDbEntity
  8
0
100
AcDbCircle
 62
7
  6
CONTINUOUS
 10
8.1232850431
 20
16.4206820223
 40
0.0196850394
100
AcDbArc
 50
135.00114329
 51
180.0
  0
ARC
  5
490
100
AcDbEntity
  8
0
100
AcDbCircle
 62
7
  6
CONTINUOUS
 10
8.1232850431
 20
16.3110053909
 40
0.0196850394
100
AcDbArc
 50
180.0
 51
224.99885671
  0
ARC
  5
491
100
AcDbEntity
  8
0
100
AcDbCircle
 62
7
  6
CONTINUOUS
 10
8.0817378748
 20
16.6803514703
 40
0.0196850394
100
AcDbArc
 50
135.0013272053
 51
180.0
  0
ARC
  5
492
100
AcDbEntity
  8
0
100
AcDbCircle
 62
7
  6
CONTINUOUS
 10
8.0898916851
 20
16.6885052806
 40
0.0196850394
100
AcDbArc
 50
90.0
 51
134.9999999998
  0
ARC
  5
493
100
AcDbEntity
  8
0
100
AcDbCircle
 62
7
  6
CONTINUOUS
 10
8.0898916851
 20
16.5861430759
 40
0.0196850394
100
AcDbArc
 50
225.0000000002
 51
270.0
  0
ARC
  5
494
100
AcDbEntity
  8
0
100
AcDbCircle
 62
7
  6
CONTINUOUS
 10
8.0817378748
 20
16.5942968862
 40
0.0196850394
100
AcDbArc
 50
180.0
 51
224.9986727946
  0
ARC
  5
495
100
AcDbEntity
  8
0
100
AcDbCircle
 62
7
  6
CONTINUOUS
 10
8.1314388534
 20
16.6921594212
 40
0.0196850394
100
AcDbArc
 50
224.9999999999
 51
270.0
  0
ARC
  5
496
100
AcDbEntity
  8
0
100
AcDbCircle
 62
7
  6
CONTINUOUS
 10
8.0817378748
 20
16.3639312821
 40
0.0196850394
100
AcDbArc
 50
135.0013272058
 51
180.0
  0
ARC
  5
497
100
AcDbEntity
  8
0
100
AcDbCircle
 62
7
  6
CONTINUOUS
 10
8.0817378748
 20
16.2778766979
 40
0.0196850394
100
AcDbArc
 50
180.0
 51
224.9986727949
  0
ARC
  5
498
100
AcDbEntity
  8
0
100
AcDbCircle
 62
7
  6
CONTINUOUS
 10
8.0898916851
 20
16.2697228877
 40
0.0196850394
100
AcDbArc
 50
225.0000000001
 51
270.0
  0
ARC
  5
499
100
AcDbEntity
  8
0
100
AcDbCircle
 62
7
  6
CONTINUOUS
 10
8.0898916851
 20
16.3720850924
 40
0.0196850394
100
AcDbArc
 50
90.0
 51
134.9999999999
  0
ARC
  5
49A
100
AcDbEntity
  8
0
100
AcDbCircle
 62
7
  6
CONTINUOUS
 10
10.5567301285
 20
8.462024809
 40
0.1
100
AcDbArc
 50
10.9557085281
 51
81.3439972277
  0
ARC
  5
49B
100
AcDbEntity
  8
0
100
AcDbCircle
 62
7
  6
CONTINUOUS
 10
10.5850536304
 20
8.6899303208
 40
0.0708235019
100
AcDbArc
 50
113.5729717355
 51
246.4270282645
  0
ARC
  5
49C
100
AcDbEntity
  8
0
100
AcDbCircle
 62
7
  6
CONTINUOUS
 10
10.6965489198
 20
9.1179303208
 40
0.05
100
AcDbArc
 50
219.3312480846
 51
270.0
  0
ARC
  5
49D
100
AcDbEntity
  8
0
100
AcDbCircle
 62
7
  6
CONTINUOUS
 10
10.5744466635
 20
8.8002137858
 40
0.017716535
100
AcDbArc
 50
89.999974056
 51
180.0
  0
ARC
  5
49E
100
AcDbEntity
  8
0
100
AcDbCircle
 62
7
  6
CONTINUOUS
 10
10.5744466635
 20
8.5784005238
 40
0.017716535
100
AcDbArc
 50
180.0
 51
261.3440147985
  0
ARC
  5
49F
100
AcDbEntity
  8
0
100
AcDbCircle
 62
7
  6
CONTINUOUS
 10
10.6647253116
 20
8.4829303208
 40
0.01
100
AcDbArc
 50
190.9557073551
 51
269.9999937158
  0
ARC
  5
4A0
100
AcDbEntity
  8
0
100
AcDbCircle
 62
7
  6
CONTINUOUS
 10
10.5567301285
 20
10.6738358326
 40
0.1
100
AcDbArc
 50
278.6560027723
 51
349.0442914719
  0
ARC
  5
4A1
100
AcDbEntity
  8
0
100
AcDbCircle
 62
7
  6
CONTINUOUS
 10
10.5850536304
 20
10.4459303208
 40
0.0708235019
100
AcDbArc
 50
113.5729717356
 51
246.4270282645
  0
ARC
  5
4A2
100
AcDbEntity
  8
0
100
AcDbCircle
 62
7
  6
CONTINUOUS
 10
10.6450726965
 20
10.3927701598
 40
0.06
100
AcDbArc
 50
273.2432014018
 51
5.0755073158
  0
ARC
  5
4A3
100
AcDbEntity
  8
0
100
AcDbCircle
 62
7
  6
CONTINUOUS
 10
10.6965489198
 20
10.0179303208
 40
0.05
100
AcDbArc
 50
90.0
 51
140.6687519154
  0
ARC
  5
4A4
100
AcDbEntity
  8
0
100
AcDbCircle
 62
7
  6
CONTINUOUS
 10
10.6507301285
 20
10.2229303208
 40
0.04
100
AcDbArc
 50
180.0
 51
270.0
  0
ARC
  5
4A5
100
AcDbEntity
  8
0
100
AcDbCircle
 62
7
  6
CONTINUOUS
 10
10.6507301285
 20
10.2929303208
 40
0.04
100
AcDbArc
 50
93.2432014018
 51
180.0
  0
ARC
  5
4A6
100
AcDbEntity
  8
0
100
AcDbCircle
 62
7
  6
CONTINUOUS
 10
10.5744466635
 20
10.3356468558
 40
0.017716535
100
AcDbArc
 50
180.0
 51
270.000025944
  0
ARC
  5
4A7
100
AcDbEntity
  8
0
100
AcDbCircle
 62
7
  6
CONTINUOUS
 10
10.5744466635
 20
10.5574601178
 40
0.017716535
100
AcDbArc
 50
98.6559852015
 51
180.0
  0
ARC
  5
4A8
100
AcDbEntity
  8
0
100
AcDbCircle
 62
7
  6
CONTINUOUS
 10
10.6647253116
 20
10.6529303208
 40
0.01
100
AcDbArc
 50
90.0000062842
 51
169.0442926449
  0
ARC
  5
4A9
100
AcDbEntity
  8
0
100
AcDbCircle
 62
7
  6
CONTINUOUS
 10
10.8907301285
 20
9.0979303208
 40
0.03
100
AcDbArc
 50
270.0
 51
0.000000114
  0
ARC
  5
4AA
100
AcDbEntity
  8
0
100
AcDbCircle
 62
7
  6
CONTINUOUS
 10
10.8907301285
 20
10.0379303208
 40
0.03
100
AcDbArc
 50
0.0000002292
 51
90.0
  0
ARC
  5
4AB
100
AcDbEntity
  8
0
100
AcDbCircle
 62
7
  6
CONTINUOUS
 10
11.0099351139
 20
15.1587485903
 40
1.9
100
AcDbArc
 50
129.1146502196
 51
167.5422489206
  0
ARC
  5
4AC
100
AcDbEntity
  8
0
100
AcDbCircle
 62
7
  6
CONTINUOUS
 10
10.6207301285
 20
16.5479303208
 40
1.0
100
AcDbArc
 50
0.0
 51
90.0
  0
ARC
  5
4AD
100
AcDbEntity
  8
0
100
AcDbCircle
 62
7
  6
CONTINUOUS
 10
8.7295197033
 20
14.8179303208
 40
0.45
100
AcDbArc
 50
90.0
 51
128.3789847992
  0
ARC
  5
4AE
100
AcDbEntity
  8
0
100
AcDbCircle
 62
7
  6
CONTINUOUS
 10
10.6207301285
 20
16.5479303208
 40
0.25
100
AcDbArc
 50
0.0
 51
90.0
  0
ARC
  5
4AF
100
AcDbEntity
  8
0
100
AcDbCircle
 62
7
  6
CONTINUOUS
 10
8.9125685308
 20
15.3429303208
 40
0.075
100
AcDbArc
 50
270.0
 51
335.9999999998
  0
ARC
  5
4B0
100
AcDbEntity
  8
0
100
AcDbCircle
 62
7
  6
CONTINUOUS
 10
10.6450726965
 20
13.9730904817
 40
0.06
100
AcDbArc
 50
354.9244926841
 51
86.7567985982
  0
ARC
  5
4B1
100
AcDbEntity
  8
0
100
AcDbCircle
 62
7
  6
CONTINUOUS
 10
10.8107301285
 20
14.4226655216
 40
0.06
100
AcDbArc
 50
318.5281704494
 51
360.0
  0
ARC
  5
4B2
100
AcDbEntity
  8
0
100
AcDbCircle
 62
7
  6
CONTINUOUS
 10
10.6651115965
 20
14.2429303208
 40
0.06
100
AcDbArc
 50
270.0
 51
321.0
  0
ARC
  5
4B3
100
AcDbEntity
  8
0
100
AcDbCircle
 62
7
  6
CONTINUOUS
 10
10.0062264245
 20
16.6776380786
 40
0.06
100
AcDbArc
 50
108.0000000005
 51
135.9268242885
  0
ARC
  5
4B4
100
AcDbEntity
  8
0
100
AcDbCircle
 62
7
  6
CONTINUOUS
 10
10.6507301285
 20
14.0729303208
 40
0.04
100
AcDbArc
 50
180.0
 51
266.7567985982
  0
ARC
  5
4B5
100
AcDbEntity
  8
0
100
AcDbCircle
 62
7
  6
CONTINUOUS
 10
10.6507301285
 20
14.1429303208
 40
0.04
100
AcDbArc
 50
90.0
 51
180.0
  0
ARC
  5
4B6
100
AcDbEntity
  8
0
100
AcDbCircle
 62
7
  6
CONTINUOUS
 10
9.1351408601
 20
15.5729303208
 40
0.02
100
AcDbArc
 50
270.0
 51
347.542248921
  0
ARC
  5
4B7
100
AcDbEntity
  8
0
100
AcDbCircle
 62
7
  6
CONTINUOUS
 10
9.1011524275
 20
15.5329303208
 40
0.02
100
AcDbArc
 50
90.0
 51
155.9999999988
  0
ARC
  5
4B8
100
AcDbEntity
  8
0
100
AcDbCircle
 62
9
  6
CONTINUOUS
 10
-0.8211440198
 20
19.2269019313
 40
8.8939142079
100
AcDbArc
 50
352.8728504377
 51
353.0307169926
  0
ARC
  5
4B9
100
AcDbEntity
  8
0
100
AcDbCircle
 62
7
  6
CONTINUOUS
 10
7.7959369481
 20
16.9809930214
 40
0.3417544144
100
AcDbArc
 50
0.0003572507
 51
0.3847572261
  0
ARC
  5
4BA
100
AcDbEntity
  8
0
100
AcDbCircle
 62
7
  6
CONTINUOUS
 10
7.7964119375
 20
17.3648678229
 40
0.341279425
100
AcDbArc
 50
359.7139472696
 51
359.9996082109
  0
ARC
  5
4BB
100
AcDbEntity
  8
0
100
AcDbCircle
 62
7
  6
CONTINUOUS
 10
7.8601386463
 20
16.7809336219
 40
0.0196850394
100
AcDbArc
 50
180.0
 51
224.9974348101
  0
ARC
  5
4BC
100
AcDbEntity
  8
0
100
AcDbCircle
 62
7
  6
CONTINUOUS
 10
7.8601386463
 20
16.9969094659
 40
0.0196850394
100
AcDbArc
 50
135.0025651903
 51
180.0
  0
ARC
  5
4BD
100
AcDbEntity
  8
0
100
AcDbCircle
 62
7
  6
CONTINUOUS
 10
7.8404536069
 20
16.7449409619
 40
0.0196850394
100
AcDbArc
 50
0.0039289499
 51
45.000000001
  0
ARC
  5
4BE
100
AcDbEntity
  8
0
100
AcDbCircle
 62
7
  6
CONTINUOUS
 10
7.8404536069
 20
17.0329021258
 40
0.0196850394
100
AcDbArc
 50
314.999999999
 51
359.9960710504
  0
ARC
  5
4BF
100
AcDbEntity
  8
0
100
AcDbCircle
 62
7
  6
CONTINUOUS
 10
7.8601386463
 20
17.1258374924
 40
0.0196850394
100
AcDbArc
 50
180.0
 51
224.9974348681
  0
ARC
  5
4C0
100
AcDbEntity
  8
0
100
AcDbCircle
 62
7
  6
CONTINUOUS
 10
7.8601386463
 20
17.3418133364
 40
0.0196850394
100
AcDbArc
 50
135.0025651318
 51
180.0
  0
ARC
  5
4C1
100
AcDbEntity
  8
0
100
AcDbCircle
 62
7
  6
CONTINUOUS
 10
7.8404536069
 20
17.0898448325
 40
0.0196850394
100
AcDbArc
 50
0.0039181288
 51
45.0000000001
  0
ARC
  5
4C2
100
AcDbEntity
  8
0
100
AcDbCircle
 62
7
  6
CONTINUOUS
 10
7.8404536069
 20
17.3778059963
 40
0.0196850394
100
AcDbArc
 50
314.9999999999
 51
359.9960818712
  0
ARC
  5
4C3
100
AcDbEntity
  8
0
100
AcDbCircle
 62
7
  6
CONTINUOUS
 10
7.8404536069
 20
17.399077183
 40
0.0196850394
100
AcDbArc
 50
0.0039289499
 51
45.000000001
  0
ARC
  5
4C4
100
AcDbEntity
  8
0
100
AcDbCircle
 62
7
  6
CONTINUOUS
 10
7.8601386463
 20
17.3489511757
 40
0.0196850394
100
AcDbArc
 50
180.0
 51
190.6595944996
  0
ARC
  5
4C5
100
AcDbEntity
  8
0
100
AcDbCircle
 62
7
  6
CONTINUOUS
 10
7.8601386463
 20
17.0040473052
 40
0.0196850394
100
AcDbArc
 50
180.0
 51
190.6595944687
  0
ARC
  5
4C6
100
AcDbEntity
  8
0
100
AcDbCircle
 62
7
  6
CONTINUOUS
 10
7.9574271526
 20
17.3838207537
 40
0.0118110236
100
AcDbArc
 50
180.0
 51
224.9997468347
  0
ARC
  5
4C7
100
AcDbEntity
  8
0
100
AcDbCircle
 62
7
  6
CONTINUOUS
 10
7.9574271526
 20
17.166139375
 40
0.0118110236
100
AcDbArc
 50
180.0
 51
224.9997468346
  0
ARC
  5
4C8
100
AcDbEntity
  8
0
100
AcDbCircle
 62
7
  6
CONTINUOUS
 10
7.9574271526
 20
17.2587170074
 40
0.0118110236
100
AcDbArc
 50
135.0002531657
 51
180.0
  0
ARC
  5
4C9
100
AcDbEntity
  8
0
100
AcDbCircle
 62
7
  6
CONTINUOUS
 10
7.826104255
 20
17.7356930917
 40
0.3115871098
100
AcDbArc
 50
358.8102006208
 51
359.9931356114
  0
ARC
  5
4CA
100
AcDbEntity
  8
0
100
AcDbCircle
 62
7
  6
CONTINUOUS
 10
7.8580188872
 20
17.7233891652
 40
0.2786790932
100
AcDbArc
 50
349.5767978336
 51
350.6135101858
  0
ARC
  5
4CB
100
AcDbEntity
  8
0
100
AcDbCircle
 62
7
  6
CONTINUOUS
 10
7.8994512327
 20
18.0681472612
 40
0.2382401351
100
AcDbArc
 50
358.7184356219
 51
359.98796656
  0
ARC
  5
4CC
100
AcDbEntity
  8
0
100
AcDbCircle
 62
7
  6
CONTINUOUS
 10
7.9375908269
 20
17.9002806128
 40
0.0393700787
100
AcDbArc
 50
290.0
 51
354.208879842
  0
ARC
  5
4CD
100
AcDbEntity
  8
0
100
AcDbCircle
 62
7
  6
CONTINUOUS
 10
7.8601386463
 20
17.435069843
 40
0.0196850394
100
AcDbArc
 50
180.0
 51
224.9974348101
  0
ARC
  5
4CE
100
AcDbEntity
  8
0
100
AcDbCircle
 62
7
  6
CONTINUOUS
 10
7.8601386463
 20
17.651045687
 40
0.0196850394
100
AcDbArc
 50
135.0025651903
 51
180.0
  0
ARC
  5
4CF
100
AcDbEntity
  8
0
100
AcDbCircle
 62
7
  6
CONTINUOUS
 10
7.8404536069
 20
17.6870383469
 40
0.0196850394
100
AcDbArc
 50
314.999999999
 51
359.9960710504
  0
ARC
  5
4D0
100
AcDbEntity
  8
0
100
AcDbCircle
 62
7
  6
CONTINUOUS
 10
7.8601386463
 20
17.7434624005
 40
0.0196850394
100
AcDbArc
 50
135.0025651321
 51
180.0
  0
ARC
  5
4D1
100
AcDbEntity
  8
0
100
AcDbCircle
 62
7
  6
CONTINUOUS
 10
7.8404536069
 20
17.7794550605
 40
0.0196850394
100
AcDbArc
 50
314.9999999999
 51
359.9960818712
  0
ARC
  5
4D2
100
AcDbEntity
  8
0
100
AcDbCircle
 62
7
  6
CONTINUOUS
 10
7.8798236857
 20
17.8164099488
 40
0.0196850394
100
AcDbArc
 50
110.0000948198
 51
180.0
  0
ARC
  5
4D3
100
AcDbEntity
  8
0
100
AcDbCircle
 62
7
  6
CONTINUOUS
 10
7.9574271526
 20
17.9992202614
 40
0.0118110236
100
AcDbArc
 50
180.0
 51
224.999746836
  0
ARC
  5
4D4
100
AcDbEntity
  8
0
100
AcDbCircle
 62
7
  6
CONTINUOUS
 10
7.9574271526
 20
18.0917978938
 40
0.0118110236
100
AcDbArc
 50
135.0002531659
 51
180.0
  0
ARC
  5
4D5
100
AcDbEntity
  8
0
100
AcDbCircle
 62
7
  6
CONTINUOUS
 10
7.9574271526
 20
17.5862234868
 40
0.0118110236
100
AcDbArc
 50
180.0
 51
224.9997468355
  0
ARC
  5
4D6
100
AcDbEntity
  8
0
100
AcDbCircle
 62
7
  6
CONTINUOUS
 10
7.9574271526
 20
17.6788011192
 40
0.0118110236
100
AcDbArc
 50
135.0002531656
 51
180.0
  0
ARC
  5
4D7
100
AcDbEntity
  8
0
100
AcDbCircle
 62
7
  6
CONTINUOUS
 10
7.9574271526
 20
17.4763983861
 40
0.0118110236
100
AcDbArc
 50
135.0002531652
 51
180.0
  0
ARC
  5
4D8
100
AcDbEntity
  8
0
100
AcDbCircle
 62
9
  6
CONTINUOUS
 10
8.0480226063
 20
17.2720438699
 40
0.0562269279
100
AcDbArc
 50
163.6940927008
 51
165.0562887522
  0
ARC
  5
4D9
100
AcDbEntity
  8
0
100
AcDbCircle
 62
7
  6
CONTINUOUS
 10
8.1314388534
 20
16.8181436732
 40
0.0196850394
100
AcDbArc
 50
90.0
 51
135.0000000001
  0
ARC
  5
4DA
100
AcDbEntity
  8
0
100
AcDbCircle
 62
7
  6
CONTINUOUS
 10
8.1232850431
 20
16.8099898629
 40
0.0196850394
100
AcDbArc
 50
135.0011432902
 51
180.0
  0
ARC
  5
4DB
100
AcDbEntity
  8
0
100
AcDbCircle
 62
7
  6
CONTINUOUS
 10
8.0817378748
 20
17.3986428937
 40
0.0196850394
100
AcDbArc
 50
135.0013272053
 51
180.0
  0
ARC
  5
4DC
100
AcDbEntity
  8
0
100
AcDbCircle
 62
7
  6
CONTINUOUS
 10
8.0898916851
 20
17.3044344993
 40
0.0196850394
100
AcDbArc
 50
225.0000000001
 51
270.0
  0
ARC
  5
4DD
100
AcDbEntity
  8
0
100
AcDbCircle
 62
7
  6
CONTINUOUS
 10
8.1232850431
 20
16.7003132315
 40
0.0196850394
100
AcDbArc
 50
180.0
 51
224.9988567098
  0
ARC
  5
4DE
100
AcDbEntity
  8
0
100
AcDbCircle
 62
7
  6
CONTINUOUS
 10
8.0817378748
 20
17.3125883095
 40
0.0196850394
100
AcDbArc
 50
180.0
 51
224.998672795
  0
ARC
  5
4DF
100
AcDbEntity
  8
0
100
AcDbCircle
 62
7
  6
CONTINUOUS
 10
8.1314388534
 20
17.1099381948
 40
0.0196850394
100
AcDbArc
 50
225.0000000003
 51
270.0
  0
ARC
  5
4E0
100
AcDbEntity
  8
0
100
AcDbCircle
 62
7
  6
CONTINUOUS
 10
8.1314388534
 20
17.2359224468
 40
0.0196850394
100
AcDbArc
 50
90.0
 51
134.9999999997
  0
ARC
  5
4E1
100
AcDbEntity
  8
0
100
AcDbCircle
 62
7
  6
CONTINUOUS
 10
8.1232850431
 20
17.2277686365
 40
0.0196850394
100
AcDbArc
 50
135.0011432902
 51
180.0
  0
ARC
  5
4E2
100
AcDbEntity
  8
0
100
AcDbCircle
 62
7
  6
CONTINUOUS
 10
8.1232850431
 20
17.1180920051
 40
0.0196850394
100
AcDbArc
 50
180.0
 51
224.9988567098
  0
ARC
  5
4E3
100
AcDbEntity
  8
0
100
AcDbCircle
 62
7
  6
CONTINUOUS
 10
8.0898916851
 20
17.0414261423
 40
0.0196850394
100
AcDbArc
 50
90.0
 51
134.9999999998
  0
ARC
  5
4E4
100
AcDbEntity
  8
0
100
AcDbCircle
 62
7
  6
CONTINUOUS
 10
8.0898916851
 20
16.9390639376
 40
0.0196850394
100
AcDbArc
 50
225.0000000002
 51
270.0
  0
ARC
  5
4E5
100
AcDbEntity
  8
0
100
AcDbCircle
 62
7
  6
CONTINUOUS
 10
8.0817378748
 20
16.9472177479
 40
0.0196850394
100
AcDbArc
 50
180.0
 51
224.9986727949
  0
ARC
  5
4E6
100
AcDbEntity
  8
0
100
AcDbCircle
 62
7
  6
CONTINUOUS
 10
8.0817378748
 20
17.033272332
 40
0.0196850394
100
AcDbArc
 50
135.0013272051
 51
180.0
  0
ARC
  5
4E7
100
AcDbEntity
  8
0
100
AcDbCircle
 62
7
  6
CONTINUOUS
 10
7.9701934545
 20
17.3710544518
 40
0.0118110236
100
AcDbArc
 50
224.9999999998
 51
270.0
  0
ARC
  5
4E8
100
AcDbEntity
  8
0
100
AcDbCircle
 62
7
  6
CONTINUOUS
 10
7.9701934545
 20
17.1533730731
 40
0.0118110236
100
AcDbArc
 50
225.0000000005
 51
270.0
  0
ARC
  5
4E9
100
AcDbEntity
  8
0
100
AcDbCircle
 62
7
  6
CONTINUOUS
 10
7.9701934545
 20
17.2714833093
 40
0.0118110236
100
AcDbArc
 50
90.0
 51
134.9999999995
  0
ARC
  5
4EA
100
AcDbEntity
  8
0
100
AcDbCircle
 62
9
  6
CONTINUOUS
 10
8.0514766378
 20
17.9644488598
 40
0.0640863535
100
AcDbArc
 50
179.0515210628
 51
179.3768466833
  0
ARC
  5
4EB
100
AcDbEntity
  8
0
100
AcDbCircle
 62
9
  6
CONTINUOUS
 10
8.0514495632
 20
17.4881391703
 40
0.0574980893
100
AcDbArc
 50
162.9157204487
 51
163.8669148151
  0
ARC
  5
4EC
100
AcDbEntity
  8
0
100
AcDbCircle
 62
9
  6
CONTINUOUS
 10
8.0390535174
 20
17.9645657177
 40
0.0516627002
100
AcDbArc
 50
179.3565944532
 51
180.0341803176
  0
ARC
  5
4ED
100
AcDbEntity
  8
0
100
AcDbCircle
 62
7
  6
CONTINUOUS
 10
8.0817378748
 20
17.9819293595
 40
0.0196850394
100
AcDbArc
 50
180.0
 51
224.9986727883
  0
ARC
  5
4EE
100
AcDbEntity
  8
0
100
AcDbCircle
 62
7
  6
CONTINUOUS
 10
8.0898916851
 20
17.9737755492
 40
0.0196850394
100
AcDbArc
 50
225.0000000001
 51
270.0
  0
ARC
  5
4EF
100
AcDbEntity
  8
0
100
AcDbCircle
 62
7
  6
CONTINUOUS
 10
8.0898916851
 20
18.0761377539
 40
0.0196850394
100
AcDbArc
 50
90.0
 51
134.9999999999
  0
ARC
  5
4F0
100
AcDbEntity
  8
0
100
AcDbCircle
 62
7
  6
CONTINUOUS
 10
8.0817378748
 20
18.0679839436
 40
0.0196850394
100
AcDbArc
 50
135.0013272118
 51
180.0
  0
ARC
  5
4F1
100
AcDbEntity
  8
0
100
AcDbCircle
 62
7
  6
CONTINUOUS
 10
8.1314388534
 20
17.917024809
 40
0.0196850394
100
AcDbArc
 50
225.0000000002
 51
270.0
  0
ARC
  5
4F2
100
AcDbEntity
  8
0
100
AcDbCircle
 62
7
  6
CONTINUOUS
 10
8.1232850431
 20
17.9251786193
 40
0.0196850394
100
AcDbArc
 50
180.0
 51
224.9989630351
  0
ARC
  5
4F3
100
AcDbEntity
  8
0
100
AcDbCircle
 62
7
  6
CONTINUOUS
 10
8.1232850431
 20
18.0348552507
 40
0.0196850394
100
AcDbArc
 50
135.0010369649
 51
180.0
  0
ARC
  5
4F4
100
AcDbEntity
  8
0
100
AcDbCircle
 62
7
  6
CONTINUOUS
 10
8.1314388534
 20
18.0430090609
 40
0.0196850394
100
AcDbArc
 50
90.0
 51
134.9999999998
  0
ARC
  5
4F5
100
AcDbEntity
  8
0
100
AcDbCircle
 62
7
  6
CONTINUOUS
 10
8.0898916851
 20
17.406796704
 40
0.0196850394
100
AcDbArc
 50
90.0
 51
134.9999999999
  0
ARC
  5
4F6
100
AcDbEntity
  8
0
100
AcDbCircle
 62
7
  6
CONTINUOUS
 10
8.0817378748
 20
17.7515637554
 40
0.0196850394
100
AcDbArc
 50
135.0013272065
 51
180.0
  0
ARC
  5
4F7
100
AcDbEntity
  8
0
100
AcDbCircle
 62
7
  6
CONTINUOUS
 10
8.0817378748
 20
17.6655091712
 40
0.0196850394
100
AcDbArc
 50
180.0
 51
224.9986727935
  0
ARC
  5
4F8
100
AcDbEntity
  8
0
100
AcDbCircle
 62
7
  6
CONTINUOUS
 10
8.0898916851
 20
17.657355361
 40
0.0196850394
100
AcDbArc
 50
225.0000000004
 51
270.0
  0
ARC
  5
4F9
100
AcDbEntity
  8
0
100
AcDbCircle
 62
7
  6
CONTINUOUS
 10
8.0898916851
 20
17.7597175657
 40
0.0196850394
100
AcDbArc
 50
90.0
 51
134.9999999996
  0
ARC
  5
4FA
100
AcDbEntity
  8
0
100
AcDbCircle
 62
7
  6
CONTINUOUS
 10
8.1314388534
 20
17.5277169684
 40
0.0196850394
100
AcDbArc
 50
225.0000000002
 51
270.0
  0
ARC
  5
4FB
100
AcDbEntity
  8
0
100
AcDbCircle
 62
7
  6
CONTINUOUS
 10
8.1314388534
 20
17.6537012204
 40
0.0196850394
100
AcDbArc
 50
90.0
 51
134.9999999998
  0
ARC
  5
4FC
100
AcDbEntity
  8
0
100
AcDbCircle
 62
7
  6
CONTINUOUS
 10
8.1232850431
 20
17.6455474101
 40
0.0196850394
100
AcDbArc
 50
135.0011432896
 51
180.0
  0
ARC
  5
4FD
100
AcDbEntity
  8
0
100
AcDbCircle
 62
7
  6
CONTINUOUS
 10
8.1232850431
 20
17.5358707787
 40
0.0196850394
100
AcDbArc
 50
180.0
 51
224.9988567095
  0
ARC
  5
4FE
100
AcDbEntity
  8
0
100
AcDbCircle
 62
7
  6
CONTINUOUS
 10
7.9701934545
 20
17.9864539595
 40
0.0118110236
100
AcDbArc
 50
224.9999999994
 51
270.0
  0
ARC
  5
4FF
100
AcDbEntity
  8
0
100
AcDbCircle
 62
7
  6
CONTINUOUS
 10
7.9701934545
 20
18.1045641957
 40
0.0118110236
100
AcDbArc
 50
90.0
 51
135.0000000006
  0
ARC
  5
500
100
AcDbEntity
  8
0
100
AcDbCircle
 62
7
  6
CONTINUOUS
 10
7.9701934545
 20
17.5734571849
 40
0.0118110236
100
AcDbArc
 50
224.9999999998
 51
270.0
  0
ARC
  5
501
100
AcDbEntity
  8
0
100
AcDbCircle
 62
7
  6
CONTINUOUS
 10
7.9701934545
 20
17.6915674211
 40
0.0118110236
100
AcDbArc
 50
90.0
 51
135.0000000002
  0
ARC
  5
502
100
AcDbEntity
  8
0
100
AcDbCircle
 62
7
  6
CONTINUOUS
 10
7.9701934545
 20
17.489164688
 40
0.0118110236
100
AcDbArc
 50
90.0
 51
135.0000000002
  0
ARC
  5
503
100
AcDbEntity
  8
0
100
AcDbCircle
 62
9
  6
CONTINUOUS
 10
7.9764698538
 20
17.9658480677
 40
0.0110007297
100
AcDbArc
 50
353.1435510632
 51
355.9260021332
  0
ARC
  5
504
100
AcDbEntity
  8
0
100
AcDbCircle
 62
9
  6
CONTINUOUS
 10
7.9766394337
 20
17.9658359717
 40
0.0108307189
100
AcDbArc
 50
355.9260958033
 51
359.9873732439
  0
ARC
  5
505
100
AcDbEntity
  8
0
100
AcDbCircle
 62
7
  6
CONTINUOUS
 10
7.8979944935
 20
18.2959903649
 40
0.232275999
100
AcDbArc
 50
344.283873611
 51
344.5026483345
  0
ARC
  5
506
100
AcDbEntity
  8
0
100
AcDbCircle
 62
7
  6
CONTINUOUS
 10
8.0077874682
 20
18.5597020123
 40
0.1641889436
100
AcDbArc
 50
339.7608445231
 51
339.9780861393
  0
ARC
  5
507
100
AcDbEntity
  8
0
100
AcDbCircle
 62
7
  6
CONTINUOUS
 10
8.0898916851
 20
18.3344937557
 40
0.0196850394
100
AcDbArc
 50
90.0
 51
134.9999999999
  0
ARC
  5
508
100
AcDbEntity
  8
0
100
AcDbCircle
 62
7
  6
CONTINUOUS
 10
8.0898916851
 20
18.232131551
 40
0.0196850394
100
AcDbArc
 50
225.0000000001
 51
270.0
  0
ARC
  5
509
100
AcDbEntity
  8
0
100
AcDbCircle
 62
7
  6
CONTINUOUS
 10
8.0817378748
 20
18.2402853613
 40
0.0196850394
100
AcDbArc
 50
180.0
 51
224.998672795
  0
ARC
  5
50A
100
AcDbEntity
  8
0
100
AcDbCircle
 62
7
  6
CONTINUOUS
 10
8.0817378748
 20
18.3263399454
 40
0.0196850394
100
AcDbArc
 50
135.0013272058
 51
180.0
  0
ARC
  5
50B
100
AcDbEntity
  8
0
100
AcDbCircle
 62
7
  6
CONTINUOUS
 10
8.0817378748
 20
18.4229706421
 40
0.0196850394
100
AcDbArc
 50
180.0
 51
224.9986727946
  0
ARC
  5
50C
100
AcDbEntity
  8
0
100
AcDbCircle
 62
7
  6
CONTINUOUS
 10
8.0898916851
 20
18.4148168318
 40
0.0196850394
100
AcDbArc
 50
225.0000000002
 51
270.0
  0
ARC
  5
50D
100
AcDbEntity
  8
0
100
AcDbCircle
 62
7
  6
CONTINUOUS
 10
8.0898916851
 20
18.5171790366
 40
0.0196850394
100
AcDbArc
 50
90.0
 51
134.9999999998
  0
ARC
  5
50E
100
AcDbEntity
  8
0
100
AcDbCircle
 62
7
  6
CONTINUOUS
 10
8.0817378748
 20
18.5090252263
 40
0.0196850394
100
AcDbArc
 50
135.0013272053
 51
180.0
  0
ARC
  5
50F
100
AcDbEntity
  8
0
100
AcDbCircle
 62
7
  6
CONTINUOUS
 10
8.0817378748
 20
18.517535502
 40
0.0196850394
100
AcDbArc
 50
180.0
 51
192.7092229253
  0
ARC
  5
510
100
AcDbEntity
  8
0
100
AcDbCircle
 62
7
  6
CONTINUOUS
 10
8.0817378748
 20
18.6035900862
 40
0.0196850394
100
AcDbArc
 50
135.0013272051
 51
180.0
  0
ARC
  5
511
100
AcDbEntity
  8
0
100
AcDbCircle
 62
7
  6
CONTINUOUS
 10
8.0898916851
 20
18.6117438964
 40
0.0196850394
100
AcDbArc
 50
90.0
 51
134.9999999998
  0
ARC
  5
512
100
AcDbEntity
  8
0
100
AcDbCircle
 62
9
  6
CONTINUOUS
 10
7.9966638287
 20
18.160811576
 40
0.0118423374
100
AcDbArc
 50
310.2583431466
 51
314.2622245706
  0
ARC
  5
513
100
AcDbEntity
  8
0
100
AcDbCircle
 62
9
  6
CONTINUOUS
 10
7.9966691739
 20
18.1607934339
 40
0.0118256175
100
AcDbArc
 50
314.3050269969
 51
330.9168330339
  0
ARC
  5
514
100
AcDbEntity
  8
0
100
AcDbCircle
 62
7
  6
CONTINUOUS
 10
7.9701934545
 20
18.1371869536
 40
0.0118110236
100
AcDbArc
 50
90.0
 51
135.0000000004
  0
ARC
  5
515
100
AcDbEntity
  8
0
100
AcDbCircle
 62
7
  6
CONTINUOUS
 10
7.9574271526
 20
18.1244206517
 40
0.0118110236
100
AcDbArc
 50
135.0002531647
 51
180.0
  0
ARC
  5
516
100
AcDbEntity
  8
0
100
AcDbCircle
 62
9
  6
CONTINUOUS
 10
7.9966833792
 20
18.1607816579
 40
0.0118068724
100
AcDbArc
 50
290.7636118265
 51
310.2797652934
  0
ARC
  5
517
100
AcDbEntity
  8
0
100
AcDbCircle
 62
9
  6
CONTINUOUS
 10
7.9966818847
 20
18.1607809031
 40
0.0118063336
100
AcDbArc
 50
269.9901527934
 51
288.0364280331
  0
ARC
  5
518
100
AcDbEntity
  8
0
100
AcDbCircle
 62
9
  6
CONTINUOUS
 10
7.9967183089
 20
18.1607697044
 40
0.0117709473
100
AcDbArc
 50
334.1388331834
 51
352.1201059752
  0
ARC
  5
519
100
AcDbEntity
  8
0
100
AcDbCircle
 62
9
  6
CONTINUOUS
 10
7.9967015101
 20
18.1607479945
 40
0.0117689688
100
AcDbArc
 50
287.9951842755
 51
290.739176641
  0
ARC
  5
51A
100
AcDbEntity
  8
0
100
AcDbCircle
 62
9
  6
CONTINUOUS
 10
7.9967383324
 20
18.1607553787
 40
0.0117466811
100
AcDbArc
 50
330.915079537
 51
334.1591090593
  0
ARC
  5
51B
100
AcDbEntity
  8
0
100
AcDbCircle
 62
7
  6
CONTINUOUS
 10
8.0647386592
 20
18.4337084115
 40
0.0078740157
100
AcDbArc
 50
110.3751729783
 51
169.8531132105
  0
ARC
  5
51C
100
AcDbEntity
  8
0
100
AcDbCircle
 62
7
  6
CONTINUOUS
 10
7.8797034383
 20
18.7505525443
 40
0.291040709
100
AcDbArc
 50
342.5547036598
 51
342.8900233125
  0
ARC
  5
51D
100
AcDbEntity
  8
0
100
AcDbCircle
 62
7
  6
CONTINUOUS
 10
8.1314388534
 20
18.6691098042
 40
0.0196850394
100
AcDbArc
 50
224.9999999999
 51
244.5973246504
  0
ARC
  5
51E
100
AcDbEntity
  8
0
100
AcDbCircle
 62
7
  6
CONTINUOUS
 10
8.1232850431
 20
18.6772636144
 40
0.0196850394
100
AcDbArc
 50
180.0
 51
224.9988567098
  0
ARC
  5
51F
100
AcDbEntity
  8
0
100
AcDbCircle
 62
7
  6
CONTINUOUS
 10
8.1314388534
 20
18.5078532167
 40
0.0196850394
100
AcDbArc
 50
225.0000000003
 51
270.0
  0
ARC
  5
520
100
AcDbEntity
  8
0
100
AcDbCircle
 62
7
  6
CONTINUOUS
 10
8.1314388534
 20
18.6338374686
 40
0.0196850394
100
AcDbArc
 50
90.0
 51
134.9999999997
  0
ARC
  5
521
100
AcDbEntity
  8
0
100
AcDbCircle
 62
7
  6
CONTINUOUS
 10
8.1232850431
 20
18.6256836583
 40
0.0196850394
100
AcDbArc
 50
135.00114329
 51
180.0
  0
ARC
  5
522
100
AcDbEntity
  8
0
100
AcDbCircle
 62
7
  6
CONTINUOUS
 10
8.1232850431
 20
18.5160070269
 40
0.0196850394
100
AcDbArc
 50
180.0
 51
224.99885671
  0
ARC
  5
523
100
AcDbEntity
  8
0
100
AcDbCircle
 62
7
  6
CONTINUOUS
 10
8.1314388534
 20
18.2513310306
 40
0.0196850394
100
AcDbArc
 50
225.0000000002
 51
270.0
  0
ARC
  5
524
100
AcDbEntity
  8
0
100
AcDbCircle
 62
7
  6
CONTINUOUS
 10
8.1314388534
 20
18.3773152825
 40
0.0196850394
100
AcDbArc
 50
90.0
 51
134.9999999998
  0
ARC
  5
525
100
AcDbEntity
  8
0
100
AcDbCircle
 62
7
  6
CONTINUOUS
 10
8.1232850431
 20
18.3691614723
 40
0.0196850394
100
AcDbArc
 50
135.0011432895
 51
180.0
  0
ARC
  5
526
100
AcDbEntity
  8
0
100
AcDbCircle
 62
7
  6
CONTINUOUS
 10
8.1232850431
 20
18.2594848409
 40
0.0196850394
100
AcDbArc
 50
180.0
 51
224.9988567094
  0
ARC
  5
527
100
AcDbEntity
  8
0
100
AcDbCircle
 62
7
  6
CONTINUOUS
 10
8.3012741003
 20
19.2429303208
 40
0.08
100
AcDbArc
 50
22.8632234308
 51
87.7285491583
  0
ARC
  5
528
100
AcDbEntity
  8
0
100
AcDbCircle
 62
7
  6
CONTINUOUS
 10
8.1314388534
 20
18.7950940561
 40
0.0196850394
100
AcDbArc
 50
90.0
 51
135.0000000001
  0
ARC
  5
529
100
AcDbEntity
  8
0
100
AcDbCircle
 62
7
  6
CONTINUOUS
 10
8.1232850431
 20
18.7869402458
 40
0.0196850394
100
AcDbArc
 50
135.0011432902
 51
180.0
  0
ARC
  5
52A
100
AcDbEntity
  8
0
100
AcDbCircle
 62
7
  6
CONTINUOUS
 10
8.1232850431
 20
18.8419418648
 40
0.0196850394
100
AcDbArc
 50
135.0011432902
 51
180.001006738
  0
ARC
  5
52B
100
AcDbEntity
  8
0
100
AcDbCircle
 62
7
  6
CONTINUOUS
 10
8.1314388534
 20
18.8500956751
 40
0.0196850394
100
AcDbArc
 50
90.0
 51
135.0024588143
  0
ARC
  5
52C
100
AcDbEntity
  8
0
100
AcDbCircle
 62
7
  6
CONTINUOUS
 10
8.7295197033
 20
19.5279303208
 40
0.45
100
AcDbArc
 50
231.6210152008
 51
270.0
  0
ARC
  5
52D
100
AcDbEntity
  8
0
100
AcDbCircle
 62
7
  6
CONTINUOUS
 10
8.6053476449
 20
19.3711460744
 40
0.25
100
AcDbArc
 50
202.8632234306
 51
231.6210152009
  0
ARC
  5
52E
100
AcDbEntity
  8
0
100
AcDbCircle
 62
7
  6
CONTINUOUS
 10
8.9125685308
 20
19.0029303208
 40
0.075
100
AcDbArc
 50
24.0000000002
 51
90.0
  0
ARC
  5
52F
100
AcDbEntity
  8
0
100
AcDbCircle
 62
7
  6
CONTINUOUS
 10
9.1351408601
 20
18.7729303208
 40
0.02
100
AcDbArc
 50
12.457751079
 51
90.0
  0
ARC
  5
530
100
AcDbEntity
  8
0
100
AcDbCircle
 62
7
  6
CONTINUOUS
 10
9.1011524275
 20
18.8129303208
 40
0.02
100
AcDbArc
 50
204.0000000012
 51
270.0
  0
ARC
  5
531
100
AcDbEntity
  8
0
100
AcDbCircle
 62
7
  6
CONTINUOUS
 10
10.3964369804
 20
17.1729303208
 40
2.5590551181
100
AcDbArc
 50
174.5049555658
 51
175.9886462846
  0
ARC
  5
532
100
AcDbEntity
  8
0
100
AcDbCircle
 62
7
  6
CONTINUOUS
 10
10.3964369804
 20
17.1729303208
 40
2.5590551181
100
AcDbArc
 50
177.3528405073
 51
183.7405671051
  0
ARC
  5
533
100
AcDbEntity
  8
0
100
AcDbCircle
 62
7
  6
CONTINUOUS
 10
11.0099351139
 20
19.1871120513
 40
1.9
100
AcDbArc
 50
192.4577510794
 51
230.8853497804
  0
ARC
  5
534
100
AcDbEntity
  8
0
100
AcDbCircle
 62
7
  6
CONTINUOUS
 10
9.8912741003
 20
16.7889303208
 40
0.1
100
AcDbArc
 50
270.0
 51
315.9268242884
  0
ARC
  5
535
100
AcDbEntity
  8
0
100
AcDbCircle
 62
7
  6
CONTINUOUS
 10
9.8912741003
 20
17.5569303208
 40
0.1
100
AcDbArc
 50
44.0731757116
 51
90.0
  0
ARC
  5
536
100
AcDbEntity
  8
0
100
AcDbCircle
 62
7
  6
CONTINUOUS
 10
10.165451414
 20
17.6079303208
 40
0.06
100
AcDbArc
 50
221.8103698099
 51
270.0
  0
ARC
  5
537
100
AcDbEntity
  8
0
100
AcDbCircle
 62
7
  6
CONTINUOUS
 10
9.8712741003
 20
17.5969303208
 40
0.06
100
AcDbArc
 50
90.0
 51
180.0
  0
ARC
  5
538
100
AcDbEntity
  8
0
100
AcDbCircle
 62
7
  6
CONTINUOUS
 10
9.8712741003
 20
16.7489303208
 40
0.06
100
AcDbArc
 50
180.0
 51
270.0
  0
ARC
  5
539
100
AcDbEntity
  8
0
100
AcDbCircle
 62
7
  6
CONTINUOUS
 10
10.0062264245
 20
17.668222563
 40
0.06
100
AcDbArc
 50
224.0731757114
 51
251.9999999995
  0
ARC
  5
53A
100
AcDbEntity
  8
0
100
AcDbCircle
 62
7
  6
CONTINUOUS
 10
10.165451414
 20
16.7379303208
 40
0.06
100
AcDbArc
 50
90.0
 51
138.1897285507
  0
ARC
  5
53B
100
AcDbEntity
  8
0
100
AcDbCircle
 62
7
  6
CONTINUOUS
 10
10.7407301285
 20
26.6543347505
 40
0.07
100
AcDbArc
 50
126.8698976458
 51
233.1301023542
  0
ARC
  5
53C
100
AcDbEntity
  8
0
100
AcDbCircle
 62
7
  6
CONTINUOUS
 10
10.321457107
 20
42.3179559334
 40
32.2450322732
100
AcDbArc
 50
271.7539387079
 51
271.9177242648
  0
ARC
  5
53D
100
AcDbEntity
  8
0
100
AcDbCircle
 62
7
  6
CONTINUOUS
 10
11.2457302985
 20
-8.2320696161
 40
0.7480000766
100
AcDbArc
 50
136.9941084909
 51
265.2069844685
  0
ARC
  5
53E
100
AcDbEntity
  8
0
100
AcDbCircle
 62
7
  6
CONTINUOUS
 10
11.2457301285
 20
-8.2320696792
 40
0.748
100
AcDbArc
 50
24.9851742927
 51
43.0059039391
  0
ARC
  5
53F
100
AcDbEntity
  8
0
100
AcDbCircle
 62
7
  6
CONTINUOUS
 10
11.2457301285
 20
-8.2320696792
 40
0.748
100
AcDbArc
 50
317.1676462646
 51
335.0148257073
  0
ARC
  5
540
100
AcDbEntity
  8
0
100
AcDbCircle
 62
7
  6
CONTINUOUS
 10
11.9237301285
 20
-8.9276011753
 40
0.3580314961
100
AcDbArc
 50
14.6467594565
 51
90.0
  0
ARC
  5
541
100
AcDbEntity
  8
0
100
AcDbCircle
 62
7
  6
CONTINUOUS
 10
11.9237301285
 20
-7.5365381832
 40
0.3580314961
100
AcDbArc
 50
270.0
 51
345.3532405435
  0
ARC
  5
542
100
AcDbEntity
  8
0
100
AcDbCircle
 62
7
  6
CONTINUOUS
 10
13.0147495482
 20
-7.6389196792
 40
0.11
100
AcDbArc
 50
108.0138681873
 51
131.9189257779
  0
ARC
  5
543
100
AcDbEntity
  8
0
100
AcDbCircle
 62
7
  6
CONTINUOUS
 10
13.0147495482
 20
-8.8252196792
 40
0.11
100
AcDbArc
 50
228.0810742221
 51
273.9972648964
  0
ARC
  5
544
100
AcDbEntity
  8
0
100
AcDbCircle
 62
7
  6
CONTINUOUS
 10
11.7507301285
 20
-7.6184741089
 40
0.07
100
AcDbArc
 50
306.8698976458
 51
53.1301023542
  0
ARC
  5
545
100
AcDbEntity
  8
0
100
AcDbCircle
 62
7
  6
CONTINUOUS
 10
11.2457455802
 20
9.5679354483
 40
0.7600155068
100
AcDbArc
 50
180.0003865521
 51
219.3308088089
  0
ARC
  5
546
100
AcDbEntity
  8
0
100
AcDbCircle
 62
7
  6
CONTINUOUS
 10
11.2457301285
 20
9.5679303208
 40
0.76
100
AcDbArc
 50
140.6687519154
 51
180.0
  0
ARC
  5
547
100
AcDbEntity
  8
0
100
AcDbCircle
 62
7
  6
CONTINUOUS
 10
11.2457301285
 20
9.5679303208
 40
0.6928608635
100
AcDbArc
 50
306.7933208469
 51
313.5411169602
  0
ARC
  5
548
100
AcDbEntity
  8
0
100
AcDbCircle
 62
7
  6
CONTINUOUS
 10
11.2457301285
 20
9.5679303208
 40
0.6928608635
100
AcDbArc
 50
226.2291972288
 51
233.2066791531
  0
ARC
  5
549
100
AcDbEntity
  8
0
100
AcDbCircle
 62
7
  6
CONTINUOUS
 10
11.2457301285
 20
9.5679303208
 40
0.6928608635
100
AcDbArc
 50
121.8699947155
 51
133.7707016662
  0
ARC
  5
54A
100
AcDbEntity
  8
0
100
AcDbCircle
 62
7
  6
CONTINUOUS
 10
11.2457301285
 20
9.5679303208
 40
0.6928608635
100
AcDbArc
 50
46.2296138944
 51
54.1864000303
  0
ARC
  5
54B
100
AcDbEntity
  8
0
100
AcDbCircle
 62
7
  6
CONTINUOUS
 10
11.2457301319
 20
9.5679303846
 40
0.6499996659
100
AcDbArc
 50
127.5279871517
 51
129.5548972216
  0
ARC
  5
54C
100
AcDbEntity
  8
0
100
AcDbCircle
 62
7
  6
CONTINUOUS
 10
11.2457301319
 20
9.5679303846
 40
0.6499996659
100
AcDbArc
 50
50.4451166697
 51
55.2559967488
  0
ARC
  5
54D
100
AcDbEntity
  8
0
100
AcDbCircle
 62
9
  6
CONTINUOUS
 10
11.2457301319
 20
9.5679304144
 40
0.6293135946
100
AcDbArc
 50
126.7596466882
 51
127.2573772586
  0
ARC
  5
54E
100
AcDbEntity
  8
0
100
AcDbCircle
 62
7
  6
CONTINUOUS
 10
11.6450701285
 20
9.6794303208
 40
0.1
100
AcDbArc
 50
270.0
 51
360.0
  0
ARC
  5
54F
100
AcDbEntity
  8
0
100
AcDbCircle
 62
7
  6
CONTINUOUS
 10
11.6007301285
 20
9.0979303208
 40
0.03
100
AcDbArc
 50
180.0
 51
269.9999999786
  0
ARC
  5
550
100
AcDbEntity
  8
0
100
AcDbCircle
 62
7
  6
CONTINUOUS
 10
11.5000701285
 20
10.0994303208
 40
0.0538516481
100
AcDbArc
 50
201.8014094864
 51
338.1985905136
  0
ARC
  5
551
100
AcDbEntity
  8
0
100
AcDbCircle
 62
7
  6
CONTINUOUS
 10
11.5000701285
 20
11.2594303208
 40
0.0538516481
100
AcDbArc
 50
21.8014094864
 51
158.1985905136
  0
ARC
  5
552
100
AcDbEntity
  8
0
100
AcDbCircle
 62
7
  6
CONTINUOUS
 10
11.6007301285
 20
10.0379303208
 40
0.03
100
AcDbArc
 50
90.0000005033
 51
180.0
  0
ARC
  5
553
100
AcDbEntity
  8
0
100
AcDbCircle
 62
7
  6
CONTINUOUS
 10
11.3900701285
 20
10.1257711128
 40
0.01
100
AcDbArc
 50
0.0000502427
 51
40.0750350535
  0
ARC
  5
554
100
AcDbEntity
  8
0
100
AcDbCircle
 62
7
  6
CONTINUOUS
 10
11.3900701285
 20
11.2330895288
 40
0.01
100
AcDbArc
 50
319.9249649465
 51
359.9999497573
  0
ARC
  5
555
100
AcDbEntity
  8
0
100
AcDbCircle
 62
7
  6
CONTINUOUS
 10
11.9347301285
 20
8.462024809
 40
0.1
100
AcDbArc
 50
114.1142292669
 51
169.0442914719
  0
ARC
  5
556
100
AcDbEntity
  8
0
100
AcDbCircle
 62
7
  6
CONTINUOUS
 10
11.8267349454
 20
8.4829303208
 40
0.01
100
AcDbArc
 50
270.0000062842
 51
349.0442926449
  0
ARC
  5
557
100
AcDbEntity
  8
0
100
AcDbCircle
 62
7
  6
CONTINUOUS
 10
12.0481441983
 20
10.6794303208
 40
0.85
100
AcDbArc
 50
139.9250028206
 51
220.0749971794
  0
ARC
  5
558
100
AcDbEntity
  8
0
100
AcDbCircle
 62
7
  6
CONTINUOUS
 10
11.8463875605
 20
13.9730904817
 40
0.06
100
AcDbArc
 50
93.2432014018
 51
185.0755073159
  0
ARC
  5
559
100
AcDbEntity
  8
0
100
AcDbCircle
 62
7
  6
CONTINUOUS
 10
11.8263486605
 20
14.2429303208
 40
0.06
100
AcDbArc
 50
219.0
 51
270.0
  0
ARC
  5
55A
100
AcDbEntity
  8
0
100
AcDbCircle
 62
7
  6
CONTINUOUS
 10
11.6807301285
 20
14.4226655214
 40
0.06
100
AcDbArc
 50
180.0
 51
221.4718321501
  0
ARC
  5
55B
100
AcDbEntity
  8
0
100
AcDbCircle
 62
7
  6
CONTINUOUS
 10
11.8407301285
 20
14.0729303208
 40
0.04
100
AcDbArc
 50
273.2432014018
 51
360.0
  0
ARC
  5
55C
100
AcDbEntity
  8
0
100
AcDbCircle
 62
7
  6
CONTINUOUS
 10
11.8407301285
 20
14.1429303208
 40
0.04
100
AcDbArc
 50
0.0
 51
90.0
  0
ARC
  5
55D
100
AcDbEntity
  8
0
100
AcDbCircle
 62
7
  6
CONTINUOUS
 10
12.7200701285
 20
9.7494303208
 40
0.38
100
AcDbArc
 50
0.0000014446
 51
90.0
  0
ARC
  5
55E
100
AcDbEntity
  8
0
100
AcDbCircle
 62
7
  6
CONTINUOUS
 10
13.2652703512
 20
9.7734303208
 40
0.13
100
AcDbArc
 50
226.064521937
 51
313.6908952793
  0
ARC
  5
55F
100
AcDbEntity
  8
0
100
AcDbCircle
 62
7
  6
CONTINUOUS
 10
12.7550701285
 20
9.6794303208
 40
0.1
100
AcDbArc
 50
180.0
 51
270.0
  0
ARC
  5
560
100
AcDbEntity
  8
0
100
AcDbCircle
 62
7
  6
CONTINUOUS
 10
12.7200701285
 20
11.6094303208
 40
0.38
100
AcDbArc
 50
270.0
 51
359.9999985554
  0
ARC
  5
561
100
AcDbEntity
  8
0
100
AcDbCircle
 62
7
  6
CONTINUOUS
 10
13.2652703512
 20
11.5854303208
 40
0.13
100
AcDbArc
 50
46.3091047207
 51
133.935478063
  0
ARC
  5
562
100
AcDbEntity
  8
0
100
AcDbCircle
 62
7
  6
CONTINUOUS
 10
30.8007307507
 20
12.1829303208
 40
20.175
100
AcDbArc
 50
174.9244926841
 51
185.0755073159
  0
ARC
  5
563
100
AcDbEntity
  8
0
100
AcDbCircle
 62
7
  6
CONTINUOUS
 10
15.1092761311
 20
17.1729303207
 40
7.1691060898
100
AcDbArc
 50
173.6126430217
 51
174.208879842
  0
ARC
  5
564
100
AcDbEntity
  8
0
100
AcDbCircle
 62
7
  6
CONTINUOUS
 10
15.1092761311
 20
17.1729303207
 40
7.1691060898
100
AcDbArc
 50
170.6768182409
 51
172.097905872
  0
ARC
  5
565
100
AcDbEntity
  8
0
100
AcDbCircle
 62
7
  6
CONTINUOUS
 10
15.1092761311
 20
17.1729303208
 40
7.1691060898
100
AcDbArc
 50
187.3617183163
 51
189.3231817588
  0
ARC
  5
566
100
AcDbEntity
  8
0
100
AcDbCircle
 62
7
  6
CONTINUOUS
 10
15.1093114418
 20
17.1729303211
 40
7.1643816812
100
AcDbArc
 50
194.2898330329
 51
194.9326914327
  0
ARC
  5
567
100
AcDbEntity
  8
0
100
AcDbCircle
 62
7
  6
CONTINUOUS
 10
15.1093114418
 20
17.1729303211
 40
7.1643816812
100
AcDbArc
 50
165.0673085672
 51
165.7101669722
  0
ARC
  5
568
100
AcDbEntity
  8
0
100
AcDbCircle
 62
7
  6
CONTINUOUS
 10
12.2800832865
 20
28.3479303208
 40
0.95
100
AcDbArc
 50
334.7660229465
 51
359.6984418735
  0
ARC
  5
569
100
AcDbEntity
  8
0
100
AcDbCircle
 62
7
  6
CONTINUOUS
 10
12.2800832865
 20
26.1879303208
 40
0.95
100
AcDbArc
 50
0.3015581265
 51
25.2339770535
  0
ARC
  5
56A
100
AcDbEntity
  8
0
100
AcDbCircle
 62
7
  6
CONTINUOUS
 10
11.2457302985
 20
27.2679302577
 40
0.7480000766
100
AcDbArc
 50
94.7930155315
 51
223.0058915091
  0
ARC
  5
56B
100
AcDbEntity
  8
0
100
AcDbCircle
 62
7
  6
CONTINUOUS
 10
11.2457301285
 20
27.2679303208
 40
0.748
100
AcDbArc
 50
316.9940960609
 51
335.0148257073
  0
ARC
  5
56C
100
AcDbEntity
  8
0
100
AcDbCircle
 62
7
  6
CONTINUOUS
 10
11.2457301285
 20
27.2679303208
 40
0.748
100
AcDbArc
 50
24.9851742927
 51
85.2069970335
  0
ARC
  5
56D
100
AcDbEntity
  8
0
100
AcDbCircle
 62
7
  6
CONTINUOUS
 10
11.9237301285
 20
27.9634618168
 40
0.3580314961
100
AcDbArc
 50
270.0
 51
345.3532405435
  0
ARC
  5
56E
100
AcDbEntity
  8
0
100
AcDbCircle
 62
7
  6
CONTINUOUS
 10
11.9237301285
 20
26.5723988247
 40
0.3580314961
100
AcDbArc
 50
14.6467594565
 51
90.0
  0
ARC
  5
56F
100
AcDbEntity
  8
0
100
AcDbCircle
 62
7
  6
CONTINUOUS
 10
13.3900701285
 20
28.3429303208
 40
0.1125
100
AcDbArc
 50
90.0
 51
180.0
  0
ARC
  5
570
100
AcDbEntity
  8
0
100
AcDbCircle
 62
7
  6
CONTINUOUS
 10
13.3900701285
 20
26.1929303208
 40
0.1125
100
AcDbArc
 50
180.0
 51
270.0
  0
ARC
  5
571
100
AcDbEntity
  8
0
100
AcDbCircle
 62
7
  6
CONTINUOUS
 10
13.0147495482
 20
27.8610803208
 40
0.11
100
AcDbArc
 50
48.0810742221
 51
131.9189257779
  0
ARC
  5
572
100
AcDbEntity
  8
0
100
AcDbCircle
 62
7
  6
CONTINUOUS
 10
13.0147495482
 20
26.6747803208
 40
0.11
100
AcDbArc
 50
228.0810742221
 51
311.9189257779
  0
ARC
  5
573
100
AcDbEntity
  8
0
100
AcDbCircle
 62
7
  6
CONTINUOUS
 10
11.7507301285
 20
26.6543347505
 40
0.07
100
AcDbArc
 50
306.8698976458
 51
53.1301023542
  0
SPLINE
  5
574
100
AcDbEntity
  8
0
100
AcDbSpline
 62
7
  6
CONTINUOUS
 70
0
 71
3
 72
13
 73
9
 74
0
 42
0.0000001
 43
0.0000001
 44
0.0000000001
 40
0.0
 40
0.0
 40
0.0
 40
0.0
 40
0.3230479268
 40
0.5911183977
 40
0.7067500257
 40
0.811887546
 40
0.9086828249
 40
1.0
 40
1.0
 40
1.0
 40
1.0
 10
8.1663378603
 20
17.9017914673
 30
0.0
 10
8.1658632048
 20
17.9011184985
 30
0.0
 10
8.164936087
 20
17.8999264092
 30
0.0
 10
8.163628726
 20
17.8986701811
 30
0.0
 10
8.1625941534
 20
17.8979700955
 30
0.0
 10
8.1618656904
 20
17.8976099931
 30
0.0
 10
8.1611470026
 20
17.8973912299
 30
0.0
 10
8.1606663166
 20
17.897340752
 30
0.0
 10
8.1604335292
 20
17.8973408906
 30
0.0
  0
SPLINE
  5
575
100
AcDbEntity
  8
0
100
AcDbSpline
 62
7
  6
CONTINUOUS
 70
0
 71
3
 72
11
 73
7
 74
0
 42
0.0000001
 43
0.0000001
 44
0.0000000001
 40
0.0
 40
0.0
 40
0.0
 40
0.0
 40
0.2885076622
 40
0.5549217022
 40
0.7933781846
 40
1.0
 40
1.0
 40
1.0
 40
1.0
 10
8.1376913626
 20
16.6102048799
 30
0.0
 10
8.1376913626
 20
16.607255734
 30
0.0
 10
8.1376067995
 20
16.6015828172
 30
0.0
 10
8.1372096719
 20
16.5934806237
 30
0.0
 10
8.1365534265
 20
16.5862352544
 30
0.0
 10
8.1359086561
 20
16.58172794
 30
0.0
 10
8.1355284948
 20
16.5796503317
 30
0.0
  0
SPLINE
  5
576
100
AcDbEntity
  8
0
100
AcDbSpline
 62
7
  6
CONTINUOUS
 70
0
 71
3
 72
16
 73
12
 74
0
 42
0.0000001
 43
0.0000001
 44
0.0000000001
 40
0.0
 40
0.0
 40
0.0
 40
0.0
 40
0.1989288818
 40
0.3756121375
 40
0.5296916078
 40
0.6611177809
 40
0.7706286869
 40
0.8602922221
 40
0.9341696315
 40
0.9675136273
 40
1.0
 40
1.0
 40
1.0
 40
1.0
 10
8.1355284948
 20
16.5796503317
 30
0.0
 10
8.1353429894
 20
16.5786365315
 30
0.0
 10
8.1349554593
 20
16.5767287089
 30
0.0
 10
8.1342740514
 20
16.5740689247
 30
0.0
 10
8.1335314671
 20
16.5717901639
 30
0.0
 10
8.1327320506
 20
16.5699026154
 30
0.0
 10
8.1318765638
 20
16.5684118858
 30
0.0
 10
8.1309667047
 20
16.5673167416
 30
0.0
 10
8.130114361
 20
16.5667195643
 30
0.0
 10
8.1294215802
 20
16.566494036
 30
0.0
 10
8.1290793927
 20
16.5664582377
 30
0.0
 10
8.1289110838
 20
16.5664583563
 30
0.0
  0
SPLINE
  5
577
100
AcDbEntity
  8
0
100
AcDbSpline
 62
7
  6
CONTINUOUS
 70
0
 71
3
 72
15
 73
11
 74
0
 42
0.0000001
 43
0.0000001
 44
0.0000000001
 40
0.0
 40
0.0
 40
0.0
 40
0.0
 40
0.1446870914
 40
0.2889591088
 40
0.4297416837
 40
0.5645244252
 40
0.6909618176
 40
0.806904425
 40
0.9104046012
 40
1.0
 40
1.0
 40
1.0
 40
1.0
 10
8.1376871093
 20
17.3631639713
 30
0.0
 10
8.1376708664
 20
17.3599061212
 30
0.0
 10
8.1375467482
 20
17.3533999016
 30
0.0
 10
8.1371002355
 20
17.343732646
 30
0.0
 10
8.1363996687
 20
17.334303944
 30
0.0
 10
8.1354632485
 20
17.3252992317
 30
0.0
 10
8.1343085928
 20
17.3168839392
 30
0.0
 10
8.1329634274
 20
17.3092105198
 30
0.0
 10
8.1314519324
 20
17.3024156511
 30
0.0
 10
8.1302665474
 20
17.2982281321
 30
0.0
 10
8.1296340865
 20
17.2963124328
 30
0.0
  0
SPLINE
  5
578
100
AcDbEntity
  8
0
100
AcDbSpline
 62
7
  6
CONTINUOUS
 70
0
 71
3
 72
15
 73
11
 74
0
 42
0.0000001
 43
0.0000001
 44
0.0000000001
 40
0.0
 40
0.0
 40
0.0
 40
0.0
 40
0.1915598706
 40
0.3629762036
 40
0.5140850741
 40
0.6450014597
 40
0.7564093974
 40
0.8501007282
 40
0.929405869
 40
1.0
 40
1.0
 40
1.0
 40
1.0
 10
8.1296340865
 20
17.2963124328
 30
0.0
 10
8.1293395059
 20
17.2954201598
 30
0.0
 10
8.1287464624
 20
17.2937405283
 30
0.0
 10
8.1277826485
 20
17.2914087876
 30
0.0
 10
8.1267987077
 20
17.2894117634
 30
0.0
 10
8.1257992522
 20
17.2877572218
 30
0.0
 10
8.1247862841
 20
17.2864507252
 30
0.0
 10
8.1237587331
 20
17.2854946686
 30
0.0
 10
8.1227090577
 20
17.2848945254
 30
0.0
 10
8.1219696628
 20
17.2847495842
 30
0.0
 10
8.1216233832
 20
17.2847494697
 30
0.0
  0
SPLINE
  5
579
100
AcDbEntity
  8
0
100
AcDbSpline
 62
7
  6
CONTINUOUS
 70
0
 71
3
 72
11
 73
7
 74
0
 42
0.0000001
 43
0.0000001
 44
0.0000000001
 40
0.0
 40
0.0
 40
0.0
 40
0.0
 40
0.2510262293
 40
0.5070822157
 40
0.7594859896
 40
1.0
 40
1.0
 40
1.0
 40
1.0
 10
8.1376241854
 20
17.7292231648
 30
0.0
 10
8.1375360238
 20
17.7249118717
 30
0.0
 10
8.1371920422
 20
17.7162056648
 30
0.0
 10
8.1362299447
 20
17.7031921471
 30
0.0
 10
8.1348480456
 20
17.6903981183
 30
0.0
 10
8.1336408099
 20
17.6820147044
 30
0.0
 10
8.1329666473
 20
17.6779384648
 30
0.0
  0
SPLINE
  5
57A
100
AcDbEntity
  8
0
100
AcDbSpline
 62
7
  6
CONTINUOUS
 70
0
 71
3
 72
9
 73
5
 74
0
 42
0.0000001
 43
0.0000001
 44
0.0000000001
 40
0.0
 40
0.0
 40
0.0
 40
0.0
 40
0.5325373741
 40
1.0
 40
1.0
 40
1.0
 40
1.0
 10
8.1376913626
 20
16.2777634163
 30
0.0
 10
8.1376913626
 20
16.275405885
 30
0.0
 10
8.1376203045
 20
16.2709785107
 30
0.0
 10
8.1373675473
 20
16.2665566586
 30
0.0
 10
8.137187384
 20
16.2644950691
 30
0.0
  0
SPLINE
  5
57B
100
AcDbEntity
  8
0
100
AcDbSpline
 62
7
  6
CONTINUOUS
 70
0
 71
3
 72
17
 73
13
 74
0
 42
0.0000001
 43
0.0000001
 44
0.0000000001
 40
0.0
 40
0.0
 40
0.0
 40
0.0
 40
0.2070648518
 40
0.3899500005
 40
0.548120557
 40
0.6813001711
 40
0.7899262851
 40
0.8757017336
 40
0.9112251377
 40
0.9428700848
 40
0.9719089508
 40
1.0
 40
1.0
 40
1.0
 40
1.0
 10
8.137187384
 20
16.2644950691
 30
0.0
 10
8.1370907154
 20
16.2633889008
 30
0.0
 10
8.136874259
 20
16.2613084375
 30
0.0
 10
8.1364436492
 20
16.2583996611
 30
0.0
 10
8.1359314907
 20
16.2559071274
 30
0.0
 10
8.1353411849
 20
16.2538415662
 30
0.0
 10
8.1346767943
 20
16.252211804
 30
0.0
 10
8.1340248146
 20
16.2511512064
 30
0.0
 10
8.1334510485
 20
16.2505603067
 30
0.0
 10
8.1330271939
 20
16.2502597697
 30
0.0
 10
8.1325823256
 20
16.25007766
 30
0.0
 10
8.1322743615
 20
16.2500382526
 30
0.0
 10
8.1321237234
 20
16.2500383998
 30
0.0
  0
SPLINE
  5
57C
100
AcDbEntity
  8
0
100
AcDbSpline
 62
7
  6
CONTINUOUS
 70
0
 71
3
 72
13
 73
9
 74
0
 42
0.0000001
 43
0.0000001
 44
0.0000000001
 40
0.0
 40
0.0
 40
0.0
 40
0.0
 40
0.2922613194
 40
0.5637532668
 40
0.687883327
 40
0.8026318554
 40
0.9069695918
 40
1.0
 40
1.0
 40
1.0
 40
1.0
 10
8.1376913626
 20
16.9809951523
 30
0.0
 10
8.1376913626
 20
16.9761682558
 30
0.0
 10
8.1374960404
 20
16.9668563014
 30
0.0
 10
8.1367394795
 20
16.9555152789
 30
0.0
 10
8.1358169313
 20
16.9471356149
 30
0.0
 10
8.1350140003
 20
16.9415230789
 30
0.0
 10
8.1340902763
 20
16.9364503959
 30
0.0
 10
8.1333586927
 20
16.9332719739
 30
0.0
 10
8.1329666473
 20
16.9317863719
 30
0.0
  0
SPLINE
  5
57D
100
AcDbEntity
  8
0
100
AcDbSpline
 62
7
  6
CONTINUOUS
 70
0
 71
3
 72
15
 73
11
 74
0
 42
0.0000001
 43
0.0000001
 44
0.0000000001
 40
0.0
 40
0.0
 40
0.0
 40
0.0
 40
0.193882933
 40
0.3668117547
 40
0.5186127367
 40
0.6494193416
 40
0.7600324978
 40
0.8524382133
 40
0.9303218175
 40
1.0
 40
1.0
 40
1.0
 40
1.0
 10
8.1329666473
 20
16.9317863719
 30
0.0
 10
8.1327142335
 20
16.9308298843
 30
0.0
 10
8.1321992011
 20
16.9290297274
 30
0.0
 10
8.1313365319
 20
16.9265266401
 30
0.0
 10
8.1304325226
 20
16.9243829807
 30
0.0
 10
8.1294912524
 20
16.9226072689
 30
0.0
 10
8.1285145555
 20
16.921205024
 30
0.0
 10
8.1275013986
 20
16.9201777371
 30
0.0
 10
8.1264415339
 20
16.9195315018
 30
0.0
 10
8.1256831829
 20
16.9193788705
 30
0.0
 10
8.1253276699
 20
16.9193791825
 30
0.0
  0
LINE
  5
57E
100
AcDbEntity
  8
0
100
AcDbLine
 62
7
  6
CONTINUOUS
 10
8.1663515021
 20
17.5082263605
 11
8.1650673304
 21
17.5080326601
  0
SPLINE
  5
57F
100
AcDbEntity
  8
0
100
AcDbSpline
 62
7
  6
CONTINUOUS
 70
0
 71
3
 72
12
 73
8
 74
0
 42
0.0000001
 43
0.0000001
 44
0.0000000001
 40
0.0
 40
0.0
 40
0.0
 40
0.0
 40
0.2663769331
 40
0.5352260219
 40
0.7861208484
 40
0.8987813454
 40
1.0
 40
1.0
 40
1.0
 40
1.0
 10
8.1327210184
 20
18.4880170174
 30
0.0
 10
8.1316667757
 20
18.4814342501
 30
0.0
 10
8.1293926183
 20
18.4682321988
 30
0.0
 10
8.1256535564
 20
18.4489153098
 30
0.0
 10
8.1223272975
 20
18.4334397075
 30
0.0
 10
8.1196441973
 20
18.4221210586
 30
0.0
 10
8.1183249253
 20
18.416933013
 30
0.0
 10
8.117673636
 20
18.4144849542
 30
0.0
  0
SPLINE
  5
580
100
AcDbEntity
  8
0
100
AcDbSpline
 62
7
  6
CONTINUOUS
 70
0
 71
3
 72
14
 73
10
 74
0
 42
0.0000001
 43
0.0000001
 44
0.0000000001
 40
0.0
 40
0.0
 40
0.0
 40
0.0
 40
0.3491819851
 40
0.5008265106
 40
0.6360270401
 40
0.7540083341
 40
0.8542464552
 40
0.9363321635
 40
1.0
 40
1.0
 40
1.0
 40
1.0
 10
8.117673636
 20
18.4144849542
 30
0.0
 10
8.1170944815
 20
18.4123080349
 30
0.0
 10
8.1162340123
 20
18.4091932698
 30
0.0
 10
8.1150485794
 20
18.4052649348
 30
0.0
 10
8.1142465571
 20
18.4027792838
 30
0.0
 10
8.1134930608
 20
18.4006271575
 30
0.0
 10
8.1127934188
 20
18.3988199037
 30
0.0
 10
8.1121525055
 20
18.3973677529
 30
0.0
 10
8.1117133614
 20
18.3965340761
 30
0.0
 10
8.1114960236
 20
18.3961855555
 30
0.0
  0
SPLINE
  5
581
100
AcDbEntity
  8
0
100
AcDbSpline
 62
7
  6
CONTINUOUS
 70
0
 71
3
 72
11
 73
7
 74
0
 42
0.0000001
 43
0.0000001
 44
0.0000000001
 40
0.0
 40
0.0
 40
0.0
 40
0.0
 40
0.3512603248
 40
0.6287922437
 40
0.8395401491
 40
1.0
 40
1.0
 40
1.0
 40
1.0
 10
8.1114960236
 20
18.3961855555
 30
0.0
 10
8.1113975541
 20
18.396027651
 30
0.0
 10
8.1112115335
 20
18.3957506387
 30
0.0
 10
8.1109204505
 20
18.3954122732
 30
0.0
 10
8.1106502344
 20
18.3951954102
 30
0.0
 10
8.1104549242
 20
18.3951319157
 30
0.0
 10
8.1103699154
 20
18.3951318262
 30
0.0
  0
SPLINE
  5
582
100
AcDbEntity
  8
0
100
AcDbSpline
 62
7
  6
CONTINUOUS
 70
0
 71
3
 72
19
 73
15
 74
0
 42
0.0000001
 43
0.0000001
 44
0.0000000001
 40
0.0
 40
0.0
 40
0.0
 40
0.0
 40
0.2080846429
 40
0.3944751055
 40
0.557571581
 40
0.6959686895
 40
0.7556282045
 40
0.8088242778
 40
0.8555246199
 40
0.8957590614
 40
0.9296901307
 40
0.9577299592
 40
0.9806709297
 40
1.0
 40
1.0
 40
1.0
 40
1.0
 10
8.121586981
 20
18.2330734415
 30
0.0
 10
8.1211520483
 20
18.2315279334
 30
0.0
 10
8.1202965977
 20
18.228606585
 30
0.0
 10
8.1189781362
 20
18.2245107926
 30
0.0
 10
8.1177046749
 20
18.2209675144
 30
0.0
 10
8.1166456449
 20
18.2183882341
 30
0.0
 10
8.1158184547
 20
18.2166344863
 30
0.0
 10
8.1152475348
 20
18.2155432762
 30
0.0
 10
8.1146963784
 20
18.2146123367
 30
0.0
 10
8.1141659945
 20
18.2138440466
 30
0.0
 10
8.1136568737
 20
18.2132396674
 30
0.0
 10
8.1131680854
 20
18.2127990157
 30
0.0
 10
8.1126962976
 20
18.2125210184
 30
0.0
 10
8.112369499
 20
18.2124484389
 30
0.0
 10
8.1122203599
 20
18.2124481448
 30
0.0
  0
SPLINE
  5
583
100
AcDbEntity
  8
0
100
AcDbSpline
 62
7
  6
CONTINUOUS
 70
0
 71
3
 72
16
 73
12
 74
0
 42
0.0000001
 43
0.0000001
 44
0.0000000001
 40
0.0
 40
0.0
 40
0.0
 40
0.0
 40
0.1965850164
 40
0.3727458049
 40
0.5278656315
 40
0.6615384348
 40
0.7738999385
 40
0.8658156015
 40
0.90477289
 40
0.9396354267
 40
1.0
 40
1.0
 40
1.0
 40
1.0
 10
8.1663378509
 20
18.2456899342
 30
0.0
 10
8.165897607
 20
18.2446146736
 30
0.0
 10
8.1650308313
 20
18.2425886763
 30
0.0
 10
8.1636890739
 20
18.2397708987
 30
0.0
 10
8.1623828985
 20
18.2373514974
 30
0.0
 10
8.1611184476
 20
18.2353427373
 30
0.0
 10
8.1599019213
 20
18.2337546785
 30
0.0
 10
8.1588803335
 20
18.2327321464
 30
0.0
 10
8.1580814406
 20
18.2321601524
 30
0.0
 10
8.1573811144
 20
18.2317870036
 30
0.0
 10
8.1568159811
 20
18.2316465284
 30
0.0
 10
8.1564592031
 20
18.2316470867
 30
0.0
  0
LINE
  5
584
100
AcDbEntity
  8
0
100
AcDbLine
 62
7
  6
CONTINUOUS
 10
8.1663378509
 20
18.5164816202
 11
8.1620531177
 21
18.5034870803
  0
SPLINE
  5
585
100
AcDbEntity
  8
0
100
AcDbSpline
 62
7
  6
CONTINUOUS
 70
0
 71
3
 72
17
 73
13
 74
0
 42
0.0000001
 43
0.0000001
 44
0.0000000001
 40
0.0
 40
0.0
 40
0.0
 40
0.0
 40
0.2064924691
 40
0.3905705865
 40
0.5513135618
 40
0.6879168299
 40
0.7999604808
 40
0.8468642557
 40
0.8878233028
 40
0.9230660949
 40
0.9530028954
 40
1.0
 40
1.0
 40
1.0
 40
1.0
 10
8.1618388659
 20
18.502902575
 30
0.0
 10
8.1614252015
 20
18.5017806872
 30
0.0
 10
8.1606193456
 20
18.4996671578
 30
0.0
 10
8.159396647
 20
18.4967175952
 30
0.0
 10
8.1582348479
 20
18.4941824503
 30
0.0
 10
8.1571404315
 20
18.4920784009
 30
0.0
 10
8.1562445669
 20
18.4906170062
 30
0.0
 10
8.1555548538
 20
18.4896861788
 30
0.0
 10
8.1550895798
 20
18.4891455205
 30
0.0
 10
8.1546430271
 20
18.488719578
 30
0.0
 10
8.1541208741
 20
18.4883368267
 30
0.0
 10
8.153679862
 20
18.488168022
 30
0.0
 10
8.1534077191
 20
18.4881681112
 30
0.0
  0
SPLINE
  5
586
100
AcDbEntity
  8
0
100
AcDbSpline
 62
7
  6
CONTINUOUS
 70
0
 71
3
 72
10
 73
6
 74
0
 42
0.0000001
 43
0.0000001
 44
0.0000000001
 40
0.0
 40
0.0
 40
0.0
 40
0.0
 40
0.549470844
 40
0.788966451
 40
1.0
 40
1.0
 40
1.0
 40
1.0
 10
8.1663378509
 20
18.6957125054
 30
0.0
 10
8.1648968631
 20
18.6900438905
 30
0.0
 10
8.1627661513
 20
18.6819196571
 30
0.0
 10
8.1598871404
 20
18.6716715781
 30
0.0
 10
8.1585241848
 20
18.6670733281
 30
0.0
 10
8.1578632095
 20
18.6649264034
 30
0.0
  0
SPLINE
  5
587
100
AcDbEntity
  8
0
100
AcDbSpline
 62
7
  6
CONTINUOUS
 70
0
 71
3
 72
10
 73
6
 74
0
 42
0.0000001
 43
0.0000001
 44
0.0000000001
 40
0.0
 40
0.0
 40
0.0
 40
0.0
 40
0.5672503839
 40
0.801074318
 40
1.0
 40
1.0
 40
1.0
 40
1.0
 10
8.1573573276
 20
18.6632999679
 30
0.0
 10
8.1567624348
 20
18.6614076669
 30
0.0
 10
8.1558950793
 20
18.6587433717
 30
0.0
 10
8.1547141826
 20
18.6554517087
 30
0.0
 10
8.1541669058
 20
18.6540405322
 30
0.0
 10
8.1539024389
 20
18.6533971473
 30
0.0
  0
SPLINE
  5
588
100
AcDbEntity
  8
0
100
AcDbSpline
 62
7
  6
CONTINUOUS
 70
0
 71
3
 72
17
 73
13
 74
0
 42
0.0000001
 43
0.0000001
 44
0.0000000001
 40
0.0
 40
0.0
 40
0.0
 40
0.0
 40
0.0285539183
 40
0.0580101919
 40
0.0899913849
 40
0.125756485
 40
0.2117511345
 40
0.3203172002
 40
0.4532386921
 40
0.6110249219
 40
0.7934446258
 40
1.0
 40
1.0
 40
1.0
 40
1.0
 10
8.132124619
 20
18.095822393
 30
0.0
 10
8.1322721042
 20
18.0958225305
 30
0.0
 10
8.1325732455
 20
18.0957848502
 30
0.0
 10
8.1330088796
 20
18.095610582
 30
0.0
 10
8.1334245661
 20
18.0953228144
 30
0.0
 10
8.1339871404
 20
18.0947576343
 30
0.0
 10
8.1346286873
 20
18.0937419338
 30
0.0
 10
8.1352846012
 20
18.0921791514
 30
0.0
 10
8.1358698881
 20
18.0901981805
 30
0.0
 10
8.1363807188
 20
18.0878068409
 30
0.0
 10
8.1368139608
 20
18.0850149883
 30
0.0
 10
8.1370346663
 20
18.0830174483
 30
0.0
 10
8.137134065
 20
18.0819551999
 30
0.0
  0
LINE
  5
589
100
AcDbEntity
  8
0
100
AcDbLine
 62
7
  6
CONTINUOUS
 10
8.137134065
 20
18.0819551999
 11
8.1374562787
 21
18.0775197373
  0
LINE
  5
58A
100
AcDbEntity
  8
0
100
AcDbLine
 62
7
  6
CONTINUOUS
 10
8.1374562787
 20
18.0775197373
 11
8.1376913626
 21
18.0680972252
  0
SPLINE
  5
58B
100
AcDbEntity
  8
0
100
AcDbSpline
 62
7
  6
CONTINUOUS
 70
0
 71
3
 72
10
 73
6
 74
0
 42
0.0000001
 43
0.0000001
 44
0.0000000001
 40
0.0
 40
0.0
 40
0.0
 40
0.0
 40
0.199320171
 40
0.433261014
 40
1.0
 40
1.0
 40
1.0
 40
1.0
 10
8.1538913526
 20
15.692486032
 30
0.0
 10
8.1541516507
 20
15.6918541561
 30
0.0
 10
8.154690509
 20
15.6904695426
 30
0.0
 10
8.1558528415
 20
15.6872437647
 30
0.0
 10
8.1567061633
 20
15.6846338442
 30
0.0
 10
8.1572905917
 20
15.6827806913
 30
0.0
  0
SPLINE
  5
58C
100
AcDbEntity
  8
0
100
AcDbSpline
 62
7
  6
CONTINUOUS
 70
0
 71
3
 72
10
 73
6
 74
0
 42
0.0000001
 43
0.0000001
 44
0.0000000001
 40
0.0
 40
0.0
 40
0.0
 40
0.0
 40
0.2109264449
 40
0.450388211
 40
1.0
 40
1.0
 40
1.0
 40
1.0
 10
8.1578570006
 20
15.6809622453
 30
0.0
 10
8.158518328
 20
15.6788138382
 30
0.0
 10
8.1598811198
 20
15.6742111701
 30
0.0
 10
8.1627607497
 20
15.663950179
 30
0.0
 10
8.1648959298
 20
15.6558156687
 30
0.0
 10
8.1663394135
 20
15.6501389874
 30
0.0
  0
SPLINE
  5
58D
100
AcDbEntity
  8
0
100
AcDbSpline
 62
7
  6
CONTINUOUS
 70
0
 71
3
 72
17
 73
13
 74
0
 42
0.0000001
 43
0.0000001
 44
0.0000000001
 40
0.0
 40
0.0
 40
0.0
 40
0.0
 40
0.0469623874
 40
0.0769058462
 40
0.1121621375
 40
0.1531371737
 40
0.2000566189
 40
0.3121235917
 40
0.4487270516
 40
0.609445205
 40
0.7935013275
 40
1.0
 40
1.0
 40
1.0
 40
1.0
 10
8.1534057833
 20
15.8576925962
 30
0.0
 10
8.1536787528
 20
15.8576926139
 30
0.0
 10
8.1541211059
 20
15.8575227546
 30
0.0
 10
8.1546450914
 20
15.8571385774
 30
0.0
 10
8.1550935058
 20
15.8567108917
 30
0.0
 10
8.155560765
 20
15.8561680433
 30
0.0
 10
8.1562533091
 20
15.8552334619
 30
0.0
 10
8.1571523712
 20
15.8537661322
 30
0.0
 10
8.1582493398
 20
15.8516532971
 30
0.0
 10
8.1594130668
 20
15.8491077432
 30
0.0
 10
8.1606376134
 20
15.8461461455
 30
0.0
 10
8.1614449301
 20
15.8440241305
 30
0.0
 10
8.1618595045
 20
15.8428977242
 30
0.0
  0
LINE
  5
58E
100
AcDbEntity
  8
0
100
AcDbLine
 62
7
  6
CONTINUOUS
 10
8.1620291586
 20
15.8424346374
 11
8.1663394135
 21
15.8293713059
  0
SPLINE
  5
58F
100
AcDbEntity
  8
0
100
AcDbSpline
 62
7
  6
CONTINUOUS
 70
0
 71
3
 72
16
 73
12
 74
0
 42
0.0000001
 43
0.0000001
 44
0.0000000001
 40
0.0
 40
0.0
 40
0.0
 40
0.0
 40
0.060427873
 40
0.0952921858
 40
0.1342357362
 40
0.2261015607
 40
0.3384184912
 40
0.4720844007
 40
0.6272229766
 40
0.8034048184
 40
1.0
 40
1.0
 40
1.0
 40
1.0
 10
8.1564611751
 20
16.1142136011
 30
0.0
 10
8.1568177212
 20
16.1142141872
 30
0.0
 10
8.1573823353
 20
16.1140741484
 30
0.0
 10
8.1580818503
 20
16.1137016609
 30
0.0
 10
8.1588791552
 20
16.1131309365
 30
0.0
 10
8.1598984382
 20
16.1121104447
 30
0.0
 10
8.1611122269
 20
16.1105253312
 30
0.0
 10
8.1623744132
 20
16.1085201539
 30
0.0
 10
8.1636792665
 20
16.1061051356
 30
0.0
 10
8.16502014
 20
16.1032924767
 30
0.0
 10
8.1658864189
 20
16.1012701318
 30
0.0
 10
8.1663263597
 20
16.1001968126
 30
0.0
  0
SPLINE
  5
590
100
AcDbEntity
  8
0
100
AcDbSpline
 62
7
  6
CONTINUOUS
 70
0
 71
3
 72
13
 73
9
 74
0
 42
0.0000001
 43
0.0000001
 44
0.0000000001
 40
0.0
 40
0.0
 40
0.0
 40
0.0
 40
0.0912119757
 40
0.1879427499
 40
0.2930671552
 40
0.4087181777
 40
0.6768720758
 40
1.0
 40
1.0
 40
1.0
 40
1.0
 10
8.1604331677
 20
16.4485200167
 30
0.0
 10
8.1606657896
 20
16.4485201552
 30
0.0
 10
8.1611462577
 20
16.4484695855
 30
0.0
 10
8.1618646937
 20
16.4482504424
 30
0.0
 10
8.1625931394
 20
16.447889852
 30
0.0
 10
8.1636281718
 20
16.4471890777
 30
0.0
 10
8.1649364654
 20
16.4459320301
 30
0.0
 10
8.165864399
 20
16.4447391932
 30
0.0
 10
8.1663394135
 20
16.4440657832
 30
0.0
  0
SPLINE
  5
591
100
AcDbEntity
  8
0
100
AcDbSpline
 62
7
  6
CONTINUOUS
 70
0
 71
3
 72
19
 73
15
 74
0
 42
0.0000001
 43
0.0000001
 44
0.0000000001
 40
0.0
 40
0.0
 40
0.0
 40
0.0
 40
0.0195786486
 40
0.0427113387
 40
0.07087736
 40
0.1048779761
 40
0.1451302021
 40
0.1918007032
 40
0.2449327114
 40
0.3045064575
 40
0.4427131469
 40
0.6056399135
 40
0.7919175781
 40
1.0
 40
1.0
 40
1.0
 40
1.0
 10
8.1122210056
 20
16.1334125493
 30
0.0
 10
8.1123672114
 20
16.1334123191
 30
0.0
 10
8.1126868878
 20
16.1333429746
 30
0.0
 10
8.1131494194
 20
16.1330756347
 30
0.0
 10
8.1136281949
 20
16.1326511439
 30
0.0
 10
8.1141263522
 20
16.1320686708
 30
0.0
 10
8.1146448731
 20
16.1313281623
 30
0.0
 10
8.1151834715
 20
16.130430898
 30
0.0
 10
8.1157411972
 20
16.1293790162
 30
0.0
 10
8.1165492392
 20
16.1276880231
 30
0.0
 10
8.1175841306
 20
16.1251993796
 30
0.0
 10
8.1188295934
 20
16.1217785079
 30
0.0
 10
8.1201201468
 20
16.1178213789
 30
0.0
 10
8.1209578451
 20
16.1149977633
 30
0.0
 10
8.1213838984
 20
16.1135034322
 30
0.0
  0
SPLINE
  5
592
100
AcDbEntity
  8
0
100
AcDbSpline
 62
7
  6
CONTINUOUS
 70
0
 71
3
 72
11
 73
7
 74
0
 42
0.0000001
 43
0.0000001
 44
0.0000000001
 40
0.0
 40
0.0
 40
0.0
 40
0.0
 40
0.2405312915
 40
0.493471978
 40
0.749824464
 40
1.0
 40
1.0
 40
1.0
 40
1.0
 10
8.132888319
 20
16.6684000291
 30
0.0
 10
8.1335979994
 20
16.6641532616
 30
0.0
 10
8.1348619277
 20
16.6554079015
 30
0.0
 10
8.1362910152
 20
16.6420591996
 30
0.0
 10
8.1372627232
 20
16.6284963197
 30
0.0
 10
8.137585657
 20
16.6194323505
 30
0.0
 10
8.1376543338
 20
16.6149545825
 30
0.0
  0
LINE
  5
593
100
AcDbEntity
  8
0
100
AcDbLine
 62
7
  6
CONTINUOUS
 10
8.1650661496
 20
16.8378276679
 11
8.1663514782
 21
16.8376339313
  0
SPLINE
  5
594
100
AcDbEntity
  8
0
100
AcDbSpline
 62
7
  6
CONTINUOUS
 70
0
 71
3
 72
15
 73
11
 74
0
 42
0.0000001
 43
0.0000001
 44
0.0000000001
 40
0.0
 40
0.0
 40
0.0
 40
0.0
 40
0.0702028497
 40
0.1484769385
 40
0.2410828765
 40
0.3517226496
 40
0.4824096392
 40
0.6339587175
 40
0.8065358236
 40
1.0
 40
1.0
 40
1.0
 40
1.0
 10
8.1253277909
 20
17.4264816889
 30
0.0
 10
8.1256787677
 20
17.4264818273
 30
0.0
 10
8.1264262767
 20
17.4263329515
 30
0.0
 10
8.127473288
 20
17.425703381
 30
0.0
 10
8.1284751329
 20
17.4247013757
 30
0.0
 10
8.1294414568
 20
17.4233332006
 30
0.0
 10
8.1303734767
 20
17.4216003485
 30
0.0
 10
8.1312696084
 20
17.4195081523
 30
0.0
 10
8.1321256763
 20
17.4170646027
 30
0.0
 10
8.1326373989
 20
17.4153067316
 30
0.0
 10
8.132888319
 20
17.4143726282
 30
0.0
  0
SPLINE
  5
595
100
AcDbEntity
  8
0
100
AcDbSpline
 62
7
  6
CONTINUOUS
 70
0
 71
3
 72
13
 73
9
 74
0
 42
0.0000001
 43
0.0000001
 44
0.0000000001
 40
0.0
 40
0.0
 40
0.0
 40
0.0
 40
0.0924907214
 40
0.1964714635
 40
0.3110432031
 40
0.4351635588
 40
0.7070258308
 40
1.0
 40
1.0
 40
1.0
 40
1.0
 10
8.132888319
 20
17.4143726282
 30
0.0
 10
8.1332870693
 20
17.4128881958
 30
0.0
 10
8.1340306806
 20
17.4097069199
 30
0.0
 10
8.1349686894
 20
17.4046223196
 30
0.0
 10
8.1357845095
 20
17.3989850702
 30
0.0
 10
8.136723108
 20
17.3905512841
 30
0.0
 10
8.1374929272
 20
17.3791222228
 30
0.0
 10
8.1376913626
 20
17.3697342773
 30
0.0
 10
8.1376913626
 20
17.3648654892
 30
0.0
  0
SPLINE
  5
596
100
AcDbEntity
  8
0
100
AcDbSpline
 62
7
  6
CONTINUOUS
 70
0
 71
3
 72
16
 73
12
 74
0
 42
0.0000001
 43
0.0000001
 44
0.0000000001
 40
0.0
 40
0.0
 40
0.0
 40
0.0
 40
0.0326569394
 40
0.066163428
 40
0.1402944359
 40
0.2300833135
 40
0.3396034374
 40
0.4709433553
 40
0.6248511139
 40
0.8013116568
 40
1.0
 40
1.0
 40
1.0
 40
1.0
 10
8.1289108535
 20
17.7794022585
 30
0.0
 10
8.1290779032
 20
17.7794024036
 30
0.0
 10
8.1294174592
 20
17.7793671804
 30
0.0
 10
8.1301047769
 20
17.7791451711
 30
0.0
 10
8.1309510992
 20
17.7785578169
 30
0.0
 10
8.1318558476
 20
17.7774791939
 30
0.0
 10
8.1327067345
 20
17.7760106077
 30
0.0
 10
8.1335020604
 20
17.7741508748
 30
0.0
 10
8.1342413858
 20
17.7719055598
 30
0.0
 10
8.1349205235
 20
17.7692844428
 30
0.0
 10
8.1353073937
 20
17.7674040671
 30
0.0
 10
8.135492775
 20
17.7664047685
 30
0.0
  0
SPLINE
  5
597
100
AcDbEntity
  8
0
100
AcDbSpline
 62
7
  6
CONTINUOUS
 70
0
 71
3
 72
11
 73
7
 74
0
 42
0.0000001
 43
0.0000001
 44
0.0000000001
 40
0.0
 40
0.0
 40
0.0
 40
0.0
 40
0.2060584878
 40
0.4443702875
 40
0.7109991533
 40
1.0
 40
1.0
 40
1.0
 40
1.0
 10
8.135492775
 20
17.7664047685
 30
0.0
 10
8.1358794467
 20
17.7643204127
 30
0.0
 10
8.1365349376
 20
17.7597922371
 30
0.0
 10
8.1372019462
 20
17.7525058216
 30
0.0
 10
8.1376055084
 20
17.7443457534
 30
0.0
 10
8.1376913626
 20
17.7386289865
 30
0.0
 10
8.1376913626
 20
17.7356557617
 30
0.0
  0
SPLINE
  5
598
100
AcDbEntity
  8
0
100
AcDbSpline
 62
7
  6
CONTINUOUS
 70
0
 71
3
 72
16
 73
12
 74
0
 42
0.0000001
 43
0.0000001
 44
0.0000000001
 40
0.0
 40
0.0
 40
0.0
 40
0.0
 40
0.0712879299
 40
0.1510950684
 40
0.2450439208
 40
0.356491637
 40
0.4194187166
 40
0.4872924189
 40
0.6380632425
 40
0.8090065185
 40
1.0
 40
1.0
 40
1.0
 40
1.0
 10
8.1216232162
 20
17.0611111143
 30
0.0
 10
8.1219634807
 20
17.0611109402
 30
0.0
 10
8.1226886502
 20
17.0609716327
 30
0.0
 10
8.1237207363
 20
17.0603926872
 30
0.0
 10
8.1247315917
 20
17.0594686643
 30
0.0
 10
8.1255273958
 20
17.0584599634
 30
0.0
 10
8.1261645641
 20
17.0574947214
 30
0.0
 10
8.1268468474
 20
17.0563361668
 30
0.0
 10
8.1276813124
 20
17.0546720766
 30
0.0
 10
8.1286316185
 20
17.0524155786
 30
0.0
 10
8.1292170951
 20
17.0507894043
 30
0.0
 10
8.1295081025
 20
17.0499254677
 30
0.0
  0
SPLINE
  5
599
100
AcDbEntity
  8
0
100
AcDbSpline
 62
7
  6
CONTINUOUS
 70
0
 71
3
 72
15
 73
11
 74
0
 42
0.0000001
 43
0.0000001
 44
0.0000000001
 40
0.0
 40
0.0
 40
0.0
 40
0.0
 40
0.0889351465
 40
0.1919440276
 40
0.3075833626
 40
0.4339187173
 40
0.5688044037
 40
0.7098817849
 40
0.8546329936
 40
1.0
 40
1.0
 40
1.0
 40
1.0
 10
8.1295081025
 20
17.0499254677
 30
0.0
 10
8.1301455119
 20
17.0480331397
 30
0.0
 10
8.131340676
 20
17.0438880904
 30
0.0
 10
8.1328653385
 20
17.0371500149
 30
0.0
 10
8.1342241131
 20
17.0295220336
 30
0.0
 10
8.1353933227
 20
17.0211401541
 30
0.0
 10
8.136345762
 20
17.0121565159
 30
0.0
 10
8.1370632397
 20
17.0027364975
 30
0.0
 10
8.1375267318
 20
16.9930651106
 30
0.0
 10
8.1376617969
 20
16.9865517278
 30
0.0
 10
8.1376836569
 20
16.9832879809
 30
0.0
  0
SPLINE
  5
59A
100
AcDbEntity
  8
0
100
AcDbSpline
 62
7
  6
CONTINUOUS
 70
0
 71
3
 72
10
 73
6
 74
0
 42
0.0000001
 43
0.0000001
 44
0.0000000001
 40
0.0
 40
0.0
 40
0.0
 40
0.0
 40
0.3703751084
 40
0.6488329567
 40
1.0
 40
1.0
 40
1.0
 40
1.0
 10
8.1103697689
 20
15.9507289566
 30
0.0
 10
8.1105556232
 20
15.9507287754
 30
0.0
 10
8.1108557363
 20
15.9505206128
 30
0.0
 10
8.1111796699
 20
15.9501498494
 30
0.0
 10
8.1113612735
 20
15.9498874147
 30
0.0
 10
8.1114560636
 20
15.9497388656
 30
0.0
  0
SPLINE
  5
59B
100
AcDbEntity
  8
0
100
AcDbSpline
 62
7
  6
CONTINUOUS
 70
0
 71
3
 72
14
 73
10
 74
0
 42
0.0000001
 43
0.0000001
 44
0.0000000001
 40
0.0
 40
0.0
 40
0.0
 40
0.0
 40
0.0634260481
 40
0.1452666442
 40
0.2452979598
 40
0.3631449447
 40
0.4983109725
 40
0.6500549907
 40
1.0
 40
1.0
 40
1.0
 40
1.0
 10
8.1114560636
 20
15.9497388656
 30
0.0
 10
8.1116673905
 20
15.9494076874
 30
0.0
 10
8.1120942567
 20
15.9486133346
 30
0.0
 10
8.1127166111
 20
15.9472268833
 30
0.0
 10
8.1133956702
 20
15.9454984057
 30
0.0
 10
8.1141267283
 20
15.943437226
 30
0.0
 10
8.1149047301
 20
15.9410537101
 30
0.0
 10
8.1160556007
 20
15.9372805
 30
0.0
 10
8.1168908751
 20
15.9342869043
 30
0.0
 10
8.1174534999
 20
15.9321936494
 30
0.0
  0
SPLINE
  5
59C
100
AcDbEntity
  8
0
100
AcDbSpline
 62
7
  6
CONTINUOUS
 70
0
 71
3
 72
13
 73
9
 74
0
 42
0.0000001
 43
0.0000001
 44
0.0000000001
 40
0.0
 40
0.0
 40
0.0
 40
0.0
 40
0.1001696177
 40
0.2122111016
 40
0.3339298026
 40
0.4629149487
 40
0.7325585074
 40
1.0
 40
1.0
 40
1.0
 40
1.0
 10
8.1174534999
 20
15.9321936494
 30
0.0
 10
8.1181113964
 20
15.9297459346
 30
0.0
 10
8.1194456121
 20
15.924544355
 30
0.0
 10
8.1214078468
 20
15.9163256506
 30
0.0
 10
8.1234111994
 20
15.9073681262
 30
0.0
 10
8.1261284511
 20
15.8944849843
 30
0.0
 10
8.1293365168
 20
15.8779382895
 30
0.0
 10
8.1316484784
 20
15.8645452637
 30
0.0
 10
8.1327189436
 20
15.8578634057
 30
0.0
  0
SPLINE
  5
59D
100
AcDbEntity
  8
0
100
AcDbSpline
 62
9
  6
CONTINUOUS
 70
0
 71
3
 72
28
 73
24
 74
0
 42
0.0000001
 43
0.0000001
 44
0.0000000001
 40
0.0
 40
0.0
 40
0.0
 40
0.0
 40
0.082710931
 40
0.1522129248
 40
0.2084095741
 40
0.2513757707
 40
0.2680754825
 40
0.2818147967
 40
0.2929533986
 40
0.3021578984
 40
0.3105647753
 40
0.3196130273
 40
0.3304874555
 40
0.3438952788
 40
0.3602179836
 40
0.3796681895
 40
0.4283930731
 40
0.4906588892
 40
0.5667321675
 40
0.6565106058
 40
0.759236892
 40
0.8740327686
 40
1.0
 40
1.0
 40
1.0
 40
1.0
 10
8.0037431452
 20
16.3511145211
 30
0.0
 10
8.0039069426
 20
16.3505448087
 30
0.0
 10
8.0042227222
 20
16.349500409
 30
0.0
 10
8.0047118649
 20
16.3480882986
 30
0.0
 10
8.0051736022
 20
16.3469706755
 30
0.0
 10
8.0055585192
 20
16.34623164
 30
0.0
 10
8.0058633529
 20
16.3458017257
 30
0.0
 10
8.0060658531
 20
16.3455815635
 30
0.0
 10
8.0062634634
 20
16.3454345391
 30
0.0
 10
8.00646152
 20
16.3453628227
 30
0.0
 10
8.0066582943
 20
16.3453782464
 30
0.0
 10
8.0068393652
 20
16.3454804583
 30
0.0
 10
8.0070037137
 20
16.3456568721
 30
0.0
 10
8.0071573278
 20
16.3459054465
 30
0.0
 10
8.007302082
 20
16.3462275718
 30
0.0
 10
8.0074987055
 20
16.3468009874
 30
0.0
 10
8.0077094549
 20
16.3477138068
 30
0.0
 10
8.0079143602
 20
16.3490392262
 30
0.0
 10
8.0080821515
 20
16.3506661117
 30
0.0
 10
8.0082117895
 20
16.3525868834
 30
0.0
 10
8.0083046137
 20
16.3547875432
 30
0.0
 10
8.0083612184
 20
16.3572487995
 30
0.0
 10
8.0083748369
 20
16.358974364
 30
0.0
 10
8.0083766247
 20
16.3598771729
 30
0.0
  0
SPLINE
  5
59E
100
AcDbEntity
  8
0
100
AcDbSpline
 62
9
  6
CONTINUOUS
 70
0
 71
3
 72
35
 73
31
 74
0
 42
0.0000001
 43
0.0000001
 44
0.0000000001
 40
0.0
 40
0.0
 40
0.0
 40
0.0
 40
0.0140490241
 40
0.0319283338
 40
0.0535006409
 40
0.0785903244
 40
0.1384712657
 40
0.2096015243
 40
0.2896566419
 40
0.3760568484
 40
0.46605024
 40
0.5567781054
 40
0.64537609
 40
0.7290360986
 40
0.7681842821
 40
0.8051171887
 40
0.8395481894
 40
0.8712042538
 40
0.8998276668
 40
0.925193825
 40
0.9470903465
 40
0.9653448453
 40
0.9798073552
 40
0.9855835801
 40
0.9903775935
 40
0.9941851552
 40
0.9970150119
 40
0.9980734901
 40
0.9989064919
 40
1.0
 40
1.0
 40
1.0
 40
1.0
 10
7.9966798469
 20
18.113798297
 30
0.0
 10
7.9966798503
 20
18.1131382943
 30
0.0
 10
7.996640064
 20
18.1116384428
 30
0.0
 10
7.9965073469
 20
18.1091284694
 30
0.0
 10
7.9962926156
 20
18.1061038788
 30
0.0
 10
7.995873145
 20
18.1011161669
 30
0.0
 10
7.9951461822
 20
18.0938185095
 30
0.0
 10
7.9940388358
 20
18.0839647982
 30
0.0
 10
7.9926839204
 20
18.0728857566
 30
0.0
 10
7.9911251624
 20
18.0609393231
 30
0.0
 10
7.9894119439
 20
18.0485077381
 30
0.0
 10
7.9875989085
 20
18.0359859868
 30
0.0
 10
7.985743769
 20
18.0237712678
 30
0.0
 10
7.9841789324
 20
18.0139636437
 30
0.0
 10
7.9829471127
 20
18.0065610043
 30
0.0
 10
7.9820697251
 20
18.0014439584
 30
0.0
 10
7.981225354
 20
17.9966784274
 30
0.0
 10
7.9804207959
 20
17.9923023772
 30
0.0
 10
7.9796624534
 20
17.9883509287
 30
0.0
 10
7.9789568393
 20
17.9848563759
 30
0.0
 10
7.9783099663
 20
17.9818470845
 30
0.0
 10
7.9777274836
 20
17.9793483028
 30
0.0
 10
7.9772734163
 20
17.9775974515
 30
0.0
 10
7.9769386009
 20
17.9764699559
 30
0.0
 10
7.9767263615
 20
17.9758286225
 30
0.0
 10
7.9765333887
 20
17.9753269498
 30
0.0
 10
7.9763801483
 20
17.974999457
 30
0.0
 10
7.9762608726
 20
17.9748104208
 30
0.0
 10
7.9761748176
 20
17.9747033006
 30
0.0
 10
7.9760922434
 20
17.974642434
 30
0.0
 10
7.976040872
 20
17.9746424605
 30
0.0
  0
SPLINE
  5
59F
100
AcDbEntity
  8
0
100
AcDbSpline
 62
9
  6
CONTINUOUS
 70
0
 71
3
 72
13
 73
9
 74
0
 42
0.0000001
 43
0.0000001
 44
0.0000000001
 40
0.0
 40
0.0
 40
0.0
 40
0.0
 40
0.2766797439
 40
0.5224089718
 40
0.6325573938
 40
0.7470985641
 40
0.8700521967
 40
1.0
 40
1.0
 40
1.0
 40
1.0
 10
7.9966798469
 20
18.113798297
 30
0.0
 10
7.9982096177
 20
18.1137975973
 30
0.0
 10
8.0011285706
 20
18.1143493514
 30
0.0
 10
8.0041715995
 20
18.1162141629
 30
0.0
 10
8.0059861829
 20
18.1180904258
 30
0.0
 10
8.0070859111
 20
18.1196782877
 30
0.0
 10
8.0079395859
 20
18.1215336085
 30
0.0
 10
8.0082754805
 20
18.1229020191
 30
0.0
 10
8.0083779092
 20
18.1236131659
 30
0.0
  0
SPLINE
  5
5A0
100
AcDbEntity
  8
0
100
AcDbSpline
 62
9
  6
CONTINUOUS
 70
0
 71
3
 72
25
 73
21
 74
0
 42
0.0000001
 43
0.0000001
 44
0.0000000001
 40
0.0
 40
0.0
 40
0.0
 40
0.0
 40
0.1135568644
 40
0.2130969495
 40
0.2985062616
 40
0.3696872823
 40
0.4692514218
 40
0.498363027
 40
0.5161056709
 40
0.5234967617
 40
0.5321915418
 40
0.5434332027
 40
0.5577880496
 40
0.5755008035
 40
0.5966793321
 40
0.6495707841
 40
0.7165300068
 40
0.7974091702
 40
0.8919853043
 40
1.0
 40
1.0
 40
1.0
 40
1.0
 10
8.0068657069
 20
18.1235611047
 30
0.0
 10
8.0069234618
 20
18.1237975547
 30
0.0
 10
8.0070348612
 20
18.1242405925
 30
0.0
 10
8.0072024544
 20
18.1248579449
 30
0.0
 10
8.0073589944
 20
18.1253847579
 30
0.0
 10
8.0075340063
 20
18.1259035391
 30
0.0
 10
8.0076951305
 20
18.1263075712
 30
0.0
 10
8.0078652925
 20
18.1265665468
 30
0.0
 10
8.0079709688
 20
18.1266409745
 30
0.0
 10
8.0080454296
 20
18.1266232206
 30
0.0
 10
8.0080897803
 20
18.1265827531
 30
0.0
 10
8.0081291692
 20
18.1265202612
 30
0.0
 10
8.0081653619
 20
18.1264344598
 30
0.0
 10
8.0081987115
 20
18.1263251942
 30
0.0
 10
8.0082426882
 20
18.1261333183
 30
0.0
 10
8.0082869905
 20
18.125833937
 30
0.0
 10
8.0083265504
 20
18.1254054262
 30
0.0
 10
8.0083549648
 20
18.1248865025
 30
0.0
 10
8.0083723161
 20
18.1242791105
 30
0.0
 10
8.0083762029
 20
18.1238448618
 30
0.0
 10
8.0083766247
 20
18.1236133401
 30
0.0
  0
LINE
  5
5A1
100
AcDbEntity
  8
0
100
AcDbLine
 62
9
  6
CONTINUOUS
 10
7.9966799755
 20
18.1489745697
 11
7.9921960256
 21
18.1172675307
  0
LINE
  5
5A2
100
AcDbEntity
  8
0
100
AcDbLine
 62
9
  6
CONTINUOUS
 10
7.9921960256
 20
18.1172675307
 11
7.9921043754
 21
18.1166390967
  0
SPLINE
  5
5A3
100
AcDbEntity
  8
0
100
AcDbSpline
 62
9
  6
CONTINUOUS
 70
0
 71
3
 72
31
 73
27
 74
0
 42
0.0000001
 43
0.0000001
 44
0.0000000001
 40
0.0
 40
0.0
 40
0.0
 40
0.0
 40
0.0799920192
 40
0.1459758074
 40
0.1737146095
 40
0.1979584257
 40
0.2187241579
 40
0.2360457967
 40
0.2499911553
 40
0.2607036617
 40
0.268522753
 40
0.2743437559
 40
0.2800905809
 40
0.2877339046
 40
0.2982181128
 40
0.3119065142
 40
0.3289544914
 40
0.3494375213
 40
0.3733955663
 40
0.4008507428
 40
0.4662916639
 40
0.5457400759
 40
0.6390322915
 40
0.7459761298
 40
0.8663684945
 40
1.0
 40
1.0
 40
1.0
 40
1.0
 10
7.9873908264
 20
17.9645348979
 30
0.0
 10
7.987390821
 20
17.9642362356
 30
0.0
 10
7.9873960106
 20
17.9636911923
 30
0.0
 10
7.9874206695
 20
17.9630429039
 30
0.0
 10
7.9874527599
 20
17.9626035813
 30
0.0
 10
7.9874804084
 20
17.9623333293
 30
0.0
 10
7.9875129004
 20
17.9621028012
 30
0.0
 10
7.9875502281
 20
17.9619120436
 30
0.0
 10
7.9875919998
 20
17.9617606907
 30
0.0
 10
7.9876388678
 20
17.9616484276
 30
0.0
 10
7.9876903727
 20
17.9615721507
 30
0.0
 10
7.9877575695
 20
17.9615337624
 30
0.0
 10
7.987832342
 20
17.9615513917
 30
0.0
 10
7.9879007285
 20
17.9616106543
 30
0.0
 10
7.9879728982
 20
17.9617054419
 30
0.0
 10
7.9880495289
 20
17.9618392755
 30
0.0
 10
7.988131309
 20
17.9620122494
 30
0.0
 10
7.9882179934
 20
17.9622249318
 30
0.0
 10
7.9883095663
 20
17.9624773136
 30
0.0
 10
7.9884461772
 20
17.9628917191
 30
0.0
 10
7.988625837
 20
17.9635097837
 30
0.0
 10
7.9888494398
 20
17.9643705668
 30
0.0
 10
7.9890910592
 20
17.9653865356
 30
0.0
 10
7.9893500847
 20
17.9665553258
 30
0.0
 10
7.9896258585
 20
17.9678745633
 30
0.0
 10
7.9898109397
 20
17.9688047801
 30
0.0
 10
7.989906439
 20
17.9692944887
 30
0.0
  0
SPLINE
  5
5A4
100
AcDbEntity
  8
0
100
AcDbSpline
 62
9
  6
CONTINUOUS
 70
0
 71
3
 72
19
 73
15
 74
0
 42
0.0000001
 43
0.0000001
 44
0.0000000001
 40
0.0
 40
0.0
 40
0.0
 40
0.0
 40
0.0376366942
 40
0.0840082299
 40
0.1382446346
 40
0.1993284076
 40
0.3374187944
 40
0.4881983121
 40
0.6406918873
 40
0.7837078153
 40
0.8482903173
 40
0.9065919592
 40
0.9574737691
 40
1.0
 40
1.0
 40
1.0
 40
1.0
 10
7.989906439
 20
17.9692944887
 30
0.0
 10
7.9902610959
 20
17.9711131265
 30
0.0
 10
7.9909990722
 20
17.9751828917
 30
0.0
 10
7.9921182886
 20
17.9818962734
 30
0.0
 10
7.9933466734
 20
17.9897613128
 30
0.0
 10
7.995175019
 20
18.0021023843
 30
0.0
 10
7.9975330258
 20
18.0191692786
 30
0.0
 10
8.0003010135
 20
18.0407213428
 30
0.0
 10
8.0029066427
 20
18.0625378746
 30
0.0
 10
8.0048462462
 20
18.0801595494
 30
0.0
 10
8.006161256
 20
18.0931839679
 30
0.0
 10
8.0069606945
 20
18.1017013236
 30
0.0
 10
8.007592355
 20
18.1091434947
 30
0.0
 10
8.0079269591
 20
18.1137301056
 30
0.0
 10
8.0080583062
 20
18.1158195951
 30
0.0
  0
LINE
  5
5A5
100
AcDbEntity
  8
0
100
AcDbLine
 62
9
  6
CONTINUOUS
 10
8.0080583062
 20
18.1158195951
 11
8.0083766247
 21
18.1236133401
  0
SPLINE
  5
5A6
100
AcDbEntity
  8
0
100
AcDbSpline
 62
9
  6
CONTINUOUS
 70
0
 71
3
 72
22
 73
18
 74
0
 42
0.0000001
 43
0.0000001
 44
0.0000000001
 40
0.0
 40
0.0
 40
0.0
 40
0.0
 40
0.0080931253
 40
0.016545162
 40
0.0258027889
 40
0.0362079955
 40
0.0612924385
 40
0.092948074
 40
0.1316519799
 40
0.1775638502
 40
0.2306845725
 40
0.2909335117
 40
0.3581367232
 40
0.4320815304
 40
0.5990931497
 40
0.7894223097
 40
1.0
 40
1.0
 40
1.0
 40
1.0
 10
7.9915021971
 20
17.7033786255
 30
0.0
 10
7.9915997279
 20
17.703378304
 30
0.0
 10
7.9917999422
 20
17.7033517757
 30
0.0
 10
7.9920908034
 20
17.7032342676
 30
0.0
 10
7.9923722134
 20
17.7030417187
 30
0.0
 10
7.9927593742
 20
17.7026634079
 30
0.0
 10
7.993212866
 20
17.7019847088
 30
0.0
 10
7.9936961406
 20
17.7009387537
 30
0.0
 10
7.9941498413
 20
17.6996109253
 30
0.0
 10
7.9945721754
 20
17.6980047391
 30
0.0
 10
7.9949611869
 20
17.6961243165
 30
0.0
 10
7.9953144326
 20
17.6939766067
 30
0.0
 10
7.9956304811
 20
17.6915698579
 30
0.0
 10
7.9960153764
 20
17.6878758366
 30
0.0
 10
7.9963762232
 20
17.6826894141
 30
0.0
 10
7.9966286457
 20
17.6758492058
 30
0.0
 10
7.9966798606
 20
17.6710175274
 30
0.0
 10
7.9966798558
 20
17.6684798288
 30
0.0
  0
SPLINE
  5
5A7
100
AcDbEntity
  8
0
100
AcDbSpline
 62
9
  6
CONTINUOUS
 70
0
 71
3
 72
11
 73
7
 74
0
 42
0.0000001
 43
0.0000001
 44
0.0000000001
 40
0.0
 40
0.0
 40
0.0
 40
0.0
 40
0.4473224684
 40
0.6736376392
 40
0.7486541218
 40
1.0
 40
1.0
 40
1.0
 40
1.0
 10
8.0083766248
 20
18.1591561496
 30
0.0
 10
8.0083765928
 20
18.1591617658
 30
0.0
 10
8.0083751074
 20
18.1591684207
 30
0.0
 10
8.0083768438
 20
18.1591818188
 30
0.0
 10
8.0083684604
 20
18.1591813162
 30
0.0
 10
8.0083685285
 20
18.1591755443
 30
0.0
 10
8.008367499
 20
18.1591725613
 30
0.0
  0
LINE
  5
5A8
100
AcDbEntity
  8
0
100
AcDbLine
 62
9
  6
CONTINUOUS
 10
8.008367499
 20
18.1591725613
 11
8.0080684059
 21
18.1572553203
  0
LINE
  5
5A9
100
AcDbEntity
  8
0
100
AcDbLine
 62
9
  6
CONTINUOUS
 10
8.0035128142
 20
18.1191295758
 11
8.0035747742
 21
18.1196245714
  0
LINE
  5
5AA
100
AcDbEntity
  8
0
100
AcDbLine
 62
9
  6
CONTINUOUS
 10
8.0035747742
 20
18.1196245714
 11
8.0040492078
 21
18.1234190663
  0
LINE
  5
5AB
100
AcDbEntity
  8
0
100
AcDbLine
 62
9
  6
CONTINUOUS
 10
8.0070561217
 20
18.147739201
 11
8.0080355106
 21
18.1559307963
  0
LINE
  5
5AC
100
AcDbEntity
  8
0
100
AcDbLine
 62
9
  6
CONTINUOUS
 10
8.0080355106
 20
18.1559307963
 11
8.0083766248
 21
18.1591561496
  0
SPLINE
  5
5AD
100
AcDbEntity
  8
0
100
AcDbSpline
 62
9
  6
CONTINUOUS
 70
0
 71
3
 72
24
 73
20
 74
0
 42
0.0000001
 43
0.0000001
 44
0.0000000001
 40
0.0
 40
0.0
 40
0.0
 40
0.0
 40
0.0076947247
 40
0.0158804338
 40
0.0250444894
 40
0.0355337597
 40
0.0475669447
 40
0.061279184
 40
0.0940234344
 40
0.1341240596
 40
0.1816705381
 40
0.2365771491
 40
0.2985548167
 40
0.3672607312
 40
0.442332038
 40
0.5233850049
 40
0.6099342524
 40
0.7973193519
 40
1.0
 40
1.0
 40
1.0
 40
1.0
 10
7.9891543714
 20
17.5009741504
 30
0.0
 10
7.9892889116
 20
17.5009738278
 30
0.0
 10
7.9895679056
 20
17.5009327916
 30
0.0
 10
7.989971832
 20
17.5007527242
 30
0.0
 10
7.9903637987
 20
17.5004588073
 30
0.0
 10
7.9907452503
 20
17.5000542972
 30
0.0
 10
7.9911181377
 20
17.4995404807
 30
0.0
 10
7.9916351959
 20
17.4986567115
 30
0.0
 10
7.9922422832
 20
17.4972655253
 30
0.0
 10
7.9928997749
 20
17.4952641539
 30
0.0
 10
7.9935172055
 20
17.4928477281
 30
0.0
 10
7.9940897458
 20
17.4900294405
 30
0.0
 10
7.9946144191
 20
17.48682649
 30
0.0
 10
7.9950871702
 20
17.4832596483
 30
0.0
 10
7.9955042924
 20
17.4793503679
 30
0.0
 10
7.9958618345
 20
17.4751220642
 30
0.0
 10
7.9962669273
 20
17.468928115
 30
0.0
 10
7.9965982399
 20
17.4605997655
 30
0.0
 10
7.9966794076
 20
17.4537791833
 30
0.0
 10
7.996679
 20
17.4502353549
 30
0.0
  0
SPLINE
  5
5AE
100
AcDbEntity
  8
0
100
AcDbSpline
 62
9
  6
CONTINUOUS
 70
0
 71
3
 72
11
 73
7
 74
0
 42
0.0000001
 43
0.0000001
 44
0.0000000001
 40
0.0
 40
0.0
 40
0.0
 40
0.0
 40
0.1984547719
 40
0.4209047903
 40
0.6846847897
 40
1.0
 40
1.0
 40
1.0
 40
1.0
 10
7.9866200638
 20
17.2832946672
 30
0.0
 10
7.9868149649
 20
17.283294417
 30
0.0
 10
7.9872308439
 20
17.28321115
 30
0.0
 10
7.9878168343
 20
17.2828640736
 30
0.0
 10
7.9883849223
 20
17.2823121648
 30
0.0
 10
7.988723812
 20
17.2818529169
 30
0.0
 10
7.9888942709
 20
17.2815943849
 30
0.0
  0
SPLINE
  5
5AF
100
AcDbEntity
  8
0
100
AcDbSpline
 62
9
  6
CONTINUOUS
 70
0
 71
3
 72
18
 73
14
 74
0
 42
0.0000001
 43
0.0000001
 44
0.0000000001
 40
0.0
 40
0.0
 40
0.0
 40
0.0
 40
0.0252469398
 40
0.0564228217
 40
0.0936133229
 40
0.136701504
 40
0.1855067712
 40
0.239817126
 40
0.3637817625
 40
0.5055021685
 40
0.6614899667
 40
0.8277463411
 40
1.0
 40
1.0
 40
1.0
 40
1.0
 10
7.9888942709
 20
17.2815943849
 30
0.0
 10
7.9892044017
 20
17.2811240146
 30
0.0
 10
7.9897978146
 20
17.2800077297
 30
0.0
 10
7.9905758094
 20
17.278066938
 30
0.0
 10
7.9913281352
 20
17.2756942782
 30
0.0
 10
7.992050053
 20
17.2729046062
 30
0.0
 10
7.9927360417
 20
17.2697140734
 30
0.0
 10
7.9936348822
 20
17.2647261747
 30
0.0
 10
7.9946011917
 20
17.2576478057
 30
0.0
 10
7.9955107774
 20
17.2482802109
 30
0.0
 10
7.9961787215
 20
17.2379463713
 30
0.0
 10
7.9965892581
 20
17.226917677
 30
0.0
 10
7.9966794244
 20
17.219363133
 30
0.0
 10
7.996679
 20
17.2155191343
 30
0.0
  0
SPLINE
  5
5B0
100
AcDbEntity
  8
0
100
AcDbSpline
 62
9
  6
CONTINUOUS
 70
0
 71
3
 72
25
 73
21
 74
0
 42
0.0000001
 43
0.0000001
 44
0.0000000001
 40
0.0
 40
0.0
 40
0.0
 40
0.0
 40
0.1878043758
 40
0.3695598901
 40
0.4559066466
 40
0.5381004723
 40
0.6153076298
 40
0.6867518462
 40
0.7518237747
 40
0.8099588877
 40
0.860624606
 40
0.9034698682
 40
0.9219169895
 40
0.938371887
 40
0.9528500384
 40
0.9653958183
 40
0.9761064115
 40
0.9851826692
 40
0.9929682059
 40
1.0
 40
1.0
 40
1.0
 40
1.0
 10
7.9966799757
 20
17.2155193673
 30
0.0
 10
7.9966801093
 20
17.2107503295
 30
0.0
 10
7.9965397391
 20
17.2013653358
 30
0.0
 10
7.996018496
 20
17.189797836
 30
0.0
 10
7.9953886787
 20
17.1809244431
 30
0.0
 10
7.9948327895
 20
17.174708427
 30
0.0
 10
7.9941911553
 20
17.1688811762
 30
0.0
 10
7.9934691098
 20
17.1635016036
 30
0.0
 10
7.9926761994
 20
17.1586219859
 30
0.0
 10
7.9918222377
 20
17.1542889475
 30
0.0
 10
7.9909150619
 20
17.1505451617
 30
0.0
 10
7.9900874818
 20
17.1478223864
 30
0.0
 10
7.9893912558
 20
17.1459741922
 30
0.0
 10
7.9888880291
 20
17.1448248747
 30
0.0
 10
7.9883786758
 20
17.143844145
 30
0.0
 10
7.9878639989
 20
17.143033987
 30
0.0
 10
7.9873434959
 20
17.1423957262
 30
0.0
 10
7.9868152928
 20
17.1419295957
 30
0.0
 10
7.9862755174
 20
17.1416378553
 30
0.0
 10
7.9858978952
 20
17.1415663819
 30
0.0
 10
7.9857193425
 20
17.141564477
 30
0.0
  0
SPLINE
  5
5B1
100
AcDbEntity
  8
0
100
AcDbSpline
 62
9
  6
CONTINUOUS
 70
0
 71
3
 72
17
 73
13
 74
0
 42
0.0000001
 43
0.0000001
 44
0.0000000001
 40
0.0
 40
0.0
 40
0.0
 40
0.0
 40
0.2236976033
 40
0.4184101748
 40
0.584072122
 40
0.7207167667
 40
0.8285842153
 40
0.908420553
 40
0.9384909244
 40
0.9627468571
 40
0.98246905
 40
1.0
 40
1.0
 40
1.0
 40
1.0
 10
7.9966799759
 20
16.2583834131
 30
0.0
 10
7.996680007
 20
16.2580357383
 30
0.0
 10
7.9966743281
 20
16.2573854127
 30
0.0
 10
7.9966445697
 20
16.2564779925
 30
0.0
 10
7.9965944922
 20
16.2557070285
 30
0.0
 10
7.9965248837
 20
16.255072866
 30
0.0
 10
7.9964359468
 20
16.2545765304
 30
0.0
 10
7.9963407499
 20
16.2542497244
 30
0.0
 10
7.9962471982
 20
16.2540626086
 30
0.0
 10
7.9961779703
 20
16.2539696169
 30
0.0
 10
7.9961007279
 20
16.2539101208
 30
0.0
 10
7.9960421814
 20
16.2538963373
 30
0.0
 10
7.9960149346
 20
16.2538962822
 30
0.0
  0
SPLINE
  5
5B2
100
AcDbEntity
  8
0
100
AcDbSpline
 62
9
  6
CONTINUOUS
 70
0
 71
3
 72
13
 73
9
 74
0
 42
0.0000001
 43
0.0000001
 44
0.0000000001
 40
0.0
 40
0.0
 40
0.0
 40
0.0
 40
0.2798079376
 40
0.5266742938
 40
0.6365732326
 40
0.750334769
 40
0.8719269565
 40
1.0
 40
1.0
 40
1.0
 40
1.0
 10
7.9966798547
 20
16.2583834111
 30
0.0
 10
7.9982081403
 20
16.2583841033
 30
0.0
 10
8.0011139451
 20
16.2578524811
 30
0.0
 10
8.004163628
 20
16.2560423987
 30
0.0
 10
8.0059835584
 20
16.2542147444
 30
0.0
 10
8.0070838648
 20
16.2526718081
 30
0.0
 10
8.0079385618
 20
16.250868228
 30
0.0
 10
8.0082755444
 20
16.249535511
 30
0.0
 10
8.0083781093
 20
16.2488435475
 30
0.0
  0
SPLINE
  5
5B3
100
AcDbEntity
  8
0
100
AcDbSpline
 62
9
  6
CONTINUOUS
 70
0
 71
3
 72
15
 73
11
 74
0
 42
0.0000001
 43
0.0000001
 44
0.0000000001
 40
0.0
 40
0.0
 40
0.0
 40
0.0
 40
0.1385011917
 40
0.2798461976
 40
0.4205181412
 40
0.5577300825
 40
0.6877405398
 40
0.8055645135
 40
0.9104039024
 40
1.0
 40
1.0
 40
1.0
 40
1.0
 10
7.9985115717
 20
16.350333279
 30
0.0
 10
7.9990762175
 20
16.346073509
 30
0.0
 10
8.0001850121
 20
16.3374622299
 30
0.0
 10
8.0017644716
 20
16.3245114141
 30
0.0
 10
8.0032407312
 20
16.3115886696
 30
0.0
 10
8.0045937767
 20
16.2990061406
 30
0.0
 10
8.0057957518
 20
16.2871204433
 30
0.0
 10
8.006769687
 20
16.276221816
 30
0.0
 10
8.0075316007
 20
16.2665638325
 30
0.0
 10
8.0079364985
 20
16.2605446454
 30
0.0
 10
8.0080879245
 20
16.2577690344
 30
0.0
  0
LINE
  5
5B4
100
AcDbEntity
  8
0
100
AcDbLine
 62
9
  6
CONTINUOUS
 10
8.0080879245
 20
16.2577690344
 11
8.0083766248
 21
16.2488433535
  0
SPLINE
  5
5B5
100
AcDbEntity
  8
0
100
AcDbSpline
 62
9
  6
CONTINUOUS
 70
0
 71
3
 72
29
 73
25
 74
0
 42
0.0000001
 43
0.0000001
 44
0.0000000001
 40
0.0
 40
0.0
 40
0.0
 40
0.0
 40
0.0041673545
 40
0.007117794
 40
0.0107739917
 40
0.0151788987
 40
0.0203542659
 40
0.0263111714
 40
0.0330542519
 40
0.0488729773
 40
0.0677276293
 40
0.0895129032
 40
0.1141154868
 40
0.1712063912
 40
0.2375770987
 40
0.3116638604
 40
0.3916542092
 40
0.4756003301
 40
0.5614675599
 40
0.7304303032
 40
0.8093061858
 40
0.8816995134
 40
0.9458198177
 40
1.0
 40
1.0
 40
1.0
 40
1.0
 10
7.9775051195
 20
16.497540555
 30
0.0
 10
7.97768776
 20
16.497540017
 30
0.0
 10
7.9779842361
 20
16.4973629017
 30
0.0
 10
7.9782993077
 20
16.4970187836
 30
0.0
 10
7.9785802369
 20
16.496622563
 30
0.0
 10
7.9788701775
 20
16.4961203365
 30
0.0
 10
7.9791729315
 20
16.4955097535
 30
0.0
 10
7.9794866723
 20
16.4947917347
 30
0.0
 10
7.9799440697
 20
16.4936282838
 30
0.0
 10
7.9805307819
 20
16.4919097211
 30
0.0
 10
7.9812403337
 20
16.4895388801
 30
0.0
 10
7.981982154
 20
16.4867770903
 30
0.0
 10
7.9830618135
 20
16.4823720717
 30
0.0
 10
7.9844339862
 20
16.4760285233
 30
0.0
 10
7.9860630307
 20
16.467524746
 30
0.0
 10
7.9876992222
 20
16.4580022795
 30
0.0
 10
7.9893037697
 20
16.4476942927
 30
0.0
 10
7.9908351889
 20
16.4368534862
 30
0.0
 10
7.9927168808
 20
16.4221255191
 30
0.0
 10
7.994294852
 20
16.4075834698
 30
0.0
 10
7.9955033894
 20
16.3936004484
 30
0.0
 10
7.9961570117
 20
16.3841826943
 30
0.0
 10
7.9965655369
 20
16.3758346554
 30
0.0
 10
7.9966794629
 20
16.3706499621
 30
0.0
 10
7.996679
 20
16.368275425
 30
0.0
  0
SPLINE
  5
5B6
100
AcDbEntity
  8
0
100
AcDbSpline
 62
9
  6
CONTINUOUS
 70
0
 71
3
 72
17
 73
13
 74
0
 42
0.0000001
 43
0.0000001
 44
0.0000000001
 40
0.0
 40
0.0
 40
0.0
 40
0.0
 40
0.1998859022
 40
0.3847520347
 40
0.5465863824
 40
0.6814073608
 40
0.7898916581
 40
0.8823610372
 40
0.9218960152
 40
0.9553488135
 40
0.9816875219
 40
1.0
 40
1.0
 40
1.0
 40
1.0
 10
7.9966798551
 20
17.2155193468
 30
0.0
 10
7.9974605287
 20
17.215519331
 30
0.0
 10
7.9989632231
 20
17.2155258054
 30
0.0
 10
8.0010978172
 20
17.2155535356
 30
0.0
 10
8.0029780016
 20
17.2155956289
 30
0.0
 10
8.0045595016
 20
17.2156476721
 30
0.0
 10
8.0058695498
 20
17.2157075744
 30
0.0
 10
8.0068070969
 20
17.2157661735
 30
0.0
 10
8.0074509213
 20
17.2158215541
 30
0.0
 10
8.0078367418
 20
17.2158632326
 30
0.0
 10
8.0081384978
 20
17.2159070415
 30
0.0
 10
8.0083098778
 20
17.2159421738
 30
0.0
 10
8.0083781105
 20
17.2159636112
 30
0.0
  0
SPLINE
  5
5B7
100
AcDbEntity
  8
0
100
AcDbSpline
 62
9
  6
CONTINUOUS
 70
0
 71
3
 72
31
 73
27
 74
0
 42
0.0000001
 43
0.0000001
 44
0.0000000001
 40
0.0
 40
0.0
 40
0.0
 40
0.0
 40
0.0220750402
 40
0.041250392
 40
0.0575115292
 40
0.0709013315
 40
0.0815967604
 40
0.0900715373
 40
0.0937718839
 40
0.0973242762
 40
0.1009248384
 40
0.1047624295
 40
0.1089937073
 40
0.1137332292
 40
0.1250140603
 40
0.1389912179
 40
0.1558250215
 40
0.175581654
 40
0.1982771691
 40
0.2524243932
 40
0.3179422449
 40
0.3939011528
 40
0.4791766984
 40
0.5725502678
 40
0.7784524517
 40
1.0
 40
1.0
 40
1.0
 40
1.0
 10
7.9940573307
 20
17.2878304607
 30
0.0
 10
7.9942425949
 20
17.2884622681
 30
0.0
 10
7.9946118176
 20
17.2896364306
 30
0.0
 10
7.9952142855
 20
17.2912436613
 30
0.0
 10
7.9958241701
 20
17.2925679067
 30
0.0
 10
7.996441276
 20
17.2936051185
 30
0.0
 10
7.9970668037
 20
17.294354529
 30
0.0
 10
7.9976360764
 20
17.294756716
 30
0.0
 10
7.9980887247
 20
17.294894131
 30
0.0
 10
7.9984150909
 20
17.2949129817
 30
0.0
 10
7.9987402218
 20
17.2948516324
 30
0.0
 10
7.9990616352
 20
17.294711815
 30
0.0
 10
7.9993789802
 20
17.2944959643
 30
0.0
 10
7.9998235528
 20
17.2940845189
 30
0.0
 10
8.0003635598
 20
17.2933634943
 30
0.0
 10
8.000967722
 20
17.2922607432
 30
0.0
 10
8.0015624988
 20
17.2908727266
 30
0.0
 10
8.002145846
 20
17.2892024665
 30
0.0
 10
8.0029533055
 20
17.2864357075
 30
0.0
 10
8.0038854691
 20
17.2822895301
 30
0.0
 10
8.0048676081
 20
17.2765366511
 30
0.0
 10
8.0057555667
 20
17.2698307717
 30
0.0
 10
8.0065343691
 20
17.2622760542
 30
0.0
 10
8.0074409333
 20
17.2508414791
 30
0.0
 10
8.008190013
 20
17.2353215262
 30
0.0
 10
8.0083734439
 20
17.2225715035
 30
0.0
 10
8.0083766247
 20
17.2159636303
 30
0.0
  0
SPLINE
  5
5B8
100
AcDbEntity
  8
0
100
AcDbSpline
 62
9
  6
CONTINUOUS
 70
0
 71
3
 72
19
 73
15
 74
0
 42
0.0000001
 43
0.0000001
 44
0.0000000001
 40
0.0
 40
0.0
 40
0.0
 40
0.0
 40
0.2157990177
 40
0.4079476272
 40
0.5745476889
 40
0.7138690399
 40
0.7729914815
 40
0.8250138744
 40
0.8699307427
 40
0.9078088523
 40
0.9388542547
 40
0.9635729087
 40
0.9831641691
 40
1.0
 40
1.0
 40
1.0
 40
1.0
 10
7.9966799814
 20
16.5259621394
 30
0.0
 10
7.9966800509
 20
16.5241786655
 30
0.0
 10
7.9966466133
 20
16.5208070173
 30
0.0
 10
7.9964793088
 20
16.5160609334
 30
0.0
 10
7.9962011725
 20
16.5119532795
 30
0.0
 10
7.9958651559
 20
16.5089533258
 30
0.0
 10
7.9955278827
 20
16.5069105241
 30
0.0
 10
7.9952637514
 20
16.5056475891
 30
0.0
 10
7.9949756672
 20
16.5045704894
 30
0.0
 10
7.9946645473
 20
16.5036813556
 30
0.0
 10
7.9943309375
 20
16.5029805233
 30
0.0
 10
7.9939719899
 20
16.5024667682
 30
0.0
 10
7.993576512
 20
16.502136417
 30
0.0
 10
7.9932726608
 20
16.502056378
 30
0.0
 10
7.9931335215
 20
16.5020559697
 30
0.0
  0
SPLINE
  5
5B9
100
AcDbEntity
  8
0
100
AcDbSpline
 62
9
  6
CONTINUOUS
 70
0
 71
3
 72
14
 73
10
 74
0
 42
0.0000001
 43
0.0000001
 44
0.0000000001
 40
0.0
 40
0.0
 40
0.0
 40
0.0
 40
0.1622014289
 40
0.3148842986
 40
0.5754705781
 40
0.6831556877
 40
0.7884789592
 40
0.8943786472
 40
1.0
 40
1.0
 40
1.0
 40
1.0
 10
7.9966798551
 20
16.5259621239
 30
0.0
 10
7.9974622366
 20
16.5259623748
 30
0.0
 10
7.998983771
 20
16.5258619634
 30
0.0
 10
8.0017099471
 20
16.5253188421
 30
0.0
 10
8.0040754901
 20
16.5243604123
 30
0.0
 10
8.0059495207
 20
16.5230413151
 30
0.0
 10
8.0070531374
 20
16.521957833
 30
0.0
 10
8.0079193751
 20
16.5206845923
 30
0.0
 10
8.0082736281
 20
16.5197120671
 30
0.0
 10
8.0083781045
 20
16.5192134282
 30
0.0
  0
SPLINE
  5
5BA
100
AcDbEntity
  8
0
100
AcDbSpline
 62
9
  6
CONTINUOUS
 70
0
 71
3
 72
40
 73
36
 74
0
 42
0.0000001
 43
0.0000001
 44
0.0000000001
 40
0.0
 40
0.0
 40
0.0
 40
0.0
 40
0.0175948466
 40
0.025079349
 40
0.0316736889
 40
0.0373730988
 40
0.0421836741
 40
0.0461325846
 40
0.0492958839
 40
0.0518462367
 40
0.0541040054
 40
0.0565094947
 40
0.0594371643
 40
0.0631042465
 40
0.0676124312
 40
0.0730025088
 40
0.0792886703
 40
0.0864717305
 40
0.0945452004
 40
0.1133267845
 40
0.1355738531
 40
0.1612145989
 40
0.1901315233
 40
0.2221139791
 40
0.2569344068
 40
0.2943470848
 40
0.3340804435
 40
0.3758594778
 40
0.4644106095
 40
0.5576326531
 40
0.6528656788
 40
0.7473778541
 40
0.8385263477
 40
0.9235477781
 40
1.0
 40
1.0
 40
1.0
 40
1.0
 10
7.9883439899
 20
16.6493145197
 30
0.0
 10
7.9884571754
 20
16.6501712271
 30
0.0
 10
7.9886430343
 20
16.6513898135
 30
0.0
 10
7.9889589183
 20
16.6529133738
 30
0.0
 10
7.9891977828
 20
16.6538553473
 30
0.0
 10
7.9894510374
 20
16.6546569829
 30
0.0
 10
7.9897183267
 20
16.655315956
 30
0.0
 10
7.9900002829
 20
16.6558314444
 30
0.0
 10
7.9902997505
 20
16.6562039291
 30
0.0
 10
7.9906271748
 20
16.6564341307
 30
0.0
 10
7.9909896448
 20
16.6564964916
 30
0.0
 10
7.9913550486
 20
16.6563789458
 30
0.0
 10
7.9917118705
 20
16.6561102833
 30
0.0
 10
7.9920731258
 20
16.6556986826
 30
0.0
 10
7.9924432336
 20
16.6551431955
 30
0.0
 10
7.9928234829
 20
16.6544443381
 30
0.0
 10
7.9932132574
 20
16.6536035783
 30
0.0
 10
7.9936118504
 20
16.6526231498
 30
0.0
 10
7.9941831576
 20
16.6510517386
 30
0.0
 10
7.9949021495
 20
16.648748603
 30
0.0
 10
7.9957513206
 20
16.645585675
 30
0.0
 10
7.9966172166
 20
16.6419137121
 30
0.0
 10
7.9974930107
 20
16.6377542813
 30
0.0
 10
7.9983733785
 20
16.6331360303
 30
0.0
 10
7.9992512548
 20
16.6280932534
 30
0.0
 10
8.0001201436
 20
16.6226630713
 30
0.0
 10
8.0009745093
 20
16.6168848923
 30
0.0
 10
8.0021082087
 20
16.6086095766
 30
0.0
 10
8.0034378312
 20
16.5977101573
 30
0.0
 10
8.0048489981
 20
16.5841780714
 30
0.0
 10
8.0060674852
 20
16.5703333656
 30
0.0
 10
8.007060314
 20
16.5565727824
 30
0.0
 10
8.0078015143
 20
16.5432985109
 30
0.0
 10
8.0082588535
 20
16.5308988791
 30
0.0
 10
8.0083742678
 20
16.5229681673
 30
0.0
 10
8.0083766247
 20
16.5192132999
 30
0.0
  0
LINE
  5
5BB
100
AcDbEntity
  8
0
100
AcDbLine
 62
9
  6
CONTINUOUS
 10
7.9929102316
 20
17.1380356801
 11
7.9937275767
 21
17.135219768
  0
SPLINE
  5
5BC
100
AcDbEntity
  8
0
100
AcDbSpline
 62
9
  6
CONTINUOUS
 70
0
 71
3
 72
34
 73
30
 74
0
 42
0.0000001
 43
0.0000001
 44
0.0000000001
 40
0.0
 40
0.0
 40
0.0
 40
0.0
 40
0.0185806029
 40
0.0343238639
 40
0.0472855183
 40
0.0576323457
 40
0.0619532177
 40
0.0658201634
 40
0.0693689023
 40
0.0727725253
 40
0.0762251368
 40
0.0799123037
 40
0.0839869527
 40
0.0885626641
 40
0.0994922939
 40
0.1130759089
 40
0.1294643582
 40
0.1487183163
 40
0.1708449521
 40
0.1958077355
 40
0.2235533728
 40
0.2540198778
 40
0.3227445424
 40
0.4010382262
 40
0.4878014813
 40
0.5817146708
 40
0.6813972972
 40
0.785425639
 40
1.0
 40
1.0
 40
1.0
 40
1.0
 10
7.9937275767
 20
17.135219768
 30
0.0
 10
7.9939114545
 20
17.1346608683
 30
0.0
 10
7.9942769975
 20
17.1336365357
 30
0.0
 10
7.9948823974
 20
17.1322647383
 30
0.0
 10
7.9954971239
 20
17.1311892358
 30
0.0
 10
7.9960492039
 20
17.1305006751
 30
0.0
 10
7.9965044011
 20
17.1301267003
 30
0.0
 10
7.9968292682
 20
17.1299417014
 30
0.0
 10
7.9971584236
 20
17.1298366072
 30
0.0
 10
7.9974905103
 20
17.1298139148
 30
0.0
 10
7.9978221395
 20
17.1298742244
 30
0.0
 10
7.9981507261
 20
17.1300154509
 30
0.0
 10
7.9984760617
 20
17.130235041
 30
0.0
 10
7.9989334908
 20
17.1306562421
 30
0.0
 10
7.9994907232
 20
17.1313976137
 30
0.0
 10
8.000116888
 20
17.1325336343
 30
0.0
 10
8.0007364745
 20
17.133966056
 30
0.0
 10
8.0013469823
 20
17.1356914703
 30
0.0
 10
8.0019459428
 20
17.1377058493
 30
0.0
 10
8.0025310673
 20
17.1400026802
 30
0.0
 10
8.0030998818
 20
17.1425747076
 30
0.0
 10
8.0038638043
 20
17.1465213894
 30
0.0
 10
8.0047427364
 20
17.1520740444
 30
0.0
 10
8.0056629703
 20
17.1594204273
 30
0.0
 10
8.0064680867
 20
17.1675821323
 30
0.0
 10
8.0071483747
 20
17.1764344111
 30
0.0
 10
8.0076921289
 20
17.1858437851
 30
0.0
 10
8.0082217947
 20
17.1990790825
 30
0.0
 10
8.0083692476
 20
17.2091689549
 30
0.0
 10
8.0083766247
 20
17.2159636303
 30
0.0
  0
SPLINE
  5
5BD
100
AcDbEntity
  8
0
100
AcDbSpline
 62
9
  6
CONTINUOUS
 70
0
 71
3
 72
21
 73
17
 74
0
 42
0.0000001
 43
0.0000001
 44
0.0000000001
 40
0.0
 40
0.0
 40
0.0
 40
0.0
 40
0.2207313765
 40
0.414572442
 40
0.58075019
 40
0.6532536027
 40
0.7186013498
 40
0.7767425533
 40
0.8276685162
 40
0.8714785188
 40
0.8907764235
 40
0.9083792342
 40
0.9386903008
 40
0.9630588679
 40
0.9827257893
 40
1.0
 40
1.0
 40
1.0
 40
1.0
 10
7.9966799757
 20
16.3682709574
 30
0.0
 10
7.9966800227
 20
16.3673187708
 30
0.0
 10
7.9966635783
 20
16.3655302938
 30
0.0
 10
7.9965788299
 20
16.3630262374
 30
0.0
 10
7.9964562062
 20
16.361163923
 30
0.0
 10
7.9963237924
 20
16.3598589746
 30
0.0
 10
7.9962148855
 20
16.3590204176
 30
0.0
 10
7.9960920994
 20
16.358277913
 30
0.0
 10
7.9959554676
 20
16.3576324886
 30
0.0
 10
7.9958255601
 20
16.3571575732
 30
0.0
 10
7.9957127021
 20
16.3568280578
 30
0.0
 10
7.9956053583
 20
16.3565586674
 30
0.0
 10
7.9954662222
 20
16.3562784646
 30
0.0
 10
7.9952754771
 20
16.3560179042
 30
0.0
 10
7.9950639974
 20
16.3558506436
 30
0.0
 10
7.9949031317
 20
16.3558107408
 30
0.0
 10
7.9948286157
 20
16.355810343
 30
0.0
  0
SPLINE
  5
5BE
100
AcDbEntity
  8
0
100
AcDbSpline
 62
9
  6
CONTINUOUS
 70
0
 71
3
 72
13
 73
9
 74
0
 42
0.0000001
 43
0.0000001
 44
0.0000000001
 40
0.0
 40
0.0
 40
0.0
 40
0.0
 40
0.2934196405
 40
0.5454613316
 40
0.6543748933
 40
0.7647831975
 40
0.8803526455
 40
1.0
 40
1.0
 40
1.0
 40
1.0
 10
7.9966798551
 20
16.3682709457
 30
0.0
 10
7.998202381
 20
16.3682715529
 30
0.0
 10
8.0010557491
 20
16.3678195276
 30
0.0
 10
8.0041285261
 20
16.3662384289
 30
0.0
 10
8.0059710841
 20
16.3646161339
 30
0.0
 10
8.0070734428
 20
16.3632610892
 30
0.0
 10
8.0079326375
 20
16.3616739194
 30
0.0
 10
8.0082749753
 20
16.3604895492
 30
0.0
 10
8.0083781105
 20
16.3598773372
 30
0.0
  0
LINE
  5
5BF
100
AcDbEntity
  8
0
100
AcDbLine
 62
9
  6
CONTINUOUS
 10
7.9926297378
 20
16.5024103225
 11
7.9940573307
 21
16.4961910192
  0
SPLINE
  5
5C0
100
AcDbEntity
  8
0
100
AcDbSpline
 62
9
  6
CONTINUOUS
 70
0
 71
3
 72
19
 73
15
 74
0
 42
0.0000001
 43
0.0000001
 44
0.0000000001
 40
0.0
 40
0.0
 40
0.0
 40
0.0
 40
0.0452909389
 40
0.0970752168
 40
0.1547583412
 40
0.2174787777
 40
0.3542518267
 40
0.4995400036
 40
0.6450173391
 40
0.7821904163
 40
0.8451657424
 40
0.9030333232
 40
0.9548358576
 40
1.0
 40
1.0
 40
1.0
 40
1.0
 10
7.9940573307
 20
16.4961910192
 30
0.0
 10
7.9944842335
 20
16.4941640489
 30
0.0
 10
7.9953409103
 20
16.4898071812
 30
0.0
 10
7.9965756637
 20
16.4828373569
 30
0.0
 10
7.9978302706
 20
16.4750624355
 30
0.0
 10
7.9995579707
 20
16.4634274788
 30
0.0
 10
8.0016163515
 20
16.4477922584
 30
0.0
 10
8.0038317583
 20
16.4283632369
 30
0.0
 10
8.0057121496
 20
16.4088805211
 30
0.0
 10
8.0069528343
 20
16.3931205353
 30
0.0
 10
8.0076860716
 20
16.3813424193
 30
0.0
 10
8.0080761774
 20
16.373455615
 30
0.0
 10
8.0083121468
 20
16.3663776939
 30
0.0
 10
8.0083748799
 20
16.3619428108
 30
0.0
 10
8.0083766247
 20
16.3598771729
 30
0.0
  0
LINE
  5
5C1
100
AcDbEntity
  8
0
100
AcDbLine
 62
9
  6
CONTINUOUS
 10
8.0055353129
 20
16.2499840356
 11
8.0062177238
 21
16.2471821111
  0
SPLINE
  5
5C2
100
AcDbEntity
  8
0
100
AcDbSpline
 62
9
  6
CONTINUOUS
 70
0
 71
3
 72
25
 73
21
 74
0
 42
0.0000001
 43
0.0000001
 44
0.0000000001
 40
0.0
 40
0.0
 40
0.0
 40
0.0
 40
0.1008533109
 40
0.1878525057
 40
0.2609551966
 40
0.3201778135
 40
0.3656529366
 40
0.3978545727
 40
0.4094780767
 40
0.4187560725
 40
0.4267947852
 40
0.4352321807
 40
0.4455401773
 40
0.4585895591
 40
0.4944628056
 40
0.5444291949
 40
0.6085601969
 40
0.6865868483
 40
0.7781285735
 40
1.0
 40
1.0
 40
1.0
 40
1.0
 10
8.0062177238
 20
16.2471821111
 30
0.0
 10
8.0062985872
 20
16.2468786559
 30
0.0
 10
8.0064544044
 20
16.2463147972
 30
0.0
 10
8.0066908831
 20
16.245537217
 30
0.0
 10
8.0069123934
 20
16.24489113
 30
0.0
 10
8.0071180945
 20
16.2443763658
 30
0.0
 10
8.0073074418
 20
16.2439946373
 30
0.0
 10
8.0074640583
 20
16.2437611878
 30
0.0
 10
8.0075886887
 20
16.2436509768
 30
0.0
 10
8.0076712204
 20
16.2436103895
 30
0.0
 10
8.0077545806
 20
16.2436086167
 30
0.0
 10
8.0078308344
 20
16.2436487766
 30
0.0
 10
8.0078976709
 20
16.2437233847
 30
0.0
 10
8.007989116
 20
16.2438845038
 30
0.0
 10
8.0080819186
 20
16.2441805628
 30
0.0
 10
8.0081706895
 20
16.2446389753
 30
0.0
 10
8.0082437521
 20
16.2452332713
 30
0.0
 10
8.0083013389
 20
16.245958762
 30
0.0
 10
8.0083606799
 20
16.2471763749
 30
0.0
 10
8.0083745099
 20
16.2481524771
 30
0.0
 10
8.0083766248
 20
16.2488433535
 30
0.0
  0
SPLINE
  5
5C3
100
AcDbEntity
  8
0
100
AcDbSpline
 62
9
  6
CONTINUOUS
 70
0
 71
3
 72
28
 73
24
 74
0
 42
0.0000001
 43
0.0000001
 44
0.0000000001
 40
0.0
 40
0.0
 40
0.0
 40
0.0
 40
0.0024096454
 40
0.0051120292
 40
0.0082641643
 40
0.0119621218
 40
0.0211894887
 40
0.0330297571
 40
0.0475523827
 40
0.0647661754
 40
0.0846174067
 40
0.1070140076
 40
0.1318552847
 40
0.1590357775
 40
0.2199381945
 40
0.2885248522
 40
0.3634619517
 40
0.4433132632
 40
0.5264620903
 40
0.6959890989
 40
0.8582522005
 40
0.932478395
 40
1.0
 40
1.0
 40
1.0
 40
1.0
 10
7.9792007055
 20
16.6437863541
 30
0.0
 10
7.979297315
 20
16.6437865565
 30
0.0
 10
7.979503211
 20
16.6437514848
 30
0.0
 10
7.9798038232
 20
16.6436050407
 30
0.0
 10
7.9801081441
 20
16.6433693319
 30
0.0
 10
7.9805545255
 20
16.6429020184
 30
0.0
 10
7.981114185
 20
16.6420753454
 30
0.0
 10
7.9817718883
 20
16.6408077509
 30
0.0
 10
7.9824543724
 20
16.6391978251
 30
0.0
 10
7.9831572983
 20
16.6372519877
 30
0.0
 10
7.9838770892
 20
16.6349787181
 30
0.0
 10
7.9846099618
 20
16.6323903536
 30
0.0
 10
7.9853518299
 20
16.629500144
 30
0.0
 10
7.9863872769
 20
16.6250924169
 30
0.0
 10
7.9876590524
 20
16.6189400439
 30
0.0
 10
7.9891111166
 20
16.6108729977
 30
0.0
 10
7.9905088922
 20
16.6020263701
 30
0.0
 10
7.9918221442
 20
16.5925770996
 30
0.0
 10
7.9934368574
 20
16.5793427351
 30
0.0
 10
7.9950573088
 20
16.5627829816
 30
0.0
 10
7.9961393901
 20
16.5465370224
 30
0.0
 10
7.996595624
 20
16.5343561576
 30
0.0
 10
7.9966793786
 20
16.5286729353
 30
0.0
 10
7.9966789784
 20
16.5259657968
 30
0.0
  0
SPLINE
  5
5C4
100
AcDbEntity
  8
0
100
AcDbSpline
 62
9
  6
CONTINUOUS
 70
0
 71
3
 72
18
 73
14
 74
0
 42
0.0000001
 43
0.0000001
 44
0.0000000001
 40
0.0
 40
0.0
 40
0.0
 40
0.0
 40
0.153535084
 40
0.3099382405
 40
0.4632184665
 40
0.6075730383
 40
0.7376369807
 40
0.7958184086
 40
0.8487263787
 40
0.8959336651
 40
0.9370418241
 40
0.9717715333
 40
1.0
 40
1.0
 40
1.0
 40
1.0
 10
7.9966797596
 20
17.4502367743
 30
0.0
 10
7.9966797797
 20
17.4456769193
 30
0.0
 10
7.9965378851
 20
17.4364715849
 30
0.0
 10
7.9959438714
 20
17.4227256305
 30
0.0
 10
7.9949877613
 20
17.4092731118
 30
0.0
 10
7.9937087122
 20
17.396633475
 30
0.0
 10
7.9923747931
 20
17.3868430181
 30
0.0
 10
7.9911613717
 20
17.3797838324
 30
0.0
 10
7.990239433
 20
17.375173116
 30
0.0
 10
7.9892825629
 20
17.3710886458
 30
0.0
 10
7.9882998278
 20
17.3675672116
 30
0.0
 10
7.9873011858
 20
17.3646407324
 30
0.0
 10
7.9865568025
 20
17.3629208405
 30
0.0
 10
7.9861697372
 20
17.3621771817
 30
0.0
  0
SPLINE
  5
5C5
100
AcDbEntity
  8
0
100
AcDbSpline
 62
9
  6
CONTINUOUS
 70
0
 71
3
 72
13
 73
9
 74
0
 42
0.0000001
 43
0.0000001
 44
0.0000000001
 40
0.0
 40
0.0
 40
0.0
 40
0.0
 40
0.3403625191
 40
0.6122067693
 40
0.7252507534
 40
0.8254150041
 40
0.9156464389
 40
1.0
 40
1.0
 40
1.0
 40
1.0
 10
7.9861697372
 20
17.3621771817
 30
0.0
 10
7.9859409435
 20
17.3617376062
 30
0.0
 10
7.9854951482
 20
17.3609639905
 30
0.0
 10
7.9848385428
 20
17.3601275365
 30
0.0
 10
7.9843058758
 20
17.3596606252
 30
0.0
 10
7.983930857
 20
17.3594228436
 30
0.0
 10
7.9835551532
 20
17.3592771083
 30
0.0
 10
7.9833000708
 20
17.3592432534
 30
0.0
 10
7.9831772557
 20
17.3592431336
 30
0.0
  0
SPLINE
  5
5C6
100
AcDbEntity
  8
0
100
AcDbSpline
 62
9
  6
CONTINUOUS
 70
0
 71
3
 72
34
 73
30
 74
0
 42
0.0000001
 43
0.0000001
 44
0.0000000001
 40
0.0
 40
0.0
 40
0.0
 40
0.0
 40
0.0975604616
 40
0.1974611798
 40
0.2973338339
 40
0.3956258841
 40
0.4903412202
 40
0.5793477671
 40
0.661063411
 40
0.7341654997
 40
0.7975913675
 40
0.8253244446
 40
0.8501803931
 40
0.871999248
 40
0.8906798184
 40
0.9062897659
 40
0.9189698585
 40
0.9289470724
 40
0.9330419937
 40
0.9366334264
 40
0.939851085
 40
0.9428874108
 40
0.9459832308
 40
0.9493799156
 40
0.9532746629
 40
0.9577977752
 40
0.9689436046
 40
0.9830214127
 40
1.0
 40
1.0
 40
1.0
 40
1.0
 10
8.0083766247
 20
17.4531296142
 30
0.0
 10
8.0083858444
 20
17.4493923892
 30
0.0
 10
8.0083240691
 20
17.441827918
 30
0.0
 10
8.0080110908
 20
17.4304416327
 30
0.0
 10
8.0074888907
 20
17.4190351101
 30
0.0
 10
8.006814372
 20
17.4078357225
 30
0.0
 10
8.0059882119
 20
17.3970635903
 30
0.0
 10
8.0049880261
 20
17.3869439368
 30
0.0
 10
8.0038518658
 20
17.37767214
 30
0.0
 10
8.0026114864
 20
17.3694033795
 30
0.0
 10
8.0014697592
 20
17.3632134977
 30
0.0
 10
8.0005035036
 20
17.3588751229
 30
0.0
 10
7.9998009447
 20
17.3561122075
 30
0.0
 10
7.9990913692
 20
17.3537104012
 30
0.0
 10
7.9983753482
 20
17.3516826034
 30
0.0
 10
7.9976582348
 20
17.3500297792
 30
0.0
 10
7.9969436091
 20
17.3487472943
 30
0.0
 10
7.9963146543
 20
17.3479281585
 30
0.0
 10
7.9958037464
 20
17.3474808981
 30
0.0
 10
7.9954449394
 20
17.3472619238
 30
0.0
 10
7.9950834847
 20
17.347140881
 30
0.0
 10
7.9947204336
 20
17.3471252041
 30
0.0
 10
7.99436251
 20
17.3472193941
 30
0.0
 10
7.9940150185
 20
17.3474209323
 30
0.0
 10
7.9936779465
 20
17.3477266413
 30
0.0
 10
7.9932069329
 20
17.3483122919
 30
0.0
 10
7.9926540518
 20
17.3493162758
 30
0.0
 10
7.9920497249
 20
17.3508171189
 30
0.0
 10
7.9916941564
 20
17.3519537455
 30
0.0
 10
7.9915156883
 20
17.3525791772
 30
0.0
  0
LINE
  5
5C7
100
AcDbEntity
  8
0
100
AcDbLine
 62
9
  6
CONTINUOUS
 10
7.9915156883
 20
17.3525791772
 11
7.9908337031
 21
17.355300498
  0
SPLINE
  5
5C8
100
AcDbEntity
  8
0
100
AcDbSpline
 62
9
  6
CONTINUOUS
 70
0
 71
3
 72
16
 73
12
 74
0
 42
0.0000001
 43
0.0000001
 44
0.0000000001
 40
0.0
 40
0.0
 40
0.0
 40
0.0
 40
0.1894368927
 40
0.3652066662
 40
0.5201650692
 40
0.6508472018
 40
0.7581742132
 40
0.8531863072
 40
0.8961429099
 40
0.9350698305
 40
1.0
 40
1.0
 40
1.0
 40
1.0
 10
7.9966797596
 20
17.4502367744
 30
0.0
 10
7.9974607439
 20
17.4502366675
 30
0.0
 10
7.9989667326
 20
17.4502789637
 30
0.0
 10
8.0011046981
 20
17.4504601304
 30
0.0
 10
8.0029882173
 20
17.4507351657
 30
0.0
 10
8.0045735404
 20
17.4510759096
 30
0.0
 10
8.005890519
 20
17.4514690168
 30
0.0
 10
8.0068283295
 20
17.451854674
 30
0.0
 10
8.0074654927
 20
17.4522133821
 30
0.0
 10
8.0079572029
 20
17.4525637881
 30
0.0
 10
8.008260367
 20
17.4528890522
 30
0.0
 10
8.0083778983
 20
17.4531295553
 30
0.0
  0
SPLINE
  5
5C9
100
AcDbEntity
  8
0
100
AcDbSpline
 62
9
  6
CONTINUOUS
 70
0
 71
3
 72
31
 73
27
 74
0
 42
0.0000001
 43
0.0000001
 44
0.0000000001
 40
0.0
 40
0.0
 40
0.0
 40
0.0
 40
0.025535016
 40
0.0481047993
 40
0.0677186894
 40
0.0844168692
 40
0.098297202
 40
0.1095859951
 40
0.1187441274
 40
0.1266168917
 40
0.1344749239
 40
0.1435940463
 40
0.1548258144
 40
0.1686341017
 40
0.1852670827
 40
0.204864518
 40
0.2274846808
 40
0.2531016159
 40
0.3130977109
 40
0.3843091914
 40
0.4660032709
 40
0.5573644037
 40
0.6575277433
 40
0.7655888908
 40
0.8803340667
 40
1.0
 40
1.0
 40
1.0
 40
1.0
 10
7.9964886544
 20
17.505030848
 30
0.0
 10
7.9966623677
 20
17.5055953593
 30
0.0
 10
7.9970074435
 20
17.5066535307
 30
0.0
 10
7.9975585692
 20
17.5081203908
 30
0.0
 10
7.998109662
 20
17.5093669295
 30
0.0
 10
7.9986591434
 20
17.5103913015
 30
0.0
 10
7.9992067155
 20
17.5111932673
 30
0.0
 10
7.9997548231
 20
17.5117739549
 30
0.0
 10
8.0003128542
 20
17.5121354767
 30
0.0
 10
8.0008945818
 20
17.5122539235
 30
0.0
 10
8.0014671228
 20
17.5121000345
 30
0.0
 10
8.0019987185
 20
17.5117046513
 30
0.0
 10
8.0025043856
 20
17.5110916285
 30
0.0
 10
8.0029938739
 20
17.5102581025
 30
0.0
 10
8.0034691698
 20
17.5092010981
 30
0.0
 10
8.0039292542
 20
17.5079188965
 30
0.0
 10
8.0043727154
 20
17.5064131457
 30
0.0
 10
8.0049728876
 20
17.503982041
 30
0.0
 10
8.0056514166
 20
17.5004162738
 30
0.0
 10
8.0063494553
 20
17.4955404905
 30
0.0
 10
8.0069579608
 20
17.4899224405
 30
0.0
 10
8.0074693408
 20
17.483622922
 30
0.0
 10
8.0078752255
 20
17.4767047796
 30
0.0
 10
8.0081660565
 20
17.4692396027
 30
0.0
 10
8.008337298
 20
17.4613196166
 30
0.0
 10
8.0083752352
 20
17.4558975323
 30
0.0
 10
8.0083766247
 20
17.4531296142
 30
0.0
  0
SPLINE
  5
5CA
100
AcDbEntity
  8
0
100
AcDbSpline
 62
9
  6
CONTINUOUS
 70
0
 71
3
 72
31
 73
27
 74
0
 42
0.0000001
 43
0.0000001
 44
0.0000000001
 40
0.0
 40
0.0
 40
0.0
 40
0.0
 40
0.0631408963
 40
0.0901521853
 40
0.114112518
 40
0.135036215
 40
0.1529689454
 40
0.1680189758
 40
0.1804168969
 40
0.1905909065
 40
0.1993135255
 40
0.2077755157
 40
0.2172755927
 40
0.2287722017
 40
0.2428068748
 40
0.2596539084
 40
0.2794536975
 40
0.3022773744
 40
0.3281581965
 40
0.3891165262
 40
0.4623088211
 40
0.5476140599
 40
0.6448584732
 40
0.7534667761
 40
0.8722614742
 40
1.0
 40
1.0
 40
1.0
 40
1.0
 10
8.001393087
 20
16.4973432505
 30
0.0
 10
8.001623205
 20
16.4966260387
 30
0.0
 10
8.0019726889
 20
16.4956080902
 30
0.0
 10
8.002482512
 20
16.4943455694
 30
0.0
 10
8.002837685
 20
16.4935645406
 30
0.0
 10
8.0031852577
 20
16.4929001107
 30
0.0
 10
8.0035248536
 20
16.4923531186
 30
0.0
 10
8.00385667
 20
16.4919237067
 30
0.0
 10
8.0041818727
 20
16.4916111402
 30
0.0
 10
8.0045046912
 20
16.4914148901
 30
0.0
 10
8.0048319416
 20
16.4913443145
 30
0.0
 10
8.0051518707
 20
16.4914152303
 30
0.0
 10
8.005446577
 20
16.4916176464
 30
0.0
 10
8.0057203268
 20
16.4919371723
 30
0.0
 10
8.0059799681
 20
16.4923728329
 30
0.0
 10
8.0062276304
 20
16.4929253747
 30
0.0
 10
8.0064636353
 20
16.4935950232
 30
0.0
 10
8.0066877767
 20
16.494381288
 30
0.0
 10
8.0069866736
 20
16.4956552595
 30
0.0
 10
8.0073152588
 20
16.4975372386
 30
0.0
 10
8.0076399797
 20
16.5001355606
 30
0.0
 10
8.00790867
 20
16.5031750762
 30
0.0
 10
8.0081172686
 20
16.5066424466
 30
0.0
 10
8.0082644222
 20
16.5105127006
 30
0.0
 10
8.0083534067
 20
16.5147484975
 30
0.0
 10
8.0083743627
 20
16.517689475
 30
0.0
 10
8.0083766247
 20
16.5192132999
 30
0.0
  0
SPLINE
  5
5CB
100
AcDbEntity
  8
0
100
AcDbSpline
 62
9
  6
CONTINUOUS
 70
0
 71
3
 72
31
 73
27
 74
0
 42
0.0000001
 43
0.0000001
 44
0.0000000001
 40
0.0
 40
0.0
 40
0.0
 40
0.0
 40
0.1252236836
 40
0.2426258297
 40
0.3509942538
 40
0.4493229737
 40
0.5369031851
 40
0.6130828907
 40
0.6773786107
 40
0.7049669161
 40
0.7294735514
 40
0.7508954016
 40
0.7692822979
 40
0.7847366925
 40
0.7974496771
 40
0.8077875165
 40
0.8164509784
 40
0.8246101215
 40
0.8336267791
 40
0.8445334366
 40
0.8579219657
 40
0.8741054205
 40
0.8932403766
 40
0.9153893411
 40
0.9405718527
 40
1.0
 40
1.0
 40
1.0
 40
1.0
 10
8.0083766248
 20
17.6736493484
 30
0.0
 10
8.0083763656
 20
17.6757751394
 30
0.0
 10
8.0083486612
 20
17.6798940143
 30
0.0
 10
8.0082185005
 20
17.6858513012
 30
0.0
 10
8.0080017971
 20
17.6913492703
 30
0.0
 10
8.0076999429
 20
17.6963362005
 30
0.0
 10
8.0073175428
 20
17.7007696091
 30
0.0
 10
8.0068576814
 20
17.7046144055
 30
0.0
 10
8.0063951143
 20
17.7074313527
 30
0.0
 10
8.0059768568
 20
17.7093628489
 30
0.0
 10
8.0056628709
 20
17.7105711764
 30
0.0
 10
8.0053330546
 20
17.7116126598
 30
0.0
 10
8.0049882947
 20
17.7124862142
 30
0.0
 10
8.004629209
 20
17.7131920636
 30
0.0
 10
8.0042547828
 20
17.7137313298
 30
0.0
 10
8.003860637
 20
17.7141061172
 30
0.0
 10
8.0034331619
 20
17.7143080114
 30
0.0
 10
8.0029803081
 20
17.7143085934
 30
0.0
 10
8.002534495
 20
17.7141137575
 30
0.0
 10
8.0020959856
 20
17.7137497676
 30
0.0
 10
8.0016540073
 20
17.7132203354
 30
0.0
 10
8.0012055553
 20
17.7125240008
 30
0.0
 10
8.0007500534
 20
17.7116603237
 30
0.0
 10
8.0002878905
 20
17.710630359
 30
0.0
 10
7.9996271863
 20
17.7089422026
 30
0.0
 10
7.9991836714
 20
17.707574618
 30
0.0
 10
7.9988936876
 20
17.7066083436
 30
0.0
  0
LINE
  5
5CC
100
AcDbEntity
  8
0
100
AcDbLine
 62
9
  6
CONTINUOUS
 10
7.9851160779
 20
16.3560618496
 11
7.9853811464
 21
16.3544421961
  0
SPLINE
  5
5CD
100
AcDbEntity
  8
0
100
AcDbSpline
 62
9
  6
CONTINUOUS
 70
0
 71
3
 72
17
 73
13
 74
0
 42
0.0000001
 43
0.0000001
 44
0.0000000001
 40
0.0
 40
0.0
 40
0.0
 40
0.0
 40
0.1434359725
 40
0.2936313121
 40
0.4444528646
 40
0.5896549719
 40
0.7231314162
 40
0.839186805
 40
0.889082604
 40
0.9328140925
 40
0.9699145529
 40
1.0
 40
1.0
 40
1.0
 40
1.0
 10
7.9853811464
 20
16.3544421961
 30
0.0
 10
7.9861248883
 20
16.3498754351
 30
0.0
 10
7.9875876033
 20
16.3405169066
 30
0.0
 10
7.98965003
 20
16.3263287179
 30
0.0
 10
7.9915746536
 20
16.3120636722
 30
0.0
 10
7.9932814997
 20
16.2983141798
 30
0.0
 10
7.9946983699
 20
16.2856597095
 30
0.0
 10
7.9956324109
 20
16.2760454889
 30
0.0
 10
7.9961749033
 20
16.2693032368
 30
0.0
 10
7.9964558349
 20
16.2650954166
 30
0.0
 10
7.9966295756
 20
16.2615215166
 30
0.0
 10
7.9966798371
 20
16.259354316
 30
0.0
 10
7.9966798376
 20
16.258383826
 30
0.0
  0
SPLINE
  5
5CE
100
AcDbEntity
  8
0
100
AcDbSpline
 62
9
  6
CONTINUOUS
 70
0
 71
3
 72
28
 73
24
 74
0
 42
0.0000001
 43
0.0000001
 44
0.0000000001
 40
0.0
 40
0.0
 40
0.0
 40
0.0
 40
0.0764693099
 40
0.1573092929
 40
0.3265367182
 40
0.4120103775
 40
0.4960706375
 40
0.5773130486
 40
0.6543833057
 40
0.7259739619
 40
0.7909704369
 40
0.848323289
 40
0.8971186109
 40
0.9181092229
 40
0.9367369295
 40
0.9529467616
 40
0.9667112889
 40
0.9780734499
 40
0.9871556744
 40
0.9909264315
 40
0.9942561118
 40
0.9972371031
 40
1.0
 40
1.0
 40
1.0
 40
1.0
 10
7.9966799755
 20
17.6684800337
 30
0.0
 10
7.996680066
 20
17.6656922423
 30
0.0
 10
7.9966126609
 20
17.6599571809
 30
0.0
 10
7.9962391445
 20
17.6480581972
 30
0.0
 10
7.9955231517
 20
17.6358436341
 30
0.0
 10
7.9945003282
 20
17.6235356911
 30
0.0
 10
7.9935882661
 20
17.6144384097
 30
0.0
 10
7.9925517532
 20
17.6056629094
 30
0.0
 10
7.9914107034
 20
17.5973589217
 30
0.0
 10
7.9901826426
 20
17.5896664854
 30
0.0
 10
7.9888921788
 20
17.5827139195
 30
0.0
 10
7.987562327
 20
17.5766168781
 30
0.0
 10
7.9863889839
 20
17.5721304752
 30
0.0
 10
7.9854295007
 20
17.5690527647
 30
0.0
 10
7.984750892
 20
17.5671332695
 30
0.0
 10
7.9840800434
 20
17.5654924443
 30
0.0
 10
7.9834189193
 20
17.5641363163
 30
0.0
 10
7.9827708103
 20
17.5630688078
 30
0.0
 10
7.9822111883
 20
17.5623786594
 30
0.0
 10
7.9817631074
 20
17.5619923851
 30
0.0
 10
7.9814506395
 20
17.5617955502
 30
0.0
 10
7.9811402516
 20
17.561674533
 30
0.0
 10
7.9809301719
 20
17.5616459876
 30
0.0
 10
7.9808294469
 20
17.5616458383
 30
0.0
  0
SPLINE
  5
5CF
100
AcDbEntity
  8
0
100
AcDbSpline
 62
9
  6
CONTINUOUS
 70
0
 71
3
 72
15
 73
11
 74
0
 42
0.0000001
 43
0.0000001
 44
0.0000000001
 40
0.0
 40
0.0
 40
0.0
 40
0.0
 40
0.1735798285
 40
0.3357966411
 40
0.4809857684
 40
0.6065002988
 40
0.7135335934
 40
0.814100107
 40
0.9099575868
 40
1.0
 40
1.0
 40
1.0
 40
1.0
 10
7.996679855
 20
17.6684800288
 30
0.0
 10
7.9974615289
 20
17.6684798377
 30
0.0
 10
7.9989748749
 20
17.6685560244
 30
0.0
 10
8.0011198661
 20
17.6688820664
 30
0.0
 10
8.0030095302
 20
17.6693771194
 30
0.0
 10
8.0045999977
 20
17.6699913806
 30
0.0
 10
8.0059256025
 20
17.6707024991
 30
0.0
 10
8.0070260536
 20
17.6715236258
 30
0.0
 10
8.0078971865
 20
17.6724894354
 30
0.0
 10
8.0082711228
 20
17.6732581312
 30
0.0
 10
8.0083781106
 20
17.6736492459
 30
0.0
  0
SPLINE
  5
5D0
100
AcDbEntity
  8
0
100
AcDbSpline
 62
9
  6
CONTINUOUS
 70
0
 71
3
 72
36
 73
32
 74
0
 42
0.0000001
 43
0.0000001
 44
0.0000000001
 40
0.0
 40
0.0
 40
0.0
 40
0.0
 40
0.0190651358
 40
0.0346647976
 40
0.0411661865
 40
0.0468195356
 40
0.0516535143
 40
0.0557192389
 40
0.0591097315
 40
0.0619941751
 40
0.0646382306
 40
0.0673716413
 40
0.0704901096
 40
0.0741934341
 40
0.0785987083
 40
0.083773115
 40
0.0965642107
 40
0.1127349886
 40
0.1323222343
 40
0.1552465115
 40
0.181386047
 40
0.2106019371
 40
0.2775422179
 40
0.3545164378
 40
0.4397399669
 40
0.5311952633
 40
0.6266099711
 40
0.7236281787
 40
0.8198212887
 40
0.9126886053
 40
1.0
 40
1.0
 40
1.0
 40
1.0
 10
7.9892469067
 20
17.5568936126
 30
0.0
 10
7.9893911946
 20
17.5560452536
 30
0.0
 10
7.9896855024
 20
17.5545079066
 30
0.0
 10
7.9901524321
 20
17.5527067457
 30
0.0
 10
7.9905647128
 20
17.5515230168
 30
0.0
 10
7.9908660405
 20
17.550817046
 30
0.0
 10
7.9911781324
 20
17.5502376833
 30
0.0
 10
7.9915015868
 20
17.5497844985
 30
0.0
 10
7.9918392148
 20
17.5494571159
 30
0.0
 10
7.9921966005
 20
17.5492581283
 30
0.0
 10
7.9925737915
 20
17.5491996235
 30
0.0
 10
7.9929552504
 20
17.5492862291
 30
0.0
 10
7.9933323639
 20
17.5495046956
 30
0.0
 10
7.9937097562
 20
17.5498466302
 30
0.0
 10
7.9940912499
 20
17.5503111073
 30
0.0
 10
7.9946466384
 20
17.5511559969
 30
0.0
 10
7.9953331034
 20
17.5525404794
 30
0.0
 10
7.9961292153
 20
17.5545834128
 30
0.0
 10
7.9969383481
 20
17.5571069802
 30
0.0
 10
7.9977568296
 20
17.560096255
 30
0.0
 10
7.9985784715
 20
17.5635332355
 30
0.0
 10
7.9997224781
 20
17.5689339125
 30
0.0
 10
8.0010951518
 20
17.5766289161
 30
0.0
 10
8.0026104925
 20
17.5868609129
 30
0.0
 10
8.0040171875
 20
17.5982242615
 30
0.0
 10
8.0052775874
 20
17.6104416265
 30
0.0
 10
8.0063581698
 20
17.623210507
 30
0.0
 10
8.0072334219
 20
17.6362093741
 30
0.0
 10
8.0078824586
 20
17.6491064626
 30
0.0
 10
8.0082754197
 20
17.6615755897
 30
0.0
 10
8.0083717541
 20
17.6697083828
 30
0.0
 10
8.0083766248
 20
17.6736493484
 30
0.0
  0
SPLINE
  5
5D1
100
AcDbEntity
  8
0
100
AcDbSpline
 62
9
  6
CONTINUOUS
 70
0
 71
3
 72
19
 73
15
 74
0
 42
0.0000001
 43
0.0000001
 44
0.0000000001
 40
0.0
 40
0.0
 40
0.0
 40
0.0
 40
0.0887487285
 40
0.1366782128
 40
0.1873637937
 40
0.2411987986
 40
0.2982469631
 40
0.3585031691
 40
0.4220180633
 40
0.4888072209
 40
0.5584455574
 40
0.7036731349
 40
0.8527723427
 40
1.0
 40
1.0
 40
1.0
 40
1.0
 10
11.5707301285
 20
9.1052542644
 30
0.0
 10
11.5707301285
 20
9.1040451763
 30
0.0
 10
11.5709479598
 20
9.1021748258
 30
0.0
 10
11.571671623
 20
9.0997227821
 30
0.0
 10
11.5724931692
 20
9.0978093882
 30
0.0
 10
11.5735977846
 20
9.0958998901
 30
0.0
 10
11.5749862472
 20
9.0940209975
 30
0.0
 10
11.5766590704
 20
9.0922062371
 30
0.0
 10
11.5786148181
 20
9.0904915176
 30
0.0
 10
11.5808432149
 20
9.088916749
 30
0.0
 10
11.584174488
 20
9.0870038046
 30
0.0
 10
11.5887890488
 20
9.085114154
 30
0.0
 10
11.5946819897
 20
9.0837954592
 30
0.0
 10
11.5987243397
 20
9.0834938192
 30
0.0
 10
11.6007301285
 20
9.0834938192
 30
0.0
  0
SPLINE
  5
5D2
100
AcDbEntity
  8
0
100
AcDbSpline
 62
9
  6
CONTINUOUS
 70
0
 71
3
 72
10
 73
6
 74
0
 42
0.0000001
 43
0.0000001
 44
0.0000000001
 40
0.0
 40
0.0
 40
0.0
 40
0.0
 40
0.5325967089
 40
0.7756793197
 40
1.0
 40
1.0
 40
1.0
 40
1.0
 10
11.6007301285
 20
9.0834938192
 30
0.0
 10
11.6033787709
 20
9.0834938192
 30
0.0
 10
11.6072509638
 20
9.0838715487
 30
0.0
 10
11.6120841364
 20
9.0850603139
 30
0.0
 10
11.6142847155
 20
9.0858225846
 30
0.0
 10
11.6153191696
 20
9.0862401799
 30
0.0
  0
SPLINE
  5
5D3
100
AcDbEntity
  8
0
100
AcDbSpline
 62
9
  6
CONTINUOUS
 70
0
 71
3
 72
16
 73
12
 74
0
 42
0.0000001
 43
0.0000001
 44
0.0000000001
 40
0.0
 40
0.0
 40
0.0
 40
0.0
 40
0.1758757133
 40
0.3365041346
 40
0.480983093
 40
0.6094714773
 40
0.7229282301
 40
0.8234149269
 40
0.9142305522
 40
0.9574522382
 40
1.0
 40
1.0
 40
1.0
 40
1.0
 10
11.6153191698
 20
9.0862401799
 30
0.0
 10
11.6149003895
 20
9.0848462443
 30
0.0
 10
11.6140163215
 20
9.0822028109
 30
0.0
 10
11.612473159
 20
9.0785289327
 30
0.0
 10
11.610783749
 20
9.0753563098
 30
0.0
 10
11.6089699139
 20
9.072712638
 30
0.0
 10
11.6070462567
 20
9.0706154226
 30
0.0
 10
11.6050215266
 20
9.0690835102
 30
0.0
 10
11.6032257724
 20
9.068288903
 30
0.0
 10
11.6017930725
 20
9.0679812588
 30
0.0
 10
11.6010822371
 20
9.0679303417
 30
0.0
 10
11.6007301271
 20
9.0679303208
 30
0.0
  0
SPLINE
  5
5D4
100
AcDbEntity
  8
0
100
AcDbSpline
 62
9
  6
CONTINUOUS
 70
0
 71
3
 72
16
 73
12
 74
0
 42
0.0000001
 43
0.0000001
 44
0.0000000001
 40
0.0
 40
0.0
 40
0.0
 40
0.0
 40
0.1758891481
 40
0.3365425232
 40
0.4810243627
 40
0.6094925262
 40
0.7229280701
 40
0.8234040821
 40
0.9142263177
 40
0.9574520413
 40
1.0
 40
1.0
 40
1.0
 40
1.0
 10
10.8761410872
 20
9.0862401799
 30
0.0
 10
10.8765599058
 20
9.0848461529
 30
0.0
 10
10.877444385
 20
9.0822025351
 30
0.0
 10
10.8789881648
 20
9.0785285971
 30
0.0
 10
10.8806775522
 20
9.0753559359
 30
0.0
 10
10.8824910813
 20
9.0727124895
 30
0.0
 10
10.8844141252
 20
9.0706153403
 30
0.0
 10
10.8864385964
 20
9.0690834288
 30
0.0
 10
10.8882343854
 20
9.0682889309
 30
0.0
 10
10.8896671576
 20
9.0679812741
 30
0.0
 10
10.8903780215
 20
9.0679303427
 30
0.0
 10
10.89073013
 20
9.0679303208
 30
0.0
  0
SPLINE
  5
5D5
100
AcDbEntity
  8
0
100
AcDbSpline
 62
9
  6
CONTINUOUS
 70
0
 71
3
 72
10
 73
6
 74
0
 42
0.0000001
 43
0.0000001
 44
0.0000000001
 40
0.0
 40
0.0
 40
0.0
 40
0.0
 40
0.2243206804
 40
0.4674032911
 40
1.0
 40
1.0
 40
1.0
 40
1.0
 10
10.8761410874
 20
9.0862401799
 30
0.0
 10
10.8771755415
 20
9.0858225846
 30
0.0
 10
10.8793761206
 20
9.0850603139
 30
0.0
 10
10.8842092932
 20
9.0838715487
 30
0.0
 10
10.8880814861
 20
9.0834938192
 30
0.0
 10
10.8907301285
 20
9.0834938192
 30
0.0
  0
SPLINE
  5
5D6
100
AcDbEntity
  8
0
100
AcDbSpline
 62
9
  6
CONTINUOUS
 70
0
 71
3
 72
19
 73
15
 74
0
 42
0.0000001
 43
0.0000001
 44
0.0000000001
 40
0.0
 40
0.0
 40
0.0
 40
0.0
 40
0.1472276573
 40
0.2963268651
 40
0.4415544426
 40
0.5111927791
 40
0.5779819367
 40
0.6414968309
 40
0.7017530369
 40
0.7588012014
 40
0.8126362063
 40
0.8633217872
 40
0.9112512715
 40
1.0
 40
1.0
 40
1.0
 40
1.0
 10
10.8907301285
 20
9.0834938192
 30
0.0
 10
10.8927359173
 20
9.0834938192
 30
0.0
 10
10.8967782673
 20
9.0837954592
 30
0.0
 10
10.9026712082
 20
9.085114154
 30
0.0
 10
10.907285769
 20
9.0870038046
 30
0.0
 10
10.9106170421
 20
9.088916749
 30
0.0
 10
10.9128454389
 20
9.0904915176
 30
0.0
 10
10.9148011866
 20
9.0922062371
 30
0.0
 10
10.9164740098
 20
9.0940209975
 30
0.0
 10
10.9178624724
 20
9.0958998901
 30
0.0
 10
10.9189670878
 20
9.0978093882
 30
0.0
 10
10.919788634
 20
9.0997227821
 30
0.0
 10
10.9205122973
 20
9.1021748258
 30
0.0
 10
10.9207301285
 20
9.1040451763
 30
0.0
 10
10.9207301285
 20
9.1052542644
 30
0.0
  0
SPLINE
  5
5D7
100
AcDbEntity
  8
0
100
AcDbSpline
 62
9
  6
CONTINUOUS
 70
0
 71
3
 72
19
 73
15
 74
0
 42
0.0000001
 43
0.0000001
 44
0.0000000001
 40
0.0
 40
0.0
 40
0.0
 40
0.0
 40
0.0887481704
 40
0.1366773864
 40
0.1873627233
 40
0.2411975214
 40
0.2982455278
 40
0.3585016333
 40
0.4220164916
 40
0.4888056809
 40
0.5584441129
 40
0.7036720465
 40
0.8527717681
 40
1.0
 40
1.0
 40
1.0
 40
1.0
 10
10.9207301285
 20
10.0306062122
 30
0.0
 10
10.9207301285
 20
10.0318152879
 30
0.0
 10
10.920512297
 20
10.0336856199
 30
0.0
 10
10.9197886338
 20
10.0361376378
 30
0.0
 10
10.9189670873
 20
10.0380510121
 30
0.0
 10
10.9178624717
 20
10.0399604904
 30
0.0
 10
10.916474009
 20
10.0418393635
 30
0.0
 10
10.9148011856
 20
10.043654105
 30
0.0
 10
10.9128454378
 20
10.0453688066
 30
0.0
 10
10.9106170411
 20
10.0469435587
 30
0.0
 10
10.9072857668
 20
10.0488564837
 30
0.0
 10
10.9026712053
 20
10.0507461143
 30
0.0
 10
10.8967782659
 20
10.0520647948
 30
0.0
 10
10.8927359172
 20
10.0523664315
 30
0.0
 10
10.8907301285
 20
10.0523664315
 30
0.0
  0
SPLINE
  5
5D8
100
AcDbEntity
  8
0
100
AcDbSpline
 62
9
  6
CONTINUOUS
 70
0
 71
3
 72
10
 73
6
 74
0
 42
0.0000001
 43
0.0000001
 44
0.0000000001
 40
0.0
 40
0.0
 40
0.0
 40
0.0
 40
0.5325968431
 40
0.7756794124
 40
1.0
 40
1.0
 40
1.0
 40
1.0
 10
10.8907301285
 20
10.0523664315
 30
0.0
 10
10.8880814866
 20
10.0523664315
 30
0.0
 10
10.8842092953
 20
10.0519887062
 30
0.0
 10
10.8793761221
 20
10.0507999531
 30
0.0
 10
10.8771755422
 20
10.0500376903
 30
0.0
 10
10.8761410874
 20
10.0496200993
 30
0.0
  0
SPLINE
  5
5D9
100
AcDbEntity
  8
0
100
AcDbSpline
 62
9
  6
CONTINUOUS
 70
0
 71
3
 72
16
 73
12
 74
0
 42
0.0000001
 43
0.0000001
 44
0.0000000001
 40
0.0
 40
0.0
 40
0.0
 40
0.0
 40
0.0425478278
 40
0.0857629479
 40
0.1765548608
 40
0.2770334365
 40
0.3905040007
 40
0.5190152264
 40
0.6635010167
 40
0.8241224394
 40
1.0
 40
1.0
 40
1.0
 40
1.0
 10
10.8907301295
 20
10.0679303208
 30
0.0
 10
10.8903780189
 20
10.0679303053
 30
0.0
 10
10.8896672374
 20
10.0678794615
 30
0.0
 10
10.8882347281
 20
10.0675720988
 30
0.0
 10
10.8864392513
 20
10.0667776053
 30
0.0
 10
10.8844146173
 20
10.0652458755
 30
0.0
 10
10.8824903588
 20
10.0631488472
 30
0.0
 10
10.8806770495
 20
10.0605043227
 30
0.0
 10
10.8789880002
 20
10.0573313488
 30
0.0
 10
10.8774442783
 20
10.0536577022
 30
0.0
 10
10.8765599285
 20
10.0510143956
 30
0.0
 10
10.8761410873
 20
10.0496204616
 30
0.0
  0
SPLINE
  5
5DA
100
AcDbEntity
  8
0
100
AcDbSpline
 62
9
  6
CONTINUOUS
 70
0
 71
3
 72
16
 73
12
 74
0
 42
0.0000001
 43
0.0000001
 44
0.0000000001
 40
0.0
 40
0.0
 40
0.0
 40
0.0
 40
0.0425476263
 40
0.0857600859
 40
0.1765469771
 40
0.2770295505
 40
0.3905104928
 40
0.5190342223
 40
0.6635213783
 40
0.8241293645
 40
1.0
 40
1.0
 40
1.0
 40
1.0
 10
11.6007301275
 20
10.0679303208
 30
0.0
 10
11.6010822367
 20
10.0679303056
 30
0.0
 10
11.6017929955
 20
10.0678794705
 30
0.0
 10
11.6032254426
 20
10.0675721138
 30
0.0
 10
11.6050208613
 20
10.0667775563
 30
0.0
 10
11.6070455261
 20
10.0652457501
 30
0.0
 10
11.6089700189
 20
10.0631486403
 30
0.0
 10
11.6107836312
 20
10.0605040785
 30
0.0
 10
11.6124728601
 20
10.057331181
 30
0.0
 10
11.6140162574
 20
10.053657553
 30
0.0
 10
11.6149003459
 20
10.0510143422
 30
0.0
 10
11.6153191697
 20
10.0496204616
 30
0.0
  0
SPLINE
  5
5DB
100
AcDbEntity
  8
0
100
AcDbSpline
 62
9
  6
CONTINUOUS
 70
0
 71
3
 72
10
 73
6
 74
0
 42
0.0000001
 43
0.0000001
 44
0.0000000001
 40
0.0
 40
0.0
 40
0.0
 40
0.0
 40
0.2243205202
 40
0.4674030593
 40
1.0
 40
1.0
 40
1.0
 40
1.0
 10
11.6153191696
 20
10.0496198357
 30
0.0
 10
11.6142847143
 20
10.0500374236
 30
0.0
 10
11.6120841338
 20
10.0507996807
 30
0.0
 10
11.6072509602
 20
10.0519884249
 30
0.0
 10
11.60337877
 20
10.0523661472
 30
0.0
 10
11.6007301285
 20
10.0523661472
 30
0.0
  0
SPLINE
  5
5DC
100
AcDbEntity
  8
0
100
AcDbSpline
 62
9
  6
CONTINUOUS
 70
0
 71
3
 72
19
 73
15
 74
0
 42
0.0000001
 43
0.0000001
 44
0.0000000001
 40
0.0
 40
0.0
 40
0.0
 40
0.0
 40
0.1472286498
 40
0.2963287451
 40
0.4415569378
 40
0.5111954392
 40
0.5779846516
 40
0.6414994838
 40
0.7017555162
 40
0.7588034076
 40
0.8126380552
 40
0.8633232146
 40
0.9112522355
 40
1.0
 40
1.0
 40
1.0
 40
1.0
 10
11.6007301285
 20
10.0523661472
 30
0.0
 10
11.5987243399
 20
10.0523661472
 30
0.0
 10
11.5946819921
 20
10.0520645129
 30
0.0
 10
11.5887890538
 20
10.0507458429
 30
0.0
 10
11.5841744918
 20
10.0488562267
 30
0.0
 10
11.5808432167
 20
10.0469433158
 30
0.0
 10
11.57861482
 20
10.0453685758
 30
0.0
 10
11.5766590722
 20
10.0436538872
 30
0.0
 10
11.5749862487
 20
10.0418391595
 30
0.0
 10
11.5735977858
 20
10.0399603005
 30
0.0
 10
11.5724931701
 20
10.0380508365
 30
0.0
 10
11.5716716234
 20
10.0361374766
 30
0.0
 10
11.5709479601
 20
10.0336854774
 30
0.0
 10
11.5707301285
 20
10.0318151589
 30
0.0
 10
11.5707301285
 20
10.0306060922
 30
0.0
  0
SPLINE
  5
5DD
100
AcDbEntity
  8
0
100
AcDbSpline
 62
7
  6
CONTINUOUS
 70
0
 71
3
 72
15
 73
11
 74
0
 42
0.0000001
 43
0.0000001
 44
0.0000000001
 40
0.0
 40
0.0
 40
0.0
 40
0.0
 40
0.0241428677
 40
0.0531045628
 40
0.1259986391
 40
0.2193622652
 40
0.3335075874
 40
0.4686184377
 40
0.6248128618
 40
1.0
 40
1.0
 40
1.0
 40
1.0
 10
11.6154727296
 20
10.1032533077
 30
0.0
 10
11.6153661276
 20
10.1031913788
 30
0.0
 10
11.6151228641
 20
10.1030703068
 30
0.0
 10
11.6145254795
 20
10.1028303423
 30
0.0
 10
11.6135696525
 20
10.1025416929
 30
0.0
 10
11.6121757548
 20
10.1022128212
 30
0.0
 10
11.6104572273
 20
10.1018823165
 30
0.0
 10
11.608413432
 20
10.1015502456
 30
0.0
 10
11.6050428356
 20
10.1010772372
 30
0.0
 10
11.6023465134
 20
10.1007686266
 30
0.0
 10
11.6004412689
 20
10.1005669977
 30
0.0
  0
SPLINE
  5
5DE
100
AcDbEntity
  8
0
100
AcDbSpline
 62
7
  6
CONTINUOUS
 70
0
 71
3
 72
21
 73
17
 74
0
 42
0.0000001
 43
0.0000001
 44
0.0000000001
 40
0.0
 40
0.0
 40
0.0
 40
0.0
 40
0.0065395474
 40
0.0135927004
 40
0.0215770518
 40
0.0307852787
 40
0.0535529971
 40
0.0828185471
 40
0.1189898623
 40
0.1622782115
 40
0.2128029795
 40
0.2706383157
 40
0.408413576
 40
0.5758540123
 40
0.7730833613
 40
1.0
 40
1.0
 40
1.0
 40
1.0
 10
11.6159888266
 20
10.0859926864
 30
0.0
 10
11.6159888627
 20
10.085958782
 30
0.0
 10
11.6159782816
 20
10.0858879554
 30
0.0
 10
11.615932022
 20
10.0857849337
 30
0.0
 10
11.6158566813
 20
10.0856833775
 30
0.0
 10
11.6157072501
 20
10.0855389177
 30
0.0
 10
11.6154397623
 20
10.0853637922
 30
0.0
 10
11.6150267974
 20
10.0851662311
 30
0.0
 10
11.6144985222
 20
10.0849679037
 30
0.0
 10
11.6138544274
 20
10.0847688955
 30
0.0
 10
11.6130937568
 20
10.0845693057
 30
0.0
 10
11.6118493678
 20
10.0842858831
 30
0.0
 10
11.6099985385
 20
10.0839400168
 30
0.0
 10
11.6074238309
 20
10.0835428156
 30
0.0
 10
11.6043825014
 20
10.0831444596
 30
0.0
 10
11.602197553
 20
10.0828955782
 30
0.0
 10
11.6010278807
 20
10.0827694343
 30
0.0
  0
LINE
  5
5DF
100
AcDbEntity
  8
0
100
AcDbLine
 62
7
  6
CONTINUOUS
 10
11.6010278807
 20
10.0827694343
 11
11.6007458073
 21
10.0827391532
  0
LINE
  5
5E0
100
AcDbEntity
  8
0
100
AcDbLine
 62
7
  6
CONTINUOUS
 10
11.4531976326
 20
10.0749696348
 11
11.4509320447
 21
10.0748863473
  0
LINE
  5
5E1
100
AcDbEntity
  8
0
100
AcDbLine
 62
7
  6
CONTINUOUS
 10
11.4509320447
 20
10.0748863473
 11
11.3173520613
 21
10.0704364247
  0
SPLINE
  5
5E2
100
AcDbEntity
  8
0
100
AcDbSpline
 62
7
  6
CONTINUOUS
 70
0
 71
3
 72
23
 73
19
 74
0
 42
0.0000001
 43
0.0000001
 44
0.0000000001
 40
0.0
 40
0.0
 40
0.0
 40
0.0
 40
0.0053266038
 40
0.0123257325
 40
0.021042498
 40
0.0314983175
 40
0.0437039292
 40
0.057661433
 40
0.09081649
 40
0.1309207732
 40
0.1779166823
 40
0.2317202032
 40
0.2922147712
 40
0.3592795943
 40
0.432788743
 40
0.5985425441
 40
0.7881953156
 40
1.0
 40
1.0
 40
1.0
 40
1.0
 10
10.8372373948
 20
10.0997421286
 30
0.0
 10
10.8374183387
 20
10.0998425508
 30
0.0
 10
10.8378603844
 20
10.1000316918
 30
0.0
 10
10.8386391489
 20
10.1002813117
 30
0.0
 10
10.8396249777
 20
10.1005326295
 30
0.0
 10
10.8408177765
 20
10.1007851894
 30
0.0
 10
10.8422178874
 20
10.1010385427
 30
0.0
 10
10.8444943742
 20
10.1013980104
 30
0.0
 10
10.8478548353
 20
10.1018366639
 30
0.0
 10
10.8524997404
 20
10.1023409685
 30
0.0
 10
10.8579507138
 20
10.1028469107
 30
0.0
 10
10.8641966428
 20
10.1033542094
 30
0.0
 10
10.8712244579
 20
10.1038624372
 30
0.0
 10
10.8790195862
 20
10.1043713647
 30
0.0
 10
10.8908996537
 20
10.1050790909
 30
0.0
 10
10.9075407429
 20
10.1059510174
 30
0.0
 10
10.9295541908
 20
10.1069630698
 30
0.0
 10
10.9451379539
 20
10.1076054608
 30
0.0
 10
10.9533603203
 20
10.1079303208
 30
0.0
  0
SPLINE
  5
5E3
100
AcDbEntity
  8
0
100
AcDbSpline
 62
7
  6
CONTINUOUS
 70
0
 71
3
 72
12
 73
8
 74
0
 42
0.0000001
 43
0.0000001
 44
0.0000000001
 40
0.0
 40
0.0
 40
0.0
 40
0.0
 40
0.2499943413
 40
0.3750033133
 40
0.5000070703
 40
0.7500021283
 40
1.0
 40
1.0
 40
1.0
 40
1.0
 10
11.3083936394
 20
10.0880312233
 30
0.0
 10
11.316116319
 20
10.0890199965
 30
0.0
 10
11.3276752575
 20
10.0907100109
 30
0.0
 10
11.3430263758
 20
10.0933256195
 30
0.0
 10
11.3583375379
 20
10.0961669873
 30
0.0
 10
11.3773964547
 20
10.1001340195
 30
0.0
 10
11.3925492714
 20
10.1037300654
 30
0.0
 10
11.4001012762
 20
10.1056238415
 30
0.0
  0
SPLINE
  5
5E4
100
AcDbEntity
  8
0
100
AcDbSpline
 62
7
  6
CONTINUOUS
 70
0
 71
3
 72
10
 73
6
 74
0
 42
0.0000001
 43
0.0000001
 44
0.0000000001
 40
0.0
 40
0.0
 40
0.0
 40
0.0
 40
0.2500129102
 40
0.6250083779
 40
1.0
 40
1.0
 40
1.0
 40
1.0
 10
11.0611874505
 20
10.1031406244
 30
0.0
 10
11.0712027397
 20
10.1007825691
 30
0.0
 10
11.0963416967
 20
10.0953105056
 30
0.0
 10
11.1369437274
 20
10.0884496914
 30
0.0
 10
11.1676697636
 20
10.0852380478
 30
0.0
 10
11.1830666176
 20
10.0841886954
 30
0.0
  0
LINE
  5
5E5
100
AcDbEntity
  8
0
100
AcDbLine
 62
7
  6
CONTINUOUS
 10
11.1830717017
 20
10.0841891004
 11
11.1787596838
 21
10.0840554604
  0
SPLINE
  5
5E6
100
AcDbEntity
  8
0
100
AcDbSpline
 62
7
  6
CONTINUOUS
 70
0
 71
3
 72
19
 73
15
 74
0
 42
0.0000001
 43
0.0000001
 44
0.0000000001
 40
0.0
 40
0.0
 40
0.0
 40
0.0
 40
0.1749232009
 40
0.341594345
 40
0.4967892869
 40
0.6373033943
 40
0.7599925947
 40
0.8138844986
 40
0.862510503
 40
0.9056515441
 40
0.9430897524
 40
0.9746094457
 40
0.9880837854
 40
1.0
 40
1.0
 40
1.0
 40
1.0
 10
11.1787596838
 20
10.0840554604
 30
0.0
 10
11.1617123501
 20
10.0835265496
 30
0.0
 10
11.1284223081
 20
10.082480208
 30
0.0
 10
11.0800101284
 20
10.080884482
 30
0.0
 10
11.0349547147
 20
10.0792926416
 30
0.0
 10
10.9941903583
 20
10.0777070594
 30
0.0
 10
10.9633026436
 20
10.0763382384
 30
0.0
 10
10.9413726636
 20
10.0752203441
 30
0.0
 10
10.9271929679
 20
10.0744199574
 30
0.0
 10
10.9146202277
 20
10.0736217517
 30
0.0
 10
10.9037190736
 20
10.0728261674
 30
0.0
 10
10.8957108808
 20
10.0721364465
 30
0.0
 10
10.8901905854
 20
10.0715725227
 30
0.0
 10
10.8877311595
 20
10.0712884797
 30
0.0
 10
10.8865782512
 20
10.0711444769
 30
0.0
  0
SPLINE
  5
5E7
100
AcDbEntity
  8
0
100
AcDbSpline
 62
7
  6
CONTINUOUS
 70
0
 71
3
 72
19
 73
15
 74
0
 42
0.0000001
 43
0.0000001
 44
0.0000000001
 40
0.0
 40
0.0
 40
0.0
 40
0.0
 40
0.2253141673
 40
0.4210389753
 40
0.5872948889
 40
0.7243007463
 40
0.7819463119
 40
0.832437506
 40
0.8758764423
 40
0.91242116
 40
0.9423352059
 40
0.9660987579
 40
0.9846688778
 40
1.0
 40
1.0
 40
1.0
 40
1.0
 10
10.8865782512
 20
10.0711444769
 30
0.0
 10
10.885708472
 20
10.071035838
 30
0.0
 10
10.8840845209
 20
10.0708213903
 30
0.0
 10
10.881825525
 20
10.070477909
 30
0.0
 10
10.8799145233
 20
10.0701355103
 30
0.0
 10
10.8785418874
 20
10.0698373622
 30
0.0
 10
10.8776198211
 20
10.0695932096
 30
0.0
 10
10.8770556537
 20
10.0694210696
 30
0.0
 10
10.8765777128
 20
10.0692493306
 30
0.0
 10
10.8761855645
 20
10.0690779906
 30
0.0
 10
10.8758781008
 20
10.0689069883
 30
0.0
 10
10.8756540093
 20
10.0687350925
 30
0.0
 10
10.8755100757
 20
10.0685585377
 30
0.0
 10
10.875473058
 20
10.068426011
 30
0.0
 10
10.8754730641
 20
10.0683663685
 30
0.0
  0
SPLINE
  5
5E8
100
AcDbEntity
  8
0
100
AcDbSpline
 62
7
  6
CONTINUOUS
 70
0
 71
3
 72
35
 73
31
 74
0
 42
0.0000001
 43
0.0000001
 44
0.0000000001
 40
0.0
 40
0.0
 40
0.0
 40
0.0
 40
0.2149903431
 40
0.3153998575
 40
0.4104003121
 40
0.4995645435
 40
0.5824807156
 40
0.658754788
 40
0.7280150765
 40
0.7899452369
 40
0.8442473517
 40
0.8684604782
 40
0.8906779234
 40
0.910872287
 40
0.9290193222
 40
0.9451027047
 40
0.9591083451
 40
0.971023928
 40
0.9761951235
 40
0.9808412426
 40
0.9849635587
 40
0.9885644606
 40
0.9916479281
 40
0.9942207974
 40
0.9962955232
 40
0.9978969621
 40
0.9985370172
 40
0.9990852777
 40
0.9995625555
 40
1.0
 40
1.0
 40
1.0
 40
1.0
 10
11.0611874505
 20
10.1031406244
 30
0.0
 10
11.045054426
 20
10.1026329091
 30
0.0
 10
11.0213867451
 20
10.1018827169
 30
0.0
 10
10.9905928224
 20
10.1008276702
 30
0.0
 10
10.9692417172
 20
10.1000507606
 30
0.0
 10
10.9492048729
 20
10.0992744723
 30
0.0
 10
10.9305750135
 20
10.0985000142
 30
0.0
 10
10.9134408416
 20
10.0977266118
 30
0.0
 10
10.8978839676
 20
10.0969537463
 30
0.0
 10
10.8839788871
 20
10.0961822197
 30
0.0
 10
10.873455311
 20
10.095518188
 30
0.0
 10
10.8659116351
 20
10.0949802212
 30
0.0
 10
10.8609245765
 20
10.0945926408
 30
0.0
 10
10.8563944083
 20
10.0942054654
 30
0.0
 10
10.8523265851
 20
10.0938187008
 30
0.0
 10
10.848725638
 20
10.0934326747
 30
0.0
 10
10.8455954871
 20
10.0930475587
 30
0.0
 10
10.8432847609
 20
10.092714184
 30
0.0
 10
10.8416757312
 20
10.0924429268
 30
0.0
 10
10.8406471401
 20
10.0922494137
 30
0.0
 10
10.8397386927
 20
10.0920562058
 30
0.0
 10
10.8389504124
 20
10.0918633899
 30
0.0
 10
10.8382823129
 20
10.0916711197
 30
0.0
 10
10.8377338031
 20
10.0914796037
 30
0.0
 10
10.8373046719
 20
10.0912889614
 30
0.0
 10
10.8370256864
 20
10.0911199812
 30
0.0
 10
10.8368690377
 20
10.0909799621
 30
0.0
 10
10.8367901956
 20
10.0908819209
 30
0.0
 10
10.8367414509
 20
10.0907822122
 30
0.0
 10
10.836730131
 20
10.0907131697
 30
0.0
 10
10.8367301287
 20
10.0906803273
 30
0.0
  0
SPLINE
  5
5E9
100
AcDbEntity
  8
0
100
AcDbSpline
 62
7
  6
CONTINUOUS
 70
0
 71
3
 72
9
 73
5
 74
0
 42
0.0000001
 43
0.0000001
 44
0.0000000001
 40
0.0
 40
0.0
 40
0.0
 40
0.0
 40
0.2552102018
 40
1.0
 40
1.0
 40
1.0
 40
1.0
 10
7.9387378406
 20
16.3792617829
 30
0.0
 10
7.9368940117
 20
16.3779564715
 30
0.0
 10
7.9297183142
 20
16.3727730939
 30
0.0
 10
7.9227434832
 20
16.3673100251
 30
0.0
 10
7.9176898186
 20
16.3630761359
 30
0.0
  0
SPLINE
  5
5EA
100
AcDbEntity
  8
0
100
AcDbSpline
 62
7
  6
CONTINUOUS
 70
0
 71
3
 72
9
 73
5
 74
0
 42
0.0000001
 43
0.0000001
 44
0.0000000001
 40
0.0
 40
0.0
 40
0.0
 40
0.0
 40
0.255409793
 40
1.0
 40
1.0
 40
1.0
 40
1.0
 10
7.9176898186
 20
16.3630761359
 30
0.0
 10
7.9160422626
 20
16.3616958366
 30
0.0
 10
7.9096500496
 20
16.3562224447
 30
0.0
 10
7.9034970119
 20
16.3504680334
 30
0.0
 10
7.8990819117
 20
16.346021834
 30
0.0
  0
SPLINE
  5
5EB
100
AcDbEntity
  8
0
100
AcDbSpline
 62
7
  6
CONTINUOUS
 70
0
 71
3
 72
9
 73
5
 74
0
 42
0.0000001
 43
0.0000001
 44
0.0000000001
 40
0.0
 40
0.0
 40
0.0
 40
0.0
 40
0.2572168785
 40
1.0
 40
1.0
 40
1.0
 40
1.0
 10
7.8990819117
 20
16.346021834
 30
0.0
 10
7.8971772789
 20
16.3441037853
 30
0.0
 10
7.8898924895
 20
16.3365294487
 30
0.0
 10
7.8831029036
 20
16.3284727609
 30
0.0
 10
7.8784263278
 20
16.3222229279
 30
0.0
  0
SPLINE
  5
5EC
100
AcDbEntity
  8
0
100
AcDbSpline
 62
7
  6
CONTINUOUS
 70
0
 71
3
 72
9
 73
5
 74
0
 42
0.0000001
 43
0.0000001
 44
0.0000000001
 40
0.0
 40
0.0
 40
0.0
 40
0.0
 40
0.2552030533
 40
1.0
 40
1.0
 40
1.0
 40
1.0
 10
7.8784263278
 20
16.3222229279
 30
0.0
 10
7.8772561791
 20
16.3206591268
 30
0.0
 10
7.8727602894
 20
16.3144654237
 30
0.0
 10
7.8686310161
 20
16.3080034983
 30
0.0
 10
7.8658039601
 20
16.3030538477
 30
0.0
  0
SPLINE
  5
5ED
100
AcDbEntity
  8
0
100
AcDbSpline
 62
7
  6
CONTINUOUS
 70
0
 71
3
 72
9
 73
5
 74
0
 42
0.0000001
 43
0.0000001
 44
0.0000000001
 40
0.0
 40
0.0
 40
0.0
 40
0.0
 40
0.2554718877
 40
1.0
 40
1.0
 40
1.0
 40
1.0
 10
7.8658039601
 20
16.3030538477
 30
0.0
 10
7.8646568358
 20
16.3010454459
 30
0.0
 10
7.8603255115
 20
16.2930948158
 30
0.0
 10
7.8566522814
 20
16.2847809891
 30
0.0
 10
7.8543647674
 20
16.2784404254
 30
0.0
  0
SPLINE
  5
5EE
100
AcDbEntity
  8
0
100
AcDbSpline
 62
7
  6
CONTINUOUS
 70
0
 71
3
 72
9
 73
5
 74
0
 42
0.0000001
 43
0.0000001
 44
0.0000000001
 40
0.0
 40
0.0
 40
0.0
 40
0.0
 40
0.5048593094
 40
1.0
 40
1.0
 40
1.0
 40
1.0
 10
7.8543647674
 20
16.2784404254
 30
0.0
 10
7.852614151
 20
16.2735880423
 30
0.0
 10
7.8496576437
 20
16.2637831575
 30
0.0
 10
7.8478260605
 20
16.2537050249
 30
0.0
 10
7.8472138761
 20
16.2486829867
 30
0.0
  0
SPLINE
  5
5EF
100
AcDbEntity
  8
0
100
AcDbSpline
 62
7
  6
CONTINUOUS
 70
0
 71
3
 72
15
 73
11
 74
0
 42
0.0000001
 43
0.0000001
 44
0.0000000001
 40
0.0
 40
0.0
 40
0.0
 40
0.0
 40
0.1215518082
 40
0.2425785323
 40
0.3642729918
 40
0.4872406383
 40
0.6116877976
 40
0.738148162
 40
0.8674000296
 40
1.0
 40
1.0
 40
1.0
 40
1.0
 10
7.8462688222
 20
16.2491097331
 30
0.0
 10
7.8462672541
 20
16.2571477714
 30
0.0
 10
7.8473507729
 20
16.2732103008
 30
0.0
 10
7.8521781045
 20
16.2968784353
 30
0.0
 10
7.8600450534
 20
16.3198130795
 30
0.0
 10
7.8706999289
 20
16.3418339378
 30
0.0
 10
7.8839208964
 20
16.3627833524
 30
0.0
 10
7.8995076686
 20
16.3825607855
 30
0.0
 10
7.917256721
 20
16.4011630975
 30
0.0
 10
7.9302456616
 20
16.4126474441
 30
0.0
 10
7.9370315582
 20
16.4182008755
 30
0.0
  0
SPLINE
  5
5F0
100
AcDbEntity
  8
0
100
AcDbSpline
 62
9
  6
CONTINUOUS
 70
0
 71
3
 72
15
 73
11
 74
0
 42
0.0000001
 43
0.0000001
 44
0.0000000001
 40
0.0
 40
0.0
 40
0.0
 40
0.0
 40
0.1424013578
 40
0.2847218737
 40
0.4241909711
 40
0.5581869989
 40
0.6843121441
 40
0.8007535792
 40
0.9062067641
 40
1.0
 40
1.0
 40
1.0
 40
1.0
 10
8.0283005092
 20
16.0612326836
 30
0.0
 10
8.024508349
 20
16.0609719246
 30
0.0
 10
8.0169013135
 20
16.0607651815
 30
0.0
 10
8.0055822925
 20
16.06135865
 30
0.0
 10
7.9945712087
 20
16.0628503558
 30
0.0
 10
7.98414957
 20
16.0651893526
 30
0.0
 10
7.9745820968
 20
16.0683260546
 30
0.0
 10
7.9661025094
 20
16.0721769126
 30
0.0
 10
7.9589351106
 20
16.0766572777
 30
0.0
 10
7.9549091335
 20
16.0801890171
 30
0.0
 10
7.9532216964
 20
16.0820385218
 30
0.0
  0
LINE
  5
5F1
100
AcDbEntity
  8
0
100
AcDbLine
 62
9
  6
CONTINUOUS
 10
7.9519123264
 20
16.2663042279
 11
7.952345571
 21
16.2667800886
  0
SPLINE
  5
5F2
100
AcDbEntity
  8
0
100
AcDbSpline
 62
9
  6
CONTINUOUS
 70
0
 71
3
 72
9
 73
5
 74
0
 42
0.0000001
 43
0.0000001
 44
0.0000000001
 40
0.0
 40
0.0
 40
0.0
 40
0.0
 40
0.4963573835
 40
1.0
 40
1.0
 40
1.0
 40
1.0
 10
7.8462693321
 20
16.2491394438
 30
0.0
 10
7.8462699944
 20
16.2549823866
 30
0.0
 10
7.8470811821
 20
16.2667674416
 30
0.0
 10
7.849473395
 20
16.2783328073
 30
0.0
 10
7.8510436525
 20
16.2840497818
 30
0.0
  0
SPLINE
  5
5F3
100
AcDbEntity
  8
0
100
AcDbSpline
 62
9
  6
CONTINUOUS
 70
0
 71
3
 72
15
 73
11
 74
0
 42
0.0000001
 43
0.0000001
 44
0.0000000001
 40
0.0
 40
0.0
 40
0.0
 40
0.0
 40
0.1167037635
 40
0.2344061651
 40
0.3539646538
 40
0.476168667
 40
0.601653283
 40
0.7308679481
 40
0.8637937733
 40
1.0
 40
1.0
 40
1.0
 40
1.0
 10
7.9043628347
 20
16.0948884277
 30
0.0
 10
7.9057504687
 20
16.0933683284
 30
0.0
 10
7.9087732792
 20
16.0905216279
 30
0.0
 10
7.9139162279
 20
16.0869460803
 30
0.0
 10
7.919608693
 20
16.0841061994
 30
0.0
 10
7.9257705887
 20
16.0820471779
 30
0.0
 10
7.9323159379
 20
16.0807864406
 30
0.0
 10
7.9391556268
 20
16.0803505134
 30
0.0
 10
7.946185091
 20
16.0807334353
 30
0.0
 10
7.9508776745
 20
16.0815168692
 30
0.0
 10
7.9532226759
 20
16.0820377712
 30
0.0
  0
SPLINE
  5
5F4
100
AcDbEntity
  8
0
100
AcDbSpline
 62
7
  6
CONTINUOUS
 70
0
 71
3
 72
9
 73
5
 74
0
 42
0.0000001
 43
0.0000001
 44
0.0000000001
 40
0.0
 40
0.0
 40
0.0
 40
0.0
 40
0.2552101761
 40
1.0
 40
1.0
 40
1.0
 40
1.0
 10
7.9387377404
 20
16.3792617118
 30
0.0
 10
7.9368939208
 20
16.377956406
 30
0.0
 10
7.929718258
 20
16.37277305
 30
0.0
 10
7.9227434601
 20
16.3673100055
 30
0.0
 10
7.9176898187
 20
16.3630761359
 30
0.0
  0
SPLINE
  5
5F5
100
AcDbEntity
  8
0
100
AcDbSpline
 62
7
  6
CONTINUOUS
 70
0
 71
3
 72
9
 73
5
 74
0
 42
0.0000001
 43
0.0000001
 44
0.0000000001
 40
0.0
 40
0.0
 40
0.0
 40
0.0
 40
0.2554097958
 40
1.0
 40
1.0
 40
1.0
 40
1.0
 10
7.9176898187
 20
16.3630761359
 30
0.0
 10
7.9160422626
 20
16.3616958366
 30
0.0
 10
7.9096500494
 20
16.3562224448
 30
0.0
 10
7.9034970119
 20
16.3504680334
 30
0.0
 10
7.8990819117
 20
16.3460218339
 30
0.0
  0
SPLINE
  5
5F6
100
AcDbEntity
  8
0
100
AcDbSpline
 62
7
  6
CONTINUOUS
 70
0
 71
3
 72
9
 73
5
 74
0
 42
0.0000001
 43
0.0000001
 44
0.0000000001
 40
0.0
 40
0.0
 40
0.0
 40
0.0
 40
0.2572168754
 40
1.0
 40
1.0
 40
1.0
 40
1.0
 10
7.8990819117
 20
16.3460218339
 30
0.0
 10
7.897177279
 20
16.3441037853
 30
0.0
 10
7.8898924898
 20
16.3365294485
 30
0.0
 10
7.883102904
 20
16.3284727607
 30
0.0
 10
7.878426328
 20
16.3222229279
 30
0.0
  0
SPLINE
  5
5F7
100
AcDbEntity
  8
0
100
AcDbSpline
 62
7
  6
CONTINUOUS
 70
0
 71
3
 72
9
 73
5
 74
0
 42
0.0000001
 43
0.0000001
 44
0.0000000001
 40
0.0
 40
0.0
 40
0.0
 40
0.0
 40
0.2552030602
 40
1.0
 40
1.0
 40
1.0
 40
1.0
 10
7.878426328
 20
16.3222229279
 30
0.0
 10
7.8772561792
 20
16.3206591268
 30
0.0
 10
7.8727602894
 20
16.3144654237
 30
0.0
 10
7.8686310161
 20
16.3080034983
 30
0.0
 10
7.8658039602
 20
16.3030538477
 30
0.0
  0
SPLINE
  5
5F8
100
AcDbEntity
  8
0
100
AcDbSpline
 62
7
  6
CONTINUOUS
 70
0
 71
3
 72
9
 73
5
 74
0
 42
0.0000001
 43
0.0000001
 44
0.0000000001
 40
0.0
 40
0.0
 40
0.0
 40
0.0
 40
0.2554718899
 40
1.0
 40
1.0
 40
1.0
 40
1.0
 10
7.8658039602
 20
16.3030538477
 30
0.0
 10
7.8646568359
 20
16.3010454459
 30
0.0
 10
7.8603255116
 20
16.2930948157
 30
0.0
 10
7.8566522815
 20
16.2847809889
 30
0.0
 10
7.8543647669
 20
16.2784404255
 30
0.0
  0
SPLINE
  5
5F9
100
AcDbEntity
  8
0
100
AcDbSpline
 62
7
  6
CONTINUOUS
 70
0
 71
3
 72
9
 73
5
 74
0
 42
0.0000001
 43
0.0000001
 44
0.0000000001
 40
0.0
 40
0.0
 40
0.0
 40
0.0
 40
0.504859266
 40
1.0
 40
1.0
 40
1.0
 40
1.0
 10
7.8543647669
 20
16.2784404255
 30
0.0
 10
7.8526141543
 20
16.273588054
 30
0.0
 10
7.8496576528
 20
16.2637831918
 30
0.0
 10
7.8478260708
 20
16.2537050829
 30
0.0
 10
7.8472138853
 20
16.2486830561
 30
0.0
  0
SPLINE
  5
5FA
100
AcDbEntity
  8
0
100
AcDbSpline
 62
7
  6
CONTINUOUS
 70
0
 71
3
 72
15
 73
11
 74
0
 42
0.0000001
 43
0.0000001
 44
0.0000000001
 40
0.0
 40
0.0
 40
0.0
 40
0.0
 40
0.1215518075
 40
0.2425785323
 40
0.364272993
 40
0.4872406403
 40
0.6116877999
 40
0.7381481642
 40
0.8674000311
 40
1.0
 40
1.0
 40
1.0
 40
1.0
 10
7.8462688377
 20
16.2491097541
 30
0.0
 10
7.8462672702
 20
16.2571477911
 30
0.0
 10
7.8473507898
 20
16.2732103178
 30
0.0
 10
7.8521781219
 20
16.2968784484
 30
0.0
 10
7.8600450703
 20
16.3198130889
 30
0.0
 10
7.8706999447
 20
16.3418339436
 30
0.0
 10
7.8839209103
 20
16.3627833547
 30
0.0
 10
7.8995076801
 20
16.3825607846
 30
0.0
 10
7.9172567296
 20
16.4011630936
 30
0.0
 10
7.930245668
 20
16.4126474384
 30
0.0
 10
7.9370315634
 20
16.4182008688
 30
0.0
  0
SPLINE
  5
5FB
100
AcDbEntity
  8
0
100
AcDbSpline
 62
7
  6
CONTINUOUS
 70
0
 71
3
 72
11
 73
7
 74
0
 42
0.0000001
 43
0.0000001
 44
0.0000000001
 40
0.0
 40
0.0
 40
0.0
 40
0.0
 40
0.2453107018
 40
0.4930340855
 40
0.743784195
 40
1.0
 40
1.0
 40
1.0
 40
1.0
 10
7.8519676186
 20
16.1882540035
 30
0.0
 10
7.8541624799
 20
16.1796935073
 30
0.0
 10
7.859811868
 20
16.1627845032
 30
0.0
 10
7.8715993713
 20
16.138644578
 30
0.0
 10
7.8864845734
 20
16.1158186736
 30
0.0
 10
7.8981416972
 20
16.1017077452
 30
0.0
 10
7.9043627082
 20
16.0948889048
 30
0.0
  0
SPLINE
  5
5FC
100
AcDbEntity
  8
0
100
AcDbSpline
 62
7
  6
CONTINUOUS
 70
0
 71
3
 72
11
 73
7
 74
0
 42
0.0000001
 43
0.0000001
 44
0.0000000001
 40
0.0
 40
0.0
 40
0.0
 40
0.0
 40
0.2493672177
 40
0.4978139067
 40
0.747528501
 40
1.0
 40
1.0
 40
1.0
 40
1.0
 10
7.9043627529
 20
16.0948884801
 30
0.0
 10
7.9071926992
 20
16.0917866578
 30
0.0
 10
7.913233274
 20
16.0859402521
 30
0.0
 10
7.9232526449
 20
16.0782820102
 30
0.0
 10
7.9340580795
 20
16.0716862187
 30
0.0
 10
7.9416744002
 20
16.0679820266
 30
0.0
 10
7.9455742376
 20
16.0662900356
 30
0.0
  0
SPLINE
  5
5FD
100
AcDbEntity
  8
0
100
AcDbSpline
 62
7
  6
CONTINUOUS
 70
0
 71
3
 72
11
 73
7
 74
0
 42
0.0000001
 43
0.0000001
 44
0.0000000001
 40
0.0
 40
0.0
 40
0.0
 40
0.0
 40
0.2426033563
 40
0.4913087579
 40
0.7448271058
 40
1.0
 40
1.0
 40
1.0
 40
1.0
 10
7.9455742376
 20
16.0662900356
 30
0.0
 10
7.9519361842
 20
16.0635298292
 30
0.0
 10
7.965224143
 20
16.0588399354
 30
0.0
 10
7.9860533097
 20
16.0542218422
 30
0.0
 10
8.0076169891
 20
16.0518814733
 30
0.0
 10
8.0221891718
 20
16.0518268259
 30
0.0
 10
8.0294746062
 20
16.0521848188
 30
0.0
  0
SPLINE
  5
5FE
100
AcDbEntity
  8
0
100
AcDbSpline
 62
9
  6
CONTINUOUS
 70
0
 71
3
 72
20
 73
16
 74
0
 42
0.0000001
 43
0.0000001
 44
0.0000000001
 40
0.0
 40
0.0
 40
0.0
 40
0.0
 40
0.1376375019
 40
0.2655817987
 40
0.3266415208
 40
0.3862195579
 40
0.4447499502
 40
0.5027000353
 40
0.5605518133
 40
0.6187881998
 40
0.6778819691
 40
0.7382760306
 40
0.8003694072
 40
0.8645157259
 40
1.0
 40
1.0
 40
1.0
 40
1.0
 10
7.9532216996
 20
16.0820385228
 30
0.0
 10
7.9469107942
 20
16.0889558991
 30
0.0
 10
7.9355974936
 20
16.1031379675
 30
0.0
 10
7.9246478819
 20
16.122614507
 30
0.0
 10
7.9185147333
 20
16.1383998976
 30
0.0
 10
7.9152248223
 20
16.1501580366
 30
0.0
 10
7.913188319
 20
16.161982944
 30
0.0
 10
7.912414278
 20
16.1738399904
 30
0.0
 10
7.9129017124
 20
16.185692227
 30
0.0
 10
7.9146491866
 20
16.1975034096
 30
0.0
 10
7.9176551302
 20
16.2092363217
 30
0.0
 10
7.9219053683
 20
16.2208558529
 30
0.0
 10
7.9273840648
 20
16.2323307037
 30
0.0
 10
7.9364676298
 20
16.2476653384
 30
0.0
 10
7.9448601235
 20
16.2584355635
 30
0.0
 10
7.9510088636
 20
16.2653020608
 30
0.0
  0
LINE
  5
5FF
100
AcDbEntity
  8
0
100
AcDbLine
 62
9
  6
CONTINUOUS
 10
7.9519123256
 20
16.2663042286
 11
7.9523455701
 21
16.2667800892
  0
SPLINE
  5
600
100
AcDbEntity
  8
0
100
AcDbSpline
 62
9
  6
CONTINUOUS
 70
0
 71
3
 72
14
 73
10
 74
0
 42
0.0000001
 43
0.0000001
 44
0.0000000001
 40
0.0
 40
0.0
 40
0.0
 40
0.0
 40
0.1092173326
 40
0.2217553431
 40
0.3383650196
 40
0.4596827959
 40
0.5862017352
 40
0.7182906214
 40
1.0
 40
1.0
 40
1.0
 40
1.0
 10
7.8510436525
 20
16.2840497816
 30
0.0
 10
7.8524032841
 20
16.2889999122
 30
0.0
 10
7.8557237674
 20
16.2989046402
 30
0.0
 10
7.8623206618
 20
16.3134033117
 30
0.0
 10
7.8705712783
 20
16.3276889864
 30
0.0
 10
7.8804487879
 20
16.3417097682
 30
0.0
 10
7.8919150065
 20
16.3554248325
 30
0.0
 10
7.9096442012
 20
16.373633469
 30
0.0
 10
7.9246712079
 20
16.3860942556
 30
0.0
 10
7.9353184876
 20
16.3939656391
 30
0.0
  0
SPLINE
  5
601
100
AcDbEntity
  8
0
100
AcDbSpline
 62
9
  6
CONTINUOUS
 70
0
 71
3
 72
15
 73
11
 74
0
 42
0.0000001
 43
0.0000001
 44
0.0000000001
 40
0.0
 40
0.0
 40
0.0
 40
0.0
 40
0.1167037555
 40
0.2344061464
 40
0.353964625
 40
0.4761686313
 40
0.6016532457
 40
0.7308679159
 40
0.8637937541
 40
1.0
 40
1.0
 40
1.0
 40
1.0
 10
7.9043627323
 20
16.0948884612
 30
0.0
 10
7.9057503678
 20
16.0933683571
 30
0.0
 10
7.9087731826
 20
16.0905216475
 30
0.0
 10
7.9139161407
 20
16.0869460889
 30
0.0
 10
7.9196086177
 20
16.0841062
 30
0.0
 10
7.9257705273
 20
16.0820471736
 30
0.0
 10
7.9323158918
 20
16.0807864348
 30
0.0
 10
7.939155597
 20
16.0803505095
 30
0.0
 10
7.9461850779
 20
16.0807334368
 30
0.0
 10
7.9508776722
 20
16.0815168763
 30
0.0
 10
7.9532226789
 20
16.0820377815
 30
0.0
  0
LINE
  5
602
100
AcDbEntity
  8
0
100
AcDbLine
 62
7
  6
CONTINUOUS
 10
12.6750701285
 20
10.1294303208
 11
12.6739038737
 21
10.130437226
  0
SPLINE
  5
603
100
AcDbEntity
  8
0
100
AcDbSpline
 62
7
  6
CONTINUOUS
 70
0
 71
3
 72
47
 73
43
 74
0
 42
0.0000001
 43
0.0000001
 44
0.0000000001
 40
0.0
 40
0.0
 40
0.0
 40
0.0
 40
0.0191012388
 40
0.0580258297
 40
0.1123367648
 40
0.1439183409
 40
0.1778494544
 40
0.2137619661
 40
0.2323635385
 40
0.2513494935
 40
0.2706899599
 40
0.2903573242
 40
0.310327061
 40
0.330576351
 40
0.351084731
 40
0.3718316305
 40
0.3927983143
 40
0.4139627027
 40
0.4352998125
 40
0.4567786872
 40
0.4783596906
 40
0.4999944266
 40
0.5216291673
 40
0.5432101359
 40
0.5646890027
 40
0.5860261876
 40
0.6071907071
 40
0.6281576012
 40
0.6489047083
 40
0.6694132727
 40
0.6896628513
 40
0.7096328424
 40
0.7293004761
 40
0.7486411886
 40
0.7676273772
 40
0.7862291928
 40
0.8221422235
 40
0.8560739205
 40
0.8876561789
 40
0.9419688793
 40
0.9808958523
 40
1.0
 40
1.0
 40
1.0
 40
1.0
 10
12.6739038737
 20
10.130437226
 30
0.0
 10
12.6685395707
 20
10.1350671314
 30
0.0
 10
12.6522137439
 20
10.149097022
 30
0.0
 10
12.6204149359
 20
10.1760337914
 30
0.0
 10
12.5846756631
 20
10.2054788467
 30
0.0
 10
12.5498997655
 20
10.233167476
 30
0.0
 10
12.5201088565
 20
10.2561531833
 30
0.0
 10
12.4937373775
 20
10.2756800597
 30
0.0
 10
12.471513426
 20
10.2914788068
 30
0.0
 10
12.4541171872
 20
10.3034542028
 30
0.0
 10
12.436183899
 20
10.315341462
 30
0.0
 10
12.4177041321
 20
10.3270575659
 30
0.0
 10
12.3986607429
 20
10.3385038163
 30
0.0
 10
12.3790328696
 20
10.349568129
 30
0.0
 10
12.3587948933
 20
10.360115001
 30
0.0
 10
12.33792031
 20
10.3699827209
 30
0.0
 10
12.3163896309
 20
10.3789813424
 30
0.0
 10
12.2941965815
 20
10.3868840695
 30
0.0
 10
12.2713663819
 20
10.3934392305
 30
0.0
 10
12.2479704445
 20
10.3983816083
 30
0.0
 10
12.2241420025
 20
10.4014666584
 30
0.0
 10
12.2000769318
 20
10.4025171676
 30
0.0
 10
12.1760118213
 20
10.401467853
 30
0.0
 10
12.1521832434
 20
10.3983839481
 30
0.0
 10
12.1287870774
 20
10.3934425719
 30
0.0
 10
12.1059565734
 20
10.3868881962
 30
0.0
 10
12.0837631021
 20
10.3789861945
 30
0.0
 10
12.0622319529
 20
10.3699881546
 30
0.0
 10
12.0413570064
 20
10.3601206839
 30
0.0
 10
12.0211184781
 20
10.3495743207
 30
0.0
 10
12.0014903023
 20
10.338509992
 30
0.0
 10
11.9824463894
 20
10.3270640297
 30
0.0
 10
11.963966315
 20
10.3153478744
 30
0.0
 10
11.946032633
 20
10.3034607077
 30
0.0
 10
11.9286360938
 20
10.2914852738
 30
0.0
 10
11.9064117037
 20
10.2756865066
 30
0.0
 10
11.8800397162
 20
10.2561594764
 30
0.0
 10
11.8502481724
 20
10.2331735078
 30
0.0
 10
11.8154712972
 20
10.2054843007
 30
0.0
 10
11.7797305703
 20
10.1760381919
 30
0.0
 10
11.7479297292
 20
10.1490997724
 30
0.0
 10
11.7316024044
 20
10.1350686134
 30
0.0
 10
11.726237284
 20
10.1304380034
 30
0.0
  0
LINE
  5
604
100
AcDbEntity
  8
0
100
AcDbLine
 62
7
  6
CONTINUOUS
 10
11.726237284
 20
10.1304380034
 11
11.7250701285
 21
10.1294303208
  0
SPLINE
  5
605
100
AcDbEntity
  8
0
100
AcDbSpline
 62
7
  6
CONTINUOUS
 70
0
 71
3
 72
25
 73
21
 74
0
 42
0.0000001
 43
0.0000001
 44
0.0000000001
 40
0.0
 40
0.0
 40
0.0
 40
0.0
 40
0.0371329313
 40
0.071898901
 40
0.1050172291
 40
0.1370658205
 40
0.1993048953
 40
0.2599091251
 40
0.3195082742
 40
0.3785061627
 40
0.4958310111
 40
0.6137797304
 40
0.6735722291
 40
0.7342810628
 40
0.7962867863
 40
0.8601950604
 40
0.8931497425
 40
0.9271347451
 40
0.9625811286
 40
1.0
 40
1.0
 40
1.0
 40
1.0
 10
8.3044683823
 20
15.0232218912
 30
0.0
 10
8.3022906975
 20
15.0234463036
 30
0.0
 10
8.2980913811
 20
15.0240793786
 30
0.0
 10
8.2920763563
 20
15.0255802243
 30
0.0
 10
8.286496068
 20
15.0274894869
 30
0.0
 10
8.2795710234
 20
15.0304078287
 30
0.0
 10
8.2714199685
 20
15.0345559213
 30
0.0
 10
8.2622874832
 20
15.0402598669
 30
0.0
 10
8.2537630368
 20
15.0465168095
 30
0.0
 10
8.2431523827
 20
15.0555259574
 30
0.0
 10
8.2310695772
 20
15.0680355744
 30
0.0
 10
8.2203905535
 20
15.0818184064
 30
0.0
 10
8.2128525591
 20
15.0936955452
 30
0.0
 10
8.2076918923
 20
15.1031462416
 30
0.0
 10
8.2030852956
 20
15.1131484212
 30
0.0
 10
8.1998447461
 20
15.1219486363
 30
0.0
 10
8.1976468886
 20
15.1293459215
 30
0.0
 10
8.1962578893
 20
15.1352244709
 30
0.0
 10
8.1952251001
 20
15.1414438258
 30
0.0
 10
8.194838585
 20
15.145727269
 30
0.0
 10
8.1947231279
 20
15.1479303208
 30
0.0
  0
SPLINE
  5
606
100
AcDbEntity
  8
0
100
AcDbSpline
 62
7
  6
CONTINUOUS
 70
0
 71
3
 72
25
 73
21
 74
0
 42
0.0000001
 43
0.0000001
 44
0.0000000001
 40
0.0
 40
0.0
 40
0.0
 40
0.0
 40
0.0371329313
 40
0.071898901
 40
0.1050172291
 40
0.1370658205
 40
0.1993048953
 40
0.2599091251
 40
0.3195082742
 40
0.3785061627
 40
0.4958310111
 40
0.6137797304
 40
0.6735722291
 40
0.7342810628
 40
0.7962867863
 40
0.8601950604
 40
0.8931497425
 40
0.9271347451
 40
0.9625811286
 40
1.0
 40
1.0
 40
1.0
 40
1.0
 10
8.3044683823
 20
19.3226387503
 30
0.0
 10
8.3022906975
 20
19.322414338
 30
0.0
 10
8.2980913811
 20
19.3217812629
 30
0.0
 10
8.2920763563
 20
19.3202804172
 30
0.0
 10
8.286496068
 20
19.3183711547
 30
0.0
 10
8.2795710234
 20
19.3154528129
 30
0.0
 10
8.2714199685
 20
19.3113047203
 30
0.0
 10
8.2622874832
 20
19.3056007746
 30
0.0
 10
8.2537630368
 20
19.299343832
 30
0.0
 10
8.2431523827
 20
19.2903346842
 30
0.0
 10
8.2310695772
 20
19.2778250671
 30
0.0
 10
8.2203905535
 20
19.2640422352
 30
0.0
 10
8.2128525591
 20
19.2521650963
 30
0.0
 10
8.2076918923
 20
19.2427144
 30
0.0
 10
8.2030852956
 20
19.2327122204
 30
0.0
 10
8.1998447461
 20
19.2239120052
 30
0.0
 10
8.1976468886
 20
19.21651472
 30
0.0
 10
8.1962578893
 20
19.2106361707
 30
0.0
 10
8.1952251001
 20
19.2044168158
 30
0.0
 10
8.194838585
 20
19.2001333726
 30
0.0
 10
8.1947231279
 20
19.1979303208
 30
0.0
  0
SPLINE
  5
607
100
AcDbEntity
  8
0
100
AcDbSpline
 62
7
  6
CONTINUOUS
 70
0
 71
3
 72
11
 73
7
 74
0
 42
0.0000001
 43
0.0000001
 44
0.0000000001
 40
0.0
 40
0.0
 40
0.0
 40
0.0
 40
0.1729056901
 40
0.3890983297
 40
0.6605825716
 40
1.0
 40
1.0
 40
1.0
 40
1.0
 10
11.7432544207
 20
9.3816913897
 30
0.0
 10
11.7412847855
 20
9.3801128229
 30
0.0
 10
11.7373479436
 20
9.3759412528
 30
0.0
 10
11.7321239687
 20
9.3677954436
 30
0.0
 10
11.7270333662
 20
9.3568139254
 30
0.0
 10
11.7241671111
 20
9.3483531624
 30
0.0
 10
11.7227487627
 20
9.3436055407
 30
0.0
  0
SPLINE
  5
608
100
AcDbEntity
  8
0
100
AcDbSpline
 62
7
  6
CONTINUOUS
 70
0
 71
3
 72
11
 73
7
 74
0
 42
0.0000001
 43
0.0000001
 44
0.0000000001
 40
0.0
 40
0.0
 40
0.0
 40
0.0
 40
0.1729056901
 40
0.3890983297
 40
0.6605825716
 40
1.0
 40
1.0
 40
1.0
 40
1.0
 10
12.6568858363
 20
9.3816913897
 30
0.0
 10
12.6588554715
 20
9.3801128229
 30
0.0
 10
12.6627923134
 20
9.3759412528
 30
0.0
 10
12.6680162883
 20
9.3677954436
 30
0.0
 10
12.6731068908
 20
9.3568139254
 30
0.0
 10
12.6759731459
 20
9.3483531624
 30
0.0
 10
12.6773914943
 20
9.3436055407
 30
0.0
  0
SPLINE
  5
609
100
AcDbEntity
  8
0
100
AcDbSpline
 62
7
  6
CONTINUOUS
 70
0
 71
3
 72
11
 73
7
 74
0
 42
0.0000001
 43
0.0000001
 44
0.0000000001
 40
0.0
 40
0.0
 40
0.0
 40
0.0
 40
0.3393939504
 40
0.610910746
 40
0.8270806462
 40
1.0
 40
1.0
 40
1.0
 40
1.0
 10
12.6773914943
 20
8.9382551009
 30
0.0
 10
12.6759730901
 20
8.9335072923
 30
0.0
 10
12.6731075513
 20
8.9250454162
 30
0.0
 10
12.6680197341
 20
8.914060697
 30
0.0
 10
12.6627885109
 20
8.9059182568
 30
0.0
 10
12.658854961
 20
8.9017434445
 30
0.0
 10
12.6568858976
 20
8.9001634078
 30
0.0
  0
SPLINE
  5
60A
100
AcDbEntity
  8
0
100
AcDbSpline
 62
7
  6
CONTINUOUS
 70
0
 71
3
 72
33
 73
29
 74
0
 42
0.0000001
 43
0.0000001
 44
0.0000000001
 40
0.0
 40
0.0
 40
0.0
 40
0.0
 40
0.0835272411
 40
0.1669735578
 40
0.2495351034
 40
0.3305191829
 40
0.4092422454
 40
0.4850276356
 40
0.5572525265
 40
0.62534283
 40
0.6888018539
 40
0.7472162885
 40
0.77443478
 40
0.8002905286
 40
0.8247919679
 40
0.8479552595
 40
0.8698064008
 40
0.8904149812
 40
0.9098737301
 40
0.9283248047
 40
0.9372824829
 40
0.9461372874
 40
0.9549505324
 40
0.963784216
 40
0.9726740655
 40
0.9816452543
 40
0.9907361667
 40
1.0
 40
1.0
 40
1.0
 40
1.0
 10
10.8482381675
 20
-5.2025205989
 30
0.0
 10
10.8468166585
 20
-5.3156466976
 30
0.0
 10
10.8457132502
 20
-5.5418148008
 30
0.0
 10
10.8491878804
 20
-5.8797968553
 30
0.0
 10
10.8577790705
 20
-6.2142431194
 30
0.0
 10
10.8714029256
 20
-6.5421197994
 30
0.0
 10
10.8899368752
 20
-6.8605637953
 30
0.0
 10
10.9132358793
 20
-7.1667995594
 30
0.0
 10
10.9410974775
 20
-7.4581921939
 30
0.0
 10
10.9733159215
 20
-7.7323362896
 30
0.0
 10
11.0096723156
 20
-7.9870834941
 30
0.0
 10
11.0440139133
 20
-8.186122542
 30
0.0
 10
11.0737105518
 20
-8.3341898951
 30
0.0
 10
11.0964138017
 20
-8.4367897839
 30
0.0
 10
11.1201262838
 20
-8.5335164927
 30
0.0
 10
11.1449112474
 20
-8.6243654137
 30
0.0
 10
11.1708452222
 20
-8.7093977436
 30
0.0
 10
11.1981083387
 20
-8.7887317169
 30
0.0
 10
11.226939508
 20
-8.862587368
 30
0.0
 10
11.2528157461
 20
-8.920595337
 30
0.0
 10
11.2750079073
 20
-8.9644243916
 30
0.0
 10
11.2924682115
 20
-8.9959899409
 30
0.0
 10
11.3110986455
 20
-9.0266841229
 30
0.0
 10
11.3310375605
 20
-9.0566043094
 30
0.0
 10
11.3525451495
 20
-9.0856903233
 30
0.0
 10
11.37593248
 20
-9.1137516624
 30
0.0
 10
11.4014701972
 20
-9.140580728
 30
0.0
 10
11.4198999218
 20
-9.15730882
 30
0.0
 10
11.4295108598
 20
-9.1653755062
 30
0.0
  0
SPLINE
  5
60B
100
AcDbEntity
  8
0
100
AcDbSpline
 62
7
  6
CONTINUOUS
 70
0
 71
3
 72
53
 73
49
 74
0
 42
0.0000001
 43
0.0000001
 44
0.0000000001
 40
0.0
 40
0.0
 40
0.0
 40
0.0
 40
0.0908283584
 40
0.1815753356
 40
0.2713550042
 40
0.3593963953
 40
0.444923409
 40
0.5271563091
 40
0.6053468996
 40
0.6787681902
 40
0.7467145584
 40
0.7784173332
 40
0.8084907811
 40
0.8368479993
 40
0.863396213
 40
0.8880423276
 40
0.9106884547
 40
0.9312054383
 40
0.9406229911
 40
0.949457065
 40
0.9576852013
 40
0.9652795743
 40
0.9722123137
 40
0.9784559666
 40
0.9839793721
 40
0.9864519725
 40
0.988718369
 40
0.9907682895
 40
0.9925913216
 40
0.9941769375
 40
0.994877414
 40
0.9955145581
 40
0.9960870444
 40
0.996593598
 40
0.997033573
 40
0.9974067647
 40
0.9977129163
 40
0.9979517076
 40
0.9981227558
 40
0.9982256187
 40
0.9982598244
 40
0.9982950294
 40
0.9984000932
 40
0.9985757404
 40
0.9988227227
 40
0.999141845
 40
0.9995339665
 40
1.0
 40
1.0
 40
1.0
 40
1.0
 10
11.4081939616
 20
-5.209556837
 30
0.0
 10
11.406831999
 20
-5.3179441345
 30
0.0
 10
11.405746349
 20
-5.5346455807
 30
0.0
 10
11.4089492526
 20
-5.8584801672
 30
0.0
 10
11.4169670132
 20
-6.1789054909
 30
0.0
 10
11.4297148662
 20
-6.4929433225
 30
0.0
 10
11.4470595951
 20
-6.7977415294
 30
0.0
 10
11.4688382668
 20
-7.0904692416
 30
0.0
 10
11.494810925
 20
-7.3683505893
 30
0.0
 10
11.524695899
 20
-7.6286854826
 30
0.0
 10
11.553179089
 20
-7.8332836704
 30
0.0
 10
11.5778458453
 20
-7.9861239464
 30
0.0
 10
11.5966360534
 20
-8.0920415612
 30
0.0
 10
11.6160769601
 20
-8.1915814491
 30
0.0
 10
11.6360602472
 20
-8.2843990075
 30
0.0
 10
11.6564691055
 20
-8.370133777
 30
0.0
 10
11.6771806721
 20
-8.4483722254
 30
0.0
 10
11.6949490415
 20
-8.5085661775
 30
0.0
 10
11.7091821275
 20
-8.5525918457
 30
0.0
 10
11.7194621632
 20
-8.5824765214
 30
0.0
 10
11.7295968703
 20
-8.6101039562
 30
0.0
 10
11.7395054766
 20
-8.6353907589
 30
0.0
 10
11.7491100147
 20
-8.6582454803
 30
0.0
 10
11.7583225368
 20
-8.6785755913
 30
0.0
 10
11.7658547092
 20
-8.6938132116
 30
0.0
 10
11.7715746438
 20
-8.7046433253
 30
0.0
 10
11.7754808358
 20
-8.7117419611
 30
0.0
 10
11.7791250046
 20
-8.7180986545
 30
0.0
 10
11.7824674505
 20
-8.7236905528
 30
0.0
 10
11.7850652983
 20
-8.7278502599
 30
0.0
 10
11.7869643682
 20
-8.7307768116
 30
0.0
 10
11.7882286992
 20
-8.7326736317
 30
0.0
 10
11.7893879406
 20
-8.7343623447
 30
0.0
 10
11.7904377736
 20
-8.7358398796
 30
0.0
 10
11.7913729293
 20
-8.7371086745
 30
0.0
 10
11.7921811886
 20
-8.7381681252
 30
0.0
 10
11.7928659872
 20
-8.739035289
 30
0.0
 10
11.7933904156
 20
-8.739679701
 30
0.0
 10
11.7938181935
 20
-8.7401896324
 30
0.0
 10
11.7939963572
 20
-8.7403968696
 30
0.0
 10
11.7942093307
 20
-8.7406468382
 30
0.0
 10
11.7939683491
 20
-8.7404122579
 30
0.0
 10
11.7937695724
 20
-8.740218375
 30
0.0
 10
11.7932735054
 20
-8.7397436779
 30
0.0
 10
11.7926435989
 20
-8.7391582147
 30
0.0
 10
11.7917882332
 20
-8.7383842638
 30
0.0
 10
11.7907348574
 20
-8.7374600637
 30
0.0
 10
11.789954276
 20
-8.7367954635
 30
0.0
 10
11.7895282712
 20
-8.7364379077
 30
0.0
  0
SPLINE
  5
60C
100
AcDbEntity
  8
0
100
AcDbSpline
 62
7
  6
CONTINUOUS
 70
0
 71
3
 72
11
 73
7
 74
0
 42
0.0000001
 43
0.0000001
 44
0.0000000001
 40
0.0
 40
0.0
 40
0.0
 40
0.0
 40
0.3393939504
 40
0.610910746
 40
0.8270806462
 40
1.0
 40
1.0
 40
1.0
 40
1.0
 10
11.7227487627
 20
8.9382551009
 30
0.0
 10
11.7241671669
 20
8.9335072923
 30
0.0
 10
11.7270327057
 20
8.9250454162
 30
0.0
 10
11.7321205229
 20
8.914060697
 30
0.0
 10
11.7373517461
 20
8.9059182568
 30
0.0
 10
11.741285296
 20
8.9017434445
 30
0.0
 10
11.7432543594
 20
8.9001634078
 30
0.0
  0
SPLINE
  5
60D
100
AcDbEntity
  8
0
100
AcDbSpline
 62
7
  6
CONTINUOUS
 70
0
 71
3
 72
15
 73
11
 74
0
 42
0.0000001
 43
0.0000001
 44
0.0000000001
 40
0.0
 40
0.0
 40
0.0
 40
0.0
 40
0.1243283085
 40
0.2360469446
 40
0.3413435997
 40
0.4468938786
 40
0.5593309588
 40
0.6848447078
 40
0.8297848227
 40
1.0
 40
1.0
 40
1.0
 40
1.0
 10
11.7432543594
 20
8.9001634078
 30
0.0
 10
11.7444632902
 20
8.8991933248
 30
0.0
 10
11.7469288462
 20
8.8975453949
 30
0.0
 10
11.7509245959
 20
8.8959775481
 30
0.0
 10
11.7549611951
 20
8.8954721296
 30
0.0
 10
11.7589951335
 20
8.8960576472
 30
0.0
 10
11.7629893667
 20
8.8977028526
 30
0.0
 10
11.7669431236
 20
8.9004331076
 30
0.0
 10
11.770835385
 20
8.9043446006
 30
0.0
 10
11.7731794342
 20
8.9075134982
 30
0.0
 10
11.7743501669
 20
8.9092834449
 30
0.0
  0
SPLINE
  5
60E
100
AcDbEntity
  8
0
100
AcDbSpline
 62
7
  6
CONTINUOUS
 70
0
 71
3
 72
9
 73
5
 74
0
 42
0.0000001
 43
0.0000001
 44
0.0000000001
 40
0.0
 40
0.0
 40
0.0
 40
0.0
 40
0.430509394
 40
1.0
 40
1.0
 40
1.0
 40
1.0
 10
11.7743501669
 20
8.9092834449
 30
0.0
 10
11.7768553794
 20
8.9130708954
 30
0.0
 10
11.7816957478
 20
8.9225108866
 30
0.0
 10
11.7851549536
 20
8.9324994634
 30
0.0
 10
11.7868744458
 20
8.9382551009
 30
0.0
  0
SPLINE
  5
60F
100
AcDbEntity
  8
0
100
AcDbSpline
 62
9
  6
CONTINUOUS
 70
0
 71
3
 72
22
 73
18
 74
0
 42
0.0000001
 43
0.0000001
 44
0.0000000001
 40
0.0
 40
0.0
 40
0.0
 40
0.0
 40
0.1842915613
 40
0.3666273357
 40
0.5380935906
 40
0.6910031305
 40
0.8182823595
 40
0.8704600277
 40
0.9141823427
 40
0.9327209617
 40
0.9489978805
 40
0.9629884045
 40
0.9746789862
 40
0.9840786493
 40
0.9879381808
 40
0.9912610016
 40
1.0
 40
1.0
 40
1.0
 40
1.0
 10
11.2893865989
 20
4.0649034786
 30
0.0
 10
11.2692702073
 20
4.0649034786
 30
0.0
 10
11.2292501574
 20
4.0652497456
 30
0.0
 10
11.1705304466
 20
4.0667251975
 30
0.0
 10
11.1152671726
 20
4.0690948346
 30
0.0
 10
11.0660638945
 20
4.0722385222
 30
0.0
 10
11.0299239356
 20
4.0755215489
 30
0.0
 10
11.0057502946
 20
4.0785547105
 30
0.0
 10
10.9934042634
 20
4.0804789672
 30
0.0
 10
10.9849850799
 20
4.082099052
 30
0.0
 10
10.9797840627
 20
4.0832581986
 30
0.0
 10
10.9753538445
 20
4.0844225718
 30
0.0
 10
10.9717028391
 20
4.0855923404
 30
0.0
 10
10.969179493
 20
4.0866124525
 30
0.0
 10
10.9675682367
 20
4.0874666047
 30
0.0
 10
10.9661379455
 20
4.0883777735
 30
0.0
 10
10.9650067776
 20
4.0895193604
 30
0.0
 10
10.9650186548
 20
4.090473194
 30
0.0
  0
SPLINE
  5
610
100
AcDbEntity
  8
0
100
AcDbSpline
 62
9
  6
CONTINUOUS
 70
0
 71
3
 72
24
 73
20
 74
0
 42
0.0000001
 43
0.0000001
 44
0.0000000001
 40
0.0
 40
0.0
 40
0.0
 40
0.0
 40
0.2004462143
 40
0.389413872
 40
0.5603622612
 40
0.6374923148
 40
0.708267772
 40
0.7721872126
 40
0.8287851755
 40
0.8776069492
 40
0.9182992662
 40
0.9355393856
 40
0.9506866074
 40
0.9637341216
 40
0.9746895284
 40
0.9835892599
 40
0.9905433701
 40
0.9958152638
 40
1.0
 40
1.0
 40
1.0
 40
1.0
 10
11.1726135992
 20
-5.2280904084
 30
0.0
 10
11.1885299609
 20
-5.2280904084
 30
0.0
 10
11.2194517885
 20
-5.2278768808
 30
0.0
 10
11.2639381854
 20
-5.2269036175
 30
0.0
 10
11.2986172475
 20
-5.2255322766
 30
0.0
 10
11.323895437
 20
-5.2240941398
 30
0.0
 10
11.3406745009
 20
-5.2229142666
 30
0.0
 10
11.3558084931
 20
-5.2216078718
 30
0.0
 10
11.3691808939
 20
-5.2201883321
 30
0.0
 10
11.380684029
 20
-5.2186668505
 30
0.0
 10
11.3890466465
 20
-5.2172606776
 30
0.0
 10
11.3947248956
 20
-5.2160603228
 30
0.0
 10
11.3982277322
 20
-5.2151930303
 30
0.0
 10
11.4012102181
 20
-5.2143110107
 30
0.0
 10
11.4036670221
 20
-5.2134163517
 30
0.0
 10
11.4055991063
 20
-5.2125113954
 30
0.0
 10
11.4070092839
 20
-5.2115902996
 30
0.0
 10
11.4079284946
 20
-5.2106379361
 30
0.0
 10
11.4081823366
 20
-5.2098890047
 30
0.0
 10
11.408186474
 20
-5.2095567429
 30
0.0
  0
SPLINE
  5
611
100
AcDbEntity
  8
0
100
AcDbSpline
 62
9
  6
CONTINUOUS
 70
0
 71
3
 72
21
 73
17
 74
0
 42
0.0000001
 43
0.0000001
 44
0.0000000001
 40
0.0
 40
0.0
 40
0.0
 40
0.0
 40
0.1246031514
 40
0.2499545627
 40
0.3129813523
 40
0.3760665206
 40
0.4391324632
 40
0.5021226952
 40
0.5649809045
 40
0.6276701455
 40
0.6901579534
 40
0.7524427278
 40
0.814528665
 40
0.8764532527
 40
0.9382575666
 40
1.0
 40
1.0
 40
1.0
 40
1.0
 10
11.6154128201
 20
-8.6733689583
 30
0.0
 10
11.5871659774
 20
-8.6733689583
 30
0.0
 10
11.5301566069
 20
-8.6822113339
 30
0.0
 10
11.4655299134
 20
-8.7141396195
 30
0.0
 10
11.4212202597
 20
-8.7502903654
 30
0.0
 10
11.3922655596
 20
-8.7821525189
 30
0.0
 10
11.3684441243
 20
-8.8179959751
 30
0.0
 10
11.350246364
 20
-8.856942319
 30
0.0
 10
11.3381605666
 20
-8.8981082298
 30
0.0
 10
11.3324085276
 20
-8.9405106979
 30
0.0
 10
11.333190699
 20
-8.9831662266
 30
0.0
 10
11.3404331956
 20
-9.0250723929
 30
0.0
 10
11.3540196363
 20
-9.0652378398
 30
0.0
 10
11.3735918872
 20
-9.1027327003
 30
0.0
 10
11.3987225479
 20
-9.1366461777
 30
0.0
 10
11.4187962285
 20
-9.1563697643
 30
0.0
 10
11.4295139897
 20
-9.1653717797
 30
0.0
  0
SPLINE
  5
612
100
AcDbEntity
  8
0
100
AcDbSpline
 62
9
  6
CONTINUOUS
 70
0
 71
3
 72
24
 73
20
 74
0
 42
0.0000001
 43
0.0000001
 44
0.0000000001
 40
0.0
 40
0.0
 40
0.0
 40
0.0
 40
0.0577793343
 40
0.1183502602
 40
0.1814985218
 40
0.2472093413
 40
0.3148478231
 40
0.3835763065
 40
0.4181607683
 40
0.4528024635
 40
0.5219732415
 40
0.5904402981
 40
0.6572853325
 40
0.721748122
 40
0.7836946266
 40
0.8428255153
 40
0.8985999598
 40
0.9509185053
 40
1.0
 40
1.0
 40
1.0
 40
1.0
 10
12.8150179975
 20
-10.3282339171
 30
0.0
 10
12.8065130577
 20
-10.3210469061
 30
0.0
 10
12.7899795163
 20
-10.3052393243
 30
0.0
 10
12.7678484332
 20
-10.2780344981
 30
0.0
 10
12.7487368667
 20
-10.2467874464
 30
0.0
 10
12.7337810505
 20
-10.2118583407
 30
0.0
 10
12.723451379
 20
-10.1741894074
 30
0.0
 10
12.7191780337
 20
-10.141400501
 30
0.0
 10
12.7186472313
 20
-10.1147973595
 30
0.0
 10
12.7201640028
 20
-10.0881465289
 30
0.0
 10
12.7256814443
 20
-10.0552853964
 30
0.0
 10
12.7374392055
 20
-10.0175562618
 30
0.0
 10
12.7537174584
 20
-9.9825324092
 30
0.0
 10
12.7740136883
 20
-9.9511688033
 30
0.0
 10
12.7972022908
 20
-9.9238314917
 30
0.0
 10
12.822253104
 20
-9.9006079806
 30
0.0
 10
12.8482994462
 20
-9.8815115182
 30
0.0
 10
12.8746243214
 20
-9.866413082
 30
0.0
 10
12.8925346643
 20
-9.8585014434
 30
0.0
 10
12.9013674378
 20
-9.8551176614
 30
0.0
  0
SPLINE
  5
613
100
AcDbEntity
  8
0
100
AcDbSpline
 62
9
  6
CONTINUOUS
 70
0
 71
3
 72
9
 73
5
 74
0
 42
0.0000001
 43
0.0000001
 44
0.0000000001
 40
0.0
 40
0.0
 40
0.0
 40
0.0
 40
0.2675785078
 40
1.0
 40
1.0
 40
1.0
 40
1.0
 10
12.9013674378
 20
-9.8551176614
 30
0.0
 10
12.9065879152
 20
-9.8531177282
 30
0.0
 10
12.9263151209
 20
-9.846222105
 30
0.0
 10
12.9467969112
 20
-9.8414931781
 30
0.0
 10
12.9619440235
 20
-9.8393194324
 30
0.0
  0
SPLINE
  5
614
100
AcDbEntity
  8
0
100
AcDbSpline
 62
7
  6
CONTINUOUS
 70
0
 71
3
 72
15
 73
11
 74
0
 42
0.0000001
 43
0.0000001
 44
0.0000000001
 40
0.0
 40
0.0
 40
0.0
 40
0.0
 40
0.1296795665
 40
0.256465064
 40
0.3811563662
 40
0.5048137378
 40
0.6280719737
 40
0.7513585201
 40
0.8751013981
 40
1.0
 40
1.0
 40
1.0
 40
1.0
 10
12.3285027054
 20
8.9382551009
 30
0.0
 10
12.3379440297
 20
8.9317730592
 30
0.0
 10
12.3577830887
 20
8.9205892098
 30
0.0
 10
12.3893514607
 20
8.908637699
 30
0.0
 10
12.4216088345
 20
8.9007705986
 30
0.0
 10
12.4541950067
 20
8.8964628977
 30
0.0
 10
12.4869061735
 20
8.8951459484
 30
0.0
 10
12.5196089035
 20
8.896844714
 30
0.0
 10
12.5521646774
 20
8.9015600472
 30
0.0
 10
12.5734785208
 20
8.9070914983
 30
0.0
 10
12.5839618958
 20
8.9105210508
 30
0.0
  0
SPLINE
  5
615
100
AcDbEntity
  8
0
100
AcDbSpline
 62
7
  6
CONTINUOUS
 70
0
 71
3
 72
9
 73
5
 74
0
 42
0.0000001
 43
0.0000001
 44
0.0000000001
 40
0.0
 40
0.0
 40
0.0
 40
0.0
 40
0.4946082989
 40
1.0
 40
1.0
 40
1.0
 40
1.0
 10
12.5839618958
 20
8.9105210508
 30
0.0
 10
12.5939460091
 20
8.9137872739
 30
0.0
 10
12.6137665524
 20
8.9215926936
 30
0.0
 10
12.6322949761
 20
8.9321797281
 30
0.0
 10
12.6411439726
 20
8.9382551009
 30
0.0
  0
SPLINE
  5
616
100
AcDbEntity
  8
0
100
AcDbSpline
 62
9
  6
CONTINUOUS
 70
0
 71
3
 72
12
 73
8
 74
0
 42
0.0000001
 43
0.0000001
 44
0.0000000001
 40
0.0
 40
0.0
 40
0.0
 40
0.0
 40
0.2491361532
 40
0.3739429609
 40
0.4989243908
 40
0.7493491163
 40
1.0
 40
1.0
 40
1.0
 40
1.0
 10
11.7895251413
 20
-8.7364416342
 30
0.0
 10
11.7775185062
 20
-8.7263570735
 30
0.0
 10
11.7581016997
 20
-8.712776575
 30
0.0
 10
11.7302064097
 20
-8.6982985073
 30
0.0
 10
11.701071485
 20
-8.6862700783
 30
0.0
 10
11.6627849991
 20
-8.676122273
 30
0.0
 10
11.6311880012
 20
-8.6733689583
 30
0.0
 10
11.6154128201
 20
-8.6733689583
 30
0.0
  0
SPLINE
  5
617
100
AcDbEntity
  8
0
100
AcDbSpline
 62
7
  6
CONTINUOUS
 70
0
 71
3
 72
9
 73
5
 74
0
 42
0.0000001
 43
0.0000001
 44
0.0000000001
 40
0.0
 40
0.0
 40
0.0
 40
0.0
 40
0.5053340851
 40
1.0
 40
1.0
 40
1.0
 40
1.0
 10
12.6411439726
 20
9.3436055407
 30
0.0
 10
12.6324976932
 20
9.3495417359
 30
0.0
 10
12.6144141821
 20
9.3599182957
 30
0.0
 10
12.5950832407
 20
9.3676352964
 30
0.0
 10
12.5853435296
 20
9.370881727
 30
0.0
  0
SPLINE
  5
618
100
AcDbEntity
  8
0
100
AcDbSpline
 62
7
  6
CONTINUOUS
 70
0
 71
3
 72
15
 73
11
 74
0
 42
0.0000001
 43
0.0000001
 44
0.0000000001
 40
0.0
 40
0.0
 40
0.0
 40
0.0
 40
0.1249539344
 40
0.2487296023
 40
0.3720246537
 40
0.4952788684
 40
0.6189305761
 40
0.7435905835
 40
0.8703348869
 40
1.0
 40
1.0
 40
1.0
 40
1.0
 10
12.5853435296
 20
9.370881727
 30
0.0
 10
12.574817476
 20
9.3743902605
 30
0.0
 10
12.5534044141
 20
9.38005594
 30
0.0
 10
12.5206774488
 20
9.3849109035
 30
0.0
 10
12.4877964638
 20
9.3867080336
 30
0.0
 10
12.4549032233
 20
9.3854532318
 30
0.0
 10
12.4221338513
 20
9.3811871722
 30
0.0
 10
12.389691433
 20
9.3733381329
 30
0.0
 10
12.3579446835
 20
9.3613552012
 30
0.0
 10
12.3379946539
 20
9.350122339
 30
0.0
 10
12.3285027054
 20
9.3436055407
 30
0.0
  0
SPLINE
  5
619
100
AcDbEntity
  8
0
100
AcDbSpline
 62
9
  6
CONTINUOUS
 70
0
 71
3
 72
22
 73
18
 74
0
 42
0.0000001
 43
0.0000001
 44
0.0000000001
 40
0.0
 40
0.0
 40
0.0
 40
0.0
 40
0.0087389984
 40
0.0120618192
 40
0.0159213507
 40
0.0253210138
 40
0.0370115955
 40
0.0510021195
 40
0.0672790383
 40
0.0858176573
 40
0.1295399723
 40
0.1817176405
 40
0.3089968695
 40
0.4619064094
 40
0.6333726643
 40
0.8157084387
 40
1.0
 40
1.0
 40
1.0
 40
1.0
 10
10.848245655
 20
-5.202520693
 30
0.0
 10
10.8482337779
 20
-5.2034745266
 30
0.0
 10
10.8493649457
 20
-5.2046161135
 30
0.0
 10
10.850795237
 20
-5.2055272823
 30
0.0
 10
10.8524064932
 20
-5.2063814345
 30
0.0
 10
10.8549298394
 20
-5.2074015465
 30
0.0
 10
10.8585808447
 20
-5.2085713152
 30
0.0
 10
10.8630110629
 20
-5.2097356884
 30
0.0
 10
10.8682120801
 20
-5.2108948349
 30
0.0
 10
10.8766312637
 20
-5.2125149197
 30
0.0
 10
10.8889772949
 20
-5.2144391764
 30
0.0
 10
10.9131509358
 20
-5.2174723381
 30
0.0
 10
10.9492908947
 20
-5.2207553647
 30
0.0
 10
10.9984941728
 20
-5.2238990523
 30
0.0
 10
11.0537574468
 20
-5.2262686894
 30
0.0
 10
11.1124771576
 20
-5.2277441413
 30
0.0
 10
11.1524972076
 20
-5.2280904084
 30
0.0
 10
11.1726135992
 20
-5.2280904084
 30
0.0
  0
SPLINE
  5
61A
100
AcDbEntity
  8
0
100
AcDbSpline
 62
7
  6
CONTINUOUS
 70
0
 71
3
 72
19
 73
15
 74
0
 42
0.0000001
 43
0.0000001
 44
0.0000000001
 40
0.0
 40
0.0
 40
0.0
 40
0.0
 40
0.1257492515
 40
0.1884758412
 40
0.250964818
 40
0.3133034845
 40
0.3755783518
 40
0.4999999701
 40
0.6244217495
 40
0.6866966146
 40
0.7490351532
 40
0.8115239857
 40
0.8742505523
 40
1.0
 40
1.0
 40
1.0
 40
1.0
 10
12.2279482899
 20
9.3436055407
 30
0.0
 10
12.2137354001
 20
9.3517027395
 30
0.0
 10
12.1911600161
 20
9.3616967634
 30
0.0
 10
12.1599685122
 20
9.3713637389
 30
0.0
 10
12.1362192682
 20
9.3770339591
 30
0.0
 10
12.1122337568
 20
9.3812410934
 30
0.0
 10
12.0800547054
 20
9.3850789433
 30
0.0
 10
12.0395647965
 20
9.3869684002
 30
0.0
 10
11.9990749962
 20
9.3850778119
 30
0.0
 10
11.9668958927
 20
9.3812404704
 30
0.0
 10
11.9429103129
 20
9.3770339369
 30
0.0
 10
11.9191609868
 20
9.3713641963
 30
0.0
 10
11.8879694792
 20
9.3616971516
 30
0.0
 10
11.8653942517
 20
9.3517027521
 30
0.0
 10
11.8511813397
 20
9.3436055407
 30
0.0
  0
SPLINE
  5
61B
100
AcDbEntity
  8
0
100
AcDbSpline
 62
7
  6
CONTINUOUS
 70
0
 71
3
 72
9
 73
5
 74
0
 42
0.0000001
 43
0.0000001
 44
0.0000000001
 40
0.0
 40
0.0
 40
0.0
 40
0.0
 40
0.5711737169
 40
1.0
 40
1.0
 40
1.0
 40
1.0
 10
11.7868744458
 20
9.3436055407
 30
0.0
 10
11.785119757
 20
9.3494789912
 30
0.0
 10
11.7815890721
 20
9.3596393228
 30
0.0
 10
11.7766145211
 20
9.369223041
 30
0.0
 10
11.7740408735
 20
9.3730384142
 30
0.0
  0
SPLINE
  5
61C
100
AcDbEntity
  8
0
100
AcDbSpline
 62
7
  6
CONTINUOUS
 70
0
 71
3
 72
9
 73
5
 74
0
 42
0.0000001
 43
0.0000001
 44
0.0000000001
 40
0.0
 40
0.0
 40
0.0
 40
0.0
 40
0.2984764551
 40
1.0
 40
1.0
 40
1.0
 40
1.0
 10
11.7740408735
 20
9.3730384142
 30
0.0
 10
11.7731033329
 20
9.3744282965
 30
0.0
 10
11.7697778805
 20
9.3789323978
 30
0.0
 10
11.7654320296
 20
9.3828548246
 30
0.0
 10
11.7618713907
 20
9.3845426766
 30
0.0
  0
SPLINE
  5
61D
100
AcDbEntity
  8
0
100
AcDbSpline
 62
7
  6
CONTINUOUS
 70
0
 71
3
 72
11
 73
7
 74
0
 42
0.0000001
 43
0.0000001
 44
0.0000000001
 40
0.0
 40
0.0
 40
0.0
 40
0.0
 40
0.2563761775
 40
0.4999839748
 40
0.7436014875
 40
1.0
 40
1.0
 40
1.0
 40
1.0
 10
11.7618713907
 20
9.3845426766
 30
0.0
 10
11.7607436783
 20
9.3850772469
 30
0.0
 10
11.7584366596
 20
9.3859170032
 30
0.0
 10
11.7548101273
 20
9.3863568637
 30
0.0
 10
11.7511836596
 20
9.3859156855
 30
0.0
 10
11.7488767331
 20
9.3850752963
 30
0.0
 10
11.7477490207
 20
9.3845404723
 30
0.0
  0
SPLINE
  5
61E
100
AcDbEntity
  8
0
100
AcDbSpline
 62
7
  6
CONTINUOUS
 70
0
 71
3
 72
9
 73
5
 74
0
 42
0.0000001
 43
0.0000001
 44
0.0000000001
 40
0.0
 40
0.0
 40
0.0
 40
0.0
 40
0.2374308447
 40
1.0
 40
1.0
 40
1.0
 40
1.0
 10
11.7477490207
 20
9.3845404723
 30
0.0
 10
11.7473679897
 20
9.3843597662
 30
0.0
 10
11.7457872661
 20
9.3835481774
 30
0.0
 10
11.7443113028
 20
9.3825384293
 30
0.0
 10
11.7432544207
 20
9.3816913897
 30
0.0
  0
SPLINE
  5
61F
100
AcDbEntity
  8
0
100
AcDbSpline
 62
9
  6
CONTINUOUS
 70
0
 71
3
 72
24
 73
20
 74
0
 42
0.0000001
 43
0.0000001
 44
0.0000000001
 40
0.0
 40
0.0
 40
0.0
 40
0.0
 40
0.0041847362
 40
0.0094566299
 40
0.0164107401
 40
0.0253104716
 40
0.0362658784
 40
0.0493133926
 40
0.0644606144
 40
0.0817007338
 40
0.1223930508
 40
0.1712148245
 40
0.2278127874
 40
0.291732228
 40
0.3625076852
 40
0.4396377388
 40
0.610586128
 40
0.7995537857
 40
1.0
 40
1.0
 40
1.0
 40
1.0
 10
11.5249594737
 20
4.083437144
 30
0.0
 10
11.5249553364
 20
4.0831048823
 30
0.0
 10
11.5247014944
 20
4.0823559508
 30
0.0
 10
11.5237822836
 20
4.0814035874
 30
0.0
 10
11.5223721061
 20
4.0804824916
 30
0.0
 10
11.5204400219
 20
4.0795775352
 30
0.0
 10
11.5179832179
 20
4.0786828763
 30
0.0
 10
11.5150007319
 20
4.0778008567
 30
0.0
 10
11.5114978954
 20
4.0769335642
 30
0.0
 10
11.5058196463
 20
4.0757332093
 30
0.0
 10
11.4974570288
 20
4.0743270365
 30
0.0
 10
11.4859538937
 20
4.0728055549
 30
0.0
 10
11.4725814928
 20
4.0713860151
 30
0.0
 10
11.4574475006
 20
4.0700796203
 30
0.0
 10
11.4406684368
 20
4.0688997471
 30
0.0
 10
11.4153902473
 20
4.0674616104
 30
0.0
 10
11.3807111851
 20
4.0660902695
 30
0.0
 10
11.3362247883
 20
4.0651170061
 30
0.0
 10
11.3053029607
 20
4.0649034786
 30
0.0
 10
11.2893865989
 20
4.0649034786
 30
0.0
  0
SPLINE
  5
620
100
AcDbEntity
  8
0
100
AcDbSpline
 62
7
  6
CONTINUOUS
 70
0
 71
3
 72
19
 73
15
 74
0
 42
0.0000001
 43
0.0000001
 44
0.0000000001
 40
0.0
 40
0.0
 40
0.0
 40
0.0
 40
0.1257493179
 40
0.1885082413
 40
0.2510326445
 40
0.3133633266
 40
0.3756106152
 40
0.4999996501
 40
0.6243894092
 40
0.6866372924
 40
0.7489682689
 40
0.8114923194
 40
0.8742508676
 40
1.0
 40
1.0
 40
1.0
 40
1.0
 10
11.8511813397
 20
8.9382551009
 30
0.0
 10
11.8653943651
 20
8.9301578248
 30
0.0
 10
11.8879699205
 20
8.9201531048
 30
0.0
 10
11.9191724313
 20
8.9104893266
 30
0.0
 10
11.942930923
 20
8.9048242582
 30
0.0
 10
11.9669155071
 20
8.9006114671
 30
0.0
 10
11.9990862303
 20
8.8967734111
 30
0.0
 10
12.0395648125
 20
8.8949004547
 30
0.0
 10
12.0800434802
 20
8.8967731847
 30
0.0
 10
12.11221444
 20
8.9006110454
 30
0.0
 10
12.1361990879
 20
8.9048239106
 30
0.0
 10
12.1599574611
 20
8.9104892364
 30
0.0
 10
12.19115979
 20
8.9201531805
 30
0.0
 10
12.2137352854
 20
8.9301578368
 30
0.0
 10
12.2279482899
 20
8.9382551009
 30
0.0
  0
SPLINE
  5
621
100
AcDbEntity
  8
0
100
AcDbSpline
 62
9
  6
CONTINUOUS
 70
0
 71
3
 72
51
 73
47
 74
0
 42
0.0000001
 43
0.0000001
 44
0.0000000001
 40
0.0
 40
0.0
 40
0.0
 40
0.0
 40
0.032096232
 40
0.0659267135
 40
0.1012828206
 40
0.1379629074
 40
0.1757689785
 40
0.2145148307
 40
0.2540183344
 40
0.2940969298
 40
0.3752565998
 40
0.4565918937
 40
0.5367219424
 40
0.6142917201
 40
0.6517001065
 40
0.6879745959
 40
0.7229592865
 40
0.7565030556
 40
0.7884610264
 40
0.8187074771
 40
0.8471460486
 40
0.8737013636
 40
0.8862642982
 40
0.8983556666
 40
0.909982108
 40
0.9211519635
 40
0.9318647556
 40
0.9421057452
 40
0.9518240672
 40
0.9609031742
 40
0.9651621349
 40
0.9692061271
 40
0.973013382
 40
0.9765626353
 40
0.9798393738
 40
0.982841272
 40
0.985568061
 40
0.9880206273
 40
0.9902044577
 40
0.9921353307
 40
0.9938337646
 40
0.9953251724
 40
0.9966415494
 40
0.9978234236
 40
0.9989226685
 40
1.0
 40
1.0
 40
1.0
 40
1.0
 10
12.246501317
 20
7.8859303208
 30
0.0
 10
12.2495793416
 20
7.6887233862
 30
0.0
 10
12.2587153131
 20
7.2836950798
 30
0.0
 10
12.279733604
 20
6.6616583958
 30
0.0
 10
12.3078935046
 20
6.0117101506
 30
0.0
 10
12.3425341703
 20
5.3376141831
 30
0.0
 10
12.3829992375
 20
4.6429778708
 30
0.0
 10
12.4285964246
 20
3.9312745103
 30
0.0
 10
12.4786297866
 20
3.2058716943
 30
0.0
 10
12.5506357219
 20
2.2207413163
 30
0.0
 10
12.6477070081
 20
0.9797125183
 30
0.0
 10
12.770249464
 20
-0.5061723939
 30
0.0
 10
12.893829305
 20
-1.9698324336
 30
0.0
 10
12.9942858311
 20
-3.1645547655
 30
0.0
 10
13.0700924481
 20
-4.0909044431
 30
0.0
 10
13.1230554997
 20
-4.7565624076
 30
0.0
 10
13.1721309854
 20
-5.3987040676
 30
0.0
 10
13.2166339163
 20
-6.0145884699
 30
0.0
 10
13.2559014389
 20
-6.6016515983
 30
0.0
 10
13.2892534104
 20
-7.1576581369
 30
0.0
 10
13.3159583978
 20
-7.6807857096
 30
0.0
 10
13.3323839376
 20
-8.0956103327
 30
0.0
 10
13.3412122263
 20
-8.4101722194
 30
0.0
 10
13.3455077781
 20
-8.6330789089
 30
0.0
 10
13.3474485621
 20
-8.847458747
 30
0.0
 10
13.3468381901
 20
-9.0533765634
 30
0.0
 10
13.3434553424
 20
-9.2507547878
 30
0.0
 10
13.3369877586
 20
-9.4391348578
 30
0.0
 10
13.3271891878
 20
-9.6173204717
 30
0.0
 10
13.315790097
 20
-9.7585655173
 30
0.0
 10
13.3045286437
 20
-9.8647877918
 30
0.0
 10
13.2953251468
 20
-9.938638371
 30
0.0
 10
13.2852087292
 20
-10.0079659573
 30
0.0
 10
13.2741948149
 20
-10.0723800397
 30
0.0
 10
13.2622942035
 20
-10.1315980626
 30
0.0
 10
13.2495780647
 20
-10.1854678655
 30
0.0
 10
13.2360978415
 20
-10.2339167139
 30
0.0
 10
13.2218999823
 20
-10.2769001215
 30
0.0
 10
13.2069997344
 20
-10.3144351411
 30
0.0
 10
13.1914144302
 20
-10.346621098
 30
0.0
 10
13.1751375537
 20
-10.3736152631
 30
0.0
 10
13.1581431122
 20
-10.3955753181
 30
0.0
 10
13.1403914167
 20
-10.412642796
 30
0.0
 10
13.1217779373
 20
-10.4248557816
 30
0.0
 10
13.1022758616
 20
-10.4321505069
 30
0.0
 10
13.0888374035
 20
-10.4336892359
 30
0.0
 10
13.0822172211
 20
-10.4336798748
 30
0.0
  0
ENDSEC
  0
SECTION
  2
OBJECTS
  0
DICTIONARY
  5
C
100
AcDbDictionary
280
0
281
1
  3
ACAD_GROUP
350
D
  3
ACAD_MLINESTYLE
350
17
  3
ACAD_LAYOUT
350
1A
  3
ACAD_PLOTSETTINGS
350
19
  3
ACAD_PLOTSTYLENAME
350
E
  0
DICTIONARY
  5
D
102
{ACAD_REACTORS
330
C
102
}
100
AcDbDictionary
280
0
281
1
  0
ACDBDICTIONARYWDFLT
  5
E
102
{ACAD_REACTORS
330
C
102
}
100
AcDbDictionary
281
1
  3
Normal
350
F
100
AcDbDictionaryWithDefault
340
F
  0
DICTIONARY
  5
17
102
{ACAD_REACTORS
330
C
102
}
100
AcDbDictionary
280
0
281
1
  3
Standard
350
18
  0
DICTIONARY
  5
19
102
{ACAD_REACTORS
330
C
102
}
100
AcDbDictionary
281
1
  0
DICTIONARY
  5
1A
102
{ACAD_REACTORS
330
C
102
}
100
AcDbDictionary
281
1
  3
Model
350
622
  3
Layout1
350
623
  0
ACDBPLACEHOLDER
  5
F
102
{ACAD_REACTORS
330
E
102
}
  0
MLINESTYLE
  5
18
102
{ACAD_REACTORS
330
17
102
}
100
AcDbMlineStyle
  2
STANDARD
 70
0
  3

 62
256
 51
90.0
 52
90.0
 71
2
 49
0.5
 62
256
  6
BYLAYER
 49
-0.5
 62
256
  6
BYLAYER
  0
LAYOUT
  5
622
102
{ACAD_REACTORS
330
1A
102
}
100
AcDbPlotSettings
  1

  2
none_device
  4
ANSI_C_(22.00_x_17.00_Inches)
  6

 40
0.0
 41
0.0
 42
0.0
 43
0.0
 44
558.8
 45
431.8
 46
0.0
 47
0.0
 48
0.0
 49
0.0
140
0.0
141
0.0
142
1.0
143
1.0
 70
1024
 72
0
 73
0
 74
0
  7

 75
0
147
1.0
148
0.0
149
0.0
100
AcDbLayout
  1
Model
 70
0
 71
0
 10
0.0
 20
0.0
 11
22.0
 21
17.0
 12
0.0
 22
0.0
 32
0.0
 14
0.0
 24
0.0
 34
0.0
 15
0.0
 25
0.0
 35
0.0
146
0.0
 13
0.0
 23
0.0
 33
0.0
 16
1.0
 26
0.0
 36
0.0
 17
0.0
 27
1.0
 37
0.0
 76
0
330
202
345
0
346
0
  0
LAYOUT
  5
623
102
{ACAD_REACTORS
330
1A
102
}
100
AcDbPlotSettings
  1

  2
none_device
  4
ANSI_C_(22.00_x_17.00_Inches)
  6

 40
0.0
 41
0.0
 42
0.0
 43
0.0
 44
558.8
 45
431.8
 46
0.0
 47
0.0
 48
0.0
 49
0.0
140
0.0
141
0.0
142
1.0
143
1.0
 70
0
 72
0
 73
0
 74
0
  7

 75
0
147
1.0
148
0.0
149
0.0
100
AcDbLayout
  1
Layout1
 70
0
 71
1
 10
0.0
 20
0.0
 11
22.0
 21
17.0
 12
0.0
 22
0.0
 32
0.0
 14
0.0
 24
0.0
 34
0.0
 15
0.0
 25
0.0
 35
0.0
146
0.0
 13
0.0
 23
0.0
 33
0.0
 16
1.0
 26
0.0
 36
0.0
 17
0.0
 27
1.0
 37
0.0
 76
0
330
203
345
0
346
0
  0
ENDSEC
  0
EOF
