999
DXF file: 281-1_TOP.dxf
999
Pro/ENGINEER 2018400 by Parametric Technology Corporation
  0
SECTION
  2
HEADER
  9
$ACADVER
  1
AC1027
  9
$DWGCODEPAGE
  3
ANSI_1252
  9
$EXTMAX
 10
11.0
 20
8.5
 30
0.0
  9
$EXTMIN
 10
0.0
 20
0.0
 30
0.0
  9
$LIMMIN
 10
0.0
 20
0.0
  9
$LIMMAX
 10
11.0
 20
8.5
  9
$VIEWCTR
 10
5.5
 20
4.25
  9
$VIEWSIZE
 40
8.5
  9
$CLAYER
  8
0
  9
$LTSCALE
 40
0.605
  9
$CELTYPE
  6
BYLAYER
  9
$DIMSCALE
 40
1.0
  9
$DIMASZ
 40
0.1
  9
$DIMEXO
 40
0.0625
  9
$DIMDLI
 40
0.418
  9
$DIMEXE
 40
0.125
  9
$DIMCEN
 40
0.099
  9
$DIMLFAC
 40
1.0
  9
$DIMBLK
  1
_FILLED
  9
$DIMALT
 70
1
  9
$DIMALTD
 70
2
  9
$DIMALTTD
 70
2
  9
$DIMALTF
 40
25.4
  9
$DIMTXT
 40
0.08
  9
$DIMTOL
 70
1
  9
$DIMLIM
 70
0
  9
$DIMTFAC
 40
1.0
  9
$DIMTP
 40
0.001
  9
$DIMTM
 40
0.001
  9
$DIMGAP
 40
0.09
  9
$DIMDSEP
 70
46
  9
$AUNITS
 70
0
  9
$PDMODE
 70
3
  9
$PDSIZE
 40
0.3125
  9
$HANDSEED
  5
535
  9
$TILEMODE
 70
1
  9
$MEASUREMENT
 70
0
  9
$INSUNITS
 70
1
  0
ENDSEC
  0
SECTION
  2
CLASSES
  0
CLASS
  1
ACDBDICTIONARYWDFLT
  2
AcDbDictionaryWithDefault
  3
AutoCAD 2000
 90
0
 91
1
280
0
281
0
  0
CLASS
  1
ACDBPLACEHOLDER
  2
AcDbPlaceHolder
  3
AutoCAD 2000
 90
0
 91
1
280
0
281
0
  0
CLASS
  1
LAYOUT
  2
AcDbLayout
  3
AutoCAD 2000
 90
0
 91
0
280
0
281
0
  0
ENDSEC
  0
SECTION
  2
TABLES
  0
TABLE
  2
VPORT
  5
8
100
AcDbSymbolTable
 70
2
  0
VPORT
  5
1F4
100
AcDbSymbolTableRecord
100
AcDbViewportTableRecord
  2
*ACTIVE
 70
0
 10
0.0
 20
0.0
 11
1.0
 21
1.0
 12
5.5
 22
4.25
 13
0.0
 23
0.0
 14
1.0
 24
1.0
 15
0.0
 25
0.0
 16
0.0
 26
0.0
 36
1.0
 17
0.0
 27
0.0
 37
0.0
 40
8.5
 41
1.2941176471
 42
50.0
 43
0.0
 44
0.0
 50
0.0
 51
0.0
 71
0
 72
100
 73
1
 74
1
 75
0
 76
0
 77
0
 78
0
  0
ENDTAB
  0
TABLE
  2
LTYPE
  5
5
100
AcDbSymbolTable
 70
6
  0
LTYPE
  5
14
100
AcDbSymbolTableRecord
100
AcDbLinetypeTableRecord
  2
BYBLOCK
 70
0
  3

 72
65
 73
0
 40
0.0
  0
LTYPE
  5
15
100
AcDbSymbolTableRecord
100
AcDbLinetypeTableRecord
  2
BYLAYER
 70
0
  3

 72
65
 73
0
 40
0.0
  0
LTYPE
  5
16
100
AcDbSymbolTableRecord
100
AcDbLinetypeTableRecord
  2
CONTINUOUS
 70
64
  3
Solid line
 72
65
 73
0
 40
0.0
  0
LTYPE
  5
1F5
100
AcDbSymbolTableRecord
100
AcDbLinetypeTableRecord
  2
CENTER
 70
64
  3
____ _ ____ _ ____ _ ____ _ ____ _ ____ _ ____
 72
65
 73
4
 40
0.6
 49
0.375
 74
0
 49
-0.075
 74
0
 49
0.075
 74
0
 49
-0.075
 74
0
  0
LTYPE
  5
1F6
100
AcDbSymbolTableRecord
100
AcDbLinetypeTableRecord
  2
HIDDEN
 70
64
  3
- - - - - - - - - - - - - - - - - - - -
 72
65
 73
2
 40
0.2
 49
0.1
 74
0
 49
-0.1
 74
0
  0
LTYPE
  5
1F7
100
AcDbSymbolTableRecord
100
AcDbLinetypeTableRecord
  2
PHANTOM
 70
64
  3
_____ _ _ _____ _ _ _____ _ _ _____
 72
65
 73
6
 40
0.8
 49
0.45
 74
0
 49
-0.05
 74
0
 49
0.1
 74
0
 49
-0.05
 74
0
 49
0.1
 74
0
 49
-0.05
 74
0
  0
LTYPE
  5
1F8
100
AcDbSymbolTableRecord
100
AcDbLinetypeTableRecord
  2
DOT
 70
64
  3
. . . . . . . . . . . . . . . . . . . .
 72
65
 73
2
 40
0.2
 49
0.1
 74
0
 49
-0.1
 74
0
  0
LTYPE
  5
1F9
100
AcDbSymbolTableRecord
100
AcDbLinetypeTableRecord
  2
DASHED
 70
64
  3
- - - - - - - - - - - - - - - - - - - -
 72
65
 73
2
 40
0.2
 49
0.1
 74
0
 49
-0.1
 74
0
  0
ENDTAB
  0
TABLE
  2
LAYER
  5
2
100
AcDbSymbolTable
 70
36
  0
LAYER
  5
10
100
AcDbSymbolTableRecord
100
AcDbLayerTableRecord
  2
0
 70
0
 62
7
  6
CONTINUOUS
370
-3
390
F
  0
LAYER
  5
1FA
100
AcDbSymbolTableRecord
100
AcDbLayerTableRecord
  2
DEFAULT_1
 70
0
 62
7
  6
CENTER
370
-3
390
F
  0
LAYER
  5
1FB
100
AcDbSymbolTableRecord
100
AcDbLayerTableRecord
  2
DEFAULT_2
 70
0
 62
8
  6
HIDDEN
370
-3
390
F
  0
LAYER
  5
1FC
100
AcDbSymbolTableRecord
100
AcDbLayerTableRecord
  2
DEFAULT_3
 70
0
 62
7
  6
PHANTOM
370
-3
390
F
  0
LAYER
  5
1FD
100
AcDbSymbolTableRecord
100
AcDbLayerTableRecord
  2
_  SHELL
 70
0
 62
7
  6
CONTINUOUS
370
-3
390
F
  0
LAYER
  5
1FE
100
AcDbSymbolTableRecord
100
AcDbLayerTableRecord
  2
06___PRT_ALL_SURFS_15
 70
0
 62
7
  6
CONTINUOUS
370
-3
390
F
  0
LAYER
  5
1FF
100
AcDbSymbolTableRecord
100
AcDbLayerTableRecord
  2
11_9
 70
0
 62
7
  6
CONTINUOUS
370
-3
390
F
  0
LAYER
  5
200
100
AcDbSymbolTableRecord
100
AcDbLayerTableRecord
  2
1451A0A-0Z1-01
 70
0
 62
7
  6
CONTINUOUS
370
-3
390
F
  0
LAYER
  5
201
100
AcDbSymbolTableRecord
100
AcDbLayerTableRecord
  2
1451A0A-0Z1-02
 70
0
 62
7
  6
CONTINUOUS
370
-3
390
F
  0
LAYER
  5
202
100
AcDbSymbolTableRecord
100
AcDbLayerTableRecord
  2
1451A0A-0Z1-02_1
 70
0
 62
7
  6
CONTINUOUS
370
-3
390
F
  0
LAYER
  5
203
100
AcDbSymbolTableRecord
100
AcDbLayerTableRecord
  2
1451A0A-0Z1-03
 70
0
 62
7
  6
CONTINUOUS
370
-3
390
F
  0
LAYER
  5
204
100
AcDbSymbolTableRecord
100
AcDbLayerTableRecord
  2
1451A0A-0Z1-04
 70
0
 62
7
  6
CONTINUOUS
370
-3
390
F
  0
LAYER
  5
205
100
AcDbSymbolTableRecord
100
AcDbLayerTableRecord
  2
1451A0A-0Z1-05
 70
0
 62
7
  6
CONTINUOUS
370
-3
390
F
  0
LAYER
  5
206
100
AcDbSymbolTableRecord
100
AcDbLayerTableRecord
  2
1451A0A-0Z1-06
 70
0
 62
7
  6
CONTINUOUS
370
-3
390
F
  0
LAYER
  5
207
100
AcDbSymbolTableRecord
100
AcDbLayerTableRecord
  2
1451A0A-0Z1-07
 70
0
 62
7
  6
CONTINUOUS
370
-3
390
F
  0
LAYER
  5
208
100
AcDbSymbolTableRecord
100
AcDbLayerTableRecord
  2
22_4
 70
0
 62
7
  6
CONTINUOUS
370
-3
390
F
  0
LAYER
  5
209
100
AcDbSymbolTableRecord
100
AcDbLayerTableRecord
  2
22_5
 70
0
 62
7
  6
CONTINUOUS
370
-3
390
F
  0
LAYER
  5
20A
100
AcDbSymbolTableRecord
100
AcDbLayerTableRecord
  2
264X18
 70
0
 62
7
  6
CONTINUOUS
370
-3
390
F
  0
LAYER
  5
20B
100
AcDbSymbolTableRecord
100
AcDbLayerTableRecord
  2
30X15
 70
0
 62
7
  6
CONTINUOUS
370
-3
390
F
  0
LAYER
  5
20C
100
AcDbSymbolTableRecord
100
AcDbLayerTableRecord
  2
315X18
 70
0
 62
7
  6
CONTINUOUS
370
-3
390
F
  0
LAYER
  5
20D
100
AcDbSymbolTableRecord
100
AcDbLayerTableRecord
  2
59X178
 70
0
 62
7
  6
CONTINUOUS
370
-3
390
F
  0
LAYER
  5
20E
100
AcDbSymbolTableRecord
100
AcDbLayerTableRecord
  2
6X15
 70
0
 62
7
  6
CONTINUOUS
370
-3
390
F
  0
LAYER
  5
20F
100
AcDbSymbolTableRecord
100
AcDbLayerTableRecord
  2
925X178
 70
0
 62
7
  6
CONTINUOUS
370
-3
390
F
  0
LAYER
  5
210
100
AcDbSymbolTableRecord
100
AcDbLayerTableRecord
  2
ALL_ASSEMBLY_MEMBERS
 70
0
 62
7
  6
CONTINUOUS
370
-3
390
F
  0
LAYER
  5
211
100
AcDbSymbolTableRecord
100
AcDbLayerTableRecord
  2
ALL_FEATURES
 70
0
 62
7
  6
CONTINUOUS
370
-3
390
F
  0
LAYER
  5
212
100
AcDbSymbolTableRecord
100
AcDbLayerTableRecord
  2
AXES_FEATURES
 70
0
 62
7
  6
CONTINUOUS
370
-3
390
F
  0
LAYER
  5
213
100
AcDbSymbolTableRecord
100
AcDbLayerTableRecord
  2
COLOR14
 70
0
 62
7
  6
CONTINUOUS
370
-3
390
F
  0
LAYER
  5
214
100
AcDbSymbolTableRecord
100
AcDbLayerTableRecord
  2
COLOR33
 70
0
 62
7
  6
CONTINUOUS
370
-3
390
F
  0
LAYER
  5
215
100
AcDbSymbolTableRecord
100
AcDbLayerTableRecord
  2
COLOR9
 70
0
 62
7
  6
CONTINUOUS
370
-3
390
F
  0
LAYER
  5
216
100
AcDbSymbolTableRecord
100
AcDbLayerTableRecord
  2
CONSTR_CURVES
 70
0
 62
7
  6
CONTINUOUS
370
-3
390
F
  0
LAYER
  5
217
100
AcDbSymbolTableRecord
100
AcDbLayerTableRecord
  2
COSMETIC
 70
0
 62
7
  6
CONTINUOUS
370
-3
390
F
  0
LAYER
  5
218
100
AcDbSymbolTableRecord
100
AcDbLayerTableRecord
  2
CURVES
 70
0
 62
7
  6
CONTINUOUS
370
-3
390
F
  0
LAYER
  5
219
100
AcDbSymbolTableRecord
100
AcDbLayerTableRecord
  2
CUT_FEATURES
 70
0
 62
7
  6
CONTINUOUS
370
-3
390
F
  0
LAYER
  5
21A
100
AcDbSymbolTableRecord
100
AcDbLayerTableRecord
  2
DATUM_PLANES
 70
0
 62
7
  6
CONTINUOUS
370
-3
390
F
  0
LAYER
  5
21B
100
AcDbSymbolTableRecord
100
AcDbLayerTableRecord
  2
DEFAULT_COORDINATE_SYSTEM
 70
0
 62
7
  6
CONTINUOUS
370
-3
390
F
  0
LAYER
  5
21C
100
AcDbSymbolTableRecord
100
AcDbLayerTableRecord
  2
DEFAULT_DATUM_AXES
 70
0
 62
7
  6
CONTINUOUS
370
-3
390
F
  0
LAYER
  5
21D
100
AcDbSymbolTableRecord
100
AcDbLayerTableRecord
  2
DEFAULT_DATUM_CURVES
 70
0
 62
7
  6
CONTINUOUS
370
-3
390
F
  0
LAYER
  5
21E
100
AcDbSymbolTableRecord
100
AcDbLayerTableRecord
  2
DEFAULT_DATUM_PLANES
 70
0
 62
7
  6
CONTINUOUS
370
-3
390
F
  0
LAYER
  5
21F
100
AcDbSymbolTableRecord
100
AcDbLayerTableRecord
  2
DEFAULT_SURFACES
 70
0
 62
7
  6
CONTINUOUS
370
-3
390
F
  0
LAYER
  5
220
100
AcDbSymbolTableRecord
100
AcDbLayerTableRecord
  2
DIMENSIONS
 70
0
 62
7
  6
CONTINUOUS
370
-3
390
F
  0
LAYER
  5
221
100
AcDbSymbolTableRecord
100
AcDbLayerTableRecord
  2
DTM_PLANES
 70
0
 62
7
  6
CONTINUOUS
370
-3
390
F
  0
LAYER
  5
222
100
AcDbSymbolTableRecord
100
AcDbLayerTableRecord
  2
EXT_SURFACE
 70
0
 62
7
  6
CONTINUOUS
370
-3
390
F
  0
LAYER
  5
223
100
AcDbSymbolTableRecord
100
AcDbLayerTableRecord
  2
GTOL_DTMS
 70
0
 62
7
  6
CONTINUOUS
370
-3
390
F
  0
LAYER
  5
224
100
AcDbSymbolTableRecord
100
AcDbLayerTableRecord
  2
HIDE
 70
0
 62
7
  6
CONTINUOUS
370
-3
390
F
  0
LAYER
  5
225
100
AcDbSymbolTableRecord
100
AcDbLayerTableRecord
  2
HIDE_10
 70
0
 62
7
  6
CONTINUOUS
370
-3
390
F
  0
LAYER
  5
226
100
AcDbSymbolTableRecord
100
AcDbLayerTableRecord
  2
HIDE_7
 70
0
 62
7
  6
CONTINUOUS
370
-3
390
F
  0
LAYER
  5
227
100
AcDbSymbolTableRecord
100
AcDbLayerTableRecord
  2
HIDE_8
 70
0
 62
7
  6
CONTINUOUS
370
-3
390
F
  0
LAYER
  5
228
100
AcDbSymbolTableRecord
100
AcDbLayerTableRecord
  2
HIDE_9
 70
0
 62
7
  6
CONTINUOUS
370
-3
390
F
  0
LAYER
  5
229
100
AcDbSymbolTableRecord
100
AcDbLayerTableRecord
  2
IMPORT
 70
0
 62
7
  6
CONTINUOUS
370
-3
390
F
  0
LAYER
  5
22A
100
AcDbSymbolTableRecord
100
AcDbLayerTableRecord
  2
INTFCLR_33883
 70
0
 62
7
  6
CONTINUOUS
370
-3
390
F
  0
LAYER
  5
22B
100
AcDbSymbolTableRecord
100
AcDbLayerTableRecord
  2
INTFCLR_33883_1
 70
0
 62
7
  6
CONTINUOUS
370
-3
390
F
  0
LAYER
  5
22C
100
AcDbSymbolTableRecord
100
AcDbLayerTableRecord
  2
INTFCLR_33883_2
 70
0
 62
7
  6
CONTINUOUS
370
-3
390
F
  0
LAYER
  5
22D
100
AcDbSymbolTableRecord
100
AcDbLayerTableRecord
  2
INTFCLR_33883_3
 70
0
 62
7
  6
CONTINUOUS
370
-3
390
F
  0
LAYER
  5
22E
100
AcDbSymbolTableRecord
100
AcDbLayerTableRecord
  2
INTFCLR_33883_4
 70
0
 62
7
  6
CONTINUOUS
370
-3
390
F
  0
LAYER
  5
22F
100
AcDbSymbolTableRecord
100
AcDbLayerTableRecord
  2
INTFCLR_33883_5
 70
0
 62
7
  6
CONTINUOUS
370
-3
390
F
  0
LAYER
  5
230
100
AcDbSymbolTableRecord
100
AcDbLayerTableRecord
  2
INTF_BLANK
 70
0
 62
7
  6
CONTINUOUS
370
-3
390
F
  0
LAYER
  5
231
100
AcDbSymbolTableRecord
100
AcDbLayerTableRecord
  2
LOGO_CURVES
 70
0
 62
7
  6
CONTINUOUS
370
-3
390
F
  0
LAYER
  5
232
100
AcDbSymbolTableRecord
100
AcDbLayerTableRecord
  2
NONE
 70
0
 62
7
  6
CONTINUOUS
370
-3
390
F
  0
LAYER
  5
233
100
AcDbSymbolTableRecord
100
AcDbLayerTableRecord
  2
PROTRUSION_FEATURES
 70
0
 62
7
  6
CONTINUOUS
370
-3
390
F
  0
LAYER
  5
234
100
AcDbSymbolTableRecord
100
AcDbLayerTableRecord
  2
S01012-09A
 70
0
 62
7
  6
CONTINUOUS
370
-3
390
F
  0
LAYER
  5
235
100
AcDbSymbolTableRecord
100
AcDbLayerTableRecord
  2
S01012-10A
 70
0
 62
7
  6
CONTINUOUS
370
-3
390
F
  0
LAYER
  5
236
100
AcDbSymbolTableRecord
100
AcDbLayerTableRecord
  2
S02015-05
 70
0
 62
7
  6
CONTINUOUS
370
-3
390
F
  0
LAYER
  5
237
100
AcDbSymbolTableRecord
100
AcDbLayerTableRecord
  2
S02015-16B
 70
0
 62
7
  6
CONTINUOUS
370
-3
390
F
  0
LAYER
  5
238
100
AcDbSymbolTableRecord
100
AcDbLayerTableRecord
  2
S02015-17
 70
0
 62
7
  6
CONTINUOUS
370
-3
390
F
  0
LAYER
  5
239
100
AcDbSymbolTableRecord
100
AcDbLayerTableRecord
  2
S02015-18
 70
0
 62
7
  6
CONTINUOUS
370
-3
390
F
  0
LAYER
  5
23A
100
AcDbSymbolTableRecord
100
AcDbLayerTableRecord
  2
S02015-20A
 70
0
 62
7
  6
CONTINUOUS
370
-3
390
F
  0
LAYER
  5
23B
100
AcDbSymbolTableRecord
100
AcDbLayerTableRecord
  2
S02015-31A
 70
0
 62
7
  6
CONTINUOUS
370
-3
390
F
  0
LAYER
  5
23C
100
AcDbSymbolTableRecord
100
AcDbLayerTableRecord
  2
S02015-32A
 70
0
 62
7
  6
CONTINUOUS
370
-3
390
F
  0
LAYER
  5
23D
100
AcDbSymbolTableRecord
100
AcDbLayerTableRecord
  2
S02015-32A_1
 70
0
 62
7
  6
CONTINUOUS
370
-3
390
F
  0
LAYER
  5
23E
100
AcDbSymbolTableRecord
100
AcDbLayerTableRecord
  2
S02015-35
 70
0
 62
7
  6
CONTINUOUS
370
-3
390
F
  0
LAYER
  5
23F
100
AcDbSymbolTableRecord
100
AcDbLayerTableRecord
  2
S15025-04A
 70
0
 62
7
  6
CONTINUOUS
370
-3
390
F
  0
LAYER
  5
240
100
AcDbSymbolTableRecord
100
AcDbLayerTableRecord
  2
START_DTMS
 70
0
 62
7
  6
CONTINUOUS
370
-3
390
F
  0
LAYER
  5
241
100
AcDbSymbolTableRecord
100
AcDbLayerTableRecord
  2
SURFACE
 70
0
 62
7
  6
CONTINUOUS
370
-3
390
F
  0
LAYER
  5
242
100
AcDbSymbolTableRecord
100
AcDbLayerTableRecord
  2
SURFS
 70
0
 62
7
  6
CONTINUOUS
370
-3
390
F
  0
LAYER
  5
243
100
AcDbSymbolTableRecord
100
AcDbLayerTableRecord
  2
WETTED_SURFACE
 70
0
 62
7
  6
CONTINUOUS
370
-3
390
F
  0
LAYER
  5
244
100
AcDbSymbolTableRecord
100
AcDbLayerTableRecord
  2
WETTED_SURFACES
 70
0
 62
7
  6
CONTINUOUS
370
-3
390
F
  0
LAYER
  5
245
100
AcDbSymbolTableRecord
100
AcDbLayerTableRecord
  2
___SHELL
 70
0
 62
7
  6
CONTINUOUS
370
-3
390
F
  0
ENDTAB
  0
TABLE
  2
STYLE
  5
3
100
AcDbSymbolTable
 70
1
  0
STYLE
  5
11
100
AcDbSymbolTableRecord
100
AcDbTextStyleTableRecord
  2
STANDARD
 70
0
 40
0.0
 41
0.8
 50
0.0
 71
0
 42
0.2
  3
txt
  4

  0
STYLE
  5
246
100
AcDbSymbolTableRecord
100
AcDbTextStyleTableRecord
  2
TEXTSTYLE_1
 70
0
 40
0.0
 41
0.8
 50
0.0
 71
0
 42
0.2
  3
gdt
  4

  0
ENDTAB
  0
TABLE
  2
VIEW
  5
6
100
AcDbSymbolTable
 70
0
  0
ENDTAB
  0
TABLE
  2
UCS
  5
7
100
AcDbSymbolTable
 70
0
  0
ENDTAB
  0
TABLE
  2
APPID
  5
9
100
AcDbSymbolTable
 70
1
  0
APPID
  5
247
100
AcDbSymbolTableRecord
100
AcDbRegAppTableRecord
  2
ACAD
 70
0
  0
ENDTAB
  0
TABLE
  2
BLOCK_RECORD
  5
1
100
AcDbSymbolTable
 70
0
  0
BLOCK_RECORD
  5
248
100
AcDbSymbolTableRecord
100
AcDbBlockTableRecord
  2
*Model_Space
  0
BLOCK_RECORD
  5
249
100
AcDbSymbolTableRecord
100
AcDbBlockTableRecord
  2
*Paper_Space
  0
BLOCK_RECORD
  5
24A
100
AcDbSymbolTableRecord
100
AcDbBlockTableRecord
  2
_FILLED
  0
ENDTAB
  0
TABLE
  2
DIMSTYLE
  5
A
100
AcDbSymbolTable
 70
1
100
AcDbDimStyleTable
 71
0
  0
DIMSTYLE
105
24B
100
AcDbSymbolTableRecord
100
AcDbDimStyleTableRecord
  2
STANDARD
 70
0
  3

  4

 40
1.0
 41
0.1
 42
0.0625
 43
0.38
 44
0.125
 45
0.0
 46
0.0
 47
0.001
 48
0.001
140
0.08
141
0.09
142
0.0
143
25.4
144
1.0
145
0.0
146
1.0
147
0.09
 71
1.0
 72
0.0
 73
1
 74
1
 75
0
 76
0
 77
0
 78
4
 79
1
170
1
171
2
172
0
173
0
174
0
175
0
176
0
177
0
178
0
270
2
179
3
271
3
272
3
273
2
274
2
275
0
280
0
281
0
282
0
283
1
284
4
285
0
286
0
287
3
288
0
340
11
278
46
341
24A
342
24A
343
24A
344
24A
  0
ENDTAB
  0
ENDSEC
  0
SECTION
  2
BLOCKS
  0
BLOCK
  5
20
100
AcDbEntity
  8
0
100
AcDbBlockBegin
  2
*Model_Space
 70
0
 10
0.0
 20
0.0
 30
0.0
  3
*Model_Space
  1

  0
ENDBLK
  5
21
100
AcDbEntity
  8
0
100
AcDbBlockEnd
  0
BLOCK
  5
1C
100
AcDbEntity
  8
0
100
AcDbBlockBegin
  2
*Paper_Space
 70
0
 10
0.0
 20
0.0
 30
0.0
  3
*Paper_Space
  1

  0
ENDBLK
  5
1D
100
AcDbEntity
  8
0
100
AcDbBlockEnd
  0
BLOCK
  5
24C
100
AcDbEntity
  8
0
100
AcDbBlockBegin
  2
_FILLED
 70
64
 10
0.0
 20
0.0
  3
_FILLED
  1

  0
SOLID
  5
24D
100
AcDbEntity
  8
0
  6
BYBLOCK
 62
0
100
AcDbTrace
 10
0.0
 20
0.0
 11
-1.0
 21
0.2
 12
-1.0
 22
-0.2
 13
-1.0
 23
-0.2
  0
ENDBLK
  5
24E
100
AcDbEntity
  8
0
  6
BYBLOCK
 62
0
100
AcDbBlockEnd
  0
ENDSEC
  0
SECTION
  2
ENTITIES
  0
MTEXT
  5
24F
100
AcDbEntity
  8
0
100
AcDbMText
 62
2
  6
CONTINUOUS
  7
STANDARD
 71
3
 72
1
 10
5.3872875776
 20
2.4297730806
 30
0.0
 11
1.0
 21
0.0
 31
0.0
 73
2
 44
0.9
  1
SCALE  .750
 40
0.08
 41
0.704
  0
LINE
  5
250
100
AcDbEntity
  8
0
100
AcDbLine
 62
7
  6
CONTINUOUS
 10
0.0
 20
0.0
 11
0.0
 21
8.5
  0
LINE
  5
251
100
AcDbEntity
  8
0
100
AcDbLine
 62
7
  6
CONTINUOUS
 10
0.0
 20
0.0
 11
11.0
 21
0.0
  0
LINE
  5
252
100
AcDbEntity
  8
0
100
AcDbLine
 62
7
  6
CONTINUOUS
 10
0.0
 20
8.5
 11
11.0
 21
8.5
  0
LINE
  5
253
100
AcDbEntity
  8
0
100
AcDbLine
 62
7
  6
CONTINUOUS
 10
11.0
 20
0.0
 11
11.0
 21
8.5
  0
LINE
  5
254
100
AcDbEntity
  8
0
100
AcDbLine
 62
7
  6
CONTINUOUS
 10
3.7538127905
 20
3.0848521243
 11
3.7599283565
 21
3.0787365582
  0
LINE
  5
255
100
AcDbEntity
  8
0
100
AcDbLine
 62
7
  6
CONTINUOUS
 10
3.7950644091
 20
3.0848517198
 11
3.8011795707
 21
3.0787365582
  0
LINE
  5
256
100
AcDbEntity
  8
0
100
AcDbLine
 62
7
  6
CONTINUOUS
 10
4.5942474095
 20
2.8770527581
 11
4.6605092339
 21
2.8770527581
  0
LINE
  5
257
100
AcDbEntity
  8
0
100
AcDbLine
 62
7
  6
CONTINUOUS
 10
4.6635459064
 20
2.8770527581
 11
4.825515677
 21
2.8770527581
  0
LINE
  5
258
100
AcDbEntity
  8
0
100
AcDbLine
 62
7
  6
CONTINUOUS
 10
4.8307837315
 20
2.8770527581
 11
4.8901050014
 21
2.8770527581
  0
LINE
  5
259
100
AcDbEntity
  8
0
100
AcDbLine
 62
7
  6
CONTINUOUS
 10
4.8954654749
 20
2.8770527581
 11
5.0574446343
 21
2.8770527581
  0
LINE
  5
25A
100
AcDbEntity
  8
0
100
AcDbLine
 62
7
  6
CONTINUOUS
 10
5.1269338942
 20
2.8770527581
 11
5.1487872747
 21
2.8770527581
  0
LINE
  5
25B
100
AcDbEntity
  8
0
100
AcDbLine
 62
7
  6
CONTINUOUS
 10
5.1541477483
 20
2.8770527581
 11
5.3161181668
 21
2.8770527581
  0
LINE
  5
25C
100
AcDbEntity
  8
0
100
AcDbLine
 62
7
  6
CONTINUOUS
 10
5.3195683006
 20
2.8770527581
 11
5.4500053401
 21
2.8770527581
  0
LINE
  5
25D
100
AcDbEntity
  8
0
100
AcDbLine
 62
7
  6
CONTINUOUS
 10
4.5837880188
 20
2.8813766965
 11
4.8647788756
 21
2.8813765016
  0
LINE
  5
25E
100
AcDbEntity
  8
0
100
AcDbLine
 62
7
  6
CONTINUOUS
 10
4.8850250119
 20
2.8813765016
 11
5.0678850974
 21
2.8813765016
  0
LINE
  5
25F
100
AcDbEntity
  8
0
100
AcDbLine
 62
7
  6
CONTINUOUS
 10
3.8151646432
 20
2.8814131828
 11
3.8082424002
 21
2.8814131828
  0
LINE
  5
260
100
AcDbEntity
  8
0
100
AcDbLine
 62
7
  6
CONTINUOUS
 10
3.8082709139
 20
2.8814131842
 11
3.8082424002
 21
2.8814131828
  0
LINE
  5
261
100
AcDbEntity
  8
0
100
AcDbLine
 62
7
  6
CONTINUOUS
 10
3.8151646432
 20
2.8814131828
 11
3.8152098803
 21
2.8814131864
  0
LINE
  5
262
100
AcDbEntity
  8
0
100
AcDbLine
 62
7
  6
CONTINUOUS
 10
4.8396518868
 20
2.885067554
 11
4.8813339595
 21
2.885067554
  0
LINE
  5
263
100
AcDbEntity
  8
0
100
AcDbLine
 62
7
  6
CONTINUOUS
 10
5.0715761497
 20
2.885067554
 11
5.1400118624
 21
2.885067554
  0
LINE
  5
264
100
AcDbEntity
  8
0
100
AcDbLine
 62
7
  6
CONTINUOUS
 10
4.5776728305
 20
2.8874918848
 11
4.8420762164
 21
2.8874918836
  0
LINE
  5
265
100
AcDbEntity
  8
0
100
AcDbLine
 62
7
  6
CONTINUOUS
 10
4.8789096286
 20
2.8874918848
 11
5.0740004806
 21
2.8874918848
  0
LINE
  5
266
100
AcDbEntity
  8
0
100
AcDbLine
 62
7
  6
CONTINUOUS
 10
5.1375875328
 20
2.8874918836
 11
5.4665799191
 21
2.8874918848
  0
LINE
  5
267
100
AcDbEntity
  8
0
100
AcDbLine
 62
7
  6
CONTINUOUS
 10
4.53951734
 20
2.8918165376
 11
5.5047354096
 21
2.8918165376
  0
LINE
  5
268
100
AcDbEntity
  8
0
100
AcDbLine
 62
7
  6
CONTINUOUS
 10
4.5256432475
 20
2.9015307842
 11
5.5186095022
 21
2.9015307842
  0
LINE
  5
269
100
AcDbEntity
  8
0
100
AcDbLine
 62
7
  6
CONTINUOUS
 10
5.0746087424
 20
2.9559246496
 11
5.0051993111
 21
2.9559246496
  0
LINE
  5
26A
100
AcDbEntity
  8
0
100
AcDbLine
 62
7
  6
CONTINUOUS
 10
4.5058454995
 20
2.9559246496
 11
4.4905228507
 21
2.9559246496
  0
LINE
  5
26B
100
AcDbEntity
  8
0
100
AcDbLine
 62
7
  6
CONTINUOUS
 10
4.3114192818
 20
2.9559246496
 11
4.4166513376
 21
2.9559246496
  0
LINE
  5
26C
100
AcDbEntity
  8
0
100
AcDbLine
 62
7
  6
CONTINUOUS
 10
4.4211054278
 20
2.9559246496
 11
4.4905071305
 21
2.9559246496
  0
LINE
  5
26D
100
AcDbEntity
  8
0
100
AcDbLine
 62
7
  6
CONTINUOUS
 10
4.8404215472
 20
2.9559246496
 11
4.9098482623
 21
2.9559246496
  0
LINE
  5
26E
100
AcDbEntity
  8
0
100
AcDbLine
 62
7
  6
CONTINUOUS
 10
5.1689095916
 20
2.9559246496
 11
5.2383244169
 21
2.9559246496
  0
LINE
  5
26F
100
AcDbEntity
  8
0
100
AcDbLine
 62
7
  6
CONTINUOUS
 10
5.5384072501
 20
2.9559246496
 11
5.5654847477
 21
2.9559246496
  0
LINE
  5
270
100
AcDbEntity
  8
0
100
AcDbLine
 62
7
  6
CONTINUOUS
 10
5.5725854253
 20
2.9559246496
 11
5.7080056505
 21
2.9559246496
  0
LINE
  5
271
100
AcDbEntity
  8
0
100
AcDbLine
 62
7
  6
CONTINUOUS
 10
5.7128217829
 20
2.9559246496
 11
5.7353164889
 21
2.9559246496
  0
LINE
  5
272
100
AcDbEntity
  8
0
100
AcDbLine
 62
7
  6
CONTINUOUS
 10
4.3051387885
 20
2.9585191485
 11
4.5049011792
 21
2.9585191485
  0
LINE
  5
273
100
AcDbEntity
  8
0
100
AcDbLine
 62
7
  6
CONTINUOUS
 10
4.8341545791
 20
2.9585191485
 11
4.9161152304
 21
2.9585191485
  0
LINE
  5
274
100
AcDbEntity
  8
0
100
AcDbLine
 62
7
  6
CONTINUOUS
 10
4.9989237011
 20
2.9585191485
 11
5.0808843524
 21
2.9585191485
  0
LINE
  5
275
100
AcDbEntity
  8
0
100
AcDbLine
 62
7
  6
CONTINUOUS
 10
5.1626366786
 20
2.9585191485
 11
5.2445973299
 21
2.9585191485
  0
LINE
  5
276
100
AcDbEntity
  8
0
100
AcDbLine
 62
7
  6
CONTINUOUS
 10
5.5393515706
 20
2.9585191488
 11
5.7142736492
 21
2.9585191513
  0
LINE
  5
277
100
AcDbEntity
  8
0
100
AcDbLine
 62
7
  6
CONTINUOUS
 10
4.5043604998
 20
2.9600046527
 11
4.8326690748
 21
2.9600046527
  0
LINE
  5
278
100
AcDbEntity
  8
0
100
AcDbLine
 62
7
  6
CONTINUOUS
 10
4.9176007347
 20
2.9600046527
 11
4.9974381968
 21
2.9600046527
  0
LINE
  5
279
100
AcDbEntity
  8
0
100
AcDbLine
 62
7
  6
CONTINUOUS
 10
5.0823698566
 20
2.9600046527
 11
5.1611511743
 21
2.9600046527
  0
LINE
  5
27A
100
AcDbEntity
  8
0
100
AcDbLine
 62
7
  6
CONTINUOUS
 10
5.2460828331
 20
2.9600046517
 11
5.5398922498
 21
2.9600046527
  0
LINE
  5
27B
100
AcDbEntity
  8
0
100
AcDbLine
 62
7
  6
CONTINUOUS
 10
4.2955640672
 20
2.9680938698
 11
4.5063613261
 21
2.9680938698
  0
LINE
  5
27C
100
AcDbEntity
  8
0
100
AcDbLine
 62
7
  6
CONTINUOUS
 10
4.8245798578
 20
2.9680938698
 11
4.9256899517
 21
2.9680938698
  0
LINE
  5
27D
100
AcDbEntity
  8
0
100
AcDbLine
 62
7
  6
CONTINUOUS
 10
4.9893489798
 20
2.9680938698
 11
5.0904590737
 21
2.9680938698
  0
LINE
  5
27E
100
AcDbEntity
  8
0
100
AcDbLine
 62
7
  6
CONTINUOUS
 10
5.1530619573
 20
2.9680938698
 11
5.2541720512
 21
2.9680938698
  0
LINE
  5
27F
100
AcDbEntity
  8
0
100
AcDbLine
 62
7
  6
CONTINUOUS
 10
5.5444504992
 20
2.9680938697
 11
5.7511688951
 21
2.9680938698
  0
LINE
  5
280
100
AcDbEntity
  8
0
100
AcDbLine
 62
7
  6
CONTINUOUS
 10
5.7537634544
 20
2.9743576437
 11
5.5511009698
 21
2.9743576437
  0
LINE
  5
281
100
AcDbEntity
  8
0
100
AcDbLine
 62
7
  6
CONTINUOUS
 10
5.2567666105
 20
2.9743576437
 11
5.1504673979
 21
2.9743576437
  0
LINE
  5
282
100
AcDbEntity
  8
0
100
AcDbLine
 62
7
  6
CONTINUOUS
 10
5.093053633
 20
2.9743576437
 11
4.9867544204
 21
2.9743576437
  0
LINE
  5
283
100
AcDbEntity
  8
0
100
AcDbLine
 62
7
  6
CONTINUOUS
 10
4.928284511
 20
2.9743576437
 11
4.8219852984
 21
2.9743576437
  0
LINE
  5
284
100
AcDbEntity
  8
0
100
AcDbLine
 62
7
  6
CONTINUOUS
 10
4.5089558854
 20
2.9743576437
 11
4.2929695078
 21
2.9743576437
  0
LINE
  5
285
100
AcDbEntity
  8
0
100
AcDbLine
 62
7
  6
CONTINUOUS
 10
4.5089558801
 20
2.9792825153
 11
4.8219852984
 21
2.9792825153
  0
LINE
  5
286
100
AcDbEntity
  8
0
100
AcDbLine
 62
7
  6
CONTINUOUS
 10
4.928284511
 20
2.9792825153
 11
4.9855978852
 21
2.9792825153
  0
LINE
  5
287
100
AcDbEntity
  8
0
100
AcDbLine
 62
7
  6
CONTINUOUS
 10
5.093053633
 20
2.9792825153
 11
5.1504673979
 21
2.9792825153
  0
LINE
  5
288
100
AcDbEntity
  8
0
100
AcDbLine
 62
7
  6
CONTINUOUS
 10
5.2567666105
 20
2.9792825153
 11
5.5541383046
 21
2.9792825153
  0
LINE
  5
289
100
AcDbEntity
  8
0
100
AcDbLine
 62
7
  6
CONTINUOUS
 10
5.7151885322
 20
2.9585191485
 11
5.7415941965
 21
2.9585191712
  0
LINE
  5
28A
100
AcDbEntity
  8
0
100
AcDbLine
 62
7
  6
CONTINUOUS
 10
5.1437029148
 20
2.8813765016
 11
5.4604647308
 21
2.8813766965
  0
LWPOLYLINE
  5
28B
100
AcDbEntity
  8
0
100
AcDbPolyline
 62
7
  6
CONTINUOUS
 90
18
 70
0
 10
4.2865691888
 20
3.0026668007
 10
4.2865387581
 20
3.0026734078
 10
4.286519966
 20
3.0026777012
 10
4.2865624103
 20
3.0026674695
 10
4.2866512387
 20
3.0026442372
 10
4.2867960981
 20
3.0026029215
 10
4.2870554925
 20
3.0025201916
 10
4.2874203269
 20
3.0023864414
 10
4.2878750525
 20
3.0021916329
 10
4.2884513543
 20
3.0018977438
 10
4.2891479104
 20
3.001464898
 10
4.2898809419
 20
3.0009013466
 10
4.2905983038
 20
3.0002133625
 10
4.2913148893
 20
2.9993374401
 10
4.2919881723
 20
2.9982358218
 10
4.2925233992
 20
2.9969589902
 10
4.2928650107
 20
2.9955396612
 10
4.2929689957
 20
2.9941861664
  0
LWPOLYLINE
  5
28C
100
AcDbEntity
  8
0
100
AcDbPolyline
 62
7
  6
CONTINUOUS
 90
15
 70
0
 10
4.323989724
 20
3.0014977306
 10
4.3239369914
 20
3.0015148805
 10
4.3238736561
 20
3.00153671
 10
4.3239210628
 20
3.0015187013
 10
4.3240588934
 20
3.0014604611
 10
4.3242877679
 20
3.0013521517
 10
4.3246611924
 20
3.0011495673
 10
4.3251690565
 20
3.0008250621
 10
4.3257473803
 20
3.0003819703
 10
4.3263785113
 20
2.9997927158
 10
4.3270903886
 20
2.9989523808
 10
4.3278003557
 20
2.9978220692
 10
4.3283571206
 20
2.9965087997
 10
4.3286979387
 20
2.9950857194
 10
4.3287973622
 20
2.9937690649
  0
LWPOLYLINE
  5
28D
100
AcDbEntity
  8
0
100
AcDbPolyline
 62
7
  6
CONTINUOUS
 90
12
 70
0
 10
4.3987787203
 20
2.9999464493
 10
4.3987324019
 20
2.9999654183
 10
4.3987006527
 20
2.9999787781
 10
4.3988826743
 20
2.9998823553
 10
4.3992629172
 20
2.9996434741
 10
4.3997533008
 20
2.9992722736
 10
4.400310258
 20
2.9987586155
 10
4.4009462382
 20
2.9980235193
 10
4.4016015516
 20
2.9970212687
 10
4.4021518439
 20
2.995810509
 10
4.4025271875
 20
2.9944078866
 10
4.4026590518
 20
2.9929115127
  0
LINE
  5
28E
100
AcDbEntity
  8
0
100
AcDbLine
 62
7
  6
CONTINUOUS
 10
3.9325767426
 20
3.0536916299
 11
3.938692224
 21
3.0475761485
  0
LINE
  5
28F
100
AcDbEntity
  8
0
100
AcDbLine
 62
7
  6
CONTINUOUS
 10
3.9160069099
 20
3.0848516597
 11
3.9221220113
 21
3.0787365582
  0
LINE
  5
290
100
AcDbEntity
  8
0
100
AcDbLine
 62
7
  6
CONTINUOUS
 10
4.0035004889
 20
3.0536915285
 11
4.0096158689
 21
3.0475761485
  0
LINE
  5
291
100
AcDbEntity
  8
0
100
AcDbLine
 62
7
  6
CONTINUOUS
 10
4.1083985329
 20
3.0848516763
 11
4.1145136509
 21
3.0787365582
  0
LINE
  5
292
100
AcDbEntity
  8
0
100
AcDbLine
 62
7
  6
CONTINUOUS
 10
4.1405144495
 20
3.0536915285
 11
4.1466298295
 21
3.0475761485
  0
LINE
  5
293
100
AcDbEntity
  8
0
100
AcDbLine
 62
7
  6
CONTINUOUS
 10
4.2929695078
 20
2.9941827456
 11
4.2932141979
 21
2.9942224436
  0
LINE
  5
294
100
AcDbEntity
  8
0
100
AcDbLine
 62
7
  6
CONTINUOUS
 10
6.5408763748
 20
3.1427548988
 11
6.4298763748
 21
3.1369376353
  0
LINE
  5
295
100
AcDbEntity
  8
0
100
AcDbLine
 62
7
  6
CONTINUOUS
 10
5.8931893669
 20
3.0228683559
 11
4.1510633827
 21
3.0228683559
  0
LINE
  5
296
100
AcDbEntity
  8
0
100
AcDbLine
 62
7
  6
CONTINUOUS
 10
4.1422023704
 20
3.0279467704
 11
5.9020503792
 21
3.0279467704
  0
LINE
  5
297
100
AcDbEntity
  8
0
100
AcDbLine
 62
7
  6
CONTINUOUS
 10
5.9687502952
 20
3.0394533952
 11
4.0755018697
 21
3.0394497862
  0
LINE
  5
298
100
AcDbEntity
  8
0
100
AcDbLine
 62
7
  6
CONTINUOUS
 10
4.4153660375
 20
3.0432521794
 11
4.350847216
 21
3.0432521794
  0
LINE
  5
299
100
AcDbEntity
  8
0
100
AcDbLine
 62
7
  6
CONTINUOUS
 10
4.2215990362
 20
3.0432521794
 11
4.1570802146
 21
3.0432521794
  0
LINE
  5
29A
100
AcDbEntity
  8
0
100
AcDbLine
 62
7
  6
CONTINUOUS
 10
3.9491468359
 20
3.0432521794
 11
4.0136572038
 21
3.0432521794
  0
LINE
  5
29B
100
AcDbEntity
  8
0
100
AcDbLine
 62
7
  6
CONTINUOUS
 10
4.020057963
 20
3.0432521794
 11
4.0845933665
 21
3.0432521794
  0
LINE
  5
29C
100
AcDbEntity
  8
0
100
AcDbLine
 62
7
  6
CONTINUOUS
 10
4.588162202
 20
3.0432521794
 11
4.6526813339
 21
3.0432521794
  0
LINE
  5
29D
100
AcDbEntity
  8
0
100
AcDbLine
 62
7
  6
CONTINUOUS
 10
4.8528447386
 20
3.0432521794
 11
4.9173800898
 21
3.0432521794
  0
LINE
  5
29E
100
AcDbEntity
  8
0
100
AcDbLine
 62
7
  6
CONTINUOUS
 10
5.1268733774
 20
3.0432521794
 11
5.1914072935
 21
3.0432521794
  0
LINE
  5
29F
100
AcDbEntity
  8
0
100
AcDbLine
 62
7
  6
CONTINUOUS
 10
5.3915747293
 20
3.0432521794
 11
5.4560872342
 21
3.0432521794
  0
LINE
  5
2A0
100
AcDbEntity
  8
0
100
AcDbLine
 62
7
  6
CONTINUOUS
 10
5.6288788603
 20
3.0432521794
 11
5.6934133855
 21
3.0432521794
  0
LINE
  5
2A1
100
AcDbEntity
  8
0
100
AcDbLine
 62
7
  6
CONTINUOUS
 10
5.8226474206
 20
3.0432521794
 11
5.8871788279
 21
3.0432521794
  0
LINE
  5
2A2
100
AcDbEntity
  8
0
100
AcDbLine
 62
7
  6
CONTINUOUS
 10
5.9596582671
 20
3.0432521794
 11
6.0241959027
 21
3.0432521794
  0
LINE
  5
2A3
100
AcDbEntity
  8
0
100
AcDbLine
 62
7
  6
CONTINUOUS
 10
6.0305991823
 20
3.0432521794
 11
6.0951022773
 21
3.0432521794
  0
LINE
  5
2A4
100
AcDbEntity
  8
0
100
AcDbLine
 62
7
  6
CONTINUOUS
 10
5.9532446424
 20
3.0447518437
 11
5.8935955667
 21
3.0447518437
  0
LINE
  5
2A5
100
AcDbEntity
  8
0
100
AcDbLine
 62
7
  6
CONTINUOUS
 10
4.0910080955
 20
3.0447518379
 11
4.1506571947
 21
3.0447518379
  0
LINE
  5
2A6
100
AcDbEntity
  8
0
100
AcDbLine
 62
7
  6
CONTINUOUS
 10
4.2280220561
 20
3.0447518379
 11
4.3444241961
 21
3.0447518379
  0
LINE
  5
2A7
100
AcDbEntity
  8
0
100
AcDbLine
 62
7
  6
CONTINUOUS
 10
4.4217890575
 20
3.0447518379
 11
4.5817393372
 21
3.0447518379
  0
LINE
  5
2A8
100
AcDbEntity
  8
0
100
AcDbLine
 62
7
  6
CONTINUOUS
 10
4.6591041986
 20
3.0447518379
 11
4.8464299835
 21
3.0447518379
  0
LINE
  5
2A9
100
AcDbEntity
  8
0
100
AcDbLine
 62
7
  6
CONTINUOUS
 10
4.9237948449
 20
3.0447518379
 11
5.1204579048
 21
3.0447518379
  0
LINE
  5
2AA
100
AcDbEntity
  8
0
100
AcDbLine
 62
7
  6
CONTINUOUS
 10
5.1978227662
 20
3.0447518379
 11
5.385148551
 21
3.0447518379
  0
LINE
  5
2AB
100
AcDbEntity
  8
0
100
AcDbLine
 62
7
  6
CONTINUOUS
 10
5.4625134124
 20
3.0447518379
 11
5.6224636922
 21
3.0447518379
  0
LINE
  5
2AC
100
AcDbEntity
  8
0
100
AcDbLine
 62
7
  6
CONTINUOUS
 10
5.6998285536
 20
3.0447518379
 11
5.8162306935
 21
3.0447518379
  0
LINE
  5
2AD
100
AcDbEntity
  8
0
100
AcDbLine
 62
7
  6
CONTINUOUS
 10
5.8122439787
 20
3.0475761485
 11
5.81220333
 21
3.0475761469
  0
LINE
  5
2AE
100
AcDbEntity
  8
0
100
AcDbLine
 62
7
  6
CONTINUOUS
 10
5.8887970835
 20
3.0475761485
 11
5.8122439787
 21
3.0475761485
  0
LINE
  5
2AF
100
AcDbEntity
  8
0
100
AcDbLine
 62
7
  6
CONTINUOUS
 10
4.1466298295
 20
3.0475761485
 11
4.2320494212
 21
3.0475761485
  0
LINE
  5
2B0
100
AcDbEntity
  8
0
100
AcDbLine
 62
7
  6
CONTINUOUS
 10
4.5777164894
 20
3.0475761485
 11
4.6631315638
 21
3.0475761485
  0
LINE
  5
2B1
100
AcDbEntity
  8
0
100
AcDbLine
 62
7
  6
CONTINUOUS
 10
5.1164305396
 20
3.0475761485
 11
5.2018501313
 21
3.0475761485
  0
LINE
  5
2B2
100
AcDbEntity
  8
0
100
AcDbLine
 62
7
  6
CONTINUOUS
 10
5.6184408444
 20
3.0475761485
 11
5.7038559187
 21
3.0475761485
  0
LINE
  5
2B3
100
AcDbEntity
  8
0
100
AcDbLine
 62
7
  6
CONTINUOUS
 10
4.3403968309
 20
3.0475761485
 11
4.4258164226
 21
3.0475761485
  0
LINE
  5
2B4
100
AcDbEntity
  8
0
100
AcDbLine
 62
7
  6
CONTINUOUS
 10
3.938692224
 20
3.0475761485
 11
4.0950354606
 21
3.0475761485
  0
LINE
  5
2B5
100
AcDbEntity
  8
0
100
AcDbLine
 62
7
  6
CONTINUOUS
 10
4.8424026183
 20
3.0475761485
 11
4.92782221
 21
3.0475761485
  0
LINE
  5
2B6
100
AcDbEntity
  8
0
100
AcDbLine
 62
7
  6
CONTINUOUS
 10
5.3811211859
 20
3.0475761485
 11
5.4665407776
 21
3.0475761485
  0
LINE
  5
2B7
100
AcDbEntity
  8
0
100
AcDbLine
 62
7
  6
CONTINUOUS
 10
5.8887972752
 20
3.0475763903
 11
5.8976229185
 21
3.0475761469
  0
LINE
  5
2B8
100
AcDbEntity
  8
0
100
AcDbLine
 62
7
  6
CONTINUOUS
 10
6.0370358683
 20
3.053691748
 11
6.0321652312
 21
3.0536915773
  0
LINE
  5
2B9
100
AcDbEntity
  8
0
100
AcDbLine
 62
7
  6
CONTINUOUS
 10
6.0321652312
 20
3.0536915773
 11
5.943101909
 21
3.0536915285
  0
LINE
  5
2BA
100
AcDbEntity
  8
0
100
AcDbLine
 62
7
  6
CONTINUOUS
 10
5.7099712988
 20
3.0536915285
 11
5.612320947
 21
3.0536915285
  0
LINE
  5
2BB
100
AcDbEntity
  8
0
100
AcDbLine
 62
7
  6
CONTINUOUS
 10
5.2079655113
 20
3.0536915285
 11
5.1103151596
 21
3.0536915285
  0
LINE
  5
2BC
100
AcDbEntity
  8
0
100
AcDbLine
 62
7
  6
CONTINUOUS
 10
3.9325767426
 20
3.0536916299
 11
4.1011508406
 21
3.0536915285
  0
LINE
  5
2BD
100
AcDbEntity
  8
0
100
AcDbLine
 62
7
  6
CONTINUOUS
 10
4.3342814509
 20
3.0536915285
 11
4.4319318026
 21
3.0536915285
  0
LINE
  5
2BE
100
AcDbEntity
  8
0
100
AcDbLine
 62
7
  6
CONTINUOUS
 10
4.8362872383
 20
3.0536915285
 11
4.9339375901
 21
3.0536915285
  0
LINE
  5
2BF
100
AcDbEntity
  8
0
100
AcDbLine
 62
7
  6
CONTINUOUS
 10
5.3750058059
 20
3.0536915285
 11
5.4726561576
 21
3.0536915285
  0
LINE
  5
2C0
100
AcDbEntity
  8
0
100
AcDbLine
 62
7
  6
CONTINUOUS
 10
5.8060879484
 20
3.0536915285
 11
5.9037383001
 21
3.0536915285
  0
LINE
  5
2C1
100
AcDbEntity
  8
0
100
AcDbLine
 62
7
  6
CONTINUOUS
 10
6.0370356655
 20
3.0536915285
 11
6.1116759057
 21
3.0536915285
  0
LINE
  5
2C2
100
AcDbEntity
  8
0
100
AcDbLine
 62
7
  6
CONTINUOUS
 10
4.6692469438
 20
3.0536915285
 11
4.5715965921
 21
3.0536915285
  0
LINE
  5
2C3
100
AcDbEntity
  8
0
100
AcDbLine
 62
7
  6
CONTINUOUS
 10
4.2381648013
 20
3.0536915285
 11
4.1405144495
 21
3.0536915285
  0
LINE
  5
2C4
100
AcDbEntity
  8
0
100
AcDbLine
 62
7
  6
CONTINUOUS
 10
5.9395478911
 20
3.0595225865
 11
5.9072923181
 21
3.0595225865
  0
LINE
  5
2C5
100
AcDbEntity
  8
0
100
AcDbLine
 62
7
  6
CONTINUOUS
 10
4.1047048586
 20
3.0595225865
 11
4.1369604316
 21
3.0595225865
  0
LINE
  5
2C6
100
AcDbEntity
  8
0
100
AcDbLine
 62
7
  6
CONTINUOUS
 10
4.2417188192
 20
3.0595225865
 11
4.3307274329
 21
3.0595225865
  0
LINE
  5
2C7
100
AcDbEntity
  8
0
100
AcDbLine
 62
7
  6
CONTINUOUS
 10
4.4354858206
 20
3.0595225865
 11
4.5680425741
 21
3.0595225865
  0
LINE
  5
2C8
100
AcDbEntity
  8
0
100
AcDbLine
 62
7
  6
CONTINUOUS
 10
4.6728009617
 20
3.0595225865
 11
4.8322484819
 21
3.0595225865
  0
LINE
  5
2C9
100
AcDbEntity
  8
0
100
AcDbLine
 62
7
  6
CONTINUOUS
 10
4.937491608
 20
3.0595225865
 11
5.1067611416
 21
3.0595225865
  0
LINE
  5
2CA
100
AcDbEntity
  8
0
100
AcDbLine
 62
7
  6
CONTINUOUS
 10
5.2115195293
 20
3.0595225865
 11
5.3714517879
 21
3.0595225865
  0
LINE
  5
2CB
100
AcDbEntity
  8
0
100
AcDbLine
 62
7
  6
CONTINUOUS
 10
5.4762101755
 20
3.0595225865
 11
5.6087669291
 21
3.0595225865
  0
LINE
  5
2CC
100
AcDbEntity
  8
0
100
AcDbLine
 62
7
  6
CONTINUOUS
 10
5.7135253167
 20
3.0595225865
 11
5.801763518
 21
3.0595225865
  0
LINE
  5
2CD
100
AcDbEntity
  8
0
100
AcDbLine
 62
7
  6
CONTINUOUS
 10
6.1160003361
 20
3.0641313167
 11
5.9387774786
 21
3.0641313167
  0
LINE
  5
2CE
100
AcDbEntity
  8
0
100
AcDbLine
 62
7
  6
CONTINUOUS
 10
5.9080627306
 20
3.0641313167
 11
5.801763518
 21
3.0641313167
  0
LINE
  5
2CF
100
AcDbEntity
  8
0
100
AcDbLine
 62
7
  6
CONTINUOUS
 10
5.7142957292
 20
3.0641313167
 11
5.6079965166
 21
3.0641313167
  0
LINE
  5
2D0
100
AcDbEntity
  8
0
100
AcDbLine
 62
7
  6
CONTINUOUS
 10
5.476980588
 20
3.0641313167
 11
5.3706813754
 21
3.0641313167
  0
LINE
  5
2D1
100
AcDbEntity
  8
0
100
AcDbLine
 62
7
  6
CONTINUOUS
 10
5.2122899418
 20
3.0641313167
 11
5.1059907292
 21
3.0641313167
  0
LINE
  5
2D2
100
AcDbEntity
  8
0
100
AcDbLine
 62
7
  6
CONTINUOUS
 10
4.9382620205
 20
3.0641313167
 11
4.8319628079
 21
3.0641313167
  0
LINE
  5
2D3
100
AcDbEntity
  8
0
100
AcDbLine
 62
7
  6
CONTINUOUS
 10
4.6735713742
 20
3.0641313167
 11
4.5672721616
 21
3.0641313167
  0
LINE
  5
2D4
100
AcDbEntity
  8
0
100
AcDbLine
 62
7
  6
CONTINUOUS
 10
4.4362562331
 20
3.0641313167
 11
4.3299570205
 21
3.0641313167
  0
LINE
  5
2D5
100
AcDbEntity
  8
0
100
AcDbLine
 62
7
  6
CONTINUOUS
 10
4.2424892317
 20
3.0641313167
 11
4.1361900191
 21
3.0641313167
  0
LINE
  5
2D6
100
AcDbEntity
  8
0
100
AcDbLine
 62
7
  6
CONTINUOUS
 10
4.1054752711
 20
3.0641313167
 11
3.9991760585
 21
3.0641313167
  0
LINE
  5
2D7
100
AcDbEntity
  8
0
100
AcDbLine
 62
7
  6
CONTINUOUS
 10
3.999143723
 20
3.0641313167
 11
3.9282524135
 21
3.0641313167
  0
LINE
  5
2D8
100
AcDbEntity
  8
0
100
AcDbLine
 62
7
  6
CONTINUOUS
 10
4.1054752711
 20
3.0727569883
 11
4.1361900191
 21
3.0727569883
  0
LINE
  5
2D9
100
AcDbEntity
  8
0
100
AcDbLine
 62
7
  6
CONTINUOUS
 10
4.2424892317
 20
3.0727569883
 11
4.3299570205
 21
3.0727569883
  0
LINE
  5
2DA
100
AcDbEntity
  8
0
100
AcDbLine
 62
7
  6
CONTINUOUS
 10
4.4373757828
 20
3.0727569883
 11
4.5672721616
 21
3.0727569883
  0
LINE
  5
2DB
100
AcDbEntity
  8
0
100
AcDbLine
 62
7
  6
CONTINUOUS
 10
4.6735713742
 20
3.0727569883
 11
4.8319628079
 21
3.0727569883
  0
LINE
  5
2DC
100
AcDbEntity
  8
0
100
AcDbLine
 62
7
  6
CONTINUOUS
 10
4.9382620205
 20
3.0727569883
 11
5.1059907292
 21
3.0727569883
  0
LINE
  5
2DD
100
AcDbEntity
  8
0
100
AcDbLine
 62
7
  6
CONTINUOUS
 10
5.2122899418
 20
3.0727569883
 11
5.3706813754
 21
3.0727569883
  0
LINE
  5
2DE
100
AcDbEntity
  8
0
100
AcDbLine
 62
7
  6
CONTINUOUS
 10
5.476980588
 20
3.0727569883
 11
5.6068769673
 21
3.0727569883
  0
LINE
  5
2DF
100
AcDbEntity
  8
0
100
AcDbLine
 62
7
  6
CONTINUOUS
 10
5.7142957292
 20
3.0727569883
 11
5.801763518
 21
3.0727569883
  0
LINE
  5
2E0
100
AcDbEntity
  8
0
100
AcDbLine
 62
7
  6
CONTINUOUS
 10
5.9080627305
 20
3.0727569886
 11
5.9387774786
 21
3.0727569881
  0
LINE
  5
2E1
100
AcDbEntity
  8
0
100
AcDbLine
 62
7
  6
CONTINUOUS
 10
5.6685698128
 20
3.0744125557
 11
5.5863128581
 21
3.0744125557
  0
LINE
  5
2E2
100
AcDbEntity
  8
0
100
AcDbLine
 62
7
  6
CONTINUOUS
 10
4.4579398915
 20
3.0744125557
 11
4.3756829369
 21
3.0744125557
  0
LINE
  5
2E3
100
AcDbEntity
  8
0
100
AcDbLine
 62
7
  6
CONTINUOUS
 10
3.7703679762
 20
3.0744125557
 11
3.8089193426
 21
3.0744125557
  0
LINE
  5
2E4
100
AcDbEntity
  8
0
100
AcDbLine
 62
7
  6
CONTINUOUS
 10
3.8116243846
 20
3.0744125557
 11
3.893870951
 21
3.0744125557
  0
LINE
  5
2E5
100
AcDbEntity
  8
0
100
AcDbLine
 62
7
  6
CONTINUOUS
 10
3.9325823729
 20
3.0744125557
 11
4.014797844
 21
3.0744125557
  0
LINE
  5
2E6
100
AcDbEntity
  8
0
100
AcDbLine
 62
7
  6
CONTINUOUS
 10
4.124954829
 20
3.0744125557
 11
4.207208667
 21
3.0744125557
  0
LINE
  5
2E7
100
AcDbEntity
  8
0
100
AcDbLine
 62
7
  6
CONTINUOUS
 10
4.6676730967
 20
3.0744125557
 11
4.7499114925
 21
3.0744125557
  0
LINE
  5
2E8
100
AcDbEntity
  8
0
100
AcDbLine
 62
7
  6
CONTINUOUS
 10
4.9810134494
 20
3.0744125557
 11
5.0632393003
 21
3.0744125557
  0
LINE
  5
2E9
100
AcDbEntity
  8
0
100
AcDbLine
 62
7
  6
CONTINUOUS
 10
5.2943415009
 20
3.0744125557
 11
5.3765794091
 21
3.0744125557
  0
LINE
  5
2EA
100
AcDbEntity
  8
0
100
AcDbLine
 62
7
  6
CONTINUOUS
 10
5.8370439419
 20
3.0744125557
 11
5.9192980614
 21
3.0744125557
  0
LINE
  5
2EB
100
AcDbEntity
  8
0
100
AcDbLine
 62
7
  6
CONTINUOUS
 10
6.0294506048
 20
3.0744125557
 11
6.1116746776
 21
3.0744125557
  0
LINE
  5
2EC
100
AcDbEntity
  8
0
100
AcDbLine
 62
7
  6
CONTINUOUS
 10
6.1503847937
 20
3.0744125557
 11
6.23262537
 21
3.0744125557
  0
LINE
  5
2ED
100
AcDbEntity
  8
0
100
AcDbLine
 62
7
  6
CONTINUOUS
 10
6.2349988679
 20
3.0744125557
 11
6.2738847734
 21
3.0744125557
  0
LINE
  5
2EE
100
AcDbEntity
  8
0
100
AcDbLine
 62
7
  6
CONTINUOUS
 10
3.8007748433
 20
3.0787365582
 11
3.7599283565
 21
3.0787365582
  0
LINE
  5
2EF
100
AcDbEntity
  8
0
100
AcDbLine
 62
7
  6
CONTINUOUS
 10
3.8011795707
 20
3.0787365582
 11
3.9043157649
 21
3.0787365582
  0
LINE
  5
2F0
100
AcDbEntity
  8
0
100
AcDbLine
 62
7
  6
CONTINUOUS
 10
3.9221220113
 20
3.0787365582
 11
4.0252582055
 21
3.0787365582
  0
LINE
  5
2F1
100
AcDbEntity
  8
0
100
AcDbLine
 62
7
  6
CONTINUOUS
 10
4.1145136509
 20
3.0787365582
 11
4.2176498451
 21
3.0787365582
  0
LINE
  5
2F2
100
AcDbEntity
  8
0
100
AcDbLine
 62
7
  6
CONTINUOUS
 10
4.3652433171
 20
3.0787365582
 11
4.4683795113
 21
3.0787365582
  0
LINE
  5
2F3
100
AcDbEntity
  8
0
100
AcDbLine
 62
7
  6
CONTINUOUS
 10
4.6572241975
 20
3.0787365582
 11
4.7603603917
 21
3.0787365582
  0
LINE
  5
2F4
100
AcDbEntity
  8
0
100
AcDbLine
 62
7
  6
CONTINUOUS
 10
4.9705582777
 20
3.0787365582
 11
5.0736944719
 21
3.0787365582
  0
LINE
  5
2F5
100
AcDbEntity
  8
0
100
AcDbLine
 62
7
  6
CONTINUOUS
 10
5.2838923579
 20
3.0787365582
 11
5.3870285521
 21
3.0787365582
  0
LINE
  5
2F6
100
AcDbEntity
  8
0
100
AcDbLine
 62
7
  6
CONTINUOUS
 10
5.5758732384
 20
3.0787365582
 11
5.6790094325
 21
3.0787365582
  0
LINE
  5
2F7
100
AcDbEntity
  8
0
100
AcDbLine
 62
7
  6
CONTINUOUS
 10
5.8266029046
 20
3.0787365582
 11
5.9297390987
 21
3.0787365582
  0
LINE
  5
2F8
100
AcDbEntity
  8
0
100
AcDbLine
 62
7
  6
CONTINUOUS
 10
6.0189945248
 20
3.0787365776
 11
6.1221307577
 21
3.0787365776
  0
LINE
  5
2F9
100
AcDbEntity
  8
0
100
AcDbLine
 62
7
  6
CONTINUOUS
 10
6.1399369848
 20
3.0787365582
 11
6.2430731789
 21
3.0787365582
  0
LINE
  5
2FA
100
AcDbEntity
  8
0
100
AcDbLine
 62
7
  6
CONTINUOUS
 10
6.2434779063
 20
3.0787365582
 11
6.2843243932
 21
3.0787365582
  0
LINE
  5
2FB
100
AcDbEntity
  8
0
100
AcDbLine
 62
7
  6
CONTINUOUS
 10
6.2472232218
 20
3.0848521243
 11
6.2453572348
 21
3.0848519252
  0
LINE
  5
2FC
100
AcDbEntity
  8
0
100
AcDbLine
 62
7
  6
CONTINUOUS
 10
6.2453572348
 20
3.0848519252
 11
6.2398822966
 21
3.0848516763
  0
LINE
  5
2FD
100
AcDbEntity
  8
0
100
AcDbLine
 62
7
  6
CONTINUOUS
 10
4.0313733069
 20
3.0848516597
 11
3.9237349788
 21
3.0848516763
  0
LINE
  5
2FE
100
AcDbEntity
  8
0
100
AcDbLine
 62
7
  6
CONTINUOUS
 10
6.2904399592
 20
3.0848521243
 11
6.2472227891
 21
3.0848516763
  0
LINE
  5
2FF
100
AcDbEntity
  8
0
100
AcDbLine
 62
7
  6
CONTINUOUS
 10
6.2398822966
 20
3.0848516763
 11
6.1338218667
 21
3.0848516763
  0
LINE
  5
300
100
AcDbEntity
  8
0
100
AcDbLine
 62
7
  6
CONTINUOUS
 10
5.9358542168
 20
3.0848516763
 11
5.8204877866
 21
3.0848516763
  0
LINE
  5
301
100
AcDbEntity
  8
0
100
AcDbLine
 62
7
  6
CONTINUOUS
 10
5.6851245506
 20
3.0848516763
 11
5.5697581204
 21
3.0848516763
  0
LINE
  5
302
100
AcDbEntity
  8
0
100
AcDbLine
 62
7
  6
CONTINUOUS
 10
5.3931436701
 20
3.0848516763
 11
5.2777772399
 21
3.0848516763
  0
LINE
  5
303
100
AcDbEntity
  8
0
100
AcDbLine
 62
7
  6
CONTINUOUS
 10
5.0798095899
 20
3.0848516763
 11
4.9644431597
 21
3.0848516763
  0
LINE
  5
304
100
AcDbEntity
  8
0
100
AcDbLine
 62
7
  6
CONTINUOUS
 10
6.0128791646
 20
3.0848519378
 11
6.1282461179
 21
3.0848519378
  0
LINE
  5
305
100
AcDbEntity
  8
0
100
AcDbLine
 62
7
  6
CONTINUOUS
 10
3.9104309265
 20
3.0848517198
 11
3.7538132385
 21
3.0848516763
  0
LINE
  5
306
100
AcDbEntity
  8
0
100
AcDbLine
 62
7
  6
CONTINUOUS
 10
4.7664755097
 20
3.0848516763
 11
4.6511090795
 21
3.0848516763
  0
LINE
  5
307
100
AcDbEntity
  8
0
100
AcDbLine
 62
7
  6
CONTINUOUS
 10
4.4744946294
 20
3.0848516764
 11
4.359128199
 21
3.0848516764
  0
LINE
  5
308
100
AcDbEntity
  8
0
100
AcDbLine
 62
7
  6
CONTINUOUS
 10
4.2237649631
 20
3.0848516763
 11
4.1083985329
 21
3.0848516763
  0
LINE
  5
309
100
AcDbEntity
  8
0
100
AcDbLine
 62
7
  6
CONTINUOUS
 10
3.9237345908
 20
3.0848521243
 11
3.9160069099
 21
3.0848516597
  0
LINE
  5
30A
100
AcDbEntity
  8
0
100
AcDbLine
 62
7
  6
CONTINUOUS
 10
5.9401788757
 20
3.0952916929
 11
5.8161631276
 21
3.0952916929
  0
LINE
  5
30B
100
AcDbEntity
  8
0
100
AcDbLine
 62
7
  6
CONTINUOUS
 10
5.6894492095
 20
3.0952916929
 11
5.5654334614
 21
3.0952916929
  0
LINE
  5
30C
100
AcDbEntity
  8
0
100
AcDbLine
 62
7
  6
CONTINUOUS
 10
5.397468329
 20
3.0952916929
 11
5.273452581
 21
3.0952916929
  0
LINE
  5
30D
100
AcDbEntity
  8
0
100
AcDbLine
 62
7
  6
CONTINUOUS
 10
5.0841342488
 20
3.0952916929
 11
4.9601185008
 21
3.0952916929
  0
LINE
  5
30E
100
AcDbEntity
  8
0
100
AcDbLine
 62
7
  6
CONTINUOUS
 10
4.7708001686
 20
3.0952916929
 11
4.6467844206
 21
3.0952916929
  0
LINE
  5
30F
100
AcDbEntity
  8
0
100
AcDbLine
 62
7
  6
CONTINUOUS
 10
4.4788192882
 20
3.0952916929
 11
4.3548035402
 21
3.0952916929
  0
LINE
  5
310
100
AcDbEntity
  8
0
100
AcDbLine
 62
7
  6
CONTINUOUS
 10
4.228089622
 20
3.0952916929
 11
4.104073874
 21
3.0952916929
  0
LINE
  5
311
100
AcDbEntity
  8
0
100
AcDbLine
 62
7
  6
CONTINUOUS
 10
4.0356979824
 20
3.0952916929
 11
3.7494885795
 21
3.0952916929
  0
LINE
  5
312
100
AcDbEntity
  8
0
100
AcDbLine
 62
7
  6
CONTINUOUS
 10
6.0085547672
 20
3.0952916929
 11
6.2947641701
 21
3.0952916929
  0
LINE
  5
313
100
AcDbEntity
  8
0
100
AcDbLine
 62
7
  6
CONTINUOUS
 10
3.6982540695
 20
3.1214815553
 11
6.3466437413
 21
3.1214815553
  0
LINE
  5
314
100
AcDbEntity
  8
0
100
AcDbLine
 62
7
  6
CONTINUOUS
 10
3.6958545469
 20
3.1216642773
 11
6.3483982027
 21
3.1216642773
  0
LINE
  5
315
100
AcDbEntity
  8
0
100
AcDbLine
 62
7
  6
CONTINUOUS
 10
6.4298763748
 20
3.1369376353
 11
3.6143763748
 21
3.1369376353
  0
LINE
  5
316
100
AcDbEntity
  8
0
100
AcDbLine
 62
7
  6
CONTINUOUS
 10
3.5033763748
 20
3.1427548988
 11
6.5408763748
 21
3.1427548988
  0
LINE
  5
317
100
AcDbEntity
  8
0
100
AcDbLine
 62
7
  6
CONTINUOUS
 10
3.7461379272
 20
3.1179743392
 11
3.7461717212
 21
3.117974337
  0
LINE
  5
318
100
AcDbEntity
  8
0
100
AcDbLine
 62
7
  6
CONTINUOUS
 10
5.949217289
 20
3.0475761485
 11
6.1055606484
 21
3.0475762713
  0
LINE
  5
319
100
AcDbEntity
  8
0
100
AcDbLine
 62
7
  6
CONTINUOUS
 10
3.5033763748
 20
3.1427548988
 11
3.6143763748
 21
3.1369376353
  0
LWPOLYLINE
  5
31A
100
AcDbEntity
  8
0
100
AcDbPolyline
 62
7
  6
CONTINUOUS
 90
14
 70
0
 10
5.5483359853
 20
2.9875568772
 10
5.548318865
 20
2.9875600102
 10
5.5483587996
 20
2.9875515785
 10
5.5485773723
 20
2.9874929322
 10
5.548947042
 20
2.9873671853
 10
5.5494850655
 20
2.9871359641
 10
5.5501651194
 20
2.9867638468
 10
5.5509040398
 20
2.9862494083
 10
5.5516528556
 20
2.9855851079
 10
5.552460714
 20
2.984646175
 10
5.5532374293
 20
2.9833782041
 10
5.5538002752
 20
2.9819328642
 10
5.5540937
 20
2.9804217375
 10
5.5541380199
 20
2.9795462018
  0
LWPOLYLINE
  5
31B
100
AcDbEntity
  8
0
100
AcDbPolyline
 62
7
  6
CONTINUOUS
 90
12
 70
0
 10
4.8203396047
 20
2.9934726756
 10
4.8196691132
 20
2.9937165822
 10
4.819220015
 20
2.9939059128
 10
4.8191167783
 20
2.9939535025
 10
4.8192593395
 20
2.993856332
 10
4.8195884772
 20
2.9935967601
 10
4.8200909697
 20
2.993106187
 10
4.8207122095
 20
2.992310806
 10
4.8213035354
 20
2.9912441719
 10
4.8217690656
 20
2.9898819862
 10
4.8219840096
 20
2.988275371
 10
4.8219873482
 20
2.9880361903
  0
LWPOLYLINE
  5
31C
100
AcDbEntity
  8
0
100
AcDbPolyline
 62
7
  6
CONTINUOUS
 90
12
 70
0
 10
4.984357405
 20
2.9918788326
 10
4.9839436856
 20
2.9920387596
 10
4.9837389931
 20
2.9921310517
 10
4.9838448766
 20
2.9920673263
 10
4.9841443354
 20
2.9918542955
 10
4.984553956
 20
2.9914988953
 10
4.9850807893
 20
2.9909283901
 10
4.9856773294
 20
2.9900776243
 10
4.9862079114
 20
2.9890004887
 10
4.9865876016
 20
2.9877354484
 10
4.9867524657
 20
2.9862946978
 10
4.9867541375
 20
2.9861410509
  0
LINE
  5
31D
100
AcDbEntity
  8
0
100
AcDbLine
 62
7
  6
CONTINUOUS
 10
4.2955640672
 20
2.9680938698
 11
4.3051387885
 21
2.9585191485
  0
LINE
  5
31E
100
AcDbEntity
  8
0
100
AcDbLine
 62
7
  6
CONTINUOUS
 10
4.3313915751
 20
2.9680938698
 11
4.3409662964
 21
2.9585191485
  0
LINE
  5
31F
100
AcDbEntity
  8
0
100
AcDbLine
 62
7
  6
CONTINUOUS
 10
4.4052512321
 20
2.9680938698
 11
4.4148259538
 21
2.9585191482
  0
LINE
  5
320
100
AcDbEntity
  8
0
100
AcDbLine
 62
7
  6
CONTINUOUS
 10
4.3342814509
 20
3.0536915285
 11
4.3403968309
 21
3.0475761485
  0
LINE
  5
321
100
AcDbEntity
  8
0
100
AcDbLine
 62
7
  6
CONTINUOUS
 10
4.359128199
 20
3.0848516764
 11
4.3652433171
 21
3.0787365582
  0
LINE
  5
322
100
AcDbEntity
  8
0
100
AcDbLine
 62
7
  6
CONTINUOUS
 10
3.5933763748
 20
3.681138951
 11
3.5933763748
 21
3.5438523304
  0
LINE
  5
323
100
AcDbEntity
  8
0
100
AcDbLine
 62
7
  6
CONTINUOUS
 10
3.7494885795
 20
3.1214815553
 11
3.7494885795
 21
3.0952916929
  0
LINE
  5
324
100
AcDbEntity
  8
0
100
AcDbLine
 62
7
  6
CONTINUOUS
 10
6.6345792309
 20
3.2250461629
 11
3.4096735188
 21
3.2250461629
  0
LINE
  5
325
100
AcDbEntity
  8
0
100
AcDbLine
 62
7
  6
CONTINUOUS
 10
3.4463144196
 20
3.2779542271
 11
6.59793833
 21
3.2779542271
  0
LINE
  5
326
100
AcDbEntity
  8
0
100
AcDbLine
 62
7
  6
CONTINUOUS
 10
3.5204497906
 20
3.3343119818
 11
6.523802959
 21
3.3343119818
  0
LINE
  5
327
100
AcDbEntity
  8
0
100
AcDbLine
 62
7
  6
CONTINUOUS
 10
5.7537128678
 20
2.9942224436
 11
5.753763454
 21
2.9942129577
  0
LWPOLYLINE
  5
328
100
AcDbEntity
  8
0
100
AcDbPolyline
 62
7
  6
CONTINUOUS
 90
11
 70
0
 10
5.1473111933
 20
2.9904388962
 10
5.1471454013
 20
2.9905057903
 10
5.1471632389
 20
2.9904960064
 10
5.1474335502
 20
2.9903337456
 10
5.1478497712
 20
2.9900256483
 10
5.1483466494
 20
2.9895699568
 10
5.1489428702
 20
2.9888739514
 10
5.149567541
 20
2.9878861831
 10
5.1500741051
 20
2.9866915145
 10
5.1503925838
 20
2.9853169195
 10
5.150467794
 20
2.9842253615
  0
LINE
  5
329
100
AcDbEntity
  8
0
100
AcDbLine
 62
7
  6
CONTINUOUS
 10
4.5776728305
 20
2.8874918848
 11
4.5837880188
 21
2.8813766965
  0
LINE
  5
32A
100
AcDbEntity
  8
0
100
AcDbLine
 62
7
  6
CONTINUOUS
 10
4.6469853669
 20
2.8874918836
 11
4.6531007489
 21
2.8813765016
  0
LINE
  5
32B
100
AcDbEntity
  8
0
100
AcDbLine
 62
7
  6
CONTINUOUS
 10
4.5715965921
 20
3.0536915285
 11
4.5777119721
 21
3.0475761485
  0
LINE
  5
32C
100
AcDbEntity
  8
0
100
AcDbLine
 62
7
  6
CONTINUOUS
 10
3.7845268846
 20
3.0583680979
 11
3.7844619522
 21
3.0744125557
  0
LINE
  5
32D
100
AcDbEntity
  8
0
100
AcDbLine
 62
7
  6
CONTINUOUS
 10
3.7907397938
 20
3.1214815553
 11
3.7907397938
 21
3.0952916929
  0
LINE
  5
32E
100
AcDbEntity
  8
0
100
AcDbLine
 62
7
  6
CONTINUOUS
 10
3.8071263748
 20
3.8480681979
 11
3.8071263748
 21
3.8225768735
  0
LINE
  5
32F
100
AcDbEntity
  8
0
100
AcDbLine
 62
7
  6
CONTINUOUS
 10
3.9116822344
 20
3.1214815553
 11
3.9116822344
 21
3.0952916929
  0
LINE
  5
330
100
AcDbEntity
  8
0
100
AcDbLine
 62
7
  6
CONTINUOUS
 10
3.9282524135
 20
3.0750812179
 11
3.9282524135
 21
3.0641313167
  0
LINE
  5
331
100
AcDbEntity
  8
0
100
AcDbLine
 62
7
  6
CONTINUOUS
 10
4.6511090795
 20
3.0848516763
 11
4.6572241975
 21
3.0787365582
  0
LINE
  5
332
100
AcDbEntity
  8
0
100
AcDbLine
 62
7
  6
CONTINUOUS
 10
4.8789096286
 20
2.8874918848
 11
4.8850250119
 21
2.8813765016
  0
LINE
  5
333
100
AcDbEntity
  8
0
100
AcDbLine
 62
7
  6
CONTINUOUS
 10
4.8245798578
 20
2.9680938698
 11
4.8341545791
 21
2.9585191485
  0
LINE
  5
334
100
AcDbEntity
  8
0
100
AcDbLine
 62
7
  6
CONTINUOUS
 10
4.8362872383
 20
3.0536915285
 11
4.8424026183
 21
3.0475761485
  0
LINE
  5
335
100
AcDbEntity
  8
0
100
AcDbLine
 62
7
  6
CONTINUOUS
 10
3.9991760585
 20
3.0744125557
 11
3.9991760585
 21
3.0641313167
  0
LINE
  5
336
100
AcDbEntity
  8
0
100
AcDbLine
 62
7
  6
CONTINUOUS
 10
4.0356979824
 20
3.1117685036
 11
4.0356979824
 21
3.0952916929
  0
LINE
  5
337
100
AcDbEntity
  8
0
100
AcDbLine
 62
7
  6
CONTINUOUS
 10
4.104073874
 20
3.1214815553
 11
4.104073874
 21
3.0952916929
  0
LINE
  5
338
100
AcDbEntity
  8
0
100
AcDbLine
 62
7
  6
CONTINUOUS
 10
4.1054752711
 20
3.0794902903
 11
4.1054752711
 21
3.0641313167
  0
LINE
  5
339
100
AcDbEntity
  8
0
100
AcDbLine
 62
7
  6
CONTINUOUS
 10
3.5933763748
 20
3.5438523304
 11
6.4508763748
 21
3.5438523304
  0
LINE
  5
33A
100
AcDbEntity
  8
0
100
AcDbLine
 62
7
  6
CONTINUOUS
 10
6.4508763748
 20
3.681138951
 11
3.5933763748
 21
3.681138951
  0
LINE
  5
33B
100
AcDbEntity
  8
0
100
AcDbLine
 62
7
  6
CONTINUOUS
 10
4.9893489798
 20
2.9680938698
 11
4.9989237011
 21
2.9585191485
  0
LINE
  5
33C
100
AcDbEntity
  8
0
100
AcDbLine
 62
7
  6
CONTINUOUS
 10
5.1375875328
 20
2.8874918836
 11
5.1437029148
 21
2.8813765016
  0
LINE
  5
33D
100
AcDbEntity
  8
0
100
AcDbLine
 62
7
  6
CONTINUOUS
 10
4.9644431597
 20
3.0848516763
 11
4.9705582777
 21
3.0787365582
  0
LINE
  5
33E
100
AcDbEntity
  8
0
100
AcDbLine
 62
7
  6
CONTINUOUS
 10
5.1530619573
 20
2.9680938698
 11
5.1626366786
 21
2.9585191485
  0
LINE
  5
33F
100
AcDbEntity
  8
0
100
AcDbLine
 62
7
  6
CONTINUOUS
 10
5.1103151596
 20
3.0536915285
 11
5.1164305396
 21
3.0475761485
  0
LINE
  5
340
100
AcDbEntity
  8
0
100
AcDbLine
 62
7
  6
CONTINUOUS
 10
4.5043604998
 20
2.9600046527
 11
4.5256432475
 21
2.9015307842
  0
LINE
  5
341
100
AcDbEntity
  8
0
100
AcDbLine
 62
7
  6
CONTINUOUS
 10
4.1361900191
 20
3.0744125557
 11
4.1361900191
 21
3.0641313167
  0
LINE
  5
342
100
AcDbEntity
  8
0
100
AcDbLine
 62
7
  6
CONTINUOUS
 10
4.1510633827
 20
3.0279467704
 11
4.1510633827
 21
3.0228683559
  0
LINE
  5
343
100
AcDbEntity
  8
0
100
AcDbLine
 62
7
  6
CONTINUOUS
 10
4.228089622
 20
3.1140557322
 11
4.228089622
 21
3.0952916929
  0
LINE
  5
344
100
AcDbEntity
  8
0
100
AcDbLine
 62
7
  6
CONTINUOUS
 10
4.2424892317
 20
3.0808777621
 11
4.2424892317
 21
3.0641313167
  0
LINE
  5
345
100
AcDbEntity
  8
0
100
AcDbLine
 62
7
  6
CONTINUOUS
 10
6.417505311
 20
3.732525883
 11
3.6267474386
 21
3.732525883
  0
LINE
  5
346
100
AcDbEntity
  8
0
100
AcDbLine
 62
7
  6
CONTINUOUS
 10
3.7982274245
 20
3.8088736916
 11
6.2460253252
 21
3.8088736916
  0
LINE
  5
347
100
AcDbEntity
  8
0
100
AcDbLine
 62
7
  6
CONTINUOUS
 10
3.8071263748
 20
3.8225768735
 11
6.2371263748
 21
3.8225768735
  0
LINE
  5
348
100
AcDbEntity
  8
0
100
AcDbLine
 62
7
  6
CONTINUOUS
 10
6.2371263748
 20
3.8480681979
 11
3.8071263748
 21
3.8480681979
  0
LINE
  5
349
100
AcDbEntity
  8
0
100
AcDbLine
 62
7
  6
CONTINUOUS
 10
5.2777772399
 20
3.0848516763
 11
5.2838923579
 21
3.0787365582
  0
LINE
  5
34A
100
AcDbEntity
  8
0
100
AcDbLine
 62
7
  6
CONTINUOUS
 10
5.3750058059
 20
3.0536915285
 11
5.3811211859
 21
3.0475761485
  0
LINE
  5
34B
100
AcDbEntity
  8
0
100
AcDbLine
 62
7
  6
CONTINUOUS
 10
4.2929695078
 20
2.9941827456
 11
4.2929695078
 21
2.9743576437
  0
LINE
  5
34C
100
AcDbEntity
  8
0
100
AcDbLine
 62
7
  6
CONTINUOUS
 10
4.3287970157
 20
2.9937702914
 11
4.3287970157
 21
2.9743576437
  0
LINE
  5
34D
100
AcDbEntity
  8
0
100
AcDbLine
 62
7
  6
CONTINUOUS
 10
4.3299570205
 20
3.0958052174
 11
4.3299570205
 21
3.0641313167
  0
LINE
  5
34E
100
AcDbEntity
  8
0
100
AcDbLine
 62
7
  6
CONTINUOUS
 10
4.3548035402
 20
3.1214815553
 11
4.3548035402
 21
3.0952916929
  0
LINE
  5
34F
100
AcDbEntity
  8
0
100
AcDbLine
 62
7
  6
CONTINUOUS
 10
4.4026566728
 20
2.9929085887
 11
4.4026566728
 21
2.9743576437
  0
LINE
  5
350
100
AcDbEntity
  8
0
100
AcDbLine
 62
7
  6
CONTINUOUS
 10
4.4362562331
 20
3.0744125557
 11
4.4362562331
 21
3.0641313167
  0
LINE
  5
351
100
AcDbEntity
  8
0
100
AcDbLine
 62
7
  6
CONTINUOUS
 10
6.2253621696
 20
3.862715028
 11
3.8188905801
 21
3.862715028
  0
LINE
  5
352
100
AcDbEntity
  8
0
100
AcDbLine
 62
7
  6
CONTINUOUS
 10
5.556732864
 20
2.9680938698
 11
5.5663075869
 21
2.9585191468
  0
LINE
  5
353
100
AcDbEntity
  8
0
100
AcDbLine
 62
7
  6
CONTINUOUS
 10
5.5697581204
 20
3.0848516763
 11
5.5758732384
 21
3.0787365582
  0
LINE
  5
354
100
AcDbEntity
  8
0
100
AcDbLine
 62
7
  6
CONTINUOUS
 10
5.612320947
 20
3.0536915285
 11
5.618436327
 21
3.0475761485
  0
LINE
  5
355
100
AcDbEntity
  8
0
100
AcDbLine
 62
7
  6
CONTINUOUS
 10
4.4788192882
 20
3.1170380132
 11
4.4788192882
 21
3.0952916929
  0
LINE
  5
356
100
AcDbEntity
  8
0
100
AcDbLine
 62
7
  6
CONTINUOUS
 10
4.5089558801
 20
2.9797714579
 11
4.5089558854
 21
2.9743576437
  0
LINE
  5
357
100
AcDbEntity
  8
0
100
AcDbLine
 62
7
  6
CONTINUOUS
 10
4.5672721616
 20
3.0933954249
 11
4.5672721616
 21
3.0641313167
  0
LWPOLYLINE
  5
358
100
AcDbEntity
  8
0
100
AcDbPolyline
 62
7
  6
CONTINUOUS
 90
14
 70
0
 10
4.5089547867
 20
2.9797667635
 10
4.5089644651
 20
2.9801776254
 10
4.5091542493
 20
2.9816021707
 10
4.5095843284
 20
2.9829877588
 10
4.5102202185
 20
2.9842418744
 10
4.5109399365
 20
2.9852384955
 10
4.5116563329
 20
2.9859901478
 10
4.512375908
 20
2.9865821068
 10
4.5130606019
 20
2.9870278368
 10
4.5136253901
 20
2.9873212776
 10
4.514052973
 20
2.9875006162
 10
4.5143577175
 20
2.9876040973
 10
4.5145139541
 20
2.9876467563
 10
4.5145281156
 20
2.9876497933
  0
LINE
  5
359
100
AcDbEntity
  8
0
100
AcDbLine
 62
7
  6
CONTINUOUS
 10
5.8060879484
 20
3.0536915285
 11
5.81220333
 21
3.0475761469
  0
LINE
  5
35A
100
AcDbEntity
  8
0
100
AcDbLine
 62
7
  6
CONTINUOUS
 10
5.8204877866
 20
3.0848516763
 11
5.8266029046
 21
3.0787365582
  0
LINE
  5
35B
100
AcDbEntity
  8
0
100
AcDbLine
 62
7
  6
CONTINUOUS
 10
4.6467844206
 20
3.1214815553
 11
4.6467844206
 21
3.0952916929
  0
LINE
  5
35C
100
AcDbEntity
  8
0
100
AcDbLine
 62
7
  6
CONTINUOUS
 10
4.6591263748
 20
4.4151681281
 11
4.6591263748
 21
4.4001681281
  0
LINE
  5
35D
100
AcDbEntity
  8
0
100
AcDbLine
 62
7
  6
CONTINUOUS
 10
4.6735713742
 20
3.0744125557
 11
4.6735713742
 21
3.0641313167
  0
LINE
  5
35E
100
AcDbEntity
  8
0
100
AcDbLine
 62
7
  6
CONTINUOUS
 10
4.7408763748
 20
5.4310101493
 11
4.7408763748
 21
4.6208011134
  0
LINE
  5
35F
100
AcDbEntity
  8
0
100
AcDbLine
 62
7
  6
CONTINUOUS
 10
4.7708001686
 20
3.1205131057
 11
4.7708001686
 21
3.0952916929
  0
LINE
  5
360
100
AcDbEntity
  8
0
100
AcDbLine
 62
7
  6
CONTINUOUS
 10
4.7258763748
 20
4.5872601493
 11
4.6934547364
 21
4.4874766065
  0
LINE
  5
361
100
AcDbEntity
  8
0
100
AcDbLine
 62
7
  6
CONTINUOUS
 10
4.6171263748
 20
4.3551681281
 11
5.4271263748
 21
4.3551681281
  0
LINE
  5
362
100
AcDbEntity
  8
0
100
AcDbLine
 62
7
  6
CONTINUOUS
 10
5.943101909
 20
3.0536915285
 11
5.949217289
 21
3.0475761485
  0
LINE
  5
363
100
AcDbEntity
  8
0
100
AcDbLine
 62
7
  6
CONTINUOUS
 10
6.0128791646
 20
3.0848519378
 11
6.0189945248
 21
3.0787365776
  0
LINE
  5
364
100
AcDbEntity
  8
0
100
AcDbLine
 62
7
  6
CONTINUOUS
 10
4.8219852984
 20
2.9880439643
 11
4.8219852984
 21
2.9743576437
  0
LINE
  5
365
100
AcDbEntity
  8
0
100
AcDbLine
 62
7
  6
CONTINUOUS
 10
4.8319628079
 20
3.0907089588
 11
4.8319628079
 21
3.0641313167
  0
LINE
  5
366
100
AcDbEntity
  8
0
100
AcDbLine
 62
7
  6
CONTINUOUS
 10
4.928284511
 20
2.9846248137
 11
4.928284511
 21
2.9743576437
  0
LINE
  5
367
100
AcDbEntity
  8
0
100
AcDbLine
 62
7
  6
CONTINUOUS
 10
4.9382620205
 20
3.0879291756
 11
4.9382620205
 21
3.0641313167
  0
LINE
  5
368
100
AcDbEntity
  8
0
100
AcDbLine
 62
7
  6
CONTINUOUS
 10
4.9601185008
 20
3.1214815553
 11
4.9601185008
 21
3.0952916929
  0
LINE
  5
369
100
AcDbEntity
  8
0
100
AcDbLine
 62
7
  6
CONTINUOUS
 10
3.7982274245
 20
3.8088736916
 11
3.6267474386
 21
3.732525883
  0
LINE
  5
36A
100
AcDbEntity
  8
0
100
AcDbLine
 62
7
  6
CONTINUOUS
 10
5.3851263748
 20
4.4001681281
 11
4.6591263748
 21
4.4001681281
  0
LINE
  5
36B
100
AcDbEntity
  8
0
100
AcDbLine
 62
7
  6
CONTINUOUS
 10
4.6591263748
 20
4.4151681281
 11
5.3851263748
 21
4.4151681281
  0
LINE
  5
36C
100
AcDbEntity
  8
0
100
AcDbLine
 62
7
  6
CONTINUOUS
 10
4.6819581363
 20
4.4690520301
 11
5.3622946133
 21
4.4690520301
  0
LINE
  5
36D
100
AcDbEntity
  8
0
100
AcDbLine
 62
7
  6
CONTINUOUS
 10
4.6934547364
 20
4.4874766065
 11
5.3507980132
 21
4.4874766065
  0
LINE
  5
36E
100
AcDbEntity
  8
0
100
AcDbLine
 62
7
  6
CONTINUOUS
 10
6.2460253252
 20
3.8088736916
 11
6.417505311
 21
3.732525883
  0
LINE
  5
36F
100
AcDbEntity
  8
0
100
AcDbLine
 62
7
  6
CONTINUOUS
 10
6.1338218667
 20
3.0848516763
 11
6.1399369848
 21
3.0787365582
  0
LINE
  5
370
100
AcDbEntity
  8
0
100
AcDbLine
 62
7
  6
CONTINUOUS
 10
4.9867544204
 20
2.986128023
 11
4.9867544204
 21
2.9743576437
  0
LINE
  5
371
100
AcDbEntity
  8
0
100
AcDbLine
 62
7
  6
CONTINUOUS
 10
5.0841342488
 20
3.1214815553
 11
5.0841342488
 21
3.0952916929
  0
LINE
  5
372
100
AcDbEntity
  8
0
100
AcDbLine
 62
7
  6
CONTINUOUS
 10
5.093053633
 20
2.9865393153
 11
5.093053633
 21
2.9743576437
  0
LINE
  5
373
100
AcDbEntity
  8
0
100
AcDbLine
 62
7
  6
CONTINUOUS
 10
5.1059907292
 20
3.0879291756
 11
5.1059907292
 21
3.0641313167
  0
LINE
  5
374
100
AcDbEntity
  8
0
100
AcDbLine
 62
7
  6
CONTINUOUS
 10
5.1504673979
 20
2.98422498
 11
5.1504673979
 21
2.9743576437
  0
LINE
  5
375
100
AcDbEntity
  8
0
100
AcDbLine
 62
7
  6
CONTINUOUS
 10
4.9867544204
 20
2.986128023
 11
4.9867544985
 21
2.9861415153
  0
LWPOLYLINE
  5
376
100
AcDbEntity
  8
0
100
AcDbPolyline
 62
7
  6
CONTINUOUS
 90
9
 70
0
 10
5.0930522485
 20
2.9865375999
 10
5.0930564043
 20
2.9868023786
 10
5.0932837284
 20
2.9884322375
 10
5.0937690864
 20
2.9898095559
 10
5.0943826237
 20
2.9908832504
 10
5.0950216067
 20
2.9916752295
 10
5.0955344325
 20
2.9921579982
 10
5.0958621272
 20
2.9924057963
 10
5.0959931423
 20
2.9924918028
  0
LWPOLYLINE
  5
377
100
AcDbEntity
  8
0
100
AcDbPolyline
 62
7
  6
CONTINUOUS
 90
8
 70
0
 10
4.9282848528
 20
2.9846258015
 10
4.9284419447
 20
2.9861965096
 10
4.9288655861
 20
2.9875990756
 10
4.9294534515
 20
2.9887478045
 10
4.9301150853
 20
2.989643577
 10
4.9306887388
 20
2.9902264211
 10
4.9311203
 20
2.9905750344
 10
4.9314169123
 20
2.9907715105
  0
LINE
  5
378
100
AcDbEntity
  8
0
100
AcDbLine
 62
7
  6
CONTINUOUS
 10
3.9104309265
 20
3.0848517198
 11
3.9043157649
 21
3.0787365582
  0
LINE
  5
379
100
AcDbEntity
  8
0
100
AcDbLine
 62
7
  6
CONTINUOUS
 10
4.0313733069
 20
3.0848516597
 11
4.0252582055
 21
3.0787365582
  0
LINE
  5
37A
100
AcDbEntity
  8
0
100
AcDbLine
 62
7
  6
CONTINUOUS
 10
5.3183763748
 20
4.5872601493
 11
4.7258763748
 21
4.5872601493
  0
LINE
  5
37B
100
AcDbEntity
  8
0
100
AcDbLine
 62
7
  6
CONTINUOUS
 10
4.7408763748
 20
4.6208011689
 11
5.3033763748
 21
4.6208011134
  0
LINE
  5
37C
100
AcDbEntity
  8
0
100
AcDbLine
 62
7
  6
CONTINUOUS
 10
5.2122899418
 20
3.0907089588
 11
5.2122899418
 21
3.0641313167
  0
LINE
  5
37D
100
AcDbEntity
  8
0
100
AcDbLine
 62
7
  6
CONTINUOUS
 10
5.2567666105
 20
2.9884356423
 11
5.2567666105
 21
2.9743576437
  0
LINE
  5
37E
100
AcDbEntity
  8
0
100
AcDbLine
 62
7
  6
CONTINUOUS
 10
5.273452581
 20
3.1205131057
 11
5.273452581
 21
3.0952916929
  0
LINE
  5
37F
100
AcDbEntity
  8
0
100
AcDbLine
 62
7
  6
CONTINUOUS
 10
5.3033763748
 20
5.4310101493
 11
5.3033763748
 21
4.6208011134
  0
LINE
  5
380
100
AcDbEntity
  8
0
100
AcDbLine
 62
7
  6
CONTINUOUS
 10
4.1011508406
 20
3.0536915285
 11
4.0950354606
 21
3.0475761485
  0
LINE
  5
381
100
AcDbEntity
  8
0
100
AcDbLine
 62
7
  6
CONTINUOUS
 10
4.2237649631
 20
3.0848516763
 11
4.2176498451
 21
3.0787365582
  0
LINE
  5
382
100
AcDbEntity
  8
0
100
AcDbLine
 62
7
  6
CONTINUOUS
 10
4.2381648013
 20
3.0536915285
 11
4.2320494212
 21
3.0475761485
  0
LINE
  5
383
100
AcDbEntity
  8
0
100
AcDbLine
 62
7
  6
CONTINUOUS
 10
5.3706813754
 20
3.0744125557
 11
5.3706813754
 21
3.0641313167
  0
LINE
  5
384
100
AcDbEntity
  8
0
100
AcDbLine
 62
7
  6
CONTINUOUS
 10
5.3851263748
 20
4.4151681281
 11
5.3851263748
 21
4.4001681281
  0
LINE
  5
385
100
AcDbEntity
  8
0
100
AcDbLine
 62
7
  6
CONTINUOUS
 10
5.397468329
 20
3.1214815553
 11
5.397468329
 21
3.0952916929
  0
LINE
  5
386
100
AcDbEntity
  8
0
100
AcDbLine
 62
7
  6
CONTINUOUS
 10
5.476980588
 20
3.0933954249
 11
5.476980588
 21
3.0641313167
  0
LWPOLYLINE
  5
387
100
AcDbEntity
  8
0
100
AcDbPolyline
 62
7
  6
CONTINUOUS
 90
8
 70
0
 10
5.2567667269
 20
2.9884363688
 10
5.2569471285
 20
2.9901193115
 10
5.2573780166
 20
2.9914832657
 10
5.2579408065
 20
2.9925633163
 10
5.2585472622
 20
2.9933856872
 10
5.2590558786
 20
2.9939117995
 10
5.2594150043
 20
2.9942117832
 10
5.2596245263
 20
2.9943584357
  0
LINE
  5
388
100
AcDbEntity
  8
0
100
AcDbLine
 62
7
  6
CONTINUOUS
 10
4.4319318026
 20
3.0536915285
 11
4.4258164226
 21
3.0475761485
  0
LINE
  5
389
100
AcDbEntity
  8
0
100
AcDbLine
 62
7
  6
CONTINUOUS
 10
4.4744946294
 20
3.0848516764
 11
4.4683795113
 21
3.0787365582
  0
LINE
  5
38A
100
AcDbEntity
  8
0
100
AcDbLine
 62
7
  6
CONTINUOUS
 10
5.3033763748
 20
4.9622601493
 11
4.7408763748
 21
4.9622601493
  0
LINE
  5
38B
100
AcDbEntity
  8
0
100
AcDbLine
 62
7
  6
CONTINUOUS
 10
5.3183763748
 20
4.5872601493
 11
5.3507980132
 21
4.4874766065
  0
LINE
  5
38C
100
AcDbEntity
  8
0
100
AcDbLine
 62
7
  6
CONTINUOUS
 10
5.5541383046
 20
2.9795541697
 11
5.5541383046
 21
2.9743576437
  0
LINE
  5
38D
100
AcDbEntity
  8
0
100
AcDbLine
 62
7
  6
CONTINUOUS
 10
5.5654334614
 20
3.1170380132
 11
5.5654334614
 21
3.0952916929
  0
LINE
  5
38E
100
AcDbEntity
  8
0
100
AcDbLine
 62
7
  6
CONTINUOUS
 10
5.6079965166
 20
3.0744125557
 11
5.6079965166
 21
3.0641313167
  0
LINE
  5
38F
100
AcDbEntity
  8
0
100
AcDbLine
 62
7
  6
CONTINUOUS
 10
5.6604375172
 20
2.9931274015
 11
5.6604375172
 21
2.9743576437
  0
LINE
  5
390
100
AcDbEntity
  8
0
100
AcDbLine
 62
7
  6
CONTINUOUS
 10
4.5063613261
 20
2.9680938698
 11
4.4967866045
 21
2.9585191482
  0
LINE
  5
391
100
AcDbEntity
  8
0
100
AcDbLine
 62
7
  6
CONTINUOUS
 10
4.6692469438
 20
3.0536915285
 11
4.6631315638
 21
3.0475761485
  0
LINE
  5
392
100
AcDbEntity
  8
0
100
AcDbLine
 62
7
  6
CONTINUOUS
 10
4.7664755097
 20
3.0848516763
 11
4.7603603917
 21
3.0787365582
  0
LINE
  5
393
100
AcDbEntity
  8
0
100
AcDbLine
 62
7
  6
CONTINUOUS
 10
5.6894492095
 20
3.1214815553
 11
5.6894492095
 21
3.0952916929
  0
LINE
  5
394
100
AcDbEntity
  8
0
100
AcDbLine
 62
7
  6
CONTINUOUS
 10
5.7142957292
 20
3.0958052174
 11
5.7142957292
 21
3.0641313167
  0
LINE
  5
395
100
AcDbEntity
  8
0
100
AcDbLine
 62
7
  6
CONTINUOUS
 10
5.726442927
 20
2.9938964407
 11
5.726442927
 21
2.9743576437
  0
LINE
  5
396
100
AcDbEntity
  8
0
100
AcDbLine
 62
7
  6
CONTINUOUS
 10
5.7537634544
 20
2.9942129093
 11
5.7537634544
 21
2.9743576437
  0
LINE
  5
397
100
AcDbEntity
  8
0
100
AcDbLine
 62
7
  6
CONTINUOUS
 10
5.801763518
 20
3.0808777621
 11
5.801763518
 21
3.0641313167
  0
LINE
  5
398
100
AcDbEntity
  8
0
100
AcDbLine
 62
7
  6
CONTINUOUS
 10
5.8161631276
 20
3.1140557322
 11
5.8161631276
 21
3.0952916929
  0
LWPOLYLINE
  5
399
100
AcDbEntity
  8
0
100
AcDbPolyline
 62
7
  6
CONTINUOUS
 90
20
 70
0
 10
5.7537641125
 20
2.9942149895
 10
5.7538266389
 20
2.9952685007
 10
5.7540612436
 20
2.9964897641
 10
5.7544204065
 20
2.9975621736
 10
5.754864321
 20
2.9984912382
 10
5.7553728818
 20
2.9993057791
 10
5.7559331896
 20
3.0000220708
 10
5.7565100467
 20
3.0006263793
 10
5.7570829313
 20
3.0011271166
 10
5.7576579231
 20
3.0015503603
 10
5.7582382901
 20
3.0019108628
 10
5.7587932327
 20
3.0022009295
 10
5.759303589
 20
3.0024253611
 10
5.7597564602
 20
3.0025931719
 10
5.7601290032
 20
3.0027100901
 10
5.760388624
 20
3.0027803776
 10
5.7605473903
 20
3.0028186505
 10
5.7606550147
 20
3.0028423449
 10
5.7607177502
 20
3.0028551032
 10
5.7607253239
 20
3.0028565258
  0
LWPOLYLINE
  5
39A
100
AcDbEntity
  8
0
100
AcDbPolyline
 62
7
  6
CONTINUOUS
 90
12
 70
0
 10
5.7264431495
 20
2.9938972158
 10
5.7265429634
 20
2.995218323
 10
5.7268848657
 20
2.9966462072
 10
5.7274442137
 20
2.9979660957
 10
5.7281596124
 20
2.9991054185
 10
5.7288849391
 20
2.9999610177
 10
5.7295428426
 20
3.0005728178
 10
5.730161515
 20
3.0010419377
 10
5.7307156094
 20
3.0013894547
 10
5.731136281
 20
3.0016111539
 10
5.7314087844
 20
3.0017349333
 10
5.7314852468
 20
3.001766516
  0
LWPOLYLINE
  5
39B
100
AcDbEntity
  8
0
100
AcDbPolyline
 62
7
  6
CONTINUOUS
 90
12
 70
0
 10
5.6604347999
 20
2.9931289871
 10
5.6605497664
 20
2.9945314091
 10
5.6609045042
 20
2.9959304441
 10
5.6614395375
 20
2.9971553673
 10
5.6620885832
 20
2.9981815197
 10
5.6627301332
 20
2.9989455925
 10
5.6632985987
 20
2.9994854322
 10
5.6638078571
 20
2.9998835211
 10
5.6642283778
 20
3.0001575672
 10
5.6644880194
 20
3.0003009444
 10
5.6645701229
 20
3.0003407877
 10
5.6645636007
 20
3.0003381392
  0
LINE
  5
39C
100
AcDbEntity
  8
0
100
AcDbLine
 62
7
  6
CONTINUOUS
 10
4.9339375901
 20
3.0536915285
 11
4.92782221
 21
3.0475761485
  0
LINE
  5
39D
100
AcDbEntity
  8
0
100
AcDbLine
 62
7
  6
CONTINUOUS
 10
5.8931893669
 20
3.0279467704
 11
5.8931893669
 21
3.0228683559
  0
LINE
  5
39E
100
AcDbEntity
  8
0
100
AcDbLine
 62
7
  6
CONTINUOUS
 10
5.9080627305
 20
3.0744125557
 11
5.9080627305
 21
3.0641313167
  0
LINE
  5
39F
100
AcDbEntity
  8
0
100
AcDbLine
 62
7
  6
CONTINUOUS
 10
5.9387774786
 20
3.0794902903
 11
5.9387774786
 21
3.0641313167
  0
LINE
  5
3A0
100
AcDbEntity
  8
0
100
AcDbLine
 62
7
  6
CONTINUOUS
 10
5.9401788757
 20
3.1214815553
 11
5.9401788757
 21
3.0952916929
  0
LINE
  5
3A1
100
AcDbEntity
  8
0
100
AcDbLine
 62
7
  6
CONTINUOUS
 10
6.0085547672
 20
3.1117685036
 11
6.0085547672
 21
3.0952916929
  0
LINE
  5
3A2
100
AcDbEntity
  8
0
100
AcDbLine
 62
7
  6
CONTINUOUS
 10
5.5398922498
 20
2.9600046527
 11
5.5186095022
 21
2.9015307842
  0
LINE
  5
3A3
100
AcDbEntity
  8
0
100
AcDbLine
 62
7
  6
CONTINUOUS
 10
4.8420762164
 20
2.8874918836
 11
4.8359608344
 21
2.8813765016
  0
LINE
  5
3A4
100
AcDbEntity
  8
0
100
AcDbLine
 62
7
  6
CONTINUOUS
 10
4.9256899517
 20
2.9680938698
 11
4.9161152304
 21
2.9585191485
  0
LINE
  5
3A5
100
AcDbEntity
  8
0
100
AcDbLine
 62
7
  6
CONTINUOUS
 10
5.0798095899
 20
3.0848516763
 11
5.0736944719
 21
3.0787365582
  0
LINE
  5
3A6
100
AcDbEntity
  8
0
100
AcDbLine
 62
7
  6
CONTINUOUS
 10
5.0904590737
 20
2.9680938698
 11
5.0808843524
 21
2.9585191485
  0
LINE
  5
3A7
100
AcDbEntity
  8
0
100
AcDbLine
 62
7
  6
CONTINUOUS
 10
5.2079655113
 20
3.0536915285
 11
5.2018501313
 21
3.0475761485
  0
LINE
  5
3A8
100
AcDbEntity
  8
0
100
AcDbLine
 62
7
  6
CONTINUOUS
 10
6.0450766912
 20
3.0744125557
 11
6.0450766912
 21
3.0641313167
  0
LINE
  5
3A9
100
AcDbEntity
  8
0
100
AcDbLine
 62
7
  6
CONTINUOUS
 10
6.1160003361
 20
3.075081217
 11
6.1160003361
 21
3.0641313167
  0
LINE
  5
3AA
100
AcDbEntity
  8
0
100
AcDbLine
 62
7
  6
CONTINUOUS
 10
6.1325705152
 20
3.1214815553
 11
6.1325705152
 21
3.0952916929
  0
LINE
  5
3AB
100
AcDbEntity
  8
0
100
AcDbLine
 62
7
  6
CONTINUOUS
 10
5.0740004806
 20
2.8874918848
 11
5.0678850974
 21
2.8813765016
  0
LINE
  5
3AC
100
AcDbEntity
  8
0
100
AcDbLine
 62
7
  6
CONTINUOUS
 10
5.2541720512
 20
2.9680938698
 11
5.2445973299
 21
2.9585191485
  0
LINE
  5
3AD
100
AcDbEntity
  8
0
100
AcDbLine
 62
7
  6
CONTINUOUS
 10
5.3931436701
 20
3.0848516763
 11
5.3870285521
 21
3.0787365582
  0
LINE
  5
3AE
100
AcDbEntity
  8
0
100
AcDbLine
 62
7
  6
CONTINUOUS
 10
5.4726561576
 20
3.0536915285
 11
5.4665407776
 21
3.0475761485
  0
LINE
  5
3AF
100
AcDbEntity
  8
0
100
AcDbLine
 62
7
  6
CONTINUOUS
 10
6.2371263748
 20
3.8480681979
 11
6.2371263748
 21
3.8225768735
  0
LINE
  5
3B0
100
AcDbEntity
  8
0
100
AcDbLine
 62
7
  6
CONTINUOUS
 10
6.2535129559
 20
3.1214815553
 11
6.2535129559
 21
3.0952916929
  0
LINE
  5
3B1
100
AcDbEntity
  8
0
100
AcDbLine
 62
7
  6
CONTINUOUS
 10
6.2947641701
 20
3.1214815553
 11
6.2947641701
 21
3.0952916929
  0
LINE
  5
3B2
100
AcDbEntity
  8
0
100
AcDbLine
 62
7
  6
CONTINUOUS
 10
5.3326783823
 20
2.8874918836
 11
5.3265630002
 21
2.8813765016
  0
LINE
  5
3B3
100
AcDbEntity
  8
0
100
AcDbLine
 62
7
  6
CONTINUOUS
 10
5.4665799191
 20
2.8874918848
 11
5.4604647308
 21
2.8813766965
  0
LINE
  5
3B4
100
AcDbEntity
  8
0
100
AcDbLine
 62
7
  6
CONTINUOUS
 10
5.6851245506
 20
3.0848516763
 11
5.6790094325
 21
3.0787365582
  0
LINE
  5
3B5
100
AcDbEntity
  8
0
100
AcDbLine
 62
7
  6
CONTINUOUS
 10
5.7099712988
 20
3.0536915285
 11
5.7038559187
 21
3.0475761485
  0
LINE
  5
3B6
100
AcDbEntity
  8
0
100
AcDbLine
 62
7
  6
CONTINUOUS
 10
6.4508763748
 20
3.681138951
 11
6.4508763748
 21
3.5438523304
  0
LINE
  5
3B7
100
AcDbEntity
  8
0
100
AcDbLine
 62
7
  6
CONTINUOUS
 10
5.6578429579
 20
2.9680938698
 11
5.6482682349
 21
2.9585191468
  0
LINE
  5
3B8
100
AcDbEntity
  8
0
100
AcDbLine
 62
7
  6
CONTINUOUS
 10
5.7238483677
 20
2.9680938698
 11
5.7142736492
 21
2.9585191513
  0
LINE
  5
3B9
100
AcDbEntity
  8
0
100
AcDbLine
 62
7
  6
CONTINUOUS
 10
5.7511688951
 20
2.9680938698
 11
5.7415941965
 21
2.9585191712
  0
LINE
  5
3BA
100
AcDbEntity
  8
0
100
AcDbLine
 62
7
  6
CONTINUOUS
 10
5.9037383001
 20
3.0536915285
 11
5.8976229185
 21
3.0475761469
  0
LINE
  5
3BB
100
AcDbEntity
  8
0
100
AcDbLine
 62
7
  6
CONTINUOUS
 10
5.9358542168
 20
3.0848516763
 11
5.9297390987
 21
3.0787365582
  0
LINE
  5
3BC
100
AcDbEntity
  8
0
100
AcDbLine
 62
7
  6
CONTINUOUS
 10
6.0407522607
 20
3.0536915285
 11
6.0346368807
 21
3.0475761485
  0
LINE
  5
3BD
100
AcDbEntity
  8
0
100
AcDbLine
 62
7
  6
CONTINUOUS
 10
6.1282461179
 20
3.0848519378
 11
6.1221307577
 21
3.0787365776
  0
LINE
  5
3BE
100
AcDbEntity
  8
0
100
AcDbLine
 62
7
  6
CONTINUOUS
 10
6.1116759057
 20
3.0536915285
 11
6.1055606484
 21
3.0475762713
  0
LINE
  5
3BF
100
AcDbEntity
  8
0
100
AcDbLine
 62
7
  6
CONTINUOUS
 10
6.2491882969
 20
3.0848516763
 11
6.2430731789
 21
3.0787365582
  0
LINE
  5
3C0
100
AcDbEntity
  8
0
100
AcDbLine
 62
7
  6
CONTINUOUS
 10
6.2904399592
 20
3.0848521243
 11
6.2843243932
 21
3.0787365582
  0
ARC
  5
3C1
100
AcDbEntity
  8
0
100
AcDbCircle
 62
7
  6
CONTINUOUS
 10
3.9226279744
 20
0.1474598006
 40
2.8710226399
100
AcDbArc
 50
81.8617711775
 51
82.0503651921
  0
ARC
  5
3C2
100
AcDbEntity
  8
0
100
AcDbCircle
 62
7
  6
CONTINUOUS
 10
3.7234233893
 20
2.502070877
 40
0.6388886923
100
AcDbArc
 50
74.5802845708
 51
75.8148825965
  0
ARC
  5
3C3
100
AcDbEntity
  8
0
100
AcDbCircle
 62
7
  6
CONTINUOUS
 10
3.746437734
 20
2.8374261617
 40
0.2805685473
100
AcDbArc
 50
99.1660049979
 51
102.1816870692
  0
ARC
  5
3C4
100
AcDbEntity
  8
0
100
AcDbCircle
 62
7
  6
CONTINUOUS
 10
3.7463887117
 20
2.8376065233
 40
0.2803822597
100
AcDbArc
 50
99.1620445289
 51
102.1796575856
  0
ARC
  5
3C5
100
AcDbEntity
  8
0
100
AcDbCircle
 62
7
  6
CONTINUOUS
 10
3.7463544598
 20
2.8378133482
 40
0.2801726196
100
AcDbArc
 50
98.9007260981
 51
99.1618640084
  0
ARC
  5
3C6
100
AcDbEntity
  8
0
100
AcDbCircle
 62
7
  6
CONTINUOUS
 10
3.7463292871
 20
2.8380793846
 40
0.2799063903
100
AcDbArc
 50
98.9039916461
 51
99.165389544
  0
ARC
  5
3C7
100
AcDbEntity
  8
0
100
AcDbCircle
 62
7
  6
CONTINUOUS
 10
3.7462857048
 20
2.8382850321
 40
0.2796959779
100
AcDbArc
 50
96.0770116296
 51
98.9017612586
  0
ARC
  5
3C8
100
AcDbEntity
  8
0
100
AcDbCircle
 62
7
  6
CONTINUOUS
 10
3.746235069
 20
2.8387426511
 40
0.2792355699
100
AcDbArc
 50
95.7999494449
 51
96.0766206775
  0
ARC
  5
3C9
100
AcDbEntity
  8
0
100
AcDbCircle
 62
7
  6
CONTINUOUS
 10
3.7462253846
 20
2.8387781909
 40
0.2791999234
100
AcDbArc
 50
96.0752491799
 51
98.9051224472
  0
ARC
  5
3CA
100
AcDbEntity
  8
0
100
AcDbCircle
 62
7
  6
CONTINUOUS
 10
3.7461876158
 20
2.839119059
 40
0.2788569725
100
AcDbArc
 50
95.7978947277
 51
96.0749448681
  0
ARC
  5
3CB
100
AcDbEntity
  8
0
100
AcDbCircle
 62
7
  6
CONTINUOUS
 10
3.7461742117
 20
2.8393721508
 40
0.2786031428
100
AcDbArc
 50
92.7611877437
 51
95.8005805143
  0
ARC
  5
3CC
100
AcDbEntity
  8
0
100
AcDbCircle
 62
7
  6
CONTINUOUS
 10
3.7461530629
 20
2.8394755647
 40
0.2784988
100
AcDbArc
 50
92.7578526103
 51
95.7982317099
  0
ARC
  5
3CD
100
AcDbEntity
  8
0
100
AcDbCircle
 62
7
  6
CONTINUOUS
 10
3.7461328042
 20
2.8399495314
 40
0.2780244382
100
AcDbArc
 50
89.9919190279
 51
92.7583963168
  0
ARC
  5
3CE
100
AcDbEntity
  8
0
100
AcDbCircle
 62
7
  6
CONTINUOUS
 10
3.7461382574
 20
2.8522648773
 40
0.2657097156
100
AcDbArc
 50
89.2774915973
 51
89.9970394797
  0
ARC
  5
3CF
100
AcDbEntity
  8
0
100
AcDbCircle
 62
7
  6
CONTINUOUS
 10
3.7565683749
 20
3.2473098838
 40
0.3883268281
100
AcDbArc
 50
326.8874230921
 51
327.3854738608
  0
ARC
  5
3D0
100
AcDbEntity
  8
0
100
AcDbCircle
 62
7
  6
CONTINUOUS
 10
3.7657639441
 20
3.2488651985
 40
0.3860886381
100
AcDbArc
 50
325.9302019537
 51
326.7412258408
  0
ARC
  5
3D1
100
AcDbEntity
  8
0
100
AcDbCircle
 62
7
  6
CONTINUOUS
 10
3.7442272508
 20
3.2374035148
 40
0.3200640278
100
AcDbArc
 50
322.2119355646
 51
322.6278629433
  0
ARC
  5
3D2
100
AcDbEntity
  8
0
100
AcDbCircle
 62
7
  6
CONTINUOUS
 10
3.3734645596
 20
3.4507232866
 40
0.1875
100
AcDbArc
 50
292.8632234306
 51
321.6210152008
  0
ARC
  5
3D3
100
AcDbEntity
  8
0
100
AcDbCircle
 62
7
  6
CONTINUOUS
 10
3.4696263748
 20
3.2226681281
 40
0.06
100
AcDbArc
 50
112.8632234306
 51
177.7285491583
  0
ARC
  5
3D4
100
AcDbEntity
  8
0
100
AcDbCircle
 62
7
  6
CONTINUOUS
 10
3.7703677168
 20
3.0891763352
 40
0.0147637795
100
AcDbArc
 50
225.0011432902
 51
270.001006738
  0
ARC
  5
3D5
100
AcDbEntity
  8
0
100
AcDbCircle
 62
7
  6
CONTINUOUS
 10
3.7642523591
 20
3.0952916929
 40
0.0147637795
100
AcDbArc
 50
180.0
 51
225.0024588137
  0
ARC
  5
3D6
100
AcDbEntity
  8
0
100
AcDbCircle
 62
7
  6
CONTINUOUS
 10
3.6973121977
 20
3.1273870671
 40
0.0059055118
100
AcDbArc
 50
263.984221312
 51
270.0
  0
ARC
  5
3D7
100
AcDbEntity
  8
0
100
AcDbCircle
 62
7
  6
CONTINUOUS
 10
4.1796738944
 20
2.9196714287
 40
0.1747660143
100
AcDbArc
 50
74.2346095071
 51
74.5434897536
  0
ARC
  5
3D8
100
AcDbEntity
  8
0
100
AcDbCircle
 62
7
  6
CONTINUOUS
 10
4.1887789346
 20
2.9513948031
 40
0.1417622431
100
AcDbArc
 50
72.7598662874
 51
74.292535395
  0
ARC
  5
3D9
100
AcDbEntity
  8
0
100
AcDbCircle
 62
7
  6
CONTINUOUS
 10
3.8151431848
 20
3.1699499656
 40
0.2885354179
100
AcDbArc
 50
270.0132374625
 51
272.4511619315
  0
ARC
  5
3DA
100
AcDbEntity
  8
0
100
AcDbCircle
 62
7
  6
CONTINUOUS
 10
3.8082228024
 20
3.1697537941
 40
0.2883392496
100
AcDbArc
 50
270.5224736886
 51
271.3782608904
  0
ARC
  5
3DB
100
AcDbEntity
  8
0
100
AcDbCircle
 62
7
  6
CONTINUOUS
 10
3.8082234692
 20
3.1696941311
 40
0.2882795831
100
AcDbArc
 50
270.2357175918
 51
270.5224492824
  0
ARC
  5
3DC
100
AcDbEntity
  8
0
100
AcDbCircle
 62
7
  6
CONTINUOUS
 10
3.8082235816
 20
3.1696683066
 40
0.2882537583
100
AcDbArc
 50
270.0094056909
 51
270.2357163801
  0
ARC
  5
3DD
100
AcDbEntity
  8
0
100
AcDbCircle
 62
7
  6
CONTINUOUS
 10
3.8999917623
 20
3.0952916929
 40
0.0147637795
100
AcDbArc
 50
314.9975411859
 51
333.8750990227
  0
ARC
  5
3DE
100
AcDbEntity
  8
0
100
AcDbCircle
 62
7
  6
CONTINUOUS
 10
3.8055035733
 20
3.0952916929
 40
0.0147637795
100
AcDbArc
 50
180.0
 51
225.0024588136
  0
ARC
  5
3DF
100
AcDbEntity
  8
0
100
AcDbCircle
 62
7
  6
CONTINUOUS
 10
3.811618931
 20
3.0891763352
 40
0.0147637795
100
AcDbArc
 50
225.0011432902
 51
270.001006738
  0
ARC
  5
3E0
100
AcDbEntity
  8
0
100
AcDbCircle
 62
7
  6
CONTINUOUS
 10
3.8938764046
 20
3.0891763352
 40
0.0147637795
100
AcDbArc
 50
269.9989932619
 51
314.9988567098
  0
ARC
  5
3E1
100
AcDbEntity
  8
0
100
AcDbCircle
 62
7
  6
CONTINUOUS
 10
4.0209342029
 20
3.0952916929
 40
0.0147637795
100
AcDbArc
 50
314.9975411859
 51
360.0
  0
ARC
  5
3E2
100
AcDbEntity
  8
0
100
AcDbCircle
 62
7
  6
CONTINUOUS
 10
3.9264460139
 20
3.0952916929
 40
0.0147637795
100
AcDbArc
 50
180.0
 51
225.0024588141
  0
ARC
  5
3E3
100
AcDbEntity
  8
0
100
AcDbCircle
 62
7
  6
CONTINUOUS
 10
3.9325613717
 20
3.0891763352
 40
0.0147637795
100
AcDbArc
 50
225.00114329
 51
270.0010067378
  0
ARC
  5
3E4
100
AcDbEntity
  8
0
100
AcDbCircle
 62
7
  6
CONTINUOUS
 10
4.0148188452
 20
3.0891763352
 40
0.0147637795
100
AcDbArc
 50
269.9989932622
 51
314.99885671
  0
ARC
  5
3E5
100
AcDbEntity
  8
0
100
AcDbCircle
 62
7
  6
CONTINUOUS
 10
4.1188376535
 20
3.0952916929
 40
0.0147637795
100
AcDbArc
 50
180.0
 51
225.0024588139
  0
ARC
  5
3E6
100
AcDbEntity
  8
0
100
AcDbCircle
 62
7
  6
CONTINUOUS
 10
4.1249530112
 20
3.0891763352
 40
0.0147637795
100
AcDbArc
 50
225.0011432895
 51
270.0010067371
  0
ARC
  5
3E7
100
AcDbEntity
  8
0
100
AcDbCircle
 62
7
  6
CONTINUOUS
 10
3.9430161931
 20
3.0641313167
 40
0.0147637795
100
AcDbArc
 50
180.0
 51
225.0012047959
  0
ARC
  5
3E8
100
AcDbEntity
  8
0
100
AcDbCircle
 62
7
  6
CONTINUOUS
 10
4.0136724889
 20
3.058015959
 40
0.0147637795
100
AcDbArc
 50
269.9989177866
 51
282.5062037106
  0
ARC
  5
3E9
100
AcDbEntity
  8
0
100
AcDbCircle
 62
7
  6
CONTINUOUS
 10
3.9491315508
 20
3.058015959
 40
0.0147637795
100
AcDbArc
 50
225.0013272051
 51
270.0010822134
  0
ARC
  5
3EA
100
AcDbEntity
  8
0
100
AcDbCircle
 62
7
  6
CONTINUOUS
 10
4.1509537986
 20
3.0641313167
 40
0.0147637795
100
AcDbArc
 50
180.0
 51
225.0012047948
  0
ARC
  5
3EB
100
AcDbEntity
  8
0
100
AcDbCircle
 62
7
  6
CONTINUOUS
 10
4.1570691563
 20
3.058015959
 40
0.0147637795
100
AcDbArc
 50
225.0013272057
 51
270.0010822143
  0
ARC
  5
3EC
100
AcDbEntity
  8
0
100
AcDbCircle
 62
7
  6
CONTINUOUS
 10
4.0845961338
 20
3.058015959
 40
0.0147637795
100
AcDbArc
 50
269.9989177863
 51
314.9986727948
  0
ARC
  5
3ED
100
AcDbEntity
  8
0
100
AcDbCircle
 62
7
  6
CONTINUOUS
 10
4.0907114915
 20
3.0641313167
 40
0.0147637795
100
AcDbArc
 50
314.9987952051
 51
360.0
  0
ARC
  5
3EE
100
AcDbEntity
  8
0
100
AcDbCircle
 62
7
  6
CONTINUOUS
 10
4.013939838
 20
3.0641313167
 40
0.0147637795
100
AcDbArc
 50
180.0
 51
225.0012047956
  0
ARC
  5
3EF
100
AcDbEntity
  8
0
100
AcDbCircle
 62
7
  6
CONTINUOUS
 10
4.0200551957
 20
3.058015959
 40
0.0147637795
100
AcDbArc
 50
225.0013272052
 51
270.0010822137
  0
ARC
  5
3F0
100
AcDbEntity
  8
0
100
AcDbCircle
 62
7
  6
CONTINUOUS
 10
4.0765428068
 20
3.0452665473
 40
0.0059055118
100
AcDbArc
 50
199.9760716118
 51
259.854080614
  0
ARC
  5
3F1
100
AcDbEntity
  8
0
100
AcDbCircle
 62
7
  6
CONTINUOUS
 10
4.227573123
 20
1.6889612676
 40
1.317973166
100
AcDbArc
 50
82.3812117846
 51
82.5460014726
  0
ARC
  5
3F2
100
AcDbEntity
  8
0
100
AcDbCircle
 62
7
  6
CONTINUOUS
 10
4.5989989694
 20
2.8234457155
 40
0.2765492246
100
AcDbArc
 50
86.3570763171
 51
88.7576514794
  0
ARC
  5
3F3
100
AcDbEntity
  8
0
100
AcDbCircle
 62
7
  6
CONTINUOUS
 10
4.5999949193
 20
2.8621379881
 40
0.2378445054
100
AcDbArc
 50
88.7954273801
 51
89.9789517507
  0
ARC
  5
3F4
100
AcDbEntity
  8
0
100
AcDbCircle
 62
7
  6
CONTINUOUS
 10
4.6000599721
 20
2.8908680607
 40
0.209114418
100
AcDbArc
 50
89.993883932
 51
91.3628694082
  0
ARC
  5
3F5
100
AcDbEntity
  8
0
100
AcDbCircle
 62
7
  6
CONTINUOUS
 10
4.350629221
 20
2.9149487351
 40
0.1850337826
100
AcDbArc
 50
88.6914476937
 51
89.9622302409
  0
ARC
  5
3F6
100
AcDbEntity
  8
0
100
AcDbCircle
 62
7
  6
CONTINUOUS
 10
4.4766136558
 20
2.9499056731
 40
0.0295275591
100
AcDbArc
 50
19.9999167392
 51
28.9073832586
  0
ARC
  5
3F7
100
AcDbEntity
  8
0
100
AcDbCircle
 62
7
  6
CONTINUOUS
 10
4.594227315
 20
2.8918165376
 40
0.0147637795
100
AcDbArc
 50
225.0025651319
 51
270.0015873101
  0
ARC
  5
3F8
100
AcDbEntity
  8
0
100
AcDbCircle
 62
7
  6
CONTINUOUS
 10
4.56723282
 20
2.8770527581
 40
0.0147637795
100
AcDbArc
 50
44.9984858796
 51
86.4160194497
  0
ARC
  5
3F9
100
AcDbEntity
  8
0
100
AcDbCircle
 62
7
  6
CONTINUOUS
 10
4.5395166538
 20
2.9065803171
 40
0.0147637795
100
AcDbArc
 50
200.0000948195
 51
270.0002417934
  0
ARC
  5
3FA
100
AcDbEntity
  8
0
100
AcDbCircle
 62
7
  6
CONTINUOUS
 10
4.2133258425
 20
3.0952916929
 40
0.0147637795
100
AcDbArc
 50
314.9975411861
 51
360.0
  0
ARC
  5
3FB
100
AcDbEntity
  8
0
100
AcDbCircle
 62
7
  6
CONTINUOUS
 10
4.2072104848
 20
3.0891763352
 40
0.0147637795
100
AcDbArc
 50
269.9989932615
 51
314.9988567094
  0
ARC
  5
3FC
100
AcDbEntity
  8
0
100
AcDbCircle
 62
7
  6
CONTINUOUS
 10
4.4640555087
 20
3.0952916929
 40
0.0147637795
100
AcDbArc
 50
314.9975417674
 51
360.0
  0
ARC
  5
3FD
100
AcDbEntity
  8
0
100
AcDbCircle
 62
7
  6
CONTINUOUS
 10
4.3695673197
 20
3.0952916929
 40
0.0147637795
100
AcDbArc
 50
180.0
 51
225.0024582326
  0
ARC
  5
3FE
100
AcDbEntity
  8
0
100
AcDbCircle
 62
7
  6
CONTINUOUS
 10
4.3756826774
 20
3.0891763352
 40
0.0147637795
100
AcDbArc
 50
225.0011432897
 51
270.0010067374
  0
ARC
  5
3FF
100
AcDbEntity
  8
0
100
AcDbCircle
 62
7
  6
CONTINUOUS
 10
4.457940151
 20
3.0891763352
 40
0.0147637795
100
AcDbArc
 50
269.9989932627
 51
314.9988567103
  0
ARC
  5
400
100
AcDbEntity
  8
0
100
AcDbCircle
 62
7
  6
CONTINUOUS
 10
4.2277254522
 20
3.0641313167
 40
0.0147637795
100
AcDbArc
 50
314.9987952044
 51
360.0
  0
ARC
  5
401
100
AcDbEntity
  8
0
100
AcDbCircle
 62
7
  6
CONTINUOUS
 10
4.2216100945
 20
3.058015959
 40
0.0147637795
100
AcDbArc
 50
269.9989177866
 51
314.998672795
  0
ARC
  5
402
100
AcDbEntity
  8
0
100
AcDbCircle
 62
7
  6
CONTINUOUS
 10
4.5820359411
 20
3.0641313167
 40
0.0147637795
100
AcDbArc
 50
180.0
 51
225.0012049649
  0
ARC
  5
403
100
AcDbEntity
  8
0
100
AcDbCircle
 62
7
  6
CONTINUOUS
 10
4.5881512989
 20
3.058015959
 40
0.0147637795
100
AcDbArc
 50
225.0013272064
 51
270.0010822146
  0
ARC
  5
404
100
AcDbEntity
  8
0
100
AcDbCircle
 62
7
  6
CONTINUOUS
 10
4.4153770958
 20
3.058015959
 40
0.0147637795
100
AcDbArc
 50
269.998917781
 51
314.9986727884
  0
ARC
  5
405
100
AcDbEntity
  8
0
100
AcDbCircle
 62
7
  6
CONTINUOUS
 10
4.4214924535
 20
3.0641313167
 40
0.0147637795
100
AcDbArc
 50
314.9987952044
 51
360.0
  0
ARC
  5
406
100
AcDbEntity
  8
0
100
AcDbCircle
 62
7
  6
CONTINUOUS
 10
4.3447208
 20
3.0641313167
 40
0.0147637795
100
AcDbArc
 50
180.0
 51
225.0012047956
  0
ARC
  5
407
100
AcDbEntity
  8
0
100
AcDbCircle
 62
7
  6
CONTINUOUS
 10
4.3508361577
 20
3.058015959
 40
0.0147637795
100
AcDbArc
 50
225.0013272117
 51
270.001082219
  0
ARC
  5
408
100
AcDbEntity
  8
0
100
AcDbCircle
 62
7
  6
CONTINUOUS
 10
4.3018277755
 20
2.9743576437
 40
0.0088582677
100
AcDbArc
 50
180.0
 51
225.0002999883
  0
ARC
  5
409
100
AcDbEntity
  8
0
100
AcDbCircle
 62
7
  6
CONTINUOUS
 10
4.311402502
 20
2.9647829173
 40
0.0088582677
100
AcDbArc
 50
225.0002531652
 51
270.0002596334
  0
ARC
  5
40A
100
AcDbEntity
  8
0
100
AcDbCircle
 62
7
  6
CONTINUOUS
 10
4.4166632342
 20
2.9647829173
 40
0.0088582677
100
AcDbArc
 50
269.9997403649
 51
284.4755220322
  0
ARC
  5
40B
100
AcDbEntity
  8
0
100
AcDbCircle
 62
7
  6
CONTINUOUS
 10
4.3376552834
 20
2.9743576437
 40
0.0088582677
100
AcDbArc
 50
180.0
 51
225.0002999893
  0
ARC
  5
40C
100
AcDbEntity
  8
0
100
AcDbCircle
 62
7
  6
CONTINUOUS
 10
4.3472300099
 20
2.9647829173
 40
0.0088582677
100
AcDbArc
 50
225.0002531646
 51
270.0002596324
  0
ARC
  5
40D
100
AcDbEntity
  8
0
100
AcDbCircle
 62
7
  6
CONTINUOUS
 10
4.4905228913
 20
2.9647829173
 40
0.0088582677
100
AcDbArc
 50
269.9997375967
 51
314.9997441388
  0
ARC
  5
40E
100
AcDbEntity
  8
0
100
AcDbCircle
 62
7
  6
CONTINUOUS
 10
4.5000976177
 20
2.9743576437
 40
0.0088582677
100
AcDbArc
 50
314.9997004612
 51
360.0
  0
ARC
  5
40F
100
AcDbEntity
  8
0
100
AcDbCircle
 62
7
  6
CONTINUOUS
 10
4.4115149405
 20
2.9743576437
 40
0.0088582677
100
AcDbArc
 50
180.0
 51
225.0002995371
  0
ARC
  5
410
100
AcDbEntity
  8
0
100
AcDbCircle
 62
7
  6
CONTINUOUS
 10
4.421089667
 20
2.9647829173
 40
0.0088582677
100
AcDbArc
 50
225.0002558628
 51
270.0002624055
  0
ARC
  5
411
100
AcDbEntity
  8
0
100
AcDbCircle
 62
7
  6
CONTINUOUS
 10
4.2844119332
 20
2.9942301043
 40
0.008805202
100
AcDbArc
 50
359.9501461972
 51
8.8492754016
  0
ARC
  5
412
100
AcDbEntity
  8
0
100
AcDbCircle
 62
7
  6
CONTINUOUS
 10
4.8780433045
 20
2.8329908287
 40
0.26699214
100
AcDbArc
 50
87.5439871335
 51
89.7021225733
  0
ARC
  5
413
100
AcDbEntity
  8
0
100
AcDbCircle
 62
7
  6
CONTINUOUS
 10
4.8781731626
 20
2.8460382826
 40
0.2539441949
100
AcDbArc
 50
89.7161165678
 51
89.9995857781
  0
ARC
  5
414
100
AcDbEntity
  8
0
100
AcDbCircle
 62
7
  6
CONTINUOUS
 10
4.8781712099
 20
2.8499073924
 40
0.2500750852
100
AcDbArc
 50
89.9991319703
 51
91.2462497207
  0
ARC
  5
415
100
AcDbEntity
  8
0
100
AcDbCircle
 62
7
  6
CONTINUOUS
 10
4.6102114387
 20
2.8953823383
 40
0.2037713833
100
AcDbArc
 50
79.6492583194
 51
80.3845294797
  0
ARC
  5
416
100
AcDbEntity
  8
0
100
AcDbCircle
 62
7
  6
CONTINUOUS
 10
4.8954641131
 20
2.8918165376
 40
0.0147637795
100
AcDbArc
 50
225.0025651318
 51
270.0027356756
  0
ARC
  5
417
100
AcDbEntity
  8
0
100
AcDbCircle
 62
7
  6
CONTINUOUS
 10
4.8684696182
 20
2.8770527581
 40
0.0147637795
100
AcDbArc
 50
44.9975750785
 51
89.9960818716
  0
ARC
  5
418
100
AcDbEntity
  8
0
100
AcDbCircle
 62
7
  6
CONTINUOUS
 10
4.8255217332
 20
2.8918165376
 40
0.0147637795
100
AcDbArc
 50
269.9972642495
 51
314.9974348102
  0
ARC
  5
419
100
AcDbEntity
  8
0
100
AcDbCircle
 62
7
  6
CONTINUOUS
 10
4.6635398502
 20
2.8918165376
 40
0.0147637795
100
AcDbArc
 50
225.0025651901
 51
270.002735751
  0
ARC
  5
41A
100
AcDbEntity
  8
0
100
AcDbCircle
 62
7
  6
CONTINUOUS
 10
4.8525162281
 20
2.8770527581
 40
0.0147637795
100
AcDbArc
 50
90.00392895
 51
135.0024317524
  0
ARC
  5
41B
100
AcDbEntity
  8
0
100
AcDbCircle
 62
7
  6
CONTINUOUS
 10
4.6365453552
 20
2.8770527581
 40
0.0147637795
100
AcDbArc
 50
44.9975682479
 51
89.9960710504
  0
ARC
  5
41C
100
AcDbEntity
  8
0
100
AcDbCircle
 62
7
  6
CONTINUOUS
 10
4.8901107336
 20
2.8918165376
 40
0.0147637795
100
AcDbArc
 50
269.997264249
 51
280.4683062659
  0
ARC
  5
41D
100
AcDbEntity
  8
0
100
AcDbCircle
 62
7
  6
CONTINUOUS
 10
4.7560363891
 20
3.0952916929
 40
0.0147637795
100
AcDbArc
 50
314.9975411863
 51
360.0
  0
ARC
  5
41E
100
AcDbEntity
  8
0
100
AcDbCircle
 62
7
  6
CONTINUOUS
 10
4.6615482001
 20
3.0952916929
 40
0.0147637795
100
AcDbArc
 50
180.0
 51
225.0024588147
  0
ARC
  5
41F
100
AcDbEntity
  8
0
100
AcDbCircle
 62
7
  6
CONTINUOUS
 10
4.6676635579
 20
3.0891763352
 40
0.0147637795
100
AcDbArc
 50
225.0011432896
 51
270.0010067372
  0
ARC
  5
420
100
AcDbEntity
  8
0
100
AcDbCircle
 62
7
  6
CONTINUOUS
 10
4.7499210314
 20
3.0891763352
 40
0.0147637795
100
AcDbArc
 50
269.9989932615
 51
314.9988567094
  0
ARC
  5
421
100
AcDbEntity
  8
0
100
AcDbCircle
 62
7
  6
CONTINUOUS
 10
4.9748822803
 20
3.0952916929
 40
0.0147637795
100
AcDbArc
 50
180.0
 51
225.0024588143
  0
ARC
  5
422
100
AcDbEntity
  8
0
100
AcDbCircle
 62
7
  6
CONTINUOUS
 10
4.980997638
 20
3.0891763352
 40
0.0147637795
100
AcDbArc
 50
225.0011432902
 51
270.001006738
  0
ARC
  5
423
100
AcDbEntity
  8
0
100
AcDbCircle
 62
7
  6
CONTINUOUS
 10
4.6588075947
 20
3.0641313167
 40
0.0147637795
100
AcDbArc
 50
314.9987950343
 51
360.0
  0
ARC
  5
424
100
AcDbEntity
  8
0
100
AcDbCircle
 62
7
  6
CONTINUOUS
 10
4.652692237
 20
3.058015959
 40
0.0147637795
100
AcDbArc
 50
269.9989177854
 51
314.9986727936
  0
ARC
  5
425
100
AcDbEntity
  8
0
100
AcDbCircle
 62
7
  6
CONTINUOUS
 10
4.9173828832
 20
3.058015959
 40
0.0147637795
100
AcDbArc
 50
269.9989177867
 51
314.998672795
  0
ARC
  5
426
100
AcDbEntity
  8
0
100
AcDbCircle
 62
7
  6
CONTINUOUS
 10
4.923498241
 20
3.0641313167
 40
0.0147637795
100
AcDbArc
 50
314.9987952045
 51
360.0
  0
ARC
  5
427
100
AcDbEntity
  8
0
100
AcDbCircle
 62
7
  6
CONTINUOUS
 10
4.8467265874
 20
3.0641313167
 40
0.0147637795
100
AcDbArc
 50
180.0
 51
225.0012047948
  0
ARC
  5
428
100
AcDbEntity
  8
0
100
AcDbCircle
 62
7
  6
CONTINUOUS
 10
4.8528419451
 20
3.058015959
 40
0.0147637795
100
AcDbArc
 50
225.0013272052
 51
270.0010822136
  0
ARC
  5
429
100
AcDbEntity
  8
0
100
AcDbCircle
 62
7
  6
CONTINUOUS
 10
4.9098515169
 20
2.9647829173
 40
0.0088582677
100
AcDbArc
 50
269.9997403676
 51
314.9997468354
  0
ARC
  5
42A
100
AcDbEntity
  8
0
100
AcDbCircle
 62
7
  6
CONTINUOUS
 10
4.9194262433
 20
2.9743576437
 40
0.0088582677
100
AcDbArc
 50
314.9997000112
 51
360.0
  0
ARC
  5
42B
100
AcDbEntity
  8
0
100
AcDbCircle
 62
7
  6
CONTINUOUS
 10
4.8308435661
 20
2.9743576437
 40
0.0088582677
100
AcDbArc
 50
180.0
 51
225.0002999888
  0
ARC
  5
42C
100
AcDbEntity
  8
0
100
AcDbCircle
 62
7
  6
CONTINUOUS
 10
4.8404182926
 20
2.9647829173
 40
0.0088582677
100
AcDbArc
 50
225.0002531646
 51
270.0002596324
  0
ARC
  5
42D
100
AcDbEntity
  8
0
100
AcDbCircle
 62
7
  6
CONTINUOUS
 10
4.9956126881
 20
2.9743576437
 40
0.0088582677
100
AcDbArc
 50
180.0
 51
225.0002999894
  0
ARC
  5
42E
100
AcDbEntity
  8
0
100
AcDbCircle
 62
7
  6
CONTINUOUS
 10
5.0051874146
 20
2.9647829173
 40
0.0088582677
100
AcDbArc
 50
225.0002531645
 51
270.0002596323
  0
ARC
  5
42F
100
AcDbEntity
  8
0
100
AcDbCircle
 62
7
  6
CONTINUOUS
 10
4.9271536986
 20
2.9846276174
 40
0.0011311579
100
AcDbArc
 50
0.0186410397
 51
9.8185696981
  0
ARC
  5
430
100
AcDbEntity
  8
0
100
AcDbCircle
 62
7
  6
CONTINUOUS
 10
5.0221159999
 20
8.3286696512
 40
5.3768295673
100
AcDbArc
 50
260.6769302766
 51
262.1368827704
  0
ARC
  5
431
100
AcDbEntity
  8
0
100
AcDbCircle
 62
7
  6
CONTINUOUS
 10
5.0221159999
 20
8.3286961336
 40
5.3732862602
100
AcDbArc
 50
255.0673065853
 51
255.7102731772
  0
ARC
  5
432
100
AcDbEntity
  8
0
100
AcDbCircle
 62
7
  6
CONTINUOUS
 10
5.0221159999
 20
8.3286961336
 40
5.3732862602
100
AcDbArc
 50
259.8532230909
 51
260.5748796072
  0
ARC
  5
433
100
AcDbEntity
  8
0
100
AcDbCircle
 62
7
  6
CONTINUOUS
 10
3.5114900769
 20
5.2541638883
 40
1.425
100
AcDbArc
 50
282.4577510794
 51
320.8853497804
  0
ARC
  5
434
100
AcDbEntity
  8
0
100
AcDbCircle
 62
7
  6
CONTINUOUS
 10
3.2558763748
 20
3.5438523304
 40
0.3375
100
AcDbArc
 50
321.6210152008
 51
360.0
  0
ARC
  5
435
100
AcDbEntity
  8
0
100
AcDbCircle
 62
7
  6
CONTINUOUS
 10
4.7341263748
 20
4.4151681281
 40
0.075
100
AcDbArc
 50
134.0731757115
 51
180.0
  0
ARC
  5
436
100
AcDbEntity
  8
0
100
AcDbCircle
 62
7
  6
CONTINUOUS
 10
3.6496263748
 20
3.681138951
 40
0.05625
100
AcDbArc
 50
114.0
 51
180.0
  0
ARC
  5
437
100
AcDbEntity
  8
0
100
AcDbCircle
 62
7
  6
CONTINUOUS
 10
4.7041263748
 20
4.4001681281
 40
0.045
100
AcDbArc
 50
180.0
 51
270.0
  0
ARC
  5
438
100
AcDbEntity
  8
0
100
AcDbCircle
 62
7
  6
CONTINUOUS
 10
4.6506571932
 20
4.5013823713
 40
0.045
100
AcDbArc
 50
314.0731756978
 51
341.9999999919
  0
ARC
  5
439
100
AcDbEntity
  8
0
100
AcDbCircle
 62
7
  6
CONTINUOUS
 10
4.6958763748
 20
4.6208011134
 40
0.045
100
AcDbArc
 50
311.8103107519
 51
360.0
  0
ARC
  5
43A
100
AcDbEntity
  8
0
100
AcDbCircle
 62
7
  6
CONTINUOUS
 10
3.8221263748
 20
3.8480681979
 40
0.015
100
AcDbArc
 50
102.4577510794
 51
180.0
  0
ARC
  5
43B
100
AcDbEntity
  8
0
100
AcDbCircle
 62
7
  6
CONTINUOUS
 10
3.7921263748
 20
3.8225768735
 40
0.015
100
AcDbArc
 50
294.0
 51
360.0
  0
ARC
  5
43C
100
AcDbEntity
  8
0
100
AcDbCircle
 62
7
  6
CONTINUOUS
 10
5.166261828
 20
2.831680868
 40
0.2683030677
100
AcDbArc
 50
91.2179091128
 51
92.4003257805
  0
ARC
  5
43D
100
AcDbEntity
  8
0
100
AcDbCircle
 62
7
  6
CONTINUOUS
 10
5.4447940393
 20
2.8371000235
 40
0.2628882208
100
AcDbArc
 50
91.2733704291
 51
92.4470176736
  0
ARC
  5
43E
100
AcDbEntity
  8
0
100
AcDbCircle
 62
7
  6
CONTINUOUS
 10
5.1660931121
 20
2.8410934152
 40
0.2588890628
100
AcDbArc
 50
90.0033995784
 51
91.2248550895
  0
ARC
  5
43F
100
AcDbEntity
  8
0
100
AcDbCircle
 62
7
  6
CONTINUOUS
 10
5.1660947117
 20
2.8510395579
 40
0.2489429201
100
AcDbArc
 50
88.7233993511
 51
90.003903568
  0
ARC
  5
440
100
AcDbEntity
  8
0
100
AcDbCircle
 62
7
  6
CONTINUOUS
 10
5.444204277
 20
2.8667864797
 40
0.2331960002
100
AcDbArc
 50
90.0083098766
 51
91.2905928536
  0
ARC
  5
441
100
AcDbEntity
  8
0
100
AcDbCircle
 62
7
  6
CONTINUOUS
 10
5.4352687289
 20
2.8884615346
 40
0.2108001035
100
AcDbArc
 50
99.3092369914
 51
100.3375346163
  0
ARC
  5
442
100
AcDbEntity
  8
0
100
AcDbCircle
 62
7
  6
CONTINUOUS
 10
5.444244659
 20
2.8952213672
 40
0.2047611237
100
AcDbArc
 50
88.5922408626
 51
90.0207634513
  0
ARC
  5
443
100
AcDbEntity
  8
0
100
AcDbCircle
 62
7
  6
CONTINUOUS
 10
5.0811263021
 20
3.0468204548
 40
0.0568154349
100
AcDbArc
 50
282.7742983727
 51
284.3452766622
  0
ARC
  5
444
100
AcDbEntity
  8
0
100
AcDbCircle
 62
7
  6
CONTINUOUS
 10
5.2441109683
 20
3.0459408131
 40
0.0543254291
100
AcDbArc
 50
284.7777965653
 51
285.7042445825
  0
ARC
  5
445
100
AcDbEntity
  8
0
100
AcDbCircle
 62
7
  6
CONTINUOUS
 10
5.0905959011
 20
2.97651338
 40
0.0227429592
100
AcDbArc
 50
70.422672074
 51
71.3646417539
  0
ARC
  5
446
100
AcDbEntity
  8
0
100
AcDbCircle
 62
7
  6
CONTINUOUS
 10
5.1487886365
 20
2.8918165376
 40
0.0147637795
100
AcDbArc
 50
269.9972643244
 51
280.4683062719
  0
ARC
  5
447
100
AcDbEntity
  8
0
100
AcDbCircle
 62
7
  6
CONTINUOUS
 10
5.4500254346
 20
2.8918165376
 40
0.0147637795
100
AcDbArc
 50
269.9984126899
 51
314.9974348681
  0
ARC
  5
448
100
AcDbEntity
  8
0
100
AcDbCircle
 62
7
  6
CONTINUOUS
 10
5.316123899
 20
2.8918165376
 40
0.0147637795
100
AcDbArc
 50
269.9972642495
 51
314.9974348102
  0
ARC
  5
449
100
AcDbEntity
  8
0
100
AcDbCircle
 62
7
  6
CONTINUOUS
 10
5.154142016
 20
2.8918165376
 40
0.0147637795
100
AcDbArc
 50
225.0025651901
 51
270.002735751
  0
ARC
  5
44A
100
AcDbEntity
  8
0
100
AcDbCircle
 62
7
  6
CONTINUOUS
 10
5.343118394
 20
2.8770527581
 40
0.0147637795
100
AcDbArc
 50
90.00392895
 51
135.0024317524
  0
ARC
  5
44B
100
AcDbEntity
  8
0
100
AcDbCircle
 62
7
  6
CONTINUOUS
 10
5.1271475211
 20
2.8770527581
 40
0.0147637795
100
AcDbArc
 50
44.9975682479
 51
89.9960710504
  0
ARC
  5
44C
100
AcDbEntity
  8
0
100
AcDbCircle
 62
7
  6
CONTINUOUS
 10
5.0574459961
 20
2.8918165376
 40
0.0147637795
100
AcDbArc
 50
269.9972643243
 51
314.9974348682
  0
ARC
  5
44D
100
AcDbEntity
  8
0
100
AcDbCircle
 62
7
  6
CONTINUOUS
 10
5.0844404911
 20
2.8770527581
 40
0.0147637795
100
AcDbArc
 50
90.0039181287
 51
135.0024249216
  0
ARC
  5
44E
100
AcDbEntity
  8
0
100
AcDbCircle
 62
7
  6
CONTINUOUS
 10
5.0693704693
 20
3.0952916929
 40
0.0147637795
100
AcDbArc
 50
314.9975411864
 51
360.0
  0
ARC
  5
44F
100
AcDbEntity
  8
0
100
AcDbCircle
 62
7
  6
CONTINUOUS
 10
5.0632551116
 20
3.0891763352
 40
0.0147637795
100
AcDbArc
 50
269.998993262
 51
314.9988567098
  0
ARC
  5
450
100
AcDbEntity
  8
0
100
AcDbCircle
 62
7
  6
CONTINUOUS
 10
5.3827045495
 20
3.0952916929
 40
0.0147637795
100
AcDbArc
 50
314.9975411859
 51
360.0
  0
ARC
  5
451
100
AcDbEntity
  8
0
100
AcDbCircle
 62
7
  6
CONTINUOUS
 10
5.2882163605
 20
3.0952916929
 40
0.0147637795
100
AcDbArc
 50
180.0
 51
225.0024588136
  0
ARC
  5
452
100
AcDbEntity
  8
0
100
AcDbCircle
 62
7
  6
CONTINUOUS
 10
5.2943317182
 20
3.0891763352
 40
0.0147637795
100
AcDbArc
 50
225.0011432902
 51
270.001006738
  0
ARC
  5
453
100
AcDbEntity
  8
0
100
AcDbCircle
 62
7
  6
CONTINUOUS
 10
5.3765891918
 20
3.0891763352
 40
0.0147637795
100
AcDbArc
 50
269.998993262
 51
314.9988567098
  0
ARC
  5
454
100
AcDbEntity
  8
0
100
AcDbCircle
 62
7
  6
CONTINUOUS
 10
5.1207545087
 20
3.0641313167
 40
0.0147637795
100
AcDbArc
 50
180.0
 51
225.0012047959
  0
ARC
  5
455
100
AcDbEntity
  8
0
100
AcDbCircle
 62
7
  6
CONTINUOUS
 10
5.1975261622
 20
3.0641313167
 40
0.0147637795
100
AcDbArc
 50
314.9987952046
 51
360.0
  0
ARC
  5
456
100
AcDbEntity
  8
0
100
AcDbCircle
 62
7
  6
CONTINUOUS
 10
5.1914108045
 20
3.058015959
 40
0.0147637795
100
AcDbArc
 50
269.9989177866
 51
314.998672795
  0
ARC
  5
457
100
AcDbEntity
  8
0
100
AcDbCircle
 62
7
  6
CONTINUOUS
 10
5.1268698664
 20
3.058015959
 40
0.0147637795
100
AcDbArc
 50
225.001327205
 51
270.0010822134
  0
ARC
  5
458
100
AcDbEntity
  8
0
100
AcDbCircle
 62
7
  6
CONTINUOUS
 10
5.4561014508
 20
3.058015959
 40
0.0147637795
100
AcDbArc
 50
269.9989177863
 51
314.9986727947
  0
ARC
  5
459
100
AcDbEntity
  8
0
100
AcDbCircle
 62
7
  6
CONTINUOUS
 10
5.385445155
 20
3.0641313167
 40
0.0147637795
100
AcDbArc
 50
180.0
 51
225.0012047956
  0
ARC
  5
45A
100
AcDbEntity
  8
0
100
AcDbCircle
 62
7
  6
CONTINUOUS
 10
5.3915605127
 20
3.058015959
 40
0.0147637795
100
AcDbArc
 50
225.0013272053
 51
270.0010822137
  0
ARC
  5
45B
100
AcDbEntity
  8
0
100
AcDbCircle
 62
7
  6
CONTINUOUS
 10
5.0746206389
 20
2.9647829173
 40
0.0088582677
100
AcDbArc
 50
269.9997403658
 51
314.9997468342
  0
ARC
  5
45C
100
AcDbEntity
  8
0
100
AcDbCircle
 62
7
  6
CONTINUOUS
 10
5.0841953653
 20
2.9743576437
 40
0.0088582677
100
AcDbArc
 50
314.9997000116
 51
360.0
  0
ARC
  5
45D
100
AcDbEntity
  8
0
100
AcDbCircle
 62
7
  6
CONTINUOUS
 10
5.2383336164
 20
2.9647829173
 40
0.0088582677
100
AcDbArc
 50
269.9997403685
 51
314.9997468361
  0
ARC
  5
45E
100
AcDbEntity
  8
0
100
AcDbCircle
 62
7
  6
CONTINUOUS
 10
5.2479083428
 20
2.9743576437
 40
0.0088582677
100
AcDbArc
 50
314.9997000106
 51
360.0
  0
ARC
  5
45F
100
AcDbEntity
  8
0
100
AcDbCircle
 62
7
  6
CONTINUOUS
 10
5.1593256657
 20
2.9743576437
 40
0.0088582677
100
AcDbArc
 50
180.0
 51
225.0002999876
  0
ARC
  5
460
100
AcDbEntity
  8
0
100
AcDbCircle
 62
7
  6
CONTINUOUS
 10
5.1689003921
 20
2.9647829173
 40
0.0088582677
100
AcDbArc
 50
225.0002531657
 51
270.0002596341
  0
ARC
  5
461
100
AcDbEntity
  8
0
100
AcDbCircle
 62
7
  6
CONTINUOUS
 10
5.843490655
 20
1.7879131656
 40
1.2126605701
100
AcDbArc
 50
98.5502013908
 51
98.6829402512
  0
ARC
  5
462
100
AcDbEntity
  8
0
100
AcDbCircle
 62
7
  6
CONTINUOUS
 10
5.6935415378
 20
2.9221576794
 40
0.1778248026
100
AcDbArc
 50
90.0128831749
 51
91.3142004854
  0
ARC
  5
463
100
AcDbEntity
  8
0
100
AcDbCircle
 62
7
  6
CONTINUOUS
 10
5.861267079
 20
2.9315722082
 40
0.1624131516
100
AcDbArc
 50
105.3833711864
 51
106.8089005308
  0
ARC
  5
464
100
AcDbEntity
  8
0
100
AcDbCircle
 62
7
  6
CONTINUOUS
 10
5.6596990213
 20
2.8528558146
 40
0.1501378041
100
AcDbArc
 50
90.0126931918
 51
91.3151988085
  0
ARC
  5
465
100
AcDbEntity
  8
0
100
AcDbCircle
 62
7
  6
CONTINUOUS
 10
5.6936259369
 20
2.9590992924
 40
0.14088324
100
AcDbArc
 50
88.3022527356
 51
90.0505855851
  0
ARC
  5
466
100
AcDbEntity
  8
0
100
AcDbCircle
 62
7
  6
CONTINUOUS
 10
5.6594722775
 20
2.8842184999
 40
0.1187752727
100
AcDbArc
 50
89.4387340827
 51
89.906666253
  0
ARC
  5
467
100
AcDbEntity
  8
0
100
AcDbCircle
 62
7
  6
CONTINUOUS
 10
5.6598610028
 20
2.9150538762
 40
0.0879376107
100
AcDbArc
 50
88.2484158936
 51
89.4951909375
  0
ARC
  5
468
100
AcDbEntity
  8
0
100
AcDbCircle
 62
7
  6
CONTINUOUS
 10
5.5676390938
 20
2.9499056731
 40
0.0295275591
100
AcDbArc
 50
117.2087954148
 51
160.0000832608
  0
ARC
  5
469
100
AcDbEntity
  8
0
100
AcDbCircle
 62
7
  6
CONTINUOUS
 10
5.5793893303
 20
3.1063950826
 40
0.0184342861
100
AcDbArc
 50
125.0754381089
 51
126.5033507928
  0
ARC
  5
46A
100
AcDbEntity
  8
0
100
AcDbCircle
 62
7
  6
CONTINUOUS
 10
5.4770199296
 20
2.8770527581
 40
0.0147637795
100
AcDbArc
 50
93.5839805503
 51
135.0015141204
  0
ARC
  5
46B
100
AcDbEntity
  8
0
100
AcDbCircle
 62
7
  6
CONTINUOUS
 10
5.5047360958
 20
2.9065803171
 40
0.0147637795
100
AcDbArc
 50
269.9997582066
 51
339.9999051805
  0
ARC
  5
46C
100
AcDbEntity
  8
0
100
AcDbCircle
 62
7
  6
CONTINUOUS
 10
5.6746854299
 20
3.0952916929
 40
0.0147637795
100
AcDbArc
 50
314.9975411858
 51
360.0
  0
ARC
  5
46D
100
AcDbEntity
  8
0
100
AcDbCircle
 62
7
  6
CONTINUOUS
 10
5.580197241
 20
3.0952916929
 40
0.0147637795
100
AcDbArc
 50
180.0
 51
225.0024588142
  0
ARC
  5
46E
100
AcDbEntity
  8
0
100
AcDbCircle
 62
7
  6
CONTINUOUS
 10
5.5863125987
 20
3.0891763352
 40
0.0147637795
100
AcDbArc
 50
225.00114329
 51
270.0010067377
  0
ARC
  5
46F
100
AcDbEntity
  8
0
100
AcDbCircle
 62
7
  6
CONTINUOUS
 10
5.6685700722
 20
3.0891763352
 40
0.0147637795
100
AcDbArc
 50
269.9989932623
 51
314.99885671
  0
ARC
  5
470
100
AcDbEntity
  8
0
100
AcDbCircle
 62
7
  6
CONTINUOUS
 10
5.8309269072
 20
3.0952916929
 40
0.0147637795
100
AcDbArc
 50
180.0
 51
225.0024588138
  0
ARC
  5
471
100
AcDbEntity
  8
0
100
AcDbCircle
 62
7
  6
CONTINUOUS
 10
5.8370422649
 20
3.0891763352
 40
0.0147637795
100
AcDbArc
 50
225.0011432895
 51
270.0010067371
  0
ARC
  5
472
100
AcDbEntity
  8
0
100
AcDbCircle
 62
7
  6
CONTINUOUS
 10
5.6227602961
 20
3.0641313167
 40
0.0147637795
100
AcDbArc
 50
180.0
 51
225.0012047948
  0
ARC
  5
473
100
AcDbEntity
  8
0
100
AcDbCircle
 62
7
  6
CONTINUOUS
 10
5.6995319497
 20
3.0641313167
 40
0.0147637795
100
AcDbArc
 50
314.9987952044
 51
360.0
  0
ARC
  5
474
100
AcDbEntity
  8
0
100
AcDbCircle
 62
7
  6
CONTINUOUS
 10
5.6934165919
 20
3.058015959
 40
0.0147637795
100
AcDbArc
 50
269.9989177867
 51
314.998672795
  0
ARC
  5
475
100
AcDbEntity
  8
0
100
AcDbCircle
 62
7
  6
CONTINUOUS
 10
5.6288756538
 20
3.058015959
 40
0.0147637795
100
AcDbArc
 50
225.0013272057
 51
270.0010822143
  0
ARC
  5
476
100
AcDbEntity
  8
0
100
AcDbCircle
 62
7
  6
CONTINUOUS
 10
5.4622168085
 20
3.0641313167
 40
0.0147637795
100
AcDbArc
 50
314.9987952051
 51
360.0
  0
ARC
  5
477
100
AcDbEntity
  8
0
100
AcDbCircle
 62
7
  6
CONTINUOUS
 10
5.8165272975
 20
3.0641313167
 40
0.0147637795
100
AcDbArc
 50
180.0
 51
225.0012047956
  0
ARC
  5
478
100
AcDbEntity
  8
0
100
AcDbCircle
 62
7
  6
CONTINUOUS
 10
5.8226426552
 20
3.058015959
 40
0.0147637795
100
AcDbArc
 50
225.0013272116
 51
270.0010900706
  0
ARC
  5
479
100
AcDbEntity
  8
0
100
AcDbCircle
 62
7
  6
CONTINUOUS
 10
5.7625612034
 20
2.9942023411
 40
0.0088762594
100
AcDbArc
 50
97.8750032511
 51
104.9435334433
  0
ARC
  5
47A
100
AcDbEntity
  8
0
100
AcDbCircle
 62
7
  6
CONTINUOUS
 10
5.5654841753
 20
2.9647829173
 40
0.0088582677
100
AcDbArc
 50
269.9997435846
 51
293.6088848516
  0
ARC
  5
47B
100
AcDbEntity
  8
0
100
AcDbCircle
 62
7
  6
CONTINUOUS
 10
5.6420045231
 20
2.9647829173
 40
0.0088582677
100
AcDbArc
 50
269.9997248139
 51
314.9997468357
  0
ARC
  5
47C
100
AcDbEntity
  8
0
100
AcDbCircle
 62
7
  6
CONTINUOUS
 10
5.6515792495
 20
2.9743576437
 40
0.0088582677
100
AcDbArc
 50
314.9997000108
 51
360.0
  0
ARC
  5
47D
100
AcDbEntity
  8
0
100
AcDbCircle
 62
7
  6
CONTINUOUS
 10
5.5629965724
 20
2.9743576437
 40
0.0088582677
100
AcDbArc
 50
180.0
 51
225.0002999879
  0
ARC
  5
47E
100
AcDbEntity
  8
0
100
AcDbCircle
 62
7
  6
CONTINUOUS
 10
5.5725712988
 20
2.9647829173
 40
0.0088582677
100
AcDbArc
 50
225.0002531656
 51
270.0002751881
  0
ARC
  5
47F
100
AcDbEntity
  8
0
100
AcDbCircle
 62
7
  6
CONTINUOUS
 10
5.7080099329
 20
2.9647829173
 40
0.0088582677
100
AcDbArc
 50
269.9997678089
 51
314.9997468348
  0
ARC
  5
480
100
AcDbEntity
  8
0
100
AcDbCircle
 62
7
  6
CONTINUOUS
 10
5.7175846593
 20
2.9743576437
 40
0.0088582677
100
AcDbArc
 50
314.9997000109
 51
360.0
  0
ARC
  5
481
100
AcDbEntity
  8
0
100
AcDbCircle
 62
7
  6
CONTINUOUS
 10
5.7353304603
 20
2.9647829173
 40
0.0088582677
100
AcDbArc
 50
269.9999536688
 51
314.9997468346
  0
ARC
  5
482
100
AcDbEntity
  8
0
100
AcDbCircle
 62
7
  6
CONTINUOUS
 10
5.7449051867
 20
2.9743576437
 40
0.0088582677
100
AcDbArc
 50
314.9997000108
 51
360.0
  0
ARC
  5
483
100
AcDbEntity
  8
0
100
AcDbCircle
 62
7
  6
CONTINUOUS
 10
5.7625632652
 20
2.9942267057
 40
0.0088532738
100
AcDbArc
 50
104.9970864141
 51
171.1767976653
  0
ARC
  5
484
100
AcDbEntity
  8
0
100
AcDbCircle
 62
7
  6
CONTINUOUS
 10
5.7624831565
 20
2.9942300088
 40
0.0087736941
100
AcDbArc
 50
171.1178702275
 51
180.0494100616
  0
ARC
  5
485
100
AcDbEntity
  8
0
100
AcDbCircle
 62
7
  6
CONTINUOUS
 10
6.2695493626
 20
-1.3382656963
 40
4.3709874628
100
AcDbArc
 50
96.8318168961
 51
97.1149799288
  0
ARC
  5
486
100
AcDbEntity
  8
0
100
AcDbCircle
 62
7
  6
CONTINUOUS
 10
5.8803826554
 20
1.2889214888
 40
1.7210662977
100
AcDbArc
 50
97.1055539206
 51
97.3266792877
  0
ARC
  5
487
100
AcDbEntity
  8
0
100
AcDbCircle
 62
7
  6
CONTINUOUS
 10
6.3375412317
 20
2.4383966589
 40
0.7047168689
100
AcDbArc
 50
104.232946669
 51
105.2435696443
  0
ARC
  5
488
100
AcDbEntity
  8
0
100
AcDbCircle
 62
7
  6
CONTINUOUS
 10
6.1078751668
 20
2.4754739048
 40
0.628693165
100
AcDbArc
 50
99.0882027458
 51
99.4546351358
  0
ARC
  5
489
100
AcDbEntity
  8
0
100
AcDbCircle
 62
7
  6
CONTINUOUS
 10
6.67078819
 20
3.4507232866
 40
0.1875
100
AcDbArc
 50
218.3789847992
 51
247.1367765694
  0
ARC
  5
48A
100
AcDbEntity
  8
0
100
AcDbCircle
 62
7
  6
CONTINUOUS
 10
6.5746263748
 20
3.2226681281
 40
0.06
100
AcDbArc
 50
2.2714508417
 51
67.1367765694
  0
ARC
  5
48B
100
AcDbEntity
  8
0
100
AcDbCircle
 62
7
  6
CONTINUOUS
 10
6.2738850329
 20
3.0891763352
 40
0.0147637795
100
AcDbArc
 50
269.998993262
 51
314.9988567098
  0
ARC
  5
48C
100
AcDbEntity
  8
0
100
AcDbCircle
 62
7
  6
CONTINUOUS
 10
6.2800003906
 20
3.0952916929
 40
0.0147637795
100
AcDbArc
 50
314.9975411863
 51
360.0
  0
ARC
  5
48D
100
AcDbEntity
  8
0
100
AcDbCircle
 62
7
  6
CONTINUOUS
 10
5.9254150961
 20
3.0952916929
 40
0.0147637795
100
AcDbArc
 50
314.9975411862
 51
360.0
  0
ARC
  5
48E
100
AcDbEntity
  8
0
100
AcDbCircle
 62
7
  6
CONTINUOUS
 10
5.9192997384
 20
3.0891763352
 40
0.0147637795
100
AcDbArc
 50
269.9989932614
 51
314.9988567094
  0
ARC
  5
48F
100
AcDbEntity
  8
0
100
AcDbCircle
 62
7
  6
CONTINUOUS
 10
5.8871835933
 20
3.058015959
 40
0.0147637795
100
AcDbArc
 50
269.9989099294
 51
314.9986727884
  0
ARC
  5
490
100
AcDbEntity
  8
0
100
AcDbCircle
 62
7
  6
CONTINUOUS
 10
5.893298951
 20
3.0641313167
 40
0.0147637795
100
AcDbArc
 50
314.9987952044
 51
360.0
  0
ARC
  5
491
100
AcDbEntity
  8
0
100
AcDbCircle
 62
7
  6
CONTINUOUS
 10
6.2387491763
 20
3.0952916929
 40
0.0147637795
100
AcDbArc
 50
314.9975411863
 51
360.0
  0
ARC
  5
492
100
AcDbEntity
  8
0
100
AcDbCircle
 62
7
  6
CONTINUOUS
 10
6.1442609874
 20
3.0952916929
 40
0.0147637795
100
AcDbArc
 50
206.1249085247
 51
225.0024588147
  0
ARC
  5
493
100
AcDbEntity
  8
0
100
AcDbCircle
 62
7
  6
CONTINUOUS
 10
6.1503763451
 20
3.0891763352
 40
0.0147637795
100
AcDbArc
 50
225.0011432896
 51
270.0008463776
  0
ARC
  5
494
100
AcDbEntity
  8
0
100
AcDbCircle
 62
7
  6
CONTINUOUS
 10
6.2326338186
 20
3.0891763352
 40
0.0147637795
100
AcDbArc
 50
269.9991536212
 51
314.9988567095
  0
ARC
  5
495
100
AcDbEntity
  8
0
100
AcDbCircle
 62
7
  6
CONTINUOUS
 10
5.9535412581
 20
3.0641313167
 40
0.0147637795
100
AcDbArc
 50
180.0
 51
225.0012049649
  0
ARC
  5
496
100
AcDbEntity
  8
0
100
AcDbCircle
 62
7
  6
CONTINUOUS
 10
6.0303129117
 20
3.0641313167
 40
0.0147637795
100
AcDbArc
 50
314.9987950343
 51
360.0
  0
ARC
  5
497
100
AcDbEntity
  8
0
100
AcDbCircle
 62
7
  6
CONTINUOUS
 10
6.0241975539
 20
3.058015959
 40
0.0147637795
100
AcDbArc
 50
269.9988674531
 51
314.9986727936
  0
ARC
  5
498
100
AcDbEntity
  8
0
100
AcDbCircle
 62
7
  6
CONTINUOUS
 10
5.9596566158
 20
3.058015959
 40
0.0147637795
100
AcDbArc
 50
225.0013272064
 51
270.0011325469
  0
ARC
  5
499
100
AcDbEntity
  8
0
100
AcDbCircle
 62
7
  6
CONTINUOUS
 10
6.0951211989
 20
3.058015959
 40
0.0147637795
100
AcDbArc
 50
269.9994703128
 51
314.998672795
  0
ARC
  5
49A
100
AcDbEntity
  8
0
100
AcDbCircle
 62
7
  6
CONTINUOUS
 10
6.1012365566
 20
3.0641313167
 40
0.0147637795
100
AcDbArc
 50
314.9987952045
 51
360.0
  0
ARC
  5
49B
100
AcDbEntity
  8
0
100
AcDbCircle
 62
7
  6
CONTINUOUS
 10
6.0305802607
 20
3.058015959
 40
0.0147637795
100
AcDbArc
 50
257.4937962893
 51
270.0005296873
  0
ARC
  5
49C
100
AcDbEntity
  8
0
100
AcDbCircle
 62
7
  6
CONTINUOUS
 10
6.1178067357
 20
3.0952916929
 40
0.0147637795
100
AcDbArc
 50
314.9989767129
 51
360.0
  0
ARC
  5
49D
100
AcDbEntity
  8
0
100
AcDbCircle
 62
7
  6
CONTINUOUS
 10
6.0233185467
 20
3.0952916929
 40
0.0147637795
100
AcDbArc
 50
180.0
 51
225.0010232871
  0
ARC
  5
49E
100
AcDbEntity
  8
0
100
AcDbCircle
 62
7
  6
CONTINUOUS
 10
6.0294339044
 20
3.0891763352
 40
0.0147637795
100
AcDbArc
 50
225.0010369649
 51
270.000965867
  0
ARC
  5
49F
100
AcDbEntity
  8
0
100
AcDbCircle
 62
7
  6
CONTINUOUS
 10
6.111691378
 20
3.0891763352
 40
0.0147637795
100
AcDbArc
 50
269.999034133
 51
314.9989630351
  0
ARC
  5
4A0
100
AcDbEntity
  8
0
100
AcDbCircle
 62
7
  6
CONTINUOUS
 10
6.3469405519
 20
3.1273870671
 40
0.0059055118
100
AcDbArc
 50
270.0
 51
284.2899403573
  0
ARC
  5
4A1
100
AcDbEntity
  8
0
100
AcDbCircle
 62
7
  6
CONTINUOUS
 10
5.9677099428
 20
3.0452665473
 40
0.0059055118
100
AcDbArc
 50
280.1465387618
 51
340.0239308105
  0
ARC
  5
4A2
100
AcDbEntity
  8
0
100
AcDbCircle
 62
7
  6
CONTINUOUS
 10
5.0221263748
 20
4.7940402881
 40
1.9192913386
100
AcDbArc
 50
264.5188586967
 51
265.9005806951
  0
ARC
  5
4A3
100
AcDbEntity
  8
0
100
AcDbCircle
 62
7
  6
CONTINUOUS
 10
5.0221263748
 20
4.7940402881
 40
1.9192913386
100
AcDbArc
 50
266.6527317001
 51
268.3189505182
  0
ARC
  5
4A4
100
AcDbEntity
  8
0
100
AcDbCircle
 62
7
  6
CONTINUOUS
 10
5.0221263748
 20
4.7940402881
 40
1.9192913386
100
AcDbArc
 50
268.6729177583
 51
273.6363791601
  0
ARC
  5
4A5
100
AcDbEntity
  8
0
100
AcDbCircle
 62
7
  6
CONTINUOUS
 10
5.0221263748
 20
5.4310101493
 40
0.47625
100
AcDbArc
 50
306.2011498373
 51
233.7988501627
  0
ARC
  5
4A6
100
AcDbEntity
  8
0
100
AcDbCircle
 62
7
  6
CONTINUOUS
 10
5.0221263748
 20
5.4310101493
 40
0.44625
100
AcDbArc
 50
309.0864020873
 51
230.9135979127
  0
ARC
  5
4A7
100
AcDbEntity
  8
0
100
AcDbCircle
 62
7
  6
CONTINUOUS
 10
5.0221263748
 20
5.4310101493
 40
0.435463899
100
AcDbArc
 50
310.2516903305
 51
229.7483077966
  0
ARC
  5
4A8
100
AcDbEntity
  8
0
100
AcDbCircle
 62
7
  6
CONTINUOUS
 10
5.0221263748
 20
5.4310101493
 40
0.4004923307
100
AcDbArc
 50
314.6194912598
 51
225.3805076964
  0
ARC
  5
4A9
100
AcDbEntity
  8
0
100
AcDbCircle
 62
7
  6
CONTINUOUS
 10
5.0221263748
 20
5.4310101493
 40
0.2925323362
100
AcDbArc
 50
344.1545566313
 51
195.845444294
  0
ARC
  5
4AA
100
AcDbEntity
  8
0
100
AcDbCircle
 62
7
  6
CONTINUOUS
 10
5.0221263748
 20
5.4310101493
 40
0.28125
100
AcDbArc
 50
0.0
 51
180.0
  0
ARC
  5
4AB
100
AcDbEntity
  8
0
100
AcDbCircle
 62
7
  6
CONTINUOUS
 10
5.3101263748
 20
4.4151681281
 40
0.075
100
AcDbArc
 50
0.0
 51
45.9268242885
  0
ARC
  5
4AC
100
AcDbEntity
  8
0
100
AcDbCircle
 62
7
  6
CONTINUOUS
 10
5.3483763748
 20
4.6208011134
 40
0.045
100
AcDbArc
 50
180.0
 51
228.1897285501
  0
ARC
  5
4AD
100
AcDbEntity
  8
0
100
AcDbCircle
 62
7
  6
CONTINUOUS
 10
5.3401263748
 20
4.4001681281
 40
0.045
100
AcDbArc
 50
270.0
 51
360.0
  0
ARC
  5
4AE
100
AcDbEntity
  8
0
100
AcDbCircle
 62
7
  6
CONTINUOUS
 10
5.3935955565
 20
4.5013823713
 40
0.045
100
AcDbArc
 50
198.0000000081
 51
225.9268243022
  0
ARC
  5
4AF
100
AcDbEntity
  8
0
100
AcDbCircle
 62
7
  6
CONTINUOUS
 10
5.0221367497
 20
8.3286696512
 40
5.3768295673
100
AcDbArc
 50
277.8953663702
 51
279.3230697234
  0
ARC
  5
4B0
100
AcDbEntity
  8
0
100
AcDbCircle
 62
7
  6
CONTINUOUS
 10
5.0221367497
 20
8.3286961336
 40
5.3732862602
100
AcDbArc
 50
284.2897268228
 51
284.9326934147
  0
ARC
  5
4B1
100
AcDbEntity
  8
0
100
AcDbCircle
 62
7
  6
CONTINUOUS
 10
5.0221367497
 20
8.3286961336
 40
5.3732862602
100
AcDbArc
 50
279.4251203928
 51
280.1467817724
  0
ARC
  5
4B2
100
AcDbEntity
  8
0
100
AcDbCircle
 62
7
  6
CONTINUOUS
 10
6.5327626727
 20
5.2541638883
 40
1.425
100
AcDbArc
 50
219.1146502196
 51
257.5422489206
  0
ARC
  5
4B3
100
AcDbEntity
  8
0
100
AcDbCircle
 62
7
  6
CONTINUOUS
 10
6.7883763748
 20
3.5438523304
 40
0.3375
100
AcDbArc
 50
180.0
 51
218.3789847992
  0
ARC
  5
4B4
100
AcDbEntity
  8
0
100
AcDbCircle
 62
7
  6
CONTINUOUS
 10
6.3946263748
 20
3.681138951
 40
0.05625
100
AcDbArc
 50
0.0
 51
66.0
  0
ARC
  5
4B5
100
AcDbEntity
  8
0
100
AcDbCircle
 62
7
  6
CONTINUOUS
 10
6.2221263748
 20
3.8480681979
 40
0.015
100
AcDbArc
 50
0.0
 51
77.5422489206
  0
ARC
  5
4B6
100
AcDbEntity
  8
0
100
AcDbCircle
 62
7
  6
CONTINUOUS
 10
6.2521263748
 20
3.8225768735
 40
0.015
100
AcDbArc
 50
180.0
 51
246.0
  0
SPLINE
  5
4B7
100
AcDbEntity
  8
0
100
AcDbSpline
 62
7
  6
CONTINUOUS
 70
0
 71
3
 72
11
 73
7
 74
0
 42
0.0000001
 43
0.0000001
 44
0.0000000001
 40
0.0
 40
0.0
 40
0.0
 40
0.0
 40
0.2639613348
 40
0.5280602934
 40
0.7779178201
 40
1.0
 40
1.0
 40
1.0
 40
1.0
 10
6.0046018489
 20
3.0956268839
 30
0.0
 10
6.000394915
 20
3.0949264956
 30
0.0
 10
5.9919922587
 20
3.0934439829
 30
0.0
 10
5.9796530082
 20
3.0910492881
 30
0.0
 10
5.9680204569
 20
3.0885748066
 30
0.0
 10
5.9605962401
 20
3.0868315236
 30
0.0
 10
5.9571163802
 20
3.0859564763
 30
0.0
  0
SPLINE
  5
4B8
100
AcDbEntity
  8
0
100
AcDbSpline
 62
7
  6
CONTINUOUS
 70
0
 71
3
 72
17
 73
13
 74
0
 42
0.0000001
 43
0.0000001
 44
0.0000000001
 40
0.0
 40
0.0
 40
0.0
 40
0.0
 40
0.1925985914
 40
0.3684393254
 40
0.5260472774
 40
0.6639801359
 40
0.7810920479
 40
0.876514544
 40
0.9158625317
 40
0.9495396938
 40
0.9775451278
 40
1.0
 40
1.0
 40
1.0
 40
1.0
 10
5.9571163802
 20
3.0859564763
 30
0.0
 10
5.9559339046
 20
3.0856591304
 30
0.0
 10
5.953674979
 20
3.0850776904
 30
0.0
 10
5.9504612539
 20
3.0842039603
 30
0.0
 10
5.9475946849
 20
3.0833738718
 30
0.0
 10
5.9451008187
 20
3.0825949417
 30
0.0
 10
5.9430022006
 20
3.0818740684
 30
0.0
 10
5.9415146592
 20
3.0812972401
 30
0.0
 10
5.9405411199
 20
3.0808614766
 30
0.0
 10
5.9399691457
 20
3.0805744906
 30
0.0
 10
5.9395083985
 20
3.0803066287
 30
0.0
 10
5.9392469347
 20
3.0801214458
 30
0.0
 10
5.9391380759
 20
3.0800300239
 30
0.0
  0
LINE
  5
4B9
100
AcDbEntity
  8
0
100
AcDbLine
 62
7
  6
CONTINUOUS
 10
5.9391380759
 20
3.0800300239
 11
5.93878188
 21
3.0795435554
  0
SPLINE
  5
4BA
100
AcDbEntity
  8
0
100
AcDbSpline
 62
7
  6
CONTINUOUS
 70
0
 71
3
 72
8
 73
4
 74
0
 42
0.0000001
 43
0.0000001
 44
0.0000000001
 40
0.0
 40
0.0
 40
0.0
 40
0.0
 40
1.0
 40
1.0
 40
1.0
 40
1.0
 10
5.93878188
 20
3.0795435554
 30
0.0
 10
5.9387789519
 20
3.0795258734
 30
0.0
 10
5.9387773618
 20
3.0795079023
 30
0.0
 10
5.9387773345
 20
3.0794899795
 30
0.0
  0
SPLINE
  5
4BB
100
AcDbEntity
  8
0
100
AcDbSpline
 62
7
  6
CONTINUOUS
 70
0
 71
3
 72
12
 73
8
 74
0
 42
0.0000001
 43
0.0000001
 44
0.0000000001
 40
0.0
 40
0.0
 40
0.0
 40
0.0
 40
0.3220391237
 40
0.5998346313
 40
0.827496976
 40
0.920945346
 40
1.0
 40
1.0
 40
1.0
 40
1.0
 10
6.152255005
 20
3.11831936
 30
0.0
 10
6.1501104469
 20
3.1177325494
 30
0.0
 10
6.1461223971
 20
3.116615555
 30
0.0
 10
6.1406473392
 20
3.1149827268
 30
0.0
 10
6.1367121214
 20
3.1137107016
 30
0.0
 10
6.1341095415
 20
3.112783053
 30
0.0
 10
6.1329983493
 20
3.1123537521
 30
0.0
 10
6.1324934432
 20
3.1121464609
 30
0.0
  0
SPLINE
  5
4BC
100
AcDbEntity
  8
0
100
AcDbSpline
 62
7
  6
CONTINUOUS
 70
0
 71
3
 72
16
 73
12
 74
0
 42
0.0000001
 43
0.0000001
 44
0.0000000001
 40
0.0
 40
0.0
 40
0.0
 40
0.0
 40
0.3723988794
 40
0.529317824
 40
0.6656459037
 40
0.7807551244
 40
0.874275881
 40
0.9130587149
 40
0.9467133583
 40
0.9755285454
 40
1.0
 40
1.0
 40
1.0
 40
1.0
 10
5.8143003614
 20
3.0870461908
 30
0.0
 10
5.8126555664
 20
3.0865474376
 30
0.0
 10
5.8103292089
 20
3.0857964747
 30
0.0
 10
5.8074547793
 20
3.0847105519
 30
0.0
 10
5.805719365
 20
3.0839733794
 30
0.0
 10
5.804289502
 20
3.0832714425
 30
0.0
 10
5.8033047429
 20
3.082688607
 30
0.0
 10
5.802687524
 20
3.0822339311
 30
0.0
 10
5.8023355814
 20
3.0819252901
 30
0.0
 10
5.8020650539
 20
3.081627633
 30
0.0
 10
5.8019292461
 20
3.0814204428
 30
0.0
 10
5.8018789284
 20
3.0813193263
 30
0.0
  0
LINE
  5
4BD
100
AcDbEntity
  8
0
100
AcDbLine
 62
7
  6
CONTINUOUS
 10
5.8018789284
 20
3.0813193263
 11
5.8017641457
 21
3.0808784585
  0
SPLINE
  5
4BE
100
AcDbEntity
  8
0
100
AcDbSpline
 62
7
  6
CONTINUOUS
 70
0
 71
3
 72
11
 73
7
 74
0
 42
0.0000001
 43
0.0000001
 44
0.0000000001
 40
0.0
 40
0.0
 40
0.0
 40
0.0
 40
0.2546807877
 40
0.5101777919
 40
0.760526277
 40
1.0
 40
1.0
 40
1.0
 40
1.0
 10
5.4335698866
 20
3.0997485244
 30
0.0
 10
5.4308063567
 20
3.0996310171
 30
0.0
 10
5.4252736727
 20
3.0993124866
 30
0.0
 10
5.4170432677
 20
3.0986025627
 30
0.0
 10
5.4090006276
 20
3.0976760347
 30
0.0
 10
5.4037356649
 20
3.0969062765
 30
0.0
 10
5.4011690895
 20
3.0964853271
 30
0.0
  0
SPLINE
  5
4BF
100
AcDbEntity
  8
0
100
AcDbSpline
 62
7
  6
CONTINUOUS
 70
0
 71
3
 72
11
 73
7
 74
0
 42
0.0000001
 43
0.0000001
 44
0.0000000001
 40
0.0
 40
0.0
 40
0.0
 40
0.0
 40
0.2741987848
 40
0.5351765419
 40
0.7782813469
 40
1.0
 40
1.0
 40
1.0
 40
1.0
 10
4.8727322153
 20
3.099923323
 30
0.0
 10
4.8705220499
 20
3.0998750631
 30
0.0
 10
4.8662092794
 20
3.099723027
 30
0.0
 10
4.8599465276
 20
3.0993186366
 30
0.0
 10
4.854121519
 20
3.0987494001
 30
0.0
 10
4.8504068368
 20
3.0982437462
 30
0.0
 10
4.8486421006
 20
3.0979588928
 30
0.0
  0
SPLINE
  5
4C0
100
AcDbEntity
  8
0
100
AcDbSpline
 62
7
  6
CONTINUOUS
 70
0
 71
3
 72
16
 73
12
 74
0
 42
0.0000001
 43
0.0000001
 44
0.0000000001
 40
0.0
 40
0.0
 40
0.0
 40
0.0
 40
0.1905283406
 40
0.363292117
 40
0.5172802732
 40
0.6516475634
 40
0.7661333225
 40
0.8611564042
 40
0.9017641315
 40
0.9381171214
 40
1.0
 40
1.0
 40
1.0
 40
1.0
 10
4.8486421006
 20
3.0979588928
 30
0.0
 10
4.8475054272
 20
3.0977754176
 30
0.0
 10
4.8453434117
 20
3.0973907097
 30
0.0
 10
4.8422889111
 20
3.0967214992
 30
0.0
 10
4.8395976189
 20
3.095993921
 30
0.0
 10
4.8372894307
 20
3.0952133039
 30
0.0
 10
4.8353801711
 20
3.0943861723
 30
0.0
 10
4.8340650866
 20
3.0936297166
 30
0.0
 10
4.8332404388
 20
3.0929934215
 30
0.0
 10
4.8326356304
 20
3.0924120349
 30
0.0
 10
4.8322866495
 20
3.091913876
 30
0.0
 10
4.8321426134
 20
3.0915687616
 30
0.0
  0
LINE
  5
4C1
100
AcDbEntity
  8
0
100
AcDbLine
 62
7
  6
CONTINUOUS
 10
4.8321426134
 20
3.0915687616
 11
4.8319641005
 21
3.0907084307
  0
SPLINE
  5
4C2
100
AcDbEntity
  8
0
100
AcDbSpline
 62
7
  6
CONTINUOUS
 70
0
 71
3
 72
11
 73
7
 74
0
 42
0.0000001
 43
0.0000001
 44
0.0000000001
 40
0.0
 40
0.0
 40
0.0
 40
0.0
 40
0.2931138867
 40
0.5595775186
 40
0.7961300656
 40
1.0
 40
1.0
 40
1.0
 40
1.0
 10
4.3507511965
 20
3.0999824775
 30
0.0
 10
4.3493494885
 20
3.0999824775
 30
0.0
 10
4.3466733227
 20
3.0999479314
 30
0.0
 10
4.3428690571
 20
3.0997803138
 30
0.0
 10
4.3394991361
 20
3.099503391
 30
0.0
 10
4.3374096702
 20
3.0992270578
 30
0.0
 10
4.3364485243
 20
3.0990636836
 30
0.0
  0
SPLINE
  5
4C3
100
AcDbEntity
  8
0
100
AcDbSpline
 62
7
  6
CONTINUOUS
 70
0
 71
3
 72
13
 73
9
 74
0
 42
0.0000001
 43
0.0000001
 44
0.0000000001
 40
0.0
 40
0.0
 40
0.0
 40
0.0
 40
0.3518263971
 40
0.5011651446
 40
0.6328683068
 40
0.7473418169
 40
0.845556176
 40
1.0
 40
1.0
 40
1.0
 40
1.0
 10
4.3364485243
 20
3.0990636836
 30
0.0
 10
4.3356433679
 20
3.0989268242
 30
0.0
 10
4.3345008704
 20
3.0986974626
 30
0.0
 10
4.3330873549
 20
3.0982939349
 30
0.0
 10
4.3322223678
 20
3.0979848247
 30
0.0
 10
4.331492931
 20
3.0976516099
 30
0.0
 10
4.3307641797
 20
3.0972142813
 30
0.0
 10
4.3303173866
 20
3.0967979897
 30
0.0
 10
4.3301419582
 20
3.0964853271
 30
0.0
  0
LINE
  5
4C4
100
AcDbEntity
  8
0
100
AcDbLine
 62
7
  6
CONTINUOUS
 10
4.3301419582
 20
3.0964853271
 11
4.3299572196
 21
3.0958059435
  0
SPLINE
  5
4C5
100
AcDbEntity
  8
0
100
AcDbSpline
 62
7
  6
CONTINUOUS
 70
0
 71
3
 72
11
 73
7
 74
0
 42
0.0000001
 43
0.0000001
 44
0.0000000001
 40
0.0
 40
0.0
 40
0.0
 40
0.0
 40
0.2710429664
 40
0.531885548
 40
0.7766584317
 40
1.0
 40
1.0
 40
1.0
 40
1.0
 10
5.1550249374
 20
3.0997485244
 30
0.0
 10
5.1522791818
 20
3.0996334153
 30
0.0
 10
5.146894061
 20
3.0993247796
 30
0.0
 10
5.1390494615
 20
3.098620151
 30
0.0
 10
5.1317143127
 20
3.0976999888
 30
0.0
 10
5.1270309654
 20
3.0969173031
 30
0.0
 10
5.124808037
 20
3.0964853271
 30
0.0
  0
SPLINE
  5
4C6
100
AcDbEntity
  8
0
100
AcDbSpline
 62
7
  6
CONTINUOUS
 70
0
 71
3
 72
19
 73
15
 74
0
 42
0.0000001
 43
0.0000001
 44
0.0000000001
 40
0.0
 40
0.0
 40
0.0
 40
0.0
 40
0.2004213845
 40
0.3804578301
 40
0.5386940067
 40
0.6740207724
 40
0.7328978717
 40
0.7859476501
 40
0.8332944183
 40
0.8751626907
 40
0.9119350989
 40
0.9442437311
 40
0.9731086109
 40
1.0
 40
1.0
 40
1.0
 40
1.0
 10
5.124808037
 20
3.0964853271
 30
0.0
 10
5.1233976223
 20
3.0962112448
 30
0.0
 10
5.1207286343
 20
3.0956457751
 30
0.0
 10
5.1169871001
 20
3.0946832791
 30
0.0
 10
5.1137470332
 20
3.0936630944
 30
0.0
 10
5.1113919172
 20
3.0927385693
 30
0.0
 10
5.1097962688
 20
3.0919647076
 30
0.0
 10
5.1088004287
 20
3.0914043415
 30
0.0
 10
5.1079506238
 20
3.090838296
 30
0.0
 10
5.1072484657
 20
3.0902674748
 30
0.0
 10
5.1066954556
 20
3.0896922788
 30
0.0
 10
5.1062939062
 20
3.0891114055
 30
0.0
 10
5.1060482207
 20
3.0885239709
 30
0.0
 10
5.1059918098
 20
3.0881225288
 30
0.0
 10
5.1059919276
 20
3.0879297475
 30
0.0
  0
LINE
  5
4C7
100
AcDbEntity
  8
0
100
AcDbLine
 62
7
  6
CONTINUOUS
 10
4.5950863289
 20
3.099923323
 11
4.5859658929
 21
3.0994611473
  0
SPLINE
  5
4C8
100
AcDbEntity
  8
0
100
AcDbSpline
 62
7
  6
CONTINUOUS
 70
0
 71
3
 72
19
 73
15
 74
0
 42
0.0000001
 43
0.0000001
 44
0.0000000001
 40
0.0
 40
0.0
 40
0.0
 40
0.0
 40
0.2054126902
 40
0.3889267076
 40
0.5489839375
 40
0.6844217096
 40
0.7428204217
 40
0.7950348183
 40
0.8411838067
 40
0.8815123314
 40
0.916509473
 40
0.9470066672
 40
0.9742577249
 40
1.0
 40
1.0
 40
1.0
 40
1.0
 10
4.5859658929
 20
3.0994611473
 30
0.0
 10
4.5845647286
 20
3.0993472494
 30
0.0
 10
4.5819149637
 20
3.099088196
 30
0.0
 10
4.5781925775
 20
3.0985686683
 30
0.0
 10
4.5749723287
 20
3.0979464062
 30
0.0
 10
4.5726288132
 20
3.0973215932
 30
0.0
 10
4.5710401479
 20
3.0967607184
 30
0.0
 10
4.5700522333
 20
3.0963401399
 30
0.0
 10
4.5692099403
 20
3.0958998615
 30
0.0
 10
4.5685150619
 20
3.0954400312
 30
0.0
 10
4.5679686536
 20
3.0949603501
 30
0.0
 10
4.5675714525
 20
3.0944594892
 30
0.0
 10
4.567327641
 20
3.0939358228
 30
0.0
 10
4.5672728161
 20
3.0935711052
 30
0.0
 10
4.5672726406
 20
3.0933949325
 30
0.0
  0
SPLINE
  5
4C9
100
AcDbEntity
  8
0
100
AcDbSpline
 62
7
  6
CONTINUOUS
 70
0
 71
3
 72
11
 73
7
 74
0
 42
0.0000001
 43
0.0000001
 44
0.0000000001
 40
0.0
 40
0.0
 40
0.0
 40
0.0
 40
0.305867677
 40
0.5750961612
 40
0.8065686893
 40
1.0
 40
1.0
 40
1.0
 40
1.0
 10
5.8267359988
 20
3.1214816312
 30
0.0
 10
5.8258223493
 20
3.1211084127
 30
0.0
 10
5.8241164517
 20
3.120376644
 30
0.0
 10
5.8217742346
 20
3.1192389801
 30
0.0
 10
5.8198226616
 20
3.1181370513
 30
0.0
 10
5.8186873522
 20
3.1173627375
 30
0.0
 10
5.818197432
 20
3.116976045
 30
0.0
  0
SPLINE
  5
4CA
100
AcDbEntity
  8
0
100
AcDbSpline
 62
7
  6
CONTINUOUS
 70
0
 71
3
 72
11
 73
7
 74
0
 42
0.0000001
 43
0.0000001
 44
0.0000000001
 40
0.0
 40
0.0
 40
0.0
 40
0.0
 40
0.3225526874
 40
0.5909641175
 40
0.8121689006
 40
1.0
 40
1.0
 40
1.0
 40
1.0
 10
5.818197432
 20
3.116976045
 30
0.0
 10
5.8178884669
 20
3.1167321799
 30
0.0
 10
5.8173412718
 20
3.1162597313
 30
0.0
 10
5.8166846932
 20
3.1155113737
 30
0.0
 10
5.816271846
 20
3.1147861907
 30
0.0
 10
5.8161657223
 20
3.1142856511
 30
0.0
 10
5.8161657979
 20
3.1140564408
 30
0.0
  0
SPLINE
  5
4CB
100
AcDbEntity
  8
0
100
AcDbSpline
 62
7
  6
CONTINUOUS
 70
0
 71
3
 72
11
 73
7
 74
0
 42
0.0000001
 43
0.0000001
 44
0.0000000001
 40
0.0
 40
0.0
 40
0.0
 40
0.0
 40
0.3197538902
 40
0.586843692
 40
0.8087700224
 40
1.0
 40
1.0
 40
1.0
 40
1.0
 10
5.5684233302
 20
3.1212129686
 30
0.0
 10
5.5679695107
 20
3.1208768578
 30
0.0
 10
5.5671643596
 20
3.1202195323
 30
0.0
 10
5.5661977539
 20
3.1191581358
 30
0.0
 10
5.5655886536
 20
3.1181080755
 30
0.0
 10
5.5654343379
 20
3.1173757754
 30
0.0
 10
5.5654340853
 20
3.1170380352
 30
0.0
  0
LINE
  5
4CC
100
AcDbEntity
  8
0
100
AcDbLine
 62
7
  6
CONTINUOUS
 10
5.2736013414
 20
3.1214816312
 11
5.2734531133
 21
3.1205132104
  0
SPLINE
  5
4CD
100
AcDbEntity
  8
0
100
AcDbSpline
 62
7
  6
CONTINUOUS
 70
0
 71
3
 72
11
 73
7
 74
0
 42
0.0000001
 43
0.0000001
 44
0.0000000001
 40
0.0
 40
0.0
 40
0.0
 40
0.0
 40
0.2521851259
 40
0.5025725327
 40
0.7516454489
 40
1.0
 40
1.0
 40
1.0
 40
1.0
 10
3.6640177805
 20
2.9176998516
 30
0.0
 10
3.6751731565
 20
2.9117967848
 30
0.0
 10
3.698117506
 20
2.9013239872
 30
0.0
 10
3.7340487035
 20
2.8898899477
 30
0.0
 10
3.7709200626
 20
2.8829616852
 30
0.0
 10
3.7958417104
 20
2.881413413
 30
0.0
 10
3.8082709631
 20
2.8814142288
 30
0.0
  0
SPLINE
  5
4CE
100
AcDbEntity
  8
0
100
AcDbSpline
 62
7
  6
CONTINUOUS
 70
0
 71
3
 72
18
 73
14
 74
0
 42
0.0000001
 43
0.0000001
 44
0.0000000001
 40
0.0
 40
0.0
 40
0.0
 40
0.0
 40
0.1295549719
 40
0.2575354208
 40
0.3840250318
 40
0.4467659519
 40
0.5091755753
 40
0.5712777318
 40
0.6330994912
 40
0.6946735826
 40
0.7560360966
 40
0.8782085101
 40
1.0
 40
1.0
 40
1.0
 40
1.0
 10
4.0855826858
 20
3.0325774065
 30
0.0
 10
4.0777834612
 20
3.0210451846
 30
0.0
 10
4.0610147919
 20
2.9989445838
 30
0.0
 10
4.0324807734
 20
2.9690166109
 30
0.0
 10
4.0061904473
 20
2.947182303
 30
0.0
 10
3.9839124015
 20
2.9318315334
 30
0.0
 10
3.9666685413
 20
2.9214355427
 30
0.0
 10
3.9489061265
 20
2.9121653429
 30
0.0
 10
3.9306839934
 20
2.904052692
 30
0.0
 10
3.9120600137
 20
2.8971328675
 30
0.0
 10
3.886821317
 20
2.8895459506
 30
0.0
 10
3.854546
 20
2.8831373076
 30
0.0
 10
3.828299649
 20
2.8814187402
 30
0.0
 10
3.8152119832
 20
2.8814158017
 30
0.0
  0
SPLINE
  5
4CF
100
AcDbEntity
  8
0
100
AcDbSpline
 62
7
  6
CONTINUOUS
 70
0
 71
3
 72
29
 73
25
 74
0
 42
0.0000001
 43
0.0000001
 44
0.0000000001
 40
0.0
 40
0.0
 40
0.0
 40
0.0
 40
0.0614324626
 40
0.0922447228
 40
0.123094964
 40
0.1539917828
 40
0.184948646
 40
0.2159716494
 40
0.2470655826
 40
0.2782392012
 40
0.3094948392
 40
0.3408293512
 40
0.3722407147
 40
0.4352347744
 40
0.4984478623
 40
0.5617746868
 40
0.6250902239
 40
0.6882717986
 40
0.7512187266
 40
0.7826002515
 40
0.8139013951
 40
0.8762220606
 40
0.9382717757
 40
1.0
 40
1.0
 40
1.0
 40
1.0
 10
3.6872343957
 20
3.1116792122
 30
0.0
 10
3.6822327628
 20
3.1105998764
 30
0.0
 10
3.6748424456
 20
3.1083301789
 30
0.0
 10
3.6654842744
 20
3.1041230741
 30
0.0
 10
3.6587308866
 20
3.1003847773
 30
0.0
 10
3.6522986664
 20
3.0960981711
 30
0.0
 10
3.6462211604
 20
3.0912986969
 30
0.0
 10
3.6405332397
 20
3.086019405
 30
0.0
 10
3.6352685905
 20
3.0802936544
 30
0.0
 10
3.6304512132
 20
3.0741625245
 30
0.0
 10
3.6261038071
 20
3.0676658441
 30
0.0
 10
3.6222497161
 20
3.0608417909
 30
0.0
 10
3.6177911178
 20
3.0513565356
 30
0.0
 10
3.6135282321
 20
3.0388859675
 30
0.0
 10
3.6106192943
 20
3.0233163128
 30
0.0
 10
3.6099402673
 20
3.00746423
 30
0.0
 10
3.6115143811
 20
2.9916783935
 30
0.0
 10
3.6153022033
 20
2.9763063596
 30
0.0
 10
3.6202668737
 20
2.9641079975
 30
0.0
 10
3.6252594616
 20
2.9549023735
 30
0.0
 10
3.6308996168
 20
2.9461410459
 30
0.0
 10
3.6391399682
 20
2.9360575615
 30
0.0
 10
3.6507453268
 20
2.9256922022
 30
0.0
 10
3.6594731867
 20
2.9201041887
 30
0.0
 10
3.6640175326
 20
2.9176994184
 30
0.0
  0
SPLINE
  5
4D0
100
AcDbEntity
  8
0
100
AcDbSpline
 62
7
  6
CONTINUOUS
 70
0
 71
3
 72
12
 73
8
 74
0
 42
0.0000001
 43
0.0000001
 44
0.0000000001
 40
0.0
 40
0.0
 40
0.0
 40
0.0
 40
0.0804705388
 40
0.1747509508
 40
0.4027659716
 40
0.6796868202
 40
1.0
 40
1.0
 40
1.0
 40
1.0
 10
3.9117153667
 20
3.1121642943
 30
0.0
 10
3.9112357414
 20
3.1123604468
 30
0.0
 10
3.9101859056
 20
3.1127661882
 30
0.0
 10
3.9077439759
 20
3.1136405409
 30
0.0
 10
3.9040743688
 20
3.1148356834
 30
0.0
 10
3.8989851112
 20
3.1163659952
 30
0.0
 10
3.8952842384
 20
3.1174126631
 30
0.0
 10
3.8932961276
 20
3.1179621124
 30
0.0
  0
SPLINE
  5
4D1
100
AcDbEntity
  8
0
100
AcDbSpline
 62
7
  6
CONTINUOUS
 70
0
 71
3
 72
10
 73
6
 74
0
 42
0.0000001
 43
0.0000001
 44
0.0000000001
 40
0.0
 40
0.0
 40
0.0
 40
0.0
 40
0.3835341269
 40
0.6591464632
 40
1.0
 40
1.0
 40
1.0
 40
1.0
 10
4.0356980538
 20
3.1117682756
 30
0.0
 10
4.0356981305
 20
3.1120913954
 30
0.0
 10
4.0353831194
 20
3.1126168467
 30
0.0
 10
4.0347893297
 20
3.1131980113
 30
0.0
 10
4.0343747124
 20
3.1135179322
 30
0.0
 10
4.0341405468
 20
3.1136841508
 30
0.0
  0
SPLINE
  5
4D2
100
AcDbEntity
  8
0
100
AcDbSpline
 62
7
  6
CONTINUOUS
 70
0
 71
3
 72
14
 73
10
 74
0
 42
0.0000001
 43
0.0000001
 44
0.0000000001
 40
0.0
 40
0.0
 40
0.0
 40
0.0
 40
0.0712300624
 40
0.1588747313
 40
0.2626219725
 40
0.381914225
 40
0.5161145902
 40
0.6644715279
 40
1.0
 40
1.0
 40
1.0
 40
1.0
 10
4.0341405468
 20
3.1136841508
 30
0.0
 10
4.0337288083
 20
3.1139764166
 30
0.0
 10
4.0327679181
 20
3.1145679639
 30
0.0
 10
4.0311145323
 20
3.1154251733
 30
0.0
 10
4.0291094029
 20
3.1163379781
 30
0.0
 10
4.0267665151
 20
3.117300106
 30
0.0
 10
4.0241007197
 20
3.1183049913
 30
0.0
 10
4.0199653759
 20
3.1197534005
 30
0.0
 10
4.0166948131
 20
3.1207902532
 30
0.0
 10
4.0144183538
 20
3.1214792371
 30
0.0
  0
SPLINE
  5
4D3
100
AcDbEntity
  8
0
100
AcDbSpline
 62
7
  6
CONTINUOUS
 70
0
 71
3
 72
11
 73
7
 74
0
 42
0.0000001
 43
0.0000001
 44
0.0000000001
 40
0.0
 40
0.0
 40
0.0
 40
0.0
 40
0.1915412699
 40
0.4144832739
 40
0.6817079485
 40
1.0
 40
1.0
 40
1.0
 40
1.0
 10
4.2280889622
 20
3.1140564046
 30
0.0
 10
4.2280892865
 20
3.1142714601
 30
0.0
 10
4.2279965897
 20
3.1147384092
 30
0.0
 10
4.2276298195
 20
3.1154180987
 30
0.0
 10
4.2270467565
 20
3.1161189946
 30
0.0
 10
4.2265591922
 20
3.1165624657
 30
0.0
 10
4.2262842211
 20
3.1167907243
 30
0.0
  0
SPLINE
  5
4D4
100
AcDbEntity
  8
0
100
AcDbSpline
 62
7
  6
CONTINUOUS
 70
0
 71
3
 72
11
 73
7
 74
0
 42
0.0000001
 43
0.0000001
 44
0.0000000001
 40
0.0
 40
0.0
 40
0.0
 40
0.0
 40
0.1900362429
 40
0.4204820548
 40
0.6908780634
 40
1.0
 40
1.0
 40
1.0
 40
1.0
 10
4.2262842211
 20
3.1167907243
 30
0.0
 10
4.2257984375
 20
3.1171939822
 30
0.0
 10
4.2246533124
 20
3.1180011563
 30
0.0
 10
4.2226613845
 20
3.1191448522
 30
0.0
 10
4.2202435202
 20
3.1203294912
 30
0.0
 10
4.2184743633
 20
3.1210906711
 30
0.0
 10
4.2175237258
 20
3.1214792371
 30
0.0
  0
SPLINE
  5
4D5
100
AcDbEntity
  8
0
100
AcDbSpline
 62
7
  6
CONTINUOUS
 70
0
 71
3
 72
13
 73
9
 74
0
 42
0.0000001
 43
0.0000001
 44
0.0000000001
 40
0.0
 40
0.0
 40
0.0
 40
0.0
 40
0.0912475799
 40
0.1879907641
 40
0.2930943819
 40
0.4087004141
 40
0.6767819643
 40
1.0
 40
1.0
 40
1.0
 40
1.0
 10
4.4788187307
 20
3.1170379738
 30
0.0
 10
4.4788188504
 20
3.1172131364
 30
0.0
 10
4.4787807626
 20
3.1175748872
 30
0.0
 10
4.478615498
 20
3.1181156264
 30
0.0
 10
4.4783436763
 20
3.1186636175
 30
0.0
 10
4.4778155395
 20
3.1194419253
 30
0.0
 10
4.4768679785
 20
3.1204253195
 30
0.0
 10
4.4759689981
 20
3.1211223655
 30
0.0
 10
4.4754614387
 20
3.1214792371
 30
0.0
  0
LINE
  5
4D6
100
AcDbEntity
  8
0
100
AcDbLine
 62
7
  6
CONTINUOUS
 10
4.7707997312
 20
3.1205130879
 11
4.7706534537
 21
3.1214792698
  0
SPLINE
  5
4D7
100
AcDbEntity
  8
0
100
AcDbSpline
 62
7
  6
CONTINUOUS
 70
0
 71
3
 72
18
 73
14
 74
0
 42
0.0000001
 43
0.0000001
 44
0.0000000001
 40
0.0
 40
0.0
 40
0.0
 40
0.0
 40
0.0213665862
 40
0.0459700588
 40
0.0751931556
 40
0.1098347924
 40
0.1503447312
 40
0.1969775119
 40
0.3090369488
 40
0.4461016727
 40
0.607548087
 40
0.792538882
 40
1.0
 40
1.0
 40
1.0
 40
1.0
 10
4.2424886845
 20
3.0808784297
 30
0.0
 10
4.2424884204
 20
3.0809740384
 30
0.0
 10
4.2424490784
 20
3.0811802689
 30
0.0
 10
4.2422942992
 20
3.0814822481
 30
0.0
 10
4.2420472562
 20
3.0817938566
 30
0.0
 10
4.2417084776
 20
3.0821168432
 30
0.0
 10
4.2412780482
 20
3.0824521369
 30
0.0
 10
4.2405352526
 20
3.0829459951
 30
0.0
 10
4.239370456
 20
3.083578845
 30
0.0
 10
4.2376985241
 20
3.0843420863
 30
0.0
 10
4.2356875553
 20
3.0851421213
 30
0.0
 10
4.2333518667
 20
3.0859725386
 30
0.0
 10
4.2316805315
 20
3.0865123364
 30
0.0
 10
4.2307940195
 20
3.0867878096
 30
0.0
  0
SPLINE
  5
4D8
100
AcDbEntity
  8
0
100
AcDbSpline
 62
7
  6
CONTINUOUS
 70
0
 71
3
 72
9
 73
5
 74
0
 42
0.0000001
 43
0.0000001
 44
0.0000000001
 40
0.0
 40
0.0
 40
0.0
 40
0.0
 40
0.4867496439
 40
1.0
 40
1.0
 40
1.0
 40
1.0
 10
4.6442483858
 20
3.0962909317
 30
0.0
 10
4.6397908732
 20
3.0970467353
 30
0.0
 10
4.6305845774
 20
3.0983177818
 30
0.0
 10
4.6213281006
 20
3.0991339405
 30
0.0
 10
4.6165704047
 20
3.099436147
 30
0.0
  0
SPLINE
  5
4D9
100
AcDbEntity
  8
0
100
AcDbSpline
 62
7
  6
CONTINUOUS
 70
0
 71
3
 72
17
 73
13
 74
0
 42
0.0000001
 43
0.0000001
 44
0.0000000001
 40
0.0
 40
0.0
 40
0.0
 40
0.0
 40
0.0315306984
 40
0.0642768593
 40
0.1379154781
 40
0.1807931148
 40
0.2283836349
 40
0.3388820124
 40
0.4710701449
 40
0.6255486604
 40
0.8021269041
 40
1.0
 40
1.0
 40
1.0
 40
1.0
 10
5.2122886088
 20
3.0907082076
 30
0.0
 10
5.2122886216
 20
3.0908597737
 30
0.0
 10
5.2122546178
 20
3.0911697462
 30
0.0
 10
5.2120438008
 20
3.0918026847
 30
0.0
 10
5.2116221316
 20
3.092401372
 30
0.0
 10
5.2110573968
 20
3.0929523386
 30
0.0
 10
5.2102980571
 20
3.0935525613
 30
0.0
 10
5.2090951621
 20
3.094269627
 30
0.0
 10
5.2073535675
 20
3.0950577117
 30
0.0
 10
5.2052537657
 20
3.09580503
 30
0.0
 10
5.2028086764
 20
3.0965064569
 30
0.0
 10
5.2010556393
 20
3.0969177933
 30
0.0
 10
5.2001256669
 20
3.097117452
 30
0.0
  0
LINE
  5
4DA
100
AcDbEntity
  8
0
100
AcDbLine
 62
7
  6
CONTINUOUS
 10
5.2001256669
 20
3.097117452
 11
5.1919593959
 21
3.0984882623
  0
SPLINE
  5
4DB
100
AcDbEntity
  8
0
100
AcDbSpline
 62
7
  6
CONTINUOUS
 70
0
 71
3
 72
9
 73
5
 74
0
 42
0.0000001
 43
0.0000001
 44
0.0000000001
 40
0.0
 40
0.0
 40
0.0
 40
0.0
 40
0.4739974508
 40
1.0
 40
1.0
 40
1.0
 40
1.0
 10
5.1919593959
 20
3.0984882623
 30
0.0
 10
5.1887668737
 20
3.0989032272
 30
0.0
 10
5.1820006441
 20
3.099544111
 30
0.0
 10
5.1752126268
 20
3.0998409679
 30
0.0
 10
5.1716409212
 20
3.0999206883
 30
0.0
  0
SPLINE
  5
4DC
100
AcDbEntity
  8
0
100
AcDbSpline
 62
7
  6
CONTINUOUS
 70
0
 71
3
 72
18
 73
14
 74
0
 42
0.0000001
 43
0.0000001
 44
0.0000000001
 40
0.0
 40
0.0
 40
0.0
 40
0.0
 40
0.0264924244
 40
0.0540987656
 40
0.0845616666
 40
0.1191869356
 40
0.1588645687
 40
0.2041819155
 40
0.3130305674
 40
0.4471319911
 40
0.606626014
 40
0.7912139313
 40
1.0
 40
1.0
 40
1.0
 40
1.0
 10
5.7142950209
 20
3.0958059992
 30
0.0
 10
5.7142947429
 20
3.0959281506
 30
0.0
 10
5.7142589303
 20
3.0961789517
 30
0.0
 10
5.7140976889
 20
3.0965385796
 30
0.0
 10
5.7138343039
 20
3.0968791973
 30
0.0
 10
5.7134720475
 20
3.097201825
 30
0.0
 10
5.7130116669
 20
3.0975080534
 30
0.0
 10
5.7122171213
 20
3.0979202306
 30
0.0
 10
5.710963408
 20
3.0983755616
 30
0.0
 10
5.7091626411
 20
3.0988296323
 30
0.0
 10
5.706990164
 20
3.099214884
 30
0.0
 10
5.7044593229
 20
3.0995267061
 30
0.0
 10
5.7026510709
 20
3.0996742546
 30
0.0
 10
5.7016904908
 20
3.0997377136
 30
0.0
  0
LINE
  5
4DD
100
AcDbEntity
  8
0
100
AcDbLine
 62
7
  6
CONTINUOUS
 10
5.7016904908
 20
3.0997377136
 11
5.6977998767
 21
3.0999206883
  0
SPLINE
  5
4DE
100
AcDbEntity
  8
0
100
AcDbSpline
 62
7
  6
CONTINUOUS
 70
0
 71
3
 72
12
 73
8
 74
0
 42
0.0000001
 43
0.0000001
 44
0.0000000001
 40
0.0
 40
0.0
 40
0.0
 40
0.0
 40
0.1423604578
 40
0.2358383488
 40
0.3477254276
 40
0.6316308903
 40
1.0
 40
1.0
 40
1.0
 40
1.0
 10
4.105475643
 20
3.0794899507
 30
0.0
 10
4.105475545
 20
3.0795759292
 30
0.0
 10
4.1054147002
 20
3.0797157664
 30
0.0
 10
4.1052826882
 20
3.0798777261
 30
0.0
 10
4.1050669621
 20
3.0800815408
 30
0.0
 10
4.1046868612
 20
3.0803459035
 30
0.0
 10
4.1043426649
 20
3.0805382291
 30
0.0
 10
4.104145305
 20
3.0806409173
 30
0.0
  0
LINE
  5
4DF
100
AcDbEntity
  8
0
100
AcDbLine
 62
7
  6
CONTINUOUS
 10
4.104145305
 20
3.0806409173
 11
4.1006308941
 21
3.082082015
  0
LINE
  5
4E0
100
AcDbEntity
  8
0
100
AcDbLine
 62
7
  6
CONTINUOUS
 10
4.1006308941
 20
3.082082015
 11
4.0951494803
 21
3.0838083817
  0
LINE
  5
4E1
100
AcDbEntity
  8
0
100
AcDbLine
 62
7
  6
CONTINUOUS
 10
4.0951494803
 20
3.0838083817
 11
4.0879683963
 21
3.0857461248
  0
SPLINE
  5
4E2
100
AcDbEntity
  8
0
100
AcDbSpline
 62
7
  6
CONTINUOUS
 70
0
 71
3
 72
12
 73
8
 74
0
 42
0.0000001
 43
0.0000001
 44
0.0000000001
 40
0.0
 40
0.0
 40
0.0
 40
0.0
 40
0.1057850329
 40
0.2211276623
 40
0.4727586597
 40
0.738282802
 40
1.0
 40
1.0
 40
1.0
 40
1.0
 10
4.0879683963
 20
3.0857461248
 30
0.0
 10
4.0861416797
 20
3.0862106678
 30
0.0
 10
4.0823144374
 20
3.0871473894
 30
0.0
 10
4.0741053107
 20
3.0890366375
 30
0.0
 10
4.0630774839
 20
3.0913639841
 30
0.0
 10
4.0494455841
 20
3.0939685592
 30
0.0
 10
4.0401854577
 20
3.0955553809
 30
0.0
 10
4.0355806029
 20
3.0962909317
 30
0.0
  0
SPLINE
  5
4E3
100
AcDbEntity
  8
0
100
AcDbSpline
 62
7
  6
CONTINUOUS
 70
0
 71
3
 72
16
 73
12
 74
0
 42
0.0000001
 43
0.0000001
 44
0.0000000001
 40
0.0
 40
0.0
 40
0.0
 40
0.0
 40
0.0330680919
 40
0.0674947748
 40
0.1443008701
 40
0.236739841
 40
0.3479856786
 40
0.4795936667
 40
0.6322471956
 40
0.8058836627
 40
1.0
 40
1.0
 40
1.0
 40
1.0
 10
4.9382612223
 20
3.0879296133
 30
0.0
 10
4.9382613479
 20
3.0880688196
 30
0.0
 10
4.9382328813
 20
3.0883536937
 30
0.0
 10
4.9380575188
 20
3.0889386267
 30
0.0
 10
4.9375973481
 20
3.089678513
 30
0.0
 10
4.9367510369
 20
3.0905107211
 30
0.0
 10
4.9355979434
 20
3.0913321198
 30
0.0
 10
4.9341398517
 20
3.0921409166
 30
0.0
 10
4.9323810428
 20
3.0929338293
 30
0.0
 10
4.9303300014
 20
3.0937067207
 30
0.0
 10
4.9288552926
 20
3.0941798091
 30
0.0
 10
4.9280724653
 20
3.0944142182
 30
0.0
  0
LINE
  5
4E4
100
AcDbEntity
  8
0
100
AcDbLine
 62
7
  6
CONTINUOUS
 10
4.9280724653
 20
3.0944142182
 11
4.9204230603
 21
3.0962909317
  0
SPLINE
  5
4E5
100
AcDbEntity
  8
0
100
AcDbSpline
 62
7
  6
CONTINUOUS
 70
0
 71
3
 72
11
 73
7
 74
0
 42
0.0000001
 43
0.0000001
 44
0.0000000001
 40
0.0
 40
0.0
 40
0.0
 40
0.0
 40
0.2214385687
 40
0.4657923845
 40
0.7273947421
 40
1.0
 40
1.0
 40
1.0
 40
1.0
 10
4.9204230603
 20
3.0962909317
 30
0.0
 10
4.9181690718
 20
3.0967479706
 30
0.0
 10
4.9134003088
 20
3.0975752614
 30
0.0
 10
4.9059065096
 20
3.0985463551
 30
0.0
 10
4.8978531027
 20
3.0992909508
 30
0.0
 10
4.8923132306
 20
3.0996164309
 30
0.0
 10
4.8894845545
 20
3.0997377136
 30
0.0
  0
SPLINE
  5
4E6
100
AcDbEntity
  8
0
100
AcDbSpline
 62
7
  6
CONTINUOUS
 70
0
 71
3
 72
16
 73
12
 74
0
 42
0.0000001
 43
0.0000001
 44
0.0000000001
 40
0.0
 40
0.0
 40
0.0
 40
0.0
 40
0.0316913801
 40
0.0643024429
 40
0.137029705
 40
0.2261850502
 40
0.335844643
 40
0.467703789
 40
0.6223739549
 40
0.799939344
 40
1.0
 40
1.0
 40
1.0
 40
1.0
 10
5.4769797542
 20
3.0933951028
 30
0.0
 10
5.4769796555
 20
3.0935261204
 30
0.0
 10
5.4769503376
 20
3.0937928326
 30
0.0
 10
5.4767677947
 20
3.0943332447
 30
0.0
 10
5.4762848493
 20
3.0949971615
 30
0.0
 10
5.4754006063
 20
3.0957005366
 30
0.0
 10
5.4741973079
 20
3.0963589266
 30
0.0
 10
5.4726762599
 20
3.096973148
 30
0.0
 10
5.4708418766
 20
3.0975411605
 30
0.0
 10
5.4687017444
 20
3.0980581572
 30
0.0
 10
5.4671673671
 20
3.0983493254
 30
0.0
 10
5.4663520347
 20
3.0984882623
 30
0.0
  0
LINE
  5
4E7
100
AcDbEntity
  8
0
100
AcDbLine
 62
7
  6
CONTINUOUS
 10
5.4663520347
 20
3.0984882623
 11
5.4585913041
 21
3.099436147
  0
LINE
  5
4E8
100
AcDbEntity
  8
0
100
AcDbLine
 62
7
  6
CONTINUOUS
 10
5.4585913041
 20
3.099436147
 11
5.4492751402
 21
3.0999206883
  0
SPLINE
  5
4E9
100
AcDbEntity
  8
0
100
AcDbSpline
 62
7
  6
CONTINUOUS
 70
0
 71
3
 72
10
 73
6
 74
0
 42
0.0000001
 43
0.0000001
 44
0.0000000001
 40
0.0
 40
0.0
 40
0.0
 40
0.0
 40
0.3920796272
 40
0.6654497703
 40
1.0
 40
1.0
 40
1.0
 40
1.0
 10
6.0085548168
 20
3.1117730239
 30
0.0
 10
6.0085546853
 20
3.1120606148
 30
0.0
 10
6.0088057882
 20
3.1125301498
 30
0.0
 10
6.0093048497
 20
3.1130573354
 30
0.0
 10
6.0096506894
 20
3.1133438653
 30
0.0
 10
6.0098460002
 20
3.1134924299
 30
0.0
  0
SPLINE
  5
4EA
100
AcDbEntity
  8
0
100
AcDbSpline
 62
7
  6
CONTINUOUS
 70
0
 71
3
 72
14
 73
10
 74
0
 42
0.0000001
 43
0.0000001
 44
0.0000000001
 40
0.0
 40
0.0
 40
0.0
 40
0.0
 40
0.068468991
 40
0.1540437588
 40
0.2565785602
 40
0.3755838644
 40
0.5102928035
 40
0.6598746176
 40
1.0
 40
1.0
 40
1.0
 40
1.0
 10
6.0098460002
 20
3.1134924299
 30
0.0
 10
6.010238013
 20
3.1137906174
 30
0.0
 10
6.0111713625
 20
3.1143931665
 30
0.0
 10
6.0127992376
 20
3.115264783
 30
0.0
 10
6.0148035839
 20
3.11619633
 30
0.0
 10
6.017170078
 20
3.1171809232
 30
0.0
 10
6.0198821343
 20
3.1182121942
 30
0.0
 10
6.0241190567
 20
3.1197045826
 30
0.0
 10
6.0274777706
 20
3.1207702671
 30
0.0
 10
6.0298195453
 20
3.1214791039
 30
0.0
  0
SPLINE
  5
4EB
100
AcDbEntity
  8
0
100
AcDbSpline
 62
7
  6
CONTINUOUS
 70
0
 71
3
 72
11
 73
7
 74
0
 42
0.0000001
 43
0.0000001
 44
0.0000000001
 40
0.0
 40
0.0
 40
0.0
 40
0.0
 40
0.2521851255
 40
0.5025725325
 40
0.751645449
 40
1.0
 40
1.0
 40
1.0
 40
1.0
 10
3.6640177746
 20
2.9176998358
 30
0.0
 10
3.675173148
 20
2.9117967713
 30
0.0
 10
3.6981174916
 20
2.9013239774
 30
0.0
 10
3.7340486792
 20
2.8898899406
 30
0.0
 10
3.7709200278
 20
2.8829616777
 30
0.0
 10
3.7958416686
 20
2.8814134031
 30
0.0
 10
3.808270918
 20
2.8814142171
 30
0.0
  0
SPLINE
  5
4EC
100
AcDbEntity
  8
0
100
AcDbSpline
 62
7
  6
CONTINUOUS
 70
0
 71
3
 72
18
 73
14
 74
0
 42
0.0000001
 43
0.0000001
 44
0.0000000001
 40
0.0
 40
0.0
 40
0.0
 40
0.0
 40
0.129554972
 40
0.2575354211
 40
0.3840250323
 40
0.4467659525
 40
0.509175576
 40
0.5712777325
 40
0.633099492
 40
0.6946735835
 40
0.7560360974
 40
0.8782085107
 40
1.0
 40
1.0
 40
1.0
 40
1.0
 10
4.0855826973
 20
3.032577398
 30
0.0
 10
4.0777834727
 20
3.021045177
 30
0.0
 10
4.0610148037
 20
2.9989445781
 30
0.0
 10
4.0324807864
 20
2.9690166073
 30
0.0
 10
4.0061904619
 20
2.9471823005
 30
0.0
 10
3.9839124177
 20
2.9318315314
 30
0.0
 10
3.9666685587
 20
2.9214355407
 30
0.0
 10
3.9489061454
 20
2.9121653408
 30
0.0
 10
3.9306840137
 20
2.9040526894
 30
0.0
 10
3.9120600356
 20
2.8971328641
 30
0.0
 10
3.8868213409
 20
2.8895459459
 30
0.0
 10
3.8545460265
 20
2.8831373005
 30
0.0
 10
3.8282996773
 20
2.8814187303
 30
0.0
 10
3.8152120124
 20
2.8814157903
 30
0.0
  0
SPLINE
  5
4ED
100
AcDbEntity
  8
0
100
AcDbSpline
 62
7
  6
CONTINUOUS
 70
0
 71
3
 72
28
 73
24
 74
0
 42
0.0000001
 43
0.0000001
 44
0.0000000001
 40
0.0
 40
0.0
 40
0.0
 40
0.0
 40
0.1252048969
 40
0.2388302508
 40
0.3401025824
 40
0.4282685398
 40
0.5026130485
 40
0.5627345524
 40
0.6089718663
 40
0.6271207616
 40
0.6421603506
 40
0.6543803676
 40
0.6643008725
 40
0.6728489508
 40
0.681387932
 40
0.6912742462
 40
0.7034222002
 40
0.718337399
 40
0.7362945339
 40
0.7818852098
 40
0.8409056697
 40
0.913646531
 40
1.0
 40
1.0
 40
1.0
 40
1.0
 10
4.4051149287
 20
3.002993615
 30
0.0
 10
4.4044608819
 20
3.0029926736
 30
0.0
 10
4.4032132627
 20
3.0029831652
 30
0.0
 10
4.401437032
 20
3.0029416258
 30
0.0
 10
4.3998552138
 20
3.0028731733
 30
0.0
 10
4.3984804215
 20
3.0027775422
 30
0.0
 10
4.3973234226
 20
3.0026549428
 30
0.0
 10
4.3963912015
 20
3.0025043304
 30
0.0
 10
4.3957578999
 20
3.0023486462
 30
0.0
 10
4.3953690391
 20
3.0022024401
 30
0.0
 10
4.3951566811
 20
3.0020952903
 30
0.0
 10
4.3949981864
 20
3.0019811427
 30
0.0
 10
4.3948924611
 20
3.0018574486
 30
0.0
 10
4.3948445793
 20
3.0017201863
 30
0.0
 10
4.3948619446
 20
3.0015760469
 30
0.0
 10
4.3949383529
 20
3.0014330839
 30
0.0
 10
4.3950678189
 20
3.0012884551
 30
0.0
 10
4.3952506129
 20
3.0011394603
 30
0.0
 10
4.3955947392
 20
3.0009158373
 30
0.0
 10
4.3961706266
 20
3.0006320915
 30
0.0
 10
4.3970323538
 20
3.0002909465
 30
0.0
 10
4.3981135393
 20
2.9999299071
 30
0.0
 10
4.3989112247
 20
2.9996962426
 30
0.0
 10
4.3993456975
 20
2.9995749173
 30
0.0
  0
SPLINE
  5
4EE
100
AcDbEntity
  8
0
100
AcDbSpline
 62
7
  6
CONTINUOUS
 70
0
 71
3
 72
28
 73
24
 74
0
 42
0.0000001
 43
0.0000001
 44
0.0000000001
 40
0.0
 40
0.0
 40
0.0
 40
0.0
 40
0.0850182475
 40
0.1561548332
 40
0.2132762716
 40
0.2567671612
 40
0.2736422308
 40
0.287494346
 40
0.2986629851
 40
0.3077804132
 40
0.3159558136
 40
0.3246649807
 40
0.3351651228
 40
0.3482088313
 40
0.3641962356
 40
0.3833462024
 40
0.4315847975
 40
0.4934654337
 40
0.5689134486
 40
0.6576465535
 40
0.7593271282
 40
0.873587176
 40
1.0
 40
1.0
 40
1.0
 40
1.0
 10
4.5138029844
 20
2.9873926056
 30
0.0
 10
4.5142644568
 20
2.9874201276
 30
0.0
 10
4.5151114737
 20
2.9874813277
 30
0.0
 10
4.5162646389
 20
2.9876094343
 30
0.0
 10
4.5171857127
 20
2.9877656717
 30
0.0
 10
4.5178060616
 20
2.9879266182
 30
0.0
 10
4.5181807578
 20
2.9880782225
 30
0.0
 10
4.5183807626
 20
2.9881889756
 30
0.0
 10
4.51852552
 20
2.9883073956
 30
0.0
 10
4.5186151629
 20
2.988437622
 30
0.0
 10
4.51864065
 20
2.9885817133
 30
0.0
 10
4.5185980039
 20
2.9887285693
 30
0.0
 10
4.5184969926
 20
2.9888741217
 30
0.0
 10
4.518340614
 20
2.9890229468
 30
0.0
 10
4.5181279386
 20
2.9891768302
 30
0.0
 10
4.5177371495
 20
2.98940754
 30
0.0
 10
4.5170967369
 20
2.9897008439
 30
0.0
 10
4.516150982
 20
2.9900534577
 30
0.0
 10
4.5149794117
 20
2.9904268428
 30
0.0
 10
4.5135878815
 20
2.9908192704
 30
0.0
 10
4.511982423
 20
2.9912286395
 30
0.0
 10
4.5101697937
 20
2.9916530762
 30
0.0
 10
4.5088909638
 20
2.9919312178
 30
0.0
 10
4.5082183883
 20
2.9920731013
 30
0.0
  0
SPLINE
  5
4EF
100
AcDbEntity
  8
0
100
AcDbSpline
 62
7
  6
CONTINUOUS
 70
0
 71
3
 72
19
 73
15
 74
0
 42
0.0000001
 43
0.0000001
 44
0.0000000001
 40
0.0
 40
0.0
 40
0.0
 40
0.0
 40
0.0451038577
 40
0.0969154768
 40
0.1546998746
 40
0.2175839585
 40
0.3549251331
 40
0.5009046014
 40
0.6468589439
 40
0.7841436694
 40
0.8468851506
 40
0.9042857261
 40
0.9555118981
 40
1.0
 40
1.0
 40
1.0
 40
1.0
 10
4.5082183883
 20
2.9920731013
 30
0.0
 10
4.5066915831
 20
2.9923951892
 30
0.0
 10
4.5034012808
 20
2.993041726
 30
0.0
 10
4.4981309334
 20
2.9939741167
 30
0.0
 10
4.4922399762
 20
2.994925584
 30
0.0
 10
4.4834110097
 20
2.9962398545
 30
0.0
 10
4.4715362575
 20
2.9978099231
 30
0.0
 10
4.4567810824
 20
2.9995014878
 30
0.0
 10
4.4420014979
 20
3.0009446811
 30
0.0
 10
4.4300692383
 20
3.0018989934
 30
0.0
 10
4.4211809772
 20
3.0024623661
 30
0.0
 10
4.4152595738
 20
3.0027596666
 30
0.0
 10
4.4099653013
 20
3.002940822
 30
0.0
 10
4.4066540326
 20
3.0029911288
 30
0.0
 10
4.4051149287
 20
3.002993615
 30
0.0
  0
SPLINE
  5
4F0
100
AcDbEntity
  8
0
100
AcDbSpline
 62
7
  6
CONTINUOUS
 70
0
 71
3
 72
37
 73
33
 74
0
 42
0.0000001
 43
0.0000001
 44
0.0000000001
 40
0.0
 40
0.0
 40
0.0
 40
0.0
 40
0.1001500372
 40
0.202256844
 40
0.3039898157
 40
0.403314942
 40
0.4982668721
 40
0.5868441632
 40
0.6671429108
 40
0.7037245718
 40
0.7377056158
 40
0.7689273295
 40
0.7972587917
 40
0.8225827305
 40
0.8447912594
 40
0.8637997763
 40
0.879596517
 40
0.8922446467
 40
0.8974471232
 40
0.9019586944
 40
0.905861236
 40
0.9092896412
 40
0.9124426227
 40
0.9155685683
 40
0.9189187627
 40
0.9226973041
 40
0.9270460644
 40
0.9320566997
 40
0.944266791
 40
0.9595989891
 40
0.9781613899
 40
1.0
 40
1.0
 40
1.0
 40
1.0
 10
5.2198622427
 20
3.002993615
 30
0.0
 10
5.2169318534
 20
3.0029912242
 30
0.0
 10
5.2110137502
 20
3.0029340449
 30
0.0
 10
5.202121777
 20
3.0026943409
 30
0.0
 10
5.1932598489
 20
3.0022905659
 30
0.0
 10
5.1846156746
 20
3.0017394953
 30
0.0
 10
5.1763668254
 20
3.0010591591
 30
0.0
 10
5.1686877758
 20
3.0002626852
 30
0.0
 10
5.1627251244
 20
2.9994890199
 30
0.0
 10
5.1583625574
 20
2.9988145273
 30
0.0
 10
5.1554278449
 20
2.9983062582
 30
0.0
 10
5.1527413736
 20
2.9977825072
 30
0.0
 10
5.1503161387
 20
2.9972462683
 30
0.0
 10
5.1481640153
 20
2.9967005617
 30
0.0
 10
5.1462963335
 20
2.9961485053
 30
0.0
 10
5.1447221866
 20
2.9955925839
 30
0.0
 10
5.1434488233
 20
2.9950361736
 30
0.0
 10
5.1425894826
 20
2.9945478377
 30
0.0
 10
5.1420701028
 20
2.9941480186
 30
0.0
 10
5.1417846799
 20
2.9938682681
 30
0.0
 10
5.1415778189
 20
2.9935878476
 30
0.0
 10
5.1414512207
 20
2.993305103
 30
0.0
 10
5.1414085753
 20
2.9930201753
 30
0.0
 10
5.1414526605
 20
2.992737693
 30
0.0
 10
5.1415804548
 20
2.9924626838
 30
0.0
 10
5.1417873205
 20
2.9921954948
 30
0.0
 10
5.1420712457
 20
2.9919343567
 30
0.0
 10
5.1425870979
 20
2.9915686001
 30
0.0
 10
5.1434408655
 20
2.9911367791
 30
0.0
 10
5.1447061993
 20
2.9906654343
 30
0.0
 10
5.1462748364
 20
2.9902148963
 30
0.0
 10
5.1474278145
 20
2.989951878
 30
0.0
 10
5.1480534746
 20
2.9898220026
 30
0.0
  0
SPLINE
  5
4F1
100
AcDbEntity
  8
0
100
AcDbSpline
 62
7
  6
CONTINUOUS
 70
0
 71
3
 72
22
 73
18
 74
0
 42
0.0000001
 43
0.0000001
 44
0.0000000001
 40
0.0
 40
0.0
 40
0.0
 40
0.0
 40
0.2135336484
 40
0.3036886752
 40
0.3827564964
 40
0.4508703097
 40
0.5083708344
 40
0.5559646759
 40
0.595018933
 40
0.6281323367
 40
0.6595032682
 40
0.6939663804
 40
0.7352658684
 40
0.7855978369
 40
0.8461429353
 40
0.9175220182
 40
1.0
 40
1.0
 40
1.0
 40
1.0
 10
5.258815328
 20
2.9936432601
 30
0.0
 10
5.2596367617
 20
2.9938745177
 30
0.0
 10
5.2607981083
 20
2.9942318323
 30
0.0
 10
5.2622276383
 20
2.9947776013
 30
0.0
 10
5.2630946087
 20
2.995163797
 30
0.0
 10
5.2638170377
 20
2.9955494018
 30
0.0
 10
5.2643943663
 20
2.9959340157
 30
0.0
 10
5.2648269079
 20
2.9963184092
 30
0.0
 10
5.2651150715
 20
2.9967067642
 30
0.0
 10
5.2652498561
 20
2.9971083265
 30
0.0
 10
5.2652102917
 20
2.9975136083
 30
0.0
 10
5.2650027651
 20
2.9978976262
 30
0.0
 10
5.2646478601
 20
2.99826096
 30
0.0
 10
5.2641488081
 20
2.9986124561
 30
0.0
 10
5.2635043501
 20
2.9989546406
 30
0.0
 10
5.2627140578
 20
2.9992877618
 30
0.0
 10
5.2621326209
 20
2.9994889489
 30
0.0
 10
5.2618186734
 20
2.9995893634
 30
0.0
  0
SPLINE
  5
4F2
100
AcDbEntity
  8
0
100
AcDbSpline
 62
7
  6
CONTINUOUS
 70
0
 71
3
 72
16
 73
12
 74
0
 42
0.0000001
 43
0.0000001
 44
0.0000000001
 40
0.0
 40
0.0
 40
0.0
 40
0.0
 40
0.0327079549
 40
0.0700846429
 40
0.1585301478
 40
0.26444985
 40
0.3865311798
 40
0.5231401325
 40
0.6723668274
 40
0.8321016849
 40
1.0
 40
1.0
 40
1.0
 40
1.0
 10
5.2618186734
 20
2.9995893634
 30
0.0
 10
5.2613804656
 20
2.999729522
 30
0.0
 10
5.2604316076
 20
2.9999990899
 30
0.0
 10
5.258260253
 20
3.0005090201
 30
0.0
 10
5.2550480941
 20
3.0010769523
 30
0.0
 10
5.250632784
 20
3.0016480267
 30
0.0
 10
5.2455258283
 20
3.0021289643
 30
0.0
 10
5.2398002385
 20
3.0025119196
 30
0.0
 10
5.2335384403
 20
3.0027894427
 30
0.0
 10
5.2268325971
 20
3.0029574987
 30
0.0
 10
5.2222239341
 20
3.0029941047
 30
0.0
 10
5.2198622427
 20
3.002993615
 30
0.0
  0
SPLINE
  5
4F3
100
AcDbEntity
  8
0
100
AcDbSpline
 62
7
  6
CONTINUOUS
 70
0
 71
3
 72
32
 73
28
 74
0
 42
0.0000001
 43
0.0000001
 44
0.0000000001
 40
0.0
 40
0.0
 40
0.0
 40
0.0
 40
0.1178211423
 40
0.2315208665
 40
0.339112608
 40
0.4390769953
 40
0.5304698433
 40
0.6123732922
 40
0.6837796277
 40
0.7436897462
 40
0.7691105564
 40
0.7914862484
 40
0.8108340702
 40
0.8272040485
 40
0.8407084159
 40
0.8515936054
 40
0.8603689773
 40
0.8642672948
 40
0.8680460353
 40
0.8759463206
 40
0.8854263586
 40
0.8972790636
 40
0.9118799383
 40
0.9294003475
 40
0.9499157286
 40
0.9734530812
 40
1.0
 40
1.0
 40
1.0
 40
1.0
 10
4.8619776881
 20
3.002993615
 30
0.0
 10
4.8597242478
 20
3.0029917952
 30
0.0
 10
4.8552961455
 20
3.0029585217
 30
0.0
 10
4.8488116529
 20
3.0028133907
 30
0.0
 10
4.8426718283
 20
3.0025688669
 30
0.0
 10
4.8369640378
 20
3.0022251693
 30
0.0
 10
4.8317551072
 20
3.0017926451
 30
0.0
 10
4.8271022313
 20
3.0012809086
 30
0.0
 10
4.8230653744
 20
3.0006972967
 30
0.0
 10
4.8201194375
 20
3.0001313326
 30
0.0
 10
4.8181209667
 20
2.999629391
 30
0.0
 10
4.8168904432
 20
2.9992600684
 30
0.0
 10
4.8158460075
 20
2.9988785561
 30
0.0
 10
4.8149887551
 20
2.9984863991
 30
0.0
 10
4.8143185447
 20
2.9980834046
 30
0.0
 10
4.8138333831
 20
2.9976690546
 30
0.0
 10
4.8135741946
 20
2.9972886572
 30
0.0
 10
4.813485022
 20
2.9969843482
 30
0.0
 10
4.8134667575
 20
2.9966843337
 30
0.0
 10
4.8135894009
 20
2.9962848936
 30
0.0
 10
4.8139374557
 20
2.9958381222
 30
0.0
 10
4.8144701928
 20
2.9953988838
 30
0.0
 10
4.815190285
 20
2.9949606639
 30
0.0
 10
4.8160977679
 20
2.994522373
 30
0.0
 10
4.8171919875
 20
2.9940851039
 30
0.0
 10
4.8184708782
 20
2.9936504232
 30
0.0
 10
4.8193899529
 20
2.9933795668
 30
0.0
 10
4.8198791252
 20
2.9932435324
 30
0.0
  0
SPLINE
  5
4F4
100
AcDbEntity
  8
0
100
AcDbSpline
 62
7
  6
CONTINUOUS
 70
0
 71
3
 72
22
 73
18
 74
0
 42
0.0000001
 43
0.0000001
 44
0.0000000001
 40
0.0
 40
0.0
 40
0.0
 40
0.0
 40
0.2160602761
 40
0.3077731302
 40
0.3885966977
 40
0.4586530241
 40
0.518280645
 40
0.5681203513
 40
0.6093500315
 40
0.6441289094
 40
0.6760596598
 40
0.7097595274
 40
0.7492038045
 40
0.7968760935
 40
0.8541355847
 40
0.9217116964
 40
1.0
 40
1.0
 40
1.0
 40
1.0
 10
4.9306306324
 20
2.9901345407
 30
0.0
 10
4.9314477017
 20
2.9903128243
 30
0.0
 10
4.9326064213
 20
2.9905951172
 30
0.0
 10
4.9340423352
 20
2.9910445336
 30
0.0
 10
4.9349230386
 20
2.9913718037
 30
0.0
 10
4.935666483
 20
2.9917072527
 30
0.0
 10
4.9362722501
 20
2.9920503179
 30
0.0
 10
4.9367408321
 20
2.9924014025
 30
0.0
 10
4.9370728446
 20
2.992763154
 30
0.0
 10
4.9372643215
 20
2.9931432631
 30
0.0
 10
4.9372962298
 20
2.9935414897
 30
0.0
 10
4.9371628341
 20
2.9939351963
 30
0.0
 10
4.9368841337
 20
2.9943164685
 30
0.0
 10
4.936468103
 20
2.9946933328
 30
0.0
 10
4.9359145892
 20
2.9950694145
 30
0.0
 10
4.9352231951
 20
2.9954455916
 30
0.0
 10
4.9347085492
 20
2.9956788152
 30
0.0
 10
4.9344293877
 20
2.9957966882
 30
0.0
  0
SPLINE
  5
4F5
100
AcDbEntity
  8
0
100
AcDbSpline
 62
7
  6
CONTINUOUS
 70
0
 71
3
 72
18
 73
14
 74
0
 42
0.0000001
 43
0.0000001
 44
0.0000000001
 40
0.0
 40
0.0
 40
0.0
 40
0.0
 40
0.0286601488
 40
0.0636064325
 40
0.1046597962
 40
0.1515841265
 40
0.2040310473
 40
0.2615965952
 40
0.3903178193
 40
0.5334738258
 40
0.6862728312
 40
0.8436723523
 40
1.0
 40
1.0
 40
1.0
 40
1.0
 10
4.9344293877
 20
2.9957966882
 30
0.0
 10
4.933786466
 20
2.9960681551
 30
0.0
 10
4.9323251027
 20
2.9965883031
 30
0.0
 10
4.9298726411
 20
2.9972845003
 30
0.0
 10
4.9269571174
 20
2.9979662736
 30
0.0
 10
4.9236015049
 20
2.9986262406
 30
0.0
 10
4.9198323228
 20
2.9992587362
 30
0.0
 10
4.9140781954
 20
3.0000885576
 30
0.0
 10
4.9061055169
 20
3.0009932805
 30
0.0
 10
4.8957996485
 20
3.0018580843
 30
0.0
 10
4.8847781178
 20
3.0025048603
 30
0.0
 10
4.8734238663
 20
3.0028979066
 30
0.0
 10
4.8657843181
 20
3.0029901108
 30
0.0
 10
4.8619776881
 20
3.002993615
 30
0.0
  0
SPLINE
  5
4F6
100
AcDbEntity
  8
0
100
AcDbSpline
 62
7
  6
CONTINUOUS
 70
0
 71
3
 72
23
 73
19
 74
0
 42
0.0000001
 43
0.0000001
 44
0.0000000001
 40
0.0
 40
0.0
 40
0.0
 40
0.0
 40
0.0572688437
 40
0.1019786985
 40
0.1341929357
 40
0.1457101816
 40
0.1543071401
 40
0.1643136337
 40
0.1760150268
 40
0.1988111276
 40
0.2342379532
 40
0.2827134151
 40
0.3444458329
 40
0.4195788092
 40
0.5082296587
 40
0.6105030481
 40
0.7264968173
 40
1.0
 40
1.0
 40
1.0
 40
1.0
 10
4.2856096581
 20
3.002993615
 30
0.0
 10
4.2855776566
 20
3.0029933189
 30
0.0
 10
4.2855206757
 20
3.0029922095
 30
0.0
 10
4.2854457765
 20
3.002987461
 30
0.0
 10
4.2853967218
 20
3.0029817369
 30
0.0
 10
4.285368144
 20
3.0029742032
 30
0.0
 10
4.2853526853
 20
3.0029691504
 30
0.0
 10
4.2853376385
 20
3.002953886
 30
0.0
 10
4.2853603699
 20
3.0029325276
 30
0.0
 10
4.2853932107
 20
3.0029173365
 30
0.0
 10
4.2854502464
 20
3.0028952841
 30
0.0
 10
4.2855276111
 20
3.0028719546
 30
0.0
 10
4.2856278463
 20
3.0028449375
 30
0.0
 10
4.2857502585
 20
3.0028152939
 30
0.0
 10
4.2858953449
 20
3.0027826665
 30
0.0
 10
4.2860631415
 20
3.0027471904
 30
0.0
 10
4.2863325604
 20
3.0026929891
 30
0.0
 10
4.2865464592
 20
3.0026526739
 30
0.0
 10
4.2866967801
 20
3.0026250478
 30
0.0
  0
SPLINE
  5
4F7
100
AcDbEntity
  8
0
100
AcDbSpline
 62
7
  6
CONTINUOUS
 70
0
 71
3
 72
28
 73
24
 74
0
 42
0.0000001
 43
0.0000001
 44
0.0000000001
 40
0.0
 40
0.0
 40
0.0
 40
0.0
 40
0.1106316578
 40
0.2082272319
 40
0.2924200517
 40
0.3628752537
 40
0.4193236494
 40
0.4422572186
 40
0.4616766339
 40
0.4776491867
 40
0.490344337
 40
0.5077521762
 40
0.5154294663
 40
0.5246449881
 40
0.5364695695
 40
0.5514000062
 40
0.5696624217
 40
0.5913630783
 40
0.6452357849
 40
0.7131399215
 40
0.7949911738
 40
0.8906461224
 40
1.0
 40
1.0
 40
1.0
 40
1.0
 10
4.3246440887
 20
3.002993615
 30
0.0
 10
4.3243791034
 20
3.0029929797
 30
0.0
 10
4.3238803497
 20
3.0029883117
 30
0.0
 10
4.3231801741
 20
3.0029685452
 30
0.0
 10
4.3225767524
 20
3.0029364982
 30
0.0
 10
4.3220729806
 20
3.0028920202
 30
0.0
 10
4.3217172353
 20
3.0028424485
 30
0.0
 10
4.3214855263
 20
3.0027933677
 30
0.0
 10
4.3213509493
 20
3.0027562583
 30
0.0
 10
4.3212424167
 20
3.0027151368
 30
0.0
 10
4.321146272
 20
3.0026647221
 30
0.0
 10
4.3210747156
 20
3.0025910045
 30
0.0
 10
4.3210828199
 20
3.0025049166
 30
0.0
 10
4.3211189195
 20
3.0024449566
 30
0.0
 10
4.3211800931
 20
3.0023836685
 30
0.0
 10
4.3212672261
 20
3.0023196808
 30
0.0
 10
4.3213804078
 20
3.0022525151
 30
0.0
 10
4.3215812295
 20
3.0021513057
 30
0.0
 10
4.3218994535
 20
3.0020205108
 30
0.0
 10
4.3223601758
 20
3.0018601541
 30
0.0
 10
4.3229223415
 20
3.0016880262
 30
0.0
 10
4.3235845258
 20
3.0015045208
 30
0.0
 10
4.3240603364
 20
3.0013830472
 30
0.0
 10
4.3243146002
 20
3.0013201597
 30
0.0
  0
SPLINE
  5
4F8
100
AcDbEntity
  8
0
100
AcDbSpline
 62
7
  6
CONTINUOUS
 70
0
 71
3
 72
12
 73
8
 74
0
 42
0.0000001
 43
0.0000001
 44
0.0000000001
 40
0.0
 40
0.0
 40
0.0
 40
0.0
 40
0.2783935107
 40
0.553400818
 40
0.8011367663
 40
0.9079770618
 40
1.0
 40
1.0
 40
1.0
 40
1.0
 10
4.3985539687
 20
2.9957966882
 30
0.0
 10
4.3925173114
 20
2.9965866032
 30
0.0
 10
4.380507035
 20
2.9980783606
 30
0.0
 10
4.3630959885
 20
3.000031136
 30
0.0
 10
4.3493936958
 20
3.0013837994
 30
0.0
 10
4.3396616017
 20
3.0022052014
 30
0.0
 10
4.335323835
 20
3.0025188671
 30
0.0
 10
4.3333153403
 20
3.0026446118
 30
0.0
  0
LINE
  5
4F9
100
AcDbEntity
  8
0
100
AcDbLine
 62
7
  6
CONTINUOUS
 10
4.3333153403
 20
3.0026446118
 11
4.3270501288
 21
3.0029503977
  0
LINE
  5
4FA
100
AcDbEntity
  8
0
100
AcDbLine
 62
7
  6
CONTINUOUS
 10
4.3270501288
 20
3.0029503977
 11
4.3246440887
 21
3.002993615
  0
SPLINE
  5
4FB
100
AcDbEntity
  8
0
100
AcDbSpline
 62
7
  6
CONTINUOUS
 70
0
 71
3
 72
22
 73
18
 74
0
 42
0.0000001
 43
0.0000001
 44
0.0000000001
 40
0.0
 40
0.0
 40
0.0
 40
0.0
 40
0.2108111589
 40
0.2997791324
 40
0.3777273096
 40
0.4447569357
 40
0.5012466861
 40
0.5480397821
 40
0.5866785147
 40
0.6199163298
 40
0.6519886815
 40
0.6875994077
 40
0.7302763466
 40
0.7820286103
 40
0.8439110161
 40
0.9164735151
 40
1.0
 40
1.0
 40
1.0
 40
1.0
 10
5.09520316
 20
2.9917765113
 30
0.0
 10
5.0960476335
 20
2.9919933337
 30
0.0
 10
5.0972419031
 20
2.9923320233
 30
0.0
 10
5.098712552
 20
2.9928606342
 30
0.0
 10
5.0996036308
 20
2.9932393575
 30
0.0
 10
5.10034478
 20
2.9936223485
 30
0.0
 10
5.1009352548
 20
2.994009537
 30
0.0
 10
5.1013758507
 20
2.9944017545
 30
0.0
 10
5.1016672125
 20
2.9948036356
 30
0.0
 10
5.1017989856
 20
2.995223687
 30
0.0
 10
5.1017506153
 20
2.9956501337
 30
0.0
 10
5.1015301987
 20
2.9960589548
 30
0.0
 10
5.1011576624
 20
2.9964521532
 30
0.0
 10
5.1006362706
 20
2.9968380653
 30
0.0
 10
5.0999655358
 20
2.9972189748
 30
0.0
 10
5.0991453901
 20
2.9975950885
 30
0.0
 10
5.0985420496
 20
2.997825793
 30
0.0
 10
5.0982165839
 20
2.9979415714
 30
0.0
  0
SPLINE
  5
4FC
100
AcDbEntity
  8
0
100
AcDbSpline
 62
7
  6
CONTINUOUS
 70
0
 71
3
 72
17
 73
13
 74
0
 42
0.0000001
 43
0.0000001
 44
0.0000000001
 40
0.0
 40
0.0
 40
0.0
 40
0.0
 40
0.032348103
 40
0.0698411832
 40
0.112352315
 40
0.1597323281
 40
0.2682571206
 40
0.3931265945
 40
0.5317430797
 40
0.6813170719
 40
0.8387582998
 40
1.0
 40
1.0
 40
1.0
 40
1.0
 10
5.0978632803
 20
2.9980639575
 30
0.0
 10
5.0972836644
 20
2.9982595737
 30
0.0
 10
5.0960168144
 20
2.9986363158
 30
0.0
 10
5.0939527981
 20
2.9991426288
 30
0.0
 10
5.0915929165
 20
2.9996288205
 30
0.0
 10
5.0878963012
 20
3.0002750672
 30
0.0
 10
5.0826330313
 20
3.0009893763
 30
0.0
 10
5.075632645
 20
3.0016964191
 30
0.0
 10
5.0678412525
 20
3.0022670382
 30
0.0
 10
5.0594235624
 20
3.002684776
 30
0.0
 10
5.050571258
 20
3.0029332573
 30
0.0
 10
5.0445445485
 20
3.0029908692
 30
0.0
 10
5.0414953056
 20
3.002993615
 30
0.0
  0
LINE
  5
4FD
100
AcDbEntity
  8
0
100
AcDbLine
 62
7
  6
CONTINUOUS
 10
5.7613453081
 20
3.002993615
 11
5.7495970047
 21
3.0016860252
  0
SPLINE
  5
4FE
100
AcDbEntity
  8
0
100
AcDbSpline
 62
7
  6
CONTINUOUS
 70
0
 71
3
 72
44
 73
40
 74
0
 42
0.0000001
 43
0.0000001
 44
0.0000000001
 40
0.0
 40
0.0
 40
0.0
 40
0.0
 40
0.0630617094
 40
0.1379874965
 40
0.2223008197
 40
0.3132034628
 40
0.4077098
 40
0.5027515735
 40
0.5952780671
 40
0.639669612
 40
0.6823390761
 40
0.722946441
 40
0.7611703717
 40
0.7967054207
 40
0.8292654413
 40
0.858594718
 40
0.884462121
 40
0.9066633992
 40
0.9163340021
 40
0.9250267005
 40
0.932725518
 40
0.9394206876
 40
0.9451072016
 40
0.949786491
 40
0.9534761805
 40
0.9562258137
 40
0.9572880556
 40
0.9581830586
 40
0.9589704052
 40
0.9597353604
 40
0.9605701047
 40
0.9615472858
 40
0.9640901414
 40
0.9675581807
 40
0.9720150141
 40
0.9774857762
 40
0.9839778709
 40
0.991485909
 40
1.0
 40
1.0
 40
1.0
 40
1.0
 10
5.6562529783
 20
3.0029540658
 30
0.0
 10
5.6537715161
 20
3.0029003429
 30
0.0
 10
5.6483438508
 20
3.002687475
 30
0.0
 10
5.6396097893
 20
3.0021615156
 30
0.0
 10
5.6297926976
 20
3.0014114549
 30
0.0
 10
5.6192190162
 20
3.0004616599
 30
0.0
 10
5.6082373345
 20
2.9993430714
 30
0.0
 10
5.5972056084
 20
2.9980924094
 30
0.0
 10
5.5881462504
 20
2.9969593027
 30
0.0
 10
5.5811412275
 20
2.996014711
 30
0.0
 10
5.576166047
 20
2.9953093141
 30
0.0
 10
5.5714363234
 20
2.9946028578
 30
0.0
 10
5.5669899615
 20
2.9939011067
 30
0.0
 10
5.5628627815
 20
2.9932097878
 30
0.0
 10
5.5590881011
 20
2.9925344887
 30
0.0
 10
5.5556963388
 20
2.9918809719
 30
0.0
 10
5.5527149521
 20
2.9912547012
 30
0.0
 10
5.5505012807
 20
2.990739361
 30
0.0
 10
5.5489554097
 20
2.9903398743
 30
0.0
 10
5.5479672832
 20
2.9900642084
 30
0.0
 10
5.5470980426
 20
2.9897991051
 30
0.0
 10
5.5463493749
 20
2.9895452367
 30
0.0
 10
5.5457227613
 20
2.9893033543
 30
0.0
 10
5.545218558
 20
2.98907408
 30
0.0
 10
5.5448376387
 20
2.9888580961
 30
0.0
 10
5.5446017644
 20
2.9886758413
 30
0.0
 10
5.5444843995
 20
2.9885312776
 30
0.0
 10
5.5444353061
 20
2.9884337434
 30
0.0
 10
5.5444193082
 20
2.9883368214
 30
0.0
 10
5.5444391987
 20
2.9882428355
 30
0.0
 10
5.5444932103
 20
2.9881551776
 30
0.0
 10
5.5446180776
 20
2.9880359493
 30
0.0
 10
5.5448642787
 20
2.9879053441
 30
0.0
 10
5.545255028
 20
2.98777399
 30
0.0
 10
5.5457697613
 20
2.9876560889
 30
0.0
 10
5.5464078384
 20
2.9875524141
 30
0.0
 10
5.5471692487
 20
2.9874635685
 30
0.0
 10
5.5480524188
 20
2.9873898755
 30
0.0
 10
5.5486820388
 20
2.9873533413
 30
0.0
 10
5.5490167506
 20
2.9873370964
 30
0.0
  0
LINE
  5
4FF
100
AcDbEntity
  8
0
100
AcDbLine
 62
7
  6
CONTINUOUS
 10
5.5490167506
 20
2.9873370964
 11
5.5515331482
 21
2.9872638202
  0
SPLINE
  5
500
100
AcDbEntity
  8
0
100
AcDbSpline
 62
7
  6
CONTINUOUS
 70
0
 71
3
 72
26
 73
22
 74
0
 42
0.0000001
 43
0.0000001
 44
0.0000000001
 40
0.0
 40
0.0
 40
0.0
 40
0.0
 40
0.1023657963
 40
0.1911547949
 40
0.2663472296
 40
0.3279934354
 40
0.3762913221
 40
0.4118080431
 40
0.4252665302
 40
0.4363998233
 40
0.4460416398
 40
0.4554420251
 40
0.4659468379
 40
0.4785607144
 40
0.5121995745
 40
0.5588242174
 40
0.619310814
 40
0.6940080955
 40
0.7826710385
 40
0.8848373496
 40
1.0
 40
1.0
 40
1.0
 40
1.0
 10
5.663993997
 20
2.9999845046
 30
0.0
 10
5.6643461118
 20
3.0000813711
 30
0.0
 10
5.6650017571
 20
3.0002692426
 30
0.0
 10
5.6659073752
 20
3.0005575985
 30
0.0
 10
5.6666643915
 20
3.0008316861
 30
0.0
 10
5.6672728675
 20
3.0010905472
 30
0.0
 10
5.6677316977
 20
3.0013333656
 30
0.0
 10
5.6680163913
 20
3.0015374262
 30
0.0
 10
5.6681581846
 20
3.0016997744
 30
0.0
 10
5.6682169676
 20
3.0018084966
 30
0.0
 10
5.668235381
 20
3.0019172073
 30
0.0
 10
5.6682089719
 20
3.0020222055
 30
0.0
 10
5.6681409364
 20
3.0021185142
 30
0.0
 10
5.6679847194
 20
3.0022495162
 30
0.0
 10
5.6676801537
 20
3.0023899492
 30
0.0
 10
5.6671976639
 20
3.0025294115
 30
0.0
 10
5.6665597007
 20
3.0026515275
 30
0.0
 10
5.6657677175
 20
3.0027552201
 30
0.0
 10
5.6648240602
 20
3.0028405264
 30
0.0
 10
5.6637343677
 20
3.0029073009
 30
0.0
 10
5.6629595691
 20
3.0029376791
 30
0.0
 10
5.6625489168
 20
3.0029503977
 30
0.0
  0
LINE
  5
501
100
AcDbEntity
  8
0
100
AcDbLine
 62
7
  6
CONTINUOUS
 10
5.7315793184
 20
3.002993615
 11
5.7239568436
 21
3.0026578006
  0
SPLINE
  5
502
100
AcDbEntity
  8
0
100
AcDbSpline
 62
7
  6
CONTINUOUS
 70
0
 71
3
 72
12
 73
8
 74
0
 42
0.0000001
 43
0.0000001
 44
0.0000000001
 40
0.0
 40
0.0
 40
0.0
 40
0.0
 40
0.0883384464
 40
0.1915171876
 40
0.433587099
 40
0.7095824001
 40
1.0
 40
1.0
 40
1.0
 40
1.0
 10
5.7239568436
 20
3.0026578006
 30
0.0
 10
5.7222886888
 20
3.0025461108
 30
0.0
 10
5.7186742856
 20
3.0022719853
 30
0.0
 10
5.7104987449
 20
3.0015641062
 30
0.0
 10
5.6987977597
 20
3.0004068789
 30
0.0
 10
5.6835887103
 20
2.9987271476
 30
0.0
 10
5.6729449823
 20
2.9974498528
 30
0.0
 10
5.6674907695
 20
2.9967699148
 30
0.0
  0
SPLINE
  5
503
100
AcDbEntity
  8
0
100
AcDbSpline
 62
7
  6
CONTINUOUS
 70
0
 71
3
 72
24
 73
20
 74
0
 42
0.0000001
 43
0.0000001
 44
0.0000000001
 40
0.0
 40
0.0
 40
0.0
 40
0.0
 40
0.2150726607
 40
0.3738521346
 40
0.4322947632
 40
0.4770004064
 40
0.5084787153
 40
0.5197156628
 40
0.5285205879
 40
0.5359121896
 40
0.5435458365
 40
0.5529962679
 40
0.5651878118
 40
0.5994080205
 40
0.6480789263
 40
0.7119914518
 40
0.7916720272
 40
0.8875476079
 40
1.0
 40
1.0
 40
1.0
 40
1.0
 10
5.731351442
 20
3.0016680154
 30
0.0
 10
5.7317451441
 20
3.0017622589
 30
0.0
 10
5.7324274926
 20
3.0019346067
 30
0.0
 10
5.7332078535
 20
3.0021670506
 30
0.0
 10
5.7336695002
 20
3.0023415917
 30
0.0
 10
5.7338989919
 20
3.0024487812
 30
0.0
 10
5.7340400238
 20
3.0025366065
 30
0.0
 10
5.7341081436
 20
3.0026063314
 30
0.0
 10
5.7341344273
 20
3.0026519112
 30
0.0
 10
5.7341384101
 20
3.0026985789
 30
0.0
 10
5.7341168297
 20
3.0027413675
 30
0.0
 10
5.7340746716
 20
3.0027779897
 30
0.0
 10
5.7339816519
 20
3.0028280153
 30
0.0
 10
5.7338082164
 20
3.0028775017
 30
0.0
 10
5.7335358203
 20
3.0029235247
 30
0.0
 10
5.7331753083
 20
3.0029587593
 30
0.0
 10
5.7327251832
 20
3.0029829947
 30
0.0
 10
5.73218313
 20
3.0029953407
 30
0.0
 10
5.7317909771
 20
3.0029953409
 30
0.0
 10
5.7315793184
 20
3.002993615
 30
0.0
  0
SPLINE
  5
504
100
AcDbEntity
  8
0
100
AcDbSpline
 62
7
  6
CONTINUOUS
 70
0
 71
3
 72
19
 73
15
 74
0
 42
0.0000001
 43
0.0000001
 44
0.0000000001
 40
0.0
 40
0.0
 40
0.0
 40
0.0
 40
0.0600489032
 40
0.1202140915
 40
0.241066353
 40
0.3019231383
 40
0.3631145137
 40
0.4246846015
 40
0.4866713134
 40
0.6119674063
 40
0.7392317741
 40
0.8685477083
 40
0.9340144293
 40
1.0
 40
1.0
 40
1.0
 40
1.0
 10
3.8274832092
 20
2.8816785463
 30
0.0
 10
3.8336531567
 20
2.8819426388
 30
0.0
 10
3.8459923257
 20
2.8828680848
 30
0.0
 10
3.8705573985
 20
2.8863032807
 30
0.0
 10
3.894826644
 20
2.8921135607
 30
0.0
 10
3.9184795563
 20
2.9001858477
 30
0.0
 10
3.935948923
 20
2.9073903209
 30
0.0
 10
3.9530469291
 20
2.9157038597
 30
0.0
 10
3.9753558003
 20
2.928272502
 30
0.0
 10
4.0020618173
 20
2.9466734481
 30
0.0
 10
4.0316708742
 20
2.9725976488
 30
0.0
 10
4.0540330495
 20
2.9971291649
 30
0.0
 10
4.0704385541
 20
3.0183563026
 30
0.0
 10
4.0781232792
 20
3.0294883868
 30
0.0
 10
4.0818304688
 20
3.0351724386
 30
0.0
  0
SPLINE
  5
505
100
AcDbEntity
  8
0
100
AcDbSpline
 62
7
  6
CONTINUOUS
 70
0
 71
3
 72
17
 73
13
 74
0
 42
0.0000001
 43
0.0000001
 44
0.0000000001
 40
0.0
 40
0.0
 40
0.0
 40
0.0
 40
0.224443178
 40
0.4196309522
 40
0.5855103652
 40
0.7221387978
 40
0.8297868878
 40
0.8729812783
 40
0.9093395741
 40
0.9392470467
 40
0.9633999198
 40
1.0
 40
1.0
 40
1.0
 40
1.0
 10
5.724254548
 20
2.994222376
 30
0.0
 10
5.7244246584
 20
2.9942223786
 30
0.0
 10
5.7247427229
 20
2.9942196315
 30
0.0
 10
5.7251863037
 20
2.9942051802
 30
0.0
 10
5.7255628452
 20
2.9941809088
 30
0.0
 10
5.7258719321
 20
2.9941468689
 30
0.0
 10
5.7260868165
 20
2.9941087152
 30
0.0
 10
5.7262237005
 20
2.9940708972
 30
0.0
 10
5.7263016934
 20
2.9940423683
 30
0.0
 10
5.7263629934
 20
2.9940108645
 30
0.0
 10
5.7264182431
 20
2.9939703639
 30
0.0
 10
5.7264431362
 20
2.9939250129
 30
0.0
 10
5.7264431495
 20
2.993897273
 30
0.0
  0
SPLINE
  5
506
100
AcDbEntity
  8
0
100
AcDbSpline
 62
7
  6
CONTINUOUS
 70
0
 71
3
 72
13
 73
9
 74
0
 42
0.0000001
 43
0.0000001
 44
0.0000000001
 40
0.0
 40
0.0
 40
0.0
 40
0.0
 40
0.1296353123
 40
0.2523638123
 40
0.3667806587
 40
0.476877219
 40
0.7227785702
 40
1.0
 40
1.0
 40
1.0
 40
1.0
 10
5.7315790625
 20
3.0029948914
 30
0.0
 10
5.7310480532
 20
3.0029183102
 30
0.0
 10
5.7300260578
 20
3.0026666824
 30
0.0
 10
5.7286407616
 20
3.0020266739
 30
0.0
 10
5.7274552717
 20
3.0012020044
 30
0.0
 10
5.7260539467
 20
2.9998405708
 30
0.0
 10
5.7246619341
 20
2.9975574266
 30
0.0
 10
5.7242504985
 20
2.9953697392
 30
0.0
 10
5.7242509512
 20
2.9942224426
 30
0.0
  0
SPLINE
  5
507
100
AcDbEntity
  8
0
100
AcDbSpline
 62
7
  6
CONTINUOUS
 70
0
 71
3
 72
19
 73
15
 74
0
 42
0.0000001
 43
0.0000001
 44
0.0000000001
 40
0.0
 40
0.0
 40
0.0
 40
0.0
 40
0.221815574
 40
0.4160160449
 40
0.5820749992
 40
0.7195627733
 40
0.7775200703
 40
0.8282838385
 40
0.8719170413
 40
0.9086157341
 40
0.9387519602
 40
0.9629983326
 40
0.9826375598
 40
1.0
 40
1.0
 40
1.0
 40
1.0
 10
5.6530837282
 20
2.9942225273
 30
0.0
 10
5.6536484639
 20
2.9942225584
 30
0.0
 10
5.6547076735
 20
2.9942129553
 30
0.0
 10
5.6561889972
 20
2.9941633969
 30
0.0
 10
5.6574537388
 20
2.9940802521
 30
0.0
 10
5.6583691561
 20
2.9939794152
 30
0.0
 10
5.6589877759
 20
2.9938772636
 30
0.0
 10
5.6593674265
 20
2.9937969337
 30
0.0
 10
5.6596895544
 20
2.9937085793
 30
0.0
 10
5.6599542587
 20
2.9936123225
 30
0.0
 10
5.6601622501
 20
2.9935081034
 30
0.0
 10
5.6603146765
 20
2.9933949884
 30
0.0
 10
5.6604120427
 20
2.9932692715
 30
0.0
 10
5.6604347447
 20
2.9931740371
 30
0.0
 10
5.6604348001
 20
2.9931298329
 30
0.0
  0
SPLINE
  5
508
100
AcDbEntity
  8
0
100
AcDbSpline
 62
7
  6
CONTINUOUS
 70
0
 71
3
 72
13
 73
9
 74
0
 42
0.0000001
 43
0.0000001
 44
0.0000000001
 40
0.0
 40
0.0
 40
0.0
 40
0.0
 40
0.1225695234
 40
0.2402106072
 40
0.3517564829
 40
0.4609862453
 40
0.711219335
 40
1.0
 40
1.0
 40
1.0
 40
1.0
 10
5.6596654042
 20
3.0029959793
 30
0.0
 10
5.6591863332
 20
3.0029188062
 30
0.0
 10
5.6582610058
 20
3.0026635751
 30
0.0
 10
5.6570163692
 20
3.0020203777
 30
0.0
 10
5.6559529918
 20
3.0011940825
 30
0.0
 10
5.6546845321
 20
2.9998178742
 30
0.0
 10
5.6534413787
 20
2.9975184709
 30
0.0
 10
5.653083001
 20
2.9953657139
 30
0.0
 10
5.6530834676
 20
2.9942224447
 30
0.0
  0
SPLINE
  5
509
100
AcDbEntity
  8
0
100
AcDbSpline
 62
7
  6
CONTINUOUS
 70
0
 71
3
 72
19
 73
15
 74
0
 42
0.0000001
 43
0.0000001
 44
0.0000000001
 40
0.0
 40
0.0
 40
0.0
 40
0.0
 40
0.1922587064
 40
0.3718212499
 40
0.5346267122
 40
0.6770931865
 40
0.7397534534
 40
0.7962709526
 40
0.84641444
 40
0.8899946162
 40
0.9269345528
 40
0.9573014108
 40
0.98138043
 40
1.0
 40
1.0
 40
1.0
 40
1.0
 10
5.2178207117
 20
2.9942224381
 30
0.0
 10
5.2203582246
 20
2.9942224418
 30
0.0
 10
5.2252659226
 20
2.9941666775
 30
0.0
 10
5.2323181997
 20
2.9939043713
 30
0.0
 10
5.2387037208
 20
2.9934727945
 30
0.0
 10
5.2435349826
 20
2.9929640637
 30
0.0
 10
5.2469525404
 20
2.9924654638
 30
0.0
 10
5.2491530769
 20
2.9920731755
 30
0.0
 10
5.2510908834
 20
2.9916496369
 30
0.0
 10
5.2527560472
 20
2.991197127
 30
0.0
 10
5.2541406855
 20
2.9907191218
 30
0.0
 10
5.2552410503
 20
2.9902175623
 30
0.0
 10
5.2560558694
 20
2.989695693
 30
0.0
 10
5.2564535298
 20
2.9892797011
 30
0.0
 10
5.2565801068
 20
2.9890690572
 30
0.0
  0
LINE
  5
50A
100
AcDbEntity
  8
0
100
AcDbLine
 62
7
  6
CONTINUOUS
 10
5.2565801068
 20
2.9890690572
 11
5.2567667318
 21
2.988440748
  0
SPLINE
  5
50B
100
AcDbEntity
  8
0
100
AcDbSpline
 62
7
  6
CONTINUOUS
 70
0
 71
3
 72
15
 73
11
 74
0
 42
0.0000001
 43
0.0000001
 44
0.0000000001
 40
0.0
 40
0.0
 40
0.0
 40
0.0
 40
0.0630290888
 40
0.1013856936
 40
0.1439691179
 40
0.2386807543
 40
0.3460903826
 40
0.4771723069
 40
0.6328403401
 40
1.0
 40
1.0
 40
1.0
 40
1.0
 10
5.2198621581
 20
3.0029948914
 30
0.0
 10
5.219690074
 20
3.0029058485
 30
0.0
 10
5.2194606727
 20
3.002676951
 30
0.0
 10
5.2192147664
 20
3.0023105671
 30
0.0
 10
5.2189612801
 20
3.0018321696
 30
0.0
 10
5.2186892332
 20
3.0011289016
 30
0.0
 10
5.2184119527
 20
3.0001418252
 30
0.0
 10
5.2181714531
 20
2.9989532151
 30
0.0
 10
5.2178981195
 20
2.9969608203
 30
0.0
 10
5.2178195986
 20
2.9953511214
 30
0.0
 10
5.217819727
 20
2.9942224426
 30
0.0
  0
SPLINE
  5
50C
100
AcDbEntity
  8
0
100
AcDbSpline
 62
7
  6
CONTINUOUS
 70
0
 71
3
 72
22
 73
18
 74
0
 42
0.0000001
 43
0.0000001
 44
0.0000000001
 40
0.0
 40
0.0
 40
0.0
 40
0.0
 40
0.1823545694
 40
0.3577923768
 40
0.5207172905
 40
0.6660195913
 40
0.7305862073
 40
0.7891617291
 40
0.8413560611
 40
0.8649469581
 40
0.8868109514
 40
0.9252838075
 40
0.9567611453
 40
0.9699301634
 40
0.9814478928
 40
0.991413682
 40
1.0
 40
1.0
 40
1.0
 40
1.0
 10
5.0412953383
 20
2.9942225273
 30
0.0
 10
5.0444906049
 20
2.9942226168
 30
0.0
 10
5.0507602695
 20
2.9941387162
 30
0.0
 10
5.0598780578
 20
2.9937650958
 30
0.0
 10
5.0683323772
 20
2.9931551651
 30
0.0
 10
5.0748286507
 20
2.9924499035
 30
0.0
 10
5.0794828924
 20
2.9917653903
 30
0.0
 10
5.082508629
 20
2.9912298278
 30
0.0
 10
5.084811627
 20
2.990737454
 30
0.0
 10
5.086471221
 20
2.9903203038
 30
0.0
 10
5.0878873469
 20
2.9899231017
 30
0.0
 10
5.0894163914
 20
2.9894194901
 30
0.0
 10
5.0907590178
 20
2.9888460172
 30
0.0
 10
5.0916184075
 20
2.9883645341
 30
0.0
 10
5.0921203158
 20
2.9880208502
 30
0.0
 10
5.0925181401
 20
2.9876732568
 30
0.0
 10
5.0927270071
 20
2.9874210895
 30
0.0
 10
5.0928089814
 20
2.987294931
 30
0.0
  0
LINE
  5
50D
100
AcDbEntity
  8
0
100
AcDbLine
 62
7
  6
CONTINUOUS
 10
5.0928089814
 20
2.987294931
 11
5.0930522561
 21
2.9865402429
  0
LINE
  5
50E
100
AcDbEntity
  8
0
100
AcDbLine
 62
7
  6
CONTINUOUS
 10
4.9866530352
 20
2.9909256838
 11
4.9846439644
 21
2.991383442
  0
SPLINE
  5
50F
100
AcDbEntity
  8
0
100
AcDbSpline
 62
7
  6
CONTINUOUS
 70
0
 71
3
 72
22
 73
18
 74
0
 42
0.0000001
 43
0.0000001
 44
0.0000000001
 40
0.0
 40
0.0
 40
0.0
 40
0.0
 40
0.2138991591
 40
0.304568857
 40
0.3843504481
 40
0.4533545425
 40
0.5119147445
 40
0.5607349738
 40
0.6011169744
 40
0.6354427114
 40
0.6675397689
 40
0.7019995636
 40
0.7426126331
 40
0.7917124013
 40
0.850582918
 40
0.9199081663
 40
1.0
 40
1.0
 40
1.0
 40
1.0
 10
4.9846439644
 20
2.991383442
 30
0.0
 10
4.9838071132
 20
2.991590584
 30
0.0
 10
4.9826217202
 20
2.9919149997
 30
0.0
 10
4.9811574213
 20
2.9924221187
 30
0.0
 10
4.9802633496
 20
2.992787149
 30
0.0
 10
4.9795130908
 20
2.9931573147
 30
0.0
 10
4.9789073797
 20
2.9935322799
 30
0.0
 10
4.9784457868
 20
2.993912549
 30
0.0
 10
4.9781278022
 20
2.9943015696
 30
0.0
 10
4.9779597986
 20
2.9947074391
 30
0.0
 10
4.9779608695
 20
2.9951252278
 30
0.0
 10
4.9781308547
 20
2.995531755
 30
0.0
 10
4.9784505263
 20
2.9959226153
 30
0.0
 10
4.9789137681
 20
2.9963060184
 30
0.0
 10
4.9795212285
 20
2.9966850941
 30
0.0
 10
4.9802731397
 20
2.9970603908
 30
0.0
 10
4.9808298695
 20
2.9972911136
 30
0.0
 10
4.9811310834
 20
2.9974071877
 30
0.0
  0
SPLINE
  5
510
100
AcDbEntity
  8
0
100
AcDbSpline
 62
7
  6
CONTINUOUS
 70
0
 71
3
 72
17
 73
13
 74
0
 42
0.0000001
 43
0.0000001
 44
0.0000000001
 40
0.0
 40
0.0
 40
0.0
 40
0.0
 40
0.0301526151
 40
0.0658859599
 40
0.1070842856
 40
0.1535651138
 40
0.2613583084
 40
0.386855632
 40
0.527073367
 40
0.6785738261
 40
0.837556382
 40
1.0
 40
1.0
 40
1.0
 40
1.0
 10
4.9811310834
 20
2.9974071877
 30
0.0
 10
4.9817013953
 20
2.9976269598
 30
0.0
 10
4.9829699444
 20
2.9980490772
 30
0.0
 10
4.9850666755
 20
2.9986131764
 30
0.0
 10
4.9875089552
 20
2.9991576238
 30
0.0
 10
4.9914037697
 20
2.9998883227
 30
0.0
 10
4.9970186198
 20
3.0007001536
 30
0.0
 10
5.0045478717
 20
3.001504622
 30
0.0
 10
5.0129807989
 20
3.0021554223
 30
0.0
 10
5.0221046993
 20
3.0026346529
 30
0.0
 10
5.0316870999
 20
3.0029271268
 30
0.0
 10
5.0382025824
 20
3.002994361
 30
0.0
 10
5.0414953056
 20
3.002993615
 30
0.0
  0
LINE
  5
511
100
AcDbEntity
  8
0
100
AcDbLine
 62
7
  6
CONTINUOUS
 10
5.0414952946
 20
3.0029959789
 11
5.0412953309
 21
2.9942224464
  0
SPLINE
  5
512
100
AcDbEntity
  8
0
100
AcDbSpline
 62
7
  6
CONTINUOUS
 70
0
 71
3
 72
25
 73
21
 74
0
 42
0.0000001
 43
0.0000001
 44
0.0000000001
 40
0.0
 40
0.0
 40
0.0
 40
0.0
 40
0.176346233
 40
0.3525272762
 40
0.4379332513
 40
0.5201751182
 40
0.5982399477
 40
0.6712444488
 40
0.7383897524
 40
0.7988927805
 40
0.8521099653
 40
0.8975796234
 40
0.9172871464
 40
0.9349216038
 40
0.950470904
 40
0.9639666901
 40
0.9754763821
 40
0.9851270072
 40
0.9931563482
 40
1.0
 40
1.0
 40
1.0
 40
1.0
 10
4.863631082
 20
2.9942225273
 30
0.0
 10
4.8675269639
 20
2.994222639
 30
0.0
 10
4.8753155131
 20
2.9940904728
 30
0.0
 10
4.8849808907
 20
2.9936231518
 30
0.0
 10
4.8925566691
 20
2.9930654845
 30
0.0
 10
4.8979628362
 20
2.9925718694
 30
0.0
 10
4.9030861296
 20
2.9920035105
 30
0.0
 10
4.9078653609
 20
2.99136815
 30
0.0
 10
4.912244253
 20
2.990675182
 30
0.0
 10
4.9161712181
 20
2.9899328212
 30
0.0
 10
4.9196006778
 20
2.9891497398
 30
0.0
 10
4.9221212173
 20
2.9884444001
 30
0.0
 10
4.9238539743
 20
2.9878559719
 30
0.0
 10
4.9249432986
 20
2.9874319118
 30
0.0
 10
4.9258827227
 20
2.9870049019
 30
0.0
 10
4.9266706493
 20
2.9865763335
 30
0.0
 10
4.9273065605
 20
2.9861471851
 30
0.0
 10
4.9277903756
 20
2.9857167373
 30
0.0
 10
4.9281221407
 20
2.9852829063
 30
0.0
 10
4.928242611
 20
2.9849695077
 30
0.0
 10
4.9282682881
 20
2.9848205125
 30
0.0
  0
SPLINE
  5
513
100
AcDbEntity
  8
0
100
AcDbSpline
 62
7
  6
CONTINUOUS
 70
0
 71
3
 72
16
 73
12
 74
0
 42
0.0000001
 43
0.0000001
 44
0.0000000001
 40
0.0
 40
0.0
 40
0.0
 40
0.0
 40
0.0263202919
 40
0.0578150668
 40
0.0945666856
 40
0.1361092254
 40
0.2299678325
 40
0.3376030091
 40
0.469776239
 40
0.627332288
 40
1.0
 40
1.0
 40
1.0
 40
1.0
 10
4.8619777442
 20
3.0029948914
 30
0.0
 10
4.8620448875
 20
3.0029519948
 30
0.0
 10
4.862176097
 20
3.0028325251
 30
0.0
 10
4.8623448073
 20
3.0026001124
 30
0.0
 10
4.8625036435
 20
3.0023073489
 30
0.0
 10
4.8627089749
 20
3.0018278448
 30
0.0
 10
4.8629289267
 20
3.0011241083
 30
0.0
 10
4.8631528981
 20
3.0001386339
 30
0.0
 10
4.8633474048
 20
2.9989508297
 30
0.0
 10
4.8635687653
 20
2.9969573173
 30
0.0
 10
4.8636320882
 20
2.9953505777
 30
0.0
 10
4.8636319927
 20
2.9942224426
 30
0.0
  0
SPLINE
  5
514
100
AcDbEntity
  8
0
100
AcDbSpline
 62
7
  6
CONTINUOUS
 70
0
 71
3
 72
30
 73
26
 74
0
 42
0.0000001
 43
0.0000001
 44
0.0000000001
 40
0.0
 40
0.0
 40
0.0
 40
0.0
 40
0.0531302942
 40
0.1163984434
 40
0.1882376927
 40
0.2667524027
 40
0.3499189023
 40
0.4356194579
 40
0.5216719008
 40
0.6059343693
 40
0.6863222675
 40
0.7608317042
 40
0.8276726215
 40
0.8851550154
 40
0.9099574542
 40
0.9319313676
 40
0.9509308633
 40
0.9668491943
 40
0.9736370852
 40
0.9796387275
 40
0.9848541199
 40
0.9892889222
 40
0.9929593453
 40
0.9959031139
 40
1.0
 40
1.0
 40
1.0
 40
1.0
 10
4.4114850284
 20
2.9942225279
 30
0.0
 10
4.4132403507
 20
2.9942226178
 30
0.0
 10
4.4170858672
 20
2.9941345332
 30
0.0
 10
4.4232975751
 20
2.9938249549
 30
0.0
 10
4.4303381163
 20
2.9933273034
 30
0.0
 10
4.4380242318
 20
2.9926563079
 30
0.0
 10
4.4461553485
 20
2.9918271742
 30
0.0
 10
4.4545221641
 20
2.9908622096
 30
0.0
 10
4.4629119443
 20
2.989786291
 30
0.0
 10
4.4711132957
 20
2.9886263114
 30
0.0
 10
4.4789212674
 20
2.9874132177
 30
0.0
 10
4.4861422244
 20
2.9861760926
 30
0.0
 10
4.4925959817
 20
2.9849487373
 30
0.0
 10
4.4974139385
 20
2.9839149774
 30
0.0
 10
4.5007618536
 20
2.9831041838
 30
0.0
 10
4.5028628046
 20
2.9825479628
 30
0.0
 10
4.5046660426
 20
2.98201676
 30
0.0
 10
4.5059727763
 20
2.9815779164
 30
0.0
 10
4.5068578848
 20
2.9812366165
 30
0.0
 10
4.5074049734
 20
2.9810028314
 30
0.0
 10
4.5078708946
 20
2.9807775136
 30
0.0
 10
4.5082544487
 20
2.9805621739
 30
0.0
 10
4.5085571742
 20
2.9803538437
 30
0.0
 10
4.5088185097
 20
2.9801221521
 30
0.0
 10
4.5089545871
 20
2.9799021542
 30
0.0
 10
4.5089547867
 20
2.9797668011
 30
0.0
  0
SPLINE
  5
515
100
AcDbEntity
  8
0
100
AcDbSpline
 62
7
  6
CONTINUOUS
 70
0
 71
3
 72
13
 73
9
 74
0
 42
0.0000001
 43
0.0000001
 44
0.0000000001
 40
0.0
 40
0.0
 40
0.0
 40
0.0
 40
0.1204363411
 40
0.2365647303
 40
0.3472837294
 40
0.4562702038
 40
0.7078043253
 40
1.0
 40
1.0
 40
1.0
 40
1.0
 10
4.4051151472
 20
3.0029948912
 30
0.0
 10
4.4055796784
 20
3.0029178603
 30
0.0
 10
4.4064780228
 20
3.0026619802
 30
0.0
 10
4.4076832112
 20
3.0020182917
 30
0.0
 10
4.4087123147
 20
3.0011918472
 30
0.0
 10
4.4099431173
 20
2.9998116361
 30
0.0
 10
4.411144524
 20
2.9975083624
 30
0.0
 10
4.4114888231
 20
2.9953648516
 30
0.0
 10
4.4114884349
 20
2.9942224426
 30
0.0
  0
SPLINE
  5
516
100
AcDbEntity
  8
0
100
AcDbSpline
 62
7
  6
CONTINUOUS
 70
0
 71
3
 72
16
 73
12
 74
0
 42
0.0000001
 43
0.0000001
 44
0.0000000001
 40
0.0
 40
0.0
 40
0.0
 40
0.0
 40
0.029123451
 40
0.0653146107
 40
0.1081885536
 40
0.1573414546
 40
0.2722561485
 40
0.4051415231
 40
0.5504402889
 40
0.7021329031
 40
1.0
 40
1.0
 40
1.0
 40
1.0
 10
4.3318449779
 20
2.9942225273
 30
0.0
 10
4.3325377394
 20
2.9942225854
 30
0.0
 10
4.3340913196
 20
2.9941848521
 30
0.0
 10
4.3366617187
 20
2.9940564974
 30
0.0
 10
4.3397047496
 20
2.9938492746
 30
0.0
 10
4.3446109861
 20
2.9934478344
 30
0.0
 10
4.351641228
 20
2.9927573248
 30
0.0
 10
4.3609333069
 20
2.9917104381
 30
0.0
 10
4.3710808796
 20
2.9904484842
 30
0.0
 10
4.3851041895
 20
2.9885588876
 30
0.0
 10
4.3956821505
 20
2.9869829954
 30
0.0
 10
4.4026777225
 20
2.985858431
 30
0.0
  0
SPLINE
  5
517
100
AcDbEntity
  8
0
100
AcDbSpline
 62
7
  6
CONTINUOUS
 70
0
 71
3
 72
13
 73
9
 74
0
 42
0.0000001
 43
0.0000001
 44
0.0000000001
 40
0.0
 40
0.0
 40
0.0
 40
0.0
 40
0.1285120452
 40
0.2504250154
 40
0.3643754324
 40
0.4743220709
 40
0.7209033971
 40
1.0
 40
1.0
 40
1.0
 40
1.0
 10
4.3246443359
 20
3.0029948914
 30
0.0
 10
4.3251667179
 20
3.0029182615
 30
0.0
 10
4.3261726653
 20
3.0026661661
 30
0.0
 10
4.3275347042
 20
3.002025714
 30
0.0
 10
4.328699999
 20
3.001200791
 30
0.0
 10
4.3300794712
 20
2.9998369625
 30
0.0
 10
4.3314468756
 20
2.9975508306
 30
0.0
 10
4.3318492616
 20
2.9953690695
 30
0.0
 10
4.3318488198
 20
2.9942224426
 30
0.0
  0
SPLINE
  5
518
100
AcDbEntity
  8
0
100
AcDbSpline
 62
7
  6
CONTINUOUS
 70
0
 71
3
 72
17
 73
13
 74
0
 42
0.0000001
 43
0.0000001
 44
0.0000000001
 40
0.0
 40
0.0
 40
0.0
 40
0.0
 40
0.0149451443
 40
0.0369624356
 40
0.0659834774
 40
0.1019132821
 40
0.1939380326
 40
0.311680321
 40
0.4533951417
 40
0.6169884293
 40
0.8000702264
 40
1.0
 40
1.0
 40
1.0
 40
1.0
 10
4.2932138476
 20
2.9942224967
 30
0.0
 10
4.2933468425
 20
2.9942224989
 30
0.0
 10
4.2936756204
 20
2.9942068779
 30
0.0
 10
4.2942611083
 20
2.9941629997
 30
0.0
 10
4.2950317773
 20
2.9940914879
 30
0.0
 10
4.2964212537
 20
2.9939476336
 30
0.0
 10
4.2985933447
 20
2.9936970777
 30
0.0
 10
4.3016976435
 20
2.9933144024
 30
0.0
 10
4.3054314713
 20
2.9928333415
 30
0.0
 10
4.3097397541
 20
2.9922610618
 30
0.0
 10
4.3145595766
 20
2.9916057091
 30
0.0
 10
4.3179357039
 20
2.9911379725
 30
0.0
 10
4.3196977657
 20
2.9908919837
 30
0.0
  0
LINE
  5
519
100
AcDbEntity
  8
0
100
AcDbLine
 62
7
  6
CONTINUOUS
 10
4.2856096581
 20
3.002993615
 11
4.2958188894
 21
3.0020479062
  0
LINE
  5
51A
100
AcDbEntity
  8
0
100
AcDbLine
 62
7
  6
CONTINUOUS
 10
4.2958188894
 20
3.0020479062
 11
4.3274761862
 21
2.9983336706
  0
SPLINE
  5
51B
100
AcDbEntity
  8
0
100
AcDbSpline
 62
7
  6
CONTINUOUS
 70
0
 71
3
 72
13
 73
9
 74
0
 42
0.0000001
 43
0.0000001
 44
0.0000000001
 40
0.0
 40
0.0
 40
0.0
 40
0.0
 40
0.1340633713
 40
0.2612673248
 40
0.4917396879
 40
0.7305733471
 40
0.8620985037
 40
1.0
 40
1.0
 40
1.0
 40
1.0
 10
4.2856099352
 20
3.0029950165
 30
0.0
 10
4.2861088906
 20
3.0029256697
 30
0.0
 10
4.2870720037
 20
3.0027065169
 30
0.0
 10
4.2887856029
 20
3.0019975333
 30
0.0
 10
4.2906367695
 20
3.0006731674
 30
0.0
 10
4.2920217292
 20
2.9988424997
 30
0.0
 10
4.2927895983
 20
2.9970859818
 30
0.0
 10
4.2930326725
 20
2.9960966737
 30
0.0
 10
4.293112322
 20
2.9955846585
 30
0.0
  0
SPLINE
  5
51C
100
AcDbEntity
  8
0
100
AcDbSpline
 62
7
  6
CONTINUOUS
 70
0
 71
3
 72
18
 73
14
 74
0
 42
0.0000001
 43
0.0000001
 44
0.0000000001
 40
0.0
 40
0.0
 40
0.0
 40
0.0
 40
0.1689636894
 40
0.3292411512
 40
0.4771305595
 40
0.6104467341
 40
0.6712616545
 40
0.7280897104
 40
0.8299744772
 40
0.8757857046
 40
0.91884756
 40
0.9599345981
 40
1.0
 40
1.0
 40
1.0
 40
1.0
 10
3.662398132
 20
2.9616287274
 30
0.0
 10
3.6614270215
 20
2.9591606007
 30
0.0
 10
3.6597199352
 20
2.9542755661
 30
0.0
 10
3.6578458569
 20
2.9470138299
 30
0.0
 10
3.6567711484
 20
2.9401554628
 30
0.0
 10
3.6565534424
 20
2.9347740754
 30
0.0
 10
3.6568398174
 20
2.9308403212
 30
0.0
 10
3.6573759959
 20
2.9274349095
 30
0.0
 10
3.6583163013
 20
2.9243306043
 30
0.0
 10
3.6597411067
 20
2.9216866684
 30
0.0
 10
3.6609691618
 20
2.9200468066
 30
0.0
 10
3.6623883369
 20
2.918695785
 30
0.0
 10
3.6634624866
 20
2.9179951795
 30
0.0
 10
3.6640187074
 20
2.9177016399
 30
0.0
  0
SPLINE
  5
51D
100
AcDbEntity
  8
0
100
AcDbSpline
 62
7
  6
CONTINUOUS
 70
0
 71
3
 72
26
 73
22
 74
0
 42
0.0000001
 43
0.0000001
 44
0.0000000001
 40
0.0
 40
0.0
 40
0.0
 40
0.0
 40
0.03305149
 40
0.0659071373
 40
0.1310296437
 40
0.1954112135
 40
0.2590907852
 40
0.3221175091
 40
0.384554842
 40
0.4464880601
 40
0.508016271
 40
0.5692499754
 40
0.6303116452
 40
0.691324186
 40
0.7524144974
 40
0.7830381355
 40
0.8137313822
 40
0.8445117555
 40
0.8753942686
 40
0.9374746632
 40
1.0
 40
1.0
 40
1.0
 40
1.0
 10
3.9971683061
 20
3.0412867016
 30
0.0
 10
3.9946370021
 20
3.0380219851
 30
0.0
 10
3.9894620506
 20
3.0316092192
 30
0.0
 10
3.9786744737
 20
3.0192822607
 30
0.0
 10
3.9644029507
 20
3.0048214529
 30
0.0
 10
3.9460817139
 20
2.9890531508
 30
0.0
 10
3.9267274531
 20
2.9750104681
 30
0.0
 10
3.9064647832
 20
2.9627761474
 30
0.0
 10
3.8854148501
 20
2.9524355184
 30
0.0
 10
3.8637088517
 20
2.9440598844
 30
0.0
 10
3.8414867061
 20
2.937693276
 30
0.0
 10
3.8188853014
 20
2.9333883766
 30
0.0
 10
3.796050219
 20
2.9311617526
 30
0.0
 10
3.7731259489
 20
2.9310226146
 30
0.0
 10
3.7540774062
 20
2.9326526971
 30
0.0
 10
3.738954004
 20
2.9349964766
 30
0.0
 10
3.7276667673
 20
2.9372771385
 30
0.0
 10
3.7164642088
 20
2.9400790863
 30
0.0
 10
3.7016417794
 20
2.9445121979
 30
0.0
 10
3.6834106176
 20
2.9513182688
 30
0.0
 10
3.6693174336
 20
2.9579958752
 30
0.0
 10
3.6623980666
 20
2.9616285966
 30
0.0
  0
SPLINE
  5
51E
100
AcDbEntity
  8
0
100
AcDbSpline
 62
7
  6
CONTINUOUS
 70
0
 71
3
 72
23
 73
19
 74
0
 42
0.0000001
 43
0.0000001
 44
0.0000000001
 40
0.0
 40
0.0
 40
0.0
 40
0.0
 40
0.0593249222
 40
0.1200290111
 40
0.1821044895
 40
0.2455035575
 40
0.3100097647
 40
0.3753180488
 40
0.4410830388
 40
0.5069055473
 40
0.5723732903
 40
0.6371052168
 40
0.700784969
 40
0.7632099036
 40
0.824259288
 40
0.8839395569
 40
0.9424497456
 40
1.0
 40
1.0
 40
1.0
 40
1.0
 10
3.6623980666
 20
2.9616285966
 30
0.0
 10
3.6601842077
 20
2.962827527
 30
0.0
 10
3.6558902561
 20
2.9656128943
 30
0.0
 10
3.6501224245
 20
2.9708048443
 30
0.0
 10
3.6451630573
 20
2.9769986019
 30
0.0
 10
3.6411131823
 20
2.984003431
 30
0.0
 10
3.6380623551
 20
2.9916438889
 30
0.0
 10
3.6360757025
 20
2.9997301839
 30
0.0
 10
3.6352196533
 20
3.0080684944
 30
0.0
 10
3.6354987791
 20
3.0164525653
 30
0.0
 10
3.6369192692
 20
3.0246760647
 30
0.0
 10
3.6394344443
 20
3.0325390319
 30
0.0
 10
3.6429997737
 20
3.0398429011
 30
0.0
 10
3.6475121819
 20
3.0464158458
 30
0.0
 10
3.6528708125
 20
3.0520908765
 30
0.0
 10
3.6589537971
 20
3.0567206957
 30
0.0
 10
3.6656202962
 20
3.0601446669
 30
0.0
 10
3.670342758
 20
3.0616348928
 30
0.0
 10
3.6727248149
 20
3.0621741993
 30
0.0
  0
SPLINE
  5
51F
100
AcDbEntity
  8
0
100
AcDbSpline
 62
7
  6
CONTINUOUS
 70
0
 71
3
 72
13
 73
9
 74
0
 42
0.0000001
 43
0.0000001
 44
0.0000000001
 40
0.0
 40
0.0
 40
0.0
 40
0.0
 40
0.2498059108
 40
0.3745366582
 40
0.4992203326
 40
0.6240032686
 40
0.7490307877
 40
1.0
 40
1.0
 40
1.0
 40
1.0
 10
3.6727248149
 20
3.0621741993
 30
0.0
 10
3.6819209491
 20
3.0641521187
 30
0.0
 10
3.6959080327
 20
3.0662891265
 30
0.0
 10
3.7146816254
 20
3.0674006532
 30
0.0
 10
3.7287815749
 20
3.0673581029
 30
0.0
 10
3.7428629039
 20
3.066441242
 30
0.0
 10
3.7615761583
 20
3.0640515811
 30
0.0
 10
3.7754406314
 20
3.0609656067
 30
0.0
 10
3.7845268846
 20
3.0583680979
 30
0.0
  0
SPLINE
  5
520
100
AcDbEntity
  8
0
100
AcDbSpline
 62
7
  6
CONTINUOUS
 70
0
 71
3
 72
20
 73
16
 74
0
 42
0.0000001
 43
0.0000001
 44
0.0000000001
 40
0.0
 40
0.0
 40
0.0
 40
0.0
 40
0.1634522174
 40
0.3209065302
 40
0.3959999982
 40
0.4681414264
 40
0.602250264
 40
0.6638427653
 40
0.7215811097
 40
0.7754549978
 40
0.8256621807
 40
0.8725712097
 40
0.9167341934
 40
0.9589110976
 40
1.0
 40
1.0
 40
1.0
 40
1.0
 10
3.6727252346
 20
3.0621721124
 30
0.0
 10
3.672228382
 20
3.0651641066
 30
0.0
 10
3.6715192999
 20
3.0710859671
 30
0.0
 10
3.6713351135
 20
3.0784447636
 30
0.0
 10
3.6716542831
 20
3.0840925714
 30
0.0
 10
3.6722470963
 20
3.0892808399
 30
0.0
 10
3.6732612063
 20
3.0941660597
 30
0.0
 10
3.6747520384
 20
3.098631116
 30
0.0
 10
3.6760324978
 20
3.1015841424
 30
0.0
 10
3.6775001181
 20
3.1042103056
 30
0.0
 10
3.6791431083
 20
3.1064884502
 30
0.0
 10
3.6809496134
 20
3.1084002613
 30
0.0
 10
3.6829102985
 20
3.109924725
 30
0.0
 10
3.6850072448
 20
3.1110426163
 30
0.0
 10
3.6864897256
 20
3.111513498
 30
0.0
 10
3.6872348216
 20
3.1116751626
 30
0.0
  0
SPLINE
  5
521
100
AcDbEntity
  8
0
100
AcDbSpline
 62
7
  6
CONTINUOUS
 70
0
 71
3
 72
18
 73
14
 74
0
 42
0.0000001
 43
0.0000001
 44
0.0000000001
 40
0.0
 40
0.0
 40
0.0
 40
0.0
 40
0.1689636912
 40
0.3292411425
 40
0.4771305346
 40
0.6104466944
 40
0.6712616099
 40
0.7280896637
 40
0.8299744369
 40
0.875785672
 40
0.9188475376
 40
0.959934587
 40
1.0
 40
1.0
 40
1.0
 40
1.0
 10
3.6623981284
 20
2.9616287273
 30
0.0
 10
3.6614270206
 20
2.9591606039
 30
0.0
 10
3.6597199394
 20
2.9542755761
 30
0.0
 10
3.6578458676
 20
2.9470138506
 30
0.0
 10
3.6567711641
 20
2.9401554942
 30
0.0
 10
3.6565534609
 20
2.9347741156
 30
0.0
 10
3.656839837
 20
2.9308403679
 30
0.0
 10
3.6573760161
 20
2.9274349617
 30
0.0
 10
3.6583163213
 20
2.9243306615
 30
0.0
 10
3.6597411253
 20
2.9216867297
 30
0.0
 10
3.660969179
 20
2.9200468702
 30
0.0
 10
3.6623883521
 20
2.9186958503
 30
0.0
 10
3.6634625003
 20
2.9179952454
 30
0.0
 10
3.6640187203
 20
2.917701706
 30
0.0
  0
SPLINE
  5
522
100
AcDbEntity
  8
0
100
AcDbSpline
 62
7
  6
CONTINUOUS
 70
0
 71
3
 72
17
 73
13
 74
0
 42
0.0000001
 43
0.0000001
 44
0.0000000001
 40
0.0
 40
0.0
 40
0.0
 40
0.0
 40
0.017535371
 40
0.0372032245
 40
0.0613212809
 40
0.0911859173
 40
0.1705106199
 40
0.2779110357
 40
0.414335094
 40
0.5802171666
 40
0.7755894078
 40
1.0
 40
1.0
 40
1.0
 40
1.0
 10
4.3287973628
 20
2.9937695053
 30
0.0
 10
4.3287974198
 20
2.9937880439
 30
0.0
 10
4.3288066982
 20
2.993827798
 30
0.0
 10
4.3288466858
 20
2.9938804338
 30
0.0
 10
4.3289093278
 20
2.9939276566
 30
0.0
 10
4.3290355073
 20
2.9939914778
 30
0.0
 10
4.3292564643
 20
2.9940564614
 30
0.0
 10
4.3295927735
 20
2.9941170974
 30
0.0
 10
4.330023654
 20
2.9941644687
 30
0.0
 10
4.3305487941
 20
2.9941983436
 30
0.0
 10
4.3311677395
 20
2.994218221
 30
0.0
 10
4.3316115573
 20
2.9942219132
 30
0.0
 10
4.3318488075
 20
2.9942218349
 30
0.0
  0
SPLINE
  5
523
100
AcDbEntity
  8
0
100
AcDbSpline
 62
7
  6
CONTINUOUS
 70
0
 71
3
 72
19
 73
15
 74
0
 42
0.0000001
 43
0.0000001
 44
0.0000000001
 40
0.0
 40
0.0
 40
0.0
 40
0.0
 40
0.0172687636
 40
0.036862185
 40
0.0611448126
 40
0.0914177078
 40
0.1283254495
 40
0.1721656604
 40
0.223080502
 40
0.2811313399
 40
0.4186630224
 40
0.5846345574
 40
0.7786899901
 40
1.0
 40
1.0
 40
1.0
 40
1.0
 10
4.402659052
 20
2.9929114544
 30
0.0
 10
4.4026589367
 20
2.9929642489
 30
0.0
 10
4.4026860261
 20
2.9930782846
 30
0.0
 10
4.4028032822
 20
2.9932286455
 30
0.0
 10
4.4029871842
 20
2.9933639538
 30
0.0
 10
4.4032384999
 20
2.993488598
 30
0.0
 10
4.4035582909
 20
2.9936037744
 30
0.0
 10
4.4039469344
 20
2.9937097193
 30
0.0
 10
4.4044042084
 20
2.9938062799
 30
0.0
 10
4.4051479052
 20
2.9939291965
 30
0.0
 10
4.4062472328
 20
2.9940508897
 30
0.0
 10
4.4077653449
 20
2.994151309
 30
0.0
 10
4.4095418898
 20
2.9942107596
 30
0.0
 10
4.4108118177
 20
2.9942219699
 30
0.0
 10
4.4114884148
 20
2.9942218348
 30
0.0
  0
SPLINE
  5
524
100
AcDbEntity
  8
0
100
AcDbSpline
 62
7
  6
CONTINUOUS
 70
0
 71
3
 72
19
 73
15
 74
0
 42
0.0000001
 43
0.0000001
 44
0.0000000001
 40
0.0
 40
0.0
 40
0.0
 40
0.0
 40
0.066040401
 40
0.1315412204
 40
0.1964950364
 40
0.2609082614
 40
0.3881044629
 40
0.513297559
 40
0.5752332289
 40
0.6367583342
 40
0.6979166716
 40
0.7587588518
 40
0.8796566298
 40
1.0
 40
1.0
 40
1.0
 40
1.0
 10
4.0761774519
 20
3.0389992332
 30
0.0
 10
4.0724592474
 20
3.0330793189
 30
0.0
 10
4.0647309667
 20
3.0214864429
 30
0.0
 10
4.0522412886
 20
3.004840774
 30
0.0
 10
4.0389423332
 20
2.9890568533
 30
0.0
 10
4.020273758
 20
2.9693148714
 30
0.0
 10
3.9951346146
 20
2.9469944042
 30
0.0
 10
3.9677057796
 20
2.9280016254
 30
0.0
 10
3.944744597
 20
2.9151029205
 30
0.0
 10
3.9271261718
 20
2.9066152018
 30
0.0
 10
3.9091089209
 20
2.8993122104
 30
0.0
 10
3.8846909615
 20
2.8912093247
 30
0.0
 10
3.8534125827
 20
2.8841155359
 30
0.0
 10
3.8278935097
 20
2.8818043709
 30
0.0
 10
3.815158189
 20
2.8814979645
 30
0.0
  0
SPLINE
  5
525
100
AcDbEntity
  8
0
100
AcDbSpline
 62
7
  6
CONTINUOUS
 70
0
 71
3
 72
14
 73
10
 74
0
 42
0.0000001
 43
0.0000001
 44
0.0000000001
 40
0.0
 40
0.0
 40
0.0
 40
0.0
 40
0.0719959933
 40
0.1512842013
 40
0.2440804677
 40
0.3543490977
 40
0.4842691067
 40
0.6349139632
 40
1.0
 40
1.0
 40
1.0
 40
1.0
 10
4.8219873392
 20
2.9880402432
 30
0.0
 10
4.8219872841
 20
2.9881717729
 30
0.0
 10
4.8220384325
 20
2.9884500476
 30
0.0
 10
4.8222592703
 20
2.9888440683
 30
0.0
 10
4.8226144584
 20
2.9892229903
 30
0.0
 10
4.8231018688
 20
2.989590376
 30
0.0
 10
4.8237209881
 20
2.9899485764
 30
0.0
 10
4.8247914635
 20
2.9904464501
 30
0.0
 10
4.8256851407
 20
2.9907530977
 30
0.0
 10
4.8263231868
 20
2.9909474049
 30
0.0
  0
SPLINE
  5
526
100
AcDbEntity
  8
0
100
AcDbSpline
 62
7
  6
CONTINUOUS
 70
0
 71
3
 72
14
 73
10
 74
0
 42
0.0000001
 43
0.0000001
 44
0.0000000001
 40
0.0
 40
0.0
 40
0.0
 40
0.0
 40
0.0772434477
 40
0.1708618111
 40
0.2797652841
 40
0.4026018518
 40
0.5379141693
 40
0.6838958566
 40
1.0
 40
1.0
 40
1.0
 40
1.0
 10
4.8263231868
 20
2.9909474049
 30
0.0
 10
4.8272479819
 20
2.991229037
 30
0.0
 10
4.8293263386
 20
2.9917439169
 30
0.0
 10
4.832771897
 20
2.9923729119
 30
0.0
 10
4.8368074722
 20
2.9929246423
 30
0.0
 10
4.8413783625
 20
2.9933895472
 30
0.0
 10
4.8464233626
 20
2.9937579517
 30
0.0
 10
4.8538915044
 20
2.9941243047
 30
0.0
 10
4.859675808
 20
2.9942222818
 30
0.0
 10
4.8636319577
 20
2.9942218349
 30
0.0
  0
SPLINE
  5
527
100
AcDbEntity
  8
0
100
AcDbSpline
 62
7
  6
CONTINUOUS
 70
0
 71
3
 72
25
 73
21
 74
0
 42
0.0000001
 43
0.0000001
 44
0.0000000001
 40
0.0
 40
0.0
 40
0.0
 40
0.0
 40
0.0070834341
 40
0.0149162014
 40
0.0240272688
 40
0.0347491799
 40
0.0472793468
 40
0.0617309835
 40
0.0781541642
 40
0.0965657636
 40
0.139332143
 40
0.1898776055
 40
0.2478393662
 40
0.3127633875
 40
0.3840770795
 40
0.4611402117
 40
0.5432283963
 40
0.6295594258
 40
0.8115569519
 40
1.0
 40
1.0
 40
1.0
 40
1.0
 10
4.9867541375
 20
2.9861410519
 30
0.0
 10
4.9867557105
 20
2.9862737191
 30
0.0
 10
4.9868090393
 20
2.986554031
 30
0.0
 10
4.9870251619
 20
2.9869544719
 30
0.0
 10
4.9873692986
 20
2.987346088
 30
0.0
 10
4.9878392612
 20
2.9877318889
 30
0.0
 10
4.9884349987
 20
2.9881133524
 30
0.0
 10
4.9891562483
 20
2.9884902249
 30
0.0
 10
4.9900017196
 20
2.9888622379
 30
0.0
 10
4.9913617635
 20
2.9893765355
 30
0.0
 10
4.9933655889
 20
2.9899868023
 30
0.0
 10
4.9961199963
 20
2.9906553195
 30
0.0
 10
4.9993077784
 20
2.9912846157
 30
0.0
 10
5.0028988122
 20
2.9918673222
 30
0.0
 10
5.0068591642
 20
2.9923974662
 30
0.0
 10
5.0111504153
 20
2.9928689822
 30
0.0
 10
5.0157305893
 20
2.9932770092
 30
0.0
 10
5.0222781611
 20
2.9937383716
 30
0.0
 10
5.0308267464
 20
2.9941205705
 30
0.0
 10
5.0377656902
 20
2.9942224522
 30
0.0
 10
5.0412953307
 20
2.9942224464
 30
0.0
  0
SPLINE
  5
528
100
AcDbEntity
  8
0
100
AcDbSpline
 62
7
  6
CONTINUOUS
 70
0
 71
3
 72
14
 73
10
 74
0
 42
0.0000001
 43
0.0000001
 44
0.0000000001
 40
0.0
 40
0.0
 40
0.0
 40
0.0
 40
0.0746608196
 40
0.1571172682
 40
0.2524419601
 40
0.3638827691
 40
0.4934115475
 40
0.6422230395
 40
1.0
 40
1.0
 40
1.0
 40
1.0
 10
5.1504677971
 20
2.984227648
 30
0.0
 10
5.1504680794
 20
2.984346147
 30
0.0
 10
5.1505112368
 20
2.9845966275
 30
0.0
 10
5.1506913899
 20
2.9849590023
 30
0.0
 10
5.150981072
 20
2.9853184684
 30
0.0
 10
5.1513784406
 20
2.9856771688
 30
0.0
 10
5.1518833573
 20
2.9860364286
 30
0.0
 10
5.1527549074
 20
2.9865478476
 30
0.0
 10
5.1534894195
 20
2.9868805024
 30
0.0
 10
5.1540147119
 20
2.9870961972
 30
0.0
  0
SPLINE
  5
529
100
AcDbEntity
  8
0
100
AcDbSpline
 62
7
  6
CONTINUOUS
 70
0
 71
3
 72
18
 73
14
 74
0
 42
0.0000001
 43
0.0000001
 44
0.0000000001
 40
0.0
 40
0.0
 40
0.0
 40
0.0
 40
0.0323474857
 40
0.0705209129
 40
0.1143260271
 40
0.1635183708
 40
0.2177224297
 40
0.2765036455
 40
0.4060020816
 40
0.547921556
 40
0.6975335333
 40
0.8499200985
 40
1.0
 40
1.0
 40
1.0
 40
1.0
 10
5.1540147119
 20
2.9870961972
 30
0.0
 10
5.1546574173
 20
2.987360104
 30
0.0
 10
5.1560849044
 20
2.987871306
 30
0.0
 10
5.1584412464
 20
2.9885650271
 30
0.0
 10
5.16117663
 20
2.9892428726
 30
0.0
 10
5.1642702477
 20
2.9898976467
 30
0.0
 10
5.1676971141
 20
2.9905244714
 30
0.0
 10
5.1728410698
 20
2.9913424291
 30
0.0
 10
5.1798781652
 20
2.9922388487
 30
0.0
 10
5.1888817841
 20
2.9930959317
 30
0.0
 10
5.1983963553
 20
2.9937338965
 30
0.0
 10
5.2080993497
 20
2.9941288735
 30
0.0
 10
5.2145962001
 20
2.994222204
 30
0.0
 10
5.2178197045
 20
2.9942218349
 30
0.0
  0
SPLINE
  5
52A
100
AcDbEntity
  8
0
100
AcDbSpline
 62
7
  6
CONTINUOUS
 70
0
 71
3
 72
30
 73
26
 74
0
 42
0.0000001
 43
0.0000001
 44
0.0000000001
 40
0.0
 40
0.0
 40
0.0
 40
0.0
 40
0.0038932122
 40
0.0067983183
 40
0.010467504
 40
0.0149370315
 40
0.0202206989
 40
0.0263226708
 40
0.0332420836
 40
0.0495098875
 40
0.0689379092
 40
0.0914119053
 40
0.1167954466
 40
0.1756040447
 40
0.2438546989
 40
0.3197867572
 40
0.4014417169
 40
0.4867175915
 40
0.5734072779
 40
0.6592484544
 40
0.7419789143
 40
0.8193951769
 40
0.8894175512
 40
0.9501600192
 40
1.0
 40
1.0
 40
1.0
 40
1.0
 10
5.5541380199
 20
2.9795462376
 30
0.0
 10
5.5541381241
 20
2.9796767127
 30
0.0
 10
5.5542855981
 20
2.9798871112
 30
0.0
 10
5.5545524688
 20
2.9801050396
 30
0.0
 10
5.5548669751
 20
2.9803056497
 30
0.0
 10
5.5552652221
 20
2.9805138178
 30
0.0
 10
5.5557497863
 20
2.9807330269
 30
0.0
 10
5.5563191706
 20
2.9809615229
 30
0.0
 10
5.5572418642
 20
2.9812968998
 30
0.0
 10
5.5586032583
 20
2.9817301724
 30
0.0
 10
5.5604800614
 20
2.9822582893
 30
0.0
 10
5.5626656049
 20
2.9828143417
 30
0.0
 10
5.566146629
 20
2.9836282854
 30
0.0
 10
5.5711483471
 20
2.9846725193
 30
0.0
 10
5.5778360248
 20
2.9859213246
 30
0.0
 10
5.5852986833
 20
2.9871851824
 30
0.0
 10
5.5933422344
 20
2.9884307241
 30
0.0
 10
5.6017578756
 20
2.9896247468
 30
0.0
 10
5.6103263697
 20
2.9907356503
 30
0.0
 10
5.6188228336
 20
2.9917339265
 30
0.0
 10
5.6270221145
 20
2.9925929426
 30
0.0
 10
5.6347046227
 20
2.99328967
 30
0.0
 10
5.6416628109
 20
2.9938060289
 30
0.0
 10
5.6477072797
 20
2.9941287026
 30
0.0
 10
5.6514131558
 20
2.99422245
 30
0.0
 10
5.6530834675
 20
2.9942224447
 30
0.0
  0
SPLINE
  5
52B
100
AcDbEntity
  8
0
100
AcDbSpline
 62
7
  6
CONTINUOUS
 70
0
 71
3
 72
16
 73
12
 74
0
 42
0.0000001
 43
0.0000001
 44
0.0000000001
 40
0.0
 40
0.0
 40
0.0
 40
0.0
 40
0.3186057878
 40
0.4729047664
 40
0.6169063594
 40
0.7457319261
 40
0.8549103268
 40
0.9009089371
 40
0.9406639674
 40
0.9738010224
 40
1.0
 40
1.0
 40
1.0
 40
1.0
 10
5.6631972415
 20
2.9870961972
 30
0.0
 10
5.6696553367
 20
2.9880672289
 30
0.0
 10
5.6792521739
 20
2.98943603
 30
0.0
 10
5.6917903416
 20
2.9910782207
 30
0.0
 10
5.7004808274
 20
2.9921411889
 30
0.0
 10
5.7082625618
 20
2.9930125192
 30
0.0
 10
5.7140560349
 20
2.9935853137
 30
0.0
 10
5.7180380566
 20
2.9939160622
 30
0.0
 10
5.7204692249
 20
2.9940860107
 30
0.0
 10
5.7224977246
 20
2.9941912363
 30
0.0
 10
5.7237139259
 20
2.994222044
 30
0.0
 10
5.7242509449
 20
2.9942218349
 30
0.0
  0
LINE
  5
52C
100
AcDbEntity
  8
0
100
AcDbLine
 62
7
  6
CONTINUOUS
 10
5.7264725931
 20
2.9904673114
 11
5.7297980326
 21
2.9909474049
  0
LINE
  5
52D
100
AcDbEntity
  8
0
100
AcDbLine
 62
7
  6
CONTINUOUS
 10
5.7297980326
 20
2.9909474049
 11
5.7343199639
 21
2.9915965183
  0
LINE
  5
52E
100
AcDbEntity
  8
0
100
AcDbLine
 62
7
  6
CONTINUOUS
 10
5.7343199639
 20
2.9915965183
 11
5.7537094644
 21
2.9942218349
  0
LINE
  5
52F
100
AcDbEntity
  8
0
100
AcDbLine
 62
7
  6
CONTINUOUS
 10
5.7605894891
 20
3.0028271863
 11
5.761280667
 21
3.0029503977
  0
LINE
  5
530
100
AcDbEntity
  8
0
100
AcDbLine
 62
7
  6
CONTINUOUS
 10
5.761280667
 20
3.0029503977
 11
5.7613863454
 21
3.0029894327
  0
ELLIPSE
  5
531
100
AcDbEntity
  8
0
100
AcDbEllipse
 62
7
  6
CONTINUOUS
 10
6.5708763748
 20
3.1997782564
 30
0.0
 11
0.0580947502
 21
0.0469710148
 31
0.0
 40
0.5588552877
 41
-2.4851433616
 42
-0.5072414241
  0
ELLIPSE
  5
532
100
AcDbEntity
  8
0
100
AcDbEllipse
 62
7
  6
CONTINUOUS
 10
3.4733763748
 20
3.1997782564
 30
0.0
 11
0.0580947502
 21
-0.0469710148
 31
0.0
 40
0.5588552877
 41
-2.6343512294
 42
-0.6564492919
  0
ENDSEC
  0
SECTION
  2
OBJECTS
  0
DICTIONARY
  5
C
100
AcDbDictionary
280
0
281
1
  3
ACAD_GROUP
350
D
  3
ACAD_MLINESTYLE
350
17
  3
ACAD_LAYOUT
350
1A
  3
ACAD_PLOTSETTINGS
350
19
  3
ACAD_PLOTSTYLENAME
350
E
  0
DICTIONARY
  5
D
102
{ACAD_REACTORS
330
C
102
}
100
AcDbDictionary
280
0
281
1
  0
ACDBDICTIONARYWDFLT
  5
E
102
{ACAD_REACTORS
330
C
102
}
100
AcDbDictionary
281
1
  3
Normal
350
F
100
AcDbDictionaryWithDefault
340
F
  0
DICTIONARY
  5
17
102
{ACAD_REACTORS
330
C
102
}
100
AcDbDictionary
280
0
281
1
  3
Standard
350
18
  0
DICTIONARY
  5
19
102
{ACAD_REACTORS
330
C
102
}
100
AcDbDictionary
281
1
  0
DICTIONARY
  5
1A
102
{ACAD_REACTORS
330
C
102
}
100
AcDbDictionary
281
1
  3
Model
350
533
  3
Layout1
350
534
  0
ACDBPLACEHOLDER
  5
F
102
{ACAD_REACTORS
330
E
102
}
  0
MLINESTYLE
  5
18
102
{ACAD_REACTORS
330
17
102
}
100
AcDbMlineStyle
  2
STANDARD
 70
0
  3

 62
256
 51
90.0
 52
90.0
 71
2
 49
0.5
 62
256
  6
BYLAYER
 49
-0.5
 62
256
  6
BYLAYER
  0
LAYOUT
  5
533
102
{ACAD_REACTORS
330
1A
102
}
100
AcDbPlotSettings
  1

  2
none_device
  4
ANSI_A_(11.00_x_8.50_Inches)
  6

 40
0.0
 41
0.0
 42
0.0
 43
0.0
 44
279.4
 45
215.9
 46
0.0
 47
0.0
 48
0.0
 49
0.0
140
0.0
141
0.0
142
1.0
143
1.0
 70
1024
 72
0
 73
0
 74
0
  7

 75
0
147
1.0
148
0.0
149
0.0
100
AcDbLayout
  1
Model
 70
0
 71
0
 10
0.0
 20
0.0
 11
11.0
 21
8.5
 12
0.0
 22
0.0
 32
0.0
 14
0.0
 24
0.0
 34
0.0
 15
0.0
 25
0.0
 35
0.0
146
0.0
 13
0.0
 23
0.0
 33
0.0
 16
1.0
 26
0.0
 36
0.0
 17
0.0
 27
1.0
 37
0.0
 76
0
330
248
345
0
346
0
  0
LAYOUT
  5
534
102
{ACAD_REACTORS
330
1A
102
}
100
AcDbPlotSettings
  1

  2
none_device
  4
ANSI_A_(11.00_x_8.50_Inches)
  6

 40
0.0
 41
0.0
 42
0.0
 43
0.0
 44
279.4
 45
215.9
 46
0.0
 47
0.0
 48
0.0
 49
0.0
140
0.0
141
0.0
142
1.0
143
1.0
 70
0
 72
0
 73
0
 74
0
  7

 75
0
147
1.0
148
0.0
149
0.0
100
AcDbLayout
  1
Layout1
 70
0
 71
1
 10
0.0
 20
0.0
 11
11.0
 21
8.5
 12
0.0
 22
0.0
 32
0.0
 14
0.0
 24
0.0
 34
0.0
 15
0.0
 25
0.0
 35
0.0
146
0.0
 13
0.0
 23
0.0
 33
0.0
 16
1.0
 26
0.0
 36
0.0
 17
0.0
 27
1.0
 37
0.0
 76
0
330
249
345
0
346
0
  0
ENDSEC
  0
EOF
