999
DXF file: 281_FRONT.dxf
999
Pro/ENGINEER 2018400 by Parametric Technology Corporation
  0
SECTION
  2
HEADER
  9
$ACADVER
  1
AC1027
  9
$DWGCODEPAGE
  3
ANSI_1252
  9
$EXTMAX
 10
11.0
 20
8.5
 30
0.0
  9
$EXTMIN
 10
0.0
 20
0.0
 30
0.0
  9
$LIMMIN
 10
0.0
 20
0.0
  9
$LIMMAX
 10
11.0
 20
8.5
  9
$VIEWCTR
 10
5.5
 20
4.25
  9
$VIEWSIZE
 40
8.5
  9
$CLAYER
  8
0
  9
$LTSCALE
 40
0.605
  9
$CELTYPE
  6
BYLAYER
  9
$DIMSCALE
 40
1.0
  9
$DIMASZ
 40
0.1
  9
$DIMEXO
 40
0.0625
  9
$DIMDLI
 40
0.418
  9
$DIMEXE
 40
0.125
  9
$DIMCEN
 40
0.099
  9
$DIMLFAC
 40
1.0
  9
$DIMBLK
  1
_FILLED
  9
$DIMALT
 70
1
  9
$DIMALTD
 70
2
  9
$DIMALTTD
 70
2
  9
$DIMALTF
 40
25.4
  9
$DIMTXT
 40
0.08
  9
$DIMTOL
 70
1
  9
$DIMLIM
 70
0
  9
$DIMTFAC
 40
1.0
  9
$DIMTP
 40
0.001
  9
$DIMTM
 40
0.001
  9
$DIMGAP
 40
0.09
  9
$DIMDSEP
 70
46
  9
$AUNITS
 70
0
  9
$PDMODE
 70
3
  9
$PDSIZE
 40
0.3125
  9
$HANDSEED
  5
35C
  9
$TILEMODE
 70
1
  9
$MEASUREMENT
 70
0
  9
$INSUNITS
 70
1
  0
ENDSEC
  0
SECTION
  2
CLASSES
  0
CLASS
  1
ACDBDICTIONARYWDFLT
  2
AcDbDictionaryWithDefault
  3
AutoCAD 2000
 90
0
 91
1
280
0
281
0
  0
CLASS
  1
ACDBPLACEHOLDER
  2
AcDbPlaceHolder
  3
AutoCAD 2000
 90
0
 91
1
280
0
281
0
  0
CLASS
  1
LAYOUT
  2
AcDbLayout
  3
AutoCAD 2000
 90
0
 91
0
280
0
281
0
  0
ENDSEC
  0
SECTION
  2
TABLES
  0
TABLE
  2
VPORT
  5
8
100
AcDbSymbolTable
 70
2
  0
VPORT
  5
1F4
100
AcDbSymbolTableRecord
100
AcDbViewportTableRecord
  2
*ACTIVE
 70
0
 10
0.0
 20
0.0
 11
1.0
 21
1.0
 12
5.5
 22
4.25
 13
0.0
 23
0.0
 14
1.0
 24
1.0
 15
0.0
 25
0.0
 16
0.0
 26
0.0
 36
1.0
 17
0.0
 27
0.0
 37
0.0
 40
8.5
 41
1.2941176471
 42
50.0
 43
0.0
 44
0.0
 50
0.0
 51
0.0
 71
0
 72
100
 73
1
 74
1
 75
0
 76
0
 77
0
 78
0
  0
ENDTAB
  0
TABLE
  2
LTYPE
  5
5
100
AcDbSymbolTable
 70
6
  0
LTYPE
  5
14
100
AcDbSymbolTableRecord
100
AcDbLinetypeTableRecord
  2
BYBLOCK
 70
0
  3

 72
65
 73
0
 40
0.0
  0
LTYPE
  5
15
100
AcDbSymbolTableRecord
100
AcDbLinetypeTableRecord
  2
BYLAYER
 70
0
  3

 72
65
 73
0
 40
0.0
  0
LTYPE
  5
16
100
AcDbSymbolTableRecord
100
AcDbLinetypeTableRecord
  2
CONTINUOUS
 70
64
  3
Solid line
 72
65
 73
0
 40
0.0
  0
LTYPE
  5
1F5
100
AcDbSymbolTableRecord
100
AcDbLinetypeTableRecord
  2
CENTER
 70
64
  3
____ _ ____ _ ____ _ ____ _ ____ _ ____ _ ____
 72
65
 73
4
 40
0.6
 49
0.375
 74
0
 49
-0.075
 74
0
 49
0.075
 74
0
 49
-0.075
 74
0
  0
LTYPE
  5
1F6
100
AcDbSymbolTableRecord
100
AcDbLinetypeTableRecord
  2
HIDDEN
 70
64
  3
- - - - - - - - - - - - - - - - - - - -
 72
65
 73
2
 40
0.2
 49
0.1
 74
0
 49
-0.1
 74
0
  0
LTYPE
  5
1F7
100
AcDbSymbolTableRecord
100
AcDbLinetypeTableRecord
  2
PHANTOM
 70
64
  3
_____ _ _ _____ _ _ _____ _ _ _____
 72
65
 73
6
 40
0.8
 49
0.45
 74
0
 49
-0.05
 74
0
 49
0.1
 74
0
 49
-0.05
 74
0
 49
0.1
 74
0
 49
-0.05
 74
0
  0
LTYPE
  5
1F8
100
AcDbSymbolTableRecord
100
AcDbLinetypeTableRecord
  2
DOT
 70
64
  3
. . . . . . . . . . . . . . . . . . . .
 72
65
 73
2
 40
0.2
 49
0.1
 74
0
 49
-0.1
 74
0
  0
LTYPE
  5
1F9
100
AcDbSymbolTableRecord
100
AcDbLinetypeTableRecord
  2
DASHED
 70
64
  3
- - - - - - - - - - - - - - - - - - - -
 72
65
 73
2
 40
0.2
 49
0.1
 74
0
 49
-0.1
 74
0
  0
ENDTAB
  0
TABLE
  2
LAYER
  5
2
100
AcDbSymbolTable
 70
36
  0
LAYER
  5
10
100
AcDbSymbolTableRecord
100
AcDbLayerTableRecord
  2
0
 70
0
 62
7
  6
CONTINUOUS
370
-3
390
F
  0
LAYER
  5
1FA
100
AcDbSymbolTableRecord
100
AcDbLayerTableRecord
  2
DEFAULT_1
 70
0
 62
7
  6
CENTER
370
-3
390
F
  0
LAYER
  5
1FB
100
AcDbSymbolTableRecord
100
AcDbLayerTableRecord
  2
DEFAULT_2
 70
0
 62
8
  6
HIDDEN
370
-3
390
F
  0
LAYER
  5
1FC
100
AcDbSymbolTableRecord
100
AcDbLayerTableRecord
  2
DEFAULT_3
 70
0
 62
7
  6
PHANTOM
370
-3
390
F
  0
LAYER
  5
1FD
100
AcDbSymbolTableRecord
100
AcDbLayerTableRecord
  2
281_ASSY_DATUMS
 70
0
 62
7
  6
CONTINUOUS
370
-3
390
F
  0
LAYER
  5
1FE
100
AcDbSymbolTableRecord
100
AcDbLayerTableRecord
  2
ALL_ASSEMBLY_MEMBERS
 70
0
 62
7
  6
CONTINUOUS
370
-3
390
F
  0
LAYER
  5
1FF
100
AcDbSymbolTableRecord
100
AcDbLayerTableRecord
  2
ALL_FEATURES
 70
0
 62
7
  6
CONTINUOUS
370
-3
390
F
  0
LAYER
  5
200
100
AcDbSymbolTableRecord
100
AcDbLayerTableRecord
  2
ALL_PLANES
 70
0
 62
7
  6
CONTINUOUS
370
-3
390
F
  0
LAYER
  5
201
100
AcDbSymbolTableRecord
100
AcDbLayerTableRecord
  2
AXES_FEATURES
 70
0
 62
7
  6
CONTINUOUS
370
-3
390
F
  0
LAYER
  5
202
100
AcDbSymbolTableRecord
100
AcDbLayerTableRecord
  2
CHAMFER_FEATURES
 70
0
 62
7
  6
CONTINUOUS
370
-3
390
F
  0
LAYER
  5
203
100
AcDbSymbolTableRecord
100
AcDbLayerTableRecord
  2
COLOR92
 70
0
 62
7
  6
CONTINUOUS
370
-3
390
F
  0
LAYER
  5
204
100
AcDbSymbolTableRecord
100
AcDbLayerTableRecord
  2
COSMETIC
 70
0
 62
7
  6
CONTINUOUS
370
-3
390
F
  0
LAYER
  5
205
100
AcDbSymbolTableRecord
100
AcDbLayerTableRecord
  2
CSA_LOGO
 70
0
 62
7
  6
CONTINUOUS
370
-3
390
F
  0
LAYER
  5
206
100
AcDbSymbolTableRecord
100
AcDbLayerTableRecord
  2
CURVES
 70
0
 62
7
  6
CONTINUOUS
370
-3
390
F
  0
LAYER
  5
207
100
AcDbSymbolTableRecord
100
AcDbLayerTableRecord
  2
CUT_FEATURES
 70
0
 62
7
  6
CONTINUOUS
370
-3
390
F
  0
LAYER
  5
208
100
AcDbSymbolTableRecord
100
AcDbLayerTableRecord
  2
DATUM_CURVES
 70
0
 62
7
  6
CONTINUOUS
370
-3
390
F
  0
LAYER
  5
209
100
AcDbSymbolTableRecord
100
AcDbLayerTableRecord
  2
DATUM_PLANES
 70
0
 62
7
  6
CONTINUOUS
370
-3
390
F
  0
LAYER
  5
20A
100
AcDbSymbolTableRecord
100
AcDbLayerTableRecord
  2
DEFAULT_COORDINATE_SYSTEM
 70
0
 62
7
  6
CONTINUOUS
370
-3
390
F
  0
LAYER
  5
20B
100
AcDbSymbolTableRecord
100
AcDbLayerTableRecord
  2
DEFAULT_DATUM_AXES
 70
0
 62
7
  6
CONTINUOUS
370
-3
390
F
  0
LAYER
  5
20C
100
AcDbSymbolTableRecord
100
AcDbLayerTableRecord
  2
DEFAULT_DATUM_CURVES
 70
0
 62
7
  6
CONTINUOUS
370
-3
390
F
  0
LAYER
  5
20D
100
AcDbSymbolTableRecord
100
AcDbLayerTableRecord
  2
DEFAULT_DATUM_PLANES
 70
0
 62
7
  6
CONTINUOUS
370
-3
390
F
  0
LAYER
  5
20E
100
AcDbSymbolTableRecord
100
AcDbLayerTableRecord
  2
DEFAULT_SURFACES
 70
0
 62
7
  6
CONTINUOUS
370
-3
390
F
  0
LAYER
  5
20F
100
AcDbSymbolTableRecord
100
AcDbLayerTableRecord
  2
DELTA_LOGO_CURVE
 70
0
 62
7
  6
CONTINUOUS
370
-3
390
F
  0
LAYER
  5
210
100
AcDbSymbolTableRecord
100
AcDbLayerTableRecord
  2
DIMENSIONS
 70
0
 62
7
  6
CONTINUOUS
370
-3
390
F
  0
LAYER
  5
211
100
AcDbSymbolTableRecord
100
AcDbLayerTableRecord
  2
DTM_PLANES
 70
0
 62
7
  6
CONTINUOUS
370
-3
390
F
  0
LAYER
  5
212
100
AcDbSymbolTableRecord
100
AcDbLayerTableRecord
  2
EXT_SURFACE
 70
0
 62
7
  6
CONTINUOUS
370
-3
390
F
  0
LAYER
  5
213
100
AcDbSymbolTableRecord
100
AcDbLayerTableRecord
  2
GTOL_DTMS
 70
0
 62
7
  6
CONTINUOUS
370
-3
390
F
  0
LAYER
  5
214
100
AcDbSymbolTableRecord
100
AcDbLayerTableRecord
  2
IMPORT
 70
0
 62
7
  6
CONTINUOUS
370
-3
390
F
  0
LAYER
  5
215
100
AcDbSymbolTableRecord
100
AcDbLayerTableRecord
  2
LOGO_CURVES
 70
0
 62
7
  6
CONTINUOUS
370
-3
390
F
  0
LAYER
  5
216
100
AcDbSymbolTableRecord
100
AcDbLayerTableRecord
  2
PLATED_SURFACE_AREA
 70
0
 62
7
  6
CONTINUOUS
370
-3
390
F
  0
LAYER
  5
217
100
AcDbSymbolTableRecord
100
AcDbLayerTableRecord
  2
PROTRUSION_FEATURES
 70
0
 62
7
  6
CONTINUOUS
370
-3
390
F
  0
LAYER
  5
218
100
AcDbSymbolTableRecord
100
AcDbLayerTableRecord
  2
SHELL_FEATURES
 70
0
 62
7
  6
CONTINUOUS
370
-3
390
F
  0
LAYER
  5
219
100
AcDbSymbolTableRecord
100
AcDbLayerTableRecord
  2
SIZE_REF
 70
0
 62
7
  6
CONTINUOUS
370
-3
390
F
  0
LAYER
  5
21A
100
AcDbSymbolTableRecord
100
AcDbLayerTableRecord
  2
START_DTMS
 70
0
 62
7
  6
CONTINUOUS
370
-3
390
F
  0
LAYER
  5
21B
100
AcDbSymbolTableRecord
100
AcDbLayerTableRecord
  2
SURFS
 70
0
 62
7
  6
CONTINUOUS
370
-3
390
F
  0
LAYER
  5
21C
100
AcDbSymbolTableRecord
100
AcDbLayerTableRecord
  2
WETTED_SURFACE
 70
0
 62
7
  6
CONTINUOUS
370
-3
390
F
  0
LAYER
  5
21D
100
AcDbSymbolTableRecord
100
AcDbLayerTableRecord
  2
WETTED_SURFACE_AREA
 70
0
 62
7
  6
CONTINUOUS
370
-3
390
F
  0
LAYER
  5
21E
100
AcDbSymbolTableRecord
100
AcDbLayerTableRecord
  2
XSEC_DATUMS
 70
0
 62
7
  6
CONTINUOUS
370
-3
390
F
  0
ENDTAB
  0
TABLE
  2
STYLE
  5
3
100
AcDbSymbolTable
 70
1
  0
STYLE
  5
11
100
AcDbSymbolTableRecord
100
AcDbTextStyleTableRecord
  2
STANDARD
 70
0
 40
0.0
 41
0.8
 50
0.0
 71
0
 42
0.2
  3
txt
  4

  0
STYLE
  5
21F
100
AcDbSymbolTableRecord
100
AcDbTextStyleTableRecord
  2
TEXTSTYLE_1
 70
0
 40
0.0
 41
0.8
 50
0.0
 71
0
 42
0.2
  3
gdt
  4

  0
ENDTAB
  0
TABLE
  2
VIEW
  5
6
100
AcDbSymbolTable
 70
0
  0
ENDTAB
  0
TABLE
  2
UCS
  5
7
100
AcDbSymbolTable
 70
0
  0
ENDTAB
  0
TABLE
  2
APPID
  5
9
100
AcDbSymbolTable
 70
1
  0
APPID
  5
220
100
AcDbSymbolTableRecord
100
AcDbRegAppTableRecord
  2
ACAD
 70
0
  0
ENDTAB
  0
TABLE
  2
BLOCK_RECORD
  5
1
100
AcDbSymbolTable
 70
0
  0
BLOCK_RECORD
  5
221
100
AcDbSymbolTableRecord
100
AcDbBlockTableRecord
  2
*Model_Space
  0
BLOCK_RECORD
  5
222
100
AcDbSymbolTableRecord
100
AcDbBlockTableRecord
  2
*Paper_Space
  0
BLOCK_RECORD
  5
223
100
AcDbSymbolTableRecord
100
AcDbBlockTableRecord
  2
_FILLED
  0
ENDTAB
  0
TABLE
  2
DIMSTYLE
  5
A
100
AcDbSymbolTable
 70
1
100
AcDbDimStyleTable
 71
0
  0
DIMSTYLE
105
224
100
AcDbSymbolTableRecord
100
AcDbDimStyleTableRecord
  2
STANDARD
 70
0
  3

  4

 40
1.0
 41
0.1
 42
0.0625
 43
0.38
 44
0.125
 45
0.0
 46
0.0
 47
0.001
 48
0.001
140
0.08
141
0.09
142
0.0
143
25.4
144
1.0
145
0.0
146
1.0
147
0.09
 71
1.0
 72
0.0
 73
1
 74
1
 75
0
 76
0
 77
0
 78
4
 79
1
170
1
171
2
172
0
173
0
174
0
175
0
176
0
177
0
178
0
270
2
179
3
271
3
272
3
273
2
274
2
275
0
280
0
281
0
282
0
283
1
284
4
285
0
286
0
287
3
288
0
340
11
278
46
341
223
342
223
343
223
344
223
  0
ENDTAB
  0
ENDSEC
  0
SECTION
  2
BLOCKS
  0
BLOCK
  5
20
100
AcDbEntity
  8
0
100
AcDbBlockBegin
  2
*Model_Space
 70
0
 10
0.0
 20
0.0
 30
0.0
  3
*Model_Space
  1

  0
ENDBLK
  5
21
100
AcDbEntity
  8
0
100
AcDbBlockEnd
  0
BLOCK
  5
1C
100
AcDbEntity
  8
0
100
AcDbBlockBegin
  2
*Paper_Space
 70
0
 10
0.0
 20
0.0
 30
0.0
  3
*Paper_Space
  1

  0
ENDBLK
  5
1D
100
AcDbEntity
  8
0
100
AcDbBlockEnd
  0
BLOCK
  5
225
100
AcDbEntity
  8
0
100
AcDbBlockBegin
  2
_FILLED
 70
64
 10
0.0
 20
0.0
  3
_FILLED
  1

  0
SOLID
  5
226
100
AcDbEntity
  8
0
  6
BYBLOCK
 62
0
100
AcDbTrace
 10
0.0
 20
0.0
 11
-1.0
 21
0.2
 12
-1.0
 22
-0.2
 13
-1.0
 23
-0.2
  0
ENDBLK
  5
227
100
AcDbEntity
  8
0
  6
BYBLOCK
 62
0
100
AcDbBlockEnd
  0
ENDSEC
  0
SECTION
  2
ENTITIES
  0
MTEXT
  5
228
100
AcDbEntity
  8
0
100
AcDbMText
 62
2
  6
CONTINUOUS
  7
STANDARD
 71
3
 72
1
 10
5.5567251553
 20
0.3364604037
 30
0.0
 11
1.0
 21
0.0
 31
0.0
 73
2
 44
0.9
  1
SCALE  1.000
 40
0.08
 41
0.768
  0
LINE
  5
229
100
AcDbEntity
  8
0
100
AcDbLine
 62
7
  6
CONTINUOUS
 10
0.0
 20
0.0
 11
0.0
 21
8.5
  0
LINE
  5
22A
100
AcDbEntity
  8
0
100
AcDbLine
 62
7
  6
CONTINUOUS
 10
0.0
 20
0.0
 11
11.0
 21
0.0
  0
LINE
  5
22B
100
AcDbEntity
  8
0
100
AcDbLine
 62
7
  6
CONTINUOUS
 10
0.0
 20
8.5
 11
11.0
 21
8.5
  0
LINE
  5
22C
100
AcDbEntity
  8
0
100
AcDbLine
 62
7
  6
CONTINUOUS
 10
11.0
 20
0.0
 11
11.0
 21
8.5
  0
LINE
  5
22D
100
AcDbEntity
  8
ALL_ASSEMBLY_MEMBERS
100
AcDbLine
 62
7
  6
CONTINUOUS
 10
5.358149744
 20
0.8103202999
 11
5.358736587
 21
0.8103415966
  0
LINE
  5
22E
100
AcDbEntity
  8
ALL_ASSEMBLY_MEMBERS
100
AcDbLine
 62
7
  6
CONTINUOUS
 10
5.090546101
 20
0.8510561955
 11
5.0902316035
 21
0.8510472452
  0
LINE
  5
22F
100
AcDbEntity
  8
ALL_ASSEMBLY_MEMBERS
100
AcDbLine
 62
7
  6
CONTINUOUS
 10
5.2216301629
 20
0.8547393543
 11
5.1097191311
 21
0.8515993407
  0
LINE
  5
230
100
AcDbEntity
  8
ALL_ASSEMBLY_MEMBERS
100
AcDbLine
 62
7
  6
CONTINUOUS
 10
5.5221444099
 20
0.7192368012
 11
4.8091444099
 21
0.7192368012
  0
LINE
  5
231
100
AcDbEntity
  8
ALL_ASSEMBLY_MEMBERS
100
AcDbLine
 62
7
  6
CONTINUOUS
 10
5.0996054357
 20
0.7305768008
 11
4.7978044101
 21
0.730576801
  0
LINE
  5
232
100
AcDbEntity
  8
ALL_ASSEMBLY_MEMBERS
100
AcDbLine
 62
7
  6
CONTINUOUS
 10
5.0399955652
 20
0.7692368012
 11
4.8034253585
 21
0.7692368012
  0
LINE
  5
233
100
AcDbEntity
  8
ALL_ASSEMBLY_MEMBERS
100
AcDbLine
 62
7
  6
CONTINUOUS
 10
5.1621807508
 20
1.0182419081
 11
5.1656718383
 21
1.0183498054
  0
LINE
  5
234
100
AcDbEntity
  8
ALL_ASSEMBLY_MEMBERS
100
AcDbLine
 62
7
  6
CONTINUOUS
 10
4.7591457106
 20
1.0442368012
 11
5.5334524595
 21
1.0442368012
  0
LINE
  5
235
100
AcDbEntity
  8
ALL_ASSEMBLY_MEMBERS
100
AcDbLine
 62
7
  6
CONTINUOUS
 10
5.6156444099
 20
1.1042368012
 11
4.7156444099
 21
1.1042368012
  0
LINE
  5
236
100
AcDbEntity
  8
ALL_ASSEMBLY_MEMBERS
100
AcDbLine
 62
7
  6
CONTINUOUS
 10
4.7948893812
 20
0.7340128812
 11
4.7976727156
 21
0.7324036454
  0
LINE
  5
237
100
AcDbEntity
  8
ALL_ASSEMBLY_MEMBERS
100
AcDbLine
 62
7
  6
CONTINUOUS
 10
4.7596204778
 20
0.8258315539
 11
4.797804411
 21
0.8037575255
  0
LINE
  5
238
100
AcDbEntity
  8
ALL_ASSEMBLY_MEMBERS
100
AcDbLine
 62
7
  6
CONTINUOUS
 10
5.6156444099
 20
1.2042368012
 11
4.7156444099
 21
1.2042368012
  0
LINE
  5
239
100
AcDbEntity
  8
ALL_ASSEMBLY_MEMBERS
100
AcDbLine
 62
7
  6
CONTINUOUS
 10
4.7596204768
 20
0.8972615601
 11
4.7978044104
 21
0.8751875315
  0
LINE
  5
23A
100
AcDbEntity
  8
ALL_ASSEMBLY_MEMBERS
100
AcDbLine
 62
7
  6
CONTINUOUS
 10
4.7596204776
 20
0.9686915331
 11
4.7978044104
 21
0.9466175049
  0
LINE
  5
23B
100
AcDbEntity
  8
ALL_ASSEMBLY_MEMBERS
100
AcDbLine
 62
7
  6
CONTINUOUS
 10
4.7596204776
 20
1.0401215628
 11
4.7978044111
 21
1.0180475342
  0
LINE
  5
23C
100
AcDbEntity
  8
ALL_ASSEMBLY_MEMBERS
100
AcDbLine
 62
7
  6
CONTINUOUS
 10
5.5459708961
 20
0.7435713149
 11
5.5334844093
 21
0.7507903485
  0
LINE
  5
23D
100
AcDbEntity
  8
ALL_ASSEMBLY_MEMBERS
100
AcDbLine
 62
7
  6
CONTINUOUS
 10
5.5716683424
 20
0.8001463475
 11
5.5334844089
 21
0.8222203765
  0
LINE
  5
23E
100
AcDbEntity
  8
ALL_ASSEMBLY_MEMBERS
100
AcDbLine
 62
7
  6
CONTINUOUS
 10
5.5716683429
 20
0.8715763163
 11
5.5334844099
 21
0.8936503448
  0
LINE
  5
23F
100
AcDbEntity
  8
ALL_ASSEMBLY_MEMBERS
100
AcDbLine
 62
7
  6
CONTINUOUS
 10
5.5716683421
 20
0.9430063295
 11
5.533484409
 21
0.9650803582
  0
LINE
  5
240
100
AcDbEntity
  8
ALL_ASSEMBLY_MEMBERS
100
AcDbLine
 62
7
  6
CONTINUOUS
 10
4.8091444099
 20
0.7192368012
 11
4.7978044101
 21
0.730576801
  0
LINE
  5
241
100
AcDbEntity
  8
ALL_ASSEMBLY_MEMBERS
100
AcDbLine
 62
7
  6
CONTINUOUS
 10
4.7625397993
 20
0.7658414119
 11
4.7929431239
 21
0.7354380873
  0
LINE
  5
242
100
AcDbEntity
  8
ALL_ASSEMBLY_MEMBERS
100
AcDbLine
 62
7
  6
CONTINUOUS
 10
5.5756444099
 20
1.6732368012
 11
4.7556444099
 21
1.6732368012
  0
LINE
  5
243
100
AcDbEntity
  8
ALL_ASSEMBLY_MEMBERS
100
AcDbLine
 62
7
  6
CONTINUOUS
 10
5.5756444099
 20
1.7732368012
 11
4.7556444099
 21
1.7732368012
  0
LINE
  5
244
100
AcDbEntity
  8
ALL_ASSEMBLY_MEMBERS
100
AcDbLine
 62
7
  6
CONTINUOUS
 10
5.5716683428
 20
1.0144363464
 11
5.5334844091
 21
1.0365103754
  0
LINE
  5
245
100
AcDbEntity
  8
ALL_ASSEMBLY_MEMBERS
100
AcDbLine
 62
7
  6
CONTINUOUS
 10
4.7591444099
 20
0.826381807
 11
4.7596204778
 21
0.8258315539
  0
LINE
  5
246
100
AcDbEntity
  8
ALL_ASSEMBLY_MEMBERS
100
AcDbLine
 62
7
  6
CONTINUOUS
 10
4.7596204768
 20
0.8972615601
 11
4.7591444099
 21
0.8978118121
  0
LINE
  5
247
100
AcDbEntity
  8
ALL_ASSEMBLY_MEMBERS
100
AcDbLine
 62
7
  6
CONTINUOUS
 10
4.7596204776
 20
0.9686915331
 11
4.7591444099
 21
0.969241786
  0
LINE
  5
248
100
AcDbEntity
  8
ALL_ASSEMBLY_MEMBERS
100
AcDbLine
 62
7
  6
CONTINUOUS
 10
4.7591444099
 20
1.0406718158
 11
4.7596204776
 21
1.0401215628
  0
LINE
  5
249
100
AcDbEntity
  8
ALL_ASSEMBLY_MEMBERS
100
AcDbLine
 62
7
  6
CONTINUOUS
 10
5.5716683429
 20
0.8715763163
 11
5.5721444099
 21
0.8710260641
  0
LINE
  5
24A
100
AcDbEntity
  8
ALL_FEATURES
100
AcDbLine
 62
7
  6
CONTINUOUS
 10
5.1506444099
 20
7.1062368012
 11
5.1406444099
 21
7.0962368012
  0
LINE
  5
24B
100
AcDbEntity
  8
ALL_FEATURES
100
AcDbLine
 62
7
  6
CONTINUOUS
 10
5.1806444099
 20
7.1362368012
 11
5.1906444099
 21
7.1462368012
  0
LINE
  5
24C
100
AcDbEntity
  8
ALL_ASSEMBLY_MEMBERS
100
AcDbLine
 62
7
  6
CONTINUOUS
 10
4.6256444099
 20
2.4256973265
 11
5.7056444099
 21
2.4256973265
  0
LINE
  5
24D
100
AcDbEntity
  8
ALL_ASSEMBLY_MEMBERS
100
AcDbLine
 62
7
  6
CONTINUOUS
 10
5.5716683421
 20
0.9430063295
 11
5.5721444099
 21
0.9424560764
  0
LINE
  5
24E
100
AcDbEntity
  8
ALL_ASSEMBLY_MEMBERS
100
AcDbLine
 62
7
  6
CONTINUOUS
 10
5.5716683428
 20
1.0144363464
 11
5.5721444099
 21
1.0138860941
  0
LINE
  5
24F
100
AcDbEntity
  8
ALL_ASSEMBLY_MEMBERS
100
AcDbLine
 62
7
  6
CONTINUOUS
 10
5.5461066078
 20
0.7431989991
 11
5.5459708961
 21
0.7435713149
  0
LINE
  5
250
100
AcDbEntity
  8
ALL_ASSEMBLY_MEMBERS
100
AcDbLine
 62
7
  6
CONTINUOUS
 10
4.6256444099
 20
4.610776276
 11
4.6256444099
 21
2.4256973265
  0
LINE
  5
251
100
AcDbEntity
  8
ALL_ASSEMBLY_MEMBERS
100
AcDbLine
 62
7
  6
CONTINUOUS
 10
4.7156444099
 20
1.1042368012
 11
4.7156444099
 21
1.2042368012
  0
LINE
  5
252
100
AcDbEntity
  8
ALL_ASSEMBLY_MEMBERS
100
AcDbLine
 62
7
  6
CONTINUOUS
 10
4.7156444099
 20
5.2412368012
 11
4.7156444099
 21
5.2912368012
  0
LINE
  5
253
100
AcDbEntity
  8
ALL_ASSEMBLY_MEMBERS
100
AcDbLine
 62
7
  6
CONTINUOUS
 10
4.7556444099
 20
1.6732368012
 11
4.7556444099
 21
1.7732368012
  0
LINE
  5
254
100
AcDbEntity
  8
ALL_ASSEMBLY_MEMBERS
100
AcDbLine
 62
7
  6
CONTINUOUS
 10
4.7591444099
 20
1.0442368012
 11
4.7591444099
 21
1.0406718158
  0
LINE
  5
255
100
AcDbEntity
  8
ALL_ASSEMBLY_MEMBERS
100
AcDbLine
 62
7
  6
CONTINUOUS
 10
4.7591444099
 20
0.826381807
 11
4.7591444099
 21
0.8353110887
  0
LINE
  5
256
100
AcDbEntity
  8
ALL_ASSEMBLY_MEMBERS
100
AcDbLine
 62
7
  6
CONTINUOUS
 10
4.7591444099
 20
0.8978118121
 11
4.7591444099
 21
0.9067410626
  0
LINE
  5
257
100
AcDbEntity
  8
ALL_ASSEMBLY_MEMBERS
100
AcDbLine
 62
7
  6
CONTINUOUS
 10
4.7591444099
 20
0.969241786
 11
4.7591444099
 21
0.9781710915
  0
LINE
  5
258
100
AcDbEntity
  8
ALL_ASSEMBLY_MEMBERS
100
AcDbLine
 62
7
  6
CONTINUOUS
 10
4.7978044111
 20
1.0183514537
 11
4.7978044111
 21
1.0007953734
  0
LINE
  5
259
100
AcDbEntity
  8
ALL_ASSEMBLY_MEMBERS
100
AcDbLine
 62
7
  6
CONTINUOUS
 10
4.7978044104
 20
0.9469214243
 11
4.7978044104
 21
0.929365344
  0
LINE
  5
25A
100
AcDbEntity
  8
ALL_ASSEMBLY_MEMBERS
100
AcDbLine
 62
7
  6
CONTINUOUS
 10
4.7978044104
 20
0.8754914504
 11
4.7978044104
 21
0.8579353696
  0
LINE
  5
25B
100
AcDbEntity
  8
ALL_ASSEMBLY_MEMBERS
100
AcDbLine
 62
7
  6
CONTINUOUS
 10
4.797804411
 20
0.804061445
 11
4.797804411
 21
0.7865053648
  0
LINE
  5
25C
100
AcDbEntity
  8
ALL_ASSEMBLY_MEMBERS
100
AcDbLine
 62
7
  6
CONTINUOUS
 10
4.7978044101
 20
0.7326314223
 11
4.7978044101
 21
0.730576801
  0
LINE
  5
25D
100
AcDbEntity
  8
ALL_ASSEMBLY_MEMBERS
100
AcDbLine
 62
7
  6
CONTINUOUS
 10
4.8256444099
 20
5.5667363475
 11
4.8256444099
 21
6.1383952187
  0
LINE
  5
25E
100
AcDbEntity
  8
ALL_ASSEMBLY_MEMBERS
100
AcDbLine
 62
7
  6
CONTINUOUS
 10
4.8356444099
 20
1.0442368012
 11
4.8356444099
 21
1.1042368012
  0
LINE
  5
25F
100
AcDbEntity
  8
ALL_FEATURES
100
AcDbLine
 62
7
  6
CONTINUOUS
 10
5.1002984321
 20
7.1462368012
 11
5.1002984321
 21
7.0962368012
  0
LINE
  5
260
100
AcDbEntity
  8
ALL_FEATURES
100
AcDbLine
 62
7
  6
CONTINUOUS
 10
5.1406444099
 20
7.0227063792
 11
5.1406444099
 21
7.2197672233
  0
LINE
  5
261
100
AcDbEntity
  8
ALL_FEATURES
100
AcDbLine
 62
7
  6
CONTINUOUS
 10
5.1506444099
 20
7.0962368012
 11
5.1506444099
 21
7.1062368012
  0
LINE
  5
262
100
AcDbEntity
  8
ALL_FEATURES
100
AcDbLine
 62
7
  6
CONTINUOUS
 10
5.1506444099
 20
7.1362368012
 11
5.1506444099
 21
7.1462368012
  0
LINE
  5
263
100
AcDbEntity
  8
ALL_FEATURES
100
AcDbLine
 62
7
  6
CONTINUOUS
 10
5.1806444099
 20
7.0962368012
 11
5.1806444099
 21
7.1062368012
  0
LINE
  5
264
100
AcDbEntity
  8
ALL_FEATURES
100
AcDbLine
 62
7
  6
CONTINUOUS
 10
5.1806444099
 20
7.1362368012
 11
5.1806444099
 21
7.1462368012
  0
LINE
  5
265
100
AcDbEntity
  8
ALL_FEATURES
100
AcDbLine
 62
7
  6
CONTINUOUS
 10
5.1906444099
 20
7.2197672233
 11
5.1906444099
 21
7.0227063792
  0
LINE
  5
266
100
AcDbEntity
  8
ALL_FEATURES
100
AcDbLine
 62
7
  6
CONTINUOUS
 10
5.2309903878
 20
7.1462368012
 11
5.2309903878
 21
7.0962368012
  0
LINE
  5
267
100
AcDbEntity
  8
ALL_ASSEMBLY_MEMBERS
100
AcDbLine
 62
7
  6
CONTINUOUS
 10
4.6256444099
 20
4.610776276
 11
5.7056444099
 21
4.610776276
  0
LINE
  5
268
100
AcDbEntity
  8
ALL_ASSEMBLY_MEMBERS
100
AcDbLine
 62
7
  6
CONTINUOUS
 10
5.4956444099
 20
1.0442368012
 11
5.4956444099
 21
1.1042368012
  0
LINE
  5
269
100
AcDbEntity
  8
ALL_ASSEMBLY_MEMBERS
100
AcDbLine
 62
7
  6
CONTINUOUS
 10
5.5056444099
 20
5.5667363475
 11
5.5056444099
 21
6.1383952187
  0
LINE
  5
26A
100
AcDbEntity
  8
ALL_ASSEMBLY_MEMBERS
100
AcDbLine
 62
7
  6
CONTINUOUS
 10
5.5334844093
 20
0.7504864288
 11
5.5334844093
 21
0.7680425093
  0
LINE
  5
26B
100
AcDbEntity
  8
ALL_ASSEMBLY_MEMBERS
100
AcDbLine
 62
7
  6
CONTINUOUS
 10
5.5334844089
 20
0.8219164569
 11
5.5334844089
 21
0.8394725376
  0
LINE
  5
26C
100
AcDbEntity
  8
ALL_ASSEMBLY_MEMBERS
100
AcDbLine
 62
7
  6
CONTINUOUS
 10
5.5334844099
 20
0.8933464255
 11
5.5334844099
 21
0.9109025066
  0
LINE
  5
26D
100
AcDbEntity
  8
ALL_ASSEMBLY_MEMBERS
100
AcDbLine
 62
7
  6
CONTINUOUS
 10
5.533484409
 20
0.9647764384
 11
5.533484409
 21
0.9823325189
  0
LINE
  5
26E
100
AcDbEntity
  8
ALL_ASSEMBLY_MEMBERS
100
AcDbLine
 62
7
  6
CONTINUOUS
 10
5.5334844091
 20
1.036206456
 11
5.5334844091
 21
1.0442368012
  0
LINE
  5
26F
100
AcDbEntity
  8
ALL_ASSEMBLY_MEMBERS
100
AcDbLine
 62
7
  6
CONTINUOUS
 10
5.5721444099
 20
0.7995960948
 11
5.5721444099
 21
0.7906667906
  0
LINE
  5
270
100
AcDbEntity
  8
ALL_ASSEMBLY_MEMBERS
100
AcDbLine
 62
7
  6
CONTINUOUS
 10
5.5721444099
 20
0.862096819
 11
5.5721444099
 21
0.8710260641
  0
LINE
  5
271
100
AcDbEntity
  8
ALL_ASSEMBLY_MEMBERS
100
AcDbLine
 62
7
  6
CONTINUOUS
 10
5.5721444099
 20
0.933526787
 11
5.5721444099
 21
0.9424560764
  0
LINE
  5
272
100
AcDbEntity
  8
ALL_ASSEMBLY_MEMBERS
100
AcDbLine
 62
7
  6
CONTINUOUS
 10
5.5721444099
 20
1.0049568004
 11
5.5721444099
 21
1.0138860941
  0
LINE
  5
273
100
AcDbEntity
  8
ALL_ASSEMBLY_MEMBERS
100
AcDbLine
 62
7
  6
CONTINUOUS
 10
5.5756444099
 20
1.6732368012
 11
5.5756444099
 21
1.7732368012
  0
LINE
  5
274
100
AcDbEntity
  8
ALL_ASSEMBLY_MEMBERS
100
AcDbLine
 62
7
  6
CONTINUOUS
 10
5.6156444099
 20
1.1042368012
 11
5.6156444099
 21
1.2042368012
  0
LINE
  5
275
100
AcDbEntity
  8
ALL_ASSEMBLY_MEMBERS
100
AcDbLine
 62
7
  6
CONTINUOUS
 10
5.6156444099
 20
5.2412368012
 11
5.6156444099
 21
5.2912368012
  0
LINE
  5
276
100
AcDbEntity
  8
ALL_ASSEMBLY_MEMBERS
100
AcDbLine
 62
7
  6
CONTINUOUS
 10
5.7056444099
 20
4.610776276
 11
5.7056444099
 21
2.4256973265
  0
LINE
  5
277
100
AcDbEntity
  8
ALL_ASSEMBLY_MEMBERS
100
AcDbLine
 62
7
  6
CONTINUOUS
 10
5.6156444099
 20
5.2412368012
 11
4.7156444099
 21
5.2412368012
  0
LINE
  5
278
100
AcDbEntity
  8
ALL_ASSEMBLY_MEMBERS
100
AcDbLine
 62
7
  6
CONTINUOUS
 10
4.7625397993
 20
0.7658414119
 11
4.7626679718
 21
0.7661928861
  0
LINE
  5
279
100
AcDbEntity
  8
ALL_ASSEMBLY_MEMBERS
100
AcDbLine
 62
7
  6
CONTINUOUS
 10
4.7156444099
 20
5.2912368012
 11
5.6156444099
 21
5.2912368012
  0
LINE
  5
27A
100
AcDbEntity
  8
ALL_ASSEMBLY_MEMBERS
100
AcDbLine
 62
7
  6
CONTINUOUS
 10
5.6018944099
 20
5.3256742445
 11
4.7293944099
 21
5.3256742445
  0
LINE
  5
27B
100
AcDbEntity
  8
ALL_ASSEMBLY_MEMBERS
100
AcDbLine
 62
7
  6
CONTINUOUS
 10
5.5056444099
 20
5.5667363475
 11
4.8256444099
 21
5.5667363475
  0
LINE
  5
27C
100
AcDbEntity
  8
ALL_ASSEMBLY_MEMBERS
100
AcDbLine
 62
7
  6
CONTINUOUS
 10
4.7596204776
 20
0.9787213445
 11
4.7591444099
 21
0.9781710915
  0
LINE
  5
27D
100
AcDbEntity
  8
ALL_ASSEMBLY_MEMBERS
100
AcDbLine
 62
7
  6
CONTINUOUS
 10
4.7596204775
 20
0.9072913155
 11
4.7591444099
 21
0.9067410626
  0
LINE
  5
27E
100
AcDbEntity
  8
ALL_ASSEMBLY_MEMBERS
100
AcDbLine
 62
7
  6
CONTINUOUS
 10
4.7596204768
 20
0.8358613407
 11
4.7591444099
 21
0.8353110887
  0
LINE
  5
27F
100
AcDbEntity
  8
ALL_FEATURES
100
AcDbLine
 62
7
  6
CONTINUOUS
 10
5.1806444099
 20
7.1062368012
 11
5.1906444099
 21
7.0962368012
  0
LINE
  5
280
100
AcDbEntity
  8
ALL_FEATURES
100
AcDbLine
 62
7
  6
CONTINUOUS
 10
5.1506444099
 20
7.1362368012
 11
5.1406444099
 21
7.1462368012
  0
LINE
  5
281
100
AcDbEntity
  8
ALL_ASSEMBLY_MEMBERS
100
AcDbLine
 62
7
  6
CONTINUOUS
 10
5.5716683421
 20
1.0044065472
 11
5.5721444099
 21
1.0049568004
  0
LINE
  5
282
100
AcDbEntity
  8
ALL_ASSEMBLY_MEMBERS
100
AcDbLine
 62
7
  6
CONTINUOUS
 10
5.5716683429
 20
0.9329765348
 11
5.5721444099
 21
0.933526787
  0
LINE
  5
283
100
AcDbEntity
  8
ALL_ASSEMBLY_MEMBERS
100
AcDbLine
 62
7
  6
CONTINUOUS
 10
5.5716683424
 20
0.8615465662
 11
5.5721444099
 21
0.862096819
  0
LINE
  5
284
100
AcDbEntity
  8
ALL_ASSEMBLY_MEMBERS
100
AcDbLine
 62
7
  6
CONTINUOUS
 10
5.5721444099
 20
0.7906667906
 11
5.5716683422
 21
0.7901165376
  0
LINE
  5
285
100
AcDbEntity
  8
ALL_ASSEMBLY_MEMBERS
100
AcDbLine
 62
7
  6
CONTINUOUS
 10
4.7983303093
 20
1.0010994333
 11
4.7596204776
 21
0.9787213445
  0
LINE
  5
286
100
AcDbEntity
  8
ALL_ASSEMBLY_MEMBERS
100
AcDbLine
 62
7
  6
CONTINUOUS
 10
4.7983303085
 20
0.9296694039
 11
4.7596204775
 21
0.9072913155
  0
LINE
  5
287
100
AcDbEntity
  8
ALL_FEATURES
100
AcDbLine
 62
7
  6
CONTINUOUS
 10
5.3201347009
 20
7.0962368012
 11
5.011154119
 21
7.0962368012
  0
LINE
  5
288
100
AcDbEntity
  8
ALL_FEATURES
100
AcDbLine
 62
7
  6
CONTINUOUS
 10
5.1406444099
 20
7.1062368012
 11
5.1506444099
 21
7.1062368012
  0
LINE
  5
289
100
AcDbEntity
  8
ALL_FEATURES
100
AcDbLine
 62
7
  6
CONTINUOUS
 10
5.1806444099
 20
7.1062368012
 11
5.1906444099
 21
7.1062368012
  0
LINE
  5
28A
100
AcDbEntity
  8
ALL_FEATURES
100
AcDbLine
 62
7
  6
CONTINUOUS
 10
5.1406444099
 20
7.1362368012
 11
5.1506444099
 21
7.1362368012
  0
LINE
  5
28B
100
AcDbEntity
  8
ALL_FEATURES
100
AcDbLine
 62
7
  6
CONTINUOUS
 10
5.1806444099
 20
7.1362368012
 11
5.1906444099
 21
7.1362368012
  0
LINE
  5
28C
100
AcDbEntity
  8
ALL_FEATURES
100
AcDbLine
 62
7
  6
CONTINUOUS
 10
5.011154119
 20
7.1462368012
 11
5.3201347009
 21
7.1462368012
  0
LINE
  5
28D
100
AcDbEntity
  8
ALL_ASSEMBLY_MEMBERS
100
AcDbLine
 62
7
  6
CONTINUOUS
 10
5.5221444099
 20
0.7192368012
 11
5.5461066078
 21
0.7431989991
  0
LINE
  5
28E
100
AcDbEntity
  8
ALL_ASSEMBLY_MEMBERS
100
AcDbLine
 62
7
  6
CONTINUOUS
 10
4.7983303077
 20
0.858239429
 11
4.7596204768
 21
0.8358613407
  0
LINE
  5
28F
100
AcDbEntity
  8
ALL_ASSEMBLY_MEMBERS
100
AcDbLine
 62
7
  6
CONTINUOUS
 10
4.7983303093
 20
0.7868094248
 11
4.7626679718
 21
0.7661928861
  0
LINE
  5
290
100
AcDbEntity
  8
ALL_ASSEMBLY_MEMBERS
100
AcDbLine
 62
7
  6
CONTINUOUS
 10
5.5329585107
 20
0.9820284586
 11
5.5716683421
 21
1.0044065472
  0
LINE
  5
291
100
AcDbEntity
  8
ALL_ASSEMBLY_MEMBERS
100
AcDbLine
 62
7
  6
CONTINUOUS
 10
5.5329585124
 20
0.9105984468
 11
5.5716683429
 21
0.9329765348
  0
LINE
  5
292
100
AcDbEntity
  8
ALL_ASSEMBLY_MEMBERS
100
AcDbLine
 62
7
  6
CONTINUOUS
 10
5.5329585109
 20
0.8391684775
 11
5.5716683424
 21
0.8615465662
  0
LINE
  5
293
100
AcDbEntity
  8
ALL_ASSEMBLY_MEMBERS
100
AcDbLine
 62
7
  6
CONTINUOUS
 10
5.532958511
 20
0.767738449
 11
5.5716683422
 21
0.7901165376
  0
ARC
  5
294
100
AcDbEntity
  8
ALL_ASSEMBLY_MEMBERS
100
AcDbCircle
 62
7
  6
CONTINUOUS
 10
4.2056444099
 20
2.4256973265
 40
1.5
100
AcDbArc
 50
334.214527069
 51
360.0
  0
ARC
  5
295
100
AcDbEntity
  8
ALL_ASSEMBLY_MEMBERS
100
AcDbCircle
 62
7
  6
CONTINUOUS
 10
4.3735052095
 20
1.4696228738
 40
0.433
100
AcDbArc
 50
322.2004490872
 51
28.0498776995
  0
ARC
  5
296
100
AcDbEntity
  8
ALL_ASSEMBLY_MEMBERS
100
AcDbCircle
 62
7
  6
CONTINUOUS
 10
4.7998845229
 20
0.9269777728
 40
0.0031078894
100
AcDbArc
 50
117.4607310915
 51
119.9955400066
  0
ARC
  5
297
100
AcDbEntity
  8
ALL_ASSEMBLY_MEMBERS
100
AcDbCircle
 62
7
  6
CONTINUOUS
 10
4.2056444099
 20
4.610776276
 40
1.5
100
AcDbArc
 50
0.0
 51
24.8596013805
  0
ARC
  5
298
100
AcDbEntity
  8
ALL_ASSEMBLY_MEMBERS
100
AcDbCircle
 62
7
  6
CONTINUOUS
 10
4.4756444099
 20
5.5667363475
 40
0.35
100
AcDbArc
 50
316.4688478326
 51
360.0
  0
CIRCLE
  5
299
100
AcDbEntity
  8
0
100
AcDbCircle
 62
7
  6
CONTINUOUS
 10
4.481285962
 20
7.3046100947
 40
0.023
  0
CIRCLE
  5
29A
100
AcDbEntity
  8
0
100
AcDbCircle
 62
7
  6
CONTINUOUS
 10
4.5520654114
 20
7.4754868012
 40
0.023
  0
CIRCLE
  5
29B
100
AcDbEntity
  8
0
100
AcDbCircle
 62
7
  6
CONTINUOUS
 10
4.6646592555
 20
7.6222219557
 40
0.023
  0
CIRCLE
  5
29C
100
AcDbEntity
  8
0
100
AcDbCircle
 62
7
  6
CONTINUOUS
 10
4.6601878501
 20
7.2028313241
 40
0.023
  0
CIRCLE
  5
29D
100
AcDbEntity
  8
0
100
AcDbCircle
 62
7
  6
CONTINUOUS
 10
4.6646592555
 20
6.6202516468
 40
0.023
  0
CIRCLE
  5
29E
100
AcDbEntity
  8
0
100
AcDbCircle
 62
7
  6
CONTINUOUS
 10
4.5520654114
 20
6.7669868012
 40
0.023
  0
CIRCLE
  5
29F
100
AcDbEntity
  8
0
100
AcDbCircle
 62
7
  6
CONTINUOUS
 10
4.481285962
 20
6.9378635078
 40
0.023
  0
CIRCLE
  5
2A0
100
AcDbEntity
  8
0
100
AcDbCircle
 62
7
  6
CONTINUOUS
 10
4.4571444099
 20
7.1212368012
 40
0.023
  0
CIRCLE
  5
2A1
100
AcDbEntity
  8
0
100
AcDbCircle
 62
7
  6
CONTINUOUS
 10
4.6645191974
 20
7.0162724198
 40
0.023
  0
ARC
  5
2A2
100
AcDbEntity
  8
ALL_ASSEMBLY_MEMBERS
100
AcDbCircle
 62
7
  6
CONTINUOUS
 10
4.7656444099
 20
5.2912368012
 40
0.05
100
AcDbArc
 50
136.4688478326
 51
180.0
  0
ARC
  5
2A3
100
AcDbEntity
  8
ALL_ASSEMBLY_MEMBERS
100
AcDbCircle
 62
7
  6
CONTINUOUS
 10
5.1080324698
 20
8.0346085267
 40
7.2286038307
100
AcDbArc
 50
272.0416752114
 51
272.6407568676
  0
ARC
  5
2A4
100
AcDbEntity
  8
ALL_ASSEMBLY_MEMBERS
100
AcDbCircle
 62
7
  6
CONTINUOUS
 10
5.1656442915
 20
6.8329310241
 40
0.4080011273
100
AcDbArc
 50
267.3096706864
 51
272.6901417888
  0
CIRCLE
  5
2A5
100
AcDbEntity
  8
0
100
AcDbCircle
 62
7
  6
CONTINUOUS
 10
4.8113944099
 20
7.7348157998
 40
0.023
  0
CIRCLE
  5
2A6
100
AcDbEntity
  8
0
100
AcDbCircle
 62
7
  6
CONTINUOUS
 10
4.9822711165
 20
7.8055952492
 40
0.023
  0
CIRCLE
  5
2A7
100
AcDbEntity
  8
0
100
AcDbCircle
 62
7
  6
CONTINUOUS
 10
4.7230009211
 20
7.3785512816
 40
0.023
  0
CIRCLE
  5
2A8
100
AcDbEntity
  8
0
100
AcDbCircle
 62
7
  6
CONTINUOUS
 10
4.8446143756
 20
7.520089803
 40
0.023
  0
CIRCLE
  5
2A9
100
AcDbEntity
  8
0
100
AcDbCircle
 62
7
  6
CONTINUOUS
 10
5.008873186
 20
7.6086450319
 40
0.023
  0
CIRCLE
  5
2AA
100
AcDbEntity
  8
0
100
AcDbCircle
 62
7
  6
CONTINUOUS
 10
4.8384540375
 20
7.1907832618
 40
0.023
  0
CIRCLE
  5
2AB
100
AcDbEntity
  8
0
100
AcDbCircle
 62
7
  6
CONTINUOUS
 10
4.9250252467
 20
7.3536000262
 40
0.023
  0
CIRCLE
  5
2AC
100
AcDbEntity
  8
0
100
AcDbCircle
 62
7
  6
CONTINUOUS
 10
5.0847215359
 20
7.4458007217
 40
0.023
  0
CIRCLE
  5
2AD
100
AcDbEntity
  8
0
100
AcDbCircle
 62
7
  6
CONTINUOUS
 10
4.9822711165
 20
6.4368783533
 40
0.023
  0
CIRCLE
  5
2AE
100
AcDbEntity
  8
0
100
AcDbCircle
 62
7
  6
CONTINUOUS
 10
4.8113944099
 20
6.5076578027
 40
0.023
  0
CIRCLE
  5
2AF
100
AcDbEntity
  8
0
100
AcDbCircle
 62
7
  6
CONTINUOUS
 10
5.031662273
 20
6.6270781355
 40
0.023
  0
CIRCLE
  5
2B0
100
AcDbEntity
  8
0
100
AcDbCircle
 62
7
  6
CONTINUOUS
 10
4.8634706816
 20
6.707914847
 40
0.023
  0
CIRCLE
  5
2B1
100
AcDbEntity
  8
0
100
AcDbCircle
 62
7
  6
CONTINUOUS
 10
4.7354195905
 20
6.8436568943
 40
0.023
  0
CIRCLE
  5
2B2
100
AcDbEntity
  8
0
100
AcDbCircle
 62
7
  6
CONTINUOUS
 10
5.130679639
 20
6.7885692272
 40
0.023
  0
CIRCLE
  5
2B3
100
AcDbEntity
  8
0
100
AcDbCircle
 62
7
  6
CONTINUOUS
 10
4.9597056464
 20
6.8576472042
 40
0.023
  0
CIRCLE
  5
2B4
100
AcDbEntity
  8
0
100
AcDbCircle
 62
7
  6
CONTINUOUS
 10
4.8513172283
 20
7.0068310633
 40
0.023
  0
ARC
  5
2B5
100
AcDbEntity
  8
ALL_ASSEMBLY_MEMBERS
100
AcDbCircle
 62
7
  6
CONTINUOUS
 10
6.1256444099
 20
2.4256973265
 40
1.5
100
AcDbArc
 50
180.0
 51
205.785472931
  0
ARC
  5
2B6
100
AcDbEntity
  8
ALL_ASSEMBLY_MEMBERS
100
AcDbCircle
 62
7
  6
CONTINUOUS
 10
5.9577836104
 20
1.4696228738
 40
0.433
100
AcDbArc
 50
151.9501223005
 51
217.7995509128
  0
ARC
  5
2B7
100
AcDbEntity
  8
ALL_ASSEMBLY_MEMBERS
100
AcDbCircle
 62
7
  6
CONTINUOUS
 10
5.2250463972
 20
5.3651525229
 40
4.6101077565
100
AcDbArc
 50
272.4114794089
 51
272.9366802164
  0
ARC
  5
2B8
100
AcDbEntity
  8
ALL_ASSEMBLY_MEMBERS
100
AcDbCircle
 62
7
  6
CONTINUOUS
 10
5.5656444099
 20
5.2912368012
 40
0.05
100
AcDbArc
 50
0.0
 51
43.5311521674
  0
ARC
  5
2B9
100
AcDbEntity
  8
ALL_FEATURES
100
AcDbCircle
 62
7
  6
CONTINUOUS
 10
5.1656444099
 20
6.866533514
 40
0.3541172876
100
AcDbArc
 50
85.9516604297
 51
94.0483395703
  0
CIRCLE
  5
2BA
100
AcDbEntity
  8
0
100
AcDbCircle
 62
7
  6
CONTINUOUS
 10
5.3490177034
 20
6.4368783533
 40
0.023
  0
CIRCLE
  5
2BB
100
AcDbEntity
  8
0
100
AcDbCircle
 62
7
  6
CONTINUOUS
 10
5.1656444099
 20
6.4127368012
 40
0.023
  0
CIRCLE
  5
2BC
100
AcDbEntity
  8
0
100
AcDbCircle
 62
7
  6
CONTINUOUS
 10
5.3967329658
 20
6.6643537972
 40
0.023
  0
CIRCLE
  5
2BD
100
AcDbEntity
  8
0
100
AcDbCircle
 62
7
  6
CONTINUOUS
 10
5.2176519372
 20
6.6118850396
 40
0.023
  0
CIRCLE
  5
2BE
100
AcDbEntity
  8
0
100
AcDbCircle
 62
7
  6
CONTINUOUS
 10
5.3122795585
 20
6.8205901928
 40
0.023
  0
CIRCLE
  5
2BF
100
AcDbEntity
  8
ALL_ASSEMBLY_MEMBERS
100
AcDbCircle
 62
7
  6
CONTINUOUS
 10
5.1656444099
 20
7.1212368012
 40
1.04
  0
CIRCLE
  5
2C0
100
AcDbEntity
  8
ALL_ASSEMBLY_MEMBERS
100
AcDbCircle
 62
7
  6
CONTINUOUS
 10
5.1656444099
 20
7.1212368012
 40
0.92
  0
CIRCLE
  5
2C1
100
AcDbEntity
  8
0
100
AcDbCircle
 62
7
  6
CONTINUOUS
 10
5.1656444099
 20
7.1212368012
 40
0.9115
  0
CIRCLE
  5
2C2
100
AcDbEntity
  8
0
100
AcDbCircle
 62
7
  6
CONTINUOUS
 10
5.1656444099
 20
7.1212368012
 40
0.8350000013
  0
CIRCLE
  5
2C3
100
AcDbEntity
  8
0
100
AcDbCircle
 62
7
  6
CONTINUOUS
 10
5.1656444099
 20
7.1212368012
 40
0.825
  0
CIRCLE
  5
2C4
100
AcDbEntity
  8
0
100
AcDbCircle
 62
7
  6
CONTINUOUS
 10
5.1656444099
 20
7.1212368012
 40
0.8167364826
  0
ARC
  5
2C5
100
AcDbEntity
  8
0
100
AcDbCircle
 62
7
  6
CONTINUOUS
 10
5.1656444099
 20
7.1212368012
 40
0.7311300255
100
AcDbArc
 50
359.8364499014
 51
360.0
  0
ARC
  5
2C6
100
AcDbEntity
  8
0
100
AcDbCircle
 62
7
  6
CONTINUOUS
 10
5.1656444099
 20
7.1212368012
 40
0.7311300255
100
AcDbArc
 50
14.7819406586
 51
15.3270899991
  0
ARC
  5
2C7
100
AcDbEntity
  8
0
100
AcDbCircle
 62
7
  6
CONTINUOUS
 10
5.1656444099
 20
7.1212368012
 40
0.7311300255
100
AcDbArc
 50
29.7819406586
 51
30.3270899991
  0
ARC
  5
2C8
100
AcDbEntity
  8
0
100
AcDbCircle
 62
7
  6
CONTINUOUS
 10
5.1656444099
 20
7.1212368012
 40
0.7311300255
100
AcDbArc
 50
44.7819406586
 51
45.3270899991
  0
ARC
  5
2C9
100
AcDbEntity
  8
0
100
AcDbCircle
 62
7
  6
CONTINUOUS
 10
5.1656444099
 20
7.1212368012
 40
0.7311300255
100
AcDbArc
 50
59.7819406586
 51
60.3270899991
  0
ARC
  5
2CA
100
AcDbEntity
  8
0
100
AcDbCircle
 62
7
  6
CONTINUOUS
 10
5.1656444099
 20
7.1212368012
 40
0.7311300255
100
AcDbArc
 50
74.7819406586
 51
75.3270899991
  0
ARC
  5
2CB
100
AcDbEntity
  8
0
100
AcDbCircle
 62
7
  6
CONTINUOUS
 10
5.1656444099
 20
7.1212368012
 40
0.7311300255
100
AcDbArc
 50
89.7819406586
 51
90.3270899991
  0
ARC
  5
2CC
100
AcDbEntity
  8
0
100
AcDbCircle
 62
7
  6
CONTINUOUS
 10
5.1656444099
 20
7.1212368012
 40
0.7311300255
100
AcDbArc
 50
104.7819406586
 51
105.3270899991
  0
ARC
  5
2CD
100
AcDbEntity
  8
0
100
AcDbCircle
 62
7
  6
CONTINUOUS
 10
5.1656444099
 20
7.1212368012
 40
0.7311300255
100
AcDbArc
 50
119.7819406586
 51
120.3270899991
  0
ARC
  5
2CE
100
AcDbEntity
  8
0
100
AcDbCircle
 62
7
  6
CONTINUOUS
 10
5.1656444099
 20
7.1212368012
 40
0.7311300255
100
AcDbArc
 50
134.7819406586
 51
135.3270899991
  0
ARC
  5
2CF
100
AcDbEntity
  8
0
100
AcDbCircle
 62
7
  6
CONTINUOUS
 10
5.1656444099
 20
7.1212368012
 40
0.7311300255
100
AcDbArc
 50
149.7819406586
 51
150.3270899991
  0
ARC
  5
2D0
100
AcDbEntity
  8
0
100
AcDbCircle
 62
7
  6
CONTINUOUS
 10
5.1656444099
 20
7.1212368012
 40
0.7311300255
100
AcDbArc
 50
164.7819406586
 51
165.3270899991
  0
ARC
  5
2D1
100
AcDbEntity
  8
0
100
AcDbCircle
 62
7
  6
CONTINUOUS
 10
5.1656444099
 20
7.1212368012
 40
0.7311300255
100
AcDbArc
 50
179.8364499014
 51
180.0
  0
ARC
  5
2D2
100
AcDbEntity
  8
0
100
AcDbCircle
 62
7
  6
CONTINUOUS
 10
5.1656444099
 20
7.1212368012
 40
0.7311300255
100
AcDbArc
 50
194.7819406586
 51
195.3270899991
  0
ARC
  5
2D3
100
AcDbEntity
  8
0
100
AcDbCircle
 62
7
  6
CONTINUOUS
 10
5.1656444099
 20
7.1212368012
 40
0.7311300255
100
AcDbArc
 50
209.7819406586
 51
210.3270899991
  0
ARC
  5
2D4
100
AcDbEntity
  8
0
100
AcDbCircle
 62
7
  6
CONTINUOUS
 10
5.1656444099
 20
7.1212368012
 40
0.7311300255
100
AcDbArc
 50
224.7819406586
 51
225.3270899991
  0
ARC
  5
2D5
100
AcDbEntity
  8
0
100
AcDbCircle
 62
7
  6
CONTINUOUS
 10
5.1656444099
 20
7.1212368012
 40
0.7311300255
100
AcDbArc
 50
239.7819406586
 51
240.3270899991
  0
ARC
  5
2D6
100
AcDbEntity
  8
0
100
AcDbCircle
 62
7
  6
CONTINUOUS
 10
5.1656444099
 20
7.1212368012
 40
0.7311300255
100
AcDbArc
 50
254.7819406586
 51
255.3270899991
  0
ARC
  5
2D7
100
AcDbEntity
  8
0
100
AcDbCircle
 62
7
  6
CONTINUOUS
 10
5.1656444099
 20
7.1212368012
 40
0.7311300255
100
AcDbArc
 50
269.7819406586
 51
270.3270899991
  0
ARC
  5
2D8
100
AcDbEntity
  8
0
100
AcDbCircle
 62
7
  6
CONTINUOUS
 10
5.1656444099
 20
7.1212368012
 40
0.7311300255
100
AcDbArc
 50
284.7819406586
 51
285.3270899991
  0
ARC
  5
2D9
100
AcDbEntity
  8
0
100
AcDbCircle
 62
7
  6
CONTINUOUS
 10
5.1656444099
 20
7.1212368012
 40
0.7311300255
100
AcDbArc
 50
299.7819406586
 51
300.3270899991
  0
ARC
  5
2DA
100
AcDbEntity
  8
0
100
AcDbCircle
 62
7
  6
CONTINUOUS
 10
5.1656444099
 20
7.1212368012
 40
0.7311300255
100
AcDbArc
 50
344.7819406586
 51
345.3270899991
  0
ARC
  5
2DB
100
AcDbEntity
  8
0
100
AcDbCircle
 62
7
  6
CONTINUOUS
 10
5.1656444099
 20
7.1212368012
 40
0.7311300255
100
AcDbArc
 50
314.7819406586
 51
315.3270899991
  0
ARC
  5
2DC
100
AcDbEntity
  8
0
100
AcDbCircle
 62
7
  6
CONTINUOUS
 10
5.1656444099
 20
7.1212368012
 40
0.7311300255
100
AcDbArc
 50
329.7819406586
 51
330.3270899991
  0
ARC
  5
2DD
100
AcDbEntity
  8
ALL_ASSEMBLY_MEMBERS
100
AcDbCircle
 62
7
  6
CONTINUOUS
 10
5.1656444099
 20
7.1212368012
 40
0.7128169401
100
AcDbArc
 50
13.1789074997
 51
16.821020953
  0
ARC
  5
2DE
100
AcDbEntity
  8
ALL_ASSEMBLY_MEMBERS
100
AcDbCircle
 62
7
  6
CONTINUOUS
 10
5.1656444099
 20
7.1212368012
 40
0.7128169401
100
AcDbArc
 50
28.1789074997
 51
31.821020953
  0
ARC
  5
2DF
100
AcDbEntity
  8
ALL_ASSEMBLY_MEMBERS
100
AcDbCircle
 62
7
  6
CONTINUOUS
 10
5.1656444099
 20
7.1212368012
 40
0.7128169401
100
AcDbArc
 50
43.1789074997
 51
46.821020953
  0
ARC
  5
2E0
100
AcDbEntity
  8
ALL_ASSEMBLY_MEMBERS
100
AcDbCircle
 62
7
  6
CONTINUOUS
 10
5.1656444099
 20
7.1212368012
 40
0.7128169401
100
AcDbArc
 50
58.1789074997
 51
61.821020953
  0
ARC
  5
2E1
100
AcDbEntity
  8
ALL_ASSEMBLY_MEMBERS
100
AcDbCircle
 62
7
  6
CONTINUOUS
 10
5.1656444099
 20
7.1212368012
 40
0.7128169401
100
AcDbArc
 50
73.1789074997
 51
76.821020953
  0
ARC
  5
2E2
100
AcDbEntity
  8
ALL_ASSEMBLY_MEMBERS
100
AcDbCircle
 62
7
  6
CONTINUOUS
 10
5.1656444099
 20
7.1212368012
 40
0.7128169401
100
AcDbArc
 50
88.1789074997
 51
91.821020953
  0
ARC
  5
2E3
100
AcDbEntity
  8
ALL_ASSEMBLY_MEMBERS
100
AcDbCircle
 62
7
  6
CONTINUOUS
 10
5.1656444099
 20
7.1212368012
 40
0.7128169401
100
AcDbArc
 50
103.1789074997
 51
106.821020953
  0
ARC
  5
2E4
100
AcDbEntity
  8
ALL_ASSEMBLY_MEMBERS
100
AcDbCircle
 62
7
  6
CONTINUOUS
 10
5.1656444099
 20
7.1212368012
 40
0.7128169401
100
AcDbArc
 50
118.1789074997
 51
121.821020953
  0
ARC
  5
2E5
100
AcDbEntity
  8
ALL_ASSEMBLY_MEMBERS
100
AcDbCircle
 62
7
  6
CONTINUOUS
 10
5.1656444099
 20
7.1212368012
 40
0.7128169401
100
AcDbArc
 50
133.1789074997
 51
136.821020953
  0
ARC
  5
2E6
100
AcDbEntity
  8
ALL_ASSEMBLY_MEMBERS
100
AcDbCircle
 62
7
  6
CONTINUOUS
 10
5.1656444099
 20
7.1212368012
 40
0.7128169401
100
AcDbArc
 50
148.1789074997
 51
151.821020953
  0
ARC
  5
2E7
100
AcDbEntity
  8
ALL_ASSEMBLY_MEMBERS
100
AcDbCircle
 62
7
  6
CONTINUOUS
 10
5.1656444099
 20
7.1212368012
 40
0.7128169401
100
AcDbArc
 50
163.1789074997
 51
166.821020953
  0
ARC
  5
2E8
100
AcDbEntity
  8
ALL_ASSEMBLY_MEMBERS
100
AcDbCircle
 62
7
  6
CONTINUOUS
 10
5.1656444099
 20
7.1212368012
 40
0.7128169401
100
AcDbArc
 50
358.1789074997
 51
1.821020953
  0
ARC
  5
2E9
100
AcDbEntity
  8
ALL_ASSEMBLY_MEMBERS
100
AcDbCircle
 62
7
  6
CONTINUOUS
 10
5.1656444099
 20
7.1212368012
 40
0.7128169401
100
AcDbArc
 50
343.1789074997
 51
346.821020953
  0
ARC
  5
2EA
100
AcDbEntity
  8
ALL_ASSEMBLY_MEMBERS
100
AcDbCircle
 62
7
  6
CONTINUOUS
 10
5.1656444099
 20
7.1212368012
 40
0.7128169401
100
AcDbArc
 50
328.1789074997
 51
331.821020953
  0
ARC
  5
2EB
100
AcDbEntity
  8
ALL_ASSEMBLY_MEMBERS
100
AcDbCircle
 62
7
  6
CONTINUOUS
 10
5.1656444099
 20
7.1212368012
 40
0.7128169401
100
AcDbArc
 50
313.1789074997
 51
316.821020953
  0
ARC
  5
2EC
100
AcDbEntity
  8
ALL_ASSEMBLY_MEMBERS
100
AcDbCircle
 62
7
  6
CONTINUOUS
 10
5.1656444099
 20
7.1212368012
 40
0.7128169401
100
AcDbArc
 50
298.1789074997
 51
301.821020953
  0
ARC
  5
2ED
100
AcDbEntity
  8
ALL_ASSEMBLY_MEMBERS
100
AcDbCircle
 62
7
  6
CONTINUOUS
 10
5.1656444099
 20
7.1212368012
 40
0.7128169401
100
AcDbArc
 50
283.1789074997
 51
286.821020953
  0
ARC
  5
2EE
100
AcDbEntity
  8
ALL_ASSEMBLY_MEMBERS
100
AcDbCircle
 62
7
  6
CONTINUOUS
 10
5.1656444099
 20
7.1212368012
 40
0.7128169401
100
AcDbArc
 50
268.1789074997
 51
271.821020953
  0
ARC
  5
2EF
100
AcDbEntity
  8
ALL_ASSEMBLY_MEMBERS
100
AcDbCircle
 62
7
  6
CONTINUOUS
 10
5.1656444099
 20
7.1212368012
 40
0.7128169401
100
AcDbArc
 50
253.1789074997
 51
256.821020953
  0
ARC
  5
2F0
100
AcDbEntity
  8
ALL_ASSEMBLY_MEMBERS
100
AcDbCircle
 62
7
  6
CONTINUOUS
 10
5.1656444099
 20
7.1212368012
 40
0.7128169401
100
AcDbArc
 50
238.1789074997
 51
241.821020953
  0
ARC
  5
2F1
100
AcDbEntity
  8
ALL_ASSEMBLY_MEMBERS
100
AcDbCircle
 62
7
  6
CONTINUOUS
 10
5.1656444099
 20
7.1212368012
 40
0.7128169401
100
AcDbArc
 50
223.1789074997
 51
226.821020953
  0
ARC
  5
2F2
100
AcDbEntity
  8
ALL_ASSEMBLY_MEMBERS
100
AcDbCircle
 62
7
  6
CONTINUOUS
 10
5.1656444099
 20
7.1212368012
 40
0.7128169401
100
AcDbArc
 50
208.1789074997
 51
211.821020953
  0
ARC
  5
2F3
100
AcDbEntity
  8
ALL_ASSEMBLY_MEMBERS
100
AcDbCircle
 62
7
  6
CONTINUOUS
 10
5.1656444099
 20
7.1212368012
 40
0.7128169401
100
AcDbArc
 50
193.1789074997
 51
196.821020953
  0
ARC
  5
2F4
100
AcDbEntity
  8
ALL_ASSEMBLY_MEMBERS
100
AcDbCircle
 62
7
  6
CONTINUOUS
 10
5.1656444099
 20
7.1212368012
 40
0.7128169401
100
AcDbArc
 50
178.1789074997
 51
181.821020953
  0
CIRCLE
  5
2F5
100
AcDbEntity
  8
0
100
AcDbCircle
 62
7
  6
CONTINUOUS
 10
5.1656444099
 20
7.1212368012
 40
0.6382635196
  0
CIRCLE
  5
2F6
100
AcDbEntity
  8
0
100
AcDbCircle
 62
7
  6
CONTINUOUS
 10
5.1656444099
 20
7.1212368012
 40
0.63
  0
CIRCLE
  5
2F7
100
AcDbEntity
  8
0
100
AcDbCircle
 62
7
  6
CONTINUOUS
 10
5.1656444099
 20
7.1212368012
 40
0.6217364824
  0
ARC
  5
2F8
100
AcDbEntity
  8
0
100
AcDbCircle
 62
7
  6
CONTINUOUS
 10
5.1656444099
 20
7.1212368012
 40
0.5290636079
100
AcDbArc
 50
1.1322024007
 51
4.5277975993
  0
ARC
  5
2F9
100
AcDbEntity
  8
0
100
AcDbCircle
 62
7
  6
CONTINUOUS
 10
5.1656444099
 20
7.1212368012
 40
0.5290636079
100
AcDbArc
 50
22.1322024007
 51
25.5277975993
  0
ARC
  5
2FA
100
AcDbEntity
  8
0
100
AcDbCircle
 62
7
  6
CONTINUOUS
 10
5.1656444099
 20
7.1212368012
 40
0.5290636079
100
AcDbArc
 50
43.1322024007
 51
46.5277975993
  0
ARC
  5
2FB
100
AcDbEntity
  8
0
100
AcDbCircle
 62
7
  6
CONTINUOUS
 10
5.1656444099
 20
7.1212368012
 40
0.5290636079
100
AcDbArc
 50
64.1322024007
 51
67.5277975993
  0
ARC
  5
2FC
100
AcDbEntity
  8
0
100
AcDbCircle
 62
7
  6
CONTINUOUS
 10
5.1656444099
 20
7.1212368012
 40
0.5290636079
100
AcDbArc
 50
85.1322024007
 51
88.5277975993
  0
ARC
  5
2FD
100
AcDbEntity
  8
0
100
AcDbCircle
 62
7
  6
CONTINUOUS
 10
5.1656444099
 20
7.1212368012
 40
0.5290636079
100
AcDbArc
 50
106.1322024007
 51
109.5277975993
  0
ARC
  5
2FE
100
AcDbEntity
  8
0
100
AcDbCircle
 62
7
  6
CONTINUOUS
 10
5.1656444099
 20
7.1212368012
 40
0.5290636079
100
AcDbArc
 50
127.1322024007
 51
130.5277975993
  0
ARC
  5
2FF
100
AcDbEntity
  8
0
100
AcDbCircle
 62
7
  6
CONTINUOUS
 10
5.1656444099
 20
7.1212368012
 40
0.5290636079
100
AcDbArc
 50
148.1322024007
 51
151.5277975993
  0
ARC
  5
300
100
AcDbEntity
  8
0
100
AcDbCircle
 62
7
  6
CONTINUOUS
 10
5.1656444099
 20
7.1212368012
 40
0.5290636079
100
AcDbArc
 50
169.1322024007
 51
172.5277975993
  0
ARC
  5
301
100
AcDbEntity
  8
0
100
AcDbCircle
 62
7
  6
CONTINUOUS
 10
5.1656444099
 20
7.1212368012
 40
0.5290636079
100
AcDbArc
 50
190.1322024007
 51
193.5277975993
  0
ARC
  5
302
100
AcDbEntity
  8
0
100
AcDbCircle
 62
7
  6
CONTINUOUS
 10
5.1656444099
 20
7.1212368012
 40
0.5290636079
100
AcDbArc
 50
211.1322024007
 51
214.5277975993
  0
ARC
  5
303
100
AcDbEntity
  8
0
100
AcDbCircle
 62
7
  6
CONTINUOUS
 10
5.1656444099
 20
7.1212368012
 40
0.5290636079
100
AcDbArc
 50
232.1322024007
 51
235.5277975993
  0
ARC
  5
304
100
AcDbEntity
  8
0
100
AcDbCircle
 62
7
  6
CONTINUOUS
 10
5.1656444099
 20
7.1212368012
 40
0.5290636079
100
AcDbArc
 50
253.1322024007
 51
256.5277975993
  0
ARC
  5
305
100
AcDbEntity
  8
0
100
AcDbCircle
 62
7
  6
CONTINUOUS
 10
5.1656444099
 20
7.1212368012
 40
0.5290636079
100
AcDbArc
 50
274.1322024007
 51
277.5277975993
  0
ARC
  5
306
100
AcDbEntity
  8
0
100
AcDbCircle
 62
7
  6
CONTINUOUS
 10
5.1656444099
 20
7.1212368012
 40
0.5290636079
100
AcDbArc
 50
295.1322024007
 51
298.5277975993
  0
ARC
  5
307
100
AcDbEntity
  8
0
100
AcDbCircle
 62
7
  6
CONTINUOUS
 10
5.1656444099
 20
7.1212368012
 40
0.5290636079
100
AcDbArc
 50
316.1322024007
 51
319.5277975993
  0
ARC
  5
308
100
AcDbEntity
  8
0
100
AcDbCircle
 62
7
  6
CONTINUOUS
 10
5.1656444099
 20
7.1212368012
 40
0.5290636079
100
AcDbArc
 50
337.1322024007
 51
340.5277975993
  0
CIRCLE
  5
309
100
AcDbEntity
  8
0
100
AcDbCircle
 62
7
  6
CONTINUOUS
 10
5.1656444099
 20
7.1212368012
 40
0.4632635014
  0
CIRCLE
  5
30A
100
AcDbEntity
  8
0
100
AcDbCircle
 62
7
  6
CONTINUOUS
 10
5.1656444099
 20
7.1212368012
 40
0.455
  0
CIRCLE
  5
30B
100
AcDbEntity
  8
0
100
AcDbCircle
 62
7
  6
CONTINUOUS
 10
5.1656444099
 20
7.1212368012
 40
0.4467364796
  0
CIRCLE
  5
30C
100
AcDbEntity
  8
0
100
AcDbCircle
 62
7
  6
CONTINUOUS
 10
5.1656444099
 20
7.1212368012
 40
0.2732634895
  0
CIRCLE
  5
30D
100
AcDbEntity
  8
0
100
AcDbCircle
 62
7
  6
CONTINUOUS
 10
5.1656444099
 20
7.1212368012
 40
0.265
  0
CIRCLE
  5
30E
100
AcDbEntity
  8
0
100
AcDbCircle
 62
7
  6
CONTINUOUS
 10
5.1656444099
 20
7.1212368012
 40
0.2567364498
  0
CIRCLE
  5
30F
100
AcDbEntity
  8
0
100
AcDbCircle
 62
7
  6
CONTINUOUS
 10
5.1656444099
 20
7.1212368012
 40
0.2081258402
  0
CIRCLE
  5
310
100
AcDbEntity
  8
0
100
AcDbCircle
 62
7
  6
CONTINUOUS
 10
5.1656444099
 20
7.1212368012
 40
0.1990758504
  0
ARC
  5
311
100
AcDbEntity
  8
ALL_FEATURES
100
AcDbCircle
 62
7
  6
CONTINUOUS
 10
5.1656444099
 20
7.3759400885
 40
0.3541172876
100
AcDbArc
 50
265.9516604297
 51
274.0483395703
  0
CIRCLE
  5
312
100
AcDbEntity
  8
0
100
AcDbCircle
 62
7
  6
CONTINUOUS
 10
5.2690105946
 20
7.4393652059
 40
0.023
  0
CIRCLE
  5
313
100
AcDbEntity
  8
0
100
AcDbCircle
 62
7
  6
CONTINUOUS
 10
5.1656444099
 20
7.8297368012
 40
0.023
  0
CIRCLE
  5
314
100
AcDbEntity
  8
0
100
AcDbCircle
 62
7
  6
CONTINUOUS
 10
5.193957352
 20
7.6324533672
 40
0.023
  0
CIRCLE
  5
315
100
AcDbEntity
  8
0
100
AcDbCircle
 62
7
  6
CONTINUOUS
 10
5.3490177034
 20
7.8055952492
 40
0.023
  0
CIRCLE
  5
316
100
AcDbEntity
  8
0
100
AcDbCircle
 62
7
  6
CONTINUOUS
 10
5.375280451
 20
7.5883521299
 40
0.023
  0
CIRCLE
  5
317
100
AcDbEntity
  8
0
100
AcDbCircle
 62
7
  6
CONTINUOUS
 10
5.5198944099
 20
6.5076578027
 40
0.023
  0
CIRCLE
  5
318
100
AcDbEntity
  8
0
100
AcDbCircle
 62
7
  6
CONTINUOUS
 10
5.643091076
 20
6.9363349865
 40
0.023
  0
CIRCLE
  5
319
100
AcDbEntity
  8
0
100
AcDbCircle
 62
7
  6
CONTINUOUS
 10
5.5451163878
 20
6.7775145034
 40
0.023
  0
CIRCLE
  5
31A
100
AcDbEntity
  8
0
100
AcDbCircle
 62
7
  6
CONTINUOUS
 10
5.4493164981
 20
6.9439788074
 40
0.023
  0
CIRCLE
  5
31B
100
AcDbEntity
  8
0
100
AcDbCircle
 62
7
  6
CONTINUOUS
 10
5.5198944099
 20
7.7348157998
 40
0.023
  0
CIRCLE
  5
31C
100
AcDbEntity
  8
0
100
AcDbCircle
 62
7
  6
CONTINUOUS
 10
5.5287556771
 20
7.4821996908
 40
0.023
  0
CIRCLE
  5
31D
100
AcDbEntity
  8
0
100
AcDbCircle
 62
7
  6
CONTINUOUS
 10
5.6339955122
 20
7.3280972494
 40
0.023
  0
CIRCLE
  5
31E
100
AcDbEntity
  8
0
100
AcDbCircle
 62
7
  6
CONTINUOUS
 10
5.4218862762
 20
7.3362492567
 40
0.023
  0
CIRCLE
  5
31F
100
AcDbEntity
  8
0
100
AcDbCircle
 62
7
  6
CONTINUOUS
 10
5.4968890789
 20
7.1677902035
 40
0.023
  0
ARC
  5
320
100
AcDbEntity
  8
ALL_ASSEMBLY_MEMBERS
100
AcDbCircle
 62
7
  6
CONTINUOUS
 10
6.1256444099
 20
4.610776276
 40
1.5
100
AcDbArc
 50
155.1403986195
 51
180.0
  0
ARC
  5
321
100
AcDbEntity
  8
ALL_ASSEMBLY_MEMBERS
100
AcDbCircle
 62
7
  6
CONTINUOUS
 10
5.8556444099
 20
5.5667363475
 40
0.35
100
AcDbArc
 50
180.0
 51
223.5311521674
  0
CIRCLE
  5
322
100
AcDbEntity
  8
0
100
AcDbCircle
 62
7
  6
CONTINUOUS
 10
5.6666295644
 20
7.6222219557
 40
0.023
  0
CIRCLE
  5
323
100
AcDbEntity
  8
0
100
AcDbCircle
 62
7
  6
CONTINUOUS
 10
5.7792234085
 20
7.4754868012
 40
0.023
  0
CIRCLE
  5
324
100
AcDbEntity
  8
0
100
AcDbCircle
 62
7
  6
CONTINUOUS
 10
5.8500028579
 20
7.3046100947
 40
0.023
  0
CIRCLE
  5
325
100
AcDbEntity
  8
0
100
AcDbCircle
 62
7
  6
CONTINUOUS
 10
5.6770199864
 20
7.1465156425
 40
0.023
  0
CIRCLE
  5
326
100
AcDbEntity
  8
0
100
AcDbCircle
 62
7
  6
CONTINUOUS
 10
5.8500028579
 20
6.9378635078
 40
0.023
  0
CIRCLE
  5
327
100
AcDbEntity
  8
0
100
AcDbCircle
 62
7
  6
CONTINUOUS
 10
5.7792234085
 20
6.7669868012
 40
0.023
  0
CIRCLE
  5
328
100
AcDbEntity
  8
0
100
AcDbCircle
 62
7
  6
CONTINUOUS
 10
5.6666295644
 20
6.6202516468
 40
0.023
  0
CIRCLE
  5
329
100
AcDbEntity
  8
0
100
AcDbCircle
 62
7
  6
CONTINUOUS
 10
5.8741444099
 20
7.1212368012
 40
0.023
  0
LINE
  5
32A
100
AcDbEntity
  8
ALL_ASSEMBLY_MEMBERS
100
AcDbLine
 62
7
  6
CONTINUOUS
 10
4.7929429259
 20
0.7354380949
 11
4.7948902603
 21
0.7340128767
  0
LINE
  5
32B
100
AcDbEntity
  8
ALL_ASSEMBLY_MEMBERS
100
AcDbLine
 62
7
  6
CONTINUOUS
 10
5.5721436963
 20
0.7995960945
 11
5.5716681375
 21
0.8001463467
  0
SPLINE
  5
32C
100
AcDbEntity
  8
ALL_ASSEMBLY_MEMBERS
100
AcDbSpline
 62
7
  6
CONTINUOUS
 70
0
 71
3
 72
39
 73
35
 74
0
 42
0.0000001
 43
0.0000001
 44
0.0000000001
 40
0.0
 40
0.0
 40
0.0
 40
0.0
 40
0.0004092318
 40
0.000862877
 40
0.0013941902
 40
0.0020241796
 40
0.0027654552
 40
0.0036256992
 40
0.0046097692
 40
0.0057208627
 40
0.008331855
 40
0.0114700933
 40
0.0151413351
 40
0.0193488364
 40
0.0240941773
 40
0.0293770681
 40
0.0351964585
 40
0.041550949
 40
0.0558583799
 40
0.0722846614
 40
0.0908111181
 40
0.1114100779
 40
0.1340514795
 40
0.1587048961
 40
0.2139077461
 40
0.2766925978
 40
0.3467021962
 40
0.4235245993
 40
0.5067188537
 40
0.5957858366
 40
0.6902089921
 40
0.7894543311
 40
0.8929512778
 40
1.0
 40
1.0
 40
1.0
 40
1.0
 10
4.7591444099
 20
0.8978118121
 30
0.0
 10
4.7591444099
 20
0.8978485725
 30
0.0
 10
4.7591585852
 20
0.8979265395
 30
0.0
 10
4.7592188249
 20
0.8980380011
 30
0.0
 10
4.7593156209
 20
0.8981472413
 30
0.0
 10
4.7594485253
 20
0.8982554989
 30
0.0
 10
4.7596177669
 20
0.8983635067
 30
0.0
 10
4.7598236155
 20
0.8984715108
 30
0.0
 10
4.7600662381
 20
0.898579615
 30
0.0
 10
4.7604606295
 20
0.8987321972
 30
0.0
 10
4.7610483815
 20
0.8989191005
 30
0.0
 10
4.7618670743
 20
0.8991339898
 30
0.0
 10
4.7628331531
 20
0.899349462
 30
0.0
 10
4.7639465021
 20
0.8995654115
 30
0.0
 10
4.7652069345
 20
0.8997816419
 30
0.0
 10
4.7666139942
 20
0.8999981071
 30
0.0
 10
4.7681671023
 20
0.9002147614
 30
0.0
 10
4.7705267719
 20
0.9005158536
 30
0.0
 10
4.7738377043
 20
0.9008875758
 30
0.0
 10
4.7782416552
 20
0.9013189873
 30
0.0
 10
4.7832130844
 20
0.9017510579
 30
0.0
 10
4.7887446183
 20
0.902183755
 30
0.0
 10
4.7948280073
 20
0.9026169201
 30
0.0
 10
4.8040155636
 20
0.9032177702
 30
0.0
 10
4.8168074042
 20
0.9039591489
 30
0.0
 10
4.8336728583
 20
0.9048212105
 30
0.0
 10
4.8524825468
 20
0.9056845961
 30
0.0
 10
4.8731272437
 20
0.9065493096
 30
0.0
 10
4.8954851718
 20
0.9074147055
 30
0.0
 10
4.9194252072
 20
0.9082808138
 30
0.0
 10
4.9448079465
 20
0.9091473246
 30
0.0
 10
4.9714875954
 20
0.9100143378
 30
0.0
 10
4.9993019386
 20
0.9108814724
 30
0.0
 10
5.0182062207
 20
0.9114510693
 30
0.0
 10
5.0278179278
 20
0.9117368012
 30
0.0
  0
SPLINE
  5
32D
100
AcDbEntity
  8
ALL_ASSEMBLY_MEMBERS
100
AcDbSpline
 62
7
  6
CONTINUOUS
 70
0
 71
3
 72
38
 73
34
 74
0
 42
0.0000001
 43
0.0000001
 44
0.0000000001
 40
0.0
 40
0.0
 40
0.0
 40
0.0
 40
0.0004171551
 40
0.0008774107
 40
0.0014134334
 40
0.0020461986
 40
0.0027884704
 40
0.0036481014
 40
0.0057370488
 40
0.0083373914
 40
0.0114603275
 40
0.0151118936
 40
0.0192955271
 40
0.0240131624
 40
0.0292650208
 40
0.0350501652
 40
0.0413672803
 40
0.0555908473
 40
0.0719215259
 40
0.0903428276
 40
0.110830595
 40
0.133355116
 40
0.1578861785
 40
0.2128406473
 40
0.27538988
 40
0.3451929911
 40
0.4218636836
 40
0.5049789884
 40
0.5940794656
 40
0.6886687337
 40
0.7882248847
 40
0.892192907
 40
1.0
 40
1.0
 40
1.0
 40
1.0
 10
5.5721444099
 20
0.9424560764
 30
0.0
 10
5.5721444099
 20
0.9424203151
 30
0.0
 10
5.572131057
 20
0.9423446655
 30
0.0
 10
5.572074083
 20
0.9422361742
 30
0.0
 10
5.5719823468
 20
0.9421297477
 30
0.0
 10
5.5718563309
 20
0.9420242852
 30
0.0
 10
5.5716958674
 20
0.9419190674
 30
0.0
 10
5.5714170238
 20
0.941768937
 30
0.0
 10
5.5709766548
 20
0.9415864489
 30
0.0
 10
5.5703398661
 20
0.941378081
 30
0.0
 10
5.5695635653
 20
0.9411689296
 30
0.0
 10
5.5686477448
 20
0.9409590969
 30
0.0
 10
5.567592254
 20
0.9407488367
 30
0.0
 10
5.5663972848
 20
0.9405382872
 30
0.0
 10
5.5650631802
 20
0.9403275296
 30
0.0
 10
5.5635904577
 20
0.9401165871
 30
0.0
 10
5.5613527097
 20
0.9398234351
 30
0.0
 10
5.5582124567
 20
0.9394615201
 30
0.0
 10
5.5540349134
 20
0.9390414808
 30
0.0
 10
5.5493180358
 20
0.9386207947
 30
0.0
 10
5.5440683616
 20
0.9381995354
 30
0.0
 10
5.5382934335
 20
0.9377778106
 30
0.0
 10
5.5295680102
 20
0.9371926853
 30
0.0
 10
5.5174131013
 20
0.936470714
 30
0.0
 10
5.5013777819
 20
0.9356313994
 30
0.0
 10
5.4834785999
 20
0.9347907196
 30
0.0
 10
5.4638146661
 20
0.9339488535
 30
0.0
 10
5.442495079
 20
0.9331061976
 30
0.0
 10
5.4196383052
 20
0.9322629569
 30
0.0
 10
5.3953712326
 20
0.9314192327
 30
0.0
 10
5.369828898
 20
0.9305752084
 30
0.0
 10
5.3431528647
 20
0.9297308729
 30
0.0
 10
5.3250065455
 20
0.9291768748
 30
0.0
 10
5.3157687871
 20
0.9288988711
 30
0.0
  0
SPLINE
  5
32E
100
AcDbEntity
  8
ALL_ASSEMBLY_MEMBERS
100
AcDbSpline
 62
7
  6
CONTINUOUS
 70
0
 71
3
 72
38
 73
34
 74
0
 42
0.0000001
 43
0.0000001
 44
0.0000000001
 40
0.0
 40
0.0
 40
0.0
 40
0.0
 40
0.0823393681
 40
0.1673192826
 40
0.2537435741
 40
0.340393166
 40
0.426046277
 40
0.5094965142
 40
0.5895694845
 40
0.6651397576
 40
0.735143781
 40
0.7677470502
 40
0.7985956845
 40
0.8275804552
 40
0.8546019697
 40
0.8795628662
 40
0.9023774166
 40
0.9229666343
 40
0.9412563661
 40
0.9571869808
 40
0.9642501085
 40
0.9707028961
 40
0.9765408023
 40
0.9817601325
 40
0.9863575048
 40
0.9903300505
 40
0.9936759276
 40
0.9951142515
 40
0.9963968606
 40
0.9975247002
 40
0.9984992581
 40
0.9993229626
 40
1.0
 40
1.0
 40
1.0
 40
1.0
 10
5.3157687871
 20
0.9288988711
 30
0.0
 10
5.3004936959
 20
0.9284391781
 30
0.0
 10
5.2694529856
 20
0.9275272927
 30
0.0
 10
5.2223778158
 20
0.9261866766
 30
0.0
 10
5.1745023698
 20
0.9248457413
 30
0.0
 10
5.1265019336
 20
0.923504744
 30
0.0
 10
5.0790536845
 20
0.9221639782
 30
0.0
 10
5.0328265224
 20
0.9208237421
 30
0.0
 10
4.9884714952
 20
0.9194843972
 30
0.0
 10
4.9466132127
 20
0.9181462717
 30
0.0
 10
4.9135634
 20
0.9170075532
 30
0.0
 10
4.8888113288
 20
0.9160880928
 30
0.0
 10
4.8716684703
 20
0.915415198
 30
0.0
 10
4.8555624061
 20
0.914742574
 30
0.0
 10
4.8405500864
 20
0.9140704312
 30
0.0
 10
4.8266841551
 20
0.9133987411
 30
0.0
 10
4.8140135274
 20
0.9127277241
 30
0.0
 10
4.8025828832
 20
0.9120577708
 30
0.0
 10
4.7924322662
 20
0.9113888566
 30
0.0
 10
4.7847916578
 20
0.9108125223
 30
0.0
 10
4.7793464089
 20
0.9103452778
 30
0.0
 10
4.7757700825
 20
0.9100093008
 30
0.0
 10
4.7725375704
 20
0.9096736972
 30
0.0
 10
4.7696514182
 20
0.909338554
 30
0.0
 10
4.7671139657
 20
0.9090041124
 30
0.0
 10
4.7649275594
 20
0.9086705267
 30
0.0
 10
4.7633279251
 20
0.9083810918
 30
0.0
 10
4.762226844
 20
0.9081451232
 30
0.0
 10
4.7615323852
 20
0.9079773972
 30
0.0
 10
4.7609267172
 20
0.9078099779
 30
0.0
 10
4.7604097044
 20
0.9076429317
 30
0.0
 10
4.7599812691
 20
0.9074763889
 30
0.0
 10
4.7597302805
 20
0.9073541411
 30
0.0
 10
4.7596214574
 20
0.9072913149
 30
0.0
  0
SPLINE
  5
32F
100
AcDbEntity
  8
ALL_ASSEMBLY_MEMBERS
100
AcDbSpline
 62
7
  6
CONTINUOUS
 70
0
 71
3
 72
11
 73
7
 74
0
 42
0.0000001
 43
0.0000001
 44
0.0000000001
 40
0.0
 40
0.0
 40
0.0
 40
0.0
 40
0.2716093875
 40
0.5305065868
 40
0.7740450854
 40
1.0
 40
1.0
 40
1.0
 40
1.0
 10
5.0399955652
 20
0.7692368012
 30
0.0
 10
5.0284128033
 20
0.768413195
 30
0.0
 10
5.0057917904
 20
0.7667704059
 30
0.0
 10
4.9727960865
 20
0.7642404038
 30
0.0
 10
4.9417594263
 20
0.7616963844
 30
0.0
 10
4.9217658724
 20
0.7599199127
 30
0.0
 10
4.9121477487
 20
0.7590197041
 30
0.0
  0
SPLINE
  5
330
100
AcDbEntity
  8
ALL_ASSEMBLY_MEMBERS
100
AcDbSpline
 62
7
  6
CONTINUOUS
 70
0
 71
3
 72
38
 73
34
 74
0
 42
0.0000001
 43
0.0000001
 44
0.0000000001
 40
0.0
 40
0.0
 40
0.0
 40
0.0
 40
0.1188329916
 40
0.2311518106
 40
0.3366082437
 40
0.4348900236
 40
0.5256919632
 40
0.6087301038
 40
0.6837597491
 40
0.7505483645
 40
0.7807889829
 40
0.8089019749
 40
0.8348717072
 40
0.858684974
 40
0.8803320169
 40
0.8998089566
 40
0.9171253671
 40
0.9323050348
 40
0.9453909342
 40
0.9511726208
 40
0.956463954
 40
0.9612844623
 40
0.9656606972
 40
0.9696290968
 40
0.9732396753
 40
0.9765591409
 40
0.9796733166
 40
0.9826859845
 40
0.9857117511
 40
0.9888641397
 40
0.9922442615
 40
0.9959348514
 40
1.0
 40
1.0
 40
1.0
 40
1.0
 10
4.9121477487
 20
0.7590197041
 30
0.0
 10
4.9071844498
 20
0.758555164
 30
0.0
 10
4.897532116
 20
0.7576279068
 30
0.0
 10
4.8834843818
 20
0.756194672
 30
0.0
 10
4.8703040049
 20
0.7547567683
 30
0.0
 10
4.8580324617
 20
0.75331457
 30
0.0
 10
4.8467088475
 20
0.7518681602
 30
0.0
 10
4.8363697856
 20
0.7504176606
 30
0.0
 10
4.827049475
 20
0.7489636945
 30
0.0
 10
4.8199403268
 20
0.7477119261
 30
0.0
 10
4.8147894025
 20
0.7466977018
 30
0.0
 10
4.8113293992
 20
0.7459613633
 30
0.0
 10
4.8081457603
 20
0.7452240273
 30
0.0
 10
4.8052414012
 20
0.7444857342
 30
0.0
 10
4.8026191162
 20
0.7437466076
 30
0.0
 10
4.8002813934
 20
0.7430066344
 30
0.0
 10
4.7982299644
 20
0.7422660316
 30
0.0
 10
4.7964662779
 20
0.7415249074
 30
0.0
 10
4.7951883343
 20
0.7408830411
 30
0.0
 10
4.7943181516
 20
0.7403626908
 30
0.0
 10
4.793765975
 20
0.7399882602
 30
0.0
 10
4.7932869347
 20
0.739613307
 30
0.0
 10
4.7928811432
 20
0.7392375657
 30
0.0
 10
4.7925487485
 20
0.7388606454
 30
0.0
 10
4.792290012
 20
0.7384820351
 30
0.0
 10
4.7921055843
 20
0.7381011635
 30
0.0
 10
4.7919966628
 20
0.7377178091
 30
0.0
 10
4.7919646228
 20
0.7373326575
 30
0.0
 10
4.7920100679
 20
0.7369472738
 30
0.0
 10
4.7921323344
 20
0.7365631144
 30
0.0
 10
4.7923301859
 20
0.7361806587
 30
0.0
 10
4.7926026376
 20
0.7357996197
 30
0.0
 10
4.7928223347
 20
0.7355586712
 30
0.0
 10
4.7929429259
 20
0.7354380949
 30
0.0
  0
LINE
  5
331
100
AcDbEntity
  8
ALL_ASSEMBLY_MEMBERS
100
AcDbLine
 62
7
  6
CONTINUOUS
 10
4.7983306579
 20
1.0010994322
 11
4.7993409134
 21
1.0015309054
  0
SPLINE
  5
332
100
AcDbEntity
  8
ALL_ASSEMBLY_MEMBERS
100
AcDbSpline
 62
7
  6
CONTINUOUS
 70
0
 71
3
 72
30
 73
26
 74
0
 42
0.0000001
 43
0.0000001
 44
0.0000000001
 40
0.0
 40
0.0
 40
0.0
 40
0.0
 40
0.0024947046
 40
0.0055016444
 40
0.0090242597
 40
0.0130638438
 40
0.0176205166
 40
0.0226937053
 40
0.0343849184
 40
0.0481196799
 40
0.0638695878
 40
0.0816045253
 40
0.1012919308
 40
0.1228892153
 40
0.146350156
 40
0.1986717481
 40
0.2578171257
 40
0.3232945628
 40
0.3945491911
 40
0.4709862595
 40
0.5519586671
 40
0.6367871439
 40
0.7247558375
 40
0.8151240835
 40
1.0
 40
1.0
 40
1.0
 40
1.0
 10
4.7993409134
 20
1.0015309054
 30
0.0
 10
4.7996271337
 20
1.0016277881
 30
0.0
 10
4.8002669508
 20
1.0018159262
 30
0.0
 10
4.8013294579
 20
1.0020735136
 30
0.0
 10
4.8025835158
 20
1.0023319215
 30
0.0
 10
4.8040285059
 20
1.0025909353
 30
0.0
 10
4.8056638616
 20
1.0028503935
 30
0.0
 10
4.8082207254
 20
1.0032141778
 30
0.0
 10
4.8118881623
 20
1.0036611006
 30
0.0
 10
4.8168489798
 20
1.0041773541
 30
0.0
 10
4.822545151
 20
1.0046949231
 30
0.0
 10
4.82896484
 20
1.0052135228
 30
0.0
 10
4.8360948139
 20
1.0057326783
 30
0.0
 10
4.8439199719
 20
1.0062523961
 30
0.0
 10
4.8556932134
 20
1.0069723515
 30
0.0
 10
4.8720124561
 20
1.0078606253
 30
0.0
 10
4.8934200868
 20
1.008894594
 30
0.0
 10
4.9171233199
 20
1.0099301758
 30
0.0
 10
4.9429227665
 20
1.0109672656
 30
0.0
 10
4.9706004205
 20
1.0120051913
 30
0.0
 10
4.9999232687
 20
1.0130438889
 30
0.0
 10
5.0306437069
 20
1.0140830425
 30
0.0
 10
5.0625028324
 20
1.0151225903
 30
0.0
 10
5.106475036
 20
1.0165195397
 30
0.0
 10
5.139798228
 20
1.017550122
 30
0.0
 10
5.1621807508
 20
1.0182419081
 30
0.0
  0
SPLINE
  5
333
100
AcDbEntity
  8
ALL_ASSEMBLY_MEMBERS
100
AcDbSpline
 62
7
  6
CONTINUOUS
 70
0
 71
3
 72
40
 73
36
 74
0
 42
0.0000001
 43
0.0000001
 44
0.0000000001
 40
0.0
 40
0.0
 40
0.0
 40
0.0
 40
0.0978167233
 40
0.1946914941
 40
0.2896930718
 40
0.3819061956
 40
0.4704462044
 40
0.554459099
 40
0.6331392432
 40
0.7057306843
 40
0.7715342686
 40
0.8016928067
 40
0.8299237079
 40
0.8561578526
 40
0.8803361136
 40
0.9024007823
 40
0.9222965793
 40
0.9399801341
 40
0.9554126395
 40
0.9622730159
 40
0.9685572957
 40
0.9742632307
 40
0.9793890918
 40
0.9839335774
 40
0.9878960696
 40
0.9912771103
 40
0.9940794191
 40
0.9952659832
 40
0.996311715
 40
0.9972194226
 40
0.9979934476
 40
0.9986408629
 40
0.9991738499
 40
0.9996142438
 40
1.0
 40
1.0
 40
1.0
 40
1.0
 10
5.1656718383
 20
1.0183498054
 30
0.0
 10
5.1776894463
 20
1.0187212222
 30
0.0
 10
5.2016089359
 20
1.01946047
 30
0.0
 10
5.2371998408
 20
1.0205710483
 30
0.0
 10
5.2721016357
 20
1.0216813875
 30
0.0
 10
5.3059784258
 20
1.0227914206
 30
0.0
 10
5.338503789
 20
1.0239009025
 30
0.0
 10
5.3693647301
 20
1.0250097249
 30
0.0
 10
5.3982640253
 20
1.026117513
 30
0.0
 10
5.4249233721
 20
1.0272239564
 30
0.0
 10
5.4456199832
 20
1.0281697407
 30
0.0
 10
5.4608663167
 20
1.0289338199
 30
0.0
 10
5.4712531536
 20
1.0294898292
 30
0.0
 10
5.4809038018
 20
1.0300455782
 30
0.0
 10
5.4897951907
 20
1.0306008872
 30
0.0
 10
5.4979058786
 20
1.0311556111
 30
0.0
 10
5.5052162678
 20
1.0317096838
 30
0.0
 10
5.5117089147
 20
1.0322628276
 30
0.0
 10
5.516599753
 20
1.0327392112
 30
0.0
 10
5.5200911557
 20
1.0331251498
 30
0.0
 10
5.5223915481
 20
1.0334029613
 30
0.0
 10
5.5244770804
 20
1.0336805075
 30
0.0
 10
5.5263467379
 20
1.0339577168
 30
0.0
 10
5.5279995507
 20
1.0342344761
 30
0.0
 10
5.529434688
 20
1.0345105401
 30
0.0
 10
5.5306512666
 20
1.034785771
 30
0.0
 10
5.5315255207
 20
1.0350252938
 30
0.0
 10
5.5321127106
 20
1.0352211614
 30
0.0
 10
5.5324731465
 20
1.0353596433
 30
0.0
 10
5.5327788197
 20
1.0354979276
 30
0.0
 10
5.5330300047
 20
1.0356360991
 30
0.0
 10
5.5332272304
 20
1.0357744148
 30
0.0
 10
5.5333711309
 20
1.0359138919
 30
0.0
 10
5.5334618136
 20
1.0360568637
 30
0.0
 10
5.5334838
 20
1.0361590395
 30
0.0
 10
5.5334838439
 20
1.0362064555
 30
0.0
  0
SPLINE
  5
334
100
AcDbEntity
  8
ALL_ASSEMBLY_MEMBERS
100
AcDbSpline
 62
7
  6
CONTINUOUS
 70
0
 71
3
 72
67
 73
63
 74
0
 42
0.0000001
 43
0.0000001
 44
0.0000000001
 40
0.0
 40
0.0
 40
0.0
 40
0.0
 40
0.00043432
 40
0.0009347947
 40
0.0021390849
 40
0.0036196476
 40
0.0053795413
 40
0.0074202945
 40
0.0097421346
 40
0.012344291
 40
0.0152256899
 40
0.0218210175
 40
0.0295169355
 40
0.0382978779
 40
0.0481428657
 40
0.0590301951
 40
0.0709367908
 40
0.0838341206
 40
0.0976920416
 40
0.1281641336
 40
0.1620703263
 40
0.1990998328
 40
0.2389083662
 40
0.2811286889
 40
0.32536987
 40
0.3712218067
 40
0.4182607365
 40
0.4660502327
 40
0.5141482822
 40
0.5621089412
 40
0.6094885421
 40
0.6558475511
 40
0.7007575453
 40
0.743801926
 40
0.784582545
 40
0.8227225758
 40
0.8578677971
 40
0.889695666
 40
0.9042712172
 40
0.9179103324
 40
0.9305814868
 40
0.9422540939
 40
0.9529027965
 40
0.9625042689
 40
0.9710355727
 40
0.9784780948
 40
0.9817867352
 40
0.9848181092
 40
0.9875707049
 40
0.9900431546
 40
0.9922346028
 40
0.9941452409
 40
0.9957759377
 40
0.9971286113
 40
0.9977019321
 40
0.9982075929
 40
0.9986469147
 40
0.9990219783
 40
0.9993362128
 40
0.9995955645
 40
0.9998107169
 40
1.0
 40
1.0
 40
1.0
 40
1.0
 10
4.798451349
 20
0.9297354872
 30
0.0
 10
4.7985459088
 20
0.9297847826
 30
0.0
 10
4.7987540795
 20
0.9298820035
 30
0.0
 10
4.7992426582
 20
0.9300752449
 30
0.0
 10
4.7999893961
 20
0.9303105648
 30
0.0
 10
4.8010471802
 20
0.9305800712
 30
0.0
 10
4.8023156278
 20
0.9308505299
 30
0.0
 10
4.8037943358
 20
0.9311217749
 30
0.0
 10
4.8054827585
 20
0.9313935086
 30
0.0
 10
4.8073798505
 20
0.9316656719
 30
0.0
 10
4.8103211029
 20
0.9320462898
 30
0.0
 10
4.8145116707
 20
0.932514624
 30
0.0
 10
4.8201507193
 20
0.9330563194
 30
0.0
 10
4.8265907529
 20
0.9335991163
 30
0.0
 10
4.8338167179
 20
0.9341429676
 30
0.0
 10
4.8418120171
 20
0.9346874868
 30
0.0
 10
4.8505582979
 20
0.9352324028
 30
0.0
 10
4.860035213
 20
0.9357777478
 30
0.0
 10
4.87406604
 20
0.936529299
 30
0.0
 10
4.8932528513
 20
0.9374584277
 30
0.0
 10
4.9181277004
 20
0.9385435698
 30
0.0
 10
4.9452968346
 20
0.9396300597
 30
0.0
 10
4.9745087711
 20
0.9407177831
 30
0.0
 10
5.0054924961
 20
0.9418062613
 30
0.0
 10
5.0379608921
 20
0.942895317
 30
0.0
 10
5.0716130143
 20
0.9439847995
 30
0.0
 10
5.1061367812
 20
0.9450745263
 30
0.0
 10
5.1412122943
 20
0.9461644422
 30
0.0
 10
5.1765142242
 20
0.9472544012
 30
0.0
 10
5.2117154658
 20
0.9483443522
 30
0.0
 10
5.2464895232
 20
0.9494341544
 30
0.0
 10
5.2805141901
 20
0.9505237579
 30
0.0
 10
5.3134738926
 20
0.9516129814
 30
0.0
 10
5.3450631876
 20
0.952701714
 30
0.0
 10
5.3749892587
 20
0.9537897633
 30
0.0
 10
5.4029745538
 20
0.9548767452
 30
0.0
 10
5.4287599623
 20
0.9559625426
 30
0.0
 10
5.4487610085
 20
0.9568906621
 30
0.0
 10
5.4634840638
 20
0.9576406224
 30
0.0
 10
5.4735078623
 20
0.9581862022
 30
0.0
 10
5.4828178002
 20
0.958731411
 30
0.0
 10
5.4913921743
 20
0.9592763047
 30
0.0
 10
5.4992112379
 20
0.9598206835
 30
0.0
 10
5.5062570464
 20
0.960364245
 30
0.0
 10
5.5125131076
 20
0.9609069372
 30
0.0
 10
5.5172245481
 20
0.961374477
 30
0.0
 10
5.520587337
 20
0.9617531724
 30
0.0
 10
5.522803173
 20
0.9620257366
 30
0.0
 10
5.5248120457
 20
0.9622980311
 30
0.0
 10
5.5266126679
 20
0.9625699982
 30
0.0
 10
5.5282040091
 20
0.9628415728
 30
0.0
 10
5.5295854621
 20
0.9631124828
 30
0.0
 10
5.530756555
 20
0.9633826046
 30
0.0
 10
5.5315982009
 20
0.9636176289
 30
0.0
 10
5.5321636495
 20
0.963809747
 30
0.0
 10
5.5325109611
 20
0.9639456312
 30
0.0
 10
5.5328055623
 20
0.9640813284
 30
0.0
 10
5.5330476654
 20
0.9642169289
 30
0.0
 10
5.5332377246
 20
0.9643526944
 30
0.0
 10
5.5333762838
 20
0.9644896478
 30
0.0
 10
5.5334633183
 20
0.9646300021
 30
0.0
 10
5.53348417
 20
0.9647299652
 30
0.0
 10
5.5334841171
 20
0.9647764394
 30
0.0
  0
SPLINE
  5
335
100
AcDbEntity
  8
ALL_ASSEMBLY_MEMBERS
100
AcDbSpline
 62
7
  6
CONTINUOUS
 70
0
 71
3
 72
39
 73
35
 74
0
 42
0.0000001
 43
0.0000001
 44
0.0000000001
 40
0.0
 40
0.0
 40
0.0
 40
0.0
 40
0.0003669677
 40
0.0008654093
 40
0.0015048548
 40
0.002289618
 40
0.0032219164
 40
0.0043029903
 40
0.0069139643
 40
0.0101256875
 40
0.0139390441
 40
0.018353528
 40
0.0233665036
 40
0.0289747061
 40
0.0351747029
 40
0.0493357996
 40
0.0658171452
 40
0.0845716781
 40
0.1055487676
 40
0.128694282
 40
0.1539414642
 40
0.1812205104
 40
0.2104580922
 40
0.2415691889
 40
0.2744662993
 40
0.3090584464
 40
0.3829223368
 40
0.4623178399
 40
0.546326284
 40
0.6339743911
 40
0.7242391067
 40
0.8160487929
 40
0.9083430275
 40
1.0
 40
1.0
 40
1.0
 40
1.0
 10
5.5461066078
 20
0.7431989991
 30
0.0
 10
5.5460688233
 20
0.7431612146
 30
0.0
 10
5.5459633229
 20
0.743089348
 30
0.0
 10
5.5457646443
 20
0.7429966464
 30
0.0
 10
5.5455003385
 20
0.7429030761
 30
0.0
 10
5.5451702404
 20
0.7428090395
 30
0.0
 10
5.5447737888
 20
0.74271455
 30
0.0
 10
5.5441140126
 20
0.7425795703
 30
0.0
 10
5.5431219277
 20
0.7424153579
 30
0.0
 10
5.5417313973
 20
0.7422269799
 30
0.0
 10
5.5400763232
 20
0.7420378004
 30
0.0
 10
5.5381576038
 20
0.741847968
 30
0.0
 10
5.5359764582
 20
0.7416576871
 30
0.0
 10
5.5335344787
 20
0.741467026
 30
0.0
 10
5.5297623865
 20
0.7412004672
 30
0.0
 10
5.5244075907
 20
0.7408721421
 30
0.0
 10
5.5172247493
 20
0.7404918404
 30
0.0
 10
5.5090482562
 20
0.740110254
 30
0.0
 10
5.4999004898
 20
0.7397275924
 30
0.0
 10
5.4898065938
 20
0.7393441826
 30
0.0
 10
5.4787944759
 20
0.7389600075
 30
0.0
 10
5.4668947981
 20
0.7385751706
 30
0.0
 10
5.4541408597
 20
0.7381897891
 30
0.0
 10
5.4405685248
 20
0.7378038241
 30
0.0
 10
5.4262162124
 20
0.7374173179
 30
0.0
 10
5.4056400885
 20
0.736889764
 30
0.0
 10
5.3782942637
 20
0.7362343195
 30
0.0
 10
5.3437535735
 20
0.7354615504
 30
0.0
 10
5.3072052949
 20
0.7346865808
 30
0.0
 10
5.2690740197
 20
0.7339095676
 30
0.0
 10
5.2298065904
 20
0.7331306924
 30
0.0
 10
5.1898625292
 20
0.7323500021
 30
0.0
 10
5.1497157321
 20
0.731567603
 30
0.0
 10
5.1229351882
 20
0.7310410126
 30
0.0
 10
5.10959136
 20
0.7307758186
 30
0.0
  0
LINE
  5
336
100
AcDbEntity
  8
ALL_ASSEMBLY_MEMBERS
100
AcDbLine
 62
7
  6
CONTINUOUS
 10
5.10959136
 20
0.7307758186
 11
5.0996054357
 21
0.7305768008
  0
LINE
  5
337
100
AcDbEntity
  8
ALL_ASSEMBLY_MEMBERS
100
AcDbLine
 62
7
  6
CONTINUOUS
 10
5.0996054357
 20
0.7305768008
 11
5.1095720743
 21
0.7308891706
  0
SPLINE
  5
338
100
AcDbEntity
  8
ALL_ASSEMBLY_MEMBERS
100
AcDbSpline
 62
7
  6
CONTINUOUS
 70
0
 71
3
 72
40
 73
36
 74
0
 42
0.0000001
 43
0.0000001
 44
0.0000000001
 40
0.0
 40
0.0
 40
0.0
 40
0.0
 40
0.0928269541
 40
0.1861126331
 40
0.2787490705
 40
0.369694312
 40
0.4578864341
 40
0.5423031083
 40
0.6219676962
 40
0.6959574658
 40
0.7634184271
 40
0.7944518712
 40
0.8235685775
 40
0.8506827431
 40
0.8757150832
 40
0.8985971097
 40
0.9192616708
 40
0.9376486503
 40
0.9537104888
 40
0.960855347
 40
0.9674021621
 40
0.9733469313
 40
0.9786871635
 40
0.9834207974
 40
0.9875463708
 40
0.9910634423
 40
0.9939734942
 40
0.9952028014
 40
0.9962835562
 40
0.9972182464
 40
0.9980107841
 40
0.9986676839
 40
0.9992005306
 40
0.9996311303
 40
1.0
 40
1.0
 40
1.0
 40
1.0
 10
5.1095720743
 20
0.7308891706
 30
0.0
 10
5.1227123495
 20
0.731300081
 30
0.0
 10
5.1490580485
 20
0.7321171109
 30
0.0
 10
5.1885173404
 20
0.7333349361
 30
0.0
 10
5.2277100112
 20
0.73455261
 30
0.0
 10
5.2661809611
 20
0.735769955
 30
0.0
 10
5.3034871977
 20
0.7369868861
 30
0.0
 10
5.3391949463
 20
0.7382030923
 30
0.0
 10
5.3728900926
 20
0.7394182322
 30
0.0
 10
5.4041822552
 20
0.7406320244
 30
0.0
 10
5.4285885787
 20
0.7416682688
 30
0.0
 10
5.4466422247
 20
0.7425056865
 30
0.0
 10
5.458986062
 20
0.7431158318
 30
0.0
 10
5.4704788999
 20
0.7437256123
 30
0.0
 10
5.4810874326
 20
0.7443350319
 30
0.0
 10
5.4907809408
 20
0.7449437982
 30
0.0
 10
5.4995313307
 20
0.7455517158
 30
0.0
 10
5.5073132751
 20
0.7461587371
 30
0.0
 10
5.5131809767
 20
0.7466814262
 30
0.0
 10
5.5173735627
 20
0.7471048589
 30
0.0
 10
5.5201378793
 20
0.7474097096
 30
0.0
 10
5.5226449532
 20
0.7477142921
 30
0.0
 10
5.5248932083
 20
0.7480184954
 30
0.0
 10
5.5268812687
 20
0.7483221931
 30
0.0
 10
5.5286079116
 20
0.7486250976
 30
0.0
 10
5.5300718567
 20
0.7489270496
 30
0.0
 10
5.5311244877
 20
0.74918986
 30
0.0
 10
5.5318319868
 20
0.7494049245
 30
0.0
 10
5.5322658767
 20
0.7495568173
 30
0.0
 10
5.5326338011
 20
0.7497084356
 30
0.0
 10
5.5329360621
 20
0.7498598323
 30
0.0
 10
5.5331733508
 20
0.750011216
 30
0.0
 10
5.5333465556
 20
0.750163699
 30
0.0
 10
5.5334566262
 20
0.7503202874
 30
0.0
 10
5.5334839343
 20
0.7504341862
 30
0.0
 10
5.5334839905
 20
0.7504864277
 30
0.0
  0
SPLINE
  5
339
100
AcDbEntity
  8
ALL_ASSEMBLY_MEMBERS
100
AcDbSpline
 62
7
  6
CONTINUOUS
 70
0
 71
3
 72
38
 73
34
 74
0
 42
0.0000001
 43
0.0000001
 44
0.0000000001
 40
0.0
 40
0.0
 40
0.0
 40
0.0
 40
0.0006816615
 40
0.0015063805
 40
0.0024782293
 40
0.003599604
 40
0.004871991
 40
0.0062963452
 40
0.0096031167
 40
0.013522134
 40
0.0180519159
 40
0.0231898401
 40
0.0289327653
 40
0.0352772338
 40
0.0422194076
 40
0.0578734264
 40
0.0758429058
 40
0.0960731918
 40
0.1184979401
 40
0.1430425244
 40
0.1696297707
 40
0.198170351
 40
0.2285707004
 40
0.2607330891
 40
0.3299097124
 40
0.4047928514
 40
0.4843981749
 40
0.5676776629
 40
0.6535380522
 40
0.7408501489
 40
0.8284574299
 40
0.9152371792
 40
1.0
 40
1.0
 40
1.0
 40
1.0
 10
5.5716678746
 20
0.7901165367
 30
0.0
 10
5.5715631441
 20
0.790056033
 30
0.0
 10
5.5713226249
 20
0.7899381119
 30
0.0
 10
5.5709131821
 20
0.7897770793
 30
0.0
 10
5.5704210079
 20
0.7896156162
 30
0.0
 10
5.5698460299
 20
0.7894538307
 30
0.0
 10
5.5691881271
 20
0.7892917719
 30
0.0
 10
5.5681474409
 20
0.7890639552
 30
0.0
 10
5.5666379104
 20
0.7887843507
 30
0.0
 10
5.5645769561
 20
0.7884619498
 30
0.0
 10
5.5621878114
 20
0.7881387115
 30
0.0
 10
5.5594725829
 20
0.7878147891
 30
0.0
 10
5.5564333905
 20
0.7874904226
 30
0.0
 10
5.5530724676
 20
0.7871656939
 30
0.0
 10
5.5479571993
 20
0.7867141619
 30
0.0
 10
5.5407807824
 20
0.7861572204
 30
0.0
 10
5.5312469827
 20
0.7855107697
 30
0.0
 10
5.5205094422
 20
0.7848632727
 30
0.0
 10
5.5086034126
 20
0.7842148325
 30
0.0
 10
5.495567952
 20
0.7835656688
 30
0.0
 10
5.4814461112
 20
0.7829161075
 30
0.0
 10
5.4662842495
 20
0.7822661255
 30
0.0
 10
5.4501323229
 20
0.7816158088
 30
0.0
 10
5.4267739312
 20
0.7807267647
 30
0.0
 10
5.3955251378
 20
0.7796255103
 30
0.0
 10
5.3558599796
 20
0.7783321168
 30
0.0
 10
5.3136912638
 20
0.7770374883
 30
0.0
 10
5.2695739501
 20
0.7757419488
 30
0.0
 10
5.224088627
 20
0.7744458664
 30
0.0
 10
5.1778351017
 20
0.7731495253
 30
0.0
 10
5.1314183888
 20
0.7718530622
 30
0.0
 10
5.0854541812
 20
0.7705567799
 30
0.0
 10
5.0550290322
 20
0.7696788858
 30
0.0
 10
5.0399955652
 20
0.7692368012
 30
0.0
  0
SPLINE
  5
33A
100
AcDbEntity
  8
ALL_ASSEMBLY_MEMBERS
100
AcDbSpline
 62
7
  6
CONTINUOUS
 70
0
 71
3
 72
38
 73
34
 74
0
 42
0.0000001
 43
0.0000001
 44
0.0000000001
 40
0.0
 40
0.0
 40
0.0
 40
0.0
 40
0.000451139
 40
0.0009425944
 40
0.0015061332
 40
0.0021631554
 40
0.0029272518
 40
0.0038070702
 40
0.0059338911
 40
0.0085715804
 40
0.0117324347
 40
0.0154226859
 40
0.0196455804
 40
0.0244027059
 40
0.0296946598
 40
0.0355214135
 40
0.0418825241
 40
0.056203547
 40
0.0726407162
 40
0.0911708188
 40
0.111769525
 40
0.1344116083
 40
0.1590654789
 40
0.2142548015
 40
0.2770239115
 40
0.3470084026
 40
0.4238030551
 40
0.5069597086
 40
0.5959816281
 40
0.6903587173
 40
0.7895627585
 40
0.8930133956
 40
1.0
 40
1.0
 40
1.0
 40
1.0
 10
4.7978051003
 20
0.8754914501
 30
0.0
 10
4.7978050897
 20
0.8755281425
 30
0.0
 10
4.7978175599
 20
0.8756052162
 30
0.0
 10
4.7978714307
 20
0.8757166464
 30
0.0
 10
4.7979587127
 20
0.8758262191
 30
0.0
 10
4.7980788419
 20
0.8759347909
 30
0.0
 10
4.7982319023
 20
0.8760430365
 30
0.0
 10
4.7984974333
 20
0.8761970977
 30
0.0
 10
4.7989176142
 20
0.876384635
 30
0.0
 10
4.7995259688
 20
0.8765987185
 30
0.0
 10
4.800267564
 20
0.8768135442
 30
0.0
 10
4.8011422572
 20
0.87702902
 30
0.0
 10
4.8021500256
 20
0.8772449298
 30
0.0
 10
4.8032905732
 20
0.8774611689
 30
0.0
 10
4.8045635894
 20
0.8776776456
 30
0.0
 10
4.8059687139
 20
0.8778943196
 30
0.0
 10
4.8081036781
 20
0.8781954349
 30
0.0
 10
4.8110999333
 20
0.8785671404
 30
0.0
 10
4.8150855227
 20
0.8789985539
 30
0.0
 10
4.8195842491
 20
0.8794307124
 30
0.0
 10
4.8245896451
 20
0.8798634696
 30
0.0
 10
4.8300947512
 20
0.8802966155
 30
0.0
 10
4.8384085518
 20
0.8808973526
 30
0.0
 10
4.8499840899
 20
0.8816388829
 30
0.0
 10
4.8652458166
 20
0.882500855
 30
0.0
 10
4.8822671857
 20
0.8833643338
 30
0.0
 10
4.9009485932
 20
0.8842289947
 30
0.0
 10
4.9211798569
 20
0.8850944013
 30
0.0
 10
4.9428423363
 20
0.8859604739
 30
0.0
 10
4.9658109577
 20
0.8868269815
 30
0.0
 10
4.98995388
 20
0.8876940118
 30
0.0
 10
5.0151229987
 20
0.8885611419
 30
0.0
 10
5.0322290072
 20
0.8891307324
 30
0.0
 10
5.0409258535
 20
0.8894164398
 30
0.0
  0
SPLINE
  5
33B
100
AcDbEntity
  8
ALL_ASSEMBLY_MEMBERS
100
AcDbSpline
 62
7
  6
CONTINUOUS
 70
0
 71
3
 72
42
 73
38
 74
0
 42
0.0000001
 43
0.0000001
 44
0.0000000001
 40
0.0
 40
0.0
 40
0.0
 40
0.0
 40
0.0856353129
 40
0.1736925276
 40
0.2628589443
 40
0.3518897264
 40
0.439500881
 40
0.5244379803
 40
0.6054870037
 40
0.6814863785
 40
0.7513483805
 40
0.7836633691
 40
0.8140757188
 40
0.8424795202
 40
0.8687730005
 40
0.892860402
 40
0.9146597946
 40
0.9340919003
 40
0.9510886618
 40
0.9586564845
 40
0.9655949578
 40
0.971897595
 40
0.9775595525
 40
0.9825778768
 40
0.9869502146
 40
0.9906751008
 40
0.9937527188
 40
0.9950499572
 40
0.9961876674
 40
0.9971680384
 40
0.9979945688
 40
0.9986732116
 40
0.9992149073
 40
0.9994410477
 40
0.9996427227
 40
0.9998262626
 40
1.0
 40
1.0
 40
1.0
 40
1.0
 10
5.0409258535
 20
0.8715564398
 30
0.0
 10
5.0550069792
 20
0.8720190308
 30
0.0
 10
5.0835681378
 20
0.8729368881
 30
0.0
 10
5.1267925576
 20
0.8742888102
 30
0.0
 10
5.1705758603
 20
0.875640988
 30
0.0
 10
5.2142857452
 20
0.8769930685
 30
0.0
 10
5.2572994968
 20
0.8783448675
 30
0.0
 10
5.298999447
 20
0.8796960452
 30
0.0
 10
5.3387880268
 20
0.8810461514
 30
0.0
 10
5.376094995
 20
0.8823947818
 30
0.0
 10
5.4053860945
 20
0.8835445279
 30
0.0
 10
5.4271799178
 20
0.8844736406
 30
0.0
 10
5.4421574791
 20
0.8851520259
 30
0.0
 10
5.4561433223
 20
0.8858299734
 30
0.0
 10
5.4690873044
 20
0.8865073881
 30
0.0
 10
5.4809431491
 20
0.8871842792
 30
0.0
 10
5.4916682243
 20
0.887860131
 30
0.0
 10
5.5012242473
 20
0.8885348716
 30
0.0
 10
5.5084394198
 20
0.8891158888
 30
0.0
 10
5.5136009349
 20
0.8895865481
 30
0.0
 10
5.5170076495
 20
0.8899254724
 30
0.0
 10
5.520099155
 20
0.8902640819
 30
0.0
 10
5.5228727277
 20
0.8906023061
 30
0.0
 10
5.5253261744
 20
0.8909399564
 30
0.0
 10
5.5274577217
 20
0.8912766924
 30
0.0
 10
5.5292655358
 20
0.891612341
 30
0.0
 10
5.5305663129
 20
0.8919044668
 30
0.0
 10
5.5314412864
 20
0.8921436963
 30
0.0
 10
5.5319774125
 20
0.892312494
 30
0.0
 10
5.5324318963
 20
0.8924809077
 30
0.0
 10
5.5328052412
 20
0.8926489834
 30
0.0
 10
5.5330978578
 20
0.8928167249
 30
0.0
 10
5.5332862282
 20
0.8929650592
 30
0.0
 10
5.5333908373
 20
0.8930861388
 30
0.0
 10
5.5334440733
 20
0.8931720983
 30
0.0
 10
5.5334765487
 20
0.8932588528
 30
0.0
 10
5.5334839633
 20
0.8933178412
 30
0.0
 10
5.5334839943
 20
0.8933464245
 30
0.0
  0
SPLINE
  5
33C
100
AcDbEntity
  8
ALL_ASSEMBLY_MEMBERS
100
AcDbSpline
 62
7
  6
CONTINUOUS
 70
0
 71
3
 72
37
 73
33
 74
0
 42
0.0000001
 43
0.0000001
 44
0.0000000001
 40
0.0
 40
0.0
 40
0.0
 40
0.0
 40
0.0833475873
 40
0.1690249796
 40
0.2558168781
 40
0.3425814513
 40
0.4281370876
 40
0.5113250162
 40
0.5910217039
 40
0.6661471193
 40
0.7356865438
 40
0.7680649696
 40
0.7987011497
 40
0.8274903433
 40
0.8543383526
 40
0.8791525159
 40
0.9018493051
 40
0.9223554766
 40
0.9405996259
 40
0.956523141
 40
0.9635992942
 40
0.9700770179
 40
0.9759506252
 40
0.9812162832
 40
0.985871628
 40
0.9899148822
 40
0.9933452419
 40
0.9961637367
 40
0.9973450789
 40
0.9983762789
 40
0.9992598817
 40
1.0
 40
1.0
 40
1.0
 40
1.0
 10
5.0409258535
 20
0.8894164398
 30
0.0
 10
5.0546075504
 20
0.8898659089
 30
0.0
 10
5.0823540207
 20
0.8907581333
 30
0.0
 10
5.1243490268
 20
0.8920728557
 30
0.0
 10
5.166905504
 20
0.8933878213
 30
0.0
 10
5.2094419765
 20
0.8947027075
 30
0.0
 10
5.2513862527
 20
0.8960173802
 30
0.0
 10
5.292169129
 20
0.8973315343
 30
0.0
 10
5.3312380505
 20
0.8986447904
 30
0.0
 10
5.3680640396
 20
0.8999568621
 30
0.0
 10
5.3971203892
 20
0.9010735074
 30
0.0
 10
5.4188725177
 20
0.9019750038
 30
0.0
 10
5.4339360293
 20
0.9026346896
 30
0.0
 10
5.4480903106
 20
0.9032941365
 30
0.0
 10
5.4612872964
 20
0.9039531333
 30
0.0
 10
5.4734823489
 20
0.9046116611
 30
0.0
 10
5.4846342001
 20
0.9052696252
 30
0.0
 10
5.4947050097
 20
0.9059265356
 30
0.0
 10
5.5036608079
 20
0.9065823994
 30
0.0
 10
5.5104113285
 20
0.9071473647
 30
0.0
 10
5.5152310757
 20
0.9076051643
 30
0.0
 10
5.5184048603
 20
0.9079345911
 30
0.0
 10
5.5212795749
 20
0.9082637109
 30
0.0
 10
5.5238528796
 20
0.9085924254
 30
0.0
 10
5.5261229094
 20
0.9089205547
 30
0.0
 10
5.5280881595
 20
0.9092477434
 30
0.0
 10
5.5297470366
 20
0.9095738212
 30
0.0
 10
5.5309345505
 20
0.9098578939
 30
0.0
 10
5.5317275225
 20
0.9100908328
 30
0.0
 10
5.5322090909
 20
0.9102548497
 30
0.0
 10
5.5326135233
 20
0.9104184884
 30
0.0
 10
5.5328527036
 20
0.9105375827
 30
0.0
 10
5.5329579259
 20
0.9105984476
 30
0.0
  0
SPLINE
  5
33D
100
AcDbEntity
  8
ALL_ASSEMBLY_MEMBERS
100
AcDbSpline
 62
7
  6
CONTINUOUS
 70
0
 71
3
 72
29
 73
25
 74
0
 42
0.0000001
 43
0.0000001
 44
0.0000000001
 40
0.0
 40
0.0
 40
0.0
 40
0.0
 40
0.0068562342
 40
0.0095189845
 40
0.0126242415
 40
0.0161884687
 40
0.0202224523
 40
0.0247335544
 40
0.029726976
 40
0.0411727509
 40
0.0545745571
 40
0.0699368152
 40
0.0872593989
 40
0.1065394957
 40
0.1277726072
 40
0.1509531258
 40
0.2031227702
 40
0.2629472087
 40
0.3303071187
 40
0.4050801037
 40
0.4871240033
 40
0.5762627709
 40
0.7751005055
 40
1.0
 40
1.0
 40
1.0
 40
1.0
 10
4.7978049511
 20
0.8040614459
 30
0.0
 10
4.7978051487
 20
0.8042738313
 30
0.0
 10
4.7980742525
 20
0.8045189609
 30
0.0
 10
4.7984015615
 20
0.8047128523
 30
0.0
 10
4.7986631608
 20
0.8048418717
 30
0.0
 10
4.7989687047
 20
0.8049690421
 30
0.0
 10
4.7993216973
 20
0.8050969824
 30
0.0
 10
4.7997211179
 20
0.8052248411
 30
0.0
 10
4.8003450574
 20
0.8054037627
 30
0.0
 10
4.8012431464
 20
0.8056239517
 30
0.0
 10
4.8024626124
 20
0.8058784542
 30
0.0
 10
4.8038674087
 20
0.8061334719
 30
0.0
 10
4.8054568107
 20
0.8063889283
 30
0.0
 10
4.8072301044
 20
0.8066446782
 30
0.0
 10
4.809186513
 20
0.8069006748
 30
0.0
 10
4.8121571972
 20
0.8072563978
 30
0.0
 10
4.8163216182
 20
0.8076954392
 30
0.0
 10
4.8218541411
 20
0.8082051243
 30
0.0
 10
4.828089388
 20
0.8087157129
 30
0.0
 10
4.8350149214
 20
0.8092269634
 30
0.0
 10
4.8426167275
 20
0.809738656
 30
0.0
 10
4.8540569424
 20
0.8104475755
 30
0.0
 10
4.8699203597
 20
0.8113224149
 30
0.0
 10
4.8830308581
 20
0.8119634859
 30
0.0
 10
4.8899899887
 20
0.8122883258
 30
0.0
  0
SPLINE
  5
33E
100
AcDbEntity
  8
ALL_ASSEMBLY_MEMBERS
100
AcDbSpline
 62
7
  6
CONTINUOUS
 70
0
 71
3
 72
40
 73
36
 74
0
 42
0.0000001
 43
0.0000001
 44
0.0000000001
 40
0.0
 40
0.0
 40
0.0
 40
0.0
 40
0.0291265396
 40
0.0604297047
 40
0.093737407
 40
0.1288705462
 40
0.2038340014
 40
0.2836886205
 40
0.3666958557
 40
0.4510481662
 40
0.5349085242
 40
0.6164505607
 40
0.6938986294
 40
0.73055589
 40
0.7655667979
 40
0.7987405019
 40
0.8298957864
 40
0.8588647186
 40
0.8854874959
 40
0.9096227808
 40
0.9311366353
 40
0.949916726
 40
0.958248907
 40
0.9658603418
 40
0.9727423915
 40
0.9788867896
 40
0.9842855996
 40
0.9889320728
 40
0.9928234638
 40
0.9944860047
 40
0.9959600853
 40
0.9972464245
 40
0.998346401
 40
0.9992625863
 40
1.0
 40
1.0
 40
1.0
 40
1.0
 10
4.8899899887
 20
0.8122883258
 30
0.0
 10
4.896233428
 20
0.8125797586
 30
0.0
 10
4.9091880968
 20
0.8131584257
 30
0.0
 10
4.92928577
 20
0.8139942673
 30
0.0
 10
4.950673415
 20
0.8148306752
 30
0.0
 10
4.9814252913
 20
0.8159710269
 30
0.0
 10
5.0221624211
 20
0.8173806973
 30
0.0
 10
5.0731701536
 20
0.8190405301
 30
0.0
 10
5.1261936054
 20
0.8207017236
 30
0.0
 10
5.1800770334
 20
0.8223635288
 30
0.0
 10
5.2336459065
 20
0.8240250934
 30
0.0
 10
5.2857325087
 20
0.8256857151
 30
0.0
 10
5.3276927665
 20
0.8270922978
 30
0.0
 10
5.359671292
 20
0.8282291805
 30
0.0
 10
5.3821536618
 20
0.8290658879
 30
0.0
 10
5.4034545265
 20
0.8299021855
 30
0.0
 10
5.4234578106
 20
0.8307380599
 30
0.0
 10
5.4420540638
 20
0.8315731865
 30
0.0
 10
5.4591422982
 20
0.8324076083
 30
0.0
 10
5.4746287628
 20
0.8332405975
 30
0.0
 10
5.4884296435
 20
0.8340722292
 30
0.0
 10
5.4988398804
 20
0.8347885004
 30
0.0
 10
5.506268574
 20
0.8353695351
 30
0.0
 10
5.5111489047
 20
0.8357874483
 30
0.0
 10
5.5155579311
 20
0.836204839
 30
0.0
 10
5.5194898635
 20
0.8366215904
 30
0.0
 10
5.522939201
 20
0.8370373249
 30
0.0
 10
5.5259011654
 20
0.8374519893
 30
0.0
 10
5.5280607193
 20
0.8378120144
 30
0.0
 10
5.5295400594
 20
0.8381059236
 30
0.0
 10
5.5304661541
 20
0.8383143171
 30
0.0
 10
5.5312682039
 20
0.8385222496
 30
0.0
 10
5.5319462411
 20
0.8387295998
 30
0.0
 10
5.5325002011
 20
0.838936148
 30
0.0
 10
5.5328214287
 20
0.839089241
 30
0.0
 10
5.5329584019
 20
0.8391684782
 30
0.0
  0
SPLINE
  5
33F
100
AcDbEntity
  8
ALL_ASSEMBLY_MEMBERS
100
AcDbSpline
 62
7
  6
CONTINUOUS
 70
0
 71
3
 72
47
 73
43
 74
0
 42
0.0000001
 43
0.0000001
 44
0.0000000001
 40
0.0
 40
0.0
 40
0.0
 40
0.0
 40
0.0001681367
 40
0.0003500016
 40
0.0005566062
 40
0.0007955457
 40
0.0010717429
 40
0.0013883721
 40
0.0021503152
 40
0.0030918366
 40
0.0042179304
 40
0.0055313686
 40
0.0070337831
 40
0.008726109
 40
0.0106085508
 40
0.012680939
 40
0.0149429409
 40
0.0200338645
 40
0.0258770115
 40
0.0324671986
 40
0.039796883
 40
0.0478558711
 40
0.0566336474
 40
0.0763023706
 40
0.0987017745
 40
0.1237128819
 40
0.1512069242
 40
0.1810358417
 40
0.2130451972
 40
0.2470632058
 40
0.2829117152
 40
0.3204001578
 40
0.3593300902
 40
0.4406843074
 40
0.5252532856
 40
0.6112474531
 40
0.6968469784
 40
0.7802405525
 40
0.859663824
 40
0.9334368662
 40
0.9677119578
 40
1.0
 40
1.0
 40
1.0
 40
1.0
 10
4.7978042295
 20
0.732631424
 30
0.0
 10
4.7978042138
 20
0.7326663014
 30
0.0
 10
4.7978154172
 20
0.7327392705
 30
0.0
 10
4.7978640869
 20
0.7328452115
 30
0.0
 10
4.7979431686
 20
0.7329495491
 30
0.0
 10
4.7980520881
 20
0.7330529545
 30
0.0
 10
4.7981908454
 20
0.7331560221
 30
0.0
 10
4.7984310615
 20
0.7333024299
 30
0.0
 10
4.7988113354
 20
0.7334808843
 30
0.0
 10
4.7993621167
 20
0.7336846939
 30
0.0
 10
4.8000333443
 20
0.7338891474
 30
0.0
 10
4.8008250872
 20
0.7340941773
 30
0.0
 10
4.801737529
 20
0.7342996017
 30
0.0
 10
4.8027705137
 20
0.7345053121
 30
0.0
 10
4.8039237502
 20
0.7347112496
 30
0.0
 10
4.8051968046
 20
0.7349173805
 30
0.0
 10
4.8071308957
 20
0.7352038203
 30
0.0
 10
4.809845475
 20
0.7355575248
 30
0.0
 10
4.8134574688
 20
0.7359680751
 30
0.0
 10
4.8175364296
 20
0.7363792397
 30
0.0
 10
4.8220770495
 20
0.7367909
 30
0.0
 10
4.827073094
 20
0.7372029981
 30
0.0
 10
4.8346240328
 20
0.7377748101
 30
0.0
 10
4.8451478044
 20
0.7384804617
 30
0.0
 10
4.8590382845
 20
0.7393006152
 30
0.0
 10
4.8745544437
 20
0.7401222664
 30
0.0
 10
4.891613631
 20
0.7409448939
 30
0.0
 10
4.9101259999
 20
0.7417684385
 30
0.0
 10
4.9299928847
 20
0.7425924454
 30
0.0
 10
4.9511094251
 20
0.743416993
 30
0.0
 10
4.9733633261
 20
0.7442418227
 30
0.0
 10
4.9966367862
 20
0.7450669556
 30
0.0
 10
5.0293452795
 20
0.7461838093
 30
0.0
 10
5.0718164784
 20
0.7475670717
 30
0.0
 10
5.1240472668
 20
0.7492050817
 30
0.0
 10
5.1771590869
 20
0.7508436084
 30
0.0
 10
5.2300269749
 20
0.7524820061
 30
0.0
 10
5.2815312002
 20
0.754119446
 30
0.0
 10
5.330580967
 20
0.7557551845
 30
0.0
 10
5.3694442285
 20
0.7571475501
 30
0.0
 10
5.3985330423
 20
0.758274757
 30
0.0
 10
5.4123289211
 20
0.7588420936
 30
0.0
 10
5.4190205104
 20
0.7591273852
 30
0.0
  0
LINE
  5
340
100
AcDbEntity
  8
ALL_ASSEMBLY_MEMBERS
100
AcDbLine
 62
7
  6
CONTINUOUS
 10
5.4612328225
 20
0.7610989287
 11
5.462014501
 21
0.7611396176
  0
SPLINE
  5
341
100
AcDbEntity
  8
ALL_ASSEMBLY_MEMBERS
100
AcDbSpline
 62
7
  6
CONTINUOUS
 70
0
 71
3
 72
23
 73
19
 74
0
 42
0.0000001
 43
0.0000001
 44
0.0000000001
 40
0.0
 40
0.0
 40
0.0
 40
0.0
 40
0.2106815787
 40
0.3984402745
 40
0.562308109
 40
0.6350221725
 40
0.7014536249
 40
0.7615214626
 40
0.8151634637
 40
0.8623208996
 40
0.9029398918
 40
0.9369821098
 40
0.9515378693
 40
0.9644545079
 40
0.9757396159
 40
0.9854065025
 40
0.993478737
 40
1.0
 40
1.0
 40
1.0
 40
1.0
 10
5.462014501
 20
0.7611396176
 30
0.0
 10
5.4670202595
 20
0.7614008169
 30
0.0
 10
5.4764859902
 20
0.7619174041
 30
0.0
 10
5.4898396682
 20
0.7627340117
 30
0.0
 10
5.4999113176
 20
0.7634375233
 30
0.0
 10
5.5070981004
 20
0.7640080502
 30
0.0
 10
5.5118200709
 20
0.7644184029
 30
0.0
 10
5.516086448
 20
0.7648283093
 30
0.0
 10
5.5198919778
 20
0.765237596
 30
0.0
 10
5.5232319295
 20
0.765645911
 30
0.0
 10
5.52610171
 20
0.7660530481
 30
0.0
 10
5.5281951888
 20
0.7664065832
 30
0.0
 10
5.5296301449
 20
0.7666951429
 30
0.0
 10
5.5305294021
 20
0.7668998125
 30
0.0
 10
5.5313090667
 20
0.7671040465
 30
0.0
 10
5.5319692477
 20
0.7673077335
 30
0.0
 10
5.5325099435
 20
0.7675106719
 30
0.0
 10
5.532824059
 20
0.7676608189
 30
0.0
 10
5.532958397
 20
0.7677384483
 30
0.0
  0
SPLINE
  5
342
100
AcDbEntity
  8
ALL_ASSEMBLY_MEMBERS
100
AcDbSpline
 62
7
  6
CONTINUOUS
 70
0
 71
3
 72
30
 73
26
 74
0
 42
0.0000001
 43
0.0000001
 44
0.0000000001
 40
0.0
 40
0.0
 40
0.0
 40
0.0
 40
0.001932012
 40
0.0043283355
 40
0.0072025048
 40
0.0105612054
 40
0.0144079695
 40
0.0187446091
 40
0.0288896702
 40
0.0409966623
 40
0.0550594053
 40
0.0710620861
 40
0.0889837372
 40
0.1088024878
 40
0.1304958713
 40
0.1793929583
 40
0.2354102522
 40
0.2982610161
 40
0.3676052017
 40
0.4430808313
 40
0.5242781092
 40
0.6107575135
 40
0.7020672347
 40
0.7977419444
 40
1.0
 40
1.0
 40
1.0
 40
1.0
 10
4.7983305426
 20
0.8582394279
 30
0.0
 10
4.7984660891
 20
0.8583178483
 30
0.0
 10
4.7987835413
 20
0.8584694668
 30
0.0
 10
4.7993306046
 20
0.858674193
 30
0.0
 10
4.799999535
 20
0.8588796664
 30
0.0
 10
4.8007902889
 20
0.8590857124
 30
0.0
 10
4.8017028818
 20
0.8592922082
 30
0.0
 10
4.8031597808
 20
0.8595833813
 30
0.0
 10
4.8052856363
 20
0.8599400916
 30
0.0
 10
4.8082004595
 20
0.8603510042
 30
0.0
 10
4.8115939529
 20
0.8607629722
 30
0.0
 10
4.8154616072
 20
0.8611759045
 30
0.0
 10
4.8197980894
 20
0.8615894763
 30
0.0
 10
4.8245976501
 20
0.8620035652
 30
0.0
 10
4.831903067
 20
0.8625793231
 30
0.0
 10
4.8421407591
 20
0.8632890281
 30
0.0
 10
4.8557138856
 20
0.8641130869
 30
0.0
 10
4.8709469568
 20
0.8649384833
 30
0.0
 10
4.8877591946
 20
0.8657652769
 30
0.0
 10
4.9060600918
 20
0.8665928071
 30
0.0
 10
4.9257511433
 20
0.8674210057
 30
0.0
 10
4.9467266486
 20
0.8682496671
 30
0.0
 10
4.9688764518
 20
0.8690787403
 30
0.0
 10
5.0004059411
 20
0.8702055807
 30
0.0
 10
5.0245408955
 20
0.8710181637
 30
0.0
 10
5.0409258535
 20
0.8715564398
 30
0.0
  0
SPLINE
  5
343
100
AcDbEntity
  8
ALL_ASSEMBLY_MEMBERS
100
AcDbSpline
 62
7
  6
CONTINUOUS
 70
0
 71
3
 72
23
 73
19
 74
0
 42
0.0000001
 43
0.0000001
 44
0.0000000001
 40
0.0
 40
0.0
 40
0.0
 40
0.0
 40
0.0054315713
 40
0.0124619617
 40
0.021138576
 40
0.0314852209
 40
0.0435149357
 40
0.0572352116
 40
0.0897620544
 40
0.1290808995
 40
0.1751764324
 40
0.2280203855
 40
0.2875807608
 40
0.3538233816
 40
0.4267127077
 40
0.592231811
 40
0.7835486321
 40
1.0
 40
1.0
 40
1.0
 40
1.0
 10
4.7626685833
 20
0.7661928877
 30
0.0
 10
4.7627327556
 20
0.7662299376
 30
0.0
 10
4.7628882528
 20
0.7663003016
 30
0.0
 10
4.7631612476
 20
0.7663936348
 30
0.0
 10
4.7635042743
 20
0.7664874996
 30
0.0
 10
4.7639173712
 20
0.7665817403
 30
0.0
 10
4.7644007317
 20
0.7666762406
 30
0.0
 10
4.7651844623
 20
0.766810169
 30
0.0
 10
4.7663404936
 20
0.7669736767
 30
0.0
 10
4.7679385761
 20
0.7671615126
 30
0.0
 10
4.7698154014
 20
0.7673498729
 30
0.0
 10
4.7719695077
 20
0.7675386691
 30
0.0
 10
4.7743993759
 20
0.7677277035
 30
0.0
 10
4.7771034319
 20
0.7679169223
 30
0.0
 10
4.7812512597
 20
0.7681806512
 30
0.0
 10
4.7871048547
 20
0.7685052351
 30
0.0
 10
4.7949168963
 20
0.7688810412
 30
0.0
 10
4.800474851
 20
0.7691173848
 30
0.0
 10
4.8034253585
 20
0.7692368012
 30
0.0
  0
SPLINE
  5
344
100
AcDbEntity
  8
ALL_ASSEMBLY_MEMBERS
100
AcDbSpline
 62
7
  6
CONTINUOUS
 70
0
 71
3
 72
36
 73
32
 74
0
 42
0.0000001
 43
0.0000001
 44
0.0000000001
 40
0.0
 40
0.0
 40
0.0
 40
0.0
 40
0.000763911
 40
0.0016612708
 40
0.0026956818
 40
0.0038694246
 40
0.0066401794
 40
0.0099810384
 40
0.0138952229
 40
0.018382696
 40
0.0234415905
 40
0.029069439
 40
0.0420202638
 40
0.0572089675
 40
0.0745956338
 40
0.0941330377
 40
0.1157726098
 40
0.1394558006
 40
0.1651165103
 40
0.192687986
 40
0.2220959168
 40
0.2532580506
 40
0.3205083726
 40
0.3937074489
 40
0.4720626598
 40
0.5547200078
 40
0.6407809208
 40
0.7293102087
 40
0.8193434618
 40
0.9099020541
 40
1.0
 40
1.0
 40
1.0
 40
1.0
 10
4.7983308162
 20
0.7868094258
 30
0.0
 10
4.7984243178
 20
0.7868634568
 30
0.0
 10
4.7986342185
 20
0.7869696134
 30
0.0
 10
4.7989860174
 20
0.7871165969
 30
0.0
 10
4.7993997853
 20
0.7872638402
 30
0.0
 10
4.8000722702
 20
0.7874720869
 30
0.0
 10
4.8010707642
 20
0.7877267938
 30
0.0
 10
4.8024577199
 20
0.7880195639
 30
0.0
 10
4.8040917418
 20
0.7883131485
 30
0.0
 10
4.8059718093
 20
0.788607459
 30
0.0
 10
4.808096644
 20
0.7889022857
 30
0.0
 10
4.8114126095
 20
0.789315462
 30
0.0
 10
4.8161593824
 20
0.789823238
 30
0.0
 10
4.82256855
 20
0.7904098948
 30
0.0
 10
4.829912092
 20
0.7909979735
 30
0.0
 10
4.8381700185
 20
0.7915872799
 30
0.0
 10
4.847320035
 20
0.7921772478
 30
0.0
 10
4.8573372643
 20
0.7927677711
 30
0.0
 10
4.8681943634
 20
0.7933587922
 30
0.0
 10
4.8798618334
 20
0.7939500969
 30
0.0
 10
4.8923079312
 20
0.7945416444
 30
0.0
 10
4.9103591249
 20
0.7953514289
 30
0.0
 10
4.9345983099
 20
0.7963546751
 30
0.0
 10
4.9655072519
 20
0.7975319331
 30
0.0
 10
4.9985956349
 20
0.7987102652
 30
0.0
 10
5.0335032809
 20
0.7998895068
 30
0.0
 10
5.0698499483
 20
0.8010693295
 30
0.0
 10
5.1072398286
 20
0.8022495189
 30
0.0
 10
5.1452658251
 20
0.8034299498
 30
0.0
 10
5.1835136784
 20
0.8046104378
 30
0.0
 10
5.2090399147
 20
0.805402276
 30
0.0
 10
5.221770389
 20
0.8058003837
 30
0.0
  0
LINE
  5
345
100
AcDbEntity
  8
ALL_ASSEMBLY_MEMBERS
100
AcDbLine
 62
7
  6
CONTINUOUS
 10
5.221770389
 20
0.8058003837
 11
5.2974753053
 21
0.808225997
  0
LINE
  5
346
100
AcDbEntity
  8
ALL_ASSEMBLY_MEMBERS
100
AcDbLine
 62
7
  6
CONTINUOUS
 10
5.2974753053
 20
0.808225997
 11
5.3383987575
 21
0.8096168682
  0
LINE
  5
347
100
AcDbEntity
  8
ALL_ASSEMBLY_MEMBERS
100
AcDbLine
 62
7
  6
CONTINUOUS
 10
5.3383987575
 20
0.8096168682
 11
5.3414304744
 21
0.8097232639
  0
LINE
  5
348
100
AcDbEntity
  8
ALL_ASSEMBLY_MEMBERS
100
AcDbLine
 62
7
  6
CONTINUOUS
 10
5.3414304744
 20
0.8097232639
 11
5.3424895286
 21
0.809760558
  0
LINE
  5
349
100
AcDbEntity
  8
ALL_ASSEMBLY_MEMBERS
100
AcDbLine
 62
7
  6
CONTINUOUS
 10
5.3424895286
 20
0.809760558
 11
5.358149744
 21
0.8103202999
  0
LINE
  5
34A
100
AcDbEntity
  8
ALL_ASSEMBLY_MEMBERS
100
AcDbLine
 62
7
  6
CONTINUOUS
 10
5.358736587
 20
0.8103415966
 11
5.365561789
 21
0.8105911403
  0
SPLINE
  5
34B
100
AcDbEntity
  8
ALL_ASSEMBLY_MEMBERS
100
AcDbSpline
 62
7
  6
CONTINUOUS
 70
0
 71
3
 72
29
 73
25
 74
0
 42
0.0000001
 43
0.0000001
 44
0.0000000001
 40
0.0
 40
0.0
 40
0.0
 40
0.0
 40
0.2248776608
 40
0.4237189004
 40
0.5128558491
 40
0.5948928913
 40
0.6696742687
 40
0.7370457046
 40
0.7968661172
 40
0.8490341493
 40
0.8722207078
 40
0.8934614414
 40
0.9127467193
 40
0.9300690281
 40
0.9454273484
 40
0.9588247806
 40
0.9702689153
 40
0.9752634101
 40
0.9797766472
 40
0.9838132906
 40
0.987380167
 40
0.9904875376
 40
0.9931513728
 40
1.0
 40
1.0
 40
1.0
 40
1.0
 10
5.4410802497
 20
0.8136793728
 30
0.0
 10
5.448055122
 20
0.8140045924
 30
0.0
 10
5.4611959809
 20
0.8146465693
 30
0.0
 10
5.4770962196
 20
0.8155223949
 30
0.0
 10
5.4885632878
 20
0.8162321794
 30
0.0
 10
5.4961830349
 20
0.8167445906
 30
0.0
 10
5.5031253421
 20
0.8172564416
 30
0.0
 10
5.5093758349
 20
0.8177675668
 30
0.0
 10
5.5149216277
 20
0.8182779571
 30
0.0
 10
5.5190959198
 20
0.8187176097
 30
0.0
 10
5.5220740361
 20
0.8190737207
 30
0.0
 10
5.5240356862
 20
0.8193300117
 30
0.0
 10
5.5258135979
 20
0.8195860501
 30
0.0
 10
5.5274068217
 20
0.8198418296
 30
0.0
 10
5.5288147058
 20
0.8200971854
 30
0.0
 10
5.5300367836
 20
0.820352033
 30
0.0
 10
5.5309368846
 20
0.8205725146
 30
0.0
 10
5.5315624081
 20
0.8207516368
 30
0.0
 10
5.5319630076
 20
0.8208796487
 30
0.0
 10
5.5323171325
 20
0.8210077432
 30
0.0
 10
5.5326237045
 20
0.8211350566
 30
0.0
 10
5.5328862102
 20
0.8212642404
 30
0.0
 10
5.5332143205
 20
0.8214581293
 30
0.0
 10
5.5334842835
 20
0.8217038083
 30
0.0
 10
5.5334840456
 20
0.821916458
 30
0.0
  0
SPLINE
  5
34C
100
AcDbEntity
  8
ALL_ASSEMBLY_MEMBERS
100
AcDbSpline
 62
7
  6
CONTINUOUS
 70
0
 71
3
 72
54
 73
50
 74
0
 42
0.0000001
 43
0.0000001
 44
0.0000000001
 40
0.0
 40
0.0
 40
0.0
 40
0.0
 40
0.0216445736
 40
0.0464210817
 40
0.0741426403
 40
0.1046168631
 40
0.1376396817
 40
0.1729786395
 40
0.2103890661
 40
0.2496095516
 40
0.3323832187
 40
0.4190013181
 40
0.5070585649
 40
0.5508624635
 40
0.5941095098
 40
0.6364993893
 40
0.6777367684
 40
0.7175356348
 40
0.7556183746
 40
0.7917214689
 40
0.8255926135
 40
0.8569983407
 40
0.8857186613
 40
0.9115569256
 40
0.9343318215
 40
0.944521795
 40
0.9538896268
 40
0.9624181184
 40
0.9700938361
 40
0.9769050159
 40
0.982840212
 40
0.9854760105
 40
0.987889492
 40
0.9900802024
 40
0.992047809
 40
0.993792163
 40
0.9953134091
 40
0.9966121888
 40
0.9971786358
 40
0.9976901764
 40
0.9981473424
 40
0.9985509553
 40
0.9989022193
 40
0.9990587984
 40
0.9992030605
 40
0.9994562394
 40
0.9996667922
 40
0.99984329
 40
1.0
 40
1.0
 40
1.0
 40
1.0
 10
4.8034253585
 20
0.7692368012
 30
0.0
 10
4.8089689238
 20
0.7695783855
 30
0.0
 10
4.82086207
 20
0.7702482559
 30
0.0
 10
4.8398642621
 20
0.7711870871
 30
0.0
 10
4.861134559
 20
0.7721275888
 30
0.0
 10
4.8845226792
 20
0.7730695286
 30
0.0
 10
4.9098668691
 20
0.7740123654
 30
0.0
 10
4.9369920244
 20
0.7749560598
 30
0.0
 10
4.9657084114
 20
0.7759002204
 30
0.0
 10
5.0065921262
 20
0.7771827829
 30
0.0
 10
5.0600994199
 20
0.7787664398
 30
0.0
 10
5.1261353226
 20
0.7806369856
 30
0.0
 10
5.1821761558
 20
0.7821989974
 30
0.0
 10
5.2270918333
 20
0.7834616726
 30
0.0
 10
5.2602933828
 20
0.7844069902
 30
0.0
 10
5.2928360874
 20
0.7853521501
 30
0.0
 10
5.3244935997
 20
0.7862971364
 30
0.0
 10
5.3550453861
 20
0.7872418155
 30
0.0
 10
5.3842790522
 20
0.7881861735
 30
0.0
 10
5.4119908302
 20
0.7891299851
 30
0.0
 10
5.4379882331
 20
0.7900732166
 30
0.0
 10
5.4620898936
 20
0.7910154783
 30
0.0
 10
5.4841286399
 20
0.7919565885
 30
0.0
 10
5.5039505373
 20
0.7928959554
 30
0.0
 10
5.5190181683
 20
0.7937037225
 30
0.0
 10
5.529861203
 20
0.7943582243
 30
0.0
 10
5.5370528145
 20
0.7948303203
 30
0.0
 10
5.5435977739
 20
0.7953020138
 30
0.0
 10
5.5494848738
 20
0.7957730821
 30
0.0
 10
5.5547042152
 20
0.7962433268
 30
0.0
 10
5.5586306763
 20
0.7966484461
 30
0.0
 10
5.5614302013
 20
0.7969766808
 30
0.0
 10
5.5632729798
 20
0.7972128557
 30
0.0
 10
5.5649427981
 20
0.7974488026
 30
0.0
 10
5.5664390741
 20
0.7976844782
 30
0.0
 10
5.5677612861
 20
0.7979197506
 30
0.0
 10
5.5689088915
 20
0.7981545409
 30
0.0
 10
5.5697540892
 20
0.7983577021
 30
0.0
 10
5.5703412936
 20
0.7985227558
 30
0.0
 10
5.5707172085
 20
0.7986407465
 30
0.0
 10
5.571049147
 20
0.7987586229
 30
0.0
 10
5.5713371456
 20
0.7988763837
 30
0.0
 10
5.5715480747
 20
0.7989779432
 30
0.0
 10
5.5716939757
 20
0.7990600078
 30
0.0
 10
5.5718143553
 20
0.7991356927
 30
0.0
 10
5.5719396792
 20
0.7992293993
 30
0.0
 10
5.5720545454
 20
0.7993482345
 30
0.0
 10
5.5721265047
 20
0.7994698483
 30
0.0
 10
5.5721436857
 20
0.7995558822
 30
0.0
 10
5.5721436963
 20
0.7995960945
 30
0.0
  0
SPLINE
  5
34D
100
AcDbEntity
  8
ALL_ASSEMBLY_MEMBERS
100
AcDbSpline
 62
7
  6
CONTINUOUS
 70
0
 71
3
 72
69
 73
65
 74
0
 42
0.0000001
 43
0.0000001
 44
0.0000000001
 40
0.0
 40
0.0
 40
0.0
 40
0.0
 40
0.0001725118
 40
0.0003735874
 40
0.000622042
 40
0.0009280246
 40
0.001296926
 40
0.0017317691
 40
0.0022343589
 40
0.0028058323
 40
0.0041580585
 40
0.0057921918
 40
0.0077099151
 40
0.0099114997
 40
0.0123962372
 40
0.0151631136
 40
0.0182109358
 40
0.0215383935
 40
0.0290263609
 40
0.0376110678
 40
0.0472720962
 40
0.0579885413
 40
0.0697366184
 40
0.0824878008
 40
0.0962130221
 40
0.1108817076
 40
0.1429071755
 40
0.1782681846
 40
0.2166334117
 40
0.257646421
 40
0.3009235569
 40
0.3460610806
 40
0.3926391598
 40
0.4402234116
 40
0.488370747
 40
0.5366309771
 40
0.5845535435
 40
0.6316906566
 40
0.6776031648
 40
0.7218634028
 40
0.7640579057
 40
0.8037947032
 40
0.8407025385
 40
0.8744375336
 40
0.8900161833
 40
0.9046867895
 40
0.9184140962
 40
0.9311676202
 40
0.942918111
 40
0.9536369743
 40
0.9633005682
 40
0.9718878622
 40
0.9793783075
 40
0.985755882
 40
0.9885239166
 40
0.9910098059
 40
0.9932125421
 40
0.9951314198
 40
0.996766694
 40
0.9981200434
 40
0.9986920699
 40
0.9991952049
 40
0.9996305822
 40
1.0
 40
1.0
 40
1.0
 40
1.0
 10
4.7591444099
 20
0.826381807
 30
0.0
 10
4.7591444099
 20
0.8264286137
 30
0.0
 10
4.7591686002
 20
0.826530609
 30
0.0
 10
4.7592665213
 20
0.8266710333
 30
0.0
 10
4.7594207389
 20
0.8268078147
 30
0.0
 10
4.759632027
 20
0.8269436258
 30
0.0
 10
4.7599011474
 20
0.8270794613
 30
0.0
 10
4.7602286877
 20
0.8272155092
 30
0.0
 10
4.7606148932
 20
0.8273518156
 30
0.0
 10
4.7612444354
 20
0.8275447952
 30
0.0
 10
4.7621810413
 20
0.8277807154
 30
0.0
 10
4.7634839425
 20
0.8280517979
 30
0.0
 10
4.7650213334
 20
0.8283236377
 30
0.0
 10
4.7667924374
 20
0.8285961242
 30
0.0
 10
4.7687962507
 20
0.8288690468
 30
0.0
 10
4.7710315051
 20
0.8291422914
 30
0.0
 10
4.773496912
 20
0.829415794
 30
0.0
 10
4.7772391407
 20
0.8297958455
 30
0.0
 10
4.7824821039
 20
0.8302649255
 30
0.0
 10
4.7894431085
 20
0.8308094701
 30
0.0
 10
4.797282368
 20
0.8313550281
 30
0.0
 10
4.8059817244
 20
0.8319013063
 30
0.0
 10
4.8155209824
 20
0.8324480296
 30
0.0
 10
4.8258777937
 20
0.8329952049
 30
0.0
 10
4.8370280403
 20
0.83354272
 30
0.0
 10
4.853404023
 20
0.8342951866
 30
0.0
 10
4.8756481704
 20
0.835226679
 30
0.0
 10
4.9043205236
 20
0.8363161844
 30
0.0
 10
4.9354329756
 20
0.8374070843
 30
0.0
 10
4.9686944529
 20
0.8384989362
 30
0.0
 10
5.0037943266
 20
0.8395914936
 30
0.0
 10
5.0404048191
 20
0.8406845551
 30
0.0
 10
5.0781844281
 20
0.8417779408
 30
0.0
 10
5.1167809971
 20
0.8428715869
 30
0.0
 10
5.1558341511
 20
0.8439653492
 30
0.0
 10
5.1949791325
 20
0.8450591537
 30
0.0
 10
5.2338499116
 20
0.8461528665
 30
0.0
 10
5.2720834473
 20
0.8472464023
 30
0.0
 10
5.3093228987
 20
0.8483396449
 30
0.0
 10
5.3452207194
 20
0.849432433
 30
0.0
 10
5.3794421298
 20
0.8505246683
 30
0.0
 10
5.411667619
 20
0.8516160075
 30
0.0
 10
5.4415964708
 20
0.852706278
 30
0.0
 10
5.4649720187
 20
0.8536363989
 30
0.0
 10
5.4823162765
 20
0.8543870341
 30
0.0
 10
5.494235623
 20
0.8549347296
 30
0.0
 10
5.5053875943
 20
0.8554822297
 30
0.0
 10
5.5157462643
 20
0.8560294107
 30
0.0
 10
5.5252874704
 20
0.856576145
 30
0.0
 10
5.5339888396
 20
0.8571224339
 30
0.0
 10
5.5418301464
 20
0.8576680452
 30
0.0
 10
5.5487932598
 20
0.8582124891
 30
0.0
 10
5.5548618108
 20
0.8587556307
 30
0.0
 10
5.5593513264
 20
0.8592258012
 30
0.0
 10
5.5624840252
 20
0.8596084629
 30
0.0
 10
5.5644887835
 20
0.8598814101
 30
0.0
 10
5.5662608364
 20
0.8601538949
 30
0.0
 10
5.567799177
 20
0.8604257365
 30
0.0
 10
5.5691030232
 20
0.8606968209
 30
0.0
 10
5.5700404206
 20
0.8609327386
 30
0.0
 10
5.570670589
 20
0.861125708
 30
0.0
 10
5.5710572791
 20
0.861262018
 30
0.0
 10
5.5713852397
 20
0.8613980583
 30
0.0
 10
5.5715805775
 20
0.8614964514
 30
0.0
 10
5.5716673814
 20
0.8615465668
 30
0.0
  0
SPLINE
  5
34E
100
AcDbEntity
  8
ALL_ASSEMBLY_MEMBERS
100
AcDbSpline
 62
7
  6
CONTINUOUS
 70
0
 71
3
 72
30
 73
26
 74
0
 42
0.0000001
 43
0.0000001
 44
0.0000000001
 40
0.0
 40
0.0
 40
0.0
 40
0.0
 40
0.2030801654
 40
0.299103497
 40
0.3907248991
 40
0.4774683557
 40
0.558872594
 40
0.6344874087
 40
0.7039086365
 40
0.7667622131
 40
0.8227147504
 40
0.8714649749
 40
0.8930568955
 40
0.912756822
 40
0.9305380716
 40
0.9463761292
 40
0.9602544509
 40
0.9721596971
 40
0.9820808382
 40
0.9862953994
 40
0.9900131891
 40
0.9932365742
 40
0.9959696185
 40
0.9982195285
 40
1.0
 40
1.0
 40
1.0
 40
1.0
 10
5.0278179278
 20
0.8492360784
 30
0.0
 10
5.009635076
 20
0.8486955479
 30
0.0
 10
4.9828553144
 20
0.847879601
 30
0.0
 10
4.9478744681
 20
0.8467477922
 30
0.0
 10
4.9233102696
 20
0.8459151864
 30
0.0
 10
4.9000563515
 20
0.8450829386
 30
0.0
 10
4.8782371718
 20
0.8442512453
 30
0.0
 10
4.8579708071
 20
0.8434201299
 30
0.0
 10
4.8393675819
 20
0.8425899557
 30
0.0
 10
4.8225274466
 20
0.8417610147
 30
0.0
 10
4.8075413253
 20
0.8409337131
 30
0.0
 10
4.7962507797
 20
0.8402207541
 30
0.0
 10
4.7882059971
 20
0.8396422044
 30
0.0
 10
4.7829308399
 20
0.8392264433
 30
0.0
 10
4.7781727852
 20
0.8388112459
 30
0.0
 10
4.773938346
 20
0.8383966434
 30
0.0
 10
4.7702329354
 20
0.8379830753
 30
0.0
 10
4.767061199
 20
0.8375707481
 30
0.0
 10
4.7647557972
 20
0.8372124657
 30
0.0
 10
4.7631835212
 20
0.8369194648
 30
0.0
 10
4.7622058486
 20
0.83671215
 30
0.0
 10
4.7613641471
 20
0.836505358
 30
0.0
 10
4.7606581431
 20
0.8362992688
 30
0.0
 10
4.7600877512
 20
0.8360941624
 30
0.0
 10
4.759759499
 20
0.8359410874
 30
0.0
 10
4.7596213831
 20
0.8358613401
 30
0.0
  0
SPLINE
  5
34F
100
AcDbEntity
  8
ALL_ASSEMBLY_MEMBERS
100
AcDbSpline
 62
7
  6
CONTINUOUS
 70
0
 71
3
 72
40
 73
36
 74
0
 42
0.0000001
 43
0.0000001
 44
0.0000000001
 40
0.0
 40
0.0
 40
0.0
 40
0.0
 40
0.0003690127
 40
0.0007913291
 40
0.0013037165
 40
0.001927117
 40
0.0026731078
 40
0.0035483516
 40
0.0045568981
 40
0.0057013341
 40
0.0084039453
 40
0.0116649393
 40
0.0154884659
 40
0.0198764154
 40
0.0248282618
 40
0.0303424077
 40
0.0364168421
 40
0.0430492831
 40
0.0579780905
 40
0.0751059454
 40
0.0943981756
 40
0.1158158757
 40
0.1393196313
 40
0.1648645257
 40
0.1923969491
 40
0.2218623722
 40
0.2863615745
 40
0.3578431969
 40
0.4357419175
 40
0.5194297292
 40
0.6082401382
 40
0.7014615614
 40
0.7983487898
 40
0.8981275318
 40
1.0
 40
1.0
 40
1.0
 40
1.0
 10
5.5721444099
 20
0.8710260641
 30
0.0
 10
5.5721444099
 20
0.8709828458
 30
0.0
 10
5.5721241606
 20
0.8708895746
 30
0.0
 10
5.5720406418
 20
0.8707592863
 30
0.0
 10
5.5719082043
 20
0.8706321907
 30
0.0
 10
5.5717267043
 20
0.8705061144
 30
0.0
 10
5.571495569
 20
0.8703801324
 30
0.0
 10
5.5712143317
 20
0.8702540199
 30
0.0
 10
5.5708827679
 20
0.8701277062
 30
0.0
 10
5.5703427358
 20
0.8699490327
 30
0.0
 10
5.5695389077
 20
0.8697304738
 30
0.0
 10
5.5684202998
 20
0.8694792948
 30
0.0
 10
5.5671002907
 20
0.8692273926
 30
0.0
 10
5.5655793245
 20
0.8689749342
 30
0.0
 10
5.5638580412
 20
0.8687220916
 30
0.0
 10
5.5619374023
 20
0.8684689576
 30
0.0
 10
5.5598184318
 20
0.8682155909
 30
0.0
 10
5.556600942
 20
0.8678635015
 30
0.0
 10
5.5520904404
 20
0.8674288429
 30
0.0
 10
5.5460976243
 20
0.8669244013
 30
0.0
 10
5.5393425371
 20
0.8664190506
 30
0.0
 10
5.5318389129
 20
0.8659129491
 30
0.0
 10
5.5236015093
 20
0.8654063971
 30
0.0
 10
5.5146467408
 20
0.8648995455
 30
0.0
 10
5.5049927377
 20
0.8643923531
 30
0.0
 10
5.4907802632
 20
0.8636945742
 30
0.0
 10
5.4714225808
 20
0.8628309815
 30
0.0
 10
5.4463936008
 20
0.8618213519
 30
0.0
 10
5.4191156514
 20
0.860810634
 30
0.0
 10
5.3898069337
 20
0.8597988675
 30
0.0
 10
5.358702662
 20
0.8587864866
 30
0.0
 10
5.3260517351
 20
0.8577735808
 30
0.0
 10
5.2921156319
 20
0.8567603075
 30
0.0
 10
5.2571659019
 20
0.8557467719
 30
0.0
 10
5.2335583073
 20
0.8550761008
 30
0.0
 10
5.2216318942
 20
0.8547393484
 30
0.0
  0
LINE
  5
350
100
AcDbEntity
  8
ALL_ASSEMBLY_MEMBERS
100
AcDbLine
 62
7
  6
CONTINUOUS
 10
5.1097121528
 20
0.8515993642
 11
5.090546101
 21
0.8510561955
  0
LINE
  5
351
100
AcDbEntity
  8
ALL_ASSEMBLY_MEMBERS
100
AcDbLine
 62
7
  6
CONTINUOUS
 10
5.0902316035
 20
0.8510472452
 11
5.0278179278
 21
0.8492360784
  0
SPLINE
  5
352
100
AcDbEntity
  8
ALL_ASSEMBLY_MEMBERS
100
AcDbSpline
 62
7
  6
CONTINUOUS
 70
0
 71
3
 72
69
 73
65
 74
0
 42
0.0000001
 43
0.0000001
 44
0.0000000001
 40
0.0
 40
0.0
 40
0.0
 40
0.0
 40
0.0001725118
 40
0.000373588
 40
0.0006220437
 40
0.0009280274
 40
0.0012969296
 40
0.0017317729
 40
0.0022343617
 40
0.0028058327
 40
0.0041580481
 40
0.0057921601
 40
0.0077098474
 40
0.0099113771
 40
0.0123960515
 40
0.0151628691
 40
0.0182106495
 40
0.0215380948
 40
0.0290261515
 40
0.037611012
 40
0.047272218
 40
0.0579888422
 40
0.0697371199
 40
0.0824884834
 40
0.0962138025
 40
0.1108825422
 40
0.1429079873
 40
0.1782686317
 40
0.2166330889
 40
0.2576448912
 40
0.3009208998
 40
0.3460577959
 40
0.3926361056
 40
0.4402208485
 40
0.488368511
 40
0.536629029
 40
0.5845518997
 40
0.6316893209
 40
0.6776018249
 40
0.7218620518
 40
0.7640572578
 40
0.8037951648
 40
0.8407038121
 40
0.8744392643
 40
0.8900179243
 40
0.9046885369
 40
0.918415784
 40
0.9311691087
 40
0.9429194027
 40
0.9536381021
 40
0.9633014122
 40
0.9718884205
 40
0.9793786837
 40
0.985756095
 40
0.9885240533
 40
0.9910098744
 40
0.9932125543
 40
0.9951313923
 40
0.996766652
 40
0.9981200065
 40
0.9986920404
 40
0.9991951848
 40
0.9996305722
 40
1.0
 40
1.0
 40
1.0
 40
1.0
 10
5.5721444099
 20
1.0138860941
 30
0.0
 10
5.5721444099
 20
1.0138392875
 30
0.0
 10
5.5721202192
 20
1.013737292
 30
0.0
 10
5.5720222971
 20
1.0135968678
 30
0.0
 10
5.5718680784
 20
1.0134600867
 30
0.0
 10
5.5716567892
 20
1.0133242757
 30
0.0
 10
5.5713876681
 20
1.0131884404
 30
0.0
 10
5.5710601277
 20
1.0130523927
 30
0.0
 10
5.570673923
 20
1.0129160866
 30
0.0
 10
5.5700443846
 20
1.012723108
 30
0.0
 10
5.569107788
 20
1.0124871894
 30
0.0
 10
5.5678049052
 20
1.0122161094
 30
0.0
 10
5.5662675446
 20
1.0119442732
 30
0.0
 10
5.5644964825
 20
1.0116717896
 30
0.0
 10
5.5624927172
 20
1.0113988705
 30
0.0
 10
5.5602575072
 20
1.0111256289
 30
0.0
 10
5.557792131
 20
1.0108521285
 30
0.0
 10
5.5540498929
 20
1.0104720764
 30
0.0
 10
5.5488068671
 20
1.0100029954
 30
0.0
 10
5.5418457491
 20
1.0094584414
 30
0.0
 10
5.5340063517
 20
1.0089128718
 30
0.0
 10
5.5253068448
 20
1.0083665817
 30
0.0
 10
5.515767435
 20
1.0078198523
 30
0.0
 10
5.5054104939
 20
1.007272674
 30
0.0
 10
5.4942601572
 20
1.0067251557
 30
0.0
 10
5.4778841398
 20
1.00597269
 30
0.0
 10
5.4556400832
 20
1.005041206
 30
0.0
 10
5.4269680445
 20
1.0039517129
 30
0.0
 10
5.3958562282
 20
1.002860837
 30
0.0
 10
5.3625955937
 20
1.0017690098
 30
0.0
 10
5.3274965241
 20
1.0006764773
 30
0.0
 10
5.2908864462
 20
0.9995834249
 30
0.0
 10
5.2531068126
 20
0.9984900377
 30
0.0
 10
5.2145099603
 20
0.9973963826
 30
0.0
 10
5.1754565074
 20
0.9963026116
 30
0.0
 10
5.1363112777
 20
0.995208801
 30
0.0
 10
5.0974402555
 20
0.9941150816
 30
0.0
 10
5.0592065558
 20
0.9930215422
 30
0.0
 10
5.0219670258
 20
0.9919282987
 30
0.0
 10
4.9860690195
 20
0.9908355073
 30
0.0
 10
4.9518471215
 20
0.9897432556
 30
0.0
 10
4.9196209214
 20
0.9886518953
 30
0.0
 10
4.8896914256
 20
0.9875615962
 30
0.0
 10
4.8663155314
 20
0.9866314622
 30
0.0
 10
4.848971146
 20
0.9858808128
 30
0.0
 10
4.8370518116
 20
0.9853331155
 30
0.0
 10
4.8258999091
 20
0.9847856166
 30
0.0
 10
4.8155413633
 20
0.9842384336
 30
0.0
 10
4.8060003096
 20
0.9836917017
 30
0.0
 10
4.797299115
 20
0.9831454246
 30
0.0
 10
4.7894580076
 20
0.982599818
 30
0.0
 10
4.7824950985
 20
0.9820553791
 30
0.0
 10
4.7764267182
 20
0.9815122527
 30
0.0
 10
4.7719373164
 20
0.9810420948
 30
0.0
 10
4.7688047007
 20
0.9806594416
 30
0.0
 10
4.7667999968
 20
0.9803864997
 30
0.0
 10
4.7650279884
 20
0.9801140187
 30
0.0
 10
4.7634896782
 20
0.9798421778
 30
0.0
 10
4.7621858457
 20
0.9795710933
 30
0.0
 10
4.761248449
 20
0.9793351753
 30
0.0
 10
4.7606182746
 20
0.9791422054
 30
0.0
 10
4.7602315771
 20
0.9790058944
 30
0.0
 10
4.7599036083
 20
0.9788698532
 30
0.0
 10
4.7597082645
 20
0.9787714596
 30
0.0
 10
4.7596214578
 20
0.9787213439
 30
0.0
  0
SPLINE
  5
353
100
AcDbEntity
  8
ALL_ASSEMBLY_MEMBERS
100
AcDbSpline
 62
7
  6
CONTINUOUS
 70
0
 71
3
 72
25
 73
21
 74
0
 42
0.0000001
 43
0.0000001
 44
0.0000000001
 40
0.0
 40
0.0
 40
0.0
 40
0.0
 40
0.2272357334
 40
0.425306355
 40
0.5133139336
 40
0.5939238868
 40
0.6671059953
 40
0.7328346646
 40
0.7910967224
 40
0.8419124518
 40
0.8853263758
 40
0.9214164014
 40
0.9367595695
 40
0.9503362105
 40
0.9621893845
 40
0.9723846778
 40
0.9810262933
 40
0.9882865843
 40
0.9944559015
 40
1.0
 40
1.0
 40
1.0
 40
1.0
 10
4.7789680058
 20
1.0442368012
 30
0.0
 10
4.7774293378
 20
1.0440973027
 30
0.0
 10
4.7745507672
 20
1.0438217072
 30
0.0
 10
4.7710813763
 20
1.0434410973
 30
0.0
 10
4.7686073595
 20
1.0431327288
 30
0.0
 10
4.7669783659
 20
1.0429108006
 30
0.0
 10
4.7655023459
 20
1.0426890812
 30
0.0
 10
4.7641800999
 20
1.0424676369
 30
0.0
 10
4.7630122317
 20
1.0422465206
 30
0.0
 10
4.7619989866
 20
1.0420259317
 30
0.0
 10
4.7611404687
 20
1.0418059634
 30
0.0
 10
4.760524109
 20
1.0416146198
 30
0.0
 10
4.7601105033
 20
1.0414583608
 30
0.0
 10
4.7598561838
 20
1.0413476883
 30
0.0
 10
4.759640445
 20
1.0412371184
 30
0.0
 10
4.759463105
 20
1.0411265471
 30
0.0
 10
4.7593238629
 20
1.0410157238
 30
0.0
 10
4.7592224414
 20
1.040903878
 30
0.0
 10
4.7591592485
 20
1.0407896422
 30
0.0
 10
4.7591443758
 20
1.0407095102
 30
0.0
 10
4.7591444052
 20
1.0406718158
 30
0.0
  0
SPLINE
  5
354
100
AcDbEntity
  8
ALL_ASSEMBLY_MEMBERS
100
AcDbSpline
 62
7
  6
CONTINUOUS
 70
0
 71
3
 72
46
 73
42
 74
0
 42
0.0000001
 43
0.0000001
 44
0.0000000001
 40
0.0
 40
0.0
 40
0.0
 40
0.0
 40
0.0001681527
 40
0.0003494844
 40
0.0005545944
 40
0.000790888
 40
0.0010632244
 40
0.001374769
 40
0.0021229171
 40
0.0030459262
 40
0.0041489167
 40
0.0054347673
 40
0.0069052009
 40
0.0085612241
 40
0.0104030943
 40
0.0124306993
 40
0.01464376
 40
0.0196245281
 40
0.0253414801
 40
0.0317898324
 40
0.0389627772
 40
0.0468508181
 40
0.0554440779
 40
0.0747058558
 40
0.0966545946
 40
0.1211781609
 40
0.148156919
 40
0.1774518813
 40
0.2089181078
 40
0.2423952559
 40
0.2777147944
 40
0.3146989818
 40
0.3531596011
 40
0.4337297836
 40
0.5177982359
 40
0.603667023
 40
0.6896012504
 40
0.7738671829
 40
0.8547577537
 40
0.9306518894
 40
1.0
 40
1.0
 40
1.0
 40
1.0
 10
4.7978045405
 20
1.0183514545
 30
0.0
 10
4.7978045737
 20
1.0183855116
 30
0.0
 10
4.7978153119
 20
1.0184566244
 30
0.0
 10
4.7978617636
 20
1.0185600566
 30
0.0
 10
4.7979372644
 20
1.0186620122
 30
0.0
 10
4.7980412604
 20
1.0187630789
 30
0.0
 10
4.798173731
 20
1.0188638102
 30
0.0
 10
4.7984028543
 20
1.0190067787
 30
0.0
 10
4.7987657079
 20
1.01918116
 30
0.0
 10
4.7992914379
 20
1.0193803484
 30
0.0
 10
4.7999321012
 20
1.019580148
 30
0.0
 10
4.8006878029
 20
1.019780494
 30
0.0
 10
4.8015587543
 20
1.0199812151
 30
0.0
 10
4.8025448325
 20
1.0201822042
 30
0.0
 10
4.8036457777
 20
1.0203834081
 30
0.0
 10
4.8048611912
 20
1.020584795
 30
0.0
 10
4.8067078367
 20
1.0208646358
 30
0.0
 10
4.8093000156
 20
1.0212101899
 30
0.0
 10
4.8127495983
 20
1.0216112713
 30
0.0
 10
4.8166457467
 20
1.0220129651
 30
0.0
 10
4.8209836385
 20
1.0224151412
 30
0.0
 10
4.8257575968
 20
1.0228177467
 30
0.0
 10
4.8329753446
 20
1.0233764561
 30
0.0
 10
4.8430390433
 20
1.0240659779
 30
0.0
 10
4.8563285869
 20
1.0248672405
 30
0.0
 10
4.8711835448
 20
1.0256700123
 30
0.0
 10
4.8875282822
 20
1.0264737137
 30
0.0
 10
4.9052806751
 20
1.0272783146
 30
0.0
 10
4.9243504591
 20
1.0280833918
 30
0.0
 10
4.9446414374
 20
1.0288889572
 30
0.0
 10
4.9660508238
 20
1.0296948521
 30
0.0
 10
4.9884702173
 20
1.030500996
 30
0.0
 10
5.0200501479
 20
1.0315931161
 30
0.0
 10
5.0611630275
 20
1.0329459278
 30
0.0
 10
5.1118747834
 20
1.034546771
 30
0.0
 10
5.1636734623
 20
1.0361482441
 30
0.0
 10
5.2155121557
 20
1.0377497523
 30
0.0
 10
5.2663421106
 20
1.0393506393
 30
0.0
 10
5.3151375925
 20
1.0409500826
 30
0.0
 10
5.3609100273
 20
1.0425472471
 30
0.0
 10
5.3903057381
 20
1.0436667481
 30
0.0
 10
5.4043397207
 20
1.0442368012
 30
0.0
  0
SPLINE
  5
355
100
AcDbEntity
  8
ALL_ASSEMBLY_MEMBERS
100
AcDbSpline
 62
7
  6
CONTINUOUS
 70
0
 71
3
 72
69
 73
65
 74
0
 42
0.0000001
 43
0.0000001
 44
0.0000000001
 40
0.0
 40
0.0
 40
0.0
 40
0.0
 40
0.000172512
 40
0.0003735886
 40
0.0006220451
 40
0.0009280301
 40
0.0012969339
 40
0.0017317792
 40
0.0022343702
 40
0.0028058437
 40
0.0041580649
 40
0.0057921835
 40
0.0077098789
 40
0.0099114216
 40
0.0123961104
 40
0.0151629394
 40
0.0182107235
 40
0.0215381606
 40
0.0290261528
 40
0.0376109086
 40
0.0472720045
 40
0.0579885421
 40
0.0697367259
 40
0.0824880046
 40
0.0962132888
 40
0.1108820156
 40
0.1429074857
 40
0.1782683263
 40
0.2166332281
 40
0.2576456928
 40
0.3009220884
 40
0.3460590954
 40
0.3926374149
 40
0.4402221341
 40
0.4883697759
 40
0.5366302682
 40
0.5845530947
 40
0.6316904302
 40
0.677602972
 40
0.7218631495
 40
0.7640578323
 40
0.8037950686
 40
0.8407033831
 40
0.8744386836
 40
0.8900173358
 40
0.9046879451
 40
0.9184152162
 40
0.9311686202
 40
0.9429190002
 40
0.953637776
 40
0.9633011969
 40
0.9718883145
 40
0.9793786482
 40
0.9857560939
 40
0.9885240612
 40
0.9910098884
 40
0.9932125734
 40
0.9951314162
 40
0.9967666748
 40
0.9981200233
 40
0.9986920532
 40
0.9991951931
 40
0.9996305762
 40
1.0
 40
1.0
 40
1.0
 40
1.0
 10
4.7591444099
 20
0.969241786
 30
0.0
 10
4.7591444099
 20
0.9692885927
 30
0.0
 10
4.7591686008
 20
0.9693905883
 30
0.0
 10
4.7592665235
 20
0.9695310126
 30
0.0
 10
4.759420743
 20
0.9696677939
 30
0.0
 10
4.7596320333
 20
0.969803605
 30
0.0
 10
4.7599011558
 20
0.9699394406
 30
0.0
 10
4.7602286977
 20
0.9700754886
 30
0.0
 10
4.7606149042
 20
0.970211795
 30
0.0
 10
4.7612444455
 20
0.9704047741
 30
0.0
 10
4.762181046
 20
0.9706406935
 30
0.0
 10
4.7634839343
 20
0.9709117746
 30
0.0
 10
4.7650213024
 20
0.9711836122
 30
0.0
 10
4.7667923741
 20
0.9714560964
 30
0.0
 10
4.76879615
 20
0.9717290161
 30
0.0
 10
4.771031368
 20
0.9720022578
 30
0.0
 10
4.7734967462
 20
0.972275758
 30
0.0
 10
4.7772389657
 20
0.9726558084
 30
0.0
 10
4.7824819434
 20
0.973124887
 30
0.0
 10
4.7894429859
 20
0.9736694367
 30
0.0
 10
4.7972823016
 20
0.9742150013
 30
0.0
 10
4.80598173
 20
0.9747612853
 30
0.0
 10
4.8155210679
 20
0.9753080125
 30
0.0
 10
4.8258779511
 20
0.9758551906
 30
0.0
 10
4.8370282519
 20
0.976402708
 30
0.0
 10
4.8534042632
 20
0.9771551751
 30
0.0
 10
4.8756483763
 20
0.9780866645
 30
0.0
 10
4.9043205957
 20
0.979176165
 30
0.0
 10
4.9354327657
 20
0.9802670543
 30
0.0
 10
4.9686938057
 20
0.9813588933
 30
0.0
 10
5.0037931902
 20
0.9824514365
 30
0.0
 10
5.0404034063
 20
0.9835444914
 30
0.0
 10
5.0781830665
 20
0.9846378791
 30
0.0
 10
5.1167799098
 20
0.9857315341
 30
0.0
 10
5.155833344
 20
0.9868253044
 30
0.0
 10
5.1949785495
 20
0.987919115
 30
0.0
 10
5.2338495299
 20
0.9890128336
 30
0.0
 10
5.2720832049
 20
0.9901063734
 30
0.0
 10
5.3093227088
 20
0.9911996173
 30
0.0
 10
5.3452205703
 20
0.9922924064
 30
0.0
 10
5.3794421315
 20
0.993384647
 30
0.0
 10
5.4116679178
 20
0.9944759959
 30
0.0
 10
5.4415971007
 20
0.9955662821
 30
0.0
 10
5.4649728616
 20
0.9964964111
 30
0.0
 10
5.4823172032
 20
0.9972470559
 30
0.0
 10
5.4942365412
 20
0.9977947526
 30
0.0
 10
5.505388471
 20
0.9983422524
 30
0.0
 10
5.5157470683
 20
0.9988894352
 30
0.0
 10
5.5252881877
 20
0.999436169
 30
0.0
 10
5.5339894563
 20
0.9999824516
 30
0.0
 10
5.5418306442
 20
1.0005280618
 30
0.0
 10
5.548793632
 20
1.0010725043
 30
0.0
 10
5.5548620704
 20
1.0016156352
 30
0.0
 10
5.5593515028
 20
1.0020857972
 30
0.0
 10
5.5624841318
 20
1.0024684527
 30
0.0
 10
5.5644888412
 20
1.0027413955
 30
0.0
 10
5.5662608539
 20
1.0030138771
 30
0.0
 10
5.5677991667
 20
1.003285717
 30
0.0
 10
5.5691029988
 20
1.0035568007
 30
0.0
 10
5.5700403926
 20
1.0037927181
 30
0.0
 10
5.5706705631
 20
1.0039856875
 30
0.0
 10
5.571057257
 20
1.004121998
 30
0.0
 10
5.5713852223
 20
1.0042580388
 30
0.0
 10
5.5715805636
 20
1.0043564323
 30
0.0
 10
5.5716673692
 20
1.0044065478
 30
0.0
  0
SPLINE
  5
356
100
AcDbEntity
  8
ALL_ASSEMBLY_MEMBERS
100
AcDbSpline
 62
7
  6
CONTINUOUS
 70
0
 71
3
 72
48
 73
44
 74
0
 42
0.0000001
 43
0.0000001
 44
0.0000000001
 40
0.0
 40
0.0
 40
0.0
 40
0.0
 40
0.0001684822
 40
0.0003516693
 40
0.000561256
 40
0.0008051745
 40
0.001088452
 40
0.0014142693
 40
0.0022008056
 40
0.0031749675
 40
0.0043414826
 40
0.0057028875
 40
0.0072606022
 40
0.0090154246
 40
0.0109677798
 40
0.0131178
 40
0.0154650689
 40
0.0207484577
 40
0.026811692
 40
0.033647719
 40
0.0412489337
 40
0.0496050198
 40
0.0587034422
 40
0.0790762959
 40
0.1022569906
 40
0.1281112959
 40
0.1564961322
 40
0.1872474152
 40
0.22019268
 40
0.2551428005
 40
0.2918997439
 40
0.3302538624
 40
0.3699863757
 40
0.4526754311
 40
0.538084433
 40
0.6242686455
 40
0.7092655777
 40
0.7911399184
 40
0.8680278145
 40
0.9040496641
 40
0.9381796025
 40
0.9702243951
 40
1.0
 40
1.0
 40
1.0
 40
1.0
 10
4.7978046355
 20
0.9469214233
 30
0.0
 10
4.797804595
 20
0.9469576231
 30
0.0
 10
4.7978166645
 20
0.9470335917
 30
0.0
 10
4.797869091
 20
0.9471435608
 30
0.0
 10
4.7979541787
 20
0.9472517334
 30
0.0
 10
4.7980713581
 20
0.94735891
 30
0.0
 10
4.7982206644
 20
0.9474657579
 30
0.0
 10
4.7984795019
 20
0.9476177461
 30
0.0
 10
4.7988889715
 20
0.9478028254
 30
0.0
 10
4.7994816822
 20
0.9480141787
 30
0.0
 10
4.8002039782
 20
0.9482262401
 30
0.0
 10
4.8010558227
 20
0.9484389293
 30
0.0
 10
4.8020373168
 20
0.9486520385
 30
0.0
 10
4.8031482923
 20
0.9488654677
 30
0.0
 10
4.8043885552
 20
0.9490791268
 30
0.0
 10
4.8057577668
 20
0.9492929587
 30
0.0
 10
4.8078381636
 20
0.9495901019
 30
0.0
 10
4.8107576523
 20
0.9499569754
 30
0.0
 10
4.81464118
 20
0.9503828164
 30
0.0
 10
4.8190252708
 20
0.950809376
 30
0.0
 10
4.8239040156
 20
0.9512364438
 30
0.0
 10
4.8292704998
 20
0.9516639147
 30
0.0
 10
4.8373764146
 20
0.9522569294
 30
0.0
 10
4.8486656237
 20
0.9529888662
 30
0.0
 10
4.863554307
 20
0.9538395546
 30
0.0
 10
4.8801668483
 20
0.9546918813
 30
0.0
 10
4.8984078684
 20
0.9555451974
 30
0.0
 10
4.918173926
 20
0.9563994474
 30
0.0
 10
4.939351789
 20
0.9572542077
 30
0.0
 10
4.9618209832
 20
0.9581094869
 30
0.0
 10
4.9854530998
 20
0.9589650837
 30
0.0
 10
5.010113386
 20
0.9598209701
 30
0.0
 10
5.0446380515
 20
0.9609778169
 30
0.0
 10
5.0892692717
 20
0.9624101745
 30
0.0
 10
5.1438776017
 20
0.9641083431
 30
0.0
 10
5.1989820254
 20
0.9658068086
 30
0.0
 10
5.2533266547
 20
0.9675047265
 30
0.0
 10
5.3056729339
 20
0.969201255
 30
0.0
 10
5.3474992112
 20
0.9706421476
 30
0.0
 10
5.3790704378
 20
0.9718082325
 30
0.0
 10
5.4010116118
 20
0.9726633559
 30
0.0
 10
5.4216096704
 20
0.9735178803
 30
0.0
 10
5.434879144
 20
0.9741099603
 30
0.0
 10
5.4412697324
 20
0.9744082057
 30
0.0
  0
SPLINE
  5
357
100
AcDbEntity
  8
ALL_ASSEMBLY_MEMBERS
100
AcDbSpline
 62
7
  6
CONTINUOUS
 70
0
 71
3
 72
24
 73
20
 74
0
 42
0.0000001
 43
0.0000001
 44
0.0000000001
 40
0.0
 40
0.0
 40
0.0
 40
0.0
 40
0.2110008994
 40
0.3995563545
 40
0.5643767041
 40
0.6375127272
 40
0.7043047601
 40
0.7646407834
 40
0.8184111329
 40
0.8655293588
 40
0.9059360561
 40
0.9236067464
 40
0.9395816601
 40
0.9538570159
 40
0.9664323755
 40
0.9773144964
 40
0.9865166289
 40
0.994062861
 40
1.0
 40
1.0
 40
1.0
 40
1.0
 10
5.4412697324
 20
0.9744082057
 30
0.0
 10
5.4477436362
 20
0.9747103395
 30
0.0
 10
5.4600016358
 20
0.9753076774
 30
0.0
 10
5.4773110777
 20
0.976250209
 30
0.0
 10
5.4903865597
 20
0.977061789
 30
0.0
 10
5.4997238341
 20
0.9777205589
 30
0.0
 10
5.5058567864
 20
0.9781942958
 30
0.0
 10
5.5113930254
 20
0.9786673994
 30
0.0
 10
5.5163226264
 20
0.9791397201
 30
0.0
 10
5.5206370113
 20
0.979611121
 30
0.0
 10
5.523842622
 20
0.9800185527
 30
0.0
 10
5.5260930144
 20
0.9803495736
 30
0.0
 10
5.5275458217
 20
0.9805863684
 30
0.0
 10
5.5288398926
 20
0.9808228287
 30
0.0
 10
5.52997473
 20
0.981058902
 30
0.0
 10
5.5309500395
 20
0.981294388
 30
0.0
 10
5.5317661099
 20
0.9815290297
 30
0.0
 10
5.5324229935
 20
0.9817625092
 30
0.0
 10
5.5328000412
 20
0.9819372117
 30
0.0
 10
5.5329579325
 20
0.9820284577
 30
0.0
  0
SPLINE
  5
358
100
AcDbEntity
  8
ALL_ASSEMBLY_MEMBERS
100
AcDbSpline
 62
7
  6
CONTINUOUS
 70
0
 71
3
 72
38
 73
34
 74
0
 42
0.0000001
 43
0.0000001
 44
0.0000000001
 40
0.0
 40
0.0
 40
0.0
 40
0.0
 40
0.0835732503
 40
0.1694832613
 40
0.256512235
 40
0.3435039279
 40
0.4292650352
 40
0.5126281197
 40
0.5924615586
 40
0.6676791187
 40
0.737258366
 40
0.7696357841
 40
0.8002541137
 40
0.8290113572
 40
0.8558101446
 40
0.8805573124
 40
0.9031723145
 40
0.9235773427
 40
0.9417030488
 40
0.9574922234
 40
0.9644932856
 40
0.9708904129
 40
0.9766795711
 40
0.9818571431
 40
0.9864198269
 40
0.9903648374
 40
0.9936905133
 40
0.995121609
 40
0.9963989177
 40
0.997523387
 40
0.9984965004
 40
0.9993206647
 40
1.0
 40
1.0
 40
1.0
 40
1.0
 10
5.0278179278
 20
0.9117368012
 30
0.0
 10
5.0429794972
 20
0.9121875166
 30
0.0
 10
5.0737271396
 20
0.9130821669
 30
0.0
 10
5.1202645927
 20
0.9144004102
 30
0.0
 10
5.1674227186
 20
0.9157189168
 30
0.0
 10
5.2145538103
 20
0.91703735
 30
0.0
 10
5.2610193007
 20
0.9183555437
 30
0.0
 10
5.3061850747
 20
0.9196731893
 30
0.0
 10
5.3494364181
 20
0.9209899178
 30
0.0
 10
5.3901848604
 20
0.9223054042
 30
0.0
 10
5.4223219489
 20
0.9234251954
 30
0.0
 10
5.4463668951
 20
0.9243292551
 30
0.0
 10
5.4630066299
 20
0.9249907525
 30
0.0
 10
5.4786330295
 20
0.9256519101
 30
0.0
 10
5.4931928367
 20
0.9263126302
 30
0.0
 10
5.5066366359
 20
0.9269729421
 30
0.0
 10
5.5189185103
 20
0.92763252
 30
0.0
 10
5.5299967786
 20
0.9282911502
 30
0.0
 10
5.5398338052
 20
0.9289487289
 30
0.0
 10
5.5472384635
 20
0.9295152491
 30
0.0
 10
5.5525159717
 20
0.9299745445
 30
0.0
 10
5.5559827604
 20
0.930304824
 30
0.0
 10
5.5591169917
 20
0.9306347317
 30
0.0
 10
5.5619162912
 20
0.9309641949
 30
0.0
 10
5.5643784076
 20
0.9312929793
 30
0.0
 10
5.5665011006
 20
0.9316209359
 30
0.0
 10
5.5680549806
 20
0.9319054538
 30
0.0
 10
5.5691254102
 20
0.9321373432
 30
0.0
 10
5.5698013425
 20
0.932302234
 30
0.0
 10
5.5703914783
 20
0.9324668307
 30
0.0
 10
5.5708959449
 20
0.9326310727
 30
0.0
 10
5.5713148167
 20
0.9327948379
 30
0.0
 10
5.5715605507
 20
0.9329148915
 30
0.0
 10
5.5716673318
 20
0.9329765354
 30
0.0
  0
SPLINE
  5
359
100
AcDbEntity
  8
ALL_ASSEMBLY_MEMBERS
100
AcDbSpline
 62
7
  6
CONTINUOUS
 70
0
 71
3
 72
9
 73
5
 74
0
 42
0.0000001
 43
0.0000001
 44
0.0000000001
 40
0.0
 40
0.0
 40
0.0
 40
0.0
 40
0.5076360752
 40
1.0
 40
1.0
 40
1.0
 40
1.0
 10
5.3987049212
 20
6.6872424111
 30
0.0
 10
5.4009083895
 20
6.6813564514
 30
0.0
 10
5.4049256901
 20
6.66963721
 30
0.0
 10
5.4081984154
 20
6.6576859734
 30
0.0
 10
5.4095988946
 20
6.6517532242
 30
0.0
  0
ENDSEC
  0
SECTION
  2
OBJECTS
  0
DICTIONARY
  5
C
100
AcDbDictionary
280
0
281
1
  3
ACAD_GROUP
350
D
  3
ACAD_MLINESTYLE
350
17
  3
ACAD_LAYOUT
350
1A
  3
ACAD_PLOTSETTINGS
350
19
  3
ACAD_PLOTSTYLENAME
350
E
  0
DICTIONARY
  5
D
102
{ACAD_REACTORS
330
C
102
}
100
AcDbDictionary
280
0
281
1
  0
ACDBDICTIONARYWDFLT
  5
E
102
{ACAD_REACTORS
330
C
102
}
100
AcDbDictionary
281
1
  3
Normal
350
F
100
AcDbDictionaryWithDefault
340
F
  0
DICTIONARY
  5
17
102
{ACAD_REACTORS
330
C
102
}
100
AcDbDictionary
280
0
281
1
  3
Standard
350
18
  0
DICTIONARY
  5
19
102
{ACAD_REACTORS
330
C
102
}
100
AcDbDictionary
281
1
  0
DICTIONARY
  5
1A
102
{ACAD_REACTORS
330
C
102
}
100
AcDbDictionary
281
1
  3
Model
350
35A
  3
Layout1
350
35B
  0
ACDBPLACEHOLDER
  5
F
102
{ACAD_REACTORS
330
E
102
}
  0
MLINESTYLE
  5
18
102
{ACAD_REACTORS
330
17
102
}
100
AcDbMlineStyle
  2
STANDARD
 70
0
  3

 62
256
 51
90.0
 52
90.0
 71
2
 49
0.5
 62
256
  6
BYLAYER
 49
-0.5
 62
256
  6
BYLAYER
  0
LAYOUT
  5
35A
102
{ACAD_REACTORS
330
1A
102
}
100
AcDbPlotSettings
  1

  2
none_device
  4
ANSI_A_(11.00_x_8.50_Inches)
  6

 40
0.0
 41
0.0
 42
0.0
 43
0.0
 44
279.4
 45
215.9
 46
0.0
 47
0.0
 48
0.0
 49
0.0
140
0.0
141
0.0
142
1.0
143
1.0
 70
1024
 72
0
 73
0
 74
0
  7

 75
0
147
1.0
148
0.0
149
0.0
100
AcDbLayout
  1
Model
 70
0
 71
0
 10
0.0
 20
0.0
 11
11.0
 21
8.5
 12
0.0
 22
0.0
 32
0.0
 14
0.0
 24
0.0
 34
0.0
 15
0.0
 25
0.0
 35
0.0
146
0.0
 13
0.0
 23
0.0
 33
0.0
 16
1.0
 26
0.0
 36
0.0
 17
0.0
 27
1.0
 37
0.0
 76
0
330
221
345
0
346
0
  0
LAYOUT
  5
35B
102
{ACAD_REACTORS
330
1A
102
}
100
AcDbPlotSettings
  1

  2
none_device
  4
ANSI_A_(11.00_x_8.50_Inches)
  6

 40
0.0
 41
0.0
 42
0.0
 43
0.0
 44
279.4
 45
215.9
 46
0.0
 47
0.0
 48
0.0
 49
0.0
140
0.0
141
0.0
142
1.0
143
1.0
 70
0
 72
0
 73
0
 74
0
  7

 75
0
147
1.0
148
0.0
149
0.0
100
AcDbLayout
  1
Layout1
 70
0
 71
1
 10
0.0
 20
0.0
 11
11.0
 21
8.5
 12
0.0
 22
0.0
 32
0.0
 14
0.0
 24
0.0
 34
0.0
 15
0.0
 25
0.0
 35
0.0
146
0.0
 13
0.0
 23
0.0
 33
0.0
 16
1.0
 26
0.0
 36
0.0
 17
0.0
 27
1.0
 37
0.0
 76
0
330
222
345
0
346
0
  0
ENDSEC
  0
EOF
