999
DXF file: 281_TOP.dxf
999
Pro/ENGINEER 2018400 by Parametric Technology Corporation
  0
SECTION
  2
HEADER
  9
$ACADVER
  1
AC1027
  9
$DWGCODEPAGE
  3
ANSI_1252
  9
$EXTMAX
 10
11.0
 20
8.5
 30
0.0
  9
$EXTMIN
 10
0.0
 20
0.0
 30
0.0
  9
$LIMMIN
 10
0.0
 20
0.0
  9
$LIMMAX
 10
11.0
 20
8.5
  9
$VIEWCTR
 10
5.5
 20
4.25
  9
$VIEWSIZE
 40
8.5
  9
$CLAYER
  8
0
  9
$LTSCALE
 40
0.605
  9
$CELTYPE
  6
BYLAYER
  9
$DIMSCALE
 40
1.0
  9
$DIMASZ
 40
0.1
  9
$DIMEXO
 40
0.0625
  9
$DIMDLI
 40
0.418
  9
$DIMEXE
 40
0.125
  9
$DIMCEN
 40
0.099
  9
$DIMLFAC
 40
1.0
  9
$DIMBLK
  1
_FILLED
  9
$DIMALT
 70
1
  9
$DIMALTD
 70
2
  9
$DIMALTTD
 70
2
  9
$DIMALTF
 40
25.4
  9
$DIMTXT
 40
0.08
  9
$DIMTOL
 70
1
  9
$DIMLIM
 70
0
  9
$DIMTFAC
 40
1.0
  9
$DIMTP
 40
0.001
  9
$DIMTM
 40
0.001
  9
$DIMGAP
 40
0.09
  9
$DIMDSEP
 70
46
  9
$AUNITS
 70
0
  9
$PDMODE
 70
3
  9
$PDSIZE
 40
0.3125
  9
$HANDSEED
  5
304
  9
$TILEMODE
 70
1
  9
$MEASUREMENT
 70
0
  9
$INSUNITS
 70
1
  0
ENDSEC
  0
SECTION
  2
CLASSES
  0
CLASS
  1
ACDBDICTIONARYWDFLT
  2
AcDbDictionaryWithDefault
  3
AutoCAD 2000
 90
0
 91
1
280
0
281
0
  0
CLASS
  1
ACDBPLACEHOLDER
  2
AcDbPlaceHolder
  3
AutoCAD 2000
 90
0
 91
1
280
0
281
0
  0
CLASS
  1
LAYOUT
  2
AcDbLayout
  3
AutoCAD 2000
 90
0
 91
0
280
0
281
0
  0
ENDSEC
  0
SECTION
  2
TABLES
  0
TABLE
  2
VPORT
  5
8
100
AcDbSymbolTable
 70
2
  0
VPORT
  5
1F4
100
AcDbSymbolTableRecord
100
AcDbViewportTableRecord
  2
*ACTIVE
 70
0
 10
0.0
 20
0.0
 11
1.0
 21
1.0
 12
5.5
 22
4.25
 13
0.0
 23
0.0
 14
1.0
 24
1.0
 15
0.0
 25
0.0
 16
0.0
 26
0.0
 36
1.0
 17
0.0
 27
0.0
 37
0.0
 40
8.5
 41
1.2941176471
 42
50.0
 43
0.0
 44
0.0
 50
0.0
 51
0.0
 71
0
 72
100
 73
1
 74
1
 75
0
 76
0
 77
0
 78
0
  0
ENDTAB
  0
TABLE
  2
LTYPE
  5
5
100
AcDbSymbolTable
 70
6
  0
LTYPE
  5
14
100
AcDbSymbolTableRecord
100
AcDbLinetypeTableRecord
  2
BYBLOCK
 70
0
  3

 72
65
 73
0
 40
0.0
  0
LTYPE
  5
15
100
AcDbSymbolTableRecord
100
AcDbLinetypeTableRecord
  2
BYLAYER
 70
0
  3

 72
65
 73
0
 40
0.0
  0
LTYPE
  5
16
100
AcDbSymbolTableRecord
100
AcDbLinetypeTableRecord
  2
CONTINUOUS
 70
64
  3
Solid line
 72
65
 73
0
 40
0.0
  0
LTYPE
  5
1F5
100
AcDbSymbolTableRecord
100
AcDbLinetypeTableRecord
  2
CENTER
 70
64
  3
____ _ ____ _ ____ _ ____ _ ____ _ ____ _ ____
 72
65
 73
4
 40
0.6
 49
0.375
 74
0
 49
-0.075
 74
0
 49
0.075
 74
0
 49
-0.075
 74
0
  0
LTYPE
  5
1F6
100
AcDbSymbolTableRecord
100
AcDbLinetypeTableRecord
  2
HIDDEN
 70
64
  3
- - - - - - - - - - - - - - - - - - - -
 72
65
 73
2
 40
0.2
 49
0.1
 74
0
 49
-0.1
 74
0
  0
LTYPE
  5
1F7
100
AcDbSymbolTableRecord
100
AcDbLinetypeTableRecord
  2
PHANTOM
 70
64
  3
_____ _ _ _____ _ _ _____ _ _ _____
 72
65
 73
6
 40
0.8
 49
0.45
 74
0
 49
-0.05
 74
0
 49
0.1
 74
0
 49
-0.05
 74
0
 49
0.1
 74
0
 49
-0.05
 74
0
  0
LTYPE
  5
1F8
100
AcDbSymbolTableRecord
100
AcDbLinetypeTableRecord
  2
DOT
 70
64
  3
. . . . . . . . . . . . . . . . . . . .
 72
65
 73
2
 40
0.2
 49
0.1
 74
0
 49
-0.1
 74
0
  0
LTYPE
  5
1F9
100
AcDbSymbolTableRecord
100
AcDbLinetypeTableRecord
  2
DASHED
 70
64
  3
- - - - - - - - - - - - - - - - - - - -
 72
65
 73
2
 40
0.2
 49
0.1
 74
0
 49
-0.1
 74
0
  0
ENDTAB
  0
TABLE
  2
LAYER
  5
2
100
AcDbSymbolTable
 70
36
  0
LAYER
  5
10
100
AcDbSymbolTableRecord
100
AcDbLayerTableRecord
  2
0
 70
0
 62
7
  6
CONTINUOUS
370
-3
390
F
  0
LAYER
  5
1FA
100
AcDbSymbolTableRecord
100
AcDbLayerTableRecord
  2
DEFAULT_1
 70
0
 62
7
  6
CENTER
370
-3
390
F
  0
LAYER
  5
1FB
100
AcDbSymbolTableRecord
100
AcDbLayerTableRecord
  2
DEFAULT_2
 70
0
 62
8
  6
HIDDEN
370
-3
390
F
  0
LAYER
  5
1FC
100
AcDbSymbolTableRecord
100
AcDbLayerTableRecord
  2
DEFAULT_3
 70
0
 62
7
  6
PHANTOM
370
-3
390
F
  0
LAYER
  5
1FD
100
AcDbSymbolTableRecord
100
AcDbLayerTableRecord
  2
281_ASSY_DATUMS
 70
0
 62
7
  6
CONTINUOUS
370
-3
390
F
  0
LAYER
  5
1FE
100
AcDbSymbolTableRecord
100
AcDbLayerTableRecord
  2
ALL_ASSEMBLY_MEMBERS
 70
0
 62
7
  6
CONTINUOUS
370
-3
390
F
  0
LAYER
  5
1FF
100
AcDbSymbolTableRecord
100
AcDbLayerTableRecord
  2
ALL_FEATURES
 70
0
 62
7
  6
CONTINUOUS
370
-3
390
F
  0
LAYER
  5
200
100
AcDbSymbolTableRecord
100
AcDbLayerTableRecord
  2
ALL_PLANES
 70
0
 62
7
  6
CONTINUOUS
370
-3
390
F
  0
LAYER
  5
201
100
AcDbSymbolTableRecord
100
AcDbLayerTableRecord
  2
AXES_FEATURES
 70
0
 62
7
  6
CONTINUOUS
370
-3
390
F
  0
LAYER
  5
202
100
AcDbSymbolTableRecord
100
AcDbLayerTableRecord
  2
CHAMFER_FEATURES
 70
0
 62
7
  6
CONTINUOUS
370
-3
390
F
  0
LAYER
  5
203
100
AcDbSymbolTableRecord
100
AcDbLayerTableRecord
  2
COLOR92
 70
0
 62
7
  6
CONTINUOUS
370
-3
390
F
  0
LAYER
  5
204
100
AcDbSymbolTableRecord
100
AcDbLayerTableRecord
  2
COSMETIC
 70
0
 62
7
  6
CONTINUOUS
370
-3
390
F
  0
LAYER
  5
205
100
AcDbSymbolTableRecord
100
AcDbLayerTableRecord
  2
CSA_LOGO
 70
0
 62
7
  6
CONTINUOUS
370
-3
390
F
  0
LAYER
  5
206
100
AcDbSymbolTableRecord
100
AcDbLayerTableRecord
  2
CURVES
 70
0
 62
7
  6
CONTINUOUS
370
-3
390
F
  0
LAYER
  5
207
100
AcDbSymbolTableRecord
100
AcDbLayerTableRecord
  2
CUT_FEATURES
 70
0
 62
7
  6
CONTINUOUS
370
-3
390
F
  0
LAYER
  5
208
100
AcDbSymbolTableRecord
100
AcDbLayerTableRecord
  2
DATUM_CURVES
 70
0
 62
7
  6
CONTINUOUS
370
-3
390
F
  0
LAYER
  5
209
100
AcDbSymbolTableRecord
100
AcDbLayerTableRecord
  2
DATUM_PLANES
 70
0
 62
7
  6
CONTINUOUS
370
-3
390
F
  0
LAYER
  5
20A
100
AcDbSymbolTableRecord
100
AcDbLayerTableRecord
  2
DEFAULT_COORDINATE_SYSTEM
 70
0
 62
7
  6
CONTINUOUS
370
-3
390
F
  0
LAYER
  5
20B
100
AcDbSymbolTableRecord
100
AcDbLayerTableRecord
  2
DEFAULT_DATUM_AXES
 70
0
 62
7
  6
CONTINUOUS
370
-3
390
F
  0
LAYER
  5
20C
100
AcDbSymbolTableRecord
100
AcDbLayerTableRecord
  2
DEFAULT_DATUM_CURVES
 70
0
 62
7
  6
CONTINUOUS
370
-3
390
F
  0
LAYER
  5
20D
100
AcDbSymbolTableRecord
100
AcDbLayerTableRecord
  2
DEFAULT_DATUM_PLANES
 70
0
 62
7
  6
CONTINUOUS
370
-3
390
F
  0
LAYER
  5
20E
100
AcDbSymbolTableRecord
100
AcDbLayerTableRecord
  2
DEFAULT_SURFACES
 70
0
 62
7
  6
CONTINUOUS
370
-3
390
F
  0
LAYER
  5
20F
100
AcDbSymbolTableRecord
100
AcDbLayerTableRecord
  2
DELTA_LOGO_CURVE
 70
0
 62
7
  6
CONTINUOUS
370
-3
390
F
  0
LAYER
  5
210
100
AcDbSymbolTableRecord
100
AcDbLayerTableRecord
  2
DIMENSIONS
 70
0
 62
7
  6
CONTINUOUS
370
-3
390
F
  0
LAYER
  5
211
100
AcDbSymbolTableRecord
100
AcDbLayerTableRecord
  2
DTM_PLANES
 70
0
 62
7
  6
CONTINUOUS
370
-3
390
F
  0
LAYER
  5
212
100
AcDbSymbolTableRecord
100
AcDbLayerTableRecord
  2
EXT_SURFACE
 70
0
 62
7
  6
CONTINUOUS
370
-3
390
F
  0
LAYER
  5
213
100
AcDbSymbolTableRecord
100
AcDbLayerTableRecord
  2
GTOL_DTMS
 70
0
 62
7
  6
CONTINUOUS
370
-3
390
F
  0
LAYER
  5
214
100
AcDbSymbolTableRecord
100
AcDbLayerTableRecord
  2
IMPORT
 70
0
 62
7
  6
CONTINUOUS
370
-3
390
F
  0
LAYER
  5
215
100
AcDbSymbolTableRecord
100
AcDbLayerTableRecord
  2
LOGO_CURVES
 70
0
 62
7
  6
CONTINUOUS
370
-3
390
F
  0
LAYER
  5
216
100
AcDbSymbolTableRecord
100
AcDbLayerTableRecord
  2
PLATED_SURFACE_AREA
 70
0
 62
7
  6
CONTINUOUS
370
-3
390
F
  0
LAYER
  5
217
100
AcDbSymbolTableRecord
100
AcDbLayerTableRecord
  2
PROTRUSION_FEATURES
 70
0
 62
7
  6
CONTINUOUS
370
-3
390
F
  0
LAYER
  5
218
100
AcDbSymbolTableRecord
100
AcDbLayerTableRecord
  2
SHELL_FEATURES
 70
0
 62
7
  6
CONTINUOUS
370
-3
390
F
  0
LAYER
  5
219
100
AcDbSymbolTableRecord
100
AcDbLayerTableRecord
  2
SIZE_REF
 70
0
 62
7
  6
CONTINUOUS
370
-3
390
F
  0
LAYER
  5
21A
100
AcDbSymbolTableRecord
100
AcDbLayerTableRecord
  2
START_DTMS
 70
0
 62
7
  6
CONTINUOUS
370
-3
390
F
  0
LAYER
  5
21B
100
AcDbSymbolTableRecord
100
AcDbLayerTableRecord
  2
SURFS
 70
0
 62
7
  6
CONTINUOUS
370
-3
390
F
  0
LAYER
  5
21C
100
AcDbSymbolTableRecord
100
AcDbLayerTableRecord
  2
WETTED_SURFACE
 70
0
 62
7
  6
CONTINUOUS
370
-3
390
F
  0
LAYER
  5
21D
100
AcDbSymbolTableRecord
100
AcDbLayerTableRecord
  2
WETTED_SURFACE_AREA
 70
0
 62
7
  6
CONTINUOUS
370
-3
390
F
  0
LAYER
  5
21E
100
AcDbSymbolTableRecord
100
AcDbLayerTableRecord
  2
XSEC_DATUMS
 70
0
 62
7
  6
CONTINUOUS
370
-3
390
F
  0
ENDTAB
  0
TABLE
  2
STYLE
  5
3
100
AcDbSymbolTable
 70
1
  0
STYLE
  5
11
100
AcDbSymbolTableRecord
100
AcDbTextStyleTableRecord
  2
STANDARD
 70
0
 40
0.0
 41
0.8
 50
0.0
 71
0
 42
0.2
  3
txt
  4

  0
STYLE
  5
21F
100
AcDbSymbolTableRecord
100
AcDbTextStyleTableRecord
  2
TEXTSTYLE_1
 70
0
 40
0.0
 41
0.8
 50
0.0
 71
0
 42
0.2
  3
gdt
  4

  0
ENDTAB
  0
TABLE
  2
VIEW
  5
6
100
AcDbSymbolTable
 70
0
  0
ENDTAB
  0
TABLE
  2
UCS
  5
7
100
AcDbSymbolTable
 70
0
  0
ENDTAB
  0
TABLE
  2
APPID
  5
9
100
AcDbSymbolTable
 70
1
  0
APPID
  5
220
100
AcDbSymbolTableRecord
100
AcDbRegAppTableRecord
  2
ACAD
 70
0
  0
ENDTAB
  0
TABLE
  2
BLOCK_RECORD
  5
1
100
AcDbSymbolTable
 70
0
  0
BLOCK_RECORD
  5
221
100
AcDbSymbolTableRecord
100
AcDbBlockTableRecord
  2
*Model_Space
  0
BLOCK_RECORD
  5
222
100
AcDbSymbolTableRecord
100
AcDbBlockTableRecord
  2
*Paper_Space
  0
BLOCK_RECORD
  5
223
100
AcDbSymbolTableRecord
100
AcDbBlockTableRecord
  2
_FILLED
  0
ENDTAB
  0
TABLE
  2
DIMSTYLE
  5
A
100
AcDbSymbolTable
 70
1
100
AcDbDimStyleTable
 71
0
  0
DIMSTYLE
105
224
100
AcDbSymbolTableRecord
100
AcDbDimStyleTableRecord
  2
STANDARD
 70
0
  3

  4

 40
1.0
 41
0.1
 42
0.0625
 43
0.38
 44
0.125
 45
0.0
 46
0.0
 47
0.001
 48
0.001
140
0.08
141
0.09
142
0.0
143
25.4
144
1.0
145
0.0
146
1.0
147
0.09
 71
1.0
 72
0.0
 73
1
 74
1
 75
0
 76
0
 77
0
 78
4
 79
1
170
1
171
2
172
0
173
0
174
0
175
0
176
0
177
0
178
0
270
2
179
3
271
3
272
3
273
2
274
2
275
0
280
0
281
0
282
0
283
1
284
4
285
0
286
0
287
3
288
0
340
11
278
46
341
223
342
223
343
223
344
223
  0
ENDTAB
  0
ENDSEC
  0
SECTION
  2
BLOCKS
  0
BLOCK
  5
20
100
AcDbEntity
  8
0
100
AcDbBlockBegin
  2
*Model_Space
 70
0
 10
0.0
 20
0.0
 30
0.0
  3
*Model_Space
  1

  0
ENDBLK
  5
21
100
AcDbEntity
  8
0
100
AcDbBlockEnd
  0
BLOCK
  5
1C
100
AcDbEntity
  8
0
100
AcDbBlockBegin
  2
*Paper_Space
 70
0
 10
0.0
 20
0.0
 30
0.0
  3
*Paper_Space
  1

  0
ENDBLK
  5
1D
100
AcDbEntity
  8
0
100
AcDbBlockEnd
  0
BLOCK
  5
225
100
AcDbEntity
  8
0
100
AcDbBlockBegin
  2
_FILLED
 70
64
 10
0.0
 20
0.0
  3
_FILLED
  1

  0
SOLID
  5
226
100
AcDbEntity
  8
0
  6
BYBLOCK
 62
0
100
AcDbTrace
 10
0.0
 20
0.0
 11
-1.0
 21
0.2
 12
-1.0
 22
-0.2
 13
-1.0
 23
-0.2
  0
ENDBLK
  5
227
100
AcDbEntity
  8
0
  6
BYBLOCK
 62
0
100
AcDbBlockEnd
  0
ENDSEC
  0
SECTION
  2
ENTITIES
  0
MTEXT
  5
228
100
AcDbEntity
  8
0
100
AcDbMText
 62
2
  6
CONTINUOUS
  7
STANDARD
 71
3
 72
1
 10
5.5567251553
 20
3.0314235779
 30
0.0
 11
1.0
 21
0.0
 31
0.0
 73
2
 44
0.9
  1
SCALE  1.000
 40
0.08
 41
0.768
  0
LINE
  5
229
100
AcDbEntity
  8
0
100
AcDbLine
 62
7
  6
CONTINUOUS
 10
0.0
 20
0.0
 11
0.0
 21
8.5
  0
LINE
  5
22A
100
AcDbEntity
  8
0
100
AcDbLine
 62
7
  6
CONTINUOUS
 10
0.0
 20
0.0
 11
11.0
 21
0.0
  0
LINE
  5
22B
100
AcDbEntity
  8
0
100
AcDbLine
 62
7
  6
CONTINUOUS
 10
0.0
 20
8.5
 11
11.0
 21
8.5
  0
LINE
  5
22C
100
AcDbEntity
  8
0
100
AcDbLine
 62
7
  6
CONTINUOUS
 10
11.0
 20
0.0
 11
11.0
 21
8.5
  0
LINE
  5
22D
100
AcDbEntity
  8
ALL_ASSEMBLY_MEMBERS
100
AcDbLine
 62
7
  6
CONTINUOUS
 10
4.1256444099
 20
3.6262736271
 11
4.1256444099
 21
3.7072980348
  0
LINE
  5
22E
100
AcDbEntity
  8
0
100
AcDbLine
 62
7
  6
CONTINUOUS
 10
5.4223808917
 20
3.4272059976
 11
5.3737703037
 21
3.4186346394
  0
LINE
  5
22F
100
AcDbEntity
  8
0
100
AcDbLine
 62
7
  6
CONTINUOUS
 10
5.6123808917
 20
3.4850783626
 11
5.5199806838
 21
3.4687857129
  0
LINE
  5
230
100
AcDbEntity
  8
0
100
AcDbLine
 62
7
  6
CONTINUOUS
 10
5.4739948853
 20
3.4606771759
 11
5.4389079282
 21
3.4544903987
  0
LINE
  5
231
100
AcDbEntity
  8
0
100
AcDbLine
 62
7
  6
CONTINUOUS
 10
5.7873808917
 20
3.5403058229
 11
5.7000116106
 21
3.5249002614
  0
LINE
  5
232
100
AcDbEntity
  8
0
100
AcDbLine
 62
7
  6
CONTINUOUS
 10
5.654039912
 20
3.5167942106
 11
5.6289079282
 21
3.5123627637
  0
LINE
  5
233
100
AcDbEntity
  8
0
100
AcDbLine
 62
7
  6
CONTINUOUS
 10
5.6728464117
 20
3.5201103039
 11
5.6809755184
 21
3.5215448486
  0
LINE
  5
234
100
AcDbEntity
  8
0
100
AcDbLine
 62
7
  6
CONTINUOUS
 10
5.9823808917
 20
3.5990598228
 11
5.8971444099
 21
3.5840303314
  0
LINE
  5
235
100
AcDbEntity
  8
0
100
AcDbLine
 62
7
  6
CONTINUOUS
 10
5.8511444099
 20
3.5759192903
 11
5.8039079282
 21
3.567590224
  0
LINE
  5
236
100
AcDbEntity
  8
0
100
AcDbLine
 62
7
  6
CONTINUOUS
 10
4.959254998
 20
3.4184827169
 11
5.3720338219
 21
3.4184827169
  0
LINE
  5
237
100
AcDbEntity
  8
0
100
AcDbLine
 62
7
  6
CONTINUOUS
 10
5.3737703037
 20
3.4186346394
 11
4.9575185162
 21
3.4186346394
  0
LINE
  5
238
100
AcDbEntity
  8
0
100
AcDbLine
 62
7
  6
CONTINUOUS
 10
5.4223808917
 20
3.4272059976
 11
4.9089079282
 21
3.4272059976
  0
LINE
  5
239
100
AcDbEntity
  8
0
100
AcDbLine
 62
7
  6
CONTINUOUS
 10
5.4306444099
 20
3.4370540751
 11
4.9006444099
 21
3.4370540751
  0
LINE
  5
23A
100
AcDbEntity
  8
0
100
AcDbLine
 62
7
  6
CONTINUOUS
 10
4.9006444099
 20
3.4446423212
 11
5.4306444099
 21
3.4446423212
  0
LINE
  5
23B
100
AcDbEntity
  8
0
100
AcDbLine
 62
7
  6
CONTINUOUS
 10
4.8923808917
 20
3.4544903987
 11
5.4389079282
 21
3.4544903987
  0
LINE
  5
23C
100
AcDbEntity
  8
0
100
AcDbLine
 62
7
  6
CONTINUOUS
 10
4.9089079282
 20
3.4272059976
 11
4.9575185162
 21
3.4186346394
  0
LINE
  5
23D
100
AcDbEntity
  8
0
100
AcDbLine
 62
7
  6
CONTINUOUS
 10
4.7189079282
 20
3.4850783626
 11
4.8923808917
 21
3.4544903987
  0
LINE
  5
23E
100
AcDbEntity
  8
0
100
AcDbLine
 62
7
  6
CONTINUOUS
 10
4.5439079282
 20
3.5403058229
 11
4.7023808917
 21
3.5123627637
  0
LINE
  5
23F
100
AcDbEntity
  8
0
100
AcDbLine
 62
7
  6
CONTINUOUS
 10
4.3489079282
 20
3.5990598228
 11
4.4341444099
 21
3.5840303314
  0
LINE
  5
240
100
AcDbEntity
  8
0
100
AcDbLine
 62
7
  6
CONTINUOUS
 10
4.4801444099
 20
3.5759192903
 11
4.5273808917
 21
3.567590224
  0
LINE
  5
241
100
AcDbEntity
  8
0
100
AcDbLine
 62
7
  6
CONTINUOUS
 10
4.2541444099
 20
3.6262736271
 11
4.2541444099
 21
3.6242736271
  0
LINE
  5
242
100
AcDbEntity
  8
0
100
AcDbLine
 62
7
  6
CONTINUOUS
 10
5.6123808917
 20
3.4850783626
 11
4.7189079282
 21
3.4850783626
  0
LINE
  5
243
100
AcDbEntity
  8
0
100
AcDbLine
 62
7
  6
CONTINUOUS
 10
5.6206444099
 20
3.4949264401
 11
4.7106444099
 21
3.4949264401
  0
LINE
  5
244
100
AcDbEntity
  8
0
100
AcDbLine
 62
7
  6
CONTINUOUS
 10
4.7106444099
 20
3.5025146862
 11
5.6206444099
 21
3.5025146862
  0
LINE
  5
245
100
AcDbEntity
  8
0
100
AcDbLine
 62
7
  6
CONTINUOUS
 10
4.7023808917
 20
3.5123627637
 11
5.6289079282
 21
3.5123627637
  0
LINE
  5
246
100
AcDbEntity
  8
0
100
AcDbLine
 62
7
  6
CONTINUOUS
 10
5.7873808917
 20
3.5403058229
 11
4.5439079282
 21
3.5403058229
  0
LINE
  5
247
100
AcDbEntity
  8
0
100
AcDbLine
 62
7
  6
CONTINUOUS
 10
5.7956444099
 20
3.5501539005
 11
4.5356444099
 21
3.5501539005
  0
LINE
  5
248
100
AcDbEntity
  8
0
100
AcDbLine
 62
7
  6
CONTINUOUS
 10
4.5356444099
 20
3.5577421465
 11
5.7956444099
 21
3.5577421465
  0
LINE
  5
249
100
AcDbEntity
  8
0
100
AcDbLine
 62
7
  6
CONTINUOUS
 10
4.5273808917
 20
3.567590224
 11
5.8039079282
 21
3.567590224
  0
LINE
  5
24A
100
AcDbEntity
  8
0
100
AcDbLine
 62
7
  6
CONTINUOUS
 10
4.3406444099
 20
3.6142736271
 11
4.3406444099
 21
3.6089079004
  0
LINE
  5
24B
100
AcDbEntity
  8
ALL_ASSEMBLY_MEMBERS
100
AcDbLine
 62
7
  6
CONTINUOUS
 10
4.373329437
 20
4.5941723248
 11
4.3253510129
 21
4.1679001204
  0
LINE
  5
24C
100
AcDbEntity
  8
0
100
AcDbLine
 62
7
  6
CONTINUOUS
 10
5.9823808917
 20
3.5990598228
 11
4.3489079282
 21
3.5990598228
  0
LINE
  5
24D
100
AcDbEntity
  8
0
100
AcDbLine
 62
7
  6
CONTINUOUS
 10
5.9906444099
 20
3.6089079004
 11
4.3406444099
 21
3.6089079004
  0
LINE
  5
24E
100
AcDbEntity
  8
0
100
AcDbLine
 62
7
  6
CONTINUOUS
 10
4.3406444099
 20
3.6142736271
 11
5.9906444099
 21
3.6142736271
  0
LINE
  5
24F
100
AcDbEntity
  8
0
100
AcDbLine
 62
7
  6
CONTINUOUS
 10
4.2541444099
 20
3.6242736271
 11
6.0771444099
 21
3.6242736271
  0
LINE
  5
250
100
AcDbEntity
  8
ALL_ASSEMBLY_MEMBERS
100
AcDbLine
 62
7
  6
CONTINUOUS
 10
4.1256444099
 20
3.6262736271
 11
6.2056444099
 21
3.6262736271
  0
LINE
  5
251
100
AcDbEntity
  8
0
100
AcDbLine
 62
7
  6
CONTINUOUS
 10
5.7000199864
 20
3.5250062305
 11
5.6999919361
 21
3.525011841
  0
LINE
  5
252
100
AcDbEntity
  8
0
100
AcDbLine
 62
7
  6
CONTINUOUS
 10
5.6540199864
 20
3.5169072142
 11
5.6540480367
 21
3.5169007999
  0
LINE
  5
253
100
AcDbEntity
  8
ALL_ASSEMBLY_MEMBERS
100
AcDbLine
 62
7
  6
CONTINUOUS
 10
4.1256444099
 20
3.7072980349
 11
6.2056444099
 21
3.7072980348
  0
LINE
  5
254
100
AcDbEntity
  8
ALL_ASSEMBLY_MEMBERS
100
AcDbLine
 62
7
  6
CONTINUOUS
 10
4.1378550888
 20
3.7400389452
 11
6.1934337315
 21
3.7400389447
  0
LINE
  5
255
100
AcDbEntity
  8
0
100
AcDbLine
 62
7
  6
CONTINUOUS
 10
4.5356444099
 20
3.5577421465
 11
4.5356444099
 21
3.5501539005
  0
LINE
  5
256
100
AcDbEntity
  8
0
100
AcDbLine
 62
7
  6
CONTINUOUS
 10
4.7106444099
 20
3.5025146862
 11
4.7106444099
 21
3.4949264401
  0
LINE
  5
257
100
AcDbEntity
  8
0
100
AcDbLine
 62
7
  6
CONTINUOUS
 10
4.9006444099
 20
3.4446423212
 11
4.9006444099
 21
3.4370540751
  0
LINE
  5
258
100
AcDbEntity
  8
ALL_ASSEMBLY_MEMBERS
100
AcDbLine
 62
7
  6
CONTINUOUS
 10
4.3253510129
 20
4.1679001204
 11
6.005937807
 21
4.1679001204
  0
LINE
  5
259
100
AcDbEntity
  8
ALL_FEATURES
100
AcDbLine
 62
7
  6
CONTINUOUS
 10
5.1406444099
 20
3.4141999754
 11
5.1406444099
 21
3.4184827169
  0
LINE
  5
25A
100
AcDbEntity
  8
ALL_FEATURES
100
AcDbLine
 62
7
  6
CONTINUOUS
 10
5.1906444099
 20
3.4184827169
 11
5.1906444099
 21
3.4141999754
  0
LINE
  5
25B
100
AcDbEntity
  8
ALL_ASSEMBLY_MEMBERS
100
AcDbLine
 62
7
  6
CONTINUOUS
 10
5.9579593828
 20
4.5941723248
 11
4.373329437
 21
4.5941723248
  0
LINE
  5
25C
100
AcDbEntity
  8
0
100
AcDbLine
 62
7
  6
CONTINUOUS
 10
5.4306444099
 20
3.4446423212
 11
5.4306444099
 21
3.4370540751
  0
LINE
  5
25D
100
AcDbEntity
  8
0
100
AcDbLine
 62
7
  6
CONTINUOUS
 10
5.6206444099
 20
3.5025146862
 11
5.6206444099
 21
3.4949264401
  0
LINE
  5
25E
100
AcDbEntity
  8
0
100
AcDbLine
 62
7
  6
CONTINUOUS
 10
5.7956444099
 20
3.5577421465
 11
5.7956444099
 21
3.5501539005
  0
LINE
  5
25F
100
AcDbEntity
  8
0
100
AcDbLine
 62
7
  6
CONTINUOUS
 10
5.9906444099
 20
3.6142736271
 11
5.9906444099
 21
3.6089079004
  0
LINE
  5
260
100
AcDbEntity
  8
ALL_ASSEMBLY_MEMBERS
100
AcDbLine
 62
7
  6
CONTINUOUS
 10
5.1947782682
 20
5.2762736271
 11
5.1365105517
 21
5.2762736271
  0
LINE
  5
261
100
AcDbEntity
  8
ALL_ASSEMBLY_MEMBERS
100
AcDbLine
 62
7
  6
CONTINUOUS
 10
5.9579593828
 20
4.5941723248
 11
6.005937807
 21
4.1679001204
  0
LINE
  5
262
100
AcDbEntity
  8
0
100
AcDbLine
 62
7
  6
CONTINUOUS
 10
6.0771444099
 20
3.6262736271
 11
6.0771444099
 21
3.6242736271
  0
LINE
  5
263
100
AcDbEntity
  8
ALL_ASSEMBLY_MEMBERS
100
AcDbLine
 62
7
  6
CONTINUOUS
 10
6.2056444099
 20
3.6262736271
 11
6.2056444099
 21
3.7072980348
  0
ARC
  5
264
100
AcDbEntity
  8
0
100
AcDbCircle
 62
7
  6
CONTINUOUS
 10
6.6345017741
 20
-0.7346141347
 40
4.3811397954
100
AcDbArc
 50
99.6891452115
 51
100.0889386846
  0
ARC
  5
265
100
AcDbEntity
  8
0
100
AcDbCircle
 62
7
  6
CONTINUOUS
 10
3.6969357283
 20
-0.7337527965
 40
4.3802657202
100
AcDbArc
 50
79.909650681
 51
80.3108756675
  0
ARC
  5
266
100
AcDbEntity
  8
0
100
AcDbCircle
 62
7
  6
CONTINUOUS
 10
6.5617668
 20
-0.3240108989
 40
3.9641442534
100
AcDbArc
 50
100.0935324157
 51
100.3268051903
  0
ARC
  5
267
100
AcDbEntity
  8
0
100
AcDbCircle
 62
7
  6
CONTINUOUS
 10
3.7780039969
 20
-0.2769240577
 40
3.9162996596
100
AcDbArc
 50
79.6717855688
 51
79.9063963147
  0
ARC
  5
268
100
AcDbEntity
  8
ALL_ASSEMBLY_MEMBERS
100
AcDbCircle
 62
7
  6
CONTINUOUS
 10
6.7889934387
 20
4.2560356841
 40
0.788
100
AcDbArc
 50
186.4218073415
 51
220.9058661425
  0
ARC
  5
269
100
AcDbEntity
  8
ALL_ASSEMBLY_MEMBERS
100
AcDbCircle
 62
7
  6
CONTINUOUS
 10
3.5422953811
 20
4.2560356841
 40
0.788
100
AcDbArc
 50
319.0941338575
 51
353.5781868591
  0
ARC
  5
26A
100
AcDbEntity
  8
ALL_ASSEMBLY_MEMBERS
100
AcDbCircle
 62
7
  6
CONTINUOUS
 10
5.1947782682
 20
4.5082736271
 40
0.768
100
AcDbArc
 50
6.4218131409
 51
90.0
  0
ARC
  5
26B
100
AcDbEntity
  8
ALL_ASSEMBLY_MEMBERS
100
AcDbCircle
 62
7
  6
CONTINUOUS
 10
5.1365105517
 20
4.5082736271
 40
0.768
100
AcDbArc
 50
90.0
 51
173.5781868591
  0
ARC
  5
26C
100
AcDbEntity
  8
ALL_ASSEMBLY_MEMBERS
100
AcDbCircle
 62
7
  6
CONTINUOUS
 10
5.1656444099
 20
4.9262736271
 40
0.54
100
AcDbArc
 50
19.6680930602
 51
160.3319069398
  0
ARC
  5
26D
100
AcDbEntity
  8
ALL_ASSEMBLY_MEMBERS
100
AcDbCircle
 62
7
  6
CONTINUOUS
 10
5.1656444099
 20
4.9262736271
 40
0.45
100
AcDbArc
 50
38.1354213571
 51
141.8652711992
  0
ARC
  5
26E
100
AcDbEntity
  8
ALL_ASSEMBLY_MEMBERS
100
AcDbCircle
 62
7
  6
CONTINUOUS
 10
5.1656444099
 20
4.9262736271
 40
0.4362499972
100
AcDbArc
 50
41.7354890194
 51
138.2644740281
  0
ARC
  5
26F
100
AcDbEntity
  8
ALL_ASSEMBLY_MEMBERS
100
AcDbCircle
 62
7
  6
CONTINUOUS
 10
6.1556444099
 20
3.7072980348
 40
0.05
100
AcDbArc
 50
0.0
 51
40.9058661427
  0
ARC
  5
270
100
AcDbEntity
  8
ALL_ASSEMBLY_MEMBERS
100
AcDbCircle
 62
7
  6
CONTINUOUS
 10
4.1756444099
 20
3.7072980348
 40
0.05
100
AcDbArc
 50
139.0941338575
 51
180.0
  0
ARC
  5
271
100
AcDbEntity
  8
0
100
AcDbCircle
 62
7
  6
CONTINUOUS
 10
4.959254998
 20
3.4284827169
 40
0.01
100
AcDbArc
 50
260.0000000003
 51
270.0
  0
ARC
  5
272
100
AcDbEntity
  8
0
100
AcDbCircle
 62
7
  6
CONTINUOUS
 10
5.3720338219
 20
3.4284827169
 40
0.01
100
AcDbArc
 50
270.0
 51
279.9999999998
  0
ARC
  5
273
100
AcDbEntity
  8
0
100
AcDbCircle
 62
7
  6
CONTINUOUS
 10
6.0006444099
 20
3.6142736271
 40
0.01
100
AcDbArc
 50
90.0000000001
 51
180.0
  0
ARC
  5
274
100
AcDbEntity
  8
0
100
AcDbCircle
 62
7
  6
CONTINUOUS
 10
4.3306444099
 20
3.6142736271
 40
0.01
100
AcDbArc
 50
0.0
 51
89.9999999999
  0
ARC
  5
275
100
AcDbEntity
  8
0
100
AcDbCircle
 62
7
  6
CONTINUOUS
 10
5.8056444099
 20
3.5577421465
 40
0.01
100
AcDbArc
 50
99.9999999991
 51
180.0
  0
ARC
  5
276
100
AcDbEntity
  8
0
100
AcDbCircle
 62
7
  6
CONTINUOUS
 10
4.5256444099
 20
3.5577421465
 40
0.01
100
AcDbArc
 50
0.0
 51
80.0000000009
  0
ARC
  5
277
100
AcDbEntity
  8
0
100
AcDbCircle
 62
7
  6
CONTINUOUS
 10
5.6306444099
 20
3.5025146862
 40
0.01
100
AcDbArc
 50
100.0
 51
180.0
  0
ARC
  5
278
100
AcDbEntity
  8
0
100
AcDbCircle
 62
7
  6
CONTINUOUS
 10
4.7006444099
 20
3.5025146862
 40
0.01
100
AcDbArc
 50
0.0
 51
80.0
  0
ARC
  5
279
100
AcDbEntity
  8
0
100
AcDbCircle
 62
7
  6
CONTINUOUS
 10
5.4406444099
 20
3.4446423212
 40
0.01
100
AcDbArc
 50
99.9999999999
 51
180.0
  0
ARC
  5
27A
100
AcDbEntity
  8
0
100
AcDbCircle
 62
7
  6
CONTINUOUS
 10
4.8906444099
 20
3.4446423212
 40
0.01
100
AcDbArc
 50
0.0
 51
80.0000000001
  0
ARC
  5
27B
100
AcDbEntity
  8
0
100
AcDbCircle
 62
7
  6
CONTINUOUS
 10
4.3506444099
 20
3.6089079004
 40
0.01
100
AcDbArc
 50
180.0
 51
260.0000000009
  0
ARC
  5
27C
100
AcDbEntity
  8
0
100
AcDbCircle
 62
7
  6
CONTINUOUS
 10
5.9806444099
 20
3.6089079004
 40
0.01
100
AcDbArc
 50
279.9999999991
 51
360.0
  0
ARC
  5
27D
100
AcDbEntity
  8
0
100
AcDbCircle
 62
7
  6
CONTINUOUS
 10
4.5456444099
 20
3.5501539005
 40
0.01
100
AcDbArc
 50
180.0
 51
260.0000000017
  0
ARC
  5
27E
100
AcDbEntity
  8
0
100
AcDbCircle
 62
7
  6
CONTINUOUS
 10
5.7856444099
 20
3.5501539005
 40
0.01
100
AcDbArc
 50
279.9999999983
 51
360.0
  0
ARC
  5
27F
100
AcDbEntity
  8
0
100
AcDbCircle
 62
7
  6
CONTINUOUS
 10
4.7206444099
 20
3.4949264401
 40
0.01
100
AcDbArc
 50
180.0
 51
260.0000000033
  0
ARC
  5
280
100
AcDbEntity
  8
0
100
AcDbCircle
 62
7
  6
CONTINUOUS
 10
5.6106444099
 20
3.4949264401
 40
0.01
100
AcDbArc
 50
279.9999999967
 51
360.0
  0
ARC
  5
281
100
AcDbEntity
  8
0
100
AcDbCircle
 62
7
  6
CONTINUOUS
 10
4.9106444099
 20
3.4370540751
 40
0.01
100
AcDbArc
 50
180.0
 51
260.0000000001
  0
ARC
  5
282
100
AcDbEntity
  8
0
100
AcDbCircle
 62
7
  6
CONTINUOUS
 10
5.4206444099
 20
3.4370540751
 40
0.01
100
AcDbArc
 50
279.9999999999
 51
360.0
  0
SPLINE
  5
283
100
AcDbEntity
  8
ALL_FEATURES
100
AcDbSpline
 62
7
  6
CONTINUOUS
 70
0
 71
3
 72
9
 73
5
 74
0
 42
0.0000001
 43
0.0000001
 44
0.0000000001
 40
0.0
 40
0.0
 40
0.0
 40
0.0
 40
0.5000025583
 40
1.0
 40
1.0
 40
1.0
 40
1.0
 10
5.1223806222
 20
3.4184791118
 30
0.0
 10
5.1253982622
 20
3.4176595559
 30
0.0
 10
5.1314596103
 20
3.4161149208
 30
0.0
 10
5.1375738891
 20
3.4147911815
 30
0.0
 10
5.1406444099
 20
3.4141999754
 30
0.0
  0
SPLINE
  5
284
100
AcDbEntity
  8
ALL_FEATURES
100
AcDbSpline
 62
7
  6
CONTINUOUS
 70
0
 71
3
 72
9
 73
5
 74
0
 42
0.0000001
 43
0.0000001
 44
0.0000000001
 40
0.0
 40
0.0
 40
0.0
 40
0.0
 40
0.4999974413
 40
1.0
 40
1.0
 40
1.0
 40
1.0
 10
5.1906444099
 20
3.4141999754
 30
0.0
 10
5.193714931
 20
3.4147911816
 30
0.0
 10
5.1998292102
 20
3.4161149209
 30
0.0
 10
5.2058905588
 20
3.4176595561
 30
0.0
 10
5.2089081991
 20
3.4184791121
 30
0.0
  0
LINE
  5
285
100
AcDbEntity
  8
0
100
AcDbLine
 62
7
  6
CONTINUOUS
 10
5.5198877571
 20
3.469306425
 11
5.5196652445
 21
3.4693435632
  0
SPLINE
  5
286
100
AcDbEntity
  8
0
100
AcDbSpline
 62
7
  6
CONTINUOUS
 70
0
 71
3
 72
19
 73
15
 74
0
 42
0.0000001
 43
0.0000001
 44
0.0000000001
 40
0.0
 40
0.0
 40
0.0
 40
0.0
 40
0.0189922255
 40
0.040011807
 40
0.0653964958
 40
0.096476802
 40
0.1339479435
 40
0.178177481
 40
0.2293641112
 40
0.2876149079
 40
0.4254370432
 40
0.5910713605
 40
0.7831078945
 40
1.0
 40
1.0
 40
1.0
 40
1.0
 10
5.4448857808
 20
3.4684493874
 30
0.0
 10
5.4448858899
 20
3.468485011
 30
0.0
 10
5.4448698404
 20
3.4685609418
 30
0.0
 10
5.4447981035
 20
3.4686632806
 30
0.0
 10
5.4446844581
 20
3.4687556995
 30
0.0
 10
5.4445295429
 20
3.4688409135
 30
0.0
 10
5.4443328466
 20
3.4689197269
 30
0.0
 10
5.4440941473
 20
3.468992259
 30
0.0
 10
5.4438134579
 20
3.4690584112
 30
0.0
 10
5.4433572368
 20
3.4691426105
 30
0.0
 10
5.4426833709
 20
3.4692257719
 30
0.0
 10
5.441756307
 20
3.4692943735
 30
0.0
 10
5.4406791932
 20
3.4693354347
 30
0.0
 10
5.4399121233
 20
3.4693435632
 30
0.0
 10
5.4395052984
 20
3.4693435632
 30
0.0
  0
SPLINE
  5
287
100
AcDbEntity
  8
0
100
AcDbSpline
 62
7
  6
CONTINUOUS
 70
0
 71
3
 72
22
 73
18
 74
0
 42
0.0000001
 43
0.0000001
 44
0.0000000001
 40
0.0
 40
0.0
 40
0.0
 40
0.0
 40
0.0088591192
 40
0.0180753764
 40
0.0280792669
 40
0.0392054632
 40
0.0656754752
 40
0.0987062432
 40
0.1388181556
 40
0.1861172157
 40
0.2405242764
 40
0.3018836834
 40
0.369977392
 40
0.4444627969
 40
0.6110253858
 40
0.7979717848
 40
1.0
 40
1.0
 40
1.0
 40
1.0
 10
5.2920105946
 20
3.4666646305
 30
0.0
 10
5.2920105956
 20
3.4667135579
 30
0.0
 10
5.2919983458
 20
3.4668137887
 30
0.0
 10
5.2919434119
 20
3.4669601175
 30
0.0
 10
5.2918531654
 20
3.4671025147
 30
0.0
 10
5.2916765054
 20
3.4672984995
 30
0.0
 10
5.2913586315
 20
3.4675304999
 30
0.0
 10
5.2908668007
 20
3.4677794966
 30
0.0
 10
5.2902432515
 20
3.468014046
 30
0.0
 10
5.2894908643
 20
3.4682334442
 30
0.0
 10
5.2886130753
 20
3.4684364671
 30
0.0
 10
5.2876144237
 20
3.4686216733
 30
0.0
 10
5.2865002067
 20
3.4687876564
 30
0.0
 10
5.2848046956
 20
3.4689898465
 30
0.0
 10
5.2824478447
 20
3.4691808943
 30
0.0
 10
5.279382155
 20
3.4693149466
 30
0.0
 10
5.2772337516
 20
3.4693435632
 30
0.0
 10
5.2761179854
 20
3.4693435632
 30
0.0
  0
LINE
  5
288
100
AcDbEntity
  8
0
100
AcDbLine
 62
7
  6
CONTINUOUS
 10
4.459069668
 20
3.5840303314
 11
4.458286552
 21
3.5838963244
  0
SPLINE
  5
289
100
AcDbEntity
  8
0
100
AcDbSpline
 62
7
  6
CONTINUOUS
 70
0
 71
3
 72
18
 73
14
 74
0
 42
0.0000001
 43
0.0000001
 44
0.0000000001
 40
0.0
 40
0.0
 40
0.0
 40
0.0
 40
0.2190939313
 40
0.4114125004
 40
0.5762627774
 40
0.7130784985
 40
0.8215653791
 40
0.8653412847
 40
0.9024464917
 40
0.9333409386
 40
0.9588193446
 40
0.9802821847
 40
1.0
 40
1.0
 40
1.0
 40
1.0
 10
4.5321468271
 20
3.5840303314
 30
0.0
 10
4.5319108319
 20
3.5840303314
 30
0.0
 10
4.5314676502
 20
3.5840256821
 30
0.0
 10
4.5308473079
 20
3.5840017705
 30
0.0
 10
4.5303165205
 20
3.5839618086
 30
0.0
 10
4.5298780922
 20
3.5839060858
 30
0.0
 10
4.529572334
 20
3.5838437547
 30
0.0
 10
4.5293776039
 20
3.5837823682
 30
0.0
 10
4.5292663514
 20
3.5837357534
 30
0.0
 10
4.5291788565
 20
3.5836851674
 30
0.0
 10
4.5291147563
 20
3.5836300493
 30
0.0
 10
4.5290744853
 20
3.5835690561
 30
0.0
 10
4.5290654829
 20
3.5835242358
 30
0.0
 10
4.5290654683
 20
3.5835029969
 30
0.0
  0
SPLINE
  5
28A
100
AcDbEntity
  8
0
100
AcDbSpline
 62
7
  6
CONTINUOUS
 70
0
 71
3
 72
19
 73
15
 74
0
 42
0.0000001
 43
0.0000001
 44
0.0000000001
 40
0.0
 40
0.0
 40
0.0
 40
0.0
 40
0.2148419447
 40
0.406048184
 40
0.5715728241
 40
0.7096386648
 40
0.7681675631
 40
0.8197003765
 40
0.8643090204
 40
0.9021594265
 40
0.9335919623
 40
0.9593115582
 40
0.9806828287
 40
1.0
 40
1.0
 40
1.0
 40
1.0
 10
4.6483957995
 20
3.5840303314
 30
0.0
 10
4.6478905132
 20
3.5840303314
 30
0.0
 10
4.6469354716
 20
3.5840195644
 30
0.0
 10
4.6455920207
 20
3.5839657007
 30
0.0
 10
4.6444314897
 20
3.5838760215
 30
0.0
 10
4.6435860985
 20
3.5837672882
 30
0.0
 10
4.6430126925
 20
3.583657872
 30
0.0
 10
4.6426590047
 20
3.583572025
 30
0.0
 10
4.6423578886
 20
3.5834781233
 30
0.0
 10
4.6421096288
 20
3.5833763378
 30
0.0
 10
4.6419141355
 20
3.5832665165
 30
0.0
 10
4.6417709647
 20
3.5831475661
 30
0.0
 10
4.6416806601
 20
3.5830166846
 30
0.0
 10
4.6416601001
 20
3.5829199992
 30
0.0
 10
4.6416600846
 20
3.5828745672
 30
0.0
  0
SPLINE
  5
28B
100
AcDbEntity
  8
0
100
AcDbSpline
 62
7
  6
CONTINUOUS
 70
0
 71
3
 72
20
 73
16
 74
0
 42
0.0000001
 43
0.0000001
 44
0.0000000001
 40
0.0
 40
0.0
 40
0.0
 40
0.0
 40
0.208503936
 40
0.3976455348
 40
0.5635872825
 40
0.7037343369
 40
0.7636417469
 40
0.8165526521
 40
0.8624285367
 40
0.9013767366
 40
0.9336608497
 40
0.9598510473
 40
0.981151061
 40
0.9906993205
 40
1.0
 40
1.0
 40
1.0
 40
1.0
 10
4.7998944099
 20
3.5840303314
 30
0.0
 10
4.7990586404
 20
3.5840303314
 30
0.0
 10
4.7974646122
 20
3.5840104315
 30
0.0
 10
4.7952071155
 20
3.5839145661
 30
0.0
 10
4.793227943
 20
3.583755057
 30
0.0
 10
4.7917722581
 20
3.5835640564
 30
0.0
 10
4.7907759084
 20
3.5833742099
 30
0.0
 10
4.7901571008
 20
3.5832255474
 30
0.0
 10
4.7896287646
 20
3.5830637742
 30
0.0
 10
4.7891920081
 20
3.5828898549
 30
0.0
 10
4.7888472002
 20
3.5827038456
 30
0.0
 10
4.788593679
 20
3.582505663
 30
0.0
 10
4.7884549596
 20
3.5823177249
 30
0.0
 10
4.788402938
 20
3.5821642124
 30
0.0
 10
4.7883947332
 20
3.582088386
 30
0.0
 10
4.7883947756
 20
3.5820511051
 30
0.0
  0
SPLINE
  5
28C
100
AcDbEntity
  8
0
100
AcDbSpline
 62
7
  6
CONTINUOUS
 70
0
 71
3
 72
22
 73
18
 74
0
 42
0.0000001
 43
0.0000001
 44
0.0000000001
 40
0.0
 40
0.0
 40
0.0
 40
0.0
 40
0.1999138653
 40
0.3859596285
 40
0.5524927572
 40
0.6271978149
 40
0.6956040386
 40
0.7573542882
 40
0.8121960477
 40
0.8599239734
 40
0.9004160667
 40
0.9337998492
 40
0.9605660205
 40
0.971800715
 40
0.9818787337
 40
0.9911329378
 40
1.0
 40
1.0
 40
1.0
 40
1.0
 10
4.9763182784
 20
3.5840303314
 30
0.0
 10
4.9751330726
 20
3.5840303314
 30
0.0
 10
4.9728446889
 20
3.5839978295
 30
0.0
 10
4.9695720927
 20
3.5838470868
 30
0.0
 10
4.9670470023
 20
3.5836331421
 30
0.0
 10
4.9652249139
 20
3.5834078569
 30
0.0
 10
4.9640242981
 20
3.5832230561
 30
0.0
 10
4.9629466665
 20
3.5830175426
 30
0.0
 10
4.9619982782
 20
3.5827930686
 30
0.0
 10
4.9611847178
 20
3.5825514384
 30
0.0
 10
4.96051021
 20
3.5822937901
 30
0.0
 10
4.9599778886
 20
3.5820216754
 30
0.0
 10
4.9596334038
 20
3.5817695652
 30
0.0
 10
4.9594416681
 20
3.5815572625
 30
0.0
 10
4.9593437886
 20
3.5814034867
 30
0.0
 10
4.9592843496
 20
3.5812457965
 30
0.0
 10
4.9592712393
 20
3.5811379031
 30
0.0
 10
4.9592713102
 20
3.5810853341
 30
0.0
  0
SPLINE
  5
28D
100
AcDbEntity
  8
0
100
AcDbSpline
 62
7
  6
CONTINUOUS
 70
0
 71
3
 72
24
 73
20
 74
0
 42
0.0000001
 43
0.0000001
 44
0.0000000001
 40
0.0
 40
0.0
 40
0.0
 40
0.0
 40
0.1887735673
 40
0.3705582539
 40
0.456402992
 40
0.5378545038
 40
0.6141798587
 40
0.6847388043
 40
0.7489553511
 40
0.8062814064
 40
0.8563243664
 40
0.8988721848
 40
0.9338371465
 40
0.9485410384
 40
0.9614924431
 40
0.9728329674
 40
0.9827833099
 40
0.9916797645
 40
1.0
 40
1.0
 40
1.0
 40
1.0
 10
5.1656444099
 20
3.5840303314
 30
0.0
 10
5.1641388351
 20
3.5840303314
 30
0.0
 10
5.161183218
 20
3.5839807562
 30
0.0
 10
5.1575469882
 20
3.5837953899
 30
0.0
 10
5.154771822
 20
3.5835700854
 30
0.0
 10
5.1528388379
 20
3.5833711992
 30
0.0
 10
5.1510321621
 20
3.5831407725
 30
0.0
 10
5.1493683874
 20
3.5828812351
 30
0.0
 10
5.1478627872
 20
3.5825955868
 30
0.0
 10
5.1465292659
 20
3.582286263
 30
0.0
 10
5.1453792426
 20
3.5819562455
 30
0.0
 10
5.1444220352
 20
3.5816093724
 30
0.0
 10
5.1437555089
 20
3.5812932747
 30
0.0
 10
5.1433322517
 20
3.5810270271
 30
0.0
 10
5.1430858893
 20
3.5808361759
 30
0.0
 10
5.1428919859
 20
3.5806425632
 30
0.0
 10
5.1427509944
 20
3.5804456439
 30
0.0
 10
5.1426643056
 20
3.5802449265
 30
0.0
 10
5.1426444044
 20
3.5801069791
 30
0.0
 10
5.1426444103
 20
3.5800406206
 30
0.0
  0
SPLINE
  5
28E
100
AcDbEntity
  8
0
100
AcDbSpline
 62
7
  6
CONTINUOUS
 70
0
 71
3
 72
25
 73
21
 74
0
 42
0.0000001
 43
0.0000001
 44
0.0000000001
 40
0.0
 40
0.0
 40
0.0
 40
0.0
 40
0.1747062267
 40
0.3508656121
 40
0.4364346154
 40
0.5188900298
 40
0.5972203824
 40
0.670464233
 40
0.7377007225
 40
0.7981993509
 40
0.8513216781
 40
0.8965397215
 40
0.9161019182
 40
0.933609243
 40
0.9490674076
 40
0.9625142792
 40
0.9740560842
 40
0.9838931832
 40
0.9923623998
 40
1.0
 40
1.0
 40
1.0
 40
1.0
 10
5.3549705414
 20
3.5840303314
 30
0.0
 10
5.3532227884
 20
3.5840303314
 30
0.0
 10
5.3497124869
 20
3.5839578615
 30
0.0
 10
5.3453526023
 20
3.5837058038
 30
0.0
 10
5.3419223449
 20
3.583405125
 30
0.0
 10
5.3394720979
 20
3.5831383825
 30
0.0
 10
5.3371508044
 20
3.5828318729
 30
0.0
 10
5.3349883885
 20
3.5824901452
 30
0.0
 10
5.3330124058
 20
3.5821168887
 30
0.0
 10
5.3312471991
 20
3.5817176418
 30
0.0
 10
5.3297140246
 20
3.5812979042
 30
0.0
 10
5.3285957245
 20
3.5809191736
 30
0.0
 10
5.3278350378
 20
3.5806037206
 30
0.0
 10
5.3273607603
 20
3.5803767475
 30
0.0
 10
5.3269558891
 20
3.5801485597
 30
0.0
 10
5.3266215472
 20
3.5799194616
 30
0.0
 10
5.3263582663
 20
3.5796897055
 30
0.0
 10
5.3261662225
 20
3.5794587927
 30
0.0
 10
5.3260466235
 20
3.5792253995
 30
0.0
 10
5.3260179743
 20
3.5790634961
 30
0.0
 10
5.3260178753
 20
3.5789870899
 30
0.0
  0
SPLINE
  5
28F
100
AcDbEntity
  8
0
100
AcDbSpline
 62
7
  6
CONTINUOUS
 70
0
 71
3
 72
26
 73
22
 74
0
 42
0.0000001
 43
0.0000001
 44
0.0000000001
 40
0.0
 40
0.0
 40
0.0
 40
0.0
 40
0.0763774784
 40
0.1572495712
 40
0.3260651729
 40
0.4110902756
 40
0.4946411625
 40
0.575324839
 40
0.6517825576
 40
0.7228249585
 40
0.7873362116
 40
0.8443528018
 40
0.8930879855
 40
0.914136853
 40
0.9329044647
 40
0.9493687039
 40
0.9635310458
 40
0.9754361031
 40
0.9852222816
 40
0.9932083796
 40
1.0
 40
1.0
 40
1.0
 40
1.0
 10
5.5313944099
 20
3.5840303314
 30
0.0
 10
5.5304877416
 20
3.5840303314
 30
0.0
 10
5.5286209919
 20
3.5840051471
 30
0.0
 10
5.5247525882
 20
3.5838662524
 30
0.0
 10
5.5207869263
 20
3.5835994878
 30
0.0
 10
5.5167999918
 20
3.5832162854
 30
0.0
 10
5.5138606475
 20
3.5828744774
 30
0.0
 10
5.5110297638
 20
3.5824857417
 30
0.0
 10
5.508355106
 20
3.5820556772
 30
0.0
 10
5.5058810523
 20
3.581592312
 30
0.0
 10
5.5036475138
 20
3.581103293
 30
0.0
 10
5.5016903884
 20
3.5805965475
 30
0.0
 10
5.5002521719
 20
3.5801488625
 30
0.0
 10
5.4992671228
 20
3.5797811153
 30
0.0
 10
5.4986519667
 20
3.5795197628
 30
0.0
 10
5.4981256267
 20
3.5792604587
 30
0.0
 10
5.4976899056
 20
3.5790042058
 30
0.0
 10
5.4973459768
 20
3.5787517426
 30
0.0
 10
5.4970946022
 20
3.5785023243
 30
0.0
 10
5.4969354527
 20
3.5782539488
 30
0.0
 10
5.4968948487
 20
3.5780778687
 30
0.0
 10
5.4968947573
 20
3.5779972462
 30
0.0
  0
SPLINE
  5
290
100
AcDbEntity
  8
0
100
AcDbSpline
 62
7
  6
CONTINUOUS
 70
0
 71
3
 72
28
 73
24
 74
0
 42
0.0000001
 43
0.0000001
 44
0.0000000001
 40
0.0
 40
0.0
 40
0.0
 40
0.0
 40
0.0640935096
 40
0.1358210188
 40
0.2134118621
 40
0.2951242252
 40
0.3792144753
 40
0.463869769
 40
0.5472555144
 40
0.6276409894
 40
0.7033700799
 40
0.7729260394
 40
0.8349280238
 40
0.8627050707
 40
0.8881624743
 40
0.9111809877
 40
0.9316479862
 40
0.9494820141
 40
0.964644787
 40
0.9771305516
 40
0.9823876418
 40
0.9870088573
 40
1.0
 40
1.0
 40
1.0
 40
1.0
 10
5.6828930204
 20
3.5840303314
 30
0.0
 10
5.6820313686
 20
3.5840303314
 30
0.0
 10
5.6802054036
 20
3.5839958366
 30
0.0
 10
5.677339103
 20
3.5838650304
 30
0.0
 10
5.6742402321
 20
3.5836525646
 30
0.0
 10
5.6709807031
 20
3.5833637918
 30
0.0
 10
5.6676326919
 20
3.5830042747
 30
0.0
 10
5.6642693122
 20
3.5825822738
 30
0.0
 10
5.6609634743
 20
3.58210609
 30
0.0
 10
5.6577857585
 20
3.5815861437
 30
0.0
 10
5.6548024653
 20
3.5810331835
 30
0.0
 10
5.6520753156
 20
3.5804587801
 30
0.0
 10
5.649992578
 20
3.5799561864
 30
0.0
 10
5.6484980826
 20
3.5795477272
 30
0.0
 10
5.647515553
 20
3.5792549381
 30
0.0
 10
5.6466347443
 20
3.5789660284
 30
0.0
 10
5.6458604633
 20
3.5786824433
 30
0.0
 10
5.6451967917
 20
3.5784058938
 30
0.0
 10
5.6446465573
 20
3.5781377239
 30
0.0
 10
5.6442656003
 20
3.5779124766
 30
0.0
 10
5.6440224731
 20
3.5777329789
 30
0.0
 10
5.6437942881
 20
3.5775339878
 30
0.0
 10
5.6436303578
 20
3.5773155568
 30
0.0
 10
5.6436303986
 20
3.5771409082
 30
0.0
  0
SPLINE
  5
291
100
AcDbEntity
  8
0
100
AcDbSpline
 62
7
  6
CONTINUOUS
 70
0
 71
3
 72
32
 73
28
 74
0
 42
0.0000001
 43
0.0000001
 44
0.0000000001
 40
0.0
 40
0.0
 40
0.0
 40
0.0
 40
0.023110548
 40
0.0492158676
 40
0.1095583587
 40
0.1792572319
 40
0.2563738308
 40
0.3388468199
 40
0.4244235814
 40
0.5108382647
 40
0.5958471258
 40
0.6772829546
 40
0.7530872423
 40
0.8213509674
 40
0.8521124718
 40
0.8803488111
 40
0.9058909103
 40
0.9285824078
 40
0.9482718892
 40
0.9648324888
 40
0.9719197137
 40
0.9782056606
 40
0.9836904145
 40
0.9883802428
 40
0.99229271
 40
0.9954678286
 40
1.0
 40
1.0
 40
1.0
 40
1.0
 10
5.7991419928
 20
3.5840303314
 30
0.0
 10
5.7988039399
 20
3.5840303314
 30
0.0
 10
5.7980840185
 20
3.5840196045
 30
0.0
 10
5.7964824032
 20
3.5839617667
 30
0.0
 10
5.79420241
 20
3.5838194022
 30
0.0
 10
5.7911832679
 20
3.5835581831
 30
0.0
 10
5.7878477323
 20
3.583205478
 30
0.0
 10
5.7842879162
 20
3.5827700632
 30
0.0
 10
5.7806002176
 20
3.5822633591
 30
0.0
 10
5.7768835342
 20
3.5816979851
 30
0.0
 10
5.7732351848
 20
3.5810887189
 30
0.0
 10
5.7697493661
 20
3.580450884
 30
0.0
 10
5.7665152421
 20
3.5798010499
 30
0.0
 10
5.7640185966
 20
3.5792459535
 30
0.0
 10
5.7622099468
 20
3.5788051267
 30
0.0
 10
5.761013186
 20
3.5784934462
 30
0.0
 10
5.7599360821
 20
3.5781914133
 30
0.0
 10
5.7589857106
 20
3.5779012743
 30
0.0
 10
5.7581687999
 20
3.5776251563
 30
0.0
 10
5.7575765855
 20
3.5773981717
 30
0.0
 10
5.7571753735
 20
3.5772225911
 30
0.0
 10
5.7569269479
 20
3.5771025579
 30
0.0
 10
5.7567153029
 20
3.5769873376
 30
0.0
 10
5.7565409602
 20
3.5768775838
 30
0.0
 10
5.756403417
 20
3.5767721474
 30
0.0
 10
5.7562836805
 20
3.5766540253
 30
0.0
 10
5.756223431
 20
3.5765458692
 30
0.0
 10
5.7562234744
 20
3.5764795743
 30
0.0
  0
SPLINE
  5
292
100
AcDbEntity
  8
0
100
AcDbSpline
 62
7
  6
CONTINUOUS
 70
0
 71
3
 72
36
 73
32
 74
0
 42
0.0000001
 43
0.0000001
 44
0.0000000001
 40
0.0
 40
0.0
 40
0.0
 40
0.0
 40
0.0136924086
 40
0.0312922694
 40
0.0526332326
 40
0.0775408283
 40
0.1057964905
 40
0.1371450761
 40
0.2080755331
 40
0.2879650949
 40
0.3741750623
 40
0.4639317826
 40
0.5544131784
 40
0.6428159321
 40
0.7264133843
 40
0.7655966883
 40
0.8026139336
 40
0.8371819333
 40
0.8690246714
 40
0.8978683394
 40
0.9234766812
 40
0.9456504017
 40
0.9641941448
 40
0.9789350836
 40
0.9848489232
 40
0.989781288
 40
0.9937295246
 40
0.9967013822
 40
0.997832166
 40
0.9987398605
 40
1.0
 40
1.0
 40
1.0
 40
1.0
 10
5.8722191519
 20
3.5840303314
 30
0.0
 10
5.8720090668
 20
3.5840303314
 30
0.0
 10
5.8715289945
 20
3.5840149622
 30
0.0
 10
5.8707229653
 20
3.5839646681
 30
0.0
 10
5.8697466419
 20
3.5838833634
 30
0.0
 10
5.8686089786
 20
3.5837714143
 30
0.0
 10
5.8673200537
 20
3.583629583
 30
0.0
 10
5.8653313277
 20
3.5833922371
 30
0.0
 10
5.8625599929
 20
3.5830282068
 30
0.0
 10
5.8589597323
 20
3.5825136014
 30
0.0
 10
5.8550791675
 20
3.5819199707
 30
0.0
 10
5.8510436077
 20
3.5812659552
 30
0.0
 10
5.8469807249
 20
3.5805711851
 30
0.0
 10
5.8430171475
 20
3.5798572863
 30
0.0
 10
5.839833847
 20
3.5792522335
 30
0.0
 10
5.837429103
 20
3.5787740708
 30
0.0
 10
5.8357642808
 20
3.5784322344
 30
0.0
 10
5.834212028
 20
3.5781023043
 30
0.0
 10
5.8327849005
 20
3.5777870943
 30
0.0
 10
5.8314947744
 20
3.5774892458
 30
0.0
 10
5.8303523742
 20
3.5772113614
 30
0.0
 10
5.8293671704
 20
3.5769562061
 30
0.0
 10
5.8285478869
 20
3.576726199
 30
0.0
 10
5.827973621
 20
3.5765468414
 30
0.0
 10
5.8276038314
 20
3.5764148359
 30
0.0
 10
5.8273928246
 20
3.5763309772
 30
0.0
 10
5.8272275251
 20
3.5762548542
 30
0.0
 10
5.827119621
 20
3.5761943747
 30
0.0
 10
5.8270578364
 20
3.5761478543
 30
0.0
 10
5.8270218443
 20
3.5761132092
 30
0.0
 10
5.8270032109
 20
3.576081473
 30
0.0
 10
5.8270034546
 20
3.57606214
 30
0.0
  0
LINE
  5
293
100
AcDbEntity
  8
0
100
AcDbLine
 62
7
  6
CONTINUOUS
 10
4.6374817937
 20
3.525011841
 11
4.6371892358
 21
3.5249620077
  0
SPLINE
  5
294
100
AcDbEntity
  8
0
100
AcDbSpline
 62
7
  6
CONTINUOUS
 70
0
 71
3
 72
18
 73
14
 74
0
 42
0.0000001
 43
0.0000001
 44
0.0000000001
 40
0.0
 40
0.0
 40
0.0
 40
0.0
 40
0.219223878
 40
0.4116792415
 40
0.5766557684
 40
0.713567239
 40
0.822095019
 40
0.865864926
 40
0.9029414157
 40
0.9337765197
 40
0.9591550775
 40
0.9804699706
 40
1.0
 40
1.0
 40
1.0
 40
1.0
 10
4.7031165456
 20
3.525011841
 30
0.0
 10
4.7028779802
 20
3.525011841
 30
0.0
 10
4.7024299479
 20
3.5250071954
 30
0.0
 10
4.7018027849
 20
3.5249833032
 30
0.0
 10
4.7012661146
 20
3.5249433697
 30
0.0
 10
4.7008228127
 20
3.5248876822
 30
0.0
 10
4.7005136399
 20
3.5248253816
 30
0.0
 10
4.7003167007
 20
3.5247640075
 30
0.0
 10
4.7002042096
 20
3.5247174147
 30
0.0
 10
4.7001157403
 20
3.5246668575
 30
0.0
 10
4.7000509145
 20
3.5246117767
 30
0.0
 10
4.7000101316
 20
3.5245507852
 30
0.0
 10
4.7000009893
 20
3.5245058687
 30
0.0
 10
4.7000009736
 20
3.5244846156
 30
0.0
  0
SPLINE
  5
295
100
AcDbEntity
  8
0
100
AcDbSpline
 62
7
  6
CONTINUOUS
 70
0
 71
3
 72
19
 73
15
 74
0
 42
0.0000001
 43
0.0000001
 44
0.0000000001
 40
0.0
 40
0.0
 40
0.0
 40
0.0
 40
0.2126269139
 40
0.403220452
 40
0.5690186587
 40
0.7078822989
 40
0.7669421757
 40
0.8190084287
 40
0.864086608
 40
0.9022858656
 40
0.9339516994
 40
0.9597686486
 40
0.9810253653
 40
1.0
 40
1.0
 40
1.0
 40
1.0
 10
4.8301931045
 20
3.525011841
 30
0.0
 10
4.8295571056
 20
3.525011841
 30
0.0
 10
4.8283509397
 20
3.5249978881
 30
0.0
 10
4.8266499995
 20
3.524929043
 30
0.0
 10
4.8251726929
 20
3.524814486
 30
0.0
 10
4.824092758
 20
3.5246759608
 30
0.0
 10
4.8233577464
 20
3.5245373016
 30
0.0
 10
4.8229031037
 20
3.5244285937
 30
0.0
 10
4.8225156821
 20
3.5243099492
 30
0.0
 10
4.8221961757
 20
3.5241814689
 30
0.0
 10
4.8219444596
 20
3.5240432588
 30
0.0
 10
4.8217597111
 20
3.5238943941
 30
0.0
 10
4.8216422188
 20
3.5237311514
 30
0.0
 10
4.8216147372
 20
3.5236096617
 30
0.0
 10
4.8216146028
 20
3.5235529059
 30
0.0
  0
SPLINE
  5
296
100
AcDbEntity
  8
0
100
AcDbSpline
 62
7
  6
CONTINUOUS
 70
0
 71
3
 72
22
 73
18
 74
0
 42
0.0000001
 43
0.0000001
 44
0.0000000001
 40
0.0
 40
0.0
 40
0.0
 40
0.0
 40
0.2017892372
 40
0.3885695241
 40
0.5550281367
 40
0.6294850848
 40
0.6975646578
 40
0.7589269092
 40
0.813354816
 40
0.8606913607
 40
0.9008567714
 40
0.9339645321
 40
0.9605385741
 40
0.9717255633
 40
0.9817943279
 40
0.9910769018
 40
1.0
 40
1.0
 40
1.0
 40
1.0
 10
5.0018307286
 20
3.525011841
 30
0.0
 10
5.0007108201
 20
3.525011841
 30
0.0
 10
4.9985541278
 20
3.5249823911
 30
0.0
 10
4.9954763523
 20
3.52484464
 30
0.0
 10
4.9931099215
 20
3.5246485018
 30
0.0
 10
4.9914074042
 20
3.5244412482
 30
0.0
 10
4.9902884268
 20
3.5242712387
 30
0.0
 10
4.9892854543
 20
3.5240817362
 30
0.0
 10
4.9884038171
 20
3.5238742463
 30
0.0
 10
4.9876481053
 20
3.5236502991
 30
0.0
 10
4.9870217963
 20
3.5234111542
 30
0.0
 10
4.986527762
 20
3.5231576244
 30
0.0
 10
4.9862085913
 20
3.5229218598
 30
0.0
 10
4.9860312351
 20
3.5227230537
 30
0.0
 10
4.9859406016
 20
3.5225786704
 30
0.0
 10
4.985885454
 20
3.5224304573
 30
0.0
 10
4.9858731744
 20
3.5223290116
 30
0.0
 10
4.9858731915
 20
3.5222794894
 30
0.0
  0
SPLINE
  5
297
100
AcDbEntity
  8
0
100
AcDbSpline
 62
7
  6
CONTINUOUS
 70
0
 71
3
 72
24
 73
20
 74
0
 42
0.0000001
 43
0.0000001
 44
0.0000000001
 40
0.0
 40
0.0
 40
0.0
 40
0.0
 40
0.1860854048
 40
0.3668312054
 40
0.4526460328
 40
0.5343113014
 40
0.6110353506
 40
0.6821254879
 40
0.7469320389
 40
0.8048505269
 40
0.855474155
 40
0.8985233437
 40
0.9338488765
 40
0.9486808652
 40
0.9617166229
 40
0.9730878226
 40
0.983007762
 40
0.9918132772
 40
1.0
 40
1.0
 40
1.0
 40
1.0
 10
5.1952292225
 20
3.525011841
 30
0.0
 10
5.1936644575
 20
3.525011841
 30
0.0
 10
5.1905796115
 20
3.5249586473
 30
0.0
 10
5.186777532
 20
3.5247622942
 30
0.0
 10
5.1838588481
 20
3.5245243668
 30
0.0
 10
5.1818159921
 20
3.5243140634
 30
0.0
 10
5.1799015509
 20
3.5240705366
 30
0.0
 10
5.1781345009
 20
3.5237966623
 30
0.0
 10
5.1765324384
 20
3.5234955644
 30
0.0
 10
5.1751112135
 20
3.5231696932
 30
0.0
 10
5.1738837978
 20
3.5228228649
 30
0.0
 10
5.1728610046
 20
3.5224591528
 30
0.0
 10
5.1721481882
 20
3.5221279568
 30
0.0
 10
5.1716948325
 20
3.5218495952
 30
0.0
 10
5.171430898
 20
3.5216505197
 30
0.0
 10
5.171223008
 20
3.521448904
 30
0.0
 10
5.1710717159
 20
3.5212441433
 30
0.0
 10
5.1709786415
 20
3.5210354994
 30
0.0
 10
5.1709574546
 20
3.5208918834
 30
0.0
 10
5.170957543
 20
3.5208230425
 30
0.0
  0
SPLINE
  5
298
100
AcDbEntity
  8
0
100
AcDbSpline
 62
7
  6
CONTINUOUS
 70
0
 71
3
 72
26
 73
22
 74
0
 42
0.0000001
 43
0.0000001
 44
0.0000000001
 40
0.0
 40
0.0
 40
0.0
 40
0.0
 40
0.0805478587
 40
0.1644703696
 40
0.3363673161
 40
0.4216408629
 40
0.5047567207
 40
0.5844835967
 40
0.6596105823
 40
0.7290639164
 40
0.7919053891
 40
0.8472703599
 40
0.8945251186
 40
0.9149532648
 40
0.9331814623
 40
0.9492057967
 40
0.9630576179
 40
0.9748133585
 40
0.9846325809
 40
0.9928323087
 40
1.0
 40
1.0
 40
1.0
 40
1.0
 10
5.384697695
 20
3.525011841
 30
0.0
 10
5.3837977377
 20
3.525011841
 30
0.0
 10
5.3819600628
 20
3.5249898499
 30
0.0
 10
5.3782036853
 20
3.5248668009
 30
0.0
 10
5.3743989258
 20
3.5246288768
 30
0.0
 10
5.3706125895
 20
3.5242821181
 30
0.0
 10
5.3678574562
 20
3.5239731306
 30
0.0
 10
5.3652219541
 20
3.5236200794
 30
0.0
 10
5.3627463916
 20
3.52322778
 30
0.0
 10
5.360467987
 20
3.5228020507
 30
0.0
 10
5.3584200394
 20
3.5223501803
 30
0.0
 10
5.3566321276
 20
3.5218779137
 30
0.0
 10
5.3553222683
 20
3.5214566618
 30
0.0
 10
5.3544274697
 20
3.5211084351
 30
0.0
 10
5.3538692986
 20
3.5208593091
 30
0.0
 10
5.3533924303
 20
3.520610464
 30
0.0
 10
5.3529979569
 20
3.5203627574
 30
0.0
 10
5.3526865651
 20
3.5201167279
 30
0.0
 10
5.3524587052
 20
3.5198718306
 30
0.0
 10
5.3523157018
 20
3.5196257065
 30
0.0
 10
5.3522807689
 20
3.5194531133
 30
0.0
 10
5.3522808408
 20
3.5193730291
 30
0.0
  0
SPLINE
  5
299
100
AcDbEntity
  8
0
100
AcDbSpline
 62
7
  6
CONTINUOUS
 70
0
 71
3
 72
28
 73
24
 74
0
 42
0.0000001
 43
0.0000001
 44
0.0000000001
 40
0.0
 40
0.0
 40
0.0
 40
0.0
 40
0.0639325389
 40
0.1355354241
 40
0.2130377958
 40
0.2946956608
 40
0.3787622227
 40
0.4634193118
 40
0.5468268208
 40
0.6272485499
 40
0.7030222029
 40
0.7726272967
 40
0.8346785906
 40
0.8624802417
 40
0.8879619591
 40
0.9110041542
 40
0.931494095
 40
0.9493513118
 40
0.9645375722
 40
0.9770471415
 40
0.9823164063
 40
0.9869501316
 40
1.0
 40
1.0
 40
1.0
 40
1.0
 10
5.5450673161
 20
3.525011841
 30
0.0
 10
5.5442067382
 20
3.525011841
 30
0.0
 10
5.5423823026
 20
3.524977645
 30
0.0
 10
5.5395173506
 20
3.524848029
 30
0.0
 10
5.5364180183
 20
3.5246374326
 30
0.0
 10
5.5331563709
 20
3.5243510043
 30
0.0
 10
5.5298048213
 20
3.5239940981
 30
0.0
 10
5.5264367812
 20
3.523574736
 30
0.0
 10
5.5231255054
 20
3.5231009514
 30
0.0
 10
5.5199419295
 20
3.5225829738
 30
0.0
 10
5.516952699
 20
3.5220313175
 30
0.0
 10
5.5142198511
 20
3.5214574571
 30
0.0
 10
5.5121326695
 20
3.5209545987
 30
0.0
 10
5.5106349543
 20
3.5205454447
 30
0.0
 10
5.5096502593
 20
3.520251941
 30
0.0
 10
5.5087675027
 20
3.5199621257
 30
0.0
 10
5.5079915064
 20
3.5196774431
 30
0.0
 10
5.5073263488
 20
3.5193996397
 30
0.0
 10
5.5067748656
 20
3.5191300912
 30
0.0
 10
5.5063930641
 20
3.5189035664
 30
0.0
 10
5.5061494431
 20
3.518723008
 30
0.0
 10
5.5059205074
 20
3.5185225321
 30
0.0
 10
5.5057564898
 20
3.5183026519
 30
0.0
 10
5.5057565101
 20
3.5181269913
 30
0.0
  0
SPLINE
  5
29A
100
AcDbEntity
  8
0
100
AcDbSpline
 62
7
  6
CONTINUOUS
 70
0
 71
3
 72
32
 73
28
 74
0
 42
0.0000001
 43
0.0000001
 44
0.0000000001
 40
0.0
 40
0.0
 40
0.0
 40
0.0
 40
0.0194371723
 40
0.042239291
 40
0.0971391137
 40
0.1629771453
 40
0.2377623508
 40
0.3193036062
 40
0.4051803053
 40
0.4929286482
 40
0.580068384
 40
0.6641954034
 40
0.7429804127
 40
0.8142780763
 40
0.8760849367
 40
0.9028878487
 40
0.9266872154
 40
0.9473032363
 40
0.9646107628
 40
0.9719908676
 40
0.9785062872
 40
0.9841486906
 40
0.9889158085
 40
0.9928213657
 40
0.9958999795
 40
0.9982298107
 40
1.0
 40
1.0
 40
1.0
 40
1.0
 10
5.6550347219
 20
3.525011841
 30
0.0
 10
5.6547434935
 20
3.525011841
 30
0.0
 10
5.654110619
 20
3.5249997592
 30
0.0
 10
5.6526564676
 20
3.5249365433
 30
0.0
 10
5.6505109878
 20
3.5247816997
 30
0.0
 10
5.6475946386
 20
3.5245025295
 30
0.0
 10
5.6442871299
 20
3.5241260725
 30
0.0
 10
5.6406878054
 20
3.5236624901
 30
0.0
 10
5.6369026294
 20
3.5231240675
 30
0.0
 10
5.6330415947
 20
3.5225255033
 30
0.0
 10
5.6292142377
 20
3.5218827913
 30
0.0
 10
5.625527786
 20
3.5212138228
 30
0.0
 10
5.6220844178
 20
3.520536609
 30
0.0
 10
5.6189800745
 20
3.5198709293
 30
0.0
 10
5.6166483805
 20
3.5193186378
 30
0.0
 10
5.6150189087
 20
3.5188923722
 30
0.0
 10
5.6139917341
 20
3.5186030044
 30
0.0
 10
5.6131078489
 20
3.5183306577
 30
0.0
 10
5.6124657185
 20
3.518109951
 30
0.0
 10
5.6120295849
 20
3.5179413894
 30
0.0
 10
5.6117598718
 20
3.5178274408
 30
0.0
 10
5.6115303228
 20
3.5177194588
 30
0.0
 10
5.6113414079
 20
3.5176176025
 30
0.0
 10
5.6111930904
 20
3.5175222483
 30
0.0
 10
5.6110851828
 20
3.5174329691
 30
0.0
 10
5.6110158568
 20
3.5173495417
 30
0.0
 10
5.6109955112
 20
3.5172885649
 30
0.0
 10
5.6109954665
 20
3.5172620421
 30
0.0
  0
SPLINE
  5
29B
100
AcDbEntity
  8
0
100
AcDbSpline
 62
7
  6
CONTINUOUS
 70
0
 71
3
 72
49
 73
45
 74
0
 42
0.0000001
 43
0.0000001
 44
0.0000000001
 40
0.0
 40
0.0
 40
0.0
 40
0.0
 40
0.0017699186
 40
0.0047186133
 40
0.0088352713
 40
0.0141074056
 40
0.0205220778
 40
0.0280661773
 40
0.0464782438
 40
0.0691398429
 40
0.0958080038
 40
0.1262359867
 40
0.1601215017
 40
0.1971176208
 40
0.2368757488
 40
0.3231612635
 40
0.4157613827
 40
0.5113280445
 40
0.6064410351
 40
0.6527689059
 40
0.6977164173
 40
0.7408783306
 40
0.781866194
 40
0.8202924558
 40
0.8557879142
 40
0.8880266621
 40
0.9166890495
 40
0.9295805769
 40
0.9414696297
 40
0.9523299075
 40
0.9621351301
 40
0.9708590345
 40
0.9784753864
 40
0.9849581888
 40
0.9902894092
 40
0.9925208629
 40
0.9944618291
 40
0.9961115791
 40
0.997469474
 40
0.9985350644
 40
0.9993083779
 40
0.9997910819
 40
0.999926506
 40
1.0
 40
1.0
 40
1.0
 40
1.0
 10
5.6999919361
 20
3.525011841
 30
0.0
 10
5.6999643902
 20
3.525011841
 30
0.0
 10
5.6998910687
 20
3.5250059873
 30
0.0
 10
5.6997543461
 20
3.5249918883
 30
0.0
 10
5.6995637303
 20
3.524968456
 30
0.0
 10
5.699319899
 20
3.524936286
 30
0.0
 10
5.6990234408
 20
3.5248951096
 30
0.0
 10
5.6985247601
 20
3.5248234816
 30
0.0
 10
5.697776393
 20
3.5247117445
 30
0.0
 10
5.6967343413
 20
3.524551555
 30
0.0
 10
5.69550807
 20
3.5243589708
 30
0.0
 10
5.6941097992
 20
3.5241357095
 30
0.0
 10
5.692553339
 20
3.5238837587
 30
0.0
 10
5.6908540586
 20
3.523605397
 30
0.0
 10
5.6883507069
 20
3.523190811
 30
0.0
 10
5.6849949933
 20
3.5226264429
 30
0.0
 10
5.6807849115
 20
3.5219052267
 30
0.0
 10
5.6764416578
 20
3.5211478457
 30
0.0
 10
5.6728098157
 20
3.5205030114
 30
0.0
 10
5.6699548659
 20
3.5199891114
 30
0.0
 10
5.6678962769
 20
3.5196150448
 30
0.0
 10
5.6659200786
 20
3.5192524348
 30
0.0
 10
5.6640443178
 20
3.5189048258
 30
0.0
 10
5.6622864955
 20
3.5185756284
 30
0.0
 10
5.6606631503
 20
3.5182681072
 30
0.0
 10
5.659189752
 20
3.5179854945
 30
0.0
 10
5.6580624203
 20
3.51776619
 30
0.0
 10
5.6572463759
 20
3.5176053019
 30
0.0
 10
5.6567023607
 20
3.5174969917
 30
0.0
 10
5.6562056673
 20
3.5173969962
 30
0.0
 10
5.6557574952
 20
3.5173055879
 30
0.0
 10
5.6553590432
 20
3.5172230411
 30
0.0
 10
5.6550115055
 20
3.5171496378
 30
0.0
 10
5.654715954
 20
3.5170856261
 30
0.0
 10
5.6545026419
 20
3.5170378475
 30
0.0
 10
5.6543585923
 20
3.5170042698
 30
0.0
 10
5.6542704992
 20
3.5169830632
 30
0.0
 10
5.654195784
 20
3.5169643195
 30
0.0
 10
5.654134539
 20
3.516948073
 30
0.0
 10
5.6540866272
 20
3.5169343335
 30
0.0
 10
5.654052434
 20
3.5169232415
 30
0.0
 10
5.6540319309
 20
3.5169151884
 30
0.0
 10
5.6540229092
 20
3.5169098629
 30
0.0
 10
5.6540204122
 20
3.5169071914
 30
0.0
 10
5.6540203472
 20
3.5169060494
 30
0.0
  0
LINE
  5
29C
100
AcDbEntity
  8
0
100
AcDbLine
 62
7
  6
CONTINUOUS
 10
4.8159566427
 20
3.4693435632
 11
4.8154552346
 21
3.4692604087
  0
SPLINE
  5
29D
100
AcDbEntity
  8
0
100
AcDbSpline
 62
7
  6
CONTINUOUS
 70
0
 71
3
 72
19
 73
15
 74
0
 42
0.0000001
 43
0.0000001
 44
0.0000000001
 40
0.0
 40
0.0
 40
0.0
 40
0.0
 40
0.215587078
 40
0.407246481
 40
0.5730248559
 40
0.7111929821
 40
0.7697047565
 40
0.8211786772
 40
0.8656875623
 40
0.9033951589
 40
0.9346343534
 40
0.9600832923
 40
0.981096285
 40
1.0
 40
1.0
 40
1.0
 40
1.0
 10
4.9084804313
 20
3.4693435632
 30
0.0
 10
4.9079954889
 20
3.4693435632
 30
0.0
 10
4.9070793759
 20
3.4693336511
 30
0.0
 10
4.9057911472
 20
3.4692839237
 30
0.0
 10
4.9046791665
 20
3.4692010295
 30
0.0
 10
4.9038694509
 20
3.4691004624
 30
0.0
 10
4.903320377
 20
3.4689990349
 30
0.0
 10
4.9029819256
 20
3.4689194077
 30
0.0
 10
4.9026938447
 20
3.4688322274
 30
0.0
 10
4.9024563683
 20
3.468737632
 30
0.0
 10
4.9022693599
 20
3.4686355244
 30
0.0
 10
4.9021323634
 20
3.4685248063
 30
0.0
 10
4.9020457829
 20
3.4684025985
 30
0.0
 10
4.902026061
 20
3.4683118382
 30
0.0
 10
4.902026079
 20
3.4682693161
 30
0.0
  0
SPLINE
  5
29E
100
AcDbEntity
  8
0
100
AcDbSpline
 62
7
  6
CONTINUOUS
 70
0
 71
3
 72
23
 73
19
 74
0
 42
0.0000001
 43
0.0000001
 44
0.0000000001
 40
0.0
 40
0.0
 40
0.0
 40
0.0
 40
0.1994363755
 40
0.38540687
 40
0.4714546652
 40
0.5521444501
 40
0.6270049186
 40
0.6955793291
 40
0.7575000168
 40
0.8124949248
 40
0.8603365307
 40
0.9008864804
 40
0.9342716699
 40
0.9609623146
 40
0.9721247442
 40
0.9821078293
 40
0.9912503397
 40
1.0
 40
1.0
 40
1.0
 40
1.0
 10
5.0791573323
 20
3.4693435632
 30
0.0
 10
5.0779496055
 20
3.4693435632
 30
0.0
 10
5.0756155613
 20
3.4693111837
 30
0.0
 10
5.0727628052
 20
3.4691836558
 30
0.0
 10
5.07063259
 20
3.469026146
 30
0.0
 10
5.0691760422
 20
3.4688870695
 30
0.0
 10
5.0678283538
 20
3.4687250859
 30
0.0
 10
5.0665982666
 20
3.4685410377
 30
0.0
 10
5.0654935643
 20
3.468336151
 30
0.0
 10
5.0645209115
 20
3.4681121167
 30
0.0
 10
5.0636863074
 20
3.467870663
 30
0.0
 10
5.0629942486
 20
3.4676127735
 30
0.0
 10
5.0624479798
 20
3.4673401784
 30
0.0
 10
5.0620939713
 20
3.4670871694
 30
0.0
 10
5.061896766
 20
3.4668735409
 30
0.0
 10
5.0617962158
 20
3.4667188213
 30
0.0
 10
5.0617352119
 20
3.4665599285
 30
0.0
 10
5.0617217493
 20
3.4664511013
 30
0.0
 10
5.0617218224
 20
3.466398116
 30
0.0
  0
SPLINE
  5
29F
100
AcDbEntity
  8
0
100
AcDbSpline
 62
7
  6
CONTINUOUS
 70
0
 71
3
 72
27
 73
23
 74
0
 42
0.0000001
 43
0.0000001
 44
0.0000000001
 40
0.0
 40
0.0
 40
0.0
 40
0.0
 40
0.1715090534
 40
0.3463599504
 40
0.4318494014
 40
0.5145205083
 40
0.5932935833
 40
0.667124064
 40
0.7350357718
 40
0.7962455907
 40
0.8500343006
 40
0.873964461
 40
0.8958556262
 40
0.9156731272
 40
0.9333940268
 40
0.9490145427
 40
0.9560492539
 40
0.9625800048
 40
0.9741890119
 40
0.9840370379
 40
0.9924574267
 40
1.0
 40
1.0
 40
1.0
 40
1.0
 10
5.2761179854
 20
3.4693435632
 30
0.0
 10
5.2743355992
 20
3.4693435632
 30
0.0
 10
5.2707358548
 20
3.4692683096
 30
0.0
 10
5.26625425
 20
3.4690106555
 30
0.0
 10
5.2627025951
 20
3.4687035135
 30
0.0
 10
5.2601507725
 20
3.4684301395
 30
0.0
 10
5.2577257627
 20
3.4681159225
 30
0.0
 10
5.2554608161
 20
3.4677651616
 30
0.0
 10
5.2533864444
 20
3.4673816752
 30
0.0
 10
5.2515299707
 20
3.4669713355
 30
0.0
 10
5.2501343962
 20
3.4665984472
 30
0.0
 10
5.2491474431
 20
3.466285577
 30
0.0
 10
5.2485046711
 20
3.4660566941
 30
0.0
 10
5.2479318645
 20
3.4658251267
 30
0.0
 10
5.2474308776
 20
3.4655916297
 30
0.0
 10
5.247062648
 20
3.4653894894
 30
0.0
 10
5.2468070875
 20
3.4652258972
 30
0.0
 10
5.2465941277
 20
3.4650738113
 30
0.0
 10
5.2463716048
 20
3.4648851282
 30
0.0
 10
5.2461682343
 20
3.4646481516
 30
0.0
 10
5.2460411678
 20
3.4644086441
 30
0.0
 10
5.2460106009
 20
3.4642419107
 30
0.0
 10
5.2460105947
 20
3.4641635255
 30
0.0
  0
SPLINE
  5
2A0
100
AcDbEntity
  8
0
100
AcDbSpline
 62
7
  6
CONTINUOUS
 70
0
 71
3
 72
30
 73
26
 74
0
 42
0.0000001
 43
0.0000001
 44
0.0000000001
 40
0.0
 40
0.0
 40
0.0
 40
0.0
 40
0.0594040892
 40
0.1275617423
 40
0.202687227
 40
0.2829675269
 40
0.3665557914
 40
0.4514909583
 40
0.5357953641
 40
0.6175829594
 40
0.6950255363
 40
0.7664608439
 40
0.830327005
 40
0.8589994849
 40
0.8852969946
 40
0.9090736099
 40
0.9302075307
 40
0.9486149344
 40
0.9642289285
 40
0.9770109994
 40
0.9870011971
 40
0.9910174225
 40
0.9944482576
 40
0.9973904837
 40
1.0
 40
1.0
 40
1.0
 40
1.0
 10
5.4395052984
 20
3.4693435632
 30
0.0
 10
5.438679945
 20
3.4693435632
 30
0.0
 10
5.4369076054
 20
3.4693065256
 30
0.0
 10
5.4340945619
 20
3.4691701425
 30
0.0
 10
5.4309960295
 20
3.4689491194
 30
0.0
 10
5.4276888992
 20
3.4686488077
 30
0.0
 10
5.4242521653
 20
3.4682748164
 30
0.0
 10
5.4207667891
 20
3.467835695
 30
0.0
 10
5.4173142947
 20
3.4673398315
 30
0.0
 10
5.4139740169
 20
3.4667986216
 30
0.0
 10
5.4108210718
 20
3.4662228432
 30
0.0
 10
5.407925867
 20
3.4656258598
 30
0.0
 10
5.4057076809
 20
3.465104312
 30
0.0
 10
5.4041114492
 20
3.4646818383
 30
0.0
 10
5.4030598457
 20
3.4643795256
 30
0.0
 10
5.4021161664
 20
3.464081957
 30
0.0
 10
5.4012857942
 20
3.463790829
 30
0.0
 10
5.4005732251
 20
3.4635082643
 30
0.0
 10
5.3999819831
 20
3.4632362442
 30
0.0
 10
5.3995156115
 20
3.4629765953
 30
0.0
 10
5.3992119859
 20
3.4627579756
 30
0.0
 10
5.399040602
 20
3.4625859094
 30
0.0
 10
5.39895408
 20
3.4624695158
 30
0.0
 10
5.3989002118
 20
3.4623557958
 30
0.0
 10
5.3988868577
 20
3.462278427
 30
0.0
 10
5.398886761
 20
3.4622421709
 30
0.0
  0
SPLINE
  5
2A1
100
AcDbEntity
  8
0
100
AcDbSpline
 62
7
  6
CONTINUOUS
 70
0
 71
3
 72
40
 73
36
 74
0
 42
0.0000001
 43
0.0000001
 44
0.0000000001
 40
0.0
 40
0.0
 40
0.0
 40
0.0
 40
0.0037930077
 40
0.0086861455
 40
0.0217127007
 40
0.0389503062
 40
0.060255572
 40
0.0854174578
 40
0.1141854319
 40
0.1814929329
 40
0.2596995603
 40
0.3460082804
 40
0.4373842601
 40
0.5307100595
 40
0.6228311375
 40
0.6674745013
 40
0.7106686858
 40
0.7520405033
 40
0.7912434047
 40
0.8279401125
 40
0.8617949293
 40
0.8925063443
 40
0.9198071571
 40
0.9434320885
 40
0.9537879151
 40
0.9631423899
 40
0.9714757721
 40
0.978768551
 40
0.9850016145
 40
0.9901566031
 40
0.9942175808
 40
0.9971833157
 40
0.9990729068
 40
0.9996380413
 40
1.0
 40
1.0
 40
1.0
 40
1.0
 10
5.5196652445
 20
3.4693435632
 30
0.0
 10
5.5196064131
 20
3.4693435632
 30
0.0
 10
5.5194716988
 20
3.4693395266
 30
0.0
 10
5.5191354909
 20
3.469319749
 30
0.0
 10
5.5185922177
 20
3.4692715951
 30
0.0
 10
5.5177968766
 20
3.4691865754
 30
0.0
 10
5.5168157507
 20
3.4690692291
 30
0.0
 10
5.5156583064
 20
3.4689206516
 30
0.0
 10
5.5137947943
 20
3.4686687272
 30
0.0
 10
5.5111190423
 20
3.4682841661
 30
0.0
 10
5.5075640047
 20
3.4677448413
 30
0.0
 10
5.5036440663
 20
3.4671225151
 30
0.0
 10
5.4994967975
 20
3.4664370484
 30
0.0
 10
5.4952650849
 20
3.4657101626
 30
0.0
 10
5.4917517529
 20
3.4650831525
 30
0.0
 10
5.4890065419
 20
3.4645782699
 30
0.0
 10
5.4870368268
 20
3.4642085891
 30
0.0
 10
5.4851514619
 20
3.4638470195
 30
0.0
 10
5.4833665253
 20
3.463496938
 30
0.0
 10
5.481697511
 20
3.4631616861
 30
0.0
 10
5.4801592433
 20
3.4628444134
 30
0.0
 10
5.4787654445
 20
3.4625482652
 30
0.0
 10
5.4775287306
 20
3.4622763978
 30
0.0
 10
5.4766021822
 20
3.4620642441
 30
0.0
 10
5.4759484057
 20
3.4619081357
 30
0.0
 10
5.4755260625
 20
3.4618040705
 30
0.0
 10
5.4751506699
 20
3.4617080805
 30
0.0
 10
5.4748231416
 20
3.4616204531
 30
0.0
 10
5.4745443177
 20
3.461541498
 30
0.0
 10
5.4743151819
 20
3.4614715446
 30
0.0
 10
5.4741359828
 20
3.4614109542
 30
0.0
 10
5.4740077265
 20
3.4613600714
 30
0.0
 10
5.4739317574
 20
3.4613219381
 30
0.0
 10
5.4738980419
 20
3.4612943702
 30
0.0
 10
5.4738904674
 20
3.4612807794
 30
0.0
 10
5.4738904191
 20
3.4612751654
 30
0.0
  0
SPLINE
  5
2A2
100
AcDbEntity
  8
0
100
AcDbSpline
 62
7
  6
CONTINUOUS
 70
0
 71
3
 72
25
 73
21
 74
0
 42
0.0000001
 43
0.0000001
 44
0.0000000001
 40
0.0
 40
0.0
 40
0.0
 40
0.0
 40
0.0077323554
 40
0.0162571857
 40
0.0261096026
 40
0.0376334308
 40
0.0510360821
 40
0.0664233505
 40
0.083838412
 40
0.1032930063
 40
0.1482715152
 40
0.2011369153
 40
0.2613749603
 40
0.3283784345
 40
0.4014274038
 40
0.4796181628
 40
0.5620142366
 40
0.6476222036
 40
0.8242336789
 40
1.0
 40
1.0
 40
1.0
 40
1.0
 10
5.1077212456
 20
3.4644402536
 30
0.0
 10
5.1077211462
 20
3.4645165633
 30
0.0
 10
5.1076933505
 20
3.4646777828
 30
0.0
 10
5.1075764166
 20
3.4649103974
 30
0.0
 10
5.1073881962
 20
3.4651399324
 30
0.0
 10
5.1071299294
 20
3.4653675963
 30
0.0
 10
5.1068018366
 20
3.4655938416
 30
0.0
 10
5.1064045904
 20
3.4658186305
 30
0.0
 10
5.1059392237
 20
3.4660416127
 30
0.0
 10
5.1051926369
 20
3.466350746
 30
0.0
 10
5.1040943319
 20
3.4667203554
 30
0.0
 10
5.102587856
 20
3.4671280551
 30
0.0
 10
5.1008523589
 20
3.4675143095
 30
0.0
 10
5.0989083478
 20
3.4678738745
 30
0.0
 10
5.0967793861
 20
3.4682019334
 30
0.0
 10
5.0944921796
 20
3.4684952569
 30
0.0
 10
5.0920756837
 20
3.4687497513
 30
0.0
 10
5.0886865951
 20
3.4690361714
 30
0.0
 10
5.0843697629
 20
3.4692753076
 30
0.0
 10
5.0808919492
 20
3.4693435632
 30
0.0
 10
5.0791573323
 20
3.4693435632
 30
0.0
  0
SPLINE
  5
2A3
100
AcDbEntity
  8
0
100
AcDbSpline
 62
7
  6
CONTINUOUS
 70
0
 71
3
 72
28
 73
24
 74
0
 42
0.0000001
 43
0.0000001
 44
0.0000000001
 40
0.0
 40
0.0
 40
0.0
 40
0.0
 40
0.0131079373
 40
0.0177653317
 40
0.0230627872
 40
0.0356418017
 40
0.0509129462
 40
0.0688677982
 40
0.0894659654
 40
0.1126278086
 40
0.1382385555
 40
0.1661759471
 40
0.2285097904
 40
0.2983993807
 40
0.3744348834
 40
0.4550724575
 40
0.5386212924
 40
0.6233188283
 40
0.7072994166
 40
0.7887204975
 40
0.8658180327
 40
0.9368355598
 40
1.0
 40
1.0
 40
1.0
 40
1.0
 10
4.9480244383
 20
3.462441578
 30
0.0
 10
4.9480243781
 20
3.4626190522
 30
0.0
 10
4.9478582366
 20
3.4628410072
 30
0.0
 10
4.9476267841
 20
3.4630435044
 30
0.0
 10
4.9473802862
 20
3.4632259429
 30
0.0
 10
4.9469939853
 20
3.4634548089
 30
0.0
 10
4.9464360326
 20
3.463727078
 30
0.0
 10
4.9457631634
 20
3.4640075733
 30
0.0
 10
4.9449782746
 20
3.464294856
 30
0.0
 10
4.9440854971
 20
3.464587066
 30
0.0
 10
4.9430897517
 20
3.4648827574
 30
0.0
 10
4.9415756623
 20
3.4652945525
 30
0.0
 10
4.9394663617
 20
3.4657998607
 30
0.0
 10
4.9367056936
 20
3.4663753216
 30
0.0
 10
4.9336879668
 20
3.4669273787
 30
0.0
 10
4.9304766675
 20
3.4674445947
 30
0.0
 10
4.927139968
 20
3.4679167799
 30
0.0
 10
4.9237503485
 20
3.4683339277
 30
0.0
 10
4.920382567
 20
3.4686883926
 30
0.0
 10
4.9171113886
 20
3.4689724817
 30
0.0
 10
4.9140103756
 20
3.4691811526
 30
0.0
 10
4.9111524195
 20
3.4693095557
 30
0.0
 10
4.9093356426
 20
3.4693435632
 30
0.0
 10
4.9084804313
 20
3.4693435632
 30
0.0
  0
SPLINE
  5
2A4
100
AcDbEntity
  8
0
100
AcDbSpline
 62
7
  6
CONTINUOUS
 70
0
 71
3
 72
36
 73
32
 74
0
 42
0.0000001
 43
0.0000001
 44
0.0000000001
 40
0.0
 40
0.0
 40
0.0
 40
0.0
 40
0.0011243916
 40
0.0019939036
 40
0.0031031752
 40
0.0060785812
 40
0.0100832791
 40
0.0151165598
 40
0.0211698136
 40
0.0362867606
 40
0.0553230609
 40
0.0781082352
 40
0.1044208711
 40
0.1340359018
 40
0.1667114826
 40
0.202157097
 40
0.2400727903
 40
0.2801564701
 40
0.3655009183
 40
0.455441357
 40
0.5471077356
 40
0.6375480409
 40
0.7238132146
 40
0.8030153855
 40
0.8724453056
 40
0.9027205604
 40
0.9296872296
 40
0.953091369
 40
0.9727177377
 40
0.9884046182
 40
1.0
 40
1.0
 40
1.0
 40
1.0
 10
4.8614528297
 20
3.4613278519
 30
0.0
 10
4.8614529945
 20
3.4613452004
 30
0.0
 10
4.8614322134
 20
3.4613732361
 30
0.0
 10
4.8613961889
 20
3.4614031801
 30
0.0
 10
4.8613318188
 20
3.4614455403
 30
0.0
 10
4.8612201353
 20
3.4615011811
 30
0.0
 10
4.8610488994
 20
3.4615726112
 30
0.0
 10
4.8608301389
 20
3.4616524547
 30
0.0
 10
4.860446341
 20
3.46177979
 30
0.0
 10
4.8598511627
 20
3.4619552879
 30
0.0
 10
4.8590026312
 20
3.4621831494
 30
0.0
 10
4.8579826855
 20
3.4624381743
 30
0.0
 10
4.8568007547
 20
3.4627177777
 30
0.0
 10
4.8554671764
 20
3.4630189255
 30
0.0
 10
4.8539933726
 20
3.4633385937
 30
0.0
 10
4.8523919552
 20
3.4636739223
 30
0.0
 10
4.850676428
 20
3.4640218507
 30
0.0
 10
4.8482034692
 20
3.4645084993
 30
0.0
 10
4.8449378313
 20
3.4651241899
 30
0.0
 10
4.8408832605
 20
3.4658503057
 30
0.0
 10
4.8367451987
 20
3.4665554047
 30
0.0
 10
4.8326574744
 20
3.4672174608
 30
0.0
 10
4.8287545384
 20
3.467816729
 30
0.0
 10
4.8251672696
 20
3.4683347881
 30
0.0
 10
4.8224311671
 20
3.4687016991
 30
0.0
 10
4.8204913257
 20
3.4689410133
 30
0.0
 10
4.8192550941
 20
3.4690831853
 30
0.0
 10
4.8181808682
 20
3.4691953339
 30
0.0
 10
4.817278472
 20
3.4692768325
 30
0.0
 10
4.8165564275
 20
3.4693272003
 30
0.0
 10
4.816135558
 20
3.4693435632
 30
0.0
 10
4.8159566427
 20
3.4693435632
 30
0.0
  0
SPLINE
  5
2A5
100
AcDbEntity
  8
0
100
AcDbSpline
 62
7
  6
CONTINUOUS
 70
0
 71
3
 72
17
 73
13
 74
0
 42
0.0000001
 43
0.0000001
 44
0.0000000001
 40
0.0
 40
0.0
 40
0.0
 40
0.0
 40
0.0196491142
 40
0.0409909506
 40
0.0663333227
 40
0.0971140901
 40
0.1777548073
 40
0.2858831947
 40
0.4222132434
 40
0.5868208219
 40
0.7795200452
 40
1.0
 40
1.0
 40
1.0
 40
1.0
 10
5.6569955561
 20
3.5246803936
 30
0.0
 10
5.6569955804
 20
3.5246938543
 30
0.0
 10
5.6569899749
 20
3.5247222516
 30
0.0
 10
5.6569645023
 20
3.5247608807
 30
0.0
 10
5.6569238479
 20
3.5247956924
 30
0.0
 10
5.656842176
 20
3.5248423278
 30
0.0
 10
5.656698404
 20
3.5248899722
 30
0.0
 10
5.6564800706
 20
3.5249343392
 30
0.0
 10
5.6562017428
 20
3.5249690908
 30
0.0
 10
5.6558644342
 20
3.5249940831
 30
0.0
 10
5.655468826
 20
3.5250089652
 30
0.0
 10
5.6551857622
 20
3.525011841
 30
0.0
 10
5.6550347219
 20
3.525011841
 30
0.0
  0
SPLINE
  5
2A6
100
AcDbEntity
  8
0
100
AcDbSpline
 62
7
  6
CONTINUOUS
 70
0
 71
3
 72
19
 73
15
 74
0
 42
0.0000001
 43
0.0000001
 44
0.0000000001
 40
0.0
 40
0.0
 40
0.0
 40
0.0
 40
0.0191708315
 40
0.0404182365
 40
0.0660477971
 40
0.0974212196
 40
0.1352336475
 40
0.1798212962
 40
0.2313478851
 40
0.2898842212
 40
0.4280046865
 40
0.5936233961
 40
0.7849657081
 40
1.0
 40
1.0
 40
1.0
 40
1.0
 10
5.5517548283
 20
3.5238762667
 30
0.0
 10
5.5517548232
 20
3.5239210018
 30
0.0
 10
5.5517343888
 20
3.524016308
 30
0.0
 10
5.5516446805
 20
3.5241450804
 30
0.0
 10
5.5515025605
 20
3.5242619981
 30
0.0
 10
5.5513085156
 20
3.5243699038
 30
0.0
 10
5.5510620996
 20
3.524469904
 30
0.0
 10
5.5507632111
 20
3.524562132
 30
0.0
 10
5.5504121279
 20
3.5246464256
 30
0.0
 10
5.5498428605
 20
3.524753841
 30
0.0
 10
5.5490035737
 20
3.5248605156
 30
0.0
 10
5.547851383
 20
3.5249484776
 30
0.0
 10
5.5465174346
 20
3.525001291
 30
0.0
 10
5.5455690987
 20
3.525011841
 30
0.0
 10
5.5450673161
 20
3.525011841
 30
0.0
  0
SPLINE
  5
2A7
100
AcDbEntity
  8
0
100
AcDbSpline
 62
7
  6
CONTINUOUS
 70
0
 71
3
 72
21
 73
17
 74
0
 42
0.0000001
 43
0.0000001
 44
0.0000000001
 40
0.0
 40
0.0
 40
0.0
 40
0.0
 40
0.0091006396
 40
0.0184992753
 40
0.0396781978
 40
0.0659820062
 40
0.0986334596
 40
0.1381364743
 40
0.184666242
 40
0.2382475051
 40
0.2988188042
 40
0.3661909858
 40
0.4400940644
 40
0.6063105861
 40
0.7944636861
 40
1.0
 40
1.0
 40
1.0
 40
1.0
 10
5.3982800421
 20
3.5226912192
 30
0.0
 10
5.3982800009
 20
3.5227342476
 30
0.0
 10
5.398269871
 20
3.5228220249
 30
0.0
 10
5.3982066521
 20
3.5230001459
 30
0.0
 10
5.398039529
 20
3.523218261
 30
0.0
 10
5.3977359546
 20
3.5234487233
 30
0.0
 10
5.3973223075
 20
3.5236654863
 30
0.0
 10
5.3967985484
 20
3.5238689755
 30
0.0
 10
5.396165829
 20
3.5240588996
 30
0.0
 10
5.3954262492
 20
3.5242340991
 30
0.0
 10
5.3945826549
 20
3.5243933702
 30
0.0
 10
5.3936388553
 20
3.5245360011
 30
0.0
 10
5.3921952787
 20
3.5247099067
 30
0.0
 10
5.390176235
 20
3.5248734729
 30
0.0
 10
5.3875310175
 20
3.5249878172
 30
0.0
 10
5.3856694835
 20
3.525011841
 30
0.0
 10
5.384697695
 20
3.525011841
 30
0.0
  0
SPLINE
  5
2A8
100
AcDbEntity
  8
0
100
AcDbSpline
 62
7
  6
CONTINUOUS
 70
0
 71
3
 72
24
 73
20
 74
0
 42
0.0000001
 43
0.0000001
 44
0.0000000001
 40
0.0
 40
0.0
 40
0.0
 40
0.0
 40
0.0084369622
 40
0.0173999486
 40
0.0273562292
 40
0.0386457424
 40
0.0514990572
 40
0.0660687352
 40
0.1006501503
 40
0.1426883629
 40
0.1921695066
 40
0.2489302723
 40
0.3125835466
 40
0.3826477593
 40
0.4586142176
 40
0.5398835725
 40
0.6257817685
 40
0.8086083231
 40
1.0
 40
1.0
 40
1.0
 40
1.0
 10
5.2169571513
 20
3.5212711195
 30
0.0
 10
5.2169570674
 20
3.5213347127
 30
0.0
 10
5.2169386641
 20
3.5214664272
 30
0.0
 10
5.2168583468
 20
3.5216583061
 30
0.0
 10
5.2167273732
 20
3.5218462207
 30
0.0
 10
5.2165469457
 20
3.5220305067
 30
0.0
 10
5.2163174194
 20
3.5222116693
 30
0.0
 10
5.2159229678
 20
3.5224634266
 30
0.0
 10
5.2153012901
 20
3.5227615689
 30
0.0
 10
5.2144076595
 20
3.5230876398
 30
0.0
 10
5.2133327449
 20
3.5233965097
 30
0.0
 10
5.2120846252
 20
3.5236848772
 30
0.0
 10
5.2106733865
 20
3.5239506541
 30
0.0
 10
5.2091111079
 20
3.5241914334
 30
0.0
 10
5.2074109587
 20
3.5244045843
 30
0.0
 10
5.2055874177
 20
3.5245882916
 30
0.0
 10
5.2029574018
 20
3.5247963866
 30
0.0
 10
5.1994926709
 20
3.5249668462
 30
0.0
 10
5.1966718288
 20
3.525011841
 30
0.0
 10
5.1952292225
 20
3.525011841
 30
0.0
  0
SPLINE
  5
2A9
100
AcDbEntity
  8
0
100
AcDbSpline
 62
7
  6
CONTINUOUS
 70
0
 71
3
 72
27
 73
23
 74
0
 42
0.0000001
 43
0.0000001
 44
0.0000000001
 40
0.0
 40
0.0
 40
0.0
 40
0.0
 40
0.0075121106
 40
0.0159109586
 40
0.0257444368
 40
0.0373439862
 40
0.0438714929
 40
0.0509038415
 40
0.0665211684
 40
0.0842377235
 40
0.1040493796
 40
0.1259334572
 40
0.1498557564
 40
0.2036260844
 40
0.264809087
 40
0.3326918147
 40
0.4064947299
 40
0.485243578
 40
0.6533848491
 40
0.7405773464
 40
0.8283144254
 40
1.0
 40
1.0
 40
1.0
 40
1.0
 10
5.031873179
 20
3.5197982075
 30
0.0
 10
5.0318731499
 20
3.5198761234
 30
0.0
 10
5.0318425816
 20
3.5200419707
 30
0.0
 10
5.0317158659
 20
3.5202802619
 30
0.0
 10
5.0315131192
 20
3.5205163267
 30
0.0
 10
5.0312912912
 20
3.5207044969
 30
0.0
 10
5.0310789629
 20
3.5208563158
 30
0.0
 10
5.0308241102
 20
3.5210197412
 30
0.0
 10
5.0304569247
 20
3.5212218499
 30
0.0
 10
5.0299574187
 20
3.5214556246
 30
0.0
 10
5.0293863336
 20
3.521687738
 30
0.0
 10
5.0287454979
 20
3.5219174265
 30
0.0
 10
5.0277614963
 20
3.5222317472
 30
0.0
 10
5.0263700677
 20
3.5226070346
 30
0.0
 10
5.0245189936
 20
3.5230209731
 30
0.0
 10
5.0224504614
 20
3.5234085498
 30
0.0
 10
5.0201915829
 20
3.5237637423
 30
0.0
 10
5.0168935729
 20
3.5241982031
 30
0.0
 10
5.0134435532
 20
3.5245339436
 30
0.0
 10
5.0098934045
 20
3.5247775589
 30
0.0
 10
5.0063025049
 20
3.5249544129
 30
0.0
 10
5.0036114581
 20
3.525011841
 30
0.0
 10
5.0018307286
 20
3.525011841
 30
0.0
  0
SPLINE
  5
2AA
100
AcDbEntity
  8
0
100
AcDbSpline
 62
7
  6
CONTINUOUS
 70
0
 71
3
 72
29
 73
25
 74
0
 42
0.0000001
 43
0.0000001
 44
0.0000000001
 40
0.0
 40
0.0
 40
0.0
 40
0.0
 40
0.0030203232
 40
0.0062847075
 40
0.0099252637
 40
0.014034246
 40
0.0238718742
 40
0.0360879175
 40
0.0507927447
 40
0.0680191706
 40
0.0877328493
 40
0.1098677749
 40
0.1610779891
 40
0.2208692663
 40
0.2881764766
 40
0.3618389484
 40
0.44049458
 40
0.5227006972
 40
0.6068874501
 40
0.691400296
 40
0.7746020073
 40
0.8548800926
 40
0.9305883768
 40
1.0
 40
1.0
 40
1.0
 40
1.0
 10
4.8676141569
 20
3.5184703492
 30
0.0
 10
4.8676142418
 20
3.5185091393
 30
0.0
 10
4.8676039216
 20
3.5185901338
 30
0.0
 10
4.8675593313
 20
3.5187104518
 30
0.0
 10
4.8674864531
 20
3.5188324241
 30
0.0
 10
4.8673435154
 20
3.5190080762
 30
0.0
 10
4.8670881083
 20
3.5192296083
 30
0.0
 10
4.8666927735
 20
3.5194888425
 30
0.0
 10
4.8661915557
 20
3.5197552701
 30
0.0
 10
4.8655863005
 20
3.5200273471
 30
0.0
 10
4.8648795831
 20
3.5203040292
 30
0.0
 10
4.8637504578
 20
3.5206964768
 30
0.0
 10
4.8621093304
 20
3.5211796982
 30
0.0
 10
4.8598863911
 20
3.5217317557
 30
0.0
 10
4.8573644882
 20
3.5222704043
 30
0.0
 10
4.8545907269
 20
3.5227841723
 30
0.0
 10
4.851616978
 20
3.5232642088
 30
0.0
 10
4.8485000058
 20
3.5237006466
 30
0.0
 10
4.8453005069
 20
3.5240856838
 30
0.0
 10
4.8420816361
 20
3.5244120065
 30
0.0
 10
4.8389071905
 20
3.5246731977
 30
0.0
 10
4.8358410273
 20
3.5248645712
 30
0.0
 10
4.8329483848
 20
3.5249818961
 30
0.0
 10
4.8310845607
 20
3.525011841
 30
0.0
 10
4.8301931045
 20
3.525011841
 30
0.0
  0
SPLINE
  5
2AB
100
AcDbEntity
  8
0
100
AcDbSpline
 62
7
  6
CONTINUOUS
 70
0
 71
3
 72
32
 73
28
 74
0
 42
0.0000001
 43
0.0000001
 44
0.0000000001
 40
0.0
 40
0.0
 40
0.0
 40
0.0
 40
0.0045873107
 40
0.0077818989
 40
0.0117083482
 40
0.0164074521
 40
0.0218975113
 40
0.0281853854
 40
0.0352716443
 40
0.0518231789
 40
0.0714940618
 40
0.094157389
 40
0.1196644591
 40
0.1478614894
 40
0.1785794208
 40
0.2467473453
 40
0.322457749
 40
0.4038076538
 40
0.4887490115
 40
0.575118949
 40
0.6606794598
 40
0.7431682092
 40
0.8203366528
 40
0.8901282575
 40
0.9506060028
 40
0.9767950989
 40
1.0
 40
1.0
 40
1.0
 40
1.0
 10
4.7460008675
 20
3.5174741176
 30
0.0
 10
4.7460009127
 20
3.5175411771
 30
0.0
 10
4.7459411964
 20
3.5176506079
 30
0.0
 10
4.7458214852
 20
3.5177705623
 30
0.0
 10
4.7456843049
 20
3.5178772797
 30
0.0
 10
4.7455104097
 20
3.5179883042
 30
0.0
 10
4.7452993357
 20
3.5181047536
 30
0.0
 10
4.7450515785
 20
3.5182259836
 30
0.0
 10
4.7446514985
 20
3.5184031648
 30
0.0
 10
4.7440608577
 20
3.5186319932
 30
0.0
 10
4.7432460241
 20
3.5189100227
 30
0.0
 10
4.742298059
 20
3.5192018219
 30
0.0
 10
4.7412236186
 20
3.5195052106
 30
0.0
 10
4.7400297014
 20
3.5198179003
 30
0.0
 10
4.7382251611
 20
3.5202596345
 30
0.0
 10
4.7357336803
 20
3.5208149183
 30
0.0
 10
4.732505507
 20
3.5214634592
 30
0.0
 10
4.7290251485
 20
3.5220987393
 30
0.0
 10
4.7253814664
 20
3.5227043093
 30
0.0
 10
4.7216683924
 20
3.5232652556
 30
0.0
 10
4.7179830535
 20
3.5237671243
 30
0.0
 10
4.7144241655
 20
3.5241977703
 30
0.0
 10
4.711087937
 20
3.5245461732
 30
0.0
 10
4.7080663025
 20
3.5248039476
 30
0.0
 10
4.7057830617
 20
3.5249442887
 30
0.0
 10
4.7041778397
 20
3.5250012813
 30
0.0
 10
4.7034557658
 20
3.525011841
 30
0.0
 10
4.7031165456
 20
3.525011841
 30
0.0
  0
SPLINE
  5
2AC
100
AcDbEntity
  8
0
100
AcDbSpline
 62
7
  6
CONTINUOUS
 70
0
 71
3
 72
39
 73
35
 74
0
 42
0.0000001
 43
0.0000001
 44
0.0000000001
 40
0.0
 40
0.0
 40
0.0
 40
0.0
 40
0.0003910115
 40
0.0009726335
 40
0.0028704492
 40
0.0058239589
 40
0.0098566388
 40
0.0149645585
 40
0.0211333202
 40
0.0283465292
 40
0.0365868609
 40
0.0560771661
 40
0.0794383751
 40
0.1064332823
 40
0.1368093107
 40
0.1703092679
 40
0.2066328192
 40
0.2454539626
 40
0.2864460492
 40
0.3292677924
 40
0.373553061
 40
0.4650375097
 40
0.5578815369
 40
0.6489918339
 40
0.7353037521
 40
0.8138277624
 40
0.8817912894
 40
0.9110201568
 40
0.9367305274
 40
0.958669748
 40
0.9766249512
 40
0.9904469713
 40
0.9957650489
 40
1.0
 40
1.0
 40
1.0
 40
1.0
 10
4.6831864536
 20
3.5169553215
 30
0.0
 10
4.6831864438
 20
3.5169613779
 30
0.0
 10
4.6831794437
 20
3.5169759251
 30
0.0
 10
4.6831463877
 20
3.5170057621
 30
0.0
 10
4.6830714288
 20
3.517045984
 30
0.0
 10
4.6829447222
 20
3.5170989727
 30
0.0
 10
4.6827678113
 20
3.5171612247
 30
0.0
 10
4.6825416983
 20
3.5172325294
 30
0.0
 10
4.6822666475
 20
3.5173124589
 30
0.0
 10
4.6819435793
 20
3.5174007294
 30
0.0
 10
4.6814197415
 20
3.5175369419
 30
0.0
 10
4.6806509237
 20
3.5177246344
 30
0.0
 10
4.6795967699
 20
3.5179679338
 30
0.0
 10
4.6783757324
 20
3.5182376565
 30
0.0
 10
4.6769991415
 20
3.5185310378
 30
0.0
 10
4.6754792514
 20
3.5188450858
 30
0.0
 10
4.6738294873
 20
3.5191768925
 30
0.0
 10
4.6720643365
 20
3.5195234259
 30
0.0
 10
4.6701988965
 20
3.5198814942
 30
0.0
 10
4.6682488969
 20
3.5202479159
 30
0.0
 10
4.6655284596
 20
3.5207490117
 30
0.0
 10
4.6620427403
 20
3.5213723759
 30
0.0
 10
4.6578383862
 20
3.5220966946
 30
0.0
 10
4.6537086052
 20
3.5227814966
 30
0.0
 10
4.6497935475
 20
3.523404867
 30
0.0
 10
4.6462285879
 20
3.5239463877
 30
0.0
 10
4.6435344326
 20
3.5243327456
 30
0.0
 10
4.6416476895
 20
3.5245859026
 30
0.0
 10
4.6404663684
 20
3.52473568
 30
0.0
 10
4.6394571056
 20
3.5248540405
 30
0.0
 10
4.638629519
 20
3.5249398599
 30
0.0
 10
4.6380568831
 20
3.5249881559
 30
0.0
 10
4.6376953476
 20
3.5250079012
 30
0.0
 10
4.6375473888
 20
3.525011841
 30
0.0
 10
4.6374817937
 20
3.525011841
 30
0.0
  0
LINE
  5
2AD
100
AcDbEntity
  8
0
100
AcDbLine
 62
7
  6
CONTINUOUS
 10
5.8730022616
 20
3.5838963234
 11
5.8722191519
 21
3.5840303314
  0
SPLINE
  5
2AE
100
AcDbEntity
  8
0
100
AcDbSpline
 62
7
  6
CONTINUOUS
 70
0
 71
3
 72
18
 73
14
 74
0
 42
0.0000001
 43
0.0000001
 44
0.0000000001
 40
0.0
 40
0.0
 40
0.0
 40
0.0
 40
0.0197181756
 40
0.0411813187
 40
0.0666600064
 40
0.0975548801
 40
0.134660858
 40
0.1784380774
 40
0.2869281744
 40
0.4237448534
 40
0.5885940468
 40
0.7809099239
 40
1.0
 40
1.0
 40
1.0
 40
1.0
 10
5.8022233444
 20
3.583502996
 30
0.0
 10
5.8022233295
 20
3.5835242352
 30
0.0
 10
5.802214327
 20
3.583569056
 30
0.0
 10
5.8021740562
 20
3.5836300504
 30
0.0
 10
5.8021099556
 20
3.5836851697
 30
0.0
 10
5.8020224595
 20
3.5837357564
 30
0.0
 10
5.8019112044
 20
3.5837823717
 30
0.0
 10
5.8017164686
 20
3.5838437578
 30
0.0
 10
5.8014107045
 20
3.583906087
 30
0.0
 10
5.8009722737
 20
3.5839618097
 30
0.0
 10
5.8004414902
 20
3.584001771
 30
0.0
 10
5.7998211572
 20
3.5840256822
 30
0.0
 10
5.7993779834
 20
3.5840303314
 30
0.0
 10
5.7991419928
 20
3.5840303314
 30
0.0
  0
SPLINE
  5
2AF
100
AcDbEntity
  8
0
100
AcDbSpline
 62
7
  6
CONTINUOUS
 70
0
 71
3
 72
19
 73
15
 74
0
 42
0.0000001
 43
0.0000001
 44
0.0000000001
 40
0.0
 40
0.0
 40
0.0
 40
0.0
 40
0.0193172263
 40
0.0406880785
 40
0.0664079997
 40
0.0978421708
 40
0.135693901
 40
0.180303514
 40
0.2318370998
 40
0.2903667678
 40
0.4284348881
 40
0.5939597854
 40
0.7851630812
 40
1.0
 40
1.0
 40
1.0
 40
1.0
 10
5.6896287187
 20
3.5828745651
 30
0.0
 10
5.6896287078
 20
3.5829199972
 30
0.0
 10
5.6896081597
 20
3.5830166844
 30
0.0
 10
5.6895178623
 20
3.5831475726
 30
0.0
 10
5.6893746862
 20
3.5832665235
 30
0.0
 10
5.6891791814
 20
3.5833763399
 30
0.0
 10
5.6889309124
 20
3.5834781268
 30
0.0
 10
5.688629789
 20
3.5835720293
 30
0.0
 10
5.6882760954
 20
3.5836578773
 30
0.0
 10
5.6877026803
 20
3.5837672945
 30
0.0
 10
5.6868572808
 20
3.5838760248
 30
0.0
 10
5.6856967507
 20
3.583965702
 30
0.0
 10
5.6843533178
 20
3.5840195646
 30
0.0
 10
5.6833982949
 20
3.5840303314
 30
0.0
 10
5.6828930204
 20
3.5840303314
 30
0.0
  0
SPLINE
  5
2B0
100
AcDbEntity
  8
0
100
AcDbSpline
 62
7
  6
CONTINUOUS
 70
0
 71
3
 72
20
 73
16
 74
0
 42
0.0000001
 43
0.0000001
 44
0.0000000001
 40
0.0
 40
0.0
 40
0.0
 40
0.0
 40
0.0093007304
 40
0.0188490995
 40
0.0401506177
 40
0.0663419727
 40
0.098625867
 40
0.1375733491
 40
0.1834492207
 40
0.2363616603
 40
0.2962704069
 40
0.436419177
 40
0.6023622446
 40
0.7915014661
 40
1.0
 40
1.0
 40
1.0
 40
1.0
 10
5.5428940524
 20
3.5820511057
 30
0.0
 10
5.5428940973
 20
3.5820883868
 30
0.0
 10
5.5428858965
 20
3.5821642145
 30
0.0
 10
5.5428338704
 20
3.582317734
 30
0.0
 10
5.5426951127
 20
3.5825056593
 30
0.0
 10
5.5424415863
 20
3.5827038439
 30
0.0
 10
5.5420967801
 20
3.5828898606
 30
0.0
 10
5.5416600303
 20
3.5830637854
 30
0.0
 10
5.541131691
 20
3.5832255608
 30
0.0
 10
5.5405128703
 20
3.5833742171
 30
0.0
 10
5.5395165022
 20
3.5835640634
 30
0.0
 10
5.5380608001
 20
3.5837550654
 30
0.0
 10
5.5360816247
 20
3.5839145687
 30
0.0
 10
5.5338241544
 20
3.5840104321
 30
0.0
 10
5.5322301576
 20
3.5840303314
 30
0.0
 10
5.5313944099
 20
3.5840303314
 30
0.0
  0
SPLINE
  5
2B1
100
AcDbEntity
  8
0
100
AcDbSpline
 62
7
  6
CONTINUOUS
 70
0
 71
3
 72
22
 73
18
 74
0
 42
0.0000001
 43
0.0000001
 44
0.0000000001
 40
0.0
 40
0.0
 40
0.0
 40
0.0
 40
0.0088670434
 40
0.0181216425
 40
0.0281999285
 40
0.0394345287
 40
0.0661998015
 40
0.0995834018
 40
0.1400777798
 40
0.1878066093
 40
0.2426480721
 40
0.304398332
 40
0.3728058498
 40
0.4475119957
 40
0.6140465349
 40
0.8000911523
 40
1.0
 40
1.0
 40
1.0
 40
1.0
 10
5.3720175331
 20
3.5810853357
 30
0.0
 10
5.3720176028
 20
3.5811379046
 30
0.0
 10
5.3720044827
 20
3.5812458006
 30
0.0
 10
5.3719450112
 20
3.581403482
 30
0.0
 10
5.3718471273
 20
3.5815572567
 30
0.0
 10
5.3716553993
 20
3.5817695604
 30
0.0
 10
5.3713109321
 20
3.5820216821
 30
0.0
 10
5.3707786045
 20
3.582293804
 30
0.0
 10
5.3701040706
 20
3.5825514329
 30
0.0
 10
5.369290496
 20
3.5827930719
 30
0.0
 10
5.3683421057
 20
3.5830175528
 30
0.0
 10
5.3672644691
 20
3.58322307
 30
0.0
 10
5.3660638384
 20
3.5834078642
 30
0.0
 10
5.3642417281
 20
3.58363315
 30
0.0
 10
5.3617166304
 20
3.5838470929
 30
0.0
 10
5.3584440633
 20
3.5839978295
 30
0.0
 10
5.3561557171
 20
3.5840303314
 30
0.0
 10
5.3549705414
 20
3.5840303314
 30
0.0
  0
SPLINE
  5
2B2
100
AcDbEntity
  8
0
100
AcDbSpline
 62
7
  6
CONTINUOUS
 70
0
 71
3
 72
24
 73
20
 74
0
 42
0.0000001
 43
0.0000001
 44
0.0000000001
 40
0.0
 40
0.0
 40
0.0
 40
0.0
 40
0.0083201846
 40
0.0172164586
 40
0.0271662454
 40
0.0385060012
 40
0.0514568076
 40
0.0661607506
 40
0.1011269587
 40
0.1436740227
 40
0.1937166912
 40
0.2510448129
 40
0.3152620381
 40
0.3858210086
 40
0.4621472891
 40
0.5435999608
 40
0.629445608
 40
0.811230427
 40
1.0
 40
1.0
 40
1.0
 40
1.0
 10
5.1886444092
 20
3.5800406205
 30
0.0
 10
5.1886444007
 20
3.5801069786
 30
0.0
 10
5.1886244843
 20
3.580244919
 30
0.0
 10
5.188537805
 20
3.580445632
 30
0.0
 10
5.1883968359
 20
3.5806425522
 30
0.0
 10
5.1882029559
 20
3.5808361669
 30
0.0
 10
5.1879566079
 20
3.58102702
 30
0.0
 10
5.187533342
 20
3.5812932648
 30
0.0
 10
5.1868668025
 20
3.5816093427
 30
0.0
 10
5.185909604
 20
3.5819562404
 30
0.0
 10
5.1847595739
 20
3.582286266
 30
0.0
 10
5.1834260299
 20
3.582595575
 30
0.0
 10
5.1819204104
 20
3.5828812351
 30
0.0
 10
5.1802566244
 20
3.5831407813
 30
0.0
 10
5.178449932
 20
3.5833712043
 30
0.0
 10
5.1765169248
 20
3.5835700905
 30
0.0
 10
5.1737417422
 20
3.583795396
 30
0.0
 10
5.1701055373
 20
3.5839807559
 30
0.0
 10
5.1671499523
 20
3.5840303314
 30
0.0
 10
5.1656444099
 20
3.5840303314
 30
0.0
  0
SPLINE
  5
2B3
100
AcDbEntity
  8
0
100
AcDbSpline
 62
7
  6
CONTINUOUS
 70
0
 71
3
 72
25
 73
21
 74
0
 42
0.0000001
 43
0.0000001
 44
0.0000000001
 40
0.0
 40
0.0
 40
0.0
 40
0.0
 40
0.0076372809
 40
0.0161058331
 40
0.025942127
 40
0.037483542
 40
0.050930889
 40
0.0663888785
 40
0.0838952916
 40
0.1034563472
 40
0.1486736664
 40
0.2017966385
 40
0.2622946724
 40
0.3295324722
 40
0.4027777344
 40
0.4811086517
 40
0.5635652096
 40
0.6491355837
 40
0.8252964273
 40
1.0
 40
1.0
 40
1.0
 40
1.0
 10
5.0052709202
 20
3.5789870905
 30
0.0
 10
5.0052708195
 20
3.5790634934
 30
0.0
 10
5.0052421828
 20
3.5792253865
 30
0.0
 10
5.0051226178
 20
3.5794587773
 30
0.0
 10
5.0049306005
 20
3.579689689
 30
0.0
 10
5.0046673251
 20
3.5799194424
 30
0.0
 10
5.0043329691
 20
3.580148518
 30
0.0
 10
5.0039281065
 20
3.5803767066
 30
0.0
 10
5.0034538547
 20
3.580603682
 30
0.0
 10
5.0026932023
 20
3.5809191451
 30
0.0
 10
5.0015749129
 20
3.5812978713
 30
0.0
 10
5.0000417436
 20
3.5817175992
 30
0.0
 10
4.9982765294
 20
3.5821168739
 30
0.0
 10
4.9963005239
 20
3.5824901235
 30
0.0
 10
4.9941380764
 20
3.5828318585
 30
0.0
 10
4.9918167537
 20
3.5831383831
 30
0.0
 10
4.9893664759
 20
3.5834051236
 30
0.0
 10
4.9859361795
 20
3.5837058065
 30
0.0
 10
4.9815762936
 20
3.5839578612
 30
0.0
 10
4.9780660047
 20
3.5840303314
 30
0.0
 10
4.9763182784
 20
3.5840303314
 30
0.0
  0
SPLINE
  5
2B4
100
AcDbEntity
  8
0
100
AcDbSpline
 62
7
  6
CONTINUOUS
 70
0
 71
3
 72
26
 73
22
 74
0
 42
0.0000001
 43
0.0000001
 44
0.0000000001
 40
0.0
 40
0.0
 40
0.0
 40
0.0
 40
0.0067911325
 40
0.0147765402
 40
0.0245624292
 40
0.0364674189
 40
0.0506286838
 40
0.0670913807
 40
0.0858576778
 40
0.106906197
 40
0.1556403353
 40
0.2126549848
 40
0.2771669451
 40
0.3482093749
 40
0.4246685538
 40
0.5053541095
 40
0.5889063292
 40
0.6739331333
 40
0.8427516168
 40
0.9236235099
 40
1.0
 40
1.0
 40
1.0
 40
1.0
 10
4.8343940535
 20
3.577997247
 30
0.0
 10
4.8343939677
 20
3.5780778637
 30
0.0
 10
4.8343533875
 20
3.578253934
 30
0.0
 10
4.834194262
 20
3.5785023073
 30
0.0
 10
4.8339428868
 20
3.578751709
 30
0.0
 10
4.8335989642
 20
3.5790041501
 30
0.0
 10
4.833163282
 20
3.5792604052
 30
0.0
 10
4.8326369922
 20
3.5795197062
 30
0.0
 10
4.8320218768
 20
3.5797810579
 30
0.0
 10
4.8310368544
 20
3.5801487856
 30
0.0
 10
4.8295986796
 20
3.5805964696
 30
0.0
 10
4.8276415878
 20
3.5811032398
 30
0.0
 10
4.8254080594
 20
3.5815922399
 30
0.0
 10
4.822933985
 20
3.582055637
 30
0.0
 10
4.8202592863
 20
3.5824857035
 30
0.0
 10
4.8174283481
 20
3.5828744514
 30
0.0
 10
4.8144889465
 20
3.5832162771
 30
0.0
 10
4.8105019411
 20
3.5835994811
 30
0.0
 10
4.8065362269
 20
3.5838662526
 30
0.0
 10
4.8026678025
 20
3.5840051469
 30
0.0
 10
4.8008010667
 20
3.5840303314
 30
0.0
 10
4.7998944099
 20
3.5840303314
 30
0.0
  0
SPLINE
  5
2B5
100
AcDbEntity
  8
0
100
AcDbSpline
 62
7
  6
CONTINUOUS
 70
0
 71
3
 72
28
 73
24
 74
0
 42
0.0000001
 43
0.0000001
 44
0.0000000001
 40
0.0
 40
0.0
 40
0.0
 40
0.0
 40
0.012990367
 40
0.0176115884
 40
0.0228683726
 40
0.0353528279
 40
0.0505139414
 40
0.0683467472
 40
0.0888131631
 40
0.1118301776
 40
0.1372857165
 40
0.1650613335
 40
0.2270624418
 40
0.2966167824
 40
0.3723467363
 40
0.4527332328
 40
0.5361213337
 40
0.6207791302
 40
0.7048715028
 40
0.7865861925
 40
0.8641788681
 40
0.9359068709
 40
1.0
 40
1.0
 40
1.0
 40
1.0
 10
4.6876584383
 20
3.5771409063
 30
0.0
 10
4.6876584974
 20
3.5773155445
 30
0.0
 10
4.6874945635
 20
3.5775339745
 30
0.0
 10
4.6872663798
 20
3.577732942
 30
0.0
 10
4.6870232737
 20
3.5779124319
 30
0.0
 10
4.6866423631
 20
3.578137671
 30
0.0
 10
4.6860921871
 20
3.5784058331
 30
0.0
 10
4.6854285604
 20
3.5786823705
 30
0.0
 10
4.6846543182
 20
3.5789659332
 30
0.0
 10
4.6837735649
 20
3.5792548417
 30
0.0
 10
4.6827911013
 20
3.5795476283
 30
0.0
 10
4.6812966633
 20
3.579956087
 30
0.0
 10
4.6792139745
 20
3.5804586609
 30
0.0
 10
4.6764868533
 20
3.5810330973
 30
0.0
 10
4.6735035535
 20
3.5815860478
 30
0.0
 10
4.6703257848
 20
3.5821060296
 30
0.0
 10
4.6670198667
 20
3.5825822192
 30
0.0
 10
4.6636563945
 20
3.5830042451
 30
0.0
 10
4.6603082895
 20
3.5833637754
 30
0.0
 10
4.6570486754
 20
3.5836525574
 30
0.0
 10
4.6539497412
 20
3.5838650288
 30
0.0
 10
4.6510834135
 20
3.5839958359
 30
0.0
 10
4.6492574465
 20
3.5840303314
 30
0.0
 10
4.6483957995
 20
3.5840303314
 30
0.0
  0
SPLINE
  5
2B6
100
AcDbEntity
  8
0
100
AcDbSpline
 62
7
  6
CONTINUOUS
 70
0
 71
3
 72
32
 73
28
 74
0
 42
0.0000001
 43
0.0000001
 44
0.0000000001
 40
0.0
 40
0.0
 40
0.0
 40
0.0
 40
0.0045320475
 40
0.0077071285
 40
0.0116193105
 40
0.0163086192
 40
0.0217926976
 40
0.0280779008
 40
0.0351644061
 40
0.0517240148
 40
0.0714124026
 40
0.0941018567
 40
0.11964184
 40
0.14787688
 40
0.1786370868
 40
0.2468974788
 40
0.3227009616
 40
0.4041362741
 40
0.4891468923
 40
0.5755639855
 40
0.6611440648
 40
0.7436202299
 40
0.820739431
 40
0.8904406738
 40
0.9507841082
 40
0.9768895098
 40
1.0
 40
1.0
 40
1.0
 40
1.0
 10
4.5750653536
 20
3.5764795728
 30
0.0
 10
4.5750653963
 20
3.576545866
 30
0.0
 10
4.5750051438
 20
3.5766540183
 30
0.0
 10
4.5748854088
 20
3.5767721319
 30
0.0
 10
4.5747478789
 20
3.576877565
 30
0.0
 10
4.5745735582
 20
3.5769873133
 30
0.0
 10
4.574361942
 20
3.577102527
 30
0.0
 10
4.5741135475
 20
3.5772225529
 30
0.0
 10
4.5737123713
 20
3.5773981258
 30
0.0
 10
4.5731201942
 20
3.5776250942
 30
0.0
 10
4.5723033415
 20
3.5779011944
 30
0.0
 10
4.5713530476
 20
3.5781913247
 30
0.0
 10
4.5702760235
 20
3.5784933472
 30
0.0
 10
4.5690793291
 20
3.5788050096
 30
0.0
 10
4.5672707651
 20
3.5792458225
 30
0.0
 10
4.5647742027
 20
3.5798009279
 30
0.0
 10
4.5615401438
 20
3.5804507424
 30
0.0
 10
4.5580543239
 20
3.581088607
 30
0.0
 10
4.5544059205
 20
3.5816978773
 30
0.0
 10
4.5506891317
 20
3.5822632882
 30
0.0
 10
4.5470013032
 20
3.5827700062
 30
0.0
 10
4.5434413564
 20
3.5832054512
 30
0.0
 10
4.5401057017
 20
3.5835581675
 30
0.0
 10
4.5370864736
 20
3.5838193982
 30
0.0
 10
4.5348064306
 20
3.5839617653
 30
0.0
 10
4.533204801
 20
3.5840196043
 30
0.0
 10
4.5324848791
 20
3.5840303314
 30
0.0
 10
4.5321468271
 20
3.5840303314
 30
0.0
  0
SPLINE
  5
2B7
100
AcDbEntity
  8
0
100
AcDbSpline
 62
7
  6
CONTINUOUS
 70
0
 71
3
 72
36
 73
32
 74
0
 42
0.0000001
 43
0.0000001
 44
0.0000000001
 40
0.0
 40
0.0
 40
0.0
 40
0.0
 40
0.0012601273
 40
0.0021678095
 40
0.0032985427
 40
0.0062701892
 40
0.010218097
 40
0.0151500567
 40
0.0210634581
 40
0.0358035933
 40
0.0543460131
 40
0.0765176428
 40
0.1021239644
 40
0.1309661574
 40
0.1628066934
 40
0.1973723038
 40
0.2343878619
 40
0.2735698571
 40
0.3571647468
 40
0.4455674853
 40
0.5360501106
 40
0.625810002
 40
0.7120236504
 40
0.7919174084
 40
0.8628508962
 40
0.8942009215
 40
0.9224578065
 40
0.9473661377
 40
0.9687075032
 40
0.9863075513
 40
1.0
 40
1.0
 40
1.0
 40
1.0
 10
4.5042853723
 20
3.5760621387
 30
0.0
 10
4.5042856156
 20
3.5760814716
 30
0.0
 10
4.5042669813
 20
3.5761132067
 30
0.0
 10
4.5042309897
 20
3.5761478505
 30
0.0
 10
4.5041692089
 20
3.5761943689
 30
0.0
 10
4.5040613136
 20
3.5762548456
 30
0.0
 10
4.5038960281
 20
3.5763309646
 30
0.0
 10
4.5036850388
 20
3.5764148185
 30
0.0
 10
4.5033152737
 20
3.5765468178
 30
0.0
 10
4.5027410453
 20
3.5767261638
 30
0.0
 10
4.5019218254
 20
3.5769561579
 30
0.0
 10
4.5009367039
 20
3.5772112994
 30
0.0
 10
4.4997943878
 20
3.5774891676
 30
0.0
 10
4.4985043465
 20
3.5777869951
 30
0.0
 10
4.4970773111
 20
3.5781021919
 30
0.0
 10
4.4955251538
 20
3.5784321091
 30
0.0
 10
4.4938604126
 20
3.5787739298
 30
0.0
 10
4.4914557526
 20
3.579252079
 30
0.0
 10
4.4882725131
 20
3.5798571358
 30
0.0
 10
4.4843089554
 20
3.5805710306
 30
0.0
 10
4.480246008
 20
3.5812658249
 30
0.0
 10
4.4762103259
 20
3.5819198643
 30
0.0
 10
4.4723295938
 20
3.5825135253
 30
0.0
 10
4.4687291679
 20
3.5830281608
 30
0.0
 10
4.4659577012
 20
3.5833922108
 30
0.0
 10
4.4639688885
 20
3.5836295686
 30
0.0
 10
4.4626799117
 20
3.5837714071
 30
0.0
 10
4.4615422122
 20
3.5838833598
 30
0.0
 10
4.4605658685
 20
3.5839646666
 30
0.0
 10
4.4597598295
 20
3.5840149618
 30
0.0
 10
4.4592797538
 20
3.5840303314
 30
0.0
 10
4.459069668
 20
3.5840303314
 30
0.0
  0
SPLINE
  5
2B8
100
AcDbEntity
  8
0
100
AcDbSpline
 62
7
  6
CONTINUOUS
 70
0
 71
3
 72
19
 73
15
 74
0
 42
0.0000001
 43
0.0000001
 44
0.0000000001
 40
0.0
 40
0.0
 40
0.0
 40
0.0
 40
0.0076723847
 40
0.0138790127
 40
0.0219117497
 40
0.0437045316
 40
0.0732575609
 40
0.110552928
 40
0.1555227605
 40
0.2681213114
 40
0.4102507296
 40
0.5806980237
 40
0.7778346638
 40
1.0
 40
1.0
 40
1.0
 40
1.0
 10
4.8154552346
 20
3.4692604087
 30
0.0
 10
4.8154550706
 20
3.4692449652
 30
0.0
 10
4.8154763114
 20
3.4692204962
 30
0.0
 10
4.8155108495
 20
3.4691951623
 30
0.0
 10
4.815574183
 20
3.4691583639
 30
0.0
 10
4.8156834388
 20
3.469110338
 30
0.0
 10
4.8158510199
 20
3.4690484662
 30
0.0
 10
4.8160651708
 20
3.4689791906
 30
0.0
 10
4.8164414695
 20
3.468868255
 30
0.0
 10
4.8170249833
 20
3.46871472
 30
0.0
 10
4.8178570268
 20
3.4685140495
 30
0.0
 10
4.8188578165
 20
3.4682876764
 30
0.0
 10
4.8200182724
 20
3.4680372536
 30
0.0
 10
4.820844656
 20
3.4678654374
 30
0.0
 10
4.8212827622
 20
3.4677756339
 30
0.0
  0
SPLINE
  5
2B9
100
AcDbEntity
  8
0
100
AcDbSpline
 62
7
  6
CONTINUOUS
 70
0
 71
3
 72
15
 73
11
 74
0
 42
0.0000001
 43
0.0000001
 44
0.0000000001
 40
0.0
 40
0.0
 40
0.0
 40
0.0
 40
0.10483413
 40
0.2267279339
 40
0.3603574391
 40
0.4999949256
 40
0.6396841861
 40
0.7734418252
 40
0.8953896202
 40
1.0
 40
1.0
 40
1.0
 40
1.0
 10
4.8212827622
 20
3.4677756339
 30
0.0
 10
4.8224753276
 20
3.4675311805
 30
0.0
 10
4.8250583774
 20
3.4670213166
 30
0.0
 10
4.8291702763
 20
3.4662447362
 30
0.0
 10
4.8336844642
 20
3.4654209458
 30
0.0
 10
4.8384062826
 20
3.4645842436
 30
0.0
 10
4.8431336927
 20
3.4637709062
 30
0.0
 10
4.8476629459
 20
3.4630176498
 30
0.0
 10
4.8517951702
 20
3.4623607364
 30
0.0
 10
4.8543974561
 20
3.4619734336
 30
0.0
 10
4.8556005349
 20
3.4618053506
 30
0.0
  0
LINE
  5
2BA
100
AcDbEntity
  8
0
100
AcDbLine
 62
7
  6
CONTINUOUS
 10
4.8556005349
 20
3.4618053506
 11
4.8609514323
 21
3.4612325221
  0
SPLINE
  5
2BB
100
AcDbEntity
  8
0
100
AcDbSpline
 62
7
  6
CONTINUOUS
 70
0
 71
3
 72
17
 73
13
 74
0
 42
0.0000001
 43
0.0000001
 44
0.0000000001
 40
0.0
 40
0.0
 40
0.0
 40
0.0
 40
0.0211437458
 40
0.0436902097
 40
0.0698743932
 40
0.1011797194
 40
0.1821731676
 40
0.2900534871
 40
0.4257318857
 40
0.5893889033
 40
0.7809013184
 40
1.0
 40
1.0
 40
1.0
 40
1.0
 10
5.6109954665
 20
3.5172620421
 30
0.0
 10
5.610995442
 20
3.5172474642
 30
0.0
 10
5.6110009003
 20
3.5172170325
 30
0.0
 10
5.6110261229
 20
3.5171750364
 30
0.0
 10
5.6110667663
 20
3.5171369836
 30
0.0
 10
5.6111481317
 20
3.5170862658
 30
0.0
 10
5.6112919774
 20
3.5170341054
 30
0.0
 10
5.6115105589
 20
3.5169856288
 30
0.0
 10
5.6117890312
 20
3.5169476083
 30
0.0
 10
5.6121264312
 20
3.5169202616
 30
0.0
 10
5.6125221208
 20
3.5169039548
 30
0.0
 10
5.6128052412
 20
3.5169007999
 30
0.0
 10
5.6129563025
 20
3.5169007999
 30
0.0
  0
SPLINE
  5
2BC
100
AcDbEntity
  8
0
100
AcDbSpline
 62
7
  6
CONTINUOUS
 70
0
 71
3
 72
19
 73
15
 74
0
 42
0.0000001
 43
0.0000001
 44
0.0000000001
 40
0.0
 40
0.0
 40
0.0
 40
0.0
 40
0.2140838326
 40
0.4046232435
 40
0.5696023352
 40
0.7072900565
 40
0.7657161787
 40
0.8172183097
 40
0.8618841071
 40
0.8999008246
 40
0.931637858
 40
0.9578349516
 40
0.9798750345
 40
1.0
 40
1.0
 40
1.0
 40
1.0
 10
4.6809227114
 20
3.5759192903
 30
0.0
 10
4.6814281442
 20
3.5759192903
 30
0.0
 10
4.6823834893
 20
3.5759308077
 30
0.0
 10
4.6837273211
 20
3.5759883116
 30
0.0
 10
4.6848881271
 20
3.5760838815
 30
0.0
 10
4.6857335191
 20
3.5761996038
 30
0.0
 10
4.6863066704
 20
3.5763157427
 30
0.0
 10
4.6866603326
 20
3.5764067746
 30
0.0
 10
4.686961444
 20
3.5765062137
 30
0.0
 10
4.6872097375
 20
3.5766138675
 30
0.0
 10
4.6874052773
 20
3.5767298927
 30
0.0
 10
4.687548384
 20
3.5768554
 30
0.0
 10
4.6876381595
 20
3.5769928643
 30
0.0
 10
4.6876584223
 20
3.5770933931
 30
0.0
 10
4.6876584383
 20
3.5771409063
 30
0.0
  0
SPLINE
  5
2BD
100
AcDbEntity
  8
0
100
AcDbSpline
 62
7
  6
CONTINUOUS
 70
0
 71
3
 72
22
 73
18
 74
0
 42
0.0000001
 43
0.0000001
 44
0.0000000001
 40
0.0
 40
0.0
 40
0.0
 40
0.0
 40
0.2012726665
 40
0.3875735646
 40
0.5536254392
 40
0.6279265304
 40
0.6958922338
 40
0.7571925204
 40
0.8116202042
 40
0.8590280334
 40
0.8993472045
 40
0.9327035319
 40
0.9596282684
 40
0.9710272607
 40
0.9813265673
 40
0.9908474682
 40
1.0
 40
1.0
 40
1.0
 40
1.0
 10
5.0159156433
 20
3.5169007999
 30
0.0
 10
5.0170362393
 20
3.5169007999
 30
0.0
 10
5.0191942796
 20
3.5169331456
 30
0.0
 10
5.0222735484
 20
3.5170837036
 30
0.0
 10
5.0246403615
 20
3.5172973012
 30
0.0
 10
5.0263424495
 20
3.5175215823
 30
0.0
 10
5.0274611311
 20
3.5177048623
 30
0.0
 10
5.0284637127
 20
3.5179082895
 30
0.0
 10
5.0293449351
 20
3.5181300012
 30
0.0
 10
5.0301002825
 20
3.5183681302
 30
0.0
 10
5.0307263145
 20
3.5186211213
 30
0.0
 10
5.0312202018
 20
3.5188878706
 30
0.0
 10
5.0315386438
 20
3.5191341894
 30
0.0
 10
5.0317154365
 20
3.5193404614
 30
0.0
 10
5.0318059071
 20
3.5194900054
 30
0.0
 10
5.0318609171
 20
3.5196428955
 30
0.0
 10
5.0318731981
 20
3.5197472504
 30
0.0
 10
5.031873179
 20
3.5197982075
 30
0.0
  0
SPLINE
  5
2BE
100
AcDbEntity
  8
0
100
AcDbSpline
 62
7
  6
CONTINUOUS
 70
0
 71
3
 72
24
 73
20
 74
0
 42
0.0000001
 43
0.0000001
 44
0.0000000001
 40
0.0
 40
0.0
 40
0.0
 40
0.0
 40
0.1859168249
 40
0.36649401
 40
0.452232282
 40
0.5338329907
 40
0.6105100256
 40
0.6815777349
 40
0.7463921389
 40
0.8043532286
 40
0.8550543873
 40
0.8982108774
 40
0.9336633147
 40
0.9485598751
 40
0.9616559171
 40
0.9730775127
 40
0.9830303715
 40
0.991841963
 40
1.0
 40
1.0
 40
1.0
 40
1.0
 10
5.1926854816
 20
3.5169007999
 30
0.0
 10
5.1942511183
 20
3.5169007999
 30
0.0
 10
5.1973376849
 20
3.5169591628
 30
0.0
 10
5.2011410328
 20
3.5171735572
 30
0.0
 10
5.2040597104
 20
3.5174316842
 30
0.0
 10
5.206102226
 20
3.5176587197
 30
0.0
 10
5.2080160291
 20
3.517920199
 30
0.0
 10
5.2097822738
 20
3.5182124701
 30
0.0
 10
5.2113835172
 20
3.5185316607
 30
0.0
 10
5.2128040424
 20
3.5188745701
 30
0.0
 10
5.214030958
 20
3.5192367597
 30
0.0
 10
5.2150534697
 20
3.5196136196
 30
0.0
 10
5.2157660306
 20
3.5199538404
 30
0.0
 10
5.216219363
 20
3.5202377099
 30
0.0
 10
5.2164833766
 20
3.5204398918
 30
0.0
 10
5.2166913367
 20
3.5206437378
 30
0.0
 10
5.2168426929
 20
3.5208498013
 30
0.0
 10
5.2169358912
 20
3.5210588049
 30
0.0
 10
5.2169572419
 20
3.5212024194
 30
0.0
 10
5.2169571513
 20
3.5212711195
 30
0.0
  0
LINE
  5
2BF
100
AcDbEntity
  8
0
100
AcDbLine
 62
7
  6
CONTINUOUS
 10
5.8270034546
 20
3.57606214
 11
5.8277865639
 21
3.5759192903
  0
SPLINE
  5
2C0
100
AcDbEntity
  8
0
100
AcDbSpline
 62
7
  6
CONTINUOUS
 70
0
 71
3
 72
20
 73
16
 74
0
 42
0.0000001
 43
0.0000001
 44
0.0000000001
 40
0.0
 40
0.0
 40
0.0
 40
0.0
 40
0.2079594347
 40
0.3966097232
 40
0.5621406634
 40
0.7020062203
 40
0.761840859
 40
0.8147361635
 40
0.8606658584
 40
0.8997507235
 40
0.932271202
 40
0.9588164745
 40
0.9805976227
 40
0.9904200543
 40
1.0
 40
1.0
 40
1.0
 40
1.0
 10
4.8228944099
 20
3.5759192903
 30
0.0
 10
4.8237305134
 20
3.5759192903
 30
0.0
 10
4.8253252034
 20
3.575940585
 30
0.0
 10
4.8275834802
 20
3.5760428616
 30
0.0
 10
4.829563099
 20
3.5762127015
 30
0.0
 10
4.8310186731
 20
3.5764154399
 30
0.0
 10
4.8320145361
 20
3.5766160835
 30
0.0
 10
4.8326331968
 20
3.5767728781
 30
0.0
 10
4.8331614034
 20
3.5769430724
 30
0.0
 10
4.833598081
 20
3.5771255969
 30
0.0
 10
4.8339428438
 20
3.5773202823
 30
0.0
 10
4.8341962342
 20
3.5775272332
 30
0.0
 10
4.8343341351
 20
3.577722017
 30
0.0
 10
4.834385899
 20
3.5778804614
 30
0.0
 10
4.8343940946
 20
3.5779587307
 30
0.0
 10
4.8343940535
 20
3.577997247
 30
0.0
  0
SPLINE
  5
2C1
100
AcDbEntity
  8
0
100
AcDbSpline
 62
7
  6
CONTINUOUS
 70
0
 71
3
 72
19
 73
15
 74
0
 42
0.0000001
 43
0.0000001
 44
0.0000000001
 40
0.0
 40
0.0
 40
0.0
 40
0.0
 40
0.0202919616
 40
0.0424674114
 40
0.0687594772
 40
0.1005554993
 40
0.1385988549
 40
0.1832659575
 40
0.2347501153
 40
0.2931440018
 40
0.4307403022
 40
0.5956022454
 40
0.7860187685
 40
1.0
 40
1.0
 40
1.0
 40
1.0
 10
5.5057565101
 20
3.5181269913
 30
0.0
 10
5.5057565155
 20
3.5180793881
 30
0.0
 10
5.5057765403
 20
3.5179787862
 30
0.0
 10
5.5058655191
 20
3.517840947
 30
0.0
 10
5.5060075518
 20
3.5177150005
 30
0.0
 10
5.5062016635
 20
3.5175985563
 30
0.0
 10
5.5064481273
 20
3.5174904795
 30
0.0
 10
5.5067470109
 20
3.517390632
 30
0.0
 10
5.5070980601
 20
3.517299205
 30
0.0
 10
5.5076669788
 20
3.5171825421
 30
0.0
 10
5.5085062691
 20
3.5170662594
 30
0.0
 10
5.5096588382
 20
3.5169701992
 30
0.0
 10
5.510993307
 20
3.5169123813
 30
0.0
 10
5.5119420566
 20
3.5169007999
 30
0.0
 10
5.5124440381
 20
3.5169007999
 30
0.0
  0
SPLINE
  5
2C2
100
AcDbEntity
  8
0
100
AcDbSpline
 62
7
  6
CONTINUOUS
 70
0
 71
3
 72
12
 73
8
 74
0
 42
0.0000001
 43
0.0000001
 44
0.0000000001
 40
0.0
 40
0.0
 40
0.0
 40
0.0
 40
0.1210408324
 40
0.2469741438
 40
0.5054551574
 40
0.7608803685
 40
1.0
 40
1.0
 40
1.0
 40
1.0
 10
5.365863207
 20
3.5169007999
 30
0.0
 10
5.3667034522
 20
3.5169007999
 30
0.0
 10
5.3684179572
 20
3.5169218384
 30
0.0
 10
5.371924956
 20
3.5170396731
 30
0.0
 10
5.3763588077
 20
3.5173237616
 30
0.0
 10
5.3815602064
 20
3.5178552437
 30
0.0
 10
5.3849603354
 20
3.5183388136
 30
0.0
 10
5.386597472
 20
3.5186129421
 30
0.0
  0
SPLINE
  5
2C3
100
AcDbEntity
  8
0
100
AcDbSpline
 62
7
  6
CONTINUOUS
 70
0
 71
3
 72
19
 73
15
 74
0
 42
0.0000001
 43
0.0000001
 44
0.0000000001
 40
0.0
 40
0.0
 40
0.0
 40
0.0
 40
0.2036545405
 40
0.388816223
 40
0.5525640511
 40
0.6925608004
 40
0.7530929973
 40
0.8070511902
 40
0.8543459332
 40
0.8950202496
 40
0.9292421828
 40
0.9574131739
 40
0.9804067411
 40
1.0
 40
1.0
 40
1.0
 40
1.0
 10
5.386597472
 20
3.5186129421
 30
0.0
 10
5.3874474046
 20
3.5187552581
 30
0.0
 10
5.3890666545
 20
3.5190482006
 30
0.0
 10
5.3913538925
 20
3.519535879
 30
0.0
 10
5.393359714
 20
3.5200446686
 30
0.0
 10
5.3948344003
 20
3.5204970538
 30
0.0
 10
5.3958451677
 20
3.5208693067
 30
0.0
 10
5.3964766286
 20
3.5211344809
 30
0.0
 10
5.3970166319
 20
3.5213982441
 30
0.0
 10
5.397463582
 20
3.5216594476
 30
0.0
 10
5.3978166082
 20
3.521917313
 30
0.0
 10
5.3980752247
 20
3.5221722903
 30
0.0
 10
5.3982389707
 20
3.5224272606
 30
0.0
 10
5.3982801215
 20
3.5226083103
 30
0.0
 10
5.3982800421
 20
3.5226912192
 30
0.0
  0
SPLINE
  5
2C4
100
AcDbEntity
  8
0
100
AcDbSpline
 62
7
  6
CONTINUOUS
 70
0
 71
3
 72
18
 73
14
 74
0
 42
0.0000001
 43
0.0000001
 44
0.0000000001
 40
0.0
 40
0.0
 40
0.0
 40
0.0
 40
0.0207296959
 40
0.0430128936
 40
0.0690685
 40
0.1003264178
 40
0.1376266691
 40
0.18146651
 40
0.2897851438
 40
0.4261516755
 40
0.5903470249
 40
0.7818504296
 40
1.0
 40
1.0
 40
1.0
 40
1.0
 10
5.7562234744
 20
3.5764795743
 30
0.0
 10
5.7562234891
 20
3.5764571458
 30
0.0
 10
5.7562323306
 20
3.5764101512
 30
0.0
 10
5.7562723286
 20
3.5763455321
 30
0.0
 10
5.7563364117
 20
3.5762868968
 30
0.0
 10
5.7564239644
 20
3.5762330752
 30
0.0
 10
5.756535272
 20
3.57618348
 30
0.0
 10
5.7567298291
 20
3.5761182327
 30
0.0
 10
5.7570356174
 20
3.5760518297
 30
0.0
 10
5.7574741884
 20
3.5759924374
 30
0.0
 10
5.7580050908
 20
3.5759497982
 30
0.0
 10
5.7586255383
 20
3.5759242628
 30
0.0
 10
5.7590687978
 20
3.5759192903
 30
0.0
 10
5.7593048242
 20
3.5759192903
 30
0.0
  0
SPLINE
  5
2C5
100
AcDbEntity
  8
0
100
AcDbSpline
 62
7
  6
CONTINUOUS
 70
0
 71
3
 72
15
 73
11
 74
0
 42
0.0000001
 43
0.0000001
 44
0.0000000001
 40
0.0
 40
0.0
 40
0.0
 40
0.0
 40
0.1023793935
 40
0.2175338762
 40
0.3423007679
 40
0.4735697214
 40
0.6082021058
 40
0.7429377187
 40
0.8745443463
 40
1.0
 40
1.0
 40
1.0
 40
1.0
 10
5.5124440381
 20
3.5169007999
 30
0.0
 10
5.5133576987
 20
3.5169007999
 30
0.0
 10
5.5152990632
 20
3.5169429955
 30
0.0
 10
5.5183500783
 20
3.5171010008
 30
0.0
 10
5.5216531565
 20
3.5173561464
 30
0.0
 10
5.5251228574
 20
3.5176996774
 30
0.0
 10
5.5286733655
 20
3.5181226137
 30
0.0
 10
5.5322183182
 20
3.5186123108
 30
0.0
 10
5.5356724335
 20
3.5191564154
 30
0.0
 10
5.5379313041
 20
3.5195580086
 30
0.0
 10
5.5390313006
 20
3.5197665991
 30
0.0
  0
SPLINE
  5
2C6
100
AcDbEntity
  8
0
100
AcDbSpline
 62
7
  6
CONTINUOUS
 70
0
 71
3
 72
19
 73
15
 74
0
 42
0.0000001
 43
0.0000001
 44
0.0000000001
 40
0.0
 40
0.0
 40
0.0
 40
0.0
 40
0.205504253
 40
0.3932382062
 40
0.5597845806
 40
0.7022865195
 40
0.7637528136
 40
0.8183187782
 40
0.8658192605
 40
0.9061656876
 40
0.9393514657
 40
0.9533098016
 40
0.9655704783
 40
1.0
 40
1.0
 40
1.0
 40
1.0
 10
5.5390313006
 20
3.5197665991
 30
0.0
 10
5.5399453769
 20
3.5199399339
 30
0.0
 10
5.541691384
 20
3.5202883333
 30
0.0
 10
5.5441651112
 20
3.5208402445
 30
0.0
 10
5.546345992
 20
3.5213910064
 30
0.0
 10
5.5479572272
 20
3.5218597617
 30
0.0
 10
5.5490670101
 20
3.5222321718
 30
0.0
 10
5.5497608259
 20
3.5224910521
 30
0.0
 10
5.5503549529
 20
3.522741954
 30
0.0
 10
5.550847156
 20
3.5229840424
 30
0.0
 10
5.551187735
 20
3.5231865655
 30
0.0
 10
5.5514049412
 20
3.5233474989
 30
0.0
 10
5.5516084471
 20
3.5235255115
 30
0.0
 10
5.551754846
 20
3.5237203962
 30
0.0
 10
5.5517548283
 20
3.5238762667
 30
0.0
  0
SPLINE
  5
2C7
100
AcDbEntity
  8
0
100
AcDbSpline
 62
7
  6
CONTINUOUS
 70
0
 71
3
 72
19
 73
15
 74
0
 42
0.0000001
 43
0.0000001
 44
0.0000000001
 40
0.0
 40
0.0
 40
0.0
 40
0.0
 40
0.0201250179
 40
0.0421646517
 40
0.0683620595
 40
0.1001008164
 40
0.1381189387
 40
0.1827857564
 40
0.2342886972
 40
0.2927156376
 40
0.4304058841
 40
0.5953853497
 40
0.7859216097
 40
1.0
 40
1.0
 40
1.0
 40
1.0
 10
5.6436303986
 20
3.5771409082
 30
0.0
 10
5.6436304097
 20
3.5770933949
 30
0.0
 10
5.6436506599
 20
3.5769928643
 30
0.0
 10
5.6437404272
 20
3.5768553932
 30
0.0
 10
5.6438835398
 20
3.5767298852
 30
0.0
 10
5.6440790922
 20
3.5766138659
 30
0.0
 10
5.6443273954
 20
3.5765062105
 30
0.0
 10
5.6446285146
 20
3.5764067704
 30
0.0
 10
5.6449821829
 20
3.5763157371
 30
0.0
 10
5.645555344
 20
3.5761995967
 30
0.0
 10
5.6464007455
 20
3.576083878
 30
0.0
 10
5.6475615511
 20
3.5759883103
 30
0.0
 10
5.6489053636
 20
3.5759308075
 30
0.0
 10
5.6498606885
 20
3.5759192903
 30
0.0
 10
5.6503661084
 20
3.5759192903
 30
0.0
  0
SPLINE
  5
2C8
100
AcDbEntity
  8
0
100
AcDbSpline
 62
7
  6
CONTINUOUS
 70
0
 71
3
 72
22
 73
18
 74
0
 42
0.0000001
 43
0.0000001
 44
0.0000000001
 40
0.0
 40
0.0
 40
0.0
 40
0.0
 40
0.1995784766
 40
0.3853105544
 40
0.551576862
 40
0.6261802578
 40
0.69451317
 40
0.7562253897
 40
0.8110706918
 40
0.8588500489
 40
0.8994483593
 40
0.93299931
 40
0.9599955639
 40
0.9713667933
 40
0.9815911318
 40
0.9909937321
 40
1.0
 40
1.0
 40
1.0
 40
1.0
 10
4.9882239545
 20
3.5759192903
 30
0.0
 10
4.9894096895
 20
3.5759192903
 30
0.0
 10
4.9916991095
 20
3.5759540679
 30
0.0
 10
4.9949728371
 20
3.5761147968
 30
0.0
 10
4.9974981896
 20
3.5763422545
 30
0.0
 10
4.9993199257
 20
3.5765806018
 30
0.0
 10
5.0005202893
 20
3.5767755456
 30
0.0
 10
5.001597598
 20
3.5769916254
 30
0.0
 10
5.0025456501
 20
3.5772268
 30
0.0
 10
5.0033589192
 20
3.5774789935
 30
0.0
 10
5.0040332064
 20
3.5777468181
 30
0.0
 10
5.0045654095
 20
3.578028495
 30
0.0
 10
5.0049093904
 20
3.5782881142
 30
0.0
 10
5.0051007452
 20
3.5785056379
 30
0.0
 10
5.0051985144
 20
3.5786629451
 30
0.0
 10
5.0052578661
 20
3.5788237652
 30
0.0
 10
5.0052709908
 20
3.5789335825
 30
0.0
 10
5.0052709202
 20
3.5789870905
 30
0.0
  0
SPLINE
  5
2C9
100
AcDbEntity
  8
0
100
AcDbSpline
 62
7
  6
CONTINUOUS
 70
0
 71
3
 72
20
 73
16
 74
0
 42
0.0000001
 43
0.0000001
 44
0.0000000001
 40
0.0
 40
0.0
 40
0.0
 40
0.0
 40
0.009579947
 40
0.0194024549
 40
0.0411851119
 40
0.067731534
 40
0.1002516952
 40
0.1393357133
 40
0.1852653305
 40
0.2381622577
 40
0.2979983289
 40
0.4378657687
 40
0.6033983225
 40
0.7920462435
 40
1.0
 40
1.0
 40
1.0
 40
1.0
 10
5.4968947573
 20
3.5779972462
 30
0.0
 10
5.4968947135
 20
3.5779587299
 30
0.0
 10
5.4969029052
 20
3.5778804597
 30
0.0
 10
5.4969546736
 20
3.5777220086
 30
0.0
 10
5.4970926144
 20
3.577527238
 30
0.0
 10
5.4973460095
 20
3.5773202851
 30
0.0
 10
5.4976907688
 20
3.5771255916
 30
0.0
 10
5.4981274381
 20
3.5769430611
 30
0.0
 10
5.4986556472
 20
3.5767728645
 30
0.0
 10
5.4992743219
 20
3.5766160771
 30
0.0
 10
5.5002702048
 20
3.5764154334
 30
0.0
 10
5.5017257983
 20
3.5762126923
 30
0.0
 10
5.5037054218
 20
3.5760428591
 30
0.0
 10
5.5059636721
 20
3.5759405845
 30
0.0
 10
5.5075583295
 20
3.5759192903
 30
0.0
 10
5.5083944099
 20
3.5759192903
 30
0.0
  0
LINE
  5
2CA
100
AcDbEntity
  8
0
100
AcDbLine
 62
7
  6
CONTINUOUS
 10
5.6129563025
 20
3.5169007999
 11
5.6168118714
 21
3.5171044868
  0
SPLINE
  5
2CB
100
AcDbEntity
  8
0
100
AcDbSpline
 62
7
  6
CONTINUOUS
 70
0
 71
3
 72
15
 73
11
 74
0
 42
0.0000001
 43
0.0000001
 44
0.0000000001
 40
0.0
 40
0.0
 40
0.0
 40
0.0
 40
0.1021628941
 40
0.2207717681
 40
0.3511470295
 40
0.4881642919
 40
0.6266130396
 40
0.7613340712
 40
0.8873457033
 40
1.0
 40
1.0
 40
1.0
 40
1.0
 10
5.6168118714
 20
3.5171044868
 30
0.0
 10
5.6179300614
 20
3.5171992834
 30
0.0
 10
5.6203428748
 20
3.5174461076
 30
0.0
 10
5.6241710522
 20
3.5179192921
 30
0.0
 10
5.6283701294
 20
3.5185082254
 30
0.0
 10
5.6327760756
 20
3.5191878455
 30
0.0
 10
5.637220299
 20
3.5199301084
 30
0.0
 10
5.6415360691
 20
3.5207056761
 30
0.0
 10
5.6455629375
 20
3.5214848563
 30
0.0
 10
5.648128842
 20
3.5220233097
 30
0.0
 10
5.6493369265
 20
3.5222912596
 30
0.0
  0
SPLINE
  5
2CC
100
AcDbEntity
  8
0
100
AcDbSpline
 62
7
  6
CONTINUOUS
 70
0
 71
3
 72
20
 73
16
 74
0
 42
0.0000001
 43
0.0000001
 44
0.0000000001
 40
0.0
 40
0.0
 40
0.0
 40
0.0
 40
0.2157960547
 40
0.408944281
 40
0.5773110467
 40
0.7189218417
 40
0.7792561896
 40
0.8324155995
 40
0.8782716419
 40
0.9167215677
 40
0.9477316792
 40
0.9714579556
 40
0.9807308485
 40
0.9884206646
 40
1.0
 40
1.0
 40
1.0
 40
1.0
 10
5.6493369265
 20
3.5222912596
 30
0.0
 10
5.649905833
 20
3.5224174415
 30
0.0
 10
5.6509826349
 20
3.5226625161
 30
0.0
 10
5.652497755
 20
3.5230299218
 30
0.0
 10
5.6538121482
 20
3.5233741102
 30
0.0
 10
5.6547731291
 20
3.5236513553
 30
0.0
 10
5.6554291817
 20
3.5238616338
 30
0.0
 10
5.6558357276
 20
3.5240028151
 30
0.0
 10
5.6561824449
 20
3.5241356121
 30
0.0
 10
5.656468336
 20
3.5242594523
 30
0.0
 10
5.6566924769
 20
3.5243742335
 30
0.0
 10
5.6568384846
 20
3.5244677592
 30
0.0
 10
5.656921444
 20
3.5245405779
 30
0.0
 10
5.6569719046
 20
3.524598239
 30
0.0
 10
5.6569954997
 20
3.524649125
 30
0.0
 10
5.6569955561
 20
3.5246803936
 30
0.0
  0
SPLINE
  5
2CD
100
AcDbEntity
  8
0
100
AcDbSpline
 62
7
  6
CONTINUOUS
 70
0
 71
3
 72
22
 73
18
 74
0
 42
0.0000001
 43
0.0000001
 44
0.0000000001
 40
0.0
 40
0.0
 40
0.0
 40
0.0
 40
0.0090062315
 40
0.0184092374
 40
0.0286338175
 40
0.0400048927
 40
0.0670000759
 40
0.1005506958
 40
0.1411512662
 40
0.188931435
 40
0.2437762971
 40
0.3054884604
 40
0.3738227736
 40
0.4484273887
 40
0.6146954351
 40
0.8004266338
 40
1.0
 40
1.0
 40
1.0
 40
1.0
 10
5.3260178753
 20
3.5789870899
 30
0.0
 10
5.3260178061
 20
3.5789335822
 30
0.0
 10
5.3260309406
 20
3.5788237624
 30
0.0
 10
5.3260903246
 20
3.578662951
 30
0.0
 10
5.3261880976
 20
3.5785056448
 30
0.0
 10
5.326379443
 20
3.5782881207
 30
0.0
 10
5.3267234037
 20
3.578028491
 30
0.0
 10
5.327255611
 20
3.5777468074
 30
0.0
 10
5.3279299234
 20
3.5774790031
 30
0.0
 10
5.3287432047
 20
3.5772267996
 30
0.0
 10
5.3296912568
 20
3.576991617
 30
0.0
 10
5.3307685699
 20
3.576775533
 30
0.0
 10
5.3319689499
 20
3.5765805965
 30
0.0
 10
5.3337907112
 20
3.5763422473
 30
0.0
 10
5.3363160756
 20
3.5761147903
 30
0.0
 10
5.3395897773
 20
3.5759540684
 30
0.0
 10
5.3418791611
 20
3.5759192903
 30
0.0
 10
5.3430648654
 20
3.5759192903
 30
0.0
  0
SPLINE
  5
2CE
100
AcDbEntity
  8
0
100
AcDbSpline
 62
7
  6
CONTINUOUS
 70
0
 71
3
 72
24
 73
20
 74
0
 42
0.0000001
 43
0.0000001
 44
0.0000000001
 40
0.0
 40
0.0
 40
0.0
 40
0.0
 40
0.0083261893
 40
0.0172506481
 40
0.027244029
 40
0.0386361685
 40
0.0516430716
 40
0.0664032
 40
0.1014726981
 40
0.1441015682
 40
0.1941990904
 40
0.2515527873
 40
0.3157679615
 40
0.3863010114
 40
0.4625821425
 40
0.5439756476
 40
0.6297521882
 40
0.811385052
 40
1.0
 40
1.0
 40
1.0
 40
1.0
 10
5.1426444103
 20
3.5800406206
 30
0.0
 10
5.1426444163
 20
3.5799741324
 30
0.0
 10
5.1426644224
 20
3.5798357624
 30
0.0
 10
5.1427511483
 20
3.5796341321
 30
0.0
 10
5.1428921325
 20
3.5794356672
 30
0.0
 10
5.1430860317
 20
3.5792399017
 30
0.0
 10
5.143332401
 20
3.5790463274
 30
0.0
 10
5.1437555467
 20
3.5787755414
 30
0.0
 10
5.1444218101
 20
3.5784523781
 30
0.0
 10
5.1453787773
 20
3.5780956269
 30
0.0
 10
5.146528434
 20
3.5777543951
 30
0.0
 10
5.1478614874
 20
3.5774328862
 30
0.0
 10
5.1493665579
 20
3.5771344726
 30
0.0
 10
5.1510298279
 20
3.5768621081
 30
0.0
 10
5.1528361377
 20
3.576619299
 30
0.0
 10
5.1547689727
 20
3.5764089468
 30
0.0
 10
5.1575442337
 20
3.5761698513
 30
0.0
 10
5.1611814118
 20
3.575972307
 30
0.0
 10
5.1641382378
 20
3.5759192903
 30
0.0
 10
5.1656444099
 20
3.5759192903
 30
0.0
  0
LINE
  5
2CF
100
AcDbEntity
  8
0
100
AcDbLine
 62
7
  6
CONTINUOUS
 10
5.6540480367
 20
3.5169007999
 11
5.6728430634
 21
3.5201109343
  0
LINE
  5
2D0
100
AcDbEntity
  8
0
100
AcDbLine
 62
7
  6
CONTINUOUS
 10
5.6809755184
 20
3.5215448486
 11
5.7000196291
 21
3.5250070507
  0
SPLINE
  5
2D1
100
AcDbEntity
  8
0
100
AcDbSpline
 62
7
  6
CONTINUOUS
 70
0
 71
3
 72
27
 73
23
 74
0
 42
0.0000001
 43
0.0000001
 44
0.0000000001
 40
0.0
 40
0.0
 40
0.0
 40
0.0
 40
0.0075295753
 40
0.0159240126
 40
0.0257179753
 40
0.0372423215
 40
0.0437202681
 40
0.0506956734
 40
0.0661685505
 40
0.0836985932
 40
0.103288633
 40
0.1249236432
 40
0.1485773466
 40
0.201760112
 40
0.2623058063
 40
0.3295755587
 40
0.4028368056
 40
0.4811707476
 40
0.5636217733
 40
0.6491820792
 40
0.8253181601
 40
1.0
 40
1.0
 40
1.0
 40
1.0
 10
4.9592713102
 20
3.5810853341
 30
0.0
 10
4.9592714118
 20
3.5810099744
 30
0.0
 10
4.9593003202
 20
3.5808498554
 30
0.0
 10
4.9594201951
 20
3.5806190447
 30
0.0
 10
4.9596124056
 20
3.5803899289
 30
0.0
 10
4.9598230663
 20
3.58020693
 30
0.0
 10
4.9600247996
 20
3.580059176
 30
0.0
 10
4.9602668443
 20
3.5799001233
 30
0.0
 10
4.9606155437
 20
3.5797030118
 30
0.0
 10
4.9610899858
 20
3.5794744123
 30
0.0
 10
4.9616325046
 20
3.5792469591
 30
0.0
 10
4.9622415671
 20
3.5790213722
 30
0.0
 10
4.9631774616
 20
3.578711949
 30
0.0
 10
4.9645021867
 20
3.5783409414
 30
0.0
 10
4.9662667687
 20
3.5779294486
 30
0.0
 10
4.9682420676
 20
3.5775424726
 30
0.0
 10
4.9704036521
 20
3.5771859855
 30
0.0
 10
4.9727241731
 20
3.5768645091
 30
0.0
 10
4.975173856
 20
3.5765833976
 30
0.0
 10
4.9786037489
 20
3.5762651439
 30
0.0
 10
4.9829641977
 20
3.5759967561
 30
0.0
 10
4.9864756517
 20
3.5759192903
 30
0.0
 10
4.9882239545
 20
3.5759192903
 30
0.0
  0
SPLINE
  5
2D2
100
AcDbEntity
  8
0
100
AcDbSpline
 62
7
  6
CONTINUOUS
 70
0
 71
3
 72
24
 73
20
 74
0
 42
0.0000001
 43
0.0000001
 44
0.0000000001
 40
0.0
 40
0.0
 40
0.0
 40
0.0
 40
0.1886188235
 40
0.370251061
 40
0.456026448
 40
0.5374185791
 40
0.6136986613
 40
0.6842317368
 40
0.748446312
 40
0.8057979784
 40
0.8558959866
 40
0.8985258612
 40
0.9335942867
 40
0.9483544513
 40
0.9613620502
 40
0.9727550567
 40
0.982749078
 40
0.9916737682
 40
1.0
 40
1.0
 40
1.0
 40
1.0
 10
5.1656444099
 20
3.5759192903
 30
0.0
 10
5.1671506136
 20
3.5759192903
 30
0.0
 10
5.1701074668
 20
3.5759723059
 30
0.0
 10
5.1737446627
 20
3.5761698573
 30
0.0
 10
5.1765198997
 20
3.5764089498
 30
0.0
 10
5.178452707
 20
3.5766193008
 30
0.0
 10
5.1802589976
 20
3.5768621138
 30
0.0
 10
5.1819222567
 20
3.5771344679
 30
0.0
 10
5.1834273095
 20
3.5774328679
 30
0.0
 10
5.1847603425
 20
3.5777543915
 30
0.0
 10
5.1859099963
 20
3.5780956158
 30
0.0
 10
5.1868669774
 20
3.5784523433
 30
0.0
 10
5.1875332323
 20
3.5787755255
 30
0.0
 10
5.1879563723
 20
3.5790463148
 30
0.0
 10
5.1882027579
 20
3.5792398886
 30
0.0
 10
5.1883966822
 20
3.5794356537
 30
0.0
 10
5.1885376899
 20
3.5796341192
 30
0.0
 10
5.1886244262
 20
3.5798357548
 30
0.0
 10
5.1886444176
 20
3.5799741319
 30
0.0
 10
5.1886444092
 20
3.5800406205
 30
0.0
  0
SPLINE
  5
2D3
100
AcDbEntity
  8
0
100
AcDbSpline
 62
7
  6
CONTINUOUS
 70
0
 71
3
 72
19
 73
15
 74
0
 42
0.0000001
 43
0.0000001
 44
0.0000000001
 40
0.0
 40
0.0
 40
0.0
 40
0.0
 40
0.0188976146
 40
0.0413752393
 40
0.0691835135
 40
0.103211939
 40
0.1438241756
 40
0.1911262366
 40
0.2451063717
 40
0.30568893
 40
0.4459998677
 40
0.6101256057
 40
0.7957436369
 40
1.0
 40
1.0
 40
1.0
 40
1.0
 10
4.7883947756
 20
3.5820511051
 30
0.0
 10
4.7883948652
 20
3.5819721859
 30
0.0
 10
4.78843671
 20
3.5817988432
 30
0.0
 10
4.7885985984
 20
3.5815554741
 30
0.0
 10
4.7888535683
 20
3.5813101022
 30
0.0
 10
4.7892023504
 20
3.5810606156
 30
0.0
 10
4.7896441569
 20
3.5808062194
 30
0.0
 10
4.7901777934
 20
3.5805477354
 30
0.0
 10
4.7908013771
 20
3.5802861592
 30
0.0
 10
4.7917998228
 20
3.5799166117
 30
0.0
 10
4.7932564344
 20
3.5794638853
 30
0.0
 10
4.7952372898
 20
3.5789477073
 30
0.0
 10
4.7974962812
 20
3.5784460951
 30
0.0
 10
4.7990956635
 20
3.5781400729
 30
0.0
 10
4.7999353538
 20
3.5779899491
 30
0.0
  0
SPLINE
  5
2D4
100
AcDbEntity
  8
0
100
AcDbSpline
 62
7
  6
CONTINUOUS
 70
0
 71
3
 72
12
 73
8
 74
0
 42
0.0000001
 43
0.0000001
 44
0.0000000001
 40
0.0
 40
0.0
 40
0.0
 40
0.0
 40
0.2415770747
 40
0.5002016264
 40
0.7589720181
 40
0.8829187437
 40
1.0
 40
1.0
 40
1.0
 40
1.0
 10
4.7999353538
 20
3.5779899491
 30
0.0
 10
4.8017646882
 20
3.577662892
 30
0.0
 10
4.8055704128
 20
3.5770846198
 30
0.0
 10
4.8113746605
 20
3.576442166
 30
0.0
 10
4.8162973838
 20
3.5760920109
 30
0.0
 10
4.82013958
 20
3.5759458571
 30
0.0
 10
4.8219937579
 20
3.5759192903
 30
0.0
 10
4.8228944099
 20
3.5759192903
 30
0.0
  0
SPLINE
  5
2D5
100
AcDbEntity
  8
0
100
AcDbSpline
 62
7
  6
CONTINUOUS
 70
0
 71
3
 72
21
 73
17
 74
0
 42
0.0000001
 43
0.0000001
 44
0.0000000001
 40
0.0
 40
0.0
 40
0.0
 40
0.0
 40
0.0094124506
 40
0.0191231743
 40
0.0408620581
 40
0.0675897592
 40
0.100529324
 40
0.1402035629
 40
0.1868057385
 40
0.2403754616
 40
0.3008640479
 40
0.3680947738
 40
0.4418078543
 40
0.6075330533
 40
0.7951027363
 40
1.0
 40
1.0
 40
1.0
 40
1.0
 10
5.3522808408
 20
3.5193730291
 30
0.0
 10
5.3522808808
 20
3.5193283614
 30
0.0
 10
5.3522910004
 20
3.519237313
 30
0.0
 10
5.3523538652
 20
3.5190524556
 30
0.0
 10
5.3525198803
 20
3.5188247521
 30
0.0
 10
5.3528232379
 20
3.5185817201
 30
0.0
 10
5.3532367611
 20
3.5183521408
 30
0.0
 10
5.3537603294
 20
3.518135643
 30
0.0
 10
5.3543927766
 20
3.5179327318
 30
0.0
 10
5.3551320542
 20
3.5177447757
 30
0.0
 10
5.3559753762
 20
3.5175732424
 30
0.0
 10
5.356918979
 20
3.5174190769
 30
0.0
 10
5.3583622385
 20
3.5172304991
 30
0.0
 10
5.3603816742
 20
3.5170522008
 30
0.0
 10
5.3630281809
 20
3.5169271899
 30
0.0
 10
5.3648908459
 20
3.5169007999
 30
0.0
 10
5.365863207
 20
3.5169007999
 30
0.0
  0
SPLINE
  5
2D6
100
AcDbEntity
  8
0
100
AcDbSpline
 62
7
  6
CONTINUOUS
 70
0
 71
3
 72
19
 73
15
 74
0
 42
0.0000001
 43
0.0000001
 44
0.0000000001
 40
0.0
 40
0.0
 40
0.0
 40
0.0
 40
0.0348001052
 40
0.0471141615
 40
0.0611108812
 40
0.0943347773
 40
0.1346789952
 40
0.1821476289
 40
0.2366609262
 40
0.2980569671
 40
0.4403921024
 40
0.6067906619
 40
0.7944469287
 40
1.0
 40
1.0
 40
1.0
 40
1.0
 10
4.6416600846
 20
3.5828745672
 30
0.0
 10
4.6416600313
 20
3.582718779
 30
0.0
 10
4.6418034627
 20
3.5825232903
 30
0.0
 10
4.6420049867
 20
3.5823442631
 30
0.0
 10
4.6422190234
 20
3.5821832212
 30
0.0
 10
4.6425548338
 20
3.5819806155
 30
0.0
 10
4.6430402869
 20
3.581738663
 30
0.0
 10
4.643626347
 20
3.5814881587
 30
0.0
 10
4.6443108469
 20
3.5812299573
 30
0.0
 10
4.6454059083
 20
3.5808588548
 30
0.0
 10
4.6469964896
 20
3.5803923087
 30
0.0
 10
4.6491505214
 20
3.5798449847
 30
0.0
 10
4.6515953617
 20
3.5792972144
 30
0.0
 10
4.6533215771
 20
3.5789519047
 30
0.0
 10
4.6542256011
 20
3.5787801718
 30
0.0
  0
SPLINE
  5
2D7
100
AcDbEntity
  8
0
100
AcDbSpline
 62
7
  6
CONTINUOUS
 70
0
 71
3
 72
15
 73
11
 74
0
 42
0.0000001
 43
0.0000001
 44
0.0000000001
 40
0.0
 40
0.0
 40
0.0
 40
0.0
 40
0.1250409437
 40
0.256392571
 40
0.3910178752
 40
0.5256626475
 40
0.6570419443
 40
0.7819912396
 40
0.8973737822
 40
1.0
 40
1.0
 40
1.0
 40
1.0
 10
4.6542256011
 20
3.5787801718
 30
0.0
 10
4.6553263544
 20
3.5785710673
 30
0.0
 10
4.6575885136
 20
3.578168873
 30
0.0
 10
4.6610500004
 20
3.5776250118
 30
0.0
 10
4.6646065814
 20
3.5771361685
 30
0.0
 10
4.6681719986
 20
3.5767144512
 30
0.0
 10
4.6716588358
 20
3.5763722767
 30
0.0
 10
4.6749802048
 20
3.5761183666
 30
0.0
 10
4.6780496031
 20
3.5759612148
 30
0.0
 10
4.6800031217
 20
3.5759192903
 30
0.0
 10
4.6809227114
 20
3.5759192903
 30
0.0
  0
LINE
  5
2D8
100
AcDbEntity
  8
0
100
AcDbLine
 62
7
  6
CONTINUOUS
 10
4.8609514323
 20
3.4612325221
 11
4.8614528297
 21
3.4613278519
  0
SPLINE
  5
2D9
100
AcDbEntity
  8
0
100
AcDbSpline
 62
7
  6
CONTINUOUS
 70
0
 71
3
 72
20
 73
16
 74
0
 42
0.0000001
 43
0.0000001
 44
0.0000000001
 40
0.0
 40
0.0
 40
0.0
 40
0.0
 40
0.0139050464
 40
0.0225133604
 40
0.0325579159
 40
0.0574738992
 40
0.0892760533
 40
0.1281560366
 40
0.1741556104
 40
0.2272472787
 40
0.2873677334
 40
0.4281804289
 40
0.5950802642
 40
0.7863196471
 40
1.0
 40
1.0
 40
1.0
 40
1.0
 10
4.5290654683
 20
3.5835029969
 30
0.0
 10
4.5290654424
 20
3.5834655112
 30
0.0
 10
4.5290866523
 20
3.5834050422
 30
0.0
 10
4.5291373534
 20
3.583333567
 30
0.0
 10
4.5292181507
 20
3.5832476962
 30
0.0
 10
4.5293617929
 20
3.5831378981
 30
0.0
 10
4.5295830607
 20
3.5830053044
 30
0.0
 10
4.5298645525
 20
3.5828643864
 30
0.0
 10
4.5302055016
 20
3.5827154639
 30
0.0
 10
4.5306052779
 20
3.5825590232
 30
0.0
 10
4.5312502854
 20
3.5823287311
 30
0.0
 10
4.532196074
 20
3.5820297723
 30
0.0
 10
4.5334906059
 20
3.5816639972
 30
0.0
 10
4.5349834787
 20
3.5812792809
 30
0.0
 10
4.5360453669
 20
3.5810261094
 30
0.0
 10
4.5366066334
 20
3.5808964528
 30
0.0
  0
SPLINE
  5
2DA
100
AcDbEntity
  8
0
100
AcDbSpline
 62
7
  6
CONTINUOUS
 70
0
 71
3
 72
17
 73
13
 74
0
 42
0.0000001
 43
0.0000001
 44
0.0000000001
 40
0.0
 40
0.0
 40
0.0
 40
0.0
 40
0.1178661435
 40
0.2509440586
 40
0.392968536
 40
0.5372258368
 40
0.6767448104
 40
0.8045471711
 40
0.8620351167
 40
0.9142328915
 40
0.9604423209
 40
1.0
 40
1.0
 40
1.0
 40
1.0
 10
4.5366066334
 20
3.5808964528
 30
0.0
 10
4.5379760128
 20
3.5805801161
 30
0.0
 10
4.5409027351
 20
3.5799551356
 30
0.0
 10
4.5455062857
 20
3.5790796989
 30
0.0
 10
4.5504359463
 20
3.578239422
 30
0.0
 10
4.5554558655
 20
3.5774765184
 30
0.0
 10
4.5603211906
 20
3.5768308542
 30
0.0
 10
4.5641711586
 20
3.5764044516
 30
0.0
 10
4.5669920402
 20
3.5761545722
 30
0.0
 10
4.5688464023
 20
3.5760229301
 30
0.0
 10
4.5704896165
 20
3.5759416247
 30
0.0
 10
4.5715123076
 20
3.5759192903
 30
0.0
 10
4.5719839956
 20
3.5759192903
 30
0.0
  0
LINE
  5
2DB
100
AcDbEntity
  8
0
100
AcDbLine
 62
7
  6
CONTINUOUS
 10
5.4738904191
 20
3.4612751654
 11
5.4741129134
 21
3.4612325221
  0
SPLINE
  5
2DC
100
AcDbEntity
  8
0
100
AcDbSpline
 62
7
  6
CONTINUOUS
 70
0
 71
3
 72
19
 73
15
 74
0
 42
0.0000001
 43
0.0000001
 44
0.0000000001
 40
0.0
 40
0.0
 40
0.0
 40
0.0
 40
0.2139513096
 40
0.404174116
 40
0.5687791981
 40
0.7061347557
 40
0.7644258142
 40
0.8158340395
 40
0.8604660624
 40
0.8985314316
 40
0.9304252097
 40
0.9569011057
 40
0.9793544206
 40
1.0
 40
1.0
 40
1.0
 40
1.0
 10
4.9415700621
 20
3.4612325221
 30
0.0
 10
4.942055294
 20
3.4612325221
 30
0.0
 10
4.9429720106
 20
3.4612439566
 30
0.0
 10
4.9442610004
 20
3.4613010857
 30
0.0
 10
4.9453735382
 20
3.4613959631
 30
0.0
 10
4.9461832636
 20
3.4615107541
 30
0.0
 10
4.9467318232
 20
3.4616259008
 30
0.0
 10
4.9470702302
 20
3.461716122
 30
0.0
 10
4.9473583106
 20
3.461814632
 30
0.0
 10
4.9475958632
 20
3.4619212525
 30
0.0
 10
4.9477829778
 20
3.4620360885
 30
0.0
 10
4.9479198457
 20
3.4621602915
 30
0.0
 10
4.9480053394
 20
3.4622960593
 30
0.0
 10
4.9480244541
 20
3.4623947548
 30
0.0
 10
4.9480244383
 20
3.462441578
 30
0.0
  0
SPLINE
  5
2DD
100
AcDbEntity
  8
0
100
AcDbSpline
 62
7
  6
CONTINUOUS
 70
0
 71
3
 72
19
 73
15
 74
0
 42
0.0000001
 43
0.0000001
 44
0.0000000001
 40
0.0
 40
0.0
 40
0.0
 40
0.0
 40
0.0087562204
 40
0.0153896802
 40
0.0237991204
 40
0.0462086035
 40
0.0762403075
 40
0.1139176768
 40
0.1591986581
 40
0.2722729572
 40
0.4144937296
 40
0.5843048407
 40
0.7800696618
 40
1.0
 40
1.0
 40
1.0
 40
1.0
 10
4.458286552
 20
3.5838963244
 30
0.0
 10
4.4582862829
 20
3.583876087
 30
0.0
 10
4.4583092496
 20
3.583843143
 30
0.0
 10
4.4583504406
 20
3.5838082864
 30
0.0
 10
4.458422999
 20
3.5837598977
 30
0.0
 10
4.4585488672
 20
3.5836970652
 30
0.0
 10
4.4587415029
 20
3.583617351
 30
0.0
 10
4.4589873486
 20
3.583529103
 30
0.0
 10
4.459418444
 20
3.5833893874
 30
0.0
 10
4.4600866682
 20
3.5831986339
 30
0.0
 10
4.461038013
 20
3.5829526402
 30
0.0
 10
4.4621793332
 20
3.5826785383
 30
0.0
 10
4.4634991365
 20
3.5823790153
 30
0.0
 10
4.4644381946
 20
3.5821755197
 30
0.0
 10
4.4649354025
 20
3.5820696808
 30
0.0
  0
SPLINE
  5
2DE
100
AcDbEntity
  8
0
100
AcDbSpline
 62
7
  6
CONTINUOUS
 70
0
 71
3
 72
15
 73
11
 74
0
 42
0.0000001
 43
0.0000001
 44
0.0000000001
 40
0.0
 40
0.0
 40
0.0
 40
0.0
 40
0.109719513
 40
0.23520539
 40
0.3710314236
 40
0.5114323888
 40
0.650429775
 40
0.7820132495
 40
0.9003508858
 40
1.0
 40
1.0
 40
1.0
 40
1.0
 10
4.4649354025
 20
3.5820696808
 30
0.0
 10
4.4661788824
 20
3.5818049857
 30
0.0
 10
4.4688495701
 20
3.5812612488
 30
0.0
 10
4.4730718463
 20
3.5804512652
 30
0.0
 10
4.4776510959
 20
3.579616121
 30
0.0
 10
4.4823912707
 20
3.5787916993
 30
0.0
 10
4.4870895299
 20
3.578014085
 30
0.0
 10
4.4915420391
 20
3.5773182603
 30
0.0
 10
4.4955506749
 20
3.5767366691
 30
0.0
 10
4.4980555735
 20
3.5764105023
 30
0.0
 10
4.4992023886
 20
3.5762761976
 30
0.0
  0
LINE
  5
2DF
100
AcDbEntity
  8
0
100
AcDbLine
 62
7
  6
CONTINUOUS
 10
4.4992023886
 20
3.5762761976
 11
4.503502256
 21
3.5759192903
  0
SPLINE
  5
2E0
100
AcDbEntity
  8
0
100
AcDbSpline
 62
7
  6
CONTINUOUS
 70
0
 71
3
 72
24
 73
20
 74
0
 42
0.0000001
 43
0.0000001
 44
0.0000000001
 40
0.0
 40
0.0
 40
0.0
 40
0.0
 40
0.0084829253
 40
0.0175183852
 40
0.027563212
 40
0.0389481508
 40
0.0518971541
 40
0.0665583115
 40
0.1012996656
 40
0.1434576643
 40
0.1930133743
 40
0.2498025981
 40
0.3134425631
 40
0.3834575353
 40
0.4593457632
 40
0.5405152436
 40
0.6262978917
 40
0.8088702742
 40
1.0
 40
1.0
 40
1.0
 40
1.0
 10
5.170957543
 20
3.5208230425
 30
0.0
 10
5.1709576252
 20
3.5207589772
 30
0.0
 10
5.1709761227
 20
3.5206261282
 30
0.0
 10
5.1710564588
 20
3.5204321681
 30
0.0
 10
5.1711874136
 20
3.5202413772
 30
0.0
 10
5.1713678277
 20
3.5200534571
 30
0.0
 10
5.171597339
 20
3.5198679525
 30
0.0
 10
5.1719914984
 20
3.5196092433
 30
0.0
 10
5.1726127125
 20
3.5193007064
 30
0.0
 10
5.1735060103
 20
3.5189606808
 30
0.0
 10
5.1745804137
 20
3.5186362976
 30
0.0
 10
5.175827889
 20
3.5183313247
 30
0.0
 10
5.1772384325
 20
3.5180484333
 30
0.0
 10
5.1788000841
 20
3.5177906301
 30
0.0
 10
5.1804997962
 20
3.5175611741
 30
0.0
 10
5.1823231765
 20
3.5173624585
 30
0.0
 10
5.1849533785
 20
3.5171363794
 30
0.0
 10
5.1884194893
 20
3.5169501822
 30
0.0
 10
5.1912420171
 20
3.5169007999
 30
0.0
 10
5.1926854816
 20
3.5169007999
 30
0.0
  0
SPLINE
  5
2E1
100
AcDbEntity
  8
0
100
AcDbSpline
 62
7
  6
CONTINUOUS
 70
0
 71
3
 72
27
 73
23
 74
0
 42
0.0000001
 43
0.0000001
 44
0.0000000001
 40
0.0
 40
0.0
 40
0.0
 40
0.0
 40
0.174684225
 40
0.3508181943
 40
0.4363768218
 40
0.5188264909
 40
0.5971598269
 40
0.6704196546
 40
0.737688157
 40
0.7982346815
 40
0.8514170574
 40
0.8750707916
 40
0.8967067545
 40
0.9162980766
 40
0.933829162
 40
0.9493023176
 40
0.9562774526
 40
0.9627552578
 40
0.974280059
 40
0.9840748977
 40
0.9924700666
 40
1.0
 40
1.0
 40
1.0
 40
1.0
 10
5.3430648654
 20
3.5759192903
 30
0.0
 10
5.3448131923
 20
3.5759192903
 30
0.0
 10
5.3483246498
 20
3.575996755
 30
0.0
 10
5.352685085
 20
3.5762651449
 30
0.0
 10
5.3561149275
 20
3.5765833918
 30
0.0
 10
5.3585645738
 20
3.5768645051
 30
0.0
 10
5.3608850633
 20
3.5771859641
 30
0.0
 10
5.3630466168
 20
3.5775424418
 30
0.0
 10
5.3650218958
 20
3.5779294243
 30
0.0
 10
5.3667864756
 20
3.5783408915
 30
0.0
 10
5.3681112056
 20
3.5787119017
 30
0.0
 10
5.3690471045
 20
3.5790213306
 30
0.0
 10
5.3696561917
 20
3.5792469158
 30
0.0
 10
5.3701987466
 20
3.579474368
 30
0.0
 10
5.370673218
 20
3.5797029668
 30
0.0
 10
5.3710219297
 20
3.5799000792
 30
0.0
 10
5.3712639664
 20
3.580059142
 30
0.0
 10
5.3714656946
 20
3.5802069037
 30
0.0
 10
5.3716763648
 20
3.5803899088
 30
0.0
 10
5.3718686026
 20
3.5806190274
 30
0.0
 10
5.371988512
 20
3.5808498421
 30
0.0
 10
5.3720174332
 20
3.5810099724
 30
0.0
 10
5.3720175331
 20
3.5810853357
 30
0.0
  0
SPLINE
  5
2E2
100
AcDbEntity
  8
0
100
AcDbSpline
 62
7
  6
CONTINUOUS
 70
0
 71
3
 72
22
 73
18
 74
0
 42
0.0000001
 43
0.0000001
 44
0.0000000001
 40
0.0
 40
0.0
 40
0.0
 40
0.0
 40
0.1987577524
 40
0.3840918383
 40
0.5502784684
 40
0.624933616
 40
0.69336124
 40
0.7552079708
 40
0.8102144134
 40
0.8581656876
 40
0.8989370474
 40
0.9326659434
 40
0.9598245597
 40
0.9712624539
 40
0.9815388552
 40
0.9909764323
 40
1.0
 40
1.0
 40
1.0
 40
1.0
 10
5.0902857395
 20
3.4612325221
 30
0.0
 10
5.0914946083
 20
3.4612325221
 30
0.0
 10
5.0938309369
 20
3.4612698129
 30
0.0
 10
5.0971741175
 20
3.461441256
 30
0.0
 10
5.099756002
 20
3.461683085
 30
0.0
 10
5.1016202619
 20
3.4619353992
 30
0.0
 10
5.1028497809
 20
3.4621413728
 30
0.0
 10
5.103953768
 20
3.4623689925
 30
0.0
 10
5.1049256829
 20
3.4626159659
 30
0.0
 10
5.1057596526
 20
3.4628799612
 30
0.0
 10
5.1064512351
 20
3.4631594378
 30
0.0
 10
5.1069972499
 20
3.4634521848
 30
0.0
 10
5.1073502207
 20
3.4637209056
 30
0.0
 10
5.1075466511
 20
3.4639453784
 30
0.0
 10
5.1076469781
 20
3.4641073652
 30
0.0
 10
5.1077078148
 20
3.464272639
 30
0.0
 10
5.107721317
 20
3.4643853713
 30
0.0
 10
5.1077212456
 20
3.4644402536
 30
0.0
  0
SPLINE
  5
2E3
100
AcDbEntity
  8
0
100
AcDbSpline
 62
7
  6
CONTINUOUS
 70
0
 71
3
 72
22
 73
18
 74
0
 42
0.0000001
 43
0.0000001
 44
0.0000000001
 40
0.0
 40
0.0
 40
0.0
 40
0.0
 40
0.0092125909
 40
0.0187954489
 40
0.0291535686
 40
0.0406052366
 40
0.0676131699
 40
0.1010249901
 40
0.1413726738
 40
0.188780833
 40
0.2431873194
 40
0.3044516677
 40
0.3723709616
 40
0.446617414
 40
0.6125560622
 40
0.7987662967
 40
1.0
 40
1.0
 40
1.0
 40
1.0
 10
5.2460105947
 20
3.4641635255
 30
0.0
 10
5.2460105906
 20
3.4641123972
 30
0.0
 10
5.246022842
 20
3.4640077072
 30
0.0
 10
5.2460775642
 20
3.4638542134
 30
0.0
 10
5.2461675603
 20
3.4637039189
 30
0.0
 10
5.2463433556
 20
3.4634965197
 30
0.0
 10
5.2466601137
 20
3.4632483942
 30
0.0
 10
5.2471517215
 20
3.462979211
 30
0.0
 10
5.2477748487
 20
3.4627235258
 30
0.0
 10
5.2485266782
 20
3.4624824814
 30
0.0
 10
5.2494038336
 20
3.462257755
 30
0.0
 10
5.2504018911
 20
3.4620513006
 30
0.0
 10
5.2515156611
 20
3.4618650652
 30
0.0
 10
5.253210522
 20
3.4616368784
 30
0.0
 10
5.2555679615
 20
3.4614191717
 30
0.0
 10
5.2586359321
 20
3.4612655628
 30
0.0
 10
5.2607863915
 20
3.4612325221
 30
0.0
 10
5.2619032037
 20
3.4612325221
 30
0.0
  0
SPLINE
  5
2E4
100
AcDbEntity
  8
0
100
AcDbSpline
 62
7
  6
CONTINUOUS
 70
0
 71
3
 72
26
 73
22
 74
0
 42
0.0000001
 43
0.0000001
 44
0.0000000001
 40
0.0
 40
0.0
 40
0.0
 40
0.0
 40
0.0073382446
 40
0.0156129697
 40
0.025370221
 40
0.0369318582
 40
0.0504782088
 40
0.0661073364
 40
0.0838502749
 40
0.1036978489
 40
0.1495829965
 40
0.2034387802
 40
0.2646939257
 40
0.3326299707
 40
0.4064659971
 40
0.4852312929
 40
0.5678947149
 40
0.6533876696
 40
0.8283049666
 40
0.9152639057
 40
1.0
 40
1.0
 40
1.0
 40
1.0
 10
4.9858731915
 20
3.5222794894
 30
0.0
 10
4.9858732177
 20
3.5222033441
 30
0.0
 10
4.9859042306
 20
3.5220405621
 30
0.0
 10
4.9860314478
 20
3.5218068711
 30
0.0
 10
4.9862345121
 20
3.5215742464
 30
0.0
 10
4.9865124028
 20
3.521341044
 30
0.0
 10
4.9868649376
 20
3.521106651
 30
0.0
 10
4.9872917428
 20
3.5208715607
 30
0.0
 10
4.9877916394
 20
3.5206362234
 30
0.0
 10
4.9885931198
 20
3.5203069929
 30
0.0
 10
4.9897692807
 20
3.5199078954
 30
0.0
 10
4.9913793015
 20
3.5194601483
 30
0.0
 10
4.9932297947
 20
3.5190298071
 30
0.0
 10
4.9952972271
 20
3.518623143
 30
0.0
 10
4.9975548385
 20
3.5182472455
 30
0.0
 10
4.9999725029
 20
3.5179072468
 30
0.0
 10
5.0025174894
 20
3.5176089324
 30
0.0
 10
5.0060615408
 20
3.5172712464
 30
0.0
 10
5.0096598874
 20
3.5170407445
 30
0.0
 10
5.0132547229
 20
3.5169218476
 30
0.0
 10
5.0150363786
 20
3.5169007999
 30
0.0
 10
5.0159156433
 20
3.5169007999
 30
0.0
  0
SPLINE
  5
2E5
100
AcDbEntity
  8
0
100
AcDbSpline
 62
7
  6
CONTINUOUS
 70
0
 71
3
 72
26
 73
22
 74
0
 42
0.0000001
 43
0.0000001
 44
0.0000000001
 40
0.0
 40
0.0
 40
0.0
 40
0.0
 40
0.0846339818
 40
0.1715203975
 40
0.3463657773
 40
0.431856294
 40
0.5145365803
 40
0.5933357204
 40
0.6672176456
 40
0.7352117462
 40
0.7965326897
 40
0.8504524592
 40
0.896397844
 40
0.9162700035
 40
0.9340308099
 40
0.9496687283
 40
0.9632150255
 40
0.9747651924
 40
0.9844956317
 40
0.9927249218
 40
1.0
 40
1.0
 40
1.0
 40
1.0
 10
5.2619032037
 20
3.4612325221
 30
0.0
 10
5.2627833177
 20
3.4612325221
 30
0.0
 10
5.2645670326
 20
3.4612542118
 30
0.0
 10
5.2681670212
 20
3.4613765295
 30
0.0
 10
5.2717713262
 20
3.4616134237
 30
0.0
 10
5.2753217605
 20
3.461959348
 30
0.0
 10
5.2778720731
 20
3.462264349
 30
0.0
 10
5.2802951498
 20
3.4626111379
 30
0.0
 10
5.2825581547
 20
3.4629936075
 30
0.0
 10
5.2846308723
 20
3.4634062254
 30
0.0
 10
5.2864864219
 20
3.4638416265
 30
0.0
 10
5.2881011341
 20
3.4642933825
 30
0.0
 10
5.289280961
 20
3.4646948089
 30
0.0
 10
5.290085148
 20
3.4650252003
 30
0.0
 10
5.2905867355
 20
3.4652610027
 30
0.0
 10
5.2910149825
 20
3.4654962255
 30
0.0
 10
5.2913687389
 20
3.4657303656
 30
0.0
 10
5.2916476415
 20
3.4659629403
 30
0.0
 10
5.2918514986
 20
3.4661945768
 30
0.0
 10
5.2919793383
 20
3.4664269744
 30
0.0
 10
5.292010593
 20
3.4665889766
 30
0.0
 10
5.2920105946
 20
3.4666646305
 30
0.0
  0
SPLINE
  5
2E6
100
AcDbEntity
  8
0
100
AcDbSpline
 62
7
  6
CONTINUOUS
 70
0
 71
3
 72
12
 73
8
 74
0
 42
0.0000001
 43
0.0000001
 44
0.0000000001
 40
0.0
 40
0.0
 40
0.0
 40
0.0
 40
0.117031293
 40
0.2409081638
 40
0.4995492277
 40
0.7581721094
 40
1.0
 40
1.0
 40
1.0
 40
1.0
 10
5.5083944099
 20
3.5759192903
 30
0.0
 10
5.5092916043
 20
3.5759192903
 30
0.0
 10
5.5111385335
 20
3.5759456538
 30
0.0
 10
5.5149657221
 20
3.576090738
 30
0.0
 10
5.5198701738
 20
3.5764384521
 30
0.0
 10
5.5256557445
 20
3.5770767114
 30
0.0
 10
5.5294506622
 20
3.577651214
 30
0.0
 10
5.5312758909
 20
3.5779761119
 30
0.0
  0
SPLINE
  5
2E7
100
AcDbEntity
  8
0
100
AcDbSpline
 62
7
  6
CONTINUOUS
 70
0
 71
3
 72
19
 73
15
 74
0
 42
0.0000001
 43
0.0000001
 44
0.0000000001
 40
0.0
 40
0.0
 40
0.0
 40
0.0
 40
0.2041940402
 40
0.3898096156
 40
0.5539728911
 40
0.6943348729
 40
0.7549416946
 40
0.8089443997
 40
0.8562637075
 40
0.8968840927
 40
0.9309077759
 40
0.9586987781
 40
0.9811456892
 40
1.0
 40
1.0
 40
1.0
 40
1.0
 10
5.5312758909
 20
3.5779761119
 30
0.0
 10
5.5321207163
 20
3.5781264941
 30
0.0
 10
5.5337301193
 20
3.578433168
 30
0.0
 10
5.5360035948
 20
3.5789361253
 30
0.0
 10
5.5379976934
 20
3.5794539424
 30
0.0
 10
5.5394643419
 20
3.5799082687
 30
0.0
 10
5.5404698419
 20
3.5802792196
 30
0.0
 10
5.5410979015
 20
3.5805418074
 30
0.0
 10
5.5416354109
 20
3.5808013045
 30
0.0
 10
5.5420804407
 20
3.5810566948
 30
0.0
 10
5.5424317615
 20
3.5813071624
 30
0.0
 10
5.5426885919
 20
3.581553481
 30
0.0
 10
5.5428517291
 20
3.5817977632
 30
0.0
 10
5.5428939567
 20
3.5819718723
 30
0.0
 10
5.5428940524
 20
3.5820511057
 30
0.0
  0
SPLINE
  5
2E8
100
AcDbEntity
  8
0
100
AcDbSpline
 62
7
  6
CONTINUOUS
 70
0
 71
3
 72
16
 73
12
 74
0
 42
0.0000001
 43
0.0000001
 44
0.0000000001
 40
0.0
 40
0.0
 40
0.0
 40
0.0
 40
0.0466614403
 40
0.0979181828
 40
0.2121515307
 40
0.3385338715
 40
0.4728225496
 40
0.6105682133
 40
0.7472122107
 40
0.8784025614
 40
1.0
 40
1.0
 40
1.0
 40
1.0
 10
5.404267254
 20
3.4612325221
 30
0.0
 10
5.4047444896
 20
3.4612325221
 30
0.0
 10
5.4057459796
 20
3.4612468157
 30
0.0
 10
5.4079144999
 20
3.4613248804
 30
0.0
 10
5.4108941246
 20
3.4615161738
 30
0.0
 10
5.4147126868
 20
3.4618680144
 30
0.0
 10
5.4187609917
 20
3.4623352684
 30
0.0
 10
5.4229028842
 20
3.4628989479
 30
0.0
 10
5.4270017795
 20
3.4635378161
 30
0.0
 10
5.4309247526
 20
3.4642278973
 30
0.0
 10
5.4334612074
 20
3.4647301579
 30
0.0
 10
5.4346778247
 20
3.4649880612
 30
0.0
  0
SPLINE
  5
2E9
100
AcDbEntity
  8
0
100
AcDbSpline
 62
7
  6
CONTINUOUS
 70
0
 71
3
 72
21
 73
17
 74
0
 42
0.0000001
 43
0.0000001
 44
0.0000000001
 40
0.0
 40
0.0
 40
0.0
 40
0.0
 40
0.2090838859
 40
0.3981312564
 40
0.5645812465
 40
0.7060211126
 40
0.7667550857
 40
0.8206004989
 40
0.8674170019
 40
0.9071072419
 40
0.9396755035
 40
0.9533676852
 40
0.9654076284
 40
0.9758959667
 40
0.9849903898
 40
1.0
 40
1.0
 40
1.0
 40
1.0
 10
5.4346778247
 20
3.4649880612
 30
0.0
 10
5.4354242475
 20
3.4651462909
 30
0.0
 10
5.436843108
 20
3.465459393
 30
0.0
 10
5.4388455872
 20
3.465944985
 30
0.0
 10
5.4405965779
 20
3.4664177163
 30
0.0
 10
5.4418830459
 20
3.4668125371
 30
0.0
 10
5.4427647456
 20
3.46712196
 30
0.0
 10
5.4433140273
 20
3.4673348696
 30
0.0
 10
5.4437836926
 20
3.4675397443
 30
0.0
 10
5.4441717494
 20
3.4677358246
 30
0.0
 10
5.4444400274
 20
3.4678995898
 30
0.0
 10
5.4446098619
 20
3.4680280652
 30
0.0
 10
5.4447085065
 20
3.4681162594
 30
0.0
 10
5.4447860333
 20
3.4682023365
 30
0.0
 10
5.4448567267
 20
3.4683068006
 30
0.0
 10
5.444885613
 20
3.4683946131
 30
0.0
 10
5.4448857808
 20
3.4684493874
 30
0.0
  0
SPLINE
  5
2EA
100
AcDbEntity
  8
0
100
AcDbSpline
 62
7
  6
CONTINUOUS
 70
0
 71
3
 72
22
 73
18
 74
0
 42
0.0000001
 43
0.0000001
 44
0.0000000001
 40
0.0
 40
0.0
 40
0.0
 40
0.0
 40
0.0075696372
 40
0.0158997819
 40
0.0253914469
 40
0.0363061083
 40
0.0629676971
 40
0.0966011602
 40
0.1374375458
 40
0.1854808553
 40
0.240553494
 40
0.3024186393
 40
0.3708128043
 40
0.4454332272
 40
0.6117184454
 40
0.7978567705
 40
1.0
 40
1.0
 40
1.0
 40
1.0
 10
4.8216146028
 20
3.5235529059
 30
0.0
 10
4.821614509
 20
3.5235132741
 30
0.0
 10
4.8216267666
 20
3.523429694
 30
0.0
 10
4.8216788739
 20
3.5233062697
 30
0.0
 10
4.8217634382
 20
3.523180963
 30
0.0
 10
4.8219301044
 20
3.5229985765
 30
0.0
 10
4.8222262788
 20
3.522768586
 30
0.0
 10
4.8226821588
 20
3.5224981537
 30
0.0
 10
4.8232600097
 20
3.522218274
 30
0.0
 10
4.8239569201
 20
3.5219305661
 30
0.0
 10
4.8247693118
 20
3.5216364084
 30
0.0
 10
4.8256926404
 20
3.5213375852
 30
0.0
 10
4.8267221167
 20
3.5210358115
 30
0.0
 10
4.8282864467
 20
3.5206167048
 30
0.0
 10
4.83046311
 20
3.5201034351
 30
0.0
 10
4.8333081204
 20
3.5195219573
 30
0.0
 10
4.8353097255
 20
3.519165286
 30
0.0
 10
4.8363536051
 20
3.518990871
 30
0.0
  0
SPLINE
  5
2EB
100
AcDbEntity
  8
0
100
AcDbSpline
 62
7
  6
CONTINUOUS
 70
0
 71
3
 72
12
 73
8
 74
0
 42
0.0000001
 43
0.0000001
 44
0.0000000001
 40
0.0
 40
0.0
 40
0.0
 40
0.0
 40
0.256843508
 40
0.5208034695
 40
0.774401155
 40
0.8918518679
 40
1.0
 40
1.0
 40
1.0
 40
1.0
 10
4.8363536051
 20
3.518990871
 30
0.0
 10
4.8382789117
 20
3.5186691842
 30
0.0
 10
4.8421961006
 20
3.5180943551
 30
0.0
 10
4.8480461844
 20
3.5174413609
 30
0.0
 10
4.8528601243
 20
3.5170794515
 30
0.0
 10
4.8564991392
 20
3.5169287013
 30
0.0
 10
4.8582137271
 20
3.5169007999
 30
0.0
 10
4.8590356467
 20
3.5169007999
 30
0.0
  0
SPLINE
  5
2EC
100
AcDbEntity
  8
0
100
AcDbSpline
 62
7
  6
CONTINUOUS
 70
0
 71
3
 72
41
 73
37
 74
0
 42
0.0000001
 43
0.0000001
 44
0.0000000001
 40
0.0
 40
0.0
 40
0.0
 40
0.0
 40
0.0037951422
 40
0.0086929968
 40
0.0217385399
 40
0.039007726
 40
0.0603547499
 40
0.0855643235
 40
0.1143814592
 40
0.1465490755
 40
0.1817742018
 40
0.260037044
 40
0.3463753138
 40
0.437775643
 40
0.5311402526
 40
0.6233225553
 40
0.6680012834
 40
0.7112294084
 40
0.7526300104
 40
0.7918524652
 40
0.8285555285
 40
0.8623996422
 40
0.8930819238
 40
0.9203362679
 40
0.943898577
 40
0.9542176858
 40
0.9635326572
 40
0.971824363
 40
0.9790738612
 40
0.9852625307
 40
0.9903723565
 40
0.9943874776
 40
0.9973058868
 40
0.999143208
 40
0.9996766801
 40
1.0
 40
1.0
 40
1.0
 40
1.0
 10
5.4741129134
 20
3.4612325221
 30
0.0
 10
5.474171752
 20
3.4612325221
 30
0.0
 10
5.4743065091
 20
3.4612371724
 30
0.0
 10
5.4746427873
 20
3.4612599062
 30
0.0
 10
5.4751860383
 20
3.461315109
 30
0.0
 10
5.4759810818
 20
3.4614122136
 30
0.0
 10
5.4769615896
 20
3.4615458021
 30
0.0
 10
5.4781179847
 20
3.4617140926
 30
0.0
 10
5.4794390924
 20
3.4619152698
 30
0.0
 10
5.4809125666
 20
3.4621471691
 30
0.0
 10
5.4831419252
 20
3.4625069376
 30
0.0
 10
5.4861980884
 20
3.4630146946
 30
0.0
 10
5.4901107855
 20
3.4636806664
 30
0.0
 10
5.4942522306
 20
3.4643979468
 30
0.0
 10
5.4984812193
 20
3.4651406066
 30
0.0
 10
5.5019953959
 20
3.4657657487
 30
0.0
 10
5.5047433618
 20
3.4662599102
 30
0.0
 10
5.5067159517
 20
3.4666175106
 30
0.0
 10
5.5086047554
 20
3.4669630456
 30
0.0
 10
5.5103934237
 20
3.4672937734
 30
0.0
 10
5.5120661764
 20
3.4676070454
 30
0.0
 10
5.513607955
 20
3.4679003594
 30
0.0
 10
5.5150048546
 20
3.4681713548
 30
0.0
 10
5.5162441233
 20
3.4684178131
 30
0.0
 10
5.5171725745
 20
3.468608546
 30
0.0
 10
5.5178275888
 20
3.4687480542
 30
0.0
 10
5.5182505189
 20
3.4688406799
 30
0.0
 10
5.5186263651
 20
3.4689258219
 30
0.0
 10
5.5189542262
 20
3.4690032927
 30
0.0
 10
5.5192332769
 20
3.4690728949
 30
0.0
 10
5.5194625312
 20
3.4691343808
 30
0.0
 10
5.5196417624
 20
3.4691875532
 30
0.0
 10
5.5197698636
 20
3.4692319808
 30
0.0
 10
5.5198458448
 20
3.4692653756
 30
0.0
 10
5.5198796732
 20
3.4692892163
 30
0.0
 10
5.519887708
 20
3.4693014126
 30
0.0
 10
5.5198877571
 20
3.469306425
 30
0.0
  0
SPLINE
  5
2ED
100
AcDbEntity
  8
0
100
AcDbSpline
 62
7
  6
CONTINUOUS
 70
0
 71
3
 72
15
 73
11
 74
0
 42
0.0000001
 43
0.0000001
 44
0.0000000001
 40
0.0
 40
0.0
 40
0.0
 40
0.0
 40
0.1025910213
 40
0.2178998206
 40
0.3427598824
 40
0.4740597017
 40
0.6086607526
 40
0.7433030509
 40
0.874755561
 40
1.0
 40
1.0
 40
1.0
 40
1.0
 10
5.6503661084
 20
3.5759192903
 30
0.0
 10
5.6512820578
 20
3.5759192903
 30
0.0
 10
5.6532275383
 20
3.5759608862
 30
0.0
 10
5.6562840913
 20
3.5761168904
 30
0.0
 10
5.6595913429
 20
3.5763689859
 30
0.0
 10
5.6630637716
 20
3.5767087996
 30
0.0
 10
5.6666154865
 20
3.5771277242
 30
0.0
 10
5.6701600462
 20
3.5776135182
 30
0.0
 10
5.6736121012
 20
3.5781542297
 30
0.0
 10
5.6758689862
 20
3.5785541216
 30
0.0
 10
5.6769676855
 20
3.5787620577
 30
0.0
  0
SPLINE
  5
2EE
100
AcDbEntity
  8
0
100
AcDbSpline
 62
7
  6
CONTINUOUS
 70
0
 71
3
 72
19
 73
15
 74
0
 42
0.0000001
 43
0.0000001
 44
0.0000000001
 40
0.0
 40
0.0
 40
0.0
 40
0.0
 40
0.2054453397
 40
0.3930774179
 40
0.5595060992
 40
0.7019016902
 40
0.7633295632
 40
0.8178718866
 40
0.8653661314
 40
0.9057289296
 40
0.9389603666
 40
0.9529553475
 40
0.9652634003
 40
1.0
 40
1.0
 40
1.0
 40
1.0
 10
5.6769676855
 20
3.5787620577
 30
0.0
 10
5.6778778867
 20
3.5789343193
 30
0.0
 10
5.6796162364
 20
3.5792808235
 30
0.0
 10
5.6820786944
 20
3.5798307133
 30
0.0
 10
5.6842490048
 20
3.5803804307
 30
0.0
 10
5.6858520123
 20
3.5808491411
 30
0.0
 10
5.6869558684
 20
3.5812220388
 30
0.0
 10
5.6876459549
 20
3.5814815188
 30
0.0
 10
5.688236854
 20
3.5817332595
 30
0.0
 10
5.6887263578
 20
3.5819763996
 30
0.0
 10
5.6890650033
 20
3.5821799895
 30
0.0
 10
5.6892808766
 20
3.5823418242
 30
0.0
 10
5.689483911
 20
3.5825215547
 30
0.0
 10
5.6896287563
 20
3.5827179368
 30
0.0
 10
5.6896287187
 20
3.5828745651
 30
0.0
  0
SPLINE
  5
2EF
100
AcDbEntity
  8
0
100
AcDbSpline
 62
7
  6
CONTINUOUS
 70
0
 71
3
 72
27
 73
23
 74
0
 42
0.0000001
 43
0.0000001
 44
0.0000000001
 40
0.0
 40
0.0
 40
0.0
 40
0.0
 40
0.007519401
 40
0.0159004899
 40
0.0256741092
 40
0.0371705175
 40
0.0436318711
 40
0.0505878786
 40
0.0660117627
 40
0.0834804816
 40
0.102998853
 40
0.124554083
 40
0.1481222527
 40
0.2011134042
 40
0.261449924
 40
0.3285173153
 40
0.4015956393
 40
0.4797877589
 40
0.5621665788
 40
0.6477470601
 40
0.8242928918
 40
1.0
 40
1.0
 40
1.0
 40
1.0
 10
5.0617218224
 20
3.466398116
 30
0.0
 10
5.0617219248
 20
3.4663238301
 30
0.0
 10
5.0617502603
 20
3.46616602
 30
0.0
 10
5.0618678058
 20
3.4659383038
 30
0.0
 10
5.0620564138
 20
3.4657120179
 30
0.0
 10
5.0622632352
 20
3.4655310804
 30
0.0
 10
5.0624613341
 20
3.4653849016
 30
0.0
 10
5.06269896
 20
3.4652274701
 30
0.0
 10
5.0630412523
 20
3.4650321551
 30
0.0
 10
5.0635070067
 20
3.4648053484
 30
0.0
 10
5.0640396325
 20
3.4645793997
 30
0.0
 10
5.0646376915
 20
3.4643550119
 30
0.0
 10
5.0655568659
 20
3.4640468318
 30
0.0
 10
5.066858292
 20
3.4636763799
 30
0.0
 10
5.0685925823
 20
3.4632643172
 30
0.0
 10
5.0705350878
 20
3.4628757673
 30
0.0
 10
5.0726622879
 20
3.4625167257
 30
0.0
 10
5.0749478606
 20
3.4621920737
 30
0.0
 10
5.0773631666
 20
3.4619075266
 30
0.0
 10
5.0807514775
 20
3.4615843651
 30
0.0
 10
5.0850695768
 20
3.4613111493
 30
0.0
 10
5.0885498855
 20
3.4612325221
 30
0.0
 10
5.0902857395
 20
3.4612325221
 30
0.0
  0
SPLINE
  5
2F0
100
AcDbEntity
  8
0
100
AcDbSpline
 62
7
  6
CONTINUOUS
 70
0
 71
3
 72
17
 73
13
 74
0
 42
0.0000001
 43
0.0000001
 44
0.0000000001
 40
0.0
 40
0.0
 40
0.0
 40
0.0
 40
0.0395352411
 40
0.0857035462
 40
0.1378450315
 40
0.1952657213
 40
0.3229211422
 40
0.4623115016
 40
0.6065018796
 40
0.7485602428
 40
0.88180647
 40
1.0
 40
1.0
 40
1.0
 40
1.0
 10
5.7593048242
 20
3.5759192903
 30
0.0
 10
5.7597751445
 20
3.5759192903
 30
0.0
 10
5.7607946928
 20
3.5759414955
 30
0.0
 10
5.7624326562
 20
3.5760223692
 30
0.0
 10
5.7642807535
 20
3.5761533179
 30
0.0
 10
5.7670918838
 20
3.5764019042
 30
0.0
 10
5.7709288837
 20
3.576826213
 30
0.0
 10
5.7757789372
 20
3.5774689057
 30
0.0
 10
5.7807854062
 20
3.5782286347
 30
0.0
 10
5.7857053704
 20
3.5790659024
 30
0.0
 10
5.7903046717
 20
3.5799388561
 30
0.0
 10
5.7932306338
 20
3.5805621523
 30
0.0
 10
5.7946008291
 20
3.5808776864
 30
0.0
  0
SPLINE
  5
2F1
100
AcDbEntity
  8
0
100
AcDbSpline
 62
7
  6
CONTINUOUS
 70
0
 71
3
 72
20
 73
16
 74
0
 42
0.0000001
 43
0.0000001
 44
0.0000000001
 40
0.0
 40
0.0
 40
0.0
 40
0.0
 40
0.2136205033
 40
0.4048611311
 40
0.5718004357
 40
0.7126671367
 40
0.7728132339
 40
0.8259274335
 40
0.8719440542
 40
0.9108329559
 40
0.9426328163
 40
0.9675315218
 40
0.9775605939
 40
0.9861486845
 40
1.0
 40
1.0
 40
1.0
 40
1.0
 10
5.7946008291
 20
3.5808776864
 30
0.0
 10
5.7951678191
 20
3.5810082552
 30
0.0
 10
5.796240691
 20
3.5812632464
 30
0.0
 10
5.7977492169
 20
3.581650765
 30
0.0
 10
5.7990576728
 20
3.5820192636
 30
0.0
 10
5.8000138274
 20
3.5823204608
 30
0.0
 10
5.8006660192
 20
3.5825524764
 30
0.0
 10
5.8010702883
 20
3.5827100789
 30
0.0
 10
5.8014150941
 20
3.5828600913
 30
0.0
 10
5.801699785
 20
3.5830020158
 30
0.0
 10
5.80192357
 20
3.5831355262
 30
0.0
 10
5.8020688723
 20
3.5832460594
 30
0.0
 10
5.8021506186
 20
3.5833325113
 30
0.0
 10
5.802201878
 20
3.5834043933
 30
0.0
 10
5.8022233708
 20
3.5834652697
 30
0.0
 10
5.8022233444
 20
3.583502996
 30
0.0
  0
SPLINE
  5
2F2
100
AcDbEntity
  8
0
100
AcDbSpline
 62
7
  6
CONTINUOUS
 70
0
 71
3
 72
20
 73
16
 74
0
 42
0.0000001
 43
0.0000001
 44
0.0000000001
 40
0.0
 40
0.0
 40
0.0
 40
0.0
 40
0.0138751682
 40
0.0224678138
 40
0.0324970957
 40
0.0573823226
 40
0.0891536195
 40
0.1280041495
 40
0.173977328
 40
0.2270474014
 40
0.2871528385
 40
0.4279558259
 40
0.5948801368
 40
0.7861906494
 40
1.0
 40
1.0
 40
1.0
 40
1.0
 10
4.7000009736
 20
3.5244846156
 30
0.0
 10
4.700000946
 20
3.5244474669
 30
0.0
 10
4.700022014
 20
3.5243875352
 30
0.0
 10
4.7000723641
 20
3.5243167478
 30
0.0
 10
4.7001526176
 20
3.5242317018
 30
0.0
 10
4.7002952708
 20
3.5241229928
 30
0.0
 10
4.7005149939
 20
3.5239917386
 30
0.0
 10
4.7007945283
 20
3.5238522527
 30
0.0
 10
4.7011331253
 20
3.5237048378
 30
0.0
 10
4.7015301721
 20
3.5235499632
 30
0.0
 10
4.7021708652
 20
3.5233219231
 30
0.0
 10
4.7031104064
 20
3.5230257765
 30
0.0
 10
4.7043965006
 20
3.5226632192
 30
0.0
 10
4.7058798694
 20
3.5222815751
 30
0.0
 10
4.7069350435
 20
3.5220302085
 30
0.0
 10
4.70749281
 20
3.5219014121
 30
0.0
  0
SPLINE
  5
2F3
100
AcDbEntity
  8
0
100
AcDbSpline
 62
7
  6
CONTINUOUS
 70
0
 71
3
 72
17
 73
13
 74
0
 42
0.0000001
 43
0.0000001
 44
0.0000000001
 40
0.0
 40
0.0
 40
0.0
 40
0.0
 40
0.1175705222
 40
0.2504262495
 40
0.3923087986
 40
0.5365125816
 40
0.6760735555
 40
0.8040148418
 40
0.8616065542
 40
0.913929158
 40
0.9602822611
 40
1.0
 40
1.0
 40
1.0
 40
1.0
 10
4.70749281
 20
3.5219014121
 30
0.0
 10
4.7088594754
 20
3.5215858293
 30
0.0
 10
4.7117815814
 20
3.5209616
 30
0.0
 10
4.7163793537
 20
3.5200852442
 30
0.0
 10
4.721305986
 20
3.5192418186
 30
0.0
 10
4.7263259136
 20
3.5184740661
 30
0.0
 10
4.7311945254
 20
3.5178227302
 30
0.0
 10
4.7350493919
 20
3.5173918246
 30
0.0
 10
4.7378758598
 20
3.5171390263
 30
0.0
 10
4.7397355058
 20
3.5170057497
 30
0.0
 10
4.7413846261
 20
3.5169234062
 30
0.0
 10
4.7424114598
 20
3.5169007999
 30
0.0
 10
4.7428852966
 20
3.5169007999
 30
0.0
  0
SPLINE
  5
2F4
100
AcDbEntity
  8
0
100
AcDbSpline
 62
7
  6
CONTINUOUS
 70
0
 71
3
 72
20
 73
16
 74
0
 42
0.0000001
 43
0.0000001
 44
0.0000000001
 40
0.0
 40
0.0
 40
0.0
 40
0.0
 40
0.0028635099
 40
0.0070804611
 40
0.0207920508
 40
0.0421191308
 40
0.0712513155
 40
0.1082097269
 40
0.1529130963
 40
0.2052606687
 40
0.2651444883
 40
0.4070704059
 40
0.5777622218
 40
0.7759450863
 40
1.0
 40
1.0
 40
1.0
 40
1.0
 10
4.6371892358
 20
3.5249620077
 30
0.0
 10
4.6371892447
 20
3.5249570709
 30
0.0
 10
4.6371948265
 20
3.5249452506
 30
0.0
 10
4.6372215065
 20
3.5249211671
 30
0.0
 10
4.6372819883
 20
3.5248891758
 30
0.0
 10
4.6373842062
 20
3.524847398
 30
0.0
 10
4.6375270023
 20
3.5247986486
 30
0.0
 10
4.6377097141
 20
3.5247430515
 30
0.0
 10
4.6379322567
 20
3.5246808637
 30
0.0
 10
4.6381939746
 20
3.5246122507
 30
0.0
 10
4.6386191571
 20
3.5245062968
 30
0.0
 10
4.6392445216
 20
3.5243600769
 30
0.0
 10
4.6401043652
 20
3.524169792
 30
0.0
 10
4.6411043198
 20
3.5239575162
 30
0.0
 10
4.6418173578
 20
3.523810906
 30
0.0
 10
4.6421959043
 20
3.5237340123
 30
0.0
  0
SPLINE
  5
2F5
100
AcDbEntity
  8
0
100
AcDbSpline
 62
7
  6
CONTINUOUS
 70
0
 71
3
 72
15
 73
11
 74
0
 42
0.0000001
 43
0.0000001
 44
0.0000000001
 40
0.0
 40
0.0
 40
0.0
 40
0.0
 40
0.1016850617
 40
0.2228890907
 40
0.3575922002
 40
0.4992467504
 40
0.6410521326
 40
0.7761595471
 40
0.8978812623
 40
1.0
 40
1.0
 40
1.0
 40
1.0
 10
4.6421959043
 20
3.5237340123
 30
0.0
 10
4.6434056223
 20
3.5234882838
 30
0.0
 10
4.6460611335
 20
3.5229687245
 30
0.0
 10
4.6503275973
 20
3.5221673759
 30
0.0
 10
4.6550757861
 20
3.5213026348
 30
0.0
 10
4.660074054
 20
3.5204155549
 30
0.0
 10
4.6650809371
 20
3.5195491984
 30
0.0
 10
4.6698532558
 20
3.5187467195
 30
0.0
 10
4.6741547696
 20
3.5180502712
 30
0.0
 10
4.6768408379
 20
3.5176386361
 30
0.0
 10
4.6780677037
 20
3.5174607996
 30
0.0
  0
LINE
  5
2F6
100
AcDbEntity
  8
0
100
AcDbLine
 62
7
  6
CONTINUOUS
 10
4.6780677037
 20
3.5174607996
 11
4.6828939065
 21
3.5169007999
  0
LINE
  5
2F7
100
AcDbEntity
  8
0
100
AcDbLine
 62
7
  6
CONTINUOUS
 10
5.8277865639
 20
3.5759192903
 11
5.832073842
 21
3.5762747236
  0
SPLINE
  5
2F8
100
AcDbEntity
  8
0
100
AcDbSpline
 62
7
  6
CONTINUOUS
 70
0
 71
3
 72
15
 73
11
 74
0
 42
0.0000001
 43
0.0000001
 44
0.0000000001
 40
0.0
 40
0.0
 40
0.0
 40
0.0
 40
0.0995148469
 40
0.2177100355
 40
0.3491677604
 40
0.488080306
 40
0.6284612305
 40
0.7643515798
 40
0.890002928
 40
1.0
 40
1.0
 40
1.0
 40
1.0
 10
5.832073842
 20
3.5762747236
 30
0.0
 10
5.8332175432
 20
3.5764085453
 30
0.0
 10
5.835715836
 20
3.5767336168
 30
0.0
 10
5.8397143746
 20
3.5773133914
 30
0.0
 10
5.844156753
 20
3.5780072593
 30
0.0
 10
5.8488459541
 20
3.578782964
 30
0.0
 10
5.8535791945
 20
3.5796057213
 30
0.0
 10
5.8581545981
 20
3.5804396339
 30
0.0
 10
5.8623769257
 20
3.5812489799
 30
0.0
 10
5.8650490605
 20
3.5817924218
 30
0.0
 10
5.8662940423
 20
3.5820570505
 30
0.0
  0
SPLINE
  5
2F9
100
AcDbEntity
  8
0
100
AcDbSpline
 62
7
  6
CONTINUOUS
 70
0
 71
3
 72
19
 73
15
 74
0
 42
0.0000001
 43
0.0000001
 44
0.0000000001
 40
0.0
 40
0.0
 40
0.0
 40
0.0
 40
0.219863804
 40
0.415611883
 40
0.5854395072
 40
0.7276942144
 40
0.8408041774
 40
0.8860998777
 40
0.9237883909
 40
0.9538263146
 40
0.9762352944
 40
0.9846410718
 40
0.9912679074
 40
1.0
 40
1.0
 40
1.0
 40
1.0
 10
5.8662940423
 20
3.5820570505
 30
0.0
 10
5.8667954812
 20
3.5821636345
 30
0.0
 10
5.8677426303
 20
3.5823685786
 30
0.0
 10
5.8690739341
 20
3.5826702355
 30
0.0
 10
5.8702254249
 20
3.5829463093
 30
0.0
 10
5.8711854023
 20
3.5831940687
 30
0.0
 10
5.8718597687
 20
3.5833861698
 30
0.0
 10
5.8722948715
 20
3.5835268482
 30
0.0
 10
5.8725430115
 20
3.5836156878
 30
0.0
 10
5.8727374518
 20
3.5836959187
 30
0.0
 10
5.8728645024
 20
3.5837591355
 30
0.0
 10
5.8729377595
 20
3.5838078146
 30
0.0
 10
5.8729793077
 20
3.5838428383
 30
0.0
 10
5.8730025327
 20
3.5838759652
 30
0.0
 10
5.8730022616
 20
3.5838963234
 30
0.0
  0
SPLINE
  5
2FA
100
AcDbEntity
  8
0
100
AcDbSpline
 62
7
  6
CONTINUOUS
 70
0
 71
3
 72
19
 73
15
 74
0
 42
0.0000001
 43
0.0000001
 44
0.0000000001
 40
0.0
 40
0.0
 40
0.0
 40
0.0
 40
0.0351409966
 40
0.0474139886
 40
0.0613277761
 40
0.0942920121
 40
0.1342730528
 40
0.1812950182
 40
0.2352949851
 40
0.2961637055
 40
0.4376956355
 40
0.6038183045
 40
0.792195324
 40
1.0
 40
1.0
 40
1.0
 40
1.0
 10
4.902026079
 20
3.4682693161
 30
0.0
 10
4.9020261367
 20
3.468133404
 30
0.0
 10
4.9021460537
 20
3.4679618595
 30
0.0
 10
4.9023180089
 20
3.4678031397
 30
0.0
 10
4.9024991322
 20
3.467661621
 30
0.0
 10
4.9027840639
 20
3.467483212
 30
0.0
 10
4.9031965752
 20
3.4672697607
 30
0.0
 10
4.9036950956
 20
3.4670482037
 30
0.0
 10
4.904277966
 20
3.4668190552
 30
0.0
 10
4.9052128995
 20
3.466488032
 30
0.0
 10
4.9065757979
 20
3.4660689629
 30
0.0
 10
4.9084289085
 20
3.4655715122
 30
0.0
 10
4.9105444526
 20
3.4650663703
 30
0.0
 10
4.9120424958
 20
3.4647437013
 30
0.0
 10
4.9128296885
 20
3.4645815955
 30
0.0
  0
SPLINE
  5
2FB
100
AcDbEntity
  8
0
100
AcDbSpline
 62
7
  6
CONTINUOUS
 70
0
 71
3
 72
15
 73
11
 74
0
 42
0.0000001
 43
0.0000001
 44
0.0000000001
 40
0.0
 40
0.0
 40
0.0
 40
0.0
 40
0.1213519143
 40
0.2511466822
 40
0.3858376148
 40
0.521680295
 40
0.6547703563
 40
0.7813239387
 40
0.8976445641
 40
1.0
 40
1.0
 40
1.0
 40
1.0
 10
4.9128296885
 20
3.4645815955
 30
0.0
 10
4.9139776013
 20
3.464345207
 30
0.0
 10
4.9163598099
 20
3.4638873628
 30
0.0
 10
4.9200337791
 20
3.4632632169
 30
0.0
 10
4.9238579902
 20
3.462692424
 30
0.0
 10
4.9277243173
 20
3.4621933367
 30
0.0
 10
4.9315220843
 20
3.4617832759
 30
0.0
 10
4.9351404846
 20
3.461476167
 30
0.0
 10
4.9384695578
 20
3.4612846019
 30
0.0
 10
4.9405815277
 20
3.4612325221
 30
0.0
 10
4.9415700621
 20
3.4612325221
 30
0.0
  0
LINE
  5
2FC
100
AcDbEntity
  8
0
100
AcDbLine
 62
7
  6
CONTINUOUS
 10
4.503502256
 20
3.5759192903
 11
4.5042853723
 21
3.5760621387
  0
LINE
  5
2FD
100
AcDbEntity
  8
0
100
AcDbLine
 62
7
  6
CONTINUOUS
 10
4.6828939065
 20
3.5169007999
 11
4.6831864536
 21
3.5169553215
  0
SPLINE
  5
2FE
100
AcDbEntity
  8
0
100
AcDbSpline
 62
7
  6
CONTINUOUS
 70
0
 71
3
 72
18
 73
14
 74
0
 42
0.0000001
 43
0.0000001
 44
0.0000000001
 40
0.0
 40
0.0
 40
0.0
 40
0.0
 40
0.2181538443
 40
0.4096602357
 40
0.5738567846
 40
0.7102222467
 40
0.8185373205
 40
0.8623757299
 40
0.8996751477
 40
0.9309326011
 40
0.9569878865
 40
0.9792707257
 40
1.0
 40
1.0
 40
1.0
 40
1.0
 10
4.5719839956
 20
3.5759192903
 30
0.0
 10
4.5722200272
 20
3.5759192903
 30
0.0
 10
4.5726632953
 20
3.5759242629
 30
0.0
 10
4.5732837532
 20
3.5759497986
 30
0.0
 10
4.5738146599
 20
3.5759924385
 30
0.0
 10
4.574253228
 20
3.5760518309
 30
0.0
 10
4.5745590097
 20
3.5761182363
 30
0.0
 10
4.5747535604
 20
3.576183484
 30
0.0
 10
4.5748648652
 20
3.5762330786
 30
0.0
 10
4.5749524166
 20
3.5762868992
 30
0.0
 10
4.5750164995
 20
3.5763455332
 30
0.0
 10
4.5750564978
 20
3.5764101508
 30
0.0
 10
4.5750653392
 20
3.5764571448
 30
0.0
 10
4.5750653536
 20
3.5764795728
 30
0.0
  0
SPLINE
  5
2FF
100
AcDbEntity
  8
0
100
AcDbSpline
 62
7
  6
CONTINUOUS
 70
0
 71
3
 72
17
 73
13
 74
0
 42
0.0000001
 43
0.0000001
 44
0.0000000001
 40
0.0
 40
0.0
 40
0.0
 40
0.0
 40
0.4092282124
 40
0.5733091156
 40
0.7096049178
 40
0.8179008663
 40
0.8617596787
 40
0.8991068137
 40
0.9304454949
 40
0.9566227457
 40
0.9790717685
 40
1.0
 40
1.0
 40
1.0
 40
1.0
 10
4.7428852966
 20
3.5169007999
 30
0.0
 10
4.7433333594
 20
3.5169007999
 30
0.0
 10
4.7439615241
 20
3.5169128774
 30
0.0
 10
4.7447362301
 20
3.5169757276
 30
0.0
 10
4.7451797291
 20
3.5170365798
 30
0.0
 10
4.7454889332
 20
3.5171045798
 30
0.0
 10
4.7456856205
 20
3.5171713573
 30
0.0
 10
4.7457981841
 20
3.5172221183
 30
0.0
 10
4.7458867316
 20
3.5172771986
 30
0.0
 10
4.7459515327
 20
3.5173371935
 30
0.0
 10
4.7459919347
 20
3.5174032499
 30
0.0
 10
4.746000852
 20
3.5174512034
 30
0.0
 10
4.7460008675
 20
3.5174741176
 30
0.0
  0
SPLINE
  5
300
100
AcDbEntity
  8
0
100
AcDbSpline
 62
7
  6
CONTINUOUS
 70
0
 71
3
 72
19
 73
15
 74
0
 42
0.0000001
 43
0.0000001
 44
0.0000000001
 40
0.0
 40
0.0
 40
0.0
 40
0.0
 40
0.020860198
 40
0.0434121151
 40
0.069882177
 40
0.1016523231
 40
0.1394987083
 40
0.1838554934
 40
0.2349704071
 40
0.2929865274
 40
0.4299508329
 40
0.5943452813
 40
0.7848554841
 40
1.0
 40
1.0
 40
1.0
 40
1.0
 10
5.398886761
 20
3.4622421709
 30
0.0
 10
5.3988866558
 20
3.4622027053
 30
0.0
 10
5.3989021733
 20
3.462119722
 30
0.0
 10
5.3989729543
 20
3.4620054101
 30
0.0
 10
5.39908652
 20
3.461901196
 30
0.0
 10
5.3992415571
 20
3.4618049465
 30
0.0
 10
5.399438353
 20
3.4617157807
 30
0.0
 10
5.3996770859
 20
3.4616335679
 30
0.0
 10
5.3999577681
 20
3.4615584252
 30
0.0
 10
5.4004135827
 20
3.4614626539
 30
0.0
 10
5.4010874909
 20
3.4613676499
 30
0.0
 10
5.4020150069
 20
3.4612890825
 30
0.0
 10
5.4030927008
 20
3.4612418977
 30
0.0
 10
5.4038602193
 20
3.4612325221
 30
0.0
 10
5.404267254
 20
3.4612325221
 30
0.0
  0
SPLINE
  5
301
100
AcDbEntity
  8
0
100
AcDbSpline
 62
7
  6
CONTINUOUS
 70
0
 71
3
 72
19
 73
15
 74
0
 42
0.0000001
 43
0.0000001
 44
0.0000000001
 40
0.0
 40
0.0
 40
0.0
 40
0.0
 40
0.2116964858
 40
0.4014638535
 40
0.5665800892
 40
0.70497268
 40
0.7639063305
 40
0.8159377619
 40
0.8610922144
 40
0.8995055975
 40
0.9315569216
 40
0.9579676523
 40
0.9800456276
 40
1.0
 40
1.0
 40
1.0
 40
1.0
 10
4.8590356467
 20
3.5169007999
 30
0.0
 10
4.8596719456
 20
3.5169007999
 30
0.0
 10
4.8608787188
 20
3.5169161206
 30
0.0
 10
4.8625803988
 20
3.5169914611
 30
0.0
 10
4.8640581929
 20
3.5171165052
 30
0.0
 10
4.8651380798
 20
3.5172673122
 30
0.0
 10
4.8658726184
 20
3.5174175594
 30
0.0
 10
4.8663271711
 20
3.5175351192
 30
0.0
 10
4.8667145344
 20
3.5176631101
 30
0.0
 10
4.8670340357
 20
3.5178013806
 30
0.0
 10
4.8672857692
 20
3.517949767
 30
0.0
 10
4.8674704019
 20
3.5181091918
 30
0.0
 10
4.8675870357
 20
3.5182828864
 30
0.0
 10
4.8676140256
 20
3.5184103722
 30
0.0
 10
4.8676141569
 20
3.5184703492
 30
0.0
  0
ENDSEC
  0
SECTION
  2
OBJECTS
  0
DICTIONARY
  5
C
100
AcDbDictionary
280
0
281
1
  3
ACAD_GROUP
350
D
  3
ACAD_MLINESTYLE
350
17
  3
ACAD_LAYOUT
350
1A
  3
ACAD_PLOTSETTINGS
350
19
  3
ACAD_PLOTSTYLENAME
350
E
  0
DICTIONARY
  5
D
102
{ACAD_REACTORS
330
C
102
}
100
AcDbDictionary
280
0
281
1
  0
ACDBDICTIONARYWDFLT
  5
E
102
{ACAD_REACTORS
330
C
102
}
100
AcDbDictionary
281
1
  3
Normal
350
F
100
AcDbDictionaryWithDefault
340
F
  0
DICTIONARY
  5
17
102
{ACAD_REACTORS
330
C
102
}
100
AcDbDictionary
280
0
281
1
  3
Standard
350
18
  0
DICTIONARY
  5
19
102
{ACAD_REACTORS
330
C
102
}
100
AcDbDictionary
281
1
  0
DICTIONARY
  5
1A
102
{ACAD_REACTORS
330
C
102
}
100
AcDbDictionary
281
1
  3
Model
350
302
  3
Layout1
350
303
  0
ACDBPLACEHOLDER
  5
F
102
{ACAD_REACTORS
330
E
102
}
  0
MLINESTYLE
  5
18
102
{ACAD_REACTORS
330
17
102
}
100
AcDbMlineStyle
  2
STANDARD
 70
0
  3

 62
256
 51
90.0
 52
90.0
 71
2
 49
0.5
 62
256
  6
BYLAYER
 49
-0.5
 62
256
  6
BYLAYER
  0
LAYOUT
  5
302
102
{ACAD_REACTORS
330
1A
102
}
100
AcDbPlotSettings
  1

  2
none_device
  4
ANSI_A_(11.00_x_8.50_Inches)
  6

 40
0.0
 41
0.0
 42
0.0
 43
0.0
 44
279.4
 45
215.9
 46
0.0
 47
0.0
 48
0.0
 49
0.0
140
0.0
141
0.0
142
1.0
143
1.0
 70
1024
 72
0
 73
0
 74
0
  7

 75
0
147
1.0
148
0.0
149
0.0
100
AcDbLayout
  1
Model
 70
0
 71
0
 10
0.0
 20
0.0
 11
11.0
 21
8.5
 12
0.0
 22
0.0
 32
0.0
 14
0.0
 24
0.0
 34
0.0
 15
0.0
 25
0.0
 35
0.0
146
0.0
 13
0.0
 23
0.0
 33
0.0
 16
1.0
 26
0.0
 36
0.0
 17
0.0
 27
1.0
 37
0.0
 76
0
330
221
345
0
346
0
  0
LAYOUT
  5
303
102
{ACAD_REACTORS
330
1A
102
}
100
AcDbPlotSettings
  1

  2
none_device
  4
ANSI_A_(11.00_x_8.50_Inches)
  6

 40
0.0
 41
0.0
 42
0.0
 43
0.0
 44
279.4
 45
215.9
 46
0.0
 47
0.0
 48
0.0
 49
0.0
140
0.0
141
0.0
142
1.0
143
1.0
 70
0
 72
0
 73
0
 74
0
  7

 75
0
147
1.0
148
0.0
149
0.0
100
AcDbLayout
  1
Layout1
 70
0
 71
1
 10
0.0
 20
0.0
 11
11.0
 21
8.5
 12
0.0
 22
0.0
 32
0.0
 14
0.0
 24
0.0
 34
0.0
 15
0.0
 25
0.0
 35
0.0
146
0.0
 13
0.0
 23
0.0
 33
0.0
 16
1.0
 26
0.0
 36
0.0
 17
0.0
 27
1.0
 37
0.0
 76
0
330
222
345
0
346
0
  0
ENDSEC
  0
EOF
