999
DXF file: E:\BT Custom\CADOUTPUT\_RIGHT.dxf
999
Pro/ENGINEER 2018400 by Parametric Technology Corporation
  0
SECTION
  2
HEADER
  9
$ACADVER
  1
AC1018
  9
$DWGCODEPAGE
  3
ANSI_1252
  9
$EXTMAX
 10
22.0
 20
17.0
 30
0.0
  9
$EXTMIN
 10
0.0
 20
0.0
 30
0.0
  9
$LIMMIN
 10
0.0
 20
0.0
  9
$LIMMAX
 10
22.0
 20
17.0
  9
$VIEWCTR
 10
11.0
 20
8.5
  9
$VIEWSIZE
 40
17.0
  9
$CLAYER
  8
0
  9
$LTSCALE
 40
1.21
  9
$CELTYPE
  6
BYLAYER
  9
$DIMSCALE
 40
1.0
  9
$DIMASZ
 40
0.1
  9
$DIMEXO
 40
0.0625
  9
$DIMDLI
 40
0.836
  9
$DIMEXE
 40
0.125
  9
$DIMCEN
 40
0.198
  9
$DIMLFAC
 40
1.0
  9
$DIMBLK
  1
_FILLED
  9
$DIMALT
 70
1
  9
$DIMALTD
 70
2
  9
$DIMALTTD
 70
2
  9
$DIMALTF
 40
25.4
  9
$DIMTXT
 40
0.08
  9
$DIMTOL
 70
1
  9
$DIMLIM
 70
0
  9
$DIMTFAC
 40
1.0
  9
$DIMTP
 40
0.001
  9
$DIMTM
 40
0.001
  9
$DIMGAP
 40
0.09
  9
$DIMDSEP
 70
46
  9
$AUNITS
 70
0
  9
$PDMODE
 70
3
  9
$PDSIZE
 40
0.06
  9
$HANDSEED
  5
3E8
  9
$TILEMODE
 70
1
  9
$MEASUREMENT
 70
0
  9
$INSUNITS
 70
1
  0
ENDSEC
  0
SECTION
  2
CLASSES
  0
CLASS
  1
ACDBDICTIONARYWDFLT
  2
AcDbDictionaryWithDefault
  3
AutoCAD 2000
 90
0
 91
1
280
0
281
0
  0
CLASS
  1
ACDBPLACEHOLDER
  2
AcDbPlaceHolder
  3
AutoCAD 2000
 90
0
 91
1
280
0
281
0
  0
CLASS
  1
LAYOUT
  2
AcDbLayout
  3
AutoCAD 2000
 90
0
 91
0
280
0
281
0
  0
ENDSEC
  0
SECTION
  2
TABLES
  0
TABLE
  2
VPORT
  5
8
100
AcDbSymbolTable
 70
2
  0
VPORT
  5
1F4
100
AcDbSymbolTableRecord
100
AcDbViewportTableRecord
  2
*ACTIVE
 70
0
 10
0.0
 20
0.0
 11
1.0
 21
1.0
 12
11.0
 22
8.5
 13
0.0
 23
0.0
 14
1.0
 24
1.0
 15
0.0
 25
0.0
 16
0.0
 26
0.0
 36
1.0
 17
0.0
 27
0.0
 37
0.0
 40
17.0
 41
1.2941176471
 42
50.0
 43
0.0
 44
0.0
 50
0.0
 51
0.0
 71
0
 72
100
 73
1
 74
1
 75
0
 76
0
 77
0
 78
0
  0
ENDTAB
  0
TABLE
  2
LTYPE
  5
5
100
AcDbSymbolTable
 70
6
  0
LTYPE
  5
14
100
AcDbSymbolTableRecord
100
AcDbLinetypeTableRecord
  2
BYBLOCK
 70
0
  3

 72
65
 73
0
 40
0.0
  0
LTYPE
  5
15
100
AcDbSymbolTableRecord
100
AcDbLinetypeTableRecord
  2
BYLAYER
 70
0
  3

 72
65
 73
0
 40
0.0
  0
LTYPE
  5
16
100
AcDbSymbolTableRecord
100
AcDbLinetypeTableRecord
  2
CONTINUOUS
 70
64
  3
Solid line
 72
65
 73
0
 40
0.0
  0
LTYPE
  5
1F5
100
AcDbSymbolTableRecord
100
AcDbLinetypeTableRecord
  2
CENTER
 70
64
  3
____ _ ____ _ ____ _ ____ _ ____ _ ____ _ ____
 72
65
 73
4
 40
0.6
 49
0.375
 74
0
 49
-0.075
 74
0
 49
0.075
 74
0
 49
-0.075
 74
0
  0
LTYPE
  5
1F6
100
AcDbSymbolTableRecord
100
AcDbLinetypeTableRecord
  2
HIDDEN
 70
64
  3
- - - - - - - - - - - - - - - - - - - -
 72
65
 73
2
 40
0.2
 49
0.1
 74
0
 49
-0.1
 74
0
  0
LTYPE
  5
1F7
100
AcDbSymbolTableRecord
100
AcDbLinetypeTableRecord
  2
PHANTOM
 70
64
  3
_____ _ _ _____ _ _ _____ _ _ _____
 72
65
 73
6
 40
0.8
 49
0.45
 74
0
 49
-0.05
 74
0
 49
0.1
 74
0
 49
-0.05
 74
0
 49
0.1
 74
0
 49
-0.05
 74
0
  0
LTYPE
  5
1F8
100
AcDbSymbolTableRecord
100
AcDbLinetypeTableRecord
  2
DOT
 70
64
  3
. . . . . . . . . . . . . . . . . . . .
 72
65
 73
2
 40
0.2
 49
0.1
 74
0
 49
-0.1
 74
0
  0
LTYPE
  5
1F9
100
AcDbSymbolTableRecord
100
AcDbLinetypeTableRecord
  2
DASHED
 70
64
  3
- - - - - - - - - - - - - - - - - - - -
 72
65
 73
2
 40
0.2
 49
0.1
 74
0
 49
-0.1
 74
0
  0
ENDTAB
  0
TABLE
  2
LAYER
  5
2
100
AcDbSymbolTable
 70
36
  0
LAYER
  5
10
100
AcDbSymbolTableRecord
100
AcDbLayerTableRecord
  2
0
 70
0
 62
7
  6
CONTINUOUS
370
-3
390
F
  0
LAYER
  5
1FA
100
AcDbSymbolTableRecord
100
AcDbLayerTableRecord
  2
DEFAULT_1
 70
0
 62
7
  6
CENTER
370
-3
390
F
  0
LAYER
  5
1FB
100
AcDbSymbolTableRecord
100
AcDbLayerTableRecord
  2
DEFAULT_2
 70
0
 62
8
  6
HIDDEN
370
-3
390
F
  0
LAYER
  5
1FC
100
AcDbSymbolTableRecord
100
AcDbLayerTableRecord
  2
DEFAULT_3
 70
0
 62
7
  6
PHANTOM
370
-3
390
F
  0
LAYER
  5
1FD
100
AcDbSymbolTableRecord
100
AcDbLayerTableRecord
  2
ALL_FEATURES
 70
0
 62
7
  6
CONTINUOUS
370
-3
390
F
  0
LAYER
  5
1FE
100
AcDbSymbolTableRecord
100
AcDbLayerTableRecord
  2
AXES_FEATURES
 70
0
 62
7
  6
CONTINUOUS
370
-3
390
F
  0
LAYER
  5
1FF
100
AcDbSymbolTableRecord
100
AcDbLayerTableRecord
  2
DIMENSIONS
 70
0
 62
7
  6
CONTINUOUS
370
-3
390
F
  0
ENDTAB
  0
TABLE
  2
STYLE
  5
3
100
AcDbSymbolTable
 70
1
  0
STYLE
  5
11
100
AcDbSymbolTableRecord
100
AcDbTextStyleTableRecord
  2
STANDARD
 70
0
 40
0.0
 41
0.8
 50
0.0
 71
0
 42
0.2
  3
txt
  4

  0
STYLE
  5
200
100
AcDbSymbolTableRecord
100
AcDbTextStyleTableRecord
  2
TEXTSTYLE_1
 70
0
 40
0.0
 41
0.8
 50
0.0
 71
0
 42
0.2
  3
gdt
  4

  0
ENDTAB
  0
TABLE
  2
VIEW
  5
6
100
AcDbSymbolTable
 70
0
  0
ENDTAB
  0
TABLE
  2
UCS
  5
7
100
AcDbSymbolTable
 70
0
  0
ENDTAB
  0
TABLE
  2
APPID
  5
9
100
AcDbSymbolTable
 70
1
  0
APPID
  5
201
100
AcDbSymbolTableRecord
100
AcDbRegAppTableRecord
  2
ACAD
 70
0
  0
ENDTAB
  0
TABLE
  2
BLOCK_RECORD
  5
1
100
AcDbSymbolTable
 70
0
  0
BLOCK_RECORD
  5
202
100
AcDbSymbolTableRecord
100
AcDbBlockTableRecord
  2
*Model_Space
  0
BLOCK_RECORD
  5
203
100
AcDbSymbolTableRecord
100
AcDbBlockTableRecord
  2
*Paper_Space
  0
BLOCK_RECORD
  5
204
100
AcDbSymbolTableRecord
100
AcDbBlockTableRecord
  2
_FILLED
  0
ENDTAB
  0
TABLE
  2
DIMSTYLE
  5
A
100
AcDbSymbolTable
 70
1
100
AcDbDimStyleTable
 71
0
  0
DIMSTYLE
105
205
100
AcDbSymbolTableRecord
100
AcDbDimStyleTableRecord
  2
STANDARD
 70
0
  3

  4

 40
1.0
 41
0.1
 42
0.0625
 43
0.38
 44
0.125
 45
0.0
 46
0.0
 47
0.001
 48
0.001
140
0.08
141
0.09
142
0.0
143
25.4
144
1.0
145
0.0
146
1.0
147
0.09
 71
1.0
 72
0.0
 73
1
 74
1
 75
0
 76
0
 77
0
 78
4
 79
1
170
1
171
2
172
0
173
0
174
0
175
0
176
0
177
0
178
0
270
2
179
3
271
3
272
3
273
2
274
2
275
0
280
0
281
0
282
0
283
1
284
4
285
0
286
0
287
3
288
0
340
11
278
46
341
204
342
204
343
204
344
204
  0
ENDTAB
  0
ENDSEC
  0
SECTION
  2
BLOCKS
  0
BLOCK
  5
20
100
AcDbEntity
  8
0
100
AcDbBlockBegin
  2
*Model_Space
 70
0
 10
0.0
 20
0.0
 30
0.0
  3
*Model_Space
  1

  0
ENDBLK
  5
21
100
AcDbEntity
  8
0
100
AcDbBlockEnd
  0
BLOCK
  5
1C
100
AcDbEntity
  8
0
100
AcDbBlockBegin
  2
*Paper_Space
 70
0
 10
0.0
 20
0.0
 30
0.0
  3
*Paper_Space
  1

  0
ENDBLK
  5
1D
100
AcDbEntity
  8
0
100
AcDbBlockEnd
  0
BLOCK
  5
206
100
AcDbEntity
  8
0
100
AcDbBlockBegin
  2
_FILLED
 70
64
 10
0.0
 20
0.0
  3
_FILLED
  1

  0
SOLID
  5
207
100
AcDbEntity
  8
0
  6
BYBLOCK
 62
0
100
AcDbTrace
 10
0.0
 20
0.0
 11
-1.0
 21
0.2
 12
-1.0
 22
-0.2
 13
-1.0
 23
-0.2
  0
ENDBLK
  5
208
100
AcDbEntity
  8
0
  6
BYBLOCK
 62
0
100
AcDbBlockEnd
  0
ENDSEC
  0
SECTION
  2
ENTITIES
  0
LWPOLYLINE
  5
209
100
AcDbEntity
  8
0
100
AcDbPolyline
 62
7
  6
CONTINUOUS
 90
36
 70
0
 10
13.5975724594
 20
-4.8373016917
 10
13.7516095565
 20
-4.8236433723
 10
13.9485700447
 20
-4.7581548956
 10
14.1196957495
 20
-4.6394807215
 10
14.265092286
 20
-4.4618515609
 10
14.3750523725
 20
-4.2294208086
 10
14.4489149877
 20
-3.9443867095
 10
14.4882737662
 20
-3.6172156228
 10
14.4982024844
 20
-3.2601512568
 10
14.4847362161
 20
-2.8856971892
 10
14.4533963869
 20
-2.5003943259
 10
14.4079531214
 20
-2.1052637912
 10
14.3509137182
 20
-1.7005673627
 10
14.2837208111
 20
-1.2843911989
 10
14.2076782126
 20
-0.8570010159
 10
14.1237659268
 20
-0.4184514347
 10
14.032482704
 20
0.0326675931
 10
13.9341539352
 20
0.4978142802
 10
13.8292521441
 20
0.9772896911
 10
13.7180651661
 20
1.4720359796
 10
13.600685194
 20
1.9837012815
 10
13.4772433772
 20
2.5136738199
 10
13.3479186316
 20
3.063198574
 10
13.2128231065
 20
3.633974206
 10
13.0720395404
 20
4.2281017272
 10
12.9256624444
 20
4.8480579403
 10
12.7738091784
 20
5.4968505036
 10
12.6167384607
 20
6.1778259568
 10
12.4549244305
 20
6.8947981324
 10
12.2891517644
 20
7.6523056822
 10
12.1207351356
 20
8.4556655384
 10
11.9508376697
 20
9.3165497854
 10
11.7820952142
 20
10.2505485202
 10
11.6220662905
 20
11.2673499835
 10
11.4859545072
 20
12.3669917541
 10
11.4026928397
 20
13.4823067087
  0
LINE
  5
20A
100
AcDbEntity
  8
0
100
AcDbLine
 62
7
  6
CONTINUOUS
 10
13.5986093588
 20
-4.8373029275
 11
13.5975724594
 21
-4.8373016917
  0
LINE
  5
20B
100
AcDbEntity
  8
0
100
AcDbLine
 62
7
  6
CONTINUOUS
 10
13.598419303
 20
-4.2772784258
 11
13.5976886341
 21
-4.2772775432
  0
LWPOLYLINE
  5
20C
100
AcDbEntity
  8
0
100
AcDbPolyline
 62
7
  6
CONTINUOUS
 90
4
 70
0
 10
13.598419303
 20
-4.2772784258
 10
13.5695532296
 20
-4.2761520761
 10
13.5036070373
 20
-4.2668131341
 10
13.4344862859
 20
-4.2494094156
  0
LINE
  5
20D
100
AcDbEntity
  8
0
100
AcDbLine
 62
9
  6
CONTINUOUS
 10
13.3709121983
 20
-4.2401555426
 11
13.4344100594
 21
-4.2493866519
  0
LWPOLYLINE
  5
20E
100
AcDbEntity
  8
0
100
AcDbPolyline
 62
7
  6
CONTINUOUS
 90
4
 70
0
 10
13.2742203387
 20
-4.785986363
 10
13.3982138644
 20
-4.816829941
 10
13.5331478565
 20
-4.8349912413
 10
13.5986093588
 20
-4.8373029275
  0
LINE
  5
20F
100
AcDbEntity
  8
0
100
AcDbLine
 62
7
  6
CONTINUOUS
 10
9.3767259365
 20
-3.6228369584
 11
13.2742657836
 21
-4.7859999307
  0
LINE
  5
210
100
AcDbEntity
  8
0
100
AcDbLine
 62
9
  6
CONTINUOUS
 10
9.5368702123
 20
-3.0862236796
 11
9.4733723512
 21
-3.0769925703
  0
LINE
  5
211
100
AcDbEntity
  8
0
100
AcDbLine
 62
7
  6
CONTINUOUS
 10
9.5368702123
 20
-3.0862236796
 11
13.4344862859
 21
-4.2494094156
  0
LINE
  5
212
100
AcDbEntity
  8
0
100
AcDbLine
 62
7
  6
CONTINUOUS
 10
8.0663951768
 20
15.7140023536
 11
8.0276458485
 21
15.691596578
  0
LINE
  5
213
100
AcDbEntity
  8
0
100
AcDbLine
 62
7
  6
CONTINUOUS
 10
8.8014627581
 20
15.6952375592
 11
8.8397068866
 21
15.7173462866
  0
LINE
  5
214
100
AcDbEntity
  8
0
100
AcDbLine
 62
7
  6
CONTINUOUS
 10
8.8009461874
 20
15.6949389042
 11
8.8014627581
 21
15.6952375592
  0
LINE
  5
215
100
AcDbEntity
  8
0
100
AcDbLine
 62
7
  6
CONTINUOUS
 10
7.0914279591
 20
21.1097319668
 11
7.0912933642
 21
21.1089482608
  0
LINE
  5
216
100
AcDbEntity
  8
0
100
AcDbLine
 62
7
  6
CONTINUOUS
 10
6.9260322671
 20
22.0244326024
 11
6.9346036197
 21
22.0730431586
  0
LINE
  5
217
100
AcDbEntity
  8
0
100
AcDbLine
 62
7
  6
CONTINUOUS
 10
6.9618880265
 20
22.0895702269
 11
6.99247599
 21
22.2630431883
  0
LINE
  5
218
100
AcDbEntity
  8
0
100
AcDbLine
 62
7
  6
CONTINUOUS
 10
7.0197603915
 20
22.2795702269
 11
7.0241646913
 21
22.3045482524
  0
LINE
  5
219
100
AcDbEntity
  8
0
100
AcDbLine
 62
7
  6
CONTINUOUS
 10
7.0322694752
 20
22.350512766
 11
7.0477034507
 21
22.4380431905
  0
LINE
  5
21A
100
AcDbEntity
  8
0
100
AcDbLine
 62
7
  6
CONTINUOUS
 10
7.074987852
 20
22.4545702283
 11
7.083316918
 21
22.5018067087
  0
LINE
  5
21B
100
AcDbEntity
  8
0
100
AcDbLine
 62
7
  6
CONTINUOUS
 10
7.0914279591
 20
22.5478067087
 11
7.1064574506
 21
22.6330431905
  0
LINE
  5
21C
100
AcDbEntity
  8
0
100
AcDbLine
 62
7
  6
CONTINUOUS
 10
7.0324094687
 20
21.2840739109
 11
7.0323880626
 21
21.283954947
  0
LINE
  5
21D
100
AcDbEntity
  8
0
100
AcDbLine
 62
7
  6
CONTINUOUS
 10
7.083316918
 20
21.1541645548
 11
7.0834605522
 21
21.1549482608
  0
LINE
  5
21E
100
AcDbEntity
  8
0
100
AcDbLine
 62
7
  6
CONTINUOUS
 10
7.0242984276
 20
21.3298359832
 11
7.0243223589
 21
21.329954947
  0
LINE
  5
21F
100
AcDbEntity
  8
0
100
AcDbLine
 62
7
  6
CONTINUOUS
 10
8.8401712549
 20
15.7178842166
 11
8.8397068939
 21
15.717340772
  0
LINE
  5
220
100
AcDbEntity
  8
0
100
AcDbLine
 62
7
  6
CONTINUOUS
 10
8.0271712549
 20
15.6910984661
 11
8.0276457793
 21
15.6916478656
  0
LINE
  5
221
100
AcDbEntity
  8
0
100
AcDbLine
 62
9
  6
CONTINUOUS
 10
8.0010132965
 20
14.6747432914
 11
7.998436255
 21
14.6718273037
  0
LINE
  5
222
100
AcDbEntity
  8
0
100
AcDbLine
 62
7
  6
CONTINUOUS
 10
6.9258803447
 20
22.0226961207
 11
6.9260322577
 21
22.024432549
  0
LINE
  5
223
100
AcDbEntity
  8
0
100
AcDbLine
 62
7
  6
CONTINUOUS
 10
10.8260127768
 20
15.0779574984
 11
10.7790727137
 21
15.0451637557
  0
LINE
  5
224
100
AcDbEntity
  8
0
100
AcDbLine
 62
7
  6
CONTINUOUS
 10
10.7973431115
 20
15.0099007596
 11
10.7558689391
 21
14.9948296102
  0
LINE
  5
225
100
AcDbEntity
  8
0
100
AcDbLine
 62
7
  6
CONTINUOUS
 10
10.7979005123
 20
15.0101033358
 11
10.7973431115
 21
15.0099007596
  0
LINE
  5
226
100
AcDbEntity
  8
0
100
AcDbLine
 62
7
  6
CONTINUOUS
 10
6.9258803447
 20
22.0226961207
 11
6.9258803447
 21
21.6099172968
  0
LINE
  5
227
100
AcDbEntity
  8
0
100
AcDbLine
 62
9
  6
CONTINUOUS
 10
6.9260322577
 20
22.024432549
 11
6.9260322577
 21
21.6081808685
  0
LINE
  5
228
100
AcDbEntity
  8
0
100
AcDbLine
 62
9
  6
CONTINUOUS
 10
6.9346036197
 20
21.5595702589
 11
6.9346036197
 21
22.0730431586
  0
LINE
  5
229
100
AcDbEntity
  8
0
100
AcDbLine
 62
9
  6
CONTINUOUS
 10
6.9444517029
 20
22.0813067087
 11
6.9444517029
 21
21.5513067087
  0
LINE
  5
22A
100
AcDbEntity
  8
0
100
AcDbLine
 62
9
  6
CONTINUOUS
 10
6.9520399489
 20
21.5513067087
 11
6.9520399489
 21
22.0813067087
  0
LINE
  5
22B
100
AcDbEntity
  8
0
100
AcDbLine
 62
9
  6
CONTINUOUS
 10
6.9618880214
 20
22.0895701982
 11
6.9618880214
 21
21.5430432192
  0
LINE
  5
22C
100
AcDbEntity
  8
0
100
AcDbLine
 62
9
  6
CONTINUOUS
 10
6.99247599
 20
21.3695702291
 11
6.99247599
 21
22.2630431883
  0
LINE
  5
22D
100
AcDbEntity
  8
0
100
AcDbLine
 62
9
  6
CONTINUOUS
 10
7.0023240679
 20
22.2713067087
 11
7.0023240679
 21
21.3613067087
  0
LINE
  5
22E
100
AcDbEntity
  8
0
100
AcDbLine
 62
9
  6
CONTINUOUS
 10
7.009912314
 20
21.3613067087
 11
7.009912314
 21
22.2713067087
  0
LINE
  5
22F
100
AcDbEntity
  8
0
100
AcDbLine
 62
7
  6
CONTINUOUS
 10
10.7553264673
 20
14.9943849835
 11
10.755869735
 21
14.9948341305
  0
LINE
  5
230
100
AcDbEntity
  8
0
100
AcDbLine
 62
9
  6
CONTINUOUS
 10
7.0197603885
 20
22.2795702101
 11
7.0197603885
 21
21.3530432073
  0
LINE
  5
231
100
AcDbEntity
  8
0
100
AcDbLine
 62
9
  6
CONTINUOUS
 10
7.0477034508
 20
21.1945702264
 11
7.0477034508
 21
22.4380431911
  0
LINE
  5
232
100
AcDbEntity
  8
0
100
AcDbLine
 62
9
  6
CONTINUOUS
 10
7.0575515282
 20
22.4463067087
 11
7.0575515282
 21
21.1863067087
  0
LINE
  5
233
100
AcDbEntity
  8
0
100
AcDbLine
 62
9
  6
CONTINUOUS
 10
7.0651397743
 20
21.1863067087
 11
7.0651397743
 21
22.4463067087
  0
LINE
  5
234
100
AcDbEntity
  8
0
100
AcDbLine
 62
9
  6
CONTINUOUS
 10
7.074987852
 20
22.4545702283
 11
7.074987852
 21
21.1780431891
  0
LINE
  5
235
100
AcDbEntity
  8
0
100
AcDbLine
 62
9
  6
CONTINUOUS
 10
7.1064574507
 20
20.9995702261
 11
7.1064574507
 21
22.6330431913
  0
LINE
  5
236
100
AcDbEntity
  8
0
100
AcDbLine
 62
9
  6
CONTINUOUS
 10
7.1163055281
 20
22.6413067087
 11
7.1163055281
 21
20.9913067087
  0
LINE
  5
237
100
AcDbEntity
  8
0
100
AcDbLine
 62
9
  6
CONTINUOUS
 10
7.1216712549
 20
20.9913067087
 11
7.1216712549
 21
22.6413067087
  0
LINE
  5
238
100
AcDbEntity
  8
0
100
AcDbLine
 62
7
  6
CONTINUOUS
 10
7.1316712549
 20
22.7277991678
 11
7.1316712549
 21
20.9048142496
  0
LINE
  5
239
100
AcDbEntity
  8
0
100
AcDbLine
 62
7
  6
CONTINUOUS
 10
7.1336712549
 20
22.8563067087
 11
7.1336712549
 21
20.7763067087
  0
LINE
  5
23A
100
AcDbEntity
  8
0
100
AcDbLine
 62
9
  6
CONTINUOUS
 10
7.2146956629
 20
20.7763067087
 11
7.2146956624
 21
22.8563067087
  0
LINE
  5
23B
100
AcDbEntity
  8
0
100
AcDbLine
 62
9
  6
CONTINUOUS
 10
7.2474365743
 20
20.7885173888
 11
7.247436571
 21
22.8440960315
  0
LINE
  5
23C
100
AcDbEntity
  8
0
100
AcDbLine
 62
9
  6
CONTINUOUS
 10
7.6752976689
 20
22.6566001147
 11
7.6752973065
 21
20.9760132619
  0
LINE
  5
23D
100
AcDbEntity
  8
0
100
AcDbLine
 62
7
  6
CONTINUOUS
 10
7.8936712549
 20
19.3058461835
 11
7.8936712549
 21
17.1207672339
  0
LINE
  5
23E
100
AcDbEntity
  8
0
100
AcDbLine
 62
7
  6
CONTINUOUS
 10
8.7748219779
 20
21.6709223461
 11
8.7836712549
 21
21.7871728504
  0
LINE
  5
23F
100
AcDbEntity
  8
0
100
AcDbLine
 62
7
  6
CONTINUOUS
 10
11.687671223
 20
14.0043068512
 11
11.6585542034
 21
13.9815320841
  0
LINE
  5
240
100
AcDbEntity
  8
0
100
AcDbLine
 62
7
  6
CONTINUOUS
 10
6.9258803447
 20
21.6099172968
 11
6.9260322577
 21
21.6081808685
  0
LINE
  5
241
100
AcDbEntity
  8
0
100
AcDbLine
 62
7
  6
CONTINUOUS
 10
8.0236712549
 20
14.4823067087
 11
8.0175131067
 21
14.6642799875
  0
LINE
  5
242
100
AcDbEntity
  8
0
100
AcDbLine
 62
7
  6
CONTINUOUS
 10
7.9844150693
 20
15.6423269912
 11
7.9836712549
 21
15.6643067087
  0
LINE
  5
243
100
AcDbEntity
  8
0
100
AcDbLine
 62
7
  6
CONTINUOUS
 10
7.9836712549
 20
19.9863067087
 11
7.9836712549
 21
19.9363067087
  0
LINE
  5
244
100
AcDbEntity
  8
0
100
AcDbLine
 62
7
  6
CONTINUOUS
 10
7.9836712549
 20
15.8993067087
 11
7.9836712549
 21
15.7993067087
  0
LINE
  5
245
100
AcDbEntity
  8
0
100
AcDbLine
 62
7
  6
CONTINUOUS
 10
8.0236712549
 20
16.4683067087
 11
8.0236712549
 21
16.3683067087
  0
LINE
  5
246
100
AcDbEntity
  8
0
100
AcDbLine
 62
7
  6
CONTINUOUS
 10
8.0271712549
 20
15.6910512823
 11
8.0271712549
 21
15.6821891291
  0
LINE
  5
247
100
AcDbEntity
  8
0
100
AcDbLine
 62
7
  6
CONTINUOUS
 10
8.0658524381
 20
15.7312720754
 11
8.0658524381
 21
15.7136884998
  0
LINE
  5
248
100
AcDbEntity
  8
0
100
AcDbLine
 62
7
  6
CONTINUOUS
 10
8.0936712549
 20
20.9112159399
 11
8.0936712549
 21
20.261806255
  0
LINE
  5
249
100
AcDbEntity
  8
0
100
AcDbLine
 62
9
  6
CONTINUOUS
 10
8.1015699526
 20
21.0705042011
 11
8.1015699526
 21
22.6086216816
  0
LINE
  5
24A
100
AcDbEntity
  8
0
100
AcDbLine
 62
7
  6
CONTINUOUS
 10
8.1036712549
 20
15.7393067087
 11
8.1036712549
 21
15.7993067087
  0
LINE
  5
24B
100
AcDbEntity
  8
0
100
AcDbLine
 62
7
  6
CONTINUOUS
 10
8.1536712549
 20
14.4823067087
 11
8.1536712549
 21
9.8014656128
  0
LINE
  5
24C
100
AcDbEntity
  8
0
100
AcDbLine
 62
7
  6
CONTINUOUS
 10
8.7136712549
 20
14.4823067087
 11
8.7136712549
 21
9.8014656128
  0
LINE
  5
24D
100
AcDbEntity
  8
0
100
AcDbLine
 62
7
  6
CONTINUOUS
 10
8.7636712549
 20
15.7393067087
 11
8.7636712549
 21
15.7993067087
  0
LINE
  5
24E
100
AcDbEntity
  8
0
100
AcDbLine
 62
7
  6
CONTINUOUS
 10
8.7736712549
 20
21.6557960559
 11
8.7736712549
 21
20.261806255
  0
LINE
  5
24F
100
AcDbEntity
  8
0
100
AcDbLine
 62
7
  6
CONTINUOUS
 10
8.7836712549
 20
21.845440567
 11
8.7836712549
 21
21.7871728504
  0
LINE
  5
250
100
AcDbEntity
  8
0
100
AcDbLine
 62
7
  6
CONTINUOUS
 10
8.8014627581
 20
15.6776903488
 11
8.8014627581
 21
15.6952375592
  0
LINE
  5
251
100
AcDbEntity
  8
0
100
AcDbLine
 62
7
  6
CONTINUOUS
 10
8.8401712549
 20
15.726771274
 11
8.8401712549
 21
15.7178846985
  0
LINE
  5
252
100
AcDbEntity
  8
0
100
AcDbLine
 62
7
  6
CONTINUOUS
 10
8.8436712549
 20
16.4683067087
 11
8.8436712549
 21
16.3683067087
  0
LINE
  5
253
100
AcDbEntity
  8
0
100
AcDbLine
 62
7
  6
CONTINUOUS
 10
8.8836712549
 20
19.9863067087
 11
8.8836712549
 21
19.9363067087
  0
LINE
  5
254
100
AcDbEntity
  8
0
100
AcDbLine
 62
7
  6
CONTINUOUS
 10
8.8836712549
 20
15.8993067087
 11
8.8836712549
 21
15.7993067087
  0
LWPOLYLINE
  5
255
100
AcDbEntity
  8
0
100
AcDbPolyline
 62
7
  6
CONTINUOUS
 90
3
 70
0
 10
8.773670901
 20
21.6557960553
 10
8.7737957916
 20
21.6607917297
 10
8.7748233958
 20
21.6709326627
  0
LINE
  5
256
100
AcDbEntity
  8
0
100
AcDbLine
 62
7
  6
CONTINUOUS
 10
8.8436712549
 20
14.4823067087
 11
8.8498303073
 21
14.6643067087
  0
LINE
  5
257
100
AcDbEntity
  8
0
100
AcDbLine
 62
7
  6
CONTINUOUS
 10
8.1517617591
 20
9.6932205751
 11
7.823347639
 21
0.4002266881
  0
LINE
  5
258
100
AcDbEntity
  8
0
100
AcDbLine
 62
7
  6
CONTINUOUS
 10
8.7114123905
 20
9.6734425388
 11
8.3829982704
 21
0.3804486519
  0
LINE
  5
259
100
AcDbEntity
  8
0
100
AcDbLine
 62
7
  6
CONTINUOUS
 10
8.9736712549
 20
19.3058461835
 11
8.9736712549
 21
17.1207672339
  0
LINE
  5
25A
100
AcDbEntity
  8
0
100
AcDbLine
 62
9
  6
CONTINUOUS
 10
9.0939573955
 20
15.5215492208
 11
9.0939573955
 21
14.8070641966
  0
LINE
  5
25B
100
AcDbEntity
  8
0
100
AcDbLine
 62
9
  6
CONTINUOUS
 10
9.3578139847
 20
15.3643067087
 11
9.3578139847
 21
14.9643067087
  0
LINE
  5
25C
100
AcDbEntity
  8
0
100
AcDbLine
 62
7
  6
CONTINUOUS
 10
10.2490185243
 20
15.6649451843
 11
10.2486402849
 21
15.6588067087
  0
LINE
  5
25D
100
AcDbEntity
  8
0
100
AcDbLine
 62
7
  6
CONTINUOUS
 10
10.8004152707
 20
15.0272165659
 11
10.7973431115
 21
15.0099007596
  0
LINE
  5
25E
100
AcDbEntity
  8
0
100
AcDbLine
 62
7
  6
CONTINUOUS
 10
7.0324025602
 20
22.3505232747
 11
7.0324094687
 21
22.3504880813
  0
LINE
  5
25F
100
AcDbEntity
  8
0
100
AcDbLine
 62
7
  6
CONTINUOUS
 10
6.9688427529
 20
22.1114351134
 11
6.9686301499
 21
22.1125608135
  0
LINE
  5
260
100
AcDbEntity
  8
0
100
AcDbLine
 62
7
  6
CONTINUOUS
 10
7.0834605759
 20
22.4776651566
 11
7.083316918
 21
22.4784488626
  0
LINE
  5
261
100
AcDbEntity
  8
0
100
AcDbLine
 62
7
  6
CONTINUOUS
 10
6.9260322671
 20
21.608180815
 11
6.9346036197
 21
21.5595702589
  0
LINE
  5
262
100
AcDbEntity
  8
0
100
AcDbLine
 62
7
  6
CONTINUOUS
 10
6.9618880265
 20
21.5430431905
 11
6.99247599
 21
21.3695702291
  0
LINE
  5
263
100
AcDbEntity
  8
0
100
AcDbLine
 62
7
  6
CONTINUOUS
 10
7.0197603915
 20
21.3530431905
 11
7.0238462738
 21
21.3298710004
  0
LINE
  5
264
100
AcDbEntity
  8
0
100
AcDbLine
 62
7
  6
CONTINUOUS
 10
7.0319362493
 20
21.2839904695
 11
7.0477034507
 21
21.1945702269
  0
LINE
  5
265
100
AcDbEntity
  8
0
100
AcDbLine
 62
7
  6
CONTINUOUS
 10
7.074987852
 20
21.1780431891
 11
7.083316918
 21
21.1308067087
  0
LINE
  5
266
100
AcDbEntity
  8
0
100
AcDbLine
 62
7
  6
CONTINUOUS
 10
7.0914279591
 20
21.0848067087
 11
7.1064574506
 21
20.9995702269
  0
LINE
  5
267
100
AcDbEntity
  8
0
100
AcDbLine
 62
7
  6
CONTINUOUS
 10
7.0912933424
 20
22.5236651566
 11
7.0914279591
 21
22.5228814506
  0
LINE
  5
268
100
AcDbEntity
  8
0
100
AcDbLine
 62
7
  6
CONTINUOUS
 10
6.9765552666
 20
22.1574351134
 11
6.976741191
 21
22.1563094133
  0
LINE
  5
269
100
AcDbEntity
  8
0
100
AcDbLine
 62
7
  6
CONTINUOUS
 10
10.2490185243
 20
14.6636682331
 11
10.2486402849
 21
14.6698067087
  0
LINE
  5
26A
100
AcDbEntity
  8
0
100
AcDbLine
 62
7
  6
CONTINUOUS
 10
9.9336712549
 20
14.9343613169
 11
9.9336712549
 21
15.3942522377
  0
LINE
  5
26B
100
AcDbEntity
  8
0
100
AcDbLine
 62
7
  6
CONTINUOUS
 10
10.0926712549
 20
14.7643069322
 11
10.0926712549
 21
15.564306697
  0
LINE
  5
26C
100
AcDbEntity
  8
0
100
AcDbLine
 62
7
  6
CONTINUOUS
 10
10.1626712549
 20
15.7043067086
 11
10.1626712549
 21
15.695811799
  0
LINE
  5
26D
100
AcDbEntity
  8
0
100
AcDbLine
 62
7
  6
CONTINUOUS
 10
10.1626712549
 20
15.5126834287
 11
10.1626712549
 21
15.347435079
  0
LINE
  5
26E
100
AcDbEntity
  8
0
100
AcDbLine
 62
7
  6
CONTINUOUS
 10
10.1626712549
 20
14.9811783384
 11
10.1626712549
 21
14.8159299887
  0
LINE
  5
26F
100
AcDbEntity
  8
0
100
AcDbLine
 62
7
  6
CONTINUOUS
 10
10.1626712549
 20
14.6328016185
 11
10.1626712549
 21
14.6243067087
  0
LINE
  5
270
100
AcDbEntity
  8
0
100
AcDbLine
 62
7
  6
CONTINUOUS
 10
10.2476712549
 20
14.6243093261
 11
10.2476712549
 21
15.7043040914
  0
LINE
  5
271
100
AcDbEntity
  8
0
100
AcDbLine
 62
7
  6
CONTINUOUS
 10
10.2486402849
 20
14.6698067087
 11
10.2486402849
 21
15.6588067087
  0
LINE
  5
272
100
AcDbEntity
  8
0
100
AcDbLine
 62
9
  6
CONTINUOUS
 10
10.2490185243
 20
14.6636682331
 11
10.2490185243
 21
15.6649451843
  0
LINE
  5
273
100
AcDbEntity
  8
0
100
AcDbLine
 62
9
  6
CONTINUOUS
 10
10.3188359967
 20
15.9675084585
 11
10.3188359967
 21
14.3610927609
  0
LINE
  5
274
100
AcDbEntity
  8
0
100
AcDbLine
 62
9
  6
CONTINUOUS
 10
10.3893406486
 20
16.0321283731
 11
10.3893406486
 21
14.2964850443
  0
LINE
  5
275
100
AcDbEntity
  8
0
100
AcDbLine
 62
7
  6
CONTINUOUS
 10
10.624137585
 20
14.9399819286
 11
10.624137585
 21
14.5346314888
  0
LINE
  5
276
100
AcDbEntity
  8
0
100
AcDbLine
 62
7
  6
CONTINUOUS
 10
10.6876712549
 20
15.975031393
 11
10.6876712549
 21
15.9551351076
  0
LINE
  5
277
100
AcDbEntity
  8
0
100
AcDbLine
 62
9
  6
CONTINUOUS
 10
10.7554018324
 20
16.8260348981
 11
10.7554018324
 21
15.1041303161
  0
LINE
  5
278
100
AcDbEntity
  8
0
100
AcDbLine
 62
9
  6
CONTINUOUS
 10
10.7716562182
 20
16.8425638103
 11
10.7716562182
 21
15.0876014039
  0
LINE
  5
279
100
AcDbEntity
  8
0
100
AcDbLine
 62
7
  6
CONTINUOUS
 10
10.8044856092
 20
14.5346314888
 11
10.8044856092
 21
14.9399819286
  0
LINE
  5
27A
100
AcDbEntity
  8
0
100
AcDbLine
 62
7
  6
CONTINUOUS
 10
10.8116712549
 20
14.4823067087
 11
10.8116712549
 21
13.4823067087
  0
LINE
  5
27B
100
AcDbEntity
  8
0
100
AcDbLine
 62
7
  6
CONTINUOUS
 10
7.0243063471
 20
22.3045232747
 11
7.0242984276
 21
22.304558468
  0
LWPOLYLINE
  5
27C
100
AcDbEntity
  8
0
100
AcDbPolyline
 62
7
  6
CONTINUOUS
 90
48
 70
0
 10
10.8421584813
 20
13.4823067087
 10
10.8973103165
 20
12.6409534951
 10
10.9833507695
 20
11.8243518551
 10
11.0852408793
 20
11.0670816895
 10
11.1957209768
 20
10.3606780959
 10
11.3108149893
 20
9.6965841534
 10
11.4282706484
 20
9.0676029387
 10
11.5463703362
 20
8.469864412
 10
11.6640249031
 20
7.8998364269
 10
11.7805900555
 20
7.3541679319
 10
11.8955389056
 20
6.8305397129
 10
12.008492338
 20
6.3270423496
 10
12.1192268211
 20
5.8418357639
 10
12.2276176706
 20
5.3732080256
 10
12.3335350541
 20
4.9198818962
 10
12.4368725985
 20
4.4807837826
 10
12.5375586578
 20
4.0549262655
 10
12.6355441904
 20
3.6414081669
 10
12.7307817494
 20
3.2394642391
 10
12.8232382095
 20
2.8483748763
 10
12.9128926697
 20
2.4674471483
 10
12.9997079453
 20
2.0961126836
 10
13.0836294425
 20
1.7339151203
 10
13.164577984
 20
1.380529088
 10
13.2425198211
 20
1.0354406064
 10
13.3174567348
 20
0.6979669061
 10
13.3893343626
 20
0.3676364571
 10
13.4580440704
 20
0.0441682521
 10
13.5234191026
 20
-0.2725115801
 10
13.5852649368
 20
-0.5824141519
 10
13.6435095368
 20
-0.8863048384
 10
13.6979655792
 20
-1.1846181831
 10
13.748304761
 20
-1.4773155387
 10
13.7940766441
 20
-1.7638880571
 10
13.8347488142
 20
-2.0435050572
 10
13.8700901662
 20
-2.3182892567
 10
13.8995048706
 20
-2.5900272508
 10
13.9218269863
 20
-2.8588068726
 10
13.9353247
 20
-3.1231390257
 10
13.9377095777
 20
-3.3805640698
 10
13.9261393396
 20
-3.6242033904
 10
13.898372848
 20
-3.8418548676
 10
13.8552347409
 20
-4.0187197163
 10
13.8018996679
 20
-4.1452305118
 10
13.7476184973
 20
-4.2204658792
 10
13.6997551602
 20
-4.2564120063
 10
13.6452989437
 20
-4.2737486726
 10
13.5976886341
 20
-4.2772775432
  0
LINE
  5
27D
100
AcDbEntity
  8
0
100
AcDbLine
 62
7
  6
CONTINUOUS
 10
10.8894890249
 20
14.9399819286
 11
10.8894890249
 21
14.5346314888
  0
LINE
  5
27E
100
AcDbEntity
  8
0
100
AcDbLine
 62
7
  6
CONTINUOUS
 10
11.2919304587
 20
14.5346314888
 11
11.2919304587
 21
14.9399819286
  0
LINE
  5
27F
100
AcDbEntity
  8
0
100
AcDbLine
 62
7
  6
CONTINUOUS
 10
11.3830226948
 20
14.9399819286
 11
11.3830226948
 21
14.5346314888
  0
LINE
  5
280
100
AcDbEntity
  8
0
100
AcDbLine
 62
7
  6
CONTINUOUS
 10
11.4236712549
 20
14.4823067087
 11
11.4236712549
 21
13.4823067087
  0
LINE
  5
281
100
AcDbEntity
  8
0
100
AcDbLine
 62
7
  6
CONTINUOUS
 10
11.6051161043
 20
14.5346314888
 11
11.6051161043
 21
14.9399819286
  0
LINE
  5
282
100
AcDbEntity
  8
0
100
AcDbLine
 62
7
  6
CONTINUOUS
 10
11.6116712549
 20
14.9399819286
 11
11.6116712549
 21
14.5346314888
  0
LINE
  5
283
100
AcDbEntity
  8
0
100
AcDbLine
 62
7
  6
CONTINUOUS
 10
11.6585542354
 20
14.9302485299
 11
11.6585542354
 21
13.9815320432
  0
LINE
  5
284
100
AcDbEntity
  8
0
100
AcDbLine
 62
7
  6
CONTINUOUS
 10
11.6876712549
 20
14.0043068512
 11
11.6876712549
 21
17.0050736228
  0
LINE
  5
285
100
AcDbEntity
  8
0
100
AcDbLine
 62
9
  6
CONTINUOUS
 10
8.1536712549
 20
9.8014656128
 11
8.7136712549
 21
9.8014656128
  0
LINE
  5
286
100
AcDbEntity
  8
0
100
AcDbLine
 62
7
  6
CONTINUOUS
 10
12.0676712549
 20
15.5000900858
 11
12.0676712549
 21
16.4300751284
  0
LINE
  5
287
100
AcDbEntity
  8
0
100
AcDbLine
 62
7
  6
CONTINUOUS
 10
10.7790558263
 20
15.0451519576
 11
10.7791331281
 21
15.0447662449
  0
LINE
  5
288
100
AcDbEntity
  8
0
100
AcDbLine
 62
9
  6
CONTINUOUS
 10
7.998436255
 20
15.6567861137
 11
8.0010132965
 21
15.6538701261
  0
LINE
  5
289
100
AcDbEntity
  8
0
100
AcDbLine
 62
7
  6
CONTINUOUS
 10
8.0271712549
 20
15.682169216
 11
8.0276495195
 21
15.6816176759
  0
LINE
  5
28A
100
AcDbEntity
  8
0
100
AcDbLine
 62
7
  6
CONTINUOUS
 10
8.8401712549
 20
15.7268134609
 11
8.8397051881
 21
15.7273579354
  0
LINE
  5
28B
100
AcDbEntity
  8
0
100
AcDbLine
 62
7
  6
CONTINUOUS
 10
10.8117240404
 20
13.4823067087
 11
11.4236184693
 21
13.4823067087
  0
LINE
  5
28C
100
AcDbEntity
  8
0
100
AcDbLine
 62
7
  6
CONTINUOUS
 10
8.0276495477
 20
15.6816384291
 11
8.0576281065
 21
15.6643067087
  0
LINE
  5
28D
100
AcDbEntity
  8
0
100
AcDbLine
 62
7
  6
CONTINUOUS
 10
8.051436569
 20
15.7393067087
 11
8.0657222407
 21
15.731046897
  0
LINE
  5
28E
100
AcDbEntity
  8
0
100
AcDbLine
 62
7
  6
CONTINUOUS
 10
8.825127058
 20
15.6643067087
 11
8.8015929475
 21
15.6779154784
  0
LINE
  5
28F
100
AcDbEntity
  8
0
100
AcDbLine
 62
7
  6
CONTINUOUS
 10
8.8397051202
 20
15.7273071747
 11
8.8189509708
 21
15.7393067087
  0
LINE
  5
290
100
AcDbEntity
  8
0
100
AcDbLine
 62
7
  6
CONTINUOUS
 10
10.8002396198
 20
15.0270079521
 11
10.8003602397
 21
15.0269063912
  0
LINE
  5
291
100
AcDbEntity
  8
0
100
AcDbLine
 62
7
  6
CONTINUOUS
 10
10.7791412222
 20
15.0447718963
 11
10.8002396198
 21
15.0270079521
  0
LINE
  5
292
100
AcDbEntity
  8
0
100
AcDbLine
 62
9
  6
CONTINUOUS
 10
8.4336712675
 20
21.1603536773
 11
8.3855144871
 21
21.2331370094
  0
LINE
  5
293
100
AcDbEntity
  8
0
100
AcDbLine
 62
7
  6
CONTINUOUS
 10
8.0236737368
 20
14.4823067087
 11
8.8436687729
 21
14.4823067087
  0
LINE
  5
294
100
AcDbEntity
  8
0
100
AcDbLine
 62
7
  6
CONTINUOUS
 10
10.6806982526
 20
14.4823067087
 11
11.5546442571
 21
14.4823067087
  0
LINE
  5
295
100
AcDbEntity
  8
0
100
AcDbLine
 62
7
  6
CONTINUOUS
 10
10.8044856092
 20
14.5346314888
 11
10.8894890249
 21
14.5346314888
  0
LINE
  5
296
100
AcDbEntity
  8
0
100
AcDbLine
 62
7
  6
CONTINUOUS
 10
11.2919304587
 20
14.5346314888
 11
11.3830226948
 21
14.5346314888
  0
LINE
  5
297
100
AcDbEntity
  8
0
100
AcDbLine
 62
7
  6
CONTINUOUS
 10
11.6051161043
 20
14.5346314888
 11
11.6116712549
 21
14.5346314888
  0
LINE
  5
298
100
AcDbEntity
  8
0
100
AcDbLine
 62
7
  6
CONTINUOUS
 10
10.1626712549
 20
14.6243067087
 11
10.2476712549
 21
14.6243067087
  0
LINE
  5
299
100
AcDbEntity
  8
0
100
AcDbLine
 62
7
  6
CONTINUOUS
 10
10.1626712549
 20
14.6328016185
 11
10.2476712549
 21
14.6328016185
  0
LINE
  5
29A
100
AcDbEntity
  8
0
100
AcDbLine
 62
7
  6
CONTINUOUS
 10
8.9800740564
 20
14.6643067087
 11
8.0183027179
 21
14.6643067087
  0
LINE
  5
29B
100
AcDbEntity
  8
0
100
AcDbLine
 62
9
  6
CONTINUOUS
 10
9.0028176863
 20
14.6747432914
 11
8.0010132965
 21
14.6747432914
  0
LINE
  5
29C
100
AcDbEntity
  8
0
100
AcDbLine
 62
7
  6
CONTINUOUS
 10
10.2476712549
 20
14.7343067087
 11
10.2486402849
 21
14.7343067087
  0
LINE
  5
29D
100
AcDbEntity
  8
0
100
AcDbLine
 62
7
  6
CONTINUOUS
 10
10.2476712549
 20
14.8159299887
 11
10.1626712549
 21
14.8159299887
  0
LINE
  5
29E
100
AcDbEntity
  8
0
100
AcDbLine
 62
7
  6
CONTINUOUS
 10
10.3893406486
 20
14.2964850443
 11
10.8116712549
 21
14.1916844865
  0
LINE
  5
29F
100
AcDbEntity
  8
0
100
AcDbLine
 62
7
  6
CONTINUOUS
 10
11.4236712549
 20
14.0398178198
 11
11.6585542354
 21
13.9815320432
  0
LINE
  5
2A0
100
AcDbEntity
  8
0
100
AcDbLine
 62
7
  6
CONTINUOUS
 10
11.6116712549
 20
14.9399819286
 11
11.6051161043
 21
14.9399819286
  0
LINE
  5
2A1
100
AcDbEntity
  8
0
100
AcDbLine
 62
7
  6
CONTINUOUS
 10
11.3830226948
 20
14.9399819286
 11
11.2919304587
 21
14.9399819286
  0
LINE
  5
2A2
100
AcDbEntity
  8
0
100
AcDbLine
 62
7
  6
CONTINUOUS
 10
10.8894890249
 20
14.9399819286
 11
10.8044856092
 21
14.9399819286
  0
LINE
  5
2A3
100
AcDbEntity
  8
0
100
AcDbLine
 62
7
  6
CONTINUOUS
 10
9.3578139847
 20
14.9643067087
 11
9.9336712549
 21
14.9643067087
  0
LINE
  5
2A4
100
AcDbEntity
  8
0
100
AcDbLine
 62
7
  6
CONTINUOUS
 10
10.1626712549
 20
14.9811783384
 11
10.2476712549
 21
14.9811783384
  0
LINE
  5
2A5
100
AcDbEntity
  8
0
100
AcDbLine
 62
7
  6
CONTINUOUS
 10
11.4944922364
 20
14.9923067087
 11
10.6807107928
 21
14.9923067087
  0
LINE
  5
2A6
100
AcDbEntity
  8
0
100
AcDbLine
 62
7
  6
CONTINUOUS
 10
10.2476712549
 20
15.347435079
 11
10.1626712549
 21
15.347435079
  0
LINE
  5
2A7
100
AcDbEntity
  8
0
100
AcDbLine
 62
7
  6
CONTINUOUS
 10
9.3578139847
 20
15.3643067087
 11
9.9336712549
 21
15.3643067087
  0
LINE
  5
2A8
100
AcDbEntity
  8
0
100
AcDbLine
 62
7
  6
CONTINUOUS
 10
11.6876712549
 20
15.5000826071
 11
12.0676712549
 21
15.5000826071
  0
LINE
  5
2A9
100
AcDbEntity
  8
0
100
AcDbLine
 62
7
  6
CONTINUOUS
 10
10.1626712549
 20
15.5126834287
 11
10.2476712549
 21
15.5126834287
  0
LINE
  5
2AA
100
AcDbEntity
  8
0
100
AcDbLine
 62
7
  6
CONTINUOUS
 10
10.2476712549
 20
15.5943067087
 11
10.2486402849
 21
15.5943067087
  0
LINE
  5
2AB
100
AcDbEntity
  8
0
100
AcDbLine
 62
9
  6
CONTINUOUS
 10
8.0010132965
 20
15.6538701261
 11
9.0028176863
 21
15.6538701261
  0
LINE
  5
2AC
100
AcDbEntity
  8
0
100
AcDbLine
 62
7
  6
CONTINUOUS
 10
8.9800740564
 20
15.6643067087
 11
7.9836868929
 21
15.6643067087
  0
LINE
  5
2AD
100
AcDbEntity
  8
0
100
AcDbLine
 62
7
  6
CONTINUOUS
 10
10.2476712549
 20
15.695811799
 11
10.1626712549
 21
15.695811799
  0
LINE
  5
2AE
100
AcDbEntity
  8
0
100
AcDbLine
 62
7
  6
CONTINUOUS
 10
10.1626712549
 20
15.7043067087
 11
10.2476712549
 21
15.7043067087
  0
LINE
  5
2AF
100
AcDbEntity
  8
0
100
AcDbLine
 62
7
  6
CONTINUOUS
 10
8.0514210301
 20
15.7393067087
 11
8.8189506129
 21
15.7393067087
  0
LINE
  5
2B0
100
AcDbEntity
  8
0
100
AcDbLine
 62
7
  6
CONTINUOUS
 10
7.9836717524
 20
15.7993067087
 11
8.8836707574
 21
15.7993067087
  0
LINE
  5
2B1
100
AcDbEntity
  8
0
100
AcDbLine
 62
7
  6
CONTINUOUS
 10
10.7716562214
 20
15.0876014034
 11
10.8260127768
 21
15.0779574984
  0
LINE
  5
2B2
100
AcDbEntity
  8
0
100
AcDbLine
 62
7
  6
CONTINUOUS
 10
11.6114277902
 20
14.9386096734
 11
11.6876712549
 21
14.9250826071
  0
LINE
  5
2B3
100
AcDbEntity
  8
0
100
AcDbLine
 62
7
  6
CONTINUOUS
 10
11.4277973967
 20
14.9965796811
 11
10.9210621099
 21
15.0864843288
  0
LINE
  5
2B4
100
AcDbEntity
  8
0
100
AcDbLine
 62
7
  6
CONTINUOUS
 10
10.3893406486
 20
16.0321283731
 11
10.6911663015
 21
16.1070258499
  0
LINE
  5
2B5
100
AcDbEntity
  8
0
100
AcDbLine
 62
7
  6
CONTINUOUS
 10
10.7716562214
 20
16.8425638109
 11
11.6876712549
 21
17.0050826071
  0
LINE
  5
2B6
100
AcDbEntity
  8
0
100
AcDbLine
 62
7
  6
CONTINUOUS
 10
8.8836712549
 20
15.8993067087
 11
7.9836712549
 21
15.8993067087
  0
LINE
  5
2B7
100
AcDbEntity
  8
0
100
AcDbLine
 62
7
  6
CONTINUOUS
 10
8.0236712549
 20
16.3683067087
 11
8.8436712549
 21
16.3683067087
  0
LINE
  5
2B8
100
AcDbEntity
  8
0
100
AcDbLine
 62
7
  6
CONTINUOUS
 10
11.6876712549
 20
16.4300826071
 11
12.0676712549
 21
16.4300826071
  0
LINE
  5
2B9
100
AcDbEntity
  8
0
100
AcDbLine
 62
7
  6
CONTINUOUS
 10
8.8436708153
 20
16.4683067087
 11
8.0236716944
 21
16.4683067087
  0
LINE
  5
2BA
100
AcDbEntity
  8
0
100
AcDbLine
 62
9
  6
CONTINUOUS
 10
7.8936712549
 20
17.1207672339
 11
8.9736712549
 21
17.1207672339
  0
LINE
  5
2BB
100
AcDbEntity
  8
0
100
AcDbLine
 62
9
  6
CONTINUOUS
 10
8.9736712549
 20
19.3058461835
 11
7.8936712549
 21
19.3058461835
  0
LINE
  5
2BC
100
AcDbEntity
  8
0
100
AcDbLine
 62
7
  6
CONTINUOUS
 10
7.9836718534
 20
19.9363067087
 11
8.8836706564
 21
19.9363067087
  0
LINE
  5
2BD
100
AcDbEntity
  8
0
100
AcDbLine
 62
9
  6
CONTINUOUS
 10
8.8836712549
 20
19.9863067087
 11
7.9836712549
 21
19.9863067087
  0
LINE
  5
2BE
100
AcDbEntity
  8
0
100
AcDbLine
 62
9
  6
CONTINUOUS
 10
7.9974212577
 20
20.020744155
 11
8.869921252
 21
20.020744155
  0
LINE
  5
2BF
100
AcDbEntity
  8
0
100
AcDbLine
 62
9
  6
CONTINUOUS
 10
8.0936712549
 20
20.261806255
 11
8.7736712549
 21
20.261806255
  0
LINE
  5
2C0
100
AcDbEntity
  8
0
100
AcDbLine
 62
7
  6
CONTINUOUS
 10
7.9824865286
 20
21.0105884809
 11
7.6752976689
 21
20.9760133027
  0
LWPOLYLINE
  5
2C1
100
AcDbEntity
  8
0
100
AcDbPolyline
 62
7
  6
CONTINUOUS
 90
8
 70
0
 10
7.9824865286
 20
21.0105884809
 10
8.0026251857
 20
21.0108142688
 10
8.0274415664
 20
21.0053412078
 10
8.0500894264
 20
20.9937810047
 10
8.0690900924
 20
20.9768817526
 10
8.0832135917
 20
20.9557375068
 10
8.0915447145
 20
20.9317290067
 10
8.0936712549
 20
20.9112159399
  0
LINE
  5
2C2
100
AcDbEntity
  8
0
100
AcDbLine
 62
7
  6
CONTINUOUS
 10
7.2146956629
 20
20.7763067087
 11
7.1336712549
 21
20.7763067087
  0
LINE
  5
2C3
100
AcDbEntity
  8
0
100
AcDbLine
 62
7
  6
CONTINUOUS
 10
7.1316712549
 20
20.9048067087
 11
7.1336712549
 21
20.9048067087
  0
LINE
  5
2C4
100
AcDbEntity
  8
0
100
AcDbLine
 62
7
  6
CONTINUOUS
 10
7.1163055281
 20
20.9913067087
 11
7.1216712549
 21
20.9913067087
  0
LINE
  5
2C5
100
AcDbEntity
  8
0
100
AcDbLine
 62
7
  6
CONTINUOUS
 10
7.0575515282
 20
21.1863067087
 11
7.0651397743
 21
21.1863067087
  0
LINE
  5
2C6
100
AcDbEntity
  8
0
100
AcDbLine
 62
7
  6
CONTINUOUS
 10
7.0023240679
 20
21.3613067087
 11
7.009912314
 21
21.3613067087
  0
LINE
  5
2C7
100
AcDbEntity
  8
0
100
AcDbLine
 62
7
  6
CONTINUOUS
 10
6.9444517029
 20
21.5513067087
 11
6.9520399489
 21
21.5513067087
  0
LINE
  5
2C8
100
AcDbEntity
  8
0
100
AcDbLine
 62
7
  6
CONTINUOUS
 10
6.9215976031
 20
21.7913067087
 11
6.9258803447
 21
21.7913067087
  0
LINE
  5
2C9
100
AcDbEntity
  8
0
100
AcDbLine
 62
7
  6
CONTINUOUS
 10
6.9258803447
 20
21.8413067087
 11
6.9215976031
 21
21.8413067087
  0
LINE
  5
2CA
100
AcDbEntity
  8
0
100
AcDbLine
 62
7
  6
CONTINUOUS
 10
6.9444517029
 20
22.0813067087
 11
6.9520399489
 21
22.0813067087
  0
LINE
  5
2CB
100
AcDbEntity
  8
0
100
AcDbLine
 62
7
  6
CONTINUOUS
 10
7.0023240679
 20
22.2713067087
 11
7.009912314
 21
22.2713067087
  0
LINE
  5
2CC
100
AcDbEntity
  8
0
100
AcDbLine
 62
7
  6
CONTINUOUS
 10
7.0575515282
 20
22.4463067087
 11
7.0651397743
 21
22.4463067087
  0
LINE
  5
2CD
100
AcDbEntity
  8
0
100
AcDbLine
 62
7
  6
CONTINUOUS
 10
7.1163055281
 20
22.6413067087
 11
7.1216712549
 21
22.6413067087
  0
LINE
  5
2CE
100
AcDbEntity
  8
0
100
AcDbLine
 62
7
  6
CONTINUOUS
 10
7.1316712549
 20
22.7278067087
 11
7.1336712549
 21
22.7278067087
  0
LINE
  5
2CF
100
AcDbEntity
  8
0
100
AcDbLine
 62
7
  6
CONTINUOUS
 10
7.2146956627
 20
22.8563067087
 11
7.1336712549
 21
22.8563067087
  0
LINE
  5
2D0
100
AcDbEntity
  8
0
100
AcDbLine
 62
7
  6
CONTINUOUS
 10
8.1015699526
 20
22.6086216816
 11
7.6752976689
 21
22.6566001147
  0
ARC
  5
2D1
100
AcDbEntity
  8
0
100
AcDbCircle
 62
7
  6
CONTINUOUS
 10
8.6712617492
 20
3.8139917151
 40
11.8652511493
100
AcDbArc
 50
92.0535290744
 51
92.2731172853
  0
ARC
  5
2D2
100
AcDbEntity
  8
0
100
AcDbCircle
 62
7
  6
CONTINUOUS
 10
5.0859216846
 20
9.8014428759
 40
3.6277495703
100
AcDbArc
 50
357.9779746347
 51
0.0003591003
  0
ARC
  5
2D3
100
AcDbEntity
  8
0
100
AcDbCircle
 62
7
  6
CONTINUOUS
 10
5.0859176843
 20
9.8014429359
 40
3.0677535706
100
AcDbArc
 50
357.9783345626
 51
0.0004235324
  0
ARC
  5
2D4
100
AcDbEntity
  8
0
100
AcDbCircle
 62
7
  6
CONTINUOUS
 10
2.8147799931
 20
20.3548364891
 40
4.3384988864
100
AcDbArc
 50
9.7442342004
 51
9.9938563
  0
ARC
  5
2D5
100
AcDbEntity
  8
0
100
AcDbCircle
 62
7
  6
CONTINUOUS
 10
3.1536748734
 20
20.4148657609
 40
3.9943282662
100
AcDbArc
 50
10.0945225346
 51
10.2920398301
  0
ARC
  5
2D6
100
AcDbEntity
  8
0
100
AcDbCircle
 62
7
  6
CONTINUOUS
 10
2.7731179799
 20
23.2850246494
 40
4.3807865229
100
AcDbArc
 50
350.0057405644
 51
350.2545775442
  0
ARC
  5
2D7
100
AcDbEntity
  8
0
100
AcDbCircle
 62
7
  6
CONTINUOUS
 10
3.1237490993
 20
23.2231311679
 40
4.024734375
100
AcDbArc
 50
349.7086868699
 51
349.9033033592
  0
ARC
  5
2D8
100
AcDbEntity
  8
0
100
AcDbCircle
 62
7
  6
CONTINUOUS
 10
9.3936712549
 20
17.1207672339
 40
1.5
100
AcDbArc
 50
180.0
 51
205.8295449781
  0
ARC
  5
2D9
100
AcDbEntity
  8
0
100
AcDbCircle
 62
7
  6
CONTINUOUS
 10
7.4736712549
 20
17.1207672339
 40
1.5
100
AcDbArc
 50
334.1704550219
 51
360.0
  0
ARC
  5
2DA
100
AcDbEntity
  8
0
100
AcDbCircle
 62
7
  6
CONTINUOUS
 10
9.3936712549
 20
19.3058461835
 40
1.5
100
AcDbArc
 50
155.0967375885
 51
180.0
  0
ARC
  5
2DB
100
AcDbEntity
  8
0
100
AcDbCircle
 62
7
  6
CONTINUOUS
 10
7.4736712549
 20
19.3058461835
 40
1.5
100
AcDbArc
 50
0.0
 51
24.9032624115
  0
ARC
  5
2DC
100
AcDbEntity
  8
0
100
AcDbCircle
 62
7
  6
CONTINUOUS
 10
8.1787609041
 20
14.5995870832
 40
1.0681053873
100
AcDbArc
 50
93.63267301
 51
94.5704178926
  0
ARC
  5
2DD
100
AcDbEntity
  8
0
100
AcDbCircle
 62
7
  6
CONTINUOUS
 10
7.7634333119
 20
20.1929576799
 40
0.788
100
AcDbArc
 50
96.4218397814
 51
130.9058659626
  0
ARC
  5
2DE
100
AcDbEntity
  8
0
100
AcDbCircle
 62
7
  6
CONTINUOUS
 10
8.4336712549
 20
15.1643067087
 40
0.7507329752
100
AcDbArc
 50
28.4152481218
 51
40.7011720417
  0
ARC
  5
2DF
100
AcDbEntity
  8
0
100
AcDbCircle
 62
7
  6
CONTINUOUS
 10
8.4336712549
 20
15.1643067087
 40
0.7507329752
100
AcDbArc
 50
319.2988279583
 51
331.5847518782
  0
ARC
  5
2E0
100
AcDbEntity
  8
0
100
AcDbCircle
 62
7
  6
CONTINUOUS
 10
8.4336712549
 20
15.1643067087
 40
0.6572408002
100
AcDbArc
 50
131.4690538246
 51
228.5309461754
  0
ARC
  5
2E1
100
AcDbEntity
  8
0
100
AcDbCircle
 62
9
  6
CONTINUOUS
 10
8.4336712549
 20
15.1643067087
 40
0.6533492546
100
AcDbArc
 50
131.4690538246
 51
228.5309461754
  0
ARC
  5
2E2
100
AcDbEntity
  8
0
100
AcDbCircle
 62
7
  6
CONTINUOUS
 10
7.6415320544
 20
16.1646927812
 40
0.433
100
AcDbArc
 50
322.2004490872
 51
28.0498776995
  0
ARC
  5
2E3
100
AcDbEntity
  8
0
100
AcDbCircle
 62
7
  6
CONTINUOUS
 10
9.2258104553
 20
16.1646927812
 40
0.433
100
AcDbArc
 50
151.9501223005
 51
217.7995509128
  0
ARC
  5
2E4
100
AcDbEntity
  8
0
100
AcDbCircle
 62
7
  6
CONTINUOUS
 10
9.1236712549
 20
20.261806255
 40
0.35
100
AcDbArc
 50
180.0
 51
223.5311514926
  0
ARC
  5
2E5
100
AcDbEntity
  8
0
100
AcDbCircle
 62
7
  6
CONTINUOUS
 10
7.7436712549
 20
20.261806255
 40
0.35
100
AcDbArc
 50
316.4688485074
 51
360.0
  0
ARC
  5
2E6
100
AcDbEntity
  8
0
100
AcDbCircle
 62
7
  6
CONTINUOUS
 10
9.3578139847
 20
15.6643067087
 40
0.3
100
AcDbArc
 50
208.4152481218
 51
270.0
  0
ARC
  5
2E7
100
AcDbEntity
  8
0
100
AcDbCircle
 62
7
  6
CONTINUOUS
 10
9.3578139847
 20
14.6643067087
 40
0.3
100
AcDbArc
 50
90.0
 51
151.5847518782
  0
ARC
  5
2E8
100
AcDbEntity
  8
0
100
AcDbCircle
 62
7
  6
CONTINUOUS
 10
7.2146956626
 20
20.8263067087
 40
0.05
100
AcDbArc
 50
270.0
 51
310.9058661425
  0
ARC
  5
2E9
100
AcDbEntity
  8
0
100
AcDbCircle
 62
7
  6
CONTINUOUS
 10
8.0336712549
 20
19.9863067087
 40
0.05
100
AcDbArc
 50
136.4688478326
 51
180.0
  0
ARC
  5
2EA
100
AcDbEntity
  8
0
100
AcDbCircle
 62
7
  6
CONTINUOUS
 10
8.8336712549
 20
19.9863067087
 40
0.05
100
AcDbArc
 50
0.0
 51
43.5311521674
  0
ARC
  5
2EB
100
AcDbEntity
  8
0
100
AcDbCircle
 62
7
  6
CONTINUOUS
 10
8.9800740564
 20
15.6343067087
 40
0.03
100
AcDbArc
 50
40.7011720417
 51
90.0
  0
ARC
  5
2EC
100
AcDbEntity
  8
0
100
AcDbCircle
 62
7
  6
CONTINUOUS
 10
8.0183027179
 20
15.6343067087
 40
0.03
100
AcDbArc
 50
90.0000000001
 51
131.4690538246
  0
ARC
  5
2ED
100
AcDbEntity
  8
0
100
AcDbCircle
 62
7
  6
CONTINUOUS
 10
8.9800740564
 20
14.6943067087
 40
0.03
100
AcDbArc
 50
270.0
 51
319.2988279583
  0
ARC
  5
2EE
100
AcDbEntity
  8
0
100
AcDbCircle
 62
7
  6
CONTINUOUS
 10
8.0183027179
 20
14.6943067087
 40
0.03
100
AcDbArc
 50
228.5309461754
 51
270.0
  0
ARC
  5
2EF
100
AcDbEntity
  8
0
100
AcDbCircle
 62
9
  6
CONTINUOUS
 10
8.0250587419
 20
15.6381475072
 40
0.0287295003
100
AcDbArc
 50
145.7861690419
 51
146.8204919074
  0
ARC
  5
2F0
100
AcDbEntity
  8
0
100
AcDbCircle
 62
9
  6
CONTINUOUS
 10
8.0250587416
 20
14.6904659101
 40
0.0287295
100
AcDbArc
 50
213.1795080689
 51
214.2138309925
  0
ARC
  5
2F1
100
AcDbEntity
  8
0
100
AcDbCircle
 62
7
  6
CONTINUOUS
 10
7.1216712549
 20
20.9813067087
 40
0.01
100
AcDbArc
 50
0.0
 51
90.0
  0
ARC
  5
2F2
100
AcDbEntity
  8
0
100
AcDbCircle
 62
7
  6
CONTINUOUS
 10
7.1163055281
 20
21.0013067087
 40
0.01
100
AcDbArc
 50
190.0000048669
 51
270.0
  0
ARC
  5
2F3
100
AcDbEntity
  8
0
100
AcDbCircle
 62
7
  6
CONTINUOUS
 10
8.1892919841
 20
27.7260288221
 40
12.0499849254
100
AcDbArc
 50
272.0009570008
 51
272.2407894345
  0
ARC
  5
2F4
100
AcDbEntity
  8
0
100
AcDbCircle
 62
7
  6
CONTINUOUS
 10
7.7634333119
 20
23.4396557375
 40
0.788
100
AcDbArc
 50
229.0941338575
 51
263.5781868591
  0
ARC
  5
2F5
100
AcDbEntity
  8
0
100
AcDbCircle
 62
7
  6
CONTINUOUS
 10
8.0156712549
 20
21.845440567
 40
0.768
100
AcDbArc
 50
0.0
 51
83.5781868591
  0
ARC
  5
2F6
100
AcDbEntity
  8
0
100
AcDbCircle
 62
7
  6
CONTINUOUS
 10
7.1313691096
 20
21.8008762886
 40
0.2136321694
100
AcDbArc
 50
167.9853175919
 51
169.0908363665
  0
ARC
  5
2F7
100
AcDbEntity
  8
0
100
AcDbCircle
 62
7
  6
CONTINUOUS
 10
7.1313672813
 20
21.8317367572
 40
0.2136303038
100
AcDbArc
 50
190.909158555
 51
192.0147046837
  0
ARC
  5
2F8
100
AcDbEntity
  8
0
100
AcDbCircle
 62
7
  6
CONTINUOUS
 10
7.0534493808
 20
21.6425212408
 40
0.0838987985
100
AcDbArc
 50
191.5553719317
 51
192.4838419571
  0
ARC
  5
2F9
100
AcDbEntity
  8
0
100
AcDbCircle
 62
7
  6
CONTINUOUS
 10
6.8978295855
 20
21.6375432769
 40
0.0779537112
100
AcDbArc
 50
10.9608915901
 51
11.9822858252
  0
ARC
  5
2FA
100
AcDbEntity
  8
0
100
AcDbCircle
 62
7
  6
CONTINUOUS
 10
7.2146956626
 20
22.8063067087
 40
0.05
100
AcDbArc
 50
49.0941386811
 51
90.0
  0
ARC
  5
2FB
100
AcDbEntity
  8
0
100
AcDbCircle
 62
7
  6
CONTINUOUS
 10
7.1216712549
 20
22.6513067087
 40
0.01
100
AcDbArc
 50
270.0
 51
360.0
  0
ARC
  5
2FC
100
AcDbEntity
  8
0
100
AcDbCircle
 62
7
  6
CONTINUOUS
 10
7.009912314
 20
22.2813067087
 40
0.01
100
AcDbArc
 50
270.0
 51
349.9999022528
  0
ARC
  5
2FD
100
AcDbEntity
  8
0
100
AcDbCircle
 62
7
  6
CONTINUOUS
 10
7.009912314
 20
21.3513067087
 40
0.01
100
AcDbArc
 50
10.0000977472
 51
90.0
  0
ARC
  5
2FE
100
AcDbEntity
  8
0
100
AcDbCircle
 62
7
  6
CONTINUOUS
 10
7.0651397743
 20
21.1763067087
 40
0.01
100
AcDbArc
 50
10.0
 51
90.0
  0
ARC
  5
2FF
100
AcDbEntity
  8
0
100
AcDbCircle
 62
7
  6
CONTINUOUS
 10
7.0575515282
 20
21.1963067087
 40
0.01
100
AcDbArc
 50
190.000003338
 51
270.0
  0
ARC
  5
300
100
AcDbEntity
  8
0
100
AcDbCircle
 62
7
  6
CONTINUOUS
 10
7.0575515282
 20
22.4363067087
 40
0.01
100
AcDbArc
 50
90.0
 51
169.999996662
  0
ARC
  5
301
100
AcDbEntity
  8
0
100
AcDbCircle
 62
7
  6
CONTINUOUS
 10
7.0651397743
 20
22.4563067087
 40
0.01
100
AcDbArc
 50
270.0
 51
350.0
  0
ARC
  5
302
100
AcDbEntity
  8
0
100
AcDbCircle
 62
7
  6
CONTINUOUS
 10
7.1163055281
 20
22.6313067087
 40
0.01
100
AcDbArc
 50
90.0
 51
169.9999951331
  0
ARC
  5
303
100
AcDbEntity
  8
0
100
AcDbCircle
 62
7
  6
CONTINUOUS
 10
7.0023240679
 20
21.3713067087
 40
0.01
100
AcDbArc
 50
190.0
 51
270.0
  0
ARC
  5
304
100
AcDbEntity
  8
0
100
AcDbCircle
 62
7
  6
CONTINUOUS
 10
7.0023240679
 20
22.2613067087
 40
0.01
100
AcDbArc
 50
90.0
 51
170.0
  0
ARC
  5
305
100
AcDbEntity
  8
0
100
AcDbCircle
 62
7
  6
CONTINUOUS
 10
6.9520399489
 20
22.0913067087
 40
0.01
100
AcDbArc
 50
270.0
 51
349.9998328346
  0
ARC
  5
306
100
AcDbEntity
  8
0
100
AcDbCircle
 62
7
  6
CONTINUOUS
 10
6.9520399489
 20
21.5413067087
 40
0.01
100
AcDbArc
 50
10.0001671655
 51
90.0
  0
ARC
  5
307
100
AcDbEntity
  8
0
100
AcDbCircle
 62
7
  6
CONTINUOUS
 10
6.9444517029
 20
22.0713067087
 40
0.01
100
AcDbArc
 50
90.0
 51
170.0
  0
ARC
  5
308
100
AcDbEntity
  8
0
100
AcDbCircle
 62
7
  6
CONTINUOUS
 10
6.9444517029
 20
21.5613067087
 40
0.01
100
AcDbArc
 50
190.0
 51
270.0
  0
ARC
  5
309
100
AcDbEntity
  8
0
100
AcDbCircle
 62
7
  6
CONTINUOUS
 10
9.5040085677
 20
4.5547801281
 40
10.5383110006
100
AcDbArc
 50
82.0729427221
 51
82.2163480906
  0
ARC
  5
30A
100
AcDbEntity
  8
0
100
AcDbCircle
 62
7
  6
CONTINUOUS
 10
9.8085998501
 20
6.765281735
 40
8.324769924
100
AcDbArc
 50
82.1358363732
 51
82.4100867776
  0
ARC
  5
30B
100
AcDbEntity
  8
0
100
AcDbCircle
 62
9
  6
CONTINUOUS
 10
13.6646142799
 20
-3.2608984579
 40
1.0223528503
100
AcDbArc
 50
253.3047840846
 51
256.9397909906
  0
ARC
  5
30C
100
AcDbEntity
  8
0
100
AcDbCircle
 62
9
  6
CONTINUOUS
 10
13.5989392537
 20
-3.6769352869
 40
0.6003438249
100
AcDbArc
 50
266.9020813854
 51
269.6392129673
  0
ARC
  5
30D
100
AcDbEntity
  8
0
100
AcDbCircle
 62
9
  6
CONTINUOUS
 10
9.4392945856
 20
-3.4126945597
 40
0.2192516357
100
AcDbArc
 50
245.2448639694
 51
253.4194133661
  0
ARC
  5
30E
100
AcDbEntity
  8
0
100
AcDbCircle
 62
7
  6
CONTINUOUS
 10
16.0676712549
 20
15.9750392556
 40
5.38
100
AcDbArc
 50
170.8988649225
 51
179.9999999999
  0
ARC
  5
30F
100
AcDbEntity
  8
0
100
AcDbCircle
 62
7
  6
CONTINUOUS
 10
16.0676712549
 20
15.9551259586
 40
5.38
100
AcDbArc
 50
180.0
 51
189.1011350774
  0
ARC
  5
310
100
AcDbEntity
  8
0
100
AcDbCircle
 62
7
  6
CONTINUOUS
 10
11.7376712549
 20
14.8478231894
 40
1.5
100
AcDbArc
 50
187.05199258
 51
198.9344959639
  0
ARC
  5
311
100
AcDbEntity
  8
0
100
AcDbCircle
 62
7
  6
CONTINUOUS
 10
11.7376712549
 20
15.480790228
 40
1.5
100
AcDbArc
 50
161.0655040361
 51
172.94800742
  0
ARC
  5
312
100
AcDbEntity
  8
0
100
AcDbCircle
 62
7
  6
CONTINUOUS
 10
10.8765559466
 20
13.7986282129
 40
1.3187918961
100
AcDbArc
 50
64.8285320707
 51
65.2683319236
  0
ARC
  5
313
100
AcDbEntity
  8
0
100
AcDbCircle
 62
7
  6
CONTINUOUS
 10
11.0677143177
 20
15.1643369334
 40
1.0539143419
100
AcDbArc
 50
210.4249233761
 51
210.8241087027
  0
ARC
  5
314
100
AcDbEntity
  8
0
100
AcDbCircle
 62
7
  6
CONTINUOUS
 10
11.0676735238
 20
15.1643075221
 40
1.0538642714
100
AcDbArc
 50
202.3061990358
 51
210.4246677025
  0
ARC
  5
315
100
AcDbEntity
  8
0
100
AcDbCircle
 62
7
  6
CONTINUOUS
 10
11.06767336
 20
15.1643058168
 40
1.0538641862
100
AcDbArc
 50
149.176119708
 51
157.693793544
  0
ARC
  5
316
100
AcDbEntity
  8
0
100
AcDbCircle
 62
7
  6
CONTINUOUS
 10
11.0676712549
 20
15.1643067087
 40
0.9233422984
100
AcDbArc
 50
168.5605612585
 51
191.4394387415
  0
ARC
  5
317
100
AcDbEntity
  8
0
100
AcDbCircle
 62
7
  6
CONTINUOUS
 10
10.248682413
 20
15.1642931487
 40
0.3900169962
100
AcDbArc
 50
113.6186890456
 51
143.8704304456
  0
ARC
  5
318
100
AcDbEntity
  8
0
100
AcDbCircle
 62
7
  6
CONTINUOUS
 10
10.2486712549
 20
15.1643067087
 40
0.39
100
AcDbArc
 50
216.1289274719
 51
246.360047173
  0
ARC
  5
319
100
AcDbEntity
  8
0
100
AcDbCircle
 62
7
  6
CONTINUOUS
 10
10.8006648526
 20
14.6702864422
 40
0.223
100
AcDbArc
 50
217.4679952771
 51
237.4538555669
  0
ARC
  5
31A
100
AcDbEntity
  8
0
100
AcDbCircle
 62
7
  6
CONTINUOUS
 10
10.8006648526
 20
14.8043269752
 40
0.223
100
AcDbArc
 50
122.5461444331
 51
142.5320047229
  0
ARC
  5
31B
100
AcDbEntity
  8
0
100
AcDbCircle
 62
7
  6
CONTINUOUS
 10
11.4346776572
 20
14.6702864422
 40
0.223
100
AcDbArc
 50
302.5461444331
 51
321.39348593
  0
ARC
  5
31C
100
AcDbEntity
  8
0
100
AcDbCircle
 62
7
  6
CONTINUOUS
 10
11.4939321672
 20
14.8013666861
 40
0.1812273662
100
AcDbArc
 50
82.1595260633
 51
85.8935773998
  0
ARC
  5
31D
100
AcDbEntity
  8
0
100
AcDbCircle
 62
7
  6
CONTINUOUS
 10
10.714312021
 20
14.6112462558
 40
0.1192204034
100
AcDbArc
 50
261.113270145
 51
278.857957482
  0
ARC
  5
31E
100
AcDbEntity
  8
0
100
AcDbCircle
 62
7
  6
CONTINUOUS
 10
10.4134250211
 20
14.3935414352
 40
0.1
100
AcDbArc
 50
198.9344823695
 51
256.063657001
  0
ARC
  5
31F
100
AcDbEntity
  8
0
100
AcDbCircle
 62
7
  6
CONTINUOUS
 10
10.4134250211
 20
15.9350719822
 40
0.1
100
AcDbArc
 50
103.936342999
 51
161.0655176305
  0
ARC
  5
320
100
AcDbEntity
  8
0
100
AcDbCircle
 62
7
  6
CONTINUOUS
 10
10.7751500459
 20
16.8228713455
 40
0.02
100
AcDbArc
 50
100.0606992806
 51
170.8988649225
  0
ARC
  5
321
100
AcDbEntity
  8
0
100
AcDbCircle
 62
7
  6
CONTINUOUS
 10
10.7751500459
 20
15.1072938687
 40
0.02
100
AcDbArc
 50
189.1011350774
 51
259.9393007194
  0
SPLINE
  5
322
100
AcDbEntity
  8
0
100
AcDbSpline
 62
7
  6
CONTINUOUS
 70
0
 71
3
 72
9
 73
5
 74
0
 42
0.0000001
 43
0.0000001
 44
0.0000000001
 40
0.0
 40
0.0
 40
0.0
 40
0.0
 40
0.4999975981
 40
1.0
 40
1.0
 40
1.0
 40
1.0
 10
6.9224167046
 20
21.845346461
 30
0.0
 10
6.9229241864
 20
21.8477331452
 30
0.0
 10
6.9240159186
 20
21.8524904241
 30
0.0
 10
6.9252373583
 20
21.8572157913
 30
0.0
 10
6.925876811
 20
21.8595705767
 30
0.0
  0
SPLINE
  5
323
100
AcDbEntity
  8
0
100
AcDbSpline
 62
7
  6
CONTINUOUS
 70
0
 71
3
 72
9
 73
5
 74
0
 42
0.0000001
 43
0.0000001
 44
0.0000000001
 40
0.0
 40
0.0
 40
0.0
 40
0.0
 40
0.5000023872
 40
1.0
 40
1.0
 40
1.0
 40
1.0
 10
6.9258769518
 20
21.7730423224
 30
0.0
 10
6.9252374741
 20
21.7753971822
 30
0.0
 10
6.9240159879
 20
21.7801226997
 30
0.0
 10
6.9229242176
 20
21.7848801311
 30
0.0
 10
6.9224167183
 20
21.7872668919
 30
0.0
  0
SPLINE
  5
324
100
AcDbEntity
  8
0
100
AcDbSpline
 62
7
  6
CONTINUOUS
 70
0
 71
3
 72
18
 73
14
 74
0
 42
0.0000001
 43
0.0000001
 44
0.0000000001
 40
0.0
 40
0.0
 40
0.0
 40
0.0
 40
0.0218044251
 40
0.0465533649
 40
0.0758243377
 40
0.1105499501
 40
0.1512577192
 40
0.1981970091
 40
0.3109546216
 40
0.4486798586
 40
0.6105304126
 40
0.7949295456
 40
1.0
 40
1.0
 40
1.0
 40
1.0
 10
6.9706404006
 20
21.6620485046
 30
0.0
 10
6.9707077557
 20
21.6620484117
 30
0.0
 10
6.9708521526
 20
21.6620207449
 30
0.0
 10
6.9710604989
 20
21.6619086022
 30
0.0
 10
6.9712699242
 20
21.6617294524
 30
0.0
 10
6.9714817424
 20
21.661483898
 30
0.0
 10
6.9716963539
 20
21.6611720463
 30
0.0
 10
6.9720049895
 20
21.6606348351
 30
0.0
 10
6.9723854056
 20
21.6597966058
 30
0.0
 10
6.9728230505
 20
21.6585997637
 30
0.0
 10
6.9732587014
 20
21.6571689629
 30
0.0
 10
6.973687998
 20
21.6555205586
 30
0.0
 10
6.9739532285
 20
21.6543468452
 30
0.0
 10
6.9740848283
 20
21.6537271897
 30
0.0
  0
SPLINE
  5
325
100
AcDbEntity
  8
0
100
AcDbSpline
 62
7
  6
CONTINUOUS
 70
0
 71
3
 72
12
 73
8
 74
0
 42
0.0000001
 43
0.0000001
 44
0.0000000001
 40
0.0
 40
0.0
 40
0.0
 40
0.0
 40
0.2358709773
 40
0.4957197652
 40
0.7579694694
 40
0.8830287412
 40
1.0
 40
1.0
 40
1.0
 40
1.0
 10
6.9743612023
 20
21.6523653115
 30
0.0
 10
6.9747453652
 20
21.6503857636
 30
0.0
 10
6.975413793
 20
21.6461982861
 30
0.0
 10
6.9761433928
 20
21.6397580138
 30
0.0
 10
6.9765424831
 20
21.6342379198
 30
0.0
 10
6.976710364
 20
21.6299297732
 30
0.0
 10
6.976741191
 20
21.6278605684
 30
0.0
 10
6.976741191
 20
21.6268605718
 30
0.0
  0
SPLINE
  5
326
100
AcDbEntity
  8
0
100
AcDbSpline
 62
7
  6
CONTINUOUS
 70
0
 71
3
 72
18
 73
14
 74
0
 42
0.0000001
 43
0.0000001
 44
0.0000000001
 40
0.0
 40
0.0
 40
0.0
 40
0.0
 40
0.01387536
 40
0.0324777763
 40
0.0573561365
 40
0.0891237213
 40
0.127987392
 40
0.173966558
 40
0.2270107711
 40
0.2870341092
 40
0.4275750558
 40
0.5944301078
 40
1.0
 40
1.0
 40
1.0
 40
1.0
 10
6.9690690881
 20
21.5386600457
 30
0.0
 10
6.9691038145
 20
21.5386600109
 30
0.0
 10
6.9691842782
 20
21.5386314182
 30
0.0
 10
6.9692929886
 20
21.5385359285
 30
0.0
 10
6.9694099438
 20
21.5383874703
 30
0.0
 10
6.9695349103
 20
21.5381833192
 30
0.0
 10
6.9696684951
 20
21.537923643
 30
0.0
 10
6.9698100315
 20
21.5376087805
 30
0.0
 10
6.9699590934
 20
21.5372396109
 30
0.0
 10
6.9701789089
 20
21.5366440945
 30
0.0
 10
6.9704651728
 20
21.5357699281
 30
0.0
 10
6.9709655254
 20
21.5340569748
 30
0.0
 10
6.9713157938
 20
21.5326672663
 30
0.0
 10
6.9715509029
 20
21.531679833
 30
0.0
  0
SPLINE
  5
327
100
AcDbEntity
  8
0
100
AcDbSpline
 62
7
  6
CONTINUOUS
 70
0
 71
3
 72
16
 73
12
 74
0
 42
0.0000001
 43
0.0000001
 44
0.0000000001
 40
0.0
 40
0.0
 40
0.0
 40
0.0
 40
0.1178921105
 40
0.2527474513
 40
0.3974954518
 40
0.5444825189
 40
0.6857429852
 40
0.8133849655
 40
0.9202231986
 40
0.963845413
 40
1.0
 40
1.0
 40
1.0
 40
1.0
 10
6.9715509029
 20
21.531679833
 30
0.0
 10
6.9718886426
 20
21.5302613616
 30
0.0
 10
6.972552933
 20
21.5272060709
 30
0.0
 10
6.9734745266
 20
21.5223765238
 30
0.0
 10
6.9743535947
 20
21.5171736884
 30
0.0
 10
6.975144812
 20
21.5118767386
 30
0.0
 10
6.9758086546
 20
21.5067755375
 30
0.0
 10
6.9763125473
 20
21.5021553838
 30
0.0
 10
6.9765989261
 20
21.498726896
 30
0.0
 10
6.976717684
 20
21.4964216906
 30
0.0
 10
6.976741191
 20
21.495435008
 30
0.0
 10
6.976741191
 20
21.4949878372
 30
0.0
  0
SPLINE
  5
328
100
AcDbEntity
  8
0
100
AcDbSpline
 62
7
  6
CONTINUOUS
 70
0
 71
3
 72
22
 73
18
 74
0
 42
0.0000001
 43
0.0000001
 44
0.0000000001
 40
0.0
 40
0.0
 40
0.0
 40
0.0
 40
0.0085732694
 40
0.0176035742
 40
0.0275494035
 40
0.0387577799
 40
0.0658007644
 40
0.0998029797
 40
0.1411143525
 40
0.1898144474
 40
0.2457582191
 40
0.3086091295
 40
0.3779823914
 40
0.4534501459
 40
0.6204506339
 40
0.8047988029
 40
1.0
 40
1.0
 40
1.0
 40
1.0
 10
6.9733853391
 20
21.8858595645
 30
0.0
 10
6.9734442365
 20
21.8858595367
 30
0.0
 10
6.9735656925
 20
21.8858434946
 30
0.0
 10
6.9737428181
 20
21.8857723562
 30
0.0
 10
6.9739157983
 20
21.8856557331
 30
0.0
 10
6.9741560722
 20
21.8854261686
 30
0.0
 10
6.974440633
 20
21.8850143967
 30
0.0
 10
6.9747487415
 20
21.8843810371
 30
0.0
 10
6.9750421922
 20
21.8835799354
 30
0.0
 10
6.9753182546
 20
21.882615403
 30
0.0
 10
6.9755749262
 20
21.8814932718
 30
0.0
 10
6.9758105507
 20
21.8802219421
 30
0.0
 10
6.976023102
 20
21.8788108076
 30
0.0
 10
6.9762816991
 20
21.8766839274
 30
0.0
 10
6.9765280243
 20
21.8737610828
 30
0.0
 10
6.9767028011
 20
21.8700097773
 30
0.0
 10
6.976741191
 20
21.8674021033
 30
0.0
 10
6.976741191
 20
21.8660610923
 30
0.0
  0
SPLINE
  5
329
100
AcDbEntity
  8
0
100
AcDbSpline
 62
7
  6
CONTINUOUS
 70
0
 71
3
 72
19
 73
15
 74
0
 42
0.0000001
 43
0.0000001
 44
0.0000000001
 40
0.0
 40
0.0
 40
0.0
 40
0.0
 40
0.01875245
 40
0.0397946315
 40
0.0654219045
 40
0.0969286421
 40
0.1350012974
 40
0.1799709835
 40
0.2319451608
 40
0.2909364499
 40
0.4297673985
 40
0.5957047469
 40
0.7866597417
 40
1.0
 40
1.0
 40
1.0
 40
1.0
 10
6.9753708673
 20
22.0543188064
 30
0.0
 10
6.9754245271
 20
22.0543186695
 30
0.0
 10
6.9755395039
 20
22.0542923951
 30
0.0
 10
6.9756935586
 20
22.0541801039
 30
0.0
 10
6.9758337328
 20
22.0540036588
 30
0.0
 10
6.9759637
 20
22.0537631869
 30
0.0
 10
6.9760843335
 20
22.0534578482
 30
0.0
 10
6.9761956597
 20
22.0530875483
 30
0.0
 10
6.9762975687
 20
22.0526529163
 30
0.0
 10
6.9764274773
 20
22.0519498229
 30
0.0
 10
6.9765570079
 20
22.0509162377
 30
0.0
 10
6.9766639766
 20
22.0495014412
 30
0.0
 10
6.9767282186
 20
22.0478707043
 30
0.0
 10
6.976741191
 20
22.0467137504
 30
0.0
 10
6.976741191
 20
22.0461032792
 30
0.0
  0
SPLINE
  5
32A
100
AcDbEntity
  8
0
100
AcDbSpline
 62
7
  6
CONTINUOUS
 70
0
 71
3
 72
17
 73
13
 74
0
 42
0.0000001
 43
0.0000001
 44
0.0000000001
 40
0.0
 40
0.0
 40
0.0
 40
0.0
 40
0.2204172609
 40
0.4133338352
 40
0.5783038537
 40
0.7150012494
 40
0.8233525027
 40
0.9039221137
 40
0.9345699106
 40
0.9597088479
 40
0.9807486573
 40
1.0
 40
1.0
 40
1.0
 40
1.0
 10
6.976741191
 20
21.4949878372
 30
0.0
 10
6.976741191
 20
21.4948088713
 30
0.0
 10
6.9767378374
 20
21.4944732522
 30
0.0
 10
6.9767205214
 20
21.4940039389
 30
0.0
 10
6.9766914575
 20
21.4936033442
 30
0.0
 10
6.976651055
 20
21.4932725985
 30
0.0
 10
6.9765995304
 20
21.4930131894
 30
0.0
 10
6.9765441453
 20
21.4928424517
 30
0.0
 10
6.9764899106
 20
21.4927454597
 30
0.0
 10
6.9764495444
 20
21.4926972206
 30
0.0
 10
6.9764047376
 20
21.4926668872
 30
0.0
 10
6.9763716551
 20
21.4926601448
 30
0.0
 10
6.9763560242
 20
21.4926601621
 30
0.0
  0
SPLINE
  5
32B
100
AcDbEntity
  8
0
100
AcDbSpline
 62
7
  6
CONTINUOUS
 70
0
 71
3
 72
23
 73
19
 74
0
 42
0.0000001
 43
0.0000001
 44
0.0000000001
 40
0.0
 40
0.0
 40
0.0
 40
0.0
 40
0.0076385327
 40
0.0161087512
 40
0.0259469136
 40
0.0374899094
 40
0.0509381941
 40
0.0663980267
 40
0.1034577958
 40
0.1486793551
 40
0.2018052759
 40
0.2623076916
 40
0.3295458039
 40
0.4027901589
 40
0.4811211651
 40
0.6491372594
 40
0.8252946813
 40
1.0
 40
1.0
 40
1.0
 40
1.0
 10
7.0863846326
 20
21.6559332321
 30
0.0
 10
7.0864610465
 20
21.6559331303
 30
0.0
 10
7.086622965
 20
21.6559044764
 30
0.0
 10
7.0868563823
 20
21.6557848711
 30
0.0
 10
7.0870873229
 20
21.655592818
 30
0.0
 10
7.0873170985
 20
21.6553295167
 30
0.0
 10
7.0875462543
 20
21.6549951676
 30
0.0
 10
7.087870373
 20
21.6544196063
 30
0.0
 10
7.0882603827
 20
21.6535205708
 30
0.0
 10
7.0886957914
 20
21.6522370355
 30
0.0
 10
7.0891154014
 20
21.6507035266
 30
0.0
 10
7.0895146979
 20
21.6489383498
 30
0.0
 10
7.0898879402
 20
21.6469623236
 30
0.0
 10
7.0902296839
 20
21.6447999282
 30
0.0
 10
7.0906480699
 20
21.641630031
 30
0.0
 10
7.0910556553
 20
21.6374216743
 30
0.0
 10
7.0913555829
 20
21.6322385438
 30
0.0
 10
7.0914279591
 20
21.6287282858
 30
0.0
 10
7.0914279591
 20
21.6269805772
 30
0.0
  0
SPLINE
  5
32C
100
AcDbEntity
  8
0
100
AcDbSpline
 62
7
  6
CONTINUOUS
 70
0
 71
3
 72
16
 73
12
 74
0
 42
0.0000001
 43
0.0000001
 44
0.0000000001
 40
0.0
 40
0.0
 40
0.0
 40
0.0
 40
0.0100440063
 40
0.0257984009
 40
0.0786470624
 40
0.1612141267
 40
0.2733497715
 40
0.4144960729
 40
0.5835659315
 40
0.7791962397
 40
1.0
 40
1.0
 40
1.0
 40
1.0
 10
7.0834597386
 20
21.154947679
 30
0.0
 10
7.0834775535
 20
21.1549479018
 30
0.0
 10
7.083521187
 20
21.154923984
 30
0.0
 10
7.0836079857
 20
21.1548152615
 30
0.0
 10
7.0837266449
 20
21.1545715215
 30
0.0
 10
7.0838827531
 20
21.1541621375
 30
0.0
 10
7.0840659739
 20
21.1535945518
 30
0.0
 10
7.0842739739
 20
21.1528749673
 30
0.0
 10
7.0845047095
 20
21.1520077371
 30
0.0
 10
7.0847561314
 20
21.151000047
 30
0.0
 10
7.0849262331
 20
21.1502811975
 30
0.0
 10
7.0850146299
 20
21.1498996379
 30
0.0
  0
SPLINE
  5
32D
100
AcDbEntity
  8
0
100
AcDbSpline
 62
7
  6
CONTINUOUS
 70
0
 71
3
 72
15
 73
11
 74
0
 42
0.0000001
 43
0.0000001
 44
0.0000000001
 40
0.0
 40
0.0
 40
0.0
 40
0.0
 40
0.1046852637
 40
0.2297756955
 40
0.3684586544
 40
0.5133097696
 40
0.6565383921
 40
0.7902944034
 40
0.9070341757
 40
1.0
 40
1.0
 40
1.0
 40
1.0
 10
7.0850146299
 20
21.1498996379
 30
0.0
 10
7.0853124607
 20
21.1486140687
 30
0.0
 10
7.0859244082
 20
21.1457826997
 30
0.0
 10
7.0868285322
 20
21.1412267903
 30
0.0
 10
7.0877627342
 20
21.1361611161
 30
0.0
 10
7.0886759787
 20
21.1308594931
 30
0.0
 10
7.0895192121
 20
21.1256091855
 30
0.0
 10
7.0902480886
 20
21.1206997113
 30
0.0
 10
7.0908237161
 20
21.1164085254
 30
0.0
 10
7.0911272543
 20
21.1137821678
 30
0.0
 10
7.0912397715
 20
21.1126156943
 30
0.0
  0
LINE
  5
32E
100
AcDbEntity
  8
0
100
AcDbLine
 62
7
  6
CONTINUOUS
 10
7.0912397715
 20
21.1126156943
 11
7.0914279591
 21
21.1097319668
  0
SPLINE
  5
32F
100
AcDbEntity
  8
0
100
AcDbSpline
 62
7
  6
CONTINUOUS
 70
0
 71
3
 72
17
 73
13
 74
0
 42
0.0000001
 43
0.0000001
 44
0.0000000001
 40
0.0
 40
0.0
 40
0.0
 40
0.0
 40
0.0355313079
 40
0.0614263227
 40
0.093771867
 40
0.1328465958
 40
0.178755063
 40
0.2910884722
 40
0.4305028841
 40
0.5960721914
 40
0.7863975315
 40
1.0
 40
1.0
 40
1.0
 40
1.0
 10
7.0838771219
 20
21.2257276404
 30
0.0
 10
7.083953021
 20
21.2257276917
 30
0.0
 10
7.0840763337
 20
21.2256492477
 30
0.0
 10
7.0842079902
 20
21.2255022111
 30
0.0
 10
7.0843281733
 20
21.225330818
 30
0.0
 10
7.0844535594
 20
21.2251140078
 30
0.0
 10
7.0846427119
 20
21.2247369599
 30
0.0
 10
7.08488776
 20
21.224149674
 30
0.0
 10
7.0851873828
 20
21.2233098508
 30
0.0
 10
7.0855055133
 20
21.2223005714
 30
0.0
 10
7.0858395453
 20
21.2211307067
 30
0.0
 10
7.0860585796
 20
21.2202960662
 30
0.0
 10
7.0861707004
 20
21.2198537759
 30
0.0
  0
SPLINE
  5
330
100
AcDbEntity
  8
0
100
AcDbSpline
 62
7
  6
CONTINUOUS
 70
0
 71
3
 72
16
 73
12
 74
0
 42
0.0000001
 43
0.0000001
 44
0.0000000001
 40
0.0
 40
0.0
 40
0.0
 40
0.0
 40
0.110548723
 40
0.2397958672
 40
0.380983422
 40
0.5266820067
 40
0.6690438793
 40
0.8001535094
 40
0.9126672571
 40
0.9598626699
 40
1.0
 40
1.0
 40
1.0
 40
1.0
 10
7.0861707004
 20
21.2198537759
 30
0.0
 10
7.0865100145
 20
21.2185152619
 30
0.0
 10
7.0871763206
 20
21.2155941976
 30
0.0
 10
7.0880992547
 20
21.2109253227
 30
0.0
 10
7.0889869942
 20
21.2058033488
 30
0.0
 10
7.0897920687
 20
21.200502085
 30
0.0
 10
7.0904717322
 20
21.1953101431
 30
0.0
 10
7.0909902731
 20
21.1905164441
 30
0.0
 10
7.0912832143
 20
21.1868948302
 30
0.0
 10
7.0914044156
 20
21.1844013378
 30
0.0
 10
7.0914279591
 20
21.183310477
 30
0.0
 10
7.0914279591
 20
21.1828091258
 30
0.0
  0
SPLINE
  5
331
100
AcDbEntity
  8
0
100
AcDbSpline
 62
7
  6
CONTINUOUS
 70
0
 71
3
 72
19
 73
15
 74
0
 42
0.0000001
 43
0.0000001
 44
0.0000000001
 40
0.0
 40
0.0
 40
0.0
 40
0.0
 40
0.0357891411
 40
0.0482717489
 40
0.0624094886
 40
0.0958446715
 40
0.1363227209
 40
0.1838604399
 40
0.2383864356
 40
0.2997452413
 40
0.4418747233
 40
0.6079161725
 40
0.7950795154
 40
1.0
 40
1.0
 40
1.0
 40
1.0
 10
7.0845384117
 20
21.3383207467
 30
0.0
 10
7.0847004852
 20
21.3383207976
 30
0.0
 10
7.084905256
 20
21.3381780315
 30
0.0
 10
7.0850939115
 20
21.33797269
 30
0.0
 10
7.0852615925
 20
21.33775694
 30
0.0
 10
7.0854722344
 20
21.3374180115
 30
0.0
 10
7.0857229078
 20
21.3369278056
 30
0.0
 10
7.0859814067
 20
21.3363360491
 30
0.0
 10
7.0862467161
 20
21.3356449452
 30
0.0
 10
7.0866262546
 20
21.3345396765
 30
0.0
 10
7.0871002073
 20
21.3329339918
 30
0.0
 10
7.0876513701
 20
21.3307592332
 30
0.0
 10
7.0881978173
 20
21.3282911762
 30
0.0
 10
7.0885392483
 20
21.3265485616
 30
0.0
 10
7.0887083024
 20
21.3256360937
 30
0.0
  0
SPLINE
  5
332
100
AcDbEntity
  8
0
100
AcDbSpline
 62
7
  6
CONTINUOUS
 70
0
 71
3
 72
13
 73
9
 74
0
 42
0.0000001
 43
0.0000001
 44
0.0000000001
 40
0.0
 40
0.0
 40
0.0
 40
0.0
 40
0.2567688421
 40
0.5260120695
 40
0.6572941767
 40
0.7821293497
 40
0.8974151941
 40
1.0
 40
1.0
 40
1.0
 40
1.0
 10
7.0887083024
 20
21.3256360937
 30
0.0
 10
7.0891253278
 20
21.3233852022
 30
0.0
 10
7.0898665597
 20
21.3187528975
 30
0.0
 10
7.0905749001
 20
21.3129344452
 30
0.0
 10
7.0910064506
 20
21.3082702963
 30
0.0
 10
7.0912431058
 20
21.304967266
 30
0.0
 10
7.0913891631
 20
21.3019151203
 30
0.0
 10
7.0914279591
 20
21.2999726829
 30
0.0
 10
7.0914279591
 20
21.2990580983
 30
0.0
  0
SPLINE
  5
333
100
AcDbEntity
  8
0
100
AcDbSpline
 62
7
  6
CONTINUOUS
 70
0
 71
3
 72
19
 73
15
 74
0
 42
0.0000001
 43
0.0000001
 44
0.0000000001
 40
0.0
 40
0.0
 40
0.0
 40
0.0
 40
0.0202440699
 40
0.0437389081
 40
0.0721771219
 40
0.1064925334
 40
0.1471265043
 40
0.1942401808
 40
0.2478650087
 40
0.3079607658
 40
0.4471367042
 40
0.6102754825
 40
0.7953406124
 40
1.0
 40
1.0
 40
1.0
 40
1.0
 10
7.0853947517
 20
21.4850563359
 30
0.0
 10
7.0854706481
 20
21.4850562508
 30
0.0
 10
7.0856352938
 20
21.4850206751
 30
0.0
 10
7.0858695589
 20
21.4848792715
 30
0.0
 10
7.0861047976
 20
21.4846549387
 30
0.0
 10
7.0863427683
 20
21.4843477519
 30
0.0
 10
7.0865841471
 20
21.4839582823
 30
0.0
 10
7.0868284673
 20
21.4834875112
 30
0.0
 10
7.0870749052
 20
21.4829369045
 30
0.0
 10
7.0874222195
 20
21.4820544023
 30
0.0
 10
7.087846573
 20
21.4807625964
 30
0.0
 10
7.0883291
 20
21.4789997467
 30
0.0
 10
7.0887987336
 20
21.4769804849
 30
0.0
 10
7.0890851155
 20
21.4755474959
 30
0.0
 10
7.08922611
 20
21.4747932787
 30
0.0
  0
SPLINE
  5
334
100
AcDbEntity
  8
0
100
AcDbSpline
 62
7
  6
CONTINUOUS
 70
0
 71
3
 72
11
 73
7
 74
0
 42
0.0000001
 43
0.0000001
 44
0.0000000001
 40
0.0
 40
0.0
 40
0.0
 40
0.0
 40
0.2370407918
 40
0.4956417708
 40
0.756696742
 40
1.0
 40
1.0
 40
1.0
 40
1.0
 10
7.08922611
 20
21.4747932787
 30
0.0
 10
7.0895798685
 20
21.4729009301
 30
0.0
 10
7.0901985647
 20
21.4689212937
 30
0.0
 10
7.0908767756
 20
21.4628117296
 30
0.0
 10
7.0913120692
 20
21.4566290862
 30
0.0
 10
7.0914279591
 20
21.4525327002
 30
0.0
 10
7.0914279591
 20
21.4505567087
 30
0.0
  0
SPLINE
  5
335
100
AcDbEntity
  8
0
100
AcDbSpline
 62
7
  6
CONTINUOUS
 70
0
 71
3
 72
22
 73
18
 74
0
 42
0.0000001
 43
0.0000001
 44
0.0000000001
 40
0.0
 40
0.0
 40
0.0
 40
0.0
 40
0.188775154
 40
0.3705629397
 40
0.5378564174
 40
0.6141849557
 40
0.6847464108
 40
0.7489657735
 40
0.806295653
 40
0.8563424039
 40
0.8988943917
 40
0.9338643206
 40
0.9614883882
 40
0.9728296842
 40
0.9827809302
 40
0.9916785584
 40
1.0
 40
1.0
 40
1.0
 40
1.0
 10
7.0914279591
 20
21.8163067087
 30
0.0
 10
7.0914279591
 20
21.814801184
 30
0.0
 10
7.0913785044
 20
21.8118455943
 30
0.0
 10
7.0911596548
 20
21.8075608385
 30
0.0
 10
7.0908553798
 20
21.8041805449
 30
0.0
 10
7.0905385532
 20
21.8016947104
 30
0.0
 10
7.0902789997
 20
21.8000309302
 30
0.0
 10
7.0899933661
 20
21.7985253376
 30
0.0
 10
7.0896840483
 20
21.7971917301
 30
0.0
 10
7.0893540094
 20
21.7960418417
 30
0.0
 10
7.0890071308
 20
21.7950840614
 30
0.0
 10
7.0886466785
 20
21.7943255585
 30
0.0
 10
7.0883166508
 20
21.7938314633
 30
0.0
 10
7.0880402558
 20
21.7935542865
 30
0.0
 10
7.0878432844
 20
21.7934133357
 30
0.0
 10
7.0876425575
 20
21.7933266381
 30
0.0
 10
7.0875046008
 20
21.793306719
 30
0.0
 10
7.0874382354
 20
21.7933067097
 30
0.0
  0
SPLINE
  5
336
100
AcDbEntity
  8
0
100
AcDbSpline
 62
7
  6
CONTINUOUS
 70
0
 71
3
 72
20
 73
16
 74
0
 42
0.0000001
 43
0.0000001
 44
0.0000000001
 40
0.0
 40
0.0
 40
0.0
 40
0.0
 40
0.008868683
 40
0.0181243726
 40
0.0393658387
 40
0.0661365384
 40
0.0995246424
 40
0.140019688
 40
0.1877518243
 40
0.2425991947
 40
0.3043556033
 40
0.4474641326
 40
0.6140108424
 40
0.8000687634
 40
1.0
 40
1.0
 40
1.0
 40
1.0
 10
7.0884830142
 20
22.0226797984
 30
0.0
 10
7.0885355881
 20
22.0226798707
 30
0.0
 10
7.0886434873
 20
22.0226667776
 30
0.0
 10
7.0888636286
 20
22.022583734
 30
0.0
 10
7.0891329428
 20
22.0223650534
 30
0.0
 10
7.0894190556
 20
22.0219735145
 30
0.0
 10
7.0896916682
 20
22.0214407169
 30
0.0
 10
7.0899491597
 20
22.0207663762
 30
0.0
 10
7.0901908335
 20
22.0199527554
 30
0.0
 10
7.0904153095
 20
22.0190043803
 30
0.0
 10
7.0907035622
 20
22.0174916216
 30
0.0
 10
7.0909961709
 20
22.0153078754
 30
0.0
 10
7.0912448863
 20
22.012379054
 30
0.0
 10
7.0913954269
 20
22.0091063653
 30
0.0
 10
7.0914279591
 20
22.0068180429
 30
0.0
 10
7.0914279591
 20
22.0056328402
 30
0.0
  0
SPLINE
  5
337
100
AcDbEntity
  8
0
100
AcDbSpline
 62
7
  6
CONTINUOUS
 70
0
 71
3
 72
19
 73
15
 74
0
 42
0.0000001
 43
0.0000001
 44
0.0000000001
 40
0.0
 40
0.0
 40
0.0
 40
0.0
 40
0.2139447792
 40
0.4049554181
 40
0.5706642454
 40
0.7091091897
 40
0.7678820574
 40
0.8196562011
 40
0.8644726024
 40
0.902465029
 40
0.9339586821
 40
0.9596660807
 40
0.9809173755
 40
1.0
 40
1.0
 40
1.0
 40
1.0
 10
7.0324094687
 20
21.4571437608
 30
0.0
 10
7.0324094687
 20
21.456579676
 30
0.0
 10
7.0323973815
 20
21.4555119104
 30
0.0
 10
7.0323372542
 20
21.4540082301
 30
0.0
 10
7.032237184
 20
21.452706213
 30
0.0
 10
7.0321159105
 20
21.4517562861
 30
0.0
 10
7.0319941632
 20
21.4511109846
 30
0.0
 10
7.0318986676
 20
21.4507124307
 30
0.0
 10
7.0317942993
 20
21.4503729652
 30
0.0
 10
7.0316812584
 20
21.4500930595
 30
0.0
 10
7.0315593148
 20
21.449872694
 30
0.0
 10
7.0314275951
 20
21.4497111669
 30
0.0
 10
7.0312828376
 20
21.4496088258
 30
0.0
 10
7.0311754452
 20
21.4495851606
 30
0.0
 10
7.0311251323
 20
21.4495850584
 30
0.0
  0
SPLINE
  5
338
100
AcDbEntity
  8
0
100
AcDbSpline
 62
7
  6
CONTINUOUS
 70
0
 71
3
 72
19
 73
15
 74
0
 42
0.0000001
 43
0.0000001
 44
0.0000000001
 40
0.0
 40
0.0
 40
0.0
 40
0.0
 40
0.0187436888
 40
0.0400453525
 40
0.0662377295
 40
0.0985257093
 40
0.1374790701
 40
0.1833606942
 40
0.2362774175
 40
0.2961919748
 40
0.43635523
 40
0.6023112738
 40
0.7914714937
 40
1.0
 40
1.0
 40
1.0
 40
1.0
 10
7.0894488242
 20
22.1935563245
 30
0.0
 10
7.0895239484
 20
22.1935564084
 30
0.0
 10
7.0896861042
 20
22.1935187156
 30
0.0
 10
7.0899030684
 20
22.1933573779
 30
0.0
 10
7.0901017083
 20
22.1931039623
 30
0.0
 10
7.0902875449
 20
22.1927591106
 30
0.0
 10
7.0904615133
 20
22.1923223545
 30
0.0
 10
7.0906232572
 20
22.1917940038
 30
0.0
 10
7.0907719212
 20
22.1911751905
 30
0.0
 10
7.090961748
 20
22.19017883
 30
0.0
 10
7.0911527256
 20
22.1887231512
 30
0.0
 10
7.0913122217
 20
22.1867439965
 30
0.0
 10
7.091408066
 20
22.184486514
 30
0.0
 10
7.0914279591
 20
22.1828924859
 30
0.0
 10
7.0914279591
 20
22.1820567087
 30
0.0
  0
SPLINE
  5
339
100
AcDbEntity
  8
0
100
AcDbSpline
 62
7
  6
CONTINUOUS
 70
0
 71
3
 72
17
 73
13
 74
0
 42
0.0000001
 43
0.0000001
 44
0.0000000001
 40
0.0
 40
0.0
 40
0.0
 40
0.0
 40
0.2199386603
 40
0.4125509477
 40
0.5773495975
 40
0.7139718072
 40
0.8223174492
 40
0.9029722466
 40
0.9337463219
 40
0.9590851889
 40
0.9804061435
 40
1.0
 40
1.0
 40
1.0
 40
1.0
 10
7.0324094687
 20
21.3388996635
 30
0.0
 10
7.0324094687
 20
21.3387094404
 30
0.0
 10
7.0324058099
 20
21.3383526102
 30
0.0
 10
7.0323869422
 20
21.3378535293
 30
0.0
 10
7.0323552956
 20
21.337427333
 30
0.0
 10
7.0323113089
 20
21.3370753461
 30
0.0
 10
7.0322552621
 20
21.3367992357
 30
0.0
 10
7.0321949386
 20
21.3366175684
 30
0.0
 10
7.032136025
 20
21.3365144767
 30
0.0
 10
7.0320921358
 20
21.3364631426
 30
0.0
 10
7.032043497
 20
21.3364309232
 30
0.0
 10
7.0320077233
 20
21.3364237767
 30
0.0
 10
7.0319907768
 20
21.336423788
 30
0.0
  0
SPLINE
  5
33A
100
AcDbEntity
  8
0
100
AcDbSpline
 62
7
  6
CONTINUOUS
 70
0
 71
3
 72
18
 73
14
 74
0
 42
0.0000001
 43
0.0000001
 44
0.0000000001
 40
0.0
 40
0.0
 40
0.0
 40
0.0
 40
0.01931755
 40
0.0406897427
 40
0.0664102799
 40
0.0978435002
 40
0.1356955752
 40
0.1803065829
 40
0.290338039
 40
0.4284050385
 40
0.5939324763
 40
0.7851465295
 40
1.0
 40
1.0
 40
1.0
 40
1.0
 10
7.0902722944
 20
22.3402910549
 30
0.0
 10
7.0903177256
 20
22.3402910364
 30
0.0
 10
7.0904144087
 20
22.3402704673
 30
0.0
 10
7.0905452814
 20
22.3401801526
 30
0.0
 10
7.0906642269
 20
22.3400369793
 30
0.0
 10
7.0907740398
 20
22.3398414835
 30
0.0
 10
7.0908758447
 20
22.3395932276
 30
0.0
 10
7.091010533
 20
22.3391605931
 30
0.0
 10
7.0911490916
 20
22.3384848847
 30
0.0
 10
7.0912738233
 20
22.3375197554
 30
0.0
 10
7.0913632967
 20
22.3363590742
 30
0.0
 10
7.0914172122
 20
22.3350156783
 30
0.0
 10
7.0914279591
 20
22.3340606133
 30
0.0
 10
7.0914279591
 20
22.3335553192
 30
0.0
  0
SPLINE
  5
33B
100
AcDbEntity
  8
0
100
AcDbSpline
 62
7
  6
CONTINUOUS
 70
0
 71
3
 72
17
 73
13
 74
0
 42
0.0000001
 43
0.0000001
 44
0.0000000001
 40
0.0
 40
0.0
 40
0.0
 40
0.0
 40
0.019718342
 40
0.0411823191
 40
0.0666624461
 40
0.0975588759
 40
0.1783542936
 40
0.286844637
 40
0.4236710873
 40
0.5885386142
 40
0.7808796727
 40
1.0
 40
1.0
 40
1.0
 40
1.0
 10
7.0909006908
 20
22.452885643
 30
0.0
 10
7.0909219281
 20
22.4528856274
 30
0.0
 10
7.0909667463
 20
22.4528766229
 30
0.0
 10
7.0910277284
 20
22.452836346
 30
0.0
 10
7.0910828628
 20
22.4527722585
 30
0.0
 10
7.0911569182
 20
22.4526437766
 30
0.0
 10
7.0912331077
 20
22.4524174356
 30
0.0
 10
7.0913038663
 20
22.4520732368
 30
0.0
 10
7.0913594073
 20
22.4516345539
 30
0.0
 10
7.0913994215
 20
22.4511038578
 30
0.0
 10
7.0914233059
 20
22.4504834736
 30
0.0
 10
7.0914279591
 20
22.4500402918
 30
0.0
 10
7.0914279591
 20
22.4498042916
 30
0.0
  0
SPLINE
  5
33C
100
AcDbEntity
  8
0
100
AcDbSpline
 62
7
  6
CONTINUOUS
 70
0
 71
3
 72
19
 73
15
 74
0
 42
0.0000001
 43
0.0000001
 44
0.0000000001
 40
0.0
 40
0.0
 40
0.0
 40
0.0
 40
0.2038499274
 40
0.3914071665
 40
0.5577597643
 40
0.6996254387
 40
0.7605664089
 40
0.8145430437
 40
0.8614535848
 40
0.9012747216
 40
0.9341378448
 40
0.9605618765
 40
0.9817455628
 40
1.0
 40
1.0
 40
1.0
 40
1.0
 10
7.0324094687
 20
21.6230987578
 30
0.0
 10
7.0324094687
 20
21.6220566912
 30
0.0
 10
7.0323829242
 20
21.6200557161
 30
0.0
 10
7.0322580078
 20
21.6172066531
 30
0.0
 10
7.0320505552
 20
21.6146801574
 30
0.0
 10
7.0318047684
 20
21.6128077773
 30
0.0
 10
7.0315612909
 20
21.6115175446
 30
0.0
 10
7.0313710151
 20
21.6107121073
 30
0.0
 10
7.0311652126
 20
21.6100223353
 30
0.0
 10
7.0309450948
 20
21.6094511041
 30
0.0
 10
7.0307111332
 20
21.6089999979
 30
0.0
 10
7.0304622823
 20
21.6086691502
 30
0.0
 10
7.0301931329
 20
21.608456957
 30
0.0
 10
7.0299898306
 20
21.6084051872
 30
0.0
 10
7.0298965153
 20
21.6084050628
 30
0.0
  0
SPLINE
  5
33D
100
AcDbEntity
  8
0
100
AcDbSpline
 62
7
  6
CONTINUOUS
 70
0
 71
3
 72
22
 73
18
 74
0
 42
0.0000001
 43
0.0000001
 44
0.0000000001
 40
0.0
 40
0.0
 40
0.0
 40
0.0
 40
0.008425748
 40
0.0173826653
 40
0.0273391286
 40
0.0386344454
 40
0.0660453645
 40
0.1006688031
 40
0.1427641195
 40
0.1923052808
 40
0.2491250899
 40
0.3128405153
 40
0.3829604624
 40
0.4589676346
 40
0.6261467003
 40
0.8088701608
 40
1.0
 40
1.0
 40
1.0
 40
1.0
 10
7.0286447902
 20
21.8645854061
 30
0.0
 10
7.0287086903
 20
21.8645853266
 30
0.0
 10
7.0288410895
 20
21.8645667508
 30
0.0
 10
7.0290339207
 20
21.8644857198
 30
0.0
 10
7.029222821
 20
21.8643536857
 30
0.0
 10
7.0294869147
 20
21.8640940726
 30
0.0
 10
7.0298013715
 20
21.8636300238
 30
0.0
 10
7.0301434049
 20
21.8629168805
 30
0.0
 10
7.0304714975
 20
21.862015979
 30
0.0
 10
7.0307824059
 20
21.8609332597
 30
0.0
 10
7.0310727704
 20
21.8596760341
 30
0.0
 10
7.0313403679
 20
21.8582547863
 30
0.0
 10
7.0315828932
 20
21.8566816948
 30
0.0
 10
7.0318785415
 20
21.8543238245
 30
0.0
 10
7.0321616015
 20
21.8511050346
 30
0.0
 10
7.0323641779
 20
21.8470061491
 30
0.0
 10
7.0324094687
 20
21.8441706338
 30
0.0
 10
7.0324094687
 20
21.8427211229
 30
0.0
  0
SPLINE
  5
33E
100
AcDbEntity
  8
0
100
AcDbSpline
 62
7
  6
CONTINUOUS
 70
0
 71
3
 72
43
 73
39
 74
0
 42
0.0000001
 43
0.0000001
 44
0.0000000001
 40
0.0
 40
0.0
 40
0.0
 40
0.0
 40
0.0019065967
 40
0.0049866397
 40
0.0092292127
 40
0.0146216568
 40
0.0288032899
 40
0.0474132368
 40
0.0702467734
 40
0.0970600128
 40
0.1276056011
 40
0.1615823617
 40
0.2384421946
 40
0.3247388387
 40
0.4172652004
 40
0.5126878453
 40
0.6076021487
 40
0.6986452972
 40
0.7416841596
 40
0.7825484847
 40
0.8208550601
 40
0.8562351095
 40
0.8883653463
 40
0.916931445
 40
0.9416297433
 40
0.9524535701
 40
0.9622261551
 40
0.9709217754
 40
0.9785147442
 40
0.9849794884
 40
0.9902966425
 40
0.9944589277
 40
0.9961053287
 40
0.9974611557
 40
0.9985261207
 40
0.9993005262
 40
0.9997866817
 40
1.0
 40
1.0
 40
1.0
 40
1.0
 10
7.0324094687
 20
22.3504880813
 30
0.0
 10
7.0324094687
 20
22.350458412
 30
0.0
 10
7.0324038219
 20
22.3503809106
 30
0.0
 10
7.0323896946
 20
22.350238035
 30
0.0
 10
7.0323663715
 20
22.3500415167
 30
0.0
 10
7.0323190875
 20
22.3496739343
 30
0.0
 10
7.0322367223
 20
22.3490854484
 30
0.0
 10
7.0321107922
 20
22.3482290534
 30
0.0
 10
7.0319511296
 20
22.3471789432
 30
0.0
 10
7.0317592463
 20
22.3459458739
 30
0.0
 10
7.0315367658
 20
22.3445420791
 30
0.0
 10
7.0311873007
 20
22.3423698987
 30
0.0
 10
7.0306904619
 20
22.3393427139
 30
0.0
 10
7.0300325185
 20
22.3354186898
 30
0.0
 10
7.029313149
 20
22.3312120907
 30
0.0
 10
7.0285574158
 20
22.3268756825
 30
0.0
 10
7.0277915858
 20
22.3225644864
 30
0.0
 10
7.0271566719
 20
22.3190579829
 30
0.0
 10
7.0266641273
 20
22.3163804908
 30
0.0
 10
7.026316507
 20
22.3145107698
 30
0.0
 10
7.0259871084
 20
22.3127588891
 30
0.0
 10
7.0256791706
 20
22.3111412741
 30
0.0
 10
7.0253959191
 20
22.3096732619
 30
0.0
 10
7.0251403928
 20
22.3083691951
 30
0.0
 10
7.0249451673
 20
22.3073911813
 30
0.0
 10
7.0248046577
 20
22.3067004764
 30
0.0
 10
7.0247125306
 20
22.3062540567
 30
0.0
 10
7.0246292062
 20
22.3058571574
 30
0.0
 10
7.0245549582
 20
22.3055109567
 30
0.0
 10
7.0244900578
 20
22.3052165122
 30
0.0
 10
7.024434703
 20
22.3049746738
 30
0.0
 10
7.0243941041
 20
22.3048063007
 30
0.0
 10
7.0243661809
 20
22.3046984485
 30
0.0
 10
7.0243493662
 20
22.304637242
 30
0.0
 10
7.0243351784
 20
22.3045900698
 30
0.0
 10
7.0243233307
 20
22.3045547164
 30
0.0
 10
7.0243147225
 20
22.3045356075
 30
0.0
 10
7.0243083228
 20
22.3045238786
 30
0.0
 10
7.0243050078
 20
22.3045237049
 30
0.0
  0
SPLINE
  5
33F
100
AcDbEntity
  8
0
100
AcDbSpline
 62
7
  6
CONTINUOUS
 70
0
 71
3
 72
19
 73
15
 74
0
 42
0.0000001
 43
0.0000001
 44
0.0000000001
 40
0.0
 40
0.0
 40
0.0
 40
0.0
 40
0.0183754707
 40
0.0395584826
 40
0.0658759973
 40
0.0985523897
 40
0.1380958761
 40
0.1846746386
 40
0.238306043
 40
0.2989237482
 40
0.440265439
 40
0.6065120682
 40
0.7946204089
 40
1.0
 40
1.0
 40
1.0
 40
1.0
 10
7.0300673552
 20
22.0461667928
 30
0.0
 10
7.0301550175
 20
22.0461666925
 30
0.0
 10
7.0303454163
 20
22.0461194592
 30
0.0
 10
7.030598384
 20
22.0459235288
 30
0.0
 10
7.0308314947
 20
22.0456170873
 30
0.0
 10
7.0310499951
 20
22.0451992435
 30
0.0
 10
7.0312554045
 20
22.0446702076
 30
0.0
 10
7.0314470626
 20
22.0440311103
 30
0.0
 10
7.0316239757
 20
22.0432841911
 30
0.0
 10
7.0318500549
 20
22.0420856726
 30
0.0
 10
7.0320780164
 20
22.0403426964
 30
0.0
 10
7.0322697909
 20
22.0379851173
 30
0.0
 10
7.0323851358
 20
22.0353168028
 30
0.0
 10
7.0324094687
 20
22.0334395033
 30
0.0
 10
7.0324094687
 20
22.032459716
 30
0.0
  0
LINE
  5
340
100
AcDbEntity
  8
0
100
AcDbLine
 62
7
  6
CONTINUOUS
 10
7.0324094687
 20
22.3044057338
 11
7.0322225947
 21
22.3005104842
  0
SPLINE
  5
341
100
AcDbEntity
  8
0
100
AcDbSpline
 62
7
  6
CONTINUOUS
 70
0
 71
3
 72
13
 73
9
 74
0
 42
0.0000001
 43
0.0000001
 44
0.0000000001
 40
0.0
 40
0.0
 40
0.0
 40
0.0
 40
0.1027845864
 40
0.2219344492
 40
0.4899754343
 40
0.7628345416
 40
0.8882392743
 40
1.0
 40
1.0
 40
1.0
 40
1.0
 10
7.0322225947
 20
22.3005104842
 30
0.0
 10
7.0321352556
 20
22.2993813452
 30
0.0
 10
7.0319071475
 20
22.2969463414
 30
0.0
 10
7.0312925325
 20
22.2915825111
 30
0.0
 10
7.0302798363
 20
22.2843795147
 30
0.0
 10
7.0290586827
 20
22.2771390371
 30
0.0
 10
7.0279845571
 20
22.2716227902
 30
0.0
 10
7.0274343165
 20
22.2690679228
 30
0.0
 10
7.0271580652
 20
22.2678678957
 30
0.0
  0
SPLINE
  5
342
100
AcDbEntity
  8
0
100
AcDbSpline
 62
7
  6
CONTINUOUS
 70
0
 71
3
 72
19
 73
15
 74
0
 42
0.0000001
 43
0.0000001
 44
0.0000000001
 40
0.0
 40
0.0
 40
0.0
 40
0.0
 40
0.214841998
 40
0.4071108093
 40
0.5747768524
 40
0.7159546014
 40
0.7761934722
 40
0.8293523055
 40
0.8753164831
 40
0.9140012723
 40
0.9453920619
 40
0.9696720509
 40
0.9873752021
 40
1.0
 40
1.0
 40
1.0
 40
1.0
 10
7.0271580652
 20
22.2678678957
 30
0.0
 10
7.0270304954
 20
22.2673137366
 30
0.0
 10
7.0267816967
 20
22.2662652457
 30
0.0
 10
7.0264055061
 20
22.264791049
 30
0.0
 10
7.0260501701
 20
22.2635130552
 30
0.0
 10
7.0257616188
 20
22.2625794873
 30
0.0
 10
7.0255413915
 20
22.2619426048
 30
0.0
 10
7.0253928012
 20
22.2615477691
 30
0.0
 10
7.025252486
 20
22.2612109757
 30
0.0
 10
7.0251208543
 20
22.2609332963
 30
0.0
 10
7.0249987264
 20
22.2607151437
 30
0.0
 10
7.0248852997
 20
22.2605566666
 30
0.0
 10
7.0247819336
 20
22.2604544783
 30
0.0
 10
7.0247032296
 20
22.2604220675
 30
0.0
 10
7.0246698138
 20
22.2604220137
 30
0.0
  0
SPLINE
  5
343
100
AcDbEntity
  8
0
100
AcDbSpline
 62
7
  6
CONTINUOUS
 70
0
 71
3
 72
18
 73
14
 74
0
 42
0.0000001
 43
0.0000001
 44
0.0000000001
 40
0.0
 40
0.0
 40
0.0
 40
0.0
 40
0.0191615812
 40
0.040410489
 40
0.0660481974
 40
0.0974333859
 40
0.1352666184
 40
0.1798810945
 40
0.2899656425
 40
0.4281195878
 40
0.5937518195
 40
0.7850689462
 40
1.0
 40
1.0
 40
1.0
 40
1.0
 10
7.0312575082
 20
22.2002687923
 30
0.0
 10
7.0313028637
 20
22.2002687681
 30
0.0
 10
7.0313995078
 20
22.2002479614
 30
0.0
 10
7.0315300468
 20
22.2001568549
 30
0.0
 10
7.0316486108
 20
22.2000126087
 30
0.0
 10
7.0317580699
 20
22.1998156714
 30
0.0
 10
7.0318595297
 20
22.1995655721
 30
0.0
 10
7.031993766
 20
22.1991296464
 30
0.0
 10
7.0321317802
 20
22.1984489576
 30
0.0
 10
7.0322560067
 20
22.1974768492
 30
0.0
 10
7.0323450964
 20
22.1963079037
 30
0.0
 10
7.0323987702
 20
22.1949551327
 30
0.0
 10
7.0324094687
 20
22.1939934707
 30
0.0
 10
7.0324094687
 20
22.1934847281
 30
0.0
  0
SPLINE
  5
344
100
AcDbEntity
  8
0
100
AcDbSpline
 62
7
  6
CONTINUOUS
 70
0
 71
3
 72
13
 73
9
 74
0
 42
0.0000001
 43
0.0000001
 44
0.0000000001
 40
0.0
 40
0.0
 40
0.0
 40
0.0
 40
0.102832545
 40
0.2183479775
 40
0.3433664747
 40
0.4747590446
 40
0.7439027755
 40
1.0
 40
1.0
 40
1.0
 40
1.0
 10
7.0324094687
 20
22.1934847281
 30
0.0
 10
7.0324094687
 20
22.1925641822
 30
0.0
 10
7.0323708759
 20
22.1906095213
 30
0.0
 10
7.0322254677
 20
22.1875389066
 30
0.0
 10
7.0319897693
 20
22.1842175252
 30
0.0
 10
7.0315598478
 20
22.1795322267
 30
0.0
 10
7.0308537261
 20
22.1736952916
 30
0.0
 10
7.0301121169
 20
22.16905053
 30
0.0
 10
7.0296939181
 20
22.166796441
 30
0.0
  0
SPLINE
  5
345
100
AcDbEntity
  8
0
100
AcDbSpline
 62
7
  6
CONTINUOUS
 70
0
 71
3
 72
19
 73
15
 74
0
 42
0.0000001
 43
0.0000001
 44
0.0000000001
 40
0.0
 40
0.0
 40
0.0
 40
0.0
 40
0.2049690279
 40
0.3920525637
 40
0.5579420792
 40
0.6320646237
 40
0.6999093138
 40
0.815646842
 40
0.8631521827
 40
0.9036289368
 40
0.9371049146
 40
0.9512831502
 40
0.9638219678
 40
1.0
 40
1.0
 40
1.0
 40
1.0
 10
7.0296939181
 20
22.166796441
 30
0.0
 10
7.0295265036
 20
22.1658940779
 30
0.0
 10
7.0291883156
 20
22.1641713328
 30
0.0
 10
7.0286462723
 20
22.1617323398
 30
0.0
 10
7.0281742484
 20
22.1598787121
 30
0.0
 10
7.027792368
 20
22.1585540522
 30
0.0
 10
7.0274457687
 20
22.1574534812
 30
0.0
 10
7.0270961927
 20
22.1564783385
 30
0.0
 10
7.0267276194
 20
22.1556435607
 30
0.0
 10
7.0264772263
 20
22.1551601425
 30
0.0
 10
7.0262666403
 20
22.1548260082
 30
0.0
 10
7.0260989425
 20
22.1546134391
 30
0.0
 10
7.0259093095
 20
22.1544101475
 30
0.0
 10
7.0257040429
 20
22.1542703072
 30
0.0
 10
7.0255420535
 20
22.1542703889
 30
0.0
  0
SPLINE
  5
346
100
AcDbEntity
  8
0
100
AcDbSpline
 62
7
  6
CONTINUOUS
 70
0
 71
3
 72
17
 73
13
 74
0
 42
0.0000001
 43
0.0000001
 44
0.0000000001
 40
0.0
 40
0.0
 40
0.0
 40
0.0
 40
0.0196409323
 40
0.0409768221
 40
0.0663126913
 40
0.0970836486
 40
0.1777165093
 40
0.2858680118
 40
0.422233522
 40
0.5868688808
 40
0.7795680441
 40
1.0
 40
1.0
 40
1.0
 40
1.0
 10
7.0320686642
 20
22.3064220548
 30
0.0
 10
7.0320824998
 20
22.3064220788
 30
0.0
 10
7.0321116896
 20
22.3064163123
 30
0.0
 10
7.0321513965
 20
22.3063901249
 30
0.0
 10
7.0321871852
 20
22.3063483357
 30
0.0
 10
7.0322351484
 20
22.3062643782
 30
0.0
 10
7.0322841449
 20
22.3061165344
 30
0.0
 10
7.0323297632
 20
22.3058919887
 30
0.0
 10
7.0323655009
 20
22.3056057272
 30
0.0
 10
7.0323912034
 20
22.3052588332
 30
0.0
 10
7.0324065099
 20
22.3048520493
 30
0.0
 10
7.0324094687
 20
22.3045610127
 30
0.0
 10
7.0324094687
 20
22.3044057338
 30
0.0
  0
SPLINE
  5
347
100
AcDbEntity
  8
0
100
AcDbSpline
 62
7
  6
CONTINUOUS
 70
0
 71
3
 72
11
 73
7
 74
0
 42
0.0000001
 43
0.0000001
 44
0.0000000001
 40
0.0
 40
0.0
 40
0.0
 40
0.0
 40
0.2475553488
 40
0.5062858592
 40
0.7615429675
 40
1.0
 40
1.0
 40
1.0
 40
1.0
 10
7.0324094687
 20
22.032459716
 30
0.0
 10
7.0324094687
 20
22.0307395653
 30
0.0
 10
7.0323313209
 20
22.0272213878
 30
0.0
 10
7.032021013
 20
22.0219378019
 30
0.0
 10
7.0315269507
 20
22.0167317095
 30
0.0
 10
7.0310709844
 20
22.0133302504
 30
0.0
 10
7.0308096563
 20
22.0116940577
 30
0.0
  0
SPLINE
  5
348
100
AcDbEntity
  8
0
100
AcDbSpline
 62
7
  6
CONTINUOUS
 70
0
 71
3
 72
19
 73
15
 74
0
 42
0.0000001
 43
0.0000001
 44
0.0000000001
 40
0.0
 40
0.0
 40
0.0
 40
0.0
 40
0.2034444853
 40
0.3882485644
 40
0.5515548022
 40
0.6911083433
 40
0.75146051
 40
0.8052917169
 40
0.8525259495
 40
0.8932321873
 40
0.9276142478
 40
0.9561175154
 40
0.9796570229
 40
1.0
 40
1.0
 40
1.0
 40
1.0
 10
7.0308096563
 20
22.0116940577
 30
0.0
 10
7.0306754649
 20
22.0108538759
 30
0.0
 10
7.030398183
 20
22.0092537564
 30
0.0
 10
7.0299319935
 20
22.0069941749
 30
0.0
 10
7.0294404654
 20
22.0050142271
 30
0.0
 10
7.0289985367
 20
22.0035597139
 30
0.0
 10
7.0286316145
 20
22.0025636932
 30
0.0
 10
7.0283686831
 20
22.0019415963
 30
0.0
 10
7.0281055154
 20
22.0014097956
 30
0.0
 10
7.0278432797
 20
22.0009697642
 30
0.0
 10
7.0275827168
 20
22.0006222592
 30
0.0
 10
7.0273233543
 20
22.0003677324
 30
0.0
 10
7.0270624806
 20
22.0002070756
 30
0.0
 10
7.0268779937
 20
22.0001674111
 30
0.0
 10
7.0267929168
 20
22.000167502
 30
0.0
  0
SPLINE
  5
349
100
AcDbEntity
  8
0
100
AcDbSpline
 62
7
  6
CONTINUOUS
 70
0
 71
3
 72
22
 73
18
 74
0
 42
0.0000001
 43
0.0000001
 44
0.0000000001
 40
0.0
 40
0.0
 40
0.0
 40
0.0
 40
0.1863845732
 40
0.3672510767
 40
0.5347117597
 40
0.6113960931
 40
0.6824312407
 40
0.7471766473
 40
0.8050333603
 40
0.8555959023
 40
0.8985932132
 40
0.9338810877
 40
0.9616912778
 40
0.9730585908
 40
0.9829819334
 40
0.9917981228
 40
1.0
 40
1.0
 40
1.0
 40
1.0
 10
7.0324094687
 20
21.8427211229
 30
0.0
 10
7.0324094687
 20
21.8411625914
 30
0.0
 10
7.0323568629
 20
21.8380913966
 30
0.0
 10
7.0321264101
 20
21.8336252826
 30
0.0
 10
7.031807115
 20
21.8300844944
 30
0.0
 10
7.0314749891
 20
21.8274697325
 30
0.0
 10
7.0312029037
 20
21.8257138136
 30
0.0
 10
7.0309037509
 20
21.8241221781
 30
0.0
 10
7.0305799174
 20
21.8227103527
 30
0.0
 10
7.030235088
 20
21.8214914679
 30
0.0
 10
7.0298734192
 20
21.8204751825
 30
0.0
 10
7.0294978619
 20
21.8196700885
 30
0.0
 10
7.0291550574
 20
21.819144747
 30
0.0
 10
7.0288680511
 20
21.8188492471
 30
0.0
 10
7.028664096
 20
21.8186991071
 30
0.0
 10
7.0284563155
 20
21.8186066641
 30
0.0
 10
7.0283132884
 20
21.8185856017
 30
0.0
 10
7.0282447051
 20
21.8185856839
 30
0.0
  0
SPLINE
  5
34A
100
AcDbEntity
  8
0
100
AcDbSpline
 62
7
  6
CONTINUOUS
 70
0
 71
3
 72
24
 73
20
 74
0
 42
0.0000001
 43
0.0000001
 44
0.0000000001
 40
0.0
 40
0.0
 40
0.0
 40
0.0
 40
0.0073347392
 40
0.0156333102
 40
0.0254610842
 40
0.0371407994
 40
0.0508463879
 40
0.0666692648
 40
0.0846513975
 40
0.1047837533
 40
0.1513348094
 40
0.2059253198
 40
0.2679680449
 40
0.3366612663
 40
0.411147503
 40
0.4904039511
 40
0.6586751941
 40
0.8320414463
 40
1.0
 40
1.0
 40
1.0
 40
1.0
 10
7.0269697262
 20
21.6544047384
 30
0.0
 10
7.0270489314
 20
21.6544048361
 30
0.0
 10
7.0272186666
 20
21.654372151
 30
0.0
 10
7.027461484
 20
21.6542367311
 30
0.0
 10
7.0277026326
 20
21.6540208559
 30
0.0
 10
7.0279440039
 20
21.6537256762
 30
0.0
 10
7.0281861849
 20
21.6533515739
 30
0.0
 10
7.0284287163
 20
21.6528989714
 30
0.0
 10
7.028670754
 20
21.6523688556
 30
0.0
 10
7.0290084365
 20
21.6515189131
 30
0.0
 10
7.0294157996
 20
21.6502730717
 30
0.0
 10
7.0298704987
 20
21.6485699962
 30
0.0
 10
7.0303043509
 20
21.6466158009
 30
0.0
 10
7.0307120412
 20
21.6444371656
 30
0.0
 10
7.0310866692
 20
21.6420642602
 30
0.0
 10
7.0315446672
 20
21.6386169657
 30
0.0
 10
7.0319933756
 20
21.6340926302
 30
0.0
 10
7.0323264084
 20
21.6285986327
 30
0.0
 10
7.0324094687
 20
21.6249124839
 30
0.0
 10
7.0324094687
 20
21.6230987578
 30
0.0
  0
LINE
  5
34B
100
AcDbEntity
  8
0
100
AcDbLine
 62
7
  6
CONTINUOUS
 10
7.0914279591
 20
22.5478067087
 11
7.0906879388
 21
22.5434855675
  0
LINE
  5
34C
100
AcDbEntity
  8
0
100
AcDbLine
 62
7
  6
CONTINUOUS
 10
7.0874267078
 20
22.5247413073
 11
7.0861535762
 21
22.5175551264
  0
LINE
  5
34D
100
AcDbEntity
  8
0
100
AcDbLine
 62
7
  6
CONTINUOUS
 10
7.0837340935
 20
22.5041001292
 11
7.083316918
 21
22.5018067087
  0
SPLINE
  5
34E
100
AcDbEntity
  8
0
100
AcDbSpline
 62
7
  6
CONTINUOUS
 70
0
 71
3
 72
40
 73
36
 74
0
 42
0.0000001
 43
0.0000001
 44
0.0000000001
 40
0.0
 40
0.0
 40
0.0
 40
0.0
 40
0.0002879783
 40
0.0008094052
 40
0.0015987023
 40
0.0026643304
 40
0.0056345418
 40
0.0097289991
 40
0.0149475573
 40
0.0212772548
 40
0.0286966612
 40
0.0371837842
 40
0.0467164212
 40
0.0572722492
 40
0.0813609629
 40
0.109213682
 40
0.1405456338
 40
0.1750699893
 40
0.2124778409
 40
0.252416275
 40
0.2945271008
 40
0.3837904121
 40
0.4771561049
 40
0.571419078
 40
0.6633143473
 40
0.7496310619
 40
0.8272587085
 40
0.893354584
 40
0.9212680688
 40
0.9454093122
 40
0.9655301717
 40
0.9814213643
 40
0.9929500991
 40
0.9970414987
 40
1.0
 40
1.0
 40
1.0
 40
1.0
 10
7.0243205808
 20
21.3299539376
 30
0.0
 10
7.0243250542
 20
21.3299538237
 30
0.0
 10
7.0243357948
 20
21.3299446307
 30
0.0
 10
7.0243484573
 20
21.3299240419
 30
0.0
 10
7.0243647402
 20
21.3298904602
 30
0.0
 10
7.024392312
 20
21.329820912
 30
0.0
 10
7.0244318406
 20
21.3297006942
 30
0.0
 10
7.0244850532
 20
21.3295174601
 30
0.0
 10
7.0245476945
 20
21.3292825582
 30
0.0
 10
7.0246195177
 20
21.3289967163
 30
0.0
 10
7.0247002388
 20
21.3286607481
 30
0.0
 10
7.0247895728
 20
21.3282756829
 30
0.0
 10
7.0248872485
 20
21.3278425306
 30
0.0
 10
7.0250348663
 20
21.3271721348
 30
0.0
 10
7.0252375121
 20
21.3262223803
 30
0.0
 10
7.0254997915
 20
21.3249552793
 30
0.0
 10
7.025787962
 20
21.3235279626
 30
0.0
 10
7.0260990222
 20
21.3219538126
 30
0.0
 10
7.0264298474
 20
21.3202472614
 30
0.0
 10
7.0267773209
 20
21.3184238695
 30
0.0
 10
7.0272679858
 20
21.3158075122
 30
0.0
 10
7.0278973108
 20
21.3123725154
 30
0.0
 10
7.0286521137
 20
21.308136699
 30
0.0
 10
7.0293940798
 20
21.3038571016
 30
0.0
 10
7.0300982004
 20
21.2996821547
 30
0.0
 10
7.0307408184
 20
21.2957590188
 30
0.0
 10
7.0313002407
 20
21.2922285357
 30
0.0
 10
7.0317016854
 20
21.2895918885
 30
0.0
 10
7.0319658188
 20
21.2877750788
 30
0.0
 10
7.0321210471
 20
21.28666436
 30
0.0
 10
7.032243751
 20
21.2857377234
 30
0.0
 10
7.032332579
 20
21.2850043751
 30
0.0
 10
7.0323836436
 20
21.2845173023
 30
0.0
 10
7.0324048647
 20
21.2842293974
 30
0.0
 10
7.0324094687
 20
21.284119882
 30
0.0
 10
7.0324094687
 20
21.2840739109
 30
0.0
  0
SPLINE
  5
34F
100
AcDbEntity
  8
0
100
AcDbSpline
 62
7
  6
CONTINUOUS
 70
0
 71
3
 72
16
 73
12
 74
0
 42
0.0000001
 43
0.0000001
 44
0.0000000001
 40
0.0
 40
0.0
 40
0.0
 40
0.0
 40
0.0322815576
 40
0.0572512045
 40
0.0890623422
 40
0.127924949
 40
0.1738722493
 40
0.2868183997
 40
0.4272623322
 40
0.5940801504
 40
1.0
 40
1.0
 40
1.0
 40
1.0
 10
7.0247542832
 20
21.3824236256
 30
0.0
 10
7.0248324361
 20
21.3824235761
 30
0.0
 10
7.0249573389
 20
21.3823271337
 30
0.0
 10
7.0250880481
 20
21.3821617842
 30
0.0
 10
7.0252116946
 20
21.3819635436
 30
0.0
 10
7.0253415939
 20
21.3817133562
 30
0.0
 10
7.0255397066
 20
21.3812770299
 30
0.0
 10
7.0257983609
 20
21.3805996626
 30
0.0
 10
7.0261174475
 20
21.379633434
 30
0.0
 10
7.0266044417
 20
21.3779767244
 30
0.0
 10
7.0269457403
 20
21.3766322852
 30
0.0
 10
7.0271750538
 20
21.3756766911
 30
0.0
  0
SPLINE
  5
350
100
AcDbEntity
  8
0
100
AcDbSpline
 62
7
  6
CONTINUOUS
 70
0
 71
3
 72
16
 73
12
 74
0
 42
0.0000001
 43
0.0000001
 44
0.0000000001
 40
0.0
 40
0.0
 40
0.0
 40
0.0
 40
0.1163607088
 40
0.2500487279
 40
0.3940516692
 40
0.5407639354
 40
0.6822501857
 40
0.810616635
 40
0.9186430175
 40
0.9630127589
 40
1.0
 40
1.0
 40
1.0
 40
1.0
 10
7.0271750538
 20
21.3756766911
 30
0.0
 10
7.0275117087
 20
21.3742737844
 30
0.0
 10
7.0281751124
 20
21.3712446527
 30
0.0
 10
7.0290985347
 20
21.3664465922
 30
0.0
 10
7.0299839175
 20
21.3612591355
 30
0.0
 10
7.0307845701
 20
21.3559601973
 30
0.0
 10
7.0314590037
 20
21.3508391283
 30
0.0
 10
7.0319725762
 20
21.3461818126
 30
0.0
 10
7.0322645325
 20
21.3427121418
 30
0.0
 10
7.0323855957
 20
21.340366974
 30
0.0
 10
7.0324094687
 20
21.3393582615
 30
0.0
 10
7.0324094687
 20
21.3388996635
 30
0.0
  0
SPLINE
  5
351
100
AcDbEntity
  8
0
100
AcDbSpline
 62
7
  6
CONTINUOUS
 70
0
 71
3
 72
19
 73
15
 74
0
 42
0.0000001
 43
0.0000001
 44
0.0000000001
 40
0.0
 40
0.0
 40
0.0
 40
0.0
 40
0.0172030121
 40
0.0384759596
 40
0.065549554
 40
0.0991494785
 40
0.1395579081
 40
0.1868581773
 40
0.2410303913
 40
0.3019328805
 40
0.4430140795
 40
0.6081367265
 40
0.7948072417
 40
1.0
 40
1.0
 40
1.0
 40
1.0
 10
7.0256828651
 20
21.4955837826
 30
0.0
 10
7.0257551673
 20
21.4955839194
 30
0.0
 10
7.025917131
 20
21.4955396115
 30
0.0
 10
7.0261412211
 20
21.4953739756
 30
0.0
 10
7.026370633
 20
21.4951151142
 30
0.0
 10
7.0266075148
 20
21.4947614394
 30
0.0
 10
7.026852083
 20
21.4943135466
 30
0.0
 10
7.027103228
 20
21.493772356
 30
0.0
 10
7.0273596918
 20
21.4931397066
 30
0.0
 10
7.0277254135
 20
21.4921269177
 30
0.0
 10
7.0281801813
 20
21.4906517224
 30
0.0
 10
7.028706537
 20
21.4886478108
 30
0.0
 10
7.0292270967
 20
21.4863651237
 30
0.0
 10
7.0295512164
 20
21.4847501913
 30
0.0
 10
7.0297117141
 20
21.4839028552
 30
0.0
  0
SPLINE
  5
352
100
AcDbEntity
  8
0
100
AcDbSpline
 62
7
  6
CONTINUOUS
 70
0
 71
3
 72
13
 73
9
 74
0
 42
0.0000001
 43
0.0000001
 44
0.0000000001
 40
0.0
 40
0.0
 40
0.0
 40
0.0
 40
0.2508101726
 40
0.5179499605
 40
0.6497300609
 40
0.7761008975
 40
0.8939343514
 40
1.0
 40
1.0
 40
1.0
 40
1.0
 10
7.0297117141
 20
21.4839028552
 30
0.0
 10
7.0301306559
 20
21.4816910815
 30
0.0
 10
7.0308710607
 20
21.4770997036
 30
0.0
 10
7.0315688555
 20
21.4713086076
 30
0.0
 10
7.0319939612
 20
21.4666128752
 30
0.0
 10
7.0322277143
 20
21.4632461065
 30
0.0
 10
7.0323717413
 20
21.4601053416
 30
0.0
 10
7.0324094687
 20
21.4580957337
 30
0.0
 10
7.0324094687
 20
21.4571437608
 30
0.0
  0
LINE
  5
353
100
AcDbEntity
  8
0
100
AcDbLine
 62
7
  6
CONTINUOUS
 10
7.0914279591
 20
22.5228814506
 11
7.0912389523
 21
22.5199892663
  0
SPLINE
  5
354
100
AcDbEntity
  8
0
100
AcDbSpline
 62
7
  6
CONTINUOUS
 70
0
 71
3
 72
15
 73
11
 74
0
 42
0.0000001
 43
0.0000001
 44
0.0000000001
 40
0.0
 40
0.0
 40
0.0
 40
0.0
 40
0.0930822357
 40
0.2099468464
 40
0.3438153787
 40
0.4871215907
 40
0.6319914652
 40
0.7706159789
 40
0.8955584016
 40
1.0
 40
1.0
 40
1.0
 40
1.0
 10
7.0912389523
 20
22.5199892663
 30
0.0
 10
7.0911260776
 20
22.5188203417
 30
0.0
 10
7.0908217091
 20
22.5161887328
 30
0.0
 10
7.090244678
 20
22.5118894838
 30
0.0
 10
7.0895142383
 20
22.5069719193
 30
0.0
 10
7.0886694538
 20
22.5017145707
 30
0.0
 10
7.0877548613
 20
22.4964080107
 30
0.0
 10
7.0868197293
 20
22.4913404211
 30
0.0
 10
7.0859152543
 20
22.486786308
 30
0.0
 10
7.085303206
 20
22.4839574706
 30
0.0
 10
7.0850053861
 20
22.4826738923
 30
0.0
  0
SPLINE
  5
355
100
AcDbEntity
  8
0
100
AcDbSpline
 62
7
  6
CONTINUOUS
 70
0
 71
3
 72
16
 73
12
 74
0
 42
0.0000001
 43
0.0000001
 44
0.0000000001
 40
0.0
 40
0.0
 40
0.0
 40
0.0
 40
0.2208332323
 40
0.4164640104
 40
0.5855161199
 40
0.7266373567
 40
0.8387500478
 40
0.9213037835
 40
0.9741583572
 40
0.9899284167
 40
1.0
 40
1.0
 40
1.0
 40
1.0
 10
7.0850053861
 20
22.4826738923
 30
0.0
 10
7.0849175314
 20
22.4822952459
 30
0.0
 10
7.0847484806
 20
22.4815819314
 30
0.0
 10
7.08449861
 20
22.4805820641
 30
0.0
 10
7.0842693031
 20
22.4797216725
 30
0.0
 10
7.0840625813
 20
22.4790078344
 30
0.0
 10
7.0838804692
 20
22.4784448253
 30
0.0
 10
7.0837252577
 20
22.4780387557
 30
0.0
 10
7.083607253
 20
22.4777970051
 30
0.0
 10
7.0835208612
 20
22.4776891849
 30
0.0
 10
7.0834774609
 20
22.4776655088
 30
0.0
 10
7.0834597345
 20
22.4776657298
 30
0.0
  0
SPLINE
  5
356
100
AcDbEntity
  8
0
100
AcDbSpline
 62
7
  6
CONTINUOUS
 70
0
 71
3
 72
16
 73
12
 74
0
 42
0.0000001
 43
0.0000001
 44
0.0000000001
 40
0.0
 40
0.0
 40
0.0
 40
0.0
 40
0.0401650319
 40
0.0874068526
 40
0.2000532222
 40
0.3313153358
 40
0.473807589
 40
0.6195716737
 40
0.7607192748
 40
0.8897886704
 40
1.0
 40
1.0
 40
1.0
 40
1.0
 10
7.0914279591
 20
22.4498042916
 30
0.0
 10
7.0914279591
 20
22.4493016628
 30
0.0
 10
7.0914042947
 20
22.4482078494
 30
0.0
 10
7.091282517
 20
22.4457071536
 30
0.0
 10
7.0909882375
 20
22.4420747145
 30
0.0
 10
7.0904674669
 20
22.4372670209
 30
0.0
 10
7.0897850654
 20
22.4320612334
 30
0.0
 10
7.0889770534
 20
22.4267483703
 30
0.0
 10
7.0880865585
 20
22.421619007
 30
0.0
 10
7.0871614457
 20
22.4169486344
 30
0.0
 10
7.0864936366
 20
22.414028805
 30
0.0
 10
7.0861535762
 20
22.4126921915
 30
0.0
  0
SPLINE
  5
357
100
AcDbEntity
  8
0
100
AcDbSpline
 62
7
  6
CONTINUOUS
 70
0
 71
3
 72
17
 73
13
 74
0
 42
0.0000001
 43
0.0000001
 44
0.0000000001
 40
0.0
 40
0.0
 40
0.0
 40
0.0
 40
0.2136107013
 40
0.4039040658
 40
0.5694210765
 40
0.7087828581
 40
0.821079266
 40
0.8669800822
 40
0.9060574797
 40
0.9384189138
 40
0.964346503
 40
1.0
 40
1.0
 40
1.0
 40
1.0
 10
7.0861535762
 20
22.4126921915
 30
0.0
 10
7.0860422897
 20
22.4122547777
 30
0.0
 10
7.0858249106
 20
22.4114294313
 30
0.0
 10
7.0854934254
 20
22.4102727305
 30
0.0
 10
7.0851777518
 20
22.409275014
 30
0.0
 10
7.0848804482
 20
22.4084449504
 30
0.0
 10
7.0846372756
 20
22.4078645776
 30
0.0
 10
7.0844495544
 20
22.4074920318
 30
0.0
 10
7.084325082
 20
22.4072777976
 30
0.0
 10
7.0842057596
 20
22.4071084577
 30
0.0
 10
7.0840748866
 20
22.4069630504
 30
0.0
 10
7.0839524509
 20
22.4068857199
 30
0.0
 10
7.0838771169
 20
22.4068857706
 30
0.0
  0
SPLINE
  5
358
100
AcDbEntity
  8
0
100
AcDbSpline
 62
7
  6
CONTINUOUS
 70
0
 71
3
 72
13
 73
9
 74
0
 42
0.0000001
 43
0.0000001
 44
0.0000000001
 40
0.0
 40
0.0
 40
0.0
 40
0.0
 40
0.1026202158
 40
0.2179800519
 40
0.3429039399
 40
0.4742644456
 40
0.7435327797
 40
1.0
 40
1.0
 40
1.0
 40
1.0
 10
7.0914279591
 20
22.3335553192
 30
0.0
 10
7.0914279591
 20
22.3326371011
 30
0.0
 10
7.0913888546
 20
22.3306866412
 30
0.0
 10
7.0912417208
 20
22.3276216775
 30
0.0
 10
7.091003356
 20
22.3243045659
 30
0.0
 10
7.0905688548
 20
22.3196219029
 30
0.0
 10
7.0898561613
 20
22.3137843476
 30
0.0
 10
7.0891102688
 20
22.3091380452
 30
0.0
 10
7.0886905982
 20
22.3068819465
 30
0.0
  0
SPLINE
  5
359
100
AcDbEntity
  8
0
100
AcDbSpline
 62
7
  6
CONTINUOUS
 70
0
 71
3
 72
19
 73
15
 74
0
 42
0.0000001
 43
0.0000001
 44
0.0000000001
 40
0.0
 40
0.0
 40
0.0
 40
0.0
 40
0.2050258395
 40
0.3922112093
 40
0.5582206796
 40
0.7002879448
 40
0.7616144403
 40
0.8161115629
 40
0.8636244352
 40
0.9040850498
 40
0.9375140237
 40
0.9516541769
 40
0.9641434891
 40
1.0
 40
1.0
 40
1.0
 40
1.0
 10
7.0886905982
 20
22.3068819465
 30
0.0
 10
7.0885220108
 20
22.3059756406
 30
0.0
 10
7.0881816545
 20
22.3042451349
 30
0.0
 10
7.0876371676
 20
22.301794666
 30
0.0
 10
7.0870882866
 20
22.2996361667
 30
0.0
 10
7.0866164357
 20
22.2980428988
 30
0.0
 10
7.0862386695
 20
22.2969464186
 30
0.0
 10
7.0859746354
 20
22.2962608935
 30
0.0
 10
7.0857173787
 20
22.2956739662
 30
0.0
 10
7.0854679065
 20
22.2951878013
 30
0.0
 10
7.0852582672
 20
22.2948517027
 30
0.0
 10
7.0850913974
 20
22.2946377843
 30
0.0
 10
7.0849034663
 20
22.2944339706
 30
0.0
 10
7.0846996317
 20
22.2942925968
 30
0.0
 10
7.084538411
 20
22.2942926604
 30
0.0
  0
SPLINE
  5
35A
100
AcDbEntity
  8
0
100
AcDbSpline
 62
7
  6
CONTINUOUS
 70
0
 71
3
 72
11
 73
7
 74
0
 42
0.0000001
 43
0.0000001
 44
0.0000000001
 40
0.0
 40
0.0
 40
0.0
 40
0.0
 40
0.2433133114
 40
0.504382932
 40
0.7629834389
 40
1.0
 40
1.0
 40
1.0
 40
1.0
 10
7.0914279591
 20
22.1820567087
 30
0.0
 10
7.0914279591
 20
22.180080056
 30
0.0
 10
7.0913119876
 20
22.1759822679
 30
0.0
 10
7.0908764322
 20
22.1697976221
 30
0.0
 10
7.0901978231
 20
22.1636863696
 30
0.0
 10
7.0895787746
 20
22.1597057927
 30
0.0
 10
7.089224794
 20
22.1578131114
 30
0.0
  0
SPLINE
  5
35B
100
AcDbEntity
  8
0
100
AcDbSpline
 62
7
  6
CONTINUOUS
 70
0
 71
3
 72
19
 73
15
 74
0
 42
0.0000001
 43
0.0000001
 44
0.0000000001
 40
0.0
 40
0.0
 40
0.0
 40
0.0
 40
0.2046711222
 40
0.3897407074
 40
0.5528733993
 40
0.6920464431
 40
0.7521386611
 40
0.8057581589
 40
0.8528669126
 40
0.8934984429
 40
0.9278152617
 40
0.9562551426
 40
0.9797521498
 40
1.0
 40
1.0
 40
1.0
 40
1.0
 10
7.089224794
 20
22.1578131114
 30
0.0
 10
7.0890838194
 20
22.1570593412
 30
0.0
 10
7.0887974918
 20
22.1556272255
 30
0.0
 10
7.0883279915
 20
22.1536092439
 30
0.0
 10
7.0878455781
 20
22.1518475834
 30
0.0
 10
7.0874213909
 20
22.1505566804
 30
0.0
 10
7.0870742101
 20
22.1496748195
 30
0.0
 10
7.0868278667
 20
22.1491246463
 30
0.0
 10
7.086583643
 20
22.1486542575
 30
0.0
 10
7.086342356
 20
22.1482651001
 30
0.0
 10
7.0861044991
 20
22.1479581348
 30
0.0
 10
7.0858693602
 20
22.1477339656
 30
0.0
 10
7.0856351867
 20
22.1475926882
 30
0.0
 10
7.0854706193
 20
22.1475571618
 30
0.0
 10
7.0853947569
 20
22.1475570823
 30
0.0
  0
SPLINE
  5
35C
100
AcDbEntity
  8
0
100
AcDbSpline
 62
7
  6
CONTINUOUS
 70
0
 71
3
 72
23
 73
19
 74
0
 42
0.0000001
 43
0.0000001
 44
0.0000000001
 40
0.0
 40
0.0
 40
0.0
 40
0.0
 40
0.1747036568
 40
0.3508632933
 40
0.5188811336
 40
0.5972122349
 40
0.6704577082
 40
0.7376971156
 40
0.7981992722
 40
0.8513262572
 40
0.8965470991
 40
0.9336046072
 40
0.949064168
 40
0.9625128529
 40
0.9740553307
 40
0.9838925265
 40
0.9923619193
 40
1.0
 40
1.0
 40
1.0
 40
1.0
 10
7.0914279591
 20
22.0056328402
 30
0.0
 10
7.0914279591
 20
22.0038851485
 30
0.0
 10
7.0913555791
 20
22.0003748855
 30
0.0
 10
7.0910556488
 20
21.9951917333
 30
0.0
 10
7.090648068
 20
21.9909833358
 30
0.0
 10
7.090229667
 20
21.9878134111
 30
0.0
 10
7.0898879182
 20
21.9856509917
 30
0.0
 10
7.0895146814
 20
21.9836749425
 30
0.0
 10
7.0891153546
 20
21.9819097513
 30
0.0
 10
7.0886957541
 20
21.9803762397
 30
0.0
 10
7.0882603496
 20
21.9790927222
 30
0.0
 10
7.0878703181
 20
21.9781937314
 30
0.0
 10
7.0875462031
 20
21.9776181942
 30
0.0
 10
7.0873170723
 20
21.9772838328
 30
0.0
 10
7.0870873018
 20
21.9770205399
 30
0.0
 10
7.0868563651
 20
21.9768285167
 30
0.0
 10
7.0866229532
 20
21.9767089494
 30
0.0
 10
7.0864610476
 20
21.9766803107
 30
0.0
 10
7.0863846382
 20
21.9766802081
 30
0.0
  0
SPLINE
  5
35D
100
AcDbEntity
  8
0
100
AcDbSpline
 62
7
  6
CONTINUOUS
 70
0
 71
3
 72
22
 73
18
 74
0
 42
0.0000001
 43
0.0000001
 44
0.0000000001
 40
0.0
 40
0.0
 40
0.0
 40
0.0
 40
0.0083215359
 40
0.0172193731
 40
0.027171213
 40
0.0385133193
 40
0.0661379433
 40
0.1011062539
 40
0.1436586267
 40
0.1937055354
 40
0.2510335069
 40
0.3152525247
 40
0.3858144272
 40
0.4621425493
 40
0.6294347068
 40
0.8112214536
 40
1.0
 40
1.0
 40
1.0
 40
1.0
 10
7.0874382327
 20
21.8393067083
 30
0.0
 10
7.0875045988
 20
21.8393067146
 30
0.0
 10
7.0876425635
 20
21.839286812
 30
0.0
 10
7.0878432958
 20
21.8392001045
 30
0.0
 10
7.0880402664
 20
21.8390591298
 30
0.0
 10
7.088316652
 20
21.838781922
 30
0.0
 10
7.0886466772
 20
21.8382878314
 30
0.0
 10
7.0890071584
 20
21.8375293462
 30
0.0
 10
7.0893540101
 20
21.8365715636
 30
0.0
 10
7.0896840404
 20
21.8354216844
 30
0.0
 10
7.0899933736
 20
21.8340880966
 30
0.0
 10
7.0902789989
 20
21.8325825159
 30
0.0
 10
7.0905385469
 20
21.8309187365
 30
0.0
 10
7.0908553824
 20
21.828432912
 30
0.0
 10
7.0911596519
 20
21.825052638
 30
0.0
 10
7.0913785084
 20
21.8207678718
 30
0.0
 10
7.0914279591
 20
21.8178122614
 30
0.0
 10
7.0914279591
 20
21.8163067087
 30
0.0
  0
SPLINE
  5
35E
100
AcDbEntity
  8
0
100
AcDbSpline
 62
7
  6
CONTINUOUS
 70
0
 71
3
 72
19
 73
15
 74
0
 42
0.0000001
 43
0.0000001
 44
0.0000000001
 40
0.0
 40
0.0
 40
0.0
 40
0.0
 40
0.2085236106
 40
0.3976826406
 40
0.5636409986
 40
0.703805272
 40
0.7637206842
 40
0.816638602
 40
0.8625199182
 40
0.901472306
 40
0.9337598472
 40
0.9599532057
 40
0.981256203
 40
1.0
 40
1.0
 40
1.0
 40
1.0
 10
7.0914279591
 20
21.4505567087
 30
0.0
 10
7.0914279591
 20
21.4497209515
 30
0.0
 10
7.0914080652
 20
21.4481269484
 30
0.0
 10
7.0913122196
 20
21.4458694821
 30
0.0
 10
7.0911527295
 20
21.443890319
 30
0.0
 10
7.0909617481
 20
21.4424346243
 30
0.0
 10
7.0907719213
 20
21.4414382518
 30
0.0
 10
7.090623265
 20
21.4408194298
 30
0.0
 10
7.0904615207
 20
21.4402910794
 30
0.0
 10
7.0902875489
 20
21.4398543326
 30
0.0
 10
7.0901017066
 20
21.4395094849
 30
0.0
 10
7.0899030665
 20
21.4392560654
 30
0.0
 10
7.0896861177
 20
21.4390946874
 30
0.0
 10
7.0895239503
 20
21.4390569994
 30
0.0
 10
7.0894488257
 20
21.4390570893
 30
0.0
  0
SPLINE
  5
35F
100
AcDbEntity
  8
0
100
AcDbSpline
 62
7
  6
CONTINUOUS
 70
0
 71
3
 72
18
 73
14
 74
0
 42
0.0000001
 43
0.0000001
 44
0.0000000001
 40
0.0
 40
0.0
 40
0.0
 40
0.0
 40
0.2148485739
 40
0.4060602886
 40
0.5715891601
 40
0.7096591542
 40
0.8196913559
 40
0.8643027824
 40
0.9021557413
 40
0.9335903565
 40
0.9593110253
 40
0.9806826102
 40
1.0
 40
1.0
 40
1.0
 40
1.0
 10
7.0914279591
 20
21.2990580983
 30
0.0
 10
7.0914279591
 20
21.2985528155
 30
0.0
 10
7.0914172118
 20
21.2975977674
 30
0.0
 10
7.0913632951
 20
21.296254385
 30
0.0
 10
7.0912738218
 20
21.2950936988
 30
0.0
 10
7.0911490938
 20
21.2941285565
 30
0.0
 10
7.091010531
 20
21.2934528389
 30
0.0
 10
7.0908758415
 20
21.2930201995
 30
0.0
 10
7.0907740353
 20
21.2927719376
 30
0.0
 10
7.0906642286
 20
21.292576432
 30
0.0
 10
7.090545284
 20
21.2924332541
 30
0.0
 10
7.0904144064
 20
21.2923429466
 30
0.0
 10
7.0903177224
 20
21.2923223891
 30
0.0
 10
7.0902722916
 20
21.2923223751
 30
0.0
  0
SPLINE
  5
360
100
AcDbEntity
  8
0
100
AcDbSpline
 62
7
  6
CONTINUOUS
 70
0
 71
3
 72
17
 73
13
 74
0
 42
0.0000001
 43
0.0000001
 44
0.0000000001
 40
0.0
 40
0.0
 40
0.0
 40
0.0
 40
0.2191156026
 40
0.4114533583
 40
0.5763196874
 40
0.7131477004
 40
0.8216426539
 40
0.9024405851
 40
0.9333372789
 40
0.9588174266
 40
0.9802814624
 40
1.0
 40
1.0
 40
1.0
 40
1.0
 10
7.0914279591
 20
21.1828091258
 30
0.0
 10
7.0914279591
 20
21.182573131
 30
0.0
 10
7.0914233057
 20
21.1821299583
 30
0.0
 10
7.0913994207
 20
21.1815095848
 30
0.0
 10
7.091359406
 20
21.1809788926
 30
0.0
 10
7.0913038638
 20
21.180540205
 30
0.0
 10
7.0912331077
 20
21.1801959967
 30
0.0
 10
7.0911569186
 20
21.1799696472
 30
0.0
 10
7.0910828612
 20
21.179841163
 30
0.0
 10
7.0910277257
 20
21.1797770761
 30
0.0
 10
7.0909667423
 20
21.1797368005
 30
0.0
 10
7.090921924
 20
21.1797277967
 30
0.0
 10
7.0909006865
 20
21.1797277812
 30
0.0
  0
LINE
  5
361
100
AcDbEntity
  8
0
100
AcDbLine
 62
7
  6
CONTINUOUS
 10
7.083316918
 20
21.1308067087
 11
7.0837338771
 21
21.128514502
  0
LINE
  5
362
100
AcDbEntity
  8
0
100
AcDbLine
 62
7
  6
CONTINUOUS
 10
7.0861707004
 20
21.1149620893
 11
7.0874480908
 21
21.1077507701
  0
LINE
  5
363
100
AcDbEntity
  8
0
100
AcDbLine
 62
7
  6
CONTINUOUS
 10
7.0906877729
 20
21.0891288327
 11
7.0914279591
 21
21.0848067087
  0
SPLINE
  5
364
100
AcDbEntity
  8
0
100
AcDbSpline
 62
7
  6
CONTINUOUS
 70
0
 71
3
 72
20
 73
16
 74
0
 42
0.0000001
 43
0.0000001
 44
0.0000000001
 40
0.0
 40
0.0
 40
0.0
 40
0.0
 40
0.1999266354
 40
0.385984561
 40
0.5525324638
 40
0.6956424085
 40
0.7573984252
 40
0.8122451741
 40
0.8599780023
 40
0.9004751824
 40
0.9338631473
 40
0.9606331759
 40
0.9818751377
 40
0.9911313024
 40
1.0
 40
1.0
 40
1.0
 40
1.0
 10
7.0914279591
 20
21.6269805772
 30
0.0
 10
7.0914279591
 20
21.6257954023
 30
0.0
 10
7.0913954239
 20
21.6235071083
 30
0.0
 10
7.0912448895
 20
21.6202344409
 30
0.0
 10
7.0909961699
 20
21.6173056058
 30
0.0
 10
7.090703572
 20
21.6151218458
 30
0.0
 10
7.0904153191
 20
21.6136090855
 30
0.0
 10
7.0901908388
 20
21.6126607135
 30
0.0
 10
7.0899491591
 20
21.6118470821
 30
0.0
 10
7.0896916874
 20
21.6111727166
 30
0.0
 10
7.089419067
 20
21.6106399143
 30
0.0
 10
7.0891329379
 20
21.6102483853
 30
0.0
 10
7.0888636227
 20
21.6100297175
 30
0.0
 10
7.0886434943
 20
21.6099466259
 30
0.0
 10
7.0885355917
 20
21.6099335229
 30
0.0
 10
7.0884830177
 20
21.6099335942
 30
0.0
  0
LINE
  5
365
100
AcDbEntity
  8
0
100
AcDbLine
 62
7
  6
CONTINUOUS
 10
6.976741191
 20
22.1563094133
 11
6.9765582702
 21
22.1530776444
  0
SPLINE
  5
366
100
AcDbEntity
  8
0
100
AcDbSpline
 62
7
  6
CONTINUOUS
 70
0
 71
3
 72
15
 73
11
 74
0
 42
0.0000001
 43
0.0000001
 44
0.0000000001
 40
0.0
 40
0.0
 40
0.0
 40
0.0
 40
0.0986265464
 40
0.2196456441
 40
0.3560747496
 40
0.5002186208
 40
0.6441663972
 40
0.7801737663
 40
0.9009713862
 40
1.0
 40
1.0
 40
1.0
 40
1.0
 10
6.9765582702
 20
22.1530776444
 30
0.0
 10
6.9764508424
 20
22.1518363467
 30
0.0
 10
6.9761594814
 20
22.1490765027
 30
0.0
 10
6.9755977965
 20
22.144613309
 30
0.0
 10
6.9748834193
 20
22.1395903719
 30
0.0
 10
6.9740520839
 20
22.1342920996
 30
0.0
 10
6.9731456618
 20
22.1290115491
 30
0.0
 10
6.9722119279
 20
22.1240354644
 30
0.0
 10
6.9713019457
 20
22.1196331186
 30
0.0
 10
6.970676088
 20
22.116926945
 30
0.0
 10
6.9703680811
 20
22.1157144373
 30
0.0
  0
SPLINE
  5
367
100
AcDbEntity
  8
0
100
AcDbSpline
 62
7
  6
CONTINUOUS
 70
0
 71
3
 72
16
 73
12
 74
0
 42
0.0000001
 43
0.0000001
 44
0.0000000001
 40
0.0
 40
0.0
 40
0.0
 40
0.0
 40
0.4129828207
 40
0.5804641584
 40
0.7204861043
 40
0.8321395356
 40
0.9151111975
 40
0.9459358212
 40
0.9698610912
 40
0.9873994815
 40
1.0
 40
1.0
 40
1.0
 40
1.0
 10
6.9703680811
 20
22.1157144373
 30
0.0
 10
6.9702123752
 20
22.1151014815
 30
0.0
 10
6.9699842507
 20
22.1142420975
 30
0.0
 10
6.9696669006
 20
22.1131853375
 30
0.0
 10
6.9694651394
 20
22.1125758046
 30
0.0
 10
6.9692839383
 20
22.1120963869
 30
0.0
 10
6.9691413808
 20
22.1117811909
 30
0.0
 10
6.9690345301
 20
22.111599098
 30
0.0
 10
6.9689680122
 20
22.1115101333
 30
0.0
 10
6.9689075798
 20
22.1114528488
 30
0.0
 10
6.9688621297
 20
22.1114349808
 30
0.0
 10
6.9688428342
 20
22.1114350845
 30
0.0
  0
SPLINE
  5
368
100
AcDbEntity
  8
0
100
AcDbSpline
 62
7
  6
CONTINUOUS
 70
0
 71
3
 72
13
 73
9
 74
0
 42
0.0000001
 43
0.0000001
 44
0.0000000001
 40
0.0
 40
0.0
 40
0.0
 40
0.0
 40
0.108763638
 40
0.2286217031
 40
0.4884871201
 40
0.754045026
 40
0.8809609069
 40
1.0
 40
1.0
 40
1.0
 40
1.0
 10
6.976741191
 20
22.0461032792
 30
0.0
 10
6.976741191
 20
22.0451202806
 30
0.0
 10
6.9767044985
 20
22.0430539594
 30
0.0
 10
6.9765098526
 20
22.0386429798
 30
0.0
 10
6.9760494016
 20
22.0328272875
 30
0.0
 10
6.9753549522
 20
22.0269707633
 30
0.0
 10
6.9746590087
 20
22.0224000837
 30
0.0
 10
6.9742707627
 20
22.0202109961
 30
0.0
 10
6.9740668696
 20
22.0191546257
 30
0.0
  0
SPLINE
  5
369
100
AcDbEntity
  8
0
100
AcDbSpline
 62
7
  6
CONTINUOUS
 70
0
 71
3
 72
19
 73
15
 74
0
 42
0.0000001
 43
0.0000001
 44
0.0000000001
 40
0.0
 40
0.0
 40
0.0
 40
0.0
 40
0.2053284317
 40
0.3915233653
 40
0.5558510565
 40
0.6960629958
 40
0.756601637
 40
0.810513823
 40
0.8576762859
 40
0.898101706
 40
0.9319312936
 40
0.9595154848
 40
0.9816424657
 40
1.0
 40
1.0
 40
1.0
 40
1.0
 10
6.9740668696
 20
22.0191546257
 30
0.0
 10
6.9739141012
 20
22.0183631322
 30
0.0
 10
6.9736055303
 20
22.0168571453
 30
0.0
 10
6.9731081556
 20
22.0147319882
 30
0.0
 10
6.9726038326
 20
22.0128721536
 30
0.0
 10
6.972166011
 20
22.0115064961
 30
0.0
 10
6.971812459
 20
22.0105710803
 30
0.0
 10
6.9715637208
 20
22.0099871443
 30
0.0
 10
6.9713191395
 20
22.0094879921
 30
0.0
 10
6.9710797943
 20
22.0090751847
 30
0.0
 10
6.9708466228
 20
22.0087493391
 30
0.0
 10
6.970619301
 20
22.0085108422
 30
0.0
 10
6.9703958116
 20
22.0083588196
 30
0.0
 10
6.9702363378
 20
22.0083193436
 30
0.0
 10
6.9701642679
 20
22.0083195071
 30
0.0
  0
SPLINE
  5
36A
100
AcDbEntity
  8
0
100
AcDbSpline
 62
7
  6
CONTINUOUS
 70
0
 71
3
 72
22
 73
18
 74
0
 42
0.0000001
 43
0.0000001
 44
0.0000000001
 40
0.0
 40
0.0
 40
0.0
 40
0.0
 40
0.1817176054
 40
0.3607497895
 40
0.5284919358
 40
0.6058570777
 40
0.6777975061
 40
0.7435462868
 40
0.8024423697
 40
0.8540161401
 40
0.8978725458
 40
0.9338143462
 40
0.9620233877
 40
0.9734527342
 40
0.9833312369
 40
0.9920067606
 40
1.0
 40
1.0
 40
1.0
 40
1.0
 10
6.976741191
 20
21.8660610923
 30
0.0
 10
6.976741191
 20
21.8644140103
 30
0.0
 10
6.9766825095
 20
21.8611439056
 30
0.0
 10
6.9764306457
 20
21.8563594069
 30
0.0
 10
6.9760837588
 20
21.8525294151
 30
0.0
 10
6.975723748
 20
21.8496780802
 30
0.0
 10
6.9754287313
 20
21.8477510199
 30
0.0
 10
6.9751046043
 20
21.845998565
 30
0.0
 10
6.9747543579
 20
21.8444396819
 30
0.0
 10
6.9743827552
 20
21.8430905318
 30
0.0
 10
6.9739938523
 20
21.8419636299
 30
0.0
 10
6.9735912139
 20
21.8410700179
 30
0.0
 10
6.9732258013
 20
21.8404849013
 30
0.0
 10
6.9729198646
 20
21.8401545251
 30
0.0
 10
6.9727035126
 20
21.8399873103
 30
0.0
 10
6.972483359
 20
21.8398843844
 30
0.0
 10
6.9723315025
 20
21.8398606032
 30
0.0
 10
6.9722590521
 20
21.8398606389
 30
0.0
  0
SPLINE
  5
36B
100
AcDbEntity
  8
0
100
AcDbSpline
 62
7
  6
CONTINUOUS
 70
0
 71
3
 72
21
 73
17
 74
0
 42
0.0000001
 43
0.0000001
 44
0.0000000001
 40
0.0
 40
0.0
 40
0.0
 40
0.0
 40
0.20979107
 40
0.3995499675
 40
0.5656724497
 40
0.6390363413
 40
0.7056743946
 40
0.7654229288
 40
0.818148735
 40
0.8638015873
 40
0.8840115578
 40
0.9025093777
 40
0.934529134
 40
0.9604579494
 40
0.9815050031
 40
1.0
 40
1.0
 40
1.0
 40
1.0
 10
6.976741191
 20
21.6268605718
 30
0.0
 10
6.976741191
 20
21.6260711316
 30
0.0
 10
6.9767233933
 20
21.6245675207
 30
0.0
 10
6.9766367514
 20
21.6224403669
 30
0.0
 10
6.9765123989
 20
21.6208293305
 30
0.0
 10
6.9763790389
 20
21.6196849942
 30
0.0
 10
6.9762695374
 20
21.6189412197
 30
0.0
 10
6.9761469076
 20
21.6182782734
 30
0.0
 10
6.976011578
 20
21.617698586
 30
0.0
 10
6.9758839118
 20
21.6172705457
 30
0.0
 10
6.9757738131
 20
21.6169726651
 30
0.0
 10
6.975669207
 20
21.6167278811
 30
0.0
 10
6.9755343028
 20
21.6164727227
 30
0.0
 10
6.9753515972
 20
21.6162356959
 30
0.0
 10
6.9751514944
 20
21.6160841698
 30
0.0
 10
6.9750010919
 20
21.6160488223
 30
0.0
 10
6.9749314956
 20
21.6160489307
 30
0.0
  0
SPLINE
  5
36C
100
AcDbEntity
  8
0
100
AcDbSpline
 62
7
  6
CONTINUOUS
 70
0
 71
3
 72
19
 73
15
 74
0
 42
0.0000001
 43
0.0000001
 44
0.0000000001
 40
0.0
 40
0.0
 40
0.0
 40
0.0
 40
0.0193009957
 40
0.0410837668
 40
0.0676310823
 40
0.1001551405
 40
0.1392447744
 40
0.1851797691
 40
0.2380804142
 40
0.297921567
 40
0.437802226
 40
0.6033475748
 40
0.7920165606
 40
1.0
 40
1.0
 40
1.0
 40
1.0
 10
7.0853947569
 20
22.1475570823
 30
0.0
 10
7.0853171652
 20
22.1475570009
 30
0.0
 10
7.0851503652
 20
22.1475943302
 30
0.0
 10
7.0849250394
 20
22.147754938
 30
0.0
 10
7.0847176602
 20
22.1480082325
 30
0.0
 10
7.0845231368
 20
22.1483530332
 30
0.0
 10
7.0843405687
 20
22.1487897092
 30
0.0
 10
7.0841704037
 20
22.1493179269
 30
0.0
 10
7.0840136102
 20
22.1499365901
 30
0.0
 10
7.083812989
 20
22.1509324595
 30
0.0
 10
7.0836102781
 20
22.1523880274
 30
0.0
 10
7.0834404572
 20
22.1543676327
 30
0.0
 10
7.0833382051
 20
22.1566259026
 30
0.0
 10
7.083316918
 20
22.1582205966
 30
0.0
 10
7.083316918
 20
22.1590567087
 30
0.0
  0
SPLINE
  5
36D
100
AcDbEntity
  8
0
100
AcDbSpline
 62
7
  6
CONTINUOUS
 70
0
 71
3
 72
18
 73
14
 74
0
 42
0.0000001
 43
0.0000001
 44
0.0000000001
 40
0.0
 40
0.0
 40
0.0
 40
0.0
 40
0.2129584751
 40
0.4030980875
 40
0.5680917416
 40
0.7060421036
 40
0.8163799471
 40
0.8612752549
 40
0.8994912009
 40
0.9313914109
 40
0.9577307271
 40
0.9798613204
 40
1.0
 40
1.0
 40
1.0
 40
1.0
 10
7.0242984276
 20
21.488025061
 30
0.0
 10
7.0242984276
 20
21.4885893931
 30
0.0
 10
7.0243116794
 20
21.4896576823
 30
0.0
 10
7.0243775628
 20
21.4911619212
 30
0.0
 10
7.0244866054
 20
21.4924645735
 30
0.0
 10
7.0246382161
 20
21.4935497221
 30
0.0
 10
7.0248055735
 20
21.4943101449
 30
0.0
 10
7.0249671767
 20
21.4947971591
 30
0.0
 10
7.0250891432
 20
21.4950770795
 30
0.0
 10
7.0252204176
 20
21.4952974867
 30
0.0
 10
7.0253619234
 20
21.4954589129
 30
0.0
 10
7.0255164453
 20
21.4955604655
 30
0.0
 10
7.0256294984
 20
21.4955836816
 30
0.0
 10
7.0256828651
 20
21.4955837826
 30
0.0
  0
SPLINE
  5
36E
100
AcDbEntity
  8
0
100
AcDbSpline
 62
7
  6
CONTINUOUS
 70
0
 71
3
 72
18
 73
14
 74
0
 42
0.0000001
 43
0.0000001
 44
0.0000000001
 40
0.0
 40
0.0
 40
0.0
 40
0.0
 40
0.0201252845
 40
0.0421661455
 40
0.0683640414
 40
0.1001016177
 40
0.1381197245
 40
0.1827875827
 40
0.2926819704
 40
0.4303720418
 40
0.5953554634
 40
0.7859038183
 40
1.0
 40
1.0
 40
1.0
 40
1.0
 10
7.084538411
 20
22.2942926604
 30
0.0
 10
7.084490899
 20
22.2942926792
 30
0.0
 10
7.0843903732
 20
22.29431295
 30
0.0
 10
7.0842529185
 20
22.2944027345
 30
0.0
 10
7.0841274176
 20
22.2945458428
 30
0.0
 10
7.0840114029
 20
22.2947413835
 30
0.0
 10
7.0839037307
 20
22.2949896701
 30
0.0
 10
7.0837612347
 20
22.2954218723
 30
0.0
 10
7.0836140737
 20
22.2960974938
 30
0.0
 10
7.0834813301
 20
22.2970628472
 30
0.0
 10
7.0833859683
 20
22.298223822
 30
0.0
 10
7.083328415
 20
22.2995675965
 30
0.0
 10
7.083316918
 20
22.3005229669
 30
0.0
 10
7.083316918
 20
22.3010284072
 30
0.0
  0
SPLINE
  5
36F
100
AcDbEntity
  8
0
100
AcDbSpline
 62
7
  6
CONTINUOUS
 70
0
 71
3
 72
16
 73
12
 74
0
 42
0.0000001
 43
0.0000001
 44
0.0000000001
 40
0.0
 40
0.0
 40
0.0
 40
0.0
 40
0.4100214371
 40
0.5738990547
 40
0.7098896807
 40
0.8179973143
 40
0.899005171
 40
0.9302966331
 40
0.956459785
 40
0.9789547503
 40
1.0
 40
1.0
 40
1.0
 40
1.0
 10
7.0242984276
 20
21.3799477459
 30
0.0
 10
7.0242984276
 20
21.3803045947
 30
0.0
 10
7.0243078541
 20
21.3808044754
 30
0.0
 10
7.0243577104
 20
21.3814204327
 30
0.0
 10
7.0244058336
 20
21.3817725971
 30
0.0
 10
7.0244670274
 20
21.3820490129
 30
0.0
 10
7.024533018
 20
21.3822307487
 30
0.0
 10
7.0245970103
 20
21.3823334466
 30
0.0
 10
7.0246449081
 20
21.3823847628
 30
0.0
 10
7.0246976948
 20
21.3824166726
 30
0.0
 10
7.0247359672
 20
21.3824236372
 30
0.0
 10
7.0247542832
 20
21.3824236256
 30
0.0
  0
SPLINE
  5
370
100
AcDbEntity
  8
0
100
AcDbSpline
 62
7
  6
CONTINUOUS
 70
0
 71
3
 72
17
 73
13
 74
0
 42
0.0000001
 43
0.0000001
 44
0.0000000001
 40
0.0
 40
0.0
 40
0.0
 40
0.0
 40
0.0207295791
 40
0.0430132692
 40
0.0690700777
 40
0.1003295348
 40
0.181374468
 40
0.2896950992
 40
0.4260729851
 40
0.590288188
 40
0.7818183699
 40
1.0
 40
1.0
 40
1.0
 40
1.0
 10
7.0838771169
 20
22.4068857706
 30
0.0
 10
7.083854691
 20
22.4068857857
 30
0.0
 10
7.0838077002
 20
22.4068946284
 30
0.0
 10
7.083743095
 20
22.4069346322
 30
0.0
 10
7.0836844466
 20
22.4069987011
 30
0.0
 10
7.0836059131
 20
22.4071268309
 30
0.0
 10
7.0835246823
 20
22.4073532112
 30
0.0
 10
7.0834493127
 20
22.4076976708
 30
0.0
 10
7.0833900881
 20
22.40813651
 30
0.0
 10
7.0833474034
 20
22.4086673202
 30
0.0
 10
7.0833218939
 20
22.4092878204
 30
0.0
 10
7.083316918
 20
22.4097310872
 30
0.0
 10
7.083316918
 20
22.409967123
 30
0.0
  0
SPLINE
  5
371
100
AcDbEntity
  8
0
100
AcDbSpline
 62
7
  6
CONTINUOUS
 70
0
 71
3
 72
18
 73
14
 74
0
 42
0.0000001
 43
0.0000001
 44
0.0000000001
 40
0.0
 40
0.0
 40
0.0
 40
0.0
 40
0.0205066543
 40
0.0442132195
 40
0.072731089
 40
0.1069620367
 40
0.1473930761
 40
0.1942357623
 40
0.3072196079
 40
0.4455717662
 40
0.6083173931
 40
0.7937787565
 40
1.0
 40
1.0
 40
1.0
 40
1.0
 10
6.9749314956
 20
21.6160489307
 30
0.0
 10
6.9748683661
 20
21.6160490291
 30
0.0
 10
6.9747317506
 20
21.6160775324
 30
0.0
 10
6.9745358525
 20
21.6161907349
 30
0.0
 10
6.9743378136
 20
21.6163705674
 30
0.0
 10
6.9741360224
 20
21.6166168718
 30
0.0
 10
6.9739299733
 20
21.6169296302
 30
0.0
 10
6.9736309428
 20
21.6174692374
 30
0.0
 10
6.9732585368
 20
21.618309897
 30
0.0
 10
6.9728241405
 20
21.6195088912
 30
0.0
 10
6.9723851956
 20
21.6209415512
 30
0.0
 10
6.9719464406
 20
21.622591279
 30
0.0
 10
6.971671503
 20
21.6237654927
 30
0.0
 10
6.9715342011
 20
21.6243853175
 30
0.0
  0
SPLINE
  5
372
100
AcDbEntity
  8
0
100
AcDbSpline
 62
7
  6
CONTINUOUS
 70
0
 71
3
 72
12
 73
8
 74
0
 42
0.0000001
 43
0.0000001
 44
0.0000000001
 40
0.0
 40
0.0
 40
0.0
 40
0.0
 40
0.2358600027
 40
0.4956793642
 40
0.7579407721
 40
0.88301978
 40
1.0
 40
1.0
 40
1.0
 40
1.0
 10
6.971251079
 20
21.6257150646
 30
0.0
 10
6.9708458449
 20
21.6276938752
 30
0.0
 10
6.9701249254
 20
21.6318795317
 30
0.0
 10
6.9693131316
 20
21.6383211524
 30
0.0
 10
6.9688584119
 20
21.6438469779
 30
0.0
 10
6.9686657732
 20
21.6481620029
 30
0.0
 10
6.9686301499
 20
21.6502350528
 30
0.0
 10
6.9686301499
 20
21.6512368579
 30
0.0
  0
SPLINE
  5
373
100
AcDbEntity
  8
0
100
AcDbSpline
 62
7
  6
CONTINUOUS
 70
0
 71
3
 72
19
 73
15
 74
0
 42
0.0000001
 43
0.0000001
 44
0.0000000001
 40
0.0
 40
0.0
 40
0.0
 40
0.0
 40
0.2032695865
 40
0.3902928284
 40
0.5561929703
 40
0.6977525951
 40
0.7586198576
 40
0.8125900284
 40
0.8595722576
 40
0.8995559624
 40
0.9326878754
 40
0.9595013539
 40
0.9811904049
 40
1.0
 40
1.0
 40
1.0
 40
1.0
 10
7.0242984276
 20
21.6397110302
 30
0.0
 10
7.0242984276
 20
21.6407537301
 30
0.0
 10
7.0243275804
 20
21.6427559464
 30
0.0
 10
7.0244641401
 20
21.6456064207
 30
0.0
 10
7.0246901543
 20
21.6481335963
 30
0.0
 10
7.0249563053
 20
21.6500056505
 30
0.0
 10
7.0252180469
 20
21.651294958
 30
0.0
 10
7.0254217936
 20
21.6521000401
 30
0.0
 10
7.0256411838
 20
21.6527894934
 30
0.0
 10
7.0258747492
 20
21.6533605019
 30
0.0
 10
7.0261218018
 20
21.6538114437
 30
0.0
 10
7.0263832052
 20
21.6541420882
 30
0.0
 10
7.0266638138
 20
21.6543532947
 30
0.0
 10
7.0268732398
 20
21.6544046193
 30
0.0
 10
7.0269697262
 20
21.6544047384
 30
0.0
  0
SPLINE
  5
374
100
AcDbEntity
  8
0
100
AcDbSpline
 62
7
  6
CONTINUOUS
 70
0
 71
3
 72
22
 73
18
 74
0
 42
0.0000001
 43
0.0000001
 44
0.0000000001
 40
0.0
 40
0.0
 40
0.0
 40
0.0
 40
0.0087324899
 40
0.0179536064
 40
0.028103014
 40
0.0395130284
 40
0.0669204832
 40
0.1012095419
 40
0.142720651
 40
0.1915317972
 40
0.2475040058
 40
0.3103103783
 40
0.3795764416
 40
0.4548862459
 40
0.6214628923
 40
0.8053169664
 40
1.0
 40
1.0
 40
1.0
 40
1.0
 10
6.9722590521
 20
21.8398606389
 30
0.0
 10
6.9721988445
 20
21.8398606685
 30
0.0
 10
6.9720745665
 20
21.8398768036
 30
0.0
 10
6.9718926454
 20
21.839947881
 30
0.0
 10
6.9717138103
 20
21.8400643867
 30
0.0
 10
6.9714641782
 20
21.8402934182
 30
0.0
 10
6.9711652214
 20
21.8407043144
 30
0.0
 10
6.9708376516
 20
21.8413373781
 30
0.0
 10
6.970522492
 20
21.842137955
 30
0.0
 10
6.9702230081
 20
21.8431017546
 30
0.0
 10
6.9699418637
 20
21.8442229947
 30
0.0
 10
6.9696814805
 20
21.8454934112
 30
0.0
 10
6.9694446567
 20
21.8469037621
 30
0.0
 10
6.9691544031
 20
21.8490295948
 30
0.0
 10
6.9688745744
 20
21.85195282
 30
0.0
 10
6.9686744441
 20
21.8557066964
 30
0.0
 10
6.9686301499
 20
21.8583168552
 30
0.0
 10
6.9686301499
 20
21.8596591297
 30
0.0
  0
SPLINE
  5
375
100
AcDbEntity
  8
0
100
AcDbSpline
 62
7
  6
CONTINUOUS
 70
0
 71
3
 72
22
 73
18
 74
0
 42
0.0000001
 43
0.0000001
 44
0.0000000001
 40
0.0
 40
0.0
 40
0.0
 40
0.0
 40
0.0084676525
 40
0.0174934623
 40
0.0275354602
 40
0.0389237486
 40
0.0665189513
 40
0.101300425
 40
0.1435148328
 40
0.1931307356
 40
0.2499796856
 40
0.3136828712
 40
0.3837548406
 40
0.4596850324
 40
0.6266507035
 40
0.8091257511
 40
1.0
 40
1.0
 40
1.0
 40
1.0
 10
7.0282447051
 20
21.8185856839
 30
0.0
 10
7.0281803627
 20
21.8185857611
 30
0.0
 10
7.028046884
 20
21.8186044334
 30
0.0
 10
7.0278520531
 20
21.8186854875
 30
0.0
 10
7.027660351
 20
21.8188175077
 30
0.0
 10
7.0273913043
 20
21.8190769716
 30
0.0
 10
7.0270686549
 20
21.8195406241
 30
0.0
 10
7.0267146984
 20
21.8202535672
 30
0.0
 10
7.0263726742
 20
21.8211541251
 30
0.0
 10
7.0260462508
 20
21.8222363358
 30
0.0
 10
7.0257392497
 20
21.8234929104
 30
0.0
 10
7.0254544818
 20
21.824913454
 30
0.0
 10
7.0251948563
 20
21.8264859036
 30
0.0
 10
7.0248766642
 20
21.8288429137
 30
0.0
 10
7.0245693869
 20
21.8320618097
 30
0.0
 10
7.0243481384
 20
21.8361623739
 30
0.0
 10
7.0242984276
 20
21.8389995988
 30
0.0
 10
7.0242984276
 20
21.840449977
 30
0.0
  0
SPLINE
  5
376
100
AcDbEntity
  8
0
100
AcDbSpline
 62
7
  6
CONTINUOUS
 70
0
 71
3
 72
19
 73
15
 74
0
 42
0.0000001
 43
0.0000001
 44
0.0000000001
 40
0.0
 40
0.0
 40
0.0
 40
0.0
 40
0.0189959525
 40
0.0407327702
 40
0.0674702913
 40
0.1004324563
 40
0.1401459844
 40
0.1867967748
 40
0.2404167856
 40
0.3009521418
 40
0.4419619289
 40
0.6077214659
 40
0.7952526246
 40
1.0
 40
1.0
 40
1.0
 40
1.0
 10
7.0267929168
 20
22.000167502
 30
0.0
 10
7.0267019606
 20
22.0001675992
 30
0.0
 10
7.0265052569
 20
22.0002143556
 30
0.0
 10
7.0262406625
 20
22.0004092837
 30
0.0
 10
7.0259950166
 20
22.0007155232
 30
0.0
 10
7.025763648
 20
22.0011332318
 30
0.0
 10
7.0255451842
 20
22.0016620746
 30
0.0
 10
7.0253404675
 20
22.0023008916
 30
0.0
 10
7.0251507166
 20
22.0030474983
 30
0.0
 10
7.0249073563
 20
22.0042451694
 30
0.0
 10
7.0246602794
 20
22.0059878818
 30
0.0
 10
7.0244512648
 20
22.0083461388
 30
0.0
 10
7.0243251529
 20
22.0110157788
 30
0.0
 10
7.0242984276
 20
22.0128942274
 30
0.0
 10
7.0242984276
 20
22.0138745977
 30
0.0
  0
SPLINE
  5
377
100
AcDbEntity
  8
0
100
AcDbSpline
 62
7
  6
CONTINUOUS
 70
0
 71
3
 72
43
 73
39
 74
0
 42
0.0000001
 43
0.0000001
 44
0.0000000001
 40
0.0
 40
0.0
 40
0.0
 40
0.0
 40
0.0019074112
 40
0.0049907235
 40
0.0092392571
 40
0.014640235
 40
0.028845736
 40
0.0474865331
 40
0.0703543757
 40
0.0972018357
 40
0.1277779258
 40
0.1617790314
 40
0.2386675386
 40
0.3249687994
 40
0.4174928117
 40
0.5129211929
 40
0.6078570309
 40
0.6989278279
 40
0.7419773501
 40
0.7828468084
 40
0.8211503476
 40
0.8565173595
 40
0.8886249524
 40
0.9171595791
 40
0.9418188728
 40
0.9526214237
 40
0.9623722071
 40
0.9710459887
 40
0.978617567
 40
0.9850618516
 40
0.9903599448
 40
0.9945048205
 40
0.9961431726
 40
0.9974913866
 40
0.9985491329
 40
0.9993165871
 40
0.999795659
 40
1.0
 40
1.0
 40
1.0
 40
1.0
 10
7.0242984276
 20
22.304558468
 30
0.0
 10
7.0242984276
 20
22.3045881467
 30
0.0
 10
7.0243046217
 20
22.3046656826
 30
0.0
 10
7.0243200866
 20
22.3048085505
 30
0.0
 10
7.0243455928
 20
22.3050050597
 30
0.0
 10
7.0243972451
 20
22.3053726113
 30
0.0
 10
7.0244870542
 20
22.3059609379
 30
0.0
 10
7.0246240584
 20
22.3068169325
 30
0.0
 10
7.0247971478
 20
22.3078663573
 30
0.0
 10
7.025004249
 20
22.3090983791
 30
0.0
 10
7.0252431802
 20
22.3105007079
 30
0.0
 10
7.025616366
 20
22.3126700012
 30
0.0
 10
7.0261418889
 20
22.315692886
 30
0.0
 10
7.0268281448
 20
22.3196120777
 30
0.0
 10
7.0275670022
 20
22.3238149211
 30
0.0
 10
7.028330888
 20
22.3281497752
 30
0.0
 10
7.0290921919
 20
22.3324621242
 30
0.0
 10
7.0297133554
 20
22.3359716133
 30
0.0
 10
7.0301893967
 20
22.3386524576
 30
0.0
 10
7.0305228583
 20
22.3405247351
 30
0.0
 10
7.0308365695
 20
22.3422791115
 30
0.0
 10
7.031127783
 20
22.3438990161
 30
0.0
 10
7.0313939255
 20
22.3453689892
 30
0.0
 10
7.0316326048
 20
22.3466746157
 30
0.0
 10
7.0318140186
 20
22.3476537159
 30
0.0
 10
7.0319441013
 20
22.3483450784
 30
0.0
 10
7.0320291899
 20
22.3487918114
 30
0.0
 10
7.0321059914
 20
22.3491889463
 30
0.0
 10
7.0321743033
 20
22.349535315
 30
0.0
 10
7.0322339254
 20
22.3498298719
 30
0.0
 10
7.0322847224
 20
22.3500717711
 30
0.0
 10
7.0323219361
 20
22.3502402001
 30
0.0
 10
7.0323475188
 20
22.3503480785
 30
0.0
 10
7.0323628972
 20
22.3504093085
 30
0.0
 10
7.0323758992
 20
22.3504564066
 30
0.0
 10
7.0323866595
 20
22.3504918794
 30
0.0
 10
7.0323946138
 20
22.3505106657
 30
0.0
 10
7.0324002891
 20
22.3505226699
 30
0.0
 10
7.0324034635
 20
22.3505228499
 30
0.0
  0
SPLINE
  5
378
100
AcDbEntity
  8
0
100
AcDbSpline
 62
7
  6
CONTINUOUS
 70
0
 71
3
 72
18
 73
14
 74
0
 42
0.0000001
 43
0.0000001
 44
0.0000000001
 40
0.0
 40
0.0
 40
0.0
 40
0.0
 40
0.0202753176
 40
0.0424466273
 40
0.0687432279
 40
0.1005488169
 40
0.1386115469
 40
0.1833047876
 40
0.2932005268
 40
0.4308342995
 40
0.5957155903
 40
0.78611393
 40
1.0
 40
1.0
 40
1.0
 40
1.0
 10
7.0255420535
 20
22.1542703889
 30
0.0
 10
7.0254938079
 20
22.1542704133
 30
0.0
 10
7.0253918249
 20
22.1542908052
 30
0.0
 10
7.0252521375
 20
22.1543811749
 30
0.0
 10
7.0251244582
 20
22.1545253304
 30
0.0
 10
7.0250063695
 20
22.1547223281
 30
0.0
 10
7.0248967419
 20
22.1549724688
 30
0.0
 10
7.0247516319
 20
22.155407791
 30
0.0
 10
7.0246016296
 20
22.1560883563
 30
0.0
 10
7.0244662288
 20
22.1570607752
 30
0.0
 10
7.024368924
 20
22.1582301305
 30
0.0
 10
7.0243101736
 20
22.1595834314
 30
0.0
 10
7.0242984276
 20
22.160545521
 30
0.0
 10
7.0242984276
 20
22.1610544685
 30
0.0
  0
LINE
  5
379
100
AcDbEntity
  8
0
100
AcDbLine
 62
7
  6
CONTINUOUS
 10
7.0242984276
 20
22.262438341
 11
7.0245018076
 21
22.2663262219
  0
SPLINE
  5
37A
100
AcDbEntity
  8
0
100
AcDbSpline
 62
7
  6
CONTINUOUS
 70
0
 71
3
 72
14
 73
10
 74
0
 42
0.0000001
 43
0.0000001
 44
0.0000000001
 40
0.0
 40
0.0
 40
0.0
 40
0.0
 40
0.1027651081
 40
0.2219004919
 40
0.3526721352
 40
0.4899074428
 40
0.7627886062
 40
0.8882288914
 40
1.0
 40
1.0
 40
1.0
 40
1.0
 10
7.0245018076
 20
22.2663262219
 30
0.0
 10
7.0245968236
 20
22.2674550958
 30
0.0
 10
7.0248445094
 20
22.2698890817
 30
0.0
 10
7.0253201214
 20
22.2737478437
 30
0.0
 10
7.0259121351
 20
22.277974567
 30
0.0
 10
7.0268217478
 20
22.283867543
 30
0.0
 10
7.0278293908
 20
22.2896856306
 30
0.0
 10
7.0289020683
 20
22.2952056811
 30
0.0
 10
7.0294427047
 20
22.2977643706
 30
0.0
 10
7.0297117141
 20
22.2989667923
 30
0.0
  0
SPLINE
  5
37B
100
AcDbEntity
  8
0
100
AcDbSpline
 62
7
  6
CONTINUOUS
 70
0
 71
3
 72
19
 73
15
 74
0
 42
0.0000001
 43
0.0000001
 44
0.0000000001
 40
0.0
 40
0.0
 40
0.0
 40
0.0
 40
0.2158829838
 40
0.4089727389
 40
0.5772032273
 40
0.7186538901
 40
0.7789133519
 40
0.8320121137
 40
0.8778306021
 40
0.9162759641
 40
0.9473205198
 40
0.9711264089
 40
0.9881914892
 40
1.0
 40
1.0
 40
1.0
 40
1.0
 10
7.0297117141
 20
22.2989667923
 30
0.0
 10
7.0298357993
 20
22.2995214297
 30
0.0
 10
7.0300767955
 20
22.3005708359
 30
0.0
 10
7.0304382925
 20
22.3020468689
 30
0.0
 10
7.030777088
 20
22.3033264882
 30
0.0
 10
7.0310502188
 20
22.3042615383
 30
0.0
 10
7.0312575671
 20
22.3048995703
 30
0.0
 10
7.0313969137
 20
22.3052948407
 30
0.0
 10
7.0315280504
 20
22.3056319437
 30
0.0
 10
7.0316507038
 20
22.3059097889
 30
0.0
 10
7.0317639962
 20
22.3061279554
 30
0.0
 10
7.0318690404
 20
22.3062862874
 30
0.0
 10
7.0319636482
 20
22.3063884143
 30
0.0
 10
7.0320375764
 20
22.3064220009
 30
0.0
 10
7.0320686642
 20
22.3064220548
 30
0.0
  0
SPLINE
  5
37C
100
AcDbEntity
  8
0
100
AcDbSpline
 62
7
  6
CONTINUOUS
 70
0
 71
3
 72
17
 73
13
 74
0
 42
0.0000001
 43
0.0000001
 44
0.0000000001
 40
0.0
 40
0.0
 40
0.0
 40
0.0
 40
0.021130066
 40
0.0436668699
 40
0.0698427336
 40
0.101137995
 40
0.1821242441
 40
0.2900286634
 40
0.4257439283
 40
0.5894306642
 40
0.7809456812
 40
1.0
 40
1.0
 40
1.0
 40
1.0
 10
7.0246698138
 20
22.2604220137
 30
0.0
 10
7.0246548335
 20
22.2604219896
 30
0.0
 10
7.0246235589
 20
22.2604276056
 30
0.0
 10
7.0245804005
 20
22.2604535376
 30
0.0
 10
7.024541288
 20
22.2604953163
 30
0.0
 10
7.0244891351
 20
22.2605789596
 30
0.0
 10
7.0244355004
 20
22.2607268795
 30
0.0
 10
7.0243856622
 20
22.2609516809
 30
0.0
 10
7.0243465662
 20
22.2612380906
 30
0.0
 10
7.0243184445
 20
22.2615850782
 30
0.0
 10
7.0243016736
 20
22.2619919456
 30
0.0
 10
7.0242984276
 20
22.2622830405
 30
0.0
 10
7.0242984276
 20
22.262438341
 30
0.0
  0
SPLINE
  5
37D
100
AcDbEntity
  8
0
100
AcDbSpline
 62
7
  6
CONTINUOUS
 70
0
 71
3
 72
13
 73
9
 74
0
 42
0.0000001
 43
0.0000001
 44
0.0000000001
 40
0.0
 40
0.0
 40
0.0
 40
0.0
 40
0.1028239269
 40
0.2183323097
 40
0.3433402457
 40
0.4747186263
 40
0.7438383617
 40
1.0
 40
1.0
 40
1.0
 40
1.0
 10
7.0242984276
 20
22.1610544685
 30
0.0
 10
7.0242984276
 20
22.161974951
 30
0.0
 10
7.0243407251
 20
22.1639295048
 30
0.0
 10
7.0244993694
 20
22.1669993221
 30
0.0
 10
7.0247554942
 20
22.1703189953
 30
0.0
 10
7.025219335
 20
22.1750007139
 30
0.0
 10
7.0259723818
 20
22.1808321437
 30
0.0
 10
7.0267456444
 20
22.1854719636
 30
0.0
 10
7.0271750538
 20
22.1877245658
 30
0.0
  0
SPLINE
  5
37E
100
AcDbEntity
  8
0
100
AcDbSpline
 62
7
  6
CONTINUOUS
 70
0
 71
3
 72
19
 73
15
 74
0
 42
0.0000001
 43
0.0000001
 44
0.0000000001
 40
0.0
 40
0.0
 40
0.0
 40
0.0
 40
0.2056472507
 40
0.3933748698
 40
0.5598217794
 40
0.7021781764
 40
0.7635764559
 40
0.8180853191
 40
0.8655391544
 40
0.9058596881
 40
0.9390521546
 40
0.9530302541
 40
0.9653234739
 40
1.0
 40
1.0
 40
1.0
 40
1.0
 10
7.0271750538
 20
22.1877245658
 30
0.0
 10
7.027347105
 20
22.188627115
 30
0.0
 10
7.0276928297
 20
22.190350467
 30
0.0
 10
7.0282405447
 20
22.1927912427
 30
0.0
 10
7.0287870436
 20
22.1949416166
 30
0.0
 10
7.0292523129
 20
22.1965294982
 30
0.0
 10
7.0296220474
 20
22.1976227084
 30
0.0
 10
7.0298791253
 20
22.1983060105
 30
0.0
 10
7.0301284128
 20
22.198891014
 30
0.0
 10
7.0303690736
 20
22.1993755683
 30
0.0
 10
7.0305705163
 20
22.1997107782
 30
0.0
 10
7.0307306141
 20
22.1999244798
 30
0.0
 10
7.0309083165
 20
22.2001254465
 30
0.0
 10
7.0311025786
 20
22.2002688748
 30
0.0
 10
7.0312575082
 20
22.2002687923
 30
0.0
  0
SPLINE
  5
37F
100
AcDbEntity
  8
0
100
AcDbSpline
 62
7
  6
CONTINUOUS
 70
0
 71
3
 72
11
 73
7
 74
0
 42
0.0000001
 43
0.0000001
 44
0.0000000001
 40
0.0
 40
0.0
 40
0.0
 40
0.0
 40
0.2475095816
 40
0.5061912247
 40
0.7614390932
 40
1.0
 40
1.0
 40
1.0
 40
1.0
 10
7.0242984276
 20
22.0138745977
 30
0.0
 10
7.0242984276
 20
22.0155933895
 30
0.0
 10
7.0243839128
 20
22.0191088211
 30
0.0
 10
7.0247214895
 20
22.0243869572
 30
0.0
 10
7.0252536118
 20
22.0295865539
 30
0.0
 10
7.0257379952
 20
22.0329826615
 30
0.0
 10
7.0260127148
 20
22.0346163736
 30
0.0
  0
SPLINE
  5
380
100
AcDbEntity
  8
0
100
AcDbSpline
 62
7
  6
CONTINUOUS
 70
0
 71
3
 72
19
 73
15
 74
0
 42
0.0000001
 43
0.0000001
 44
0.0000000001
 40
0.0
 40
0.0
 40
0.0
 40
0.0
 40
0.2037153825
 40
0.3888429323
 40
0.5525013837
 40
0.6923841136
 40
0.7528670717
 40
0.8067898971
 40
0.8540598299
 40
0.8947259312
 40
0.9289661147
 40
0.9571918625
 40
0.9802813465
 40
1.0
 40
1.0
 40
1.0
 40
1.0
 10
7.0260127148
 20
22.0346163736
 30
0.0
 10
7.0261541662
 20
22.0354575613
 30
0.0
 10
7.0264452494
 20
22.0370597557
 30
0.0
 10
7.0269298154
 20
22.0393223585
 30
0.0
 10
7.0274352771
 20
22.0413056528
 30
0.0
 10
7.0278848001
 20
22.0427632325
 30
0.0
 10
7.0282547501
 20
22.0437619454
 30
0.0
 10
7.0285183062
 20
22.0443858141
 30
0.0
 10
7.0287805499
 20
22.0449192432
 30
0.0
 10
7.0290403461
 20
22.045360672
 30
0.0
 10
7.0292969388
 20
22.0457093074
 30
0.0
 10
7.0295507905
 20
22.0459646909
 30
0.0
 10
7.0298046786
 20
22.0461263897
 30
0.0
 10
7.0299847893
 20
22.0461668872
 30
0.0
 10
7.0300673552
 20
22.0461667928
 30
0.0
  0
SPLINE
  5
381
100
AcDbEntity
  8
0
100
AcDbSpline
 62
7
  6
CONTINUOUS
 70
0
 71
3
 72
18
 73
14
 74
0
 42
0.0000001
 43
0.0000001
 44
0.0000000001
 40
0.0
 40
0.0
 40
0.0
 40
0.0
 40
0.0202916174
 40
0.0426211189
 40
0.0691777373
 40
0.1012867231
 40
0.1396932702
 40
0.1847821329
 40
0.2954586909
 40
0.4335595204
 40
0.5984402093
 40
0.7881105981
 40
1.0
 40
1.0
 40
1.0
 40
1.0
 10
6.9701642679
 20
22.0083195071
 30
0.0
 10
6.970105765
 20
22.0083196398
 30
0.0
 10
6.9699817841
 20
22.0083451818
 30
0.0
 10
6.9698120922
 20
22.0084561955
 30
0.0
 10
6.9696561626
 20
22.0086324686
 30
0.0
 10
6.9695110686
 20
22.0088729778
 30
0.0
 10
6.9693758872
 20
22.0091783105
 30
0.0
 10
6.9691966705
 20
22.0097092475
 30
0.0
 10
6.9690104333
 20
22.0105376977
 30
0.0
 10
6.9688410491
 20
22.0117188132
 30
0.0
 10
6.9687189385
 20
22.0131345573
 30
0.0
 10
6.9686451001
 20
22.0147662984
 30
0.0
 10
6.9686301499
 20
22.015924148
 30
0.0
 10
6.9686301499
 20
22.0165350491
 30
0.0
  0
SPLINE
  5
382
100
AcDbEntity
  8
0
100
AcDbSpline
 62
7
  6
CONTINUOUS
 70
0
 71
3
 72
22
 73
18
 74
0
 42
0.0000001
 43
0.0000001
 44
0.0000000001
 40
0.0
 40
0.0
 40
0.0
 40
0.0
 40
0.1862119001
 40
0.3669054495
 40
0.5342189552
 40
0.6108542884
 40
0.6818654971
 40
0.7466175453
 40
0.8045160535
 40
0.8551562691
 40
0.8982617783
 40
0.933678288
 40
0.9616175832
 40
0.9730377184
 40
0.9829969671
 40
0.9918228385
 40
1.0
 40
1.0
 40
1.0
 40
1.0
 10
7.0242984276
 20
21.840449977
 30
0.0
 10
7.0242984276
 20
21.8420093855
 30
0.0
 10
7.024356151
 20
21.845082312
 30
0.0
 10
7.0246077533
 20
21.8495499791
 30
0.0
 10
7.0249538663
 20
21.8530906144
 30
0.0
 10
7.0253104949
 20
21.8557042722
 30
0.0
 10
7.0256009033
 20
21.8574593923
 30
0.0
 10
7.0259180998
 20
21.8590502143
 30
0.0
 10
7.0262589584
 20
21.8604613419
 30
0.0
 10
7.0266191664
 20
21.861679734
 30
0.0
 10
7.0269940417
 20
21.8626957277
 30
0.0
 10
7.0273800651
 20
21.8635007034
 30
0.0
 10
7.0277292882
 20
21.8640259036
 30
0.0
 10
7.0280196202
 20
21.8643215113
 30
0.0
 10
7.028224973
 20
21.864471713
 30
0.0
 10
7.0284332183
 20
21.8645642718
 30
0.0
 10
7.0285763117
 20
21.8645854913
 30
0.0
 10
7.0286447902
 20
21.8645854061
 30
0.0
  0
SPLINE
  5
383
100
AcDbEntity
  8
0
100
AcDbSpline
 62
7
  6
CONTINUOUS
 70
0
 71
3
 72
16
 73
12
 74
0
 42
0.0000001
 43
0.0000001
 44
0.0000000001
 40
0.0
 40
0.0
 40
0.0
 40
0.0
 40
0.0095617197
 40
0.0249563582
 40
0.0773456198
 40
0.1596782845
 40
0.2717673627
 40
0.4130487895
 40
0.5824315769
 40
0.7785459586
 40
1.0
 40
1.0
 40
1.0
 40
1.0
 10
7.0912939744
 20
21.1089488412
 30
0.0
 10
7.0912770563
 20
21.1089486179
 30
0.0
 10
7.0912354313
 20
21.1089732787
 30
0.0
 10
7.0911541074
 20
21.1090824265
 30
0.0
 10
7.091042111
 20
21.1093266077
 30
0.0
 10
7.0908947432
 20
21.1097365785
 30
0.0
 10
7.0907209834
 20
21.1103053587
 30
0.0
 10
7.0905231326
 20
21.1110266243
 30
0.0
 10
7.090302839
 20
21.1118960121
 30
0.0
 10
7.0900618735
 20
21.112906283
 30
0.0
 10
7.0898982001
 20
21.1136268365
 30
0.0
 10
7.0898129626
 20
21.1140093176
 30
0.0
  0
SPLINE
  5
384
100
AcDbEntity
  8
0
100
AcDbSpline
 62
7
  6
CONTINUOUS
 70
0
 71
3
 72
15
 73
11
 74
0
 42
0.0000001
 43
0.0000001
 44
0.0000000001
 40
0.0
 40
0.0
 40
0.0
 40
0.0
 40
0.1046956377
 40
0.2298246749
 40
0.3685355992
 40
0.5133808515
 40
0.6565775177
 40
0.7903031261
 40
0.9070321777
 40
1.0
 40
1.0
 40
1.0
 40
1.0
 10
7.0898129626
 20
21.1140093176
 30
0.0
 10
7.0895259116
 20
21.1152973844
 30
0.0
 10
7.088932069
 20
21.1181329662
 30
0.0
 10
7.0880429444
 20
21.1226924607
 30
0.0
 10
7.0871110448
 20
21.1277589463
 30
0.0
 10
7.0861867435
 20
21.1330581347
 30
0.0
 10
7.0853212189
 20
21.1383035601
 30
0.0
 10
7.0845634499
 20
21.1432073816
 30
0.0
 10
7.083958465
 20
21.1474937267
 30
0.0
 10
7.0836367201
 20
21.1501176622
 30
0.0
 10
7.0835171523
 20
21.1512833843
 30
0.0
  0
LINE
  5
385
100
AcDbEntity
  8
0
100
AcDbLine
 62
7
  6
CONTINUOUS
 10
7.0835171523
 20
21.1512833843
 11
7.083316918
 21
21.1541645548
  0
SPLINE
  5
386
100
AcDbEntity
  8
0
100
AcDbSpline
 62
7
  6
CONTINUOUS
 70
0
 71
3
 72
24
 73
20
 74
0
 42
0.0000001
 43
0.0000001
 44
0.0000000001
 40
0.0
 40
0.0
 40
0.0
 40
0.0
 40
0.0071327862
 40
0.0152830814
 40
0.0250153482
 40
0.0366417674
 40
0.0503258591
 40
0.0661507657
 40
0.0841520569
 40
0.1043154634
 40
0.1509486066
 40
0.2056270237
 40
0.2677479792
 40
0.3365033799
 40
0.4110335684
 40
0.4903184782
 40
0.658621148
 40
0.8320127334
 40
1.0
 40
1.0
 40
1.0
 40
1.0
 10
7.0298965153
 20
21.6084050628
 30
0.0
 10
7.0298194733
 20
21.60840496
 30
0.0
 10
7.0296535373
 20
21.6084381736
 30
0.0
 10
7.0294165673
 20
21.608574183
 30
0.0
 10
7.0291800663
 20
21.608790405
 30
0.0
 10
7.0289420342
 20
21.6090859683
 30
0.0
 10
7.0287018829
 20
21.6094605144
 30
0.0
 10
7.028460077
 20
21.6099136005
 30
0.0
 10
7.0282174399
 20
21.6104441849
 30
0.0
 10
7.0278770854
 20
21.6112948029
 30
0.0
 10
7.0274631238
 20
21.612540987
 30
0.0
 10
7.0269963598
 20
21.6142439566
 30
0.0
 10
7.0265464554
 20
21.6161974934
 30
0.0
 10
7.0261197565
 20
21.6183750224
 30
0.0
 10
7.0257240808
 20
21.620746539
 30
0.0
 10
7.0252363172
 20
21.6241916875
 30
0.0
 10
7.0247524841
 20
21.6287144893
 30
0.0
 10
7.0243895038
 20
21.634208956
 30
0.0
 10
7.0242984276
 20
21.63789658
 30
0.0
 10
7.0242984276
 20
21.6397110302
 30
0.0
  0
SPLINE
  5
387
100
AcDbEntity
  8
0
100
AcDbSpline
 62
7
  6
CONTINUOUS
 70
0
 71
3
 72
16
 73
12
 74
0
 42
0.0000001
 43
0.0000001
 44
0.0000000001
 40
0.0
 40
0.0
 40
0.0
 40
0.0
 40
0.0341766938
 40
0.0596095553
 40
0.0916182564
 40
0.130462341
 40
0.17623322
 40
0.2885403768
 40
0.4282266065
 40
0.5943364041
 40
1.0
 40
1.0
 40
1.0
 40
1.0
 10
7.0909006865
 20
21.1797277812
 30
0.0
 10
7.0908280107
 20
21.1797277279
 30
0.0
 10
7.0907104153
 20
21.1798079726
 30
0.0
 10
7.0905865588
 20
21.1799539827
 30
0.0
 10
7.0904721562
 20
21.1801256711
 30
0.0
 10
7.090352668
 20
21.1803427106
 30
0.0
 10
7.0901717152
 20
21.1807207307
 30
0.0
 10
7.0899366654
 20
21.1813091576
 30
0.0
 10
7.0896479457
 20
21.182150283
 30
0.0
 10
7.0892070907
 20
21.1835977469
 30
0.0
 10
7.0888984935
 20
21.1847742734
 30
0.0
 10
7.0886905982
 20
21.1856114793
 30
0.0
  0
SPLINE
  5
388
100
AcDbEntity
  8
0
100
AcDbSpline
 62
7
  6
CONTINUOUS
 70
0
 71
3
 72
16
 73
12
 74
0
 42
0.0000001
 43
0.0000001
 44
0.0000000001
 40
0.0
 40
0.0
 40
0.0
 40
0.0
 40
0.1105668536
 40
0.2398454845
 40
0.3810420532
 40
0.5267233986
 40
0.6690629584
 40
0.8001621448
 40
0.9126735807
 40
0.959866931
 40
1.0
 40
1.0
 40
1.0
 40
1.0
 10
7.0886905982
 20
21.1856114793
 30
0.0
 10
7.0883577265
 20
21.1869519723
 30
0.0
 10
7.0876988799
 20
21.1898754812
 30
0.0
 10
7.0867732152
 20
21.1945449129
 30
0.0
 10
7.0858699902
 20
21.1996648676
 30
0.0
 10
7.085039547
 20
21.2049622713
 30
0.0
 10
7.0843297443
 20
21.2101500085
 30
0.0
 10
7.0837826944
 20
21.2149405333
 30
0.0
 10
7.0834712582
 20
21.2185608393
 30
0.0
 10
7.0833420779
 20
21.221054072
 30
0.0
 10
7.083316918
 20
21.222144951
 30
0.0
 10
7.083316918
 20
21.2226462944
 30
0.0
  0
SPLINE
  5
389
100
AcDbEntity
  8
0
100
AcDbSpline
 62
7
  6
CONTINUOUS
 70
0
 71
3
 72
40
 73
36
 74
0
 42
0.0000001
 43
0.0000001
 44
0.0000000001
 40
0.0
 40
0.0
 40
0.0
 40
0.0
 40
0.0002698889
 40
0.0007771847
 40
0.0015539582
 40
0.0026076673
 40
0.0055544481
 40
0.0096250615
 40
0.0148191093
 40
0.0211238996
 40
0.0285183557
 40
0.0369808782
 40
0.0464896836
 40
0.0570228823
 40
0.0810717933
 40
0.1088940657
 40
0.1402056765
 40
0.1747204011
 40
0.2121292769
 40
0.2520770923
 40
0.2942029544
 40
0.3835031604
 40
0.4768999907
 40
0.5711788998
 40
0.66308152
 40
0.7494107537
 40
0.8270714759
 40
0.8932223661
 40
0.9211686906
 40
0.9453422179
 40
0.9654915447
 40
0.9814044025
 40
0.9929460739
 40
0.997040469
 40
1.0
 40
1.0
 40
1.0
 40
1.0
 10
7.032389237
 20
21.2839559457
 30
0.0
 10
7.0323850458
 20
21.2839560614
 30
0.0
 10
7.0323751195
 20
21.2839655886
 30
0.0
 10
7.0323637198
 20
21.2839859136
 30
0.0
 10
7.0323487897
 20
21.28401954
 30
0.0
 10
7.0323235583
 20
21.2840891059
 30
0.0
 10
7.0322873111
 20
21.2842093917
 30
0.0
 10
7.0322385046
 20
21.2843926337
 30
0.0
 10
7.0321809655
 20
21.2846276168
 30
0.0
 10
7.032114901
 20
21.2849135916
 30
0.0
 10
7.0320405185
 20
21.2852497605
 30
0.0
 10
7.0319580363
 20
21.2856350995
 30
0.0
 10
7.031867656
 20
21.2860686091
 30
0.0
 10
7.0317307206
 20
21.2867397524
 30
0.0
 10
7.0315420194
 20
21.2876906928
 30
0.0
 10
7.0312964894
 20
21.2889594325
 30
0.0
 10
7.031025094
 20
21.2903887641
 30
0.0
 10
7.0307302063
 20
21.2919652205
 30
0.0
 10
7.0304143679
 20
21.2936742472
 30
0.0
 10
7.0300802518
 20
21.2955001369
 30
0.0
 10
7.0296048811
 20
21.2981197129
 30
0.0
 10
7.0289877523
 20
21.3015574726
 30
0.0
 10
7.0282357911
 20
21.3057941871
 30
0.0
 10
7.0274844328
 20
21.3100720632
 30
0.0
 10
7.0267600636
 20
21.3142431935
 30
0.0
 10
7.0260889462
 20
21.3181615295
 30
0.0
 10
7.025496577
 20
21.321687447
 30
0.0
 10
7.0250664287
 20
21.3243208913
 30
0.0
 10
7.0247812596
 20
21.3261360164
 30
0.0
 10
7.024612923
 20
21.3272460553
 30
0.0
 10
7.0244794011
 20
21.3281722937
 30
0.0
 10
7.0243825355
 20
21.328905452
 30
0.0
 10
7.0243267166
 20
21.3293925054
 30
0.0
 10
7.0243034774
 20
21.3296804572
 30
0.0
 10
7.0242984276
 20
21.3297900058
 30
0.0
 10
7.0242984276
 20
21.3298359832
 30
0.0
  0
SPLINE
  5
38A
100
AcDbEntity
  8
0
100
AcDbSpline
 62
7
  6
CONTINUOUS
 70
0
 71
3
 72
18
 73
14
 74
0
 42
0.0000001
 43
0.0000001
 44
0.0000000001
 40
0.0
 40
0.0
 40
0.0
 40
0.0
 40
0.0132032731
 40
0.0312213014
 40
0.0556279269
 40
0.0870216233
 40
0.1255878244
 40
0.1713434851
 40
0.2242404645
 40
0.2841974665
 40
0.4248735131
 40
0.5922314605
 40
1.0
 40
1.0
 40
1.0
 40
1.0
 10
7.0319907768
 20
21.336423788
 30
0.0
 10
7.0319589612
 20
21.3364238092
 30
0.0
 10
7.0318847186
 20
21.336451986
 30
0.0
 10
7.031786195
 20
21.3365443679
 30
0.0
 10
7.0316798455
 20
21.3366877141
 30
0.0
 10
7.0315661749
 20
21.3368849909
 30
0.0
 10
7.0314443862
 20
21.3371359923
 30
0.0
 10
7.0313151206
 20
21.3374404386
 30
0.0
 10
7.0311786548
 20
21.3377975092
 30
0.0
 10
7.0309767109
 20
21.3383741561
 30
0.0
 10
7.0307124857
 20
21.3392208567
 30
0.0
 10
7.0302468897
 20
21.3408818063
 30
0.0
 10
7.029917106
 20
21.3422282733
 30
0.0
 10
7.0296939181
 20
21.3431851776
 30
0.0
  0
SPLINE
  5
38B
100
AcDbEntity
  8
0
100
AcDbSpline
 62
7
  6
CONTINUOUS
 70
0
 71
3
 72
16
 73
12
 74
0
 42
0.0000001
 43
0.0000001
 44
0.0000000001
 40
0.0
 40
0.0
 40
0.0
 40
0.0
 40
0.1163874919
 40
0.2501124736
 40
0.3941198317
 40
0.5408041628
 40
0.682261546
 40
0.8106196881
 40
0.9186489421
 40
0.9630176305
 40
1.0
 40
1.0
 40
1.0
 40
1.0
 10
7.0296939181
 20
21.3431851776
 30
0.0
 10
7.0293660976
 20
21.3445906877
 30
0.0
 10
7.0287130633
 20
21.3476230699
 30
0.0
 10
7.0277859711
 20
21.3524217499
 30
0.0
 10
7.0268792694
 20
21.3576062082
 30
0.0
 10
7.0260436163
 20
21.3628996435
 30
0.0
 10
7.0253275478
 20
21.3680148198
 30
0.0
 10
7.0247745694
 20
21.3726677264
 30
0.0
 10
7.0244568296
 20
21.3761355764
 30
0.0
 10
7.0243245982
 20
21.3784804044
 30
0.0
 10
7.0242984276
 20
21.3794891552
 30
0.0
 10
7.0242984276
 20
21.3799477459
 30
0.0
  0
SPLINE
  5
38C
100
AcDbEntity
  8
0
100
AcDbSpline
 62
7
  6
CONTINUOUS
 70
0
 71
3
 72
19
 73
15
 74
0
 42
0.0000001
 43
0.0000001
 44
0.0000000001
 40
0.0
 40
0.0
 40
0.0
 40
0.0
 40
0.0163507251
 40
0.0369644397
 40
0.063581031
 40
0.0968875572
 40
0.1371334628
 40
0.1843790313
 40
0.2995841445
 40
0.3671723462
 40
0.4410797392
 40
0.6067694617
 40
0.7941016296
 40
1.0
 40
1.0
 40
1.0
 40
1.0
 10
7.0311251323
 20
21.4495850584
 30
0.0
 10
7.0310565947
 20
21.4495849192
 30
0.0
 10
7.030901668
 20
21.4496304598
 30
0.0
 10
7.0306896815
 20
21.4497968987
 30
0.0
 10
7.0304712116
 20
21.4500560343
 30
0.0
 10
7.0302443466
 20
21.4504102646
 30
0.0
 10
7.0300086787
 20
21.4508589013
 30
0.0
 10
7.0296608574
 20
21.4516345178
 30
0.0
 10
7.0293298738
 20
21.4525413415
 30
0.0
 10
7.0290001506
 20
21.4535655668
 30
0.0
 10
7.0286352303
 20
21.4548005601
 30
0.0
 10
7.0281810727
 20
21.4565319448
 30
0.0
 10
7.0276544788
 20
21.458815088
 30
0.0
 10
7.0273230425
 20
21.4604299043
 30
0.0
 10
7.0271580652
 20
21.4612770582
 30
0.0
  0
SPLINE
  5
38D
100
AcDbEntity
  8
0
100
AcDbSpline
 62
7
  6
CONTINUOUS
 70
0
 71
3
 72
13
 73
9
 74
0
 42
0.0000001
 43
0.0000001
 44
0.0000000001
 40
0.0
 40
0.0
 40
0.0
 40
0.0
 40
0.250860653
 40
0.5179787075
 40
0.6497478903
 40
0.7761118764
 40
0.8939416606
 40
1.0
 40
1.0
 40
1.0
 40
1.0
 10
7.0271580652
 20
21.4612770582
 30
0.0
 10
7.0267275549
 20
21.4634877167
 30
0.0
 10
7.0259548469
 20
21.4680751392
 30
0.0
 10
7.0252101189
 20
21.4738622564
 30
0.0
 10
7.0247511884
 20
21.4785558074
 30
0.0
 10
7.0244970261
 20
21.4819218983
 30
0.0
 10
7.0243398015
 20
21.4850628049
 30
0.0
 10
7.0242984276
 20
21.4870728858
 30
0.0
 10
7.0242984276
 20
21.488025061
 30
0.0
  0
LINE
  5
38E
100
AcDbEntity
  8
0
100
AcDbLine
 62
7
  6
CONTINUOUS
 10
7.083316918
 20
22.4784488626
 11
7.0835178441
 21
22.4813367408
  0
SPLINE
  5
38F
100
AcDbEntity
  8
0
100
AcDbSpline
 62
7
  6
CONTINUOUS
 70
0
 71
3
 72
15
 73
11
 74
0
 42
0.0000001
 43
0.0000001
 44
0.0000000001
 40
0.0
 40
0.0
 40
0.0
 40
0.0
 40
0.0930783521
 40
0.2099361084
 40
0.3437845391
 40
0.4870715243
 40
0.6319459427
 40
0.770601252
 40
0.8955730055
 40
1.0
 40
1.0
 40
1.0
 40
1.0
 10
7.0835178441
 20
22.4813367408
 30
0.0
 10
7.0836377791
 20
22.4825050544
 30
0.0
 10
7.0839604306
 20
22.4851346946
 30
0.0
 10
7.0845669762
 20
22.4894299874
 30
0.0
 10
7.0853265134
 20
22.4943431309
 30
0.0
 10
7.0861937955
 20
22.4995969786
 30
0.0
 10
7.0871196078
 20
22.5049024101
 30
0.0
 10
7.0880525397
 20
22.5099718059
 30
0.0
 10
7.0889420323
 20
22.5145299687
 30
0.0
 10
7.0895359723
 20
22.5173631257
 30
0.0
 10
7.0898230048
 20
22.5186491322
 30
0.0
  0
SPLINE
  5
390
100
AcDbEntity
  8
0
100
AcDbSpline
 62
7
  6
CONTINUOUS
 70
0
 71
3
 72
16
 73
12
 74
0
 42
0.0000001
 43
0.0000001
 44
0.0000000001
 40
0.0
 40
0.0
 40
0.0
 40
0.0
 40
0.2214909795
 40
0.4176080831
 40
0.5869719857
 40
0.728225626
 40
0.840288505
 40
0.9226048942
 40
0.9749984708
 40
0.990409058
 40
1.0
 40
1.0
 40
1.0
 40
1.0
 10
7.0898230048
 20
22.5186491322
 30
0.0
 10
7.0899076397
 20
22.5190283262
 30
0.0
 10
7.0900701495
 20
22.5197426327
 30
0.0
 10
7.0903094109
 20
22.5207440721
 30
0.0
 10
7.090528146
 20
22.5216057376
 30
0.0
 10
7.0907246124
 20
22.5223205147
 30
0.0
 10
7.0908971773
 20
22.5228841265
 30
0.0
 10
7.0910435879
 20
22.5232903586
 30
0.0
 10
7.091154882
 20
22.5235322912
 30
0.0
 10
7.0912357808
 20
22.5236404279
 30
0.0
 10
7.0912771559
 20
22.5236648084
 30
0.0
 10
7.0912939782
 20
22.5236645874
 30
0.0
  0
SPLINE
  5
391
100
AcDbEntity
  8
0
100
AcDbSpline
 62
7
  6
CONTINUOUS
 70
0
 71
3
 72
16
 73
12
 74
0
 42
0.0000001
 43
0.0000001
 44
0.0000000001
 40
0.0
 40
0.0
 40
0.0
 40
0.0
 40
0.0401621693
 40
0.0874041792
 40
0.200054588
 40
0.3313136694
 40
0.4737899695
 40
0.6195406749
 40
0.7606962409
 40
0.8897886425
 40
1.0
 40
1.0
 40
1.0
 40
1.0
 10
7.083316918
 20
22.409967123
 30
0.0
 10
7.083316918
 20
22.4104698117
 30
0.0
 10
7.0833422137
 20
22.4115637985
 30
0.0
 10
7.0834720398
 20
22.4140646066
 30
0.0
 10
7.0837849678
 20
22.4176962902
 30
0.0
 10
7.0843344614
 20
22.422501521
 30
0.0
 10
7.0850472041
 20
22.427703823
 30
0.0
 10
7.0858807177
 20
22.4330134594
 30
0.0
 10
7.08678673
 20
22.4381412501
 30
0.0
 10
7.0877144951
 20
22.4428123272
 30
0.0
 10
7.0883747452
 20
22.4457345933
 30
0.0
 10
7.0887083024
 20
22.4470731157
 30
0.0
  0
SPLINE
  5
392
100
AcDbEntity
  8
0
100
AcDbSpline
 62
7
  6
CONTINUOUS
 70
0
 71
3
 72
16
 73
12
 74
0
 42
0.0000001
 43
0.0000001
 44
0.0000000001
 40
0.0
 40
0.0
 40
0.0
 40
0.0
 40
0.4056525247
 40
0.5717105266
 40
0.7113425391
 40
0.8236091315
 40
0.8693701963
 40
0.9082147774
 40
0.9402374069
 40
0.9657013948
 40
1.0
 40
1.0
 40
1.0
 40
1.0
 10
7.0887083024
 20
22.4470731157
 30
0.0
 10
7.0889144884
 20
22.4479005139
 30
0.0
 10
7.0892205195
 20
22.449063139
 30
0.0
 10
7.0896577536
 20
22.4504932846
 30
0.0
 10
7.0899440759
 20
22.4513241092
 30
0.0
 10
7.090177205
 20
22.4519052372
 30
0.0
 10
7.0903567011
 20
22.4522784998
 30
0.0
 10
7.0904752635
 20
22.4524928204
 30
0.0
 10
7.0905887962
 20
22.4526623381
 30
0.0
 10
7.0907118736
 20
22.4528066511
 30
0.0
 10
7.0908285934
 20
22.4528856958
 30
0.0
 10
7.0909006908
 20
22.452885643
 30
0.0
  0
SPLINE
  5
393
100
AcDbEntity
  8
0
100
AcDbSpline
 62
7
  6
CONTINUOUS
 70
0
 71
3
 72
13
 73
9
 74
0
 42
0.0000001
 43
0.0000001
 44
0.0000000001
 40
0.0
 40
0.0
 40
0.0
 40
0.0
 40
0.1026140996
 40
0.2179690027
 40
0.3428854574
 40
0.4742358746
 40
0.7434868434
 40
1.0
 40
1.0
 40
1.0
 40
1.0
 10
7.083316918
 20
22.3010284072
 30
0.0
 10
7.083316918
 20
22.3019465808
 30
0.0
 10
7.0833586995
 20
22.3038969664
 30
0.0
 10
7.0835153921
 20
22.306961359
 30
0.0
 10
7.0837685103
 20
22.3102772421
 30
0.0
 10
7.0842275231
 20
22.3149573228
 30
0.0
 10
7.0849741443
 20
22.3207908958
 30
0.0
 10
7.0857429222
 20
22.3254336238
 30
0.0
 10
7.0861707004
 20
22.3276886439
 30
0.0
  0
SPLINE
  5
394
100
AcDbEntity
  8
0
100
AcDbSpline
 62
7
  6
CONTINUOUS
 70
0
 71
3
 72
19
 73
15
 74
0
 42
0.0000001
 43
0.0000001
 44
0.0000000001
 40
0.0
 40
0.0
 40
0.0
 40
0.0
 40
0.2055163283
 40
0.3931676341
 40
0.5595804835
 40
0.7019371227
 40
0.7633452363
 40
0.8178696239
 40
0.8653456304
 40
0.9056938323
 40
0.9389185646
 40
0.952914468
 40
0.965226709
 40
1.0
 40
1.0
 40
1.0
 40
1.0
 10
7.0861707004
 20
22.3276886439
 30
0.0
 10
7.0863426513
 20
22.3285950776
 30
0.0
 10
7.0866884552
 20
22.3303260231
 30
0.0
 10
7.0872371011
 20
22.3327777201
 30
0.0
 10
7.0877853937
 20
22.3349380601
 30
0.0
 10
7.0882528232
 20
22.3365334351
 30
0.0
 10
7.0886246416
 20
22.3376318786
 30
0.0
 10
7.0888833415
 20
22.338318523
 30
0.0
 10
7.0891343325
 20
22.3389064219
 30
0.0
 10
7.0893767491
 20
22.3393933997
 30
0.0
 10
7.0895797351
 20
22.3397302776
 30
0.0
 10
7.0897410801
 20
22.3399450177
 30
0.0
 10
7.0899203568
 20
22.3401471323
 30
0.0
 10
7.0901161909
 20
22.3402911186
 30
0.0
 10
7.0902722944
 20
22.3402910549
 30
0.0
  0
SPLINE
  5
395
100
AcDbEntity
  8
0
100
AcDbSpline
 62
7
  6
CONTINUOUS
 70
0
 71
3
 72
19
 73
15
 74
0
 42
0.0000001
 43
0.0000001
 44
0.0000000001
 40
0.0
 40
0.0
 40
0.0
 40
0.0
 40
0.0347134118
 40
0.0470201105
 40
0.0610145942
 40
0.0942470326
 40
0.1346134484
 40
0.1821142672
 40
0.2366665816
 40
0.2981055887
 40
0.4405210194
 40
0.6069620031
 40
0.7945885802
 40
1.0
 40
1.0
 40
1.0
 40
1.0
 10
7.0902722916
 20
21.2923223751
 30
0.0
 10
7.0901153931
 20
21.2923223267
 30
0.0
 10
7.0899187145
 20
21.2924676544
 30
0.0
 10
7.0897387729
 20
21.2926712009
 30
0.0
 10
7.0895766771
 20
21.2928876846
 30
0.0
 10
7.0893727582
 20
21.2932272537
 30
0.0
 10
7.0891292156
 20
21.2937180755
 30
0.0
 10
7.0888770521
 20
21.2943105646
 30
0.0
 10
7.088617139
 20
21.2950025077
 30
0.0
 10
7.0882436202
 20
21.2961092936
 30
0.0
 10
7.0877741446
 20
21.2977164464
 30
0.0
 10
7.0872235896
 20
21.2998921986
 30
0.0
 10
7.0866729491
 20
21.3023605531
 30
0.0
 10
7.0863260232
 20
21.3041029647
 30
0.0
 10
7.0861535762
 20
21.3050152322
 30
0.0
  0
SPLINE
  5
396
100
AcDbEntity
  8
0
100
AcDbSpline
 62
7
  6
CONTINUOUS
 70
0
 71
3
 72
13
 73
9
 74
0
 42
0.0000001
 43
0.0000001
 44
0.0000000001
 40
0.0
 40
0.0
 40
0.0
 40
0.0
 40
0.2567972307
 40
0.526024576
 40
0.6573010737
 40
0.7821339394
 40
0.8974191929
 40
1.0
 40
1.0
 40
1.0
 40
1.0
 10
7.0861535762
 20
21.3050152322
 30
0.0
 10
7.0857282464
 20
21.3072652835
 30
0.0
 10
7.0849638708
 20
21.3118947194
 30
0.0
 10
7.0842214867
 20
21.3177101735
 30
0.0
 10
7.0837653987
 20
21.3223727133
 30
0.0
 10
7.0835139936
 20
21.325675257
 30
0.0
 10
7.0833583872
 20
21.3287275024
 30
0.0
 10
7.083316918
 20
21.3306702821
 30
0.0
 10
7.083316918
 20
21.3315850102
 30
0.0
  0
SPLINE
  5
397
100
AcDbEntity
  8
0
100
AcDbSpline
 62
7
  6
CONTINUOUS
 70
0
 71
3
 72
12
 73
8
 74
0
 42
0.0000001
 43
0.0000001
 44
0.0000000001
 40
0.0
 40
0.0
 40
0.0
 40
0.0
 40
0.1180827346
 40
0.2433451464
 40
0.5044204404
 40
0.7630032977
 40
1.0
 40
1.0
 40
1.0
 40
1.0
 10
7.083316918
 20
22.1590567087
 30
0.0
 10
7.083316918
 20
22.1600169199
 30
0.0
 10
7.0833470771
 20
22.1619957964
 30
0.0
 10
7.0835120839
 20
22.1660945643
 30
0.0
 10
7.0839048661
 20
22.1713260457
 30
0.0
 10
7.0846196514
 20
22.1774387676
 30
0.0
 10
7.0852633703
 20
22.1814190118
 30
0.0
 10
7.0856278817
 20
22.1833114074
 30
0.0
  0
SPLINE
  5
398
100
AcDbEntity
  8
0
100
AcDbSpline
 62
7
  6
CONTINUOUS
 70
0
 71
3
 72
19
 73
15
 74
0
 42
0.0000001
 43
0.0000001
 44
0.0000000001
 40
0.0
 40
0.0
 40
0.0
 40
0.0
 40
0.205065244
 40
0.3905154935
 40
0.5539906508
 40
0.6934256296
 40
0.7536010244
 40
0.8072606675
 40
0.8543551351
 40
0.8949032941
 40
0.9290482438
 40
0.9572050063
 40
0.9802883274
 40
1.0
 40
1.0
 40
1.0
 40
1.0
 10
7.0856278817
 20
22.1833114074
 30
0.0
 10
7.0857728299
 20
22.1840639199
 30
0.0
 10
7.0860663161
 20
22.185493705
 30
0.0
 10
7.0865438534
 20
22.1875085985
 30
0.0
 10
7.0870308208
 20
22.1892679289
 30
0.0
 10
7.087455811
 20
22.1905575254
 30
0.0
 10
7.0878014782
 20
22.191438896
 30
0.0
 10
7.0880457526
 20
22.1919887256
 30
0.0
 10
7.0882869912
 20
22.1924588574
 30
0.0
 10
7.0885243944
 20
22.1928478026
 30
0.0
 10
7.0887574581
 20
22.1931545986
 30
0.0
 10
7.0889869149
 20
22.193378685
 30
0.0
 10
7.0892146335
 20
22.1935202625
 30
0.0
 10
7.0893751602
 20
22.1935562421
 30
0.0
 10
7.0894488242
 20
22.1935563245
 30
0.0
  0
SPLINE
  5
399
100
AcDbEntity
  8
0
100
AcDbSpline
 62
7
  6
CONTINUOUS
 70
0
 71
3
 72
19
 73
15
 74
0
 42
0.0000001
 43
0.0000001
 44
0.0000000001
 40
0.0
 40
0.0
 40
0.0
 40
0.0
 40
0.0197084919
 40
0.0427902181
 40
0.0709456167
 40
0.1050890927
 40
0.1456396999
 40
0.1927391429
 40
0.2464041386
 40
0.3065830008
 40
0.4460202353
 40
0.6095007319
 40
0.7949464174
 40
1.0
 40
1.0
 40
1.0
 40
1.0
 10
7.0894488257
 20
21.4390570893
 30
0.0
 10
7.0893751297
 20
21.4390571775
 30
0.0
 10
7.0892145296
 20
21.4390932072
 30
0.0
 10
7.0889867275
 20
21.4392349062
 30
0.0
 10
7.0887571786
 20
21.4394591461
 30
0.0
 10
7.0885240082
 20
21.4397661483
 30
0.0
 10
7.0882865195
 20
21.4401553863
 30
0.0
 10
7.0880451892
 20
21.4406258783
 30
0.0
 10
7.0878008248
 20
21.4411761167
 30
0.0
 10
7.0874550321
 20
21.4420580883
 30
0.0
 10
7.0870298842
 20
21.4433485286
 30
0.0
 10
7.0865428004
 20
21.4451089677
 30
0.0
 10
7.0860651325
 20
21.4471250565
 30
0.0
 10
7.0857715887
 20
21.4485556562
 30
0.0
 10
7.0856266181
 20
21.4493085852
 30
0.0
  0
SPLINE
  5
39A
100
AcDbEntity
  8
0
100
AcDbSpline
 62
7
  6
CONTINUOUS
 70
0
 71
3
 72
12
 73
8
 74
0
 42
0.0000001
 43
0.0000001
 44
0.0000000001
 40
0.0
 40
0.0
 40
0.0
 40
0.0
 40
0.2370185012
 40
0.495601772
 40
0.756663859
 40
0.8819202982
 40
1.0
 40
1.0
 40
1.0
 40
1.0
 10
7.0856266181
 20
21.4493085852
 30
0.0
 10
7.0852623135
 20
21.4512006626
 30
0.0
 10
7.0846189292
 20
21.4551800206
 30
0.0
 10
7.0839045244
 20
21.4612911602
 30
0.0
 10
7.0835119636
 20
21.4665210606
 30
0.0
 10
7.0833470567
 20
21.4706185253
 30
0.0
 10
7.083316918
 20
21.4725967856
 30
0.0
 10
7.083316918
 20
21.4735567087
 30
0.0
  0
SPLINE
  5
39B
100
AcDbEntity
  8
0
100
AcDbSpline
 62
7
  6
CONTINUOUS
 70
0
 71
3
 72
21
 73
17
 74
0
 42
0.0000001
 43
0.0000001
 44
0.0000000001
 40
0.0
 40
0.0
 40
0.0
 40
0.0
 40
0.1748824983
 40
0.3512186245
 40
0.5194117257
 40
0.5978355487
 40
0.6711809661
 40
0.7385295864
 40
0.7991493446
 40
0.8523975427
 40
0.8977349265
 40
0.9173494979
 40
0.9349016075
 40
0.9503939779
 40
0.9638598625
 40
1.0
 40
1.0
 40
1.0
 40
1.0
 10
7.083316918
 20
21.9937271641
 30
0.0
 10
7.083316918
 20
21.9954754336
 30
0.0
 10
7.0833942906
 20
21.9989868571
 30
0.0
 10
7.0837136235
 20
22.004170691
 30
0.0
 10
7.0841446036
 20
22.0083783802
 30
0.0
 10
7.084583397
 20
22.0115470314
 30
0.0
 10
7.0849398776
 20
22.0137086035
 30
0.0
 10
7.0853268886
 20
22.0156838954
 30
0.0
 10
7.085738278
 20
22.0174486385
 30
0.0
 10
7.0861680398
 20
22.0189817322
 30
0.0
 10
7.0865528935
 20
22.0200999176
 30
0.0
 10
7.0868720687
 20
22.0208611704
 30
0.0
 10
7.0871000362
 20
22.0213349144
 30
0.0
 10
7.0873311949
 20
22.021742393
 30
0.0
 10
7.087689107
 20
22.0222687121
 30
0.0
 10
7.0881217279
 20
22.0226793015
 30
0.0
 10
7.0884830142
 20
22.0226797984
 30
0.0
  0
SPLINE
  5
39C
100
AcDbEntity
  8
0
100
AcDbSpline
 62
7
  6
CONTINUOUS
 70
0
 71
3
 72
22
 73
18
 74
0
 42
0.0000001
 43
0.0000001
 44
0.0000000001
 40
0.0
 40
0.0
 40
0.0
 40
0.0
 40
0.0083274774
 40
0.0172534959
 40
0.0272489621
 40
0.0386434971
 40
0.0663809862
 40
0.1014525726
 40
0.1440867804
 40
0.1941885728
 40
0.2515420952
 40
0.3157590243
 40
0.3862948976
 40
0.4625775751
 40
0.6297399151
 40
0.8113753099
 40
1.0
 40
1.0
 40
1.0
 40
1.0
 10
7.0874382354
 20
21.7933067097
 30
0.0
 10
7.0873717396
 20
21.7933067003
 30
0.0
 10
7.0872333459
 20
21.7933266919
 30
0.0
 10
7.0870316962
 20
21.7934134454
 30
0.0
 10
7.0868331806
 20
21.7935544352
 30
0.0
 10
7.0865537669
 20
21.7938316217
 30
0.0
 10
7.0862184226
 20
21.7943255134
 30
0.0
 10
7.0858497924
 20
21.7950838704
 30
0.0
 10
7.0854930832
 20
21.7960414129
 30
0.0
 10
7.0851518469
 20
21.7971909214
 30
0.0
 10
7.0848303152
 20
21.7985240168
 30
0.0
 10
7.0845319392
 20
21.8000290472
 30
0.0
 10
7.0842595745
 20
21.801692307
 30
0.0
 10
7.0839257289
 20
21.8041774285
 30
0.0
 10
7.0836030273
 20
21.8075577019
 30
0.0
 10
7.0833698044
 20
21.8118436551
 30
0.0
 10
7.083316918
 20
21.8148005207
 30
0.0
 10
7.083316918
 20
21.8163067087
 30
0.0
  0
SPLINE
  5
39D
100
AcDbEntity
  8
0
100
AcDbSpline
 62
7
  6
CONTINUOUS
 70
0
 71
3
 72
22
 73
18
 74
0
 42
0.0000001
 43
0.0000001
 44
0.0000000001
 40
0.0
 40
0.0
 40
0.0
 40
0.0
 40
0.1886209082
 40
0.3702563972
 40
0.5374195799
 40
0.6137025705
 40
0.6842380809
 40
0.7484554424
 40
0.8058108565
 40
0.8559128243
 40
0.8985471049
 40
0.9336205662
 40
0.9613577246
 40
0.9727515703
 40
0.982746555
 40
0.9916724758
 40
1.0
 40
1.0
 40
1.0
 40
1.0
 10
7.083316918
 20
21.8163067087
 30
0.0
 10
7.083316918
 20
21.8178128657
 30
0.0
 10
7.0833698079
 20
21.8207697002
 30
0.0
 10
7.0836030233
 20
21.8250556289
 30
0.0
 10
7.0839257276
 20
21.8284359102
 30
0.0
 10
7.0842595615
 20
21.8309210384
 30
0.0
 10
7.0845319285
 20
21.8325843002
 30
0.0
 10
7.0848303098
 20
21.8340893445
 30
0.0
 10
7.0851518276
 20
21.8354224628
 30
0.0
 10
7.0854930711
 20
21.8365719873
 30
0.0
 10
7.0858498047
 20
21.8375295373
 30
0.0
 10
7.0862184114
 20
21.8382879184
 30
0.0
 10
7.086553761
 20
21.8387818183
 30
0.0
 10
7.0868331848
 20
21.8390589782
 30
0.0
 10
7.0870317022
 20
21.8391999472
 30
0.0
 10
7.0872333486
 20
21.8392866933
 30
0.0
 10
7.0873717365
 20
21.839306702
 30
0.0
 10
7.0874382327
 20
21.8393067083
 30
0.0
  0
SPLINE
  5
39E
100
AcDbEntity
  8
0
100
AcDbSpline
 62
7
  6
CONTINUOUS
 70
0
 71
3
 72
19
 73
15
 74
0
 42
0.0000001
 43
0.0000001
 44
0.0000000001
 40
0.0
 40
0.0
 40
0.0
 40
0.0
 40
0.2079789435
 40
0.3966465461
 40
0.5621936211
 40
0.7020752927
 40
0.7619173156
 40
0.8148190991
 40
0.8607539423
 40
0.8998428649
 40
0.9323666655
 40
0.9589149187
 40
0.9806988682
 40
1.0
 40
1.0
 40
1.0
 40
1.0
 10
7.083316918
 20
21.4735567087
 30
0.0
 10
7.083316918
 20
21.4743928022
 30
0.0
 10
7.0833382058
 20
21.4759874716
 30
0.0
 10
7.0834404591
 20
21.4782457233
 30
0.0
 10
7.0836102745
 20
21.4802253333
 30
0.0
 10
7.0838129884
 20
21.4816809145
 30
0.0
 10
7.0840136085
 20
21.4826767957
 30
0.0
 10
7.0841703942
 20
21.4832954681
 30
0.0
 10
7.0843405585
 20
21.4838236872
 30
0.0
 10
7.0845231286
 20
21.484260357
 30
0.0
 10
7.0847176566
 20
21.4846051557
 30
0.0
 10
7.0849250353
 20
21.4848584554
 30
0.0
 10
7.085150349
 20
21.4850190987
 30
0.0
 10
7.0853171595
 20
21.4850564229
 30
0.0
 10
7.0853947517
 20
21.4850563359
 30
0.0
  0
SPLINE
  5
39F
100
AcDbEntity
  8
0
100
AcDbSpline
 62
7
  6
CONTINUOUS
 70
0
 71
3
 72
18
 73
14
 74
0
 42
0.0000001
 43
0.0000001
 44
0.0000000001
 40
0.0
 40
0.0
 40
0.0
 40
0.0
 40
0.2140919679
 40
0.4046382211
 40
0.5696226812
 40
0.7073151907
 40
0.8172103946
 40
0.8618787421
 40
0.8998977152
 40
0.9316365215
 40
0.9578345323
 40
0.979874875
 40
1.0
 40
1.0
 40
1.0
 40
1.0
 10
7.083316918
 20
21.3315850102
 30
0.0
 10
7.083316918
 20
21.3320904406
 30
0.0
 10
7.0833284154
 20
21.3330457959
 30
0.0
 10
7.08338597
 20
21.3343895578
 30
0.0
 10
7.0834813318
 20
21.3355505356
 30
0.0
 10
7.0836140723
 20
21.3365158997
 30
0.0
 10
7.0837612371
 20
21.3371915292
 30
0.0
 10
7.0839037339
 20
21.3376237366
 30
0.0
 10
7.084011407
 20
21.3378720291
 30
0.0
 10
7.0841274157
 20
21.3380675792
 30
0.0
 10
7.0842529155
 20
21.338210692
 30
0.0
 10
7.0843903738
 20
21.3383004705
 30
0.0
 10
7.0844909001
 20
21.3383207318
 30
0.0
 10
7.0845384117
 20
21.3383207467
 30
0.0
  0
SPLINE
  5
3A0
100
AcDbEntity
  8
0
100
AcDbSpline
 62
7
  6
CONTINUOUS
 70
0
 71
3
 72
17
 73
13
 74
0
 42
0.0000001
 43
0.0000001
 44
0.0000000001
 40
0.0
 40
0.0
 40
0.0
 40
0.0
 40
0.218177728
 40
0.4097051921
 40
0.5739193996
 40
0.7102985237
 40
0.8186228264
 40
0.8996697886
 40
0.9309295068
 40
0.9569864042
 40
0.9792702174
 40
1.0
 40
1.0
 40
1.0
 40
1.0
 10
7.083316918
 20
21.2226462944
 30
0.0
 10
7.083316918
 20
21.2228823257
 30
0.0
 10
7.083321894
 20
21.2233255849
 30
0.0
 10
7.0833474043
 20
21.2239460761
 30
0.0
 10
7.0833900895
 20
21.2244768829
 30
0.0
 10
7.0834493154
 20
21.2249157257
 30
0.0
 10
7.0835246828
 20
21.2252601929
 30
0.0
 10
7.0836059135
 20
21.22548658
 30
0.0
 10
7.0836844489
 20
21.2256147116
 30
0.0
 10
7.0837430984
 20
21.2256787801
 30
0.0
 10
7.0838077047
 20
21.2257187829
 30
0.0
 10
7.0838546958
 20
21.2257276252
 30
0.0
 10
7.0838771219
 20
21.2257276404
 30
0.0
  0
SPLINE
  5
3A1
100
AcDbEntity
  8
0
100
AcDbSpline
 62
7
  6
CONTINUOUS
 70
0
 71
3
 72
19
 73
15
 74
0
 42
0.0000001
 43
0.0000001
 44
0.0000000001
 40
0.0
 40
0.0
 40
0.0
 40
0.0
 40
0.0125262161
 40
0.0300533347
 40
0.0541285687
 40
0.0853122863
 40
0.1237756844
 40
0.1695144044
 40
0.2224632189
 40
0.2825267517
 40
0.4235336674
 40
0.5913329767
 40
0.7841258164
 40
1.0
 40
1.0
 40
1.0
 40
1.0
 10
6.9763560242
 20
21.4926601621
 30
0.0
 10
6.9763249156
 20
21.4926601965
 30
0.0
 10
6.97625168
 20
21.4926903651
 30
0.0
 10
6.9761561818
 20
21.4927861567
 30
0.0
 10
6.97605198
 20
21.492934619
 30
0.0
 10
6.9759402342
 20
21.4931390941
 30
0.0
 10
6.9758200043
 20
21.4933993682
 30
0.0
 10
6.975692009
 20
21.4937151145
 30
0.0
 10
6.9755565083
 20
21.4940854142
 30
0.0
 10
6.9753554608
 20
21.4946834316
 30
0.0
 10
6.9750915708
 20
21.4955608988
 30
0.0
 10
6.9747651755
 20
21.4967631787
 30
0.0
 10
6.9744174782
 20
21.498152036
 30
0.0
 10
6.9741860393
 20
21.4991402478
 30
0.0
 10
6.9740668696
 20
21.4996629548
 30
0.0
  0
SPLINE
  5
3A2
100
AcDbEntity
  8
0
100
AcDbSpline
 62
7
  6
CONTINUOUS
 70
0
 71
3
 72
17
 73
13
 74
0
 42
0.0000001
 43
0.0000001
 44
0.0000000001
 40
0.0
 40
0.0
 40
0.0
 40
0.0
 40
0.1179336362
 40
0.2528423876
 40
0.3975932493
 40
0.5445351873
 40
0.6857514608
 40
0.813382507
 40
0.8698237742
 40
0.920231582
 40
0.9638526851
 40
1.0
 40
1.0
 40
1.0
 40
1.0
 10
6.9740668696
 20
21.4996629548
 30
0.0
 10
6.9737425838
 20
21.5010853516
 30
0.0
 10
6.973094131
 20
21.5041455466
 30
0.0
 10
6.972166982
 20
21.5089759802
 30
0.0
 10
6.9712554623
 20
21.5141741487
 30
0.0
 10
6.9704107465
 20
21.5194626267
 30
0.0
 10
6.9696836202
 20
21.5245547174
 30
0.0
 10
6.9691941495
 20
21.5285492679
 30
0.0
 10
6.9689043639
 20
21.5314354955
 30
0.0
 10
6.9687518253
 20
21.5332907701
 30
0.0
 10
6.9686572575
 20
21.5348984634
 30
0.0
 10
6.9686301499
 20
21.5358852039
 30
0.0
 10
6.9686301499
 20
21.5363323633
 30
0.0
  0
SPLINE
  5
3A3
100
AcDbEntity
  8
0
100
AcDbSpline
 62
7
  6
CONTINUOUS
 70
0
 71
3
 72
20
 73
16
 74
0
 42
0.0000001
 43
0.0000001
 44
0.0000000001
 40
0.0
 40
0.0
 40
0.0
 40
0.0
 40
0.1995917981
 40
0.3853364767
 40
0.5516171712
 40
0.6945501498
 40
0.7562680339
 40
0.8111183384
 40
0.858902569
 40
0.8995058473
 40
0.9330610902
 40
0.9600613928
 40
0.9815874345
 40
0.9909920421
 40
1.0
 40
1.0
 40
1.0
 40
1.0
 10
7.083316918
 20
21.6388862533
 30
0.0
 10
7.083316918
 20
21.6400719603
 30
0.0
 10
7.0833517272
 20
21.6423612937
 30
0.0
 10
7.0835122431
 20
21.6456351046
 30
0.0
 10
7.083776644
 20
21.6485644168
 30
0.0
 10
7.0840860677
 20
21.650747816
 30
0.0
 10
7.0843890772
 20
21.6522597736
 30
0.0
 10
7.0846242557
 20
21.6532078102
 30
0.0
 10
7.0848764947
 20
21.6540211467
 30
0.0
 10
7.085144147
 20
21.6546953001
 30
0.0
 10
7.0854263198
 20
21.6552279606
 30
0.0
 10
7.0857212883
 20
21.6556193259
 30
0.0
 10
7.085996986
 20
21.6558372986
 30
0.0
 10
7.0862212921
 20
21.6559201857
 30
0.0
 10
7.0863311194
 20
21.6559333033
 30
0.0
 10
7.0863846326
 20
21.6559332321
 30
0.0
  0
LINE
  5
3A4
100
AcDbEntity
  8
0
100
AcDbLine
 62
7
  6
CONTINUOUS
 10
6.9686301499
 20
22.1125608135
 11
6.9688383882
 21
22.115782662
  0
SPLINE
  5
3A5
100
AcDbEntity
  8
0
100
AcDbSpline
 62
7
  6
CONTINUOUS
 70
0
 71
3
 72
15
 73
11
 74
0
 42
0.0000001
 43
0.0000001
 44
0.0000000001
 40
0.0
 40
0.0
 40
0.0
 40
0.0
 40
0.0986091086
 40
0.2196056237
 40
0.3559913273
 40
0.5001031111
 40
0.6440748246
 40
0.7801591588
 40
0.9010195544
 40
1.0
 40
1.0
 40
1.0
 40
1.0
 10
6.9688383882
 20
22.115782662
 30
0.0
 10
6.9689605539
 20
22.1170226955
 30
0.0
 10
6.9692903223
 20
22.1197784926
 30
0.0
 10
6.9699146845
 20
22.1242334016
 30
0.0
 10
6.9706907015
 20
22.1292471928
 30
0.0
 10
6.9715696367
 20
22.134538418
 30
0.0
 10
6.9724998412
 20
22.1398170004
 30
0.0
 10
6.9734291083
 20
22.1447971943
 30
0.0
 10
6.9743077164
 20
22.1492081293
 30
0.0
 10
6.9748953036
 20
22.1519235402
 30
0.0
 10
6.9751802646
 20
22.1531413744
 30
0.0
  0
SPLINE
  5
3A6
100
AcDbEntity
  8
0
100
AcDbSpline
 62
7
  6
CONTINUOUS
 70
0
 71
3
 72
17
 73
13
 74
0
 42
0.0000001
 43
0.0000001
 44
0.0000000001
 40
0.0
 40
0.0
 40
0.0
 40
0.0
 40
0.2208972255
 40
0.4160801929
 40
0.5844243093
 40
0.7248346751
 40
0.8363771715
 40
0.9187018502
 40
0.9489665239
 40
0.9721363709
 40
0.9886693344
 40
1.0
 40
1.0
 40
1.0
 40
1.0
 10
6.9751802646
 20
22.1531413744
 30
0.0
 10
6.9752566126
 20
22.1534676618
 30
0.0
 10
6.9754034345
 20
22.154081556
 30
0.0
 10
6.9756208818
 20
22.1549410861
 30
0.0
 10
6.9758211047
 20
22.1556789032
 30
0.0
 10
6.9760026169
 20
22.1562902558
 30
0.0
 10
6.9761645337
 20
22.1567708358
 30
0.0
 10
6.9762912347
 20
22.1570869685
 30
0.0
 10
6.9763859033
 20
22.1572700488
 30
0.0
 10
6.9764445346
 20
22.1573589896
 30
0.0
 10
6.9764969124
 20
22.1574163125
 30
0.0
 10
6.9765380382
 20
22.1574352414
 30
0.0
 10
6.9765552265
 20
22.1574351383
 30
0.0
  0
SPLINE
  5
3A7
100
AcDbEntity
  8
0
100
AcDbSpline
 62
7
  6
CONTINUOUS
 70
0
 71
3
 72
13
 73
9
 74
0
 42
0.0000001
 43
0.0000001
 44
0.0000000001
 40
0.0
 40
0.0
 40
0.0
 40
0.0
 40
0.1087435825
 40
0.2285817451
 40
0.3561926055
 40
0.4884055793
 40
0.7539305204
 40
1.0
 40
1.0
 40
1.0
 40
1.0
 10
6.9686301499
 20
22.0165350491
 30
0.0
 10
6.9686301499
 20
22.017517932
 30
0.0
 10
6.9686724373
 20
22.0195840348
 30
0.0
 10
6.9688343704
 20
22.0227997762
 30
0.0
 10
6.9690959902
 20
22.0262217392
 30
0.0
 10
6.9695658391
 20
22.0309471581
 30
0.0
 10
6.9703241177
 20
22.0367182317
 30
0.0
 10
6.9711123278
 20
22.0412765557
 30
0.0
 10
6.9715509029
 20
22.0434569934
 30
0.0
  0
SPLINE
  5
3A8
100
AcDbEntity
  8
0
100
AcDbSpline
 62
7
  6
CONTINUOUS
 70
0
 71
3
 72
19
 73
15
 74
0
 42
0.0000001
 43
0.0000001
 44
0.0000000001
 40
0.0
 40
0.0
 40
0.0
 40
0.0
 40
0.2064333483
 40
0.3936654193
 40
0.5588807071
 40
0.699723658
 40
0.7604387142
 40
0.8144080239
 40
0.8614827231
 40
0.9016483318
 40
0.9350107234
 40
0.9618718004
 40
0.9829663795
 40
1.0
 40
1.0
 40
1.0
 40
1.0
 10
6.9715509029
 20
22.0434569934
 30
0.0
 10
6.9717102098
 20
22.0442490103
 30
0.0
 10
6.972029584
 20
22.0457563129
 30
0.0
 10
6.972536129
 20
22.0478843304
 30
0.0
 10
6.9730412445
 20
22.049747913
 30
0.0
 10
6.9734725906
 20
22.0511176609
 30
0.0
 10
6.973816569
 20
22.0520568373
 30
0.0
 10
6.9740564367
 20
22.0526428791
 30
0.0
 10
6.9742903042
 20
22.0531438924
 30
0.0
 10
6.9745172586
 20
22.0535582018
 30
0.0
 10
6.9747364257
 20
22.0538851922
 30
0.0
 10
6.9749482878
 20
22.0541244358
 30
0.0
 10
6.975154749
 20
22.0542778716
 30
0.0
 10
6.9753042063
 20
22.0543189765
 30
0.0
 10
6.9753708673
 20
22.0543188064
 30
0.0
  0
SPLINE
  5
3A9
100
AcDbEntity
  8
0
100
AcDbSpline
 62
7
  6
CONTINUOUS
 70
0
 71
3
 72
21
 73
17
 74
0
 42
0.0000001
 43
0.0000001
 44
0.0000000001
 40
0.0
 40
0.0
 40
0.0
 40
0.0
 40
0.0361427819
 40
0.0496081033
 40
0.0651005448
 40
0.0826534626
 40
0.1022690525
 40
0.1476067924
 40
0.2008535406
 40
0.2614731042
 40
0.3288203189
 40
0.4021646498
 40
0.4805884312
 40
0.6487803148
 40
0.8251152422
 40
1.0
 40
1.0
 40
1.0
 40
1.0
 10
7.0884830177
 20
21.6099335942
 30
0.0
 10
7.0881217049
 20
21.6099340842
 30
0.0
 10
7.0876891134
 20
21.6103447643
 30
0.0
 10
7.0873311513
 20
21.6108710692
 30
0.0
 10
7.0870999959
 20
21.6112785558
 30
0.0
 10
7.0868720318
 20
21.6117523221
 30
0.0
 10
7.0865528687
 20
21.612513604
 30
0.0
 10
7.086168017
 20
21.6136317886
 30
0.0
 10
7.0857382496
 20
21.6151648682
 30
0.0
 10
7.0853268863
 20
21.6169295865
 30
0.0
 10
7.0849398702
 20
21.6189048503
 30
0.0
 10
7.0845833924
 20
21.621066398
 30
0.0
 10
7.0841446078
 20
21.6242350274
 30
0.0
 10
7.0837136192
 20
21.6284426919
 30
0.0
 10
7.0833942873
 20
21.6336265258
 30
0.0
 10
7.083316918
 20
21.6371379608
 30
0.0
 10
7.083316918
 20
21.6388862533
 30
0.0
  0
SPLINE
  5
3AA
100
AcDbEntity
  8
0
100
AcDbSpline
 62
7
  6
CONTINUOUS
 70
0
 71
3
 72
22
 73
18
 74
0
 42
0.0000001
 43
0.0000001
 44
0.0000000001
 40
0.0
 40
0.0
 40
0.0
 40
0.0
 40
0.1815574209
 40
0.3604233454
 40
0.5280276067
 40
0.6053551887
 40
0.6772911649
 40
0.7430759649
 40
0.8020535949
 40
0.8537496907
 40
0.8977575484
 40
0.9338584384
 40
0.9621929788
 40
0.9736505132
 40
0.9835181428
 40
0.9921301942
 40
1.0
 40
1.0
 40
1.0
 40
1.0
 10
6.9686301499
 20
21.8596591297
 30
0.0
 10
6.9686301499
 20
21.8613075274
 30
0.0
 10
6.9686977787
 20
21.8645802476
 30
0.0
 10
6.968985715
 20
21.8693668113
 30
0.0
 10
6.9693773452
 20
21.8731960922
 30
0.0
 10
6.9697774106
 20
21.8760453411
 30
0.0
 10
6.9701019515
 20
21.8779709392
 30
0.0
 10
6.970454538
 20
21.879722007
 30
0.0
 10
6.9708308965
 20
21.8812797982
 30
0.0
 10
6.9712252903
 20
21.8826282678
 30
0.0
 10
6.9716326536
 20
21.8837548812
 30
0.0
 10
6.972048552
 20
21.8846485153
 30
0.0
 10
6.9724207543
 20
21.8852337824
 30
0.0
 10
6.9727289889
 20
21.885564726
 30
0.0
 10
6.9729451315
 20
21.8857321599
 30
0.0
 10
6.9731635102
 20
21.8858354567
 30
0.0
 10
6.9733138875
 20
21.8858595983
 30
0.0
 10
6.9733853391
 20
21.8858595645
 30
0.0
  0
SPLINE
  5
3AB
100
AcDbEntity
  8
0
100
AcDbSpline
 62
7
  6
CONTINUOUS
 70
0
 71
3
 72
17
 73
13
 74
0
 42
0.0000001
 43
0.0000001
 44
0.0000000001
 40
0.0
 40
0.0
 40
0.0
 40
0.0
 40
0.2183398046
 40
0.4094680637
 40
0.5730035619
 40
0.708716432
 40
0.8166932356
 40
0.89780118
 40
0.9292452567
 40
0.9556553323
 40
0.9785071673
 40
1.0
 40
1.0
 40
1.0
 40
1.0
 10
6.9686301499
 20
21.5363323633
 30
0.0
 10
6.9686301499
 20
21.5365113749
 30
0.0
 10
6.9686340151
 20
21.5368471103
 30
0.0
 10
6.9686539309
 20
21.5373165869
 30
0.0
 10
6.9686872805
 20
21.5377173557
 30
0.0
 10
6.968733623
 20
21.5380483601
 30
0.0
 10
6.9687925905
 20
21.5383082135
 30
0.0
 10
6.9688561618
 20
21.5384790591
 30
0.0
 10
6.9689177498
 20
21.5385754835
 30
0.0
 10
6.9689639276
 20
21.5386236975
 30
0.0
 10
6.9690147537
 20
21.5386535835
 30
0.0
 10
6.9690514666
 20
21.5386600633
 30
0.0
 10
6.9690690881
 20
21.5386600457
 30
0.0
  0
SPLINE
  5
3AC
100
AcDbEntity
  8
0
100
AcDbSpline
 62
7
  6
CONTINUOUS
 70
0
 71
3
 72
19
 73
15
 74
0
 42
0.0000001
 43
0.0000001
 44
0.0000000001
 40
0.0
 40
0.0
 40
0.0
 40
0.0
 40
0.2085833543
 40
0.3972570546
 40
0.562474714
 40
0.7018388737
 40
0.7614255515
 40
0.8141145293
 40
0.8598833615
 40
0.8988790123
 40
0.9314204698
 40
0.9581362258
 40
0.9802542023
 40
1.0
 40
1.0
 40
1.0
 40
1.0
 10
6.9686301499
 20
21.6512368579
 30
0.0
 10
6.9686301499
 20
21.6520269523
 30
0.0
 10
6.9686507372
 20
21.6535318422
 30
0.0
 10
6.9687499774
 20
21.6556606309
 30
0.0
 10
6.9689145954
 20
21.6575223476
 30
0.0
 10
6.9691112502
 20
21.6588889229
 30
0.0
 10
6.9693056659
 20
21.6598223896
 30
0.0
 10
6.9694574068
 20
21.6604018342
 30
0.0
 10
6.9696220958
 20
21.6608962669
 30
0.0
 10
6.9697988104
 20
21.6613047648
 30
0.0
 10
6.9699871117
 20
21.6616272356
 30
0.0
 10
6.9701878929
 20
21.6618640398
 30
0.0
 10
6.9704054522
 20
21.6620140468
 30
0.0
 10
6.9705656054
 20
21.6620486077
 30
0.0
 10
6.9706404006
 20
21.6620485046
 30
0.0
  0
SPLINE
  5
3AD
100
AcDbEntity
  8
0
100
AcDbSpline
 62
7
  6
CONTINUOUS
 70
0
 71
3
 72
20
 73
16
 74
0
 42
0.0000001
 43
0.0000001
 44
0.0000000001
 40
0.0
 40
0.0
 40
0.0
 40
0.0
 40
0.0090078538
 40
0.0184118995
 40
0.0399372282
 40
0.0669378799
 40
0.1004930505
 40
0.1410942847
 40
0.1888777234
 40
0.2437284254
 40
0.3054465652
 40
0.4483782555
 40
0.6146581997
 40
0.8004035665
 40
1.0
 40
1.0
 40
1.0
 40
1.0
 10
7.0863846382
 20
21.9766802081
 30
0.0
 10
7.0863311256
 20
21.9766801363
 30
0.0
 10
7.0862213029
 20
21.9766932452
 30
0.0
 10
7.0859969877
 20
21.9767760866
 30
0.0
 10
7.0857212926
 20
21.9769940664
 30
0.0
 10
7.0854263393
 20
21.9773854362
 30
0.0
 10
7.0851441736
 20
21.9779180887
 30
0.0
 10
7.0848765041
 20
21.9785922165
 30
0.0
 10
7.0846242691
 20
21.9794055403
 30
0.0
 10
7.0843890928
 20
21.9803535767
 30
0.0
 10
7.0840860807
 20
21.9818655305
 30
0.0
 10
7.0837766447
 20
21.9840489182
 30
0.0
 10
7.0835122467
 20
21.986978224
 30
0.0
 10
7.0833517245
 20
21.990252063
 30
0.0
 10
7.083316918
 20
21.9925414291
 30
0.0
 10
7.083316918
 20
21.9937271641
 30
0.0
  0
SPLINE
  5
3AE
100
AcDbEntity
  8
0
100
AcDbSpline
 62
7
  6
CONTINUOUS
 70
0
 71
3
 72
15
 73
11
 74
0
 42
0.0000001
 43
0.0000001
 44
0.0000000001
 40
0.0
 40
0.0
 40
0.0
 40
0.0
 40
0.1280800447
 40
0.2535551778
 40
0.3772291435
 40
0.4999946153
 40
0.6227597684
 40
0.7464355127
 40
0.8719164905
 40
1.0
 40
1.0
 40
1.0
 40
1.0
 10
10.1626712549
 20
15.695811799
 30
0.0
 10
10.1596624195
 20
15.6883771343
 30
0.0
 10
10.1543528732
 20
15.6733857654
 30
0.0
 10
10.1485769977
 20
15.650444986
 30
0.0
 10
10.1451030263
 20
15.6273776269
 30
0.0
 10
10.1439437577
 20
15.6042484842
 30
0.0
 10
10.1451016915
 20
15.5811191675
 30
0.0
 10
10.1485747478
 20
15.5580511591
 30
0.0
 10
10.1543518935
 20
15.5351099275
 30
0.0
 10
10.1596623381
 20
15.5201182945
 30
0.0
 10
10.1626712549
 20
15.5126834287
 30
0.0
  0
SPLINE
  5
3AF
100
AcDbEntity
  8
0
100
AcDbSpline
 62
7
  6
CONTINUOUS
 70
0
 71
3
 72
15
 73
11
 74
0
 42
0.0000001
 43
0.0000001
 44
0.0000000001
 40
0.0
 40
0.0
 40
0.0
 40
0.0
 40
0.1280835096
 40
0.2535644873
 40
0.3772402316
 40
0.5000053847
 40
0.6227708565
 40
0.7464448222
 40
0.8719199553
 40
1.0
 40
1.0
 40
1.0
 40
1.0
 10
10.1626712549
 20
14.8159299887
 30
0.0
 10
10.1596623381
 20
14.8084951229
 30
0.0
 10
10.1543518935
 20
14.79350349
 30
0.0
 10
10.1485747478
 20
14.7705622583
 30
0.0
 10
10.1451016915
 20
14.74749425
 30
0.0
 10
10.1439437577
 20
14.7243649332
 30
0.0
 10
10.1451030263
 20
14.7012357905
 30
0.0
 10
10.1485769977
 20
14.6781684314
 30
0.0
 10
10.1543528732
 20
14.655227652
 30
0.0
 10
10.1596624195
 20
14.6402362831
 30
0.0
 10
10.1626712549
 20
14.6328016185
 30
0.0
  0
LINE
  5
3B0
100
AcDbEntity
  8
0
100
AcDbLine
 62
7
  6
CONTINUOUS
 10
10.9312423642
 20
14.995996649
 11
10.9293773911
 21
14.9962511771
  0
SPLINE
  5
3B1
100
AcDbEntity
  8
0
100
AcDbSpline
 62
7
  6
CONTINUOUS
 70
0
 71
3
 72
28
 73
24
 74
0
 42
0.0000001
 43
0.0000001
 44
0.0000000001
 40
0.0
 40
0.0
 40
0.0
 40
0.0
 40
0.2102586988
 40
0.3076927318
 40
0.3996236342
 40
0.4857720146
 40
0.5658587997
 40
0.6396166352
 40
0.7068844861
 40
0.7675599631
 40
0.8215424565
 40
0.8687332711
 40
0.9090369985
 40
0.9265782789
 40
0.9423652085
 40
0.95638876
 40
0.9686417272
 40
0.9791199879
 40
0.9878250678
 40
0.9915166096
 40
0.9947715242
 40
0.9975958903
 40
1.0
 40
1.0
 40
1.0
 40
1.0
 10
10.9293773911
 20
14.9962511771
 30
0.0
 10
10.9201853124
 20
14.9975046742
 30
0.0
 10
10.9067306819
 20
14.9993177466
 30
0.0
 10
10.8892480914
 20
15.0016116053
 30
0.0
 10
10.8771908176
 20
15.0031606435
 30
0.0
 10
10.8658881368
 20
15.0045761431
 30
0.0
 10
10.8553761193
 20
15.0058518124
 30
0.0
 10
10.8456856866
 20
15.0069817865
 30
0.0
 10
10.8368402219
 20
15.0079621956
 30
0.0
 10
10.8288559683
 20
15.0087905732
 30
0.0
 10
10.8217465629
 20
15.0094648713
 30
0.0
 10
10.8155256208
 20
15.0099829412
 30
0.0
 10
10.8109014911
 20
15.0102968054
 30
0.0
 10
10.8076567042
 20
15.0104604329
 30
0.0
 10
10.8055687296
 20
15.0105366798
 30
0.0
 10
10.8037130134
 20
15.0105722197
 30
0.0
 10
10.8020911087
 20
15.0105670088
 30
0.0
 10
10.8007046107
 20
15.0105209125
 30
0.0
 10
10.7996975709
 20
15.0104455583
 30
0.0
 10
10.7990122286
 20
15.010359464
 30
0.0
 10
10.7985869012
 20
15.0102880262
 30
0.0
 10
10.7982214433
 20
15.0102062329
 30
0.0
 10
10.7980002073
 20
15.0101395701
 30
0.0
 10
10.7979005123
 20
15.0101033358
 30
0.0
  0
SPLINE
  5
3B2
100
AcDbEntity
  8
0
100
AcDbSpline
 62
7
  6
CONTINUOUS
 70
0
 71
3
 72
37
 73
33
 74
0
 42
0.0000001
 43
0.0000001
 44
0.0000000001
 40
0.0
 40
0.0
 40
0.0
 40
0.0
 40
0.0990710583
 40
0.1966425297
 40
0.2918823288
 40
0.3839552026
 40
0.4720546608
 40
0.5554186304
 40
0.6333297005
 40
0.7051210627
 40
0.7701804807
 40
0.8000127117
 40
0.8279603194
 40
0.8539672693
 40
0.8779786268
 40
0.8999437591
 40
0.9198201916
 40
0.9375665612
 40
0.9531465453
 40
0.9665324241
 40
0.9723943771
 40
0.9776981542
 40
0.9824418098
 40
0.986624245
 40
0.9902446707
 40
0.9933028176
 40
0.995799408
 40
0.9977374148
 40
0.9984997629
 40
0.9991272107
 40
0.9996242367
 40
1.0
 40
1.0
 40
1.0
 40
1.0
 10
11.1382651945
 20
14.9923148727
 30
0.0
 10
11.1264176979
 20
14.9941882301
 30
0.0
 10
11.1029019516
 20
14.997906069
 30
0.0
 10
11.0679949557
 20
15.0034126818
 30
0.0
 10
11.0339227573
 20
15.0087737252
 30
0.0
 10
11.0009801609
 20
15.0139358178
 30
0.0
 10
10.9694537707
 20
15.018847908
 30
0.0
 10
10.9396162518
 20
15.0234620363
 30
0.0
 10
10.9117235868
 20
15.0277328656
 30
0.0
 10
10.8860139465
 20
15.0316183031
 30
0.0
 10
10.8660523033
 20
15.0345830996
 30
0.0
 10
10.8513355755
 20
15.0367289926
 30
0.0
 10
10.8412945478
 20
15.0381721663
 30
0.0
 10
10.8319478946
 20
15.039492642
 30
0.0
 10
10.8233149575
 20
15.0406870034
 30
0.0
 10
10.8154134856
 20
15.041752132
 30
0.0
 10
10.8082596605
 20
15.0426853159
 30
0.0
 10
10.8018679963
 20
15.0434841428
 30
0.0
 10
10.79625133
 20
15.0441464
 30
0.0
 10
10.7920592131
 20
15.0446016335
 30
0.0
 10
10.7891009265
 20
15.044892259
 30
0.0
 10
10.787182491
 20
15.0450650488
 30
0.0
 10
10.7854651137
 20
15.0452024683
 30
0.0
 10
10.7839494604
 20
15.0453045025
 30
0.0
 10
10.7826361293
 20
15.045371153
 30
0.0
 10
10.7815255551
 20
15.0454027369
 30
0.0
 10
10.7806183005
 20
15.0453992271
 30
0.0
 10
10.7799893158
 20
15.0453666002
 30
0.0
 10
10.7795892914
 20
15.0453173235
 30
0.0
 10
10.7793645483
 20
15.0452746546
 30
0.0
 10
10.7791900379
 20
15.0452236492
 30
0.0
 10
10.7790934653
 20
15.0451779541
 30
0.0
 10
10.7790561735
 20
15.0451518956
 30
0.0
  0
SPLINE
  5
3B3
100
AcDbEntity
  8
0
100
AcDbSpline
 62
7
  6
CONTINUOUS
 70
0
 71
3
 72
11
 73
7
 74
0
 42
0.0000001
 43
0.0000001
 44
0.0000000001
 40
0.0
 40
0.0
 40
0.0
 40
0.0
 40
0.2670423548
 40
0.5245990462
 40
0.7697499571
 40
1.0
 40
1.0
 40
1.0
 40
1.0
 10
11.0842292472
 20
14.9923078042
 30
0.0
 10
11.0720751199
 20
14.9940711409
 30
0.0
 10
11.048197306
 20
14.9975263113
 30
0.0
 10
11.0131552873
 20
15.0025556475
 30
0.0
 10
10.9797802848
 20
15.0072891758
 30
0.0
 10
10.9581262705
 20
15.0103113332
 30
0.0
 10
10.9476364322
 20
15.0117591618
 30
0.0
  0
SPLINE
  5
3B4
100
AcDbEntity
  8
0
100
AcDbSpline
 62
7
  6
CONTINUOUS
 70
0
 71
3
 72
32
 73
28
 74
0
 42
0.0000001
 43
0.0000001
 44
0.0000000001
 40
0.0
 40
0.0
 40
0.0
 40
0.0
 40
0.2238166412
 40
0.3264131788
 40
0.4224080563
 40
0.5115069949
 40
0.5934763362
 40
0.6681956487
 40
0.7355578266
 40
0.7954572228
 40
0.8477905382
 40
0.8710889027
 40
0.8924590643
 40
0.9118898476
 40
0.9293710027
 40
0.9448936862
 40
0.9584512973
 40
0.9700410333
 40
0.9796670507
 40
0.9837492349
 40
0.9873495515
 40
0.990475754
 40
0.9931407384
 40
0.995366637
 40
0.9971930959
 40
0.998693598
 40
1.0
 40
1.0
 40
1.0
 40
1.0
 10
10.9081511723
 20
15.0171167537
 30
0.0
 10
10.9001183514
 20
15.0181842981
 30
0.0
 10
10.8884002514
 20
15.0197184284
 30
0.0
 10
10.8732274807
 20
15.0216372281
 30
0.0
 10
10.8628893282
 20
15.0229088641
 30
0.0
 10
10.8532876613
 20
15.0240501025
 30
0.0
 10
10.8444457934
 20
15.0250565675
 30
0.0
 10
10.8363805122
 20
15.0259257724
 30
0.0
 10
10.8291040849
 20
15.0266557804
 30
0.0
 10
10.8226283369
 20
15.0272446734
 30
0.0
 10
10.8177363258
 20
15.0276304077
 30
0.0
 10
10.8142318799
 20
15.0278616854
 30
0.0
 10
10.8119147107
 20
15.0279916039
 30
0.0
 10
10.8098065599
 20
15.0280847068
 30
0.0
 10
10.8079088693
 20
15.0281408084
 30
0.0
 10
10.8062230732
 20
15.0281597664
 30
0.0
 10
10.8047504972
 20
15.0281415943
 30
0.0
 10
10.803492504
 20
15.0280861816
 30
0.0
 10
10.8025795434
 20
15.0280058319
 30
0.0
 10
10.8019589329
 20
15.0279178297
 30
0.0
 10
10.8015740894
 20
15.0278459719
 30
0.0
 10
10.8012436794
 20
15.0277646738
 30
0.0
 10
10.8009675827
 20
15.0276738835
 30
0.0
 10
10.8007453723
 20
15.0275734382
 30
0.0
 10
10.8005763532
 20
15.0274624348
 30
0.0
 10
10.8004599328
 20
15.0273384874
 30
0.0
 10
10.8004197421
 20
15.027241752
 30
0.0
 10
10.8004114765
 20
15.0271951805
 30
0.0
  0
SPLINE
  5
3B5
100
AcDbEntity
  8
0
100
AcDbSpline
 62
7
  6
CONTINUOUS
 70
0
 71
3
 72
21
 73
17
 74
0
 42
0.0000001
 43
0.0000001
 44
0.0000000001
 40
0.0
 40
0.0
 40
0.0
 40
0.0
 40
0.0077156176
 40
0.016869877
 40
0.0275048016
 40
0.0396451258
 40
0.0684957542
 40
0.1034945911
 40
0.1446689055
 40
0.1920266732
 40
0.2455647898
 40
0.3052628587
 40
0.4430019217
 40
0.6049531525
 40
0.7907731807
 40
1.0
 40
1.0
 40
1.0
 40
1.0
 10
10.7558698409
 20
14.9948341115
 30
0.0
 10
10.7559652879
 20
14.9948696579
 30
0.0
 10
10.7561787065
 20
14.9949346778
 30
0.0
 10
10.7565333266
 20
14.9950135341
 30
0.0
 10
10.7569494438
 20
14.9950817611
 30
0.0
 10
10.7576262146
 20
14.9951631267
 30
0.0
 10
10.7586275785
 20
14.9952314272
 30
0.0
 10
10.7600136901
 20
14.9952679567
 30
0.0
 10
10.7616445688
 20
14.9952619713
 30
0.0
 10
10.7635194695
 20
14.9952134565
 30
0.0
 10
10.7656375389
 20
14.9951222813
 30
0.0
 10
10.7689453399
 20
14.994934654
 30
0.0
 10
10.7736769527
 20
14.9945855439
 30
0.0
 10
10.7800610912
 20
14.9940193324
 30
0.0
 10
10.7873775905
 20
14.9932889744
 30
0.0
 10
10.7925622055
 20
14.9927274679
 30
0.0
 10
10.7953071372
 20
14.9924214897
 30
0.0
  0
SPLINE
  5
3B6
100
AcDbEntity
  8
0
100
AcDbSpline
 62
7
  6
CONTINUOUS
 70
0
 71
3
 72
40
 73
36
 74
0
 42
0.0000001
 43
0.0000001
 44
0.0000000001
 40
0.0
 40
0.0
 40
0.0
 40
0.0
 40
0.0978468587
 40
0.194740546
 40
0.2897685227
 40
0.3820300741
 40
0.470624593
 40
0.5546560049
 40
0.63332785
 40
0.7059422186
 40
0.7718057718
 40
0.8019895205
 40
0.8302261578
 40
0.8564449888
 40
0.8805989949
 40
0.902643302
 40
0.9225332721
 40
0.9402246308
 40
0.9556736943
 40
0.9625440348
 40
0.9688379441
 40
0.9745504088
 40
0.9796766592
 40
0.9842123406
 40
0.9881559831
 40
0.9915105874
 40
0.9942812348
 40
0.9954502686
 40
0.9964771652
 40
0.9973644513
 40
0.9981160268
 40
0.9987383044
 40
0.9992425994
 40
0.999650108
 40
1.0
 40
1.0
 40
1.0
 40
1.0
 10
8.4336712376
 20
15.700026838
 30
0.0
 10
8.4203909507
 20
15.6996554231
 30
0.0
 10
8.3939597471
 20
15.6989161821
 30
0.0
 10
8.3546311528
 20
15.6978054207
 30
0.0
 10
8.3160612208
 20
15.6966949171
 30
0.0
 10
8.2786185993
 20
15.6955848941
 30
0.0
 10
8.2426697259
 20
15.6944756569
 30
0.0
 10
8.2085669464
 20
15.6933667555
 30
0.0
 10
8.1766351144
 20
15.6922584372
 30
0.0
 10
8.1471716195
 20
15.6911517987
 30
0.0
 10
8.1242904625
 20
15.690206344
 30
0.0
 10
8.1074326809
 20
15.6894423912
 30
0.0
 10
8.0959539473
 20
15.6888864015
 30
0.0
 10
8.085294944
 20
15.6883305096
 30
0.0
 10
8.0754779314
 20
15.6877750364
 30
0.0
 10
8.0665217014
 20
15.6872201112
 30
0.0
 10
8.0584447422
 20
15.6866659818
 30
0.0
 10
8.051265551
 20
15.6861128358
 30
0.0
 10
8.0458537025
 20
15.6856365122
 30
0.0
 10
8.0419878047
 20
15.6852506238
 30
0.0
 10
8.039439809
 20
15.6849728619
 30
0.0
 10
8.0371301218
 20
15.6846953896
 30
0.0
 10
8.0350610021
 20
15.6844182964
 30
0.0
 10
8.0332343846
 20
15.6841416411
 30
0.0
 10
8.0316512855
 20
15.6838655915
 30
0.0
 10
8.0303119204
 20
15.6835903806
 30
0.0
 10
8.0293503669
 20
15.6833507845
 30
0.0
 10
8.0287049863
 20
15.6831547303
 30
0.0
 10
8.02830973
 20
15.683016324
 30
0.0
 10
8.0279749249
 20
15.6828781685
 30
0.0
 10
8.0277002342
 20
15.6827402141
 30
0.0
 10
8.0274849642
 20
15.6826022575
 30
0.0
 10
8.0273282386
 20
15.6824632652
 30
0.0
 10
8.0272291959
 20
15.682320396
 30
0.0
 10
8.0272054434
 20
15.682216663
 30
0.0
 10
8.0272058716
 20
15.6821691572
 30
0.0
  0
LINE
  5
3B7
100
AcDbEntity
  8
0
100
AcDbLine
 62
7
  6
CONTINUOUS
 10
8.4336712549
 20
15.7089560016
 11
8.6321605618
 21
15.7147554568
  0
SPLINE
  5
3B8
100
AcDbEntity
  8
0
100
AcDbSpline
 62
7
  6
CONTINUOUS
 70
0
 71
3
 72
35
 73
31
 74
0
 42
0.0000001
 43
0.0000001
 44
0.0000000001
 40
0.0
 40
0.0
 40
0.0
 40
0.0
 40
0.216380087
 40
0.3171162689
 40
0.4122907785
 40
0.5014815666
 40
0.5843048762
 40
0.6603899474
 40
0.7294111489
 40
0.7910642
 40
0.8450824929
 40
0.869157474
 40
0.8912391056
 40
0.9113038415
 40
0.9293342887
 40
0.945314203
 40
0.9592284799
 40
0.9710647952
 40
0.9762028226
 40
0.9808214332
 40
0.984921967
 40
0.9885067986
 40
0.9915800286
 40
0.9941488447
 40
0.9962264654
 40
0.9978392637
 40
0.9984890823
 40
0.9990503658
 40
0.999543948
 40
1.0
 40
1.0
 40
1.0
 40
1.0
 10
8.6321605618
 20
15.7147554568
 30
0.0
 10
8.6472122952
 20
15.715237843
 30
0.0
 10
8.6692706466
 20
15.7159689964
 30
0.0
 10
8.6979466255
 20
15.7169948859
 30
0.0
 10
8.7177747226
 20
15.7177454933
 30
0.0
 10
8.7363552003
 20
15.7184957415
 30
0.0
 10
8.7536059779
 20
15.7192453415
 30
0.0
 10
8.7694516055
 20
15.7199943518
 30
0.0
 10
8.7838221113
 20
15.7207422665
 30
0.0
 10
8.7966545919
 20
15.7214889223
 30
0.0
 10
8.8063594664
 20
15.7221316302
 30
0.0
 10
8.813311938
 20
15.7226522991
 30
0.0
 10
8.8179055152
 20
15.7230273896
 30
0.0
 10
8.8220769139
 20
15.7234021389
 30
0.0
 10
8.8258218108
 20
15.7237764107
 30
0.0
 10
8.8291363734
 20
15.7241499587
 30
0.0
 10
8.8320168378
 20
15.7245226121
 30
0.0
 10
8.8341425549
 20
15.7248452876
 30
0.0
 10
8.8356223368
 20
15.7251078018
 30
0.0
 10
8.8365684807
 20
15.7252950792
 30
0.0
 10
8.8374042458
 20
15.7254820659
 30
0.0
 10
8.8381295677
 20
15.7256686872
 30
0.0
 10
8.8387443898
 20
15.7258547984
 30
0.0
 10
8.8392492156
 20
15.7260402451
 30
0.0
 10
8.8396442391
 20
15.7262249169
 30
0.0
 10
8.8399005533
 20
15.7263886181
 30
0.0
 10
8.8400439997
 20
15.7265238841
 30
0.0
 10
8.840116282
 20
15.7266188612
 30
0.0
 10
8.8401607538
 20
15.7267152881
 30
0.0
 10
8.8401709664
 20
15.7267817217
 30
0.0
 10
8.840170939
 20
15.7268134616
 30
0.0
  0
SPLINE
  5
3B9
100
AcDbEntity
  8
0
100
AcDbSpline
 62
7
  6
CONTINUOUS
 70
0
 71
3
 72
27
 73
23
 74
0
 42
0.0000001
 43
0.0000001
 44
0.0000000001
 40
0.0
 40
0.0
 40
0.0
 40
0.0
 40
0.2253494316
 40
0.4243284124
 40
0.595593876
 40
0.6704173352
 40
0.7378139771
 40
0.7976207523
 40
0.8496790279
 40
0.893892538
 40
0.913055069
 40
0.9302561247
 40
0.9454989648
 40
0.9587896761
 40
0.9701391132
 40
0.9795668
 40
0.9871096573
 40
0.9928443804
 40
0.9950882886
 40
0.9969694398
 40
0.9985651358
 40
1.0
 40
1.0
 40
1.0
 40
1.0
 10
8.1537948294
 20
15.7393067087
 30
0.0
 10
8.1471389639
 20
15.7389897071
 30
0.0
 10
8.1346074361
 20
15.7383637821
 30
0.0
 10
8.1170240506
 20
15.7373711175
 30
0.0
 10
8.1038913726
 20
15.736513933
 30
0.0
 10
8.0946480617
 20
15.735816167
 30
0.0
 10
8.0886950593
 20
15.735317397
 30
0.0
 10
8.0834177026
 20
15.7348197834
 30
0.0
 10
8.0788292049
 20
15.7343232735
 30
0.0
 10
8.0754427795
 20
15.7338929976
 30
0.0
 10
8.0730859564
 20
15.7335428636
 30
0.0
 10
8.0715804574
 20
15.7332932381
 30
0.0
 10
8.0702511614
 20
15.7330440311
 30
0.0
 10
8.0690981472
 20
15.7327953797
 30
0.0
 10
8.0681215351
 20
15.7325474951
 30
0.0
 10
8.0673205677
 20
15.7323008165
 30
0.0
 10
8.0666951828
 20
15.732055501
 30
0.0
 10
8.0662878759
 20
15.7318380981
 30
0.0
 10
8.0660585975
 20
15.7316565841
 30
0.0
 10
8.0659443008
 20
15.7315304354
 30
0.0
 10
8.065873609
 20
15.7314015012
 30
0.0
 10
8.0658577681
 20
15.7313111025
 30
0.0
 10
8.0658583265
 20
15.7312686783
 30
0.0
  0
SPLINE
  5
3BA
100
AcDbEntity
  8
0
100
AcDbSpline
 62
7
  6
CONTINUOUS
 70
0
 71
3
 72
37
 73
33
 74
0
 42
0.0000001
 43
0.0000001
 44
0.0000000001
 40
0.0
 40
0.0
 40
0.0
 40
0.0
 40
0.0677600874
 40
0.1417827315
 40
0.2206111792
 40
0.302782077
 40
0.3867332097
 40
0.4708231859
 40
0.553408535
 40
0.6328953807
 40
0.7078105173
 40
0.74309904
 40
0.7766991083
 40
0.8084303564
 40
0.8381431567
 40
0.8657180294
 40
0.8910368866
 40
0.9139818385
 40
0.9344353093
 40
0.9522802489
 40
0.960188315
 40
0.9674053007
 40
0.9739276593
 40
0.9797525555
 40
0.9848774783
 40
0.9893004512
 40
0.9930204418
 40
0.9960382525
 40
0.9972852973
 40
0.9983593133
 40
0.9992627303
 40
1.0
 40
1.0
 40
1.0
 40
1.0
 10
8.6724282085
 20
15.7393067087
 30
0.0
 10
8.6587339774
 20
15.7387503517
 30
0.0
 10
8.6300769399
 20
15.7376580337
 30
0.0
 10
8.5854821638
 20
15.7360976649
 30
0.0
 10
8.5379710149
 20
15.7345342446
 30
0.0
 10
8.4884506776
 20
15.7329699719
 30
0.0
 10
8.4378656067
 20
15.731405498
 30
0.0
 10
8.3871966715
 20
15.7298409087
 30
0.0
 10
8.3374311234
 20
15.7282767962
 30
0.0
 10
8.2895222629
 20
15.7267129803
 30
0.0
 10
8.2511772876
 20
15.7253871431
 30
0.0
 10
8.2221104665
 20
15.7243161353
 30
0.0
 10
8.2017737434
 20
15.72352937
 30
0.0
 10
8.1825656788
 20
15.7227427235
 30
0.0
 10
8.1645773819
 20
15.7219561948
 30
0.0
 10
8.1478873815
 20
15.721170369
 30
0.0
 10
8.132567876
 20
15.7203854382
 30
0.0
 10
8.1186907608
 20
15.7196018476
 30
0.0
 10
8.1063279406
 20
15.7188199362
 30
0.0
 10
8.0970060427
 20
15.718146515
 30
0.0
 10
8.0903597365
 20
15.7175999035
 30
0.0
 10
8.0859988424
 20
15.717206769
 30
0.0
 10
8.082061133
 20
15.7168140792
 30
0.0
 10
8.0785488273
 20
15.7164219659
 30
0.0
 10
8.0754640314
 20
15.7160306286
 30
0.0
 10
8.0728086162
 20
15.7156405955
 30
0.0
 10
8.0705845971
 20
15.7152520823
 30
0.0
 10
8.0690046634
 20
15.7149130423
 30
0.0
 10
8.0679612331
 20
15.7146340386
 30
0.0
 10
8.0673386365
 20
15.7144387562
 30
0.0
 10
8.0668248715
 20
15.7142441458
 30
0.0
 10
8.0665246785
 20
15.7141008076
 30
0.0
 10
8.0663951356
 20
15.7140269382
 30
0.0
  0
SPLINE
  5
3BB
100
AcDbEntity
  8
0
100
AcDbSpline
 62
7
  6
CONTINUOUS
 70
0
 71
3
 72
32
 73
28
 74
0
 42
0.0000001
 43
0.0000001
 44
0.0000000001
 40
0.0
 40
0.0
 40
0.0
 40
0.0
 40
0.0010858939
 40
0.0023998975
 40
0.0040793185
 40
0.0061911139
 40
0.0087685637
 40
0.0118296295
 40
0.0153848056
 40
0.0194406257
 40
0.0290692226
 40
0.0407367905
 40
0.0544532112
 40
0.0702234734
 40
0.0880499202
 40
0.1079278514
 40
0.1298317983
 40
0.1537311509
 40
0.2073912079
 40
0.2686562801
 40
0.3372713842
 40
0.4129799044
 40
0.4955242282
 40
0.5846460998
 40
0.6800679475
 40
0.7813945703
 40
1.0
 40
1.0
 40
1.0
 40
1.0
 10
8.8014627581
 20
15.6777081817
 30
0.0
 10
8.8014627551
 20
15.6776477134
 30
0.0
 10
8.801425336
 20
15.6775134306
 30
0.0
 10
8.8012799104
 20
15.6773344121
 30
0.0
 10
8.8010535913
 20
15.677160101
 30
0.0
 10
8.8007432785
 20
15.6769866983
 30
0.0
 10
8.8003477614
 20
15.6768129578
 30
0.0
 10
8.7998660409
 20
15.676638815
 30
0.0
 10
8.7992977948
 20
15.6764642676
 30
0.0
 10
8.7983700728
 20
15.676216803
 30
0.0
 10
8.7969904447
 20
15.675914568
 30
0.0
 10
8.795071685
 20
15.6755673832
 30
0.0
 10
8.7928064014
 20
15.6752190919
 30
0.0
 10
8.7901948853
 20
15.6748698636
 30
0.0
 10
8.7872376562
 20
15.6745200931
 30
0.0
 10
8.7839367959
 20
15.6741700549
 30
0.0
 10
8.7802960977
 20
15.6738196303
 30
0.0
 10
8.7747788242
 20
15.6733330302
 30
0.0
 10
8.7670715117
 20
15.6727325518
 30
0.0
 10
8.7568747726
 20
15.6720348013
 30
0.0
 10
8.7454477933
 20
15.6713357382
 30
0.0
 10
8.7328339541
 20
15.6706356257
 30
0.0
 10
8.719076628
 20
15.6699347926
 30
0.0
 10
8.7042202766
 20
15.669233449
 30
0.0
 10
8.6883169455
 20
15.668532128
 30
0.0
 10
8.6652077648
 20
15.6675721739
 30
0.0
 10
8.6474052795
 20
15.6668899352
 30
0.0
 10
8.6352404775
 20
15.6664405007
 30
0.0
  0
SPLINE
  5
3BC
100
AcDbEntity
  8
0
100
AcDbSpline
 62
7
  6
CONTINUOUS
 70
0
 71
3
 72
31
 73
27
 74
0
 42
0.0000001
 43
0.0000001
 44
0.0000000001
 40
0.0
 40
0.0
 40
0.0
 40
0.0
 40
0.0015810564
 40
0.0036878779
 40
0.0063340186
 40
0.0095247787
 40
0.0132619602
 40
0.017545649
 40
0.0277483461
 40
0.0401209619
 40
0.0546471265
 40
0.0713086091
 40
0.0900856233
 40
0.110939512
 40
0.1338093602
 40
0.1586327043
 40
0.1853469058
 40
0.2441967018
 40
0.3098558428
 40
0.3818035745
 40
0.4593683519
 40
0.5417997851
 40
0.6283465843
 40
0.7182569338
 40
0.8107417297
 40
1.0
 40
1.0
 40
1.0
 40
1.0
 10
8.8396971518
 20
15.7173406596
 30
0.0
 10
8.8395116258
 20
15.7172334175
 30
0.0
 10
8.8390511579
 20
15.7170328488
 30
0.0
 10
8.8382338
 20
15.7167695543
 30
0.0
 10
8.8371896391
 20
15.716504247
 30
0.0
 10
8.8359195392
 20
15.7162374641
 30
0.0
 10
8.8344235264
 20
15.7159697245
 30
0.0
 10
8.8319828757
 20
15.7155893963
 30
0.0
 10
8.8283715905
 20
15.7151255793
 30
0.0
 10
8.8233711051
 20
15.7145925578
 30
0.0
 10
8.817491173
 20
15.7140576623
 30
0.0
 10
8.8107403028
 20
15.7135211875
 30
0.0
 10
8.8031294657
 20
15.7129840269
 30
0.0
 10
8.794675342
 20
15.7124463493
 30
0.0
 10
8.7854002599
 20
15.7119080366
 30
0.0
 10
8.775329694
 20
15.7113692464
 30
0.0
 10
8.7603865815
 20
15.7106261963
 30
0.0
 10
8.739910771
 20
15.7097073715
 30
0.0
 10
8.7133052207
 20
15.70863461
 30
0.0
 10
8.684161254
 20
15.7075612993
 30
0.0
 10
8.652742655
 20
15.70648684
 30
0.0
 10
8.6193443036
 20
15.7054112135
 30
0.0
 10
8.5842718788
 20
15.7043347692
 30
0.0
 10
8.5478362509
 20
15.7032579512
 30
0.0
 10
8.4974843139
 20
15.7018111474
 30
0.0
 10
8.459312672
 20
15.7007439619
 30
0.0
 10
8.4336712376
 20
15.700026838
 30
0.0
  0
LINE
  5
3BD
100
AcDbEntity
  8
0
100
AcDbLine
 62
7
  6
CONTINUOUS
 10
8.800987236
 20
15.6949626374
 11
8.8001257581
 21
15.6945830521
  0
SPLINE
  5
3BE
100
AcDbEntity
  8
0
100
AcDbSpline
 62
7
  6
CONTINUOUS
 70
0
 71
3
 72
22
 73
18
 74
0
 42
0.0000001
 43
0.0000001
 44
0.0000000001
 40
0.0
 40
0.0
 40
0.0
 40
0.0
 40
0.00701221
 40
0.0156696448
 40
0.0259839951
 40
0.0379584237
 40
0.0668792317
 40
0.1023997994
 40
0.144469044
 40
0.193028416
 40
0.2480067985
 40
0.3092480215
 40
0.3765486566
 40
0.4497038402
 40
0.6127552266
 40
0.7967541634
 40
1.0
 40
1.0
 40
1.0
 40
1.0
 10
8.8001257581
 20
15.6945830521
 30
0.0
 10
8.7998172421
 20
15.6944731829
 30
0.0
 10
8.7991158108
 20
15.6942616961
 30
0.0
 10
8.7979363091
 20
15.6939751451
 30
0.0
 10
8.7965196591
 20
15.6936873348
 30
0.0
 10
8.7941633978
 20
15.6932761295
 30
0.0
 10
8.7906288631
 20
15.6927764469
 30
0.0
 10
8.7856873237
 20
15.6922032437
 30
0.0
 10
8.7798236202
 20
15.6916277519
 30
0.0
 10
8.7730476791
 20
15.6910503292
 30
0.0
 10
8.7653735504
 20
15.6904722116
 30
0.0
 10
8.7568220024
 20
15.6898932805
 30
0.0
 10
8.7474198281
 20
15.6893135744
 30
0.0
 10
8.7332676601
 20
15.6885105939
 30
0.0
 10
8.7136673833
 20
15.6875199747
 30
0.0
 10
8.6879923882
 20
15.6863662232
 30
0.0
 10
8.6699215858
 20
15.6856302726
 30
0.0
 10
8.6604365679
 20
15.6852581041
 30
0.0
  0
LINE
  5
3BF
100
AcDbEntity
  8
0
100
AcDbLine
 62
7
  6
CONTINUOUS
 10
8.6100315393
 20
15.6833914478
 11
8.2625180975
 21
15.6722044104
  0
LINE
  5
3C0
100
AcDbEntity
  8
0
100
AcDbLine
 62
7
  6
CONTINUOUS
 10
8.2625180975
 20
15.6722044104
 11
8.2460921781
 21
15.6716228307
  0
SPLINE
  5
3C1
100
AcDbEntity
  8
0
100
AcDbSpline
 62
7
  6
CONTINUOUS
 70
0
 71
3
 72
11
 73
7
 74
0
 42
0.0000001
 43
0.0000001
 44
0.0000000001
 40
0.0
 40
0.0
 40
0.0
 40
0.0
 40
0.2921300338
 40
0.5578940422
 40
0.7946417322
 40
1.0
 40
1.0
 40
1.0
 40
1.0
 10
8.2006505986
 20
15.6699062721
 30
0.0
 10
8.191925564
 20
15.6695576268
 30
0.0
 10
8.1752639272
 20
15.6688673203
 30
0.0
 10
8.1515358781
 20
15.6677885175
 30
0.0
 10
8.1304043386
 20
15.66671272
 30
0.0
 10
8.1172117665
 20
15.6659408962
 30
0.0
 10
8.111086136
 20
15.6655463902
 30
0.0
  0
SPLINE
  5
3C2
100
AcDbEntity
  8
0
100
AcDbSpline
 62
7
  6
CONTINUOUS
 70
0
 71
3
 72
32
 73
28
 74
0
 42
0.0000001
 43
0.0000001
 44
0.0000000001
 40
0.0
 40
0.0
 40
0.0
 40
0.0
 40
0.0015786818
 40
0.0036820563
 40
0.0063251863
 40
0.0095149245
 40
0.0132546182
 40
0.0175451196
 40
0.0277725566
 40
0.0401811906
 40
0.0547502126
 40
0.0714506033
 40
0.0902435413
 40
0.1110889589
 40
0.1339432438
 40
0.1587525994
 40
0.1854611196
 40
0.2443386555
 40
0.3100413409
 40
0.3819795562
 40
0.4595003271
 40
0.5419059625
 40
0.6284568103
 40
0.7183590963
 40
0.8108082291
 40
0.9049986322
 40
1.0
 40
1.0
 40
1.0
 40
1.0
 10
8.0276462717
 20
15.6916478669
 30
0.0
 10
8.0278314718
 20
15.6917550282
 30
0.0
 10
8.0282910712
 20
15.6919555899
 30
0.0
 10
8.0291071824
 20
15.6922188727
 30
0.0
 10
8.030150305
 20
15.6924841407
 30
0.0
 10
8.0314202061
 20
15.6927508641
 30
0.0
 10
8.0329173758
 20
15.6930185082
 30
0.0
 10
8.0353627027
 20
15.6933987684
 30
0.0
 10
8.0389832395
 20
15.6938623629
 30
0.0
 10
8.0439978588
 20
15.6943951043
 30
0.0
 10
8.049893832
 20
15.6949296398
 30
0.0
 10
8.0566579934
 20
15.6954656712
 30
0.0
 10
8.0642751072
 20
15.6960027369
 30
0.0
 10
8.0727280922
 20
15.6965405287
 30
0.0
 10
8.0819979855
 20
15.6970787494
 30
0.0
 10
8.0920637399
 20
15.6976174371
 30
0.0
 10
8.1070078969
 20
15.6983604743
 30
0.0
 10
8.1274925616
 20
15.699278785
 30
0.0
 10
8.1541064336
 20
15.7003506392
 30
0.0
 10
8.183248946
 20
15.7014239279
 30
0.0
 10
8.2146566841
 20
15.702498252
 30
0.0
 10
8.2480460161
 20
15.7035734693
 30
0.0
 10
8.283114272
 20
15.7046500816
 30
0.0
 10
8.3195444331
 20
15.7057255954
 30
0.0
 10
8.357010512
 20
15.7067994873
 30
0.0
 10
8.3951676691
 20
15.7078843031
 30
0.0
 10
8.4207999815
 20
15.7086021293
 30
0.0
 10
8.4336712549
 20
15.7089560016
 30
0.0
  0
SPLINE
  5
3C3
100
AcDbEntity
  8
0
100
AcDbSpline
 62
9
  6
CONTINUOUS
 70
0
 71
3
 72
9
 73
5
 74
0
 42
0.0000001
 43
0.0000001
 44
0.0000000001
 40
0.0
 40
0.0
 40
0.0
 40
0.0
 40
0.2567122503
 40
1.0
 40
1.0
 40
1.0
 40
1.0
 10
8.0013010291
 20
14.6743118002
 30
0.0
 10
8.0016364022
 20
14.6738185853
 30
0.0
 10
8.0030022344
 20
14.671938922
 30
0.0
 10
8.0046089073
 20
14.6702300762
 30
0.0
 10
8.0059241254
 20
14.6691109324
 30
0.0
  0
SPLINE
  5
3C4
100
AcDbEntity
  8
0
100
AcDbSpline
 62
9
  6
CONTINUOUS
 70
0
 71
3
 72
11
 73
7
 74
0
 42
0.0000001
 43
0.0000001
 44
0.0000000001
 40
0.0
 40
0.0
 40
0.0
 40
0.0
 40
0.2609431162
 40
0.5128785947
 40
0.7584426381
 40
1.0
 40
1.0
 40
1.0
 40
1.0
 10
8.0059241254
 20
14.6691109324
 30
0.0
 10
8.0068212822
 20
14.6683475248
 30
0.0
 10
8.0087034836
 20
14.6669791065
 30
0.0
 10
8.0117853682
 20
14.6654488527
 30
0.0
 10
8.0150080583
 20
14.6645186241
 30
0.0
 10
8.0172122339
 20
14.6643067087
 30
0.0
 10
8.0183027179
 20
14.6643067087
 30
0.0
  0
SPLINE
  5
3C5
100
AcDbEntity
  8
0
100
AcDbSpline
 62
9
  6
CONTINUOUS
 70
0
 71
3
 72
14
 73
10
 74
0
 42
0.0000001
 43
0.0000001
 44
0.0000000001
 40
0.0
 40
0.0
 40
0.0
 40
0.0
 40
0.11675654
 40
0.2347144522
 40
0.3544647895
 40
0.4766513274
 40
0.6019792535
 40
0.7310091132
 40
1.0
 40
1.0
 40
1.0
 40
1.0
 10
8.0183027179
 20
15.6643067087
 30
0.0
 10
8.0175041008
 20
15.6643067087
 30
0.0
 10
8.0158965506
 20
15.6641936893
 30
0.0
 10
8.0135168427
 20
15.6636943226
 30
0.0
 10
8.0111896777
 20
15.662869452
 30
0.0
 10
8.0089452964
 20
15.6617262876
 30
0.0
 10
8.0068060017
 20
15.6602803418
 30
0.0
 10
8.0040909126
 20
15.6579382672
 30
0.0
 10
8.0023355977
 20
15.6558231005
 30
0.0
 10
8.0013010291
 20
15.6543016172
 30
0.0
  0
SPLINE
  5
3C6
100
AcDbEntity
  8
0
100
AcDbSpline
 62
7
  6
CONTINUOUS
 70
0
 71
3
 72
23
 73
19
 74
0
 42
0.0000001
 43
0.0000001
 44
0.0000000001
 40
0.0
 40
0.0
 40
0.0
 40
0.0
 40
0.1057116603
 40
0.22867705
 40
0.2950049705
 40
0.3290752196
 40
0.3636197279
 40
0.3985411134
 40
0.4337401937
 40
0.5045427809
 40
0.5751839284
 40
0.6101823553
 40
0.6448246438
 40
0.6790130324
 40
0.7126521851
 40
0.7779049671
 40
0.8979663531
 40
1.0
 40
1.0
 40
1.0
 40
1.0
 10
11.4282977958
 20
14.9964566634
 30
0.0
 10
11.4115938477
 20
15.0041503237
 30
0.0
 10
11.3750992823
 20
15.0200233324
 30
0.0
 10
11.3270245532
 20
15.0380770977
 30
0.0
 10
11.2900419319
 20
15.0500277191
 30
0.0
 10
11.2675208319
 20
15.0566589306
 30
0.0
 10
11.2501521422
 20
15.0614340747
 30
0.0
 10
11.2325063305
 20
15.0659305384
 30
0.0
 10
11.2086344735
 20
15.071520318
 30
0.0
 10
11.1785113642
 20
15.0776443724
 30
0.0
 10
11.1481955622
 20
15.0825169337
 30
0.0
 10
11.1239910262
 20
15.085647811
 30
0.0
 10
11.1060316992
 20
15.0875936584
 30
0.0
 10
11.0882721756
 20
15.0891527501
 30
0.0
 10
11.0651717914
 20
15.0907178753
 30
0.0
 10
11.0270996323
 20
15.0921739426
 30
0.0
 10
10.9770734696
 20
15.0913818122
 30
0.0
 10
10.9385323431
 20
15.0883585884
 30
0.0
 10
10.9208798569
 20
15.0864935024
 30
0.0
  0
SPLINE
  5
3C7
100
AcDbEntity
  8
0
100
AcDbSpline
 62
9
  6
CONTINUOUS
 70
0
 71
3
 72
41
 73
37
 74
0
 42
0.0000001
 43
0.0000001
 44
0.0000000001
 40
0.0
 40
0.0
 40
0.0
 40
0.0
 40
0.0746668724
 40
0.1492266176
 40
0.2232724936
 40
0.2965052981
 40
0.3686717737
 40
0.4395647945
 40
0.5090073254
 40
0.5768631387
 40
0.6430088214
 40
0.7072956215
 40
0.7386947321
 40
0.7695529636
 40
0.7998243938
 40
0.8294367141
 40
0.8582963182
 40
0.8862512778
 40
0.9130774605
 40
0.9259296915
 40
0.9383223721
 40
0.9501762266
 40
0.961352011
 40
0.971677097
 40
0.9809065328
 40
0.9850245612
 40
0.9887488409
 40
0.9920253672
 40
0.9948000885
 40
0.9970220575
 40
0.9979135652
 40
0.9986528783
 40
0.999235588
 40
0.999657285
 40
0.9999135593
 40
1.0
 40
1.0
 40
1.0
 40
1.0
 10
8.433671259
 20
21.1603536616
 30
0.0
 10
8.4452334405
 20
21.1702540162
 30
0.0
 10
8.4680952547
 20
21.1903302155
 30
0.0
 10
8.5014798462
 20
21.2212781001
 30
0.0
 10
8.5337311757
 20
21.25299151
 30
0.0
 10
8.5646244751
 20
21.2853595051
 30
0.0
 10
8.5939583205
 20
21.3182929015
 30
0.0
 10
8.6215649073
 20
21.351692233
 30
0.0
 10
8.6472852747
 20
21.3854683572
 30
0.0
 10
8.6709926173
 20
21.4195157735
 30
0.0
 10
8.6925584236
 20
21.4537229451
 30
0.0
 10
8.7087976774
 20
21.4824579634
 30
0.0
 10
8.7206124585
 20
21.5053937698
 30
0.0
 10
8.7288105375
 20
21.5223847592
 30
0.0
 10
8.7364018992
 20
21.5392566229
 30
0.0
 10
8.7433771823
 20
21.5559517003
 30
0.0
 10
8.7497192073
 20
21.5723922683
 30
0.0
 10
8.755415423
 20
21.5884661405
 30
0.0
 10
8.7596551229
 20
21.6015879872
 30
0.0
 10
8.7627130314
 20
21.6117535835
 30
0.0
 10
8.7647948123
 20
21.6190247045
 30
0.0
 10
8.7666888615
 20
21.6259933576
 30
0.0
 10
8.7683892103
 20
21.6325772739
 30
0.0
 10
8.7698813194
 20
21.6386618692
 30
0.0
 10
8.7709792841
 20
21.6433613416
 30
0.0
 10
8.7717437991
 20
21.6467566232
 30
0.0
 10
8.7722314812
 20
21.6489702531
 30
0.0
 10
8.7726523844
 20
21.6509181605
 30
0.0
 10
8.7730028391
 20
21.6525679428
 30
0.0
 10
8.7732492279
 20
21.6537427689
 30
0.0
 10
8.7734087034
 20
21.6545118393
 30
0.0
 10
8.7735001528
 20
21.6549537439
 30
0.0
 10
8.7735707785
 20
21.6553021021
 30
0.0
 10
8.773623878
 20
21.6555536451
 30
0.0
 10
8.7736516813
 20
21.6557068797
 30
0.0
 10
8.7736687947
 20
21.6557748378
 30
0.0
 10
8.773670901
 20
21.6557923334
 30
0.0
  0
SPLINE
  5
3C8
100
AcDbEntity
  8
0
100
AcDbSpline
 62
9
  6
CONTINUOUS
 70
0
 71
3
 72
18
 73
14
 74
0
 42
0.0000001
 43
0.0000001
 44
0.0000000001
 40
0.0
 40
0.0
 40
0.0
 40
0.0
 40
0.1040982013
 40
0.1594430665
 40
0.2168452174
 40
0.2761371595
 40
0.3371051123
 40
0.4632298006
 40
0.5937682671
 40
0.727493149
 40
0.7952042373
 40
0.8632930068
 40
1.0
 40
1.0
 40
1.0
 40
1.0
 10
8.1015691801
 20
21.0705038039
 30
0.0
 10
8.1117416591
 20
21.0755626233
 30
0.0
 10
8.1272456549
 20
21.0834656388
 30
0.0
 10
8.1482318368
 20
21.0944040432
 30
0.0
 10
8.1648406889
 20
21.1031607037
 30
0.0
 10
8.1819492834
 20
21.1122848785
 30
0.0
 10
8.2056032783
 20
21.1250734263
 30
0.0
 10
8.2359321206
 20
21.1418640939
 30
0.0
 10
8.2728915909
 20
21.1630629634
 30
0.0
 10
8.3040205905
 20
21.1816040335
 30
0.0
 10
8.3291064713
 20
21.1969651745
 30
0.0
 10
8.3543321654
 20
21.2127186431
 30
0.0
 10
8.3731018123
 20
21.2248590358
 30
0.0
 10
8.3855145728
 20
21.2331368732
 30
0.0
  0
SPLINE
  5
3C9
100
AcDbEntity
  8
0
100
AcDbSpline
 62
9
  6
CONTINUOUS
 70
0
 71
3
 72
19
 73
15
 74
0
 42
0.0000001
 43
0.0000001
 44
0.0000000001
 40
0.0
 40
0.0
 40
0.0
 40
0.0
 40
0.1248608859
 40
0.2575584378
 40
0.3258749854
 40
0.3947547895
 40
0.4635598704
 40
0.5316768079
 40
0.5985561782
 40
0.6637501204
 40
0.7268204043
 40
0.7873345581
 40
0.8995481025
 40
1.0
 40
1.0
 40
1.0
 40
1.0
 10
8.185690452
 20
20.9769651832
 30
0.0
 10
8.1844318458
 20
20.9823228787
 30
0.0
 10
8.1811401692
 20
20.9932195657
 30
0.0
 10
8.1753842117
 20
21.0064201075
 30
0.0
 10
8.169625331
 20
21.0168373587
 30
0.0
 10
8.1647430917
 20
21.0245003251
 30
0.0
 10
8.1593919342
 20
21.0318327129
 30
0.0
 10
8.1536242691
 20
21.0387289167
 30
0.0
 10
8.1474908515
 20
21.0450831107
 30
0.0
 10
8.1410869345
 20
21.0508362577
 30
0.0
 10
8.1345022678
 20
21.0559366658
 30
0.0
 10
8.125814658
 20
21.0616580422
 30
0.0
 10
8.1149765467
 20
21.0670366404
 30
0.0
 10
8.1059233958
 20
21.069696677
 30
0.0
 10
8.1015700076
 20
21.0705042491
 30
0.0
  0
SPLINE
  5
3CA
100
AcDbEntity
  8
0
100
AcDbSpline
 62
9
  6
CONTINUOUS
 70
0
 71
3
 72
32
 73
28
 74
0
 42
0.0000001
 43
0.0000001
 44
0.0000000001
 40
0.0
 40
0.0
 40
0.0
 40
0.0
 40
0.000073441
 40
0.0002887434
 40
0.0006458182
 40
0.0011445754
 40
0.0025667774
 40
0.0045546299
 40
0.0071074131
 40
0.0102244073
 40
0.0139048927
 40
0.0181481497
 40
0.0283189957
 40
0.0407130617
 40
0.0552931013
 40
0.0720215209
 40
0.0908607409
 40
0.1117731972
 40
0.159666184
 40
0.2153495378
 40
0.2784124793
 40
0.3484412844
 40
0.4250268185
 40
0.5077685974
 40
0.5962683393
 40
0.7889617333
 40
1.0
 40
1.0
 40
1.0
 40
1.0
 10
7.9824876548
 20
21.0105905459
 30
0.0
 10
7.9824901664
 20
21.0105926304
 30
0.0
 10
7.9825022183
 20
21.0105976387
 30
0.0
 10
7.9825266369
 20
21.0106125218
 30
0.0
 10
7.9825688518
 20
21.0106347065
 30
0.0
 10
7.9826574754
 20
21.0106835628
 30
0.0
 10
7.9828102153
 20
21.0107664027
 30
0.0
 10
7.9830428617
 20
21.0108932795
 30
0.0
 10
7.983341821
 20
21.0110559306
 30
0.0
 10
7.9837068373
 20
21.0112545572
 30
0.0
 10
7.9841379006
 20
21.0114890027
 30
0.0
 10
7.9848444122
 20
21.0118731474
 30
0.0
 10
7.9858912466
 20
21.0124421028
 30
0.0
 10
7.9873421358
 20
21.0132296775
 30
0.0
 10
7.9890499561
 20
21.0141548324
 30
0.0
 10
7.9910107304
 20
21.0152144157
 30
0.0
 10
7.9932204816
 20
21.0164052426
 30
0.0
 10
7.9966518587
 20
21.0182488126
 30
0.0
 10
8.0015310753
 20
21.0208574076
 30
0.0
 10
8.0080732497
 20
21.0243287672
 30
0.0
 10
8.0154995134
 20
21.0282327736
 30
0.0
 10
8.0237666806
 20
21.0325334437
 30
0.0
 10
8.0328322949
 20
21.037194162
 30
0.0
 10
8.0426552764
 20
21.0421768452
 30
0.0
 10
8.0571239288
 20
21.0494073855
 30
0.0
 10
8.0767909171
 20
21.0589901503
 30
0.0
 10
8.0930417085
 20
21.0666001932
 30
0.0
 10
8.1015699526
 20
21.0705042011
 30
0.0
  0
SPLINE
  5
3CB
100
AcDbEntity
  8
0
100
AcDbSpline
 62
9
  6
CONTINUOUS
 70
0
 71
3
 72
23
 73
19
 74
0
 42
0.0000001
 43
0.0000001
 44
0.0000000001
 40
0.0
 40
0.0
 40
0.0
 40
0.0
 40
0.001139844
 40
0.0045464727
 40
0.0102006076
 40
0.0180829763
 40
0.0281743131
 40
0.0404553588
 40
0.0715095696
 40
0.1110549202
 40
0.1587539644
 40
0.2142330357
 40
0.2771191132
 40
0.3470349556
 40
0.4235846698
 40
0.5949903257
 40
0.7881702691
 40
1.0
 40
1.0
 40
1.0
 40
1.0
 10
8.0936712549
 20
20.9112159257
 30
0.0
 10
8.0937057751
 20
20.911241535
 30
0.0
 10
8.0938396067
 20
20.91134876
 30
0.0
 10
8.0941448247
 20
20.9115828285
 30
0.0
 10
8.094648963
 20
20.9119753422
 30
0.0
 10
8.0953540067
 20
20.912520094
 30
0.0
 10
8.0962568735
 20
20.9132175432
 30
0.0
 10
8.0978527556
 20
20.9144471889
 30
0.0
 10
8.1003313026
 20
20.9163510281
 30
0.0
 10
8.1038746957
 20
20.9190610537
 30
0.0
 10
8.108159921
 20
20.9223171952
 30
0.0
 10
8.1131601227
 20
20.926087114
 30
0.0
 10
8.1188472875
 20
20.9303373954
 30
0.0
 10
8.1251927927
 20
20.9350339232
 30
0.0
 10
8.1348679018
 20
20.9421101046
 30
0.0
 10
8.148394642
 20
20.951793311
 30
0.0
 10
8.1662701805
 20
20.9641611953
 30
0.0
 10
8.1789915815
 20
20.9726142586
 30
0.0
 10
8.1856904175
 20
20.9769653459
 30
0.0
  0
SPLINE
  5
3CC
100
AcDbEntity
  8
0
100
AcDbSpline
 62
9
  6
CONTINUOUS
 70
0
 71
3
 72
27
 73
23
 74
0
 42
0.0000001
 43
0.0000001
 44
0.0000000001
 40
0.0
 40
0.0
 40
0.0
 40
0.0
 40
0.0002832818
 40
0.0011377395
 40
0.0025639897
 40
0.0045626478
 40
0.0071343294
 40
0.0102796501
 40
0.0182936638
 40
0.0285987488
 40
0.0411559006
 40
0.0559198484
 40
0.0728453304
 40
0.1129998965
 40
0.1612577323
 40
0.2172570707
 40
0.280610101
 40
0.3508687697
 40
0.4275769434
 40
0.5985347402
 40
0.7902663112
 40
1.0
 40
1.0
 40
1.0
 40
1.0
 10
8.7748230159
 20
21.6709286854
 30
0.0
 10
8.7748226825
 20
21.6709303239
 30
0.0
 10
8.77482064
 20
21.6709159045
 30
0.0
 10
8.7748169524
 20
21.6709089922
 30
0.0
 10
8.774810201
 20
21.6708802117
 30
0.0
 10
8.7748010345
 20
21.6708479878
 30
0.0
 10
8.7747891334
 20
21.6708032646
 30
0.0
 10
8.7747680249
 20
21.670725375
 30
0.0
 10
8.7747350255
 20
21.6706028103
 30
0.0
 10
8.7746875927
 20
21.6704269406
 30
0.0
 10
8.7746296933
 20
21.6702124853
 30
0.0
 10
8.7745614393
 20
21.6699603982
 30
0.0
 10
8.7744502649
 20
21.6695511483
 30
0.0
 10
8.7742863349
 20
21.6689513679
 30
0.0
 10
8.7740597237
 20
21.6681296143
 30
0.0
 10
8.7737943271
 20
21.6671765153
 30
0.0
 10
8.7734911426
 20
21.6660991359
 30
0.0
 10
8.7731510855
 20
21.6649051517
 30
0.0
 10
8.7726307999
 20
21.6631020874
 30
0.0
 10
8.7718969317
 20
21.6606143946
 30
0.0
 10
8.7709134231
 20
21.6573817946
 30
0.0
 10
8.7702030828
 20
21.6551209739
 30
0.0
 10
8.7698263299
 20
21.6539416906
 30
0.0
  0
SPLINE
  5
3CD
100
AcDbEntity
  8
0
100
AcDbSpline
 62
9
  6
CONTINUOUS
 70
0
 71
3
 72
19
 73
15
 74
0
 42
0.0000001
 43
0.0000001
 44
0.0000000001
 40
0.0
 40
0.0
 40
0.0
 40
0.0
 40
0.0397818062
 40
0.0863803058
 40
0.1371842815
 40
0.1911476453
 40
0.2477903574
 40
0.3068753941
 40
0.4317800499
 40
0.5649768037
 40
0.634349034
 40
0.7053150001
 40
0.851095695
 40
1.0
 40
1.0
 40
1.0
 40
1.0
 10
8.7698263299
 20
21.6539416906
 30
0.0
 10
8.7674855832
 20
21.6466148624
 30
0.0
 10
8.7619359254
 20
21.6308517594
 30
0.0
 10
8.7516762801
 20
21.6063753335
 30
0.0
 10
8.7387456445
 20
21.5801010086
 30
0.0
 10
8.7233343402
 20
21.5529439919
 30
0.0
 10
8.7055536756
 20
21.5253508998
 30
0.0
 10
8.6783113422
 20
21.4876125882
 30
0.0
 10
8.6387229081
 20
21.4406508851
 30
0.0
 10
8.593958012
 20
21.3957848914
 30
0.0
 10
8.5546860942
 20
21.3603515666
 30
0.0
 10
8.51241652
 20
21.3246483432
 30
0.0
 10
8.4563205117
 20
21.2815686547
 30
0.0
 10
8.4096085871
 20
21.248895847
 30
0.0
 10
8.3855145728
 20
21.2331368732
 30
0.0
  0
SPLINE
  5
3CE
100
AcDbEntity
  8
0
100
AcDbSpline
 62
9
  6
CONTINUOUS
 70
0
 71
3
 72
13
 73
9
 74
0
 42
0.0000001
 43
0.0000001
 44
0.0000000001
 40
0.0
 40
0.0
 40
0.0
 40
0.0
 40
0.2160336909
 40
0.4617524682
 40
0.5921628106
 40
0.7260341475
 40
0.8623223925
 40
1.0
 40
1.0
 40
1.0
 40
1.0
 10
8.1856903488
 20
20.9769653087
 30
0.0
 10
8.2043291041
 20
20.9890719316
 30
0.0
 10
8.243878212
 20
21.0153973843
 30
0.0
 10
8.2936997204
 20
21.0504753822
 30
0.0
 10
8.3358570608
 20
21.081715951
 30
0.0
 10
8.3685258924
 20
21.1068409017
 30
0.0
 10
8.4012853099
 20
21.1330618378
 30
0.0
 10
8.4229120924
 20
21.1511413666
 30
0.0
 10
8.433671232
 20
21.1603536932
 30
0.0
  0
SPLINE
  5
3CF
100
AcDbEntity
  8
0
100
AcDbSpline
 62
7
  6
CONTINUOUS
 70
0
 71
3
 72
27
 73
23
 74
0
 42
0.0000001
 43
0.0000001
 44
0.0000000001
 40
0.0
 40
0.0
 40
0.0
 40
0.0
 40
0.0763590878
 40
0.1526720822
 40
0.2283419735
 40
0.3028783962
 40
0.3758097833
 40
0.4466779803
 40
0.5150836942
 40
0.5806875785
 40
0.6432402806
 40
0.7025791786
 40
0.7310360622
 40
0.7586871504
 40
0.8116433258
 40
0.8370429486
 40
0.8617861302
 40
0.9094752405
 40
0.9325802426
 40
0.9552972731
 40
0.9777283028
 40
1.0
 40
1.0
 40
1.0
 40
1.0
 10
7.823347639
 20
0.4002266881
 30
0.0
 10
7.8192500916
 20
0.2842801432
 30
0.0
 10
7.816077259
 20
0.0522496777
 30
0.0
 10
7.8261709831
 20
-0.2946446622
 30
0.0
 10
7.8510968272
 20
-0.6380230092
 30
0.0
 10
7.8906268474
 20
-0.9748583365
 30
0.0
 10
7.9444557422
 20
-1.3023239813
 30
0.0
 10
8.0122030328
 20
-1.6176868792
 30
0.0
 10
8.0933915989
 20
-1.9183586736
 30
0.0
 10
8.1875271073
 20
-2.2019768964
 30
0.0
 10
8.2940965456
 20
-2.4663854847
 30
0.0
 10
8.3942785149
 20
-2.6719486861
 30
0.0
 10
8.4806282084
 20
-2.824689864
 30
0.0
 10
8.5683365659
 20
-2.9653245849
 30
0.0
 10
8.662913022
 20
-3.0960978774
 30
0.0
 10
8.7649419287
 20
-3.215069741
 30
0.0
 10
8.8682016674
 20
-3.3220702013
 30
0.0
 10
8.9788206997
 20
-3.4169169386
 30
0.0
 10
9.0965287223
 20
-3.4967038236
 30
0.0
 10
9.1868620266
 20
-3.5478906616
 30
0.0
 10
9.2801104358
 20
-3.5905974179
 30
0.0
 10
9.3442998296
 20
-3.6131598676
 30
0.0
 10
9.3767259365
 20
-3.6228369584
 30
0.0
  0
SPLINE
  5
3D0
100
AcDbEntity
  8
0
100
AcDbSpline
 62
7
  6
CONTINUOUS
 70
0
 71
3
 72
29
 73
25
 74
0
 42
0.0000001
 43
0.0000001
 44
0.0000000001
 40
0.0
 40
0.0
 40
0.0
 40
0.0
 40
0.0811673708
 40
0.1623203127
 40
0.2427956629
 40
0.3220418983
 40
0.399519633
 40
0.4746774288
 40
0.5469844494
 40
0.6159381609
 40
0.6490110662
 40
0.6810693337
 40
0.7419168391
 40
0.770612559
 40
0.7980892366
 40
0.8243039767
 40
0.8492199368
 40
0.8728044075
 40
0.8950300069
 40
0.9158821808
 40
0.9353567697
 40
0.9534514148
 40
0.970181004
 40
1.0
 40
1.0
 40
1.0
 40
1.0
 10
8.3829982704
 20
0.3804486519
 30
0.0
 10
8.3793990773
 20
0.2786038229
 30
0.0
 10
8.3763687471
 20
0.074761671
 30
0.0
 10
8.3841299936
 20
-0.2300571821
 30
0.0
 10
8.404188677
 20
-0.5319045179
 30
0.0
 10
8.4363089889
 20
-0.8280685061
 30
0.0
 10
8.4801867472
 20
-1.1159741377
 30
0.0
 10
8.5353693744
 20
-1.3930596539
 30
0.0
 10
8.6012835309
 20
-1.6567776796
 30
0.0
 10
8.6654061899
 20
-1.8661826171
 30
0.0
 10
8.7216851057
 20
-2.0248707746
 30
0.0
 10
8.7790478253
 20
-2.1722901586
 30
0.0
 10
8.8411389749
 20
-2.3119254163
 30
0.0
 10
8.9081621959
 20
-2.4427024305
 30
0.0
 10
8.95888946
 20
-2.5328831978
 30
0.0
 10
9.0108636974
 20
-2.6168196995
 30
0.0
 10
9.0638032678
 20
-2.6943025797
 30
0.0
 10
9.1174166669
 20
-2.7651378739
 30
0.0
 10
9.1714410519
 20
-2.829120387
 30
0.0
 10
9.225540412
 20
-2.8861185622
 30
0.0
 10
9.2792574059
 20
-2.9361345272
 30
0.0
 10
9.3321981254
 20
-2.9791933049
 30
0.0
 10
9.398797105
 20
-3.0256432383
 30
0.0
 10
9.4506372365
 20
-3.0534456377
 30
0.0
 10
9.4852172542
 20
-3.0677942871
 30
0.0
  0
SPLINE
  5
3D1
100
AcDbEntity
  8
0
100
AcDbSpline
 62
7
  6
CONTINUOUS
 70
0
 71
3
 72
9
 73
5
 74
0
 42
0.0000001
 43
0.0000001
 44
0.0000000001
 40
0.0
 40
0.0
 40
0.0
 40
0.0
 40
0.2568306799
 40
1.0
 40
1.0
 40
1.0
 40
1.0
 10
9.4852172542
 20
-3.0677942871
 30
0.0
 10
9.4895548877
 20
-3.0695941469
 30
0.0
 10
9.5065303246
 20
-3.0763915176
 30
0.0
 10
9.5238486391
 20
-3.0823375842
 30
0.0
 10
9.5368702123
 20
-3.0862236796
 30
0.0
  0
SPLINE
  5
3D2
100
AcDbEntity
  8
0
100
AcDbSpline
 62
9
  6
CONTINUOUS
 70
0
 71
3
 72
26
 73
22
 74
0
 42
0.0000001
 43
0.0000001
 44
0.0000000001
 40
0.0
 40
0.0
 40
0.0
 40
0.0
 40
0.1643226736
 40
0.3379550121
 40
0.5095402882
 40
0.5911812737
 40
0.6682544834
 40
0.7395337577
 40
0.8038894464
 40
0.8602717623
 40
0.9078403382
 40
0.9280734575
 40
0.9458289167
 40
0.9610625448
 40
0.973740564
 40
0.9838451659
 40
0.9913976961
 40
0.994260516
 40
0.9965710856
 40
0.9984243272
 40
1.0
 40
1.0
 40
1.0
 40
1.0
 10
8.5564513612
 20
9.6612798665
 30
0.0
 10
8.5341020748
 20
9.6612798665
 30
0.0
 10
8.4881366066
 20
9.6618080967
 30
0.0
 10
8.4188620732
 20
9.6638590975
 30
0.0
 10
8.3608663986
 20
9.6665937897
 30
0.0
 10
8.3160277014
 20
9.6693642147
 30
0.0
 10
8.2848279407
 20
9.6716280712
 30
0.0
 10
8.2560005968
 20
9.67407382
 30
0.0
 10
8.2300113377
 20
9.6766561237
 30
0.0
 10
8.2072764484
 20
9.6793369813
 30
0.0
 10
8.1905514009
 20
9.6817136682
 30
0.0
 10
8.1790806666
 20
9.683675205
 30
0.0
 10
8.1719751002
 20
9.6850620763
 30
0.0
 10
8.1659172209
 20
9.6864371409
 30
0.0
 10
8.1609238757
 20
9.6877913111
 30
0.0
 10
8.1570160474
 20
9.6891182871
 30
0.0
 10
8.1544607647
 20
9.6902717854
 30
0.0
 10
8.1530133797
 20
9.6912290516
 30
0.0
 10
8.1523034126
 20
9.6918767055
 30
0.0
 10
8.1518599527
 20
9.6925331232
 30
0.0
 10
8.1517604739
 20
9.6930061817
 30
0.0
 10
8.151768083
 20
9.6932203516
 30
0.0
  0
SPLINE
  5
3D3
100
AcDbEntity
  8
0
100
AcDbSpline
 62
9
  6
CONTINUOUS
 70
0
 71
3
 72
23
 73
19
 74
0
 42
0.0000001
 43
0.0000001
 44
0.0000000001
 40
0.0
 40
0.0
 40
0.0
 40
0.0
 40
0.2120219247
 40
0.4054980034
 40
0.5759937984
 40
0.6515811986
 40
0.7203055406
 40
0.7818569527
 40
0.835948832
 40
0.8823916563
 40
0.9210442715
 40
0.9518078637
 40
0.9642306594
 40
0.9747037897
 40
0.9832956581
 40
0.9901450876
 40
0.9955278263
 40
1.0
 40
1.0
 40
1.0
 40
1.0
 10
8.2280372411
 20
0.3682859796
 30
0.0
 10
8.2391225423
 20
0.3682859796
 30
0.0
 10
8.2603238541
 20
0.3684104714
 30
0.0
 10
8.2904340693
 20
0.3690064814
 30
0.0
 10
8.3134018979
 20
0.3698591005
 30
0.0
 10
8.3298365239
 20
0.3707681964
 30
0.0
 10
8.3405744072
 20
0.3715133991
 30
0.0
 10
8.350178517
 20
0.3723450581
 30
0.0
 10
8.3586041973
 20
0.373260053
 30
0.0
 10
8.3658153047
 20
0.374250556
 30
0.0
 10
8.3717808088
 20
0.375310257
 30
0.0
 10
8.3759497336
 20
0.376296406
 30
0.0
 10
8.3786229161
 20
0.377153145
 30
0.0
 10
8.3801536295
 20
0.3777637567
 30
0.0
 10
8.3813598538
 20
0.3783880354
 30
0.0
 10
8.3822461386
 20
0.3790298239
 30
0.0
 10
8.3828238681
 20
0.3797026238
 30
0.0
 10
8.3829836445
 20
0.3802152008
 30
0.0
 10
8.3829919465
 20
0.3804488754
 30
0.0
  0
SPLINE
  5
3D4
100
AcDbEntity
  8
0
100
AcDbSpline
 62
9
  6
CONTINUOUS
 70
0
 71
3
 72
24
 73
20
 74
0
 42
0.0000001
 43
0.0000001
 44
0.0000000001
 40
0.0
 40
0.0
 40
0.0
 40
0.0
 40
0.0590395436
 40
0.1192191266
 40
0.1805533008
 40
0.2431410446
 40
0.3069353396
 40
0.3716921695
 40
0.4370921377
 40
0.5027430689
 40
0.5682374146
 40
0.6331717942
 40
0.6972091707
 40
0.7288338796
 40
0.7601530607
 40
0.8217754425
 40
0.8821554678
 40
0.9414513205
 40
1.0
 40
1.0
 40
1.0
 40
1.0
 10
9.4733723512
 20
-3.0769925703
 30
0.0
 10
9.4589281705
 20
-3.0769925703
 30
0.0
 10
9.4296952974
 20
-3.0798395892
 30
0.0
 10
9.3870350041
 20
-3.0921638648
 30
0.0
 10
9.3464882109
 20
-3.112313218
 30
0.0
 10
9.3092712697
 20
-3.1395843537
 30
0.0
 10
9.2764415933
 20
-3.1731715736
 30
0.0
 10
9.2489471265
 20
-3.2120825763
 30
0.0
 10
9.227581068
 20
-3.2551705842
 30
0.0
 10
9.2129817657
 20
-3.3011806507
 30
0.0
 10
9.2055309906
 20
-3.3487619855
 30
0.0
 10
9.2055106946
 20
-3.3965261784
 30
0.0
 10
9.2116686219
 20
-3.4355175985
 30
0.0
 10
9.2202723122
 20
-3.4654020185
 30
0.0
 10
9.2311081689
 20
-3.4939172287
 30
0.0
 10
9.2488416543
 20
-3.5272015256
 30
0.0
 10
9.2764416745
 20
-3.5622300871
 30
0.0
 10
9.3094037619
 20
-3.5911449711
 30
0.0
 10
9.334476487
 20
-3.6058014915
 30
0.0
 10
9.3474849052
 20
-3.611798207
 30
0.0
  0
LINE
  5
3D5
100
AcDbEntity
  8
0
100
AcDbLine
 62
9
  6
CONTINUOUS
 10
13.5976886342
 20
-4.2772771443
 11
13.5951589607
 21
-4.2772672097
  0
SPLINE
  5
3D6
100
AcDbEntity
  8
0
100
AcDbSpline
 62
9
  6
CONTINUOUS
 70
0
 71
3
 72
9
 73
5
 74
0
 42
0.0000001
 43
0.0000001
 44
0.0000000001
 40
0.0
 40
0.0
 40
0.0
 40
0.0
 40
0.4800290257
 40
1.0
 40
1.0
 40
1.0
 40
1.0
 10
13.5664951491
 20
-4.2764017899
 30
0.0
 10
13.54500944
 20
-4.2752505602
 30
0.0
 10
13.5003561434
 20
-4.2705760543
 30
0.0
 10
13.4562947082
 20
-4.2620623748
 30
0.0
 10
13.4335882557
 20
-4.2568062482
 30
0.0
  0
SPLINE
  5
3D7
100
AcDbEntity
  8
0
100
AcDbSpline
 62
7
  6
CONTINUOUS
 70
0
 71
3
 72
14
 73
10
 74
0
 42
0.0000001
 43
0.0000001
 44
0.0000000001
 40
0.0
 40
0.0
 40
0.0
 40
0.0
 40
0.1405868913
 40
0.2733035663
 40
0.5227322677
 40
0.6431824029
 40
0.7623363745
 40
0.8810161993
 40
1.0
 40
1.0
 40
1.0
 40
1.0
 10
11.3830226948
 20
14.5346314888
 30
0.0
 10
11.3879401716
 20
14.5298788823
 30
0.0
 10
11.3981583465
 20
14.5212870702
 30
0.0
 10
11.4197539327
 20
14.5077527892
 30
0.0
 10
11.4427785087
 20
14.4987527155
 30
0.0
 10
11.4660989556
 20
14.4939163117
 30
0.0
 10
11.4834571007
 20
14.492052223
 30
0.0
 10
11.5008384409
 20
14.4918659741
 30
0.0
 10
11.512377778
 20
14.4928626065
 30
0.0
 10
11.5181139703
 20
14.4936345743
 30
0.0
  0
SPLINE
  5
3D8
100
AcDbEntity
  8
0
100
AcDbSpline
 62
7
  6
CONTINUOUS
 70
0
 71
3
 72
11
 73
7
 74
0
 42
0.0000001
 43
0.0000001
 44
0.0000000001
 40
0.0
 40
0.0
 40
0.0
 40
0.0
 40
0.2345028782
 40
0.4755890693
 40
0.728668901
 40
1.0
 40
1.0
 40
1.0
 40
1.0
 10
11.5181139703
 20
14.4936345743
 30
0.0
 10
11.5256856322
 20
14.4946535566
 30
0.0
 10
11.540935062
 20
14.4976941373
 30
0.0
 10
11.5633798111
 20
14.5056931128
 30
0.0
 10
11.5853691611
 20
14.5176926075
 30
0.0
 10
11.5987598065
 20
14.5284883012
 30
0.0
 10
11.6051161043
 20
14.5346314888
 30
0.0
  0
SPLINE
  5
3D9
100
AcDbEntity
  8
0
100
AcDbSpline
 62
7
  6
CONTINUOUS
 70
0
 71
3
 72
13
 73
9
 74
0
 42
0.0000001
 43
0.0000001
 44
0.0000000001
 40
0.0
 40
0.0
 40
0.0
 40
0.0
 40
0.2363247196
 40
0.4758682615
 40
0.5992089314
 40
0.7266458202
 40
0.859626859
 40
1.0
 40
1.0
 40
1.0
 40
1.0
 10
11.5069097234
 20
14.9821287986
 30
0.0
 10
11.4963276751
 20
14.9828874923
 30
0.0
 10
11.4748466586
 20
14.9825051676
 30
0.0
 10
11.4482820885
 20
14.977298877
 30
0.0
 10
11.4275516781
 20
14.9697853494
 30
0.0
 10
11.4120587643
 20
14.9621638288
 30
0.0
 10
11.3969341891
 20
14.9523376623
 30
0.0
 10
11.3875539858
 20
14.9443612971
 30
0.0
 10
11.3830226948
 20
14.9399819286
 30
0.0
  0
SPLINE
  5
3DA
100
AcDbEntity
  8
0
100
AcDbSpline
 62
9
  6
CONTINUOUS
 70
0
 71
3
 72
26
 73
22
 74
0
 42
0.0000001
 43
0.0000001
 44
0.0000000001
 40
0.0
 40
0.0
 40
0.0
 40
0.0
 40
0.0015756728
 40
0.0034289144
 40
0.005739484
 40
0.0086023039
 40
0.0161548341
 40
0.026259436
 40
0.0389374552
 40
0.0541710833
 40
0.0719265425
 40
0.0921596618
 40
0.1397282377
 40
0.1961105536
 40
0.2604662423
 40
0.3317455166
 40
0.4088187263
 40
0.4904597118
 40
0.6620449879
 40
0.8356773264
 40
1.0
 40
1.0
 40
1.0
 40
1.0
 10
7.8233539629
 20
0.4002264646
 30
0.0
 10
7.8233463538
 20
0.4000122948
 30
0.0
 10
7.8234458326
 20
0.3995392363
 30
0.0
 10
7.8238892925
 20
0.3988828186
 30
0.0
 10
7.8245992596
 20
0.3982351646
 30
0.0
 10
7.8260466447
 20
0.3972778985
 30
0.0
 10
7.8286019273
 20
0.3961244002
 30
0.0
 10
7.8325097556
 20
0.3947974241
 30
0.0
 10
7.8375031008
 20
0.393443254
 30
0.0
 10
7.8435609801
 20
0.3920681893
 30
0.0
 10
7.8506665465
 20
0.3906813181
 30
0.0
 10
7.8621372808
 20
0.3887197813
 30
0.0
 10
7.8788623283
 20
0.3863430944
 30
0.0
 10
7.9015972176
 20
0.3836622367
 30
0.0
 10
7.9275864767
 20
0.3810799331
 30
0.0
 10
7.9564138206
 20
0.3786341842
 30
0.0
 10
7.9876135813
 20
0.3763703278
 30
0.0
 10
8.0324522785
 20
0.3735999027
 30
0.0
 10
8.0904479531
 20
0.3708652106
 30
0.0
 10
8.1597224865
 20
0.3688142097
 30
0.0
 10
8.2056879547
 20
0.3682859796
 30
0.0
 10
8.2280372411
 20
0.3682859796
 30
0.0
  0
SPLINE
  5
3DB
100
AcDbEntity
  8
0
100
AcDbSpline
 62
9
  6
CONTINUOUS
 70
0
 71
3
 72
31
 73
27
 74
0
 42
0.0000001
 43
0.0000001
 44
0.0000000001
 40
0.0
 40
0.0
 40
0.0
 40
0.0
 40
0.0475779665
 40
0.1004095456
 40
0.159269341
 40
0.1910857825
 40
0.22436275
 40
0.2590922176
 40
0.2953308345
 40
0.3329512064
 40
0.3716333336
 40
0.4110587384
 40
0.4509450904
 40
0.491059319
 40
0.5311262846
 40
0.5707973369
 40
0.6096833894
 40
0.6473974433
 40
0.6837710752
 40
0.7187629311
 40
0.7522665681
 40
0.8141259954
 40
0.869259852
 40
0.918273894
 40
0.9615799769
 40
1.0
 40
1.0
 40
1.0
 40
1.0
 10
13.274219264
 20
-4.7859899533
 30
0.0
 10
13.2625905674
 20
-4.7825065811
 30
0.0
 10
13.2385998843
 20
-4.7731463711
 30
0.0
 10
13.2036853528
 20
-4.7519330771
 30
0.0
 10
13.1763957055
 20
-4.7271448954
 30
0.0
 10
13.1561946521
 20
-4.7027611465
 30
0.0
 10
13.1419393244
 20
-4.6816006149
 30
0.0
 10
13.1293840528
 20
-4.6580981519
 30
0.0
 10
13.118991407
 20
-4.6323591801
 30
0.0
 10
13.1110183646
 20
-4.6047245312
 30
0.0
 10
13.1056355397
 20
-4.575644704
 30
0.0
 10
13.103067394
 20
-4.5456000717
 30
0.0
 10
13.1035426883
 20
-4.5150773683
 30
0.0
 10
13.1072498611
 20
-4.4846140355
 30
0.0
 10
13.113879823
 20
-4.4547155518
 30
0.0
 10
13.1231625755
 20
-4.4258633648
 30
0.0
 10
13.1348121537
 20
-4.3985336506
 30
0.0
 10
13.1486173162
 20
-4.3731783494
 30
0.0
 10
13.1642297525
 20
-4.3500904925
 30
0.0
 10
13.1811901394
 20
-4.3293477229
 30
0.0
 10
13.2044364898
 20
-4.3055169313
 30
0.0
 10
13.2346321178
 20
-4.2814642799
 30
0.0
 10
13.2719157076
 20
-4.260975832
 30
0.0
 10
13.3074420807
 20
-4.2481694832
 30
0.0
 10
13.3402319456
 20
-4.2414789754
 30
0.0
 10
13.3611095767
 20
-4.2401555426
 30
0.0
 10
13.3709121983
 20
-4.2401555426
 30
0.0
  0
SPLINE
  5
3DC
100
AcDbEntity
  8
0
100
AcDbSpline
 62
7
  6
CONTINUOUS
 70
0
 71
3
 72
19
 73
15
 74
0
 42
0.0000001
 43
0.0000001
 44
0.0000000001
 40
0.0
 40
0.0
 40
0.0
 40
0.0
 40
0.1249409653
 40
0.1875819962
 40
0.2501196181
 40
0.3126004233
 40
0.3750787027
 40
0.4999999646
 40
0.6249213749
 40
0.6873996634
 40
0.7498803703
 40
0.8124178777
 40
0.8750588858
 40
1.0
 40
1.0
 40
1.0
 40
1.0
 10
11.2919304587
 20
14.9399819286
 30
0.0
 10
11.2766763839
 20
14.948117881
 30
0.0
 10
11.2525379234
 20
14.9581024621
 30
0.0
 10
11.2192913406
 20
14.9677470223
 30
0.0
 10
11.1939315725
 20
14.9734138826
 30
0.0
 10
11.1683181076
 20
14.9776191497
 30
0.0
 10
11.1339439108
 20
14.9814565549
 30
0.0
 10
11.090709727
 20
14.9833441608
 30
0.0
 10
11.0474756432
 20
14.9814554232
 30
0.0
 10
11.0131013934
 20
14.9776185258
 30
0.0
 10
10.987487859
 20
14.9734138598
 30
0.0
 10
10.9621280102
 20
14.967747481
 30
0.0
 10
10.9288814248
 20
14.9581028544
 30
0.0
 10
10.9047431179
 20
14.9481178906
 30
0.0
 10
10.8894890249
 20
14.9399819286
 30
0.0
  0
SPLINE
  5
3DD
100
AcDbEntity
  8
0
100
AcDbSpline
 62
7
  6
CONTINUOUS
 70
0
 71
3
 72
11
 73
7
 74
0
 42
0.0000001
 43
0.0000001
 44
0.0000000001
 40
0.0
 40
0.0
 40
0.0
 40
0.0
 40
0.2832858457
 40
0.5382390147
 40
0.7744426355
 40
1.0
 40
1.0
 40
1.0
 40
1.0
 10
10.8044856092
 20
14.9399819286
 30
0.0
 10
10.7994424917
 20
14.9459841624
 30
0.0
 10
10.7888398038
 20
14.9565939419
 30
0.0
 10
10.771007158
 20
14.9686907161
 30
0.0
 10
10.7527856405
 20
14.9767742009
 30
0.0
 10
10.7403218848
 20
14.979881603
 30
0.0
 10
10.7341666453
 20
14.9809190646
 30
0.0
  0
SPLINE
  5
3DE
100
AcDbEntity
  8
0
100
AcDbSpline
 62
7
  6
CONTINUOUS
 70
0
 71
3
 72
11
 73
7
 74
0
 42
0.0000001
 43
0.0000001
 44
0.0000000001
 40
0.0
 40
0.0
 40
0.0
 40
0.0
 40
0.2441259552
 40
0.4881660425
 40
0.7376203829
 40
1.0
 40
1.0
 40
1.0
 40
1.0
 10
10.7341666453
 20
14.9809190646
 30
0.0
 10
10.7277209257
 20
14.9820054863
 30
0.0
 10
10.7146279358
 20
14.9831362767
 30
0.0
 10
10.6948582621
 20
14.9815342245
 30
0.0
 10
10.67512653
 20
14.976615916
 30
0.0
 10
10.662581319
 20
14.9708591914
 30
0.0
 10
10.6564924439
 20
14.9673546646
 30
0.0
  0
SPLINE
  5
3DF
100
AcDbEntity
  8
0
100
AcDbSpline
 62
7
  6
CONTINUOUS
 70
0
 71
3
 72
9
 73
5
 74
0
 42
0.0000001
 43
0.0000001
 44
0.0000000001
 40
0.0
 40
0.0
 40
0.0
 40
0.0
 40
0.4747058343
 40
1.0
 40
1.0
 40
1.0
 40
1.0
 10
10.6564924439
 20
14.9673546646
 30
0.0
 10
10.6506576604
 20
14.9639963833
 30
0.0
 10
10.6389687742
 20
14.9558228424
 30
0.0
 10
10.6289298354
 20
14.9456855846
 30
0.0
 10
10.624137585
 20
14.9399819286
 30
0.0
  0
SPLINE
  5
3E0
100
AcDbEntity
  8
0
100
AcDbSpline
 62
9
  6
CONTINUOUS
 70
0
 71
3
 72
23
 73
19
 74
0
 42
0.0000001
 43
0.0000001
 44
0.0000000001
 40
0.0
 40
0.0
 40
0.0
 40
0.0
 40
0.0044721737
 40
0.0098549124
 40
0.0167043419
 40
0.0252962103
 40
0.0357693406
 40
0.0481921363
 40
0.0789557285
 40
0.1176083437
 40
0.164051168
 40
0.2181430473
 40
0.2796944594
 40
0.3484188014
 40
0.4240062016
 40
0.5945019966
 40
0.7879780753
 40
1.0
 40
1.0
 40
1.0
 40
1.0
 10
8.7114060666
 20
9.6734427623
 30
0.0
 10
8.7113977646
 20
9.6732090877
 30
0.0
 10
8.7112379881
 20
9.6726965108
 30
0.0
 10
8.7106602587
 20
9.6720237108
 30
0.0
 10
8.7097739739
 20
9.6713819224
 30
0.0
 10
8.7085677496
 20
9.6707576436
 30
0.0
 10
8.7070370361
 20
9.670147032
 30
0.0
 10
8.7043638536
 20
9.6692902929
 30
0.0
 10
8.7001949289
 20
9.668304144
 30
0.0
 10
8.6942294247
 20
9.667244443
 30
0.0
 10
8.6870183174
 20
9.6662539399
 30
0.0
 10
8.6785926371
 20
9.665338945
 30
0.0
 10
8.6689885273
 20
9.6645072861
 30
0.0
 10
8.658250644
 20
9.6637620833
 30
0.0
 10
8.641816018
 20
9.6628529875
 30
0.0
 10
8.6188481894
 20
9.6620003684
 30
0.0
 10
8.5887379742
 20
9.6614043584
 30
0.0
 10
8.5675366624
 20
9.6612798665
 30
0.0
 10
8.5564513612
 20
9.6612798665
 30
0.0
  0
SPLINE
  5
3E1
100
AcDbEntity
  8
0
100
AcDbSpline
 62
7
  6
CONTINUOUS
 70
0
 71
3
 72
11
 73
7
 74
0
 42
0.0000001
 43
0.0000001
 44
0.0000000001
 40
0.0
 40
0.0
 40
0.0
 40
0.0
 40
0.2835805439
 40
0.5384944046
 40
0.7745465868
 40
1.0
 40
1.0
 40
1.0
 40
1.0
 10
10.624137585
 20
14.5346314888
 30
0.0
 10
10.6292743569
 20
14.5285177891
 30
0.0
 10
10.6400833496
 20
14.5177263194
 30
0.0
 10
10.6583046179
 20
14.5055162461
 30
0.0
 10
10.6769105724
 20
14.497454305
 30
0.0
 10
10.6896217864
 20
14.4944335976
 30
0.0
 10
10.6958946667
 20
14.4934570133
 30
0.0
  0
SPLINE
  5
3E2
100
AcDbEntity
  8
0
100
AcDbSpline
 62
7
  6
CONTINUOUS
 70
0
 71
3
 72
11
 73
7
 74
0
 42
0.0000001
 43
0.0000001
 44
0.0000000001
 40
0.0
 40
0.0
 40
0.0
 40
0.0
 40
0.2254552264
 40
0.4615001796
 40
0.7164084928
 40
1.0
 40
1.0
 40
1.0
 40
1.0
 10
10.7326702224
 20
14.4934477795
 30
0.0
 10
10.7389480279
 20
14.4944218363
 30
0.0
 10
10.7516694885
 20
14.4974385912
 30
0.0
 10
10.770290959
 20
14.5054999252
 30
0.0
 10
10.7885275407
 20
14.5177148208
 30
0.0
 10
10.7993450561
 20
14.5285132887
 30
0.0
 10
10.8044856092
 20
14.5346314888
 30
0.0
  0
SPLINE
  5
3E3
100
AcDbEntity
  8
0
100
AcDbSpline
 62
7
  6
CONTINUOUS
 70
0
 71
3
 72
19
 73
15
 74
0
 42
0.0000001
 43
0.0000001
 44
0.0000000001
 40
0.0
 40
0.0
 40
0.0
 40
0.0
 40
0.1249403397
 40
0.1876140324
 40
0.2501875064
 40
0.3126602248
 40
0.3751108762
 40
0.4999996612
 40
0.6248891778
 40
0.6873404304
 40
0.7498134405
 40
0.8123865455
 40
0.8750598493
 40
1.0
 40
1.0
 40
1.0
 40
1.0
 10
10.8894890249
 20
14.5346314888
 30
0.0
 10
10.904743146
 20
14.5264955118
 30
0.0
 10
10.928882185
 20
14.5165000766
 30
0.0
 10
10.9621402473
 20
14.506858831
 30
0.0
 10
10.9875097573
 20
14.501197131
 30
0.0
 10
11.0131223889
 20
14.4969861771
 30
0.0
 10
11.0474876585
 20
14.493148579
 30
0.0
 10
11.0907097402
 20
14.491277469
 30
0.0
 10
11.1339319126
 20
14.4931483529
 30
0.0
 10
11.1682974321
 20
14.4969857552
 30
0.0
 10
11.1939101307
 20
14.5011967827
 30
0.0
 10
11.2192795179
 20
14.5068587407
 30
0.0
 10
11.2525373895
 20
14.5165001533
 30
0.0
 10
11.2766763606
 20
14.5264955241
 30
0.0
 10
11.2919304587
 20
14.5346314888
 30
0.0
  0
SPLINE
  5
3E4
100
AcDbEntity
  8
0
100
AcDbSpline
 62
9
  6
CONTINUOUS
 70
0
 71
3
 72
58
 73
54
 74
0
 42
0.0000001
 43
0.0000001
 44
0.0000000001
 40
0.0
 40
0.0
 40
0.0
 40
0.0
 40
0.0153774867
 40
0.0312165283
 40
0.0474949511
 40
0.0641898292
 40
0.0987349546
 40
0.1346663611
 40
0.1717946607
 40
0.2099367338
 40
0.2489095702
 40
0.2885269073
 40
0.3286006172
 40
0.3689466256
 40
0.4497249901
 40
0.4897900598
 40
0.5293957338
 40
0.5683620086
 40
0.6065101816
 40
0.643663206
 40
0.6796490668
 40
0.7143018533
 40
0.7474620507
 40
0.7789788659
 40
0.8087229931
 40
0.8229002035
 40
0.8365995999
 40
0.849814307
 40
0.8625415145
 40
0.8747838204
 40
0.8865503131
 40
0.8978535948
 40
0.9087108101
 40
0.9191351841
 40
0.9291323005
 40
0.9386832433
 40
0.9477167316
 40
0.952018048
 40
0.9561584617
 40
0.9601257495
 40
0.9639099311
 40
0.9675081737
 40
0.9709294546
 40
0.9741858718
 40
0.9772916611
 40
0.9802660036
 40
0.9831383498
 40
0.9859407499
 40
0.988705188
 40
0.99146287
 40
0.9942450258
 40
0.9970815929
 40
1.0
 40
1.0
 40
1.0
 40
1.0
 10
11.2482550195
 20
13.4823067087
 30
0.0
 10
11.2525208459
 20
13.3851273806
 30
0.0
 10
11.2630880059
 20
13.1879318114
 30
0.0
 10
11.2843539319
 20
12.8882352983
 30
0.0
 10
11.311071558
 20
12.5806103252
 30
0.0
 10
11.3541866256
 20
12.155680402
 30
0.0
 10
11.4208974449
 20
11.6082508758
 30
0.0
 10
11.5182575301
 20
10.9345320759
 30
0.0
 10
11.6319790763
 20
10.2403235162
 30
0.0
 10
11.7601150807
 20
9.529083765
 30
0.0
 10
11.9007157523
 20
8.804164961
 30
0.0
 10
12.0518356461
 20
8.0688927442
 30
0.0
 10
12.2115405345
 20
7.3265542246
 30
0.0
 10
12.4333930137
 20
6.3312875964
 30
0.0
 10
12.6637721689
 20
5.3380084793
 30
0.0
 10
12.8969669403
 20
4.3502140483
 30
0.0
 10
13.070184112
 20
3.6200192737
 30
0.0
 10
13.2402389972
 20
2.9015367945
 30
0.0
 10
13.4051883344
 20
2.1977899312
 30
0.0
 10
13.5631024228
 20
1.511762149
 30
0.0
 10
13.712047479
 20
0.8463683585
 30
0.0
 10
13.8500899245
 20
0.2044358154
 30
0.0
 10
13.975313171
 20
-0.4113049024
 30
0.0
 10
14.0858494749
 20
-0.9982890928
 30
0.0
 10
14.1653742222
 20
-1.4688559565
 30
0.0
 10
14.219384789
 20
-1.8293317244
 30
0.0
 10
14.2542987553
 20
-2.0869161856
 30
0.0
 10
14.2840034065
 20
-2.3359206355
 30
0.0
 10
14.3082240023
 20
-2.5762595132
 30
0.0
 10
14.3266388824
 20
-2.8079285474
 30
0.0
 10
14.3388829108
 20
-3.0309911012
 30
0.0
 10
14.3445213212
 20
-3.2455621725
 30
0.0
 10
14.3429990711
 20
-3.4517229511
 30
0.0
 10
14.3336952409
 20
-3.6494245949
 30
0.0
 10
14.3157129832
 20
-3.8382537336
 30
0.0
 10
14.2883324385
 20
-4.0170768007
 30
0.0
 10
14.2564754644
 20
-4.1584673043
 30
0.0
 10
14.2251248638
 20
-4.2645071986
 30
0.0
 10
14.1993376824
 20
-4.3386802248
 30
0.0
 10
14.1709512977
 20
-4.4083836951
 30
0.0
 10
14.1400060776
 20
-4.4732186165
 30
0.0
 10
14.1065313199
 20
-4.532861692
 30
0.0
 10
14.0707070743
 20
-4.5871734222
 30
0.0
 10
14.0326656011
 20
-4.6360743635
 30
0.0
 10
13.9925275378
 20
-4.6795042068
 30
0.0
 10
13.9503595224
 20
-4.7174326425
 30
0.0
 10
13.9062338692
 20
-4.7499315292
 30
0.0
 10
13.8601898825
 20
-4.7771288593
 30
0.0
 10
13.8122628928
 20
-4.799163899
 30
0.0
 10
13.7624757646
 20
-4.8161915646
 30
0.0
 10
13.7108024098
 20
-4.8282928965
 30
0.0
 10
13.657215085
 20
-4.8355549157
 30
0.0
 10
13.6207960885
 20
-4.8372054341
 30
0.0
 10
13.602335427
 20
-4.8372954125
 30
0.0
  0
LINE
  5
3E5
100
AcDbEntity
  8
0
100
AcDbLine
 62
9
  6
CONTINUOUS
 10
13.602335427
 20
-4.8372954125
 11
13.5986093587
 21
-4.8373034736
  0
ENDSEC
  0
SECTION
  2
OBJECTS
  0
DICTIONARY
  5
C
100
AcDbDictionary
280
0
281
1
  3
ACAD_GROUP
350
D
  3
ACAD_MLINESTYLE
350
17
  3
ACAD_LAYOUT
350
1A
  3
ACAD_PLOTSETTINGS
350
19
  3
ACAD_PLOTSTYLENAME
350
E
  0
DICTIONARY
  5
D
102
{ACAD_REACTORS
330
C
102
}
100
AcDbDictionary
280
0
281
1
  0
ACDBDICTIONARYWDFLT
  5
E
102
{ACAD_REACTORS
330
C
102
}
100
AcDbDictionary
281
1
  3
Normal
350
F
100
AcDbDictionaryWithDefault
340
F
  0
DICTIONARY
  5
17
102
{ACAD_REACTORS
330
C
102
}
100
AcDbDictionary
280
0
281
1
  3
Standard
350
18
  0
DICTIONARY
  5
19
102
{ACAD_REACTORS
330
C
102
}
100
AcDbDictionary
281
1
  0
DICTIONARY
  5
1A
102
{ACAD_REACTORS
330
C
102
}
100
AcDbDictionary
281
1
  3
Model
350
3E6
  3
Layout1
350
3E7
  0
ACDBPLACEHOLDER
  5
F
102
{ACAD_REACTORS
330
E
102
}
  0
MLINESTYLE
  5
18
102
{ACAD_REACTORS
330
17
102
}
100
AcDbMlineStyle
  2
STANDARD
 70
0
  3

 62
256
 51
90.0
 52
90.0
 71
2
 49
0.5
 62
256
  6
BYLAYER
 49
-0.5
 62
256
  6
BYLAYER
  0
LAYOUT
  5
3E6
102
{ACAD_REACTORS
330
1A
102
}
100
AcDbPlotSettings
  1

  2
none_device
  4
ANSI_C_(22.00_x_17.00_Inches)
  6

 40
0.0
 41
0.0
 42
0.0
 43
0.0
 44
558.8
 45
431.8
 46
0.0
 47
0.0
 48
0.0
 49
0.0
140
0.0
141
0.0
142
1.0
143
1.0
 70
1024
 72
0
 73
0
 74
0
  7

 75
0
147
1.0
148
0.0
149
0.0
100
AcDbLayout
  1
Model
 70
0
 71
0
 10
0.0
 20
0.0
 11
22.0
 21
17.0
 12
0.0
 22
0.0
 32
0.0
 14
0.0
 24
0.0
 34
0.0
 15
0.0
 25
0.0
 35
0.0
146
0.0
 13
0.0
 23
0.0
 33
0.0
 16
1.0
 26
0.0
 36
0.0
 17
0.0
 27
1.0
 37
0.0
 76
0
330
202
345
0
346
0
  0
LAYOUT
  5
3E7
102
{ACAD_REACTORS
330
1A
102
}
100
AcDbPlotSettings
  1

  2
none_device
  4
ANSI_C_(22.00_x_17.00_Inches)
  6

 40
0.0
 41
0.0
 42
0.0
 43
0.0
 44
558.8
 45
431.8
 46
0.0
 47
0.0
 48
0.0
 49
0.0
140
0.0
141
0.0
142
1.0
143
1.0
 70
0
 72
0
 73
0
 74
0
  7

 75
0
147
1.0
148
0.0
149
0.0
100
AcDbLayout
  1
Layout1
 70
0
 71
1
 10
0.0
 20
0.0
 11
22.0
 21
17.0
 12
0.0
 22
0.0
 32
0.0
 14
0.0
 24
0.0
 34
0.0
 15
0.0
 25
0.0
 35
0.0
146
0.0
 13
0.0
 23
0.0
 33
0.0
 16
1.0
 26
0.0
 36
0.0
 17
0.0
 27
1.0
 37
0.0
 76
0
330
203
345
0
346
0
  0
ENDSEC
  0
EOF
