999
DXF file: E:\BT Custom\CADOUTPUT\_FRONT.dxf
999
Pro/ENGINEER 2018400 by Parametric Technology Corporation
  0
SECTION
  2
HEADER
  9
$ACADVER
  1
AC1018
  9
$DWGCODEPAGE
  3
ANSI_1252
  9
$EXTMAX
 10
22.0
 20
17.0
 30
0.0
  9
$EXTMIN
 10
0.0
 20
0.0
 30
0.0
  9
$LIMMIN
 10
0.0
 20
0.0
  9
$LIMMAX
 10
22.0
 20
17.0
  9
$VIEWCTR
 10
11.0
 20
8.5
  9
$VIEWSIZE
 40
17.0
  9
$CLAYER
  8
0
  9
$LTSCALE
 40
1.21
  9
$CELTYPE
  6
BYLAYER
  9
$DIMSCALE
 40
1.0
  9
$DIMASZ
 40
0.1
  9
$DIMEXO
 40
0.0625
  9
$DIMDLI
 40
0.836
  9
$DIMEXE
 40
0.125
  9
$DIMCEN
 40
0.198
  9
$DIMLFAC
 40
1.0
  9
$DIMBLK
  1
_FILLED
  9
$DIMALT
 70
1
  9
$DIMALTD
 70
2
  9
$DIMALTTD
 70
2
  9
$DIMALTF
 40
25.4
  9
$DIMTXT
 40
0.08
  9
$DIMTOL
 70
1
  9
$DIMLIM
 70
0
  9
$DIMTFAC
 40
1.0
  9
$DIMTP
 40
0.001
  9
$DIMTM
 40
0.001
  9
$DIMGAP
 40
0.09
  9
$DIMDSEP
 70
46
  9
$AUNITS
 70
0
  9
$PDMODE
 70
3
  9
$PDSIZE
 40
0.06
  9
$HANDSEED
  5
3BE
  9
$TILEMODE
 70
1
  9
$MEASUREMENT
 70
0
  9
$INSUNITS
 70
1
  0
ENDSEC
  0
SECTION
  2
CLASSES
  0
CLASS
  1
ACDBDICTIONARYWDFLT
  2
AcDbDictionaryWithDefault
  3
AutoCAD 2000
 90
0
 91
1
280
0
281
0
  0
CLASS
  1
ACDBPLACEHOLDER
  2
AcDbPlaceHolder
  3
AutoCAD 2000
 90
0
 91
1
280
0
281
0
  0
CLASS
  1
LAYOUT
  2
AcDbLayout
  3
AutoCAD 2000
 90
0
 91
0
280
0
281
0
  0
ENDSEC
  0
SECTION
  2
TABLES
  0
TABLE
  2
VPORT
  5
8
100
AcDbSymbolTable
 70
2
  0
VPORT
  5
1F4
100
AcDbSymbolTableRecord
100
AcDbViewportTableRecord
  2
*ACTIVE
 70
0
 10
0.0
 20
0.0
 11
1.0
 21
1.0
 12
11.0
 22
8.5
 13
0.0
 23
0.0
 14
1.0
 24
1.0
 15
0.0
 25
0.0
 16
0.0
 26
0.0
 36
1.0
 17
0.0
 27
0.0
 37
0.0
 40
17.0
 41
1.2941176471
 42
50.0
 43
0.0
 44
0.0
 50
0.0
 51
0.0
 71
0
 72
100
 73
1
 74
1
 75
0
 76
0
 77
0
 78
0
  0
ENDTAB
  0
TABLE
  2
LTYPE
  5
5
100
AcDbSymbolTable
 70
6
  0
LTYPE
  5
14
100
AcDbSymbolTableRecord
100
AcDbLinetypeTableRecord
  2
BYBLOCK
 70
0
  3

 72
65
 73
0
 40
0.0
  0
LTYPE
  5
15
100
AcDbSymbolTableRecord
100
AcDbLinetypeTableRecord
  2
BYLAYER
 70
0
  3

 72
65
 73
0
 40
0.0
  0
LTYPE
  5
16
100
AcDbSymbolTableRecord
100
AcDbLinetypeTableRecord
  2
CONTINUOUS
 70
64
  3
Solid line
 72
65
 73
0
 40
0.0
  0
LTYPE
  5
1F5
100
AcDbSymbolTableRecord
100
AcDbLinetypeTableRecord
  2
CENTER
 70
64
  3
____ _ ____ _ ____ _ ____ _ ____ _ ____ _ ____
 72
65
 73
4
 40
0.6
 49
0.375
 74
0
 49
-0.075
 74
0
 49
0.075
 74
0
 49
-0.075
 74
0
  0
LTYPE
  5
1F6
100
AcDbSymbolTableRecord
100
AcDbLinetypeTableRecord
  2
HIDDEN
 70
64
  3
- - - - - - - - - - - - - - - - - - - -
 72
65
 73
2
 40
0.2
 49
0.1
 74
0
 49
-0.1
 74
0
  0
LTYPE
  5
1F7
100
AcDbSymbolTableRecord
100
AcDbLinetypeTableRecord
  2
PHANTOM
 70
64
  3
_____ _ _ _____ _ _ _____ _ _ _____
 72
65
 73
6
 40
0.8
 49
0.45
 74
0
 49
-0.05
 74
0
 49
0.1
 74
0
 49
-0.05
 74
0
 49
0.1
 74
0
 49
-0.05
 74
0
  0
LTYPE
  5
1F8
100
AcDbSymbolTableRecord
100
AcDbLinetypeTableRecord
  2
DOT
 70
64
  3
. . . . . . . . . . . . . . . . . . . .
 72
65
 73
2
 40
0.2
 49
0.1
 74
0
 49
-0.1
 74
0
  0
LTYPE
  5
1F9
100
AcDbSymbolTableRecord
100
AcDbLinetypeTableRecord
  2
DASHED
 70
64
  3
- - - - - - - - - - - - - - - - - - - -
 72
65
 73
2
 40
0.2
 49
0.1
 74
0
 49
-0.1
 74
0
  0
ENDTAB
  0
TABLE
  2
LAYER
  5
2
100
AcDbSymbolTable
 70
36
  0
LAYER
  5
10
100
AcDbSymbolTableRecord
100
AcDbLayerTableRecord
  2
0
 70
0
 62
7
  6
CONTINUOUS
370
-3
390
F
  0
LAYER
  5
1FA
100
AcDbSymbolTableRecord
100
AcDbLayerTableRecord
  2
DEFAULT_1
 70
0
 62
7
  6
CENTER
370
-3
390
F
  0
LAYER
  5
1FB
100
AcDbSymbolTableRecord
100
AcDbLayerTableRecord
  2
DEFAULT_2
 70
0
 62
8
  6
HIDDEN
370
-3
390
F
  0
LAYER
  5
1FC
100
AcDbSymbolTableRecord
100
AcDbLayerTableRecord
  2
DEFAULT_3
 70
0
 62
7
  6
PHANTOM
370
-3
390
F
  0
LAYER
  5
1FD
100
AcDbSymbolTableRecord
100
AcDbLayerTableRecord
  2
ALL_FEATURES
 70
0
 62
7
  6
CONTINUOUS
370
-3
390
F
  0
LAYER
  5
1FE
100
AcDbSymbolTableRecord
100
AcDbLayerTableRecord
  2
AXES_FEATURES
 70
0
 62
7
  6
CONTINUOUS
370
-3
390
F
  0
LAYER
  5
1FF
100
AcDbSymbolTableRecord
100
AcDbLayerTableRecord
  2
DIMENSIONS
 70
0
 62
7
  6
CONTINUOUS
370
-3
390
F
  0
ENDTAB
  0
TABLE
  2
STYLE
  5
3
100
AcDbSymbolTable
 70
1
  0
STYLE
  5
11
100
AcDbSymbolTableRecord
100
AcDbTextStyleTableRecord
  2
STANDARD
 70
0
 40
0.0
 41
0.8
 50
0.0
 71
0
 42
0.2
  3
txt
  4

  0
STYLE
  5
200
100
AcDbSymbolTableRecord
100
AcDbTextStyleTableRecord
  2
TEXTSTYLE_1
 70
0
 40
0.0
 41
0.8
 50
0.0
 71
0
 42
0.2
  3
gdt
  4

  0
ENDTAB
  0
TABLE
  2
VIEW
  5
6
100
AcDbSymbolTable
 70
0
  0
ENDTAB
  0
TABLE
  2
UCS
  5
7
100
AcDbSymbolTable
 70
0
  0
ENDTAB
  0
TABLE
  2
APPID
  5
9
100
AcDbSymbolTable
 70
1
  0
APPID
  5
201
100
AcDbSymbolTableRecord
100
AcDbRegAppTableRecord
  2
ACAD
 70
0
  0
ENDTAB
  0
TABLE
  2
BLOCK_RECORD
  5
1
100
AcDbSymbolTable
 70
0
  0
BLOCK_RECORD
  5
202
100
AcDbSymbolTableRecord
100
AcDbBlockTableRecord
  2
*Model_Space
  0
BLOCK_RECORD
  5
203
100
AcDbSymbolTableRecord
100
AcDbBlockTableRecord
  2
*Paper_Space
  0
BLOCK_RECORD
  5
204
100
AcDbSymbolTableRecord
100
AcDbBlockTableRecord
  2
_FILLED
  0
ENDTAB
  0
TABLE
  2
DIMSTYLE
  5
A
100
AcDbSymbolTable
 70
1
100
AcDbDimStyleTable
 71
0
  0
DIMSTYLE
105
205
100
AcDbSymbolTableRecord
100
AcDbDimStyleTableRecord
  2
STANDARD
 70
0
  3

  4

 40
1.0
 41
0.1
 42
0.0625
 43
0.38
 44
0.125
 45
0.0
 46
0.0
 47
0.001
 48
0.001
140
0.08
141
0.09
142
0.0
143
25.4
144
1.0
145
0.0
146
1.0
147
0.09
 71
1.0
 72
0.0
 73
1
 74
1
 75
0
 76
0
 77
0
 78
4
 79
1
170
1
171
2
172
0
173
0
174
0
175
0
176
0
177
0
178
0
270
2
179
3
271
3
272
3
273
2
274
2
275
0
280
0
281
0
282
0
283
1
284
4
285
0
286
0
287
3
288
0
340
11
278
46
341
204
342
204
343
204
344
204
  0
ENDTAB
  0
ENDSEC
  0
SECTION
  2
BLOCKS
  0
BLOCK
  5
20
100
AcDbEntity
  8
0
100
AcDbBlockBegin
  2
*Model_Space
 70
0
 10
0.0
 20
0.0
 30
0.0
  3
*Model_Space
  1

  0
ENDBLK
  5
21
100
AcDbEntity
  8
0
100
AcDbBlockEnd
  0
BLOCK
  5
1C
100
AcDbEntity
  8
0
100
AcDbBlockBegin
  2
*Paper_Space
 70
0
 10
0.0
 20
0.0
 30
0.0
  3
*Paper_Space
  1

  0
ENDBLK
  5
1D
100
AcDbEntity
  8
0
100
AcDbBlockEnd
  0
BLOCK
  5
206
100
AcDbEntity
  8
0
100
AcDbBlockBegin
  2
_FILLED
 70
64
 10
0.0
 20
0.0
  3
_FILLED
  1

  0
SOLID
  5
207
100
AcDbEntity
  8
0
  6
BYBLOCK
 62
0
100
AcDbTrace
 10
0.0
 20
0.0
 11
-1.0
 21
0.2
 12
-1.0
 22
-0.2
 13
-1.0
 23
-0.2
  0
ENDBLK
  5
208
100
AcDbEntity
  8
0
  6
BYBLOCK
 62
0
100
AcDbBlockEnd
  0
ENDSEC
  0
SECTION
  2
ENTITIES
  0
LWPOLYLINE
  5
209
100
AcDbEntity
  8
0
100
AcDbPolyline
 62
7
  6
CONTINUOUS
 90
38
 70
0
 10
14.5434677854
 20
-4.5795247668
 10
14.6656546487
 20
-4.5743849667
 10
14.8988421056
 20
-4.5306372615
 10
15.1114232857
 20
-4.4389124095
 10
15.2983076416
 20
-4.2960703026
 10
15.452825597
 20
-4.1006798396
 10
15.5685686875
 20
-3.8559349518
 10
15.6437744333
 20
-3.5664337868
 10
15.6799125465
 20
-3.2427091598
 10
15.6823822709
 20
-2.8944052202
 10
15.657839326
 20
-2.5339294184
 10
15.6122914559
 20
-2.1647360844
 10
15.5498317831
 20
-1.7872929165
 10
15.4731441375
 20
-1.4011472672
 10
15.3838179637
 20
-1.0045163101
 10
15.2833627452
 20
-0.5975702919
 10
15.1729480277
 20
-0.180419579
 10
15.0532278673
 20
0.2479548448
 10
14.9245800199
 20
0.6889104436
 10
14.7875814342
 20
1.1427034923
 10
14.6426181577
 20
1.6100432985
 10
14.4898501752
 20
2.0922288063
 10
14.3293695485
 20
2.590669758
 10
14.1613978437
 20
3.1063847659
 10
13.9860835248
 20
3.6407276506
 10
13.8035173086
 20
4.1954147956
 10
13.6138273783
 20
4.7723397249
 10
13.4171721211
 20
5.3737251546
 10
13.2138029121
 20
6.0021181272
 10
13.004138533
 20
6.6604383994
 10
12.7886348732
 20
7.3528162819
 10
12.5681439498
 20
8.0841422968
 10
12.3442925705
 20
8.8598111315
 10
12.1193690753
 20
9.6880470667
 10
11.8978674523
 20
10.5782708667
 10
11.6873228505
 20
11.5461663249
 10
11.503122573
 20
12.6148772111
 10
11.38541115
 20
13.7400844068
  0
LINE
  5
20A
100
AcDbEntity
  8
0
100
AcDbLine
 62
7
  6
CONTINUOUS
 10
14.5443693249
 20
-4.5795252653
 11
14.5434677854
 21
-4.5795247668
  0
LINE
  5
20B
100
AcDbEntity
  8
0
100
AcDbLine
 62
7
  6
CONTINUOUS
 10
14.5444576893
 20
-4.0195008229
 11
14.5440447443
 21
-4.0195007563
  0
LWPOLYLINE
  5
20C
100
AcDbEntity
  8
0
100
AcDbPolyline
 62
7
  6
CONTINUOUS
 90
4
 70
0
 10
14.5440447443
 20
-4.0195007563
 10
14.5116929127
 20
-4.0189485539
 10
14.3877964271
 20
-4.0081249492
 10
14.2638105922
 20
-3.9861722325
  0
LINE
  5
20D
100
AcDbEntity
  8
0
100
AcDbLine
 62
9
  6
CONTINUOUS
 10
14.1461309863
 20
-4.5336679002
 11
14.1819289524
 21
-4.5374533419
  0
LINE
  5
20E
100
AcDbEntity
  8
0
100
AcDbLine
 62
9
  6
CONTINUOUS
 10
8.7683965278
 20
-3.3742903696
 11
8.7325985617
 21
-3.3705049279
  0
LWPOLYLINE
  5
20F
100
AcDbEntity
  8
0
100
AcDbPolyline
 62
7
  6
CONTINUOUS
 90
4
 70
0
 10
14.1461076963
 20
-4.5336628944
 10
14.3184932911
 20
-4.563857988
 10
14.4996544321
 20
-4.5788612316
 10
14.5443693249
 20
-4.5795252653
  0
LINE
  5
210
100
AcDbEntity
  8
0
100
AcDbLine
 62
7
  6
CONTINUOUS
 10
8.7325985617
 20
-3.3705049279
 11
14.1461309863
 21
-4.5336679002
  0
LINE
  5
211
100
AcDbEntity
  8
0
100
AcDbLine
 62
7
  6
CONTINUOUS
 10
14.2638105923
 20
-3.9861722325
 11
8.8502365556
 21
-2.8230003139
  0
LINE
  5
212
100
AcDbEntity
  8
0
100
AcDbLine
 62
7
  6
CONTINUOUS
 10
7.3953338932
 20
22.0990844068
 11
7.3853338932
 21
22.0890844068
  0
LINE
  5
213
100
AcDbEntity
  8
0
100
AcDbLine
 62
7
  6
CONTINUOUS
 10
7.3453338932
 20
22.0490844068
 11
7.3553338932
 21
22.0590844068
  0
LINE
  5
214
100
AcDbEntity
  8
0
100
AcDbLine
 62
7
  6
CONTINUOUS
 10
7.0030237384
 20
15.9539032115
 11
6.9643126685
 21
15.9315193535
  0
LINE
  5
215
100
AcDbEntity
  8
0
100
AcDbLine
 62
7
  6
CONTINUOUS
 10
6.9638338932
 20
15.9310186971
 11
6.9643125991
 21
15.9315704732
  0
LINE
  5
216
100
AcDbEntity
  8
0
100
AcDbLine
 62
7
  6
CONTINUOUS
 10
7.7768338932
 20
15.9578044059
 11
7.7763458867
 21
15.9572472943
  0
LINE
  5
217
100
AcDbEntity
  8
0
100
AcDbLine
 62
7
  6
CONTINUOUS
 10
7.737621527
 20
15.9348653103
 11
7.7763458789
 21
15.9572529747
  0
LINE
  5
218
100
AcDbEntity
  8
0
100
AcDbLine
 62
7
  6
CONTINUOUS
 10
6.9603338932
 20
14.7400844068
 11
6.9541748408
 21
14.9220844068
  0
LINE
  5
219
100
AcDbEntity
  8
0
100
AcDbLine
 62
7
  6
CONTINUOUS
 10
7.0453699001
 20
15.6085420188
 11
7.0453338932
 21
15.6488793606
  0
LINE
  5
21A
100
AcDbEntity
  8
0
100
AcDbLine
 62
7
  6
CONTINUOUS
 10
6.7303338932
 20
16.2370740827
 11
6.7303338932
 21
15.8127357563
  0
LINE
  5
21B
100
AcDbEntity
  8
0
100
AcDbLine
 62
7
  6
CONTINUOUS
 10
6.7303338932
 20
15.0314330573
 11
6.7303338932
 21
14.6070947309
  0
LINE
  5
21C
100
AcDbEntity
  8
0
100
AcDbLine
 62
7
  6
CONTINUOUS
 10
6.8303338932
 20
19.5636238816
 11
6.8303338932
 21
17.378544932
  0
LINE
  5
21D
100
AcDbEntity
  8
0
100
AcDbLine
 62
7
  6
CONTINUOUS
 10
6.9203338932
 20
20.2440844068
 11
6.9203338932
 21
20.1940844068
  0
LINE
  5
21E
100
AcDbEntity
  8
0
100
AcDbLine
 62
7
  6
CONTINUOUS
 10
6.9203338932
 20
16.1570844068
 11
6.9203338932
 21
16.0570844068
  0
LINE
  5
21F
100
AcDbEntity
  8
0
100
AcDbLine
 62
7
  6
CONTINUOUS
 10
6.9603338932
 20
16.7260844068
 11
6.9603338932
 21
16.6260844068
  0
LINE
  5
220
100
AcDbEntity
  8
0
100
AcDbLine
 62
7
  6
CONTINUOUS
 10
6.9638338932
 20
15.9970844068
 11
6.9638338932
 21
15.9935366781
  0
LINE
  5
221
100
AcDbEntity
  8
0
100
AcDbLine
 62
7
  6
CONTINUOUS
 10
6.9638338932
 20
15.9310186971
 11
6.9638338932
 21
15.9220893916
  0
LINE
  5
222
100
AcDbEntity
  8
0
100
AcDbLine
 62
9
  6
CONTINUOUS
 10
7.0005572695
 20
15.9116478242
 11
7.0005572695
 21
14.9325209894
  0
LINE
  5
223
100
AcDbEntity
  8
0
100
AcDbLine
 62
7
  6
CONTINUOUS
 10
7.0025011866
 20
15.971218337
 11
7.0025011866
 21
15.9536010286
  0
LINE
  5
224
100
AcDbEntity
  8
0
100
AcDbLine
 62
7
  6
CONTINUOUS
 10
7.0265838932
 20
-2.260476237
 11
7.0265838932
 21
-1.7079516766
  0
LINE
  5
225
100
AcDbEntity
  8
0
100
AcDbLine
 62
7
  6
CONTINUOUS
 10
7.0265838932
 20
8.7082074344
 11
7.0265838932
 21
14.6114567324
  0
LINE
  5
226
100
AcDbEntity
  8
0
100
AcDbLine
 62
7
  6
CONTINUOUS
 10
7.0303338932
 20
21.0937388295
 11
7.0303338932
 21
20.5195839531
  0
LINE
  5
227
100
AcDbEntity
  8
0
100
AcDbLine
 62
7
  6
CONTINUOUS
 10
7.0403338932
 20
16.0570844068
 11
7.0403338932
 21
15.9970844068
  0
LINE
  5
228
100
AcDbEntity
  8
0
100
AcDbLine
 62
7
  6
CONTINUOUS
 10
7.0453338932
 20
14.9520844068
 11
7.0453338932
 21
15.8920844068
  0
LINE
  5
229
100
AcDbEntity
  8
0
100
AcDbLine
 62
7
  6
CONTINUOUS
 10
7.0903338932
 20
14.7400844068
 11
7.0903338932
 21
10.0592433109
  0
LINE
  5
22A
100
AcDbEntity
  8
0
100
AcDbLine
 62
7
  6
CONTINUOUS
 10
7.0453338932
 20
15.1952896151
 11
7.0453686826
 21
15.2342631446
  0
LINE
  5
22B
100
AcDbEntity
  8
0
100
AcDbLine
 62
7
  6
CONTINUOUS
 10
7.0877757582
 20
9.9548367663
 11
6.6316212203
 21
0.6618428794
  0
LINE
  5
22C
100
AcDbEntity
  8
0
100
AcDbLine
 62
7
  6
CONTINUOUS
 10
10.6133063846
 20
15.2086167183
 11
10.6047750588
 21
15.1977596267
  0
LINE
  5
22D
100
AcDbEntity
  8
0
100
AcDbLine
 62
7
  6
CONTINUOUS
 10
10.7745257782
 20
15.3087069804
 11
10.7361086497
 21
15.2714806847
  0
LINE
  5
22E
100
AcDbEntity
  8
0
100
AcDbLine
 62
7
  6
CONTINUOUS
 10
10.7329676907
 20
15.2684370874
 11
10.7140279258
 21
15.2500844068
  0
LINE
  5
22F
100
AcDbEntity
  8
0
100
AcDbLine
 62
7
  6
CONTINUOUS
 10
7.6952978901
 20
15.2356226849
 11
7.6953338932
 21
15.195289454
  0
LINE
  5
230
100
AcDbEntity
  8
0
100
AcDbLine
 62
7
  6
CONTINUOUS
 10
7.3049879154
 20
22.0490844068
 11
7.3049879154
 21
22.0990844068
  0
LINE
  5
231
100
AcDbEntity
  8
0
100
AcDbLine
 62
7
  6
CONTINUOUS
 10
7.3453338932
 20
21.9755539848
 11
7.3453338932
 21
22.1726148288
  0
LINE
  5
232
100
AcDbEntity
  8
0
100
AcDbLine
 62
7
  6
CONTINUOUS
 10
7.3553338932
 20
22.0990844068
 11
7.3553338932
 21
22.0890844068
  0
LINE
  5
233
100
AcDbEntity
  8
0
100
AcDbLine
 62
7
  6
CONTINUOUS
 10
7.3553338932
 20
22.0590844068
 11
7.3553338932
 21
22.0490844068
  0
LINE
  5
234
100
AcDbEntity
  8
0
100
AcDbLine
 62
7
  6
CONTINUOUS
 10
7.3853338932
 20
22.0990844068
 11
7.3853338932
 21
22.0890844068
  0
LINE
  5
235
100
AcDbEntity
  8
0
100
AcDbLine
 62
7
  6
CONTINUOUS
 10
7.3853338932
 20
22.0590844068
 11
7.3853338932
 21
22.0490844068
  0
LINE
  5
236
100
AcDbEntity
  8
0
100
AcDbLine
 62
7
  6
CONTINUOUS
 10
7.3953338932
 20
21.9755539848
 11
7.3953338932
 21
22.1726148288
  0
LINE
  5
237
100
AcDbEntity
  8
0
100
AcDbLine
 62
7
  6
CONTINUOUS
 10
7.4356798711
 20
22.0490844068
 11
7.4356798711
 21
22.0990844068
  0
LINE
  5
238
100
AcDbEntity
  8
0
100
AcDbLine
 62
7
  6
CONTINUOUS
 10
7.6503338932
 20
14.7400844068
 11
7.6503338932
 21
10.0592433109
  0
LINE
  5
239
100
AcDbEntity
  8
0
100
AcDbLine
 62
7
  6
CONTINUOUS
 10
7.6953338932
 20
15.8920844068
 11
7.6953338932
 21
14.9520844068
  0
LINE
  5
23A
100
AcDbEntity
  8
0
100
AcDbLine
 62
7
  6
CONTINUOUS
 10
7.7003338932
 20
16.0570844068
 11
7.7003338932
 21
15.9970844068
  0
LINE
  5
23B
100
AcDbEntity
  8
0
100
AcDbLine
 62
7
  6
CONTINUOUS
 10
7.7103338932
 20
21.0937291303
 11
7.7103338932
 21
20.5195839531
  0
LINE
  5
23C
100
AcDbEntity
  8
0
100
AcDbLine
 62
7
  6
CONTINUOUS
 10
7.7140838932
 20
-1.8401063235
 11
7.7140838932
 21
14.6114575184
  0
LINE
  5
23D
100
AcDbEntity
  8
0
100
AcDbLine
 62
7
  6
CONTINUOUS
 10
7.7381211188
 20
15.9890450449
 11
7.7381211188
 21
15.9970844068
  0
LINE
  5
23E
100
AcDbEntity
  8
0
100
AcDbLine
 62
7
  6
CONTINUOUS
 10
7.7381414478
 20
15.9220844068
 11
7.7381414478
 21
15.9351659195
  0
LINE
  5
23F
100
AcDbEntity
  8
0
100
AcDbLine
 62
9
  6
CONTINUOUS
 10
7.740110517
 20
14.9325209894
 11
7.740110517
 21
15.9116478242
  0
LINE
  5
240
100
AcDbEntity
  8
0
100
AcDbLine
 62
7
  6
CONTINUOUS
 10
7.7768338932
 20
15.9667336997
 11
7.7768338932
 21
15.9578044059
  0
LINE
  5
241
100
AcDbEntity
  8
0
100
AcDbLine
 62
7
  6
CONTINUOUS
 10
7.7803338932
 20
16.7260844068
 11
7.7803338932
 21
16.6260844068
  0
LINE
  5
242
100
AcDbEntity
  8
0
100
AcDbLine
 62
7
  6
CONTINUOUS
 10
7.8203338932
 20
20.2440844068
 11
7.8203338932
 21
20.1940844068
  0
LINE
  5
243
100
AcDbEntity
  8
0
100
AcDbLine
 62
7
  6
CONTINUOUS
 10
7.8203338932
 20
16.1570844068
 11
7.8203338932
 21
16.0570844068
  0
LINE
  5
244
100
AcDbEntity
  8
0
100
AcDbLine
 62
7
  6
CONTINUOUS
 10
7.9103338932
 20
19.5636238816
 11
7.9103338932
 21
17.378544932
  0
LINE
  5
245
100
AcDbEntity
  8
0
100
AcDbLine
 62
7
  6
CONTINUOUS
 10
7.6953338932
 20
15.6488791981
 11
7.6952991068
 21
15.6099090465
  0
LINE
  5
246
100
AcDbEntity
  8
0
100
AcDbLine
 62
7
  6
CONTINUOUS
 10
7.7803338932
 20
14.7400844068
 11
7.7864929457
 21
14.9220844068
  0
LINE
  5
247
100
AcDbEntity
  8
0
100
AcDbLine
 62
7
  6
CONTINUOUS
 10
7.647102337
 20
9.9273817437
 11
7.1909477991
 21
0.6343878568
  0
LINE
  5
248
100
AcDbEntity
  8
0
100
AcDbLine
 62
7
  6
CONTINUOUS
 10
11.5918375531
 20
14.7924091869
 11
11.5832462345
 21
14.7819486834
  0
LINE
  5
249
100
AcDbEntity
  8
0
100
AcDbLine
 62
7
  6
CONTINUOUS
 10
8.3553338932
 20
14.5470844068
 11
8.3553338932
 21
16.2970844068
  0
LINE
  5
24A
100
AcDbEntity
  8
0
100
AcDbLine
 62
9
  6
CONTINUOUS
 10
8.898282824
 20
14.5470844068
 11
8.898282824
 21
14.5520459973
  0
LINE
  5
24B
100
AcDbEntity
  8
0
100
AcDbLine
 62
9
  6
CONTINUOUS
 10
8.898282824
 20
14.9064821736
 11
8.898282824
 21
15.0676482305
  0
LINE
  5
24C
100
AcDbEntity
  8
0
100
AcDbLine
 62
9
  6
CONTINUOUS
 10
8.898282824
 20
15.7765205832
 11
8.898282824
 21
15.93768664
  0
LINE
  5
24D
100
AcDbEntity
  8
0
100
AcDbLine
 62
9
  6
CONTINUOUS
 10
8.898282824
 20
16.2921228163
 11
8.898282824
 21
16.2970844068
  0
LINE
  5
24E
100
AcDbEntity
  8
0
100
AcDbLine
 62
9
  6
CONTINUOUS
 10
9.0843338932
 20
16.1360844068
 11
9.0843338932
 21
14.7080844068
  0
LINE
  5
24F
100
AcDbEntity
  8
0
100
AcDbLine
 62
7
  6
CONTINUOUS
 10
10.6047750588
 20
15.1977596267
 11
10.6047750588
 21
14.7924091869
  0
LINE
  5
250
100
AcDbEntity
  8
0
100
AcDbLine
 62
7
  6
CONTINUOUS
 10
10.753102508
 20
14.7924091869
 11
10.753102508
 21
15.1977596267
  0
LINE
  5
251
100
AcDbEntity
  8
0
100
AcDbLine
 62
7
  6
CONTINUOUS
 10
10.773306306
 20
15.3075253087
 11
10.773306306
 21
15.3454800877
  0
LINE
  5
252
100
AcDbEntity
  8
0
100
AcDbLine
 62
7
  6
CONTINUOUS
 10
10.792306306
 20
14.7400844068
 11
10.792306306
 21
13.7400844068
  0
LINE
  5
253
100
AcDbEntity
  8
0
100
AcDbLine
 62
7
  6
CONTINUOUS
 10
10.8329078862
 20
15.1977596267
 11
10.8329078862
 21
14.7924091869
  0
LWPOLYLINE
  5
254
100
AcDbEntity
  8
0
100
AcDbPolyline
 62
7
  6
CONTINUOUS
 90
55
 70
0
 10
10.8244198795
 20
13.7400844068
 10
10.8875594297
 20
13.0097474947
 10
10.9854166235
 20
12.2917505582
 10
11.1025433494
 20
11.619879513
 10
11.2311179741
 20
10.9884851609
 10
11.366379283
 20
10.3922266462
 10
11.5055716414
 20
9.8255847049
 10
11.6468597621
 20
9.2845197428
 10
11.7887518015
 20
8.7667045997
 10
11.930261398
 20
8.2698599615
 10
12.0707737498
 20
7.7917483182
 10
12.2098001035
 20
7.3306650496
 10
12.3469270692
 20
6.8853457268
 10
12.481881301
 20
6.4545773782
 10
12.6144947807
 20
6.0371881733
 10
12.74466523
 20
5.6320915698
 10
12.8722720611
 20
5.2384807854
 10
12.9972158565
 20
4.8556544751
 10
13.1194258392
 20
4.4829599496
 10
13.2388509526
 20
4.1197936707
 10
13.355452368
 20
3.7656044467
 10
13.46918225
 20
3.4199393957
 10
13.5800201183
 20
3.0823167351
 10
13.6879466178
 20
2.7522927762
 10
13.7929292909
 20
2.4294947762
 10
13.8949216299
 20
2.1136155382
 10
13.9938615046
 20
1.8044115196
 10
14.0896729751
 20
1.5016919674
 10
14.1823653965
 20
1.204996946
 10
14.2719283014
 20
0.913917743
 10
14.35830528
 20
0.6281679901
 10
14.4413968025
 20
0.3475698088
 10
14.5210627317
 20
0.072043903
 10
14.5970930554
 20
-0.1982830088
 10
14.669411791
 20
-0.4638120771
 10
14.7379297146
 20
-0.725027438
 10
14.8024349974
 20
-0.9821179903
 10
14.8626034521
 20
-1.2350009683
 10
14.9180161636
 20
-1.4833174728
 10
14.9681336993
 20
-1.7262260674
 10
15.0127546905
 20
-1.9649083797
 10
15.0515273279
 20
-2.2010229177
 10
15.083605492
 20
-2.4351543085
 10
15.1076758695
 20
-2.6667456521
 10
15.1219679151
 20
-2.8941893345
 10
15.1242755246
 20
-3.1158508425
 10
15.1118253995
 20
-3.3276974405
 10
15.0820538764
 20
-3.5211632475
 10
15.034706601
 20
-3.6854496385
 10
14.9721399442
 20
-3.8133341783
 10
14.8979251386
 20
-3.9041811862
 10
14.8123069906
 20
-3.9644812977
 10
14.7103048409
 20
-4.0016767836
 10
14.5906308614
 20
-4.0183113969
 10
14.5444576893
 20
-4.0195008229
  0
LINE
  5
255
100
AcDbEntity
  8
0
100
AcDbLine
 62
7
  6
CONTINUOUS
 10
11.2317317806
 20
14.7924091869
 11
11.2317317806
 21
15.1977596267
  0
LINE
  5
256
100
AcDbEntity
  8
0
100
AcDbLine
 62
7
  6
CONTINUOUS
 10
11.3264391333
 20
15.1977596267
 11
11.3264391333
 21
14.7924091869
  0
LINE
  5
257
100
AcDbEntity
  8
0
100
AcDbLine
 62
7
  6
CONTINUOUS
 10
11.404306306
 20
14.7400844068
 11
11.404306306
 21
13.7400844068
  0
LINE
  5
258
100
AcDbEntity
  8
0
100
AcDbLine
 62
7
  6
CONTINUOUS
 10
11.423306306
 20
15.3075253087
 11
11.423306306
 21
15.3455383972
  0
LINE
  5
259
100
AcDbEntity
  8
0
100
AcDbLine
 62
7
  6
CONTINUOUS
 10
11.5769355786
 20
14.7924091869
 11
11.5769355786
 21
15.1977596267
  0
LINE
  5
25A
100
AcDbEntity
  8
0
100
AcDbLine
 62
7
  6
CONTINUOUS
 10
11.5918375531
 20
15.1977596267
 11
11.5918375531
 21
14.7924091869
  0
LINE
  5
25B
100
AcDbEntity
  8
0
100
AcDbLine
 62
9
  6
CONTINUOUS
 10
7.0903338932
 20
10.0592433109
 11
7.6503338932
 21
10.0592433109
  0
LINE
  5
25C
100
AcDbEntity
  8
0
100
AcDbLine
 62
7
  6
CONTINUOUS
 10
6.9638338932
 20
15.9935194214
 11
6.9643073042
 21
15.9929707063
  0
LINE
  5
25D
100
AcDbEntity
  8
0
100
AcDbLine
 62
7
  6
CONTINUOUS
 10
7.7768338932
 20
15.9667336997
 11
7.7763634825
 21
15.9672806725
  0
LINE
  5
25E
100
AcDbEntity
  8
0
100
AcDbLine
 62
7
  6
CONTINUOUS
 10
6.9643073322
 20
15.9929914142
 11
7.0023674919
 21
15.9709871115
  0
LINE
  5
25F
100
AcDbEntity
  8
0
100
AcDbLine
 62
7
  6
CONTINUOUS
 10
10.6047750588
 20
14.7924091869
 11
10.6133663774
 21
14.7819486834
  0
LINE
  5
260
100
AcDbEntity
  8
0
100
AcDbLine
 62
7
  6
CONTINUOUS
 10
10.7923288015
 20
13.7400844068
 11
11.4042838104
 21
13.7400844068
  0
LINE
  5
261
100
AcDbEntity
  8
0
100
AcDbLine
 62
7
  6
CONTINUOUS
 10
7.7763634145
 20
15.9672300894
 11
7.7382499692
 21
15.9892678652
  0
LINE
  5
262
100
AcDbEntity
  8
0
100
AcDbLine
 62
7
  6
CONTINUOUS
 10
11.4220868337
 20
15.3087069804
 11
11.4766740933
 21
15.2558117864
  0
LINE
  5
263
100
AcDbEntity
  8
0
100
AcDbLine
 62
7
  6
CONTINUOUS
 10
11.5833062273
 20
15.2086167183
 11
11.5918375531
 21
15.1977596267
  0
LINE
  5
264
100
AcDbEntity
  8
0
100
AcDbLine
 62
7
  6
CONTINUOUS
 10
8.898282824
 20
14.5470844068
 11
8.3553338932
 21
14.5470844068
  0
LINE
  5
265
100
AcDbEntity
  8
0
100
AcDbLine
 62
7
  6
CONTINUOUS
 10
8.3553338932
 20
14.5520459978
 11
8.8982827871
 21
14.5520459926
  0
LINE
  5
266
100
AcDbEntity
  8
0
100
AcDbLine
 62
7
  6
CONTINUOUS
 10
6.7303338932
 20
14.6070844068
 11
7.0163338932
 21
14.6070844068
  0
LINE
  5
267
100
AcDbEntity
  8
0
100
AcDbLine
 62
7
  6
CONTINUOUS
 10
7.7243338932
 20
14.6070844068
 11
8.3553338932
 21
14.6070844068
  0
LINE
  5
268
100
AcDbEntity
  8
0
100
AcDbLine
 62
7
  6
CONTINUOUS
 10
6.9603415401
 20
14.7400844068
 11
7.7803262464
 21
14.7400844068
  0
LINE
  5
269
100
AcDbEntity
  8
0
100
AcDbLine
 62
7
  6
CONTINUOUS
 10
10.6613388084
 20
14.7400844068
 11
11.5352738035
 21
14.7400844068
  0
LINE
  5
26A
100
AcDbEntity
  8
0
100
AcDbLine
 62
7
  6
CONTINUOUS
 10
10.753102508
 20
14.7924091869
 11
10.8329078862
 21
14.7924091869
  0
LINE
  5
26B
100
AcDbEntity
  8
0
100
AcDbLine
 62
7
  6
CONTINUOUS
 10
11.2317317806
 20
14.7924091869
 11
11.3264391333
 21
14.7924091869
  0
LINE
  5
26C
100
AcDbEntity
  8
0
100
AcDbLine
 62
7
  6
CONTINUOUS
 10
11.5769355786
 20
14.7924091869
 11
11.5918375531
 21
14.7924091869
  0
LINE
  5
26D
100
AcDbEntity
  8
0
100
AcDbLine
 62
7
  6
CONTINUOUS
 10
8.3553338932
 20
14.9064821698
 11
8.8982827937
 21
14.906482175
  0
LINE
  5
26E
100
AcDbEntity
  8
0
100
AcDbLine
 62
7
  6
CONTINUOUS
 10
6.823938994
 20
14.9220844068
 11
7.0153338932
 21
14.9220844068
  0
LINE
  5
26F
100
AcDbEntity
  8
0
100
AcDbLine
 62
7
  6
CONTINUOUS
 10
7.7253338932
 20
14.9220844068
 11
7.9167260673
 21
14.9220844068
  0
LINE
  5
270
100
AcDbEntity
  8
0
100
AcDbLine
 62
9
  6
CONTINUOUS
 10
7.9394803246
 20
14.9325209894
 11
7.740110517
 21
14.9325209894
  0
LINE
  5
271
100
AcDbEntity
  8
0
100
AcDbLine
 62
9
  6
CONTINUOUS
 10
7.0005572695
 20
14.9325209894
 11
6.8011874618
 21
14.9325209894
  0
LINE
  5
272
100
AcDbEntity
  8
0
100
AcDbLine
 62
7
  6
CONTINUOUS
 10
8.3553338932
 20
15.0676482348
 11
8.8982827892
 21
15.0676482244
  0
LINE
  5
273
100
AcDbEntity
  8
0
100
AcDbLine
 62
7
  6
CONTINUOUS
 10
11.5918375531
 20
15.1977596267
 11
11.5769355786
 21
15.1977596267
  0
LINE
  5
274
100
AcDbEntity
  8
0
100
AcDbLine
 62
7
  6
CONTINUOUS
 10
11.3264391333
 20
15.1977596267
 11
11.2317317806
 21
15.1977596267
  0
LINE
  5
275
100
AcDbEntity
  8
0
100
AcDbLine
 62
7
  6
CONTINUOUS
 10
10.8329078862
 20
15.1977596267
 11
10.753102508
 21
15.1977596267
  0
LINE
  5
276
100
AcDbEntity
  8
0
100
AcDbLine
 62
7
  6
CONTINUOUS
 10
7.6952978901
 20
15.2200844068
 11
7.0453338932
 21
15.2200844068
  0
LINE
  5
277
100
AcDbEntity
  8
0
100
AcDbLine
 62
7
  6
CONTINUOUS
 10
7.1350056347
 20
15.2225844068
 11
7.6953095286
 21
15.2225844068
  0
LINE
  5
278
100
AcDbEntity
  8
0
100
AcDbLine
 62
7
  6
CONTINUOUS
 10
11.5352634861
 20
15.2500844068
 11
10.6613491258
 21
15.2500844068
  0
LINE
  5
279
100
AcDbEntity
  8
0
100
AcDbLine
 62
7
  6
CONTINUOUS
 10
7.0453338932
 20
15.2550844068
 11
7.6953338932
 21
15.2550844068
  0
LINE
  5
27A
100
AcDbEntity
  8
0
100
AcDbLine
 62
7
  6
CONTINUOUS
 10
7.6953338932
 20
15.2600844068
 11
7.0453338932
 21
15.2600844068
  0
LINE
  5
27B
100
AcDbEntity
  8
0
100
AcDbLine
 62
7
  6
CONTINUOUS
 10
7.0453338932
 20
15.2900844068
 11
7.6953338932
 21
15.2900844068
  0
LINE
  5
27C
100
AcDbEntity
  8
0
100
AcDbLine
 62
7
  6
CONTINUOUS
 10
8.3553338932
 20
15.7765205788
 11
8.8982827942
 21
15.7765205893
  0
LINE
  5
27D
100
AcDbEntity
  8
0
100
AcDbLine
 62
9
  6
CONTINUOUS
 10
6.8011874618
 20
15.9116478242
 11
7.0005572695
 21
15.9116478242
  0
LINE
  5
27E
100
AcDbEntity
  8
0
100
AcDbLine
 62
9
  6
CONTINUOUS
 10
7.740110517
 20
15.9116478242
 11
7.9394803246
 21
15.9116478242
  0
LINE
  5
27F
100
AcDbEntity
  8
0
100
AcDbLine
 62
7
  6
CONTINUOUS
 10
7.9167287925
 20
15.9220844068
 11
6.8239417191
 21
15.9220844068
  0
LINE
  5
280
100
AcDbEntity
  8
0
100
AcDbLine
 62
7
  6
CONTINUOUS
 10
8.3553338932
 20
15.9376866439
 11
8.8982827902
 21
15.9376866386
  0
LINE
  5
281
100
AcDbEntity
  8
0
100
AcDbLine
 62
7
  6
CONTINUOUS
 10
6.9638338932
 20
15.9970844068
 11
7.7381216331
 21
15.9970844068
  0
LINE
  5
282
100
AcDbEntity
  8
0
100
AcDbLine
 62
7
  6
CONTINUOUS
 10
6.9203338932
 20
16.0570844068
 11
7.8203338932
 21
16.0570844068
  0
LINE
  5
283
100
AcDbEntity
  8
0
100
AcDbLine
 62
7
  6
CONTINUOUS
 10
7.8203338932
 20
16.1570844068
 11
6.9203338932
 21
16.1570844068
  0
LINE
  5
284
100
AcDbEntity
  8
0
100
AcDbLine
 62
7
  6
CONTINUOUS
 10
7.3453338932
 20
22.0990844068
 11
7.3553338932
 21
22.0890844068
  0
LINE
  5
285
100
AcDbEntity
  8
0
100
AcDbLine
 62
7
  6
CONTINUOUS
 10
7.3953338932
 20
22.0490844068
 11
7.3853338932
 21
22.0590844068
  0
LINE
  5
286
100
AcDbEntity
  8
0
100
AcDbLine
 62
7
  6
CONTINUOUS
 10
6.7303338932
 20
16.2370844068
 11
6.9685400596
 21
16.2370844068
  0
LINE
  5
287
100
AcDbEntity
  8
0
100
AcDbLine
 62
7
  6
CONTINUOUS
 10
7.7721277268
 20
16.2370844068
 11
8.3553338932
 21
16.2370844068
  0
LINE
  5
288
100
AcDbEntity
  8
0
100
AcDbLine
 62
7
  6
CONTINUOUS
 10
8.3553338932
 20
16.2921228158
 11
8.8982827939
 21
16.2921228211
  0
LINE
  5
289
100
AcDbEntity
  8
0
100
AcDbLine
 62
7
  6
CONTINUOUS
 10
8.898282824
 20
16.2970844068
 11
8.3553338932
 21
16.2970844068
  0
LINE
  5
28A
100
AcDbEntity
  8
0
100
AcDbLine
 62
7
  6
CONTINUOUS
 10
6.9603338932
 20
16.6260844068
 11
7.7803338932
 21
16.6260844068
  0
LINE
  5
28B
100
AcDbEntity
  8
0
100
AcDbLine
 62
7
  6
CONTINUOUS
 10
7.7803338932
 20
16.7260844068
 11
6.9603338932
 21
16.7260844068
  0
LINE
  5
28C
100
AcDbEntity
  8
0
100
AcDbLine
 62
9
  6
CONTINUOUS
 10
6.8303338932
 20
17.378544932
 11
7.9103338932
 21
17.378544932
  0
LINE
  5
28D
100
AcDbEntity
  8
0
100
AcDbLine
 62
9
  6
CONTINUOUS
 10
7.9103338932
 20
19.5636238816
 11
6.8303338932
 21
19.5636238816
  0
LINE
  5
28E
100
AcDbEntity
  8
0
100
AcDbLine
 62
7
  6
CONTINUOUS
 10
6.9203338932
 20
20.1940844068
 11
7.8203338932
 21
20.1940844068
  0
LINE
  5
28F
100
AcDbEntity
  8
0
100
AcDbLine
 62
9
  6
CONTINUOUS
 10
7.8203338932
 20
20.2440844068
 11
6.9203338932
 21
20.2440844068
  0
LINE
  5
290
100
AcDbEntity
  8
0
100
AcDbLine
 62
9
  6
CONTINUOUS
 10
6.9340838961
 20
20.2785218531
 11
7.8065838904
 21
20.2785218531
  0
LINE
  5
291
100
AcDbEntity
  8
0
100
AcDbLine
 62
9
  6
CONTINUOUS
 10
7.0303338932
 20
20.5195839531
 11
7.7103338932
 21
20.5195839531
  0
LINE
  5
292
100
AcDbEntity
  8
0
100
AcDbLine
 62
7
  6
CONTINUOUS
 10
7.2158436023
 20
22.0490844068
 11
7.5248241842
 21
22.0490844068
  0
LINE
  5
293
100
AcDbEntity
  8
0
100
AcDbLine
 62
7
  6
CONTINUOUS
 10
7.3953338932
 20
22.0590844068
 11
7.3853338932
 21
22.0590844068
  0
LINE
  5
294
100
AcDbEntity
  8
0
100
AcDbLine
 62
7
  6
CONTINUOUS
 10
7.3553338932
 20
22.0590844068
 11
7.3453338932
 21
22.0590844068
  0
LINE
  5
295
100
AcDbEntity
  8
0
100
AcDbLine
 62
7
  6
CONTINUOUS
 10
7.3953338932
 20
22.0890844068
 11
7.3853338932
 21
22.0890844068
  0
LINE
  5
296
100
AcDbEntity
  8
0
100
AcDbLine
 62
7
  6
CONTINUOUS
 10
7.3553338932
 20
22.0890844068
 11
7.3453338932
 21
22.0890844068
  0
LINE
  5
297
100
AcDbEntity
  8
0
100
AcDbLine
 62
7
  6
CONTINUOUS
 10
7.2158436023
 20
22.0990844068
 11
7.5248241842
 21
22.0990844068
  0
ARC
  5
298
100
AcDbEntity
  8
0
100
AcDbCircle
 62
7
  6
CONTINUOUS
 10
4.9591648696
 20
10.0592259156
 40
2.6911690237
100
AcDbArc
 50
357.1918747405
 51
0.0003703517
  0
ARC
  5
299
100
AcDbEntity
  8
0
100
AcDbCircle
 62
7
  6
CONTINUOUS
 10
4.9591624915
 20
10.0592259651
 40
2.1311714018
100
AcDbArc
 50
357.1924103498
 51
0.0004663366
  0
ARC
  5
29A
100
AcDbEntity
  8
0
100
AcDbCircle
 62
7
  6
CONTINUOUS
 10
7.3703338932
 20
-2.5779155932
 40
1.18
100
AcDbArc
 50
353.5864847568
 51
73.0266231559
  0
ARC
  5
29B
100
AcDbEntity
  8
0
100
AcDbCircle
 62
7
  6
CONTINUOUS
 10
7.3703338932
 20
-2.5779155932
 40
1.18
100
AcDbArc
 50
111.1756826967
 51
325.9559991856
  0
ARC
  5
29C
100
AcDbEntity
  8
0
100
AcDbCircle
 62
7
  6
CONTINUOUS
 10
7.3703338932
 20
-2.5779155932
 40
1.0000026738
100
AcDbArc
 50
111.4423219306
 51
325.4540901201
  0
ARC
  5
29D
100
AcDbEntity
  8
0
100
AcDbCircle
 62
7
  6
CONTINUOUS
 10
7.3703338932
 20
-2.5779155932
 40
1.0000026738
100
AcDbArc
 50
359.1012188262
 51
69.8407427411
  0
ARC
  5
29E
100
AcDbEntity
  8
0
100
AcDbCircle
 62
9
  6
CONTINUOUS
 10
7.3703338932
 20
-2.5779155932
 40
0.8130026738
100
AcDbArc
 50
10.4950867782
 51
64.7383556574
  0
ARC
  5
29F
100
AcDbEntity
  8
0
100
AcDbCircle
 62
9
  6
CONTINUOUS
 10
7.3703338932
 20
-2.5779155932
 40
0.8130026738
100
AcDbArc
 50
115.0853220348
 51
324.889889613
  0
ARC
  5
2A0
100
AcDbEntity
  8
0
100
AcDbCircle
 62
7
  6
CONTINUOUS
 10
7.3703338932
 20
-2.5779155932
 40
0.741
100
AcDbArc
 50
117.7045836
 51
324.5927458034
  0
ARC
  5
2A1
100
AcDbEntity
  8
0
100
AcDbCircle
 62
7
  6
CONTINUOUS
 10
7.3703338932
 20
-2.5779155932
 40
0.741
100
AcDbArc
 50
20.2939398907
 51
54.2596450795
  0
ARC
  5
2A2
100
AcDbEntity
  8
0
100
AcDbCircle
 62
7
  6
CONTINUOUS
 10
7.3703338932
 20
-2.5779155932
 40
0.469
100
AcDbArc
 50
106.2647118836
 51
328.9562484484
  0
ARC
  5
2A3
100
AcDbEntity
  8
0
100
AcDbCircle
 62
7
  6
CONTINUOUS
 10
7.3703338932
 20
-2.5779155932
 40
0.4609375
100
AcDbArc
 50
106.0633262645
 51
329.1479770096
  0
ARC
  5
2A4
100
AcDbEntity
  8
0
100
AcDbCircle
 62
9
  6
CONTINUOUS
 10
7.3703338932
 20
-2.5779155932
 40
0.4314382941
100
AcDbArc
 50
105.281212852
 51
330.0583556236
  0
ARC
  5
2A5
100
AcDbEntity
  8
0
100
AcDbCircle
 62
9
  6
CONTINUOUS
 10
7.3703338932
 20
-2.5779155932
 40
0.2695075316
100
AcDbArc
 50
94.6582019039
 51
338.681129975
  0
ARC
  5
2A6
100
AcDbEntity
  8
0
100
AcDbCircle
 62
9
  6
CONTINUOUS
 10
7.3703338932
 20
-2.5779155932
 40
0.2304326242
100
AcDbArc
 50
88.4743290479
 51
343.7559978141
  0
ARC
  5
2A7
100
AcDbEntity
  8
0
100
AcDbCircle
 62
7
  6
CONTINUOUS
 10
4.1355760693
 20
15.4220844068
 40
5.0
100
AcDbArc
 50
351.7900972579
 51
8.2099027421
  0
ARC
  5
2A8
100
AcDbEntity
  8
0
100
AcDbCircle
 62
7
  6
CONTINUOUS
 10
6.4103338932
 20
17.378544932
 40
1.5
100
AcDbArc
 50
334.168900088
 51
360.0
  0
ARC
  5
2A9
100
AcDbEntity
  8
0
100
AcDbCircle
 62
7
  6
CONTINUOUS
 10
7.3703338932
 20
15.4220844068
 40
0.7507329752
100
AcDbArc
 50
319.2988279583
 51
40.7011720417
  0
ARC
  5
2AA
100
AcDbEntity
  8
0
100
AcDbCircle
 62
7
  6
CONTINUOUS
 10
7.3703338932
 20
15.4220844068
 40
0.7507329752
100
AcDbArc
 50
139.2988279583
 51
220.7011720417
  0
ARC
  5
2AB
100
AcDbEntity
  8
0
100
AcDbCircle
 62
7
  6
CONTINUOUS
 10
7.3703338932
 20
15.4220844068
 40
0.625
100
AcDbArc
 50
53.375230752
 51
53.9474650343
  0
ARC
  5
2AC
100
AcDbEntity
  8
0
100
AcDbCircle
 62
7
  6
CONTINUOUS
 10
6.5781946928
 20
16.4224704793
 40
0.433
100
AcDbArc
 50
322.2004490872
 51
28.0498776995
  0
ARC
  5
2AD
100
AcDbEntity
  8
0
100
AcDbCircle
 62
7
  6
CONTINUOUS
 10
7.0153338932
 20
15.8920844068
 40
0.03
100
AcDbArc
 50
0.0
 51
89.9999999003
  0
ARC
  5
2AE
100
AcDbEntity
  8
0
100
AcDbCircle
 62
7
  6
CONTINUOUS
 10
7.7253338928
 20
15.8920844068
 40
0.03
100
AcDbArc
 50
89.9999997275
 51
180.0
  0
ARC
  5
2AF
100
AcDbEntity
  8
0
100
AcDbCircle
 62
7
  6
CONTINUOUS
 10
7.0153338936
 20
14.9520844068
 40
0.03
100
AcDbArc
 50
269.9999997278
 51
360.0
  0
ARC
  5
2B0
100
AcDbEntity
  8
0
100
AcDbCircle
 62
7
  6
CONTINUOUS
 10
6.8239310917
 20
14.9520844068
 40
0.03
100
AcDbArc
 50
220.7011720417
 51
270.0
  0
ARC
  5
2B1
100
AcDbEntity
  8
0
100
AcDbCircle
 62
7
  6
CONTINUOUS
 10
6.8239310917
 20
15.8920844068
 40
0.03
100
AcDbArc
 50
90.0
 51
139.2988279583
  0
ARC
  5
2B2
100
AcDbEntity
  8
0
100
AcDbCircle
 62
7
  6
CONTINUOUS
 10
7.7253338932
 20
14.9520844068
 40
0.03
100
AcDbArc
 50
180.0
 51
269.9999999007
  0
ARC
  5
2B3
100
AcDbEntity
  8
0
100
AcDbCircle
 62
7
  6
CONTINUOUS
 10
6.4103338932
 20
19.5636238816
 40
1.5
100
AcDbArc
 50
0.0
 51
24.904703135
  0
ARC
  5
2B4
100
AcDbEntity
  8
0
100
AcDbCircle
 62
7
  6
CONTINUOUS
 10
6.6803338932
 20
20.5195839531
 40
0.35
100
AcDbArc
 50
316.4688485074
 51
360.0
  0
ARC
  5
2B5
100
AcDbEntity
  8
0
100
AcDbCircle
 62
7
  6
CONTINUOUS
 10
6.9703338932
 20
20.2440844068
 40
0.05
100
AcDbArc
 50
136.4688431095
 51
180.0
  0
CIRCLE
  5
2B6
100
AcDbEntity
  8
0
100
AcDbCircle
 62
7
  6
CONTINUOUS
 10
6.6859754453
 20
21.8907111134
 40
0.023
  0
CIRCLE
  5
2B7
100
AcDbEntity
  8
0
100
AcDbCircle
 62
7
  6
CONTINUOUS
 10
6.7567548947
 20
21.7198344068
 40
0.023
  0
CIRCLE
  5
2B8
100
AcDbEntity
  8
0
100
AcDbCircle
 62
7
  6
CONTINUOUS
 10
6.6859754453
 20
22.2574577003
 40
0.023
  0
CIRCLE
  5
2B9
100
AcDbEntity
  8
0
100
AcDbCircle
 62
7
  6
CONTINUOUS
 10
6.7567548947
 20
22.4283344068
 40
0.023
  0
CIRCLE
  5
2BA
100
AcDbEntity
  8
0
100
AcDbCircle
 62
7
  6
CONTINUOUS
 10
6.6618338932
 20
22.0740844068
 40
0.023
  0
CIRCLE
  5
2BB
100
AcDbEntity
  8
0
100
AcDbCircle
 62
7
  6
CONTINUOUS
 10
6.8648773334
 20
22.1556789297
 40
0.023
  0
CIRCLE
  5
2BC
100
AcDbEntity
  8
0
100
AcDbCircle
 62
7
  6
CONTINUOUS
 10
7.0560067116
 20
21.9596786689
 40
0.023
  0
CIRCLE
  5
2BD
100
AcDbEntity
  8
0
100
AcDbCircle
 62
7
  6
CONTINUOUS
 10
6.8693487388
 20
21.5730992523
 40
0.023
  0
CIRCLE
  5
2BE
100
AcDbEntity
  8
0
100
AcDbCircle
 62
7
  6
CONTINUOUS
 10
7.0160838932
 20
21.4605054082
 40
0.023
  0
CIRCLE
  5
2BF
100
AcDbEntity
  8
0
100
AcDbCircle
 62
7
  6
CONTINUOUS
 10
6.8692086807
 20
21.9691200253
 40
0.023
  0
CIRCLE
  5
2C0
100
AcDbEntity
  8
0
100
AcDbCircle
 62
7
  6
CONTINUOUS
 10
6.9401090738
 20
21.7965044999
 40
0.023
  0
CIRCLE
  5
2C1
100
AcDbEntity
  8
0
100
AcDbCircle
 62
7
  6
CONTINUOUS
 10
7.0681601649
 20
21.6607624525
 40
0.023
  0
CIRCLE
  5
2C2
100
AcDbEntity
  8
0
100
AcDbCircle
 62
7
  6
CONTINUOUS
 10
7.0431435208
 20
22.1436308674
 40
0.023
  0
CIRCLE
  5
2C3
100
AcDbEntity
  8
0
100
AcDbCircle
 62
7
  6
CONTINUOUS
 10
7.0160838932
 20
22.6876634054
 40
0.023
  0
CIRCLE
  5
2C4
100
AcDbEntity
  8
0
100
AcDbCircle
 62
7
  6
CONTINUOUS
 10
6.8693487388
 20
22.5750695613
 40
0.023
  0
CIRCLE
  5
2C5
100
AcDbEntity
  8
0
100
AcDbCircle
 62
7
  6
CONTINUOUS
 10
7.0493038589
 20
22.4729374086
 40
0.023
  0
CIRCLE
  5
2C6
100
AcDbEntity
  8
0
100
AcDbCircle
 62
7
  6
CONTINUOUS
 10
6.9276904044
 20
22.3313988872
 40
0.023
  0
ARC
  5
2C7
100
AcDbEntity
  8
0
100
AcDbCircle
 62
7
  6
CONTINUOUS
 10
7.3703338932
 20
20.4220844068
 40
1.18
100
AcDbArc
 50
297.2393686796
 51
51.3788305338
  0
ARC
  5
2C8
100
AcDbEntity
  8
0
100
AcDbCircle
 62
7
  6
CONTINUOUS
 10
7.3703338932
 20
20.4220844068
 40
1.18
100
AcDbArc
 50
128.620751569
 51
242.7601796532
  0
ARC
  5
2C9
100
AcDbEntity
  8
0
100
AcDbCircle
 62
7
  6
CONTINUOUS
 10
7.3703338932
 20
20.4220844068
 40
1.0000026738
100
AcDbArc
 50
126.5710792572
 51
237.3806721446
  0
ARC
  5
2CA
100
AcDbEntity
  8
0
100
AcDbCircle
 62
7
  6
CONTINUOUS
 10
7.3703338932
 20
20.4220844068
 40
1.0000026738
100
AcDbArc
 50
302.6193278554
 51
53.426311973
  0
ARC
  5
2CB
100
AcDbEntity
  8
0
100
AcDbCircle
 62
9
  6
CONTINUOUS
 10
7.3703338932
 20
20.4220844068
 40
0.8130026738
100
AcDbArc
 50
309.7612094391
 51
59.3939735346
  0
ARC
  5
2CC
100
AcDbEntity
  8
0
100
AcDbCircle
 62
9
  6
CONTINUOUS
 10
7.3703338932
 20
20.4220844068
 40
0.8130026738
100
AcDbArc
 50
120.6132247155
 51
230.2368736644
  0
ARC
  5
2CD
100
AcDbEntity
  8
0
100
AcDbCircle
 62
7
  6
CONTINUOUS
 10
7.3703338932
 20
20.4220844068
 40
0.741
100
AcDbArc
 50
117.3821604223
 51
227.0344064959
  0
ARC
  5
2CE
100
AcDbEntity
  8
0
100
AcDbCircle
 62
7
  6
CONTINUOUS
 10
7.3703338932
 20
20.4220844068
 40
0.741
100
AcDbArc
 50
312.9660851862
 51
62.618125183
  0
ARC
  5
2CF
100
AcDbEntity
  8
0
100
AcDbCircle
 62
7
  6
CONTINUOUS
 10
7.3703338932
 20
20.4220844068
 40
0.469
100
AcDbArc
 50
340.9896741941
 51
43.428749178
  0
ARC
  5
2D0
100
AcDbEntity
  8
0
100
AcDbCircle
 62
7
  6
CONTINUOUS
 10
7.3703338932
 20
20.4220844068
 40
0.469
100
AcDbArc
 50
329.4082146131
 51
330.8399325424
  0
ARC
  5
2D1
100
AcDbEntity
  8
0
100
AcDbCircle
 62
7
  6
CONTINUOUS
 10
7.3703338932
 20
20.4220844068
 40
0.469
100
AcDbArc
 50
209.1602147356
 51
210.5960507757
  0
ARC
  5
2D2
100
AcDbEntity
  8
0
100
AcDbCircle
 62
7
  6
CONTINUOUS
 10
7.3703338932
 20
20.4220844068
 40
0.469
100
AcDbArc
 50
136.5739005666
 51
199.0150082546
  0
ARC
  5
2D3
100
AcDbEntity
  8
0
100
AcDbCircle
 62
7
  6
CONTINUOUS
 10
7.3703338932
 20
20.4220844068
 40
0.4609375
100
AcDbArc
 50
341.7192798646
 51
42.329833335
  0
ARC
  5
2D4
100
AcDbEntity
  8
0
100
AcDbCircle
 62
7
  6
CONTINUOUS
 10
7.3703338932
 20
20.4220844068
 40
0.4609375
100
AcDbArc
 50
137.670166665
 51
198.2807201354
  0
ARC
  5
2D5
100
AcDbEntity
  8
0
100
AcDbCircle
 62
9
  6
CONTINUOUS
 10
7.3703338932
 20
20.4220844068
 40
0.4314382941
100
AcDbArc
 50
344.288494796
 51
37.902410702
  0
ARC
  5
2D6
100
AcDbEntity
  8
0
100
AcDbCircle
 62
9
  6
CONTINUOUS
 10
7.3703338932
 20
20.4220844068
 40
0.4314382941
100
AcDbArc
 50
142.097589298
 51
195.711505204
  0
ARC
  5
2D7
100
AcDbEntity
  8
0
100
AcDbCircle
 62
7
  6
CONTINUOUS
 10
7.7703338932
 20
20.2440844068
 40
0.05
100
AcDbArc
 50
0.0
 51
43.5311568905
  0
ARC
  5
2D8
100
AcDbEntity
  8
0
100
AcDbCircle
 62
7
  6
CONTINUOUS
 10
7.3703338917
 20
21.786358938
 40
0.4085816753
100
AcDbArc
 50
267.3368288777
 51
272.6642028583
  0
ARC
  5
2D9
100
AcDbEntity
  8
0
100
AcDbCircle
 62
7
  6
CONTINUOUS
 10
7.3703338932
 20
21.819379607
 40
0.3541187964
100
AcDbArc
 50
85.9516777067
 51
94.0483222933
  0
CIRCLE
  5
2DA
100
AcDbEntity
  8
0
100
AcDbCircle
 62
7
  6
CONTINUOUS
 10
7.1643951297
 20
21.8104948097
 40
0.023
  0
CIRCLE
  5
2DB
100
AcDbEntity
  8
0
100
AcDbCircle
 62
7
  6
CONTINUOUS
 10
7.3353691223
 20
21.7414168328
 40
0.023
  0
CIRCLE
  5
2DC
100
AcDbEntity
  8
0
100
AcDbCircle
 62
7
  6
CONTINUOUS
 10
7.1869605998
 20
21.3897259589
 40
0.023
  0
CIRCLE
  5
2DD
100
AcDbEntity
  8
0
100
AcDbCircle
 62
7
  6
CONTINUOUS
 10
7.3703338932
 20
21.3655844068
 40
0.023
  0
CIRCLE
  5
2DE
100
AcDbEntity
  8
0
100
AcDbCircle
 62
7
  6
CONTINUOUS
 10
7.2363517563
 20
21.579925741
 40
0.023
  0
CIRCLE
  5
2DF
100
AcDbEntity
  8
0
100
AcDbCircle
 62
7
  6
CONTINUOUS
 10
7.4223414205
 20
21.5647326451
 40
0.023
  0
CIRCLE
  5
2E0
100
AcDbEntity
  8
0
100
AcDbCircle
 62
7
  6
CONTINUOUS
 10
7.12971473
 20
22.3064476317
 40
0.023
  0
CIRCLE
  5
2E1
100
AcDbEntity
  8
0
100
AcDbCircle
 62
7
  6
CONTINUOUS
 10
7.1869605998
 20
22.7584428547
 40
0.023
  0
CIRCLE
  5
2E2
100
AcDbEntity
  8
0
100
AcDbCircle
 62
7
  6
CONTINUOUS
 10
7.2135626693
 20
22.5614926375
 40
0.023
  0
CIRCLE
  5
2E3
100
AcDbEntity
  8
0
100
AcDbCircle
 62
7
  6
CONTINUOUS
 10
7.2894110192
 20
22.3986483272
 40
0.023
  0
CIRCLE
  5
2E4
100
AcDbEntity
  8
0
100
AcDbCircle
 62
7
  6
CONTINUOUS
 10
7.3703338932
 20
22.0740844068
 40
1.04
  0
CIRCLE
  5
2E5
100
AcDbEntity
  8
0
100
AcDbCircle
 62
7
  6
CONTINUOUS
 10
7.3703338932
 20
22.0740844068
 40
0.92
  0
CIRCLE
  5
2E6
100
AcDbEntity
  8
0
100
AcDbCircle
 62
7
  6
CONTINUOUS
 10
7.3703338932
 20
22.0740844068
 40
0.9115
  0
CIRCLE
  5
2E7
100
AcDbEntity
  8
0
100
AcDbCircle
 62
9
  6
CONTINUOUS
 10
7.3703338932
 20
22.0740844068
 40
0.8350000013
  0
CIRCLE
  5
2E8
100
AcDbEntity
  8
0
100
AcDbCircle
 62
7
  6
CONTINUOUS
 10
7.3703338932
 20
22.0740844068
 40
0.825
  0
CIRCLE
  5
2E9
100
AcDbEntity
  8
0
100
AcDbCircle
 62
9
  6
CONTINUOUS
 10
7.3703338932
 20
22.0740844068
 40
0.8167364826
  0
ARC
  5
2EA
100
AcDbEntity
  8
0
100
AcDbCircle
 62
7
  6
CONTINUOUS
 10
7.3703338932
 20
22.0740844068
 40
0.7311300255
100
AcDbArc
 50
344.812725589
 51
345.18770031
  0
ARC
  5
2EB
100
AcDbEntity
  8
0
100
AcDbCircle
 62
7
  6
CONTINUOUS
 10
7.3703338932
 20
22.0740844068
 40
0.7311300255
100
AcDbArc
 50
194.812725589
 51
195.18770031
  0
ARC
  5
2EC
100
AcDbEntity
  8
0
100
AcDbCircle
 62
7
  6
CONTINUOUS
 10
7.3703338932
 20
22.0740844068
 40
0.7311300255
100
AcDbArc
 50
209.812725589
 51
210.18770031
  0
ARC
  5
2ED
100
AcDbEntity
  8
0
100
AcDbCircle
 62
7
  6
CONTINUOUS
 10
7.3703338932
 20
22.0740844068
 40
0.7311300255
100
AcDbArc
 50
224.812725589
 51
225.18770031
  0
ARC
  5
2EE
100
AcDbEntity
  8
0
100
AcDbCircle
 62
7
  6
CONTINUOUS
 10
7.3703338932
 20
22.0740844068
 40
0.7311300255
100
AcDbArc
 50
239.812725589
 51
240.18770031
  0
ARC
  5
2EF
100
AcDbEntity
  8
0
100
AcDbCircle
 62
7
  6
CONTINUOUS
 10
7.3703338932
 20
22.0740844068
 40
0.7311300255
100
AcDbArc
 50
254.812725589
 51
255.18770031
  0
ARC
  5
2F0
100
AcDbEntity
  8
0
100
AcDbCircle
 62
7
  6
CONTINUOUS
 10
7.3703338932
 20
22.0740844068
 40
0.7311300255
100
AcDbArc
 50
269.812725589
 51
270.18770031
  0
ARC
  5
2F1
100
AcDbEntity
  8
0
100
AcDbCircle
 62
7
  6
CONTINUOUS
 10
7.3703338932
 20
22.0740844068
 40
0.7311300255
100
AcDbArc
 50
284.812725589
 51
285.18770031
  0
ARC
  5
2F2
100
AcDbEntity
  8
0
100
AcDbCircle
 62
7
  6
CONTINUOUS
 10
7.3703338932
 20
22.0740844068
 40
0.7311300255
100
AcDbArc
 50
299.812725589
 51
300.18770031
  0
ARC
  5
2F3
100
AcDbEntity
  8
0
100
AcDbCircle
 62
7
  6
CONTINUOUS
 10
7.3703338932
 20
22.0740844068
 40
0.7311300255
100
AcDbArc
 50
314.812725589
 51
315.18770031
  0
ARC
  5
2F4
100
AcDbEntity
  8
0
100
AcDbCircle
 62
7
  6
CONTINUOUS
 10
7.3703338932
 20
22.0740844068
 40
0.7311300255
100
AcDbArc
 50
329.812725589
 51
330.18770031
  0
ARC
  5
2F5
100
AcDbEntity
  8
0
100
AcDbCircle
 62
7
  6
CONTINUOUS
 10
7.3703338932
 20
22.0740844068
 40
0.7311300255
100
AcDbArc
 50
164.812725589
 51
165.18770031
  0
ARC
  5
2F6
100
AcDbEntity
  8
0
100
AcDbCircle
 62
7
  6
CONTINUOUS
 10
7.3703338932
 20
22.0740844068
 40
0.7311300255
100
AcDbArc
 50
14.812725589
 51
15.18770031
  0
ARC
  5
2F7
100
AcDbEntity
  8
0
100
AcDbCircle
 62
7
  6
CONTINUOUS
 10
7.3703338932
 20
22.0740844068
 40
0.7311300255
100
AcDbArc
 50
29.812725589
 51
30.18770031
  0
ARC
  5
2F8
100
AcDbEntity
  8
0
100
AcDbCircle
 62
7
  6
CONTINUOUS
 10
7.3703338932
 20
22.0740844068
 40
0.7311300255
100
AcDbArc
 50
44.812725589
 51
45.18770031
  0
ARC
  5
2F9
100
AcDbEntity
  8
0
100
AcDbCircle
 62
7
  6
CONTINUOUS
 10
7.3703338932
 20
22.0740844068
 40
0.7311300255
100
AcDbArc
 50
59.812725589
 51
60.18770031
  0
ARC
  5
2FA
100
AcDbEntity
  8
0
100
AcDbCircle
 62
7
  6
CONTINUOUS
 10
7.3703338932
 20
22.0740844068
 40
0.7311300255
100
AcDbArc
 50
74.812725589
 51
75.18770031
  0
ARC
  5
2FB
100
AcDbEntity
  8
0
100
AcDbCircle
 62
7
  6
CONTINUOUS
 10
7.3703338932
 20
22.0740844068
 40
0.7311300255
100
AcDbArc
 50
89.812725589
 51
90.18770031
  0
ARC
  5
2FC
100
AcDbEntity
  8
0
100
AcDbCircle
 62
7
  6
CONTINUOUS
 10
7.3703338932
 20
22.0740844068
 40
0.7311300255
100
AcDbArc
 50
104.812725589
 51
105.18770031
  0
ARC
  5
2FD
100
AcDbEntity
  8
0
100
AcDbCircle
 62
7
  6
CONTINUOUS
 10
7.3703338932
 20
22.0740844068
 40
0.7311300255
100
AcDbArc
 50
119.812725589
 51
120.18770031
  0
ARC
  5
2FE
100
AcDbEntity
  8
0
100
AcDbCircle
 62
7
  6
CONTINUOUS
 10
7.3703338932
 20
22.0740844068
 40
0.7311300255
100
AcDbArc
 50
134.812725589
 51
135.18770031
  0
ARC
  5
2FF
100
AcDbEntity
  8
0
100
AcDbCircle
 62
7
  6
CONTINUOUS
 10
7.3703338932
 20
22.0740844068
 40
0.7311300255
100
AcDbArc
 50
149.812725589
 51
150.18770031
  0
ARC
  5
300
100
AcDbEntity
  8
0
100
AcDbCircle
 62
7
  6
CONTINUOUS
 10
7.3703338932
 20
22.0740844068
 40
0.7311300255
100
AcDbArc
 50
179.8132087903
 51
180.1872133806
  0
ARC
  5
301
100
AcDbEntity
  8
0
100
AcDbCircle
 62
7
  6
CONTINUOUS
 10
7.3703338932
 20
22.0740844068
 40
0.7311300255
100
AcDbArc
 50
359.8132087903
 51
0.1872133806
  0
ARC
  5
302
100
AcDbEntity
  8
0
100
AcDbCircle
 62
9
  6
CONTINUOUS
 10
7.3703338932
 20
22.0740844068
 40
0.7128169401
100
AcDbArc
 50
343.1943369751
 51
346.8026778788
  0
ARC
  5
303
100
AcDbEntity
  8
0
100
AcDbCircle
 62
9
  6
CONTINUOUS
 10
7.3703338932
 20
22.0740844068
 40
0.7128169401
100
AcDbArc
 50
328.1990251619
 51
331.8009775979
  0
ARC
  5
304
100
AcDbEntity
  8
0
100
AcDbCircle
 62
9
  6
CONTINUOUS
 10
7.3703338932
 20
22.0740844068
 40
0.7128169401
100
AcDbArc
 50
313.1973813749
 51
316.8058552147
  0
ARC
  5
305
100
AcDbEntity
  8
0
100
AcDbCircle
 62
9
  6
CONTINUOUS
 10
7.3703338932
 20
22.0740844068
 40
0.7128169401
100
AcDbArc
 50
298.1934187048
 51
301.8067627373
  0
ARC
  5
306
100
AcDbEntity
  8
0
100
AcDbCircle
 62
9
  6
CONTINUOUS
 10
7.3703338932
 20
22.0740844068
 40
0.7128169401
100
AcDbArc
 50
283.1942939097
 51
286.8026575251
  0
ARC
  5
307
100
AcDbEntity
  8
0
100
AcDbCircle
 62
9
  6
CONTINUOUS
 10
7.3703338932
 20
22.0740844068
 40
0.7128169401
100
AcDbArc
 50
268.1990249655
 51
271.8010118014
  0
ARC
  5
308
100
AcDbEntity
  8
0
100
AcDbCircle
 62
9
  6
CONTINUOUS
 10
7.3703338932
 20
22.0740844068
 40
0.7128169401
100
AcDbArc
 50
253.197390118
 51
256.8058692255
  0
ARC
  5
309
100
AcDbEntity
  8
0
100
AcDbCircle
 62
9
  6
CONTINUOUS
 10
7.3703338932
 20
22.0740844068
 40
0.7128169401
100
AcDbArc
 50
238.1934234627
 51
241.806766728
  0
ARC
  5
30A
100
AcDbEntity
  8
0
100
AcDbCircle
 62
9
  6
CONTINUOUS
 10
7.3703338932
 20
22.0740844068
 40
0.7128169401
100
AcDbArc
 50
223.1942643228
 51
226.8026486724
  0
ARC
  5
30B
100
AcDbEntity
  8
0
100
AcDbCircle
 62
9
  6
CONTINUOUS
 10
7.3703338932
 20
22.0740844068
 40
0.7128169401
100
AcDbArc
 50
208.199040076
 51
211.8010306531
  0
ARC
  5
30C
100
AcDbEntity
  8
0
100
AcDbCircle
 62
9
  6
CONTINUOUS
 10
7.3703338932
 20
22.0740844068
 40
0.7128169401
100
AcDbArc
 50
193.1973898962
 51
196.8058688021
  0
ARC
  5
30D
100
AcDbEntity
  8
0
100
AcDbCircle
 62
9
  6
CONTINUOUS
 10
7.3703338932
 20
22.0740844068
 40
0.7128169401
100
AcDbArc
 50
178.1933776677
 51
181.8067538466
  0
ARC
  5
30E
100
AcDbEntity
  8
0
100
AcDbCircle
 62
9
  6
CONTINUOUS
 10
7.3703338932
 20
22.0740844068
 40
0.7128169401
100
AcDbArc
 50
163.1943369751
 51
166.8026778788
  0
ARC
  5
30F
100
AcDbEntity
  8
0
100
AcDbCircle
 62
9
  6
CONTINUOUS
 10
7.3703338932
 20
22.0740844068
 40
0.7128169401
100
AcDbArc
 50
148.1990251619
 51
151.8009775979
  0
ARC
  5
310
100
AcDbEntity
  8
0
100
AcDbCircle
 62
9
  6
CONTINUOUS
 10
7.3703338932
 20
22.0740844068
 40
0.7128169401
100
AcDbArc
 50
133.1973813749
 51
136.8058552147
  0
ARC
  5
311
100
AcDbEntity
  8
0
100
AcDbCircle
 62
9
  6
CONTINUOUS
 10
7.3703338932
 20
22.0740844068
 40
0.7128169401
100
AcDbArc
 50
118.1934187048
 51
121.8067627373
  0
ARC
  5
312
100
AcDbEntity
  8
0
100
AcDbCircle
 62
9
  6
CONTINUOUS
 10
7.3703338932
 20
22.0740844068
 40
0.7128169401
100
AcDbArc
 50
103.1942939097
 51
106.8026575251
  0
ARC
  5
313
100
AcDbEntity
  8
0
100
AcDbCircle
 62
9
  6
CONTINUOUS
 10
7.3703338932
 20
22.0740844068
 40
0.7128169401
100
AcDbArc
 50
88.1990249655
 51
91.8010118014
  0
ARC
  5
314
100
AcDbEntity
  8
0
100
AcDbCircle
 62
9
  6
CONTINUOUS
 10
7.3703338932
 20
22.0740844068
 40
0.7128169401
100
AcDbArc
 50
73.197390118
 51
76.8058692255
  0
ARC
  5
315
100
AcDbEntity
  8
0
100
AcDbCircle
 62
9
  6
CONTINUOUS
 10
7.3703338932
 20
22.0740844068
 40
0.7128169401
100
AcDbArc
 50
58.1934234627
 51
61.806766728
  0
ARC
  5
316
100
AcDbEntity
  8
0
100
AcDbCircle
 62
9
  6
CONTINUOUS
 10
7.3703338932
 20
22.0740844068
 40
0.7128169401
100
AcDbArc
 50
43.1942643228
 51
46.8026486724
  0
ARC
  5
317
100
AcDbEntity
  8
0
100
AcDbCircle
 62
9
  6
CONTINUOUS
 10
7.3703338932
 20
22.0740844068
 40
0.7128169401
100
AcDbArc
 50
28.199040076
 51
31.8010306531
  0
ARC
  5
318
100
AcDbEntity
  8
0
100
AcDbCircle
 62
9
  6
CONTINUOUS
 10
7.3703338932
 20
22.0740844068
 40
0.7128169401
100
AcDbArc
 50
13.1973898962
 51
16.8058688021
  0
ARC
  5
319
100
AcDbEntity
  8
0
100
AcDbCircle
 62
9
  6
CONTINUOUS
 10
7.3703338932
 20
22.0740844068
 40
0.7128169401
100
AcDbArc
 50
358.1933776677
 51
1.8067538466
  0
CIRCLE
  5
31A
100
AcDbEntity
  8
0
100
AcDbCircle
 62
9
  6
CONTINUOUS
 10
7.3703338932
 20
22.0740844068
 40
0.6382635196
  0
CIRCLE
  5
31B
100
AcDbEntity
  8
0
100
AcDbCircle
 62
7
  6
CONTINUOUS
 10
7.3703338932
 20
22.0740844068
 40
0.63
  0
ARC
  5
31C
100
AcDbEntity
  8
0
100
AcDbCircle
 62
7
  6
CONTINUOUS
 10
7.3703338932
 20
22.0740844068
 40
0.63
100
AcDbArc
 50
179.9999999999
 51
180.3134551289
  0
ARC
  5
31D
100
AcDbEntity
  8
0
100
AcDbCircle
 62
7
  6
CONTINUOUS
 10
7.3703338932
 20
22.0740844068
 40
0.63
100
AcDbArc
 50
184.4049193704
 51
355.4981329259
  0
ARC
  5
31E
100
AcDbEntity
  8
0
100
AcDbCircle
 62
7
  6
CONTINUOUS
 10
7.3703338932
 20
22.0740844068
 40
0.63
100
AcDbArc
 50
359.5964729484
 51
360.0
  0
CIRCLE
  5
31F
100
AcDbEntity
  8
0
100
AcDbCircle
 62
9
  6
CONTINUOUS
 10
7.3703338932
 20
22.0740844068
 40
0.6217364824
  0
ARC
  5
320
100
AcDbEntity
  8
0
100
AcDbCircle
 62
7
  6
CONTINUOUS
 10
7.3703338932
 20
22.0740844068
 40
0.5290636079
100
AcDbArc
 50
169.1748074765
 51
172.485185444
  0
ARC
  5
321
100
AcDbEntity
  8
0
100
AcDbCircle
 62
7
  6
CONTINUOUS
 10
7.3703338932
 20
22.0740844068
 40
0.5290636079
100
AcDbArc
 50
1.1748074765
 51
4.485185444
  0
ARC
  5
322
100
AcDbEntity
  8
0
100
AcDbCircle
 62
7
  6
CONTINUOUS
 10
7.3703338932
 20
22.0740844068
 40
0.5290636079
100
AcDbArc
 50
22.1748074765
 51
25.485185444
  0
ARC
  5
323
100
AcDbEntity
  8
0
100
AcDbCircle
 62
7
  6
CONTINUOUS
 10
7.3703338932
 20
22.0740844068
 40
0.5290636079
100
AcDbArc
 50
43.1748074765
 51
46.485185444
  0
ARC
  5
324
100
AcDbEntity
  8
0
100
AcDbCircle
 62
7
  6
CONTINUOUS
 10
7.3703338932
 20
22.0740844068
 40
0.5290636079
100
AcDbArc
 50
64.1748074765
 51
67.485185444
  0
ARC
  5
325
100
AcDbEntity
  8
0
100
AcDbCircle
 62
7
  6
CONTINUOUS
 10
7.3703338932
 20
22.0740844068
 40
0.5290636079
100
AcDbArc
 50
85.1748074765
 51
88.485185444
  0
ARC
  5
326
100
AcDbEntity
  8
0
100
AcDbCircle
 62
7
  6
CONTINUOUS
 10
7.3703338932
 20
22.0740844068
 40
0.5290636079
100
AcDbArc
 50
106.1748074765
 51
109.485185444
  0
ARC
  5
327
100
AcDbEntity
  8
0
100
AcDbCircle
 62
7
  6
CONTINUOUS
 10
7.3703338932
 20
22.0740844068
 40
0.5290636079
100
AcDbArc
 50
127.1748074765
 51
130.485185444
  0
ARC
  5
328
100
AcDbEntity
  8
0
100
AcDbCircle
 62
7
  6
CONTINUOUS
 10
7.3703338932
 20
22.0740844068
 40
0.5290636079
100
AcDbArc
 50
148.1748074765
 51
151.485185444
  0
ARC
  5
329
100
AcDbEntity
  8
0
100
AcDbCircle
 62
7
  6
CONTINUOUS
 10
7.3703338932
 20
22.0740844068
 40
0.5290636079
100
AcDbArc
 50
337.1748074765
 51
340.485185444
  0
ARC
  5
32A
100
AcDbEntity
  8
0
100
AcDbCircle
 62
7
  6
CONTINUOUS
 10
7.3703338932
 20
22.0740844068
 40
0.5290636079
100
AcDbArc
 50
190.1748074765
 51
193.485185444
  0
ARC
  5
32B
100
AcDbEntity
  8
0
100
AcDbCircle
 62
7
  6
CONTINUOUS
 10
7.3703338932
 20
22.0740844068
 40
0.5290636079
100
AcDbArc
 50
316.1748074765
 51
319.485185444
  0
ARC
  5
32C
100
AcDbEntity
  8
0
100
AcDbCircle
 62
7
  6
CONTINUOUS
 10
7.3703338932
 20
22.0740844068
 40
0.5290636079
100
AcDbArc
 50
211.1748074765
 51
214.485185444
  0
ARC
  5
32D
100
AcDbEntity
  8
0
100
AcDbCircle
 62
7
  6
CONTINUOUS
 10
7.3703338932
 20
22.0740844068
 40
0.5290636079
100
AcDbArc
 50
295.1748074765
 51
298.485185444
  0
ARC
  5
32E
100
AcDbEntity
  8
0
100
AcDbCircle
 62
7
  6
CONTINUOUS
 10
7.3703338932
 20
22.0740844068
 40
0.5290636079
100
AcDbArc
 50
232.1748074765
 51
235.485185444
  0
ARC
  5
32F
100
AcDbEntity
  8
0
100
AcDbCircle
 62
7
  6
CONTINUOUS
 10
7.3703338932
 20
22.0740844068
 40
0.5290636079
100
AcDbArc
 50
253.1748074765
 51
256.485185444
  0
ARC
  5
330
100
AcDbEntity
  8
0
100
AcDbCircle
 62
7
  6
CONTINUOUS
 10
7.3703338932
 20
22.0740844068
 40
0.5290636079
100
AcDbArc
 50
274.1748074765
 51
277.485185444
  0
CIRCLE
  5
331
100
AcDbEntity
  8
0
100
AcDbCircle
 62
9
  6
CONTINUOUS
 10
7.3703338932
 20
22.0740844068
 40
0.4632635014
  0
CIRCLE
  5
332
100
AcDbEntity
  8
0
100
AcDbCircle
 62
7
  6
CONTINUOUS
 10
7.3703338932
 20
22.0740844068
 40
0.455
  0
ARC
  5
333
100
AcDbEntity
  8
0
100
AcDbCircle
 62
7
  6
CONTINUOUS
 10
7.3703338932
 20
22.0740844068
 40
0.455
100
AcDbArc
 50
355.1739178255
 51
0.4203476613
  0
ARC
  5
334
100
AcDbEntity
  8
0
100
AcDbCircle
 62
7
  6
CONTINUOUS
 10
7.3703338932
 20
22.0740844068
 40
0.455
100
AcDbArc
 50
179.3919349366
 51
184.6479344439
  0
CIRCLE
  5
335
100
AcDbEntity
  8
0
100
AcDbCircle
 62
9
  6
CONTINUOUS
 10
7.3703338932
 20
22.0740844068
 40
0.4467364796
  0
CIRCLE
  5
336
100
AcDbEntity
  8
0
100
AcDbCircle
 62
9
  6
CONTINUOUS
 10
7.3703338932
 20
22.0740844068
 40
0.2732634895
  0
CIRCLE
  5
337
100
AcDbEntity
  8
0
100
AcDbCircle
 62
7
  6
CONTINUOUS
 10
7.3703338932
 20
22.0740844068
 40
0.265
  0
ARC
  5
338
100
AcDbEntity
  8
0
100
AcDbCircle
 62
7
  6
CONTINUOUS
 10
7.3703338932
 20
22.0740844068
 40
0.265
100
AcDbArc
 50
180.0
 51
354.2107853649
  0
ARC
  5
339
100
AcDbEntity
  8
0
100
AcDbCircle
 62
7
  6
CONTINUOUS
 10
7.3703338932
 20
22.0740844068
 40
0.265
100
AcDbArc
 50
359.0645126627
 51
360.0
  0
ARC
  5
33A
100
AcDbEntity
  8
0
100
AcDbCircle
 62
7
  6
CONTINUOUS
 10
7.3703338932
 20
22.0740844068
 40
0.265
100
AcDbArc
 50
174.210785365
 51
179.0645126627
  0
CIRCLE
  5
33B
100
AcDbEntity
  8
0
100
AcDbCircle
 62
9
  6
CONTINUOUS
 10
7.3703338932
 20
22.0740844068
 40
0.2567364498
  0
CIRCLE
  5
33C
100
AcDbEntity
  8
0
100
AcDbCircle
 62
9
  6
CONTINUOUS
 10
7.3703338932
 20
22.0740844068
 40
0.2081258402
  0
CIRCLE
  5
33D
100
AcDbEntity
  8
0
100
AcDbCircle
 62
9
  6
CONTINUOUS
 10
7.3703338932
 20
22.0740844068
 40
0.1990758504
  0
ARC
  5
33E
100
AcDbEntity
  8
0
100
AcDbCircle
 62
7
  6
CONTINUOUS
 10
7.3703338932
 20
22.3287892066
 40
0.3541187963
100
AcDbArc
 50
265.9516777061
 51
274.0483222939
  0
CIRCLE
  5
33F
100
AcDbEntity
  8
0
100
AcDbCircle
 62
7
  6
CONTINUOUS
 10
7.3703338932
 20
22.7825844068
 40
0.023
  0
CIRCLE
  5
340
100
AcDbEntity
  8
0
100
AcDbCircle
 62
7
  6
CONTINUOUS
 10
7.3986468353
 20
22.5853009728
 40
0.023
  0
CIRCLE
  5
341
100
AcDbEntity
  8
0
100
AcDbCircle
 62
7
  6
CONTINUOUS
 10
7.6540059814
 20
21.8968264129
 40
0.023
  0
CIRCLE
  5
342
100
AcDbEntity
  8
0
100
AcDbCircle
 62
7
  6
CONTINUOUS
 10
7.5169690418
 20
21.7734377983
 40
0.023
  0
CIRCLE
  5
343
100
AcDbEntity
  8
0
100
AcDbCircle
 62
7
  6
CONTINUOUS
 10
7.5537071867
 20
21.3897259589
 40
0.023
  0
CIRCLE
  5
344
100
AcDbEntity
  8
0
100
AcDbCircle
 62
7
  6
CONTINUOUS
 10
7.7245838932
 20
21.4605054082
 40
0.023
  0
CIRCLE
  5
345
100
AcDbEntity
  8
0
100
AcDbCircle
 62
7
  6
CONTINUOUS
 10
7.7498058711
 20
21.730362109
 40
0.023
  0
CIRCLE
  5
346
100
AcDbEntity
  8
0
100
AcDbCircle
 62
7
  6
CONTINUOUS
 10
7.6014224491
 20
21.6172014028
 40
0.023
  0
CIRCLE
  5
347
100
AcDbEntity
  8
0
100
AcDbCircle
 62
7
  6
CONTINUOUS
 10
7.7015785622
 20
22.1206378091
 40
0.023
  0
CIRCLE
  5
348
100
AcDbEntity
  8
0
100
AcDbCircle
 62
7
  6
CONTINUOUS
 10
7.6265757595
 20
22.2890968623
 40
0.023
  0
CIRCLE
  5
349
100
AcDbEntity
  8
0
100
AcDbCircle
 62
7
  6
CONTINUOUS
 10
7.4737000779
 20
22.3922128115
 40
0.023
  0
CIRCLE
  5
34A
100
AcDbEntity
  8
0
100
AcDbCircle
 62
7
  6
CONTINUOUS
 10
7.7245838932
 20
22.6876634054
 40
0.023
  0
CIRCLE
  5
34B
100
AcDbEntity
  8
0
100
AcDbCircle
 62
7
  6
CONTINUOUS
 10
7.5537071867
 20
22.7584428547
 40
0.023
  0
CIRCLE
  5
34C
100
AcDbEntity
  8
0
100
AcDbCircle
 62
7
  6
CONTINUOUS
 10
7.7334451604
 20
22.4350472964
 40
0.023
  0
CIRCLE
  5
34D
100
AcDbEntity
  8
0
100
AcDbCircle
 62
7
  6
CONTINUOUS
 10
7.5799699343
 20
22.5411997355
 40
0.023
  0
ARC
  5
34E
100
AcDbEntity
  8
0
100
AcDbCircle
 62
7
  6
CONTINUOUS
 10
8.1624730937
 20
16.4224704793
 40
0.433
100
AcDbArc
 50
151.9501223005
 51
217.7995509128
  0
ARC
  5
34F
100
AcDbEntity
  8
0
100
AcDbCircle
 62
7
  6
CONTINUOUS
 10
8.898282824
 20
16.1090844137
 40
0.188
100
AcDbArc
 50
8.2572000152
 51
90.0
  0
ARC
  5
350
100
AcDbEntity
  8
0
100
AcDbCircle
 62
7
  6
CONTINUOUS
 10
8.898282824
 20
14.7350843999
 40
0.188
100
AcDbArc
 50
270.0
 51
351.7427999848
  0
ARC
  5
351
100
AcDbEntity
  8
0
100
AcDbCircle
 62
7
  6
CONTINUOUS
 10
7.9167366947
 20
14.9520844068
 40
0.03
100
AcDbArc
 50
270.0
 51
319.2988279583
  0
ARC
  5
352
100
AcDbEntity
  8
0
100
AcDbCircle
 62
7
  6
CONTINUOUS
 10
7.9167366947
 20
15.8920844068
 40
0.03
100
AcDbArc
 50
40.7011720417
 51
90.0
  0
CIRCLE
  5
353
100
AcDbEntity
  8
0
100
AcDbCircle
 62
7
  6
CONTINUOUS
 10
7.8713190477
 20
21.5730992523
 40
0.023
  0
CIRCLE
  5
354
100
AcDbEntity
  8
0
100
AcDbCircle
 62
7
  6
CONTINUOUS
 10
7.8713190477
 20
22.5750695613
 40
0.023
  0
CIRCLE
  5
355
100
AcDbEntity
  8
0
100
AcDbCircle
 62
7
  6
CONTINUOUS
 10
7.8817094697
 20
22.099363248
 40
0.023
  0
CIRCLE
  5
356
100
AcDbEntity
  8
0
100
AcDbCircle
 62
7
  6
CONTINUOUS
 10
7.8386849955
 20
22.280944855
 40
0.023
  0
CIRCLE
  5
357
100
AcDbEntity
  8
0
100
AcDbCircle
 62
7
  6
CONTINUOUS
 10
7.8477805593
 20
21.8891825921
 40
0.023
  0
ARC
  5
358
100
AcDbEntity
  8
0
100
AcDbCircle
 62
7
  6
CONTINUOUS
 10
8.0603338932
 20
20.5195839531
 40
0.35
100
AcDbArc
 50
180.0
 51
223.5311514926
  0
CIRCLE
  5
359
100
AcDbEntity
  8
0
100
AcDbCircle
 62
7
  6
CONTINUOUS
 10
8.0546923412
 20
21.8907111134
 40
0.023
  0
CIRCLE
  5
35A
100
AcDbEntity
  8
0
100
AcDbCircle
 62
7
  6
CONTINUOUS
 10
7.9839128918
 20
21.7198344068
 40
0.023
  0
CIRCLE
  5
35B
100
AcDbEntity
  8
0
100
AcDbCircle
 62
7
  6
CONTINUOUS
 10
8.0546923412
 20
22.2574577003
 40
0.023
  0
CIRCLE
  5
35C
100
AcDbEntity
  8
0
100
AcDbCircle
 62
7
  6
CONTINUOUS
 10
7.9839128918
 20
22.4283344068
 40
0.023
  0
CIRCLE
  5
35D
100
AcDbEntity
  8
0
100
AcDbCircle
 62
7
  6
CONTINUOUS
 10
8.0788338932
 20
22.0740844068
 40
0.023
  0
ARC
  5
35E
100
AcDbEntity
  8
0
100
AcDbCircle
 62
7
  6
CONTINUOUS
 10
8.3303338932
 20
19.5636238816
 40
1.5
100
AcDbArc
 50
155.095296865
 51
180.0
  0
ARC
  5
35F
100
AcDbEntity
  8
0
100
AcDbCircle
 62
7
  6
CONTINUOUS
 10
8.3303338932
 20
17.378544932
 40
1.5
100
AcDbArc
 50
180.0
 51
205.831099912
  0
ARC
  5
360
100
AcDbEntity
  8
0
100
AcDbCircle
 62
7
  6
CONTINUOUS
 10
10.4658983245
 20
10.6558220968
 40
4.7072004843
100
AcDbArc
 50
84.9243470251
 51
85.200098879
  0
ARC
  5
361
100
AcDbEntity
  8
0
100
AcDbCircle
 62
7
  6
CONTINUOUS
 10
11.098306306
 20
16.2228603052
 40
1.04
100
AcDbArc
 50
291.3689883922
 51
248.6340814963
  0
ARC
  5
362
100
AcDbEntity
  8
0
100
AcDbCircle
 62
7
  6
CONTINUOUS
 10
10.9861559342
 20
14.3922464822
 40
0.9019456577
100
AcDbArc
 50
100.3418150762
 51
100.5745597512
  0
CIRCLE
  5
363
100
AcDbEntity
  8
0
100
AcDbCircle
 62
9
  6
CONTINUOUS
 10
11.098306306
 20
16.2228603052
 40
0.8774812032
  0
CIRCLE
  5
364
100
AcDbEntity
  8
0
100
AcDbCircle
 62
9
  6
CONTINUOUS
 10
11.098306306
 20
16.2228603052
 40
0.8609522739
  0
ARC
  5
365
100
AcDbEntity
  8
0
100
AcDbCircle
 62
7
  6
CONTINUOUS
 10
10.9610529633
 20
14.9595067146
 40
0.270528392
100
AcDbArc
 50
115.5254454355
 51
118.2737254801
  0
ARC
  5
366
100
AcDbEntity
  8
0
100
AcDbCircle
 62
7
  6
CONTINUOUS
 10
10.9610181842
 20
15.0305944374
 40
0.2704523285
100
AcDbArc
 50
241.7259735986
 51
244.4515062329
  0
ARC
  5
367
100
AcDbEntity
  8
0
100
AcDbCircle
 62
7
  6
CONTINUOUS
 10
11.4153127083
 20
14.9280641403
 40
0.223
100
AcDbArc
 50
302.5461444331
 51
318.8872777356
  0
ARC
  5
368
100
AcDbEntity
  8
0
100
AcDbCircle
 62
7
  6
CONTINUOUS
 10
11.4153127083
 20
15.0621046733
 40
0.223
100
AcDbArc
 50
41.1127222644
 51
57.4538555669
  0
ARC
  5
369
100
AcDbEntity
  8
0
100
AcDbCircle
 62
7
  6
CONTINUOUS
 10
10.6786719949
 20
15.1576291094
 40
0.0827490872
100
AcDbArc
 50
74.9266341341
 51
78.4299809143
  0
ARC
  5
36A
100
AcDbEntity
  8
0
100
AcDbCircle
 62
7
  6
CONTINUOUS
 10
10.7829415804
 20
15.2165927197
 40
0.0720104199
100
AcDbArc
 50
130.4651589793
 51
132.9969259957
  0
ARC
  5
36B
100
AcDbEntity
  8
0
100
AcDbCircle
 62
7
  6
CONTINUOUS
 10
10.7787582014
 20
15.2211524438
 40
0.0658226074
100
AcDbArc
 50
133.0403292861
 51
133.4297340328
  0
ARC
  5
36C
100
AcDbEntity
  8
0
100
AcDbCircle
 62
7
  6
CONTINUOUS
 10
10.7776893819
 20
15.2222810512
 40
0.0642682169
100
AcDbArc
 50
133.4294501155
 51
134.0955878378
  0
ARC
  5
36D
100
AcDbEntity
  8
0
100
AcDbCircle
 62
7
  6
CONTINUOUS
 10
10.7806589111
 20
15.3528579368
 40
0.0212588315
100
AcDbArc
 50
216.8589716192
 51
220.4176685581
  0
ARC
  5
36E
100
AcDbEntity
  8
0
100
AcDbCircle
 62
7
  6
CONTINUOUS
 10
11.4163761206
 20
15.3525202084
 40
0.0207182865
100
AcDbArc
 50
319.5465114516
 51
323.2519204818
  0
ARC
  5
36F
100
AcDbEntity
  8
0
100
AcDbCircle
 62
7
  6
CONTINUOUS
 10
11.4197101858
 20
15.3270021751
 40
0.0193667572
100
AcDbArc
 50
57.336544455
 51
60.5348170033
  0
CIRCLE
  5
370
100
AcDbEntity
  8
0
100
AcDbCircle
 62
9
  6
CONTINUOUS
 10
11.098306306
 20
16.2228603052
 40
0.0099566485
  0
SPLINE
  5
371
100
AcDbEntity
  8
0
100
AcDbSpline
 62
7
  6
CONTINUOUS
 70
0
 71
3
 72
22
 73
18
 74
0
 42
0.0000001
 43
0.0000001
 44
0.0000000001
 40
0.0
 40
0.0
 40
0.0
 40
0.0
 40
0.0310518959
 40
0.0660967807
 40
0.10535415
 40
0.1489453355
 40
0.1969247075
 40
0.2493088965
 40
0.3060764334
 40
0.3671733862
 40
0.4325316567
 40
0.5020637185
 40
0.5756586047
 40
0.6531981222
 40
0.7345534567
 40
0.8195763005
 40
1.0
 40
1.0
 40
1.0
 40
1.0
 10
11.4220869136
 20
15.3087069829
 30
0.0
 10
11.4211507065
 20
15.3096141325
 30
0.0
 10
11.4190260407
 20
15.3114102837
 30
0.0
 10
11.4153772839
 20
15.3139188997
 30
0.0
 10
11.4110871378
 20
15.3163954324
 30
0.0
 10
11.4061634376
 20
15.3188357725
 30
0.0
 10
11.400614606
 20
15.3212360332
 30
0.0
 10
11.3944507294
 20
15.3235908108
 30
0.0
 10
11.3876836717
 20
15.3258953203
 30
0.0
 10
11.3803269237
 20
15.3281452174
 30
0.0
 10
11.3723949878
 20
15.3303354818
 30
0.0
 10
11.3639037613
 20
15.3324614115
 30
0.0
 10
11.3548705467
 20
15.3345189895
 30
0.0
 10
11.3453136028
 20
15.3365037078
 30
0.0
 10
11.3352522526
 20
15.3384112197
 30
0.0
 10
11.3209061001
 20
15.3408961939
 30
0.0
 10
11.3098843599
 20
15.3425541389
 30
0.0
 10
11.3023811171
 20
15.3435906484
 30
0.0
  0
SPLINE
  5
372
100
AcDbEntity
  8
0
100
AcDbSpline
 62
7
  6
CONTINUOUS
 70
0
 71
3
 72
22
 73
18
 74
0
 42
0.0000001
 43
0.0000001
 44
0.0000000001
 40
0.0
 40
0.0
 40
0.0
 40
0.0
 40
0.1804229893
 40
0.265445561
 40
0.3468005762
 40
0.424339817
 40
0.4979346522
 40
0.5674666765
 40
0.6328248878
 40
0.6939220391
 40
0.7506898092
 40
0.8030741178
 40
0.8510537602
 40
0.894645233
 40
0.9339027577
 40
0.9689478567
 40
1.0
 40
1.0
 40
1.0
 40
1.0
 10
10.8942305744
 20
15.3435905214
 30
0.0
 10
10.8867274176
 20
15.3425540167
 30
0.0
 10
10.8757058023
 20
15.3408960736
 30
0.0
 10
10.8613598107
 20
15.3384111209
 30
0.0
 10
10.8512985726
 20
15.3365036202
 30
0.0
 10
10.8417417286
 20
15.3345189088
 30
0.0
 10
10.8327085959
 20
15.3324613496
 30
0.0
 10
10.8242174387
 20
15.3303354345
 30
0.0
 10
10.8162855611
 20
15.3281451712
 30
0.0
 10
10.8089288522
 20
15.3258952882
 30
0.0
 10
10.8021618214
 20
15.323590791
 30
0.0
 10
10.7959979712
 20
15.3212360076
 30
0.0
 10
10.790449154
 20
15.3188357555
 30
0.0
 10
10.7855254593
 20
15.3163954279
 30
0.0
 10
10.7812353242
 20
15.3139188937
 30
0.0
 10
10.7775865736
 20
15.3114102813
 30
0.0
 10
10.7754619069
 20
15.3096141328
 30
0.0
 10
10.7745256991
 20
15.3087069828
 30
0.0
  0
SPLINE
  5
373
100
AcDbEntity
  8
0
100
AcDbSpline
 62
7
  6
CONTINUOUS
 70
0
 71
3
 72
10
 73
6
 74
0
 42
0.0000001
 43
0.0000001
 44
0.0000000001
 40
0.0
 40
0.0
 40
0.0
 40
0.0
 40
0.4647460094
 40
0.7224986472
 40
1.0
 40
1.0
 40
1.0
 40
1.0
 10
11.4807812836
 20
15.2500925708
 30
0.0
 10
11.4803668523
 20
15.2511082312
 30
0.0
 10
11.4794988012
 20
15.2525998985
 30
0.0
 10
11.4780213375
 20
15.2544416969
 30
0.0
 10
11.4771454589
 20
15.2553551337
 30
0.0
 10
11.476675062
 20
15.2558109286
 30
0.0
  0
SPLINE
  5
374
100
AcDbEntity
  8
0
100
AcDbSpline
 62
7
  6
CONTINUOUS
 70
0
 71
3
 72
45
 73
41
 74
0
 42
0.0000001
 43
0.0000001
 44
0.0000000001
 40
0.0
 40
0.0
 40
0.0
 40
0.0
 40
0.0046525333
 40
0.0098138207
 40
0.0155112608
 40
0.0217629892
 40
0.0285791738
 40
0.0359653921
 40
0.0439241625
 40
0.0524551859
 40
0.0615548629
 40
0.0712180213
 40
0.0814385
 40
0.0922088069
 40
0.1153583745
 40
0.1405817294
 40
0.1677783026
 40
0.1968353001
 40
0.2276295142
 40
0.2600282043
 40
0.2938909258
 40
0.3290696561
 40
0.365410771
 40
0.4027547692
 40
0.4409385149
 40
0.4797948235
 40
0.5191544907
 40
0.5588459579
 40
0.5986972614
 40
0.6385361396
 40
0.6781913001
 40
0.7174932139
 40
0.7562744218
 40
0.7943711477
 40
0.8316228427
 40
0.8678751404
 40
0.9029778488
 40
0.9367889892
 40
0.9691717673
 40
1.0
 40
1.0
 40
1.0
 40
1.0
 10
11.476675062
 20
15.2558109286
 30
0.0
 10
11.4759396644
 20
15.2565234981
 30
0.0
 10
11.4743021484
 20
15.2579384662
 30
0.0
 10
11.471531138
 20
15.2599379532
 30
0.0
 10
11.4683252989
 20
15.2619191856
 30
0.0
 10
11.4646880165
 20
15.2638799006
 30
0.0
 10
11.4606231988
 20
15.2658183727
 30
0.0
 10
11.4561354546
 20
15.2677321082
 30
0.0
 10
11.4512296892
 20
15.2696184901
 30
0.0
 10
11.445911468
 20
15.2714748101
 30
0.0
 10
11.4401872113
 20
15.2732989285
 30
0.0
 10
11.4340637319
 20
15.2750884324
 30
0.0
 10
11.4275480761
 20
15.2768409433
 30
0.0
 10
11.418118697
 20
15.2791815361
 30
0.0
 10
11.405403083
 20
15.2819784477
 30
0.0
 10
11.3890601144
 20
15.2850777709
 30
0.0
 10
11.371362096
 20
15.2879789184
 30
0.0
 10
11.352391454
 20
15.2906661046
 30
0.0
 10
11.33223606
 20
15.2931246442
 30
0.0
 10
11.3109890111
 20
15.2953410925
 30
0.0
 10
11.2887481503
 20
15.2973031539
 30
0.0
 10
11.2656154402
 20
15.2989999491
 30
0.0
 10
11.2416966557
 20
15.3004216682
 30
0.0
 10
11.2171006506
 20
15.3015601061
 30
0.0
 10
11.1919390534
 20
15.3024080332
 30
0.0
 10
11.1663255088
 20
15.3029600218
 30
0.0
 10
11.1403754114
 20
15.3032114981
 30
0.0
 10
11.1142051619
 20
15.3031598675
 30
0.0
 10
11.087931811
 20
15.3028032263
 30
0.0
 10
11.0616723508
 20
15.3021418392
 30
0.0
 10
11.0355432929
 20
15.301176467
 30
0.0
 10
11.0096601272
 20
15.299910188
 30
0.0
 10
10.9841368382
 20
15.2983463653
 30
0.0
 10
10.9590855058
 20
15.2964908538
 30
0.0
 10
10.9346156088
 20
15.2943495006
 30
0.0
 10
10.9108337624
 20
15.2919308181
 30
0.0
 10
10.8878429823
 20
15.2892430059
 30
0.0
 10
10.865742604
 20
15.2862970959
 30
0.0
 10
10.8446276458
 20
15.2831034733
 30
0.0
 10
10.8309133269
 20
15.2807574865
 30
0.0
 10
10.8242384537
 20
15.2795393871
 30
0.0
  0
SPLINE
  5
375
100
AcDbEntity
  8
0
100
AcDbSpline
 62
7
  6
CONTINUOUS
 70
0
 71
3
 72
15
 73
11
 74
0
 42
0.0000001
 43
0.0000001
 44
0.0000000001
 40
0.0
 40
0.0
 40
0.0
 40
0.0
 40
0.1557199404
 40
0.3032982198
 40
0.4423504478
 40
0.5725497113
 40
0.6936091253
 40
0.8052958873
 40
0.9074555639
 40
1.0
 40
1.0
 40
1.0
 40
1.0
 10
10.820635473
 20
15.2788743334
 30
0.0
 10
10.8153172049
 20
15.2778814022
 30
0.0
 10
10.804976036
 20
15.2758528247
 30
0.0
 10
10.7899583201
 20
15.2725822139
 30
0.0
 10
10.7758823329
 20
15.269171275
 30
0.0
 10
10.7627904021
 20
15.2656303001
 30
0.0
 10
10.7507214309
 20
15.2619693858
 30
0.0
 10
10.7397107129
 20
15.2581983857
 30
0.0
 10
10.7297902713
 20
15.2543293048
 30
0.0
 10
10.7236165183
 20
15.2515537481
 30
0.0
 10
10.7207288454
 20
15.2501397939
 30
0.0
  0
SPLINE
  5
376
100
AcDbEntity
  8
0
100
AcDbSpline
 62
7
  6
CONTINUOUS
 70
0
 71
3
 72
44
 73
40
 74
0
 42
0.0000001
 43
0.0000001
 44
0.0000000001
 40
0.0
 40
0.0
 40
0.0
 40
0.0
 40
0.0054892485
 40
0.0114935956
 40
0.0180224102
 40
0.025081996
 40
0.0326764379
 40
0.0408081874
 40
0.0494784738
 40
0.0586874434
 40
0.0684302729
 40
0.0786968202
 40
0.1007561694
 40
0.1247737472
 40
0.1506523197
 40
0.1782916496
 40
0.2075895144
 40
0.2384423686
 40
0.2707457942
 40
0.3043919341
 40
0.3392452494
 40
0.3751546049
 40
0.4119682043
 40
0.4495339314
 40
0.4876995036
 40
0.526312603
 40
0.5652209969
 40
0.6042726521
 40
0.6433155659
 40
0.682197302
 40
0.7207653996
 40
0.758867565
 40
0.796351811
 40
0.8330666187
 40
0.8688611323
 40
0.9035854054
 40
0.9370933348
 40
0.969265929
 40
1.0
 40
1.0
 40
1.0
 40
1.0
 10
11.4587161254
 20
15.2500855023
 30
0.0
 10
11.4577655672
 20
15.2506669893
 30
0.0
 10
11.4557344174
 20
15.2518183637
 30
0.0
 10
11.4524594298
 20
15.2534519996
 30
0.0
 10
11.4488233331
 20
15.2550666356
 30
0.0
 10
11.4448284192
 20
15.2566601012
 30
0.0
 10
11.4404768168
 20
15.2582303083
 30
0.0
 10
11.4357708056
 20
15.2597750869
 30
0.0
 10
11.4307127395
 20
15.2612923173
 30
0.0
 10
11.4253058222
 20
15.2627794011
 30
0.0
 10
11.4195554149
 20
15.2642345531
 30
0.0
 10
11.4112390369
 20
15.2661773551
 30
0.0
 10
11.4000372432
 20
15.2684977766
 30
0.0
 10
11.3856572665
 20
15.2710704808
 30
0.0
 10
11.3701019177
 20
15.273480112
 30
0.0
 10
11.3534383884
 20
15.2757134664
 30
0.0
 10
11.3357337959
 20
15.2777573033
 30
0.0
 10
11.3170554489
 20
15.2795984947
 30
0.0
 10
11.297471304
 20
15.2812242011
 30
0.0
 10
11.2770554438
 20
15.2826201846
 30
0.0
 10
11.2558917637
 20
15.2837803582
 30
0.0
 10
11.2340727627
 20
15.2847005358
 30
0.0
 10
11.2116939651
 20
15.2853756542
 30
0.0
 10
11.188850956
 20
15.2858008888
 30
0.0
 10
11.1656393288
 20
15.2859714016
 30
0.0
 10
11.1421546845
 20
15.2858823593
 30
0.0
 10
11.1184926244
 20
15.2855290949
 30
0.0
 10
11.0947488169
 20
15.2849064172
 30
0.0
 10
11.0710191276
 20
15.2840113254
 30
0.0
 10
11.047399292
 20
15.2828492903
 30
0.0
 10
11.0239851395
 20
15.2814247223
 30
0.0
 10
11.0008725017
 20
15.2797423497
 30
0.0
 10
10.9781572006
 20
15.2778068414
 30
0.0
 10
10.9559350348
 20
15.2756229561
 30
0.0
 10
10.9343017937
 20
15.2731953516
 30
0.0
 10
10.9133526394
 20
15.2705291487
 30
0.0
 10
10.8931772615
 20
15.2676269683
 30
0.0
 10
10.8738556357
 20
15.2644997904
 30
0.0
 10
10.8612898191
 20
15.2622197603
 30
0.0
 10
10.8551634072
 20
15.2610399627
 30
0.0
  0
SPLINE
  5
377
100
AcDbEntity
  8
0
100
AcDbSpline
 62
7
  6
CONTINUOUS
 70
0
 71
3
 72
11
 73
7
 74
0
 42
0.0000001
 43
0.0000001
 44
0.0000000001
 40
0.0
 40
0.0
 40
0.0
 40
0.0
 40
0.2666026024
 40
0.5224538065
 40
0.7670749252
 40
1.0
 40
1.0
 40
1.0
 40
1.0
 10
10.8551634072
 20
15.2610399627
 30
0.0
 10
10.8508549308
 20
15.2602102552
 30
0.0
 10
10.8424238609
 20
15.2585203284
 30
0.0
 10
10.8300884726
 20
15.255832401
 30
0.0
 10
10.8183435566
 20
15.2530471367
 30
0.0
 10
10.8107338774
 20
15.2510793675
 30
0.0
 10
10.8070339219
 20
15.2500767725
 30
0.0
  0
SPLINE
  5
378
100
AcDbEntity
  8
0
100
AcDbSpline
 62
7
  6
CONTINUOUS
 70
0
 71
3
 72
13
 73
9
 74
0
 42
0.0000001
 43
0.0000001
 44
0.0000000001
 40
0.0
 40
0.0
 40
0.0
 40
0.0
 40
0.2561937904
 40
0.5115510815
 40
0.6373624345
 40
0.7611072488
 40
0.8821826064
 40
1.0
 40
1.0
 40
1.0
 40
1.0
 10
11.0481184239
 20
15.2502456336
 30
0.0
 10
11.0674015973
 20
15.2511939379
 30
0.0
 10
11.1059306727
 20
15.2525949775
 30
0.0
 10
11.1539632119
 20
15.2531646431
 30
0.0
 10
11.1920129128
 20
15.252908895
 30
0.0
 10
11.2199388757
 20
15.2523695923
 30
0.0
 10
11.2472533858
 20
15.2514891746
 30
0.0
 10
11.2652380033
 20
15.2506677261
 30
0.0
 10
11.2741042187
 20
15.2501991878
 30
0.0
  0
SPLINE
  5
379
100
AcDbEntity
  8
0
100
AcDbSpline
 62
7
  6
CONTINUOUS
 70
0
 71
3
 72
27
 73
23
 74
0
 42
0.0000001
 43
0.0000001
 44
0.0000000001
 40
0.0
 40
0.0
 40
0.0
 40
0.0
 40
0.0210043313
 40
0.043304566
 40
0.0668500665
 40
0.0915891734
 40
0.1174694771
 40
0.1444380158
 40
0.1724414219
 40
0.2014260346
 40
0.2621118845
 40
0.3259433995
 40
0.3922990157
 40
0.4605541289
 40
0.5300833805
 40
0.6002618322
 40
0.670465236
 40
0.7400678912
 40
0.8084442434
 40
0.8749705731
 40
0.9390265765
 40
1.0
 40
1.0
 40
1.0
 40
1.0
 10
11.403488758
 20
15.2501694288
 30
0.0
 10
11.3999780474
 20
15.2508722332
 30
0.0
 10
11.3927237716
 20
15.2522407778
 30
0.0
 10
11.3814874976
 20
15.2541404236
 30
0.0
 10
11.36959115
 20
15.2559442156
 30
0.0
 10
11.3570637882
 20
15.257646509
 30
0.0
 10
11.3439344048
 20
15.2592416918
 30
0.0
 10
11.3302320497
 20
15.2607241813
 30
0.0
 10
11.3159857616
 20
15.2620883839
 30
0.0
 10
11.295997323
 20
15.2637681181
 30
0.0
 10
11.2698880163
 20
15.2655179127
 30
0.0
 10
11.2373862911
 20
15.2670490001
 30
0.0
 10
11.2035724877
 20
15.2680266839
 30
0.0
 10
11.1687758137
 20
15.2684333411
 30
0.0
 10
11.1333255926
 20
15.2682523651
 30
0.0
 10
11.0975513407
 20
15.2674667935
 30
0.0
 10
11.0617834863
 20
15.2660619218
 30
0.0
 10
11.0263520091
 20
15.2640549412
 30
0.0
 10
10.9915869787
 20
15.2614618122
 30
0.0
 10
10.9578183406
 20
15.2582989653
 30
0.0
 10
10.9253756495
 20
15.2545840821
 30
0.0
 10
10.9042610895
 20
15.2516679588
 30
0.0
 10
10.8939857648
 20
15.2501055136
 30
0.0
  0
SPLINE
  5
37A
100
AcDbEntity
  8
0
100
AcDbSpline
 62
9
  6
CONTINUOUS
 70
0
 71
3
 72
14
 73
10
 74
0
 42
0.0000001
 43
0.0000001
 44
0.0000000001
 40
0.0
 40
0.0
 40
0.0
 40
0.0
 40
0.144499241
 40
0.2830171844
 40
0.5405797294
 40
0.6609411009
 40
0.7768056936
 40
0.889386081
 40
1.0
 40
1.0
 40
1.0
 40
1.0
 10
7.740110517
 20
14.9325209895
 30
0.0
 10
7.7396652238
 20
14.9317241961
 30
0.0
 10
7.7387204767
 20
14.9302019806
 30
0.0
 10
7.7366387365
 20
14.9274916002
 30
0.0
 10
7.7342329761
 20
14.9252306321
 30
0.0
 10
7.7315651492
 20
14.9235969138
 30
0.0
 10
7.7295301854
 20
14.9227294701
 30
0.0
 10
7.7274451071
 20
14.9222036984
 30
0.0
 10
7.7260326241
 20
14.9220844068
 30
0.0
 10
7.7253338932
 20
14.9220844068
 30
0.0
  0
SPLINE
  5
37B
100
AcDbEntity
  8
0
100
AcDbSpline
 62
9
  6
CONTINUOUS
 70
0
 71
3
 72
14
 73
10
 74
0
 42
0.0000001
 43
0.0000001
 44
0.0000000001
 40
0.0
 40
0.0
 40
0.0
 40
0.0
 40
0.110613919
 40
0.2231943063
 40
0.339058899
 40
0.4594202705
 40
0.7169828155
 40
0.855500759
 40
1.0
 40
1.0
 40
1.0
 40
1.0
 10
7.0153338932
 20
14.9220844068
 30
0.0
 10
7.0146351624
 20
14.9220844068
 30
0.0
 10
7.0132226794
 20
14.9222036984
 30
0.0
 10
7.0111376011
 20
14.9227294701
 30
0.0
 10
7.0091026372
 20
14.9235969138
 30
0.0
 10
7.0064348103
 20
14.9252306321
 30
0.0
 10
7.00402905
 20
14.9274916002
 30
0.0
 10
7.0019473097
 20
14.9302019806
 30
0.0
 10
7.0010025627
 20
14.9317241961
 30
0.0
 10
7.0005572695
 20
14.9325209894
 30
0.0
  0
SPLINE
  5
37C
100
AcDbEntity
  8
0
100
AcDbSpline
 62
9
  6
CONTINUOUS
 70
0
 71
3
 72
9
 73
5
 74
0
 42
0.0000001
 43
0.0000001
 44
0.0000000001
 40
0.0
 40
0.0
 40
0.0
 40
0.0
 40
0.4928744638
 40
1.0
 40
1.0
 40
1.0
 40
1.0
 10
7.0005572695
 20
15.9116478242
 30
0.0
 10
7.0028466997
 20
15.9126187477
 30
0.0
 10
7.0077178132
 20
15.9140818233
 30
0.0
 10
7.0127751876
 20
15.9145638118
 30
0.0
 10
7.0153338932
 20
15.9145638118
 30
0.0
  0
SPLINE
  5
37D
100
AcDbEntity
  8
0
100
AcDbSpline
 62
9
  6
CONTINUOUS
 70
0
 71
3
 72
16
 73
12
 74
0
 42
0.0000001
 43
0.0000001
 44
0.0000000001
 40
0.0
 40
0.0
 40
0.0
 40
0.0
 40
0.1417369666
 40
0.2813867896
 40
0.4164146176
 40
0.5453974006
 40
0.667514487
 40
0.7828894903
 40
0.8385618115
 40
0.8931690109
 40
1.0
 40
1.0
 40
1.0
 40
1.0
 10
7.0153338932
 20
15.9145638118
 30
0.0
 10
7.0172884733
 20
15.9145638118
 30
0.0
 10
7.021174804
 20
15.9142775094
 30
0.0
 10
7.0267979293
 20
15.9130136872
 30
0.0
 10
7.0319951635
 20
15.9109515349
 30
0.0
 10
7.03656617
 20
15.9081661808
 30
0.0
 10
7.0403440083
 20
15.9047612286
 30
0.0
 10
7.0427329783
 20
15.9014537256
 30
0.0
 10
7.0440802591
 20
15.8986403693
 30
0.0
 10
7.0450321868
 20
15.8957962689
 30
0.0
 10
7.0453338932
 20
15.8935576267
 30
0.0
 10
7.0453338932
 20
15.8920844068
 30
0.0
  0
SPLINE
  5
37E
100
AcDbEntity
  8
0
100
AcDbSpline
 62
9
  6
CONTINUOUS
 70
0
 71
3
 72
16
 73
12
 74
0
 42
0.0000001
 43
0.0000001
 44
0.0000000001
 40
0.0
 40
0.0
 40
0.0
 40
0.0
 40
0.1068309891
 40
0.1614381885
 40
0.2171105097
 40
0.332485513
 40
0.4546025994
 40
0.5835853824
 40
0.7186132104
 40
0.8582630334
 40
1.0
 40
1.0
 40
1.0
 40
1.0
 10
7.0453338932
 20
14.9520844068
 30
0.0
 10
7.0453338932
 20
14.9506111869
 30
0.0
 10
7.0450321868
 20
14.9483725447
 30
0.0
 10
7.0440802591
 20
14.9455284443
 30
0.0
 10
7.0427329783
 20
14.942715088
 30
0.0
 10
7.0403440083
 20
14.939407585
 30
0.0
 10
7.03656617
 20
14.9360026328
 30
0.0
 10
7.0319951635
 20
14.9332172787
 30
0.0
 10
7.0267979293
 20
14.9311551264
 30
0.0
 10
7.021174804
 20
14.9298913043
 30
0.0
 10
7.0172884733
 20
14.9296050018
 30
0.0
 10
7.0153338932
 20
14.9296050018
 30
0.0
  0
SPLINE
  5
37F
100
AcDbEntity
  8
0
100
AcDbSpline
 62
9
  6
CONTINUOUS
 70
0
 71
3
 72
9
 73
5
 74
0
 42
0.0000001
 43
0.0000001
 44
0.0000000001
 40
0.0
 40
0.0
 40
0.0
 40
0.0
 40
0.5071255362
 40
1.0
 40
1.0
 40
1.0
 40
1.0
 10
7.0153338932
 20
14.9296050018
 30
0.0
 10
7.0127751876
 20
14.9296050018
 30
0.0
 10
7.0077178132
 20
14.9300869903
 30
0.0
 10
7.0028466997
 20
14.931550066
 30
0.0
 10
7.0005572695
 20
14.9325209894
 30
0.0
  0
SPLINE
  5
380
100
AcDbEntity
  8
0
100
AcDbSpline
 62
9
  6
CONTINUOUS
 70
0
 71
3
 72
14
 73
10
 74
0
 42
0.0000001
 43
0.0000001
 44
0.0000000001
 40
0.0
 40
0.0
 40
0.0
 40
0.0
 40
0.144499241
 40
0.2830171844
 40
0.5405797294
 40
0.6609411009
 40
0.7768056936
 40
0.889386081
 40
1.0
 40
1.0
 40
1.0
 40
1.0
 10
7.0005572695
 20
15.9116478242
 30
0.0
 10
7.0010025627
 20
15.9124446175
 30
0.0
 10
7.0019473097
 20
15.913966833
 30
0.0
 10
7.00402905
 20
15.9166772134
 30
0.0
 10
7.0064348103
 20
15.9189381815
 30
0.0
 10
7.0091026372
 20
15.9205718999
 30
0.0
 10
7.0111376011
 20
15.9214393435
 30
0.0
 10
7.0132226794
 20
15.9219651153
 30
0.0
 10
7.0146351624
 20
15.9220844068
 30
0.0
 10
7.0153338933
 20
15.9220844068
 30
0.0
  0
SPLINE
  5
381
100
AcDbEntity
  8
0
100
AcDbSpline
 62
9
  6
CONTINUOUS
 70
0
 71
3
 72
14
 73
10
 74
0
 42
0.0000001
 43
0.0000001
 44
0.0000000001
 40
0.0
 40
0.0
 40
0.0
 40
0.0
 40
0.110613919
 40
0.2231943063
 40
0.339058899
 40
0.4594202705
 40
0.7169828155
 40
0.855500759
 40
1.0
 40
1.0
 40
1.0
 40
1.0
 10
7.7253338932
 20
15.9220844068
 30
0.0
 10
7.7260326241
 20
15.9220844068
 30
0.0
 10
7.7274451071
 20
15.9219651153
 30
0.0
 10
7.7295301854
 20
15.9214393435
 30
0.0
 10
7.7315651492
 20
15.9205718999
 30
0.0
 10
7.7342329761
 20
15.9189381815
 30
0.0
 10
7.7366387365
 20
15.9166772134
 30
0.0
 10
7.7387204767
 20
15.913966833
 30
0.0
 10
7.7396652238
 20
15.9124446175
 30
0.0
 10
7.740110517
 20
15.9116478242
 30
0.0
  0
SPLINE
  5
382
100
AcDbEntity
  8
0
100
AcDbSpline
 62
9
  6
CONTINUOUS
 70
0
 71
3
 72
16
 73
12
 74
0
 42
0.0000001
 43
0.0000001
 44
0.0000000001
 40
0.0
 40
0.0
 40
0.0
 40
0.0
 40
0.1068309891
 40
0.1614381885
 40
0.2171105097
 40
0.332485513
 40
0.4546025994
 40
0.5835853824
 40
0.7186132104
 40
0.8582630334
 40
1.0
 40
1.0
 40
1.0
 40
1.0
 10
7.6953338932
 20
15.8920844068
 30
0.0
 10
7.6953338932
 20
15.8935576267
 30
0.0
 10
7.6956355997
 20
15.8957962689
 30
0.0
 10
7.6965875273
 20
15.8986403693
 30
0.0
 10
7.6979348082
 20
15.9014537256
 30
0.0
 10
7.7003237782
 20
15.9047612286
 30
0.0
 10
7.7041016165
 20
15.9081661808
 30
0.0
 10
7.708672623
 20
15.9109515349
 30
0.0
 10
7.7138698572
 20
15.9130136872
 30
0.0
 10
7.7194929825
 20
15.9142775094
 30
0.0
 10
7.7233793132
 20
15.9145638118
 30
0.0
 10
7.7253338932
 20
15.9145638118
 30
0.0
  0
SPLINE
  5
383
100
AcDbEntity
  8
0
100
AcDbSpline
 62
9
  6
CONTINUOUS
 70
0
 71
3
 72
9
 73
5
 74
0
 42
0.0000001
 43
0.0000001
 44
0.0000000001
 40
0.0
 40
0.0
 40
0.0
 40
0.0
 40
0.5071255362
 40
1.0
 40
1.0
 40
1.0
 40
1.0
 10
7.7253338932
 20
15.9145638118
 30
0.0
 10
7.7278925989
 20
15.9145638118
 30
0.0
 10
7.7329499733
 20
15.9140818233
 30
0.0
 10
7.7378210868
 20
15.9126187477
 30
0.0
 10
7.740110517
 20
15.9116478242
 30
0.0
  0
SPLINE
  5
384
100
AcDbEntity
  8
0
100
AcDbSpline
 62
9
  6
CONTINUOUS
 70
0
 71
3
 72
9
 73
5
 74
0
 42
0.0000001
 43
0.0000001
 44
0.0000000001
 40
0.0
 40
0.0
 40
0.0
 40
0.0
 40
0.4928744638
 40
1.0
 40
1.0
 40
1.0
 40
1.0
 10
7.740110517
 20
14.9325209894
 30
0.0
 10
7.7378210868
 20
14.931550066
 30
0.0
 10
7.7329499733
 20
14.9300869903
 30
0.0
 10
7.7278925989
 20
14.9296050018
 30
0.0
 10
7.7253338932
 20
14.9296050018
 30
0.0
  0
SPLINE
  5
385
100
AcDbEntity
  8
0
100
AcDbSpline
 62
9
  6
CONTINUOUS
 70
0
 71
3
 72
16
 73
12
 74
0
 42
0.0000001
 43
0.0000001
 44
0.0000000001
 40
0.0
 40
0.0
 40
0.0
 40
0.0
 40
0.1417369666
 40
0.2813867896
 40
0.4164146176
 40
0.5453974006
 40
0.667514487
 40
0.7828894903
 40
0.8385618115
 40
0.8931690109
 40
1.0
 40
1.0
 40
1.0
 40
1.0
 10
7.7253338932
 20
14.9296050018
 30
0.0
 10
7.7233793132
 20
14.9296050018
 30
0.0
 10
7.7194929825
 20
14.9298913043
 30
0.0
 10
7.7138698572
 20
14.9311551264
 30
0.0
 10
7.708672623
 20
14.9332172787
 30
0.0
 10
7.7041016165
 20
14.9360026328
 30
0.0
 10
7.7003237782
 20
14.939407585
 30
0.0
 10
7.6979348082
 20
14.942715088
 30
0.0
 10
7.6965875273
 20
14.9455284443
 30
0.0
 10
7.6956355997
 20
14.9483725447
 30
0.0
 10
7.6953338932
 20
14.9506111869
 30
0.0
 10
7.6953338932
 20
14.9520844068
 30
0.0
  0
SPLINE
  5
386
100
AcDbEntity
  8
0
100
AcDbSpline
 62
7
  6
CONTINUOUS
 70
0
 71
3
 72
42
 73
38
 74
0
 42
0.0000001
 43
0.0000001
 44
0.0000000001
 40
0.0
 40
0.0
 40
0.0
 40
0.0
 40
0.0693569344
 40
0.1452265284
 40
0.2260693462
 40
0.3103091177
 40
0.3962274152
 40
0.4820711275
 40
0.5661062975
 40
0.6466718301
 40
0.7221241509
 40
0.7574290601
 40
0.7908921222
 40
0.8223580623
 40
0.8516716931
 40
0.8786779561
 40
0.9032219914
 40
0.9251650444
 40
0.9444202813
 40
0.9530163333
 40
0.9609121692
 40
0.9680985636
 40
0.9745664641
 40
0.9803070851
 40
0.9853120713
 40
0.9895738109
 40
0.9930861018
 40
0.9945606971
 40
0.9958490525
 40
0.9969533227
 40
0.9978768157
 40
0.9986250729
 40
0.9992084341
 40
0.9994448773
 40
0.9996502013
 40
0.9998317532
 40
1.0
 40
1.0
 40
1.0
 40
1.0
 10
7.609029204
 20
15.9970844068
 30
0.0
 10
7.5949941266
 20
15.9965143092
 30
0.0
 10
7.5656030155
 20
15.9953957133
 30
0.0
 10
7.5198456845
 20
15.9937990145
 30
0.0
 10
7.4710725641
 20
15.9921993677
 30
0.0
 10
7.420263294
 20
15.9905992527
 30
0.0
 10
7.3684407447
 20
15.9889983704
 30
0.0
 10
7.3166596553
 20
15.9873974076
 30
0.0
 10
7.2659631577
 20
15.9857966958
 30
0.0
 10
7.2173722209
 20
15.9841978501
 30
0.0
 10
7.1786479365
 20
15.9828400647
 30
0.0
 10
7.1494600959
 20
15.9817412088
 30
0.0
 10
7.1291759938
 20
15.9809357016
 30
0.0
 10
7.1101062744
 20
15.9801307562
 30
0.0
 10
7.0923454382
 20
15.9793265214
 30
0.0
 10
7.0759879742
 20
15.9785232398
 30
0.0
 10
7.0611251319
 20
15.9777212
 30
0.0
 10
7.0478345833
 20
15.9769197167
 30
0.0
 10
7.0377733037
 20
15.9762301318
 30
0.0
 10
7.0305550722
 20
15.97567168
 30
0.0
 10
7.0257764596
 20
15.9752691525
 30
0.0
 10
7.021430481
 20
15.97486704
 30
0.0
 10
7.0175229813
 20
15.9744654647
 30
0.0
 10
7.0140597916
 20
15.9740646121
 30
0.0
 10
7.011046579
 20
15.9736649335
 30
0.0
 10
7.0084890875
 20
15.9732666746
 30
0.0
 10
7.0066477196
 20
15.9729199764
 30
0.0
 10
7.0054088724
 20
15.9726355835
 30
0.0
 10
7.0046515028
 20
15.9724352676
 30
0.0
 10
7.0040100504
 20
15.9722355056
 30
0.0
 10
7.0034836442
 20
15.9720363914
 30
0.0
 10
7.0030716982
 20
15.9718380266
 30
0.0
 10
7.0028045908
 20
15.9716622405
 30
0.0
 10
7.0026550019
 20
15.9715173234
 30
0.0
 10
7.0025792909
 20
15.9714153907
 30
0.0
 10
7.0025324672
 20
15.9713120357
 30
0.0
 10
7.0025213275
 20
15.9712409401
 30
0.0
 10
7.0025210721
 20
15.9712068665
 30
0.0
  0
SPLINE
  5
387
100
AcDbEntity
  8
0
100
AcDbSpline
 62
7
  6
CONTINUOUS
 70
0
 71
3
 72
13
 73
9
 74
0
 42
0.0000001
 43
0.0000001
 44
0.0000000001
 40
0.0
 40
0.0
 40
0.0
 40
0.0
 40
0.340504055
 40
0.6212392999
 40
0.7388924878
 40
0.8412594632
 40
0.9282708752
 40
1.0
 40
1.0
 40
1.0
 40
1.0
 10
6.9836885284
 20
15.9970844893
 30
0.0
 10
6.9816758897
 20
15.9969022326
 30
0.0
 10
6.9780059742
 20
15.9965461054
 30
0.0
 10
6.9736497459
 20
15.9960371764
 30
0.0
 10
6.9707071445
 20
15.9956194374
 30
0.0
 10
6.9689085616
 20
15.9953256723
 30
0.0
 10
6.9673866126
 20
15.9950328612
 30
0.0
 10
6.9664687246
 20
15.9948183825
 30
0.0
 10
6.9660576658
 20
15.9947076645
 30
0.0
  0
LINE
  5
388
100
AcDbEntity
  8
0
100
AcDbLine
 62
7
  6
CONTINUOUS
 10
6.9660576658
 20
15.9947076645
 11
6.964838219
 21
15.9943133146
  0
SPLINE
  5
389
100
AcDbEntity
  8
0
100
AcDbSpline
 62
7
  6
CONTINUOUS
 70
0
 71
3
 72
13
 73
9
 74
0
 42
0.0000001
 43
0.0000001
 44
0.0000000001
 40
0.0
 40
0.0
 40
0.0
 40
0.0
 40
0.3591688114
 40
0.6358879494
 40
0.7464126807
 40
0.8411567326
 40
0.9238495953
 40
1.0
 40
1.0
 40
1.0
 40
1.0
 10
6.964838219
 20
15.9943133146
 30
0.0
 10
6.9646921779
 20
15.9942542457
 30
0.0
 10
6.9644374308
 20
15.9941400509
 30
0.0
 10
6.964156516
 20
15.9939676373
 30
0.0
 10
6.9639997481
 20
15.9938247825
 30
0.0
 10
6.9639213634
 20
15.9937247328
 30
0.0
 10
6.9638736318
 20
15.9936229505
 30
0.0
 10
6.9638634101
 20
15.9935527141
 30
0.0
 10
6.9638639597
 20
15.9935193184
 30
0.0
  0
SPLINE
  5
38A
100
AcDbEntity
  8
0
100
AcDbSpline
 62
7
  6
CONTINUOUS
 70
0
 71
3
 72
37
 73
33
 74
0
 42
0.0000001
 43
0.0000001
 44
0.0000000001
 40
0.0
 40
0.0
 40
0.0
 40
0.0
 40
0.0003856188
 40
0.0008248964
 40
0.0013554437
 40
0.0019990592
 40
0.0027679798
 40
0.0036693488
 40
0.0058849463
 40
0.0086669988
 40
0.0120252535
 40
0.015965152
 40
0.0204900104
 40
0.0256019827
 40
0.0313025343
 40
0.03759121
 40
0.0444628129
 40
0.0599296112
 40
0.0776516502
 40
0.0975761739
 40
0.1196496825
 40
0.1700273937
 40
0.2283503766
 40
0.2941631898
 40
0.3668119857
 40
0.4455224527
 40
0.5295180954
 40
0.6180221073
 40
0.7102402745
 40
0.8052711373
 40
0.902171994
 40
1.0
 40
1.0
 40
1.0
 40
1.0
 10
7.7381211188
 20
15.9890545866
 30
0.0
 10
7.7381211176
 20
15.9890071939
 30
0.0
 10
7.7380994852
 20
15.9889051651
 30
0.0
 10
7.7380097851
 20
15.9887621575
 30
0.0
 10
7.7378672366
 20
15.9886226231
 30
0.0
 10
7.73767178
 20
15.988484273
 30
0.0
 10
7.7374228015
 20
15.9883460528
 30
0.0
 10
7.7369879256
 20
15.9881478064
 30
0.0
 10
7.7363025775
 20
15.9879077038
 30
0.0
 10
7.735312526
 20
15.9876336907
 30
0.0
 10
7.7341042355
 20
15.9873585374
 30
0.0
 10
7.7326775001
 20
15.9870823707
 30
0.0
 10
7.7310318941
 20
15.986805594
 30
0.0
 10
7.7291673369
 20
15.9865283522
 30
0.0
 10
7.7270839322
 20
15.9862508177
 30
0.0
 10
7.7247825763
 20
15.9859731118
 30
0.0
 10
7.7212854829
 20
15.9855871632
 30
0.0
 10
7.7163849284
 20
15.9851109277
 30
0.0
 10
7.7098806379
 20
15.9845579659
 30
0.0
 10
7.7025618738
 20
15.9840039311
 30
0.0
 10
7.691235224
 20
15.9832295996
 30
0.0
 10
7.675190924
 20
15.9822780637
 30
0.0
 10
7.6537713859
 20
15.9811754314
 30
0.0
 10
7.6296115872
 20
15.9800715891
 30
0.0
 10
7.6029439254
 20
15.9789657679
 30
0.0
 10
7.5740399073
 20
15.9778580157
 30
0.0
 10
7.5431859987
 20
15.9767489677
 30
0.0
 10
7.5106710097
 20
15.9756390358
 30
0.0
 10
7.4767990341
 20
15.9745291618
 30
0.0
 10
7.4418945601
 20
15.9734189636
 30
0.0
 10
7.4063003058
 20
15.9723084299
 30
0.0
 10
7.3823794816
 20
15.971569111
 30
0.0
 10
7.3703621243
 20
15.9711976585
 30
0.0
  0
SPLINE
  5
38B
100
AcDbEntity
  8
0
100
AcDbSpline
 62
7
  6
CONTINUOUS
 70
0
 71
3
 72
30
 73
26
 74
0
 42
0.0000001
 43
0.0000001
 44
0.0000000001
 40
0.0
 40
0.0
 40
0.0
 40
0.0
 40
0.1884971692
 40
0.2806365171
 40
0.3702840961
 40
0.4566274812
 40
0.5388543666
 40
0.6161867891
 40
0.6879925807
 40
0.7536786838
 40
0.8126526141
 40
0.8643228743
 40
0.8872410107
 40
0.9081536899
 40
0.9270314187
 40
0.9438451163
 40
0.958566359
 40
0.9711678446
 40
0.9816243487
 40
0.9860416446
 40
0.9899155458
 40
0.9932451964
 40
0.996031525
 40
0.9982789887
 40
1.0
 40
1.0
 40
1.0
 40
1.0
 10
7.3703621243
 20
15.9711976585
 30
0.0
 10
7.3472530648
 20
15.9704833652
 30
0.0
 10
7.3128480578
 20
15.9694198922
 30
0.0
 10
7.2674537908
 20
15.9679782849
 30
0.0
 10
7.2345837917
 20
15.9669056832
 30
0.0
 10
7.2029302511
 20
15.9658336849
 30
0.0
 10
7.1727880993
 20
15.9647624368
 30
0.0
 10
7.1444302398
 20
15.9636911599
 30
0.0
 10
7.1181026874
 20
15.9626210137
 30
0.0
 10
7.0940288018
 20
15.9615529025
 30
0.0
 10
7.0724271983
 20
15.9604874023
 30
0.0
 10
7.0560705895
 20
15.9595704629
 30
0.0
 10
7.0443806078
 20
15.9588249475
 30
0.0
 10
7.0367077551
 20
15.9582887542
 30
0.0
 10
7.0297855835
 20
15.957753296
 30
0.0
 10
7.0236252679
 20
15.9572187401
 30
0.0
 10
7.0182378338
 20
15.9566856702
 30
0.0
 10
7.0136343768
 20
15.956154393
 30
0.0
 10
7.0102956283
 20
15.9556925491
 30
0.0
 10
7.0080273028
 20
15.9553143322
 30
0.0
 10
7.0066269762
 20
15.9550474213
 30
0.0
 10
7.0054307064
 20
15.9547813679
 30
0.0
 10
7.0044390416
 20
15.9545165686
 30
0.0
 10
7.0036530742
 20
15.954253508
 30
0.0
 10
7.0032066087
 20
15.9540545703
 30
0.0
 10
7.0030236619
 20
15.9539492628
 30
0.0
  0
SPLINE
  5
38C
100
AcDbEntity
  8
0
100
AcDbSpline
 62
7
  6
CONTINUOUS
 70
0
 71
3
 72
25
 73
21
 74
0
 42
0.0000001
 43
0.0000001
 44
0.0000000001
 40
0.0
 40
0.0
 40
0.0
 40
0.0
 40
0.0021046589
 40
0.0046416525
 40
0.011059726
 40
0.0193156298
 40
0.029425261
 40
0.0413848983
 40
0.0551852868
 40
0.0882577771
 40
0.128531379
 40
0.1758822615
 40
0.2301815489
 40
0.2912977322
 40
0.3590976047
 40
0.4334041444
 40
0.5139425416
 40
0.6004241468
 40
0.7900607498
 40
1.0
 40
1.0
 40
1.0
 40
1.0
 10
7.7763362471
 20
15.9572474069
 30
0.0
 10
7.7762349152
 20
15.9571888293
 30
0.0
 10
7.7760028909
 20
15.9570744658
 30
0.0
 10
7.7754307127
 20
15.956847875
 30
0.0
 10
7.7745114845
 20
15.9565757298
 30
0.0
 10
7.7731681942
 20
15.9562659918
 30
0.0
 10
7.7715103117
 20
15.9559546485
 30
0.0
 10
7.7695400699
 20
15.9556416849
 30
0.0
 10
7.7662985704
 20
15.955195979
 30
0.0
 10
7.7614820138
 20
15.9546534957
 30
0.0
 10
7.7547985651
 20
15.9540303286
 30
0.0
 10
7.746930498
 20
15.953404728
 30
0.0
 10
7.7379003759
 20
15.9527771103
 30
0.0
 10
7.7277307011
 20
15.9521482816
 30
0.0
 10
7.7164465287
 20
15.9515187343
 30
0.0
 10
7.7040807375
 20
15.9508889421
 30
0.0
 10
7.6906748119
 20
15.9502585147
 30
0.0
 10
7.6708593109
 20
15.9493904647
 30
0.0
 10
7.6438497591
 20
15.9483174919
 30
0.0
 10
7.6216427744
 20
15.9475185629
 30
0.0
 10
7.6099745766
 20
15.947114411
 30
0.0
  0
SPLINE
  5
38D
100
AcDbEntity
  8
0
100
AcDbSpline
 62
7
  6
CONTINUOUS
 70
0
 71
3
 72
15
 73
11
 74
0
 42
0.0000001
 43
0.0000001
 44
0.0000000001
 40
0.0
 40
0.0
 40
0.0
 40
0.0
 40
0.1162666437
 40
0.2429113462
 40
0.3761041239
 40
0.5118815909
 40
0.6461133024
 40
0.7747219988
 40
0.893913872
 40
1.0
 40
1.0
 40
1.0
 40
1.0
 10
7.6099745766
 20
15.947114411
 30
0.0
 10
7.5898220112
 20
15.9464163857
 30
0.0
 10
7.5477147285
 20
15.945053927
 30
0.0
 10
7.4825142445
 20
15.9431097045
 30
0.0
 10
7.4139285839
 20
15.9411621926
 30
0.0
 10
7.3440265796
 20
15.9392142812
 30
0.0
 10
7.2749199005
 20
15.9372670917
 30
0.0
 10
7.2086908531
 20
15.9353212439
 30
0.0
 10
7.1473452683
 20
15.9333821253
 30
0.0
 10
7.108298442
 20
15.9320026145
 30
0.0
 10
7.0899131771
 20
15.9312918766
 30
0.0
  0
LINE
  5
38E
100
AcDbEntity
  8
0
100
AcDbLine
 62
7
  6
CONTINUOUS
 10
7.0899131771
 20
15.9312918766
 11
7.0821876048
 21
15.9309893567
  0
SPLINE
  5
38F
100
AcDbEntity
  8
0
100
AcDbSpline
 62
7
  6
CONTINUOUS
 70
0
 71
3
 72
31
 73
27
 74
0
 42
0.0000001
 43
0.0000001
 44
0.0000000001
 40
0.0
 40
0.0
 40
0.0
 40
0.0
 40
0.2237961496
 40
0.4224943147
 40
0.5117959515
 40
0.5940608036
 40
0.6690441188
 40
0.7365906071
 40
0.796599698
 40
0.848973538
 40
0.8722677299
 40
0.8936181493
 40
0.9130140341
 40
0.9304454096
 40
0.9459035011
 40
0.9593814558
 40
0.9708756963
 40
0.9803886992
 40
0.984406766
 40
0.9879370963
 40
0.9909864972
 40
0.9935665602
 40
0.9956980793
 40
0.9974205906
 40
0.9988086626
 40
1.0
 40
1.0
 40
1.0
 40
1.0
 10
7.0821876048
 20
15.9309893567
 30
0.0
 10
7.0733117431
 20
15.9306371994
 30
0.0
 10
7.0565565978
 20
15.9299420313
 30
0.0
 10
7.036264413
 20
15.9289968057
 30
0.0
 10
7.0215879255
 20
15.9282308063
 30
0.0
 10
7.0118175667
 20
15.9276774672
 30
0.0
 10
7.0029121924
 20
15.9271244327
 30
0.0
 10
6.9948920095
 20
15.92657196
 30
0.0
 10
6.987771541
 20
15.9260204371
 30
0.0
 10
6.9824070977
 20
15.9255454546
 30
0.0
 10
6.9785754928
 20
15.9251607666
 30
0.0
 10
6.9760487053
 20
15.9248838427
 30
0.0
 10
6.9737561126
 20
15.9246071902
 30
0.0
 10
6.9716992152
 20
15.9243308822
 30
0.0
 10
6.9698795004
 20
15.9240550341
 30
0.0
 10
6.9682983235
 20
15.9237799117
 30
0.0
 10
6.9669570999
 20
15.9235056514
 30
0.0
 10
6.9659923509
 20
15.9232669918
 30
0.0
 10
6.9653437802
 20
15.9230716785
 30
0.0
 10
6.9649462289
 20
15.9229337548
 30
0.0
 10
6.9646094749
 20
15.922796097
 30
0.0
 10
6.9643333681
 20
15.9226586646
 30
0.0
 10
6.9641173383
 20
15.9225211947
 30
0.0
 10
6.9639604867
 20
15.9223826665
 30
0.0
 10
6.9638618334
 20
15.9222401132
 30
0.0
 10
6.9638389099
 20
15.9221365784
 30
0.0
 10
6.9638397914
 20
15.9220893004
 30
0.0
  0
SPLINE
  5
390
100
AcDbEntity
  8
0
100
AcDbSpline
 62
7
  6
CONTINUOUS
 70
0
 71
3
 72
23
 73
19
 74
0
 42
0.0000001
 43
0.0000001
 44
0.0000000001
 40
0.0
 40
0.0
 40
0.0
 40
0.0
 40
0.0056056602
 40
0.0128720606
 40
0.0218543021
 40
0.0325762211
 40
0.045041074
 40
0.059245536
 40
0.0928438188
 40
0.1332995044
 40
0.1805246513
 40
0.2344243613
 40
0.2948999799
 40
0.3618506482
 40
0.4351741286
 40
0.6004712743
 40
0.7893423576
 40
1.0
 40
1.0
 40
1.0
 40
1.0
 10
7.7376287728
 20
15.9348694999
 30
0.0
 10
7.7374539304
 20
15.9347684074
 30
0.0
 10
7.7370297778
 20
15.9345763888
 30
0.0
 10
7.73628433
 20
15.9343217738
 30
0.0
 10
7.7353463746
 20
15.9340657488
 30
0.0
 10
7.7342160322
 20
15.9338087029
 30
0.0
 10
7.7328936097
 20
15.9335508253
 30
0.0
 10
7.730753054
 20
15.9331855311
 30
0.0
 10
7.7276041192
 20
15.9327394019
 30
0.0
 10
7.7232646458
 20
15.9322261323
 30
0.0
 10
7.718189565
 20
15.9317111358
 30
0.0
 10
7.712390166
 20
15.9311947116
 30
0.0
 10
7.705877672
 20
15.9306774149
 30
0.0
 10
7.6986634505
 20
15.9301594241
 30
0.0
 10
7.6876776737
 20
15.9294390416
 30
0.0
 10
7.6723010459
 20
15.9285525523
 30
0.0
 10
7.6519771023
 20
15.9275231485
 30
0.0
 10
7.6375974475
 20
15.9268688948
 30
0.0
 10
7.6300149618
 20
15.9265379211
 30
0.0
  0
LINE
  5
391
100
AcDbEntity
  8
0
100
AcDbLine
 62
7
  6
CONTINUOUS
 10
7.6300149618
 20
15.9265379211
 11
7.6226380747
 21
15.9262202729
  0
SPLINE
  5
392
100
AcDbEntity
  8
0
100
AcDbSpline
 62
7
  6
CONTINUOUS
 70
0
 71
3
 72
66
 73
62
 74
0
 42
0.0000001
 43
0.0000001
 44
0.0000000001
 40
0.0
 40
0.0
 40
0.0
 40
0.0
 40
0.0003700838
 40
0.0008062357
 40
0.0018828562
 40
0.0032379427
 40
0.0048748855
 40
0.0067953047
 40
0.0089994498
 40
0.0142558004
 40
0.0206357523
 40
0.0281284965
 40
0.0367178448
 40
0.0463833228
 40
0.0571039995
 40
0.0688559999
 40
0.0816108687
 40
0.0953396589
 40
0.1255917863
 40
0.1593298039
 40
0.1962404344
 40
0.2359798328
 40
0.2781760731
 40
0.3224369046
 40
0.3683490856
 40
0.4154853151
 40
0.4634065578
 40
0.5116651299
 40
0.5598105026
 40
0.6073926062
 40
0.6539682901
 40
0.6991030457
 40
0.7423770055
 40
0.783386544
 40
0.8217486942
 40
0.8571071069
 40
0.8891303028
 40
0.9037978823
 40
0.9175219776
 40
0.9302720605
 40
0.9420191342
 40
0.9527347639
 40
0.962395197
 40
0.9709794002
 40
0.9784668148
 40
0.9817939651
 40
0.9848414858
 40
0.9876080943
 40
0.9900926319
 40
0.9922941301
 40
0.9942119423
 40
0.9958463612
 40
0.997198983
 40
0.9977706486
 40
0.9982733877
 40
0.9987082913
 40
0.9990770947
 40
0.999382711
 40
0.9996303556
 40
0.9998299206
 40
1.0
 40
1.0
 40
1.0
 40
1.0
 10
6.9643135721
 20
15.931567723
 30
0.0
 10
6.9644006189
 20
15.9316177772
 30
0.0
 10
6.9645963979
 20
15.9317161467
 30
0.0
 10
6.9650686678
 20
15.9319116248
 30
0.0
 10
6.9658110322
 20
15.9321484878
 30
0.0
 10
6.9668815421
 20
15.9324191268
 30
0.0
 10
6.9681867292
 20
15.9326909565
 30
0.0
 10
6.9697261612
 20
15.9329635248
 30
0.0
 10
6.9722420299
 20
15.933350282
 30
0.0
 10
6.9759682018
 20
15.9338210211
 30
0.0
 10
6.9811303226
 20
15.9343615135
 30
0.0
 10
6.9872007707
 20
15.9349040527
 30
0.0
 10
6.9941655097
 20
15.9354485533
 30
0.0
 10
7.0020083271
 20
15.9359942486
 30
0.0
 10
7.0107110446
 20
15.9365406282
 30
0.0
 10
7.0202534556
 20
15.9370873396
 30
0.0
 10
7.0306132349
 20
15.937634488
 30
0.0
 10
7.0459884472
 20
15.9383890327
 30
0.0
 10
7.0670548122
 20
15.9393216972
 30
0.0
 10
7.0944098523
 20
15.9404103734
 30
0.0
 10
7.1243407957
 20
15.9415005396
 30
0.0
 10
7.1565679976
 20
15.942591899
 30
0.0
 10
7.1907905134
 20
15.9436841161
 30
0.0
 10
7.226688633
 20
15.9447768626
 30
0.0
 10
7.2639276632
 20
15.9458700549
 30
0.0
 10
7.3021602503
 20
15.9469635417
 30
0.0
 10
7.3410297151
 20
15.9480572124
 30
0.0
 10
7.3801730873
 20
15.9491509762
 30
0.0
 10
7.4192244089
 20
15.9502446976
 30
0.0
 10
7.4578189486
 20
15.9513382994
 30
0.0
 10
7.4955963155
 20
15.9524316348
 30
0.0
 10
7.5322042951
 20
15.9535246359
 30
0.0
 10
7.5673013746
 20
15.9546171291
 30
0.0
 10
7.6005599858
 20
15.9557089298
 30
0.0
 10
7.6316697444
 20
15.9567997611
 30
0.0
 10
7.6603397457
 20
15.957889215
 30
0.0
 10
7.6825821181
 20
15.9588207061
 30
0.0
 10
7.6989567678
 20
15.9595731112
 30
0.0
 10
7.7101060378
 20
15.9601205253
 30
0.0
 10
7.7204619051
 20
15.9606676186
 30
0.0
 10
7.7300003046
 20
15.9612143445
 30
0.0
 10
7.7386989319
 20
15.961760833
 30
0.0
 10
7.7465376014
 20
15.9623066114
 30
0.0
 10
7.7534981085
 20
15.9628511363
 30
0.0
 10
7.7587407122
 20
15.9633196461
 30
0.0
 10
7.7624826667
 20
15.9636990207
 30
0.0
 10
7.7649478628
 20
15.9639721141
 30
0.0
 10
7.7671829185
 20
15.9642451458
 30
0.0
 10
7.7691865514
 20
15.9645181898
 30
0.0
 10
7.7709575063
 20
15.9647912379
 30
0.0
 10
7.7724947617
 20
15.9650642684
 30
0.0
 10
7.7737975247
 20
15.9653370256
 30
0.0
 10
7.7747340042
 20
15.9655743849
 30
0.0
 10
7.7753634768
 20
15.9657682513
 30
0.0
 10
7.7757496391
 20
15.9659049916
 30
0.0
 10
7.7760771308
 20
15.9660412173
 30
0.0
 10
7.7763461875
 20
15.9661769093
 30
0.0
 10
7.7765573961
 20
15.9663121731
 30
0.0
 10
7.7767115116
 20
15.9664479156
 30
0.0
 10
7.776809472
 20
15.9665866775
 30
0.0
 10
7.7768338932
 20
15.9666875533
 30
0.0
 10
7.7768338932
 20
15.9667336997
 30
0.0
  0
SPLINE
  5
393
100
AcDbEntity
  8
0
100
AcDbSpline
 62
7
  6
CONTINUOUS
 70
0
 71
3
 72
51
 73
47
 74
0
 42
0.0000001
 43
0.0000001
 44
0.0000000001
 40
0.0
 40
0.0
 40
0.0
 40
0.0
 40
0.0156166727
 40
0.0312341261
 40
0.0468547082
 40
0.0624775493
 40
0.0781023187
 40
0.0937284173
 40
0.1093555232
 40
0.1249834077
 40
0.1406109522
 40
0.1562387465
 40
0.1718665842
 40
0.1874939317
 40
0.2031215151
 40
0.218748629
 40
0.2499993125
 40
0.28125027
 40
0.3125011793
 40
0.3437524789
 40
0.3750032031
 40
0.4062538455
 40
0.4375043052
 40
0.4999999472
 40
0.5624955919
 40
0.5937460492
 40
0.6249967086
 40
0.6562474389
 40
0.6874987648
 40
0.7187496854
 40
0.7500006373
 40
0.7812513359
 40
0.7968784642
 40
0.812506061
 40
0.828133432
 40
0.8437613067
 40
0.8593891115
 40
0.8750166637
 40
0.890644529
 40
0.9062716042
 40
0.9218976846
 40
0.9375224553
 40
0.9531453037
 40
0.968765885
 40
0.9843833316
 40
1.0
 40
1.0
 40
1.0
 40
1.0
 10
8.8982827892
 20
15.0676482244
 30
0.0
 10
8.9026179172
 20
15.0676482244
 30
0.0
 10
8.9113060339
 20
15.0683958922
 30
0.0
 10
8.9239509554
 20
15.071663654
 30
0.0
 10
8.9359412918
 20
15.0768277334
 30
0.0
 10
8.947107603
 20
15.083573026
 30
0.0
 10
8.9573901246
 20
15.0915896809
 30
0.0
 10
8.9667957374
 20
15.1006108979
 30
0.0
 10
8.9753687037
 20
15.1104213604
 30
0.0
 10
8.983168587
 20
15.1208530052
 30
0.0
 10
8.9902609137
 20
15.1317751591
 30
0.0
 10
8.9967081392
 20
15.1430879483
 30
0.0
 10
9.0025681694
 20
15.1547141287
 30
0.0
 10
9.0078958627
 20
15.1665924698
 30
0.0
 10
9.0127365386
 20
15.1786765123
 30
0.0
 10
9.0186003582
 20
15.1950101852
 30
0.0
 10
9.0249175913
 20
15.2157732392
 30
0.0
 10
9.031131956
 20
15.2410561242
 30
0.0
 10
9.0361800627
 20
15.2665954436
 30
0.0
 10
9.040216204
 20
15.2923118833
 30
0.0
 10
9.0433661011
 20
15.3181504622
 30
0.0
 10
9.045724031
 20
15.3440723569
 30
0.0
 10
9.0479027228
 20
15.3787061279
 30
0.0
 10
9.0489525314
 20
15.4220843609
 30
0.0
 10
9.0479027543
 20
15.4654625962
 30
0.0
 10
9.0457240154
 20
15.5000963684
 30
0.0
 10
9.0433661399
 20
15.526018274
 30
0.0
 10
9.0402161922
 20
15.5518568607
 30
0.0
 10
9.0361800866
 20
15.5775733178
 30
0.0
 10
9.0311319686
 20
15.6031126446
 30
0.0
 10
9.0249175956
 20
15.6283955331
 30
0.0
 10
9.0186003678
 20
15.6491585957
 30
0.0
 10
9.012736549
 20
15.6654922815
 30
0.0
 10
9.0078958691
 20
15.6775763379
 30
0.0
 10
9.0025681615
 20
15.6894546948
 30
0.0
 10
8.9967081351
 20
15.7010808995
 30
0.0
 10
8.9902608807
 20
15.7123936898
 30
0.0
 10
8.9831685659
 20
15.7233158509
 30
0.0
 10
8.9753686787
 20
15.7337474786
 30
0.0
 10
8.9667957249
 20
15.7435579264
 30
0.0
 10
8.9573901225
 20
15.7525791351
 30
0.0
 10
8.9471076023
 20
15.7605957876
 30
0.0
 10
8.9359412897
 20
15.767341082
 30
0.0
 10
8.9239509528
 20
15.77250516
 30
0.0
 10
8.9113060347
 20
15.7757729214
 30
0.0
 10
8.902617921
 20
15.7765205893
 30
0.0
 10
8.8982827942
 20
15.7765205893
 30
0.0
  0
SPLINE
  5
394
100
AcDbEntity
  8
0
100
AcDbSpline
 62
7
  6
CONTINUOUS
 70
0
 71
3
 72
35
 73
31
 74
0
 42
0.0000001
 43
0.0000001
 44
0.0000000001
 40
0.0
 40
0.0
 40
0.0
 40
0.0
 40
0.0491856851
 40
0.0949406949
 40
0.1360626548
 40
0.1729834761
 40
0.20658994
 40
0.2377145657
 40
0.2670183274
 40
0.2949988128
 40
0.3220232332
 40
0.3483607396
 40
0.3742079359
 40
0.3997088203
 40
0.4500527898
 40
0.5000000366
 40
0.5499472844
 40
0.6002912559
 40
0.6257921365
 40
0.6516393318
 40
0.6779768267
 40
0.7050012294
 40
0.7329817137
 40
0.7622855004
 40
0.7934101427
 40
0.8270166008
 40
0.8639373726
 40
0.9050593067
 40
0.9508143215
 40
1.0
 40
1.0
 40
1.0
 40
1.0
 10
8.8982827902
 20
15.9376866386
 30
0.0
 10
8.9068326248
 20
15.9376866386
 30
0.0
 10
8.9233714771
 20
15.9390793716
 30
0.0
 10
8.9463882779
 20
15.944933161
 30
0.0
 10
8.9662388986
 20
15.9534559972
 30
0.0
 10
8.9828226637
 20
15.9636587099
 30
0.0
 10
8.996531283
 20
15.9748848388
 30
0.0
 10
9.0078343235
 20
15.9867446137
 30
0.0
 10
9.0171457057
 20
15.9990066485
 30
0.0
 10
9.0247996686
 20
16.0115303294
 30
0.0
 10
9.0310608744
 20
16.0242271867
 30
0.0
 10
9.0361383009
 20
16.0370398809
 30
0.0
 10
9.0401927196
 20
16.0499321577
 30
0.0
 10
9.0443880606
 20
16.0671142913
 30
0.0
 10
9.0476848582
 20
16.0887795826
 30
0.0
 10
9.0489548272
 20
16.1149047468
 30
0.0
 10
9.0476848535
 20
16.1410299129
 30
0.0
 10
9.044388028
 20
16.1626951975
 30
0.0
 10
9.0401927262
 20
16.1798773405
 30
0.0
 10
9.0361382838
 20
16.1927696077
 30
0.0
 10
9.0310608557
 20
16.2055822945
 30
0.0
 10
9.024799661
 20
16.2182791517
 30
0.0
 10
9.0171456943
 20
16.2308028317
 30
0.0
 10
9.0078343082
 20
16.2430648724
 30
0.0
 10
8.9965312577
 20
16.2549246467
 30
0.0
 10
8.982822641
 20
16.266150768
 30
0.0
 10
8.9662388842
 20
16.2763534668
 30
0.0
 10
8.9463882757
 20
16.2848762995
 30
0.0
 10
8.9233714793
 20
16.2907300875
 30
0.0
 10
8.9068326274
 20
16.2921228211
 30
0.0
 10
8.8982827939
 20
16.2921228211
 30
0.0
  0
SPLINE
  5
395
100
AcDbEntity
  8
0
100
AcDbSpline
 62
7
  6
CONTINUOUS
 70
0
 71
3
 72
35
 73
31
 74
0
 42
0.0000001
 43
0.0000001
 44
0.0000000001
 40
0.0
 40
0.0
 40
0.0
 40
0.0
 40
0.0491856921
 40
0.0949406543
 40
0.1360626143
 40
0.1729834775
 40
0.2065899252
 40
0.2377145455
 40
0.2670183369
 40
0.2949988403
 40
0.3220232651
 40
0.3483607642
 40
0.3742079481
 40
0.3997088256
 40
0.4500527871
 40
0.500000028
 40
0.5499472758
 40
0.6002912444
 40
0.6257921286
 40
0.6516393316
 40
0.6779768363
 40
0.7050012478
 40
0.7329817392
 40
0.7622855395
 40
0.7934101925
 40
0.8270166534
 40
0.8639374142
 40
0.9050593282
 40
0.9508143195
 40
1.0
 40
1.0
 40
1.0
 40
1.0
 10
8.8982827871
 20
14.5520459926
 30
0.0
 10
8.906832623
 20
14.5520459926
 30
0.0
 10
8.9233714685
 20
14.5534387237
 30
0.0
 10
8.9463882629
 20
14.5592925104
 30
0.0
 10
8.9662388836
 20
14.5678153439
 30
0.0
 10
8.9828226549
 20
14.5780180561
 30
0.0
 10
8.9965312751
 20
14.5892441893
 30
0.0
 10
9.0078343222
 20
14.6011039599
 30
0.0
 10
9.0171457095
 20
14.6133660012
 30
0.0
 10
9.0247996682
 20
14.6258896947
 30
0.0
 10
9.0310608869
 20
14.638586549
 30
0.0
 10
9.0361382987
 20
14.6513992465
 30
0.0
 10
9.0401927198
 20
14.6642915175
 30
0.0
 10
9.0443880599
 20
14.6814736468
 30
0.0
 10
9.0476848565
 20
14.7031389346
 30
0.0
 10
9.0489548277
 20
14.7292640967
 30
0.0
 10
9.0476848529
 20
14.755389261
 30
0.0
 10
9.0443880375
 20
14.7770545482
 30
0.0
 10
9.0401927227
 20
14.7942366894
 30
0.0
 10
9.0361382897
 20
14.8071289636
 30
0.0
 10
9.0310608516
 20
14.8199416517
 30
0.0
 10
9.0247996591
 20
14.8326385148
 30
0.0
 10
9.0171456875
 20
14.8451621981
 30
0.0
 10
9.0078342978
 20
14.8574242433
 30
0.0
 10
8.9965312408
 20
14.869284018
 30
0.0
 10
8.9828226219
 20
14.8805101377
 30
0.0
 10
8.9662388656
 20
14.8907128282
 30
0.0
 10
8.9463882657
 20
14.8992356567
 30
0.0
 10
8.9233714759
 20
14.9050894424
 30
0.0
 10
8.9068326276
 20
14.906482175
 30
0.0
 10
8.8982827937
 20
14.906482175
 30
0.0
  0
SPLINE
  5
396
100
AcDbEntity
  8
0
100
AcDbSpline
 62
7
  6
CONTINUOUS
 70
0
 71
3
 72
35
 73
31
 74
0
 42
0.0000001
 43
0.0000001
 44
0.0000000001
 40
0.0
 40
0.0
 40
0.0
 40
0.0
 40
0.2229972516
 40
0.3254055721
 40
0.4214392108
 40
0.5108656905
 40
0.5934555862
 40
0.6689782476
 40
0.7372020242
 40
0.7979179515
 40
0.8509590354
 40
0.8745505705
 40
0.8961621897
 40
0.9157734267
 40
0.93336379
 40
0.9489155849
 40
0.9624194739
 40
0.9738676613
 40
0.9832523482
 40
0.9871684409
 40
0.9905657325
 40
0.9934432471
 40
0.9958000087
 40
0.9976350412
 40
0.998356604
 40
0.9989473683
 40
0.9994072121
 40
0.9997360133
 40
0.9999336499
 40
1.0
 40
1.0
 40
1.0
 40
1.0
 10
7.08957331
 20
14.6361222789
 30
0.0
 10
7.0840573988
 20
14.6341516035
 30
0.0
 10
7.0760316546
 20
14.6312101882
 30
0.0
 10
7.0656821256
 20
14.6272823233
 30
0.0
 10
7.0586308746
 20
14.6245520698
 30
0.0
 10
7.0520808596
 20
14.6219694126
 30
0.0
 10
7.0460458732
 20
14.6195496142
 30
0.0
 10
7.0405395259
 20
14.6173080934
 30
0.0
 10
7.0355747887
 20
14.6152601387
 30
0.0
 10
7.0311632869
 20
14.6134196816
 30
0.0
 10
7.0278389498
 20
14.6120181932
 30
0.0
 10
7.025463654
 20
14.6110096496
 30
0.0
 10
7.0238975978
 20
14.6103419567
 30
0.0
 10
7.0224773313
 20
14.6097342402
 30
0.0
 10
7.0212039741
 20
14.6091878053
 30
0.0
 10
7.0200783848
 20
14.6087038194
 30
0.0
 10
7.0191013155
 20
14.6082828504
 30
0.0
 10
7.0182732739
 20
14.6079253765
 30
0.0
 10
7.0176766325
 20
14.6076672856
 30
0.0
 10
7.0172741811
 20
14.6074929181
 30
0.0
 10
7.0170286047
 20
14.6073864069
 30
0.0
 10
7.0168206339
 20
14.6072961217
 30
0.0
 10
7.0166503463
 20
14.6072220919
 30
0.0
 10
7.016531982
 20
14.6071706373
 30
0.0
 10
7.0164562237
 20
14.6071375741
 30
0.0
 10
7.0164134764
 20
14.6071190887
 30
0.0
 10
7.0163804588
 20
14.6071043148
 30
0.0
 10
7.0163562784
 20
14.6070946042
 30
0.0
 10
7.0163427819
 20
14.6070872163
 30
0.0
 10
7.0163356308
 20
14.6070856281
 30
0.0
 10
7.0163343687
 20
14.6070844262
 30
0.0
  0
SPLINE
  5
397
100
AcDbEntity
  8
0
100
AcDbSpline
 62
7
  6
CONTINUOUS
 70
0
 71
3
 72
35
 73
31
 74
0
 42
0.0000001
 43
0.0000001
 44
0.0000000001
 40
0.0
 40
0.0
 40
0.0
 40
0.0
 40
0.0000650615
 40
0.0002616131
 40
0.0005895546
 40
0.0010487498
 40
0.0016390627
 40
0.0023603572
 40
0.0041953462
 40
0.006552628
 40
0.0094311142
 40
0.0128297164
 40
0.0167473466
 40
0.0261353401
 40
0.0375863954
 40
0.0510918174
 40
0.0666429151
 40
0.0842308047
 40
0.1038410326
 40
0.1254529357
 40
0.1490455501
 40
0.202089195
 40
0.2628049252
 40
0.331024345
 40
0.4065448551
 40
0.4891345178
 40
0.5785616535
 40
0.6745959041
 40
0.7770046554
 40
1.0
 40
1.0
 40
1.0
 40
1.0
 10
7.7243334015
 20
14.6070844258
 30
0.0
 10
7.7243346517
 20
14.6070832603
 30
0.0
 10
7.724321447
 20
14.6070904916
 30
0.0
 10
7.7243139388
 20
14.6070923151
 30
0.0
 10
7.7242864236
 20
14.6071051244
 30
0.0
 10
7.7242549379
 20
14.6071184751
 30
0.0
 10
7.7242116316
 20
14.6071374769
 30
0.0
 10
7.7241361513
 20
14.607170272
 30
0.0
 10
7.7240175814
 20
14.6072219068
 30
0.0
 10
7.7238473149
 20
14.6072959049
 30
0.0
 10
7.723639223
 20
14.6073862853
 30
0.0
 10
7.723393536
 20
14.6074928766
 30
0.0
 10
7.7229908849
 20
14.6076673914
 30
0.0
 10
7.7223939849
 20
14.6079256654
 30
0.0
 10
7.7215656343
 20
14.6082833255
 30
0.0
 10
7.7205883072
 20
14.6087043989
 30
0.0
 10
7.7194625274
 20
14.6091883619
 30
0.0
 10
7.7181889819
 20
14.6097346778
 30
0.0
 10
7.7167685301
 20
14.6103424162
 30
0.0
 10
7.7152021998
 20
14.6110102293
 30
0.0
 10
7.7128264344
 20
14.6120190553
 30
0.0
 10
7.7095015107
 20
14.613420967
 30
0.0
 10
7.7050893467
 20
14.6152618166
 30
0.0
 10
7.7001238797
 20
14.617309939
 30
0.0
 10
7.6946167788
 20
14.6195518242
 30
0.0
 10
7.688580817
 20
14.6219720443
 30
0.0
 10
7.6820296446
 20
14.6245551108
 30
0.0
 10
7.6749770526
 20
14.6272855924
 30
0.0
 10
7.6646256581
 20
14.6312137913
 30
0.0
 10
7.6565985243
 20
14.6341555307
 30
0.0
 10
7.6510816995
 20
14.6361264655
 30
0.0
  0
LINE
  5
398
100
AcDbEntity
  8
0
100
AcDbLine
 62
7
  6
CONTINUOUS
 10
10.8941250873
 20
15.3435193987
 11
10.8837662392
 21
15.3444389748
  0
LINE
  5
399
100
AcDbEntity
  8
0
100
AcDbLine
 62
7
  6
CONTINUOUS
 10
10.8837662392
 20
15.3444389748
 11
10.8823492252
 21
15.3445644705
  0
SPLINE
  5
39A
100
AcDbEntity
  8
0
100
AcDbSpline
 62
7
  6
CONTINUOUS
 70
0
 71
3
 72
18
 73
14
 74
0
 42
0.0000001
 43
0.0000001
 44
0.0000000001
 40
0.0
 40
0.0
 40
0.0
 40
0.0
 40
0.1710209437
 40
0.3299000309
 40
0.4760186052
 40
0.6088148536
 40
0.7278105593
 40
0.7820294961
 40
0.832690932
 40
0.8797865581
 40
0.9233304122
 40
0.9633720414
 40
1.0
 40
1.0
 40
1.0
 40
1.0
 10
10.8597786141
 20
15.3465144463
 30
0.0
 10
10.8548127258
 20
15.3469263948
 30
0.0
 10
10.8452309126
 20
15.347690864
 30
0.0
 10
10.8313932914
 20
15.3486368172
 30
0.0
 10
10.8186531774
 20
15.3492876236
 30
0.0
 10
10.8070619861
 20
15.3495905536
 30
0.0
 10
10.7981431641
 20
15.3495086853
 30
0.0
 10
10.7916268077
 20
15.3491985154
 30
0.0
 10
10.7872112627
 20
15.3488557039
 30
0.0
 10
10.7831195612
 20
15.3483907002
 30
0.0
 10
10.7793569504
 20
15.3477977169
 30
0.0
 10
10.7759282716
 20
15.347073765
 30
0.0
 10
10.7737735657
 20
15.3464761083
 30
0.0
 10
10.7727573837
 20
15.3461500567
 30
0.0
  0
SPLINE
  5
39B
100
AcDbEntity
  8
0
100
AcDbSpline
 62
7
  6
CONTINUOUS
 70
0
 71
3
 72
9
 73
5
 74
0
 42
0.0000001
 43
0.0000001
 44
0.0000000001
 40
0.0
 40
0.0
 40
0.0
 40
0.0
 40
0.5301749608
 40
1.0
 40
1.0
 40
1.0
 40
1.0
 10
10.7727573837
 20
15.3461500567
 30
0.0
 10
10.7716149985
 20
15.3457835115
 30
0.0
 10
10.7694890102
 20
15.344995662
 30
0.0
 10
10.7674715666
 20
15.343950837
 30
0.0
 10
10.7665720617
 20
15.3433840506
 30
0.0
  0
SPLINE
  5
39C
100
AcDbEntity
  8
0
100
AcDbSpline
 62
7
  6
CONTINUOUS
 70
0
 71
3
 72
14
 73
10
 74
0
 42
0.0000001
 43
0.0000001
 44
0.0000000001
 40
0.0
 40
0.0
 40
0.0
 40
0.0
 40
0.2743329369
 40
0.4006586806
 40
0.5219624405
 40
0.6403038794
 40
0.7579129424
 40
0.8770751403
 40
1.0
 40
1.0
 40
1.0
 40
1.0
 10
10.7665720617
 20
15.3433840506
 30
0.0
 10
10.7656742945
 20
15.342818359
 30
0.0
 10
10.7644255812
 20
15.3418752088
 30
0.0
 10
10.7630536549
 20
15.3403881361
 30
0.0
 10
10.7622319774
 20
15.3392301373
 30
0.0
 10
10.7615920699
 20
15.3380002906
 30
0.0
 10
10.7611355161
 20
15.3366998189
 30
0.0
 10
10.7608633975
 20
15.3353309818
 30
0.0
 10
10.7608062992
 20
15.3343932165
 30
0.0
 10
10.7608064019
 20
15.3339177395
 30
0.0
  0
SPLINE
  5
39D
100
AcDbEntity
  8
0
100
AcDbSpline
 62
7
  6
CONTINUOUS
 70
0
 71
3
 72
13
 73
9
 74
0
 42
0.0000001
 43
0.0000001
 44
0.0000000001
 40
0.0
 40
0.0
 40
0.0
 40
0.0
 40
0.1232519588
 40
0.2427391445
 40
0.3606227992
 40
0.4791550348
 40
0.7262984448
 40
1.0
 40
1.0
 40
1.0
 40
1.0
 10
11.4358059996
 20
15.3339172164
 30
0.0
 10
11.4358061614
 20
15.3343878091
 30
0.0
 10
11.4357504865
 20
15.335315951
 30
0.0
 10
11.4354844389
 20
15.336671158
 30
0.0
 10
11.4350375313
 20
15.3379593317
 30
0.0
 10
11.4341916649
 20
15.3396067116
 30
0.0
 10
11.4326326111
 20
15.3415225525
 30
0.0
 10
11.4310420906
 20
15.3427419166
 30
0.0
 10
11.430162492
 20
15.3433061801
 30
0.0
  0
SPLINE
  5
39E
100
AcDbEntity
  8
0
100
AcDbSpline
 62
7
  6
CONTINUOUS
 70
0
 71
3
 72
9
 73
5
 74
0
 42
0.0000001
 43
0.0000001
 44
0.0000000001
 40
0.0
 40
0.0
 40
0.0
 40
0.0
 40
0.4744930693
 40
1.0
 40
1.0
 40
1.0
 40
1.0
 10
11.4292365886
 20
15.3438639346
 30
0.0
 10
11.4284322754
 20
15.3443192667
 30
0.0
 10
11.4266732893
 20
15.3451674397
 30
0.0
 10
11.4248402559
 20
15.3458342378
 30
0.0
 10
11.4238656433
 20
15.3461471848
 30
0.0
  0
SPLINE
  5
39F
100
AcDbEntity
  8
0
100
AcDbSpline
 62
7
  6
CONTINUOUS
 70
0
 71
3
 72
18
 73
14
 74
0
 42
0.0000001
 43
0.0000001
 44
0.0000000001
 40
0.0
 40
0.0
 40
0.0
 40
0.0
 40
0.0366183155
 40
0.0766513879
 40
0.1201863877
 40
0.1672738148
 40
0.2179294674
 40
0.2721448567
 40
0.3911383307
 40
0.5239373709
 40
0.6700651457
 40
0.8289588137
 40
1.0
 40
1.0
 40
1.0
 40
1.0
 10
11.4238656433
 20
15.3461471848
 30
0.0
 10
11.4228491619
 20
15.3464735758
 30
0.0
 10
11.4206936954
 20
15.3470717792
 30
0.0
 10
11.4172637132
 20
15.3477963686
 30
0.0
 10
11.4134995895
 20
15.3483903014
 30
0.0
 10
11.409406025
 20
15.348855976
 30
0.0
 10
11.4049882047
 20
15.3491988533
 30
0.0
 10
11.3984680709
 20
15.3495087337
 30
0.0
 10
11.3895437372
 20
15.3495899867
 30
0.0
 10
11.37794499
 20
15.3492868508
 30
0.0
 10
11.3651961136
 20
15.3486353752
 30
0.0
 10
11.3513485361
 20
15.3476885966
 30
0.0
 10
11.3417597118
 20
15.3469233608
 30
0.0
 10
11.3367901265
 20
15.3465110024
 30
0.0
  0
LINE
  5
3A0
100
AcDbEntity
  8
0
100
AcDbLine
 62
7
  6
CONTINUOUS
 10
11.3367901265
 20
15.3465110024
 11
11.302485921
 21
15.3435192674
  0
SPLINE
  5
3A1
100
AcDbEntity
  8
0
100
AcDbSpline
 62
7
  6
CONTINUOUS
 70
0
 71
3
 72
11
 73
7
 74
0
 42
0.0000001
 43
0.0000001
 44
0.0000000001
 40
0.0
 40
0.0
 40
0.0
 40
0.0
 40
0.2818769312
 40
0.5417702406
 40
0.7806908246
 40
1.0
 40
1.0
 40
1.0
 40
1.0
 10
10.7731585426
 20
15.3319369096
 30
0.0
 10
10.7722608484
 20
15.3325005441
 30
0.0
 10
10.7705629278
 20
15.3336287735
 30
0.0
 10
10.7682229297
 20
15.3354053246
 30
0.0
 10
10.7661968535
 20
15.3371946655
 30
0.0
 10
10.7650082047
 20
15.3384466053
 30
0.0
 10
10.7644737462
 20
15.3390746733
 30
0.0
  0
SPLINE
  5
3A2
100
AcDbEntity
  8
0
100
AcDbSpline
 62
7
  6
CONTINUOUS
 70
0
 71
3
 72
14
 73
10
 74
0
 42
0.0000001
 43
0.0000001
 44
0.0000000001
 40
0.0
 40
0.0
 40
0.0
 40
0.0
 40
0.1655037766
 40
0.3185989151
 40
0.4594418091
 40
0.5883313099
 40
0.7058403105
 40
0.8128345286
 40
1.0
 40
1.0
 40
1.0
 40
1.0
 10
11.4245878717
 20
15.3138727046
 30
0.0
 10
11.4254808624
 20
15.3148083105
 30
0.0
 10
11.4271607238
 20
15.3166475336
 30
0.0
 10
11.4294410242
 20
15.3194231646
 30
0.0
 10
11.4313802981
 20
15.3221016497
 30
0.0
 10
11.4329751802
 20
15.3246765815
 30
0.0
 10
11.434223884
 20
15.3271460064
 30
0.0
 10
11.4353728696
 20
15.3301516129
 30
0.0
 10
11.4358054969
 20
15.3324545725
 30
0.0
 10
11.4358059996
 20
15.3339172164
 30
0.0
  0
SPLINE
  5
3A3
100
AcDbEntity
  8
0
100
AcDbSpline
 62
7
  6
CONTINUOUS
 70
0
 71
3
 72
11
 73
7
 74
0
 42
0.0000001
 43
0.0000001
 44
0.0000000001
 40
0.0
 40
0.0
 40
0.0
 40
0.0
 40
0.2193900203
 40
0.4583408935
 40
0.7182084458
 40
1.0
 40
1.0
 40
1.0
 40
1.0
 10
11.4321413469
 20
15.3390775511
 30
0.0
 10
11.4316086541
 20
15.3384513481
 30
0.0
 10
11.4304242458
 20
15.3372031049
 30
0.0
 10
11.4284058526
 20
15.335418794
 30
0.0
 10
11.4260753161
 20
15.3336471885
 30
0.0
 10
11.4243844224
 20
15.332521951
 30
0.0
 10
11.4234905192
 20
15.3319598122
 30
0.0
  0
SPLINE
  5
3A4
100
AcDbEntity
  8
0
100
AcDbSpline
 62
7
  6
CONTINUOUS
 70
0
 71
3
 72
14
 73
10
 74
0
 42
0.0000001
 43
0.0000001
 44
0.0000000001
 40
0.0
 40
0.0
 40
0.0
 40
0.0
 40
0.1869613803
 40
0.2939128737
 40
0.4114118153
 40
0.5403156159
 40
0.6812038468
 40
0.8343807222
 40
1.0
 40
1.0
 40
1.0
 40
1.0
 10
10.7608064019
 20
15.3339177395
 30
0.0
 10
10.7608067191
 20
15.332448868
 30
0.0
 10
10.7612432787
 20
15.3301355496
 30
0.0
 10
10.7624012027
 20
15.3271171257
 30
0.0
 10
10.7636596987
 20
15.3246363667
 30
0.0
 10
10.7652668298
 20
15.3220494929
 30
0.0
 10
10.7672209376
 20
15.3193585154
 30
0.0
 10
10.7695186661
 20
15.3165698484
 30
0.0
 10
10.7712112298
 20
15.3147220688
 30
0.0
 10
10.7721109784
 20
15.313782088
 30
0.0
  0
SPLINE
  5
3A5
100
AcDbEntity
  8
0
100
AcDbSpline
 62
7
  6
CONTINUOUS
 70
0
 71
3
 72
9
 73
5
 74
0
 42
0.0000001
 43
0.0000001
 44
0.0000000001
 40
0.0
 40
0.0
 40
0.0
 40
0.0
 40
0.2443578845
 40
1.0
 40
1.0
 40
1.0
 40
1.0
 10
7.6143403408
 20
21.6043805186
 30
0.0
 10
7.6136476208
 20
21.6073266925
 30
0.0
 10
7.610599613
 20
21.6193330314
 30
0.0
 10
7.6067429497
 20
21.6311287111
 30
0.0
 10
7.6034670695
 20
21.6398957435
 30
0.0
  0
SPLINE
  5
3A6
100
AcDbEntity
  8
0
100
AcDbSpline
 62
7
  6
CONTINUOUS
 70
0
 71
3
 72
26
 73
22
 74
0
 42
0.0000001
 43
0.0000001
 44
0.0000000001
 40
0.0
 40
0.0
 40
0.0
 40
0.0
 40
0.0759486099
 40
0.1518754014
 40
0.2272473163
 40
0.3016389039
 40
0.374630164
 40
0.4457983935
 40
0.5147552709
 40
0.58114824
 40
0.644668565
 40
0.6752760054
 40
0.7050771022
 40
0.7340511099
 40
0.7621822941
 40
0.7894646552
 40
0.8158970392
 40
0.866219621
 40
0.913397011
 40
0.9578160735
 40
1.0
 40
1.0
 40
1.0
 40
1.0
 10
7.1909477991
 20
0.6343878568
 30
0.0
 10
7.1858487296
 20
0.5305072251
 30
0.0
 10
7.1817543197
 20
0.3224266908
 30
0.0
 10
7.1936990772
 20
0.0112907036
 30
0.0
 10
7.2236872292
 20
-0.2965002252
 30
0.0
 10
7.27136776
 20
-0.5979835955
 30
0.0
 10
7.3362268341
 20
-0.8903612874
 30
0.0
 10
7.4176069012
 20
-1.1708485872
 30
0.0
 10
7.5145749279
 20
-1.4367604102
 30
0.0
 10
7.626081962
 20
-1.6854860495
 30
0.0
 10
7.7312539186
 20
-1.8788130102
 30
0.0
 10
7.8216872844
 20
-2.0224757779
 30
0.0
 10
7.8913701043
 20
-2.1231576411
 30
0.0
 10
7.9635201763
 20
-2.2178595621
 30
0.0
 10
8.0379216929
 20
-2.3063444491
 30
0.0
 10
8.1143032682
 20
-2.3884419409
 30
0.0
 10
8.2167244451
 20
-2.4875501508
 30
0.0
 10
8.3482230876
 20
-2.5954807021
 30
0.0
 10
8.5127414694
 20
-2.6999310053
 30
0.0
 10
8.6795863734
 20
-2.7769336799
 30
0.0
 10
8.7937579351
 20
-2.8108651986
 30
0.0
 10
8.8502365556
 20
-2.8230003139
 30
0.0
  0
SPLINE
  5
3A7
100
AcDbEntity
  8
0
100
AcDbSpline
 62
7
  6
CONTINUOUS
 70
0
 71
3
 72
23
 73
19
 74
0
 42
0.0000001
 43
0.0000001
 44
0.0000000001
 40
0.0
 40
0.0
 40
0.0
 40
0.0
 40
0.0718459834
 40
0.143673454
 40
0.2150464281
 40
0.2856290068
 40
0.3551021622
 40
0.4231567074
 40
0.4895310034
 40
0.5540143234
 40
0.6164601432
 40
0.6767870363
 40
0.7349965999
 40
0.7911716655
 40
0.8454856544
 40
0.8981784806
 40
0.949554137
 40
1.0
 40
1.0
 40
1.0
 40
1.0
 10
6.6316212203
 20
0.6618428794
 30
0.0
 10
6.6258722938
 20
0.5447230568
 30
0.0
 10
6.6213930234
 20
0.3101107935
 30
0.0
 10
6.6354991196
 20
-0.0407832371
 30
0.0
 10
6.6704080867
 20
-0.3881671107
 30
0.0
 10
6.7258042584
 20
-0.7289888564
 30
0.0
 10
6.8012676647
 20
-1.060397324
 30
0.0
 10
6.8962578571
 20
-1.3796028562
 30
0.0
 10
7.0100883247
 20
-1.6839289745
 30
0.0
 10
7.1420038925
 20
-1.970848983
 30
0.0
 10
7.2911298872
 20
-2.2380051728
 30
0.0
 10
7.45659674
 20
-2.4831543788
 30
0.0
 10
7.6374289667
 20
-2.7041964729
 30
0.0
 10
7.8326428058
 20
-2.8990850844
 30
0.0
 10
8.0411196775
 20
-3.0657610124
 30
0.0
 10
8.2614856905
 20
-3.2022002663
 30
0.0
 10
8.491982072
 20
-3.3062831479
 30
0.0
 10
8.6521022847
 20
-3.3532093284
 30
0.0
 10
8.7325985617
 20
-3.3705049279
 30
0.0
  0
SPLINE
  5
3A8
100
AcDbEntity
  8
0
100
AcDbSpline
 62
9
  6
CONTINUOUS
 70
0
 71
3
 72
20
 73
16
 74
0
 42
0.0000001
 43
0.0000001
 44
0.0000000001
 40
0.0
 40
0.0
 40
0.0
 40
0.0
 40
0.2180455078
 40
0.4137215306
 40
0.5840458205
 40
0.7265253129
 40
0.7868705027
 40
0.8397473172
 40
0.8850171305
 40
0.9225752491
 40
0.9524369336
 40
0.9747583906
 40
0.9832315285
 40
0.990069574
 40
1.0
 40
1.0
 40
1.0
 40
1.0
 10
7.1940073728
 20
9.9631609455
 30
0.0
 10
7.1861896656
 20
9.9631609455
 30
0.0
 10
7.1713560849
 20
9.9630809838
 30
0.0
 10
7.1504188298
 20
9.9626873955
 30
0.0
 10
7.1321988454
 20
9.9620328827
 30
0.0
 10
7.1188412367
 20
9.9612427585
 30
0.0
 10
7.1097071615
 20
9.9604505601
 30
0.0
 10
7.1040577883
 20
9.9598315763
 30
0.0
 10
7.0992384657
 20
9.9591572324
 30
0.0
 10
7.0952614933
 20
9.9584327572
 30
0.0
 10
7.0921367409
 20
9.957657401
 30
0.0
 10
7.0900776239
 20
9.9569362809
 30
0.0
 10
7.0888860096
 20
9.9562867338
 30
0.0
 10
7.0881653505
 20
9.9557524802
 30
0.0
 10
7.0877975167
 20
9.9551921636
 30
0.0
 10
7.0877782966
 20
9.9548366417
 30
0.0
  0
LINE
  5
3A9
100
AcDbEntity
  8
0
100
AcDbLine
 62
9
  6
CONTINUOUS
 10
14.5434677852
 20
-4.5795252581
 11
14.5383898189
 21
-4.5795107393
  0
SPLINE
  5
3AA
100
AcDbEntity
  8
0
100
AcDbSpline
 62
9
  6
CONTINUOUS
 70
0
 71
3
 72
9
 73
5
 74
0
 42
0.0000001
 43
0.0000001
 44
0.0000000001
 40
0.0
 40
0.0
 40
0.0
 40
0.0
 40
0.4783574991
 40
1.0
 40
1.0
 40
1.0
 40
1.0
 10
14.5383898189
 20
-4.5795107393
 30
0.0
 10
14.4810814209
 20
-4.5792384866
 30
0.0
 10
14.3612591689
 20
-4.5710358652
 30
0.0
 10
14.2430292474
 20
-4.5505814799
 30
0.0
 10
14.1819289524
 20
-4.5374533419
 30
0.0
  0
SPLINE
  5
3AB
100
AcDbEntity
  8
0
100
AcDbSpline
 62
9
  6
CONTINUOUS
 70
0
 71
3
 72
28
 73
24
 74
0
 42
0.0000001
 43
0.0000001
 44
0.0000000001
 40
0.0
 40
0.0
 40
0.0
 40
0.0
 40
0.1478656163
 40
0.3139927486
 40
0.3998414034
 40
0.4853685532
 40
0.5688800211
 40
0.6487345041
 40
0.7233896821
 40
0.7913681814
 40
0.8513858363
 40
0.9022420693
 40
0.9239377399
 40
0.9430125829
 40
0.9593711284
 40
0.972937293
 40
0.9836862287
 40
0.9880068498
 40
0.9916322098
 40
0.9945783672
 40
0.9968808614
 40
0.9986222015
 40
1.0
 40
1.0
 40
1.0
 40
1.0
 10
6.737852835
 20
0.6701670585
 30
0.0
 10
6.7603431431
 20
0.6701670585
 30
0.0
 10
6.8081013868
 20
0.6694678069
 30
0.0
 10
6.8688853412
 20
0.6674151921
 30
0.0
 10
6.9201644259
 20
0.6650274678
 30
0.0
 10
6.9588742954
 20
0.6628914038
 30
0.0
 10
6.9966540788
 20
0.6604735953
 30
0.0
 10
7.0327601267
 20
0.6578186865
 30
0.0
 10
7.0664823274
 20
0.6549848233
 30
0.0
 10
7.0971640538
 20
0.6520245478
 30
0.0
 10
7.1242003563
 20
0.6490045029
 30
0.0
 10
7.144193634
 20
0.6463696969
 30
0.0
 10
7.1579657644
 20
0.6442319934
 30
0.0
 10
7.16652621
 20
0.6427377667
 30
0.0
 10
7.1738355787
 20
0.641276214
 30
0.0
 10
7.1798572506
 20
0.6398531853
 30
0.0
 10
7.1840447617
 20
0.6386407018
 30
0.0
 10
7.1867164427
 20
0.6376634348
 30
0.0
 10
7.1882355473
 20
0.6369993277
 30
0.0
 10
7.1894229357
 20
0.6363513458
 30
0.0
 10
7.1902801959
 20
0.6357155705
 30
0.0
 10
7.1908261941
 20
0.6350801107
 30
0.0
 10
7.1909565735
 20
0.6345972385
 30
0.0
 10
7.1909452607
 20
0.6343879815
 30
0.0
  0
SPLINE
  5
3AC
100
AcDbEntity
  8
0
100
AcDbSpline
 62
9
  6
CONTINUOUS
 70
0
 71
3
 72
60
 73
56
 74
0
 42
0.0000001
 43
0.0000001
 44
0.0000000001
 40
0.0
 40
0.0
 40
0.0
 40
0.0
 40
0.0339224391
 40
0.0692936458
 40
0.1060301254
 40
0.1440204055
 40
0.1831334593
 40
0.2232147919
 40
0.2640969
 40
0.3056056274
 40
0.3475610246
 40
0.3897731674
 40
0.4320459508
 40
0.4741810788
 40
0.5159785505
 40
0.5572346954
 40
0.5977432925
 40
0.6372970522
 40
0.6756882359
 40
0.7127064144
 40
0.7481389236
 40
0.7651941141
 40
0.7817726072
 40
0.7978478606
 40
0.8133935568
 40
0.8283807504
 40
0.8427790989
 40
0.8565590661
 40
0.8696920366
 40
0.8821477777
 40
0.8938948323
 40
0.9048996773
 40
0.9151267897
 40
0.9245427472
 40
0.9331167562
 40
0.9408314549
 40
0.9476881501
 40
0.9537310059
 40
0.9564839564
 40
0.9590789032
 40
0.9615371326
 40
0.9638871535
 40
0.9661592981
 40
0.9683848444
 40
0.9705916132
 40
0.972802016
 40
0.9750404766
 40
0.9773336886
 40
0.9797064762
 40
0.9821759868
 40
0.9847594556
 40
0.9874754021
 40
0.9903425102
 40
0.993376614
 40
1.0
 40
1.0
 40
1.0
 40
1.0
 10
10.9301851791
 20
13.7400844068
 30
0.0
 10
10.9420610052
 20
13.528485258
 30
0.0
 10
10.9781625274
 20
13.0968662704
 30
0.0
 10
11.0627482137
 20
12.4396953119
 30
0.0
 10
11.1757193387
 20
11.7610567651
 30
0.0
 10
11.3142178449
 20
11.0633569301
 30
0.0
 10
11.4753662022
 20
10.3491247649
 30
0.0
 10
11.6564262746
 20
9.6210672126
 30
0.0
 10
11.8546639754
 20
8.8820055159
 30
0.0
 10
12.0673310313
 20
8.1347965871
 30
0.0
 10
12.291658377
 20
7.3823387265
 30
0.0
 10
12.52491255
 20
6.6276086404
 30
0.0
 10
12.7643624319
 20
5.87364773
 30
0.0
 10
13.0072655891
 20
5.1235181883
 30
0.0
 10
13.2508727149
 20
4.3803000974
 30
0.0
 10
13.4924353892
 20
3.6471074938
 30
0.0
 10
13.7292009494
 20
2.9270930882
 30
0.0
 10
13.9584101324
 20
2.2234372462
 30
0.0
 10
14.1772897039
 20
1.5393576009
 30
0.0
 10
14.3830743915
 20
0.8781406266
 30
0.0
 10
14.5433403917
 20
0.3423877809
 30
0.0
 10
14.6623279446
 20
-0.0723810911
 30
0.0
 10
14.7453998757
 20
-0.3716280359
 30
0.0
 10
14.8230945766
 20
-0.6625665308
 30
0.0
 10
14.8950491835
 20
-0.9447301592
 30
0.0
 10
14.9609313919
 20
-1.2176084972
 30
0.0
 10
15.0204173522
 20
-1.4806556213
 30
0.0
 10
15.0731791772
 20
-1.7333131516
 30
0.0
 10
15.118877583
 20
-1.9750055152
 30
0.0
 10
15.1572111649
 20
-2.2051127126
 30
0.0
 10
15.1878800167
 20
-2.4229527067
 30
0.0
 10
15.2106580261
 20
-2.6277616047
 30
0.0
 10
15.2253727368
 20
-2.8187124296
 30
0.0
 10
15.2319592245
 20
-2.9949303942
 30
0.0
 10
15.2305089063
 20
-3.1555831583
 30
0.0
 10
15.2212148192
 20
-3.2999735008
 30
0.0
 10
15.2046319107
 20
-3.4277926461
 30
0.0
 10
15.1844167594
 20
-3.5236126665
 30
0.0
 10
15.1646875634
 20
-3.5920149784
 30
0.0
 10
15.1488005804
 20
-3.6381483384
 30
0.0
 10
15.131311942
 20
-3.6809954697
 30
0.0
 10
15.1120379964
 20
-3.7208464783
 30
0.0
 10
15.0908035317
 20
-3.758026602
 30
0.0
 10
15.0674637728
 20
-3.7928514998
 30
0.0
 10
15.0418470697
 20
-3.8255549808
 30
0.0
 10
15.0136097416
 20
-3.8561439399
 30
0.0
 10
14.9824737289
 20
-3.8845898731
 30
0.0
 10
14.9481806708
 20
-3.9108452928
 30
0.0
 10
14.9105381092
 20
-3.9348299061
 30
0.0
 10
14.8693688228
 20
-3.9563384472
 30
0.0
 10
14.8245533219
 20
-3.9751233637
 30
0.0
 10
14.7759851395
 20
-3.9909308538
 30
0.0
 10
14.7235825189
 20
-4.0035092727
 30
0.0
 10
14.646303343
 20
-4.01611891
 30
0.0
 10
14.5858376269
 20
-4.0194956927
 30
0.0
 10
14.5444576893
 20
-4.0195002998
 30
0.0
  0
SPLINE
  5
3AD
100
AcDbEntity
  8
0
100
AcDbSpline
 62
7
  6
CONTINUOUS
 70
0
 71
3
 72
15
 73
11
 74
0
 42
0.0000001
 43
0.0000001
 44
0.0000000001
 40
0.0
 40
0.0
 40
0.0
 40
0.0
 40
0.1516739133
 40
0.2902850188
 40
0.4189301926
 40
0.5404546508
 40
0.6574299946
 40
0.7719299873
 40
0.8855893403
 40
1.0
 40
1.0
 40
1.0
 40
1.0
 10
10.6132856761
 20
14.7814286268
 30
0.0
 10
10.6162878215
 20
14.7779868787
 30
0.0
 10
10.6224415168
 20
14.7717376105
 30
0.0
 10
10.632438001
 20
14.7639856094
 30
0.0
 10
10.6425851069
 20
14.7580773168
 30
0.0
 10
10.6528359965
 20
14.7538467701
 30
0.0
 10
10.6631444426
 20
14.7511366411
 30
0.0
 10
10.673474314
 20
14.7497688461
 30
0.0
 10
10.6838168016
 20
14.7497305453
 30
0.0
 10
10.6906525097
 20
14.7505868179
 30
0.0
 10
10.6940378568
 20
14.7512254776
 30
0.0
  0
SPLINE
  5
3AE
100
AcDbEntity
  8
0
100
AcDbSpline
 62
7
  6
CONTINUOUS
 70
0
 71
3
 72
11
 73
7
 74
0
 42
0.0000001
 43
0.0000001
 44
0.0000000001
 40
0.0
 40
0.0
 40
0.0
 40
0.0
 40
0.2151220472
 40
0.4456886799
 40
0.7029522425
 40
1.0
 40
1.0
 40
1.0
 40
1.0
 10
10.6940378568
 20
14.7512254776
 30
0.0
 10
10.699238507
 20
14.7522066017
 30
0.0
 10
10.7098489901
 20
14.7552861406
 30
0.0
 10
10.7252300235
 20
14.7634403904
 30
0.0
 10
10.7402534206
 20
14.7757673087
 30
0.0
 10
10.7489479726
 20
14.7863970876
 30
0.0
 10
10.753102508
 20
14.7924091869
 30
0.0
  0
SPLINE
  5
3AF
100
AcDbEntity
  8
0
100
AcDbSpline
 62
9
  6
CONTINUOUS
 70
0
 71
3
 72
25
 73
21
 74
0
 42
0.0000001
 43
0.0000001
 44
0.0000000001
 40
0.0
 40
0.0
 40
0.0
 40
0.0
 40
0.0270994672
 40
0.0543446436
 40
0.1097127376
 40
0.1381814765
 40
0.167279815
 40
0.2274910923
 40
0.2905731244
 40
0.3562934974
 40
0.4241169465
 40
0.493262792
 40
0.5628336617
 40
0.6318741719
 40
0.699497195
 40
0.7649478696
 40
0.827701133
 40
0.8875880808
 40
0.9448687721
 40
1.0
 40
1.0
 40
1.0
 40
1.0
 10
8.8502331467
 20
-2.8230161783
 30
0.0
 10
8.8568348959
 20
-2.8244347575
 30
0.0
 10
8.8699196867
 20
-2.8280721402
 30
0.0
 10
8.8952456263
 20
-2.8384964799
 30
0.0
 10
8.9188047606
 20
-2.8535671449
 30
0.0
 10
8.9397437203
 20
-2.8724255129
 30
0.0
 10
8.9593804595
 20
-2.8943026448
 30
0.0
 10
8.98030586
 20
-2.9262982709
 30
0.0
 10
8.9985102924
 20
-2.9699878935
 30
0.0
 10
9.0096309166
 20
-3.0179219345
 30
0.0
 10
9.0132727483
 20
-3.0684887608
 30
0.0
 10
9.0093721128
 20
-3.1199863028
 30
0.0
 10
8.9980563198
 20
-3.1706856324
 30
0.0
 10
8.9796910772
 20
-3.2188745205
 30
0.0
 10
8.9549188574
 20
-3.2629457062
 30
0.0
 10
8.9245056704
 20
-3.3013777858
 30
0.0
 10
8.8894950828
 20
-3.3328964665
 30
0.0
 10
8.8509662708
 20
-3.3563827312
 30
0.0
 10
8.8102315534
 20
-3.3708903209
 30
0.0
 10
8.7821337116
 20
-3.3742903696
 30
0.0
 10
8.7683965278
 20
-3.3742903696
 30
0.0
  0
SPLINE
  5
3B0
100
AcDbEntity
  8
0
100
AcDbSpline
 62
7
  6
CONTINUOUS
 70
0
 71
3
 72
9
 73
5
 74
0
 42
0.0000001
 43
0.0000001
 44
0.0000000001
 40
0.0
 40
0.0
 40
0.0
 40
0.0
 40
0.5338903233
 40
1.0
 40
1.0
 40
1.0
 40
1.0
 10
10.753102508
 20
15.1977596267
 30
0.0
 10
10.7492252839
 20
15.2033704242
 30
0.0
 10
10.7411429406
 20
15.2133559894
 30
0.0
 10
10.7313746854
 20
15.2217145975
 30
0.0
 10
10.7264965953
 20
15.2251288915
 30
0.0
  0
SPLINE
  5
3B1
100
AcDbEntity
  8
0
100
AcDbSpline
 62
7
  6
CONTINUOUS
 70
0
 71
3
 72
9
 73
5
 74
0
 42
0.0000001
 43
0.0000001
 44
0.0000000001
 40
0.0
 40
0.0
 40
0.0
 40
0.0
 40
0.5174139501
 40
1.0
 40
1.0
 40
1.0
 40
1.0
 10
10.7264965953
 20
15.2251288915
 30
0.0
 10
10.7223714606
 20
15.2280161738
 30
0.0
 10
10.7139201607
 20
15.2329546155
 30
0.0
 10
10.7047259753
 20
15.2363095442
 30
0.0
 10
10.7001913648
 20
15.2375311003
 30
0.0
  0
SPLINE
  5
3B2
100
AcDbEntity
  8
0
100
AcDbSpline
 62
7
  6
CONTINUOUS
 70
0
 71
3
 72
15
 73
11
 74
0
 42
0.0000001
 43
0.0000001
 44
0.0000000001
 40
0.0
 40
0.0
 40
0.0
 40
0.0
 40
0.1147593178
 40
0.2285671653
 40
0.3430998995
 40
0.4600381046
 40
0.5814185391
 40
0.7098472922
 40
0.8483025516
 40
1.0
 40
1.0
 40
1.0
 40
1.0
 10
10.6952685917
 20
15.2386967627
 30
0.0
 10
10.6918365616
 20
15.239400107
 30
0.0
 10
10.6849042189
 20
15.2403731664
 30
0.0
 10
10.6744015579
 20
15.2404667447
 30
0.0
 10
10.6639104901
 20
15.2391802092
 30
0.0
 10
10.6534411344
 20
15.2365210908
 30
0.0
 10
10.6430257809
 20
15.2323172673
 30
0.0
 10
10.6327227706
 20
15.2263821934
 30
0.0
 10
10.6225771011
 20
15.2185533588
 30
0.0
 10
10.6163324605
 20
15.2122281147
 30
0.0
 10
10.6132874185
 20
15.2087390034
 30
0.0
  0
SPLINE
  5
3B3
100
AcDbEntity
  8
0
100
AcDbSpline
 62
9
  6
CONTINUOUS
 70
0
 71
3
 72
20
 73
16
 74
0
 42
0.0000001
 43
0.0000001
 44
0.0000000001
 40
0.0
 40
0.0
 40
0.0
 40
0.0
 40
0.009930426
 40
0.0167684715
 40
0.0252416094
 40
0.0475630664
 40
0.0774247509
 40
0.1149828695
 40
0.1602526828
 40
0.2131294973
 40
0.2734746871
 40
0.4159541795
 40
0.5862784694
 40
0.7819544922
 40
1.0
 40
1.0
 40
1.0
 40
1.0
 10
6.6316237587
 20
0.6618427547
 30
0.0
 10
6.6316429788
 20
0.6621982767
 30
0.0
 10
6.6320108126
 20
0.6627585933
 30
0.0
 10
6.6327314718
 20
0.6632928469
 30
0.0
 10
6.633923086
 20
0.663942394
 30
0.0
 10
6.635982203
 20
0.664663514
 30
0.0
 10
6.6391069554
 20
0.6654388703
 30
0.0
 10
6.6430839279
 20
0.6661633455
 30
0.0
 10
6.6479032504
 20
0.6668376894
 30
0.0
 10
6.6535526237
 20
0.6674566731
 30
0.0
 10
6.6626866988
 20
0.6682488716
 30
0.0
 10
6.6760443075
 20
0.6690389957
 30
0.0
 10
6.694264292
 20
0.6696935086
 30
0.0
 10
6.715201547
 20
0.6700870968
 30
0.0
 10
6.7300351277
 20
0.6701670585
 30
0.0
 10
6.737852835
 20
0.6701670585
 30
0.0
  0
SPLINE
  5
3B4
100
AcDbEntity
  8
0
100
AcDbSpline
 62
9
  6
CONTINUOUS
 70
0
 71
3
 72
28
 73
24
 74
0
 42
0.0000001
 43
0.0000001
 44
0.0000000001
 40
0.0
 40
0.0
 40
0.0
 40
0.0
 40
0.0013777985
 40
0.0031191386
 40
0.0054216328
 40
0.0083677902
 40
0.0119931502
 40
0.0163137713
 40
0.027062707
 40
0.0406288716
 40
0.0569874171
 40
0.0760622601
 40
0.0977579307
 40
0.1486141637
 40
0.2086318186
 40
0.2766103179
 40
0.3512654959
 40
0.4311199789
 40
0.5146314468
 40
0.6001585966
 40
0.6860072514
 40
0.8521343837
 40
1.0
 40
1.0
 40
1.0
 40
1.0
 10
7.6470997986
 20
9.9273818684
 30
0.0
 10
7.6471111114
 20
9.9275911255
 30
0.0
 10
7.646980732
 20
9.9280739976
 30
0.0
 10
7.6464347337
 20
9.9287094574
 30
0.0
 10
7.6455774735
 20
9.9293452328
 30
0.0
 10
7.6443900852
 20
9.9299932146
 30
0.0
 10
7.6428709805
 20
9.9306573217
 30
0.0
 10
7.6401992996
 20
9.9316345887
 30
0.0
 10
7.6360117885
 20
9.9328470722
 30
0.0
 10
7.6299901166
 20
9.9342701009
 30
0.0
 10
7.6226807478
 20
9.9357316537
 30
0.0
 10
7.6141203022
 20
9.9372258803
 30
0.0
 10
7.6003481719
 20
9.9393635838
 30
0.0
 10
7.5803548942
 20
9.9419983898
 30
0.0
 10
7.5533185916
 20
9.9450184348
 30
0.0
 10
7.5226368653
 20
9.9479787102
 30
0.0
 10
7.4889146645
 20
9.9508125734
 30
0.0
 10
7.4528086167
 20
9.9534674822
 30
0.0
 10
7.4150288333
 20
9.9558852908
 30
0.0
 10
7.3763189638
 20
9.9580213548
 30
0.0
 10
7.3250398791
 20
9.960409079
 30
0.0
 10
7.2642559247
 20
9.9624616938
 30
0.0
 10
7.2164976809
 20
9.9631609455
 30
0.0
 10
7.1940073728
 20
9.9631609455
 30
0.0
  0
SPLINE
  5
3B5
100
AcDbEntity
  8
0
100
AcDbSpline
 62
7
  6
CONTINUOUS
 70
0
 71
3
 72
11
 73
7
 74
0
 42
0.0000001
 43
0.0000001
 44
0.0000000001
 40
0.0
 40
0.0
 40
0.0
 40
0.0
 40
0.2654720679
 40
0.5177393214
 40
0.7612352423
 40
1.0
 40
1.0
 40
1.0
 40
1.0
 10
11.5769355786
 20
15.1977596267
 30
0.0
 10
11.5697215561
 20
15.20394123
 30
0.0
 10
11.5545366399
 20
15.2147593444
 30
0.0
 10
11.52992
 20
15.2266654097
 30
0.0
 10
11.5047858016
 20
15.2346296212
 30
0.0
 10
11.4877475027
 20
15.2376674484
 30
0.0
 10
11.4792652516
 20
15.2386967627
 30
0.0
  0
SPLINE
  5
3B6
100
AcDbEntity
  8
0
100
AcDbSpline
 62
7
  6
CONTINUOUS
 70
0
 71
3
 72
14
 73
10
 74
0
 42
0.0000001
 43
0.0000001
 44
0.0000000001
 40
0.0
 40
0.0
 40
0.0
 40
0.0
 40
0.1207081746
 40
0.2411879032
 40
0.3619982775
 40
0.4837157951
 40
0.7331806337
 40
0.8637456832
 40
1.0
 40
1.0
 40
1.0
 40
1.0
 10
11.4792652516
 20
15.2386967627
 30
0.0
 10
11.472769975
 20
15.2394849592
 30
0.0
 10
11.4597173601
 20
15.2405073435
 30
0.0
 10
11.4400737081
 20
15.2403511676
 30
0.0
 10
11.4204566051
 20
15.2385104165
 30
0.0
 10
11.3941977462
 20
15.2337262795
 30
0.0
 10
11.3682328168
 20
15.2248136226
 30
0.0
 10
11.3436998471
 20
15.2112284235
 30
0.0
 10
11.3320474044
 20
15.2025652822
 30
0.0
 10
11.3264391333
 20
15.1977596267
 30
0.0
  0
SPLINE
  5
3B7
100
AcDbEntity
  8
0
100
AcDbSpline
 62
7
  6
CONTINUOUS
 70
0
 71
3
 72
19
 73
15
 74
0
 42
0.0000001
 43
0.0000001
 44
0.0000000001
 40
0.0
 40
0.0
 40
0.0
 40
0.0
 40
0.1250451613
 40
0.1876989306
 40
0.2502399381
 40
0.3127054414
 40
0.3751569502
 40
0.4376054846
 40
0.5000454109
 40
0.6248973883
 40
0.7497645939
 40
0.8122556129
 40
0.8748619472
 40
1.0
 40
1.0
 40
1.0
 40
1.0
 10
11.2317317806
 20
15.1977596267
 30
0.0
 10
11.2170999901
 20
15.2056344627
 30
0.0
 10
11.1939721212
 20
15.2153739896
 30
0.0
 10
11.1621026966
 20
15.2248924924
 30
0.0
 10
11.137796934
 20
15.2305445562
 30
0.0
 10
11.1132435688
 20
15.2348103996
 30
0.0
 10
11.0885178809
 20
15.2378130676
 30
0.0
 10
11.0636867141
 20
15.2396923446
 30
0.0
 10
11.0305094608
 20
15.2407815576
 30
0.0
 10
10.988999064
 20
15.2394566039
 30
0.0
 10
10.9477329559
 20
15.2345667876
 30
0.0
 10
10.9151498035
 20
15.22801308
 30
0.0
 10
10.8829836231
 20
15.2195574346
 30
0.0
 10
10.8594827924
 20
15.2107993429
 30
0.0
 10
10.8444790603
 20
15.2036299131
 30
0.0
  0
SPLINE
  5
3B8
100
AcDbEntity
  8
0
100
AcDbSpline
 62
7
  6
CONTINUOUS
 70
0
 71
3
 72
19
 73
15
 74
0
 42
0.0000001
 43
0.0000001
 44
0.0000000001
 40
0.0
 40
0.0
 40
0.0
 40
0.0
 40
0.1251402109
 40
0.1877575173
 40
0.2502516378
 40
0.3751072548
 40
0.4999528048
 40
0.5623898798
 40
0.6248326865
 40
0.6872770046
 40
0.7497406615
 40
0.8122914227
 40
0.874954258
 40
1.0
 40
1.0
 40
1.0
 40
1.0
 10
10.8443788916
 20
14.7865867789
 30
0.0
 10
10.8593842899
 20
14.7794092307
 30
0.0
 10
10.8828910031
 20
14.7706405493
 30
0.0
 10
10.9150669476
 20
14.7621766735
 30
0.0
 10
10.9476572661
 20
14.7556095818
 30
0.0
 10
10.9889319819
 20
14.750706028
 30
0.0
 10
11.0304515608
 20
14.7493810091
 30
0.0
 10
11.0636362305
 20
14.7504685884
 30
0.0
 10
11.0884725759
 20
14.7523454965
 30
0.0
 10
11.1132033822
 20
14.7553487214
 30
0.0
 10
11.1377636597
 20
14.759616434
 30
0.0
 10
11.1620790676
 20
14.765268038
 30
0.0
 10
11.1939608825
 20
14.7747874056
 30
0.0
 10
11.2170957707
 20
14.7845320801
 30
0.0
 10
11.2317317806
 20
14.7924091869
 30
0.0
  0
SPLINE
  5
3B9
100
AcDbEntity
  8
0
100
AcDbSpline
 62
7
  6
CONTINUOUS
 70
0
 71
3
 72
15
 73
11
 74
0
 42
0.0000001
 43
0.0000001
 44
0.0000000001
 40
0.0
 40
0.0
 40
0.0
 40
0.0
 40
0.1361905216
 40
0.2667769402
 40
0.3932598865
 40
0.5167230411
 40
0.6383714812
 40
0.7590918981
 40
0.8794635775
 40
1.0
 40
1.0
 40
1.0
 40
1.0
 10
11.3264391333
 20
14.7924091869
 30
0.0
 10
11.3319748262
 20
14.7876657227
 30
0.0
 10
11.3434668964
 20
14.7791006048
 30
0.0
 10
11.3619001952
 20
14.7688276088
 30
0.0
 10
11.3807772285
 20
14.761063215
 30
0.0
 10
11.3998992966
 20
14.7554637742
 30
0.0
 10
11.4191709423
 20
14.7518347511
 30
0.0
 10
11.4385153595
 20
14.7499117381
 30
0.0
 10
11.4578921413
 20
14.7496140991
 30
0.0
 10
11.4707745789
 20
14.7505091804
 30
0.0
 10
11.4771867779
 20
14.7512254776
 30
0.0
  0
SPLINE
  5
3BA
100
AcDbEntity
  8
0
100
AcDbSpline
 62
7
  6
CONTINUOUS
 70
0
 71
3
 72
11
 73
7
 74
0
 42
0.0000001
 43
0.0000001
 44
0.0000000001
 40
0.0
 40
0.0
 40
0.0
 40
0.0
 40
0.2386831373
 40
0.4821345149
 40
0.7344273058
 40
1.0
 40
1.0
 40
1.0
 40
1.0
 10
11.4771867779
 20
14.7512254776
 30
0.0
 10
11.4858407689
 20
14.752192202
 30
0.0
 10
11.5032332552
 20
14.7551411273
 30
0.0
 10
11.5289111033
 20
14.7630795357
 30
0.0
 10
11.5540750433
 20
14.7750919914
 30
0.0
 10
11.5695783452
 20
14.786104868
 30
0.0
 10
11.5769355786
 20
14.7924091869
 30
0.0
  0
SPLINE
  5
3BB
100
AcDbEntity
  8
0
100
AcDbSpline
 62
9
  6
CONTINUOUS
 70
0
 71
3
 72
32
 73
28
 74
0
 42
0.0000001
 43
0.0000001
 44
0.0000000001
 40
0.0
 40
0.0
 40
0.0
 40
0.0
 40
0.0361542401
 40
0.0775576936
 40
0.1254355505
 40
0.1806805583
 40
0.2444441151
 40
0.2795410194
 40
0.3165699809
 40
0.3554511729
 40
0.396078326
 40
0.4380069241
 40
0.4806995519
 40
0.5236430845
 40
0.5663824807
 40
0.608533016
 40
0.6496861557
 40
0.6894005544
 40
0.7272371178
 40
0.7629867906
 40
0.7967187508
 40
0.8284576639
 40
0.8581659394
 40
0.8858287012
 40
0.9116623038
 40
0.9585780994
 40
1.0
 40
1.0
 40
1.0
 40
1.0
 10
14.1819289524
 20
-4.5374533419
 30
0.0
 10
14.1909414718
 20
-4.5374533419
 30
0.0
 10
14.2103078448
 20
-4.5359780574
 30
0.0
 10
14.2408200254
 20
-4.5285386114
 30
0.0
 10
14.2740899453
 20
-4.5142635026
 30
0.0
 10
14.3090621276
 20
-4.4913326746
 30
0.0
 10
14.3370666611
 20
-4.4647219553
 30
0.0
 10
14.3585502514
 20
-4.4384919377
 30
0.0
 10
14.374172904
 20
-4.415605522
 30
0.0
 10
14.3883632325
 20
-4.3902111547
 30
0.0
 10
14.4006668744
 20
-4.3625083572
 30
0.0
 10
14.4108668392
 20
-4.3329604852
 30
0.0
 10
14.4186738837
 20
-4.3020950118
 30
0.0
 10
14.4238100215
 20
-4.2704635592
 30
0.0
 10
14.4259253666
 20
-4.238618809
 30
0.0
 10
14.4250661125
 20
-4.2071666007
 30
0.0
 10
14.4214687322
 20
-4.1766708267
 30
0.0
 10
14.4153328552
 20
-4.1476794356
 30
0.0
 10
14.4068203174
 20
-4.1206981521
 30
0.0
 10
14.3961448009
 20
-4.0961158404
 30
0.0
 10
14.3837674222
 20
-4.0740782594
 30
0.0
 10
14.3700850967
 20
-4.0546444775
 30
0.0
 10
14.3554894785
 20
-4.0378473037
 30
0.0
 10
14.3402894036
 20
-4.0236761173
 30
0.0
 10
14.3202595573
 20
-4.0086003718
 30
0.0
 10
14.2950405907
 20
-3.9949928975
 30
0.0
 10
14.2739091032
 20
-3.9883261379
 30
0.0
 10
14.2638153059
 20
-3.9861503379
 30
0.0
  0
ENDSEC
  0
SECTION
  2
OBJECTS
  0
DICTIONARY
  5
C
100
AcDbDictionary
280
0
281
1
  3
ACAD_GROUP
350
D
  3
ACAD_MLINESTYLE
350
17
  3
ACAD_LAYOUT
350
1A
  3
ACAD_PLOTSETTINGS
350
19
  3
ACAD_PLOTSTYLENAME
350
E
  0
DICTIONARY
  5
D
102
{ACAD_REACTORS
330
C
102
}
100
AcDbDictionary
280
0
281
1
  0
ACDBDICTIONARYWDFLT
  5
E
102
{ACAD_REACTORS
330
C
102
}
100
AcDbDictionary
281
1
  3
Normal
350
F
100
AcDbDictionaryWithDefault
340
F
  0
DICTIONARY
  5
17
102
{ACAD_REACTORS
330
C
102
}
100
AcDbDictionary
280
0
281
1
  3
Standard
350
18
  0
DICTIONARY
  5
19
102
{ACAD_REACTORS
330
C
102
}
100
AcDbDictionary
281
1
  0
DICTIONARY
  5
1A
102
{ACAD_REACTORS
330
C
102
}
100
AcDbDictionary
281
1
  3
Model
350
3BC
  3
Layout1
350
3BD
  0
ACDBPLACEHOLDER
  5
F
102
{ACAD_REACTORS
330
E
102
}
  0
MLINESTYLE
  5
18
102
{ACAD_REACTORS
330
17
102
}
100
AcDbMlineStyle
  2
STANDARD
 70
0
  3

 62
256
 51
90.0
 52
90.0
 71
2
 49
0.5
 62
256
  6
BYLAYER
 49
-0.5
 62
256
  6
BYLAYER
  0
LAYOUT
  5
3BC
102
{ACAD_REACTORS
330
1A
102
}
100
AcDbPlotSettings
  1

  2
none_device
  4
ANSI_C_(22.00_x_17.00_Inches)
  6

 40
0.0
 41
0.0
 42
0.0
 43
0.0
 44
558.8
 45
431.8
 46
0.0
 47
0.0
 48
0.0
 49
0.0
140
0.0
141
0.0
142
1.0
143
1.0
 70
1024
 72
0
 73
0
 74
0
  7

 75
0
147
1.0
148
0.0
149
0.0
100
AcDbLayout
  1
Model
 70
0
 71
0
 10
0.0
 20
0.0
 11
22.0
 21
17.0
 12
0.0
 22
0.0
 32
0.0
 14
0.0
 24
0.0
 34
0.0
 15
0.0
 25
0.0
 35
0.0
146
0.0
 13
0.0
 23
0.0
 33
0.0
 16
1.0
 26
0.0
 36
0.0
 17
0.0
 27
1.0
 37
0.0
 76
0
330
202
345
0
346
0
  0
LAYOUT
  5
3BD
102
{ACAD_REACTORS
330
1A
102
}
100
AcDbPlotSettings
  1

  2
none_device
  4
ANSI_C_(22.00_x_17.00_Inches)
  6

 40
0.0
 41
0.0
 42
0.0
 43
0.0
 44
558.8
 45
431.8
 46
0.0
 47
0.0
 48
0.0
 49
0.0
140
0.0
141
0.0
142
1.0
143
1.0
 70
0
 72
0
 73
0
 74
0
  7

 75
0
147
1.0
148
0.0
149
0.0
100
AcDbLayout
  1
Layout1
 70
0
 71
1
 10
0.0
 20
0.0
 11
22.0
 21
17.0
 12
0.0
 22
0.0
 32
0.0
 14
0.0
 24
0.0
 34
0.0
 15
0.0
 25
0.0
 35
0.0
146
0.0
 13
0.0
 23
0.0
 33
0.0
 16
1.0
 26
0.0
 36
0.0
 17
0.0
 27
1.0
 37
0.0
 76
0
330
203
345
0
346
0
  0
ENDSEC
  0
EOF
