999
DXF file: 283-3_FRONT.dxf
999
Pro/ENGINEER 2018400 by Parametric Technology Corporation
  0
SECTION
  2
HEADER
  9
$ACADVER
  1
AC1027
  9
$DWGCODEPAGE
  3
ANSI_1252
  9
$EXTMAX
 10
11.0
 20
8.5
 30
0.0
  9
$EXTMIN
 10
0.0
 20
0.0
 30
0.0
  9
$LIMMIN
 10
0.0
 20
0.0
  9
$LIMMAX
 10
11.0
 20
8.5
  9
$VIEWCTR
 10
5.5
 20
4.25
  9
$VIEWSIZE
 40
8.5
  9
$CLAYER
  8
0
  9
$LTSCALE
 40
0.605
  9
$CELTYPE
  6
BYLAYER
  9
$DIMSCALE
 40
1.0
  9
$DIMASZ
 40
0.1
  9
$DIMEXO
 40
0.0625
  9
$DIMDLI
 40
0.418
  9
$DIMEXE
 40
0.125
  9
$DIMCEN
 40
0.099
  9
$DIMLFAC
 40
1.0
  9
$DIMBLK
  1
_FILLED
  9
$DIMALT
 70
1
  9
$DIMALTD
 70
2
  9
$DIMALTTD
 70
2
  9
$DIMALTF
 40
25.4
  9
$DIMTXT
 40
0.08
  9
$DIMTOL
 70
1
  9
$DIMLIM
 70
0
  9
$DIMTFAC
 40
1.0
  9
$DIMTP
 40
0.001
  9
$DIMTM
 40
0.001
  9
$DIMGAP
 40
0.09
  9
$DIMDSEP
 70
46
  9
$AUNITS
 70
0
  9
$PDMODE
 70
3
  9
$PDSIZE
 40
0.3125
  9
$HANDSEED
  5
501
  9
$TILEMODE
 70
1
  9
$MEASUREMENT
 70
0
  9
$INSUNITS
 70
1
  0
ENDSEC
  0
SECTION
  2
CLASSES
  0
CLASS
  1
ACDBDICTIONARYWDFLT
  2
AcDbDictionaryWithDefault
  3
AutoCAD 2000
 90
0
 91
1
280
0
281
0
  0
CLASS
  1
ACDBPLACEHOLDER
  2
AcDbPlaceHolder
  3
AutoCAD 2000
 90
0
 91
1
280
0
281
0
  0
CLASS
  1
LAYOUT
  2
AcDbLayout
  3
AutoCAD 2000
 90
0
 91
0
280
0
281
0
  0
ENDSEC
  0
SECTION
  2
TABLES
  0
TABLE
  2
VPORT
  5
8
100
AcDbSymbolTable
 70
2
  0
VPORT
  5
1F4
100
AcDbSymbolTableRecord
100
AcDbViewportTableRecord
  2
*ACTIVE
 70
0
 10
0.0
 20
0.0
 11
1.0
 21
1.0
 12
5.5
 22
4.25
 13
0.0
 23
0.0
 14
1.0
 24
1.0
 15
0.0
 25
0.0
 16
0.0
 26
0.0
 36
1.0
 17
0.0
 27
0.0
 37
0.0
 40
8.5
 41
1.2941176471
 42
50.0
 43
0.0
 44
0.0
 50
0.0
 51
0.0
 71
0
 72
100
 73
1
 74
1
 75
0
 76
0
 77
0
 78
0
  0
ENDTAB
  0
TABLE
  2
LTYPE
  5
5
100
AcDbSymbolTable
 70
6
  0
LTYPE
  5
14
100
AcDbSymbolTableRecord
100
AcDbLinetypeTableRecord
  2
BYBLOCK
 70
0
  3

 72
65
 73
0
 40
0.0
  0
LTYPE
  5
15
100
AcDbSymbolTableRecord
100
AcDbLinetypeTableRecord
  2
BYLAYER
 70
0
  3

 72
65
 73
0
 40
0.0
  0
LTYPE
  5
16
100
AcDbSymbolTableRecord
100
AcDbLinetypeTableRecord
  2
CONTINUOUS
 70
64
  3
Solid line
 72
65
 73
0
 40
0.0
  0
LTYPE
  5
1F5
100
AcDbSymbolTableRecord
100
AcDbLinetypeTableRecord
  2
CENTER
 70
64
  3
____ _ ____ _ ____ _ ____ _ ____ _ ____ _ ____
 72
65
 73
4
 40
0.6
 49
0.375
 74
0
 49
-0.075
 74
0
 49
0.075
 74
0
 49
-0.075
 74
0
  0
LTYPE
  5
1F6
100
AcDbSymbolTableRecord
100
AcDbLinetypeTableRecord
  2
HIDDEN
 70
64
  3
- - - - - - - - - - - - - - - - - - - -
 72
65
 73
2
 40
0.2
 49
0.1
 74
0
 49
-0.1
 74
0
  0
LTYPE
  5
1F7
100
AcDbSymbolTableRecord
100
AcDbLinetypeTableRecord
  2
PHANTOM
 70
64
  3
_____ _ _ _____ _ _ _____ _ _ _____
 72
65
 73
6
 40
0.8
 49
0.45
 74
0
 49
-0.05
 74
0
 49
0.1
 74
0
 49
-0.05
 74
0
 49
0.1
 74
0
 49
-0.05
 74
0
  0
LTYPE
  5
1F8
100
AcDbSymbolTableRecord
100
AcDbLinetypeTableRecord
  2
DOT
 70
64
  3
. . . . . . . . . . . . . . . . . . . .
 72
65
 73
2
 40
0.2
 49
0.1
 74
0
 49
-0.1
 74
0
  0
LTYPE
  5
1F9
100
AcDbSymbolTableRecord
100
AcDbLinetypeTableRecord
  2
DASHED
 70
64
  3
- - - - - - - - - - - - - - - - - - - -
 72
65
 73
2
 40
0.2
 49
0.1
 74
0
 49
-0.1
 74
0
  0
ENDTAB
  0
TABLE
  2
LAYER
  5
2
100
AcDbSymbolTable
 70
36
  0
LAYER
  5
10
100
AcDbSymbolTableRecord
100
AcDbLayerTableRecord
  2
0
 70
0
 62
7
  6
CONTINUOUS
370
-3
390
F
  0
LAYER
  5
1FA
100
AcDbSymbolTableRecord
100
AcDbLayerTableRecord
  2
DEFAULT_1
 70
0
 62
7
  6
CENTER
370
-3
390
F
  0
LAYER
  5
1FB
100
AcDbSymbolTableRecord
100
AcDbLayerTableRecord
  2
DEFAULT_2
 70
0
 62
8
  6
HIDDEN
370
-3
390
F
  0
LAYER
  5
1FC
100
AcDbSymbolTableRecord
100
AcDbLayerTableRecord
  2
DEFAULT_3
 70
0
 62
7
  6
PHANTOM
370
-3
390
F
  0
LAYER
  5
1FD
100
AcDbSymbolTableRecord
100
AcDbLayerTableRecord
  2
_  SHELL
 70
0
 62
7
  6
CONTINUOUS
370
-3
390
F
  0
LAYER
  5
1FE
100
AcDbSymbolTableRecord
100
AcDbLayerTableRecord
  2
06___PRT_ALL_SURFS_15
 70
0
 62
7
  6
CONTINUOUS
370
-3
390
F
  0
LAYER
  5
1FF
100
AcDbSymbolTableRecord
100
AcDbLayerTableRecord
  2
11_9
 70
0
 62
7
  6
CONTINUOUS
370
-3
390
F
  0
LAYER
  5
200
100
AcDbSymbolTableRecord
100
AcDbLayerTableRecord
  2
1451A0A-0Z1-01
 70
0
 62
7
  6
CONTINUOUS
370
-3
390
F
  0
LAYER
  5
201
100
AcDbSymbolTableRecord
100
AcDbLayerTableRecord
  2
1451A0A-0Z1-02
 70
0
 62
7
  6
CONTINUOUS
370
-3
390
F
  0
LAYER
  5
202
100
AcDbSymbolTableRecord
100
AcDbLayerTableRecord
  2
1451A0A-0Z1-02_1
 70
0
 62
7
  6
CONTINUOUS
370
-3
390
F
  0
LAYER
  5
203
100
AcDbSymbolTableRecord
100
AcDbLayerTableRecord
  2
1451A0A-0Z1-03
 70
0
 62
7
  6
CONTINUOUS
370
-3
390
F
  0
LAYER
  5
204
100
AcDbSymbolTableRecord
100
AcDbLayerTableRecord
  2
1451A0A-0Z1-04
 70
0
 62
7
  6
CONTINUOUS
370
-3
390
F
  0
LAYER
  5
205
100
AcDbSymbolTableRecord
100
AcDbLayerTableRecord
  2
1451A0A-0Z1-05
 70
0
 62
7
  6
CONTINUOUS
370
-3
390
F
  0
LAYER
  5
206
100
AcDbSymbolTableRecord
100
AcDbLayerTableRecord
  2
1451A0A-0Z1-06
 70
0
 62
7
  6
CONTINUOUS
370
-3
390
F
  0
LAYER
  5
207
100
AcDbSymbolTableRecord
100
AcDbLayerTableRecord
  2
1451A0A-0Z1-07
 70
0
 62
7
  6
CONTINUOUS
370
-3
390
F
  0
LAYER
  5
208
100
AcDbSymbolTableRecord
100
AcDbLayerTableRecord
  2
22_4
 70
0
 62
7
  6
CONTINUOUS
370
-3
390
F
  0
LAYER
  5
209
100
AcDbSymbolTableRecord
100
AcDbLayerTableRecord
  2
22_5
 70
0
 62
7
  6
CONTINUOUS
370
-3
390
F
  0
LAYER
  5
20A
100
AcDbSymbolTableRecord
100
AcDbLayerTableRecord
  2
264X18
 70
0
 62
7
  6
CONTINUOUS
370
-3
390
F
  0
LAYER
  5
20B
100
AcDbSymbolTableRecord
100
AcDbLayerTableRecord
  2
30X15
 70
0
 62
7
  6
CONTINUOUS
370
-3
390
F
  0
LAYER
  5
20C
100
AcDbSymbolTableRecord
100
AcDbLayerTableRecord
  2
315X18
 70
0
 62
7
  6
CONTINUOUS
370
-3
390
F
  0
LAYER
  5
20D
100
AcDbSymbolTableRecord
100
AcDbLayerTableRecord
  2
59X178
 70
0
 62
7
  6
CONTINUOUS
370
-3
390
F
  0
LAYER
  5
20E
100
AcDbSymbolTableRecord
100
AcDbLayerTableRecord
  2
6X15
 70
0
 62
7
  6
CONTINUOUS
370
-3
390
F
  0
LAYER
  5
20F
100
AcDbSymbolTableRecord
100
AcDbLayerTableRecord
  2
925X178
 70
0
 62
7
  6
CONTINUOUS
370
-3
390
F
  0
LAYER
  5
210
100
AcDbSymbolTableRecord
100
AcDbLayerTableRecord
  2
ALL_ASSEMBLY_MEMBERS
 70
0
 62
7
  6
CONTINUOUS
370
-3
390
F
  0
LAYER
  5
211
100
AcDbSymbolTableRecord
100
AcDbLayerTableRecord
  2
ALL_FEATURES
 70
0
 62
7
  6
CONTINUOUS
370
-3
390
F
  0
LAYER
  5
212
100
AcDbSymbolTableRecord
100
AcDbLayerTableRecord
  2
AXES_FEATURES
 70
0
 62
7
  6
CONTINUOUS
370
-3
390
F
  0
LAYER
  5
213
100
AcDbSymbolTableRecord
100
AcDbLayerTableRecord
  2
COLOR14
 70
0
 62
7
  6
CONTINUOUS
370
-3
390
F
  0
LAYER
  5
214
100
AcDbSymbolTableRecord
100
AcDbLayerTableRecord
  2
COLOR33
 70
0
 62
7
  6
CONTINUOUS
370
-3
390
F
  0
LAYER
  5
215
100
AcDbSymbolTableRecord
100
AcDbLayerTableRecord
  2
COLOR9
 70
0
 62
7
  6
CONTINUOUS
370
-3
390
F
  0
LAYER
  5
216
100
AcDbSymbolTableRecord
100
AcDbLayerTableRecord
  2
CONSTR_CURVES
 70
0
 62
7
  6
CONTINUOUS
370
-3
390
F
  0
LAYER
  5
217
100
AcDbSymbolTableRecord
100
AcDbLayerTableRecord
  2
COSMETIC
 70
0
 62
7
  6
CONTINUOUS
370
-3
390
F
  0
LAYER
  5
218
100
AcDbSymbolTableRecord
100
AcDbLayerTableRecord
  2
CURVES
 70
0
 62
7
  6
CONTINUOUS
370
-3
390
F
  0
LAYER
  5
219
100
AcDbSymbolTableRecord
100
AcDbLayerTableRecord
  2
CUT_FEATURES
 70
0
 62
7
  6
CONTINUOUS
370
-3
390
F
  0
LAYER
  5
21A
100
AcDbSymbolTableRecord
100
AcDbLayerTableRecord
  2
DATUM_PLANES
 70
0
 62
7
  6
CONTINUOUS
370
-3
390
F
  0
LAYER
  5
21B
100
AcDbSymbolTableRecord
100
AcDbLayerTableRecord
  2
DEFAULT_COORDINATE_SYSTEM
 70
0
 62
7
  6
CONTINUOUS
370
-3
390
F
  0
LAYER
  5
21C
100
AcDbSymbolTableRecord
100
AcDbLayerTableRecord
  2
DEFAULT_DATUM_AXES
 70
0
 62
7
  6
CONTINUOUS
370
-3
390
F
  0
LAYER
  5
21D
100
AcDbSymbolTableRecord
100
AcDbLayerTableRecord
  2
DEFAULT_DATUM_CURVES
 70
0
 62
7
  6
CONTINUOUS
370
-3
390
F
  0
LAYER
  5
21E
100
AcDbSymbolTableRecord
100
AcDbLayerTableRecord
  2
DEFAULT_DATUM_PLANES
 70
0
 62
7
  6
CONTINUOUS
370
-3
390
F
  0
LAYER
  5
21F
100
AcDbSymbolTableRecord
100
AcDbLayerTableRecord
  2
DEFAULT_SURFACES
 70
0
 62
7
  6
CONTINUOUS
370
-3
390
F
  0
LAYER
  5
220
100
AcDbSymbolTableRecord
100
AcDbLayerTableRecord
  2
DIMENSIONS
 70
0
 62
7
  6
CONTINUOUS
370
-3
390
F
  0
LAYER
  5
221
100
AcDbSymbolTableRecord
100
AcDbLayerTableRecord
  2
DTM_PLANES
 70
0
 62
7
  6
CONTINUOUS
370
-3
390
F
  0
LAYER
  5
222
100
AcDbSymbolTableRecord
100
AcDbLayerTableRecord
  2
EXT_SURFACE
 70
0
 62
7
  6
CONTINUOUS
370
-3
390
F
  0
LAYER
  5
223
100
AcDbSymbolTableRecord
100
AcDbLayerTableRecord
  2
GTOL_DTMS
 70
0
 62
7
  6
CONTINUOUS
370
-3
390
F
  0
LAYER
  5
224
100
AcDbSymbolTableRecord
100
AcDbLayerTableRecord
  2
HIDE
 70
0
 62
7
  6
CONTINUOUS
370
-3
390
F
  0
LAYER
  5
225
100
AcDbSymbolTableRecord
100
AcDbLayerTableRecord
  2
HIDE_10
 70
0
 62
7
  6
CONTINUOUS
370
-3
390
F
  0
LAYER
  5
226
100
AcDbSymbolTableRecord
100
AcDbLayerTableRecord
  2
HIDE_7
 70
0
 62
7
  6
CONTINUOUS
370
-3
390
F
  0
LAYER
  5
227
100
AcDbSymbolTableRecord
100
AcDbLayerTableRecord
  2
HIDE_8
 70
0
 62
7
  6
CONTINUOUS
370
-3
390
F
  0
LAYER
  5
228
100
AcDbSymbolTableRecord
100
AcDbLayerTableRecord
  2
HIDE_9
 70
0
 62
7
  6
CONTINUOUS
370
-3
390
F
  0
LAYER
  5
229
100
AcDbSymbolTableRecord
100
AcDbLayerTableRecord
  2
IMPORT
 70
0
 62
7
  6
CONTINUOUS
370
-3
390
F
  0
LAYER
  5
22A
100
AcDbSymbolTableRecord
100
AcDbLayerTableRecord
  2
INTFCLR_33883
 70
0
 62
7
  6
CONTINUOUS
370
-3
390
F
  0
LAYER
  5
22B
100
AcDbSymbolTableRecord
100
AcDbLayerTableRecord
  2
INTFCLR_33883_1
 70
0
 62
7
  6
CONTINUOUS
370
-3
390
F
  0
LAYER
  5
22C
100
AcDbSymbolTableRecord
100
AcDbLayerTableRecord
  2
INTFCLR_33883_2
 70
0
 62
7
  6
CONTINUOUS
370
-3
390
F
  0
LAYER
  5
22D
100
AcDbSymbolTableRecord
100
AcDbLayerTableRecord
  2
INTFCLR_33883_3
 70
0
 62
7
  6
CONTINUOUS
370
-3
390
F
  0
LAYER
  5
22E
100
AcDbSymbolTableRecord
100
AcDbLayerTableRecord
  2
INTFCLR_33883_4
 70
0
 62
7
  6
CONTINUOUS
370
-3
390
F
  0
LAYER
  5
22F
100
AcDbSymbolTableRecord
100
AcDbLayerTableRecord
  2
INTFCLR_33883_5
 70
0
 62
7
  6
CONTINUOUS
370
-3
390
F
  0
LAYER
  5
230
100
AcDbSymbolTableRecord
100
AcDbLayerTableRecord
  2
INTF_BLANK
 70
0
 62
7
  6
CONTINUOUS
370
-3
390
F
  0
LAYER
  5
231
100
AcDbSymbolTableRecord
100
AcDbLayerTableRecord
  2
LOGO_CURVES
 70
0
 62
7
  6
CONTINUOUS
370
-3
390
F
  0
LAYER
  5
232
100
AcDbSymbolTableRecord
100
AcDbLayerTableRecord
  2
NONE
 70
0
 62
7
  6
CONTINUOUS
370
-3
390
F
  0
LAYER
  5
233
100
AcDbSymbolTableRecord
100
AcDbLayerTableRecord
  2
PROTRUSION_FEATURES
 70
0
 62
7
  6
CONTINUOUS
370
-3
390
F
  0
LAYER
  5
234
100
AcDbSymbolTableRecord
100
AcDbLayerTableRecord
  2
S01012-09A
 70
0
 62
7
  6
CONTINUOUS
370
-3
390
F
  0
LAYER
  5
235
100
AcDbSymbolTableRecord
100
AcDbLayerTableRecord
  2
S01012-10A
 70
0
 62
7
  6
CONTINUOUS
370
-3
390
F
  0
LAYER
  5
236
100
AcDbSymbolTableRecord
100
AcDbLayerTableRecord
  2
S02015-05
 70
0
 62
7
  6
CONTINUOUS
370
-3
390
F
  0
LAYER
  5
237
100
AcDbSymbolTableRecord
100
AcDbLayerTableRecord
  2
S02015-16B
 70
0
 62
7
  6
CONTINUOUS
370
-3
390
F
  0
LAYER
  5
238
100
AcDbSymbolTableRecord
100
AcDbLayerTableRecord
  2
S02015-17
 70
0
 62
7
  6
CONTINUOUS
370
-3
390
F
  0
LAYER
  5
239
100
AcDbSymbolTableRecord
100
AcDbLayerTableRecord
  2
S02015-18
 70
0
 62
7
  6
CONTINUOUS
370
-3
390
F
  0
LAYER
  5
23A
100
AcDbSymbolTableRecord
100
AcDbLayerTableRecord
  2
S02015-20A
 70
0
 62
7
  6
CONTINUOUS
370
-3
390
F
  0
LAYER
  5
23B
100
AcDbSymbolTableRecord
100
AcDbLayerTableRecord
  2
S02015-31A
 70
0
 62
7
  6
CONTINUOUS
370
-3
390
F
  0
LAYER
  5
23C
100
AcDbSymbolTableRecord
100
AcDbLayerTableRecord
  2
S02015-32A
 70
0
 62
7
  6
CONTINUOUS
370
-3
390
F
  0
LAYER
  5
23D
100
AcDbSymbolTableRecord
100
AcDbLayerTableRecord
  2
S02015-32A_1
 70
0
 62
7
  6
CONTINUOUS
370
-3
390
F
  0
LAYER
  5
23E
100
AcDbSymbolTableRecord
100
AcDbLayerTableRecord
  2
S02015-35
 70
0
 62
7
  6
CONTINUOUS
370
-3
390
F
  0
LAYER
  5
23F
100
AcDbSymbolTableRecord
100
AcDbLayerTableRecord
  2
S15025-04A
 70
0
 62
7
  6
CONTINUOUS
370
-3
390
F
  0
LAYER
  5
240
100
AcDbSymbolTableRecord
100
AcDbLayerTableRecord
  2
START_DTMS
 70
0
 62
7
  6
CONTINUOUS
370
-3
390
F
  0
LAYER
  5
241
100
AcDbSymbolTableRecord
100
AcDbLayerTableRecord
  2
SURFACE
 70
0
 62
7
  6
CONTINUOUS
370
-3
390
F
  0
LAYER
  5
242
100
AcDbSymbolTableRecord
100
AcDbLayerTableRecord
  2
SURFS
 70
0
 62
7
  6
CONTINUOUS
370
-3
390
F
  0
LAYER
  5
243
100
AcDbSymbolTableRecord
100
AcDbLayerTableRecord
  2
WETTED_SURFACE
 70
0
 62
7
  6
CONTINUOUS
370
-3
390
F
  0
LAYER
  5
244
100
AcDbSymbolTableRecord
100
AcDbLayerTableRecord
  2
WETTED_SURFACES
 70
0
 62
7
  6
CONTINUOUS
370
-3
390
F
  0
LAYER
  5
245
100
AcDbSymbolTableRecord
100
AcDbLayerTableRecord
  2
___SHELL
 70
0
 62
7
  6
CONTINUOUS
370
-3
390
F
  0
ENDTAB
  0
TABLE
  2
STYLE
  5
3
100
AcDbSymbolTable
 70
1
  0
STYLE
  5
11
100
AcDbSymbolTableRecord
100
AcDbTextStyleTableRecord
  2
STANDARD
 70
0
 40
0.0
 41
0.8
 50
0.0
 71
0
 42
0.2
  3
txt
  4

  0
STYLE
  5
246
100
AcDbSymbolTableRecord
100
AcDbTextStyleTableRecord
  2
TEXTSTYLE_1
 70
0
 40
0.0
 41
0.8
 50
0.0
 71
0
 42
0.2
  3
gdt
  4

  0
ENDTAB
  0
TABLE
  2
VIEW
  5
6
100
AcDbSymbolTable
 70
0
  0
ENDTAB
  0
TABLE
  2
UCS
  5
7
100
AcDbSymbolTable
 70
0
  0
ENDTAB
  0
TABLE
  2
APPID
  5
9
100
AcDbSymbolTable
 70
1
  0
APPID
  5
247
100
AcDbSymbolTableRecord
100
AcDbRegAppTableRecord
  2
ACAD
 70
0
  0
ENDTAB
  0
TABLE
  2
BLOCK_RECORD
  5
1
100
AcDbSymbolTable
 70
0
  0
BLOCK_RECORD
  5
248
100
AcDbSymbolTableRecord
100
AcDbBlockTableRecord
  2
*Model_Space
  0
BLOCK_RECORD
  5
249
100
AcDbSymbolTableRecord
100
AcDbBlockTableRecord
  2
*Paper_Space
  0
BLOCK_RECORD
  5
24A
100
AcDbSymbolTableRecord
100
AcDbBlockTableRecord
  2
_FILLED
  0
ENDTAB
  0
TABLE
  2
DIMSTYLE
  5
A
100
AcDbSymbolTable
 70
1
100
AcDbDimStyleTable
 71
0
  0
DIMSTYLE
105
24B
100
AcDbSymbolTableRecord
100
AcDbDimStyleTableRecord
  2
STANDARD
 70
0
  3

  4

 40
1.0
 41
0.1
 42
0.0625
 43
0.38
 44
0.125
 45
0.0
 46
0.0
 47
0.001
 48
0.001
140
0.08
141
0.09
142
0.0
143
25.4
144
1.0
145
0.0
146
1.0
147
0.09
 71
1.0
 72
0.0
 73
1
 74
1
 75
0
 76
0
 77
0
 78
4
 79
1
170
1
171
2
172
0
173
0
174
0
175
0
176
0
177
0
178
0
270
2
179
3
271
3
272
3
273
2
274
2
275
0
280
0
281
0
282
0
283
1
284
4
285
0
286
0
287
3
288
0
340
11
278
46
341
24A
342
24A
343
24A
344
24A
  0
ENDTAB
  0
ENDSEC
  0
SECTION
  2
BLOCKS
  0
BLOCK
  5
20
100
AcDbEntity
  8
0
100
AcDbBlockBegin
  2
*Model_Space
 70
0
 10
0.0
 20
0.0
 30
0.0
  3
*Model_Space
  1

  0
ENDBLK
  5
21
100
AcDbEntity
  8
0
100
AcDbBlockEnd
  0
BLOCK
  5
1C
100
AcDbEntity
  8
0
100
AcDbBlockBegin
  2
*Paper_Space
 70
0
 10
0.0
 20
0.0
 30
0.0
  3
*Paper_Space
  1

  0
ENDBLK
  5
1D
100
AcDbEntity
  8
0
100
AcDbBlockEnd
  0
BLOCK
  5
24C
100
AcDbEntity
  8
0
100
AcDbBlockBegin
  2
_FILLED
 70
64
 10
0.0
 20
0.0
  3
_FILLED
  1

  0
SOLID
  5
24D
100
AcDbEntity
  8
0
  6
BYBLOCK
 62
0
100
AcDbTrace
 10
0.0
 20
0.0
 11
-1.0
 21
0.2
 12
-1.0
 22
-0.2
 13
-1.0
 23
-0.2
  0
ENDBLK
  5
24E
100
AcDbEntity
  8
0
  6
BYBLOCK
 62
0
100
AcDbBlockEnd
  0
ENDSEC
  0
SECTION
  2
ENTITIES
  0
MTEXT
  5
24F
100
AcDbEntity
  8
0
100
AcDbMText
 62
2
  6
CONTINUOUS
  7
STANDARD
 71
3
 72
1
 10
5.4192934783
 20
0.5353958494
 30
0.0
 11
1.0
 21
0.0
 31
0.0
 73
2
 44
0.9
  1
SCALE  .750
 40
0.08
 41
0.704
  0
LINE
  5
250
100
AcDbEntity
  8
0
100
AcDbLine
 62
7
  6
CONTINUOUS
 10
0.0
 20
0.0
 11
0.0
 21
8.5
  0
LINE
  5
251
100
AcDbEntity
  8
0
100
AcDbLine
 62
7
  6
CONTINUOUS
 10
0.0
 20
0.0
 11
11.0
 21
0.0
  0
LINE
  5
252
100
AcDbEntity
  8
0
100
AcDbLine
 62
7
  6
CONTINUOUS
 10
0.0
 20
8.5
 11
11.0
 21
8.5
  0
LINE
  5
253
100
AcDbEntity
  8
0
100
AcDbLine
 62
7
  6
CONTINUOUS
 10
11.0
 20
0.0
 11
11.0
 21
8.5
  0
LINE
  5
254
100
AcDbEntity
  8
ALL_FEATURES
100
AcDbLine
 62
7
  6
CONTINUOUS
 10
5.0036724222
 20
1.0132219364
 11
4.9747509848
 21
1.0132219364
  0
LINE
  5
255
100
AcDbEntity
  8
ALL_FEATURES
100
AcDbLine
 62
7
  6
CONTINUOUS
 10
4.8330492716
 20
1.0132219364
 11
4.8619707089
 21
1.0132219364
  0
LINE
  5
256
100
AcDbEntity
  8
ALL_FEATURES
100
AcDbLine
 62
7
  6
CONTINUOUS
 10
4.8763608469
 20
1.0132219364
 11
4.9603608469
 21
1.0132219364
  0
LINE
  5
257
100
AcDbEntity
  8
ALL_FEATURES
100
AcDbLine
 62
7
  6
CONTINUOUS
 10
4.8330483469
 20
1.0207219364
 11
4.8441030348
 21
1.0207219364
  0
LINE
  5
258
100
AcDbEntity
  8
ALL_FEATURES
100
AcDbLine
 62
7
  6
CONTINUOUS
 10
4.8763608469
 20
1.0207219364
 11
4.9603608469
 21
1.0207219364
  0
LINE
  5
259
100
AcDbEntity
  8
ALL_FEATURES
100
AcDbLine
 62
7
  6
CONTINUOUS
 10
4.992618659
 20
1.0207219364
 11
5.0036733469
 21
1.0207219364
  0
LINE
  5
25A
100
AcDbEntity
  8
0
100
AcDbLine
 62
7
  6
CONTINUOUS
 10
5.1921108469
 20
1.0282219364
 11
4.6446108469
 21
1.0282219364
  0
LINE
  5
25B
100
AcDbEntity
  8
0
100
AcDbLine
 62
7
  6
CONTINUOUS
 10
4.6446108469
 20
1.2457219364
 11
5.1921108469
 21
1.2457219364
  0
LINE
  5
25C
100
AcDbEntity
  8
0
100
AcDbLine
 62
7
  6
CONTINUOUS
 10
4.4721308979
 20
1.3019719364
 11
5.3646108469
 21
1.3019719364
  0
LINE
  5
25D
100
AcDbEntity
  8
0
100
AcDbLine
 62
7
  6
CONTINUOUS
 10
4.4421108469
 20
1.3319719364
 11
5.3946108469
 21
1.3319719364
  0
LINE
  5
25E
100
AcDbEntity
  8
0
100
AcDbLine
 62
7
  6
CONTINUOUS
 10
4.4421108469
 20
1.3844719364
 11
5.3946108469
 21
1.3844719364
  0
LINE
  5
25F
100
AcDbEntity
  8
0
100
AcDbLine
 62
7
  6
CONTINUOUS
 10
5.3663080765
 20
1.4144238881
 11
4.4704136173
 21
1.4144238881
  0
LINE
  5
260
100
AcDbEntity
  8
0
100
AcDbLine
 62
7
  6
CONTINUOUS
 10
5.324030367
 20
1.4633328983
 11
4.5126913267
 21
1.4633328983
  0
LINE
  5
261
100
AcDbEntity
  8
0
100
AcDbLine
 62
7
  6
CONTINUOUS
 10
5.5185672343
 20
6.7222611792
 11
5.5091001962
 21
6.7194568992
  0
LINE
  5
262
100
AcDbEntity
  8
0
100
AcDbLine
 62
7
  6
CONTINUOUS
 10
5.6278135346
 20
6.7546214123
 11
5.6204854233
 21
6.7524506909
  0
LINE
  5
263
100
AcDbEntity
  8
0
100
AcDbLine
 62
7
  6
CONTINUOUS
 10
3.741151605
 20
5.9507856451
 11
3.740748189
 21
5.9504956962
  0
LINE
  5
264
100
AcDbEntity
  8
0
100
AcDbLine
 62
7
  6
CONTINUOUS
 10
3.7616650753
 20
5.9446233943
 11
3.7612631857
 21
5.9443348455
  0
LINE
  5
265
100
AcDbEntity
  8
0
100
AcDbLine
 62
7
  6
CONTINUOUS
 10
5.5558998763
 20
6.9200111246
 11
5.5493179397
 21
6.9161340672
  0
LINE
  5
266
100
AcDbEntity
  8
0
100
AcDbLine
 62
7
  6
CONTINUOUS
 10
5.4577268313
 20
6.8621827821
 11
5.4492200279
 21
6.8571718912
  0
LINE
  5
267
100
AcDbEntity
  8
0
100
AcDbLine
 62
7
  6
CONTINUOUS
 10
4.0131671552
 20
6.0218581149
 11
3.9994536915
 21
6.0139406429
  0
LINE
  5
268
100
AcDbEntity
  8
0
100
AcDbLine
 62
7
  6
CONTINUOUS
 10
3.568959812
 20
5.8326677206
 11
3.5688880695
 21
5.8326284289
  0
LINE
  5
269
100
AcDbEntity
  8
0
100
AcDbLine
 62
7
  6
CONTINUOUS
 10
3.7411514139
 20
5.9507860228
 11
3.7574908258
 21
5.9590262547
  0
LINE
  5
26A
100
AcDbEntity
  8
0
100
AcDbLine
 62
7
  6
CONTINUOUS
 10
4.4284602126
 20
6.1547873616
 11
4.4361873796
 21
6.1609338482
  0
LINE
  5
26B
100
AcDbEntity
  8
0
100
AcDbLine
 62
7
  6
CONTINUOUS
 10
4.3392911388
 20
6.0838590912
 11
4.3452725053
 21
6.0886169267
  0
LINE
  5
26C
100
AcDbEntity
  8
0
100
AcDbLine
 62
7
  6
CONTINUOUS
 10
4.3915506452
 20
6.1433053801
 11
4.3647718853
 21
6.1222367317
  0
LINE
  5
26D
100
AcDbEntity
  8
0
100
AcDbLine
 62
7
  6
CONTINUOUS
 10
4.3839341271
 20
6.0997760406
 11
4.4088684587
 21
6.1193846733
  0
LINE
  5
26E
100
AcDbEntity
  8
0
100
AcDbLine
 62
7
  6
CONTINUOUS
 10
3.8309150034
 20
5.8318518485
 11
3.8156090473
 21
5.8218216186
  0
LINE
  5
26F
100
AcDbEntity
  8
0
100
AcDbLine
 62
7
  6
CONTINUOUS
 10
3.6272196316
 20
5.7317579721
 11
3.6271498063
 21
5.7317155333
  0
LINE
  5
270
100
AcDbEntity
  8
0
100
AcDbLine
 62
7
  6
CONTINUOUS
 10
3.8200763988
 20
5.8424635576
 11
3.8205288851
 21
5.8426682848
  0
LINE
  5
271
100
AcDbEntity
  8
0
100
AcDbLine
 62
7
  6
CONTINUOUS
 10
3.8156088158
 20
5.821821973
 11
3.8151562469
 21
5.8216172086
  0
LINE
  5
272
100
AcDbEntity
  8
0
100
AcDbLine
 62
7
  6
CONTINUOUS
 10
4.7684596813
 20
6.3854951738
 11
4.7757426925
 21
6.3949865789
  0
LINE
  5
273
100
AcDbEntity
  8
0
100
AcDbLine
 62
7
  6
CONTINUOUS
 10
5.0258176188
 20
6.7208905679
 11
5.0331233311
 21
6.7304115575
  0
LINE
  5
274
100
AcDbEntity
  8
0
100
AcDbLine
 62
7
  6
CONTINUOUS
 10
4.5372859991
 20
6.0478455261
 11
4.5432962519
 21
6.0556782397
  0
LINE
  5
275
100
AcDbEntity
  8
0
100
AcDbLine
 62
7
  6
CONTINUOUS
 10
4.4679243107
 20
5.9574516098
 11
4.4725772468
 21
5.9635154921
  0
LINE
  5
276
100
AcDbEntity
  8
0
100
AcDbLine
 62
7
  6
CONTINUOUS
 10
5.0682620125
 20
6.703448699
 11
5.0609790012
 21
6.6939572939
  0
LINE
  5
277
100
AcDbEntity
  8
0
100
AcDbLine
 62
7
  6
CONTINUOUS
 10
4.8109040749
 20
6.3680533049
 11
4.8035983627
 21
6.3585323153
  0
LINE
  5
278
100
AcDbEntity
  8
0
100
AcDbLine
 62
7
  6
CONTINUOUS
 10
4.6687500758
 20
5.9704064448
 11
4.6726871707
 21
5.9794611711
  0
LINE
  5
279
100
AcDbEntity
  8
0
100
AcDbLine
 62
7
  6
CONTINUOUS
 10
4.623317274
 20
5.8659181708
 11
4.6263648576
 21
5.872927217
  0
LINE
  5
27A
100
AcDbEntity
  8
ALL_FEATURES
100
AcDbLine
 62
7
  6
CONTINUOUS
 10
4.8421703455
 20
1.0282217082
 11
4.8441030348
 21
1.0207219364
  0
LINE
  5
27B
100
AcDbEntity
  8
ALL_FEATURES
100
AcDbLine
 62
7
  6
CONTINUOUS
 10
4.8330483469
 20
1.0207219364
 11
4.8313608469
 21
1.0282219364
  0
LINE
  5
27C
100
AcDbEntity
  8
0
100
AcDbLine
 62
7
  6
CONTINUOUS
 10
4.4421108469
 20
1.3319719364
 11
4.4421108469
 21
1.3844719364
  0
LINE
  5
27D
100
AcDbEntity
  8
0
100
AcDbLine
 62
7
  6
CONTINUOUS
 10
4.4421108469
 20
4.2194719364
 11
4.4421108469
 21
4.2719719364
  0
LINE
  5
27E
100
AcDbEntity
  8
0
100
AcDbLine
 62
7
  6
CONTINUOUS
 10
5.0856479452
 20
7.1476897653
 11
5.0830093437
 21
7.1381752196
  0
LINE
  5
27F
100
AcDbEntity
  8
0
100
AcDbLine
 62
7
  6
CONTINUOUS
 10
5.1160966302
 20
7.2574841932
 11
5.114054199
 21
7.2501192952
  0
LINE
  5
280
100
AcDbEntity
  8
0
100
AcDbLine
 62
7
  6
CONTINUOUS
 10
5.324030367
 20
4.1406109745
 11
4.5126913267
 21
4.1406109745
  0
LINE
  5
281
100
AcDbEntity
  8
0
100
AcDbLine
 62
7
  6
CONTINUOUS
 10
5.3663080765
 20
4.1895199847
 11
4.4704136173
 21
4.1895199847
  0
LINE
  5
282
100
AcDbEntity
  8
0
100
AcDbLine
 62
7
  6
CONTINUOUS
 10
4.4421108469
 20
4.2194719364
 11
5.3946108469
 21
4.2194719364
  0
LINE
  5
283
100
AcDbEntity
  8
0
100
AcDbLine
 62
7
  6
CONTINUOUS
 10
3.5208410113
 20
5.7288268238
 11
3.5132315454
 21
5.7420068053
  0
LINE
  5
284
100
AcDbEntity
  8
0
100
AcDbLine
 62
7
  6
CONTINUOUS
 10
3.565584661
 20
5.7717461983
 11
3.5727726344
 21
5.7592962631
  0
LINE
  5
285
100
AcDbEntity
  8
0
100
AcDbLine
 62
7
  6
CONTINUOUS
 10
3.6807629657
 20
5.8971755556
 11
3.6804911721
 21
5.8976952671
  0
LINE
  5
286
100
AcDbEntity
  8
0
100
AcDbLine
 62
7
  6
CONTINUOUS
 10
4.6371108469
 20
4.4817733368
 11
4.6371108469
 21
5.071426374
  0
LINE
  5
287
100
AcDbEntity
  8
0
100
AcDbLine
 62
7
  6
CONTINUOUS
 10
4.6446108469
 20
1.0282219364
 11
4.6446108469
 21
1.3019719364
  0
LINE
  5
288
100
AcDbEntity
  8
0
100
AcDbLine
 62
7
  6
CONTINUOUS
 10
4.5178685162
 20
4.3186525188
 11
4.6258285094
 21
4.4519720074
  0
LINE
  5
289
100
AcDbEntity
  8
0
100
AcDbLine
 62
7
  6
CONTINUOUS
 10
4.4421108469
 20
4.2719719364
 11
5.3946108469
 21
4.2719719364
  0
LINE
  5
28A
100
AcDbEntity
  8
0
100
AcDbLine
 62
7
  6
CONTINUOUS
 10
4.4721308979
 20
4.3019719364
 11
5.3646108469
 21
4.3019719364
  0
LINE
  5
28B
100
AcDbEntity
  8
0
100
AcDbLine
 62
7
  6
CONTINUOUS
 10
5.3188531776
 20
4.3186525188
 11
4.5178685162
 21
4.3186525188
  0
LINE
  5
28C
100
AcDbEntity
  8
0
100
AcDbLine
 62
7
  6
CONTINUOUS
 10
5.210893183
 20
4.4519720091
 11
4.6258285094
 21
4.4519720074
  0
LINE
  5
28D
100
AcDbEntity
  8
0
100
AcDbLine
 62
7
  6
CONTINUOUS
 10
5.1996108469
 20
4.481773337
 11
4.6371108469
 21
4.4817733368
  0
LINE
  5
28E
100
AcDbEntity
  8
0
100
AcDbLine
 62
7
  6
CONTINUOUS
 10
3.7393009842
 20
5.7958336877
 11
3.7389990338
 21
5.7963324259
  0
LINE
  5
28F
100
AcDbEntity
  8
ALL_FEATURES
100
AcDbLine
 62
7
  6
CONTINUOUS
 10
4.8330483469
 20
1.0132219364
 11
4.8330483469
 21
1.0207219364
  0
LINE
  5
290
100
AcDbEntity
  8
ALL_FEATURES
100
AcDbLine
 62
7
  6
CONTINUOUS
 10
4.8441030348
 20
1.0132219364
 11
4.8441030348
 21
1.0207219364
  0
LINE
  5
291
100
AcDbEntity
  8
ALL_FEATURES
100
AcDbLine
 62
7
  6
CONTINUOUS
 10
4.8619707089
 20
1.0132219364
 11
4.8619707089
 21
1.0282219364
  0
LINE
  5
292
100
AcDbEntity
  8
ALL_FEATURES
100
AcDbLine
 62
7
  6
CONTINUOUS
 10
4.8763608469
 20
1.0132219364
 11
4.8763608469
 21
1.0282219364
  0
LINE
  5
293
100
AcDbEntity
  8
ALL_FEATURES
100
AcDbLine
 62
7
  6
CONTINUOUS
 10
4.9603608469
 20
1.0132219364
 11
4.9603608469
 21
1.0282219364
  0
LINE
  5
294
100
AcDbEntity
  8
ALL_FEATURES
100
AcDbLine
 62
7
  6
CONTINUOUS
 10
4.9747509848
 20
1.0132219364
 11
4.9747509848
 21
1.0282219364
  0
LINE
  5
295
100
AcDbEntity
  8
ALL_FEATURES
100
AcDbLine
 62
7
  6
CONTINUOUS
 10
4.992618659
 20
1.0132219364
 11
4.992618659
 21
1.0207219364
  0
LINE
  5
296
100
AcDbEntity
  8
0
100
AcDbLine
 62
7
  6
CONTINUOUS
 10
4.9377297667
 20
7.2841411469
 11
4.9375298029
 21
7.2765048275
  0
LINE
  5
297
100
AcDbEntity
  8
0
100
AcDbLine
 62
7
  6
CONTINUOUS
 10
4.9347471945
 20
7.1702413194
 11
4.9344887521
 21
7.1603717843
  0
LINE
  5
298
100
AcDbEntity
  8
0
100
AcDbLine
 62
7
  6
CONTINUOUS
 10
4.0036723978
 20
6.0066369657
 11
3.9952378753
 21
6.0212459884
  0
LINE
  5
299
100
AcDbEntity
  8
0
100
AcDbLine
 62
7
  6
CONTINUOUS
 10
4.0173757258
 20
6.0145754199
 11
4.0089644495
 21
6.0291441958
  0
LINE
  5
29A
100
AcDbEntity
  8
ALL_FEATURES
100
AcDbLine
 62
7
  6
CONTINUOUS
 10
5.0036733469
 20
1.0132219364
 11
5.0036733469
 21
1.0207219364
  0
LINE
  5
29B
100
AcDbEntity
  8
0
100
AcDbLine
 62
7
  6
CONTINUOUS
 10
5.1921108469
 20
1.0282219364
 11
5.1921108469
 21
1.3019719364
  0
LINE
  5
29C
100
AcDbEntity
  8
0
100
AcDbLine
 62
7
  6
CONTINUOUS
 10
5.1996108469
 20
4.481773337
 11
5.1996108469
 21
5.0714514437
  0
LINE
  5
29D
100
AcDbEntity
  8
0
100
AcDbLine
 62
7
  6
CONTINUOUS
 10
5.3188531776
 20
4.3186525188
 11
5.210893183
 21
4.4519720091
  0
LINE
  5
29E
100
AcDbEntity
  8
0
100
AcDbLine
 62
7
  6
CONTINUOUS
 10
4.9232120812
 20
6.3379605434
 11
4.924778263
 21
6.3260622588
  0
LINE
  5
29F
100
AcDbEntity
  8
0
100
AcDbLine
 62
7
  6
CONTINUOUS
 10
4.8680310107
 20
6.7571004342
 11
4.8695932978
 21
6.7452393227
  0
LINE
  5
2A0
100
AcDbEntity
  8
0
100
AcDbLine
 62
7
  6
CONTINUOUS
 10
4.9686906831
 20
6.3318434386
 11
4.9671286898
 21
6.3437046288
  0
LINE
  5
2A1
100
AcDbEntity
  8
0
100
AcDbLine
 62
7
  6
CONTINUOUS
 10
4.9135112442
 20
6.7509833904
 11
4.9119434307
 21
6.762881614
  0
LINE
  5
2A2
100
AcDbEntity
  8
0
100
AcDbLine
 62
7
  6
CONTINUOUS
 10
5.3946108469
 20
1.3319719364
 11
5.3946108469
 21
1.3844719364
  0
LINE
  5
2A3
100
AcDbEntity
  8
0
100
AcDbLine
 62
7
  6
CONTINUOUS
 10
5.3946108469
 20
4.2194719364
 11
5.3946108469
 21
4.2719719364
  0
LINE
  5
2A4
100
AcDbEntity
  8
0
100
AcDbLine
 62
7
  6
CONTINUOUS
 10
4.7828729707
 20
7.1556182018
 11
4.7850100325
 21
7.1459786083
  0
LINE
  5
2A5
100
AcDbEntity
  8
0
100
AcDbLine
 62
7
  6
CONTINUOUS
 10
4.7582122162
 20
7.2668557224
 11
4.7598664647
 21
7.2593940398
  0
LINE
  5
2A6
100
AcDbEntity
  8
ALL_FEATURES
100
AcDbLine
 62
7
  6
CONTINUOUS
 10
5.0036733469
 20
1.0207219364
 11
5.0053608469
 21
1.0282219364
  0
LINE
  5
2A7
100
AcDbEntity
  8
0
100
AcDbLine
 62
7
  6
CONTINUOUS
 10
5.1774872603
 20
5.8514068619
 11
5.174812039
 21
5.8585620652
  0
LINE
  5
2A8
100
AcDbEntity
  8
0
100
AcDbLine
 62
7
  6
CONTINUOUS
 10
5.1375850417
 20
5.9581301965
 11
5.1341274575
 21
5.9673779208
  0
LINE
  5
2A9
100
AcDbEntity
  8
ALL_FEATURES
100
AcDbLine
 62
7
  6
CONTINUOUS
 10
4.992618659
 20
1.0207219364
 11
4.9945513487
 21
1.02822171
  0
LINE
  5
2AA
100
AcDbEntity
  8
0
100
AcDbLine
 62
7
  6
CONTINUOUS
 10
5.2729224387
 20
6.028581638
 11
5.2673299342
 21
6.0367187561
  0
LINE
  5
2AB
100
AcDbEntity
  8
0
100
AcDbLine
 62
7
  6
CONTINUOUS
 10
5.3374578007
 20
5.9346820861
 11
5.3331288127
 21
5.9409807454
  0
LINE
  5
2AC
100
AcDbEntity
  8
0
100
AcDbLine
 62
7
  6
CONTINUOUS
 10
4.3963611562
 20
6.8899759817
 11
4.4045946542
 21
6.8845263662
  0
LINE
  5
2AD
100
AcDbEntity
  8
0
100
AcDbLine
 62
7
  6
CONTINUOUS
 10
4.3013496192
 20
6.952862758
 11
4.3077229069
 21
6.9486444099
  0
LINE
  5
2AE
100
AcDbEntity
  8
0
100
AcDbLine
 62
7
  6
CONTINUOUS
 10
5.0773376094
 20
6.3945707708
 11
5.0678462044
 21
6.4018537821
  0
LINE
  5
2AF
100
AcDbEntity
  8
0
100
AcDbLine
 62
7
  6
CONTINUOUS
 10
4.7419422153
 20
6.6519287083
 11
4.7324212257
 21
6.6592344206
  0
LINE
  5
2B0
100
AcDbEntity
  8
0
100
AcDbLine
 62
7
  6
CONTINUOUS
 10
4.7593840843
 20
6.694373102
 11
4.7688754894
 21
6.6870900907
  0
LINE
  5
2B1
100
AcDbEntity
  8
0
100
AcDbLine
 62
7
  6
CONTINUOUS
 10
5.0947794784
 20
6.4370151645
 11
5.104300468
 21
6.4297094522
  0
LINE
  5
2B2
100
AcDbEntity
  8
0
100
AcDbLine
 62
7
  6
CONTINUOUS
 10
5.4484809843
 20
6.0996483246
 11
5.4318217384
 21
6.1136270917
  0
LINE
  5
2B3
100
AcDbEntity
  8
0
100
AcDbLine
 62
7
  6
CONTINUOUS
 10
5.3871955648
 20
6.1296820337
 11
5.3798006751
 21
6.1362244555
  0
LINE
  5
2B4
100
AcDbEntity
  8
0
100
AcDbLine
 62
7
  6
CONTINUOUS
 10
5.4725303489
 20
6.0541841784
 11
5.4668061048
 21
6.0592485176
  0
LINE
  5
2B5
100
AcDbEntity
  8
0
100
AcDbLine
 62
7
  6
CONTINUOUS
 10
5.1248723416
 20
6.5493204519
 11
5.1367705244
 21
6.5508893525
  0
LINE
  5
2B6
100
AcDbEntity
  8
0
100
AcDbLine
 62
7
  6
CONTINUOUS
 10
5.1309893447
 20
6.5948017726
 11
5.1191284991
 21
6.593238493
  0
LINE
  5
2B7
100
AcDbEntity
  8
0
100
AcDbLine
 62
7
  6
CONTINUOUS
 10
4.7057323491
 20
6.4941421002
 11
4.7175936763
 21
6.4957035822
  0
LINE
  5
2B8
100
AcDbEntity
  8
0
100
AcDbLine
 62
7
  6
CONTINUOUS
 10
4.7118494461
 20
6.5396209108
 11
4.6999511693
 21
6.5380545202
  0
LINE
  5
2B9
100
AcDbEntity
  8
0
100
AcDbLine
 62
7
  6
CONTINUOUS
 10
5.6575795179
 20
6.5767469215
 11
5.6499439377
 21
6.5764135123
  0
LINE
  5
2BA
100
AcDbEntity
  8
0
100
AcDbLine
 62
7
  6
CONTINUOUS
 10
5.5437496501
 20
6.571777012
 11
5.5338854067
 21
6.5713463148
  0
LINE
  5
2BB
100
AcDbEntity
  8
0
100
AcDbLine
 62
7
  6
CONTINUOUS
 10
4.2235279257
 20
6.5979364159
 11
4.2591314329
 21
6.5951968753
  0
LINE
  5
2BC
100
AcDbEntity
  8
0
100
AcDbLine
 62
7
  6
CONTINUOUS
 10
4.2952591345
 20
6.6044698132
 11
4.3050863541
 21
6.6035235512
  0
LINE
  5
2BD
100
AcDbEntity
  8
0
100
AcDbLine
 62
7
  6
CONTINUOUS
 10
4.1818444073
 20
6.6153903898
 11
4.1894516039
 21
6.6146579311
  0
LINE
  5
2BE
100
AcDbEntity
  8
0
100
AcDbLine
 62
7
  6
CONTINUOUS
 10
4.3282817844
 20
6.7534298803
 11
4.3375890935
 21
6.7501340051
  0
LINE
  5
2BF
100
AcDbEntity
  8
0
100
AcDbLine
 62
7
  6
CONTINUOUS
 10
4.2208788079
 20
6.7914632795
 11
4.2280832918
 21
6.7889120724
  0
ARC
  5
2C0
100
AcDbEntity
  8
0
100
AcDbCircle
 62
7
  6
CONTINUOUS
 10
-9.7478896198
 20
2.8019719364
 40
15.13125
100
AcDbArc
 50
354.9244926841
 51
5.0755073159
  0
ARC
  5
2C1
100
AcDbEntity
  8
0
100
AcDbCircle
 62
7
  6
CONTINUOUS
 10
-14.4762702423
 20
37.3395201903
 40
36.3094923858
100
AcDbArc
 50
299.8157167066
 51
299.9924548026
  0
ARC
  5
2C2
100
AcDbEntity
  8
0
100
AcDbCircle
 62
7
  6
CONTINUOUS
 10
-13.3726803854
 20
35.287872665
 40
34.0963417131
100
AcDbArc
 50
299.9063808943
 51
300.1233067151
  0
ARC
  5
2C3
100
AcDbEntity
  8
0
100
AcDbCircle
 62
7
  6
CONTINUOUS
 10
0.6882609772
 20
11.7844392207
 40
6.6445836709
100
AcDbArc
 50
299.8476467847
 51
299.9841858027
  0
ARC
  5
2C4
100
AcDbEntity
  8
0
100
AcDbCircle
 62
7
  6
CONTINUOUS
 10
0.688571923
 20
11.7839003114
 40
6.6439614895
100
AcDbArc
 50
299.847633963
 51
299.9841859022
  0
ARC
  5
2C5
100
AcDbEntity
  8
0
100
AcDbCircle
 62
7
  6
CONTINUOUS
 10
5.3688539209
 20
1.4593518157
 40
0.045
100
AcDbArc
 50
174.9244926841
 51
266.7567985982
  0
ARC
  5
2C6
100
AcDbEntity
  8
0
100
AcDbCircle
 62
7
  6
CONTINUOUS
 10
4.4678677729
 20
1.4593518157
 40
0.045
100
AcDbArc
 50
273.2432014018
 51
5.0755073159
  0
ARC
  5
2C7
100
AcDbEntity
  8
0
100
AcDbCircle
 62
7
  6
CONTINUOUS
 10
5.3646108469
 20
1.3844719364
 40
0.03
100
AcDbArc
 50
0.0
 51
86.7567985982
  0
ARC
  5
2C8
100
AcDbEntity
  8
0
100
AcDbCircle
 62
7
  6
CONTINUOUS
 10
5.3646108469
 20
1.3319719364
 40
0.03
100
AcDbArc
 50
270.0
 51
360.0
  0
ARC
  5
2C9
100
AcDbEntity
  8
0
100
AcDbCircle
 62
7
  6
CONTINUOUS
 10
4.4721108469
 20
1.3844719364
 40
0.03
100
AcDbArc
 50
93.2432014018
 51
180.0
  0
ARC
  5
2CA
100
AcDbEntity
  8
0
100
AcDbCircle
 62
7
  6
CONTINUOUS
 10
4.4721108469
 20
1.3319719364
 40
0.03
100
AcDbArc
 50
180.0
 51
270.0
  0
ARC
  5
2CB
100
AcDbEntity
  8
0
100
AcDbCircle
 62
7
  6
CONTINUOUS
 10
4.4828969479
 20
4.3469719364
 40
0.045
100
AcDbArc
 50
270.0
 51
321.0
  0
ARC
  5
2CC
100
AcDbEntity
  8
0
100
AcDbCircle
 62
7
  6
CONTINUOUS
 10
4.4678677729
 20
4.1445920571
 40
0.045
100
AcDbArc
 50
354.9244926841
 51
86.7567985982
  0
ARC
  5
2CD
100
AcDbEntity
  8
0
100
AcDbCircle
 62
7
  6
CONTINUOUS
 10
4.5921108469
 20
4.4817733368
 40
0.045
100
AcDbArc
 50
318.5281678499
 51
360.0
  0
ARC
  5
2CE
100
AcDbEntity
  8
0
100
AcDbCircle
 62
7
  6
CONTINUOUS
 10
4.4721108469
 20
4.2719719364
 40
0.03
100
AcDbArc
 50
90.0
 51
180.0
  0
ARC
  5
2CF
100
AcDbEntity
  8
0
100
AcDbCircle
 62
7
  6
CONTINUOUS
 10
4.4721108469
 20
4.2194719364
 40
0.03
100
AcDbArc
 50
180.0
 51
266.7567985982
  0
CIRCLE
  5
2D0
100
AcDbEntity
  8
0
100
AcDbCircle
 62
7
  6
CONTINUOUS
 10
4.06231622
 20
5.6884273096
 40
0.062007874
  0
CIRCLE
  5
2D1
100
AcDbEntity
  8
0
100
AcDbCircle
 62
7
  6
CONTINUOUS
 10
4.06231622
 20
5.6884273096
 40
0.0576832151
  0
CIRCLE
  5
2D2
100
AcDbEntity
  8
0
100
AcDbCircle
 62
7
  6
CONTINUOUS
 10
4.06231622
 20
5.6884273096
 40
0.0515680971
  0
CIRCLE
  5
2D3
100
AcDbEntity
  8
0
100
AcDbCircle
 62
7
  6
CONTINUOUS
 10
4.06231622
 20
5.6884273096
 40
0.0411284774
  0
CIRCLE
  5
2D4
100
AcDbEntity
  8
0
100
AcDbCircle
 62
7
  6
CONTINUOUS
 10
3.7489821398
 20
6.2311378562
 40
0.062007874
  0
CIRCLE
  5
2D5
100
AcDbEntity
  8
0
100
AcDbCircle
 62
7
  6
CONTINUOUS
 10
3.7489821398
 20
6.2311378562
 40
0.0576832151
  0
CIRCLE
  5
2D6
100
AcDbEntity
  8
0
100
AcDbCircle
 62
7
  6
CONTINUOUS
 10
4.0855740974
 20
5.9054521883
 40
0.0531496063
  0
CIRCLE
  5
2D7
100
AcDbEntity
  8
0
100
AcDbCircle
 62
7
  6
CONTINUOUS
 10
3.9485601368
 20
6.1427673295
 40
0.0531496063
  0
CIRCLE
  5
2D8
100
AcDbEntity
  8
0
100
AcDbCircle
 62
7
  6
CONTINUOUS
 10
3.7489821398
 20
6.2311378562
 40
0.0515680971
  0
CIRCLE
  5
2D9
100
AcDbEntity
  8
0
100
AcDbCircle
 62
7
  6
CONTINUOUS
 10
4.0855740974
 20
5.9054521883
 40
0.0488251759
  0
CIRCLE
  5
2DA
100
AcDbEntity
  8
0
100
AcDbCircle
 62
7
  6
CONTINUOUS
 10
3.9485601368
 20
6.1427673295
 40
0.0488251758
  0
CIRCLE
  5
2DB
100
AcDbEntity
  8
0
100
AcDbCircle
 62
7
  6
CONTINUOUS
 10
3.9485601368
 20
6.1427673295
 40
0.0427097959
  0
CIRCLE
  5
2DC
100
AcDbEntity
  8
0
100
AcDbCircle
 62
7
  6
CONTINUOUS
 10
4.0855740974
 20
5.9054521883
 40
0.0427097959
  0
CIRCLE
  5
2DD
100
AcDbEntity
  8
0
100
AcDbCircle
 62
7
  6
CONTINUOUS
 10
3.7489821398
 20
6.2311378562
 40
0.0411284774
  0
CIRCLE
  5
2DE
100
AcDbEntity
  8
0
100
AcDbCircle
 62
7
  6
CONTINUOUS
 10
3.9485601368
 20
6.1427673295
 40
0.0322701902
  0
CIRCLE
  5
2DF
100
AcDbEntity
  8
0
100
AcDbCircle
 62
7
  6
CONTINUOUS
 10
4.0855740974
 20
5.9054521883
 40
0.0322701902
  0
CIRCLE
  5
2E0
100
AcDbEntity
  8
0
100
AcDbCircle
 62
7
  6
CONTINUOUS
 10
4.6050267667
 20
5.3750932294
 40
0.062007874
  0
CIRCLE
  5
2E1
100
AcDbEntity
  8
0
100
AcDbCircle
 62
7
  6
CONTINUOUS
 10
4.3130458862
 20
5.49603567
 40
0.062007874
  0
CIRCLE
  5
2E2
100
AcDbEntity
  8
0
100
AcDbCircle
 62
7
  6
CONTINUOUS
 10
4.6050267667
 20
5.3750932294
 40
0.0576832151
  0
CIRCLE
  5
2E3
100
AcDbEntity
  8
0
100
AcDbCircle
 62
7
  6
CONTINUOUS
 10
4.3130458862
 20
5.49603567
 40
0.0576832151
  0
CIRCLE
  5
2E4
100
AcDbEntity
  8
0
100
AcDbCircle
 62
7
  6
CONTINUOUS
 10
4.51665624
 20
5.5746712263
 40
0.0531496063
  0
CIRCLE
  5
2E5
100
AcDbEntity
  8
0
100
AcDbCircle
 62
7
  6
CONTINUOUS
 10
4.2793410988
 20
5.711685187
 40
0.0531496063
  0
CIRCLE
  5
2E6
100
AcDbEntity
  8
0
100
AcDbCircle
 62
7
  6
CONTINUOUS
 10
4.6050267667
 20
5.3750932294
 40
0.0515680971
  0
CIRCLE
  5
2E7
100
AcDbEntity
  8
0
100
AcDbCircle
 62
7
  6
CONTINUOUS
 10
4.3130458862
 20
5.49603567
 40
0.0515680971
  0
CIRCLE
  5
2E8
100
AcDbEntity
  8
0
100
AcDbCircle
 62
7
  6
CONTINUOUS
 10
4.2793410988
 20
5.711685187
 40
0.0488251759
  0
CIRCLE
  5
2E9
100
AcDbEntity
  8
0
100
AcDbCircle
 62
7
  6
CONTINUOUS
 10
4.51665624
 20
5.5746712263
 40
0.0488251759
  0
CIRCLE
  5
2EA
100
AcDbEntity
  8
0
100
AcDbCircle
 62
7
  6
CONTINUOUS
 10
4.2793410988
 20
5.711685187
 40
0.0427097959
  0
CIRCLE
  5
2EB
100
AcDbEntity
  8
0
100
AcDbCircle
 62
7
  6
CONTINUOUS
 10
4.51665624
 20
5.5746712263
 40
0.0427097959
  0
CIRCLE
  5
2EC
100
AcDbEntity
  8
0
100
AcDbCircle
 62
7
  6
CONTINUOUS
 10
4.6050267667
 20
5.3750932294
 40
0.0411284774
  0
CIRCLE
  5
2ED
100
AcDbEntity
  8
0
100
AcDbCircle
 62
7
  6
CONTINUOUS
 10
4.3130458862
 20
5.49603567
 40
0.0411284774
  0
CIRCLE
  5
2EE
100
AcDbEntity
  8
0
100
AcDbCircle
 62
7
  6
CONTINUOUS
 10
4.2793410988
 20
5.711685187
 40
0.0322701902
  0
CIRCLE
  5
2EF
100
AcDbEntity
  8
0
100
AcDbCircle
 62
7
  6
CONTINUOUS
 10
4.51665624
 20
5.5746712263
 40
0.0322701902
  0
ARC
  5
2F0
100
AcDbEntity
  8
0
100
AcDbCircle
 62
7
  6
CONTINUOUS
 10
4.38399073
 20
6.118811345
 40
0.0670726761
100
AcDbArc
 50
38.9033998775
 51
43.7759960274
  0
ARC
  5
2F1
100
AcDbEntity
  8
0
100
AcDbCircle
 62
7
  6
CONTINUOUS
 10
4.3908018034
 20
6.1253040301
 40
0.0661140385
100
AcDbArc
 50
218.8197879212
 51
224.1594042845
  0
ARC
  5
2F2
100
AcDbEntity
  8
0
100
AcDbCircle
 62
7
  6
CONTINUOUS
 10
4.3910131199
 20
6.1244658948
 40
0.0657579667
100
AcDbArc
 50
212.6711743484
 51
218.1353745204
  0
ARC
  5
2F3
100
AcDbEntity
  8
0
100
AcDbCircle
 62
7
  6
CONTINUOUS
 10
4.3871595932
 20
6.1219207356
 40
0.0626553954
100
AcDbArc
 50
33.3057371718
 51
38.5104806239
  0
CIRCLE
  5
2F4
100
AcDbEntity
  8
0
100
AcDbCircle
 62
7
  6
CONTINUOUS
 10
4.3868651498
 20
6.1217011694
 40
0.0531496063
  0
CIRCLE
  5
2F5
100
AcDbEntity
  8
0
100
AcDbCircle
 62
7
  6
CONTINUOUS
 10
4.3868651498
 20
6.1217011694
 40
0.050555047
  0
CIRCLE
  5
2F6
100
AcDbEntity
  8
0
100
AcDbCircle
 62
7
  6
CONTINUOUS
 10
4.3868651498
 20
6.1217011694
 40
0.0409803256
  0
CIRCLE
  5
2F7
100
AcDbEntity
  8
0
100
AcDbCircle
 62
7
  6
CONTINUOUS
 10
4.3868651498
 20
6.1217011694
 40
0.034716572
  0
CIRCLE
  5
2F8
100
AcDbEntity
  8
0
100
AcDbCircle
 62
7
  6
CONTINUOUS
 10
4.3868651498
 20
6.1217011694
 40
0.0221456693
  0
ARC
  5
2F9
100
AcDbEntity
  8
0
100
AcDbCircle
 62
7
  6
CONTINUOUS
 10
4.5042997004
 20
6.0052141
 40
0.0637754847
100
AcDbArc
 50
47.0815793079
 51
52.3046675785
  0
ARC
  5
2FA
100
AcDbEntity
  8
0
100
AcDbCircle
 62
7
  6
CONTINUOUS
 10
4.5054525513
 20
6.0062734471
 40
0.0622328882
100
AcDbArc
 50
52.548156321
 51
58.128153732
  0
ARC
  5
2FB
100
AcDbEntity
  8
0
100
AcDbCircle
 62
7
  6
CONTINUOUS
 10
4.5057817405
 20
6.0068243497
 40
0.0622164249
100
AcDbArc
 50
232.5201671086
 51
238.1708452923
  0
ARC
  5
2FC
100
AcDbEntity
  8
0
100
AcDbCircle
 62
7
  6
CONTINUOUS
 10
4.5056047183
 20
6.0065658264
 40
0.0619012579
100
AcDbArc
 50
58.1048691522
 51
223.9381943712
  0
ARC
  5
2FD
100
AcDbEntity
  8
0
100
AcDbCircle
 62
7
  6
CONTINUOUS
 10
4.5053453547
 20
6.0062484352
 40
0.061493865
100
AcDbArc
 50
223.8929289544
 51
232.5163171932
  0
CIRCLE
  5
2FE
100
AcDbEntity
  8
0
100
AcDbCircle
 62
7
  6
CONTINUOUS
 10
4.5049303488
 20
6.0056788214
 40
0.0531496063
  0
CIRCLE
  5
2FF
100
AcDbEntity
  8
0
100
AcDbCircle
 62
7
  6
CONTINUOUS
 10
4.5049303488
 20
6.0056788214
 40
0.050555047
  0
CIRCLE
  5
300
100
AcDbEntity
  8
0
100
AcDbCircle
 62
7
  6
CONTINUOUS
 10
4.5049303488
 20
6.0056788214
 40
0.0409803257
  0
CIRCLE
  5
301
100
AcDbEntity
  8
0
100
AcDbCircle
 62
7
  6
CONTINUOUS
 10
4.5049303488
 20
6.0056788214
 40
0.0347165721
  0
CIRCLE
  5
302
100
AcDbEntity
  8
0
100
AcDbCircle
 62
7
  6
CONTINUOUS
 10
4.5049303488
 20
6.0056788214
 40
0.0221456693
  0
ARC
  5
303
100
AcDbEntity
  8
0
100
AcDbCircle
 62
7
  6
CONTINUOUS
 10
5.3538247458
 20
4.3469719364
 40
0.045
100
AcDbArc
 50
219.0
 51
270.0
  0
ARC
  5
304
100
AcDbEntity
  8
0
100
AcDbCircle
 62
7
  6
CONTINUOUS
 10
5.3688539209
 20
4.1445920571
 40
0.045
100
AcDbArc
 50
93.2432014018
 51
185.0755073159
  0
ARC
  5
305
100
AcDbEntity
  8
0
100
AcDbCircle
 62
7
  6
CONTINUOUS
 10
5.2446108469
 20
4.481773337
 40
0.045
100
AcDbArc
 50
180.0
 51
221.4718295506
  0
ARC
  5
306
100
AcDbEntity
  8
0
100
AcDbCircle
 62
7
  6
CONTINUOUS
 10
5.3646108469
 20
4.2719719364
 40
0.03
100
AcDbArc
 50
0.0
 51
90.0
  0
ARC
  5
307
100
AcDbEntity
  8
0
100
AcDbCircle
 62
7
  6
CONTINUOUS
 10
5.3646108469
 20
4.2194719364
 40
0.03
100
AcDbArc
 50
273.2432014018
 51
360.0
  0
CIRCLE
  5
308
100
AcDbEntity
  8
0
100
AcDbCircle
 62
7
  6
CONTINUOUS
 10
4.9183608469
 20
5.3338420151
 40
0.062007874
  0
CIRCLE
  5
309
100
AcDbEntity
  8
0
100
AcDbCircle
 62
7
  6
CONTINUOUS
 10
4.9183608469
 20
5.3338420151
 40
0.0576832151
  0
CIRCLE
  5
30A
100
AcDbEntity
  8
0
100
AcDbCircle
 62
7
  6
CONTINUOUS
 10
5.0553748075
 20
5.5037475814
 40
0.0531496063
  0
CIRCLE
  5
30B
100
AcDbEntity
  8
0
100
AcDbCircle
 62
7
  6
CONTINUOUS
 10
4.7813468862
 20
5.5037475814
 40
0.0531496063
  0
CIRCLE
  5
30C
100
AcDbEntity
  8
0
100
AcDbCircle
 62
7
  6
CONTINUOUS
 10
4.9183608469
 20
5.3338420151
 40
0.0515680971
  0
CIRCLE
  5
30D
100
AcDbEntity
  8
0
100
AcDbCircle
 62
7
  6
CONTINUOUS
 10
5.0553748075
 20
5.5037475814
 40
0.0488251759
  0
CIRCLE
  5
30E
100
AcDbEntity
  8
0
100
AcDbCircle
 62
7
  6
CONTINUOUS
 10
4.7813468862
 20
5.5037475814
 40
0.0488251759
  0
CIRCLE
  5
30F
100
AcDbEntity
  8
0
100
AcDbCircle
 62
7
  6
CONTINUOUS
 10
5.0553748075
 20
5.5037475814
 40
0.0427097959
  0
CIRCLE
  5
310
100
AcDbEntity
  8
0
100
AcDbCircle
 62
7
  6
CONTINUOUS
 10
4.7813468862
 20
5.5037475814
 40
0.0427097959
  0
CIRCLE
  5
311
100
AcDbEntity
  8
0
100
AcDbCircle
 62
7
  6
CONTINUOUS
 10
4.9183608469
 20
5.3338420151
 40
0.0411284774
  0
CIRCLE
  5
312
100
AcDbEntity
  8
0
100
AcDbCircle
 62
7
  6
CONTINUOUS
 10
5.0553748075
 20
5.5037475814
 40
0.0322701902
  0
CIRCLE
  5
313
100
AcDbEntity
  8
0
100
AcDbCircle
 62
7
  6
CONTINUOUS
 10
4.7813468862
 20
5.5037475814
 40
0.0322701902
  0
ARC
  5
314
100
AcDbEntity
  8
0
100
AcDbCircle
 62
7
  6
CONTINUOUS
 10
4.646344195
 20
5.9176608723
 40
0.0671801894
100
AcDbArc
 50
66.9134029942
 51
71.7827031707
  0
ARC
  5
315
100
AcDbEntity
  8
0
100
AcDbCircle
 62
7
  6
CONTINUOUS
 10
4.6498976779
 20
5.9260140403
 40
0.065711989
100
AcDbArc
 50
240.6771090707
 51
246.1401931653
  0
ARC
  5
316
100
AcDbEntity
  8
0
100
AcDbCircle
 62
7
  6
CONTINUOUS
 10
4.6466897229
 20
5.9201580149
 40
0.0647509231
100
AcDbArc
 50
61.2426971764
 51
66.3282066876
  0
CIRCLE
  5
317
100
AcDbEntity
  8
0
100
AcDbCircle
 62
7
  6
CONTINUOUS
 10
4.6475568532
 20
5.9216653898
 40
0.0531496063
  0
CIRCLE
  5
318
100
AcDbEntity
  8
0
100
AcDbCircle
 62
7
  6
CONTINUOUS
 10
4.6475568532
 20
5.9216653898
 40
0.050555047
  0
CIRCLE
  5
319
100
AcDbEntity
  8
0
100
AcDbCircle
 62
7
  6
CONTINUOUS
 10
4.6475568532
 20
5.9216653898
 40
0.0409803256
  0
CIRCLE
  5
31A
100
AcDbEntity
  8
0
100
AcDbCircle
 62
7
  6
CONTINUOUS
 10
4.6475568532
 20
5.9216653898
 40
0.034716572
  0
CIRCLE
  5
31B
100
AcDbEntity
  8
0
100
AcDbCircle
 62
7
  6
CONTINUOUS
 10
4.6475568532
 20
5.9216653898
 40
0.0221456693
  0
CIRCLE
  5
31C
100
AcDbEntity
  8
0
100
AcDbCircle
 62
7
  6
CONTINUOUS
 10
4.7053542642
 20
6.2668763532
 40
0.1079844241
  0
CIRCLE
  5
31D
100
AcDbEntity
  8
0
100
AcDbCircle
 62
7
  6
CONTINUOUS
 10
4.7053542642
 20
6.2668763532
 40
0.0975454248
  0
CIRCLE
  5
31E
100
AcDbEntity
  8
0
100
AcDbCircle
 62
7
  6
CONTINUOUS
 10
4.7053542642
 20
6.2668763532
 40
0.0914300427
  0
CIRCLE
  5
31F
100
AcDbEntity
  8
0
100
AcDbCircle
 62
7
  6
CONTINUOUS
 10
4.7053542642
 20
6.2668763532
 40
0.0809902366
  0
CIRCLE
  5
320
100
AcDbEntity
  8
0
100
AcDbCircle
 62
7
  6
CONTINUOUS
 10
4.7053542642
 20
6.2668763532
 40
0.0664370079
  0
CIRCLE
  5
321
100
AcDbEntity
  8
0
100
AcDbCircle
 62
7
  6
CONTINUOUS
 10
4.9640321671
 20
6.1975638181
 40
0.1079844268
  0
CIRCLE
  5
322
100
AcDbEntity
  8
0
100
AcDbCircle
 62
7
  6
CONTINUOUS
 10
4.9640321671
 20
6.1975638181
 40
0.097545426
  0
CIRCLE
  5
323
100
AcDbEntity
  8
0
100
AcDbCircle
 62
7
  6
CONTINUOUS
 10
4.9640321671
 20
6.1975638181
 40
0.0914300427
  0
CIRCLE
  5
324
100
AcDbEntity
  8
0
100
AcDbCircle
 62
7
  6
CONTINUOUS
 10
4.9640321671
 20
6.1975638181
 40
0.0809902366
  0
CIRCLE
  5
325
100
AcDbEntity
  8
0
100
AcDbCircle
 62
7
  6
CONTINUOUS
 10
4.9640321671
 20
6.1975638181
 40
0.0664370079
  0
CIRCLE
  5
326
100
AcDbEntity
  8
0
100
AcDbCircle
 62
7
  6
CONTINUOUS
 10
4.8060191157
 20
6.1252068878
 40
0.0221456693
  0
CIRCLE
  5
327
100
AcDbEntity
  8
0
100
AcDbCircle
 62
7
  6
CONTINUOUS
 10
5.5236758075
 20
5.49603567
 40
0.062007874
  0
CIRCLE
  5
328
100
AcDbEntity
  8
0
100
AcDbCircle
 62
7
  6
CONTINUOUS
 10
5.2316949271
 20
5.3750932294
 40
0.062007874
  0
CIRCLE
  5
329
100
AcDbEntity
  8
0
100
AcDbCircle
 62
7
  6
CONTINUOUS
 10
5.5236758075
 20
5.49603567
 40
0.0576832152
  0
CIRCLE
  5
32A
100
AcDbEntity
  8
0
100
AcDbCircle
 62
7
  6
CONTINUOUS
 10
5.2316949271
 20
5.3750932294
 40
0.0576832151
  0
CIRCLE
  5
32B
100
AcDbEntity
  8
0
100
AcDbCircle
 62
7
  6
CONTINUOUS
 10
5.3200654538
 20
5.5746712263
 40
0.0531496063
  0
CIRCLE
  5
32C
100
AcDbEntity
  8
0
100
AcDbCircle
 62
7
  6
CONTINUOUS
 10
5.5236758075
 20
5.49603567
 40
0.0515680971
  0
CIRCLE
  5
32D
100
AcDbEntity
  8
0
100
AcDbCircle
 62
7
  6
CONTINUOUS
 10
5.2316949271
 20
5.3750932294
 40
0.0515680971
  0
CIRCLE
  5
32E
100
AcDbEntity
  8
0
100
AcDbCircle
 62
7
  6
CONTINUOUS
 10
5.3200654538
 20
5.5746712263
 40
0.0488251758
  0
CIRCLE
  5
32F
100
AcDbEntity
  8
0
100
AcDbCircle
 62
7
  6
CONTINUOUS
 10
5.3200654538
 20
5.5746712263
 40
0.0427097959
  0
CIRCLE
  5
330
100
AcDbEntity
  8
0
100
AcDbCircle
 62
7
  6
CONTINUOUS
 10
5.5236758075
 20
5.49603567
 40
0.0411284774
  0
CIRCLE
  5
331
100
AcDbEntity
  8
0
100
AcDbCircle
 62
7
  6
CONTINUOUS
 10
5.2316949271
 20
5.3750932294
 40
0.0411284774
  0
CIRCLE
  5
332
100
AcDbEntity
  8
0
100
AcDbCircle
 62
7
  6
CONTINUOUS
 10
5.3200654538
 20
5.5746712263
 40
0.0322701902
  0
ARC
  5
333
100
AcDbEntity
  8
0
100
AcDbCircle
 62
7
  6
CONTINUOUS
 10
5.1581227195
 20
5.9045925137
 40
0.0672140603
100
AcDbArc
 50
110.9158065583
 51
115.7838805162
  0
ARC
  5
334
100
AcDbEntity
  8
0
100
AcDbCircle
 62
7
  6
CONTINUOUS
 10
5.1551873539
 20
5.9119784514
 40
0.064546546
100
AcDbArc
 50
279.1962542902
 51
290.2115821098
  0
CIRCLE
  5
335
100
AcDbEntity
  8
0
100
AcDbCircle
 62
7
  6
CONTINUOUS
 10
5.1561985369
 20
5.9083461386
 40
0.0531496063
  0
ARC
  5
336
100
AcDbEntity
  8
0
100
AcDbCircle
 62
7
  6
CONTINUOUS
 10
5.1596702806
 20
5.9013617696
 40
0.0530375469
100
AcDbArc
 50
289.6293541937
 51
295.6713868358
  0
CIRCLE
  5
337
100
AcDbEntity
  8
0
100
AcDbCircle
 62
7
  6
CONTINUOUS
 10
5.1561985369
 20
5.9083461386
 40
0.050555047
  0
CIRCLE
  5
338
100
AcDbEntity
  8
0
100
AcDbCircle
 62
7
  6
CONTINUOUS
 10
5.1561985369
 20
5.9083461386
 40
0.0409803256
  0
CIRCLE
  5
339
100
AcDbEntity
  8
0
100
AcDbCircle
 62
7
  6
CONTINUOUS
 10
5.1561985369
 20
5.9083461386
 40
0.034716572
  0
CIRCLE
  5
33A
100
AcDbEntity
  8
0
100
AcDbCircle
 62
7
  6
CONTINUOUS
 10
5.1561985369
 20
5.9083461386
 40
0.0221456693
  0
CIRCLE
  5
33B
100
AcDbEntity
  8
0
100
AcDbCircle
 62
7
  6
CONTINUOUS
 10
5.1353884059
 20
6.1685691775
 40
0.0221456693
  0
ARC
  5
33C
100
AcDbEntity
  8
0
100
AcDbCircle
 62
7
  6
CONTINUOUS
 10
5.3057799125
 20
5.9816294747
 40
0.0671801896
100
AcDbArc
 50
124.9134030028
 51
129.7827031732
  0
ARC
  5
33D
100
AcDbEntity
  8
0
100
AcDbCircle
 62
7
  6
CONTINUOUS
 10
5.2997077503
 20
5.9889568565
 40
0.0661124173
100
AcDbArc
 50
304.8199970199
 51
310.1598067797
  0
ARC
  5
33E
100
AcDbEntity
  8
0
100
AcDbCircle
 62
7
  6
CONTINUOUS
 10
5.3005790831
 20
5.9890695041
 40
0.0657119893
100
AcDbArc
 50
298.6771090313
 51
304.1401931125
  0
ARC
  5
33F
100
AcDbEntity
  8
0
100
AcDbCircle
 62
7
  6
CONTINUOUS
 10
5.3031293425
 20
5.9845438795
 40
0.063275323
100
AcDbArc
 50
119.2857011525
 51
124.4556759387
  0
CIRCLE
  5
340
100
AcDbEntity
  8
0
100
AcDbCircle
 62
7
  6
CONTINUOUS
 10
5.3030264999
 20
5.9847799382
 40
0.0531496063
  0
CIRCLE
  5
341
100
AcDbEntity
  8
0
100
AcDbCircle
 62
7
  6
CONTINUOUS
 10
5.3030264999
 20
5.9847799382
 40
0.050555047
  0
CIRCLE
  5
342
100
AcDbEntity
  8
0
100
AcDbCircle
 62
7
  6
CONTINUOUS
 10
5.3030264999
 20
5.9847799382
 40
0.0409803256
  0
CIRCLE
  5
343
100
AcDbEntity
  8
0
100
AcDbCircle
 62
7
  6
CONTINUOUS
 10
5.3030264999
 20
5.9847799382
 40
0.034716572
  0
CIRCLE
  5
344
100
AcDbEntity
  8
0
100
AcDbCircle
 62
7
  6
CONTINUOUS
 10
5.3030264999
 20
5.9847799382
 40
0.0221456693
  0
ARC
  5
345
100
AcDbEntity
  8
0
100
AcDbCircle
 62
7
  6
CONTINUOUS
 10
5.4227747075
 20
6.0977134779
 40
0.0661094401
100
AcDbArc
 50
318.8185647321
 51
324.1581329595
  0
ARC
  5
346
100
AcDbEntity
  8
0
100
AcDbCircle
 62
7
  6
CONTINUOUS
 10
5.4294448374
 20
6.0927933084
 40
0.0659602679
100
AcDbArc
 50
138.81897177
 51
143.7405747804
  0
ARC
  5
347
100
AcDbEntity
  8
0
100
AcDbCircle
 62
7
  6
CONTINUOUS
 10
5.423585203
 20
6.0980397074
 40
0.0657188621
100
AcDbArc
 50
312.6703633742
 51
318.1392204557
  0
ARC
  5
348
100
AcDbEntity
  8
0
100
AcDbCircle
 62
7
  6
CONTINUOUS
 10
5.4259054289
 20
6.0956068182
 40
0.0614442332
100
AcDbArc
 50
133.3463193424
 51
138.6203998888
  0
CIRCLE
  5
349
100
AcDbEntity
  8
0
100
AcDbCircle
 62
7
  6
CONTINUOUS
 10
5.4270020352
 20
6.0944642265
 40
0.0531496063
  0
CIRCLE
  5
34A
100
AcDbEntity
  8
0
100
AcDbCircle
 62
7
  6
CONTINUOUS
 10
5.4270020352
 20
6.0944642265
 40
0.0505550469
  0
CIRCLE
  5
34B
100
AcDbEntity
  8
0
100
AcDbCircle
 62
7
  6
CONTINUOUS
 10
5.4270020352
 20
6.0944642265
 40
0.040980326
  0
CIRCLE
  5
34C
100
AcDbEntity
  8
0
100
AcDbCircle
 62
7
  6
CONTINUOUS
 10
5.4270020352
 20
6.0944642265
 40
0.0347165725
  0
CIRCLE
  5
34D
100
AcDbEntity
  8
0
100
AcDbCircle
 62
7
  6
CONTINUOUS
 10
5.4270020352
 20
6.0944642265
 40
0.0221456693
  0
ARC
  5
34E
100
AcDbEntity
  8
0
100
AcDbCircle
 62
7
  6
CONTINUOUS
 10
7.3410382708
 20
0.2614933729
 40
6.6441467306
100
AcDbArc
 50
120.0158257461
 51
120.1523807931
  0
ARC
  5
34F
100
AcDbEntity
  8
0
100
AcDbCircle
 62
7
  6
CONTINUOUS
 10
7.3407341687
 20
0.2620197662
 40
6.6435388103
100
AcDbArc
 50
120.0158256489
 51
120.1523933269
  0
CIRCLE
  5
350
100
AcDbEntity
  8
0
100
AcDbCircle
 62
7
  6
CONTINUOUS
 10
5.7744054737
 20
5.6884273096
 40
0.062007874
  0
CIRCLE
  5
351
100
AcDbEntity
  8
0
100
AcDbCircle
 62
7
  6
CONTINUOUS
 10
5.7744054737
 20
5.6884273096
 40
0.0576832151
  0
CIRCLE
  5
352
100
AcDbEntity
  8
0
100
AcDbCircle
 62
7
  6
CONTINUOUS
 10
5.5573805949
 20
5.711685187
 40
0.0531496063
  0
CIRCLE
  5
353
100
AcDbEntity
  8
0
100
AcDbCircle
 62
7
  6
CONTINUOUS
 10
5.7511475963
 20
5.9054521883
 40
0.0531496063
  0
CIRCLE
  5
354
100
AcDbEntity
  8
0
100
AcDbCircle
 62
7
  6
CONTINUOUS
 10
5.7744054737
 20
5.6884273096
 40
0.0515680971
  0
CIRCLE
  5
355
100
AcDbEntity
  8
0
100
AcDbCircle
 62
7
  6
CONTINUOUS
 10
5.5573805949
 20
5.711685187
 40
0.0488251759
  0
CIRCLE
  5
356
100
AcDbEntity
  8
0
100
AcDbCircle
 62
7
  6
CONTINUOUS
 10
5.7511475963
 20
5.9054521883
 40
0.0488251759
  0
CIRCLE
  5
357
100
AcDbEntity
  8
0
100
AcDbCircle
 62
7
  6
CONTINUOUS
 10
5.5573805949
 20
5.711685187
 40
0.0427097959
  0
CIRCLE
  5
358
100
AcDbEntity
  8
0
100
AcDbCircle
 62
7
  6
CONTINUOUS
 10
5.7511475963
 20
5.9054521883
 40
0.0427097959
  0
CIRCLE
  5
359
100
AcDbEntity
  8
0
100
AcDbCircle
 62
7
  6
CONTINUOUS
 10
5.7744054737
 20
5.6884273096
 40
0.0411284774
  0
CIRCLE
  5
35A
100
AcDbEntity
  8
0
100
AcDbCircle
 62
7
  6
CONTINUOUS
 10
5.5573805949
 20
5.711685187
 40
0.0322701902
  0
CIRCLE
  5
35B
100
AcDbEntity
  8
0
100
AcDbCircle
 62
7
  6
CONTINUOUS
 10
5.7511475963
 20
5.9054521883
 40
0.0322701902
  0
CIRCLE
  5
35C
100
AcDbEntity
  8
0
100
AcDbCircle
 62
7
  6
CONTINUOUS
 10
5.9667971133
 20
5.9391569758
 40
0.062007874
  0
CIRCLE
  5
35D
100
AcDbEntity
  8
0
100
AcDbCircle
 62
7
  6
CONTINUOUS
 10
5.9667971133
 20
5.9391569758
 40
0.0576832151
  0
CIRCLE
  5
35E
100
AcDbEntity
  8
0
100
AcDbCircle
 62
7
  6
CONTINUOUS
 10
5.9667971133
 20
5.9391569758
 40
0.0515680971
  0
CIRCLE
  5
35F
100
AcDbEntity
  8
0
100
AcDbCircle
 62
7
  6
CONTINUOUS
 10
5.9667971133
 20
5.9391569758
 40
0.0411284774
  0
CIRCLE
  5
360
100
AcDbEntity
  8
0
100
AcDbCircle
 62
7
  6
CONTINUOUS
 10
6.0877395539
 20
6.2311378562
 40
0.062007874
  0
CIRCLE
  5
361
100
AcDbEntity
  8
0
100
AcDbCircle
 62
7
  6
CONTINUOUS
 10
6.0877395539
 20
6.2311378562
 40
0.0576832151
  0
CIRCLE
  5
362
100
AcDbEntity
  8
0
100
AcDbCircle
 62
7
  6
CONTINUOUS
 10
5.8881615569
 20
6.1427673295
 40
0.0531496063
  0
CIRCLE
  5
363
100
AcDbEntity
  8
0
100
AcDbCircle
 62
7
  6
CONTINUOUS
 10
6.0877395539
 20
6.2311378562
 40
0.0515680971
  0
CIRCLE
  5
364
100
AcDbEntity
  8
0
100
AcDbCircle
 62
7
  6
CONTINUOUS
 10
5.8881615569
 20
6.1427673295
 40
0.0488251759
  0
CIRCLE
  5
365
100
AcDbEntity
  8
0
100
AcDbCircle
 62
7
  6
CONTINUOUS
 10
5.8881615569
 20
6.1427673295
 40
0.0427097959
  0
CIRCLE
  5
366
100
AcDbEntity
  8
0
100
AcDbCircle
 62
7
  6
CONTINUOUS
 10
6.0877395539
 20
6.2311378562
 40
0.0411284774
  0
CIRCLE
  5
367
100
AcDbEntity
  8
0
100
AcDbCircle
 62
7
  6
CONTINUOUS
 10
5.8881615569
 20
6.1427673295
 40
0.0322701902
  0
ARC
  5
368
100
AcDbEntity
  8
0
100
AcDbCircle
 62
7
  6
CONTINUOUS
 10
21.3319534438
 20
-24.6858710802
 40
35.1959492674
100
AcDbArc
 50
120.0047491301
 51
120.1870788596
  0
ARC
  5
369
100
AcDbEntity
  8
0
100
AcDbCircle
 62
7
  6
CONTINUOUS
 10
20.8171207238
 20
-23.9306493319
 40
34.3999145725
100
AcDbArc
 50
119.8777608052
 51
120.0927517816
  0
ARC
  5
36A
100
AcDbEntity
  8
0
100
AcDbCircle
 62
7
  6
CONTINUOUS
 10
20.5203487646
 20
-23.4162564325
 40
33.8060542517
100
AcDbArc
 50
119.922667508
 51
120.0455562446
  0
ARC
  5
36B
100
AcDbEntity
  8
0
100
AcDbCircle
 62
7
  6
CONTINUOUS
 10
20.4381621549
 20
-23.2738135545
 40
33.6416018851
100
AcDbArc
 50
119.9223673913
 51
120.0458568532
  0
ARC
  5
36C
100
AcDbEntity
  8
0
100
AcDbCircle
 62
7
  6
CONTINUOUS
 10
19.5846113135
 20
2.8019719364
 40
15.13125
100
AcDbArc
 50
174.9244926841
 51
185.0755073159
  0
CIRCLE
  5
36D
100
AcDbEntity
  8
0
100
AcDbCircle
 62
7
  6
CONTINUOUS
 10
3.7077309256
 20
6.5444719364
 40
0.062007874
  0
CIRCLE
  5
36E
100
AcDbEntity
  8
0
100
AcDbCircle
 62
7
  6
CONTINUOUS
 10
3.7077309256
 20
6.5444719364
 40
0.0576832151
  0
CIRCLE
  5
36F
100
AcDbEntity
  8
0
100
AcDbCircle
 62
7
  6
CONTINUOUS
 10
4.2423535862
 20
6.6095640321
 40
0.0531496063
  0
CIRCLE
  5
370
100
AcDbEntity
  8
0
100
AcDbCircle
 62
7
  6
CONTINUOUS
 10
3.8776364919
 20
6.4074579758
 40
0.0531496063
  0
CIRCLE
  5
371
100
AcDbEntity
  8
0
100
AcDbCircle
 62
7
  6
CONTINUOUS
 10
3.7077309256
 20
6.5444719364
 40
0.0515680971
  0
CIRCLE
  5
372
100
AcDbEntity
  8
0
100
AcDbCircle
 62
7
  6
CONTINUOUS
 10
4.2423535862
 20
6.6095640321
 40
0.050555047
  0
CIRCLE
  5
373
100
AcDbEntity
  8
0
100
AcDbCircle
 62
7
  6
CONTINUOUS
 10
3.8776364919
 20
6.4074579758
 40
0.0488251759
  0
CIRCLE
  5
374
100
AcDbEntity
  8
0
100
AcDbCircle
 62
7
  6
CONTINUOUS
 10
3.8776364919
 20
6.4074579758
 40
0.0427097959
  0
CIRCLE
  5
375
100
AcDbEntity
  8
0
100
AcDbCircle
 62
7
  6
CONTINUOUS
 10
3.7077309256
 20
6.5444719364
 40
0.0411284774
  0
CIRCLE
  5
376
100
AcDbEntity
  8
0
100
AcDbCircle
 62
7
  6
CONTINUOUS
 10
4.2423535862
 20
6.6095640321
 40
0.0409803256
  0
CIRCLE
  5
377
100
AcDbEntity
  8
0
100
AcDbCircle
 62
7
  6
CONTINUOUS
 10
4.2423535862
 20
6.6095640321
 40
0.034716572
  0
CIRCLE
  5
378
100
AcDbEntity
  8
0
100
AcDbCircle
 62
7
  6
CONTINUOUS
 10
3.8776364919
 20
6.4074579758
 40
0.0322701902
  0
CIRCLE
  5
379
100
AcDbEntity
  8
0
100
AcDbCircle
 62
7
  6
CONTINUOUS
 10
4.2423535862
 20
6.6095640321
 40
0.0221456693
  0
CIRCLE
  5
37A
100
AcDbEntity
  8
0
100
AcDbCircle
 62
7
  6
CONTINUOUS
 10
3.8776364919
 20
6.681485897
 40
0.0531496063
  0
CIRCLE
  5
37B
100
AcDbEntity
  8
0
100
AcDbCircle
 62
7
  6
CONTINUOUS
 10
3.8776364919
 20
6.681485897
 40
0.0488251759
  0
CIRCLE
  5
37C
100
AcDbEntity
  8
0
100
AcDbCircle
 62
7
  6
CONTINUOUS
 10
3.8776364919
 20
6.681485897
 40
0.0427097959
  0
CIRCLE
  5
37D
100
AcDbEntity
  8
0
100
AcDbCircle
 62
7
  6
CONTINUOUS
 10
3.8776364919
 20
6.681485897
 40
0.0322701902
  0
CIRCLE
  5
37E
100
AcDbEntity
  8
0
100
AcDbCircle
 62
7
  6
CONTINUOUS
 10
3.7489821398
 20
6.8578060166
 40
0.062007874
  0
CIRCLE
  5
37F
100
AcDbEntity
  8
0
100
AcDbCircle
 62
7
  6
CONTINUOUS
 10
3.7489821398
 20
6.8578060166
 40
0.0576832151
  0
CIRCLE
  5
380
100
AcDbEntity
  8
0
100
AcDbCircle
 62
7
  6
CONTINUOUS
 10
3.9485601368
 20
6.9461765433
 40
0.0531496063
  0
CIRCLE
  5
381
100
AcDbEntity
  8
0
100
AcDbCircle
 62
7
  6
CONTINUOUS
 10
3.7489821398
 20
6.8578060166
 40
0.0515680971
  0
CIRCLE
  5
382
100
AcDbEntity
  8
0
100
AcDbCircle
 62
7
  6
CONTINUOUS
 10
3.9485601368
 20
6.9461765433
 40
0.0488251759
  0
CIRCLE
  5
383
100
AcDbEntity
  8
0
100
AcDbCircle
 62
7
  6
CONTINUOUS
 10
3.9485601368
 20
6.9461765433
 40
0.0427097959
  0
CIRCLE
  5
384
100
AcDbEntity
  8
0
100
AcDbCircle
 62
7
  6
CONTINUOUS
 10
3.7489821398
 20
6.8578060166
 40
0.0411284774
  0
CIRCLE
  5
385
100
AcDbEntity
  8
0
100
AcDbCircle
 62
7
  6
CONTINUOUS
 10
3.9485601368
 20
6.9461765433
 40
0.0322701902
  0
ARC
  5
386
100
AcDbEntity
  8
0
100
AcDbCircle
 62
7
  6
CONTINUOUS
 10
4.2826824394
 20
6.7691397004
 40
0.0657119893
100
AcDbArc
 50
154.6771090312
 51
160.1401931119
  0
ARC
  5
387
100
AcDbEntity
  8
0
100
AcDbCircle
 62
7
  6
CONTINUOUS
 10
4.2779591409
 20
6.7713020027
 40
0.063275323
100
AcDbArc
 50
335.2857011528
 51
340.455675939
  0
CIRCLE
  5
388
100
AcDbEntity
  8
0
100
AcDbCircle
 62
7
  6
CONTINUOUS
 10
4.2781810941
 20
6.7711714766
 40
0.0531496063
  0
CIRCLE
  5
389
100
AcDbEntity
  8
0
100
AcDbCircle
 62
7
  6
CONTINUOUS
 10
4.2781810941
 20
6.7711714766
 40
0.050555047
  0
CIRCLE
  5
38A
100
AcDbEntity
  8
0
100
AcDbCircle
 62
7
  6
CONTINUOUS
 10
4.2781810941
 20
6.7711714766
 40
0.0409803256
  0
CIRCLE
  5
38B
100
AcDbEntity
  8
0
100
AcDbCircle
 62
7
  6
CONTINUOUS
 10
4.2781810941
 20
6.7711714766
 40
0.034716572
  0
CIRCLE
  5
38C
100
AcDbEntity
  8
0
100
AcDbCircle
 62
7
  6
CONTINUOUS
 10
4.2781810941
 20
6.7711714766
 40
0.0221456693
  0
ARC
  5
38D
100
AcDbEntity
  8
0
100
AcDbCircle
 62
7
  6
CONTINUOUS
 10
4.6016873411
 20
6.3640861887
 40
0.6807918969
100
AcDbArc
 50
209.4703708124
 51
210.1782617081
  0
CIRCLE
  5
38E
100
AcDbEntity
  8
0
100
AcDbCircle
 62
7
  6
CONTINUOUS
 10
4.5714527285
 20
6.4988006162
 40
0.1079844268
  0
CIRCLE
  5
38F
100
AcDbEntity
  8
0
100
AcDbCircle
 62
7
  6
CONTINUOUS
 10
4.5714527285
 20
6.4988006162
 40
0.097545426
  0
CIRCLE
  5
390
100
AcDbEntity
  8
0
100
AcDbCircle
 62
7
  6
CONTINUOUS
 10
4.5714527285
 20
6.4988006162
 40
0.0914300427
  0
CIRCLE
  5
391
100
AcDbEntity
  8
0
100
AcDbCircle
 62
7
  6
CONTINUOUS
 10
4.5714527285
 20
6.4988006162
 40
0.0809902366
  0
CIRCLE
  5
392
100
AcDbEntity
  8
0
100
AcDbCircle
 62
7
  6
CONTINUOUS
 10
4.5714527285
 20
6.4988006162
 40
0.0664370079
  0
CIRCLE
  5
393
100
AcDbEntity
  8
0
100
AcDbCircle
 62
7
  6
CONTINUOUS
 10
4.5424580879
 20
6.3274443773
 40
0.0221456693
  0
CIRCLE
  5
394
100
AcDbEntity
  8
0
100
AcDbCircle
 62
7
  6
CONTINUOUS
 10
4.4990957983
 20
6.6568136676
 40
0.0221456693
  0
ARC
  5
395
100
AcDbEntity
  8
0
100
AcDbCircle
 62
7
  6
CONTINUOUS
 10
4.3484707559
 20
6.9211140568
 40
0.0669962634
100
AcDbArc
 50
326.8992955003
 51
331.7763815978
  0
ARC
  5
396
100
AcDbEntity
  8
0
100
AcDbCircle
 62
7
  6
CONTINUOUS
 10
4.3566831142
 20
6.9166812148
 40
0.0661130429
100
AcDbArc
 50
146.8200717954
 51
152.1598925308
  0
ARC
  5
397
100
AcDbEntity
  8
0
100
AcDbCircle
 62
7
  6
CONTINUOUS
 10
4.3559173023
 20
6.91625018
 40
0.0657126121
100
AcDbArc
 50
140.6761065751
 51
146.1400818418
  0
ARC
  5
398
100
AcDbEntity
  8
0
100
AcDbCircle
 62
7
  6
CONTINUOUS
 10
4.351857008
 20
6.9194913429
 40
0.063275272
100
AcDbArc
 50
321.2857140953
 51
326.4556802312
  0
CIRCLE
  5
399
100
AcDbEntity
  8
0
100
AcDbCircle
 62
7
  6
CONTINUOUS
 10
4.3520407512
 20
6.9193110307
 40
0.0531496063
  0
CIRCLE
  5
39A
100
AcDbEntity
  8
0
100
AcDbCircle
 62
7
  6
CONTINUOUS
 10
4.3520407512
 20
6.9193110307
 40
0.050555047
  0
CIRCLE
  5
39B
100
AcDbEntity
  8
0
100
AcDbCircle
 62
7
  6
CONTINUOUS
 10
4.3520407512
 20
6.9193110307
 40
0.0409803253
  0
CIRCLE
  5
39C
100
AcDbEntity
  8
0
100
AcDbCircle
 62
7
  6
CONTINUOUS
 10
4.3520407512
 20
6.9193110307
 40
0.0347165716
  0
CIRCLE
  5
39D
100
AcDbEntity
  8
0
100
AcDbCircle
 62
7
  6
CONTINUOUS
 10
4.3520407512
 20
6.9193110307
 40
0.0221456693
  0
CIRCLE
  5
39E
100
AcDbEntity
  8
0
100
AcDbCircle
 62
7
  6
CONTINUOUS
 10
4.6407652637
 20
6.7574785191
 40
0.1079844241
  0
CIRCLE
  5
39F
100
AcDbEntity
  8
0
100
AcDbCircle
 62
7
  6
CONTINUOUS
 10
4.6407652637
 20
6.7574785191
 40
0.0975454248
  0
CIRCLE
  5
3A0
100
AcDbEntity
  8
0
100
AcDbCircle
 62
7
  6
CONTINUOUS
 10
4.6407652637
 20
6.7574785191
 40
0.0914300427
  0
CIRCLE
  5
3A1
100
AcDbEntity
  8
0
100
AcDbCircle
 62
7
  6
CONTINUOUS
 10
4.6407652637
 20
6.7574785191
 40
0.0809902366
  0
CIRCLE
  5
3A2
100
AcDbEntity
  8
0
100
AcDbCircle
 62
7
  6
CONTINUOUS
 10
4.6407652637
 20
6.7574785191
 40
0.0664370079
  0
CIRCLE
  5
3A3
100
AcDbEntity
  8
0
100
AcDbCircle
 62
7
  6
CONTINUOUS
 10
4.8726895267
 20
6.8913800547
 40
0.1079844268
  0
CIRCLE
  5
3A4
100
AcDbEntity
  8
0
100
AcDbCircle
 62
7
  6
CONTINUOUS
 10
4.8726895267
 20
6.8913800547
 40
0.097545426
  0
CIRCLE
  5
3A5
100
AcDbEntity
  8
0
100
AcDbCircle
 62
7
  6
CONTINUOUS
 10
4.8726895267
 20
6.8913800547
 40
0.0914300427
  0
CIRCLE
  5
3A6
100
AcDbEntity
  8
0
100
AcDbCircle
 62
7
  6
CONTINUOUS
 10
4.8726895267
 20
6.8913800547
 40
0.0809902366
  0
CIRCLE
  5
3A7
100
AcDbEntity
  8
0
100
AcDbCircle
 62
7
  6
CONTINUOUS
 10
4.8726895267
 20
6.8913800547
 40
0.0664370079
  0
CIRCLE
  5
3A8
100
AcDbEntity
  8
0
100
AcDbCircle
 62
7
  6
CONTINUOUS
 10
4.7013332878
 20
6.9203746953
 40
0.0221456693
  0
CIRCLE
  5
3A9
100
AcDbEntity
  8
0
100
AcDbCircle
 62
7
  6
CONTINUOUS
 10
4.06231622
 20
7.4005165632
 40
0.062007874
  0
CIRCLE
  5
3AA
100
AcDbEntity
  8
0
100
AcDbCircle
 62
7
  6
CONTINUOUS
 10
3.8699245805
 20
7.149786897
 40
0.062007874
  0
CIRCLE
  5
3AB
100
AcDbEntity
  8
0
100
AcDbCircle
 62
7
  6
CONTINUOUS
 10
4.06231622
 20
7.4005165632
 40
0.0576832151
  0
CIRCLE
  5
3AC
100
AcDbEntity
  8
0
100
AcDbCircle
 62
7
  6
CONTINUOUS
 10
3.8699245805
 20
7.149786897
 40
0.0576832151
  0
CIRCLE
  5
3AD
100
AcDbEntity
  8
0
100
AcDbCircle
 62
7
  6
CONTINUOUS
 10
4.2793410988
 20
7.3772586858
 40
0.0531496063
  0
CIRCLE
  5
3AE
100
AcDbEntity
  8
0
100
AcDbCircle
 62
7
  6
CONTINUOUS
 10
4.0855740974
 20
7.1834916845
 40
0.0531496063
  0
CIRCLE
  5
3AF
100
AcDbEntity
  8
0
100
AcDbCircle
 62
7
  6
CONTINUOUS
 10
4.06231622
 20
7.4005165632
 40
0.0515680971
  0
CIRCLE
  5
3B0
100
AcDbEntity
  8
0
100
AcDbCircle
 62
7
  6
CONTINUOUS
 10
3.8699245805
 20
7.149786897
 40
0.0515680971
  0
CIRCLE
  5
3B1
100
AcDbEntity
  8
0
100
AcDbCircle
 62
7
  6
CONTINUOUS
 10
4.2793410988
 20
7.3772586858
 40
0.0488251759
  0
CIRCLE
  5
3B2
100
AcDbEntity
  8
0
100
AcDbCircle
 62
7
  6
CONTINUOUS
 10
4.0855740974
 20
7.1834916845
 40
0.0488251759
  0
CIRCLE
  5
3B3
100
AcDbEntity
  8
0
100
AcDbCircle
 62
7
  6
CONTINUOUS
 10
4.2793410988
 20
7.3772586858
 40
0.0427097959
  0
CIRCLE
  5
3B4
100
AcDbEntity
  8
0
100
AcDbCircle
 62
7
  6
CONTINUOUS
 10
4.0855740974
 20
7.1834916845
 40
0.0427097959
  0
CIRCLE
  5
3B5
100
AcDbEntity
  8
0
100
AcDbCircle
 62
7
  6
CONTINUOUS
 10
4.06231622
 20
7.4005165632
 40
0.0411284774
  0
CIRCLE
  5
3B6
100
AcDbEntity
  8
0
100
AcDbCircle
 62
7
  6
CONTINUOUS
 10
3.8699245805
 20
7.149786897
 40
0.0411284774
  0
CIRCLE
  5
3B7
100
AcDbEntity
  8
0
100
AcDbCircle
 62
7
  6
CONTINUOUS
 10
4.2793410988
 20
7.3772586858
 40
0.0322701902
  0
CIRCLE
  5
3B8
100
AcDbEntity
  8
0
100
AcDbCircle
 62
7
  6
CONTINUOUS
 10
4.0855740974
 20
7.1834916845
 40
0.0322701902
  0
CIRCLE
  5
3B9
100
AcDbEntity
  8
0
100
AcDbCircle
 62
7
  6
CONTINUOUS
 10
4.3130458862
 20
7.5929082028
 40
0.062007874
  0
CIRCLE
  5
3BA
100
AcDbEntity
  8
0
100
AcDbCircle
 62
7
  6
CONTINUOUS
 10
4.3130458862
 20
7.5929082028
 40
0.0576832152
  0
CIRCLE
  5
3BB
100
AcDbEntity
  8
0
100
AcDbCircle
 62
7
  6
CONTINUOUS
 10
4.3130458862
 20
7.5929082028
 40
0.0515680971
  0
CIRCLE
  5
3BC
100
AcDbEntity
  8
0
100
AcDbCircle
 62
7
  6
CONTINUOUS
 10
4.3130458862
 20
7.5929082028
 40
0.0411284774
  0
ARC
  5
3BD
100
AcDbEntity
  8
0
100
AcDbCircle
 62
7
  6
CONTINUOUS
 10
4.7728817667
 20
7.2023916138
 40
0.0661124173
100
AcDbArc
 50
102.8199970198
 51
108.1598067798
  0
CIRCLE
  5
3BE
100
AcDbEntity
  8
0
100
AcDbCircle
 62
7
  6
CONTINUOUS
 10
4.7713693768
 20
7.2075076105
 40
0.0531496063
  0
CIRCLE
  5
3BF
100
AcDbEntity
  8
0
100
AcDbCircle
 62
7
  6
CONTINUOUS
 10
4.7713693768
 20
7.2075076105
 40
0.050555047
  0
CIRCLE
  5
3C0
100
AcDbEntity
  8
0
100
AcDbCircle
 62
7
  6
CONTINUOUS
 10
4.7713693768
 20
7.2075076105
 40
0.0409803256
  0
CIRCLE
  5
3C1
100
AcDbEntity
  8
0
100
AcDbCircle
 62
7
  6
CONTINUOUS
 10
4.7713693768
 20
7.2075076105
 40
0.034716572
  0
CIRCLE
  5
3C2
100
AcDbEntity
  8
0
100
AcDbCircle
 62
7
  6
CONTINUOUS
 10
4.7713693768
 20
7.2075076105
 40
0.0221456693
  0
CIRCLE
  5
3C3
100
AcDbEntity
  8
0
100
AcDbCircle
 62
7
  6
CONTINUOUS
 10
4.6050267667
 20
7.7138506434
 40
0.062007874
  0
CIRCLE
  5
3C4
100
AcDbEntity
  8
0
100
AcDbCircle
 62
7
  6
CONTINUOUS
 10
4.6050267667
 20
7.7138506434
 40
0.0576832151
  0
CIRCLE
  5
3C5
100
AcDbEntity
  8
0
100
AcDbCircle
 62
7
  6
CONTINUOUS
 10
4.7813468862
 20
7.5851962914
 40
0.0531496063
  0
CIRCLE
  5
3C6
100
AcDbEntity
  8
0
100
AcDbCircle
 62
7
  6
CONTINUOUS
 10
4.51665624
 20
7.5142726465
 40
0.0531496063
  0
CIRCLE
  5
3C7
100
AcDbEntity
  8
0
100
AcDbCircle
 62
7
  6
CONTINUOUS
 10
4.6050267667
 20
7.7138506434
 40
0.0515680971
  0
CIRCLE
  5
3C8
100
AcDbEntity
  8
0
100
AcDbCircle
 62
7
  6
CONTINUOUS
 10
4.7813468862
 20
7.5851962914
 40
0.0488251759
  0
CIRCLE
  5
3C9
100
AcDbEntity
  8
0
100
AcDbCircle
 62
7
  6
CONTINUOUS
 10
4.51665624
 20
7.5142726465
 40
0.0488251758
  0
CIRCLE
  5
3CA
100
AcDbEntity
  8
0
100
AcDbCircle
 62
7
  6
CONTINUOUS
 10
4.7813468862
 20
7.5851962914
 40
0.0427097959
  0
CIRCLE
  5
3CB
100
AcDbEntity
  8
0
100
AcDbCircle
 62
7
  6
CONTINUOUS
 10
4.51665624
 20
7.5142726465
 40
0.0427097959
  0
CIRCLE
  5
3CC
100
AcDbEntity
  8
0
100
AcDbCircle
 62
7
  6
CONTINUOUS
 10
4.6050267667
 20
7.7138506434
 40
0.0411284774
  0
CIRCLE
  5
3CD
100
AcDbEntity
  8
0
100
AcDbCircle
 62
7
  6
CONTINUOUS
 10
4.7813468862
 20
7.5851962914
 40
0.0322701902
  0
CIRCLE
  5
3CE
100
AcDbEntity
  8
0
100
AcDbCircle
 62
7
  6
CONTINUOUS
 10
4.51665624
 20
7.5142726465
 40
0.0322701902
  0
ARC
  5
3CF
100
AcDbEntity
  8
0
100
AcDbCircle
 62
7
  6
CONTINUOUS
 10
4.9183608469
 20
6.5444719364
 40
1.5
100
AcDbArc
 50
212.2280727655
 51
207.7721833157
  0
ARC
  5
3D0
100
AcDbEntity
  8
0
100
AcDbCircle
 62
7
  6
CONTINUOUS
 10
4.9183608469
 20
6.5444719364
 40
1.4431401595
100
AcDbArc
 50
212.3159914512
 51
207.6842572671
  0
ARC
  5
3D1
100
AcDbEntity
  8
DEFAULT_SURFACES
100
AcDbCircle
 62
7
  6
CONTINUOUS
 10
4.9183608469
 20
6.5444719364
 40
1.4093222334
100
AcDbArc
 50
212.3802040875
 51
207.6197493609
  0
ARC
  5
3D2
100
AcDbEntity
  8
DEFAULT_SURFACES
100
AcDbCircle
 62
7
  6
CONTINUOUS
 10
4.9183608469
 20
6.5444719364
 40
1.40775
100
AcDbArc
 50
212.3813394324
 51
207.6186139641
  0
ARC
  5
3D3
100
AcDbEntity
  8
0
100
AcDbCircle
 62
7
  6
CONTINUOUS
 10
4.9183608469
 20
6.5444719364
 40
1.3966535433
100
AcDbArc
 50
212.4133021808
 51
207.5866955061
  0
ARC
  5
3D4
100
AcDbEntity
  8
0
100
AcDbCircle
 62
7
  6
CONTINUOUS
 10
4.9183608469
 20
6.5444719364
 40
1.3262718279
100
AcDbArc
 50
213.1646653084
 51
206.835334688
  0
ARC
  5
3D5
100
AcDbEntity
  8
0
100
AcDbCircle
 62
7
  6
CONTINUOUS
 10
4.9183608469
 20
6.5444719364
 40
1.3189311375
100
AcDbArc
 50
213.2340721625
 51
206.7659278375
  0
ARC
  5
3D6
100
AcDbEntity
  8
0
100
AcDbCircle
 62
7
  6
CONTINUOUS
 10
4.9183608469
 20
6.5444719364
 40
1.3184403715
100
AcDbArc
 50
213.2374465008
 51
206.7625534992
  0
ARC
  5
3D7
100
AcDbEntity
  8
0
100
AcDbCircle
 62
7
  6
CONTINUOUS
 10
4.9183608469
 20
6.5444719364
 40
1.3001407047
100
AcDbArc
 50
213.2374456713
 51
206.7625543287
  0
CIRCLE
  5
3D8
100
AcDbEntity
  8
0
100
AcDbCircle
 62
7
  6
CONTINUOUS
 10
4.9183608469
 20
6.5444719364
 40
0.9648008796
  0
CIRCLE
  5
3D9
100
AcDbEntity
  8
0
100
AcDbCircle
 62
7
  6
CONTINUOUS
 10
4.9183608469
 20
6.5444719364
 40
0.9527588797
  0
CIRCLE
  5
3DA
100
AcDbEntity
  8
0
100
AcDbCircle
 62
7
  6
CONTINUOUS
 10
4.9183608469
 20
6.5444719364
 40
0.9514666067
  0
CIRCLE
  5
3DB
100
AcDbEntity
  8
0
100
AcDbCircle
 62
7
  6
CONTINUOUS
 10
4.9183608469
 20
6.5444719364
 40
0.9466239204
  0
CIRCLE
  5
3DC
100
AcDbEntity
  8
0
100
AcDbCircle
 62
7
  6
CONTINUOUS
 10
4.9183608469
 20
6.5444719364
 40
0.8799114926
  0
CIRCLE
  5
3DD
100
AcDbEntity
  8
0
100
AcDbCircle
 62
7
  6
CONTINUOUS
 10
4.9183608469
 20
6.5444719364
 40
0.8740053731
  0
CIRCLE
  5
3DE
100
AcDbEntity
  8
0
100
AcDbCircle
 62
7
  6
CONTINUOUS
 10
4.9183608469
 20
6.5444719364
 40
0.8710629921
  0
ARC
  5
3DF
100
AcDbEntity
  8
0
100
AcDbCircle
 62
7
  6
CONTINUOUS
 10
4.9183608469
 20
6.5444719364
 40
0.6702755906
100
AcDbArc
 50
316.7804523358
 51
320.0
  0
ARC
  5
3E0
100
AcDbEntity
  8
0
100
AcDbCircle
 62
7
  6
CONTINUOUS
 10
4.9183608469
 20
6.5444719364
 40
0.6702755906
100
AcDbArc
 50
14.7803957589
 51
18.219264252
  0
ARC
  5
3E1
100
AcDbEntity
  8
0
100
AcDbCircle
 62
7
  6
CONTINUOUS
 10
4.9183608469
 20
6.5444719364
 40
0.6702755906
100
AcDbArc
 50
72.7805573533
 51
76.2194529295
  0
CIRCLE
  5
3E2
100
AcDbEntity
  8
0
100
AcDbCircle
 62
7
  6
CONTINUOUS
 10
4.9183608469
 20
6.5444719364
 40
0.5425331412
  0
CIRCLE
  5
3E3
100
AcDbEntity
  8
0
100
AcDbCircle
 62
7
  6
CONTINUOUS
 10
4.9183608469
 20
6.5444719364
 40
0.517765875
  0
CIRCLE
  5
3E4
100
AcDbEntity
  8
0
100
AcDbCircle
 62
7
  6
CONTINUOUS
 10
4.9183608469
 20
6.5444719364
 40
0.4964831273
  0
CIRCLE
  5
3E5
100
AcDbEntity
  8
0
100
AcDbCircle
 62
7
  6
CONTINUOUS
 10
4.9183608469
 20
6.5444719364
 40
0.4826096587
  0
CIRCLE
  5
3E6
100
AcDbEntity
  8
0
100
AcDbCircle
 62
7
  6
CONTINUOUS
 10
4.9183608469
 20
6.5444719364
 40
0.218503937
  0
CIRCLE
  5
3E7
100
AcDbEntity
  8
0
100
AcDbCircle
 62
7
  6
CONTINUOUS
 10
4.9183608469
 20
6.5444719364
 40
0.2066929134
  0
CIRCLE
  5
3E8
100
AcDbEntity
  8
0
100
AcDbCircle
 62
7
  6
CONTINUOUS
 10
4.9183608469
 20
6.5444719364
 40
0.1987519624
  0
CIRCLE
  5
3E9
100
AcDbEntity
  8
0
100
AcDbCircle
 62
7
  6
CONTINUOUS
 10
5.19595643
 20
6.3314653537
 40
0.1079844241
  0
CIRCLE
  5
3EA
100
AcDbEntity
  8
0
100
AcDbCircle
 62
7
  6
CONTINUOUS
 10
5.19595643
 20
6.3314653537
 40
0.0975454248
  0
CIRCLE
  5
3EB
100
AcDbEntity
  8
0
100
AcDbCircle
 62
7
  6
CONTINUOUS
 10
5.19595643
 20
6.3314653537
 40
0.0914300427
  0
CIRCLE
  5
3EC
100
AcDbEntity
  8
0
100
AcDbCircle
 62
7
  6
CONTINUOUS
 10
5.19595643
 20
6.3314653537
 40
0.0809902366
  0
CIRCLE
  5
3ED
100
AcDbEntity
  8
0
100
AcDbCircle
 62
7
  6
CONTINUOUS
 10
5.19595643
 20
6.3314653537
 40
0.0664370079
  0
CIRCLE
  5
3EE
100
AcDbEntity
  8
0
100
AcDbCircle
 62
7
  6
CONTINUOUS
 10
5.3376258955
 20
6.4321302052
 40
0.0221456693
  0
CIRCLE
  5
3EF
100
AcDbEntity
  8
0
100
AcDbCircle
 62
7
  6
CONTINUOUS
 10
5.2652689652
 20
6.5901432566
 40
0.1079844268
  0
CIRCLE
  5
3F0
100
AcDbEntity
  8
0
100
AcDbCircle
 62
7
  6
CONTINUOUS
 10
5.2652689652
 20
6.5901432566
 40
0.097545426
  0
CIRCLE
  5
3F1
100
AcDbEntity
  8
0
100
AcDbCircle
 62
7
  6
CONTINUOUS
 10
5.2652689652
 20
6.5901432566
 40
0.0914300427
  0
CIRCLE
  5
3F2
100
AcDbEntity
  8
0
100
AcDbCircle
 62
7
  6
CONTINUOUS
 10
5.2652689652
 20
6.5901432566
 40
0.0809902366
  0
CIRCLE
  5
3F3
100
AcDbEntity
  8
0
100
AcDbCircle
 62
7
  6
CONTINUOUS
 10
5.2652689652
 20
6.5901432566
 40
0.0664370079
  0
CIRCLE
  5
3F4
100
AcDbEntity
  8
0
100
AcDbCircle
 62
7
  6
CONTINUOUS
 10
5.1313674296
 20
6.8220675195
 40
0.1079844241
  0
CIRCLE
  5
3F5
100
AcDbEntity
  8
0
100
AcDbCircle
 62
7
  6
CONTINUOUS
 10
5.1313674296
 20
6.8220675195
 40
0.0975454248
  0
CIRCLE
  5
3F6
100
AcDbEntity
  8
0
100
AcDbCircle
 62
7
  6
CONTINUOUS
 10
5.1313674296
 20
6.8220675195
 40
0.0914300427
  0
CIRCLE
  5
3F7
100
AcDbEntity
  8
0
100
AcDbCircle
 62
7
  6
CONTINUOUS
 10
5.1313674296
 20
6.8220675195
 40
0.0809902366
  0
ARC
  5
3F8
100
AcDbEntity
  8
0
100
AcDbCircle
 62
7
  6
CONTINUOUS
 10
5.506857244
 20
6.8916853657
 40
0.0671801938
100
AcDbArc
 50
210.9134033268
 51
215.782703279
  0
CIRCLE
  5
3F9
100
AcDbEntity
  8
0
100
AcDbCircle
 62
7
  6
CONTINUOUS
 10
5.1313674296
 20
6.8220675195
 40
0.0664370079
  0
ARC
  5
3FA
100
AcDbEntity
  8
0
100
AcDbCircle
 62
7
  6
CONTINUOUS
 10
5.5000065281
 20
6.8874834334
 40
0.0646697029
100
AcDbArc
 50
19.1952268461
 51
30.1976936754
  0
ARC
  5
3FB
100
AcDbEntity
  8
0
100
AcDbCircle
 62
7
  6
CONTINUOUS
 10
5.5025485452
 20
6.8885499004
 40
0.061874583
100
AcDbArc
 50
204.9462154525
 51
210.4721636852
  0
ARC
  5
3FC
100
AcDbEntity
  8
0
100
AcDbCircle
 62
7
  6
CONTINUOUS
 10
5.5028280888
 20
6.888769091
 40
0.0615851456
100
AcDbArc
 50
30.4842574563
 51
39.1544901208
  0
CIRCLE
  5
3FD
100
AcDbEntity
  8
0
100
AcDbCircle
 62
7
  6
CONTINUOUS
 10
5.503522383
 20
6.889158423
 40
0.0531496063
  0
CIRCLE
  5
3FE
100
AcDbEntity
  8
0
100
AcDbCircle
 62
7
  6
CONTINUOUS
 10
5.503522383
 20
6.889158423
 40
0.050555047
  0
CIRCLE
  5
3FF
100
AcDbEntity
  8
0
100
AcDbCircle
 62
7
  6
CONTINUOUS
 10
5.503522383
 20
6.889158423
 40
0.0409803256
  0
CIRCLE
  5
400
100
AcDbEntity
  8
0
100
AcDbCircle
 62
7
  6
CONTINUOUS
 10
5.503522383
 20
6.889158423
 40
0.034716572
  0
CIRCLE
  5
401
100
AcDbEntity
  8
0
100
AcDbCircle
 62
7
  6
CONTINUOUS
 10
5.2942636058
 20
6.7614994954
 40
0.0221456693
  0
CIRCLE
  5
402
100
AcDbEntity
  8
0
100
AcDbCircle
 62
7
  6
CONTINUOUS
 10
5.0307025781
 20
6.963736985
 40
0.0221456693
  0
CIRCLE
  5
403
100
AcDbEntity
  8
0
100
AcDbCircle
 62
7
  6
CONTINUOUS
 10
5.503522383
 20
6.889158423
 40
0.0221456693
  0
CIRCLE
  5
404
100
AcDbEntity
  8
0
100
AcDbCircle
 62
7
  6
CONTINUOUS
 10
6.1289907681
 20
6.5444719364
 40
0.062007874
  0
CIRCLE
  5
405
100
AcDbEntity
  8
0
100
AcDbCircle
 62
7
  6
CONTINUOUS
 10
6.1289907681
 20
6.5444719364
 40
0.0576832151
  0
CIRCLE
  5
406
100
AcDbEntity
  8
0
100
AcDbCircle
 62
7
  6
CONTINUOUS
 10
5.9590852018
 20
6.4074579758
 40
0.0531496063
  0
CIRCLE
  5
407
100
AcDbEntity
  8
0
100
AcDbCircle
 62
7
  6
CONTINUOUS
 10
5.5968483202
 20
6.5740953392
 40
0.0531496063
  0
CIRCLE
  5
408
100
AcDbEntity
  8
0
100
AcDbCircle
 62
7
  6
CONTINUOUS
 10
6.1289907681
 20
6.5444719364
 40
0.0515680971
  0
CIRCLE
  5
409
100
AcDbEntity
  8
0
100
AcDbCircle
 62
7
  6
CONTINUOUS
 10
5.5968483202
 20
6.5740953392
 40
0.050555047
  0
CIRCLE
  5
40A
100
AcDbEntity
  8
0
100
AcDbCircle
 62
7
  6
CONTINUOUS
 10
5.9590852018
 20
6.4074579758
 40
0.0488251759
  0
CIRCLE
  5
40B
100
AcDbEntity
  8
0
100
AcDbCircle
 62
7
  6
CONTINUOUS
 10
5.9590852018
 20
6.4074579758
 40
0.0427097959
  0
CIRCLE
  5
40C
100
AcDbEntity
  8
0
100
AcDbCircle
 62
7
  6
CONTINUOUS
 10
6.1289907681
 20
6.5444719364
 40
0.0411284774
  0
CIRCLE
  5
40D
100
AcDbEntity
  8
0
100
AcDbCircle
 62
7
  6
CONTINUOUS
 10
5.5968483202
 20
6.5740953392
 40
0.0409803256
  0
CIRCLE
  5
40E
100
AcDbEntity
  8
0
100
AcDbCircle
 62
7
  6
CONTINUOUS
 10
5.5968483202
 20
6.5740953392
 40
0.034716572
  0
CIRCLE
  5
40F
100
AcDbEntity
  8
0
100
AcDbCircle
 62
7
  6
CONTINUOUS
 10
5.9590852018
 20
6.4074579758
 40
0.0322701902
  0
CIRCLE
  5
410
100
AcDbEntity
  8
0
100
AcDbCircle
 62
7
  6
CONTINUOUS
 10
5.5968483202
 20
6.5740953392
 40
0.0221456693
  0
ARC
  5
411
100
AcDbEntity
  8
0
100
AcDbCircle
 62
7
  6
CONTINUOUS
 10
5.5645297581
 20
6.7354907938
 40
0.0661124165
100
AcDbArc
 50
16.8199969686
 51
22.1598067676
  0
CIRCLE
  5
412
100
AcDbEntity
  8
0
100
AcDbCircle
 62
7
  6
CONTINUOUS
 10
5.5695277928
 20
6.7373563732
 40
0.0531496063
  0
CIRCLE
  5
413
100
AcDbEntity
  8
0
100
AcDbCircle
 62
7
  6
CONTINUOUS
 10
5.5695277928
 20
6.7373563732
 40
0.050555047
  0
CIRCLE
  5
414
100
AcDbEntity
  8
0
100
AcDbCircle
 62
7
  6
CONTINUOUS
 10
5.5695277928
 20
6.7373563732
 40
0.0409803256
  0
CIRCLE
  5
415
100
AcDbEntity
  8
0
100
AcDbCircle
 62
7
  6
CONTINUOUS
 10
5.5695277928
 20
6.7373563732
 40
0.034716572
  0
CIRCLE
  5
416
100
AcDbEntity
  8
0
100
AcDbCircle
 62
7
  6
CONTINUOUS
 10
5.5695277928
 20
6.7373563732
 40
0.0221456693
  0
CIRCLE
  5
417
100
AcDbEntity
  8
0
100
AcDbCircle
 62
7
  6
CONTINUOUS
 10
5.9590852018
 20
6.681485897
 40
0.0531496063
  0
CIRCLE
  5
418
100
AcDbEntity
  8
0
100
AcDbCircle
 62
7
  6
CONTINUOUS
 10
5.9590852018
 20
6.681485897
 40
0.0488251759
  0
CIRCLE
  5
419
100
AcDbEntity
  8
0
100
AcDbCircle
 62
7
  6
CONTINUOUS
 10
5.9590852018
 20
6.681485897
 40
0.0427097959
  0
CIRCLE
  5
41A
100
AcDbEntity
  8
0
100
AcDbCircle
 62
7
  6
CONTINUOUS
 10
5.9590852018
 20
6.681485897
 40
0.0322701902
  0
CIRCLE
  5
41B
100
AcDbEntity
  8
0
100
AcDbCircle
 62
7
  6
CONTINUOUS
 10
6.0877395539
 20
6.8578060166
 40
0.062007874
  0
CIRCLE
  5
41C
100
AcDbEntity
  8
0
100
AcDbCircle
 62
7
  6
CONTINUOUS
 10
6.0877395539
 20
6.8578060166
 40
0.0576832151
  0
CIRCLE
  5
41D
100
AcDbEntity
  8
0
100
AcDbCircle
 62
7
  6
CONTINUOUS
 10
5.8881615569
 20
6.9461765433
 40
0.0531496063
  0
CIRCLE
  5
41E
100
AcDbEntity
  8
0
100
AcDbCircle
 62
7
  6
CONTINUOUS
 10
6.0877395539
 20
6.8578060166
 40
0.0515680971
  0
CIRCLE
  5
41F
100
AcDbEntity
  8
0
100
AcDbCircle
 62
7
  6
CONTINUOUS
 10
5.8881615569
 20
6.9461765433
 40
0.0488251758
  0
CIRCLE
  5
420
100
AcDbEntity
  8
0
100
AcDbCircle
 62
7
  6
CONTINUOUS
 10
5.8881615569
 20
6.9461765433
 40
0.0427097959
  0
CIRCLE
  5
421
100
AcDbEntity
  8
0
100
AcDbCircle
 62
7
  6
CONTINUOUS
 10
6.0877395539
 20
6.8578060166
 40
0.0411284774
  0
CIRCLE
  5
422
100
AcDbEntity
  8
0
100
AcDbCircle
 62
7
  6
CONTINUOUS
 10
5.8881615569
 20
6.9461765433
 40
0.0322701902
  0
ARC
  5
423
100
AcDbEntity
  8
0
100
AcDbCircle
 62
7
  6
CONTINUOUS
 10
5.0997058283
 20
7.1982769796
 40
0.0614343941
100
AcDbArc
 50
65.9140376858
 51
74.5258794629
  0
CIRCLE
  5
424
100
AcDbEntity
  8
0
100
AcDbCircle
 62
7
  6
CONTINUOUS
 10
4.9361384988
 20
7.2233730724
 40
0.0531496063
  0
CIRCLE
  5
425
100
AcDbEntity
  8
0
100
AcDbCircle
 62
7
  6
CONTINUOUS
 10
5.0998514763
 20
7.198906004
 40
0.0531496063
  0
CIRCLE
  5
426
100
AcDbEntity
  8
0
100
AcDbCircle
 62
7
  6
CONTINUOUS
 10
4.9361384988
 20
7.2233730724
 40
0.050555047
  0
CIRCLE
  5
427
100
AcDbEntity
  8
0
100
AcDbCircle
 62
7
  6
CONTINUOUS
 10
5.0998514763
 20
7.198906004
 40
0.050555047
  0
CIRCLE
  5
428
100
AcDbEntity
  8
0
100
AcDbCircle
 62
7
  6
CONTINUOUS
 10
4.9361384988
 20
7.2233730724
 40
0.0409803256
  0
CIRCLE
  5
429
100
AcDbEntity
  8
0
100
AcDbCircle
 62
7
  6
CONTINUOUS
 10
5.0998514763
 20
7.198906004
 40
0.0409803256
  0
CIRCLE
  5
42A
100
AcDbEntity
  8
0
100
AcDbCircle
 62
7
  6
CONTINUOUS
 10
4.9361384988
 20
7.2233730724
 40
0.034716572
  0
CIRCLE
  5
42B
100
AcDbEntity
  8
0
100
AcDbCircle
 62
7
  6
CONTINUOUS
 10
5.0998514763
 20
7.198906004
 40
0.034716572
  0
CIRCLE
  5
42C
100
AcDbEntity
  8
0
100
AcDbCircle
 62
7
  6
CONTINUOUS
 10
4.9361384988
 20
7.2233730724
 40
0.0221456693
  0
CIRCLE
  5
42D
100
AcDbEntity
  8
0
100
AcDbCircle
 62
7
  6
CONTINUOUS
 10
5.0998514763
 20
7.198906004
 40
0.0221456693
  0
CIRCLE
  5
42E
100
AcDbEntity
  8
0
100
AcDbCircle
 62
7
  6
CONTINUOUS
 10
5.2316949271
 20
7.7138506434
 40
0.062007874
  0
CIRCLE
  5
42F
100
AcDbEntity
  8
0
100
AcDbCircle
 62
7
  6
CONTINUOUS
 10
4.9183608469
 20
7.7551018577
 40
0.062007874
  0
CIRCLE
  5
430
100
AcDbEntity
  8
0
100
AcDbCircle
 62
7
  6
CONTINUOUS
 10
5.2316949271
 20
7.7138506434
 40
0.0576832151
  0
CIRCLE
  5
431
100
AcDbEntity
  8
0
100
AcDbCircle
 62
7
  6
CONTINUOUS
 10
4.9183608469
 20
7.7551018577
 40
0.0576832151
  0
CIRCLE
  5
432
100
AcDbEntity
  8
0
100
AcDbCircle
 62
7
  6
CONTINUOUS
 10
5.3200654538
 20
7.5142726465
 40
0.0531496063
  0
CIRCLE
  5
433
100
AcDbEntity
  8
0
100
AcDbCircle
 62
7
  6
CONTINUOUS
 10
5.0553748075
 20
7.5851962914
 40
0.0531496063
  0
CIRCLE
  5
434
100
AcDbEntity
  8
0
100
AcDbCircle
 62
7
  6
CONTINUOUS
 10
5.2316949271
 20
7.7138506434
 40
0.0515680971
  0
CIRCLE
  5
435
100
AcDbEntity
  8
0
100
AcDbCircle
 62
7
  6
CONTINUOUS
 10
4.9183608469
 20
7.7551018577
 40
0.0515680971
  0
CIRCLE
  5
436
100
AcDbEntity
  8
0
100
AcDbCircle
 62
7
  6
CONTINUOUS
 10
5.3200654538
 20
7.5142726465
 40
0.0488251759
  0
CIRCLE
  5
437
100
AcDbEntity
  8
0
100
AcDbCircle
 62
7
  6
CONTINUOUS
 10
5.0553748075
 20
7.5851962914
 40
0.0488251759
  0
CIRCLE
  5
438
100
AcDbEntity
  8
0
100
AcDbCircle
 62
7
  6
CONTINUOUS
 10
5.3200654538
 20
7.5142726465
 40
0.0427097959
  0
CIRCLE
  5
439
100
AcDbEntity
  8
0
100
AcDbCircle
 62
7
  6
CONTINUOUS
 10
5.0553748075
 20
7.5851962914
 40
0.0427097959
  0
CIRCLE
  5
43A
100
AcDbEntity
  8
0
100
AcDbCircle
 62
7
  6
CONTINUOUS
 10
5.2316949271
 20
7.7138506434
 40
0.0411284774
  0
CIRCLE
  5
43B
100
AcDbEntity
  8
0
100
AcDbCircle
 62
7
  6
CONTINUOUS
 10
4.9183608469
 20
7.7551018577
 40
0.0411284774
  0
CIRCLE
  5
43C
100
AcDbEntity
  8
0
100
AcDbCircle
 62
7
  6
CONTINUOUS
 10
5.3200654538
 20
7.5142726465
 40
0.0322701902
  0
CIRCLE
  5
43D
100
AcDbEntity
  8
0
100
AcDbCircle
 62
7
  6
CONTINUOUS
 10
5.0553748075
 20
7.5851962914
 40
0.0322701902
  0
CIRCLE
  5
43E
100
AcDbEntity
  8
0
100
AcDbCircle
 62
7
  6
CONTINUOUS
 10
5.9667971133
 20
7.149786897
 40
0.062007874
  0
CIRCLE
  5
43F
100
AcDbEntity
  8
0
100
AcDbCircle
 62
7
  6
CONTINUOUS
 10
5.7744054737
 20
7.4005165632
 40
0.062007874
  0
CIRCLE
  5
440
100
AcDbEntity
  8
0
100
AcDbCircle
 62
7
  6
CONTINUOUS
 10
5.9667971133
 20
7.149786897
 40
0.0576834767
  0
CIRCLE
  5
441
100
AcDbEntity
  8
0
100
AcDbCircle
 62
7
  6
CONTINUOUS
 10
5.7744054737
 20
7.4005165632
 40
0.0576832151
  0
CIRCLE
  5
442
100
AcDbEntity
  8
0
100
AcDbCircle
 62
7
  6
CONTINUOUS
 10
5.7511475963
 20
7.1834916845
 40
0.0531496063
  0
CIRCLE
  5
443
100
AcDbEntity
  8
0
100
AcDbCircle
 62
7
  6
CONTINUOUS
 10
5.5573805949
 20
7.3772586858
 40
0.0531496063
  0
CIRCLE
  5
444
100
AcDbEntity
  8
0
100
AcDbCircle
 62
7
  6
CONTINUOUS
 10
5.9667971133
 20
7.149786897
 40
0.0515681165
  0
CIRCLE
  5
445
100
AcDbEntity
  8
0
100
AcDbCircle
 62
7
  6
CONTINUOUS
 10
5.7744054737
 20
7.4005165632
 40
0.0515680971
  0
CIRCLE
  5
446
100
AcDbEntity
  8
0
100
AcDbCircle
 62
7
  6
CONTINUOUS
 10
5.7511475963
 20
7.1834916845
 40
0.0488251759
  0
CIRCLE
  5
447
100
AcDbEntity
  8
0
100
AcDbCircle
 62
7
  6
CONTINUOUS
 10
5.5573805949
 20
7.3772586858
 40
0.0488251759
  0
CIRCLE
  5
448
100
AcDbEntity
  8
0
100
AcDbCircle
 62
7
  6
CONTINUOUS
 10
5.7511475963
 20
7.1834916845
 40
0.0427097959
  0
CIRCLE
  5
449
100
AcDbEntity
  8
0
100
AcDbCircle
 62
7
  6
CONTINUOUS
 10
5.5573805949
 20
7.3772586858
 40
0.0427097959
  0
CIRCLE
  5
44A
100
AcDbEntity
  8
0
100
AcDbCircle
 62
7
  6
CONTINUOUS
 10
5.9667971133
 20
7.149786897
 40
0.0411285027
  0
CIRCLE
  5
44B
100
AcDbEntity
  8
0
100
AcDbCircle
 62
7
  6
CONTINUOUS
 10
5.7744054737
 20
7.4005165632
 40
0.0411284774
  0
CIRCLE
  5
44C
100
AcDbEntity
  8
0
100
AcDbCircle
 62
7
  6
CONTINUOUS
 10
5.7511475963
 20
7.1834916845
 40
0.0322701902
  0
CIRCLE
  5
44D
100
AcDbEntity
  8
0
100
AcDbCircle
 62
7
  6
CONTINUOUS
 10
5.5573805949
 20
7.3772586858
 40
0.0322701902
  0
CIRCLE
  5
44E
100
AcDbEntity
  8
0
100
AcDbCircle
 62
7
  6
CONTINUOUS
 10
5.5236758075
 20
7.5929082028
 40
0.062007874
  0
CIRCLE
  5
44F
100
AcDbEntity
  8
0
100
AcDbCircle
 62
7
  6
CONTINUOUS
 10
5.5236758075
 20
7.5929082028
 40
0.0576832151
  0
CIRCLE
  5
450
100
AcDbEntity
  8
0
100
AcDbCircle
 62
7
  6
CONTINUOUS
 10
5.5236758075
 20
7.5929082028
 40
0.0515680971
  0
CIRCLE
  5
451
100
AcDbEntity
  8
0
100
AcDbCircle
 62
7
  6
CONTINUOUS
 10
5.5236758075
 20
7.5929082028
 40
0.0411284774
  0
SPLINE
  5
452
100
AcDbEntity
  8
0
100
AcDbSpline
 62
7
  6
CONTINUOUS
 70
0
 71
3
 72
27
 73
23
 74
0
 42
0.0000001
 43
0.0000001
 44
0.0000000001
 40
0.0
 40
0.0
 40
0.0
 40
0.0
 40
0.0186096891
 40
0.0395094169
 40
0.0625899565
 40
0.0877400093
 40
0.1437786128
 40
0.2065674611
 40
0.2573773094
 40
0.3107752215
 40
0.4230364917
 40
0.5385732982
 40
0.6524682531
 40
0.7072770861
 40
0.7598744315
 40
0.8096992328
 40
0.8562213898
 40
0.8989440198
 40
0.9374100561
 40
0.9712198773
 40
0.9862616585
 40
1.0
 40
1.0
 40
1.0
 40
1.0
 10
4.6446108469
 20
1.1765636665
 30
0.0
 10
4.6480028424
 20
1.1767713668
 30
0.0
 10
4.6552061631
 20
1.1771810255
 30
0.0
 10
4.6666211693
 20
1.1777605853
 30
0.0
 10
4.6792318749
 20
1.1783408986
 30
0.0
 10
4.6982557211
 20
1.1791446418
 30
0.0
 10
4.7245292409
 20
1.1801332974
 30
0.0
 10
4.7554894554
 20
1.1811773265
 30
0.0
 10
4.7859700082
 20
1.1821340378
 30
0.0
 10
4.8254821821
 20
1.1833146128
 30
0.0
 10
4.8768114101
 20
1.1847652986
 30
0.0
 10
4.9391849914
 20
1.1864807811
 30
0.0
 10
4.9910705311
 20
1.1879271038
 30
0.0
 10
5.0314656106
 20
1.1891033743
 30
0.0
 10
5.0601646507
 20
1.1899738805
 30
0.0
 10
5.0873497398
 20
1.1908437338
 30
0.0
 10
5.1127306407
 20
1.1917127055
 30
0.0
 10
5.1360360478
 20
1.1925803199
 30
0.0
 10
5.1570183302
 20
1.1934462124
 30
0.0
 10
5.1729462811
 20
1.1941914106
 30
0.0
 10
5.1843599442
 20
1.1947965568
 30
0.0
 10
5.1896067539
 20
1.1951007903
 30
0.0
 10
5.1921108469
 20
1.195254122
 30
0.0
  0
SPLINE
  5
453
100
AcDbEntity
  8
0
100
AcDbSpline
 62
7
  6
CONTINUOUS
 70
0
 71
3
 72
14
 73
10
 74
0
 42
0.0000001
 43
0.0000001
 44
0.0000000001
 40
0.0
 40
0.0
 40
0.0
 40
0.0
 40
0.3083793962
 40
0.4507324206
 40
0.5836180033
 40
0.7059480711
 40
0.8167051574
 40
0.9150073032
 40
1.0
 40
1.0
 40
1.0
 40
1.0
 10
5.031030612
 20
1.1294719364
 30
0.0
 10
5.0475938459
 20
1.1299639417
 30
0.0
 10
5.0718022799
 20
1.1307065375
 30
0.0
 10
5.1031450605
 20
1.1317547575
 30
0.0
 10
5.1244944647
 20
1.1325192112
 30
0.0
 10
5.1441449525
 20
1.1332826423
 30
0.0
 10
5.1619356645
 20
1.1340447645
 30
0.0
 10
5.1777181008
 20
1.1348051152
 30
0.0
 10
5.1875523647
 20
1.1353505371
 30
0.0
 10
5.1921108469
 20
1.1356296641
 30
0.0
  0
SPLINE
  5
454
100
AcDbEntity
  8
0
100
AcDbSpline
 62
7
  6
CONTINUOUS
 70
0
 71
3
 72
27
 73
23
 74
0
 42
0.0000001
 43
0.0000001
 44
0.0000000001
 40
0.0
 40
0.0
 40
0.0
 40
0.0
 40
0.0186096891
 40
0.0395094169
 40
0.0625899565
 40
0.0877400093
 40
0.1437786128
 40
0.2065674611
 40
0.2573773094
 40
0.3107752215
 40
0.4230364917
 40
0.5385732982
 40
0.6524682531
 40
0.7072770861
 40
0.7598744315
 40
0.8096992328
 40
0.8562213898
 40
0.8989440198
 40
0.9374100561
 40
0.9712198773
 40
0.9862616585
 40
1.0
 40
1.0
 40
1.0
 40
1.0
 10
4.6446108469
 20
1.1233136665
 30
0.0
 10
4.6480028424
 20
1.1235213668
 30
0.0
 10
4.6552061631
 20
1.1239310255
 30
0.0
 10
4.6666211693
 20
1.1245105853
 30
0.0
 10
4.6792318749
 20
1.1250908986
 30
0.0
 10
4.6982557211
 20
1.1258946418
 30
0.0
 10
4.7245292409
 20
1.1268832974
 30
0.0
 10
4.7554894554
 20
1.1279273265
 30
0.0
 10
4.7859700082
 20
1.1288840378
 30
0.0
 10
4.8254821821
 20
1.1300646128
 30
0.0
 10
4.8768114101
 20
1.1315152986
 30
0.0
 10
4.9391849914
 20
1.1332307811
 30
0.0
 10
4.9910705311
 20
1.1346771038
 30
0.0
 10
5.0314656106
 20
1.1358533743
 30
0.0
 10
5.0601646507
 20
1.1367238805
 30
0.0
 10
5.0873497398
 20
1.1375937338
 30
0.0
 10
5.1127306407
 20
1.1384627055
 30
0.0
 10
5.1360360478
 20
1.1393303199
 30
0.0
 10
5.1570183302
 20
1.1401962124
 30
0.0
 10
5.1729462811
 20
1.1409414106
 30
0.0
 10
5.1843599442
 20
1.1415465568
 30
0.0
 10
5.1896067539
 20
1.1418507903
 30
0.0
 10
5.1921108469
 20
1.142004122
 30
0.0
  0
SPLINE
  5
455
100
AcDbEntity
  8
0
100
AcDbSpline
 62
7
  6
CONTINUOUS
 70
0
 71
3
 72
41
 73
37
 74
0
 42
0.0000001
 43
0.0000001
 44
0.0000000001
 40
0.0
 40
0.0
 40
0.0
 40
0.0
 40
0.0042822776
 40
0.0095059361
 40
0.0156620668
 40
0.02274052
 40
0.0307290008
 40
0.0396118009
 40
0.0599947546
 40
0.0837412037
 40
0.1106686925
 40
0.140573644
 40
0.1732271145
 40
0.2268109018
 40
0.2850941277
 40
0.3470742405
 40
0.4116849763
 40
0.4778150846
 40
0.5443270689
 40
0.6100763898
 40
0.6739317047
 40
0.7347948525
 40
0.7916194258
 40
0.8434283759
 40
0.867169172
 40
0.8893311598
 40
0.9098176752
 40
0.9285412202
 40
0.9454228496
 40
0.9603881413
 40
0.9733779393
 40
0.9843377538
 40
0.9890419119
 40
0.9932229224
 40
0.996876775
 40
1.0
 40
1.0
 40
1.0
 40
1.0
 10
4.6446108469
 20
1.0310276133
 30
0.0
 10
4.6453808494
 20
1.0311664665
 30
0.0
 10
4.6470973759
 20
1.0314342415
 30
0.0
 10
4.6499357935
 20
1.0317993383
 30
0.0
 10
4.6532885014
 20
1.0321660587
 30
0.0
 10
4.6571488084
 20
1.0325338315
 30
0.0
 10
4.6615092403
 20
1.0329021805
 30
0.0
 10
4.668296517
 20
1.0334179147
 30
0.0
 10
4.6779619849
 20
1.0340510517
 30
0.0
 10
4.6909243252
 20
1.0347835404
 30
0.0
 10
4.70562878
 20
1.0355179607
 30
0.0
 10
4.7219623767
 20
1.0362537868
 30
0.0
 10
4.7431648712
 20
1.0371294599
 30
0.0
 10
4.7695518287
 20
1.0381224966
 30
0.0
 10
4.8012966713
 20
1.0392231779
 30
0.0
 10
4.8350573493
 20
1.0403251701
 30
0.0
 10
4.8702524383
 20
1.041428043
 30
0.0
 10
4.9062759322
 20
1.042531356
 30
0.0
 10
4.9425075515
 20
1.0436347754
 30
0.0
 10
4.9783233538
 20
1.0447379738
 30
0.0
 10
5.0131065668
 20
1.0458406164
 30
0.0
 10
5.046258314
 20
1.046942207
 30
0.0
 10
5.0772078135
 20
1.0480423121
 30
0.0
 10
5.1013759554
 20
1.0489821041
 30
0.0
 10
5.1192128101
 20
1.049743336
 30
0.0
 10
5.1313302811
 20
1.0502971324
 30
0.0
 10
5.1425300366
 20
1.0508504987
 30
0.0
 10
5.1527637666
 20
1.0514033002
 30
0.0
 10
5.1619871459
 20
1.0519551539
 30
0.0
 10
5.1701609172
 20
1.0525058423
 30
0.0
 10
5.1772500165
 20
1.0530549025
 30
0.0
 10
5.1824640053
 20
1.0535310879
 30
0.0
 10
5.1860690832
 20
1.0539199334
 30
0.0
 10
5.1883435116
 20
1.0541959752
 30
0.0
 10
5.1903267734
 20
1.0544712296
 30
0.0
 10
5.1915492553
 20
1.0546694466
 30
0.0
 10
5.1921108469
 20
1.0547707174
 30
0.0
  0
SPLINE
  5
456
100
AcDbEntity
  8
0
100
AcDbSpline
 62
7
  6
CONTINUOUS
 70
0
 71
3
 72
18
 73
14
 74
0
 42
0.0000001
 43
0.0000001
 44
0.0000000001
 40
0.0
 40
0.0
 40
0.0
 40
0.0
 40
0.036112474
 40
0.0779663671
 40
0.1251844999
 40
0.1773762545
 40
0.2340969008
 40
0.2948628541
 40
0.4264275712
 40
0.5675942104
 40
0.7135583237
 40
0.8593427684
 40
1.0
 40
1.0
 40
1.0
 40
1.0
 10
4.6446108469
 20
1.1169392087
 30
0.0
 10
4.6492562317
 20
1.117223657
 30
0.0
 10
4.6592891531
 20
1.1177790609
 30
0.0
 10
4.6754041455
 20
1.1185525646
 30
0.0
 10
4.6935934209
 20
1.1193279272
 30
0.0
 10
4.7137001732
 20
1.1201046864
 30
0.0
 10
4.735554084
 20
1.1208825154
 30
0.0
 10
4.7676334989
 20
1.1219488692
 30
0.0
 10
4.8105938758
 20
1.1232595514
 30
0.0
 10
4.8645323781
 20
1.1247979199
 30
0.0
 10
4.9203041556
 20
1.1263378136
 30
0.0
 10
4.9760102499
 20
1.1278777592
 30
0.0
 10
5.0129110516
 20
1.1289337009
 30
0.0
 10
5.031030612
 20
1.1294719364
 30
0.0
  0
SPLINE
  5
457
100
AcDbEntity
  8
0
100
AcDbSpline
 62
7
  6
CONTINUOUS
 70
0
 71
3
 72
23
 73
19
 74
0
 42
0.0000001
 43
0.0000001
 44
0.0000000001
 40
0.0
 40
0.0
 40
0.0
 40
0.0
 40
0.0175957309
 40
0.0370662954
 40
0.0583358926
 40
0.0813275214
 40
0.1321608207
 40
0.188881561
 40
0.250708947
 40
0.3167936537
 40
0.3862285009
 40
0.4580601337
 40
0.6049475115
 40
0.7494121114
 40
0.8182472709
 40
0.8835401404
 40
0.9444122163
 40
1.0
 40
1.0
 40
1.0
 40
1.0
 10
4.6446108469
 20
1.2298136665
 30
0.0
 10
4.6474708109
 20
1.2299887892
 30
0.0
 10
4.6534968367
 20
1.2303354709
 30
0.0
 10
4.6629835284
 20
1.2308296501
 30
0.0
 10
4.6733499571
 20
1.2313244
 30
0.0
 10
4.6888202747
 20
1.2320074563
 30
0.0
 10
4.7100619599
 20
1.2328500927
 30
0.0
 10
4.7376268574
 20
1.2338331501
 30
0.0
 10
4.7676767064
 20
1.2348177912
 30
0.0
 10
4.799797929
 20
1.235803647
 30
0.0
 10
4.833548961
 20
1.2367902925
 30
0.0
 10
4.8804537238
 20
1.2381162302
 30
0.0
 10
4.9395728942
 20
1.2397403073
 30
0.0
 10
4.9982036193
 20
1.2413762535
 30
0.0
 10
5.0435504581
 20
1.2427131043
 30
0.0
 10
5.0752893461
 20
1.243698777
 30
0.0
 10
5.1048699395
 20
1.2446832314
 30
0.0
 10
5.1238220035
 20
1.2453723399
 30
0.0
 10
5.1328672653
 20
1.2457219364
 30
0.0
  0
SPLINE
  5
458
100
AcDbEntity
  8
0
100
AcDbSpline
 62
7
  6
CONTINUOUS
 70
0
 71
3
 72
27
 73
23
 74
0
 42
0.0000001
 43
0.0000001
 44
0.0000000001
 40
0.0
 40
0.0
 40
0.0
 40
0.0
 40
0.0037985354
 40
0.0081505012
 40
0.01305301
 40
0.0185026994
 40
0.0310286698
 40
0.0456942369
 40
0.0624540132
 40
0.0812599213
 40
0.1020581399
 40
0.1247822417
 40
0.1757288256
 40
0.2334748136
 40
0.2973139502
 40
0.3664607015
 40
0.4400639089
 40
0.517219252
 40
0.5969764812
 40
0.6783554571
 40
0.8419528699
 40
1.0
 40
1.0
 40
1.0
 40
1.0
 10
4.6446108469
 20
1.0842776133
 30
0.0
 10
4.645079544
 20
1.0843621326
 30
0.0
 10
4.646087933
 20
1.0845285201
 30
0.0
 10
4.647707864
 20
1.0847618377
 30
0.0
 10
4.6495366379
 20
1.0849956474
 30
0.0
 10
4.6523863705
 20
1.0853232519
 30
0.0
 10
4.6564592788
 20
1.0857259065
 30
0.0
 10
4.6619502878
 20
1.0861911348
 30
0.0
 10
4.6682310375
 20
1.0866574807
 30
0.0
 10
4.6752824841
 20
1.0871246954
 30
0.0
 10
4.6830831666
 20
1.0875924846
 30
0.0
 10
4.6949098095
 20
1.0882419253
 30
0.0
 10
4.7113674452
 20
1.0890415325
 30
0.0
 10
4.7329793766
 20
1.089971445
 30
0.0
 10
4.7568750527
 20
1.0909031548
 30
0.0
 10
4.7827602104
 20
1.0918362888
 30
0.0
 10
4.8103159189
 20
1.0927703475
 30
0.0
 10
4.8392026602
 20
1.093705025
 30
0.0
 10
4.8690647961
 20
1.0946401176
 30
0.0
 10
4.9097604233
 20
1.0958893594
 30
0.0
 10
4.9602678609
 20
1.0974225486
 30
0.0
 10
5.0005755562
 20
1.0986869466
 30
0.0
 10
5.0203807021
 20
1.0993366653
 30
0.0
  0
SPLINE
  5
459
100
AcDbEntity
  8
0
100
AcDbSpline
 62
7
  6
CONTINUOUS
 70
0
 71
3
 72
27
 73
23
 74
0
 42
0.0000001
 43
0.0000001
 44
0.0000000001
 40
0.0
 40
0.0
 40
0.0
 40
0.0
 40
0.0186084466
 40
0.0395085381
 40
0.0625902689
 40
0.0877408763
 40
0.1437787274
 40
0.2065677755
 40
0.2573771042
 40
0.3107753194
 40
0.4230363874
 40
0.5385732305
 40
0.6524683535
 40
0.7072768289
 40
0.7598744889
 40
0.8096993094
 40
0.8562212849
 40
0.8989437611
 40
0.9374097482
 40
0.9712210884
 40
0.9862627737
 40
1.0
 40
1.0
 40
1.0
 40
1.0
 10
5.1921108469
 20
1.2421296641
 30
0.0
 10
5.1887190778
 20
1.2419219778
 30
0.0
 10
5.1815159165
 20
1.2415123413
 30
0.0
 10
5.1701008537
 20
1.2409327734
 30
0.0
 10
5.1574897643
 20
1.2403524213
 30
0.0
 10
5.1384657362
 20
1.2395486836
 30
0.0
 10
5.1121922157
 20
1.2385600386
 30
0.0
 10
5.0812321972
 20
1.2375160074
 30
0.0
 10
5.0507516478
 20
1.2365592844
 30
0.0
 10
5.01123955
 20
1.2353787275
 30
0.0
 10
4.9599102972
 20
1.2339280279
 30
0.0
 10
4.8975367155
 20
1.2322125463
 30
0.0
 10
4.8456512034
 20
1.2307662366
 30
0.0
 10
4.8052561015
 20
1.2295899472
 30
0.0
 10
4.7765570655
 20
1.2287194542
 30
0.0
 10
4.7493719484
 20
1.2278496043
 30
0.0
 10
4.7239911062
 20
1.226980608
 30
0.0
 10
4.7006857683
 20
1.2261130237
 30
0.0
 10
4.6797032456
 20
1.2252471238
 30
0.0
 10
4.6637750455
 20
1.2245018826
 30
0.0
 10
4.6523613259
 20
1.2238967418
 30
0.0
 10
4.6471147366
 20
1.223592528
 30
0.0
 10
4.6446108469
 20
1.2234392087
 30
0.0
  0
SPLINE
  5
45A
100
AcDbEntity
  8
0
100
AcDbSpline
 62
7
  6
CONTINUOUS
 70
0
 71
3
 72
27
 73
23
 74
0
 42
0.0000001
 43
0.0000001
 44
0.0000000001
 40
0.0
 40
0.0
 40
0.0
 40
0.0
 40
0.0037985354
 40
0.0081505012
 40
0.01305301
 40
0.0185026994
 40
0.0310286698
 40
0.0456942369
 40
0.0624540132
 40
0.0812599213
 40
0.1020581399
 40
0.1247822417
 40
0.1757288256
 40
0.2334748136
 40
0.2973139502
 40
0.3664607015
 40
0.4400639089
 40
0.517219252
 40
0.5969764812
 40
0.6783554571
 40
0.8419528699
 40
1.0
 40
1.0
 40
1.0
 40
1.0
 10
4.6446108469
 20
1.0976726133
 30
0.0
 10
4.645079544
 20
1.0977571326
 30
0.0
 10
4.646087933
 20
1.0979235201
 30
0.0
 10
4.647707864
 20
1.0981568377
 30
0.0
 10
4.6495366379
 20
1.0983906474
 30
0.0
 10
4.6523863705
 20
1.0987182519
 30
0.0
 10
4.6564592788
 20
1.0991209065
 30
0.0
 10
4.6619502878
 20
1.0995861348
 30
0.0
 10
4.6682310375
 20
1.1000524807
 30
0.0
 10
4.6752824841
 20
1.1005196954
 30
0.0
 10
4.6830831666
 20
1.1009874846
 30
0.0
 10
4.6949098095
 20
1.1016369253
 30
0.0
 10
4.7113674452
 20
1.1024365325
 30
0.0
 10
4.7329793766
 20
1.103366445
 30
0.0
 10
4.7568750527
 20
1.1042981548
 30
0.0
 10
4.7827602104
 20
1.1052312888
 30
0.0
 10
4.8103159189
 20
1.1061653475
 30
0.0
 10
4.8392026602
 20
1.107100025
 30
0.0
 10
4.8690647961
 20
1.1080351176
 30
0.0
 10
4.9097604233
 20
1.1092843594
 30
0.0
 10
4.9602678609
 20
1.1108175486
 30
0.0
 10
5.0005755562
 20
1.1120819466
 30
0.0
 10
5.0203807021
 20
1.1127316653
 30
0.0
  0
SPLINE
  5
45B
100
AcDbEntity
  8
0
100
AcDbSpline
 62
7
  6
CONTINUOUS
 70
0
 71
3
 72
30
 73
26
 74
0
 42
0.0000001
 43
0.0000001
 44
0.0000000001
 40
0.0
 40
0.0
 40
0.0
 40
0.0
 40
0.0056975012
 40
0.0121629822
 40
0.0273482807
 40
0.0454534132
 40
0.0663609137
 40
0.0899450916
 40
0.1160568958
 40
0.144535216
 40
0.1752030523
 40
0.2423455174
 40
0.3158512118
 40
0.3939485712
 40
0.4747721297
 40
0.5564078147
 40
0.6369386149
 40
0.7144894737
 40
0.7872699505
 40
0.8536153543
 40
0.9120206968
 40
0.9378271545
 40
0.9611796873
 40
0.9819457708
 40
1.0
 40
1.0
 40
1.0
 40
1.0
 10
4.6452938377
 20
1.0282219364
 30
0.0
 10
4.6463299277
 20
1.0282973838
 30
0.0
 10
4.6485426682
 20
1.028446091
 30
0.0
 10
4.6535204101
 20
1.0287412266
 30
0.0
 10
4.6607603411
 20
1.029101619
 30
0.0
 10
4.6706336808
 20
1.029516116
 30
0.0
 10
4.6820395362
 20
1.0299313676
 30
0.0
 10
4.6949060803
 20
1.0303470343
 30
0.0
 10
4.7091536621
 20
1.0307628495
 30
0.0
 10
4.7246933183
 20
1.031178541
 30
0.0
 10
4.7477126219
 20
1.031749856
 30
0.0
 10
4.7789410592
 20
1.0324517026
 30
0.0
 10
4.8188168378
 20
1.0332707237
 30
0.0
 10
4.8611876189
 20
1.0340887269
 30
0.0
 10
4.9050410414
 20
1.0349052341
 30
0.0
 10
4.9493382688
 20
1.0357197177
 30
0.0
 10
4.9930387249
 20
1.0365317538
 30
0.0
 10
5.0351243679
 20
1.0373409117
 30
0.0
 10
5.0746231433
 20
1.0381464975
 30
0.0
 10
5.1106303916
 20
1.0389479763
 30
0.0
 10
5.1380731444
 20
1.0396361054
 30
0.0
 10
5.157677514
 20
1.0401964338
 30
0.0
 10
5.1704207497
 20
1.0405980308
 30
0.0
 10
5.1817497714
 20
1.040998304
 30
0.0
 10
5.1888222178
 20
1.0412840605
 30
0.0
 10
5.1921108469
 20
1.0414297109
 30
0.0
  0
SPLINE
  5
45C
100
AcDbEntity
  8
0
100
AcDbSpline
 62
7
  6
CONTINUOUS
 70
0
 71
3
 72
41
 73
37
 74
0
 42
0.0000001
 43
0.0000001
 44
0.0000000001
 40
0.0
 40
0.0
 40
0.0
 40
0.0
 40
0.0042822776
 40
0.0095059361
 40
0.0156620668
 40
0.02274052
 40
0.0307290008
 40
0.0396118009
 40
0.0599947546
 40
0.0837412037
 40
0.1106686925
 40
0.140573644
 40
0.1732271145
 40
0.2268109018
 40
0.2850941277
 40
0.3470742405
 40
0.4116849763
 40
0.4778150846
 40
0.5443270689
 40
0.6100763898
 40
0.6739317047
 40
0.7347948525
 40
0.7916194258
 40
0.8434283759
 40
0.867169172
 40
0.8893311598
 40
0.9098176752
 40
0.9285412202
 40
0.9454228496
 40
0.9603881413
 40
0.9733779393
 40
0.9843377538
 40
0.9890419119
 40
0.9932229224
 40
0.996876775
 40
1.0
 40
1.0
 40
1.0
 40
1.0
 10
4.6446108469
 20
1.2041726133
 30
0.0
 10
4.6453808494
 20
1.2043114665
 30
0.0
 10
4.6470973759
 20
1.2045792415
 30
0.0
 10
4.6499357935
 20
1.2049443383
 30
0.0
 10
4.6532885014
 20
1.2053110587
 30
0.0
 10
4.6571488084
 20
1.2056788315
 30
0.0
 10
4.6615092403
 20
1.2060471805
 30
0.0
 10
4.668296517
 20
1.2065629147
 30
0.0
 10
4.6779619849
 20
1.2071960517
 30
0.0
 10
4.6909243252
 20
1.2079285404
 30
0.0
 10
4.70562878
 20
1.2086629607
 30
0.0
 10
4.7219623767
 20
1.2093987868
 30
0.0
 10
4.7431648712
 20
1.2102744599
 30
0.0
 10
4.7695518287
 20
1.2112674966
 30
0.0
 10
4.8012966713
 20
1.2123681779
 30
0.0
 10
4.8350573493
 20
1.2134701701
 30
0.0
 10
4.8702524383
 20
1.214573043
 30
0.0
 10
4.9062759322
 20
1.215676356
 30
0.0
 10
4.9425075515
 20
1.2167797754
 30
0.0
 10
4.9783233538
 20
1.2178829738
 30
0.0
 10
5.0131065668
 20
1.2189856164
 30
0.0
 10
5.046258314
 20
1.220087207
 30
0.0
 10
5.0772078135
 20
1.2211873121
 30
0.0
 10
5.1013759554
 20
1.2221271041
 30
0.0
 10
5.1192128101
 20
1.222888336
 30
0.0
 10
5.1313302811
 20
1.2234421324
 30
0.0
 10
5.1425300366
 20
1.2239954987
 30
0.0
 10
5.1527637666
 20
1.2245483002
 30
0.0
 10
5.1619871459
 20
1.2251001539
 30
0.0
 10
5.1701609172
 20
1.2256508423
 30
0.0
 10
5.1772500165
 20
1.2261999025
 30
0.0
 10
5.1824640053
 20
1.2266760879
 30
0.0
 10
5.1860690832
 20
1.2270649334
 30
0.0
 10
5.1883435116
 20
1.2273409752
 30
0.0
 10
5.1903267734
 20
1.2276162296
 30
0.0
 10
5.1915492553
 20
1.2278144466
 30
0.0
 10
5.1921108469
 20
1.2279157174
 30
0.0
  0
SPLINE
  5
45D
100
AcDbEntity
  8
0
100
AcDbSpline
 62
7
  6
CONTINUOUS
 70
0
 71
3
 72
41
 73
37
 74
0
 42
0.0000001
 43
0.0000001
 44
0.0000000001
 40
0.0
 40
0.0
 40
0.0
 40
0.0
 40
0.0042822776
 40
0.0095059361
 40
0.0156620668
 40
0.02274052
 40
0.0307290008
 40
0.0396118009
 40
0.0599947546
 40
0.0837412037
 40
0.1106686925
 40
0.140573644
 40
0.1732271145
 40
0.2268109018
 40
0.2850941277
 40
0.3470742405
 40
0.4116849763
 40
0.4778150846
 40
0.5443270689
 40
0.6100763898
 40
0.6739317047
 40
0.7347948525
 40
0.7916194258
 40
0.8434283759
 40
0.867169172
 40
0.8893311598
 40
0.9098176752
 40
0.9285412202
 40
0.9454228496
 40
0.9603881413
 40
0.9733779393
 40
0.9843377538
 40
0.9890419119
 40
0.9932229224
 40
0.996876775
 40
1.0
 40
1.0
 40
1.0
 40
1.0
 10
4.6446108469
 20
1.0444226133
 30
0.0
 10
4.6453808494
 20
1.0445614665
 30
0.0
 10
4.6470973759
 20
1.0448292415
 30
0.0
 10
4.6499357935
 20
1.0451943383
 30
0.0
 10
4.6532885014
 20
1.0455610587
 30
0.0
 10
4.6571488084
 20
1.0459288315
 30
0.0
 10
4.6615092403
 20
1.0462971805
 30
0.0
 10
4.668296517
 20
1.0468129147
 30
0.0
 10
4.6779619849
 20
1.0474460517
 30
0.0
 10
4.6909243252
 20
1.0481785404
 30
0.0
 10
4.70562878
 20
1.0489129607
 30
0.0
 10
4.7219623767
 20
1.0496487868
 30
0.0
 10
4.7431648712
 20
1.0505244599
 30
0.0
 10
4.7695518287
 20
1.0515174966
 30
0.0
 10
4.8012966713
 20
1.0526181779
 30
0.0
 10
4.8350573493
 20
1.0537201701
 30
0.0
 10
4.8702524383
 20
1.054823043
 30
0.0
 10
4.9062759322
 20
1.055926356
 30
0.0
 10
4.9425075515
 20
1.0570297754
 30
0.0
 10
4.9783233538
 20
1.0581329738
 30
0.0
 10
5.0131065668
 20
1.0592356164
 30
0.0
 10
5.046258314
 20
1.060337207
 30
0.0
 10
5.0772078135
 20
1.0614373121
 30
0.0
 10
5.1013759554
 20
1.0623771041
 30
0.0
 10
5.1192128101
 20
1.063138336
 30
0.0
 10
5.1313302811
 20
1.0636921324
 30
0.0
 10
5.1425300366
 20
1.0642454987
 30
0.0
 10
5.1527637666
 20
1.0647983002
 30
0.0
 10
5.1619871459
 20
1.0653501539
 30
0.0
 10
5.1701609172
 20
1.0659008423
 30
0.0
 10
5.1772500165
 20
1.0664499025
 30
0.0
 10
5.1824640053
 20
1.0669260879
 30
0.0
 10
5.1860690832
 20
1.0673149334
 30
0.0
 10
5.1883435116
 20
1.0675909752
 30
0.0
 10
5.1903267734
 20
1.0678662296
 30
0.0
 10
5.1915492553
 20
1.0680644466
 30
0.0
 10
5.1921108469
 20
1.0681657174
 30
0.0
  0
SPLINE
  5
45E
100
AcDbEntity
  8
0
100
AcDbSpline
 62
7
  6
CONTINUOUS
 70
0
 71
3
 72
22
 73
18
 74
0
 42
0.0000001
 43
0.0000001
 44
0.0000000001
 40
0.0
 40
0.0
 40
0.0
 40
0.0
 40
0.1870953163
 40
0.3614368863
 40
0.5201361299
 40
0.5928115994
 40
0.6606272409
 40
0.7233126081
 40
0.7806081205
 40
0.832285777
 40
0.8781321336
 40
0.9179667285
 40
0.9516379044
 40
0.9661195481
 40
0.9790143892
 40
0.9903111124
 40
1.0
 40
1.0
 40
1.0
 40
1.0
 10
5.0203807021
 20
1.1127316653
 30
0.0
 10
5.031101598
 20
1.1130833702
 30
0.0
 10
5.0518120502
 20
1.1137791875
 30
0.0
 10
5.0816135276
 20
1.1148524258
 30
0.0
 10
5.1048562939
 20
1.1157695969
 30
0.0
 10
5.1219935969
 20
1.1165122267
 30
0.0
 10
5.1336297229
 20
1.1170524738
 30
0.0
 10
5.1443830825
 20
1.1175921983
 30
0.0
 10
5.1542099765
 20
1.1181314314
 30
0.0
 10
5.163069902
 20
1.1186698194
 30
0.0
 10
5.1709267965
 20
1.1192069937
 30
0.0
 10
5.177748685
 20
1.119742716
 30
0.0
 10
5.1827721174
 20
1.1202070577
 30
0.0
 10
5.1862516322
 20
1.1205860801
 30
0.0
 10
5.1884525411
 20
1.1208553933
 30
0.0
 10
5.1903764332
 20
1.1211239959
 30
0.0
 10
5.1915641749
 20
1.121317137
 30
0.0
 10
5.1921108469
 20
1.1214157174
 30
0.0
  0
SPLINE
  5
45F
100
AcDbEntity
  8
0
100
AcDbSpline
 62
7
  6
CONTINUOUS
 70
0
 71
3
 72
22
 73
18
 74
0
 42
0.0000001
 43
0.0000001
 44
0.0000000001
 40
0.0
 40
0.0
 40
0.0
 40
0.0
 40
0.1870760764
 40
0.3614441364
 40
0.5201339884
 40
0.592806266
 40
0.6606282724
 40
0.7233115384
 40
0.7806089698
 40
0.8322846809
 40
0.8781280113
 40
0.9179674538
 40
0.9516397899
 40
0.9661218472
 40
0.9790169173
 40
0.9903130758
 40
1.0
 40
1.0
 40
1.0
 40
1.0
 10
5.0203807021
 20
1.0993366653
 30
0.0
 10
5.0311004953
 20
1.0996883341
 30
0.0
 10
5.0518113621
 20
1.1003841772
 30
0.0
 10
5.0816127163
 20
1.1014574043
 30
0.0
 10
5.1048562802
 20
1.1023745762
 30
0.0
 10
5.1219932239
 20
1.1031172495
 30
0.0
 10
5.1336294148
 20
1.1036574211
 30
0.0
 10
5.1443831235
 20
1.1041972562
 30
0.0
 10
5.154209898
 20
1.1047364321
 30
0.0
 10
5.1630696515
 20
1.1052747702
 30
0.0
 10
5.1709265345
 20
1.1058119984
 30
0.0
 10
5.1777485998
 20
1.1063476584
 30
0.0
 10
5.1827723874
 20
1.1068121577
 30
0.0
 10
5.1862520028
 20
1.107191209
 30
0.0
 10
5.188452918
 20
1.1074605054
 30
0.0
 10
5.1903766838
 20
1.1077290582
 30
0.0
 10
5.1915642857
 20
1.107922157
 30
0.0
 10
5.1921108469
 20
1.1080207174
 30
0.0
  0
SPLINE
  5
460
100
AcDbEntity
  8
0
100
AcDbSpline
 62
7
  6
CONTINUOUS
 70
0
 71
3
 72
41
 73
37
 74
0
 42
0.0000001
 43
0.0000001
 44
0.0000000001
 40
0.0
 40
0.0
 40
0.0
 40
0.0
 40
0.0042822776
 40
0.0095059361
 40
0.0156620668
 40
0.02274052
 40
0.0307290008
 40
0.0396118009
 40
0.0599947546
 40
0.0837412037
 40
0.1106686925
 40
0.140573644
 40
0.1732271145
 40
0.2268109018
 40
0.2850941277
 40
0.3470742405
 40
0.4116849763
 40
0.4778150846
 40
0.5443270689
 40
0.6100763898
 40
0.6739317047
 40
0.7347948525
 40
0.7916194258
 40
0.8434283759
 40
0.867169172
 40
0.8893311598
 40
0.9098176752
 40
0.9285412202
 40
0.9454228496
 40
0.9603881413
 40
0.9733779393
 40
0.9843377538
 40
0.9890419119
 40
0.9932229224
 40
0.996876775
 40
1.0
 40
1.0
 40
1.0
 40
1.0
 10
4.6446108469
 20
1.1509226133
 30
0.0
 10
4.6453808494
 20
1.1510614665
 30
0.0
 10
4.6470973759
 20
1.1513292415
 30
0.0
 10
4.6499357935
 20
1.1516943383
 30
0.0
 10
4.6532885014
 20
1.1520610587
 30
0.0
 10
4.6571488084
 20
1.1524288315
 30
0.0
 10
4.6615092403
 20
1.1527971805
 30
0.0
 10
4.668296517
 20
1.1533129147
 30
0.0
 10
4.6779619849
 20
1.1539460517
 30
0.0
 10
4.6909243252
 20
1.1546785404
 30
0.0
 10
4.70562878
 20
1.1554129607
 30
0.0
 10
4.7219623767
 20
1.1561487868
 30
0.0
 10
4.7431648712
 20
1.1570244599
 30
0.0
 10
4.7695518287
 20
1.1580174966
 30
0.0
 10
4.8012966713
 20
1.1591181779
 30
0.0
 10
4.8350573493
 20
1.1602201701
 30
0.0
 10
4.8702524383
 20
1.161323043
 30
0.0
 10
4.9062759322
 20
1.162426356
 30
0.0
 10
4.9425075515
 20
1.1635297754
 30
0.0
 10
4.9783233538
 20
1.1646329738
 30
0.0
 10
5.0131065668
 20
1.1657356164
 30
0.0
 10
5.046258314
 20
1.166837207
 30
0.0
 10
5.0772078135
 20
1.1679373121
 30
0.0
 10
5.1013759554
 20
1.1688771041
 30
0.0
 10
5.1192128101
 20
1.169638336
 30
0.0
 10
5.1313302811
 20
1.1701921324
 30
0.0
 10
5.1425300366
 20
1.1707454987
 30
0.0
 10
5.1527637666
 20
1.1712983002
 30
0.0
 10
5.1619871459
 20
1.1718501539
 30
0.0
 10
5.1701609172
 20
1.1724008423
 30
0.0
 10
5.1772500165
 20
1.1729499025
 30
0.0
 10
5.1824640053
 20
1.1734260879
 30
0.0
 10
5.1860690832
 20
1.1738149334
 30
0.0
 10
5.1883435116
 20
1.1740909752
 30
0.0
 10
5.1903267734
 20
1.1743662296
 30
0.0
 10
5.1915492553
 20
1.1745644466
 30
0.0
 10
5.1921108469
 20
1.1746657174
 30
0.0
  0
SPLINE
  5
461
100
AcDbEntity
  8
0
100
AcDbSpline
 62
7
  6
CONTINUOUS
 70
0
 71
3
 72
12
 73
8
 74
0
 42
0.0000001
 43
0.0000001
 44
0.0000000001
 40
0.0
 40
0.0
 40
0.0
 40
0.0
 40
0.0857934226
 40
0.1828945481
 40
0.4108607664
 40
0.6834707517
 40
1.0
 40
1.0
 40
1.0
 40
1.0
 10
4.6446108469
 20
1.2440276133
 30
0.0
 10
4.6450298191
 20
1.2441031658
 30
0.0
 10
4.6459251377
 20
1.2442523457
 30
0.0
 10
4.6479423367
 20
1.244548913
 30
0.0
 10
4.6508862456
 20
1.2449118336
 30
0.0
 10
4.6549194867
 20
1.2453296806
 30
0.0
 10
4.6578314469
 20
1.2455898533
 30
0.0
 10
4.6593965861
 20
1.2457219364
 30
0.0
  0
SPLINE
  5
462
100
AcDbEntity
  8
0
100
AcDbSpline
 62
7
  6
CONTINUOUS
 70
0
 71
3
 72
21
 73
17
 74
0
 42
0.0000001
 43
0.0000001
 44
0.0000000001
 40
0.0
 40
0.0
 40
0.0
 40
0.0
 40
0.0102130276
 40
0.0219565965
 40
0.0352223291
 40
0.0500004907
 40
0.0840509253
 40
0.1240084449
 40
0.1697413184
 40
0.2211105303
 40
0.2779583463
 40
0.3400917963
 40
0.4794053076
 40
0.6372338661
 40
0.8115246367
 40
1.0
 40
1.0
 40
1.0
 40
1.0
 10
4.6446108469
 20
1.1375276133
 30
0.0
 10
4.6450951027
 20
1.1376149383
 30
0.0
 10
4.6461390767
 20
1.13778669
 30
0.0
 10
4.6478190586
 20
1.1380271192
 30
0.0
 10
4.6497208942
 20
1.1382680879
 30
0.0
 10
4.6526935275
 20
1.1386060491
 30
0.0
 10
4.6569513258
 20
1.1390211888
 30
0.0
 10
4.6627006267
 20
1.1395006257
 30
0.0
 10
4.6692867762
 20
1.1399812662
 30
0.0
 10
4.6766885317
 20
1.140462827
 30
0.0
 10
4.6848819304
 20
1.1409450057
 30
0.0
 10
4.6973086624
 20
1.1416144659
 30
0.0
 10
4.7145991813
 20
1.1424384948
 30
0.0
 10
4.7372927805
 20
1.1433968639
 30
0.0
 10
4.7623568343
 20
1.1443571216
 30
0.0
 10
4.7798240329
 20
1.1449768339
 30
0.0
 10
4.7888994313
 20
1.1452898261
 30
0.0
  0
LINE
  5
463
100
AcDbEntity
  8
0
100
AcDbLine
 62
7
  6
CONTINUOUS
 10
4.7888994313
 20
1.1452898261
 11
4.8058461701
 21
1.1458644715
  0
LINE
  5
464
100
AcDbEntity
  8
0
100
AcDbLine
 62
7
  6
CONTINUOUS
 10
4.8058461701
 20
1.1458644715
 11
4.8071378872
 21
1.1459075324
  0
LINE
  5
465
100
AcDbEntity
  8
0
100
AcDbLine
 62
7
  6
CONTINUOUS
 10
4.8071378872
 20
1.1459075324
 11
4.8304820088
 21
1.1466708763
  0
LINE
  5
466
100
AcDbEntity
  8
0
100
AcDbLine
 62
7
  6
CONTINUOUS
 10
4.8304820088
 20
1.1466708763
 11
4.8704183654
 21
1.1479289547
  0
LINE
  5
467
100
AcDbEntity
  8
0
100
AcDbLine
 62
7
  6
CONTINUOUS
 10
4.8704183654
 20
1.1479289547
 11
4.8879660927
 21
1.148469883
  0
LINE
  5
468
100
AcDbEntity
  8
0
100
AcDbLine
 62
7
  6
CONTINUOUS
 10
4.8879660927
 20
1.148469883
 11
4.8905872896
 21
1.1485503051
  0
LINE
  5
469
100
AcDbEntity
  8
0
100
AcDbLine
 62
7
  6
CONTINUOUS
 10
4.8905872896
 20
1.1485503051
 11
4.9089571929
 21
1.1491121819
  0
SPLINE
  5
46A
100
AcDbEntity
  8
0
100
AcDbSpline
 62
7
  6
CONTINUOUS
 70
0
 71
3
 72
23
 73
19
 74
0
 42
0.0000001
 43
0.0000001
 44
0.0000000001
 40
0.0
 40
0.0
 40
0.0
 40
0.0
 40
0.1752838902
 40
0.3460146184
 40
0.5067222047
 40
0.5816923235
 40
0.6522594645
 40
0.7178603535
 40
0.7779679083
 40
0.8321022183
 40
0.8798314124
 40
0.9207727054
 40
0.9385968993
 40
0.9546111768
 40
0.9687826076
 40
0.9810849362
 40
0.9914969414
 40
1.0
 40
1.0
 40
1.0
 40
1.0
 10
4.9089571929
 20
1.1491121819
 30
0.0
 10
4.9255123706
 20
1.1496176111
 30
0.0
 10
4.9581927842
 20
1.1506122831
 30
0.0
 10
5.0060505585
 20
1.1521067511
 30
0.0
 10
5.0444318632
 20
1.1533770086
 30
0.0
 10
5.073351114
 20
1.1544086602
 30
0.0
 10
5.0932876581
 20
1.1551639291
 30
0.0
 10
5.1118187725
 20
1.155918399
 30
0.0
 10
5.1287957714
 20
1.1566719082
 30
0.0
 10
5.1440823083
 20
1.1574239138
 30
0.0
 10
5.1575554301
 20
1.1581739696
 30
0.0
 10
5.1675976382
 20
1.1588223344
 30
0.0
 10
5.174643997
 20
1.1593506581
 30
0.0
 10
5.1791649021
 20
1.1597278403
 30
0.0
 10
5.1831620635
 20
1.1601044004
 30
0.0
 10
5.1866273629
 20
1.1604798562
 30
0.0
 10
5.1895535455
 20
1.1608535874
 30
0.0
 10
5.191320131
 20
1.161128129
 30
0.0
 10
5.1921108469
 20
1.1612707174
 30
0.0
  0
SPLINE
  5
46B
100
AcDbEntity
  8
0
100
AcDbSpline
 62
7
  6
CONTINUOUS
 70
0
 71
3
 72
14
 73
10
 74
0
 42
0.0000001
 43
0.0000001
 44
0.0000000001
 40
0.0
 40
0.0
 40
0.0
 40
0.0
 40
0.0849916911
 40
0.1832916566
 40
0.2940473542
 40
0.4163783058
 40
0.5492657173
 40
0.6916210082
 40
1.0
 40
1.0
 40
1.0
 40
1.0
 10
5.1921108469
 20
1.088754122
 30
0.0
 10
5.1875524186
 20
1.0884749983
 30
0.0
 10
5.1777183258
 20
1.0879295824
 30
0.0
 10
5.161936135
 20
1.0871692453
 30
0.0
 10
5.1441455674
 20
1.0864071246
 30
0.0
 10
5.1244950085
 20
1.08564369
 30
0.0
 10
5.103145337
 20
1.0848792243
 30
0.0
 10
5.0718023582
 20
1.0838309984
 30
0.0
 10
5.0475938242
 20
1.0830883989
 30
0.0
 10
5.031030612
 20
1.0825963943
 30
0.0
  0
SPLINE
  5
46C
100
AcDbEntity
  8
0
100
AcDbSpline
 62
7
  6
CONTINUOUS
 70
0
 71
3
 72
18
 73
14
 74
0
 42
0.0000001
 43
0.0000001
 44
0.0000000001
 40
0.0
 40
0.0
 40
0.0
 40
0.0
 40
0.036112474
 40
0.0779663674
 40
0.1251845003
 40
0.177376255
 40
0.2340969014
 40
0.2948628548
 40
0.4264275721
 40
0.5675942113
 40
0.7135583244
 40
0.8593427688
 40
1.0
 40
1.0
 40
1.0
 40
1.0
 10
4.6446108469
 20
1.0700636665
 30
0.0
 10
4.6492562317
 20
1.0703481149
 30
0.0
 10
4.6592891532
 20
1.0709035188
 30
0.0
 10
4.6754041456
 20
1.0716770225
 30
0.0
 10
4.6935934211
 20
1.0724523851
 30
0.0
 10
4.7137001734
 20
1.0732291443
 30
0.0
 10
4.7355540842
 20
1.0740069733
 30
0.0
 10
4.7676334992
 20
1.0750733271
 30
0.0
 10
4.8105938761
 20
1.0763840093
 30
0.0
 10
4.8645323785
 20
1.0779223778
 30
0.0
 10
4.9203041558
 20
1.0794622715
 30
0.0
 10
4.9760102501
 20
1.0810022171
 30
0.0
 10
5.0129110517
 20
1.0820581588
 30
0.0
 10
5.031030612
 20
1.0825963943
 30
0.0
  0
SPLINE
  5
46D
100
AcDbEntity
  8
0
100
AcDbSpline
 62
7
  6
CONTINUOUS
 70
0
 71
3
 72
27
 73
23
 74
0
 42
0.0000001
 43
0.0000001
 44
0.0000000001
 40
0.0
 40
0.0
 40
0.0
 40
0.0
 40
0.018608447
 40
0.0395085393
 40
0.0625902715
 40
0.0877408804
 40
0.1437787341
 40
0.2065677854
 40
0.2573771165
 40
0.3107753341
 40
0.4230364055
 40
0.53857325
 40
0.6524683715
 40
0.7072768451
 40
0.7598745025
 40
0.8096993196
 40
0.8562212916
 40
0.8989437641
 40
0.9374097482
 40
0.9712210876
 40
0.9862627734
 40
1.0
 40
1.0
 40
1.0
 40
1.0
 10
5.1921108469
 20
1.0823796641
 30
0.0
 10
5.1887190778
 20
1.0821719778
 30
0.0
 10
5.1815159162
 20
1.0817623413
 30
0.0
 10
5.170100853
 20
1.0811827733
 30
0.0
 10
5.1574897629
 20
1.0806024212
 30
0.0
 10
5.1384657338
 20
1.0797986835
 30
0.0
 10
5.1121922119
 20
1.0788100385
 30
0.0
 10
5.081232192
 20
1.0777660072
 30
0.0
 10
5.0507516411
 20
1.0768092842
 30
0.0
 10
5.0112395418
 20
1.0756287272
 30
0.0
 10
4.9599102877
 20
1.0741780276
 30
0.0
 10
4.8975367053
 20
1.072462546
 30
0.0
 10
4.8456511936
 20
1.0710162363
 30
0.0
 10
4.8052560928
 20
1.069839947
 30
0.0
 10
4.7765570582
 20
1.068969454
 30
0.0
 10
4.7493719429
 20
1.0680996041
 30
0.0
 10
4.7239911025
 20
1.0672306079
 30
0.0
 10
4.7006857665
 20
1.0663630236
 30
0.0
 10
4.6797032452
 20
1.0654971238
 30
0.0
 10
4.6637750457
 20
1.0647518826
 30
0.0
 10
4.6523613261
 20
1.0641467418
 30
0.0
 10
4.6471147367
 20
1.063842528
 30
0.0
 10
4.6446108469
 20
1.0636892087
 30
0.0
  0
SPLINE
  5
46E
100
AcDbEntity
  8
0
100
AcDbSpline
 62
7
  6
CONTINUOUS
 70
0
 71
3
 72
41
 73
37
 74
0
 42
0.0000001
 43
0.0000001
 44
0.0000000001
 40
0.0
 40
0.0
 40
0.0
 40
0.0
 40
0.0042822776
 40
0.0095059361
 40
0.0156620668
 40
0.02274052
 40
0.0307290008
 40
0.0396118009
 40
0.0599947546
 40
0.0837412037
 40
0.1106686925
 40
0.140573644
 40
0.1732271145
 40
0.2268109018
 40
0.2850941277
 40
0.3470742405
 40
0.4116849763
 40
0.4778150846
 40
0.5443270689
 40
0.6100763898
 40
0.6739317047
 40
0.7347948525
 40
0.7916194258
 40
0.8434283759
 40
0.867169172
 40
0.8893311598
 40
0.9098176752
 40
0.9285412202
 40
0.9454228496
 40
0.9603881413
 40
0.9733779393
 40
0.9843377538
 40
0.9890419119
 40
0.9932229224
 40
0.996876775
 40
1.0
 40
1.0
 40
1.0
 40
1.0
 10
4.6446108469
 20
1.1907776133
 30
0.0
 10
4.6453808494
 20
1.1909164665
 30
0.0
 10
4.6470973759
 20
1.1911842415
 30
0.0
 10
4.6499357935
 20
1.1915493383
 30
0.0
 10
4.6532885014
 20
1.1919160587
 30
0.0
 10
4.6571488084
 20
1.1922838315
 30
0.0
 10
4.6615092403
 20
1.1926521805
 30
0.0
 10
4.668296517
 20
1.1931679147
 30
0.0
 10
4.6779619849
 20
1.1938010517
 30
0.0
 10
4.6909243252
 20
1.1945335404
 30
0.0
 10
4.70562878
 20
1.1952679607
 30
0.0
 10
4.7219623767
 20
1.1960037868
 30
0.0
 10
4.7431648712
 20
1.1968794599
 30
0.0
 10
4.7695518287
 20
1.1978724966
 30
0.0
 10
4.8012966713
 20
1.1989731779
 30
0.0
 10
4.8350573493
 20
1.2000751701
 30
0.0
 10
4.8702524383
 20
1.201178043
 30
0.0
 10
4.9062759322
 20
1.202281356
 30
0.0
 10
4.9425075515
 20
1.2033847754
 30
0.0
 10
4.9783233538
 20
1.2044879738
 30
0.0
 10
5.0131065668
 20
1.2055906164
 30
0.0
 10
5.046258314
 20
1.206692207
 30
0.0
 10
5.0772078135
 20
1.2077923121
 30
0.0
 10
5.1013759554
 20
1.2087321041
 30
0.0
 10
5.1192128101
 20
1.209493336
 30
0.0
 10
5.1313302811
 20
1.2100471324
 30
0.0
 10
5.1425300366
 20
1.2106004987
 30
0.0
 10
5.1527637666
 20
1.2111533002
 30
0.0
 10
5.1619871459
 20
1.2117051539
 30
0.0
 10
5.1701609172
 20
1.2122558423
 30
0.0
 10
5.1772500165
 20
1.2128049025
 30
0.0
 10
5.1824640053
 20
1.2132810879
 30
0.0
 10
5.1860690832
 20
1.2136699334
 30
0.0
 10
5.1883435116
 20
1.2139459752
 30
0.0
 10
5.1903267734
 20
1.2142212296
 30
0.0
 10
5.1915492553
 20
1.2144194466
 30
0.0
 10
5.1921108469
 20
1.2145207174
 30
0.0
  0
SPLINE
  5
46F
100
AcDbEntity
  8
0
100
AcDbSpline
 62
7
  6
CONTINUOUS
 70
0
 71
3
 72
16
 73
12
 74
0
 42
0.0000001
 43
0.0000001
 44
0.0000000001
 40
0.0
 40
0.0
 40
0.0
 40
0.0
 40
0.0383531378
 40
0.0808181323
 40
0.1272283723
 40
0.1774147971
 40
0.2884237455
 40
0.4123180391
 40
0.5473662849
 40
0.6916883204
 40
1.0
 40
1.0
 40
1.0
 40
1.0
 10
4.6446108469
 20
1.1701892087
 30
0.0
 10
4.6474941078
 20
1.1703657578
 30
0.0
 10
4.6535711343
 20
1.1707152053
 30
0.0
 10
4.6631407397
 20
1.1712131413
 30
0.0
 10
4.6736026718
 20
1.1717116081
 30
0.0
 10
4.6892238672
 20
1.1723999581
 30
0.0
 10
4.7106794057
 20
1.1732490094
 30
0.0
 10
4.7385256484
 20
1.174239481
 30
0.0
 10
4.7688823382
 20
1.1752316087
 30
0.0
 10
4.8131243484
 20
1.1765859876
 30
0.0
 10
4.8472018303
 20
1.1775549943
 30
0.0
 10
4.8704140053
 20
1.1782042879
 30
0.0
  0
SPLINE
  5
470
100
AcDbEntity
  8
0
100
AcDbSpline
 62
7
  6
CONTINUOUS
 70
0
 71
3
 72
18
 73
14
 74
0
 42
0.0000001
 43
0.0000001
 44
0.0000000001
 40
0.0
 40
0.0
 40
0.0
 40
0.0
 40
0.1494954236
 40
0.2989789639
 40
0.4447552122
 40
0.5832208161
 40
0.7109533696
 40
0.7697964702
 40
0.8247984862
 40
0.8756158374
 40
0.92194341
 40
0.9634975331
 40
1.0
 40
1.0
 40
1.0
 40
1.0
 10
4.8704140053
 20
1.1782042879
 30
0.0
 10
4.8864477439
 20
1.1786527855
 30
0.0
 10
4.918514256
 20
1.1795386487
 30
0.0
 10
4.9662157609
 20
1.1808565965
 30
0.0
 10
5.0127334007
 20
1.1821736651
 30
0.0
 10
5.0569163572
 20
1.1834890942
 30
0.0
 10
5.0917734572
 20
1.184610943
 30
0.0
 10
5.1176774005
 20
1.1855212107
 30
0.0
 10
5.1353323106
 20
1.1861846155
 30
0.0
 10
5.1516433842
 20
1.1868473777
 30
0.0
 10
5.1665103304
 20
1.1875092445
 30
0.0
 10
5.1798397359
 20
1.1881700311
 30
0.0
 10
5.1882016612
 20
1.1886402951
 30
0.0
 10
5.1921108469
 20
1.1888796641
 30
0.0
  0
LINE
  5
471
100
AcDbEntity
  8
0
100
AcDbLine
 62
7
  6
CONTINUOUS
 10
3.6199798983
 20
5.7275985465
 11
3.6271498063
 21
5.7317155333
  0
SPLINE
  5
472
100
AcDbEntity
  8
0
100
AcDbSpline
 62
7
  6
CONTINUOUS
 70
0
 71
3
 72
29
 73
25
 74
0
 42
0.0000001
 43
0.0000001
 44
0.0000000001
 40
0.0
 40
0.0
 40
0.0
 40
0.0
 40
0.1395205161
 40
0.2009323887
 40
0.2545579849
 40
0.2992018028
 40
0.3344835329
 40
0.3490921633
 40
0.3628736492
 40
0.3792901249
 40
0.3910989988
 40
0.4061966705
 40
0.4233529013
 40
0.4414644853
 40
0.4783219358
 40
0.5526339067
 40
0.6270766801
 40
0.6643709187
 40
0.7016746155
 40
0.776185076
 40
0.8507402827
 40
0.8880665125
 40
0.9253972766
 40
1.0
 40
1.0
 40
1.0
 40
1.0
 10
3.5688876274
 20
5.8326285839
 30
0.0
 10
3.5639744097
 20
5.8297812599
 30
0.0
 10
3.5569042103
 20
5.8256708889
 30
0.0
 10
3.5479625309
 20
5.8204370989
 30
0.0
 10
3.5423614973
 20
5.817140398
 30
0.0
 10
3.5376862265
 20
5.8143675675
 30
0.0
 10
3.534386856
 20
5.8123879735
 30
0.0
 10
3.5321752485
 20
5.8110370769
 30
0.0
 10
3.5306282023
 20
5.810071438
 30
0.0
 10
3.5291920098
 20
5.8091433227
 30
0.0
 10
3.5277421052
 20
5.8081395144
 30
0.0
 10
3.526295095
 20
5.8070794805
 30
0.0
 10
3.5246904055
 20
5.8058028913
 30
0.0
 10
3.5224690966
 20
5.8038823775
 30
0.0
 10
3.5187239906
 20
5.8001771444
 30
0.0
 10
3.5140883031
 20
5.794156994
 30
0.0
 10
3.5106061344
 20
5.7873827782
 30
0.0
 10
3.5085881434
 20
5.7816544691
 30
0.0
 10
3.5070942912
 20
5.7757648021
 30
0.0
 10
3.5062406809
 20
5.7681828364
 30
0.0
 10
3.5067706699
 20
5.7605706369
 30
0.0
 10
3.508013449
 20
5.7546182637
 30
0.0
 10
3.5097887118
 20
5.7488021613
 30
0.0
 10
3.5117134874
 20
5.7446364909
 30
0.0
 10
3.5132315364
 20
5.7420067878
 30
0.0
  0
LINE
  5
473
100
AcDbEntity
  8
0
100
AcDbLine
 62
7
  6
CONTINUOUS
 10
3.6807608696
 20
5.8971795633
 11
3.6568522504
 21
5.8834328053
  0
LINE
  5
474
100
AcDbEntity
  8
0
100
AcDbLine
 62
7
  6
CONTINUOUS
 10
3.5940487302
 20
5.8471963925
 11
3.5688880106
 21
5.8326283947
  0
LINE
  5
475
100
AcDbEntity
  8
0
100
AcDbLine
 62
7
  6
CONTINUOUS
 10
3.6199798985
 20
5.7275985466
 11
3.6271498216
 21
5.7317155316
  0
SPLINE
  5
476
100
AcDbEntity
  8
0
100
AcDbSpline
 62
7
  6
CONTINUOUS
 70
0
 71
3
 72
29
 73
25
 74
0
 42
0.0000001
 43
0.0000001
 44
0.0000000001
 40
0.0
 40
0.0
 40
0.0
 40
0.0
 40
0.1395205813
 40
0.2009324761
 40
0.2545580782
 40
0.2992018763
 40
0.3344835437
 40
0.3490921165
 40
0.3628735099
 40
0.3792898807
 40
0.3910987079
 40
0.4061964202
 40
0.4233526797
 40
0.4414642718
 40
0.4783217483
 40
0.552633753
 40
0.6270765507
 40
0.6643708028
 40
0.701674512
 40
0.7761849999
 40
0.85074023
 40
0.8880664733
 40
0.9253972511
 40
1.0
 40
1.0
 40
1.0
 40
1.0
 10
3.568887642
 20
5.8326285891
 30
0.0
 10
3.5639744284
 20
5.8297812621
 30
0.0
 10
3.5569042352
 20
5.8256708873
 30
0.0
 10
3.5479625638
 20
5.8204370935
 30
0.0
 10
3.5423615368
 20
5.8171403915
 30
0.0
 10
3.5376862743
 20
5.8143675622
 30
0.0
 10
3.5343869125
 20
5.8123879712
 30
0.0
 10
3.5321753147
 20
5.8110370795
 30
0.0
 10
3.5306282788
 20
5.8100714466
 30
0.0
 10
3.5291920955
 20
5.8091433379
 30
0.0
 10
3.5277421959
 20
5.808139533
 30
0.0
 10
3.5262951861
 20
5.8070794997
 30
0.0
 10
3.5246904949
 20
5.8058029103
 30
0.0
 10
3.5224691862
 20
5.8038823962
 30
0.0
 10
3.5187240807
 20
5.800177165
 30
0.0
 10
3.5140883949
 20
5.794157017
 30
0.0
 10
3.5106062273
 20
5.7873828047
 30
0.0
 10
3.5085882367
 20
5.7816544987
 30
0.0
 10
3.5070943846
 20
5.7757648348
 30
0.0
 10
3.5062407736
 20
5.768182873
 30
0.0
 10
3.5067707609
 20
5.7605706773
 30
0.0
 10
3.5080135382
 20
5.7546183069
 30
0.0
 10
3.5097887988
 20
5.7488022069
 30
0.0
 10
3.5117135724
 20
5.7446365381
 30
0.0
 10
3.51323162
 20
5.742006836
 30
0.0
  0
LINE
  5
477
100
AcDbEntity
  8
0
100
AcDbLine
 62
7
  6
CONTINUOUS
 10
3.680760776
 20
5.8971797422
 11
3.6568522506
 21
5.8834328046
  0
LINE
  5
478
100
AcDbEntity
  8
0
100
AcDbLine
 62
7
  6
CONTINUOUS
 10
3.5940487304
 20
5.8471963922
 11
3.5688878668
 21
5.8326285583
  0
LINE
  5
479
100
AcDbEntity
  8
0
100
AcDbLine
 62
7
  6
CONTINUOUS
 10
3.8309142116
 20
5.8318513295
 11
3.9921837359
 21
5.9253952907
  0
SPLINE
  5
47A
100
AcDbEntity
  8
0
100
AcDbSpline
 62
7
  6
CONTINUOUS
 70
0
 71
3
 72
19
 73
15
 74
0
 42
0.0000001
 43
0.0000001
 44
0.0000000001
 40
0.0
 40
0.0
 40
0.0
 40
0.0
 40
0.1731350862
 40
0.349635986
 40
0.5199419988
 40
0.6733155601
 40
0.7404266585
 40
0.8001444146
 40
0.8520377686
 40
0.8957494987
 40
0.9312427988
 40
0.9593841502
 40
0.9816008402
 40
1.0
 40
1.0
 40
1.0
 40
1.0
 10
3.9921842868
 20
5.9253956685
 30
0.0
 10
3.9917384412
 20
5.9261597328
 30
0.0
 10
3.9908089137
 20
5.9276858633
 30
0.0
 10
3.9893396077
 20
5.9299002275
 30
0.0
 10
3.9878266971
 20
5.9319610706
 30
0.0
 10
3.9865583065
 20
5.9335055331
 30
0.0
 10
3.9855807971
 20
5.934552232
 30
0.0
 10
3.9849249386
 20
5.9351882884
 30
0.0
 10
3.9843224407
 20
5.9357057561
 30
0.0
 10
3.9837806433
 20
5.936101295
 30
0.0
 10
3.9833023007
 20
5.9363730411
 30
0.0
 10
3.9828882388
 20
5.9365258092
 30
0.0
 10
3.9825344846
 20
5.9365668111
 30
0.0
 10
3.9823268111
 20
5.9365140052
 30
0.0
 10
3.9822435411
 20
5.9364703699
 30
0.0
  0
SPLINE
  5
47B
100
AcDbEntity
  8
0
100
AcDbSpline
 62
7
  6
CONTINUOUS
 70
0
 71
3
 72
13
 73
9
 74
0
 42
0.0000001
 43
0.0000001
 44
0.0000000001
 40
0.0
 40
0.0
 40
0.0
 40
0.0
 40
0.2954131258
 40
0.5717418657
 40
0.6972620123
 40
0.8116510808
 40
0.9130298829
 40
1.0
 40
1.0
 40
1.0
 40
1.0
 10
3.7384454114
 20
5.7972941654
 30
0.0
 10
3.7623863753
 20
5.8111145458
 30
0.0
 10
3.8087502044
 20
5.8378130624
 30
0.0
 10
3.8653664508
 20
5.8702446757
 30
0.0
 10
3.9073356741
 20
5.894165687
 30
0.0
 10
3.9351080166
 20
5.9099339078
 30
0.0
 10
3.959772351
 20
5.9238698362
 30
0.0
 10
3.9751401133
 20
5.9324996506
 30
0.0
 10
3.9822439055
 20
5.9364706418
 30
0.0
  0
LINE
  5
47C
100
AcDbEntity
  8
0
100
AcDbLine
 62
7
  6
CONTINUOUS
 10
3.6804911715
 20
5.8976952671
 11
3.7390483554
 21
5.9313254237
  0
SPLINE
  5
47D
100
AcDbEntity
  8
0
100
AcDbSpline
 62
7
  6
CONTINUOUS
 70
0
 71
3
 72
21
 73
17
 74
0
 42
0.0000001
 43
0.0000001
 44
0.0000000001
 40
0.0
 40
0.0
 40
0.0
 40
0.0
 40
0.0354092665
 40
0.072588926
 40
0.1127332155
 40
0.1567321723
 40
0.2051532991
 40
0.258286456
 40
0.3162293316
 40
0.3788518283
 40
0.4458704101
 40
0.5169368801
 40
0.591626781
 40
0.6694507074
 40
0.8322989248
 40
1.0
 40
1.0
 40
1.0
 40
1.0
 10
3.5586326004
 20
5.8256925216
 30
0.0
 10
3.5580451296
 20
5.8253382821
 30
0.0
 10
3.5569253001
 20
5.8244629599
 30
0.0
 10
3.5555365278
 20
5.8227578051
 30
0.0
 10
3.554426735
 20
5.8206712194
 30
0.0
 10
3.5536079544
 20
5.8182269242
 30
0.0
 10
3.5530794364
 20
5.8154499165
 30
0.0
 10
3.5528413621
 20
5.8123637473
 30
0.0
 10
3.5528969318
 20
5.8089949155
 30
0.0
 10
3.5532428642
 20
5.8053740208
 30
0.0
 10
3.5538747609
 20
5.801534585
 30
0.0
 10
3.5547893933
 20
5.797512793
 30
0.0
 10
3.5559783622
 20
5.7933455579
 30
0.0
 10
3.5579432721
 20
5.7875581685
 30
0.0
 10
3.561010869
 20
5.7802537662
 30
0.0
 10
3.5639696177
 20
5.7745653424
 30
0.0
 10
3.5655847905
 20
5.7717462731
 30
0.0
  0
SPLINE
  5
47E
100
AcDbEntity
  8
0
100
AcDbSpline
 62
7
  6
CONTINUOUS
 70
0
 71
3
 72
36
 73
32
 74
0
 42
0.0000001
 43
0.0000001
 44
0.0000000001
 40
0.0
 40
0.0
 40
0.0
 40
0.0
 40
0.0313075583
 40
0.0627216768
 40
0.0941884971
 40
0.1256007348
 40
0.1569424778
 40
0.1882354515
 40
0.2507156435
 40
0.2819650025
 40
0.3131718729
 40
0.3443454574
 40
0.3754995737
 40
0.4066449583
 40
0.4377805533
 40
0.4689040299
 40
0.5000199393
 40
0.5311326687
 40
0.5622479682
 40
0.624446368
 40
0.6556198767
 40
0.6868171252
 40
0.7180334877
 40
0.7492747025
 40
0.8117869474
 40
0.8431289263
 40
0.8744837517
 40
0.9058496708
 40
0.9372449737
 40
0.9686535965
 40
1.0
 40
1.0
 40
1.0
 40
1.0
 10
4.1818441301
 20
6.6153904299
 30
0.0
 10
4.1819941564
 20
6.6174131539
 30
0.0
 10
4.1825505096
 20
6.6214500183
 30
0.0
 10
4.184061444
 20
6.6273731732
 30
0.0
 10
4.1861628343
 20
6.6331192968
 30
0.0
 10
4.1887832272
 20
6.6386418489
 30
0.0
 10
4.191910539
 20
6.6438825942
 30
0.0
 10
4.1967260075
 20
6.6504154898
 30
0.0
 10
4.2025027488
 20
6.6561836641
 30
0.0
 10
4.2090127568
 20
6.6610093798
 30
0.0
 10
4.2142249271
 20
6.6641325338
 30
0.0
 10
4.2197102224
 20
6.6667298411
 30
0.0
 10
4.2254197018
 20
6.6687773363
 30
0.0
 10
4.2312998018
 20
6.6702547621
 30
0.0
 10
4.2372936018
 20
6.6711538595
 30
0.0
 10
4.2433449001
 20
6.6714618487
 30
0.0
 10
4.2493954917
 20
6.671177047
 30
0.0
 10
4.2553900462
 20
6.6703052182
 30
0.0
 10
4.2632247346
 20
6.6683677365
 30
0.0
 10
4.2707447368
 20
6.6652863678
 30
0.0
 10
4.2776897647
 20
6.6611566102
 30
0.0
 10
4.2825831322
 20
6.6575595551
 30
0.0
 10
4.2871029474
 20
6.6534961191
 30
0.0
 10
4.2925679058
 20
6.6475092181
 30
0.0
 10
4.2971378307
 20
6.6407422513
 30
0.0
 10
4.3006549088
 20
6.6334217615
 30
0.0
 10
4.3027440686
 20
6.6276857057
 30
0.0
 10
4.3042414489
 20
6.6217639538
 30
0.0
 10
4.3051196436
 20
6.6157161817
 30
0.0
 10
4.3054187414
 20
6.6096157547
 30
0.0
 10
4.305254219
 20
6.6055474059
 30
0.0
 10
4.3050859543
 20
6.6035235921
 30
0.0
  0
SPLINE
  5
47F
100
AcDbEntity
  8
0
100
AcDbSpline
 62
7
  6
CONTINUOUS
 70
0
 71
3
 72
21
 73
17
 74
0
 42
0.0000001
 43
0.0000001
 44
0.0000000001
 40
0.0
 40
0.0
 40
0.0
 40
0.0
 40
0.0354092161
 40
0.0725887883
 40
0.1127329534
 40
0.1567317599
 40
0.2051527324
 40
0.2582857965
 40
0.316228679
 40
0.3788512137
 40
0.4458698671
 40
0.5169364524
 40
0.5916264879
 40
0.6694505321
 40
0.8322988462
 40
1.0
 40
1.0
 40
1.0
 40
1.0
 10
3.6160156211
 20
5.7263024974
 30
0.0
 10
3.6154151078
 20
5.7259708481
 30
0.0
 10
3.6140971465
 20
5.7254386985
 30
0.0
 10
3.6119260572
 20
5.7250885483
 30
0.0
 10
3.6095641276
 20
5.7251707198
 30
0.0
 10
3.6070379181
 20
5.7256837721
 30
0.0
 10
3.6043686996
 20
5.726614554
 30
0.0
 10
3.6015769582
 20
5.7279514529
 30
0.0
 10
3.5986872431
 20
5.7296839913
 30
0.0
 10
3.5957244124
 20
5.7317940233
 30
0.0
 10
3.5927153002
 20
5.7342609815
 30
0.0
 10
3.5896896313
 20
5.7370639784
 30
0.0
 10
3.5866751734
 20
5.7401772811
 30
0.0
 10
3.5826455898
 20
5.7447726475
 30
0.0
 10
3.5778535774
 20
5.7510814772
 30
0.0
 10
3.5744066261
 20
5.7564880517
 30
0.0
 10
3.5727728238
 20
5.7592963724
 30
0.0
  0
LINE
  5
480
100
AcDbEntity
  8
0
100
AcDbLine
 62
7
  6
CONTINUOUS
 10
3.9191361918
 20
6.0519173541
 11
3.7574897653
 21
5.959026255
  0
SPLINE
  5
481
100
AcDbEntity
  8
0
100
AcDbSpline
 62
7
  6
CONTINUOUS
 70
0
 71
3
 72
19
 73
15
 74
0
 42
0.0000001
 43
0.0000001
 44
0.0000000001
 40
0.0
 40
0.0
 40
0.0
 40
0.0
 40
0.0183992904
 40
0.0406163297
 40
0.0687581396
 40
0.1042519351
 40
0.1479641214
 40
0.1998578373
 40
0.2595758538
 40
0.3266871098
 40
0.4800606011
 40
0.6503660503
 40
0.8268660368
 40
1.0
 40
1.0
 40
1.0
 40
1.0
 10
3.9237575721
 20
6.0377714575
 30
0.0
 10
3.9238369951
 20
6.0378217575
 30
0.0
 10
3.9239865588
 20
6.0379752132
 30
0.0
 10
3.9241279208
 20
6.0383020827
 30
0.0
 10
3.9242026455
 20
6.0387370636
 30
0.0
 10
3.9242064727
 20
6.0392872021
 30
0.0
 10
3.9241348205
 20
6.0399541899
 30
0.0
 10
3.9239879258
 20
6.0407347093
 30
0.0
 10
3.9237650115
 20
6.0416207336
 30
0.0
 10
3.9233472962
 20
6.0429906361
 30
0.0
 10
3.9226439484
 20
6.0448613292
 30
0.0
 10
3.9216156652
 20
6.0472019702
 30
0.0
 10
3.9204326299
 20
6.0495816053
 30
0.0
 10
3.9195757321
 20
6.0511496619
 30
0.0
 10
3.9191369591
 20
6.0519178057
 30
0.0
  0
SPLINE
  5
482
100
AcDbEntity
  8
0
100
AcDbSpline
 62
7
  6
CONTINUOUS
 70
0
 71
3
 72
26
 73
22
 74
0
 42
0.0000001
 43
0.0000001
 44
0.0000000001
 40
0.0
 40
0.0
 40
0.0
 40
0.0
 40
0.0627295055
 40
0.0941174063
 40
0.1254935488
 40
0.1881140265
 40
0.2506417763
 40
0.3130727234
 40
0.3754167467
 40
0.437695701
 40
0.4999411829
 40
0.5621875846
 40
0.6244703839
 40
0.6868202069
 40
0.7492589881
 40
0.8117951143
 40
0.8744225155
 40
0.9058004496
 40
0.9371899513
 40
0.9686001132
 40
1.0
 40
1.0
 40
1.0
 40
1.0
 10
4.9344887618
 20
7.1603721574
 30
0.0
 10
4.9304291963
 20
7.1604790131
 30
0.0
 10
4.9243328311
 20
7.1612489954
 30
0.0
 10
4.9164994261
 20
7.1634378938
 30
0.0
 10
4.9089235964
 20
7.1663853614
 30
0.0
 10
4.9000613217
 20
7.1714432102
 30
0.0
 10
4.8908376257
 20
7.1794592016
 30
0.0
 10
4.8833623831
 20
7.1891058396
 30
0.0
 10
4.8779178935
 20
7.20000899
 30
0.0
 10
4.8746978746
 20
7.2117503673
 30
0.0
 10
4.8738255997
 20
7.2238876556
 30
0.0
 10
4.8753282699
 20
7.2359633195
 30
0.0
 10
4.8791550477
 20
7.2475220293
 30
0.0
 10
4.8851625446
 20
7.2581268439
 30
0.0
 10
4.8931335171
 20
7.2673701378
 30
0.0
 10
4.9027663361
 20
7.2748918487
 30
0.0
 10
4.911883153
 20
7.2794784832
 30
0.0
 10
4.9196025879
 20
7.2820249547
 30
0.0
 10
4.9255629013
 20
7.2833566494
 30
0.0
 10
4.9316245797
 20
7.2841016061
 30
0.0
 10
4.9356978033
 20
7.2841980836
 30
0.0
 10
4.9377297776
 20
7.2841415596
 30
0.0
  0
SPLINE
  5
483
100
AcDbEntity
  8
0
100
AcDbSpline
 62
7
  6
CONTINUOUS
 70
0
 71
3
 72
34
 73
30
 74
0
 42
0.0000001
 43
0.0000001
 44
0.0000000001
 40
0.0
 40
0.0
 40
0.0
 40
0.0
 40
0.0000966458
 40
0.0003117576
 40
0.000658301
 40
0.0011387113
 40
0.0025039844
 40
0.004410442
 40
0.0068589188
 40
0.0098497754
 40
0.013383189
 40
0.0174590769
 40
0.0272311086
 40
0.0391476605
 40
0.0531895506
 40
0.0693375101
 40
0.0875722247
 40
0.1078743537
 40
0.1302244592
 40
0.1545964425
 40
0.209254465
 40
0.27153952
 40
0.3411414926
 40
0.41772995
 40
0.5009142663
 40
0.5902927017
 40
0.685457078
 40
0.7858820549
 40
1.0
 40
1.0
 40
1.0
 40
1.0
 10
3.5208419998
 20
5.7288274005
 30
0.0
 10
3.5208410337
 20
5.7288290826
 30
0.0
 10
3.5208449624
 20
5.728835873
 30
0.0
 10
3.5208535645
 20
5.7288443863
 30
0.0
 10
3.5208697418
 20
5.72885858
 30
0.0
 10
3.5209042912
 20
5.7288852797
 30
0.0
 10
3.5209659025
 20
5.7289290678
 30
0.0
 10
3.5210610317
 20
5.7289931352
 30
0.0
 10
3.5211845449
 20
5.7290737475
 30
0.0
 10
3.5213362958
 20
5.7291707014
 30
0.0
 10
3.521516365
 20
5.7292840351
 30
0.0
 10
3.5218125604
 20
5.7294683574
 30
0.0
 10
3.522253258
 20
5.7297389329
 30
0.0
 10
3.5228662062
 20
5.7301112361
 30
0.0
 10
3.523590039
 20
5.7305474858
 30
0.0
 10
3.5244237601
 20
5.731047071
 30
0.0
 10
3.5253663804
 20
5.7316093727
 30
0.0
 10
3.5264169014
 20
5.7322337816
 30
0.0
 10
3.5275742078
 20
5.732919621
 30
0.0
 10
3.5293258707
 20
5.7339550984
 30
0.0
 10
3.5317695794
 20
5.7353950042
 30
0.0
 10
3.5349979992
 20
5.7372914103
 30
0.0
 10
3.5386082309
 20
5.739406881
 30
0.0
 10
3.5425824267
 20
5.741730929
 30
0.0
 10
3.5469011487
 20
5.7442521447
 30
0.0
 10
3.5515436074
 20
5.7469583399
 30
0.0
 10
3.5564866893
 20
5.749835945
 30
0.0
 10
3.5635955992
 20
5.7539695891
 30
0.0
 10
3.5690553547
 20
5.7571395493
 30
0.0
 10
3.5727726344
 20
5.7592962631
 30
0.0
  0
LINE
  5
484
100
AcDbEntity
  8
0
100
AcDbLine
 62
7
  6
CONTINUOUS
 10
4.0131671722
 20
6.0218581246
 11
4.0173757026
 21
6.0145754064
  0
SPLINE
  5
485
100
AcDbEntity
  8
0
100
AcDbSpline
 62
7
  6
CONTINUOUS
 70
0
 71
3
 72
22
 73
18
 74
0
 42
0.0000001
 43
0.0000001
 44
0.0000000001
 40
0.0
 40
0.0
 40
0.0
 40
0.0
 40
0.1262222318
 40
0.1894406302
 40
0.2525072562
 40
0.3154462544
 40
0.3782763331
 40
0.4409779862
 40
0.5035175116
 40
0.5659106113
 40
0.6282122674
 40
0.6904164756
 40
0.7524879167
 40
0.8144315397
 40
0.8763144323
 40
0.9382018974
 40
1.0
 40
1.0
 40
1.0
 40
1.0
 10
4.0173940637
 20
6.0145862094
 30
0.0
 10
4.0195892693
 20
6.0108530586
 30
0.0
 10
4.0222525332
 20
6.0048510998
 30
0.0
 10
4.0245161504
 20
5.9964795117
 30
0.0
 10
4.025576367
 20
5.9900620855
 30
0.0
 10
4.0259898078
 20
5.9835857273
 30
0.0
 10
4.0257540327
 20
5.977112612
 30
0.0
 10
4.0248746305
 20
5.9707090897
 30
0.0
 10
4.0233564543
 20
5.9644412606
 30
0.0
 10
4.0212113554
 20
5.9583744265
 30
0.0
 10
4.0184914591
 20
5.952556595
 30
0.0
 10
4.0152457247
 20
5.9470281935
 30
0.0
 10
4.011505926
 20
5.9418361421
 30
0.0
 10
4.0072891042
 20
5.9370364287
 30
0.0
 10
4.0026125199
 20
5.9326932589
 30
0.0
 10
3.997563894
 20
5.9288016186
 30
0.0
 10
3.9940016038
 20
5.9264866699
 30
0.0
 10
3.9921837335
 20
5.9253952891
 30
0.0
  0
SPLINE
  5
486
100
AcDbEntity
  8
0
100
AcDbSpline
 62
7
  6
CONTINUOUS
 70
0
 71
3
 72
19
 73
15
 74
0
 42
0.0000001
 43
0.0000001
 44
0.0000000001
 40
0.0
 40
0.0
 40
0.0
 40
0.0
 40
0.1731358365
 40
0.3496374237
 40
0.5199439999
 40
0.6733179554
 40
0.7404291663
 40
0.8001469662
 40
0.8520402811
 40
0.8957518673
 40
0.9312448861
 40
0.9593857742
 40
0.9816017691
 40
1.0
 40
1.0
 40
1.0
 40
1.0
 10
3.9921842467
 20
5.9253956451
 30
0.0
 10
3.9917383997
 20
5.9261597078
 30
0.0
 10
3.9908088715
 20
5.9276858356
 30
0.0
 10
3.9893395703
 20
5.9299001987
 30
0.0
 10
3.9878266714
 20
5.9319610444
 30
0.0
 10
3.9865582958
 20
5.9335055127
 30
0.0
 10
3.9855808016
 20
5.9345522195
 30
0.0
 10
3.9849249554
 20
5.9351882825
 30
0.0
 10
3.9843224705
 20
5.9357057579
 30
0.0
 10
3.9837806868
 20
5.9361013054
 30
0.0
 10
3.9833023584
 20
5.9363730613
 30
0.0
 10
3.982888311
 20
5.9365258402
 30
0.0
 10
3.9825345711
 20
5.9365668548
 30
0.0
 10
3.9823269047
 20
5.9365140579
 30
0.0
 10
3.9822436386
 20
5.9364704265
 30
0.0
  0
LINE
  5
487
100
AcDbEntity
  8
0
100
AcDbLine
 62
7
  6
CONTINUOUS
 10
3.9822439055
 20
5.9364706418
 11
3.8205288851
 21
5.8426682848
  0
LINE
  5
488
100
AcDbEntity
  8
0
100
AcDbLine
 62
7
  6
CONTINUOUS
 10
3.8200763988
 20
5.8424635576
 11
3.7977044786
 21
5.8297307938
  0
LINE
  5
489
100
AcDbEntity
  8
0
100
AcDbLine
 62
7
  6
CONTINUOUS
 10
3.7977044786
 20
5.8297307938
 11
3.7393009842
 21
5.7958336877
  0
SPLINE
  5
48A
100
AcDbEntity
  8
0
100
AcDbSpline
 62
7
  6
CONTINUOUS
 70
0
 71
3
 72
53
 73
49
 74
0
 42
0.0000001
 43
0.0000001
 44
0.0000000001
 40
0.0
 40
0.0
 40
0.0
 40
0.0
 40
0.1086185628
 40
0.2116877211
 40
0.3060583172
 40
0.349258997
 40
0.3894632703
 40
0.4264240466
 40
0.4599279974
 40
0.4897708482
 40
0.5157483797
 40
0.5272259494
 40
0.5376739051
 40
0.5470803931
 40
0.5554335839
 40
0.5627216869
 40
0.5689329781
 40
0.5740558591
 40
0.5780789975
 40
0.5809939094
 40
0.582803121
 40
0.5832981852
 40
0.583447148
 40
0.5835375924
 40
0.5835992124
 40
0.5836942536
 40
0.5838487849
 40
0.5840686274
 40
0.5843556421
 40
0.5847106247
 40
0.5856258836
 40
0.5868160619
 40
0.5882817408
 40
0.5900231556
 40
0.5920403846
 40
0.5969022055
 40
0.602864056
 40
0.6099124609
 40
0.6180314942
 40
0.6272051503
 40
0.6374173793
 40
0.6486521036
 40
0.6741246371
 40
0.7034836501
 40
0.7365515888
 40
0.813067834
 40
0.9018765579
 40
1.0
 40
1.0
 40
1.0
 40
1.0
 10
3.6272196285
 20
5.7317579383
 30
0.0
 10
3.6248851826
 20
5.7304154613
 30
0.0
 10
3.620333888
 20
5.7278020001
 30
0.0
 10
3.6137481353
 20
5.7240330257
 30
0.0
 10
3.6085647117
 20
5.7210789737
 30
0.0
 10
3.6047317367
 20
5.7189030924
 30
0.0
 10
3.602134722
 20
5.7174331212
 30
0.0
 10
3.5997449608
 20
5.7160850456
 30
0.0
 10
3.597576835
 20
5.7148669254
 30
0.0
 10
3.5956438052
 20
5.7137862948
 30
0.0
 10
3.5941852338
 20
5.7129760888
 30
0.0
 10
3.5931453287
 20
5.7124024282
 30
0.0
 10
3.592464306
 20
5.7120287596
 30
0.0
 10
3.5918502727
 20
5.7116940335
 30
0.0
 10
3.5913040194
 20
5.7113986618
 30
0.0
 10
3.5908263149
 20
5.7111430477
 30
0.0
 10
3.5904180078
 20
5.7109275874
 30
0.0
 10
3.5900797354
 20
5.7107526415
 30
0.0
 10
3.5898127035
 20
5.7106185218
 30
0.0
 10
3.5896163811
 20
5.7105251766
 30
0.0
 10
3.5894983542
 20
5.7104741809
 30
0.0
 10
3.5894394739
 20
5.7104550817
 30
0.0
 10
3.5894219144
 20
5.7104529611
 30
0.0
 10
3.5894136156
 20
5.7104533176
 30
0.0
 10
3.5894104654
 20
5.7104596595
 30
0.0
 10
3.5894146717
 20
5.710466949
 30
0.0
 10
3.5894214985
 20
5.7104759915
 30
0.0
 10
3.5894331761
 20
5.7104877622
 30
0.0
 10
3.5894489761
 20
5.7105020573
 30
0.0
 10
3.5894786885
 20
5.7105267737
 30
0.0
 10
3.5895271649
 20
5.7105637969
 30
0.0
 10
3.5895990096
 20
5.7106155615
 30
0.0
 10
3.5896886342
 20
5.7106776349
 30
0.0
 10
3.589796051
 20
5.710750016
 30
0.0
 10
3.5899744238
 20
5.7108677518
 30
0.0
 10
3.5902420853
 20
5.7110401325
 30
0.0
 10
3.5906167251
 20
5.7112767339
 30
0.0
 10
3.5910613954
 20
5.7115536621
 30
0.0
 10
3.5915751274
 20
5.7118703115
 30
0.0
 10
3.59215691
 20
5.7122260386
 30
0.0
 10
3.5928057211
 20
5.7126202139
 30
0.0
 10
3.5938012975
 20
5.7132218697
 30
0.0
 10
3.5952056965
 20
5.7140648175
 30
0.0
 10
3.5970773673
 20
5.7151810613
 30
0.0
 10
3.6000398266
 20
5.7169389584
 30
0.0
 10
3.6042767558
 20
5.7194373193
 30
0.0
 10
3.6099113289
 20
5.7227407888
 30
0.0
 10
3.6139137024
 20
5.7250774242
 30
0.0
 10
3.6160155016
 20
5.7263024223
 30
0.0
  0
LINE
  5
48B
100
AcDbEntity
  8
0
100
AcDbLine
 62
7
  6
CONTINUOUS
 10
3.6160155016
 20
5.7263024223
 11
3.6266230911
 21
5.7324802419
  0
LINE
  5
48C
100
AcDbEntity
  8
0
100
AcDbLine
 62
7
  6
CONTINUOUS
 10
3.6266230911
 20
5.7324802419
 11
3.6345493502
 21
5.7370928317
  0
LINE
  5
48D
100
AcDbEntity
  8
0
100
AcDbLine
 62
7
  6
CONTINUOUS
 10
3.731452397
 20
5.7932563308
 11
3.7384559968
 21
5.797300276
  0
SPLINE
  5
48E
100
AcDbEntity
  8
0
100
AcDbSpline
 62
7
  6
CONTINUOUS
 70
0
 71
3
 72
15
 73
11
 74
0
 42
0.0000001
 43
0.0000001
 44
0.0000000001
 40
0.0
 40
0.0
 40
0.0
 40
0.0
 40
0.1162351473
 40
0.2396667748
 40
0.3688009721
 40
0.5006164433
 40
0.6323242917
 40
0.7611700972
 40
0.8841985889
 40
1.0
 40
1.0
 40
1.0
 40
1.0
 10
3.8151562212
 20
5.8216171917
 30
0.0
 10
3.8146490445
 20
5.8223931924
 30
0.0
 10
3.813753704
 20
5.8240965247
 30
0.0
 10
3.8128992025
 20
5.8269315141
 30
0.0
 10
3.81264362
 20
5.8300085644
 30
0.0
 10
3.8130219456
 20
5.8331416986
 30
0.0
 10
3.8140834718
 20
5.8361113185
 30
0.0
 10
3.8156862943
 20
5.8387430978
 30
0.0
 10
3.8177161144
 20
5.8408867609
 30
0.0
 10
3.8192769363
 20
5.842001105
 30
0.0
 10
3.8200764279
 20
5.842463508
 30
0.0
  0
SPLINE
  5
48F
100
AcDbEntity
  8
0
100
AcDbSpline
 62
7
  6
CONTINUOUS
 70
0
 71
3
 72
15
 73
11
 74
0
 42
0.0000001
 43
0.0000001
 44
0.0000000001
 40
0.0
 40
0.0
 40
0.0
 40
0.0
 40
0.1158010706
 40
0.2388290886
 40
0.3676743794
 40
0.4993818562
 40
0.6311971486
 40
0.7603315846
 40
0.8837638181
 40
1.0
 40
1.0
 40
1.0
 40
1.0
 10
3.761261506
 20
5.9443339422
 30
0.0
 10
3.7604613244
 20
5.9438727734
 30
0.0
 10
3.7587159032
 20
5.9430782481
 30
0.0
 10
3.7558445947
 20
5.9423922004
 30
0.0
 10
3.7527640648
 20
5.9423199742
 30
0.0
 10
3.749661593
 20
5.942885415
 30
0.0
 10
3.7467590879
 20
5.9441242608
 30
0.0
 10
3.7442220776
 20
5.9458840384
 30
0.0
 10
3.7421941235
 20
5.9480414688
 30
0.0
 10
3.7411666309
 20
5.9496684749
 30
0.0
 10
3.7407481616
 20
5.9504956825
 30
0.0
  0
LINE
  5
490
100
AcDbEntity
  8
0
100
AcDbLine
 62
7
  6
CONTINUOUS
 10
3.6804911721
 20
5.8976952671
 11
3.7390483554
 21
5.9313254237
  0
LINE
  5
491
100
AcDbEntity
  8
0
100
AcDbLine
 62
7
  6
CONTINUOUS
 10
3.7390483554
 20
5.9313254237
 11
3.7612631857
 21
5.9443348455
  0
LINE
  5
492
100
AcDbEntity
  8
0
100
AcDbLine
 62
7
  6
CONTINUOUS
 10
3.7616650753
 20
5.9446233943
 11
3.923757812
 21
6.037771533
  0
SPLINE
  5
493
100
AcDbEntity
  8
0
100
AcDbSpline
 62
7
  6
CONTINUOUS
 70
0
 71
3
 72
13
 73
9
 74
0
 42
0.0000001
 43
0.0000001
 44
0.0000000001
 40
0.0
 40
0.0
 40
0.0
 40
0.0
 40
0.0869699149
 40
0.1883487002
 40
0.3027378823
 40
0.4282583349
 40
0.7045876623
 40
1.0
 40
1.0
 40
1.0
 40
1.0
 10
3.923757812
 20
6.037771533
 30
0.0
 10
3.9167666449
 20
6.0336047907
 30
0.0
 10
3.9016084746
 20
6.0246104412
 30
0.0
 10
3.8772063717
 20
6.0102178396
 30
0.0
 10
3.8496632733
 20
5.9940496686
 30
0.0
 10
3.8079605362
 20
5.9696626471
 30
0.0
 10
3.7515633127
 20
5.9368459094
 30
0.0
 10
3.7052577745
 20
5.9100417563
 30
0.0
 10
3.6813174971
 20
5.8962178999
 30
0.0
  0
LINE
  5
494
100
AcDbEntity
  8
0
100
AcDbLine
 62
7
  6
CONTINUOUS
 10
3.6813174971
 20
5.8962178999
 11
3.6743348547
 21
5.8921868863
  0
LINE
  5
495
100
AcDbEntity
  8
0
100
AcDbLine
 62
7
  6
CONTINUOUS
 10
3.5772442716
 20
5.8363481117
 11
3.569286535
 21
5.8317900717
  0
LINE
  5
496
100
AcDbEntity
  8
0
100
AcDbLine
 62
7
  6
CONTINUOUS
 10
3.569286535
 20
5.8317900717
 11
3.5586325386
 21
5.8256925087
  0
SPLINE
  5
497
100
AcDbEntity
  8
0
100
AcDbSpline
 62
7
  6
CONTINUOUS
 70
0
 71
3
 72
53
 73
49
 74
0
 42
0.0000001
 43
0.0000001
 44
0.0000000001
 40
0.0
 40
0.0
 40
0.0
 40
0.0
 40
0.0981227624
 40
0.1869313318
 40
0.2634476865
 40
0.2965156892
 40
0.3258747589
 40
0.3513473195
 40
0.3625820446
 40
0.3727942701
 40
0.3819679216
 40
0.390086952
 40
0.3971353593
 40
0.4030972202
 40
0.4079590518
 40
0.4099762823
 40
0.4117176966
 40
0.4131833734
 40
0.4143735483
 40
0.4152888028
 40
0.415643783
 40
0.4159307953
 40
0.4161506352
 40
0.4163051641
 40
0.4164002034
 40
0.4164618234
 40
0.4165522695
 40
0.4167012344
 40
0.4171963024
 40
0.4190055177
 40
0.4219204258
 40
0.4259435611
 40
0.4310664478
 40
0.4372777506
 40
0.4445658684
 40
0.4529190743
 40
0.4623255749
 40
0.4727735378
 40
0.4842511064
 40
0.5102286446
 40
0.5400715238
 40
0.5735755049
 40
0.6105362931
 40
0.6507405604
 40
0.6939412309
 40
0.7883118082
 40
0.8913810821
 40
1.0
 40
1.0
 40
1.0
 40
1.0
 10
3.5586325386
 20
5.8256925087
 30
0.0
 10
3.5565207751
 20
5.8244848058
 30
0.0
 10
3.5524960226
 20
5.8221869785
 30
0.0
 10
3.5468178662
 20
5.8189590408
 30
0.0
 10
3.5425357597
 20
5.816538934
 30
0.0
 10
3.5395321433
 20
5.8148523157
 30
0.0
 10
3.5376296102
 20
5.8137895219
 30
0.0
 10
3.5361973955
 20
5.81299475
 30
0.0
 10
3.5351785581
 20
5.8124333835
 30
0.0
 10
3.5345127873
 20
5.8120685846
 30
0.0
 10
3.5339138278
 20
5.81174261
 30
0.0
 10
3.5333827358
 20
5.8114560299
 30
0.0
 10
3.5329205739
 20
5.8112093983
 30
0.0
 10
3.5325283509
 20
5.8110032513
 30
0.0
 10
3.5322452337
 20
5.8108576397
 30
0.0
 10
3.532054085
 20
5.8107620322
 30
0.0
 10
3.5319376928
 20
5.8107051971
 30
0.0
 10
3.5318391235
 20
5.8106586168
 30
0.0
 10
3.531758372
 20
5.8106222798
 30
0.0
 10
3.531702071
 20
5.8105988097
 30
0.0
 10
3.53166581
 20
5.8105854364
 30
0.0
 10
3.5316455302
 20
5.8105789009
 30
0.0
 10
3.5316294979
 20
5.8105746732
 30
0.0
 10
3.5316182537
 20
5.8105732823
 30
0.0
 10
3.5316098377
 20
5.8105732845
 30
0.0
 10
3.5316059208
 20
5.8105791837
 30
0.0
 10
3.5316097616
 20
5.8105865489
 30
0.0
 10
3.531620378
 20
5.8106006958
 30
0.0
 10
3.5316663587
 20
5.810642138
 30
0.0
 10
3.5317695357
 20
5.8107188545
 30
0.0
 10
3.5319485361
 20
5.810842202
 30
0.0
 10
3.5321982029
 20
5.8110063985
 30
0.0
 10
3.5325188469
 20
5.8112118781
 30
0.0
 10
3.5329095949
 20
5.8114577526
 30
0.0
 10
3.5333698162
 20
5.81174365
 30
0.0
 10
3.5338987428
 20
5.8120690338
 30
0.0
 10
3.5344956412
 20
5.8124334394
 30
0.0
 10
3.535159759
 20
5.8128363881
 30
0.0
 10
3.5361765159
 20
5.8134501419
 30
0.0
 10
3.5376074605
 20
5.8143081987
 30
0.0
 10
3.5395098293
 20
5.8154419365
 30
0.0
 10
3.5416488156
 20
5.8167105286
 30
0.0
 10
3.5440111633
 20
5.8181060843
 30
0.0
 10
3.5465827016
 20
5.8196201785
 30
0.0
 10
3.5503835546
 20
5.8218516899
 30
0.0
 10
3.5555335494
 20
5.8248636399
 30
0.0
 10
3.5620904594
 20
5.8286825853
 30
0.0
 10
3.5666294383
 20
5.8313173953
 30
0.0
 10
3.5689592869
 20
5.8326678495
 30
0.0
  0
LINE
  5
498
100
AcDbEntity
  8
0
100
AcDbLine
 62
7
  6
CONTINUOUS
 10
3.7349172302
 20
5.9457551992
 11
3.6738033965
 21
5.9106566498
  0
LINE
  5
499
100
AcDbEntity
  8
0
100
AcDbLine
 62
7
  6
CONTINUOUS
 10
3.7471820916
 20
5.7835610429
 11
3.8081351343
 21
5.8189380689
  0
SPLINE
  5
49A
100
AcDbEntity
  8
0
100
AcDbSpline
 62
7
  6
CONTINUOUS
 70
0
 71
3
 72
21
 73
17
 74
0
 42
0.0000001
 43
0.0000001
 44
0.0000000001
 40
0.0
 40
0.0
 40
0.0
 40
0.0
 40
0.0354092704
 40
0.0725889196
 40
0.1127331896
 40
0.1567321225
 40
0.2051532249
 40
0.2582863599
 40
0.3162292181
 40
0.3788517029
 40
0.4458702789
 40
0.5169367497
 40
0.5916266581
 40
0.6694505984
 40
0.8322988614
 40
1.0
 40
1.0
 40
1.0
 40
1.0
 10
3.5586326041
 20
5.8256925153
 30
0.0
 10
3.5580451321
 20
5.8253382772
 30
0.0
 10
3.5569253
 20
5.8244629577
 30
0.0
 10
3.5555365236
 20
5.8227578058
 30
0.0
 10
3.5544267271
 20
5.8206712225
 30
0.0
 10
3.553607943
 20
5.8182269289
 30
0.0
 10
3.5530794219
 20
5.8154499223
 30
0.0
 10
3.5528413447
 20
5.8123637536
 30
0.0
 10
3.5528969119
 20
5.8089949216
 30
0.0
 10
3.5532428422
 20
5.8053740264
 30
0.0
 10
3.553874737
 20
5.8015345893
 30
0.0
 10
3.5547893681
 20
5.7975127956
 30
0.0
 10
3.5559783359
 20
5.7933455584
 30
0.0
 10
3.5579432449
 20
5.7875581654
 30
0.0
 10
3.5610108419
 20
5.7802537578
 30
0.0
 10
3.5639695914
 20
5.7745653298
 30
0.0
 10
3.5655847647
 20
5.7717462581
 30
0.0
  0
SPLINE
  5
49B
100
AcDbEntity
  8
0
100
AcDbSpline
 62
7
  6
CONTINUOUS
 70
0
 71
3
 72
17
 73
13
 74
0
 42
0.0000001
 43
0.0000001
 44
0.0000000001
 40
0.0
 40
0.0
 40
0.0
 40
0.0
 40
0.1239513686
 40
0.2479728462
 40
0.3721716764
 40
0.434486512
 40
0.4968776041
 40
0.6217802402
 40
0.7472368861
 40
0.8102192206
 40
0.8733539173
 40
1.0
 40
1.0
 40
1.0
 40
1.0
 10
4.0036735101
 20
6.0066376066
 30
0.0
 10
4.00536201
 20
6.0037248406
 30
0.0
 10
4.0081162893
 20
5.9975124001
 30
0.0
 10
4.0102112777
 20
5.9875506663
 30
0.0
 10
4.0101652756
 20
5.9790486476
 30
0.0
 10
4.0091032324
 20
5.9723624392
 30
0.0
 10
4.0073708874
 20
5.9657966256
 30
0.0
 10
4.0039678762
 20
5.9579495996
 30
0.0
 10
3.9991380133
 20
5.9508785833
 30
0.0
 10
3.9945349771
 20
5.9458166481
 30
0.0
 10
3.989472852
 20
5.9411687124
 30
0.0
 10
3.9852210912
 20
5.9381939043
 30
0.0
 10
3.982243908
 20
5.9364705838
 30
0.0
  0
SPLINE
  5
49C
100
AcDbEntity
  8
0
100
AcDbSpline
 62
7
  6
CONTINUOUS
 70
0
 71
3
 72
21
 73
17
 74
0
 42
0.0000001
 43
0.0000001
 44
0.0000000001
 40
0.0
 40
0.0
 40
0.0
 40
0.0
 40
0.0354092161
 40
0.0725887919
 40
0.1127329628
 40
0.1567317759
 40
0.2051527547
 40
0.258285824
 40
0.3162287104
 40
0.3788512472
 40
0.4458699011
 40
0.5169364851
 40
0.5916265178
 40
0.6694505578
 40
0.83229886
 40
1.0
 40
1.0
 40
1.0
 40
1.0
 10
3.6160156204
 20
5.7263024987
 30
0.0
 10
3.6154151069
 20
5.7259708499
 30
0.0
 10
3.6140971453
 20
5.7254387013
 30
0.0
 10
3.611926056
 20
5.7250885524
 30
0.0
 10
3.6095641265
 20
5.725170725
 30
0.0
 10
3.6070379171
 20
5.7256837782
 30
0.0
 10
3.6043686989
 20
5.7266145608
 30
0.0
 10
3.6015769578
 20
5.7279514603
 30
0.0
 10
3.5986872433
 20
5.729683999
 30
0.0
 10
3.5957244131
 20
5.7317940311
 30
0.0
 10
3.5927153015
 20
5.7342609893
 30
0.0
 10
3.5896896333
 20
5.7370639859
 30
0.0
 10
3.5866751761
 20
5.7401772883
 30
0.0
 10
3.5826455934
 20
5.7447726539
 30
0.0
 10
3.5778535822
 20
5.7510814824
 30
0.0
 10
3.5744066317
 20
5.7564880557
 30
0.0
 10
3.5727728297
 20
5.7592963758
 30
0.0
  0
SPLINE
  5
49D
100
AcDbEntity
  8
0
100
AcDbSpline
 62
7
  6
CONTINUOUS
 70
0
 71
3
 72
16
 73
12
 74
0
 42
0.0000001
 43
0.0000001
 44
0.0000000001
 40
0.0
 40
0.0
 40
0.0
 40
0.0
 40
0.1365225496
 40
0.2795637371
 40
0.4241093795
 40
0.5650926208
 40
0.6975715784
 40
0.8169026741
 40
0.9189036373
 40
0.9622749827
 40
1.0
 40
1.0
 40
1.0
 40
1.0
 10
3.5727726344
 20
5.7592962631
 30
0.0
 10
3.5923138511
 20
5.7706700669
 30
0.0
 10
3.6323509198
 20
5.7939236676
 30
0.0
 10
3.6931401066
 20
5.829111717
 30
0.0
 10
3.754618851
 20
5.8645830254
 30
0.0
 10
3.8146316185
 20
5.8990947483
 30
0.0
 10
3.8710745336
 20
5.9314373314
 30
0.0
 10
3.9219684811
 20
5.9604780676
 30
0.0
 10
3.9600948553
 20
5.9821169027
 30
0.0
 10
3.9865057707
 20
5.9970163321
 30
0.0
 10
3.9982184432
 20
6.0035890298
 30
0.0
 10
4.0036723978
 20
6.0066369657
 30
0.0
  0
SPLINE
  5
49E
100
AcDbEntity
  8
0
100
AcDbSpline
 62
7
  6
CONTINUOUS
 70
0
 71
3
 72
20
 73
16
 74
0
 42
0.0000001
 43
0.0000001
 44
0.0000000001
 40
0.0
 40
0.0
 40
0.0
 40
0.0
 40
0.1262666552
 40
0.2523964527
 40
0.378054473
 40
0.4407664889
 40
0.503307955
 40
0.5657173104
 40
0.6280522366
 40
0.6902977354
 40
0.752399305
 40
0.8143503038
 40
0.876240447
 40
0.9381624788
 40
1.0
 40
1.0
 40
1.0
 40
1.0
 10
4.0089829545
 20
6.0291546777
 30
0.0
 10
4.006836309
 20
6.032915911
 30
0.0
 10
4.0017029231
 20
6.0399824379
 30
0.0
 10
3.9920437665
 20
6.0487539786
 30
0.0
 10
3.9827087623
 20
6.0543148323
 30
0.0
 10
3.9747303893
 20
6.0575719942
 30
0.0
 10
3.9685434151
 20
6.059389357
 30
0.0
 10
3.962217279
 20
6.0605632406
 30
0.0
 10
3.9558184849
 20
6.061118735
 30
0.0
 10
3.9494066308
 20
6.0610801973
 30
0.0
 10
3.9430391959
 20
6.0604414377
 30
0.0
 10
3.9367762179
 20
6.0591793685
 30
0.0
 10
3.9306850912
 20
6.0572756095
 30
0.0
 10
3.9247943852
 20
6.0548406014
 30
0.0
 10
3.9210000581
 20
6.0529293986
 30
0.0
 10
3.9191361892
 20
6.0519173528
 30
0.0
  0
SPLINE
  5
49F
100
AcDbEntity
  8
0
100
AcDbSpline
 62
7
  6
CONTINUOUS
 70
0
 71
3
 72
19
 73
15
 74
0
 42
0.0000001
 43
0.0000001
 44
0.0000000001
 40
0.0
 40
0.0
 40
0.0
 40
0.0
 40
0.018398359
 40
0.0406147011
 40
0.0687560462
 40
0.1042495595
 40
0.1479616013
 40
0.1998552778
 40
0.2595733381
 40
0.326684707
 40
0.4800585938
 40
0.6503646083
 40
0.8268652843
 40
1.0
 40
1.0
 40
1.0
 40
1.0
 10
3.92375767
 20
6.0377715137
 30
0.0
 10
3.9238370876
 20
6.0378218123
 30
0.0
 10
3.92398664
 20
6.0379752663
 30
0.0
 10
3.9241279839
 20
6.0383021298
 30
0.0
 10
3.9242026918
 20
6.0387371035
 30
0.0
 10
3.9242065035
 20
6.0392872346
 30
0.0
 10
3.9241348369
 20
6.0399542148
 30
0.0
 10
3.9239879291
 20
6.0407347268
 30
0.0
 10
3.9237650028
 20
6.0416207437
 30
0.0
 10
3.9233472731
 20
6.042990637
 30
0.0
 10
3.9226439128
 20
6.04486132
 30
0.0
 10
3.9216156215
 20
6.0472019522
 30
0.0
 10
3.9204325847
 20
6.0495815825
 30
0.0
 10
3.9195756895
 20
6.0511496383
 30
0.0
 10
3.9191369187
 20
6.0519177825
 30
0.0
  0
SPLINE
  5
4A0
100
AcDbEntity
  8
0
100
AcDbSpline
 62
7
  6
CONTINUOUS
 70
0
 71
3
 72
17
 73
13
 74
0
 42
0.0000001
 43
0.0000001
 44
0.0000000001
 40
0.0
 40
0.0
 40
0.0
 40
0.0
 40
0.1266459719
 40
0.1897810232
 40
0.2527636677
 40
0.3782203293
 40
0.5031228072
 40
0.5655140261
 40
0.6278290603
 40
0.7520278201
 40
0.876048077
 40
1.0
 40
1.0
 40
1.0
 40
1.0
 10
3.9237577614
 20
6.0377715638
 30
0.0
 10
3.9267387904
 20
6.0394882164
 30
0.0
 10
3.9314409408
 20
6.0416829368
 30
0.0
 10
3.9379972466
 20
6.0437429037
 30
0.0
 10
3.9446825443
 20
6.0451982961
 30
0.0
 10
3.9532211596
 20
6.0458455849
 30
0.0
 10
3.9617183875
 20
6.0448691417
 30
0.0
 10
3.9682707164
 20
6.0430864564
 30
0.0
 10
3.9745921602
 20
6.0406630809
 30
0.0
 10
3.9819780984
 20
6.0364519357
 30
0.0
 10
3.9895577491
 20
6.029656818
 30
0.0
 10
3.9935607089
 20
6.0241653163
 30
0.0
 10
3.9952389857
 20
6.021246631
 30
0.0
  0
SPLINE
  5
4A1
100
AcDbEntity
  8
0
100
AcDbSpline
 62
7
  6
CONTINUOUS
 70
0
 71
3
 72
16
 73
12
 74
0
 42
0.0000001
 43
0.0000001
 44
0.0000000001
 40
0.0
 40
0.0
 40
0.0
 40
0.0
 40
0.0377250182
 40
0.0810963657
 40
0.1830973324
 40
0.3024284299
 40
0.4349073879
 40
0.575890628
 40
0.7204362683
 40
0.8634774525
 40
1.0
 40
1.0
 40
1.0
 40
1.0
 10
3.9952378753
 20
6.0212459884
 30
0.0
 10
3.9898713081
 20
6.0180466927
 30
0.0
 10
3.9783228486
 20
6.0111895686
 30
0.0
 10
3.9522141062
 20
5.9957667581
 30
0.0
 10
3.914411137
 20
5.9735677665
 30
0.0
 10
3.8638141475
 20
5.9440126822
 30
0.0
 10
3.8075831911
 20
5.9113029753
 30
0.0
 10
3.7476887788
 20
5.876586256
 30
0.0
 10
3.6862303529
 20
5.8410797567
 30
0.0
 10
3.6253620154
 20
5.8060288028
 30
0.0
 10
3.5852052724
 20
5.7829824857
 30
0.0
 10
3.5655846611
 20
5.7717461981
 30
0.0
  0
SPLINE
  5
4A2
100
AcDbEntity
  8
0
100
AcDbSpline
 62
7
  6
CONTINUOUS
 70
0
 71
3
 72
19
 73
15
 74
0
 42
0.0000001
 43
0.0000001
 44
0.0000000001
 40
0.0
 40
0.0
 40
0.0
 40
0.0
 40
0.1819193872
 40
0.3583140256
 40
0.5214252117
 40
0.6656321559
 40
0.7292177345
 40
0.7865946345
 40
0.8375514022
 40
0.8820376593
 40
0.9202298211
 40
0.9523194465
 40
0.9786257604
 40
1.0
 40
1.0
 40
1.0
 40
1.0
 10
3.7574908258
 20
5.9590262547
 30
0.0
 10
3.7580086134
 20
5.9582384287
 30
0.0
 10
3.7589138238
 20
5.9566108407
 30
0.0
 10
3.7600128675
 20
5.9541413483
 30
0.0
 10
3.7609462691
 20
5.951814344
 30
0.0
 10
3.7615716251
 20
5.9499951639
 30
0.0
 10
3.7619392532
 20
5.9486706313
 30
0.0
 10
3.7621328486
 20
5.9478004454
 30
0.0
 10
3.7622511735
 20
5.9470165902
 30
0.0
 10
3.7622894881
 20
5.9463235731
 30
0.0
 10
3.7622415189
 20
5.9457285537
 30
0.0
 10
3.7621187064
 20
5.9452402332
 30
0.0
 10
3.7619348131
 20
5.9448660788
 30
0.0
 10
3.7617588026
 20
5.9446825924
 30
0.0
 10
3.761665149
 20
5.9446234471
 30
0.0
  0
SPLINE
  5
4A3
100
AcDbEntity
  8
0
100
AcDbSpline
 62
7
  6
CONTINUOUS
 70
0
 71
3
 72
11
 73
7
 74
0
 42
0.0000001
 43
0.0000001
 44
0.0000000001
 40
0.0
 40
0.0
 40
0.0
 40
0.0
 40
0.2495184502
 40
0.4993680307
 40
0.7495910566
 40
1.0
 40
1.0
 40
1.0
 40
1.0
 10
3.7616650751
 20
5.9446233942
 30
0.0
 10
3.75994957
 20
5.9436347099
 30
0.0
 10
3.7560635989
 20
5.942348217
 30
0.0
 10
3.7499790492
 20
5.9428970773
 30
0.0
 10
3.7445947241
 20
5.945796685
 30
0.0
 10
3.7420485343
 20
5.9490125108
 30
0.0
 10
3.741151605
 20
5.9507856451
 30
0.0
  0
SPLINE
  5
4A4
100
AcDbEntity
  8
0
100
AcDbSpline
 62
7
  6
CONTINUOUS
 70
0
 71
3
 72
11
 73
7
 74
0
 42
0.0000001
 43
0.0000001
 44
0.0000000001
 40
0.0
 40
0.0
 40
0.0
 40
0.0
 40
0.250314117
 40
0.5006677598
 40
0.7504768888
 40
1.0
 40
1.0
 40
1.0
 40
1.0
 10
3.8156088192
 20
5.8218219752
 30
0.0
 10
3.8145210779
 20
5.8234840228
 30
0.0
 10
3.813007351
 20
5.827297405
 30
0.0
 10
3.8131929673
 20
5.8334099019
 30
0.0
 10
3.8157568627
 20
5.8389555427
 30
0.0
 10
3.8188148227
 20
5.8416769833
 30
0.0
 10
3.8205288846
 20
5.8426682845
 30
0.0
  0
SPLINE
  5
4A5
100
AcDbEntity
  8
0
100
AcDbSpline
 62
7
  6
CONTINUOUS
 70
0
 71
3
 72
19
 73
15
 74
0
 42
0.0000001
 43
0.0000001
 44
0.0000000001
 40
0.0
 40
0.0
 40
0.0
 40
0.0
 40
0.0228198131
 40
0.0490082783
 40
0.0804499956
 40
0.1181410289
 40
0.1625302443
 40
0.2136151253
 40
0.2711781455
 40
0.3349074527
 40
0.4791200716
 40
0.6418857153
 40
0.8178882218
 40
1.0
 40
1.0
 40
1.0
 40
1.0
 10
3.8205287486
 20
5.8426682055
 30
0.0
 10
3.8206331574
 20
5.8427237695
 30
0.0
 10
3.8208847968
 20
5.8427944041
 30
0.0
 10
3.8213059357
 20
5.8427645774
 30
0.0
 10
3.8217803703
 20
5.8426164392
 30
0.0
 10
3.8223079531
 20
5.8423519563
 30
0.0
 10
3.8228857344
 20
5.841972412
 30
0.0
 10
3.8235099118
 20
5.8414818468
 30
0.0
 10
3.8241751143
 20
5.8408846752
 30
0.0
 10
3.8251492548
 20
5.8399120108
 30
0.0
 10
3.8264150328
 20
5.8384637395
 30
0.0
 10
3.8279394155
 20
5.8364765743
 30
0.0
 10
3.8294640201
 20
5.8342472108
 30
0.0
 10
3.8304386647
 20
5.8326667061
 30
0.0
 10
3.8309150034
 20
5.8318518485
 30
0.0
  0
SPLINE
  5
4A6
100
AcDbEntity
  8
0
100
AcDbSpline
 62
7
  6
CONTINUOUS
 70
0
 71
3
 72
27
 73
23
 74
0
 42
0.0000001
 43
0.0000001
 44
0.0000000001
 40
0.0
 40
0.0
 40
0.0
 40
0.0
 40
0.0627352582
 40
0.1253894328
 40
0.1567330573
 40
0.1880523722
 40
0.2193400246
 40
0.2505981338
 40
0.3130020828
 40
0.375346092
 40
0.4376264534
 40
0.4998843383
 40
0.5310456375
 40
0.5622107898
 40
0.6245084995
 40
0.6868712969
 40
0.7181101457
 40
0.7493665825
 40
0.8118933961
 40
0.8745183027
 40
0.9372123024
 40
1.0
 40
1.0
 40
1.0
 40
1.0
 10
5.2627928049
 20
6.033255887
 30
0.0
 10
5.2598643892
 20
6.0308156662
 30
0.0
 10
5.2544193254
 20
6.0254147194
 30
0.0
 10
5.2490383057
 20
6.0174847314
 30
0.0
 10
5.2456594007
 20
6.0106517901
 30
0.0
 10
5.2435979698
 20
6.0053197482
 30
0.0
 10
5.2420315419
 20
5.9998271158
 30
0.0
 10
5.2406327615
 20
5.992355563
 30
0.0
 10
5.2402081741
 20
5.982826627
 30
0.0
 10
5.2417881277
 20
5.9715106653
 30
0.0
 10
5.2453922568
 20
5.9606760295
 30
0.0
 10
5.250005797
 20
5.9523503749
 30
0.0
 10
5.2545509294
 20
5.9462854432
 30
0.0
 10
5.2596375211
 20
5.9406633205
 30
0.0
 10
5.2669317374
 20
5.9345387066
 30
0.0
 10
5.2752281711
 20
5.9298505419
 30
0.0
 10
5.2822911613
 20
5.927055407
 30
0.0
 10
5.2895928399
 20
5.9249251599
 30
0.0
 10
5.2990540506
 20
5.923544179
 30
0.0
 10
5.3105222018
 20
5.9239726637
 30
0.0
 10
5.3217357726
 20
5.9265054225
 30
0.0
 10
5.3287652463
 20
5.9295874361
 30
0.0
 10
5.3321124938
 20
5.9314178818
 30
0.0
  0
SPLINE
  5
4A7
100
AcDbEntity
  8
0
100
AcDbSpline
 62
7
  6
CONTINUOUS
 70
0
 71
3
 72
29
 73
25
 74
0
 42
0.0000001
 43
0.0000001
 44
0.0000000001
 40
0.0
 40
0.0
 40
0.0
 40
0.0
 40
0.0627690487
 40
0.0941447189
 40
0.1255047045
 40
0.1568575684
 40
0.1881929696
 40
0.250699303
 40
0.2819406108
 40
0.3131703813
 40
0.3755254673
 40
0.4378059355
 40
0.4689626436
 40
0.5001203198
 40
0.5623692799
 40
0.5935294475
 40
0.6247056155
 40
0.6870609793
 40
0.7494572664
 40
0.8119343286
 40
0.8432638258
 40
0.8746109805
 40
0.9372572456
 40
1.0
 40
1.0
 40
1.0
 40
1.0
 10
5.3423450843
 20
5.9384305321
 30
0.0
 10
5.3452611611
 20
5.94089287
 30
0.0
 10
5.3493256577
 20
5.9449851502
 30
0.0
 10
5.3538670877
 20
5.9511288555
 30
0.0
 10
5.3568227094
 20
5.956037405
 30
0.0
 10
5.3593141922
 20
5.9611938011
 30
0.0
 10
5.3620004831
 20
5.9683243246
 30
0.0
 10
5.363711472
 20
5.9757875568
 30
0.0
 10
5.3643511546
 20
5.9833690519
 30
0.0
 10
5.3642783981
 20
5.9909684481
 30
0.0
 10
5.3628776922
 20
6.0003984862
 30
0.0
 10
5.3597898712
 20
6.0094131288
 30
0.0
 10
5.3563707601
 20
6.0161844772
 30
0.0
 10
5.3523427265
 20
6.0226085075
 30
0.0
 10
5.3474443242
 20
6.0284524094
 30
0.0
 10
5.3418129679
 20
6.0335321843
 30
0.0
 10
5.3357369401
 20
6.0380824293
 30
0.0
 10
5.3273995323
 20
6.0427131632
 30
0.0
 10
5.3165464808
 20
6.0463611298
 30
0.0
 10
5.3070702959
 20
6.0476162239
 30
0.0
 10
5.2994523858
 20
6.0475886372
 30
0.0
 10
5.2918557429
 20
6.0468902596
 30
0.0
 10
5.2825127123
 20
6.0447330489
 30
0.0
 10
5.2755047961
 20
6.041598098
 30
0.0
 10
5.2721772817
 20
6.0397320706
 30
0.0
  0
SPLINE
  5
4A8
100
AcDbEntity
  8
0
100
AcDbSpline
 62
7
  6
CONTINUOUS
 70
0
 71
3
 72
34
 73
30
 74
0
 42
0.0000001
 43
0.0000001
 44
0.0000000001
 40
0.0
 40
0.0
 40
0.0
 40
0.0
 40
0.031306115
 40
0.062710911
 40
0.0784360671
 40
0.0941490257
 40
0.1255120135
 40
0.1568148401
 40
0.1880949194
 40
0.2193744916
 40
0.2506398626
 40
0.3130019883
 40
0.3441786815
 40
0.3753383915
 40
0.4064862307
 40
0.4376246727
 40
0.4998151039
 40
0.5620122704
 40
0.5931629619
 40
0.6243298367
 40
0.686660205
 40
0.7491070653
 40
0.7803964964
 40
0.8116933863
 40
0.8743236485
 40
0.9057692774
 40
0.9372534362
 40
0.9686795052
 40
1.0
 40
1.0
 40
1.0
 40
1.0
 10
5.5091005652
 20
6.719457013
 30
0.0
 10
5.5096329414
 20
6.7175002709
 30
0.0
 10
5.5109542401
 20
6.7136465474
 30
0.0
 10
5.513138261
 20
6.7090488594
 30
0.0
 10
5.5151524877
 20
6.7055099591
 30
0.0
 10
5.5173260189
 20
6.702069881
 30
0.0
 10
5.5203340391
 20
6.6979699003
 30
0.0
 10
5.5243917906
 20
6.6934220106
 30
0.0
 10
5.5288786681
 20
6.6893040509
 30
0.0
 10
5.5337521277
 20
6.6856551994
 30
0.0
 10
5.540679985
 20
6.6814569853
 30
0.0
 10
5.5481894743
 20
6.6782999439
 30
0.0
 10
5.5560233666
 20
6.6762912692
 30
0.0
 10
5.5620186802
 20
6.675369761
 30
0.0
 10
5.5680724634
 20
6.6750368587
 30
0.0
 10
5.5761387639
 20
6.6753844852
 30
0.0
 10
5.586100929
 20
6.6772912117
 30
0.0
 10
5.5954997436
 20
6.681105767
 30
0.0
 10
5.6024624407
 20
6.6851990304
 30
0.0
 10
5.6089976779
 20
6.689959711
 30
0.0
 10
5.616258776
 20
6.6970807137
 30
0.0
 10
5.6219901136
 20
6.7054923779
 30
0.0
 10
5.6255264321
 20
6.7127916466
 30
0.0
 10
5.6283240436
 20
6.7204166852
 30
0.0
 10
5.6299726538
 20
6.7284309726
 30
0.0
 10
5.6304623222
 20
6.7365581354
 30
0.0
 10
5.6302485451
 20
6.74267692
 30
0.0
 10
5.6294167759
 20
6.7487343537
 30
0.0
 10
5.6284242663
 20
6.7526866955
 30
0.0
 10
5.6278137905
 20
6.7546214725
 30
0.0
  0
SPLINE
  5
4A9
100
AcDbEntity
  8
0
100
AcDbSpline
 62
7
  6
CONTINUOUS
 70
0
 71
3
 72
31
 73
27
 74
0
 42
0.0000001
 43
0.0000001
 44
0.0000000001
 40
0.0
 40
0.0
 40
0.0
 40
0.0
 40
0.0627516883
 40
0.1253990307
 40
0.1567447049
 40
0.1880698717
 40
0.2505451497
 40
0.3129262217
 40
0.3752532891
 40
0.4375068074
 40
0.4997402468
 40
0.5308922682
 40
0.5620436442
 40
0.6243214925
 40
0.6555298282
 40
0.6867529542
 40
0.7179799878
 40
0.749219632
 40
0.7804961568
 40
0.8118135591
 40
0.8431535428
 40
0.8744983897
 40
0.9058537189
 40
0.9372458094
 40
0.9686515291
 40
1.0
 40
1.0
 40
1.0
 40
1.0
 10
5.6257588083
 20
6.760427815
 30
0.0
 10
5.6242733482
 20
6.7640718635
 30
0.0
 10
5.6206354893
 20
6.7711072719
 30
0.0
 10
5.6144305487
 20
6.7788159592
 30
0.0
 10
5.6086812861
 20
6.7841878834
 30
0.0
 10
5.6024696842
 20
6.7889996182
 30
0.0
 10
5.593911885
 20
6.793895295
 30
0.0
 10
5.5827179739
 20
6.7976609428
 30
0.0
 10
5.571031732
 20
6.7992500062
 30
0.0
 10
5.5592642077
 20
6.7986319143
 30
0.0
 10
5.5497289003
 20
6.7962672617
 30
0.0
 10
5.542481372
 20
6.7933301994
 30
0.0
 10
5.5355447348
 20
6.7897150312
 30
0.0
 10
5.5291511155
 20
6.7851244594
 30
0.0
 10
5.523489885
 20
6.7797166156
 30
0.0
 10
5.5196361054
 20
6.7752720393
 30
0.0
 10
5.5162231446
 20
6.7704783829
 30
0.0
 10
5.5132986894
 20
6.765367636
 30
0.0
 10
5.5108823829
 20
6.7599924946
 30
0.0
 10
5.5089771471
 20
6.7544097227
 30
0.0
 10
5.5075867291
 20
6.7486726787
 30
0.0
 10
5.5067322632
 20
6.7428288731
 30
0.0
 10
5.5064398217
 20
6.7369260313
 30
0.0
 10
5.5067378603
 20
6.7310193797
 30
0.0
 10
5.5076040332
 20
6.7251707944
 30
0.0
 10
5.5085438368
 20
6.7213424099
 30
0.0
 10
5.5091005652
 20
6.719457013
 30
0.0
  0
SPLINE
  5
4AA
100
AcDbEntity
  8
0
100
AcDbSpline
 62
7
  6
CONTINUOUS
 70
0
 71
3
 72
26
 73
22
 74
0
 42
0.0000001
 43
0.0000001
 44
0.0000000001
 40
0.0
 40
0.0
 40
0.0
 40
0.0
 40
0.0627524914
 40
0.1254246951
 40
0.1880464325
 40
0.2505547784
 40
0.3129813151
 40
0.3753537165
 40
0.4376613469
 40
0.4999357903
 40
0.5622086468
 40
0.6245063971
 40
0.6557046792
 40
0.6869208146
 40
0.7493395563
 40
0.8118351841
 40
0.8744354502
 40
0.9057973752
 40
0.9371743071
 40
0.9685715282
 40
1.0
 40
1.0
 40
1.0
 40
1.0
 10
5.4523579586
 20
6.8524042465
 30
0.0
 10
5.4545133995
 20
6.8494161068
 30
0.0
 10
5.4593355758
 20
6.8437888632
 30
0.0
 10
5.4679977314
 20
6.8368465864
 30
0.0
 10
5.4777290627
 20
6.8315438834
 30
0.0
 10
5.4882242271
 20
6.8280199932
 30
0.0
 10
5.4991700436
 20
6.8264528472
 30
0.0
 10
5.5102055434
 20
6.8268410992
 30
0.0
 10
5.5209943959
 20
6.8291563454
 30
0.0
 10
5.5311964183
 20
6.8333469932
 30
0.0
 10
5.5404986784
 20
6.83926805
 30
0.0
 10
5.5472607212
 20
6.8455029658
 30
0.0
 10
5.5519476125
 20
6.851139495
 30
0.0
 10
5.556118726
 20
6.8571761718
 30
0.0
 10
5.5603114424
 20
6.8653881869
 30
0.0
 10
5.5634951209
 20
6.8759862352
 30
0.0
 10
5.5645551079
 20
6.8851636694
 30
0.0
 10
5.5644246286
 20
6.892529524
 30
0.0
 10
5.5638337258
 20
6.898032823
 30
0.0
 10
5.5627447463
 20
6.9034630974
 30
0.0
 10
5.5616865687
 20
6.9070030322
 30
0.0
 10
5.5610808389
 20
6.9087460539
 30
0.0
  0
SPLINE
  5
4AB
100
AcDbEntity
  8
0
100
AcDbSpline
 62
7
  6
CONTINUOUS
 70
0
 71
3
 72
28
 73
24
 74
0
 42
0.0000001
 43
0.0000001
 44
0.0000000001
 40
0.0
 40
0.0
 40
0.0
 40
0.0
 40
0.0314021045
 40
0.0627884204
 40
0.0941642925
 40
0.125523281
 40
0.1881147562
 40
0.2506181287
 40
0.2818682248
 40
0.3130973959
 40
0.3754367597
 40
0.4377216016
 40
0.4999799386
 40
0.562241521
 40
0.6245357188
 40
0.6868893907
 40
0.7181267389
 40
0.7493854873
 40
0.8119070398
 40
0.8745163906
 40
0.9058831049
 40
0.937263632
 40
1.0
 40
1.0
 40
1.0
 40
1.0
 10
5.5505840598
 20
6.9276547874
 30
0.0
 10
5.5494012308
 20
6.9291079978
 30
0.0
 10
5.5469036703
 20
6.9319087348
 30
0.0
 10
5.5427945174
 20
6.9357514844
 30
0.0
 10
5.5383545507
 20
6.939203951
 30
0.0
 10
5.5320527951
 20
6.943245939
 30
0.0
 10
5.5235351206
 20
6.9471986597
 30
0.0
 10
5.5144508696
 20
6.9495482592
 30
0.0
 10
5.5070357584
 20
6.9504231878
 30
0.0
 10
5.4995819637
 20
6.9506263003
 30
0.0
 10
5.4902820283
 20
6.9496162164
 30
0.0
 10
5.4795355895
 20
6.9464239717
 30
0.0
 10
5.4695394543
 20
6.9413562603
 30
0.0
 10
5.4606135639
 20
6.9345779185
 30
0.0
 10
5.4530464327
 20
6.9263044501
 30
0.0
 10
5.4480731775
 20
6.9183791944
 30
0.0
 10
5.4449973306
 20
6.9115845485
 30
0.0
 10
5.4425428484
 20
6.9045307515
 30
0.0
 10
5.4406855606
 20
6.8953303853
 30
0.0
 10
5.4405179884
 20
6.8859394585
 30
0.0
 10
5.4414007769
 20
6.8785023635
 30
0.0
 10
5.4429536571
 20
6.8711700742
 30
0.0
 10
5.4448675999
 20
6.8658473413
 30
0.0
 10
5.4464466067
 20
6.862453224
 30
0.0
  0
SPLINE
  5
4AC
100
AcDbEntity
  8
0
100
AcDbSpline
 62
7
  6
CONTINUOUS
 70
0
 71
3
 72
27
 73
23
 74
0
 42
0.0000001
 43
0.0000001
 44
0.0000000001
 40
0.0
 40
0.0
 40
0.0
 40
0.0
 40
0.06273682
 40
0.1253913437
 40
0.1567333035
 40
0.1880520609
 40
0.2193396952
 40
0.2505976801
 40
0.3130012642
 40
0.3753457309
 40
0.437626049
 40
0.4998840415
 40
0.5310454187
 40
0.56221062
 40
0.624508315
 40
0.6868711465
 40
0.7181099342
 40
0.7493663142
 40
0.8118931354
 40
0.874518122
 40
0.9372121377
 40
1.0
 40
1.0
 40
1.0
 40
1.0
 10
5.3762579519
 20
6.131805001
 30
0.0
 10
5.3740037799
 20
6.1287300143
 30
0.0
 10
5.3700278766
 20
6.1221695127
 30
0.0
 10
5.366719041
 20
6.1131741484
 30
0.0
 10
5.3650872794
 20
6.105726612
 30
0.0
 10
5.3643725187
 20
6.1000538034
 30
0.0
 10
5.3641772925
 20
6.0943443913
 30
0.0
 10
5.364623279
 20
6.0867545965
 30
0.0
 10
5.3665129516
 20
6.0774032749
 30
0.0
 10
5.3707791699
 20
6.0668015135
 30
0.0
 10
5.3768936017
 20
6.0571554517
 30
0.0
 10
5.3833826212
 20
6.0501890074
 30
0.0
 10
5.3892592936
 20
6.0454005243
 30
0.0
 10
5.3955545852
 20
6.0411727441
 30
0.0
 10
5.4041140183
 20
6.0369907241
 30
0.0
 10
5.4132992116
 20
6.0344454018
 30
0.0
 10
5.4208298106
 20
6.0334395234
 30
0.0
 10
5.4284313914
 20
6.0331369216
 30
0.0
 10
5.437947807
 20
6.0340836584
 30
0.0
 10
5.4489745863
 20
6.0372720244
 30
0.0
 10
5.4592453432
 20
6.0424416216
 30
0.0
 10
5.4653222277
 20
6.0471328707
 30
0.0
 10
5.4681280966
 20
6.0497189099
 30
0.0
  0
SPLINE
  5
4AD
100
AcDbEntity
  8
0
100
AcDbSpline
 62
7
  6
CONTINUOUS
 70
0
 71
3
 72
29
 73
25
 74
0
 42
0.0000001
 43
0.0000001
 44
0.0000000001
 40
0.0
 40
0.0
 40
0.0
 40
0.0
 40
0.062768388
 40
0.0941435813
 40
0.1255031946
 40
0.1568558543
 40
0.1881910911
 40
0.2506966031
 40
0.2819374483
 40
0.3131668919
 40
0.3755214564
 40
0.4378011572
 40
0.4689574999
 40
0.5001148884
 40
0.562363346
 40
0.5935233313
 40
0.6246993103
 40
0.6870539363
 40
0.7494500187
 40
0.8119294804
 40
0.8432582416
 40
0.8746025542
 40
0.9372518661
 40
1.0
 40
1.0
 40
1.0
 40
1.0
 10
5.4763654104
 20
6.0590030835
 30
0.0
 10
5.4785999048
 20
6.0620985713
 30
0.0
 10
5.4815544986
 20
6.0670540602
 30
0.0
 10
5.484474902
 20
6.0741162539
 30
0.0
 10
5.4861550247
 20
6.079595823
 30
0.0
 10
5.4873246091
 20
6.0852035908
 30
0.0
 10
5.4882053817
 20
6.0927744726
 30
0.0
 10
5.4880589931
 20
6.1004321552
 30
0.0
 10
5.4868435862
 20
6.107945101
 30
0.0
 10
5.4849321016
 20
6.1153028021
 30
0.0
 10
5.4812879868
 20
6.1241153428
 30
0.0
 10
5.4761069281
 20
6.1321158412
 30
0.0
 10
5.4711476016
 20
6.137858643
 30
0.0
 10
5.4656813398
 20
6.1431166446
 30
0.0
 10
5.4595107997
 20
6.147600418
 30
0.0
 10
5.4528141181
 20
6.1511647336
 30
0.0
 10
5.445814279
 20
6.1541072636
 30
0.0
 10
5.436600279
 20
6.1565795016
 30
0.0
 10
5.4251829616
 20
6.157486894
 30
0.0
 10
5.4156823798
 20
6.1564050055
 30
0.0
 10
5.4082968646
 20
6.1545285467
 30
0.0
 10
5.4010951378
 20
6.1520050013
 30
0.0
 10
5.3925533716
 20
6.1476434418
 30
0.0
 10
5.3865050812
 20
6.1429098926
 30
0.0
 10
5.3837297091
 20
6.1402901759
 30
0.0
  0
SPLINE
  5
4AE
100
AcDbEntity
  8
0
100
AcDbSpline
 62
7
  6
CONTINUOUS
 70
0
 71
3
 72
27
 73
23
 74
0
 42
0.0000001
 43
0.0000001
 44
0.0000000001
 40
0.0
 40
0.0
 40
0.0
 40
0.0
 40
0.0627352582
 40
0.1253894328
 40
0.1567330573
 40
0.1880523722
 40
0.2193400246
 40
0.2505981338
 40
0.3130020828
 40
0.375346092
 40
0.4376264534
 40
0.4998843383
 40
0.5310456375
 40
0.5622107898
 40
0.6245084995
 40
0.6868712969
 40
0.7181101457
 40
0.7493665825
 40
0.8118933961
 40
0.8745183027
 40
0.9372123024
 40
1.0
 40
1.0
 40
1.0
 40
1.0
 10
4.6673461792
 20
5.9814738374
 30
0.0
 10
4.6637249308
 20
5.9826641547
 30
0.0
 10
4.6562592239
 20
5.9844197649
 30
0.0
 10
4.6466827067
 20
5.9847808751
 30
0.0
 10
4.6390974969
 20
5.9840254418
 30
0.0
 10
4.633483277
 20
5.9829480826
 30
0.0
 10
4.6279951802
 20
5.9813658371
 30
0.0
 10
4.6209177034
 20
5.9785927504
 30
0.0
 10
4.6126117104
 20
5.9739032541
 30
0.0
 10
4.6038524784
 20
5.9665668314
 30
0.0
 10
4.5965740836
 20
5.9577688744
 30
0.0
 10
4.5919583319
 20
5.9494444456
 30
0.0
 10
4.5892235314
 20
5.9423760306
 30
0.0
 10
4.5871511838
 20
5.935083085
 30
0.0
 10
4.5858225624
 20
5.9256516879
 30
0.0
 10
4.5862432133
 20
5.9161315643
 30
0.0
 10
4.587615619
 20
5.9086606131
 30
0.0
 10
4.5896783672
 20
5.9013395796
 30
0.0
 10
4.5935209068
 20
5.8925842094
 30
0.0
 10
4.5999614766
 20
5.8830857279
 30
0.0
 10
4.6080516652
 20
5.8749182382
 30
0.0
 10
4.6143904145
 20
5.8705901248
 30
0.0
 10
4.6177164914
 20
5.8687214864
 30
0.0
  0
SPLINE
  5
4AF
100
AcDbEntity
  8
0
100
AcDbSpline
 62
7
  6
CONTINUOUS
 70
0
 71
3
 72
9
 73
5
 74
0
 42
0.0000001
 43
0.0000001
 44
0.0000000001
 40
0.0
 40
0.0
 40
0.0
 40
0.0
 40
0.249678922
 40
1.0
 40
1.0
 40
1.0
 40
1.0
 10
4.6233171694
 20
5.8659179333
 30
0.0
 10
4.6242537506
 20
5.865518449
 30
0.0
 10
4.6280403799
 20
5.8640033845
 30
0.0
 10
4.6319672038
 20
5.8628352853
 30
0.0
 10
4.6349560749
 20
5.8621798295
 30
0.0
  0
SPLINE
  5
4B0
100
AcDbEntity
  8
0
100
AcDbSpline
 62
7
  6
CONTINUOUS
 70
0
 71
3
 72
32
 73
28
 74
0
 42
0.0000001
 43
0.0000001
 44
0.0000000001
 40
0.0
 40
0.0
 40
0.0
 40
0.0
 40
0.0314075419
 40
0.0627820833
 40
0.0941415883
 40
0.1254921889
 40
0.1880684699
 40
0.2193409787
 40
0.2505874524
 40
0.2818196402
 40
0.3130396002
 40
0.3442424427
 40
0.3754259533
 40
0.4376946811
 40
0.4999496321
 40
0.5311044796
 40
0.5622568644
 40
0.6245416726
 40
0.6869132784
 40
0.7181417191
 40
0.7493743867
 40
0.8118675548
 40
0.8432013434
 40
0.8745496145
 40
0.9058991302
 40
0.937259527
 40
1.0
 40
1.0
 40
1.0
 40
1.0
 10
4.6349560749
 20
5.8621798295
 30
0.0
 10
4.6367594152
 20
5.8617843592
 30
0.0
 10
4.6404016729
 20
5.8611528537
 30
0.0
 10
4.6459263737
 20
5.8607227452
 30
0.0
 10
4.6514643719
 20
5.8607997403
 30
0.0
 10
4.658796965
 20
5.8615578938
 30
0.0
 10
4.6659994852
 20
5.863276255
 30
0.0
 10
4.6728715629
 20
5.8659134707
 30
0.0
 10
4.6778254685
 20
5.8683459562
 30
0.0
 10
4.6825358086
 20
5.8712145645
 30
0.0
 10
4.6869705147
 20
5.874488637
 30
0.0
 10
4.691095799
 20
5.8781412217
 30
0.0
 10
4.6961348168
 20
5.8834718756
 30
0.0
 10
4.7015218208
 20
5.890934714
 30
0.0
 10
4.7054973031
 20
5.8992342723
 30
0.0
 10
4.707759269
 20
5.9062070067
 30
0.0
 10
4.7093871866
 20
5.9133566021
 30
0.0
 10
4.7102139692
 20
5.9225284529
 30
0.0
 10
4.7094380443
 20
5.9317085978
 30
0.0
 10
4.7078548544
 20
5.9388828099
 30
0.0
 10
4.705622248
 20
5.9458895328
 30
0.0
 10
4.702418176
 20
5.9525582279
 30
0.0
 10
4.6983967464
 20
5.9587275637
 30
0.0
 10
4.6949911722
 20
5.9630903252
 30
0.0
 10
4.6912145056
 20
5.9671389835
 30
0.0
 10
4.6857101127
 20
5.9720579469
 30
0.0
 10
4.6810744025
 20
5.9751483073
 30
0.0
 10
4.6778414251
 20
5.9769229115
 30
0.0
  0
SPLINE
  5
4B1
100
AcDbEntity
  8
0
100
AcDbSpline
 62
7
  6
CONTINUOUS
 70
0
 71
3
 72
26
 73
22
 74
0
 42
0.0000001
 43
0.0000001
 44
0.0000000001
 40
0.0
 40
0.0
 40
0.0
 40
0.0
 40
0.0627523948
 40
0.12542448
 40
0.188046288
 40
0.2505545366
 40
0.3129809768
 40
0.3753533223
 40
0.4376608728
 40
0.4999352577
 40
0.5622081029
 40
0.6245059019
 40
0.6557041836
 40
0.6869202605
 40
0.7493387232
 40
0.811834291
 40
0.8744345065
 40
0.9057962596
 40
0.9371732338
 40
0.9685709006
 40
1.0
 40
1.0
 40
1.0
 40
1.0
 10
5.1288860962
 20
5.9651148216
 30
0.0
 10
5.1255689623
 20
5.9635108654
 30
0.0
 10
5.1191895699
 20
5.9597389578
 30
0.0
 10
5.1108485279
 20
5.9524132261
 30
0.0
 10
5.1039366804
 20
5.9437498409
 30
0.0
 10
5.0986440403
 20
5.9340253906
 30
0.0
 10
5.0952004609
 20
5.9235173345
 30
0.0
 10
5.0936672103
 20
5.9125814939
 30
0.0
 10
5.0940746608
 20
5.9015540656
 30
0.0
 10
5.0964310336
 20
5.8907790559
 30
0.0
 10
5.1006478733
 20
5.8805898473
 30
0.0
 10
5.1056147963
 20
5.872847975
 30
0.0
 10
5.1103525641
 20
5.8672537214
 30
0.0
 10
5.1155739372
 20
5.862098012
 30
0.0
 10
5.1229340652
 20
5.8565435567
 30
0.0
 10
5.1328194539
 20
5.851569202
 30
0.0
 10
5.1416741788
 20
5.8489329657
 30
0.0
 10
5.1489512522
 20
5.8477833647
 30
0.0
 10
5.1544738504
 20
5.8474102609
 30
0.0
 10
5.1600110142
 20
5.8475401204
 30
0.0
 10
5.1636811381
 20
5.8479675887
 30
0.0
 10
5.1655029668
 20
5.8482615405
 30
0.0
  0
SPLINE
  5
4B2
100
AcDbEntity
  8
0
100
AcDbSpline
 62
7
  6
CONTINUOUS
 70
0
 71
3
 72
34
 73
30
 74
0
 42
0.0000001
 43
0.0000001
 44
0.0000000001
 40
0.0
 40
0.0
 40
0.0
 40
0.0
 40
0.0627720358
 40
0.0941723852
 40
0.1255152484
 40
0.1568157382
 40
0.1881001496
 40
0.2193757833
 40
0.2506362634
 40
0.3130277809
 40
0.3442279029
 40
0.3754084931
 40
0.406572236
 40
0.4377184644
 40
0.4688506863
 40
0.4999803707
 40
0.5311162082
 40
0.5622654964
 40
0.6245317043
 40
0.6868556643
 40
0.718085183
 40
0.7493406779
 40
0.8118600979
 40
0.8431882698
 40
0.8745308972
 40
0.9058861423
 40
0.9372657906
 40
0.9686582413
 40
1.0
 40
1.0
 40
1.0
 40
1.0
 10
5.1826466253
 20
5.8535593746
 30
0.0
 10
5.1862080161
 20
5.8552663179
 30
0.0
 10
5.1912939026
 20
5.8584020634
 30
0.0
 10
5.1973924477
 20
5.8634284081
 30
0.0
 10
5.2015964261
 20
5.8676056397
 30
0.0
 10
5.2053812532
 20
5.872155656
 30
0.0
 10
5.2087045629
 20
5.8770481056
 30
0.0
 10
5.2115434296
 20
5.8822341794
 30
0.0
 10
5.2146483034
 20
5.88946467
 30
0.0
 10
5.2167003978
 20
5.8971056613
 30
0.0
 10
5.2176443143
 20
5.9049077384
 30
0.0
 10
5.2177905252
 20
5.9108008453
 30
0.0
 10
5.2173777269
 20
5.9166769747
 30
0.0
 10
5.2164109537
 20
5.9224849769
 30
0.0
 10
5.2148932302
 20
5.9281717184
 30
0.0
 10
5.2128432609
 20
5.9336879275
 30
0.0
 10
5.2102807353
 20
5.9389873557
 30
0.0
 10
5.2062103891
 20
5.9456947807
 30
0.0
 10
5.1999574732
 20
5.9533206029
 30
0.0
 10
5.1923610413
 20
5.9596172918
 30
0.0
 10
5.1856570969
 20
5.9637262402
 30
0.0
 10
5.1785816167
 20
5.9671816913
 30
0.0
 10
5.1710374351
 20
5.9696162605
 30
0.0
 10
5.1632648225
 20
5.9709457663
 30
0.0
 10
5.1573554896
 20
5.9713814177
 30
0.0
 10
5.1514286631
 20
5.9712411874
 30
0.0
 10
5.1455422044
 20
5.970510896
 30
0.0
 10
5.1397522801
 20
5.9692347481
 30
0.0
 10
5.1359819492
 20
5.9680481288
 30
0.0
 10
5.1341275883
 20
5.9673775722
 30
0.0
  0
SPLINE
  5
4B3
100
AcDbEntity
  8
0
100
AcDbSpline
 62
7
  6
CONTINUOUS
 70
0
 71
3
 72
31
 73
27
 74
0
 42
0.0000001
 43
0.0000001
 44
0.0000000001
 40
0.0
 40
0.0
 40
0.0
 40
0.0
 40
0.0313475707
 40
0.0627432849
 40
0.0941211472
 40
0.1254733244
 40
0.1568147522
 40
0.1881394589
 40
0.2506199613
 40
0.3130016339
 40
0.3753236427
 40
0.4375763382
 40
0.4998025644
 40
0.5309525042
 40
0.562107405
 40
0.6243800998
 40
0.6867241796
 40
0.7179590521
 40
0.7492171818
 40
0.8117467069
 40
0.8430860172
 40
0.8744425306
 40
0.9058196083
 40
0.9372302977
 40
0.9686472261
 40
1.0
 40
1.0
 40
1.0
 40
1.0
 10
5.5338857924
 20
6.5713463359
 30
0.0
 10
5.533989189
 20
6.5693189629
 30
0.0
 10
5.534377971
 20
6.5652678738
 30
0.0
 10
5.5355211804
 20
6.5592719584
 30
0.0
 10
5.5372491645
 20
6.5534154727
 30
0.0
 10
5.5395683506
 20
6.5477711558
 30
0.0
 10
5.5424320828
 20
6.5423867306
 30
0.0
 10
5.5469173097
 20
6.5356248935
 30
0.0
 10
5.5537081324
 20
6.5280334773
 30
0.0
 10
5.5634870196
 20
6.5207384103
 30
0.0
 10
5.5744831219
 20
6.5154913744
 30
0.0
 10
5.5862744413
 20
6.5124685365
 30
0.0
 10
5.5964081474
 20
6.5119201489
 30
0.0
 10
5.6044493468
 20
6.512663048
 30
0.0
 10
5.6123820983
 20
6.5141918103
 30
0.0
 10
5.6219691454
 20
6.517542349
 30
0.0
 10
5.6307240871
 20
6.5227004034
 30
0.0
 10
5.6370228336
 20
6.5277867715
 30
0.0
 10
5.6427934278
 20
6.5334806558
 30
0.0
 10
5.6477041301
 20
6.5400029391
 30
0.0
 10
5.651591319
 20
6.5471310065
 30
0.0
 10
5.6539745493
 20
6.5527488931
 30
0.0
 10
5.6557869808
 20
6.5585806862
 30
0.0
 10
5.6569962903
 20
6.5645707184
 30
0.0
 10
5.6576196716
 20
6.570646457
 30
0.0
 10
5.6576552007
 20
6.5747179886
 30
0.0
 10
5.6575797801
 20
6.5767469322
 30
0.0
  0
SPLINE
  5
4B4
100
AcDbEntity
  8
0
100
AcDbSpline
 62
7
  6
CONTINUOUS
 70
0
 71
3
 72
34
 73
30
 74
0
 42
0.0000001
 43
0.0000001
 44
0.0000000001
 40
0.0
 40
0.0
 40
0.0
 40
0.0
 40
0.0313477679
 40
0.0627566274
 40
0.0941508224
 40
0.1255080411
 40
0.1568519267
 40
0.1881868373
 40
0.2506995894
 40
0.2819382415
 40
0.313157755
 40
0.3443672779
 40
0.3755608364
 40
0.4378114739
 40
0.4689541804
 40
0.5000971684
 40
0.5623081297
 40
0.6245471867
 40
0.6557374831
 40
0.6869484657
 40
0.7181655226
 40
0.749390342
 40
0.8118738133
 40
0.8432025752
 40
0.874538052
 40
0.9058820701
 40
0.9372617835
 40
0.9686590995
 40
1.0
 40
1.0
 40
1.0
 40
1.0
 10
5.6575797801
 20
6.5767469322
 30
0.0
 10
5.6574797154
 20
6.5787749688
 30
0.0
 10
5.6570938702
 20
6.5828284121
 30
0.0
 10
5.6559491403
 20
6.5888274461
 30
0.0
 10
5.6542222853
 20
6.5946881118
 30
0.0
 10
5.6518996104
 20
6.600334472
 30
0.0
 10
5.6490263199
 20
6.6057170847
 30
0.0
 10
5.6445270805
 20
6.6124744675
 30
0.0
 10
5.6390812269
 20
6.6185551133
 30
0.0
 10
5.6328433972
 20
6.6237307735
 30
0.0
 10
5.6277990785
 20
6.6271210443
 30
0.0
 10
5.6224484799
 20
6.6299966677
 30
0.0
 10
5.6149892145
 20
6.6331126354
 30
0.0
 10
5.6071110967
 20
6.6351234799
 30
0.0
 10
5.5990772765
 20
6.6359581299
 30
0.0
 10
5.591001818
 20
6.6359989285
 30
0.0
 10
5.580955572
 20
6.6345691083
 30
0.0
 10
5.5713831168
 20
6.6311949885
 30
0.0
 10
5.5642244995
 20
6.6274400638
 30
0.0
 10
5.5591431784
 20
6.6241126644
 30
0.0
 10
5.5544098465
 20
6.6203019213
 30
0.0
 10
5.5486433152
 20
6.6146090614
 30
0.0
 10
5.5437722949
 20
6.6080612244
 30
0.0
 10
5.539893647
 20
6.600933636
 30
0.0
 10
5.5374994493
 20
6.595323818
 30
0.0
 10
5.53566671
 20
6.5895027716
 30
0.0
 10
5.5344410141
 20
6.5835196272
 30
0.0
 10
5.5338199206
 20
6.5774456347
 30
0.0
 10
5.5337989751
 20
6.5733745376
 30
0.0
 10
5.5338857924
 20
6.5713463359
 30
0.0
  0
SPLINE
  5
4B5
100
AcDbEntity
  8
0
100
AcDbSpline
 62
7
  6
CONTINUOUS
 70
0
 71
3
 72
28
 73
24
 74
0
 42
0.0000001
 43
0.0000001
 44
0.0000000001
 40
0.0
 40
0.0
 40
0.0
 40
0.0
 40
0.0627552398
 40
0.125433305
 40
0.1567682888
 40
0.1880772897
 40
0.250561229
 40
0.3129660445
 40
0.3441688284
 40
0.3753507399
 40
0.4376139729
 40
0.4998589862
 40
0.5310124576
 40
0.5621705399
 40
0.6244580716
 40
0.6868118738
 40
0.718046604
 40
0.7493013408
 40
0.7805843718
 40
0.811894892
 40
0.8745098422
 40
0.9372078497
 40
1.0
 40
1.0
 40
1.0
 40
1.0
 10
4.5477280215
 20
6.0519184185
 30
0.0
 10
4.5505210273
 20
6.0493212333
 30
0.0
 10
4.5556512834
 20
6.0436153109
 30
0.0
 10
4.5606152207
 20
6.0354153773
 30
0.0
 10
4.5636281975
 20
6.028409887
 30
0.0
 10
4.5659778139
 20
6.0211674328
 30
0.0
 10
4.5676515976
 20
6.0117651534
 30
0.0
 10
4.5675682916
 20
6.0022219007
 30
0.0
 10
4.5664608152
 20
5.9947095884
 30
0.0
 10
4.5646652091
 20
5.987340288
 30
0.0
 10
4.5611669116
 20
5.9784878489
 30
0.0
 10
4.5561105157
 20
5.9704256219
 30
0.0
 10
4.55124453
 20
5.9646146204
 30
0.0
 10
4.5458610346
 20
5.9592757875
 30
0.0
 10
4.5382448246
 20
5.9535556709
 30
0.0
 10
4.5297062203
 20
5.94932248
 30
0.0
 10
4.5225015535
 20
5.9469144105
 30
0.0
 10
4.5169433304
 20
5.9456171477
 30
0.0
 10
4.5112842682
 20
5.9448412178
 30
0.0
 10
4.5036737637
 20
5.9444994519
 30
0.0
 10
4.4941371819
 20
5.9453800195
 30
0.0
 10
4.4830775822
 20
5.948511265
 30
0.0
 10
4.4762117992
 20
5.9519510254
 30
0.0
 10
4.4729695327
 20
5.9539637543
 30
0.0
  0
SPLINE
  5
4B6
100
AcDbEntity
  8
0
100
AcDbSpline
 62
7
  6
CONTINUOUS
 70
0
 71
3
 72
31
 73
27
 74
0
 42
0.0000001
 43
0.0000001
 44
0.0000000001
 40
0.0
 40
0.0
 40
0.0
 40
0.0
 40
0.0313475707
 40
0.0627432849
 40
0.0941211472
 40
0.1254733244
 40
0.1568147522
 40
0.1881394589
 40
0.2506199613
 40
0.3130016339
 40
0.3753236427
 40
0.4375763382
 40
0.4998025644
 40
0.5309525042
 40
0.562107405
 40
0.6243800998
 40
0.6867241797
 40
0.7179590521
 40
0.7492171818
 40
0.8117467069
 40
0.8430860173
 40
0.8744425307
 40
0.9058196083
 40
0.9372302977
 40
0.9686472261
 40
1.0
 40
1.0
 40
1.0
 40
1.0
 10
4.9344887618
 20
7.1603721574
 30
0.0
 10
4.9365184088
 20
7.1603338797
 30
0.0
 10
4.9405867497
 20
7.160439125
 30
0.0
 10
4.9466478056
 20
7.1611612957
 30
0.0
 10
4.9526105633
 20
7.1624765427
 30
0.0
 10
4.9584029091
 20
7.1643963517
 30
0.0
 10
4.963973982
 20
7.1668775096
 30
0.0
 10
4.9710322211
 20
7.1708801287
 30
0.0
 10
4.9790788489
 20
7.1771248589
 30
0.0
 10
4.9870382861
 20
7.186371047
 30
0.0
 10
4.9930395898
 20
7.1969743487
 30
0.0
 10
4.9968775852
 20
7.2085260825
 30
0.0
 10
4.9981315286
 20
7.2185968498
 30
0.0
 10
4.9979513649
 20
7.2266702832
 30
0.0
 10
4.9969796873
 20
7.2346903521
 30
0.0
 10
4.994306069
 20
7.2444877673
 30
0.0
 10
4.9897712932
 20
7.2535811901
 30
0.0
 10
4.9851366936
 20
7.2602194003
 30
0.0
 10
4.9798592157
 20
7.2663731229
 30
0.0
 10
4.9736953736
 20
7.2717268344
 30
0.0
 10
4.9668558264
 20
7.2761017832
 30
0.0
 10
4.9614178704
 20
7.2788710921
 30
0.0
 10
4.9557267121
 20
7.2810859139
 30
0.0
 10
4.9498356285
 20
7.2827101212
 30
0.0
 10
4.9438181751
 20
7.283755806
 30
0.0
 10
4.9397590399
 20
7.2840752644
 30
0.0
 10
4.9377297776
 20
7.2841415596
 30
0.0
  0
SPLINE
  5
4B7
100
AcDbEntity
  8
0
100
AcDbSpline
 62
7
  6
CONTINUOUS
 70
0
 71
3
 72
31
 73
27
 74
0
 42
0.0000001
 43
0.0000001
 44
0.0000000001
 40
0.0
 40
0.0
 40
0.0
 40
0.0
 40
0.0313479737
 40
0.0627451815
 40
0.0941275293
 40
0.1254832911
 40
0.1568279774
 40
0.1881585439
 40
0.2506627189
 40
0.2819052716
 40
0.3131332149
 40
0.3443485607
 40
0.3755459691
 40
0.4067251617
 40
0.4378887819
 40
0.4690427203
 40
0.5001946419
 40
0.5313461768
 40
0.5624990243
 40
0.6247633197
 40
0.6870900846
 40
0.7494849891
 40
0.8119759365
 40
0.8745707993
 40
0.9372372659
 40
1.0
 40
1.0
 40
1.0
 40
1.0
 10
4.3375887281
 20
6.7501341301
 30
0.0
 10
4.3382309926
 20
6.7519909304
 30
0.0
 10
4.3393562473
 20
6.7557652959
 30
0.0
 10
4.3405302732
 20
6.7615548493
 30
0.0
 10
4.3411511954
 20
6.7674317372
 30
0.0
 10
4.3411837559
 20
6.7733377027
 30
0.0
 10
4.340649354
 20
6.7792163023
 30
0.0
 10
4.339207238
 20
6.7869367354
 30
0.0
 10
4.3366923949
 20
6.7944207019
 30
0.0
 10
4.3331514777
 20
6.8014181228
 30
0.0
 10
4.3300030176
 20
6.8063856794
 30
0.0
 10
4.3264009891
 20
6.8110301315
 30
0.0
 10
4.3223784464
 20
6.8153115946
 30
0.0
 10
4.3179734878
 20
6.8191933746
 30
0.0
 10
4.3132254882
 20
6.8226427133
 30
0.0
 10
4.3081723232
 20
6.8256241329
 30
0.0
 10
4.3028601823
 20
6.8281124842
 30
0.0
 10
4.2973369238
 20
6.8300898983
 30
0.0
 10
4.2897606243
 20
6.8320148011
 30
0.0
 10
4.2799920203
 20
6.8330643006
 30
0.0
 10
4.2682441521
 20
6.832096377
 30
0.0
 10
4.2568713028
 20
6.82892846
 30
0.0
 10
4.2462979315
 20
6.8236423205
 30
0.0
 10
4.2368844146
 20
6.816465901
 30
0.0
 10
4.2289841768
 20
6.8076244193
 30
0.0
 10
4.2249674179
 20
6.8008015118
 30
0.0
 10
4.2232846009
 20
6.7972459688
 30
0.0
  0
SPLINE
  5
4B8
100
AcDbEntity
  8
0
100
AcDbSpline
 62
7
  6
CONTINUOUS
 70
0
 71
3
 72
9
 73
5
 74
0
 42
0.0000001
 43
0.0000001
 44
0.0000000001
 40
0.0
 40
0.0
 40
0.0
 40
0.0
 40
0.2496738792
 40
1.0
 40
1.0
 40
1.0
 40
1.0
 10
4.2208785607
 20
6.7914633678
 30
0.0
 10
4.2205450513
 20
6.790504327
 30
0.0
 10
4.2192971252
 20
6.7866333121
 30
0.0
 10
4.2184069968
 20
6.7826457598
 30
0.0
 10
4.2179622289
 20
6.7796269159
 30
0.0
  0
SPLINE
  5
4B9
100
AcDbEntity
  8
0
100
AcDbSpline
 62
7
  6
CONTINUOUS
 70
0
 71
3
 72
30
 73
26
 74
0
 42
0.0000001
 43
0.0000001
 44
0.0000000001
 40
0.0
 40
0.0
 40
0.0
 40
0.0
 40
0.0314126072
 40
0.0627898401
 40
0.0941517665
 40
0.1255069602
 40
0.1880970914
 40
0.2193724259
 40
0.2506191535
 40
0.2818526754
 40
0.3130770235
 40
0.3754135701
 40
0.4376843012
 40
0.4999412168
 40
0.5311005959
 40
0.5622590343
 40
0.6245529665
 40
0.6869297818
 40
0.7181629988
 40
0.74940167
 40
0.8119050376
 40
0.8432412133
 40
0.8745910372
 40
0.9372474687
 40
1.0
 40
1.0
 40
1.0
 40
1.0
 10
4.2179622289
 20
6.7796269159
 30
0.0
 10
4.2176930135
 20
6.7777996274
 30
0.0
 10
4.2173169305
 20
6.7741206622
 30
0.0
 10
4.2172738642
 20
6.7685772497
 30
0.0
 10
4.2177373522
 20
6.7630560174
 30
0.0
 10
4.2190040981
 20
6.7557907484
 30
0.0
 10
4.221213394
 20
6.7487202018
 30
0.0
 10
4.2243175518
 20
6.7420424854
 30
0.0
 10
4.2270881423
 20
6.7372672839
 30
0.0
 10
4.2302807025
 20
6.7327673714
 30
0.0
 10
4.2350474209
 20
6.7271783218
 30
0.0
 10
4.2419035488
 20
6.7210215899
 30
0.0
 10
4.2512852278
 20
6.7151973084
 30
0.0
 10
4.2598470135
 20
6.7118104288
 30
0.0
 10
4.2669634261
 20
6.7100412554
 30
0.0
 10
4.2742122002
 20
6.708914924
 30
0.0
 10
4.2834230729
 20
6.7087246944
 30
0.0
 10
4.2925307205
 20
6.7101408915
 30
0.0
 10
4.2995787821
 20
6.712225391
 30
0.0
 10
4.3064141883
 20
6.7149465516
 30
0.0
 10
4.3128443861
 20
6.718611792
 30
0.0
 10
4.3187187394
 20
6.7230586212
 30
0.0
 10
4.3242008178
 20
6.7279962113
 30
0.0
 10
4.330216188
 20
6.7350500368
 30
0.0
 10
4.3338958764
 20
6.741495265
 30
0.0
 10
4.3354386889
 20
6.7448469831
 30
0.0
  0
SPLINE
  5
4BA
100
AcDbEntity
  8
0
100
AcDbSpline
 62
7
  6
CONTINUOUS
 70
0
 71
3
 72
33
 73
29
 74
0
 42
0.0000001
 43
0.0000001
 44
0.0000000001
 40
0.0
 40
0.0
 40
0.0
 40
0.0
 40
0.0313472695
 40
0.0627558737
 40
0.0941556701
 40
0.1255218865
 40
0.1568692613
 40
0.1882004513
 40
0.2507115966
 40
0.2819588831
 40
0.3131849965
 40
0.3755140287
 40
0.4377734352
 40
0.4689218534
 40
0.5000677194
 40
0.5622911182
 40
0.6245445098
 40
0.6557305611
 40
0.6869365559
 40
0.7181587588
 40
0.74939542
 40
0.8118759087
 40
0.8432013
 40
0.8745431724
 40
0.9058909792
 40
0.9372601017
 40
0.968652172
 40
1.0
 40
1.0
 40
1.0
 40
1.0
 10
4.1818441301
 20
6.6153904299
 30
0.0
 10
4.1816616373
 20
6.6133683599
 30
0.0
 10
4.1814824571
 20
6.6093008833
 30
0.0
 10
4.1817861915
 20
6.6032014358
 30
0.0
 10
4.1826821823
 20
6.5971575656
 30
0.0
 10
4.1841898456
 20
6.591240809
 30
0.0
 10
4.1862770912
 20
6.5855073952
 30
0.0
 10
4.1897855
 20
6.5781868721
 30
0.0
 10
4.1943426413
 20
6.5714143907
 30
0.0
 10
4.1998057772
 20
6.5654264058
 30
0.0
 10
4.2058291007
 20
6.5600182384
 30
0.0
 10
4.2143008945
 20
6.5544094463
 30
0.0
 10
4.2236968596
 20
6.5505574169
 30
0.0
 10
4.2315382293
 20
6.5486148197
 30
0.0
 10
4.2395301603
 20
6.5474526256
 30
0.0
 10
4.2496778532
 20
6.5474688892
 30
0.0
 10
4.2596300419
 20
6.5494660079
 30
0.0
 10
4.2672403142
 20
6.5521919423
 30
0.0
 10
4.2727293402
 20
6.5547907958
 30
0.0
 10
4.2779413054
 20
6.5579151409
 30
0.0
 10
4.2844457692
 20
6.5627462927
 30
0.0
 10
4.2902039714
 20
6.5685286433
 30
0.0
 10
4.2950416826
 20
6.5750437788
 30
0.0
 10
4.2981840847
 20
6.580271607
 30
0.0
 10
4.3007905389
 20
6.585789555
 30
0.0
 10
4.3028090363
 20
6.5915522663
 30
0.0
 10
4.3042570729
 20
6.5974816347
 30
0.0
 10
4.3048661904
 20
6.6015051963
 30
0.0
 10
4.3050859543
 20
6.6035235921
 30
0.0
  0
SPLINE
  5
4BB
100
AcDbEntity
  8
0
100
AcDbSpline
 62
7
  6
CONTINUOUS
 70
0
 71
3
 72
31
 73
27
 74
0
 42
0.0000001
 43
0.0000001
 44
0.0000000001
 40
0.0
 40
0.0
 40
0.0
 40
0.0
 40
0.0313475707
 40
0.0627432849
 40
0.0941211472
 40
0.1254733244
 40
0.1568147522
 40
0.1881394589
 40
0.2506199613
 40
0.3130016339
 40
0.3753236427
 40
0.4375763382
 40
0.4998025644
 40
0.5309525042
 40
0.562107405
 40
0.6243800998
 40
0.6867241796
 40
0.7179590521
 40
0.7492171818
 40
0.8117467069
 40
0.8430860172
 40
0.8744425306
 40
0.9058196083
 40
0.9372302977
 40
0.9686472261
 40
1.0
 40
1.0
 40
1.0
 40
1.0
 10
4.7850099448
 20
7.1459789844
 30
0.0
 10
4.7869885628
 20
7.1464328598
 30
0.0
 10
4.7909105955
 20
7.1475191996
 30
0.0
 10
4.7966169032
 20
7.1496862209
 30
0.0
 10
4.8020843545
 20
7.1524049211
 30
0.0
 10
4.8072401991
 20
7.1556689988
 30
0.0
 10
4.8120455408
 20
7.1594242202
 30
0.0
 10
4.8179257989
 20
7.165015487
 30
0.0
 10
4.8242226705
 20
7.1730213775
 30
0.0
 10
4.8297088231
 20
7.1839184765
 30
0.0
 10
4.8329666916
 20
7.1956586615
 30
0.0
 10
4.8338960647
 20
7.2077957546
 30
0.0
 10
4.8326764214
 20
7.2178707335
 30
0.0
 10
4.8305484691
 20
7.2256607658
 30
0.0
 10
4.8276654242
 20
7.2332075343
 30
0.0
 10
4.8227010145
 20
7.2420671176
 30
0.0
 10
4.8161010428
 20
7.2497933654
 30
0.0
 10
4.8099981822
 20
7.2551131812
 30
0.0
 10
4.8033887477
 20
7.2598073744
 30
0.0
 10
4.7961128181
 20
7.2635108895
 30
0.0
 10
4.7884180387
 20
7.2661012474
 30
0.0
 10
4.7824716568
 20
7.2674727354
 30
0.0
 10
4.7764137363
 20
7.2682449516
 30
0.0
 10
4.7703047118
 20
7.2683957309
 30
0.0
 10
4.7642130283
 20
7.2679546006
 30
0.0
 10
4.7601971828
 20
7.267282576
 30
0.0
 10
4.7582121601
 20
7.2668559789
 30
0.0
  0
SPLINE
  5
4BC
100
AcDbEntity
  8
0
100
AcDbSpline
 62
7
  6
CONTINUOUS
 70
0
 71
3
 72
31
 73
27
 74
0
 42
0.0000001
 43
0.0000001
 44
0.0000000001
 40
0.0
 40
0.0
 40
0.0
 40
0.0
 40
0.0627516883
 40
0.1253990307
 40
0.1567447049
 40
0.1880698717
 40
0.2505451497
 40
0.3129262217
 40
0.3752532891
 40
0.4375068074
 40
0.4997402468
 40
0.5308922682
 40
0.5620436442
 40
0.6243214925
 40
0.6555298282
 40
0.6867529542
 40
0.7179799878
 40
0.749219632
 40
0.7804961568
 40
0.8118135591
 40
0.8431535428
 40
0.8744983897
 40
0.9058537189
 40
0.9372458094
 40
0.9686515291
 40
1.0
 40
1.0
 40
1.0
 40
1.0
 10
4.7522766132
 20
7.2652110325
 30
0.0
 10
4.748537821
 20
7.2639833868
 30
0.0
 10
4.7412657863
 20
7.2608451549
 30
0.0
 10
4.7331430422
 20
7.2551930601
 30
0.0
 10
4.7273831555
 20
7.2498325289
 30
0.0
 10
4.7221498424
 20
7.2439717077
 30
0.0
 10
4.7166691293
 20
7.2357762601
 30
0.0
 10
4.7121318066
 20
7.2248722951
 30
0.0
 10
4.7097314231
 20
7.2133253677
 30
0.0
 10
4.7095271483
 20
7.2015433927
 30
0.0
 10
4.7112208914
 20
7.191866363
 30
0.0
 10
4.7136452372
 20
7.1844316101
 30
0.0
 10
4.7167677236
 20
7.1772596889
 30
0.0
 10
4.7209011166
 20
7.170561422
 30
0.0
 10
4.7259008798
 20
7.1645367498
 30
0.0
 10
4.7300658032
 20
7.1603823199
 30
0.0
 10
4.7346097064
 20
7.1566432844
 30
0.0
 10
4.739504004
 20
7.1533694453
 30
0.0
 10
4.7446974989
 20
7.1505840739
 30
0.0
 10
4.7501337689
 20
7.1482940447
 30
0.0
 10
4.7557598471
 20
7.1465068177
 30
0.0
 10
4.761529813
 20
7.1452467899
 30
0.0
 10
4.7673978761
 20
7.1445432994
 30
0.0
 10
4.7733109295
 20
7.1444285848
 30
0.0
 10
4.779205689
 20
7.1448846711
 30
0.0
 10
4.7830903052
 20
7.1455551308
 30
0.0
 10
4.7850099448
 20
7.1459789844
 30
0.0
  0
SPLINE
  5
4BD
100
AcDbEntity
  8
0
100
AcDbSpline
 62
7
  6
CONTINUOUS
 70
0
 71
3
 72
30
 73
26
 74
0
 42
0.0000001
 43
0.0000001
 44
0.0000000001
 40
0.0
 40
0.0
 40
0.0
 40
0.0
 40
0.0313941126
 40
0.0627965016
 40
0.0941818472
 40
0.1255551361
 40
0.1881821359
 40
0.250722511
 40
0.2819920414
 40
0.3132383958
 40
0.344462611
 40
0.3756667573
 40
0.4379585612
 40
0.5002080092
 40
0.5624465728
 40
0.6247047155
 40
0.6870146952
 40
0.7182304516
 40
0.7494676976
 40
0.8119425576
 40
0.8745091607
 40
0.9058590902
 40
0.9372269502
 40
0.9686054247
 40
1.0
 40
1.0
 40
1.0
 40
1.0
 10
5.0830094427
 20
7.1381755929
 30
0.0
 10
5.0848761325
 20
7.1376597084
 30
0.0
 10
5.0886605705
 20
7.1368015954
 30
0.0
 10
5.0944297101
 20
7.1360496195
 30
0.0
 10
5.1002436857
 20
7.1358413957
 30
0.0
 10
5.107974969
 20
7.1362908336
 30
0.0
 10
5.1175012819
 20
7.1382078957
 30
0.0
 10
5.1264962339
 20
7.141866737
 30
0.0
 10
5.1331739324
 20
7.1457485078
 30
0.0
 10
5.1378878037
 20
7.1491129503
 30
0.0
 10
5.1422643266
 20
7.1528997571
 30
0.0
 10
5.1475945383
 20
7.1584607931
 30
0.0
 10
5.1532480673
 20
7.1663041293
 30
0.0
 10
5.1581615554
 20
7.1767984165
 30
0.0
 10
5.1610452564
 20
7.1880216933
 30
0.0
 10
5.1617982708
 20
7.1995864631
 30
0.0
 10
5.1606261047
 20
7.2091859997
 30
0.0
 10
5.1586332746
 20
7.2166299904
 30
0.0
 10
5.1559523149
 20
7.2238657841
 30
0.0
 10
5.1513447514
 20
7.232402113
 30
0.0
 10
5.1452221366
 20
7.2399358924
 30
0.0
 10
5.1395497098
 20
7.2451990429
 30
0.0
 10
5.134936803
 20
7.2487374305
 30
0.0
 10
5.130010396
 20
7.2518278145
 30
0.0
 10
5.1265459046
 20
7.2535726297
 30
0.0
 10
5.1247776223
 20
7.2543625385
 30
0.0
  0
SPLINE
  5
4BE
100
AcDbEntity
  8
0
100
AcDbSpline
 62
7
  6
CONTINUOUS
 70
0
 71
3
 72
34
 73
30
 74
0
 42
0.0000001
 43
0.0000001
 44
0.0000000001
 40
0.0
 40
0.0
 40
0.0
 40
0.0
 40
0.0313477679
 40
0.0627566274
 40
0.0941508224
 40
0.1255080411
 40
0.1568519267
 40
0.1881868373
 40
0.2506995894
 40
0.2819382415
 40
0.313157755
 40
0.3443672779
 40
0.3755608364
 40
0.4378114739
 40
0.4689541804
 40
0.5000971684
 40
0.5623081297
 40
0.6245471867
 40
0.6557374831
 40
0.6869484657
 40
0.7181655226
 40
0.749390342
 40
0.8118738133
 40
0.8432025752
 40
0.874538052
 40
0.9058820701
 40
0.9372617835
 40
0.9686590995
 40
1.0
 40
1.0
 40
1.0
 40
1.0
 10
5.1160967148
 20
7.257484442
 30
0.0
 10
5.1141370156
 20
7.2580159726
 30
0.0
 10
5.1101627293
 20
7.2589015949
 30
0.0
 10
5.1041035678
 20
7.2596666955
 30
0.0
 10
5.097996116
 20
7.2598354041
 30
0.0
 10
5.0919083624
 20
7.2593712302
 30
0.0
 10
5.0859012979
 20
7.2583018874
 30
0.0
 10
5.0780843035
 20
7.2561110026
 30
0.0
 10
5.0706184044
 20
7.2528107109
 30
0.0
 10
5.0637684636
 20
7.2484775493
 30
0.0
 10
5.0589853443
 20
7.2447277684
 30
0.0
 10
5.054597038
 20
7.2405276633
 30
0.0
 10
5.0493285369
 20
7.2343963673
 30
0.0
 10
5.0449816378
 20
7.2275252171
 30
0.0
 10
5.0417052515
 20
7.220142521
 30
0.0
 10
5.0391709958
 20
7.2124749111
 30
0.0
 10
5.0374263749
 20
7.2024785247
 30
0.0
 10
5.0376773022
 20
7.1923319183
 30
0.0
 10
5.0390363134
 20
7.1843633332
 30
0.0
 10
5.0406306437
 20
7.1785024867
 30
0.0
 10
5.0427921957
 20
7.1728232362
 30
0.0
 10
5.0464244711
 20
7.1655797486
 30
0.0
 10
5.0511466061
 20
7.15892374
 30
0.0
 10
5.0567267773
 20
7.1530323808
 30
0.0
 10
5.0613221835
 20
7.1490218343
 30
0.0
 10
5.06629198
 20
7.1454799934
 30
0.0
 10
5.0716035276
 20
7.1424653941
 30
0.0
 10
5.0771883093
 20
7.1399977322
 30
0.0
 10
5.0810536803
 20
7.1387197736
 30
0.0
 10
5.0830094427
 20
7.1381755929
 30
0.0
  0
SPLINE
  5
4BF
100
AcDbEntity
  8
0
100
AcDbSpline
 62
7
  6
CONTINUOUS
 70
0
 71
3
 72
27
 73
23
 74
0
 42
0.0000001
 43
0.0000001
 44
0.0000000001
 40
0.0
 40
0.0
 40
0.0
 40
0.0
 40
0.0627354857
 40
0.1253897139
 40
0.1567330909
 40
0.1880523224
 40
0.2193399702
 40
0.2505980579
 40
0.3130019496
 40
0.3753460309
 40
0.4376263864
 40
0.4998842866
 40
0.5310455997
 40
0.5622107626
 40
0.6245084693
 40
0.6868712666
 40
0.718110108
 40
0.7493665397
 40
0.8118933552
 40
0.8745182697
 40
0.9372122761
 40
1.0
 40
1.0
 40
1.0
 40
1.0
 10
4.4075017386
 20
6.8894305849
 30
0.0
 10
4.4093032788
 20
6.8927900088
 30
0.0
 10
4.4123284568
 20
6.8998378176
 30
0.0
 10
4.4143479371
 20
6.9092061442
 30
0.0
 10
4.4149220642
 20
6.9168074484
 30
0.0
 10
4.4148366336
 20
6.9225236181
 30
0.0
 10
4.4142320192
 20
6.928203325
 30
0.0
 10
4.4127306613
 20
6.9356551769
 30
0.0
 10
4.4095552071
 20
6.9446497857
 30
0.0
 10
4.4038518261
 20
6.9545506097
 30
0.0
 10
4.3964518617
 20
6.963247028
 30
0.0
 10
4.3890555694
 20
6.9692388368
 30
0.0
 10
4.3825694661
 20
6.9731600083
 30
0.0
 10
4.3757471569
 20
6.9764677661
 30
0.0
 10
4.3666896434
 20
6.9794145371
 30
0.0
 10
4.3572408785
 20
6.9806539219
 30
0.0
 10
4.349644881
 20
6.980600019
 30
0.0
 10
4.3420766201
 20
6.9798401686
 30
0.0
 10
4.3327866462
 20
6.9775766437
 30
0.0
 10
4.3223135991
 20
6.9728835177
 30
0.0
 10
4.3128648848
 20
6.96633455
 30
0.0
 10
4.3075015442
 20
6.9608436023
 30
0.0
 10
4.3050836019
 20
6.9578924939
 30
0.0
  0
SPLINE
  5
4C0
100
AcDbEntity
  8
0
100
AcDbSpline
 62
7
  6
CONTINUOUS
 70
0
 71
3
 72
29
 73
25
 74
0
 42
0.0000001
 43
0.0000001
 44
0.0000000001
 40
0.0
 40
0.0
 40
0.0
 40
0.0
 40
0.062769052
 40
0.0941447264
 40
0.1255047151
 40
0.1568575789
 40
0.1881929777
 40
0.2506993129
 40
0.2819406232
 40
0.3131703931
 40
0.3755254726
 40
0.43780594
 40
0.468962649
 40
0.5001203253
 40
0.5623692841
 40
0.5935294509
 40
0.6247056185
 40
0.6870609822
 40
0.7494572691
 40
0.8119343304
 40
0.8432638273
 40
0.8746109817
 40
0.9372572463
 40
1.0
 40
1.0
 40
1.0
 40
1.0
 10
4.2982223728
 20
6.9475563853
 30
0.0
 10
4.2964410471
 20
6.9441809619
 30
0.0
 10
4.2942055117
 20
6.9388640784
 30
0.0
 10
4.2922962456
 20
6.9314664857
 30
0.0
 10
4.2913946176
 20
6.9258081635
 30
0.0
 10
4.2910161789
 20
6.9200939119
 30
0.0
 10
4.2911966458
 20
6.9124763057
 30
0.0
 10
4.2924060364
 20
6.9049155746
 30
0.0
 10
4.2946530178
 20
6.8976465101
 30
0.0
 10
4.2975672634
 20
6.8906277318
 30
0.0
 10
4.3023985314
 20
6.8824090712
 30
0.0
 10
4.3086384588
 20
6.8752075667
 30
0.0
 10
4.3143451973
 20
6.8702101095
 30
0.0
 10
4.3204864103
 20
6.8657627859
 30
0.0
 10
4.327217294
 20
6.8621793936
 30
0.0
 10
4.3343415131
 20
6.8595790569
 30
0.0
 10
4.3416796588
 20
6.8576362689
 30
0.0
 10
4.3511446697
 20
6.8564659814
 30
0.0
 10
4.3625739922
 20
6.8571492747
 30
0.0
 10
4.3718303206
 20
6.859535416
 30
0.0
 10
4.3788831861
 20
6.8624147155
 30
0.0
 10
4.3856650503
 20
6.8659079941
 30
0.0
 10
4.3935196477
 20
6.8714080867
 30
0.0
 10
4.3988428984
 20
6.8769399734
 30
0.0
 10
4.4012290884
 20
6.8799166323
 30
0.0
  0
SPLINE
  5
4C1
100
AcDbEntity
  8
0
100
AcDbSpline
 62
7
  6
CONTINUOUS
 70
0
 71
3
 72
31
 73
27
 74
0
 42
0.0000001
 43
0.0000001
 44
0.0000000001
 40
0.0
 40
0.0
 40
0.0
 40
0.0
 40
0.0627186951
 40
0.1253558961
 40
0.1566914069
 40
0.1880025458
 40
0.2192814276
 40
0.2505303881
 40
0.3129172172
 40
0.3752455249
 40
0.406416666
 40
0.4375749429
 40
0.4687285692
 40
0.4998819999
 40
0.5310359468
 40
0.5621939641
 40
0.6244752089
 40
0.6556714488
 40
0.686886395
 40
0.7181175055
 40
0.7493664345
 40
0.7806407905
 40
0.8119424871
 40
0.8745504725
 40
0.9372286007
 40
1.0
 40
1.0
 40
1.0
 40
1.0
 10
4.4324205649
 20
6.1652149544
 30
0.0
 10
4.4297823621
 20
6.1679663295
 30
0.0
 10
4.424014785
 20
6.1730214801
 30
0.0
 10
4.4157286326
 20
6.1778357973
 30
0.0
 10
4.4086769897
 20
6.1807304915
 30
0.0
 10
4.4032145792
 20
6.1824162226
 30
0.0
 10
4.3976264998
 20
6.183597166
 30
0.0
 10
4.3900756884
 20
6.1844726229
 30
0.0
 10
4.38054161
 20
6.1842320484
 30
0.0
 10
4.3712179602
 20
6.1822586173
 30
0.0
 10
4.3640807849
 20
6.1796904772
 30
0.0
 10
4.3589257518
 20
6.1772817479
 30
0.0
 10
4.3540168774
 20
6.1744073186
 30
0.0
 10
4.3493916128
 20
6.1710966159
 30
0.0
 10
4.3450877576
 20
6.1673760532
 30
0.0
 10
4.3398336714
 20
6.1619119551
 30
0.0
 10
4.3353484194
 20
6.1557446699
 30
0.0
 10
4.331773651
 20
6.1490531223
 30
0.0
 10
4.3295602778
 20
6.1438006668
 30
0.0
 10
4.3278368543
 20
6.1383648503
 30
0.0
 10
4.3266245921
 20
6.1327888221
 30
0.0
 10
4.3259333808
 20
6.1271199856
 30
0.0
 10
4.3257050643
 20
6.1195065313
 30
0.0
 10
4.3267271831
 20
6.1099859305
 30
0.0
 10
4.330035606
 20
6.0989782684
 30
0.0
 10
4.333600073
 20
6.0921802596
 30
0.0
 10
4.3356592161
 20
6.0889686339
 30
0.0
  0
SPLINE
  5
4C2
100
AcDbEntity
  8
0
100
AcDbSpline
 62
7
  6
CONTINUOUS
 70
0
 71
3
 72
29
 73
25
 74
0
 42
0.0000001
 43
0.0000001
 44
0.0000000001
 40
0.0
 40
0.0
 40
0.0
 40
0.0
 40
0.0627688253
 40
0.0941443448
 40
0.1255042131
 40
0.1568570039
 40
0.1881923343
 40
0.250698391
 40
0.2819395563
 40
0.3131692182
 40
0.3755241018
 40
0.4378043131
 40
0.4689608937
 40
0.5001184579
 40
0.5623672598
 40
0.5935273923
 40
0.6247035003
 40
0.6870585351
 40
0.7494547881
 40
0.8119327106
 40
0.8432619334
 40
0.8746081203
 40
0.9372554562
 40
1.0
 40
1.0
 40
1.0
 40
1.0
 10
4.3433713021
 20
6.079245224
 30
0.0
 10
4.3460312938
 20
6.0765077354
 30
0.0
 10
4.3503975646
 20
6.0727382437
 30
0.0
 10
4.3568438417
 20
6.0686362445
 30
0.0
 10
4.3619472074
 20
6.0660301911
 30
0.0
 10
4.3672654543
 20
6.0639045174
 30
0.0
 10
4.374566793
 20
6.0617222951
 30
0.0
 10
4.3821319882
 20
6.0605363434
 30
0.0
 10
4.3897403716
 20
6.060427622
 30
0.0
 10
4.397316857
 20
6.0610309998
 30
0.0
 10
4.4066269138
 20
6.0630872073
 30
0.0
 10
4.4154046373
 20
6.0667976751
 30
0.0
 10
4.421921097
 20
6.0706820336
 30
0.0
 10
4.4280484547
 20
6.0751496713
 30
0.0
 10
4.4335361428
 20
6.0804451567
 30
0.0
 10
4.438210228
 20
6.0864184642
 30
0.0
 10
4.4423249115
 20
6.0927983754
 30
0.0
 10
4.4463616783
 20
6.1014400501
 30
0.0
 10
4.4492416117
 20
6.1125228972
 30
0.0
 10
4.4498304722
 20
6.1220646909
 30
0.0
 10
4.4492694226
 20
6.1296627006
 30
0.0
 10
4.4480401352
 20
6.1371924884
 30
0.0
 10
4.4452335977
 20
6.1463621209
 30
0.0
 10
4.4416190374
 20
6.1531363492
 30
0.0
 10
4.4395239891
 20
6.1563252209
 30
0.0
  0
SPLINE
  5
4C3
100
AcDbEntity
  8
0
100
AcDbSpline
 62
7
  6
CONTINUOUS
 70
0
 71
3
 72
18
 73
14
 74
0
 42
0.0000001
 43
0.0000001
 44
0.0000000001
 40
0.0
 40
0.0
 40
0.0
 40
0.0
 40
0.0215944849
 40
0.0466763181
 40
0.0772078785
 40
0.1146140067
 40
0.1597908846
 40
0.2127200025
 40
0.3402138722
 40
0.492370528
 40
0.6597515525
 40
0.8319413191
 40
1.0
 40
1.0
 40
1.0
 40
1.0
 10
3.7390483775
 20
5.9313254163
 30
0.0
 10
3.7391434834
 20
5.931384754
 30
0.0
 10
3.73932429
 20
5.9315550059
 30
0.0
 10
3.7395143169
 20
5.9319134836
 30
0.0
 10
3.7396348671
 20
5.9323843829
 30
0.0
 10
3.7396814932
 20
5.9329717546
 30
0.0
 10
3.7396494404
 20
5.9336757599
 30
0.0
 10
3.7394926165
 20
5.9348374083
 30
0.0
 10
3.7390805706
 20
5.9365185087
 30
0.0
 10
3.7383243656
 20
5.9387142697
 30
0.0
 10
3.7373400944
 20
5.9410711657
 30
0.0
 10
3.7361917296
 20
5.9434440871
 30
0.0
 10
3.7353505541
 20
5.9449979137
 30
0.0
 10
3.7349184747
 20
5.9457558036
 30
0.0
  0
SPLINE
  5
4C4
100
AcDbEntity
  8
0
100
AcDbSpline
 62
7
  6
CONTINUOUS
 70
0
 71
3
 72
18
 73
14
 74
0
 42
0.0000001
 43
0.0000001
 44
0.0000000001
 40
0.0
 40
0.0
 40
0.0
 40
0.0
 40
0.0215952575
 40
0.0466789224
 40
0.0772128658
 40
0.1146215526
 40
0.1598007166
 40
0.2127315219
 40
0.3402269481
 40
0.4923825722
 40
0.6597603635
 40
0.8319457932
 40
1.0
 40
1.0
 40
1.0
 40
1.0
 10
3.7977043276
 20
5.8297307338
 30
0.0
 10
3.7978032826
 20
5.8297834083
 30
0.0
 10
3.7980411528
 20
5.8298548176
 30
0.0
 10
3.7984466342
 20
5.8298400846
 30
0.0
 10
3.7989147346
 20
5.8297089793
 30
0.0
 10
3.7994467364
 20
5.829455623
 30
0.0
 10
3.800040401
 20
5.8290758211
 30
0.0
 10
3.8009679964
 20
5.8283591455
 30
0.0
 10
3.8022178213
 20
5.8271617362
 30
0.0
 10
3.8037412596
 20
5.8254089775
 30
0.0
 10
3.8052901998
 20
5.8233781747
 30
0.0
 10
3.806770969
 20
5.8211972718
 30
0.0
 10
3.8076959986
 20
5.8196919337
 30
0.0
 10
3.8081362939
 20
5.8189388251
 30
0.0
  0
SPLINE
  5
4C5
100
AcDbEntity
  8
0
100
AcDbSpline
 62
7
  6
CONTINUOUS
 70
0
 71
3
 72
34
 73
30
 74
0
 42
0.0000001
 43
0.0000001
 44
0.0000000001
 40
0.0
 40
0.0
 40
0.0
 40
0.0
 40
0.0000966659
 40
0.0003118089
 40
0.000658385
 40
0.0011388278
 40
0.0025041597
 40
0.0044106609
 40
0.0068591583
 40
0.0098500044
 40
0.0133833686
 40
0.0174591904
 40
0.0272312417
 40
0.039147969
 40
0.0531901226
 40
0.0693383658
 40
0.0875733165
 40
0.1078755659
 40
0.1302256273
 40
0.1545976736
 40
0.2092562701
 40
0.271542088
 40
0.3411445268
 40
0.4177333023
 40
0.5009177467
 40
0.5902956322
 40
0.6854585901
 40
0.7858824858
 40
1.0
 40
1.0
 40
1.0
 40
1.0
 10
3.5132325407
 20
5.7420073719
 30
0.0
 10
3.5132335154
 20
5.7420056943
 30
0.0
 10
3.513241361
 20
5.7420057036
 30
0.0
 10
3.5132530366
 20
5.7420088966
 30
0.0
 10
3.5132734187
 20
5.7420158115
 30
0.0
 10
3.5133138182
 20
5.7420323836
 30
0.0
 10
3.5133825475
 20
5.7420638485
 30
0.0
 10
3.5134855981
 20
5.7421142005
 30
0.0
 10
3.5136171678
 20
5.7421808609
 30
0.0
 10
3.5137770069
 20
5.742263804
 30
0.0
 10
3.5139651891
 20
5.7423630805
 30
0.0
 10
3.5142729128
 20
5.7425274313
 30
0.0
 10
3.514727589
 20
5.7427738003
 30
0.0
 10
3.5153564951
 20
5.743118482
 30
0.0
 10
3.5160962275
 20
5.7435272219
 30
0.0
 10
3.5169457554
 20
5.7439994602
 30
0.0
 10
3.5179040446
 20
5.7445346481
 30
0.0
 10
3.5189700651
 20
5.7451322235
 30
0.0
 10
3.5201426758
 20
5.7457915605
 30
0.0
 10
3.5219152685
 20
5.7467908101
 30
0.0
 10
3.5243841438
 20
5.7481871822
 30
0.0
 10
3.5276407222
 20
5.7500348881
 30
0.0
 10
3.5312779168
 20
5.7521037196
 30
0.0
 10
3.5352777142
 20
5.7543834605
 30
0.0
 10
3.5396205088
 20
5.7568629766
 30
0.0
 10
3.5442853388
 20
5.7595303494
 30
0.0
 10
3.549248906
 20
5.7623723502
 30
0.0
 10
3.5563831505
 20
5.7664619955
 30
0.0
 10
3.5618582648
 20
5.7696052922
 30
0.0
 10
3.565584661
 20
5.7717461983
 30
0.0
  0
SPLINE
  5
4C6
100
AcDbEntity
  8
0
100
AcDbSpline
 62
7
  6
CONTINUOUS
 70
0
 71
3
 72
18
 73
14
 74
0
 42
0.0000001
 43
0.0000001
 44
0.0000000001
 40
0.0
 40
0.0
 40
0.0
 40
0.0
 40
0.0215953041
 40
0.046679014
 40
0.0772129955
 40
0.1146217115
 40
0.1598008956
 40
0.2127317124
 40
0.3402271376
 40
0.4923827323
 40
0.659760476
 40
0.8319458494
 40
1.0
 40
1.0
 40
1.0
 40
1.0
 10
3.7977043375
 20
5.8297307139
 30
0.0
 10
3.7978032926
 20
5.8297833884
 30
0.0
 10
3.798041163
 20
5.8298547976
 30
0.0
 10
3.7984466446
 20
5.8298400648
 30
0.0
 10
3.7989147449
 20
5.8297089598
 30
0.0
 10
3.7994467467
 20
5.8294556041
 30
0.0
 10
3.800040411
 20
5.829075803
 30
0.0
 10
3.8009680056
 20
5.8283591288
 30
0.0
 10
3.8022178293
 20
5.8271617217
 30
0.0
 10
3.8037412657
 20
5.8254089661
 30
0.0
 10
3.8052902036
 20
5.8233781667
 30
0.0
 10
3.8067709705
 20
5.8211972675
 30
0.0
 10
3.8076959984
 20
5.8196919318
 30
0.0
 10
3.8081362928
 20
5.8189388244
 30
0.0
  0
LINE
  5
4C7
100
AcDbEntity
  8
0
100
AcDbLine
 62
7
  6
CONTINUOUS
 10
3.7407482439
 20
5.9504955201
 11
3.7349185438
 21
5.9457556772
  0
LINE
  5
4C8
100
AcDbEntity
  8
0
100
AcDbLine
 62
7
  6
CONTINUOUS
 10
3.8081362088
 20
5.8189389592
 11
3.8151558846
 21
5.8216177067
  0
SPLINE
  5
4C9
100
AcDbEntity
  8
0
100
AcDbSpline
 62
7
  6
CONTINUOUS
 70
0
 71
3
 72
18
 73
14
 74
0
 42
0.0000001
 43
0.0000001
 44
0.0000000001
 40
0.0
 40
0.0
 40
0.0
 40
0.0
 40
0.0215945294
 40
0.0466764084
 40
0.07720801
 40
0.1146141716
 40
0.1597910737
 40
0.2127202065
 40
0.3402140793
 40
0.4923707054
 40
0.659751678
 40
0.8319413819
 40
1.0
 40
1.0
 40
1.0
 40
1.0
 10
3.7390483667
 20
5.9313254335
 30
0.0
 10
3.7391434725
 20
5.9313847714
 30
0.0
 10
3.7393242791
 20
5.9315550235
 30
0.0
 10
3.7395143062
 20
5.9319135013
 30
0.0
 10
3.7396348565
 20
5.9323844006
 30
0.0
 10
3.7396814828
 20
5.9329717721
 30
0.0
 10
3.7396494305
 20
5.9336757768
 30
0.0
 10
3.7394926073
 20
5.934837424
 30
0.0
 10
3.7390805624
 20
5.9365185224
 30
0.0
 10
3.738324359
 20
5.9387142804
 30
0.0
 10
3.7373400896
 20
5.9410711728
 30
0.0
 10
3.7361917267
 20
5.9434440905
 30
0.0
 10
3.7353505525
 20
5.9449979144
 30
0.0
 10
3.7349184737
 20
5.945755803
 30
0.0
  0
ELLIPSE
  5
4CA
100
AcDbEntity
  8
0
100
AcDbEllipse
 62
7
  6
CONTINUOUS
 10
5.9665465459
 20
7.1496422319
 30
0.0
 11
0.0112566599
 21
0.0064990356
 31
0.0
 40
0.9900227071
 41
0.0
 42
6.2831853072
  0
ELLIPSE
  5
4CB
100
AcDbEntity
  8
0
100
AcDbEllipse
 62
7
  6
CONTINUOUS
 10
4.0856320814
 20
5.905496681
 30
0.0
 11
0.0104836205
 21
0.0080443649
 31
0.0
 40
0.9993755408
 41
0.0
 42
6.2831853072
  0
ELLIPSE
  5
4CC
100
AcDbEntity
  8
0
100
AcDbEllipse
 62
7
  6
CONTINUOUS
 10
4.5166842092
 20
5.57473875
 30
0.0
 11
0.0050568992
 21
0.0122084346
 31
0.0
 40
0.9993755408
 41
0.0
 42
6.2831853072
  0
ELLIPSE
  5
4CD
100
AcDbEntity
  8
0
100
AcDbEllipse
 62
7
  6
CONTINUOUS
 10
5.0553652677
 20
5.5038200433
 30
0.0
 11
-0.0017248141
 21
0.0131012641
 31
0.0
 40
0.9993755408
 41
0.0
 42
6.2831853072
  0
ELLIPSE
  5
4CE
100
AcDbEntity
  8
0
100
AcDbEllipse
 62
7
  6
CONTINUOUS
 10
5.5573361023
 20
5.7117431709
 30
0.0
 11
-0.0080443649
 21
0.0104836205
 31
0.0
 40
0.9993755408
 41
0.0
 42
6.2831853072
  0
ELLIPSE
  5
4CF
100
AcDbEntity
  8
0
100
AcDbEllipse
 62
7
  6
CONTINUOUS
 10
5.8880940332
 20
6.1427952987
 30
0.0
 11
-0.0122084346
 21
0.0050568992
 31
0.0
 40
0.9993755408
 41
0.0
 42
6.2831853072
  0
ELLIPSE
  5
4D0
100
AcDbEntity
  8
0
100
AcDbEllipse
 62
7
  6
CONTINUOUS
 10
5.95901274
 20
6.6814763572
 30
0.0
 11
-0.0131012641
 21
-0.0017248141
 31
0.0
 40
0.9993755408
 41
0.0
 42
6.2831853072
  0
ELLIPSE
  5
4D1
100
AcDbEntity
  8
0
100
AcDbEllipse
 62
7
  6
CONTINUOUS
 10
5.8879937758
 20
6.9461070461
 30
0.0
 11
-0.0121081772
 21
-0.0050153712
 31
0.0
 40
0.9960990528
 41
0.0
 42
3.1415926536
  0
ELLIPSE
  5
4D2
100
AcDbEntity
  8
0
100
AcDbEllipse
 62
7
  6
CONTINUOUS
 10
5.8879937758
 20
6.9461070461
 30
0.0
 11
0.0121081772
 21
0.0050153712
 31
0.0
 40
0.9960990528
 41
0.0
 42
3.1415926536
  0
ELLIPSE
  5
4D3
100
AcDbEntity
  8
0
100
AcDbEllipse
 62
7
  6
CONTINUOUS
 10
4.2794516529
 20
5.7118292639
 30
0.0
 11
0.0079783035
 21
0.0103975275
 31
0.0
 40
0.9960990528
 41
0.0
 42
6.2831853072
  0
ELLIPSE
  5
4D4
100
AcDbEntity
  8
0
100
AcDbEllipse
 62
7
  6
CONTINUOUS
 10
4.7813705904
 20
5.5039276327
 30
0.0
 11
0.0017106497
 21
0.0129936747
 31
0.0
 40
0.9960990528
 41
0.0
 42
6.2831853072
  0
ELLIPSE
  5
4D5
100
AcDbEntity
  8
0
100
AcDbEllipse
 62
7
  6
CONTINUOUS
 10
5.3199959566
 20
5.5748390074
 30
0.0
 11
-0.0050153712
 21
0.0121081772
 31
0.0
 40
0.9960990528
 41
0.0
 42
6.2831853072
  0
ELLIPSE
  5
4D6
100
AcDbEntity
  8
0
100
AcDbEllipse
 62
7
  6
CONTINUOUS
 10
5.7510035194
 20
5.9055627424
 30
0.0
 11
-0.0103975275
 21
0.0079783035
 31
0.0
 40
0.9960990528
 41
0.0
 42
6.2831853072
  0
ELLIPSE
  5
4D7
100
AcDbEntity
  8
0
100
AcDbEllipse
 62
7
  6
CONTINUOUS
 10
5.9589051505
 20
6.40748168
 30
0.0
 11
-0.0129936747
 21
0.0017106497
 31
0.0
 40
0.9960990528
 41
0.0
 42
6.2831853072
  0
ELLIPSE
  5
4D8
100
AcDbEntity
  8
0
100
AcDbEllipse
 62
7
  6
CONTINUOUS
 10
6.0874600823
 20
6.8577311324
 30
0.0
 11
-0.0125551727
 21
-0.0033641484
 31
0.0
 40
0.9900227071
 41
-0.0000000001
 42
3.1415926536
  0
ELLIPSE
  5
4D9
100
AcDbEntity
  8
0
100
AcDbEllipse
 62
7
  6
CONTINUOUS
 10
6.0874600823
 20
6.8577311324
 30
0.0
 11
0.0125551727
 21
0.0033641484
 31
0.0
 40
0.9900227071
 41
0.0
 42
3.1415926535
  0
ELLIPSE
  5
4DA
100
AcDbEntity
  8
0
100
AcDbEllipse
 62
7
  6
CONTINUOUS
 10
6.1287014378
 20
6.5444719364
 30
0.0
 11
-0.0129980712
 21
-0.0
 31
0.0
 40
0.9900227071
 41
0.0
 42
6.2831853072
  0
ELLIPSE
  5
4DB
100
AcDbEntity
  8
0
100
AcDbEllipse
 62
7
  6
CONTINUOUS
 10
6.0874600823
 20
6.2312127404
 30
0.0
 11
-0.0125551727
 21
0.0033641484
 31
0.0
 40
0.9900227071
 41
0.0
 42
6.2831853072
  0
ELLIPSE
  5
4DC
100
AcDbEntity
  8
0
100
AcDbEllipse
 62
7
  6
CONTINUOUS
 10
5.9665465459
 20
5.9393016409
 30
0.0
 11
-0.0112566599
 21
0.0064990356
 31
0.0
 40
0.9900227071
 41
0.0
 42
6.2831853072
  0
ELLIPSE
  5
4DD
100
AcDbEntity
  8
0
100
AcDbEllipse
 62
7
  6
CONTINUOUS
 10
5.7742008863
 20
5.688631897
 30
0.0
 11
-0.0091910243
 21
0.0091910243
 31
0.0
 40
0.9900227071
 41
0.0
 42
6.2831853072
  0
ELLIPSE
  5
4DE
100
AcDbEntity
  8
0
100
AcDbEllipse
 62
7
  6
CONTINUOUS
 10
5.5235311423
 20
5.4962862374
 30
0.0
 11
-0.0064990356
 21
0.0112566599
 31
0.0
 40
0.9900227071
 41
0.0
 42
6.2831853072
  0
ELLIPSE
  5
4DF
100
AcDbEntity
  8
0
100
AcDbEllipse
 62
7
  6
CONTINUOUS
 10
5.2316200429
 20
5.375372701
 30
0.0
 11
-0.0033641484
 21
0.0125551727
 31
0.0
 40
0.9900227071
 41
0.0
 42
6.2831853072
  0
ELLIPSE
  5
4E0
100
AcDbEntity
  8
0
100
AcDbEllipse
 62
7
  6
CONTINUOUS
 10
4.9183608469
 20
5.3341313455
 30
0.0
 11
-0.0
 21
0.0129980712
 31
0.0
 40
0.9900227071
 41
0.0
 42
6.2831853072
  0
ELLIPSE
  5
4E1
100
AcDbEntity
  8
0
100
AcDbEllipse
 62
7
  6
CONTINUOUS
 10
4.6051016509
 20
5.375372701
 30
0.0
 11
0.0033641484
 21
0.0125551727
 31
0.0
 40
0.9900227071
 41
0.0
 42
6.2831853072
  0
ELLIPSE
  5
4E2
100
AcDbEntity
  8
0
100
AcDbEllipse
 62
7
  6
CONTINUOUS
 10
4.3131905514
 20
5.4962862374
 30
0.0
 11
0.0064990356
 21
0.0112566599
 31
0.0
 40
0.9900227071
 41
0.0
 42
6.2831853072
  0
ELLIPSE
  5
4E3
100
AcDbEntity
  8
0
100
AcDbEllipse
 62
7
  6
CONTINUOUS
 10
4.0625208075
 20
5.688631897
 30
0.0
 11
0.0091910243
 21
0.0091910243
 31
0.0
 40
0.9900227071
 41
0.0
 42
6.2831853072
  0
ELLIPSE
  5
4E4
100
AcDbEntity
  8
0
100
AcDbEllipse
 62
7
  6
CONTINUOUS
 10
5.7510896124
 20
7.1834471918
 30
0.0
 11
-0.0104836205
 21
-0.0080443649
 31
0.0
 40
0.9993755408
 41
-0.0
 42
3.1415926536
  0
ELLIPSE
  5
4E5
100
AcDbEntity
  8
0
100
AcDbEllipse
 62
7
  6
CONTINUOUS
 10
5.7510896124
 20
7.1834471918
 30
0.0
 11
0.0104836205
 21
0.0080443649
 31
0.0
 40
0.9993755408
 41
-0.0
 42
3.1415926536
  0
ELLIPSE
  5
4E6
100
AcDbEntity
  8
0
100
AcDbEllipse
 62
7
  6
CONTINUOUS
 10
5.3200374845
 20
7.5142051227
 30
0.0
 11
-0.0050568992
 21
-0.0122084346
 31
0.0
 40
0.9993755408
 41
0.0
 42
3.1415926536
  0
ELLIPSE
  5
4E7
100
AcDbEntity
  8
0
100
AcDbEllipse
 62
7
  6
CONTINUOUS
 10
5.3200374845
 20
7.5142051227
 30
0.0
 11
0.0050568992
 21
0.0122084346
 31
0.0
 40
0.9993755408
 41
0.0
 42
3.1415926536
  0
ELLIPSE
  5
4E8
100
AcDbEntity
  8
0
100
AcDbEllipse
 62
7
  6
CONTINUOUS
 10
4.781356426
 20
7.5851238295
 30
0.0
 11
0.0017248141
 21
-0.0131012641
 31
0.0
 40
0.9993755408
 41
0.0
 42
6.2831853072
  0
ELLIPSE
  5
4E9
100
AcDbEntity
  8
0
100
AcDbEllipse
 62
7
  6
CONTINUOUS
 10
4.2793855914
 20
7.3772007019
 30
0.0
 11
0.0080443649
 21
-0.0104836205
 31
0.0
 40
0.9993755408
 41
0.0
 42
6.2831853072
  0
ELLIPSE
  5
4EA
100
AcDbEntity
  8
0
100
AcDbEllipse
 62
7
  6
CONTINUOUS
 10
3.9486276605
 20
6.9461485741
 30
0.0
 11
0.0122084346
 21
-0.0050568992
 31
0.0
 40
0.9993755408
 41
0.0
 42
6.2831853072
  0
ELLIPSE
  5
4EB
100
AcDbEntity
  8
0
100
AcDbEllipse
 62
7
  6
CONTINUOUS
 10
3.8777089538
 20
6.4074675155
 30
0.0
 11
0.0131012641
 21
0.0017248141
 31
0.0
 40
0.9993755408
 41
0.0
 42
6.2831853072
  0
ELLIPSE
  5
4EC
100
AcDbEntity
  8
0
100
AcDbEllipse
 62
7
  6
CONTINUOUS
 10
5.5572700408
 20
7.3771146089
 30
0.0
 11
-0.0079783035
 21
-0.0103975275
 31
0.0
 40
0.9960990528
 41
-0.0
 42
3.1415926536
  0
ELLIPSE
  5
4ED
100
AcDbEntity
  8
0
100
AcDbEllipse
 62
7
  6
CONTINUOUS
 10
5.5572700408
 20
7.3771146089
 30
0.0
 11
0.0079783035
 21
0.0103975275
 31
0.0
 40
0.9960990528
 41
-0.0
 42
3.1415926535
  0
ELLIPSE
  5
4EE
100
AcDbEntity
  8
0
100
AcDbEllipse
 62
7
  6
CONTINUOUS
 10
5.0553511033
 20
7.5850162401
 30
0.0
 11
-0.0017106497
 21
-0.0129936747
 31
0.0
 40
0.9960990528
 41
0.0
 42
6.2831853072
  0
ELLIPSE
  5
4EF
100
AcDbEntity
  8
0
100
AcDbEllipse
 62
7
  6
CONTINUOUS
 10
4.5167257372
 20
7.5141048653
 30
0.0
 11
0.0050153712
 21
-0.0121081772
 31
0.0
 40
0.9960990528
 41
0.0
 42
6.2831853072
  0
ELLIPSE
  5
4F0
100
AcDbEntity
  8
0
100
AcDbEllipse
 62
7
  6
CONTINUOUS
 10
4.0857181743
 20
7.1833811304
 30
0.0
 11
0.0103975275
 21
-0.0079783035
 31
0.0
 40
0.9960990528
 41
0.0
 42
6.2831853072
  0
ELLIPSE
  5
4F1
100
AcDbEntity
  8
0
100
AcDbEllipse
 62
7
  6
CONTINUOUS
 10
3.8778165432
 20
6.6814621928
 30
0.0
 11
0.0129936747
 21
-0.0017106497
 31
0.0
 40
0.9960990528
 41
0.0
 42
6.2831853072
  0
ELLIPSE
  5
4F2
100
AcDbEntity
  8
0
100
AcDbEllipse
 62
7
  6
CONTINUOUS
 10
3.9487279179
 20
6.1428368267
 30
0.0
 11
0.0121081772
 21
0.0050153712
 31
0.0
 40
0.9960990528
 41
0.0
 42
6.2831853072
  0
ELLIPSE
  5
4F3
100
AcDbEntity
  8
0
100
AcDbEllipse
 62
7
  6
CONTINUOUS
 10
5.7742008863
 20
7.4003119758
 30
0.0
 11
-0.0091910243
 21
-0.0091910243
 31
0.0
 40
0.9900227071
 41
0.0000000001
 42
3.1415926536
  0
ELLIPSE
  5
4F4
100
AcDbEntity
  8
0
100
AcDbEllipse
 62
7
  6
CONTINUOUS
 10
5.7742008863
 20
7.4003119758
 30
0.0
 11
0.0091910243
 21
0.0091910243
 31
0.0
 40
0.9900227071
 41
-0.0
 42
3.1415926536
  0
ELLIPSE
  5
4F5
100
AcDbEntity
  8
0
100
AcDbEllipse
 62
7
  6
CONTINUOUS
 10
5.5235311423
 20
7.5926576354
 30
0.0
 11
-0.0064990356
 21
-0.0112566599
 31
0.0
 40
0.9900227071
 41
0.0
 42
6.2831853072
  0
ELLIPSE
  5
4F6
100
AcDbEntity
  8
0
100
AcDbEllipse
 62
7
  6
CONTINUOUS
 10
5.2316200429
 20
7.7135711718
 30
0.0
 11
-0.0033641484
 21
-0.0125551727
 31
0.0
 40
0.9900227071
 41
0.0
 42
6.2831853072
  0
ELLIPSE
  5
4F7
100
AcDbEntity
  8
0
100
AcDbEllipse
 62
7
  6
CONTINUOUS
 10
4.9183608469
 20
7.7548125273
 30
0.0
 11
0.0
 21
-0.0129980712
 31
0.0
 40
0.9900227071
 41
0.0
 42
6.2831853072
  0
ELLIPSE
  5
4F8
100
AcDbEntity
  8
0
100
AcDbEllipse
 62
7
  6
CONTINUOUS
 10
4.6051016509
 20
7.7135711718
 30
0.0
 11
0.0033641484
 21
-0.0125551727
 31
0.0
 40
0.9900227071
 41
0.0
 42
6.2831853072
  0
ELLIPSE
  5
4F9
100
AcDbEntity
  8
0
100
AcDbEllipse
 62
7
  6
CONTINUOUS
 10
4.3131905514
 20
7.5926576354
 30
0.0
 11
0.0064990356
 21
-0.0112566599
 31
0.0
 40
0.9900227071
 41
0.0
 42
6.2831853072
  0
ELLIPSE
  5
4FA
100
AcDbEntity
  8
0
100
AcDbEllipse
 62
7
  6
CONTINUOUS
 10
4.0625208075
 20
7.4003119758
 30
0.0
 11
0.0091910243
 21
-0.0091910243
 31
0.0
 40
0.9900227071
 41
0.0
 42
6.2831853072
  0
ELLIPSE
  5
4FB
100
AcDbEntity
  8
0
100
AcDbEllipse
 62
7
  6
CONTINUOUS
 10
3.8701751479
 20
7.1496422319
 30
0.0
 11
0.0112566599
 21
-0.0064990356
 31
0.0
 40
0.9900227071
 41
0.0
 42
6.2831853072
  0
ELLIPSE
  5
4FC
100
AcDbEntity
  8
0
100
AcDbEllipse
 62
7
  6
CONTINUOUS
 10
3.7492616115
 20
6.8577311324
 30
0.0
 11
0.0125551727
 21
-0.0033641484
 31
0.0
 40
0.9900227071
 41
0.0
 42
6.2831853072
  0
ELLIPSE
  5
4FD
100
AcDbEntity
  8
0
100
AcDbEllipse
 62
7
  6
CONTINUOUS
 10
3.7080202559
 20
6.5444719364
 30
0.0
 11
0.0129980712
 21
0.0
 31
0.0
 40
0.9900227071
 41
0.0
 42
6.2831853072
  0
ELLIPSE
  5
4FE
100
AcDbEntity
  8
0
100
AcDbEllipse
 62
7
  6
CONTINUOUS
 10
3.7492616115
 20
6.2312127404
 30
0.0
 11
0.0125551727
 21
0.0033641484
 31
0.0
 40
0.9900227071
 41
0.0
 42
6.2831853072
  0
ENDSEC
  0
SECTION
  2
OBJECTS
  0
DICTIONARY
  5
C
100
AcDbDictionary
280
0
281
1
  3
ACAD_GROUP
350
D
  3
ACAD_MLINESTYLE
350
17
  3
ACAD_LAYOUT
350
1A
  3
ACAD_PLOTSETTINGS
350
19
  3
ACAD_PLOTSTYLENAME
350
E
  0
DICTIONARY
  5
D
102
{ACAD_REACTORS
330
C
102
}
100
AcDbDictionary
280
0
281
1
  0
ACDBDICTIONARYWDFLT
  5
E
102
{ACAD_REACTORS
330
C
102
}
100
AcDbDictionary
281
1
  3
Normal
350
F
100
AcDbDictionaryWithDefault
340
F
  0
DICTIONARY
  5
17
102
{ACAD_REACTORS
330
C
102
}
100
AcDbDictionary
280
0
281
1
  3
Standard
350
18
  0
DICTIONARY
  5
19
102
{ACAD_REACTORS
330
C
102
}
100
AcDbDictionary
281
1
  0
DICTIONARY
  5
1A
102
{ACAD_REACTORS
330
C
102
}
100
AcDbDictionary
281
1
  3
Model
350
4FF
  3
Layout1
350
500
  0
ACDBPLACEHOLDER
  5
F
102
{ACAD_REACTORS
330
E
102
}
  0
MLINESTYLE
  5
18
102
{ACAD_REACTORS
330
17
102
}
100
AcDbMlineStyle
  2
STANDARD
 70
0
  3

 62
256
 51
90.0
 52
90.0
 71
2
 49
0.5
 62
256
  6
BYLAYER
 49
-0.5
 62
256
  6
BYLAYER
  0
LAYOUT
  5
4FF
102
{ACAD_REACTORS
330
1A
102
}
100
AcDbPlotSettings
  1

  2
none_device
  4
ANSI_A_(11.00_x_8.50_Inches)
  6

 40
0.0
 41
0.0
 42
0.0
 43
0.0
 44
279.4
 45
215.9
 46
0.0
 47
0.0
 48
0.0
 49
0.0
140
0.0
141
0.0
142
1.0
143
1.0
 70
1024
 72
0
 73
0
 74
0
  7

 75
0
147
1.0
148
0.0
149
0.0
100
AcDbLayout
  1
Model
 70
0
 71
0
 10
0.0
 20
0.0
 11
11.0
 21
8.5
 12
0.0
 22
0.0
 32
0.0
 14
0.0
 24
0.0
 34
0.0
 15
0.0
 25
0.0
 35
0.0
146
0.0
 13
0.0
 23
0.0
 33
0.0
 16
1.0
 26
0.0
 36
0.0
 17
0.0
 27
1.0
 37
0.0
 76
0
330
248
345
0
346
0
  0
LAYOUT
  5
500
102
{ACAD_REACTORS
330
1A
102
}
100
AcDbPlotSettings
  1

  2
none_device
  4
ANSI_A_(11.00_x_8.50_Inches)
  6

 40
0.0
 41
0.0
 42
0.0
 43
0.0
 44
279.4
 45
215.9
 46
0.0
 47
0.0
 48
0.0
 49
0.0
140
0.0
141
0.0
142
1.0
143
1.0
 70
0
 72
0
 73
0
 74
0
  7

 75
0
147
1.0
148
0.0
149
0.0
100
AcDbLayout
  1
Layout1
 70
0
 71
1
 10
0.0
 20
0.0
 11
11.0
 21
8.5
 12
0.0
 22
0.0
 32
0.0
 14
0.0
 24
0.0
 34
0.0
 15
0.0
 25
0.0
 35
0.0
146
0.0
 13
0.0
 23
0.0
 33
0.0
 16
1.0
 26
0.0
 36
0.0
 17
0.0
 27
1.0
 37
0.0
 76
0
330
249
345
0
346
0
  0
ENDSEC
  0
EOF
