999
DXF file: 283-3_TOP.dxf
999
Pro/ENGINEER 2018400 by Parametric Technology Corporation
  0
SECTION
  2
HEADER
  9
$ACADVER
  1
AC1027
  9
$DWGCODEPAGE
  3
ANSI_1252
  9
$EXTMAX
 10
11.0
 20
8.5
 30
0.0
  9
$EXTMIN
 10
0.0
 20
0.0
 30
0.0
  9
$LIMMIN
 10
0.0
 20
0.0
  9
$LIMMAX
 10
11.0
 20
8.5
  9
$VIEWCTR
 10
5.5
 20
4.25
  9
$VIEWSIZE
 40
8.5
  9
$CLAYER
  8
0
  9
$LTSCALE
 40
0.605
  9
$CELTYPE
  6
BYLAYER
  9
$DIMSCALE
 40
1.0
  9
$DIMASZ
 40
0.1
  9
$DIMEXO
 40
0.0625
  9
$DIMDLI
 40
0.418
  9
$DIMEXE
 40
0.125
  9
$DIMCEN
 40
0.099
  9
$DIMLFAC
 40
1.0
  9
$DIMBLK
  1
_FILLED
  9
$DIMALT
 70
1
  9
$DIMALTD
 70
2
  9
$DIMALTTD
 70
2
  9
$DIMALTF
 40
25.4
  9
$DIMTXT
 40
0.08
  9
$DIMTOL
 70
1
  9
$DIMLIM
 70
0
  9
$DIMTFAC
 40
1.0
  9
$DIMTP
 40
0.001
  9
$DIMTM
 40
0.001
  9
$DIMGAP
 40
0.09
  9
$DIMDSEP
 70
46
  9
$AUNITS
 70
0
  9
$PDMODE
 70
3
  9
$PDSIZE
 40
0.3125
  9
$HANDSEED
  5
526
  9
$TILEMODE
 70
1
  9
$MEASUREMENT
 70
0
  9
$INSUNITS
 70
1
  0
ENDSEC
  0
SECTION
  2
CLASSES
  0
CLASS
  1
ACDBDICTIONARYWDFLT
  2
AcDbDictionaryWithDefault
  3
AutoCAD 2000
 90
0
 91
1
280
0
281
0
  0
CLASS
  1
ACDBPLACEHOLDER
  2
AcDbPlaceHolder
  3
AutoCAD 2000
 90
0
 91
1
280
0
281
0
  0
CLASS
  1
LAYOUT
  2
AcDbLayout
  3
AutoCAD 2000
 90
0
 91
0
280
0
281
0
  0
ENDSEC
  0
SECTION
  2
TABLES
  0
TABLE
  2
VPORT
  5
8
100
AcDbSymbolTable
 70
2
  0
VPORT
  5
1F4
100
AcDbSymbolTableRecord
100
AcDbViewportTableRecord
  2
*ACTIVE
 70
0
 10
0.0
 20
0.0
 11
1.0
 21
1.0
 12
5.5
 22
4.25
 13
0.0
 23
0.0
 14
1.0
 24
1.0
 15
0.0
 25
0.0
 16
0.0
 26
0.0
 36
1.0
 17
0.0
 27
0.0
 37
0.0
 40
8.5
 41
1.2941176471
 42
50.0
 43
0.0
 44
0.0
 50
0.0
 51
0.0
 71
0
 72
100
 73
1
 74
1
 75
0
 76
0
 77
0
 78
0
  0
ENDTAB
  0
TABLE
  2
LTYPE
  5
5
100
AcDbSymbolTable
 70
6
  0
LTYPE
  5
14
100
AcDbSymbolTableRecord
100
AcDbLinetypeTableRecord
  2
BYBLOCK
 70
0
  3

 72
65
 73
0
 40
0.0
  0
LTYPE
  5
15
100
AcDbSymbolTableRecord
100
AcDbLinetypeTableRecord
  2
BYLAYER
 70
0
  3

 72
65
 73
0
 40
0.0
  0
LTYPE
  5
16
100
AcDbSymbolTableRecord
100
AcDbLinetypeTableRecord
  2
CONTINUOUS
 70
64
  3
Solid line
 72
65
 73
0
 40
0.0
  0
LTYPE
  5
1F5
100
AcDbSymbolTableRecord
100
AcDbLinetypeTableRecord
  2
CENTER
 70
64
  3
____ _ ____ _ ____ _ ____ _ ____ _ ____ _ ____
 72
65
 73
4
 40
0.6
 49
0.375
 74
0
 49
-0.075
 74
0
 49
0.075
 74
0
 49
-0.075
 74
0
  0
LTYPE
  5
1F6
100
AcDbSymbolTableRecord
100
AcDbLinetypeTableRecord
  2
HIDDEN
 70
64
  3
- - - - - - - - - - - - - - - - - - - -
 72
65
 73
2
 40
0.2
 49
0.1
 74
0
 49
-0.1
 74
0
  0
LTYPE
  5
1F7
100
AcDbSymbolTableRecord
100
AcDbLinetypeTableRecord
  2
PHANTOM
 70
64
  3
_____ _ _ _____ _ _ _____ _ _ _____
 72
65
 73
6
 40
0.8
 49
0.45
 74
0
 49
-0.05
 74
0
 49
0.1
 74
0
 49
-0.05
 74
0
 49
0.1
 74
0
 49
-0.05
 74
0
  0
LTYPE
  5
1F8
100
AcDbSymbolTableRecord
100
AcDbLinetypeTableRecord
  2
DOT
 70
64
  3
. . . . . . . . . . . . . . . . . . . .
 72
65
 73
2
 40
0.2
 49
0.1
 74
0
 49
-0.1
 74
0
  0
LTYPE
  5
1F9
100
AcDbSymbolTableRecord
100
AcDbLinetypeTableRecord
  2
DASHED
 70
64
  3
- - - - - - - - - - - - - - - - - - - -
 72
65
 73
2
 40
0.2
 49
0.1
 74
0
 49
-0.1
 74
0
  0
ENDTAB
  0
TABLE
  2
LAYER
  5
2
100
AcDbSymbolTable
 70
36
  0
LAYER
  5
10
100
AcDbSymbolTableRecord
100
AcDbLayerTableRecord
  2
0
 70
0
 62
7
  6
CONTINUOUS
370
-3
390
F
  0
LAYER
  5
1FA
100
AcDbSymbolTableRecord
100
AcDbLayerTableRecord
  2
DEFAULT_1
 70
0
 62
7
  6
CENTER
370
-3
390
F
  0
LAYER
  5
1FB
100
AcDbSymbolTableRecord
100
AcDbLayerTableRecord
  2
DEFAULT_2
 70
0
 62
8
  6
HIDDEN
370
-3
390
F
  0
LAYER
  5
1FC
100
AcDbSymbolTableRecord
100
AcDbLayerTableRecord
  2
DEFAULT_3
 70
0
 62
7
  6
PHANTOM
370
-3
390
F
  0
LAYER
  5
1FD
100
AcDbSymbolTableRecord
100
AcDbLayerTableRecord
  2
_  SHELL
 70
0
 62
7
  6
CONTINUOUS
370
-3
390
F
  0
LAYER
  5
1FE
100
AcDbSymbolTableRecord
100
AcDbLayerTableRecord
  2
06___PRT_ALL_SURFS_15
 70
0
 62
7
  6
CONTINUOUS
370
-3
390
F
  0
LAYER
  5
1FF
100
AcDbSymbolTableRecord
100
AcDbLayerTableRecord
  2
11_9
 70
0
 62
7
  6
CONTINUOUS
370
-3
390
F
  0
LAYER
  5
200
100
AcDbSymbolTableRecord
100
AcDbLayerTableRecord
  2
1451A0A-0Z1-01
 70
0
 62
7
  6
CONTINUOUS
370
-3
390
F
  0
LAYER
  5
201
100
AcDbSymbolTableRecord
100
AcDbLayerTableRecord
  2
1451A0A-0Z1-02
 70
0
 62
7
  6
CONTINUOUS
370
-3
390
F
  0
LAYER
  5
202
100
AcDbSymbolTableRecord
100
AcDbLayerTableRecord
  2
1451A0A-0Z1-02_1
 70
0
 62
7
  6
CONTINUOUS
370
-3
390
F
  0
LAYER
  5
203
100
AcDbSymbolTableRecord
100
AcDbLayerTableRecord
  2
1451A0A-0Z1-03
 70
0
 62
7
  6
CONTINUOUS
370
-3
390
F
  0
LAYER
  5
204
100
AcDbSymbolTableRecord
100
AcDbLayerTableRecord
  2
1451A0A-0Z1-04
 70
0
 62
7
  6
CONTINUOUS
370
-3
390
F
  0
LAYER
  5
205
100
AcDbSymbolTableRecord
100
AcDbLayerTableRecord
  2
1451A0A-0Z1-05
 70
0
 62
7
  6
CONTINUOUS
370
-3
390
F
  0
LAYER
  5
206
100
AcDbSymbolTableRecord
100
AcDbLayerTableRecord
  2
1451A0A-0Z1-06
 70
0
 62
7
  6
CONTINUOUS
370
-3
390
F
  0
LAYER
  5
207
100
AcDbSymbolTableRecord
100
AcDbLayerTableRecord
  2
1451A0A-0Z1-07
 70
0
 62
7
  6
CONTINUOUS
370
-3
390
F
  0
LAYER
  5
208
100
AcDbSymbolTableRecord
100
AcDbLayerTableRecord
  2
22_4
 70
0
 62
7
  6
CONTINUOUS
370
-3
390
F
  0
LAYER
  5
209
100
AcDbSymbolTableRecord
100
AcDbLayerTableRecord
  2
22_5
 70
0
 62
7
  6
CONTINUOUS
370
-3
390
F
  0
LAYER
  5
20A
100
AcDbSymbolTableRecord
100
AcDbLayerTableRecord
  2
264X18
 70
0
 62
7
  6
CONTINUOUS
370
-3
390
F
  0
LAYER
  5
20B
100
AcDbSymbolTableRecord
100
AcDbLayerTableRecord
  2
30X15
 70
0
 62
7
  6
CONTINUOUS
370
-3
390
F
  0
LAYER
  5
20C
100
AcDbSymbolTableRecord
100
AcDbLayerTableRecord
  2
315X18
 70
0
 62
7
  6
CONTINUOUS
370
-3
390
F
  0
LAYER
  5
20D
100
AcDbSymbolTableRecord
100
AcDbLayerTableRecord
  2
59X178
 70
0
 62
7
  6
CONTINUOUS
370
-3
390
F
  0
LAYER
  5
20E
100
AcDbSymbolTableRecord
100
AcDbLayerTableRecord
  2
6X15
 70
0
 62
7
  6
CONTINUOUS
370
-3
390
F
  0
LAYER
  5
20F
100
AcDbSymbolTableRecord
100
AcDbLayerTableRecord
  2
925X178
 70
0
 62
7
  6
CONTINUOUS
370
-3
390
F
  0
LAYER
  5
210
100
AcDbSymbolTableRecord
100
AcDbLayerTableRecord
  2
ALL_ASSEMBLY_MEMBERS
 70
0
 62
7
  6
CONTINUOUS
370
-3
390
F
  0
LAYER
  5
211
100
AcDbSymbolTableRecord
100
AcDbLayerTableRecord
  2
ALL_FEATURES
 70
0
 62
7
  6
CONTINUOUS
370
-3
390
F
  0
LAYER
  5
212
100
AcDbSymbolTableRecord
100
AcDbLayerTableRecord
  2
AXES_FEATURES
 70
0
 62
7
  6
CONTINUOUS
370
-3
390
F
  0
LAYER
  5
213
100
AcDbSymbolTableRecord
100
AcDbLayerTableRecord
  2
COLOR14
 70
0
 62
7
  6
CONTINUOUS
370
-3
390
F
  0
LAYER
  5
214
100
AcDbSymbolTableRecord
100
AcDbLayerTableRecord
  2
COLOR33
 70
0
 62
7
  6
CONTINUOUS
370
-3
390
F
  0
LAYER
  5
215
100
AcDbSymbolTableRecord
100
AcDbLayerTableRecord
  2
COLOR9
 70
0
 62
7
  6
CONTINUOUS
370
-3
390
F
  0
LAYER
  5
216
100
AcDbSymbolTableRecord
100
AcDbLayerTableRecord
  2
CONSTR_CURVES
 70
0
 62
7
  6
CONTINUOUS
370
-3
390
F
  0
LAYER
  5
217
100
AcDbSymbolTableRecord
100
AcDbLayerTableRecord
  2
COSMETIC
 70
0
 62
7
  6
CONTINUOUS
370
-3
390
F
  0
LAYER
  5
218
100
AcDbSymbolTableRecord
100
AcDbLayerTableRecord
  2
CURVES
 70
0
 62
7
  6
CONTINUOUS
370
-3
390
F
  0
LAYER
  5
219
100
AcDbSymbolTableRecord
100
AcDbLayerTableRecord
  2
CUT_FEATURES
 70
0
 62
7
  6
CONTINUOUS
370
-3
390
F
  0
LAYER
  5
21A
100
AcDbSymbolTableRecord
100
AcDbLayerTableRecord
  2
DATUM_PLANES
 70
0
 62
7
  6
CONTINUOUS
370
-3
390
F
  0
LAYER
  5
21B
100
AcDbSymbolTableRecord
100
AcDbLayerTableRecord
  2
DEFAULT_COORDINATE_SYSTEM
 70
0
 62
7
  6
CONTINUOUS
370
-3
390
F
  0
LAYER
  5
21C
100
AcDbSymbolTableRecord
100
AcDbLayerTableRecord
  2
DEFAULT_DATUM_AXES
 70
0
 62
7
  6
CONTINUOUS
370
-3
390
F
  0
LAYER
  5
21D
100
AcDbSymbolTableRecord
100
AcDbLayerTableRecord
  2
DEFAULT_DATUM_CURVES
 70
0
 62
7
  6
CONTINUOUS
370
-3
390
F
  0
LAYER
  5
21E
100
AcDbSymbolTableRecord
100
AcDbLayerTableRecord
  2
DEFAULT_DATUM_PLANES
 70
0
 62
7
  6
CONTINUOUS
370
-3
390
F
  0
LAYER
  5
21F
100
AcDbSymbolTableRecord
100
AcDbLayerTableRecord
  2
DEFAULT_SURFACES
 70
0
 62
7
  6
CONTINUOUS
370
-3
390
F
  0
LAYER
  5
220
100
AcDbSymbolTableRecord
100
AcDbLayerTableRecord
  2
DIMENSIONS
 70
0
 62
7
  6
CONTINUOUS
370
-3
390
F
  0
LAYER
  5
221
100
AcDbSymbolTableRecord
100
AcDbLayerTableRecord
  2
DTM_PLANES
 70
0
 62
7
  6
CONTINUOUS
370
-3
390
F
  0
LAYER
  5
222
100
AcDbSymbolTableRecord
100
AcDbLayerTableRecord
  2
EXT_SURFACE
 70
0
 62
7
  6
CONTINUOUS
370
-3
390
F
  0
LAYER
  5
223
100
AcDbSymbolTableRecord
100
AcDbLayerTableRecord
  2
GTOL_DTMS
 70
0
 62
7
  6
CONTINUOUS
370
-3
390
F
  0
LAYER
  5
224
100
AcDbSymbolTableRecord
100
AcDbLayerTableRecord
  2
HIDE
 70
0
 62
7
  6
CONTINUOUS
370
-3
390
F
  0
LAYER
  5
225
100
AcDbSymbolTableRecord
100
AcDbLayerTableRecord
  2
HIDE_10
 70
0
 62
7
  6
CONTINUOUS
370
-3
390
F
  0
LAYER
  5
226
100
AcDbSymbolTableRecord
100
AcDbLayerTableRecord
  2
HIDE_7
 70
0
 62
7
  6
CONTINUOUS
370
-3
390
F
  0
LAYER
  5
227
100
AcDbSymbolTableRecord
100
AcDbLayerTableRecord
  2
HIDE_8
 70
0
 62
7
  6
CONTINUOUS
370
-3
390
F
  0
LAYER
  5
228
100
AcDbSymbolTableRecord
100
AcDbLayerTableRecord
  2
HIDE_9
 70
0
 62
7
  6
CONTINUOUS
370
-3
390
F
  0
LAYER
  5
229
100
AcDbSymbolTableRecord
100
AcDbLayerTableRecord
  2
IMPORT
 70
0
 62
7
  6
CONTINUOUS
370
-3
390
F
  0
LAYER
  5
22A
100
AcDbSymbolTableRecord
100
AcDbLayerTableRecord
  2
INTFCLR_33883
 70
0
 62
7
  6
CONTINUOUS
370
-3
390
F
  0
LAYER
  5
22B
100
AcDbSymbolTableRecord
100
AcDbLayerTableRecord
  2
INTFCLR_33883_1
 70
0
 62
7
  6
CONTINUOUS
370
-3
390
F
  0
LAYER
  5
22C
100
AcDbSymbolTableRecord
100
AcDbLayerTableRecord
  2
INTFCLR_33883_2
 70
0
 62
7
  6
CONTINUOUS
370
-3
390
F
  0
LAYER
  5
22D
100
AcDbSymbolTableRecord
100
AcDbLayerTableRecord
  2
INTFCLR_33883_3
 70
0
 62
7
  6
CONTINUOUS
370
-3
390
F
  0
LAYER
  5
22E
100
AcDbSymbolTableRecord
100
AcDbLayerTableRecord
  2
INTFCLR_33883_4
 70
0
 62
7
  6
CONTINUOUS
370
-3
390
F
  0
LAYER
  5
22F
100
AcDbSymbolTableRecord
100
AcDbLayerTableRecord
  2
INTFCLR_33883_5
 70
0
 62
7
  6
CONTINUOUS
370
-3
390
F
  0
LAYER
  5
230
100
AcDbSymbolTableRecord
100
AcDbLayerTableRecord
  2
INTF_BLANK
 70
0
 62
7
  6
CONTINUOUS
370
-3
390
F
  0
LAYER
  5
231
100
AcDbSymbolTableRecord
100
AcDbLayerTableRecord
  2
LOGO_CURVES
 70
0
 62
7
  6
CONTINUOUS
370
-3
390
F
  0
LAYER
  5
232
100
AcDbSymbolTableRecord
100
AcDbLayerTableRecord
  2
NONE
 70
0
 62
7
  6
CONTINUOUS
370
-3
390
F
  0
LAYER
  5
233
100
AcDbSymbolTableRecord
100
AcDbLayerTableRecord
  2
PROTRUSION_FEATURES
 70
0
 62
7
  6
CONTINUOUS
370
-3
390
F
  0
LAYER
  5
234
100
AcDbSymbolTableRecord
100
AcDbLayerTableRecord
  2
S01012-09A
 70
0
 62
7
  6
CONTINUOUS
370
-3
390
F
  0
LAYER
  5
235
100
AcDbSymbolTableRecord
100
AcDbLayerTableRecord
  2
S01012-10A
 70
0
 62
7
  6
CONTINUOUS
370
-3
390
F
  0
LAYER
  5
236
100
AcDbSymbolTableRecord
100
AcDbLayerTableRecord
  2
S02015-05
 70
0
 62
7
  6
CONTINUOUS
370
-3
390
F
  0
LAYER
  5
237
100
AcDbSymbolTableRecord
100
AcDbLayerTableRecord
  2
S02015-16B
 70
0
 62
7
  6
CONTINUOUS
370
-3
390
F
  0
LAYER
  5
238
100
AcDbSymbolTableRecord
100
AcDbLayerTableRecord
  2
S02015-17
 70
0
 62
7
  6
CONTINUOUS
370
-3
390
F
  0
LAYER
  5
239
100
AcDbSymbolTableRecord
100
AcDbLayerTableRecord
  2
S02015-18
 70
0
 62
7
  6
CONTINUOUS
370
-3
390
F
  0
LAYER
  5
23A
100
AcDbSymbolTableRecord
100
AcDbLayerTableRecord
  2
S02015-20A
 70
0
 62
7
  6
CONTINUOUS
370
-3
390
F
  0
LAYER
  5
23B
100
AcDbSymbolTableRecord
100
AcDbLayerTableRecord
  2
S02015-31A
 70
0
 62
7
  6
CONTINUOUS
370
-3
390
F
  0
LAYER
  5
23C
100
AcDbSymbolTableRecord
100
AcDbLayerTableRecord
  2
S02015-32A
 70
0
 62
7
  6
CONTINUOUS
370
-3
390
F
  0
LAYER
  5
23D
100
AcDbSymbolTableRecord
100
AcDbLayerTableRecord
  2
S02015-32A_1
 70
0
 62
7
  6
CONTINUOUS
370
-3
390
F
  0
LAYER
  5
23E
100
AcDbSymbolTableRecord
100
AcDbLayerTableRecord
  2
S02015-35
 70
0
 62
7
  6
CONTINUOUS
370
-3
390
F
  0
LAYER
  5
23F
100
AcDbSymbolTableRecord
100
AcDbLayerTableRecord
  2
S15025-04A
 70
0
 62
7
  6
CONTINUOUS
370
-3
390
F
  0
LAYER
  5
240
100
AcDbSymbolTableRecord
100
AcDbLayerTableRecord
  2
START_DTMS
 70
0
 62
7
  6
CONTINUOUS
370
-3
390
F
  0
LAYER
  5
241
100
AcDbSymbolTableRecord
100
AcDbLayerTableRecord
  2
SURFACE
 70
0
 62
7
  6
CONTINUOUS
370
-3
390
F
  0
LAYER
  5
242
100
AcDbSymbolTableRecord
100
AcDbLayerTableRecord
  2
SURFS
 70
0
 62
7
  6
CONTINUOUS
370
-3
390
F
  0
LAYER
  5
243
100
AcDbSymbolTableRecord
100
AcDbLayerTableRecord
  2
WETTED_SURFACE
 70
0
 62
7
  6
CONTINUOUS
370
-3
390
F
  0
LAYER
  5
244
100
AcDbSymbolTableRecord
100
AcDbLayerTableRecord
  2
WETTED_SURFACES
 70
0
 62
7
  6
CONTINUOUS
370
-3
390
F
  0
LAYER
  5
245
100
AcDbSymbolTableRecord
100
AcDbLayerTableRecord
  2
___SHELL
 70
0
 62
7
  6
CONTINUOUS
370
-3
390
F
  0
ENDTAB
  0
TABLE
  2
STYLE
  5
3
100
AcDbSymbolTable
 70
1
  0
STYLE
  5
11
100
AcDbSymbolTableRecord
100
AcDbTextStyleTableRecord
  2
STANDARD
 70
0
 40
0.0
 41
0.8
 50
0.0
 71
0
 42
0.2
  3
txt
  4

  0
STYLE
  5
246
100
AcDbSymbolTableRecord
100
AcDbTextStyleTableRecord
  2
TEXTSTYLE_1
 70
0
 40
0.0
 41
0.8
 50
0.0
 71
0
 42
0.2
  3
gdt
  4

  0
ENDTAB
  0
TABLE
  2
VIEW
  5
6
100
AcDbSymbolTable
 70
0
  0
ENDTAB
  0
TABLE
  2
UCS
  5
7
100
AcDbSymbolTable
 70
0
  0
ENDTAB
  0
TABLE
  2
APPID
  5
9
100
AcDbSymbolTable
 70
1
  0
APPID
  5
247
100
AcDbSymbolTableRecord
100
AcDbRegAppTableRecord
  2
ACAD
 70
0
  0
ENDTAB
  0
TABLE
  2
BLOCK_RECORD
  5
1
100
AcDbSymbolTable
 70
0
  0
BLOCK_RECORD
  5
248
100
AcDbSymbolTableRecord
100
AcDbBlockTableRecord
  2
*Model_Space
  0
BLOCK_RECORD
  5
249
100
AcDbSymbolTableRecord
100
AcDbBlockTableRecord
  2
*Paper_Space
  0
BLOCK_RECORD
  5
24A
100
AcDbSymbolTableRecord
100
AcDbBlockTableRecord
  2
_FILLED
  0
ENDTAB
  0
TABLE
  2
DIMSTYLE
  5
A
100
AcDbSymbolTable
 70
1
100
AcDbDimStyleTable
 71
0
  0
DIMSTYLE
105
24B
100
AcDbSymbolTableRecord
100
AcDbDimStyleTableRecord
  2
STANDARD
 70
0
  3

  4

 40
1.0
 41
0.1
 42
0.0625
 43
0.38
 44
0.125
 45
0.0
 46
0.0
 47
0.001
 48
0.001
140
0.08
141
0.09
142
0.0
143
25.4
144
1.0
145
0.0
146
1.0
147
0.09
 71
1.0
 72
0.0
 73
1
 74
1
 75
0
 76
0
 77
0
 78
4
 79
1
170
1
171
2
172
0
173
0
174
0
175
0
176
0
177
0
178
0
270
2
179
3
271
3
272
3
273
2
274
2
275
0
280
0
281
0
282
0
283
1
284
4
285
0
286
0
287
3
288
0
340
11
278
46
341
24A
342
24A
343
24A
344
24A
  0
ENDTAB
  0
ENDSEC
  0
SECTION
  2
BLOCKS
  0
BLOCK
  5
20
100
AcDbEntity
  8
0
100
AcDbBlockBegin
  2
*Model_Space
 70
0
 10
0.0
 20
0.0
 30
0.0
  3
*Model_Space
  1

  0
ENDBLK
  5
21
100
AcDbEntity
  8
0
100
AcDbBlockEnd
  0
BLOCK
  5
1C
100
AcDbEntity
  8
0
100
AcDbBlockBegin
  2
*Paper_Space
 70
0
 10
0.0
 20
0.0
 30
0.0
  3
*Paper_Space
  1

  0
ENDBLK
  5
1D
100
AcDbEntity
  8
0
100
AcDbBlockEnd
  0
BLOCK
  5
24C
100
AcDbEntity
  8
0
100
AcDbBlockBegin
  2
_FILLED
 70
64
 10
0.0
 20
0.0
  3
_FILLED
  1

  0
SOLID
  5
24D
100
AcDbEntity
  8
0
  6
BYBLOCK
 62
0
100
AcDbTrace
 10
0.0
 20
0.0
 11
-1.0
 21
0.2
 12
-1.0
 22
-0.2
 13
-1.0
 23
-0.2
  0
ENDBLK
  5
24E
100
AcDbEntity
  8
0
  6
BYBLOCK
 62
0
100
AcDbBlockEnd
  0
ENDSEC
  0
SECTION
  2
ENTITIES
  0
MTEXT
  5
24F
100
AcDbEntity
  8
0
100
AcDbMText
 62
2
  6
CONTINUOUS
  7
STANDARD
 71
3
 72
1
 10
5.4192934783
 20
2.5323283601
 30
0.0
 11
1.0
 21
0.0
 31
0.0
 73
2
 44
0.9
  1
SCALE  .750
 40
0.08
 41
0.704
  0
LINE
  5
250
100
AcDbEntity
  8
0
100
AcDbLine
 62
7
  6
CONTINUOUS
 10
0.0
 20
0.0
 11
0.0
 21
8.5
  0
LINE
  5
251
100
AcDbEntity
  8
0
100
AcDbLine
 62
7
  6
CONTINUOUS
 10
0.0
 20
0.0
 11
11.0
 21
0.0
  0
LINE
  5
252
100
AcDbEntity
  8
0
100
AcDbLine
 62
7
  6
CONTINUOUS
 10
0.0
 20
8.5
 11
11.0
 21
8.5
  0
LINE
  5
253
100
AcDbEntity
  8
0
100
AcDbLine
 62
7
  6
CONTINUOUS
 10
11.0
 20
0.0
 11
11.0
 21
8.5
  0
LINE
  5
254
100
AcDbEntity
  8
0
100
AcDbLine
 62
7
  6
CONTINUOUS
 10
3.6500472625
 20
3.2232061615
 11
3.6561628285
 21
3.2170905955
  0
LINE
  5
255
100
AcDbEntity
  8
0
100
AcDbLine
 62
7
  6
CONTINUOUS
 10
3.6912988812
 20
3.2232057571
 11
3.6974140428
 21
3.2170905955
  0
LINE
  5
256
100
AcDbEntity
  8
0
100
AcDbLine
 62
7
  6
CONTINUOUS
 10
4.4904818815
 20
3.0154067953
 11
4.5567437059
 21
3.0154067953
  0
LINE
  5
257
100
AcDbEntity
  8
0
100
AcDbLine
 62
7
  6
CONTINUOUS
 10
4.5597803784
 20
3.0154067953
 11
4.721750149
 21
3.0154067953
  0
LINE
  5
258
100
AcDbEntity
  8
0
100
AcDbLine
 62
7
  6
CONTINUOUS
 10
4.7270182036
 20
3.0154067953
 11
4.7863394734
 21
3.0154067953
  0
LINE
  5
259
100
AcDbEntity
  8
0
100
AcDbLine
 62
7
  6
CONTINUOUS
 10
4.7916999469
 20
3.0154067953
 11
4.9536791064
 21
3.0154067953
  0
LINE
  5
25A
100
AcDbEntity
  8
0
100
AcDbLine
 62
7
  6
CONTINUOUS
 10
5.0231683663
 20
3.0154067953
 11
5.0450217468
 21
3.0154067953
  0
LINE
  5
25B
100
AcDbEntity
  8
0
100
AcDbLine
 62
7
  6
CONTINUOUS
 10
5.0503822203
 20
3.0154067953
 11
5.2123526388
 21
3.0154067953
  0
LINE
  5
25C
100
AcDbEntity
  8
0
100
AcDbLine
 62
7
  6
CONTINUOUS
 10
5.2158027727
 20
3.0154067953
 11
5.3462398122
 21
3.0154067953
  0
LINE
  5
25D
100
AcDbEntity
  8
0
100
AcDbLine
 62
7
  6
CONTINUOUS
 10
4.4800224909
 20
3.0197307338
 11
4.7610133476
 21
3.0197305388
  0
LINE
  5
25E
100
AcDbEntity
  8
0
100
AcDbLine
 62
7
  6
CONTINUOUS
 10
4.7812594839
 20
3.0197305389
 11
4.9641195694
 21
3.0197305389
  0
LINE
  5
25F
100
AcDbEntity
  8
0
100
AcDbLine
 62
7
  6
CONTINUOUS
 10
3.7113991152
 20
3.0197672201
 11
3.7044768722
 21
3.0197672201
  0
LINE
  5
260
100
AcDbEntity
  8
0
100
AcDbLine
 62
7
  6
CONTINUOUS
 10
3.704505386
 20
3.0197672215
 11
3.7044768722
 21
3.0197672201
  0
LINE
  5
261
100
AcDbEntity
  8
0
100
AcDbLine
 62
7
  6
CONTINUOUS
 10
3.7113991152
 20
3.0197672201
 11
3.7114443523
 21
3.0197672237
  0
LINE
  5
262
100
AcDbEntity
  8
0
100
AcDbLine
 62
7
  6
CONTINUOUS
 10
4.7358863589
 20
3.0234215912
 11
4.7775684315
 21
3.0234215912
  0
LINE
  5
263
100
AcDbEntity
  8
0
100
AcDbLine
 62
7
  6
CONTINUOUS
 10
4.9678106218
 20
3.0234215912
 11
5.0362463344
 21
3.0234215912
  0
LINE
  5
264
100
AcDbEntity
  8
0
100
AcDbLine
 62
7
  6
CONTINUOUS
 10
4.4739073025
 20
3.0258459221
 11
4.7383106885
 21
3.0258459209
  0
LINE
  5
265
100
AcDbEntity
  8
0
100
AcDbLine
 62
7
  6
CONTINUOUS
 10
4.7751441007
 20
3.0258459221
 11
4.9702349527
 21
3.0258459221
  0
LINE
  5
266
100
AcDbEntity
  8
0
100
AcDbLine
 62
7
  6
CONTINUOUS
 10
5.0338220048
 20
3.0258459209
 11
5.3628143912
 21
3.0258459221
  0
LINE
  5
267
100
AcDbEntity
  8
0
100
AcDbLine
 62
7
  6
CONTINUOUS
 10
4.4357518121
 20
3.0301705749
 11
5.4009698817
 21
3.0301705749
  0
LINE
  5
268
100
AcDbEntity
  8
0
100
AcDbLine
 62
7
  6
CONTINUOUS
 10
4.4218777195
 20
3.0398848214
 11
5.4148439742
 21
3.0398848214
  0
LINE
  5
269
100
AcDbEntity
  8
0
100
AcDbLine
 62
7
  6
CONTINUOUS
 10
4.9708432144
 20
3.0942786869
 11
4.9014337831
 21
3.0942786869
  0
LINE
  5
26A
100
AcDbEntity
  8
0
100
AcDbLine
 62
7
  6
CONTINUOUS
 10
4.4020799716
 20
3.0942786869
 11
4.3867573227
 21
3.0942786869
  0
LINE
  5
26B
100
AcDbEntity
  8
0
100
AcDbLine
 62
7
  6
CONTINUOUS
 10
4.2076537539
 20
3.0942786869
 11
4.3128858097
 21
3.0942786869
  0
LINE
  5
26C
100
AcDbEntity
  8
0
100
AcDbLine
 62
7
  6
CONTINUOUS
 10
4.3173398998
 20
3.0942786869
 11
4.3867416025
 21
3.0942786869
  0
LINE
  5
26D
100
AcDbEntity
  8
0
100
AcDbLine
 62
7
  6
CONTINUOUS
 10
4.7366560192
 20
3.0942786869
 11
4.8060827343
 21
3.0942786869
  0
LINE
  5
26E
100
AcDbEntity
  8
0
100
AcDbLine
 62
7
  6
CONTINUOUS
 10
5.0651440636
 20
3.0942786869
 11
5.134558889
 21
3.0942786869
  0
LINE
  5
26F
100
AcDbEntity
  8
0
100
AcDbLine
 62
7
  6
CONTINUOUS
 10
5.4346417221
 20
3.0942786869
 11
5.4617192197
 21
3.0942786869
  0
LINE
  5
270
100
AcDbEntity
  8
0
100
AcDbLine
 62
7
  6
CONTINUOUS
 10
5.4688198973
 20
3.0942786869
 11
5.6042401225
 21
3.0942786869
  0
LINE
  5
271
100
AcDbEntity
  8
0
100
AcDbLine
 62
7
  6
CONTINUOUS
 10
5.6090562549
 20
3.0942786869
 11
5.6315509609
 21
3.0942786869
  0
LINE
  5
272
100
AcDbEntity
  8
0
100
AcDbLine
 62
7
  6
CONTINUOUS
 10
4.2013732605
 20
3.0968731857
 11
4.4011356512
 21
3.0968731857
  0
LINE
  5
273
100
AcDbEntity
  8
0
100
AcDbLine
 62
7
  6
CONTINUOUS
 10
4.7303890511
 20
3.0968731857
 11
4.8123497024
 21
3.0968731857
  0
LINE
  5
274
100
AcDbEntity
  8
0
100
AcDbLine
 62
7
  6
CONTINUOUS
 10
4.8951581731
 20
3.0968731857
 11
4.9771188244
 21
3.0968731857
  0
LINE
  5
275
100
AcDbEntity
  8
0
100
AcDbLine
 62
7
  6
CONTINUOUS
 10
5.0588711507
 20
3.0968731857
 11
5.1408318019
 21
3.0968731857
  0
LINE
  5
276
100
AcDbEntity
  8
0
100
AcDbLine
 62
7
  6
CONTINUOUS
 10
5.4355860426
 20
3.0968731861
 11
5.6105081213
 21
3.0968731886
  0
LINE
  5
277
100
AcDbEntity
  8
0
100
AcDbLine
 62
7
  6
CONTINUOUS
 10
4.4005949719
 20
3.09835869
 11
4.7289035468
 21
3.09835869
  0
LINE
  5
278
100
AcDbEntity
  8
0
100
AcDbLine
 62
7
  6
CONTINUOUS
 10
4.8138352067
 20
3.09835869
 11
4.8936726688
 21
3.09835869
  0
LINE
  5
279
100
AcDbEntity
  8
0
100
AcDbLine
 62
7
  6
CONTINUOUS
 10
4.9786043287
 20
3.09835869
 11
5.0573856464
 21
3.09835869
  0
LINE
  5
27A
100
AcDbEntity
  8
0
100
AcDbLine
 62
7
  6
CONTINUOUS
 10
5.1423173051
 20
3.0983586889
 11
5.4361267218
 21
3.09835869
  0
LINE
  5
27B
100
AcDbEntity
  8
0
100
AcDbLine
 62
7
  6
CONTINUOUS
 10
4.1917985392
 20
3.106447907
 11
4.4025957982
 21
3.1064479071
  0
LINE
  5
27C
100
AcDbEntity
  8
0
100
AcDbLine
 62
7
  6
CONTINUOUS
 10
4.7208143298
 20
3.106447907
 11
4.8219244237
 21
3.106447907
  0
LINE
  5
27D
100
AcDbEntity
  8
0
100
AcDbLine
 62
7
  6
CONTINUOUS
 10
4.8855834518
 20
3.106447907
 11
4.9866935457
 21
3.106447907
  0
LINE
  5
27E
100
AcDbEntity
  8
0
100
AcDbLine
 62
7
  6
CONTINUOUS
 10
5.0492964293
 20
3.106447907
 11
5.1504065233
 21
3.106447907
  0
LINE
  5
27F
100
AcDbEntity
  8
0
100
AcDbLine
 62
7
  6
CONTINUOUS
 10
5.4406849713
 20
3.106447907
 11
5.6474033671
 21
3.106447907
  0
LINE
  5
280
100
AcDbEntity
  8
0
100
AcDbLine
 62
7
  6
CONTINUOUS
 10
5.6499979265
 20
3.112711681
 11
5.4473354419
 21
3.112711681
  0
LINE
  5
281
100
AcDbEntity
  8
0
100
AcDbLine
 62
7
  6
CONTINUOUS
 10
5.1530010826
 20
3.112711681
 11
5.04670187
 21
3.112711681
  0
LINE
  5
282
100
AcDbEntity
  8
0
100
AcDbLine
 62
7
  6
CONTINUOUS
 10
4.9892881051
 20
3.112711681
 11
4.8829888925
 21
3.112711681
  0
LINE
  5
283
100
AcDbEntity
  8
0
100
AcDbLine
 62
7
  6
CONTINUOUS
 10
4.8245189831
 20
3.112711681
 11
4.7182197705
 21
3.112711681
  0
LINE
  5
284
100
AcDbEntity
  8
0
100
AcDbLine
 62
7
  6
CONTINUOUS
 10
4.4051903575
 20
3.112711681
 11
4.1892039799
 21
3.112711681
  0
LINE
  5
285
100
AcDbEntity
  8
0
100
AcDbLine
 62
7
  6
CONTINUOUS
 10
4.4051903521
 20
3.1176365526
 11
4.7182197705
 21
3.1176365526
  0
LINE
  5
286
100
AcDbEntity
  8
0
100
AcDbLine
 62
7
  6
CONTINUOUS
 10
4.8245189831
 20
3.1176365526
 11
4.8818323572
 21
3.1176365526
  0
LINE
  5
287
100
AcDbEntity
  8
0
100
AcDbLine
 62
7
  6
CONTINUOUS
 10
4.9892881051
 20
3.1176365526
 11
5.04670187
 21
3.1176365526
  0
LINE
  5
288
100
AcDbEntity
  8
0
100
AcDbLine
 62
7
  6
CONTINUOUS
 10
5.1530010826
 20
3.1176365526
 11
5.4503727767
 21
3.1176365526
  0
LINE
  5
289
100
AcDbEntity
  8
0
100
AcDbLine
 62
7
  6
CONTINUOUS
 10
5.6114230042
 20
3.0968731857
 11
5.6378286685
 21
3.0968732084
  0
LINE
  5
28A
100
AcDbEntity
  8
0
100
AcDbLine
 62
7
  6
CONTINUOUS
 10
5.0399373868
 20
3.0197305388
 11
5.3566992028
 21
3.0197307338
  0
LWPOLYLINE
  5
28B
100
AcDbEntity
  8
0
100
AcDbPolyline
 62
7
  6
CONTINUOUS
 90
18
 70
0
 10
4.1828036608
 20
3.141020838
 10
4.1827732301
 20
3.1410274451
 10
4.182754438
 20
3.1410317385
 10
4.1827968824
 20
3.1410215068
 10
4.1828857108
 20
3.1409982744
 10
4.1830305701
 20
3.1409569587
 10
4.1832899646
 20
3.1408742289
 10
4.1836547989
 20
3.1407404787
 10
4.1841095246
 20
3.1405456702
 10
4.1846858264
 20
3.1402517811
 10
4.1853823825
 20
3.1398189353
 10
4.186115414
 20
3.1392553838
 10
4.1868327759
 20
3.1385673998
 10
4.1875493613
 20
3.1376914774
 10
4.1882226443
 20
3.1365898591
 10
4.1887578712
 20
3.1353130275
 10
4.1890994828
 20
3.1338936985
 10
4.1892034678
 20
3.1325402037
  0
LWPOLYLINE
  5
28C
100
AcDbEntity
  8
0
100
AcDbPolyline
 62
7
  6
CONTINUOUS
 90
15
 70
0
 10
4.220224196
 20
3.1398517678
 10
4.2201714635
 20
3.1398689178
 10
4.2201081282
 20
3.1398907473
 10
4.2201555349
 20
3.1398727386
 10
4.2202933655
 20
3.1398144984
 10
4.22052224
 20
3.139706189
 10
4.2208956644
 20
3.1395036045
 10
4.2214035285
 20
3.1391790994
 10
4.2219818524
 20
3.1387360076
 10
4.2226129833
 20
3.1381467531
 10
4.2233248607
 20
3.1373064181
 10
4.2240348277
 20
3.1361761064
 10
4.2245915927
 20
3.134862837
 10
4.2249324107
 20
3.1334397566
 10
4.2250318343
 20
3.1321231022
  0
LWPOLYLINE
  5
28D
100
AcDbEntity
  8
0
100
AcDbPolyline
 62
7
  6
CONTINUOUS
 90
12
 70
0
 10
4.2950131923
 20
3.1383004865
 10
4.294966874
 20
3.1383194556
 10
4.2949351247
 20
3.1383328154
 10
4.2951171464
 20
3.1382363925
 10
4.2954973893
 20
3.1379975114
 10
4.2959877728
 20
3.1376263108
 10
4.29654473
 20
3.1371126527
 10
4.2971807102
 20
3.1363775566
 10
4.2978360236
 20
3.135375306
 10
4.298386316
 20
3.1341645463
 10
4.2987616595
 20
3.1327619239
 10
4.2988935239
 20
3.13126555
  0
LINE
  5
28E
100
AcDbEntity
  8
0
100
AcDbLine
 62
7
  6
CONTINUOUS
 10
3.8288112147
 20
3.1920456672
 11
3.834926696
 21
3.1859301858
  0
LINE
  5
28F
100
AcDbEntity
  8
0
100
AcDbLine
 62
7
  6
CONTINUOUS
 10
3.812241382
 20
3.2232056969
 11
3.8183564834
 21
3.2170905955
  0
LINE
  5
290
100
AcDbEntity
  8
0
100
AcDbLine
 62
7
  6
CONTINUOUS
 10
3.8997349609
 20
3.1920455658
 11
3.905850341
 21
3.1859301858
  0
LINE
  5
291
100
AcDbEntity
  8
0
100
AcDbLine
 62
7
  6
CONTINUOUS
 10
4.0046330049
 20
3.2232057135
 11
4.010748123
 21
3.2170905955
  0
LINE
  5
292
100
AcDbEntity
  8
0
100
AcDbLine
 62
7
  6
CONTINUOUS
 10
4.0367489216
 20
3.1920455658
 11
4.0428643016
 21
3.1859301858
  0
LINE
  5
293
100
AcDbEntity
  8
0
100
AcDbLine
 62
7
  6
CONTINUOUS
 10
3.4183608469
 20
3.9670221654
 11
3.4183608469
 21
3.3339600394
  0
LINE
  5
294
100
AcDbEntity
  8
0
100
AcDbLine
 62
7
  6
CONTINUOUS
 10
4.1892039799
 20
3.1325367829
 11
4.18944867
 21
3.1325764809
  0
LINE
  5
295
100
AcDbEntity
  8
0
100
AcDbLine
 62
7
  6
CONTINUOUS
 10
6.3276830802
 20
3.272269945
 11
6.3615010042
 21
3.2740422673
  0
LINE
  5
296
100
AcDbEntity
  8
0
100
AcDbLine
 62
7
  6
CONTINUOUS
 10
5.789423839
 20
3.1612223931
 11
4.0472978547
 21
3.1612223931
  0
LINE
  5
297
100
AcDbEntity
  8
0
100
AcDbLine
 62
7
  6
CONTINUOUS
 10
4.0384368425
 20
3.1663008077
 11
5.7982848513
 21
3.1663008077
  0
LINE
  5
298
100
AcDbEntity
  8
0
100
AcDbLine
 62
7
  6
CONTINUOUS
 10
5.8649847673
 20
3.1778074325
 11
3.9717363418
 21
3.1778038235
  0
LINE
  5
299
100
AcDbEntity
  8
0
100
AcDbLine
 62
7
  6
CONTINUOUS
 10
4.3116005096
 20
3.1816062167
 11
4.247081688
 21
3.1816062167
  0
LINE
  5
29A
100
AcDbEntity
  8
0
100
AcDbLine
 62
7
  6
CONTINUOUS
 10
4.1178335082
 20
3.1816062167
 11
4.0533146867
 21
3.1816062167
  0
LINE
  5
29B
100
AcDbEntity
  8
0
100
AcDbLine
 62
7
  6
CONTINUOUS
 10
3.8453813079
 20
3.1816062167
 11
3.9098916759
 21
3.1816062167
  0
LINE
  5
29C
100
AcDbEntity
  8
0
100
AcDbLine
 62
7
  6
CONTINUOUS
 10
3.9162924351
 20
3.1816062167
 11
3.9808278386
 21
3.1816062167
  0
LINE
  5
29D
100
AcDbEntity
  8
0
100
AcDbLine
 62
7
  6
CONTINUOUS
 10
4.484396674
 20
3.1816062167
 11
4.5489158059
 21
3.1816062167
  0
LINE
  5
29E
100
AcDbEntity
  8
0
100
AcDbLine
 62
7
  6
CONTINUOUS
 10
4.7490792106
 20
3.1816062167
 11
4.8136145619
 21
3.1816062167
  0
LINE
  5
29F
100
AcDbEntity
  8
0
100
AcDbLine
 62
7
  6
CONTINUOUS
 10
5.0231078494
 20
3.1816062167
 11
5.0876417656
 21
3.1816062167
  0
LINE
  5
2A0
100
AcDbEntity
  8
0
100
AcDbLine
 62
7
  6
CONTINUOUS
 10
5.2878092014
 20
3.1816062167
 11
5.3523217062
 21
3.1816062167
  0
LINE
  5
2A1
100
AcDbEntity
  8
0
100
AcDbLine
 62
7
  6
CONTINUOUS
 10
5.5251133323
 20
3.1816062167
 11
5.5896478575
 21
3.1816062167
  0
LINE
  5
2A2
100
AcDbEntity
  8
0
100
AcDbLine
 62
7
  6
CONTINUOUS
 10
5.7188818926
 20
3.1816062167
 11
5.7834133
 21
3.1816062167
  0
LINE
  5
2A3
100
AcDbEntity
  8
0
100
AcDbLine
 62
7
  6
CONTINUOUS
 10
5.8558927392
 20
3.1816062167
 11
5.9204303747
 21
3.1816062167
  0
LINE
  5
2A4
100
AcDbEntity
  8
0
100
AcDbLine
 62
7
  6
CONTINUOUS
 10
5.9268336543
 20
3.1816062167
 11
5.9913367494
 21
3.1816062167
  0
LINE
  5
2A5
100
AcDbEntity
  8
0
100
AcDbLine
 62
7
  6
CONTINUOUS
 10
5.8494791144
 20
3.1831058809
 11
5.7898300388
 21
3.1831058809
  0
LINE
  5
2A6
100
AcDbEntity
  8
0
100
AcDbLine
 62
7
  6
CONTINUOUS
 10
3.9872425675
 20
3.1831058751
 11
4.0468916667
 21
3.1831058751
  0
LINE
  5
2A7
100
AcDbEntity
  8
0
100
AcDbLine
 62
7
  6
CONTINUOUS
 10
4.1242565281
 20
3.1831058751
 11
4.2406586681
 21
3.1831058751
  0
LINE
  5
2A8
100
AcDbEntity
  8
0
100
AcDbLine
 62
7
  6
CONTINUOUS
 10
4.3180235295
 20
3.1831058751
 11
4.4779738093
 21
3.1831058751
  0
LINE
  5
2A9
100
AcDbEntity
  8
0
100
AcDbLine
 62
7
  6
CONTINUOUS
 10
4.5553386707
 20
3.1831058751
 11
4.7426644555
 21
3.1831058751
  0
LINE
  5
2AA
100
AcDbEntity
  8
0
100
AcDbLine
 62
7
  6
CONTINUOUS
 10
4.8200293169
 20
3.1831058751
 11
5.0166923768
 21
3.1831058751
  0
LINE
  5
2AB
100
AcDbEntity
  8
0
100
AcDbLine
 62
7
  6
CONTINUOUS
 10
5.0940572382
 20
3.1831058751
 11
5.2813830231
 21
3.1831058751
  0
LINE
  5
2AC
100
AcDbEntity
  8
0
100
AcDbLine
 62
7
  6
CONTINUOUS
 10
5.3587478845
 20
3.1831058751
 11
5.5186981642
 21
3.1831058751
  0
LINE
  5
2AD
100
AcDbEntity
  8
0
100
AcDbLine
 62
7
  6
CONTINUOUS
 10
5.5960630256
 20
3.1831058751
 11
5.7124651656
 21
3.1831058751
  0
LINE
  5
2AE
100
AcDbEntity
  8
0
100
AcDbLine
 62
7
  6
CONTINUOUS
 10
5.7084784507
 20
3.1859301858
 11
5.7084378021
 21
3.1859301841
  0
LINE
  5
2AF
100
AcDbEntity
  8
0
100
AcDbLine
 62
7
  6
CONTINUOUS
 10
5.7850315555
 20
3.1859301858
 11
5.7084784507
 21
3.1859301858
  0
LINE
  5
2B0
100
AcDbEntity
  8
0
100
AcDbLine
 62
7
  6
CONTINUOUS
 10
4.0428643016
 20
3.1859301858
 11
4.1282838933
 21
3.1859301858
  0
LINE
  5
2B1
100
AcDbEntity
  8
0
100
AcDbLine
 62
7
  6
CONTINUOUS
 10
4.4739509614
 20
3.1859301858
 11
4.5593660358
 21
3.1859301858
  0
LINE
  5
2B2
100
AcDbEntity
  8
0
100
AcDbLine
 62
7
  6
CONTINUOUS
 10
5.0126650116
 20
3.1859301858
 11
5.0980846034
 21
3.1859301858
  0
LINE
  5
2B3
100
AcDbEntity
  8
0
100
AcDbLine
 62
7
  6
CONTINUOUS
 10
5.5146753164
 20
3.1859301858
 11
5.6000903908
 21
3.1859301858
  0
LINE
  5
2B4
100
AcDbEntity
  8
0
100
AcDbLine
 62
7
  6
CONTINUOUS
 10
4.2366313029
 20
3.1859301858
 11
4.3220508947
 21
3.1859301858
  0
LINE
  5
2B5
100
AcDbEntity
  8
0
100
AcDbLine
 62
7
  6
CONTINUOUS
 10
3.834926696
 20
3.1859301858
 11
3.9912699327
 21
3.1859301858
  0
LINE
  5
2B6
100
AcDbEntity
  8
0
100
AcDbLine
 62
7
  6
CONTINUOUS
 10
4.7386370904
 20
3.1859301858
 11
4.8240566821
 21
3.1859301858
  0
LINE
  5
2B7
100
AcDbEntity
  8
0
100
AcDbLine
 62
7
  6
CONTINUOUS
 10
5.2773556579
 20
3.1859301858
 11
5.3627752496
 21
3.1859301858
  0
LINE
  5
2B8
100
AcDbEntity
  8
0
100
AcDbLine
 62
7
  6
CONTINUOUS
 10
5.7850317473
 20
3.1859304275
 11
5.7938573905
 21
3.1859301841
  0
LINE
  5
2B9
100
AcDbEntity
  8
0
100
AcDbLine
 62
7
  6
CONTINUOUS
 10
5.9332703404
 20
3.1920457853
 11
5.9283997032
 21
3.1920456146
  0
LINE
  5
2BA
100
AcDbEntity
  8
0
100
AcDbLine
 62
7
  6
CONTINUOUS
 10
5.9283997032
 20
3.1920456146
 11
5.8393363811
 21
3.1920455658
  0
LINE
  5
2BB
100
AcDbEntity
  8
0
100
AcDbLine
 62
7
  6
CONTINUOUS
 10
5.6062057708
 20
3.1920455658
 11
5.5085554191
 21
3.1920455658
  0
LINE
  5
2BC
100
AcDbEntity
  8
0
100
AcDbLine
 62
7
  6
CONTINUOUS
 10
5.1041999834
 20
3.1920455658
 11
5.0065496316
 21
3.1920455658
  0
LINE
  5
2BD
100
AcDbEntity
  8
0
100
AcDbLine
 62
7
  6
CONTINUOUS
 10
3.8288112147
 20
3.1920456672
 11
3.9973853127
 21
3.1920455658
  0
LINE
  5
2BE
100
AcDbEntity
  8
0
100
AcDbLine
 62
7
  6
CONTINUOUS
 10
4.2305159229
 20
3.1920455658
 11
4.3281662747
 21
3.1920455658
  0
LINE
  5
2BF
100
AcDbEntity
  8
0
100
AcDbLine
 62
7
  6
CONTINUOUS
 10
4.7325217104
 20
3.1920455658
 11
4.8301720621
 21
3.1920455658
  0
LINE
  5
2C0
100
AcDbEntity
  8
0
100
AcDbLine
 62
7
  6
CONTINUOUS
 10
5.2712402779
 20
3.1920455658
 11
5.3688906296
 21
3.1920455658
  0
LINE
  5
2C1
100
AcDbEntity
  8
0
100
AcDbLine
 62
7
  6
CONTINUOUS
 10
5.7023224204
 20
3.1920455658
 11
5.7999727722
 21
3.1920455658
  0
LINE
  5
2C2
100
AcDbEntity
  8
0
100
AcDbLine
 62
7
  6
CONTINUOUS
 10
5.9332701376
 20
3.1920455658
 11
6.0079103777
 21
3.1920455658
  0
LINE
  5
2C3
100
AcDbEntity
  8
0
100
AcDbLine
 62
7
  6
CONTINUOUS
 10
4.5654814158
 20
3.1920455658
 11
4.4678310641
 21
3.1920455658
  0
LINE
  5
2C4
100
AcDbEntity
  8
0
100
AcDbLine
 62
7
  6
CONTINUOUS
 10
4.1343992733
 20
3.1920455658
 11
4.0367489216
 21
3.1920455658
  0
LINE
  5
2C5
100
AcDbEntity
  8
0
100
AcDbLine
 62
7
  6
CONTINUOUS
 10
5.8357823631
 20
3.1978766237
 11
5.8035267901
 21
3.1978766238
  0
LINE
  5
2C6
100
AcDbEntity
  8
0
100
AcDbLine
 62
7
  6
CONTINUOUS
 10
4.0009393306
 20
3.1978766238
 11
4.0331949036
 21
3.1978766238
  0
LINE
  5
2C7
100
AcDbEntity
  8
0
100
AcDbLine
 62
7
  6
CONTINUOUS
 10
4.1379532912
 20
3.1978766238
 11
4.226961905
 21
3.1978766238
  0
LINE
  5
2C8
100
AcDbEntity
  8
0
100
AcDbLine
 62
7
  6
CONTINUOUS
 10
4.3317202926
 20
3.1978766238
 11
4.4642770462
 21
3.1978766238
  0
LINE
  5
2C9
100
AcDbEntity
  8
0
100
AcDbLine
 62
7
  6
CONTINUOUS
 10
4.5690354338
 20
3.1978766238
 11
4.728482954
 21
3.1978766238
  0
LINE
  5
2CA
100
AcDbEntity
  8
0
100
AcDbLine
 62
7
  6
CONTINUOUS
 10
4.83372608
 20
3.1978766238
 11
5.0029956137
 21
3.1978766238
  0
LINE
  5
2CB
100
AcDbEntity
  8
0
100
AcDbLine
 62
7
  6
CONTINUOUS
 10
5.1077540013
 20
3.1978766238
 11
5.26768626
 21
3.1978766238
  0
LINE
  5
2CC
100
AcDbEntity
  8
0
100
AcDbLine
 62
7
  6
CONTINUOUS
 10
5.3724446476
 20
3.1978766238
 11
5.5050014011
 21
3.1978766238
  0
LINE
  5
2CD
100
AcDbEntity
  8
0
100
AcDbLine
 62
7
  6
CONTINUOUS
 10
5.6097597887
 20
3.1978766238
 11
5.69799799
 21
3.1978766238
  0
LINE
  5
2CE
100
AcDbEntity
  8
0
100
AcDbLine
 62
7
  6
CONTINUOUS
 10
6.0122348081
 20
3.202485354
 11
5.8350119506
 21
3.202485354
  0
LINE
  5
2CF
100
AcDbEntity
  8
0
100
AcDbLine
 62
7
  6
CONTINUOUS
 10
5.8042972026
 20
3.202485354
 11
5.69799799
 21
3.202485354
  0
LINE
  5
2D0
100
AcDbEntity
  8
0
100
AcDbLine
 62
7
  6
CONTINUOUS
 10
5.6105302012
 20
3.202485354
 11
5.5042309886
 21
3.202485354
  0
LINE
  5
2D1
100
AcDbEntity
  8
0
100
AcDbLine
 62
7
  6
CONTINUOUS
 10
5.3732150601
 20
3.202485354
 11
5.2669158475
 21
3.202485354
  0
LINE
  5
2D2
100
AcDbEntity
  8
0
100
AcDbLine
 62
7
  6
CONTINUOUS
 10
5.1085244138
 20
3.202485354
 11
5.0022252012
 21
3.202485354
  0
LINE
  5
2D3
100
AcDbEntity
  8
0
100
AcDbLine
 62
7
  6
CONTINUOUS
 10
4.8344964925
 20
3.202485354
 11
4.7281972799
 21
3.202485354
  0
LINE
  5
2D4
100
AcDbEntity
  8
0
100
AcDbLine
 62
7
  6
CONTINUOUS
 10
4.5698058463
 20
3.202485354
 11
4.4635066337
 21
3.202485354
  0
LINE
  5
2D5
100
AcDbEntity
  8
0
100
AcDbLine
 62
7
  6
CONTINUOUS
 10
4.3324907051
 20
3.202485354
 11
4.2261914925
 21
3.202485354
  0
LINE
  5
2D6
100
AcDbEntity
  8
0
100
AcDbLine
 62
7
  6
CONTINUOUS
 10
4.1387237037
 20
3.202485354
 11
4.0324244911
 21
3.202485354
  0
LINE
  5
2D7
100
AcDbEntity
  8
0
100
AcDbLine
 62
7
  6
CONTINUOUS
 10
4.0017097431
 20
3.202485354
 11
3.8954105305
 21
3.202485354
  0
LINE
  5
2D8
100
AcDbEntity
  8
0
100
AcDbLine
 62
7
  6
CONTINUOUS
 10
3.895378195
 20
3.202485354
 11
3.8244868856
 21
3.202485354
  0
LINE
  5
2D9
100
AcDbEntity
  8
0
100
AcDbLine
 62
7
  6
CONTINUOUS
 10
4.0017097431
 20
3.2111110255
 11
4.0324244911
 21
3.2111110255
  0
LINE
  5
2DA
100
AcDbEntity
  8
0
100
AcDbLine
 62
7
  6
CONTINUOUS
 10
4.1387237037
 20
3.2111110255
 11
4.2261914925
 21
3.2111110255
  0
LINE
  5
2DB
100
AcDbEntity
  8
0
100
AcDbLine
 62
7
  6
CONTINUOUS
 10
4.3336102549
 20
3.2111110255
 11
4.4635066337
 21
3.2111110255
  0
LINE
  5
2DC
100
AcDbEntity
  8
0
100
AcDbLine
 62
7
  6
CONTINUOUS
 10
4.5698058463
 20
3.2111110255
 11
4.7281972799
 21
3.2111110255
  0
LINE
  5
2DD
100
AcDbEntity
  8
0
100
AcDbLine
 62
7
  6
CONTINUOUS
 10
4.8344964925
 20
3.2111110255
 11
5.0022252012
 21
3.2111110255
  0
LINE
  5
2DE
100
AcDbEntity
  8
0
100
AcDbLine
 62
7
  6
CONTINUOUS
 10
5.1085244138
 20
3.2111110255
 11
5.2669158475
 21
3.2111110255
  0
LINE
  5
2DF
100
AcDbEntity
  8
0
100
AcDbLine
 62
7
  6
CONTINUOUS
 10
5.3732150601
 20
3.2111110255
 11
5.5031114393
 21
3.2111110255
  0
LINE
  5
2E0
100
AcDbEntity
  8
0
100
AcDbLine
 62
7
  6
CONTINUOUS
 10
5.6105302012
 20
3.2111110255
 11
5.69799799
 21
3.2111110255
  0
LINE
  5
2E1
100
AcDbEntity
  8
0
100
AcDbLine
 62
7
  6
CONTINUOUS
 10
5.8042972026
 20
3.2111110259
 11
5.8350119506
 21
3.2111110254
  0
LINE
  5
2E2
100
AcDbEntity
  8
0
100
AcDbLine
 62
7
  6
CONTINUOUS
 10
5.5648042848
 20
3.2127665929
 11
5.4825473302
 21
3.2127665929
  0
LINE
  5
2E3
100
AcDbEntity
  8
0
100
AcDbLine
 62
7
  6
CONTINUOUS
 10
4.3541743636
 20
3.2127665929
 11
4.2719174089
 21
3.2127665929
  0
LINE
  5
2E4
100
AcDbEntity
  8
0
100
AcDbLine
 62
7
  6
CONTINUOUS
 10
3.6666024482
 20
3.2127665929
 11
3.7051538147
 21
3.2127665929
  0
LINE
  5
2E5
100
AcDbEntity
  8
0
100
AcDbLine
 62
7
  6
CONTINUOUS
 10
3.7078588567
 20
3.2127665929
 11
3.790105423
 21
3.2127665929
  0
LINE
  5
2E6
100
AcDbEntity
  8
0
100
AcDbLine
 62
7
  6
CONTINUOUS
 10
3.8288168449
 20
3.2127665929
 11
3.911032316
 21
3.2127665929
  0
LINE
  5
2E7
100
AcDbEntity
  8
0
100
AcDbLine
 62
7
  6
CONTINUOUS
 10
4.021189301
 20
3.2127665929
 11
4.1034431391
 21
3.2127665929
  0
LINE
  5
2E8
100
AcDbEntity
  8
0
100
AcDbLine
 62
7
  6
CONTINUOUS
 10
4.5639075688
 20
3.2127665929
 11
4.6461459646
 21
3.2127665929
  0
LINE
  5
2E9
100
AcDbEntity
  8
0
100
AcDbLine
 62
7
  6
CONTINUOUS
 10
4.8772479214
 20
3.2127665929
 11
4.9594737723
 21
3.2127665929
  0
LINE
  5
2EA
100
AcDbEntity
  8
0
100
AcDbLine
 62
7
  6
CONTINUOUS
 10
5.1905759729
 20
3.2127665929
 11
5.2728138812
 21
3.2127665929
  0
LINE
  5
2EB
100
AcDbEntity
  8
0
100
AcDbLine
 62
7
  6
CONTINUOUS
 10
5.7332784139
 20
3.2127665929
 11
5.8155325335
 21
3.2127665929
  0
LINE
  5
2EC
100
AcDbEntity
  8
0
100
AcDbLine
 62
7
  6
CONTINUOUS
 10
5.9256850768
 20
3.2127665929
 11
6.0079091497
 21
3.2127665929
  0
LINE
  5
2ED
100
AcDbEntity
  8
0
100
AcDbLine
 62
7
  6
CONTINUOUS
 10
6.0466192658
 20
3.2127665929
 11
6.128859842
 21
3.2127665929
  0
LINE
  5
2EE
100
AcDbEntity
  8
0
100
AcDbLine
 62
7
  6
CONTINUOUS
 10
6.13123334
 20
3.2127665929
 11
6.1701192455
 21
3.2127665929
  0
LINE
  5
2EF
100
AcDbEntity
  8
0
100
AcDbLine
 62
7
  6
CONTINUOUS
 10
3.6970093154
 20
3.2170905955
 11
3.6561628285
 21
3.2170905955
  0
LINE
  5
2F0
100
AcDbEntity
  8
0
100
AcDbLine
 62
7
  6
CONTINUOUS
 10
3.6974140428
 20
3.2170905955
 11
3.8005502369
 21
3.2170905955
  0
LINE
  5
2F1
100
AcDbEntity
  8
0
100
AcDbLine
 62
7
  6
CONTINUOUS
 10
3.8183564834
 20
3.2170905955
 11
3.9214926776
 21
3.2170905955
  0
LINE
  5
2F2
100
AcDbEntity
  8
0
100
AcDbLine
 62
7
  6
CONTINUOUS
 10
4.010748123
 20
3.2170905955
 11
4.1138843171
 21
3.2170905955
  0
LINE
  5
2F3
100
AcDbEntity
  8
0
100
AcDbLine
 62
7
  6
CONTINUOUS
 10
4.2614777892
 20
3.2170905955
 11
4.3646139833
 21
3.2170905955
  0
LINE
  5
2F4
100
AcDbEntity
  8
0
100
AcDbLine
 62
7
  6
CONTINUOUS
 10
4.5534586696
 20
3.2170905955
 11
4.6565948638
 21
3.2170905955
  0
LINE
  5
2F5
100
AcDbEntity
  8
0
100
AcDbLine
 62
7
  6
CONTINUOUS
 10
4.8667927498
 20
3.2170905955
 11
4.969928944
 21
3.2170905955
  0
LINE
  5
2F6
100
AcDbEntity
  8
0
100
AcDbLine
 62
7
  6
CONTINUOUS
 10
5.18012683
 20
3.2170905955
 11
5.2832630241
 21
3.2170905955
  0
LINE
  5
2F7
100
AcDbEntity
  8
0
100
AcDbLine
 62
7
  6
CONTINUOUS
 10
5.4721077104
 20
3.2170905955
 11
5.5752439046
 21
3.2170905955
  0
LINE
  5
2F8
100
AcDbEntity
  8
0
100
AcDbLine
 62
7
  6
CONTINUOUS
 10
5.7228373766
 20
3.2170905955
 11
5.8259735708
 21
3.2170905955
  0
LINE
  5
2F9
100
AcDbEntity
  8
0
100
AcDbLine
 62
7
  6
CONTINUOUS
 10
5.9152289968
 20
3.2170906149
 11
6.0183652297
 21
3.2170906149
  0
LINE
  5
2FA
100
AcDbEntity
  8
0
100
AcDbLine
 62
7
  6
CONTINUOUS
 10
6.0361714568
 20
3.2170905955
 11
6.139307651
 21
3.2170905955
  0
LINE
  5
2FB
100
AcDbEntity
  8
0
100
AcDbLine
 62
7
  6
CONTINUOUS
 10
6.1397123784
 20
3.2170905955
 11
6.1805588652
 21
3.2170905955
  0
LINE
  5
2FC
100
AcDbEntity
  8
0
100
AcDbLine
 62
7
  6
CONTINUOUS
 10
6.1434576938
 20
3.2232061615
 11
6.1415917068
 21
3.2232059624
  0
LINE
  5
2FD
100
AcDbEntity
  8
0
100
AcDbLine
 62
7
  6
CONTINUOUS
 10
6.1415917068
 20
3.2232059624
 11
6.1361167687
 21
3.2232057135
  0
LINE
  5
2FE
100
AcDbEntity
  8
0
100
AcDbLine
 62
7
  6
CONTINUOUS
 10
3.927607779
 20
3.2232056969
 11
3.8199694508
 21
3.2232057135
  0
LINE
  5
2FF
100
AcDbEntity
  8
0
100
AcDbLine
 62
7
  6
CONTINUOUS
 10
6.1866744312
 20
3.2232061615
 11
6.1434572611
 21
3.2232057135
  0
LINE
  5
300
100
AcDbEntity
  8
0
100
AcDbLine
 62
7
  6
CONTINUOUS
 10
6.1361167687
 20
3.2232057135
 11
6.0300563388
 21
3.2232057135
  0
LINE
  5
301
100
AcDbEntity
  8
0
100
AcDbLine
 62
7
  6
CONTINUOUS
 10
5.8320886888
 20
3.2232057135
 11
5.7167222586
 21
3.2232057135
  0
LINE
  5
302
100
AcDbEntity
  8
0
100
AcDbLine
 62
7
  6
CONTINUOUS
 10
5.5813590226
 20
3.2232057135
 11
5.4659925924
 21
3.2232057135
  0
LINE
  5
303
100
AcDbEntity
  8
0
100
AcDbLine
 62
7
  6
CONTINUOUS
 10
5.2893781422
 20
3.2232057135
 11
5.174011712
 21
3.2232057135
  0
LINE
  5
304
100
AcDbEntity
  8
0
100
AcDbLine
 62
7
  6
CONTINUOUS
 10
4.976044062
 20
3.2232057135
 11
4.8606776318
 21
3.2232057135
  0
LINE
  5
305
100
AcDbEntity
  8
0
100
AcDbLine
 62
7
  6
CONTINUOUS
 10
5.9091136366
 20
3.2232059751
 11
6.0244805899
 21
3.2232059751
  0
LINE
  5
306
100
AcDbEntity
  8
0
100
AcDbLine
 62
7
  6
CONTINUOUS
 10
3.8066653985
 20
3.2232057571
 11
3.6500477105
 21
3.2232057135
  0
LINE
  5
307
100
AcDbEntity
  8
0
100
AcDbLine
 62
7
  6
CONTINUOUS
 10
4.6627099818
 20
3.2232057135
 11
4.5473435516
 21
3.2232057135
  0
LINE
  5
308
100
AcDbEntity
  8
0
100
AcDbLine
 62
7
  6
CONTINUOUS
 10
4.3707291014
 20
3.2232057136
 11
4.255362671
 21
3.2232057136
  0
LINE
  5
309
100
AcDbEntity
  8
0
100
AcDbLine
 62
7
  6
CONTINUOUS
 10
4.1199994351
 20
3.2232057135
 11
4.0046330049
 21
3.2232057135
  0
LINE
  5
30A
100
AcDbEntity
  8
0
100
AcDbLine
 62
7
  6
CONTINUOUS
 10
3.8199690628
 20
3.2232061615
 11
3.812241382
 21
3.2232056969
  0
LINE
  5
30B
100
AcDbEntity
  8
0
100
AcDbLine
 62
7
  6
CONTINUOUS
 10
5.8364133477
 20
3.2336457302
 11
5.7123975997
 21
3.2336457302
  0
LINE
  5
30C
100
AcDbEntity
  8
0
100
AcDbLine
 62
7
  6
CONTINUOUS
 10
5.5856836815
 20
3.2336457302
 11
5.4616679335
 21
3.2336457302
  0
LINE
  5
30D
100
AcDbEntity
  8
0
100
AcDbLine
 62
7
  6
CONTINUOUS
 10
5.2937028011
 20
3.2336457302
 11
5.169687053
 21
3.2336457302
  0
LINE
  5
30E
100
AcDbEntity
  8
0
100
AcDbLine
 62
7
  6
CONTINUOUS
 10
4.9803687209
 20
3.2336457302
 11
4.8563529729
 21
3.2336457302
  0
LINE
  5
30F
100
AcDbEntity
  8
0
100
AcDbLine
 62
7
  6
CONTINUOUS
 10
4.6670346407
 20
3.2336457302
 11
4.5430188927
 21
3.2336457302
  0
LINE
  5
310
100
AcDbEntity
  8
0
100
AcDbLine
 62
7
  6
CONTINUOUS
 10
4.3750537603
 20
3.2336457302
 11
4.2510380122
 21
3.2336457302
  0
LINE
  5
311
100
AcDbEntity
  8
0
100
AcDbLine
 62
7
  6
CONTINUOUS
 10
4.1243240941
 20
3.2336457302
 11
4.000308346
 21
3.2336457302
  0
LINE
  5
312
100
AcDbEntity
  8
0
100
AcDbLine
 62
7
  6
CONTINUOUS
 10
3.9319324545
 20
3.2336457302
 11
3.6457230516
 21
3.2336457302
  0
LINE
  5
313
100
AcDbEntity
  8
0
100
AcDbLine
 62
7
  6
CONTINUOUS
 10
5.9047892392
 20
3.2336457302
 11
6.1909986421
 21
3.2336457302
  0
LINE
  5
314
100
AcDbEntity
  8
0
100
AcDbLine
 62
7
  6
CONTINUOUS
 10
3.5944885416
 20
3.2598355926
 11
6.2428782133
 21
3.2598355926
  0
LINE
  5
315
100
AcDbEntity
  8
0
100
AcDbLine
 62
7
  6
CONTINUOUS
 10
3.592089019
 20
3.2600183145
 11
6.2446326748
 21
3.2600183145
  0
LINE
  5
316
100
AcDbEntity
  8
DEFAULT_SURFACES
100
AcDbLine
 62
7
  6
CONTINUOUS
 10
3.5090386135
 20
3.272269945
 11
6.3276830802
 21
3.272269945
  0
LINE
  5
317
100
AcDbEntity
  8
0
100
AcDbLine
 62
7
  6
CONTINUOUS
 10
3.4752206895
 20
3.2740422673
 11
6.3615010042
 21
3.2740422673
  0
LINE
  5
318
100
AcDbEntity
  8
0
100
AcDbLine
 62
7
  6
CONTINUOUS
 10
3.6423723992
 20
3.2563283764
 11
3.6424061932
 21
3.2563283743
  0
LINE
  5
319
100
AcDbEntity
  8
0
100
AcDbLine
 62
7
  6
CONTINUOUS
 10
5.8454517611
 20
3.1859301858
 11
6.0017951205
 21
3.1859303086
  0
LINE
  5
31A
100
AcDbEntity
  8
0
100
AcDbLine
 62
7
  6
CONTINUOUS
 10
3.5090386135
 20
3.272269945
 11
3.4752206895
 21
3.2740422673
  0
LWPOLYLINE
  5
31B
100
AcDbEntity
  8
0
100
AcDbPolyline
 62
7
  6
CONTINUOUS
 90
14
 70
0
 10
5.4445704574
 20
3.1259109145
 10
5.444553337
 20
3.1259140475
 10
5.4445932716
 20
3.1259056158
 10
5.4448118444
 20
3.1258469695
 10
5.4451815141
 20
3.1257212226
 10
5.4457195376
 20
3.1254900014
 10
5.4463995915
 20
3.1251178841
 10
5.4471385119
 20
3.1246034455
 10
5.4478873277
 20
3.1239391452
 10
5.448695186
 20
3.1230002122
 10
5.4494719014
 20
3.1217322413
 10
5.4500347472
 20
3.1202869015
 10
5.4503281721
 20
3.1187757748
 10
5.4503724919
 20
3.1179002391
  0
LWPOLYLINE
  5
31C
100
AcDbEntity
  8
0
100
AcDbPolyline
 62
7
  6
CONTINUOUS
 90
12
 70
0
 10
4.7165740767
 20
3.1318267129
 10
4.7159035852
 20
3.1320706195
 10
4.715454487
 20
3.13225995
 10
4.7153512503
 20
3.1323075398
 10
4.7154938115
 20
3.1322103693
 10
4.7158229492
 20
3.1319507974
 10
4.7163254418
 20
3.1314602243
 10
4.7169466816
 20
3.1306648432
 10
4.7175380075
 20
3.1295982091
 10
4.7180035376
 20
3.1282360234
 10
4.7182184817
 20
3.1266294083
 10
4.7182218202
 20
3.1263902276
  0
LWPOLYLINE
  5
31D
100
AcDbEntity
  8
0
100
AcDbPolyline
 62
7
  6
CONTINUOUS
 90
12
 70
0
 10
4.8805918771
 20
3.1302328699
 10
4.8801781576
 20
3.1303927968
 10
4.8799734652
 20
3.130485089
 10
4.8800793486
 20
3.1304213636
 10
4.8803788074
 20
3.1302083328
 10
4.880788428
 20
3.1298529326
 10
4.8813152614
 20
3.1292824274
 10
4.8819118014
 20
3.1284316615
 10
4.8824423834
 20
3.127354526
 10
4.8828220737
 20
3.1260894857
 10
4.8829869378
 20
3.1246487351
 10
4.8829886095
 20
3.1244950882
  0
LINE
  5
31E
100
AcDbEntity
  8
0
100
AcDbLine
 62
7
  6
CONTINUOUS
 10
4.1917985392
 20
3.106447907
 11
4.2013732605
 21
3.0968731857
  0
LINE
  5
31F
100
AcDbEntity
  8
0
100
AcDbLine
 62
7
  6
CONTINUOUS
 10
4.2276260471
 20
3.106447907
 11
4.2372007684
 21
3.0968731857
  0
LINE
  5
320
100
AcDbEntity
  8
0
100
AcDbLine
 62
7
  6
CONTINUOUS
 10
4.3014857042
 20
3.1064479071
 11
4.3110604258
 21
3.0968731854
  0
LINE
  5
321
100
AcDbEntity
  8
0
100
AcDbLine
 62
7
  6
CONTINUOUS
 10
4.2305159229
 20
3.1920455658
 11
4.2366313029
 21
3.1859301858
  0
LINE
  5
322
100
AcDbEntity
  8
0
100
AcDbLine
 62
7
  6
CONTINUOUS
 10
4.255362671
 20
3.2232057136
 11
4.2614777892
 21
3.2170905955
  0
LINE
  5
323
100
AcDbEntity
  8
0
100
AcDbLine
 62
7
  6
CONTINUOUS
 10
3.6457230516
 20
3.2598355926
 11
3.6457230516
 21
3.2336457302
  0
LINE
  5
324
100
AcDbEntity
  8
0
100
AcDbLine
 62
7
  6
CONTINUOUS
 10
3.4183608469
 20
3.3339600394
 11
6.4183608469
 21
3.3339600394
  0
LINE
  5
325
100
AcDbEntity
  8
0
100
AcDbLine
 62
7
  6
CONTINUOUS
 10
5.6499473398
 20
3.1325764809
 11
5.6499979261
 21
3.132566995
  0
LWPOLYLINE
  5
326
100
AcDbEntity
  8
0
100
AcDbPolyline
 62
7
  6
CONTINUOUS
 90
11
 70
0
 10
5.0435456654
 20
3.1287929335
 10
5.0433798734
 20
3.1288598276
 10
5.0433977109
 20
3.1288500436
 10
5.0436680222
 20
3.1286877829
 10
5.0440842432
 20
3.1283796855
 10
5.0445811215
 20
3.1279239941
 10
5.0451773423
 20
3.1272279887
 10
5.045802013
 20
3.1262402203
 10
5.0463085772
 20
3.1250455517
 10
5.0466270558
 20
3.1236709568
 10
5.0467022661
 20
3.1225793987
  0
LINE
  5
327
100
AcDbEntity
  8
0
100
AcDbLine
 62
7
  6
CONTINUOUS
 10
4.4739073025
 20
3.0258459221
 11
4.4800224909
 21
3.0197307338
  0
LINE
  5
328
100
AcDbEntity
  8
0
100
AcDbLine
 62
7
  6
CONTINUOUS
 10
4.543219839
 20
3.0258459209
 11
4.549335221
 21
3.0197305388
  0
LINE
  5
329
100
AcDbEntity
  8
0
100
AcDbLine
 62
7
  6
CONTINUOUS
 10
4.4678310641
 20
3.1920455658
 11
4.4739464441
 21
3.1859301858
  0
LINE
  5
32A
100
AcDbEntity
  8
0
100
AcDbLine
 62
7
  6
CONTINUOUS
 10
3.6807613567
 20
3.1967221352
 11
3.6806964243
 21
3.2127665929
  0
LINE
  5
32B
100
AcDbEntity
  8
0
100
AcDbLine
 62
7
  6
CONTINUOUS
 10
3.6869742658
 20
3.2598355926
 11
3.6869742658
 21
3.2336457302
  0
LINE
  5
32C
100
AcDbEntity
  8
0
100
AcDbLine
 62
7
  6
CONTINUOUS
 10
3.8079167065
 20
3.2598355926
 11
3.8079167065
 21
3.2336457302
  0
LINE
  5
32D
100
AcDbEntity
  8
0
100
AcDbLine
 62
7
  6
CONTINUOUS
 10
3.8244868856
 20
3.2134352552
 11
3.8244868856
 21
3.202485354
  0
LINE
  5
32E
100
AcDbEntity
  8
0
100
AcDbLine
 62
7
  6
CONTINUOUS
 10
4.5473435516
 20
3.2232057135
 11
4.5534586696
 21
3.2170905955
  0
LINE
  5
32F
100
AcDbEntity
  8
0
100
AcDbLine
 62
7
  6
CONTINUOUS
 10
4.7751441007
 20
3.0258459221
 11
4.7812594839
 21
3.0197305389
  0
LINE
  5
330
100
AcDbEntity
  8
0
100
AcDbLine
 62
7
  6
CONTINUOUS
 10
4.7208143298
 20
3.106447907
 11
4.7303890511
 21
3.0968731857
  0
LINE
  5
331
100
AcDbEntity
  8
0
100
AcDbLine
 62
7
  6
CONTINUOUS
 10
4.7325217104
 20
3.1920455658
 11
4.7386370904
 21
3.1859301858
  0
LINE
  5
332
100
AcDbEntity
  8
0
100
AcDbLine
 62
7
  6
CONTINUOUS
 10
3.8954105305
 20
3.2127665929
 11
3.8954105305
 21
3.202485354
  0
LINE
  5
333
100
AcDbEntity
  8
0
100
AcDbLine
 62
7
  6
CONTINUOUS
 10
3.9319324545
 20
3.2501225409
 11
3.9319324545
 21
3.2336457302
  0
LINE
  5
334
100
AcDbEntity
  8
0
100
AcDbLine
 62
7
  6
CONTINUOUS
 10
4.000308346
 20
3.2598355926
 11
4.000308346
 21
3.2336457302
  0
LINE
  5
335
100
AcDbEntity
  8
0
100
AcDbLine
 62
7
  6
CONTINUOUS
 10
4.0017097431
 20
3.2178443275
 11
4.0017097431
 21
3.202485354
  0
LINE
  5
336
100
AcDbEntity
  8
0
100
AcDbLine
 62
7
  6
CONTINUOUS
 10
4.8855834518
 20
3.106447907
 11
4.8951581731
 21
3.0968731857
  0
LINE
  5
337
100
AcDbEntity
  8
0
100
AcDbLine
 62
7
  6
CONTINUOUS
 10
5.0338220048
 20
3.0258459209
 11
5.0399373868
 21
3.0197305388
  0
LINE
  5
338
100
AcDbEntity
  8
0
100
AcDbLine
 62
7
  6
CONTINUOUS
 10
4.8606776318
 20
3.2232057135
 11
4.8667927498
 21
3.2170905955
  0
LINE
  5
339
100
AcDbEntity
  8
0
100
AcDbLine
 62
7
  6
CONTINUOUS
 10
5.0492964293
 20
3.106447907
 11
5.0588711507
 21
3.0968731857
  0
LINE
  5
33A
100
AcDbEntity
  8
0
100
AcDbLine
 62
7
  6
CONTINUOUS
 10
5.0065496316
 20
3.1920455658
 11
5.0126650116
 21
3.1859301858
  0
LINE
  5
33B
100
AcDbEntity
  8
0
100
AcDbLine
 62
7
  6
CONTINUOUS
 10
4.4005949719
 20
3.09835869
 11
4.4218777195
 21
3.0398848214
  0
LINE
  5
33C
100
AcDbEntity
  8
0
100
AcDbLine
 62
7
  6
CONTINUOUS
 10
4.0324244911
 20
3.2127665929
 11
4.0324244911
 21
3.202485354
  0
LINE
  5
33D
100
AcDbEntity
  8
0
100
AcDbLine
 62
7
  6
CONTINUOUS
 10
4.0472978547
 20
3.1663008077
 11
4.0472978547
 21
3.1612223931
  0
LINE
  5
33E
100
AcDbEntity
  8
0
100
AcDbLine
 62
7
  6
CONTINUOUS
 10
4.1243240941
 20
3.2524097695
 11
4.1243240941
 21
3.2336457302
  0
LINE
  5
33F
100
AcDbEntity
  8
0
100
AcDbLine
 62
7
  6
CONTINUOUS
 10
4.1387237037
 20
3.2192317994
 11
4.1387237037
 21
3.202485354
  0
LINE
  5
340
100
AcDbEntity
  8
0
100
AcDbLine
 62
7
  6
CONTINUOUS
 10
3.4183608469
 20
3.9670221654
 11
6.4183608469
 21
3.9670221654
  0
LINE
  5
341
100
AcDbEntity
  8
0
100
AcDbLine
 62
7
  6
CONTINUOUS
 10
5.174011712
 20
3.2232057135
 11
5.18012683
 21
3.2170905955
  0
LINE
  5
342
100
AcDbEntity
  8
0
100
AcDbLine
 62
7
  6
CONTINUOUS
 10
5.2712402779
 20
3.1920455658
 11
5.2773556579
 21
3.1859301858
  0
LINE
  5
343
100
AcDbEntity
  8
0
100
AcDbLine
 62
7
  6
CONTINUOUS
 10
4.1892039799
 20
3.1325367829
 11
4.1892039799
 21
3.112711681
  0
LINE
  5
344
100
AcDbEntity
  8
0
100
AcDbLine
 62
7
  6
CONTINUOUS
 10
4.2250314878
 20
3.1321243287
 11
4.2250314878
 21
3.112711681
  0
LINE
  5
345
100
AcDbEntity
  8
0
100
AcDbLine
 62
7
  6
CONTINUOUS
 10
4.2261914925
 20
3.2341592547
 11
4.2261914925
 21
3.202485354
  0
LINE
  5
346
100
AcDbEntity
  8
0
100
AcDbLine
 62
7
  6
CONTINUOUS
 10
4.2510380122
 20
3.2598355926
 11
4.2510380122
 21
3.2336457302
  0
LINE
  5
347
100
AcDbEntity
  8
0
100
AcDbLine
 62
7
  6
CONTINUOUS
 10
4.2988911449
 20
3.131262626
 11
4.2988911449
 21
3.112711681
  0
LINE
  5
348
100
AcDbEntity
  8
0
100
AcDbLine
 62
7
  6
CONTINUOUS
 10
4.3324907051
 20
3.2127665929
 11
4.3324907051
 21
3.202485354
  0
LINE
  5
349
100
AcDbEntity
  8
0
100
AcDbLine
 62
7
  6
CONTINUOUS
 10
3.4783608469
 20
4.0270221654
 11
6.3583608469
 21
4.0270221654
  0
LINE
  5
34A
100
AcDbEntity
  8
0
100
AcDbLine
 62
7
  6
CONTINUOUS
 10
4.0831152968
 20
4.0444244957
 11
5.7536063969
 21
4.0444244957
  0
LINE
  5
34B
100
AcDbEntity
  8
0
100
AcDbLine
 62
7
  6
CONTINUOUS
 10
5.452967336
 20
3.106447907
 11
5.462542059
 21
3.0968731841
  0
LINE
  5
34C
100
AcDbEntity
  8
0
100
AcDbLine
 62
7
  6
CONTINUOUS
 10
5.4659925924
 20
3.2232057135
 11
5.4721077104
 21
3.2170905955
  0
LINE
  5
34D
100
AcDbEntity
  8
0
100
AcDbLine
 62
7
  6
CONTINUOUS
 10
5.5085554191
 20
3.1920455658
 11
5.5146707991
 21
3.1859301858
  0
LINE
  5
34E
100
AcDbEntity
  8
0
100
AcDbLine
 62
7
  6
CONTINUOUS
 10
4.3750537603
 20
3.2553920505
 11
4.3750537603
 21
3.2336457302
  0
LINE
  5
34F
100
AcDbEntity
  8
0
100
AcDbLine
 62
7
  6
CONTINUOUS
 10
4.4051903521
 20
3.1181254952
 11
4.4051903575
 21
3.112711681
  0
LINE
  5
350
100
AcDbEntity
  8
0
100
AcDbLine
 62
7
  6
CONTINUOUS
 10
4.4635066337
 20
3.2317494622
 11
4.4635066337
 21
3.202485354
  0
LWPOLYLINE
  5
351
100
AcDbEntity
  8
0
100
AcDbPolyline
 62
7
  6
CONTINUOUS
 90
14
 70
0
 10
4.4051892588
 20
3.1181208008
 10
4.4051989371
 20
3.1185316626
 10
4.4053887213
 20
3.1199562079
 10
4.4058188005
 20
3.121341796
 10
4.4064546905
 20
3.1225959117
 10
4.4071744086
 20
3.1235925328
 10
4.4078908049
 20
3.1243441851
 10
4.40861038
 20
3.1249361441
 10
4.409295074
 20
3.1253818741
 10
4.4098598622
 20
3.1256753149
 10
4.410287445
 20
3.1258546534
 10
4.4105921896
 20
3.1259581346
 10
4.4107484262
 20
3.1260007936
 10
4.4107625876
 20
3.1260038306
  0
LINE
  5
352
100
AcDbEntity
  8
0
100
AcDbLine
 62
7
  6
CONTINUOUS
 10
5.7023224204
 20
3.1920455658
 11
5.7084378021
 21
3.1859301841
  0
LINE
  5
353
100
AcDbEntity
  8
0
100
AcDbLine
 62
7
  6
CONTINUOUS
 10
5.7167222586
 20
3.2232057135
 11
5.7228373766
 21
3.2170905955
  0
LINE
  5
354
100
AcDbEntity
  8
0
100
AcDbLine
 62
7
  6
CONTINUOUS
 10
4.5430188927
 20
3.2598355926
 11
4.5430188927
 21
3.2336457302
  0
LINE
  5
355
100
AcDbEntity
  8
0
100
AcDbLine
 62
7
  6
CONTINUOUS
 10
4.5553608469
 20
4.5535221654
 11
4.5553608469
 21
4.5385221654
  0
LINE
  5
356
100
AcDbEntity
  8
0
100
AcDbLine
 62
7
  6
CONTINUOUS
 10
4.5698058463
 20
3.2127665929
 11
4.5698058463
 21
3.202485354
  0
LINE
  5
357
100
AcDbEntity
  8
0
100
AcDbLine
 62
7
  6
CONTINUOUS
 10
4.6371108469
 20
5.5693641865
 11
4.6371108469
 21
4.7591551507
  0
LINE
  5
358
100
AcDbEntity
  8
0
100
AcDbLine
 62
7
  6
CONTINUOUS
 10
4.6670346407
 20
3.2588671429
 11
4.6670346407
 21
3.2336457302
  0
LINE
  5
359
100
AcDbEntity
  8
0
100
AcDbLine
 62
7
  6
CONTINUOUS
 10
4.6221108469
 20
4.7256141865
 11
4.5896892085
 21
4.6258306438
  0
LINE
  5
35A
100
AcDbEntity
  8
0
100
AcDbLine
 62
7
  6
CONTINUOUS
 10
4.5183171628
 20
4.4761198351
 11
4.0831152968
 21
4.0444244957
  0
LINE
  5
35B
100
AcDbEntity
  8
0
100
AcDbLine
 62
7
  6
CONTINUOUS
 10
5.3184045309
 20
4.4761198351
 11
4.5183171628
 21
4.4761198351
  0
LINE
  5
35C
100
AcDbEntity
  8
0
100
AcDbLine
 62
7
  6
CONTINUOUS
 10
5.276150081
 20
4.4935221654
 11
4.5605716128
 21
4.4935221654
  0
LINE
  5
35D
100
AcDbEntity
  8
0
100
AcDbLine
 62
7
  6
CONTINUOUS
 10
5.8393363811
 20
3.1920455658
 11
5.8454517611
 21
3.1859301858
  0
LINE
  5
35E
100
AcDbEntity
  8
0
100
AcDbLine
 62
7
  6
CONTINUOUS
 10
5.9091136366
 20
3.2232059751
 11
5.9152289968
 21
3.2170906149
  0
LINE
  5
35F
100
AcDbEntity
  8
0
100
AcDbLine
 62
7
  6
CONTINUOUS
 10
4.7182197705
 20
3.1263980016
 11
4.7182197705
 21
3.112711681
  0
LINE
  5
360
100
AcDbEntity
  8
0
100
AcDbLine
 62
7
  6
CONTINUOUS
 10
4.7281972799
 20
3.2290629961
 11
4.7281972799
 21
3.202485354
  0
LINE
  5
361
100
AcDbEntity
  8
0
100
AcDbLine
 62
7
  6
CONTINUOUS
 10
4.8245189831
 20
3.1229788509
 11
4.8245189831
 21
3.112711681
  0
LINE
  5
362
100
AcDbEntity
  8
0
100
AcDbLine
 62
7
  6
CONTINUOUS
 10
4.8344964925
 20
3.2262832128
 11
4.8344964925
 21
3.202485354
  0
LINE
  5
363
100
AcDbEntity
  8
0
100
AcDbLine
 62
7
  6
CONTINUOUS
 10
4.8563529729
 20
3.2598355926
 11
4.8563529729
 21
3.2336457302
  0
LINE
  5
364
100
AcDbEntity
  8
0
100
AcDbLine
 62
7
  6
CONTINUOUS
 10
5.2813608469
 20
4.5385221654
 11
4.5553608469
 21
4.5385221654
  0
LINE
  5
365
100
AcDbEntity
  8
0
100
AcDbLine
 62
7
  6
CONTINUOUS
 10
4.5553608469
 20
4.5535221654
 11
5.2813608469
 21
4.5535221654
  0
LINE
  5
366
100
AcDbEntity
  8
0
100
AcDbLine
 62
7
  6
CONTINUOUS
 10
4.5781926084
 20
4.6074060673
 11
5.2585290854
 21
4.6074060673
  0
LINE
  5
367
100
AcDbEntity
  8
0
100
AcDbLine
 62
7
  6
CONTINUOUS
 10
4.5896892085
 20
4.6258306438
 11
5.2470324853
 21
4.6258306438
  0
LINE
  5
368
100
AcDbEntity
  8
0
100
AcDbLine
 62
7
  6
CONTINUOUS
 10
6.0300563388
 20
3.2232057135
 11
6.0361714568
 21
3.2170905955
  0
LINE
  5
369
100
AcDbEntity
  8
0
100
AcDbLine
 62
7
  6
CONTINUOUS
 10
4.8829888925
 20
3.1244820603
 11
4.8829888925
 21
3.112711681
  0
LINE
  5
36A
100
AcDbEntity
  8
0
100
AcDbLine
 62
7
  6
CONTINUOUS
 10
4.9803687209
 20
3.2598355926
 11
4.9803687209
 21
3.2336457302
  0
LINE
  5
36B
100
AcDbEntity
  8
0
100
AcDbLine
 62
7
  6
CONTINUOUS
 10
4.9892881051
 20
3.1248933526
 11
4.9892881051
 21
3.112711681
  0
LINE
  5
36C
100
AcDbEntity
  8
0
100
AcDbLine
 62
7
  6
CONTINUOUS
 10
5.0022252012
 20
3.2262832128
 11
5.0022252012
 21
3.202485354
  0
LINE
  5
36D
100
AcDbEntity
  8
0
100
AcDbLine
 62
7
  6
CONTINUOUS
 10
5.04670187
 20
3.1225790173
 11
5.04670187
 21
3.112711681
  0
LINE
  5
36E
100
AcDbEntity
  8
0
100
AcDbLine
 62
7
  6
CONTINUOUS
 10
4.8829888925
 20
3.1244820603
 11
4.8829889705
 21
3.1244955526
  0
LWPOLYLINE
  5
36F
100
AcDbEntity
  8
0
100
AcDbPolyline
 62
7
  6
CONTINUOUS
 90
9
 70
0
 10
4.9892867205
 20
3.1248916372
 10
4.9892908763
 20
3.1251564158
 10
4.9895182005
 20
3.1267862748
 10
4.9900035584
 20
3.1281635931
 10
4.9906170958
 20
3.1292372877
 10
4.9912560787
 20
3.1300292668
 10
4.9917689046
 20
3.1305120355
 10
4.9920965992
 20
3.1307598335
 10
4.9922276143
 20
3.1308458401
  0
LWPOLYLINE
  5
370
100
AcDbEntity
  8
0
100
AcDbPolyline
 62
7
  6
CONTINUOUS
 90
8
 70
0
 10
4.8245193248
 20
3.1229798388
 10
4.8246764168
 20
3.1245505469
 10
4.8251000581
 20
3.1259531128
 10
4.8256879235
 20
3.1271018417
 10
4.8263495573
 20
3.1279976142
 10
4.8269232108
 20
3.1285804584
 10
4.8273547721
 20
3.1289290717
 10
4.8276513843
 20
3.1291255477
  0
LINE
  5
371
100
AcDbEntity
  8
0
100
AcDbLine
 62
7
  6
CONTINUOUS
 10
3.8066653985
 20
3.2232057571
 11
3.8005502369
 21
3.2170905955
  0
LINE
  5
372
100
AcDbEntity
  8
0
100
AcDbLine
 62
7
  6
CONTINUOUS
 10
3.927607779
 20
3.2232056969
 11
3.9214926776
 21
3.2170905955
  0
LINE
  5
373
100
AcDbEntity
  8
0
100
AcDbLine
 62
7
  6
CONTINUOUS
 10
5.2146108469
 20
4.7256141865
 11
4.6221108469
 21
4.7256141865
  0
LINE
  5
374
100
AcDbEntity
  8
0
100
AcDbLine
 62
7
  6
CONTINUOUS
 10
4.6371108469
 20
4.7591552062
 11
5.1996108469
 21
4.7591551507
  0
LINE
  5
375
100
AcDbEntity
  8
0
100
AcDbLine
 62
7
  6
CONTINUOUS
 10
5.1085244138
 20
3.2290629961
 11
5.1085244138
 21
3.202485354
  0
LINE
  5
376
100
AcDbEntity
  8
0
100
AcDbLine
 62
7
  6
CONTINUOUS
 10
5.1530010826
 20
3.1267896796
 11
5.1530010826
 21
3.112711681
  0
LINE
  5
377
100
AcDbEntity
  8
0
100
AcDbLine
 62
7
  6
CONTINUOUS
 10
5.169687053
 20
3.2588671429
 11
5.169687053
 21
3.2336457302
  0
LINE
  5
378
100
AcDbEntity
  8
0
100
AcDbLine
 62
7
  6
CONTINUOUS
 10
5.1996108469
 20
5.5693641865
 11
5.1996108469
 21
4.7591551507
  0
LINE
  5
379
100
AcDbEntity
  8
0
100
AcDbLine
 62
7
  6
CONTINUOUS
 10
3.9973853127
 20
3.1920455658
 11
3.9912699327
 21
3.1859301858
  0
LINE
  5
37A
100
AcDbEntity
  8
0
100
AcDbLine
 62
7
  6
CONTINUOUS
 10
4.1199994351
 20
3.2232057135
 11
4.1138843171
 21
3.2170905955
  0
LINE
  5
37B
100
AcDbEntity
  8
0
100
AcDbLine
 62
7
  6
CONTINUOUS
 10
4.1343992733
 20
3.1920455658
 11
4.1282838933
 21
3.1859301858
  0
LINE
  5
37C
100
AcDbEntity
  8
0
100
AcDbLine
 62
7
  6
CONTINUOUS
 10
5.3184045309
 20
4.4761198351
 11
5.7536063969
 21
4.0444244957
  0
LINE
  5
37D
100
AcDbEntity
  8
0
100
AcDbLine
 62
7
  6
CONTINUOUS
 10
5.2669158475
 20
3.2127665929
 11
5.2669158475
 21
3.202485354
  0
LINE
  5
37E
100
AcDbEntity
  8
0
100
AcDbLine
 62
7
  6
CONTINUOUS
 10
5.2813608469
 20
4.5535221654
 11
5.2813608469
 21
4.5385221654
  0
LINE
  5
37F
100
AcDbEntity
  8
0
100
AcDbLine
 62
7
  6
CONTINUOUS
 10
5.2937028011
 20
3.2598355926
 11
5.2937028011
 21
3.2336457302
  0
LINE
  5
380
100
AcDbEntity
  8
0
100
AcDbLine
 62
7
  6
CONTINUOUS
 10
5.3732150601
 20
3.2317494622
 11
5.3732150601
 21
3.202485354
  0
LWPOLYLINE
  5
381
100
AcDbEntity
  8
0
100
AcDbPolyline
 62
7
  6
CONTINUOUS
 90
8
 70
0
 10
5.1530011989
 20
3.126790406
 10
5.1531816006
 20
3.1284733488
 10
5.1536124887
 20
3.129837303
 10
5.1541752786
 20
3.1309173536
 10
5.1547817342
 20
3.1317397245
 10
5.1552903507
 20
3.1322658368
 10
5.1556494764
 20
3.1325658205
 10
5.1558589983
 20
3.1327124729
  0
LINE
  5
382
100
AcDbEntity
  8
0
100
AcDbLine
 62
7
  6
CONTINUOUS
 10
4.3281662747
 20
3.1920455658
 11
4.3220508947
 21
3.1859301858
  0
LINE
  5
383
100
AcDbEntity
  8
0
100
AcDbLine
 62
7
  6
CONTINUOUS
 10
4.3707291014
 20
3.2232057136
 11
4.3646139833
 21
3.2170905955
  0
LINE
  5
384
100
AcDbEntity
  8
0
100
AcDbLine
 62
7
  6
CONTINUOUS
 10
5.1996108469
 20
5.1006141865
 11
4.6371108469
 21
5.1006141865
  0
LINE
  5
385
100
AcDbEntity
  8
0
100
AcDbLine
 62
7
  6
CONTINUOUS
 10
5.2146108469
 20
4.7256141865
 11
5.2470324853
 21
4.6258306438
  0
LINE
  5
386
100
AcDbEntity
  8
0
100
AcDbLine
 62
7
  6
CONTINUOUS
 10
5.4503727767
 20
3.1179082069
 11
5.4503727767
 21
3.112711681
  0
LINE
  5
387
100
AcDbEntity
  8
0
100
AcDbLine
 62
7
  6
CONTINUOUS
 10
5.4616679335
 20
3.2553920505
 11
5.4616679335
 21
3.2336457302
  0
LINE
  5
388
100
AcDbEntity
  8
0
100
AcDbLine
 62
7
  6
CONTINUOUS
 10
5.5042309886
 20
3.2127665929
 11
5.5042309886
 21
3.202485354
  0
LINE
  5
389
100
AcDbEntity
  8
0
100
AcDbLine
 62
7
  6
CONTINUOUS
 10
5.5566719893
 20
3.1314814387
 11
5.5566719893
 21
3.112711681
  0
LINE
  5
38A
100
AcDbEntity
  8
0
100
AcDbLine
 62
7
  6
CONTINUOUS
 10
4.4025957982
 20
3.1064479071
 11
4.3930210765
 21
3.0968731854
  0
LINE
  5
38B
100
AcDbEntity
  8
0
100
AcDbLine
 62
7
  6
CONTINUOUS
 10
4.5654814158
 20
3.1920455658
 11
4.5593660358
 21
3.1859301858
  0
LINE
  5
38C
100
AcDbEntity
  8
0
100
AcDbLine
 62
7
  6
CONTINUOUS
 10
4.6627099818
 20
3.2232057135
 11
4.6565948638
 21
3.2170905955
  0
LINE
  5
38D
100
AcDbEntity
  8
0
100
AcDbLine
 62
7
  6
CONTINUOUS
 10
5.5856836815
 20
3.2598355926
 11
5.5856836815
 21
3.2336457302
  0
LINE
  5
38E
100
AcDbEntity
  8
0
100
AcDbLine
 62
7
  6
CONTINUOUS
 10
5.6105302012
 20
3.2341592547
 11
5.6105302012
 21
3.202485354
  0
LINE
  5
38F
100
AcDbEntity
  8
0
100
AcDbLine
 62
7
  6
CONTINUOUS
 10
5.6226773991
 20
3.132250478
 11
5.6226773991
 21
3.112711681
  0
LINE
  5
390
100
AcDbEntity
  8
0
100
AcDbLine
 62
7
  6
CONTINUOUS
 10
5.6499979265
 20
3.1325669466
 11
5.6499979265
 21
3.112711681
  0
LINE
  5
391
100
AcDbEntity
  8
0
100
AcDbLine
 62
7
  6
CONTINUOUS
 10
5.69799799
 20
3.2192317994
 11
5.69799799
 21
3.202485354
  0
LINE
  5
392
100
AcDbEntity
  8
0
100
AcDbLine
 62
7
  6
CONTINUOUS
 10
5.7123975997
 20
3.2524097695
 11
5.7123975997
 21
3.2336457302
  0
LWPOLYLINE
  5
393
100
AcDbEntity
  8
0
100
AcDbPolyline
 62
7
  6
CONTINUOUS
 90
20
 70
0
 10
5.6499985846
 20
3.1325690267
 10
5.6500611109
 20
3.133622538
 10
5.6502957157
 20
3.1348438013
 10
5.6506548785
 20
3.1359162109
 10
5.6510987931
 20
3.1368452754
 10
5.6516073539
 20
3.1376598164
 10
5.6521676616
 20
3.1383761081
 10
5.6527445188
 20
3.1389804165
 10
5.6533174033
 20
3.1394811539
 10
5.6538923951
 20
3.1399043975
 10
5.6544727621
 20
3.1402649001
 10
5.6550277047
 20
3.1405549668
 10
5.655538061
 20
3.1407793984
 10
5.6559909323
 20
3.1409472091
 10
5.6563634752
 20
3.1410641274
 10
5.656623096
 20
3.1411344148
 10
5.6567818623
 20
3.1411726878
 10
5.6568894867
 20
3.1411963822
 10
5.6569522222
 20
3.1412091404
 10
5.656959796
 20
3.1412105631
  0
LWPOLYLINE
  5
394
100
AcDbEntity
  8
0
100
AcDbPolyline
 62
7
  6
CONTINUOUS
 90
12
 70
0
 10
5.6226776216
 20
3.1322512531
 10
5.6227774354
 20
3.1335723603
 10
5.6231193378
 20
3.1350002445
 10
5.6236786857
 20
3.136320133
 10
5.6243940844
 20
3.1374594558
 10
5.6251194111
 20
3.138315055
 10
5.6257773147
 20
3.138926855
 10
5.6263959871
 20
3.139395975
 10
5.6269500814
 20
3.139743492
 10
5.6273707531
 20
3.1399651912
 10
5.6276432565
 20
3.1400889706
 10
5.6277197189
 20
3.1401205532
  0
LWPOLYLINE
  5
395
100
AcDbEntity
  8
0
100
AcDbPolyline
 62
7
  6
CONTINUOUS
 90
12
 70
0
 10
5.556669272
 20
3.1314830243
 10
5.5567842384
 20
3.1328854464
 10
5.5571389763
 20
3.1342844813
 10
5.5576740095
 20
3.1355094046
 10
5.5583230552
 20
3.1365355569
 10
5.5589646052
 20
3.1372996297
 10
5.5595330707
 20
3.1378394694
 10
5.5600423291
 20
3.1382375584
 10
5.5604628498
 20
3.1385116045
 10
5.5607224914
 20
3.1386549816
 10
5.5608045949
 20
3.1386948249
 10
5.5607980727
 20
3.1386921764
  0
LINE
  5
396
100
AcDbEntity
  8
0
100
AcDbLine
 62
7
  6
CONTINUOUS
 10
4.8301720621
 20
3.1920455658
 11
4.8240566821
 21
3.1859301858
  0
LINE
  5
397
100
AcDbEntity
  8
0
100
AcDbLine
 62
7
  6
CONTINUOUS
 10
5.789423839
 20
3.1663008077
 11
5.789423839
 21
3.1612223931
  0
LINE
  5
398
100
AcDbEntity
  8
0
100
AcDbLine
 62
7
  6
CONTINUOUS
 10
5.8042972026
 20
3.2127665929
 11
5.8042972026
 21
3.202485354
  0
LINE
  5
399
100
AcDbEntity
  8
0
100
AcDbLine
 62
7
  6
CONTINUOUS
 10
5.8350119506
 20
3.2178443275
 11
5.8350119506
 21
3.202485354
  0
LINE
  5
39A
100
AcDbEntity
  8
0
100
AcDbLine
 62
7
  6
CONTINUOUS
 10
5.8364133477
 20
3.2598355926
 11
5.8364133477
 21
3.2336457302
  0
LINE
  5
39B
100
AcDbEntity
  8
0
100
AcDbLine
 62
7
  6
CONTINUOUS
 10
5.9047892392
 20
3.2501225409
 11
5.9047892392
 21
3.2336457302
  0
LINE
  5
39C
100
AcDbEntity
  8
0
100
AcDbLine
 62
7
  6
CONTINUOUS
 10
5.4361267218
 20
3.09835869
 11
5.4148439742
 21
3.0398848214
  0
LINE
  5
39D
100
AcDbEntity
  8
0
100
AcDbLine
 62
7
  6
CONTINUOUS
 10
4.7383106885
 20
3.0258459209
 11
4.7321953065
 21
3.0197305388
  0
LINE
  5
39E
100
AcDbEntity
  8
0
100
AcDbLine
 62
7
  6
CONTINUOUS
 10
4.8219244237
 20
3.106447907
 11
4.8123497024
 21
3.0968731857
  0
LINE
  5
39F
100
AcDbEntity
  8
0
100
AcDbLine
 62
7
  6
CONTINUOUS
 10
4.976044062
 20
3.2232057135
 11
4.969928944
 21
3.2170905955
  0
LINE
  5
3A0
100
AcDbEntity
  8
0
100
AcDbLine
 62
7
  6
CONTINUOUS
 10
4.9866935457
 20
3.106447907
 11
4.9771188244
 21
3.0968731857
  0
LINE
  5
3A1
100
AcDbEntity
  8
0
100
AcDbLine
 62
7
  6
CONTINUOUS
 10
5.1041999834
 20
3.1920455658
 11
5.0980846034
 21
3.1859301858
  0
LINE
  5
3A2
100
AcDbEntity
  8
0
100
AcDbLine
 62
7
  6
CONTINUOUS
 10
5.9413111632
 20
3.2127665929
 11
5.9413111632
 21
3.202485354
  0
LINE
  5
3A3
100
AcDbEntity
  8
0
100
AcDbLine
 62
7
  6
CONTINUOUS
 10
6.0122348081
 20
3.2134352543
 11
6.0122348081
 21
3.202485354
  0
LINE
  5
3A4
100
AcDbEntity
  8
0
100
AcDbLine
 62
7
  6
CONTINUOUS
 10
6.0288049873
 20
3.2598355926
 11
6.0288049873
 21
3.2336457302
  0
LINE
  5
3A5
100
AcDbEntity
  8
0
100
AcDbLine
 62
7
  6
CONTINUOUS
 10
4.9702349527
 20
3.0258459221
 11
4.9641195694
 21
3.0197305389
  0
LINE
  5
3A6
100
AcDbEntity
  8
0
100
AcDbLine
 62
7
  6
CONTINUOUS
 10
5.1504065233
 20
3.106447907
 11
5.1408318019
 21
3.0968731857
  0
LINE
  5
3A7
100
AcDbEntity
  8
0
100
AcDbLine
 62
7
  6
CONTINUOUS
 10
5.2893781422
 20
3.2232057135
 11
5.2832630241
 21
3.2170905955
  0
LINE
  5
3A8
100
AcDbEntity
  8
0
100
AcDbLine
 62
7
  6
CONTINUOUS
 10
5.3688906296
 20
3.1920455658
 11
5.3627752496
 21
3.1859301858
  0
LINE
  5
3A9
100
AcDbEntity
  8
0
100
AcDbLine
 62
7
  6
CONTINUOUS
 10
6.1497474279
 20
3.2598355926
 11
6.1497474279
 21
3.2336457302
  0
LINE
  5
3AA
100
AcDbEntity
  8
0
100
AcDbLine
 62
7
  6
CONTINUOUS
 10
6.1909986421
 20
3.2598355926
 11
6.1909986421
 21
3.2336457302
  0
LINE
  5
3AB
100
AcDbEntity
  8
0
100
AcDbLine
 62
7
  6
CONTINUOUS
 10
5.2289128543
 20
3.0258459209
 11
5.2227974723
 21
3.0197305388
  0
LINE
  5
3AC
100
AcDbEntity
  8
0
100
AcDbLine
 62
7
  6
CONTINUOUS
 10
5.3628143912
 20
3.0258459221
 11
5.3566992028
 21
3.0197307338
  0
LINE
  5
3AD
100
AcDbEntity
  8
0
100
AcDbLine
 62
7
  6
CONTINUOUS
 10
5.5813590226
 20
3.2232057135
 11
5.5752439046
 21
3.2170905955
  0
LINE
  5
3AE
100
AcDbEntity
  8
0
100
AcDbLine
 62
7
  6
CONTINUOUS
 10
5.6062057708
 20
3.1920455658
 11
5.6000903908
 21
3.1859301858
  0
LINE
  5
3AF
100
AcDbEntity
  8
0
100
AcDbLine
 62
7
  6
CONTINUOUS
 10
6.4183608469
 20
3.9670221654
 11
6.4183608469
 21
3.3339600394
  0
LINE
  5
3B0
100
AcDbEntity
  8
0
100
AcDbLine
 62
7
  6
CONTINUOUS
 10
5.55407743
 20
3.106447907
 11
5.544502707
 21
3.0968731841
  0
LINE
  5
3B1
100
AcDbEntity
  8
0
100
AcDbLine
 62
7
  6
CONTINUOUS
 10
5.6200828398
 20
3.106447907
 11
5.6105081213
 21
3.0968731886
  0
LINE
  5
3B2
100
AcDbEntity
  8
0
100
AcDbLine
 62
7
  6
CONTINUOUS
 10
5.6474033671
 20
3.106447907
 11
5.6378286685
 21
3.0968732084
  0
LINE
  5
3B3
100
AcDbEntity
  8
0
100
AcDbLine
 62
7
  6
CONTINUOUS
 10
5.7999727722
 20
3.1920455658
 11
5.7938573905
 21
3.1859301841
  0
LINE
  5
3B4
100
AcDbEntity
  8
0
100
AcDbLine
 62
7
  6
CONTINUOUS
 10
5.8320886888
 20
3.2232057135
 11
5.8259735708
 21
3.2170905955
  0
LINE
  5
3B5
100
AcDbEntity
  8
0
100
AcDbLine
 62
7
  6
CONTINUOUS
 10
5.9369867328
 20
3.1920455658
 11
5.9308713528
 21
3.1859301858
  0
LINE
  5
3B6
100
AcDbEntity
  8
0
100
AcDbLine
 62
7
  6
CONTINUOUS
 10
6.0244805899
 20
3.2232059751
 11
6.0183652297
 21
3.2170906149
  0
LINE
  5
3B7
100
AcDbEntity
  8
0
100
AcDbLine
 62
7
  6
CONTINUOUS
 10
6.0079103777
 20
3.1920455658
 11
6.0017951205
 21
3.1859303086
  0
LINE
  5
3B8
100
AcDbEntity
  8
0
100
AcDbLine
 62
7
  6
CONTINUOUS
 10
6.145422769
 20
3.2232057135
 11
6.139307651
 21
3.2170905955
  0
LINE
  5
3B9
100
AcDbEntity
  8
0
100
AcDbLine
 62
7
  6
CONTINUOUS
 10
6.1866744312
 20
3.2232061615
 11
6.1805588652
 21
3.2170905955
  0
ARC
  5
3BA
100
AcDbEntity
  8
0
100
AcDbCircle
 62
7
  6
CONTINUOUS
 10
3.8188624465
 20
0.2858138383
 40
2.8710226395
100
AcDbArc
 50
81.8617711775
 51
82.0503651921
  0
ARC
  5
3BB
100
AcDbEntity
  8
0
100
AcDbCircle
 62
7
  6
CONTINUOUS
 10
4.1238075951
 20
1.827315305
 40
1.3179731658
100
AcDbArc
 50
82.3812117846
 51
82.5460014726
  0
ARC
  5
3BC
100
AcDbEntity
  8
0
100
AcDbCircle
 62
7
  6
CONTINUOUS
 10
3.6196578613
 20
2.6404249143
 40
0.6388886923
100
AcDbArc
 50
74.5802845708
 51
75.8148825965
  0
ARC
  5
3BD
100
AcDbEntity
  8
0
100
AcDbCircle
 62
7
  6
CONTINUOUS
 10
3.642672206
 20
2.975780199
 40
0.2805685473
100
AcDbArc
 50
99.1660049979
 51
102.1816870692
  0
ARC
  5
3BE
100
AcDbEntity
  8
0
100
AcDbCircle
 62
7
  6
CONTINUOUS
 10
3.6426231837
 20
2.9759605606
 40
0.2803822597
100
AcDbArc
 50
99.1620445289
 51
102.1796575856
  0
ARC
  5
3BF
100
AcDbEntity
  8
0
100
AcDbCircle
 62
7
  6
CONTINUOUS
 10
3.6425889318
 20
2.9761673857
 40
0.2801726193
100
AcDbArc
 50
98.900726098
 51
99.1618640086
  0
ARC
  5
3C0
100
AcDbEntity
  8
0
100
AcDbCircle
 62
7
  6
CONTINUOUS
 10
3.6425637591
 20
2.9764334221
 40
0.2799063902
100
AcDbArc
 50
98.9039916461
 51
99.1653895441
  0
ARC
  5
3C1
100
AcDbEntity
  8
0
100
AcDbCircle
 62
7
  6
CONTINUOUS
 10
3.6425201768
 20
2.9766390693
 40
0.2796959779
100
AcDbArc
 50
96.0770116296
 51
98.9017612586
  0
ARC
  5
3C2
100
AcDbEntity
  8
0
100
AcDbCircle
 62
7
  6
CONTINUOUS
 10
3.6424695411
 20
2.9770966883
 40
0.27923557
100
AcDbArc
 50
95.799949445
 51
96.0766206775
  0
ARC
  5
3C3
100
AcDbEntity
  8
0
100
AcDbCircle
 62
7
  6
CONTINUOUS
 10
3.6424598567
 20
2.9771322282
 40
0.2791999234
100
AcDbArc
 50
96.0752491799
 51
98.9051224472
  0
ARC
  5
3C4
100
AcDbEntity
  8
0
100
AcDbCircle
 62
7
  6
CONTINUOUS
 10
3.6424220879
 20
2.9774730963
 40
0.2788569725
100
AcDbArc
 50
95.7978947277
 51
96.0749448681
  0
ARC
  5
3C5
100
AcDbEntity
  8
0
100
AcDbCircle
 62
7
  6
CONTINUOUS
 10
3.6424086838
 20
2.9777261881
 40
0.2786031428
100
AcDbArc
 50
92.7611877437
 51
95.8005805143
  0
ARC
  5
3C6
100
AcDbEntity
  8
0
100
AcDbCircle
 62
7
  6
CONTINUOUS
 10
3.642387535
 20
2.977829602
 40
0.2784988
100
AcDbArc
 50
92.7578526103
 51
95.7982317099
  0
ARC
  5
3C7
100
AcDbEntity
  8
0
100
AcDbCircle
 62
7
  6
CONTINUOUS
 10
3.6423672762
 20
2.9783035686
 40
0.2780244382
100
AcDbArc
 50
89.9919190279
 51
92.7583963168
  0
ARC
  5
3C8
100
AcDbEntity
  8
0
100
AcDbCircle
 62
7
  6
CONTINUOUS
 10
3.6423727295
 20
2.9906189146
 40
0.2657097156
100
AcDbArc
 50
89.2774915973
 51
89.9970394797
  0
ARC
  5
3C9
100
AcDbEntity
  8
0
100
AcDbCircle
 62
7
  6
CONTINUOUS
 10
3.652802847
 20
3.385663921
 40
0.388326828
100
AcDbArc
 50
326.8874230921
 51
327.3854738608
  0
ARC
  5
3CA
100
AcDbEntity
  8
0
100
AcDbCircle
 62
7
  6
CONTINUOUS
 10
3.6619984162
 20
3.3872192357
 40
0.3860886381
100
AcDbArc
 50
325.9302019537
 51
326.7412258408
  0
ARC
  5
3CB
100
AcDbEntity
  8
0
100
AcDbCircle
 62
7
  6
CONTINUOUS
 10
3.6404617228
 20
3.375757552
 40
0.3200640278
100
AcDbArc
 50
322.2119355646
 51
322.6278629433
  0
ARC
  5
3CC
100
AcDbEntity
  8
0
100
AcDbCircle
 62
7
  6
CONTINUOUS
 10
3.7113776569
 20
3.3083040029
 40
0.2885354179
100
AcDbArc
 50
270.0132374625
 51
272.4511619315
  0
ARC
  5
3CD
100
AcDbEntity
  8
0
100
AcDbCircle
 62
7
  6
CONTINUOUS
 10
3.7044572744
 20
3.3081078313
 40
0.2883392496
100
AcDbArc
 50
270.5224736887
 51
271.3782608904
  0
ARC
  5
3CE
100
AcDbEntity
  8
0
100
AcDbCircle
 62
7
  6
CONTINUOUS
 10
3.7044579413
 20
3.3080481684
 40
0.2882795832
100
AcDbArc
 50
270.2357172007
 51
270.5224492823
  0
ARC
  5
3CF
100
AcDbEntity
  8
0
100
AcDbCircle
 62
7
  6
CONTINUOUS
 10
3.7044580536
 20
3.3080223435
 40
0.288253758
100
AcDbArc
 50
270.0094056908
 51
270.2357159891
  0
ARC
  5
3D0
100
AcDbEntity
  8
0
100
AcDbCircle
 62
7
  6
CONTINUOUS
 10
3.4783608469
 20
3.3339600394
 40
0.06
100
AcDbArc
 50
180.0
 51
267.0
  0
ARC
  5
3D1
100
AcDbEntity
  8
0
100
AcDbCircle
 62
7
  6
CONTINUOUS
 10
3.6666021888
 20
3.2275303724
 40
0.0147637795
100
AcDbArc
 50
225.0011432902
 51
270.001006738
  0
ARC
  5
3D2
100
AcDbEntity
  8
0
100
AcDbCircle
 62
7
  6
CONTINUOUS
 10
3.6604868311
 20
3.2336457302
 40
0.0147637795
100
AcDbArc
 50
180.0
 51
225.0024588137
  0
ARC
  5
3D3
100
AcDbEntity
  8
0
100
AcDbCircle
 62
7
  6
CONTINUOUS
 10
3.7962262343
 20
3.2336457302
 40
0.0147637795
100
AcDbArc
 50
314.9975411859
 51
333.8750990227
  0
ARC
  5
3D4
100
AcDbEntity
  8
0
100
AcDbCircle
 62
7
  6
CONTINUOUS
 10
3.7017380454
 20
3.2336457302
 40
0.0147637795
100
AcDbArc
 50
180.0
 51
225.0024588136
  0
ARC
  5
3D5
100
AcDbEntity
  8
0
100
AcDbCircle
 62
7
  6
CONTINUOUS
 10
3.7078534031
 20
3.2275303724
 40
0.0147637795
100
AcDbArc
 50
225.0011432902
 51
270.001006738
  0
ARC
  5
3D6
100
AcDbEntity
  8
0
100
AcDbCircle
 62
7
  6
CONTINUOUS
 10
3.7901108766
 20
3.2275303724
 40
0.0147637795
100
AcDbArc
 50
269.9989932619
 51
314.9988567098
  0
ARC
  5
3D7
100
AcDbEntity
  8
0
100
AcDbCircle
 62
7
  6
CONTINUOUS
 10
3.822680486
 20
3.2336457302
 40
0.0147637795
100
AcDbArc
 50
180.0
 51
225.0024588141
  0
ARC
  5
3D8
100
AcDbEntity
  8
0
100
AcDbCircle
 62
7
  6
CONTINUOUS
 10
3.8287958437
 20
3.2275303724
 40
0.0147637795
100
AcDbArc
 50
225.00114329
 51
270.0010067378
  0
ARC
  5
3D9
100
AcDbEntity
  8
0
100
AcDbCircle
 62
7
  6
CONTINUOUS
 10
3.5935466698
 20
3.2657411044
 40
0.0059055118
100
AcDbArc
 50
263.984221312
 51
270.0
  0
ARC
  5
3DA
100
AcDbEntity
  8
0
100
AcDbCircle
 62
7
  6
CONTINUOUS
 10
4.0759083665
 20
3.058025466
 40
0.1747660143
100
AcDbArc
 50
74.2346095071
 51
74.5434897536
  0
ARC
  5
3DB
100
AcDbEntity
  8
0
100
AcDbCircle
 62
7
  6
CONTINUOUS
 10
4.0850134066
 20
3.0897488404
 40
0.1417622431
100
AcDbArc
 50
72.7598662874
 51
74.292535395
  0
ARC
  5
3DC
100
AcDbEntity
  8
0
100
AcDbCircle
 62
7
  6
CONTINUOUS
 10
3.917168675
 20
3.2336457302
 40
0.0147637795
100
AcDbArc
 50
314.9975411859
 51
360.0
  0
ARC
  5
3DD
100
AcDbEntity
  8
0
100
AcDbCircle
 62
7
  6
CONTINUOUS
 10
3.9110533173
 20
3.2275303724
 40
0.0147637795
100
AcDbArc
 50
269.9989932622
 51
314.99885671
  0
ARC
  5
3DE
100
AcDbEntity
  8
0
100
AcDbCircle
 62
7
  6
CONTINUOUS
 10
4.1095603145
 20
3.2336457302
 40
0.0147637795
100
AcDbArc
 50
314.9975411861
 51
360.0
  0
ARC
  5
3DF
100
AcDbEntity
  8
0
100
AcDbCircle
 62
7
  6
CONTINUOUS
 10
4.0150721256
 20
3.2336457302
 40
0.0147637795
100
AcDbArc
 50
180.0
 51
225.0024588139
  0
ARC
  5
3E0
100
AcDbEntity
  8
0
100
AcDbCircle
 62
7
  6
CONTINUOUS
 10
4.0211874833
 20
3.2275303724
 40
0.0147637795
100
AcDbArc
 50
225.0011432895
 51
270.0010067371
  0
ARC
  5
3E1
100
AcDbEntity
  8
0
100
AcDbCircle
 62
7
  6
CONTINUOUS
 10
4.1034449568
 20
3.2275303724
 40
0.0147637795
100
AcDbArc
 50
269.9989932615
 51
314.9988567094
  0
ARC
  5
3E2
100
AcDbEntity
  8
0
100
AcDbCircle
 62
7
  6
CONTINUOUS
 10
3.8392506651
 20
3.202485354
 40
0.0147637795
100
AcDbArc
 50
180.0
 51
225.0012047959
  0
ARC
  5
3E3
100
AcDbEntity
  8
0
100
AcDbCircle
 62
7
  6
CONTINUOUS
 10
3.909906961
 20
3.1963699962
 40
0.0147637795
100
AcDbArc
 50
269.9989177866
 51
282.5062037106
  0
ARC
  5
3E4
100
AcDbEntity
  8
0
100
AcDbCircle
 62
7
  6
CONTINUOUS
 10
3.8453660228
 20
3.1963699962
 40
0.0147637795
100
AcDbArc
 50
225.0013272051
 51
270.0010822134
  0
ARC
  5
3E5
100
AcDbEntity
  8
0
100
AcDbCircle
 62
7
  6
CONTINUOUS
 10
4.0471882707
 20
3.202485354
 40
0.0147637795
100
AcDbArc
 50
180.0
 51
225.0012047948
  0
ARC
  5
3E6
100
AcDbEntity
  8
0
100
AcDbCircle
 62
7
  6
CONTINUOUS
 10
4.1239599242
 20
3.202485354
 40
0.0147637795
100
AcDbArc
 50
314.9987952044
 51
360.0
  0
ARC
  5
3E7
100
AcDbEntity
  8
0
100
AcDbCircle
 62
7
  6
CONTINUOUS
 10
4.1178445665
 20
3.1963699962
 40
0.0147637795
100
AcDbArc
 50
269.9989177866
 51
314.998672795
  0
ARC
  5
3E8
100
AcDbEntity
  8
0
100
AcDbCircle
 62
7
  6
CONTINUOUS
 10
4.0533036284
 20
3.1963699962
 40
0.0147637795
100
AcDbArc
 50
225.0013272057
 51
270.0010822143
  0
ARC
  5
3E9
100
AcDbEntity
  8
0
100
AcDbCircle
 62
7
  6
CONTINUOUS
 10
3.9808306059
 20
3.1963699962
 40
0.0147637795
100
AcDbArc
 50
269.9989177863
 51
314.9986727948
  0
ARC
  5
3EA
100
AcDbEntity
  8
0
100
AcDbCircle
 62
7
  6
CONTINUOUS
 10
3.9869459636
 20
3.202485354
 40
0.0147637795
100
AcDbArc
 50
314.9987952051
 51
360.0
  0
ARC
  5
3EB
100
AcDbEntity
  8
0
100
AcDbCircle
 62
7
  6
CONTINUOUS
 10
3.91017431
 20
3.202485354
 40
0.0147637795
100
AcDbArc
 50
180.0
 51
225.0012047956
  0
ARC
  5
3EC
100
AcDbEntity
  8
0
100
AcDbCircle
 62
7
  6
CONTINUOUS
 10
3.9162896677
 20
3.1963699962
 40
0.0147637795
100
AcDbArc
 50
225.0013272052
 51
270.0010822137
  0
ARC
  5
3ED
100
AcDbEntity
  8
0
100
AcDbCircle
 62
7
  6
CONTINUOUS
 10
4.1806464053
 20
3.1325841415
 40
0.008805202
100
AcDbArc
 50
359.9501461972
 51
8.8492754016
  0
ARC
  5
3EE
100
AcDbEntity
  8
0
100
AcDbCircle
 62
7
  6
CONTINUOUS
 10
3.9727772789
 20
3.1836205845
 40
0.0059055118
100
AcDbArc
 50
199.9760716118
 51
259.854080614
  0
ARC
  5
3EF
100
AcDbEntity
  8
0
100
AcDbCircle
 62
7
  6
CONTINUOUS
 10
4.4952334415
 20
2.9617997527
 40
0.2765492246
100
AcDbArc
 50
86.3570763171
 51
88.7576514794
  0
ARC
  5
3F0
100
AcDbEntity
  8
0
100
AcDbCircle
 62
7
  6
CONTINUOUS
 10
4.4962293913
 20
3.0004920254
 40
0.2378445054
100
AcDbArc
 50
88.7954273801
 51
89.9789517506
  0
ARC
  5
3F1
100
AcDbEntity
  8
0
100
AcDbCircle
 62
7
  6
CONTINUOUS
 10
4.4962944442
 20
3.029222098
 40
0.209114418
100
AcDbArc
 50
89.993883932
 51
91.3628694082
  0
ARC
  5
3F2
100
AcDbEntity
  8
0
100
AcDbCircle
 62
7
  6
CONTINUOUS
 10
4.5064459108
 20
3.0337363756
 40
0.2037713833
100
AcDbArc
 50
79.6492583194
 51
80.3845294798
  0
ARC
  5
3F3
100
AcDbEntity
  8
0
100
AcDbCircle
 62
7
  6
CONTINUOUS
 10
4.246863693
 20
3.0533027723
 40
0.1850337826
100
AcDbArc
 50
88.6914476937
 51
89.9622302409
  0
ARC
  5
3F4
100
AcDbEntity
  8
0
100
AcDbCircle
 62
7
  6
CONTINUOUS
 10
4.3728481279
 20
3.0882597104
 40
0.0295275591
100
AcDbArc
 50
19.9999167392
 51
28.9073832586
  0
ARC
  5
3F5
100
AcDbEntity
  8
0
100
AcDbCircle
 62
7
  6
CONTINUOUS
 10
4.5327798273
 20
3.0154067953
 40
0.0147637795
100
AcDbArc
 50
44.9975682479
 51
89.9960710504
  0
ARC
  5
3F6
100
AcDbEntity
  8
0
100
AcDbCircle
 62
7
  6
CONTINUOUS
 10
4.490461787
 20
3.0301705749
 40
0.0147637795
100
AcDbArc
 50
225.0025651319
 51
270.0015873101
  0
ARC
  5
3F7
100
AcDbEntity
  8
0
100
AcDbCircle
 62
7
  6
CONTINUOUS
 10
4.4634672921
 20
3.0154067953
 40
0.0147637795
100
AcDbArc
 50
44.9984858796
 51
86.4160194497
  0
ARC
  5
3F8
100
AcDbEntity
  8
0
100
AcDbCircle
 62
7
  6
CONTINUOUS
 10
4.4357511259
 20
3.0449343544
 40
0.0147637795
100
AcDbArc
 50
200.0000948195
 51
270.0002417934
  0
ARC
  5
3F9
100
AcDbEntity
  8
0
100
AcDbCircle
 62
7
  6
CONTINUOUS
 10
4.3602899807
 20
3.2336457302
 40
0.0147637795
100
AcDbArc
 50
314.9975417674
 51
360.0
  0
ARC
  5
3FA
100
AcDbEntity
  8
0
100
AcDbCircle
 62
7
  6
CONTINUOUS
 10
4.2658017918
 20
3.2336457302
 40
0.0147637795
100
AcDbArc
 50
180.0
 51
225.0024582326
  0
ARC
  5
3FB
100
AcDbEntity
  8
0
100
AcDbCircle
 62
7
  6
CONTINUOUS
 10
4.2719171495
 20
3.2275303724
 40
0.0147637795
100
AcDbArc
 50
225.0011432897
 51
270.0010067374
  0
ARC
  5
3FC
100
AcDbEntity
  8
0
100
AcDbCircle
 62
7
  6
CONTINUOUS
 10
4.354174623
 20
3.2275303724
 40
0.0147637795
100
AcDbArc
 50
269.9989932627
 51
314.9988567103
  0
ARC
  5
3FD
100
AcDbEntity
  8
0
100
AcDbCircle
 62
7
  6
CONTINUOUS
 10
4.4782704132
 20
3.202485354
 40
0.0147637795
100
AcDbArc
 50
180.0
 51
225.0012049649
  0
ARC
  5
3FE
100
AcDbEntity
  8
0
100
AcDbCircle
 62
7
  6
CONTINUOUS
 10
4.548926709
 20
3.1963699962
 40
0.0147637795
100
AcDbArc
 50
269.9989177854
 51
314.9986727936
  0
ARC
  5
3FF
100
AcDbEntity
  8
0
100
AcDbCircle
 62
7
  6
CONTINUOUS
 10
4.4843857709
 20
3.1963699962
 40
0.0147637795
100
AcDbArc
 50
225.0013272064
 51
270.0010822146
  0
ARC
  5
400
100
AcDbEntity
  8
0
100
AcDbCircle
 62
7
  6
CONTINUOUS
 10
4.3116115679
 20
3.1963699962
 40
0.0147637795
100
AcDbArc
 50
269.998917781
 51
314.9986727884
  0
ARC
  5
401
100
AcDbEntity
  8
0
100
AcDbCircle
 62
7
  6
CONTINUOUS
 10
4.3177269256
 20
3.202485354
 40
0.0147637795
100
AcDbArc
 50
314.9987952044
 51
360.0
  0
ARC
  5
402
100
AcDbEntity
  8
0
100
AcDbCircle
 62
7
  6
CONTINUOUS
 10
4.240955272
 20
3.202485354
 40
0.0147637795
100
AcDbArc
 50
180.0
 51
225.0012047956
  0
ARC
  5
403
100
AcDbEntity
  8
0
100
AcDbCircle
 62
7
  6
CONTINUOUS
 10
4.2470706297
 20
3.1963699962
 40
0.0147637795
100
AcDbArc
 50
225.0013272117
 51
270.001082219
  0
ARC
  5
404
100
AcDbEntity
  8
0
100
AcDbCircle
 62
7
  6
CONTINUOUS
 10
4.1980622476
 20
3.112711681
 40
0.0088582677
100
AcDbArc
 50
180.0
 51
225.0002999883
  0
ARC
  5
405
100
AcDbEntity
  8
0
100
AcDbCircle
 62
7
  6
CONTINUOUS
 10
4.207636974
 20
3.1031369546
 40
0.0088582677
100
AcDbArc
 50
225.0002531652
 51
270.0002596334
  0
ARC
  5
406
100
AcDbEntity
  8
0
100
AcDbCircle
 62
7
  6
CONTINUOUS
 10
4.3128977062
 20
3.1031369546
 40
0.0088582677
100
AcDbArc
 50
269.9997403649
 51
284.4755220322
  0
ARC
  5
407
100
AcDbEntity
  8
0
100
AcDbCircle
 62
7
  6
CONTINUOUS
 10
4.2338897555
 20
3.112711681
 40
0.0088582677
100
AcDbArc
 50
180.0
 51
225.0002999893
  0
ARC
  5
408
100
AcDbEntity
  8
0
100
AcDbCircle
 62
7
  6
CONTINUOUS
 10
4.2434644819
 20
3.1031369546
 40
0.0088582677
100
AcDbArc
 50
225.0002531646
 51
270.0002596324
  0
ARC
  5
409
100
AcDbEntity
  8
0
100
AcDbCircle
 62
7
  6
CONTINUOUS
 10
4.3867573633
 20
3.1031369546
 40
0.0088582677
100
AcDbArc
 50
269.9997375967
 51
314.9997441388
  0
ARC
  5
40A
100
AcDbEntity
  8
0
100
AcDbCircle
 62
7
  6
CONTINUOUS
 10
4.3963320898
 20
3.112711681
 40
0.0088582677
100
AcDbArc
 50
314.9997004612
 51
360.0
  0
ARC
  5
40B
100
AcDbEntity
  8
0
100
AcDbCircle
 62
7
  6
CONTINUOUS
 10
4.3077494126
 20
3.112711681
 40
0.0088582677
100
AcDbArc
 50
180.0
 51
225.0002995371
  0
ARC
  5
40C
100
AcDbEntity
  8
0
100
AcDbCircle
 62
7
  6
CONTINUOUS
 10
4.317324139
 20
3.1031369546
 40
0.0088582677
100
AcDbArc
 50
225.0002558628
 51
270.0002624055
  0
ARC
  5
40D
100
AcDbEntity
  8
0
100
AcDbCircle
 62
7
  6
CONTINUOUS
 10
4.7742777766
 20
2.971344866
 40
0.26699214
100
AcDbArc
 50
87.5439871335
 51
89.7021225732
  0
ARC
  5
40E
100
AcDbEntity
  8
0
100
AcDbCircle
 62
7
  6
CONTINUOUS
 10
4.7744076346
 20
2.9843923199
 40
0.2539441949
100
AcDbArc
 50
89.7161165678
 51
89.9995857781
  0
ARC
  5
40F
100
AcDbEntity
  8
0
100
AcDbCircle
 62
7
  6
CONTINUOUS
 10
4.7744056819
 20
2.9882614296
 40
0.2500750852
100
AcDbArc
 50
89.9991319703
 51
91.2462497207
  0
ARC
  5
410
100
AcDbEntity
  8
0
100
AcDbCircle
 62
7
  6
CONTINUOUS
 10
4.7916985852
 20
3.0301705749
 40
0.0147637795
100
AcDbArc
 50
225.0025651318
 51
270.0027356756
  0
ARC
  5
411
100
AcDbEntity
  8
0
100
AcDbCircle
 62
7
  6
CONTINUOUS
 10
4.7647040902
 20
3.0154067953
 40
0.0147637795
100
AcDbArc
 50
44.9975750785
 51
89.9960818716
  0
ARC
  5
412
100
AcDbEntity
  8
0
100
AcDbCircle
 62
7
  6
CONTINUOUS
 10
4.7217562052
 20
3.0301705749
 40
0.0147637795
100
AcDbArc
 50
269.9972642495
 51
314.9974348102
  0
ARC
  5
413
100
AcDbEntity
  8
0
100
AcDbCircle
 62
7
  6
CONTINUOUS
 10
4.5597743222
 20
3.0301705749
 40
0.0147637795
100
AcDbArc
 50
225.0025651901
 51
270.002735751
  0
ARC
  5
414
100
AcDbEntity
  8
0
100
AcDbCircle
 62
7
  6
CONTINUOUS
 10
4.7487507002
 20
3.0154067953
 40
0.0147637795
100
AcDbArc
 50
90.00392895
 51
135.0024317524
  0
ARC
  5
415
100
AcDbEntity
  8
0
100
AcDbCircle
 62
7
  6
CONTINUOUS
 10
4.7863452057
 20
3.0301705749
 40
0.0147637795
100
AcDbArc
 50
269.997264249
 51
280.4683062659
  0
ARC
  5
416
100
AcDbEntity
  8
0
100
AcDbCircle
 62
7
  6
CONTINUOUS
 10
4.6522708612
 20
3.2336457302
 40
0.0147637795
100
AcDbArc
 50
314.9975411863
 51
360.0
  0
ARC
  5
417
100
AcDbEntity
  8
0
100
AcDbCircle
 62
7
  6
CONTINUOUS
 10
4.5577826722
 20
3.2336457302
 40
0.0147637795
100
AcDbArc
 50
180.0
 51
225.0024588147
  0
ARC
  5
418
100
AcDbEntity
  8
0
100
AcDbCircle
 62
7
  6
CONTINUOUS
 10
4.5638980299
 20
3.2275303724
 40
0.0147637795
100
AcDbArc
 50
225.0011432896
 51
270.0010067372
  0
ARC
  5
419
100
AcDbEntity
  8
0
100
AcDbCircle
 62
7
  6
CONTINUOUS
 10
4.6461555035
 20
3.2275303724
 40
0.0147637795
100
AcDbArc
 50
269.9989932615
 51
314.9988567094
  0
ARC
  5
41A
100
AcDbEntity
  8
0
100
AcDbCircle
 62
7
  6
CONTINUOUS
 10
4.8711167524
 20
3.2336457302
 40
0.0147637795
100
AcDbArc
 50
180.0
 51
225.0024588143
  0
ARC
  5
41B
100
AcDbEntity
  8
0
100
AcDbCircle
 62
7
  6
CONTINUOUS
 10
4.8772321101
 20
3.2275303724
 40
0.0147637795
100
AcDbArc
 50
225.0011432902
 51
270.001006738
  0
ARC
  5
41C
100
AcDbEntity
  8
0
100
AcDbCircle
 62
7
  6
CONTINUOUS
 10
4.5550420667
 20
3.202485354
 40
0.0147637795
100
AcDbArc
 50
314.9987950343
 51
360.0
  0
ARC
  5
41D
100
AcDbEntity
  8
0
100
AcDbCircle
 62
7
  6
CONTINUOUS
 10
4.8136173553
 20
3.1963699962
 40
0.0147637795
100
AcDbArc
 50
269.9989177867
 51
314.998672795
  0
ARC
  5
41E
100
AcDbEntity
  8
0
100
AcDbCircle
 62
7
  6
CONTINUOUS
 10
4.819732713
 20
3.202485354
 40
0.0147637795
100
AcDbArc
 50
314.9987952045
 51
360.0
  0
ARC
  5
41F
100
AcDbEntity
  8
0
100
AcDbCircle
 62
7
  6
CONTINUOUS
 10
4.7429610595
 20
3.202485354
 40
0.0147637795
100
AcDbArc
 50
180.0
 51
225.0012047948
  0
ARC
  5
420
100
AcDbEntity
  8
0
100
AcDbCircle
 62
7
  6
CONTINUOUS
 10
4.7490764172
 20
3.1963699962
 40
0.0147637795
100
AcDbArc
 50
225.0013272052
 51
270.0010822136
  0
ARC
  5
421
100
AcDbEntity
  8
0
100
AcDbCircle
 62
7
  6
CONTINUOUS
 10
4.8060859889
 20
3.1031369546
 40
0.0088582677
100
AcDbArc
 50
269.9997403676
 51
314.9997468354
  0
ARC
  5
422
100
AcDbEntity
  8
0
100
AcDbCircle
 62
7
  6
CONTINUOUS
 10
4.8156607154
 20
3.112711681
 40
0.0088582677
100
AcDbArc
 50
314.9997000112
 51
360.0
  0
ARC
  5
423
100
AcDbEntity
  8
0
100
AcDbCircle
 62
7
  6
CONTINUOUS
 10
4.7270780382
 20
3.112711681
 40
0.0088582677
100
AcDbArc
 50
180.0
 51
225.0002999888
  0
ARC
  5
424
100
AcDbEntity
  8
0
100
AcDbCircle
 62
7
  6
CONTINUOUS
 10
4.7366527646
 20
3.1031369546
 40
0.0088582677
100
AcDbArc
 50
225.0002531646
 51
270.0002596324
  0
ARC
  5
425
100
AcDbEntity
  8
0
100
AcDbCircle
 62
7
  6
CONTINUOUS
 10
4.8918471602
 20
3.112711681
 40
0.0088582677
100
AcDbArc
 50
180.0
 51
225.0002999894
  0
ARC
  5
426
100
AcDbEntity
  8
0
100
AcDbCircle
 62
7
  6
CONTINUOUS
 10
4.9014218866
 20
3.1031369546
 40
0.0088582677
100
AcDbArc
 50
225.0002531645
 51
270.0002596323
  0
ARC
  5
427
100
AcDbEntity
  8
0
100
AcDbCircle
 62
7
  6
CONTINUOUS
 10
4.8233881707
 20
3.1229816547
 40
0.0011311579
100
AcDbArc
 50
0.0186410397
 51
9.8185696981
  0
ARC
  5
428
100
AcDbEntity
  8
0
100
AcDbCircle
 62
7
  6
CONTINUOUS
 10
4.918350472
 20
8.4670236884
 40
5.3768295673
100
AcDbArc
 50
260.6769302766
 51
262.1368827704
  0
ARC
  5
429
100
AcDbEntity
  8
0
100
AcDbCircle
 62
7
  6
CONTINUOUS
 10
4.918350472
 20
8.4670501709
 40
5.3732862602
100
AcDbArc
 50
255.1944718959
 51
255.7102731772
  0
ARC
  5
42A
100
AcDbEntity
  8
0
100
AcDbCircle
 62
7
  6
CONTINUOUS
 10
4.918350472
 20
8.4670501709
 40
5.3732862602
100
AcDbArc
 50
259.8532230909
 51
260.5748796072
  0
ARC
  5
42B
100
AcDbEntity
  8
0
100
AcDbCircle
 62
7
  6
CONTINUOUS
 10
4.6303608469
 20
4.5535221654
 40
0.075
100
AcDbArc
 50
134.0731757115
 51
180.0
  0
ARC
  5
42C
100
AcDbEntity
  8
0
100
AcDbCircle
 62
7
  6
CONTINUOUS
 10
4.5605716128
 20
4.4335221654
 40
0.06
100
AcDbArc
 50
90.0
 51
134.7682446274
  0
ARC
  5
42D
100
AcDbEntity
  8
0
100
AcDbCircle
 62
7
  6
CONTINUOUS
 10
3.4783608469
 20
3.9670221654
 40
0.06
100
AcDbArc
 50
90.0
 51
180.0
  0
ARC
  5
42E
100
AcDbEntity
  8
0
100
AcDbCircle
 62
7
  6
CONTINUOUS
 10
4.0408608469
 20
4.0870221654
 40
0.06
100
AcDbArc
 50
270.0
 51
314.7682446275
  0
ARC
  5
42F
100
AcDbEntity
  8
0
100
AcDbCircle
 62
7
  6
CONTINUOUS
 10
4.6003608469
 20
4.5385221654
 40
0.045
100
AcDbArc
 50
180.0
 51
270.0
  0
ARC
  5
430
100
AcDbEntity
  8
0
100
AcDbCircle
 62
7
  6
CONTINUOUS
 10
4.5468916652
 20
4.6397364085
 40
0.045
100
AcDbArc
 50
314.0731756978
 51
341.9999999919
  0
ARC
  5
431
100
AcDbEntity
  8
0
100
AcDbCircle
 62
7
  6
CONTINUOUS
 10
4.5921108469
 20
4.7591551507
 40
0.045
100
AcDbArc
 50
311.8103107519
 51
360.0
  0
ARC
  5
432
100
AcDbEntity
  8
0
100
AcDbCircle
 62
7
  6
CONTINUOUS
 10
5.0624963001
 20
2.9700349052
 40
0.2683030677
100
AcDbArc
 50
91.2179091128
 51
92.4003257805
  0
ARC
  5
433
100
AcDbEntity
  8
0
100
AcDbCircle
 62
7
  6
CONTINUOUS
 10
5.0623275841
 20
2.9794474524
 40
0.2588890628
100
AcDbArc
 50
90.0033995784
 51
91.2248550895
  0
ARC
  5
434
100
AcDbEntity
  8
0
100
AcDbCircle
 62
7
  6
CONTINUOUS
 10
5.0623291837
 20
2.9893935952
 40
0.2489429201
100
AcDbArc
 50
88.7233993511
 51
90.003903568
  0
ARC
  5
435
100
AcDbEntity
  8
0
100
AcDbCircle
 62
7
  6
CONTINUOUS
 10
5.0450231086
 20
3.0301705749
 40
0.0147637795
100
AcDbArc
 50
269.9972643244
 51
280.4683062719
  0
ARC
  5
436
100
AcDbEntity
  8
0
100
AcDbCircle
 62
7
  6
CONTINUOUS
 10
5.2123583711
 20
3.0301705749
 40
0.0147637795
100
AcDbArc
 50
269.9972642495
 51
314.9974348102
  0
ARC
  5
437
100
AcDbEntity
  8
0
100
AcDbCircle
 62
7
  6
CONTINUOUS
 10
5.0503764881
 20
3.0301705749
 40
0.0147637795
100
AcDbArc
 50
225.0025651901
 51
270.002735751
  0
ARC
  5
438
100
AcDbEntity
  8
0
100
AcDbCircle
 62
7
  6
CONTINUOUS
 10
5.239352866
 20
3.0154067953
 40
0.0147637795
100
AcDbArc
 50
90.00392895
 51
135.0024317524
  0
ARC
  5
439
100
AcDbEntity
  8
0
100
AcDbCircle
 62
7
  6
CONTINUOUS
 10
5.0233819931
 20
3.0154067953
 40
0.0147637795
100
AcDbArc
 50
44.9975682479
 51
89.9960710504
  0
ARC
  5
43A
100
AcDbEntity
  8
0
100
AcDbCircle
 62
7
  6
CONTINUOUS
 10
4.9536804682
 20
3.0301705749
 40
0.0147637795
100
AcDbArc
 50
269.9972643243
 51
314.9974348682
  0
ARC
  5
43B
100
AcDbEntity
  8
0
100
AcDbCircle
 62
7
  6
CONTINUOUS
 10
4.9806749631
 20
3.0154067953
 40
0.0147637795
100
AcDbArc
 50
90.0039181287
 51
135.0024249216
  0
ARC
  5
43C
100
AcDbEntity
  8
0
100
AcDbCircle
 62
7
  6
CONTINUOUS
 10
4.9708551109
 20
3.1031369546
 40
0.0088582677
100
AcDbArc
 50
269.9997403658
 51
314.9997468342
  0
ARC
  5
43D
100
AcDbEntity
  8
0
100
AcDbCircle
 62
7
  6
CONTINUOUS
 10
5.1345680884
 20
3.1031369546
 40
0.0088582677
100
AcDbArc
 50
269.9997403685
 51
314.9997468361
  0
ARC
  5
43E
100
AcDbEntity
  8
0
100
AcDbCircle
 62
7
  6
CONTINUOUS
 10
5.0651348641
 20
3.1031369546
 40
0.0088582677
100
AcDbArc
 50
225.0002531657
 51
270.0002596341
  0
ARC
  5
43F
100
AcDbEntity
  8
0
100
AcDbCircle
 62
7
  6
CONTINUOUS
 10
4.9773607741
 20
3.1851744921
 40
0.0568154349
100
AcDbArc
 50
282.7742983728
 51
284.3452766619
  0
ARC
  5
440
100
AcDbEntity
  8
0
100
AcDbCircle
 62
7
  6
CONTINUOUS
 10
5.1403454403
 20
3.1842948504
 40
0.0543254291
100
AcDbArc
 50
284.7777965652
 51
285.7042445826
  0
ARC
  5
441
100
AcDbEntity
  8
0
100
AcDbCircle
 62
7
  6
CONTINUOUS
 10
4.9868303732
 20
3.1148674173
 40
0.0227429592
100
AcDbArc
 50
70.4226720735
 51
71.3646417542
  0
ARC
  5
442
100
AcDbEntity
  8
0
100
AcDbCircle
 62
7
  6
CONTINUOUS
 10
4.9656049414
 20
3.2336457302
 40
0.0147637795
100
AcDbArc
 50
314.9975411864
 51
360.0
  0
ARC
  5
443
100
AcDbEntity
  8
0
100
AcDbCircle
 62
7
  6
CONTINUOUS
 10
4.9594895836
 20
3.2275303724
 40
0.0147637795
100
AcDbArc
 50
269.998993262
 51
314.9988567098
  0
ARC
  5
444
100
AcDbEntity
  8
0
100
AcDbCircle
 62
7
  6
CONTINUOUS
 10
5.2789390216
 20
3.2336457302
 40
0.0147637795
100
AcDbArc
 50
314.9975411859
 51
360.0
  0
ARC
  5
445
100
AcDbEntity
  8
0
100
AcDbCircle
 62
7
  6
CONTINUOUS
 10
5.1844508326
 20
3.2336457302
 40
0.0147637795
100
AcDbArc
 50
180.0
 51
225.0024588136
  0
ARC
  5
446
100
AcDbEntity
  8
0
100
AcDbCircle
 62
7
  6
CONTINUOUS
 10
5.1905661903
 20
3.2275303724
 40
0.0147637795
100
AcDbArc
 50
225.0011432902
 51
270.001006738
  0
ARC
  5
447
100
AcDbEntity
  8
0
100
AcDbCircle
 62
7
  6
CONTINUOUS
 10
5.2728236638
 20
3.2275303724
 40
0.0147637795
100
AcDbArc
 50
269.998993262
 51
314.9988567098
  0
ARC
  5
448
100
AcDbEntity
  8
0
100
AcDbCircle
 62
7
  6
CONTINUOUS
 10
5.0169889807
 20
3.202485354
 40
0.0147637795
100
AcDbArc
 50
180.0
 51
225.0012047959
  0
ARC
  5
449
100
AcDbEntity
  8
0
100
AcDbCircle
 62
7
  6
CONTINUOUS
 10
5.0937606343
 20
3.202485354
 40
0.0147637795
100
AcDbArc
 50
314.9987952046
 51
360.0
  0
ARC
  5
44A
100
AcDbEntity
  8
0
100
AcDbCircle
 62
7
  6
CONTINUOUS
 10
5.0876452766
 20
3.1963699962
 40
0.0147637795
100
AcDbArc
 50
269.9989177866
 51
314.9986727949
  0
ARC
  5
44B
100
AcDbEntity
  8
0
100
AcDbCircle
 62
7
  6
CONTINUOUS
 10
5.0231043384
 20
3.1963699962
 40
0.0147637795
100
AcDbArc
 50
225.0013272051
 51
270.0010822134
  0
ARC
  5
44C
100
AcDbEntity
  8
0
100
AcDbCircle
 62
7
  6
CONTINUOUS
 10
5.281679627
 20
3.202485354
 40
0.0147637795
100
AcDbArc
 50
180.0
 51
225.0012047956
  0
ARC
  5
44D
100
AcDbEntity
  8
0
100
AcDbCircle
 62
7
  6
CONTINUOUS
 10
5.2877949847
 20
3.1963699962
 40
0.0147637795
100
AcDbArc
 50
225.0013272053
 51
270.0010822137
  0
ARC
  5
44E
100
AcDbEntity
  8
0
100
AcDbCircle
 62
7
  6
CONTINUOUS
 10
4.9804298374
 20
3.112711681
 40
0.0088582677
100
AcDbArc
 50
314.9997000116
 51
360.0
  0
ARC
  5
44F
100
AcDbEntity
  8
0
100
AcDbCircle
 62
7
  6
CONTINUOUS
 10
5.1441428149
 20
3.112711681
 40
0.0088582677
100
AcDbArc
 50
314.9997000106
 51
360.0
  0
ARC
  5
450
100
AcDbEntity
  8
0
100
AcDbCircle
 62
7
  6
CONTINUOUS
 10
5.0555601377
 20
3.112711681
 40
0.0088582677
100
AcDbArc
 50
180.0
 51
225.0002999876
  0
ARC
  5
451
100
AcDbEntity
  8
0
100
AcDbCircle
 62
7
  6
CONTINUOUS
 10
5.3410285113
 20
2.9754540607
 40
0.2628882208
100
AcDbArc
 50
91.2733704291
 51
92.4470176736
  0
ARC
  5
452
100
AcDbEntity
  8
0
100
AcDbCircle
 62
7
  6
CONTINUOUS
 10
5.3404387491
 20
3.005140517
 40
0.2331960002
100
AcDbArc
 50
90.0083098766
 51
91.2905928536
  0
ARC
  5
453
100
AcDbEntity
  8
0
100
AcDbCircle
 62
7
  6
CONTINUOUS
 10
5.3315032009
 20
3.0268155719
 40
0.2108001035
100
AcDbArc
 50
99.3092369914
 51
100.3375346163
  0
ARC
  5
454
100
AcDbEntity
  8
0
100
AcDbCircle
 62
7
  6
CONTINUOUS
 10
5.340479131
 20
3.0335754045
 40
0.2047611237
100
AcDbArc
 50
88.5922408626
 51
90.0207634513
  0
ARC
  5
455
100
AcDbEntity
  8
0
100
AcDbCircle
 62
7
  6
CONTINUOUS
 10
5.5897760098
 20
3.0605117167
 40
0.1778248026
100
AcDbArc
 50
90.0128831749
 51
91.3142004854
  0
ARC
  5
456
100
AcDbEntity
  8
0
100
AcDbCircle
 62
7
  6
CONTINUOUS
 10
5.5559334934
 20
2.9912098519
 40
0.150137804
100
AcDbArc
 50
90.0126931918
 51
91.3151988085
  0
ARC
  5
457
100
AcDbEntity
  8
0
100
AcDbCircle
 62
7
  6
CONTINUOUS
 10
5.5898604089
 20
3.0974533297
 40
0.14088324
100
AcDbArc
 50
88.3022527356
 51
90.0505855851
  0
ARC
  5
458
100
AcDbEntity
  8
0
100
AcDbCircle
 62
7
  6
CONTINUOUS
 10
5.5557067495
 20
3.0225725371
 40
0.1187752727
100
AcDbArc
 50
89.4387340827
 51
89.906666253
  0
ARC
  5
459
100
AcDbEntity
  8
0
100
AcDbCircle
 62
7
  6
CONTINUOUS
 10
5.5560954748
 20
3.0534079135
 40
0.0879376107
100
AcDbArc
 50
88.2484158937
 51
89.4951909374
  0
ARC
  5
45A
100
AcDbEntity
  8
0
100
AcDbCircle
 62
7
  6
CONTINUOUS
 10
5.4638735659
 20
3.0882597104
 40
0.0295275591
100
AcDbArc
 50
117.2087954148
 51
160.0000832608
  0
ARC
  5
45B
100
AcDbEntity
  8
0
100
AcDbCircle
 62
7
  6
CONTINUOUS
 10
5.3462599067
 20
3.0301705749
 40
0.0147637795
100
AcDbArc
 50
269.9984126899
 51
314.9974348681
  0
ARC
  5
45C
100
AcDbEntity
  8
0
100
AcDbCircle
 62
7
  6
CONTINUOUS
 10
5.3732544016
 20
3.0154067953
 40
0.0147637795
100
AcDbArc
 50
93.5839805503
 51
135.0015141204
  0
ARC
  5
45D
100
AcDbEntity
  8
0
100
AcDbCircle
 62
7
  6
CONTINUOUS
 10
5.4009705679
 20
3.0449343544
 40
0.0147637795
100
AcDbArc
 50
269.9997582066
 51
339.9999051805
  0
ARC
  5
45E
100
AcDbEntity
  8
0
100
AcDbCircle
 62
7
  6
CONTINUOUS
 10
5.4617186473
 20
3.1031369546
 40
0.0088582677
100
AcDbArc
 50
269.9997435846
 51
293.6088848516
  0
ARC
  5
45F
100
AcDbEntity
  8
0
100
AcDbCircle
 62
7
  6
CONTINUOUS
 10
5.5382389951
 20
3.1031369546
 40
0.0088582677
100
AcDbArc
 50
269.9997248139
 51
314.9997468357
  0
ARC
  5
460
100
AcDbEntity
  8
0
100
AcDbCircle
 62
7
  6
CONTINUOUS
 10
5.4688057709
 20
3.1031369546
 40
0.0088582677
100
AcDbArc
 50
225.0002531656
 51
270.0002751881
  0
ARC
  5
461
100
AcDbEntity
  8
0
100
AcDbCircle
 62
7
  6
CONTINUOUS
 10
5.6042444049
 20
3.1031369546
 40
0.0088582677
100
AcDbArc
 50
269.9997678089
 51
314.9997468348
  0
ARC
  5
462
100
AcDbEntity
  8
0
100
AcDbCircle
 62
7
  6
CONTINUOUS
 10
5.6315649323
 20
3.1031369546
 40
0.0088582677
100
AcDbArc
 50
269.9999536688
 51
314.9997468346
  0
ARC
  5
463
100
AcDbEntity
  8
0
100
AcDbCircle
 62
7
  6
CONTINUOUS
 10
5.4756238023
 20
3.2447491199
 40
0.0184342861
100
AcDbArc
 50
125.0754381087
 51
126.5033507928
  0
ARC
  5
464
100
AcDbEntity
  8
0
100
AcDbCircle
 62
7
  6
CONTINUOUS
 10
5.570919902
 20
3.2336457302
 40
0.0147637795
100
AcDbArc
 50
314.9975411858
 51
360.0
  0
ARC
  5
465
100
AcDbEntity
  8
0
100
AcDbCircle
 62
7
  6
CONTINUOUS
 10
5.476431713
 20
3.2336457302
 40
0.0147637795
100
AcDbArc
 50
180.0
 51
225.0024588142
  0
ARC
  5
466
100
AcDbEntity
  8
0
100
AcDbCircle
 62
7
  6
CONTINUOUS
 10
5.4825470707
 20
3.2275303724
 40
0.0147637795
100
AcDbArc
 50
225.00114329
 51
270.0010067377
  0
ARC
  5
467
100
AcDbEntity
  8
0
100
AcDbCircle
 62
7
  6
CONTINUOUS
 10
5.5648045443
 20
3.2275303724
 40
0.0147637795
100
AcDbArc
 50
269.9989932623
 51
314.99885671
  0
ARC
  5
468
100
AcDbEntity
  8
0
100
AcDbCircle
 62
7
  6
CONTINUOUS
 10
5.5189947682
 20
3.202485354
 40
0.0147637795
100
AcDbArc
 50
180.0
 51
225.0012047948
  0
ARC
  5
469
100
AcDbEntity
  8
0
100
AcDbCircle
 62
7
  6
CONTINUOUS
 10
5.5957664217
 20
3.202485354
 40
0.0147637795
100
AcDbArc
 50
314.9987952044
 51
360.0
  0
ARC
  5
46A
100
AcDbEntity
  8
0
100
AcDbCircle
 62
7
  6
CONTINUOUS
 10
5.589651064
 20
3.1963699962
 40
0.0147637795
100
AcDbArc
 50
269.9989177867
 51
314.998672795
  0
ARC
  5
46B
100
AcDbEntity
  8
0
100
AcDbCircle
 62
7
  6
CONTINUOUS
 10
5.5251101259
 20
3.1963699962
 40
0.0147637795
100
AcDbArc
 50
225.0013272057
 51
270.0010822143
  0
ARC
  5
46C
100
AcDbEntity
  8
0
100
AcDbCircle
 62
7
  6
CONTINUOUS
 10
5.3523359228
 20
3.1963699962
 40
0.0147637795
100
AcDbArc
 50
269.9989177863
 51
314.9986727947
  0
ARC
  5
46D
100
AcDbEntity
  8
0
100
AcDbCircle
 62
7
  6
CONTINUOUS
 10
5.3584512805
 20
3.202485354
 40
0.0147637795
100
AcDbArc
 50
314.9987952051
 51
360.0
  0
ARC
  5
46E
100
AcDbEntity
  8
0
100
AcDbCircle
 62
7
  6
CONTINUOUS
 10
5.5478137216
 20
3.112711681
 40
0.0088582677
100
AcDbArc
 50
314.9997000108
 51
360.0
  0
ARC
  5
46F
100
AcDbEntity
  8
0
100
AcDbCircle
 62
7
  6
CONTINUOUS
 10
5.4592310444
 20
3.112711681
 40
0.0088582677
100
AcDbArc
 50
180.0
 51
225.0002999879
  0
ARC
  5
470
100
AcDbEntity
  8
0
100
AcDbCircle
 62
7
  6
CONTINUOUS
 10
5.6138191314
 20
3.112711681
 40
0.0088582677
100
AcDbArc
 50
314.9997000109
 51
360.0
  0
ARC
  5
471
100
AcDbEntity
  8
0
100
AcDbCircle
 62
7
  6
CONTINUOUS
 10
5.6411396588
 20
3.112711681
 40
0.0088582677
100
AcDbArc
 50
314.9997000108
 51
360.0
  0
ARC
  5
472
100
AcDbEntity
  8
0
100
AcDbCircle
 62
7
  6
CONTINUOUS
 10
6.1657838346
 20
-1.199911659
 40
4.3709874627
100
AcDbArc
 50
96.8318168961
 51
97.1149799288
  0
ARC
  5
473
100
AcDbEntity
  8
0
100
AcDbCircle
 62
7
  6
CONTINUOUS
 10
5.7766171274
 20
1.4272755265
 40
1.7210662973
100
AcDbArc
 50
97.1055539206
 51
97.3266792878
  0
ARC
  5
474
100
AcDbEntity
  8
0
100
AcDbCircle
 62
7
  6
CONTINUOUS
 10
5.739725127
 20
1.9262672032
 40
1.2126605698
100
AcDbArc
 50
98.5502013908
 51
98.6829402512
  0
ARC
  5
475
100
AcDbEntity
  8
0
100
AcDbCircle
 62
7
  6
CONTINUOUS
 10
6.0041096388
 20
2.6138279421
 40
0.628693165
100
AcDbArc
 50
99.0882027458
 51
99.4546351358
  0
ARC
  5
476
100
AcDbEntity
  8
0
100
AcDbCircle
 62
7
  6
CONTINUOUS
 10
5.757501551
 20
3.0699262455
 40
0.1624131516
100
AcDbArc
 50
105.3833711864
 51
106.8089005308
  0
ARC
  5
477
100
AcDbEntity
  8
0
100
AcDbCircle
 62
7
  6
CONTINUOUS
 10
5.8216495682
 20
3.2336457302
 40
0.0147637795
100
AcDbArc
 50
314.9975411861
 51
360.0
  0
ARC
  5
478
100
AcDbEntity
  8
0
100
AcDbCircle
 62
7
  6
CONTINUOUS
 10
5.7271613792
 20
3.2336457302
 40
0.0147637795
100
AcDbArc
 50
180.0
 51
225.0024588139
  0
ARC
  5
479
100
AcDbEntity
  8
0
100
AcDbCircle
 62
7
  6
CONTINUOUS
 10
5.7332767369
 20
3.2275303724
 40
0.0147637795
100
AcDbArc
 50
225.0011432895
 51
270.0010067371
  0
ARC
  5
47A
100
AcDbEntity
  8
0
100
AcDbCircle
 62
7
  6
CONTINUOUS
 10
5.8155342105
 20
3.2275303724
 40
0.0147637795
100
AcDbArc
 50
269.9989932614
 51
314.9988567094
  0
ARC
  5
47B
100
AcDbEntity
  8
0
100
AcDbCircle
 62
7
  6
CONTINUOUS
 10
5.7834180654
 20
3.1963699962
 40
0.0147637795
100
AcDbArc
 50
269.9989099294
 51
314.9986727884
  0
ARC
  5
47C
100
AcDbEntity
  8
0
100
AcDbCircle
 62
7
  6
CONTINUOUS
 10
5.7895334231
 20
3.202485354
 40
0.0147637795
100
AcDbArc
 50
314.9987952044
 51
360.0
  0
ARC
  5
47D
100
AcDbEntity
  8
0
100
AcDbCircle
 62
7
  6
CONTINUOUS
 10
5.7127617695
 20
3.202485354
 40
0.0147637795
100
AcDbArc
 50
180.0
 51
225.0012047956
  0
ARC
  5
47E
100
AcDbEntity
  8
0
100
AcDbCircle
 62
7
  6
CONTINUOUS
 10
5.7188771272
 20
3.1963699962
 40
0.0147637795
100
AcDbArc
 50
225.0013272116
 51
270.0010900706
  0
ARC
  5
47F
100
AcDbEntity
  8
0
100
AcDbCircle
 62
7
  6
CONTINUOUS
 10
5.8497757302
 20
3.202485354
 40
0.0147637795
100
AcDbArc
 50
180.0
 51
225.0012049649
  0
ARC
  5
480
100
AcDbEntity
  8
0
100
AcDbCircle
 62
7
  6
CONTINUOUS
 10
5.9265473837
 20
3.202485354
 40
0.0147637795
100
AcDbArc
 50
314.9987950343
 51
360.0
  0
ARC
  5
481
100
AcDbEntity
  8
0
100
AcDbCircle
 62
7
  6
CONTINUOUS
 10
5.920432026
 20
3.1963699962
 40
0.0147637795
100
AcDbArc
 50
269.9988674531
 51
314.9986727936
  0
ARC
  5
482
100
AcDbEntity
  8
0
100
AcDbCircle
 62
7
  6
CONTINUOUS
 10
5.8558910879
 20
3.1963699962
 40
0.0147637795
100
AcDbArc
 50
225.0013272064
 51
270.0011325469
  0
ARC
  5
483
100
AcDbEntity
  8
0
100
AcDbCircle
 62
7
  6
CONTINUOUS
 10
5.9913556709
 20
3.1963699962
 40
0.0147637795
100
AcDbArc
 50
269.9994703128
 51
314.998672795
  0
ARC
  5
484
100
AcDbEntity
  8
0
100
AcDbCircle
 62
7
  6
CONTINUOUS
 10
5.9974710286
 20
3.202485354
 40
0.0147637795
100
AcDbArc
 50
314.9987952045
 51
360.0
  0
ARC
  5
485
100
AcDbEntity
  8
0
100
AcDbCircle
 62
7
  6
CONTINUOUS
 10
5.9268147328
 20
3.1963699962
 40
0.0147637795
100
AcDbArc
 50
257.4937962893
 51
270.0005296873
  0
ARC
  5
486
100
AcDbEntity
  8
0
100
AcDbCircle
 62
7
  6
CONTINUOUS
 10
5.9195530188
 20
3.2336457302
 40
0.0147637795
100
AcDbArc
 50
180.0
 51
225.0010232871
  0
ARC
  5
487
100
AcDbEntity
  8
0
100
AcDbCircle
 62
7
  6
CONTINUOUS
 10
5.9256683765
 20
3.2275303724
 40
0.0147637795
100
AcDbArc
 50
225.0010369649
 51
270.000965867
  0
ARC
  5
488
100
AcDbEntity
  8
0
100
AcDbCircle
 62
7
  6
CONTINUOUS
 10
6.00792585
 20
3.2275303724
 40
0.0147637795
100
AcDbArc
 50
269.999034133
 51
314.9989630351
  0
ARC
  5
489
100
AcDbEntity
  8
0
100
AcDbCircle
 62
7
  6
CONTINUOUS
 10
5.6587956754
 20
3.1325563784
 40
0.0088762594
100
AcDbArc
 50
97.8750032513
 51
104.9435334431
  0
ARC
  5
48A
100
AcDbEntity
  8
0
100
AcDbCircle
 62
7
  6
CONTINUOUS
 10
5.6587977373
 20
3.1325807429
 40
0.0088532738
100
AcDbArc
 50
104.9970864142
 51
171.1767976653
  0
ARC
  5
48B
100
AcDbEntity
  8
0
100
AcDbCircle
 62
7
  6
CONTINUOUS
 10
5.6587176286
 20
3.132584046
 40
0.0087736941
100
AcDbArc
 50
171.1178702275
 51
180.0494100616
  0
ARC
  5
48C
100
AcDbEntity
  8
0
100
AcDbCircle
 62
7
  6
CONTINUOUS
 10
5.8639444149
 20
3.1836205845
 40
0.0059055118
100
AcDbArc
 50
280.1465387618
 51
340.0239308105
  0
ARC
  5
48D
100
AcDbEntity
  8
0
100
AcDbCircle
 62
7
  6
CONTINUOUS
 10
6.2337757038
 20
2.5767506961
 40
0.7047168689
100
AcDbArc
 50
104.232946669
 51
105.2435696443
  0
ARC
  5
48E
100
AcDbEntity
  8
0
100
AcDbCircle
 62
7
  6
CONTINUOUS
 10
6.3583608469
 20
3.3339600394
 40
0.06
100
AcDbArc
 50
273.0
 51
360.0
  0
ARC
  5
48F
100
AcDbEntity
  8
0
100
AcDbCircle
 62
7
  6
CONTINUOUS
 10
6.1701195049
 20
3.2275303724
 40
0.0147637795
100
AcDbArc
 50
269.998993262
 51
314.9988567098
  0
ARC
  5
490
100
AcDbEntity
  8
0
100
AcDbCircle
 62
7
  6
CONTINUOUS
 10
6.1762348626
 20
3.2336457302
 40
0.0147637795
100
AcDbArc
 50
314.9975411863
 51
360.0
  0
ARC
  5
491
100
AcDbEntity
  8
0
100
AcDbCircle
 62
7
  6
CONTINUOUS
 10
6.1349836484
 20
3.2336457302
 40
0.0147637795
100
AcDbArc
 50
314.9975411863
 51
360.0
  0
ARC
  5
492
100
AcDbEntity
  8
0
100
AcDbCircle
 62
7
  6
CONTINUOUS
 10
6.0404954594
 20
3.2336457302
 40
0.0147637795
100
AcDbArc
 50
206.1249085247
 51
225.0024588147
  0
ARC
  5
493
100
AcDbEntity
  8
0
100
AcDbCircle
 62
7
  6
CONTINUOUS
 10
6.0466108171
 20
3.2275303724
 40
0.0147637795
100
AcDbArc
 50
225.0011432896
 51
270.0008463776
  0
ARC
  5
494
100
AcDbEntity
  8
0
100
AcDbCircle
 62
7
  6
CONTINUOUS
 10
6.1288682907
 20
3.2275303724
 40
0.0147637795
100
AcDbArc
 50
269.9991536212
 51
314.9988567095
  0
ARC
  5
495
100
AcDbEntity
  8
0
100
AcDbCircle
 62
7
  6
CONTINUOUS
 10
6.0140412078
 20
3.2336457302
 40
0.0147637795
100
AcDbArc
 50
314.9989767129
 51
360.0
  0
ARC
  5
496
100
AcDbEntity
  8
0
100
AcDbCircle
 62
7
  6
CONTINUOUS
 10
6.2431750239
 20
3.2657411044
 40
0.0059055118
100
AcDbArc
 50
270.0
 51
284.2899403573
  0
ARC
  5
497
100
AcDbEntity
  8
0
100
AcDbCircle
 62
7
  6
CONTINUOUS
 10
4.9183608469
 20
4.9323943254
 40
1.9192913386
100
AcDbArc
 50
264.5188586967
 51
265.9005806951
  0
ARC
  5
498
100
AcDbEntity
  8
0
100
AcDbCircle
 62
7
  6
CONTINUOUS
 10
4.9183608469
 20
4.9323943254
 40
1.9192913386
100
AcDbArc
 50
266.6527317001
 51
268.3189505182
  0
ARC
  5
499
100
AcDbEntity
  8
0
100
AcDbCircle
 62
7
  6
CONTINUOUS
 10
4.9183608469
 20
4.9323943254
 40
1.9192913386
100
AcDbArc
 50
268.6729177583
 51
273.6363791601
  0
ARC
  5
49A
100
AcDbEntity
  8
0
100
AcDbCircle
 62
7
  6
CONTINUOUS
 10
4.9183608469
 20
5.5693641865
 40
0.47625
100
AcDbArc
 50
306.2011498373
 51
233.7988501627
  0
ARC
  5
49B
100
AcDbEntity
  8
0
100
AcDbCircle
 62
7
  6
CONTINUOUS
 10
4.9183608469
 20
5.5693641865
 40
0.44625
100
AcDbArc
 50
309.0864020873
 51
230.9135979127
  0
ARC
  5
49C
100
AcDbEntity
  8
0
100
AcDbCircle
 62
7
  6
CONTINUOUS
 10
4.9183608469
 20
5.5693641865
 40
0.435463899
100
AcDbArc
 50
310.2516903305
 51
229.7483077966
  0
ARC
  5
49D
100
AcDbEntity
  8
0
100
AcDbCircle
 62
7
  6
CONTINUOUS
 10
4.9183608469
 20
5.5693641865
 40
0.4004923307
100
AcDbArc
 50
314.6194912598
 51
225.3805076964
  0
ARC
  5
49E
100
AcDbEntity
  8
0
100
AcDbCircle
 62
7
  6
CONTINUOUS
 10
4.9183608469
 20
5.5693641865
 40
0.2925323362
100
AcDbArc
 50
344.1545566313
 51
195.845444294
  0
ARC
  5
49F
100
AcDbEntity
  8
0
100
AcDbCircle
 62
7
  6
CONTINUOUS
 10
4.9183608469
 20
5.5693641865
 40
0.28125
100
AcDbArc
 50
0.0
 51
180.0
  0
ARC
  5
4A0
100
AcDbEntity
  8
0
100
AcDbCircle
 62
7
  6
CONTINUOUS
 10
5.2063608469
 20
4.5535221654
 40
0.075
100
AcDbArc
 50
0.0
 51
45.9268242885
  0
ARC
  5
4A1
100
AcDbEntity
  8
0
100
AcDbCircle
 62
7
  6
CONTINUOUS
 10
5.276150081
 20
4.4335221654
 40
0.06
100
AcDbArc
 50
45.2317553726
 51
90.0
  0
ARC
  5
4A2
100
AcDbEntity
  8
0
100
AcDbCircle
 62
7
  6
CONTINUOUS
 10
5.2446108469
 20
4.7591551507
 40
0.045
100
AcDbArc
 50
180.0
 51
228.1897285501
  0
ARC
  5
4A3
100
AcDbEntity
  8
0
100
AcDbCircle
 62
7
  6
CONTINUOUS
 10
5.2363608469
 20
4.5385221654
 40
0.045
100
AcDbArc
 50
270.0
 51
360.0
  0
ARC
  5
4A4
100
AcDbEntity
  8
0
100
AcDbCircle
 62
7
  6
CONTINUOUS
 10
5.2898300285
 20
4.6397364085
 40
0.045
100
AcDbArc
 50
198.0000000081
 51
225.9268243022
  0
ARC
  5
4A5
100
AcDbEntity
  8
0
100
AcDbCircle
 62
7
  6
CONTINUOUS
 10
4.9183712218
 20
8.4670236884
 40
5.3768295673
100
AcDbArc
 50
277.8953663702
 51
279.3230697234
  0
ARC
  5
4A6
100
AcDbEntity
  8
0
100
AcDbCircle
 62
7
  6
CONTINUOUS
 10
4.9183712218
 20
8.4670501709
 40
5.3732862602
100
AcDbArc
 50
284.2897268228
 51
284.8055281041
  0
ARC
  5
4A7
100
AcDbEntity
  8
0
100
AcDbCircle
 62
7
  6
CONTINUOUS
 10
4.9183712218
 20
8.4670501709
 40
5.3732862602
100
AcDbArc
 50
279.4251203928
 51
280.1467817724
  0
ARC
  5
4A8
100
AcDbEntity
  8
0
100
AcDbCircle
 62
7
  6
CONTINUOUS
 10
6.3583608469
 20
3.9670221654
 40
0.06
100
AcDbArc
 50
0.0
 51
90.0
  0
ARC
  5
4A9
100
AcDbEntity
  8
0
100
AcDbCircle
 62
7
  6
CONTINUOUS
 10
5.7958608469
 20
4.0870221654
 40
0.06
100
AcDbArc
 50
225.2317553725
 51
270.0
  0
SPLINE
  5
4AA
100
AcDbEntity
  8
0
100
AcDbSpline
 62
7
  6
CONTINUOUS
 70
0
 71
3
 72
11
 73
7
 74
0
 42
0.0000001
 43
0.0000001
 44
0.0000000001
 40
0.0
 40
0.0
 40
0.0
 40
0.0
 40
0.2639613348
 40
0.5280602934
 40
0.7779178201
 40
1.0
 40
1.0
 40
1.0
 40
1.0
 10
5.9008363209
 20
3.2339809212
 30
0.0
 10
5.896629387
 20
3.2332805328
 30
0.0
 10
5.8882267307
 20
3.2317980201
 30
0.0
 10
5.8758874802
 20
3.2294033254
 30
0.0
 10
5.8642549289
 20
3.2269288439
 30
0.0
 10
5.8568307122
 20
3.2251855608
 30
0.0
 10
5.8533508523
 20
3.2243105136
 30
0.0
  0
SPLINE
  5
4AB
100
AcDbEntity
  8
0
100
AcDbSpline
 62
7
  6
CONTINUOUS
 70
0
 71
3
 72
17
 73
13
 74
0
 42
0.0000001
 43
0.0000001
 44
0.0000000001
 40
0.0
 40
0.0
 40
0.0
 40
0.0
 40
0.1925985914
 40
0.3684393254
 40
0.5260472774
 40
0.6639801359
 40
0.7810920479
 40
0.876514544
 40
0.9158625317
 40
0.9495396938
 40
0.9775451278
 40
1.0
 40
1.0
 40
1.0
 40
1.0
 10
5.8533508523
 20
3.2243105136
 30
0.0
 10
5.8521683766
 20
3.2240131677
 30
0.0
 10
5.849909451
 20
3.2234317277
 30
0.0
 10
5.8466957259
 20
3.2225579975
 30
0.0
 10
5.843829157
 20
3.221727909
 30
0.0
 10
5.8413352908
 20
3.220948979
 30
0.0
 10
5.8392366727
 20
3.2202281057
 30
0.0
 10
5.8377491313
 20
3.2196512774
 30
0.0
 10
5.8367755919
 20
3.2192155139
 30
0.0
 10
5.8362036177
 20
3.2189285279
 30
0.0
 10
5.8357428705
 20
3.2186606659
 30
0.0
 10
5.8354814067
 20
3.2184754831
 30
0.0
 10
5.835372548
 20
3.2183840611
 30
0.0
  0
LINE
  5
4AC
100
AcDbEntity
  8
0
100
AcDbLine
 62
7
  6
CONTINUOUS
 10
5.835372548
 20
3.2183840611
 11
5.835016352
 21
3.2178975927
  0
SPLINE
  5
4AD
100
AcDbEntity
  8
0
100
AcDbSpline
 62
7
  6
CONTINUOUS
 70
0
 71
3
 72
8
 73
4
 74
0
 42
0.0000001
 43
0.0000001
 44
0.0000000001
 40
0.0
 40
0.0
 40
0.0
 40
0.0
 40
1.0
 40
1.0
 40
1.0
 40
1.0
 10
5.835016352
 20
3.2178975927
 30
0.0
 10
5.8350134239
 20
3.2178799107
 30
0.0
 10
5.8350118338
 20
3.2178619395
 30
0.0
 10
5.8350118066
 20
3.2178440168
 30
0.0
  0
SPLINE
  5
4AE
100
AcDbEntity
  8
0
100
AcDbSpline
 62
7
  6
CONTINUOUS
 70
0
 71
3
 72
12
 73
8
 74
0
 42
0.0000001
 43
0.0000001
 44
0.0000000001
 40
0.0
 40
0.0
 40
0.0
 40
0.0
 40
0.3220391237
 40
0.5998346313
 40
0.827496976
 40
0.920945346
 40
1.0
 40
1.0
 40
1.0
 40
1.0
 10
6.048489477
 20
3.2566733973
 30
0.0
 10
6.0463449189
 20
3.2560865867
 30
0.0
 10
6.0423568691
 20
3.2549695923
 30
0.0
 10
6.0368818113
 20
3.2533367641
 30
0.0
 10
6.0329465935
 20
3.2520647389
 30
0.0
 10
6.0303440135
 20
3.2511370902
 30
0.0
 10
6.0292328213
 20
3.2507077893
 30
0.0
 10
6.0287279153
 20
3.2505004982
 30
0.0
  0
SPLINE
  5
4AF
100
AcDbEntity
  8
0
100
AcDbSpline
 62
7
  6
CONTINUOUS
 70
0
 71
3
 72
16
 73
12
 74
0
 42
0.0000001
 43
0.0000001
 44
0.0000000001
 40
0.0
 40
0.0
 40
0.0
 40
0.0
 40
0.3723988794
 40
0.529317824
 40
0.6656459037
 40
0.7807551244
 40
0.874275881
 40
0.9130587149
 40
0.9467133583
 40
0.9755285454
 40
1.0
 40
1.0
 40
1.0
 40
1.0
 10
5.7105348335
 20
3.2254002281
 30
0.0
 10
5.7088900384
 20
3.2249014749
 30
0.0
 10
5.706563681
 20
3.2241505119
 30
0.0
 10
5.7036892513
 20
3.2230645892
 30
0.0
 10
5.7019538371
 20
3.2223274167
 30
0.0
 10
5.700523974
 20
3.2216254798
 30
0.0
 10
5.699539215
 20
3.2210426443
 30
0.0
 10
5.6989219961
 20
3.2205879684
 30
0.0
 10
5.6985700535
 20
3.2202793274
 30
0.0
 10
5.6982995259
 20
3.2199816703
 30
0.0
 10
5.6981637182
 20
3.2197744801
 30
0.0
 10
5.6981134004
 20
3.2196733636
 30
0.0
  0
LINE
  5
4B0
100
AcDbEntity
  8
0
100
AcDbLine
 62
7
  6
CONTINUOUS
 10
5.6981134004
 20
3.2196733636
 11
5.6979986178
 21
3.2192324957
  0
SPLINE
  5
4B1
100
AcDbEntity
  8
0
100
AcDbSpline
 62
7
  6
CONTINUOUS
 70
0
 71
3
 72
11
 73
7
 74
0
 42
0.0000001
 43
0.0000001
 44
0.0000000001
 40
0.0
 40
0.0
 40
0.0
 40
0.0
 40
0.2546807877
 40
0.5101777919
 40
0.760526277
 40
1.0
 40
1.0
 40
1.0
 40
1.0
 10
5.3298043586
 20
3.2381025617
 30
0.0
 10
5.3270408287
 20
3.2379850543
 30
0.0
 10
5.3215081448
 20
3.2376665239
 30
0.0
 10
5.3132777398
 20
3.2369566
 30
0.0
 10
5.3052350996
 20
3.2360300719
 30
0.0
 10
5.2999701369
 20
3.2352603138
 30
0.0
 10
5.2974035615
 20
3.2348393643
 30
0.0
  0
SPLINE
  5
4B2
100
AcDbEntity
  8
0
100
AcDbSpline
 62
7
  6
CONTINUOUS
 70
0
 71
3
 72
11
 73
7
 74
0
 42
0.0000001
 43
0.0000001
 44
0.0000000001
 40
0.0
 40
0.0
 40
0.0
 40
0.0
 40
0.2741987848
 40
0.5351765419
 40
0.7782813469
 40
1.0
 40
1.0
 40
1.0
 40
1.0
 10
4.7689666874
 20
3.2382773602
 30
0.0
 10
4.7667565219
 20
3.2382291004
 30
0.0
 10
4.7624437515
 20
3.2380770643
 30
0.0
 10
4.7561809996
 20
3.2376726738
 30
0.0
 10
4.750355991
 20
3.2371034374
 30
0.0
 10
4.7466413088
 20
3.2365977835
 30
0.0
 10
4.7448765727
 20
3.2363129301
 30
0.0
  0
SPLINE
  5
4B3
100
AcDbEntity
  8
0
100
AcDbSpline
 62
7
  6
CONTINUOUS
 70
0
 71
3
 72
16
 73
12
 74
0
 42
0.0000001
 43
0.0000001
 44
0.0000000001
 40
0.0
 40
0.0
 40
0.0
 40
0.0
 40
0.1905283406
 40
0.363292117
 40
0.5172802732
 40
0.6516475634
 40
0.7661333225
 40
0.8611564042
 40
0.9017641315
 40
0.9381171214
 40
1.0
 40
1.0
 40
1.0
 40
1.0
 10
4.7448765727
 20
3.2363129301
 30
0.0
 10
4.7437398993
 20
3.2361294549
 30
0.0
 10
4.7415778838
 20
3.235744747
 30
0.0
 10
4.7385233832
 20
3.2350755365
 30
0.0
 10
4.7358320909
 20
3.2343479583
 30
0.0
 10
4.7335239027
 20
3.2335673411
 30
0.0
 10
4.7316146432
 20
3.2327402095
 30
0.0
 10
4.7302995587
 20
3.2319837538
 30
0.0
 10
4.7294749109
 20
3.2313474588
 30
0.0
 10
4.7288701025
 20
3.2307660721
 30
0.0
 10
4.7285211216
 20
3.2302679133
 30
0.0
 10
4.7283770855
 20
3.2299227988
 30
0.0
  0
LINE
  5
4B4
100
AcDbEntity
  8
0
100
AcDbLine
 62
7
  6
CONTINUOUS
 10
4.7283770855
 20
3.2299227988
 11
4.7281985726
 21
3.2290624679
  0
SPLINE
  5
4B5
100
AcDbEntity
  8
0
100
AcDbSpline
 62
7
  6
CONTINUOUS
 70
0
 71
3
 72
11
 73
7
 74
0
 42
0.0000001
 43
0.0000001
 44
0.0000000001
 40
0.0
 40
0.0
 40
0.0
 40
0.0
 40
0.2931138867
 40
0.5595775186
 40
0.7961300656
 40
1.0
 40
1.0
 40
1.0
 40
1.0
 10
4.2469856685
 20
3.2383365148
 30
0.0
 10
4.2455839605
 20
3.2383365148
 30
0.0
 10
4.2429077947
 20
3.2383019686
 30
0.0
 10
4.2391035291
 20
3.2381343511
 30
0.0
 10
4.2357336082
 20
3.2378574282
 30
0.0
 10
4.2336441422
 20
3.237581095
 30
0.0
 10
4.2326829964
 20
3.2374177208
 30
0.0
  0
SPLINE
  5
4B6
100
AcDbEntity
  8
0
100
AcDbSpline
 62
7
  6
CONTINUOUS
 70
0
 71
3
 72
13
 73
9
 74
0
 42
0.0000001
 43
0.0000001
 44
0.0000000001
 40
0.0
 40
0.0
 40
0.0
 40
0.0
 40
0.3518263971
 40
0.5011651446
 40
0.6328683068
 40
0.7473418169
 40
0.845556176
 40
1.0
 40
1.0
 40
1.0
 40
1.0
 10
4.2326829964
 20
3.2374177208
 30
0.0
 10
4.2318778399
 20
3.2372808615
 30
0.0
 10
4.2307353425
 20
3.2370514998
 30
0.0
 10
4.2293218269
 20
3.2366479722
 30
0.0
 10
4.2284568399
 20
3.236338862
 30
0.0
 10
4.227727403
 20
3.2360056471
 30
0.0
 10
4.2269986518
 20
3.2355683186
 30
0.0
 10
4.2265518586
 20
3.235152027
 30
0.0
 10
4.2263764302
 20
3.2348393643
 30
0.0
  0
LINE
  5
4B7
100
AcDbEntity
  8
0
100
AcDbLine
 62
7
  6
CONTINUOUS
 10
4.2263764302
 20
3.2348393643
 11
4.2261916917
 21
3.2341599808
  0
SPLINE
  5
4B8
100
AcDbEntity
  8
0
100
AcDbSpline
 62
7
  6
CONTINUOUS
 70
0
 71
3
 72
11
 73
7
 74
0
 42
0.0000001
 43
0.0000001
 44
0.0000000001
 40
0.0
 40
0.0
 40
0.0
 40
0.0
 40
0.2710429664
 40
0.531885548
 40
0.7766584317
 40
1.0
 40
1.0
 40
1.0
 40
1.0
 10
5.0512594095
 20
3.2381025617
 30
0.0
 10
5.0485136538
 20
3.2379874525
 30
0.0
 10
5.043128533
 20
3.2376788169
 30
0.0
 10
5.0352839336
 20
3.2369741883
 30
0.0
 10
5.0279487848
 20
3.2360540261
 30
0.0
 10
5.0232654375
 20
3.2352713404
 30
0.0
 10
5.021042509
 20
3.2348393643
 30
0.0
  0
SPLINE
  5
4B9
100
AcDbEntity
  8
0
100
AcDbSpline
 62
7
  6
CONTINUOUS
 70
0
 71
3
 72
19
 73
15
 74
0
 42
0.0000001
 43
0.0000001
 44
0.0000000001
 40
0.0
 40
0.0
 40
0.0
 40
0.0
 40
0.2004213845
 40
0.3804578301
 40
0.5386940067
 40
0.6740207724
 40
0.7328978717
 40
0.7859476501
 40
0.8332944183
 40
0.8751626907
 40
0.9119350989
 40
0.9442437311
 40
0.9731086109
 40
1.0
 40
1.0
 40
1.0
 40
1.0
 10
5.021042509
 20
3.2348393643
 30
0.0
 10
5.0196320943
 20
3.234565282
 30
0.0
 10
5.0169631064
 20
3.2339998124
 30
0.0
 10
5.0132215721
 20
3.2330373164
 30
0.0
 10
5.0099815052
 20
3.2320171317
 30
0.0
 10
5.0076263893
 20
3.2310926066
 30
0.0
 10
5.0060307408
 20
3.2303187448
 30
0.0
 10
5.0050349008
 20
3.2297583788
 30
0.0
 10
5.0041850959
 20
3.2291923333
 30
0.0
 10
5.0034829378
 20
3.228621512
 30
0.0
 10
5.0029299277
 20
3.228046316
 30
0.0
 10
5.0025283783
 20
3.2274654428
 30
0.0
 10
5.0022826927
 20
3.2268780082
 30
0.0
 10
5.0022262818
 20
3.2264765661
 30
0.0
 10
5.0022263997
 20
3.2262837848
 30
0.0
  0
LINE
  5
4BA
100
AcDbEntity
  8
0
100
AcDbLine
 62
7
  6
CONTINUOUS
 10
4.4913208009
 20
3.2382773602
 11
4.4822003649
 21
3.2378151845
  0
SPLINE
  5
4BB
100
AcDbEntity
  8
0
100
AcDbSpline
 62
7
  6
CONTINUOUS
 70
0
 71
3
 72
19
 73
15
 74
0
 42
0.0000001
 43
0.0000001
 44
0.0000000001
 40
0.0
 40
0.0
 40
0.0
 40
0.0
 40
0.2054126902
 40
0.3889267076
 40
0.5489839375
 40
0.6844217096
 40
0.7428204217
 40
0.7950348183
 40
0.8411838067
 40
0.8815123314
 40
0.916509473
 40
0.9470066672
 40
0.9742577249
 40
1.0
 40
1.0
 40
1.0
 40
1.0
 10
4.4822003649
 20
3.2378151845
 30
0.0
 10
4.4807992006
 20
3.2377012866
 30
0.0
 10
4.4781494357
 20
3.2374422332
 30
0.0
 10
4.4744270495
 20
3.2369227056
 30
0.0
 10
4.4712068008
 20
3.2363004435
 30
0.0
 10
4.4688632853
 20
3.2356756305
 30
0.0
 10
4.46727462
 20
3.2351147557
 30
0.0
 10
4.4662867053
 20
3.2346941772
 30
0.0
 10
4.4654444124
 20
3.2342538988
 30
0.0
 10
4.4647495339
 20
3.2337940684
 30
0.0
 10
4.4642031256
 20
3.2333143874
 30
0.0
 10
4.4638059246
 20
3.2328135265
 30
0.0
 10
4.4635621131
 20
3.23228986
 30
0.0
 10
4.4635072882
 20
3.2319251425
 30
0.0
 10
4.4635071126
 20
3.2317489698
 30
0.0
  0
SPLINE
  5
4BC
100
AcDbEntity
  8
0
100
AcDbSpline
 62
7
  6
CONTINUOUS
 70
0
 71
3
 72
11
 73
7
 74
0
 42
0.0000001
 43
0.0000001
 44
0.0000000001
 40
0.0
 40
0.0
 40
0.0
 40
0.0
 40
0.305867677
 40
0.5750961612
 40
0.8065686893
 40
1.0
 40
1.0
 40
1.0
 40
1.0
 10
5.7229704709
 20
3.2598356684
 30
0.0
 10
5.7220568214
 20
3.25946245
 30
0.0
 10
5.7203509238
 20
3.2587306812
 30
0.0
 10
5.7180087066
 20
3.2575930174
 30
0.0
 10
5.7160571337
 20
3.2564910886
 30
0.0
 10
5.7149218243
 20
3.2557167748
 30
0.0
 10
5.714431904
 20
3.2553300823
 30
0.0
  0
SPLINE
  5
4BD
100
AcDbEntity
  8
0
100
AcDbSpline
 62
7
  6
CONTINUOUS
 70
0
 71
3
 72
11
 73
7
 74
0
 42
0.0000001
 43
0.0000001
 44
0.0000000001
 40
0.0
 40
0.0
 40
0.0
 40
0.0
 40
0.3225526874
 40
0.5909641175
 40
0.8121689006
 40
1.0
 40
1.0
 40
1.0
 40
1.0
 10
5.714431904
 20
3.2553300823
 30
0.0
 10
5.714122939
 20
3.2550862172
 30
0.0
 10
5.7135757438
 20
3.2546137685
 30
0.0
 10
5.7129191652
 20
3.253865411
 30
0.0
 10
5.712506318
 20
3.2531402279
 30
0.0
 10
5.7124001943
 20
3.2526396883
 30
0.0
 10
5.7124002699
 20
3.2524104781
 30
0.0
  0
SPLINE
  5
4BE
100
AcDbEntity
  8
0
100
AcDbSpline
 62
7
  6
CONTINUOUS
 70
0
 71
3
 72
11
 73
7
 74
0
 42
0.0000001
 43
0.0000001
 44
0.0000000001
 40
0.0
 40
0.0
 40
0.0
 40
0.0
 40
0.3197538902
 40
0.586843692
 40
0.8087700224
 40
1.0
 40
1.0
 40
1.0
 40
1.0
 10
5.4646578023
 20
3.2595670059
 30
0.0
 10
5.4642039828
 20
3.2592308951
 30
0.0
 10
5.4633988316
 20
3.2585735695
 30
0.0
 10
5.462432226
 20
3.257512173
 30
0.0
 10
5.4618231256
 20
3.2564621128
 30
0.0
 10
5.46166881
 20
3.2557298126
 30
0.0
 10
5.4616685573
 20
3.2553920725
 30
0.0
  0
LINE
  5
4BF
100
AcDbEntity
  8
0
100
AcDbLine
 62
7
  6
CONTINUOUS
 10
5.1698358134
 20
3.2598356684
 11
5.1696875854
 21
3.2588672477
  0
SPLINE
  5
4C0
100
AcDbEntity
  8
0
100
AcDbSpline
 62
7
  6
CONTINUOUS
 70
0
 71
3
 72
11
 73
7
 74
0
 42
0.0000001
 43
0.0000001
 44
0.0000000001
 40
0.0
 40
0.0
 40
0.0
 40
0.0
 40
0.2521851259
 40
0.5025725327
 40
0.7516454489
 40
1.0
 40
1.0
 40
1.0
 40
1.0
 10
3.5602522525
 20
3.0560538889
 30
0.0
 10
3.5714076286
 20
3.0501508221
 30
0.0
 10
3.594351978
 20
3.0396780245
 30
0.0
 10
3.6302831756
 20
3.028243985
 30
0.0
 10
3.6671545347
 20
3.0213157225
 30
0.0
 10
3.6920761824
 20
3.0197674503
 30
0.0
 10
3.7045054351
 20
3.019768266
 30
0.0
  0
SPLINE
  5
4C1
100
AcDbEntity
  8
0
100
AcDbSpline
 62
7
  6
CONTINUOUS
 70
0
 71
3
 72
18
 73
14
 74
0
 42
0.0000001
 43
0.0000001
 44
0.0000000001
 40
0.0
 40
0.0
 40
0.0
 40
0.0
 40
0.1295549719
 40
0.2575354208
 40
0.3840250318
 40
0.4467659519
 40
0.5091755753
 40
0.5712777318
 40
0.6330994912
 40
0.6946735826
 40
0.7560360966
 40
0.8782085101
 40
1.0
 40
1.0
 40
1.0
 40
1.0
 10
3.9818171578
 20
3.1709314438
 30
0.0
 10
3.9740179332
 20
3.1593992219
 30
0.0
 10
3.9572492639
 20
3.1372986211
 30
0.0
 10
3.9287152455
 20
3.1073706482
 30
0.0
 10
3.9024249194
 20
3.0855363402
 30
0.0
 10
3.8801468736
 20
3.0701855707
 30
0.0
 10
3.8629030133
 20
3.05978958
 30
0.0
 10
3.8451405986
 20
3.0505193802
 30
0.0
 10
3.8269184654
 20
3.0424067292
 30
0.0
 10
3.8082944858
 20
3.0354869047
 30
0.0
 10
3.783055789
 20
3.0278999879
 30
0.0
 10
3.7507804721
 20
3.0214913449
 30
0.0
 10
3.724534121
 20
3.0197727775
 30
0.0
 10
3.7114464553
 20
3.019769839
 30
0.0
  0
SPLINE
  5
4C2
100
AcDbEntity
  8
0
100
AcDbSpline
 62
7
  6
CONTINUOUS
 70
0
 71
3
 72
29
 73
25
 74
0
 42
0.0000001
 43
0.0000001
 44
0.0000000001
 40
0.0
 40
0.0
 40
0.0
 40
0.0
 40
0.0614324626
 40
0.0922447228
 40
0.123094964
 40
0.1539917828
 40
0.184948646
 40
0.2159716494
 40
0.2470655826
 40
0.2782392012
 40
0.3094948392
 40
0.3408293512
 40
0.3722407147
 40
0.4352347744
 40
0.4984478623
 40
0.5617746868
 40
0.6250902239
 40
0.6882717986
 40
0.7512187266
 40
0.7826002515
 40
0.8139013951
 40
0.8762220606
 40
0.9382717757
 40
1.0
 40
1.0
 40
1.0
 40
1.0
 10
3.5834688677
 20
3.2500332495
 30
0.0
 10
3.5784672348
 20
3.2489539137
 30
0.0
 10
3.5710769176
 20
3.2466842162
 30
0.0
 10
3.5617187464
 20
3.2424771114
 30
0.0
 10
3.5549653587
 20
3.2387388145
 30
0.0
 10
3.5485331385
 20
3.2344522084
 30
0.0
 10
3.5424556325
 20
3.2296527342
 30
0.0
 10
3.5367677118
 20
3.2243734423
 30
0.0
 10
3.5315030626
 20
3.2186476917
 30
0.0
 10
3.5266856853
 20
3.2125165618
 30
0.0
 10
3.5223382791
 20
3.2060198814
 30
0.0
 10
3.5184841882
 20
3.1991958282
 30
0.0
 10
3.5140255899
 20
3.1897105729
 30
0.0
 10
3.5097627042
 20
3.1772400047
 30
0.0
 10
3.5068537663
 20
3.1616703501
 30
0.0
 10
3.5061747394
 20
3.1458182673
 30
0.0
 10
3.5077488532
 20
3.1300324308
 30
0.0
 10
3.5115366753
 20
3.1146603968
 30
0.0
 10
3.5165013458
 20
3.1024620348
 30
0.0
 10
3.5214939336
 20
3.0932564108
 30
0.0
 10
3.5271340889
 20
3.0844950832
 30
0.0
 10
3.5353744403
 20
3.0744115988
 30
0.0
 10
3.5469797988
 20
3.0640462395
 30
0.0
 10
3.5557076587
 20
3.058458226
 30
0.0
 10
3.5602520047
 20
3.0560534557
 30
0.0
  0
SPLINE
  5
4C3
100
AcDbEntity
  8
0
100
AcDbSpline
 62
7
  6
CONTINUOUS
 70
0
 71
3
 72
12
 73
8
 74
0
 42
0.0000001
 43
0.0000001
 44
0.0000000001
 40
0.0
 40
0.0
 40
0.0
 40
0.0
 40
0.0804705388
 40
0.1747509508
 40
0.4027659716
 40
0.6796868202
 40
1.0
 40
1.0
 40
1.0
 40
1.0
 10
3.8079498387
 20
3.2505183315
 30
0.0
 10
3.8074702135
 20
3.2507144841
 30
0.0
 10
3.8064203777
 20
3.2511202254
 30
0.0
 10
3.803978448
 20
3.2519945782
 30
0.0
 10
3.8003088408
 20
3.2531897207
 30
0.0
 10
3.7952195833
 20
3.2547200324
 30
0.0
 10
3.7915187104
 20
3.2557667004
 30
0.0
 10
3.7895305997
 20
3.2563161497
 30
0.0
  0
SPLINE
  5
4C4
100
AcDbEntity
  8
0
100
AcDbSpline
 62
7
  6
CONTINUOUS
 70
0
 71
3
 72
10
 73
6
 74
0
 42
0.0000001
 43
0.0000001
 44
0.0000000001
 40
0.0
 40
0.0
 40
0.0
 40
0.0
 40
0.3835341269
 40
0.6591464632
 40
1.0
 40
1.0
 40
1.0
 40
1.0
 10
3.9319325258
 20
3.2501223129
 30
0.0
 10
3.9319326026
 20
3.2504454327
 30
0.0
 10
3.9316175915
 20
3.2509708839
 30
0.0
 10
3.9310238017
 20
3.2515520486
 30
0.0
 10
3.9306091845
 20
3.2518719695
 30
0.0
 10
3.9303750189
 20
3.2520381881
 30
0.0
  0
SPLINE
  5
4C5
100
AcDbEntity
  8
0
100
AcDbSpline
 62
7
  6
CONTINUOUS
 70
0
 71
3
 72
14
 73
10
 74
0
 42
0.0000001
 43
0.0000001
 44
0.0000000001
 40
0.0
 40
0.0
 40
0.0
 40
0.0
 40
0.0712300624
 40
0.1588747313
 40
0.2626219725
 40
0.381914225
 40
0.5161145902
 40
0.6644715279
 40
1.0
 40
1.0
 40
1.0
 40
1.0
 10
3.9303750189
 20
3.2520381881
 30
0.0
 10
3.9299632804
 20
3.2523304539
 30
0.0
 10
3.9290023901
 20
3.2529220012
 30
0.0
 10
3.9273490043
 20
3.2537792106
 30
0.0
 10
3.9253438749
 20
3.2546920153
 30
0.0
 10
3.9230009871
 20
3.2556541433
 30
0.0
 10
3.9203351918
 20
3.2566590285
 30
0.0
 10
3.916199848
 20
3.2581074377
 30
0.0
 10
3.9129292852
 20
3.2591442905
 30
0.0
 10
3.9106528258
 20
3.2598332743
 30
0.0
  0
SPLINE
  5
4C6
100
AcDbEntity
  8
0
100
AcDbSpline
 62
7
  6
CONTINUOUS
 70
0
 71
3
 72
11
 73
7
 74
0
 42
0.0000001
 43
0.0000001
 44
0.0000000001
 40
0.0
 40
0.0
 40
0.0
 40
0.0
 40
0.1915412699
 40
0.4144832739
 40
0.6817079485
 40
1.0
 40
1.0
 40
1.0
 40
1.0
 10
4.1243234342
 20
3.2524104419
 30
0.0
 10
4.1243237586
 20
3.2526254973
 30
0.0
 10
4.1242310617
 20
3.2530924465
 30
0.0
 10
4.1238642916
 20
3.253772136
 30
0.0
 10
4.1232812285
 20
3.2544730318
 30
0.0
 10
4.1227936643
 20
3.254916503
 30
0.0
 10
4.1225186931
 20
3.2551447616
 30
0.0
  0
SPLINE
  5
4C7
100
AcDbEntity
  8
0
100
AcDbSpline
 62
7
  6
CONTINUOUS
 70
0
 71
3
 72
11
 73
7
 74
0
 42
0.0000001
 43
0.0000001
 44
0.0000000001
 40
0.0
 40
0.0
 40
0.0
 40
0.0
 40
0.1900362429
 40
0.4204820548
 40
0.6908780634
 40
1.0
 40
1.0
 40
1.0
 40
1.0
 10
4.1225186931
 20
3.2551447616
 30
0.0
 10
4.1220329095
 20
3.2555480195
 30
0.0
 10
4.1208877845
 20
3.2563551935
 30
0.0
 10
4.1188958566
 20
3.2574988895
 30
0.0
 10
4.1164779922
 20
3.2586835285
 30
0.0
 10
4.1147088353
 20
3.2594447084
 30
0.0
 10
4.1137581978
 20
3.2598332743
 30
0.0
  0
SPLINE
  5
4C8
100
AcDbEntity
  8
0
100
AcDbSpline
 62
7
  6
CONTINUOUS
 70
0
 71
3
 72
13
 73
9
 74
0
 42
0.0000001
 43
0.0000001
 44
0.0000000001
 40
0.0
 40
0.0
 40
0.0
 40
0.0
 40
0.0912475799
 40
0.1879907641
 40
0.2930943819
 40
0.4087004141
 40
0.6767819643
 40
1.0
 40
1.0
 40
1.0
 40
1.0
 10
4.3750532027
 20
3.2553920111
 30
0.0
 10
4.3750533224
 20
3.2555671736
 30
0.0
 10
4.3750152347
 20
3.2559289245
 30
0.0
 10
4.37484997
 20
3.2564696636
 30
0.0
 10
4.3745781484
 20
3.2570176547
 30
0.0
 10
4.3740500115
 20
3.2577959626
 30
0.0
 10
4.3731024506
 20
3.2587793567
 30
0.0
 10
4.3722034702
 20
3.2594764028
 30
0.0
 10
4.3716959107
 20
3.2598332743
 30
0.0
  0
LINE
  5
4C9
100
AcDbEntity
  8
0
100
AcDbLine
 62
7
  6
CONTINUOUS
 10
4.6670342032
 20
3.2588671251
 11
4.6668879258
 21
3.2598333071
  0
SPLINE
  5
4CA
100
AcDbEntity
  8
0
100
AcDbSpline
 62
7
  6
CONTINUOUS
 70
0
 71
3
 72
18
 73
14
 74
0
 42
0.0000001
 43
0.0000001
 44
0.0000000001
 40
0.0
 40
0.0
 40
0.0
 40
0.0
 40
0.0213665862
 40
0.0459700588
 40
0.0751931556
 40
0.1098347924
 40
0.1503447312
 40
0.1969775119
 40
0.3090369488
 40
0.4461016727
 40
0.607548087
 40
0.792538882
 40
1.0
 40
1.0
 40
1.0
 40
1.0
 10
4.1387231565
 20
3.219232467
 30
0.0
 10
4.1387228924
 20
3.2193280756
 30
0.0
 10
4.1386835505
 20
3.2195343062
 30
0.0
 10
4.1385287713
 20
3.2198362854
 30
0.0
 10
4.1382817282
 20
3.2201478938
 30
0.0
 10
4.1379429497
 20
3.2204708805
 30
0.0
 10
4.1375125202
 20
3.2208061742
 30
0.0
 10
4.1367697246
 20
3.2213000324
 30
0.0
 10
4.135604928
 20
3.2219328823
 30
0.0
 10
4.1339329962
 20
3.2226961235
 30
0.0
 10
4.1319220274
 20
3.2234961586
 30
0.0
 10
4.1295863387
 20
3.2243265759
 30
0.0
 10
4.1279150035
 20
3.2248663736
 30
0.0
 10
4.1270284915
 20
3.2251418469
 30
0.0
  0
SPLINE
  5
4CB
100
AcDbEntity
  8
0
100
AcDbSpline
 62
7
  6
CONTINUOUS
 70
0
 71
3
 72
9
 73
5
 74
0
 42
0.0000001
 43
0.0000001
 44
0.0000000001
 40
0.0
 40
0.0
 40
0.0
 40
0.0
 40
0.4867496439
 40
1.0
 40
1.0
 40
1.0
 40
1.0
 10
4.5404828579
 20
3.234644969
 30
0.0
 10
4.5360253453
 20
3.2354007726
 30
0.0
 10
4.5268190494
 20
3.2366718191
 30
0.0
 10
4.5175625726
 20
3.2374879777
 30
0.0
 10
4.5128048767
 20
3.2377901843
 30
0.0
  0
SPLINE
  5
4CC
100
AcDbEntity
  8
0
100
AcDbSpline
 62
7
  6
CONTINUOUS
 70
0
 71
3
 72
17
 73
13
 74
0
 42
0.0000001
 43
0.0000001
 44
0.0000000001
 40
0.0
 40
0.0
 40
0.0
 40
0.0
 40
0.0315306984
 40
0.0642768593
 40
0.1379154781
 40
0.1807931148
 40
0.2283836349
 40
0.3388820124
 40
0.4710701449
 40
0.6255486604
 40
0.8021269041
 40
1.0
 40
1.0
 40
1.0
 40
1.0
 10
5.1085230809
 20
3.2290622449
 30
0.0
 10
5.1085230937
 20
3.229213811
 30
0.0
 10
5.1084890898
 20
3.2295237835
 30
0.0
 10
5.1082782729
 20
3.2301567219
 30
0.0
 10
5.1078566037
 20
3.2307554093
 30
0.0
 10
5.1072918688
 20
3.2313063759
 30
0.0
 10
5.1065325291
 20
3.2319065986
 30
0.0
 10
5.1053296342
 20
3.2326236643
 30
0.0
 10
5.1035880396
 20
3.233411749
 30
0.0
 10
5.1014882377
 20
3.2341590673
 30
0.0
 10
5.0990431484
 20
3.2348604941
 30
0.0
 10
5.0972901114
 20
3.2352718306
 30
0.0
 10
5.0963601389
 20
3.2354714893
 30
0.0
  0
LINE
  5
4CD
100
AcDbEntity
  8
0
100
AcDbLine
 62
7
  6
CONTINUOUS
 10
5.0963601389
 20
3.2354714893
 11
5.088193868
 21
3.2368422996
  0
SPLINE
  5
4CE
100
AcDbEntity
  8
0
100
AcDbSpline
 62
7
  6
CONTINUOUS
 70
0
 71
3
 72
9
 73
5
 74
0
 42
0.0000001
 43
0.0000001
 44
0.0000000001
 40
0.0
 40
0.0
 40
0.0
 40
0.0
 40
0.4739974508
 40
1.0
 40
1.0
 40
1.0
 40
1.0
 10
5.088193868
 20
3.2368422996
 30
0.0
 10
5.0850013457
 20
3.2372572645
 30
0.0
 10
5.0782351162
 20
3.2378981483
 30
0.0
 10
5.0714470988
 20
3.2381950052
 30
0.0
 10
5.0678753933
 20
3.2382747256
 30
0.0
  0
SPLINE
  5
4CF
100
AcDbEntity
  8
0
100
AcDbSpline
 62
7
  6
CONTINUOUS
 70
0
 71
3
 72
18
 73
14
 74
0
 42
0.0000001
 43
0.0000001
 44
0.0000000001
 40
0.0
 40
0.0
 40
0.0
 40
0.0
 40
0.0264924244
 40
0.0540987656
 40
0.0845616666
 40
0.1191869356
 40
0.1588645687
 40
0.2041819155
 40
0.3130305674
 40
0.4471319911
 40
0.6066260141
 40
0.7912139313
 40
1.0
 40
1.0
 40
1.0
 40
1.0
 10
5.6105294929
 20
3.2341600365
 30
0.0
 10
5.6105292149
 20
3.2342821878
 30
0.0
 10
5.6104934024
 20
3.234532989
 30
0.0
 10
5.610332161
 20
3.2348926169
 30
0.0
 10
5.610068776
 20
3.2352332346
 30
0.0
 10
5.6097065196
 20
3.2355558623
 30
0.0
 10
5.6092461389
 20
3.2358620907
 30
0.0
 10
5.6084515933
 20
3.2362742678
 30
0.0
 10
5.6071978801
 20
3.2367295989
 30
0.0
 10
5.6053971132
 20
3.2371836696
 30
0.0
 10
5.603224636
 20
3.2375689212
 30
0.0
 10
5.6006937949
 20
3.2378807434
 30
0.0
 10
5.5988855429
 20
3.2380282919
 30
0.0
 10
5.5979249629
 20
3.2380917509
 30
0.0
  0
LINE
  5
4D0
100
AcDbEntity
  8
0
100
AcDbLine
 62
7
  6
CONTINUOUS
 10
5.5979249629
 20
3.2380917509
 11
5.5940343487
 21
3.2382747256
  0
SPLINE
  5
4D1
100
AcDbEntity
  8
0
100
AcDbSpline
 62
7
  6
CONTINUOUS
 70
0
 71
3
 72
12
 73
8
 74
0
 42
0.0000001
 43
0.0000001
 44
0.0000000001
 40
0.0
 40
0.0
 40
0.0
 40
0.0
 40
0.1423604578
 40
0.2358383488
 40
0.3477254276
 40
0.6316308903
 40
1.0
 40
1.0
 40
1.0
 40
1.0
 10
4.0017101151
 20
3.2178439879
 30
0.0
 10
4.001710017
 20
3.2179299665
 30
0.0
 10
4.0016491723
 20
3.2180698037
 30
0.0
 10
4.0015171602
 20
3.2182317634
 30
0.0
 10
4.0013014342
 20
3.2184355781
 30
0.0
 10
4.0009213332
 20
3.2186999407
 30
0.0
 10
4.000577137
 20
3.2188922663
 30
0.0
 10
4.000379777
 20
3.2189949546
 30
0.0
  0
LINE
  5
4D2
100
AcDbEntity
  8
0
100
AcDbLine
 62
7
  6
CONTINUOUS
 10
4.000379777
 20
3.2189949546
 11
3.9968653661
 21
3.2204360522
  0
LINE
  5
4D3
100
AcDbEntity
  8
0
100
AcDbLine
 62
7
  6
CONTINUOUS
 10
3.9968653661
 20
3.2204360522
 11
3.9913839523
 21
3.222162419
  0
LINE
  5
4D4
100
AcDbEntity
  8
0
100
AcDbLine
 62
7
  6
CONTINUOUS
 10
3.9913839523
 20
3.222162419
 11
3.9842028684
 21
3.224100162
  0
SPLINE
  5
4D5
100
AcDbEntity
  8
0
100
AcDbSpline
 62
7
  6
CONTINUOUS
 70
0
 71
3
 72
12
 73
8
 74
0
 42
0.0000001
 43
0.0000001
 44
0.0000000001
 40
0.0
 40
0.0
 40
0.0
 40
0.0
 40
0.1057850329
 40
0.2211276623
 40
0.4727586597
 40
0.738282802
 40
1.0
 40
1.0
 40
1.0
 40
1.0
 10
3.9842028684
 20
3.224100162
 30
0.0
 10
3.9823761518
 20
3.2245647051
 30
0.0
 10
3.9785489094
 20
3.2255014266
 30
0.0
 10
3.9703397828
 20
3.2273906748
 30
0.0
 10
3.959311956
 20
3.2297180214
 30
0.0
 10
3.9456800562
 20
3.2323225965
 30
0.0
 10
3.9364199298
 20
3.2339094182
 30
0.0
 10
3.931815075
 20
3.234644969
 30
0.0
  0
SPLINE
  5
4D6
100
AcDbEntity
  8
0
100
AcDbSpline
 62
7
  6
CONTINUOUS
 70
0
 71
3
 72
16
 73
12
 74
0
 42
0.0000001
 43
0.0000001
 44
0.0000000001
 40
0.0
 40
0.0
 40
0.0
 40
0.0
 40
0.0330680919
 40
0.0674947748
 40
0.1443008701
 40
0.236739841
 40
0.3479856786
 40
0.4795936667
 40
0.6322471956
 40
0.8058836627
 40
1.0
 40
1.0
 40
1.0
 40
1.0
 10
4.8344956943
 20
3.2262836505
 30
0.0
 10
4.8344958199
 20
3.2264228569
 30
0.0
 10
4.8344673533
 20
3.226707731
 30
0.0
 10
4.8342919908
 20
3.227292664
 30
0.0
 10
4.8338318202
 20
3.2280325502
 30
0.0
 10
4.8329855089
 20
3.2288647584
 30
0.0
 10
4.8318324154
 20
3.2296861571
 30
0.0
 10
4.8303743238
 20
3.2304949539
 30
0.0
 10
4.8286155148
 20
3.2312878666
 30
0.0
 10
4.8265644734
 20
3.2320607579
 30
0.0
 10
4.8250897646
 20
3.2325338464
 30
0.0
 10
4.8243069374
 20
3.2327682555
 30
0.0
  0
LINE
  5
4D7
100
AcDbEntity
  8
0
100
AcDbLine
 62
7
  6
CONTINUOUS
 10
4.8243069374
 20
3.2327682555
 11
4.8166575323
 21
3.234644969
  0
SPLINE
  5
4D8
100
AcDbEntity
  8
0
100
AcDbSpline
 62
7
  6
CONTINUOUS
 70
0
 71
3
 72
11
 73
7
 74
0
 42
0.0000001
 43
0.0000001
 44
0.0000000001
 40
0.0
 40
0.0
 40
0.0
 40
0.0
 40
0.2214385687
 40
0.4657923845
 40
0.7273947421
 40
1.0
 40
1.0
 40
1.0
 40
1.0
 10
4.8166575323
 20
3.234644969
 30
0.0
 10
4.8144035438
 20
3.2351020078
 30
0.0
 10
4.8096347808
 20
3.2359292987
 30
0.0
 10
4.8021409817
 20
3.2369003923
 30
0.0
 10
4.7940875747
 20
3.237644988
 30
0.0
 10
4.7885477027
 20
3.2379704682
 30
0.0
 10
4.7857190265
 20
3.2380917509
 30
0.0
  0
SPLINE
  5
4D9
100
AcDbEntity
  8
0
100
AcDbSpline
 62
7
  6
CONTINUOUS
 70
0
 71
3
 72
16
 73
12
 74
0
 42
0.0000001
 43
0.0000001
 44
0.0000000001
 40
0.0
 40
0.0
 40
0.0
 40
0.0
 40
0.0316913801
 40
0.0643024429
 40
0.137029705
 40
0.2261850502
 40
0.335844643
 40
0.467703789
 40
0.6223739549
 40
0.799939344
 40
1.0
 40
1.0
 40
1.0
 40
1.0
 10
5.3732142262
 20
3.2317491401
 30
0.0
 10
5.3732141276
 20
3.2318801577
 30
0.0
 10
5.3731848096
 20
3.2321468699
 30
0.0
 10
5.3730022667
 20
3.2326872819
 30
0.0
 10
5.3725193213
 20
3.2333511988
 30
0.0
 10
5.3716350783
 20
3.2340545738
 30
0.0
 10
5.37043178
 20
3.2347129638
 30
0.0
 10
5.368910732
 20
3.2353271853
 30
0.0
 10
5.3670763486
 20
3.2358951978
 30
0.0
 10
5.3649362164
 20
3.2364121945
 30
0.0
 10
5.3634018391
 20
3.2367033626
 30
0.0
 10
5.3625865068
 20
3.2368422996
 30
0.0
  0
LINE
  5
4DA
100
AcDbEntity
  8
0
100
AcDbLine
 62
7
  6
CONTINUOUS
 10
5.3625865068
 20
3.2368422996
 11
5.3548257762
 21
3.2377901843
  0
LINE
  5
4DB
100
AcDbEntity
  8
0
100
AcDbLine
 62
7
  6
CONTINUOUS
 10
5.3548257762
 20
3.2377901843
 11
5.3455096122
 21
3.2382747256
  0
SPLINE
  5
4DC
100
AcDbEntity
  8
0
100
AcDbSpline
 62
7
  6
CONTINUOUS
 70
0
 71
3
 72
10
 73
6
 74
0
 42
0.0000001
 43
0.0000001
 44
0.0000000001
 40
0.0
 40
0.0
 40
0.0
 40
0.0
 40
0.3920796272
 40
0.6654497703
 40
1.0
 40
1.0
 40
1.0
 40
1.0
 10
5.9047892889
 20
3.2501270611
 30
0.0
 10
5.9047891574
 20
3.2504146521
 30
0.0
 10
5.9050402603
 20
3.2508841871
 30
0.0
 10
5.9055393218
 20
3.2514113726
 30
0.0
 10
5.9058851615
 20
3.2516979025
 30
0.0
 10
5.9060804723
 20
3.2518464672
 30
0.0
  0
SPLINE
  5
4DD
100
AcDbEntity
  8
0
100
AcDbSpline
 62
7
  6
CONTINUOUS
 70
0
 71
3
 72
14
 73
10
 74
0
 42
0.0000001
 43
0.0000001
 44
0.0000000001
 40
0.0
 40
0.0
 40
0.0
 40
0.0
 40
0.068468991
 40
0.1540437588
 40
0.2565785602
 40
0.3755838644
 40
0.5102928035
 40
0.6598746176
 40
1.0
 40
1.0
 40
1.0
 40
1.0
 10
5.9060804723
 20
3.2518464672
 30
0.0
 10
5.906472485
 20
3.2521446546
 30
0.0
 10
5.9074058346
 20
3.2527472038
 30
0.0
 10
5.9090337096
 20
3.2536188203
 30
0.0
 10
5.911038056
 20
3.2545503672
 30
0.0
 10
5.9134045501
 20
3.2555349604
 30
0.0
 10
5.9161166064
 20
3.2565662315
 30
0.0
 10
5.9203535288
 20
3.2580586198
 30
0.0
 10
5.9237122427
 20
3.2591243043
 30
0.0
 10
5.9260540173
 20
3.2598331412
 30
0.0
  0
SPLINE
  5
4DE
100
AcDbEntity
  8
0
100
AcDbSpline
 62
7
  6
CONTINUOUS
 70
0
 71
3
 72
11
 73
7
 74
0
 42
0.0000001
 43
0.0000001
 44
0.0000000001
 40
0.0
 40
0.0
 40
0.0
 40
0.0
 40
0.2521851255
 40
0.5025725325
 40
0.751645449
 40
1.0
 40
1.0
 40
1.0
 40
1.0
 10
3.5602522467
 20
3.056053873
 30
0.0
 10
3.5714076201
 20
3.0501508085
 30
0.0
 10
3.5943519636
 20
3.0396780147
 30
0.0
 10
3.6302831513
 20
3.0282439779
 30
0.0
 10
3.6671544999
 20
3.021315715
 30
0.0
 10
3.6920761407
 20
3.0197674404
 30
0.0
 10
3.70450539
 20
3.0197682544
 30
0.0
  0
SPLINE
  5
4DF
100
AcDbEntity
  8
0
100
AcDbSpline
 62
7
  6
CONTINUOUS
 70
0
 71
3
 72
18
 73
14
 74
0
 42
0.0000001
 43
0.0000001
 44
0.0000000001
 40
0.0
 40
0.0
 40
0.0
 40
0.0
 40
0.129554972
 40
0.2575354211
 40
0.3840250323
 40
0.4467659525
 40
0.509175576
 40
0.5712777325
 40
0.633099492
 40
0.6946735835
 40
0.7560360974
 40
0.8782085107
 40
1.0
 40
1.0
 40
1.0
 40
1.0
 10
3.9818171694
 20
3.1709314352
 30
0.0
 10
3.9740179448
 20
3.1593992143
 30
0.0
 10
3.9572492757
 20
3.1372986153
 30
0.0
 10
3.9287152585
 20
3.1073706446
 30
0.0
 10
3.902424934
 20
3.0855363378
 30
0.0
 10
3.8801468897
 20
3.0701855686
 30
0.0
 10
3.8629030308
 20
3.059789578
 30
0.0
 10
3.8451406174
 20
3.0505193781
 30
0.0
 10
3.8269184858
 20
3.0424067266
 30
0.0
 10
3.8082945076
 20
3.0354869014
 30
0.0
 10
3.7830558129
 20
3.0278999832
 30
0.0
 10
3.7507804985
 20
3.0214913377
 30
0.0
 10
3.7245341493
 20
3.0197727676
 30
0.0
 10
3.7114464844
 20
3.0197698276
 30
0.0
  0
SPLINE
  5
4E0
100
AcDbEntity
  8
0
100
AcDbSpline
 62
7
  6
CONTINUOUS
 70
0
 71
3
 72
28
 73
24
 74
0
 42
0.0000001
 43
0.0000001
 44
0.0000000001
 40
0.0
 40
0.0
 40
0.0
 40
0.0
 40
0.1252048969
 40
0.2388302508
 40
0.3401025824
 40
0.4282685398
 40
0.5026130485
 40
0.5627345524
 40
0.6089718663
 40
0.6271207616
 40
0.6421603506
 40
0.6543803676
 40
0.6643008725
 40
0.6728489508
 40
0.681387932
 40
0.6912742462
 40
0.7034222002
 40
0.718337399
 40
0.7362945339
 40
0.7818852098
 40
0.8409056697
 40
0.913646531
 40
1.0
 40
1.0
 40
1.0
 40
1.0
 10
4.3013494007
 20
3.1413476522
 30
0.0
 10
4.3006953539
 20
3.1413467109
 30
0.0
 10
4.2994477347
 20
3.1413372025
 30
0.0
 10
4.297671504
 20
3.1412956631
 30
0.0
 10
4.2960896859
 20
3.1412272105
 30
0.0
 10
4.2947148936
 20
3.1411315795
 30
0.0
 10
4.2935578947
 20
3.1410089801
 30
0.0
 10
4.2926256735
 20
3.1408583677
 30
0.0
 10
4.2919923719
 20
3.1407026835
 30
0.0
 10
4.2916035112
 20
3.1405564773
 30
0.0
 10
4.2913911532
 20
3.1404493275
 30
0.0
 10
4.2912326585
 20
3.1403351799
 30
0.0
 10
4.2911269331
 20
3.1402114859
 30
0.0
 10
4.2910790514
 20
3.1400742236
 30
0.0
 10
4.2910964167
 20
3.1399300841
 30
0.0
 10
4.291172825
 20
3.1397871212
 30
0.0
 10
4.2913022909
 20
3.1396424923
 30
0.0
 10
4.2914850849
 20
3.1394934975
 30
0.0
 10
4.2918292112
 20
3.1392698746
 30
0.0
 10
4.2924050986
 20
3.1389861287
 30
0.0
 10
4.2932668258
 20
3.1386449838
 30
0.0
 10
4.2943480114
 20
3.1382839444
 30
0.0
 10
4.2951456968
 20
3.1380502798
 30
0.0
 10
4.2955801696
 20
3.1379289546
 30
0.0
  0
SPLINE
  5
4E1
100
AcDbEntity
  8
0
100
AcDbSpline
 62
7
  6
CONTINUOUS
 70
0
 71
3
 72
28
 73
24
 74
0
 42
0.0000001
 43
0.0000001
 44
0.0000000001
 40
0.0
 40
0.0
 40
0.0
 40
0.0
 40
0.0850182475
 40
0.1561548332
 40
0.2132762716
 40
0.2567671612
 40
0.2736422308
 40
0.287494346
 40
0.2986629851
 40
0.3077804132
 40
0.3159558136
 40
0.3246649807
 40
0.3351651228
 40
0.3482088313
 40
0.3641962356
 40
0.3833462024
 40
0.4315847975
 40
0.4934654337
 40
0.5689134486
 40
0.6576465535
 40
0.7593271282
 40
0.873587176
 40
1.0
 40
1.0
 40
1.0
 40
1.0
 10
4.4100374565
 20
3.1257466428
 30
0.0
 10
4.4104989289
 20
3.1257741648
 30
0.0
 10
4.4113459457
 20
3.1258353649
 30
0.0
 10
4.412499111
 20
3.1259634716
 30
0.0
 10
4.4134201848
 20
3.126119709
 30
0.0
 10
4.4140405337
 20
3.1262806555
 30
0.0
 10
4.4144152298
 20
3.1264322597
 30
0.0
 10
4.4146152347
 20
3.1265430129
 30
0.0
 10
4.414759992
 20
3.1266614328
 30
0.0
 10
4.414849635
 20
3.1267916593
 30
0.0
 10
4.414875122
 20
3.1269357506
 30
0.0
 10
4.4148324759
 20
3.1270826066
 30
0.0
 10
4.4147314647
 20
3.1272281589
 30
0.0
 10
4.414575086
 20
3.1273769841
 30
0.0
 10
4.4143624106
 20
3.1275308674
 30
0.0
 10
4.4139716215
 20
3.1277615773
 30
0.0
 10
4.413331209
 20
3.1280548811
 30
0.0
 10
4.412385454
 20
3.1284074949
 30
0.0
 10
4.4112138837
 20
3.1287808801
 30
0.0
 10
4.4098223535
 20
3.1291733077
 30
0.0
 10
4.4082168951
 20
3.1295826768
 30
0.0
 10
4.4064042658
 20
3.1300071135
 30
0.0
 10
4.4051254359
 20
3.1302852551
 30
0.0
 10
4.4044528604
 20
3.1304271386
 30
0.0
  0
SPLINE
  5
4E2
100
AcDbEntity
  8
0
100
AcDbSpline
 62
7
  6
CONTINUOUS
 70
0
 71
3
 72
19
 73
15
 74
0
 42
0.0000001
 43
0.0000001
 44
0.0000000001
 40
0.0
 40
0.0
 40
0.0
 40
0.0
 40
0.0451038577
 40
0.0969154768
 40
0.1546998746
 40
0.2175839585
 40
0.3549251331
 40
0.5009046014
 40
0.6468589439
 40
0.7841436694
 40
0.8468851506
 40
0.9042857261
 40
0.9555118981
 40
1.0
 40
1.0
 40
1.0
 40
1.0
 10
4.4044528604
 20
3.1304271386
 30
0.0
 10
4.4029260551
 20
3.1307492265
 30
0.0
 10
4.3996357528
 20
3.1313957632
 30
0.0
 10
4.3943654054
 20
3.1323281539
 30
0.0
 10
4.3884744482
 20
3.1332796213
 30
0.0
 10
4.3796454817
 20
3.1345938918
 30
0.0
 10
4.3677707296
 20
3.1361639604
 30
0.0
 10
4.3530155545
 20
3.137855525
 30
0.0
 10
4.33823597
 20
3.1392987183
 30
0.0
 10
4.3263037103
 20
3.1402530307
 30
0.0
 10
4.3174154493
 20
3.1408164034
 30
0.0
 10
4.3114940458
 20
3.1411137039
 30
0.0
 10
4.3061997734
 20
3.1412948593
 30
0.0
 10
4.3028885047
 20
3.1413451661
 30
0.0
 10
4.3013494007
 20
3.1413476522
 30
0.0
  0
SPLINE
  5
4E3
100
AcDbEntity
  8
0
100
AcDbSpline
 62
7
  6
CONTINUOUS
 70
0
 71
3
 72
37
 73
33
 74
0
 42
0.0000001
 43
0.0000001
 44
0.0000000001
 40
0.0
 40
0.0
 40
0.0
 40
0.0
 40
0.1001500372
 40
0.202256844
 40
0.3039898157
 40
0.403314942
 40
0.4982668721
 40
0.5868441632
 40
0.6671429108
 40
0.7037245718
 40
0.7377056158
 40
0.7689273295
 40
0.7972587917
 40
0.8225827305
 40
0.8447912594
 40
0.8637997763
 40
0.879596517
 40
0.8922446467
 40
0.8974471232
 40
0.9019586944
 40
0.905861236
 40
0.9092896412
 40
0.9124426227
 40
0.9155685683
 40
0.9189187627
 40
0.9226973041
 40
0.9270460644
 40
0.9320566997
 40
0.944266791
 40
0.9595989891
 40
0.9781613899
 40
1.0
 40
1.0
 40
1.0
 40
1.0
 10
5.1160967148
 20
3.1413476522
 30
0.0
 10
5.1131663255
 20
3.1413452615
 30
0.0
 10
5.1072482222
 20
3.1412880822
 30
0.0
 10
5.098356249
 20
3.1410483782
 30
0.0
 10
5.0894943209
 20
3.1406446032
 30
0.0
 10
5.0808501467
 20
3.1400935326
 30
0.0
 10
5.0726012974
 20
3.1394131964
 30
0.0
 10
5.0649222478
 20
3.1386167225
 30
0.0
 10
5.0589595964
 20
3.1378430571
 30
0.0
 10
5.0545970295
 20
3.1371685646
 30
0.0
 10
5.0516623169
 20
3.1366602955
 30
0.0
 10
5.0489758457
 20
3.1361365444
 30
0.0
 10
5.0465506107
 20
3.1356003056
 30
0.0
 10
5.0443984873
 20
3.1350545989
 30
0.0
 10
5.0425308055
 20
3.1345025426
 30
0.0
 10
5.0409566586
 20
3.1339466212
 30
0.0
 10
5.0396832954
 20
3.1333902108
 30
0.0
 10
5.0388239547
 20
3.132901875
 30
0.0
 10
5.0383045749
 20
3.1325020559
 30
0.0
 10
5.0380191519
 20
3.1322223054
 30
0.0
 10
5.0378122909
 20
3.1319418848
 30
0.0
 10
5.0376856928
 20
3.1316591403
 30
0.0
 10
5.0376430474
 20
3.1313742126
 30
0.0
 10
5.0376871326
 20
3.1310917303
 30
0.0
 10
5.0378149269
 20
3.1308167211
 30
0.0
 10
5.0380217925
 20
3.130549532
 30
0.0
 10
5.0383057178
 20
3.130288394
 30
0.0
 10
5.0388215699
 20
3.1299226373
 30
0.0
 10
5.0396753376
 20
3.1294908164
 30
0.0
 10
5.0409406713
 20
3.1290194715
 30
0.0
 10
5.0425093084
 20
3.1285689336
 30
0.0
 10
5.0436622865
 20
3.1283059153
 30
0.0
 10
5.0442879466
 20
3.1281760399
 30
0.0
  0
SPLINE
  5
4E4
100
AcDbEntity
  8
0
100
AcDbSpline
 62
7
  6
CONTINUOUS
 70
0
 71
3
 72
22
 73
18
 74
0
 42
0.0000001
 43
0.0000001
 44
0.0000000001
 40
0.0
 40
0.0
 40
0.0
 40
0.0
 40
0.2135336484
 40
0.3036886752
 40
0.3827564964
 40
0.4508703097
 40
0.5083708344
 40
0.5559646759
 40
0.595018933
 40
0.6281323367
 40
0.6595032682
 40
0.6939663804
 40
0.7352658684
 40
0.7855978369
 40
0.8461429353
 40
0.9175220182
 40
1.0
 40
1.0
 40
1.0
 40
1.0
 10
5.1550498
 20
3.1319972973
 30
0.0
 10
5.1558712338
 20
3.1322285549
 30
0.0
 10
5.1570325803
 20
3.1325858696
 30
0.0
 10
5.1584621104
 20
3.1331316386
 30
0.0
 10
5.1593290808
 20
3.1335178342
 30
0.0
 10
5.1600515097
 20
3.1339034391
 30
0.0
 10
5.1606288383
 20
3.134288053
 30
0.0
 10
5.16106138
 20
3.1346724464
 30
0.0
 10
5.1613495435
 20
3.1350608014
 30
0.0
 10
5.1614843282
 20
3.1354623638
 30
0.0
 10
5.1614447638
 20
3.1358676456
 30
0.0
 10
5.1612372372
 20
3.1362516635
 30
0.0
 10
5.1608823321
 20
3.1366149972
 30
0.0
 10
5.1603832801
 20
3.1369664933
 30
0.0
 10
5.1597388221
 20
3.1373086779
 30
0.0
 10
5.1589485299
 20
3.137641799
 30
0.0
 10
5.1583670929
 20
3.1378429862
 30
0.0
 10
5.1580531455
 20
3.1379434007
 30
0.0
  0
SPLINE
  5
4E5
100
AcDbEntity
  8
0
100
AcDbSpline
 62
7
  6
CONTINUOUS
 70
0
 71
3
 72
16
 73
12
 74
0
 42
0.0000001
 43
0.0000001
 44
0.0000000001
 40
0.0
 40
0.0
 40
0.0
 40
0.0
 40
0.0327079549
 40
0.0700846429
 40
0.1585301478
 40
0.26444985
 40
0.3865311798
 40
0.5231401325
 40
0.6723668274
 40
0.8321016849
 40
1.0
 40
1.0
 40
1.0
 40
1.0
 10
5.1580531455
 20
3.1379434007
 30
0.0
 10
5.1576149376
 20
3.1380835593
 30
0.0
 10
5.1566660797
 20
3.1383531272
 30
0.0
 10
5.154494725
 20
3.1388630574
 30
0.0
 10
5.1512825661
 20
3.1394309896
 30
0.0
 10
5.146867256
 20
3.1400020639
 30
0.0
 10
5.1417603004
 20
3.1404830016
 30
0.0
 10
5.1360347105
 20
3.1408659569
 30
0.0
 10
5.1297729123
 20
3.1411434799
 30
0.0
 10
5.1230670692
 20
3.141311536
 30
0.0
 10
5.1184584062
 20
3.141348142
 30
0.0
 10
5.1160967148
 20
3.1413476522
 30
0.0
  0
SPLINE
  5
4E6
100
AcDbEntity
  8
0
100
AcDbSpline
 62
7
  6
CONTINUOUS
 70
0
 71
3
 72
32
 73
28
 74
0
 42
0.0000001
 43
0.0000001
 44
0.0000000001
 40
0.0
 40
0.0
 40
0.0
 40
0.0
 40
0.1178211423
 40
0.2315208665
 40
0.339112608
 40
0.4390769953
 40
0.5304698433
 40
0.6123732922
 40
0.6837796277
 40
0.7436897462
 40
0.7691105564
 40
0.7914862484
 40
0.8108340702
 40
0.8272040485
 40
0.8407084159
 40
0.8515936054
 40
0.8603689773
 40
0.8642672948
 40
0.8680460353
 40
0.8759463206
 40
0.8854263586
 40
0.8972790636
 40
0.9118799383
 40
0.9294003475
 40
0.9499157286
 40
0.9734530812
 40
1.0
 40
1.0
 40
1.0
 40
1.0
 10
4.7582121601
 20
3.1413476522
 30
0.0
 10
4.7559587198
 20
3.1413458325
 30
0.0
 10
4.7515306175
 20
3.141312559
 30
0.0
 10
4.7450461249
 20
3.141167428
 30
0.0
 10
4.7389063003
 20
3.1409229042
 30
0.0
 10
4.7331985098
 20
3.1405792066
 30
0.0
 10
4.7279895793
 20
3.1401466824
 30
0.0
 10
4.7233367034
 20
3.1396349459
 30
0.0
 10
4.7192998464
 20
3.1390513339
 30
0.0
 10
4.7163539095
 20
3.1384853698
 30
0.0
 10
4.7143554387
 20
3.1379834283
 30
0.0
 10
4.7131249153
 20
3.1376141057
 30
0.0
 10
4.7120804796
 20
3.1372325934
 30
0.0
 10
4.7112232272
 20
3.1368404364
 30
0.0
 10
4.7105530167
 20
3.1364374418
 30
0.0
 10
4.7100678551
 20
3.1360230918
 30
0.0
 10
4.7098086666
 20
3.1356426944
 30
0.0
 10
4.7097194941
 20
3.1353383854
 30
0.0
 10
4.7097012295
 20
3.135038371
 30
0.0
 10
4.7098238729
 20
3.1346389309
 30
0.0
 10
4.7101719277
 20
3.1341921595
 30
0.0
 10
4.7107046649
 20
3.1337529211
 30
0.0
 10
4.7114247571
 20
3.1333147012
 30
0.0
 10
4.71233224
 20
3.1328764102
 30
0.0
 10
4.7134264595
 20
3.1324391412
 30
0.0
 10
4.7147053503
 20
3.1320044605
 30
0.0
 10
4.715624425
 20
3.1317336041
 30
0.0
 10
4.7161135972
 20
3.1315975697
 30
0.0
  0
SPLINE
  5
4E7
100
AcDbEntity
  8
0
100
AcDbSpline
 62
7
  6
CONTINUOUS
 70
0
 71
3
 72
22
 73
18
 74
0
 42
0.0000001
 43
0.0000001
 44
0.0000000001
 40
0.0
 40
0.0
 40
0.0
 40
0.0
 40
0.2160602761
 40
0.3077731302
 40
0.3885966977
 40
0.4586530241
 40
0.518280645
 40
0.5681203513
 40
0.6093500315
 40
0.6441289094
 40
0.6760596598
 40
0.7097595274
 40
0.7492038045
 40
0.7968760935
 40
0.8541355847
 40
0.9217116964
 40
1.0
 40
1.0
 40
1.0
 40
1.0
 10
4.8268651045
 20
3.1284885779
 30
0.0
 10
4.8276821737
 20
3.1286668616
 30
0.0
 10
4.8288408934
 20
3.1289491545
 30
0.0
 10
4.8302768073
 20
3.1293985709
 30
0.0
 10
4.8311575107
 20
3.129725841
 30
0.0
 10
4.8319009551
 20
3.13006129
 30
0.0
 10
4.8325067222
 20
3.1304043552
 30
0.0
 10
4.8329753041
 20
3.1307554398
 30
0.0
 10
4.8333073166
 20
3.1311171913
 30
0.0
 10
4.8334987936
 20
3.1314973003
 30
0.0
 10
4.8335307019
 20
3.131895527
 30
0.0
 10
4.8333973062
 20
3.1322892335
 30
0.0
 10
4.8331186058
 20
3.1326705058
 30
0.0
 10
4.8327025751
 20
3.1330473701
 30
0.0
 10
4.8321490612
 20
3.1334234518
 30
0.0
 10
4.8314576671
 20
3.1337996288
 30
0.0
 10
4.8309430212
 20
3.1340328525
 30
0.0
 10
4.8306638598
 20
3.1341507255
 30
0.0
  0
SPLINE
  5
4E8
100
AcDbEntity
  8
0
100
AcDbSpline
 62
7
  6
CONTINUOUS
 70
0
 71
3
 72
18
 73
14
 74
0
 42
0.0000001
 43
0.0000001
 44
0.0000000001
 40
0.0
 40
0.0
 40
0.0
 40
0.0
 40
0.0286601488
 40
0.0636064325
 40
0.1046597962
 40
0.1515841265
 40
0.2040310473
 40
0.2615965952
 40
0.3903178193
 40
0.5334738258
 40
0.6862728312
 40
0.8436723523
 40
1.0
 40
1.0
 40
1.0
 40
1.0
 10
4.8306638598
 20
3.1341507255
 30
0.0
 10
4.830020938
 20
3.1344221924
 30
0.0
 10
4.8285595747
 20
3.1349423403
 30
0.0
 10
4.8261071131
 20
3.1356385376
 30
0.0
 10
4.8231915894
 20
3.1363203109
 30
0.0
 10
4.8198359769
 20
3.1369802779
 30
0.0
 10
4.8160667949
 20
3.1376127734
 30
0.0
 10
4.8103126675
 20
3.1384425948
 30
0.0
 10
4.802339989
 20
3.1393473178
 30
0.0
 10
4.7920341205
 20
3.1402121215
 30
0.0
 10
4.7810125898
 20
3.1408588976
 30
0.0
 10
4.7696583384
 20
3.1412519438
 30
0.0
 10
4.7620187901
 20
3.141344148
 30
0.0
 10
4.7582121601
 20
3.1413476522
 30
0.0
  0
SPLINE
  5
4E9
100
AcDbEntity
  8
0
100
AcDbSpline
 62
7
  6
CONTINUOUS
 70
0
 71
3
 72
23
 73
19
 74
0
 42
0.0000001
 43
0.0000001
 44
0.0000000001
 40
0.0
 40
0.0
 40
0.0
 40
0.0
 40
0.0572688437
 40
0.1019786985
 40
0.1341929357
 40
0.1457101816
 40
0.1543071401
 40
0.1643136337
 40
0.1760150268
 40
0.1988111276
 40
0.2342379532
 40
0.2827134151
 40
0.3444458329
 40
0.4195788092
 40
0.5082296587
 40
0.6105030481
 40
0.7264968173
 40
1.0
 40
1.0
 40
1.0
 40
1.0
 10
4.1818441301
 20
3.1413476522
 30
0.0
 10
4.1818121287
 20
3.1413473561
 30
0.0
 10
4.1817551477
 20
3.1413462468
 30
0.0
 10
4.1816802485
 20
3.1413414983
 30
0.0
 10
4.1816311938
 20
3.1413357741
 30
0.0
 10
4.1816026161
 20
3.1413282405
 30
0.0
 10
4.1815871574
 20
3.1413231877
 30
0.0
 10
4.1815721106
 20
3.1413079232
 30
0.0
 10
4.1815948419
 20
3.1412865648
 30
0.0
 10
4.1816276827
 20
3.1412713737
 30
0.0
 10
4.1816847185
 20
3.1412493213
 30
0.0
 10
4.1817620831
 20
3.1412259919
 30
0.0
 10
4.1818623183
 20
3.1411989747
 30
0.0
 10
4.1819847306
 20
3.1411693311
 30
0.0
 10
4.182129817
 20
3.1411367038
 30
0.0
 10
4.1822976136
 20
3.1411012276
 30
0.0
 10
4.1825670324
 20
3.1410470264
 30
0.0
 10
4.1827809312
 20
3.1410067112
 30
0.0
 10
4.1829312521
 20
3.140979085
 30
0.0
  0
SPLINE
  5
4EA
100
AcDbEntity
  8
0
100
AcDbSpline
 62
7
  6
CONTINUOUS
 70
0
 71
3
 72
28
 73
24
 74
0
 42
0.0000001
 43
0.0000001
 44
0.0000000001
 40
0.0
 40
0.0
 40
0.0
 40
0.0
 40
0.1106316578
 40
0.2082272319
 40
0.2924200517
 40
0.3628752537
 40
0.4193236494
 40
0.4422572186
 40
0.4616766339
 40
0.4776491867
 40
0.490344337
 40
0.5077521762
 40
0.5154294663
 40
0.5246449881
 40
0.5364695695
 40
0.5514000062
 40
0.5696624217
 40
0.5913630783
 40
0.6452357849
 40
0.7131399215
 40
0.7949911738
 40
0.8906461224
 40
1.0
 40
1.0
 40
1.0
 40
1.0
 10
4.2208785607
 20
3.1413476522
 30
0.0
 10
4.2206135755
 20
3.141347017
 30
0.0
 10
4.2201148218
 20
3.141342349
 30
0.0
 10
4.2194146461
 20
3.1413225825
 30
0.0
 10
4.2188112245
 20
3.1412905355
 30
0.0
 10
4.2183074527
 20
3.1412460575
 30
0.0
 10
4.2179517073
 20
3.1411964857
 30
0.0
 10
4.2177199983
 20
3.1411474049
 30
0.0
 10
4.2175854213
 20
3.1411102956
 30
0.0
 10
4.2174768888
 20
3.1410691741
 30
0.0
 10
4.217380744
 20
3.1410187594
 30
0.0
 10
4.2173091877
 20
3.1409450418
 30
0.0
 10
4.217317292
 20
3.1408589538
 30
0.0
 10
4.2173533916
 20
3.1407989938
 30
0.0
 10
4.2174145652
 20
3.1407377058
 30
0.0
 10
4.2175016982
 20
3.1406737181
 30
0.0
 10
4.2176148798
 20
3.1406065524
 30
0.0
 10
4.2178157016
 20
3.140505343
 30
0.0
 10
4.2181339255
 20
3.1403745481
 30
0.0
 10
4.2185946478
 20
3.1402141913
 30
0.0
 10
4.2191568135
 20
3.1400420635
 30
0.0
 10
4.2198189979
 20
3.1398585581
 30
0.0
 10
4.2202948084
 20
3.1397370845
 30
0.0
 10
4.2205490723
 20
3.139674197
 30
0.0
  0
SPLINE
  5
4EB
100
AcDbEntity
  8
0
100
AcDbSpline
 62
7
  6
CONTINUOUS
 70
0
 71
3
 72
12
 73
8
 74
0
 42
0.0000001
 43
0.0000001
 44
0.0000000001
 40
0.0
 40
0.0
 40
0.0
 40
0.0
 40
0.2783935107
 40
0.553400818
 40
0.8011367663
 40
0.9079770618
 40
1.0
 40
1.0
 40
1.0
 40
1.0
 10
4.2947884408
 20
3.1341507255
 30
0.0
 10
4.2887517835
 20
3.1349406405
 30
0.0
 10
4.2767415071
 20
3.1364323979
 30
0.0
 10
4.2593304606
 20
3.1383851733
 30
0.0
 10
4.2456281678
 20
3.1397378366
 30
0.0
 10
4.2358960738
 20
3.1405592386
 30
0.0
 10
4.231558307
 20
3.1408729043
 30
0.0
 10
4.2295498124
 20
3.1409986491
 30
0.0
  0
LINE
  5
4EC
100
AcDbEntity
  8
0
100
AcDbLine
 62
7
  6
CONTINUOUS
 10
4.2295498124
 20
3.1409986491
 11
4.2232846009
 21
3.141304435
  0
LINE
  5
4ED
100
AcDbEntity
  8
0
100
AcDbLine
 62
7
  6
CONTINUOUS
 10
4.2232846009
 20
3.141304435
 11
4.2208785607
 21
3.1413476522
  0
SPLINE
  5
4EE
100
AcDbEntity
  8
0
100
AcDbSpline
 62
7
  6
CONTINUOUS
 70
0
 71
3
 72
22
 73
18
 74
0
 42
0.0000001
 43
0.0000001
 44
0.0000000001
 40
0.0
 40
0.0
 40
0.0
 40
0.0
 40
0.2108111589
 40
0.2997791324
 40
0.3777273096
 40
0.4447569357
 40
0.5012466861
 40
0.5480397821
 40
0.5866785147
 40
0.6199163298
 40
0.6519886815
 40
0.6875994077
 40
0.7302763466
 40
0.7820286103
 40
0.8439110161
 40
0.9164735151
 40
1.0
 40
1.0
 40
1.0
 40
1.0
 10
4.9914376321
 20
3.1301305486
 30
0.0
 10
4.9922821055
 20
3.1303473709
 30
0.0
 10
4.9934763752
 20
3.1306860605
 30
0.0
 10
4.994947024
 20
3.1312146715
 30
0.0
 10
4.9958381028
 20
3.1315933947
 30
0.0
 10
4.9965792521
 20
3.1319763857
 30
0.0
 10
4.9971697269
 20
3.1323635743
 30
0.0
 10
4.9976103228
 20
3.1327557918
 30
0.0
 10
4.9979016845
 20
3.1331576729
 30
0.0
 10
4.9980334576
 20
3.1335777243
 30
0.0
 10
4.9979850873
 20
3.1340041709
 30
0.0
 10
4.9977646708
 20
3.134412992
 30
0.0
 10
4.9973921344
 20
3.1348061904
 30
0.0
 10
4.9968707427
 20
3.1351921026
 30
0.0
 10
4.9962000078
 20
3.1355730121
 30
0.0
 10
4.9953798621
 20
3.1359491257
 30
0.0
 10
4.9947765217
 20
3.1361798302
 30
0.0
 10
4.994451056
 20
3.1362956086
 30
0.0
  0
SPLINE
  5
4EF
100
AcDbEntity
  8
0
100
AcDbSpline
 62
7
  6
CONTINUOUS
 70
0
 71
3
 72
17
 73
13
 74
0
 42
0.0000001
 43
0.0000001
 44
0.0000000001
 40
0.0
 40
0.0
 40
0.0
 40
0.0
 40
0.032348103
 40
0.0698411832
 40
0.112352315
 40
0.1597323281
 40
0.2682571206
 40
0.3931265945
 40
0.5317430797
 40
0.6813170719
 40
0.8387582998
 40
1.0
 40
1.0
 40
1.0
 40
1.0
 10
4.9940977524
 20
3.1364179948
 30
0.0
 10
4.9935181365
 20
3.1366136109
 30
0.0
 10
4.9922512865
 20
3.136990353
 30
0.0
 10
4.9901872702
 20
3.1374966661
 30
0.0
 10
4.9878273886
 20
3.1379828578
 30
0.0
 10
4.9841307732
 20
3.1386291045
 30
0.0
 10
4.9788675034
 20
3.1393434136
 30
0.0
 10
4.971867117
 20
3.1400504563
 30
0.0
 10
4.9640757246
 20
3.1406210754
 30
0.0
 10
4.9556580345
 20
3.1410388133
 30
0.0
 10
4.94680573
 20
3.1412872946
 30
0.0
 10
4.9407790206
 20
3.1413449065
 30
0.0
 10
4.9377297776
 20
3.1413476523
 30
0.0
  0
LINE
  5
4F0
100
AcDbEntity
  8
0
100
AcDbLine
 62
7
  6
CONTINUOUS
 10
5.6575797801
 20
3.1413476522
 11
5.6458314768
 21
3.1400400625
  0
SPLINE
  5
4F1
100
AcDbEntity
  8
0
100
AcDbSpline
 62
7
  6
CONTINUOUS
 70
0
 71
3
 72
44
 73
40
 74
0
 42
0.0000001
 43
0.0000001
 44
0.0000000001
 40
0.0
 40
0.0
 40
0.0
 40
0.0
 40
0.0630617094
 40
0.1379874965
 40
0.2223008197
 40
0.3132034628
 40
0.4077098
 40
0.5027515735
 40
0.5952780671
 40
0.639669612
 40
0.6823390761
 40
0.722946441
 40
0.7611703717
 40
0.7967054207
 40
0.8292654413
 40
0.858594718
 40
0.884462121
 40
0.9066633992
 40
0.9163340021
 40
0.9250267005
 40
0.932725518
 40
0.9394206876
 40
0.9451072016
 40
0.949786491
 40
0.9534761805
 40
0.9562258137
 40
0.9572880556
 40
0.9581830586
 40
0.9589704052
 40
0.9597353604
 40
0.9605701047
 40
0.9615472858
 40
0.9640901414
 40
0.9675581807
 40
0.9720150141
 40
0.9774857762
 40
0.9839778709
 40
0.991485909
 40
1.0
 40
1.0
 40
1.0
 40
1.0
 10
5.5524874503
 20
3.141308103
 30
0.0
 10
5.5500059882
 20
3.1412543802
 30
0.0
 10
5.5445783229
 20
3.1410415123
 30
0.0
 10
5.5358442614
 20
3.1405155528
 30
0.0
 10
5.5260271697
 20
3.1397654922
 30
0.0
 10
5.5154534883
 20
3.1388156972
 30
0.0
 10
5.5044718066
 20
3.1376971087
 30
0.0
 10
5.4934400805
 20
3.1364464467
 30
0.0
 10
5.4843807224
 20
3.1353133399
 30
0.0
 10
5.4773756995
 20
3.1343687483
 30
0.0
 10
5.472400519
 20
3.1336633514
 30
0.0
 10
5.4676707955
 20
3.1329568951
 30
0.0
 10
5.4632244335
 20
3.132255144
 30
0.0
 10
5.4590972536
 20
3.1315638251
 30
0.0
 10
5.4553225731
 20
3.1308885259
 30
0.0
 10
5.4519308109
 20
3.1302350092
 30
0.0
 10
5.4489494241
 20
3.1296087385
 30
0.0
 10
5.4467357527
 20
3.1290933982
 30
0.0
 10
5.4451898818
 20
3.1286939116
 30
0.0
 10
5.4442017553
 20
3.1284182457
 30
0.0
 10
5.4433325147
 20
3.1281531424
 30
0.0
 10
5.442583847
 20
3.127899274
 30
0.0
 10
5.4419572333
 20
3.1276573916
 30
0.0
 10
5.4414530301
 20
3.1274281173
 30
0.0
 10
5.4410721107
 20
3.1272121334
 30
0.0
 10
5.4408362365
 20
3.1270298786
 30
0.0
 10
5.4407188715
 20
3.1268853149
 30
0.0
 10
5.4406697781
 20
3.1267877807
 30
0.0
 10
5.4406537802
 20
3.1266908587
 30
0.0
 10
5.4406736707
 20
3.1265968727
 30
0.0
 10
5.4407276824
 20
3.1265092149
 30
0.0
 10
5.4408525497
 20
3.1263899866
 30
0.0
 10
5.4410987507
 20
3.1262593814
 30
0.0
 10
5.4414895001
 20
3.1261280272
 30
0.0
 10
5.4420042333
 20
3.1260101262
 30
0.0
 10
5.4426423104
 20
3.1259064514
 30
0.0
 10
5.4434037207
 20
3.1258176058
 30
0.0
 10
5.4442868909
 20
3.1257439127
 30
0.0
 10
5.4449165108
 20
3.1257073786
 30
0.0
 10
5.4452512226
 20
3.1256911336
 30
0.0
  0
LINE
  5
4F2
100
AcDbEntity
  8
0
100
AcDbLine
 62
7
  6
CONTINUOUS
 10
5.4452512226
 20
3.1256911336
 11
5.4477676203
 21
3.1256178574
  0
SPLINE
  5
4F3
100
AcDbEntity
  8
0
100
AcDbSpline
 62
7
  6
CONTINUOUS
 70
0
 71
3
 72
26
 73
22
 74
0
 42
0.0000001
 43
0.0000001
 44
0.0000000001
 40
0.0
 40
0.0
 40
0.0
 40
0.0
 40
0.1023657963
 40
0.1911547949
 40
0.2663472296
 40
0.3279934354
 40
0.3762913221
 40
0.4118080431
 40
0.4252665302
 40
0.4363998233
 40
0.4460416398
 40
0.4554420251
 40
0.4659468379
 40
0.4785607144
 40
0.5121995745
 40
0.5588242174
 40
0.619310814
 40
0.6940080955
 40
0.7826710385
 40
0.8848373496
 40
1.0
 40
1.0
 40
1.0
 40
1.0
 10
5.5602284691
 20
3.1383385419
 30
0.0
 10
5.5605805838
 20
3.1384354084
 30
0.0
 10
5.5612362292
 20
3.1386232799
 30
0.0
 10
5.5621418472
 20
3.1389116357
 30
0.0
 10
5.5628988636
 20
3.1391857234
 30
0.0
 10
5.5635073395
 20
3.1394445844
 30
0.0
 10
5.5639661698
 20
3.1396874029
 30
0.0
 10
5.5642508634
 20
3.1398914634
 30
0.0
 10
5.5643926567
 20
3.1400538116
 30
0.0
 10
5.5644514396
 20
3.1401625339
 30
0.0
 10
5.564469853
 20
3.1402712446
 30
0.0
 10
5.564443444
 20
3.1403762428
 30
0.0
 10
5.5643754085
 20
3.1404725515
 30
0.0
 10
5.5642191914
 20
3.1406035535
 30
0.0
 10
5.5639146257
 20
3.1407439865
 30
0.0
 10
5.563432136
 20
3.1408834488
 30
0.0
 10
5.5627941727
 20
3.1410055647
 30
0.0
 10
5.5620021896
 20
3.1411092573
 30
0.0
 10
5.5610585322
 20
3.1411945637
 30
0.0
 10
5.5599688398
 20
3.1412613381
 30
0.0
 10
5.5591940411
 20
3.1412917163
 30
0.0
 10
5.5587833888
 20
3.141304435
 30
0.0
  0
LINE
  5
4F4
100
AcDbEntity
  8
0
100
AcDbLine
 62
7
  6
CONTINUOUS
 10
5.6278137905
 20
3.1413476522
 11
5.6201913156
 21
3.1410118379
  0
SPLINE
  5
4F5
100
AcDbEntity
  8
0
100
AcDbSpline
 62
7
  6
CONTINUOUS
 70
0
 71
3
 72
12
 73
8
 74
0
 42
0.0000001
 43
0.0000001
 44
0.0000000001
 40
0.0
 40
0.0
 40
0.0
 40
0.0
 40
0.0883384464
 40
0.1915171876
 40
0.433587099
 40
0.7095824001
 40
1.0
 40
1.0
 40
1.0
 40
1.0
 10
5.6201913156
 20
3.1410118379
 30
0.0
 10
5.6185231609
 20
3.1409001481
 30
0.0
 10
5.6149087576
 20
3.1406260225
 30
0.0
 10
5.6067332169
 20
3.1399181435
 30
0.0
 10
5.5950322318
 20
3.1387609162
 30
0.0
 10
5.5798231823
 20
3.1370811848
 30
0.0
 10
5.5691794544
 20
3.13580389
 30
0.0
 10
5.5637252416
 20
3.135123952
 30
0.0
  0
SPLINE
  5
4F6
100
AcDbEntity
  8
0
100
AcDbSpline
 62
7
  6
CONTINUOUS
 70
0
 71
3
 72
24
 73
20
 74
0
 42
0.0000001
 43
0.0000001
 44
0.0000000001
 40
0.0
 40
0.0
 40
0.0
 40
0.0
 40
0.2150726607
 40
0.3738521346
 40
0.4322947632
 40
0.4770004064
 40
0.5084787153
 40
0.5197156628
 40
0.5285205879
 40
0.5359121896
 40
0.5435458365
 40
0.5529962679
 40
0.5651878118
 40
0.5994080205
 40
0.6480789263
 40
0.7119914518
 40
0.7916720272
 40
0.8875476079
 40
1.0
 40
1.0
 40
1.0
 40
1.0
 10
5.6275859141
 20
3.1400220526
 30
0.0
 10
5.6279796161
 20
3.1401162962
 30
0.0
 10
5.6286619647
 20
3.140288644
 30
0.0
 10
5.6294423255
 20
3.1405210879
 30
0.0
 10
5.6299039723
 20
3.140695629
 30
0.0
 10
5.630133464
 20
3.1408028184
 30
0.0
 10
5.6302744958
 20
3.1408906437
 30
0.0
 10
5.6303426156
 20
3.1409603687
 30
0.0
 10
5.6303688994
 20
3.1410059484
 30
0.0
 10
5.6303728822
 20
3.1410526162
 30
0.0
 10
5.6303513018
 20
3.1410954048
 30
0.0
 10
5.6303091436
 20
3.141132027
 30
0.0
 10
5.630216124
 20
3.1411820526
 30
0.0
 10
5.6300426884
 20
3.141231539
 30
0.0
 10
5.6297702923
 20
3.1412775619
 30
0.0
 10
5.6294097804
 20
3.1413127966
 30
0.0
 10
5.6289596552
 20
3.1413370319
 30
0.0
 10
5.628417602
 20
3.141349378
 30
0.0
 10
5.6280254492
 20
3.1413493782
 30
0.0
 10
5.6278137905
 20
3.1413476522
 30
0.0
  0
SPLINE
  5
4F7
100
AcDbEntity
  8
0
100
AcDbSpline
 62
7
  6
CONTINUOUS
 70
0
 71
3
 72
19
 73
15
 74
0
 42
0.0000001
 43
0.0000001
 44
0.0000000001
 40
0.0
 40
0.0
 40
0.0
 40
0.0
 40
0.0600489032
 40
0.1202140915
 40
0.241066353
 40
0.3019231383
 40
0.3631145137
 40
0.4246846015
 40
0.4866713134
 40
0.6119674063
 40
0.7392317741
 40
0.8685477083
 40
0.9340144293
 40
1.0
 40
1.0
 40
1.0
 40
1.0
 10
3.7237176813
 20
3.0200325835
 30
0.0
 10
3.7298876287
 20
3.0202966761
 30
0.0
 10
3.7422267978
 20
3.0212221221
 30
0.0
 10
3.7667918706
 20
3.024657318
 30
0.0
 10
3.7910611161
 20
3.030467598
 30
0.0
 10
3.8147140283
 20
3.0385398849
 30
0.0
 10
3.832183395
 20
3.0457443582
 30
0.0
 10
3.8492814012
 20
3.054057897
 30
0.0
 10
3.8715902724
 20
3.0666265393
 30
0.0
 10
3.8982962894
 20
3.0850274854
 30
0.0
 10
3.9279053462
 20
3.110951686
 30
0.0
 10
3.9502675215
 20
3.1354832022
 30
0.0
 10
3.9666730261
 20
3.1567103399
 30
0.0
 10
3.9743577512
 20
3.167842424
 30
0.0
 10
3.9780649409
 20
3.1735264758
 30
0.0
  0
SPLINE
  5
4F8
100
AcDbEntity
  8
0
100
AcDbSpline
 62
7
  6
CONTINUOUS
 70
0
 71
3
 72
17
 73
13
 74
0
 42
0.0000001
 43
0.0000001
 44
0.0000000001
 40
0.0
 40
0.0
 40
0.0
 40
0.0
 40
0.224443178
 40
0.4196309522
 40
0.5855103652
 40
0.7221387978
 40
0.8297868878
 40
0.8729812783
 40
0.9093395741
 40
0.9392470467
 40
0.9633999198
 40
1.0
 40
1.0
 40
1.0
 40
1.0
 10
5.6204890201
 20
3.1325764133
 30
0.0
 10
5.6206591305
 20
3.1325764158
 30
0.0
 10
5.620977195
 20
3.1325736688
 30
0.0
 10
5.6214207758
 20
3.1325592174
 30
0.0
 10
5.6217973172
 20
3.132534946
 30
0.0
 10
5.6221064041
 20
3.1325009061
 30
0.0
 10
5.6223212886
 20
3.1324627524
 30
0.0
 10
5.6224581726
 20
3.1324249344
 30
0.0
 10
5.6225361655
 20
3.1323964056
 30
0.0
 10
5.6225974655
 20
3.1323649017
 30
0.0
 10
5.6226527151
 20
3.1323244012
 30
0.0
 10
5.6226776082
 20
3.1322790502
 30
0.0
 10
5.6226776216
 20
3.1322513102
 30
0.0
  0
SPLINE
  5
4F9
100
AcDbEntity
  8
0
100
AcDbSpline
 62
7
  6
CONTINUOUS
 70
0
 71
3
 72
13
 73
9
 74
0
 42
0.0000001
 43
0.0000001
 44
0.0000000001
 40
0.0
 40
0.0
 40
0.0
 40
0.0
 40
0.1296353123
 40
0.2523638123
 40
0.3667806587
 40
0.476877219
 40
0.7227785702
 40
1.0
 40
1.0
 40
1.0
 40
1.0
 10
5.6278135346
 20
3.1413489287
 30
0.0
 10
5.6272825252
 20
3.1412723475
 30
0.0
 10
5.6262605299
 20
3.1410207196
 30
0.0
 10
5.6248752337
 20
3.1403807112
 30
0.0
 10
5.6236897437
 20
3.1395560417
 30
0.0
 10
5.6222884188
 20
3.1381946081
 30
0.0
 10
5.6208964062
 20
3.1359114639
 30
0.0
 10
5.6204849705
 20
3.1337237765
 30
0.0
 10
5.6204854233
 20
3.1325764799
 30
0.0
  0
SPLINE
  5
4FA
100
AcDbEntity
  8
0
100
AcDbSpline
 62
7
  6
CONTINUOUS
 70
0
 71
3
 72
19
 73
15
 74
0
 42
0.0000001
 43
0.0000001
 44
0.0000000001
 40
0.0
 40
0.0
 40
0.0
 40
0.0
 40
0.221815574
 40
0.4160160449
 40
0.5820749992
 40
0.7195627733
 40
0.7775200703
 40
0.8282838385
 40
0.8719170413
 40
0.9086157341
 40
0.9387519602
 40
0.9629983326
 40
0.9826375598
 40
1.0
 40
1.0
 40
1.0
 40
1.0
 10
5.5493182002
 20
3.1325765646
 30
0.0
 10
5.549882936
 20
3.1325765957
 30
0.0
 10
5.5509421456
 20
3.1325669925
 30
0.0
 10
5.5524234693
 20
3.1325174342
 30
0.0
 10
5.5536882108
 20
3.1324342893
 30
0.0
 10
5.5546036281
 20
3.1323334525
 30
0.0
 10
5.5552222479
 20
3.1322313009
 30
0.0
 10
5.5556018985
 20
3.1321509709
 30
0.0
 10
5.5559240265
 20
3.1320626166
 30
0.0
 10
5.5561887307
 20
3.1319663598
 30
0.0
 10
5.5563967221
 20
3.1318621407
 30
0.0
 10
5.5565491486
 20
3.1317490256
 30
0.0
 10
5.5566465147
 20
3.1316233087
 30
0.0
 10
5.5566692167
 20
3.1315280743
 30
0.0
 10
5.5566692721
 20
3.1314838701
 30
0.0
  0
SPLINE
  5
4FB
100
AcDbEntity
  8
0
100
AcDbSpline
 62
7
  6
CONTINUOUS
 70
0
 71
3
 72
13
 73
9
 74
0
 42
0.0000001
 43
0.0000001
 44
0.0000000001
 40
0.0
 40
0.0
 40
0.0
 40
0.0
 40
0.1225695234
 40
0.2402106072
 40
0.3517564829
 40
0.4609862453
 40
0.711219335
 40
1.0
 40
1.0
 40
1.0
 40
1.0
 10
5.5558998763
 20
3.1413500165
 30
0.0
 10
5.5554208052
 20
3.1412728434
 30
0.0
 10
5.5544954779
 20
3.1410176124
 30
0.0
 10
5.5532508412
 20
3.1403744149
 30
0.0
 10
5.5521874639
 20
3.1395481197
 30
0.0
 10
5.5509190042
 20
3.1381719114
 30
0.0
 10
5.5496758508
 20
3.1358725081
 30
0.0
 10
5.549317473
 20
3.1337197512
 30
0.0
 10
5.5493179397
 20
3.1325764819
 30
0.0
  0
SPLINE
  5
4FC
100
AcDbEntity
  8
0
100
AcDbSpline
 62
7
  6
CONTINUOUS
 70
0
 71
3
 72
19
 73
15
 74
0
 42
0.0000001
 43
0.0000001
 44
0.0000000001
 40
0.0
 40
0.0
 40
0.0
 40
0.0
 40
0.1922587064
 40
0.3718212499
 40
0.5346267122
 40
0.6770931865
 40
0.7397534534
 40
0.7962709526
 40
0.84641444
 40
0.8899946162
 40
0.9269345528
 40
0.9573014108
 40
0.98138043
 40
1.0
 40
1.0
 40
1.0
 40
1.0
 10
5.1140551838
 20
3.1325764754
 30
0.0
 10
5.1165926967
 20
3.132576479
 30
0.0
 10
5.1215003946
 20
3.1325207148
 30
0.0
 10
5.1285526717
 20
3.1322584085
 30
0.0
 10
5.1349381928
 20
3.1318268318
 30
0.0
 10
5.1397694547
 20
3.131318101
 30
0.0
 10
5.1431870125
 20
3.1308195011
 30
0.0
 10
5.1453875489
 20
3.1304272128
 30
0.0
 10
5.1473253555
 20
3.1300036741
 30
0.0
 10
5.1489905193
 20
3.1295511643
 30
0.0
 10
5.1503751576
 20
3.1290731591
 30
0.0
 10
5.1514755224
 20
3.1285715996
 30
0.0
 10
5.1522903415
 20
3.1280497303
 30
0.0
 10
5.1526880019
 20
3.1276337384
 30
0.0
 10
5.1528145788
 20
3.1274230944
 30
0.0
  0
LINE
  5
4FD
100
AcDbEntity
  8
0
100
AcDbLine
 62
7
  6
CONTINUOUS
 10
5.1528145788
 20
3.1274230944
 11
5.1530012038
 21
3.1267947853
  0
SPLINE
  5
4FE
100
AcDbEntity
  8
0
100
AcDbSpline
 62
7
  6
CONTINUOUS
 70
0
 71
3
 72
15
 73
11
 74
0
 42
0.0000001
 43
0.0000001
 44
0.0000000001
 40
0.0
 40
0.0
 40
0.0
 40
0.0
 40
0.0630290888
 40
0.1013856936
 40
0.1439691179
 40
0.2386807543
 40
0.3460903826
 40
0.4771723069
 40
0.6328403401
 40
1.0
 40
1.0
 40
1.0
 40
1.0
 10
5.1160966302
 20
3.1413489287
 30
0.0
 10
5.115924546
 20
3.1412598858
 30
0.0
 10
5.1156951447
 20
3.1410309883
 30
0.0
 10
5.1154492385
 20
3.1406646043
 30
0.0
 10
5.1151957521
 20
3.1401862069
 30
0.0
 10
5.1149237053
 20
3.1394829389
 30
0.0
 10
5.1146464247
 20
3.1384958625
 30
0.0
 10
5.1144059252
 20
3.1373072524
 30
0.0
 10
5.1141325915
 20
3.1353148576
 30
0.0
 10
5.1140540706
 20
3.1337051586
 30
0.0
 10
5.114054199
 20
3.1325764799
 30
0.0
  0
SPLINE
  5
4FF
100
AcDbEntity
  8
0
100
AcDbSpline
 62
7
  6
CONTINUOUS
 70
0
 71
3
 72
22
 73
18
 74
0
 42
0.0000001
 43
0.0000001
 44
0.0000000001
 40
0.0
 40
0.0
 40
0.0
 40
0.0
 40
0.1823545694
 40
0.3577923768
 40
0.5207172905
 40
0.6660195913
 40
0.7305862073
 40
0.7891617291
 40
0.8413560611
 40
0.8649469581
 40
0.8868109514
 40
0.9252838075
 40
0.9567611453
 40
0.9699301634
 40
0.9814478928
 40
0.991413682
 40
1.0
 40
1.0
 40
1.0
 40
1.0
 10
4.9375298104
 20
3.1325765646
 30
0.0
 10
4.940725077
 20
3.132576654
 30
0.0
 10
4.9469947415
 20
3.1324927535
 30
0.0
 10
4.9561125298
 20
3.1321191331
 30
0.0
 10
4.9645668493
 20
3.1315092023
 30
0.0
 10
4.9710631227
 20
3.1308039408
 30
0.0
 10
4.9757173644
 20
3.1301194276
 30
0.0
 10
4.9787431011
 20
3.129583865
 30
0.0
 10
4.981046099
 20
3.1290914912
 30
0.0
 10
4.9827056931
 20
3.128674341
 30
0.0
 10
4.9841218189
 20
3.128277139
 30
0.0
 10
4.9856508635
 20
3.1277735274
 30
0.0
 10
4.9869934898
 20
3.1272000545
 30
0.0
 10
4.9878528796
 20
3.1267185714
 30
0.0
 10
4.9883547879
 20
3.1263748875
 30
0.0
 10
4.9887526121
 20
3.126027294
 30
0.0
 10
4.9889614792
 20
3.1257751267
 30
0.0
 10
4.9890434534
 20
3.1256489682
 30
0.0
  0
LINE
  5
500
100
AcDbEntity
  8
0
100
AcDbLine
 62
7
  6
CONTINUOUS
 10
4.9890434534
 20
3.1256489682
 11
4.9892867281
 21
3.1248942802
  0
LINE
  5
501
100
AcDbEntity
  8
0
100
AcDbLine
 62
7
  6
CONTINUOUS
 10
4.8828875073
 20
3.129279721
 11
4.8808784364
 21
3.1297374792
  0
SPLINE
  5
502
100
AcDbEntity
  8
0
100
AcDbSpline
 62
7
  6
CONTINUOUS
 70
0
 71
3
 72
22
 73
18
 74
0
 42
0.0000001
 43
0.0000001
 44
0.0000000001
 40
0.0
 40
0.0
 40
0.0
 40
0.0
 40
0.2138991591
 40
0.304568857
 40
0.3843504481
 40
0.4533545425
 40
0.5119147445
 40
0.5607349738
 40
0.6011169744
 40
0.6354427114
 40
0.6675397689
 40
0.7019995636
 40
0.7426126331
 40
0.7917124013
 40
0.850582918
 40
0.9199081663
 40
1.0
 40
1.0
 40
1.0
 40
1.0
 10
4.8808784364
 20
3.1297374792
 30
0.0
 10
4.8800415853
 20
3.1299446213
 30
0.0
 10
4.8788561922
 20
3.130269037
 30
0.0
 10
4.8773918934
 20
3.1307761559
 30
0.0
 10
4.8764978217
 20
3.1311411863
 30
0.0
 10
4.8757475629
 20
3.131511352
 30
0.0
 10
4.8751418518
 20
3.1318863172
 30
0.0
 10
4.8746802589
 20
3.1322665862
 30
0.0
 10
4.8743622743
 20
3.1326556069
 30
0.0
 10
4.8741942707
 20
3.1330614764
 30
0.0
 10
4.8741953415
 20
3.133479265
 30
0.0
 10
4.8743653267
 20
3.1338857923
 30
0.0
 10
4.8746849984
 20
3.1342766525
 30
0.0
 10
4.8751482401
 20
3.1346600557
 30
0.0
 10
4.8757557005
 20
3.1350391314
 30
0.0
 10
4.8765076117
 20
3.1354144281
 30
0.0
 10
4.8770643416
 20
3.1356451509
 30
0.0
 10
4.8773655555
 20
3.1357612249
 30
0.0
  0
SPLINE
  5
503
100
AcDbEntity
  8
0
100
AcDbSpline
 62
7
  6
CONTINUOUS
 70
0
 71
3
 72
17
 73
13
 74
0
 42
0.0000001
 43
0.0000001
 44
0.0000000001
 40
0.0
 40
0.0
 40
0.0
 40
0.0
 40
0.0301526151
 40
0.0658859599
 40
0.1070842856
 40
0.1535651138
 40
0.2613583084
 40
0.386855632
 40
0.527073367
 40
0.6785738261
 40
0.837556382
 40
1.0
 40
1.0
 40
1.0
 40
1.0
 10
4.8773655555
 20
3.1357612249
 30
0.0
 10
4.8779358674
 20
3.1359809971
 30
0.0
 10
4.8792044164
 20
3.1364031145
 30
0.0
 10
4.8813011476
 20
3.1369672137
 30
0.0
 10
4.8837434272
 20
3.137511661
 30
0.0
 10
4.8876382417
 20
3.1382423599
 30
0.0
 10
4.8932530918
 20
3.1390541909
 30
0.0
 10
4.9007823438
 20
3.1398586592
 30
0.0
 10
4.9092152709
 20
3.1405094595
 30
0.0
 10
4.9183391714
 20
3.1409886901
 30
0.0
 10
4.927921572
 20
3.141281164
 30
0.0
 10
4.9344370545
 20
3.1413483983
 30
0.0
 10
4.9377297776
 20
3.1413476523
 30
0.0
  0
LINE
  5
504
100
AcDbEntity
  8
0
100
AcDbLine
 62
7
  6
CONTINUOUS
 10
4.9377297667
 20
3.1413500162
 11
4.9375298029
 21
3.1325764837
  0
SPLINE
  5
505
100
AcDbEntity
  8
0
100
AcDbSpline
 62
7
  6
CONTINUOUS
 70
0
 71
3
 72
25
 73
21
 74
0
 42
0.0000001
 43
0.0000001
 44
0.0000000001
 40
0.0
 40
0.0
 40
0.0
 40
0.0
 40
0.176346233
 40
0.3525272762
 40
0.4379332513
 40
0.5201751182
 40
0.5982399477
 40
0.6712444488
 40
0.7383897524
 40
0.7988927805
 40
0.8521099653
 40
0.8975796234
 40
0.9172871464
 40
0.9349216038
 40
0.950470904
 40
0.9639666901
 40
0.9754763821
 40
0.9851270072
 40
0.9931563482
 40
1.0
 40
1.0
 40
1.0
 40
1.0
 10
4.759865554
 20
3.1325765646
 30
0.0
 10
4.7637614359
 20
3.1325766763
 30
0.0
 10
4.7715499851
 20
3.1324445101
 30
0.0
 10
4.7812153627
 20
3.1319771891
 30
0.0
 10
4.7887911411
 20
3.1314195218
 30
0.0
 10
4.7941973083
 20
3.1309259067
 30
0.0
 10
4.7993206017
 20
3.1303575477
 30
0.0
 10
4.8040998329
 20
3.1297221873
 30
0.0
 10
4.8084787251
 20
3.1290292193
 30
0.0
 10
4.8124056902
 20
3.1282868585
 30
0.0
 10
4.8158351498
 20
3.127503777
 30
0.0
 10
4.8183556894
 20
3.1267984373
 30
0.0
 10
4.8200884463
 20
3.1262100092
 30
0.0
 10
4.8211777706
 20
3.1257859491
 30
0.0
 10
4.8221171948
 20
3.1253589392
 30
0.0
 10
4.8229051213
 20
3.1249303708
 30
0.0
 10
4.8235410325
 20
3.1245012223
 30
0.0
 10
4.8240248477
 20
3.1240707746
 30
0.0
 10
4.8243566128
 20
3.1236369436
 30
0.0
 10
4.824477083
 20
3.1233235449
 30
0.0
 10
4.8245027601
 20
3.1231745497
 30
0.0
  0
SPLINE
  5
506
100
AcDbEntity
  8
0
100
AcDbSpline
 62
7
  6
CONTINUOUS
 70
0
 71
3
 72
16
 73
12
 74
0
 42
0.0000001
 43
0.0000001
 44
0.0000000001
 40
0.0
 40
0.0
 40
0.0
 40
0.0
 40
0.0263202919
 40
0.0578150668
 40
0.0945666856
 40
0.1361092254
 40
0.2299678325
 40
0.3376030091
 40
0.469776239
 40
0.627332288
 40
1.0
 40
1.0
 40
1.0
 40
1.0
 10
4.7582122162
 20
3.1413489287
 30
0.0
 10
4.7582793595
 20
3.1413060321
 30
0.0
 10
4.758410569
 20
3.1411865624
 30
0.0
 10
4.7585792794
 20
3.1409541497
 30
0.0
 10
4.7587381155
 20
3.1406613861
 30
0.0
 10
4.7589434469
 20
3.1401818821
 30
0.0
 10
4.7591633987
 20
3.1394781456
 30
0.0
 10
4.7593873701
 20
3.1384926711
 30
0.0
 10
4.7595818769
 20
3.1373048669
 30
0.0
 10
4.7598032374
 20
3.1353113546
 30
0.0
 10
4.7598665603
 20
3.133704615
 30
0.0
 10
4.7598664647
 20
3.1325764799
 30
0.0
  0
SPLINE
  5
507
100
AcDbEntity
  8
0
100
AcDbSpline
 62
7
  6
CONTINUOUS
 70
0
 71
3
 72
30
 73
26
 74
0
 42
0.0000001
 43
0.0000001
 44
0.0000000001
 40
0.0
 40
0.0
 40
0.0
 40
0.0
 40
0.0531302942
 40
0.1163984434
 40
0.1882376927
 40
0.2667524027
 40
0.3499189023
 40
0.4356194579
 40
0.5216719008
 40
0.6059343693
 40
0.6863222675
 40
0.7608317042
 40
0.8276726215
 40
0.8851550154
 40
0.9099574542
 40
0.9319313676
 40
0.9509308633
 40
0.9668491943
 40
0.9736370852
 40
0.9796387275
 40
0.9848541199
 40
0.9892889222
 40
0.9929593453
 40
0.9959031139
 40
1.0
 40
1.0
 40
1.0
 40
1.0
 10
4.3077195005
 20
3.1325765652
 30
0.0
 10
4.3094748227
 20
3.1325766551
 30
0.0
 10
4.3133203392
 20
3.1324885705
 30
0.0
 10
4.3195320471
 20
3.1321789922
 30
0.0
 10
4.3265725884
 20
3.1316813406
 30
0.0
 10
4.3342587038
 20
3.1310103452
 30
0.0
 10
4.3423898205
 20
3.1301812114
 30
0.0
 10
4.3507566361
 20
3.1292162469
 30
0.0
 10
4.3591464164
 20
3.1281403283
 30
0.0
 10
4.3673477677
 20
3.1269803487
 30
0.0
 10
4.3751557395
 20
3.125767255
 30
0.0
 10
4.3823766965
 20
3.1245301298
 30
0.0
 10
4.3888304537
 20
3.1233027745
 30
0.0
 10
4.3936484106
 20
3.1222690147
 30
0.0
 10
4.3969963257
 20
3.1214582211
 30
0.0
 10
4.3990972767
 20
3.1209020001
 30
0.0
 10
4.4009005146
 20
3.1203707972
 30
0.0
 10
4.4022072484
 20
3.1199319537
 30
0.0
 10
4.4030923569
 20
3.1195906538
 30
0.0
 10
4.4036394454
 20
3.1193568687
 30
0.0
 10
4.4041053666
 20
3.1191315509
 30
0.0
 10
4.4044889207
 20
3.1189162112
 30
0.0
 10
4.4047916463
 20
3.118707881
 30
0.0
 10
4.4050529818
 20
3.1184761894
 30
0.0
 10
4.4051890592
 20
3.1182561915
 30
0.0
 10
4.4051892587
 20
3.1181208384
 30
0.0
  0
SPLINE
  5
508
100
AcDbEntity
  8
0
100
AcDbSpline
 62
7
  6
CONTINUOUS
 70
0
 71
3
 72
13
 73
9
 74
0
 42
0.0000001
 43
0.0000001
 44
0.0000000001
 40
0.0
 40
0.0
 40
0.0
 40
0.0
 40
0.1204363411
 40
0.2365647303
 40
0.3472837294
 40
0.4562702038
 40
0.7078043253
 40
1.0
 40
1.0
 40
1.0
 40
1.0
 10
4.3013496192
 20
3.1413489285
 30
0.0
 10
4.3018141505
 20
3.1412718976
 30
0.0
 10
4.3027124949
 20
3.1410160174
 30
0.0
 10
4.3039176832
 20
3.140372329
 30
0.0
 10
4.3049467867
 20
3.1395458845
 30
0.0
 10
4.3061775893
 20
3.1381656733
 30
0.0
 10
4.3073789961
 20
3.1358623997
 30
0.0
 10
4.3077232951
 20
3.1337188889
 30
0.0
 10
4.3077229069
 20
3.1325764799
 30
0.0
  0
SPLINE
  5
509
100
AcDbEntity
  8
0
100
AcDbSpline
 62
7
  6
CONTINUOUS
 70
0
 71
3
 72
16
 73
12
 74
0
 42
0.0000001
 43
0.0000001
 44
0.0000000001
 40
0.0
 40
0.0
 40
0.0
 40
0.0
 40
0.029123451
 40
0.0653146107
 40
0.1081885536
 40
0.1573414546
 40
0.2722561485
 40
0.4051415231
 40
0.5504402889
 40
0.7021329031
 40
1.0
 40
1.0
 40
1.0
 40
1.0
 10
4.22807945
 20
3.1325765646
 30
0.0
 10
4.2287722115
 20
3.1325766227
 30
0.0
 10
4.2303257917
 20
3.1325388894
 30
0.0
 10
4.2328961907
 20
3.1324105347
 30
0.0
 10
4.2359392217
 20
3.1322033118
 30
0.0
 10
4.2408454582
 20
3.1318018717
 30
0.0
 10
4.2478757
 20
3.1311113621
 30
0.0
 10
4.257167779
 20
3.1300644753
 30
0.0
 10
4.2673153517
 20
3.1288025214
 30
0.0
 10
4.2813386616
 20
3.1269129249
 30
0.0
 10
4.2919166225
 20
3.1253370326
 30
0.0
 10
4.2989121946
 20
3.1242124682
 30
0.0
  0
SPLINE
  5
50A
100
AcDbEntity
  8
0
100
AcDbSpline
 62
7
  6
CONTINUOUS
 70
0
 71
3
 72
13
 73
9
 74
0
 42
0.0000001
 43
0.0000001
 44
0.0000000001
 40
0.0
 40
0.0
 40
0.0
 40
0.0
 40
0.1285120452
 40
0.2504250154
 40
0.3643754324
 40
0.4743220709
 40
0.7209033971
 40
1.0
 40
1.0
 40
1.0
 40
1.0
 10
4.2208788079
 20
3.1413489287
 30
0.0
 10
4.22140119
 20
3.1412722987
 30
0.0
 10
4.2224071374
 20
3.1410202033
 30
0.0
 10
4.2237691763
 20
3.1403797513
 30
0.0
 10
4.224934471
 20
3.1395548283
 30
0.0
 10
4.2263139433
 20
3.1381909998
 30
0.0
 10
4.2276813477
 20
3.1359048679
 30
0.0
 10
4.2280837337
 20
3.1337231068
 30
0.0
 10
4.2280832918
 20
3.1325764799
 30
0.0
  0
SPLINE
  5
50B
100
AcDbEntity
  8
0
100
AcDbSpline
 62
7
  6
CONTINUOUS
 70
0
 71
3
 72
17
 73
13
 74
0
 42
0.0000001
 43
0.0000001
 44
0.0000000001
 40
0.0
 40
0.0
 40
0.0
 40
0.0
 40
0.0149451443
 40
0.0369624356
 40
0.0659834774
 40
0.1019132821
 40
0.1939380326
 40
0.311680321
 40
0.4533951417
 40
0.6169884293
 40
0.8000702264
 40
1.0
 40
1.0
 40
1.0
 40
1.0
 10
4.1894483196
 20
3.1325765339
 30
0.0
 10
4.1895813145
 20
3.1325765362
 30
0.0
 10
4.1899100925
 20
3.1325609152
 30
0.0
 10
4.1904955803
 20
3.1325170369
 30
0.0
 10
4.1912662493
 20
3.1324455251
 30
0.0
 10
4.1926557257
 20
3.1323016709
 30
0.0
 10
4.1948278167
 20
3.1320511149
 30
0.0
 10
4.1979321156
 20
3.1316684397
 30
0.0
 10
4.2016659433
 20
3.1311873788
 30
0.0
 10
4.2059742261
 20
3.1306150991
 30
0.0
 10
4.2107940487
 20
3.1299597463
 30
0.0
 10
4.214170176
 20
3.1294920097
 30
0.0
 10
4.2159322377
 20
3.1292460209
 30
0.0
  0
LINE
  5
50C
100
AcDbEntity
  8
0
100
AcDbLine
 62
7
  6
CONTINUOUS
 10
4.1818441301
 20
3.1413476522
 11
4.1920533615
 21
3.1404019435
  0
LINE
  5
50D
100
AcDbEntity
  8
0
100
AcDbLine
 62
7
  6
CONTINUOUS
 10
4.1920533615
 20
3.1404019435
 11
4.2237106582
 21
3.1366877079
  0
SPLINE
  5
50E
100
AcDbEntity
  8
0
100
AcDbSpline
 62
7
  6
CONTINUOUS
 70
0
 71
3
 72
13
 73
9
 74
0
 42
0.0000001
 43
0.0000001
 44
0.0000000001
 40
0.0
 40
0.0
 40
0.0
 40
0.0
 40
0.1340633713
 40
0.2612673248
 40
0.4917396879
 40
0.7305733471
 40
0.8620985037
 40
1.0
 40
1.0
 40
1.0
 40
1.0
 10
4.1818444073
 20
3.1413490537
 30
0.0
 10
4.1823433627
 20
3.141279707
 30
0.0
 10
4.1833064757
 20
3.1410605542
 30
0.0
 10
4.1850200749
 20
3.1403515706
 30
0.0
 10
4.1868712416
 20
3.1390272047
 30
0.0
 10
4.1882562012
 20
3.1371965369
 30
0.0
 10
4.1890240703
 20
3.1354400191
 30
0.0
 10
4.1892671446
 20
3.134450711
 30
0.0
 10
4.1893467941
 20
3.1339386957
 30
0.0
  0
SPLINE
  5
50F
100
AcDbEntity
  8
0
100
AcDbSpline
 62
7
  6
CONTINUOUS
 70
0
 71
3
 72
18
 73
14
 74
0
 42
0.0000001
 43
0.0000001
 44
0.0000000001
 40
0.0
 40
0.0
 40
0.0
 40
0.0
 40
0.1689636894
 40
0.3292411512
 40
0.4771305595
 40
0.6104467341
 40
0.6712616545
 40
0.7280897104
 40
0.8299744772
 40
0.8757857046
 40
0.91884756
 40
0.9599345981
 40
1.0
 40
1.0
 40
1.0
 40
1.0
 10
3.5586326041
 20
3.0999827647
 30
0.0
 10
3.5576614935
 20
3.0975146379
 30
0.0
 10
3.5559544072
 20
3.0926296034
 30
0.0
 10
3.5540803289
 20
3.0853678672
 30
0.0
 10
3.5530056205
 20
3.0785095
 30
0.0
 10
3.5527879145
 20
3.0731281126
 30
0.0
 10
3.5530742894
 20
3.0691943585
 30
0.0
 10
3.5536104679
 20
3.0657889468
 30
0.0
 10
3.5545507734
 20
3.0626846416
 30
0.0
 10
3.5559755788
 20
3.0600407057
 30
0.0
 10
3.5572036339
 20
3.0584008439
 30
0.0
 10
3.558622809
 20
3.0570498223
 30
0.0
 10
3.5596969587
 20
3.0563492168
 30
0.0
 10
3.5602531795
 20
3.0560556772
 30
0.0
  0
SPLINE
  5
510
100
AcDbEntity
  8
0
100
AcDbSpline
 62
7
  6
CONTINUOUS
 70
0
 71
3
 72
26
 73
22
 74
0
 42
0.0000001
 43
0.0000001
 44
0.0000000001
 40
0.0
 40
0.0
 40
0.0
 40
0.0
 40
0.03305149
 40
0.0659071373
 40
0.1310296437
 40
0.1954112135
 40
0.2590907852
 40
0.3221175091
 40
0.384554842
 40
0.4464880601
 40
0.508016271
 40
0.5692499754
 40
0.6303116452
 40
0.691324186
 40
0.7524144974
 40
0.7830381355
 40
0.8137313822
 40
0.8445117555
 40
0.8753942686
 40
0.9374746632
 40
1.0
 40
1.0
 40
1.0
 40
1.0
 10
3.8934027782
 20
3.1796407389
 30
0.0
 10
3.8908714741
 20
3.1763760224
 30
0.0
 10
3.8856965227
 20
3.1699632565
 30
0.0
 10
3.8749089458
 20
3.157636298
 30
0.0
 10
3.8606374228
 20
3.1431754901
 30
0.0
 10
3.8423161859
 20
3.127407188
 30
0.0
 10
3.8229619251
 20
3.1133645054
 30
0.0
 10
3.8026992553
 20
3.1011301847
 30
0.0
 10
3.7816493222
 20
3.0907895557
 30
0.0
 10
3.7599433237
 20
3.0824139217
 30
0.0
 10
3.7377211782
 20
3.0760473132
 30
0.0
 10
3.7151197734
 20
3.0717424139
 30
0.0
 10
3.692284691
 20
3.0695157899
 30
0.0
 10
3.6693604209
 20
3.0693766519
 30
0.0
 10
3.6503118782
 20
3.0710067344
 30
0.0
 10
3.635188476
 20
3.0733505139
 30
0.0
 10
3.6239012393
 20
3.0756311758
 30
0.0
 10
3.6126986809
 20
3.0784331236
 30
0.0
 10
3.5978762515
 20
3.0828662352
 30
0.0
 10
3.5796450897
 20
3.0896723061
 30
0.0
 10
3.5655519056
 20
3.0963499124
 30
0.0
 10
3.5586325386
 20
3.0999826339
 30
0.0
  0
SPLINE
  5
511
100
AcDbEntity
  8
0
100
AcDbSpline
 62
7
  6
CONTINUOUS
 70
0
 71
3
 72
23
 73
19
 74
0
 42
0.0000001
 43
0.0000001
 44
0.0000000001
 40
0.0
 40
0.0
 40
0.0
 40
0.0
 40
0.0593249222
 40
0.1200290111
 40
0.1821044895
 40
0.2455035575
 40
0.3100097647
 40
0.3753180488
 40
0.4410830388
 40
0.5069055473
 40
0.5723732903
 40
0.6371052168
 40
0.700784969
 40
0.7632099036
 40
0.824259288
 40
0.8839395569
 40
0.9424497456
 40
1.0
 40
1.0
 40
1.0
 40
1.0
 10
3.5586325386
 20
3.0999826339
 30
0.0
 10
3.5564186798
 20
3.1011815642
 30
0.0
 10
3.5521247282
 20
3.1039669316
 30
0.0
 10
3.5463568966
 20
3.1091588816
 30
0.0
 10
3.5413975294
 20
3.1153526392
 30
0.0
 10
3.5373476543
 20
3.1223574683
 30
0.0
 10
3.5342968272
 20
3.1299979262
 30
0.0
 10
3.5323101746
 20
3.1380842212
 30
0.0
 10
3.5314541253
 20
3.1464225317
 30
0.0
 10
3.5317332512
 20
3.1548066026
 30
0.0
 10
3.5331537412
 20
3.1630301019
 30
0.0
 10
3.5356689164
 20
3.1708930692
 30
0.0
 10
3.5392342458
 20
3.1781969383
 30
0.0
 10
3.5437466539
 20
3.1847698831
 30
0.0
 10
3.5491052845
 20
3.1904449138
 30
0.0
 10
3.5551882692
 20
3.195074733
 30
0.0
 10
3.5618547683
 20
3.1984987042
 30
0.0
 10
3.5665772301
 20
3.1999889301
 30
0.0
 10
3.5689592869
 20
3.2005282366
 30
0.0
  0
SPLINE
  5
512
100
AcDbEntity
  8
0
100
AcDbSpline
 62
7
  6
CONTINUOUS
 70
0
 71
3
 72
13
 73
9
 74
0
 42
0.0000001
 43
0.0000001
 44
0.0000000001
 40
0.0
 40
0.0
 40
0.0
 40
0.0
 40
0.2498059108
 40
0.3745366582
 40
0.4992203326
 40
0.6240032686
 40
0.7490307877
 40
1.0
 40
1.0
 40
1.0
 40
1.0
 10
3.5689592869
 20
3.2005282366
 30
0.0
 10
3.5781554212
 20
3.202506156
 30
0.0
 10
3.5921425047
 20
3.2046431638
 30
0.0
 10
3.6109160974
 20
3.2057546904
 30
0.0
 10
3.625016047
 20
3.2057121402
 30
0.0
 10
3.6390973759
 20
3.2047952793
 30
0.0
 10
3.6578106303
 20
3.2024056184
 30
0.0
 10
3.6716751035
 20
3.199319644
 30
0.0
 10
3.6807613567
 20
3.1967221352
 30
0.0
  0
SPLINE
  5
513
100
AcDbEntity
  8
0
100
AcDbSpline
 62
7
  6
CONTINUOUS
 70
0
 71
3
 72
20
 73
16
 74
0
 42
0.0000001
 43
0.0000001
 44
0.0000000001
 40
0.0
 40
0.0
 40
0.0
 40
0.0
 40
0.1634522174
 40
0.3209065302
 40
0.3959999982
 40
0.4681414264
 40
0.602250264
 40
0.6638427653
 40
0.7215811097
 40
0.7754549978
 40
0.8256621807
 40
0.8725712097
 40
0.9167341934
 40
0.9589110976
 40
1.0
 40
1.0
 40
1.0
 40
1.0
 10
3.5689597066
 20
3.2005261496
 30
0.0
 10
3.5684628541
 20
3.2035181439
 30
0.0
 10
3.5677537719
 20
3.2094400043
 30
0.0
 10
3.5675695855
 20
3.2167988009
 30
0.0
 10
3.5678887552
 20
3.2224466086
 30
0.0
 10
3.5684815684
 20
3.2276348771
 30
0.0
 10
3.5694956783
 20
3.232520097
 30
0.0
 10
3.5709865105
 20
3.2369851533
 30
0.0
 10
3.5722669699
 20
3.2399381796
 30
0.0
 10
3.5737345902
 20
3.2425643429
 30
0.0
 10
3.5753775803
 20
3.2448424874
 30
0.0
 10
3.5771840855
 20
3.2467542986
 30
0.0
 10
3.5791447706
 20
3.2482787622
 30
0.0
 10
3.5812417168
 20
3.2493966535
 30
0.0
 10
3.5827241976
 20
3.2498675353
 30
0.0
 10
3.5834692937
 20
3.2500291999
 30
0.0
  0
SPLINE
  5
514
100
AcDbEntity
  8
0
100
AcDbSpline
 62
7
  6
CONTINUOUS
 70
0
 71
3
 72
18
 73
14
 74
0
 42
0.0000001
 43
0.0000001
 44
0.0000000001
 40
0.0
 40
0.0
 40
0.0
 40
0.0
 40
0.1689636912
 40
0.3292411425
 40
0.4771305346
 40
0.6104466944
 40
0.6712616099
 40
0.7280896637
 40
0.8299744369
 40
0.875785672
 40
0.9188475376
 40
0.959934587
 40
1.0
 40
1.0
 40
1.0
 40
1.0
 10
3.5586326004
 20
3.0999827646
 30
0.0
 10
3.5576614926
 20
3.0975146411
 30
0.0
 10
3.5559544115
 20
3.0926296134
 30
0.0
 10
3.5540803397
 20
3.0853678879
 30
0.0
 10
3.5530056362
 20
3.0785095314
 30
0.0
 10
3.5527879329
 20
3.0731281528
 30
0.0
 10
3.5530743091
 20
3.0691944052
 30
0.0
 10
3.5536104882
 20
3.0657889989
 30
0.0
 10
3.5545507933
 20
3.0626846988
 30
0.0
 10
3.5559755974
 20
3.0600407669
 30
0.0
 10
3.557203651
 20
3.0584009074
 30
0.0
 10
3.5586228242
 20
3.0570498875
 30
0.0
 10
3.5596969724
 20
3.0563492827
 30
0.0
 10
3.5602531923
 20
3.0560557432
 30
0.0
  0
SPLINE
  5
515
100
AcDbEntity
  8
0
100
AcDbSpline
 62
7
  6
CONTINUOUS
 70
0
 71
3
 72
17
 73
13
 74
0
 42
0.0000001
 43
0.0000001
 44
0.0000000001
 40
0.0
 40
0.0
 40
0.0
 40
0.0
 40
0.017535371
 40
0.0372032245
 40
0.0613212809
 40
0.0911859173
 40
0.1705106199
 40
0.2779110357
 40
0.414335094
 40
0.5802171666
 40
0.7755894078
 40
1.0
 40
1.0
 40
1.0
 40
1.0
 10
4.2250318349
 20
3.1321235426
 30
0.0
 10
4.2250318919
 20
3.1321420812
 30
0.0
 10
4.2250411702
 20
3.1321818353
 30
0.0
 10
4.2250811579
 20
3.1322344711
 30
0.0
 10
4.2251437998
 20
3.1322816939
 30
0.0
 10
4.2252699794
 20
3.1323455151
 30
0.0
 10
4.2254909364
 20
3.1324104987
 30
0.0
 10
4.2258272455
 20
3.1324711347
 30
0.0
 10
4.226258126
 20
3.132518506
 30
0.0
 10
4.2267832662
 20
3.1325523808
 30
0.0
 10
4.2274022115
 20
3.1325722583
 30
0.0
 10
4.2278460294
 20
3.1325759504
 30
0.0
 10
4.2280832796
 20
3.1325758722
 30
0.0
  0
SPLINE
  5
516
100
AcDbEntity
  8
0
100
AcDbSpline
 62
7
  6
CONTINUOUS
 70
0
 71
3
 72
19
 73
15
 74
0
 42
0.0000001
 43
0.0000001
 44
0.0000000001
 40
0.0
 40
0.0
 40
0.0
 40
0.0
 40
0.0172687636
 40
0.036862185
 40
0.0611448126
 40
0.0914177078
 40
0.1283254495
 40
0.1721656604
 40
0.223080502
 40
0.2811313399
 40
0.4186630224
 40
0.5846345574
 40
0.7786899901
 40
1.0
 40
1.0
 40
1.0
 40
1.0
 10
4.298893524
 20
3.1312654916
 30
0.0
 10
4.2988934087
 20
3.1313182862
 30
0.0
 10
4.2989204981
 20
3.1314323219
 30
0.0
 10
4.2990377543
 20
3.1315826827
 30
0.0
 10
4.2992216563
 20
3.1317179911
 30
0.0
 10
4.299472972
 20
3.1318426353
 30
0.0
 10
4.299792763
 20
3.1319578116
 30
0.0
 10
4.3001814064
 20
3.1320637566
 30
0.0
 10
4.3006386805
 20
3.1321603172
 30
0.0
 10
4.3013823773
 20
3.1322832338
 30
0.0
 10
4.3024817048
 20
3.132404927
 30
0.0
 10
4.3039998169
 20
3.1325053462
 30
0.0
 10
4.3057763618
 20
3.1325647969
 30
0.0
 10
4.3070462897
 20
3.1325760072
 30
0.0
 10
4.3077228869
 20
3.1325758721
 30
0.0
  0
SPLINE
  5
517
100
AcDbEntity
  8
0
100
AcDbSpline
 62
7
  6
CONTINUOUS
 70
0
 71
3
 72
19
 73
15
 74
0
 42
0.0000001
 43
0.0000001
 44
0.0000000001
 40
0.0
 40
0.0
 40
0.0
 40
0.0
 40
0.066040401
 40
0.1315412204
 40
0.1964950364
 40
0.2609082614
 40
0.3881044629
 40
0.513297559
 40
0.5752332289
 40
0.6367583342
 40
0.6979166716
 40
0.7587588518
 40
0.8796566298
 40
1.0
 40
1.0
 40
1.0
 40
1.0
 10
3.9724119239
 20
3.1773532704
 30
0.0
 10
3.9686937195
 20
3.1714333561
 30
0.0
 10
3.9609654387
 20
3.1598404802
 30
0.0
 10
3.9484757607
 20
3.1431948112
 30
0.0
 10
3.9351768052
 20
3.1274108906
 30
0.0
 10
3.9165082301
 20
3.1076689086
 30
0.0
 10
3.8913690867
 20
3.0853484414
 30
0.0
 10
3.8639402517
 20
3.0663556627
 30
0.0
 10
3.840979069
 20
3.0534569578
 30
0.0
 10
3.8233606438
 20
3.0449692391
 30
0.0
 10
3.8053433929
 20
3.0376662477
 30
0.0
 10
3.7809254335
 20
3.029563362
 30
0.0
 10
3.7496470547
 20
3.0224695732
 30
0.0
 10
3.7241279818
 20
3.0201584082
 30
0.0
 10
3.7113926611
 20
3.0198520017
 30
0.0
  0
SPLINE
  5
518
100
AcDbEntity
  8
0
100
AcDbSpline
 62
7
  6
CONTINUOUS
 70
0
 71
3
 72
14
 73
10
 74
0
 42
0.0000001
 43
0.0000001
 44
0.0000000001
 40
0.0
 40
0.0
 40
0.0
 40
0.0
 40
0.0719959933
 40
0.1512842013
 40
0.2440804677
 40
0.3543490977
 40
0.4842691067
 40
0.6349139632
 40
1.0
 40
1.0
 40
1.0
 40
1.0
 10
4.7182218112
 20
3.1263942805
 30
0.0
 10
4.7182217561
 20
3.1265258102
 30
0.0
 10
4.7182729045
 20
3.1268040849
 30
0.0
 10
4.7184937424
 20
3.1271981056
 30
0.0
 10
4.7188489305
 20
3.1275770276
 30
0.0
 10
4.7193363409
 20
3.1279444132
 30
0.0
 10
4.7199554601
 20
3.1283026137
 30
0.0
 10
4.7210259355
 20
3.1288004874
 30
0.0
 10
4.7219196127
 20
3.129107135
 30
0.0
 10
4.7225576589
 20
3.1293014422
 30
0.0
  0
SPLINE
  5
519
100
AcDbEntity
  8
0
100
AcDbSpline
 62
7
  6
CONTINUOUS
 70
0
 71
3
 72
14
 73
10
 74
0
 42
0.0000001
 43
0.0000001
 44
0.0000000001
 40
0.0
 40
0.0
 40
0.0
 40
0.0
 40
0.0772434477
 40
0.1708618111
 40
0.2797652841
 40
0.4026018518
 40
0.5379141693
 40
0.6838958566
 40
1.0
 40
1.0
 40
1.0
 40
1.0
 10
4.7225576589
 20
3.1293014422
 30
0.0
 10
4.7234824539
 20
3.1295830743
 30
0.0
 10
4.7255608107
 20
3.1300979542
 30
0.0
 10
4.7290063691
 20
3.1307269492
 30
0.0
 10
4.7330419442
 20
3.1312786795
 30
0.0
 10
4.7376128346
 20
3.1317435844
 30
0.0
 10
4.7426578346
 20
3.1321119889
 30
0.0
 10
4.7501259765
 20
3.132478342
 30
0.0
 10
4.75591028
 20
3.1325763191
 30
0.0
 10
4.7598664297
 20
3.1325758722
 30
0.0
  0
SPLINE
  5
51A
100
AcDbEntity
  8
0
100
AcDbSpline
 62
7
  6
CONTINUOUS
 70
0
 71
3
 72
25
 73
21
 74
0
 42
0.0000001
 43
0.0000001
 44
0.0000000001
 40
0.0
 40
0.0
 40
0.0
 40
0.0
 40
0.0070834341
 40
0.0149162014
 40
0.0240272688
 40
0.0347491799
 40
0.0472793468
 40
0.0617309835
 40
0.0781541642
 40
0.0965657636
 40
0.139332143
 40
0.1898776055
 40
0.2478393662
 40
0.3127633875
 40
0.3840770795
 40
0.4611402117
 40
0.5432283963
 40
0.6295594258
 40
0.8115569519
 40
1.0
 40
1.0
 40
1.0
 40
1.0
 10
4.8829886095
 20
3.1244950891
 30
0.0
 10
4.8829901826
 20
3.1246277564
 30
0.0
 10
4.8830435113
 20
3.1249080683
 30
0.0
 10
4.883259634
 20
3.1253085092
 30
0.0
 10
4.8836037706
 20
3.1257001252
 30
0.0
 10
4.8840737333
 20
3.1260859262
 30
0.0
 10
4.8846694707
 20
3.1264673897
 30
0.0
 10
4.8853907203
 20
3.1268442622
 30
0.0
 10
4.8862361916
 20
3.1272162752
 30
0.0
 10
4.8875962356
 20
3.1277305727
 30
0.0
 10
4.8896000609
 20
3.1283408396
 30
0.0
 10
4.8923544683
 20
3.1290093568
 30
0.0
 10
4.8955422504
 20
3.129638653
 30
0.0
 10
4.8991332842
 20
3.1302213595
 30
0.0
 10
4.9030936363
 20
3.1307515035
 30
0.0
 10
4.9073848873
 20
3.1312230194
 30
0.0
 10
4.9119650613
 20
3.1316310465
 30
0.0
 10
4.9185126331
 20
3.1320924089
 30
0.0
 10
4.9270612185
 20
3.1324746078
 30
0.0
 10
4.9340001623
 20
3.1325764895
 30
0.0
 10
4.9375298027
 20
3.1325764837
 30
0.0
  0
SPLINE
  5
51B
100
AcDbEntity
  8
0
100
AcDbSpline
 62
7
  6
CONTINUOUS
 70
0
 71
3
 72
14
 73
10
 74
0
 42
0.0000001
 43
0.0000001
 44
0.0000000001
 40
0.0
 40
0.0
 40
0.0
 40
0.0
 40
0.0746608196
 40
0.1571172682
 40
0.2524419601
 40
0.3638827691
 40
0.4934115475
 40
0.6422230395
 40
1.0
 40
1.0
 40
1.0
 40
1.0
 10
5.0467022691
 20
3.1225816853
 30
0.0
 10
5.0467025514
 20
3.1227001843
 30
0.0
 10
5.0467457089
 20
3.1229506648
 30
0.0
 10
5.046925862
 20
3.1233130395
 30
0.0
 10
5.0472155441
 20
3.1236725056
 30
0.0
 10
5.0476129127
 20
3.1240312061
 30
0.0
 10
5.0481178294
 20
3.1243904658
 30
0.0
 10
5.0489893795
 20
3.1249018848
 30
0.0
 10
5.0497238916
 20
3.1252345397
 30
0.0
 10
5.050249184
 20
3.1254502345
 30
0.0
  0
SPLINE
  5
51C
100
AcDbEntity
  8
0
100
AcDbSpline
 62
7
  6
CONTINUOUS
 70
0
 71
3
 72
18
 73
14
 74
0
 42
0.0000001
 43
0.0000001
 44
0.0000000001
 40
0.0
 40
0.0
 40
0.0
 40
0.0
 40
0.0323474857
 40
0.0705209129
 40
0.1143260271
 40
0.1635183708
 40
0.2177224297
 40
0.2765036455
 40
0.4060020816
 40
0.547921556
 40
0.6975335333
 40
0.8499200985
 40
1.0
 40
1.0
 40
1.0
 40
1.0
 10
5.050249184
 20
3.1254502345
 30
0.0
 10
5.0508918893
 20
3.1257141412
 30
0.0
 10
5.0523193765
 20
3.1262253433
 30
0.0
 10
5.0546757185
 20
3.1269190643
 30
0.0
 10
5.0574111021
 20
3.1275969098
 30
0.0
 10
5.0605047198
 20
3.1282516839
 30
0.0
 10
5.0639315861
 20
3.1288785087
 30
0.0
 10
5.0690755419
 20
3.1296964663
 30
0.0
 10
5.0761126372
 20
3.1305928859
 30
0.0
 10
5.0851162562
 20
3.131449969
 30
0.0
 10
5.0946308273
 20
3.1320879338
 30
0.0
 10
5.1043338217
 20
3.1324829108
 30
0.0
 10
5.1108306721
 20
3.1325762413
 30
0.0
 10
5.1140541766
 20
3.1325758722
 30
0.0
  0
SPLINE
  5
51D
100
AcDbEntity
  8
0
100
AcDbSpline
 62
7
  6
CONTINUOUS
 70
0
 71
3
 72
30
 73
26
 74
0
 42
0.0000001
 43
0.0000001
 44
0.0000000001
 40
0.0
 40
0.0
 40
0.0
 40
0.0
 40
0.0038932122
 40
0.0067983183
 40
0.010467504
 40
0.0149370315
 40
0.0202206989
 40
0.0263226708
 40
0.0332420836
 40
0.0495098875
 40
0.0689379092
 40
0.0914119053
 40
0.1167954466
 40
0.1756040447
 40
0.2438546989
 40
0.3197867572
 40
0.4014417169
 40
0.4867175915
 40
0.5734072779
 40
0.6592484544
 40
0.7419789143
 40
0.8193951769
 40
0.8894175512
 40
0.9501600192
 40
1.0
 40
1.0
 40
1.0
 40
1.0
 10
5.4503724919
 20
3.1179002749
 30
0.0
 10
5.4503725961
 20
3.11803075
 30
0.0
 10
5.4505200701
 20
3.1182411485
 30
0.0
 10
5.4507869408
 20
3.1184590769
 30
0.0
 10
5.4511014472
 20
3.118659687
 30
0.0
 10
5.4514996942
 20
3.1188678551
 30
0.0
 10
5.4519842583
 20
3.1190870642
 30
0.0
 10
5.4525536427
 20
3.1193155601
 30
0.0
 10
5.4534763362
 20
3.119650937
 30
0.0
 10
5.4548377304
 20
3.1200842097
 30
0.0
 10
5.4567145334
 20
3.1206123265
 30
0.0
 10
5.458900077
 20
3.121168379
 30
0.0
 10
5.462381101
 20
3.1219823227
 30
0.0
 10
5.4673828192
 20
3.1230265565
 30
0.0
 10
5.4740704969
 20
3.1242753619
 30
0.0
 10
5.4815331554
 20
3.1255392196
 30
0.0
 10
5.4895767065
 20
3.1267847613
 30
0.0
 10
5.4979923477
 20
3.1279787841
 30
0.0
 10
5.5065608418
 20
3.1290896876
 30
0.0
 10
5.5150573056
 20
3.1300879637
 30
0.0
 10
5.5232565865
 20
3.1309469798
 30
0.0
 10
5.5309390948
 20
3.1316437073
 30
0.0
 10
5.5378972829
 20
3.1321600661
 30
0.0
 10
5.5439417517
 20
3.1324827398
 30
0.0
 10
5.5476476279
 20
3.1325764872
 30
0.0
 10
5.5493179396
 20
3.1325764819
 30
0.0
  0
SPLINE
  5
51E
100
AcDbEntity
  8
0
100
AcDbSpline
 62
7
  6
CONTINUOUS
 70
0
 71
3
 72
16
 73
12
 74
0
 42
0.0000001
 43
0.0000001
 44
0.0000000001
 40
0.0
 40
0.0
 40
0.0
 40
0.0
 40
0.3186057878
 40
0.4729047664
 40
0.6169063594
 40
0.7457319261
 40
0.8549103268
 40
0.9009089371
 40
0.9406639674
 40
0.9738010224
 40
1.0
 40
1.0
 40
1.0
 40
1.0
 10
5.5594317135
 20
3.1254502345
 30
0.0
 10
5.5658898087
 20
3.1264212662
 30
0.0
 10
5.575486646
 20
3.1277900672
 30
0.0
 10
5.5880248136
 20
3.129432258
 30
0.0
 10
5.5967152995
 20
3.1304952262
 30
0.0
 10
5.6044970339
 20
3.1313665565
 30
0.0
 10
5.610290507
 20
3.1319393509
 30
0.0
 10
5.6142725287
 20
3.1322700995
 30
0.0
 10
5.616703697
 20
3.1324400479
 30
0.0
 10
5.6187321966
 20
3.1325452736
 30
0.0
 10
5.6199483979
 20
3.1325760813
 30
0.0
 10
5.6204854169
 20
3.1325758722
 30
0.0
  0
LINE
  5
51F
100
AcDbEntity
  8
0
100
AcDbLine
 62
7
  6
CONTINUOUS
 10
5.6227070652
 20
3.1288213486
 11
5.6260325047
 21
3.1293014422
  0
LINE
  5
520
100
AcDbEntity
  8
0
100
AcDbLine
 62
7
  6
CONTINUOUS
 10
5.6260325047
 20
3.1293014422
 11
5.630554436
 21
3.1299505556
  0
LINE
  5
521
100
AcDbEntity
  8
0
100
AcDbLine
 62
7
  6
CONTINUOUS
 10
5.630554436
 20
3.1299505556
 11
5.6499439365
 21
3.1325758722
  0
LINE
  5
522
100
AcDbEntity
  8
0
100
AcDbLine
 62
7
  6
CONTINUOUS
 10
5.6568239611
 20
3.1411812236
 11
5.657515139
 21
3.141304435
  0
LINE
  5
523
100
AcDbEntity
  8
0
100
AcDbLine
 62
7
  6
CONTINUOUS
 10
5.657515139
 20
3.141304435
 11
5.6576208175
 21
3.1413434699
  0
ENDSEC
  0
SECTION
  2
OBJECTS
  0
DICTIONARY
  5
C
100
AcDbDictionary
280
0
281
1
  3
ACAD_GROUP
350
D
  3
ACAD_MLINESTYLE
350
17
  3
ACAD_LAYOUT
350
1A
  3
ACAD_PLOTSETTINGS
350
19
  3
ACAD_PLOTSTYLENAME
350
E
  0
DICTIONARY
  5
D
102
{ACAD_REACTORS
330
C
102
}
100
AcDbDictionary
280
0
281
1
  0
ACDBDICTIONARYWDFLT
  5
E
102
{ACAD_REACTORS
330
C
102
}
100
AcDbDictionary
281
1
  3
Normal
350
F
100
AcDbDictionaryWithDefault
340
F
  0
DICTIONARY
  5
17
102
{ACAD_REACTORS
330
C
102
}
100
AcDbDictionary
280
0
281
1
  3
Standard
350
18
  0
DICTIONARY
  5
19
102
{ACAD_REACTORS
330
C
102
}
100
AcDbDictionary
281
1
  0
DICTIONARY
  5
1A
102
{ACAD_REACTORS
330
C
102
}
100
AcDbDictionary
281
1
  3
Model
350
524
  3
Layout1
350
525
  0
ACDBPLACEHOLDER
  5
F
102
{ACAD_REACTORS
330
E
102
}
  0
MLINESTYLE
  5
18
102
{ACAD_REACTORS
330
17
102
}
100
AcDbMlineStyle
  2
STANDARD
 70
0
  3

 62
256
 51
90.0
 52
90.0
 71
2
 49
0.5
 62
256
  6
BYLAYER
 49
-0.5
 62
256
  6
BYLAYER
  0
LAYOUT
  5
524
102
{ACAD_REACTORS
330
1A
102
}
100
AcDbPlotSettings
  1

  2
none_device
  4
ANSI_A_(11.00_x_8.50_Inches)
  6

 40
0.0
 41
0.0
 42
0.0
 43
0.0
 44
279.4
 45
215.9
 46
0.0
 47
0.0
 48
0.0
 49
0.0
140
0.0
141
0.0
142
1.0
143
1.0
 70
1024
 72
0
 73
0
 74
0
  7

 75
0
147
1.0
148
0.0
149
0.0
100
AcDbLayout
  1
Model
 70
0
 71
0
 10
0.0
 20
0.0
 11
11.0
 21
8.5
 12
0.0
 22
0.0
 32
0.0
 14
0.0
 24
0.0
 34
0.0
 15
0.0
 25
0.0
 35
0.0
146
0.0
 13
0.0
 23
0.0
 33
0.0
 16
1.0
 26
0.0
 36
0.0
 17
0.0
 27
1.0
 37
0.0
 76
0
330
248
345
0
346
0
  0
LAYOUT
  5
525
102
{ACAD_REACTORS
330
1A
102
}
100
AcDbPlotSettings
  1

  2
none_device
  4
ANSI_A_(11.00_x_8.50_Inches)
  6

 40
0.0
 41
0.0
 42
0.0
 43
0.0
 44
279.4
 45
215.9
 46
0.0
 47
0.0
 48
0.0
 49
0.0
140
0.0
141
0.0
142
1.0
143
1.0
 70
0
 72
0
 73
0
 74
0
  7

 75
0
147
1.0
148
0.0
149
0.0
100
AcDbLayout
  1
Layout1
 70
0
 71
1
 10
0.0
 20
0.0
 11
11.0
 21
8.5
 12
0.0
 22
0.0
 32
0.0
 14
0.0
 24
0.0
 34
0.0
 15
0.0
 25
0.0
 35
0.0
146
0.0
 13
0.0
 23
0.0
 33
0.0
 16
1.0
 26
0.0
 36
0.0
 17
0.0
 27
1.0
 37
0.0
 76
0
330
249
345
0
346
0
  0
ENDSEC
  0
EOF
