999
DXF file: 283-4_right.dxf
999
Pro/ENGINEER 2019352 by Parametric Technology Corporation
  0
SECTION
  2
HEADER
  9
$ACADVER
  1
AC1032
  9
$DWGCODEPAGE
  3
ANSI_1252
  9
$EXTMAX
 10
11.0
 20
8.5
 30
0.0
  9
$EXTMIN
 10
0.0
 20
0.0
 30
0.0
  9
$LIMMIN
 10
0.0
 20
0.0
  9
$LIMMAX
 10
11.0
 20
8.5
  9
$VIEWCTR
 10
5.5
 20
4.25
  9
$VIEWSIZE
 40
8.5
  9
$CLAYER
  8
0
  9
$LTSCALE
 40
0.605
  9
$CELTYPE
  6
BYLAYER
  9
$DIMSCALE
 40
1.0
  9
$DIMASZ
 40
0.1
  9
$DIMEXO
 40
0.0625
  9
$DIMDLI
 40
0.418
  9
$DIMEXE
 40
0.125
  9
$DIMCEN
 40
0.099
  9
$DIMLFAC
 40
1.0
  9
$DIMBLK
  1
_FILLED
  9
$DIMALT
 70
1
  9
$DIMALTD
 70
2
  9
$DIMALTTD
 70
2
  9
$DIMALTF
 40
25.4
  9
$DIMTXT
 40
0.08
  9
$DIMTOL
 70
1
  9
$DIMLIM
 70
0
  9
$DIMTFAC
 40
1.0
  9
$DIMTP
 40
0.001
  9
$DIMTM
 40
0.001
  9
$DIMGAP
 40
0.09
  9
$DIMDSEP
 70
46
  9
$AUNITS
 70
0
  9
$PDMODE
 70
3
  9
$PDSIZE
 40
0.3125
  9
$HANDSEED
  5
2EA
  9
$TILEMODE
 70
1
  9
$MEASUREMENT
 70
0
  9
$INSUNITS
 70
1
  0
ENDSEC
  0
SECTION
  2
CLASSES
  0
CLASS
  1
ACDBDICTIONARYWDFLT
  2
AcDbDictionaryWithDefault
  3
AutoCAD 2000
 90
0
 91
1
280
0
281
0
  0
CLASS
  1
ACDBPLACEHOLDER
  2
AcDbPlaceHolder
  3
AutoCAD 2000
 90
0
 91
1
280
0
281
0
  0
CLASS
  1
LAYOUT
  2
AcDbLayout
  3
AutoCAD 2000
 90
0
 91
0
280
0
281
0
  0
ENDSEC
  0
SECTION
  2
TABLES
  0
TABLE
  2
VPORT
  5
8
100
AcDbSymbolTable
 70
2
  0
VPORT
  5
1F4
100
AcDbSymbolTableRecord
100
AcDbViewportTableRecord
  2
*ACTIVE
 70
0
 10
0.0
 20
0.0
 11
1.0
 21
1.0
 12
5.5
 22
4.25
 13
0.0
 23
0.0
 14
1.0
 24
1.0
 15
0.0
 25
0.0
 16
0.0
 26
0.0
 36
1.0
 17
0.0
 27
0.0
 37
0.0
 40
8.5
 41
1.2941176471
 42
50.0
 43
0.0
 44
0.0
 50
0.0
 51
0.0
 71
0
 72
100
 73
1
 74
1
 75
0
 76
0
 77
0
 78
0
  0
ENDTAB
  0
TABLE
  2
LTYPE
  5
5
100
AcDbSymbolTable
 70
6
  0
LTYPE
  5
14
100
AcDbSymbolTableRecord
100
AcDbLinetypeTableRecord
  2
BYBLOCK
 70
0
  3

 72
65
 73
0
 40
0.0
  0
LTYPE
  5
15
100
AcDbSymbolTableRecord
100
AcDbLinetypeTableRecord
  2
BYLAYER
 70
0
  3

 72
65
 73
0
 40
0.0
  0
LTYPE
  5
16
100
AcDbSymbolTableRecord
100
AcDbLinetypeTableRecord
  2
CONTINUOUS
 70
64
  3
Solid line
 72
65
 73
0
 40
0.0
  0
LTYPE
  5
1F5
100
AcDbSymbolTableRecord
100
AcDbLinetypeTableRecord
  2
CENTER
 70
64
  3
____ _ ____ _ ____ _ ____ _ ____ _ ____ _ ____
 72
65
 73
4
 40
0.6
 49
0.375
 74
0
 49
-0.075
 74
0
 49
0.075
 74
0
 49
-0.075
 74
0
  0
LTYPE
  5
1F6
100
AcDbSymbolTableRecord
100
AcDbLinetypeTableRecord
  2
HIDDEN
 70
64
  3
- - - - - - - - - - - - - - - - - - - -
 72
65
 73
2
 40
0.2
 49
0.1
 74
0
 49
-0.1
 74
0
  0
LTYPE
  5
1F7
100
AcDbSymbolTableRecord
100
AcDbLinetypeTableRecord
  2
PHANTOM
 70
64
  3
_____ _ _ _____ _ _ _____ _ _ _____
 72
65
 73
6
 40
0.8
 49
0.45
 74
0
 49
-0.05
 74
0
 49
0.1
 74
0
 49
-0.05
 74
0
 49
0.1
 74
0
 49
-0.05
 74
0
  0
LTYPE
  5
1F8
100
AcDbSymbolTableRecord
100
AcDbLinetypeTableRecord
  2
DOT
 70
64
  3
. . . . . . . . . . . . . . . . . . . .
 72
65
 73
2
 40
0.2
 49
0.1
 74
0
 49
-0.1
 74
0
  0
LTYPE
  5
1F9
100
AcDbSymbolTableRecord
100
AcDbLinetypeTableRecord
  2
DASHED
 70
64
  3
- - - - - - - - - - - - - - - - - - - -
 72
65
 73
2
 40
0.2
 49
0.1
 74
0
 49
-0.1
 74
0
  0
ENDTAB
  0
TABLE
  2
LAYER
  5
2
100
AcDbSymbolTable
 70
36
  0
LAYER
  5
10
100
AcDbSymbolTableRecord
100
AcDbLayerTableRecord
  2
0
 70
0
 62
7
  6
CONTINUOUS
370
-3
390
F
  0
LAYER
  5
1FA
100
AcDbSymbolTableRecord
100
AcDbLayerTableRecord
  2
DEFAULT_1
 70
0
 62
7
  6
CENTER
370
-3
390
F
  0
LAYER
  5
1FB
100
AcDbSymbolTableRecord
100
AcDbLayerTableRecord
  2
DEFAULT_2
 70
0
 62
8
  6
HIDDEN
370
-3
390
F
  0
LAYER
  5
1FC
100
AcDbSymbolTableRecord
100
AcDbLayerTableRecord
  2
DEFAULT_3
 70
0
 62
7
  6
PHANTOM
370
-3
390
F
  0
LAYER
  5
1FD
100
AcDbSymbolTableRecord
100
AcDbLayerTableRecord
  2
DEFAULT_COORDINATE_SYSTEM
 70
0
 62
7
  6
CONTINUOUS
370
-3
390
F
  0
LAYER
  5
1FE
100
AcDbSymbolTableRecord
100
AcDbLayerTableRecord
  2
DEFAULT_DATUM_AXES
 70
0
 62
7
  6
CONTINUOUS
370
-3
390
F
  0
LAYER
  5
1FF
100
AcDbSymbolTableRecord
100
AcDbLayerTableRecord
  2
DEFAULT_DATUM_PLANES
 70
0
 62
7
  6
CONTINUOUS
370
-3
390
F
  0
ENDTAB
  0
TABLE
  2
STYLE
  5
3
100
AcDbSymbolTable
 70
1
  0
STYLE
  5
11
100
AcDbSymbolTableRecord
100
AcDbTextStyleTableRecord
  2
STANDARD
 70
0
 40
0.0
 41
0.8
 50
0.0
 71
0
 42
0.2
  3
txt
  4

  0
STYLE
  5
200
100
AcDbSymbolTableRecord
100
AcDbTextStyleTableRecord
  2
TEXTSTYLE_1
 70
0
 40
0.0
 41
0.8
 50
0.0
 71
0
 42
0.2
  3
gdt
  4

  0
ENDTAB
  0
TABLE
  2
VIEW
  5
6
100
AcDbSymbolTable
 70
0
  0
ENDTAB
  0
TABLE
  2
UCS
  5
7
100
AcDbSymbolTable
 70
0
  0
ENDTAB
  0
TABLE
  2
APPID
  5
9
100
AcDbSymbolTable
 70
1
  0
APPID
  5
201
100
AcDbSymbolTableRecord
100
AcDbRegAppTableRecord
  2
ACAD
 70
0
  0
ENDTAB
  0
TABLE
  2
BLOCK_RECORD
  5
1
100
AcDbSymbolTable
 70
0
  0
BLOCK_RECORD
  5
202
100
AcDbSymbolTableRecord
100
AcDbBlockTableRecord
  2
*Model_Space
  0
BLOCK_RECORD
  5
203
100
AcDbSymbolTableRecord
100
AcDbBlockTableRecord
  2
*Paper_Space
  0
BLOCK_RECORD
  5
204
100
AcDbSymbolTableRecord
100
AcDbBlockTableRecord
  2
_FILLED
  0
ENDTAB
  0
TABLE
  2
DIMSTYLE
  5
A
100
AcDbSymbolTable
 70
1
100
AcDbDimStyleTable
 71
0
  0
DIMSTYLE
105
205
100
AcDbSymbolTableRecord
100
AcDbDimStyleTableRecord
  2
STANDARD
 70
0
  3

  4

 40
1.0
 41
0.1
 42
0.0625
 43
0.38
 44
0.125
 45
0.0
 46
0.0
 47
0.001
 48
0.001
140
0.08
141
0.09
142
0.0
143
25.4
144
1.0
145
0.0
146
1.0
147
0.09
 71
1.0
 72
0.0
 73
1
 74
1
 75
0
 76
0
 77
0
 78
4
 79
1
170
1
171
2
172
0
173
0
174
0
175
0
176
0
177
0
178
0
270
2
179
3
271
3
272
3
273
2
274
2
275
0
280
0
281
0
282
0
283
1
284
4
285
0
286
0
287
3
288
0
340
11
278
46
341
204
342
204
343
204
344
204
  0
ENDTAB
  0
ENDSEC
  0
SECTION
  2
BLOCKS
  0
BLOCK
  5
20
100
AcDbEntity
  8
0
100
AcDbBlockBegin
  2
*Model_Space
 70
0
 10
0.0
 20
0.0
 30
0.0
  3
*Model_Space
  1

  0
ENDBLK
  5
21
100
AcDbEntity
  8
0
100
AcDbBlockEnd
  0
BLOCK
  5
1C
100
AcDbEntity
  8
0
100
AcDbBlockBegin
  2
*Paper_Space
 70
0
 10
0.0
 20
0.0
 30
0.0
  3
*Paper_Space
  1

  0
ENDBLK
  5
1D
100
AcDbEntity
  8
0
100
AcDbBlockEnd
  0
BLOCK
  5
206
100
AcDbEntity
  8
0
100
AcDbBlockBegin
  2
_FILLED
 70
64
 10
0.0
 20
0.0
  3
_FILLED
  1

  0
SOLID
  5
207
100
AcDbEntity
  8
0
  6
BYBLOCK
 62
0
100
AcDbTrace
 10
0.0
 20
0.0
 11
-1.0
 21
0.2
 12
-1.0
 22
-0.2
 13
-1.0
 23
-0.2
  0
ENDBLK
  5
208
100
AcDbEntity
  8
0
  6
BYBLOCK
 62
0
100
AcDbBlockEnd
  0
ENDSEC
  0
SECTION
  2
ENTITIES
  0
MTEXT
  5
209
100
AcDbEntity
  8
0
100
AcDbMText
 62
2
  6
CONTINUOUS
  7
STANDARD
 71
3
 72
1
 10
4.7001070994
 20
0.8275106757
 30
0.0
 11
1.0
 21
0.0
 31
0.0
 73
2
 44
0.9
  1
SCALE 0.750
 40
0.08
 41
0.704
  0
LINE
  5
20A
100
AcDbEntity
  8
0
100
AcDbLine
 62
7
  6
CONTINUOUS
 10
0.0
 20
0.0
 11
0.0
 21
8.5
  0
LINE
  5
20B
100
AcDbEntity
  8
0
100
AcDbLine
 62
7
  6
CONTINUOUS
 10
0.0
 20
0.0
 11
11.0
 21
0.0
  0
LINE
  5
20C
100
AcDbEntity
  8
0
100
AcDbLine
 62
7
  6
CONTINUOUS
 10
0.0
 20
8.5
 11
11.0
 21
8.5
  0
LINE
  5
20D
100
AcDbEntity
  8
0
100
AcDbLine
 62
7
  6
CONTINUOUS
 10
11.0
 20
0.0
 11
11.0
 21
8.5
  0
LINE
  5
20E
100
AcDbEntity
  8
0
100
AcDbLine
 62
7
  6
CONTINUOUS
 10
3.7302575725
 20
6.9472954134
 11
4.0362282445
 21
7.0709155892
  0
LINE
  5
20F
100
AcDbEntity
  8
0
100
AcDbLine
 62
7
  6
CONTINUOUS
 10
4.0800936774
 20
7.0724603534
 11
3.6976303374
 21
6.9179351336
  0
LINE
  5
210
100
AcDbEntity
  8
0
100
AcDbLine
 62
7
  6
CONTINUOUS
 10
4.414814833
 20
1.4131913532
 11
4.883564833
 21
1.4131913532
  0
LINE
  5
211
100
AcDbEntity
  8
0
100
AcDbLine
 62
7
  6
CONTINUOUS
 10
4.883564833
 20
1.4656913532
 11
4.414814833
 21
1.4656913532
  0
LINE
  5
212
100
AcDbEntity
  8
0
100
AcDbLine
 62
7
  6
CONTINUOUS
 10
3.6769086901
 20
6.8691179918
 11
4.1289108192
 21
7.0517387061
  0
LINE
  5
213
100
AcDbEntity
  8
0
100
AcDbLine
 62
7
  6
CONTINUOUS
 10
4.414814833
 20
1.6606913532
 11
4.883564833
 21
1.6606913532
  0
LINE
  5
214
100
AcDbEntity
  8
0
100
AcDbLine
 62
7
  6
CONTINUOUS
 10
4.266689833
 20
1.7056913532
 11
5.031689833
 21
1.7056913532
  0
LINE
  5
215
100
AcDbEntity
  8
0
100
AcDbLine
 62
7
  6
CONTINUOUS
 10
3.7850894472
 20
6.6013612223
 11
3.7767447925
 21
6.5979897629
  0
LINE
  5
216
100
AcDbEntity
  8
0
100
AcDbLine
 62
7
  6
CONTINUOUS
 10
3.7855202629
 20
6.600294916
 11
3.7771756082
 21
6.5969234567
  0
LINE
  5
217
100
AcDbEntity
  8
0
100
AcDbLine
 62
7
  6
CONTINUOUS
 10
3.7859510785
 20
6.5992286098
 11
3.7776064238
 21
6.5958571505
  0
LINE
  5
218
100
AcDbEntity
  8
0
100
AcDbLine
 62
7
  6
CONTINUOUS
 10
3.7863818942
 20
6.5981623036
 11
3.7780372395
 21
6.5947908443
  0
LINE
  5
219
100
AcDbEntity
  8
0
100
AcDbLine
 62
7
  6
CONTINUOUS
 10
3.7868127099
 20
6.5970959974
 11
3.7784680552
 21
6.5937245381
  0
LINE
  5
21A
100
AcDbEntity
  8
0
100
AcDbLine
 62
7
  6
CONTINUOUS
 10
3.7872435256
 20
6.5960296912
 11
3.7788988709
 21
6.5926582318
  0
LINE
  5
21B
100
AcDbEntity
  8
0
100
AcDbLine
 62
7
  6
CONTINUOUS
 10
3.7876743412
 20
6.594963385
 11
3.7793296865
 21
6.5915919256
  0
LINE
  5
21C
100
AcDbEntity
  8
0
100
AcDbLine
 62
7
  6
CONTINUOUS
 10
3.8185793852
 20
6.518470717
 11
3.8102347305
 21
6.5150992576
  0
LINE
  5
21D
100
AcDbEntity
  8
0
100
AcDbLine
 62
7
  6
CONTINUOUS
 10
3.8525169961
 20
6.4344721824
 11
3.8441723414
 21
6.431100723
  0
LINE
  5
21E
100
AcDbEntity
  8
0
100
AcDbLine
 62
7
  6
CONTINUOUS
 10
3.8529478118
 20
6.4334058762
 11
3.8446031571
 21
6.4300344168
  0
LINE
  5
21F
100
AcDbEntity
  8
0
100
AcDbLine
 62
7
  6
CONTINUOUS
 10
3.8533786274
 20
6.4323395699
 11
3.8450339728
 21
6.4289681106
  0
LINE
  5
220
100
AcDbEntity
  8
0
100
AcDbLine
 62
7
  6
CONTINUOUS
 10
3.8538094431
 20
6.4312732637
 11
3.8454647884
 21
6.4279018044
  0
LINE
  5
221
100
AcDbEntity
  8
0
100
AcDbLine
 62
7
  6
CONTINUOUS
 10
3.8542402588
 20
6.4302069575
 11
3.8458956041
 21
6.4268354982
  0
LINE
  5
222
100
AcDbEntity
  8
0
100
AcDbLine
 62
7
  6
CONTINUOUS
 10
3.8546710745
 20
6.4291406513
 11
3.8463264198
 21
6.425769192
  0
LINE
  5
223
100
AcDbEntity
  8
0
100
AcDbLine
 62
7
  6
CONTINUOUS
 10
3.8551018901
 20
6.4280743451
 11
3.8467572355
 21
6.4247028857
  0
LINE
  5
224
100
AcDbEntity
  8
0
100
AcDbLine
 62
7
  6
CONTINUOUS
 10
3.8860069341
 20
6.3515816771
 11
3.8776622794
 21
6.3482102177
  0
LINE
  5
225
100
AcDbEntity
  8
0
100
AcDbLine
 62
7
  6
CONTINUOUS
 10
3.7475944968
 20
6.5700342578
 11
3.7767447925
 21
6.5979897629
  0
LINE
  5
226
100
AcDbEntity
  8
0
100
AcDbLine
 62
7
  6
CONTINUOUS
 10
3.7480253125
 20
6.5689679516
 11
3.7771756082
 21
6.5969234567
  0
LINE
  5
227
100
AcDbEntity
  8
0
100
AcDbLine
 62
7
  6
CONTINUOUS
 10
3.7484561282
 20
6.5679016454
 11
3.7776064238
 21
6.5958571505
  0
LINE
  5
228
100
AcDbEntity
  8
0
100
AcDbLine
 62
7
  6
CONTINUOUS
 10
3.7488869439
 20
6.5668353392
 11
3.7780372395
 21
6.5947908443
  0
LINE
  5
229
100
AcDbEntity
  8
0
100
AcDbLine
 62
7
  6
CONTINUOUS
 10
3.7493177595
 20
6.565769033
 11
3.7784680552
 21
6.5937245381
  0
LINE
  5
22A
100
AcDbEntity
  8
0
100
AcDbLine
 62
7
  6
CONTINUOUS
 10
3.7497485752
 20
6.5647027268
 11
3.7788988709
 21
6.5926582318
  0
LINE
  5
22B
100
AcDbEntity
  8
0
100
AcDbLine
 62
7
  6
CONTINUOUS
 10
3.7501793909
 20
6.5636364205
 11
3.7793296865
 21
6.5915919256
  0
LINE
  5
22C
100
AcDbEntity
  8
0
100
AcDbLine
 62
7
  6
CONTINUOUS
 10
3.8150220458
 20
6.403145218
 11
3.8441723414
 21
6.431100723
  0
LINE
  5
22D
100
AcDbEntity
  8
0
100
AcDbLine
 62
7
  6
CONTINUOUS
 10
3.8154528614
 20
6.4020789117
 11
3.8446031571
 21
6.4300344168
  0
LINE
  5
22E
100
AcDbEntity
  8
0
100
AcDbLine
 62
7
  6
CONTINUOUS
 10
3.8158836771
 20
6.4010126055
 11
3.8450339728
 21
6.4289681106
  0
LINE
  5
22F
100
AcDbEntity
  8
0
100
AcDbLine
 62
7
  6
CONTINUOUS
 10
3.8163144928
 20
6.3999462993
 11
3.8454647884
 21
6.4279018044
  0
LINE
  5
230
100
AcDbEntity
  8
0
100
AcDbLine
 62
7
  6
CONTINUOUS
 10
3.8167453085
 20
6.3988799931
 11
3.8458956041
 21
6.4268354982
  0
LINE
  5
231
100
AcDbEntity
  8
0
100
AcDbLine
 62
7
  6
CONTINUOUS
 10
3.8171761241
 20
6.3978136869
 11
3.8463264198
 21
6.425769192
  0
LINE
  5
232
100
AcDbEntity
  8
0
100
AcDbLine
 62
7
  6
CONTINUOUS
 10
3.8176069398
 20
6.3967473807
 11
3.8467572355
 21
6.4247028857
  0
LINE
  5
233
100
AcDbEntity
  8
0
100
AcDbLine
 62
7
  6
CONTINUOUS
 10
3.919944545
 20
6.2675831425
 11
3.9115998903
 21
6.2642116832
  0
LINE
  5
234
100
AcDbEntity
  8
0
100
AcDbLine
 62
7
  6
CONTINUOUS
 10
3.9203753607
 20
6.2665168363
 11
3.912030706
 21
6.2631453769
  0
LINE
  5
235
100
AcDbEntity
  8
0
100
AcDbLine
 62
7
  6
CONTINUOUS
 10
3.9208061764
 20
6.2654505301
 11
3.9124615217
 21
6.2620790707
  0
LINE
  5
236
100
AcDbEntity
  8
0
100
AcDbLine
 62
7
  6
CONTINUOUS
 10
3.921236992
 20
6.2643842239
 11
3.9128923373
 21
6.2610127645
  0
LINE
  5
237
100
AcDbEntity
  8
0
100
AcDbLine
 62
7
  6
CONTINUOUS
 10
3.9216678077
 20
6.2633179176
 11
3.913323153
 21
6.2599464583
  0
LINE
  5
238
100
AcDbEntity
  8
0
100
AcDbLine
 62
7
  6
CONTINUOUS
 10
3.9220986234
 20
6.2622516114
 11
3.9137539687
 21
6.2588801521
  0
LINE
  5
239
100
AcDbEntity
  8
0
100
AcDbLine
 62
7
  6
CONTINUOUS
 10
3.9225294391
 20
6.2611853052
 11
3.9141847844
 21
6.2578138459
  0
LINE
  5
23A
100
AcDbEntity
  8
0
100
AcDbLine
 62
7
  6
CONTINUOUS
 10
3.953434483
 20
6.1846926372
 11
3.9450898283
 21
6.1813211779
  0
LINE
  5
23B
100
AcDbEntity
  8
0
100
AcDbLine
 62
7
  6
CONTINUOUS
 10
3.8824495947
 20
6.2362561781
 11
3.9115998903
 21
6.2642116832
  0
LINE
  5
23C
100
AcDbEntity
  8
0
100
AcDbLine
 62
7
  6
CONTINUOUS
 10
3.8828804103
 20
6.2351898719
 11
3.912030706
 21
6.2631453769
  0
LINE
  5
23D
100
AcDbEntity
  8
0
100
AcDbLine
 62
7
  6
CONTINUOUS
 10
3.883311226
 20
6.2341235657
 11
3.9124615217
 21
6.2620790707
  0
LINE
  5
23E
100
AcDbEntity
  8
0
100
AcDbLine
 62
7
  6
CONTINUOUS
 10
3.8837420417
 20
6.2330572594
 11
3.9128923373
 21
6.2610127645
  0
LINE
  5
23F
100
AcDbEntity
  8
0
100
AcDbLine
 62
7
  6
CONTINUOUS
 10
3.8841728574
 20
6.2319909532
 11
3.913323153
 21
6.2599464583
  0
LINE
  5
240
100
AcDbEntity
  8
0
100
AcDbLine
 62
7
  6
CONTINUOUS
 10
3.884603673
 20
6.230924647
 11
3.9137539687
 21
6.2588801521
  0
LINE
  5
241
100
AcDbEntity
  8
0
100
AcDbLine
 62
7
  6
CONTINUOUS
 10
3.8850344887
 20
6.2298583408
 11
3.9141847844
 21
6.2578138459
  0
LINE
  5
242
100
AcDbEntity
  8
0
100
AcDbLine
 62
7
  6
CONTINUOUS
 10
3.9873720939
 20
6.1006941026
 11
3.9790274392
 21
6.0973226433
  0
LINE
  5
243
100
AcDbEntity
  8
0
100
AcDbLine
 62
7
  6
CONTINUOUS
 10
3.9878029096
 20
6.0996277964
 11
3.9794582549
 21
6.0962563371
  0
LINE
  5
244
100
AcDbEntity
  8
0
100
AcDbLine
 62
7
  6
CONTINUOUS
 10
3.9882337253
 20
6.0985614902
 11
3.9798890706
 21
6.0951900309
  0
LINE
  5
245
100
AcDbEntity
  8
0
100
AcDbLine
 62
7
  6
CONTINUOUS
 10
3.9886645409
 20
6.097495184
 11
3.9803198863
 21
6.0941237246
  0
LINE
  5
246
100
AcDbEntity
  8
0
100
AcDbLine
 62
7
  6
CONTINUOUS
 10
3.9890953566
 20
6.0964288778
 11
3.9807507019
 21
6.0930574184
  0
LINE
  5
247
100
AcDbEntity
  8
0
100
AcDbLine
 62
7
  6
CONTINUOUS
 10
3.9895261723
 20
6.0953625715
 11
3.9811815176
 21
6.0919911122
  0
LINE
  5
248
100
AcDbEntity
  8
0
100
AcDbLine
 62
7
  6
CONTINUOUS
 10
3.989956988
 20
6.0942962653
 11
3.9816123333
 21
6.090924806
  0
LINE
  5
249
100
AcDbEntity
  8
0
100
AcDbLine
 62
7
  6
CONTINUOUS
 10
4.0208620319
 20
6.0178035973
 11
4.0125173772
 21
6.014432138
  0
LINE
  5
24A
100
AcDbEntity
  8
0
100
AcDbLine
 62
7
  6
CONTINUOUS
 10
3.9498771436
 20
6.0693671382
 11
3.9790274392
 21
6.0973226433
  0
LINE
  5
24B
100
AcDbEntity
  8
0
100
AcDbLine
 62
7
  6
CONTINUOUS
 10
3.9503079593
 20
6.068300832
 11
3.9794582549
 21
6.0962563371
  0
LINE
  5
24C
100
AcDbEntity
  8
0
100
AcDbLine
 62
7
  6
CONTINUOUS
 10
3.9507387749
 20
6.0672345258
 11
3.9798890706
 21
6.0951900309
  0
LINE
  5
24D
100
AcDbEntity
  8
0
100
AcDbLine
 62
7
  6
CONTINUOUS
 10
3.9511695906
 20
6.0661682196
 11
3.9803198863
 21
6.0941237246
  0
LINE
  5
24E
100
AcDbEntity
  8
0
100
AcDbLine
 62
7
  6
CONTINUOUS
 10
3.9516004063
 20
6.0651019133
 11
3.9807507019
 21
6.0930574184
  0
LINE
  5
24F
100
AcDbEntity
  8
0
100
AcDbLine
 62
7
  6
CONTINUOUS
 10
3.952031222
 20
6.0640356071
 11
3.9811815176
 21
6.0919911122
  0
LINE
  5
250
100
AcDbEntity
  8
0
100
AcDbLine
 62
7
  6
CONTINUOUS
 10
3.9524620376
 20
6.0629693009
 11
3.9816123333
 21
6.090924806
  0
LINE
  5
251
100
AcDbEntity
  8
0
100
AcDbLine
 62
7
  6
CONTINUOUS
 10
4.0547996428
 20
5.9338050627
 11
4.0464549881
 21
5.9304336034
  0
LINE
  5
252
100
AcDbEntity
  8
0
100
AcDbLine
 62
7
  6
CONTINUOUS
 10
4.0552304585
 20
5.9327387565
 11
4.0468858038
 21
5.9293672972
  0
LINE
  5
253
100
AcDbEntity
  8
0
100
AcDbLine
 62
7
  6
CONTINUOUS
 10
4.0556612742
 20
5.9316724503
 11
4.0473166195
 21
5.928300991
  0
LINE
  5
254
100
AcDbEntity
  8
0
100
AcDbLine
 62
7
  6
CONTINUOUS
 10
4.0560920899
 20
5.9306061441
 11
4.0477474352
 21
5.9272346848
  0
LINE
  5
255
100
AcDbEntity
  8
0
100
AcDbLine
 62
7
  6
CONTINUOUS
 10
4.0565229055
 20
5.9295398379
 11
4.0481782508
 21
5.9261683785
  0
LINE
  5
256
100
AcDbEntity
  8
0
100
AcDbLine
 62
7
  6
CONTINUOUS
 10
4.0569537212
 20
5.9284735317
 11
4.0486090665
 21
5.9251020723
  0
LINE
  5
257
100
AcDbEntity
  8
0
100
AcDbLine
 62
7
  6
CONTINUOUS
 10
4.0573845369
 20
5.9274072255
 11
4.0490398822
 21
5.9240357661
  0
LINE
  5
258
100
AcDbEntity
  8
0
100
AcDbLine
 62
7
  6
CONTINUOUS
 10
4.0882895808
 20
5.8509145575
 11
4.0799449262
 21
5.8475430981
  0
LINE
  5
259
100
AcDbEntity
  8
0
100
AcDbLine
 62
7
  6
CONTINUOUS
 10
4.0173046925
 20
5.9024780983
 11
4.0464549881
 21
5.9304336034
  0
LINE
  5
25A
100
AcDbEntity
  8
0
100
AcDbLine
 62
7
  6
CONTINUOUS
 10
4.0177355082
 20
5.9014117921
 11
4.0468858038
 21
5.9293672972
  0
LINE
  5
25B
100
AcDbEntity
  8
0
100
AcDbLine
 62
7
  6
CONTINUOUS
 10
4.0181663238
 20
5.9003454859
 11
4.0473166195
 21
5.928300991
  0
LINE
  5
25C
100
AcDbEntity
  8
0
100
AcDbLine
 62
7
  6
CONTINUOUS
 10
4.0185971395
 20
5.8992791797
 11
4.0477474352
 21
5.9272346848
  0
LINE
  5
25D
100
AcDbEntity
  8
0
100
AcDbLine
 62
7
  6
CONTINUOUS
 10
4.0190279552
 20
5.8982128735
 11
4.0481782508
 21
5.9261683785
  0
LINE
  5
25E
100
AcDbEntity
  8
0
100
AcDbLine
 62
7
  6
CONTINUOUS
 10
4.0194587709
 20
5.8971465673
 11
4.0486090665
 21
5.9251020723
  0
LINE
  5
25F
100
AcDbEntity
  8
0
100
AcDbLine
 62
7
  6
CONTINUOUS
 10
4.0198895866
 20
5.896080261
 11
4.0490398822
 21
5.9240357661
  0
LINE
  5
260
100
AcDbEntity
  8
0
100
AcDbLine
 62
7
  6
CONTINUOUS
 10
4.1222271917
 20
5.7669160229
 11
4.1138825371
 21
5.7635445635
  0
LINE
  5
261
100
AcDbEntity
  8
0
100
AcDbLine
 62
7
  6
CONTINUOUS
 10
4.1226580074
 20
5.7658497167
 11
4.1143133527
 21
5.7624782573
  0
LINE
  5
262
100
AcDbEntity
  8
0
100
AcDbLine
 62
7
  6
CONTINUOUS
 10
4.1230888231
 20
5.7647834104
 11
4.1147441684
 21
5.7614119511
  0
LINE
  5
263
100
AcDbEntity
  8
0
100
AcDbLine
 62
7
  6
CONTINUOUS
 10
4.1235196388
 20
5.7637171042
 11
4.1151749841
 21
5.7603456449
  0
LINE
  5
264
100
AcDbEntity
  8
0
100
AcDbLine
 62
7
  6
CONTINUOUS
 10
4.1239504545
 20
5.762650798
 11
4.1156057998
 21
5.7592793387
  0
LINE
  5
265
100
AcDbEntity
  8
0
100
AcDbLine
 62
7
  6
CONTINUOUS
 10
4.1243812701
 20
5.7615844918
 11
4.1160366154
 21
5.7582130325
  0
LINE
  5
266
100
AcDbEntity
  8
0
100
AcDbLine
 62
7
  6
CONTINUOUS
 10
4.1248120858
 20
5.7605181856
 11
4.1164674311
 21
5.7571467262
  0
LINE
  5
267
100
AcDbEntity
  8
0
100
AcDbLine
 62
7
  6
CONTINUOUS
 10
4.1557171298
 20
5.6840255176
 11
4.1473724751
 21
5.6806540582
  0
LINE
  5
268
100
AcDbEntity
  8
0
100
AcDbLine
 62
7
  6
CONTINUOUS
 10
4.0847322414
 20
5.7355890585
 11
4.1138825371
 21
5.7635445635
  0
LINE
  5
269
100
AcDbEntity
  8
0
100
AcDbLine
 62
7
  6
CONTINUOUS
 10
4.0851630571
 20
5.7345227522
 11
4.1143133527
 21
5.7624782573
  0
LINE
  5
26A
100
AcDbEntity
  8
0
100
AcDbLine
 62
7
  6
CONTINUOUS
 10
4.0855938728
 20
5.733456446
 11
4.1147441684
 21
5.7614119511
  0
LINE
  5
26B
100
AcDbEntity
  8
0
100
AcDbLine
 62
7
  6
CONTINUOUS
 10
4.0860246884
 20
5.7323901398
 11
4.1151749841
 21
5.7603456449
  0
LINE
  5
26C
100
AcDbEntity
  8
0
100
AcDbLine
 62
7
  6
CONTINUOUS
 10
4.0864555041
 20
5.7313238336
 11
4.1156057998
 21
5.7592793387
  0
LINE
  5
26D
100
AcDbEntity
  8
0
100
AcDbLine
 62
7
  6
CONTINUOUS
 10
4.0868863198
 20
5.7302575274
 11
4.1160366154
 21
5.7582130325
  0
LINE
  5
26E
100
AcDbEntity
  8
0
100
AcDbLine
 62
7
  6
CONTINUOUS
 10
4.0873171355
 20
5.7291912212
 11
4.1164674311
 21
5.7571467262
  0
LINE
  5
26F
100
AcDbEntity
  8
0
100
AcDbLine
 62
7
  6
CONTINUOUS
 10
4.1896547407
 20
5.600026983
 11
4.181310086
 21
5.5966555237
  0
LINE
  5
270
100
AcDbEntity
  8
0
100
AcDbLine
 62
7
  6
CONTINUOUS
 10
4.1900855563
 20
5.5989606768
 11
4.1817409016
 21
5.5955892174
  0
LINE
  5
271
100
AcDbEntity
  8
0
100
AcDbLine
 62
7
  6
CONTINUOUS
 10
4.190516372
 20
5.5978943706
 11
4.1821717173
 21
5.5945229112
  0
LINE
  5
272
100
AcDbEntity
  8
0
100
AcDbLine
 62
7
  6
CONTINUOUS
 10
4.1909471877
 20
5.5968280643
 11
4.182602533
 21
5.593456605
  0
LINE
  5
273
100
AcDbEntity
  8
0
100
AcDbLine
 62
7
  6
CONTINUOUS
 10
4.1913780034
 20
5.5957617581
 11
4.1830333487
 21
5.5923902988
  0
LINE
  5
274
100
AcDbEntity
  8
0
100
AcDbLine
 62
7
  6
CONTINUOUS
 10
4.191808819
 20
5.5946954519
 11
4.1834641644
 21
5.5913239926
  0
LINE
  5
275
100
AcDbEntity
  8
0
100
AcDbLine
 62
7
  6
CONTINUOUS
 10
4.1922396347
 20
5.5936291457
 11
4.18389498
 21
5.5902576864
  0
LINE
  5
276
100
AcDbEntity
  8
0
100
AcDbLine
 62
7
  6
CONTINUOUS
 10
4.2231446787
 20
5.5171364777
 11
4.214800024
 21
5.5137650184
  0
LINE
  5
277
100
AcDbEntity
  8
0
100
AcDbLine
 62
7
  6
CONTINUOUS
 10
4.1521597903
 20
5.5687000186
 11
4.181310086
 21
5.5966555237
  0
LINE
  5
278
100
AcDbEntity
  8
0
100
AcDbLine
 62
7
  6
CONTINUOUS
 10
4.152590606
 20
5.5676337124
 11
4.1817409016
 21
5.5955892174
  0
LINE
  5
279
100
AcDbEntity
  8
0
100
AcDbLine
 62
7
  6
CONTINUOUS
 10
4.1530214217
 20
5.5665674062
 11
4.1821717173
 21
5.5945229112
  0
LINE
  5
27A
100
AcDbEntity
  8
0
100
AcDbLine
 62
7
  6
CONTINUOUS
 10
4.1534522374
 20
5.5655010999
 11
4.182602533
 21
5.593456605
  0
LINE
  5
27B
100
AcDbEntity
  8
0
100
AcDbLine
 62
7
  6
CONTINUOUS
 10
4.153883053
 20
5.5644347937
 11
4.1830333487
 21
5.5923902988
  0
LINE
  5
27C
100
AcDbEntity
  8
0
100
AcDbLine
 62
7
  6
CONTINUOUS
 10
4.1543138687
 20
5.5633684875
 11
4.1834641644
 21
5.5913239926
  0
LINE
  5
27D
100
AcDbEntity
  8
0
100
AcDbLine
 62
7
  6
CONTINUOUS
 10
4.1547446844
 20
5.5623021813
 11
4.18389498
 21
5.5902576864
  0
LINE
  5
27E
100
AcDbEntity
  8
0
100
AcDbLine
 62
7
  6
CONTINUOUS
 10
4.2570822896
 20
5.4331379431
 11
4.2487376349
 21
5.4297664838
  0
LINE
  5
27F
100
AcDbEntity
  8
0
100
AcDbLine
 62
7
  6
CONTINUOUS
 10
4.2575131053
 20
5.4320716369
 11
4.2491684506
 21
5.4287001776
  0
LINE
  5
280
100
AcDbEntity
  8
0
100
AcDbLine
 62
7
  6
CONTINUOUS
 10
4.2579439209
 20
5.4310053307
 11
4.2495992662
 21
5.4276338713
  0
LINE
  5
281
100
AcDbEntity
  8
0
100
AcDbLine
 62
7
  6
CONTINUOUS
 10
4.2583747366
 20
5.4299390245
 11
4.2500300819
 21
5.4265675651
  0
LINE
  5
282
100
AcDbEntity
  8
0
100
AcDbLine
 62
7
  6
CONTINUOUS
 10
4.2588055523
 20
5.4288727183
 11
4.2504608976
 21
5.4255012589
  0
LINE
  5
283
100
AcDbEntity
  8
0
100
AcDbLine
 62
7
  6
CONTINUOUS
 10
4.259236368
 20
5.427806412
 11
4.2508917133
 21
5.4244349527
  0
LINE
  5
284
100
AcDbEntity
  8
0
100
AcDbLine
 62
7
  6
CONTINUOUS
 10
4.2596671836
 20
5.4267401058
 11
4.2513225289
 21
5.4233686465
  0
LINE
  5
285
100
AcDbEntity
  8
0
100
AcDbLine
 62
7
  6
CONTINUOUS
 10
4.2905722276
 20
5.3502474378
 11
4.2822275729
 21
5.3468759785
  0
LINE
  5
286
100
AcDbEntity
  8
0
100
AcDbLine
 62
7
  6
CONTINUOUS
 10
4.3245098385
 20
5.2662489032
 11
4.3161651838
 21
5.2628774439
  0
LINE
  5
287
100
AcDbEntity
  8
0
100
AcDbLine
 62
7
  6
CONTINUOUS
 10
4.3249406542
 20
5.265182597
 11
4.3165959995
 21
5.2618111377
  0
LINE
  5
288
100
AcDbEntity
  8
0
100
AcDbLine
 62
7
  6
CONTINUOUS
 10
4.3253714698
 20
5.2641162908
 11
4.3170268152
 21
5.2607448315
  0
LINE
  5
289
100
AcDbEntity
  8
0
100
AcDbLine
 62
7
  6
CONTINUOUS
 10
4.3258022855
 20
5.2630499846
 11
4.3174576308
 21
5.2596785253
  0
LINE
  5
28A
100
AcDbEntity
  8
0
100
AcDbLine
 62
7
  6
CONTINUOUS
 10
4.3262331012
 20
5.2619836784
 11
4.3178884465
 21
5.258612219
  0
LINE
  5
28B
100
AcDbEntity
  8
0
100
AcDbLine
 62
7
  6
CONTINUOUS
 10
4.3266639169
 20
5.2609173722
 11
4.3183192622
 21
5.2575459128
  0
LINE
  5
28C
100
AcDbEntity
  8
0
100
AcDbLine
 62
7
  6
CONTINUOUS
 10
4.3270947325
 20
5.2598510659
 11
4.3187500779
 21
5.2564796066
  0
LINE
  5
28D
100
AcDbEntity
  8
0
100
AcDbLine
 62
7
  6
CONTINUOUS
 10
4.2195873392
 20
5.4018109787
 11
4.2487376349
 21
5.4297664838
  0
LINE
  5
28E
100
AcDbEntity
  8
0
100
AcDbLine
 62
7
  6
CONTINUOUS
 10
4.2200181549
 20
5.4007446725
 11
4.2491684506
 21
5.4287001776
  0
LINE
  5
28F
100
AcDbEntity
  8
0
100
AcDbLine
 62
7
  6
CONTINUOUS
 10
4.2204489706
 20
5.3996783663
 11
4.2495992662
 21
5.4276338713
  0
LINE
  5
290
100
AcDbEntity
  8
0
100
AcDbLine
 62
7
  6
CONTINUOUS
 10
4.2208797863
 20
5.3986120601
 11
4.2500300819
 21
5.4265675651
  0
LINE
  5
291
100
AcDbEntity
  8
0
100
AcDbLine
 62
7
  6
CONTINUOUS
 10
4.2213106019
 20
5.3975457538
 11
4.2504608976
 21
5.4255012589
  0
LINE
  5
292
100
AcDbEntity
  8
0
100
AcDbLine
 62
7
  6
CONTINUOUS
 10
4.2217414176
 20
5.3964794476
 11
4.2508917133
 21
5.4244349527
  0
LINE
  5
293
100
AcDbEntity
  8
0
100
AcDbLine
 62
7
  6
CONTINUOUS
 10
4.2221722333
 20
5.3954131414
 11
4.2513225289
 21
5.4233686465
  0
LINE
  5
294
100
AcDbEntity
  8
0
100
AcDbLine
 62
7
  6
CONTINUOUS
 10
4.2870148882
 20
5.2349219388
 11
4.3161651838
 21
5.2628774439
  0
LINE
  5
295
100
AcDbEntity
  8
0
100
AcDbLine
 62
7
  6
CONTINUOUS
 10
4.2874457038
 20
5.2338556326
 11
4.3165959995
 21
5.2618111377
  0
LINE
  5
296
100
AcDbEntity
  8
0
100
AcDbLine
 62
7
  6
CONTINUOUS
 10
4.2878765195
 20
5.2327893264
 11
4.3170268152
 21
5.2607448315
  0
LINE
  5
297
100
AcDbEntity
  8
0
100
AcDbLine
 62
7
  6
CONTINUOUS
 10
4.2883073352
 20
5.2317230202
 11
4.3174576308
 21
5.2596785253
  0
LINE
  5
298
100
AcDbEntity
  8
0
100
AcDbLine
 62
7
  6
CONTINUOUS
 10
4.2887381509
 20
5.230656714
 11
4.3178884465
 21
5.258612219
  0
LINE
  5
299
100
AcDbEntity
  8
0
100
AcDbLine
 62
7
  6
CONTINUOUS
 10
4.2891689665
 20
5.2295904078
 11
4.3183192622
 21
5.2575459128
  0
LINE
  5
29A
100
AcDbEntity
  8
0
100
AcDbLine
 62
7
  6
CONTINUOUS
 10
4.2895997822
 20
5.2285241015
 11
4.3187500779
 21
5.2564796066
  0
LINE
  5
29B
100
AcDbEntity
  8
0
100
AcDbLine
 62
7
  6
CONTINUOUS
 10
4.3579997765
 20
5.1833583979
 11
4.3496551218
 21
5.1799869386
  0
LINE
  5
29C
100
AcDbEntity
  8
0
100
AcDbLine
 62
7
  6
CONTINUOUS
 10
4.4579634374
 20
4.9359396551
 11
4.9099655665
 21
5.1185603693
  0
LINE
  5
29D
100
AcDbEntity
  8
0
100
AcDbLine
 62
7
  6
CONTINUOUS
 10
4.5152092275
 20
4.894356371
 11
4.8976725676
 21
5.0488815908
  0
LINE
  5
29E
100
AcDbEntity
  8
0
100
AcDbLine
 62
7
  6
CONTINUOUS
 10
4.266689833
 20
1.7056913532
 11
4.3715063632
 21
5.1363640292
  0
LINE
  5
29F
100
AcDbEntity
  8
0
100
AcDbLine
 62
7
  6
CONTINUOUS
 10
4.414814833
 20
1.7056913532
 11
4.414814833
 21
1.4131913532
  0
LINE
  5
2A0
100
AcDbEntity
  8
0
100
AcDbLine
 62
7
  6
CONTINUOUS
 10
4.3092663011
 20
5.1798477592
 11
4.2896001095
 21
5.2285232915
  0
LINE
  5
2A1
100
AcDbEntity
  8
0
100
AcDbLine
 62
7
  6
CONTINUOUS
 10
4.2891778701
 20
5.2295683705
 11
4.2870237918
 21
5.2348999016
  0
LINE
  5
2A2
100
AcDbEntity
  8
0
100
AcDbLine
 62
7
  6
CONTINUOUS
 10
4.2418387522
 20
5.3467367991
 11
4.2195962429
 21
5.4017889415
  0
LINE
  5
2A3
100
AcDbEntity
  8
0
100
AcDbLine
 62
7
  6
CONTINUOUS
 10
4.1744112033
 20
5.5136258389
 11
4.1521686939
 21
5.5686779814
  0
LINE
  5
2A4
100
AcDbEntity
  8
0
100
AcDbLine
 62
7
  6
CONTINUOUS
 10
4.1069836544
 20
5.6805148788
 11
4.084741145
 21
5.7355670212
  0
LINE
  5
2A5
100
AcDbEntity
  8
0
100
AcDbLine
 62
7
  6
CONTINUOUS
 10
4.0395561054
 20
5.8474039187
 11
4.0173135961
 21
5.9024560611
  0
LINE
  5
2A6
100
AcDbEntity
  8
0
100
AcDbLine
 62
7
  6
CONTINUOUS
 10
3.9721285565
 20
6.0142929586
 11
3.9498860472
 21
6.069345101
  0
LINE
  5
2A7
100
AcDbEntity
  8
0
100
AcDbLine
 62
7
  6
CONTINUOUS
 10
3.9047010076
 20
6.1811819984
 11
3.8824584983
 21
6.2362341409
  0
LINE
  5
2A8
100
AcDbEntity
  8
0
100
AcDbLine
 62
7
  6
CONTINUOUS
 10
3.8372734587
 20
6.3480710383
 11
3.8150309494
 21
6.4031231807
  0
LINE
  5
2A9
100
AcDbEntity
  8
0
100
AcDbLine
 62
7
  6
CONTINUOUS
 10
3.7698459098
 20
6.5149600782
 11
3.7476034005
 21
6.5700122206
  0
LINE
  5
2AA
100
AcDbEntity
  8
0
100
AcDbLine
 62
7
  6
CONTINUOUS
 10
4.3496551218
 20
5.1799869386
 11
4.3161761923
 21
5.2628501968
  0
LINE
  5
2AB
100
AcDbEntity
  8
0
100
AcDbLine
 62
7
  6
CONTINUOUS
 10
4.2822275729
 20
5.3468759785
 11
4.2487486434
 21
5.4297392367
  0
LINE
  5
2AC
100
AcDbEntity
  8
0
100
AcDbLine
 62
7
  6
CONTINUOUS
 10
4.214800024
 20
5.5137650184
 11
4.1813210945
 21
5.5966282766
  0
LINE
  5
2AD
100
AcDbEntity
  8
0
100
AcDbLine
 62
7
  6
CONTINUOUS
 10
4.1473724751
 20
5.6806540582
 11
4.1138935456
 21
5.7635173165
  0
LINE
  5
2AE
100
AcDbEntity
  8
0
100
AcDbLine
 62
7
  6
CONTINUOUS
 10
4.0799449262
 20
5.8475430981
 11
4.0464659967
 21
5.9304063563
  0
LINE
  5
2AF
100
AcDbEntity
  8
0
100
AcDbLine
 62
7
  6
CONTINUOUS
 10
4.0125173772
 20
6.014432138
 11
3.9790384478
 21
6.0972953962
  0
LINE
  5
2B0
100
AcDbEntity
  8
0
100
AcDbLine
 62
7
  6
CONTINUOUS
 10
3.9450898283
 20
6.1813211779
 11
3.9116108988
 21
6.2641844361
  0
LINE
  5
2B1
100
AcDbEntity
  8
0
100
AcDbLine
 62
7
  6
CONTINUOUS
 10
3.8776622794
 20
6.3482102177
 11
3.8441833499
 21
6.431073476
  0
LINE
  5
2B2
100
AcDbEntity
  8
0
100
AcDbLine
 62
7
  6
CONTINUOUS
 10
3.8102347305
 20
6.5150992576
 11
3.776755801
 21
6.5979625158
  0
LINE
  5
2B3
100
AcDbEntity
  8
0
100
AcDbLine
 62
7
  6
CONTINUOUS
 10
4.4663920857
 20
4.9150780183
 11
3.6769086901
 21
6.8691179918
  0
LINE
  5
2B4
100
AcDbEntity
  8
0
100
AcDbLine
 62
7
  6
CONTINUOUS
 10
4.5152092275
 20
4.894356371
 11
3.6976303374
 21
6.9179351336
  0
LINE
  5
2B5
100
AcDbEntity
  8
0
100
AcDbLine
 62
7
  6
CONTINUOUS
 10
5.031689833
 20
1.7056913532
 11
4.9292168865
 21
5.0596579156
  0
LINE
  5
2B6
100
AcDbEntity
  8
0
100
AcDbLine
 62
7
  6
CONTINUOUS
 10
4.883564833
 20
1.4131913532
 11
4.883564833
 21
1.7056913532
  0
LINE
  5
2B7
100
AcDbEntity
  8
0
100
AcDbLine
 62
7
  6
CONTINUOUS
 10
3.7893655432
 20
6.9711765838
 11
3.7949846421
 21
6.9572688259
  0
LINE
  5
2B8
100
AcDbEntity
  8
0
100
AcDbLine
 62
7
  6
CONTINUOUS
 10
3.9771202738
 20
7.0470344189
 11
3.9827393727
 21
7.0331266611
  0
LINE
  5
2B9
100
AcDbEntity
  8
0
100
AcDbLine
 62
7
  6
CONTINUOUS
 10
4.3092666284
 20
5.1798469492
 11
4.3496551218
 21
5.1799869386
  0
LINE
  5
2BA
100
AcDbEntity
  8
0
100
AcDbLine
 62
7
  6
CONTINUOUS
 10
4.8976725676
 20
5.0488815908
 11
4.0800936774
 21
7.0724603534
  0
LINE
  5
2BB
100
AcDbEntity
  8
0
100
AcDbLine
 62
7
  6
CONTINUOUS
 10
4.9264819095
 20
5.0776809859
 11
4.1289108192
 21
7.0517387061
  0
LINE
  5
2BC
100
AcDbEntity
  8
0
100
AcDbLine
 62
7
  6
CONTINUOUS
 10
4.2418390795
 20
5.346735989
 11
4.2822275729
 21
5.3468759785
  0
LINE
  5
2BD
100
AcDbEntity
  8
0
100
AcDbLine
 62
7
  6
CONTINUOUS
 10
4.1744115305
 20
5.5136250289
 11
4.214800024
 21
5.5137650184
  0
LINE
  5
2BE
100
AcDbEntity
  8
0
100
AcDbLine
 62
7
  6
CONTINUOUS
 10
4.1069839816
 20
5.6805140688
 11
4.1473724751
 21
5.6806540582
  0
LINE
  5
2BF
100
AcDbEntity
  8
0
100
AcDbLine
 62
7
  6
CONTINUOUS
 10
4.0395564327
 20
5.8474031087
 11
4.0799449262
 21
5.8475430981
  0
LINE
  5
2C0
100
AcDbEntity
  8
0
100
AcDbLine
 62
7
  6
CONTINUOUS
 10
3.9721288838
 20
6.0142921486
 11
4.0125173772
 21
6.014432138
  0
LINE
  5
2C1
100
AcDbEntity
  8
0
100
AcDbLine
 62
7
  6
CONTINUOUS
 10
3.9047013349
 20
6.1811811884
 11
3.9450898283
 21
6.1813211779
  0
LINE
  5
2C2
100
AcDbEntity
  8
0
100
AcDbLine
 62
7
  6
CONTINUOUS
 10
3.837273786
 20
6.3480702283
 11
3.8776622794
 21
6.3482102177
  0
LINE
  5
2C3
100
AcDbEntity
  8
0
100
AcDbLine
 62
7
  6
CONTINUOUS
 10
3.769846237
 20
6.5149592682
 11
3.8102347305
 21
6.5150992576
  0
ARC
  5
2C4
100
AcDbEntity
  8
0
100
AcDbCircle
 62
7
  6
CONTINUOUS
 10
-62.8605454721
 20
142.96383708
 40
153.7015734645
100
AcDbArc
 50
296.0162510286
 51
296.147268514
  0
ARC
  5
2C5
100
AcDbEntity
  8
0
100
AcDbCircle
 62
7
  6
CONTINUOUS
 10
4.5427721463
 20
-0.7492520808
 40
2.2724882657
100
AcDbArc
 50
92.7295474137
 51
93.2278686282
  0
ARC
  5
2C6
100
AcDbEntity
  8
0
100
AcDbCircle
 62
7
  6
CONTINUOUS
 10
4.5427721463
 20
-0.7358570807
 40
2.2724882657
100
AcDbArc
 50
92.7295474137
 51
93.2278686282
  0
ARC
  5
2C7
100
AcDbEntity
  8
0
100
AcDbCircle
 62
7
  6
CONTINUOUS
 10
4.9891989576
 20
5.0614902325
 40
0.0600100511
100
AcDbArc
 50
178.7408113551
 51
181.7497409773
  0
ARC
  5
2C8
100
AcDbEntity
  8
0
100
AcDbCircle
 62
7
  6
CONTINUOUS
 10
4.3115343478
 20
5.13819634
 40
0.06
100
AcDbArc
 50
358.2499999994
 51
19.3611111083
  0
ARC
  5
2C9
100
AcDbEntity
  8
0
100
AcDbCircle
 62
7
  6
CONTINUOUS
 10
4.0941414247
 20
7.0376909589
 40
0.0375
100
AcDbArc
 50
22.0
 51
112.0
  0
ARC
  5
2CA
100
AcDbEntity
  8
0
100
AcDbCircle
 62
7
  6
CONTINUOUS
 10
4.8836248203
 20
5.0836509854
 40
0.0375
100
AcDbArc
 50
292.0
 51
22.0
  0
ARC
  5
2CB
100
AcDbEntity
  8
0
100
AcDbCircle
 62
7
  6
CONTINUOUS
 10
3.7116780847
 20
6.8831657391
 40
0.0375
100
AcDbArc
 50
112.0
 51
202.0
  0
ARC
  5
2CC
100
AcDbEntity
  8
0
100
AcDbCircle
 62
7
  6
CONTINUOUS
 10
4.5011614803
 20
4.9291257656
 40
0.0375
100
AcDbArc
 50
202.0
 51
292.0
  0
ARC
  5
2CD
100
AcDbEntity
  8
0
100
AcDbCircle
 62
7
  6
CONTINUOUS
 10
4.891712515
 20
5.0636332386
 40
0.0375
100
AcDbArc
 50
358.74082033
 51
22.0000000008
  0
ARC
  5
2CE
100
AcDbEntity
  8
0
100
AcDbCircle
 62
7
  6
CONTINUOUS
 10
4.0446568929
 20
7.0500539525
 40
0.0225
100
AcDbArc
 50
41.4712206345
 51
112.0
  0
ARC
  5
2CF
100
AcDbEntity
  8
0
100
AcDbCircle
 62
7
  6
CONTINUOUS
 10
3.7386862209
 20
6.9264337767
 40
0.0225
100
AcDbArc
 50
112.0
 51
182.5287793655
  0
SPLINE
  5
2D0
100
AcDbEntity
  8
0
100
AcDbSpline
 62
7
  6
CONTINUOUS
 70
0
 71
3
 72
28
 73
24
 74
0
 42
0.0000001
 43
0.0000001
 44
0.0000000001
 40
0.0
 40
0.0
 40
0.0
 40
0.0
 40
0.066407846
 40
0.0992487284
 40
0.1318054111
 40
0.1640757983
 40
0.1960631173
 40
0.2591820644
 40
0.3212819911
 40
0.3520137133
 40
0.3825617858
 40
0.4431868564
 40
0.5034257757
 40
0.5334898494
 40
0.5635549634
 40
0.6237860522
 40
0.684376553
 40
0.7455582351
 40
0.807539663
 40
0.8705048771
 40
0.9024229258
 40
0.9346527062
 40
1.0
 40
1.0
 40
1.0
 40
1.0
 10
4.556969849
 20
4.8368940873
 30
0.0
 10
4.5543010317
 20
4.8355888357
 30
0.0
 10
4.550184004
 20
4.8338853549
 30
0.0
 10
4.5445452011
 20
4.8321519884
 30
0.0
 10
4.5402930895
 20
4.8311328564
 30
0.0
 10
4.5360222829
 20
4.8303938524
 30
0.0
 10
4.5303529754
 20
4.8297862188
 30
0.0
 10
4.5233003175
 20
4.8297054794
 30
0.0
 10
4.5163501635
 20
4.8305045604
 30
0.0
 10
4.510945686
 20
4.8316408192
 30
0.0
 10
4.5056830708
 20
4.8330826253
 30
0.0
 10
4.4993172143
 20
4.8354442074
 30
0.0
 10
4.4932785467
 20
4.838497222
 30
0.0
 10
4.4886840782
 20
4.841310046
 30
0.0
 10
4.4842443266
 20
4.8443605481
 30
0.0
 10
4.4789807732
 20
4.8486063587
 30
0.0
 10
4.4731629093
 20
4.85431998
 30
0.0
 10
4.4678534145
 20
4.8606111459
 30
0.0
 10
4.4630660826
 20
4.8674368385
 30
0.0
 10
4.4595394425
 20
4.8735146719
 30
0.0
 10
4.4570033765
 20
4.8786062261
 30
0.0
 10
4.4546412704
 20
4.8838974599
 30
0.0
 10
4.4531085364
 20
4.8879913744
 30
0.0
 10
4.4521894165
 20
4.8907665898
 30
0.0
  0
SPLINE
  5
2D1
100
AcDbEntity
  8
0
100
AcDbSpline
 62
7
  6
CONTINUOUS
 70
0
 71
3
 72
15
 73
11
 74
0
 42
0.0000001
 43
0.0000001
 44
0.0000000001
 40
0.0
 40
0.0
 40
0.0
 40
0.0
 40
0.1205253782
 40
0.2415819939
 40
0.3635495017
 40
0.4868827971
 40
0.6119394892
 40
0.7390104959
 40
0.8683495955
 40
1.0
 40
1.0
 40
1.0
 40
1.0
 10
4.9147270609
 20
5.06270103
 30
0.0
 10
4.9139003512
 20
5.0614735858
 30
0.0
 10
4.9123784563
 20
5.0589191487
 30
0.0
 10
4.9105254325
 20
5.0548486781
 30
0.0
 10
4.9091153781
 20
5.0505676619
 30
0.0
 10
4.9081600233
 20
5.0461130509
 30
0.0
 10
4.9076658361
 20
5.041521339
 30
0.0
 10
4.9076371999
 20
5.0368297193
 30
0.0
 10
4.9080739353
 20
5.0320779007
 30
0.0
 10
4.9086667455
 20
5.0289231428
 30
0.0
 10
4.909036539
 20
5.0273495207
 30
0.0
  0
SPLINE
  5
2D2
100
AcDbEntity
  8
0
100
AcDbSpline
 62
7
  6
CONTINUOUS
 70
0
 71
3
 72
21
 73
17
 74
0
 42
0.0000001
 43
0.0000001
 44
0.0000000001
 40
0.0
 40
0.0
 40
0.0
 40
0.0
 40
0.0487660872
 40
0.1028519279
 40
0.1616206149
 40
0.2243796177
 40
0.3243707778
 40
0.4290167039
 40
0.5355440484
 40
0.6411293569
 40
0.7429740185
 40
0.8383793405
 40
0.8828688947
 40
0.9248164117
 40
0.9639494976
 40
1.0
 40
1.0
 40
1.0
 40
1.0
 10
4.883564833
 20
1.6252722579
 30
0.0
 10
4.8759482868
 20
1.6249460799
 30
0.0
 10
4.8598823602
 20
1.6243039497
 30
0.0
 10
4.8346328867
 20
1.6233919541
 30
0.0
 10
4.8071946626
 20
1.6224786038
 30
0.0
 10
4.7725817869
 20
1.6213987106
 30
0.0
 10
4.7307980699
 20
1.6201746398
 30
0.0
 10
4.6821733107
 20
1.6188116126
 30
0.0
 10
4.6326737093
 20
1.6174480058
 30
0.0
 10
4.5836121799
 20
1.6160847325
 30
0.0
 10
4.5362899928
 20
1.6147226686
 30
0.0
 10
4.498516924
 20
1.6135646377
 30
0.0
 10
4.4701052759
 20
1.6126258087
 30
0.0
 10
4.4504871038
 20
1.6119385576
 30
0.0
 10
4.4321890392
 20
1.6112518477
 30
0.0
 10
4.4204453917
 20
1.6107739872
 30
0.0
 10
4.414814833
 20
1.6105328589
 30
0.0
  0
SPLINE
  5
2D3
100
AcDbEntity
  8
0
100
AcDbSpline
 62
7
  6
CONTINUOUS
 70
0
 71
3
 72
21
 73
17
 74
0
 42
0.0000001
 43
0.0000001
 44
0.0000000001
 40
0.0
 40
0.0
 40
0.0
 40
0.0
 40
0.048766087
 40
0.1028519339
 40
0.1616206156
 40
0.2243796115
 40
0.3243707962
 40
0.4290166907
 40
0.535544065
 40
0.6411293543
 40
0.7429740232
 40
0.8383793476
 40
0.8828688924
 40
0.9248164099
 40
0.963949499
 40
1.0
 40
1.0
 40
1.0
 40
1.0
 10
4.414814833
 20
1.604158401
 30
0.0
 10
4.4224313792
 20
1.6044845791
 30
0.0
 10
4.4384973067
 20
1.6051267092
 30
0.0
 10
4.4637467803
 20
1.6060387048
 30
0.0
 10
4.4911850035
 20
1.6069520552
 30
0.0
 10
4.5257978811
 20
1.6080319484
 30
0.0
 10
4.5675815959
 20
1.6092560192
 30
0.0
 10
4.6162063587
 20
1.6106190464
 30
0.0
 10
4.6657059568
 20
1.6119826531
 30
0.0
 10
4.714767489
 20
1.6133459266
 30
0.0
 10
4.7620896746
 20
1.6147079904
 30
0.0
 10
4.7998627434
 20
1.6158660213
 30
0.0
 10
4.8282743906
 20
1.6168048503
 30
0.0
 10
4.8478925617
 20
1.6174921014
 30
0.0
 10
4.8661906267
 20
1.6181788113
 30
0.0
 10
4.8779342745
 20
1.6186566718
 30
0.0
 10
4.883564833
 20
1.6188978
 30
0.0
  0
SPLINE
  5
2D4
100
AcDbEntity
  8
0
100
AcDbSpline
 62
7
  6
CONTINUOUS
 70
0
 71
3
 72
15
 73
11
 74
0
 42
0.0000001
 43
0.0000001
 44
0.0000000001
 40
0.0
 40
0.0
 40
0.0
 40
0.0
 40
0.1251470929
 40
0.2492587914
 40
0.3728902532
 40
0.4965036542
 40
0.6205672972
 40
0.7455253433
 40
0.8718588208
 40
1.0
 40
1.0
 40
1.0
 40
1.0
 10
4.9090366323
 20
5.0273495238
 30
0.0
 10
4.9079923906
 20
5.0254514611
 30
0.0
 10
4.9057899845
 20
5.0217367941
 30
0.0
 10
4.9021291278
 20
5.016414639
 30
0.0
 10
4.8981261728
 20
5.0113778639
 30
0.0
 10
4.8937708115
 20
5.0066430758
 30
0.0
 10
4.8890553505
 20
5.0022323024
 30
0.0
 10
4.8839688329
 20
4.9981777418
 30
0.0
 10
4.8785047758
 20
4.9945194173
 30
0.0
 10
4.8746373621
 20
4.9923956137
 30
0.0
 10
4.8726461097
 20
4.9914182487
 30
0.0
  0
SPLINE
  5
2D5
100
AcDbEntity
  8
0
100
AcDbSpline
 62
7
  6
CONTINUOUS
 70
0
 71
3
 72
24
 73
20
 74
0
 42
0.0000001
 43
0.0000001
 44
0.0000000001
 40
0.0
 40
0.0
 40
0.0
 40
0.0
 40
0.0209458277
 40
0.043780395
 40
0.0684060383
 40
0.0947281685
 40
0.1520469177
 40
0.2148355581
 40
0.3170973739
 40
0.4258200494
 40
0.5371631166
 40
0.6471933948
 40
0.7520242068
 40
0.8013219511
 40
0.8479531341
 40
0.8915058805
 40
0.9315940212
 40
0.9678668183
 40
1.0
 40
1.0
 40
1.0
 40
1.0
 10
4.414814833
 20
1.4663808699
 30
0.0
 10
4.4180845638
 20
1.466566786
 30
0.0
 10
4.4249199966
 20
1.4669355848
 30
0.0
 10
4.4356026316
 20
1.4674648762
 30
0.0
 10
4.4471268211
 20
1.4679945335
 30
0.0
 10
4.4640393584
 20
1.4687219075
 30
0.0
 10
4.4869169611
 20
1.4696207089
 30
0.0
 10
4.5216633884
 20
1.4708695691
 30
0.0
 10
4.5644463373
 20
1.4722806754
 30
0.0
 10
4.6148199238
 20
1.4738475403
 30
0.0
 10
4.6664086945
 20
1.4754154945
 30
0.0
 10
4.7173886762
 20
1.4769829997
 30
0.0
 10
4.7586702092
 20
1.4783125303
 30
0.0
 10
4.7900416815
 20
1.4793927393
 30
0.0
 10
4.8118361154
 20
1.4801857457
 30
0.0
 10
4.8321895867
 20
1.4809780159
 30
0.0
 10
4.8509221914
 20
1.4817692571
 30
0.0
 10
4.8678675891
 20
1.4825591253
 30
0.0
 10
4.8785487098
 20
1.4831195736
 30
0.0
 10
4.883564833
 20
1.483404789
 30
0.0
  0
SPLINE
  5
2D6
100
AcDbEntity
  8
0
100
AcDbSpline
 62
7
  6
CONTINUOUS
 70
0
 71
3
 72
23
 73
19
 74
0
 42
0.0000001
 43
0.0000001
 44
0.0000000001
 40
0.0
 40
0.0
 40
0.0
 40
0.0
 40
0.0414365888
 40
0.0836998342
 40
0.1275141657
 40
0.1735243859
 40
0.222273023
 40
0.2741922085
 40
0.329597677
 40
0.3887077597
 40
0.4516667203
 40
0.5185399033
 40
0.5893415043
 40
0.664045334
 40
0.7425880617
 40
0.8248787232
 40
0.9107539638
 40
1.0
 40
1.0
 40
1.0
 40
1.0
 10
4.4663920857
 20
4.9150780183
 30
0.0
 10
4.4665463234
 20
4.9146962667
 30
0.0
 10
4.4667993729
 20
4.9139001068
 30
0.0
 10
4.4670005123
 20
4.9126448602
 30
0.0
 10
4.4670246785
 20
4.9113285475
 30
0.0
 10
4.4668723193
 20
4.9099566614
 30
0.0
 10
4.466545533
 20
4.9085333898
 30
0.0
 10
4.4660457675
 20
4.9070628294
 30
0.0
 10
4.465375249
 20
4.9055489901
 30
0.0
 10
4.4645362931
 20
4.9039960706
 30
0.0
 10
4.463531262
 20
4.9024087697
 30
0.0
 10
4.4623636267
 20
4.9007915632
 30
0.0
 10
4.4610368566
 20
4.8991493407
 30
0.0
 10
4.4595548282
 20
4.8974870409
 30
0.0
 10
4.4579220019
 20
4.8958093867
 30
0.0
 10
4.4561431792
 20
4.8941217534
 30
0.0
 10
4.4542245043
 20
4.8924296081
 30
0.0
 10
4.4528813934
 20
4.8913227316
 30
0.0
 10
4.4521884864
 20
4.8907693119
 30
0.0
  0
SPLINE
  5
2D7
100
AcDbEntity
  8
0
100
AcDbSpline
 62
7
  6
CONTINUOUS
 70
0
 71
3
 72
30
 73
26
 74
0
 42
0.0000001
 43
0.0000001
 44
0.0000000001
 40
0.0
 40
0.0
 40
0.0
 40
0.0
 40
0.0126035102
 40
0.0256026663
 40
0.039340934
 40
0.0541056871
 40
0.0701203717
 40
0.0875499031
 40
0.1065088972
 40
0.1270664528
 40
0.149262878
 40
0.1731140082
 40
0.1986120357
 40
0.2257365158
 40
0.2544530779
 40
0.2847128672
 40
0.34962656
 40
0.4199373472
 40
0.494993236
 40
0.5740571023
 40
0.6563283816
 40
0.7409535605
 40
0.8270413953
 40
0.9137148778
 40
1.0
 40
1.0
 40
1.0
 40
1.0
 10
4.5152089803
 20
4.8943562711
 30
0.0
 10
4.5154987635
 20
4.894473369
 30
0.0
 10
4.5161113097
 20
4.894656046
 30
0.0
 10
4.5170858605
 20
4.8947618627
 30
0.0
 10
4.5181175708
 20
4.894702629
 30
0.0
 10
4.5192021606
 20
4.8944797523
 30
0.0
 10
4.5203370758
 20
4.8940959378
 30
0.0
 10
4.5215198856
 20
4.8935529398
 30
0.0
 10
4.5227478712
 20
4.892852504
 30
0.0
 10
4.5240182097
 20
4.8919969418
 30
0.0
 10
4.5253274962
 20
4.8909884462
 30
0.0
 10
4.5266720925
 20
4.8898297157
 30
0.0
 10
4.5280484651
 20
4.888524175
 30
0.0
 10
4.5294526194
 20
4.8870753471
 30
0.0
 10
4.5308805562
 20
4.8854873062
 30
0.0
 10
4.5328574396
 20
4.8831349044
 30
0.0
 10
4.535350803
 20
4.8798724727
 30
0.0
 10
4.5383056216
 20
4.8755736375
 30
0.0
 10
4.5412552189
 20
4.8708520922
 30
0.0
 10
4.5441655429
 20
4.8657618683
 30
0.0
 10
4.5470029845
 20
4.8603612351
 30
0.0
 10
4.5497346763
 20
4.8547123349
 30
0.0
 10
4.5523293533
 20
4.848879552
 30
0.0
 10
4.5547565423
 20
4.8429307231
 30
0.0
 10
4.5562532025
 20
4.8389103204
 30
0.0
 10
4.5569676039
 20
4.8368933622
 30
0.0
  0
SPLINE
  5
2D8
100
AcDbEntity
  8
0
100
AcDbSpline
 62
7
  6
CONTINUOUS
 70
0
 71
3
 72
18
 73
14
 74
0
 42
0.0000001
 43
0.0000001
 44
0.0000000001
 40
0.0
 40
0.0
 40
0.0
 40
0.0
 40
0.0557177538
 40
0.111717777
 40
0.1681824529
 40
0.2253315688
 40
0.2833700022
 40
0.3424548639
 40
0.4640992987
 40
0.5909465768
 40
0.7229707774
 40
0.8596371563
 40
1.0
 40
1.0
 40
1.0
 40
1.0
 10
4.8976725676
 20
5.0488815908
 30
0.0
 10
4.8965073928
 20
5.0484108297
 30
0.0
 10
4.8942191674
 20
5.047342848
 30
0.0
 10
4.8909620883
 20
5.0453859014
 30
0.0
 10
4.8878985674
 20
5.0430833785
 30
0.0
 10
4.885049481
 20
5.0404526748
 30
0.0
 10
4.8824335324
 20
5.0375105214
 30
0.0
 10
4.8792483677
 20
5.0331597394
 30
0.0
 10
4.875945017
 20
5.0270144036
 30
0.0
 10
4.8731949979
 20
5.0188467762
 30
0.0
 10
4.8716785639
 20
5.0100214463
 30
0.0
 10
4.8714300729
 20
5.0007705583
 30
0.0
 10
4.8721051601
 20
4.9945374917
 30
0.0
 10
4.8726461097
 20
4.9914182488
 30
0.0
  0
SPLINE
  5
2D9
100
AcDbEntity
  8
0
100
AcDbSpline
 62
7
  6
CONTINUOUS
 70
0
 71
3
 72
11
 73
7
 74
0
 42
0.0000001
 43
0.0000001
 44
0.0000000001
 40
0.0
 40
0.0
 40
0.0
 40
0.0
 40
0.277978074
 40
0.5389006038
 40
0.780326868
 40
1.0
 40
1.0
 40
1.0
 40
1.0
 10
4.5069375555
 20
1.6606913532
 30
0.0
 10
4.4984002126
 20
1.6604251224
 30
0.0
 10
4.4818497289
 20
1.6598964189
 30
0.0
 10
4.4578862843
 20
1.6590814925
 30
0.0
 10
4.4357154669
 20
1.6582674958
 30
0.0
 10
4.4215585962
 20
1.6576972022
 30
0.0
 10
4.414814833
 20
1.657408401
 30
0.0
  0
SPLINE
  5
2DA
100
AcDbEntity
  8
0
100
AcDbSpline
 62
7
  6
CONTINUOUS
 70
0
 71
3
 72
23
 73
19
 74
0
 42
0.0000001
 43
0.0000001
 44
0.0000000001
 40
0.0
 40
0.0
 40
0.0
 40
0.0
 40
0.0495511169
 40
0.1050485745
 40
0.1657246224
 40
0.2307364554
 40
0.2991820284
 40
0.3701109389
 40
0.5154581556
 40
0.587857889
 40
0.658732046
 40
0.7270963939
 40
0.7920017897
 40
0.8525472599
 40
0.9078931126
 40
0.9572713256
 40
0.979508916
 40
1.0
 40
1.0
 40
1.0
 40
1.0
 10
4.4345526837
 20
1.520657932
 30
0.0
 10
4.4419652995
 20
1.5210142843
 30
0.0
 10
4.4576827818
 20
1.5217135588
 30
0.0
 10
4.4824834178
 20
1.5227016355
 30
0.0
 10
4.5096011795
 20
1.5236915142
 30
0.0
 10
4.5386592968
 20
1.5246826586
 30
0.0
 10
4.5692537787
 20
1.525674637
 30
0.0
 10
4.611875135
 20
1.5270087924
 30
0.0
 10
4.6550896795
 20
1.5283201734
 30
0.0
 10
4.6982955887
 20
1.5296456006
 30
0.0
 10
4.7299767067
 20
1.5306380807
 30
0.0
 10
4.7605348644
 20
1.5316300319
 30
0.0
 10
4.7895452928
 20
1.5326211584
 30
0.0
 10
4.8166048154
 20
1.5336109699
 30
0.0
 10
4.8413372415
 20
1.534599064
 30
0.0
 10
4.8603332616
 20
1.5354468613
 30
0.0
 10
4.874110807
 20
1.536134642
 30
0.0
 10
4.8805008713
 20
1.536480573
 30
0.0
 10
4.883564833
 20
1.536654789
 30
0.0
  0
SPLINE
  5
2DB
100
AcDbEntity
  8
0
100
AcDbSpline
 62
7
  6
CONTINUOUS
 70
0
 71
3
 72
37
 73
33
 74
0
 42
0.0000001
 43
0.0000001
 44
0.0000000001
 40
0.0
 40
0.0
 40
0.0
 40
0.0
 40
0.0001344716
 40
0.0003879864
 40
0.0007670489
 40
0.001275775
 40
0.0026965538
 40
0.0046781033
 40
0.0072479011
 40
0.0104336842
 40
0.0142635451
 40
0.0187659399
 40
0.0239613947
 40
0.0298288118
 40
0.0434412188
 40
0.0593257735
 40
0.077206784
 40
0.0968223722
 40
0.1180736491
 40
0.1409917912
 40
0.1656096813
 40
0.1919586789
 40
0.2200656929
 40
0.281430509
 40
0.3492778072
 40
0.4231690042
 40
0.5030015979
 40
0.5889138125
 40
0.6811021777
 40
0.7799091435
 40
0.885836896
 40
1.0
 40
1.0
 40
1.0
 40
1.0
 10
4.9292168865
 20
5.0596579156
 30
0.0
 10
4.9292169396
 20
5.0596562082
 30
0.0
 10
4.929215002
 20
5.0596514617
 30
0.0
 10
4.9292108791
 20
5.059642779
 30
0.0
 10
4.929203779
 20
5.0596300555
 30
0.0
 10
4.9291891017
 20
5.0596047125
 30
0.0
 10
4.9291634914
 20
5.0595621036
 30
0.0
 10
4.9291245671
 20
5.0594970028
 30
0.0
 10
4.9290746937
 20
5.0594123029
 30
0.0
 10
4.9290139876
 20
5.0593067495
 30
0.0
 10
4.9289424918
 20
5.0591790877
 30
0.0
 10
4.9288603353
 20
5.0590281503
 30
0.0
 10
4.9287679293
 20
5.0588533406
 30
0.0
 10
4.928623235
 20
5.0585752827
 30
0.0
 10
4.9284172433
 20
5.0581760563
 30
0.0
 10
4.9281381246
 20
5.0576428393
 30
0.0
 10
4.9278164949
 20
5.0570458308
 30
0.0
 10
4.9274507271
 20
5.0563952834
 30
0.0
 10
4.9270417129
 20
5.0556957938
 30
0.0
 10
4.9265915742
 20
5.0549468293
 30
0.0
 10
4.9261008436
 20
5.0541467595
 30
0.0
 10
4.9255702217
 20
5.0532938615
 30
0.0
 10
4.9247880854
 20
5.0520476901
 30
0.0
 10
4.9237164957
 20
5.0503608196
 30
0.0
 10
4.9223159515
 20
5.048193964
 30
0.0
 10
4.9207662114
 20
5.0458443546
 30
0.0
 10
4.9190764437
 20
5.0433122897
 30
0.0
 10
4.9172579844
 20
5.0405866765
 30
0.0
 10
4.9153189553
 20
5.0376517452
 30
0.0
 10
4.9132754259
 20
5.0344813266
 30
0.0
 10
4.911136059
 20
5.0310409705
 30
0.0
 10
4.9097360649
 20
5.0286199353
 30
0.0
 10
4.9090366323
 20
5.0273495238
 30
0.0
  0
SPLINE
  5
2DC
100
AcDbEntity
  8
0
100
AcDbSpline
 62
7
  6
CONTINUOUS
 70
0
 71
3
 72
23
 73
19
 74
0
 42
0.0000001
 43
0.0000001
 44
0.0000000001
 40
0.0
 40
0.0
 40
0.0
 40
0.0
 40
0.0495511169
 40
0.1050485745
 40
0.1657246224
 40
0.2307364554
 40
0.2991820284
 40
0.3701109389
 40
0.5154581556
 40
0.587857889
 40
0.658732046
 40
0.7270963939
 40
0.7920017897
 40
0.8525472599
 40
0.9078931126
 40
0.9572713256
 40
0.979508916
 40
1.0
 40
1.0
 40
1.0
 40
1.0
 10
4.4345526837
 20
1.534052932
 30
0.0
 10
4.4419652995
 20
1.5344092843
 30
0.0
 10
4.4576827818
 20
1.5351085588
 30
0.0
 10
4.4824834178
 20
1.5360966355
 30
0.0
 10
4.5096011795
 20
1.5370865142
 30
0.0
 10
4.5386592968
 20
1.5380776586
 30
0.0
 10
4.5692537787
 20
1.539069637
 30
0.0
 10
4.611875135
 20
1.5404037924
 30
0.0
 10
4.6550896795
 20
1.5417151734
 30
0.0
 10
4.6982955887
 20
1.5430406006
 30
0.0
 10
4.7299767067
 20
1.5440330807
 30
0.0
 10
4.7605348644
 20
1.5450250319
 30
0.0
 10
4.7895452928
 20
1.5460161584
 30
0.0
 10
4.8166048154
 20
1.5470059699
 30
0.0
 10
4.8413372415
 20
1.547994064
 30
0.0
 10
4.8603332616
 20
1.5488418613
 30
0.0
 10
4.874110807
 20
1.549529642
 30
0.0
 10
4.8805008713
 20
1.549875573
 30
0.0
 10
4.883564833
 20
1.550049789
 30
0.0
  0
SPLINE
  5
2DD
100
AcDbEntity
  8
0
100
AcDbSpline
 62
7
  6
CONTINUOUS
 70
0
 71
3
 72
39
 73
35
 74
0
 42
0.0000001
 43
0.0000001
 44
0.0000000001
 40
0.0
 40
0.0
 40
0.0
 40
0.0
 40
0.0001047711
 40
0.0002469976
 40
0.0004548815
 40
0.0010678332
 40
0.0019407667
 40
0.0044468085
 40
0.0079313049
 40
0.0123519316
 40
0.017667083
 40
0.0238362021
 40
0.0308199603
 40
0.038581922
 40
0.0470971926
 40
0.0663033526
 40
0.0882656289
 40
0.1128056118
 40
0.1397420374
 40
0.1688611016
 40
0.1998881958
 40
0.2325491115
 40
0.3017307778
 40
0.3746107296
 40
0.450047205
 40
0.5271560618
 40
0.6051499158
 40
0.6832268844
 40
0.7610694368
 40
0.8390072062
 40
0.8782245907
 40
0.9178422314
 40
0.9582505113
 40
1.0
 40
1.0
 40
1.0
 40
1.0
 10
4.9292034594
 20
5.0628091738
 30
0.0
 10
4.9292035026
 20
5.062808627
 30
0.0
 10
4.9292012872
 20
5.0628087522
 30
0.0
 10
4.9291995903
 20
5.0628097027
 30
0.0
 10
4.9291947243
 20
5.0628118447
 30
0.0
 10
4.929187213
 20
5.0628161883
 30
0.0
 10
4.9291690115
 20
5.0628267233
 30
0.0
 10
4.929138424
 20
5.0628454037
 30
0.0
 10
4.9290916965
 20
5.0628735597
 30
0.0
 10
4.9290321527
 20
5.06290882
 30
0.0
 10
4.9289599318
 20
5.0629502928
 30
0.0
 10
4.9288753428
 20
5.0629971387
 30
0.0
 10
4.9287786277
 20
5.0630485067
 30
0.0
 10
4.9286699714
 20
5.0631035285
 30
0.0
 10
4.9285029096
 20
5.0631848079
 30
0.0
 10
4.9282668509
 20
5.0632941377
 30
0.0
 10
4.9279524473
 20
5.063433815
 30
0.0
 10
4.9275994224
 20
5.0635861871
 30
0.0
 10
4.9272109339
 20
5.0637509198
 30
0.0
 10
4.9267901182
 20
5.0639264057
 30
0.0
 10
4.9263391276
 20
5.064107343
 30
0.0
 10
4.9256886741
 20
5.0643540969
 30
0.0
 10
4.9248213028
 20
5.0646466619
 30
0.0
 10
4.9237184334
 20
5.0649343353
 30
0.0
 10
4.9225563191
 20
5.0651469981
 30
0.0
 10
4.9213539318
 20
5.0652679464
 30
0.0
 10
4.9201312226
 20
5.0652807659
 30
0.0
 10
4.9189094517
 20
5.0651593175
 30
0.0
 10
4.9177143061
 20
5.0648753999
 30
0.0
 10
4.9167653785
 20
5.0644822548
 30
0.0
 10
4.9160620506
 20
5.0640562943
 30
0.0
 10
4.9155669137
 20
5.0636735322
 30
0.0
 10
4.9151132436
 20
5.0632232261
 30
0.0
 10
4.9148491701
 20
5.0628817908
 30
0.0
 10
4.9147269801
 20
5.0627005466
 30
0.0
  0
LINE
  5
2DE
100
AcDbEntity
  8
0
100
AcDbLine
 62
7
  6
CONTINUOUS
 10
4.4521894165
 20
4.8907665898
 11
4.3715063632
 21
5.1363640292
  0
SPLINE
  5
2DF
100
AcDbEntity
  8
0
100
AcDbSpline
 62
7
  6
CONTINUOUS
 70
0
 71
3
 72
24
 73
20
 74
0
 42
0.0000001
 43
0.0000001
 44
0.0000000001
 40
0.0
 40
0.0
 40
0.0
 40
0.0
 40
0.0209458286
 40
0.0437803946
 40
0.0684060337
 40
0.0947281661
 40
0.1520469253
 40
0.21483555
 40
0.3170973846
 40
0.4258200338
 40
0.5371631325
 40
0.6471933787
 40
0.752024219
 40
0.8013219538
 40
0.8479531265
 40
0.8915058791
 40
0.9315940258
 40
0.9678668175
 40
1.0
 40
1.0
 40
1.0
 40
1.0
 10
4.414814833
 20
1.6395258699
 30
0.0
 10
4.4180845639
 20
1.639711786
 30
0.0
 10
4.4249199967
 20
1.6400805848
 30
0.0
 10
4.4356026309
 20
1.6406098762
 30
0.0
 10
4.44712682
 20
1.6411395335
 30
0.0
 10
4.4640393585
 20
1.6418669075
 30
0.0
 10
4.4869169607
 20
1.6427657089
 30
0.0
 10
4.52166339
 20
1.6440145692
 30
0.0
 10
4.5644463353
 20
1.6454256753
 30
0.0
 10
4.6148199255
 20
1.6469925403
 30
0.0
 10
4.666408692
 20
1.6485604944
 30
0.0
 10
4.7173886781
 20
1.6501279998
 30
0.0
 10
4.758670209
 20
1.6514575303
 30
0.0
 10
4.7900416827
 20
1.6525377394
 30
0.0
 10
4.8118361144
 20
1.6533307457
 30
0.0
 10
4.832189586
 20
1.6541230159
 30
0.0
 10
4.8509221918
 20
1.6549142571
 30
0.0
 10
4.8678675897
 20
1.6557041254
 30
0.0
 10
4.8785487097
 20
1.6562645736
 30
0.0
 10
4.883564833
 20
1.656549789
 30
0.0
  0
SPLINE
  5
2E0
100
AcDbEntity
  8
0
100
AcDbSpline
 62
7
  6
CONTINUOUS
 70
0
 71
3
 72
24
 73
20
 74
0
 42
0.0000001
 43
0.0000001
 44
0.0000000001
 40
0.0
 40
0.0
 40
0.0
 40
0.0
 40
0.0209458286
 40
0.0437803946
 40
0.0684060337
 40
0.0947281661
 40
0.1520469253
 40
0.21483555
 40
0.3170973846
 40
0.4258200338
 40
0.5371631325
 40
0.6471933787
 40
0.752024219
 40
0.8013219538
 40
0.8479531265
 40
0.8915058791
 40
0.9315940258
 40
0.9678668175
 40
1.0
 40
1.0
 40
1.0
 40
1.0
 10
4.414814833
 20
1.5862758699
 30
0.0
 10
4.4180845639
 20
1.586461786
 30
0.0
 10
4.4249199967
 20
1.5868305848
 30
0.0
 10
4.4356026309
 20
1.5873598762
 30
0.0
 10
4.44712682
 20
1.5878895335
 30
0.0
 10
4.4640393585
 20
1.5886169075
 30
0.0
 10
4.4869169607
 20
1.5895157089
 30
0.0
 10
4.52166339
 20
1.5907645692
 30
0.0
 10
4.5644463353
 20
1.5921756753
 30
0.0
 10
4.6148199255
 20
1.5937425403
 30
0.0
 10
4.666408692
 20
1.5953104944
 30
0.0
 10
4.7173886781
 20
1.5968779998
 30
0.0
 10
4.758670209
 20
1.5982075303
 30
0.0
 10
4.7900416827
 20
1.5992877394
 30
0.0
 10
4.8118361144
 20
1.6000807457
 30
0.0
 10
4.832189586
 20
1.6008730159
 30
0.0
 10
4.8509221918
 20
1.6016642571
 30
0.0
 10
4.8678675897
 20
1.6024541254
 30
0.0
 10
4.8785487097
 20
1.6030145736
 30
0.0
 10
4.883564833
 20
1.603299789
 30
0.0
  0
SPLINE
  5
2E1
100
AcDbEntity
  8
0
100
AcDbSpline
 62
7
  6
CONTINUOUS
 70
0
 71
3
 72
24
 73
20
 74
0
 42
0.0000001
 43
0.0000001
 44
0.0000000001
 40
0.0
 40
0.0
 40
0.0
 40
0.0
 40
0.0209458286
 40
0.0437803946
 40
0.0684060337
 40
0.0947281661
 40
0.1520469253
 40
0.21483555
 40
0.3170973846
 40
0.4258200338
 40
0.5371631325
 40
0.6471933787
 40
0.752024219
 40
0.8013219538
 40
0.8479531265
 40
0.8915058791
 40
0.9315940258
 40
0.9678668175
 40
1.0
 40
1.0
 40
1.0
 40
1.0
 10
4.414814833
 20
1.6261308699
 30
0.0
 10
4.4180845639
 20
1.626316786
 30
0.0
 10
4.4249199967
 20
1.6266855848
 30
0.0
 10
4.4356026309
 20
1.6272148762
 30
0.0
 10
4.44712682
 20
1.6277445335
 30
0.0
 10
4.4640393585
 20
1.6284719075
 30
0.0
 10
4.4869169607
 20
1.6293707089
 30
0.0
 10
4.52166339
 20
1.6306195692
 30
0.0
 10
4.5644463353
 20
1.6320306753
 30
0.0
 10
4.6148199255
 20
1.6335975403
 30
0.0
 10
4.666408692
 20
1.6351654944
 30
0.0
 10
4.7173886781
 20
1.6367329998
 30
0.0
 10
4.758670209
 20
1.6380625303
 30
0.0
 10
4.7900416827
 20
1.6391427394
 30
0.0
 10
4.8118361144
 20
1.6399357457
 30
0.0
 10
4.832189586
 20
1.6407280159
 30
0.0
 10
4.8509221918
 20
1.6415192571
 30
0.0
 10
4.8678675897
 20
1.6423091254
 30
0.0
 10
4.8785487097
 20
1.6428695736
 30
0.0
 10
4.883564833
 20
1.643154789
 30
0.0
  0
SPLINE
  5
2E2
100
AcDbEntity
  8
0
100
AcDbSpline
 62
7
  6
CONTINUOUS
 70
0
 71
3
 72
24
 73
20
 74
0
 42
0.0000001
 43
0.0000001
 44
0.0000000001
 40
0.0
 40
0.0
 40
0.0
 40
0.0
 40
0.0209458286
 40
0.0437803946
 40
0.0684060337
 40
0.0947281661
 40
0.1520469253
 40
0.21483555
 40
0.3170973846
 40
0.4258200338
 40
0.5371631325
 40
0.6471933787
 40
0.752024219
 40
0.8013219538
 40
0.8479531265
 40
0.8915058791
 40
0.9315940258
 40
0.9678668175
 40
1.0
 40
1.0
 40
1.0
 40
1.0
 10
4.414814833
 20
1.5728808699
 30
0.0
 10
4.4180845639
 20
1.573066786
 30
0.0
 10
4.4249199967
 20
1.5734355848
 30
0.0
 10
4.4356026309
 20
1.5739648762
 30
0.0
 10
4.44712682
 20
1.5744945335
 30
0.0
 10
4.4640393585
 20
1.5752219075
 30
0.0
 10
4.4869169607
 20
1.5761207089
 30
0.0
 10
4.52166339
 20
1.5773695692
 30
0.0
 10
4.5644463353
 20
1.5787806753
 30
0.0
 10
4.6148199255
 20
1.5803475403
 30
0.0
 10
4.666408692
 20
1.5819154944
 30
0.0
 10
4.7173886781
 20
1.5834829998
 30
0.0
 10
4.758670209
 20
1.5848125303
 30
0.0
 10
4.7900416827
 20
1.5858927394
 30
0.0
 10
4.8118361144
 20
1.5866857457
 30
0.0
 10
4.832189586
 20
1.5874780159
 30
0.0
 10
4.8509221918
 20
1.5882692571
 30
0.0
 10
4.8678675897
 20
1.5890591254
 30
0.0
 10
4.8785487097
 20
1.5896195736
 30
0.0
 10
4.883564833
 20
1.589904789
 30
0.0
  0
SPLINE
  5
2E3
100
AcDbEntity
  8
0
100
AcDbSpline
 62
7
  6
CONTINUOUS
 70
0
 71
3
 72
24
 73
20
 74
0
 42
0.0000001
 43
0.0000001
 44
0.0000000001
 40
0.0
 40
0.0
 40
0.0
 40
0.0
 40
0.0209458286
 40
0.0437803946
 40
0.0684060337
 40
0.0947281661
 40
0.1520469253
 40
0.21483555
 40
0.3170973846
 40
0.4258200338
 40
0.5371631325
 40
0.6471933787
 40
0.752024219
 40
0.8013219538
 40
0.8479531265
 40
0.8915058791
 40
0.9315940258
 40
0.9678668175
 40
1.0
 40
1.0
 40
1.0
 40
1.0
 10
4.414814833
 20
1.4797758699
 30
0.0
 10
4.4180845639
 20
1.479961786
 30
0.0
 10
4.4249199967
 20
1.4803305848
 30
0.0
 10
4.4356026309
 20
1.4808598762
 30
0.0
 10
4.44712682
 20
1.4813895335
 30
0.0
 10
4.4640393585
 20
1.4821169075
 30
0.0
 10
4.4869169607
 20
1.4830157089
 30
0.0
 10
4.52166339
 20
1.4842645692
 30
0.0
 10
4.5644463353
 20
1.4856756753
 30
0.0
 10
4.6148199255
 20
1.4872425403
 30
0.0
 10
4.666408692
 20
1.4888104944
 30
0.0
 10
4.7173886781
 20
1.4903779998
 30
0.0
 10
4.758670209
 20
1.4917075303
 30
0.0
 10
4.7900416827
 20
1.4927877394
 30
0.0
 10
4.8118361144
 20
1.4935807457
 30
0.0
 10
4.832189586
 20
1.4943730159
 30
0.0
 10
4.8509221918
 20
1.4951642571
 30
0.0
 10
4.8678675897
 20
1.4959541254
 30
0.0
 10
4.8785487097
 20
1.4965145736
 30
0.0
 10
4.883564833
 20
1.496799789
 30
0.0
  0
SPLINE
  5
2E4
100
AcDbEntity
  8
0
100
AcDbSpline
 62
7
  6
CONTINUOUS
 70
0
 71
3
 72
21
 73
17
 74
0
 42
0.0000001
 43
0.0000001
 44
0.0000000001
 40
0.0
 40
0.0
 40
0.0
 40
0.0
 40
0.048766087
 40
0.1028519339
 40
0.1616206156
 40
0.2243796115
 40
0.3243707962
 40
0.4290166907
 40
0.535544065
 40
0.6411293543
 40
0.7429740232
 40
0.8383793476
 40
0.8828688924
 40
0.9248164099
 40
0.963949499
 40
1.0
 40
1.0
 40
1.0
 40
1.0
 10
4.414814833
 20
1.497658401
 30
0.0
 10
4.4224313792
 20
1.4979845791
 30
0.0
 10
4.4384973067
 20
1.4986267092
 30
0.0
 10
4.4637467803
 20
1.4995387048
 30
0.0
 10
4.4911850035
 20
1.5004520552
 30
0.0
 10
4.5257978811
 20
1.5015319484
 30
0.0
 10
4.5675815959
 20
1.5027560192
 30
0.0
 10
4.6162063587
 20
1.5041190464
 30
0.0
 10
4.6657059568
 20
1.5054826531
 30
0.0
 10
4.714767489
 20
1.5068459266
 30
0.0
 10
4.7620896746
 20
1.5082079904
 30
0.0
 10
4.7998627434
 20
1.5093660213
 30
0.0
 10
4.8282743906
 20
1.5103048503
 30
0.0
 10
4.8478925617
 20
1.5109921014
 30
0.0
 10
4.8661906267
 20
1.5116788113
 30
0.0
 10
4.8779342745
 20
1.5121566718
 30
0.0
 10
4.883564833
 20
1.5123978
 30
0.0
  0
SPLINE
  5
2E5
100
AcDbEntity
  8
0
100
AcDbSpline
 62
7
  6
CONTINUOUS
 70
0
 71
3
 72
21
 73
17
 74
0
 42
0.0000001
 43
0.0000001
 44
0.0000000001
 40
0.0
 40
0.0
 40
0.0
 40
0.0
 40
0.0487660872
 40
0.102851928
 40
0.1616206153
 40
0.2243796186
 40
0.3243707792
 40
0.4290167055
 40
0.5355440493
 40
0.6411293582
 40
0.7429740195
 40
0.8383793421
 40
0.8828688956
 40
0.9248164122
 40
0.9639494978
 40
1.0
 40
1.0
 40
1.0
 40
1.0
 10
4.883564833
 20
1.5187722579
 30
0.0
 10
4.8759482868
 20
1.5184460799
 30
0.0
 10
4.8598823602
 20
1.5178039497
 30
0.0
 10
4.8346328866
 20
1.5168919541
 30
0.0
 10
4.8071946624
 20
1.5159786037
 30
0.0
 10
4.7725817865
 20
1.5148987106
 30
0.0
 10
4.7307980693
 20
1.5136746397
 30
0.0
 10
4.6821733101
 20
1.5123116126
 30
0.0
 10
4.6326737087
 20
1.5109480058
 30
0.0
 10
4.5836121794
 20
1.5095847325
 30
0.0
 10
4.5362899922
 20
1.5082226685
 30
0.0
 10
4.4985169235
 20
1.5070646377
 30
0.0
 10
4.4701052755
 20
1.5061258087
 30
0.0
 10
4.4504871036
 20
1.5054385576
 30
0.0
 10
4.4321890391
 20
1.5047518477
 30
0.0
 10
4.4204453917
 20
1.5042739872
 30
0.0
 10
4.414814833
 20
1.5040328589
 30
0.0
  0
SPLINE
  5
2E6
100
AcDbEntity
  8
0
100
AcDbSpline
 62
7
  6
CONTINUOUS
 70
0
 71
3
 72
21
 73
17
 74
0
 42
0.0000001
 43
0.0000001
 44
0.0000000001
 40
0.0
 40
0.0
 40
0.0
 40
0.0
 40
0.048766087
 40
0.1028519339
 40
0.1616206156
 40
0.2243796115
 40
0.3243707962
 40
0.4290166907
 40
0.535544065
 40
0.6411293543
 40
0.7429740232
 40
0.8383793476
 40
0.8828688924
 40
0.9248164099
 40
0.963949499
 40
1.0
 40
1.0
 40
1.0
 40
1.0
 10
4.414814833
 20
1.550908401
 30
0.0
 10
4.4224313792
 20
1.5512345791
 30
0.0
 10
4.4384973067
 20
1.5518767092
 30
0.0
 10
4.4637467803
 20
1.5527887048
 30
0.0
 10
4.4911850035
 20
1.5537020552
 30
0.0
 10
4.5257978811
 20
1.5547819484
 30
0.0
 10
4.5675815959
 20
1.5560060192
 30
0.0
 10
4.6162063587
 20
1.5573690464
 30
0.0
 10
4.6657059568
 20
1.5587326531
 30
0.0
 10
4.714767489
 20
1.5600959266
 30
0.0
 10
4.7620896746
 20
1.5614579904
 30
0.0
 10
4.7998627434
 20
1.5626160213
 30
0.0
 10
4.8282743906
 20
1.5635548503
 30
0.0
 10
4.8478925617
 20
1.5642421014
 30
0.0
 10
4.8661906267
 20
1.5649288113
 30
0.0
 10
4.8779342745
 20
1.5654066718
 30
0.0
 10
4.883564833
 20
1.5656478
 30
0.0
  0
SPLINE
  5
2E7
100
AcDbEntity
  8
0
100
AcDbSpline
 62
7
  6
CONTINUOUS
 70
0
 71
3
 72
21
 73
17
 74
0
 42
0.0000001
 43
0.0000001
 44
0.0000000001
 40
0.0
 40
0.0
 40
0.0
 40
0.0
 40
0.0487660872
 40
0.102851928
 40
0.1616206151
 40
0.2243796182
 40
0.3243707785
 40
0.4290167047
 40
0.5355440489
 40
0.6411293576
 40
0.742974019
 40
0.8383793414
 40
0.8828688952
 40
0.9248164121
 40
0.9639494977
 40
1.0
 40
1.0
 40
1.0
 40
1.0
 10
4.883564833
 20
1.5720222579
 30
0.0
 10
4.8759482868
 20
1.5716960799
 30
0.0
 10
4.8598823602
 20
1.5710539497
 30
0.0
 10
4.8346328866
 20
1.5701419541
 30
0.0
 10
4.8071946625
 20
1.5692286038
 30
0.0
 10
4.7725817867
 20
1.5681487106
 30
0.0
 10
4.7307980696
 20
1.5669246397
 30
0.0
 10
4.6821733104
 20
1.5655616126
 30
0.0
 10
4.632673709
 20
1.5641980058
 30
0.0
 10
4.5836121796
 20
1.5628347325
 30
0.0
 10
4.5362899925
 20
1.5614726686
 30
0.0
 10
4.4985169237
 20
1.5603146377
 30
0.0
 10
4.4701052756
 20
1.5593758087
 30
0.0
 10
4.4504871037
 20
1.5586885576
 30
0.0
 10
4.4321890391
 20
1.5580018477
 30
0.0
 10
4.4204453917
 20
1.5575239872
 30
0.0
 10
4.414814833
 20
1.5572828589
 30
0.0
  0
ENDSEC
  0
SECTION
  2
OBJECTS
  0
DICTIONARY
  5
C
100
AcDbDictionary
280
0
281
1
  3
ACAD_GROUP
350
D
  3
ACAD_MLINESTYLE
350
17
  3
ACAD_LAYOUT
350
1A
  3
ACAD_PLOTSETTINGS
350
19
  3
ACAD_PLOTSTYLENAME
350
E
  0
DICTIONARY
  5
D
102
{ACAD_REACTORS
330
C
102
}
100
AcDbDictionary
280
0
281
1
  0
ACDBDICTIONARYWDFLT
  5
E
102
{ACAD_REACTORS
330
C
102
}
100
AcDbDictionary
281
1
  3
Normal
350
F
100
AcDbDictionaryWithDefault
340
F
  0
DICTIONARY
  5
17
102
{ACAD_REACTORS
330
C
102
}
100
AcDbDictionary
280
0
281
1
  3
Standard
350
18
  0
DICTIONARY
  5
19
102
{ACAD_REACTORS
330
C
102
}
100
AcDbDictionary
281
1
  0
DICTIONARY
  5
1A
102
{ACAD_REACTORS
330
C
102
}
100
AcDbDictionary
281
1
  3
Model
350
2E8
  3
Layout1
350
2E9
  0
ACDBPLACEHOLDER
  5
F
102
{ACAD_REACTORS
330
E
102
}
  0
MLINESTYLE
  5
18
102
{ACAD_REACTORS
330
17
102
}
100
AcDbMlineStyle
  2
STANDARD
 70
0
  3

 62
256
 51
90.0
 52
90.0
 71
2
 49
0.5
 62
256
  6
BYLAYER
 49
-0.5
 62
256
  6
BYLAYER
  0
LAYOUT
  5
2E8
102
{ACAD_REACTORS
330
1A
102
}
100
AcDbPlotSettings
  1

  2
none_device
  4
ANSI_A_(11.00_x_8.50_Inches)
  6

 40
0.0
 41
0.0
 42
0.0
 43
0.0
 44
279.4
 45
215.9
 46
0.0
 47
0.0
 48
0.0
 49
0.0
140
0.0
141
0.0
142
1.0
143
1.0
 70
1024
 72
0
 73
0
 74
0
  7

 75
0
147
1.0
148
0.0
149
0.0
100
AcDbLayout
  1
Model
 70
0
 71
0
 10
0.0
 20
0.0
 11
11.0
 21
8.5
 12
0.0
 22
0.0
 32
0.0
 14
0.0
 24
0.0
 34
0.0
 15
0.0
 25
0.0
 35
0.0
146
0.0
 13
0.0
 23
0.0
 33
0.0
 16
1.0
 26
0.0
 36
0.0
 17
0.0
 27
1.0
 37
0.0
 76
0
330
202
345
0
346
0
  0
LAYOUT
  5
2E9
102
{ACAD_REACTORS
330
1A
102
}
100
AcDbPlotSettings
  1

  2
none_device
  4
ANSI_A_(11.00_x_8.50_Inches)
  6

 40
0.0
 41
0.0
 42
0.0
 43
0.0
 44
279.4
 45
215.9
 46
0.0
 47
0.0
 48
0.0
 49
0.0
140
0.0
141
0.0
142
1.0
143
1.0
 70
0
 72
0
 73
0
 74
0
  7

 75
0
147
1.0
148
0.0
149
0.0
100
AcDbLayout
  1
Layout1
 70
0
 71
1
 10
0.0
 20
0.0
 11
11.0
 21
8.5
 12
0.0
 22
0.0
 32
0.0
 14
0.0
 24
0.0
 34
0.0
 15
0.0
 25
0.0
 35
0.0
146
0.0
 13
0.0
 23
0.0
 33
0.0
 16
1.0
 26
0.0
 36
0.0
 17
0.0
 27
1.0
 37
0.0
 76
0
330
203
345
0
346
0
  0
ENDSEC
  0
EOF
