999
DXF file: 283-4_top.dxf
999
Pro/ENGINEER 2019352 by Parametric Technology Corporation
  0
SECTION
  2
HEADER
  9
$ACADVER
  1
AC1032
  9
$DWGCODEPAGE
  3
ANSI_1252
  9
$EXTMAX
 10
11.0
 20
8.5
 30
0.0
  9
$EXTMIN
 10
0.0
 20
0.0
 30
0.0
  9
$LIMMIN
 10
0.0
 20
0.0
  9
$LIMMAX
 10
11.0
 20
8.5
  9
$VIEWCTR
 10
5.5
 20
4.25
  9
$VIEWSIZE
 40
8.5
  9
$CLAYER
  8
0
  9
$LTSCALE
 40
0.605
  9
$CELTYPE
  6
BYLAYER
  9
$DIMSCALE
 40
1.0
  9
$DIMASZ
 40
0.1
  9
$DIMEXO
 40
0.0625
  9
$DIMDLI
 40
0.418
  9
$DIMEXE
 40
0.125
  9
$DIMCEN
 40
0.099
  9
$DIMLFAC
 40
1.0
  9
$DIMBLK
  1
_FILLED
  9
$DIMALT
 70
1
  9
$DIMALTD
 70
2
  9
$DIMALTTD
 70
2
  9
$DIMALTF
 40
25.4
  9
$DIMTXT
 40
0.08
  9
$DIMTOL
 70
1
  9
$DIMLIM
 70
0
  9
$DIMTFAC
 40
1.0
  9
$DIMTP
 40
0.001
  9
$DIMTM
 40
0.001
  9
$DIMGAP
 40
0.09
  9
$DIMDSEP
 70
46
  9
$AUNITS
 70
0
  9
$PDMODE
 70
3
  9
$PDSIZE
 40
0.3125
  9
$HANDSEED
  5
257
  9
$TILEMODE
 70
1
  9
$MEASUREMENT
 70
0
  9
$INSUNITS
 70
1
  0
ENDSEC
  0
SECTION
  2
CLASSES
  0
CLASS
  1
ACDBDICTIONARYWDFLT
  2
AcDbDictionaryWithDefault
  3
AutoCAD 2000
 90
0
 91
1
280
0
281
0
  0
CLASS
  1
ACDBPLACEHOLDER
  2
AcDbPlaceHolder
  3
AutoCAD 2000
 90
0
 91
1
280
0
281
0
  0
CLASS
  1
LAYOUT
  2
AcDbLayout
  3
AutoCAD 2000
 90
0
 91
0
280
0
281
0
  0
ENDSEC
  0
SECTION
  2
TABLES
  0
TABLE
  2
VPORT
  5
8
100
AcDbSymbolTable
 70
2
  0
VPORT
  5
1F4
100
AcDbSymbolTableRecord
100
AcDbViewportTableRecord
  2
*ACTIVE
 70
0
 10
0.0
 20
0.0
 11
1.0
 21
1.0
 12
5.5
 22
4.25
 13
0.0
 23
0.0
 14
1.0
 24
1.0
 15
0.0
 25
0.0
 16
0.0
 26
0.0
 36
1.0
 17
0.0
 27
0.0
 37
0.0
 40
8.5
 41
1.2941176471
 42
50.0
 43
0.0
 44
0.0
 50
0.0
 51
0.0
 71
0
 72
100
 73
1
 74
1
 75
0
 76
0
 77
0
 78
0
  0
ENDTAB
  0
TABLE
  2
LTYPE
  5
5
100
AcDbSymbolTable
 70
6
  0
LTYPE
  5
14
100
AcDbSymbolTableRecord
100
AcDbLinetypeTableRecord
  2
BYBLOCK
 70
0
  3

 72
65
 73
0
 40
0.0
  0
LTYPE
  5
15
100
AcDbSymbolTableRecord
100
AcDbLinetypeTableRecord
  2
BYLAYER
 70
0
  3

 72
65
 73
0
 40
0.0
  0
LTYPE
  5
16
100
AcDbSymbolTableRecord
100
AcDbLinetypeTableRecord
  2
CONTINUOUS
 70
64
  3
Solid line
 72
65
 73
0
 40
0.0
  0
LTYPE
  5
1F5
100
AcDbSymbolTableRecord
100
AcDbLinetypeTableRecord
  2
CENTER
 70
64
  3
____ _ ____ _ ____ _ ____ _ ____ _ ____ _ ____
 72
65
 73
4
 40
0.6
 49
0.375
 74
0
 49
-0.075
 74
0
 49
0.075
 74
0
 49
-0.075
 74
0
  0
LTYPE
  5
1F6
100
AcDbSymbolTableRecord
100
AcDbLinetypeTableRecord
  2
HIDDEN
 70
64
  3
- - - - - - - - - - - - - - - - - - - -
 72
65
 73
2
 40
0.2
 49
0.1
 74
0
 49
-0.1
 74
0
  0
LTYPE
  5
1F7
100
AcDbSymbolTableRecord
100
AcDbLinetypeTableRecord
  2
PHANTOM
 70
64
  3
_____ _ _ _____ _ _ _____ _ _ _____
 72
65
 73
6
 40
0.8
 49
0.45
 74
0
 49
-0.05
 74
0
 49
0.1
 74
0
 49
-0.05
 74
0
 49
0.1
 74
0
 49
-0.05
 74
0
  0
LTYPE
  5
1F8
100
AcDbSymbolTableRecord
100
AcDbLinetypeTableRecord
  2
DOT
 70
64
  3
. . . . . . . . . . . . . . . . . . . .
 72
65
 73
2
 40
0.2
 49
0.1
 74
0
 49
-0.1
 74
0
  0
LTYPE
  5
1F9
100
AcDbSymbolTableRecord
100
AcDbLinetypeTableRecord
  2
DASHED
 70
64
  3
- - - - - - - - - - - - - - - - - - - -
 72
65
 73
2
 40
0.2
 49
0.1
 74
0
 49
-0.1
 74
0
  0
ENDTAB
  0
TABLE
  2
LAYER
  5
2
100
AcDbSymbolTable
 70
36
  0
LAYER
  5
10
100
AcDbSymbolTableRecord
100
AcDbLayerTableRecord
  2
0
 70
0
 62
7
  6
CONTINUOUS
370
-3
390
F
  0
LAYER
  5
1FA
100
AcDbSymbolTableRecord
100
AcDbLayerTableRecord
  2
DEFAULT_1
 70
0
 62
7
  6
CENTER
370
-3
390
F
  0
LAYER
  5
1FB
100
AcDbSymbolTableRecord
100
AcDbLayerTableRecord
  2
DEFAULT_2
 70
0
 62
8
  6
HIDDEN
370
-3
390
F
  0
LAYER
  5
1FC
100
AcDbSymbolTableRecord
100
AcDbLayerTableRecord
  2
DEFAULT_3
 70
0
 62
7
  6
PHANTOM
370
-3
390
F
  0
LAYER
  5
1FD
100
AcDbSymbolTableRecord
100
AcDbLayerTableRecord
  2
DEFAULT_COORDINATE_SYSTEM
 70
0
 62
7
  6
CONTINUOUS
370
-3
390
F
  0
LAYER
  5
1FE
100
AcDbSymbolTableRecord
100
AcDbLayerTableRecord
  2
DEFAULT_DATUM_AXES
 70
0
 62
7
  6
CONTINUOUS
370
-3
390
F
  0
LAYER
  5
1FF
100
AcDbSymbolTableRecord
100
AcDbLayerTableRecord
  2
DEFAULT_DATUM_PLANES
 70
0
 62
7
  6
CONTINUOUS
370
-3
390
F
  0
ENDTAB
  0
TABLE
  2
STYLE
  5
3
100
AcDbSymbolTable
 70
1
  0
STYLE
  5
11
100
AcDbSymbolTableRecord
100
AcDbTextStyleTableRecord
  2
STANDARD
 70
0
 40
0.0
 41
0.8
 50
0.0
 71
0
 42
0.2
  3
txt
  4

  0
STYLE
  5
200
100
AcDbSymbolTableRecord
100
AcDbTextStyleTableRecord
  2
TEXTSTYLE_1
 70
0
 40
0.0
 41
0.8
 50
0.0
 71
0
 42
0.2
  3
gdt
  4

  0
ENDTAB
  0
TABLE
  2
VIEW
  5
6
100
AcDbSymbolTable
 70
0
  0
ENDTAB
  0
TABLE
  2
UCS
  5
7
100
AcDbSymbolTable
 70
0
  0
ENDTAB
  0
TABLE
  2
APPID
  5
9
100
AcDbSymbolTable
 70
1
  0
APPID
  5
201
100
AcDbSymbolTableRecord
100
AcDbRegAppTableRecord
  2
ACAD
 70
0
  0
ENDTAB
  0
TABLE
  2
BLOCK_RECORD
  5
1
100
AcDbSymbolTable
 70
0
  0
BLOCK_RECORD
  5
202
100
AcDbSymbolTableRecord
100
AcDbBlockTableRecord
  2
*Model_Space
  0
BLOCK_RECORD
  5
203
100
AcDbSymbolTableRecord
100
AcDbBlockTableRecord
  2
*Paper_Space
  0
BLOCK_RECORD
  5
204
100
AcDbSymbolTableRecord
100
AcDbBlockTableRecord
  2
_FILLED
  0
ENDTAB
  0
TABLE
  2
DIMSTYLE
  5
A
100
AcDbSymbolTable
 70
1
100
AcDbDimStyleTable
 71
0
  0
DIMSTYLE
105
205
100
AcDbSymbolTableRecord
100
AcDbDimStyleTableRecord
  2
STANDARD
 70
0
  3

  4

 40
1.0
 41
0.1
 42
0.0625
 43
0.38
 44
0.125
 45
0.0
 46
0.0
 47
0.001
 48
0.001
140
0.08
141
0.09
142
0.0
143
25.4
144
1.0
145
0.0
146
1.0
147
0.09
 71
1.0
 72
0.0
 73
1
 74
1
 75
0
 76
0
 77
0
 78
4
 79
1
170
1
171
2
172
0
173
0
174
0
175
0
176
0
177
0
178
0
270
2
179
3
271
3
272
3
273
2
274
2
275
0
280
0
281
0
282
0
283
1
284
4
285
0
286
0
287
3
288
0
340
11
278
46
341
204
342
204
343
204
344
204
  0
ENDTAB
  0
ENDSEC
  0
SECTION
  2
BLOCKS
  0
BLOCK
  5
20
100
AcDbEntity
  8
0
100
AcDbBlockBegin
  2
*Model_Space
 70
0
 10
0.0
 20
0.0
 30
0.0
  3
*Model_Space
  1

  0
ENDBLK
  5
21
100
AcDbEntity
  8
0
100
AcDbBlockEnd
  0
BLOCK
  5
1C
100
AcDbEntity
  8
0
100
AcDbBlockBegin
  2
*Paper_Space
 70
0
 10
0.0
 20
0.0
 30
0.0
  3
*Paper_Space
  1

  0
ENDBLK
  5
1D
100
AcDbEntity
  8
0
100
AcDbBlockEnd
  0
BLOCK
  5
206
100
AcDbEntity
  8
0
100
AcDbBlockBegin
  2
_FILLED
 70
64
 10
0.0
 20
0.0
  3
_FILLED
  1

  0
SOLID
  5
207
100
AcDbEntity
  8
0
  6
BYBLOCK
 62
0
100
AcDbTrace
 10
0.0
 20
0.0
 11
-1.0
 21
0.2
 12
-1.0
 22
-0.2
 13
-1.0
 23
-0.2
  0
ENDBLK
  5
208
100
AcDbEntity
  8
0
  6
BYBLOCK
 62
0
100
AcDbBlockEnd
  0
ENDSEC
  0
SECTION
  2
ENTITIES
  0
MTEXT
  5
209
100
AcDbEntity
  8
0
100
AcDbMText
 62
2
  6
CONTINUOUS
  7
STANDARD
 71
3
 72
1
 10
4.7605277604
 20
2.9797515095
 30
0.0
 11
1.0
 21
0.0
 31
0.0
 73
2
 44
0.9
  1
SCALE 0.750
 40
0.08
 41
0.704
  0
LINE
  5
20A
100
AcDbEntity
  8
0
100
AcDbLine
 62
7
  6
CONTINUOUS
 10
0.0
 20
0.0
 11
0.0
 21
8.5
  0
LINE
  5
20B
100
AcDbEntity
  8
0
100
AcDbLine
 62
7
  6
CONTINUOUS
 10
0.0
 20
0.0
 11
11.0
 21
0.0
  0
LINE
  5
20C
100
AcDbEntity
  8
0
100
AcDbLine
 62
7
  6
CONTINUOUS
 10
0.0
 20
8.5
 11
11.0
 21
8.5
  0
LINE
  5
20D
100
AcDbEntity
  8
0
100
AcDbLine
 62
7
  6
CONTINUOUS
 10
11.0
 20
0.0
 11
11.0
 21
8.5
  0
LINE
  5
20E
100
AcDbEntity
  8
0
100
AcDbLine
 62
7
  6
CONTINUOUS
 10
3.5560696361
 20
3.6029108325
 11
3.5560696361
 21
4.7664289198
  0
LINE
  5
20F
100
AcDbEntity
  8
0
100
AcDbLine
 62
7
  6
CONTINUOUS
 10
3.5935696361
 20
3.5654108329
 11
3.5935696361
 21
4.8011983143
  0
LINE
  5
210
100
AcDbEntity
  8
0
100
AcDbLine
 62
7
  6
CONTINUOUS
 10
3.6136064327
 20
3.8739721205
 11
3.6136064327
 21
3.68621739
  0
LINE
  5
211
100
AcDbEntity
  8
0
100
AcDbLine
 62
7
  6
CONTINUOUS
 10
3.6160696361
 20
4.8123575681
 11
3.6160696361
 21
4.8096269627
  0
LINE
  5
212
100
AcDbEntity
  8
0
100
AcDbLine
 62
7
  6
CONTINUOUS
 10
3.6348196361
 20
3.8683530216
 11
3.6348196361
 21
3.6805982911
  0
LINE
  5
213
100
AcDbEntity
  8
0
100
AcDbLine
 62
7
  6
CONTINUOUS
 10
3.6985696361
 20
3.6214903203
 11
3.6985696361
 21
3.6074189687
  0
LINE
  5
214
100
AcDbEntity
  8
0
100
AcDbLine
 62
7
  6
CONTINUOUS
 10
3.6985696361
 20
3.9274609923
 11
3.6985696361
 21
3.952748631
  0
LINE
  5
215
100
AcDbEntity
  8
0
100
AcDbLine
 62
7
  6
CONTINUOUS
 10
5.1123196361
 20
3.5654108325
 11
3.5935696361
 21
3.5654108325
  0
LINE
  5
216
100
AcDbEntity
  8
0
100
AcDbLine
 62
7
  6
CONTINUOUS
 10
5.1123196361
 20
3.5888630852
 11
3.5935696361
 21
3.5888630852
  0
LINE
  5
217
100
AcDbEntity
  8
0
100
AcDbLine
 62
7
  6
CONTINUOUS
 10
3.6985696361
 20
3.6074189687
 11
5.0073196361
 21
3.6074189687
  0
LINE
  5
218
100
AcDbEntity
  8
0
100
AcDbLine
 62
7
  6
CONTINUOUS
 10
3.6985696361
 20
3.6214903203
 11
5.0073196361
 21
3.6214903203
  0
LINE
  5
219
100
AcDbEntity
  8
0
100
AcDbLine
 62
7
  6
CONTINUOUS
 10
5.0073196361
 20
3.9274609923
 11
3.6985696361
 21
3.9274609923
  0
LINE
  5
21A
100
AcDbEntity
  8
0
100
AcDbLine
 62
7
  6
CONTINUOUS
 10
5.0073196361
 20
3.952748631
 11
3.6985696361
 21
3.952748631
  0
LINE
  5
21B
100
AcDbEntity
  8
0
100
AcDbLine
 62
7
  6
CONTINUOUS
 10
5.1123196361
 20
3.9713264252
 11
3.5935696361
 21
3.9713264252
  0
LINE
  5
21C
100
AcDbEntity
  8
0
100
AcDbLine
 62
7
  6
CONTINUOUS
 10
5.1123196361
 20
4.020143567
 11
3.5935696361
 21
4.020143567
  0
LINE
  5
21D
100
AcDbEntity
  8
0
100
AcDbLine
 62
7
  6
CONTINUOUS
 10
4.2231140328
 20
4.8123575681
 11
4.2231140327
 21
4.8096269627
  0
LINE
  5
21E
100
AcDbEntity
  8
0
100
AcDbLine
 62
7
  6
CONTINUOUS
 10
4.4827752396
 20
4.8123575681
 11
4.4827752395
 21
4.8096269627
  0
LINE
  5
21F
100
AcDbEntity
  8
0
100
AcDbLine
 62
7
  6
CONTINUOUS
 10
3.6160696361
 20
4.8096269627
 11
4.2231407115
 21
4.8096269627
  0
LINE
  5
220
100
AcDbEntity
  8
0
100
AcDbLine
 62
7
  6
CONTINUOUS
 10
4.4827752919
 20
4.8096355502
 11
5.0898196361
 21
4.8096269627
  0
LWPOLYLINE
  5
221
100
AcDbEntity
  8
0
100
AcDbPolyline
 62
7
  6
CONTINUOUS
 90
11
 70
0
 10
4.3073992093
 20
4.8178860226
 10
4.2823393033
 20
4.8155580757
 10
4.2758795491
 20
4.8149949227
 10
4.2693268045
 20
4.8144570388
 10
4.262678081
 20
4.813954635
 10
4.255935458
 20
4.8134988273
 10
4.2490919296
 20
4.8131008142
 10
4.2421374422
 20
4.8127726408
 10
4.235071566
 20
4.8125283401
 10
4.227915166
 20
4.8123858928
 10
4.2231140327
 20
4.8123572664
  0
LWPOLYLINE
  5
222
100
AcDbEntity
  8
0
100
AcDbPolyline
 62
7
  6
CONTINUOUS
 90
9
 70
0
 10
4.3529446371
 20
4.820445262
 10
4.3496328537
 20
4.8204278341
 10
4.3437108781
 20
4.8203105615
 10
4.3377198899
 20
4.8200908508
 10
4.331681848
 20
4.819779847
 10
4.3256228606
 20
4.819390908
 10
4.319564043
 20
4.8189380715
 10
4.3134956892
 20
4.8184324722
 10
4.3073992093
 20
4.8178860226
  0
LINE
  5
223
100
AcDbEntity
  8
0
100
AcDbLine
 62
7
  6
CONTINUOUS
 10
3.6160696361
 20
4.8123575681
 11
4.2231140328
 21
4.8123575681
  0
LINE
  5
224
100
AcDbEntity
  8
0
100
AcDbLine
 62
7
  6
CONTINUOUS
 10
4.4827752396
 20
4.8123575681
 11
5.0898196361
 21
4.8123575681
  0
LWPOLYLINE
  5
225
100
AcDbEntity
  8
0
100
AcDbPolyline
 62
7
  6
CONTINUOUS
 90
9
 70
0
 10
4.4827752396
 20
4.8123572734
 10
4.4778385358
 20
4.8123876487
 10
4.4707409632
 20
4.8125306768
 10
4.4637291031
 20
4.8127735094
 10
4.4568197052
 20
4.8130993971
 10
4.4500122645
 20
4.8134949628
 10
4.4432993748
 20
4.8139482963
 10
4.4366756031
 20
4.8144483343
 10
4.4301399777
 20
4.8149844188
  0
LWPOLYLINE
  5
226
100
AcDbEntity
  8
0
100
AcDbPolyline
 62
7
  6
CONTINUOUS
 90
8
 70
0
 10
4.3924881776
 20
4.8184156329
 10
4.3863995858
 20
4.8189281876
 10
4.3803236486
 20
4.8193890859
 10
4.3742477676
 20
4.8197825852
 10
4.3681666824
 20
4.820094976
 10
4.3621073519
 20
4.8203140823
 10
4.3561071642
 20
4.820429351
 10
4.3529446371
 20
4.820445262
  0
LINE
  5
227
100
AcDbEntity
  8
0
100
AcDbLine
 62
7
  6
CONTINUOUS
 10
4.4301399777
 20
4.8149844188
 11
4.4173122894
 21
4.8161262984
  0
LINE
  5
228
100
AcDbEntity
  8
0
100
AcDbLine
 62
7
  6
CONTINUOUS
 10
4.4173122894
 20
4.8161262984
 11
4.3924881776
 21
4.8184156329
  0
LINE
  5
229
100
AcDbEntity
  8
0
100
AcDbLine
 62
7
  6
CONTINUOUS
 10
5.0073196361
 20
3.6214903203
 11
5.0073196361
 21
3.6074189687
  0
LINE
  5
22A
100
AcDbEntity
  8
0
100
AcDbLine
 62
7
  6
CONTINUOUS
 10
5.0073196361
 20
3.9274609923
 11
5.0073196361
 21
3.952748631
  0
LINE
  5
22B
100
AcDbEntity
  8
0
100
AcDbLine
 62
7
  6
CONTINUOUS
 10
5.0710696361
 20
3.6805982911
 11
5.0710696361
 21
3.8683530216
  0
LINE
  5
22C
100
AcDbEntity
  8
0
100
AcDbLine
 62
7
  6
CONTINUOUS
 10
5.0898196361
 20
4.8123575681
 11
5.0898196361
 21
4.8096269627
  0
LINE
  5
22D
100
AcDbEntity
  8
0
100
AcDbLine
 62
7
  6
CONTINUOUS
 10
5.0922828396
 20
3.68621739
 11
5.0922828396
 21
3.8739721205
  0
LINE
  5
22E
100
AcDbEntity
  8
0
100
AcDbLine
 62
7
  6
CONTINUOUS
 10
5.1123196361
 20
3.5654108325
 11
5.1123196361
 21
4.8011983143
  0
LINE
  5
22F
100
AcDbEntity
  8
0
100
AcDbLine
 62
7
  6
CONTINUOUS
 10
5.1498196361
 20
4.7664289198
 11
5.1498196361
 21
3.6029108325
  0
ARC
  5
230
100
AcDbEntity
  8
0
100
AcDbCircle
 62
7
  6
CONTINUOUS
 10
4.3529446361
 20
4.5404225808
 40
0.3825
100
AcDbArc
 50
45.3195839891
 51
134.6804160109
  0
ARC
  5
231
100
AcDbEntity
  8
0
100
AcDbCircle
 62
7
  6
CONTINUOUS
 10
4.3529298266
 20
4.5256978003
 40
0.2947520872
100
AcDbArc
 50
88.6320360856
 51
89.2815244483
  0
ARC
  5
232
100
AcDbEntity
  8
0
100
AcDbCircle
 62
7
  6
CONTINUOUS
 10
4.3529818665
 20
4.5275056242
 40
0.2929444977
100
AcDbArc
 50
90.7641332748
 51
91.3635409001
  0
ARC
  5
233
100
AcDbEntity
  8
0
100
AcDbCircle
 62
7
  6
CONTINUOUS
 10
4.3529646268
 20
4.5283871318
 40
0.2920625307
100
AcDbArc
 50
89.2817352795
 51
89.7347342565
  0
ARC
  5
234
100
AcDbEntity
  8
0
100
AcDbCircle
 62
7
  6
CONTINUOUS
 10
4.3529751427
 20
4.530450307
 40
0.2899993289
100
AcDbArc
 50
89.7349246786
 51
90.0060272419
  0
ARC
  5
235
100
AcDbEntity
  8
0
100
AcDbCircle
 62
7
  6
CONTINUOUS
 10
4.3529179248
 20
4.5322323603
 40
0.2882173293
100
AcDbArc
 50
90.2641047818
 51
90.7639545407
  0
ARC
  5
236
100
AcDbEntity
  8
0
100
AcDbCircle
 62
7
  6
CONTINUOUS
 10
4.3528990642
 20
4.5358427534
 40
0.2846068876
100
AcDbArc
 50
89.9908256558
 51
90.263658189
  0
ARC
  5
237
100
AcDbEntity
  8
0
100
AcDbCircle
 62
7
  6
CONTINUOUS
 10
5.1123196361
 20
3.6029108325
 40
0.0375
100
AcDbArc
 50
270.0
 51
359.9999958226
  0
ARC
  5
238
100
AcDbEntity
  8
0
100
AcDbCircle
 62
7
  6
CONTINUOUS
 10
3.5935696361
 20
3.6029108325
 40
0.0375
100
AcDbArc
 50
180.0000041767
 51
270.0
  0
SPLINE
  5
239
100
AcDbEntity
  8
0
100
AcDbSpline
 62
7
  6
CONTINUOUS
 70
0
 71
3
 72
11
 73
7
 74
0
 42
0.0000001
 43
0.0000001
 44
0.0000000001
 40
0.0
 40
0.0
 40
0.0
 40
0.0
 40
0.2489730564
 40
0.4988047255
 40
0.7492448674
 40
1.0
 40
1.0
 40
1.0
 40
1.0
 10
3.657448575
 20
3.6172820076
 30
0.0
 10
3.6605988748
 20
3.6156665121
 30
0.0
 10
3.6671126136
 20
3.6128088196
 30
0.0
 10
3.6773321483
 20
3.6097126649
 30
0.0
 10
3.6878699659
 20
3.6078374254
 30
0.0
 10
3.695003926
 20
3.6074189687
 30
0.0
 10
3.6985696361
 20
3.6074189687
 30
0.0
  0
SPLINE
  5
23A
100
AcDbEntity
  8
0
100
AcDbSpline
 62
7
  6
CONTINUOUS
 70
0
 71
3
 72
11
 73
7
 74
0
 42
0.0000001
 43
0.0000001
 44
0.0000000001
 40
0.0
 40
0.0
 40
0.0
 40
0.0
 40
0.2507552411
 40
0.5011954314
 40
0.7510270028
 40
1.0
 40
1.0
 40
1.0
 40
1.0
 10
5.0073196361
 20
3.6074189687
 30
0.0
 10
5.0108853479
 20
3.6074189687
 30
0.0
 10
5.0180193101
 20
3.6078374258
 30
0.0
 10
5.0285571284
 20
3.609712666
 30
0.0
 10
5.0387766615
 20
3.6128088208
 30
0.0
 10
5.0452903982
 20
3.6156665125
 30
0.0
 10
5.0484406973
 20
3.6172820076
 30
0.0
  0
SPLINE
  5
23B
100
AcDbEntity
  8
0
100
AcDbSpline
 62
7
  6
CONTINUOUS
 70
0
 71
3
 72
24
 73
20
 74
0
 42
0.0000001
 43
0.0000001
 44
0.0000000001
 40
0.0
 40
0.0
 40
0.0
 40
0.0
 40
0.06341986
 40
0.1267700235
 40
0.1900206341
 40
0.2530812077
 40
0.2845289525
 40
0.3158947123
 40
0.3783029957
 40
0.440229653
 40
0.5016304448
 40
0.5625805436
 40
0.6233089306
 40
0.6842251759
 40
0.7457130678
 40
0.8080708255
 40
0.871373432
 40
0.935485399
 40
1.0
 40
1.0
 40
1.0
 40
1.0
 10
5.1498196361
 20
4.7664289198
 30
0.0
 10
5.1498196361
 20
4.7682138964
 30
0.0
 10
5.1495839987
 20
4.7717863576
 30
0.0
 10
5.1485311974
 20
4.7770448863
 30
0.0
 10
5.1468068793
 20
4.7821126012
 30
0.0
 10
5.144840586
 20
4.7861082797
 30
0.0
 10
5.1429812332
 20
4.7891262617
 30
0.0
 10
5.140947013
 20
4.7920067906
 30
0.0
 10
5.1380944448
 20
4.7953488344
 30
0.0
 10
5.1342458216
 20
4.7989032536
 30
0.0
 10
5.1300605504
 20
4.8019836311
 30
0.0
 10
5.1256091169
 20
4.8045957944
 30
0.0
 10
5.1209453472
 20
4.8067709342
 30
0.0
 10
5.1161004568
 20
4.8085461798
 30
0.0
 10
5.1110913963
 20
4.809959821
 30
0.0
 10
5.1059318362
 20
4.8110385746
 30
0.0
 10
5.1006420808
 20
4.8118017519
 30
0.0
 10
5.0952564869
 20
4.8122565073
 30
0.0
 10
5.0916354247
 20
4.8123575681
 30
0.0
 10
5.0898196361
 20
4.8123575681
 30
0.0
  0
SPLINE
  5
23C
100
AcDbEntity
  8
0
100
AcDbSpline
 62
7
  6
CONTINUOUS
 70
0
 71
3
 72
24
 73
20
 74
0
 42
0.0000001
 43
0.0000001
 44
0.0000000001
 40
0.0
 40
0.0
 40
0.0
 40
0.0
 40
0.06341986
 40
0.1267700235
 40
0.1900206341
 40
0.2530812077
 40
0.2845289525
 40
0.3158947123
 40
0.3783029957
 40
0.440229653
 40
0.5016304448
 40
0.5625805436
 40
0.6233089306
 40
0.6842251759
 40
0.7457130678
 40
0.8080708255
 40
0.871373432
 40
0.935485399
 40
1.0
 40
1.0
 40
1.0
 40
1.0
 10
3.5560696361
 20
4.7664289198
 30
0.0
 10
3.5560696361
 20
4.7682138964
 30
0.0
 10
3.5563052736
 20
4.7717863576
 30
0.0
 10
3.5573580749
 20
4.7770448863
 30
0.0
 10
3.5590823929
 20
4.7821126012
 30
0.0
 10
3.5610486862
 20
4.7861082797
 30
0.0
 10
3.562908039
 20
4.7891262617
 30
0.0
 10
3.5649422593
 20
4.7920067906
 30
0.0
 10
3.5677948275
 20
4.7953488344
 30
0.0
 10
3.5716434507
 20
4.7989032536
 30
0.0
 10
3.5758287219
 20
4.8019836311
 30
0.0
 10
3.5802801554
 20
4.8045957944
 30
0.0
 10
3.584943925
 20
4.8067709342
 30
0.0
 10
3.5897888155
 20
4.8085461798
 30
0.0
 10
3.594797876
 20
4.809959821
 30
0.0
 10
3.599957436
 20
4.8110385746
 30
0.0
 10
3.6052471915
 20
4.8118017519
 30
0.0
 10
3.6106327854
 20
4.8122565073
 30
0.0
 10
3.6142538475
 20
4.8123575681
 30
0.0
 10
3.6160696361
 20
4.8123575681
 30
0.0
  0
SPLINE
  5
23D
100
AcDbEntity
  8
0
100
AcDbSpline
 62
7
  6
CONTINUOUS
 70
0
 71
3
 72
23
 73
19
 74
0
 42
0.0000001
 43
0.0000001
 44
0.0000000001
 40
0.0
 40
0.0
 40
0.0
 40
0.0
 40
0.0648189046
 40
0.1295712105
 40
0.1941365748
 40
0.2584564015
 40
0.3224583019
 40
0.3860826341
 40
0.449286053
 40
0.512039077
 40
0.5743297211
 40
0.6361635356
 40
0.6975634648
 40
0.7585714644
 40
0.8192427868
 40
0.8796452879
 40
0.9398789791
 40
1.0
 40
1.0
 40
1.0
 40
1.0
 10
3.6985696361
 20
3.952748631
 30
0.0
 10
3.6957911731
 20
3.952748631
 30
0.0
 10
3.6902337981
 20
3.9524954561
 30
0.0
 10
3.6819786914
 20
3.9513612249
 30
0.0
 10
3.6738818424
 20
3.9494819246
 30
0.0
 10
3.6660226456
 20
3.9468763583
 30
0.0
 10
3.6584757384
 20
3.9435691531
 30
0.0
 10
3.6513138675
 20
3.9395919629
 30
0.0
 10
3.6446060697
 20
3.9349826417
 30
0.0
 10
3.6384169807
 20
3.9297852829
 30
0.0
 10
3.6328061711
 20
3.9240498392
 30
0.0
 10
3.627828087
 20
3.9178311044
 30
0.0
 10
3.6235310026
 20
3.9111887745
 30
0.0
 10
3.6199565152
 20
3.9041868433
 30
0.0
 10
3.6171395061
 20
3.8968929623
 30
0.0
 10
3.6151072047
 20
3.8893766481
 30
0.0
 10
3.6138804198
 20
3.8817123463
 30
0.0
 10
3.6136064327
 20
3.8765492087
 30
0.0
 10
3.6136064327
 20
3.8739721205
 30
0.0
  0
SPLINE
  5
23E
100
AcDbEntity
  8
0
100
AcDbSpline
 62
7
  6
CONTINUOUS
 70
0
 71
3
 72
15
 73
11
 74
0
 42
0.0000001
 43
0.0000001
 44
0.0000000001
 40
0.0
 40
0.0
 40
0.0
 40
0.0
 40
0.1221043677
 40
0.2445620075
 40
0.3676826199
 40
0.4917421773
 40
0.6169348395
 40
0.743374889
 40
0.8710853673
 40
1.0
 40
1.0
 40
1.0
 40
1.0
 10
3.6136064327
 20
3.68621739
 30
0.0
 10
3.6136064327
 20
3.6827211243
 30
0.0
 10
3.6141114069
 20
3.6757081304
 30
0.0
 10
3.6163684647
 20
3.6653899319
 30
0.0
 10
3.6200848702
 20
3.6554417305
 30
0.0
 10
3.6251926652
 20
3.6460433685
 30
0.0
 10
3.6315998889
 20
3.6373606983
 30
0.0
 10
3.6391918395
 20
3.629546757
 30
0.0
 10
3.6478309984
 20
3.622739937
 30
0.0
 10
3.6541640352
 20
3.6189664112
 30
0.0
 10
3.6574486122
 20
3.6172820699
 30
0.0
  0
SPLINE
  5
23F
100
AcDbEntity
  8
0
100
AcDbSpline
 62
7
  6
CONTINUOUS
 70
0
 71
3
 72
23
 73
19
 74
0
 42
0.0000001
 43
0.0000001
 44
0.0000000001
 40
0.0
 40
0.0
 40
0.0
 40
0.0
 40
0.0601210209
 40
0.1203547121
 40
0.1807572132
 40
0.2414285356
 40
0.3024365352
 40
0.3638364644
 40
0.4256702789
 40
0.487960923
 40
0.550713947
 40
0.6139173659
 40
0.6775416981
 40
0.7415435985
 40
0.8058634252
 40
0.8704287895
 40
0.9351810954
 40
1.0
 40
1.0
 40
1.0
 40
1.0
 10
5.0922828396
 20
3.8739721205
 30
0.0
 10
5.0922828396
 20
3.8765492087
 30
0.0
 10
5.0920088524
 20
3.8817123463
 30
0.0
 10
5.0907820675
 20
3.8893766481
 30
0.0
 10
5.0887497662
 20
3.8968929623
 30
0.0
 10
5.085932757
 20
3.9041868433
 30
0.0
 10
5.0823582696
 20
3.9111887745
 30
0.0
 10
5.0780611852
 20
3.9178311044
 30
0.0
 10
5.0730831012
 20
3.9240498392
 30
0.0
 10
5.0674722916
 20
3.9297852829
 30
0.0
 10
5.0612832025
 20
3.9349826417
 30
0.0
 10
5.0545754047
 20
3.9395919629
 30
0.0
 10
5.0474135339
 20
3.9435691531
 30
0.0
 10
5.0398666267
 20
3.9468763583
 30
0.0
 10
5.0320074299
 20
3.9494819246
 30
0.0
 10
5.0239105808
 20
3.9513612249
 30
0.0
 10
5.0156554742
 20
3.9524954561
 30
0.0
 10
5.0100980992
 20
3.952748631
 30
0.0
 10
5.0073196361
 20
3.952748631
 30
0.0
  0
SPLINE
  5
240
100
AcDbEntity
  8
0
100
AcDbSpline
 62
7
  6
CONTINUOUS
 70
0
 71
3
 72
21
 73
17
 74
0
 42
0.0000001
 43
0.0000001
 44
0.0000000001
 40
0.0
 40
0.0
 40
0.0
 40
0.0
 40
0.0325897055
 40
0.0670384799
 40
0.104813271
 40
0.1469530853
 40
0.194083619
 40
0.2464686551
 40
0.3041404454
 40
0.3669305318
 40
0.4345493754
 40
0.5065847025
 40
0.58255265
 40
0.6618800598
 40
0.8281162499
 40
1.0
 40
1.0
 40
1.0
 40
1.0
 10
3.5935696361
 20
4.8011983143
 30
0.0
 10
3.5935696361
 20
4.8014759089
 30
0.0
 10
3.5936473015
 20
4.8020493346
 30
0.0
 10
3.5939863306
 20
4.8028835518
 30
0.0
 10
3.5945395396
 20
4.8036927178
 30
0.0
 10
3.5952966143
 20
4.8044717184
 30
0.0
 10
3.5962499471
 20
4.8052161846
 30
0.0
 10
3.5973905975
 20
4.8059214004
 30
0.0
 10
3.598708739
 20
4.8065808935
 30
0.0
 10
3.6001920901
 20
4.8071893769
 30
0.0
 10
3.6018270711
 20
4.8077406313
 30
0.0
 10
3.6035982086
 20
4.8082299084
 30
0.0
 10
3.6054887716
 20
4.8086520046
 30
0.0
 10
3.6081866978
 20
4.8091276771
 30
0.0
 10
3.6117244686
 20
4.809522359
 30
0.0
 10
3.6146055544
 20
4.8096269627
 30
0.0
 10
3.6160696361
 20
4.8096269627
 30
0.0
  0
SPLINE
  5
241
100
AcDbEntity
  8
0
100
AcDbSpline
 62
7
  6
CONTINUOUS
 70
0
 71
3
 72
20
 73
16
 74
0
 42
0.0000001
 43
0.0000001
 44
0.0000000001
 40
0.0
 40
0.0
 40
0.0
 40
0.0
 40
0.1266196432
 40
0.1896917277
 40
0.2525120083
 40
0.377394743
 40
0.5014029059
 40
0.5631865088
 40
0.6249226676
 40
0.6867024369
 40
0.7486524794
 40
0.81091592
 40
0.8735776606
 40
0.9366657914
 40
1.0
 40
1.0
 40
1.0
 40
1.0
 10
4.2231407115
 20
4.8096269627
 30
0.0
 10
4.2286319723
 20
4.809626183
 30
0.0
 10
4.2368591263
 20
4.8097857183
 30
0.0
 10
4.2478007877
 20
4.810240176
 30
0.0
 10
4.2586607204
 20
4.8108303161
 30
0.0
 10
4.2721458608
 20
4.8117900773
 30
0.0
 10
4.2855690853
 20
4.8129546181
 30
0.0
 10
4.2962580039
 20
4.8139463664
 30
0.0
 10
4.304258683
 20
4.8147000506
 30
0.0
 10
4.3122671484
 20
4.8154480783
 30
0.0
 10
4.3203023328
 20
4.8161554652
 30
0.0
 10
4.3283826548
 20
4.816782919
 30
0.0
 10
4.3365211829
 20
4.8172889024
 30
0.0
 10
4.3447149899
 20
4.817629572
 30
0.0
 10
4.3501979482
 20
4.8177153542
 30
0.0
 10
4.3529446361
 20
4.8177146573
 30
0.0
  0
SPLINE
  5
242
100
AcDbEntity
  8
0
100
AcDbSpline
 62
7
  6
CONTINUOUS
 70
0
 71
3
 72
16
 73
12
 74
0
 42
0.0000001
 43
0.0000001
 44
0.0000000001
 40
0.0
 40
0.0
 40
0.0
 40
0.0
 40
0.1264157969
 40
0.1890667287
 40
0.2513244414
 40
0.3750615054
 40
0.4985856628
 40
0.6225944206
 40
0.7474759744
 40
0.8733713759
 40
1.0
 40
1.0
 40
1.0
 40
1.0
 10
4.3529446361
 20
4.8177146573
 30
0.0
 10
4.3584281016
 20
4.8177152528
 30
0.0
 10
4.3666302556
 20
4.817465517
 30
0.0
 10
4.3775104301
 20
4.816782124
 30
0.0
 10
4.3882634375
 20
4.8159420593
 30
0.0
 10
4.4016322777
 20
4.8147036412
 30
0.0
 10
4.4176648278
 20
4.8131850948
 30
0.0
 10
4.4337588468
 20
4.8117901621
 30
0.0
 10
4.4499754895
 20
4.8106333243
 30
0.0
 10
4.4663283556
 20
4.8098381254
 30
0.0
 10
4.4772825947
 20
4.8096349793
 30
0.0
 10
4.4827752919
 20
4.8096355502
 30
0.0
  0
SPLINE
  5
243
100
AcDbEntity
  8
0
100
AcDbSpline
 62
7
  6
CONTINUOUS
 70
0
 71
3
 72
21
 73
17
 74
0
 42
0.0000001
 43
0.0000001
 44
0.0000000001
 40
0.0
 40
0.0
 40
0.0
 40
0.0
 40
0.1718837501
 40
0.3381199402
 40
0.41744735
 40
0.4934152975
 40
0.5654506246
 40
0.6330694682
 40
0.6958595546
 40
0.7535313449
 40
0.805916381
 40
0.8530469147
 40
0.895186729
 40
0.9329615201
 40
0.9674102945
 40
1.0
 40
1.0
 40
1.0
 40
1.0
 10
5.0898196361
 20
4.8096269627
 30
0.0
 10
5.0912837179
 20
4.8096269627
 30
0.0
 10
5.0941648036
 20
4.809522359
 30
0.0
 10
5.0977025745
 20
4.8091276771
 30
0.0
 10
5.1004005007
 20
4.8086520046
 30
0.0
 10
5.1022910637
 20
4.8082299084
 30
0.0
 10
5.1040622011
 20
4.8077406313
 30
0.0
 10
5.1056971822
 20
4.8071893769
 30
0.0
 10
5.1071805333
 20
4.8065808935
 30
0.0
 10
5.1084986748
 20
4.8059214004
 30
0.0
 10
5.1096393252
 20
4.8052161846
 30
0.0
 10
5.1105926579
 20
4.8044717184
 30
0.0
 10
5.1113497327
 20
4.8036927178
 30
0.0
 10
5.1119029417
 20
4.8028835518
 30
0.0
 10
5.1122419708
 20
4.8020493346
 30
0.0
 10
5.1123196361
 20
4.8014759089
 30
0.0
 10
5.1123196361
 20
4.8011983143
 30
0.0
  0
SPLINE
  5
244
100
AcDbEntity
  8
0
100
AcDbSpline
 62
7
  6
CONTINUOUS
 70
0
 71
3
 72
25
 73
21
 74
0
 42
0.0000001
 43
0.0000001
 44
0.0000000001
 40
0.0
 40
0.0
 40
0.0
 40
0.0
 40
0.0862744617
 40
0.1718965749
 40
0.2560680264
 40
0.3381296348
 40
0.4174450627
 40
0.4933916917
 40
0.5654111696
 40
0.6330110566
 40
0.6957899357
 40
0.7534448313
 40
0.8058210525
 40
0.8529409995
 40
0.8950761438
 40
0.932841632
 40
0.9504224431
 40
0.9673415834
 40
0.9837953823
 40
1.0
 40
1.0
 40
1.0
 40
1.0
 10
3.5935696361
 20
3.9713264252
 30
0.0
 10
3.5923446155
 20
3.9713264252
 30
0.0
 10
3.5899035999
 20
3.9713712933
 30
0.0
 10
3.5862724011
 20
3.9715720084
 30
0.0
 10
3.5827108946
 20
3.9719048042
 30
0.0
 10
3.5792540144
 20
3.9723660929
 30
0.0
 10
3.575934363
 20
3.9729513338
 30
0.0
 10
3.5727835983
 20
3.9736550536
 30
0.0
 10
3.56983183
 20
3.9744701957
 30
0.0
 10
3.5671070852
 20
3.9753892427
 30
0.0
 10
3.5646348391
 20
3.9764029759
 30
0.0
 10
3.5624381555
 20
3.9775024283
 30
0.0
 10
3.5605369314
 20
3.9786773382
 30
0.0
 10
3.5589481921
 20
3.9799185384
 30
0.0
 10
3.5576863579
 20
3.9812162964
 30
0.0
 10
3.5568999909
 20
3.9823671356
 30
0.0
 10
3.5564657793
 20
3.9832990348
 30
0.0
 10
3.5562377609
 20
3.9839875518
 30
0.0
 10
3.5561003957
 20
3.984679805
 30
0.0
 10
3.5560696361
 20
3.9851440813
 30
0.0
 10
3.5560696361
 20
3.9853741725
 30
0.0
  0
SPLINE
  5
245
100
AcDbEntity
  8
0
100
AcDbSpline
 62
7
  6
CONTINUOUS
 70
0
 71
3
 72
25
 73
21
 74
0
 42
0.0000001
 43
0.0000001
 44
0.0000000001
 40
0.0
 40
0.0
 40
0.0
 40
0.0
 40
0.0862744617
 40
0.1718965749
 40
0.2560680264
 40
0.3381296348
 40
0.4174450627
 40
0.4933916917
 40
0.5654111696
 40
0.6330110566
 40
0.6957899357
 40
0.7534448314
 40
0.8058210525
 40
0.8529409995
 40
0.8950761439
 40
0.932841632
 40
0.9504224431
 40
0.9673415834
 40
0.9837953823
 40
1.0
 40
1.0
 40
1.0
 40
1.0
 10
3.5935696361
 20
3.5888630852
 30
0.0
 10
3.5923446155
 20
3.5888630852
 30
0.0
 10
3.5899035999
 20
3.5889079533
 30
0.0
 10
3.5862724011
 20
3.5891086684
 30
0.0
 10
3.5827108946
 20
3.5894414642
 30
0.0
 10
3.5792540144
 20
3.5899027529
 30
0.0
 10
3.575934363
 20
3.5904879938
 30
0.0
 10
3.5727835983
 20
3.5911917136
 30
0.0
 10
3.56983183
 20
3.5920068557
 30
0.0
 10
3.5671070852
 20
3.5929259027
 30
0.0
 10
3.5646348391
 20
3.5939396359
 30
0.0
 10
3.5624381555
 20
3.5950390883
 30
0.0
 10
3.5605369314
 20
3.5962139982
 30
0.0
 10
3.5589481921
 20
3.5974551984
 30
0.0
 10
3.5576863579
 20
3.5987529564
 30
0.0
 10
3.5568999909
 20
3.5999037956
 30
0.0
 10
3.5564657793
 20
3.6008356948
 30
0.0
 10
3.5562377609
 20
3.6015242118
 30
0.0
 10
3.5561003957
 20
3.602216465
 30
0.0
 10
3.5560696361
 20
3.6026807413
 30
0.0
 10
3.5560696361
 20
3.6029108325
 30
0.0
  0
SPLINE
  5
246
100
AcDbEntity
  8
0
100
AcDbSpline
 62
7
  6
CONTINUOUS
 70
0
 71
3
 72
25
 73
21
 74
0
 42
0.0000001
 43
0.0000001
 44
0.0000000001
 40
0.0
 40
0.0
 40
0.0
 40
0.0
 40
0.0162046177
 40
0.0326584166
 40
0.0495775569
 40
0.067158368
 40
0.1049238562
 40
0.1470590005
 40
0.1941789475
 40
0.2465551687
 40
0.3042100643
 40
0.3669889434
 40
0.4345888304
 40
0.5066083083
 40
0.5825549373
 40
0.6618703652
 40
0.7439319736
 40
0.8281034251
 40
0.9137255383
 40
1.0
 40
1.0
 40
1.0
 40
1.0
 10
5.1498196361
 20
3.9853741725
 30
0.0
 10
5.1498196361
 20
3.9851440813
 30
0.0
 10
5.1497888766
 20
3.984679805
 30
0.0
 10
5.1496515113
 20
3.9839875518
 30
0.0
 10
5.149423493
 20
3.9832990348
 30
0.0
 10
5.1489892814
 20
3.9823671356
 30
0.0
 10
5.1482029144
 20
3.9812162964
 30
0.0
 10
5.1469410801
 20
3.9799185384
 30
0.0
 10
5.1453523409
 20
3.9786773382
 30
0.0
 10
5.1434511168
 20
3.9775024283
 30
0.0
 10
5.1412544331
 20
3.9764029759
 30
0.0
 10
5.138782187
 20
3.9753892427
 30
0.0
 10
5.1360574423
 20
3.9744701957
 30
0.0
 10
5.133105674
 20
3.9736550536
 30
0.0
 10
5.1299549093
 20
3.9729513338
 30
0.0
 10
5.1266352579
 20
3.9723660929
 30
0.0
 10
5.1231783777
 20
3.9719048042
 30
0.0
 10
5.1196168712
 20
3.9715720084
 30
0.0
 10
5.1159856724
 20
3.9713712933
 30
0.0
 10
5.1135446568
 20
3.9713264252
 30
0.0
 10
5.1123196361
 20
3.9713264252
 30
0.0
  0
SPLINE
  5
247
100
AcDbEntity
  8
0
100
AcDbSpline
 62
7
  6
CONTINUOUS
 70
0
 71
3
 72
25
 73
21
 74
0
 42
0.0000001
 43
0.0000001
 44
0.0000000001
 40
0.0
 40
0.0
 40
0.0
 40
0.0
 40
0.0162046177
 40
0.0326584166
 40
0.0495775569
 40
0.067158368
 40
0.1049238561
 40
0.1470590005
 40
0.1941789475
 40
0.2465551686
 40
0.3042100643
 40
0.3669889434
 40
0.4345888304
 40
0.5066083083
 40
0.5825549373
 40
0.6618703652
 40
0.7439319736
 40
0.8281034251
 40
0.9137255383
 40
1.0
 40
1.0
 40
1.0
 40
1.0
 10
5.1498196361
 20
3.6029108325
 30
0.0
 10
5.1498196361
 20
3.6026807413
 30
0.0
 10
5.1497888766
 20
3.602216465
 30
0.0
 10
5.1496515113
 20
3.6015242118
 30
0.0
 10
5.149423493
 20
3.6008356948
 30
0.0
 10
5.1489892814
 20
3.5999037956
 30
0.0
 10
5.1482029144
 20
3.5987529564
 30
0.0
 10
5.1469410801
 20
3.5974551984
 30
0.0
 10
5.1453523409
 20
3.5962139982
 30
0.0
 10
5.1434511168
 20
3.5950390883
 30
0.0
 10
5.1412544331
 20
3.5939396359
 30
0.0
 10
5.138782187
 20
3.5929259027
 30
0.0
 10
5.1360574423
 20
3.5920068557
 30
0.0
 10
5.133105674
 20
3.5911917136
 30
0.0
 10
5.1299549093
 20
3.5904879938
 30
0.0
 10
5.1266352579
 20
3.5899027529
 30
0.0
 10
5.1231783777
 20
3.5894414642
 30
0.0
 10
5.1196168712
 20
3.5891086684
 30
0.0
 10
5.1159856724
 20
3.5889079533
 30
0.0
 10
5.1135446568
 20
3.5888630852
 30
0.0
 10
5.1123196361
 20
3.5888630852
 30
0.0
  0
SPLINE
  5
248
100
AcDbEntity
  8
0
100
AcDbSpline
 62
7
  6
CONTINUOUS
 70
0
 71
3
 72
15
 73
11
 74
0
 42
0.0000001
 43
0.0000001
 44
0.0000000001
 40
0.0
 40
0.0
 40
0.0
 40
0.0
 40
0.1289146327
 40
0.256625111
 40
0.3830651605
 40
0.5082578227
 40
0.6323173801
 40
0.7554379925
 40
0.8778956323
 40
1.0
 40
1.0
 40
1.0
 40
1.0
 10
5.0484406601
 20
3.6172820699
 30
0.0
 10
5.051725237
 20
3.6189664112
 30
0.0
 10
5.0580582739
 20
3.622739937
 30
0.0
 10
5.0666974328
 20
3.629546757
 30
0.0
 10
5.0742893834
 20
3.6373606983
 30
0.0
 10
5.0806966071
 20
3.6460433685
 30
0.0
 10
5.0858044021
 20
3.6554417305
 30
0.0
 10
5.0895208075
 20
3.6653899319
 30
0.0
 10
5.0917778653
 20
3.6757081304
 30
0.0
 10
5.0922828396
 20
3.6827211243
 30
0.0
 10
5.0922828396
 20
3.68621739
 30
0.0
  0
SPLINE
  5
249
100
AcDbEntity
  8
0
100
AcDbSpline
 62
7
  6
CONTINUOUS
 70
0
 71
3
 72
21
 73
17
 74
0
 42
0.0000001
 43
0.0000001
 44
0.0000000001
 40
0.0
 40
0.0
 40
0.0
 40
0.0
 40
0.0601247428
 40
0.1203839223
 40
0.1808049654
 40
0.2414873984
 40
0.3025126813
 40
0.3639309031
 40
0.4257816893
 40
0.4880896002
 40
0.5508596525
 40
0.6140803035
 40
0.6777233662
 40
0.7417435963
 40
0.8705269256
 40
1.0
 40
1.0
 40
1.0
 40
1.0
 10
3.5560696361
 20
3.9853741725
 30
0.0
 10
3.5560696361
 20
3.9865113768
 30
0.0
 10
3.5561907602
 20
3.9887901336
 30
0.0
 10
3.5567318686
 20
3.9921729307
 30
0.0
 10
3.5576289386
 20
3.9954904986
 30
0.0
 10
3.5588723494
 20
3.9987096878
 30
0.0
 10
3.5604498291
 20
4.0018001453
 30
0.0
 10
3.5623465517
 20
4.0047318231
 30
0.0
 10
3.5645435703
 20
4.0074767418
 30
0.0
 10
3.5670201359
 20
4.0100080555
 30
0.0
 10
3.5697516755
 20
4.0123021743
 30
0.0
 10
3.5727123391
 20
4.0143364607
 30
0.0
 10
3.5758735292
 20
4.0160920352
 30
0.0
 10
3.5803216625
 20
4.0180413877
 30
0.0
 10
3.5862251039
 20
4.0196985773
 30
0.0
 10
3.5911207718
 20
4.020143567
 30
0.0
 10
3.5935696361
 20
4.020143567
 30
0.0
  0
SPLINE
  5
24A
100
AcDbEntity
  8
0
100
AcDbSpline
 62
7
  6
CONTINUOUS
 70
0
 71
3
 72
21
 73
17
 74
0
 42
0.0000001
 43
0.0000001
 44
0.0000000001
 40
0.0
 40
0.0
 40
0.0
 40
0.0
 40
0.0601256945
 40
0.1203873805
 40
0.1808102481
 40
0.2414929139
 40
0.3025178268
 40
0.3639354486
 40
0.4257856478
 40
0.4880932301
 40
0.5508631258
 40
0.614083459
 40
0.6777260439
 40
0.7417457671
 40
0.8705278257
 40
1.0
 40
1.0
 40
1.0
 40
1.0
 10
3.5560696361
 20
4.7664289198
 30
0.0
 10
3.5560696361
 20
4.7675661421
 30
0.0
 10
3.5561907858
 20
4.7698449626
 30
0.0
 10
3.5567318953
 20
4.7732278614
 30
0.0
 10
3.5576290303
 20
4.7765455017
 30
0.0
 10
3.5588724569
 20
4.7797647195
 30
0.0
 10
3.56044999
 20
4.782855134
 30
0.0
 10
3.5623466941
 20
4.7857867875
 30
0.0
 10
3.5645437279
 20
4.7885316585
 30
0.0
 10
3.5670202909
 20
4.7910629448
 30
0.0
 10
3.5697518292
 20
4.7933570424
 30
0.0
 10
3.5727124924
 20
4.7953912967
 30
0.0
 10
3.5758736624
 20
4.7971468564
 30
0.0
 10
3.5803217699
 20
4.7990961621
 30
0.0
 10
3.5862251612
 20
4.800753334
 30
0.0
 10
3.5911207888
 20
4.8011983143
 30
0.0
 10
3.5935696361
 20
4.8011983143
 30
0.0
  0
SPLINE
  5
24B
100
AcDbEntity
  8
0
100
AcDbSpline
 62
7
  6
CONTINUOUS
 70
0
 71
3
 72
21
 73
17
 74
0
 42
0.0000001
 43
0.0000001
 44
0.0000000001
 40
0.0
 40
0.0
 40
0.0
 40
0.0
 40
0.0601256945
 40
0.1203873805
 40
0.1808102481
 40
0.2414929139
 40
0.3025178268
 40
0.3639354486
 40
0.4257856478
 40
0.4880932301
 40
0.5508631258
 40
0.614083459
 40
0.6777260439
 40
0.7417457671
 40
0.8705278257
 40
1.0
 40
1.0
 40
1.0
 40
1.0
 10
5.1498196361
 20
4.7664289198
 30
0.0
 10
5.1498196361
 20
4.7675661421
 30
0.0
 10
5.1496984865
 20
4.7698449626
 30
0.0
 10
5.149157377
 20
4.7732278614
 30
0.0
 10
5.148260242
 20
4.7765455017
 30
0.0
 10
5.1470168154
 20
4.7797647195
 30
0.0
 10
5.1454392823
 20
4.782855134
 30
0.0
 10
5.1435425782
 20
4.7857867875
 30
0.0
 10
5.1413455444
 20
4.7885316585
 30
0.0
 10
5.1388689814
 20
4.7910629448
 30
0.0
 10
5.1361374431
 20
4.7933570424
 30
0.0
 10
5.1331767799
 20
4.7953912967
 30
0.0
 10
5.1300156099
 20
4.7971468564
 30
0.0
 10
5.1255675024
 20
4.7990961621
 30
0.0
 10
5.119664111
 20
4.800753334
 30
0.0
 10
5.1147684835
 20
4.8011983143
 30
0.0
 10
5.1123196361
 20
4.8011983143
 30
0.0
  0
SPLINE
  5
24C
100
AcDbEntity
  8
0
100
AcDbSpline
 62
7
  6
CONTINUOUS
 70
0
 71
3
 72
21
 73
17
 74
0
 42
0.0000001
 43
0.0000001
 44
0.0000000001
 40
0.0
 40
0.0
 40
0.0
 40
0.0
 40
0.0601247549
 40
0.1203839691
 40
0.1808050429
 40
0.2414874902
 40
0.30251278
 40
0.3639309929
 40
0.4257817627
 40
0.4880896659
 40
0.5508597176
 40
0.6140803662
 40
0.6777234216
 40
0.7417436414
 40
0.8705269425
 40
1.0
 40
1.0
 40
1.0
 40
1.0
 10
5.1498196361
 20
3.9853741725
 30
0.0
 10
5.1498196361
 20
3.986511377
 30
0.0
 10
5.1496985117
 20
3.9887901347
 30
0.0
 10
5.1491574033
 20
3.9921729333
 30
0.0
 10
5.1482603323
 20
3.9954905025
 30
0.0
 10
5.147016921
 20
3.9987096926
 30
0.0
 10
5.1454394402
 20
4.0018001498
 30
0.0
 10
5.1435427179
 20
4.0047318273
 30
0.0
 10
5.141345699
 20
4.007476745
 30
0.0
 10
5.1388691334
 20
4.010008058
 30
0.0
 10
5.1361375939
 20
4.0123021766
 30
0.0
 10
5.1331769301
 20
4.0143364624
 30
0.0
 10
5.1300157404
 20
4.0160920367
 30
0.0
 10
5.1255676075
 20
4.0180413883
 30
0.0
 10
5.1196641672
 20
4.0196985775
 30
0.0
 10
5.1147685002
 20
4.020143567
 30
0.0
 10
5.1123196361
 20
4.020143567
 30
0.0
  0
SPLINE
  5
24D
100
AcDbEntity
  8
0
100
AcDbSpline
 62
7
  6
CONTINUOUS
 70
0
 71
3
 72
23
 73
19
 74
0
 42
0.0000001
 43
0.0000001
 44
0.0000000001
 40
0.0
 40
0.0
 40
0.0
 40
0.0
 40
0.0648130778
 40
0.1295697197
 40
0.1941360494
 40
0.2584543663
 40
0.3224573772
 40
0.3860822334
 40
0.4492854969
 40
0.5120391425
 40
0.5743301984
 40
0.6361639058
 40
0.6975644317
 40
0.7585733205
 40
0.8192433134
 40
0.8796467029
 40
0.9398843771
 40
1.0
 40
1.0
 40
1.0
 40
1.0
 10
3.6985696361
 20
3.9274609923
 30
0.0
 10
3.6964850744
 20
3.9274609923
 30
0.0
 10
3.6923152949
 20
3.9272709244
 30
0.0
 10
3.686121283
 20
3.9264200708
 30
0.0
 10
3.6800458753
 20
3.9250100015
 30
0.0
 10
3.6741489904
 20
3.923054759
 30
0.0
 10
3.6684862376
 20
3.9205735583
 30
0.0
 10
3.6631125299
 20
3.9175892121
 30
0.0
 10
3.6580795366
 20
3.9141306497
 30
0.0
 10
3.6534354976
 20
3.9102311421
 30
0.0
 10
3.6492257492
 20
3.9059274693
 30
0.0
 10
3.6454905035
 20
3.9012614375
 30
0.0
 10
3.6422661265
 20
3.8962775723
 30
0.0
 10
3.6395843836
 20
3.8910237047
 30
0.0
 10
3.6374704851
 20
3.8855510098
 30
0.0
 10
3.6359456117
 20
3.8799111962
 30
0.0
 10
3.635025328
 20
3.8741604745
 30
0.0
 10
3.6348196361
 20
3.8702865007
 30
0.0
 10
3.6348196361
 20
3.8683530216
 30
0.0
  0
SPLINE
  5
24E
100
AcDbEntity
  8
0
100
AcDbSpline
 62
7
  6
CONTINUOUS
 70
0
 71
3
 72
23
 73
19
 74
0
 42
0.0000001
 43
0.0000001
 44
0.0000000001
 40
0.0
 40
0.0
 40
0.0
 40
0.0
 40
0.0601156229
 40
0.1203532971
 40
0.1807566865
 40
0.2414266794
 40
0.3024355682
 40
0.3638360942
 40
0.4256698016
 40
0.4879608575
 40
0.5507145031
 40
0.6139177666
 40
0.6775426228
 40
0.7415456337
 40
0.8058639506
 40
0.8704302803
 40
0.9351869222
 40
1.0
 40
1.0
 40
1.0
 40
1.0
 10
5.0710696361
 20
3.8683530216
 30
0.0
 10
5.0710696361
 20
3.8702865007
 30
0.0
 10
5.0708639443
 20
3.8741604745
 30
0.0
 10
5.0699436606
 20
3.8799111962
 30
0.0
 10
5.0684187872
 20
3.8855510098
 30
0.0
 10
5.0663048887
 20
3.8910237047
 30
0.0
 10
5.0636231458
 20
3.8962775723
 30
0.0
 10
5.0603987688
 20
3.9012614375
 30
0.0
 10
5.056663523
 20
3.9059274693
 30
0.0
 10
5.0524537747
 20
3.9102311421
 30
0.0
 10
5.0478097357
 20
3.9141306497
 30
0.0
 10
5.0427767423
 20
3.9175892121
 30
0.0
 10
5.0374030347
 20
3.9205735583
 30
0.0
 10
5.0317402819
 20
3.923054759
 30
0.0
 10
5.025843397
 20
3.9250100015
 30
0.0
 10
5.0197679893
 20
3.9264200708
 30
0.0
 10
5.0135739773
 20
3.9272709244
 30
0.0
 10
5.0094041979
 20
3.9274609923
 30
0.0
 10
5.0073196361
 20
3.9274609923
 30
0.0
  0
SPLINE
  5
24F
100
AcDbEntity
  8
0
100
AcDbSpline
 62
7
  6
CONTINUOUS
 70
0
 71
3
 72
23
 73
19
 74
0
 42
0.0000001
 43
0.0000001
 44
0.0000000001
 40
0.0
 40
0.0
 40
0.0
 40
0.0
 40
0.0648130778
 40
0.1295697197
 40
0.1941360494
 40
0.2584543663
 40
0.3224573772
 40
0.3860822334
 40
0.4492854969
 40
0.5120391425
 40
0.5743301984
 40
0.6361639058
 40
0.6975644317
 40
0.7585733205
 40
0.8192433134
 40
0.8796467029
 40
0.9398843771
 40
1.0
 40
1.0
 40
1.0
 40
1.0
 10
5.0073196361
 20
3.6214903203
 30
0.0
 10
5.0094041979
 20
3.6214903203
 30
0.0
 10
5.0135739773
 20
3.6216803882
 30
0.0
 10
5.0197679892
 20
3.6225312418
 30
0.0
 10
5.025843397
 20
3.6239413112
 30
0.0
 10
5.0317402819
 20
3.6258965537
 30
0.0
 10
5.0374030347
 20
3.6283777543
 30
0.0
 10
5.0427767423
 20
3.6313621006
 30
0.0
 10
5.0478097357
 20
3.6348206629
 30
0.0
 10
5.0524537747
 20
3.6387201705
 30
0.0
 10
5.056663523
 20
3.6430238434
 30
0.0
 10
5.0603987688
 20
3.6476898751
 30
0.0
 10
5.0636231458
 20
3.6526737403
 30
0.0
 10
5.0663048886
 20
3.657927608
 30
0.0
 10
5.0684187872
 20
3.6634003028
 30
0.0
 10
5.0699436606
 20
3.6690401164
 30
0.0
 10
5.0708639443
 20
3.6747908381
 30
0.0
 10
5.0710696361
 20
3.678664812
 30
0.0
 10
5.0710696361
 20
3.6805982911
 30
0.0
  0
SPLINE
  5
250
100
AcDbEntity
  8
0
100
AcDbSpline
 62
7
  6
CONTINUOUS
 70
0
 71
3
 72
23
 73
19
 74
0
 42
0.0000001
 43
0.0000001
 44
0.0000000001
 40
0.0
 40
0.0
 40
0.0
 40
0.0
 40
0.0601156229
 40
0.1203532971
 40
0.1807566865
 40
0.2414266794
 40
0.3024355682
 40
0.3638360942
 40
0.4256698016
 40
0.4879608575
 40
0.5507145031
 40
0.6139177666
 40
0.6775426228
 40
0.7415456337
 40
0.8058639506
 40
0.8704302803
 40
0.9351869222
 40
1.0
 40
1.0
 40
1.0
 40
1.0
 10
3.6348196361
 20
3.6805982911
 30
0.0
 10
3.6348196361
 20
3.678664812
 30
0.0
 10
3.635025328
 20
3.6747908381
 30
0.0
 10
3.6359456117
 20
3.6690401164
 30
0.0
 10
3.6374704851
 20
3.6634003028
 30
0.0
 10
3.6395843836
 20
3.657927608
 30
0.0
 10
3.6422661265
 20
3.6526737403
 30
0.0
 10
3.6454905034
 20
3.6476898751
 30
0.0
 10
3.6492257492
 20
3.6430238434
 30
0.0
 10
3.6534354976
 20
3.6387201705
 30
0.0
 10
3.6580795366
 20
3.634820663
 30
0.0
 10
3.6631125299
 20
3.6313621006
 30
0.0
 10
3.6684862376
 20
3.6283777543
 30
0.0
 10
3.6741489904
 20
3.6258965537
 30
0.0
 10
3.6800458753
 20
3.6239413112
 30
0.0
 10
3.686121283
 20
3.6225312418
 30
0.0
 10
3.6923152949
 20
3.6216803882
 30
0.0
 10
3.6964850744
 20
3.6214903203
 30
0.0
 10
3.6985696361
 20
3.6214903203
 30
0.0
  0
SPLINE
  5
251
100
AcDbEntity
  8
0
100
AcDbSpline
 62
7
  6
CONTINUOUS
 70
0
 71
3
 72
18
 73
14
 74
0
 42
0.0000001
 43
0.0000001
 44
0.0000000001
 40
0.0
 40
0.0
 40
0.0
 40
0.0
 40
0.1540450534
 40
0.3049912233
 40
0.4497803123
 40
0.5856477982
 40
0.710132266
 40
0.7674927585
 40
0.8213261129
 40
0.8715104627
 40
0.9179953063
 40
0.9607936491
 40
1.0
 40
1.0
 40
1.0
 40
1.0
 10
5.0710696361
 20
3.8683530216
 30
0.0
 10
5.0722195252
 20
3.8683530216
 30
0.0
 10
5.0744967356
 20
3.8684181398
 30
0.0
 10
5.0778434036
 20
3.8687095981
 30
0.0
 10
5.0810318514
 20
3.8691876874
 30
0.0
 10
5.083987315
 20
3.8698406229
 30
0.0
 10
5.0862585823
 20
3.8705352576
 30
0.0
 10
5.0878983406
 20
3.8711745813
 30
0.0
 10
5.0889953835
 20
3.8716739205
 30
0.0
 10
5.0899872263
 20
3.8722033267
 30
0.0
 10
5.0908683205
 20
3.8727599633
 30
0.0
 10
5.0916332495
 20
3.8733406599
 30
0.0
 10
5.0920819644
 20
3.8737592837
 30
0.0
 10
5.0922828396
 20
3.8739721205
 30
0.0
  0
SPLINE
  5
252
100
AcDbEntity
  8
0
100
AcDbSpline
 62
7
  6
CONTINUOUS
 70
0
 71
3
 72
18
 73
14
 74
0
 42
0.0000001
 43
0.0000001
 44
0.0000000001
 40
0.0
 40
0.0
 40
0.0
 40
0.0
 40
0.1540450534
 40
0.3049912233
 40
0.4497803123
 40
0.5856477982
 40
0.710132266
 40
0.7674927585
 40
0.8213261129
 40
0.8715104627
 40
0.9179953063
 40
0.9607936491
 40
1.0
 40
1.0
 40
1.0
 40
1.0
 10
5.0710696361
 20
3.6805982911
 30
0.0
 10
5.0722195252
 20
3.6805982911
 30
0.0
 10
5.0744967356
 20
3.6806634093
 30
0.0
 10
5.0778434036
 20
3.6809548676
 30
0.0
 10
5.0810318514
 20
3.6814329568
 30
0.0
 10
5.083987315
 20
3.6820858923
 30
0.0
 10
5.0862585823
 20
3.6827805271
 30
0.0
 10
5.0878983406
 20
3.6834198507
 30
0.0
 10
5.0889953835
 20
3.6839191899
 30
0.0
 10
5.0899872263
 20
3.6844485961
 30
0.0
 10
5.0908683205
 20
3.6850052327
 30
0.0
 10
5.0916332495
 20
3.6855859293
 30
0.0
 10
5.0920819644
 20
3.6860045531
 30
0.0
 10
5.0922828396
 20
3.68621739
 30
0.0
  0
SPLINE
  5
253
100
AcDbEntity
  8
0
100
AcDbSpline
 62
7
  6
CONTINUOUS
 70
0
 71
3
 72
18
 73
14
 74
0
 42
0.0000001
 43
0.0000001
 44
0.0000000001
 40
0.0
 40
0.0
 40
0.0
 40
0.0
 40
0.1540450534
 40
0.3049912233
 40
0.4497803123
 40
0.5856477982
 40
0.710132266
 40
0.7674927585
 40
0.8213261129
 40
0.8715104627
 40
0.9179953063
 40
0.9607936491
 40
1.0
 40
1.0
 40
1.0
 40
1.0
 10
3.6348196361
 20
3.6805982911
 30
0.0
 10
3.6336697471
 20
3.6805982911
 30
0.0
 10
3.6313925367
 20
3.6806634093
 30
0.0
 10
3.6280458687
 20
3.6809548676
 30
0.0
 10
3.6248574208
 20
3.6814329568
 30
0.0
 10
3.6219019573
 20
3.6820858923
 30
0.0
 10
3.61963069
 20
3.6827805271
 30
0.0
 10
3.6179909316
 20
3.6834198507
 30
0.0
 10
3.6168938888
 20
3.6839191899
 30
0.0
 10
3.6159020459
 20
3.6844485961
 30
0.0
 10
3.6150209518
 20
3.6850052327
 30
0.0
 10
3.6142560228
 20
3.6855859293
 30
0.0
 10
3.6138073079
 20
3.6860045531
 30
0.0
 10
3.6136064327
 20
3.68621739
 30
0.0
  0
SPLINE
  5
254
100
AcDbEntity
  8
0
100
AcDbSpline
 62
7
  6
CONTINUOUS
 70
0
 71
3
 72
18
 73
14
 74
0
 42
0.0000001
 43
0.0000001
 44
0.0000000001
 40
0.0
 40
0.0
 40
0.0
 40
0.0
 40
0.1540450534
 40
0.3049912233
 40
0.4497803123
 40
0.5856477982
 40
0.710132266
 40
0.7674927585
 40
0.8213261129
 40
0.8715104627
 40
0.9179953063
 40
0.9607936491
 40
1.0
 40
1.0
 40
1.0
 40
1.0
 10
3.6348196361
 20
3.8683530216
 30
0.0
 10
3.6336697471
 20
3.8683530216
 30
0.0
 10
3.6313925367
 20
3.8684181398
 30
0.0
 10
3.6280458687
 20
3.8687095981
 30
0.0
 10
3.6248574208
 20
3.8691876874
 30
0.0
 10
3.6219019573
 20
3.8698406229
 30
0.0
 10
3.61963069
 20
3.8705352576
 30
0.0
 10
3.6179909316
 20
3.8711745813
 30
0.0
 10
3.6168938888
 20
3.8716739205
 30
0.0
 10
3.6159020459
 20
3.8722033267
 30
0.0
 10
3.6150209518
 20
3.8727599633
 30
0.0
 10
3.6142560228
 20
3.8733406599
 30
0.0
 10
3.6138073079
 20
3.8737592837
 30
0.0
 10
3.6136064327
 20
3.8739721205
 30
0.0
  0
ENDSEC
  0
SECTION
  2
OBJECTS
  0
DICTIONARY
  5
C
100
AcDbDictionary
280
0
281
1
  3
ACAD_GROUP
350
D
  3
ACAD_MLINESTYLE
350
17
  3
ACAD_LAYOUT
350
1A
  3
ACAD_PLOTSETTINGS
350
19
  3
ACAD_PLOTSTYLENAME
350
E
  0
DICTIONARY
  5
D
102
{ACAD_REACTORS
330
C
102
}
100
AcDbDictionary
280
0
281
1
  0
ACDBDICTIONARYWDFLT
  5
E
102
{ACAD_REACTORS
330
C
102
}
100
AcDbDictionary
281
1
  3
Normal
350
F
100
AcDbDictionaryWithDefault
340
F
  0
DICTIONARY
  5
17
102
{ACAD_REACTORS
330
C
102
}
100
AcDbDictionary
280
0
281
1
  3
Standard
350
18
  0
DICTIONARY
  5
19
102
{ACAD_REACTORS
330
C
102
}
100
AcDbDictionary
281
1
  0
DICTIONARY
  5
1A
102
{ACAD_REACTORS
330
C
102
}
100
AcDbDictionary
281
1
  3
Model
350
255
  3
Layout1
350
256
  0
ACDBPLACEHOLDER
  5
F
102
{ACAD_REACTORS
330
E
102
}
  0
MLINESTYLE
  5
18
102
{ACAD_REACTORS
330
17
102
}
100
AcDbMlineStyle
  2
STANDARD
 70
0
  3

 62
256
 51
90.0
 52
90.0
 71
2
 49
0.5
 62
256
  6
BYLAYER
 49
-0.5
 62
256
  6
BYLAYER
  0
LAYOUT
  5
255
102
{ACAD_REACTORS
330
1A
102
}
100
AcDbPlotSettings
  1

  2
none_device
  4
ANSI_A_(11.00_x_8.50_Inches)
  6

 40
0.0
 41
0.0
 42
0.0
 43
0.0
 44
279.4
 45
215.9
 46
0.0
 47
0.0
 48
0.0
 49
0.0
140
0.0
141
0.0
142
1.0
143
1.0
 70
1024
 72
0
 73
0
 74
0
  7

 75
0
147
1.0
148
0.0
149
0.0
100
AcDbLayout
  1
Model
 70
0
 71
0
 10
0.0
 20
0.0
 11
11.0
 21
8.5
 12
0.0
 22
0.0
 32
0.0
 14
0.0
 24
0.0
 34
0.0
 15
0.0
 25
0.0
 35
0.0
146
0.0
 13
0.0
 23
0.0
 33
0.0
 16
1.0
 26
0.0
 36
0.0
 17
0.0
 27
1.0
 37
0.0
 76
0
330
202
345
0
346
0
  0
LAYOUT
  5
256
102
{ACAD_REACTORS
330
1A
102
}
100
AcDbPlotSettings
  1

  2
none_device
  4
ANSI_A_(11.00_x_8.50_Inches)
  6

 40
0.0
 41
0.0
 42
0.0
 43
0.0
 44
279.4
 45
215.9
 46
0.0
 47
0.0
 48
0.0
 49
0.0
140
0.0
141
0.0
142
1.0
143
1.0
 70
0
 72
0
 73
0
 74
0
  7

 75
0
147
1.0
148
0.0
149
0.0
100
AcDbLayout
  1
Layout1
 70
0
 71
1
 10
0.0
 20
0.0
 11
11.0
 21
8.5
 12
0.0
 22
0.0
 32
0.0
 14
0.0
 24
0.0
 34
0.0
 15
0.0
 25
0.0
 35
0.0
146
0.0
 13
0.0
 23
0.0
 33
0.0
 16
1.0
 26
0.0
 36
0.0
 17
0.0
 27
1.0
 37
0.0
 76
0
330
203
345
0
346
0
  0
ENDSEC
  0
EOF
