  0
SECTION
  2
HEADER
  9
$ACADVER
  1
AC1015
  9
$DWGCODEPAGE
  3
ANSI_1252
  9
$EXTMAX
 10
34.0
 20
22.0
 30
0.0
  9
$EXTMIN
 10
0.0
 20
0.0
 30
0.0
  9
$LIMMIN
 10
0.0
 20
0.0
  9
$LIMMAX
 10
34.0
 20
22.0
  9
$VIEWCTR
 10
17.0
 20
11.0
  9
$VIEWSIZE
 40
22.0
  9
$CLAYER
  8
0
  9
$LTSCALE
 40
1.87
  9
$CELTYPE
  6
BYLAYER
  9
$DIMSCALE
 40
1.0
  9
$DIMASZ
 40
0.1
  9
$DIMEXO
 40
0.2125
  9
$DIMDLI
 40
1.292
  9
$DIMEXE
 40
0.612
  9
$DIMCEN
 40
0.306
  9
$DIMLFAC
 40
1.0
  9
$DIMBLK
  1
_FILLED
  9
$DIMTXT
 40
0.08
  9
$DIMTOL
 70
1
  9
$DIMLIM
 70
0
  9
$DIMTFAC
 40
1.0
  9
$DIMTP
 40
0.01
  9
$DIMTM
 40
0.01
  9
$PDMODE
 70
3
  9
$PDSIZE
 40
0.06
  9
$HANDSEED
  5
251
  9
$TILEMODE
 70
1
  9
$MEASUREMENT
 70
0
  9
$INSUNITS
 70
1
  0
ENDSEC
  0
SECTION
  2
CLASSES
  0
CLASS
  1
ACDBDICTIONARYWDFLT
  2
AcDbDictionaryWithDefault
  3
AutoCAD 2000
 90
0
280
0
281
0
  0
CLASS
  1
ACDBPLACEHOLDER
  2
AcDbPlaceHolder
  3
AutoCAD 2000
 90
0
280
0
281
0
  0
CLASS
  1
LAYOUT
  2
AcDbLayout
  3
AutoCAD 2000
 90
0
280
0
281
0
  0
ENDSEC
  0
SECTION
  2
TABLES
  0
TABLE
  2
VPORT
  5
8
100
AcDbSymbolTable
 70
2
  0
VPORT
  5
1F4
100
AcDbSymbolTableRecord
100
AcDbViewportTableRecord
  2
*ACTIVE
 70
0
 10
0.0
 20
0.0
 11
1.0
 21
1.0
 12
17.0
 22
11.0
 13
0.0
 23
0.0
 14
1.0
 24
1.0
 15
0.0
 25
0.0
 16
0.0
 26
0.0
 36
1.0
 17
0.0
 27
0.0
 37
0.0
 40
22.0
 41
1.5454545455
 42
50.0
 43
0.0
 44
0.0
 50
0.0
 51
0.0
 71
0
 72
100
 73
1
 74
1
 75
0
 76
0
 77
0
 78
0
  0
ENDTAB
  0
TABLE
  2
LTYPE
  5
5
100
AcDbSymbolTable
 70
6
  0
LTYPE
  5
14
100
AcDbSymbolTableRecord
100
AcDbLinetypeTableRecord
  2
BYBLOCK
 70
0
  3

 72
65
 73
0
 40
0.0
  0
LTYPE
  5
15
100
AcDbSymbolTableRecord
100
AcDbLinetypeTableRecord
  2
BYLAYER
 70
0
  3

 72
65
 73
0
 40
0.0
  0
LTYPE
  5
16
100
AcDbSymbolTableRecord
100
AcDbLinetypeTableRecord
  2
CONTINUOUS
 70
64
  3
Solid line
 72
65
 73
0
 40
0.0
  0
LTYPE
  5
1F5
100
AcDbSymbolTableRecord
100
AcDbLinetypeTableRecord
  2
CENTER
 70
64
  3
____ _ ____ _ ____ _ ____ _ ____ _ ____ _ ____
 72
65
 73
4
 40
0.6
 49
0.375
 74
0
 49
-0.075
 74
0
 49
0.075
 74
0
 49
-0.075
 74
0
  0
LTYPE
  5
1F6
100
AcDbSymbolTableRecord
100
AcDbLinetypeTableRecord
  2
HIDDEN
 70
64
  3
- - - - - - - - - - - - - - - - - - - -
 72
65
 73
2
 40
0.2
 49
0.1
 74
0
 49
-0.1
 74
0
  0
LTYPE
  5
1F7
100
AcDbSymbolTableRecord
100
AcDbLinetypeTableRecord
  2
PHANTOM
 70
64
  3
_____ _ _ _____ _ _ _____ _ _ _____
 72
65
 73
6
 40
0.8
 49
0.45
 74
0
 49
-0.05
 74
0
 49
0.1
 74
0
 49
-0.05
 74
0
 49
0.1
 74
0
 49
-0.05
 74
0
  0
LTYPE
  5
1F8
100
AcDbSymbolTableRecord
100
AcDbLinetypeTableRecord
  2
DOT
 70
64
  3
. . . . . . . . . . . . . . . . . . . .
 72
65
 73
2
 40
0.2
 49
0.1
 74
0
 49
-0.1
 74
0
  0
LTYPE
  5
1F9
100
AcDbSymbolTableRecord
100
AcDbLinetypeTableRecord
  2
DASHED
 70
64
  3
- - - - - - - - - - - - - - - - - - - -
 72
65
 73
2
 40
0.2
 49
0.1
 74
0
 49
-0.1
 74
0
  0
ENDTAB
  0
TABLE
  2
LAYER
  5
2
100
AcDbSymbolTable
 70
36
  0
LAYER
  5
10
100
AcDbSymbolTableRecord
100
AcDbLayerTableRecord
  2
0
 70
0
 62
7
  6
CONTINUOUS
370
-3
390
F
  0
LAYER
  5
1FA
100
AcDbSymbolTableRecord
100
AcDbLayerTableRecord
  2
DEFAULT_1
 70
0
 62
7
  6
CENTER
370
-3
390
F
  0
LAYER
  5
1FB
100
AcDbSymbolTableRecord
100
AcDbLayerTableRecord
  2
DEFAULT_2
 70
0
 62
8
  6
HIDDEN
370
-3
390
F
  0
LAYER
  5
1FC
100
AcDbSymbolTableRecord
100
AcDbLayerTableRecord
  2
DEFAULT_3
 70
0
 62
7
  6
PHANTOM
370
-3
390
F
  0
LAYER
  5
1FD
100
AcDbSymbolTableRecord
100
AcDbLayerTableRecord
  2
DEFAULT_COORDINATE_SYSTEM
 70
0
 62
7
  6
CONTINUOUS
370
-3
390
F
  0
LAYER
  5
1FE
100
AcDbSymbolTableRecord
100
AcDbLayerTableRecord
  2
DEFAULT_DATUM_AXES
 70
0
 62
7
  6
CONTINUOUS
370
-3
390
F
  0
LAYER
  5
1FF
100
AcDbSymbolTableRecord
100
AcDbLayerTableRecord
  2
DEFAULT_DATUM_CURVES
 70
0
 62
7
  6
CONTINUOUS
370
-3
390
F
  0
LAYER
  5
200
100
AcDbSymbolTableRecord
100
AcDbLayerTableRecord
  2
DEFAULT_DATUM_PLANES
 70
0
 62
7
  6
CONTINUOUS
370
-3
390
F
  0
ENDTAB
  0
TABLE
  2
STYLE
  5
3
100
AcDbSymbolTable
 70
1
  0
STYLE
  5
11
100
AcDbSymbolTableRecord
100
AcDbTextStyleTableRecord
  2
STANDARD
 70
0
 40
0.0
 41
0.8
 50
0.0
 71
0
 42
0.2
  3
txt
  4

  0
STYLE
  5
201
100
AcDbSymbolTableRecord
100
AcDbTextStyleTableRecord
  2
TEXTSTYLE_1
 70
0
 40
0.0
 41
0.8
 50
0.0
 71
0
 42
0.2
  3
gdt
  4

  0
ENDTAB
  0
TABLE
  2
VIEW
  5
6
100
AcDbSymbolTable
 70
0
  0
ENDTAB
  0
TABLE
  2
UCS
  5
7
100
AcDbSymbolTable
 70
0
  0
ENDTAB
  0
TABLE
  2
APPID
  5
9
100
AcDbSymbolTable
 70
1
  0
APPID
  5
202
100
AcDbSymbolTableRecord
100
AcDbRegAppTableRecord
  2
ACAD
 70
0
  0
ENDTAB
  0
TABLE
  2
BLOCK_RECORD
  5
1
100
AcDbSymbolTable
 70
0
  0
BLOCK_RECORD
  5
203
100
AcDbSymbolTableRecord
100
AcDbBlockTableRecord
  2
*Model_Space
  0
BLOCK_RECORD
  5
204
100
AcDbSymbolTableRecord
100
AcDbBlockTableRecord
  2
*Paper_Space
  0
ENDTAB
  0
TABLE
  2
DIMSTYLE
  5
A
100
AcDbSymbolTable
 70
1
100
AcDbDimStyleTable
 71
0
  0
DIMSTYLE
105
205
100
AcDbSymbolTableRecord
100
AcDbDimStyleTableRecord
  2
STANDARD
 70
0
  3

  4

 40
1.0
 41
0.1
 42
0.0625
 43
0.38
 44
0.18
 45
0.0
 46
0.0
 47
0.01
 48
0.01
140
0.08
141
0.09
142
0.0
143
25.4
144
1.0
145
0.0
146
1.0
147
0.09
 71
1.0
 72
0.0
 73
1
 74
1
 75
0
 76
0
 77
0
 78
4
170
0
171
2
172
0
173
0
174
0
175
0
176
0
177
0
178
0
270
2
271
2
272
2
273
2
274
2
275
0
280
0
281
0
282
0
283
1
284
4
285
0
286
0
287
3
288
0
340
11
  0
ENDTAB
  0
ENDSEC
  0
SECTION
  2
BLOCKS
  0
BLOCK
  5
20
100
AcDbEntity
  8
0
100
AcDbBlockBegin
  2
*Model_Space
 70
0
 10
0.0
 20
0.0
 30
0.0
  3
*Model_Space
  1

  0
ENDBLK
  5
21
100
AcDbEntity
  8
0
100
AcDbBlockEnd
  0
BLOCK
  5
1C
100
AcDbEntity
  8
0
100
AcDbBlockBegin
  2
*Paper_Space
 70
0
 10
0.0
 20
0.0
 30
0.0
  3
*Paper_Space
  1

  0
ENDBLK
  5
1D
100
AcDbEntity
  8
0
100
AcDbBlockEnd
  0
ENDSEC
  0
SECTION
  2
ENTITIES
  0
LINE
  5
206
100
AcDbEntity
  8
0
100
AcDbLine
 62
6
  6
CONTINUOUS
 10
7.5394189652
 20
19.2326046967
 11
7.560806444
 21
18.6006046967
  0
LINE
  5
207
100
AcDbEntity
  8
0
100
AcDbLine
 62
6
  6
CONTINUOUS
 10
7.5631753104
 20
18.5306046967
 11
7.5794189652
 21
18.0506046967
  0
LINE
  5
208
100
AcDbEntity
  8
0
100
AcDbLine
 62
7
  6
CONTINUOUS
 10
7.6144189652
 20
18.5306046967
 11
7.6144189652
 21
18.5331046967
  0
LINE
  5
209
100
AcDbEntity
  8
0
100
AcDbLine
 62
7
  6
CONTINUOUS
 10
7.6144189652
 20
18.5656046967
 11
7.6144189652
 21
18.5706046967
  0
LINE
  5
20A
100
AcDbEntity
  8
0
100
AcDbLine
 62
6
  6
CONTINUOUS
 10
7.7194189652
 20
18.0506046967
 11
7.7194189652
 21
5.3006046967
  0
LINE
  5
20B
100
AcDbEntity
  8
0
100
AcDbLine
 62
6
  6
CONTINUOUS
 10
8.2594189652
 20
18.0506046967
 11
8.2594189652
 21
5.3006046967
  0
LINE
  5
20C
100
AcDbEntity
  8
0
100
AcDbLine
 62
7
  6
CONTINUOUS
 10
8.3644189652
 20
18.5306046967
 11
8.3644189652
 21
18.5331046967
  0
LINE
  5
20D
100
AcDbEntity
  8
0
100
AcDbLine
 62
7
  6
CONTINUOUS
 10
8.3644189652
 20
18.5656046967
 11
8.3644189652
 21
18.5706046967
  0
LINE
  5
20E
100
AcDbEntity
  8
0
100
AcDbLine
 62
6
  6
CONTINUOUS
 10
8.4394189652
 20
19.2326046967
 11
8.4180314863
 21
18.6006046967
  0
LINE
  5
20F
100
AcDbEntity
  8
0
100
AcDbLine
 62
6
  6
CONTINUOUS
 10
8.41566262
 20
18.5306046967
 11
8.3994189652
 21
18.0506046967
  0
LINE
  5
210
100
AcDbEntity
  8
0
100
AcDbLine
 62
6
  6
CONTINUOUS
 10
10.0782494681
 20
2.7806046967
 11
24.9237999448
 21
2.7806046967
  0
LINE
  5
211
100
AcDbEntity
  8
0
100
AcDbLine
 62
6
  6
CONTINUOUS
 10
10.0782494681
 20
3.3206046967
 11
24.9237999448
 21
3.3206046967
  0
LINE
  5
212
100
AcDbEntity
  8
0
100
AcDbLine
 62
9
  6
CONTINUOUS
 10
7.7194189652
 20
5.3006046967
 11
8.2594189652
 21
5.3006046967
  0
LINE
  5
213
100
AcDbEntity
  8
0
100
AcDbLine
 62
9
  6
CONTINUOUS
 10
26.7426304477
 20
5.3006046967
 11
27.2826304477
 21
5.3006046967
  0
LINE
  5
214
100
AcDbEntity
  8
0
100
AcDbLine
 62
6
  6
CONTINUOUS
 10
26.7176665312
 20
8.3046046967
 11
27.3075943643
 21
8.3046046967
  0
LINE
  5
215
100
AcDbEntity
  8
0
100
AcDbLine
 62
6
  6
CONTINUOUS
 10
26.5976458272
 20
9.1446046967
 11
27.4276150683
 21
9.1446046967
  0
LINE
  5
216
100
AcDbEntity
  8
0
100
AcDbLine
 62
6
  6
CONTINUOUS
 10
26.5186304477
 20
9.2317733738
 11
26.5212623661
 21
9.2317733738
  0
LINE
  5
217
100
AcDbEntity
  8
0
100
AcDbLine
 62
6
  6
CONTINUOUS
 10
26.7228436152
 20
9.2317733738
 11
26.8110491986
 21
9.2317733738
  0
LINE
  5
218
100
AcDbEntity
  8
0
100
AcDbLine
 62
6
  6
CONTINUOUS
 10
27.2142116969
 20
9.2317733738
 11
27.3024172803
 21
9.2317733738
  0
LINE
  5
219
100
AcDbEntity
  8
0
100
AcDbLine
 62
6
  6
CONTINUOUS
 10
27.5039985294
 20
9.2317733738
 11
27.5066304477
 21
9.2317733738
  0
LINE
  5
21A
100
AcDbEntity
  8
0
100
AcDbLine
 62
6
  6
CONTINUOUS
 10
26.5186304477
 20
9.5674360195
 11
26.5212623661
 21
9.5674360195
  0
LINE
  5
21B
100
AcDbEntity
  8
0
100
AcDbLine
 62
6
  6
CONTINUOUS
 10
26.7228436152
 20
9.5674360195
 11
26.8110491986
 21
9.5674360195
  0
LINE
  5
21C
100
AcDbEntity
  8
0
100
AcDbLine
 62
6
  6
CONTINUOUS
 10
27.2142116969
 20
9.5674360195
 11
27.3024172803
 21
9.5674360195
  0
LINE
  5
21D
100
AcDbEntity
  8
0
100
AcDbLine
 62
6
  6
CONTINUOUS
 10
27.5039985294
 20
9.5674360195
 11
27.5066304477
 21
9.5674360195
  0
LINE
  5
21E
100
AcDbEntity
  8
0
100
AcDbLine
 62
6
  6
CONTINUOUS
 10
8.3994189652
 20
18.0506046967
 11
7.5794189652
 21
18.0506046967
  0
LINE
  5
21F
100
AcDbEntity
  8
0
100
AcDbLine
 62
7
  6
CONTINUOUS
 10
8.41566262
 20
18.5306046967
 11
7.5631753104
 21
18.5306046967
  0
LINE
  5
220
100
AcDbEntity
  8
0
100
AcDbLine
 62
6
  6
CONTINUOUS
 10
7.6106689652
 20
18.5331046967
 11
8.3681689652
 21
18.5331046967
  0
LINE
  5
221
100
AcDbEntity
  8
0
100
AcDbLine
 62
7
  6
CONTINUOUS
 10
7.5757583651
 20
18.5656046967
 11
8.4030795653
 21
18.5656046967
  0
LINE
  5
222
100
AcDbEntity
  8
0
100
AcDbLine
 62
7
  6
CONTINUOUS
 10
7.5757583651
 20
18.5706046967
 11
8.4030795653
 21
18.5706046967
  0
LINE
  5
223
100
AcDbEntity
  8
0
100
AcDbLine
 62
6
  6
CONTINUOUS
 10
8.4180314863
 20
18.6006046967
 11
7.560806444
 21
18.6006046967
  0
LINE
  5
224
100
AcDbEntity
  8
0
100
AcDbLine
 62
6
  6
CONTINUOUS
 10
8.4394189652
 20
19.2326046967
 11
7.5394189652
 21
19.2326046967
  0
LINE
  5
225
100
AcDbEntity
  8
0
100
AcDbLine
 62
6
  6
CONTINUOUS
 10
26.5186304477
 20
9.2317733738
 11
26.5186304477
 21
9.5674360195
  0
LINE
  5
226
100
AcDbEntity
  8
0
100
AcDbLine
 62
6
  6
CONTINUOUS
 10
26.5212623661
 20
9.2317733738
 11
26.5212623661
 21
9.5674360195
  0
LINE
  5
227
100
AcDbEntity
  8
0
100
AcDbLine
 62
6
  6
CONTINUOUS
 10
26.7176304477
 20
8.3046046967
 11
26.7176304477
 21
9.1446046967
  0
LINE
  5
228
100
AcDbEntity
  8
0
100
AcDbLine
 62
6
  6
CONTINUOUS
 10
26.7228436152
 20
9.2317733738
 11
26.7228436152
 21
9.5674360195
  0
LINE
  5
229
100
AcDbEntity
  8
0
100
AcDbLine
 62
6
  6
CONTINUOUS
 10
26.7426304477
 20
5.3006046967
 11
26.7426304477
 21
8.3046046967
  0
LINE
  5
22A
100
AcDbEntity
  8
0
100
AcDbLine
 62
6
  6
CONTINUOUS
 10
26.8110491986
 20
9.2317733738
 11
26.8110491986
 21
9.5674360195
  0
LINE
  5
22B
100
AcDbEntity
  8
0
100
AcDbLine
 62
6
  6
CONTINUOUS
 10
27.2142116969
 20
9.2317733738
 11
27.2142116969
 21
9.5674360195
  0
LINE
  5
22C
100
AcDbEntity
  8
0
100
AcDbLine
 62
6
  6
CONTINUOUS
 10
27.2826304477
 20
5.3006046967
 11
27.2826304477
 21
8.3046046967
  0
LINE
  5
22D
100
AcDbEntity
  8
0
100
AcDbLine
 62
6
  6
CONTINUOUS
 10
27.3024172803
 20
9.2317733738
 11
27.3024172803
 21
9.5674360195
  0
LINE
  5
22E
100
AcDbEntity
  8
0
100
AcDbLine
 62
6
  6
CONTINUOUS
 10
27.3076304477
 20
8.3046046967
 11
27.3076304477
 21
9.1446046967
  0
LINE
  5
22F
100
AcDbEntity
  8
0
100
AcDbLine
 62
6
  6
CONTINUOUS
 10
27.5039985294
 20
9.2317733738
 11
27.5039985294
 21
9.5674360195
  0
LINE
  5
230
100
AcDbEntity
  8
0
100
AcDbLine
 62
6
  6
CONTINUOUS
 10
27.5066304477
 20
9.2317733738
 11
27.5066304477
 21
9.5674360195
  0
ARC
  5
231
100
AcDbEntity
  8
0
100
AcDbCircle
 62
6
  6
CONTINUOUS
 10
27.3077283504
 20
9.4666046967
 40
0.223
100
AcDbArc
 50
26.8822491087
 51
57.0274043428
  0
ARC
  5
232
100
AcDbEntity
  8
0
100
AcDbCircle
 62
6
  6
CONTINUOUS
 10
27.3077283504
 20
9.3326046967
 40
0.223
100
AcDbArc
 50
302.536464123
 51
333.1177508913
  0
ARC
  5
233
100
AcDbEntity
  8
0
100
AcDbCircle
 62
6
  6
CONTINUOUS
 10
26.7175325451
 20
9.4666046967
 40
0.223
100
AcDbArc
 50
122.9946375703
 51
153.1177508913
  0
ARC
  5
234
100
AcDbEntity
  8
0
100
AcDbCircle
 62
6
  6
CONTINUOUS
 10
26.7175325451
 20
9.3326046967
 40
0.223
100
AcDbArc
 50
206.8822491087
 51
237.463535877
  0
ARC
  5
235
100
AcDbEntity
  8
0
100
AcDbCircle
 62
6
  6
CONTINUOUS
 10
7.6106689652
 20
18.5681046967
 40
0.035
100
AcDbArc
 50
184.0960437582
 51
270.0
  0
ARC
  5
236
100
AcDbEntity
  8
0
100
AcDbCircle
 62
6
  6
CONTINUOUS
 10
8.3681689652
 20
18.5681046967
 40
0.035
100
AcDbArc
 50
270.0
 51
355.9039562418
  0
ARC
  5
237
100
AcDbEntity
  8
0
100
AcDbCircle
 62
6
  6
CONTINUOUS
 10
7.6106689652
 20
18.5681046967
 40
0.035
100
AcDbArc
 50
111.5802476011
 51
175.9039562419
  0
ARC
  5
238
100
AcDbEntity
  8
0
100
AcDbCircle
 62
6
  6
CONTINUOUS
 10
8.3681689652
 20
18.5681046967
 40
0.035
100
AcDbArc
 50
4.0960437581
 51
68.4197523989
  0
LINE
  5
239
100
AcDbEntity
  8
0
100
AcDbLine
 62
6
  6
CONTINUOUS
 10
26.6259323095
 20
9.6536395997
 11
26.9451992901
 21
9.653639603
  0
LINE
  5
23A
100
AcDbEntity
  8
0
100
AcDbLine
 62
6
  6
CONTINUOUS
 10
26.9451992901
 20
9.653639603
 11
27.4252279012
 21
9.6536483906
  0
LINE
  5
23B
100
AcDbEntity
  8
0
100
AcDbLine
 62
6
  6
CONTINUOUS
 10
27.4252279012
 20
9.6536483906
 11
27.4291078339
 21
9.6535944387
  0
LINE
  5
23C
100
AcDbEntity
  8
0
100
AcDbLine
 62
6
  6
CONTINUOUS
 10
27.4234298544
 20
9.6537611354
 11
27.3989805344
 21
9.6538824834
  0
SPLINE
  5
23D
100
AcDbEntity
  8
0
100
AcDbSpline
 62
6
  6
CONTINUOUS
 70
0
 71
3
 72
18
 73
14
 74
12
 42
0.0000001
 43
0.0000001
 44
0.0000000001
 12
-0.4535636036
 22
-0.0000000003
 32
0.0
 13
-0.4535579189
 23
-0.0022708319
 33
0.0
 40
0.0
 40
0.0
 40
0.0
 40
0.0
 40
0.0694782123
 40
0.1613195697
 40
0.2727895184
 40
0.400776108
 40
0.5416027798
 40
0.6155897936
 40
0.6912696005
 40
0.7681189816
 40
0.8455937787
 40
0.9230915078
 40
1.0
 40
1.0
 40
1.0
 40
1.0
 10
27.3989805344
 20
9.6538824834
 30
0.0
 10
27.3884762716
 20
9.6538824834
 30
0.0
 10
27.3640867098
 20
9.6538828574
 30
0.0
 10
27.3228442442
 20
9.6538820885
 30
0.0
 10
27.2727560216
 20
9.6538809521
 30
0.0
 10
27.2152618142
 20
9.6538868795
 30
0.0
 10
27.163434571
 20
9.6538837175
 30
0.0
 10
27.1195154807
 20
9.6538724572
 30
0.0
 10
27.0852689787
 20
9.653869759
 30
0.0
 10
27.0504951674
 20
9.6538821754
 30
0.0
 10
27.0154465192
 20
9.6539124683
 30
0.0
 10
26.9803889118
 20
9.6539036781
 30
0.0
 10
26.9570446024
 20
9.6538368471
 30
0.0
 10
26.9454171172
 20
9.6537786317
 30
0.0
 11
27.3989805344
 21
9.6538824834
 31
0.0
 11
27.367467746
 21
9.6538826519
 31
0.0
 11
27.325811849
 21
9.6538821185
 31
0.0
 11
27.2752531374
 21
9.6538819955
 31
0.0
 11
27.2172030787
 21
9.6538851675
 31
0.0
 11
27.1533292261
 21
9.6538803739
 31
0.0
 11
27.1197714102
 21
9.6538735049
 31
0.0
 11
27.0854458043
 21
9.6538722472
 31
0.0
 11
27.0505897245
 21
9.6538850764
 31
0.0
 11
27.0154499825
 21
9.6539059359
 31
0.0
 11
26.9802998377
 21
9.6538882947
 31
0.0
 11
26.9454171172
 21
9.6537786317
 31
0.0
  0
LINE
  5
23E
100
AcDbEntity
  8
0
100
AcDbLine
 62
6
  6
CONTINUOUS
 10
26.9454171172
 20
9.6537786317
 11
26.9420630959
 21
9.6537611353
  0
LINE
  5
23F
100
AcDbEntity
  8
0
100
AcDbLine
 62
6
  6
CONTINUOUS
 10
26.596095555
 20
9.6536396209
 11
26.6259323095
 21
9.6536395997
  0
SPLINE
  5
240
100
AcDbEntity
  8
0
100
AcDbSpline
 62
6
  6
CONTINUOUS
 70
0
 71
3
 72
41
 73
37
 74
35
 42
0.0000001
 43
0.0000001
 44
0.0000000001
 12
0.0
 22
-3.8326351463
 32
0.0
 13
3.8326351463
 23
0.0
 33
0.0
 40
0.0
 40
0.0
 40
0.0
 40
0.0
 40
0.0321577907
 40
0.0643067208
 40
0.0964383822
 40
0.1285441962
 40
0.1606159492
 40
0.192645738
 40
0.2246260563
 40
0.2565498718
 40
0.2884106892
 40
0.3202026177
 40
0.3519204223
 40
0.383559583
 40
0.4151163308
 40
0.4465876926
 40
0.4779715142
 40
0.5092664894
 40
0.5404721651
 40
0.5715889554
 40
0.6026181299
 40
0.6335618089
 40
0.6644229358
 40
0.6952052564
 40
0.7259132745
 40
0.7565522154
 40
0.7871279674
 40
0.8176470318
 40
0.8481164526
 40
0.8633361787
 40
0.8785463519
 40
0.9089394623
 40
0.9393066483
 40
0.9544844617
 40
0.9696589586
 40
1.0
 40
1.0
 40
1.0
 40
1.0
 10
7.7194189652
 20
5.3006046967
 30
0.0
 10
7.7194189652
 20
5.2595216704
 30
0.0
 10
7.7212990099
 20
5.1773545172
 30
0.0
 10
7.7297532811
 20
5.0543994943
 30
0.0
 10
7.7438222911
 20
4.9320238846
 30
0.0
 10
7.7634742476
 20
4.8105203725
 30
0.0
 10
7.7886644438
 20
4.6901757671
 30
0.0
 10
7.8193356018
 20
4.5712754301
 30
0.0
 10
7.8554179724
 20
4.4541013789
 30
0.0
 10
7.8968293788
 20
4.3389320478
 30
0.0
 10
7.9434753312
 20
4.226041569
 30
0.0
 10
7.9952492849
 20
4.115699264
 30
0.0
 10
8.0520327705
 20
4.0081690446
 30
0.0
 10
8.1136954893
 20
3.9037088016
 30
0.0
 10
8.180095639
 20
3.8025698891
 30
0.0
 10
8.2510801186
 20
3.7049965843
 30
0.0
 10
8.326484657
 20
3.6112254419
 30
0.0
 10
8.4061341505
 20
3.5214848017
 30
0.0
 10
8.4898429673
 20
3.435994262
 30
0.0
 10
8.57741513
 20
3.3549640375
 30
0.0
 10
8.668644686
 20
3.2785944192
 30
0.0
 10
8.7633161014
 20
3.2070752925
 30
0.0
 10
8.8612045731
 20
3.1405854763
 30
0.0
 10
8.9620764259
 20
3.0792921496
 30
0.0
 10
9.0656897168
 20
3.0233503836
 30
0.0
 10
9.1717944516
 20
2.9729025724
 30
0.0
 10
9.2801339809
 20
2.9280776233
 30
0.0
 10
9.3904425257
 20
2.8889913188
 30
0.0
 10
9.4838231767
 20
2.8612741121
 30
0.0
 10
9.5592253499
 20
2.8420701742
 30
0.0
 10
9.6350085946
 20
2.8248644122
 30
0.0
 10
9.73047228
 20
2.8070974774
 30
0.0
 10
9.8266956442
 20
2.7943686644
 30
0.0
 10
9.9039470067
 20
2.7872344872
 30
0.0
 10
9.9813240525
 20
2.782136169
 30
0.0
 10
10.039487421
 20
2.7806046967
 30
0.0
 10
10.0782494681
 20
2.7806046967
 30
0.0
 11
7.7194189652
 21
5.3006046967
 31
0.0
 11
7.7222388789
 21
5.1773878815
 31
0.0
 11
7.7306921827
 21
5.0544630782
 31
0.0
 11
7.7447596382
 21
4.9321202532
 31
0.0
 11
7.7644092547
 21
4.8106494196
 31
0.0
 11
7.7895962798
 21
4.6903382611
 31
0.0
 11
7.8202633116
 21
4.5714720291
 31
0.0
 11
7.8563404368
 21
4.4543329055
 31
0.0
 11
7.8977453062
 21
4.339199369
 31
0.0
 11
7.9443832578
 21
4.2263456115
 31
0.0
 11
7.9961475409
 21
4.1160409564
 31
0.0
 11
8.0529194555
 21
4.0085492944
 31
0.0
 11
8.1145685116
 21
3.9041284579
 31
0.0
 11
8.1809526841
 21
3.8030297152
 31
0.0
 11
8.2519186474
 21
3.705497189
 31
0.0
 11
8.3273019399
 21
3.6117672778
 31
0.0
 11
8.4069272858
 21
3.5220681092
 31
0.0
 11
8.4906088678
 21
3.436619028
 31
0.0
 11
8.5781505915
 21
3.355629965
 31
0.0
 11
8.6693464076
 21
3.2793009202
 31
0.0
 11
8.7639807174
 21
3.2078214217
 31
0.0
 11
8.8618286909
 21
3.1413699366
 31
0.0
 11
8.962656715
 21
3.0801132846
 31
0.0
 11
9.0662228715
 21
3.0242061628
 31
0.0
 11
9.1722774447
 21
2.9737905416
 31
0.0
 11
9.2805634471
 21
2.9289951127
 31
0.0
 11
9.3908172963
 21
2.8899348469
 31
0.0
 11
9.5027694463
 21
2.856710491
 31
0.0
 11
9.5592966953
 21
2.8423142302
 31
0.0
 11
9.616145117
 21
2.8294080616
 31
0.0
 11
9.7306650871
 21
2.8080985467
 31
0.0
 11
9.8460465544
 21
2.7928375451
 31
0.0
 11
9.9039711025
 21
2.7874882987
 31
0.0
 11
9.9620036006
 21
2.7836649214
 31
0.0
 11
10.0782494681
 21
2.7806046967
 31
0.0
  0
SPLINE
  5
241
100
AcDbEntity
  8
0
100
AcDbSpline
 62
6
  6
CONTINUOUS
 70
0
 71
3
 72
41
 73
37
 74
35
 42
0.0000001
 43
0.0000001
 44
0.0000000001
 12
0.0
 22
-2.9844861846
 32
0.0
 13
2.9844861846
 23
0.0
 33
0.0
 40
0.0
 40
0.0
 40
0.0
 40
0.0
 40
0.0327470148
 40
0.0654801994
 40
0.0981862565
 40
0.1308516993
 40
0.1634635152
 40
0.1960090843
 40
0.2284763137
 40
0.260853734
 40
0.2931306039
 40
0.3252970027
 40
0.3573439299
 40
0.3892633889
 40
0.421048482
 40
0.4526934836
 40
0.4841939202
 40
0.5155466292
 40
0.5467498261
 40
0.5778031431
 40
0.6087076695
 40
0.6394659658
 40
0.6700820804
 40
0.7005615311
 40
0.7309112832
 40
0.761139697
 40
0.7912564709
 40
0.8212725504
 40
0.8512000273
 40
0.866135892
 40
0.8810546004
 40
0.9108450856
 40
0.9405888254
 40
0.955449156
 40
0.9703035526
 40
1.0
 40
1.0
 40
1.0
 40
1.0
 10
8.2594189652
 20
5.3006046967
 30
0.0
 10
8.2594189652
 20
5.2680270256
 30
0.0
 10
8.2608974223
 20
5.2028757528
 30
0.0
 10
8.2675452377
 20
5.1053917065
 30
0.0
 10
8.2786055355
 20
5.0083887719
 30
0.0
 10
8.294049571
 20
4.9121093303
 30
0.0
 10
8.3138370312
 20
4.8167906641
 30
0.0
 10
8.3379163173
 20
4.7226681416
 30
0.0
 10
8.3662247107
 20
4.6299735884
 30
0.0
 10
8.3986885906
 20
4.5389349173
 30
0.0
 10
8.4352236287
 20
4.4497754002
 30
0.0
 10
8.4757350499
 20
4.3627130423
 30
0.0
 10
8.5201180123
 20
4.2779599943
 30
0.0
 10
8.5682579652
 20
4.19572196
 30
0.0
 10
8.6200309945
 20
4.1161976042
 30
0.0
 10
8.6753042735
 20
4.0395780028
 30
0.0
 10
8.7339365753
 20
3.966046171
 30
0.0
 10
8.7957787839
 20
3.8957765917
 30
0.0
 10
8.860674382
 20
3.828934754
 30
0.0
 10
8.9284600448
 20
3.7656767817
 30
0.0
 10
8.9989662456
 20
3.7061491431
 30
0.0
 10
9.0720178558
 20
3.6504883818
 30
0.0
 10
9.1474347101
 20
3.5988208645
 30
0.0
 10
9.225032216
 20
3.551262645
 30
0.0
 10
9.304621995
 20
3.5079193946
 30
0.0
 10
9.3860122653
 20
3.4688864066
 30
0.0
 10
9.4690090056
 20
3.4342484141
 30
0.0
 10
9.553413995
 20
3.4040802322
 30
0.0
 10
9.6248118091
 20
3.3827030687
 30
0.0
 10
9.6824200595
 20
3.3679037533
 30
0.0
 10
9.740265196
 20
3.3546565699
 30
0.0
 10
9.8130973367
 20
3.3409831403
 30
0.0
 10
9.8864932631
 20
3.3311890735
 30
0.0
 10
9.9453955969
 20
3.325702104
 30
0.0
 10
10.0043743315
 20
3.3217822081
 30
0.0
 10
10.0487065891
 20
3.3206046967
 30
0.0
 10
10.0782494681
 20
3.3206046967
 30
0.0
 11
8.2594189652
 21
5.3006046967
 31
0.0
 11
8.2616367858
 21
5.2028968507
 31
0.0
 11
8.2682844262
 21
5.1054315524
 31
0.0
 11
8.2793444825
 21
5.008449396
 31
0.0
 11
8.2947880344
 21
4.9121908297
 31
0.0
 11
8.3145747131
 21
4.816893812
 31
0.0
 11
8.3386527983
 21
4.7227936916
 31
0.0
 11
8.3669594292
 21
4.630122463
 31
0.0
 11
8.3994208085
 21
4.5391081306
 31
0.0
 11
8.4359524176
 21
4.4499740415
 31
0.0
 11
8.4764592834
 21
4.3629382613
 31
0.0
 11
8.5208363445
 21
4.278212959
 31
0.0
 11
8.5689688048
 21
4.1960038321
 31
0.0
 11
8.620732515
 21
4.1165094936
 31
0.0
 11
8.675994409
 21
4.0399209472
 31
0.0
 11
8.7346130241
 21
3.9664210813
 31
0.0
 11
8.7964389987
 21
3.8961842184
 31
0.0
 11
8.8613156089
 21
3.8293756402
 31
0.0
 11
8.9290793365
 21
3.7661512371
 31
0.0
 11
8.9995604955
 21
3.7066571924
 31
0.0
 11
9.0725838161
 21
3.6510297327
 31
0.0
 11
9.1479690567
 21
3.599394876
 31
0.0
 11
9.2255315972
 21
3.5518683106
 31
0.0
 11
9.3050830557
 21
3.5085553233
 31
0.0
 11
9.386431832
 21
3.4695507806
 31
0.0
 11
9.4693836457
 21
3.4349391133
 31
0.0
 11
9.553742009
 21
3.4047943927
 31
0.0
 11
9.6393086864
 21
3.3791804487
 31
0.0
 11
9.6824828065
 21
3.3680897059
 31
0.0
 11
9.7258840634
 21
3.3581509957
 31
0.0
 11
9.8132674769
 21
3.3417497412
 31
0.0
 11
9.901257614
 21
3.3300105028
 31
0.0
 11
9.9454168927
 21
3.3258970332
 31
0.0
 11
9.9896520622
 21
3.3229573499
 31
0.0
 11
10.0782494681
 21
3.3206046967
 31
0.0
  0
SPLINE
  5
242
100
AcDbEntity
  8
0
100
AcDbSpline
 62
6
  6
CONTINUOUS
 70
0
 71
3
 72
41
 73
37
 74
35
 42
0.0000001
 43
0.0000001
 44
0.0000000001
 12
2.9844861846
 22
0.0
 32
0.0
 13
0.0
 23
2.9844861846
 33
0.0
 40
0.0
 40
0.0
 40
0.0
 40
0.0
 40
0.0296964492
 40
0.0445508467
 40
0.0594111778
 40
0.0891549188
 40
0.1189454048
 40
0.1338641135
 40
0.1487999784
 40
0.1787274556
 40
0.2087435351
 40
0.2388603088
 40
0.2690887221
 40
0.2994384736
 40
0.3299179236
 40
0.3605340372
 40
0.3912923325
 40
0.4221968578
 40
0.4532501736
 40
0.4844533694
 40
0.5158060772
 40
0.5473065127
 40
0.5789515133
 40
0.6107366055
 40
0.6426560637
 40
0.6747029902
 40
0.7068693886
 40
0.7391462583
 40
0.7715236785
 40
0.8039909082
 40
0.8365364779
 40
0.8691482945
 40
0.9018137384
 40
0.934519797
 40
0.9672529832
 40
1.0
 40
1.0
 40
1.0
 40
1.0
 10
24.9237999448
 20
3.3206046967
 30
0.0
 10
24.9533428256
 20
3.3206046967
 30
0.0
 10
24.9976750859
 20
3.3217822082
 30
0.0
 10
25.0566538236
 20
3.3257021045
 30
0.0
 10
25.1155561599
 20
3.3311890747
 30
0.0
 10
25.1889520887
 20
3.3409831423
 30
0.0
 10
25.2617842315
 20
3.3546565729
 30
0.0
 10
25.3196293693
 20
3.3679037572
 30
0.0
 10
25.3772376204
 20
3.3827030732
 30
0.0
 10
25.4486354348
 20
3.4040802377
 30
0.0
 10
25.5330404239
 20
3.4342484206
 30
0.0
 10
25.6160371632
 20
3.4688864138
 30
0.0
 10
25.6974274321
 20
3.5079194018
 30
0.0
 10
25.7770172091
 20
3.551262652
 30
0.0
 10
25.8546147126
 20
3.598820871
 30
0.0
 10
25.9300315644
 20
3.6504883872
 30
0.0
 10
26.003083172
 20
3.7061491469
 30
0.0
 10
26.0735893701
 20
3.7656767835
 30
0.0
 10
26.1413750304
 20
3.8289347535
 30
0.0
 10
26.2062706262
 20
3.8957765886
 30
0.0
 10
26.2681128327
 20
3.9660461652
 30
0.0
 10
26.3267451328
 20
4.0395779941
 30
0.0
 10
26.3820184105
 20
4.1161975926
 30
0.0
 10
26.433791439
 20
4.1957219457
 30
0.0
 10
26.4819313913
 20
4.2779599776
 30
0.0
 10
26.5263143537
 20
4.3627130236
 30
0.0
 10
26.5668257754
 20
4.4497753798
 30
0.0
 10
26.6033608143
 20
4.5389348958
 30
0.0
 10
26.6358246949
 20
4.6299735666
 30
0.0
 10
26.6641330896
 20
4.7226681203
 30
0.0
 10
26.6882123771
 20
4.816790644
 30
0.0
 10
26.7079998387
 20
4.9121093124
 30
0.0
 10
26.7234438754
 20
5.0083887572
 30
0.0
 10
26.7345041743
 20
5.1053916958
 30
0.0
 10
26.7411519905
 20
5.2028757472
 30
0.0
 10
26.7426304477
 20
5.2680270236
 30
0.0
 10
26.7426304477
 20
5.3006046967
 30
0.0
 11
24.9237999448
 21
3.3206046967
 31
0.0
 11
25.012397356
 21
3.3229573502
 31
0.0
 11
25.0566325283
 21
3.3258970338
 31
0.0
 11
25.1007918083
 21
3.3300105038
 31
0.0
 11
25.1887819489
 21
3.3417497433
 31
0.0
 11
25.2761653646
 21
3.358150999
 31
0.0
 11
25.3195666224
 21
3.3680897098
 31
0.0
 11
25.3627407431
 21
3.3791804531
 31
0.0
 11
25.448307421
 21
3.4047943983
 31
0.0
 11
25.532665784
 21
3.4349391199
 31
0.0
 11
25.6156175968
 21
3.4695507877
 31
0.0
 11
25.6969663715
 21
3.5085553306
 31
0.0
 11
25.7765178281
 21
3.5518683177
 31
0.0
 11
25.8540803662
 21
3.5993948825
 31
0.0
 11
25.9294656042
 21
3.6510297381
 31
0.0
 11
26.0024889222
 21
3.7066571962
 31
0.0
 11
26.0729700785
 21
3.7661512389
 31
0.0
 11
26.1407338035
 21
3.8293756397
 31
0.0
 11
26.2056104114
 21
3.8961842153
 31
0.0
 11
26.2674363838
 21
3.9664210755
 31
0.0
 11
26.3260549973
 21
4.0399209384
 31
0.0
 11
26.38131689
 21
4.1165094819
 31
0.0
 11
26.4330805993
 21
4.1960038177
 31
0.0
 11
26.481213059
 21
4.2782129423
 31
0.0
 11
26.5255901202
 21
4.3629382424
 31
0.0
 11
26.5660969864
 21
4.4499740209
 31
0.0
 11
26.6026285962
 21
4.5391081089
 31
0.0
 11
26.6350899763
 21
4.6301224411
 31
0.0
 11
26.6633966085
 21
4.72279367
 31
0.0
 11
26.6874746952
 21
4.8168937916
 31
0.0
 11
26.7072613752
 21
4.9121908116
 31
0.0
 11
26.7227049283
 21
5.0084493808
 31
0.0
 11
26.7337649857
 21
5.1054315415
 31
0.0
 11
26.7404126269
 21
5.2028968447
 31
0.0
 11
26.7426304477
 21
5.3006046967
 31
0.0
  0
SPLINE
  5
243
100
AcDbEntity
  8
0
100
AcDbSpline
 62
6
  6
CONTINUOUS
 70
0
 71
3
 72
41
 73
37
 74
35
 42
0.0000001
 43
0.0000001
 44
0.0000000001
 12
3.8326351463
 22
0.0
 32
0.0
 13
0.0
 23
3.8326351463
 33
0.0
 40
0.0
 40
0.0
 40
0.0
 40
0.0
 40
0.0303410396
 40
0.0455155357
 40
0.0606933486
 40
0.0910605335
 40
0.121453643
 40
0.136663816
 40
0.1518835419
 40
0.1823529625
 40
0.2128720269
 40
0.2434477792
 40
0.2740867205
 40
0.3047947393
 40
0.3355770608
 40
0.3664381886
 40
0.3973818686
 40
0.4284110441
 40
0.4595278356
 40
0.4907335124
 40
0.5220284887
 40
0.5534123113
 40
0.5848836741
 40
0.6164404227
 40
0.6480795841
 40
0.6797973892
 40
0.7115893181
 40
0.7434501357
 40
0.7753739511
 40
0.8073542691
 40
0.8393840574
 40
0.8714558096
 40
0.9035616226
 40
0.9356932826
 40
0.9678422112
 40
1.0
 40
1.0
 40
1.0
 40
1.0
 10
24.9237999448
 20
2.7806046967
 30
0.0
 10
24.9625619897
 20
2.7806046967
 30
0.0
 10
25.0207253549
 20
2.7821361689
 30
0.0
 10
25.0981023968
 20
2.7872344865
 30
0.0
 10
25.1753537562
 20
2.7943686628
 30
0.0
 10
25.2715771173
 20
2.807097475
 30
0.0
 10
25.3670408
 20
2.8248644086
 30
0.0
 10
25.4428240433
 20
2.8420701694
 30
0.0
 10
25.5182262159
 20
2.8612741064
 30
0.0
 10
25.6116068667
 20
2.888991312
 30
0.0
 10
25.7219154119
 20
2.9280776157
 30
0.0
 10
25.8302549427
 20
2.972902564
 30
0.0
 10
25.9363596795
 20
3.0233503751
 30
0.0
 10
26.039972973
 20
3.0792921416
 30
0.0
 10
26.1408448289
 20
3.1405854692
 30
0.0
 10
26.2387333038
 20
3.2070752868
 30
0.0
 10
26.3334047225
 20
3.2785944157
 30
0.0
 10
26.4246342818
 20
3.3549640364
 30
0.0
 10
26.5122064475
 20
3.4359942638
 30
0.0
 10
26.5959152672
 20
3.5214848066
 30
0.0
 10
26.6755647631
 20
3.6112254502
 30
0.0
 10
26.7509693033
 20
3.7049965962
 30
0.0
 10
26.8219537845
 20
3.8025699042
 30
0.0
 10
26.8883539351
 20
3.9037088199
 30
0.0
 10
26.9500166542
 20
4.0081690658
 30
0.0
 10
27.0068001397
 20
4.1156992876
 30
0.0
 10
27.058574093
 20
4.2260415942
 30
0.0
 10
27.1052200442
 20
4.3389320741
 30
0.0
 10
27.1466314492
 20
4.4541014056
 30
0.0
 10
27.1827138186
 20
4.571275456
 30
0.0
 10
27.2133849747
 20
4.6901757914
 30
0.0
 10
27.2385751691
 20
4.8105203941
 30
0.0
 10
27.2582271242
 20
4.9320239022
 30
0.0
 10
27.272296133
 20
5.0543995071
 30
0.0
 10
27.2807504032
 20
5.177354524
 30
0.0
 10
27.2826304477
 20
5.2595216728
 30
0.0
 10
27.2826304477
 20
5.3006046967
 30
0.0
 11
24.9237999448
 21
2.7806046967
 31
0.0
 11
25.0400458055
 21
2.783664921
 31
0.0
 11
25.0980783007
 21
2.7874882979
 31
0.0
 11
25.1560028467
 21
2.7928375438
 31
0.0
 11
25.2713843098
 21
2.8080985441
 31
0.0
 11
25.3859042771
 21
2.8294080577
 31
0.0
 11
25.4427526978
 21
2.8423142254
 31
0.0
 11
25.4992799463
 21
2.8567104854
 31
0.0
 11
25.6112320958
 21
2.88993484
 31
0.0
 11
25.7214859455
 21
2.928995105
 31
0.0
 11
25.8297719493
 21
2.9737905331
 31
0.0
 11
25.9358265246
 21
3.0242061542
 31
0.0
 11
26.0393926837
 21
3.0801132766
 31
0.0
 11
26.1402207109
 21
3.1413699294
 31
0.0
 11
26.2380686876
 21
3.2078214161
 31
0.0
 11
26.3327030008
 21
3.2793009166
 31
0.0
 11
26.4238988202
 21
3.3556299639
 31
0.0
 11
26.511440547
 21
3.4366190298
 31
0.0
 11
26.5951221319
 21
3.5220681143
 31
0.0
 11
26.6747474802
 21
3.6117672863
 31
0.0
 11
26.7501307746
 21
3.7054972009
 31
0.0
 11
26.8210967394
 21
3.8030297305
 31
0.0
 11
26.8874809129
 21
3.9041284763
 31
0.0
 11
26.9491299693
 21
4.0085493158
 31
0.0
 11
27.0059018838
 21
4.1160409802
 31
0.0
 11
27.0576661664
 21
4.2263456369
 31
0.0
 11
27.1043041169
 21
4.3391993957
 31
0.0
 11
27.145708985
 21
4.4543329324
 31
0.0
 11
27.1817861088
 21
4.5714720552
 31
0.0
 11
27.2124531388
 21
4.6903382857
 31
0.0
 11
27.2376401622
 21
4.8106494415
 31
0.0
 11
27.2572897772
 21
4.9321202713
 31
0.0
 11
27.2713572315
 21
5.0544630911
 31
0.0
 11
27.2798105344
 21
5.1773878888
 31
0.0
 11
27.2826304477
 21
5.3006046967
 31
0.0
  0
LINE
  5
244
100
AcDbEntity
  8
0
100
AcDbLine
 62
6
  6
CONTINUOUS
 10
26.945489342
 20
9.6538855456
 11
26.9528438204
 21
9.6536683368
  0
SPLINE
  5
245
100
AcDbEntity
  8
0
100
AcDbSpline
 62
6
  6
CONTINUOUS
 70
0
 71
3
 72
23
 73
19
 74
17
 42
0.0000001
 43
0.0000001
 44
0.0000000001
 12
-0.0816722976
 22
0.1314836797
 32
0.0
 13
-0.1484502049
 23
-0.0438276041
 33
0.0
 40
0.0
 40
0.0
 40
0.0
 40
0.0
 40
0.0805168656
 40
0.1564571844
 40
0.2282997805
 40
0.2965146174
 40
0.3617160933
 40
0.4244753457
 40
0.485274
 40
0.5445292175
 40
0.6026090923
 40
0.659828064
 40
0.7164689914
 40
0.7728041295
 40
0.8290895819
 40
0.8855579946
 40
0.9424424849
 40
1.0
 40
1.0
 40
1.0
 40
1.0
 10
26.7228436152
 20
9.5674360195
 30
0.0
 10
26.7206516161
 20
9.5709649041
 30
0.0
 10
26.7161028487
 20
9.5776482044
 30
0.0
 10
26.7086403297
 20
9.5867804761
 30
0.0
 10
26.7008497792
 20
9.5947695512
 30
0.0
 10
26.6928116967
 20
9.6016855769
 30
0.0
 10
26.6845777685
 20
9.6075943479
 30
0.0
 10
26.6761943406
 20
9.6125736441
 30
0.0
 10
26.6677024694
 20
9.6167037669
 30
0.0
 10
26.6591240738
 20
9.6200312454
 30
0.0
 10
26.6504825951
 20
9.6226011512
 30
0.0
 10
26.6418000828
 20
9.6244634595
 30
0.0
 10
26.6330892184
 20
9.6256395774
 30
0.0
 10
26.6243620897
 20
9.626140428
 30
0.0
 10
26.6156312865
 20
9.6259829443
 30
0.0
 10
26.606908192
 20
9.6251688734
 30
0.0
 10
26.5982090466
 20
9.6236745589
 30
0.0
 10
26.5924783966
 20
9.6222224875
 30
0.0
 10
26.589630255
 20
9.6213816182
 30
0.0
 11
26.7228436152
 21
9.5674360195
 31
0.0
 11
26.7158200503
 21
9.5777311891
 31
0.0
 11
26.7083744737
 21
9.5868267597
 31
0.0
 11
26.7006049531
 21
9.5947823893
 31
0.0
 11
26.692595631
 21
9.6016624443
 31
0.0
 11
26.6843941636
 21
9.6075436286
 31
0.0
 11
26.6760423039
 21
9.612504642
 31
0.0
 11
26.6675782487
 21
9.6166181734
 31
0.0
 11
26.6590271053
 21
9.6199347904
 31
0.0
 11
26.6504109708
 21
9.6224999725
 31
0.0
 11
26.6417512175
 21
9.6243569802
 31
0.0
 11
26.633062823
 21
9.6255294827
 31
0.0
 11
26.6243574331
 21
9.6260309435
 31
0.0
 11
26.6156467085
 21
9.6258744494
 31
0.0
 11
26.6069442955
 21
9.6250599118
 31
0.0
 11
26.5982666057
 21
9.6235688982
 31
0.0
 11
26.589630255
 21
9.6213816182
 31
0.0
  0
SPLINE
  5
246
100
AcDbEntity
  8
0
100
AcDbSpline
 62
6
  6
CONTINUOUS
 70
0
 71
3
 72
23
 73
19
 74
17
 42
0.0000001
 43
0.0000001
 44
0.0000000001
 12
0.1484503766
 22
-0.0438276547
 32
0.0
 13
0.081672392
 23
0.1314838317
 33
0.0
 40
0.0
 40
0.0
 40
0.0
 40
0.0
 40
0.0575624588
 40
0.1144561532
 40
0.1709374619
 40
0.2272410944
 40
0.2835905322
 40
0.3402356196
 40
0.3974513352
 40
0.4555311136
 40
0.51478775
 40
0.5755859384
 40
0.6383463918
 40
0.7035439228
 40
0.7717372147
 40
0.843550184
 40
0.9194818001
 40
1.0
 40
1.0
 40
1.0
 40
1.0
 10
26.589630255
 20
9.1778277752
 30
0.0
 10
26.5924786445
 20
9.1769868327
 30
0.0
 10
26.5982097867
 20
9.1755338045
 30
0.0
 10
26.6069100713
 20
9.174037815
 30
0.0
 10
26.6156353865
 20
9.1732235874
 30
0.0
 10
26.6243686277
 20
9.1730715679
 30
0.0
 10
26.6330975488
 20
9.1735712699
 30
0.0
 10
26.6418096847
 20
9.1747446374
 30
0.0
 10
26.6504917182
 20
9.1766100241
 30
0.0
 10
26.6591320218
 20
9.1791831428
 30
0.0
 10
26.667711163
 20
9.1825086801
 30
0.0
 10
26.6762029198
 20
9.1866396861
 30
0.0
 10
26.6845839387
 20
9.1916226174
 30
0.0
 10
26.6928176001
 20
9.1975294086
 30
0.0
 10
26.7008543672
 20
9.2044427546
 30
0.0
 10
26.7086418121
 20
9.2124305756
 30
0.0
 10
26.7161029741
 20
9.2215614563
 30
0.0
 10
26.7206515772
 20
9.2282444267
 30
0.0
 10
26.7228436152
 20
9.2317733738
 30
0.0
 11
26.589630255
 21
9.1778277752
 31
0.0
 11
26.5982671468
 21
9.1756394731
 31
0.0
 11
26.6069460531
 21
9.1741470662
 31
0.0
 11
26.615650529
 21
9.1733330422
 31
0.0
 11
26.6243641388
 21
9.1731799613
 31
0.0
 11
26.6330717702
 21
9.1736811721
 31
0.0
 11
26.6417610278
 21
9.1748521688
 31
0.0
 11
26.6504198496
 21
9.1767111641
 31
0.0
 11
26.6590352776
 21
9.1792787022
 31
0.0
 11
26.667586875
 21
9.1825947852
 31
0.0
 11
26.6760504852
 21
9.1867090922
 31
0.0
 11
26.6844010748
 21
9.1916726288
 31
0.0
 11
26.692602264
 21
9.1975531733
 31
0.0
 11
26.7006095882
 21
9.204430455
 31
0.0
 11
26.7083754166
 21
9.2123832985
 31
0.0
 11
26.7158199105
 21
9.2214780322
 31
0.0
 11
26.7228436152
 21
9.2317733738
 31
0.0
  0
SPLINE
  5
247
100
AcDbEntity
  8
0
100
AcDbSpline
 62
6
  6
CONTINUOUS
 70
0
 71
3
 72
15
 73
11
 74
9
 42
0.0000001
 43
0.0000001
 44
0.0000000001
 12
0.0469903379
 22
-0.0756494273
 32
0.0
 13
0.0854111553
 23
-0.0252163094
 33
0.0
 40
0.0
 40
0.0
 40
0.0
 40
0.0
 40
0.1489291763
 40
0.288844335
 40
0.4207099969
 40
0.5456852763
 40
0.6650786215
 40
0.7800034612
 40
0.891381744
 40
1.0
 40
1.0
 40
1.0
 40
1.0
 10
26.5212623661
 20
9.2317733738
 30
0.0
 10
26.5235951102
 20
9.2280179048
 30
0.0
 10
26.5284469115
 20
9.2209305597
 30
0.0
 10
26.5364427356
 20
9.2113143426
 30
0.0
 10
26.5447960321
 20
9.2029868005
 30
0.0
 10
26.5534227502
 20
9.1958674306
 30
0.0
 10
26.5622593597
 20
9.1898681488
 30
0.0
 10
26.571247052
 20
9.1848865199
 30
0.0
 10
26.5803495378
 20
9.1808566084
 30
0.0
 10
26.5865378514
 20
9.178740759
 30
0.0
 10
26.589630255
 20
9.1778277752
 30
0.0
 11
26.5212623661
 21
9.2317733738
 31
0.0
 11
26.5287678914
 21
9.2208383718
 31
0.0
 11
26.5367432686
 21
9.2112649088
 31
0.0
 11
26.5450680514
 21
9.2029820742
 31
0.0
 11
26.5536571763
 21
9.1959040329
 31
0.0
 11
26.5624546962
 21
9.1899326678
 31
0.0
 11
26.5714080787
 21
9.1849741998
 31
0.0
 11
26.5804781837
 21
9.1809595618
 31
0.0
 11
26.589630255
 21
9.1778277752
 31
0.0
  0
SPLINE
  5
248
100
AcDbEntity
  8
0
100
AcDbSpline
 62
6
  6
CONTINUOUS
 70
0
 71
3
 72
15
 73
11
 74
9
 42
0.0000001
 43
0.0000001
 44
0.0000000001
 12
-0.0854106785
 22
-0.0252161686
 32
0.0
 13
-0.0469900756
 23
-0.075649005
 33
0.0
 40
0.0
 40
0.0
 40
0.0
 40
0.0
 40
0.1086517944
 40
0.2200358682
 40
0.3349583621
 40
0.4543591744
 40
0.579331094
 40
0.7111104451
 40
0.8510034254
 40
1.0
 40
1.0
 40
1.0
 40
1.0
 10
26.589630255
 20
9.6213816182
 30
0.0
 10
26.5865369138
 20
9.6204683575
 30
0.0
 10
26.5803478594
 20
9.6183509778
 30
0.0
 10
26.5712450393
 20
9.6143197312
 30
0.0
 10
26.5622550345
 20
9.6093413017
 30
0.0
 10
26.5534232275
 20
9.6033349444
 30
0.0
 10
26.5447955968
 20
9.5962211179
 30
0.0
 10
26.5364428722
 20
9.5878974826
 30
0.0
 10
26.5284489275
 20
9.5782813862
 30
0.0
 10
26.5235961528
 20
9.5711931671
 30
0.0
 10
26.5212623661
 20
9.5674360195
 30
0.0
 11
26.589630255
 21
9.6213816182
 31
0.0
 11
26.580475761
 21
9.6182478534
 31
0.0
 11
26.571405412
 21
9.6142326292
 31
0.0
 11
26.5624517383
 21
9.6092752361
 31
0.0
 11
26.553656102
 21
9.6033000191
 31
0.0
 11
26.5450659774
 21
9.5962237594
 31
0.0
 11
26.536745127
 21
9.5879479637
 31
0.0
 11
26.5287712882
 21
9.5783758803
 31
0.0
 11
26.5212623661
 21
9.5674360195
 31
0.0
  0
SPLINE
  5
249
100
AcDbEntity
  8
0
100
AcDbSpline
 62
6
  6
CONTINUOUS
 70
0
 71
3
 72
34
 73
30
 74
28
 42
0.0000001
 43
0.0000001
 44
0.0000000001
 12
-0.3329715133
 22
0.268024294
 32
0.0
 13
-0.3329715133
 23
-0.268024294
 33
0.0
 40
0.0
 40
0.0
 40
0.0
 40
0.0
 40
0.0624544982
 40
0.1250986775
 40
0.1564124536
 40
0.1876810558
 40
0.2189303879
 40
0.2501757057
 40
0.2814206087
 40
0.3126594314
 40
0.3438930644
 40
0.3751270301
 40
0.4375931202
 40
0.4688267578
 40
0.5000563446
 40
0.5312839077
 40
0.5625119557
 40
0.593743521
 40
0.6249801596
 40
0.6874409554
 40
0.7186711694
 40
0.7499047759
 40
0.7811426506
 40
0.8123817009
 40
0.8436303274
 40
0.8749104917
 40
0.9062317908
 40
0.9375458224
 40
1.0
 40
1.0
 40
1.0
 40
1.0
 10
27.2142116969
 20
9.5674360195
 30
0.0
 10
27.2072798406
 20
9.5730157938
 30
0.0
 10
27.192577543
 20
9.5832023787
 30
0.0
 10
27.172817632
 20
9.5936036672
 30
0.0
 10
27.1564369407
 20
9.6006904854
 30
0.0
 10
27.1439242984
 20
9.6054131792
 30
0.0
 10
27.1312240209
 20
9.609570827
 30
0.0
 10
27.1183659587
 20
9.6131972716
 30
0.0
 10
27.1053796731
 20
9.6163249684
 30
0.0
 10
27.0922926883
 20
9.6189897333
 30
0.0
 10
27.07912473
 20
9.6212106943
 30
0.0
 10
27.061482269
 20
9.6235968684
 30
0.0
 10
27.0437363631
 20
9.6251493075
 30
0.0
 10
27.0259515929
 20
9.6259261387
 30
0.0
 10
27.0126018643
 20
9.6261224658
 30
0.0
 10
26.9992530438
 20
9.6259291959
 30
0.0
 10
26.9859153388
 20
9.6253443703
 30
0.0
 10
26.9725992242
 20
9.6243655735
 30
0.0
 10
26.9548919857
 20
9.6225331842
 30
0.0
 10
26.9372766435
 20
9.6198730095
 30
0.0
 10
26.9198337965
 20
9.6163136898
 30
0.0
 10
26.9068533475
 20
9.6131780387
 30
0.0
 10
26.8939995912
 20
9.6095521001
 30
0.0
 10
26.8813036654
 20
9.6053982786
 30
0.0
 10
26.8687985878
 20
9.6006819176
 30
0.0
 10
26.8565216186
 20
9.5953697484
 30
0.0
 10
26.8445211127
 20
9.5894335175
 30
0.0
 10
26.8290052383
 20
9.5806535577
 30
0.0
 10
26.8179810193
 20
9.5730157652
 30
0.0
 10
26.8110491986
 20
9.5674360195
 30
0.0
 11
27.2142116969
 21
9.5674360195
 31
0.0
 11
27.1923252502
 21
9.5827214395
 31
0.0
 11
27.168672635
 21
9.595273325
 31
0.0
 11
27.1563911793
 21
9.6005949521
 31
0.0
 11
27.1438889096
 21
9.6053204777
 31
0.0
 11
27.1311966406
 21
9.6094826326
 31
0.0
 11
27.1183442893
 21
9.6131142241
 31
0.0
 11
27.1053617728
 21
9.6162480592
 31
0.0
 11
27.0922782109
 21
9.6189159513
 31
0.0
 11
27.0791139847
 21
9.6211388222
 31
0.0
 11
27.0658840803
 21
9.6229308692
 31
0.0
 11
27.0392868622
 21
9.6252788831
 31
0.0
 11
27.0259490103
 21
9.6258617765
 31
0.0
 11
27.0126015946
 21
9.6260575346
 31
0.0
 11
26.9992550124
 21
9.625863942
 31
0.0
 11
26.9859196526
 21
9.625278752
 31
0.0
 11
26.972605904
 21
9.6242997183
 31
0.0
 11
26.9593252925
 21
9.6229221594
 31
0.0
 11
26.9329303501
 21
9.6189082643
 31
0.0
 11
26.9198514065
 21
9.6162361454
 31
0.0
 11
26.9068752545
 21
9.6130965303
 31
0.0
 11
26.894026397
 21
9.6094642748
 31
0.0
 11
26.8813377026
 21
9.6053053236
 31
0.0
 11
26.8688425756
 21
9.6005850512
 31
0.0
 11
26.8565744337
 21
9.5952688339
 31
0.0
 11
26.8445787876
 21
9.5893237153
 31
0.0
 11
26.8329354575
 21
9.5827214689
 31
0.0
 11
26.8110491986
 21
9.5674360195
 31
0.0
  0
SPLINE
  5
24A
100
AcDbEntity
  8
0
100
AcDbSpline
 62
6
  6
CONTINUOUS
 70
0
 71
3
 72
37
 73
33
 74
31
 42
0.0000001
 43
0.0000001
 44
0.0000000001
 12
0.332999508
 22
-0.2680468282
 32
0.0
 13
0.332999508
 23
0.2680468282
 33
0.0
 40
0.0
 40
0.0
 40
0.0
 40
0.0
 40
0.0312165147
 40
0.0624834994
 40
0.0937934224
 40
0.125109131
 40
0.1563854722
 40
0.1876357209
 40
0.2188801398
 40
0.2501254443
 40
0.2813663707
 40
0.312600142
 40
0.3438337897
 40
0.375070647
 40
0.4063096408
 40
0.4375458211
 40
0.4687766256
 40
0.5000044203
 40
0.5624545566
 40
0.593688437
 40
0.6249242251
 40
0.6561577534
 40
0.6873886799
 40
0.7186209223
 40
0.7498605746
 40
0.7811029823
 40
0.8123463531
 40
0.874872392
 40
0.9061998004
 40
0.9375150541
 40
0.9687834999
 40
1.0
 40
1.0
 40
1.0
 40
1.0
 10
26.8110491986
 20
9.2317733738
 30
0.0
 10
26.8145142266
 20
9.2289842112
 30
0.0
 10
26.82165284
 20
9.223649205
 30
0.0
 10
26.8328708866
 20
9.2163691368
 30
0.0
 10
26.8445213379
 20
9.209775931
 30
0.0
 10
26.856519985
 20
9.2038401551
 30
0.0
 10
26.8687968623
 20
9.1985270275
 30
0.0
 10
26.8813032534
 20
9.193809862
 30
0.0
 10
26.8940022267
 20
9.1896550925
 30
0.0
 10
26.9068600284
 20
9.1860286164
 30
0.0
 10
26.9198443383
 20
9.1828936844
 30
0.0
 10
26.9329300272
 20
9.1802228734
 30
0.0
 10
26.9460987682
 20
9.1780020758
 30
0.0
 10
26.9593337007
 20
9.1762136908
 30
0.0
 10
26.9726183945
 20
9.1748414344
 30
0.0
 10
26.9859370749
 20
9.1738665977
 30
0.0
 10
26.999277069
 20
9.1732807284
 30
0.0
 10
27.0170756646
 20
9.1730203628
 30
0.0
 10
27.0348792303
 20
9.1735413848
 30
0.0
 10
27.0526338333
 20
9.1748407499
 30
0.0
 10
27.0659173556
 20
9.1762132977
 30
0.0
 10
27.0791508947
 20
9.1780018892
 30
0.0
 10
27.0923185984
 20
9.1802222945
 30
0.0
 10
27.1054038268
 20
9.1828914268
 30
0.0
 10
27.1183879938
 20
9.1860230741
 30
0.0
 10
27.1312455828
 20
9.1896491785
 30
0.0
 10
27.1481788349
 20
9.1951899832
 30
0.0
 10
27.1647427255
 20
9.2018637507
 30
0.0
 10
27.1807359465
 20
9.2097741339
 30
0.0
 10
27.192389144
 20
9.2163684333
 30
0.0
 10
27.2036079403
 20
9.2236489925
 30
0.0
 10
27.2107466705
 20
9.2289842125
 30
0.0
 10
27.2142116969
 20
9.2317733738
 30
0.0
 11
26.8110491986
 21
9.2317733738
 31
0.0
 11
26.8217306009
 21
9.2237746072
 31
0.0
 11
26.8329357246
 21
9.2164880375
 31
0.0
 11
26.8445784709
 21
9.2098860408
 31
0.0
 11
26.856572741
 21
9.2039409928
 31
0.0
 11
26.8688401238
 21
9.1986243067
 31
0.0
 11
26.8813368247
 21
9.1939030607
 31
0.0
 11
26.894028789
 21
9.189743113
 31
0.0
 11
26.9068819622
 21
9.186110322
 31
0.0
 11
26.9198624999
 21
9.1829707544
 31
0.0
 11
26.9329439807
 21
9.1802978506
 31
0.0
 11
26.9461092252
 21
9.178074231
 31
0.0
 11
26.9593416325
 21
9.176283091
 31
0.0
 11
26.9726246018
 21
9.1749076258
 31
0.0
 11
26.9859416574
 21
9.1739313654
 31
0.0
 11
26.9992793038
 21
9.1733458056
 31
0.0
 11
27.0126270834
 21
9.1731505637
 31
0.0
 11
27.0393117581
 21
9.1739309631
 31
0.0
 11
27.0526278413
 21
9.1749070412
 31
0.0
 11
27.0659094142
 21
9.1762826864
 31
0.0
 11
27.0791403721
 21
9.1780739251
 31
0.0
 11
27.0923045259
 21
9.1802970174
 31
0.0
 11
27.1053856865
 21
9.1829682235
 31
0.0
 11
27.1183662611
 21
9.1861053202
 31
0.0
 11
27.1312184208
 21
9.1897371445
 31
0.0
 11
27.143909802
 21
9.1938974325
 31
0.0
 11
27.1686806084
 21
9.2039384232
 31
0.0
 11
27.1806797551
 21
9.2098848944
 31
0.0
 11
27.1923246845
 21
9.2164876609
 31
0.0
 11
27.203530348
 21
9.2237745462
 31
0.0
 11
27.2142116969
 21
9.2317733738
 31
0.0
  0
SPLINE
  5
24B
100
AcDbEntity
  8
0
100
AcDbSpline
 62
6
  6
CONTINUOUS
 70
0
 71
3
 72
39
 73
35
 74
33
 42
0.0000001
 43
0.0000001
 44
0.0000000001
 12
-0.1286810541
 22
0.207162759
 32
0.0
 13
-0.1286810541
 23
-0.207162759
 33
0.0
 40
0.0
 40
0.0
 40
0.0
 40
0.0
 40
0.039438671
 40
0.0771294743
 40
0.1132241806
 40
0.1478543488
 40
0.1811420314
 40
0.2132549545
 40
0.2443670638
 40
0.2746348455
 40
0.3041951177
 40
0.3331660115
 40
0.3616552105
 40
0.389761568
 40
0.417574138
 40
0.4451715552
 40
0.4726252099
 40
0.5000066271
 40
0.5273880341
 40
0.5548418153
 40
0.582439977
 40
0.6102541007
 40
0.638362061
 40
0.6668524533
 40
0.69582411
 40
0.7253851446
 40
0.7556533929
 40
0.7867643591
 40
0.8188735725
 40
0.8521544817
 40
0.8867788423
 40
0.9228710264
 40
0.9605612508
 40
1.0
 40
1.0
 40
1.0
 40
1.0
 10
27.5039985294
 20
9.5674360195
 30
0.0
 10
27.5023068595
 20
9.5701594275
 30
0.0
 10
27.4988256365
 20
9.5753807668
 30
0.0
 10
27.4932153763
 20
9.5826858077
 30
0.0
 10
27.487385069
 20
9.5893040291
 30
0.0
 10
27.4813776684
 20
9.5952631198
 30
0.0
 10
27.4752309269
 20
9.6005960937
 30
0.0
 10
27.4689680741
 20
9.6053315294
 30
0.0
 10
27.4626077857
 20
9.6095022987
 30
0.0
 10
27.4561673185
 20
9.6131422505
 30
0.0
 10
27.4496646379
 20
9.6162874779
 30
0.0
 10
27.4431123347
 20
9.6189659646
 30
0.0
 10
27.4365179592
 20
9.6211930847
 30
0.0
 10
27.4298904199
 20
9.6229866147
 30
0.0
 10
27.42323819
 20
9.6243631678
 30
0.0
 10
27.4165697624
 20
9.6253419801
 30
0.0
 10
27.4098907661
 20
9.6259304099
 30
0.0
 10
27.4032062868
 20
9.6261265873
 30
0.0
 10
27.3965217869
 20
9.6259307802
 30
0.0
 10
27.3898426973
 20
9.6253423609
 30
0.0
 10
27.3831742454
 20
9.6243623367
 30
0.0
 10
27.3765217634
 20
9.6229855488
 30
0.0
 10
27.3698938027
 20
9.6211922236
 30
0.0
 10
27.3632990915
 20
9.6189651808
 30
0.0
 10
27.3567467232
 20
9.6162861818
 30
0.0
 10
27.3502447822
 20
9.6131390544
 30
0.0
 10
27.3438045564
 20
9.6094987343
 30
0.0
 10
27.3374444243
 20
9.6053283916
 30
0.0
 10
27.3311819893
 20
9.6005939663
 30
0.0
 10
27.3250362412
 20
9.595261847
 30
0.0
 10
27.3190299842
 20
9.5893033491
 30
0.0
 10
27.3132002568
 20
9.5826855903
 30
0.0
 10
27.307590174
 20
9.5753807246
 30
0.0
 10
27.3041089535
 20
9.5701594329
 30
0.0
 10
27.3024172803
 20
9.5674360195
 30
0.0
 11
27.5039985294
 21
9.5674360195
 31
0.0
 11
27.4986577085
 21
9.5754350142
 31
0.0
 11
27.4930549007
 21
9.5827219097
 31
0.0
 11
27.4872330099
 21
9.5893243003
 31
0.0
 11
27.48123494
 21
9.5952697803
 31
0.0
 11
27.4751004061
 21
9.6005867523
 31
0.0
 11
27.4688519434
 21
9.6053079738
 31
0.0
 11
27.4625063286
 21
9.6094676622
 31
0.0
 11
27.4560803338
 21
9.6131000359
 31
0.0
 11
27.4495906207
 21
9.6162390883
 31
0.0
 11
27.4430501947
 21
9.6189113787
 31
0.0
 11
27.4364676533
 21
9.6211345046
 31
0.0
 11
27.4298513317
 21
9.6229255297
 31
0.0
 11
27.4232095651
 21
9.624301518
 31
0.0
 11
27.4165505962
 21
9.6252790147
 31
0.0
 11
27.4098810705
 21
9.6258656068
 31
0.0
 11
27.4032062843
 21
9.626061314
 31
0.0
 11
27.3965314914
 21
9.6258659184
 31
0.0
 11
27.3898619457
 21
9.625279202
 31
0.0
 11
27.3832029164
 21
9.6243008669
 31
0.0
 11
27.3765608334
 21
9.6229245385
 31
0.0
 11
27.3699440813
 21
9.6211336076
 31
0.0
 11
27.3633612327
 21
9.6189104818
 31
0.0
 11
27.3568208602
 21
9.6162375685
 31
0.0
 11
27.3503316334
 21
9.6130970841
 31
0.0
 11
27.3439058357
 21
9.6094641306
 31
0.0
 11
27.3375603519
 21
9.6053047508
 31
0.0
 11
27.3313123654
 21
9.6005843999
 31
0.0
 11
27.3251790594
 21
9.5952685331
 31
0.0
 11
27.3191821861
 21
9.5893238579
 31
0.0
 11
27.313360816
 21
9.5827218282
 31
0.0
 11
27.3077581228
 21
9.5754350226
 31
0.0
 11
27.3024172803
 21
9.5674360195
 31
0.0
  0
SPLINE
  5
24C
100
AcDbEntity
  8
0
100
AcDbSpline
 62
9
  6
CONTINUOUS
 70
0
 71
3
 72
57
 73
53
 74
51
 42
0.0000001
 43
0.0000001
 44
0.0000000001
 12
0.6125658961
 22
0.0
 32
0.0
 13
-0.6125658961
 23
-0.0
 33
0.0
 40
0.0
 40
0.0
 40
0.0
 40
0.0
 40
0.0080243715
 40
0.0161858766
 40
0.0245931762
 40
0.0333426921
 40
0.0425173142
 40
0.0521865832
 40
0.0732108124
 40
0.0846584424
 40
0.0967536217
 40
0.1095071723
 40
0.1229235299
 40
0.1370021365
 40
0.1517385273
 40
0.1671242742
 40
0.1831411151
 40
0.1997648012
 40
0.2169689956
 40
0.2347257533
 40
0.2530058835
 40
0.2910118846
 40
0.3307174378
 40
0.3718033863
 40
0.4139392672
 40
0.4567888941
 40
0.5
 40
0.5432111059
 40
0.5860607328
 40
0.6281966137
 40
0.6692825622
 40
0.7089881154
 40
0.7469941165
 40
0.7652742467
 40
0.7830310044
 40
0.8002351988
 40
0.8168588849
 40
0.8328757258
 40
0.8482614727
 40
0.8629978635
 40
0.8770764701
 40
0.8904928277
 40
0.9032463783
 40
0.9153415576
 40
0.9267891876
 40
0.9478134168
 40
0.9574826858
 40
0.9666573079
 40
0.9754068238
 40
0.9838141234
 40
0.9919756285
 40
1.0
 40
1.0
 40
1.0
 40
1.0
 10
10.0782494681
 20
3.3206046967
 30
0.0
 10
10.0798879536
 20
3.3206046967
 30
0.0
 10
10.0831969492
 20
3.3203809933
 30
0.0
 10
10.0881324511
 20
3.3193865969
 30
0.0
 10
10.0930464025
 20
3.3177404068
 30
0.0
 10
10.097923161
 20
3.315450848
 30
0.0
 10
10.1027499861
 20
3.3125256863
 30
0.0
 10
10.1092833145
 20
3.3076520489
 30
0.0
 10
10.1154651366
 20
3.3016057758
 30
0.0
 10
10.1212992872
 20
3.2946183563
 30
0.0
 10
10.1256934698
 20
3.288644029
 30
0.0
 10
10.1299713239
 20
3.2821019277
 30
0.0
 10
10.1341244512
 20
3.2750066577
 30
0.0
 10
10.1381430783
 20
3.267374179
 30
0.0
 10
10.1420177074
 20
3.2592203306
 30
0.0
 10
10.1457375704
 20
3.2505625261
 30
0.0
 10
10.1492953569
 20
3.2414223296
 30
0.0
 10
10.1526837492
 20
3.2318235075
 30
0.0
 10
10.1558948632
 20
3.2217904221
 30
0.0
 10
10.1589208897
 20
3.2113474366
 30
0.0
 10
10.1627480459
 20
3.1967196604
 30
0.0
 10
10.1669918537
 20
3.1775757784
 30
0.0
 10
10.1711675847
 20
3.1536734713
 30
0.0
 10
10.1744627488
 20
3.1287835217
 30
0.0
 10
10.1768439986
 20
3.1031451971
 30
0.0
 10
10.1782759124
 20
3.0770020123
 30
0.0
 10
10.1787525871
 20
3.0506046967
 30
0.0
 10
10.1782759124
 20
3.0242073811
 30
0.0
 10
10.1768439986
 20
2.9980641962
 30
0.0
 10
10.1744627488
 20
2.9724258717
 30
0.0
 10
10.1711675847
 20
2.9475359221
 30
0.0
 10
10.1669918537
 20
2.9236336149
 30
0.0
 10
10.1627480459
 20
2.904489733
 30
0.0
 10
10.1589208897
 20
2.8898619567
 30
0.0
 10
10.1558948632
 20
2.8794189712
 30
0.0
 10
10.1526837492
 20
2.8693858858
 30
0.0
 10
10.1492953569
 20
2.8597870638
 30
0.0
 10
10.1457375704
 20
2.8506468673
 30
0.0
 10
10.1420177074
 20
2.8419890628
 30
0.0
 10
10.1381430783
 20
2.8338352143
 30
0.0
 10
10.1341244512
 20
2.8262027357
 30
0.0
 10
10.1299713239
 20
2.8191074657
 30
0.0
 10
10.1256934698
 20
2.8125653643
 30
0.0
 10
10.1212992872
 20
2.8065910371
 30
0.0
 10
10.1154651366
 20
2.7996036175
 30
0.0
 10
10.1092833145
 20
2.7935573445
 30
0.0
 10
10.1027499861
 20
2.788683707
 30
0.0
 10
10.097923161
 20
2.7857585454
 30
0.0
 10
10.0930464025
 20
2.7834689866
 30
0.0
 10
10.0881324511
 20
2.7818227965
 30
0.0
 10
10.0831969492
 20
2.7808284
 30
0.0
 10
10.0798879536
 20
2.7806046967
 30
0.0
 10
10.0782494681
 20
2.7806046967
 30
0.0
 11
10.0782494681
 21
3.3206046967
 31
0.0
 11
10.0831539902
 21
3.3202770172
 31
0.0
 11
10.0880565941
 21
3.3192976948
 31
0.0
 11
10.0929433987
 21
3.3176723029
 31
0.0
 11
10.0978005228
 21
3.3154064153
 31
0.0
 11
10.1026140854
 21
3.3125056056
 31
0.0
 11
10.1073702053
 21
3.3089754476
 31
0.0
 11
10.1166550749
 21
3.3000506073
 31
0.0
 11
10.1211597267
 21
3.2946763859
 31
0.0
 11
10.1255591962
 21
3.2887148972
 31
0.0
 11
10.1298437234
 21
3.2821821898
 31
0.0
 11
10.1340035486
 21
3.2750943125
 31
0.0
 11
10.1380289121
 21
3.2674673141
 31
0.0
 11
10.1419100541
 21
3.2593172433
 31
0.0
 11
10.1456373668
 21
3.2506608185
 31
0.0
 11
10.1492024505
 21
3.2415200762
 31
0.0
 11
10.1525974811
 21
3.2319195888
 31
0.0
 11
10.1558146382
 21
3.2218839446
 31
0.0
 11
10.1588461016
 21
3.2114377316
 31
0.0
 11
10.1616840506
 21
3.2006055379
 31
0.0
 11
10.1667483111
 21
3.1778818364
 31
0.0
 11
10.1709562384
 21
3.1539263347
 31
0.0
 11
10.1742740039
 21
3.1289781254
 31
0.0
 11
10.1766692716
 21
3.1032785028
 31
0.0
 11
10.1781122415
 21
3.0770699756
 31
0.0
 11
10.1785932512
 21
3.0506046967
 31
0.0
 11
10.1781122415
 21
3.0241394177
 31
0.0
 11
10.1766692716
 21
2.9979308905
 31
0.0
 11
10.1742740039
 21
2.9722312679
 31
0.0
 11
10.1709562384
 21
2.9472830586
 31
0.0
 11
10.1667483111
 21
2.923327557
 31
0.0
 11
10.1616840506
 21
2.9006038554
 31
0.0
 11
10.1588461016
 21
2.8897716618
 31
0.0
 11
10.1558146382
 21
2.8793254488
 31
0.0
 11
10.1525974811
 21
2.8692898045
 31
0.0
 11
10.1492024505
 21
2.8596893172
 31
0.0
 11
10.1456373668
 21
2.8505485749
 31
0.0
 11
10.1419100541
 21
2.8418921501
 31
0.0
 11
10.1380289121
 21
2.8337420793
 31
0.0
 11
10.1340035486
 21
2.8261150808
 31
0.0
 11
10.1298437234
 21
2.8190272035
 31
0.0
 11
10.1255591962
 21
2.8124944961
 31
0.0
 11
10.1211597267
 21
2.8065330074
 31
0.0
 11
10.1166550749
 21
2.8011587861
 31
0.0
 11
10.1073702053
 21
2.7922339458
 31
0.0
 11
10.1026140854
 21
2.7887037877
 31
0.0
 11
10.0978005228
 21
2.7858029781
 31
0.0
 11
10.0929433987
 21
2.7835370905
 31
0.0
 11
10.0880565941
 21
2.7819116986
 31
0.0
 11
10.0831539902
 21
2.7809323761
 31
0.0
 11
10.0782494681
 21
2.7806046967
 31
0.0
  0
SPLINE
  5
24D
100
AcDbEntity
  8
0
100
AcDbSpline
 62
6
  6
CONTINUOUS
 70
0
 71
3
 72
37
 73
33
 74
31
 42
0.0000001
 43
0.0000001
 44
0.0000000001
 12
0.128670375
 22
-0.2071455667
 32
0.0
 13
0.128670375
 23
0.2071455667
 33
0.0
 40
0.0
 40
0.0
 40
0.0
 40
0.0
 40
0.0770908419
 40
0.1477697627
 40
0.1810517364
 40
0.2131636002
 40
0.2442783181
 40
0.2745508854
 40
0.304116242
 40
0.3330917161
 40
0.3615850934
 40
0.3896950414
 40
0.4175101478
 40
0.4451084256
 40
0.4725617161
 40
0.4999423459
 40
0.5273228674
 40
0.5547755071
 40
0.5823715729
 40
0.610182843
 40
0.6382890326
 40
0.6667796057
 40
0.695753064
 40
0.7253160552
 40
0.7555872419
 40
0.7867048644
 40
0.8188262652
 40
0.8521255311
 40
0.8867649847
 40
0.9228649531
 40
0.9605587849
 40
1.0
 40
1.0
 40
1.0
 40
1.0
 10
27.3024172803
 20
9.2317733738
 30
0.0
 10
27.3057237161
 20
9.2264503651
 30
0.0
 10
27.3127154442
 20
9.2166327272
 30
0.0
 10
27.3228205039
 20
9.2058695773
 30
0.0
 10
27.3311805397
 20
9.1986163871
 30
0.0
 10
27.3374430399
 20
9.1938818026
 30
0.0
 10
27.3438033428
 20
9.1897113683
 30
0.0
 10
27.3502439001
 20
9.1860708113
 30
0.0
 10
27.3567461545
 20
9.1829233977
 30
0.0
 10
27.3632986766
 20
9.1802439429
 30
0.0
 10
27.3698934147
 20
9.178016541
 30
0.0
 10
27.3765212761
 20
9.1762231512
 30
0.0
 10
27.3831735467
 20
9.1748468105
 30
0.0
 10
27.3898416587
 20
9.173867952
 30
0.0
 10
27.3965201621
 20
9.1732803825
 30
0.0
 10
27.4032039337
 20
9.1730850193
 30
0.0
 10
27.4098876349
 20
9.1732809404
 30
0.0
 10
27.416565876
 20
9.1738682302
 30
0.0
 10
27.4232338077
 20
9.1748445964
 30
0.0
 10
27.4298853193
 20
9.1762209057
 30
0.0
 10
27.4365121511
 20
9.1780148397
 30
0.0
 10
27.4431061314
 20
9.1802422458
 30
0.0
 10
27.4496587255
 20
9.1829197671
 30
0.0
 10
27.4561627682
 20
9.1860624526
 30
0.0
 10
27.462603699
 20
9.1897023642
 30
0.0
 10
27.4689643582
 20
9.1938740097
 30
0.0
 10
27.4752278101
 20
9.1986110133
 30
0.0
 10
27.4813757975
 20
9.2039451332
 30
0.0
 10
27.4873844681
 20
9.2099049659
 30
0.0
 10
27.4932153541
 20
9.2165236139
 30
0.0
 10
27.4988257251
 20
9.2238287193
 30
0.0
 10
27.5023068908
 20
9.2290500162
 30
0.0
 10
27.5039985294
 20
9.2317733738
 30
0.0
 11
27.3024172803
 21
9.2317733738
 31
0.0
 11
27.3133606003
 21
9.2164878838
 31
0.0
 11
27.3251780292
 21
9.2039416445
 31
0.0
 11
27.3313109123
 21
9.1986259219
 31
0.0
 11
27.3375588684
 21
9.1939055366
 31
0.0
 11
27.3439045828
 21
9.1897459884
 31
0.0
 11
27.3503307408
 21
9.1861127767
 31
0.0
 11
27.3568203125
 21
9.1829719592
 31
0.0
 11
27.3633608842
 21
9.1802986225
 31
0.0
 11
27.3699437825
 21
9.1780751711
 31
0.0
 11
27.376560442
 21
9.1762842202
 31
0.0
 11
27.3832022971
 21
9.174908385
 31
0.0
 11
27.3898609376
 21
9.1739310522
 31
0.0
 11
27.3965298792
 21
9.1733451752
 31
0.0
 11
27.4032039396
 21
9.1731501759
 31
0.0
 11
27.4098779613
 21
9.1733455984
 31
0.0
 11
27.4165467865
 21
9.1739309865
 31
0.0
 11
27.4232051318
 21
9.1749066148
 31
0.0
 11
27.4298461108
 21
9.1762820676
 31
0.0
 11
27.4364617319
 21
9.1780733466
 31
0.0
 11
27.4430439819
 21
9.1802965805
 31
0.0
 11
27.4495848474
 21
9.1829678983
 31
0.0
 11
27.4560755473
 21
9.1861050586
 31
0.0
 11
27.4625020221
 21
9.1897370255
 31
0.0
 11
27.4688479931
 21
9.1938974743
 31
0.0
 11
27.4750971741
 21
9.1986200962
 31
0.0
 11
27.4812332478
 21
9.2039385758
 31
0.0
 11
27.487232604
 21
9.2098849788
 31
0.0
 11
27.4930549839
 21
9.2164876751
 31
0.0
 11
27.4986578161
 21
9.2237745212
 31
0.0
 11
27.5039985294
 21
9.2317733738
 31
0.0
  0
SPLINE
  5
24E
100
AcDbEntity
  8
0
100
AcDbSpline
 62
9
  6
CONTINUOUS
 70
0
 71
3
 72
57
 73
53
 74
51
 42
0.0000001
 43
0.0000001
 44
0.0000000001
 12
0.6125658961
 22
0.0
 32
0.0
 13
-0.6125658961
 23
0.0
 33
0.0
 40
0.0
 40
0.0
 40
0.0
 40
0.0
 40
0.0080243715
 40
0.0161858766
 40
0.0245931762
 40
0.0333426921
 40
0.0425173142
 40
0.0521865832
 40
0.0732108124
 40
0.0846584424
 40
0.0967536217
 40
0.1095071723
 40
0.1229235299
 40
0.1370021365
 40
0.1517385273
 40
0.1671242742
 40
0.1831411151
 40
0.1997648012
 40
0.2169689956
 40
0.2347257533
 40
0.2530058835
 40
0.2910118846
 40
0.3307174378
 40
0.3718033863
 40
0.4139392672
 40
0.4567888941
 40
0.5
 40
0.5432111059
 40
0.5860607328
 40
0.6281966137
 40
0.6692825622
 40
0.7089881154
 40
0.7469941165
 40
0.7652742467
 40
0.7830310044
 40
0.8002351988
 40
0.8168588849
 40
0.8328757258
 40
0.8482614727
 40
0.8629978635
 40
0.8770764701
 40
0.8904928277
 40
0.9032463783
 40
0.9153415576
 40
0.9267891876
 40
0.9478134168
 40
0.9574826858
 40
0.9666573079
 40
0.9754068238
 40
0.9838141234
 40
0.9919756285
 40
1.0
 40
1.0
 40
1.0
 40
1.0
 10
24.9237999448
 20
3.3206046967
 30
0.0
 10
24.9254384302
 20
3.3206046967
 30
0.0
 10
24.9287474259
 20
3.3203809933
 30
0.0
 10
24.9336829278
 20
3.3193865969
 30
0.0
 10
24.9385968792
 20
3.3177404068
 30
0.0
 10
24.9434736377
 20
3.315450848
 30
0.0
 10
24.9483004628
 20
3.3125256863
 30
0.0
 10
24.9548337912
 20
3.3076520489
 30
0.0
 10
24.9610156133
 20
3.3016057758
 30
0.0
 10
24.9668497639
 20
3.2946183563
 30
0.0
 10
24.9712439465
 20
3.288644029
 30
0.0
 10
24.9755218006
 20
3.2821019277
 30
0.0
 10
24.9796749278
 20
3.2750066577
 30
0.0
 10
24.983693555
 20
3.267374179
 30
0.0
 10
24.987568184
 20
3.2592203306
 30
0.0
 10
24.9912880471
 20
3.2505625261
 30
0.0
 10
24.9948458336
 20
3.2414223296
 30
0.0
 10
24.9982342259
 20
3.2318235075
 30
0.0
 10
25.0014453399
 20
3.2217904221
 30
0.0
 10
25.0044713663
 20
3.2113474366
 30
0.0
 10
25.0082985225
 20
3.1967196604
 30
0.0
 10
25.0125423303
 20
3.1775757784
 30
0.0
 10
25.0167180613
 20
3.1536734713
 30
0.0
 10
25.0200132255
 20
3.1287835217
 30
0.0
 10
25.0223944753
 20
3.1031451971
 30
0.0
 10
25.0238263891
 20
3.0770020123
 30
0.0
 10
25.0243030637
 20
3.0506046967
 30
0.0
 10
25.0238263891
 20
3.0242073811
 30
0.0
 10
25.0223944753
 20
2.9980641962
 30
0.0
 10
25.0200132255
 20
2.9724258717
 30
0.0
 10
25.0167180613
 20
2.9475359221
 30
0.0
 10
25.0125423303
 20
2.9236336149
 30
0.0
 10
25.0082985225
 20
2.904489733
 30
0.0
 10
25.0044713663
 20
2.8898619567
 30
0.0
 10
25.0014453399
 20
2.8794189712
 30
0.0
 10
24.9982342259
 20
2.8693858858
 30
0.0
 10
24.9948458336
 20
2.8597870638
 30
0.0
 10
24.9912880471
 20
2.8506468673
 30
0.0
 10
24.987568184
 20
2.8419890628
 30
0.0
 10
24.983693555
 20
2.8338352143
 30
0.0
 10
24.9796749278
 20
2.8262027357
 30
0.0
 10
24.9755218006
 20
2.8191074657
 30
0.0
 10
24.9712439465
 20
2.8125653643
 30
0.0
 10
24.9668497639
 20
2.8065910371
 30
0.0
 10
24.9610156133
 20
2.7996036175
 30
0.0
 10
24.9548337912
 20
2.7935573445
 30
0.0
 10
24.9483004628
 20
2.788683707
 30
0.0
 10
24.9434736377
 20
2.7857585454
 30
0.0
 10
24.9385968792
 20
2.7834689866
 30
0.0
 10
24.9336829278
 20
2.7818227965
 30
0.0
 10
24.9287474259
 20
2.7808284
 30
0.0
 10
24.9254384302
 20
2.7806046967
 30
0.0
 10
24.9237999448
 20
2.7806046967
 30
0.0
 11
24.9237999448
 21
3.3206046967
 31
0.0
 11
24.9287044669
 21
3.3202770172
 31
0.0
 11
24.9336070708
 21
3.3192976948
 31
0.0
 11
24.9384938753
 21
3.3176723029
 31
0.0
 11
24.9433509995
 21
3.3154064153
 31
0.0
 11
24.9481645621
 21
3.3125056056
 31
0.0
 11
24.952920682
 21
3.3089754476
 31
0.0
 11
24.9622055516
 21
3.3000506073
 31
0.0
 11
24.9667102034
 21
3.2946763859
 31
0.0
 11
24.9711096728
 21
3.2887148972
 31
0.0
 11
24.9753942
 21
3.2821821898
 31
0.0
 11
24.9795540253
 21
3.2750943125
 31
0.0
 11
24.9835793888
 21
3.2674673141
 31
0.0
 11
24.9874605307
 21
3.2593172433
 31
0.0
 11
24.9911878435
 21
3.2506608185
 31
0.0
 11
24.9947529271
 21
3.2415200762
 31
0.0
 11
24.9981479578
 21
3.2319195888
 31
0.0
 11
25.0013651149
 21
3.2218839446
 31
0.0
 11
25.0043965782
 21
3.2114377316
 31
0.0
 11
25.0072345273
 21
3.2006055379
 31
0.0
 11
25.0122987878
 21
3.1778818364
 31
0.0
 11
25.0165067151
 21
3.1539263347
 31
0.0
 11
25.0198244805
 21
3.1289781254
 31
0.0
 11
25.0222197483
 21
3.1032785028
 31
0.0
 11
25.0236627182
 21
3.0770699756
 31
0.0
 11
25.0241437279
 21
3.0506046967
 31
0.0
 11
25.0236627182
 21
3.0241394177
 31
0.0
 11
25.0222197483
 21
2.9979308905
 31
0.0
 11
25.0198244805
 21
2.9722312679
 31
0.0
 11
25.0165067151
 21
2.9472830586
 31
0.0
 11
25.0122987878
 21
2.923327557
 31
0.0
 11
25.0072345273
 21
2.9006038554
 31
0.0
 11
25.0043965782
 21
2.8897716618
 31
0.0
 11
25.0013651149
 21
2.8793254488
 31
0.0
 11
24.9981479578
 21
2.8692898045
 31
0.0
 11
24.9947529271
 21
2.8596893172
 31
0.0
 11
24.9911878435
 21
2.8505485749
 31
0.0
 11
24.9874605307
 21
2.8418921501
 31
0.0
 11
24.9835793888
 21
2.8337420793
 31
0.0
 11
24.9795540253
 21
2.8261150808
 31
0.0
 11
24.9753942
 21
2.8190272035
 31
0.0
 11
24.9711096728
 21
2.8124944961
 31
0.0
 11
24.9667102034
 21
2.8065330074
 31
0.0
 11
24.9622055516
 21
2.8011587861
 31
0.0
 11
24.952920682
 21
2.7922339458
 31
0.0
 11
24.9481645621
 21
2.7887037877
 31
0.0
 11
24.9433509995
 21
2.7858029781
 31
0.0
 11
24.9384938753
 21
2.7835370905
 31
0.0
 11
24.9336070708
 21
2.7819116986
 31
0.0
 11
24.9287044669
 21
2.7809323761
 31
0.0
 11
24.9237999448
 21
2.7806046967
 31
0.0
  0
ENDSEC
  0
SECTION
  2
OBJECTS
  0
DICTIONARY
  5
C
100
AcDbDictionary
280
0
281
1
  3
ACAD_GROUP
350
D
  3
ACAD_MLINESTYLE
350
17
  3
ACAD_LAYOUT
350
1A
  3
ACAD_PLOTSETTINGS
350
19
  3
ACAD_PLOTSTYLENAME
350
E
  0
DICTIONARY
  5
D
102
{ACAD_REACTORS
330
C
102
}
100
AcDbDictionary
280
0
281
1
  0
ACDBDICTIONARYWDFLT
  5
E
102
{ACAD_REACTORS
330
C
102
}
100
AcDbDictionary
281
1
  3
Normal
350
F
100
AcDbDictionaryWithDefault
340
F
  0
DICTIONARY
  5
17
102
{ACAD_REACTORS
330
C
102
}
100
AcDbDictionary
280
0
281
1
  3
Standard
350
18
  0
DICTIONARY
  5
19
102
{ACAD_REACTORS
330
C
102
}
100
AcDbDictionary
281
1
  0
DICTIONARY
  5
1A
102
{ACAD_REACTORS
330
C
102
}
100
AcDbDictionary
281
1
  3
Model
350
24F
  3
Layout1
350
250
  0
ACDBPLACEHOLDER
  5
F
102
{ACAD_REACTORS
330
E
102
}
  0
MLINESTYLE
  5
18
102
{ACAD_REACTORS
330
17
102
}
100
AcDbMlineStyle
  2
STANDARD
 70
0
  3

 62
256
 51
90.0
 52
90.0
 71
2
 49
0.5
 62
256
  6
BYLAYER
 49
-0.5
 62
256
  6
BYLAYER
  0
LAYOUT
  5
24F
102
{ACAD_REACTORS
330
1A
102
}
100
AcDbPlotSettings
  1

  2
none_device
  4
ANSI_D_(34.00_x_22.00_Inches)
  6

 40
0.0
 41
0.0
 42
0.0
 43
0.0
 44
863.6
 45
558.8
 46
0.0
 47
0.0
 48
0.0
 49
0.0
140
0.0
141
0.0
142
1.0
143
1.0
 70
1024
 72
0
 73
0
 74
0
  7

 75
0
147
1.0
148
0.0
149
0.0
100
AcDbLayout
  1
Model
 70
0
 71
0
 10
0.0
 20
0.0
 11
34.0
 21
22.0
 12
0.0
 22
0.0
 32
0.0
 14
0.0
 24
0.0
 34
0.0
 15
0.0
 25
0.0
 35
0.0
146
0.0
 13
0.0
 23
0.0
 33
0.0
 16
1.0
 26
0.0
 36
0.0
 17
0.0
 27
1.0
 37
0.0
 76
0
330
203
345
0
346
0
  0
LAYOUT
  5
250
102
{ACAD_REACTORS
330
1A
102
}
100
AcDbPlotSettings
  1

  2
none_device
  4
ANSI_D_(34.00_x_22.00_Inches)
  6

 40
0.0
 41
0.0
 42
0.0
 43
0.0
 44
863.6
 45
558.8
 46
0.0
 47
0.0
 48
0.0
 49
0.0
140
0.0
141
0.0
142
1.0
143
1.0
 70
0
 72
0
 73
0
 74
0
  7

 75
0
147
1.0
148
0.0
149
0.0
100
AcDbLayout
  1
Layout1
 70
0
 71
1
 10
0.0
 20
0.0
 11
34.0
 21
22.0
 12
0.0
 22
0.0
 32
0.0
 14
0.0
 24
0.0
 34
0.0
 15
0.0
 25
0.0
 35
0.0
146
0.0
 13
0.0
 23
0.0
 33
0.0
 16
1.0
 26
0.0
 36
0.0
 17
0.0
 27
1.0
 37
0.0
 76
0
330
204
345
0
346
0
  0
ENDSEC
  0
EOF
