  0
SECTION
  2
HEADER
  9
$ACADVER
  1
AC1015
  9
$DWGCODEPAGE
  3
ANSI_1252
  9
$EXTMAX
 10
34.0
 20
22.0
 30
0.0
  9
$EXTMIN
 10
0.0
 20
0.0
 30
0.0
  9
$LIMMIN
 10
0.0
 20
0.0
  9
$LIMMAX
 10
34.0
 20
22.0
  9
$VIEWCTR
 10
17.0
 20
11.0
  9
$VIEWSIZE
 40
22.0
  9
$CLAYER
  8
0
  9
$LTSCALE
 40
1.87
  9
$CELTYPE
  6
BYLAYER
  9
$DIMSCALE
 40
1.0
  9
$DIMASZ
 40
0.1
  9
$DIMEXO
 40
0.2125
  9
$DIMDLI
 40
1.292
  9
$DIMEXE
 40
0.612
  9
$DIMCEN
 40
0.306
  9
$DIMLFAC
 40
1.0
  9
$DIMBLK
  1
_FILLED
  9
$DIMTXT
 40
0.08
  9
$DIMTOL
 70
1
  9
$DIMLIM
 70
0
  9
$DIMTFAC
 40
1.0
  9
$DIMTP
 40
0.01
  9
$DIMTM
 40
0.01
  9
$PDMODE
 70
3
  9
$PDSIZE
 40
0.06
  9
$HANDSEED
  5
24C
  9
$TILEMODE
 70
1
  9
$MEASUREMENT
 70
0
  9
$INSUNITS
 70
1
  0
ENDSEC
  0
SECTION
  2
CLASSES
  0
CLASS
  1
ACDBDICTIONARYWDFLT
  2
AcDbDictionaryWithDefault
  3
AutoCAD 2000
 90
0
280
0
281
0
  0
CLASS
  1
ACDBPLACEHOLDER
  2
AcDbPlaceHolder
  3
AutoCAD 2000
 90
0
280
0
281
0
  0
CLASS
  1
LAYOUT
  2
AcDbLayout
  3
AutoCAD 2000
 90
0
280
0
281
0
  0
ENDSEC
  0
SECTION
  2
TABLES
  0
TABLE
  2
VPORT
  5
8
100
AcDbSymbolTable
 70
2
  0
VPORT
  5
1F4
100
AcDbSymbolTableRecord
100
AcDbViewportTableRecord
  2
*ACTIVE
 70
0
 10
0.0
 20
0.0
 11
1.0
 21
1.0
 12
17.0
 22
11.0
 13
0.0
 23
0.0
 14
1.0
 24
1.0
 15
0.0
 25
0.0
 16
0.0
 26
0.0
 36
1.0
 17
0.0
 27
0.0
 37
0.0
 40
22.0
 41
1.5454545455
 42
50.0
 43
0.0
 44
0.0
 50
0.0
 51
0.0
 71
0
 72
100
 73
1
 74
1
 75
0
 76
0
 77
0
 78
0
  0
ENDTAB
  0
TABLE
  2
LTYPE
  5
5
100
AcDbSymbolTable
 70
6
  0
LTYPE
  5
14
100
AcDbSymbolTableRecord
100
AcDbLinetypeTableRecord
  2
BYBLOCK
 70
0
  3

 72
65
 73
0
 40
0.0
  0
LTYPE
  5
15
100
AcDbSymbolTableRecord
100
AcDbLinetypeTableRecord
  2
BYLAYER
 70
0
  3

 72
65
 73
0
 40
0.0
  0
LTYPE
  5
16
100
AcDbSymbolTableRecord
100
AcDbLinetypeTableRecord
  2
CONTINUOUS
 70
64
  3
Solid line
 72
65
 73
0
 40
0.0
  0
LTYPE
  5
1F5
100
AcDbSymbolTableRecord
100
AcDbLinetypeTableRecord
  2
CENTER
 70
64
  3
____ _ ____ _ ____ _ ____ _ ____ _ ____ _ ____
 72
65
 73
4
 40
0.6
 49
0.375
 74
0
 49
-0.075
 74
0
 49
0.075
 74
0
 49
-0.075
 74
0
  0
LTYPE
  5
1F6
100
AcDbSymbolTableRecord
100
AcDbLinetypeTableRecord
  2
HIDDEN
 70
64
  3
- - - - - - - - - - - - - - - - - - - -
 72
65
 73
2
 40
0.2
 49
0.1
 74
0
 49
-0.1
 74
0
  0
LTYPE
  5
1F7
100
AcDbSymbolTableRecord
100
AcDbLinetypeTableRecord
  2
PHANTOM
 70
64
  3
_____ _ _ _____ _ _ _____ _ _ _____
 72
65
 73
6
 40
0.8
 49
0.45
 74
0
 49
-0.05
 74
0
 49
0.1
 74
0
 49
-0.05
 74
0
 49
0.1
 74
0
 49
-0.05
 74
0
  0
LTYPE
  5
1F8
100
AcDbSymbolTableRecord
100
AcDbLinetypeTableRecord
  2
DOT
 70
64
  3
. . . . . . . . . . . . . . . . . . . .
 72
65
 73
2
 40
0.2
 49
0.1
 74
0
 49
-0.1
 74
0
  0
LTYPE
  5
1F9
100
AcDbSymbolTableRecord
100
AcDbLinetypeTableRecord
  2
DASHED
 70
64
  3
- - - - - - - - - - - - - - - - - - - -
 72
65
 73
2
 40
0.2
 49
0.1
 74
0
 49
-0.1
 74
0
  0
ENDTAB
  0
TABLE
  2
LAYER
  5
2
100
AcDbSymbolTable
 70
36
  0
LAYER
  5
10
100
AcDbSymbolTableRecord
100
AcDbLayerTableRecord
  2
0
 70
0
 62
7
  6
CONTINUOUS
370
-3
390
F
  0
LAYER
  5
1FA
100
AcDbSymbolTableRecord
100
AcDbLayerTableRecord
  2
DEFAULT_1
 70
0
 62
7
  6
CENTER
370
-3
390
F
  0
LAYER
  5
1FB
100
AcDbSymbolTableRecord
100
AcDbLayerTableRecord
  2
DEFAULT_2
 70
0
 62
8
  6
HIDDEN
370
-3
390
F
  0
LAYER
  5
1FC
100
AcDbSymbolTableRecord
100
AcDbLayerTableRecord
  2
DEFAULT_3
 70
0
 62
7
  6
PHANTOM
370
-3
390
F
  0
LAYER
  5
1FD
100
AcDbSymbolTableRecord
100
AcDbLayerTableRecord
  2
DEFAULT_COORDINATE_SYSTEM
 70
0
 62
7
  6
CONTINUOUS
370
-3
390
F
  0
LAYER
  5
1FE
100
AcDbSymbolTableRecord
100
AcDbLayerTableRecord
  2
DEFAULT_DATUM_AXES
 70
0
 62
7
  6
CONTINUOUS
370
-3
390
F
  0
LAYER
  5
1FF
100
AcDbSymbolTableRecord
100
AcDbLayerTableRecord
  2
DEFAULT_DATUM_CURVES
 70
0
 62
7
  6
CONTINUOUS
370
-3
390
F
  0
LAYER
  5
200
100
AcDbSymbolTableRecord
100
AcDbLayerTableRecord
  2
DEFAULT_DATUM_PLANES
 70
0
 62
7
  6
CONTINUOUS
370
-3
390
F
  0
ENDTAB
  0
TABLE
  2
STYLE
  5
3
100
AcDbSymbolTable
 70
1
  0
STYLE
  5
11
100
AcDbSymbolTableRecord
100
AcDbTextStyleTableRecord
  2
STANDARD
 70
0
 40
0.0
 41
0.8
 50
0.0
 71
0
 42
0.2
  3
txt
  4

  0
STYLE
  5
201
100
AcDbSymbolTableRecord
100
AcDbTextStyleTableRecord
  2
TEXTSTYLE_1
 70
0
 40
0.0
 41
0.8
 50
0.0
 71
0
 42
0.2
  3
gdt
  4

  0
ENDTAB
  0
TABLE
  2
VIEW
  5
6
100
AcDbSymbolTable
 70
0
  0
ENDTAB
  0
TABLE
  2
UCS
  5
7
100
AcDbSymbolTable
 70
0
  0
ENDTAB
  0
TABLE
  2
APPID
  5
9
100
AcDbSymbolTable
 70
1
  0
APPID
  5
202
100
AcDbSymbolTableRecord
100
AcDbRegAppTableRecord
  2
ACAD
 70
0
  0
ENDTAB
  0
TABLE
  2
BLOCK_RECORD
  5
1
100
AcDbSymbolTable
 70
0
  0
BLOCK_RECORD
  5
203
100
AcDbSymbolTableRecord
100
AcDbBlockTableRecord
  2
*Model_Space
  0
BLOCK_RECORD
  5
204
100
AcDbSymbolTableRecord
100
AcDbBlockTableRecord
  2
*Paper_Space
  0
ENDTAB
  0
TABLE
  2
DIMSTYLE
  5
A
100
AcDbSymbolTable
 70
1
100
AcDbDimStyleTable
 71
0
  0
DIMSTYLE
105
205
100
AcDbSymbolTableRecord
100
AcDbDimStyleTableRecord
  2
STANDARD
 70
0
  3

  4

 40
1.0
 41
0.1
 42
0.0625
 43
0.38
 44
0.18
 45
0.0
 46
0.0
 47
0.01
 48
0.01
140
0.08
141
0.09
142
0.0
143
25.4
144
1.0
145
0.0
146
1.0
147
0.09
 71
1.0
 72
0.0
 73
1
 74
1
 75
0
 76
0
 77
0
 78
4
170
0
171
2
172
0
173
0
174
0
175
0
176
0
177
0
178
0
270
2
271
2
272
2
273
2
274
2
275
0
280
0
281
0
282
0
283
1
284
4
285
0
286
0
287
3
288
0
340
11
  0
ENDTAB
  0
ENDSEC
  0
SECTION
  2
BLOCKS
  0
BLOCK
  5
20
100
AcDbEntity
  8
0
100
AcDbBlockBegin
  2
*Model_Space
 70
0
 10
0.0
 20
0.0
 30
0.0
  3
*Model_Space
  1

  0
ENDBLK
  5
21
100
AcDbEntity
  8
0
100
AcDbBlockEnd
  0
BLOCK
  5
1C
100
AcDbEntity
  8
0
100
AcDbBlockBegin
  2
*Paper_Space
 70
0
 10
0.0
 20
0.0
 30
0.0
  3
*Paper_Space
  1

  0
ENDBLK
  5
1D
100
AcDbEntity
  8
0
100
AcDbBlockEnd
  0
ENDSEC
  0
SECTION
  2
ENTITIES
  0
LINE
  5
206
100
AcDbEntity
  8
0
100
AcDbLine
 62
6
  6
CONTINUOUS
 10
14.1682461949
 20
2.5213703523
 11
20.1114534137
 21
2.5213703523
  0
LINE
  5
207
100
AcDbEntity
  8
0
100
AcDbLine
 62
6
  6
CONTINUOUS
 10
14.1682461949
 20
3.0613703523
 11
20.1114534137
 21
3.0613703523
  0
LINE
  5
208
100
AcDbEntity
  8
0
100
AcDbLine
 62
9
  6
CONTINUOUS
 10
13.0620122982
 20
5.0413703523
 11
13.6020122982
 21
5.0413703523
  0
LINE
  5
209
100
AcDbEntity
  8
0
100
AcDbLine
 62
9
  6
CONTINUOUS
 10
20.6776873104
 20
5.0413703523
 11
21.2176873104
 21
5.0413703523
  0
LINE
  5
20A
100
AcDbEntity
  8
0
100
AcDbLine
 62
6
  6
CONTINUOUS
 10
12.8820122982
 20
18.9733703523
 11
12.9033997771
 21
18.3413703523
  0
LINE
  5
20B
100
AcDbEntity
  8
0
100
AcDbLine
 62
6
  6
CONTINUOUS
 10
12.9057686434
 20
18.2713703523
 11
12.9220122982
 21
17.7913703523
  0
LINE
  5
20C
100
AcDbEntity
  8
0
100
AcDbLine
 62
6
  6
CONTINUOUS
 10
12.9570122982
 20
18.3113703523
 11
12.9570122982
 21
18.3063703523
  0
LINE
  5
20D
100
AcDbEntity
  8
0
100
AcDbLine
 62
6
  6
CONTINUOUS
 10
12.9570122982
 20
18.2738703523
 11
12.9570122982
 21
18.2713703523
  0
LINE
  5
20E
100
AcDbEntity
  8
0
100
AcDbLine
 62
6
  6
CONTINUOUS
 10
13.0620122982
 20
17.7913703523
 11
13.0620122982
 21
5.0413703523
  0
LINE
  5
20F
100
AcDbEntity
  8
0
100
AcDbLine
 62
7
  6
CONTINUOUS
 10
13.3320122982
 20
18.2713703523
 11
13.3320122982
 21
18.2738703523
  0
LINE
  5
210
100
AcDbEntity
  8
0
100
AcDbLine
 62
7
  6
CONTINUOUS
 10
13.3320122982
 20
18.3063703523
 11
13.3320122982
 21
18.3113703523
  0
LINE
  5
211
100
AcDbEntity
  8
0
100
AcDbLine
 62
6
  6
CONTINUOUS
 10
13.7820122982
 20
18.9733703523
 11
13.7606248194
 21
18.3413703523
  0
LINE
  5
212
100
AcDbEntity
  8
0
100
AcDbLine
 62
6
  6
CONTINUOUS
 10
13.7582559531
 20
18.2713703523
 11
13.7420122982
 21
17.7913703523
  0
LINE
  5
213
100
AcDbEntity
  8
0
100
AcDbLine
 62
6
  6
CONTINUOUS
 10
13.5320122982
 20
18.2713703523
 11
13.5320122982
 21
18.2738703523
  0
LINE
  5
214
100
AcDbEntity
  8
0
100
AcDbLine
 62
6
  6
CONTINUOUS
 10
13.5320122982
 20
18.3063703523
 11
13.5320122982
 21
18.3113703523
  0
LINE
  5
215
100
AcDbEntity
  8
0
100
AcDbLine
 62
6
  6
CONTINUOUS
 10
13.6020122982
 20
17.7913703523
 11
13.6020122982
 21
5.0413703523
  0
LINE
  5
216
100
AcDbEntity
  8
0
100
AcDbLine
 62
6
  6
CONTINUOUS
 10
20.6527013897
 20
8.0453703523
 11
21.242673231
 21
8.0453703523
  0
LINE
  5
217
100
AcDbEntity
  8
0
100
AcDbLine
 62
6
  6
CONTINUOUS
 10
20.5326717323
 20
8.8853703523
 11
21.3627028885
 21
8.8853703523
  0
LINE
  5
218
100
AcDbEntity
  8
0
100
AcDbLine
 62
6
  6
CONTINUOUS
 10
20.4966873104
 20
8.9725390294
 11
20.5476128277
 21
8.9725390294
  0
LINE
  5
219
100
AcDbEntity
  8
0
100
AcDbLine
 62
6
  6
CONTINUOUS
 10
20.896761793
 20
8.9725390294
 11
20.9986128277
 21
8.9725390294
  0
LINE
  5
21A
100
AcDbEntity
  8
0
100
AcDbLine
 62
6
  6
CONTINUOUS
 10
21.347761793
 20
8.9725390294
 11
21.3986873104
 21
8.9725390294
  0
LINE
  5
21B
100
AcDbEntity
  8
0
100
AcDbLine
 62
6
  6
CONTINUOUS
 10
20.4966873104
 20
9.3082016751
 11
20.5476128277
 21
9.3082016751
  0
LINE
  5
21C
100
AcDbEntity
  8
0
100
AcDbLine
 62
6
  6
CONTINUOUS
 10
20.896761793
 20
9.3082016751
 11
20.9986128277
 21
9.3082016751
  0
LINE
  5
21D
100
AcDbEntity
  8
0
100
AcDbLine
 62
6
  6
CONTINUOUS
 10
21.347761793
 20
9.3082016751
 11
21.3986873104
 21
9.3082016751
  0
LINE
  5
21E
100
AcDbEntity
  8
0
100
AcDbLine
 62
6
  6
CONTINUOUS
 10
20.4966873104
 20
8.9139115166
 11
20.4966873104
 21
9.3668448754
  0
LINE
  5
21F
100
AcDbEntity
  8
0
100
AcDbLine
 62
6
  6
CONTINUOUS
 10
20.5476128277
 20
8.9725390294
 11
20.5476128277
 21
9.3082016751
  0
LINE
  5
220
100
AcDbEntity
  8
0
100
AcDbLine
 62
6
  6
CONTINUOUS
 10
20.6526873104
 20
8.0453703523
 11
20.6526873104
 21
8.8853703523
  0
LINE
  5
221
100
AcDbEntity
  8
0
100
AcDbLine
 62
6
  6
CONTINUOUS
 10
20.6776873104
 20
5.0413703523
 11
20.6776873104
 21
8.0453703523
  0
LINE
  5
222
100
AcDbEntity
  8
0
100
AcDbLine
 62
6
  6
CONTINUOUS
 10
20.896761793
 20
8.9725390294
 11
20.896761793
 21
9.3082016751
  0
LINE
  5
223
100
AcDbEntity
  8
0
100
AcDbLine
 62
6
  6
CONTINUOUS
 10
20.9986128277
 20
8.9725390294
 11
20.9986128277
 21
9.3082016751
  0
LINE
  5
224
100
AcDbEntity
  8
0
100
AcDbLine
 62
6
  6
CONTINUOUS
 10
21.2176873104
 20
5.0413703523
 11
21.2176873104
 21
8.0453703523
  0
LINE
  5
225
100
AcDbEntity
  8
0
100
AcDbLine
 62
6
  6
CONTINUOUS
 10
21.2426873104
 20
8.0453703523
 11
21.2426873104
 21
8.8853703523
  0
LINE
  5
226
100
AcDbEntity
  8
0
100
AcDbLine
 62
6
  6
CONTINUOUS
 10
21.347761793
 20
8.9725390294
 11
21.347761793
 21
9.3082016751
  0
LINE
  5
227
100
AcDbEntity
  8
0
100
AcDbLine
 62
6
  6
CONTINUOUS
 10
21.3986873104
 20
8.9139115166
 11
21.3986873104
 21
9.3668448754
  0
LINE
  5
228
100
AcDbEntity
  8
0
100
AcDbLine
 62
6
  6
CONTINUOUS
 10
12.9220171023
 20
17.7913703523
 11
13.7420074942
 21
17.7913703523
  0
LINE
  5
229
100
AcDbEntity
  8
0
100
AcDbLine
 62
7
  6
CONTINUOUS
 10
12.9057686434
 20
18.2713703523
 11
13.7582559531
 21
18.2713703523
  0
LINE
  5
22A
100
AcDbEntity
  8
0
100
AcDbLine
 62
6
  6
CONTINUOUS
 10
12.9532622982
 20
18.2738703523
 11
13.7107622982
 21
18.2738703523
  0
LINE
  5
22B
100
AcDbEntity
  8
0
100
AcDbLine
 62
7
  6
CONTINUOUS
 10
12.9183516981
 20
18.3063703523
 11
13.7456728984
 21
18.3063703523
  0
LINE
  5
22C
100
AcDbEntity
  8
0
100
AcDbLine
 62
7
  6
CONTINUOUS
 10
12.9183516981
 20
18.3113703523
 11
13.7456728984
 21
18.3113703523
  0
LINE
  5
22D
100
AcDbEntity
  8
0
100
AcDbLine
 62
6
  6
CONTINUOUS
 10
12.9033997771
 20
18.3413703523
 11
13.7606248194
 21
18.3413703523
  0
LINE
  5
22E
100
AcDbEntity
  8
0
100
AcDbLine
 62
6
  6
CONTINUOUS
 10
12.8820122982
 20
18.9733703523
 11
13.7820122982
 21
18.9733703523
  0
ARC
  5
22F
100
AcDbEntity
  8
0
100
AcDbCircle
 62
6
  6
CONTINUOUS
 10
20.6525894077
 20
9.2073703523
 40
0.223
100
AcDbArc
 50
122.9946375703
 51
134.7371582885
  0
ARC
  5
230
100
AcDbEntity
  8
0
100
AcDbCircle
 62
6
  6
CONTINUOUS
 10
20.6525894077
 20
9.0733703523
 40
0.223
100
AcDbArc
 50
225.2116916156
 51
237.463535877
  0
ARC
  5
231
100
AcDbEntity
  8
0
100
AcDbCircle
 62
6
  6
CONTINUOUS
 10
21.242785213
 20
9.2073703523
 40
0.223
100
AcDbArc
 50
45.2628417115
 51
57.098683502
  0
ARC
  5
232
100
AcDbEntity
  8
0
100
AcDbCircle
 62
6
  6
CONTINUOUS
 10
21.242785213
 20
9.0733703523
 40
0.223
100
AcDbArc
 50
302.536464123
 51
314.7883083844
  0
ARC
  5
233
100
AcDbEntity
  8
0
100
AcDbCircle
 62
6
  6
CONTINUOUS
 10
13.7107622982
 20
18.3088703523
 40
0.035
100
AcDbArc
 50
270.0
 51
355.9039562419
  0
ARC
  5
234
100
AcDbEntity
  8
0
100
AcDbCircle
 62
6
  6
CONTINUOUS
 10
13.7107622982
 20
18.3088703523
 40
0.035
100
AcDbArc
 50
4.0960437582
 51
68.4197523989
  0
ARC
  5
235
100
AcDbEntity
  8
0
100
AcDbCircle
 62
6
  6
CONTINUOUS
 10
12.9532622982
 20
18.3088703523
 40
0.035
100
AcDbArc
 50
184.0960437581
 51
270.0
  0
ARC
  5
236
100
AcDbEntity
  8
0
100
AcDbCircle
 62
6
  6
CONTINUOUS
 10
12.9532622982
 20
18.3088703523
 40
0.035
100
AcDbArc
 50
111.5802476011
 51
175.9039562418
  0
LINE
  5
237
100
AcDbEntity
  8
0
100
AcDbLine
 62
6
  6
CONTINUOUS
 10
21.0154301849
 20
9.394526791
 11
21.1023571306
 21
9.394648139
  0
LINE
  5
238
100
AcDbEntity
  8
0
100
AcDbLine
 62
6
  6
CONTINUOUS
 10
21.1023571306
 20
9.394648139
 11
21.3598375643
 21
9.3946412557
  0
LINE
  5
239
100
AcDbEntity
  8
0
100
AcDbLine
 62
6
  6
CONTINUOUS
 10
21.3598375643
 20
9.3946412557
 11
21.3600598946
 21
9.3946417999
  0
LINE
  5
23A
100
AcDbEntity
  8
0
100
AcDbLine
 62
6
  6
CONTINUOUS
 10
21.3600598946
 20
9.3946417999
 11
21.3603204876
 21
9.3946425112
  0
LINE
  5
23B
100
AcDbEntity
  8
0
100
AcDbLine
 62
6
  6
CONTINUOUS
 10
21.3603204876
 20
9.3946425112
 11
21.3637986383
 21
9.3946722639
  0
LINE
  5
23C
100
AcDbEntity
  8
0
100
AcDbLine
 62
6
  6
CONTINUOUS
 10
20.5311581613
 20
9.3944052376
 11
20.7926086994
 21
9.394404198
  0
LINE
  5
23D
100
AcDbEntity
  8
0
100
AcDbLine
 62
6
  6
CONTINUOUS
 10
20.7926086994
 20
9.394404198
 11
21.0154445025
 21
9.3943015522
  0
SPLINE
  5
23E
100
AcDbEntity
  8
0
100
AcDbSpline
 62
6
  6
CONTINUOUS
 70
0
 71
3
 72
54
 73
50
 74
48
 42
0.0000001
 43
0.0000001
 44
0.0000000001
 12
0.0
 22
-2.1286729623
 32
0.0
 13
2.1286729623
 23
0.0
 33
0.0
 40
0.0
 40
0.0
 40
0.0
 40
0.0
 40
0.0487667415
 40
0.0974257743
 40
0.1458701662
 40
0.1939926629
 40
0.2416866362
 40
0.2888459409
 40
0.3353650504
 40
0.3811391375
 40
0.4260641373
 40
0.4700367648
 40
0.5129545031
 40
0.554715547
 40
0.5952186645
 40
0.6343630132
 40
0.6720478666
 40
0.7081722087
 40
0.7426342753
 40
0.7753309783
 40
0.7909852615
 40
0.8061586472
 40
0.8208375734
 40
0.835008285
 40
0.8486568411
 40
0.8617690921
 40
0.8743307124
 40
0.8863272705
 40
0.8977442952
 40
0.908567404
 40
0.9187825319
 40
0.9283761996
 40
0.9373358593
 40
0.9456504817
 40
0.9533112471
 40
0.960312323
 40
0.9666518208
 40
0.9723332587
 40
0.9773669795
 40
0.9817709346
 40
0.9855723629
 40
0.9888112062
 40
0.9915365177
 40
0.992725054
 40
0.9938073266
 40
0.9956974322
 40
0.9973091174
 40
0.9987268373
 40
1.0
 40
1.0
 40
1.0
 40
1.0
 10
13.6020122982
 20
5.0413703523
 30
0.0
 10
13.6020122982
 20
5.0067675376
 30
0.0
 10
13.602632357
 20
4.93763672
 30
0.0
 10
13.6054210427
 20
4.8341656693
 30
0.0
 10
13.6100599869
 20
4.7312182265
 30
0.0
 10
13.6165359529
 20
4.6290561193
 30
0.0
 10
13.6248301903
 20
4.527940249
 30
0.0
 10
13.6349183595
 20
4.4281308255
 30
0.0
 10
13.6467703393
 20
4.3298872333
 30
0.0
 10
13.660349966
 20
4.2334679896
 30
0.0
 10
13.675614618
 20
4.1391307145
 30
0.0
 10
13.6925147566
 20
4.0471321849
 30
0.0
 10
13.7109933203
 20
3.9577284627
 30
0.0
 10
13.7309848601
 20
3.8711750968
 30
0.0
 10
13.7524143775
 20
3.7877273992
 30
0.0
 10
13.7751959504
 20
3.7076407838
 30
0.0
 10
13.7992308067
 20
3.6311713011
 30
0.0
 10
13.8244046974
 20
3.5585755768
 30
0.0
 10
13.8505845184
 20
3.4901125227
 30
0.0
 10
13.8734293661
 20
3.4359596076
 30
0.0
 10
13.8921114859
 20
3.3949367481
 30
0.0
 10
13.9060614765
 20
3.3658136754
 30
0.0
 10
13.9201247359
 20
3.3379191269
 30
0.0
 10
13.9342697848
 20
3.3112849307
 30
0.0
 10
13.9484620146
 20
3.2859424933
 30
0.0
 10
13.962663439
 20
3.2619223981
 30
0.0
 10
13.9768320613
 20
3.2392539034
 30
0.0
 10
13.9909218056
 20
3.2179645752
 30
0.0
 10
14.0048822702
 20
3.1980797171
 30
0.0
 10
14.0186581194
 20
3.1796213093
 30
0.0
 10
14.0321890363
 20
3.162607016
 30
0.0
 10
14.0454098794
 20
3.1470490409
 30
0.0
 10
14.0582510063
 20
3.1329526625
 30
0.0
 10
14.0706385035
 20
3.1203140437
 30
0.0
 10
14.0824956191
 20
3.1091184358
 30
0.0
 10
14.0937446058
 20
3.0993382457
 30
0.0
 10
14.104309318
 20
3.0909309043
 30
0.0
 10
14.1141182684
 20
3.0838362528
 30
0.0
 10
14.1231094371
 20
3.0779760162
 30
0.0
 10
14.1312354694
 20
3.0732543922
 30
0.0
 10
14.1384689492
 20
3.0695551724
 30
0.0
 10
14.1448099339
 20
3.0667520108
 30
0.0
 10
14.1495674978
 20
3.064974905
 30
0.0
 10
14.1529445551
 20
3.0638948327
 30
0.0
 10
14.1557826881
 20
3.0630802583
 30
0.0
 10
14.1589487284
 20
3.0623235881
 30
0.0
 10
14.1623936436
 20
3.0617448605
 30
0.0
 10
14.1654328781
 20
3.0614342934
 30
0.0
 10
14.1673428126
 20
3.0613703523
 30
0.0
 10
14.1682461949
 20
3.0613703523
 30
0.0
 11
13.6020122982
 21
5.0413703523
 31
0.0
 11
13.6029443515
 21
4.9375660925
 31
0.0
 11
13.6057378707
 21
4.8340246023
 31
0.0
 11
13.6103849367
 21
4.7310070953
 31
0.0
 11
13.6168723049
 21
4.6287756673
 31
0.0
 11
13.6251812954
 21
4.5275913792
 31
0.0
 11
13.6352876427
 21
4.4277146618
 31
0.0
 11
13.6471613199
 21
4.3294051376
 31
0.0
 11
13.6607662697
 21
4.2329215578
 31
0.0
 11
13.6760600162
 21
4.1385217739
 31
0.0
 11
13.6929931969
 21
4.0464628077
 31
0.0
 11
13.7115089513
 21
3.9570009734
 31
0.0
 11
13.7315420691
 21
3.8703920664
 31
0.0
 11
13.7530178569
 21
3.7868916755
 31
0.0
 11
13.7758507371
 21
3.7067555332
 31
0.0
 11
13.799942333
 21
3.6302399176
 31
0.0
 11
13.8251788486
 21
3.5576020963
 31
0.0
 11
13.8514278374
 21
3.4891005954
 31
0.0
 11
13.8785338464
 21
3.4249951659
 31
0.0
 11
13.8923519229
 21
3.394672352
 31
0.0
 11
13.9063125697
 21
3.3655461248
 31
0.0
 11
13.9203870663
 21
3.3376488018
 31
0.0
 11
13.9345438575
 21
3.3110123405
 31
0.0
 11
13.9487483619
 21
3.2856681693
 31
0.0
 11
13.9629625327
 21
3.2616469284
 31
0.0
 11
13.9771443846
 21
3.2389780003
 31
0.0
 11
13.9912478153
 21
3.2176890645
 31
0.0
 11
14.0052222861
 21
3.1978055185
 31
0.0
 11
14.0190123376
 21
3.1793495299
 31
0.0
 11
14.0325574984
 21
3.1623389702
 31
0.0
 11
14.0457923949
 21
3.1467862647
 31
0.0
 11
14.0586469173
 21
3.1326969244
 31
0.0
 11
14.0710466989
 21
3.1200674359
 31
0.0
 11
14.0829144165
 21
3.1088833337
 31
0.0
 11
14.094171577
 21
3.0991172815
 31
0.0
 11
14.1047408431
 21
3.0907269289
 31
0.0
 11
14.1145496673
 21
3.0836523303
 31
0.0
 11
14.1235352351
 21
3.0778150438
 31
0.0
 11
14.1316484868
 21
3.0731184601
 31
0.0
 11
14.1388599584
 21
3.0694476147
 31
0.0
 11
14.1451712116
 21
3.0666724824
 31
0.0
 11
14.1506101548
 21
3.0646543289
 31
0.0
 11
14.1530202131
 21
3.0638845595
 31
0.0
 11
14.1552350471
 21
3.0632505051
 31
0.0
 11
14.1591508098
 21
3.0623260143
 31
0.0
 11
14.1625347175
 21
3.0617610196
 31
0.0
 11
14.1655375318
 21
3.0614600256
 31
0.0
 11
14.1682461949
 21
3.0613703523
 31
0.0
  0
SPLINE
  5
23F
100
AcDbEntity
  8
0
100
AcDbSpline
 62
6
  6
CONTINUOUS
 70
0
 71
3
 72
45
 73
41
 74
39
 42
0.0000001
 43
0.0000001
 44
0.0000000001
 12
0.0
 22
-2.9767666285
 32
0.0
 13
2.9767666285
 23
-0.0
 33
0.0
 40
0.0
 40
0.0
 40
0.0
 40
0.0
 40
0.0399230236
 40
0.0797652748
 40
0.1194469275
 40
0.1588886436
 40
0.1980126645
 40
0.2367431127
 40
0.2750065216
 40
0.31273237
 40
0.3498536616
 40
0.3863075282
 40
0.4220358795
 40
0.4569861393
 40
0.4911120498
 40
0.5243745569
 40
0.5567428036
 40
0.5881952496
 40
0.6187209616
 40
0.6483209734
 40
0.6770098066
 40
0.704817027
 40
0.7317887887
 40
0.7579890485
 40
0.7835001735
 40
0.8084223034
 40
0.8328708339
 40
0.8569711248
 40
0.8689333621
 40
0.8808557994
 40
0.8927524626
 40
0.9046358738
 40
0.9165167108
 40
0.9284033943
 40
0.9403017686
 40
0.9522151631
 40
0.9641439924
 40
0.9760874865
 40
0.9880402339
 40
1.0
 40
1.0
 40
1.0
 40
1.0
 10
13.0620122982
 20
5.0413703523
 30
0.0
 10
13.0620122982
 20
5.0017565108
 30
0.0
 10
13.0627556284
 20
4.9226069493
 30
0.0
 10
13.0660994377
 20
4.8041255543
 30
0.0
 10
13.0716646275
 20
4.6862052861
 30
0.0
 10
13.0794397089
 20
4.569124287
 30
0.0
 10
13.0894087364
 20
4.4531567207
 30
0.0
 10
13.1015516506
 20
4.3385720072
 30
0.0
 10
13.1158446128
 20
4.2256335358
 30
0.0
 10
13.1322604492
 20
4.1145974569
 30
0.0
 10
13.1507691858
 20
4.0057113961
 30
0.0
 10
13.1713387908
 20
3.8992131866
 30
0.0
 10
13.1939360684
 20
3.7953295765
 30
0.0
 10
13.2185277711
 20
3.6942749175
 30
0.0
 10
13.2450819963
 20
3.5962498638
 30
0.0
 10
13.2735699488
 20
3.5014401438
 30
0.0
 10
13.3039681139
 20
3.41001545
 30
0.0
 10
13.3362609609
 20
3.322128507
 30
0.0
 10
13.3704443271
 20
3.2379145793
 30
0.0
 10
13.4065295055
 20
3.1574916312
 30
0.0
 10
13.4445480961
 20
3.08096163
 30
0.0
 10
13.484557621
 20
3.0084135243
 30
0.0
 10
13.5266474767
 20
2.9399289115
 30
0.0
 10
13.5709447937
 20
2.8755914948
 30
0.0
 10
13.6176175988
 20
2.8155021625
 30
0.0
 10
13.6668751275
 20
2.7597991577
 30
0.0
 10
13.7189517854
 20
2.7086898719
 30
0.0
 10
13.7650280556
 20
2.6700741288
 30
0.0
 10
13.8034471011
 20
2.6419262482
 30
0.0
 10
13.8330228379
 20
2.6222598708
 30
0.0
 10
13.8634352282
 20
2.6040644313
 30
0.0
 10
13.8946798506
 20
2.5874231423
 30
0.0
 10
13.926736689
 20
2.57242642
 30
0.0
 10
13.9595683612
 20
2.559168906
 30
0.0
 10
13.9931178339
 20
2.5477459532
 30
0.0
 10
14.0273073196
 20
2.5382500492
 30
0.0
 10
14.0620391517
 20
2.5307646356
 30
0.0
 10
14.0971960582
 20
2.5253630565
 30
0.0
 10
14.1326452925
 20
2.5220981138
 30
0.0
 10
14.1563790507
 20
2.5213703523
 30
0.0
 10
14.1682461949
 20
2.5213703523
 30
0.0
 11
13.0620122982
 21
5.0413703523
 31
0.0
 11
13.0631295424
 21
4.9225340796
 31
0.0
 11
13.0664789219
 21
4.8039802997
 31
0.0
 11
13.0720534303
 21
4.6859888908
 31
0.0
 11
13.0798415132
 21
4.5688386949
 31
0.0
 11
13.0898272217
 21
4.4528044992
 31
0.0
 11
13.1019904616
 21
4.338156399
 31
0.0
 11
13.1163073444
 21
4.2251585271
 31
0.0
 11
13.1327506193
 21
4.1140678266
 31
0.0
 11
13.1512902194
 21
4.0051327654
 31
0.0
 11
13.1718939777
 21
3.8985920916
 31
0.0
 11
13.1945285059
 21
3.794673583
 31
0.0
 11
13.2191602932
 21
3.6935927239
 31
0.0
 11
13.2457570836
 21
3.5955514219
 31
0.0
 11
13.2742895948
 21
3.5007368092
 31
0.0
 11
13.3047336474
 21
3.4093201495
 31
0.0
 11
13.3370728098
 21
3.3214559516
 31
0.0
 11
13.371301729
 21
3.2372813706
 31
0.0
 11
13.4074301024
 21
3.156916435
 31
0.0
 11
13.445487461
 21
3.0804652031
 31
0.0
 11
13.4855286496
 21
3.0080186429
 31
0.0
 11
13.5276398243
 21
2.9396599221
 31
0.0
 11
13.571944139
 21
2.8754735608
 31
0.0
 11
13.6186056066
 21
2.8155595213
 31
0.0
 11
13.6678283015
 21
2.7600537434
 31
0.0
 11
13.7198467942
 21
2.7091553046
 31
0.0
 11
13.7749018853
 21
2.6631585692
 31
0.0
 11
13.8036342632
 21
2.6421243994
 31
0.0
 11
13.833194879
 21
2.62248433
 31
0.0
 11
13.8635913266
 21
2.6043135199
 31
0.0
 11
13.8948189448
 21
2.5876952835
 31
0.0
 11
13.926858214
 21
2.5727195342
 31
0.0
 11
13.9596720581
 21
2.5594805467
 31
0.0
 11
13.993203595
 21
2.5480735666
 31
0.0
 11
14.0273755925
 21
2.5385905829
 31
0.0
 11
14.0620892897
 21
2.5311157913
 31
0.0
 11
14.097230591
 21
2.525720943
 31
0.0
 11
14.1326614706
 21
2.5224609506
 31
0.0
 11
14.1682461949
 21
2.5213703523
 31
0.0
  0
SPLINE
  5
240
100
AcDbEntity
  8
0
100
AcDbSpline
 62
6
  6
CONTINUOUS
 70
0
 71
3
 72
45
 73
41
 74
39
 42
0.0000001
 43
0.0000001
 44
0.0000000001
 12
2.9767666286
 22
0.0
 32
0.0
 13
0.0
 23
2.9767666286
 33
0.0
 40
0.0
 40
0.0
 40
0.0
 40
0.0
 40
0.0119597437
 40
0.0239125089
 40
0.0358559988
 40
0.0477848318
 40
0.059698234
 40
0.0715966185
 40
0.0834833116
 40
0.0953641587
 40
0.1072475853
 40
0.1191442653
 40
0.1310667067
 40
0.143028958
 40
0.1671292699
 40
0.1915778281
 40
0.2164999749
 40
0.2420111128
 40
0.2682113879
 40
0.2951831588
 40
0.3229903861
 40
0.3516792262
 40
0.3812792451
 40
0.4118049615
 40
0.4432574068
 40
0.4756256506
 40
0.5088881548
 40
0.5430140617
 40
0.5779643134
 40
0.6136926542
 40
0.6501465099
 40
0.6872677889
 40
0.724993622
 40
0.763257014
 40
0.8019874444
 40
0.8411114458
 40
0.8805531413
 40
0.9202347711
 40
0.9600770007
 40
1.0
 40
1.0
 40
1.0
 40
1.0
 10
20.1114534137
 20
2.5213703523
 30
0.0
 10
20.1233205356
 20
2.5213703523
 30
0.0
 10
20.147054289
 20
2.5220981164
 30
0.0
 10
20.1825035158
 20
2.5253630452
 30
0.0
 10
20.2176604387
 20
2.5307646334
 30
0.0
 10
20.2523922776
 20
2.5382500484
 30
0.0
 10
20.2865817845
 20
2.5477459565
 30
0.0
 10
20.3201312834
 20
2.5591689169
 30
0.0
 10
20.3529629804
 20
2.5724264492
 30
0.0
 10
20.3850198485
 20
2.5874231899
 30
0.0
 10
20.4162645079
 20
2.6040644989
 30
0.0
 10
20.4466769226
 20
2.6222599683
 30
0.0
 10
20.4762526836
 20
2.6419263715
 30
0.0
 10
20.5146717573
 20
2.6700742793
 30
0.0
 10
20.5607480667
 20
2.7086900742
 30
0.0
 10
20.6128247282
 20
2.7597994491
 30
0.0
 10
20.6620822845
 20
2.8155025045
 30
0.0
 10
20.708755108
 20
2.8755918794
 30
0.0
 10
20.753052429
 20
2.9399293386
 30
0.0
 10
20.79514227
 20
3.0084139974
 30
0.0
 10
20.8351517704
 20
3.0809621425
 30
0.0
 10
20.8731703531
 20
3.1574921706
 30
0.0
 10
20.9092555221
 20
3.2379151429
 30
0.0
 10
20.9434388745
 20
3.3221290876
 30
0.0
 10
20.9757317012
 20
3.410016039
 30
0.0
 10
21.006129845
 20
3.5014407331
 30
0.0
 10
21.034617779
 20
3.5962504489
 30
0.0
 10
21.0611719847
 20
3.6942754929
 30
0.0
 10
21.0857636679
 20
3.7953301339
 30
0.0
 10
21.1083609274
 20
3.8992137181
 30
0.0
 10
21.1289305134
 20
4.0057118967
 30
0.0
 10
21.1474392321
 20
4.1145979215
 30
0.0
 10
21.1638550534
 20
4.2256339578
 30
0.0
 10
21.1781480017
 20
4.338572381
 30
0.0
 10
21.1902909024
 20
4.4531570418
 30
0.0
 10
21.2002599189
 20
4.5691245513
 30
0.0
 10
21.2080349925
 20
4.6862054883
 30
0.0
 10
21.213600176
 20
4.8041256922
 30
0.0
 10
21.216943981
 20
4.9226070191
 30
0.0
 10
21.2176873104
 20
5.0017565349
 30
0.0
 10
21.2176873104
 20
5.0413703523
 30
0.0
 11
20.1114534137
 21
2.5213703523
 31
0.0
 11
20.1470380712
 21
2.5224609478
 31
0.0
 11
20.1824690044
 21
2.5257209378
 31
0.0
 11
20.2176102929
 21
2.5311157866
 31
0.0
 11
20.252324001
 21
2.5385905811
 31
0.0
 11
20.286496021
 21
2.5480735695
 31
0.0
 11
20.3200275864
 21
2.5594805594
 31
0.0
 11
20.3528414549
 21
2.5727195629
 31
0.0
 11
20.3848807498
 21
2.5876953286
 31
0.0
 11
20.416108407
 21
2.604313589
 31
0.0
 11
20.4465048922
 21
2.6224844336
 31
0.0
 11
20.4760655138
 21
2.6421245167
 31
0.0
 11
20.5047979224
 21
2.6631587153
 31
0.0
 11
20.559853047
 21
2.7091555077
 31
0.0
 11
20.6118715667
 21
2.760054037
 31
0.0
 11
20.6610942791
 21
2.8155598665
 31
0.0
 11
20.7077557598
 21
2.8754739443
 31
0.0
 11
20.7520600824
 21
2.9396603555
 31
0.0
 11
20.794171242
 21
3.0080191177
 31
0.0
 11
20.8342124089
 21
3.0804657138
 31
0.0
 11
20.8722697562
 21
3.156916974
 31
0.0
 11
20.9083981212
 21
3.2372819365
 31
0.0
 11
20.9426270273
 21
3.321456537
 31
0.0
 11
20.9749661689
 21
3.4093207403
 31
0.0
 11
21.0054101999
 21
3.5007373981
 31
0.0
 11
21.0339426922
 21
3.5955520076
 31
0.0
 11
21.0605394642
 21
3.6935933033
 31
0.0
 11
21.0851712316
 21
3.7946741426
 31
0.0
 11
21.1078057406
 21
3.8985926234
 31
0.0
 11
21.1284094806
 21
4.0051332677
 31
0.0
 11
21.1469490631
 21
4.1140682936
 31
0.0
 11
21.1633923224
 21
4.2251589506
 31
0.0
 11
21.177709191
 21
4.3381567735
 31
0.0
 11
21.1898724178
 21
4.4528048219
 31
0.0
 11
21.1998581154
 21
4.5688389604
 31
0.0
 11
21.2076461901
 21
4.6859890952
 31
0.0
 11
21.2132206921
 21
4.8039804363
 31
0.0
 11
21.2165700675
 21
4.9225341521
 31
0.0
 11
21.2176873104
 21
5.0413703523
 31
0.0
  0
SPLINE
  5
241
100
AcDbEntity
  8
0
100
AcDbSpline
 62
6
  6
CONTINUOUS
 70
0
 71
3
 72
54
 73
50
 74
48
 42
0.0000001
 43
0.0000001
 44
0.0000000001
 12
2.1286729653
 22
0.0
 32
0.0
 13
-0.0
 23
2.1286729653
 33
0.0
 40
0.0
 40
0.0
 40
0.0
 40
0.0
 40
0.001272889
 40
0.002690666
 40
0.004302626
 40
0.006192791
 40
0.0072749751
 40
0.0084634703
 40
0.0111887844
 40
0.0144276589
 40
0.0182290713
 40
0.0226330447
 40
0.0276667638
 40
0.0333481984
 40
0.0396877064
 40
0.0466887872
 40
0.0543495508
 40
0.0626641745
 40
0.0716238373
 40
0.0812175045
 40
0.0914326309
 40
0.1022557386
 40
0.1136727613
 40
0.1256693165
 40
0.138230934
 40
0.1513431815
 40
0.1649917336
 40
0.1791624414
 40
0.1938413635
 40
0.2090147449
 40
0.2246690239
 40
0.2573657185
 40
0.2918277772
 40
0.327952112
 40
0.365636959
 40
0.4047813021
 40
0.4452844152
 40
0.4870454558
 40
0.5299631921
 40
0.5739358187
 40
0.6188608189
 40
0.6646349075
 40
0.7111540197
 40
0.7583133283
 40
0.8060073065
 40
0.8541298093
 40
0.9025742087
 40
0.9512332492
 40
1.0
 40
1.0
 40
1.0
 40
1.0
 10
20.1114534137
 20
3.0613703523
 30
0.0
 10
20.1123566018
 20
3.0613703523
 30
0.0
 10
20.1142663829
 20
3.061434264
 30
0.0
 10
20.1173056596
 20
3.061744837
 30
0.0
 10
20.1207508493
 20
3.0623235871
 30
0.0
 10
20.1239170973
 20
3.0630801532
 30
0.0
 10
20.1267551413
 20
3.0638948617
 30
0.0
 10
20.1301320986
 20
3.0649749444
 30
0.0
 10
20.1348896735
 20
3.0667520056
 30
0.0
 10
20.141230669
 20
3.0695551764
 30
0.0
 10
20.1484641736
 20
3.0732543997
 30
0.0
 10
20.1565901956
 20
3.0779760431
 30
0.0
 10
20.165581374
 20
3.083836281
 30
0.0
 10
20.1753903348
 20
3.0909309249
 30
0.0
 10
20.1859550459
 20
3.0993382816
 30
0.0
 10
20.197204031
 20
3.1091184876
 30
0.0
 10
20.2090611557
 20
3.1203140902
 30
0.0
 10
20.2214486576
 20
3.1329527073
 30
0.0
 10
20.2342897744
 20
3.1470490988
 30
0.0
 10
20.2475106155
 20
3.1626070765
 30
0.0
 10
20.2610415355
 20
3.1796213645
 30
0.0
 10
20.2748173827
 20
3.1980797699
 30
0.0
 10
20.2887778359
 20
3.2179646308
 30
0.0
 10
20.3028675786
 20
3.2392539534
 30
0.0
 10
20.3170361988
 20
3.2619224418
 30
0.0
 10
20.3312376172
 20
3.2859425321
 30
0.0
 10
20.3454298402
 20
3.3112849642
 30
0.0
 10
20.3595748867
 20
3.3379191522
 30
0.0
 10
20.3736381417
 20
3.3658136932
 30
0.0
 10
20.3875881268
 20
3.3949367586
 30
0.0
 10
20.4062702427
 20
3.4359596068
 30
0.0
 10
20.4291150842
 20
3.4901125088
 30
0.0
 10
20.4552949001
 20
3.558575547
 30
0.0
 10
20.4804687873
 20
3.6311712565
 30
0.0
 10
20.5045036409
 20
3.7076407258
 30
0.0
 10
20.5272852119
 20
3.7877273298
 30
0.0
 10
20.5487147295
 20
3.8711750179
 30
0.0
 10
20.5687062698
 20
3.9577283767
 30
0.0
 10
20.5871848339
 20
4.0471320943
 30
0.0
 10
20.6040849747
 20
4.1391306218
 30
0.0
 10
20.619349629
 20
4.2334678974
 30
0.0
 10
20.6329292575
 20
4.3298871442
 30
0.0
 10
20.6447812398
 20
4.428130742
 30
0.0
 10
20.6548694116
 20
4.5279401737
 30
0.0
 10
20.6631636512
 20
4.6290560546
 30
0.0
 10
20.6696396189
 20
4.731218175
 30
0.0
 10
20.6742785646
 20
4.834165633
 30
0.0
 10
20.6770672514
 20
4.9376367012
 30
0.0
 10
20.6776873104
 20
5.0067675309
 30
0.0
 10
20.6776873104
 20
5.0413703523
 30
0.0
 11
20.1114534137
 21
3.0613703523
 31
0.0
 11
20.1141614952
 21
3.0614599852
 31
0.0
 11
20.1171644319
 21
3.061760976
 31
0.0
 11
20.120548923
 21
3.0623260288
 31
0.0
 11
20.1244648245
 21
3.0632504823
 31
0.0
 11
20.126679456
 21
3.0638845599
 31
0.0
 11
20.1290894186
 21
3.0646543417
 31
0.0
 11
20.1345283727
 21
3.0666724809
 31
0.0
 11
20.1408396907
 21
3.0694476314
 31
0.0
 11
20.1480511327
 21
3.0731184601
 31
0.0
 11
20.156164412
 21
3.0778150739
 31
0.0
 11
20.1651499766
 21
3.0836523584
 31
0.0
 11
20.1749587995
 21
3.0907269471
 31
0.0
 11
20.1855280777
 21
3.0991173194
 31
0.0
 11
20.1967852398
 21
3.1088833857
 31
0.0
 11
20.208652958
 21
3.1200674819
 31
0.0
 11
20.2210527434
 21
3.1326969705
 31
0.0
 11
20.2339072624
 21
3.1467863227
 31
0.0
 11
20.247142155
 21
3.1623390303
 31
0.0
 11
20.2606873164
 21
3.1793495857
 31
0.0
 11
20.2744773658
 21
3.1978055727
 31
0.0
 11
20.2884518284
 21
3.2176891194
 31
0.0
 11
20.3025552552
 21
3.2389780504
 31
0.0
 11
20.3167371047
 21
3.2616469728
 31
0.0
 11
20.3309512701
 21
3.2856682085
 31
0.0
 11
20.3451557681
 21
3.3110123734
 31
0.0
 11
20.359312556
 21
3.3376488274
 31
0.0
 11
20.3733870484
 21
3.3655461429
 31
0.0
 11
20.3873476902
 21
3.3946723622
 31
0.0
 11
20.4011657633
 21
3.4249951681
 31
0.0
 11
20.4282717655
 21
3.4891005812
 31
0.0
 11
20.4545207489
 21
3.557602066
 31
0.0
 11
20.4797572609
 21
3.6302398724
 31
0.0
 11
20.503848854
 21
3.7067554745
 31
0.0
 11
20.5266817325
 21
3.7868916053
 31
0.0
 11
20.5481575201
 21
3.8703919866
 31
0.0
 11
20.5681906385
 21
3.9570008865
 31
0.0
 11
20.5867063937
 21
4.0464627163
 31
0.0
 11
20.6036395763
 21
4.1385216803
 31
0.0
 11
20.618933325
 21
4.2329214647
 31
0.0
 11
20.6325382768
 21
4.3294050476
 31
0.0
 11
20.6444119565
 21
4.4277145775
 31
0.0
 11
20.6545183063
 21
4.5275913031
 31
0.0
 11
20.662827299
 21
4.628775602
 31
0.0
 11
20.669314669
 21
4.7310070427
 31
0.0
 11
20.6739617366
 21
4.8340245659
 31
0.0
 11
20.6767552568
 21
4.9375660727
 31
0.0
 11
20.6776873104
 21
5.0413703523
 31
0.0
  0
SPLINE
  5
242
100
AcDbEntity
  8
0
100
AcDbSpline
 62
6
  6
CONTINUOUS
 70
0
 71
3
 72
24
 73
20
 74
18
 42
0.0000001
 43
0.0000001
 44
0.0000000001
 12
0.2412710475
 22
-0.0411255302
 32
0.0
 13
0.1792713538
 23
0.1666277566
 33
0.0
 40
0.0
 40
0.0
 40
0.0
 40
0.0
 40
0.0617719453
 40
0.123492678
 40
0.1851821391
 40
0.2468496882
 40
0.3085057754
 40
0.3701836648
 40
0.431929266
 40
0.4937947385
 40
0.555810706
 40
0.6180201503
 40
0.6492239495
 40
0.6805052427
 40
0.7433200419
 40
0.8065704271
 40
0.870414934
 40
0.9348843963
 40
1.0
 40
1.0
 40
1.0
 40
1.0
 10
21.1170294849
 20
8.9185934308
 30
0.0
 10
21.1219974122
 20
8.9177466294
 30
0.0
 10
21.1319709602
 20
8.9162898462
 30
0.0
 10
21.1470101385
 20
8.9147998726
 30
0.0
 10
21.1620926944
 20
8.9139888624
 30
0.0
 10
21.1771906212
 20
8.9138374096
 30
0.0
 10
21.192280284
 20
8.9143352018
 30
0.0
 10
21.2073396292
 20
8.9155038333
 30
0.0
 10
21.2223469527
 20
8.917361623
 30
0.0
 10
21.2372787876
 20
8.9199233442
 30
0.0
 10
21.2521023428
 20
8.9232328776
 30
0.0
 10
21.2643197014
 20
8.9266547978
 30
0.0
 10
21.2739913022
 20
8.9298134111
 30
0.0
 10
21.2836123365
 20
8.9332715676
 30
0.0
 10
21.2954866577
 20
8.9381741845
 30
0.0
 10
21.3093842624
 20
8.9450514064
 30
0.0
 10
21.3228585464
 20
8.9530001229
 30
0.0
 10
21.3357793114
 20
8.9620903748
 30
0.0
 10
21.3438706722
 20
8.9689223404
 30
0.0
 10
21.347761793
 20
8.9725390294
 30
0.0
 11
21.1170294849
 21
8.9185934308
 31
0.0
 11
21.1319890204
 21
8.9164051287
 31
0.0
 11
21.147021327
 21
8.9149127218
 31
0.0
 11
21.1620979215
 21
8.9140986978
 31
0.0
 11
21.1771903364
 21
8.9139456169
 31
0.0
 11
21.1922723965
 21
8.9144468277
 31
0.0
 11
21.2073226321
 21
8.9156178243
 31
0.0
 11
21.2223201513
 21
8.9174768196
 31
0.0
 11
21.2372425105
 21
8.9200443577
 31
0.0
 11
21.2520543116
 21
8.9233604408
 31
0.0
 11
21.2667137144
 21
8.9274747478
 31
0.0
 11
21.2739731639
 21
8.9298467929
 31
0.0
 11
21.28117736
 21
8.9324382844
 31
0.0
 11
21.2953822363
 21
8.9383188289
 31
0.0
 11
21.3092513286
 21
8.9451961106
 31
0.0
 11
21.322702138
 21
8.9531489541
 31
0.0
 11
21.3355963796
 21
8.9622436878
 31
0.0
 11
21.347761793
 21
8.9725390294
 31
0.0
  0
SPLINE
  5
243
100
AcDbEntity
  8
0
100
AcDbSpline
 62
6
  6
CONTINUOUS
 70
0
 71
3
 72
15
 73
11
 74
9
 42
0.0000001
 43
0.0000001
 44
0.0000000001
 12
0.0966251321
 22
-0.0898103832
 32
0.0
 13
0.1300422311
 23
-0.0221661727
 33
0.0
 40
0.0
 40
0.0
 40
0.0
 40
0.0
 40
0.1287728358
 40
0.2561769456
 40
0.3822298649
 40
0.5071164038
 40
0.6311785281
 40
0.7545973142
 40
0.8775127298
 40
1.0
 40
1.0
 40
1.0
 40
1.0
 10
20.9986128277
 20
8.9725390294
 30
0.0
 10
21.0027603918
 20
8.9686839835
 30
0.0
 10
21.0114068085
 20
8.9614299774
 30
0.0
 10
21.0252511849
 20
8.9518632244
 30
0.0
 10
21.0397016156
 20
8.9435821401
 30
0.0
 10
21.0546126129
 20
8.9365060845
 30
0.0
 10
21.0698758818
 20
8.9305445914
 30
0.0
 10
21.0854024981
 20
8.9255915724
 30
0.0
 10
21.1011264388
 20
8.9215842039
 30
0.0
 10
21.1117199789
 20
8.9194984554
 30
0.0
 10
21.1170294849
 20
8.9185934308
 30
0.0
 11
20.9986128277
 21
8.9725390294
 31
0.0
 11
21.0116127789
 21
8.9616040274
 31
0.0
 11
21.0254265375
 21
8.9520305643
 31
0.0
 11
21.0398454842
 21
8.9437477298
 31
0.0
 11
21.0547222849
 21
8.9366696885
 31
0.0
 11
21.0699600364
 21
8.9306983234
 31
0.0
 11
21.0854677497
 21
8.9257398554
 31
0.0
 11
21.1011776325
 21
8.9217252174
 31
0.0
 11
21.1170294849
 21
8.9185934308
 31
0.0
  0
SPLINE
  5
244
100
AcDbEntity
  8
0
100
AcDbSpline
 62
9
  6
CONTINUOUS
 70
0
 71
3
 72
51
 73
47
 74
45
 42
0.0000001
 43
0.0000001
 44
0.0000000001
 12
-0.8178776107
 22
0.0
 32
0.0
 13
0.8178776107
 23
0.0
 33
0.0
 40
0.0
 40
0.0
 40
0.0
 40
0.0
 40
0.0299948095
 40
0.0601319339
 40
0.0752549522
 40
0.0904084556
 40
0.1055911169
 40
0.1208031983
 40
0.1360496305
 40
0.1513358897
 40
0.1820355983
 40
0.2129421423
 40
0.244079634
 40
0.2754520939
 40
0.3070464489
 40
0.3229258079
 40
0.3388542382
 40
0.3548294877
 40
0.3708482374
 40
0.4029908051
 40
0.4352534593
 40
0.4514225497
 40
0.4676081864
 40
0.5
 40
0.5323918136
 40
0.5485774503
 40
0.5647465407
 40
0.5970091949
 40
0.6291517626
 40
0.6451705123
 40
0.6611457618
 40
0.6770741921
 40
0.6929535511
 40
0.7245479061
 40
0.755920366
 40
0.7870578577
 40
0.8179644017
 40
0.8486641103
 40
0.8639503695
 40
0.8791968017
 40
0.8944088831
 40
0.9095915444
 40
0.9247450478
 40
0.9398680661
 40
0.9700051905
 40
1.0
 40
1.0
 40
1.0
 40
1.0
 10
14.1682461949
 20
3.0613703523
 30
0.0
 10
14.1600688339
 20
3.0613703523
 30
0.0
 10
14.14366342
 20
3.0604879579
 30
0.0
 10
14.1233670113
 20
3.0572374619
 30
0.0
 10
14.1073499867
 20
3.0533729507
 30
0.0
 10
14.0954643933
 20
3.0498413385
 30
0.0
 10
14.0837566396
 20
3.045686024
 30
0.0
 10
14.0722601674
 20
3.0409111685
 30
0.0
 10
14.0610020734
 20
3.0355324046
 30
0.0
 10
14.0463239752
 20
3.0275681332
 30
0.0
 10
14.0286844133
 20
3.0161695249
 30
0.0
 10
14.0089003838
 20
3.0003585951
 30
0.0
 10
13.9906634627
 20
2.982521242
 30
0.0
 10
13.974132155
 20
2.9628514452
 30
0.0
 10
13.9619198602
 20
2.9451188129
 30
0.0
 10
13.9531519047
 20
2.9302164194
 30
0.0
 10
13.9470868385
 20
2.9186817636
 30
0.0
 10
13.9415582226
 20
2.9068388299
 30
0.0
 10
13.9349076798
 20
2.8906619422
 30
0.0
 10
13.9279891672
 20
2.8698215787
 30
0.0
 10
13.9230005715
 20
2.8483951812
 30
0.0
 10
13.9201994963
 20
2.8309973715
 30
0.0
 10
13.9181975649
 20
2.8134542136
 30
0.0
 10
13.9171969336
 20
2.7913703523
 30
0.0
 10
13.9181975649
 20
2.7692864909
 30
0.0
 10
13.9201994963
 20
2.751743333
 30
0.0
 10
13.9230005715
 20
2.7343455233
 30
0.0
 10
13.9279891672
 20
2.7129191258
 30
0.0
 10
13.9349076798
 20
2.6920787623
 30
0.0
 10
13.9415582226
 20
2.6759018746
 30
0.0
 10
13.9470868385
 20
2.6640589409
 30
0.0
 10
13.9531519047
 20
2.6525242851
 30
0.0
 10
13.9619198602
 20
2.6376218916
 30
0.0
 10
13.974132155
 20
2.6198892593
 30
0.0
 10
13.9906634627
 20
2.6002194625
 30
0.0
 10
14.0089003838
 20
2.5823821095
 30
0.0
 10
14.0286844133
 20
2.5665711796
 30
0.0
 10
14.0463239752
 20
2.5551725713
 30
0.0
 10
14.0610020734
 20
2.5472082999
 30
0.0
 10
14.0722601674
 20
2.541829536
 30
0.0
 10
14.0837566396
 20
2.5370546805
 30
0.0
 10
14.0954643933
 20
2.532899366
 30
0.0
 10
14.1073499867
 20
2.5293677538
 30
0.0
 10
14.1233670113
 20
2.5255032426
 30
0.0
 10
14.14366342
 20
2.5222527466
 30
0.0
 10
14.1600688339
 20
2.5213703523
 30
0.0
 10
14.1682461949
 20
2.5213703523
 30
0.0
 11
14.1682461949
 21
3.0613703523
 31
0.0
 11
14.1437489533
 21
3.0600633503
 31
0.0
 11
14.1194095721
 21
3.0561720708
 31
0.0
 11
14.1073857635
 21
3.0532712612
 31
0.0
 11
14.095505441
 21
3.0497411032
 31
0.0
 11
14.0838032786
 21
3.0455871704
 31
0.0
 11
14.0723127447
 21
3.0408162629
 31
0.0
 11
14.0610605649
 21
3.0354420415
 31
0.0
 11
14.0500711205
 21
3.0294805528
 31
0.0
 11
14.0289779538
 21
3.0158599681
 31
0.0
 11
14.0092282763
 21
3.0000828988
 31
0.0
 11
13.9910125831
 21
2.9822857317
 31
0.0
 11
13.9744959847
 21
2.9626496002
 31
0.0
 11
13.9598347664
 21
2.9413711935
 31
0.0
 11
13.9532487613
 21
2.9301776073
 31
0.0
 11
13.947184739
 21
2.9186474919
 31
0.0
 11
13.9416563496
 21
2.9068089105
 31
0.0
 11
13.9366737481
 21
2.8946919903
 31
0.0
 11
13.9283862944
 21
2.869743781
 31
0.0
 11
13.9224031497
 21
2.8440441584
 31
0.0
 11
13.9203006459
 21
2.8309880269
 31
0.0
 11
13.918798752
 21
2.8178356312
 31
0.0
 11
13.9175972369
 21
2.7913703523
 31
0.0
 11
13.918798752
 21
2.7649050733
 31
0.0
 11
13.9203006459
 21
2.7517526776
 31
0.0
 11
13.9224031497
 21
2.7386965461
 31
0.0
 11
13.9283862944
 21
2.7129969235
 31
0.0
 11
13.9366737481
 21
2.6880487142
 31
0.0
 11
13.9416563496
 21
2.675931794
 31
0.0
 11
13.947184739
 21
2.6640932126
 31
0.0
 11
13.9532487613
 21
2.6525630972
 31
0.0
 11
13.9598347664
 21
2.641369511
 31
0.0
 11
13.9744959847
 21
2.6200911043
 31
0.0
 11
13.9910125831
 21
2.6004549728
 31
0.0
 11
14.0092282763
 21
2.5826578057
 31
0.0
 11
14.0289779538
 21
2.5668807364
 31
0.0
 11
14.0500711205
 21
2.5532601517
 31
0.0
 11
14.0610605649
 21
2.547298663
 31
0.0
 11
14.0723127447
 21
2.5419244416
 31
0.0
 11
14.0838032786
 21
2.5371535341
 31
0.0
 11
14.095505441
 21
2.5329996013
 31
0.0
 11
14.1073857635
 21
2.5294694433
 31
0.0
 11
14.1194095721
 21
2.5265686337
 31
0.0
 11
14.1437489533
 21
2.5226773542
 31
0.0
 11
14.1682461949
 21
2.5213703523
 31
0.0
  0
SPLINE
  5
245
100
AcDbEntity
  8
0
100
AcDbSpline
 62
9
  6
CONTINUOUS
 70
0
 71
3
 72
51
 73
47
 74
45
 42
0.0000001
 43
0.0000001
 44
0.0000000001
 12
-0.8178776107
 22
0.0
 32
0.0
 13
0.8178776107
 23
-0.0
 33
0.0
 40
0.0
 40
0.0
 40
0.0
 40
0.0
 40
0.0299948095
 40
0.0601319339
 40
0.0752549522
 40
0.0904084556
 40
0.1055911169
 40
0.1208031983
 40
0.1360496305
 40
0.1513358897
 40
0.1820355983
 40
0.2129421423
 40
0.244079634
 40
0.2754520939
 40
0.3070464489
 40
0.3229258079
 40
0.3388542382
 40
0.3548294877
 40
0.3708482374
 40
0.4029908051
 40
0.4352534593
 40
0.4514225497
 40
0.4676081864
 40
0.5
 40
0.5323918136
 40
0.5485774503
 40
0.5647465407
 40
0.5970091949
 40
0.6291517626
 40
0.6451705123
 40
0.6611457618
 40
0.6770741921
 40
0.6929535511
 40
0.7245479061
 40
0.755920366
 40
0.7870578577
 40
0.8179644017
 40
0.8486641103
 40
0.8639503695
 40
0.8791968017
 40
0.8944088831
 40
0.9095915444
 40
0.9247450478
 40
0.9398680661
 40
0.9700051905
 40
1.0
 40
1.0
 40
1.0
 40
1.0
 10
20.1114534137
 20
3.0613703523
 30
0.0
 10
20.1032760526
 20
3.0613703523
 30
0.0
 10
20.0868706388
 20
3.0604879579
 30
0.0
 10
20.0665742301
 20
3.0572374619
 30
0.0
 10
20.0505572054
 20
3.0533729507
 30
0.0
 10
20.038671612
 20
3.0498413385
 30
0.0
 10
20.0269638583
 20
3.045686024
 30
0.0
 10
20.0154673861
 20
3.0409111685
 30
0.0
 10
20.0042092922
 20
3.0355324046
 30
0.0
 10
19.9895311939
 20
3.0275681332
 30
0.0
 10
19.971891632
 20
3.0161695249
 30
0.0
 10
19.9521076025
 20
3.0003585951
 30
0.0
 10
19.9338706814
 20
2.982521242
 30
0.0
 10
19.9173393737
 20
2.9628514452
 30
0.0
 10
19.9051270789
 20
2.9451188129
 30
0.0
 10
19.8963591234
 20
2.9302164194
 30
0.0
 10
19.8902940573
 20
2.9186817636
 30
0.0
 10
19.8847654414
 20
2.9068388299
 30
0.0
 10
19.8781148985
 20
2.8906619422
 30
0.0
 10
19.8711963859
 20
2.8698215787
 30
0.0
 10
19.8662077902
 20
2.8483951812
 30
0.0
 10
19.863406715
 20
2.8309973715
 30
0.0
 10
19.8614047836
 20
2.8134542136
 30
0.0
 10
19.8604041523
 20
2.7913703523
 30
0.0
 10
19.8614047836
 20
2.7692864909
 30
0.0
 10
19.863406715
 20
2.751743333
 30
0.0
 10
19.8662077902
 20
2.7343455233
 30
0.0
 10
19.8711963859
 20
2.7129191258
 30
0.0
 10
19.8781148985
 20
2.6920787623
 30
0.0
 10
19.8847654414
 20
2.6759018746
 30
0.0
 10
19.8902940573
 20
2.6640589409
 30
0.0
 10
19.8963591234
 20
2.6525242851
 30
0.0
 10
19.9051270789
 20
2.6376218916
 30
0.0
 10
19.9173393737
 20
2.6198892593
 30
0.0
 10
19.9338706814
 20
2.6002194625
 30
0.0
 10
19.9521076025
 20
2.5823821095
 30
0.0
 10
19.971891632
 20
2.5665711796
 30
0.0
 10
19.9895311939
 20
2.5551725713
 30
0.0
 10
20.0042092922
 20
2.5472082999
 30
0.0
 10
20.0154673861
 20
2.541829536
 30
0.0
 10
20.0269638583
 20
2.5370546805
 30
0.0
 10
20.038671612
 20
2.532899366
 30
0.0
 10
20.0505572054
 20
2.5293677538
 30
0.0
 10
20.0665742301
 20
2.5255032426
 30
0.0
 10
20.0868706388
 20
2.5222527466
 30
0.0
 10
20.1032760526
 20
2.5213703523
 30
0.0
 10
20.1114534137
 20
2.5213703523
 30
0.0
 11
20.1114534137
 21
3.0613703523
 31
0.0
 11
20.086956172
 21
3.0600633503
 31
0.0
 11
20.0626167908
 21
3.0561720708
 31
0.0
 11
20.0505929822
 21
3.0532712612
 31
0.0
 11
20.0387126598
 21
3.0497411032
 31
0.0
 11
20.0270104973
 21
3.0455871704
 31
0.0
 11
20.0155199634
 21
3.0408162629
 31
0.0
 11
20.0042677836
 21
3.0354420415
 31
0.0
 11
19.9932783392
 21
3.0294805528
 31
0.0
 11
19.9721851726
 21
3.0158599681
 31
0.0
 11
19.952435495
 21
3.0000828988
 31
0.0
 11
19.9342198019
 21
2.9822857317
 31
0.0
 11
19.9177032034
 21
2.9626496002
 31
0.0
 11
19.9030419852
 21
2.9413711935
 31
0.0
 11
19.8964559801
 21
2.9301776073
 31
0.0
 11
19.8903919577
 21
2.9186474919
 31
0.0
 11
19.8848635684
 21
2.9068089105
 31
0.0
 11
19.8798809668
 21
2.8946919903
 31
0.0
 11
19.8715935131
 21
2.869743781
 31
0.0
 11
19.8656103684
 21
2.8440441584
 31
0.0
 11
19.8635078647
 21
2.8309880269
 31
0.0
 11
19.8620059708
 21
2.8178356312
 31
0.0
 11
19.8608044556
 21
2.7913703523
 31
0.0
 11
19.8620059708
 21
2.7649050733
 31
0.0
 11
19.8635078647
 21
2.7517526776
 31
0.0
 11
19.8656103684
 21
2.7386965461
 31
0.0
 11
19.8715935131
 21
2.7129969235
 31
0.0
 11
19.8798809668
 21
2.6880487142
 31
0.0
 11
19.8848635684
 21
2.675931794
 31
0.0
 11
19.8903919577
 21
2.6640932126
 31
0.0
 11
19.8964559801
 21
2.6525630972
 31
0.0
 11
19.9030419852
 21
2.641369511
 31
0.0
 11
19.9177032034
 21
2.6200911043
 31
0.0
 11
19.9342198019
 21
2.6004549728
 31
0.0
 11
19.952435495
 21
2.5826578057
 31
0.0
 11
19.9721851726
 21
2.5668807364
 31
0.0
 11
19.9932783392
 21
2.5532601517
 31
0.0
 11
20.0042677836
 21
2.547298663
 31
0.0
 11
20.0155199634
 21
2.5419244416
 31
0.0
 11
20.0270104973
 21
2.5371535341
 31
0.0
 11
20.0387126598
 21
2.5329996013
 31
0.0
 11
20.0505929822
 21
2.5294694433
 31
0.0
 11
20.0626167908
 21
2.5265686337
 31
0.0
 11
20.086956172
 21
2.5226773542
 31
0.0
 11
20.1114534137
 21
2.5213703523
 31
0.0
  0
SPLINE
  5
246
100
AcDbEntity
  8
0
100
AcDbSpline
 62
6
  6
CONTINUOUS
 70
0
 71
3
 72
38
 73
34
 74
32
 42
0.0000001
 43
0.0000001
 44
0.0000000001
 12
-0.2759148627
 22
0.2564552206
 32
0.0
 13
-0.2759148627
 23
-0.2564552206
 33
0.0
 40
0.0
 40
0.0
 40
0.0
 40
0.0
 40
0.0324649557
 40
0.0646810804
 40
0.0966778814
 40
0.1284541631
 40
0.159995428
 40
0.1913408144
 40
0.2225378799
 40
0.2536184902
 40
0.2846001297
 40
0.3154986185
 40
0.3771158785
 40
0.4078726192
 40
0.4386005407
 40
0.4693067481
 40
0.5000020297
 40
0.530697328
 40
0.5614036439
 40
0.5921320303
 40
0.622890323
 40
0.6536836025
 40
0.6845217418
 40
0.7154203705
 40
0.7464008793
 40
0.7774811058
 40
0.8086773178
 40
0.8400197735
 40
0.8715546758
 40
0.9033251215
 40
0.9353193944
 40
0.9675349542
 40
1.0
 40
1.0
 40
1.0
 40
1.0
 10
20.896761793
 20
9.3082016751
 30
0.0
 10
20.8937759384
 20
9.3109769442
 30
0.0
 10
20.8876229154
 20
9.3162905777
 30
0.0
 10
20.8779038303
 20
9.3235780837
 30
0.0
 10
20.8678091059
 20
9.3301779245
 30
0.0
 10
20.8574121782
 20
9.3361190556
 30
0.0
 10
20.8467750037
 20
9.3414362535
 30
0.0
 10
20.8359399412
 20
9.3461568336
 30
0.0
 10
20.8249389796
 20
9.3503140944
 30
0.0
 10
20.813801119
 20
9.3539423048
 30
0.0
 10
20.8025540542
 20
9.3570783385
 30
0.0
 10
20.7874574862
 20
9.3606362638
 30
0.0
 10
20.7721921482
 20
9.3633009859
 30
0.0
 10
20.7568416539
 20
9.3651326878
 30
0.0
 10
20.7453045949
 20
9.366109314
 30
0.0
 10
20.7337491649
 20
9.3666964134
 30
0.0
 10
20.7221844993
 20
9.3668921432
 30
0.0
 10
20.7106198327
 20
9.3666967843
 30
0.0
 10
20.699064259
 20
9.3661096948
 30
0.0
 10
20.6875272381
 20
9.3651318831
 30
0.0
 10
20.6760194362
 20
9.3637584849
 30
0.0
 10
20.6645546271
 20
9.3619698352
 30
0.0
 10
20.6531474844
 20
9.3597488159
 30
0.0
 10
20.6418130118
 20
9.357077107
 30
0.0
 10
20.6305668589
 20
9.3539390601
 30
0.0
 10
20.6194294204
 20
9.3503104531
 30
0.0
 10
20.6084288655
 20
9.3461536529
 30
0.0
 10
20.5975947109
 20
9.3414341664
 30
0.0
 10
20.5869592174
 20
9.336117827
 30
0.0
 10
20.5765641283
 20
9.3301772068
 30
0.0
 10
20.5664704429
 20
9.3235778379
 30
0.0
 10
20.5567516899
 20
9.3162905212
 30
0.0
 10
20.5505986906
 20
9.3109769519
 30
0.0
 10
20.5476128277
 20
9.3082016751
 30
0.0
 11
20.896761793
 21
9.3082016751
 31
0.0
 11
20.8875112199
 21
9.3162006697
 31
0.0
 11
20.8778068721
 21
9.3234875652
 31
0.0
 11
20.8677230614
 21
9.3300899559
 31
0.0
 11
20.8573340997
 21
9.3360354358
 31
0.0
 11
20.8467087752
 21
9.3413524079
 31
0.0
 11
20.8358861204
 21
9.3460736294
 31
0.0
 11
20.8248951931
 21
9.3502333178
 31
0.0
 11
20.8137650436
 21
9.3538656915
 31
0.0
 11
20.8025245309
 21
9.3570047439
 31
0.0
 11
20.7911961806
 21
9.3596770343
 31
0.0
 11
20.7683350793
 21
9.3636911853
 31
0.0
 11
20.7568312021
 21
9.3650671735
 31
0.0
 11
20.7452975297
 21
9.3660446703
 31
0.0
 11
20.7337455724
 21
9.3666312624
 31
0.0
 11
20.7221845035
 21
9.3668269696
 31
0.0
 11
20.7106234231
 21
9.3666315739
 31
0.0
 11
20.6990714311
 21
9.3660448576
 31
0.0
 11
20.687537654
 21
9.3650665224
 31
0.0
 11
20.6760332287
 21
9.3636901941
 31
0.0
 11
20.6645726779
 21
9.3618992632
 31
0.0
 11
20.6531708497
 21
9.3596761374
 31
0.0
 11
20.6418425922
 21
9.3570032241
 31
0.0
 11
20.6306029218
 21
9.3538627397
 31
0.0
 11
20.6194731136
 21
9.3502297862
 31
0.0
 11
20.6084824133
 21
9.3460704064
 31
0.0
 11
20.5976605832
 21
9.3413500554
 31
0.0
 11
20.5870373857
 21
9.3360341887
 31
0.0
 11
20.5766504964
 21
9.3300895135
 31
0.0
 11
20.5665675876
 21
9.3234874838
 31
0.0
 11
20.5568634384
 21
9.3162006782
 31
0.0
 11
20.5476128277
 21
9.3082016751
 31
0.0
  0
SPLINE
  5
247
100
AcDbEntity
  8
0
100
AcDbSpline
 62
6
  6
CONTINUOUS
 70
0
 71
3
 72
36
 73
32
 74
30
 42
0.0000001
 43
0.0000001
 44
0.0000000001
 12
0.2759015601
 22
-0.2564428562
 32
0.0
 13
0.2759015601
 23
0.2564428562
 33
0.0
 40
0.0
 40
0.0
 40
0.0
 40
0.0
 40
0.0324661295
 40
0.0646824185
 40
0.0966767823
 40
0.1284463591
 40
0.1599808715
 40
0.1913247467
 40
0.2225236129
 40
0.2536071252
 40
0.2845908937
 40
0.3154921616
 40
0.3463321776
 40
0.3771265292
 40
0.4078851086
 40
0.4386129705
 40
0.4693178798
 40
0.5000112728
 40
0.5614000829
 40
0.5921262103
 40
0.622880669
 40
0.6536704378
 40
0.6845074173
 40
0.7154087699
 40
0.7463949232
 40
0.7774787953
 40
0.8086796113
 40
0.871560203
 40
0.9353164108
 40
0.9675340997
 40
1.0
 40
1.0
 40
1.0
 40
1.0
 10
20.5476128277
 20
8.9725390294
 30
0.0
 10
20.5505986463
 20
8.9697637937
 30
0.0
 10
20.5567515364
 20
8.9644503485
 30
0.0
 10
20.566470015
 20
8.957163245
 30
0.0
 10
20.576563166
 20
8.9505641392
 30
0.0
 10
20.5869574831
 20
8.9446236319
 30
0.0
 10
20.5975923875
 20
8.9393073429
 30
0.0
 10
20.6084264396
 20
8.9345878838
 30
0.0
 10
20.6194273262
 20
8.9304309521
 30
0.0
 10
20.6305653131
 20
8.9268021233
 30
0.0
 10
20.641811996
 20
8.9236637885
 30
0.0
 10
20.6531467826
 20
8.9209916117
 30
0.0
 10
20.664554002
 20
8.9187702309
 30
0.0
 10
20.6760186478
 20
8.9169815183
 30
0.0
 10
20.6875260661
 20
8.9156085781
 30
0.0
 10
20.6990623823
 20
8.9146319267
 30
0.0
 10
20.7106170982
 20
8.9140457225
 30
0.0
 10
20.7260340911
 20
8.9137856373
 30
0.0
 10
20.7414588937
 20
8.9143078554
 30
0.0
 10
20.7568336595
 20
8.9156063789
 30
0.0
 10
20.7683399346
 20
8.9169792467
 30
0.0
 10
20.7798029579
 20
8.9187685416
 30
0.0
 10
20.7912091934
 20
8.9209899963
 30
0.0
 10
20.8025442901
 20
8.923660363
 30
0.0
 10
20.813792718
 20
8.9267935712
 30
0.0
 10
20.8249318093
 20
8.9304218738
 30
0.0
 10
20.8396370334
 20
8.9359795953
 30
0.0
 10
20.8576345568
 20
8.9443641816
 30
0.0
 10
20.8747124397
 20
8.9547695284
 30
0.0
 10
20.8876228583
 20
8.9644501072
 30
0.0
 10
20.8937759955
 20
8.9697638133
 30
0.0
 10
20.896761793
 20
8.9725390294
 30
0.0
 11
20.5476128277
 21
8.9725390294
 31
0.0
 11
20.5568633134
 21
8.9645401591
 31
0.0
 11
20.566567214
 21
8.9572535394
 31
0.0
 11
20.5766496149
 21
8.9506517323
 31
0.0
 11
20.5870356013
 21
8.9447073001
 31
0.0
 11
20.5976580663
 21
8.9393915775
 31
0.0
 11
20.6084798438
 21
8.9346711922
 31
0.0
 11
20.6194709436
 21
8.9305116439
 31
0.0
 11
20.6306013756
 21
8.9268784323
 31
0.0
 11
20.6418416437
 21
8.9237376148
 31
0.0
 11
20.6531702461
 21
8.9210642781
 31
0.0
 11
20.6645721604
 21
8.9188408267
 31
0.0
 11
20.6760325508
 21
8.9170498758
 31
0.0
 11
20.6875365813
 21
8.9156740406
 31
0.0
 11
20.699069685
 21
8.9146967078
 31
0.0
 11
20.7106206306
 21
8.9141108308
 31
0.0
 11
20.7221804424
 21
8.9139158315
 31
0.0
 11
20.7452909311
 21
8.914696642
 31
0.0
 11
20.7568235235
 21
8.9156722703
 31
0.0
 11
20.7683260364
 21
8.9170477231
 31
0.0
 11
20.7797846284
 21
8.9188390021
 31
0.0
 11
20.7911854198
 21
8.9210622361
 31
0.0
 11
20.8025145312
 21
8.9237335539
 31
0.0
 11
20.8137567532
 21
8.9268707141
 31
0.0
 11
20.824887734
 21
8.9305026811
 31
0.0
 11
20.8358792782
 21
8.9346631299
 31
0.0
 11
20.8573311686
 21
8.9447042314
 31
0.0
 11
20.8778070162
 21
8.9572533306
 31
0.0
 11
20.8875114063
 21
8.9645401768
 31
0.0
 11
20.896761793
 21
8.9725390294
 31
0.0
  0
SPLINE
  5
248
100
AcDbEntity
  8
0
100
AcDbSpline
 62
6
  6
CONTINUOUS
 70
0
 71
3
 72
15
 73
11
 74
9
 42
0.0000001
 43
0.0000001
 44
0.0000000001
 12
-0.1300418534
 22
-0.0221661083
 32
0.0
 13
-0.0966248514
 23
-0.0898101224
 33
0.0
 40
0.0
 40
0.0
 40
0.0
 40
0.0
 40
0.1225217395
 40
0.2454417158
 40
0.3688620199
 40
0.4929121375
 40
0.6178050911
 40
0.7437870305
 40
0.8711689509
 40
1.0
 40
1.0
 40
1.0
 40
1.0
 10
21.1170294849
 20
9.3621472737
 30
0.0
 10
21.1117185002
 20
9.361241997
 30
0.0
 10
21.1011234866
 20
9.3591547476
 30
0.0
 10
21.0853983408
 20
9.3551456969
 30
0.0
 10
21.0698704861
 20
9.3501970046
 30
0.0
 10
21.0546109296
 20
9.3442266473
 30
0.0
 10
21.0397010185
 20
9.3371569109
 30
0.0
 10
21.0252521773
 20
9.3288804282
 30
0.0
 10
21.0114100723
 20
9.3193131552
 30
0.0
 10
21.0027622547
 20
9.3120584525
 30
0.0
 10
20.9986128277
 20
9.3082016751
 30
0.0
 11
21.1170294849
 21
9.3621472737
 31
0.0
 11
21.1011734362
 21
9.359013509
 31
0.0
 11
21.0854631309
 21
9.3549982847
 31
0.0
 11
21.0699549132
 21
9.3500408917
 31
0.0
 11
21.0547204242
 21
9.3440656747
 31
0.0
 11
21.0398418919
 21
9.336989415
 31
0.0
 11
21.0254297562
 21
9.3287136193
 31
0.0
 11
21.0116186624
 21
9.3191415358
 31
0.0
 11
20.9986128277
 21
9.3082016751
 31
0.0
  0
SPLINE
  5
249
100
AcDbEntity
  8
0
100
AcDbSpline
 62
6
  6
CONTINUOUS
 70
0
 71
3
 72
23
 73
19
 74
17
 42
0.0000001
 43
0.0000001
 44
0.0000000001
 12
-0.1792700732
 22
0.1666265663
 32
0.0
 13
-0.2412693239
 23
-0.0411252365
 33
0.0
 40
0.0
 40
0.0
 40
0.0
 40
0.0
 40
0.0651148593
 40
0.1295930146
 40
0.1934662631
 40
0.2567348014
 40
0.3195528687
 40
0.3820367703
 40
0.4442488353
 40
0.5062625871
 40
0.5681317975
 40
0.6298833833
 40
0.6915561017
 40
0.7531968091
 40
0.814844525
 40
0.8765199615
 40
0.9382320068
 40
1.0
 40
1.0
 40
1.0
 40
1.0
 10
21.347761793
 20
9.3082016751
 30
0.0
 10
21.3438707445
 20
9.3118182969
 30
0.0
 10
21.3357790006
 20
9.3186506842
 30
0.0
 10
21.3228556651
 20
9.3277423992
 30
0.0
 10
21.3093768013
 20
9.3356918998
 30
0.0
 10
21.2954762129
 20
9.3425724174
 30
0.0
 10
21.281246653
 20
9.3484484887
 30
0.0
 10
21.2667630974
 20
9.3534007888
 30
0.0
 10
21.2520878905
 20
9.357510883
 30
0.0
 10
21.2372642874
 20
9.3608224682
 30
0.0
 10
21.2223313461
 20
9.3633807969
 30
0.0
 10
21.2073234419
 20
9.3652355375
 30
0.0
 10
21.192265676
 20
9.3664069774
 30
0.0
 10
21.1771793506
 20
9.366905891
 30
0.0
 10
21.162085599
 20
9.3667489888
 30
0.0
 10
21.1470066991
 20
9.3659381102
 30
0.0
 10
21.1319696514
 20
9.3644498124
 30
0.0
 10
21.1219970588
 20
9.3629940148
 30
0.0
 10
21.1170294849
 20
9.3621472737
 30
0.0
 11
21.347761793
 21
9.3082016751
 31
0.0
 11
21.3355966218
 21
9.3184968447
 31
0.0
 11
21.3227005049
 21
9.3275924153
 31
0.0
 11
21.3092433005
 21
9.3355480449
 31
0.0
 11
21.2953707476
 21
9.3424280999
 31
0.0
 11
21.2811653893
 21
9.3483092842
 31
0.0
 11
21.266699544
 21
9.3532702975
 31
0.0
 11
21.2520393704
 21
9.357383829
 31
0.0
 11
21.2372283556
 21
9.360700446
 31
0.0
 11
21.2223047728
 21
9.3632656281
 31
0.0
 11
21.2073056402
 21
9.3651226358
 31
0.0
 11
21.1922568994
 21
9.3662951383
 31
0.0
 11
21.1771787218
 21
9.3667965991
 31
0.0
 11
21.1620913042
 21
9.366640105
 31
0.0
 11
21.1470182828
 21
9.3658255674
 31
0.0
 11
21.1319880831
 21
9.3643345538
 31
0.0
 11
21.1170294849
 21
9.3621472737
 31
0.0
  0
ENDSEC
  0
SECTION
  2
OBJECTS
  0
DICTIONARY
  5
C
100
AcDbDictionary
280
0
281
1
  3
ACAD_GROUP
350
D
  3
ACAD_MLINESTYLE
350
17
  3
ACAD_LAYOUT
350
1A
  3
ACAD_PLOTSETTINGS
350
19
  3
ACAD_PLOTSTYLENAME
350
E
  0
DICTIONARY
  5
D
102
{ACAD_REACTORS
330
C
102
}
100
AcDbDictionary
280
0
281
1
  0
ACDBDICTIONARYWDFLT
  5
E
102
{ACAD_REACTORS
330
C
102
}
100
AcDbDictionary
281
1
  3
Normal
350
F
100
AcDbDictionaryWithDefault
340
F
  0
DICTIONARY
  5
17
102
{ACAD_REACTORS
330
C
102
}
100
AcDbDictionary
280
0
281
1
  3
Standard
350
18
  0
DICTIONARY
  5
19
102
{ACAD_REACTORS
330
C
102
}
100
AcDbDictionary
281
1
  0
DICTIONARY
  5
1A
102
{ACAD_REACTORS
330
C
102
}
100
AcDbDictionary
281
1
  3
Model
350
24A
  3
Layout1
350
24B
  0
ACDBPLACEHOLDER
  5
F
102
{ACAD_REACTORS
330
E
102
}
  0
MLINESTYLE
  5
18
102
{ACAD_REACTORS
330
17
102
}
100
AcDbMlineStyle
  2
STANDARD
 70
0
  3

 62
256
 51
90.0
 52
90.0
 71
2
 49
0.5
 62
256
  6
BYLAYER
 49
-0.5
 62
256
  6
BYLAYER
  0
LAYOUT
  5
24A
102
{ACAD_REACTORS
330
1A
102
}
100
AcDbPlotSettings
  1

  2
none_device
  4
ANSI_D_(34.00_x_22.00_Inches)
  6

 40
0.0
 41
0.0
 42
0.0
 43
0.0
 44
863.6
 45
558.8
 46
0.0
 47
0.0
 48
0.0
 49
0.0
140
0.0
141
0.0
142
1.0
143
1.0
 70
1024
 72
0
 73
0
 74
0
  7

 75
0
147
1.0
148
0.0
149
0.0
100
AcDbLayout
  1
Model
 70
0
 71
0
 10
0.0
 20
0.0
 11
34.0
 21
22.0
 12
0.0
 22
0.0
 32
0.0
 14
0.0
 24
0.0
 34
0.0
 15
0.0
 25
0.0
 35
0.0
146
0.0
 13
0.0
 23
0.0
 33
0.0
 16
1.0
 26
0.0
 36
0.0
 17
0.0
 27
1.0
 37
0.0
 76
0
330
203
345
0
346
0
  0
LAYOUT
  5
24B
102
{ACAD_REACTORS
330
1A
102
}
100
AcDbPlotSettings
  1

  2
none_device
  4
ANSI_D_(34.00_x_22.00_Inches)
  6

 40
0.0
 41
0.0
 42
0.0
 43
0.0
 44
863.6
 45
558.8
 46
0.0
 47
0.0
 48
0.0
 49
0.0
140
0.0
141
0.0
142
1.0
143
1.0
 70
0
 72
0
 73
0
 74
0
  7

 75
0
147
1.0
148
0.0
149
0.0
100
AcDbLayout
  1
Layout1
 70
0
 71
1
 10
0.0
 20
0.0
 11
34.0
 21
22.0
 12
0.0
 22
0.0
 32
0.0
 14
0.0
 24
0.0
 34
0.0
 15
0.0
 25
0.0
 35
0.0
146
0.0
 13
0.0
 23
0.0
 33
0.0
 16
1.0
 26
0.0
 36
0.0
 17
0.0
 27
1.0
 37
0.0
 76
0
330
204
345
0
346
0
  0
ENDSEC
  0
EOF
