  0
SECTION
  2
HEADER
  9
$ACADVER
  1
AC1015
  9
$DWGCODEPAGE
  3
ANSI_1252
  9
$EXTMAX
 10
34.0
 20
22.0
 30
0.0
  9
$EXTMIN
 10
0.0
 20
0.0
 30
0.0
  9
$LIMMIN
 10
0.0
 20
0.0
  9
$LIMMAX
 10
34.0
 20
22.0
  9
$VIEWCTR
 10
17.0
 20
11.0
  9
$VIEWSIZE
 40
22.0
  9
$CLAYER
  8
0
  9
$LTSCALE
 40
1.87
  9
$CELTYPE
  6
BYLAYER
  9
$DIMSCALE
 40
1.0
  9
$DIMASZ
 40
0.1
  9
$DIMEXO
 40
0.2125
  9
$DIMDLI
 40
1.292
  9
$DIMEXE
 40
0.612
  9
$DIMCEN
 40
0.306
  9
$DIMLFAC
 40
1.0
  9
$DIMBLK
  1
_FILLED
  9
$DIMTXT
 40
0.08
  9
$DIMTOL
 70
1
  9
$DIMLIM
 70
0
  9
$DIMTFAC
 40
1.0
  9
$DIMTP
 40
0.01
  9
$DIMTM
 40
0.01
  9
$PDMODE
 70
3
  9
$PDSIZE
 40
0.06
  9
$HANDSEED
  5
23C
  9
$TILEMODE
 70
1
  9
$MEASUREMENT
 70
0
  9
$INSUNITS
 70
1
  0
ENDSEC
  0
SECTION
  2
CLASSES
  0
CLASS
  1
ACDBDICTIONARYWDFLT
  2
AcDbDictionaryWithDefault
  3
AutoCAD 2000
 90
0
280
0
281
0
  0
CLASS
  1
ACDBPLACEHOLDER
  2
AcDbPlaceHolder
  3
AutoCAD 2000
 90
0
280
0
281
0
  0
CLASS
  1
LAYOUT
  2
AcDbLayout
  3
AutoCAD 2000
 90
0
280
0
281
0
  0
ENDSEC
  0
SECTION
  2
TABLES
  0
TABLE
  2
VPORT
  5
8
100
AcDbSymbolTable
 70
2
  0
VPORT
  5
1F4
100
AcDbSymbolTableRecord
100
AcDbViewportTableRecord
  2
*ACTIVE
 70
0
 10
0.0
 20
0.0
 11
1.0
 21
1.0
 12
17.0
 22
11.0
 13
0.0
 23
0.0
 14
1.0
 24
1.0
 15
0.0
 25
0.0
 16
0.0
 26
0.0
 36
1.0
 17
0.0
 27
0.0
 37
0.0
 40
22.0
 41
1.5454545455
 42
50.0
 43
0.0
 44
0.0
 50
0.0
 51
0.0
 71
0
 72
100
 73
1
 74
1
 75
0
 76
0
 77
0
 78
0
  0
ENDTAB
  0
TABLE
  2
LTYPE
  5
5
100
AcDbSymbolTable
 70
6
  0
LTYPE
  5
14
100
AcDbSymbolTableRecord
100
AcDbLinetypeTableRecord
  2
BYBLOCK
 70
0
  3

 72
65
 73
0
 40
0.0
  0
LTYPE
  5
15
100
AcDbSymbolTableRecord
100
AcDbLinetypeTableRecord
  2
BYLAYER
 70
0
  3

 72
65
 73
0
 40
0.0
  0
LTYPE
  5
16
100
AcDbSymbolTableRecord
100
AcDbLinetypeTableRecord
  2
CONTINUOUS
 70
64
  3
Solid line
 72
65
 73
0
 40
0.0
  0
LTYPE
  5
1F5
100
AcDbSymbolTableRecord
100
AcDbLinetypeTableRecord
  2
CENTER
 70
64
  3
____ _ ____ _ ____ _ ____ _ ____ _ ____ _ ____
 72
65
 73
4
 40
0.6
 49
0.375
 74
0
 49
-0.075
 74
0
 49
0.075
 74
0
 49
-0.075
 74
0
  0
LTYPE
  5
1F6
100
AcDbSymbolTableRecord
100
AcDbLinetypeTableRecord
  2
HIDDEN
 70
64
  3
- - - - - - - - - - - - - - - - - - - -
 72
65
 73
2
 40
0.2
 49
0.1
 74
0
 49
-0.1
 74
0
  0
LTYPE
  5
1F7
100
AcDbSymbolTableRecord
100
AcDbLinetypeTableRecord
  2
PHANTOM
 70
64
  3
_____ _ _ _____ _ _ _____ _ _ _____
 72
65
 73
6
 40
0.8
 49
0.45
 74
0
 49
-0.05
 74
0
 49
0.1
 74
0
 49
-0.05
 74
0
 49
0.1
 74
0
 49
-0.05
 74
0
  0
LTYPE
  5
1F8
100
AcDbSymbolTableRecord
100
AcDbLinetypeTableRecord
  2
DOT
 70
64
  3
. . . . . . . . . . . . . . . . . . . .
 72
65
 73
2
 40
0.2
 49
0.1
 74
0
 49
-0.1
 74
0
  0
LTYPE
  5
1F9
100
AcDbSymbolTableRecord
100
AcDbLinetypeTableRecord
  2
DASHED
 70
64
  3
- - - - - - - - - - - - - - - - - - - -
 72
65
 73
2
 40
0.2
 49
0.1
 74
0
 49
-0.1
 74
0
  0
ENDTAB
  0
TABLE
  2
LAYER
  5
2
100
AcDbSymbolTable
 70
36
  0
LAYER
  5
10
100
AcDbSymbolTableRecord
100
AcDbLayerTableRecord
  2
0
 70
0
 62
7
  6
CONTINUOUS
370
-3
390
F
  0
LAYER
  5
1FA
100
AcDbSymbolTableRecord
100
AcDbLayerTableRecord
  2
DEFAULT_1
 70
0
 62
7
  6
CENTER
370
-3
390
F
  0
LAYER
  5
1FB
100
AcDbSymbolTableRecord
100
AcDbLayerTableRecord
  2
DEFAULT_2
 70
0
 62
8
  6
HIDDEN
370
-3
390
F
  0
LAYER
  5
1FC
100
AcDbSymbolTableRecord
100
AcDbLayerTableRecord
  2
DEFAULT_3
 70
0
 62
7
  6
PHANTOM
370
-3
390
F
  0
LAYER
  5
1FD
100
AcDbSymbolTableRecord
100
AcDbLayerTableRecord
  2
DEFAULT_COORDINATE_SYSTEM
 70
0
 62
7
  6
CONTINUOUS
370
-3
390
F
  0
LAYER
  5
1FE
100
AcDbSymbolTableRecord
100
AcDbLayerTableRecord
  2
DEFAULT_DATUM_AXES
 70
0
 62
7
  6
CONTINUOUS
370
-3
390
F
  0
LAYER
  5
1FF
100
AcDbSymbolTableRecord
100
AcDbLayerTableRecord
  2
DEFAULT_DATUM_CURVES
 70
0
 62
7
  6
CONTINUOUS
370
-3
390
F
  0
LAYER
  5
200
100
AcDbSymbolTableRecord
100
AcDbLayerTableRecord
  2
DEFAULT_DATUM_PLANES
 70
0
 62
7
  6
CONTINUOUS
370
-3
390
F
  0
ENDTAB
  0
TABLE
  2
STYLE
  5
3
100
AcDbSymbolTable
 70
1
  0
STYLE
  5
11
100
AcDbSymbolTableRecord
100
AcDbTextStyleTableRecord
  2
STANDARD
 70
0
 40
0.0
 41
0.8
 50
0.0
 71
0
 42
0.2
  3
txt
  4

  0
STYLE
  5
201
100
AcDbSymbolTableRecord
100
AcDbTextStyleTableRecord
  2
TEXTSTYLE_1
 70
0
 40
0.0
 41
0.8
 50
0.0
 71
0
 42
0.2
  3
gdt
  4

  0
ENDTAB
  0
TABLE
  2
VIEW
  5
6
100
AcDbSymbolTable
 70
0
  0
ENDTAB
  0
TABLE
  2
UCS
  5
7
100
AcDbSymbolTable
 70
0
  0
ENDTAB
  0
TABLE
  2
APPID
  5
9
100
AcDbSymbolTable
 70
1
  0
APPID
  5
202
100
AcDbSymbolTableRecord
100
AcDbRegAppTableRecord
  2
ACAD
 70
0
  0
ENDTAB
  0
TABLE
  2
BLOCK_RECORD
  5
1
100
AcDbSymbolTable
 70
0
  0
BLOCK_RECORD
  5
203
100
AcDbSymbolTableRecord
100
AcDbBlockTableRecord
  2
*Model_Space
  0
BLOCK_RECORD
  5
204
100
AcDbSymbolTableRecord
100
AcDbBlockTableRecord
  2
*Paper_Space
  0
ENDTAB
  0
TABLE
  2
DIMSTYLE
  5
A
100
AcDbSymbolTable
 70
1
100
AcDbDimStyleTable
 71
0
  0
DIMSTYLE
105
205
100
AcDbSymbolTableRecord
100
AcDbDimStyleTableRecord
  2
STANDARD
 70
0
  3

  4

 40
1.0
 41
0.1
 42
0.0625
 43
0.38
 44
0.18
 45
0.0
 46
0.0
 47
0.01
 48
0.01
140
0.08
141
0.09
142
0.0
143
25.4
144
1.0
145
0.0
146
1.0
147
0.09
 71
1.0
 72
0.0
 73
1
 74
1
 75
0
 76
0
 77
0
 78
4
170
0
171
2
172
0
173
0
174
0
175
0
176
0
177
0
178
0
270
2
271
2
272
2
273
2
274
2
275
0
280
0
281
0
282
0
283
1
284
4
285
0
286
0
287
3
288
0
340
11
  0
ENDTAB
  0
ENDSEC
  0
SECTION
  2
BLOCKS
  0
BLOCK
  5
20
100
AcDbEntity
  8
0
100
AcDbBlockBegin
  2
*Model_Space
 70
0
 10
0.0
 20
0.0
 30
0.0
  3
*Model_Space
  1

  0
ENDBLK
  5
21
100
AcDbEntity
  8
0
100
AcDbBlockEnd
  0
BLOCK
  5
1C
100
AcDbEntity
  8
0
100
AcDbBlockBegin
  2
*Paper_Space
 70
0
 10
0.0
 20
0.0
 30
0.0
  3
*Paper_Space
  1

  0
ENDBLK
  5
1D
100
AcDbEntity
  8
0
100
AcDbBlockEnd
  0
ENDSEC
  0
SECTION
  2
ENTITIES
  0
LINE
  5
206
100
AcDbEntity
  8
0
100
AcDbLine
 62
9
  6
CONTINUOUS
 10
9.679436381
 20
8.0539963641
 11
9.8801325162
 21
7.5526770434
  0
LINE
  5
207
100
AcDbEntity
  8
0
100
AcDbLine
 62
6
  6
CONTINUOUS
 10
7.9240290695
 20
7.35124375
 11
26.2552328052
 21
14.689883199
  0
LINE
  5
208
100
AcDbEntity
  8
0
100
AcDbLine
 62
6
  6
CONTINUOUS
 10
8.1248229229
 20
6.8499635494
 11
26.4308343036
 21
14.1785175936
  0
LINE
  5
209
100
AcDbEntity
  8
0
100
AcDbLine
 62
6
  6
CONTINUOUS
 10
26.9157466773
 20
14.1317778192
 11
26.512584179
 21
14.1317778192
  0
LINE
  5
20A
100
AcDbEntity
  8
0
100
AcDbLine
 62
6
  6
CONTINUOUS
 10
26.512584179
 20
15.0337778192
 11
26.9157466773
 21
15.0337778192
  0
LINE
  5
20B
100
AcDbEntity
  8
0
100
AcDbLine
 62
6
  6
CONTINUOUS
 10
26.2227973465
 20
14.6337033365
 11
26.4243785956
 21
14.9828523018
  0
LINE
  5
20C
100
AcDbEntity
  8
0
100
AcDbLine
 62
6
  6
CONTINUOUS
 10
27.2055335098
 20
14.5318523018
 11
27.0039522607
 21
14.1827033365
  0
LINE
  5
20D
100
AcDbEntity
  8
0
100
AcDbLine
 62
9
  6
CONTINUOUS
 10
24.5249868576
 20
13.9972035828
 11
24.7256829928
 21
13.4958842621
  0
LINE
  5
20E
100
AcDbEntity
  8
0
100
AcDbLine
 62
6
  6
CONTINUOUS
 10
26.4243785956
 20
14.1827033365
 11
26.2227973465
 21
14.5318523018
  0
LINE
  5
20F
100
AcDbEntity
  8
0
100
AcDbLine
 62
6
  6
CONTINUOUS
 10
27.0039522607
 20
14.9828523018
 11
27.2055335098
 21
14.6337033365
  0
CIRCLE
  5
210
100
AcDbEntity
  8
0
100
AcDbCircle
 62
6
  6
CONTINUOUS
 10
7.6909539456
 20
6.967102807
 40
0.45
  0
CIRCLE
  5
211
100
AcDbEntity
  8
0
100
AcDbCircle
 62
6
  6
CONTINUOUS
 10
7.6909539456
 20
6.967102807
 40
0.4175
  0
ARC
  5
212
100
AcDbEntity
  8
0
100
AcDbCircle
 62
6
  6
CONTINUOUS
 10
7.6909539456
 20
6.967102807
 40
0.4136599998
100
AcDbArc
 50
138.1417771367
 51
228.1543738887
  0
CIRCLE
  5
213
100
AcDbEntity
  8
0
100
AcDbCircle
 62
6
  6
CONTINUOUS
 10
7.6909539456
 20
6.967102807
 40
0.375
  0
CIRCLE
  5
214
100
AcDbEntity
  8
0
100
AcDbCircle
 62
7
  6
CONTINUOUS
 10
7.6909539456
 20
6.967102807
 40
0.37
  0
CIRCLE
  5
215
100
AcDbEntity
  8
0
100
AcDbCircle
 62
7
  6
CONTINUOUS
 10
7.6909539456
 20
6.967102807
 40
0.369
  0
CIRCLE
  5
216
100
AcDbEntity
  8
0
100
AcDbCircle
 62
6
  6
CONTINUOUS
 10
7.6909539456
 20
6.967102807
 40
0.219
  0
CIRCLE
  5
217
100
AcDbEntity
  8
0
100
AcDbCircle
 62
9
  6
CONTINUOUS
 10
7.6909539456
 20
6.967102807
 40
0.16
  0
CIRCLE
  5
218
100
AcDbEntity
  8
0
100
AcDbCircle
 62
6
  6
CONTINUOUS
 10
7.6909539456
 20
6.967102807
 40
0.13
  0
ARC
  5
219
100
AcDbEntity
  8
0
100
AcDbCircle
 62
6
  6
CONTINUOUS
 10
26.7141654282
 20
14.5827778192
 40
0.494
100
AcDbArc
 50
354.0829755054
 51
5.9170244946
  0
ARC
  5
21A
100
AcDbEntity
  8
0
100
AcDbCircle
 62
6
  6
CONTINUOUS
 10
26.7141654282
 20
14.5827778192
 40
0.494
100
AcDbArc
 50
294.0829755054
 51
305.9170244946
  0
ARC
  5
21B
100
AcDbEntity
  8
0
100
AcDbCircle
 62
6
  6
CONTINUOUS
 10
26.7141654282
 20
14.5827778192
 40
0.494
100
AcDbArc
 50
234.0829755054
 51
245.9170244946
  0
ARC
  5
21C
100
AcDbEntity
  8
0
100
AcDbCircle
 62
6
  6
CONTINUOUS
 10
26.7141654282
 20
14.5827778192
 40
0.494
100
AcDbArc
 50
174.0829755054
 51
185.9170244946
  0
ARC
  5
21D
100
AcDbEntity
  8
0
100
AcDbCircle
 62
6
  6
CONTINUOUS
 10
26.7141654282
 20
14.5827778192
 40
0.494
100
AcDbArc
 50
114.0829755054
 51
125.9170244946
  0
ARC
  5
21E
100
AcDbEntity
  8
0
100
AcDbCircle
 62
6
  6
CONTINUOUS
 10
26.7141654282
 20
14.5827778192
 40
0.494
100
AcDbArc
 50
54.0829755054
 51
65.9170244946
  0
ARC
  5
21F
100
AcDbEntity
  8
0
100
AcDbCircle
 62
6
  6
CONTINUOUS
 10
26.7155567942
 20
14.5529249059
 40
0.446019579
100
AcDbArc
 50
98.8450163787
 51
99.28441229
  0
ARC
  5
220
100
AcDbEntity
  8
0
100
AcDbCircle
 62
6
  6
CONTINUOUS
 10
26.7154456082
 20
14.583112575
 40
0.4178478303
100
AcDbArc
 50
187.865556023
 51
201.7953730703
  0
ARC
  5
221
100
AcDbEntity
  8
0
100
AcDbCircle
 62
6
  6
CONTINUOUS
 10
26.7155525578
 20
14.5827896514
 40
0.4175384817
100
AcDbArc
 50
178.0606237749
 51
179.2013650492
  0
ARC
  5
222
100
AcDbEntity
  8
0
100
AcDbCircle
 62
6
  6
CONTINUOUS
 10
26.715277029
 20
14.5827258457
 40
0.4172638288
100
AcDbArc
 50
180.2712957746
 51
181.1469713786
  0
ARC
  5
223
100
AcDbEntity
  8
0
100
AcDbCircle
 62
6
  6
CONTINUOUS
 10
26.7152263707
 20
14.5828488251
 40
0.4172155874
100
AcDbArc
 50
181.4880088757
 51
189.9896591215
  0
ARC
  5
224
100
AcDbEntity
  8
0
100
AcDbCircle
 62
6
  6
CONTINUOUS
 10
26.7152066643
 20
14.5828430308
 40
0.4171941634
100
AcDbArc
 50
179.208207131
 51
180.3499143769
  0
ARC
  5
225
100
AcDbEntity
  8
0
100
AcDbCircle
 62
6
  6
CONTINUOUS
 10
26.7141622241
 20
14.5827708928
 40
0.416525075
100
AcDbArc
 50
201.8172792961
 51
275.6751660481
  0
ARC
  5
226
100
AcDbEntity
  8
0
100
AcDbCircle
 62
6
  6
CONTINUOUS
 10
26.7130847826
 20
14.5828643141
 40
0.4150751297
100
AcDbArc
 50
173.3954643475
 51
181.4978227584
  0
ARC
  5
227
100
AcDbEntity
  8
0
100
AcDbCircle
 62
6
  6
CONTINUOUS
 10
26.7157180993
 20
14.5827628024
 40
0.4146070099
100
AcDbArc
 50
356.0413180675
 51
4.2094714991
  0
CIRCLE
  5
228
100
AcDbEntity
  8
0
100
AcDbCircle
 62
6
  6
CONTINUOUS
 10
26.7141654282
 20
14.5827778192
 40
0.3775
  0
ARC
  5
229
100
AcDbEntity
  8
0
100
AcDbCircle
 62
7
  6
CONTINUOUS
 10
26.7139539456
 20
14.584622807
 40
0.37
100
AcDbArc
 50
344.033382348
 51
204.2700337376
  0
CIRCLE
  5
22A
100
AcDbEntity
  8
0
100
AcDbCircle
 62
7
  6
CONTINUOUS
 10
26.7141654282
 20
14.5827778192
 40
0.369
  0
CIRCLE
  5
22B
100
AcDbEntity
  8
0
100
AcDbCircle
 62
6
  6
CONTINUOUS
 10
26.7141654282
 20
14.5827778192
 40
0.219
  0
CIRCLE
  5
22C
100
AcDbEntity
  8
0
100
AcDbCircle
 62
9
  6
CONTINUOUS
 10
26.7139539456
 20
14.584622807
 40
0.16
  0
CIRCLE
  5
22D
100
AcDbEntity
  8
0
100
AcDbCircle
 62
6
  6
CONTINUOUS
 10
26.7139539456
 20
14.584622807
 40
0.13
  0
SPLINE
  5
22E
100
AcDbEntity
  8
0
100
AcDbSpline
 62
6
  6
CONTINUOUS
 70
0
 71
3
 72
43
 73
39
 74
37
 42
0.0000001
 43
0.0000001
 44
0.0000000001
 12
0.6640692786
 22
0.7157150669
 32
0.0
 13
-0.0177539811
 23
-0.976176654
 33
0.0
 40
0.0
 40
0.0
 40
0.0
 40
0.0
 40
0.0312085425
 40
0.0624647275
 40
0.0937366158
 40
0.1249976799
 40
0.1562458249
 40
0.1874878313
 40
0.2031114874
 40
0.2187362473
 40
0.2499830522
 40
0.2812309878
 40
0.2968573922
 40
0.3124836098
 40
0.3437306594
 40
0.3749778988
 40
0.4062257608
 40
0.4374759051
 40
0.468727508
 40
0.4999792064
 40
0.5312316234
 40
0.5624842658
 40
0.593735121
 40
0.6249838772
 40
0.656231966
 40
0.6874798698
 40
0.7031070169
 40
0.7187348629
 40
0.7499862402
 40
0.7812367063
 40
0.7968635583
 40
0.8124895587
 40
0.8437361695
 40
0.8749884657
 40
0.9062535595
 40
0.9375304926
 40
0.9687906438
 40
1.0
 40
1.0
 40
1.0
 40
1.0
 10
7.382860682
 20
7.2431338494
 30
0.0
 10
7.3897688935
 20
7.2505793241
 30
0.0
 10
7.4041553045
 20
7.2649733119
 30
0.0
 10
7.4272694302
 20
7.2849222051
 30
0.0
 10
7.451803192
 20
7.3031290624
 30
0.0
 10
7.4776204174
 20
7.3194603652
 30
0.0
 10
7.5045687886
 20
7.3338260057
 30
0.0
 10
7.5278494992
 20
7.3441007526
 30
0.0
 10
7.5468883639
 20
7.3512625399
 30
0.0
 10
7.5661827743
 20
7.3577094036
 30
0.0
 10
7.5907317565
 20
7.3644157739
 30
0.0
 10
7.6157115472
 20
7.3692810112
 30
0.0
 10
7.6358673815
 20
7.3720470787
 30
0.0
 10
7.6561124079
 20
7.3740552072
 30
0.0
 10
7.6815389399
 20
7.3751418822
 30
0.0
 10
7.7120591069
 20
7.3741668608
 30
0.0
 10
7.7424228505
 20
7.3709093293
 30
0.0
 10
7.7724565194
 20
7.3653760652
 30
0.0
 10
7.8019928174
 20
7.3576099898
 30
0.0
 10
7.8308640879
 20
7.3476486198
 30
0.0
 10
7.8588995023
 20
7.3355316852
 30
0.0
 10
7.8859430778
 20
7.3213396896
 30
0.0
 10
7.9118413924
 20
7.3051535411
 30
0.0
 10
7.9364365182
 20
7.2870501938
 30
0.0
 10
7.9595893095
 20
7.2671385724
 30
0.0
 10
7.9775764317
 20
7.249132003
 30
0.0
 10
7.9911106327
 20
7.2339409555
 30
0.0
 10
8.0040558536
 20
7.2182434056
 30
0.0
 10
8.019103992
 20
7.1977152111
 30
0.0
 10
8.0325515854
 20
7.1761049703
 30
0.0
 10
8.0422966288
 20
7.1582447715
 30
0.0
 10
8.0513500212
 20
7.1400257126
 30
0.0
 10
8.0613506911
 20
7.1166204236
 30
0.0
 10
8.071174701
 20
7.0876992292
 30
0.0
 10
8.0787567718
 20
7.0580996139
 30
0.0
 10
8.0840368569
 20
7.0280013244
 30
0.0
 10
8.0870021668
 20
6.9976080562
 30
0.0
 10
8.0874216284
 20
6.9772580887
 30
0.0
 10
8.0872369316
 20
6.967102807
 30
0.0
 11
7.382860682
 21
7.2431338494
 31
0.0
 11
7.4043980715
 21
7.2646876696
 31
0.0
 11
7.4274998952
 21
7.2846267984
 31
0.0
 11
7.4520204007
 21
7.3028186622
 31
0.0
 11
7.4778139733
 21
7.3191356929
 31
0.0
 11
7.5047360319
 21
7.3334879346
 31
0.0
 11
7.5326424653
 21
7.3458025352
 31
0.0
 11
7.5469197866
 21
7.3511729832
 31
0.0
 11
7.5613884399
 21
7.3560077085
 31
0.0
 11
7.5908174534
 21
7.3640474481
 31
0.0
 11
7.6207635813
 21
7.3698784886
 31
0.0
 11
7.6358786277
 21
7.3719523399
 31
0.0
 11
7.6510605816
 21
7.3734583923
 31
0.0
 11
7.6815403995
 21
7.3747620519
 31
0.0
 11
7.7120326669
 21
7.3737864724
 31
0.0
 11
7.7423668688
 21
7.3705301833
 31
0.0
 11
7.7723729567
 21
7.3650040744
 31
0.0
 11
7.8018818313
 21
7.3572441508
 31
0.0
 11
7.8307245079
 21
7.3472894643
 31
0.0
 11
7.8587341687
 21
7.335185849
 31
0.0
 11
7.8857528755
 21
7.3210069383
 31
0.0
 11
7.9116249652
 21
7.3048334873
 31
0.0
 11
7.9361964268
 21
7.2867485828
 31
0.0
 11
7.9593278658
 21
7.2668559394
 31
0.0
 11
7.9808875145
 21
7.2452700352
 31
0.0
 11
7.9910367638
 21
7.2338779173
 31
0.0
 11
8.0007446522
 21
7.2221065394
 31
0.0
 11
8.0187840932
 21
7.1974985077
 31
0.0
 11
8.034903065
 21
7.1715928884
 31
0.0
 11
8.042210367
 21
7.158199526
 31
0.0
 11
8.0489995301
 21
7.1445371428
 31
0.0
 11
8.0609869898
 21
7.1164837385
 31
0.0
 11
8.0707994
 21
7.0875917326
 31
0.0
 11
8.0783721455
 21
7.0580206727
 31
0.0
 11
8.0836520784
 21
7.0279437348
 31
0.0
 11
8.0866140099
 21
6.9975673224
 31
0.0
 11
8.0872369316
 21
6.967102807
 31
0.0
  0
SPLINE
  5
22F
100
AcDbEntity
  8
0
100
AcDbSpline
 62
6
  6
CONTINUOUS
 70
0
 71
3
 72
50
 73
46
 74
44
 42
0.0000001
 43
0.0000001
 44
0.0000000001
 12
-0.0207061126
 22
-1.1384952797
 32
0.0
 13
-0.1919720543
 23
1.1223845042
 33
0.0
 40
0.0
 40
0.0
 40
0.0
 40
0.0
 40
0.0312108683
 40
0.0624732928
 40
0.0781128564
 40
0.0937482938
 40
0.1249971738
 40
0.1562367278
 40
0.1718606114
 40
0.1874862076
 40
0.2187328952
 40
0.2499801423
 40
0.2812264738
 40
0.3124727754
 40
0.3280999909
 40
0.3437276199
 40
0.3749765823
 40
0.4062257902
 40
0.4218539484
 40
0.4374819816
 40
0.4687295058
 40
0.4999753552
 40
0.5312203715
 40
0.5624659685
 40
0.5780931624
 40
0.593720936
 40
0.624970618
 40
0.6562214947
 40
0.6718509808
 40
0.687480617
 40
0.7187317539
 40
0.7343612044
 40
0.7499902295
 40
0.7812393252
 40
0.8124865445
 40
0.8281124302
 40
0.8437366564
 40
0.8749756755
 40
0.8906021916
 40
0.906232675
 40
0.921869127
 40
0.9375111372
 40
0.9531528725
 40
0.9687875677
 40
1.0
 40
1.0
 40
1.0
 40
1.0
 10
8.0872369316
 20
6.967102807
 30
0.0
 10
8.087021513
 20
6.9552583316
 30
0.0
 10
8.0855163651
 20
6.9315567227
 30
0.0
 10
8.0809922031
 20
6.9022137723
 30
0.0
 10
8.0758027785
 20
6.8790438087
 30
0.0
 10
8.0695709658
 20
6.8561376434
 30
0.0
 10
8.0598480704
 20
6.8280787594
 30
0.0
 10
8.0476367848
 20
6.8010147743
 30
0.0
 10
8.0364320085
 20
6.7801016762
 30
0.0
 10
8.0242872135
 20
6.7597171582
 30
0.0
 10
8.0073924062
 20
6.7352967031
 30
0.0
 10
7.9845544859
 20
6.7079503256
 30
0.0
 10
7.959315143
 20
6.6828032147
 30
0.0
 10
7.9364608148
 20
6.663842367
 30
0.0
 10
7.9172048572
 20
6.6499741257
 30
0.0
 10
7.8973323746
 20
6.6370025416
 30
0.0
 10
7.8714073941
 20
6.622516928
 30
0.0
 10
7.8442689315
 20
6.6104563054
 30
0.0
 10
7.8219700276
 20
6.6023341977
 30
0.0
 10
7.799320867
 20
6.5952499266
 30
0.0
 10
7.7704346006
 20
6.5883582025
 30
0.0
 10
7.7351659504
 20
6.5833027418
 30
0.0
 10
7.6995813502
 20
6.5815310144
 30
0.0
 10
7.6699120436
 20
6.5827933901
 30
0.0
 10
7.6463301968
 20
6.5854420278
 30
0.0
 10
7.6228951836
 20
6.5891840424
 30
0.0
 10
7.5939646287
 20
6.5958991455
 30
0.0
 10
7.5657784298
 20
6.6052610663
 30
0.0
 10
7.5438313387
 20
6.6142962692
 30
0.0
 10
7.5223318108
 20
6.62434816
 30
0.0
 10
7.5015572671
 20
6.6358939575
 30
0.0
 10
7.4816683962
 20
6.6488434461
 30
0.0
 10
7.4624054604
 20
6.6627073079
 30
0.0
 10
7.4395829175
 20
6.6817124436
 30
0.0
 10
7.4186370664
 20
6.7027657777
 30
0.0
 10
7.4031223431
 20
6.7207206428
 30
0.0
 10
7.3884720092
 20
6.7393824208
 30
0.0
 10
7.3751571363
 20
6.7590618773
 30
0.0
 10
7.3632795305
 20
6.7796026358
 30
0.0
 10
7.3551026241
 20
6.7954200813
 30
0.0
 10
7.3476821192
 20
6.8116121656
 30
0.0
 10
7.3410373006
 20
6.8281422144
 30
0.0
 10
7.3351795213
 20
6.8449672575
 30
0.0
 10
7.3284423824
 20
6.8677146514
 30
0.0
 10
7.3246020933
 20
6.8851124964
 30
0.0
 10
7.3226047884
 20
6.8967899466
 30
0.0
 11
8.0872369316
 21
6.967102807
 31
0.0
 11
8.0849901794
 21
6.9316345941
 31
0.0
 11
8.0795650971
 21
6.896452401
 31
0.0
 11
8.0756719081
 21
6.8790746495
 31
0.0
 11
8.0709979421
 21
6.8618953047
 31
0.0
 11
8.0593488067
 21
6.8282736143
 31
0.0
 11
8.0447170822
 21
6.7958502056
 31
0.0
 11
8.0363149807
 21
6.780168616
 31
0.0
 11
8.0272085525
 21
6.7648830046
 31
0.0
 11
8.0069650591
 21
6.7356230706
 31
0.0
 11
7.9841539963
 21
6.7083165968
 31
0.0
 11
7.9589510217
 21
6.683202378
 31
0.0
 11
7.9315677989
 21
6.6604851909
 31
0.0
 11
7.9171280163
 21
6.650086381
 31
0.0
 11
7.90222663
 21
6.6403597158
 31
0.0
 11
7.8711648274
 21
6.6230019651
 31
0.0
 11
7.8386471976
 21
6.6085537562
 31
0.0
 11
7.8219261194
 21
6.6024639027
 31
0.0
 11
7.804942288
 21
6.5971511654
 31
0.0
 11
7.7703326692
 21
6.5888937538
 31
0.0
 11
7.7351128564
 21
6.5838499821
 31
0.0
 11
7.6995787866
 21
6.5820787618
 31
0.0
 11
7.6640321282
 21
6.5835918604
 31
0.0
 11
7.6463489633
 21
6.5855786602
 31
0.0
 11
7.6287765004
 21
6.5883846776
 31
0.0
 11
7.5941140552
 21
6.5964283272
 31
0.0
 11
7.5603441519
 21
6.6076477686
 31
0.0
 11
7.5438873548
 21
6.6144233438
 31
0.0
 11
7.52776504
 21
6.6219606933
 31
0.0
 11
7.4966606794
 21
6.6392471637
 31
0.0
 11
7.4817464354
 21
6.6489579041
 31
0.0
 11
7.4673026835
 21
6.6593547274
 31
0.0
 11
7.4399575381
 21
6.6821227077
 31
0.0
 11
7.4148626373
 21
6.7073463433
 31
0.0
 11
7.4032297559
 21
6.7208098033
 31
0.0
 11
7.3922441726
 21
6.7348040307
 31
0.0
 11
7.3723098593
 21
6.7642649305
 31
0.0
 11
7.3634027946
 21
6.7796687751
 31
0.0
 11
7.3552301107
 21
6.7954796021
 31
0.0
 11
7.3478125232
 21
6.8116659043
 31
0.0
 11
7.3411684158
 21
6.8281915886
 31
0.0
 11
7.3353119151
 21
6.8450121905
 31
0.0
 11
7.3302566946
 21
6.8620823545
 31
0.0
 11
7.3226047884
 21
6.8967899466
 31
0.0
  0
SPLINE
  5
230
100
AcDbEntity
  8
0
100
AcDbSpline
 62
6
  6
CONTINUOUS
 70
0
 71
3
 72
52
 73
48
 74
46
 42
0.0000001
 43
0.0000001
 44
0.0000000001
 12
-1.1196395328
 22
0.6255633016
 32
0.0
 13
1.2023183258
 23
-0.4464893854
 33
0.0
 40
0.0
 40
0.0
 40
0.0
 40
0.0
 40
0.0311892082
 40
0.0468234915
 40
0.0624694266
 40
0.0781185683
 40
0.0937630461
 40
0.1250189146
 40
0.1562590951
 40
0.1718827389
 40
0.1875073487
 40
0.2187517759
 40
0.2500003681
 40
0.2656294211
 40
0.2812577354
 40
0.2968860314
 40
0.312514595
 40
0.3437609577
 40
0.3593887034
 40
0.3750163092
 40
0.4062625077
 40
0.4218911311
 40
0.4375193683
 40
0.4531470454
 40
0.4687746671
 40
0.5000209398
 40
0.5312671153
 40
0.5468946269
 40
0.5625222235
 40
0.5937685394
 40
0.6093968398
 40
0.6250246493
 40
0.6406519939
 40
0.6562795204
 40
0.6875257582
 40
0.703153882
 40
0.7187815066
 40
0.7344087517
 40
0.750036273
 40
0.7812825688
 40
0.8125280831
 40
0.8437727236
 40
0.8750189338
 40
0.9062642207
 40
0.9375087883
 40
0.9687548942
 40
1.0
 40
1.0
 40
1.0
 40
1.0
 10
26.8919700308
 20
14.9157819832
 30
0.0
 10
26.8803298073
 20
14.9222855912
 30
0.0
 10
26.8623108181
 20
14.9311185962
 30
0.0
 10
26.8374705391
 20
14.9409488855
 30
0.0
 10
26.8184437462
 20
14.947344699
 30
0.0
 10
26.7991030361
 20
14.9527315042
 30
0.0
 10
26.7729882718
 20
14.9585335257
 30
0.0
 10
26.7398373587
 20
14.9631646084
 30
0.0
 10
26.7063938084
 20
14.964287979
 30
0.0
 10
26.6796955325
 20
14.9630803167
 30
0.0
 10
26.6530962073
 20
14.9604660744
 30
0.0
 10
26.6201568248
 20
14.9545798729
 30
0.0
 10
26.5880067091
 20
14.9452994148
 30
0.0
 10
26.5629817697
 20
14.9358982098
 30
0.0
 10
26.5446057968
 20
14.9278683764
 30
0.0
 10
26.5266750031
 20
14.9188885577
 30
0.0
 10
26.5034288427
 20
14.9056933185
 30
0.0
 10
26.4812384331
 20
14.8907048704
 30
0.0
 10
26.4603213502
 20
14.8740620357
 30
0.0
 10
26.4403021238
 20
14.8563494523
 30
0.0
 10
26.4216873492
 20
14.8371004334
 30
0.0
 10
26.4046451931
 20
14.8165079308
 30
0.0
 10
26.3926732505
 20
14.8004204789
 30
0.0
 10
26.3815512836
 20
14.7837348118
 30
0.0
 10
26.367900462
 20
14.7607528488
 30
0.0
 10
26.3530844033
 20
14.7307518256
 30
0.0
 10
26.3414158106
 20
14.6993926525
 30
0.0
 10
26.3340572788
 20
14.6736945009
 30
0.0
 10
26.3280337436
 20
14.6476524155
 30
0.0
 10
26.3240186179
 20
14.6211790008
 30
0.0
 10
26.3220411785
 20
14.5945228158
 30
0.0
 10
26.3215800014
 20
14.5744755334
 30
0.0
 10
26.3221492163
 20
14.554431313
 30
0.0
 10
26.3242750007
 20
14.5277870532
 30
0.0
 10
26.3284331841
 20
14.5013363172
 30
0.0
 10
26.3345785977
 20
14.4753232556
 30
0.0
 10
26.3401738218
 20
14.4560673385
 30
0.0
 10
26.3467459292
 20
14.4371230461
 30
0.0
 10
26.3567798569
 20
14.4123482071
 30
0.0
 10
26.3716538527
 20
14.3823771676
 30
0.0
 10
26.3930267176
 20
14.3483995015
 30
0.0
 10
26.4177393015
 20
14.3167651806
 30
0.0
 10
26.445501946
 20
14.2877738505
 30
0.0
 10
26.4760278968
 20
14.2617066863
 30
0.0
 10
26.5090307937
 20
14.2388548573
 30
0.0
 10
26.5441446007
 20
14.2194136676
 30
0.0
 10
26.5687388228
 20
14.2088451582
 30
0.0
 10
26.5812610106
 20
14.2041949555
 30
0.0
 11
26.8919700308
 21
14.9157819832
 31
0.0
 11
26.8560586969
 21
14.9334030381
 31
0.0
 11
26.8374142545
 21
14.9407823621
 31
0.0
 11
26.8183934228
 21
14.9471758859
 31
0.0
 11
26.7990582978
 21
14.9525598609
 31
0.0
 11
26.7794709338
 21
14.9569106479
 31
0.0
 11
26.7397703774
 21
14.9624638873
 31
0.0
 11
26.6997260737
 21
14.9638106061
 31
0.0
 11
26.6797085409
 21
14.9629045232
 31
0.0
 11
26.6597653172
 21
14.9609449098
 31
0.0
 11
26.6203167763
 21
14.9539015432
 31
0.0
 11
26.5818114925
 21
14.9427854442
 31
0.0
 11
26.5630473461
 21
14.93573509
 31
0.0
 11
26.5446799538
 21
14.9277100291
 31
0.0
 11
26.5267573189
 21
14.9187355698
 31
0.0
 11
26.5093254037
 21
14.9088409323
 31
0.0
 11
26.4761175606
 21
14.8864080435
 31
0.0
 11
26.460433546
 21
14.8739282536
 31
0.0
 11
26.4454218526
 21
14.860647616
 31
0.0
 11
26.4175601652
 21
14.8318430183
 31
0.0
 11
26.4047803682
 21
14.8164010178
 31
0.0
 11
26.3928147336
 21
14.8003205226
 31
0.0
 11
26.3816983098
 21
14.7836425412
 31
0.0
 11
26.371461489
 21
14.766410751
 31
0.0
 11
26.3537138404
 21
14.7304801643
 31
0.0
 11
26.339741777
 21
14.6929201118
 31
0.0
 11
26.334224188
 21
14.6736515455
 31
0.0
 11
26.3297064152
 21
14.6541242433
 31
0.0
 11
26.3236943731
 21
14.6145029626
 31
0.0
 11
26.322211523
 21
14.5945138871
 31
0.0
 11
26.3217517329
 21
14.5744757898
 31
0.0
 11
26.3223201035
 21
14.5544410748
 31
0.0
 11
26.3239131964
 21
14.5344614789
 31
0.0
 11
26.3301344768
 21
14.4948726146
 31
0.0
 11
26.3347429083
 21
14.4753658142
 31
0.0
 11
26.3403366966
 21
14.4561190801
 31
0.0
 11
26.346904953
 21
14.4371832479
 31
0.0
 11
26.3544279964
 21
14.4186056875
 31
0.0
 11
26.3722415832
 21
14.3827077126
 31
0.0
 11
26.3935835488
 21
14.3487897434
 31
0.0
 11
26.4182472163
 21
14.3172061746
 31
0.0
 11
26.4459627935
 21
14.2882609427
 31
0.0
 11
26.4764409654
 21
14.2622423762
 31
0.0
 11
26.5093820646
 21
14.2394236382
 31
0.0
 11
26.5444411744
 21
14.2200115861
 31
0.0
 11
26.5812610106
 21
14.2041949555
 31
0.0
  0
SPLINE
  5
231
100
AcDbEntity
  8
0
100
AcDbSpline
 62
6
  6
CONTINUOUS
 70
0
 71
3
 72
11
 73
7
 74
5
 42
0.0000001
 43
0.0000001
 44
0.0000000001
 12
-0.0143779713
 22
0.0893078375
 32
0.0
 13
-0.0336195063
 23
0.0839782394
 33
0.0
 40
0.0
 40
0.0
 40
0.0
 40
0.0
 40
0.2499161466
 40
0.5000176284
 40
0.750084724
 40
1.0
 40
1.0
 40
1.0
 40
1.0
 10
27.1249648348
 20
14.6505206937
 30
0.0
 10
27.1237670725
 20
14.6579605172
 30
0.0
 10
27.1208444111
 20
14.672764344
 30
0.0
 10
27.1151802918
 20
14.6946696228
 30
0.0
 10
27.1085113607
 20
14.7162894915
 30
0.0
 10
27.1033161909
 20
14.7304518245
 30
0.0
 10
27.1005155148
 20
14.7374476394
 30
0.0
 11
27.1249648348
 21
14.6505206937
 31
0.0
 11
27.1206323713
 21
14.6727085336
 31
0.0
 11
27.1150125016
 21
14.6946230456
 31
0.0
 11
27.1083224296
 21
14.7162316313
 31
0.0
 11
27.1005155148
 21
14.7374476394
 31
0.0
  0
SPLINE
  5
232
100
AcDbEntity
  8
0
100
AcDbSpline
 62
6
  6
CONTINUOUS
 70
0
 71
3
 72
28
 73
24
 74
22
 42
0.0000001
 43
0.0000001
 44
0.0000000001
 12
-0.2090812891
 22
0.5222646158
 32
0.0
 13
-0.5558713845
 23
-0.0865003947
 33
0.0
 40
0.0
 40
0.0
 40
0.0
 40
0.0
 40
0.0623944373
 40
0.1249149061
 40
0.1874767288
 40
0.2187554469
 40
0.2500228469
 40
0.3125204458
 40
0.3750020061
 40
0.4062494227
 40
0.437499719
 40
0.4999951951
 40
0.5624958062
 40
0.5937520927
 40
0.6250069454
 40
0.6875007304
 40
0.7499969263
 40
0.7812559181
 40
0.8125203954
 40
0.8437918995
 40
0.8750669397
 40
0.9375842283
 40
1.0
 40
1.0
 40
1.0
 40
1.0
 10
27.1005155148
 20
14.7374476394
 30
0.0
 10
27.0961670117
 20
14.748309775
 30
0.0
 10
27.0865279951
 20
14.7696953245
 30
0.0
 10
27.0694211531
 20
14.8004518381
 30
0.0
 10
27.0530489211
 20
14.8248222589
 30
0.0
 10
27.0387500703
 20
14.8434290508
 30
0.0
 10
27.0236810661
 20
14.8614022752
 30
0.0
 10
27.003445913
 20
14.8826428809
 30
0.0
 10
26.9814950105
 20
14.9020996948
 30
0.0
 10
26.9630005497
 20
14.916504506
 30
0.0
 10
26.9439088678
 20
14.9301123432
 30
0.0
 10
26.9189900132
 20
14.9455933978
 30
0.0
 10
26.8928586225
 20
14.9589283707
 30
0.0
 10
26.871341423
 20
14.9682469821
 30
0.0
 10
26.8494503462
 20
14.9766462939
 30
0.0
 10
26.8214498641
 20
14.9853973814
 30
0.0
 10
26.7928090367
 20
14.9917521545
 30
0.0
 10
26.7696387128
 20
14.9953612899
 30
0.0
 10
26.7521541967
 20
14.997321814
 30
0.0
 10
26.7345988485
 20
14.9985305256
 30
0.0
 10
26.7111494015
 20
14.9991589228
 30
0.0
 10
26.6818414314
 20
14.9981324888
 30
0.0
 10
26.6585408788
 20
14.9954400285
 30
0.0
 10
26.6469758317
 20
14.9936403656
 30
0.0
 11
27.1005155148
 21
14.7374476394
 31
0.0
 11
27.0860988083
 21
14.7694510424
 31
0.0
 11
27.0690043005
 21
14.8001889565
 31
0.0
 11
27.0493735864
 21
14.8294004891
 31
0.0
 11
27.0386515172
 21
14.8433526736
 31
0.0
 11
27.0273507958
 21
14.8568321352
 31
0.0
 11
27.003100086
 21
14.8822887608
 31
0.0
 11
26.9767951226
 21
14.9056029462
 31
0.0
 11
26.9629265862
 21
14.9164043592
 31
0.0
 11
26.9486110724
 21
14.9266087627
 31
0.0
 11
26.9187485472
 21
14.9451636092
 31
0.0
 11
26.8874299232
 21
14.9611448378
 31
0.0
 11
26.8712942861
 21
14.9681322189
 31
0.0
 11
26.8548783718
 21
14.9744307645
 31
0.0
 11
26.8213223898
 21
14.9849179909
 31
0.0
 11
26.7869985718
 21
14.9925309227
 31
0.0
 11
26.7696228722
 21
14.995236633
 31
0.0
 11
26.7521442033
 21
14.9971963467
 31
0.0
 11
26.73459381
 21
14.9984075912
 31
0.0
 11
26.7170060507
 21
14.9988810166
 31
0.0
 11
26.6818573296
 21
14.9976631779
 31
0.0
 11
26.6469758317
 21
14.9936403656
 31
0.0
  0
SPLINE
  5
233
100
AcDbEntity
  8
0
100
AcDbSpline
 62
6
  6
CONTINUOUS
 70
0
 71
3
 72
39
 73
35
 74
33
 42
0.0000001
 43
0.0000001
 44
0.0000000001
 12
0.7937860214
 22
-0.2947780344
 32
0.0
 13
-0.1232934614
 23
0.837728512
 33
0.0
 40
0.0
 40
0.0
 40
0.0
 40
0.0
 40
0.0312507803
 40
0.0625026886
 40
0.0937552659
 40
0.1250071043
 40
0.1406346082
 40
0.1562619174
 40
0.1875129156
 40
0.2187650857
 40
0.2500173758
 40
0.2812686323
 40
0.3125194262
 40
0.3437712939
 40
0.3750236687
 40
0.4062749499
 40
0.4375242414
 40
0.468773321
 40
0.5000239139
 40
0.5624962394
 40
0.5937507742
 40
0.6250065706
 40
0.6562606297
 40
0.6875090305
 40
0.718748664
 40
0.7499825961
 40
0.7812208399
 40
0.8124708889
 40
0.8437379623
 40
0.8750251657
 40
0.90631894
 40
0.9375941184
 40
0.968827449
 40
1.0
 40
1.0
 40
1.0
 40
1.0
 10
26.5812610106
 20
14.2041949555
 30
0.0
 10
26.5895298215
 20
14.2011242743
 30
0.0
 10
26.6062770094
 20
14.1955306201
 30
0.0
 10
26.6318914673
 20
14.1888129447
 30
0.0
 10
26.6578917818
 20
14.1837873971
 30
0.0
 10
26.6797885355
 20
14.1810275878
 30
0.0
 10
26.6973829394
 20
14.1796878136
 30
0.0
 10
26.7150117624
 20
14.1789301407
 30
0.0
 10
26.7370808903
 20
14.17907108
 30
0.0
 10
26.7634936902
 20
14.1809687812
 30
0.0
 10
26.7897274159
 20
14.1845827243
 30
0.0
 10
26.8156691695
 20
14.1899005838
 30
0.0
 10
26.8412054268
 20
14.1969111786
 30
0.0
 10
26.8662306149
 20
14.2055707018
 30
0.0
 10
26.8906416993
 20
14.2158345656
 30
0.0
 10
26.9143360995
 20
14.2276581069
 30
0.0
 10
26.9372090335
 20
14.2409993648
 30
0.0
 10
26.9591641677
 20
14.2558046
 30
0.0
 10
26.9870890844
 20
14.2773846169
 30
0.0
 10
27.0128745567
 20
14.3016288069
 30
0.0
 10
27.036115407
 20
14.3281920639
 30
0.0
 10
27.0522324107
 20
14.3492081468
 30
0.0
 10
27.0669645694
 20
14.3712131048
 30
0.0
 10
27.0802516792
 20
14.3941149042
 30
0.0
 10
27.092030138
 20
14.417821796
 30
0.0
 10
27.1022455802
 20
14.442239663
 30
0.0
 10
27.1108787208
 20
14.4672633901
 30
0.0
 10
27.1179078789
 20
14.4927936576
 30
0.0
 10
27.1233126616
 20
14.5187304899
 30
0.0
 10
27.1270704086
 20
14.5449691065
 30
0.0
 10
27.1291659902
 20
14.5713946719
 30
0.0
 10
27.1295859529
 20
14.5978851905
 30
0.0
 10
27.1283153613
 20
14.6243135322
 30
0.0
 10
27.1263284174
 20
14.6418302997
 30
0.0
 10
27.1250472935
 20
14.6505350113
 30
0.0
 11
26.5812610106
 21
14.2041949555
 31
0.0
 11
26.6063589274
 21
14.1958095267
 31
0.0
 11
26.6319555447
 21
14.1890950218
 31
0.0
 11
26.6579378605
 21
14.1840730062
 31
0.0
 11
26.6841928725
 21
14.1807650457
 31
0.0
 11
26.6973873265
 21
14.1797605752
 31
0.0
 11
26.7106075767
 21
14.1791920706
 31
0.0
 11
26.73706892
 21
14.1793591609
 31
0.0
 11
26.7634637983
 21
14.18125482
 31
0.0
 11
26.7896791051
 21
14.1848667714
 31
0.0
 11
26.8156017339
 21
14.1901827382
 31
0.0
 11
26.8411199092
 21
14.1971858933
 31
0.0
 11
26.866128108
 21
14.2058380356
 31
0.0
 11
26.8905226411
 21
14.2160946947
 31
0.0
 11
26.9141998196
 21
14.2279113992
 31
0.0
 11
26.9370561478
 21
14.2412434055
 31
0.0
 11
26.9589959895
 21
14.2560348887
 31
0.0
 11
26.9799341282
 21
14.2722153336
 31
0.0
 11
27.0184673014
 21
14.3084569991
 31
0.0
 11
27.0358953906
 21
14.3283730934
 31
0.0
 11
27.0520020487
 21
14.3493735985
 31
0.0
 11
27.066724967
 21
14.3713645844
 31
0.0
 11
27.0800018581
 21
14.3942521002
 31
0.0
 11
27.091770521
 21
14.4179421821
 31
0.0
 11
27.1019812798
 21
14.4423390351
 31
0.0
 11
27.1106099608
 21
14.4673431351
 31
0.0
 11
27.1176354921
 21
14.4928545048
 31
0.0
 11
27.1230368015
 21
14.5187731667
 31
0.0
 11
27.1267930768
 21
14.5449980484
 31
0.0
 11
27.1288870179
 21
14.5714132764
 31
0.0
 11
27.1293038484
 21
14.5978923412
 31
0.0
 11
27.1280288473
 21
14.6243085004
 31
0.0
 11
27.1250472935
 21
14.6505350113
 31
0.0
  0
LINE
  5
234
100
AcDbEntity
  8
0
100
AcDbLine
 62
6
  6
CONTINUOUS
 10
26.2980217542
 20
14.5800643528
 11
26.298020281
 21
14.580295176
  0
SPLINE
  5
235
100
AcDbEntity
  8
0
100
AcDbSpline
 62
6
  6
CONTINUOUS
 70
0
 71
3
 72
29
 73
25
 74
23
 42
0.0000001
 43
0.0000001
 44
0.0000000001
 12
-0.3976074218
 22
0.4055418444
 32
0.0
 13
0.3519851931
 23
0.4457154622
 33
0.0
 40
0.0
 40
0.0
 40
0.0
 40
0.0
 40
0.0624379961
 40
0.124972713
 40
0.1562562298
 40
0.1875329796
 40
0.250043971
 40
0.3125326371
 40
0.3437831662
 40
0.3750367557
 40
0.4375341134
 40
0.4687909358
 40
0.5000474495
 40
0.5625455848
 40
0.6250393054
 40
0.6562899849
 40
0.6875379031
 40
0.7500153497
 40
0.8125052502
 40
0.8437716781
 40
0.8750486772
 40
0.9063249137
 40
0.9375869978
 40
1.0
 40
1.0
 40
1.0
 40
1.0
 10
7.4149906456
 20
6.6589488641
 30
0.0
 10
7.4067153754
 20
6.6673892708
 30
0.0
 10
7.3908762692
 20
6.6850095843
 30
0.0
 10
7.373043602
 20
6.7086593217
 30
0.0
 10
7.3600407242
 20
6.7284605355
 30
0.0
 10
7.3479192456
 20
6.74880789
 30
0.0
 10
7.3344654992
 20
6.7752024822
 30
0.0
 10
7.3233820491
 20
6.8026716678
 30
0.0
 10
7.3160018044
 20
6.8251615028
 30
0.0
 10
7.3096298614
 20
6.8479583468
 30
0.0
 10
7.3047851603
 20
6.8711609234
 30
0.0
 10
7.3015092486
 20
6.8946056365
 30
0.0
 10
7.2992884615
 20
6.9181747667
 30
0.0
 10
7.2985184292
 20
6.9477875474
 30
0.0
 10
7.3004294041
 20
6.9773478027
 30
0.0
 10
7.3035637657
 20
7.0008093025
 30
0.0
 10
7.3077693103
 20
7.0240995737
 30
0.0
 10
7.3150298743
 20
7.0528138061
 30
0.0
 10
7.3249069655
 20
7.0807410194
 30
0.0
 10
7.3343427618
 20
7.1024574669
 30
0.0
 10
7.3421800506
 20
7.1184035123
 30
0.0
 10
7.3507535741
 20
7.1339655799
 30
0.0
 10
7.3631267306
 20
7.1541331161
 30
0.0
 10
7.3734602976
 20
7.1685882815
 30
0.0
 10
7.3807831151
 20
7.1778610949
 30
0.0
 11
7.4149906456
 21
6.6589488641
 31
0.0
 11
7.3912820816
 21
6.6853190946
 31
0.0
 11
7.369901423
 21
6.7136784208
 31
0.0
 11
7.3601499545
 21
6.7285303856
 31
0.0
 11
7.3510592921
 21
6.7437912932
 31
0.0
 11
7.3349373524
 21
6.7754221335
 31
0.0
 11
7.3216614402
 21
6.8083353073
 31
0.0
 11
7.3161280814
 21
6.8251991311
 31
0.0
 11
7.3113498276
 21
6.8422940603
 31
0.0
 11
7.3040972825
 21
6.8770399642
 31
0.0
 11
7.301641151
 21
6.8946212304
 31
0.0
 11
7.2999772202
 21
6.9122949003
 31
0.0
 11
7.2990546317
 21
6.9477780996
 31
0.0
 11
7.3013466904
 21
6.9831966976
 31
0.0
 11
7.3036978183
 21
7.0007887937
 31
0.0
 11
7.3068520448
 21
7.0182531813
 31
0.0
 11
7.3155522423
 21
7.052653489
 31
0.0
 11
7.327390975
 21
7.0861112388
 31
0.0
 11
7.3344680937
 21
7.1023974786
 31
0.0
 11
7.3423029025
 21
7.1183397572
 31
0.0
 11
7.350874316
 21
7.1338979049
 31
0.0
 11
7.3601598272
 21
7.149031275
 31
0.0
 11
7.3807831151
 21
7.1778610949
 31
0.0
  0
SPLINE
  5
236
100
AcDbEntity
  8
0
100
AcDbSpline
 62
6
  6
CONTINUOUS
 70
0
 71
3
 72
32
 73
28
 74
26
 42
0.0000001
 43
0.0000001
 44
0.0000000001
 12
0.6775975409
 22
0.0672282652
 32
0.0
 13
-0.110792225
 23
0.6718505413
 33
0.0
 40
0.0
 40
0.0
 40
0.0
 40
0.0
 40
0.0312540253
 40
0.0625082387
 40
0.0937631017
 40
0.1250182042
 40
0.1875064194
 40
0.249994519
 40
0.2812495487
 40
0.3125043747
 40
0.3437586005
 40
0.3750126759
 40
0.4375021081
 40
0.4999909171
 40
0.5312449988
 40
0.5624998291
 40
0.6249901307
 40
0.6562435868
 40
0.6874946252
 40
0.7499741269
 40
0.7812275837
 40
0.8124871614
 40
0.8437570903
 40
0.8750384737
 40
0.9063207175
 40
0.9375892966
 40
1.0
 40
1.0
 40
1.0
 40
1.0
 10
26.7553519081
 20
14.1682857419
 30
0.0
 10
26.762411125
 20
14.1689861265
 30
0.0
 10
26.7764964603
 20
14.1707487397
 30
0.0
 10
26.7974586878
 20
14.1744736539
 30
0.0
 10
26.8182047111
 20
14.1792638595
 30
0.0
 10
26.845497638
 20
14.187049008
 30
0.0
 10
26.8788183076
 20
14.1993729793
 30
0.0
 10
26.91069887
 20
14.2150500954
 30
0.0
 10
26.935137672
 20
14.229481262
 30
0.0
 10
26.9528964964
 20
14.2412267644
 30
0.0
 10
26.9700327104
 20
14.2538630998
 30
0.0
 10
26.9919808266
 20
14.2718577442
 30
0.0
 10
27.0176470548
 20
14.2964212422
 30
0.0
 10
27.0406824808
 20
14.3234671909
 30
0.0
 10
27.0573694734
 20
14.3464261678
 30
0.0
 10
27.0728574573
 20
14.3702091782
 30
0.0
 10
27.0865074318
 20
14.3951477023
 30
0.0
 10
27.0981964998
 20
14.4210093967
 30
0.0
 10
27.1085499739
 20
14.4474315435
 30
0.0
 10
27.1168613286
 20
14.4746166659
 30
0.0
 10
27.1230544783
 20
14.5023121517
 30
0.0
 10
27.1266294735
 20
14.5233063232
 30
0.0
 10
27.1291152882
 20
14.5444629651
 30
0.0
 10
27.1305001591
 20
14.5657250525
 30
0.0
 10
27.1307952545
 20
14.587030564
 30
0.0
 10
27.1297480174
 20
14.615382405
 30
0.0
 10
27.127352167
 20
14.636558123
 30
0.0
 10
27.1250472935
 20
14.6505350113
 30
0.0
 11
26.7553519081
 21
14.1682857419
 31
0.0
 11
26.7764687611
 21
14.1709288941
 31
0.0
 11
26.7974224694
 21
14.1746511648
 31
0.0
 11
26.818159169
 21
14.1794387847
 31
0.0
 11
26.8386251718
 21
14.1852767371
 31
0.0
 11
26.8785303336
 21
14.2000435727
 31
0.0
 11
26.9167163007
 21
14.2188134046
 31
0.0
 11
26.9350421555
 21
14.2296346751
 31
0.0
 11
26.9527928693
 21
14.2413753352
 31
0.0
 11
26.969920651
 21
14.2540067502
 31
0.0
 11
26.9863784631
 21
14.2674993262
 31
0.0
 11
27.0171210233
 21
14.2969178048
 31
0.0
 11
27.0447069564
 21
14.3293142873
 31
0.0
 11
27.0572194537
 21
14.3465290131
 31
0.0
 11
27.0688340191
 21
14.3643624911
 31
0.0
 11
27.0892651621
 21
14.4016876926
 31
0.0
 11
27.0980298567
 21
14.4210802523
 31
0.0
 11
27.1057928129
 21
14.4408933207
 31
0.0
 11
27.1182318754
 21
14.481578038
 31
0.0
 11
27.1228756059
 21
14.5023464522
 31
0.0
 11
27.1264474637
 21
14.5233300292
 31
0.0
 11
27.128931474
 21
14.5444770969
 31
0.0
 11
27.1303184999
 21
14.5657321467
 31
0.0
 11
27.1306149879
 21
14.5870309269
 31
0.0
 11
27.1298295449
 21
14.6083079736
 31
0.0
 11
27.1250472935
 21
14.6505350113
 31
0.0
  0
LINE
  5
237
100
AcDbEntity
  8
0
100
AcDbLine
 62
6
  6
CONTINUOUS
 10
26.6470181211
 20
14.9939520129
 11
26.6468917907
 21
14.9939309323
  0
SPLINE
  5
238
100
AcDbEntity
  8
0
100
AcDbSpline
 62
6
  6
CONTINUOUS
 70
0
 71
3
 72
29
 73
25
 74
23
 42
0.0000001
 43
0.0000001
 44
0.0000000001
 12
-0.6347886253
 22
-0.1060244638
 32
0.0
 13
0.0879892828
 23
-0.6375387611
 33
0.0
 40
0.0
 40
0.0
 40
0.0
 40
0.0
 40
0.0624239034
 40
0.0936948663
 40
0.1249793101
 40
0.1562640415
 40
0.1875385788
 40
0.2188014085
 40
0.2500563658
 40
0.3125367561
 40
0.3437860651
 40
0.3750383699
 40
0.4375312525
 40
0.5000244598
 40
0.5625156794
 40
0.625007597
 40
0.6562626503
 40
0.6875183065
 40
0.7500132798
 40
0.8125029806
 40
0.8437521533
 40
0.8749996789
 40
0.9374843671
 40
1.0
 40
1.0
 40
1.0
 40
1.0
 10
26.6468917907
 20
14.9939309323
 30
0.0
 10
26.6336831294
 20
14.9917247787
 30
0.0
 10
26.6139976101
 20
14.9874725757
 30
0.0
 10
26.5882497426
 20
14.9799718667
 30
0.0
 10
26.5692029655
 20
14.9734280522
 30
0.0
 10
26.5504910513
 20
14.9659800812
 30
0.0
 10
26.5321669236
 20
14.9576340373
 30
0.0
 10
26.5142762833
 20
14.9484080195
 30
0.0
 10
26.4910588325
 20
14.9349751571
 30
0.0
 10
26.4688418772
 20
14.9198754792
 30
0.0
 10
26.4478105695
 20
14.903231673
 30
0.0
 10
26.4276063046
 20
14.8855876314
 30
0.0
 10
26.403977894
 20
14.8617366881
 30
0.0
 10
26.3785105941
 20
14.8305283438
 30
0.0
 10
26.3561881208
 20
14.7969987278
 30
0.0
 10
26.3403577394
 20
14.7673915403
 30
0.0
 10
26.3294531485
 20
14.7428823826
 30
0.0
 10
26.3197500192
 20
14.7178722672
 30
0.0
 10
26.3099062771
 20
14.6857748952
 30
0.0
 10
26.3031909213
 20
14.6528817656
 30
0.0
 10
26.2997447976
 20
14.6262818836
 30
0.0
 10
26.2975905875
 20
14.5995472857
 30
0.0
 10
26.2973198823
 20
14.5659751465
 30
0.0
 10
26.299695359
 20
14.5392158695
 30
0.0
 10
26.3015289276
 20
14.5259304898
 30
0.0
 11
26.6468917907
 21
14.9939309323
 31
0.0
 11
26.6076222119
 21
14.9854502012
 31
0.0
 11
26.5883001442
 21
14.9798207624
 31
0.0
 11
26.5692589607
 21
14.9732774063
 31
0.0
 11
26.5505529637
 21
14.9658292317
 31
0.0
 11
26.5322359529
 21
14.9574858155
 31
0.0
 11
26.5143530278
 21
14.9482650123
 31
0.0
 11
26.4969419317
 21
14.9381916763
 31
0.0
 11
26.4636852727
 21
14.9155877031
 31
0.0
 11
26.447914714
 21
14.9031072537
 31
0.0
 11
26.4327645103
 21
14.8898777028
 31
0.0
 11
26.4044588565
 21
14.8613053107
 31
0.0
 11
26.3790344575
 21
14.8301410946
 31
0.0
 11
26.356742689
 21
14.7966659907
 31
0.0
 11
26.3377795888
 21
14.7611985056
 31
0.0
 11
26.3296034332
 21
14.7428199493
 31
0.0
 11
26.3223271834
 21
14.7240664789
 31
0.0
 11
26.3105315812
 21
14.6856143838
 31
0.0
 11
26.3024900968
 21
14.6462092897
 31
0.0
 11
26.2999062481
 21
14.6262645577
 31
0.0
 11
26.298290501
 21
14.6062192257
 31
0.0
 11
26.2979676262
 21
14.5660065016
 31
0.0
 11
26.3015289276
 21
14.5259304898
 31
0.0
  0
SPLINE
  5
239
100
AcDbEntity
  8
0
100
AcDbSpline
 62
6
  6
CONTINUOUS
 70
0
 71
3
 72
32
 73
28
 74
26
 42
0.0000001
 43
0.0000001
 44
0.0000000001
 12
-0.1613082678
 22
0.5036520896
 32
0.0
 13
-0.5276177037
 23
-0.036129536
 33
0.0
 40
0.0
 40
0.0
 40
0.0
 40
0.0
 40
0.0623934135
 40
0.1248533121
 40
0.1560827274
 40
0.1873043728
 40
0.2029155978
 40
0.2185284448
 40
0.2497619425
 40
0.2810137214
 40
0.312285379
 40
0.3435739608
 40
0.3748724521
 40
0.4061702826
 40
0.4374581884
 40
0.4999881367
 40
0.5312441406
 40
0.5624910761
 40
0.5937309138
 40
0.6249668228
 40
0.6562042143
 40
0.6874482409
 40
0.749953961
 40
0.8125006768
 40
0.8750633781
 40
0.9375817185
 40
1.0
 40
1.0
 40
1.0
 40
1.0
 10
27.0656677165
 20
14.7234968138
 30
0.0
 10
27.0623128587
 20
14.7339716715
 30
0.0
 10
27.0548303879
 20
14.7546957532
 30
0.0
 10
27.0434545934
 20
14.7797859319
 30
0.0
 10
27.0330785371
 20
14.799214819
 30
0.0
 10
27.0260512099
 20
14.8110528359
 30
0.0
 10
27.0200989256
 20
14.8203140881
 30
0.0
 10
27.0139263214
 20
14.8294325013
 30
0.0
 10
27.0058094459
 20
14.8405593846
 30
0.0
 10
26.9954661079
 20
14.8534577049
 30
0.0
 10
26.9845530418
 20
14.8658904918
 30
0.0
 10
26.9731051194
 20
14.8778436589
 30
0.0
 10
26.9611570943
 20
14.8893031686
 30
0.0
 10
26.9487430196
 20
14.9002562211
 30
0.0
 10
26.9316172363
 20
14.9141621168
 30
0.0
 10
26.9136548103
 20
14.9269997623
 30
0.0
 10
26.8949614866
 20
14.9386868479
 30
0.0
 10
26.880594417
 20
14.9468625871
 30
0.0
 10
26.8659029489
 20
14.9544315744
 30
0.0
 10
26.850907688
 20
14.9613755045
 30
0.0
 10
26.8356340722
 20
14.9676858816
 30
0.0
 10
26.814936428
 20
14.975255399
 30
0.0
 10
26.7884998857
 20
14.9831328204
 30
0.0
 10
26.7561207355
 20
14.9900355153
 30
0.0
 10
26.7232972957
 20
14.9943853566
 30
0.0
 10
26.6902575518
 20
14.9961358114
 30
0.0
 10
26.6682126581
 20
14.9955350722
 30
0.0
 10
26.6572349947
 20
14.9947833577
 30
0.0
 11
27.0656677165
 21
14.7234968138
 31
0.0
 11
27.0544304961
 21
14.7545213897
 31
0.0
 11
27.0407543339
 21
14.7845893736
 31
0.0
 11
27.0329692867
 21
14.7991552234
 31
0.0
 11
27.0245356688
 21
14.8133506211
 31
0.0
 11
27.0200716884
 21
14.8202957775
 31
0.0
 11
27.0154435379
 21
14.8271336652
 31
0.0
 11
27.0057115994
 21
14.8404802614
 31
0.0
 11
26.9953744457
 21
14.8533761909
 31
0.0
 11
26.9844668385
 21
14.8658073401
 31
0.0
 11
26.9730235396
 21
14.8777595951
 31
0.0
 11
26.9610793108
 21
14.8892188425
 31
0.0
 11
26.9486688953
 21
14.9001709642
 31
0.0
 11
26.9358233589
 21
14.9106010098
 31
0.0
 11
26.9089177464
 21
14.9298274988
 31
0.0
 11
26.8949014658
 21
14.9385898893
 31
0.0
 11
26.8805387327
 21
14.946762342
 31
0.0
 11
26.8658514449
 21
14.9543278303
 31
0.0
 11
26.8508616503
 21
14.9612697641
 31
0.0
 11
26.8355941928
 21
14.9675796796
 31
0.0
 11
26.8200763909
 21
14.9732563042
 31
0.0
 11
26.7883993687
 21
14.9827055819
 31
0.0
 11
26.7560498136
 21
14.9896094004
 31
0.0
 11
26.7232496857
 21
14.9939530609
 31
0.0
 11
26.6902325368
 21
14.9956942572
 31
0.0
 11
26.6572349947
 21
14.9947833577
 31
0.0
  0
ENDSEC
  0
SECTION
  2
OBJECTS
  0
DICTIONARY
  5
C
100
AcDbDictionary
280
0
281
1
  3
ACAD_GROUP
350
D
  3
ACAD_MLINESTYLE
350
17
  3
ACAD_LAYOUT
350
1A
  3
ACAD_PLOTSETTINGS
350
19
  3
ACAD_PLOTSTYLENAME
350
E
  0
DICTIONARY
  5
D
102
{ACAD_REACTORS
330
C
102
}
100
AcDbDictionary
280
0
281
1
  0
ACDBDICTIONARYWDFLT
  5
E
102
{ACAD_REACTORS
330
C
102
}
100
AcDbDictionary
281
1
  3
Normal
350
F
100
AcDbDictionaryWithDefault
340
F
  0
DICTIONARY
  5
17
102
{ACAD_REACTORS
330
C
102
}
100
AcDbDictionary
280
0
281
1
  3
Standard
350
18
  0
DICTIONARY
  5
19
102
{ACAD_REACTORS
330
C
102
}
100
AcDbDictionary
281
1
  0
DICTIONARY
  5
1A
102
{ACAD_REACTORS
330
C
102
}
100
AcDbDictionary
281
1
  3
Model
350
23A
  3
Layout1
350
23B
  0
ACDBPLACEHOLDER
  5
F
102
{ACAD_REACTORS
330
E
102
}
  0
MLINESTYLE
  5
18
102
{ACAD_REACTORS
330
17
102
}
100
AcDbMlineStyle
  2
STANDARD
 70
0
  3

 62
256
 51
90.0
 52
90.0
 71
2
 49
0.5
 62
256
  6
BYLAYER
 49
-0.5
 62
256
  6
BYLAYER
  0
LAYOUT
  5
23A
102
{ACAD_REACTORS
330
1A
102
}
100
AcDbPlotSettings
  1

  2
none_device
  4
ANSI_D_(34.00_x_22.00_Inches)
  6

 40
0.0
 41
0.0
 42
0.0
 43
0.0
 44
863.6
 45
558.8
 46
0.0
 47
0.0
 48
0.0
 49
0.0
140
0.0
141
0.0
142
1.0
143
1.0
 70
1024
 72
0
 73
0
 74
0
  7

 75
0
147
1.0
148
0.0
149
0.0
100
AcDbLayout
  1
Model
 70
0
 71
0
 10
0.0
 20
0.0
 11
34.0
 21
22.0
 12
0.0
 22
0.0
 32
0.0
 14
0.0
 24
0.0
 34
0.0
 15
0.0
 25
0.0
 35
0.0
146
0.0
 13
0.0
 23
0.0
 33
0.0
 16
1.0
 26
0.0
 36
0.0
 17
0.0
 27
1.0
 37
0.0
 76
0
330
203
345
0
346
0
  0
LAYOUT
  5
23B
102
{ACAD_REACTORS
330
1A
102
}
100
AcDbPlotSettings
  1

  2
none_device
  4
ANSI_D_(34.00_x_22.00_Inches)
  6

 40
0.0
 41
0.0
 42
0.0
 43
0.0
 44
863.6
 45
558.8
 46
0.0
 47
0.0
 48
0.0
 49
0.0
140
0.0
141
0.0
142
1.0
143
1.0
 70
0
 72
0
 73
0
 74
0
  7

 75
0
147
1.0
148
0.0
149
0.0
100
AcDbLayout
  1
Layout1
 70
0
 71
1
 10
0.0
 20
0.0
 11
34.0
 21
22.0
 12
0.0
 22
0.0
 32
0.0
 14
0.0
 24
0.0
 34
0.0
 15
0.0
 25
0.0
 35
0.0
146
0.0
 13
0.0
 23
0.0
 33
0.0
 16
1.0
 26
0.0
 36
0.0
 17
0.0
 27
1.0
 37
0.0
 76
0
330
204
345
0
346
0
  0
ENDSEC
  0
EOF
