  0
SECTION
  2
HEADER
  9
$ACADVER
  1
AC1015
  9
$DWGCODEPAGE
  3
ANSI_1252
  9
$EXTMAX
 10
11.6929133858
 20
8.2677165354
 30
0.0
  9
$EXTMIN
 10
0.0
 20
0.0
 30
0.0
  9
$LIMMIN
 10
0.0
 20
0.0
  9
$LIMMAX
 10
11.6929133858
 20
8.2677165354
  9
$VIEWCTR
 10
5.8464566929
 20
4.1338582677
  9
$VIEWSIZE
 40
8.2677165354
  9
$CLAYER
  8
0
  9
$LTSCALE
 40
0.6431102362
  9
$CELTYPE
  6
BYLAYER
  9
$DIMSCALE
 40
1.0
  9
$DIMASZ
 40
0.1875
  9
$DIMEXO
 40
0.0730807087
  9
$DIMDLI
 40
0.4443307087
  9
$DIMEXE
 40
0.2104724409
  9
$DIMCEN
 40
0.1052362205
  9
$DIMLFAC
 40
1.0
  9
$DIMBLK
  1
_CLOSED
  9
$DIMTXT
 40
0.15625
  9
$DIMTOL
 70
0
  9
$DIMLIM
 70
0
  9
$DIMTFAC
 40
1.0
  9
$PDMODE
 70
3
  9
$PDSIZE
 40
0.3125
  9
$HANDSEED
  5
270
  9
$TILEMODE
 70
1
  9
$MEASUREMENT
 70
0
  9
$INSUNITS
 70
1
  0
ENDSEC
  0
SECTION
  2
CLASSES
  0
CLASS
  1
ACDBDICTIONARYWDFLT
  2
AcDbDictionaryWithDefault
  3
AutoCAD 2000
 90
0
280
0
281
0
  0
CLASS
  1
ACDBPLACEHOLDER
  2
AcDbPlaceHolder
  3
AutoCAD 2000
 90
0
280
0
281
0
  0
CLASS
  1
LAYOUT
  2
AcDbLayout
  3
AutoCAD 2000
 90
0
280
0
281
0
  0
ENDSEC
  0
SECTION
  2
TABLES
  0
TABLE
  2
VPORT
  5
8
100
AcDbSymbolTable
 70
2
  0
VPORT
  5
1F4
100
AcDbSymbolTableRecord
100
AcDbViewportTableRecord
  2
*ACTIVE
 70
0
 10
0.0
 20
0.0
 11
1.0
 21
1.0
 12
5.8464566929
 22
4.1338582677
 13
0.0
 23
0.0
 14
1.0
 24
1.0
 15
0.0
 25
0.0
 16
0.0
 26
0.0
 36
1.0
 17
0.0
 27
0.0
 37
0.0
 40
8.2677165354
 41
1.4142857143
 42
50.0
 43
0.0
 44
0.0
 50
0.0
 51
0.0
 71
0
 72
100
 73
1
 74
1
 75
0
 76
0
 77
0
 78
0
  0
ENDTAB
  0
TABLE
  2
LTYPE
  5
5
100
AcDbSymbolTable
 70
6
  0
LTYPE
  5
14
100
AcDbSymbolTableRecord
100
AcDbLinetypeTableRecord
  2
BYBLOCK
 70
0
  3

 72
65
 73
0
 40
0.0
  0
LTYPE
  5
15
100
AcDbSymbolTableRecord
100
AcDbLinetypeTableRecord
  2
BYLAYER
 70
0
  3

 72
65
 73
0
 40
0.0
  0
LTYPE
  5
16
100
AcDbSymbolTableRecord
100
AcDbLinetypeTableRecord
  2
CONTINUOUS
 70
64
  3
Solid line
 72
65
 73
0
 40
0.0
  0
LTYPE
  5
1F5
100
AcDbSymbolTableRecord
100
AcDbLinetypeTableRecord
  2
CENTER
 70
64
  3
____ _ ____ _ ____ _ ____ _ ____ _ ____ _ ____
 72
65
 73
4
 40
0.6
 49
0.375
 74
0
 49
-0.075
 74
0
 49
0.075
 74
0
 49
-0.075
 74
0
  0
LTYPE
  5
1F6
100
AcDbSymbolTableRecord
100
AcDbLinetypeTableRecord
  2
HIDDEN
 70
64
  3
- - - - - - - - - - - - - - - - - - - -
 72
65
 73
2
 40
0.2
 49
0.1
 74
0
 49
-0.1
 74
0
  0
LTYPE
  5
1F7
100
AcDbSymbolTableRecord
100
AcDbLinetypeTableRecord
  2
PHANTOM
 70
64
  3
_____ _ _ _____ _ _ _____ _ _ _____
 72
65
 73
6
 40
0.8
 49
0.45
 74
0
 49
-0.05
 74
0
 49
0.1
 74
0
 49
-0.05
 74
0
 49
0.1
 74
0
 49
-0.05
 74
0
  0
LTYPE
  5
1F8
100
AcDbSymbolTableRecord
100
AcDbLinetypeTableRecord
  2
DOT
 70
64
  3
. . . . . . . . . . . . . . . . . . . .
 72
65
 73
2
 40
0.2
 49
0.1
 74
0
 49
-0.1
 74
0
  0
LTYPE
  5
1F9
100
AcDbSymbolTableRecord
100
AcDbLinetypeTableRecord
  2
DASHED
 70
64
  3
- - - - - - - - - - - - - - - - - - - -
 72
65
 73
2
 40
0.2
 49
0.1
 74
0
 49
-0.1
 74
0
  0
ENDTAB
  0
TABLE
  2
LAYER
  5
2
100
AcDbSymbolTable
 70
36
  0
LAYER
  5
10
100
AcDbSymbolTableRecord
100
AcDbLayerTableRecord
  2
0
 70
0
 62
7
  6
CONTINUOUS
370
-3
390
F
  0
LAYER
  5
1FA
100
AcDbSymbolTableRecord
100
AcDbLayerTableRecord
  2
DEFAULT_1
 70
0
 62
7
  6
CENTER
370
-3
390
F
  0
LAYER
  5
1FB
100
AcDbSymbolTableRecord
100
AcDbLayerTableRecord
  2
DEFAULT_2
 70
0
 62
8
  6
HIDDEN
370
-3
390
F
  0
LAYER
  5
1FC
100
AcDbSymbolTableRecord
100
AcDbLayerTableRecord
  2
DEFAULT_3
 70
0
 62
7
  6
PHANTOM
370
-3
390
F
  0
LAYER
  5
1FD
100
AcDbSymbolTableRecord
100
AcDbLayerTableRecord
  2
DEFAULT_COORDINATE_SYSTEM
 70
0
 62
7
  6
CONTINUOUS
370
-3
390
F
  0
LAYER
  5
1FE
100
AcDbSymbolTableRecord
100
AcDbLayerTableRecord
  2
DEFAULT_DATUM_AXES
 70
0
 62
7
  6
CONTINUOUS
370
-3
390
F
  0
LAYER
  5
1FF
100
AcDbSymbolTableRecord
100
AcDbLayerTableRecord
  2
DEFAULT_DATUM_CURVES
 70
0
 62
7
  6
CONTINUOUS
370
-3
390
F
  0
LAYER
  5
200
100
AcDbSymbolTableRecord
100
AcDbLayerTableRecord
  2
DEFAULT_DATUM_PLANES
 70
0
 62
7
  6
CONTINUOUS
370
-3
390
F
  0
ENDTAB
  0
TABLE
  2
STYLE
  5
3
100
AcDbSymbolTable
 70
1
  0
STYLE
  5
11
100
AcDbSymbolTableRecord
100
AcDbTextStyleTableRecord
  2
STANDARD
 70
0
 40
0.0
 41
0.8
 50
0.0
 71
0
 42
0.2
  3
txt
  4

  0
STYLE
  5
201
100
AcDbSymbolTableRecord
100
AcDbTextStyleTableRecord
  2
TEXTSTYLE_1
 70
0
 40
0.0
 41
0.8
 50
0.0
 71
0
 42
0.2
  3
gdt
  4

  0
ENDTAB
  0
TABLE
  2
VIEW
  5
6
100
AcDbSymbolTable
 70
0
  0
ENDTAB
  0
TABLE
  2
UCS
  5
7
100
AcDbSymbolTable
 70
0
  0
ENDTAB
  0
TABLE
  2
APPID
  5
9
100
AcDbSymbolTable
 70
1
  0
APPID
  5
202
100
AcDbSymbolTableRecord
100
AcDbRegAppTableRecord
  2
ACAD
 70
0
  0
ENDTAB
  0
TABLE
  2
BLOCK_RECORD
  5
1
100
AcDbSymbolTable
 70
0
  0
BLOCK_RECORD
  5
203
100
AcDbSymbolTableRecord
100
AcDbBlockTableRecord
  2
*Model_Space
  0
BLOCK_RECORD
  5
204
100
AcDbSymbolTableRecord
100
AcDbBlockTableRecord
  2
*Paper_Space
  0
ENDTAB
  0
TABLE
  2
DIMSTYLE
  5
A
100
AcDbSymbolTable
 70
1
100
AcDbDimStyleTable
 71
0
  0
DIMSTYLE
105
205
100
AcDbSymbolTableRecord
100
AcDbDimStyleTableRecord
  2
STANDARD
 70
0
  3

  4

 40
1.0
 41
0.1875
 42
0.0625
 43
0.38
 44
0.18
 45
0.0
 46
0.0
 47
0.01
 48
0.01
140
0.15625
141
0.09
142
0.0
143
25.4
144
1.0
145
0.0
146
1.0
147
0.09
 71
0.0
 72
0.0
 73
1
 74
1
 75
0
 76
0
 77
0
 78
4
170
0
171
2
172
0
173
0
174
0
175
0
176
0
177
0
178
0
270
2
271
2
272
2
273
2
274
2
275
0
280
0
281
0
282
0
283
1
284
4
285
0
286
0
287
3
288
0
340
11
  0
ENDTAB
  0
ENDSEC
  0
SECTION
  2
BLOCKS
  0
BLOCK
  5
20
100
AcDbEntity
  8
0
100
AcDbBlockBegin
  2
*Model_Space
 70
0
 10
0.0
 20
0.0
 30
0.0
  3
*Model_Space
  1

  0
ENDBLK
  5
21
100
AcDbEntity
  8
0
100
AcDbBlockEnd
  0
BLOCK
  5
1C
100
AcDbEntity
  8
0
100
AcDbBlockBegin
  2
*Paper_Space
 70
0
 10
0.0
 20
0.0
 30
0.0
  3
*Paper_Space
  1

  0
ENDBLK
  5
1D
100
AcDbEntity
  8
0
100
AcDbBlockEnd
  0
ENDSEC
  0
SECTION
  2
ENTITIES
  0
LINE
  5
206
100
AcDbEntity
  8
0
100
AcDbLine
 62
6
  6
CONTINUOUS
 10
5.368255634
 20
2.7186169563
 11
6.106255634
 21
2.7186169563
  0
LINE
  5
207
100
AcDbEntity
  8
0
100
AcDbLine
 62
6
  6
CONTINUOUS
 10
5.3287288016
 20
2.7679300619
 11
5.3667848253
 21
2.7459303378
  0
LINE
  5
208
100
AcDbEntity
  8
0
100
AcDbLine
 62
6
  6
CONTINUOUS
 10
5.3287288016
 20
2.8393600619
 11
5.3667848253
 21
2.8173603378
  0
LINE
  5
209
100
AcDbEntity
  8
0
100
AcDbLine
 62
6
  6
CONTINUOUS
 10
5.3287288016
 20
2.9107900619
 11
5.3667848253
 21
2.8887903378
  0
LINE
  5
20A
100
AcDbEntity
  8
0
100
AcDbLine
 62
6
  6
CONTINUOUS
 10
5.3287288016
 20
2.9822200619
 11
5.3667848253
 21
2.9602203378
  0
LINE
  5
20B
100
AcDbEntity
  8
0
100
AcDbLine
 62
6
  6
CONTINUOUS
 10
5.368255634
 20
2.7186169563
 11
5.361628515
 21
2.7252440753
  0
LINE
  5
20C
100
AcDbEntity
  8
0
100
AcDbLine
 62
6
  6
CONTINUOUS
 10
5.3287288016
 20
2.7679300619
 11
5.328255634
 21
2.7684769862
  0
LINE
  5
20D
100
AcDbEntity
  8
0
100
AcDbLine
 62
6
  6
CONTINUOUS
 10
5.3397778461
 20
2.9986169563
 11
6.1123644619
 21
2.9986169563
  0
LINE
  5
20E
100
AcDbEntity
  8
0
100
AcDbLine
 62
6
  6
CONTINUOUS
 10
5.3287288016
 20
2.8393600619
 11
5.328255634
 21
2.8399069645
  0
LINE
  5
20F
100
AcDbEntity
  8
0
100
AcDbLine
 62
6
  6
CONTINUOUS
 10
5.3287288016
 20
2.9107900619
 11
5.328255634
 21
2.9113369563
  0
LINE
  5
210
100
AcDbEntity
  8
0
100
AcDbLine
 62
6
  6
CONTINUOUS
 10
5.328255634
 20
2.9827669587
 11
5.3287288016
 21
2.9822200619
  0
LINE
  5
211
100
AcDbEntity
  8
0
100
AcDbLine
 62
6
  6
CONTINUOUS
 10
5.1722602363
 20
3.0786169563
 11
6.3022510317
 21
3.0786169563
  0
LINE
  5
212
100
AcDbEntity
  8
0
100
AcDbLine
 62
6
  6
CONTINUOUS
 10
6.135395444
 20
2.7482422046
 11
6.1077264427
 21
2.7642378522
  0
LINE
  5
213
100
AcDbEntity
  8
0
100
AcDbLine
 62
6
  6
CONTINUOUS
 10
6.302255634
 20
3.1786169563
 11
5.172255634
 21
3.1786169563
  0
LINE
  5
214
100
AcDbEntity
  8
0
100
AcDbLine
 62
6
  6
CONTINUOUS
 10
6.1457824665
 20
2.8136681279
 11
6.1077264427
 21
2.8356678522
  0
LINE
  5
215
100
AcDbEntity
  8
0
100
AcDbLine
 62
6
  6
CONTINUOUS
 10
6.1457824665
 20
2.8850981279
 11
6.1077264427
 21
2.9070978522
  0
LINE
  5
216
100
AcDbEntity
  8
0
100
AcDbLine
 62
9
  6
CONTINUOUS
 10
6.202255634
 20
3.2786169563
 11
5.272255634
 21
3.2786169563
  0
LINE
  5
217
100
AcDbEntity
  8
0
100
AcDbLine
 62
6
  6
CONTINUOUS
 10
6.1457824665
 20
2.9565281279
 11
6.1077264427
 21
2.9785278522
  0
LINE
  5
218
100
AcDbEntity
  8
0
100
AcDbLine
 62
6
  6
CONTINUOUS
 10
5.172255634
 20
3.1786169563
 11
5.172255634
 21
3.0786169563
  0
LINE
  5
219
100
AcDbEntity
  8
0
100
AcDbLine
 62
6
  6
CONTINUOUS
 10
5.272255634
 20
3.9848964234
 11
5.272255634
 21
3.2786169563
  0
LINE
  5
21A
100
AcDbEntity
  8
0
100
AcDbLine
 62
6
  6
CONTINUOUS
 10
6.1457824665
 20
2.8136681279
 11
6.146255634
 21
2.8131212336
  0
LINE
  5
21B
100
AcDbEntity
  8
0
100
AcDbLine
 62
6
  6
CONTINUOUS
 10
6.1457824665
 20
2.8850981279
 11
6.146255634
 21
2.884551256
  0
LINE
  5
21C
100
AcDbEntity
  8
0
100
AcDbLine
 62
6
  6
CONTINUOUS
 10
5.328255634
 20
2.7684769563
 11
5.328255634
 21
2.7774062335
  0
LINE
  5
21D
100
AcDbEntity
  8
0
100
AcDbLine
 62
6
  6
CONTINUOUS
 10
5.328255634
 20
2.8399069563
 11
5.328255634
 21
2.8488362335
  0
LINE
  5
21E
100
AcDbEntity
  8
0
100
AcDbLine
 62
6
  6
CONTINUOUS
 10
5.328255634
 20
2.9113369563
 11
5.328255634
 21
2.9202662335
  0
LINE
  5
21F
100
AcDbEntity
  8
0
100
AcDbLine
 62
6
  6
CONTINUOUS
 10
5.328255634
 20
2.9827669563
 11
5.328255634
 21
2.9916962335
  0
LINE
  5
220
100
AcDbEntity
  8
0
100
AcDbLine
 62
6
  6
CONTINUOUS
 10
5.366915634
 20
2.9604465949
 11
5.366915634
 21
2.9428884782
  0
LINE
  5
221
100
AcDbEntity
  8
0
100
AcDbLine
 62
6
  6
CONTINUOUS
 10
5.366915634
 20
2.8890165949
 11
5.366915634
 21
2.8714584782
  0
LINE
  5
222
100
AcDbEntity
  8
0
100
AcDbLine
 62
6
  6
CONTINUOUS
 10
5.366915634
 20
2.8175865949
 11
5.366915634
 21
2.8000284782
  0
LINE
  5
223
100
AcDbEntity
  8
0
100
AcDbLine
 62
6
  6
CONTINUOUS
 10
5.366915634
 20
2.7461565949
 11
5.366915634
 21
2.7285984718
  0
LINE
  5
224
100
AcDbEntity
  8
0
100
AcDbLine
 62
6
  6
CONTINUOUS
 10
5.372255634
 20
2.9986169563
 11
5.372255634
 21
3.0786169563
  0
LINE
  5
225
100
AcDbEntity
  8
0
100
AcDbLine
 62
6
  6
CONTINUOUS
 10
6.107595634
 20
2.9783015949
 11
6.1070732712
 21
2.9789054777
  0
LINE
  5
226
100
AcDbEntity
  8
0
100
AcDbLine
 62
6
  6
CONTINUOUS
 10
6.146255634
 20
2.9559812341
 11
6.1457824665
 21
2.9565281279
  0
LINE
  5
227
100
AcDbEntity
  8
0
100
AcDbLine
 62
6
  6
CONTINUOUS
 10
6.135395444
 20
2.7482422046
 11
6.1355252317
 21
2.747886554
  0
LINE
  5
228
100
AcDbEntity
  8
0
100
AcDbLine
 62
6
  6
CONTINUOUS
 10
5.3617659517
 20
2.725621165
 11
5.3616284283
 21
2.725244162
  0
LINE
  5
229
100
AcDbEntity
  8
0
100
AcDbLine
 62
6
  6
CONTINUOUS
 10
6.102255634
 20
2.9986169563
 11
6.102255634
 21
3.0786169563
  0
LINE
  5
22A
100
AcDbEntity
  8
0
100
AcDbLine
 62
6
  6
CONTINUOUS
 10
6.107595634
 20
2.7640115949
 11
6.107595634
 21
2.7815697119
  0
LINE
  5
22B
100
AcDbEntity
  8
0
100
AcDbLine
 62
6
  6
CONTINUOUS
 10
6.107595634
 20
2.8354415949
 11
6.107595634
 21
2.8529997119
  0
LINE
  5
22C
100
AcDbEntity
  8
0
100
AcDbLine
 62
6
  6
CONTINUOUS
 10
6.107595634
 20
2.9068715949
 11
6.107595634
 21
2.9244297119
  0
LINE
  5
22D
100
AcDbEntity
  8
0
100
AcDbLine
 62
6
  6
CONTINUOUS
 10
6.107595634
 20
2.9783015949
 11
6.107595634
 21
2.9958597184
  0
LINE
  5
22E
100
AcDbEntity
  8
0
100
AcDbLine
 62
6
  6
CONTINUOUS
 10
6.146255634
 20
2.8041919563
 11
6.146255634
 21
2.8131212335
  0
LINE
  5
22F
100
AcDbEntity
  8
0
100
AcDbLine
 62
6
  6
CONTINUOUS
 10
6.146255634
 20
2.8756219563
 11
6.146255634
 21
2.8845512335
  0
LINE
  5
230
100
AcDbEntity
  8
0
100
AcDbLine
 62
6
  6
CONTINUOUS
 10
6.146255634
 20
2.9470519563
 11
6.146255634
 21
2.9559812335
  0
LINE
  5
231
100
AcDbEntity
  8
0
100
AcDbLine
 62
6
  6
CONTINUOUS
 10
5.328255634
 20
2.991696235
 11
5.3287288015
 21
2.9922431279
  0
LINE
  5
232
100
AcDbEntity
  8
0
100
AcDbLine
 62
6
  6
CONTINUOUS
 10
5.3287288015
 20
2.9208131279
 11
5.328255634
 21
2.9202663239
  0
LINE
  5
233
100
AcDbEntity
  8
0
100
AcDbLine
 62
6
  6
CONTINUOUS
 10
5.3287288015
 20
2.8493831279
 11
5.328255634
 21
2.8488362335
  0
LINE
  5
234
100
AcDbEntity
  8
0
100
AcDbLine
 62
6
  6
CONTINUOUS
 10
6.202255634
 20
3.9849108267
 11
6.202255634
 21
3.2786169563
  0
LINE
  5
235
100
AcDbEntity
  8
0
100
AcDbLine
 62
6
  6
CONTINUOUS
 10
5.328255634
 20
2.7774062312
 11
5.3287288015
 21
2.7779531279
  0
LINE
  5
236
100
AcDbEntity
  8
0
100
AcDbLine
 62
6
  6
CONTINUOUS
 10
6.302255634
 20
3.1786169563
 11
6.302255634
 21
3.0786169563
  0
LINE
  5
237
100
AcDbEntity
  8
0
100
AcDbLine
 62
6
  6
CONTINUOUS
 10
5.3397554715
 20
2.9986169563
 11
5.3287288015
 21
2.9922431279
  0
LINE
  5
238
100
AcDbEntity
  8
0
100
AcDbLine
 62
6
  6
CONTINUOUS
 10
5.3674379968
 20
2.9431904777
 11
5.3287288015
 21
2.9208131279
  0
LINE
  5
239
100
AcDbEntity
  8
0
100
AcDbLine
 62
6
  6
CONTINUOUS
 10
5.3674379968
 20
2.8717604777
 11
5.3287288015
 21
2.8493831279
  0
LINE
  5
23A
100
AcDbEntity
  8
0
100
AcDbLine
 62
6
  6
CONTINUOUS
 10
5.3674379968
 20
2.8003304777
 11
5.3287288015
 21
2.7779531279
  0
LINE
  5
23B
100
AcDbEntity
  8
0
100
AcDbLine
 62
6
  6
CONTINUOUS
 10
5.3674379968
 20
2.7289004777
 11
5.3617659517
 21
2.725621165
  0
LINE
  5
23C
100
AcDbEntity
  8
0
100
AcDbLine
 62
6
  6
CONTINUOUS
 10
6.146255634
 20
2.9470519564
 11
6.1457824664
 21
2.9465050619
  0
LINE
  5
23D
100
AcDbEntity
  8
0
100
AcDbLine
 62
6
  6
CONTINUOUS
 10
6.1457824664
 20
2.8750750619
 11
6.146255634
 21
2.8756219564
  0
LINE
  5
23E
100
AcDbEntity
  8
0
100
AcDbLine
 62
6
  6
CONTINUOUS
 10
6.1457824664
 20
2.8036450619
 11
6.146255634
 21
2.8041919564
  0
LINE
  5
23F
100
AcDbEntity
  8
0
100
AcDbLine
 62
6
  6
CONTINUOUS
 10
6.1070732712
 20
2.9955577121
 11
6.1123646686
 21
2.9986169563
  0
LINE
  5
240
100
AcDbEntity
  8
0
100
AcDbLine
 62
6
  6
CONTINUOUS
 10
6.106255634
 20
2.7186169563
 11
6.1355251557
 21
2.747886478
  0
LINE
  5
241
100
AcDbEntity
  8
0
100
AcDbLine
 62
6
  6
CONTINUOUS
 10
6.1070732712
 20
2.9241277121
 11
6.1457824664
 21
2.9465050619
  0
LINE
  5
242
100
AcDbEntity
  8
0
100
AcDbLine
 62
6
  6
CONTINUOUS
 10
6.1070732712
 20
2.8526977121
 11
6.1457824664
 21
2.8750750619
  0
LINE
  5
243
100
AcDbEntity
  8
0
100
AcDbLine
 62
6
  6
CONTINUOUS
 10
6.1070732712
 20
2.7812677121
 11
6.1457824664
 21
2.8036450619
  0
ARC
  5
244
100
AcDbEntity
  8
0
100
AcDbCircle
 62
6
  6
CONTINUOUS
 10
5.5114676145
 20
0.7038671581
 40
2.2973721513
100
AcDbArc
 50
92.737845028
 51
93.4838187281
  0
ARC
  5
245
100
AcDbEntity
  8
0
100
AcDbCircle
 62
6
  6
CONTINUOUS
 10
5.737255634
 20
4.2786169563
 40
1.0
100
AcDbArc
 50
297.7837785286
 51
242.2162214714
  0
CIRCLE
  5
246
100
AcDbEntity
  8
0
100
AcDbCircle
 62
6
  6
CONTINUOUS
 10
5.737255634
 20
4.2786169563
 40
0.55
  0
ARC
  5
247
100
AcDbEntity
  8
0
100
AcDbCircle
 62
6
  6
CONTINUOUS
 10
5.172255634
 20
3.2786169563
 40
0.1
100
AcDbArc
 50
270.0
 51
360.0
  0
ARC
  5
248
100
AcDbEntity
  8
0
100
AcDbCircle
 62
6
  6
CONTINUOUS
 10
6.302255634
 20
3.2786169563
 40
0.1
100
AcDbArc
 50
180.0
 51
270.0
  0
ARC
  5
249
100
AcDbEntity
  8
0
100
AcDbCircle
 62
6
  6
CONTINUOUS
 10
5.3756929283
 20
2.6488386081
 40
0.0782539408
100
AcDbArc
 50
96.7813865445
 51
97.2081656205
  0
SPLINE
  5
24A
100
AcDbEntity
  8
0
100
AcDbSpline
 62
6
  6
CONTINUOUS
 70
0
 71
3
 72
40
 73
36
 74
34
 42
0.0000001
 43
0.0000001
 44
0.0000000001
 12
-0.0003093029
 22
0.409860627
 32
0.0
 13
0.4097025061
 23
0.0113879642
 33
0.0
 40
0.0
 40
0.0
 40
0.0
 40
0.0
 40
0.0003485281
 40
0.000756616
 40
0.001263354
 40
0.0018896601
 40
0.0026466006
 40
0.0035402356
 40
0.0045740919
 40
0.0057503458
 40
0.008534895
 40
0.0119005426
 40
0.0158498901
 40
0.0203837963
 40
0.0255020424
 40
0.0312025525
 40
0.037482154
 40
0.0443374326
 40
0.0597605323
 40
0.077440963
 40
0.097336423
 40
0.1193989575
 40
0.1435793515
 40
0.1698189471
 40
0.198053318
 40
0.2282173255
 40
0.294037413
 40
0.3666484552
 40
0.4453507604
 40
0.5293907805
 40
0.6179626095
 40
0.7102067307
 40
0.8052370558
 40
0.9021689993
 40
1.0
 40
1.0
 40
1.0
 40
1.0
 10
5.3282561025
 20
2.7684769855
 30
0.0
 10
5.3282560666
 20
2.7685246015
 30
0.0
 10
5.3282811834
 20
2.7686286328
 30
0.0
 10
5.32838272
 20
2.7687713104
 30
0.0
 10
5.3285425175
 20
2.7689101937
 30
0.0
 10
5.3287616055
 20
2.7690480902
 30
0.0
 10
5.3290408378
 20
2.7691860036
 30
0.0
 10
5.3293808297
 20
2.769324135
 30
0.0
 10
5.3297818043
 20
2.7694625278
 30
0.0
 10
5.3304355841
 20
2.7696584895
 30
0.0
 10
5.3314080003
 20
2.7698979863
 30
0.0
 10
5.3327602892
 20
2.7701731815
 30
0.0
 10
5.3343555717
 20
2.770449225
 30
0.0
 10
5.3361931924
 20
2.7707259838
 30
0.0
 10
5.3382723637
 20
2.7710031606
 30
0.0
 10
5.3405918584
 20
2.7712806742
 30
0.0
 10
5.3431501586
 20
2.7715584681
 30
0.0
 10
5.3470326595
 20
2.7719444575
 30
0.0
 10
5.3524711853
 20
2.7724209599
 30
0.0
 10
5.3596908622
 20
2.7729740231
 30
0.0
 10
5.3678198999
 20
2.7735280421
 30
0.0
 10
5.3768387428
 20
2.7740828833
 30
0.0
 10
5.38672578
 20
2.7746381812
 30
0.0
 10
5.3974572078
 20
2.7751938837
 30
0.0
 10
5.4090071112
 20
2.7757499706
 30
0.0
 10
5.4259606796
 20
2.7765140768
 30
0.0
 10
5.4489748513
 20
2.7774598636
 30
0.0
 10
5.4786190783
 20
2.7785663407
 30
0.0
 10
5.5107540574
 20
2.7796741831
 30
0.0
 10
5.5450707687
 20
2.7807830336
 30
0.0
 10
5.5812384534
 20
2.7818925897
 30
0.0
 10
5.6189082937
 20
2.7830026663
 30
0.0
 10
5.6577207613
 20
2.7841131439
 30
0.0
 10
5.6972968096
 20
2.7852237784
 30
0.0
 10
5.7238950986
 20
2.785963091
 30
0.0
 10
5.737255634
 20
2.7863344563
 30
0.0
 11
5.3282561025
 21
2.7684769855
 31
0.0
 11
5.3282867799
 21
2.7686165006
 31
0.0
 11
5.3283790362
 21
2.7687560155
 31
0.0
 11
5.3285328919
 21
2.7688955304
 31
0.0
 11
5.3287483672
 21
2.7690350452
 31
0.0
 11
5.3290254676
 21
2.7691745599
 31
0.0
 11
5.3293641215
 21
2.7693140744
 31
0.0
 11
5.3297642325
 21
2.7694535888
 31
0.0
 11
5.3302257046
 21
2.769593103
 31
0.0
 11
5.3313323471
 21
2.7698721309
 31
0.0
 11
5.3326832792
 21
2.7701511579
 31
0.0
 11
5.3342777313
 21
2.770430184
 31
0.0
 11
5.3361149338
 21
2.770709209
 31
0.0
 11
5.3381940627
 21
2.7709882328
 31
0.0
 11
5.3405137572
 21
2.7712672556
 31
0.0
 11
5.3430723503
 21
2.7715462775
 31
0.0
 11
5.3458681713
 21
2.7718252985
 31
0.0
 11
5.3521648146
 21
2.7723833386
 31
0.0
 11
5.3593898105
 21
2.7729413771
 31
0.0
 11
5.3675250616
 21
2.7734994152
 31
0.0
 11
5.3765503931
 21
2.7740574537
 31
0.0
 11
5.386445264
 21
2.7746154938
 31
0.0
 11
5.3971853564
 21
2.7751735347
 31
0.0
 11
5.4087440537
 21
2.7757315746
 31
0.0
 11
5.4210944956
 21
2.7762896122
 31
0.0
 11
5.4480484692
 21
2.7774056826
 31
0.0
 11
5.4777879501
 21
2.7785217569
 31
0.0
 11
5.5100256219
 21
2.7796378323
 31
0.0
 11
5.5444522405
 21
2.7807539169
 31
0.0
 11
5.5807371941
 21
2.7818700457
 31
0.0
 11
5.6185279607
 21
2.7829861395
 31
0.0
 11
5.6574611674
 21
2.7841021954
 31
0.0
 11
5.6971740777
 21
2.7852185697
 31
0.0
 11
5.737255634
 21
2.7863344563
 31
0.0
  0
SPLINE
  5
24B
100
AcDbEntity
  8
0
100
AcDbSpline
 62
6
  6
CONTINUOUS
 70
0
 71
3
 72
28
 73
24
 74
22
 42
0.0000001
 43
0.0000001
 44
0.0000000001
 12
-0.0000469446
 22
0.0511613279
 32
0.0
 13
0.0510762857
 23
0.0029490194
 33
0.0
 40
0.0
 40
0.0
 40
0.0
 40
0.0
 40
0.0017610399
 40
0.0036546245
 40
0.0057892577
 40
0.0082417306
 40
0.0142786155
 40
0.0220065329
 40
0.031529544
 40
0.0429007506
 40
0.0561495178
 40
0.0712929527
 40
0.0883412716
 40
0.1073005452
 40
0.1509628421
 40
0.2022841041
 40
0.2612315799
 40
0.3277607795
 40
0.401822603
 40
0.4833650893
 40
0.572322547
 40
0.7720326817
 40
1.0
 40
1.0
 40
1.0
 40
1.0
 10
5.3282557503
 20
2.8399069631
 30
0.0
 10
5.3282557228
 20
2.8399369955
 30
0.0
 10
5.3282648637
 20
2.8399996231
 30
0.0
 10
5.3283048787
 20
2.8400908742
 30
0.0
 10
5.3283701175
 20
2.8401808897
 30
0.0
 10
5.328499321
 20
2.8403087341
 30
0.0
 10
5.3287305958
 20
2.8404639059
 30
0.0
 10
5.3290875465
 20
2.84063902
 30
0.0
 10
5.3295434758
 20
2.8408147827
 30
0.0
 10
5.3300986212
 20
2.840991111
 30
0.0
 10
5.3307534663
 20
2.8411678985
 30
0.0
 10
5.3315079932
 20
2.8413450152
 30
0.0
 10
5.3323621662
 20
2.8415223974
 30
0.0
 10
5.3336979781
 20
2.8417710019
 30
0.0
 10
5.3356172567
 20
2.8420766168
 30
0.0
 10
5.3382186708
 20
2.8424295584
 30
0.0
 10
5.3412130399
 20
2.8427833301
 30
0.0
 10
5.3445974888
 20
2.8431377969
 30
0.0
 10
5.3483690968
 20
2.8434927448
 30
0.0
 10
5.3525246763
 20
2.8438480912
 30
0.0
 10
5.3588188965
 20
2.8443414322
 30
0.0
 10
5.3676085893
 20
2.8449501972
 30
0.0
 10
5.3748887268
 20
2.8453928629
 30
0.0
 10
5.3787699681
 20
2.8456169563
 30
0.0
 11
5.3282557503
 21
2.8399069631
 31
0.0
 11
5.328268275
 21
2.8399961855
 31
0.0
 11
5.3283060207
 21
2.8400854081
 31
0.0
 11
5.3283689988
 21
2.840174631
 31
0.0
 11
5.3284572167
 21
2.8402638543
 31
0.0
 11
5.3287093044
 21
2.8404423013
 31
0.0
 11
5.3290621139
 21
2.8406207485
 31
0.0
 11
5.3295154685
 21
2.8407991954
 31
0.0
 11
5.3300691914
 21
2.8409776413
 31
0.0
 11
5.3307231058
 21
2.8411560856
 31
0.0
 11
5.3314770351
 21
2.8413345276
 31
0.0
 11
5.3323308023
 21
2.8415129666
 31
0.0
 11
5.3332842308
 21
2.8416914022
 31
0.0
 11
5.3354893642
 21
2.8420482601
 31
0.0
 11
5.3380906679
 21
2.8424051012
 31
0.0
 11
5.341085315
 21
2.8427619404
 31
0.0
 11
5.3444702801
 21
2.8431187952
 31
0.0
 11
5.3482425383
 21
2.8434756832
 31
0.0
 11
5.3523990641
 21
2.8438326221
 31
0.0
 11
5.3569362249
 21
2.8441896143
 31
0.0
 11
5.3671286923
 21
2.8449035389
 31
0.0
 11
5.3787699681
 21
2.8456169563
 31
0.0
  0
SPLINE
  5
24C
100
AcDbEntity
  8
0
100
AcDbSpline
 62
6
  6
CONTINUOUS
 70
0
 71
3
 72
9
 73
5
 74
3
 42
0.0000001
 43
0.0000001
 44
0.0000000001
 12
0.0000000011
 22
-0.0000885562
 32
0.0
 13
0.0000236892
 23
-0.0000853289
 33
0.0
 40
0.0
 40
0.0
 40
0.0
 40
0.0
 40
0.7456102022
 40
1.0
 40
1.0
 40
1.0
 40
1.0
 10
5.328255634
 20
2.8488362335
 30
0.0
 10
5.3282556343
 20
2.848814224
 30
0.0
 10
5.3282587896
 20
2.848784589
 30
0.0
 10
5.328265782
 20
2.8487559047
 30
0.0
 10
5.3282677907
 20
2.8487486691
 30
0.0
 11
5.328255634
 21
2.8488362335
 31
0.0
 11
5.3282624727
 21
2.8487705602
 31
0.0
 11
5.3282677907
 21
2.8487486691
 31
0.0
  0
SPLINE
  5
24D
100
AcDbEntity
  8
0
100
AcDbSpline
 62
6
  6
CONTINUOUS
 70
0
 71
3
 72
51
 73
47
 74
45
 42
0.0000001
 43
0.0000001
 44
0.0000000001
 12
0.6947010776
 22
0.0442974766
 32
0.0
 13
0.0000162669
 23
0.6961119547
 33
0.0
 40
0.0
 40
0.0
 40
0.0
 40
0.0
 40
0.0227188416
 40
0.0484625551
 40
0.0770402225
 40
0.1082569499
 40
0.1419097051
 40
0.1777672734
 40
0.2155872705
 40
0.2551110223
 40
0.3381916879
 40
0.4247563703
 40
0.5124572419
 40
0.5559896469
 40
0.5989155383
 40
0.6409425103
 40
0.6817863339
 40
0.721168156
 40
0.7588224322
 40
0.7944914848
 40
0.8279357291
 40
0.8589257534
 40
0.8872545794
 40
0.9127275155
 40
0.935176183
 40
0.9452169352
 40
0.9544466511
 40
0.9628508002
 40
0.9704150075
 40
0.9771260861
 40
0.9829750941
 40
0.9855740379
 40
0.987954808
 40
0.9901166871
 40
0.9920591056
 40
0.9937818376
 40
0.995285507
 40
0.9965714533
 40
0.9976420749
 40
0.9985018749
 40
0.9988555253
 40
0.9991607309
 40
0.9994206992
 40
0.9996406631
 40
0.9998292588
 40
1.0
 40
1.0
 40
1.0
 40
1.0
 10
5.4126551902
 20
2.8054365949
 30
0.0
 10
5.4179161248
 20
2.8057720573
 30
0.0
 10
5.4291420359
 20
2.8064316193
 30
0.0
 10
5.4469941756
 20
2.8073604926
 30
0.0
 10
5.4668204672
 20
2.8082907498
 30
0.0
 10
5.4884837182
 20
2.8092222142
 30
0.0
 10
5.5118375846
 20
2.8101544145
 30
0.0
 10
5.5367247613
 20
2.8110873991
 30
0.0
 10
5.5629751157
 20
2.8120207698
 30
0.0
 10
5.6001780392
 20
2.8132868876
 30
0.0
 10
5.6486878964
 20
2.8148510582
 30
0.0
 10
5.7083731762
 20
2.8167005641
 30
0.0
 10
5.7588867973
 20
2.8182459443
 30
0.0
 10
5.79927892
 20
2.8194948854
 30
0.0
 10
5.8290776547
 20
2.8204292052
 30
0.0
 10
5.8582522299
 20
2.8213634202
 30
0.0
 10
5.8866040256
 20
2.8222973819
 30
0.0
 10
5.9139406323
 20
2.8232311372
 30
0.0
 10
5.9400757873
 20
2.8241644445
 30
0.0
 10
5.9648322964
 20
2.8250973693
 30
0.0
 10
5.9880413212
 20
2.8260295224
 30
0.0
 10
6.0095457011
 20
2.8269609576
 30
0.0
 10
6.0291986394
 20
2.8278909634
 30
0.0
 10
6.0468672867
 20
2.8288195961
 30
0.0
 10
6.0602931845
 20
2.8296178533
 30
0.0
 10
6.0699519813
 20
2.8302648206
 30
0.0
 10
6.076356591
 20
2.8307314819
 30
0.0
 10
6.0821849291
 20
2.8311976445
 30
0.0
 10
6.0874268649
 20
2.8316631466
 30
0.0
 10
6.0920733653
 20
2.8321279817
 30
0.0
 10
6.0955681536
 20
2.8325284518
 30
0.0
 10
6.0980598465
 20
2.832852801
 30
0.0
 10
6.0997004883
 20
2.8330862144
 30
0.0
 10
6.1011871508
 20
2.8333194052
 30
0.0
 10
6.1025191099
 20
2.8335523279
 30
0.0
 10
6.1036958316
 20
2.833784914
 30
0.0
 10
6.1047169782
 20
2.8340170258
 30
0.0
 10
6.1055826527
 20
2.8342483857
 30
0.0
 10
6.1062928224
 20
2.8344788947
 30
0.0
 10
6.106784028
 20
2.834680805
 30
0.0
 10
6.1070951336
 20
2.8348469718
 30
0.0
 10
6.1072741389
 20
2.834963418
 30
0.0
 10
6.1074147271
 20
2.8350801455
 30
0.0
 10
6.1075170924
 20
2.8351979599
 30
0.0
 10
6.1075807082
 20
2.8353181141
 30
0.0
 10
6.107595633
 20
2.8354019765
 30
0.0
 10
6.107595634
 20
2.8354415949
 30
0.0
 11
5.4126551902
 21
2.8054365949
 31
0.0
 11
5.4284422464
 21
2.8063739144
 31
0.0
 11
5.4463381881
 21
2.8073119073
 31
0.0
 11
5.4662093295
 21
2.8082496539
 31
0.0
 11
5.4879194314
 21
2.8091872199
 31
0.0
 11
5.5113267446
 21
2.8101248519
 31
0.0
 11
5.5362700079
 21
2.8110625324
 31
0.0
 11
5.5625802568
 21
2.8120001951
 31
0.0
 11
5.5900772306
 21
2.8129378449
 31
0.0
 11
5.6478802626
 21
2.8148131574
 31
0.0
 11
5.7081097851
 21
2.8166884699
 31
0.0
 11
5.7691306007
 21
2.8185637824
 31
0.0
 11
5.7994195181
 21
2.8195014387
 31
0.0
 11
5.8292860291
 21
2.8204390949
 31
0.0
 11
5.8585264766
 21
2.8213767511
 31
0.0
 11
5.8869428848
 21
2.8223144074
 31
0.0
 11
5.9143410018
 21
2.8232520636
 31
0.0
 11
5.9405358171
 21
2.8241897199
 31
0.0
 11
5.96534776
 21
2.8251273761
 31
0.0
 11
5.9886098083
 21
2.8260650324
 31
0.0
 11
6.0101619473
 21
2.8270026886
 31
0.0
 11
6.0298596771
 21
2.8279403449
 31
0.0
 11
6.0475668838
 21
2.8288780011
 31
0.0
 11
6.0631655131
 21
2.8298156574
 31
0.0
 11
6.0701392594
 21
2.8302844855
 31
0.0
 11
6.0765470469
 21
2.8307533136
 31
0.0
 11
6.0823784597
 21
2.8312221417
 31
0.0
 11
6.0876230818
 21
2.8316909699
 31
0.0
 11
6.0922711594
 21
2.832159798
 31
0.0
 11
6.0963156417
 21
2.8326286261
 31
0.0
 11
6.0981095466
 21
2.8328630402
 31
0.0
 11
6.0997501671
 21
2.8330974542
 31
0.0
 11
6.101236708
 21
2.8333318683
 31
0.0
 11
6.1025683741
 21
2.8335662824
 31
0.0
 11
6.1037444545
 21
2.8338006964
 31
0.0
 11
6.1047645905
 21
2.8340351105
 31
0.0
 11
6.1056285154
 21
2.8342695246
 31
0.0
 11
6.1063359622
 21
2.8345039386
 31
0.0
 11
6.1068866643
 21
2.8347383527
 31
0.0
 11
6.1071031527
 21
2.8348555597
 31
0.0
 11
6.1072803548
 21
2.8349727667
 31
0.0
 11
6.1074182374
 21
2.8350899738
 31
0.0
 11
6.107516767
 21
2.8352071808
 31
0.0
 11
6.1075759103
 21
2.8353243878
 31
0.0
 11
6.107595634
 21
2.8354415949
 31
0.0
  0
SPLINE
  5
24E
100
AcDbEntity
  8
0
100
AcDbSpline
 62
6
  6
CONTINUOUS
 70
0
 71
3
 72
40
 73
36
 74
34
 42
0.0000001
 43
0.0000001
 44
0.0000000001
 12
-0.0000051673
 22
0.4098608809
 32
0.0
 13
0.4097026432
 23
0.011387968
 33
0.0
 40
0.0
 40
0.0
 40
0.0
 40
0.0
 40
0.0003486223
 40
0.0007570714
 40
0.0012643107
 40
0.001891038
 40
0.0026481266
 40
0.0035416288
 40
0.004575139
 40
0.0057509115
 40
0.0085344237
 40
0.0118995057
 40
0.0158493964
 40
0.0203844767
 40
0.0255031144
 40
0.0312030699
 40
0.0374817511
 40
0.0443363348
 40
0.059760573
 40
0.077441389
 40
0.0973356607
 40
0.1193992886
 40
0.1435811486
 40
0.1698206293
 40
0.1980562627
 40
0.2282227008
 40
0.2940451311
 40
0.3666586842
 40
0.4453619875
 40
0.5294019492
 40
0.6179730833
 40
0.7102137634
 40
0.8052406857
 40
0.9021722949
 40
1.0
 40
1.0
 40
1.0
 40
1.0
 10
5.328255634
 20
2.9113369563
 30
0.0
 10
5.3282556334
 20
2.9113845852
 30
0.0
 10
5.3282809198
 20
2.9114886526
 30
0.0
 10
5.3283827335
 20
2.9116312844
 30
0.0
 10
5.3285427761
 20
2.9117701433
 30
0.0
 10
5.3287620388
 20
2.9119080301
 30
0.0
 10
5.3290413292
 20
2.9120459561
 30
0.0
 10
5.3293812675
 20
2.9121840985
 30
0.0
 10
5.3297821004
 20
2.9123224996
 30
0.0
 10
5.3304356112
 20
2.9125184725
 30
0.0
 10
5.3314077291
 20
2.9127579948
 30
0.0
 10
5.3327598687
 20
2.9130332055
 30
0.0
 10
5.3343553171
 20
2.9133092203
 30
0.0
 10
5.3361932365
 20
2.9135859328
 30
0.0
 10
5.3382725465
 20
2.9138631159
 30
0.0
 10
5.3405918909
 20
2.9141406471
 30
0.0
 10
5.3431498924
 20
2.9144184527
 30
0.0
 10
5.3470323255
 20
2.9148044812
 30
0.0
 10
5.3524709735
 20
2.9152809112
 30
0.0
 10
5.3596906979
 20
2.91583398
 30
0.0
 10
5.3678197734
 20
2.9163880689
 30
0.0
 10
5.3768388089
 20
2.9169428817
 30
0.0
 10
5.3867261841
 20
2.9174981738
 30
0.0
 10
5.3974579699
 20
2.9180539365
 30
0.0
 10
5.4090083661
 20
2.9186100367
 30
0.0
 10
5.4259627657
 20
2.9193741399
 30
0.0
 10
5.4489779379
 20
2.9203200024
 30
0.0
 10
5.4786229752
 20
2.9214264747
 30
0.0
 10
5.5107584364
 20
2.9225343259
 30
0.0
 10
5.5450751928
 20
2.9236431756
 30
0.0
 10
5.5812423172
 20
2.9247527026
 30
0.0
 10
5.6189111406
 20
2.9258627491
 30
0.0
 10
5.6577226409
 20
2.9269731972
 30
0.0
 10
5.6972977421
 20
2.9280838037
 30
0.0
 10
5.7238955442
 20
2.9288231034
 30
0.0
 10
5.737255634
 20
2.9291944563
 30
0.0
 11
5.328255634
 21
2.9113369563
 31
0.0
 11
5.3282864874
 21
2.9114764721
 31
0.0
 11
5.3283790106
 21
2.9116159879
 31
0.0
 11
5.3285331429
 21
2.9117555036
 31
0.0
 11
5.3287488235
 21
2.9118950192
 31
0.0
 11
5.3290259915
 21
2.9120345347
 31
0.0
 11
5.3293645863
 21
2.9121740501
 31
0.0
 11
5.329764547
 21
2.9123135653
 31
0.0
 11
5.3302258129
 21
2.9124530802
 31
0.0
 11
5.3313320172
 21
2.9127321093
 31
0.0
 11
5.3326827128
 21
2.9130111371
 31
0.0
 11
5.3342773914
 21
2.9132901635
 31
0.0
 11
5.3361150813
 21
2.9135691883
 31
0.0
 11
5.3381943729
 21
2.9138482118
 31
0.0
 11
5.3405138393
 21
2.9141272343
 31
0.0
 11
5.3430720538
 21
2.9144062558
 31
0.0
 11
5.3458675896
 21
2.9146852767
 31
0.0
 11
5.3521647034
 21
2.9152433175
 31
0.0
 11
5.3593898599
 21
2.9158013588
 31
0.0
 11
5.3675246252
 21
2.916359403
 31
0.0
 11
5.376550408
 21
2.9169174528
 31
0.0
 11
5.3864458831
 21
2.9174755087
 31
0.0
 11
5.3971859309
 21
2.9180335686
 31
0.0
 11
5.4087451492
 21
2.9185916304
 31
0.0
 11
5.4210965914
 21
2.9191496918
 31
0.0
 11
5.4480515332
 21
2.920265807
 31
0.0
 11
5.4777920531
 21
2.9213819034
 31
0.0
 11
5.5100301449
 21
2.9224979809
 31
0.0
 11
5.5444567512
 21
2.9236140601
 31
0.0
 11
5.5807414326
 21
2.9247301721
 31
0.0
 11
5.6185308022
 21
2.9258462221
 31
0.0
 11
5.6574626278
 21
2.926962237
 31
0.0
 11
5.6971754145
 21
2.9280786068
 31
0.0
 11
5.737255634
 21
2.9291944563
 31
0.0
  0
SPLINE
  5
24F
100
AcDbEntity
  8
0
100
AcDbSpline
 62
6
  6
CONTINUOUS
 70
0
 71
3
 72
9
 73
5
 74
3
 42
0.0000001
 43
0.0000001
 44
0.0000000001
 12
-0.0000000056
 22
-0.0000887584
 32
0.0
 13
0.0000237816
 23
-0.0000855131
 33
0.0
 40
0.0
 40
0.0
 40
0.0
 40
0.0
 40
0.7455947934
 40
1.0
 40
1.0
 40
1.0
 40
1.0
 10
5.328255638
 20
2.9202663238
 30
0.0
 10
5.3282556366
 20
2.9202442645
 30
0.0
 10
5.3282588035
 20
2.9202145611
 30
0.0
 10
5.3282658231
 20
2.9201858141
 30
0.0
 10
5.3282678398
 20
2.9201785624
 30
0.0
 11
5.328255638
 21
2.9202663238
 31
0.0
 11
5.3282625008
 21
2.9202005028
 31
0.0
 11
5.3282678398
 21
2.9201785624
 31
0.0
  0
SPLINE
  5
250
100
AcDbEntity
  8
0
100
AcDbSpline
 62
6
  6
CONTINUOUS
 70
0
 71
3
 72
41
 73
37
 74
35
 42
0.0000001
 43
0.0000001
 44
0.0000000001
 12
0.6938707033
 22
0.0442445279
 32
0.0
 13
0.6020171174
 23
0.3478354807
 33
0.0
 40
0.0
 40
0.0
 40
0.0
 40
0.0
 40
0.0222578744
 40
0.0474270485
 40
0.0753279077
 40
0.1057772163
 40
0.138585149
 40
0.1735355436
 40
0.2489406631
 40
0.3300297213
 40
0.4146913879
 40
0.5007207351
 40
0.5858771232
 40
0.6679427224
 40
0.7071436152
 40
0.7447805674
 40
0.7806068318
 40
0.8143905164
 40
0.845910057
 40
0.8749619518
 40
0.9013558552
 40
0.9249221354
 40
0.9455071667
 40
0.9546398992
 40
0.9629804653
 40
0.9705149111
 40
0.9772308876
 40
0.9831198474
 40
0.988174315
 40
0.9923877981
 40
0.9941779424
 40
0.9957572967
 40
0.9971267534
 40
0.9982879246
 40
0.9992437642
 40
1.0
 40
1.0
 40
1.0
 40
1.0
 10
5.4126551902
 20
2.8232965949
 30
0.0
 10
5.4178032192
 20
2.8236248579
 30
0.0
 10
5.4287760621
 20
2.8242706761
 30
0.0
 10
5.4462103772
 20
2.825181137
 30
0.0
 10
5.4655453987
 20
2.8260929018
 30
0.0
 10
5.4866525047
 20
2.8270057861
 30
0.0
 10
5.5093947879
 20
2.8279194007
 30
0.0
 10
5.5425507783
 20
2.8291703487
 30
0.0
 10
5.5868932421
 20
2.830712469
 30
0.0
 10
5.6427541828
 20
2.8325235414
 30
0.0
 10
5.7010785604
 20
2.8343365403
 30
0.0
 10
5.7603459969
 20
2.8361503214
 30
0.0
 10
5.8190114994
 20
2.8379636991
 30
0.0
 10
5.8668275495
 20
2.8394956635
 30
0.0
 10
5.9036341602
 20
2.8407348753
 30
0.0
 10
5.9297291684
 20
2.8416497441
 30
0.0
 10
5.9545678927
 20
2.8425642565
 30
0.0
 10
5.9779878578
 20
2.8434781786
 30
0.0
 10
5.9998365529
 20
2.8443914645
 30
0.0
 10
6.0199710306
 20
2.8453037292
 30
0.0
 10
6.0382602793
 20
2.8462146812
 30
0.0
 10
6.0545846435
 20
2.8471238137
 30
0.0
 10
6.0669091108
 20
2.8479069431
 30
0.0
 10
6.0757066395
 20
2.8485424349
 30
0.0
 10
6.0814844454
 20
2.84899939
 30
0.0
 10
6.0867002825
 20
2.8494557557
 30
0.0
 10
6.0913455831
 20
2.8499115042
 30
0.0
 10
6.0954131836
 20
2.8503660939
 30
0.0
 10
6.0988967921
 20
2.8508192703
 30
0.0
 10
6.101429704
 20
2.8512129833
 30
0.0
 10
6.1031575249
 20
2.8515349461
 30
0.0
 10
6.104232098
 20
2.8517627335
 30
0.0
 10
6.1051573179
 20
2.8519899435
 30
0.0
 10
6.1059334061
 20
2.8522163888
 30
0.0
 10
6.1065603744
 20
2.8524417736
 30
0.0
 10
6.1069211499
 20
2.8526100291
 30
0.0
 10
6.1070729055
 20
2.852697711
 30
0.0
 11
5.4126551902
 21
2.8232965949
 31
0.0
 11
5.4281033642
 21
2.8242150459
 31
0.0
 11
5.4455788316
 21
2.8251341562
 31
0.0
 11
5.464955963
 21
2.8260530403
 31
0.0
 11
5.4861068124
 21
2.826971739
 31
0.0
 11
5.5088989983
 21
2.8278904946
 31
0.0
 11
5.5331819285
 21
2.8288093022
 31
0.0
 11
5.5855773789
 21
2.8306468746
 31
0.0
 11
5.641927017
 21
2.8324844434
 31
0.0
 11
5.7007618825
 21
2.8343220135
 31
0.0
 11
5.7605481251
 21
2.8361595831
 31
0.0
 11
5.8197271273
 21
2.8379971529
 31
0.0
 11
5.8767560913
 21
2.8398347227
 31
0.0
 11
5.9039961934
 21
2.8407535076
 31
0.0
 11
5.930148275
 21
2.8416722924
 31
0.0
 11
5.9550406057
 21
2.8425910773
 31
0.0
 11
5.9785117462
 21
2.8435098622
 31
0.0
 11
6.0004073805
 21
2.8444286471
 31
0.0
 11
6.020585672
 21
2.845347432
 31
0.0
 11
6.0389138075
 21
2.8462662168
 31
0.0
 11
6.055273188
 21
2.8471850017
 31
0.0
 11
6.0695560251
 21
2.8481037866
 31
0.0
 11
6.0758891907
 21
2.848563179
 31
0.0
 11
6.0816699937
 21
2.8490225715
 31
0.0
 11
6.0868883604
 21
2.8494819639
 31
0.0
 11
6.0915351909
 21
2.8499413563
 31
0.0
 11
6.0956038131
 21
2.8504007488
 31
0.0
 11
6.0990879271
 21
2.8508601412
 31
0.0
 11
6.1019812335
 21
2.8513195337
 31
0.0
 11
6.1032045065
 21
2.8515492299
 31
0.0
 11
6.1042783075
 21
2.8517789261
 31
0.0
 11
6.1052023422
 21
2.8520086223
 31
0.0
 11
6.1059763163
 21
2.8522383185
 31
0.0
 11
6.1065999355
 21
2.8524680148
 31
0.0
 11
6.1070729055
 21
2.852697711
 31
0.0
  0
LINE
  5
251
100
AcDbEntity
  8
0
100
AcDbLine
 62
6
  6
CONTINUOUS
 10
6.1459876526
 20
2.9474635135
 11
6.1462552858
 21
2.9470519554
  0
SPLINE
  5
252
100
AcDbEntity
  8
0
100
AcDbSpline
 62
6
  6
CONTINUOUS
 70
0
 71
3
 72
9
 73
5
 74
3
 42
0.0000001
 43
0.0000001
 44
0.0000000001
 12
-0.0000000071
 22
0.0000885968
 32
0.0
 13
-0.0000237138
 23
0.0000853642
 33
0.0
 40
0.0
 40
0.0
 40
0.0
 40
0.0
 40
0.7456053327
 40
1.0
 40
1.0
 40
1.0
 40
1.0
 10
6.1462556335
 20
2.8041919565
 30
0.0
 10
6.1462556317
 20
2.8042139759
 30
0.0
 10
6.1462524717
 20
2.8042436244
 30
0.0
 10
6.1462454718
 20
2.8042723207
 30
0.0
 10
6.1462434609
 20
2.8042795594
 30
0.0
 11
6.1462556335
 21
2.8041919565
 31
0.0
 11
6.1462487847
 21
2.8042576587
 31
0.0
 11
6.1462434609
 21
2.8042795594
 31
0.0
  0
SPLINE
  5
253
100
AcDbEntity
  8
0
100
AcDbSpline
 62
6
  6
CONTINUOUS
 70
0
 71
3
 72
40
 73
36
 74
34
 42
0.0000001
 43
0.0000001
 44
0.0000000001
 12
-0.0000316154
 22
-0.4098608704
 32
0.0
 13
-0.409702634
 23
-0.0113879678
 33
0.0
 40
0.0
 40
0.0
 40
0.0
 40
0.0
 40
0.0003486273
 40
0.0007570831
 40
0.0012643246
 40
0.001891048
 40
0.0026481276
 40
0.0035416175
 40
0.0045751137
 40
0.0057508728
 40
0.0085343677
 40
0.011899459
 40
0.0158493885
 40
0.0203844823
 40
0.0255031106
 40
0.0312030461
 40
0.037481709
 40
0.0443362885
 40
0.0597605553
 40
0.0774412506
 40
0.0973351998
 40
0.1193982413
 40
0.1435790043
 40
0.1698171387
 40
0.1980515267
 40
0.2282163937
 40
0.2940358727
 40
0.3666473251
 40
0.4453497556
 40
0.5293896539
 40
0.6179622982
 40
0.7102052222
 40
0.8052365155
 40
0.9021717344
 40
1.0
 40
1.0
 40
1.0
 40
1.0
 10
6.1462556335
 20
2.8131212336
 30
0.0
 10
6.1462556299
 20
2.813073604
 30
0.0
 10
6.1462303363
 20
2.8129695375
 30
0.0
 10
6.1461285191
 20
2.8128269066
 30
0.0
 10
6.1459684758
 20
2.8126880475
 30
0.0
 10
6.145749215
 20
2.8125501604
 30
0.0
 10
6.1454699286
 20
2.8124122342
 30
0.0
 10
6.1451299956
 20
2.8122740916
 30
0.0
 10
6.1447291684
 20
2.8121356905
 30
0.0
 10
6.1440756642
 20
2.8119397171
 30
0.0
 10
6.1431035494
 20
2.8117001942
 30
0.0
 10
6.1417514055
 20
2.8114249835
 30
0.0
 10
6.1401559482
 20
2.811148971
 30
0.0
 10
6.1383180231
 20
2.8108722576
 30
0.0
 10
6.1362387154
 20
2.810595074
 30
0.0
 10
6.1339193777
 20
2.8103175424
 30
0.0
 10
6.1313613821
 20
2.8100397366
 30
0.0
 10
6.1274789483
 20
2.8096537079
 30
0.0
 10
6.1220403131
 20
2.8091772822
 30
0.0
 10
6.1148206456
 20
2.8086242159
 30
0.0
 10
6.1066917108
 20
2.8080701343
 30
0.0
 10
6.097672949
 20
2.8075153382
 30
0.0
 10
6.0877859877
 20
2.806960062
 30
0.0
 10
6.0770547057
 20
2.8064043185
 30
0.0
 10
6.0655048778
 20
2.8058482485
 30
0.0
 10
6.0485512664
 20
2.8050841679
 30
0.0
 10
6.0255369991
 20
2.8041383318
 30
0.0
 10
5.9958927721
 20
2.8030318729
 30
0.0
 10
5.9637577264
 20
2.8019240308
 30
0.0
 10
5.929440893
 20
2.800815162
 30
0.0
 10
5.8932732655
 20
2.7997056184
 30
0.0
 10
5.8556033335
 20
2.7985955326
 30
0.0
 10
5.8167904378
 20
2.797485044
 30
0.0
 10
5.7772141711
 20
2.7963744037
 30
0.0
 10
5.7506158
 20
2.7956350885
 30
0.0
 10
5.737255634
 20
2.7952637335
 30
0.0
 11
6.1462556335
 21
2.8131212336
 31
0.0
 11
6.1462247703
 21
2.8129817178
 31
0.0
 11
6.1461322419
 21
2.8128422021
 31
0.0
 11
6.1459781084
 21
2.8127026865
 31
0.0
 11
6.1457624297
 21
2.8125631709
 31
0.0
 11
6.1454852658
 21
2.8124236554
 31
0.0
 11
6.1451466765
 21
2.8122841401
 31
0.0
 11
6.1447467218
 21
2.812144625
 31
0.0
 11
6.1442854617
 21
2.81200511
 31
0.0
 11
6.1431792648
 21
2.8117260809
 31
0.0
 11
6.1418285653
 21
2.811447053
 31
0.0
 11
6.1402338706
 21
2.8111680266
 31
0.0
 11
6.1383961752
 21
2.8108890016
 31
0.0
 11
6.1363168875
 21
2.8106099779
 31
0.0
 11
6.1339974294
 21
2.8103309553
 31
0.0
 11
6.1314392225
 21
2.8100519338
 31
0.0
 11
6.1286436885
 21
2.809772913
 31
0.0
 11
6.122346563
 21
2.8092148732
 31
0.0
 11
6.1151214561
 21
2.8086568351
 31
0.0
 11
6.106986823
 21
2.8080987981
 31
0.0
 11
6.0979612804
 21
2.8075407617
 31
0.0
 11
6.0880662547
 21
2.8069827253
 31
0.0
 11
6.0773267584
 21
2.8064246884
 31
0.0
 11
6.0657680503
 21
2.8058666505
 31
0.0
 11
6.053417252
 21
2.8053086113
 31
0.0
 11
6.02646352
 21
2.8041925311
 31
0.0
 11
5.9967238617
 21
2.8030764523
 31
0.0
 11
5.9644861285
 21
2.8019603779
 31
0.0
 11
5.9300595493
 21
2.8008442871
 31
0.0
 11
5.8937742502
 21
2.7997281513
 31
0.0
 11
5.8559839623
 21
2.7986120694
 31
0.0
 11
5.8170503469
 21
2.7974960013
 31
0.0
 11
5.7773360823
 21
2.7963795893
 31
0.0
 11
5.737255634
 21
2.7952637335
 31
0.0
  0
SPLINE
  5
254
100
AcDbEntity
  8
0
100
AcDbSpline
 62
6
  6
CONTINUOUS
 70
0
 71
3
 72
17
 73
13
 74
11
 42
0.0000001
 43
0.0000001
 44
0.0000000001
 12
-0.3585619468
 22
-0.009966477
 32
0.0
 13
-0.3581040371
 23
-0.0206760487
 33
0.0
 40
0.0
 40
0.0
 40
0.0
 40
0.0
 40
0.3011032312
 40
0.4449394728
 40
0.58086201
 40
0.7064440414
 40
0.7646528575
 40
0.8194535259
 40
0.8706067352
 40
0.9178931492
 40
0.9610956627
 40
1.0
 40
1.0
 40
1.0
 40
1.0
 10
5.737255634
 20
2.7952637335
 30
0.0
 10
5.7012675804
 20
2.7942634207
 30
0.0
 10
5.648088073
 20
2.7927865803
 30
0.0
 10
5.5786660702
 20
2.790750979
 30
0.0
 10
5.5302240074
 20
2.7892492091
 30
0.0
 10
5.49201824
 20
2.787969908
 30
0.0
 10
5.4635093684
 20
2.7869351157
 30
0.0
 10
5.4438955014
 20
2.7861791531
 30
0.0
 10
5.4255886046
 20
2.7854236455
 30
0.0
 10
5.4086697006
 20
2.7846686827
 30
0.0
 10
5.3932169059
 20
2.7839144947
 30
0.0
 10
5.3834139015
 20
2.7833843628
 30
0.0
 10
5.3787699681
 20
2.7831162335
 30
0.0
 11
5.737255634
 21
2.7952637335
 31
0.0
 11
5.6292924788
 21
2.7922268321
 31
0.0
 11
5.577720705
 21
2.7907084178
 31
0.0
 11
5.5289888837
 21
2.7891899546
 31
0.0
 11
5.4839681541
 21
2.7876715159
 31
0.0
 11
5.4631024342
 21
2.7869123029
 31
0.0
 11
5.4434600759
 21
2.7861531378
 31
0.0
 11
5.4251271101
 21
2.7853939527
 31
0.0
 11
5.4081824594
 21
2.7846345953
 31
0.0
 11
5.3927043184
 21
2.7838751673
 31
0.0
 11
5.3787699681
 21
2.7831162335
 31
0.0
  0
SPLINE
  5
255
100
AcDbEntity
  8
0
100
AcDbSpline
 62
6
  6
CONTINUOUS
 70
0
 71
3
 72
9
 73
5
 74
3
 42
0.0000001
 43
0.0000001
 44
0.0000000001
 12
0.0000000068
 22
0.0000884802
 32
0.0
 13
-0.0000236452
 23
0.0000852622
 33
0.0
 40
0.0
 40
0.0
 40
0.0
 40
0.0
 40
0.7456187961
 40
1.0
 40
1.0
 40
1.0
 40
1.0
 10
6.1462556335
 20
2.8756219564
 30
0.0
 10
6.1462556352
 20
2.8756439472
 30
0.0
 10
6.1462524878
 20
2.875673557
 30
0.0
 10
6.146245509
 20
2.8757022185
 30
0.0
 10
6.146243504
 20
2.8757094482
 30
0.0
 11
6.1462556335
 21
2.8756219564
 31
0.0
 11
6.1462488116
 21
2.8756875752
 31
0.0
 11
6.146243504
 21
2.8757094482
 31
0.0
  0
SPLINE
  5
256
100
AcDbEntity
  8
0
100
AcDbSpline
 62
6
  6
CONTINUOUS
 70
0
 71
3
 72
40
 73
36
 74
34
 42
0.0000001
 43
0.0000001
 44
0.0000000001
 12
-0.000015109
 22
-0.4098608936
 32
0.0
 13
-0.4097026562
 23
-0.0113879684
 33
0.0
 40
0.0
 40
0.0
 40
0.0
 40
0.0
 40
0.0003486197
 40
0.0007570562
 40
0.0012642671
 40
0.0018909512
 40
0.0026479854
 40
0.003541426
 40
0.0045748713
 40
0.0057505798
 40
0.0085339829
 40
0.0118990077
 40
0.0158488925
 40
0.0203838987
 40
0.0255024076
 40
0.0312022126
 40
0.0374807548
 40
0.0443352444
 40
0.0597594195
 40
0.0774399724
 40
0.0973339186
 40
0.119397296
 40
0.1435785666
 40
0.1698171994
 40
0.1980519429
 40
0.2282170206
 40
0.2940364371
 40
0.3666473787
 40
0.4453495274
 40
0.5293894872
 40
0.6179621831
 40
0.7102051203
 40
0.805236444
 40
0.9021716929
 40
1.0
 40
1.0
 40
1.0
 40
1.0
 10
6.1462556331
 20
2.8845512559
 30
0.0
 10
6.1462556313
 20
2.8845036274
 30
0.0
 10
6.1462303449
 20
2.8843995634
 30
0.0
 10
6.1461285407
 20
2.8842569327
 30
0.0
 10
6.1459685127
 20
2.8841180743
 30
0.0
 10
6.1457492699
 20
2.8839801882
 30
0.0
 10
6.1454700032
 20
2.8838422632
 30
0.0
 10
6.1451300912
 20
2.8837041217
 30
0.0
 10
6.1447292854
 20
2.8835657216
 30
0.0
 10
6.1440758084
 20
2.8833697491
 30
0.0
 10
6.1431037226
 20
2.8831302273
 30
0.0
 10
6.1417516064
 20
2.882855019
 30
0.0
 10
6.1401561759
 20
2.8825790106
 30
0.0
 10
6.1383182854
 20
2.8823022974
 30
0.0
 10
6.136239024
 20
2.8820251143
 30
0.0
 10
6.1339197372
 20
2.8817475828
 30
0.0
 10
6.1313617883
 20
2.8814697771
 30
0.0
 10
6.1274793959
 20
2.8810837478
 30
0.0
 10
6.1220408046
 20
2.8806073248
 30
0.0
 10
6.1148211697
 20
2.8800542526
 30
0.0
 10
6.1066922087
 20
2.8795001641
 30
0.0
 10
6.0976733318
 20
2.8789453622
 30
0.0
 10
6.0877861869
 20
2.8783900754
 30
0.0
 10
6.0770547187
 20
2.8778343208
 30
0.0
 10
6.065504745
 20
2.8772782413
 30
0.0
 10
6.0485510638
 20
2.8765141583
 30
0.0
 10
6.0255368448
 20
2.8755683264
 30
0.0
 10
5.9958927329
 20
2.874461871
 30
0.0
 10
5.9637577853
 20
2.8733540332
 30
0.0
 10
5.9294409731
 20
2.8722451645
 30
0.0
 10
5.8932733263
 20
2.8711356202
 30
0.0
 10
5.8556033793
 20
2.870025534
 30
0.0
 10
5.8167904714
 20
2.868915045
 30
0.0
 10
5.7772141887
 20
2.8678044042
 30
0.0
 10
5.7506158064
 20
2.8670650887
 30
0.0
 10
5.737255634
 20
2.8666937335
 30
0.0
 11
6.1462556331
 21
2.8845512559
 31
0.0
 11
6.1462247778
 21
2.8844117417
 31
0.0
 11
6.1461322616
 21
2.8842722274
 31
0.0
 11
6.1459781438
 21
2.8841327131
 31
0.0
 11
6.1457624834
 21
2.8839931988
 31
0.0
 11
6.1454853396
 21
2.8838536846
 31
0.0
 11
6.1451467717
 21
2.8837141705
 31
0.0
 11
6.1447468387
 21
2.8835746565
 31
0.0
 11
6.1442855998
 21
2.8834351427
 31
0.0
 11
6.1431794412
 21
2.8831561156
 31
0.0
 11
6.1418287691
 21
2.8828770895
 31
0.0
 11
6.1402340926
 21
2.8825980646
 31
0.0
 11
6.1383964332
 21
2.8823190408
 31
0.0
 11
6.1363171947
 21
2.8820400181
 31
0.0
 11
6.1339977902
 21
2.8817609963
 31
0.0
 11
6.1314396329
 21
2.8814819751
 31
0.0
 11
6.1286441358
 21
2.8812029545
 31
0.0
 11
6.1223470477
 21
2.8806449143
 31
0.0
 11
6.1151219991
 21
2.8800868741
 31
0.0
 11
6.1069873671
 21
2.8795288322
 31
0.0
 11
6.0979616866
 21
2.8789707869
 31
0.0
 11
6.0880664527
 21
2.8784127386
 31
0.0
 11
6.0773267519
 21
2.8778546897
 31
0.0
 11
6.0657678978
 21
2.877296643
 31
0.0
 11
6.0534170125
 21
2.8767386
 31
0.0
 11
6.0264633045
 21
2.8756225226
 31
0.0
 11
5.9967238538
 21
2.8745064518
 31
0.0
 11
5.9644862343
 21
2.8733903815
 31
0.0
 11
5.930059628
 21
2.8722742896
 31
0.0
 11
5.8937743058
 21
2.8711581529
 31
0.0
 11
5.8559840105
 21
2.8700420708
 31
0.0
 11
5.8170503805
 21
2.8689260023
 31
0.0
 11
5.7773361014
 21
2.8678095898
 31
0.0
 11
5.737255634
 21
2.8666937335
 31
0.0
  0
SPLINE
  5
257
100
AcDbEntity
  8
0
100
AcDbSpline
 62
6
  6
CONTINUOUS
 70
0
 71
3
 72
68
 73
64
 74
62
 42
0.0000001
 43
0.0000001
 44
0.0000000001
 12
-0.000153966
 22
0.741716566
 32
0.0
 13
0.6421056274
 23
0.3712732837
 33
0.0
 40
0.0
 40
0.0
 40
0.0
 40
0.0
 40
0.0001884344
 40
0.0004030093
 40
0.0006620842
 40
0.0009763165
 40
0.0013516974
 40
0.0017917301
 40
0.0022985744
 40
0.0028735587
 40
0.0042308324
 40
0.005867542
 40
0.007785274
 40
0.0099845729
 40
0.0124654145
 40
0.0152274389
 40
0.0182698704
 40
0.0215910552
 40
0.0290618965
 40
0.0376239753
 40
0.0472602743
 40
0.0579487886
 40
0.0696638877
 40
0.082379701
 40
0.0960679759
 40
0.1106955537
 40
0.1426326139
 40
0.1778962314
 40
0.2161594216
 40
0.2570657725
 40
0.3002368483
 40
0.3452698445
 40
0.391747214
 40
0.4392362418
 40
0.4872955662
 40
0.5354782099
 40
0.5833362093
 40
0.630424428
 40
0.6763049728
 40
0.7205517816
 40
0.7627524535
 40
0.8025164388
 40
0.839472565
 40
0.8732792285
 40
0.8889017807
 40
0.903622598
 40
0.9174063647
 40
0.9302210702
 40
0.9420387595
 40
0.9528318187
 40
0.9625742487
 40
0.9712457646
 40
0.9788277063
 40
0.9853023617
 40
0.9881205857
 40
0.9906582037
 40
0.9929145781
 40
0.9948893764
 40
0.9965827769
 40
0.997995894
 40
0.9991321192
 40
0.9995988244
 40
1.0
 40
1.0
 40
1.0
 40
1.0
 10
5.3669163307
 20
2.9604465947
 30
0.0
 10
5.366916321
 20
2.960493183
 30
0.0
 10
5.3669375213
 20
2.9605934658
 30
0.0
 10
5.3670255397
 20
2.9607340682
 30
0.0
 10
5.3671654631
 20
2.9608712568
 30
0.0
 10
5.3673573415
 20
2.9610072837
 30
0.0
 10
5.3676017984
 20
2.9611431504
 30
0.0
 10
5.3678993631
 20
2.9612791173
 30
0.0
 10
5.3682503056
 20
2.961415262
 30
0.0
 10
5.3688219538
 20
2.9616077819
 30
0.0
 10
5.3696729394
 20
2.9618432556
 30
0.0
 10
5.3708569958
 20
2.9621138878
 30
0.0
 10
5.3722536182
 20
2.9623853203
 30
0.0
 10
5.3738621293
 20
2.9626574298
 30
0.0
 10
5.3756819136
 20
2.9629299767
 30
0.0
 10
5.3777121676
 20
2.9632028439
 30
0.0
 10
5.379951839
 20
2.9634759393
 30
0.0
 10
5.3833511905
 20
2.963855377
 30
0.0
 10
5.388113493
 20
2.9643237854
 30
0.0
 10
5.3944366798
 20
2.9648676463
 30
0.0
 10
5.40155793
 20
2.9654123182
 30
0.0
 10
5.4094606997
 20
2.9659577192
 30
0.0
 10
5.4181264465
 20
2.966503703
 30
0.0
 10
5.4275351714
 20
2.9670500717
 30
0.0
 10
5.4376650799
 20
2.9675966994
 30
0.0
 10
5.4525430021
 20
2.9683481113
 30
0.0
 10
5.4727528373
 20
2.9692781382
 30
0.0
 10
5.4988049505
 20
2.9703660451
 30
0.0
 10
5.5270763406
 20
2.9714552121
 30
0.0
 10
5.5573040629
 20
2.9725454485
 30
0.0
 10
5.5892065457
 20
2.9736363169
 30
0.0
 10
5.6224871477
 20
2.9747277468
 30
0.0
 10
5.6568358576
 20
2.9758194912
 30
0.0
 10
5.6919331531
 20
2.9769114813
 30
0.0
 10
5.7274522555
 20
2.9780035856
 30
0.0
 10
5.7630626238
 20
2.9790957197
 30
0.0
 10
5.7984327864
 20
2.9801877826
 30
0.0
 10
5.833233512
 20
2.981279676
 30
0.0
 10
5.8671409715
 20
2.9823713043
 30
0.0
 10
5.8998394104
 20
2.9834624802
 30
0.0
 10
5.9310247403
 20
2.9845531336
 30
0.0
 10
5.9604064075
 20
2.9856428705
 30
0.0
 10
5.9877112643
 20
2.9867316145
 30
0.0
 10
6.0090489576
 20
2.9876601842
 30
0.0
 10
6.0248916433
 20
2.9884095569
 30
0.0
 10
6.0357878877
 20
2.9889564574
 30
0.0
 10
6.0459890074
 20
2.9895031271
 30
0.0
 10
6.0554712748
 20
2.9900495522
 30
0.0
 10
6.0642128293
 20
2.9905955451
 30
0.0
 10
6.0721932319
 20
2.991140978
 30
0.0
 10
6.0793938294
 20
2.9916858382
 30
0.0
 10
6.0857980992
 20
2.9922296631
 30
0.0
 10
6.0913912715
 20
2.9927721449
 30
0.0
 10
6.0955372124
 20
2.993241516
 30
0.0
 10
6.098437223
 20
2.9936233439
 30
0.0
 10
6.1002994846
 20
2.9938959884
 30
0.0
 10
6.1019508312
 20
2.9941681724
 30
0.0
 10
6.1033903643
 20
2.994439785
 30
0.0
 10
6.1046174849
 20
2.9947104511
 30
0.0
 10
6.1056315132
 20
2.9949800668
 30
0.0
 10
6.1063399849
 20
2.9952159822
 30
0.0
 10
6.1067960655
 20
2.9954102693
 30
0.0
 10
6.1069873996
 20
2.9955080616
 30
0.0
 10
6.1070732653
 20
2.9955577102
 30
0.0
 11
5.3669163307
 21
2.9604465947
 31
0.0
 11
5.3669432243
 21
2.9605837477
 31
0.0
 11
5.3670239644
 21
2.9607209008
 31
0.0
 11
5.3671585548
 21
2.9608580538
 31
0.0
 11
5.3673469991
 21
2.9609952069
 31
0.0
 11
5.367589301
 21
2.96113236
 31
0.0
 11
5.3678854642
 21
2.961269513
 31
0.0
 11
5.3682354871
 21
2.9614066661
 31
0.0
 11
5.3686393067
 21
2.9615438192
 31
0.0
 11
5.3696079274
 21
2.9618181253
 31
0.0
 11
5.3707905053
 21
2.9620924314
 31
0.0
 11
5.372186219
 21
2.9623667375
 31
0.0
 11
5.3737942469
 21
2.9626410437
 31
0.0
 11
5.3756137676
 21
2.9629153498
 31
0.0
 11
5.3776439595
 21
2.9631896559
 31
0.0
 11
5.3798838476
 21
2.963463962
 31
0.0
 11
5.3823319052
 21
2.9637382682
 31
0.0
 11
5.3878459275
 21
2.9642868804
 31
0.0
 11
5.3941728225
 21
2.9648354927
 31
0.0
 11
5.4012991393
 21
2.9653841049
 31
0.0
 11
5.4092079826
 21
2.9659327172
 31
0.0
 11
5.4178799298
 21
2.9664813294
 31
0.0
 11
5.42729549
 21
2.9670299417
 31
0.0
 11
5.4374334775
 21
2.9675785539
 31
0.0
 11
5.4482691151
 21
2.9681271662
 31
0.0
 11
5.4719319373
 21
2.9692243907
 31
0.0
 11
5.4980645227
 21
2.9703216152
 31
0.0
 11
5.5264237474
 21
2.9714188397
 31
0.0
 11
5.5567448201
 21
2.9725160642
 31
0.0
 11
5.5887467186
 21
2.9736132887
 31
0.0
 11
5.6221304122
 21
2.9747105132
 31
0.0
 11
5.6565859819
 21
2.9758077377
 31
0.0
 11
5.6917922876
 21
2.9769049622
 31
0.0
 11
5.7274217947
 21
2.9780021867
 31
0.0
 11
5.763142813
 21
2.9790994112
 31
0.0
 11
5.798622923
 21
2.9801966357
 31
0.0
 11
5.8335317964
 21
2.9812938602
 31
0.0
 11
5.867544464
 21
2.9823910847
 31
0.0
 11
5.9003447089
 21
2.9834883092
 31
0.0
 11
5.93162641
 21
2.9845855337
 31
0.0
 11
5.9610996007
 21
2.9856827582
 31
0.0
 11
5.9884886032
 21
2.9867799828
 31
0.0
 11
6.0135395486
 21
2.987877207
 31
0.0
 11
6.0251140603
 21
2.988425819
 31
0.0
 11
6.0360189433
 21
2.9889744313
 31
0.0
 11
6.0462278614
 21
2.9895230444
 31
0.0
 11
6.055716895
 21
2.9900716577
 31
0.0
 11
6.0644650859
 21
2.9906202702
 31
0.0
 11
6.0724516565
 21
2.9911688806
 31
0.0
 11
6.0796569231
 21
2.9917174888
 31
0.0
 11
6.0860652903
 21
2.9922660984
 31
0.0
 11
6.0916621181
 21
2.9928147138
 31
0.0
 11
6.0964330368
 21
2.9933633387
 31
0.0
 11
6.098505283
 21
2.9936376527
 31
0.0
 11
6.1003673798
 21
2.9939119651
 31
0.0
 11
6.1020183369
 21
2.9941862736
 31
0.0
 11
6.1034571639
 21
2.9944605762
 31
0.0
 11
6.1046828705
 21
2.9947348709
 31
0.0
 11
6.1056944779
 21
2.9950091556
 31
0.0
 11
6.1064913539
 21
2.9952834329
 31
0.0
 11
6.1068091934
 21
2.995420571
 31
0.0
 11
6.1070732653
 21
2.9955577102
 31
0.0
  0
SPLINE
  5
258
100
AcDbEntity
  8
0
100
AcDbSpline
 62
6
  6
CONTINUOUS
 70
0
 71
3
 72
36
 73
32
 74
30
 42
0.0000001
 43
0.0000001
 44
0.0000000001
 12
-0.4089503317
 22
-0.011367057
 32
0.0
 13
-0.3542484135
 23
-0.2046402828
 33
0.0
 40
0.0
 40
0.0
 40
0.0
 40
0.0
 40
0.0950138962
 40
0.1892153932
 40
0.2816758948
 40
0.3715892762
 40
0.45815025
 40
0.5405651844
 40
0.6180926166
 40
0.6900340969
 40
0.7557377205
 40
0.7860644112
 40
0.8146140524
 40
0.841320939
 40
0.8661279417
 40
0.8889790183
 40
0.9098202645
 40
0.9286080981
 40
0.9453025162
 40
0.9598647589
 40
0.9722658171
 40
0.977649359
 40
0.9824850634
 40
0.9867709869
 40
0.990505845
 40
0.9936904763
 40
0.996328202
 40
0.9974440694
 40
0.9984263087
 40
0.9992771236
 40
1.0
 40
1.0
 40
1.0
 40
1.0
 10
5.737255634
 20
2.8666937335
 30
0.0
 10
5.7243036459
 20
2.866333724
 30
0.0
 10
5.6985104131
 20
2.8656167869
 30
0.0
 10
5.6601135314
 20
2.8645398646
 30
0.0
 10
5.6224124772
 20
2.8634630686
 30
0.0
 10
5.5857537806
 20
2.862386623
 30
0.0
 10
5.5504655871
 20
2.8613106335
 30
0.0
 10
5.5168672594
 20
2.86023518
 30
0.0
 10
5.4852636279
 20
2.8591605904
 30
0.0
 10
5.4559402771
 20
2.8580871096
 30
0.0
 10
5.4330523124
 20
2.8571710997
 30
0.0
 10
5.4160794873
 20
2.8564319151
 30
0.0
 10
5.404421002
 20
2.8558926379
 30
0.0
 10
5.3935160793
 20
2.8553535574
 30
0.0
 10
5.3833892637
 20
2.8548148125
 30
0.0
 10
5.3740635353
 20
2.8542765085
 30
0.0
 10
5.365560092
 20
2.8537386485
 30
0.0
 10
5.3578980248
 20
2.8532014839
 30
0.0
 10
5.3510944512
 20
2.8526654523
 30
0.0
 10
5.3451648065
 20
2.8521306265
 30
0.0
 10
5.3407777447
 20
2.8516676794
 30
0.0
 10
5.3377160431
 20
2.8512909387
 30
0.0
 10
5.3357562396
 20
2.8510222092
 30
0.0
 10
5.3340235473
 20
2.8507539553
 30
0.0
 10
5.3325188958
 20
2.8504863462
 30
0.0
 10
5.3312429852
 20
2.8502195129
 30
0.0
 10
5.3303252115
 20
2.8499873233
 30
0.0
 10
5.329707797
 20
2.8497974256
 30
0.0
 10
5.3293285345
 20
2.8496632277
 30
0.0
 10
5.3290065573
 20
2.8495292744
 30
0.0
 10
5.3288146537
 20
2.8494324387
 30
0.0
 10
5.3287292945
 20
2.8493831288
 30
0.0
 11
5.737255634
 21
2.8666937335
 31
0.0
 11
5.698399715
 21
2.8656120738
 31
0.0
 11
5.6598763002
 21
2.8645298781
 31
0.0
 11
5.6220654173
 21
2.863448028
 31
0.0
 11
5.5852970212
 21
2.8623661703
 31
0.0
 11
5.5499007417
 21
2.861284238
 31
0.0
 11
5.5162014724
 21
2.8602023339
 31
0.0
 11
5.4845028155
 21
2.8591204384
 31
0.0
 11
5.4550908525
 21
2.8580385265
 31
0.0
 11
5.4282327392
 21
2.856956596
 31
0.0
 11
5.4158376383
 21
2.8564156259
 31
0.0
 11
5.4041702784
 21
2.8558746546
 31
0.0
 11
5.3932576706
 21
2.8553336837
 31
0.0
 11
5.3831233485
 21
2.8547927152
 31
0.0
 11
5.3737904487
 21
2.8542517513
 31
0.0
 11
5.3652813004
 21
2.8537107933
 31
0.0
 11
5.3576141017
 21
2.8531698399
 31
0.0
 11
5.3508057336
 21
2.8526288888
 31
0.0
 11
5.3448728099
 21
2.8520879376
 31
0.0
 11
5.3398283565
 21
2.8515469846
 31
0.0
 11
5.3376425764
 21
2.8512765069
 31
0.0
 11
5.335682827
 21
2.851006028
 31
0.0
 11
5.3339504079
 21
2.850735548
 31
0.0
 11
5.3324465776
 21
2.8504650664
 31
0.0
 11
5.3311721048
 21
2.8501945835
 31
0.0
 11
5.3301274382
 21
2.8499240995
 31
0.0
 11
5.3296914205
 21
2.8497888571
 31
0.0
 11
5.3293130204
 21
2.8496536145
 31
0.0
 11
5.3289922933
 21
2.8495183717
 31
0.0
 11
5.3287292945
 21
2.8493831288
 31
0.0
  0
SPLINE
  5
259
100
AcDbEntity
  8
0
100
AcDbSpline
 62
6
  6
CONTINUOUS
 70
0
 71
3
 72
17
 73
13
 74
11
 42
0.0000001
 43
0.0000001
 44
0.0000000001
 12
0.3581040371
 22
0.0206760487
 32
0.0
 13
0.3585619468
 23
0.009966477
 33
0.0
 40
0.0
 40
0.0
 40
0.0
 40
0.0
 40
0.0389043373
 40
0.0821068508
 40
0.1293932648
 40
0.1805464741
 40
0.2353471425
 40
0.2935559586
 40
0.41913799
 40
0.5550605272
 40
0.6988967688
 40
1.0
 40
1.0
 40
1.0
 40
1.0
 10
5.3787699681
 20
2.8456169563
 30
0.0
 10
5.3834139015
 20
2.8458850856
 30
0.0
 10
5.3932169059
 20
2.8464152175
 30
0.0
 10
5.4086697006
 20
2.8471694056
 30
0.0
 10
5.4255886046
 20
2.8479243683
 30
0.0
 10
5.4438955014
 20
2.8486798759
 30
0.0
 10
5.4635093684
 20
2.8494358385
 30
0.0
 10
5.49201824
 20
2.8504706308
 30
0.0
 10
5.5302240074
 20
2.8517499319
 30
0.0
 10
5.5786660702
 20
2.8532517018
 30
0.0
 10
5.648088073
 20
2.8552873031
 30
0.0
 10
5.7012675804
 20
2.8567641435
 30
0.0
 10
5.737255634
 20
2.8577644563
 30
0.0
 11
5.3787699681
 21
2.8456169563
 31
0.0
 11
5.3927043184
 21
2.8463758901
 31
0.0
 11
5.4081824594
 21
2.8471353181
 31
0.0
 11
5.4251271101
 21
2.8478946755
 31
0.0
 11
5.4434600759
 21
2.8486538606
 31
0.0
 11
5.4631024342
 21
2.8494130257
 31
0.0
 11
5.4839681541
 21
2.8501722387
 31
0.0
 11
5.5289888837
 21
2.8516906775
 31
0.0
 11
5.577720705
 21
2.8532091406
 31
0.0
 11
5.6292924788
 21
2.8547275549
 31
0.0
 11
5.737255634
 21
2.8577644563
 31
0.0
  0
SPLINE
  5
25A
100
AcDbEntity
  8
0
100
AcDbSpline
 62
6
  6
CONTINUOUS
 70
0
 71
3
 72
38
 73
34
 74
32
 42
0.0000001
 43
0.0000001
 44
0.0000000001
 12
-0.2815146442
 22
-0.2821505763
 32
0.0
 13
-0.3985026335
 23
-0.0074225113
 33
0.0
 40
0.0
 40
0.0
 40
0.0
 40
0.0
 40
0.0003644063
 40
0.0008538139
 40
0.0014776429
 40
0.0022403557
 40
0.0031442005
 40
0.0041903981
 40
0.0067122579
 40
0.0098088735
 40
0.0134808789
 40
0.0177279792
 40
0.0225493956
 40
0.0279436103
 40
0.0339075113
 40
0.0475302595
 40
0.0633889518
 40
0.0814521627
 40
0.1016773308
 40
0.1240180946
 40
0.1484266435
 40
0.1748450615
 40
0.2032107539
 40
0.2334603928
 40
0.2993191832
 40
0.3718007142
 40
0.450214869
 40
0.5338160985
 40
0.6218026354
 40
0.7133163893
 40
0.8074675051
 40
0.9033659513
 40
1.0
 40
1.0
 40
1.0
 40
1.0
 10
6.1355249042
 20
2.7478865549
 30
0.0
 10
6.1354907089
 20
2.7478522824
 30
0.0
 10
6.1353964229
 20
2.7477867603
 30
0.0
 10
6.135219253
 20
2.7477018602
 30
0.0
 10
6.1349847887
 20
2.7476162809
 30
0.0
 10
6.134692784
 20
2.7475303432
 30
0.0
 10
6.1343427598
 20
2.7474440315
 30
0.0
 10
6.1337614701
 20
2.7473208562
 30
0.0
 10
6.1328885132
 20
2.7471709671
 30
0.0
 10
6.1316661511
 20
2.7469990063
 30
0.0
 10
6.1302127629
 20
2.7468263195
 30
0.0
 10
6.1285289415
 20
2.7466530013
 30
0.0
 10
6.1266152937
 20
2.7464792881
 30
0.0
 10
6.1244727567
 20
2.7463052571
 30
0.0
 10
6.1211627725
 20
2.7460619486
 30
0.0
 10
6.1164630452
 20
2.7457622622
 30
0.0
 10
6.1101558912
 20
2.745415099
 30
0.0
 10
6.1029704464
 20
2.7450669711
 30
0.0
 10
6.0949229665
 20
2.7447178997
 30
0.0
 10
6.0860317805
 20
2.7443680835
 30
0.0
 10
6.0763172199
 20
2.7440176948
 30
0.0
 10
6.0658017449
 20
2.7436667522
 30
0.0
 10
6.0545098557
 20
2.7433152696
 30
0.0
 10
6.0379796128
 20
2.7428322717
 30
0.0
 10
6.0155891894
 20
2.7422333637
 30
0.0
 10
5.9868003323
 20
2.7415310941
 30
0.0
 10
5.9556536665
 20
2.7408267563
 30
0.0
 10
5.9224465995
 20
2.7401205629
 30
0.0
 10
5.887498819
 20
2.7394126748
 30
0.0
 10
5.8511491662
 20
2.7387032048
 30
0.0
 10
5.8137481944
 20
2.7379922139
 30
0.0
 10
5.7756668601
 20
2.7372798429
 30
0.0
 10
5.7500919416
 20
2.7368043658
 30
0.0
 10
5.737255634
 20
2.7365652766
 30
0.0
 11
6.1355249042
 21
2.7478865549
 31
0.0
 11
6.1354087537
 21
2.7477993522
 31
0.0
 11
6.1352342763
 21
2.7477121304
 31
0.0
 11
6.1350014433
 21
2.7476248896
 31
0.0
 11
6.1347102404
 21
2.7475376297
 31
0.0
 11
6.1343607261
 21
2.7474503507
 31
0.0
 11
6.1339529818
 21
2.7473630526
 31
0.0
 11
6.1329631299
 21
2.7471883994
 31
0.0
 11
6.1317413372
 21
2.7470136698
 31
0.0
 11
6.1302882564
 21
2.746838864
 31
0.0
 11
6.12860454
 21
2.7466639819
 31
0.0
 11
6.1266908407
 21
2.7464890235
 31
0.0
 11
6.124547996
 21
2.7463139887
 31
0.0
 11
6.1221774123
 21
2.7461388775
 31
0.0
 11
6.1167590913
 21
2.745788425
 31
0.0
 11
6.1104480043
 21
2.745437665
 31
0.0
 11
6.1032570834
 21
2.7450865959
 31
0.0
 11
6.0952035645
 21
2.7447352154
 31
0.0
 11
6.0863061152
 21
2.7443835204
 31
0.0
 11
6.0765839277
 21
2.7440315084
 31
0.0
 11
6.0660601888
 21
2.7436791787
 31
0.0
 11
6.0547599262
 21
2.7433265317
 31
0.0
 11
6.0427084423
 21
2.7429735677
 31
0.0
 11
6.0164685083
 21
2.7422666892
 31
0.0
 11
5.9875880979
 21
2.7415585431
 31
0.0
 11
5.9563424833
 21
2.7408491243
 31
0.0
 11
5.9230289749
 21
2.7401384166
 31
0.0
 11
5.8879672557
 21
2.7394263892
 31
0.0
 11
5.8514994337
 21
2.7387130849
 31
0.0
 11
5.8139802626
 21
2.7379985053
 31
0.0
 11
5.7757645596
 21
2.7372824004
 31
0.0
 11
5.737255634
 21
2.7365652766
 31
0.0
  0
SPLINE
  5
25B
100
AcDbEntity
  8
0
100
AcDbSpline
 62
6
  6
CONTINUOUS
 70
0
 71
3
 72
36
 73
32
 74
30
 42
0.0000001
 43
0.0000001
 44
0.0000000001
 12
-0.4089503911
 22
-0.0113670587
 32
0.0
 13
-0.3542472302
 23
-0.20464245
 33
0.0
 40
0.0
 40
0.0
 40
0.0
 40
0.0
 40
0.0950143907
 40
0.189217569
 40
0.2816797177
 40
0.3715926751
 40
0.4581523109
 40
0.5405667259
 40
0.6180941787
 40
0.6900358237
 40
0.7557395854
 40
0.7860663066
 40
0.8146159921
 40
0.8413228755
 40
0.8661298456
 40
0.888980924
 40
0.9098221625
 40
0.9286098906
 40
0.9453041673
 40
0.9598662271
 40
0.9722669001
 40
0.9776502128
 40
0.9824856904
 40
0.9867714095
 40
0.9905061081
 40
0.9936906356
 40
0.9963282953
 40
0.9974441379
 40
0.9984263549
 40
0.9992771476
 40
1.0
 40
1.0
 40
1.0
 40
1.0
 10
5.737255634
 20
2.9381237335
 30
0.0
 10
5.7243035766
 20
2.9377637221
 30
0.0
 10
5.6985100435
 20
2.9370467768
 30
0.0
 10
5.6601126351
 20
2.9359698392
 30
0.0
 10
5.6224111795
 20
2.9348930305
 30
0.0
 10
5.5857524933
 20
2.9338165855
 30
0.0
 10
5.5504646057
 20
2.9327406025
 30
0.0
 10
5.5168665236
 20
2.9316651557
 30
0.0
 10
5.485262933
 20
2.9305905661
 30
0.0
 10
5.455939534
 20
2.9295170812
 30
0.0
 10
5.4330515207
 20
2.928601067
 30
0.0
 10
5.4160786642
 20
2.9278618776
 30
0.0
 10
5.4044201675
 20
2.9273225985
 30
0.0
 10
5.3935152422
 20
2.9267835151
 30
0.0
 10
5.38338843
 20
2.9262447662
 30
0.0
 10
5.3740627057
 20
2.9257064585
 30
0.0
 10
5.3655592766
 20
2.9251685944
 30
0.0
 10
5.3578972436
 20
2.9246314236
 30
0.0
 10
5.3510937281
 20
2.9240953885
 30
0.0
 10
5.3451641791
 20
2.923560569
 30
0.0
 10
5.3407772256
 20
2.9230976247
 30
0.0
 10
5.3377156386
 20
2.9227208887
 30
0.0
 10
5.335755925
 20
2.9224521644
 30
0.0
 10
5.334023313
 20
2.922183916
 30
0.0
 10
5.3325187251
 20
2.9219163131
 30
0.0
 10
5.3312428585
 20
2.9216494877
 30
0.0
 10
5.3303251103
 20
2.9214173055
 30
0.0
 10
5.32970771
 20
2.9212274138
 30
0.0
 10
5.329328456
 20
2.9210932199
 30
0.0
 10
5.3290064871
 20
2.9209592707
 30
0.0
 10
5.3288145893
 20
2.9208624376
 30
0.0
 10
5.3287292331
 20
2.9208131288
 30
0.0
 11
5.737255634
 21
2.9381237335
 31
0.0
 11
5.6983995071
 21
2.9370420681
 31
0.0
 11
5.6598753991
 21
2.9359598524
 31
0.0
 11
5.6220638373
 21
2.9348779819
 31
0.0
 11
5.5852956093
 21
2.9337961286
 31
0.0
 11
5.5498998718
 21
2.9327142108
 31
0.0
 11
5.51620081
 21
2.9316323119
 31
0.0
 11
5.4845021402
 21
2.9305504146
 31
0.0
 11
5.4550901057
 21
2.9294684978
 31
0.0
 11
5.4282319321
 21
2.9283865615
 31
0.0
 11
5.4158368171
 21
2.9278455886
 31
0.0
 11
5.4041694375
 21
2.9273046145
 31
0.0
 11
5.3932568294
 21
2.9267636409
 31
0.0
 11
5.3831225195
 21
2.9262226691
 31
0.0
 11
5.3737896178
 21
2.9256817008
 31
0.0
 11
5.3652804717
 21
2.9251407374
 31
0.0
 11
5.3576133156
 21
2.9245997789
 31
0.0
 11
5.3508050047
 21
2.9240588252
 31
0.0
 11
5.3448721551
 21
2.9235178759
 31
0.0
 11
5.3398278588
 21
2.9229769295
 31
0.0
 11
5.3376421722
 21
2.9227064566
 31
0.0
 11
5.3356825154
 21
2.9224359835
 31
0.0
 11
5.3339501797
 21
2.9221655099
 31
0.0
 11
5.3324464142
 21
2.9218950354
 31
0.0
 11
5.3311719831
 21
2.9216245601
 31
0.0
 11
5.3301273421
 21
2.9213540839
 31
0.0
 11
5.3296913337
 21
2.9212188454
 31
0.0
 11
5.3293129419
 21
2.9210836068
 31
0.0
 11
5.3289922229
 21
2.9209483679
 31
0.0
 11
5.3287292331
 21
2.9208131288
 31
0.0
  0
LINE
  5
25C
100
AcDbEntity
  8
0
100
AcDbLine
 62
6
  6
CONTINUOUS
 10
5.3674382679
 20
2.7289004765
 11
5.3682123608
 21
2.7292482214
  0
SPLINE
  5
25D
100
AcDbEntity
  8
0
100
AcDbSpline
 62
6
  6
CONTINUOUS
 70
0
 71
3
 72
63
 73
59
 74
57
 42
0.0000001
 43
0.0000001
 44
0.0000000001
 12
0.6954724858
 22
0.2553461993
 32
0.0
 13
0.0007599205
 23
0.7408664404
 33
0.0
 40
0.0
 40
0.0
 40
0.0
 40
0.0
 40
0.0011981749
 40
0.0026691092
 40
0.0044152247
 40
0.0064374834
 40
0.0087360876
 40
0.0113108068
 40
0.0172860701
 40
0.0243529347
 40
0.0324958342
 40
0.0416983754
 40
0.0519416726
 40
0.0632013404
 40
0.0754520164
 40
0.1028178554
 40
0.1337892207
 40
0.1680875145
 40
0.2053991138
 40
0.2453851858
 40
0.2876818131
 40
0.3319027651
 40
0.3776462307
 40
0.4244942209
 40
0.4720204659
 40
0.519791224
 40
0.5673714511
 40
0.61432689
 40
0.6602301822
 40
0.7046622916
 40
0.7472186718
 40
0.7875118753
 40
0.8251738292
 40
0.8598635925
 40
0.891263407
 40
0.9190903516
 40
0.9315830191
 40
0.9430914989
 40
0.9535889022
 40
0.963051089
 40
0.9714590172
 40
0.9787945396
 40
0.9820547289
 40
0.9850410612
 40
0.9877525921
 40
0.9901885217
 40
0.9923482615
 40
0.9942315604
 40
0.9958387401
 40
0.997171279
 40
0.9977358587
 40
0.9982337427
 40
0.9986663038
 40
0.9990356606
 40
0.9993452517
 40
0.9996009631
 40
0.9998132405
 40
1.0
 40
1.0
 40
1.0
 40
1.0
 10
5.3682123608
 20
2.7292482214
 30
0.0
 10
5.3684901267
 20
2.7293502045
 30
0.0
 10
5.3691199579
 20
2.7295470212
 30
0.0
 10
5.3701773112
 20
2.7298143302
 30
0.0
 10
5.3714433282
 20
2.7300826829
 30
0.0
 10
5.3729173705
 20
2.7303518053
 30
0.0
 10
5.3745988938
 20
2.7306214744
 30
0.0
 10
5.3772511507
 20
2.7310006036
 30
0.0
 10
5.3810800699
 20
2.7314656197
 30
0.0
 10
5.386284413
 20
2.7320021535
 30
0.0
 10
5.3922892592
 20
2.7325401834
 30
0.0
 10
5.3990811711
 20
2.7330793534
 30
0.0
 10
5.4066448944
 20
2.7336191621
 30
0.0
 10
5.4149630507
 20
2.7341596317
 30
0.0
 10
5.4275049015
 20
2.7349087674
 30
0.0
 10
5.4449126589
 20
2.7358325682
 30
0.0
 10
5.4677643274
 20
2.736907602
 30
0.0
 10
5.4930745171
 20
2.7379843934
 30
0.0
 10
5.5206126991
 20
2.7390627556
 30
0.0
 10
5.5501274785
 20
2.7401420955
 30
0.0
 10
5.5813496042
 20
2.7412221573
 30
0.0
 10
5.6139943393
 20
2.7423027813
 30
0.0
 10
5.6477636393
 20
2.7433837346
 30
0.0
 10
5.6823495966
 20
2.7444649708
 30
0.0
 10
5.7174364412
 20
2.7455463248
 30
0.0
 10
5.7527041986
 20
2.7466277487
 30
0.0
 10
5.7878309279
 20
2.7477091142
 30
0.0
 10
5.8224962594
 20
2.7487903704
 30
0.0
 10
5.8563837694
 20
2.7498713698
 30
0.0
 10
5.8891843516
 20
2.7509520306
 30
0.0
 10
5.920598729
 20
2.7520321919
 30
0.0
 10
5.9503401717
 20
2.7531116086
 30
0.0
 10
5.9781375872
 20
2.7541901383
 30
0.0
 10
6.0037370285
 20
2.7552671316
 30
0.0
 10
6.0269053807
 20
2.7563424451
 30
0.0
 10
6.044592971
 20
2.757265942
 30
0.0
 10
6.0573703455
 20
2.7580144496
 30
0.0
 10
6.0658728336
 20
2.7585549975
 30
0.0
 10
6.0736253222
 20
2.7590949983
 30
0.0
 10
6.0806101333
 20
2.759634365
 30
0.0
 10
6.086811581
 20
2.7601727866
 30
0.0
 10
6.0914818668
 20
2.7606365185
 30
0.0
 10
6.0948149658
 20
2.7610122448
 30
0.0
 10
6.0970106634
 20
2.7612826718
 30
0.0
 10
6.0990011593
 20
2.7615528371
 30
0.0
 10
6.1007855136
 20
2.7618226759
 30
0.0
 10
6.1023628039
 20
2.762092078
 30
0.0
 10
6.1037322448
 20
2.7623608085
 30
0.0
 10
6.1048930213
 20
2.7626287359
 30
0.0
 10
6.105727019
 20
2.7628619197
 30
0.0
 10
6.1062870795
 20
2.7630525497
 30
0.0
 10
6.1066309629
 20
2.7631873655
 30
0.0
 10
6.1069226225
 20
2.763322
 30
0.0
 10
6.1071623178
 20
2.7634565432
 30
0.0
 10
6.1073505381
 20
2.7635912563
 30
0.0
 10
6.1074878545
 20
2.763727125
 30
0.0
 10
6.1075742461
 20
2.7638663234
 30
0.0
 10
6.1075951121
 20
2.7639654726
 30
0.0
 10
6.1075951594
 20
2.7640115939
 30
0.0
 11
5.3682123608
 21
2.7292482214
 31
0.0
 11
5.3690574817
 21
2.7295198105
 31
0.0
 11
5.3701128633
 21
2.7297913995
 31
0.0
 11
5.3713776722
 21
2.7300629884
 31
0.0
 11
5.372851075
 21
2.7303345771
 31
0.0
 11
5.3745322386
 21
2.7306061658
 31
0.0
 11
5.3764203296
 21
2.7308777545
 31
0.0
 11
5.3808137536
 21
2.731420932
 31
0.0
 11
5.3860211065
 21
2.7319641097
 31
0.0
 11
5.3920294077
 21
2.7325072875
 31
0.0
 11
5.3988255934
 21
2.7330504652
 31
0.0
 11
5.4063950485
 21
2.7335936429
 31
0.0
 11
5.4147192598
 21
2.7341368206
 31
0.0
 11
5.423779111
 21
2.7346799983
 31
0.0
 11
5.4440244276
 21
2.7357663537
 31
0.0
 11
5.4669443538
 21
2.7368527091
 31
0.0
 11
5.4923315894
 21
2.7379390645
 31
0.0
 11
5.5199531608
 21
2.7390254199
 31
0.0
 11
5.5495575896
 21
2.7401117753
 31
0.0
 11
5.5808749214
 21
2.7411981306
 31
0.0
 11
5.6136187416
 21
2.742284486
 31
0.0
 11
5.6474911417
 21
2.7433708414
 31
0.0
 11
5.6821822582
 21
2.7444571968
 31
0.0
 11
5.717376114
 21
2.7455435522
 31
0.0
 11
5.7527512072
 21
2.7466299076
 31
0.0
 11
5.7879850756
 21
2.747716263
 31
0.0
 11
5.8227558362
 21
2.7488026184
 31
0.0
 11
5.8567467072
 21
2.7498889738
 31
0.0
 11
5.8896470526
 21
2.7509753292
 31
0.0
 11
5.9211569417
 21
2.7520616846
 31
0.0
 11
5.9509890661
 21
2.7531480399
 31
0.0
 11
5.9788704024
 21
2.7542343953
 31
0.0
 11
6.0045479271
 21
2.7553207507
 31
0.0
 11
6.0277856286
 21
2.7564071061
 31
0.0
 11
6.0483730464
 21
2.7574934615
 31
0.0
 11
6.0576124967
 21
2.7580366392
 31
0.0
 11
6.0661214281
 21
2.7585798169
 31
0.0
 11
6.0738796143
 21
2.7591229946
 31
0.0
 11
6.0808687593
 21
2.7596661723
 31
0.0
 11
6.0870741869
 21
2.76020935
 31
0.0
 11
6.0924816194
 21
2.7607525277
 31
0.0
 11
6.094881668
 21
2.7610241165
 31
0.0
 11
6.09707741
 21
2.7612957054
 31
0.0
 11
6.09906785
 21
2.7615672942
 31
0.0
 11
6.1008519968
 21
2.7618388831
 31
0.0
 11
6.1024288589
 21
2.7621104719
 31
0.0
 11
6.1037974451
 21
2.7623820608
 31
0.0
 11
6.1049567641
 21
2.7626536496
 31
0.0
 11
6.105905906
 21
2.7629252385
 31
0.0
 11
6.1063015278
 21
2.7630610329
 31
0.0
 11
6.1066444882
 21
2.7631968273
 31
0.0
 11
6.1069347657
 21
2.7633326217
 31
0.0
 11
6.1071723388
 21
2.7634684162
 31
0.0
 11
6.1073571862
 21
2.7636042106
 31
0.0
 11
6.1074892864
 21
2.763740005
 31
0.0
 11
6.1075686179
 21
2.7638757994
 31
0.0
 11
6.1075951594
 21
2.7640115939
 31
0.0
  0
SPLINE
  5
25E
100
AcDbEntity
  8
0
100
AcDbSpline
 62
6
  6
CONTINUOUS
 70
0
 71
3
 72
36
 73
32
 74
30
 42
0.0000001
 43
0.0000001
 44
0.0000000001
 12
0.4089503441
 22
0.0113670574
 32
0.0
 13
0.3542489082
 23
0.2046394511
 33
0.0
 40
0.0
 40
0.0
 40
0.0
 40
0.0
 40
0.0950137604
 40
0.1892157688
 40
0.2816778739
 40
0.3715925117
 40
0.4581543415
 40
0.5405695969
 40
0.6180969952
 40
0.6900379272
 40
0.7557408517
 40
0.786067015
 40
0.8146162029
 40
0.8413225819
 40
0.8661290232
 40
0.8889796009
 40
0.9098204949
 40
0.9286080902
 40
0.945302329
 40
0.9598644577
 40
0.9722655862
 40
0.9776491914
 40
0.9824849519
 40
0.9867709048
 40
0.9905057646
 40
0.9936904119
 40
0.9963281625
 40
0.9974440427
 40
0.9984262936
 40
0.9992771178
 40
1.0
 40
1.0
 40
1.0
 40
1.0
 10
5.737255634
 20
2.7863344563
 30
0.0
 10
5.750207604
 20
2.7866944652
 30
0.0
 10
5.7760008887
 20
2.7874114036
 30
0.0
 10
5.8143980414
 20
2.7884883339
 30
0.0
 10
5.8520995563
 20
2.789565143
 30
0.0
 10
5.8887587605
 20
2.7906416052
 30
0.0
 10
5.9240472867
 20
2.7917176055
 30
0.0
 10
5.957645771
 20
2.792793069
 30
0.0
 10
5.9892493679
 20
2.7938676584
 30
0.0
 10
6.0185725446
 20
2.7949411417
 30
0.0
 10
6.0414602681
 20
2.795857143
 30
0.0
 10
6.0584328646
 20
2.7965963247
 30
0.0
 10
6.0700911475
 20
2.7971355934
 30
0.0
 10
6.080995863
 20
2.7976746655
 30
0.0
 10
6.0911224653
 20
2.7982134024
 30
0.0
 10
6.1004480015
 20
2.7987516982
 30
0.0
 10
6.1089512968
 20
2.7992895487
 30
0.0
 10
6.1166132596
 20
2.7998267049
 30
0.0
 10
6.1234167611
 20
2.8003627305
 30
0.0
 10
6.1293463753
 20
2.8008975581
 30
0.0
 10
6.1337334401
 20
2.8013605035
 30
0.0
 10
6.1367951678
 20
2.8017372444
 30
0.0
 10
6.1387549917
 20
2.8020059746
 30
0.0
 10
6.1404876961
 20
2.8022742294
 30
0.0
 10
6.1419923536
 20
2.8025418415
 30
0.0
 10
6.14326827
 20
2.8028086755
 30
0.0
 10
6.1441860511
 20
2.8030408654
 30
0.0
 10
6.1448034726
 20
2.8032307633
 30
0.0
 10
6.1451827399
 20
2.8033649615
 30
0.0
 10
6.145504721
 20
2.8034989149
 30
0.0
 10
6.1456966268
 20
2.8035957508
 30
0.0
 10
6.1457819869
 20
2.8036450609
 30
0.0
 11
5.737255634
 21
2.7863344563
 31
0.0
 11
5.7761114986
 21
2.7874161144
 31
0.0
 11
5.8146351238
 21
2.7884983162
 31
0.0
 11
5.8524466635
 21
2.7895801854
 31
0.0
 11
5.8892155744
 21
2.7906620594
 31
0.0
 11
5.924612205
 21
2.7917440041
 31
0.0
 11
5.9583116065
 21
2.7928259162
 31
0.0
 11
5.9900102503
 21
2.7939078143
 31
0.0
 11
6.0194219898
 21
2.7949897243
 31
0.0
 11
6.046279818
 21
2.7960716481
 31
0.0
 11
6.0586747035
 21
2.7966126127
 31
0.0
 11
6.0703418785
 21
2.7971535772
 31
0.0
 11
6.0812542791
 21
2.7976945398
 31
0.0
 11
6.091388372
 21
2.7982354991
 31
0.0
 11
6.1007210681
 21
2.7987764536
 31
0.0
 11
6.1092300729
 21
2.7993174025
 31
0.0
 11
6.1168971746
 21
2.7998583483
 31
0.0
 11
6.1237054698
 21
2.8003992941
 31
0.0
 11
6.1296383471
 21
2.8009402434
 31
0.0
 11
6.1346828294
 21
2.8014811975
 31
0.0
 11
6.1368686355
 21
2.8017516763
 31
0.0
 11
6.138828408
 21
2.8020221565
 31
0.0
 11
6.1405608391
 21
2.8022926379
 31
0.0
 11
6.1420646699
 21
2.8025631205
 31
0.0
 11
6.1433391492
 21
2.8028336044
 31
0.0
 11
6.1443838262
 21
2.8031040891
 31
0.0
 11
6.1448198493
 21
2.8032393319
 31
0.0
 11
6.1451982544
 21
2.8033745747
 31
0.0
 11
6.1455189855
 21
2.8035098178
 31
0.0
 11
6.1457819869
 21
2.8036450609
 31
0.0
  0
SPLINE
  5
25F
100
AcDbEntity
  8
0
100
AcDbSpline
 62
6
  6
CONTINUOUS
 70
0
 71
3
 72
22
 73
18
 74
16
 42
0.0000001
 43
0.0000001
 44
0.0000000001
 12
0.0394894307
 22
0.0228118946
 32
0.0
 13
0.0455123672
 23
0.0029020871
 33
0.0
 40
0.0
 40
0.0
 40
0.0
 40
0.0
 40
0.0076965599
 40
0.0168423572
 40
0.0274770076
 40
0.0396246882
 40
0.0685127356
 40
0.1035799782
 40
0.1448547127
 40
0.192333464
 40
0.2459936656
 40
0.3058066354
 40
0.3717400118
 40
0.443759036
 40
0.6058584556
 40
0.7915037237
 40
1.0
 40
1.0
 40
1.0
 40
1.0
 10
5.3674385686
 20
2.8003304801
 30
0.0
 10
5.3675398796
 20
2.8003890044
 30
0.0
 10
5.3677693266
 20
2.8005036491
 30
0.0
 10
5.3681562792
 20
2.8006615175
 30
0.0
 10
5.3686153453
 20
2.8008197262
 30
0.0
 10
5.3693682512
 20
2.8010441364
 30
0.0
 10
5.3704928917
 20
2.8013180994
 30
0.0
 10
5.3720615594
 20
2.8016326693
 30
0.0
 10
5.3739174239
 20
2.8019481937
 30
0.0
 10
5.3760592178
 20
2.8022645686
 30
0.0
 10
5.3784854225
 20
2.8025815103
 30
0.0
 10
5.3811942225
 20
2.8028988852
 30
0.0
 10
5.3841837837
 20
2.8032166162
 30
0.0
 10
5.3887236736
 20
2.8036582052
 30
0.0
 10
5.3950816558
 20
2.8042029912
 30
0.0
 10
5.40351382
 20
2.8048354721
 30
0.0
 10
5.4094921372
 20
2.8052349034
 30
0.0
 10
5.4126551902
 20
2.8054365949
 30
0.0
 11
5.3674385686
 21
2.8003304801
 31
0.0
 11
5.3677511997
 21
2.800490051
 31
0.0
 11
5.3681365609
 21
2.8006496213
 31
0.0
 11
5.36859455
 21
2.8008091906
 31
0.0
 11
5.3691250646
 21
2.8009687585
 31
0.0
 11
5.3704032616
 21
2.8012878883
 31
0.0
 11
5.3719703334
 21
2.8016070074
 31
0.0
 11
5.3738254136
 21
2.8019261132
 31
0.0
 11
5.3759670303
 21
2.8022452119
 31
0.0
 11
5.3783932986
 21
2.8025643157
 31
0.0
 11
5.3811023257
 21
2.802883437
 31
0.0
 11
5.3840922187
 21
2.803202588
 31
0.0
 11
5.3873610848
 21
2.8035217811
 31
0.0
 11
5.3947259703
 21
2.8041602839
 31
0.0
 11
5.4031681824
 21
2.8047986777
 31
0.0
 11
5.4126551902
 21
2.8054365949
 31
0.0
  0
SPLINE
  5
260
100
AcDbEntity
  8
0
100
AcDbSpline
 62
6
  6
CONTINUOUS
 70
0
 71
3
 72
22
 73
18
 74
16
 42
0.0000001
 43
0.0000001
 44
0.0000000001
 12
0.0436470883
 22
0.0252172454
 32
0.0
 13
0.0503243009
 23
0.0029056017
 33
0.0
 40
0.0
 40
0.0
 40
0.0
 40
0.0
 40
0.0071176211
 40
0.015724399
 40
0.0258617261
 40
0.0375535537
 40
0.065650652
 40
0.100080408
 40
0.1408636938
 40
0.1880012877
 40
0.2414702319
 40
0.3012364812
 40
0.3672626402
 40
0.4395091643
 40
0.6024748304
 40
0.7895471117
 40
1.0
 40
1.0
 40
1.0
 40
1.0
 10
5.328728851
 20
2.7779531283
 30
0.0
 10
5.3288324055
 20
2.7780129573
 30
0.0
 10
5.3290701309
 20
2.778129574
 30
0.0
 10
5.3294746914
 20
2.7782888566
 30
0.0
 10
5.3299607555
 20
2.7784485914
 30
0.0
 10
5.330768386
 20
2.7786761346
 30
0.0
 10
5.3319849967
 20
2.778953172
 30
0.0
 10
5.3336917981
 20
2.7792708537
 30
0.0
 10
5.335722976
 20
2.7795896736
 30
0.0
 10
5.3380772089
 20
2.7799094152
 30
0.0
 10
5.3407528875
 20
2.7802297588
 30
0.0
 10
5.3437478901
 20
2.7805505726
 30
0.0
 10
5.3470599887
 20
2.7808717616
 30
0.0
 10
5.3521018977
 20
2.7813185328
 30
0.0
 10
5.3591761851
 20
2.7818695106
 30
0.0
 10
5.3685723129
 20
2.7825088636
 30
0.0
 10
5.3752396699
 20
2.7829124027
 30
0.0
 10
5.3787699681
 20
2.7831162335
 30
0.0
 11
5.328728851
 21
2.7779531283
 31
0.0
 11
5.3290493088
 21
2.7781144793
 31
0.0
 11
5.3294520405
 21
2.7782758305
 31
0.0
 11
5.3299369017
 21
2.7784371817
 31
0.0
 11
5.3305037479
 21
2.7785985323
 31
0.0
 11
5.3318828176
 21
2.7789212302
 31
0.0
 11
5.3335880937
 21
2.7792439209
 31
0.0
 11
5.3356184202
 21
2.7795666009
 31
0.0
 11
5.3379725269
 21
2.7798892684
 31
0.0
 11
5.3406484119
 21
2.7802119322
 31
0.0
 11
5.3436437861
 21
2.7805346049
 31
0.0
 11
5.3469563596
 21
2.7808572992
 31
0.0
 11
5.3505838426
 21
2.7811800279
 31
0.0
 11
5.3587732275
 21
2.7818256105
 31
0.0
 11
5.3681810673
 21
2.7824711385
 31
0.0
 11
5.3787699681
 21
2.7831162335
 31
0.0
  0
SPLINE
  5
261
100
AcDbEntity
  8
0
100
AcDbSpline
 62
6
  6
CONTINUOUS
 70
0
 71
3
 72
66
 73
62
 74
60
 42
0.0000001
 43
0.0000001
 44
0.0000000001
 12
0.0008519372
 22
0.7417159855
 32
0.0
 13
0.6420609228
 23
0.3713503743
 33
0.0
 40
0.0
 40
0.0
 40
0.0
 40
0.0
 40
0.0001884875
 40
0.0004032149
 40
0.0006624869
 40
0.0009768964
 40
0.0013523769
 40
0.0017923792
 40
0.0022990215
 40
0.0028736709
 40
0.0042302539
 40
0.0058668053
 40
0.0077849035
 40
0.0099847666
 40
0.0124660374
 40
0.0152280204
 40
0.0182698086
 40
0.0215903558
 40
0.0290615611
 40
0.037624525
 40
0.0472599883
 40
0.0579480277
 40
0.0696640268
 40
0.0823798227
 40
0.1106951057
 40
0.1426318144
 40
0.1778959902
 40
0.2161582552
 40
0.2570652694
 40
0.3002357123
 40
0.3452687659
 40
0.3917460495
 40
0.4392348489
 40
0.4872941945
 40
0.5354766872
 40
0.5833347036
 40
0.6304226819
 40
0.6763036082
 40
0.7205497994
 40
0.7627511096
 40
0.8025146407
 40
0.8394709687
 40
0.8732781809
 40
0.9036207086
 40
0.91740502
 40
0.9302204979
 40
0.9420373933
 40
0.9528302213
 40
0.9625739069
 40
0.9712450475
 40
0.9788262372
 40
0.9853020221
 40
0.9881208918
 40
0.9906585073
 40
0.9929144614
 40
0.9948887389
 40
0.9965818325
 40
0.9979951486
 40
0.9991319067
 40
0.9995987938
 40
1.0
 40
1.0
 40
1.0
 40
1.0
 10
5.3669160008
 20
2.889016596
 30
0.0
 10
5.3669160543
 20
2.8890631974
 30
0.0
 10
5.3669374241
 20
2.8891634976
 30
0.0
 10
5.3670256655
 20
2.8893040693
 30
0.0
 10
5.3671657795
 20
2.8894412429
 30
0.0
 10
5.367357803
 20
2.8895772633
 30
0.0
 10
5.3676023289
 20
2.8897131277
 30
0.0
 10
5.3678998564
 20
2.8898490941
 30
0.0
 10
5.3682506436
 20
2.8899852495
 30
0.0
 10
5.3688219638
 20
2.8901777923
 30
0.0
 10
5.3696726336
 20
2.890413317
 30
0.0
 10
5.3708565754
 20
2.8906839217
 30
0.0
 10
5.3722533978
 20
2.890955325
 30
0.0
 10
5.3738622529
 20
2.8912274145
 30
0.0
 10
5.3756822769
 20
2.8914999467
 30
0.0
 10
5.3777124669
 20
2.891772811
 30
0.0
 10
5.3799518044
 20
2.8920459397
 30
0.0
 10
5.3833509215
 20
2.8924254314
 30
0.0
 10
5.3881133813
 20
2.8928937873
 30
0.0
 10
5.3944366753
 20
2.8934375758
 30
0.0
 10
5.4015578124
 20
2.8939823312
 30
0.0
 10
5.4094604786
 20
2.8945277433
 30
0.0
 10
5.4181263282
 20
2.8950736836
 30
0.0
 10
5.4311455697
 20
2.8958295876
 30
0.0
 10
5.4491620836
 20
2.8967622219
 30
0.0
 10
5.4727524841
 20
2.8978482386
 30
0.0
 10
5.4988044345
 20
2.898935965
 30
0.0
 10
5.5270758863
 20
2.9000252358
 30
0.0
 10
5.5573033867
 20
2.9011153963
 30
0.0
 10
5.5892058847
 20
2.9022063092
 30
0.0
 10
5.6224863193
 20
2.9032977159
 30
0.0
 10
5.6568349605
 20
2.9043894615
 30
0.0
 10
5.6919321784
 20
2.905481455
 30
0.0
 10
5.7274511873
 20
2.9065735498
 30
0.0
 10
5.7630615224
 20
2.907665689
 30
0.0
 10
5.7984315876
 20
2.9087577397
 30
0.0
 10
5.8332323468
 20
2.9098496501
 30
0.0
 10
5.8671396848
 20
2.910941243
 30
0.0
 10
5.8998382167
 20
2.9120324637
 30
0.0
 10
5.9310234375
 20
2.9131230609
 30
0.0
 10
5.9604051914
 20
2.9142128553
 30
0.0
 10
5.987710129
 20
2.9153015077
 30
0.0
 10
6.0126838903
 20
2.9163885591
 30
0.0
 10
6.0319298189
 20
2.9173198462
 30
0.0
 10
6.0459880368
 20
2.918073067
 30
0.0
 10
6.0554704349
 20
2.918619456
 30
0.0
 10
6.0642119227
 20
2.919165495
 30
0.0
 10
6.0721923777
 20
2.9197109759
 30
0.0
 10
6.0793931431
 20
2.9202557284
 30
0.0
 10
6.085797442
 20
2.9207995838
 30
0.0
 10
6.0913906029
 20
2.921342176
 30
0.0
 10
6.0955368051
 20
2.9218114711
 30
0.0
 10
6.0984372665
 20
2.9221932303
 30
0.0
 10
6.1002995838
 20
2.9224658763
 30
0.0
 10
6.1019506923
 20
2.9227380708
 30
0.0
 10
6.1033899073
 20
2.9230097055
 30
0.0
 10
6.1046168589
 20
2.923280415
 30
0.0
 10
6.1056309851
 20
2.9235500613
 30
0.0
 10
6.1063397043
 20
2.923785944
 30
0.0
 10
6.1067959838
 20
2.9239802354
 30
0.0
 10
6.1069873673
 20
2.9240780498
 30
0.0
 10
6.1070732335
 20
2.9241277125
 30
0.0
 11
5.3669160008
 21
2.889016596
 31
0.0
 11
5.3669430998
 21
2.8891537488
 31
0.0
 11
5.3670240629
 21
2.8892909016
 31
0.0
 11
5.3671588621
 21
2.8894280544
 31
0.0
 11
5.3673474692
 21
2.8895652072
 31
0.0
 11
5.367589856
 21
2.88970236
 31
0.0
 11
5.3678859945
 21
2.8898395128
 31
0.0
 11
5.3682358565
 21
2.8899766656
 31
0.0
 11
5.3686394138
 21
2.8901138184
 31
0.0
 11
5.369607502
 21
2.890388124
 31
0.0
 11
5.3707899595
 21
2.8906624296
 31
0.0
 11
5.3721859498
 21
2.8909367352
 31
0.0
 11
5.3737944021
 21
2.8912110408
 31
0.0
 11
5.3756142446
 21
2.8914853464
 31
0.0
 11
5.3776444053
 21
2.891759652
 31
0.0
 11
5.3798838123
 21
2.8920339576
 31
0.0
 11
5.3823313939
 21
2.8923082632
 31
0.0
 11
5.3878456867
 21
2.8928568744
 31
0.0
 11
5.3941732398
 21
2.8934054856
 31
0.0
 11
5.4012989339
 21
2.8939540967
 31
0.0
 11
5.4092074232
 21
2.8945027079
 31
0.0
 11
5.417880038
 21
2.8950513191
 31
0.0
 11
5.4272955841
 21
2.8955999303
 31
0.0
 11
5.4482688148
 21
2.8966971527
 31
0.0
 11
5.4719313725
 21
2.8977943751
 31
0.0
 11
5.4980643688
 21
2.8988915975
 31
0.0
 11
5.5264229027
 21
2.8999888199
 31
0.0
 11
5.5567444634
 21
2.9010860423
 31
0.0
 11
5.5887458876
 21
2.9021832647
 31
0.0
 11
5.622129619
 21
2.9032804871
 31
0.0
 11
5.6565851201
 21
2.9043777095
 31
0.0
 11
5.6917912513
 21
2.9054749319
 31
0.0
 11
5.727420769
 21
2.9065721543
 31
0.0
 11
5.7631416702
 21
2.9076693766
 31
0.0
 11
5.7986217877
 21
2.908766599
 31
0.0
 11
5.8335304777
 21
2.9098638214
 31
0.0
 11
5.8675434236
 21
2.9109610438
 31
0.0
 11
5.9003432055
 21
2.9120582662
 31
0.0
 11
5.9316253759
 21
2.9131554886
 31
0.0
 11
5.9610982252
 21
2.914252711
 31
0.0
 11
5.9884873737
 21
2.9153499334
 31
0.0
 11
6.0135387229
 21
2.9164471558
 31
0.0
 11
6.036017513
 21
2.9175443782
 31
0.0
 11
6.0462268344
 21
2.9180929894
 31
0.0
 11
6.0557164405
 21
2.9186416006
 31
0.0
 11
6.0644640402
 21
2.9191902118
 31
0.0
 11
6.0724504378
 21
2.919738823
 31
0.0
 11
6.0796566371
 21
2.9202874342
 31
0.0
 11
6.0860647238
 21
2.9208360454
 31
0.0
 11
6.0916609908
 21
2.9213846566
 31
0.0
 11
6.0964327537
 21
2.9219332677
 31
0.0
 11
6.0985054837
 21
2.9222075733
 31
0.0
 11
6.1003675794
 21
2.9224818789
 31
0.0
 11
6.1020182207
 21
2.9227561845
 31
0.0
 11
6.1034566538
 21
2.9230304901
 31
0.0
 11
6.1046821245
 21
2.9233047957
 31
0.0
 11
6.1056938789
 21
2.9235791013
 31
0.0
 11
6.1064911631
 21
2.9238534069
 31
0.0
 11
6.1068091432
 21
2.9239905597
 31
0.0
 11
6.1070732335
 21
2.9241277125
 31
0.0
  0
SPLINE
  5
262
100
AcDbEntity
  8
0
100
AcDbSpline
 62
6
  6
CONTINUOUS
 70
0
 71
3
 72
66
 73
62
 74
60
 42
0.0000001
 43
0.0000001
 44
0.0000000001
 12
-0.0004282348
 22
0.7417161809
 32
0.0
 13
0.6421883919
 23
0.3711295538
 33
0.0
 40
0.0
 40
0.0
 40
0.0
 40
0.0
 40
0.0001884414
 40
0.0004031411
 40
0.0006624818
 40
0.0009770596
 40
0.0013527799
 40
0.0017930547
 40
0.00229996
 40
0.0028748197
 40
0.0042314919
 40
0.0058674985
 40
0.0077848822
 40
0.0099845648
 40
0.0124662014
 40
0.0152287639
 40
0.0182710076
 40
0.0215915471
 40
0.0290614721
 40
0.0376247731
 40
0.0472611946
 40
0.0579484792
 40
0.0696639392
 40
0.082380689
 40
0.1106950253
 40
0.1426329322
 40
0.1778961144
 40
0.2161590077
 40
0.2570658229
 40
0.3002360554
 40
0.3452695406
 40
0.3917464096
 40
0.4392355579
 40
0.4872946814
 40
0.5354773827
 40
0.5833351396
 40
0.6304235307
 40
0.676303963
 40
0.7205505752
 40
0.7627517888
 40
0.8025150115
 40
0.8394722052
 40
0.8732781799
 40
0.9036219824
 40
0.9174051761
 40
0.9302208304
 40
0.9420389068
 40
0.9528308751
 40
0.9625737957
 40
0.9712462592
 40
0.9788274956
 40
0.9853019702
 40
0.9881207979
 40
0.990659066
 40
0.992915807
 40
0.9948903683
 40
0.9965830227
 40
0.9979956087
 40
0.9991318268
 40
0.9995986568
 40
1.0
 40
1.0
 40
1.0
 40
1.0
 10
5.3669156662
 20
2.7461565945
 30
0.0
 10
5.3669156393
 20
2.7462031845
 30
0.0
 10
5.3669368795
 20
2.74630351
 30
0.0
 10
5.367025122
 20
2.7464440962
 30
0.0
 10
5.3671653206
 20
2.7465812584
 30
0.0
 10
5.367357497
 20
2.7467172679
 30
0.0
 10
5.3676022191
 20
2.7468531243
 30
0.0
 10
5.3678999593
 20
2.7469890855
 30
0.0
 10
5.368250945
 20
2.7471252374
 30
0.0
 10
5.3688224194
 20
2.7473177559
 30
0.0
 10
5.3696730292
 20
2.7475532592
 30
0.0
 10
5.3708566607
 20
2.7478239195
 30
0.0
 10
5.3722531122
 20
2.7480953679
 30
0.0
 10
5.3738618374
 20
2.7483674431
 30
0.0
 10
5.3756820557
 20
2.7486399524
 30
0.0
 10
5.3777125968
 20
2.7489128007
 30
0.0
 10
5.3799521911
 20
2.7491859164
 30
0.0
 10
5.3833511021
 20
2.7495653894
 30
0.0
 10
5.3881133127
 20
2.7500338651
 30
0.0
 10
5.3944366159
 20
2.7505775844
 30
0.0
 10
5.40155789
 20
2.7511222735
 30
0.0
 10
5.4094604663
 20
2.7516677544
 30
0.0
 10
5.4181262282
 20
2.7522137217
 30
0.0
 10
5.4311453413
 20
2.7529695143
 30
0.0
 10
5.4491621417
 20
2.7539022947
 30
0.0
 10
5.4727523597
 20
2.7549881744
 30
0.0
 10
5.4988045056
 20
2.7560760069
 30
0.0
 10
5.5270758139
 20
2.7571652122
 30
0.0
 10
5.5573033605
 20
2.7582553978
 30
0.0
 10
5.5892058565
 20
2.7593463181
 30
0.0
 10
5.6224862363
 20
2.7604376993
 30
0.0
 10
5.6568349593
 20
2.7615294744
 30
0.0
 10
5.6919320987
 20
2.7626214423
 30
0.0
 10
5.7274511818
 20
2.7637135574
 30
0.0
 10
5.7630614418
 20
2.764805678
 30
0.0
 10
5.7984315876
 20
2.7658977514
 30
0.0
 10
5.8332322554
 20
2.766989632
 30
0.0
 10
5.8671396686
 20
2.7680812578
 30
0.0
 10
5.8998381519
 20
2.7691724547
 30
0.0
 10
5.9310233696
 20
2.7702630509
 30
0.0
 10
5.9604052291
 20
2.7713528861
 30
0.0
 10
5.9877099959
 20
2.7724414482
 30
0.0
 10
6.0126839687
 20
2.7735286365
 30
0.0
 10
6.031929633
 20
2.7744597703
 30
0.0
 10
6.0459879249
 20
2.775213094
 30
0.0
 10
6.0554703795
 20
2.7757594883
 30
0.0
 10
6.0642119945
 20
2.7763054347
 30
0.0
 10
6.0721923346
 20
2.7768509673
 30
0.0
 10
6.0793930163
 20
2.777395808
 30
0.0
 10
6.0857974737
 20
2.7779395419
 30
0.0
 10
6.0913906526
 20
2.7784820994
 30
0.0
 10
6.0955365161
 20
2.7789515088
 30
0.0
 10
6.0984368017
 20
2.7793332693
 30
0.0
 10
6.100299471
 20
2.7796058898
 30
0.0
 10
6.1019510175
 20
2.7798780438
 30
0.0
 10
6.1033903982
 20
2.780149646
 30
0.0
 10
6.1046171217
 20
2.780420377
 30
0.0
 10
6.1056308032
 20
2.7806900585
 30
0.0
 10
6.1063391616
 20
2.7809259796
 30
0.0
 10
6.1067953182
 20
2.7811202662
 30
0.0
 10
6.1069867313
 20
2.7812180612
 30
0.0
 10
6.1070726439
 20
2.7812677113
 30
0.0
 11
5.3669156662
 21
2.7461565945
 31
0.0
 11
5.3669425879
 21
2.7462937473
 31
0.0
 11
5.3670235106
 21
2.7464309001
 31
0.0
 11
5.3671583824
 21
2.7465680529
 31
0.0
 11
5.3673471438
 21
2.7467052057
 31
0.0
 11
5.3675897349
 21
2.7468423585
 31
0.0
 11
5.367886096
 21
2.7469795113
 31
0.0
 11
5.3682361674
 21
2.7471166641
 31
0.0
 11
5.3686398894
 21
2.7472538169
 31
0.0
 11
5.3696080461
 21
2.7475281225
 31
0.0
 11
5.3707900884
 21
2.7478024281
 31
0.0
 11
5.3721855384
 21
2.7480767337
 31
0.0
 11
5.3737938545
 21
2.7483510393
 31
0.0
 11
5.3756139709
 21
2.7486253449
 31
0.0
 11
5.3776445648
 21
2.7488996505
 31
0.0
 11
5.3798843117
 21
2.7491739561
 31
0.0
 11
5.382331887
 21
2.7494482617
 31
0.0
 11
5.3878452243
 21
2.7499968729
 31
0.0
 11
5.3941730269
 21
2.7505454841
 31
0.0
 11
5.4012994322
 21
2.7510940953
 31
0.0
 11
5.4092073583
 21
2.7516427065
 31
0.0
 11
5.4178795705
 21
2.7521913177
 31
0.0
 11
5.4272958231
 21
2.7527399289
 31
0.0
 11
5.4482683458
 21
2.7538371513
 31
0.0
 11
5.4719317879
 21
2.7549343737
 31
0.0
 11
5.4980640405
 21
2.7560315961
 31
0.0
 11
5.5264230342
 21
2.7571288185
 31
0.0
 11
5.5567444403
 21
2.7582260409
 31
0.0
 11
5.588745701
 21
2.7593232633
 31
0.0
 11
5.622129745
 21
2.7604204857
 31
0.0
 11
5.6565849305
 21
2.7615177081
 31
0.0
 11
5.6917913126
 21
2.7626149305
 31
0.0
 11
5.7274206573
 21
2.7637121529
 31
0.0
 11
5.763141705
 21
2.7648093753
 31
0.0
 11
5.7986216218
 21
2.7659065977
 31
0.0
 11
5.8335306101
 21
2.7670038201
 31
0.0
 11
5.8675431815
 21
2.7681010425
 31
0.0
 11
5.9003432683
 21
2.7691982649
 31
0.0
 11
5.9316253599
 21
2.7702954873
 31
0.0
 11
5.9610979735
 21
2.7713927097
 31
0.0
 11
5.9884877584
 21
2.7724899321
 31
0.0
 11
6.0135381831
 21
2.7735871545
 31
0.0
 11
6.0360179147
 21
2.7746843769
 31
0.0
 11
6.0462264034
 21
2.7752329881
 31
0.0
 11
6.0557161385
 21
2.7757815993
 31
0.0
 11
6.0644646138
 21
2.7763302105
 31
0.0
 11
6.0724503703
 21
2.7768788217
 31
0.0
 11
6.0796559989
 21
2.7774274329
 31
0.0
 11
6.086065069
 21
2.7779760441
 31
0.0
 11
6.0916613695
 21
2.7785246553
 31
0.0
 11
6.096432153
 21
2.7790732665
 31
0.0
 11
6.0985048511
 21
2.7793475721
 31
0.0
 11
6.1003674357
 21
2.7796218777
 31
0.0
 11
6.1020186682
 21
2.7798961833
 31
0.0
 11
6.1034573152
 21
2.7801704889
 31
0.0
 11
6.1046824518
 21
2.7804447945
 31
0.0
 11
6.1056936449
 21
2.7807191001
 31
0.0
 11
6.1064905053
 21
2.7809934057
 31
0.0
 11
6.1068084392
 21
2.7811305585
 31
0.0
 11
6.1070726439
 21
2.7812677113
 31
0.0
  0
SPLINE
  5
263
100
AcDbEntity
  8
0
100
AcDbSpline
 62
6
  6
CONTINUOUS
 70
0
 71
3
 72
28
 73
24
 74
22
 42
0.0000001
 43
0.0000001
 44
0.0000000001
 12
-0.0000058192
 22
0.04643699
 32
0.0
 13
0.046342872
 23
0.0029550441
 33
0.0
 40
0.0
 40
0.0
 40
0.0
 40
0.0
 40
0.0019369959
 40
0.0039952485
 40
0.0062766448
 40
0.0088565544
 40
0.0150968522
 40
0.0229762139
 40
0.0326133391
 40
0.0440709251
 40
0.0573846813
 40
0.0725761001
 40
0.0896585814
 40
0.1086406159
 40
0.1523205297
 40
0.2036221199
 40
0.2625168163
 40
0.3289659666
 40
0.4029253634
 40
0.4843471405
 40
0.5731597901
 40
0.7724996251
 40
1.0
 40
1.0
 40
1.0
 40
1.0
 10
5.3669156269
 20
2.8175865944
 30
0.0
 10
5.3669156231
 20
2.8176165771
 30
0.0
 10
5.3669238276
 20
2.8176786719
 30
0.0
 10
5.3669598864
 20
2.8177697257
 30
0.0
 10
5.3670189101
 20
2.8178598089
 30
0.0
 10
5.3671352079
 20
2.8179870653
 30
0.0
 10
5.3673441587
 20
2.8181424544
 30
0.0
 10
5.3676678683
 20
2.8183180129
 30
0.0
 10
5.3680809482
 20
2.8184940338
 30
0.0
 10
5.3685837253
 20
2.8186704878
 30
0.0
 10
5.3691766777
 20
2.8188473493
 30
0.0
 10
5.369859846
 20
2.8190245074
 30
0.0
 10
5.3706332348
 20
2.8192019138
 30
0.0
 10
5.3718423999
 20
2.8194504661
 30
0.0
 10
5.373580108
 20
2.8197560472
 30
0.0
 10
5.3759358123
 20
2.8201090323
 30
0.0
 10
5.3786472532
 20
2.8204628434
 30
0.0
 10
5.3817119141
 20
2.8208173446
 30
0.0
 10
5.385127289
 20
2.8211723296
 30
0.0
 10
5.3888904683
 20
2.821527695
 30
0.0
 10
5.3945898419
 20
2.8220210318
 30
0.0
 10
5.4025485679
 20
2.8226298088
 30
0.0
 10
5.40914085
 20
2.8230725037
 30
0.0
 10
5.4126551902
 20
2.8232965949
 30
0.0
 11
5.3669156269
 21
2.8175865944
 31
0.0
 11
5.3669270451
 21
2.817675815
 31
0.0
 11
5.3669613233
 21
2.8177650359
 31
0.0
 11
5.367018447
 21
2.817854257
 31
0.0
 11
5.3670983994
 21
2.8179434783
 31
0.0
 11
5.3673267215
 21
2.818121921
 31
0.0
 11
5.3676461531
 21
2.8183003636
 31
0.0
 11
5.3680565577
 21
2.8184788054
 31
0.0
 11
5.3685577985
 21
2.8186572458
 31
0.0
 11
5.3691497392
 21
2.8188356842
 31
0.0
 11
5.369832243
 21
2.8190141202
 31
0.0
 11
5.3706051736
 21
2.819192553
 31
0.0
 11
5.3714683942
 21
2.8193709822
 31
0.0
 11
5.3734651217
 21
2.8197278278
 31
0.0
 11
5.3758205369
 21
2.8200846637
 31
0.0
 11
5.3785320493
 21
2.8204415069
 31
0.0
 11
5.3815970421
 21
2.8207983744
 31
0.0
 11
5.3850128985
 21
2.8211552835
 31
0.0
 11
5.3887769922
 21
2.8215122513
 31
0.0
 11
5.3928857024
 21
2.8218692681
 31
0.0
 11
5.4021148715
 21
2.8225832082
 31
0.0
 11
5.4126551902
 21
2.8232965949
 31
0.0
  0
SPLINE
  5
264
100
AcDbEntity
  8
0
100
AcDbSpline
 62
6
  6
CONTINUOUS
 70
0
 71
3
 72
36
 73
32
 74
30
 42
0.0000001
 43
0.0000001
 44
0.0000000001
 12
0.4089503174
 22
0.0113670566
 32
0.0
 13
0.3542474146
 23
0.2046419834
 33
0.0
 40
0.0
 40
0.0
 40
0.0
 40
0.0
 40
0.0950144043
 40
0.1892192799
 40
0.2816841173
 40
0.3715998923
 40
0.458162353
 40
0.540577539
 40
0.6181043714
 40
0.6900438024
 40
0.7557450095
 40
0.7860700139
 40
0.8146183357
 40
0.8413239481
 40
0.866129685
 40
0.8889798454
 40
0.9098206204
 40
0.928608193
 40
0.9453025345
 40
0.9598648101
 40
0.97226584
 40
0.9776493646
 40
0.9824850648
 40
0.9867710081
 40
0.9905059035
 40
0.9936905398
 40
0.9963282474
 40
0.9974441018
 40
0.9984263281
 40
0.9992771316
 40
1.0
 40
1.0
 40
1.0
 40
1.0
 10
5.737255634
 20
2.8577644563
 30
0.0
 10
5.7502076909
 20
2.8581244677
 30
0.0
 10
5.7760014526
 20
2.8588414193
 30
0.0
 10
5.8143994538
 20
2.8599183737
 30
0.0
 10
5.8521018845
 20
2.8609952103
 30
0.0
 10
5.8887616997
 20
2.8620716933
 30
0.0
 10
5.9240504551
 20
2.863147703
 30
0.0
 10
5.9576489363
 20
2.8642231759
 30
0.0
 10
5.98925224
 20
2.8652977555
 30
0.0
 10
6.0185748984
 20
2.8663712369
 30
0.0
 10
6.0414620241
 20
2.8672872121
 30
0.0
 10
6.0584341091
 20
2.8680263833
 30
0.0
 10
6.0700920109
 20
2.8685656339
 30
0.0
 10
6.0809964074
 20
2.8691046903
 30
0.0
 10
6.0911227517
 20
2.8696434175
 30
0.0
 10
6.1004481182
 20
2.8701817057
 30
0.0
 10
6.1089513369
 20
2.8707195515
 30
0.0
 10
6.1166132936
 20
2.8712567108
 30
0.0
 10
6.1234168255
 20
2.8717927399
 30
0.0
 10
6.1293464605
 20
2.8723275611
 30
0.0
 10
6.1337335203
 20
2.8727905095
 30
0.0
 10
6.1367952149
 20
2.8731672509
 30
0.0
 10
6.138755018
 20
2.873435981
 30
0.0
 10
6.1404877175
 20
2.8737042354
 30
0.0
 10
6.1419923778
 20
2.8739718423
 30
0.0
 10
6.1432682918
 20
2.8742386759
 30
0.0
 10
6.1441860616
 20
2.874470866
 30
0.0
 10
6.1448034697
 20
2.8746607641
 30
0.0
 10
6.1451827267
 20
2.8747949622
 30
0.0
 10
6.1455046991
 20
2.8749289155
 30
0.0
 10
6.1456965997
 20
2.8750257512
 30
0.0
 10
6.1457819578
 20
2.8750750609
 30
0.0
 11
5.737255634
 21
2.8577644563
 31
0.0
 11
5.7761117594
 21
2.8588461217
 31
0.0
 11
5.8146365546
 21
2.8599283568
 31
0.0
 11
5.8524492091
 21
2.8610102594
 31
0.0
 11
5.8892185826
 21
2.8620921496
 31
0.0
 11
5.9246154688
 21
2.8631741059
 31
0.0
 11
5.9583148394
 21
2.8642560238
 31
0.0
 11
5.9900132496
 21
2.8653379189
 31
0.0
 11
6.0194243732
 21
2.8664198173
 31
0.0
 11
6.0462814974
 21
2.867501718
 31
0.0
 11
6.0586759081
 21
2.8680426679
 31
0.0
 11
6.0703427283
 21
2.8685836169
 31
0.0
 11
6.081254815
 21
2.8691245647
 31
0.0
 11
6.0913886193
 21
2.8696655116
 31
0.0
 11
6.1007211443
 21
2.8702064583
 31
0.0
 11
6.1092300999
 21
2.8707474051
 31
0.0
 11
6.1168971917
 21
2.8712883526
 31
0.0
 11
6.1237055283
 21
2.8718293013
 31
0.0
 11
6.1296384654
 21
2.8723702517
 31
0.0
 11
6.1346829069
 21
2.8729112047
 31
0.0
 11
6.1368686798
 21
2.8731816825
 31
0.0
 11
6.1388284274
 21
2.8734521615
 31
0.0
 11
6.1405608546
 21
2.8737226417
 31
0.0
 11
6.1420647004
 21
2.8739931234
 31
0.0
 11
6.1433391751
 21
2.8742636063
 31
0.0
 11
6.1443838341
 21
2.8745340904
 31
0.0
 11
6.1448198462
 21
2.8746693328
 31
0.0
 11
6.1451982406
 21
2.8748045753
 31
0.0
 11
6.1455189627
 21
2.8749398181
 31
0.0
 11
6.1457819578
 21
2.8750750609
 31
0.0
  0
SPLINE
  5
265
100
AcDbEntity
  8
0
100
AcDbSpline
 62
6
  6
CONTINUOUS
 70
0
 71
3
 72
40
 73
36
 74
34
 42
0.0000001
 43
0.0000001
 44
0.0000000001
 12
0.4097022501
 22
0.0113879571
 32
0.0
 13
0.0004790487
 23
0.4098602077
 33
0.0
 40
0.0
 40
0.0
 40
0.0
 40
0.0
 40
0.0978262258
 40
0.1947633041
 40
0.2897929577
 40
0.3820326126
 40
0.4706044006
 40
0.5546448601
 40
0.6333490187
 40
0.7059615685
 40
0.7717821459
 40
0.8019473197
 40
0.8301833123
 40
0.8564212986
 40
0.8806018636
 40
0.9026666915
 40
0.9225606144
 40
0.9402402868
 40
0.955665777
 40
0.9625210767
 40
0.968799442
 40
0.9744985263
 40
0.9796162795
 40
0.9841510016
 40
0.988101553
 40
0.9914677495
 40
0.9942514242
 40
0.9954269079
 40
0.9964599865
 40
0.9973529931
 40
0.9981096005
 40
0.9987359371
 40
0.9992429418
 40
0.9996513386
 40
1.0
 40
1.0
 40
1.0
 40
1.0
 10
5.737255634
 20
2.9381237335
 30
0.0
 10
5.7506155089
 20
2.9384950804
 30
0.0
 10
5.7772138304
 20
2.9392343949
 30
0.0
 10
5.8167898115
 20
2.9403450258
 30
0.0
 10
5.8556022545
 20
2.9414555017
 30
0.0
 10
5.8932713638
 20
2.9425655634
 30
0.0
 10
5.929438471
 20
2.943675082
 30
0.0
 10
5.9637554677
 20
2.9447839633
 30
0.0
 10
5.9958909464
 20
2.9458918002
 30
0.0
 10
6.025535681
 20
2.9469982887
 30
0.0
 10
6.048550269
 20
2.9479441206
 30
0.0
 10
6.0655042743
 20
2.9487082403
 30
0.0
 10
6.0770543341
 20
2.9492642787
 30
0.0
 10
6.0877857768
 20
2.9498200497
 30
0.0
 10
6.0976729232
 20
2.9503753738
 30
0.0
 10
6.1066918932
 20
2.9509301211
 30
0.0
 10
6.1148209208
 20
2.9514842157
 30
0.0
 10
6.1220405994
 20
2.952037358
 30
0.0
 10
6.1274793575
 20
2.9525137581
 30
0.0
 10
6.1313620169
 20
2.9528997546
 30
0.0
 10
6.1339199501
 20
2.9531775717
 30
0.0
 10
6.1362390058
 20
2.9534551148
 30
0.0
 10
6.1383180205
 20
2.9537323126
 30
0.0
 10
6.1401558542
 20
2.954009047
 30
0.0
 10
6.1417514976
 20
2.9542850553
 30
0.0
 10
6.1431039204
 20
2.9545601932
 30
0.0
 10
6.1440761794
 20
2.9547997124
 30
0.0
 10
6.1447296045
 20
2.954995705
 30
0.0
 10
6.1451302621
 20
2.955134105
 30
0.0
 10
6.1454699927
 20
2.9552722475
 30
0.0
 10
6.1457490742
 20
2.9554101758
 30
0.0
 10
6.1459681543
 20
2.9555480685
 30
0.0
 10
6.1461280672
 20
2.9556869363
 30
0.0
 10
6.1462298128
 20
2.9558295648
 30
0.0
 10
6.1462551514
 20
2.955933599
 30
0.0
 10
6.146255207
 20
2.9559812331
 30
0.0
 11
5.737255634
 21
2.9381237335
 31
0.0
 11
5.777335209
 21
2.9392395652
 31
0.0
 11
5.8170501982
 21
2.9403559969
 31
0.0
 11
5.8559831054
 21
2.9414720447
 31
0.0
 11
5.8937720187
 21
2.9425880845
 31
0.0
 11
5.9300569331
 21
2.9437042037
 31
0.0
 11
5.9644837099
 21
2.9448203003
 31
0.0
 11
5.9967221212
 21
2.9459363879
 31
0.0
 11
6.0264622011
 21
2.9470524828
 31
0.0
 11
6.0534163577
 21
2.9481685774
 31
0.0
 11
6.06576727
 21
2.948726624
 31
0.0
 11
6.0773266252
 21
2.9492846707
 31
0.0
 11
6.0880660501
 21
2.9498427175
 31
0.0
 11
6.0979609846
 21
2.9504007644
 31
0.0
 11
6.1069872516
 21
2.9509588114
 31
0.0
 11
6.1151218656
 21
2.9515168583
 31
0.0
 11
6.1223465445
 21
2.9520749051
 31
0.0
 11
6.1286441669
 21
2.952632952
 31
0.0
 11
6.1314399947
 21
2.9529119754
 31
0.0
 11
6.1339980762
 21
2.9531909988
 31
0.0
 11
6.1363171806
 21
2.9534700222
 31
0.0
 11
6.1383961044
 21
2.9537490457
 31
0.0
 11
6.1402336443
 21
2.9540280691
 31
0.0
 11
6.1418285967
 21
2.9543070925
 31
0.0
 11
6.1431797584
 21
2.954586116
 31
0.0
 11
6.1442860316
 21
2.9548651394
 31
0.0
 11
6.1447471743
 21
2.9550046511
 31
0.0
 11
6.1451469484
 21
2.9551441628
 31
0.0
 11
6.1454853246
 21
2.9552836745
 31
0.0
 11
6.1457622734
 21
2.9554231862
 31
0.0
 11
6.1459777655
 21
2.955562698
 31
0.0
 11
6.1461317714
 21
2.9557022097
 31
0.0
 11
6.1462242617
 21
2.9558417214
 31
0.0
 11
6.146255207
 21
2.9559812331
 31
0.0
  0
SPLINE
  5
266
100
AcDbEntity
  8
0
100
AcDbSpline
 62
6
  6
CONTINUOUS
 70
0
 71
3
 72
39
 73
35
 74
33
 42
0.0000001
 43
0.0000001
 44
0.0000000001
 12
-0.3378496018
 22
-0.0095391031
 32
0.0
 13
-0.0003292743
 23
-0.3379840817
 33
0.0
 40
0.0
 40
0.0
 40
0.0
 40
0.0
 40
0.1028801182
 40
0.2034338238
 40
0.3008000509
 40
0.3942626419
 40
0.4831325591
 40
0.5667298507
 40
0.6444175615
 40
0.715608505
 40
0.7797681598
 40
0.8364073439
 40
0.8617735303
 40
0.8851062388
 40
0.9063589705
 40
0.925494995
 40
0.9424815003
 40
0.9572864092
 40
0.9638619097
 40
0.9698832289
 40
0.9753488078
 40
0.9802573632
 40
0.9846080323
 40
0.9884006228
 40
0.9916360807
 40
0.9943177502
 40
0.9954536135
 40
0.9964550312
 40
0.9973247497
 40
0.9980670046
 40
0.9986886732
 40
0.9992015443
 40
0.9996266033
 40
1.0
 40
1.0
 40
1.0
 40
1.0
 10
5.6654069741
 20
2.9986169563
 30
0.0
 10
5.6538209718
 20
2.9982898283
 30
0.0
 10
5.6309110991
 20
2.9976380063
 30
0.0
 10
5.597036898
 20
2.9966515105
 30
0.0
 10
5.5642241458
 20
2.9956651667
 30
0.0
 10
5.5327283057
 20
2.9946793155
 30
0.0
 10
5.5027844702
 20
2.993693964
 30
0.0
 10
5.4746188458
 20
2.9927092635
 30
0.0
 10
5.4484462229
 20
2.991725483
 30
0.0
 10
5.4244650816
 20
2.9907429768
 30
0.0
 10
5.4028574089
 20
2.98976223
 30
0.0
 10
5.386411688
 20
2.9889191518
 30
0.0
 10
5.3745637912
 20
2.9882360007
 30
0.0
 10
5.3666983327
 20
2.9877430732
 30
0.0
 10
5.3595362444
 20
2.9872505634
 30
0.0
 10
5.3530909258
 20
2.9867587142
 30
0.0
 10
5.3473743185
 20
2.986267739
 30
0.0
 10
5.3430724121
 20
2.9858447593
 30
0.0
 10
5.3400043339
 20
2.9855020398
 30
0.0
 10
5.3379843522
 20
2.9852554442
 30
0.0
 10
5.3361536639
 20
2.9850090859
 30
0.0
 10
5.3345130158
 20
2.9847630261
 30
0.0
 10
5.3330631406
 20
2.9845173645
 30
0.0
 10
5.3318046465
 20
2.9842723174
 30
0.0
 10
5.3307381587
 20
2.9840279989
 30
0.0
 10
5.3299719974
 20
2.9838153521
 30
0.0
 10
5.3294575249
 20
2.9836415077
 30
0.0
 10
5.3291416858
 20
2.9835185776
 30
0.0
 10
5.3288738295
 20
2.9833958163
 30
0.0
 10
5.3286537131
 20
2.9832731441
 30
0.0
 10
5.3284808789
 20
2.983150326
 30
0.0
 10
5.3283547874
 20
2.9830264613
 30
0.0
 10
5.3282754167
 20
2.9828995363
 30
0.0
 10
5.3282562237
 20
2.982809027
 30
0.0
 10
5.3282561827
 20
2.9827669596
 30
0.0
 11
5.6654069741
 21
2.9986169563
 31
0.0
 11
5.6306492209
 21
2.9976266254
 31
0.0
 11
5.5966781033
 21
2.9966356686
 31
0.0
 11
5.5637847672
 21
2.9956450155
 31
0.0
 11
5.5322114184
 21
2.9946544747
 31
0.0
 11
5.502191127
 21
2.9936638465
 31
0.0
 11
5.4739539318
 21
2.992673202
 31
0.0
 11
5.4477154032
 21
2.9916825805
 31
0.0
 11
5.423674387
 21
2.9906919599
 31
0.0
 11
5.4020120737
 21
2.9897013337
 31
0.0
 11
5.3828945708
 21
2.988710708
 31
0.0
 11
5.3743355194
 21
2.9882153957
 31
0.0
 11
5.3664650018
 21
2.9877200836
 31
0.0
 11
5.3592990109
 21
2.9872247713
 31
0.0
 11
5.3528503303
 21
2.9867294589
 31
0.0
 11
5.3471305653
 21
2.9862341464
 31
0.0
 11
5.3421513144
 21
2.985738834
 31
0.0
 11
5.3399427409
 21
2.9854911777
 31
0.0
 11
5.3379227549
 21
2.9852435215
 31
0.0
 11
5.3360921517
 21
2.9849958653
 31
0.0
 11
5.3344517264
 21
2.9847482092
 31
0.0
 11
5.3330022741
 21
2.984500553
 31
0.0
 11
5.3317445899
 21
2.9842528968
 31
0.0
 11
5.330679469
 21
2.9840052406
 31
0.0
 11
5.3298075983
 21
2.9837575844
 31
0.0
 11
5.3294442131
 21
2.9836337563
 31
0.0
 11
5.3291292146
 21
2.9835099282
 31
0.0
 11
5.3288626177
 21
2.9833861001
 31
0.0
 11
5.3286444376
 21
2.983262272
 31
0.0
 11
5.328474689
 21
2.9831384439
 31
0.0
 11
5.328353387
 21
2.9830146158
 31
0.0
 11
5.3282805466
 21
2.9828907877
 31
0.0
 11
5.3282561827
 21
2.9827669596
 31
0.0
  0
LINE
  5
267
100
AcDbEntity
  8
0
100
AcDbLine
 62
6
  6
CONTINUOUS
 10
5.3285229945
 20
2.9912851534
 11
5.3282559258
 21
2.9916962355
  0
SPLINE
  5
268
100
AcDbEntity
  8
0
100
AcDbSpline
 62
6
  6
CONTINUOUS
 70
0
 71
3
 72
66
 73
62
 74
60
 42
0.0000001
 43
0.0000001
 44
0.0000000001
 12
0.6421908153
 22
0.3711254127
 32
0.0
 13
-0.0005779224
 23
0.7417161056
 33
0.0
 40
0.0
 40
0.0
 40
0.0
 40
0.0
 40
0.0004013481
 40
0.0008681842
 40
0.0020044145
 40
0.0034170068
 40
0.0051096547
 40
0.0070841983
 40
0.0093409334
 40
0.0118792052
 40
0.0146980413
 40
0.0211725285
 40
0.0287537488
 40
0.0374262108
 40
0.0471691409
 40
0.0579611091
 40
0.0697791786
 40
0.0825948336
 40
0.0963780308
 40
0.1267218296
 40
0.1605278089
 40
0.1974849936
 40
0.2372482274
 40
0.2794494257
 40
0.323696049
 40
0.3695764722
 40
0.4166648664
 40
0.4645226218
 40
0.5127053229
 40
0.5607644422
 40
0.6082535939
 40
0.6547304619
 40
0.6997639289
 40
0.742934193
 40
0.7838409592
 40
0.8221039119
 40
0.8573670448
 40
0.8893049695
 40
0.9176193243
 40
0.9303360979
 40
0.9420514534
 40
0.9527387809
 40
0.9623752767
 40
0.9709384947
 40
0.9784083859
 40
0.9817289709
 40
0.9847712651
 40
0.9875338562
 40
0.9900154723
 40
0.9922150688
 40
0.9941324122
 40
0.9957684395
 40
0.9971251629
 40
0.9977000502
 40
0.9982069794
 40
0.9986472711
 40
0.999022998
 40
0.9993375701
 40
0.9995968928
 40
0.9998115681
 40
1.0
 40
1.0
 40
1.0
 40
1.0
 10
5.3674386106
 20
2.8717604785
 30
0.0
 10
5.3675245247
 20
2.8718101287
 30
0.0
 10
5.3677159408
 20
2.8719079236
 30
0.0
 10
5.3681721038
 20
2.8721022098
 30
0.0
 10
5.3688804688
 20
2.8723381304
 30
0.0
 10
5.3698941534
 20
2.8726078117
 30
0.0
 10
5.3711208724
 20
2.872878543
 30
0.0
 10
5.3725602452
 20
2.8731501471
 30
0.0
 10
5.3742117869
 20
2.8734223004
 30
0.0
 10
5.3760744578
 20
2.8736949207
 30
0.0
 10
5.3789747497
 20
2.8740766807
 30
0.0
 10
5.3831206147
 20
2.874546089
 30
0.0
 10
5.3887137924
 20
2.8750886488
 30
0.0
 10
5.395118248
 20
2.875632382
 30
0.0
 10
5.402318932
 20
2.8761772222
 30
0.0
 10
5.4102992729
 20
2.8767227549
 30
0.0
 10
5.4190408866
 20
2.8772687017
 30
0.0
 10
5.428523341
 20
2.8778150958
 30
0.0
 10
5.4425816335
 20
2.8785684193
 30
0.0
 10
5.4618272995
 20
2.8794995535
 30
0.0
 10
5.4868012713
 20
2.8805867412
 30
0.0
 10
5.5141060406
 20
2.8816753042
 30
0.0
 10
5.5434878979
 20
2.8827651384
 30
0.0
 10
5.5746731185
 20
2.8838557357
 30
0.0
 10
5.6073715996
 20
2.8849469316
 30
0.0
 10
5.6412790152
 20
2.8860385581
 30
0.0
 10
5.6760796824
 20
2.8871304383
 30
0.0
 10
5.7114498299
 20
2.888222512
 30
0.0
 10
5.7470600896
 20
2.8893146324
 30
0.0
 10
5.7825791738
 20
2.8904067476
 30
0.0
 10
5.8176763139
 20
2.8914987155
 30
0.0
 10
5.8520250342
 20
2.8925904902
 30
0.0
 10
5.8853054183
 20
2.8936818728
 30
0.0
 10
5.9172079067
 20
2.8947727903
 30
0.0
 10
5.9474354646
 20
2.8958629801
 30
0.0
 10
5.9757067645
 20
2.8969521805
 30
0.0
 10
6.001758918
 20
2.8980400173
 30
0.0
 10
6.0253491338
 20
2.8991258942
 30
0.0
 10
6.0433659495
 20
2.9000586779
 30
0.0
 10
6.0563850481
 20
2.900814464
 30
0.0
 10
6.0650508004
 20
2.9013604397
 30
0.0
 10
6.0729533803
 20
2.9019059182
 30
0.0
 10
6.0800746637
 20
2.9024505997
 30
0.0
 10
6.086397956
 20
2.9029943258
 30
0.0
 10
6.0911601486
 20
2.9034628051
 30
0.0
 10
6.0945590756
 20
2.9038422739
 30
0.0
 10
6.0967987013
 20
2.9041153883
 30
0.0
 10
6.0988292572
 20
2.9043882354
 30
0.0
 10
6.1006494567
 20
2.9046607415
 30
0.0
 10
6.1022581437
 20
2.9049328247
 30
0.0
 10
6.1036545681
 20
2.9052042751
 30
0.0
 10
6.1048382079
 20
2.9054749342
 30
0.0
 10
6.1056888437
 20
2.9057104353
 30
0.0
 10
6.1062603453
 20
2.9059029525
 30
0.0
 10
6.1066113495
 20
2.9060391039
 30
0.0
 10
6.1069091028
 20
2.9061750643
 30
0.0
 10
6.1071538308
 20
2.9063109196
 30
0.0
 10
6.1073460028
 20
2.9064469283
 30
0.0
 10
6.107486187
 20
2.9065840896
 30
0.0
 10
6.1075743969
 20
2.9067246846
 30
0.0
 10
6.1075956035
 20
2.9068250078
 30
0.0
 10
6.1075955672
 20
2.9068715955
 30
0.0
 11
5.3674386106
 21
2.8717604785
 31
0.0
 11
5.3677028195
 21
2.8718976313
 31
0.0
 11
5.3680207583
 21
2.8720347841
 31
0.0
 11
5.3688176283
 21
2.8723090897
 31
0.0
 11
5.3698288263
 21
2.8725833953
 31
0.0
 11
5.371053958
 21
2.8728577009
 31
0.0
 11
5.3724925917
 21
2.8731320065
 31
0.0
 11
5.3741438199
 21
2.8734063121
 31
0.0
 11
5.3760064072
 21
2.8736806177
 31
0.0
 11
5.3780791117
 21
2.8739549233
 31
0.0
 11
5.3828499048
 21
2.8745035345
 31
0.0
 11
5.3884461935
 21
2.8750521457
 31
0.0
 11
5.3948552627
 21
2.8756007569
 31
0.0
 11
5.4020608985
 21
2.8761493681
 31
0.0
 11
5.4100466553
 21
2.8766979793
 31
0.0
 11
5.4187951258
 21
2.8772465905
 31
0.0
 11
5.4282848618
 21
2.8777952017
 31
0.0
 11
5.4384933535
 21
2.8783438129
 31
0.0
 11
5.4609730831
 21
2.8794410354
 31
0.0
 11
5.4860235121
 21
2.8805382578
 31
0.0
 11
5.5134132913
 21
2.8816354802
 31
0.0
 11
5.5428859142
 21
2.8827327026
 31
0.0
 11
5.5741679954
 21
2.883829925
 31
0.0
 11
5.6069680916
 21
2.8849271474
 31
0.0
 11
5.6409806576
 21
2.8860243698
 31
0.0
 11
5.6758896494
 21
2.8871215922
 31
0.0
 11
5.7113695663
 21
2.8882188146
 31
0.0
 11
5.7470906152
 21
2.889316037
 31
0.0
 11
5.782719958
 21
2.8904132594
 31
0.0
 11
5.8179263439
 21
2.8915104818
 31
0.0
 11
5.8523815298
 21
2.8926077042
 31
0.0
 11
5.8857655615
 21
2.8937049266
 31
0.0
 11
5.9177668468
 21
2.894802149
 31
0.0
 11
5.9480882176
 21
2.8958993714
 31
0.0
 11
5.9764472564
 21
2.8969965938
 31
0.0
 11
6.0025794734
 21
2.8980938162
 31
0.0
 11
6.0262429294
 21
2.8991910386
 31
0.0
 11
6.0472154666
 21
2.9002882611
 31
0.0
 11
6.0566317372
 21
2.9008368723
 31
0.0
 11
6.0653038721
 21
2.9013854835
 31
0.0
 11
6.0732118305
 21
2.9019340947
 31
0.0
 11
6.0803382912
 21
2.9024827059
 31
0.0
 11
6.0866660323
 21
2.9030313171
 31
0.0
 11
6.0921793446
 21
2.9035799283
 31
0.0
 11
6.0946269538
 21
2.9038542339
 31
0.0
 11
6.0968667386
 21
2.9041285395
 31
0.0
 11
6.098897354
 21
2.9044028451
 31
0.0
 11
6.1007174551
 21
2.9046771507
 31
0.0
 11
6.1023257064
 21
2.9049514563
 31
0.0
 11
6.103721126
 21
2.9052257619
 31
0.0
 11
6.1049031841
 21
2.9055000675
 31
0.0
 11
6.1058713804
 21
2.9057743731
 31
0.0
 11
6.106275124
 21
2.9059115259
 31
0.0
 11
6.1066252145
 21
2.9060486787
 31
0.0
 11
6.1069215894
 21
2.9061858315
 31
0.0
 11
6.1071641862
 21
2.9063229843
 31
0.0
 11
6.1073529422
 21
2.9064601371
 31
0.0
 11
6.1074877951
 21
2.9065972899
 31
0.0
 11
6.1075686822
 21
2.9067344427
 31
0.0
 11
6.1075955672
 21
2.9068715955
 31
0.0
  0
SPLINE
  5
269
100
AcDbEntity
  8
0
100
AcDbSpline
 62
6
  6
CONTINUOUS
 70
0
 71
3
 72
36
 73
32
 74
30
 42
0.0000001
 43
0.0000001
 44
0.0000000001
 12
-0.3541876051
 22
-0.204745147
 32
0.0
 13
-0.4089501497
 23
-0.011367052
 33
0.0
 40
0.0
 40
0.0
 40
0.0
 40
0.0
 40
0.0007224833
 40
0.001572874
 40
0.0025547196
 40
0.0036702861
 40
0.006307937
 40
0.0094934388
 40
0.01322912
 40
0.0175149676
 40
0.0223500221
 40
0.0277327695
 40
0.0401335344
 40
0.0546973385
 40
0.0713911123
 40
0.090178154
 40
0.1110204925
 40
0.1338710509
 40
0.1586764552
 40
0.185383001
 40
0.2139322816
 40
0.2442572079
 40
0.3099600607
 40
0.3819002811
 40
0.4594286718
 40
0.5418442552
 40
0.628405319
 40
0.7183179129
 40
0.8107811728
 40
0.904987436
 40
1.0
 40
1.0
 40
1.0
 40
1.0
 10
6.1457817558
 20
2.946505062
 30
0.0
 10
6.1456964576
 20
2.9464557537
 30
0.0
 10
6.1455046791
 20
2.9463589171
 30
0.0
 10
6.1451828803
 20
2.9462249642
 30
0.0
 10
6.1448037791
 20
2.9460907674
 30
0.0
 10
6.1441864786
 20
2.9459008558
 30
0.0
 10
6.1432686364
 20
2.9456686561
 30
0.0
 10
6.1419924881
 20
2.9454018828
 30
0.0
 10
6.1404876098
 20
2.9451342985
 30
0.0
 10
6.1387549081
 20
2.9448660253
 30
0.0
 10
6.1367953163
 20
2.9445972843
 30
0.0
 10
6.1337338589
 20
2.9442205104
 30
0.0
 10
6.1293467344
 20
2.9437575522
 30
0.0
 10
6.1234169995
 20
2.9432228127
 30
0.0
 10
6.1166134173
 20
2.9426867169
 30
0.0
 10
6.1089514022
 20
2.9421495237
 30
0.0
 10
6.1004479886
 20
2.9416117237
 30
0.0
 10
6.091122405
 20
2.9410734105
 30
0.0
 10
6.0809959302
 20
2.94053465
 30
0.0
 10
6.0700913248
 20
2.9399956029
 30
0.0
 10
6.0584331799
 20
2.9394563557
 30
0.0
 10
6.0414607587
 20
2.9387171459
 30
0.0
 10
6.0185733198
 20
2.937801193
 30
0.0
 10
5.9892501301
 20
2.9367276707
 30
0.0
 10
5.9576464644
 20
2.9356531008
 30
0.0
 10
5.924047921
 20
2.9345776226
 30
0.0
 10
5.8887597497
 20
2.9335016355
 30
0.0
 10
5.8521007886
 20
2.9324251795
 30
0.0
 10
5.8143988329
 20
2.9313483555
 30
0.0
 10
5.7760011241
 20
2.9302714108
 30
0.0
 10
5.7502074348
 20
2.9295544605
 30
0.0
 10
5.737255634
 20
2.9291944563
 30
0.0
 11
6.1457817558
 21
2.946505062
 31
0.0
 11
6.145518936
 21
2.9463698229
 31
0.0
 11
6.1451983959
 21
2.9462345838
 31
0.0
 11
6.1448201658
 21
2.9460993447
 31
0.0
 11
6.1443842762
 21
2.9459641056
 31
0.0
 11
6.1433396401
 21
2.9456936273
 31
0.0
 11
6.1420648029
 21
2.9454231491
 31
0.0
 11
6.1405606306
 21
2.9451526709
 31
0.0
 11
6.1388282434
 21
2.9448821927
 31
0.0
 11
6.1368687632
 21
2.9446117144
 31
0.0
 11
6.1346833117
 21
2.9443412362
 31
0.0
 11
6.1296389816
 21
2.9438002798
 31
0.0
 11
6.1237054196
 21
2.9432593234
 31
0.0
 11
6.1168973194
 21
2.942718367
 31
0.0
 11
6.1092304491
 21
2.9421774106
 31
0.0
 11
6.1007208567
 21
2.9416364541
 31
0.0
 11
6.091388173
 21
2.9410954976
 31
0.0
 11
6.0812545097
 21
2.9405545411
 31
0.0
 11
6.0703420456
 21
2.9400135849
 31
0.0
 11
6.0586748379
 21
2.9394726287
 31
0.0
 11
6.0462804645
 21
2.9389316724
 31
0.0
 11
6.019422678
 21
2.9378497583
 31
0.0
 11
5.9900112439
 21
2.9367678452
 31
0.0
 11
5.9583122092
 21
2.9356859391
 31
0.0
 11
5.9246126898
 21
2.9346040191
 31
0.0
 11
5.8892163893
 21
2.9335220839
 31
0.0
 11
5.8524483316
 21
2.9324402343
 31
0.0
 11
5.8146363377
 21
2.9313583504
 31
0.0
 11
5.7761109909
 21
2.9302761005
 31
0.0
 11
5.737255634
 21
2.9291944563
 31
0.0
  0
SPLINE
  5
26A
100
AcDbEntity
  8
0
100
AcDbSpline
 62
6
  6
CONTINUOUS
 70
0
 71
3
 72
68
 73
64
 74
62
 42
0.0000001
 43
0.0000001
 44
0.0000000001
 12
0.6421479972
 22
0.3711994292
 32
0.0
 13
-0.0008449275
 23
0.7417158166
 33
0.0
 40
0.0
 40
0.0
 40
0.0
 40
0.0
 40
0.0004012673
 40
0.0008680162
 40
0.0020041027
 40
0.003416676
 40
0.0051095275
 40
0.0070843095
 40
0.0093410553
 40
0.0118791948
 40
0.0146978502
 40
0.021172211
 40
0.0287538635
 40
0.0374261722
 40
0.0471688175
 40
0.057961066
 40
0.0697792501
 40
0.082594614
 40
0.0963777797
 40
0.1110985256
 40
0.1267217757
 40
0.1605278359
 40
0.1974848182
 40
0.2372482924
 40
0.2794492471
 40
0.3236960447
 40
0.3695763948
 40
0.4166648143
 40
0.4645225795
 40
0.5127052822
 40
0.560764393
 40
0.6082535587
 40
0.6547304574
 40
0.699763799
 40
0.7429342756
 40
0.7838408023
 40
0.822104019
 40
0.8573669872
 40
0.8893048762
 40
0.903931777
 40
0.9176194766
 40
0.9303362599
 40
0.9420512513
 40
0.9527388059
 40
0.9623755299
 40
0.9709383628
 40
0.9784082627
 40
0.9817290209
 40
0.9847714748
 40
0.9875341178
 40
0.9900155845
 40
0.9922149048
 40
0.9941321954
 40
0.9957683336
 40
0.9971252337
 40
0.9977002038
 40
0.9982071964
 40
0.9986475212
 40
0.9990232417
 40
0.9993377624
 40
0.9995969933
 40
0.9998115874
 40
1.0
 40
1.0
 40
1.0
 40
1.0
 10
5.3674386995
 20
2.943190478
 30
0.0
 10
5.3675245905
 20
2.9432401281
 30
0.0
 10
5.3677159595
 20
2.9433379243
 30
0.0
 10
5.3681720362
 20
2.9435322167
 30
0.0
 10
5.3688803344
 20
2.9437681453
 30
0.0
 10
5.3698940289
 20
2.9440378307
 30
0.0
 10
5.3711208598
 20
2.9443085409
 30
0.0
 10
5.3725603492
 20
2.9445801287
 30
0.0
 10
5.3742119179
 20
2.9448522936
 30
0.0
 10
5.3760745126
 20
2.9451249186
 30
0.0
 10
5.3789746931
 20
2.9455066914
 30
0.0
 10
5.3831205879
 20
2.9459761133
 30
0.0
 10
5.3887138083
 20
2.94651862
 30
0.0
 10
5.3951182595
 20
2.9470623814
 30
0.0
 10
5.4023189028
 20
2.9476072401
 30
0.0
 10
5.4102992725
 20
2.9481527467
 30
0.0
 10
5.4190409114
 20
2.9486986952
 30
0.0
 10
5.4285233137
 20
2.949245087
 30
0.0
 10
5.4387244236
 20
2.9497918018
 30
0.0
 10
5.4496206702
 20
2.9503387011
 30
0.0
 10
5.4654633582
 20
2.9510880195
 30
0.0
 10
5.4868012751
 20
2.9520166668
 30
0.0
 10
5.5141060606
 20
2.9531053341
 30
0.0
 10
5.5434878699
 20
2.9541951219
 30
0.0
 10
5.5746731297
 20
2.9552857459
 30
0.0
 10
5.6073715749
 20
2.9563769257
 30
0.0
 10
5.64127902
 20
2.9574685605
 30
0.0
 10
5.6760796764
 20
2.9585604375
 30
0.0
 10
5.7114498313
 20
2.9596525119
 30
0.0
 10
5.7470600902
 20
2.9607446322
 30
0.0
 10
5.7825791745
 20
2.9618367477
 30
0.0
 10
5.8176763221
 20
2.9629287164
 30
0.0
 10
5.8520250211
 20
2.9640204865
 30
0.0
 10
5.8853054323
 20
2.9651118806
 30
0.0
 10
5.9172078826
 20
2.9662027785
 30
0.0
 10
5.9474354956
 20
2.9672929992
 30
0.0
 10
5.9757067652
 20
2.9683821443
 30
0.0
 10
6.0017589167
 20
2.9694701094
 30
0.0
 10
6.0219686247
 20
2.9704000581
 30
0.0
 10
6.0368464349
 20
2.9711515012
 30
0.0
 10
6.046976267
 20
2.9716981737
 30
0.0
 10
6.0563850635
 20
2.9722444718
 30
0.0
 10
6.0650507832
 20
2.9727904526
 30
0.0
 10
6.0729533859
 20
2.9733359228
 30
0.0
 10
6.0800746888
 20
2.9738805751
 30
0.0
 10
6.0863979407
 20
2.9744243403
 30
0.0
 10
6.0911600826
 20
2.974892818
 30
0.0
 10
6.0945590958
 20
2.9752722744
 30
0.0
 10
6.0967988177
 20
2.9755453844
 30
0.0
 10
6.0988293899
 20
2.9758182254
 30
0.0
 10
6.1006494964
 20
2.9760907297
 30
0.0
 10
6.1022580588
 20
2.9763628402
 30
0.0
 10
6.1036544283
 20
2.9766342884
 30
0.0
 10
6.1048381281
 20
2.9769049437
 30
0.0
 10
6.1056888606
 20
2.9771404376
 30
0.0
 10
6.1062604474
 20
2.9773329517
 30
0.0
 10
6.1066114999
 20
2.9774691011
 30
0.0
 10
6.1069092791
 20
2.9776050586
 30
0.0
 10
6.1071540027
 20
2.9777409107
 30
0.0
 10
6.1073461332
 20
2.9778769149
 30
0.0
 10
6.1074862388
 20
2.9780140851
 30
0.0
 10
6.1075743192
 20
2.9781547072
 30
0.0
 10
6.1075954619
 20
2.978255013
 30
0.0
 10
6.1075954088
 20
2.9783015959
 30
0.0
 11
5.3674386995
 21
2.943190478
 31
0.0
 11
5.3677028408
 21
2.9433276308
 31
0.0
 11
5.3680207091
 21
2.9434647836
 31
0.0
 11
5.3688174663
 21
2.9437390893
 31
0.0
 11
5.3698286496
 21
2.9440133949
 31
0.0
 11
5.371053936
 21
2.9442877005
 31
0.0
 11
5.3724927496
 21
2.9445620061
 31
0.0
 11
5.3741439858
 21
2.9448363117
 31
0.0
 11
5.3760064739
 21
2.9451106173
 31
0.0
 11
5.3780790431
 21
2.9453849229
 31
0.0
 11
5.3828497415
 21
2.9459335341
 31
0.0
 11
5.3884463521
 21
2.9464821453
 31
0.0
 11
5.3948553069
 21
2.9470307566
 31
0.0
 11
5.4020607306
 21
2.9475793678
 31
0.0
 11
5.4100466955
 21
2.948127979
 31
0.0
 11
5.4187952507
 21
2.9486765902
 31
0.0
 11
5.4282847699
 21
2.9492252014
 31
0.0
 11
5.4384932378
 21
2.9497738126
 31
0.0
 11
5.4493980636
 21
2.9503224239
 31
0.0
 11
5.4609730891
 21
2.9508710351
 31
0.0
 11
5.4860235771
 21
2.9519682575
 31
0.0
 11
5.5134132047
 21
2.9530654799
 31
0.0
 11
5.5428860048
 21
2.9541627024
 31
0.0
 11
5.5741679039
 21
2.9552599248
 31
0.0
 11
5.6069681279
 21
2.9563571472
 31
0.0
 11
5.6409806382
 21
2.9574543697
 31
0.0
 11
5.6758896472
 21
2.9585515921
 31
0.0
 11
5.7113695698
 21
2.9596488145
 31
0.0
 11
5.7470906182
 21
2.960746037
 31
0.0
 11
5.7827199533
 21
2.9618432594
 31
0.0
 11
5.8179263479
 21
2.9629404818
 31
0.0
 11
5.8523815551
 21
2.9640377043
 31
0.0
 11
5.8857654923
 21
2.9651349267
 31
0.0
 11
5.9177669338
 21
2.9662321491
 31
0.0
 11
5.9480881255
 21
2.9673293716
 31
0.0
 11
5.976447359
 21
2.968426594
 31
0.0
 11
6.0025794525
 21
2.9695238164
 31
0.0
 11
6.0262428811
 21
2.9706210389
 31
0.0
 11
6.0370780118
 21
2.9711696501
 31
0.0
 11
6.047215568
 21
2.9717182613
 31
0.0
 11
6.0566318454
 21
2.9722668725
 31
0.0
 11
6.0653037093
 21
2.9728154837
 31
0.0
 11
6.0732118362
 21
2.9733640949
 31
0.0
 11
6.0803384664
 21
2.9739127062
 31
0.0
 11
6.0866659205
 21
2.9744613174
 31
0.0
 11
6.092179239
 21
2.9750099286
 31
0.0
 11
6.0946269774
 21
2.9752842342
 31
0.0
 11
6.0968668814
 21
2.9755585398
 31
0.0
 11
6.0988975356
 21
2.9758328454
 31
0.0
 11
6.1007175245
 21
2.976107151
 31
0.0
 11
6.102325568
 21
2.9763814566
 31
0.0
 11
6.1037209475
 21
2.9766557622
 31
0.0
 11
6.10490309
 21
2.9769300679
 31
0.0
 11
6.1058714225
 21
2.9772043735
 31
0.0
 11
6.1062752309
 21
2.9773415263
 31
0.0
 11
6.1066253719
 21
2.9774786791
 31
0.0
 11
6.1069217738
 21
2.9776158319
 31
0.0
 11
6.1071643651
 21
2.9777529847
 31
0.0
 11
6.1073530741
 21
2.9778901375
 31
0.0
 11
6.1074878297
 21
2.9780272903
 31
0.0
 11
6.1075685981
 21
2.9781644431
 31
0.0
 11
6.1075954088
 21
2.9783015959
 31
0.0
  0
SPLINE
  5
26B
100
AcDbEntity
  8
0
100
AcDbSpline
 62
6
  6
CONTINUOUS
 70
0
 71
3
 72
23
 73
19
 74
17
 42
0.0000001
 43
0.0000001
 44
0.0000000001
 12
-0.3709086248
 22
-0.0069085452
 32
0.0
 13
-0.368375119
 23
-0.0438258792
 33
0.0
 40
0.0
 40
0.0
 40
0.0
 40
0.0
 40
0.1777924807
 40
0.3497623026
 40
0.5107887875
 40
0.5856642747
 40
0.6560154385
 40
0.7213055071
 40
0.7810323238
 40
0.834734709
 40
0.881993343
 40
0.922441199
 40
0.9400077793
 40
0.955754741
 40
0.9696536332
 40
0.9816765433
 40
0.9917974364
 40
1.0
 40
1.0
 40
1.0
 40
1.0
 10
5.737255634
 20
2.7365652766
 30
0.0
 10
5.7152740458
 20
2.7361558475
 30
0.0
 10
5.6720308046
 20
2.7353479746
 30
0.0
 10
5.608879688
 20
2.7341254406
 30
0.0
 10
5.5584539757
 20
2.7330822917
 30
0.0
 10
5.520592941
 20
2.7322332095
 30
0.0
 10
5.4945683546
 20
2.7316113512
 30
0.0
 10
5.4704175959
 20
2.7309891332
 30
0.0
 10
5.4483263309
 20
2.7303667249
 30
0.0
 10
5.4284657428
 20
2.7297446476
 30
0.0
 10
5.4109904461
 20
2.7291231347
 30
0.0
 10
5.3979836239
 20
2.7285848377
 30
0.0
 10
5.3888730184
 20
2.7281454129
 30
0.0
 10
5.3830432348
 20
2.7278316973
 30
0.0
 10
5.377900056
 20
2.7275184308
 30
0.0
 10
5.3734539605
 20
2.7272060101
 30
0.0
 10
5.3697142449
 20
2.7268946632
 30
0.0
 10
5.3674598016
 20
2.7266649064
 30
0.0
 10
5.3664525948
 20
2.7265450782
 30
0.0
 11
5.737255634
 21
2.7365652766
 31
0.0
 11
5.6713110569
 21
2.7353269659
 31
0.0
 11
5.6075269999
 21
2.7340846732
 31
0.0
 11
5.5478035317
 21
2.7328383311
 31
0.0
 11
5.5200337757
 21
2.7322136601
 31
0.0
 11
5.4939428975
 21
2.7315879762
 31
0.0
 11
5.469730157
 21
2.7309612624
 31
0.0
 11
5.4475820174
 21
2.7303335186
 31
0.0
 11
5.4276698099
 21
2.7297047391
 31
0.0
 11
5.4101494516
 21
2.7290749121
 31
0.0
 11
5.395157659
 21
2.7284440356
 31
0.0
 11
5.3886485905
 21
2.7281282054
 31
0.0
 11
5.3828154517
 21
2.7278121132
 31
0.0
 11
5.3776690528
 21
2.7274957565
 31
0.0
 11
5.3732201308
 21
2.727179133
 31
0.0
 11
5.3694789502
 21
2.7268622405
 31
0.0
 11
5.3664525948
 21
2.7265450782
 31
0.0
  0
SPLINE
  5
26C
100
AcDbEntity
  8
0
100
AcDbSpline
 62
6
  6
CONTINUOUS
 70
0
 71
3
 72
14
 73
10
 74
8
 42
0.0000001
 43
0.0000001
 44
0.0000000001
 12
-0.0041762224
 22
-0.0005289403
 32
0.0
 13
-0.0036433279
 23
-0.0021087374
 33
0.0
 40
0.0
 40
0.0
 40
0.0
 40
0.0
 40
0.3643231
 40
0.5177269914
 40
0.6519720146
 40
0.767110549
 40
0.8632639284
 40
0.9407074534
 40
1.0
 40
1.0
 40
1.0
 40
1.0
 10
5.3658740444
 20
2.7264740947
 30
0.0
 10
5.3653668796
 20
2.7264098596
 30
0.0
 10
5.364646972
 20
2.726311274
 30
0.0
 10
5.363744412
 20
2.7261615268
 30
0.0
 10
5.3631890934
 20
2.7260559549
 30
0.0
 10
5.3627157219
 20
2.7259506899
 30
0.0
 10
5.3623241184
 20
2.7258458642
 30
0.0
 10
5.3620142457
 20
2.7257416709
 30
0.0
 10
5.3618384374
 20
2.725662842
 30
0.0
 10
5.36176643
 20
2.7256211645
 30
0.0
 11
5.3658740444
 21
2.7264740947
 31
0.0
 11
5.3643552653
 21
2.7262610447
 31
0.0
 11
5.3637183528
 21
2.726154474
 31
0.0
 11
5.3631633823
 21
2.726047873
 31
0.0
 11
5.3626905718
 21
2.7259412415
 31
0.0
 11
5.3623001123
 21
2.7258345796
 31
0.0
 11
5.3619920601
 21
2.7257278873
 31
0.0
 11
5.36176643
 21
2.7256211645
 31
0.0
  0
SPLINE
  5
26D
100
AcDbEntity
  8
0
100
AcDbSpline
 62
6
  6
CONTINUOUS
 70
0
 71
3
 72
22
 73
18
 74
16
 42
0.0000001
 43
0.0000001
 44
0.0000000001
 12
0.0376510576
 22
0.0217653448
 32
0.0
 13
0.0434064923
 23
0.0026849212
 33
0.0
 40
0.0
 40
0.0
 40
0.0
 40
0.0
 40
0.0075239478
 40
0.0165025888
 40
0.0269773569
 40
0.0389738385
 40
0.0675906055
 40
0.1024308191
 40
0.1435096712
 40
0.190819704
 40
0.244343512
 40
0.3040579348
 40
0.3699362568
 40
0.4419471988
 40
0.6041770281
 40
0.7903375284
 40
1.0
 40
1.0
 40
1.0
 40
1.0
 10
5.3287294044
 20
2.9922431268
 30
0.0
 10
5.3288238326
 20
2.9922977139
 30
0.0
 10
5.3290383959
 20
2.9924045351
 30
0.0
 10
5.3294011009
 20
2.992551341
 30
0.0
 10
5.3298328237
 20
2.9926984843
 30
0.0
 10
5.3305434906
 20
2.9929074549
 30
0.0
 10
5.3316078045
 20
2.9931623791
 30
0.0
 10
5.3330949254
 20
2.9934548949
 30
0.0
 10
5.3348572443
 20
2.9937484156
 30
0.0
 10
5.3368934214
 20
2.9940427771
 30
0.0
 10
5.3392021359
 20
2.9943376609
 30
0.0
 10
5.3417819114
 20
2.9946329297
 30
0.0
 10
5.3446312261
 20
2.9949284922
 30
0.0
 10
5.3489625022
 20
2.9953393172
 30
0.0
 10
5.355035907
 20
2.995846255
 30
0.0
 10
5.3631043676
 20
2.9964347813
 30
0.0
 10
5.3688304402
 20
2.9968061227
 30
0.0
 10
5.3718640111
 20
2.9969937651
 30
0.0
 11
5.3287294044
 21
2.9922431268
 31
0.0
 11
5.3290210019
 21
2.9923915815
 31
0.0
 11
5.3293821566
 21
2.9925400367
 31
0.0
 11
5.3298128297
 21
2.9926884925
 31
0.0
 11
5.3303129826
 21
2.9928369488
 31
0.0
 11
5.3315215728
 21
2.9931338636
 31
0.0
 11
5.3330073775
 21
2.9934307813
 31
0.0
 11
5.3347690273
 21
2.9937276997
 31
0.0
 11
5.3368049779
 21
2.994024616
 31
0.0
 11
5.3391136851
 21
2.9943215277
 31
0.0
 11
5.3416936044
 21
2.9946184321
 31
0.0
 11
5.3445431918
 21
2.9949153266
 31
0.0
 11
5.3476608043
 21
2.9952122098
 31
0.0
 11
5.3546910609
 21
2.9958059736
 31
0.0
 11
5.3627652716
 21
2.9963997998
 31
0.0
 11
5.3718640111
 21
2.9969937651
 31
0.0
  0
ENDSEC
  0
SECTION
  2
OBJECTS
  0
DICTIONARY
  5
C
100
AcDbDictionary
280
0
281
1
  3
ACAD_GROUP
350
D
  3
ACAD_MLINESTYLE
350
17
  3
ACAD_LAYOUT
350
1A
  3
ACAD_PLOTSETTINGS
350
19
  3
ACAD_PLOTSTYLENAME
350
E
  0
DICTIONARY
  5
D
102
{ACAD_REACTORS
330
C
102
}
100
AcDbDictionary
280
0
281
1
  0
ACDBDICTIONARYWDFLT
  5
E
102
{ACAD_REACTORS
330
C
102
}
100
AcDbDictionary
281
1
  3
Normal
350
F
100
AcDbDictionaryWithDefault
340
F
  0
DICTIONARY
  5
17
102
{ACAD_REACTORS
330
C
102
}
100
AcDbDictionary
280
0
281
1
  3
Standard
350
18
  0
DICTIONARY
  5
19
102
{ACAD_REACTORS
330
C
102
}
100
AcDbDictionary
281
1
  0
DICTIONARY
  5
1A
102
{ACAD_REACTORS
330
C
102
}
100
AcDbDictionary
281
1
  3
Model
350
26E
  3
Layout1
350
26F
  0
ACDBPLACEHOLDER
  5
F
102
{ACAD_REACTORS
330
E
102
}
  0
MLINESTYLE
  5
18
102
{ACAD_REACTORS
330
17
102
}
100
AcDbMlineStyle
  2
STANDARD
 70
0
  3

 62
256
 51
90.0
 52
90.0
 71
2
 49
0.5
 62
256
  6
BYLAYER
 49
-0.5
 62
256
  6
BYLAYER
  0
LAYOUT
  5
26E
102
{ACAD_REACTORS
330
1A
102
}
100
AcDbPlotSettings
  1

  2
none_device
  4
ISO_A4_(297.00_x_210.00_MM)
  6

 40
0.0
 41
0.0
 42
0.0
 43
0.0
 44
297.0
 45
210.0
 46
0.0
 47
0.0
 48
0.0
 49
0.0
140
0.0
141
0.0
142
1.0
143
1.0
 70
1024
 72
0
 73
0
 74
0
  7

 75
0
147
1.0
148
0.0
149
0.0
100
AcDbLayout
  1
Model
 70
0
 71
0
 10
0.0
 20
0.0
 11
11.6929133858
 21
8.2677165354
 12
0.0
 22
0.0
 32
0.0
 14
0.0
 24
0.0
 34
0.0
 15
0.0
 25
0.0
 35
0.0
146
0.0
 13
0.0
 23
0.0
 33
0.0
 16
1.0
 26
0.0
 36
0.0
 17
0.0
 27
1.0
 37
0.0
 76
0
330
203
345
0
346
0
  0
LAYOUT
  5
26F
102
{ACAD_REACTORS
330
1A
102
}
100
AcDbPlotSettings
  1

  2
none_device
  4
ISO_A4_(297.00_x_210.00_MM)
  6

 40
0.0
 41
0.0
 42
0.0
 43
0.0
 44
297.0
 45
210.0
 46
0.0
 47
0.0
 48
0.0
 49
0.0
140
0.0
141
0.0
142
1.0
143
1.0
 70
0
 72
0
 73
0
 74
0
  7

 75
0
147
1.0
148
0.0
149
0.0
100
AcDbLayout
  1
Layout1
 70
0
 71
1
 10
0.0
 20
0.0
 11
11.6929133858
 21
8.2677165354
 12
0.0
 22
0.0
 32
0.0
 14
0.0
 24
0.0
 34
0.0
 15
0.0
 25
0.0
 35
0.0
146
0.0
 13
0.0
 23
0.0
 33
0.0
 16
1.0
 26
0.0
 36
0.0
 17
0.0
 27
1.0
 37
0.0
 76
0
330
204
345
0
346
0
  0
ENDSEC
  0
EOF
