  0
SECTION
  2
HEADER
  9
$ACADVER
  1
AC1015
  9
$DWGCODEPAGE
  3
ANSI_1252
  9
$EXTMAX
 10
11.6929133858
 20
8.2677165354
 30
0.0
  9
$EXTMIN
 10
0.0
 20
0.0
 30
0.0
  9
$LIMMIN
 10
0.0
 20
0.0
  9
$LIMMAX
 10
11.6929133858
 20
8.2677165354
  9
$VIEWCTR
 10
5.8464566929
 20
4.1338582677
  9
$VIEWSIZE
 40
8.2677165354
  9
$CLAYER
  8
0
  9
$LTSCALE
 40
0.6431102362
  9
$CELTYPE
  6
BYLAYER
  9
$DIMSCALE
 40
1.0
  9
$DIMASZ
 40
0.1875
  9
$DIMEXO
 40
0.0730807087
  9
$DIMDLI
 40
0.4443307087
  9
$DIMEXE
 40
0.2104724409
  9
$DIMCEN
 40
0.1052362205
  9
$DIMLFAC
 40
1.0
  9
$DIMBLK
  1
_CLOSED
  9
$DIMTXT
 40
0.15625
  9
$DIMTOL
 70
0
  9
$DIMLIM
 70
0
  9
$DIMTFAC
 40
1.0
  9
$PDMODE
 70
3
  9
$PDSIZE
 40
0.3125
  9
$HANDSEED
  5
278
  9
$TILEMODE
 70
1
  9
$MEASUREMENT
 70
0
  9
$INSUNITS
 70
1
  0
ENDSEC
  0
SECTION
  2
CLASSES
  0
CLASS
  1
ACDBDICTIONARYWDFLT
  2
AcDbDictionaryWithDefault
  3
AutoCAD 2000
 90
0
280
0
281
0
  0
CLASS
  1
ACDBPLACEHOLDER
  2
AcDbPlaceHolder
  3
AutoCAD 2000
 90
0
280
0
281
0
  0
CLASS
  1
LAYOUT
  2
AcDbLayout
  3
AutoCAD 2000
 90
0
280
0
281
0
  0
ENDSEC
  0
SECTION
  2
TABLES
  0
TABLE
  2
VPORT
  5
8
100
AcDbSymbolTable
 70
2
  0
VPORT
  5
1F4
100
AcDbSymbolTableRecord
100
AcDbViewportTableRecord
  2
*ACTIVE
 70
0
 10
0.0
 20
0.0
 11
1.0
 21
1.0
 12
5.8464566929
 22
4.1338582677
 13
0.0
 23
0.0
 14
1.0
 24
1.0
 15
0.0
 25
0.0
 16
0.0
 26
0.0
 36
1.0
 17
0.0
 27
0.0
 37
0.0
 40
8.2677165354
 41
1.4142857143
 42
50.0
 43
0.0
 44
0.0
 50
0.0
 51
0.0
 71
0
 72
100
 73
1
 74
1
 75
0
 76
0
 77
0
 78
0
  0
ENDTAB
  0
TABLE
  2
LTYPE
  5
5
100
AcDbSymbolTable
 70
6
  0
LTYPE
  5
14
100
AcDbSymbolTableRecord
100
AcDbLinetypeTableRecord
  2
BYBLOCK
 70
0
  3

 72
65
 73
0
 40
0.0
  0
LTYPE
  5
15
100
AcDbSymbolTableRecord
100
AcDbLinetypeTableRecord
  2
BYLAYER
 70
0
  3

 72
65
 73
0
 40
0.0
  0
LTYPE
  5
16
100
AcDbSymbolTableRecord
100
AcDbLinetypeTableRecord
  2
CONTINUOUS
 70
64
  3
Solid line
 72
65
 73
0
 40
0.0
  0
LTYPE
  5
1F5
100
AcDbSymbolTableRecord
100
AcDbLinetypeTableRecord
  2
CENTER
 70
64
  3
____ _ ____ _ ____ _ ____ _ ____ _ ____ _ ____
 72
65
 73
4
 40
0.6
 49
0.375
 74
0
 49
-0.075
 74
0
 49
0.075
 74
0
 49
-0.075
 74
0
  0
LTYPE
  5
1F6
100
AcDbSymbolTableRecord
100
AcDbLinetypeTableRecord
  2
HIDDEN
 70
64
  3
- - - - - - - - - - - - - - - - - - - -
 72
65
 73
2
 40
0.2
 49
0.1
 74
0
 49
-0.1
 74
0
  0
LTYPE
  5
1F7
100
AcDbSymbolTableRecord
100
AcDbLinetypeTableRecord
  2
PHANTOM
 70
64
  3
_____ _ _ _____ _ _ _____ _ _ _____
 72
65
 73
6
 40
0.8
 49
0.45
 74
0
 49
-0.05
 74
0
 49
0.1
 74
0
 49
-0.05
 74
0
 49
0.1
 74
0
 49
-0.05
 74
0
  0
LTYPE
  5
1F8
100
AcDbSymbolTableRecord
100
AcDbLinetypeTableRecord
  2
DOT
 70
64
  3
. . . . . . . . . . . . . . . . . . . .
 72
65
 73
2
 40
0.2
 49
0.1
 74
0
 49
-0.1
 74
0
  0
LTYPE
  5
1F9
100
AcDbSymbolTableRecord
100
AcDbLinetypeTableRecord
  2
DASHED
 70
64
  3
- - - - - - - - - - - - - - - - - - - -
 72
65
 73
2
 40
0.2
 49
0.1
 74
0
 49
-0.1
 74
0
  0
ENDTAB
  0
TABLE
  2
LAYER
  5
2
100
AcDbSymbolTable
 70
36
  0
LAYER
  5
10
100
AcDbSymbolTableRecord
100
AcDbLayerTableRecord
  2
0
 70
0
 62
7
  6
CONTINUOUS
370
-3
390
F
  0
LAYER
  5
1FA
100
AcDbSymbolTableRecord
100
AcDbLayerTableRecord
  2
DEFAULT_1
 70
0
 62
7
  6
CENTER
370
-3
390
F
  0
LAYER
  5
1FB
100
AcDbSymbolTableRecord
100
AcDbLayerTableRecord
  2
DEFAULT_2
 70
0
 62
8
  6
HIDDEN
370
-3
390
F
  0
LAYER
  5
1FC
100
AcDbSymbolTableRecord
100
AcDbLayerTableRecord
  2
DEFAULT_3
 70
0
 62
7
  6
PHANTOM
370
-3
390
F
  0
LAYER
  5
1FD
100
AcDbSymbolTableRecord
100
AcDbLayerTableRecord
  2
DEFAULT_COORDINATE_SYSTEM
 70
0
 62
7
  6
CONTINUOUS
370
-3
390
F
  0
LAYER
  5
1FE
100
AcDbSymbolTableRecord
100
AcDbLayerTableRecord
  2
DEFAULT_DATUM_AXES
 70
0
 62
7
  6
CONTINUOUS
370
-3
390
F
  0
LAYER
  5
1FF
100
AcDbSymbolTableRecord
100
AcDbLayerTableRecord
  2
DEFAULT_DATUM_CURVES
 70
0
 62
7
  6
CONTINUOUS
370
-3
390
F
  0
LAYER
  5
200
100
AcDbSymbolTableRecord
100
AcDbLayerTableRecord
  2
DEFAULT_DATUM_PLANES
 70
0
 62
7
  6
CONTINUOUS
370
-3
390
F
  0
ENDTAB
  0
TABLE
  2
STYLE
  5
3
100
AcDbSymbolTable
 70
1
  0
STYLE
  5
11
100
AcDbSymbolTableRecord
100
AcDbTextStyleTableRecord
  2
STANDARD
 70
0
 40
0.0
 41
0.8
 50
0.0
 71
0
 42
0.2
  3
txt
  4

  0
STYLE
  5
201
100
AcDbSymbolTableRecord
100
AcDbTextStyleTableRecord
  2
TEXTSTYLE_1
 70
0
 40
0.0
 41
0.8
 50
0.0
 71
0
 42
0.2
  3
gdt
  4

  0
ENDTAB
  0
TABLE
  2
VIEW
  5
6
100
AcDbSymbolTable
 70
0
  0
ENDTAB
  0
TABLE
  2
UCS
  5
7
100
AcDbSymbolTable
 70
0
  0
ENDTAB
  0
TABLE
  2
APPID
  5
9
100
AcDbSymbolTable
 70
1
  0
APPID
  5
202
100
AcDbSymbolTableRecord
100
AcDbRegAppTableRecord
  2
ACAD
 70
0
  0
ENDTAB
  0
TABLE
  2
BLOCK_RECORD
  5
1
100
AcDbSymbolTable
 70
0
  0
BLOCK_RECORD
  5
203
100
AcDbSymbolTableRecord
100
AcDbBlockTableRecord
  2
*Model_Space
  0
BLOCK_RECORD
  5
204
100
AcDbSymbolTableRecord
100
AcDbBlockTableRecord
  2
*Paper_Space
  0
ENDTAB
  0
TABLE
  2
DIMSTYLE
  5
A
100
AcDbSymbolTable
 70
1
100
AcDbDimStyleTable
 71
0
  0
DIMSTYLE
105
205
100
AcDbSymbolTableRecord
100
AcDbDimStyleTableRecord
  2
STANDARD
 70
0
  3

  4

 40
1.0
 41
0.1875
 42
0.0625
 43
0.38
 44
0.18
 45
0.0
 46
0.0
 47
0.01
 48
0.01
140
0.15625
141
0.09
142
0.0
143
25.4
144
1.0
145
0.0
146
1.0
147
0.09
 71
0.0
 72
0.0
 73
1
 74
1
 75
0
 76
0
 77
0
 78
4
170
0
171
2
172
0
173
0
174
0
175
0
176
0
177
0
178
0
270
2
271
2
272
2
273
2
274
2
275
0
280
0
281
0
282
0
283
1
284
4
285
0
286
0
287
3
288
0
340
11
  0
ENDTAB
  0
ENDSEC
  0
SECTION
  2
BLOCKS
  0
BLOCK
  5
20
100
AcDbEntity
  8
0
100
AcDbBlockBegin
  2
*Model_Space
 70
0
 10
0.0
 20
0.0
 30
0.0
  3
*Model_Space
  1

  0
ENDBLK
  5
21
100
AcDbEntity
  8
0
100
AcDbBlockEnd
  0
BLOCK
  5
1C
100
AcDbEntity
  8
0
100
AcDbBlockBegin
  2
*Paper_Space
 70
0
 10
0.0
 20
0.0
 30
0.0
  3
*Paper_Space
  1

  0
ENDBLK
  5
1D
100
AcDbEntity
  8
0
100
AcDbBlockEnd
  0
ENDSEC
  0
SECTION
  2
ENTITIES
  0
LINE
  5
206
100
AcDbEntity
  8
0
100
AcDbLine
 62
6
  6
CONTINUOUS
 10
5.4337320598
 20
2.7437871546
 11
5.4717880835
 21
2.7217874306
  0
LINE
  5
207
100
AcDbEntity
  8
0
100
AcDbLine
 62
6
  6
CONTINUOUS
 10
5.4337320598
 20
2.8152171546
 11
5.4717880835
 21
2.7932174306
  0
LINE
  5
208
100
AcDbEntity
  8
0
100
AcDbLine
 62
6
  6
CONTINUOUS
 10
5.4732588922
 20
2.676616549
 11
5.4553105718
 21
2.6945648694
  0
LINE
  5
209
100
AcDbEntity
  8
0
100
AcDbLine
 62
6
  6
CONTINUOUS
 10
6.2112588922
 20
2.676616549
 11
5.4732588922
 21
2.676616549
  0
LINE
  5
20A
100
AcDbEntity
  8
0
100
AcDbLine
 62
6
  6
CONTINUOUS
 10
6.2125988922
 20
2.677956549
 11
6.1172867659
 21
2.677956549
  0
LINE
  5
20B
100
AcDbEntity
  8
0
100
AcDbLine
 62
6
  6
CONTINUOUS
 10
6.2498858852
 20
2.716616549
 11
6.2512588922
 21
2.716616549
  0
LINE
  5
20C
100
AcDbEntity
  8
0
100
AcDbLine
 62
6
  6
CONTINUOUS
 10
5.4337320598
 20
2.8866471546
 11
5.4717880835
 21
2.8646474306
  0
LINE
  5
20D
100
AcDbEntity
  8
0
100
AcDbLine
 62
6
  6
CONTINUOUS
 10
5.4337320598
 20
2.7437871546
 11
5.4332588922
 21
2.744334049
  0
LINE
  5
20E
100
AcDbEntity
  8
0
100
AcDbLine
 62
6
  6
CONTINUOUS
 10
5.4337320598
 20
2.8152171546
 11
5.4332588922
 21
2.815764049
  0
LINE
  5
20F
100
AcDbEntity
  8
0
100
AcDbLine
 62
6
  6
CONTINUOUS
 10
5.436258958
 20
2.956616549
 11
5.4717880835
 21
2.9360774306
  0
LINE
  5
210
100
AcDbEntity
  8
0
100
AcDbLine
 62
6
  6
CONTINUOUS
 10
5.4337320598
 20
2.8866471546
 11
5.4332588922
 21
2.887194049
  0
LINE
  5
211
100
AcDbEntity
  8
0
100
AcDbLine
 62
6
  6
CONTINUOUS
 10
5.0542588922
 20
3.686616549
 11
5.0542588922
 21
4.786616549
  0
LINE
  5
212
100
AcDbEntity
  8
0
100
AcDbLine
 62
6
  6
CONTINUOUS
 10
5.4362591817
 20
2.956616549
 11
6.2126071407
 21
2.956616549
  0
LINE
  5
213
100
AcDbEntity
  8
0
100
AcDbLine
 62
6
  6
CONTINUOUS
 10
6.2507857247
 20
2.7180952206
 11
6.2127297009
 21
2.740094945
  0
LINE
  5
214
100
AcDbEntity
  8
0
100
AcDbLine
 62
6
  6
CONTINUOUS
 10
5.2772588922
 20
3.036616549
 11
6.4072588922
 21
3.036616549
  0
LINE
  5
215
100
AcDbEntity
  8
0
100
AcDbLine
 62
6
  6
CONTINUOUS
 10
6.2507857247
 20
2.7895252206
 11
6.2127297009
 21
2.811524945
  0
LINE
  5
216
100
AcDbEntity
  8
0
100
AcDbLine
 62
6
  6
CONTINUOUS
 10
6.2507857247
 20
2.8609552206
 11
6.2127297009
 21
2.882954945
  0
LINE
  5
217
100
AcDbEntity
  8
0
100
AcDbLine
 62
6
  6
CONTINUOUS
 10
5.2772588922
 20
3.136616549
 11
5.2772588922
 21
3.036616549
  0
LINE
  5
218
100
AcDbEntity
  8
0
100
AcDbLine
 62
6
  6
CONTINUOUS
 10
6.4072588922
 20
3.136616549
 11
5.2772588922
 21
3.136616549
  0
LINE
  5
219
100
AcDbEntity
  8
0
100
AcDbLine
 62
6
  6
CONTINUOUS
 10
6.2507857247
 20
2.9323852206
 11
6.2127297009
 21
2.954384945
  0
LINE
  5
21A
100
AcDbEntity
  8
0
100
AcDbLine
 62
6
  6
CONTINUOUS
 10
5.3772588922
 20
3.686616549
 11
5.3772588922
 21
3.236616549
  0
LINE
  5
21B
100
AcDbEntity
  8
0
100
AcDbLine
 62
6
  6
CONTINUOUS
 10
5.4332588922
 20
2.744334049
 11
5.4332588922
 21
2.7532633262
  0
LINE
  5
21C
100
AcDbEntity
  8
0
100
AcDbLine
 62
6
  6
CONTINUOUS
 10
5.4332588922
 20
2.815764049
 11
5.4332588922
 21
2.8246933262
  0
LINE
  5
21D
100
AcDbEntity
  8
0
100
AcDbLine
 62
6
  6
CONTINUOUS
 10
5.4332588922
 20
2.887194049
 11
5.4332588922
 21
2.8961233262
  0
LINE
  5
21E
100
AcDbEntity
  8
0
100
AcDbLine
 62
9
  6
CONTINUOUS
 10
6.3072588922
 20
3.236616549
 11
5.3772588922
 21
3.236616549
  0
LINE
  5
21F
100
AcDbEntity
  8
0
100
AcDbLine
 62
6
  6
CONTINUOUS
 10
6.7622588922
 20
3.236616549
 11
7.0822588922
 21
3.236616549
  0
LINE
  5
220
100
AcDbEntity
  8
0
100
AcDbLine
 62
6
  6
CONTINUOUS
 10
6.2125988922
 20
2.7398686876
 11
6.2120765294
 21
2.7404725704
  0
LINE
  5
221
100
AcDbEntity
  8
0
100
AcDbLine
 62
6
  6
CONTINUOUS
 10
6.2125988922
 20
2.8112986876
 11
6.2120765294
 21
2.8119025704
  0
LINE
  5
222
100
AcDbEntity
  8
0
100
AcDbLine
 62
6
  6
CONTINUOUS
 10
5.4719188922
 20
2.9363036876
 11
5.4719188922
 21
2.9187455709
  0
LINE
  5
223
100
AcDbEntity
  8
0
100
AcDbLine
 62
6
  6
CONTINUOUS
 10
5.4719188922
 20
2.8648736876
 11
5.4719188922
 21
2.8473155709
  0
LINE
  5
224
100
AcDbEntity
  8
0
100
AcDbLine
 62
6
  6
CONTINUOUS
 10
5.4719188922
 20
2.7934436876
 11
5.4719188922
 21
2.7758855709
  0
LINE
  5
225
100
AcDbEntity
  8
0
100
AcDbLine
 62
6
  6
CONTINUOUS
 10
5.4719188922
 20
2.7220136876
 11
5.4719188922
 21
2.7044555709
  0
LINE
  5
226
100
AcDbEntity
  8
0
100
AcDbLine
 62
6
  6
CONTINUOUS
 10
5.4772588922
 20
3.036616549
 11
5.4772588922
 21
2.956616549
  0
LINE
  5
227
100
AcDbEntity
  8
0
100
AcDbLine
 62
6
  6
CONTINUOUS
 10
6.2507857247
 20
2.7895252206
 11
6.2512588922
 21
2.7889783262
  0
LINE
  5
228
100
AcDbEntity
  8
0
100
AcDbLine
 62
6
  6
CONTINUOUS
 10
6.2507857247
 20
2.8609552206
 11
6.2512588922
 21
2.8604083262
  0
LINE
  5
229
100
AcDbEntity
  8
0
100
AcDbLine
 62
6
  6
CONTINUOUS
 10
6.2512588922
 20
2.9318383398
 11
6.2507857247
 21
2.9323852206
  0
LINE
  5
22A
100
AcDbEntity
  8
0
100
AcDbLine
 62
6
  6
CONTINUOUS
 10
7.0922588922
 20
3.611616549
 11
7.0822588922
 21
3.611616549
  0
LINE
  5
22B
100
AcDbEntity
  8
0
100
AcDbLine
 62
6
  6
CONTINUOUS
 10
5.0542588922
 20
3.686616549
 11
5.3772588922
 21
3.686616549
  0
LINE
  5
22C
100
AcDbEntity
  8
0
100
AcDbLine
 62
6
  6
CONTINUOUS
 10
6.3072588922
 20
3.686616549
 11
6.7622588922
 21
3.686616549
  0
LINE
  5
22D
100
AcDbEntity
  8
0
100
AcDbLine
 62
6
  6
CONTINUOUS
 10
5.4554440353
 20
2.6949309669
 11
5.4553105718
 21
2.6945648694
  0
LINE
  5
22E
100
AcDbEntity
  8
0
100
AcDbLine
 62
6
  6
CONTINUOUS
 10
6.2072588922
 20
3.036616549
 11
6.2072588922
 21
2.956616549
  0
LINE
  5
22F
100
AcDbEntity
  8
0
100
AcDbLine
 62
6
  6
CONTINUOUS
 10
6.2125988922
 20
2.677956549
 11
6.2125988922
 21
2.6859968046
  0
LINE
  5
230
100
AcDbEntity
  8
0
100
AcDbLine
 62
6
  6
CONTINUOUS
 10
6.2125988922
 20
2.7398686876
 11
6.2125988922
 21
2.7574268046
  0
LINE
  5
231
100
AcDbEntity
  8
0
100
AcDbLine
 62
6
  6
CONTINUOUS
 10
6.2125988922
 20
2.8112986876
 11
6.2125988922
 21
2.8288568046
  0
LINE
  5
232
100
AcDbEntity
  8
0
100
AcDbLine
 62
6
  6
CONTINUOUS
 10
6.2125988922
 20
2.8827286876
 11
6.2125988922
 21
2.9002868046
  0
LINE
  5
233
100
AcDbEntity
  8
0
100
AcDbLine
 62
6
  6
CONTINUOUS
 10
6.2125988922
 20
2.9541586876
 11
6.2125988922
 21
2.956616549
  0
LINE
  5
234
100
AcDbEntity
  8
0
100
AcDbLine
 62
6
  6
CONTINUOUS
 10
6.2512588922
 20
2.8604083262
 11
6.2512588922
 21
2.851479049
  0
LINE
  5
235
100
AcDbEntity
  8
0
100
AcDbLine
 62
6
  6
CONTINUOUS
 10
6.2512588922
 20
2.7889783262
 11
6.2512588922
 21
2.780049049
  0
LINE
  5
236
100
AcDbEntity
  8
0
100
AcDbLine
 62
6
  6
CONTINUOUS
 10
6.2512588922
 20
2.716616549
 11
6.2512588922
 21
2.7175483262
  0
LINE
  5
237
100
AcDbEntity
  8
0
100
AcDbLine
 62
6
  6
CONTINUOUS
 10
6.2512588922
 20
2.922909049
 11
6.2512588922
 21
2.9318383262
  0
LINE
  5
238
100
AcDbEntity
  8
0
100
AcDbLine
 62
6
  6
CONTINUOUS
 10
5.4332588922
 20
2.8961233262
 11
5.4337320597
 21
2.8966702206
  0
LINE
  5
239
100
AcDbEntity
  8
0
100
AcDbLine
 62
6
  6
CONTINUOUS
 10
6.3072588922
 20
3.686616549
 11
6.3072588922
 21
3.236616549
  0
LINE
  5
23A
100
AcDbEntity
  8
0
100
AcDbLine
 62
6
  6
CONTINUOUS
 10
6.4072588922
 20
3.136616549
 11
6.4072588922
 21
3.036616549
  0
LINE
  5
23B
100
AcDbEntity
  8
0
100
AcDbLine
 62
6
  6
CONTINUOUS
 10
5.4337320597
 20
2.8252402206
 11
5.4332588922
 21
2.8246933262
  0
LINE
  5
23C
100
AcDbEntity
  8
0
100
AcDbLine
 62
6
  6
CONTINUOUS
 10
5.4337320597
 20
2.7538102206
 11
5.4332588922
 21
2.7532633262
  0
LINE
  5
23D
100
AcDbEntity
  8
0
100
AcDbLine
 62
6
  6
CONTINUOUS
 10
5.472441255
 20
2.9190475704
 11
5.4337320597
 21
2.8966702206
  0
LINE
  5
23E
100
AcDbEntity
  8
0
100
AcDbLine
 62
6
  6
CONTINUOUS
 10
5.472441255
 20
2.8476175704
 11
5.4337320597
 21
2.8252402206
  0
LINE
  5
23F
100
AcDbEntity
  8
0
100
AcDbLine
 62
6
  6
CONTINUOUS
 10
6.7622588922
 20
5.236616549
 11
6.7622588922
 21
3.236616549
  0
LINE
  5
240
100
AcDbEntity
  8
0
100
AcDbLine
 62
6
  6
CONTINUOUS
 10
5.472441255
 20
2.7761875704
 11
5.4337320597
 21
2.7538102206
  0
LINE
  5
241
100
AcDbEntity
  8
0
100
AcDbLine
 62
6
  6
CONTINUOUS
 10
6.2512588922
 20
2.9229090478
 11
6.2507857246
 21
2.9223621546
  0
LINE
  5
242
100
AcDbEntity
  8
0
100
AcDbLine
 62
6
  6
CONTINUOUS
 10
6.2507857246
 20
2.8509321546
 11
6.2512588922
 21
2.851479049
  0
LINE
  5
243
100
AcDbEntity
  8
0
100
AcDbLine
 62
6
  6
CONTINUOUS
 10
5.472441255
 20
2.7047575704
 11
5.4554440353
 21
2.6949309669
  0
LINE
  5
244
100
AcDbEntity
  8
0
100
AcDbLine
 62
6
  6
CONTINUOUS
 10
5.0542588922
 20
4.786616549
 11
6.7622588922
 21
4.786616549
  0
LINE
  5
245
100
AcDbEntity
  8
0
100
AcDbLine
 62
6
  6
CONTINUOUS
 10
6.2507857246
 20
2.7795021546
 11
6.2512588922
 21
2.780049049
  0
LINE
  5
246
100
AcDbEntity
  8
0
100
AcDbLine
 62
6
  6
CONTINUOUS
 10
6.2120765294
 20
2.8999848048
 11
6.2507857246
 21
2.9223621546
  0
LINE
  5
247
100
AcDbEntity
  8
0
100
AcDbLine
 62
6
  6
CONTINUOUS
 10
7.0922588922
 20
4.861616549
 11
7.0822588922
 21
4.861616549
  0
LINE
  5
248
100
AcDbEntity
  8
0
100
AcDbLine
 62
6
  6
CONTINUOUS
 10
7.0822588922
 20
5.236616549
 11
7.0822588922
 21
3.236616549
  0
LINE
  5
249
100
AcDbEntity
  8
0
100
AcDbLine
 62
6
  6
CONTINUOUS
 10
7.0922588922
 20
3.611616549
 11
7.0922588922
 21
4.861616549
  0
LINE
  5
24A
100
AcDbEntity
  8
0
100
AcDbLine
 62
6
  6
CONTINUOUS
 10
6.2112588922
 20
2.676616549
 11
6.2125988922
 21
2.677956549
  0
LINE
  5
24B
100
AcDbEntity
  8
0
100
AcDbLine
 62
6
  6
CONTINUOUS
 10
6.232336604
 20
2.6976942608
 11
6.2512588922
 21
2.716616549
  0
LINE
  5
24C
100
AcDbEntity
  8
0
100
AcDbLine
 62
6
  6
CONTINUOUS
 10
6.2120765294
 20
2.8285548048
 11
6.2507857246
 21
2.8509321546
  0
LINE
  5
24D
100
AcDbEntity
  8
0
100
AcDbLine
 62
6
  6
CONTINUOUS
 10
6.232337939
 20
2.6976955963
 11
6.2304774625
 21
2.6963328855
  0
LINE
  5
24E
100
AcDbEntity
  8
0
100
AcDbLine
 62
6
  6
CONTINUOUS
 10
6.2120765294
 20
2.7571248048
 11
6.2507857246
 21
2.7795021546
  0
LINE
  5
24F
100
AcDbEntity
  8
0
100
AcDbLine
 62
6
  6
CONTINUOUS
 10
6.2120765294
 20
2.6856948048
 11
6.2304774625
 21
2.6963328855
  0
LINE
  5
250
100
AcDbEntity
  8
0
100
AcDbLine
 62
6
  6
CONTINUOUS
 10
6.7622588922
 20
5.236616549
 11
7.0822588922
 21
5.236616549
  0
ARC
  5
251
100
AcDbEntity
  8
0
100
AcDbCircle
 62
6
  6
CONTINUOUS
 10
5.2772588922
 20
3.236616549
 40
0.1
100
AcDbArc
 50
270.0
 51
360.0
  0
ARC
  5
252
100
AcDbEntity
  8
0
100
AcDbCircle
 62
6
  6
CONTINUOUS
 10
6.4072588922
 20
3.236616549
 40
0.1
100
AcDbArc
 50
180.0
 51
270.0
  0
LINE
  5
253
100
AcDbEntity
  8
0
100
AcDbLine
 62
6
  6
CONTINUOUS
 10
5.4724415744
 20
2.9356998037
 11
5.4719189983
 21
2.9363036883
  0
SPLINE
  5
254
100
AcDbEntity
  8
0
100
AcDbSpline
 62
7
  6
CONTINUOUS
 70
0
 71
3
 72
62
 73
58
 74
56
 42
0.0000001
 43
0.0000001
 44
0.0000000001
 12
0.8446128908
 22
0.7294637256
 32
0.0
 13
0.8446187698
 23
-0.7294573571
 33
0.0
 40
0.0
 40
0.0
 40
0.0
 40
0.0
 40
0.0124070429
 40
0.0475390034
 40
0.0593355988
 40
0.072173529
 40
0.1006504597
 40
0.1161421919
 40
0.1323757993
 40
0.1492873237
 40
0.1668216579
 40
0.1849249806
 40
0.203546501
 40
0.2226441363
 40
0.2421790088
 40
0.2621143294
 40
0.2824171325
 40
0.3030594088
 40
0.3240166771
 40
0.3452608963
 40
0.3559845963
 40
0.3667740708
 40
0.3885340832
 40
0.4105111057
 40
0.4326902987
 40
0.4438425978
 40
0.4550285052
 40
0.4662460395
 40
0.4774881698
 40
0.4887449556
 40
0.5000080567
 40
0.5225218256
 40
0.5449765065
 40
0.5673099836
 40
0.5894889183
 40
0.6114657931
 40
0.6223750826
 40
0.6332270578
 40
0.6440165609
 40
0.6547402363
 40
0.6759842325
 40
0.6969413272
 40
0.7175835159
 40
0.7378861945
 40
0.7578213839
 40
0.7773561563
 40
0.7964537112
 40
0.8150751482
 40
0.8331783832
 40
0.8507126482
 40
0.8676241298
 40
0.8838577171
 40
0.8993494257
 40
0.9278263577
 40
0.9524608513
 40
0.9875929025
 40
1.0
 40
1.0
 40
1.0
 40
1.0
 10
5.3672588922
 20
3.686616549
 30
0.0
 10
5.3707519417
 20
3.6896333783
 30
0.0
 10
5.3841520831
 20
3.701174149
 30
0.0
 10
5.4009587996
 20
3.7154841465
 30
0.0
 10
5.4179805456
 20
3.7297876324
 30
0.0
 10
5.4331540245
 20
3.7424421348
 30
0.0
 10
5.4494702646
 20
3.7558725092
 30
0.0
 10
5.466876905
 20
3.76996424
 30
0.0
 10
5.4810107548
 20
3.7812603969
 30
0.0
 10
5.4958220327
 20
3.7929253449
 30
0.0
 10
5.511280781
 20
3.8048913543
 30
0.0
 10
5.5273591676
 20
3.8170947334
 30
0.0
 10
5.5440338152
 20
3.8294727083
 30
0.0
 10
5.5612964024
 20
3.8419495788
 30
0.0
 10
5.5791409818
 20
3.8544518682
 30
0.0
 10
5.5975611899
 20
3.8669091847
 30
0.0
 10
5.6165720724
 20
3.8792215043
 30
0.0
 10
5.6361916166
 20
3.891282808
 30
0.0
 10
5.6564308527
 20
3.9029903134
 30
0.0
 10
5.6737905407
 20
3.9122887941
 30
0.0
 10
5.6880249032
 20
3.9193892891
 30
0.0
 10
5.702577364
 20
3.9262738094
 30
0.0
 10
5.7212065677
 20
3.9343216124
 30
0.0
 10
5.7442265638
 20
3.9428086696
 30
0.0
 10
5.7639620198
 20
3.9486893393
 30
0.0
 10
5.7800708079
 20
3.9525465223
 30
0.0
 10
5.7923178499
 20
3.9549797554
 30
0.0
 10
5.8046887623
 20
3.9569067228
 30
0.0
 10
5.8171571646
 20
3.958305238
 30
0.0
 10
5.8296920516
 20
3.9591590112
 30
0.0
 10
5.8464452994
 20
3.9595470031
 30
0.0
 10
5.8673725005
 20
3.9585799162
 30
0.0
 10
5.8922156582
 20
3.9552410164
 30
0.0
 10
5.9165700898
 20
3.9498772345
 30
0.0
 10
5.9402922045
 20
3.942808008
 30
0.0
 10
5.9595240404
 20
3.9357176746
 30
0.0
 10
5.9745480613
 20
3.9294676375
 30
0.0
 10
5.9856096564
 20
3.9245380468
 30
0.0
 10
5.9964939411
 20
3.9193885626
 30
0.0
 10
6.0107281193
 20
3.9122880789
 30
0.0
 10
6.0280878628
 20
3.9029899456
 30
0.0
 10
6.0483268492
 20
3.8912823836
 30
0.0
 10
6.0679461776
 20
3.8792210029
 30
0.0
 10
6.0869570603
 20
3.8669089209
 30
0.0
 10
6.1053771373
 20
3.8544516439
 30
0.0
 10
6.1232215829
 20
3.8419493667
 30
0.0
 10
6.1404841122
 20
3.829472584
 30
0.0
 10
6.1571586984
 20
3.8170946832
 30
0.0
 10
6.1732370049
 20
3.8048913463
 30
0.0
 10
6.1886956925
 20
3.7929253801
 30
0.0
 10
6.2035069305
 20
3.7812604608
 30
0.0
 10
6.2176407736
 20
3.7699643478
 30
0.0
 10
6.23504736
 20
3.7558725708
 30
0.0
 10
6.2547521005
 20
3.7396535584
 30
0.0
 10
6.2799228708
 20
3.718580676
 30
0.0
 10
6.3003656457
 20
3.7011741984
 30
0.0
 10
6.3137658031
 20
3.6896333652
 30
0.0
 10
6.3172588922
 20
3.686616549
 30
0.0
 11
5.3672588922
 21
3.686616549
 31
0.0
 11
5.377750898
 21
3.6956521907
 31
0.0
 11
5.4076094228
 21
3.7210633536
 31
0.0
 11
5.41768898
 21
3.7295324309
 31
0.0
 11
5.4286922147
 21
3.738708596
 31
0.0
 11
5.453235186
 21
3.7588991691
 31
0.0
 11
5.4666734739
 21
3.769776834
 31
0.0
 11
5.480826907
 21
3.7810863782
 31
0.0
 11
5.4956559783
 21
3.7927615635
 31
0.0
 11
5.5111319367
 21
3.8047376193
 31
0.0
 11
5.5272268764
 21
3.8169498895
 31
0.0
 11
5.5439173386
 21
3.8293320457
 31
0.0
 11
5.5611945326
 21
3.8418122424
 31
0.0
 11
5.579052687
 21
3.8543174988
 31
0.0
 11
5.5974884042
 21
3.8667716329
 31
0.0
 11
5.6165131549
 21
3.8790784151
 31
0.0
 11
5.6361441537
 21
3.8911338702
 31
0.0
 11
5.6564003403
 21
3.9028264918
 31
0.0
 11
5.6773105735
 21
3.9140012527
 31
0.0
 11
5.6880210889
 21
3.9193411065
 31
0.0
 11
5.6989072257
 21
3.9244873289
 31
0.0
 11
5.7212144543
 21
3.9340856302
 31
0.0
 11
5.7442390223
 21
3.9425372914
 31
0.0
 11
5.7679709075
 21
3.9495713217
 31
0.0
 11
5.7800760308
 21
3.952464931
 31
0.0
 11
5.7923214266
 21
3.9548923422
 31
0.0
 11
5.804691588
 21
3.9568168273
 31
0.0
 11
5.8171600032
 21
3.9582136802
 31
0.0
 11
5.8296938949
 21
3.9590650391
 31
0.0
 11
5.8422604138
 21
3.9593531214
 31
0.0
 11
5.8673603237
 21
3.9582135572
 31
0.0
 11
5.892199017
 21
3.9548918114
 31
0.0
 11
5.9165490136
 21
3.9495709862
 31
0.0
 11
5.9402804694
 21
3.9425365221
 31
0.0
 11
5.963304914
 21
3.934085003
 31
0.0
 11
5.974547659
 21
3.9294127071
 31
0.0
 11
5.9856116796
 21
3.9244868883
 31
0.0
 11
5.9964977397
 21
3.9193404294
 31
0.0
 11
6.0072082024
 21
3.9140005313
 31
0.0
 11
6.0281183058
 21
3.9028260552
 31
0.0
 11
6.0483742843
 21
3.8911334608
 31
0.0
 11
6.0680051404
 21
3.8790779602
 31
0.0
 11
6.0870298272
 21
3.8667713349
 31
0.0
 11
6.1054654196
 21
3.8543172776
 31
0.0
 11
6.1233234568
 21
3.8418120487
 31
0.0
 11
6.1406005886
 21
3.8293319192
 31
0.0
 11
6.1572909872
 21
3.8169498335
 31
0.0
 11
6.1733858449
 21
3.804737617
 31
0.0
 11
6.1888617393
 21
3.7927616049
 31
0.0
 11
6.2036907752
 21
3.7810864519
 31
0.0
 11
6.2178441972
 21
3.7697769295
 31
0.0
 11
6.2312824638
 21
3.7588992802
 31
0.0
 11
6.2558254373
 21
3.7387087076
 31
0.0
 11
6.2769082368
 21
3.7210634571
 31
0.0
 11
6.3067668407
 21
3.6956522309
 31
0.0
 11
6.3172588922
 21
3.686616549
 31
0.0
  0
LINE
  5
255
100
AcDbEntity
  8
0
100
AcDbLine
 62
6
  6
CONTINUOUS
 10
6.2512575299
 20
2.7175482072
 11
6.2512237325
 21
2.7176946196
  0
LINE
  5
256
100
AcDbEntity
  8
0
100
AcDbLine
 62
6
  6
CONTINUOUS
 10
6.2512237325
 20
2.7176946196
 11
6.2507851631
 21
2.7180952189
  0
LINE
  5
257
100
AcDbEntity
  8
0
100
AcDbLine
 62
6
  6
CONTINUOUS
 10
6.2507853232
 20
2.9223621556
 11
6.2496663057
 21
2.9219054813
  0
SPLINE
  5
258
100
AcDbEntity
  8
0
100
AcDbSpline
 62
6
  6
CONTINUOUS
 70
0
 71
3
 72
62
 73
58
 74
56
 42
0.0000001
 43
0.0000001
 44
0.0000000001
 12
-0.779827132
 22
-0.2458644548
 32
0.0
 13
-0.2188139468
 23
-0.7878452529
 33
0.0
 40
0.0
 40
0.0
 40
0.0
 40
0.0
 40
0.0012355522
 40
0.0027442713
 40
0.0045276566
 40
0.006586145
 40
0.0089196122
 40
0.0115276111
 40
0.0175640805
 40
0.0246842341
 40
0.0328722243
 40
0.0421115561
 40
0.0523829404
 40
0.0636620261
 40
0.0759237655
 40
0.1032866423
 40
0.1342232466
 40
0.1684567861
 40
0.2056772551
 40
0.2455483957
 40
0.287710819
 40
0.331782069
 40
0.3773648544
 40
0.4240461177
 40
0.4714041235
 40
0.5190103429
 40
0.5664343632
 40
0.613247053
 40
0.6590251723
 40
0.7033549229
 40
0.7458347502
 40
0.7860819044
 40
0.8237309731
 40
0.8584433641
 40
0.8899050232
 40
0.9043271036
 40
0.9178319505
 40
0.9303906551
 40
0.941974687
 40
0.9525567582
 40
0.9621147939
 40
0.9706282887
 40
0.9780772955
 40
0.9844467122
 40
0.9872231856
 40
0.9897258395
 40
0.9919536218
 40
0.993905737
 40
0.9955822464
 40
0.9969844628
 40
0.9975835534
 40
0.9981153031
 40
0.9985805633
 40
0.9989806459
 40
0.9993176677
 40
0.9995952436
 40
1.0
 40
1.0
 40
1.0
 40
1.0
 10
6.2496663057
 20
2.9219054813
 30
0.0
 10
6.2493451333
 20
2.9218042219
 30
0.0
 10
6.2486226115
 20
2.9216085774
 30
0.0
 10
6.2474174466
 20
2.9213421963
 30
0.0
 10
6.2459836085
 20
2.9210748099
 30
0.0
 10
6.244321863
 20
2.9208066819
 30
0.0
 10
6.2424329032
 20
2.9205380318
 30
0.0
 10
6.2394646057
 20
2.920160715
 30
0.0
 10
6.2351925593
 20
2.9196976668
 30
0.0
 10
6.2293994281
 20
2.9191631191
 30
0.0
 10
6.22273025
 20
2.9186271281
 30
0.0
 10
6.2151998618
 20
2.9180900524
 30
0.0
 10
6.2068251124
 20
2.9175523457
 30
0.0
 10
6.1976250987
 20
2.9170139927
 30
0.0
 10
6.1837710278
 20
2.9162680876
 30
0.0
 10
6.164561022
 20
2.9153480745
 30
0.0
 10
6.1393632837
 20
2.9142772367
 30
0.0
 10
6.1114766942
 20
2.9132046468
 30
0.0
 10
6.0811533689
 20
2.9121305544
 30
0.0
 10
6.0486677598
 20
2.9110554674
 30
0.0
 10
6.014313995
 20
2.9099796967
 30
0.0
 10
5.978402781
 20
2.9089033611
 30
0.0
 10
5.9412594097
 20
2.9078267001
 30
0.0
 10
5.9032198569
 20
2.9067497684
 30
0.0
 10
5.8646285926
 20
2.905672709
 30
0.0
 10
5.8258348092
 20
2.9045955906
 30
0.0
 10
5.7871897109
 20
2.9035185163
 30
0.0
 10
5.749043063
 20
2.9024415648
 30
0.0
 10
5.7117401111
 20
2.901364837
 30
0.0
 10
5.6756185994
 20
2.9002884749
 30
0.0
 10
5.6410052626
 20
2.8992125636
 30
0.0
 10
5.6082136808
 20
2.8981373922
 30
0.0
 10
5.577540328
 20
2.8970631302
 30
0.0
 10
5.5492630443
 20
2.895990164
 30
0.0
 10
5.5273151729
 20
2.8950730477
 30
0.0
 10
5.5111454109
 20
2.8943322827
 30
0.0
 10
5.5001239786
 20
2.8937931203
 30
0.0
 10
5.489877043
 20
2.8932543057
 30
0.0
 10
5.4804278879
 20
2.892715895
 30
0.0
 10
5.4717979949
 20
2.8921778863
 30
0.0
 10
5.4640067316
 20
2.8916405472
 30
0.0
 10
5.4570715535
 20
2.8911042978
 30
0.0
 10
5.4510082949
 20
2.8905692321
 30
0.0
 10
5.4465087215
 20
2.8901064416
 30
0.0
 10
5.4433561556
 20
2.8897301267
 30
0.0
 10
5.4413277743
 20
2.889461258
 30
0.0
 10
5.4395262054
 20
2.8891927962
 30
0.0
 10
5.4379524874
 20
2.8889248867
 30
0.0
 10
5.4366074127
 20
2.8886576265
 30
0.0
 10
5.4356318153
 20
2.8884254824
 30
0.0
 10
5.4349677822
 20
2.8882360471
 30
0.0
 10
5.4345539218
 20
2.8881017248
 30
0.0
 10
5.4341972775
 20
2.8879675304
 30
0.0
 10
5.4338981021
 20
2.8878338636
 30
0.0
 10
5.4336548594
 20
2.8876995
 30
0.0
 10
5.4334307273
 20
2.8875390449
 30
0.0
 10
5.4333005588
 20
2.8873877803
 30
0.0
 10
5.4332710366
 20
2.8872814852
 30
0.0
 11
6.2496663057
 21
2.9219054813
 31
0.0
 11
6.2486929216
 21
2.921634982
 31
0.0
 11
6.247489313
 21
2.9213644827
 31
0.0
 11
6.2460564057
 21
2.9210939834
 31
0.0
 11
6.2443951254
 21
2.9208234841
 31
0.0
 11
6.2425063976
 21
2.9205529848
 31
0.0
 11
6.240391148
 21
2.9202824856
 31
0.0
 11
6.2354850629
 21
2.919741487
 31
0.0
 11
6.2296883372
 21
2.9192004884
 31
0.0
 11
6.2230151797
 21
2.9186594898
 31
0.0
 11
6.2154798765
 21
2.9181184912
 31
0.0
 11
6.2070987447
 21
2.9175774926
 31
0.0
 11
6.1978920874
 21
2.917036494
 31
0.0
 11
6.1878806716
 21
2.9164954954
 31
0.0
 11
6.1655331222
 21
2.9154134983
 31
0.0
 11
6.140260426
 21
2.9143315011
 31
0.0
 11
6.1122897026
 21
2.9132495038
 31
0.0
 11
6.0818749849
 21
2.9121675066
 31
0.0
 11
6.0492916202
 21
2.9110855093
 31
0.0
 11
6.0148337721
 21
2.9100035121
 31
0.0
 11
5.9788144032
 21
2.9089215149
 31
0.0
 11
5.9415585622
 21
2.9078395178
 31
0.0
 11
5.9034041621
 21
2.9067575206
 31
0.0
 11
5.8646961926
 21
2.9056755234
 31
0.0
 11
5.825785188
 21
2.9045935262
 31
0.0
 11
5.7870232195
 21
2.903511529
 31
0.0
 11
5.7487613131
 21
2.9024295318
 31
0.0
 11
5.7113456871
 21
2.9013475347
 31
0.0
 11
5.6751148558
 21
2.9002655375
 31
0.0
 11
5.6403973499
 21
2.8991835402
 31
0.0
 11
5.6075063633
 21
2.8981015432
 31
0.0
 11
5.5767409745
 21
2.8970195465
 31
0.0
 11
5.5483784212
 21
2.8959375482
 31
0.0
 11
5.5226760182
 21
2.8948555504
 31
0.0
 11
5.5108959718
 21
2.8943145544
 31
0.0
 11
5.4998667614
 21
2.8937735598
 31
0.0
 11
5.489612181
 21
2.8932325624
 31
0.0
 11
5.4801557606
 21
2.8926915579
 31
0.0
 11
5.4715200781
 21
2.8921505452
 31
0.0
 11
5.4637235336
 21
2.8916095365
 31
0.0
 11
5.4567833812
 21
2.8910685481
 31
0.0
 11
5.4507166425
 21
2.8905275933
 31
0.0
 11
5.4455367489
 21
2.8899866449
 31
0.0
 11
5.4432826892
 21
2.8897161547
 31
0.0
 11
5.4412543097
 21
2.8894456438
 31
0.0
 11
5.4394529272
 21
2.8891751047
 31
0.0
 11
5.4378798468
 21
2.8889045305
 31
0.0
 11
5.4365359937
 21
2.8886339294
 31
0.0
 11
5.4354218376
 21
2.8883633284
 31
0.0
 11
5.4349510342
 21
2.8882280367
 31
0.0
 11
5.4345378211
 21
2.8880927555
 31
0.0
 11
5.4341822536
 21
2.8879574883
 31
0.0
 11
5.4338843871
 21
2.8878222386
 31
0.0
 11
5.4336442767
 21
2.88768701
 31
0.0
 11
5.433461978
 21
2.8875518059
 31
0.0
 11
5.4332710366
 21
2.8872814852
 31
0.0
  0
SPLINE
  5
259
100
AcDbEntity
  8
0
100
AcDbSpline
 62
6
  6
CONTINUOUS
 70
0
 71
3
 72
9
 73
5
 74
3
 42
0.0000001
 43
0.0000001
 44
0.0000000001
 12
-0.0000236638
 22
-0.0000852023
 32
0.0
 13
0.0
 23
-0.0000884274
 33
0.0
 40
0.0
 40
0.0
 40
0.0
 40
0.0
 40
0.2544097467
 40
1.0
 40
1.0
 40
1.0
 40
1.0
 10
5.4332710366
 20
2.8872814852
 30
0.0
 10
5.4332690299
 20
2.8872742598
 30
0.0
 10
5.4332620448
 20
2.8872456179
 30
0.0
 10
5.4332588922
 20
2.8872160259
 30
0.0
 10
5.4332588922
 20
2.887194049
 30
0.0
 11
5.4332710366
 21
2.8872814852
 31
0.0
 11
5.4332657238
 21
2.8872596247
 31
0.0
 11
5.4332588922
 21
2.887194049
 31
0.0
  0
SPLINE
  5
25A
100
AcDbEntity
  8
0
100
AcDbSpline
 62
6
  6
CONTINUOUS
 70
0
 71
3
 72
69
 73
65
 74
63
 42
0.0000001
 43
0.0000001
 44
0.0000000001
 12
0.7092869023
 22
0.4094155641
 32
0.0
 13
-0.0001288897
 23
0.8189682517
 33
0.0
 40
0.0
 40
0.0
 40
0.0
 40
0.0
 40
0.0003674495
 40
0.0008008905
 40
0.0013021218
 40
0.001872274
 40
0.0032219449
 40
0.004853602
 40
0.0067689124
 40
0.0089682742
 40
0.0114509658
 40
0.0142159227
 40
0.0205874763
 40
0.0280718543
 40
0.0366537737
 40
0.0463124593
 40
0.0570263937
 40
0.0687725879
 40
0.0815225755
 40
0.0952464146
 40
0.1099137703
 40
0.1254901548
 40
0.1592207466
 40
0.1961264045
 40
0.235861812
 40
0.2780569874
 40
0.3223189322
 40
0.3682338196
 40
0.4153743017
 40
0.4632998077
 40
0.5115636354
 40
0.5597151158
 40
0.6073053261
 40
0.6538898559
 40
0.6990342762
 40
0.7423178041
 40
0.7833357012
 40
0.8217071016
 40
0.8570727115
 40
0.8891042975
 40
0.9037751672
 40
0.9175040982
 40
0.9302577815
 40
0.9420071785
 40
0.9527264375
 40
0.9623899313
 40
0.9709750194
 40
0.9784643618
 40
0.98179303
 40
0.9848417116
 40
0.9876086511
 40
0.9900929278
 40
0.9922940457
 40
0.9942117877
 40
0.9958464101
 40
0.9971990423
 40
0.9977705053
 40
0.998272849
 40
0.9987072009
 40
0.9990754246
 40
0.9993806021
 40
0.9996281792
 40
0.9998283563
 40
1.0
 40
1.0
 40
1.0
 40
1.0
 10
5.4337331267
 20
2.89667022
 30
0.0
 10
5.4338200024
 20
2.8967203666
 30
0.0
 10
5.434015632
 20
2.8968187991
 30
0.0
 10
5.4343442354
 20
2.8969548377
 30
0.0
 10
5.4347319381
 20
2.8970911515
 30
0.0
 10
5.4353641919
 20
2.897284171
 30
0.0
 10
5.4363051154
 20
2.8975201197
 30
0.0
 10
5.4376142745
 20
2.8977912236
 30
0.0
 10
5.4391594154
 20
2.8980631066
 30
0.0
 10
5.4409397959
 20
2.898335615
 30
0.0
 10
5.4429544233
 20
2.8986085856
 30
0.0
 10
5.446103246
 20
2.8989913003
 30
0.0
 10
5.4506164478
 20
2.899461503
 30
0.0
 10
5.4567177487
 20
2.9000046986
 30
0.0
 10
5.4637193785
 20
2.9005491547
 30
0.0
 10
5.4716048772
 20
2.9010947881
 30
0.0
 10
5.4803559887
 20
2.9016411454
 30
0.0
 10
5.489952451
 20
2.9021879318
 30
0.0
 10
5.5003717808
 20
2.902735149
 30
0.0
 10
5.5115895539
 20
2.9032827092
 30
0.0
 10
5.5235797487
 20
2.9038304785
 30
0.0
 10
5.5410279397
 20
2.904581168
 30
0.0
 10
5.5645447538
 20
2.9055114377
 30
0.0
 10
5.5946553512
 20
2.9066017749
 30
0.0
 10
5.6270780485
 20
2.9076932614
 30
0.0
 10
5.6615099667
 20
2.9087855975
 30
0.0
 10
5.6976296032
 20
2.9098785021
 30
0.0
 10
5.7350998337
 20
2.910971867
 30
0.0
 10
5.7735705824
 20
2.9120654842
 30
0.0
 10
5.8126828145
 20
2.9131592977
 30
0.0
 10
5.8520711435
 20
2.9142531661
 30
0.0
 10
5.8913679054
 20
2.9153470246
 30
0.0
 10
5.930206062
 20
2.9164407498
 30
0.0
 10
5.9682229989
 20
2.9175342563
 30
0.0
 10
6.005063769
 20
2.9186274204
 30
0.0
 10
6.040384232
 20
2.9197200456
 30
0.0
 10
6.0738548272
 20
2.9208120301
 30
0.0
 10
6.1051627381
 20
2.9219029268
 30
0.0
 10
6.1340159235
 20
2.9229926004
 30
0.0
 10
6.1564003539
 20
2.923924081
 30
0.0
 10
6.1728803276
 20
2.9246767096
 30
0.0
 10
6.1841014656
 20
2.9252242201
 30
0.0
 10
6.1945240723
 20
2.9257714504
 30
0.0
 10
6.2041238731
 20
2.9263183152
 30
0.0
 10
6.2128786337
 20
2.9268645977
 30
0.0
 10
6.2207677882
 20
2.9274101236
 30
0.0
 10
6.2277729169
 20
2.9279548428
 30
0.0
 10
6.2330491169
 20
2.9284240121
 30
0.0
 10
6.2368154915
 20
2.9288040843
 30
0.0
 10
6.2392967979
 20
2.9290776101
 30
0.0
 10
6.2415460961
 20
2.9293509011
 30
0.0
 10
6.2435621901
 20
2.9296238661
 30
0.0
 10
6.2453441633
 20
2.9298963814
 30
0.0
 10
6.2468912971
 20
2.9301681904
 30
0.0
 10
6.2482028127
 20
2.9304391621
 30
0.0
 10
6.2491457991
 20
2.9306749794
 30
0.0
 10
6.2497796183
 20
2.9308679263
 30
0.0
 10
6.2501682802
 20
2.9310042078
 30
0.0
 10
6.2504977585
 20
2.9311402542
 30
0.0
 10
6.2507683382
 20
2.9312761046
 30
0.0
 10
6.2509806686
 20
2.9314119511
 30
0.0
 10
6.251135576
 20
2.9315487952
 30
0.0
 10
6.2512339064
 20
2.9316893391
 30
0.0
 10
6.2512581768
 20
2.931791483
 30
0.0
 10
6.2512581694
 20
2.9318383399
 30
0.0
 11
5.4337331267
 21
2.89667022
 31
0.0
 11
5.4340008773
 21
2.8968075816
 31
0.0
 11
5.4343281891
 21
2.8969449634
 31
0.0
 11
5.434715004
 21
2.897082362
 31
0.0
 11
5.4351612638
 21
2.8972197735
 31
0.0
 11
5.4362318853
 21
2.8974946207
 31
0.0
 11
5.437539588
 21
2.897769476
 31
0.0
 11
5.4390839017
 21
2.89804431
 31
0.0
 11
5.4408640238
 21
2.8983191071
 31
0.0
 11
5.4428786184
 21
2.8985938733
 31
0.0
 11
5.4451263011
 21
2.8988686163
 31
0.0
 11
5.4503153932
 21
2.8994180644
 31
0.0
 11
5.4564201851
 21
2.8999675139
 31
0.0
 11
5.463426992
 21
2.9005169981
 31
0.0
 11
5.4713180392
 21
2.9010665043
 31
0.0
 11
5.4800751875
 21
2.9016160157
 31
0.0
 11
5.4896792404
 21
2.9021655189
 31
0.0
 11
5.5001066071
 21
2.9027150146
 31
0.0
 11
5.5113325554
 21
2.9032645075
 31
0.0
 11
5.5233320794
 21
2.9038140016
 31
0.0
 11
5.5360768035
 21
2.9043634981
 31
0.0
 11
5.5636792179
 21
2.9054624936
 31
0.0
 11
5.5938837935
 21
2.9065614873
 31
0.0
 11
5.6264072686
 21
2.9076604805
 31
0.0
 11
5.6609462981
 21
2.9087594742
 31
0.0
 11
5.6971787627
 21
2.9098584679
 31
0.0
 11
5.734765535
 21
2.9109574614
 31
0.0
 11
5.7733564483
 21
2.912056455
 31
0.0
 11
5.8125905276
 21
2.9131554486
 31
0.0
 11
5.8521017895
 21
2.9142544421
 31
0.0
 11
5.8915210069
 21
2.9153534357
 31
0.0
 11
5.9304803812
 21
2.9164524293
 31
0.0
 11
5.9686158004
 21
2.9175514228
 31
0.0
 11
6.0055713103
 21
2.9186504164
 31
0.0
 11
6.0410021058
 21
2.9197494101
 31
0.0
 11
6.0745764797
 21
2.9208484037
 31
0.0
 11
6.1059822159
 21
2.9219473974
 31
0.0
 11
6.1349246702
 21
2.9230463911
 31
0.0
 11
6.1611344919
 21
2.9241453847
 31
0.0
 11
6.1731368965
 21
2.9246948815
 31
0.0
 11
6.1843670198
 21
2.9252443783
 31
0.0
 11
6.1947974172
 21
2.9257938751
 31
0.0
 11
6.2044040979
 21
2.9263433719
 31
0.0
 11
6.2131656163
 21
2.9268928687
 31
0.0
 11
6.2210606114
 21
2.9274423655
 31
0.0
 11
6.2280700204
 21
2.9279918623
 31
0.0
 11
6.2341788902
 21
2.9285413591
 31
0.0
 11
6.2368910831
 21
2.9288161075
 31
0.0
 11
6.2393726937
 21
2.9290908559
 31
0.0
 11
6.2416220116
 21
2.9293656043
 31
0.0
 11
6.2436379187
 21
2.9296403528
 31
0.0
 11
6.2454195037
 21
2.9299151012
 31
0.0
 11
6.2469658551
 21
2.9301898496
 31
0.0
 11
6.2482760617
 21
2.930464598
 31
0.0
 11
6.2493492121
 21
2.9307393464
 31
0.0
 11
6.2497966065
 21
2.9308767206
 31
0.0
 11
6.2501843967
 21
2.9310140948
 31
0.0
 11
6.2505125207
 21
2.931151469
 31
0.0
 11
6.2507809771
 21
2.9312888432
 31
0.0
 11
6.2509897681
 21
2.9314262173
 31
0.0
 11
6.2511388958
 21
2.9315635915
 31
0.0
 11
6.2512283622
 21
2.9317009657
 31
0.0
 11
6.2512581694
 21
2.9318383399
 31
0.0
  0
SPLINE
  5
25B
100
AcDbEntity
  8
0
100
AcDbSpline
 62
6
  6
CONTINUOUS
 70
0
 71
3
 72
66
 73
62
 74
60
 42
0.0000001
 43
0.0000001
 44
0.0000000001
 12
0.6420861284
 22
0.3713079527
 32
0.0
 13
0.0003309259
 23
0.7417169827
 33
0.0
 40
0.0
 40
0.0
 40
0.0
 40
0.0
 40
0.00040126
 40
0.0008681902
 40
0.0020049774
 40
0.0034182679
 40
0.0051113104
 40
0.0070855423
 40
0.0093414875
 40
0.0118791625
 40
0.0146981196
 40
0.0211739147
 40
0.0287550499
 40
0.0374262642
 40
0.0471700425
 40
0.0579628588
 40
0.0697797734
 40
0.0825953649
 40
0.0963797175
 40
0.1267223474
 40
0.160529686
 40
0.1974861484
 40
0.2372498179
 40
0.2794512622
 40
0.3236975891
 40
0.3695786487
 40
0.416666736
 40
0.464524871
 40
0.5127074458
 40
0.56076687
 40
0.6082557035
 40
0.6547330533
 40
0.6997660334
 40
0.7429365291
 40
0.7838433807
 40
0.8221056054
 40
0.857369693
 40
0.8893061102
 40
0.9176214006
 40
0.9303369214
 40
0.9420526716
 40
0.9527408697
 40
0.962376199
 40
0.9709388082
 40
0.9784099254
 40
0.9817305345
 40
0.9847721889
 40
0.9875339206
 40
0.9900149172
 40
0.9922145775
 40
0.9941326368
 40
0.9957694023
 40
0.9971262927
 40
0.9977010395
 40
0.9982077426
 40
0.9986477716
 40
0.9990232478
 40
0.9993376269
 40
0.9995968514
 40
0.9998115311
 40
1.0
 40
1.0
 40
1.0
 40
1.0
 10
5.4724412654
 20
2.9190475702
 30
0.0
 10
5.4725271466
 20
2.9190972338
 30
0.0
 10
5.4727185594
 20
2.9191950438
 30
0.0
 10
5.4731748739
 20
2.9193893324
 30
0.0
 10
5.4738836044
 20
2.9196252178
 30
0.0
 10
5.4748977182
 20
2.9198948686
 30
0.0
 10
5.4761246391
 20
2.9201655812
 30
0.0
 10
5.4775638283
 20
2.9204372182
 30
0.0
 10
5.4792149391
 20
2.9207094148
 30
0.0
 10
5.4810772927
 20
2.9209820584
 30
0.0
 10
5.4839777967
 20
2.9213638098
 30
0.0
 10
5.4881240118
 20
2.9218331129
 30
0.0
 10
5.4937171837
 20
2.9223757126
 30
0.0
 10
5.5001215159
 20
2.9229195642
 30
0.0
 10
5.5073223254
 20
2.9234643148
 30
0.0
 10
5.5153028111
 20
2.9240098018
 30
0.0
 10
5.5240443357
 20
2.9245558434
 30
0.0
 10
5.5335267844
 20
2.9251022292
 30
0.0
 10
5.5475850768
 20
2.9258554553
 30
0.0
 10
5.5668310872
 20
2.9267867436
 30
0.0
 10
5.5918049578
 20
2.9278737981
 30
0.0
 10
5.6191100155
 20
2.9289624531
 30
0.0
 10
5.6484918931
 20
2.9300522503
 30
0.0
 10
5.6796772393
 20
2.9311428504
 30
0.0
 10
5.7123758965
 20
2.932234074
 30
0.0
 10
5.7462833546
 20
2.9333256693
 30
0.0
 10
5.7810842302
 20
2.9344175833
 30
0.0
 10
5.8164543997
 20
2.935509636
 30
0.0
 10
5.8520648317
 20
2.9366017788
 30
0.0
 10
5.8875839167
 20
2.9376938755
 30
0.0
 10
5.9226812062
 20
2.9387858736
 30
0.0
 10
5.9570298811
 20
2.9398776185
 30
0.0
 10
5.9903103527
 20
2.9409690335
 30
0.0
 10
6.0222128306
 20
2.9420599423
 30
0.0
 10
6.0524403173
 20
2.9431501118
 30
0.0
 10
6.0807117192
 20
2.9442393835
 30
0.0
 10
6.1067635864
 20
2.9453271065
 30
0.0
 10
6.1303539124
 20
2.9464131408
 30
0.0
 10
6.1483703029
 20
2.9473457582
 30
0.0
 10
6.161389426
 20
2.9481016751
 30
0.0
 10
6.1700551908
 20
2.9486476318
 30
0.0
 10
6.1779578093
 20
2.9491930209
 30
0.0
 10
6.1850788705
 20
2.949737773
 30
0.0
 10
6.1914020252
 20
2.9502815762
 30
0.0
 10
6.1961643933
 20
2.9507499391
 30
0.0
 10
6.1995634745
 20
2.9511294199
 30
0.0
 10
6.2018027319
 20
2.9514025609
 30
0.0
 10
6.2038327575
 20
2.9516754373
 30
0.0
 10
6.2056525991
 20
2.9519479813
 30
0.0
 10
6.2072613246
 20
2.9522200796
 30
0.0
 10
6.2086581393
 20
2.9524914912
 30
0.0
 10
6.2098422071
 20
2.9527620796
 30
0.0
 10
6.2106930482
 20
2.9529975606
 30
0.0
 10
6.2112644959
 20
2.9531900868
 30
0.0
 10
6.2116153386
 20
2.9533262266
 30
0.0
 10
6.2119128962
 20
2.9534621777
 30
0.0
 10
6.2121574282
 20
2.9535980283
 30
0.0
 10
6.2123494355
 20
2.9537340377
 30
0.0
 10
6.2124895135
 20
2.9538712062
 30
0.0
 10
6.212577697
 20
2.9540117861
 30
0.0
 10
6.2125989998
 20
2.9541120872
 30
0.0
 10
6.2125990206
 20
2.954158684
 30
0.0
 11
5.4724412654
 21
2.9190475702
 31
0.0
 11
5.4727054008
 21
2.9191847233
 31
0.0
 11
5.4730234158
 21
2.9193218765
 31
0.0
 11
5.4738207233
 21
2.9195961828
 31
0.0
 11
5.4748324587
 21
2.9198704891
 31
0.0
 11
5.4760578915
 21
2.9201447954
 31
0.0
 11
5.4774962911
 21
2.9204191017
 31
0.0
 11
5.479146927
 21
2.920693408
 31
0.0
 11
5.4810090686
 21
2.9209677144
 31
0.0
 11
5.4830818656
 21
2.9212420207
 31
0.0
 11
5.4878536397
 21
2.9217906333
 31
0.0
 11
5.4934498703
 21
2.9223392459
 31
0.0
 11
5.4998580169
 21
2.9228878585
 31
0.0
 11
5.5070642908
 21
2.9234364712
 31
0.0
 11
5.5150506858
 21
2.9239850838
 31
0.0
 11
5.5237983065
 21
2.9245336964
 31
0.0
 11
5.5332880045
 21
2.9250823091
 31
0.0
 11
5.5434973644
 21
2.9256309217
 31
0.0
 11
5.5659762479
 21
2.9267281469
 31
0.0
 11
5.5910277105
 21
2.9278253722
 31
0.0
 11
5.6184169802
 21
2.9289225974
 31
0.0
 11
5.6478899553
 21
2.9300198227
 31
0.0
 11
5.6791722497
 21
2.9311170479
 31
0.0
 11
5.7119721579
 21
2.9322142732
 31
0.0
 11
5.7459852294
 21
2.9333114984
 31
0.0
 11
5.7808940276
 21
2.9344087237
 31
0.0
 11
5.8163742609
 21
2.9355059489
 31
0.0
 11
5.8520952509
 21
2.9366031742
 31
0.0
 11
5.8877248549
 21
2.9377003994
 31
0.0
 11
5.9229310389
 21
2.9387976247
 31
0.0
 11
5.9573866161
 21
2.9398948499
 31
0.0
 11
5.9907703191
 21
2.9409920752
 31
0.0
 11
6.0227718075
 21
2.9420893004
 31
0.0
 11
6.0530932712
 21
2.9431865257
 31
0.0
 11
6.0814517974
 21
2.9442837511
 31
0.0
 11
6.1075847485
 21
2.9453809762
 31
0.0
 11
6.1312471084
 21
2.9464782009
 31
0.0
 11
6.1522203609
 21
2.9475754273
 31
0.0
 11
6.1616357098
 21
2.948124041
 31
0.0
 11
6.1703081465
 21
2.9486726536
 31
0.0
 11
6.1782167599
 21
2.9492212639
 31
0.0
 11
6.1853423602
 21
2.9497698723
 31
0.0
 11
6.1916696543
 21
2.9503184829
 31
0.0
 11
6.1971838853
 21
2.9508671001
 31
0.0
 11
6.1996315142
 21
2.9511414125
 31
0.0
 11
6.201870822
 21
2.9514157267
 31
0.0
 11
6.203900795
 21
2.9516900407
 31
0.0
 11
6.2057204324
 21
2.9519643524
 31
0.0
 11
6.2073287331
 21
2.9522386596
 31
0.0
 11
6.2087246962
 21
2.9525129604
 31
0.0
 11
6.2099073207
 21
2.9527872525
 31
0.0
 11
6.2108756534
 21
2.9530615346
 31
0.0
 11
6.2112792922
 21
2.953198673
 31
0.0
 11
6.2116292088
 21
2.953335811
 31
0.0
 11
6.211925376
 21
2.9534729495
 31
0.0
 11
6.2121677667
 21
2.9536100895
 31
0.0
 11
6.2123563536
 21
2.9537472319
 31
0.0
 11
6.2124911097
 21
2.9538843779
 31
0.0
 11
6.2125720077
 21
2.9540215283
 31
0.0
 11
6.2125990206
 21
2.954158684
 31
0.0
  0
SPLINE
  5
25C
100
AcDbEntity
  8
0
100
AcDbSpline
 62
6
  6
CONTINUOUS
 70
0
 71
3
 72
67
 73
63
 74
61
 42
0.0000001
 43
0.0000001
 44
0.0000000001
 12
-0.00085324
 22
0.7417158572
 32
0.0
 13
0.64218912
 23
0.3711283809
 33
0.0
 40
0.0
 40
0.0
 40
0.0
 40
0.0
 40
0.0001884108
 40
0.0004029918
 40
0.000662195
 40
0.0009766939
 40
0.0013524027
 40
0.0017927257
 40
0.0022997247
 40
0.0028747073
 40
0.0042316422
 40
0.0058678123
 40
0.0077851125
 40
0.0099844009
 40
0.0124658257
 40
0.015228461
 40
0.0182709291
 40
0.021591711
 40
0.0290616362
 40
0.0376244245
 40
0.04726115
 40
0.0579487268
 40
0.0696637139
 40
0.082380483
 40
0.0960681811
 40
0.1106950918
 40
0.1426329677
 40
0.1778959575
 40
0.2161591354
 40
0.2570657001
 40
0.3002361311
 40
0.3452694998
 40
0.391746387
 40
0.4392355482
 40
0.4872946598
 40
0.5354773613
 40
0.5833351202
 40
0.6304235309
 40
0.676303913
 40
0.7205506151
 40
0.7627517107
 40
0.8025150355
 40
0.8394721557
 40
0.8732781579
 40
0.9036220007
 40
0.9174051867
 40
0.930220778
 40
0.9420388766
 40
0.9528308908
 40
0.9625737762
 40
0.971246214
 40
0.9788274883
 40
0.985301967
 40
0.9881207866
 40
0.9906590447
 40
0.9929157774
 40
0.994890336
 40
0.996582996
 40
0.9979955924
 40
0.9991318209
 40
0.9995986547
 40
1.0
 40
1.0
 40
1.0
 40
1.0
 10
5.4719191563
 20
2.8648736866
 30
0.0
 10
5.4719191028
 20
2.864920269
 30
0.0
 10
5.471940239
 20
2.8650205713
 30
0.0
 10
5.4720282969
 20
2.8651611941
 30
0.0
 10
5.472168375
 20
2.865298371
 30
0.0
 10
5.4723604887
 20
2.8654343741
 30
0.0
 10
5.4726052025
 20
2.8655702256
 30
0.0
 10
5.4729029804
 20
2.8657061824
 30
0.0
 10
5.4732540376
 20
2.8658423313
 30
0.0
 10
5.4738256386
 20
2.8660348452
 30
0.0
 10
5.4746763918
 20
2.8662703378
 30
0.0
 10
5.4758601112
 20
2.866540992
 30
0.0
 10
5.4772564834
 20
2.8668124394
 30
0.0
 10
5.4788650293
 20
2.8670845526
 30
0.0
 10
5.4806851151
 20
2.8673570593
 30
0.0
 10
5.4827156789
 20
2.8676298989
 30
0.0
 10
5.4849554085
 20
2.8679030083
 30
0.0
 10
5.4883544378
 20
2.8682824635
 30
0.0
 10
5.4931165813
 20
2.8687509393
 30
0.0
 10
5.4994398289
 20
2.8692947094
 30
0.0
 10
5.5065611271
 20
2.8698393599
 30
0.0
 10
5.5144637352
 20
2.870384829
 30
0.0
 10
5.5231294564
 20
2.8709308104
 30
0.0
 10
5.5325382485
 20
2.8714771089
 30
0.0
 10
5.5426680799
 20
2.8720237814
 30
0.0
 10
5.55754589
 20
2.8727752236
 30
0.0
 10
5.5777556038
 20
2.873705174
 30
0.0
 10
5.6038077498
 20
2.8747931366
 30
0.0
 10
5.6320790263
 20
2.8758822849
 30
0.0
 10
5.66230663
 20
2.8769725021
 30
0.0
 10
5.6942090872
 20
2.8780634031
 30
0.0
 10
5.7274894933
 20
2.8791547949
 30
0.0
 10
5.7618381973
 20
2.8802465661
 30
0.0
 10
5.7969353435
 20
2.8813385345
 30
0.0
 10
5.832454429
 20
2.88243065
 30
0.0
 10
5.8680646887
 20
2.8835227703
 30
0.0
 10
5.903434842
 20
2.8846148444
 30
0.0
 10
5.9382355048
 20
2.885706723
 30
0.0
 10
5.9721429345
 20
2.8867983532
 30
0.0
 10
6.0048414005
 20
2.8878895429
 30
0.0
 10
6.0360266381
 20
2.888980148
 30
0.0
 10
6.0654084775
 20
2.8900699748
 30
0.0
 10
6.0927132595
 20
2.8911585431
 30
0.0
 10
6.1176872325
 20
2.8922457292
 30
0.0
 10
6.1369329128
 20
2.8931768626
 30
0.0
 10
6.1509911981
 20
2.893930185
 30
0.0
 10
6.160473641
 20
2.8944765832
 30
0.0
 10
6.1692152579
 20
2.8950225283
 30
0.0
 10
6.1771956068
 20
2.8955680574
 30
0.0
 10
6.1843962851
 20
2.8961129006
 30
0.0
 10
6.1908007368
 20
2.8966566374
 30
0.0
 10
6.1963939206
 20
2.8971991906
 30
0.0
 10
6.2005397927
 20
2.8976686007
 30
0.0
 10
6.2034400749
 20
2.8980503619
 30
0.0
 10
6.2053027377
 20
2.8983229825
 30
0.0
 10
6.2069542789
 20
2.8985951368
 30
0.0
 10
6.2083936583
 20
2.8988667394
 30
0.0
 10
6.2096203852
 20
2.8991374702
 30
0.0
 10
6.2106340736
 20
2.8994071515
 30
0.0
 10
6.2113424386
 20
2.8996430723
 30
0.0
 10
6.2117985996
 20
2.8998373588
 30
0.0
 10
6.2119900143
 20
2.8999351538
 30
0.0
 10
6.2120759275
 20
2.899984804
 30
0.0
 11
5.4719191563
 21
2.8648736866
 31
0.0
 11
5.4719459602
 21
2.8650108394
 31
0.0
 11
5.4720267094
 21
2.8651479922
 31
0.0
 11
5.4721614357
 21
2.865285145
 31
0.0
 11
5.4723501247
 21
2.8654222978
 31
0.0
 11
5.4725927061
 21
2.8655594506
 31
0.0
 11
5.4728891066
 21
2.8656966034
 31
0.0
 11
5.4732392527
 21
2.8658337562
 31
0.0
 11
5.473643071
 21
2.865970909
 31
0.0
 11
5.4746114303
 21
2.8662452146
 31
0.0
 11
5.4757935972
 21
2.8665195202
 31
0.0
 11
5.4771889841
 21
2.8667938258
 31
0.0
 11
5.4787970037
 21
2.8670681314
 31
0.0
 11
5.4806169613
 21
2.867342437
 31
0.0
 11
5.4826476098
 21
2.8676167426
 31
0.0
 11
5.4848875246
 21
2.8678910482
 31
0.0
 11
5.4873352808
 21
2.8681653538
 31
0.0
 11
5.4928486187
 21
2.868713965
 31
0.0
 11
5.4991760399
 21
2.8692625762
 31
0.0
 11
5.5063026718
 21
2.8698111874
 31
0.0
 11
5.5142108156
 21
2.8703597987
 31
0.0
 11
5.522882677
 21
2.8709084099
 31
0.0
 11
5.5322989444
 21
2.8714570211
 31
0.0
 11
5.5424365002
 21
2.8720056323
 31
0.0
 11
5.5532716391
 21
2.8725542435
 31
0.0
 11
5.5769350594
 21
2.8736514659
 31
0.0
 11
5.6030671708
 21
2.8747486883
 31
0.0
 11
5.6314263775
 21
2.8758459108
 31
0.0
 11
5.6617475993
 21
2.8769431332
 31
0.0
 11
5.6937490092
 21
2.8780403556
 31
0.0
 11
5.7271329688
 21
2.879137578
 31
0.0
 11
5.7615881697
 21
2.8802348004
 31
0.0
 11
5.7967945634
 21
2.8813320229
 31
0.0
 11
5.8324239015
 21
2.8824292453
 31
0.0
 11
5.8681449514
 21
2.8835264677
 31
0.0
 11
5.9036248717
 21
2.8846236901
 31
0.0
 11
5.9385338767
 21
2.8857209125
 31
0.0
 11
5.9725464129
 21
2.886818135
 31
0.0
 11
6.0053465683
 21
2.8879153574
 31
0.0
 11
6.0366285741
 21
2.8890125798
 31
0.0
 11
6.0661012653
 21
2.8901098022
 31
0.0
 11
6.0934909971
 21
2.8912070246
 31
0.0
 11
6.1185414437
 21
2.8923042471
 31
0.0
 11
6.1410212066
 21
2.8934014695
 31
0.0
 11
6.1512296902
 21
2.8939500807
 31
0.0
 11
6.160719379
 21
2.8944986919
 31
0.0
 11
6.1694678713
 21
2.8950473031
 31
0.0
 11
6.1774536625
 21
2.8955959143
 31
0.0
 11
6.1846592654
 21
2.8961445255
 31
0.0
 11
6.1910683167
 21
2.8966931367
 31
0.0
 11
6.1966646457
 21
2.897241748
 31
0.0
 11
6.2014354326
 21
2.8977903592
 31
0.0
 11
6.2035081248
 21
2.8980646648
 31
0.0
 11
6.2053707019
 21
2.8983389704
 31
0.0
 11
6.2070219283
 21
2.898613276
 31
0.0
 11
6.2084605733
 21
2.8988875816
 31
0.0
 11
6.2096857143
 21
2.8991618872
 31
0.0
 11
6.2106969154
 21
2.8994361928
 31
0.0
 11
6.2114937841
 21
2.8997104984
 31
0.0
 11
6.211811721
 21
2.8998476512
 31
0.0
 11
6.2120759275
 21
2.899984804
 31
0.0
  0
SPLINE
  5
25D
100
AcDbEntity
  8
0
100
AcDbSpline
 62
6
  6
CONTINUOUS
 70
0
 71
3
 72
59
 73
55
 74
53
 42
0.0000001
 43
0.0000001
 44
0.0000000001
 12
-0.7827073252
 22
-0.1387138373
 32
0.0
 13
-0.6884573946
 23
-0.3973646958
 33
0.0
 40
0.0
 40
0.0
 40
0.0
 40
0.0
 40
0.0013204717
 40
0.0029064463
 40
0.0047576355
 40
0.0068734484
 40
0.0118957681
 40
0.0179661187
 40
0.0250727554
 40
0.0332011868
 40
0.0423366517
 40
0.0524616315
 40
0.0635541262
 40
0.0755916711
 40
0.1024033662
 40
0.1326727514
 40
0.1661480884
 40
0.2025473989
 40
0.2415609549
 40
0.2828571656
 40
0.3260806943
 40
0.3708592121
 40
0.416804688
 40
0.5105847045
 40
0.5575946062
 40
0.6041294472
 40
0.6497743215
 40
0.6941214205
 40
0.7367721479
 40
0.7773413243
 40
0.8154609385
 40
0.85078052
 40
0.8829757861
 40
0.8978072308
 40
0.9117485948
 40
0.9247661256
 40
0.9368299491
 40
0.9479124715
 40
0.9579863265
 40
0.9670277336
 40
0.9750164694
 40
0.9819326444
 40
0.9849829784
 40
0.9877594044
 40
0.9902605428
 40
0.9924850817
 40
0.9944318167
 40
0.996099726
 40
0.9974884176
 40
0.9985988041
 40
0.9990503869
 40
0.9994335998
 40
0.9997494893
 40
1.0
 40
1.0
 40
1.0
 40
1.0
 10
6.2498858852
 20
2.716616549
 30
0.0
 10
6.2495413709
 20
2.7165554931
 30
0.0
 10
6.2487802755
 20
2.7164369295
 30
0.0
 10
6.247530137
 20
2.7162741644
 30
0.0
 10
6.2460678137
 20
2.7161107262
 30
0.0
 10
6.2436972072
 20
2.7158786941
 30
0.0
 10
6.2402086706
 20
2.7155952607
 30
0.0
 10
6.2353973944
 20
2.7152692466
 30
0.0
 10
6.2297615663
 20
2.7149419301
 30
0.0
 10
6.2233124792
 20
2.7146134135
 30
0.0
 10
6.2160627504
 20
2.7142840927
 30
0.0
 10
6.2080269459
 20
2.7139541092
 30
0.0
 10
6.1992216205
 20
2.7136234872
 30
0.0
 10
6.1859965775
 20
2.7131653622
 30
0.0
 10
6.1676910467
 20
2.7125992623
 30
0.0
 10
6.1437055496
 20
2.7119391007
 30
0.0
 10
6.1171788309
 20
2.7112768014
 30
0.0
 10
6.0883345773
 20
2.7106125647
 30
0.0
 10
6.057417571
 20
2.7099466261
 30
0.0
 10
6.0246920031
 20
2.7092791867
 30
0.0
 10
5.9904386317
 20
2.7086103101
 30
0.0
 10
5.9549531539
 20
2.7079400962
 30
0.0
 10
5.9060738088
 20
2.7070386664
 30
0.0
 10
5.8566029555
 20
2.7061462809
 30
0.0
 10
5.8069760387
 20
2.7052470252
 30
0.0
 10
5.770101443
 20
2.7045709685
 30
0.0
 10
5.733932544
 20
2.7038938899
 30
0.0
 10
5.6987930131
 20
2.7032158743
 30
0.0
 10
5.6649986552
 20
2.7025369939
 30
0.0
 10
5.6328547454
 20
2.7018573229
 30
0.0
 10
5.6026538239
 20
2.7011770812
 30
0.0
 10
5.5746723354
 20
2.7004963567
 30
0.0
 10
5.5528609369
 20
2.6999143108
 30
0.0
 10
5.5367131958
 20
2.6994437705
 30
0.0
 10
5.5256454097
 20
2.6991004518
 30
0.0
 10
5.5153113351
 20
2.6987569824
 30
0.0
 10
5.5057352138
 20
2.6984134112
 30
0.0
 10
5.4969396132
 20
2.6980698524
 30
0.0
 10
5.4889455207
 20
2.6977263259
 30
0.0
 10
5.4817720023
 20
2.6973829921
 30
0.0
 10
5.4754362232
 20
2.6970400684
 30
0.0
 10
5.4706877902
 20
2.6967439859
 30
0.0
 10
5.4673198691
 20
2.6965035607
 30
0.0
 10
5.4651199815
 20
2.6963309545
 30
0.0
 10
5.4631396318
 20
2.6961584806
 30
0.0
 10
5.461380024
 20
2.6959862073
 30
0.0
 10
5.45984236
 20
2.6958142287
 30
0.0
 10
5.458527641
 20
2.6956428213
 30
0.0
 10
5.4574367053
 20
2.6954720355
 30
0.0
 10
5.4566688697
 20
2.695322668
 30
0.0
 10
5.4561683626
 20
2.6951991989
 30
0.0
 10
5.4558756382
 20
2.695113345
 30
0.0
 10
5.4556388367
 20
2.6950278888
 30
0.0
 10
5.4555024396
 20
2.6949641481
 30
0.0
 10
5.4554449509
 20
2.6949309668
 30
0.0
 11
6.2498858852
 21
2.716616549
 31
0.0
 11
6.2488492613
 21
2.7164517089
 31
0.0
 11
6.2475994047
 21
2.7162867348
 31
0.0
 11
6.2461371774
 21
2.7161216424
 31
0.0
 11
6.2444634419
 21
2.7159564471
 31
0.0
 11
6.2404848953
 21
2.7156258106
 31
0.0
 11
6.2356709066
 21
2.7152949425
 31
0.0
 11
6.2300315228
 21
2.7149638701
 31
0.0
 11
6.2235787002
 21
2.7146325614
 31
0.0
 11
6.216324457
 21
2.7143009837
 31
0.0
 11
6.2082829156
 21
2.7139691187
 31
0.0
 11
6.1994717058
 21
2.7136369728
 31
0.0
 11
6.1899087898
 21
2.7133045545
 31
0.0
 11
6.1686064645
 21
2.7126389187
 31
0.0
 11
6.1445544497
 21
2.7119721972
 31
0.0
 11
6.1179531537
 21
2.7113043709
 31
0.0
 11
6.0890269319
 21
2.7106354377
 31
0.0
 11
6.0580221415
 21
2.7099653945
 31
0.0
 11
6.0252024824
 21
2.7092942362
 31
0.0
 11
5.9908505066
 21
2.7086219543
 31
0.0
 11
5.9552622568
 21
2.7079485401
 31
0.0
 11
5.9187462466
 21
2.707273985
 31
0.0
 11
5.8442124127
 21
2.7059214205
 31
0.0
 11
5.8068502077
 21
2.7052434081
 31
0.0
 11
5.7698657143
 21
2.7045642446
 31
0.0
 11
5.7335888021
 21
2.7038839282
 31
0.0
 11
5.6983437058
 21
2.7032024523
 31
0.0
 11
5.6644473475
 21
2.7025198037
 31
0.0
 11
5.6322060004
 21
2.7018359635
 31
0.0
 11
5.6019123131
 21
2.7011509253
 31
0.0
 11
5.5738450261
 21
2.7004646913
 31
0.0
 11
5.5482621162
 21
2.6997772618
 31
0.0
 11
5.5364775668
 21
2.699433098
 31
0.0
 11
5.5254008763
 21
2.6990886338
 31
0.0
 11
5.5150589348
 21
2.698743868
 31
0.0
 11
5.5054755643
 21
2.6983987976
 31
0.0
 11
5.4966727965
 21
2.698053418
 31
0.0
 11
5.4886725146
 21
2.6977077249
 31
0.0
 11
5.4814937979
 21
2.6973617218
 31
0.0
 11
5.4751529699
 21
2.6970154194
 31
0.0
 11
5.469666211
 21
2.6966688284
 31
0.0
 11
5.467247697
 21
2.6964954243
 31
0.0
 11
5.4650475338
 21
2.6963219422
 31
0.0
 11
5.4630669596
 21
2.696148377
 31
0.0
 11
5.4613072122
 21
2.6959747238
 31
0.0
 11
5.4597695297
 21
2.6958009776
 31
0.0
 11
5.4584551488
 21
2.6956271334
 31
0.0
 11
5.4573650626
 21
2.695453193
 31
0.0
 11
5.4564997366
 21
2.6952791729
 31
0.0
 11
5.4561514826
 21
2.6951921387
 31
0.0
 11
5.4558595672
 21
2.6951050914
 31
0.0
 11
5.4556240402
 21
2.6950180333
 31
0.0
 11
5.4554449509
 21
2.6949309668
 31
0.0
  0
LINE
  5
25E
100
AcDbEntity
  8
0
100
AcDbLine
 62
6
  6
CONTINUOUS
 10
5.472441376
 20
2.8476175696
 11
5.4728858173
 21
2.8478353746
  0
SPLINE
  5
25F
100
AcDbEntity
  8
0
100
AcDbSpline
 62
6
  6
CONTINUOUS
 70
0
 71
3
 72
63
 73
59
 74
57
 42
0.0000001
 43
0.0000001
 44
0.0000000001
 12
0.6821481046
 22
0.2899700758
 32
0.0
 13
0.0004547311
 23
0.7412209352
 33
0.0
 40
0.0
 40
0.0
 40
0.0
 40
0.0
 40
0.0010735645
 40
0.0024195137
 40
0.0040415469
 40
0.0059412732
 40
0.0081192705
 40
0.010575553
 40
0.0163211205
 40
0.0231686862
 40
0.0311032371
 40
0.0401088037
 40
0.0501670123
 40
0.0612537584
 40
0.0733438067
 40
0.1004262012
 40
0.1311650771
 40
0.1652821144
 40
0.2024627389
 40
0.2423671718
 40
0.2846291809
 40
0.3288602324
 40
0.3746553039
 40
0.4215928053
 40
0.4692425331
 40
0.5171662798
 40
0.5649243942
 40
0.6120776983
 40
0.6581939219
 40
0.7028486595
 40
0.7456327632
 40
0.7861531468
 40
0.8240375978
 40
0.8589400522
 40
0.8905385117
 40
0.9185465815
 40
0.931121635
 40
0.9427066442
 40
0.9532749808
 40
0.96280138
 40
0.9712662847
 40
0.9786520432
 40
0.9819349201
 40
0.9849419103
 40
0.9876720015
 40
0.9901244818
 40
0.9922988501
 40
0.9941949417
 40
0.9958131626
 40
0.9971549666
 40
0.9977233594
 40
0.9982244949
 40
0.9986597628
 40
0.9990313009
 40
0.9993425734
 40
0.9995995065
 40
0.9998126235
 40
1.0
 40
1.0
 40
1.0
 40
1.0
 10
5.4728858173
 20
2.8478353746
 30
0.0
 10
5.4731299273
 20
2.8479391418
 30
0.0
 10
5.4736947914
 20
2.8481379665
 30
0.0
 10
5.4746571353
 20
2.8484055628
 30
0.0
 10
5.475829745
 20
2.8486744258
 30
0.0
 10
5.4772120796
 20
2.8489442237
 30
0.0
 10
5.4788037787
 20
2.8492146696
 30
0.0
 10
5.4813399642
 20
2.8495960625
 30
0.0
 10
5.4850292916
 20
2.8500630305
 30
0.0
 10
5.4900727039
 20
2.8506010806
 30
0.0
 10
5.495925347
 20
2.8511407745
 30
0.0
 10
5.502574045
 20
2.8516817362
 30
0.0
 10
5.5100037977
 20
2.8522233914
 30
0.0
 10
5.5181974104
 20
2.8527657564
 30
0.0
 10
5.5305923583
 20
2.8535183073
 30
0.0
 10
5.5478408767
 20
2.854445841
 30
0.0
 10
5.5705308754
 20
2.8555245791
 30
0.0
 10
5.5957183226
 20
2.8566051522
 30
0.0
 10
5.6231721517
 20
2.8576873873
 30
0.0
 10
5.6526397953
 20
2.8587706269
 30
0.0
 10
5.6838504872
 20
2.8598546336
 30
0.0
 10
5.7165174139
 20
2.8609392164
 30
0.0
 10
5.7503401308
 20
2.8620241473
 30
0.0
 10
5.7850079246
 20
2.8631093739
 30
0.0
 10
5.8202019064
 20
2.8641947244
 30
0.0
 10
5.8555987329
 20
2.8652801541
 30
0.0
 10
5.8908728504
 20
2.8663655279
 30
0.0
 10
5.9257001668
 20
2.8674507997
 30
0.0
 10
5.9597603508
 20
2.8685358085
 30
0.0
 10
5.9927404694
 20
2.8696204956
 30
0.0
 10
6.0243372466
 20
2.8707046604
 30
0.0
 10
6.0542602604
 20
2.8717881071
 30
0.0
 10
6.0822346084
 20
2.8728706406
 30
0.0
 10
6.1080028847
 20
2.8739516424
 30
0.0
 10
6.1313286908
 20
2.8750309751
 30
0.0
 10
6.149138926
 20
2.8759578593
 30
0.0
 10
6.1620064275
 20
2.8767091386
 30
0.0
 10
6.1705697717
 20
2.8772517275
 30
0.0
 10
6.1783782719
 20
2.8777937216
 30
0.0
 10
6.1854138974
 20
2.8783350919
 30
0.0
 10
6.1916606699
 20
2.8788755467
 30
0.0
 10
6.1963652892
 20
2.8793410258
 30
0.0
 10
6.1997231155
 20
2.8797181205
 30
0.0
 10
6.2019351657
 20
2.8799895544
 30
0.0
 10
6.2039403985
 20
2.8802607329
 30
0.0
 10
6.2057379013
 20
2.8805315839
 30
0.0
 10
6.207326816
 20
2.8808019989
 30
0.0
 10
6.2087064228
 20
2.8810717391
 30
0.0
 10
6.2098759413
 20
2.8813406795
 30
0.0
 10
6.2107163242
 20
2.8815746932
 30
0.0
 10
6.2112807004
 20
2.8817660432
 30
0.0
 10
6.2116271704
 20
2.8819013598
 30
0.0
 10
6.2119209846
 20
2.8820364925
 30
0.0
 10
6.2121624152
 20
2.8821715308
 30
0.0
 10
6.2123519675
 20
2.8823067357
 30
0.0
 10
6.212490233
 20
2.8824430988
 30
0.0
 10
6.2125772166
 20
2.8825828218
 30
0.0
 10
6.2125982059
 20
2.8826823912
 30
0.0
 10
6.2125982343
 20
2.8827286869
 30
0.0
 11
5.4728858173
 21
2.8478353746
 31
0.0
 11
5.4736334154
 21
2.8481079786
 31
0.0
 11
5.4745930948
 21
2.8483805826
 31
0.0
 11
5.4757640674
 21
2.8486531866
 31
0.0
 11
5.4771455452
 21
2.8489257906
 31
0.0
 11
5.4787367402
 21
2.8491983946
 31
0.0
 11
5.4805368645
 21
2.8494709986
 31
0.0
 11
5.4847605571
 21
2.8500162066
 31
0.0
 11
5.4898067494
 21
2.8505614146
 31
0.0
 11
5.4956626801
 21
2.8511066227
 31
0.0
 11
5.5023154929
 21
2.8516518307
 31
0.0
 11
5.509750887
 21
2.8521970387
 31
0.0
 11
5.5179505109
 21
2.8527422467
 31
0.0
 11
5.5268953089
 21
2.8532874547
 31
0.0
 11
5.5469397131
 21
2.8543778707
 31
0.0
 11
5.5696979081
 21
2.8554682867
 31
0.0
 11
5.5949626552
 21
2.8565587027
 31
0.0
 11
5.6225001372
 21
2.8576491187
 31
0.0
 11
5.6520580375
 21
2.8587395347
 31
0.0
 11
5.6833645452
 21
2.8598299507
 31
0.0
 11
5.7161313943
 21
2.8609203667
 31
0.0
 11
5.7500581478
 21
2.8620107828
 31
0.0
 11
5.784832121
 21
2.8631011988
 31
0.0
 11
5.8201342671
 21
2.8641916148
 31
0.0
 11
5.855639618
 21
2.8652820308
 31
0.0
 11
5.8910221407
 21
2.8663724468
 31
0.0
 11
5.9259561496
 21
2.8674628628
 31
0.0
 11
5.9601210699
 21
2.8685532788
 31
0.0
 11
5.9932021363
 21
2.8696436948
 31
0.0
 11
6.0248958634
 21
2.8707341108
 31
0.0
 11
6.0549106251
 21
2.8718245268
 31
0.0
 11
6.0829701994
 21
2.8729149429
 31
0.0
 11
6.1088176439
 21
2.8740053589
 31
0.0
 11
6.1322136913
 21
2.8750957749
 31
0.0
 11
6.1529452064
 21
2.8761861909
 31
0.0
 11
6.162250142
 21
2.8767313989
 31
0.0
 11
6.1708198694
 21
2.8772766069
 31
0.0
 11
6.178634347
 21
2.8778218149
 31
0.0
 11
6.185674435
 21
2.8783670229
 31
0.0
 11
6.1919250681
 21
2.8789122309
 31
0.0
 11
6.1973723314
 21
2.8794574389
 31
0.0
 11
6.199790351
 21
2.8797300429
 31
0.0
 11
6.2020024619
 21
2.8800026469
 31
0.0
 11
6.2040076175
 21
2.8802752509
 31
0.0
 11
6.2058048913
 21
2.8805478549
 31
0.0
 11
6.2073933572
 21
2.8808204589
 31
0.0
 11
6.2087720889
 21
2.8810930629
 31
0.0
 11
6.20994016
 21
2.8813656669
 31
0.0
 11
6.2108966449
 21
2.8816382709
 31
0.0
 11
6.2112952918
 21
2.8817745729
 31
0.0
 11
6.2116408327
 21
2.8819108749
 31
0.0
 11
6.2119332566
 21
2.8820471769
 31
0.0
 11
6.2121725523
 21
2.8821834789
 31
0.0
 11
6.212358709
 21
2.8823197809
 31
0.0
 11
6.2124917155
 21
2.8824560829
 31
0.0
 11
6.212571561
 21
2.8825923849
 31
0.0
 11
6.2125982343
 21
2.8827286869
 31
0.0
  0
SPLINE
  5
260
100
AcDbEntity
  8
0
100
AcDbSpline
 62
6
  6
CONTINUOUS
 70
0
 71
3
 72
24
 73
20
 74
18
 42
0.0000001
 43
0.0000001
 44
0.0000000001
 12
0.0951479945
 22
0.0043613674
 32
0.0
 13
0.08244527
 23
0.0476963294
 33
0.0
 40
0.0
 40
0.0
 40
0.0
 40
0.0
 40
0.2110011612
 40
0.3997821672
 40
0.564746544
 40
0.6379402874
 40
0.7047718312
 40
0.765125059
 40
0.8189058309
 40
0.866024954
 40
0.906397734
 40
0.9240344974
 40
0.9399673823
 40
0.9541955614
 40
0.9667202347
 40
0.977545914
 40
0.9866828928
 40
0.9941524585
 40
1.0
 40
1.0
 40
1.0
 40
1.0
 10
6.1172867659
 20
2.677956549
 30
0.0
 10
6.1239788784
 20
2.6782633002
 30
0.0
 10
6.1366572291
 20
2.6788701416
 30
0.0
 10
6.1545620901
 20
2.6798269268
 30
0.0
 10
6.168092233
 20
2.6806513245
 30
0.0
 10
6.1777523667
 20
2.6813201899
 30
0.0
 10
6.1840960924
 20
2.681801175
 30
0.0
 10
6.1898215699
 20
2.6822816514
 30
0.0
 10
6.1949188463
 20
2.6827612847
 30
0.0
 10
6.1993786922
 20
2.6832398336
 30
0.0
 10
6.2026910068
 20
2.683653559
 30
0.0
 10
6.2050144897
 20
2.683989844
 30
0.0
 10
6.2065129394
 20
2.684230311
 30
0.0
 10
6.2078468384
 20
2.6844704317
 30
0.0
 10
6.209015772
 20
2.684710109
 30
0.0
 10
6.2100193319
 20
2.6849491561
 30
0.0
 10
6.2108575886
 20
2.6851872984
 30
0.0
 10
6.211530355
 20
2.6854241824
 30
0.0
 10
6.2119156811
 20
2.6856018366
 30
0.0
 10
6.2120763818
 20
2.6856948054
 30
0.0
 11
6.1172867659
 21
2.677956549
 31
0.0
 11
6.1373609084
 21
2.6789234988
 31
0.0
 11
6.1553158477
 21
2.6798911295
 31
0.0
 11
6.170998552
 21
2.6808584809
 31
0.0
 11
6.1779533095
 21
2.6813420742
 31
0.0
 11
6.1843004776
 21
2.6818256695
 31
0.0
 11
6.190028616
 21
2.6823092933
 31
0.0
 11
6.1951282386
 21
2.6827929382
 31
0.0
 11
6.1995900992
 21
2.6832765926
 31
0.0
 11
6.2034049851
 21
2.6837602452
 31
0.0
 11
6.2050673529
 21
2.6840020685
 31
0.0
 11
6.206565536
 21
2.6842438901
 31
0.0
 11
6.2078989907
 21
2.6844857104
 31
0.0
 11
6.2090671732
 21
2.6847275297
 31
0.0
 11
6.2100695397
 21
2.6849693485
 31
0.0
 11
6.2109055467
 21
2.6852111672
 31
0.0
 11
6.2115746503
 21
2.685452986
 31
0.0
 11
6.2120763818
 21
2.6856948054
 31
0.0
  0
LINE
  5
261
100
AcDbEntity
  8
0
100
AcDbLine
 62
6
  6
CONTINUOUS
 10
6.2507851631
 20
2.7180952189
 11
6.2502024971
 21
2.7183655873
  0
SPLINE
  5
262
100
AcDbEntity
  8
0
100
AcDbSpline
 62
6
  6
CONTINUOUS
 70
0
 71
3
 72
68
 73
64
 74
62
 42
0.0000001
 43
0.0000001
 44
0.0000000001
 12
0.6421601912
 22
0.3711780824
 32
0.0
 13
-0.0007009303
 23
0.741715841
 33
0.0
 40
0.0
 40
0.0
 40
0.0
 40
0.0
 40
0.0004012906
 40
0.0008680647
 40
0.0020041931
 40
0.003416773
 40
0.0051095692
 40
0.0070843033
 40
0.0093410449
 40
0.0118792073
 40
0.0146978961
 40
0.0211722877
 40
0.0287538862
 40
0.0374261988
 40
0.047168873
 40
0.0579611274
 40
0.0697792944
 40
0.0825946495
 40
0.0963778421
 40
0.1110986079
 40
0.126721821
 40
0.1605279443
 40
0.197484853
 40
0.2372484168
 40
0.2794493048
 40
0.3236961556
 40
0.3695765213
 40
0.4166649224
 40
0.4645227256
 40
0.5127054166
 40
0.5607645554
 40
0.6082536862
 40
0.6547306841
 40
0.6997638739
 40
0.7429345835
 40
0.78384092
 40
0.822104263
 40
0.8573672754
 40
0.8893048583
 40
0.9039319215
 40
0.9176199633
 40
0.9303364252
 40
0.9420512241
 40
0.9527392192
 40
0.9623759981
 40
0.9709382438
 40
0.9784084846
 40
0.9817295025
 40
0.9847720804
 40
0.9875345665
 40
0.9900155969
 40
0.9922147541
 40
0.9941321854
 40
0.9957686058
 40
0.9971257688
 40
0.9977008141
 40
0.99820782
 40
0.9986480802
 40
0.999023647
 40
0.9993379643
 40
0.9995970461
 40
0.9998115883
 40
1.0
 40
1.0
 40
1.0
 40
1.0
 10
5.4724419144
 20
2.7047575709
 30
0.0
 10
5.472527812
 20
2.704807221
 30
0.0
 10
5.4727191946
 20
2.7049050168
 30
0.0
 10
5.4731752962
 20
2.7050993074
 30
0.0
 10
5.4738836139
 20
2.7053352338
 30
0.0
 10
5.4748973067
 20
2.705604918
 30
0.0
 10
5.4761241112
 20
2.7058756358
 30
0.0
 10
5.4775635732
 20
2.7061472247
 30
0.0
 10
5.4792151347
 20
2.7064193878
 30
0.0
 10
5.4810777421
 20
2.7066920118
 30
0.0
 10
5.4839779442
 20
2.7070737825
 30
0.0
 10
5.4881238409
 20
2.7075432024
 30
0.0
 10
5.4937170549
 20
2.7080857159
 30
0.0
 10
5.5001215
 20
2.7086294745
 30
0.0
 10
5.5073221518
 20
2.7091743322
 30
0.0
 10
5.5153025245
 20
2.7097198389
 30
0.0
 10
5.524044157
 20
2.7102657883
 30
0.0
 10
5.5335265578
 20
2.7108121806
 30
0.0
 10
5.5437276754
 20
2.7113588944
 30
0.0
 10
5.5546239227
 20
2.7119057926
 30
0.0
 10
5.5704666191
 20
2.7126551151
 30
0.0
 10
5.591804521
 20
2.7135837559
 30
0.0
 10
5.6191093212
 20
2.7146724307
 30
0.0
 10
5.6484911132
 20
2.7157622112
 30
0.0
 10
5.6796763863
 20
2.7168528412
 30
0.0
 10
5.7123748266
 20
2.7179440175
 30
0.0
 10
5.7462822784
 20
2.7190356528
 30
0.0
 10
5.7810829375
 20
2.7201275312
 30
0.0
 10
5.8164530885
 20
2.7212196038
 30
0.0
 10
5.8520633547
 20
2.7223117259
 30
0.0
 10
5.8875824285
 20
2.723403839
 30
0.0
 10
5.9226795928
 20
2.724495812
 30
0.0
 10
5.9570282645
 20
2.7255875741
 30
0.0
 10
5.9903087143
 20
2.726678981
 30
0.0
 10
6.0222111327
 20
2.7277698629
 30
0.0
 10
6.052438782
 20
2.728860098
 30
0.0
 10
6.0807100421
 20
2.7299492366
 30
0.0
 10
6.1067621561
 20
2.7310371932
 30
0.0
 10
6.1269718352
 20
2.7319671591
 30
0.0
 10
6.1418496921
 20
2.7327186005
 30
0.0
 10
6.1519795692
 20
2.7332652494
 30
0.0
 10
6.1613883204
 20
2.7338115663
 30
0.0
 10
6.1700540194
 20
2.7343575643
 30
0.0
 10
6.1779566975
 20
2.7349030077
 30
0.0
 10
6.1850779783
 20
2.7354476381
 30
0.0
 10
6.1914011758
 20
2.7359914714
 30
0.0
 10
6.1961633228
 20
2.7364599188
 30
0.0
 10
6.1995625172
 20
2.7368393622
 30
0.0
 10
6.2018022961
 20
2.7371124649
 30
0.0
 10
6.2038327524
 20
2.7373852974
 30
0.0
 10
6.2056526641
 20
2.7376578377
 30
0.0
 10
6.2072611099
 20
2.7379299536
 30
0.0
 10
6.2086575456
 20
2.738201395
 30
0.0
 10
6.2098414208
 20
2.7384720408
 30
0.0
 10
6.2106923154
 20
2.7387075238
 30
0.0
 10
6.2112639941
 20
2.7389000375
 30
0.0
 10
6.2116150548
 20
2.7390361825
 30
0.0
 10
6.2119127819
 20
2.7391721337
 30
0.0
 10
6.2121573887
 20
2.7393079848
 30
0.0
 10
6.2123493537
 20
2.7394440106
 30
0.0
 10
6.2124892982
 20
2.7395812019
 30
0.0
 10
6.2125772822
 20
2.7397218186
 30
0.0
 10
6.2125984159
 20
2.7398221059
 30
0.0
 10
6.2125983718
 20
2.7398686886
 30
0.0
 11
5.4724419144
 21
2.7047575709
 31
0.0
 11
5.4727060752
 21
2.7048947237
 31
0.0
 11
5.4730239638
 21
2.7050318765
 31
0.0
 11
5.4738207537
 21
2.7053061821
 31
0.0
 11
5.4748319419
 21
2.7055804877
 31
0.0
 11
5.4760571861
 21
2.7058547933
 31
0.0
 11
5.4774959633
 21
2.7061290989
 31
0.0
 11
5.479147196
 21
2.7064034045
 31
0.0
 11
5.4810097009
 21
2.7066777101
 31
0.0
 11
5.4830822947
 21
2.7069520157
 31
0.0
 11
5.4878530154
 21
2.707500627
 31
0.0
 11
5.4934495847
 21
2.7080492382
 31
0.0
 11
5.4998585413
 21
2.7085978494
 31
0.0
 11
5.5070639853
 21
2.7091464606
 31
0.0
 11
5.5150499532
 21
2.7096950718
 31
0.0
 11
5.5237984942
 21
2.710243683
 31
0.0
 11
5.5332880053
 21
2.7107922942
 31
0.0
 11
5.5434964914
 21
2.7113409055
 31
0.0
 11
5.5544013301
 21
2.7118895167
 31
0.0
 11
5.5659763262
 21
2.7124381279
 31
0.0
 11
5.5910268568
 21
2.7135353503
 31
0.0
 11
5.6184164251
 21
2.7146325727
 31
0.0
 11
5.6478892867
 21
2.7157297952
 31
0.0
 11
5.679171131
 21
2.7168270176
 31
0.0
 11
5.711971389
 21
2.71792424
 31
0.0
 11
5.7459839049
 21
2.7190214624
 31
0.0
 11
5.7808928944
 21
2.7201186849
 31
0.0
 11
5.8163728392
 21
2.7212159073
 31
0.0
 11
5.852093873
 21
2.7223131297
 31
0.0
 11
5.8877232227
 21
2.7234103522
 31
0.0
 11
5.9229295854
 21
2.7245075746
 31
0.0
 11
5.9573848604
 21
2.725604797
 31
0.0
 11
5.9907686793
 21
2.7267020194
 31
0.0
 11
6.0227702884
 21
2.7277992419
 31
0.0
 11
6.0530913336
 21
2.7288964643
 31
0.0
 11
6.0814506562
 21
2.7299936867
 31
0.0
 11
6.107582778
 21
2.7310909091
 31
0.0
 11
6.1312459752
 21
2.7321881316
 31
0.0
 11
6.1420812248
 21
2.7327367428
 31
0.0
 11
6.1522190335
 21
2.733285354
 31
0.0
 11
6.1616350704
 21
2.7338339652
 31
0.0
 11
6.1703067898
 21
2.7343825764
 31
0.0
 11
6.1782152428
 21
2.7349311876
 31
0.0
 11
6.1853419127
 21
2.7354797989
 31
0.0
 11
6.1916689285
 21
2.7360284101
 31
0.0
 11
6.1971825002
 21
2.7365770213
 31
0.0
 11
6.199630432
 21
2.7368513269
 31
0.0
 11
6.2018704283
 21
2.7371256325
 31
0.0
 11
6.2039009647
 21
2.7373999381
 31
0.0
 11
6.205720626
 21
2.7376742437
 31
0.0
 11
6.2073285465
 21
2.7379485493
 31
0.0
 11
6.2087240322
 21
2.7382228549
 31
0.0
 11
6.2099063894
 21
2.7384971605
 31
0.0
 11
6.2108749243
 21
2.7387714661
 31
0.0
 11
6.2112787915
 21
2.7389086189
 31
0.0
 11
6.211628943
 21
2.7390457717
 31
0.0
 11
6.2119252921
 21
2.7391829245
 31
0.0
 11
6.2121677524
 21
2.7393200774
 31
0.0
 11
6.2123562748
 21
2.7394572302
 31
0.0
 11
6.2124908725
 21
2.739594383
 31
0.0
 11
6.2125715651
 21
2.7397315358
 31
0.0
 11
6.2125983718
 21
2.7398686886
 31
0.0
  0
SPLINE
  5
263
100
AcDbEntity
  8
0
100
AcDbSpline
 62
6
  6
CONTINUOUS
 70
0
 71
3
 72
63
 73
59
 74
57
 42
0.0000001
 43
0.0000001
 44
0.0000000001
 12
-0.0000597728
 22
0.7399372978
 32
0.0
 13
0.7119399737
 23
0.2016151831
 33
0.0
 40
0.0
 40
0.0
 40
0.0
 40
0.0
 40
0.000185375
 40
0.0003956392
 40
0.0006484397
 40
0.0009541452
 40
0.0013186381
 40
0.0017453776
 40
0.0022365096
 40
0.0027933959
 40
0.0041073487
 40
0.0056912616
 40
0.0075467541
 40
0.0096744047
 40
0.0120742231
 40
0.0147458833
 40
0.0176887874
 40
0.020901575
 40
0.0281293918
 40
0.0364140808
 40
0.0457396049
 40
0.056086304
 40
0.0674299388
 40
0.0797458185
 40
0.1071862632
 40
0.1381606803
 40
0.1723947713
 40
0.2095809186
 40
0.2493865108
 40
0.2914554463
 40
0.3354095966
 40
0.3808561491
 40
0.4273865071
 40
0.4745841906
 40
0.5220254053
 40
0.5692851417
 40
0.6159390225
 40
0.6615694042
 40
0.7057662886
 40
0.7481341383
 40
0.7882929813
 40
0.8258824641
 40
0.8605673824
 40
0.8920352019
 40
0.9200074143
 40
0.9326021265
 40
0.944232654
 40
0.9548729345
 40
0.9644980775
 40
0.9730886132
 40
0.9806270198
 40
0.9870964387
 40
0.9899262459
 40
0.9924849018
 40
0.9947717585
 40
0.9967864233
 40
0.9985289198
 40
1.0
 40
1.0
 40
1.0
 40
1.0
 10
5.4719195981
 20
2.7934436875
 30
0.0
 10
5.4719195944
 20
2.7934894094
 30
0.0
 10
5.4719399429
 20
2.793587616
 30
0.0
 10
5.4720247079
 20
2.7937257139
 30
0.0
 10
5.47215966
 20
2.7938605276
 30
0.0
 10
5.4723447407
 20
2.7939941791
 30
0.0
 10
5.4725805207
 20
2.7941276472
 30
0.0
 10
5.4728674983
 20
2.7942611973
 30
0.0
 10
5.4732059433
 20
2.7943949173
 30
0.0
 10
5.4737571523
 20
2.7945839593
 30
0.0
 10
5.4745778691
 20
2.7948152092
 30
0.0
 10
5.4757199704
 20
2.7950809942
 30
0.0
 10
5.4770671473
 20
2.7953475592
 30
0.0
 10
5.4786187488
 20
2.7956147844
 30
0.0
 10
5.4803741844
 20
2.7958824365
 30
0.0
 10
5.4823327117
 20
2.7961504092
 30
0.0
 10
5.484493406
 20
2.7964186081
 30
0.0
 10
5.4877733393
 20
2.7967912399
 30
0.0
 10
5.4923690857
 20
2.7972512439
 30
0.0
 10
5.4984720595
 20
2.7977853333
 30
0.0
 10
5.5053468211
 20
2.7983202607
 30
0.0
 10
5.5129780356
 20
2.7988558498
 30
0.0
 10
5.521348411
 20
2.7993920429
 30
0.0
 10
5.5339301532
 20
2.8001345155
 30
0.0
 10
5.5513516928
 20
2.8010505604
 30
0.0
 10
5.5741783409
 20
2.8021171578
 30
0.0
 10
5.5994110097
 20
2.8031854333
 30
0.0
 10
5.626823561
 20
2.804255185
 30
0.0
 10
5.6561698709
 20
2.8053258861
 30
0.0
 10
5.6871864977
 20
2.8063972659
 30
0.0
 10
5.7195952136
 20
2.807469193
 30
0.0
 10
5.7531048885
 20
2.8085414324
 30
0.0
 10
5.7874149557
 20
2.8096139469
 30
0.0
 10
5.82221723
 20
2.8106865736
 30
0.0
 10
5.8571994848
 20
2.8117592699
 30
0.0
 10
5.8920475517
 20
2.8128319093
 30
0.0
 10
5.9264487745
 20
2.8139044481
 30
0.0
 10
5.9600941929
 20
2.814976735
 30
0.0
 10
5.9926819399
 20
2.8160487108
 30
0.0
 10
6.0239194159
 20
2.8171201935
 30
0.0
 10
6.0535262272
 20
2.8181909888
 30
0.0
 10
6.0812367968
 20
2.8192609257
 30
0.0
 10
6.1068021173
 20
2.8203294168
 30
0.0
 10
6.1299931846
 20
2.8213963456
 30
0.0
 10
6.1477367938
 20
2.8223120099
 30
0.0
 10
6.1605897259
 20
2.823053788
 30
0.0
 10
6.1691724582
 20
2.8235900873
 30
0.0
 10
6.1770212502
 20
2.8241258293
 30
0.0
 10
6.1841183686
 20
2.8246610524
 30
0.0
 10
6.1904481107
 20
2.8251953396
 30
0.0
 10
6.1959964879
 20
2.8257283989
 30
0.0
 10
6.2001240685
 20
2.826189126
 30
0.0
 10
6.2030247684
 20
2.8265635582
 30
0.0
 10
6.2048988802
 20
2.8268314228
 30
0.0
 10
6.2065697328
 20
2.8270989019
 30
0.0
 10
6.2080365275
 20
2.827365866
 30
0.0
 10
6.2092984369
 20
2.8276321343
 30
0.0
 10
6.2100675772
 20
2.8278250793
 30
0.0
 10
6.2104166841
 20
2.8279239433
 30
0.0
 11
5.4719195981
 21
2.7934436875
 31
0.0
 11
5.4719455496
 21
2.793578376
 31
0.0
 11
5.4720234268
 21
2.7937130645
 31
0.0
 11
5.4721532311
 21
2.793847753
 31
0.0
 11
5.4723349637
 21
2.7939824415
 31
0.0
 11
5.4725686261
 21
2.79411713
 31
0.0
 11
5.4728542197
 21
2.7942518186
 31
0.0
 11
5.4731917454
 21
2.7943865071
 31
0.0
 11
5.4735811721
 21
2.7945211956
 31
0.0
 11
5.4745153519
 21
2.7947905726
 31
0.0
 11
5.4756559707
 21
2.7950599496
 31
0.0
 11
5.4770022331
 21
2.7953293266
 31
0.0
 11
5.4785533439
 21
2.7955987036
 31
0.0
 11
5.4803085079
 21
2.7958680806
 31
0.0
 11
5.4822669296
 21
2.7961374576
 31
0.0
 11
5.4844277682
 21
2.7964068345
 31
0.0
 11
5.4867897181
 21
2.7966762115
 31
0.0
 11
5.492110644
 21
2.7972149655
 31
0.0
 11
5.4982170741
 21
2.7977537195
 31
0.0
 11
5.5050963129
 21
2.7982924735
 31
0.0
 11
5.5127332417
 21
2.7988312275
 31
0.0
 11
5.521109512
 21
2.7993699815
 31
0.0
 11
5.5302065514
 21
2.7999087355
 31
0.0
 11
5.550482149
 21
2.8009862435
 31
0.0
 11
5.573375933
 21
2.8020637515
 31
0.0
 11
5.5986840865
 21
2.8031412595
 31
0.0
 11
5.6261783981
 21
2.8042187675
 31
0.0
 11
5.6556123246
 21
2.8052962755
 31
0.0
 11
5.6867220446
 21
2.8063737835
 31
0.0
 11
5.7192275059
 21
2.8074512915
 31
0.0
 11
5.7528378379
 21
2.8085287995
 31
0.0
 11
5.7872505204
 21
2.8096063074
 31
0.0
 11
5.8221572204
 21
2.8106838154
 31
0.0
 11
5.8572442037
 21
2.8117613234
 31
0.0
 11
5.8921968409
 21
2.8128388314
 31
0.0
 11
5.9267009672
 21
2.8139163394
 31
0.0
 11
5.9604473909
 21
2.8149938474
 31
0.0
 11
5.9931325583
 21
2.8160713554
 31
0.0
 11
6.0244635878
 21
2.8171488634
 31
0.0
 11
6.0541590712
 21
2.8182263714
 31
0.0
 11
6.0819520525
 21
2.8193038794
 31
0.0
 11
6.1075940882
 21
2.8203813874
 31
0.0
 11
6.1308533567
 21
2.8214588953
 31
0.0
 11
6.1515229738
 21
2.8225364033
 31
0.0
 11
6.1608266852
 21
2.8230751573
 31
0.0
 11
6.169415666
 21
2.8236139113
 31
0.0
 11
6.1772703515
 21
2.8241526653
 31
0.0
 11
6.1843719472
 21
2.8246914193
 31
0.0
 11
6.1907055322
 21
2.8252301733
 31
0.0
 11
6.1962574013
 21
2.8257689273
 31
0.0
 11
6.2010139518
 21
2.8263076813
 31
0.0
 11
6.2030904318
 21
2.8265770583
 31
0.0
 11
6.2049644148
 21
2.8268464353
 31
0.0
 11
6.2066349662
 21
2.8271158123
 31
0.0
 11
6.2081011513
 21
2.8273851893
 31
0.0
 11
6.2093620355
 21
2.8276545663
 31
0.0
 11
6.2104166841
 21
2.8279239433
 31
0.0
  0
LINE
  5
264
100
AcDbEntity
  8
0
100
AcDbLine
 62
6
  6
CONTINUOUS
 10
6.2104166841
 20
2.8279239433
 11
6.2120759664
 21
2.8285548057
  0
SPLINE
  5
265
100
AcDbEntity
  8
0
100
AcDbSpline
 62
6
  6
CONTINUOUS
 70
0
 71
3
 72
63
 73
59
 74
57
 42
0.0000001
 43
0.0000001
 44
0.0000000001
 12
0.0002339635
 22
0.7411259406
 32
0.0
 13
0.6864452221
 23
0.2793933995
 33
0.0
 40
0.0
 40
0.0
 40
0.0
 40
0.0
 40
0.000187186
 40
0.0004000207
 40
0.0006565504
 40
0.0009672944
 40
0.0013381836
 40
0.0017726891
 40
0.0022729563
 40
0.0028403814
 40
0.0041797904
 40
0.0057949272
 40
0.0076873016
 40
0.0098573786
 40
0.0123050536
 40
0.0150298857
 40
0.0180312187
 40
0.0213078825
 40
0.0286793639
 40
0.0371279185
 40
0.0466363585
 40
0.057184819
 40
0.0687479896
 40
0.0812996978
 40
0.1092568054
 40
0.1407991585
 40
0.1756414695
 40
0.2134632464
 40
0.2539193238
 40
0.2966392756
 40
0.3412310925
 40
0.387287272
 40
0.4343847436
 40
0.4820926814
 40
0.5299732852
 40
0.5775882288
 40
0.6245005211
 40
0.6702810879
 40
0.7145094052
 40
0.7567812081
 40
0.7967088502
 40
0.8339264555
 40
0.8680947842
 40
0.8988993193
 40
0.9260617465
 40
0.938197145
 40
0.9493327478
 40
0.9594431949
 40
0.9685043143
 40
0.9764976731
 40
0.9834071245
 40
0.9892174512
 40
0.9917071212
 40
0.9939191161
 40
0.9958533742
 40
0.9975103567
 40
0.9988914689
 40
1.0
 40
1.0
 40
1.0
 40
1.0
 10
5.4719196013
 20
2.7220136879
 30
0.0
 10
5.4719196159
 20
2.7220599307
 30
0.0
 10
5.4719405203
 20
2.7221593768
 30
0.0
 10
5.4720272714
 20
2.7222989611
 30
0.0
 10
5.4721652132
 20
2.7224351893
 30
0.0
 10
5.4723543465
 20
2.7225702577
 30
0.0
 10
5.472595265
 20
2.7227051573
 30
0.0
 10
5.4728884782
 20
2.7228401498
 30
0.0
 10
5.4732342628
 20
2.722975326
 30
0.0
 10
5.4737975272
 20
2.7231664617
 30
0.0
 10
5.4746362094
 20
2.7234002255
 30
0.0
 10
5.475803301
 20
2.723668894
 30
0.0
 10
5.4771799862
 20
2.7239383565
 30
0.0
 10
5.4787655276
 20
2.7242084921
 30
0.0
 10
5.4805592504
 20
2.7244790616
 30
0.0
 10
5.4825603402
 20
2.7247499586
 30
0.0
 10
5.4847678749
 20
2.7250210989
 30
0.0
 10
5.48811881
 20
2.7253977916
 30
0.0
 10
5.4928137213
 20
2.7258627943
 30
0.0
 10
5.4990476866
 20
2.726402696
 30
0.0
 10
5.5060690232
 20
2.7269434842
 30
0.0
 10
5.5138617789
 20
2.7274849094
 30
0.0
 10
5.5224079505
 20
2.7280269408
 30
0.0
 10
5.5352500484
 20
2.7287774396
 30
0.0
 10
5.5530257814
 20
2.7297033611
 30
0.0
 10
5.5763072879
 20
2.730781568
 30
0.0
 10
5.6020280589
 20
2.7318614482
 30
0.0
 10
5.6299525945
 20
2.7329428441
 30
0.0
 10
5.6598245562
 20
2.7340251704
 30
0.0
 10
5.6913700075
 20
2.7351081984
 30
0.0
 10
5.7242996766
 20
2.7361917605
 30
0.0
 10
5.7583113295
 20
2.7372756376
 30
0.0
 10
5.7930931666
 20
2.7383597817
 30
0.0
 10
5.8283259246
 20
2.7394440277
 30
0.0
 10
5.8636865782
 20
2.7405283314
 30
0.0
 10
5.8988505839
 20
2.7416125573
 30
0.0
 10
5.9334955474
 20
2.7426966619
 30
0.0
 10
5.9673034645
 20
2.7437804755
 30
0.0
 10
5.9999643921
 20
2.7448639419
 30
0.0
 10
6.0311785952
 20
2.7459468446
 30
0.0
 10
6.0606597937
 20
2.7470289814
 30
0.0
 10
6.0881376992
 20
2.7481101343
 30
0.0
 10
6.1133600159
 20
2.7491896397
 30
0.0
 10
6.1360958629
 20
2.75026734
 30
0.0
 10
6.1533894781
 20
2.751193823
 30
0.0
 10
6.1658260106
 20
2.7519454129
 30
0.0
 10
6.1740548587
 20
2.7524872431
 30
0.0
 10
6.1815224898
 20
2.7530283802
 30
0.0
 10
6.1882116595
 20
2.7535688433
 30
0.0
 10
6.1941073064
 20
2.754108071
 30
0.0
 10
6.1991961769
 20
2.754645697
 30
0.0
 10
6.2029249196
 20
2.7551121208
 30
0.0
 10
6.2054938704
 20
2.7554928695
 30
0.0
 10
6.2071109209
 20
2.7557631009
 30
0.0
 10
6.2085191369
 20
2.7560327149
 30
0.0
 10
6.2097180975
 20
2.756301444
 30
0.0
 10
6.2107072325
 20
2.756568974
 30
0.0
 10
6.2112904367
 20
2.7567672161
 30
0.0
 10
6.2115440853
 20
2.7568704548
 30
0.0
 11
5.4719196013
 21
2.7220136879
 31
0.0
 11
5.4719461762
 21
2.7221498472
 31
0.0
 11
5.4720258112
 21
2.7222860064
 31
0.0
 11
5.472158501
 21
2.7224221657
 31
0.0
 11
5.47234424
 21
2.7225583249
 31
0.0
 11
5.4725830228
 21
2.7226944842
 31
0.0
 11
5.4728748441
 21
2.7228306434
 31
0.0
 11
5.4732196983
 21
2.7229668027
 31
0.0
 11
5.473617579
 21
2.7231029619
 31
0.0
 11
5.4745721668
 21
2.7233752804
 31
0.0
 11
5.4757377994
 21
2.7236475989
 31
0.0
 11
5.4771135954
 21
2.7239199174
 31
0.0
 11
5.4786986737
 21
2.7241922359
 31
0.0
 11
5.4804921528
 21
2.7244645544
 31
0.0
 11
5.4824931515
 21
2.7247368729
 31
0.0
 11
5.4847007852
 21
2.7250091914
 31
0.0
 11
5.4871138889
 21
2.7252815098
 31
0.0
 11
5.4925498695
 21
2.7258261468
 31
0.0
 11
5.4987875808
 21
2.7263707838
 31
0.0
 11
5.5058134546
 21
2.7269154208
 31
0.0
 11
5.513612198
 21
2.7274600578
 31
0.0
 11
5.5221646399
 21
2.7280046948
 31
0.0
 11
5.5314510794
 21
2.7285493317
 31
0.0
 11
5.5521421658
 21
2.7296386057
 31
0.0
 11
5.5754936313
 21
2.7307278797
 31
0.0
 11
5.6012931884
 21
2.7318171536
 31
0.0
 11
5.6293027171
 21
2.7329064276
 31
0.0
 11
5.659265974
 21
2.7339957016
 31
0.0
 11
5.6909080966
 21
2.7350849755
 31
0.0
 11
5.7239382943
 21
2.7361742495
 31
0.0
 11
5.7580543403
 21
2.7372635235
 31
0.0
 11
5.7929424996
 21
2.7383527974
 31
0.0
 11
5.8282833088
 21
2.7394420714
 31
0.0
 11
5.8637521459
 21
2.7405313454
 31
0.0
 11
5.8990240018
 21
2.7416206193
 31
0.0
 11
5.9337748527
 21
2.7427098933
 31
0.0
 11
5.9676865303
 21
2.7437991673
 31
0.0
 11
6.0004471813
 21
2.7448884412
 31
0.0
 11
6.0317569703
 21
2.7459777152
 31
0.0
 11
6.061328328
 21
2.7470669892
 31
0.0
 11
6.0888897455
 21
2.7481562631
 31
0.0
 11
6.114189343
 21
2.7492455371
 31
0.0
 11
6.1369933835
 21
2.7503348111
 31
0.0
 11
6.157094672
 21
2.751424085
 31
0.0
 11
6.1660720253
 21
2.751968722
 31
0.0
 11
6.1743069189
 21
2.752513359
 31
0.0
 11
6.1817802143
 21
2.753057996
 31
0.0
 11
6.1884735231
 21
2.7536026329
 31
0.0
 11
6.19437252
 21
2.7541472699
 31
0.0
 11
6.1994642482
 21
2.7546919069
 31
0.0
 11
6.2037358511
 21
2.7552365439
 31
0.0
 11
6.2055608045
 21
2.7555088624
 31
0.0
 11
6.2071773955
 21
2.7557811809
 31
0.0
 11
6.2085848215
 21
2.7560534994
 31
0.0
 11
6.2097822801
 21
2.7563258179
 31
0.0
 11
6.2107689689
 21
2.7565981364
 31
0.0
 11
6.2115440853
 21
2.7568704548
 31
0.0
  0
LINE
  5
266
100
AcDbEntity
  8
0
100
AcDbLine
 62
6
  6
CONTINUOUS
 10
6.2115440853
 20
2.7568704548
 11
6.212076371
 21
2.7571248057
  0
SPLINE
  5
267
100
AcDbEntity
  8
0
100
AcDbSpline
 62
6
  6
CONTINUOUS
 70
0
 71
3
 72
24
 73
20
 74
18
 42
0.0000001
 43
0.0000001
 44
0.0000000001
 12
-0.0995507821
 22
-0.0575662797
 32
0.0
 13
-0.1144217744
 23
-0.0114844381
 33
0.0
 40
0.0
 40
0.0
 40
0.0
 40
0.0
 40
0.010385857
 40
0.0220912208
 40
0.0351466585
 40
0.0495706567
 40
0.0653749886
 40
0.0825672406
 40
0.1211302505
 40
0.1652766795
 40
0.2149880756
 40
0.2702072884
 40
0.3308663133
 40
0.3968917596
 40
0.4681939786
 40
0.5446663781
 40
0.6261997963
 40
0.8039355264
 40
1.0
 40
1.0
 40
1.0
 40
1.0
 10
6.2304770443
 20
2.6963328927
 30
0.0
 10
6.2301324042
 20
2.6961336009
 30
0.0
 10
6.2293826343
 20
2.6957384046
 30
0.0
 10
6.2281563342
 20
2.6951792707
 30
0.0
 10
6.2267622078
 20
2.694619039
 30
0.0
 10
6.2252005735
 20
2.6940576862
 30
0.0
 10
6.2234718081
 20
2.6934951901
 30
0.0
 10
6.2208422474
 20
2.6927135319
 30
0.0
 10
6.2171361946
 20
2.6917451561
 30
0.0
 10
6.2121864446
 20
2.6906176234
 30
0.0
 10
6.2065847995
 20
2.6894854035
 30
0.0
 10
6.2003397383
 20
2.6883483773
 30
0.0
 10
6.193460785
 20
2.687206958
 30
0.0
 10
6.1859582819
 20
2.6860614848
 30
0.0
 10
6.17784372
 20
2.6849120637
 30
0.0
 10
6.169129755
 20
2.6837584832
 30
0.0
 10
6.1563584762
 20
2.6821688645
 30
0.0
 10
6.1390165653
 20
2.6801904969
 30
0.0
 10
6.1247647809
 20
2.6787071124
 30
0.0
 10
6.1172867659
 20
2.677956549
 30
0.0
 11
6.2304770443
 21
2.6963328927
 31
0.0
 11
6.2294227734
 21
2.6957716809
 31
0.0
 11
6.2281996364
 21
2.6952096654
 31
0.0
 11
6.2268077929
 21
2.6946468429
 31
0.0
 11
6.2252477795
 21
2.6940832089
 31
0.0
 11
6.2235202076
 21
2.693518759
 31
0.0
 11
6.2216256884
 21
2.6929534885
 31
0.0
 11
6.2173382534
 21
2.6918204674
 31
0.0
 11
6.2123903755
 21
2.6906841091
 31
0.0
 11
6.2067884948
 21
2.6895443877
 31
0.0
 11
6.2005422019
 21
2.688401299
 31
0.0
 11
6.1936614726
 21
2.6872548416
 31
0.0
 11
6.1861563353
 21
2.686105012
 31
0.0
 11
6.1780383264
 21
2.684951744
 31
0.0
 11
6.1693206772
 21
2.683794901
 31
0.0
 11
6.1600167088
 21
2.6826343427
 31
0.0
 11
6.1397112075
 21
2.68030195
 31
0.0
 11
6.1172867659
 21
2.677956549
 31
0.0
  0
SPLINE
  5
268
100
AcDbEntity
  8
0
100
AcDbSpline
 62
6
  6
CONTINUOUS
 70
0
 71
3
 72
9
 73
5
 74
3
 42
0.0000001
 43
0.0000001
 44
0.0000000001
 12
0.0
 22
0.0000887201
 32
0.0
 13
0.0000238076
 23
0.0000854661
 33
0.0
 40
0.0
 40
0.0
 40
0.0
 40
0.0
 40
0.745565415
 40
1.0
 40
1.0
 40
1.0
 40
1.0
 10
5.4332588922
 20
2.744334049
 30
0.0
 10
5.4332588922
 20
2.7443560979
 30
0.0
 10
5.4332620651
 20
2.7443857885
 30
0.0
 10
5.433269093
 20
2.7444145203
 30
0.0
 10
5.4332711121
 20
2.7444217688
 30
0.0
 11
5.4332588922
 21
2.744334049
 31
0.0
 11
5.4332657663
 21
2.7443998375
 31
0.0
 11
5.4332711121
 21
2.7444217688
 31
0.0
  0
SPLINE
  5
269
100
AcDbEntity
  8
0
100
AcDbSpline
 62
6
  6
CONTINUOUS
 70
0
 71
3
 72
67
 73
63
 74
61
 42
0.0000001
 43
0.0000001
 44
0.0000000001
 12
0.2197415253
 22
0.788842868
 32
0.0
 13
0.7091820762
 23
0.4094144491
 33
0.0
 40
0.0
 40
0.0
 40
0.0
 40
0.0
 40
0.0004107331
 40
0.0006935422
 40
0.0010374732
 40
0.0014461857
 40
0.0019218155
 40
0.0024656838
 40
0.0030786467
 40
0.0045138775
 40
0.0062304356
 40
0.0082295548
 40
0.0105110725
 40
0.0130741697
 40
0.0159177847
 40
0.0224415414
 40
0.0300712163
 40
0.0387898161
 40
0.048576841
 40
0.0594113815
 40
0.0712690726
 40
0.0841213023
 40
0.0979391117
 40
0.1126916501
 40
0.1448585577
 40
0.1803262483
 40
0.2187639024
 40
0.2598158304
 40
0.303100331
 40
0.3482158158
 40
0.3947452322
 40
0.4422561395
 40
0.4903077411
 40
0.5384530983
 40
0.5862448308
 40
0.6332386198
 40
0.6789986065
 40
0.7231007779
 40
0.7651350286
 40
0.804712715
 40
0.8414660262
 40
0.875053833
 40
0.890562749
 40
0.9051664153
 40
0.9188300823
 40
0.9315236551
 40
0.9432179357
 40
0.9538846125
 40
0.9635005238
 40
0.9720446359
 40
0.9794964619
 40
0.9858404017
 40
0.9885935002
 40
0.9910656985
 40
0.9932559807
 40
0.9951636401
 40
0.9967889774
 40
0.998133665
 40
0.9987018304
 40
0.999201412
 40
0.9996335379
 40
1.0
 40
1.0
 40
1.0
 40
1.0
 10
5.4332711121
 20
2.7444217688
 30
0.0
 10
5.4333011972
 20
2.7445297701
 30
0.0
 10
5.4334347917
 20
2.7446831059
 30
0.0
 10
5.4336640312
 20
2.7448453969
 30
0.0
 10
5.4339133058
 20
2.7449815108
 30
0.0
 10
5.4342199645
 20
2.7451169122
 30
0.0
 10
5.4345856294
 20
2.7452528624
 30
0.0
 10
5.4350100261
 20
2.7453889435
 30
0.0
 10
5.4356911515
 20
2.745580889
 30
0.0
 10
5.4366919375
 20
2.7458160829
 30
0.0
 10
5.4380717983
 20
2.7460868296
 30
0.0
 10
5.439686297
 20
2.7463582261
 30
0.0
 10
5.4415345441
 20
2.7466302115
 30
0.0
 10
5.4436154342
 20
2.7469026104
 30
0.0
 10
5.4468496357
 20
2.7472838809
 30
0.0
 10
5.4514656552
 20
2.7477527662
 30
0.0
 10
5.457685333
 20
2.7482948411
 30
0.0
 10
5.4647985865
 20
2.7488381838
 30
0.0
 10
5.4727887881
 20
2.7493826186
 30
0.0
 10
5.481637573
 20
2.7499276663
 30
0.0
 10
5.4913244416
 20
2.7504731617
 30
0.0
 10
5.5018267789
 20
2.7510190851
 30
0.0
 10
5.5131202615
 20
2.7515653234
 30
0.0
 10
5.5296820712
 20
2.7523156916
 30
0.0
 10
5.5521512652
 20
2.7532447641
 30
0.0
 10
5.5810842712
 20
2.7543317774
 30
0.0
 10
5.6124440438
 20
2.7554201361
 30
0.0
 10
5.6459386428
 20
2.7565094257
 30
0.0
 10
5.6812569014
 20
2.7575993907
 30
0.0
 10
5.7180709521
 20
2.7586898638
 30
0.0
 10
5.7560391163
 20
2.7597806603
 30
0.0
 10
5.7948090345
 20
2.760871716
 30
0.0
 10
5.8340202066
 20
2.7619628837
 30
0.0
 10
5.873308061
 20
2.7630540841
 30
0.0
 10
5.912307067
 20
2.7641451923
 30
0.0
 10
5.9506547126
 20
2.7652361154
 30
0.0
 10
5.9879948522
 20
2.7663267492
 30
0.0
 10
6.0239806608
 20
2.7674169223
 30
0.0
 10
6.0582781664
 20
2.7685065434
 30
0.0
 10
6.0905687017
 20
2.7695952761
 30
0.0
 10
6.1205523425
 20
2.7706829253
 30
0.0
 10
6.1439675695
 20
2.7716108609
 30
0.0
 10
6.1613390454
 20
2.772359716
 30
0.0
 10
6.1732756836
 20
2.7729060998
 30
0.0
 10
6.1844430029
 20
2.773452288
 30
0.0
 10
6.1948151815
 20
2.77399815
 30
0.0
 10
6.2043681101
 20
2.7745435726
 30
0.0
 10
6.2130795064
 20
2.7750885614
 30
0.0
 10
6.2209292355
 20
2.7756328582
 30
0.0
 10
6.2278992085
 20
2.7761759873
 30
0.0
 10
6.2339730951
 20
2.7767178346
 30
0.0
 10
6.2384661415
 20
2.7771868865
 30
0.0
 10
6.2416009843
 20
2.7775686502
 30
0.0
 10
6.2436068164
 20
2.7778409446
 30
0.0
 10
6.2453795794
 20
2.7781127761
 30
0.0
 10
6.2469182749
 20
2.7783839694
 30
0.0
 10
6.2482221376
 20
2.7786543985
 30
0.0
 10
6.2491593561
 20
2.7788897559
 30
0.0
 10
6.2497892226
 20
2.7790822828
 30
0.0
 10
6.2501755612
 20
2.7792182609
 30
0.0
 10
6.2505030909
 20
2.7793539671
 30
0.0
 10
6.2506981158
 20
2.7794521435
 30
0.0
 10
6.2507847452
 20
2.7795021552
 30
0.0
 11
5.4332711121
 21
2.7444217688
 31
0.0
 11
5.4334663251
 21
2.74469566
 31
0.0
 11
5.43365305
 21
2.7448326484
 31
0.0
 11
5.4338991133
 21
2.7449696606
 31
0.0
 11
5.4342044595
 21
2.745106693
 31
0.0
 11
5.4345690333
 21
2.7452437419
 31
0.0
 11
5.4349927793
 21
2.7453808038
 31
0.0
 11
5.435475642
 21
2.745517875
 31
0.0
 11
5.4366184961
 21
2.745792031
 31
0.0
 11
5.4379971523
 21
2.7460661812
 31
0.0
 11
5.4396110712
 21
2.7463403007
 31
0.0
 11
5.4414591389
 21
2.7466143883
 31
0.0
 11
5.4435400299
 21
2.7468884517
 31
0.0
 11
5.4458524182
 21
2.7471624985
 31
0.0
 11
5.451166383
 21
2.747710573
 31
0.0
 11
5.4573900599
 21
2.7482586689
 31
0.0
 11
5.4645084479
 21
2.7488067967
 31
0.0
 11
5.4725040496
 21
2.7493549383
 31
0.0
 11
5.4813592562
 21
2.7499030754
 31
0.0
 11
5.4910537627
 21
2.7504512
 31
0.0
 11
5.5015638741
 21
2.7509993172
 31
0.0
 11
5.5128656758
 21
2.7515474328
 31
0.0
 11
5.524933748
 21
2.7520955511
 31
0.0
 11
5.5512516645
 21
2.7531917984
 31
0.0
 11
5.580274641
 21
2.7542880591
 31
0.0
 11
5.6117312522
 21
2.7553843227
 31
0.0
 11
5.645329849
 21
2.7564805762
 31
0.0
 11
5.6807575712
 21
2.7575768097
 31
0.0
 11
5.7176853329
 21
2.7586730367
 31
0.0
 11
5.7557714246
 21
2.7597692798
 31
0.0
 11
5.7946615619
 21
2.7608655432
 31
0.0
 11
5.8339946348
 21
2.7619618218
 31
0.0
 11
5.8734045116
 21
2.7630581036
 31
0.0
 11
5.9125247008
 21
2.764154374
 31
0.0
 11
5.9509912122
 21
2.7652506243
 31
0.0
 11
5.9884469705
 21
2.7663468619
 31
0.0
 11
6.0245445791
 21
2.7674430936
 31
0.0
 11
6.058947996
 21
2.7685393235
 31
0.0
 11
6.0913387048
 21
2.769635557
 31
0.0
 11
6.1214151715
 21
2.7707317958
 31
0.0
 11
6.1488975962
 21
2.7718280343
 31
0.0
 11
6.1615856559
 21
2.7723761521
 31
0.0
 11
6.1735316932
 21
2.7729242685
 31
0.0
 11
6.1847071213
 21
2.7734723845
 31
0.0
 11
6.1950871332
 21
2.7740205054
 31
0.0
 11
6.2046476096
 21
2.774568637
 31
0.0
 11
6.2133650886
 21
2.775116783
 31
0.0
 11
6.2212202341
 21
2.7756649311
 31
0.0
 11
6.2281953061
 21
2.7762130633
 31
0.0
 11
6.2342727691
 21
2.7767611637
 31
0.0
 11
6.2394386807
 21
2.7773092559
 31
0.0
 11
6.2416764094
 21
2.7775833169
 31
0.0
 11
6.2436821963
 21
2.7778573977
 31
0.0
 11
6.2454546984
 21
2.7781315055
 31
0.0
 11
6.2469925938
 21
2.778405647
 31
0.0
 11
6.2482950013
 21
2.7786798109
 31
0.0
 11
6.2493614592
 21
2.7789539694
 31
0.0
 11
6.2498060679
 21
2.7790910376
 31
0.0
 11
6.2501915222
 21
2.7792280936
 31
0.0
 11
6.2505177665
 21
2.779365134
 31
0.0
 11
6.2507847452
 21
2.7795021552
 31
0.0
  0
SPLINE
  5
26A
100
AcDbEntity
  8
0
100
AcDbSpline
 62
6
  6
CONTINUOUS
 70
0
 71
3
 72
9
 73
5
 74
3
 42
0.0000001
 43
0.0000001
 44
0.0000000001
 12
0.0
 22
-0.0000887203
 32
0.0
 13
-0.0000238078
 23
-0.0000854663
 33
0.0
 40
0.0
 40
0.0
 40
0.0
 40
0.0
 40
0.7455653542
 40
1.0
 40
1.0
 40
1.0
 40
1.0
 10
6.2512588922
 20
2.7889783262
 30
0.0
 10
6.2512588922
 20
2.7889562773
 30
0.0
 10
6.2512557193
 20
2.7889265866
 30
0.0
 10
6.2512486914
 20
2.7888978547
 30
0.0
 10
6.2512466722
 20
2.7888906062
 30
0.0
 11
6.2512588922
 21
2.7889783262
 31
0.0
 11
6.2512520181
 21
2.7889125375
 31
0.0
 11
6.2512466722
 21
2.7888906062
 31
0.0
  0
SPLINE
  5
26B
100
AcDbEntity
  8
0
100
AcDbSpline
 62
6
  6
CONTINUOUS
 70
0
 71
3
 72
67
 73
63
 74
61
 42
0.0000001
 43
0.0000001
 44
0.0000000001
 12
-0.2197427697
 22
-0.7888425206
 32
0.0
 13
-0.7091821212
 23
-0.4094143696
 33
0.0
 40
0.0
 40
0.0
 40
0.0
 40
0.0
 40
0.0004107337
 40
0.0006935434
 40
0.001037475
 40
0.0014461881
 40
0.0019218184
 40
0.0024656871
 40
0.0030786501
 40
0.0045138803
 40
0.006230436
 40
0.0082295505
 40
0.0105110616
 40
0.0130741509
 40
0.0159177576
 40
0.0224414994
 40
0.0300711606
 40
0.0387897384
 40
0.0485767428
 40
0.0594112726
 40
0.0712689466
 40
0.0841211589
 40
0.097938962
 40
0.1126914937
 40
0.1448583934
 40
0.1803261009
 40
0.2187638071
 40
0.2598158103
 40
0.3031003635
 40
0.3482158667
 40
0.3947452804
 40
0.4422561805
 40
0.4903077799
 40
0.5384531383
 40
0.5862448731
 40
0.6332386635
 40
0.6789986565
 40
0.723100845
 40
0.7651351221
 40
0.8047128071
 40
0.8414660673
 40
0.8750538416
 40
0.8905627529
 40
0.9051664176
 40
0.9188300834
 40
0.931523655
 40
0.9432179343
 40
0.9538846102
 40
0.9635005211
 40
0.9720446329
 40
0.9794964587
 40
0.9858403993
 40
0.9885934983
 40
0.9910656971
 40
0.9932559797
 40
0.9951636392
 40
0.9967889767
 40
0.9981336645
 40
0.99870183
 40
0.9992014118
 40
0.9996335378
 40
1.0
 40
1.0
 40
1.0
 40
1.0
 10
6.2512466722
 20
2.7888906062
 30
0.0
 10
6.2512165869
 20
2.7887826048
 30
0.0
 10
6.2510829918
 20
2.788629269
 30
0.0
 10
6.2508537517
 20
2.788466978
 30
0.0
 10
6.2506044766
 20
2.788330864
 30
0.0
 10
6.2502978174
 20
2.7881954626
 30
0.0
 10
6.2499321521
 20
2.7880595123
 30
0.0
 10
6.249507755
 20
2.7879234313
 30
0.0
 10
6.2488266297
 20
2.7877314858
 30
0.0
 10
6.2478258445
 20
2.787496292
 30
0.0
 10
6.2464459858
 20
2.7872255456
 30
0.0
 10
6.2448314908
 20
2.7869541494
 30
0.0
 10
6.242983249
 20
2.7866821644
 30
0.0
 10
6.2409023651
 20
2.7864097662
 30
0.0
 10
6.237668172
 20
2.7860284964
 30
0.0
 10
6.2330521626
 20
2.7855596122
 30
0.0
 10
6.2268324985
 20
2.7850175384
 30
0.0
 10
6.2197192604
 20
2.7844741958
 30
0.0
 10
6.2117290734
 20
2.7839297613
 30
0.0
 10
6.2028803016
 20
2.7833847144
 30
0.0
 10
6.1931934454
 20
2.7828392191
 30
0.0
 10
6.1826911192
 20
2.7822932956
 30
0.0
 10
6.171397645
 20
2.7817470576
 30
0.0
 10
6.154835841
 20
2.7809966891
 30
0.0
 10
6.1323666464
 20
2.780067616
 30
0.0
 10
6.1034336238
 20
2.7789806018
 30
0.0
 10
6.0720738119
 20
2.7778922415
 30
0.0
 10
6.0385791638
 20
2.7768029502
 30
0.0
 10
6.0032608653
 20
2.775712984
 30
0.0
 10
5.9664467961
 20
2.7746225103
 30
0.0
 10
5.9284786295
 20
2.7735317138
 30
0.0
 10
5.8897087148
 20
2.7724406582
 30
0.0
 10
5.8504975449
 20
2.7713494906
 30
0.0
 10
5.8112096902
 20
2.7702582901
 30
0.0
 10
5.7722106828
 20
2.769167182
 30
0.0
 10
5.7338630345
 20
2.7680762587
 30
0.0
 10
5.6965228882
 20
2.7669856247
 30
0.0
 10
5.6605370661
 20
2.7658954512
 30
0.0
 10
5.626239549
 20
2.7648058294
 30
0.0
 10
5.5939490208
 20
2.7637170971
 30
0.0
 10
5.5639654032
 20
2.7626294485
 30
0.0
 10
5.5405502003
 20
2.7617015136
 30
0.0
 10
5.523178735
 20
2.760952659
 30
0.0
 10
5.5112420989
 20
2.7604062753
 30
0.0
 10
5.5000747807
 20
2.7598600872
 30
0.0
 10
5.4897026032
 20
2.7593142252
 30
0.0
 10
5.4801496755
 20
2.7587688027
 30
0.0
 10
5.4714382799
 20
2.7582238139
 30
0.0
 10
5.4635885512
 20
2.7576795172
 30
0.0
 10
5.4566185784
 20
2.7571363882
 30
0.0
 10
5.4505446918
 20
2.7565945408
 30
0.0
 10
5.4460516451
 20
2.756125489
 30
0.0
 10
5.4429168018
 20
2.7557437253
 30
0.0
 10
5.4409109693
 20
2.7554714308
 30
0.0
 10
5.4391382061
 20
2.7551995993
 30
0.0
 10
5.4375995104
 20
2.7549284059
 30
0.0
 10
5.4362956475
 20
2.7546579767
 30
0.0
 10
5.4353584288
 20
2.7544226193
 30
0.0
 10
5.4347285622
 20
2.7542300925
 30
0.0
 10
5.4343422235
 20
2.7540941144
 30
0.0
 10
5.4340146937
 20
2.7539584081
 30
0.0
 10
5.4338196688
 20
2.7538602317
 30
0.0
 10
5.4337330393
 20
2.75381022
 30
0.0
 11
6.2512466722
 21
2.7888906062
 31
0.0
 11
6.2510514584
 21
2.788616715
 31
0.0
 11
6.250864733
 21
2.7884797265
 31
0.0
 11
6.2506186691
 21
2.7883427142
 31
0.0
 11
6.2503133224
 21
2.7882056818
 31
0.0
 11
6.2499487481
 21
2.7880686329
 31
0.0
 11
6.2495250018
 21
2.787931571
 31
0.0
 11
6.249042139
 21
2.7877944998
 31
0.0
 11
6.2478992855
 21
2.7875203438
 31
0.0
 11
6.2465206312
 21
2.7872461938
 31
0.0
 11
6.2449067162
 21
2.7869720747
 31
0.0
 11
6.2430586538
 21
2.7866979877
 31
0.0
 11
6.2409777692
 21
2.7864239249
 31
0.0
 11
6.2386653877
 21
2.7861498787
 31
0.0
 11
6.2333514351
 21
2.7856018053
 31
0.0
 11
6.2271277693
 21
2.7850537103
 31
0.0
 11
6.2200093994
 21
2.7845055831
 31
0.0
 11
6.2120138144
 21
2.7839574419
 31
0.0
 11
6.2031586167
 21
2.7834093051
 31
0.0
 11
6.1934641242
 21
2.7828611808
 31
0.0
 11
6.1829540271
 21
2.7823130637
 31
0.0
 11
6.1716522305
 21
2.7817649482
 31
0.0
 11
6.1595841639
 21
2.7812168298
 31
0.0
 11
6.1332662539
 21
2.7801205821
 31
0.0
 11
6.1042432636
 21
2.7790243204
 31
0.0
 11
6.0727866098
 21
2.7779280552
 31
0.0
 11
6.0391879515
 21
2.7768317996
 31
0.0
 11
6.0037601862
 21
2.7757355647
 31
0.0
 11
5.9668324095
 21
2.7746393372
 31
0.0
 11
5.9287463201
 21
2.7735430943
 31
0.0
 11
5.8898561887
 21
2.7724468311
 31
0.0
 11
5.8505231177
 21
2.7713505525
 31
0.0
 11
5.8111132399
 21
2.7702542707
 31
0.0
 11
5.7719930488
 21
2.7691580002
 31
0.0
 11
5.7335265363
 21
2.7680617498
 31
0.0
 11
5.6960707729
 21
2.7669655121
 31
0.0
 11
5.6599731504
 21
2.7658692799
 31
0.0
 11
5.6255697118
 21
2.7647730492
 31
0.0
 11
5.5931790043
 21
2.7636768156
 31
0.0
 11
5.5631025792
 21
2.7625805782
 31
0.0
 11
5.5356201812
 21
2.7614843406
 31
0.0
 11
5.5229321254
 21
2.7609362229
 31
0.0
 11
5.5109860894
 21
2.7603881066
 31
0.0
 11
5.4998106624
 21
2.7598399907
 31
0.0
 11
5.4894306514
 21
2.7592918699
 31
0.0
 11
5.4798701761
 21
2.7587437382
 31
0.0
 11
5.4711526979
 21
2.7581955924
 31
0.0
 11
5.4632975526
 21
2.7576474443
 31
0.0
 11
5.4563224808
 21
2.7570993121
 31
0.0
 11
5.450245018
 21
2.7565512117
 31
0.0
 11
5.4450791059
 21
2.7560031195
 31
0.0
 11
5.4428413767
 21
2.7557290585
 31
0.0
 11
5.4408355894
 21
2.7554549777
 31
0.0
 11
5.439063087
 21
2.7551808698
 31
0.0
 11
5.4375251915
 21
2.7549067283
 31
0.0
 11
5.4362227838
 21
2.7546325643
 31
0.0
 11
5.4351563258
 21
2.7543584059
 31
0.0
 11
5.434711717
 21
2.7542213377
 31
0.0
 11
5.4343262625
 21
2.7540842816
 31
0.0
 11
5.4340000181
 21
2.7539472412
 31
0.0
 11
5.4337330393
 21
2.75381022
 31
0.0
  0
LINE
  5
26C
100
AcDbEntity
  8
0
100
AcDbLine
 62
6
  6
CONTINUOUS
 10
6.2498858852
 20
2.716616549
 11
6.2511212499
 21
2.7172545645
  0
LINE
  5
26D
100
AcDbEntity
  8
0
100
AcDbLine
 62
6
  6
CONTINUOUS
 10
6.2511212499
 20
2.7172545645
 11
6.2512575299
 21
2.7175482072
  0
LINE
  5
26E
100
AcDbEntity
  8
0
100
AcDbLine
 62
6
  6
CONTINUOUS
 10
6.2120763248
 20
2.8119025694
 11
6.211435172
 21
2.8122001623
  0
SPLINE
  5
26F
100
AcDbEntity
  8
0
100
AcDbSpline
 62
6
  6
CONTINUOUS
 70
0
 71
3
 72
40
 73
36
 74
34
 42
0.0000001
 43
0.0000001
 44
0.0000000001
 12
0.0004127623
 22
0.4506767099
 32
0.0
 13
0.4504545001
 23
0.0141566414
 33
0.0
 40
0.0
 40
0.0
 40
0.0
 40
0.0
 40
0.0003611943
 40
0.0007876487
 40
0.0013209723
 40
0.0019828149
 40
0.0027843949
 40
0.0037319081
 40
0.0048290181
 40
0.0060780182
 40
0.0090369562
 40
0.0126159784
 40
0.016816472
 40
0.0216371694
 40
0.0270758298
 40
0.0331296466
 40
0.0397954604
 40
0.0470695563
 40
0.063418983
 40
0.0821268271
 40
0.1031397375
 40
0.1263937143
 40
0.1518144719
 40
0.1793264848
 40
0.2088442647
 40
0.2402739892
 40
0.3084808008
 40
0.3830978895
 40
0.4631991318
 40
0.5477881591
 40
0.6358135993
 40
0.7261770412
 40
0.8177493233
 40
0.909426499
 40
1.0
 40
1.0
 40
1.0
 40
1.0
 10
5.4719189983
 20
2.9363036883
 30
0.0
 10
5.471919048
 20
2.936357949
 30
0.0
 10
5.4719490578
 20
2.9364769462
 30
0.0
 10
5.4720685916
 20
2.9366390006
 30
0.0
 10
5.4722559396
 20
2.9367967455
 30
0.0
 10
5.4725125897
 20
2.9369534548
 30
0.0
 10
5.4728395143
 20
2.9371102698
 30
0.0
 10
5.4732374636
 20
2.937267361
 30
0.0
 10
5.4737067226
 20
2.9374247641
 30
0.0
 10
5.4744720246
 20
2.9376477135
 30
0.0
 10
5.4756102696
 20
2.9379201517
 30
0.0
 10
5.4771930468
 20
2.9382330918
 30
0.0
 10
5.4790599214
 20
2.9385470117
 30
0.0
 10
5.4812093512
 20
2.9388617758
 30
0.0
 10
5.4836397298
 20
2.9391770722
 30
0.0
 10
5.4863493023
 20
2.9394927669
 30
0.0
 10
5.48933625
 20
2.9398087701
 30
0.0
 10
5.4938653182
 20
2.9402476344
 30
0.0
 10
5.5002016562
 20
2.940789318
 30
0.0
 10
5.5086014067
 20
2.9414184716
 30
0.0
 10
5.5180409017
 20
2.9420486009
 30
0.0
 10
5.5284907952
 20
2.9426795542
 30
0.0
 10
5.5399185946
 20
2.9433112039
 30
0.0
 10
5.5522886735
 20
2.9439432445
 30
0.0
 10
5.5655625266
 20
2.9445756407
 30
0.0
 10
5.5849454359
 20
2.9454430938
 30
0.0
 10
5.6111008685
 20
2.9465164515
 30
0.0
 10
5.6445663498
 20
2.9477743095
 30
0.0
 10
5.6804944175
 20
2.9490335543
 30
0.0
 10
5.7184378838
 20
2.9502938671
 30
0.0
 10
5.757923783
 20
2.9515548836
 30
0.0
 10
5.7984592501
 20
2.9528162927
 30
0.0
 10
5.8395435524
 20
2.9540779949
 30
0.0
 10
5.880659426
 20
2.9553396798
 30
0.0
 10
5.90802497
 20
2.9561891435
 30
0.0
 10
5.9216247171
 20
2.956616549
 30
0.0
 11
5.4719189983
 21
2.9363036883
 31
0.0
 11
5.4719552487
 21
2.9364623826
 31
0.0
 11
5.4720636662
 21
2.9366210768
 31
0.0
 11
5.4722441862
 21
2.936779771
 31
0.0
 11
5.4724967439
 21
2.9369384652
 31
0.0
 11
5.4728212748
 21
2.9370971595
 31
0.0
 11
5.4732177142
 21
2.9372558537
 31
0.0
 11
5.4736859974
 21
2.9374145479
 31
0.0
 11
5.4742260599
 21
2.9375732421
 31
0.0
 11
5.4755212639
 21
2.9378906306
 31
0.0
 11
5.4771027118
 21
2.938208019
 31
0.0
 11
5.4789689812
 21
2.9385254075
 31
0.0
 11
5.4811182497
 21
2.9388427959
 31
0.0
 11
5.4835486922
 21
2.9391601844
 31
0.0
 11
5.4862584836
 21
2.9394775728
 31
0.0
 11
5.4892457987
 21
2.9397949613
 31
0.0
 11
5.4925086654
 21
2.9401123497
 31
0.0
 11
5.4998495805
 21
2.9407471266
 31
0.0
 11
5.5082568438
 21
2.9413819035
 31
0.0
 11
5.5177055786
 21
2.9420166804
 31
0.0
 11
5.5281663668
 21
2.9426514573
 31
0.0
 11
5.5396053158
 21
2.9432862342
 31
0.0
 11
5.5519880849
 21
2.9439210111
 31
0.0
 11
5.565275913
 21
2.9445557881
 31
0.0
 11
5.5794263331
 21
2.945190565
 31
0.0
 11
5.6101393395
 21
2.9464601182
 31
0.0
 11
5.6437435646
 21
2.9477296733
 31
0.0
 11
5.6798210134
 21
2.948999227
 31
0.0
 11
5.7179221888
 21
2.9502687732
 31
0.0
 11
5.7575729012
 21
2.951538348
 31
0.0
 11
5.7982778239
 21
2.9528078935
 31
0.0
 11
5.8395278071
 21
2.9540773464
 31
0.0
 11
5.8808250729
 21
2.955347223
 31
0.0
 11
5.9216247171
 21
2.956616549
 31
0.0
  0
SPLINE
  5
270
100
AcDbEntity
  8
0
100
AcDbSpline
 62
6
  6
CONTINUOUS
 70
0
 71
3
 72
9
 73
5
 74
3
 42
0.0000001
 43
0.0000001
 44
0.0000000001
 12
0.0
 22
-0.0000887014
 32
0.0
 13
-0.0000237989
 23
-0.0000854491
 33
0.0
 40
0.0
 40
0.0
 40
0.0
 40
0.0
 40
0.7455667436
 40
1.0
 40
1.0
 40
1.0
 40
1.0
 10
6.2512588922
 20
2.8604083262
 30
0.0
 10
6.2512588922
 20
2.8603862819
 30
0.0
 10
6.2512557205
 20
2.8603565976
 30
0.0
 10
6.2512486952
 20
2.8603278716
 30
0.0
 10
6.2512466768
 20
2.8603206245
 30
0.0
 11
6.2512588922
 21
2.8604083262
 31
0.0
 11
6.2512520207
 21
2.8603425513
 31
0.0
 11
6.2512466768
 21
2.8603206245
 31
0.0
  0
SPLINE
  5
271
100
AcDbEntity
  8
0
100
AcDbSpline
 62
6
  6
CONTINUOUS
 70
0
 71
3
 72
67
 73
63
 74
61
 42
0.0000001
 43
0.0000001
 44
0.0000000001
 12
-0.2197075341
 22
-0.7888523502
 32
0.0
 13
-0.7091820227
 23
-0.4094145695
 33
0.0
 40
0.0
 40
0.0
 40
0.0
 40
0.0
 40
0.000410728
 40
0.0006935358
 40
0.0010374665
 40
0.0014461793
 40
0.0019218094
 40
0.0024656776
 40
0.0030786394
 40
0.0045138628
 40
0.0062304028
 40
0.0082294956
 40
0.010510986
 40
0.0130740511
 40
0.0159176248
 40
0.0224412548
 40
0.0300707057
 40
0.0387889888
 40
0.0485757095
 40
0.0594100371
 40
0.0712674729
 40
0.0841194712
 40
0.0979371854
 40
0.1126896367
 40
0.1448564888
 40
0.1803244322
 40
0.2187626301
 40
0.2598154011
 40
0.3031010091
 40
0.3482171041
 40
0.3947459672
 40
0.4422560032
 40
0.4903069664
 40
0.5384518576
 40
0.5862432753
 40
0.633236967
 40
0.6789970437
 40
0.7230996722
 40
0.7651348022
 40
0.8047131769
 40
0.8414664283
 40
0.8750539803
 40
0.8905627731
 40
0.9051663584
 40
0.9188300023
 40
0.931523589
 40
0.9432178967
 40
0.9538845909
 40
0.9635005069
 40
0.9720446184
 40
0.9794964455
 40
0.9858403893
 40
0.9885934902
 40
0.991065691
 40
0.9932559756
 40
0.9951636369
 40
0.9967889757
 40
0.9981336642
 40
0.9987018299
 40
0.9992014117
 40
0.9996335378
 40
1.0
 40
1.0
 40
1.0
 40
1.0
 10
6.2512466768
 20
2.8603206245
 30
0.0
 10
6.2512165968
 20
2.8602126233
 30
0.0
 10
6.2510830048
 20
2.8600592857
 30
0.0
 10
6.2508537678
 20
2.8598969948
 30
0.0
 10
6.250604494
 20
2.85976088
 30
0.0
 10
6.2502978355
 20
2.8596254778
 30
0.0
 10
6.2499321708
 20
2.8594895267
 30
0.0
 10
6.2495077746
 20
2.8593534448
 30
0.0
 10
6.248826652
 20
2.8591614982
 30
0.0
 10
6.2478258737
 20
2.8589263031
 30
0.0
 10
6.2464460276
 20
2.8586555548
 30
0.0
 10
6.2448315489
 20
2.8583841574
 30
0.0
 10
6.2429833253
 20
2.8581121734
 30
0.0
 10
6.2409024626
 20
2.857839777
 30
0.0
 10
6.2376683154
 20
2.8574585117
 30
0.0
 10
6.2330524024
 20
2.8569896359
 30
0.0
 10
6.2268329064
 20
2.8564475711
 30
0.0
 10
6.2197198835
 20
2.8559042369
 30
0.0
 10
6.2117299092
 20
2.8553598118
 30
0.0
 10
6.2028813345
 20
2.854814778
 30
0.0
 10
6.1931946569
 20
2.8542692855
 30
0.0
 10
6.1826924784
 20
2.8537233618
 30
0.0
 10
6.1713991085
 20
2.8531771273
 30
0.0
 10
6.1548373637
 20
2.852426755
 30
0.0
 10
6.1323681396
 20
2.8514976738
 30
0.0
 10
6.1034349311
 20
2.8504106489
 30
0.0
 10
6.0720747108
 20
2.8493222717
 30
0.0
 10
6.0385794308
 20
2.8482329582
 30
0.0
 10
6.0032604729
 20
2.8471429726
 30
0.0
 10
5.966446104
 20
2.8460524901
 30
0.0
 10
5.9284781613
 20
2.8449617
 30
0.0
 10
5.8897088054
 20
2.8438706612
 30
0.0
 10
5.8504981717
 20
2.8427795078
 30
0.0
 10
5.8112107039
 20
2.8416883185
 30
0.0
 10
5.7722119367
 20
2.840597217
 30
0.0
 10
5.7338643783
 20
2.8395062977
 30
0.0
 10
5.6965241154
 20
2.838415661
 30
0.0
 10
5.660537917
 20
2.8373254785
 30
0.0
 10
5.6262398585
 20
2.836235838
 30
0.0
 10
5.5939489112
 20
2.8351470947
 30
0.0
 10
5.563965168
 20
2.8340594387
 30
0.0
 10
5.54055006
 20
2.8331315085
 30
0.0
 10
5.523178709
 20
2.8323826582
 30
0.0
 10
5.5112421326
 20
2.8318362768
 30
0.0
 10
5.5000748377
 20
2.8312900897
 30
0.0
 10
5.4897026541
 20
2.8307442276
 30
0.0
 10
5.4801497093
 20
2.8301988046
 30
0.0
 10
5.4714382995
 20
2.8296538155
 30
0.0
 10
5.4635885644
 20
2.8291095185
 30
0.0
 10
5.4566185898
 20
2.8285663892
 30
0.0
 10
5.450544702
 20
2.8280245417
 30
0.0
 10
5.4460516535
 20
2.8275554898
 30
0.0
 10
5.4429168081
 20
2.8271737259
 30
0.0
 10
5.440910974
 20
2.8269014314
 30
0.0
 10
5.4391382092
 20
2.8266295998
 30
0.0
 10
5.4375995121
 20
2.8263584064
 30
0.0
 10
5.4362956481
 20
2.8260879771
 30
0.0
 10
5.4353584288
 20
2.8258526196
 30
0.0
 10
5.434728562
 20
2.8256600926
 30
0.0
 10
5.4343422232
 20
2.8255241145
 30
0.0
 10
5.4340146933
 20
2.8253884082
 30
0.0
 10
5.4338196684
 20
2.8252902317
 30
0.0
 10
5.4337330389
 20
2.82524022
 30
0.0
 11
6.2512466768
 21
2.8603206245
 31
0.0
 11
6.2510514722
 21
2.8600467325
 31
0.0
 11
6.2508647491
 21
2.8599097434
 31
0.0
 11
6.2506186866
 21
2.8597727304
 31
0.0
 11
6.2503133405
 21
2.8596356971
 31
0.0
 11
6.2499487667
 21
2.8594986473
 31
0.0
 11
6.2495250212
 21
2.8593615844
 31
0.0
 11
6.2490421597
 21
2.8592245122
 31
0.0
 11
6.2478993122
 21
2.8589503544
 31
0.0
 11
6.2465206713
 21
2.858676203
 31
0.0
 11
6.2449067744
 21
2.8584020832
 31
0.0
 11
6.2430587291
 21
2.8581279966
 31
0.0
 11
6.2409778643
 21
2.8578539354
 31
0.0
 11
6.2386655096
 21
2.8575798918
 31
0.0
 11
6.2333516482
 21
2.8570318259
 31
0.0
 11
6.2271281543
 21
2.8564837408
 31
0.0
 11
6.2200100255
 21
2.8559356249
 31
0.0
 11
6.2120146725
 21
2.8553874948
 31
0.0
 11
6.2031596398
 21
2.8548393667
 31
0.0
 11
6.1934653423
 21
2.8542912476
 31
0.0
 11
6.1829554203
 21
2.8537431329
 31
0.0
 11
6.1716536964
 21
2.8531950175
 31
0.0
 11
6.1595856955
 21
2.852646898
 31
0.0
 11
6.1332678244
 21
2.851550644
 31
0.0
 11
6.1042446407
 21
2.8504543705
 31
0.0
 11
6.072787584
 21
2.8493580884
 31
0.0
 11
6.0391882967
 21
2.8482618106
 31
0.0
 11
6.0037596675
 21
2.8471655495
 31
0.0
 11
5.9668314058
 21
2.8460693079
 31
0.0
 11
5.9287457663
 21
2.8449730782
 31
0.0
 11
5.8898563415
 21
2.8438768354
 31
0.0
 11
5.8505237906
 21
2.8427805712
 31
0.0
 11
5.8111142945
 21
2.8416843002
 31
0.0
 11
5.7719943623
 21
2.8405880372
 31
0.0
 11
5.7335279299
 21
2.8394917901
 31
0.0
 11
5.6960720973
 21
2.8383955515
 31
0.0
 11
5.6599741139
 21
2.83729931
 31
0.0
 11
5.6255699767
 21
2.8362030569
 31
0.0
 11
5.593178704
 21
2.8351068055
 31
0.0
 11
5.5631022857
 21
2.8340105668
 31
0.0
 11
5.5356200691
 21
2.8329143364
 31
0.0
 11
5.5229321101
 21
2.8323662226
 31
0.0
 11
5.5109861388
 21
2.8318181089
 31
0.0
 11
5.4998107295
 21
2.8312699938
 31
0.0
 11
5.4894307059
 21
2.8307218725
 31
0.0
 11
5.4798702073
 21
2.8301737401
 31
0.0
 11
5.4711527138
 21
2.8296255936
 31
0.0
 11
5.4632975643
 21
2.8290774454
 31
0.0
 11
5.4563224927
 21
2.8285293131
 31
0.0
 11
5.4502450287
 21
2.8279812127
 31
0.0
 11
5.4450791138
 21
2.8274331203
 31
0.0
 11
5.442841383
 21
2.8271590592
 31
0.0
 11
5.4408355941
 21
2.8268849783
 31
0.0
 11
5.43906309
 21
2.8266108703
 31
0.0
 11
5.437525193
 21
2.8263367287
 31
0.0
 11
5.4362227843
 21
2.8260625646
 31
0.0
 11
5.4351563256
 21
2.8257884061
 31
0.0
 11
5.4347117167
 21
2.8256513378
 31
0.0
 11
5.4343262622
 21
2.8255142817
 31
0.0
 11
5.4340000177
 21
2.8253772412
 31
0.0
 11
5.4337330389
 21
2.82524022
 31
0.0
  0
LINE
  5
272
100
AcDbEntity
  8
0
100
AcDbLine
 62
6
  6
CONTINUOUS
 10
5.4724415532
 20
2.7761875693
 11
5.4732975921
 21
2.77656495
  0
SPLINE
  5
273
100
AcDbEntity
  8
0
100
AcDbSpline
 62
6
  6
CONTINUOUS
 70
0
 71
3
 72
63
 73
59
 74
57
 42
0.0000001
 43
0.0000001
 44
0.0000000001
 12
0.6978561129
 22
0.2484982838
 32
0.0
 13
0.000087932
 23
0.7407796863
 33
0.0
 40
0.0
 40
0.0
 40
0.0
 40
0.0
 40
0.0012267042
 40
0.0027261471
 40
0.0045005125
 40
0.0065506341
 40
0.0088766345
 40
0.0114782284
 40
0.0175055667
 40
0.0246222393
 40
0.0328124471
 40
0.0420595623
 40
0.0523448086
 40
0.0636437686
 40
0.0759308294
 40
0.1033608172
 40
0.1343847308
 40
0.1687241542
 40
0.2060651532
 40
0.2460698208
 40
0.2883740269
 40
0.3325926668
 40
0.3783243077
 40
0.4251518925
 40
0.4726501068
 40
0.5203861088
 40
0.5679259661
 40
0.6148364999
 40
0.660691628
 40
0.705073042
 40
0.747578141
 40
0.7878194359
 40
0.8254313321
 40
0.8600727301
 40
0.8914274684
 40
0.9192138897
 40
0.9316876662
 40
0.9431782556
 40
0.953660051
 40
0.9631080762
 40
0.9715024376
 40
0.9788264135
 40
0.9820819852
 40
0.9850640399
 40
0.9877712988
 40
0.990203138
 40
0.9923591665
 40
0.9942393294
 40
0.9958441409
 40
0.9971751581
 40
0.997739121
 40
0.9982363779
 40
0.9986683176
 40
0.9990370877
 40
0.9993461572
 40
0.9996014433
 40
0.9998134185
 40
1.0
 40
1.0
 40
1.0
 40
1.0
 10
5.4732975921
 20
2.77656495
 30
0.0
 10
5.4735829465
 20
2.7766665613
 30
0.0
 10
5.4742275131
 20
2.7768629425
 30
0.0
 10
5.4753064546
 20
2.7771301665
 30
0.0
 10
5.4765936793
 20
2.7773983898
 30
0.0
 10
5.4780885232
 20
2.7776673503
 30
0.0
 10
5.479790405
 20
2.7779368371
 30
0.0
 10
5.4824689356
 20
2.7783154608
 30
0.0
 10
5.4863294637
 20
2.7787800359
 30
0.0
 10
5.4915702549
 20
2.7793162102
 30
0.0
 10
5.4976095465
 20
2.7798538514
 30
0.0
 10
5.5044338347
 20
2.7803926188
 30
0.0
 10
5.5120278386
 20
2.7809320041
 30
0.0
 10
5.5203741462
 20
2.7814720337
 30
0.0
 10
5.5329491499
 20
2.7822203981
 30
0.0
 10
5.5503927496
 20
2.7831433452
 30
0.0
 10
5.5732807775
 20
2.7842175389
 30
0.0
 10
5.59861844
 20
2.7852934535
 30
0.0
 10
5.6261754356
 20
2.7863709478
 30
0.0
 10
5.6557005037
 20
2.7874493814
 30
0.0
 10
5.686924879
 20
2.7885285559
 30
0.0
 10
5.7195641801
 20
2.7896082691
 30
0.0
 10
5.7533209992
 20
2.7906883179
 30
0.0
 10
5.7878880259
 20
2.7917686443
 30
0.0
 10
5.8229502158
 20
2.792849085
 30
0.0
 10
5.8581883651
 20
2.7939295966
 30
0.0
 10
5.8932813343
 20
2.7950100464
 30
0.0
 10
5.9279096473
 20
2.796090391
 30
0.0
 10
5.9617576798
 20
2.7971704652
 30
0.0
 10
5.9945173356
 20
2.7982502268
 30
0.0
 10
6.0258900254
 20
2.7993294473
 30
0.0
 10
6.0555901318
 20
2.8004079772
 30
0.0
 10
6.0833471607
 20
2.8014855664
 30
0.0
 10
6.1089081587
 20
2.8025616564
 30
0.0
 10
6.1320407067
 20
2.8036360697
 30
0.0
 10
6.1497004163
 20
2.8045587637
 30
0.0
 10
6.1624571986
 20
2.8053066395
 30
0.0
 10
6.170945747
 20
2.8058467653
 30
0.0
 10
6.1786855558
 20
2.8063862836
 30
0.0
 10
6.1856588463
 20
2.8069251528
 30
0.0
 10
6.1918498611
 20
2.8074631581
 30
0.0
 10
6.19651225
 20
2.8079265293
 30
0.0
 10
6.199839913
 20
2.8083018942
 30
0.0
 10
6.2020321036
 20
2.8085720706
 30
0.0
 10
6.2040192418
 20
2.8088420127
 30
0.0
 10
6.2058003999
 20
2.8091116294
 30
0.0
 10
6.2073747964
 20
2.8093808146
 30
0.0
 10
6.208741793
 20
2.8096493314
 30
0.0
 10
6.2099006901
 20
2.8099170588
 30
0.0
 10
6.210733492
 20
2.8101500022
 30
0.0
 10
6.2112928202
 20
2.810340449
 30
0.0
 10
6.2116362078
 20
2.8104751498
 30
0.0
 10
6.2119273796
 20
2.810609671
 30
0.0
 10
6.2121666116
 20
2.8107441029
 30
0.0
 10
6.212354411
 20
2.8108787086
 30
0.0
 10
6.2124913651
 20
2.8110144753
 30
0.0
 10
6.2125774556
 20
2.8111535755
 30
0.0
 10
6.2125981696
 20
2.8112526156
 30
0.0
 10
6.212598175
 20
2.8112986875
 30
0.0
 11
5.4732975921
 21
2.77656495
 31
0.0
 11
5.474164848
 21
2.7768363074
 31
0.0
 11
5.4752419488
 21
2.7771076647
 31
0.0
 11
5.4765280471
 21
2.777379022
 31
0.0
 11
5.478022296
 21
2.7776503794
 31
0.0
 11
5.4797238482
 21
2.7779217367
 31
0.0
 11
5.4816318565
 21
2.778193094
 31
0.0
 11
5.4860636799
 21
2.7787358086
 31
0.0
 11
5.4913075571
 21
2.7792785233
 31
0.0
 11
5.4973503747
 21
2.7798212379
 31
0.0
 11
5.504178917
 21
2.7803639526
 31
0.0
 11
5.511778665
 21
2.7809066672
 31
0.0
 11
5.5201310917
 21
2.7814493819
 31
0.0
 11
5.5292169025
 21
2.7819920965
 31
0.0
 11
5.549507469
 21
2.7830775258
 31
0.0
 11
5.5724637076
 21
2.7841629551
 31
0.0
 11
5.5978784871
 21
2.7852483844
 31
0.0
 11
5.6255186366
 21
2.7863338137
 31
0.0
 11
5.6551333972
 21
2.787419243
 31
0.0
 11
5.6864526908
 21
2.7885046723
 31
0.0
 11
5.7191909726
 21
2.7895901016
 31
0.0
 11
5.7530506502
 21
2.7906755309
 31
0.0
 11
5.7877225881
 21
2.7917609602
 31
0.0
 11
5.8228915548
 21
2.7928463895
 31
0.0
 11
5.8582367531
 21
2.7939318187
 31
0.0
 11
5.8934365826
 21
2.795017248
 31
0.0
 11
5.9281699975
 21
2.7961026773
 31
0.0
 11
5.9621211988
 21
2.7971881066
 31
0.0
 11
5.9949801264
 21
2.7982735359
 31
0.0
 11
6.0264483263
 21
2.7993589652
 31
0.0
 11
6.0562384926
 21
2.8004443945
 31
0.0
 11
6.0840794708
 21
2.8015298238
 31
0.0
 11
6.1097181491
 21
2.8026152531
 31
0.0
 11
6.1329197267
 21
2.8037006824
 31
0.0
 11
6.1534747046
 21
2.8047861117
 31
0.0
 11
6.1626990734
 21
2.8053288263
 31
0.0
 11
6.1711937497
 21
2.805871541
 31
0.0
 11
6.178939461
 21
2.8064142556
 31
0.0
 11
6.1859172927
 21
2.8069569703
 31
0.0
 11
6.1921119369
 21
2.8074996849
 31
0.0
 11
6.1975101771
 21
2.8080423996
 31
0.0
 11
6.1999065234
 21
2.8083137569
 31
0.0
 11
6.202098839
 21
2.8085851142
 31
0.0
 11
6.2040858782
 21
2.8088564716
 31
0.0
 11
6.2058667804
 21
2.8091278289
 31
0.0
 11
6.2074407017
 21
2.8093991862
 31
0.0
 11
6.2088067982
 21
2.8096705435
 31
0.0
 11
6.2099642258
 21
2.8099419009
 31
0.0
 11
6.2109121406
 21
2.8102132582
 31
0.0
 11
6.2113072671
 21
2.8103489368
 31
0.0
 11
6.211649727
 21
2.8104846155
 31
0.0
 11
6.2119395088
 21
2.8106202942
 31
0.0
 11
6.2121766104
 21
2.8107559728
 31
0.0
 11
6.2123610298
 21
2.8108916515
 31
0.0
 11
6.2124927651
 21
2.8110273301
 31
0.0
 11
6.2125718142
 21
2.8111630088
 31
0.0
 11
6.212598175
 21
2.8112986875
 31
0.0
  0
SPLINE
  5
274
100
AcDbEntity
  8
0
100
AcDbSpline
 62
6
  6
CONTINUOUS
 70
0
 71
3
 72
9
 73
5
 74
3
 42
0.0000001
 43
0.0000001
 44
0.0000000001
 12
0.0
 22
0.0000886471
 32
0.0
 13
0.0000237714
 23
0.0000854004
 33
0.0
 40
0.0
 40
0.0
 40
0.0
 40
0.0
 40
0.7455717585
 40
1.0
 40
1.0
 40
1.0
 40
1.0
 10
5.4332588922
 20
2.815764049
 30
0.0
 10
5.4332588922
 20
2.8157860799
 30
0.0
 10
5.43326206
 20
2.815815746
 30
0.0
 10
5.4332690771
 20
2.8158444554
 30
0.0
 10
5.4332710931
 20
2.8158516981
 30
0.0
 11
5.4332588922
 21
2.815764049
 31
0.0
 11
5.4332657556
 21
2.8158297845
 31
0.0
 11
5.4332710931
 21
2.8158516981
 31
0.0
  0
SPLINE
  5
275
100
AcDbEntity
  8
0
100
AcDbSpline
 62
6
  6
CONTINUOUS
 70
0
 71
3
 72
67
 73
63
 74
61
 42
0.0000001
 43
0.0000001
 44
0.0000000001
 12
0.219588391
 22
0.7888855971
 32
0.0
 13
0.709176065
 23
0.4094250304
 33
0.0
 40
0.0
 40
0.0
 40
0.0
 40
0.0
 40
0.0004106988
 40
0.0006934885
 40
0.0010374015
 40
0.001446098
 40
0.0019217141
 40
0.0024655709
 40
0.0030785242
 40
0.0045137412
 40
0.0062302907
 40
0.0082294264
 40
0.0105110138
 40
0.0130742144
 40
0.0159179461
 40
0.0224418931
 40
0.0300716939
 40
0.0387906162
 40
0.0485779561
 40
0.0594126093
 40
0.0712705431
 40
0.0841230543
 40
0.0979409337
 40
0.1126935363
 40
0.144860464
 40
0.1803275805
 40
0.2187643766
 40
0.2598155865
 40
0.3031000736
 40
0.3482159424
 40
0.3947454854
 40
0.4422564238
 40
0.4903081318
 40
0.5384535643
 40
0.5862454078
 40
0.6332392953
 40
0.6789991637
 40
0.7231012428
 40
0.7651361685
 40
0.8047149343
 40
0.8414688814
 40
0.8750570139
 40
0.8905657899
 40
0.9051694
 40
0.9188329155
 40
0.931526142
 40
0.9432201488
 40
0.953886624
 40
0.9635021159
 40
0.9720458313
 40
0.9794974477
 40
0.9858410717
 40
0.9885939969
 40
0.9910660401
 40
0.9932562065
 40
0.9951638019
 40
0.9967890879
 40
0.99813373
 40
0.9987018755
 40
0.9992014395
 40
0.9996335503
 40
1.0
 40
1.0
 40
1.0
 40
1.0
 10
5.4332710931
 20
2.8158516981
 30
0.0
 10
5.4333011547
 20
2.8159596962
 30
0.0
 10
5.4334347256
 20
2.8161130392
 30
0.0
 10
5.4336639409
 20
2.8162753296
 30
0.0
 10
5.4339131983
 20
2.8164114454
 30
0.0
 10
5.4342198421
 20
2.8165468483
 30
0.0
 10
5.4345854942
 20
2.8166828008
 30
0.0
 10
5.4350098802
 20
2.8168188844
 30
0.0
 10
5.4356909945
 20
2.8170108347
 30
0.0
 10
5.43669177
 20
2.8172460353
 30
0.0
 10
5.4380716271
 20
2.8175167935
 30
0.0
 10
5.4396861453
 20
2.8177882032
 30
0.0
 10
5.4415344435
 20
2.8180601975
 30
0.0
 10
5.4436154124
 20
2.818332606
 30
0.0
 10
5.4468497258
 20
2.8187138874
 30
0.0
 10
5.4514658632
 20
2.8191827854
 30
0.0
 10
5.4576857149
 20
2.8197248812
 30
0.0
 10
5.4647991782
 20
2.8202682235
 30
0.0
 10
5.4727895856
 20
2.8208126616
 30
0.0
 10
5.4816385535
 20
2.8213577288
 30
0.0
 10
5.4913255972
 20
2.821903226
 30
0.0
 10
5.5018280981
 20
2.822449147
 30
0.0
 10
5.5131216951
 20
2.8229953925
 30
0.0
 10
5.5296835489
 20
2.8237457573
 30
0.0
 10
5.552152612
 20
2.824674814
 30
0.0
 10
5.5810852358
 20
2.8257618129
 30
0.0
 10
5.6124444252
 20
2.8268501493
 30
0.0
 10
5.645938594
 20
2.8279394239
 30
0.0
 10
5.6812567615
 20
2.829029386
 30
0.0
 10
5.7180709515
 20
2.8301198641
 30
0.0
 10
5.7560392675
 20
2.8312106646
 30
0.0
 10
5.7948092617
 20
2.8323017224
 30
0.0
 10
5.8340204959
 20
2.8333928916
 30
0.0
 10
5.8733084342
 20
2.8344840947
 30
0.0
 10
5.912307522
 20
2.8355752047
 30
0.0
 10
5.9506551964
 20
2.8366661302
 30
0.0
 10
5.9879953093
 20
2.8377567619
 30
0.0
 10
6.0239812482
 20
2.8388469399
 30
0.0
 10
6.0582792107
 20
2.8399365796
 30
0.0
 10
6.0905704016
 20
2.8410253315
 30
0.0
 10
6.1205546017
 20
2.8421130156
 30
0.0
 10
6.1439700554
 20
2.8430409581
 30
0.0
 10
6.1613415676
 20
2.843789832
 30
0.0
 10
6.1732781121
 20
2.8443362143
 30
0.0
 10
6.1844452812
 20
2.8448823997
 30
0.0
 10
6.1948172497
 20
2.8454282663
 30
0.0
 10
6.2043699548
 20
2.8459736858
 30
0.0
 10
6.2130811083
 20
2.8465186576
 30
0.0
 10
6.2209305599
 20
2.8470629541
 30
0.0
 10
6.2279002527
 20
2.8476060841
 30
0.0
 10
6.2339738892
 20
2.8481479086
 30
0.0
 10
6.2384667455
 20
2.8486169503
 30
0.0
 10
6.2416014127
 20
2.8489987036
 30
0.0
 10
6.2436071239
 20
2.8492709887
 30
0.0
 10
6.2453797958
 20
2.8495428116
 30
0.0
 10
6.2469184299
 20
2.8498139911
 30
0.0
 10
6.2482222498
 20
2.8500844115
 30
0.0
 10
6.249159437
 20
2.8503197636
 30
0.0
 10
6.2497892808
 20
2.8505122872
 30
0.0
 10
6.2501756049
 20
2.8506482635
 30
0.0
 10
6.2505031219
 20
2.8507839683
 30
0.0
 10
6.2506981388
 20
2.8508821439
 30
0.0
 10
6.2507847646
 20
2.8509321551
 30
0.0
 11
5.4332710931
 21
2.8158516981
 31
0.0
 11
5.4334662558
 21
2.8161255907
 31
0.0
 11
5.4336529602
 21
2.8162625803
 31
0.0
 11
5.4338990057
 21
2.8163995941
 31
0.0
 11
5.4342043368
 21
2.8165366283
 31
0.0
 11
5.4345688978
 21
2.8166736796
 31
0.0
 11
5.434992633
 21
2.8168107442
 31
0.0
 11
5.4354754867
 21
2.8169478186
 31
0.0
 11
5.4366183274
 21
2.8172219825
 31
0.0
 11
5.4379969746
 21
2.8174961427
 31
0.0
 11
5.4396109054
 21
2.8177702736
 31
0.0
 11
5.4414590293
 21
2.8180443724
 31
0.0
 11
5.4435400046
 21
2.8183184466
 31
0.0
 11
5.4458524882
 21
2.8185925033
 31
0.0
 11
5.4511666085
 21
2.8191405941
 31
0.0
 11
5.4573903886
 21
2.8196887008
 31
0.0
 11
5.4645090415
 21
2.8202368379
 31
0.0
 11
5.472504902
 21
2.8207849879
 31
0.0
 11
5.4813602015
 21
2.8213331329
 31
0.0
 11
5.4910549076
 21
2.8218812635
 31
0.0
 11
5.5015652508
 21
2.8224293842
 31
0.0
 11
5.5128671111
 21
2.822977501
 31
0.0
 11
5.5249352371
 21
2.8235256186
 31
0.0
 11
5.5512531732
 21
2.8246218572
 31
0.0
 11
5.580275683
 21
2.8257180974
 31
0.0
 11
5.6117315953
 21
2.826814335
 31
0.0
 11
5.6453296079
 21
2.8279105686
 31
0.0
 11
5.6807573228
 21
2.8290068018
 31
0.0
 11
5.7176854025
 21
2.8301030388
 31
0.0
 11
5.7557716017
 21
2.8311992849
 31
0.0
 11
5.7946617685
 21
2.832295549
 31
0.0
 11
5.8339949326
 21
2.8333918301
 31
0.0
 11
5.8734048751
 21
2.8344881137
 31
0.0
 11
5.9125251592
 21
2.8355843868
 31
0.0
 11
5.9509917552
 21
2.8366806403
 31
0.0
 11
5.9884474205
 21
2.8377768748
 31
0.0
 11
6.0245449572
 21
2.8388731053
 31
0.0
 11
6.0589489301
 21
2.8399693551
 31
0.0
 11
6.0913405255
 21
2.8410656201
 31
0.0
 11
6.1214175155
 21
2.8421618869
 31
0.0
 11
6.1489002092
 21
2.8432581432
 31
0.0
 11
6.1615881553
 21
2.8438062657
 31
0.0
 11
6.1735341476
 21
2.8443543846
 31
0.0
 11
6.1847094526
 21
2.844902501
 31
0.0
 11
6.1950891818
 21
2.8454506199
 31
0.0
 11
6.2046494347
 21
2.8459987471
 31
0.0
 11
6.2133667496
 21
2.8465468867
 31
0.0
 11
6.2212215523
 21
2.847095028
 31
0.0
 11
6.2281962998
 21
2.8476431523
 31
0.0
 11
6.234273592
 21
2.8481912424
 31
0.0
 11
6.2394392457
 21
2.8487393184
 31
0.0
 11
6.2416768329
 21
2.8490133697
 31
0.0
 11
6.2436824932
 21
2.84928744
 31
0.0
 11
6.2454549012
 21
2.8495615372
 31
0.0
 11
6.2469927454
 21
2.8498356682
 31
0.0
 11
6.2482951119
 21
2.8501098238
 31
0.0
 11
6.249361533
 21
2.8503839761
 31
0.0
 11
6.2498061254
 21
2.850521042
 31
0.0
 11
6.2501915651
 21
2.8506580962
 31
0.0
 11
6.2505177967
 21
2.8507951351
 31
0.0
 11
6.2507847646
 21
2.8509321551
 31
0.0
  0
ENDSEC
  0
SECTION
  2
OBJECTS
  0
DICTIONARY
  5
C
100
AcDbDictionary
280
0
281
1
  3
ACAD_GROUP
350
D
  3
ACAD_MLINESTYLE
350
17
  3
ACAD_LAYOUT
350
1A
  3
ACAD_PLOTSETTINGS
350
19
  3
ACAD_PLOTSTYLENAME
350
E
  0
DICTIONARY
  5
D
102
{ACAD_REACTORS
330
C
102
}
100
AcDbDictionary
280
0
281
1
  0
ACDBDICTIONARYWDFLT
  5
E
102
{ACAD_REACTORS
330
C
102
}
100
AcDbDictionary
281
1
  3
Normal
350
F
100
AcDbDictionaryWithDefault
340
F
  0
DICTIONARY
  5
17
102
{ACAD_REACTORS
330
C
102
}
100
AcDbDictionary
280
0
281
1
  3
Standard
350
18
  0
DICTIONARY
  5
19
102
{ACAD_REACTORS
330
C
102
}
100
AcDbDictionary
281
1
  0
DICTIONARY
  5
1A
102
{ACAD_REACTORS
330
C
102
}
100
AcDbDictionary
281
1
  3
Model
350
276
  3
Layout1
350
277
  0
ACDBPLACEHOLDER
  5
F
102
{ACAD_REACTORS
330
E
102
}
  0
MLINESTYLE
  5
18
102
{ACAD_REACTORS
330
17
102
}
100
AcDbMlineStyle
  2
STANDARD
 70
0
  3

 62
256
 51
90.0
 52
90.0
 71
2
 49
0.5
 62
256
  6
BYLAYER
 49
-0.5
 62
256
  6
BYLAYER
  0
LAYOUT
  5
276
102
{ACAD_REACTORS
330
1A
102
}
100
AcDbPlotSettings
  1

  2
none_device
  4
ISO_A4_(297.00_x_210.00_MM)
  6

 40
0.0
 41
0.0
 42
0.0
 43
0.0
 44
297.0
 45
210.0
 46
0.0
 47
0.0
 48
0.0
 49
0.0
140
0.0
141
0.0
142
1.0
143
1.0
 70
1024
 72
0
 73
0
 74
0
  7

 75
0
147
1.0
148
0.0
149
0.0
100
AcDbLayout
  1
Model
 70
0
 71
0
 10
0.0
 20
0.0
 11
11.6929133858
 21
8.2677165354
 12
0.0
 22
0.0
 32
0.0
 14
0.0
 24
0.0
 34
0.0
 15
0.0
 25
0.0
 35
0.0
146
0.0
 13
0.0
 23
0.0
 33
0.0
 16
1.0
 26
0.0
 36
0.0
 17
0.0
 27
1.0
 37
0.0
 76
0
330
203
345
0
346
0
  0
LAYOUT
  5
277
102
{ACAD_REACTORS
330
1A
102
}
100
AcDbPlotSettings
  1

  2
none_device
  4
ISO_A4_(297.00_x_210.00_MM)
  6

 40
0.0
 41
0.0
 42
0.0
 43
0.0
 44
297.0
 45
210.0
 46
0.0
 47
0.0
 48
0.0
 49
0.0
140
0.0
141
0.0
142
1.0
143
1.0
 70
0
 72
0
 73
0
 74
0
  7

 75
0
147
1.0
148
0.0
149
0.0
100
AcDbLayout
  1
Layout1
 70
0
 71
1
 10
0.0
 20
0.0
 11
11.6929133858
 21
8.2677165354
 12
0.0
 22
0.0
 32
0.0
 14
0.0
 24
0.0
 34
0.0
 15
0.0
 25
0.0
 35
0.0
146
0.0
 13
0.0
 23
0.0
 33
0.0
 16
1.0
 26
0.0
 36
0.0
 17
0.0
 27
1.0
 37
0.0
 76
0
330
204
345
0
346
0
  0
ENDSEC
  0
EOF
