  0
SECTION
  2
HEADER
  9
$ACADVER
  1
AC1021
  9
$DWGCODEPAGE
  3
ANSI_1252
  9
$EXTMAX
 10
11.6929133858
 20
8.2677165354
 30
0.0
  9
$EXTMIN
 10
0.0
 20
0.0
 30
0.0
  9
$LIMMIN
 10
0.0
 20
0.0
  9
$LIMMAX
 10
11.6929133858
 20
8.2677165354
  9
$VIEWCTR
 10
5.8464566929
 20
4.1338582677
  9
$VIEWSIZE
 40
8.2677165354
  9
$CLAYER
  8
0
  9
$LTSCALE
 40
0.6431102362
  9
$CELTYPE
  6
BYLAYER
  9
$DIMSCALE
 40
1.0
  9
$DIMASZ
 40
0.1875
  9
$DIMEXO
 40
0.0730807087
  9
$DIMDLI
 40
0.4443307087
  9
$DIMEXE
 40
0.2104724409
  9
$DIMCEN
 40
0.1052362205
  9
$DIMLFAC
 40
1.0
  9
$DIMBLK
  1
_CLOSED
  9
$DIMTXT
 40
0.15625
  9
$DIMTOL
 70
0
  9
$DIMLIM
 70
0
  9
$DIMTFAC
 40
1.0
  9
$PDMODE
 70
3
  9
$PDSIZE
 40
0.3125
  9
$HANDSEED
  5
337
  9
$TILEMODE
 70
1
  9
$MEASUREMENT
 70
0
  9
$INSUNITS
 70
1
  0
ENDSEC
  0
SECTION
  2
CLASSES
  0
CLASS
  1
ACDBDICTIONARYWDFLT
  2
AcDbDictionaryWithDefault
  3
AutoCAD 2000
 90
0
 91
1
280
0
281
0
  0
CLASS
  1
ACDBPLACEHOLDER
  2
AcDbPlaceHolder
  3
AutoCAD 2000
 90
0
 91
1
280
0
281
0
  0
CLASS
  1
LAYOUT
  2
AcDbLayout
  3
AutoCAD 2000
 90
0
 91
0
280
0
281
0
  0
ENDSEC
  0
SECTION
  2
TABLES
  0
TABLE
  2
VPORT
  5
8
100
AcDbSymbolTable
 70
2
  0
VPORT
  5
1F4
100
AcDbSymbolTableRecord
100
AcDbViewportTableRecord
  2
*ACTIVE
 70
0
 10
0.0
 20
0.0
 11
1.0
 21
1.0
 12
5.8464566929
 22
4.1338582677
 13
0.0
 23
0.0
 14
1.0
 24
1.0
 15
0.0
 25
0.0
 16
0.0
 26
0.0
 36
1.0
 17
0.0
 27
0.0
 37
0.0
 40
8.2677165354
 41
1.4142857143
 42
50.0
 43
0.0
 44
0.0
 50
0.0
 51
0.0
 71
0
 72
100
 73
1
 74
1
 75
0
 76
0
 77
0
 78
0
  0
ENDTAB
  0
TABLE
  2
LTYPE
  5
5
100
AcDbSymbolTable
 70
6
  0
LTYPE
  5
14
100
AcDbSymbolTableRecord
100
AcDbLinetypeTableRecord
  2
BYBLOCK
 70
0
  3

 72
65
 73
0
 40
0.0
  0
LTYPE
  5
15
100
AcDbSymbolTableRecord
100
AcDbLinetypeTableRecord
  2
BYLAYER
 70
0
  3

 72
65
 73
0
 40
0.0
  0
LTYPE
  5
16
100
AcDbSymbolTableRecord
100
AcDbLinetypeTableRecord
  2
CONTINUOUS
 70
64
  3
Solid line
 72
65
 73
0
 40
0.0
  0
LTYPE
  5
1F5
100
AcDbSymbolTableRecord
100
AcDbLinetypeTableRecord
  2
CENTER
 70
64
  3
____ _ ____ _ ____ _ ____ _ ____ _ ____ _ ____
 72
65
 73
4
 40
0.6
 49
0.375
 74
0
 49
-0.075
 74
0
 49
0.075
 74
0
 49
-0.075
 74
0
  0
LTYPE
  5
1F6
100
AcDbSymbolTableRecord
100
AcDbLinetypeTableRecord
  2
HIDDEN
 70
64
  3
- - - - - - - - - - - - - - - - - - - -
 72
65
 73
2
 40
0.2
 49
0.1
 74
0
 49
-0.1
 74
0
  0
LTYPE
  5
1F7
100
AcDbSymbolTableRecord
100
AcDbLinetypeTableRecord
  2
PHANTOM
 70
64
  3
_____ _ _ _____ _ _ _____ _ _ _____
 72
65
 73
6
 40
0.8
 49
0.45
 74
0
 49
-0.05
 74
0
 49
0.1
 74
0
 49
-0.05
 74
0
 49
0.1
 74
0
 49
-0.05
 74
0
  0
LTYPE
  5
1F8
100
AcDbSymbolTableRecord
100
AcDbLinetypeTableRecord
  2
DOT
 70
64
  3
. . . . . . . . . . . . . . . . . . . .
 72
65
 73
2
 40
0.2
 49
0.1
 74
0
 49
-0.1
 74
0
  0
LTYPE
  5
1F9
100
AcDbSymbolTableRecord
100
AcDbLinetypeTableRecord
  2
DASHED
 70
64
  3
- - - - - - - - - - - - - - - - - - - -
 72
65
 73
2
 40
0.2
 49
0.1
 74
0
 49
-0.1
 74
0
  0
ENDTAB
  0
TABLE
  2
LAYER
  5
2
100
AcDbSymbolTable
 70
36
  0
LAYER
  5
10
100
AcDbSymbolTableRecord
100
AcDbLayerTableRecord
  2
0
 70
0
 62
7
  6
CONTINUOUS
370
-3
390
F
  0
LAYER
  5
1FA
100
AcDbSymbolTableRecord
100
AcDbLayerTableRecord
  2
DEFAULT_1
 70
0
 62
7
  6
CENTER
370
-3
390
F
  0
LAYER
  5
1FB
100
AcDbSymbolTableRecord
100
AcDbLayerTableRecord
  2
DEFAULT_2
 70
0
 62
8
  6
HIDDEN
370
-3
390
F
  0
LAYER
  5
1FC
100
AcDbSymbolTableRecord
100
AcDbLayerTableRecord
  2
DEFAULT_3
 70
0
 62
7
  6
PHANTOM
370
-3
390
F
  0
LAYER
  5
1FD
100
AcDbSymbolTableRecord
100
AcDbLayerTableRecord
  2
DEFAULT_COORDINATE_SYSTEM
 70
0
 62
7
  6
CONTINUOUS
370
-3
390
F
  0
LAYER
  5
1FE
100
AcDbSymbolTableRecord
100
AcDbLayerTableRecord
  2
DEFAULT_DATUM_AXES
 70
0
 62
7
  6
CONTINUOUS
370
-3
390
F
  0
LAYER
  5
1FF
100
AcDbSymbolTableRecord
100
AcDbLayerTableRecord
  2
DEFAULT_DATUM_CURVES
 70
0
 62
7
  6
CONTINUOUS
370
-3
390
F
  0
LAYER
  5
200
100
AcDbSymbolTableRecord
100
AcDbLayerTableRecord
  2
DEFAULT_DATUM_PLANES
 70
0
 62
7
  6
CONTINUOUS
370
-3
390
F
  0
ENDTAB
  0
TABLE
  2
STYLE
  5
3
100
AcDbSymbolTable
 70
1
  0
STYLE
  5
11
100
AcDbSymbolTableRecord
100
AcDbTextStyleTableRecord
  2
STANDARD
 70
0
 40
0.0
 41
0.8
 50
0.0
 71
0
 42
0.2
  3
txt
  4

  0
STYLE
  5
201
100
AcDbSymbolTableRecord
100
AcDbTextStyleTableRecord
  2
TEXTSTYLE_1
 70
0
 40
0.0
 41
0.8
 50
0.0
 71
0
 42
0.2
  3
gdt
  4

  0
ENDTAB
  0
TABLE
  2
VIEW
  5
6
100
AcDbSymbolTable
 70
0
  0
ENDTAB
  0
TABLE
  2
UCS
  5
7
100
AcDbSymbolTable
 70
0
  0
ENDTAB
  0
TABLE
  2
APPID
  5
9
100
AcDbSymbolTable
 70
1
  0
APPID
  5
202
100
AcDbSymbolTableRecord
100
AcDbRegAppTableRecord
  2
ACAD
 70
0
  0
ENDTAB
  0
TABLE
  2
BLOCK_RECORD
  5
1
100
AcDbSymbolTable
 70
0
  0
BLOCK_RECORD
  5
203
100
AcDbSymbolTableRecord
100
AcDbBlockTableRecord
  2
*Model_Space
  0
BLOCK_RECORD
  5
204
100
AcDbSymbolTableRecord
100
AcDbBlockTableRecord
  2
*Paper_Space
  0
ENDTAB
  0
TABLE
  2
DIMSTYLE
  5
A
100
AcDbSymbolTable
 70
1
100
AcDbDimStyleTable
 71
0
  0
DIMSTYLE
105
205
100
AcDbSymbolTableRecord
100
AcDbDimStyleTableRecord
  2
STANDARD
 70
0
  3

  4

 40
1.0
 41
0.1875
 42
0.0625
 43
0.38
 44
0.18
 45
0.0
 46
0.0
 47
0.001
 48
0.001
140
0.15625
141
0.09
142
0.0
143
25.4
144
1.0
145
0.0
146
1.0
147
0.09
 71
0.0
 72
0.0
 73
1
 74
1
 75
0
 76
0
 77
0
 78
4
170
0
171
2
172
0
173
0
174
0
175
0
176
0
177
0
178
0
270
2
271
3
272
3
273
2
274
2
275
0
280
0
281
0
282
0
283
1
284
4
285
0
286
0
287
3
288
0
340
11
  0
ENDTAB
  0
ENDSEC
  0
SECTION
  2
BLOCKS
  0
BLOCK
  5
20
100
AcDbEntity
  8
0
100
AcDbBlockBegin
  2
*Model_Space
 70
0
 10
0.0
 20
0.0
 30
0.0
  3
*Model_Space
  1

  0
ENDBLK
  5
21
100
AcDbEntity
  8
0
100
AcDbBlockEnd
  0
BLOCK
  5
1C
100
AcDbEntity
  8
0
100
AcDbBlockBegin
  2
*Paper_Space
 70
0
 10
0.0
 20
0.0
 30
0.0
  3
*Paper_Space
  1

  0
ENDBLK
  5
1D
100
AcDbEntity
  8
0
100
AcDbBlockEnd
  0
ENDSEC
  0
SECTION
  2
ENTITIES
  0
LINE
  5
206
100
AcDbEntity
  8
0
100
AcDbLine
 62
6
  6
CONTINUOUS
 10
4.8835372698
 20
3.3138004122
 11
4.8724904397
 21
3.3269655116
  0
LINE
  5
207
100
AcDbEntity
  8
0
100
AcDbLine
 62
6
  6
CONTINUOUS
 10
4.8492183317
 20
3.3750526936
 11
4.885335858
 21
3.3497331448
  0
LINE
  5
208
100
AcDbEntity
  8
0
100
AcDbLine
 62
6
  6
CONTINUOUS
 10
4.8554438664
 20
3.4462108809
 11
4.8915613927
 21
3.4208913321
  0
LINE
  5
209
100
AcDbEntity
  8
0
100
AcDbLine
 62
6
  6
CONTINUOUS
 10
4.8554438664
 20
3.4462108809
 11
4.8550197678
 21
3.4467919492
  0
LINE
  5
20A
100
AcDbEntity
  8
0
100
AcDbLine
 62
6
  6
CONTINUOUS
 10
4.8487946294
 20
3.3756387459
 11
4.8492183317
 21
3.3750526936
  0
LINE
  5
20B
100
AcDbEntity
  8
0
100
AcDbLine
 62
6
  6
CONTINUOUS
 10
4.8616694011
 20
3.5173690682
 11
4.8977869274
 21
3.4920495194
  0
LINE
  5
20C
100
AcDbEntity
  8
0
100
AcDbLine
 62
6
  6
CONTINUOUS
 10
4.8616694011
 20
3.5173690682
 11
4.8612456921
 21
3.5179550427
  0
LINE
  5
20D
100
AcDbEntity
  8
0
100
AcDbLine
 62
6
  6
CONTINUOUS
 10
4.883541577
 20
3.3138000353
 11
5.6187246498
 21
3.2494798508
  0
LINE
  5
20E
100
AcDbEntity
  8
0
100
AcDbLine
 62
6
  6
CONTINUOUS
 10
4.8812816197
 20
3.5791434343
 11
4.9040124621
 21
3.5632077067
  0
LINE
  5
20F
100
AcDbEntity
  8
0
100
AcDbLine
 62
6
  6
CONTINUOUS
 10
4.8811824042
 20
3.5795125258
 11
4.8812816197
 21
3.5791434343
  0
LINE
  5
210
100
AcDbEntity
  8
0
100
AcDbLine
 62
6
  6
CONTINUOUS
 10
4.8495728654
 20
3.3845340232
 11
4.8495724709
 21
3.3845290605
  0
LINE
  5
211
100
AcDbEntity
  8
0
100
AcDbLine
 62
6
  6
CONTINUOUS
 10
4.8550197678
 20
3.4467919492
 11
4.8550201623
 21
3.4467969118
  0
LINE
  5
212
100
AcDbEntity
  8
0
100
AcDbLine
 62
6
  6
CONTINUOUS
 10
4.8672392704
 20
4.1142527659
 11
4.8283690357
 21
3.6699639504
  0
LINE
  5
213
100
AcDbEntity
  8
0
100
AcDbLine
 62
6
  6
CONTINUOUS
 10
4.8487946295
 20
3.3756387463
 11
4.8495728673
 21
3.3845340449
  0
LINE
  5
214
100
AcDbEntity
  8
0
100
AcDbLine
 62
6
  6
CONTINUOUS
 10
4.8550201642
 20
3.4467969336
 11
4.855798402
 21
3.4556922322
  0
LINE
  5
215
100
AcDbEntity
  8
0
100
AcDbLine
 62
6
  6
CONTINUOUS
 10
4.8612456989
 20
3.5179551209
 11
4.8620239367
 21
3.5268504195
  0
LINE
  5
216
100
AcDbEntity
  8
0
100
AcDbLine
 62
6
  6
CONTINUOUS
 10
5.6563268254
 20
3.2814698224
 11
5.6248061345
 21
3.3035671553
  0
LINE
  5
217
100
AcDbEntity
  8
0
100
AcDbLine
 62
6
  6
CONTINUOUS
 10
4.8915873034
 20
3.4211870828
 11
4.8915877035
 21
3.4211920669
  0
LINE
  5
218
100
AcDbEntity
  8
0
100
AcDbLine
 62
6
  6
CONTINUOUS
 10
4.904038773
 20
3.5635084415
 11
4.9025084823
 21
3.5460171391
  0
LINE
  5
219
100
AcDbEntity
  8
0
100
AcDbLine
 62
6
  6
CONTINUOUS
 10
4.8978132382
 20
3.4923502542
 11
4.8962829476
 21
3.4748589518
  0
LINE
  5
21A
100
AcDbEntity
  8
0
100
AcDbLine
 62
6
  6
CONTINUOUS
 10
4.8915877035
 20
3.4211920669
 11
4.8900574129
 21
3.4037007645
  0
LINE
  5
21B
100
AcDbEntity
  8
0
100
AcDbLine
 62
6
  6
CONTINUOUS
 10
4.8853621688
 20
3.3500338796
 11
4.8838318781
 21
3.3325425765
  0
LINE
  5
21C
100
AcDbEntity
  8
0
100
AcDbLine
 62
6
  6
CONTINUOUS
 10
4.9561312316
 20
3.6387098099
 11
4.9578743465
 21
3.6586337038
  0
LINE
  5
21D
100
AcDbEntity
  8
0
100
AcDbLine
 62
6
  6
CONTINUOUS
 10
5.6671491955
 20
3.3494057937
 11
5.6310316692
 21
3.3747253426
  0
LINE
  5
21E
100
AcDbEntity
  8
0
100
AcDbLine
 62
6
  6
CONTINUOUS
 10
5.6733747302
 20
3.420563981
 11
5.6372572039
 21
3.4458835299
  0
LINE
  5
21F
100
AcDbEntity
  8
0
100
AcDbLine
 62
6
  6
CONTINUOUS
 10
4.9521464528
 20
3.6390584328
 11
5.6076425642
 21
3.5817099541
  0
LINE
  5
220
100
AcDbEntity
  8
0
100
AcDbLine
 62
6
  6
CONTINUOUS
 10
5.734906211
 20
3.5906522245
 11
4.8283690358
 21
3.6699639504
  0
LINE
  5
221
100
AcDbEntity
  8
0
100
AcDbLine
 62
6
  6
CONTINUOUS
 10
5.6796002649
 20
3.4917221682
 11
5.6434827386
 21
3.5170417172
  0
LINE
  5
222
100
AcDbEntity
  8
0
100
AcDbLine
 62
6
  6
CONTINUOUS
 10
5.6247798236
 20
3.3032664204
 11
5.6243120802
 21
3.3039135323
  0
LINE
  5
223
100
AcDbEntity
  8
0
100
AcDbLine
 62
6
  6
CONTINUOUS
 10
5.6466055811
 20
3.5352756387
 11
5.6076425642
 21
3.5817099541
  0
LINE
  5
224
100
AcDbEntity
  8
0
100
AcDbLine
 62
6
  6
CONTINUOUS
 10
5.6671491955
 20
3.3494057937
 11
5.6675729553
 21
3.3488204081
  0
LINE
  5
225
100
AcDbEntity
  8
0
100
AcDbLine
 62
6
  6
CONTINUOUS
 10
5.6733747302
 20
3.420563981
 11
5.6737983309
 21
3.4199767916
  0
LINE
  5
226
100
AcDbEntity
  8
0
100
AcDbLine
 62
9
  6
CONTINUOUS
 10
4.904371022
 20
3.8384369723
 11
4.843745936
 21
3.8457227256
  0
LINE
  5
227
100
AcDbEntity
  8
0
100
AcDbLine
 62
6
  6
CONTINUOUS
 10
5.6796002649
 20
3.4917221682
 11
5.680023973
 21
3.4911361835
  0
LINE
  5
228
100
AcDbEntity
  8
0
100
AcDbLine
 62
9
  6
CONTINUOUS
 10
5.2924905064
 20
3.7543571083
 11
5.2816376233
 21
3.6303080874
  0
LINE
  5
229
100
AcDbEntity
  8
0
100
AcDbLine
 62
6
  6
CONTINUOUS
 10
4.8726577838
 20
3.3273239346
 11
4.8724903404
 21
3.32696563
  0
LINE
  5
22A
100
AcDbEntity
  8
0
100
AcDbLine
 62
9
  6
CONTINUOUS
 10
4.9257023661
 20
4.1042457758
 11
4.8672392704
 21
4.1142527659
  0
LINE
  5
22B
100
AcDbEntity
  8
0
100
AcDbLine
 62
6
  6
CONTINUOUS
 10
5.6563268254
 20
3.2814698224
 11
5.6564232826
 21
3.2811087693
  0
LINE
  5
22C
100
AcDbEntity
  8
0
100
AcDbLine
 62
6
  6
CONTINUOUS
 10
6.1148080885
 20
4.0053080874
 11
6.6566376233
 21
4.0053080874
  0
LINE
  5
22D
100
AcDbEntity
  8
0
100
AcDbLine
 62
6
  6
CONTINUOUS
 10
6.6566376233
 20
4.0803080874
 11
6.6666376233
 21
4.0803080874
  0
LINE
  5
22E
100
AcDbEntity
  8
0
100
AcDbLine
 62
6
  6
CONTINUOUS
 10
5.6036577854
 20
3.5820585771
 11
5.6054009002
 21
3.601982471
  0
LINE
  5
22F
100
AcDbEntity
  8
0
100
AcDbLine
 62
6
  6
CONTINUOUS
 10
4.8625429688
 20
3.5273539936
 11
4.862024038
 21
3.5268515544
  0
LINE
  5
230
100
AcDbEntity
  8
0
100
AcDbLine
 62
6
  6
CONTINUOUS
 10
5.6247798236
 20
3.3032664204
 11
5.6263101143
 21
3.3207577229
  0
LINE
  5
231
100
AcDbEntity
  8
0
100
AcDbLine
 62
6
  6
CONTINUOUS
 10
5.6310053583
 20
3.3744246077
 11
5.632535649
 21
3.3919159102
  0
LINE
  5
232
100
AcDbEntity
  8
0
100
AcDbLine
 62
6
  6
CONTINUOUS
 10
5.637230893
 20
3.445582795
 11
5.6387611837
 21
3.4630740975
  0
LINE
  5
233
100
AcDbEntity
  8
0
100
AcDbLine
 62
6
  6
CONTINUOUS
 10
5.6434564277
 20
3.5167409823
 11
5.6449867193
 21
3.5342322956
  0
LINE
  5
234
100
AcDbEntity
  8
0
100
AcDbLine
 62
6
  6
CONTINUOUS
 10
5.6667946599
 20
3.3399244424
 11
5.6675728977
 21
3.348819741
  0
LINE
  5
235
100
AcDbEntity
  8
0
100
AcDbLine
 62
6
  6
CONTINUOUS
 10
5.6730201946
 20
3.4110826297
 11
5.6737984324
 21
3.4199779283
  0
LINE
  5
236
100
AcDbEntity
  8
0
100
AcDbLine
 62
6
  6
CONTINUOUS
 10
5.6792457293
 20
3.482240817
 11
5.6800239671
 21
3.4911361156
  0
LINE
  5
237
100
AcDbEntity
  8
0
100
AcDbLine
 62
6
  6
CONTINUOUS
 10
4.8563174341
 20
3.4561958063
 11
4.8557983951
 21
3.455692154
  0
LINE
  5
238
100
AcDbEntity
  8
0
100
AcDbLine
 62
6
  6
CONTINUOUS
 10
4.8500918994
 20
3.385037619
 11
4.8495728654
 21
3.3845340232
  0
LINE
  5
239
100
AcDbEntity
  8
0
100
AcDbLine
 62
6
  6
CONTINUOUS
 10
4.8811824804
 20
3.5795125898
 11
4.9521464528
 21
3.6390584328
  0
LINE
  5
23A
100
AcDbEntity
  8
0
100
AcDbLine
 62
9
  6
CONTINUOUS
 10
6.3791591041
 20
4.2081515664
 11
6.386677495
 21
4.2080897782
  0
LINE
  5
23B
100
AcDbEntity
  8
0
100
AcDbLine
 62
6
  6
CONTINUOUS
 10
5.734906211
 20
3.5906522245
 11
5.7412350767
 21
3.662991491
  0
LWPOLYLINE
  5
23C
100
AcDbEntity
  8
0
100
AcDbPolyline
 62
6
  6
CONTINUOUS
 90
4
 70
0
 10
5.7412350767
 20
3.662991491
 10
5.746161905
 20
3.699015014
 10
5.755110594
 20
3.736319338
 10
5.7669943018
 20
3.7704885774
  0
LINE
  5
23D
100
AcDbEntity
  8
0
100
AcDbLine
 62
6
  6
CONTINUOUS
 10
5.6464341014
 20
3.5349082931
 11
5.6466054973
 21
3.5352757385
  0
LWPOLYLINE
  5
23E
100
AcDbEntity
  8
0
100
AcDbPolyline
 62
6
  6
CONTINUOUS
 90
11
 70
0
 10
5.7669943018
 20
3.7704885774
 10
5.7852080214
 20
3.8091478298
 10
5.8089236975
 20
3.847234771
 10
5.8370839716
 20
3.8822843958
 10
5.8692903663
 20
3.9137522955
 10
5.905055596
 20
3.9411599682
 10
5.9438571146
 20
3.9640674633
 10
5.9850912184
 20
3.9821550834
 10
6.0281318514
 20
3.9951500357
 10
6.0723249564
 20
4.0028870159
 10
6.1148080885
 20
4.0053080874
  0
LINE
  5
23F
100
AcDbEntity
  8
0
100
AcDbLine
 62
6
  6
CONTINUOUS
 10
4.9030551785
 20
3.5462724622
 11
4.8625429688
 21
3.5273539936
  0
LINE
  5
240
100
AcDbEntity
  8
0
100
AcDbLine
 62
6
  6
CONTINUOUS
 10
4.8968296438
 20
3.4751142749
 11
4.8563174341
 21
3.4561958063
  0
LINE
  5
241
100
AcDbEntity
  8
0
100
AcDbLine
 62
6
  6
CONTINUOUS
 10
4.8906041091
 20
3.4039560876
 11
4.8500918994
 21
3.385037619
  0
LINE
  5
242
100
AcDbEntity
  8
0
100
AcDbLine
 62
9
  6
CONTINUOUS
 10
6.6566376233
 20
4.6303080874
 11
6.2725777525
 21
4.6303080874
  0
LINE
  5
243
100
AcDbEntity
  8
0
100
AcDbLine
 62
6
  6
CONTINUOUS
 10
5.6725011624
 20
3.4105790555
 11
5.6730202522
 21
3.4110832968
  0
LINE
  5
244
100
AcDbEntity
  8
0
100
AcDbLine
 62
6
  6
CONTINUOUS
 10
5.6787266971
 20
3.4817372428
 11
5.6792456302
 21
3.4822397075
  0
LINE
  5
245
100
AcDbEntity
  8
0
100
AcDbLine
 62
6
  6
CONTINUOUS
 10
4.8843785744
 20
3.3327979003
 11
4.8726577838
 21
3.3273239346
  0
LINE
  5
246
100
AcDbEntity
  8
0
100
AcDbLine
 62
6
  6
CONTINUOUS
 10
5.6662756277
 20
3.3394208683
 11
5.6667945998
 21
3.3399237639
  0
LINE
  5
247
100
AcDbEntity
  8
0
100
AcDbLine
 62
6
  6
CONTINUOUS
 10
5.6444400222
 20
3.5339769616
 11
5.6464341014
 21
3.5349082931
  0
LINE
  5
248
100
AcDbEntity
  8
0
100
AcDbLine
 62
6
  6
CONTINUOUS
 10
5.618728957
 20
3.249479474
 11
5.6564237134
 21
3.2811091302
  0
LINE
  5
249
100
AcDbEntity
  8
0
100
AcDbLine
 62
6
  6
CONTINUOUS
 10
5.6382144875
 20
3.4628187743
 11
5.6787266971
 21
3.4817372428
  0
LINE
  5
24A
100
AcDbEntity
  8
0
100
AcDbLine
 62
6
  6
CONTINUOUS
 10
5.6319889528
 20
3.391660587
 11
5.6725011624
 21
3.4105790555
  0
LINE
  5
24B
100
AcDbEntity
  8
0
100
AcDbLine
 62
6
  6
CONTINUOUS
 10
5.6257634181
 20
3.3205023997
 11
5.6662756277
 21
3.3394208683
  0
LINE
  5
24C
100
AcDbEntity
  8
0
100
AcDbLine
 62
6
  6
CONTINUOUS
 10
6.6566376233
 20
4.0053080874
 11
6.6566376233
 21
5.2553080874
  0
LINE
  5
24D
100
AcDbEntity
  8
0
100
AcDbLine
 62
6
  6
CONTINUOUS
 10
6.6666376233
 20
5.1802984742
 11
6.6666376233
 21
4.0803177007
  0
LINE
  5
24E
100
AcDbEntity
  8
0
100
AcDbLine
 62
6
  6
CONTINUOUS
 10
6.6566376233
 20
5.1803080874
 11
6.6666376233
 21
5.1803080874
  0
LINE
  5
24F
100
AcDbEntity
  8
0
100
AcDbLine
 62
6
  6
CONTINUOUS
 10
6.6566376233
 20
5.2553080874
 11
6.112482643
 21
5.2553080874
  0
LINE
  5
250
100
AcDbEntity
  8
0
100
AcDbLine
 62
9
  6
CONTINUOUS
 10
6.1255164017
 20
5.2450098348
 11
6.112482643
 21
5.2553080874
  0
ARC
  5
251
100
AcDbEntity
  8
0
100
AcDbCircle
 62
9
  6
CONTINUOUS
 10
-65.1870578494
 20
12.5278012982
 40
70.7967373523
100
AcDbArc
 50
352.7966369561
 51
352.9232888019
  0
ARC
  5
252
100
AcDbEntity
  8
0
100
AcDbCircle
 62
9
  6
CONTINUOUS
 10
6.079978124
 20
-99.8507270844
 40
104.1752798841
100
AcDbArc
 50
89.6828391121
 51
89.8453565993
  0
ARC
  5
253
100
AcDbEntity
  8
0
100
AcDbCircle
 62
9
  6
CONTINUOUS
 10
5.7894061377
 20
-66.857520748
 40
71.0681203673
100
AcDbArc
 50
89.3008125585
 51
89.518468609
  0
ARC
  5
254
100
AcDbEntity
  8
0
100
AcDbCircle
 62
9
  6
CONTINUOUS
 10
-10.6970121017
 20
5.7119475582
 40
16.50496931
100
AcDbArc
 50
352.6349849349
 51
352.8940528192
  0
ARC
  5
255
100
AcDbEntity
  8
0
100
AcDbCircle
 62
9
  6
CONTINUOUS
 10
-2.995638022
 20
4.0203692428
 40
8.67779707
100
AcDbArc
 50
357.198107859
 51
357.6820541527
  0
ARC
  5
256
100
AcDbEntity
  8
0
100
AcDbCircle
 62
9
  6
CONTINUOUS
 10
6.7452996071
 20
-32.1245504265
 40
36.2475745482
100
AcDbArc
 50
90.1401462746
 51
90.5253518998
  0
ARC
  5
257
100
AcDbEntity
  8
0
100
AcDbCircle
 62
9
  6
CONTINUOUS
 10
0.6418477213
 20
-6.9859029692
 40
12.3752913542
100
AcDbArc
 50
64.3638543611
 51
64.5075225114
  0
ARC
  5
258
100
AcDbEntity
  8
0
100
AcDbCircle
 62
9
  6
CONTINUOUS
 10
-1.3151418093
 20
4.8007779664
 40
6.9305542003
100
AcDbArc
 50
350.1076165117
 51
350.8667536687
  0
ARC
  5
259
100
AcDbEntity
  8
0
100
AcDbCircle
 62
9
  6
CONTINUOUS
 10
1.2634606708
 20
3.4012253223
 40
5.1834538073
100
AcDbArc
 50
7.985460875
 51
8.5559277653
  0
ARC
  5
25A
100
AcDbEntity
  8
0
100
AcDbCircle
 62
9
  6
CONTINUOUS
 10
6.135477191
 20
-1.9806660469
 40
6.0031991602
100
AcDbArc
 50
87.2894702328
 51
87.4422048475
  0
ARC
  5
25B
100
AcDbEntity
  8
0
100
AcDbCircle
 62
9
  6
CONTINUOUS
 10
6.1481132119
 20
-1.633499505
 40
5.6558107215
100
AcDbArc
 50
87.41313448
 51
90.6708179856
  0
ARC
  5
25C
100
AcDbEntity
  8
0
100
AcDbCircle
 62
9
  6
CONTINUOUS
 10
3.4486566586
 20
0.2954467131
 40
4.888466411
100
AcDbArc
 50
53.1678539019
 51
53.2953444207
  0
ARC
  5
25D
100
AcDbEntity
  8
0
100
AcDbCircle
 62
9
  6
CONTINUOUS
 10
4.3807616033
 20
3.402009272
 40
1.795581687
100
AcDbArc
 50
22.8497593408
 51
24.5087408129
  0
ARC
  5
25E
100
AcDbEntity
  8
0
100
AcDbCircle
 62
9
  6
CONTINUOUS
 10
4.0917662729
 20
4.1401518348
 40
0.9899428802
100
AcDbArc
 50
354.4336316269
 51
354.6480523431
  0
ARC
  5
25F
100
AcDbEntity
  8
0
100
AcDbCircle
 62
9
  6
CONTINUOUS
 10
4.3491689563
 20
4.166298334
 40
0.7646654071
100
AcDbArc
 50
350.4314203098
 51
350.7185313399
  0
ARC
  5
260
100
AcDbEntity
  8
0
100
AcDbCircle
 62
9
  6
CONTINUOUS
 10
5.1896055988
 20
4.4918416597
 40
0.696351643
100
AcDbArc
 50
259.1901207998
 51
260.1396085936
  0
ARC
  5
261
100
AcDbEntity
  8
0
100
AcDbCircle
 62
9
  6
CONTINUOUS
 10
4.3605318998
 20
4.1488461779
 40
0.5669275543
100
AcDbArc
 50
355.1389353801
 51
355.487857182
  0
ARC
  5
262
100
AcDbEntity
  8
0
100
AcDbCircle
 62
9
  6
CONTINUOUS
 10
4.4341145253
 20
4.1676737193
 40
0.5084720791
100
AcDbArc
 50
352.1830101354
 51
352.6016661502
  0
ARC
  5
263
100
AcDbEntity
  8
0
100
AcDbCircle
 62
9
  6
CONTINUOUS
 10
4.9516622859
 20
3.7520012457
 40
0.3122673384
100
AcDbArc
 50
80.598804326
 51
81.5540463785
  0
ARC
  5
264
100
AcDbEntity
  8
0
100
AcDbCircle
 62
9
  6
CONTINUOUS
 10
4.9527435395
 20
3.7692331356
 40
0.2961524735
100
AcDbArc
 50
80.2699389774
 51
81.2801648884
  0
ARC
  5
265
100
AcDbEntity
  8
0
100
AcDbCircle
 62
9
  6
CONTINUOUS
 10
4.9540563367
 20
4.0416380413
 40
0.2091872483
100
AcDbArc
 50
256.2600228678
 51
257.5849365804
  0
ARC
  5
266
100
AcDbEntity
  8
0
100
AcDbCircle
 62
9
  6
CONTINUOUS
 10
4.9386285704
 20
3.6306296316
 40
0.1906883523
100
AcDbArc
 50
78.5062359937
 51
79.1263678796
  0
ARC
  5
267
100
AcDbEntity
  8
0
100
AcDbCircle
 62
9
  6
CONTINUOUS
 10
6.4548516298
 20
-0.4016351427
 40
4.5233296772
100
AcDbArc
 50
90.5308161413
 51
90.7372146295
  0
ARC
  5
268
100
AcDbEntity
  8
0
100
AcDbCircle
 62
9
  6
CONTINUOUS
 10
6.542644155
 20
1.4361451421
 40
2.7890956185
100
AcDbArc
 50
101.0732813633
 51
101.3011994207
  0
ARC
  5
269
100
AcDbEntity
  8
0
100
AcDbCircle
 62
9
  6
CONTINUOUS
 10
6.4128639188
 20
1.7881089259
 40
2.3921582328
100
AcDbArc
 50
99.5846700085
 51
99.8520323544
  0
ARC
  5
26A
100
AcDbEntity
  8
0
100
AcDbCircle
 62
9
  6
CONTINUOUS
 10
6.3001621953
 20
2.3804623791
 40
1.8355463176
100
AcDbArc
 50
87.805598222
 51
88.5888155957
  0
ARC
  5
26B
100
AcDbEntity
  8
0
100
AcDbCircle
 62
9
  6
CONTINUOUS
 10
6.3564336658
 20
2.5822436339
 40
1.7419361047
100
AcDbArc
 50
89.8448481794
 51
90.7197483801
  0
ARC
  5
26C
100
AcDbEntity
  8
0
100
AcDbCircle
 62
9
  6
CONTINUOUS
 10
6.1845476638
 20
3.8358329859
 40
1.253112942
100
AcDbArc
 50
90.7798901949
 51
91.3114318454
  0
ARC
  5
26D
100
AcDbEntity
  8
0
100
AcDbCircle
 62
6
  6
CONTINUOUS
 10
6.1124858972
 20
4.0053062237
 40
1.25
100
AcDbArc
 50
125.3996380748
 51
174.9999278991
  0
ARC
  5
26E
100
AcDbEntity
  8
0
100
AcDbCircle
 62
9
  6
CONTINUOUS
 10
6.1713486301
 20
3.8284098589
 40
1.2239320942
100
AcDbArc
 50
90.2422039908
 51
90.768870573
  0
ARC
  5
26F
100
AcDbEntity
  8
0
100
AcDbCircle
 62
9
  6
CONTINUOUS
 10
6.1311697758
 20
4.0393577847
 40
1.1987827505
100
AcDbArc
 50
126.2021751163
 51
126.3231369707
  0
ARC
  5
270
100
AcDbEntity
  8
0
100
AcDbCircle
 62
9
  6
CONTINUOUS
 10
6.2045416133
 20
3.8642354299
 40
1.1839335861
100
AcDbArc
 50
123.1667978429
 51
124.2177623453
  0
ARC
  5
271
100
AcDbEntity
  8
0
100
AcDbCircle
 62
9
  6
CONTINUOUS
 10
6.1829024934
 20
3.7885566777
 40
1.1474520221
100
AcDbArc
 50
120.6190667325
 51
121.6190457662
  0
ARC
  5
272
100
AcDbEntity
  8
0
100
AcDbCircle
 62
9
  6
CONTINUOUS
 10
6.3930672173
 20
3.5613619293
 40
0.8766749406
100
AcDbArc
 50
161.7222682732
 51
170.6779880279
  0
ARC
  5
273
100
AcDbEntity
  8
0
100
AcDbCircle
 62
9
  6
CONTINUOUS
 10
6.310822229
 20
3.6988172491
 40
0.7980242079
100
AcDbArc
 50
169.5893688472
 51
179.6725323946
  0
ARC
  5
274
100
AcDbEntity
  8
0
100
AcDbCircle
 62
9
  6
CONTINUOUS
 10
6.2819114013
 20
3.6455934916
 40
0.6752116757
100
AcDbArc
 50
164.7070109012
 51
176.1242266026
  0
ARC
  5
275
100
AcDbEntity
  8
0
100
AcDbCircle
 62
9
  6
CONTINUOUS
 10
6.2476403089
 20
3.6296274084
 40
0.6400587844
100
AcDbArc
 50
162.4729927375
 51
174.4770448779
  0
ARC
  5
276
100
AcDbEntity
  8
0
100
AcDbCircle
 62
9
  6
CONTINUOUS
 10
6.0686857362
 20
3.7561367304
 40
0.5338278206
100
AcDbArc
 50
104.0195960837
 51
108.4565220712
  0
ARC
  5
277
100
AcDbEntity
  8
0
100
AcDbCircle
 62
9
  6
CONTINUOUS
 10
6.2009064085
 20
3.6532974537
 40
0.5260474182
100
AcDbArc
 50
165.4564332525
 51
178.0051701352
  0
ARC
  5
278
100
AcDbEntity
  8
0
100
AcDbCircle
 62
9
  6
CONTINUOUS
 10
6.0589611833
 20
3.6786255318
 40
0.5140243315
100
AcDbArc
 50
100.183453263
 51
104.0468775575
  0
ARC
  5
279
100
AcDbEntity
  8
0
100
AcDbCircle
 62
9
  6
CONTINUOUS
 10
5.5207060227
 20
4.2059462156
 40
0.5026299601
100
AcDbArc
 50
269.1002457848
 51
270.8277908034
  0
ARC
  5
27A
100
AcDbEntity
  8
0
100
AcDbCircle
 62
9
  6
CONTINUOUS
 10
5.5130697922
 20
4.1857665099
 40
0.4852982642
100
AcDbArc
 50
269.9652687623
 51
271.7093477978
  0
ARC
  5
27B
100
AcDbEntity
  8
0
100
AcDbCircle
 62
9
  6
CONTINUOUS
 10
6.0934188208
 20
3.615837543
 40
0.4158302526
100
AcDbArc
 50
156.7450466085
 51
172.2373756481
  0
ARC
  5
27C
100
AcDbEntity
  8
0
100
AcDbCircle
 62
9
  6
CONTINUOUS
 10
6.1121082143
 20
3.6958831212
 40
0.4106011649
100
AcDbArc
 50
95.4972502754
 51
100.7619235648
  0
ARC
  5
27D
100
AcDbEntity
  8
0
100
AcDbCircle
 62
9
  6
CONTINUOUS
 10
6.0843405595
 20
3.6264543802
 40
0.3954774101
100
AcDbArc
 50
90.3540793384
 51
94.6698570004
  0
ARC
  5
27E
100
AcDbEntity
  8
0
100
AcDbCircle
 62
9
  6
CONTINUOUS
 10
6.0704685148
 20
3.6869691794
 40
0.3913335177
100
AcDbArc
 50
164.9216476574
 51
165.432674643
  0
ARC
  5
27F
100
AcDbEntity
  8
0
100
AcDbCircle
 62
9
  6
CONTINUOUS
 10
5.9071532957
 20
3.7725107718
 40
0.3876808264
100
AcDbArc
 50
168.8355133986
 51
169.5209027781
  0
ARC
  5
280
100
AcDbEntity
  8
0
100
AcDbCircle
 62
9
  6
CONTINUOUS
 10
5.9037161912
 20
3.7227685743
 40
0.3613885784
100
AcDbArc
 50
161.0152181797
 51
161.6891830613
  0
ARC
  5
281
100
AcDbEntity
  8
0
100
AcDbCircle
 62
9
  6
CONTINUOUS
 10
6.0026486509
 20
3.6548314043
 40
0.3170388322
100
AcDbArc
 50
156.1553437702
 51
156.7428254112
  0
ARC
  5
282
100
AcDbEntity
  8
0
100
AcDbCircle
 62
7
  6
CONTINUOUS
 10
5.5923729719
 20
3.6105056813
 40
0.2177213263
100
AcDbArc
 50
78.0317491399
 51
78.6454378102
  0
ARC
  5
283
100
AcDbEntity
  8
0
100
AcDbCircle
 62
7
  6
CONTINUOUS
 10
5.6072616617
 20
3.4760558955
 40
0.2147538012
100
AcDbArc
 50
89.1340251133
 51
89.3433305995
  0
ARC
  5
284
100
AcDbEntity
  8
0
100
AcDbCircle
 62
7
  6
CONTINUOUS
 10
5.5949132356
 20
3.6232199619
 40
0.2036242682
100
AcDbArc
 50
77.9865199104
 51
79.3124465963
  0
ARC
  5
285
100
AcDbEntity
  8
0
100
AcDbCircle
 62
7
  6
CONTINUOUS
 10
5.6090187898
 20
3.4877458005
 40
0.2034897053
100
AcDbArc
 50
89.5685273016
 51
89.79089099
  0
ARC
  5
286
100
AcDbEntity
  8
0
100
AcDbCircle
 62
7
  6
CONTINUOUS
 10
5.6074503978
 20
3.4921326615
 40
0.198675928
100
AcDbArc
 50
89.3446200593
 51
89.5650485943
  0
ARC
  5
287
100
AcDbEntity
  8
0
100
AcDbCircle
 62
7
  6
CONTINUOUS
 10
5.6090791143
 20
3.5030372311
 40
0.1881981564
100
AcDbArc
 50
89.792265885
 51
90.026493645
  0
ARC
  5
288
100
AcDbEntity
  8
0
100
AcDbCircle
 62
9
  6
CONTINUOUS
 10
5.6990927051
 20
3.699516464
 40
0.1863195197
100
AcDbArc
 50
178.8123695811
 51
179.7072855297
  0
ARC
  5
289
100
AcDbEntity
  8
0
100
AcDbCircle
 62
9
  6
CONTINUOUS
 10
5.7101932712
 20
3.6733685962
 40
0.1846786415
100
AcDbArc
 50
170.6511602789
 51
171.4942397287
  0
ARC
  5
28A
100
AcDbEntity
  8
0
100
AcDbCircle
 62
7
  6
CONTINUOUS
 10
5.6075736928
 20
3.507770791
 40
0.1830373132
100
AcDbArc
 50
89.5664817282
 51
89.7992611984
  0
ARC
  5
28B
100
AcDbEntity
  8
0
100
AcDbCircle
 62
7
  6
CONTINUOUS
 10
5.6001868482
 20
3.6492920034
 40
0.1781557516
100
AcDbArc
 50
78.6533793474
 51
79.3900600963
  0
ARC
  5
28C
100
AcDbEntity
  8
0
100
AcDbCircle
 62
7
  6
CONTINUOUS
 10
5.609076862
 20
3.5179098415
 40
0.1733255466
100
AcDbArc
 50
90.0280224404
 51
90.2754299003
  0
ARC
  5
28D
100
AcDbEntity
  8
0
100
AcDbCircle
 62
7
  6
CONTINUOUS
 10
5.6063474787
 20
3.6829155382
 40
0.1428438038
100
AcDbArc
 50
79.3786942578
 51
80.1814076878
  0
ARC
  5
28E
100
AcDbEntity
  8
0
100
AcDbCircle
 62
7
  6
CONTINUOUS
 10
5.6072122912
 20
3.6866298038
 40
0.1401627655
100
AcDbArc
 50
79.4025795314
 51
80.2659969387
  0
ARC
  5
28F
100
AcDbEntity
  8
0
100
AcDbCircle
 62
7
  6
CONTINUOUS
 10
5.474656385
 20
3.7044023665
 40
0.1365317294
100
AcDbArc
 50
354.2760022542
 51
354.4634702715
  0
ARC
  5
290
100
AcDbEntity
  8
0
100
AcDbCircle
 62
7
  6
CONTINUOUS
 10
5.4881516772
 20
3.6990992247
 40
0.120349309
100
AcDbArc
 50
356.0491064398
 51
356.2525678038
  0
ARC
  5
291
100
AcDbEntity
  8
0
100
AcDbCircle
 62
9
  6
CONTINUOUS
 10
5.7535918265
 20
3.6662067933
 40
0.0785979644
100
AcDbArc
 50
176.0590229079
 51
177.6731381888
  0
ARC
  5
292
100
AcDbEntity
  8
0
100
AcDbCircle
 62
9
  6
CONTINUOUS
 10
5.7387877398
 20
3.6642196772
 40
0.0579140284
100
AcDbArc
 50
172.2759728457
 51
174.0640565683
  0
ARC
  5
293
100
AcDbEntity
  8
0
100
AcDbCircle
 62
9
  6
CONTINUOUS
 10
7.4961005029
 20
3.5613398732
 40
2.212047629
100
AcDbArc
 50
170.0811880359
 51
174.9941596786
  0
ARC
  5
294
100
AcDbEntity
  8
0
100
AcDbCircle
 62
9
  6
CONTINUOUS
 10
7.1296657808
 20
5.6305009473
 40
1.803397931
100
AcDbArc
 50
202.5699351973
 51
204.5942694734
  0
ARC
  5
295
100
AcDbEntity
  8
0
100
AcDbCircle
 62
9
  6
CONTINUOUS
 10
6.5969363936
 20
157.9808279234
 40
152.8434383589
100
AcDbArc
 50
269.8319631994
 51
270.0223799505
  0
ARC
  5
296
100
AcDbEntity
  8
0
100
AcDbCircle
 62
9
  6
CONTINUOUS
 10
5.6031692136
 20
108.2449387822
 40
103.3128454383
100
AcDbArc
 50
270.3371648428
 51
270.5842481592
  0
ARC
  5
297
100
AcDbEntity
  8
0
100
AcDbCircle
 62
6
  6
CONTINUOUS
 10
8.4004421109
 20
46.061533208
 40
42.0923618425
100
AcDbArc
 50
267.3023823963
 51
267.6256680574
  0
ARC
  5
298
100
AcDbEntity
  8
0
100
AcDbCircle
 62
9
  6
CONTINUOUS
 10
7.516604601
 20
34.8976327514
 40
30.70436999
100
AcDbArc
 50
267.8607170487
 51
268.395051826
  0
ARC
  5
299
100
AcDbEntity
  8
0
100
AcDbCircle
 62
9
  6
CONTINUOUS
 10
85.126069287
 20
-2.1877776617
 40
80.447722994
100
AcDbArc
 50
175.7040376367
 51
175.8282982676
  0
ARC
  5
29A
100
AcDbEntity
  8
0
100
AcDbCircle
 62
9
  6
CONTINUOUS
 10
31.1262417455
 20
1.8667361878
 40
26.2958952733
100
AcDbArc
 50
175.1263422428
 51
175.6998513384
  0
ARC
  5
29B
100
AcDbEntity
  8
0
100
AcDbCircle
 62
9
  6
CONTINUOUS
 10
25.3188449393
 20
2.6861480489
 40
20.2908685847
100
AcDbArc
 50
176.8310186079
 51
177.2759270242
  0
ARC
  5
29C
100
AcDbEntity
  8
0
100
AcDbCircle
 62
9
  6
CONTINUOUS
 10
22.2840858747
 20
2.0549553381
 40
17.4661855589
100
AcDbArc
 50
173.2809460245
 51
174.142891496
  0
ARC
  5
29D
100
AcDbEntity
  8
0
100
AcDbCircle
 62
9
  6
CONTINUOUS
 10
11.1581016258
 20
16.6356048526
 40
13.0628032688
100
AcDbArc
 50
244.36136592
 51
244.5211315789
  0
ARC
  5
29E
100
AcDbEntity
  8
0
100
AcDbCircle
 62
9
  6
CONTINUOUS
 10
17.2352406177
 20
2.7836575278
 40
12.3041837223
100
AcDbArc
 50
174.0417311322
 51
175.1782739058
  0
ARC
  5
29F
100
AcDbEntity
  8
0
100
AcDbCircle
 62
9
  6
CONTINUOUS
 10
16.9597345797
 20
2.6536132261
 40
12.0394985214
100
AcDbArc
 50
173.2913554354
 51
174.4524464479
  0
ARC
  5
2A0
100
AcDbEntity
  8
0
100
AcDbCircle
 62
9
  6
CONTINUOUS
 10
12.6657820928
 20
2.856185715
 40
7.6545547816
100
AcDbArc
 50
171.1093591677
 51
172.8737754017
  0
ARC
  5
2A1
100
AcDbEntity
  8
0
100
AcDbCircle
 62
9
  6
CONTINUOUS
 10
10.6243248459
 20
3.5018438875
 40
5.573726751
100
AcDbArc
 50
174.4166876271
 51
176.8528244403
  0
ARC
  5
2A2
100
AcDbEntity
  8
0
100
AcDbCircle
 62
9
  6
CONTINUOUS
 10
11.365587264
 20
5.8716022024
 40
5.2682293487
100
AcDbArc
 50
188.0039482424
 51
188.5471848869
  0
LINE
  5
2A3
100
AcDbEntity
  8
0
100
AcDbLine
 62
7
  6
CONTINUOUS
 10
5.6373076994
 20
3.822381836
 11
5.6376308931
 21
3.8234714512
  0
LINE
  5
2A4
100
AcDbEntity
  8
0
100
AcDbLine
 62
7
  6
CONTINUOUS
 10
5.6306023845
 20
3.8236851532
 11
5.6309186643
 21
3.8247730478
  0
SPLINE
  5
2A5
100
AcDbEntity
  8
0
100
AcDbSpline
 62
6
  6
CONTINUOUS
 70
0
 71
3
 72
15
 73
11
 74
9
 42
0.0000001
 43
0.0000001
 44
0.0000000001
 12
-0.7720969316
 22
0.0
 32
0.0
 13
-0.629361058
 23
-0.4472564482
 33
0.0
 40
0.0
 40
0.0
 40
0.0
 40
0.0
 40
0.1250011468
 40
0.2500046635
 40
0.3750058695
 40
0.5
 40
0.6249941305
 40
0.7499953365
 40
0.8749988532
 40
1.0
 40
1.0
 40
1.0
 40
1.0
 10
6.112482643
 20
5.2553080874
 30
0.0
 10
6.0803116424
 20
5.2553080874
 30
0.0
 10
6.0159416033
 20
5.2528028622
 30
0.0
 10
5.9199870218
 20
5.2416191234
 30
0.0
 10
5.8251707022
 20
5.2230988936
 30
0.0
 10
5.7320650544
 20
5.1973295128
 30
0.0
 10
5.6412440865
 20
5.1644011906
 30
0.0
 10
5.5532279467
 20
5.1245729026
 30
0.0
 10
5.4685338188
 20
5.0781050381
 30
0.0
 10
5.414612514
 20
5.0428591736
 30
0.0
 10
5.388388896
 20
5.0242233173
 30
0.0
 11
6.112482643
 21
5.2553080874
 31
0.0
 11
6.0160422431
 21
5.2515652537
 31
0.0
 11
5.9201758493
 21
5.2403962217
 31
0.0
 11
5.8254536484
 21
5.2218901953
 31
0.0
 11
5.7324458272
 21
5.1961363784
 31
0.0
 11
5.6417136166
 21
5.163252038
 31
0.0
 11
5.5537824237
 21
5.123466693
 31
0.0
 11
5.4691686998
 21
5.0770379254
 31
0.0
 11
5.388388896
 21
5.0242233173
 31
0.0
  0
LINE
  5
2A6
100
AcDbEntity
  8
0
100
AcDbLine
 62
7
  6
CONTINUOUS
 10
5.6376422439
 20
3.8234687631
 11
5.6375217652
 21
3.8234943251
  0
SPLINE
  5
2A7
100
AcDbEntity
  8
0
100
AcDbSpline
 62
7
  6
CONTINUOUS
 70
0
 71
3
 72
8
 73
4
 74
2
 42
0.0000001
 43
0.0000001
 44
0.0000000001
 12
-0.0000959113
 22
0.000016554
 32
0.0
 13
-0.0000959245
 23
0.0000164776
 33
0.0
 40
0.0
 40
0.0
 40
0.0
 40
0.0
 40
1.0
 40
1.0
 40
1.0
 40
1.0
 10
5.6307065258
 20
3.8236670537
 30
0.0
 10
5.6306745553
 20
3.8236725717
 30
0.0
 10
5.6306425827
 20
3.823678077
 30
0.0
 10
5.6306106079
 20
3.8236835696
 30
0.0
 11
5.6307065258
 21
3.8236670537
 31
0.0
 11
5.6306106079
 21
3.8236835696
 31
0.0
  0
LINE
  5
2A8
100
AcDbEntity
  8
0
100
AcDbLine
 62
6
  6
CONTINUOUS
 10
5.6310051044
 20
3.3744246293
 11
5.6305375564
 21
3.3750717251
  0
SPLINE
  5
2A9
100
AcDbEntity
  8
0
100
AcDbSpline
 62
9
  6
CONTINUOUS
 70
0
 71
3
 72
27
 73
23
 74
21
 42
0.0000001
 43
0.0000001
 44
0.0000000001
 12
-0.433190115
 22
-0.0355142155
 32
0.0
 13
-0.1757020103
 23
-0.3975471529
 33
0.0
 40
0.0
 40
0.0
 40
0.0
 40
0.0
 40
0.0624318954
 40
0.1249193403
 40
0.1561722829
 40
0.1874240985
 40
0.2499195748
 40
0.2811735288
 40
0.3124298527
 40
0.3749399187
 40
0.4374543728
 40
0.4999694363
 40
0.5312307984
 40
0.5624920453
 40
0.6250055127
 40
0.6875168793
 40
0.7187757573
 40
0.7500342937
 40
0.8125391144
 40
0.8750370777
 40
0.9375253108
 40
1.0
 40
1.0
 40
1.0
 40
1.0
 10
6.0521430937
 20
4.0206189462
 30
0.0
 10
6.0431281337
 20
4.0198798729
 30
0.0
 10
6.0251334951
 20
4.0178095385
 30
0.0
 10
6.0028557861
 20
4.0137577516
 30
0.0
 10
5.9852174898
 20
4.0096424723
 30
0.0
 10
5.9677235628
 20
4.0049484039
 30
0.0
 10
5.9504696559
 20
3.9993942257
 30
0.0
 10
5.9335217057
 20
3.9930013712
 30
0.0
 10
5.9167908873
 20
3.9860539123
 30
0.0
 10
5.8963166516
 20
3.9763442419
 30
0.0
 10
5.8725676202
 20
3.9631056604
 30
0.0
 10
5.8535436231
 20
3.950791469
 30
0.0
 10
5.8388422521
 20
3.9402014454
 30
0.0
 10
5.8245016587
 20
3.9291280169
 30
0.0
 10
5.8072778098
 20
3.9144025759
 30
0.0
 10
5.7910697897
 20
3.8985659456
 30
0.0
 10
5.7787673008
 20
3.8852660047
 30
0.0
 10
5.7669240909
 20
3.8715568628
 30
0.0
 10
5.7530076432
 20
3.8536755567
 30
0.0
 10
5.7378276953
 20
3.8311230972
 30
0.0
 10
5.7242506567
 20
3.8075762796
 30
0.0
 10
5.7163296864
 20
3.7912758592
 30
0.0
 10
5.7126707103
 20
3.782996981
 30
0.0
 11
6.0521430937
 21
4.0206189462
 31
0.0
 11
6.0251852352
 21
4.0175180655
 31
0.0
 11
5.9984640986
 21
4.0126566489
 31
0.0
 11
5.9852355206
 21
4.0095701117
 31
0.0
 11
5.9721161654
 21
4.0060499984
 31
0.0
 11
5.9462595665
 21
3.9977266313
 31
0.0
 11
5.9335494137
 21
3.9929322652
 31
0.0
 11
5.9210027471
 21
3.9877223637
 31
0.0
 11
5.8964539462
 21
3.9760800675
 31
0.0
 11
5.8727212644
 21
3.9628494158
 31
0.0
 11
5.8499121613
 21
3.9480829152
 31
0.0
 11
5.8388873158
 21
3.9401409885
 31
0.0
 11
5.8281327618
 21
3.9318367951
 31
0.0
 11
5.8074806952
 21
3.9141800918
 31
0.0
 11
5.7880499803
 21
3.8951889169
 31
0.0
 11
5.778824603
 21
3.8852147255
 31
0.0
 11
5.7699431013
 21
3.8749333358
 31
0.0
 11
5.7532600413
 21
3.8534918266
 31
0.0
 11
5.7380937202
 21
3.8309555542
 31
0.0
 11
5.724532135
 21
3.8074235646
 31
0.0
 11
5.7126707103
 21
3.782996981
 31
0.0
  0
LINE
  5
2AA
100
AcDbEntity
  8
0
100
AcDbLine
 62
9
  6
CONTINUOUS
 10
6.3892284009
 20
4.1723923269
 11
6.6566376233
 21
4.1653464255
  0
LINE
  5
2AB
100
AcDbEntity
  8
0
100
AcDbLine
 62
9
  6
CONTINUOUS
 10
6.3816830227
 20
4.172591791
 11
6.3892284009
 21
4.1723923269
  0
SPLINE
  5
2AC
100
AcDbEntity
  8
0
100
AcDbSpline
 62
9
  6
CONTINUOUS
 70
0
 71
3
 72
11
 73
7
 74
5
 42
0.0000001
 43
0.0000001
 44
0.0000000001
 12
-0.3243765686
 22
-0.0038736015
 32
0.0
 13
-0.3229024793
 23
-0.0311312041
 33
0.0
 40
0.0
 40
0.0
 40
0.0
 40
0.0
 40
0.2500045962
 40
0.4999953805
 40
0.7499898761
 40
1.0
 40
1.0
 40
1.0
 40
1.0
 10
6.3966523553
 20
4.1213201094
 30
0.0
 10
6.3696204776
 20
4.1209973034
 30
0.0
 10
6.3155625044
 20
4.1198740762
 30
0.0
 10
6.2345230002
 20
4.1166360251
 30
0.0
 10
6.1535678183
 20
4.1117014647
 30
0.0
 10
6.0996830811
 20
4.1071902201
 30
0.0
 10
6.0727734514
 20
4.104595848
 30
0.0
 11
6.3966523553
 21
4.1213201094
 31
0.0
 11
6.3155688633
 21
4.1196151602
 31
0.0
 11
6.2345375539
 21
4.1163533043
 31
0.0
 11
6.1535910573
 21
4.1113962148
 31
0.0
 11
6.0727734514
 21
4.104595848
 31
0.0
  0
SPLINE
  5
2AD
100
AcDbEntity
  8
0
100
AcDbSpline
 62
9
  6
CONTINUOUS
 70
0
 71
3
 72
13
 73
9
 74
7
 42
0.0000001
 43
0.0000001
 44
0.0000000001
 12
0.3636477621
 22
0.0599601083
 32
0.0
 13
0.3684290619
 23
-0.0097435024
 33
0.0
 40
0.0
 40
0.0
 40
0.0
 40
0.0
 40
0.2499610599
 40
0.3749624346
 40
0.4999662356
 40
0.6249776865
 40
0.7500003067
 40
1.0
 40
1.0
 40
1.0
 40
1.0
 10
6.0145577825
 20
4.1468741183
 30
0.0
 10
6.0448570426
 20
4.1518700157
 30
0.0
 10
6.0904866038
 20
4.1583427955
 30
0.0
 10
6.1515674184
 20
4.1648463734
 30
0.0
 10
6.1974868617
 20
4.1686452194
 30
0.0
 10
6.243486465
 20
4.1713509775
 30
0.0
 10
6.3048838698
 20
4.1734819473
 30
0.0
 10
6.3509806386
 20
4.1734037486
 30
0.0
 10
6.3816830227
 20
4.172591791
 30
0.0
 11
6.0145577825
 21
4.1468741183
 31
0.0
 11
6.1057728684
 21
4.1597909853
 31
0.0
 11
6.1515844058
 21
4.1646664524
 31
0.0
 11
6.1974988501
 21
4.1684629431
 31
0.0
 11
6.2434934265
 21
4.1711663273
 31
0.0
 11
6.2895438254
 21
4.1727630252
 31
0.0
 11
6.3816830227
 21
4.172591791
 31
0.0
  0
SPLINE
  5
2AE
100
AcDbEntity
  8
0
100
AcDbSpline
 62
9
  6
CONTINUOUS
 70
0
 71
3
 72
32
 73
28
 74
26
 42
0.0000001
 43
0.0000001
 44
0.0000000001
 12
-0.4824102573
 22
-0.0814028588
 32
0.0
 13
-0.1249340707
 23
-0.4730090483
 33
0.0
 40
0.0
 40
0.0
 40
0.0
 40
0.0
 40
0.0628465408
 40
0.0942893171
 40
0.1257322974
 40
0.1571690093
 40
0.1885955657
 40
0.2200116652
 40
0.2514177345
 40
0.2828147686
 40
0.3142042104
 40
0.3769464127
 40
0.4083057762
 40
0.4396521391
 40
0.4709841086
 40
0.5022999767
 40
0.5335983606
 40
0.5648783488
 40
0.6273679847
 40
0.6897656438
 40
0.7209303833
 40
0.7520667875
 40
0.7831740985
 40
0.8142509308
 40
0.8762979452
 40
0.938212874
 40
1.0
 40
1.0
 40
1.0
 40
1.0
 10
6.0354372807
 20
4.0992624521
 30
0.0
 10
6.0253313421
 20
4.097557156
 30
0.0
 10
6.0102503732
 20
4.0944762978
 30
0.0
 10
5.9903976209
 20
4.0893387247
 30
0.0
 10
5.9756455943
 20
4.0849705356
 30
0.0
 10
5.9610578001
 20
4.0800910649
 30
0.0
 10
5.9466544675
 20
4.0747035236
 30
0.0
 10
5.9324544973
 20
4.0688137651
 30
0.0
 10
5.9184763397
 20
4.0624270351
 30
0.0
 10
5.9047379761
 20
4.0555485765
 30
0.0
 10
5.8867708423
 20
4.0457317628
 30
0.0
 10
5.8693487491
 20
4.0349547675
 30
0.0
 10
5.8525564609
 20
4.0232641169
 30
0.0
 10
5.840294379
 20
4.0140486302
 30
0.0
 10
5.8283819744
 20
4.0043970465
 30
0.0
 10
5.8168358022
 20
3.9943220443
 30
0.0
 10
5.8056727593
 20
3.9838361917
 30
0.0
 10
5.7913294548
 20
3.9693306344
 30
0.0
 10
5.7744316086
 20
3.9502444638
 30
0.0
 10
5.7589852035
 20
3.9299895168
 30
0.0
 10
5.7475585709
 20
3.9131633535
 30
0.0
 10
5.739468334
 20
3.900252423
 30
0.0
 10
5.7318624753
 20
3.887066952
 30
0.0
 10
5.7223798268
 20
3.8691599463
 30
0.0
 10
5.7117579977
 20
3.8461900574
 30
0.0
 10
5.7010084411
 20
3.8178456129
 30
0.0
 10
5.6951813298
 20
3.7985125247
 30
0.0
 10
5.692608224
 20
3.7887705682
 30
0.0
 11
6.0354372807
 21
4.0992624521
 31
0.0
 11
6.0053132717
 21
4.0931072626
 31
0.0
 11
5.9904211891
 21
4.0892530514
 31
0.0
 11
5.9756715724
 21
4.0848848774
 31
0.0
 11
5.9610862945
 21
4.0800055878
 31
0.0
 11
5.9466859999
 21
4.0746188898
 31
0.0
 11
5.9324892305
 21
4.0687299633
 31
0.0
 11
5.9185143221
 21
4.0623441325
 31
0.0
 11
5.9047796105
 21
4.0554667215
 31
0.0
 11
5.8913034286
 21
4.0481033317
 31
0.0
 11
5.8651998532
 21
4.0319537404
 31
0.0
 11
5.8526090345
 21
4.0231875248
 31
0.0
 11
5.840349877
 21
4.0139737745
 31
0.0
 11
5.8284400062
 21
4.0043239462
 31
0.0
 11
5.8168964967
 21
3.9942507063
 31
0.0
 11
5.8057364043
 21
3.9837667621
 31
0.0
 11
5.7949763245
 21
3.9728853144
 31
0.0
 11
5.77470998
 21
3.9499962151
 31
0.0
 11
5.7561994934
 21
3.9257217809
 31
0.0
 11
5.7476342718
 21
3.9131083076
 31
0.0
 11
5.7395453876
 21
3.9002005521
 31
0.0
 11
5.7319404715
 21
3.8870182902
 31
0.0
 11
5.7248249003
 21
3.8735824503
 31
0.0
 11
5.7120793717
 21
3.8460326099
 31
0.0
 11
5.7013346578
 21
3.8177116923
 31
0.0
 11
5.692608224
 21
3.7887705682
 31
0.0
  0
SPLINE
  5
2AF
100
AcDbEntity
  8
0
100
AcDbSpline
 62
9
  6
CONTINUOUS
 70
0
 71
3
 72
11
 73
7
 74
5
 42
0.0000001
 43
0.0000001
 44
0.0000000001
 12
-0.0537729153
 22
0.0360534364
 32
0.0
 13
-0.0564668713
 23
0.0316681092
 33
0.0
 40
0.0
 40
0.0
 40
0.0
 40
0.0
 40
0.2319489729
 40
0.4761907051
 40
0.7323433311
 40
1.0
 40
1.0
 40
1.0
 40
1.0
 10
5.692608224
 20
3.7887705682
 30
0.0
 10
5.6884506999
 20
3.7915580873
 30
0.0
 10
5.67983925
 20
3.7971679351
 30
0.0
 10
5.6664069691
 20
3.8054973455
 30
0.0
 10
5.6521525188
 20
3.8139568594
 30
0.0
 10
5.6423338719
 20
3.8195591919
 30
0.0
 10
5.6372959603
 20
3.8223845855
 30
0.0
 11
5.692608224
 21
3.7887705682
 31
0.0
 11
5.6800324634
 21
3.7969771312
 31
0.0
 11
5.666599475
 21
3.805319032
 31
0.0
 11
5.6523427952
 21
3.8137902052
 31
0.0
 11
5.6372959603
 21
3.8223845855
 31
0.0
  0
SPLINE
  5
2B0
100
AcDbEntity
  8
0
100
AcDbSpline
 62
9
  6
CONTINUOUS
 70
0
 71
3
 72
26
 73
22
 74
20
 42
0.0000001
 43
0.0000001
 44
0.0000000001
 12
0.1559905516
 22
0.4875692065
 32
0.0
 13
0.504365863
 23
0.0875891521
 33
0.0
 40
0.0
 40
0.0
 40
0.0
 40
0.0
 40
0.062526549
 40
0.1250515289
 40
0.1875743401
 40
0.2500939481
 40
0.2813567448
 40
0.3126186558
 40
0.3751310674
 40
0.4376409201
 40
0.5001482366
 40
0.5626522215
 40
0.6251493272
 40
0.6876385964
 40
0.7188853717
 40
0.7501302968
 40
0.8126061007
 40
0.8750751144
 40
0.9063113007
 40
0.937545814
 40
1.0
 40
1.0
 40
1.0
 40
1.0
 10
5.6376422428
 20
3.8234687636
 30
0.0
 10
5.6408934264
 20
3.8336307702
 30
0.0
 10
5.648080363
 20
3.8537426449
 30
0.0
 10
5.6608488187
 20
3.8831176945
 30
0.0
 10
5.6755476144
 20
3.9115755956
 30
0.0
 10
5.6893600054
 20
3.9344176876
 30
0.0
 10
5.7013133992
 20
3.9520967575
 30
0.0
 10
5.7138567389
 20
3.9693607004
 30
0.0
 10
5.7306149303
 20
3.9901336452
 30
0.0
 10
5.7523518741
 20
4.0136496269
 30
0.0
 10
5.7756280091
 20
4.0356428346
 30
0.0
 10
5.8003503082
 20
4.0559937698
 30
0.0
 10
5.8263972404
 20
4.0746124718
 30
0.0
 10
5.8491101247
 20
4.0886142181
 30
0.0
 10
5.8678179541
 20
4.0988607937
 30
0.0
 10
5.8868655233
 20
4.1084562333
 30
0.0
 10
5.9112793253
 20
4.1192033196
 30
0.0
 10
5.9363752929
 20
4.1282385144
 30
0.0
 10
5.956785213
 20
4.1344128592
 30
0.0
 10
5.9773932312
 20
4.1398763932
 30
0.0
 10
5.9930554076
 20
4.1431663707
 30
0.0
 10
6.0035553274
 20
4.1449898071
 30
0.0
 11
5.6376422428
 21
3.8234687636
 31
0.0
 11
5.6484118368
 21
3.8536108439
 31
0.0
 11
5.6611707869
 21
3.8829653484
 31
0.0
 11
5.6758605709
 21
3.9114015388
 31
0.0
 11
5.6924232439
 21
3.9387872938
 31
0.0
 11
5.7013873225
 21
3.9520451125
 31
0.0
 11
5.7107938214
 21
3.9649922252
 31
0.0
 11
5.7308866113
 21
3.9898989655
 31
0.0
 11
5.7526088794
 21
4.0133963089
 31
0.0
 11
5.7758697376
 21
4.0353697354
 31
0.0
 11
5.8005724216
 21
4.0557060882
 31
0.0
 11
5.8266000206
 21
4.0743106198
 31
0.0
 11
5.8538315357
 21
4.0910961022
 31
0.0
 11
5.8678609584
 21
4.0987796763
 31
0.0
 11
5.8821458112
 21
4.1059751398
 31
0.0
 11
5.9114171079
 21
4.1188614915
 31
0.0
 11
5.9415052622
 21
4.129694197
 31
0.0
 11
5.9568105561
 21
4.1343241657
 31
0.0
 11
5.9722661371
 21
4.138421269
 31
0.0
 11
6.0035553274
 21
4.1449898071
 31
0.0
  0
SPLINE
  5
2B1
100
AcDbEntity
  8
0
100
AcDbSpline
 62
9
  6
CONTINUOUS
 70
0
 71
3
 72
11
 73
7
 74
5
 42
0.0000001
 43
0.0000001
 44
0.0000000001
 12
-0.0640777666
 22
0.0210992163
 32
0.0
 13
-0.0650703433
 23
0.0178041433
 33
0.0
 40
0.0
 40
0.0
 40
0.0
 40
0.0
 40
0.2232566504
 40
0.4648596908
 40
0.7240362145
 40
1.0
 40
1.0
 40
1.0
 40
1.0
 10
5.6751797164
 20
3.6716087372
 30
0.0
 10
5.6704111206
 20
3.6731789173
 30
0.0
 10
5.6604508603
 20
3.6763538778
 30
0.0
 10
5.6448664181
 20
3.6810689824
 30
0.0
 10
5.6280869583
 20
3.6859224024
 30
0.0
 10
5.6164930374
 20
3.689147402
 30
0.0
 10
5.6105073513
 20
3.6907851683
 30
0.0
 11
5.6751797164
 21
3.6716087372
 31
0.0
 11
5.6608334475
 21
3.6761945103
 31
0.0
 11
5.6452355935
 21
3.6809237871
 31
0.0
 11
5.6284417097
 21
3.6857896467
 31
0.0
 11
5.6105073513
 21
3.6907851683
 31
0.0
  0
LINE
  5
2B2
100
AcDbEntity
  8
0
100
AcDbLine
 62
9
  6
CONTINUOUS
 10
5.6021469153
 20
3.6022671578
 11
5.6105073513
 21
3.6907851683
  0
SPLINE
  5
2B3
100
AcDbEntity
  8
0
100
AcDbSpline
 62
6
  6
CONTINUOUS
 70
0
 71
3
 72
68
 73
64
 74
62
 42
0.0000001
 43
0.0000001
 44
0.0000000001
 12
0.0642496588
 22
0.7383303475
 32
0.0
 13
0.7084008335
 23
0.2177796588
 33
0.0
 40
0.0
 40
0.0
 40
0.0
 40
0.0
 40
0.0001871505
 40
0.0003999317
 40
0.0006564378
 40
0.0009672275
 40
0.0013382606
 40
0.0017729807
 40
0.0022734432
 40
0.0028409475
 40
0.0041800667
 40
0.0057945524
 40
0.0076862305
 40
0.0098558895
 40
0.0123036822
 40
0.0150288388
 40
0.0180300767
 40
0.0213059696
 40
0.028675513
 40
0.0371238007
 40
0.0466316309
 40
0.0571777288
 40
0.0687397781
 40
0.0812907566
 40
0.0948019571
 40
0.1092438368
 40
0.1407830459
 40
0.1756213534
 40
0.2134392777
 40
0.2538911238
 40
0.2966070282
 40
0.3411950648
 40
0.3872470728
 40
0.4343412864
 40
0.4820458353
 40
0.5299238342
 40
0.5775363788
 40
0.6244472178
 40
0.6702267204
 40
0.7144549541
 40
0.7567271923
 40
0.7966564677
 40
0.8338764438
 40
0.8680473744
 40
0.8838906104
 40
0.8988571327
 40
0.9129117859
 40
0.926023631
 40
0.9381629111
 40
0.9493010391
 40
0.9594141388
 40
0.9684797214
 40
0.9764767438
 40
0.9833894688
 40
0.9864349405
 40
0.9892043139
 40
0.9916962886
 40
0.9939104127
 40
0.9958467132
 40
0.9975057358
 40
0.998888964
 40
0.9994781857
 40
1.0
 40
1.0
 40
1.0
 40
1.0
 10
4.9040391336
 20
3.5635084095
 30
0.0
 10
4.9040431417
 20
3.5635544692
 30
0.0
 10
4.9040725591
 20
3.5636517177
 30
0.0
 10
4.9041710924
 20
3.5637832209
 30
0.0
 10
4.9043203776
 20
3.5639069036
 30
0.0
 10
4.9045206184
 20
3.5640249604
 30
0.0
 10
4.9047724987
 20
3.5641383195
 30
0.0
 10
4.9050765173
 20
3.564247206
 30
0.0
 10
4.9054328988
 20
3.5643517003
 30
0.0
 10
4.9060106778
 20
3.5644929814
 30
0.0
 10
4.9068663125
 20
3.564652785
 30
0.0
 10
4.9080519562
 20
3.5648187577
 30
0.0
 10
4.9094464349
 20
3.564967249
 30
0.0
 10
4.9110492274
 20
3.5650981824
 30
0.0
 10
4.9128597021
 20
3.565211345
 30
0.0
 10
4.9148768609
 20
3.5653067489
 30
0.0
 10
4.9170994768
 20
3.5653844466
 30
0.0
 10
4.9204697722
 20
3.5654677183
 30
0.0
 10
4.9251865753
 20
3.5655218787
 30
0.0
 10
4.9314431335
 20
3.5655163329
 30
0.0
 10
4.9384840326
 20
3.5654431172
 30
0.0
 10
4.9462932575
 20
3.5653034616
 30
0.0
 10
4.9548530458
 20
3.5650985781
 30
0.0
 10
4.9641438968
 20
3.5648301573
 30
0.0
 10
4.9741446026
 20
3.5644999896
 30
0.0
 10
4.9888318293
 20
3.5639638051
 30
0.0
 10
5.0087807866
 20
3.5631453881
 30
0.0
 10
5.0344948956
 20
3.561979769
 30
0.0
 10
5.0624042378
 20
3.5606234217
 30
0.0
 10
5.0922536506
 20
3.5590983464
 30
0.0
 10
5.123770252
 20
3.5574280907
 30
0.0
 10
5.1566658541
 20
3.5556377154
 30
0.0
 10
5.1906395389
 20
3.5537533702
 30
0.0
 10
5.2253805887
 20
3.5518021149
 30
0.0
 10
5.260571237
 20
3.5498116644
 30
0.0
 10
5.2958895081
 20
3.5478100768
 30
0.0
 10
5.3310123523
 20
3.545825535
 30
0.0
 10
5.3656185007
 20
3.5438860515
 30
0.0
 10
5.3993913398
 20
3.5420192045
 30
0.0
 10
5.4320219962
 20
3.5402519148
 30
0.0
 10
5.4632120601
 20
3.538610121
 30
0.0
 10
5.4926762639
 20
3.5371185224
 30
0.0
 10
5.5201452586
 20
3.5358005257
 30
0.0
 10
5.5416743294
 20
3.5348418093
 30
0.0
 10
5.5577137249
 20
3.5341845121
 30
0.0
 10
5.568788945
 20
3.5337606298
 30
0.0
 10
5.5791911072
 20
3.5333954605
 30
0.0
 10
5.5888964656
 20
3.5330909719
 30
0.0
 10
5.5978828521
 20
3.5328490067
 30
0.0
 10
5.6061297854
 20
3.5326713613
 30
0.0
 10
5.6136184842
 20
3.5325594498
 30
0.0
 10
5.6203319274
 20
3.5325144485
 30
0.0
 10
5.626254874
 20
3.5325376649
 30
0.0
 10
5.6306900698
 20
3.5326168555
 30
0.0
 10
5.6338326249
 20
3.5327210266
 30
0.0
 10
5.6358827126
 20
3.5328136123
 30
0.0
 10
5.637726238
 20
3.5329239695
 30
0.0
 10
5.6393622776
 20
3.5330520804
 30
0.0
 10
5.6407902245
 20
3.5331977629
 30
0.0
 10
5.6420094613
 20
3.533360952
 30
0.0
 10
5.6428932294
 20
3.533518201
 30
0.0
 10
5.6434936556
 20
3.5336571974
 30
0.0
 10
5.6437583473
 20
3.5337302965
 30
0.0
 10
5.6438815652
 20
3.5337681767
 30
0.0
 11
4.9040391336
 21
3.5635084095
 31
0.0
 11
4.9040773776
 21
3.5636417339
 31
0.0
 11
4.9041685108
 21
3.5637704311
 31
0.0
 11
4.9043125441
 21
3.5638945001
 31
0.0
 11
4.9045094889
 21
3.5640139399
 31
0.0
 11
4.9047593546
 21
3.5641287498
 31
0.0
 11
4.9050621082
 21
3.5642389326
 31
0.0
 11
4.905417672
 21
3.564344495
 31
0.0
 11
4.9058259666
 21
3.5644454442
 31
0.0
 11
4.9068004296
 21
3.5646335303
 31
0.0
 11
4.9079848607
 21
3.5648032465
 31
0.0
 11
4.9093786232
 21
3.5649546487
 31
0.0
 11
4.9109810804
 21
3.5650877924
 31
0.0
 11
4.9127915447
 21
3.5652027379
 31
0.0
 11
4.9148088911
 21
3.5652995835
 31
0.0
 11
4.9170317717
 21
3.5653784472
 31
0.0
 11
4.9194588369
 21
3.5654394471
 31
0.0
 11
4.9249201229
 21
3.5655083276
 31
0.0
 11
4.9311813227
 21
3.5655072248
 31
0.0
 11
4.9382274259
 21
3.5654374518
 31
0.0
 11
4.9460421551
 21
3.5653004327
 31
0.0
 11
4.9546086279
 21
3.5650976446
 31
0.0
 11
4.9639065898
 21
3.5648308594
 31
0.0
 11
4.9739146153
 21
3.5645019518
 31
0.0
 11
4.9846107145
 21
3.5641128455
 31
0.0
 11
5.0079657608
 21
3.563162906
 31
0.0
 11
5.0337589302
 21
3.5619996583
 31
0.0
 11
5.0617537574
 21
3.5606437906
 31
0.0
 11
5.0916945843
 21
3.5591176699
 31
0.0
 11
5.123308012
 21
3.5574452157
 31
0.0
 11
5.1563044202
 21
3.5556517663
 31
0.0
 11
5.1903822479
 21
3.553763705
 31
0.0
 11
5.2252299199
 21
3.551808291
 31
0.0
 11
5.2605284194
 21
3.5498134347
 31
0.0
 11
5.2959550377
 21
3.5478073695
 31
0.0
 11
5.3311855782
 21
3.5458184589
 31
0.0
 11
5.3658977983
 21
3.5438748954
 31
0.0
 11
5.3997743321
 21
3.542004445
 31
0.0
 11
5.432504952
 21
3.5402342491
 31
0.0
 11
5.4637906247
 21
3.5385904697
 31
0.0
 11
5.4933453793
 21
3.537098126
 31
0.0
 11
5.5208984019
 21
3.5357809111
 31
0.0
 11
5.5461983992
 21
3.5346608105
 31
0.0
 11
5.5579303433
 21
3.5341810795
 31
0.0
 11
5.569014271
 21
3.5337580426
 31
0.0
 11
5.5794240996
 21
3.5333939815
 31
0.0
 11
5.5891368306
 21
3.5330909087
 31
0.0
 11
5.5981302953
 21
3.5328507639
 31
0.0
 11
5.6063831287
 21
3.5326754165
 31
0.0
 11
5.6138773627
 21
3.5325664375
 31
0.0
 11
5.6205959267
 21
3.5325253193
 31
0.0
 11
5.6265226177
 21
3.5325534791
 31
0.0
 11
5.6316448327
 21
3.532652023
 31
0.0
 11
5.6339006151
 21
3.5327280094
 31
0.0
 11
5.6359509025
 21
3.5328219763
 31
0.0
 11
5.6377943531
 21
3.5329340413
 31
0.0
 11
5.6394301097
 21
3.5330642777
 31
0.0
 11
5.6408574407
 21
3.5332127475
 31
0.0
 11
5.6420756146
 21
3.5333795127
 31
0.0
 11
5.6430839
 21
3.5335646351
 31
0.0
 11
5.6435091059
 21
3.5336640996
 31
0.0
 11
5.6438815652
 21
3.5337681767
 31
0.0
  0
LINE
  5
2B4
100
AcDbEntity
  8
0
100
AcDbLine
 62
6
  6
CONTINUOUS
 10
5.6438815652
 20
3.5337681767
 11
5.6444400679
 21
3.5339769574
  0
SPLINE
  5
2B5
100
AcDbEntity
  8
0
100
AcDbSpline
 62
9
  6
CONTINUOUS
 70
0
 71
3
 72
12
 73
8
 74
6
 42
0.0000001
 43
0.0000001
 44
0.0000000001
 12
0.3674570994
 22
0.0719031547
 32
0.0
 13
0.3744141039
 23
-0.0029769629
 33
0.0
 40
0.0
 40
0.0
 40
0.0
 40
0.0
 40
0.2500170767
 40
0.3750384334
 40
0.5000522638
 40
0.7500573611
 40
1.0
 40
1.0
 40
1.0
 40
1.0
 10
6.0069583425
 20
4.1733143148
 30
0.0
 10
6.0375818591
 20
4.1793066536
 30
0.0
 10
6.0837516309
 20
4.187162351
 30
0.0
 10
6.1456305496
 20
4.19532862
 30
0.0
 10
6.2076942099
 20
4.2019457079
 30
0.0
 10
6.2855456706
 20
4.2072898222
 30
0.0
 10
6.3479650877
 20
4.2083995897
 30
0.0
 10
6.3791591041
 20
4.2081515664
 30
0.0
 11
6.0069583425
 21
4.1733143148
 31
0.0
 11
6.0992458091
 21
4.1890112744
 31
0.0
 11
6.1456547618
 21
4.1951350964
 31
0.0
 11
6.1921994935
 21
4.200096568
 31
0.0
 11
6.2855886921
 21
4.2064988236
 31
0.0
 11
6.3791591041
 21
4.2081515664
 31
0.0
  0
SPLINE
  5
2B6
100
AcDbEntity
  8
0
100
AcDbSpline
 62
9
  6
CONTINUOUS
 70
0
 71
3
 72
12
 73
8
 74
6
 42
0.0000001
 43
0.0000001
 44
0.0000000001
 12
-0.3791406204
 22
0.0093305677
 32
0.0
 13
-0.3722475364
 23
-0.0725702499
 33
0.0
 40
0.0
 40
0.0
 40
0.0
 40
0.0
 40
0.2502186392
 40
0.3752987494
 40
0.5003363849
 40
0.7502708423
 40
1.0
 40
1.0
 40
1.0
 40
1.0
 10
6.3453667893
 20
4.2154519782
 30
0.0
 10
6.313744106
 20
4.2162302055
 30
0.0
 10
6.26627145
 20
4.2161893039
 30
0.0
 10
6.2030657072
 20
4.2136377944
 30
0.0
 10
6.139985176
 20
4.2093982529
 30
0.0
 10
6.0614294329
 20
4.2008951997
 30
0.0
 10
5.9990684446
 20
4.1905932571
 30
0.0
 10
5.9680814233
 20
4.1845522879
 30
0.0
 11
6.3453667893
 21
4.2154519782
 31
0.0
 11
6.250470078
 21
4.2153431062
 31
0.0
 11
6.2030715134
 21
4.2134262435
 31
0.0
 11
6.1557572661
 21
4.2102431251
 31
0.0
 11
6.0615215535
 21
4.2000164795
 31
0.0
 11
5.9680814233
 21
4.1845522879
 31
0.0
  0
SPLINE
  5
2B7
100
AcDbEntity
  8
0
100
AcDbSpline
 62
9
  6
CONTINUOUS
 70
0
 71
3
 72
25
 73
21
 74
19
 42
0.0000001
 43
0.0000001
 44
0.0000000001
 12
0.1404337115
 22
0.5106139573
 32
0.0
 13
0.5187532721
 23
0.1065048518
 33
0.0
 40
0.0
 40
0.0
 40
0.0
 40
0.0
 40
0.0625546594
 40
0.1251017999
 40
0.1876412534
 40
0.2501722844
 40
0.2814390673
 40
0.3127039939
 40
0.3752194431
 40
0.4377287097
 40
0.4689855781
 40
0.5002407658
 40
0.5627369068
 40
0.6252235556
 40
0.6877009114
 40
0.7501700382
 40
0.812632981
 40
0.8750917756
 40
0.9375468922
 40
1.0
 40
1.0
 40
1.0
 40
1.0
 10
5.6309102152
 20
3.8247746891
 30
0.0
 10
5.6338384761
 20
3.8354217831
 30
0.0
 10
5.6404058503
 20
3.8565263322
 30
0.0
 10
5.6523350648
 20
3.887451968
 30
0.0
 10
5.6662945348
 20
3.9175122794
 30
0.0
 10
5.679580975
 20
3.9417267535
 30
0.0
 10
5.6911739636
 20
3.9605188752
 30
0.0
 10
5.7033976726
 20
3.9789037138
 30
0.0
 10
5.7198355529
 20
4.0010890387
 30
0.0
 10
5.7377416324
 20
4.0221056742
 30
0.0
 10
5.7528999965
 20
4.038150882
 30
0.0
 10
5.7686006255
 20
4.0536624866
 30
0.0
 10
5.7892179783
 20
4.0720171955
 30
0.0
 10
5.8154175344
 20
4.0922737843
 30
0.0
 10
5.8429533346
 20
4.1106658034
 30
0.0
 10
5.8716988334
 20
4.1270954267
 30
0.0
 10
5.9015267276
 20
4.1414595994
 30
0.0
 10
5.9322871082
 20
4.1536939682
 30
0.0
 10
5.9638260955
 20
4.1637413444
 30
0.0
 10
5.9852751167
 20
4.1689445622
 30
0.0
 10
5.9960743681
 20
4.1711617485
 30
0.0
 11
5.6309102152
 21
3.8247746891
 31
0.0
 11
5.6407527668
 21
3.8564060358
 31
0.0
 11
5.6526742435
 21
3.8873096362
 31
0.0
 11
5.6666260775
 21
3.917346793
 31
0.0
 11
5.6825594637
 21
3.9463763682
 31
0.0
 11
5.6912531712
 21
3.9604685268
 31
0.0
 11
5.700420218
 21
3.9742562817
 31
0.0
 11
5.7201300403
 21
4.0008563852
 31
0.0
 11
5.7416003707
 21
4.0260526295
 31
0.0
 11
5.7529681947
 21
4.0380845958
 31
0.0
 11
5.764743179
 21
4.0497171329
 31
0.0
 11
5.7894629675
 21
4.0717238981
 31
0.0
 11
5.8156422184
 21
4.0919644459
 31
0.0
 11
5.8431567781
 21
4.1103398716
 31
0.0
 11
5.8718806805
 21
4.1267519509
 31
0.0
 11
5.9016831891
 21
4.1411050945
 31
0.0
 11
5.9324177592
 21
4.1533297876
 31
0.0
 11
5.9639323258
 21
4.1633677237
 31
0.0
 11
5.9960743681
 21
4.1711617485
 31
0.0
  0
LINE
  5
2B8
100
AcDbEntity
  8
0
100
AcDbLine
 62
9
  6
CONTINUOUS
 10
5.6309102152
 20
3.8247746891
 11
5.6307970977
 21
3.824793352
  0
LINE
  5
2B9
100
AcDbEntity
  8
0
100
AcDbLine
 62
9
  6
CONTINUOUS
 10
5.6307970977
 20
3.824793352
 11
5.5606260964
 21
3.836306636
  0
SPLINE
  5
2BA
100
AcDbEntity
  8
0
100
AcDbSpline
 62
9
  6
CONTINUOUS
 70
0
 71
3
 72
26
 73
22
 74
20
 42
0.0000001
 43
0.0000001
 44
0.0000000001
 12
-0.5075985563
 22
-0.1270901751
 32
0.0
 13
-0.1702137952
 23
-0.4948085194
 33
0.0
 40
0.0
 40
0.0
 40
0.0
 40
0.0
 40
0.0625361291
 40
0.1251099618
 40
0.1564012265
 40
0.1876886584
 40
0.2189728866
 40
0.2502547971
 40
0.3128084132
 40
0.3753592055
 40
0.4066355003
 40
0.4379093939
 40
0.5004411473
 40
0.5629566327
 40
0.6254526055
 40
0.6879282298
 40
0.7503848512
 40
0.8128201133
 40
0.8752330787
 40
0.9376302923
 40
1.0
 40
1.0
 40
1.0
 40
1.0
 10
5.9341994185
 20
4.1772792347
 30
0.0
 10
5.9236183356
 20
4.1746299922
 30
0.0
 10
5.9026047456
 20
4.1686892812
 30
0.0
 10
5.8768316272
 20
4.1596962214
 30
0.0
 10
5.8565651872
 20
4.1515772147
 30
0.0
 10
5.8415565685
 20
4.145030388
 30
0.0
 10
5.8267544656
 20
4.138032928
 30
0.0
 10
5.80731347
 20
4.1281111194
 30
0.0
 10
5.7835914951
 20
4.1146094378
 30
0.0
 10
5.7607371647
 20
4.0996876647
 30
0.0
 10
5.7430309568
 20
4.0869302387
 30
0.0
 10
5.725728154
 20
4.0736363555
 30
0.0
 10
5.7048854209
 20
4.0560283934
 30
0.0
 10
5.681237775
 20
4.0333966609
 30
0.0
 10
5.6590552907
 20
4.00933921
 30
0.0
 10
5.6384323249
 20
3.9839452747
 30
0.0
 10
5.6194627085
 20
3.9573061876
 30
0.0
 10
5.6022291126
 20
3.9295251558
 30
0.0
 10
5.5868117326
 20
3.9007078055
 30
0.0
 10
5.5732686476
 20
3.8709778036
 30
0.0
 10
5.5655240671
 20
3.8506214456
 30
0.0
 10
5.5619853389
 20
3.8403344247
 30
0.0
 11
5.9341994185
 21
4.1772792347
 31
0.0
 11
5.9027102463
 21
4.1683779845
 31
0.0
 11
5.8717956951
 21
4.1575899205
 31
0.0
 11
5.856596401
 21
4.1515006747
 31
0.0
 11
5.8415902311
 21
4.1449549394
 31
0.0
 11
5.8267906376
 21
4.1379585886
 31
0.0
 11
5.812210929
 21
4.1305175344
 31
0.0
 11
5.7837644329
 21
4.1143250663
 31
0.0
 11
5.7563587821
 21
4.0964300184
 31
0.0
 11
5.743080717
 21
4.0868626789
 31
0.0
 11
5.7301042293
 21
4.0768921903
 31
0.0
 11
5.7051096798
 21
4.0557753043
 31
0.0
 11
5.6814784435
 21
4.0331554447
 31
0.0
 11
5.6593117667
 21
4.0091124849
 31
0.0
 11
5.6387048076
 21
3.9837337059
 31
0.0
 11
5.6197489749
 21
3.9571112426
 31
0.0
 11
5.6025290039
 21
3.9293475732
 31
0.0
 11
5.587122056
 21
3.9005515233
 31
0.0
 11
5.5735874788
 21
3.8708385051
 31
0.0
 11
5.5619853389
 21
3.8403344247
 31
0.0
  0
LINE
  5
2BB
100
AcDbEntity
  8
0
100
AcDbLine
 62
9
  6
CONTINUOUS
 10
5.6082436617
 20
3.6912333854
 11
5.5275459103
 21
3.7006842001
  0
LINE
  5
2BC
100
AcDbEntity
  8
0
100
AcDbLine
 62
9
  6
CONTINUOUS
 10
5.6021469153
 20
3.6022671578
 11
5.6082149724
 21
3.6908069808
  0
SPLINE
  5
2BD
100
AcDbEntity
  8
0
100
AcDbSpline
 62
9
  6
CONTINUOUS
 70
0
 71
3
 72
9
 73
5
 74
3
 42
0.0000001
 43
0.0000001
 44
0.0000000001
 12
-0.059325632
 22
0.3067915222
 32
0.0
 13
-0.0632889326
 23
0.3059984963
 33
0.0
 40
0.0
 40
0.0
 40
0.0
 40
0.0
 40
0.4983926575
 40
1.0
 40
1.0
 40
1.0
 40
1.0
 10
6.3345520765
 20
4.3240422988
 30
0.0
 10
6.3246962567
 20
4.3750098461
 30
0.0
 10
6.3042566901
 20
4.4771451063
 30
0.0
 10
6.283159817
 20
4.5791443899
 30
0.0
 10
6.2725777525
 20
4.6303080874
 30
0.0
 11
6.3345520765
 21
4.3240422988
 31
0.0
 11
6.304159125
 21
4.4767829977
 31
0.0
 11
6.2725777525
 21
4.6303080874
 31
0.0
  0
SPLINE
  5
2BE
100
AcDbEntity
  8
0
100
AcDbSpline
 62
9
  6
CONTINUOUS
 70
0
 71
3
 72
12
 73
8
 74
6
 42
0.0000001
 43
0.0000001
 44
0.0000000001
 12
-0.1432254427
 22
0.2550611652
 32
0.0
 13
-0.1504324169
 23
0.2508780847
 33
0.0
 40
0.0
 40
0.0
 40
0.0
 40
0.0
 40
0.1224183371
 40
0.2458595935
 40
0.4952515
 40
0.7470269622
 40
1.0
 40
1.0
 40
1.0
 40
1.0
 10
5.8996838845
 20
4.2625066705
 30
0.0
 10
5.893839411
 20
4.272914725
 30
0.0
 10
5.8820250858
 20
4.2937748947
 30
0.0
 10
5.8579627794
 20
4.3356441245
 30
0.0
 10
5.8271910156
 20
4.3882038712
 30
0.0
 10
5.7895936502
 20
4.4514003476
 30
0.0
 10
5.7642836074
 20
4.4936105719
 30
0.0
 10
5.7515984923
 20
4.5147657023
 30
0.0
 11
5.8996838845
 21
4.2625066705
 31
0.0
 11
5.8820417579
 21
4.2936695427
 31
0.0
 11
5.8640544451
 21
4.3249800223
 31
0.0
 11
5.8272353559
 21
4.3879599949
 31
0.0
 11
5.7896170253
 21
4.451278252
 31
0.0
 11
5.7515984923
 21
4.5147657023
 31
0.0
  0
SPLINE
  5
2BF
100
AcDbEntity
  8
0
100
AcDbSpline
 62
9
  6
CONTINUOUS
 70
0
 71
3
 72
15
 73
11
 74
9
 42
0.0000001
 43
0.0000001
 44
0.0000000001
 12
-0.5378991562
 22
0.0
 32
0.0
 13
-0.4863956585
 23
-0.229684056
 33
0.0
 40
0.0
 40
0.0
 40
0.0
 40
0.0
 40
0.1266268246
 40
0.2530991342
 40
0.3792592872
 40
0.5049484243
 40
0.6300144457
 40
0.7543128586
 40
0.877692787
 40
1.0
 40
1.0
 40
1.0
 40
1.0
 10
6.2725777525
 20
4.6303080874
 30
0.0
 10
6.2498735985
 20
4.6303080874
 30
0.0
 10
6.2044832721
 20
4.6290572915
 30
0.0
 10
6.1366797976
 20
4.623472225
 30
0.0
 10
6.06944591
 20
4.6142233307
 30
0.0
 10
6.0030667396
 20
4.6013548059
 30
0.0
 10
5.9378259639
 20
4.5849106839
 30
0.0
 10
5.8739855654
 20
4.5650203591
 30
0.0
 10
5.8118044868
 20
4.5418136919
 30
0.0
 10
5.7714283914
 20
4.5241297079
 30
0.0
 10
5.7515984923
 20
4.5147657023
 30
0.0
 11
6.2725777525
 21
4.6303080874
 31
0.0
 11
6.2044910042
 21
4.6284366705
 31
0.0
 11
6.136691259
 21
4.6228521545
 31
0.0
 11
6.0694636102
 21
4.6135991414
 31
0.0
 11
6.0030931512
 21
4.6007222329
 31
0.0
 11
5.9378604976
 21
4.5842800627
 31
0.0
 11
5.8740283528
 21
4.5643873902
 31
0.0
 11
5.8118549425
 21
4.5411730064
 31
0.0
 11
5.7515984923
 21
4.5147657023
 31
0.0
  0
SPLINE
  5
2C0
100
AcDbEntity
  8
0
100
AcDbSpline
 62
9
  6
CONTINUOUS
 70
0
 71
3
 72
13
 73
9
 74
7
 42
0.0000001
 43
0.0000001
 44
0.0000000001
 12
-0.3991782426
 22
-0.0045410924
 32
0.0
 13
-0.3873062656
 23
-0.0967354511
 33
0.0
 40
0.0
 40
0.0
 40
0.0
 40
0.0
 40
0.2500723307
 40
0.3751099002
 40
0.5001252553
 40
0.6251247407
 40
0.7501180561
 40
1.0
 40
1.0
 40
1.0
 40
1.0
 10
6.3345520765
 20
4.3240422988
 30
0.0
 10
6.3012775987
 20
4.3236637649
 30
0.0
 10
6.2513659592
 20
4.3217177558
 30
0.0
 10
6.1850297314
 20
4.3163018171
 30
0.0
 10
6.1354176614
 20
4.3108126044
 30
0.0
 10
6.0859918143
 20
4.3038827169
 30
0.0
 10
6.0204134994
 20
4.2927080624
 30
0.0
 10
5.9716242319
 20
4.2821208643
 30
0.0
 10
5.939363951
 20
4.2740633835
 30
0.0
 11
6.3345520765
 21
4.3240422988
 31
0.0
 11
6.2347989288
 21
4.3201286061
 31
0.0
 11
6.1850492226
 21
4.3160635658
 31
0.0
 11
6.1354456286
 21
4.3105721122
 31
0.0
 11
6.0860291205
 21
4.3036403722
 31
0.0
 11
6.0368409805
 21
4.2952545888
 31
0.0
 11
5.939363951
 21
4.2740633835
 31
0.0
  0
SPLINE
  5
2C1
100
AcDbEntity
  8
0
100
AcDbSpline
 62
9
  6
CONTINUOUS
 70
0
 71
3
 72
27
 73
23
 74
21
 42
0.0000001
 43
0.0000001
 44
0.0000000001
 12
-0.5558879234
 22
-0.182265143
 32
0.0
 13
-0.1092893247
 23
-0.5747067158
 33
0.0
 40
0.0
 40
0.0
 40
0.0
 40
0.0
 40
0.0625802329
 40
0.0938891043
 40
0.1251999891
 40
0.1565074705
 40
0.1878083905
 40
0.2503860916
 40
0.3129518013
 40
0.3755118937
 40
0.438060119
 40
0.5005941085
 40
0.5631102235
 40
0.6256050832
 40
0.6568479218
 40
0.6880842068
 40
0.7193142468
 40
0.7505382645
 40
0.812955377
 40
0.8753398795
 40
0.9376934942
 40
1.0
 40
1.0
 40
1.0
 40
1.0
 10
5.8996838845
 20
4.2625066705
 30
0.0
 10
5.8880880193
 20
4.2587046054
 30
0.0
 10
5.8708646452
 20
4.2524475057
 30
0.0
 10
5.8483372249
 20
4.2430291648
 30
0.0
 10
5.8316688343
 20
4.2354289851
 30
0.0
 10
5.8152534844
 20
4.2273004298
 30
0.0
 10
5.7937335237
 20
4.2157685929
 30
0.0
 10
5.7675495821
 20
4.2000690302
 30
0.0
 10
5.737415094
 20
4.1792487523
 30
0.0
 10
5.7086971559
 20
4.1565219492
 30
0.0
 10
5.6815276624
 20
4.1319737092
 30
0.0
 10
5.6560455015
 20
4.1056890666
 30
0.0
 10
5.6323692912
 20
4.0777812761
 30
0.0
 10
5.6142367857
 20
4.0532630561
 30
0.0
 10
5.6007522075
 20
4.0329589177
 30
0.0
 10
5.5911619666
 20
4.0173999984
 30
0.0
 10
5.582109817
 20
4.0015261315
 30
0.0
 10
5.5707785599
 20
3.9799687159
 30
0.0
 10
5.5580166832
 20
3.9523204464
 30
0.0
 10
5.5450389013
 20
3.9181791677
 30
0.0
 10
5.5344722629
 20
3.8832396282
 30
0.0
 10
5.529079002
 20
3.8595119621
 30
0.0
 10
5.52680919
 20
3.847575973
 30
0.0
 11
5.8996838845
 21
4.2625066705
 31
0.0
 11
5.8652746128
 21
4.2500054657
 31
0.0
 11
5.8483762652
 21
4.2429402574
 31
0.0
 11
5.8317101769
 21
4.2353405225
 31
0.0
 11
5.8152973892
 21
4.2272126733
 31
0.0
 11
5.7991574452
 21
4.2185637918
 31
0.0
 11
5.7677611746
 21
4.1997371126
 31
0.0
 11
5.7376495347
 21
4.1789297766
 31
0.0
 11
5.7089526816
 21
4.1562162087
 31
0.0
 11
5.6818058631
 21
4.1316813827
 31
0.0
 11
5.6563429912
 21
4.1054146699
 31
0.0
 11
5.6326854206
 21
4.0775246637
 31
0.0
 11
5.610949549
 21
4.0481277997
 31
0.0
 11
5.6008383428
 21
4.0329021223
 31
0.0
 11
5.5912507149
 21
4.0173459337
 31
0.0
 11
5.5822009692
 21
4.0014750104
 31
0.0
 11
5.5737023167
 21
3.9853062661
 31
0.0
 11
5.558402699
 21
3.9521517518
 31
0.0
 11
5.5454376709
 21
3.9180370135
 31
0.0
 11
5.5348821919
 21
3.8831203901
 31
0.0
 11
5.52680919
 21
3.847575973
 31
0.0
  0
SPLINE
  5
2C2
100
AcDbEntity
  8
0
100
AcDbSpline
 62
9
  6
CONTINUOUS
 70
0
 71
3
 72
14
 73
10
 74
8
 42
0.0000001
 43
0.0000001
 44
0.0000000001
 12
-0.2076500215
 22
0.0992097361
 32
0.0
 13
-0.2106040399
 23
0.0927741427
 33
0.0
 40
0.0
 40
0.0
 40
0.0
 40
0.0
 40
0.117856952
 40
0.2385378445
 40
0.3616597043
 40
0.4868371291
 40
0.6136729852
 40
0.7417550125
 40
1.0
 40
1.0
 40
1.0
 40
1.0
 10
5.52680919
 20
3.847575973
 30
0.0
 10
5.5186515238
 20
3.851473492
 30
0.0
 10
5.5021072573
 20
3.8592919872
 30
0.0
 10
5.4769415101
 20
3.8709702858
 30
0.0
 10
5.4511979283
 20
3.8827362516
 30
0.0
 10
5.4249689635
 20
3.8945751672
 30
0.0
 10
5.3983491199
 20
3.9064724169
 30
0.0
 10
5.3623666804
 20
3.922437559
 30
0.0
 10
5.335245932
 20
3.9343845192
 30
0.0
 10
5.3171167861
 20
3.9423706716
 30
0.0
 11
5.52680919
 21
3.847575973
 31
0.0
 11
5.5022898953
 21
3.8591711332
 31
0.0
 11
5.4771002813
 21
3.8708673882
 31
0.0
 11
5.4513322379
 21
3.8826506347
 31
0.0
 11
5.4250777097
 21
3.8945067642
 31
0.0
 11
5.3984310756
 21
3.9064214555
 31
0.0
 11
5.371490063
 21
3.9183800941
 31
0.0
 11
5.3171167861
 21
3.9423706716
 31
0.0
  0
SPLINE
  5
2C3
100
AcDbEntity
  8
0
100
AcDbSpline
 62
9
  6
CONTINUOUS
 70
0
 71
3
 72
25
 73
21
 74
19
 42
0.0000001
 43
0.0000001
 44
0.0000000001
 12
-0.6751447843
 22
-0.3188145078
 32
0.0
 13
-0.1286388442
 23
-0.7354693861
 33
0.0
 40
0.0
 40
0.0
 40
0.0
 40
0.0
 40
0.0615133587
 40
0.1231821712
 40
0.1849996709
 40
0.2159659571
 40
0.246967879
 40
0.3090708276
 40
0.371310103
 40
0.4024820481
 40
0.4336854654
 40
0.4961775072
 40
0.5587904649
 40
0.6215190934
 40
0.6843562487
 40
0.7472961478
 40
0.8103358579
 40
0.8734706494
 40
0.9366938765
 40
1.0
 40
1.0
 40
1.0
 40
1.0
 10
5.7515984923
 20
4.5147657023
 30
0.0
 10
5.7377550178
 20
4.5082285853
 30
0.0
 10
5.7104187643
 20
4.4943025101
 30
0.0
 10
5.6706890847
 20
4.470983589
 30
0.0
 10
5.6387325917
 20
4.4495748685
 30
0.0
 10
5.6139266083
 20
4.4312989624
 30
0.0
 10
5.5896220269
 20
4.412245668
 30
0.0
 10
5.5602811859
 20
4.3870316769
 30
0.0
 10
5.5324661318
 20
4.3600833613
 30
0.0
 10
5.5111746358
 20
4.3375271543
 30
0.0
 10
5.4905232434
 20
4.314299351
 30
0.0
 10
5.4659875896
 20
4.2840781578
 30
0.0
 10
5.4387390267
 20
4.2460594407
 30
0.0
 10
5.4137628697
 20
4.2064085361
 30
0.0
 10
5.3911555607
 20
4.165268168
 30
0.0
 10
5.3710131217
 20
4.1227802646
 30
0.0
 10
5.3534330039
 20
4.0790899568
 30
0.0
 10
5.3384730794
 20
4.0343600023
 30
0.0
 10
5.3261915374
 20
3.9887548253
 30
0.0
 10
5.3198313283
 20
3.9578905769
 30
0.0
 10
5.3171167861
 20
3.9423706716
 30
0.0
 11
5.7515984923
 21
4.5147657023
 31
0.0
 11
5.7106732599
 21
4.4939208825
 31
0.0
 11
5.6709628914
 21
4.47061546
 31
0.0
 11
5.6326174259
 21
4.444926613
 31
0.0
 11
5.614003419
 21
4.4312125236
 31
0.0
 11
5.5957869027
 21
4.4169315199
 31
0.0
 11
5.5606176593
 21
4.3867133959
 31
0.0
 11
5.5272412256
 21
4.3543796051
 31
0.0
 11
5.5112652586
 21
4.3374547725
 31
0.0
 11
5.4957854295
 21
4.3200435486
 31
0.0
 11
5.466378099
 21
4.2838186275
 31
0.0
 11
5.4391418295
 21
4.2458231743
 31
0.0
 11
5.4141782853
 21
4.2061952473
 31
0.0
 11
5.3915838979
 21
4.1650778361
 31
0.0
 11
5.3714550989
 21
4.1226139306
 31
0.0
 11
5.3538819506
 21
4.0789499189
 31
0.0
 11
5.3389290383
 21
4.0342457842
 31
0.0
 11
5.3266545781
 21
3.9886649079
 31
0.0
 11
5.3171167861
 21
3.9423706716
 31
0.0
  0
SPLINE
  5
2C4
100
AcDbEntity
  8
0
100
AcDbSpline
 62
9
  6
CONTINUOUS
 70
0
 71
3
 72
13
 73
9
 74
7
 42
0.0000001
 43
0.0000001
 44
0.0000000001
 12
-0.2197461678
 22
0.0534193737
 32
0.0
 13
-0.2205736246
 23
0.0498927237
 33
0.0
 40
0.0
 40
0.0
 40
0.0
 40
0.0
 40
0.1161018971
 40
0.2357232976
 40
0.3583836685
 40
0.4836018443
 40
0.7397269118
 40
1.0
 40
1.0
 40
1.0
 40
1.0
 10
5.5128132103
 20
3.7033782299
 30
0.0
 10
5.5043088946
 20
3.7054455934
 30
0.0
 10
5.487032935
 20
3.7096038494
 30
0.0
 10
5.4607442706
 20
3.7158292264
 30
0.0
 10
5.4337678166
 20
3.7221317967
 30
0.0
 10
5.3967503905
 20
3.7306854571
 30
0.0
 10
5.3495948865
 20
3.7414402994
 30
0.0
 10
5.3116269659
 20
3.7500285305
 30
0.0
 10
5.2924905064
 20
3.7543571083
 30
0.0
 11
5.5128132103
 21
3.7033782299
 31
0.0
 11
5.4872872016
 21
3.709526341
 31
0.0
 11
5.4609641232
 21
3.7157633937
 31
0.0
 11
5.433953059
 21
3.7220771007
 31
0.0
 11
5.4063630976
 21
3.7284551739
 31
0.0
 11
5.3498959786
 21
3.741354118
 31
0.0
 11
5.2924905064
 21
3.7543571083
 31
0.0
  0
LINE
  5
2C5
100
AcDbEntity
  8
0
100
AcDbLine
 62
9
  6
CONTINUOUS
 10
5.5127756169
 20
3.7004683349
 11
5.5123701069
 21
3.6101216108
  0
SPLINE
  5
2C6
100
AcDbEntity
  8
0
100
AcDbSpline
 62
9
  6
CONTINUOUS
 70
0
 71
3
 72
9
 73
5
 74
3
 42
0.0000001
 43
0.0000001
 44
0.0000000001
 12
-0.0627336415
 22
0.3033136942
 32
0.0
 13
-0.0588745063
 23
0.3040863354
 33
0.0
 40
0.0
 40
0.0
 40
0.0
 40
0.0
 40
0.5015790901
 40
1.0
 40
1.0
 40
1.0
 40
1.0
 10
6.2725777525
 20
4.6303080874
 30
0.0
 10
6.2620891249
 20
4.681020023
 30
0.0
 10
6.2411773719
 20
4.7821243818
 30
0.0
 10
6.2209056877
 20
4.8833611504
 30
0.0
 10
6.2111242593
 20
4.9338821464
 30
0.0
 11
6.2725777525
 21
4.6303080874
 31
0.0
 11
6.2412723583
 21
4.7824769994
 31
0.0
 11
6.2111242593
 21
4.9338821464
 31
0.0
  0
SPLINE
  5
2C7
100
AcDbEntity
  8
0
100
AcDbSpline
 62
9
  6
CONTINUOUS
 70
0
 71
3
 72
19
 73
15
 74
13
 42
0.0000001
 43
0.0000001
 44
0.0000000001
 12
-0.5957412911
 22
-0.0030890296
 32
0.0
 13
-0.5126700334
 23
-0.303457847
 33
0.0
 40
0.0
 40
0.0
 40
0.0
 40
0.0
 40
0.125000532
 40
0.1875232411
 40
0.2500391389
 40
0.3750350647
 40
0.4375398261
 40
0.500045064
 40
0.5625487659
 40
0.6250489309
 40
0.7500291197
 40
0.8125331821
 40
0.8750400348
 40
1.0
 40
1.0
 40
1.0
 40
1.0
 10
6.1658866818
 20
4.9336211411
 30
0.0
 10
6.1410640224
 20
4.933492431
 30
0.0
 10
6.1038166595
 20
4.9320387537
 30
0.0
 10
6.0543531062
 20
4.9276246585
 30
0.0
 10
6.00506307
 20
4.921572612
 30
0.0
 10
5.9561028749
 20
4.9130734935
 30
0.0
 10
5.9076638029
 20
4.9021573867
 30
0.0
 10
5.8716222225
 20
4.8927693664
 30
0.0
 10
5.8359122051
 20
4.8821931592
 30
0.0
 10
5.7888002137
 20
4.8665234971
 30
0.0
 10
5.7424902655
 20
4.8485227198
 30
0.0
 10
5.6971512363
 20
4.8282835924
 30
0.0
 10
5.6525014385
 20
4.8065773374
 30
0.0
 10
5.6198276629
 20
4.7886624543
 30
0.0
 10
5.598473253
 20
4.776022427
 30
0.0
 11
6.1658866818
 21
4.9336211411
 31
0.0
 11
6.0914738694
 21
4.9307293858
 31
0.0
 11
6.0543733406
 21
4.9274197269
 31
0.0
 11
6.0174071422
 21
4.922880895
 31
0.0
 11
5.9440383642
 21
4.9101434462
 31
0.0
 11
5.9077121481
 21
4.9019573183
 31
0.0
 11
5.8716770431
 21
4.8925712106
 31
0.0
 11
5.835973543
 21
4.8819967254
 31
0.0
 11
5.8006420521
 21
4.8702456191
 31
0.0
 11
5.731240468
 21
4.8432781551
 31
0.0
 11
5.6972374514
 21
4.8281001935
 31
0.0
 11
5.6637470368
 21
4.8118185601
 31
0.0
 11
5.598473253
 21
4.776022427
 31
0.0
  0
LINE
  5
2C8
100
AcDbEntity
  8
0
100
AcDbLine
 62
9
  6
CONTINUOUS
 10
6.2111242593
 20
4.9338821464
 11
6.1658866818
 21
4.9336211411
  0
SPLINE
  5
2C9
100
AcDbEntity
  8
0
100
AcDbSpline
 62
9
  6
CONTINUOUS
 70
0
 71
3
 72
12
 73
8
 74
6
 42
0.0000001
 43
0.0000001
 44
0.0000000001
 12
-0.1557359325
 22
0.259722826
 32
0.0
 13
-0.1477051731
 23
0.2643724813
 33
0.0
 40
0.0
 40
0.0
 40
0.0
 40
0.0
 40
0.2531925818
 40
0.5050983096
 40
0.7544439791
 40
0.8777705705
 40
1.0
 40
1.0
 40
1.0
 40
1.0
 10
5.7515984923
 20
4.5147657023
 30
0.0
 10
5.7384547647
 20
4.5366856666
 30
0.0
 10
5.7122342543
 20
4.5804143079
 30
0.0
 10
5.6733123516
 20
4.6458750587
 30
0.0
 10
5.6414996994
 20
4.7003101214
 30
0.0
 10
5.6166666636
 20
4.7436593099
 30
0.0
 10
5.6044912261
 20
4.7652510611
 30
0.0
 10
5.598473253
 20
4.776022427
 30
0.0
 11
5.7515984923
 21
4.5147657023
 31
0.0
 11
5.7122082578
 21
4.5805501315
 31
0.0
 11
5.6732632675
 21
4.6461463149
 31
0.0
 11
5.6352072414
 21
4.7113661404
 31
0.0
 11
5.616648438
 21
4.74377638
 31
0.0
 11
5.598473253
 21
4.776022427
 31
0.0
  0
SPLINE
  5
2CA
100
AcDbEntity
  8
0
100
AcDbSpline
 62
9
  6
CONTINUOUS
 70
0
 71
3
 72
25
 73
21
 74
19
 42
0.0000001
 43
0.0000001
 44
0.0000000001
 12
-0.7605192766
 22
-0.4682583243
 32
0.0
 13
-0.1440855789
 23
-0.8814163457
 33
0.0
 40
0.0
 40
0.0
 40
0.0
 40
0.0
 40
0.0625071712
 40
0.1250397895
 40
0.1875656206
 40
0.2500815159
 40
0.2813412584
 40
0.3126012023
 40
0.3751160565
 40
0.4376290152
 40
0.5001374974
 40
0.5626428032
 40
0.6251441701
 40
0.6876404945
 40
0.718888577
 40
0.7501343825
 40
0.8126159219
 40
0.875093543
 40
0.937562287
 40
1.0
 40
1.0
 40
1.0
 40
1.0
 10
5.5813289684
 20
4.7656725547
 30
0.0
 10
5.5654829989
 20
4.7559160536
 30
0.0
 10
5.534328442
 20
4.7355000821
 30
0.0
 10
5.4893812251
 20
4.7023211048
 30
0.0
 10
5.4463403802
 20
4.6666987547
 30
0.0
 10
5.4121645663
 20
4.6350826065
 30
0.0
 10
5.3859002057
 20
4.6086990938
 30
0.0
 10
5.3603684399
 20
4.5816064381
 30
0.0
 10
5.3298518608
 20
4.5464514106
 30
0.0
 10
5.2955694159
 20
4.5023524997
 30
0.0
 10
5.2637071097
 20
4.4564775008
 30
0.0
 10
5.2343362968
 20
4.408973277
 30
0.0
 10
5.2075283102
 20
4.3599823103
 30
0.0
 10
5.1873703158
 20
4.3180361097
 30
0.0
 10
5.1725840308
 20
4.2838858422
 30
0.0
 10
5.1586998939
 20
4.2493636801
 30
0.0
 10
5.1430434832
 20
4.2055512569
 30
0.0
 10
5.1270127306
 20
4.1520795852
 30
0.0
 10
5.1137720681
 20
4.0978640293
 30
0.0
 10
5.1068221039
 20
4.0613140962
 30
0.0
 10
5.1038233125
 20
4.0429695559
 30
0.0
 11
5.5813289684
 21
4.7656725547
 31
0.0
 11
5.5346323346
 21
4.7350787485
 31
0.0
 11
5.4896977329
 21
4.7019128595
 31
0.0
 11
5.4466759857
 21
4.6663102351
 31
0.0
 11
5.405688647
 21
4.6283963239
 31
0.0
 11
5.3859917979
 21
4.6086104631
 31
0.0
 11
5.3668437677
 21
4.5882927583
 31
0.0
 11
5.3302407954
 21
4.5461318145
 31
0.0
 11
5.2959717036
 21
4.5020550284
 31
0.0
 11
5.264121524
 21
4.4562046918
 31
0.0
 11
5.2347625431
 21
4.4087239504
 31
0.0
 11
5.2079638348
 21
4.3597565424
 31
0.0
 11
5.1837852718
 21
4.3094487683
 31
0.0
 11
5.1726963307
 21
4.2838382202
 31
0.0
 11
5.1622831999
 21
4.2579477202
 31
0.0
 11
5.1435023342
 21
4.2053998351
 31
0.0
 11
5.1274765155
 21
4.1519509463
 31
0.0
 11
5.1142391073
 21
4.0977522666
 31
0.0
 11
5.1038233125
 21
4.0429695559
 31
0.0
  0
SPLINE
  5
2CB
100
AcDbEntity
  8
0
100
AcDbSpline
 62
9
  6
CONTINUOUS
 70
0
 71
3
 72
14
 73
10
 74
8
 42
0.0000001
 43
0.0000001
 44
0.0000000001
 12
-0.2148942454
 22
0.0946640407
 32
0.0
 13
-0.2117283642
 23
0.10154761
 33
0.0
 40
0.0
 40
0.0
 40
0.0
 40
0.0
 40
0.258618659
 40
0.3868397664
 40
0.5137575117
 40
0.6389413255
 40
0.7619777474
 40
0.8824640393
 40
1.0
 40
1.0
 40
1.0
 40
1.0
 10
5.3171167861
 20
3.9423706716
 30
0.0
 10
5.2985915656
 20
3.9505313007
 30
0.0
 10
5.2708816015
 20
3.9627377936
 30
0.0
 10
5.2341255489
 20
3.9790513912
 30
0.0
 10
5.2069501172
 20
3.9912048277
 30
0.0
 10
5.1801916294
 20
4.0032960704
 30
0.0
 10
5.1539506731
 20
4.0153093874
 30
0.0
 10
5.1283257931
 20
4.0272291612
 30
0.0
 10
5.111491068
 20
4.0352110238
 30
0.0
 10
5.1031958357
 20
4.0391895224
 30
0.0
 11
5.3171167861
 21
3.9423706716
 31
0.0
 11
5.2615562358
 21
3.9668868339
 31
0.0
 11
5.2340380986
 21
3.9791058002
 31
0.0
 11
5.2068341381
 21
3.9912778628
 31
0.0
 11
5.180048521
 21
4.0033874358
 31
0.0
 11
5.1537815371
 21
4.0154192729
 31
0.0
 11
5.1281312843
 21
4.0273583193
 31
0.0
 11
5.1031958357
 21
4.0391895224
 31
0.0
  0
SPLINE
  5
2CC
100
AcDbEntity
  8
0
100
AcDbSpline
 62
9
  6
CONTINUOUS
 70
0
 71
3
 72
13
 73
9
 74
7
 42
0.0000001
 43
0.0000001
 44
0.0000000001
 12
-0.2223915652
 22
0.0503039334
 32
0.0
 13
-0.2215397175
 23
0.0539318786
 33
0.0
 40
0.0
 40
0.0
 40
0.0
 40
0.0
 40
0.2604650499
 40
0.5167035765
 40
0.6419251308
 40
0.7645417744
 40
0.8840632629
 40
1.0
 40
1.0
 40
1.0
 40
1.0
 10
5.2924905064
 20
3.7543571083
 30
0.0
 10
5.2731820963
 20
3.7587245804
 30
0.0
 10
5.2348786075
 20
3.7673887141
 30
0.0
 10
5.187311919
 20
3.7782389521
 30
0.0
 10
5.1499847337
 20
3.7868676021
 30
0.0
 10
5.1227971709
 20
3.7932233232
 30
0.0
 10
5.0963158965
 20
3.7994997568
 30
0.0
 10
5.0789182808
 20
3.803692329
 30
0.0
 10
5.0703567502
 20
3.8057765577
 30
0.0
 11
5.2924905064
 21
3.7543571083
 31
0.0
 11
5.234569289
 21
3.7674772523
 31
0.0
 11
5.1776120661
 21
3.7804905066
 31
0.0
 11
5.1497945327
 21
3.7869237928
 31
0.0
 11
5.1225714231
 21
3.7932909792
 31
0.0
 11
5.0960548066
 21
3.799579442
 31
0.0
 11
5.0703567502
 21
3.8057765577
 31
0.0
  0
SPLINE
  5
2CD
100
AcDbEntity
  8
0
100
AcDbSpline
 62
9
  6
CONTINUOUS
 70
0
 71
3
 72
9
 73
5
 74
3
 42
0.0000001
 43
0.0000001
 44
0.0000000001
 12
0.4904655542
 22
0.0025016639
 32
0.0
 13
0.4904604744
 23
0.0033527952
 33
0.0
 40
0.0
 40
0.0
 40
0.0
 40
0.0
 40
0.4999894509
 40
1.0
 40
1.0
 40
1.0
 40
1.0
 10
6.1661747699
 20
5.0523310174
 30
0.0
 10
6.2479173043
 20
5.0527479526
 30
0.0
 10
6.4114053317
 20
5.0536790935
 30
0.0
 10
6.5748924863
 20
5.0547492764
 30
0.0
 10
6.6566376233
 20
5.0553080874
 30
0.0
 11
6.1661747699
 21
5.0523310174
 31
0.0
 11
6.4114016642
 21
5.0537138329
 31
0.0
 11
6.6566376233
 21
5.0553080874
 31
0.0
  0
LINE
  5
2CE
100
AcDbEntity
  8
0
100
AcDbLine
 62
9
  6
CONTINUOUS
 10
6.6566376233
 20
5.0553080874
 11
6.2187209372
 21
5.0476731439
  0
LINE
  5
2CF
100
AcDbEntity
  8
0
100
AcDbLine
 62
9
  6
CONTINUOUS
 10
6.2187209372
 20
5.0476731439
 11
6.1735387267
 21
5.0468270183
  0
LINE
  5
2D0
100
AcDbEntity
  8
0
100
AcDbLine
 62
9
  6
CONTINUOUS
 10
6.1735387267
 20
5.0468270183
 11
6.1661747699
 21
5.0523310174
  0
SPLINE
  5
2D1
100
AcDbEntity
  8
0
100
AcDbSpline
 62
9
  6
CONTINUOUS
 70
0
 71
3
 72
19
 73
15
 74
13
 42
0.0000001
 43
0.0000001
 44
0.0000000001
 12
-0.653926481
 22
-0.0146983919
 32
0.0
 13
-0.547524269
 23
-0.3578450224
 33
0.0
 40
0.0
 40
0.0
 40
0.0
 40
0.0
 40
0.1249841585
 40
0.187504502
 40
0.2500199129
 40
0.3750162373
 40
0.4375237935
 40
0.5000330613
 40
0.5625413265
 40
0.6250457594
 40
0.7500301232
 40
0.8125364557
 40
0.8750452162
 40
1.0
 40
1.0
 40
1.0
 40
1.0
 10
6.1735387267
 20
5.0468270183
 30
0.0
 10
6.146295243
 20
5.0462146629
 30
0.0
 10
6.1054376242
 20
5.0438597875
 30
0.0
 10
6.0512457
 20
5.0378883352
 30
0.0
 10
5.997290072
 20
5.0300382037
 30
0.0
 10
5.9437769678
 20
5.0193787703
 30
0.0
 10
5.8909398867
 20
5.0059415687
 30
0.0
 10
5.8516828593
 20
4.9944838723
 30
0.0
 10
5.8128499226
 20
4.9816644008
 30
0.0
 10
5.7617101702
 20
4.9627789998
 30
0.0
 10
5.7115872849
 20
4.9412302992
 30
0.0
 10
5.6626857425
 20
4.9171329859
 30
0.0
 10
5.6146502402
 20
4.8913684415
 30
0.0
 10
5.5796425725
 20
4.8701891227
 30
0.0
 10
5.5568373136
 20
4.8552843069
 30
0.0
 11
6.1735387267
 21
5.0468270183
 31
0.0
 11
6.0919225728
 21
5.0421318248
 31
0.0
 11
6.0512745045
 21
5.0376533633
 31
0.0
 11
6.0108097896
 21
5.0317656609
 31
0.0
 11
5.9306270011
 21
5.0157887087
 31
0.0
 11
5.8910025804
 21
5.0057118374
 31
0.0
 11
5.851753225
 21
4.9942568078
 31
0.0
 11
5.8129279957
 21
4.9814397277
 31
0.0
 11
5.7745758779
 21
4.9672768866
 31
0.0
 11
5.6994680467
 21
4.934995668
 31
0.0
 11
5.662793771
 21
4.9169244174
 31
0.0
 11
5.6267631877
 21
4.8975982812
 31
0.0
 11
5.5568373136
 21
4.8552843069
 31
0.0
  0
SPLINE
  5
2D2
100
AcDbEntity
  8
0
100
AcDbSpline
 62
9
  6
CONTINUOUS
 70
0
 71
3
 72
19
 73
15
 74
13
 42
0.0000001
 43
0.0000001
 44
0.0000000001
 12
0.578076766
 22
0.3690489383
 32
0.0
 13
0.6857734036
 23
0.0092035429
 33
0.0
 40
0.0
 40
0.0
 40
0.0
 40
0.0
 40
0.1249968398
 40
0.2499953615
 40
0.312503687
 40
0.3750113592
 40
0.4375181377
 40
0.5000240542
 40
0.5625291386
 40
0.6250336055
 40
0.6875375062
 40
0.7500405668
 40
0.8750245129
 40
1.0
 40
1.0
 40
1.0
 40
1.0
 10
5.5059083083
 20
4.8589525294
 30
0.0
 10
5.5299942313
 20
4.8743291798
 30
0.0
 10
5.5792783519
 20
4.9033757896
 30
0.0
 10
5.6432709739
 20
4.9352739087
 30
0.0
 10
5.6956924376
 20
4.9580761267
 30
0.0
 10
5.7355819157
 20
4.9738058577
 30
0.0
 10
5.7759920873
 20
4.9881422155
 30
0.0
 10
5.8168758279
 20
5.0010647921
 30
0.0
 10
5.8581833416
 20
5.0125589555
 30
0.0
 10
5.8998639693
 20
5.0226135856
 30
0.0
 10
5.9418658123
 20
5.031227663
 30
0.0
 10
5.9982216145
 20
5.040784467
 30
0.0
 10
6.0692265836
 20
5.0491031262
 30
0.0
 10
6.1263564946
 20
5.0518483472
 30
0.0
 10
6.1549247829
 20
5.0522317529
 30
0.0
 11
5.5059083083
 21
4.8589525294
 31
0.0
 11
5.5797551197
 21
4.9024933838
 31
0.0
 11
5.6564756238
 21
4.9407467443
 31
0.0
 11
5.6957877242
 21
4.9578473463
 31
0.0
 11
5.7356689753
 21
4.9735737325
 31
0.0
 11
5.7760712957
 21
4.9879066793
 31
0.0
 11
5.8169467235
 21
5.0008268026
 31
0.0
 11
5.8582457382
 21
5.0123190882
 31
0.0
 11
5.8999177068
 21
5.0223735383
 31
0.0
 11
5.9419108545
 21
5.0309867368
 31
0.0
 11
5.984174212
 21
5.0381540839
 31
0.0
 11
6.0693105954
 21
5.0481259289
 31
0.0
 11
6.1549247829
 21
5.0522317529
 31
0.0
  0
LINE
  5
2D3
100
AcDbEntity
  8
0
100
AcDbLine
 62
9
  6
CONTINUOUS
 10
5.5034139435
 20
4.8573459059
 11
5.5059042692
 21
4.8589604795
  0
SPLINE
  5
2D4
100
AcDbEntity
  8
0
100
AcDbSpline
 62
9
  6
CONTINUOUS
 70
0
 71
3
 72
30
 73
26
 74
24
 42
0.0000001
 43
0.0000001
 44
0.0000000001
 12
-0.7842635007
 22
-0.5356283828
 32
0.0
 13
-0.0870980125
 23
-0.945717156
 33
0.0
 40
0.0
 40
0.0
 40
0.0
 40
0.0
 40
0.0625167927
 40
0.0937910351
 40
0.1250673714
 40
0.1563409962
 40
0.1876101469
 40
0.250133692
 40
0.2813962962
 40
0.3126583449
 40
0.3751750557
 40
0.4064350836
 40
0.4376933954
 40
0.4689496912
 40
0.5002043899
 40
0.5627038678
 40
0.625197251
 40
0.6564442872
 40
0.687689412
 40
0.7189323237
 40
0.7501728017
 40
0.8126430477
 40
0.8751097817
 40
0.9375694101
 40
1.0
 40
1.0
 40
1.0
 40
1.0
 10
5.5387686902
 20
4.8432375501
 30
0.0
 10
5.5224254773
 20
4.8320756272
 30
0.0
 10
5.4983812753
 20
4.8146185057
 30
0.0
 10
5.4673640567
 20
4.7900051614
 30
0.0
 10
5.4446289649
 20
4.7708846608
 30
0.0
 10
5.4224483274
 20
4.7511262945
 30
0.0
 10
5.3936407954
 20
4.7239597322
 30
0.0
 10
5.3659981115
 20
4.6955843429
 30
0.0
 10
5.3395906851
 20
4.6660868581
 30
0.0
 10
5.314021879
 20
4.6358623376
 30
0.0
 10
5.2897288179
 20
4.6045787443
 30
0.0
 10
5.2667695711
 20
4.5723302454
 30
0.0
 10
5.2502252277
 20
4.5476764013
 30
0.0
 10
5.2343684728
 20
4.5225769669
 30
0.0
 10
5.2141559975
 20
4.4885481144
 30
0.0
 10
5.1906488165
 20
4.4449973435
 30
0.0
 10
5.1695472301
 20
4.4002345598
 30
0.0
 10
5.154141242
 20
4.3637855916
 30
0.0
 10
5.1433299576
 20
4.3361471422
 30
0.0
 10
5.1332695178
 20
4.3082288208
 30
0.0
 10
5.1208675822
 20
4.270662095
 30
0.0
 10
5.1072679388
 20
4.2231008428
 30
0.0
 10
5.0940246405
 20
4.165244624
 30
0.0
 10
5.0838838471
 20
4.1067785554
 30
0.0
 10
5.0792060639
 20
4.0674971251
 30
0.0
 10
5.0773935372
 20
4.0478165651
 30
0.0
 11
5.5387686902
 21
4.8432375501
 31
0.0
 11
5.4907201255
 21
4.808358651
 31
0.0
 11
5.4674535206
 21
4.7898962733
 31
0.0
 11
5.444720525
 21
4.7707776085
 31
0.0
 11
5.422542366
 21
4.7510218824
 31
0.0
 11
5.4009367624
 21
4.7306477577
 31
0.0
 11
5.3594992999
 21
4.6881165877
 31
0.0
 11
5.3396952234
 21
4.6659956387
 31
0.0
 11
5.3205192038
 21
4.6433287735
 31
0.0
 11
5.2841004872
 21
4.5964366631
 31
0.0
 11
5.2668817303
 21
4.5722518134
 31
0.0
 11
5.2503393239
 21
4.5476013659
 31
0.0
 11
5.2344841296
 21
4.5225056509
 31
0.0
 11
5.2193249408
 21
4.4969852464
 31
0.0
 11
5.1911288384
 21
4.4447527895
 31
0.0
 11
5.1658186097
 21
4.391068947
 31
0.0
 11
5.154264802
 21
4.3637345436
 31
0.0
 11
5.1434547306
 21
4.3360995169
 31
0.0
 11
5.13339554
 21
4.3081846411
 31
0.0
 11
5.1240939984
 21
4.2800106855
 31
0.0
 11
5.1077801612
 21
4.2229684776
 31
0.0
 11
5.0945409041
 21
4.1651387182
 31
0.0
 11
5.0844030088
 21
4.1066923204
 31
0.0
 11
5.0773935372
 21
4.0478165651
 31
0.0
  0
LINE
  5
2D5
100
AcDbEntity
  8
0
100
AcDbLine
 62
9
  6
CONTINUOUS
 10
5.0773935372
 20
4.0478165651
 11
5.0026700785
 21
4.0600744444
  0
LINE
  5
2D6
100
AcDbEntity
  8
0
100
AcDbLine
 62
9
  6
CONTINUOUS
 10
5.0026730362
 20
4.0600739602
 11
5.0027917705
 21
4.0611260054
  0
SPLINE
  5
2D7
100
AcDbEntity
  8
0
100
AcDbSpline
 62
9
  6
CONTINUOUS
 70
0
 71
3
 72
25
 73
21
 74
19
 42
0.0000001
 43
0.0000001
 44
0.0000000001
 12
0.1162400089
 22
0.9644709711
 32
0.0
 13
0.8175613645
 23
0.5246993512
 33
0.0
 40
0.0
 40
0.0
 40
0.0
 40
0.0
 40
0.0625074663
 40
0.1250321496
 40
0.187552708
 40
0.2500694864
 40
0.3125863335
 40
0.3751026975
 40
0.4376151817
 40
0.4688722585
 40
0.5001277798
 40
0.5313817048
 40
0.5626341735
 40
0.6251295106
 40
0.6876195454
 40
0.7501041152
 40
0.8125844089
 40
0.8750598082
 40
0.9375326977
 40
1.0
 40
1.0
 40
1.0
 40
1.0
 10
5.0027952203
 20
4.0611254373
 30
0.0
 10
5.0052171764
 20
4.0812209829
 30
0.0
 10
5.0111848443
 20
4.1212912406
 30
0.0
 10
5.0234512836
 20
4.1808024014
 30
0.0
 10
5.0389900478
 20
4.239549198
 30
0.0
 10
5.0577512553
 20
4.2973444937
 30
0.0
 10
5.0796864227
 20
4.3540101649
 30
0.0
 10
5.104709745
 20
4.4093785131
 30
0.0
 10
5.1280685643
 20
4.454304596
 30
0.0
 10
5.1482112187
 20
4.4894281674
 30
0.0
 10
5.1640366236
 20
4.5153457313
 30
0.0
 10
5.1805688979
 20
4.5408164493
 30
0.0
 10
5.2035358748
 20
4.5741526078
 30
0.0
 10
5.2339462885
 20
4.6146198441
 30
0.0
 10
5.2730326051
 20
4.6611069094
 30
0.0
 10
5.3146013861
 20
4.7053831645
 30
0.0
 10
5.3585366208
 20
4.7473047091
 30
0.0
 10
5.4046941405
 20
4.7867606974
 30
0.0
 10
5.4529305982
 20
4.8236361066
 30
0.0
 10
5.48638626
 20
4.846428331
 30
0.0
 10
5.5034098776
 20
4.8573538487
 30
0.0
 11
5.0027952203
 21
4.0611254373
 31
0.0
 11
5.0117363111
 21
4.1211864755
 31
0.0
 11
5.0239968923
 21
4.1806758114
 31
0.0
 11
5.0395275808
 21
4.2393921964
 31
0.0
 11
5.0582803124
 21
4.297156417
 31
0.0
 11
5.0802012706
 21
4.3537943002
 31
0.0
 11
5.1052115618
 21
4.409136929
 31
0.0
 11
5.1332254396
 21
4.4630172231
 31
0.0
 11
5.1483312754
 21
4.4893578538
 31
0.0
 11
5.1641548431
 21
4.5152719049
 31
0.0
 11
5.1806849754
 21
4.5407392153
 31
0.0
 11
5.1979091714
 21
4.5657406219
 31
0.0
 11
5.2343801812
 21
4.6142762379
 31
0.0
 11
5.2734480631
 21
4.660740372
 31
0.0
 11
5.314997326
 21
4.7049922573
 31
0.0
 11
5.358908644
 21
4.7468952701
 31
0.0
 11
5.4050418081
 21
4.7863315521
 31
0.0
 11
5.4532567985
 21
4.8231894944
 31
0.0
 11
5.5034098776
 21
4.8573538487
 31
0.0
  0
LINE
  5
2D8
100
AcDbEntity
  8
0
100
AcDbLine
 62
9
  6
CONTINUOUS
 10
5.0590043614
 20
3.8078468288
 11
4.9766253755
 21
3.8174939955
  0
LINE
  5
2D9
100
AcDbEntity
  8
0
100
AcDbLine
 62
9
  6
CONTINUOUS
 10
4.9611283313
 20
3.658349017
 11
4.9766253801
 21
3.8174939949
  0
LINE
  5
2DA
100
AcDbEntity
  8
0
100
AcDbLine
 62
9
  6
CONTINUOUS
 10
6.1674912535
 20
5.0888298431
 11
6.6566376233
 21
5.0952965708
  0
SPLINE
  5
2DB
100
AcDbEntity
  8
0
100
AcDbSpline
 62
9
  6
CONTINUOUS
 70
0
 71
3
 72
19
 73
15
 74
13
 42
0.0000001
 43
0.0000001
 44
0.0000000001
 12
0.5866805867
 22
0.3894244723
 32
0.0
 13
0.7039843756
 23
0.0158596775
 33
0.0
 40
0.0
 40
0.0
 40
0.0
 40
0.0
 40
0.1249868709
 40
0.2499788442
 40
0.3124855693
 40
0.3749925094
 40
0.4374994588
 40
0.5000064248
 40
0.5625131853
 40
0.6250197489
 40
0.6875260374
 40
0.7500316817
 40
0.8750204027
 40
1.0
 40
1.0
 40
1.0
 40
1.0
 10
5.4924078113
 20
4.8816304879
 30
0.0
 10
5.5168502682
 20
4.8978548033
 30
0.0
 10
5.5669327577
 20
4.9285375802
 30
0.0
 10
5.6321097211
 20
4.9623180735
 30
0.0
 10
5.6855778607
 20
4.986523469
 30
0.0
 10
5.7262996786
 20
5.0032534451
 30
0.0
 10
5.7675859168
 20
5.0185364723
 30
0.0
 10
5.8093863912
 20
5.032351396
 30
0.0
 10
5.851648366
 20
5.0446821501
 30
0.0
 10
5.8943180549
 20
5.0555166746
 30
0.0
 10
5.9373402923
 20
5.0648537503
 30
0.0
 10
5.9950938961
 20
5.0752984882
 30
0.0
 10
6.0679093809
 20
5.0845855493
 30
0.0
 10
6.1265400175
 20
5.0879569789
 30
0.0
 10
6.1558679121
 20
5.0886176909
 30
0.0
 11
5.4924078113
 21
4.8816304879
 31
0.0
 11
5.5674459836
 21
4.927622136
 31
0.0
 11
5.6455835703
 21
4.9681327393
 31
0.0
 11
5.6856806825
 21
4.9862858396
 31
0.0
 11
5.7263937379
 21
5.0030122826
 31
0.0
 11
5.7676716258
 21
5.0182917893
 31
0.0
 11
5.8094633685
 21
5.032104053
 31
0.0
 11
5.8517163885
 21
5.0444327976
 31
0.0
 11
5.8943769184
 21
5.0552671243
 31
0.0
 11
5.9373899613
 21
5.064603319
 31
0.0
 11
5.9807014337
 21
5.0724367611
 31
0.0
 11
6.0680067083
 21
5.0835712722
 31
0.0
 11
6.1558679121
 21
5.0886176909
 31
0.0
  0
LINE
  5
2DC
100
AcDbEntity
  8
0
100
AcDbLine
 62
9
  6
CONTINUOUS
 10
5.4898686397
 20
4.8799568595
 11
5.492415243
 21
4.8816187751
  0
LINE
  5
2DD
100
AcDbEntity
  8
0
100
AcDbLine
 62
9
  6
CONTINUOUS
 10
5.4663405032
 20
4.9396546307
 11
5.4643977719
 21
4.9383209629
  0
SPLINE
  5
2DE
100
AcDbEntity
  8
0
100
AcDbSpline
 62
9
  6
CONTINUOUS
 70
0
 71
3
 72
19
 73
15
 74
13
 42
0.0000001
 43
0.0000001
 44
0.0000000001
 12
-0.6944101166
 22
0.0016352824
 32
0.0
 13
-0.579333683
 23
-0.3828584176
 33
0.0
 40
0.0
 40
0.0
 40
0.0
 40
0.0
 40
0.1249883599
 40
0.1875130987
 40
0.2500302623
 40
0.3750224589
 40
0.4375279408
 40
0.5000350605
 40
0.5625418286
 40
0.6250452437
 40
0.7500272008
 40
0.8125337387
 40
0.8750430107
 40
1.0
 40
1.0
 40
1.0
 40
1.0
 10
6.12156218
 20
5.1381047476
 30
0.0
 10
6.0926311195
 20
5.138172878
 30
0.0
 10
6.0492008432
 20
5.1366145776
 30
0.0
 10
5.9915617474
 20
5.1312925862
 30
0.0
 10
5.9341582333
 20
5.1238289306
 30
0.0
 10
5.8772121751
 20
5.1131742194
 30
0.0
 10
5.8209994896
 20
5.0993871612
 30
0.0
 10
5.7792438723
 20
5.0874969897
 30
0.0
 10
5.7379531692
 20
5.0740831258
 30
0.0
 10
5.683600053
 20
5.0542000329
 30
0.0
 10
5.6303674015
 20
5.0313595041
 30
0.0
 10
5.5784843284
 20
5.0057094823
 30
0.0
 10
5.5275557731
 20
4.9782274788
 30
0.0
 10
5.4904819066
 20
4.9555852023
 30
0.0
 10
5.466351309
 20
4.9396382572
 30
0.0
 11
6.12156218
 21
5.1381047476
 31
0.0
 11
6.0348237885
 21
5.1350145068
 31
0.0
 11
5.9915895688
 21
5.1310246415
 31
0.0
 11
5.9485391922
 21
5.1254277585
 31
0.0
 11
5.8632231946
 21
5.109467145
 31
0.0
 11
5.8210677631
 21
5.0991290909
 31
0.0
 11
5.7793212049
 21
5.0872429906
 31
0.0
 11
5.7380392383
 21
5.0738328251
 31
0.0
 11
5.6972774823
 21
5.0589227471
 31
0.0
 11
5.617514219
 21
5.0247153181
 31
0.0
 11
5.5786035856
 21
5.005480401
 31
0.0
 11
5.5404031531
 21
4.9848670266
 31
0.0
 11
5.466351309
 21
4.9396382572
 31
0.0
  0
LINE
  5
2DF
100
AcDbEntity
  8
0
100
AcDbLine
 62
9
  6
CONTINUOUS
 10
6.1486784979
 20
5.1380468893
 11
6.12156218
 21
5.1381047476
  0
SPLINE
  5
2E0
100
AcDbEntity
  8
0
100
AcDbSpline
 62
9
  6
CONTINUOUS
 70
0
 71
3
 72
28
 73
24
 74
22
 42
0.0000001
 43
0.0000001
 44
0.0000000001
 12
0.1006583482
 22
0.9809217575
 32
0.0
 13
0.8200117909
 23
0.5476497605
 33
0.0
 40
0.0
 40
0.0
 40
0.0
 40
0.0
 40
0.0624973086
 40
0.1250129659
 40
0.1562731209
 40
0.1875322707
 40
0.2500435815
 40
0.3125565585
 40
0.3750701302
 40
0.4375810586
 40
0.4688377481
 40
0.5000930912
 40
0.5313470904
 40
0.5625999181
 40
0.59385171
 40
0.6251024593
 40
0.6875945574
 40
0.7500819533
 40
0.7813272829
 40
0.8125716973
 40
0.8750509656
 40
0.9375282103
 40
1.0
 40
1.0
 40
1.0
 40
1.0
 10
4.9976411378
 20
4.0619625203
 30
0.0
 10
4.9997380964
 20
4.0823975102
 30
0.0
 10
5.0050597923
 20
4.1231661482
 30
0.0
 10
5.0144925097
 20
4.1736851722
 30
0.0
 10
5.0236884658
 20
4.2137457172
 30
0.0
 10
5.0339776798
 20
4.2535377889
 30
0.0
 10
5.0488800824
 20
4.3027270036
 30
0.0
 10
5.0699857223
 20
4.3606757822
 30
0.0
 10
5.0942384168
 20
4.4173791138
 30
0.0
 10
5.1170113216
 20
4.4634548999
 30
0.0
 10
5.1367232365
 20
4.4995173244
 30
0.0
 10
5.1522456166
 20
4.5261478043
 30
0.0
 10
5.1684957501
 20
4.5523388181
 30
0.0
 10
5.1854619946
 20
4.5780703192
 30
0.0
 10
5.2031293957
 20
4.6033244651
 30
0.0
 10
5.2275991685
 20
4.6363324731
 30
0.0
 10
5.2598696276
 20
4.6763126961
 30
0.0
 10
5.294288709
 20
4.7144565966
 30
0.0
 10
5.323052367
 20
4.7437909323
 30
0.0
 10
5.3526112379
 20
4.7723196572
 30
0.0
 10
5.3910144616
 20
4.8064386354
 30
0.0
 10
5.4392698656
 20
4.8447825055
 30
0.0
 10
5.4728003187
 20
4.8685408099
 30
0.0
 10
5.4898761867
 20
4.8799450301
 30
0.0
 11
4.9976411378
 21
4.0619625203
 31
0.0
 11
5.005614884
 21
4.1230713888
 31
0.0
 11
5.0169286726
 21
4.1836692683
 31
0.0
 11
5.0238252501
 21
4.213712651
 31
0.0
 11
5.0315419347
 21
4.243554891
 31
0.0
 11
5.0494170672
 21
4.302546891
 31
0.0
 11
5.0705101732
 21
4.360468043
 31
0.0
 11
5.0947512447
 21
4.4171445084
 31
0.0
 11
5.1220635607
 21
4.4724036011
 31
0.0
 11
5.1368465619
 21
4.4994483757
 31
0.0
 11
5.1523672454
 21
4.5260751199
 31
0.0
 11
5.1686154141
 21
4.552262721
 31
0.0
 11
5.1855791453
 21
4.5779911889
 31
0.0
 11
5.2032440552
 21
4.6032421345
 31
0.0
 11
5.2215955713
 21
4.6279972911
 31
0.0
 11
5.2603005783
 21
4.6759468857
 31
0.0
 11
5.3015815359
 21
4.7216913097
 31
0.0
 11
5.3231522243
 21
4.7436906728
 31
0.0
 11
5.345320432
 21
4.7650865029
 31
0.0
 11
5.3913774308
 21
4.8060063642
 31
0.0
 11
5.4396115496
 21
4.8443326752
 31
0.0
 11
5.4898761867
 21
4.8799450301
 31
0.0
  0
SPLINE
  5
2E1
100
AcDbEntity
  8
0
100
AcDbSpline
 62
9
  6
CONTINUOUS
 70
0
 71
3
 72
11
 73
7
 74
5
 42
0.0000001
 43
0.0000001
 44
0.0000000001
 12
-0.0611567405
 22
0.0342430406
 32
0.0
 13
-0.0578897152
 23
0.0395159918
 33
0.0
 40
0.0
 40
0.0
 40
0.0
 40
0.0
 40
0.2694365068
 40
0.5262323527
 40
0.7699035895
 40
1.0
 40
1.0
 40
1.0
 40
1.0
 10
4.9976411378
 20
4.0619625203
 30
0.0
 10
4.9921485183
 20
4.065037962
 30
0.0
 10
4.9814686683
 20
4.0711304224
 30
0.0
 10
4.9660129885
 20
4.0803349908
 30
0.0
 10
4.9515387547
 20
4.0893838709
 30
0.0
 10
4.9423017266
 20
4.095485932
 30
0.0
 10
4.9378616547
 20
4.0985167613
 30
0.0
 11
4.9976411378
 21
4.0619625203
 31
0.0
 11
4.9812424917
 21
4.0713289126
 31
0.0
 11
4.9657840895
 21
4.0805486509
 31
0.0
 11
4.9513093407
 21
4.0896138841
 31
0.0
 11
4.9378616547
 21
4.0985167613
 31
0.0
  0
SPLINE
  5
2E2
100
AcDbEntity
  8
0
100
AcDbSpline
 62
9
  6
CONTINUOUS
 70
0
 71
3
 72
27
 73
23
 74
21
 42
0.0000001
 43
0.0000001
 44
0.0000000001
 12
-0.8484749782
 22
-0.5628102755
 32
0.0
 13
-0.1311182297
 23
-1.0096896576
 33
0.0
 40
0.0
 40
0.0
 40
0.0
 40
0.0
 40
0.0625797312
 40
0.1251720325
 40
0.156467015
 40
0.1877587185
 40
0.2503291072
 40
0.3128917833
 40
0.3754449496
 40
0.4379841544
 40
0.5005063089
 40
0.5630101773
 40
0.6254941988
 40
0.6879574456
 40
0.7503975136
 40
0.7816119278
 40
0.8128215356
 40
0.8440269944
 40
0.8752291441
 40
0.9064290666
 40
0.937626696
 40
1.0
 40
1.0
 40
1.0
 40
1.0
 10
5.4643869573
 20
4.9383372836
 30
0.0
 10
5.4466878452
 20
4.9265971117
 30
0.0
 10
5.4119115214
 20
4.9021568902
 30
0.0
 10
5.3701301598
 20
4.8693392405
 30
0.0
 10
5.3377828779
 20
4.8417901422
 30
0.0
 10
5.3061796271
 20
4.8134020422
 30
0.0
 10
5.2680994616
 20
4.7763726567
 30
0.0
 10
5.2248155338
 20
4.7296001038
 30
0.0
 10
5.1840448364
 20
4.6806344564
 30
0.0
 10
5.1458918348
 20
4.6296202668
 30
0.0
 10
5.1104675267
 20
4.5766945336
 30
0.0
 10
5.0778851371
 20
4.5219949802
 30
0.0
 10
5.0482437171
 20
4.4656695695
 30
0.0
 10
5.0216411347
 20
4.4078712531
 30
0.0
 10
5.0020907382
 20
4.3585950035
 30
0.0
 10
4.9880826107
 20
4.318595051
 30
0.0
 10
4.9784042468
 20
4.2883235904
 30
0.0
 10
4.9695621714
 20
4.2578019007
 30
0.0
 10
4.9615655489
 20
4.2270513058
 30
0.0
 10
4.9544237646
 20
4.1960932323
 30
0.0
 10
4.9460542646
 20
4.1545790151
 30
0.0
 10
4.9410796196
 20
4.1231919776
 30
0.0
 10
4.9383535272
 20
4.1021994177
 30
0.0
 11
5.4643869573
 21
4.9383372836
 31
0.0
 11
5.4122528599
 21
4.9017060438
 31
0.0
 11
5.36213261
 21
4.8623435808
 31
0.0
 11
5.3378743484
 21
4.8416839178
 31
0.0
 11
5.3141723642
 21
4.8203933531
 31
0.0
 11
5.2684987541
 21
4.7759802798
 31
0.0
 11
5.225231119
 21
4.7292308306
 31
0.0
 11
5.1844767711
 21
4.6802875068
 31
0.0
 11
5.1463416672
 21
4.6292946726
 31
0.0
 11
5.1109362001
 21
4.5763910084
 31
0.0
 11
5.0783703792
 21
4.5217152185
 31
0.0
 11
5.0487454819
 21
4.4654145205
 31
0.0
 11
5.0221606709
 21
4.4076394389
 31
0.0
 11
4.9987233043
 21
4.3485429008
 31
0.0
 11
4.98821971
 21
4.3185472592
 31
0.0
 11
4.9785430146
 21
4.2882798751
 31
0.0
 11
4.969702636
 21
4.257762139
 31
0.0
 11
4.9617077355
 21
4.227015562
 31
0.0
 11
4.9545674638
 21
4.1960616789
 31
0.0
 11
4.9482902308
 21
4.1649236898
 31
0.0
 11
4.9383535272
 21
4.1021994177
 31
0.0
  0
LINE
  5
2E3
100
AcDbEntity
  8
0
100
AcDbLine
 62
9
  6
CONTINUOUS
 10
4.9975235517
 20
4.0608825018
 11
4.9976438894
 21
4.0619621174
  0
SPLINE
  5
2E4
100
AcDbEntity
  8
0
100
AcDbSpline
 62
9
  6
CONTINUOUS
 70
0
 71
3
 72
11
 73
7
 74
5
 42
0.0000001
 43
0.0000001
 44
0.0000000001
 12
-0.0659282424
 22
0.0180346127
 32
0.0
 13
-0.064900641
 23
0.0214403174
 33
0.0
 40
0.0
 40
0.0
 40
0.0
 40
0.0
 40
0.2764148635
 40
0.5357580937
 40
0.7772187613
 40
1.0
 40
1.0
 40
1.0
 40
1.0
 10
4.9746006923
 20
3.8178942949
 30
0.0
 10
4.9685261769
 20
3.8195559733
 30
0.0
 10
4.9567660112
 20
3.8228271563
 30
0.0
 10
4.9397559746
 20
3.8277502096
 30
0.0
 10
4.9239780074
 20
3.832530581
 30
0.0
 10
4.9139022838
 20
3.8357503039
 30
0.0
 10
4.9090827354
 20
3.8373424708
 30
0.0
 11
4.9746006923
 21
3.8178942949
 31
0.0
 11
4.9564005123
 21
3.822963975
 31
0.0
 11
4.9393754135
 21
3.8279000537
 31
0.0
 11
4.9235834648
 21
3.832695297
 31
0.0
 11
4.9090827354
 21
3.8373424708
 31
0.0
  0
LINE
  5
2E5
100
AcDbEntity
  8
0
100
AcDbLine
 62
9
  6
CONTINUOUS
 10
4.9611283313
 20
3.658349017
 11
4.974600687
 21
3.8178942964
  0
LINE
  5
2E6
100
AcDbEntity
  8
0
100
AcDbLine
 62
9
  6
CONTINUOUS
 10
4.9090827324
 20
3.8373424718
 11
4.8914903004
 21
3.6644415553
  0
LINE
  5
2E7
100
AcDbEntity
  8
0
100
AcDbLine
 62
9
  6
CONTINUOUS
 10
6.1524027538
 20
5.2455561249
 11
6.1255164017
 21
5.2450098348
  0
SPLINE
  5
2E8
100
AcDbEntity
  8
0
100
AcDbSpline
 62
9
  6
CONTINUOUS
 70
0
 71
3
 72
9
 73
5
 74
3
 42
0.0000001
 43
0.0000001
 44
0.0000000001
 12
-0.5042425718
 22
-0.009347902
 32
0.0
 13
-0.5042250411
 23
-0.010249998
 33
0.0
 40
0.0
 40
0.0
 40
0.0
 40
0.0
 40
0.4999870613
 40
1.0
 40
1.0
 40
1.0
 40
1.0
 10
6.6566376233
 20
5.2553080874
 30
0.0
 10
6.5725993694
 20
5.2537501441
 30
0.0
 10
6.4045194966
 20
5.2505807345
 30
0.0
 10
6.2364424353
 20
5.2472645021
 30
0.0
 10
6.1524027538
 20
5.2455561249
 30
0.0
 11
6.6566376233
 21
5.2553080874
 31
0.0
 11
6.4045245489
 21
5.2505441127
 31
0.0
 11
6.1524027538
 21
5.2455561249
 31
0.0
  0
SPLINE
  5
2E9
100
AcDbEntity
  8
0
100
AcDbSpline
 62
9
  6
CONTINUOUS
 70
0
 71
3
 72
19
 73
15
 74
13
 42
0.0000001
 43
0.0000001
 44
0.0000000001
 12
-0.7530638441
 22
-0.0160325776
 32
0.0
 13
-0.6078511854
 23
-0.4448360746
 33
0.0
 40
0.0
 40
0.0
 40
0.0
 40
0.0
 40
0.1249673237
 40
0.1874853697
 40
0.249997709
 40
0.3749819457
 40
0.437486135
 40
0.4999935731
 40
0.5625016631
 40
0.6250074772
 40
0.7499951063
 40
0.8125080552
 40
0.8750265517
 40
1.0
 40
1.0
 40
1.0
 40
1.0
 10
6.1255164017
 20
5.2450098348
 30
0.0
 10
6.094146944
 20
5.2443419854
 30
0.0
 10
6.0470972774
 20
5.2415158045
 30
0.0
 10
5.9847489269
 20
5.2341669083
 30
0.0
 10
5.9227201016
 20
5.2244466837
 30
0.0
 10
5.8612927554
 20
5.2111856214
 30
0.0
 10
5.8007878702
 20
5.1944372507
 30
0.0
 10
5.7559144613
 20
5.1801462129
 30
0.0
 10
5.7116188783
 20
5.1641527011
 30
0.0
 10
5.6534254468
 20
5.1405932775
 30
0.0
 10
5.5966189233
 20
5.1137178973
 30
0.0
 10
5.5414806135
 20
5.0836855777
 30
0.0
 10
5.4875224582
 20
5.0515911717
 30
0.0
 10
5.4484469183
 20
5.0252319078
 30
0.0
 10
5.4231251654
 20
5.0067010084
 30
0.0
 11
6.1255164017
 21
5.2450098348
 31
0.0
 11
6.0315551233
 21
5.23938149
 31
0.0
 11
5.9847879828
 21
5.2338703049
 31
0.0
 11
5.9382692859
 21
5.2265802694
 31
0.0
 11
5.8462479005
 21
5.2067091037
 31
0.0
 11
5.8008737807
 21
5.1941494483
 31
0.0
 11
5.7560109865
 21
5.1798625376
 31
0.0
 11
5.7117259792
 21
5.1638728378
 31
0.0
 11
5.668085175
 21
5.146205038
 31
0.0
 11
5.582980286
 21
5.1059503789
 31
0.0
 11
5.5416289864
 21
5.0834282334
 31
0.0
 11
5.5011566201
 21
5.0593542201
 31
0.0
 11
5.4231251654
 21
5.0067010084
 31
0.0
  0
LINE
  5
2EA
100
AcDbEntity
  8
0
100
AcDbLine
 62
9
  6
CONTINUOUS
 10
5.4231251654
 20
5.0067010084
 11
5.388388896
 21
5.0242233173
  0
SPLINE
  5
2EB
100
AcDbEntity
  8
0
100
AcDbSpline
 62
9
  6
CONTINUOUS
 70
0
 71
3
 72
29
 73
25
 74
23
 42
0.0000001
 43
0.0000001
 44
0.0000000001
 12
-0.8544234217
 22
-0.6281744647
 32
0.0
 13
-0.0831820629
 23
-1.057224331
 33
0.0
 40
0.0
 40
0.0
 40
0.0
 40
0.0
 40
0.0624877366
 40
0.1249962109
 40
0.1562522922
 40
0.187506846
 40
0.250008486
 40
0.3125123367
 40
0.3750186478
 40
0.4375247209
 40
0.4687802664
 40
0.5000355235
 40
0.5312904347
 40
0.5625451631
 40
0.6250489083
 40
0.6563031541
 40
0.6875567502
 40
0.7188096073
 40
0.7500614728
 40
0.7813119403
 40
0.8125608166
 40
0.8750500315
 40
0.9375342266
 40
1.0
 40
1.0
 40
1.0
 40
1.0
 10
5.4210845067
 20
5.0052040423
 30
0.0
 10
5.4032875114
 20
4.9921196421
 30
0.0
 10
5.3684014844
 20
4.9649605037
 30
0.0
 10
5.3267184359
 20
4.928676182
 30
0.0
 10
5.2945992992
 20
4.8983133842
 30
0.0
 10
5.263324129
 20
4.867085723
 30
0.0
 10
5.2258483417
 20
4.8264647658
 30
0.0
 10
5.1836177204
 20
4.7753319236
 30
0.0
 10
5.1442327198
 20
4.7219749144
 30
0.0
 10
5.1138715106
 20
4.6757911142
 30
0.0
 10
5.0911119235
 20
4.6379041226
 30
0.0
 10
5.0748160806
 20
4.6090359023
 30
0.0
 10
5.0593077836
 20
4.5797373018
 30
0.0
 10
5.0396944967
 20
4.5401317706
 30
0.0
 10
5.0216851328
 20
4.4997484912
 30
0.0
 10
5.0053160539
 20
4.4586965314
 30
0.0
 10
4.9938631268
 20
4.4275895906
 30
0.0
 10
4.9832404307
 20
4.3961906988
 30
0.0
 10
4.9734530701
 20
4.3645226234
 30
0.0
 10
4.964506386
 20
4.3326081009
 30
0.0
 10
4.9537055186
 20
4.2897612199
 30
0.0
 10
4.9423163106
 20
4.2356959731
 30
0.0
 10
4.9320328226
 20
4.1702120212
 30
0.0
 10
4.9274343768
 20
4.126259221
 30
0.0
 10
4.9257023661
 20
4.1042457758
 30
0.0
 11
5.4210845067
 21
5.0052040423
 31
0.0
 11
5.3687924165
 21
4.9644984111
 31
0.0
 11
5.3187919319
 21
4.9209751086
 31
0.0
 11
5.2947041958
 21
4.8982046847
 31
0.0
 11
5.2712492322
 21
4.8747852799
 31
0.0
 11
5.2263055576
 21
4.8260674023
 31
0.0
 11
5.1840926899
 21
4.7749621181
 31
0.0
 11
5.1447247738
 21
4.721631176
 31
0.0
 11
5.1083097874
 21
4.6662422106
 31
0.0
 11
5.0912409402
 21
4.6378286924
 31
0.0
 11
5.0749472564
 21
4.6089640228
 31
0.0
 11
5.0594406818
 21
4.5796693968
 31
0.0
 11
5.0447308055
 21
4.5499669447
 31
0.0
 11
5.0177299976
 21
4.4894308578
 31
0.0
 11
5.0054533308
 21
4.4586434311
 31
0.0
 11
4.9940013652
 21
4.4275405534
 31
0.0
 11
4.9833794891
 21
4.3961453259
 31
0.0
 11
4.9735929774
 21
4.3644808497
 31
0.0
 11
4.9646471026
 21
4.3325702258
 31
0.0
 11
4.9565458949
 21
4.3004365179
 31
0.0
 11
4.9428796449
 21
4.2355916839
 31
0.0
 11
4.9325961514
 21
4.1701305266
 31
0.0
 11
4.9257023661
 21
4.1042457758
 31
0.0
  0
SPLINE
  5
2EC
100
AcDbEntity
  8
0
100
AcDbSpline
 62
6
  6
CONTINUOUS
 70
0
 71
3
 72
66
 73
62
 74
60
 42
0.0000001
 43
0.0000001
 44
0.0000000001
 12
0.0639450529
 22
0.7374005558
 32
0.0
 13
0.7249736524
 23
0.1492037291
 33
0.0
 40
0.0
 40
0.0
 40
0.0
 40
0.0
 40
0.0001856608
 40
0.0003963754
 40
0.0006499376
 40
0.0009567372
 40
0.0013225983
 40
0.0017509018
 40
0.0022437099
 40
0.0028023398
 40
0.0041201401
 40
0.0057087081
 40
0.0075700713
 40
0.0097051335
 40
0.0121136323
 40
0.0147947182
 40
0.017747327
 40
0.0209702543
 40
0.0282216725
 40
0.0365348741
 40
0.0458911141
 40
0.0562709559
 40
0.0676520116
 40
0.0800079382
 40
0.0933119618
 40
0.1075348146
 40
0.1386050499
 40
0.1729412909
 40
0.2102346804
 40
0.2501497007
 40
0.2923281918
 40
0.3363901818
 40
0.3819391069
 40
0.428565439
 40
0.4758491338
 40
0.5233647316
 40
0.5706844997
 40
0.6173823786
 40
0.6630383606
 40
0.7072410885
 40
0.749593002
 40
0.7897134681
 40
0.8272408366
 40
0.8618383666
 40
0.8931957566
 40
0.9075696071
 40
0.9210308051
 40
0.9335491048
 40
0.9450956469
 40
0.9556460446
 40
0.9651769565
 40
0.9736665853
 40
0.9810981746
 40
0.9844124681
 40
0.9874566415
 40
0.9902291425
 40
0.9927291564
 40
0.9949561862
 40
0.9969100211
 40
0.9985909236
 40
1.0
 40
1.0
 40
1.0
 40
1.0
 10
4.8978133892
 20
3.4923502404
 30
0.0
 10
4.8978173466
 20
3.4923958759
 30
0.0
 10
4.8978462471
 20
3.4924921608
 30
0.0
 10
4.897943143
 20
3.4926225803
 30
0.0
 10
4.8980900165
 20
3.492745286
 30
0.0
 10
4.8982869646
 20
3.4928624413
 30
0.0
 10
4.8985346016
 20
3.4929749868
 30
0.0
 10
4.8988333936
 20
3.4930831452
 30
0.0
 10
4.8991835668
 20
3.4931869882
 30
0.0
 10
4.8997511438
 20
3.493327448
 30
0.0
 10
4.9005916945
 20
3.493486501
 30
0.0
 10
4.9017565409
 20
3.4936519136
 30
0.0
 10
4.9031266975
 20
3.4938001362
 30
0.0
 10
4.9047016194
 20
3.4939310644
 30
0.0
 10
4.9064805739
 20
3.494044572
 30
0.0
 10
4.9084624984
 20
3.4941406534
 30
0.0
 10
4.9106462572
 20
3.4942193385
 30
0.0
 10
4.9139579454
 20
3.4943044052
 30
0.0
 10
4.9185931038
 20
3.4943615254
 30
0.0
 10
4.9247417482
 20
3.4943606106
 30
0.0
 10
4.9316618999
 20
3.4942931756
 30
0.0
 10
4.9393381087
 20
3.4941602946
 30
0.0
 10
4.9477532373
 20
3.4939632324
 30
0.0
 10
4.956888435
 20
3.4937036197
 30
0.0
 10
4.9667232281
 20
3.4933831044
 30
0.0
 10
4.9811710662
 20
3.4928612965
 30
0.0
 10
5.000801284
 20
3.4920626376
 30
0.0
 10
5.0261140564
 20
3.490922539
 30
0.0
 10
5.0536025712
 20
3.4895933841
 30
0.0
 10
5.083019986
 20
3.4880964943
 30
0.0
 10
5.114102085
 20
3.4864546358
 30
0.0
 10
5.1465697171
 20
3.4846920784
 30
0.0
 10
5.1801311497
 20
3.4828341892
 30
0.0
 10
5.2144848306
 20
3.480907213
 30
0.0
 10
5.2493221271
 20
3.4789380729
 30
0.0
 10
5.2843299414
 20
3.4769540583
 30
0.0
 10
5.3191937018
 20
3.4749826049
 30
0.0
 10
5.3536001738
 20
3.4730510373
 30
0.0
 10
5.3872401357
 20
3.4711862884
 30
0.0
 10
5.4198113542
 20
3.4694147062
 30
0.0
 10
5.4510212427
 20
3.4677617352
 30
0.0
 10
5.4805893859
 20
3.4662516982
 30
0.0
 10
5.5082502584
 20
3.4649075698
 30
0.0
 10
5.5337555137
 20
3.4637508009
 30
0.0
 10
5.5535578121
 20
3.4629367939
 30
0.0
 10
5.5681521512
 20
3.4624019104
 30
0.0
 10
5.5781027679
 20
3.4620712979
 30
0.0
 10
5.5873573818
 20
3.4618012383
 30
0.0
 10
5.5958952608
 20
3.4615935799
 30
0.0
 10
5.6036972961
 20
3.4614497836
 30
0.0
 10
5.6107460368
 20
3.4613711512
 30
0.0
 10
5.6170257401
 20
3.4613590526
 30
0.0
 10
5.6217715221
 20
3.4614063199
 30
0.0
 10
5.6251730172
 20
3.4614831219
 30
0.0
 10
5.6274247001
 20
3.4615559135
 30
0.0
 10
5.6294746859
 20
3.4616461427
 30
0.0
 10
5.6313219362
 20
3.4617538228
 30
0.0
 10
5.632965608
 20
3.4618789191
 30
0.0
 10
5.6344049902
 20
3.4620213199
 30
0.0
 10
5.6356393289
 20
3.4621808985
 30
0.0
 10
5.6363911678
 20
3.4623096325
 30
0.0
 10
5.6367316822
 20
3.4623797123
 30
0.0
 11
4.8978133892
 21
3.4923502404
 31
0.0
 11
4.8978510446
 21
3.4924824009
 31
0.0
 11
4.8979407137
 21
3.4926100107
 31
0.0
 11
4.8980824182
 21
3.4927330681
 31
0.0
 11
4.898276126
 21
3.4928515757
 31
0.0
 11
4.8985217768
 21
3.4929655389
 31
0.0
 11
4.8988193097
 21
3.493074963
 31
0.0
 11
4.8991686639
 21
3.4931798533
 31
0.0
 11
4.8995697789
 21
3.4932802152
 31
0.0
 11
4.9005270478
 21
3.4934673747
 31
0.0
 11
4.9016906303
 21
3.4936364842
 31
0.0
 11
4.9030600405
 21
3.4937875861
 31
0.0
 11
4.9046347263
 21
3.4939207286
 31
0.0
 11
4.9064136893
 21
3.4940359993
 31
0.0
 11
4.9083957463
 21
3.4941335015
 31
0.0
 11
4.9105797138
 21
3.4942133388
 31
0.0
 11
4.9129644082
 21
3.4942756148
 31
0.0
 11
4.9183311884
 21
3.4943479019
 31
0.0
 11
4.9244843526
 21
3.4943513892
 31
0.0
 11
4.9314092453
 21
3.4942873591
 31
0.0
 11
4.9390909671
 21
3.494157115
 31
0.0
 11
4.9475126027
 21
3.4939621368
 31
0.0
 11
4.9566544237
 21
3.4937041506
 31
0.0
 11
4.9664964588
 21
3.4933849035
 31
0.0
 11
4.9770169479
 21
3.4930062995
 31
0.0
 11
4.9999954597
 21
3.4920795791
 31
0.0
 11
5.0253845696
 21
3.4909419587
 31
0.0
 11
5.0529559503
 21
3.4896134144
 31
0.0
 11
5.0824617767
 21
3.488115628
 31
0.0
 11
5.1136376317
 21
3.4864717331
 31
0.0
 11
5.1462030827
 21
3.4847062642
 31
0.0
 11
5.1798655087
 21
3.4828448225
 31
0.0
 11
5.2143227604
 21
3.4809138425
 31
0.0
 11
5.2492649535
 21
3.4789404357
 31
0.0
 11
5.2843782214
 21
3.4769520617
 31
0.0
 11
5.3193470258
 21
3.4749763267
 31
0.0
 11
5.3538570584
 21
3.473040729
 31
0.0
 11
5.3875984634
 21
3.4711723775
 31
0.0
 11
5.4202677444
 21
3.4693978247
 31
0.0
 11
5.4515715489
 21
3.4677427356
 31
0.0
 11
5.4812289617
 21
3.4662316871
 31
0.0
 11
5.5089729984
 21
3.4648880374
 31
0.0
 11
5.5345549429
 21
3.4637335462
 31
0.0
 11
5.5577454201
 21
3.4627882812
 31
0.0
 11
5.5683773926
 21
3.4623999236
 31
0.0
 11
5.5783354929
 21
3.4620705222
 31
0.0
 11
5.5875972462
 21
3.4618020433
 31
0.0
 11
5.5961411511
 21
3.4615963679
 31
0.0
 11
5.603948939
 21
3.4614550944
 31
0.0
 11
5.611003012
 21
3.4613797625
 31
0.0
 11
5.6172867579
 21
3.4613718254
 31
0.0
 11
5.6227870479
 21
3.4614324319
 31
0.0
 11
5.6252395346
 21
3.4614887768
 31
0.0
 11
5.6274915223
 21
3.4615626632
 31
0.0
 11
5.6295415954
 21
3.4616542147
 31
0.0
 11
5.6313887945
 21
3.4617635155
 31
0.0
 11
5.6330322613
 21
3.4618906405
 31
0.0
 11
5.6344711371
 21
3.4620356649
 31
0.0
 11
5.6357045636
 21
3.4621986638
 31
0.0
 11
5.6367316822
 21
3.4623797123
 31
0.0
  0
LINE
  5
2ED
100
AcDbEntity
  8
0
100
AcDbLine
 62
6
  6
CONTINUOUS
 10
5.6367316822
 20
3.4623797123
 11
5.6382141519
 21
3.4628188041
  0
SPLINE
  5
2EE
100
AcDbEntity
  8
0
100
AcDbSpline
 62
6
  6
CONTINUOUS
 70
0
 71
3
 72
9
 73
5
 74
3
 42
0.0000001
 43
0.0000001
 44
0.0000000001
 12
0.0000083803
 22
0.0000957336
 32
0.0
 13
0.0000333089
 23
0.0000901425
 33
0.0
 40
0.0
 40
0.0
 40
0.0
 40
0.0
 40
0.2474075082
 40
1.0
 40
1.0
 40
1.0
 40
1.0
 10
4.8915877037
 20
3.4211920669
 30
0.0
 10
4.8915883948
 20
3.421199962
 30
0.0
 10
4.891592273
 20
3.4212317728
 30
0.0
 10
4.8916005714
 20
3.4212630132
 30
0.0
 10
4.8916089274
 20
3.4212856267
 30
0.0
 11
4.8915877037
 21
3.4211920669
 31
0.0
 11
4.8915905843
 21
3.4212156675
 31
0.0
 11
4.8916089274
 21
3.4212856267
 31
0.0
  0
SPLINE
  5
2EF
100
AcDbEntity
  8
0
100
AcDbSpline
 62
6
  6
CONTINUOUS
 70
0
 71
3
 72
69
 73
65
 74
63
 42
0.0000001
 43
0.0000001
 44
0.0000000001
 12
0.2570504847
 22
0.6956453601
 32
0.0
 13
0.6719544389
 23
0.3138067091
 33
0.0
 40
0.0
 40
0.0
 40
0.0
 40
0.0
 40
0.0004428755
 40
0.0007385081
 40
0.0010934409
 40
0.0015116847
 40
0.0019956512
 40
0.0025468659
 40
0.0031663362
 40
0.004612475
 40
0.006337644
 40
0.0083431794
 40
0.0106290626
 40
0.013194765
 40
0.0160394709
 40
0.0191621819
 40
0.0225617635
 40
0.0301843713
 40
0.0388900445
 40
0.0486602832
 40
0.0594740135
 40
0.0713055025
 40
0.0841283346
 40
0.0979138327
 40
0.1126291882
 40
0.1447140718
 40
0.1800870451
 40
0.2184226391
 40
0.2593662589
 40
0.3025392994
 40
0.3475432866
 40
0.3939617266
 40
0.4413653088
 40
0.4893159055
 40
0.5373697772
 40
0.585082668
 40
0.6320132346
 40
0.6777272817
 40
0.7218025527
 40
0.7638311856
 40
0.8034245629
 40
0.8402176278
 40
0.8738700806
 40
0.8894203873
 40
0.9040714545
 40
0.9177904389
 40
0.9305448384
 40
0.9423056308
 40
0.9530469445
 40
0.9627433742
 40
0.971373494
 40
0.9789194164
 40
0.9822804287
 40
0.9853642682
 40
0.9881698215
 40
0.9906961966
 40
0.9929426944
 40
0.9949089211
 40
0.9965949957
 40
0.9980022319
 40
0.9986024296
 40
0.9991345963
 40
0.9995998727
 40
1.0
 40
1.0
 40
1.0
 40
1.0
 10
4.8916089274
 20
3.4212856267
 30
0.0
 10
4.8916468745
 20
3.4213883215
 30
0.0
 10
4.891780495
 20
3.4215295668
 30
0.0
 10
4.8920067038
 20
3.4216746065
 30
0.0
 10
4.8922455267
 20
3.421790281
 30
0.0
 10
4.8925360466
 20
3.4219007615
 30
0.0
 10
4.8928795327
 20
3.4220070341
 30
0.0
 10
4.8932758165
 20
3.4221087947
 30
0.0
 10
4.8939082025
 20
3.4222456517
 30
0.0
 10
4.8948329038
 20
3.422400415
 30
0.0
 10
4.896102781
 20
3.4225606557
 30
0.0
 10
4.8975834573
 20
3.4227030945
 30
0.0
 10
4.8992740917
 20
3.4228277489
 30
0.0
 10
4.9011737426
 20
3.4229344955
 30
0.0
 10
4.9032813646
 20
3.4230233375
 30
0.0
 10
4.9055958975
 20
3.4230943169
 30
0.0
 10
4.9090918701
 20
3.4231679409
 30
0.0
 10
4.9139687162
 20
3.4232099797
 30
0.0
 10
4.9204204948
 20
3.4231901509
 30
0.0
 10
4.9276606187
 20
3.4231021963
 30
0.0
 10
4.9356724724
 20
3.422947348
 30
0.0
 10
4.9444376635
 20
3.4227271424
 30
0.0
 10
4.9539360042
 20
3.4224431633
 30
0.0
 10
4.9641456323
 20
3.4220972223
 30
0.0
 10
4.9791124357
 20
3.4215397323
 30
0.0
 10
4.9994086676
 20
3.420694871
 30
0.0
 10
5.0255341167
 20
3.4194984617
 30
0.0
 10
5.0538429473
 20
3.4181122461
 30
0.0
 10
5.0840740217
 20
3.4165588532
 30
0.0
 10
5.1159483245
 20
3.4148623882
 30
0.0
 10
5.1491716578
 20
3.4130483752
 30
0.0
 10
5.1834373833
 20
3.4111435121
 30
0.0
 10
5.2184291247
 20
3.4091753558
 30
0.0
 10
5.2538238136
 20
3.407172054
 30
0.0
 10
5.2892947118
 20
3.4051621139
 30
0.0
 10
5.3245142894
 20
3.4031740858
 30
0.0
 10
5.359157362
 20
3.401236322
 30
0.0
 10
5.3929041498
 20
3.3993767024
 30
0.0
 10
5.4254430929
 20
3.3976223234
 30
0.0
 10
5.4564738212
 20
3.3959993138
 30
0.0
 10
5.4857099989
 20
3.3945324847
 30
0.0
 10
5.5128818406
 20
3.3932451578
 30
0.0
 10
5.5341203179
 20
3.3923166994
 30
0.0
 10
5.5498928204
 20
3.3916869572
 30
0.0
 10
5.5607427826
 20
3.3912852646
 30
0.0
 10
5.5709032748
 20
3.3909435912
 30
0.0
 10
5.5803508887
 20
3.3906640196
 30
0.0
 10
5.5890638824
 20
3.390448362
 30
0.0
 10
5.5970221919
 20
3.3902981645
 30
0.0
 10
5.6042075447
 20
3.3902149121
 30
0.0
 10
5.6106034584
 20
3.3901998952
 30
0.0
 10
5.6154331014
 20
3.3902461531
 30
0.0
 10
5.6188908899
 20
3.3903232757
 30
0.0
 10
5.6211765084
 20
3.3903967804
 30
0.0
 10
5.6232549865
 20
3.39048816
 30
0.0
 10
5.6251253114
 20
3.3905974392
 30
0.0
 10
5.6267865041
 20
3.3907246008
 30
0.0
 10
5.6282376938
 20
3.3908695013
 30
0.0
 10
5.6294780362
 20
3.3910321069
 30
0.0
 10
5.6303780236
 20
3.3911890379
 30
0.0
 10
5.6309904281
 20
3.3913278234
 30
0.0
 10
5.6313718602
 20
3.391430829
 30
0.0
 10
5.6317003956
 20
3.3915382643
 30
0.0
 10
5.631898927
 20
3.391618768
 30
0.0
 10
5.6319885494
 20
3.3916606222
 30
0.0
 11
4.8916089274
 21
3.4212856267
 31
0.0
 11
4.8918140267
 21
3.4215421613
 31
0.0
 11
4.8919966619
 21
3.4216634602
 31
0.0
 11
4.8922326261
 21
3.4217801141
 31
0.0
 11
4.8925218731
 21
3.4218921232
 31
0.0
 11
4.8928643569
 21
3.4219994881
 31
0.0
 11
4.8932600314
 21
3.422102209
 31
0.0
 11
4.8937088506
 21
3.4222002865
 31
0.0
 11
4.8947657389
 21
3.4223825125
 31
0.0
 11
4.8960346451
 21
3.4225461705
 31
0.0
 11
4.8975148882
 21
3.4226913067
 31
0.0
 11
4.8992053982
 21
3.4228180213
 31
0.0
 11
4.9011050795
 21
3.4229264179
 31
0.0
 11
4.9032128365
 21
3.4230166001
 31
0.0
 11
4.9055275738
 21
3.4230886716
 31
0.0
 11
4.9080481853
 21
3.4231427368
 31
0.0
 11
4.9137009852
 21
3.4231973852
 31
0.0
 11
4.9201572512
 21
3.4231817582
 31
0.0
 11
4.9274025426
 21
3.4230971026
 31
0.0
 11
4.9354207547
 21
3.4229448173
 31
0.0
 11
4.9441924874
 21
3.4227266026
 31
0.0
 11
4.9536979377
 21
3.4224441954
 31
0.0
 11
4.9639156992
 21
3.4220994711
 31
0.0
 11
4.9748213592
 21
3.4216945648
 31
0.0
 11
4.9985958358
 21
3.420712998
 31
0.0
 11
5.0248018731
 21
3.4195186959
 31
0.0
 11
5.053198442
 21
3.4181327475
 31
0.0
 11
5.0835231477
 21
3.416578109
 31
0.0
 11
5.1154959558
 21
3.4148792802
 31
0.0
 11
5.1488222184
 21
3.4130620394
 31
0.0
 11
5.1831940181
 21
3.411153326
 31
0.0
 11
5.2182939973
 21
3.4091809052
 31
0.0
 11
5.2537983023
 21
3.4071731105
 31
0.0
 11
5.2893789425
 21
3.4051586372
 31
0.0
 11
5.3247075477
 21
3.4031662142
 31
0.0
 11
5.3594578937
 21
3.4012243823
 31
0.0
 11
5.3933090236
 21
3.3993612216
 31
0.0
 11
5.4259487776
 21
3.3976040426
 31
0.0
 11
5.4570755942
 21
3.3959792285
 31
0.0
 11
5.4864020755
 21
3.3945119233
 31
0.0
 11
5.5136581495
 21
3.3932257552
 31
0.0
 11
5.5385919093
 21
3.3921427633
 31
0.0
 11
5.5501151628
 21
3.391683824
 31
0.0
 11
5.5609732667
 21
3.3912830777
 31
0.0
 11
5.5711418174
 21
3.3909426595
 31
0.0
 11
5.5805966257
 21
3.3906646857
 31
0.0
 11
5.5893160256
 21
3.3904510518
 31
0.0
 11
5.5972806109
 21
3.3903034556
 31
0.0
 11
5.604471215
 21
3.390223574
 31
0.0
 11
5.6108714591
 21
3.3902128399
 31
0.0
 11
5.616467334
 21
3.390272479
 31
0.0
 11
5.6189592792
 21
3.3903290694
 31
0.0
 11
5.6212450925
 21
3.390403694
 31
0.0
 11
5.6233236731
 21
3.3904964491
 31
0.0
 11
5.6251939891
 21
3.390607425
 31
0.0
 11
5.6268550086
 21
3.390736712
 31
0.0
 11
5.6283056996
 21
3.3908844003
 31
0.0
 11
5.6295450312
 21
3.3910505802
 31
0.0
 11
5.6305721814
 21
3.3912353236
 31
0.0
 11
5.6310060713
 21
3.3913346668
 31
0.0
 11
5.6313867877
 21
3.3914386621
 31
0.0
 11
5.631714293
 21
3.3915473128
 31
0.0
 11
5.6319885494
 21
3.3916606222
 31
0.0
  0
SPLINE
  5
2F0
100
AcDbEntity
  8
0
100
AcDbSpline
 62
9
  6
CONTINUOUS
 70
0
 71
3
 72
30
 73
26
 74
24
 42
0.0000001
 43
0.0000001
 44
0.0000000001
 12
-0.0015655571
 22
0.107788549
 32
0.0
 13
0.0650308273
 23
0.085975658
 33
0.0
 40
0.0
 40
0.0
 40
0.0
 40
0.0
 40
0.1905063949
 40
0.2828669951
 40
0.3722131785
 40
0.4578847474
 40
0.5392356489
 40
0.6156481665
 40
0.6865232436
 40
0.7512864606
 40
0.8094578413
 40
0.8605842287
 40
0.883378168
 40
0.9042746352
 40
0.9232380392
 40
0.9402339283
 40
0.9552297698
 40
0.9682032119
 40
0.9791480502
 40
0.9838610007
 40
0.9880697583
 40
0.9917782194
 40
0.9949932468
 40
0.9977267797
 40
1.0
 40
1.0
 40
1.0
 40
1.0
 10
6.1486784979
 20
5.1380468893
 30
0.0
 10
6.1485790817
 20
5.1448916919
 30
0.0
 10
6.1484783405
 20
5.1550557484
 30
0.0
 10
6.1484459178
 20
5.1684306017
 30
0.0
 10
6.1484736474
 20
5.1780384007
 30
0.0
 10
6.1485523796
 20
5.1872502906
 30
0.0
 10
6.1486817165
 20
5.1959968214
 30
0.0
 10
6.1488603889
 20
5.2042106905
 30
0.0
 10
6.1490866686
 20
5.2118271089
 30
0.0
 10
6.1493590669
 20
5.2187861305
 30
0.0
 10
6.149674705
 20
5.225032893
 30
0.0
 10
6.1499815976
 20
5.2297697077
 30
0.0
 10
6.1502523903
 20
5.2331660697
 30
0.0
 10
6.1504568426
 20
5.235408183
 30
0.0
 10
6.1506700009
 20
5.2374401257
 30
0.0
 10
6.1508913861
 20
5.2392577797
 30
0.0
 10
6.1511204576
 20
5.2408573744
 30
0.0
 10
6.1513567378
 20
5.2422357703
 30
0.0
 10
6.1515677558
 20
5.2432431345
 30
0.0
 10
6.1517435093
 20
5.2439351397
 30
0.0
 10
6.1518701069
 20
5.2443710843
 30
0.0
 10
6.1519980007
 20
5.244750259
 30
0.0
 10
6.1521271265
 20
5.245072632
 30
0.0
 10
6.1522573563
 20
5.2453381354
 30
0.0
 10
6.1523534774
 20
5.2454909776
 30
0.0
 10
6.1524027538
 20
5.2455561248
 30
0.0
 11
6.1486784979
 21
5.1380468893
 31
0.0
 11
6.1484779046
 21
5.1585824833
 31
0.0
 11
6.1484546134
 21
5.1685389212
 31
0.0
 11
6.1484833056
 21
5.1781703897
 31
0.0
 11
6.1485635584
 21
5.187405429
 31
0.0
 11
6.1486948343
 21
5.1961740669
 31
0.0
 11
6.1488760397
 21
5.2044093367
 31
0.0
 11
6.1491057227
 21
5.212046211
 31
0.0
 11
6.1493822478
 21
5.219022202
 31
0.0
 11
6.1497032686
 21
5.2252848497
 31
0.0
 11
6.1500662575
 21
5.2307843036
 31
0.0
 11
6.1502626524
 21
5.2332336273
 31
0.0
 11
6.1504684736
 21
5.2354768422
 31
0.0
 11
6.1506833336
 21
5.2375097728
 31
0.0
 11
6.1509068451
 21
5.2393282437
 31
0.0
 11
6.151138619
 21
5.2409280925
 31
0.0
 11
6.1513781916
 21
5.242305956
 31
0.0
 11
6.151624982
 21
5.2434597094
 31
0.0
 11
6.1517508994
 21
5.243951914
 31
0.0
 11
6.1518783997
 21
5.2443873342
 31
0.0
 11
6.1520074091
 21
5.2447657177
 31
0.0
 11
6.1521378539
 21
5.2450868121
 31
0.0
 11
6.15226966
 21
5.2453503653
 31
0.0
 11
6.1524027538
 21
5.2455561248
 31
0.0
  0
SPLINE
  5
2F1
100
AcDbEntity
  8
0
100
AcDbSpline
 62
9
  6
CONTINUOUS
 70
0
 71
3
 72
30
 73
26
 74
24
 42
0.0000001
 43
0.0000001
 44
0.0000000001
 12
-0.0014960658
 22
0.1072036175
 32
0.0
 13
0.0639091572
 23
0.0860841067
 33
0.0
 40
0.0
 40
0.0
 40
0.0
 40
0.0
 40
0.1901974916
 40
0.2823754713
 40
0.3715360704
 40
0.457029012
 40
0.5382179961
 40
0.6144945514
 40
0.6852685634
 40
0.7499741731
 40
0.8081382672
 40
0.8593142424
 40
0.8821561927
 40
0.9031168721
 40
0.9221612433
 40
0.9392554549
 40
0.9543676332
 40
0.9674759691
 40
0.9785745797
 40
0.9833716072
 40
0.9876692698
 40
0.9914714452
 40
0.9947848626
 40
0.997621039
 40
1.0
 40
1.0
 40
1.0
 40
1.0
 10
6.12156218
 20
5.1381047476
 30
0.0
 10
6.1214673306
 20
5.1449013673
 30
0.0
 10
6.1213746697
 20
5.154992705
 30
0.0
 10
6.1213557972
 20
5.1682707
 30
0.0
 10
6.1213947338
 20
5.1778067047
 30
0.0
 10
6.1214857259
 20
5.1869496134
 30
0.0
 10
6.121628295
 20
5.1956313649
 30
0.0
 10
6.1218210793
 20
5.2037859959
 30
0.0
 10
6.1220622543
 20
5.2113499965
 30
0.0
 10
6.1223502444
 20
5.218264581
 30
0.0
 10
6.1226820656
 20
5.2244759261
 30
0.0
 10
6.1230032563
 20
5.2291891868
 30
0.0
 10
6.1232857989
 20
5.2325718168
 30
0.0
 10
6.1234988976
 20
5.2348077724
 30
0.0
 10
6.1237207859
 20
5.2368363687
 30
0.0
 10
6.1239509751
 20
5.2386535525
 30
0.0
 10
6.1241889217
 20
5.2402556087
 30
0.0
 10
6.1244341381
 20
5.2416394329
 30
0.0
 10
6.124652802
 20
5.2426530801
 30
0.0
 10
6.1248346392
 20
5.2433515731
 30
0.0
 10
6.1249657553
 20
5.2437935535
 30
0.0
 10
6.1250981851
 20
5.2441794959
 30
0.0
 10
6.1252318649
 20
5.2445093468
 30
0.0
 10
6.1253666748
 20
5.2447830199
 30
0.0
 10
6.1254657219
 20
5.2449416017
 30
0.0
 10
6.125516401
 20
5.2450098653
 30
0.0
 11
6.12156218
 21
5.1381047476
 31
0.0
 11
6.1213780364
 21
5.1584957607
 31
0.0
 11
6.1213648613
 21
5.168378527
 31
0.0
 11
6.1214048154
 21
5.177937713
 31
0.0
 11
6.1214973925
 21
5.1871032905
 31
0.0
 11
6.1216419716
 21
5.19580669
 31
0.0
 11
6.12183737
 21
5.2039822742
 31
0.0
 11
6.1220820427
 21
5.2115662973
 31
0.0
 11
6.1223742609
 21
5.218497491
 31
0.0
 11
6.1227115828
 21
5.2247243694
 31
0.0
 11
6.1230913854
 21
5.2301979923
 31
0.0
 11
6.1232963499
 21
5.2326383782
 31
0.0
 11
6.1235108345
 21
5.2348753988
 31
0.0
 11
6.1237344403
 21
5.2369049423
 31
0.0
 11
6.1239667687
 21
5.2387228968
 31
0.0
 11
6.1242074198
 21
5.2403251634
 31
0.0
 11
6.1244559176
 21
5.2417084175
 31
0.0
 11
6.1247116685
 21
5.2428705353
 31
0.0
 11
6.1248420752
 21
5.2433680367
 31
0.0
 11
6.1249740686
 21
5.2438094963
 31
0.0
 11
6.1251075734
 21
5.2441946615
 31
0.0
 11
6.125242514
 21
5.2445232798
 31
0.0
 11
6.1253788151
 21
5.2447950986
 31
0.0
 11
6.125516401
 21
5.2450098653
 31
0.0
  0
SPLINE
  5
2F2
100
AcDbEntity
  8
0
100
AcDbSpline
 62
9
  6
CONTINUOUS
 70
0
 71
3
 72
20
 73
16
 74
14
 42
0.0000001
 43
0.0000001
 44
0.0000000001
 12
-0.0457431483
 22
0.0652823501
 32
0.0
 13
-0.0335392767
 23
0.0723141602
 33
0.0
 40
0.0
 40
0.0
 40
0.0
 40
0.0
 40
0.176781376
 40
0.343869964
 40
0.4980926966
 40
0.6370033367
 40
0.7000195384
 40
0.7584156209
 40
0.8119653974
 40
0.8604439067
 40
0.9036399311
 40
0.9413924166
 40
0.9735569804
 40
0.9875015829
 40
1.0
 40
1.0
 40
1.0
 40
1.0
 10
5.4643869585
 20
4.9383372823
 30
0.0
 10
5.4616914463
 20
4.9421841835
 30
0.0
 10
5.456473412
 20
4.9496847639
 30
0.0
 10
5.4489961185
 20
4.9606051983
 30
0.0
 10
5.4421746273
 20
4.9707545923
 30
0.0
 10
5.4369757992
 20
4.9786622281
 30
0.0
 10
5.4332342676
 20
4.9844800949
 30
0.0
 10
5.4307492765
 20
4.9884092076
 30
0.0
 10
5.4285027433
 20
4.9920318986
 30
0.0
 10
5.4265041597
 20
4.9953328767
 30
0.0
 10
5.4247621007
 20
4.9982981813
 30
0.0
 10
5.4232834264
 20
5.000914991
 30
0.0
 10
5.4222300657
 20
5.002878959
 30
0.0
 10
5.4215283545
 20
5.00426925
 30
0.0
 10
5.4212242618
 20
5.0049027366
 30
0.0
 10
5.4210845325
 20
5.0052040075
 30
0.0
 11
5.4643869585
 21
4.9383372823
 31
0.0
 11
5.4563411059
 21
4.9499063865
 31
0.0
 11
5.4488194589
 21
4.9608984633
 31
0.0
 11
5.4419659137
 21
4.9711044344
 31
0.0
 11
5.4358894127
 21
4.9803612284
 31
0.0
 11
5.4331734122
 21
4.9845868901
 31
0.0
 11
5.4306865165
 21
4.988521848
 31
0.0
 11
5.4284385185
 21
4.992150585
 31
0.0
 11
5.4264392108
 21
4.9954575839
 31
0.0
 11
5.424697758
 21
4.9984280487
 31
0.0
 11
5.4232208118
 21
5.0010500678
 31
0.0
 11
5.4220143955
 21
5.0033124509
 31
0.0
 11
5.4215145184
 21
5.0043052819
 31
0.0
 11
5.4210845325
 21
5.0052040075
 31
0.0
  0
LINE
  5
2F3
100
AcDbEntity
  8
0
100
AcDbLine
 62
9
  6
CONTINUOUS
 10
4.9383535272
 20
4.1021994177
 11
4.9257023661
 21
4.1042457758
  0
LINE
  5
2F4
100
AcDbEntity
  8
0
100
AcDbLine
 62
9
  6
CONTINUOUS
 10
4.9378616546
 20
4.0985167613
 11
4.9254202787
 21
4.1008048297
  0
SPLINE
  5
2F5
100
AcDbEntity
  8
0
100
AcDbSpline
 62
9
  6
CONTINUOUS
 70
0
 71
3
 72
30
 73
26
 74
24
 42
0.0000001
 43
0.0000001
 44
0.0000000001
 12
-0.001310292
 22
0.1144758624
 32
0.0
 13
0.0655746812
 23
0.0938424271
 33
0.0
 40
0.0
 40
0.0
 40
0.0
 40
0.0
 40
0.0910327979
 40
0.18126702
 40
0.3560723093
 40
0.4392498668
 40
0.5187734887
 40
0.5940413841
 40
0.6644670372
 40
0.7294871194
 40
0.788624017
 40
0.8414267183
 40
0.8653264199
 40
0.8875067595
 40
0.9079324762
 40
0.9265700857
 40
0.9433888386
 40
0.9511092298
 40
0.9583686857
 40
0.9715030352
 40
0.9827977293
 40
0.9877623188
 40
0.9922779206
 40
0.996352932
 40
1.0
 40
1.0
 40
1.0
 40
1.0
 10
6.2111242593
 20
4.9338821464
 30
0.0
 10
6.2110844995
 20
4.9373558324
 30
0.0
 10
6.2110326529
 20
4.9442730854
 30
0.0
 10
6.2110385276
 20
4.9578612853
 30
0.0
 10
6.2112046094
 20
4.9711493972
 30
0.0
 10
6.2115430687
 20
4.9840247337
 30
0.0
 10
6.2118714766
 20
4.993100128
 30
0.0
 10
6.2122756336
 20
5.001685347
 30
0.0
 10
6.2127519076
 20
5.0097125262
 30
0.0
 10
6.2132971027
 20
5.0171182794
 30
0.0
 10
6.2139057998
 20
5.0238441135
 30
0.0
 10
6.2144786499
 20
5.0289966944
 30
0.0
 10
6.2149724787
 20
5.0327378408
 30
0.0
 10
6.2153432834
 20
5.0352486572
 30
0.0
 10
6.2157261211
 20
5.0375543681
 30
0.0
 10
6.2161202283
 20
5.0396503397
 30
0.0
 10
6.2164665471
 20
5.041261475
 30
0.0
 10
6.216751101
 20
5.0424411735
 30
0.0
 10
6.2170217914
 20
5.0434793848
 30
0.0
 10
6.2173616469
 20
5.0446403145
 30
0.0
 10
6.2177338832
 20
5.0456993806
 30
0.0
 10
6.2180398219
 20
5.0464309941
 30
0.0
 10
6.2182608924
 20
5.0468989033
 30
0.0
 10
6.2184833978
 20
5.0473097806
 30
0.0
 10
6.2186412188
 20
5.0475590606
 30
0.0
 10
6.2187209372
 20
5.0476731438
 30
0.0
 11
6.2111242593
 21
4.9338821464
 31
0.0
 11
6.2110462549
 21
4.9443035951
 31
0.0
 11
6.2110512777
 21
4.9546339109
 31
0.0
 11
6.2113105985
 21
4.9746445277
 31
0.0
 11
6.2115627734
 21
4.9841636344
 31
0.0
 11
6.2118942831
 21
4.9932617283
 31
0.0
 11
6.2123024344
 21
5.0018689782
 31
0.0
 11
6.2127839574
 21
5.0099171517
 31
0.0
 11
6.2133353068
 21
5.0173404222
 31
0.0
 11
6.213951874
 21
5.0240824789
 31
0.0
 11
6.2146287799
 21
5.030089491
 31
0.0
 11
6.2149882728
 21
5.0328018898
 31
0.0
 11
6.2153608666
 21
5.0353136852
 31
0.0
 11
6.2157458581
 21
5.0376201799
 31
0.0
 11
6.2161425438
 21
5.039716677
 31
0.0
 11
6.2165502182
 21
5.0415984916
 31
0.0
 11
6.2167579299
 21
5.0424575945
 31
0.0
 11
6.2169680603
 21
5.0432616783
 31
0.0
 11
6.2173950694
 21
5.0447034376
 31
0.0
 11
6.2178302293
 21
5.0459210689
 31
0.0
 11
6.2180505483
 21
5.0464449925
 31
0.0
 11
6.2182725239
 21
5.0469118712
 31
0.0
 11
6.2184960292
 21
5.0473213675
 31
0.0
 11
6.2187209372
 21
5.0476731438
 31
0.0
  0
SPLINE
  5
2F6
100
AcDbEntity
  8
0
100
AcDbSpline
 62
9
  6
CONTINUOUS
 70
0
 71
3
 72
30
 73
26
 74
24
 42
0.0000001
 43
0.0000001
 44
0.0000000001
 12
-0.0012139598
 22
0.113873415
 32
0.0
 13
0.0609756922
 23
0.0961800047
 33
0.0
 40
0.0
 40
0.0
 40
0.0
 40
0.0
 40
0.0903666884
 40
0.1799336116
 40
0.3535053857
 40
0.436160961
 40
0.5152520419
 40
0.5901949285
 40
0.6604202179
 40
0.7253805733
 40
0.7846101374
 40
0.8376683372
 40
0.8617594268
 40
0.8841742057
 40
0.9048776782
 40
0.923836464
 40
0.9410196401
 40
0.9489381684
 40
0.9564060496
 40
0.9699867499
 40
0.9817634904
 40
0.9869802924
 40
0.9917538724
 40
0.9960905752
 40
1.0
 40
1.0
 40
1.0
 40
1.0
 10
6.1658866817
 20
4.9336211411
 30
0.0
 10
6.1658501145
 20
4.9370512623
 30
0.0
 10
6.1658043809
 20
4.9438814765
 30
0.0
 10
6.1658213597
 20
4.9573005996
 30
0.0
 10
6.1659970348
 20
4.9704265532
 30
0.0
 10
6.1663432316
 20
4.9831506772
 30
0.0
 10
6.1666765117
 20
4.9921293861
 30
0.0
 10
6.1670846825
 20
5.0006326529
 30
0.0
 10
6.1675641829
 20
5.008594923
 30
0.0
 10
6.1681118731
 20
5.0159548623
 30
0.0
 10
6.1687224693
 20
5.0226557662
 30
0.0
 10
6.1692960811
 20
5.027801353
 30
0.0
 10
6.1697899267
 20
5.0315485144
 30
0.0
 10
6.1701610609
 20
5.0340727497
 30
0.0
 10
6.1705441784
 20
5.0363979819
 30
0.0
 10
6.1709385399
 20
5.0385196599
 30
0.0
 10
6.1712846844
 20
5.0401562284
 30
0.0
 10
6.1715689103
 20
5.0413595112
 30
0.0
 10
6.171840084
 20
5.0424251859
 30
0.0
 10
6.1721808982
 20
5.0436240796
 30
0.0
 10
6.1725528084
 20
5.044724271
 30
0.0
 10
6.1728580619
 20
5.0454922884
 30
0.0
 10
6.1730792563
 20
5.0459893317
 30
0.0
 10
6.1733019001
 20
5.0464308008
 30
0.0
 10
6.1734592658
 20
5.0467017149
 30
0.0
 10
6.1735387258
 20
5.0468270511
 30
0.0
 11
6.1658866817
 21
4.9336211411
 31
0.0
 11
6.1658178927
 21
4.9439118594
 31
0.0
 11
6.165831349
 21
4.9541117214
 31
0.0
 11
6.1661048831
 21
4.9738761625
 31
0.0
 11
6.1663627786
 21
4.9832854363
 31
0.0
 11
6.166699084
 21
4.9922860388
 31
0.0
 11
6.1671111377
 21
5.0008105731
 31
0.0
 11
6.1675957205
 21
5.0087931262
 31
0.0
 11
6.1681493477
 21
5.0161700588
 31
0.0
 11
6.168767509
 21
5.0228867289
 31
0.0
 11
6.1694454329
 21
5.0288908396
 31
0.0
 11
6.1698052548
 21
5.0316106316
 31
0.0
 11
6.1701780799
 21
5.0341358504
 31
0.0
 11
6.170563222
 21
5.0364618894
 31
0.0
 11
6.1709599945
 21
5.0385841424
 31
0.0
 11
6.1713677092
 21
5.0404980144
 31
0.0
 11
6.1715754296
 21
5.0413755252
 31
0.0
 11
6.171785565
 21
5.0421995967
 31
0.0
 11
6.1722125858
 21
5.0436860447
 31
0.0
 11
6.1726477802
 21
5.0449546052
 31
0.0
 11
6.1728681329
 21
5.0455063173
 31
0.0
 11
6.1730901573
 21
5.0460025251
 31
0.0
 11
6.1733137296
 21
5.0464428844
 31
0.0
 11
6.1735387258
 21
5.0468270511
 31
0.0
  0
SPLINE
  5
2F7
100
AcDbEntity
  8
0
100
AcDbSpline
 62
9
  6
CONTINUOUS
 70
0
 71
3
 72
18
 73
14
 74
12
 42
0.0000001
 43
0.0000001
 44
0.0000000001
 12
-0.045853531
 22
0.0769902909
 32
0.0
 13
-0.0321398833
 23
0.0836485451
 33
0.0
 40
0.0
 40
0.0
 40
0.0
 40
0.0
 40
0.1562848999
 40
0.3079095748
 40
0.4523284149
 40
0.5874829833
 40
0.7114832275
 40
0.7687627121
 40
0.8226175584
 40
0.8728463539
 40
0.919268186
 40
0.9617093346
 40
1.0
 40
1.0
 40
1.0
 40
1.0
 10
5.598473253
 20
4.776022427
 30
0.0
 10
5.5960845149
 20
4.7800332336
 30
0.0
 10
5.5914230046
 20
4.7879620037
 30
0.0
 10
5.584713248
 20
4.799689691
 30
0.0
 10
5.5784620197
 20
4.8109514048
 30
0.0
 10
5.5727631499
 20
4.8215745937
 30
0.0
 10
5.5684340634
 20
4.8299775649
 30
0.0
 10
5.5653150814
 20
4.8362706919
 30
0.0
 10
5.5632244646
 20
4.840613778
 30
0.0
 10
5.561328003
 20
4.8446899764
 30
0.0
 10
5.559632538
 20
4.8484831946
 30
0.0
 10
5.5581445117
 20
4.8519778996
 30
0.0
 10
5.5572475327
 20
4.854216654
 30
0.0
 10
5.5568373136
 20
4.8552843069
 30
0.0
 11
5.598473253
 21
4.776022427
 31
0.0
 11
5.5913766785
 21
4.7880960507
 31
0.0
 11
5.5846324874
 21
4.7998912658
 31
0.0
 11
5.5783557875
 21
4.8112086958
 31
0.0
 11
5.5726366658
 21
4.8218845866
 31
0.0
 11
5.5675565669
 21
4.8317670533
 31
0.0
 11
5.565278768
 21
4.836366808
 31
0.0
 11
5.5631873879
 21
4.8407160658
 31
0.0
 11
5.5612907634
 21
4.8447979879
 31
0.0
 11
5.5595958243
 21
4.8485969132
 31
0.0
 11
5.5581091484
 21
4.852097475
 31
0.0
 11
5.5568373136
 21
4.8552843069
 31
0.0
  0
SPLINE
  5
2F8
100
AcDbEntity
  8
0
100
AcDbSpline
 62
9
  6
CONTINUOUS
 70
0
 71
3
 72
18
 73
14
 74
12
 42
0.0000001
 43
0.0000001
 44
0.0000000001
 12
-0.0466362681
 22
0.0752725406
 32
0.0
 13
-0.0335605198
 23
0.0819425919
 33
0.0
 40
0.0
 40
0.0
 40
0.0
 40
0.0
 40
0.155680691
 40
0.3067356486
 40
0.4507046189
 40
0.5855962995
 40
0.709580826
 40
0.7669612178
 40
0.8209975488
 40
0.871493896
 40
0.9182729799
 40
0.9611640722
 40
1.0
 40
1.0
 40
1.0
 40
1.0
 10
5.5813289716
 20
4.7656725532
 30
0.0
 10
5.5789088494
 20
4.7695787136
 30
0.0
 10
5.5741836139
 20
4.7773017812
 30
0.0
 10
5.5673737939
 20
4.7887301569
 30
0.0
 10
5.5610179872
 20
4.7997136598
 30
0.0
 10
5.5552088324
 20
4.8100889928
 30
0.0
 10
5.5507824491
 20
4.8183081745
 30
0.0
 10
5.5475816812
 20
4.8244753282
 30
0.0
 10
5.5454279456
 20
4.8287417158
 30
0.0
 10
5.5434664813
 20
4.832754254
 30
0.0
 10
5.5417042078
 20
4.8364975481
 30
0.0
 10
5.5401476757
 20
4.8399566967
 30
0.0
 10
5.5392032101
 20
4.8421766809
 30
0.0
 10
5.5387687588
 20
4.8432374531
 30
0.0
 11
5.5813289716
 21
4.7656725532
 31
0.0
 11
5.5741357144
 21
4.7774323479
 31
0.0
 11
5.5672918988
 21
4.7889246339
 31
0.0
 11
5.5609108103
 21
4.7999609596
 31
0.0
 11
5.5550813595
 21
4.8103863432
 31
0.0
 11
5.5498840732
 21
4.8200569047
 31
0.0
 11
5.5475449374
 21
4.8245674113
 31
0.0
 11
5.5453903194
 21
4.8288397002
 31
0.0
 11
5.5434285265
 21
4.8328577499
 31
0.0
 11
5.5416665558
 21
4.8366065574
 31
0.0
 11
5.5401110767
 21
4.8400713746
 31
0.0
 11
5.5387687588
 21
4.8432374531
 31
0.0
  0
SPLINE
  5
2F9
100
AcDbEntity
  8
0
100
AcDbSpline
 62
9
  6
CONTINUOUS
 70
0
 71
3
 72
9
 73
5
 74
3
 42
0.0000001
 43
0.0000001
 44
0.0000000001
 12
-0.0265038479
 22
0.004430037
 32
0.0
 13
-0.0263350206
 23
0.0053428336
 33
0.0
 40
0.0
 40
0.0
 40
0.0
 40
0.0
 40
0.521796481
 40
1.0
 40
1.0
 40
1.0
 40
1.0
 10
5.1038233125
 20
4.0429695559
 30
0.0
 10
5.099213441
 20
4.0437400818
 30
0.0
 10
5.090389027
 20
4.0452787225
 30
0.0
 10
5.0815913703
 20
4.0469649112
 30
0.0
 10
5.0773935372
 20
4.0478165651
 30
0.0
 11
5.1038233125
 21
4.0429695559
 31
0.0
 11
5.0900116299
 21
4.0453859695
 31
0.0
 11
5.0773935372
 21
4.0478165651
 31
0.0
  0
SPLINE
  5
2FA
100
AcDbEntity
  8
0
100
AcDbSpline
 62
9
  6
CONTINUOUS
 70
0
 71
3
 72
9
 73
5
 74
3
 42
0.0000001
 43
0.0000001
 44
0.0000000001
 12
-0.0262322188
 22
0.0045156478
 32
0.0
 13
-0.0260558781
 23
0.0054416538
 33
0.0
 40
0.0
 40
0.0
 40
0.0
 40
0.0
 40
0.5215549263
 40
1.0
 40
1.0
 40
1.0
 40
1.0
 10
5.1031958361
 20
4.0391895225
 30
0.0
 10
5.0986353218
 20
4.0399745752
 30
0.0
 10
5.0899019335
 20
4.0415428004
 30
0.0
 10
5.0811965213
 20
4.0432608164
 30
0.0
 10
5.0770410858
 20
4.0441286606
 30
0.0
 11
5.1031958361
 21
4.0391895225
 31
0.0
 11
5.0895330485
 21
4.0416511524
 31
0.0
 11
5.0770410858
 21
4.0441286606
 31
0.0
  0
SPLINE
  5
2FB
100
AcDbEntity
  8
0
100
AcDbSpline
 62
9
  6
CONTINUOUS
 70
0
 71
3
 72
30
 73
26
 74
24
 42
0.0000001
 43
0.0000001
 44
0.0000000001
 12
-0.074618774
 22
0.0817319626
 32
0.0
 13
0.0024753823
 23
0.1106433352
 33
0.0
 40
0.0
 40
0.0
 40
0.0
 40
0.0
 40
0.0087402298
 40
0.0190448515
 40
0.0310042698
 40
0.044666779
 40
0.0600565047
 40
0.0771823627
 40
0.0960358139
 40
0.1165965493
 40
0.1388397298
 40
0.1627374489
 40
0.1882595244
 40
0.2153681833
 40
0.2741488822
 40
0.3386782146
 40
0.3729677149
 40
0.4085244697
 40
0.4831710085
 40
0.562079599
 40
0.6446951907
 40
0.7304400659
 40
0.8187233506
 40
0.9088376135
 40
1.0
 40
1.0
 40
1.0
 40
1.0
 10
6.3704455823
 20
4.2146626217
 30
0.0
 10
6.3702281872
 20
4.2149007404
 30
0.0
 10
6.3698023717
 20
4.2154633802
 30
0.0
 10
6.3692251182
 20
4.2164525997
 30
0.0
 10
6.368659117
 20
4.2176525146
 30
0.0
 10
6.3681056016
 20
4.2190614313
 30
0.0
 10
6.3675656491
 20
4.2206777718
 30
0.0
 10
6.3670407957
 20
4.2224991204
 30
0.0
 10
6.3665319727
 20
4.224522231
 30
0.0
 10
6.3660400214
 20
4.226743217
 30
0.0
 10
6.3655658907
 20
4.2291579594
 30
0.0
 10
6.3651104906
 20
4.2317622787
 30
0.0
 10
6.3646747629
 20
4.2345517518
 30
0.0
 10
6.3641057653
 20
4.2386223274
 30
0.0
 10
6.3634573961
 20
4.2441340038
 30
0.0
 10
6.3629110744
 20
4.2499226058
 30
0.0
 10
6.3625166657
 20
4.2548641099
 30
0.0
 10
6.362141136
 20
4.26018132
 30
0.0
 10
6.3617393265
 20
4.2671464692
 30
0.0
 10
6.3613678073
 20
4.2758512442
 30
0.0
 10
6.361102758
 20
4.2849694925
 30
0.0
 10
6.360945661
 20
4.294436093
 30
0.0
 10
6.3608986472
 20
4.3041804993
 30
0.0
 10
6.3609614226
 20
4.3141246462
 30
0.0
 10
6.3610754458
 20
4.3208111818
 30
0.0
 10
6.3611506664
 20
4.324173352
 30
0.0
 11
6.3704455823
 21
4.2146626217
 31
0.0
 11
6.3698523511
 21
4.215426642
 31
0.0
 11
6.3692695881
 21
4.2164069235
 31
0.0
 11
6.3686985521
 21
4.2176009636
 31
0.0
 11
6.3681405021
 21
4.2190062596
 31
0.0
 11
6.3675966971
 21
4.2206203089
 31
0.0
 11
6.3670683757
 21
4.222440522
 31
0.0
 11
6.3665565408
 21
4.2244633012
 31
0.0
 11
6.3660620432
 21
4.2266843978
 31
0.0
 11
6.365585731
 21
4.2290995527
 31
0.0
 11
6.3651284525
 21
4.2317045065
 31
0.0
 11
6.364691055
 21
4.2344949884
 31
0.0
 11
6.364274337
 21
4.2374660495
 31
0.0
 11
6.3635058217
 21
4.2439258153
 31
0.0
 11
6.3628286395
 21
4.2510351637
 31
0.0
 11
6.3625260443
 21
4.2548179343
 31
0.0
 11
6.362248169
 21
4.2587432134
 31
0.0
 11
6.3617683991
 21
4.266990479
 31
0.0
 11
6.361392959
 21
4.2757152993
 31
0.0
 11
6.361124752
 21
4.2848545166
 31
0.0
 11
6.3609655557
 21
4.2943426542
 31
0.0
 11
6.3609169233
 21
4.3041129345
 31
0.0
 11
6.3609789233
 21
4.3140857794
 31
0.0
 11
6.3611506664
 21
4.324173352
 31
0.0
  0
SPLINE
  5
2FC
100
AcDbEntity
  8
0
100
AcDbSpline
 62
9
  6
CONTINUOUS
 70
0
 71
3
 72
28
 73
24
 74
22
 42
0.0000001
 43
0.0000001
 44
0.0000000001
 12
-0.0711666665
 22
0.083676723
 32
0.0
 13
0.0008049438
 23
0.1098446196
 33
0.0
 40
0.0
 40
0.0
 40
0.0
 40
0.0
 40
0.0092224599
 40
0.0200086935
 40
0.0324307706
 40
0.0465266879
 40
0.0623144378
 40
0.0797990941
 40
0.0989701453
 40
0.1198064863
 40
0.1422829761
 40
0.1663717107
 40
0.2192571888
 40
0.278133186
 40
0.3426069414
 40
0.3768155759
 40
0.4122586104
 40
0.486587827
 40
0.5650737998
 40
0.647179954
 40
0.8200061628
 40
0.9094761169
 40
1.0
 40
1.0
 40
1.0
 40
1.0
 10
6.3453667879
 20
4.2154519341
 30
0.0
 10
6.3451480106
 20
4.2157091692
 30
0.0
 10
6.3447184634
 20
4.216305724
 30
0.0
 10
6.3441306267
 20
4.2173390449
 30
0.0
 10
6.3435511028
 20
4.2185772323
 30
0.0
 10
6.3429811569
 20
4.2200184047
 30
0.0
 10
6.3424219273
 20
4.22166079
 30
0.0
 10
6.341874918
 20
4.2235019118
 30
0.0
 10
6.3413410791
 20
4.2255385362
 30
0.0
 10
6.340821279
 20
4.2277668499
 30
0.0
 10
6.3403164546
 20
4.2301828299
 30
0.0
 10
6.3396435025
 20
4.2337617858
 30
0.0
 10
6.3388568578
 20
4.2386744049
 30
0.0
 10
6.338012011
 20
4.2450724624
 30
0.0
 10
6.3373867652
 20
4.2508080801
 30
0.0
 10
6.3369243337
 20
4.2556974268
 30
0.0
 10
6.3364754551
 20
4.2609503324
 30
0.0
 10
6.3359763321
 20
4.2678257911
 30
0.0
 10
6.3354813034
 20
4.2764136683
 30
0.0
 10
6.3349440367
 20
4.2886105282
 30
0.0
 10
6.3346271191
 20
4.3012185388
 30
0.0
 10
6.334514462
 20
4.3141369996
 30
0.0
 10
6.3345277901
 20
4.3207277797
 30
0.0
 10
6.334552079
 20
4.3240423002
 30
0.0
 11
6.3453667879
 21
4.2154519341
 31
0.0
 11
6.3447662414
 21
4.2162678044
 31
0.0
 11
6.3441732655
 21
4.2172935866
 31
0.0
 11
6.3435891106
 21
4.2185267608
 31
0.0
 11
6.3430150271
 21
4.2199648073
 31
0.0
 11
6.3424522654
 21
4.2216052061
 31
0.0
 11
6.3419020575
 21
4.2234453572
 31
0.0
 11
6.3413654207
 21
4.2254817285
 31
0.0
 11
6.3408432343
 21
4.2277101864
 31
0.0
 11
6.3403363751
 21
4.2301265875
 31
0.0
 11
6.3398457199
 21
4.2327267883
 31
0.0
 11
6.3389164882
 21
4.2384613304
 31
0.0
 11
6.3380620446
 21
4.2448720244
 31
0.0
 11
6.3372885919
 21
4.2519119488
 31
0.0
 11
6.3369341361
 21
4.2556529294
 31
0.0
 11
6.3366020246
 21
4.2595320697
 31
0.0
 11
6.3360070224
 21
4.2676752447
 31
0.0
 11
6.3355079508
 21
4.276282281
 31
0.0
 11
6.3351084999
 21
4.2852925925
 31
0.0
 11
6.3346188413
 21
4.3042708155
 31
0.0
 11
6.3345322921
 21
4.3140984914
 31
0.0
 11
6.334552079
 21
4.3240423002
 31
0.0
  0
SPLINE
  5
2FD
100
AcDbEntity
  8
0
100
AcDbSpline
 62
9
  6
CONTINUOUS
 70
0
 71
3
 72
24
 73
20
 74
18
 42
0.0000001
 43
0.0000001
 44
0.0000000001
 12
-0.050874074
 22
0.0793794547
 32
0.0
 13
-0.0208392669
 23
0.0919510424
 33
0.0
 40
0.0
 40
0.0
 40
0.0
 40
0.0
 40
0.0150126422
 40
0.0313129104
 40
0.0488907859
 40
0.067733232
 40
0.1091475312
 40
0.1554157166
 40
0.1803142491
 40
0.2063548968
 40
0.2617572742
 40
0.3214081658
 40
0.3850460486
 40
0.4523741544
 40
0.5230922035
 40
0.5968892734
 40
0.6734414324
 40
0.8334698406
 40
1.0
 40
1.0
 40
1.0
 40
1.0
 10
5.9680814234
 20
4.1845522874
 30
0.0
 10
5.9678268387
 20
4.1849495192
 30
0.0
 10
5.9673123671
 20
4.1857887084
 30
0.0
 10
5.966551675
 20
4.1871239495
 30
0.0
 10
5.9657711964
 20
4.1885857074
 30
0.0
 10
5.9646706603
 20
4.1907705246
 30
0.0
 10
5.9632604555
 20
4.1938078058
 30
0.0
 10
5.9618756551
 20
4.1970642338
 30
0.0
 10
5.9607352244
 20
4.1998984553
 30
0.0
 10
5.9595256971
 20
4.2030140517
 30
0.0
 10
5.9579915483
 20
4.2071748303
 30
0.0
 10
5.9561494621
 20
4.2124802546
 30
0.0
 10
5.9542786963
 20
4.2181715577
 30
0.0
 10
5.9523879156
 20
4.2242216416
 30
0.0
 10
5.9504864571
 20
4.2306022553
 30
0.0
 10
5.9485832086
 20
4.2372842706
 30
0.0
 10
5.946016207
 20
4.2466950577
 30
0.0
 10
5.9428772056
 20
4.2589697556
 30
0.0
 10
5.9405207396
 20
4.2689591759
 30
0.0
 10
5.9393639508
 20
4.2740633831
 30
0.0
 11
5.9680814234
 21
4.1845522874
 31
0.0
 11
5.967339792
 21
4.1857578749
 31
0.0
 11
5.9665774742
 21
4.1870923183
 31
0.0
 11
5.9657955558
 21
4.1885535593
 31
0.0
 11
5.9649951228
 21
4.1901395396
 31
0.0
 11
5.9633430563
 21
4.1936774845
 31
0.0
 11
5.9616299002
 21
4.1976893114
 31
0.0
 11
5.9607529799
 21
4.1998668782
 31
0.0
 11
5.9598638263
 21
4.2021554051
 31
0.0
 11
5.9580528027
 21
4.2070549076
 31
0.0
 11
5.9562048348
 21
4.2123666935
 31
0.0
 11
5.9543284976
 21
4.2180657236
 31
0.0
 11
5.9524328043
 21
4.2241239462
 31
0.0
 11
5.9505267739
 21
4.2305132075
 31
0.0
 11
5.9486191998
 21
4.2372044099
 31
0.0
 11
5.9467185833
 21
4.2441672287
 31
0.0
 11
5.942972604
 21
4.2587827597
 31
0.0
 11
5.9393639508
 21
4.2740633831
 31
0.0
  0
SPLINE
  5
2FE
100
AcDbEntity
  8
0
100
AcDbSpline
 62
9
  6
CONTINUOUS
 70
0
 71
3
 72
21
 73
17
 74
15
 42
0.0000001
 43
0.0000001
 44
0.0000000001
 12
-0.0540520559
 22
0.0747144703
 32
0.0
 13
-0.0268579455
 23
0.0882186351
 33
0.0
 40
0.0
 40
0.0
 40
0.0
 40
0.0
 40
0.0160593142
 40
0.0333335499
 40
0.0714717198
 40
0.114292212
 40
0.1616479463
 40
0.2133704484
 40
0.2692480043
 40
0.3290537626
 40
0.392556467
 40
0.4595142269
 40
0.5296523499
 40
0.6783293854
 40
0.8361444416
 40
1.0
 40
1.0
 40
1.0
 40
1.0
 10
5.9341994462
 20
4.1772791128
 30
0.0
 10
5.9339100999
 20
4.1776790672
 30
0.0
 10
5.9333237308
 20
4.1785195718
 30
0.0
 10
5.9321181644
 20
4.1803564691
 30
0.0
 10
5.930557064
 20
4.1829424499
 30
0.0
 10
5.9286469775
 20
4.1863940949
 30
0.0
 10
5.9266530936
 20
4.1902741584
 30
0.0
 10
5.924585593
 20
4.1945656895
 30
0.0
 10
5.9224530997
 20
4.1992492653
 30
0.0
 10
5.9202648793
 20
4.2043042128
 30
0.0
 10
5.9180303526
 20
4.2097093313
 30
0.0
 10
5.9157592636
 20
4.2154422455
 30
0.0
 10
5.9126335906
 20
4.2236518886
 30
0.0
 10
5.9087165185
 20
4.2345474824
 30
0.0
 10
5.9041165755
 20
4.2482550682
 30
0.0
 10
5.9011508301
 20
4.2576883094
 30
0.0
 10
5.8996838889
 20
4.2625066806
 30
0.0
 11
5.9341994462
 21
4.1772791128
 31
0.0
 11
5.933350698
 21
4.1784926983
 31
0.0
 11
5.9324753472
 21
4.1798236044
 31
0.0
 11
5.9306495458
 21
4.1828295167
 31
0.0
 11
5.928731458
 21
4.1862811252
 31
0.0
 11
5.9267304993
 21
4.1901627055
 31
0.0
 11
5.9246560502
 21
4.1944576302
 31
0.0
 11
5.9225173482
 21
4.1991456596
 31
0.0
 11
5.9203235954
 21
4.2042056506
 31
0.0
 11
5.9180839939
 21
4.2096164604
 31
0.0
 11
5.9158078263
 21
4.2153562205
 31
0.0
 11
5.9135046981
 21
4.2214001596
 31
0.0
 11
5.9088563038
 21
4.2342985876
 31
0.0
 11
5.9042190138
 21
4.2480931383
 31
0.0
 11
5.8996838889
 21
4.2625066806
 31
0.0
  0
SPLINE
  5
2FF
100
AcDbEntity
  8
0
100
AcDbSpline
 62
9
  6
CONTINUOUS
 70
0
 71
3
 72
11
 73
7
 74
5
 42
0.0000001
 43
0.0000001
 44
0.0000000001
 12
-0.0354270218
 22
0.0059302172
 32
0.0
 13
-0.0349497404
 23
0.0082919841
 33
0.0
 40
0.0
 40
0.0
 40
0.0
 40
0.0
 40
0.2289136188
 40
0.4731723445
 40
0.7308807791
 40
1.0
 40
1.0
 40
1.0
 40
1.0
 10
5.5619853389
 20
3.8403344247
 30
0.0
 10
5.5592820963
 20
3.8407869272
 30
0.0
 10
5.5537045438
 20
3.8417834731
 30
0.0
 10
5.5451190972
 20
3.8434799973
 30
0.0
 10
5.5360918272
 20
3.8454173639
 30
0.0
 10
5.5299444057
 20
3.8468321289
 30
0.0
 10
5.52680919
 20
3.847575973
 30
0.0
 11
5.5619853389
 21
3.8403344247
 31
0.0
 11
5.5538899501
 21
3.8417749772
 31
0.0
 11
5.5452817823
 21
3.8434715164
 31
0.0
 11
5.5362302637
 21
3.8454104938
 31
0.0
 11
5.52680919
 21
3.847575973
 31
0.0
  0
SPLINE
  5
300
100
AcDbEntity
  8
0
100
AcDbSpline
 62
9
  6
CONTINUOUS
 70
0
 71
3
 72
11
 73
7
 74
5
 42
0.0000001
 43
0.0000001
 44
0.0000000001
 12
-0.0349180293
 22
0.0054283852
 32
0.0
 13
-0.0344773653
 23
0.0077490267
 33
0.0
 40
0.0
 40
0.0
 40
0.0
 40
0.0
 40
0.2293305132
 40
0.473684158
 40
0.7312298176
 40
1.0
 40
1.0
 40
1.0
 40
1.0
 10
5.5606260963
 20
3.8363066361
 30
0.0
 10
5.5579568398
 20
3.8367216009
 30
0.0
 10
5.5524526709
 20
3.8376385653
 30
0.0
 10
5.5439832764
 20
3.839208435
 30
0.0
 10
5.535085236
 20
3.8410080039
 30
0.0
 10
5.5290273009
 20
3.8423266841
 30
0.0
 10
5.5259384716
 20
3.8430209199
 30
0.0
 11
5.5606260963
 21
3.8363066361
 31
0.0
 11
5.5526314037
 21
3.8376329188
 31
0.0
 11
5.5441404185
 21
3.8392025005
 31
0.0
 11
5.5352193423
 21
3.8410032713
 31
0.0
 11
5.5259384716
 21
3.8430209199
 31
0.0
  0
SPLINE
  5
301
100
AcDbEntity
  8
0
100
AcDbSpline
 62
9
  6
CONTINUOUS
 70
0
 71
3
 72
33
 73
29
 74
27
 42
0.0000001
 43
0.0000001
 44
0.0000000001
 12
-0.0871379666
 22
0.0614895874
 32
0.0
 13
0.003642127
 23
0.1065867229
 33
0.0
 40
0.0
 40
0.0
 40
0.0
 40
0.0
 40
0.0030641187
 40
0.0064698797
 40
0.0102581227
 40
0.0144577098
 40
0.019089067
 40
0.0241667297
 40
0.0356973996
 40
0.0491051996
 40
0.0644149363
 40
0.0727841365
 40
0.0816270349
 40
0.1007239285
 40
0.121683958
 40
0.1444808936
 40
0.1690857594
 40
0.1954609746
 40
0.2533215114
 40
0.3176507003
 40
0.3880020577
 40
0.4638335518
 40
0.5445762748
 40
0.6296411156
 40
0.7184098231
 40
0.8102492991
 40
0.9043955634
 40
1.0
 40
1.0
 40
1.0
 40
1.0
 10
6.4193686294
 20
4.0158167396
 30
0.0
 10
6.419279629
 20
4.0158795434
 30
0.0
 10
6.4191022753
 20
4.0160273919
 30
0.0
 10
6.4188528085
 20
4.0162943021
 30
0.0
 10
6.4186067402
 20
4.0166167306
 30
0.0
 10
6.4183640501
 20
4.016994483
 30
0.0
 10
6.4181246665
 20
4.0174274584
 30
0.0
 10
6.4177959713
 20
4.0181075581
 30
0.0
 10
6.4174001677
 20
4.0190998501
 30
0.0
 10
6.4169574907
 20
4.0204611359
 30
0.0
 10
6.416612693
 20
4.0217341618
 30
0.0
 10
6.4163422819
 20
4.0228582703
 30
0.0
 10
6.4160625723
 20
4.024118437
 30
0.0
 10
6.415726863
 20
4.025824352
 30
0.0
 10
6.4153517495
 20
4.0280272664
 30
0.0
 10
6.4149955524
 20
4.0304314244
 30
0.0
 10
6.4146590528
 20
4.0330326246
 30
0.0
 10
6.4142241496
 20
4.0368774862
 30
0.0
 10
6.4137427886
 20
4.0421375536
 30
0.0
 10
6.4132680519
 20
4.0489662483
 30
0.0
 10
6.4128852331
 20
4.0564404373
 30
0.0
 10
6.4125965153
 20
4.0645026632
 30
0.0
 10
6.4124047633
 20
4.073090938
 30
0.0
 10
6.4123118921
 20
4.0821407545
 30
0.0
 10
6.4123182761
 20
4.0915855083
 30
0.0
 10
6.412424737
 20
4.1013525122
 30
0.0
 10
6.4126298036
 20
4.1113609808
 30
0.0
 10
6.4128298216
 20
4.1181036942
 30
0.0
 10
6.4129458895
 20
4.1215004154
 30
0.0
 11
6.4193686294
 21
4.0158167396
 31
0.0
 11
6.4191161293
 21
4.0160241814
 31
0.0
 11
6.4188664987
 21
4.0162880258
 31
0.0
 11
6.4186198734
 21
4.0166080285
 31
0.0
 11
6.4183763893
 21
4.0169839452
 31
0.0
 11
6.4181361825
 21
4.0174155316
 31
0.0
 11
6.4178993886
 21
4.0179025434
 31
0.0
 11
6.4174365836
 21
4.0190418661
 31
0.0
 11
6.4169890614
 21
4.0203999591
 31
0.0
 11
6.4165578899
 21
4.0219747669
 31
0.0
 11
6.4163487077
 21
4.022842475
 31
0.0
 11
6.4161439112
 21
4.0237630557
 31
0.0
 11
6.4157478225
 21
4.0257608323
 31
0.0
 11
6.4153703181
 21
4.0279640903
 31
0.0
 11
6.4150120928
 21
4.0303688237
 31
0.0
 11
6.4146738399
 21
4.0329710141
 31
0.0
 11
6.414356199
 21
4.0357659105
 31
0.0
 11
6.413784966
 21
4.0419101783
 31
0.0
 11
6.4133027843
 21
4.0487538522
 31
0.0
 11
6.4129136919
 21
4.0562466535
 31
0.0
 11
6.4126203468
 21
4.0643286794
 31
0.0
 11
6.4124250507
 21
4.0729375897
 31
0.0
 11
6.4123294291
 21
4.0820091601
 31
0.0
 11
6.4123340594
 21
4.0914762468
 31
0.0
 11
6.4124392971
 21
4.1012702634
 31
0.0
 11
6.4126439633
 21
4.1113087757
 31
0.0
 11
6.4129458895
 21
4.1215004154
 31
0.0
  0
SPLINE
  5
302
100
AcDbEntity
  8
0
100
AcDbSpline
 62
9
  6
CONTINUOUS
 70
0
 71
3
 72
32
 73
28
 74
26
 42
0.0000001
 43
0.0000001
 44
0.0000000001
 12
-0.0845433365
 22
0.0634924098
 32
0.0
 13
0.0032358209
 23
0.1056806099
 33
0.0
 40
0.0
 40
0.0
 40
0.0
 40
0.0
 40
0.0031442114
 40
0.0066365086
 40
0.0105141935
 40
0.0148037116
 40
0.0195238551
 40
0.0246880479
 40
0.0363822794
 40
0.0499378883
 40
0.0653776995
 40
0.0827006835
 40
0.1018905134
 40
0.1229250136
 40
0.14577825
 40
0.1704216274
 40
0.1968181689
 40
0.2546734794
 40
0.3189399918
 40
0.3891796103
 40
0.4648610405
 40
0.5454267292
 40
0.6302993682
 40
0.7188731869
 40
0.8105278143
 40
0.9045141832
 40
1.0
 40
1.0
 40
1.0
 40
1.0
 10
6.4033826842
 20
4.0165522105
 30
0.0
 10
6.4032940769
 20
4.016618755
 30
0.0
 10
6.4031176484
 20
4.0167735453
 30
0.0
 10
6.4028692367
 20
4.0170493256
 30
0.0
 10
6.4026239774
 20
4.0173796666
 30
0.0
 10
6.4023818752
 20
4.0177643769
 30
0.0
 10
6.4021428839
 20
4.0182033473
 30
0.0
 10
6.4018147954
 20
4.0188897498
 30
0.0
 10
6.4014190116
 20
4.0198871652
 30
0.0
 10
6.4009752758
 20
4.0212514838
 30
0.0
 10
6.4005465198
 20
4.0228271362
 30
0.0
 10
6.4001334952
 20
4.02461128
 30
0.0
 10
6.3997369625
 20
4.0266005682
 30
0.0
 10
6.3993577492
 20
4.0287912527
 30
0.0
 10
6.3989966395
 20
4.0311795303
 30
0.0
 10
6.3986544274
 20
4.0337613205
 30
0.0
 10
6.3982106826
 20
4.0375735487
 30
0.0
 10
6.3977160699
 20
4.0427850238
 30
0.0
 10
6.3972226099
 20
4.0495469136
 30
0.0
 10
6.3968179583
 20
4.0569439271
 30
0.0
 10
6.3965044335
 20
4.0649201929
 30
0.0
 10
6.3962850286
 20
4.0734154653
 30
0.0
 10
6.3961618245
 20
4.0823670588
 30
0.0
 10
6.3961354124
 20
4.0917102521
 30
0.0
 10
6.3962068385
 20
4.1013744041
 30
0.0
 10
6.3963749491
 20
4.1112809735
 30
0.0
 10
6.3965493641
 20
4.1179564435
 30
0.0
 10
6.3966523558
 20
4.12132011
 30
0.0
 11
6.4033826842
 21
4.0165522105
 31
0.0
 11
6.4031313088
 21
4.0167697544
 31
0.0
 11
6.40288263
 21
4.0170426973
 31
0.0
 11
6.4026367811
 21
4.0173707958
 31
0.0
 11
6.4023938955
 21
4.0177538065
 31
0.0
 11
6.4021541063
 21
4.0181914861
 31
0.0
 11
6.4019175468
 21
4.0186835912
 31
0.0
 11
6.4014546502
 21
4.0198301045
 31
0.0
 11
6.4010062719
 21
4.0211913992
 31
0.0
 11
6.4005734595
 21
4.0227654314
 31
0.0
 11
6.4001570441
 21
4.0245490277
 31
0.0
 11
6.3997577176
 21
4.0265382862
 31
0.0
 11
6.3993761694
 21
4.028729293
 31
0.0
 11
6.3990130889
 21
4.031118134
 31
0.0
 11
6.3986691646
 21
4.0337008834
 31
0.0
 11
6.3983450346
 21
4.0364729076
 31
0.0
 11
6.3977583902
 21
4.042561762
 31
0.0
 11
6.3972575871
 21
4.0493381887
 31
0.0
 11
6.3968467226
 21
4.0567532591
 31
0.0
 11
6.3965285836
 21
4.0647487402
 31
0.0
 11
6.3963056186
 21
4.0732640429
 31
0.0
 11
6.3961796258
 21
4.0822367541
 31
0.0
 11
6.3961513947
 21
4.0916016336
 31
0.0
 11
6.3962215042
 21
4.1012920362
 31
0.0
 11
6.3963890898
 21
4.1112278147
 31
0.0
 11
6.3966523558
 21
4.12132011
 31
0.0
  0
SPLINE
  5
303
100
AcDbEntity
  8
0
100
AcDbSpline
 62
9
  6
CONTINUOUS
 70
0
 71
3
 72
25
 73
21
 74
19
 42
0.0000001
 43
0.0000001
 44
0.0000000001
 12
-0.0474497198
 22
0.0686809617
 32
0.0
 13
-0.0030644496
 23
0.0834215773
 33
0.0
 40
0.0
 40
0.0
 40
0.0
 40
0.0
 40
0.0082619528
 40
0.0181281233
 40
0.0296443866
 40
0.0428324253
 40
0.0577004768
 40
0.0742488186
 40
0.0924723416
 40
0.1123564448
 40
0.1570161999
 40
0.2080373824
 40
0.2652081258
 40
0.3282472428
 40
0.3968212057
 40
0.4705912577
 40
0.5491954057
 40
0.6322427109
 40
0.8100375291
 40
1.0
 40
1.0
 40
1.0
 40
1.0
 10
6.0818965839
 20
4.0219242379
 30
0.0
 10
6.0817659081
 20
4.0221133842
 30
0.0
 10
6.0815097253
 20
4.022549463
 30
0.0
 10
6.081157948
 20
4.0232962564
 30
0.0
 10
6.0808059509
 20
4.0241921074
 30
0.0
 10
6.0804544301
 20
4.0252359709
 30
0.0
 10
6.0801039994
 20
4.0264268939
 30
0.0
 10
6.0797553148
 20
4.0277636197
 30
0.0
 10
6.0794090426
 20
4.0292446709
 30
0.0
 10
6.0789326049
 20
4.0314980746
 30
0.0
 10
6.0783544501
 20
4.0346619829
 30
0.0
 10
6.0777001379
 20
4.0388649349
 30
0.0
 10
6.0770656392
 20
4.0435874581
 30
0.0
 10
6.0764541989
 20
4.0488050425
 30
0.0
 10
6.0758690816
 20
4.0544901542
 30
0.0
 10
6.0753138722
 20
4.0606132565
 30
0.0
 10
6.07479161
 20
4.0671433417
 30
0.0
 10
6.0741273075
 20
4.0765654841
 30
0.0
 10
6.0734081355
 20
4.0890894774
 30
0.0
 10
6.0729674947
 20
4.0993135243
 30
0.0
 10
6.0727734513
 20
4.1045958473
 30
0.0
 11
6.0818965839
 21
4.0219242379
 31
0.0
 11
6.0815409252
 21
4.0225151518
 31
0.0
 11
6.0811851977
 21
4.0232579747
 31
0.0
 11
6.0808299467
 21
4.0241512809
 31
0.0
 11
6.0804757176
 21
4.0251936448
 31
0.0
 11
6.0801230557
 21
4.0263836406
 31
0.0
 11
6.0797725063
 21
4.0277198427
 31
0.0
 11
6.0794246102
 21
4.0292007888
 31
0.0
 11
6.0790798378
 21
4.03082447
 31
0.0
 11
6.0784013288
 21
4.0344903063
 31
0.0
 11
6.0777403017
 21
4.0386978355
 31
0.0
 11
6.0771000733
 21
4.0434271877
 31
0.0
 11
6.076483899
 21
4.0486533586
 31
0.0
 11
6.0758949865
 21
4.0543473917
 31
0.0
 11
6.0753365353
 21
4.0604801828
 31
0.0
 11
6.0748114578
 21
4.0670208451
 31
0.0
 11
6.074322294
 21
4.0739361759
 31
0.0
 11
6.0734616819
 21
4.0887531316
 31
0.0
 11
6.0727734513
 21
4.1045958473
 31
0.0
  0
SPLINE
  5
304
100
AcDbEntity
  8
0
100
AcDbSpline
 62
9
  6
CONTINUOUS
 70
0
 71
3
 72
25
 73
21
 74
19
 42
0.0000001
 43
0.0000001
 44
0.0000000001
 12
-0.0530127324
 22
0.0609660252
 32
0.0
 13
-0.0097629409
 23
0.0801990712
 33
0.0
 40
0.0
 40
0.0
 40
0.0
 40
0.0
 40
0.0094492267
 40
0.0203916001
 40
0.0328737317
 40
0.0469207578
 40
0.0625447902
 40
0.0797496972
 40
0.0985335766
 40
0.1188855804
 40
0.1642193781
 40
0.2155899766
 40
0.2728111074
 40
0.3356310174
 40
0.4037487051
 40
0.4768568861
 40
0.5546267787
 40
0.6367033628
 40
0.8122931776
 40
1.0
 40
1.0
 40
1.0
 40
1.0
 10
6.0521431072
 20
4.020618761
 30
0.0
 10
6.0519761308
 20
4.0208107883
 30
0.0
 10
6.0516420639
 20
4.0212481154
 30
0.0
 10
6.0511666202
 20
4.0219957157
 30
0.0
 10
6.0506814622
 20
4.0228812324
 30
0.0
 10
6.0501873146
 20
4.0239036558
 30
0.0
 10
6.0496848399
 20
4.0250620474
 30
0.0
 10
6.049174785
 20
4.0263552638
 30
0.0
 10
6.0486579409
 20
4.0277819814
 30
0.0
 10
6.0479343478
 20
4.0299388123
 30
0.0
 10
6.0470254842
 20
4.032958118
 30
0.0
 10
6.045952094
 20
4.0369624733
 30
0.0
 10
6.0448663657
 20
4.0414495556
 30
0.0
 10
6.0437734607
 20
4.0463977579
 30
0.0
 10
6.0426787331
 20
4.0517828647
 30
0.0
 10
6.0415880345
 20
4.0575789533
 30
0.0
 10
6.0405067329
 20
4.0637587769
 30
0.0
 10
6.0390510534
 20
4.0726743095
 30
0.0
 10
6.0373048498
 20
4.0845413748
 30
0.0
 10
6.0360481474
 20
4.0942445263
 30
0.0
 10
6.0354372905
 20
4.0992624972
 30
0.0
 11
6.0521431072
 21
4.020618761
 31
0.0
 11
6.0516749318
 21
4.0212217637
 31
0.0
 11
6.0511966351
 21
4.0219652492
 31
0.0
 11
6.0507089161
 21
4.0228479114
 31
0.0
 11
6.0502124743
 21
4.023868444
 31
0.0
 11
6.0497080088
 21
4.025025541
 31
0.0
 11
6.0491962188
 21
4.026317896
 31
0.0
 11
6.0486778007
 21
4.0277441722
 31
0.0
 11
6.0481534067
 21
4.0293025708
 31
0.0
 11
6.0470891637
 21
4.03280711
 31
0.0
 11
6.0460084307
 21
4.0368142176
 31
0.0
 11
6.0449161655
 21
4.0413062897
 31
0.0
 11
6.0438175935
 21
4.046261259
 31
0.0
 11
6.0427181455
 21
4.0516536218
 31
0.0
 11
6.0416232528
 21
4.0574577463
 31
0.0
 11
6.0405381509
 21
4.063646455
 31
0.0
 11
6.0394678209
 21
4.0701905627
 31
0.0
 11
6.0373915323
 21
4.0842238954
 31
0.0
 11
6.0354372905
 21
4.0992624972
 31
0.0
  0
SPLINE
  5
305
100
AcDbEntity
  8
0
100
AcDbSpline
 62
9
  6
CONTINUOUS
 70
0
 71
3
 72
12
 73
8
 74
6
 42
0.0000001
 43
0.0000001
 44
0.0000000001
 12
-0.020345012
 22
0.0047064787
 32
0.0
 13
-0.0198673863
 23
0.0064309735
 33
0.0
 40
0.0
 40
0.0
 40
0.0
 40
0.0
 40
0.098966153
 40
0.2057250007
 40
0.441915097
 40
0.7072146146
 40
1.0
 40
1.0
 40
1.0
 40
1.0
 10
5.7126707103
 20
3.782996981
 30
0.0
 10
5.7119995544
 20
3.7831522417
 30
0.0
 10
5.7106072997
 20
3.7834876196
 30
0.0
 10
5.7076277208
 20
3.7842523543
 30
0.0
 10
5.7035479293
 20
3.7853857375
 30
0.0
 10
5.6982508179
 20
3.7869702121
 30
0.0
 10
5.6945471842
 20
3.7881429365
 30
0.0
 10
5.692608224
 20
3.7887705682
 30
0.0
 11
5.7126707103
 21
3.782996981
 31
0.0
 11
5.7106612335
 21
3.7834796898
 31
0.0
 11
5.7085015637
 21
3.7840327886
 31
0.0
 11
5.7037474426
 21
3.7853461259
 31
0.0
 11
5.6984382595
 21
3.7869288088
 31
0.0
 11
5.692608224
 21
3.7887705682
 31
0.0
  0
SPLINE
  5
306
100
AcDbEntity
  8
0
100
AcDbSpline
 62
9
  6
CONTINUOUS
 70
0
 71
3
 72
11
 73
7
 74
5
 42
0.0000001
 43
0.0000001
 44
0.0000000001
 12
-0.0199191008
 22
0.0043321359
 32
0.0
 13
-0.0194720957
 23
0.0060312077
 33
0.0
 40
0.0
 40
0.0
 40
0.0
 40
0.0
 40
0.2066250002
 40
0.4430726549
 40
0.7080459314
 40
1.0
 40
1.0
 40
1.0
 40
1.0
 10
5.7113718372
 20
3.7800170079
 30
0.0
 10
5.7099999091
 20
3.7803153838
 30
0.0
 10
5.7070697182
 20
3.7810090824
 30
0.0
 10
5.702417193
 20
3.7822354768
 30
0.0
 10
5.6972324809
 20
3.783713292
 30
0.0
 10
5.6936102769
 20
3.7848094421
 30
0.0
 10
5.6917152911
 20
3.7853963873
 30
0.0
 11
5.7113718372
 21
3.7800170079
 31
0.0
 11
5.7072710317
 21
3.7809784273
 31
0.0
 11
5.7026086391
 21
3.782200631
 31
0.0
 11
5.6974127214
 21
3.7836763372
 31
0.0
 11
5.6917152911
 21
3.7853963873
 31
0.0
  0
LINE
  5
307
100
AcDbEntity
  8
0
100
AcDbLine
 62
9
  6
CONTINUOUS
 10
5.6813991698
 20
3.6720034237
 11
5.6751797164
 21
3.6716087372
  0
LINE
  5
308
100
AcDbEntity
  8
0
100
AcDbLine
 62
9
  6
CONTINUOUS
 10
5.6811842386
 20
3.6702089448
 11
5.6750586685
 21
3.6693978893
  0
SPLINE
  5
309
100
AcDbEntity
  8
0
100
AcDbSpline
 62
9
  6
CONTINUOUS
 70
0
 71
3
 72
23
 73
19
 74
17
 42
0.0000001
 43
0.0000001
 44
0.0000000001
 12
0.0117852319
 22
0.034607241
 32
0.0
 13
-0.0001104588
 23
0.0365587284
 33
0.0
 40
0.0
 40
0.0
 40
0.0
 40
0.0
 40
0.0072167916
 40
0.0163393994
 40
0.0273644884
 40
0.0402782102
 40
0.0550616968
 40
0.0716933943
 40
0.1104073886
 40
0.1561936647
 40
0.20868606
 40
0.2674814385
 40
0.3321743519
 40
0.4023376021
 40
0.4774614079
 40
0.6404664455
 40
0.816611184
 40
1.0
 40
1.0
 40
1.0
 40
1.0
 10
6.1661747699
 20
5.0523310173
 30
0.0
 10
6.1662031204
 20
5.0524142684
 30
0.0
 10
6.1662566977
 20
5.0526063147
 30
0.0
 10
6.166327745
 20
5.0529321979
 30
0.0
 10
6.1663981555
 20
5.0533289838
 30
0.0
 10
6.1664676741
 20
5.0537957545
 30
0.0
 10
6.1665360399
 20
5.0543316492
 30
0.0
 10
6.1666301986
 20
5.0551810905
 30
0.0
 10
6.1667408236
 20
5.0564086587
 30
0.0
 10
6.1668607035
 20
5.0580738362
 30
0.0
 10
6.1669725853
 20
5.059984762
 30
0.0
 10
6.167075596
 20
5.0621268697
 30
0.0
 10
6.167168831
 20
5.064484947
 30
0.0
 10
6.1672514583
 20
5.0670425103
 30
0.0
 10
6.167349484
 20
5.0707981899
 30
0.0
 10
6.1674390876
 20
5.0758459516
 30
0.0
 10
6.1674945055
 20
5.082213588
 30
0.0
 10
6.1674980058
 20
5.0865950225
 30
0.0
 10
6.1674912535
 20
5.0888298431
 30
0.0
 11
6.1661747699
 21
5.0523310173
 31
0.0
 11
6.1662482724
 21
5.0525844099
 31
0.0
 11
6.166320878
 21
5.0529099234
 31
0.0
 11
6.1663924355
 21
5.0533065857
 31
0.0
 11
6.1664627936
 21
5.053773425
 31
0.0
 11
6.166531801
 21
5.0543094693
 31
0.0
 11
6.1665993065
 21
5.0549137469
 31
0.0
 11
6.1667292069
 21
5.056323114
 31
0.0
 11
6.1668513625
 21
5.0579925465
 31
0.0
 11
6.1669649529
 21
5.0599082458
 31
0.0
 11
6.1670692355
 21
5.0620552087
 31
0.0
 11
6.1671634676
 21
5.0644184322
 31
0.0
 11
6.1672469469
 21
5.0669821643
 31
0.0
 11
6.1673191314
 21
5.0697276589
 31
0.0
 11
6.1674276092
 21
5.0756859556
 31
0.0
 11
6.1674854251
 21
5.0821253531
 31
0.0
 11
6.1674912535
 21
5.0888298431
 31
0.0
  0
SPLINE
  5
30A
100
AcDbEntity
  8
0
100
AcDbSpline
 62
9
  6
CONTINUOUS
 70
0
 71
3
 72
22
 73
18
 74
16
 42
0.0000001
 43
0.0000001
 44
0.0000000001
 12
0.0108418758
 22
0.0347814841
 32
0.0
 13
-0.0004466521
 23
0.0364293619
 33
0.0
 40
0.0
 40
0.0
 40
0.0
 40
0.0
 40
0.0073995337
 40
0.0166952592
 40
0.0278813032
 40
0.0409425608
 40
0.072608954
 40
0.1115157514
 40
0.1574344524
 40
0.2100016142
 40
0.2688178678
 40
0.3334816808
 40
0.4035702434
 40
0.4785797786
 40
0.6412632939
 40
0.817010217
 40
1.0
 40
1.0
 40
1.0
 40
1.0
 10
6.1549247829
 20
5.0522317529
 30
0.0
 10
6.1549515246
 20
5.0523175419
 30
0.0
 10
6.155001862
 20
5.052514178
 30
0.0
 10
6.1550681026
 20
5.0528462901
 30
0.0
 10
6.1551330499
 20
5.053248507
 30
0.0
 10
6.1552234697
 20
5.0539215284
 30
0.0
 10
6.1553274597
 20
5.0549320594
 30
0.0
 10
6.155438133
 20
5.0563424735
 30
0.0
 10
6.1555393051
 20
5.0580079765
 30
0.0
 10
6.1556305002
 20
5.0599161173
 30
0.0
 10
6.1557108647
 20
5.0620525605
 30
0.0
 10
6.1557797178
 20
5.064402278
 30
0.0
 10
6.1558363957
 20
5.0669490214
 30
0.0
 10
6.1558969416
 20
5.0706862592
 30
0.0
 10
6.1559373486
 20
5.0757070161
 30
0.0
 10
6.1559323043
 20
5.0820392217
 30
0.0
 10
6.1558951563
 20
5.0863956239
 30
0.0
 10
6.1558679121
 20
5.0886176909
 30
0.0
 11
6.1549247829
 21
5.0522317529
 31
0.0
 11
6.1549940483
 21
5.0524922831
 31
0.0
 11
6.155061757
 21
5.0528241084
 31
0.0
 11
6.1551277723
 21
5.0532262571
 31
0.0
 11
6.1551919573
 21
5.0536977575
 31
0.0
 11
6.1553142891
 21
5.0548449265
 31
0.0
 11
6.1554276581
 21
5.0562578419
 31
0.0
 11
6.1555310561
 21
5.0579275582
 31
0.0
 11
6.1556238196
 21
5.0598404423
 31
0.0
 11
6.1557053716
 21
5.0619816895
 31
0.0
 11
6.155775135
 21
5.0643364948
 31
0.0
 11
6.1558325782
 21
5.0668893222
 31
0.0
 11
6.1558773516
 21
5.0696217102
 31
0.0
 11
6.1559276724
 21
5.0755483987
 31
0.0
 11
6.1559242916
 21
5.0819512273
 31
0.0
 11
6.1558679121
 21
5.0886176909
 31
0.0
  0
SPLINE
  5
30B
100
AcDbEntity
  8
0
100
AcDbSpline
 62
9
  6
CONTINUOUS
 70
0
 71
3
 72
14
 73
10
 74
8
 42
0.0000001
 43
0.0000001
 44
0.0000000001
 12
-0.0120790496
 22
0.0234725097
 32
0.0
 13
-0.0140903518
 23
0.0223231749
 33
0.0
 40
0.0
 40
0.0
 40
0.0
 40
0.0
 40
0.0776800206
 40
0.17174653
 40
0.2808854498
 40
0.4037218101
 40
0.5387950062
 40
0.684592121
 40
1.0
 40
1.0
 40
1.0
 40
1.0
 10
5.5059083089
 20
4.8589525285
 30
0.0
 10
5.505595542
 20
4.8595603102
 30
0.0
 10
5.5048827172
 20
4.8608930973
 30
0.0
 10
5.5036778727
 20
4.8630512392
 30
0.0
 10
5.5022459152
 20
4.86553738
 30
0.0
 10
5.5006048423
 20
4.8683192429
 30
0.0
 10
5.4987742589
 20
4.8713636736
 30
0.0
 10
5.4960381723
 20
4.8758407149
 30
0.0
 10
5.493889214
 20
4.8792835195
 30
0.0
 10
5.4924078113
 20
4.8816304879
 30
0.0
 11
5.5059083089
 21
4.8589525285
 31
0.0
 11
5.5049458446
 21
4.860763235
 31
0.0
 11
5.503738062
 21
4.8629329013
 31
0.0
 11
5.5023020145
 21
4.865430561
 31
0.0
 11
5.5006558416
 21
4.8682242877
 31
0.0
 11
5.4988193672
 21
4.8712806663
 31
0.0
 11
5.4968131847
 21
4.8745652196
 31
0.0
 11
5.4924078113
 21
4.8816304879
 31
0.0
  0
SPLINE
  5
30C
100
AcDbEntity
  8
0
100
AcDbSpline
 62
9
  6
CONTINUOUS
 70
0
 71
3
 72
14
 73
10
 74
8
 42
0.0000001
 43
0.0000001
 44
0.0000000001
 12
-0.012125999
 22
0.0233834873
 32
0.0
 13
-0.0141194368
 23
0.0222366552
 33
0.0
 40
0.0
 40
0.0
 40
0.0
 40
0.0
 40
0.0778122565
 40
0.1719609172
 40
0.2811365759
 40
0.4039699716
 40
0.5390076882
 40
0.6847443877
 40
1.0
 40
1.0
 40
1.0
 40
1.0
 10
5.5034098776
 20
4.8573538487
 30
0.0
 10
5.5030953605
 20
4.857960356
 30
0.0
 10
5.5023792169
 20
4.8592897561
 30
0.0
 10
5.501169699
 20
4.8614416312
 30
0.0
 10
5.4997333515
 20
4.8639191867
 30
0.0
 10
5.4980881474
 20
4.8666904058
 30
0.0
 10
5.4962536489
 20
4.8697224178
 30
0.0
 10
5.4935124848
 20
4.8741803751
 30
0.0
 10
5.4913599306
 20
4.8776082867
 30
0.0
 10
5.4898761867
 20
4.8799450301
 30
0.0
 11
5.5034098776
 21
4.8573538487
 31
0.0
 11
5.5024424036
 21
4.8591607641
 31
0.0
 11
5.5012299195
 21
4.8613240826
 31
0.0
 11
5.4997894687
 21
4.8638130693
 31
0.0
 11
5.4981391657
 21
4.8665960527
 31
0.0
 11
5.4962987852
 21
4.8696399103
 31
0.0
 11
5.4942888671
 21
4.8729104694
 31
0.0
 11
5.4898761867
 21
4.8799450301
 31
0.0
  0
SPLINE
  5
30D
100
AcDbEntity
  8
0
100
AcDbSpline
 62
9
  6
CONTINUOUS
 70
0
 71
3
 72
23
 73
19
 74
17
 42
0.0000001
 43
0.0000001
 44
0.0000000001
 12
0.0000742454
 22
0.0359154104
 32
0.0
 13
-0.0202612211
 23
0.0296547658
 33
0.0
 40
0.0
 40
0.0
 40
0.0
 40
0.0
 40
0.184280573
 40
0.3607471029
 40
0.5236289304
 40
0.598566011
 40
0.6684821401
 40
0.7328867871
 40
0.7913733755
 40
0.8435603092
 40
0.8890743306
 40
0.9275893354
 40
0.9441666477
 40
0.958937951
 40
0.9718956474
 40
0.983041256
 40
0.9923927016
 40
1.0
 40
1.0
 40
1.0
 40
1.0
 10
6.389228401
 20
4.172392327
 30
0.0
 10
6.3892329617
 20
4.1745984978
 30
0.0
 10
6.3892113391
 20
4.1789174262
 30
0.0
 10
6.3890874295
 20
4.185185226
 30
0.0
 10
6.3889052241
 20
4.1901419651
 30
0.0
 10
6.3887119155
 20
4.1938211086
 30
0.0
 10
6.3885511448
 20
4.1963212111
 30
0.0
 10
6.3883715153
 20
4.1986225533
 30
0.0
 10
6.3881745842
 20
4.2007093935
 30
0.0
 10
6.3879620246
 20
4.2025672898
 30
0.0
 10
6.3877354519
 20
4.2041824201
 30
0.0
 10
6.387527306
 20
4.2053691627
 30
0.0
 10
6.3873508644
 20
4.2061868406
 30
0.0
 10
6.387222854
 20
4.2067017042
 30
0.0
 10
6.3870928366
 20
4.2071487192
 30
0.0
 10
6.3869611319
 20
4.2075272541
 30
0.0
 10
6.3868281418
 20
4.2078366116
 30
0.0
 10
6.3867288728
 20
4.2080145818
 30
0.0
 10
6.386677495
 20
4.2080897793
 30
0.0
 11
6.389228401
 21
4.172392327
 31
0.0
 11
6.389194237
 21
4.1790107654
 31
0.0
 11
6.3890655709
 21
4.1853473406
 31
0.0
 11
6.3888455325
 21
4.1911931811
 31
0.0
 11
6.3887033293
 21
4.1938808235
 31
0.0
 11
6.3885409652
 21
4.1963866407
 31
0.0
 11
6.3883594818
 21
4.1986926345
 31
0.0
 11
6.3881602007
 21
4.2007837346
 31
0.0
 11
6.3879445134
 21
4.2026456023
 31
0.0
 11
6.3877138116
 21
4.204263899
 31
0.0
 11
6.3874696244
 21
4.2056254607
 31
0.0
 11
6.3873431151
 21
4.2062072471
 31
0.0
 11
6.3872140313
 21
4.206721822
 31
0.0
 11
6.3870826503
 21
4.2071682741
 31
0.0
 11
6.3869492492
 21
4.2075456919
 31
0.0
 11
6.3868141051
 21
4.2078531641
 31
0.0
 11
6.386677495
 21
4.2080897793
 31
0.0
  0
SPLINE
  5
30E
100
AcDbEntity
  8
0
100
AcDbSpline
 62
9
  6
CONTINUOUS
 70
0
 71
3
 72
23
 73
19
 74
17
 42
0.0000001
 43
0.0000001
 44
0.0000000001
 12
0.0000664817
 22
0.0357718256
 32
0.0
 13
-0.0196831757
 23
0.0298697258
 33
0.0
 40
0.0
 40
0.0
 40
0.0
 40
0.0
 40
0.1840212674
 40
0.3602053455
 40
0.5228466671
 40
0.5976948724
 40
0.6675505861
 40
0.7319285311
 40
0.7904259907
 40
0.8426647596
 40
0.8882746957
 40
0.9269316255
 40
0.9435966753
 40
0.9584663137
 40
0.9715321561
 40
0.9827944016
 40
0.9922685873
 40
1.0
 40
1.0
 40
1.0
 40
1.0
 10
6.3816830227
 20
4.172591791
 30
0.0
 10
6.3816871008
 20
4.1747860499
 30
0.0
 10
6.381664998
 20
4.1790812436
 30
0.0
 10
6.3815417022
 20
4.1853146518
 30
0.0
 10
6.3813611811
 20
4.1902443007
 30
0.0
 10
6.3811699394
 20
4.1939041461
 30
0.0
 10
6.3810109476
 20
4.1963922211
 30
0.0
 10
6.3808333631
 20
4.1986835513
 30
0.0
 10
6.3806387085
 20
4.2007626165
 30
0.0
 10
6.3804286175
 20
4.2026151678
 30
0.0
 10
6.3802046688
 20
4.204227563
 30
0.0
 10
6.3799989917
 20
4.2054137718
 30
0.0
 10
6.3798246956
 20
4.2062324848
 30
0.0
 10
6.3796981558
 20
4.206749135
 30
0.0
 10
6.3795696131
 20
4.2071986419
 30
0.0
 10
6.379439384
 20
4.2075803565
 30
0.0
 10
6.3793078593
 20
4.2078935694
 30
0.0
 10
6.3792098304
 20
4.208074588
 30
0.0
 10
6.3791591041
 20
4.2081515664
 30
0.0
 11
6.3816830227
 21
4.172591791
 31
0.0
 11
6.3816481162
 21
4.1791744865
 31
0.0
 11
6.3815201339
 21
4.1854756239
 31
0.0
 11
6.3813021688
 21
4.1912895266
 31
0.0
 11
6.3811614827
 21
4.1939632895
 31
0.0
 11
6.3810009299
 21
4.1964569971
 31
0.0
 11
6.3808215302
 21
4.1987529194
 31
0.0
 11
6.380624577
 21
4.2008361946
 31
0.0
 11
6.3804114318
 21
4.2026926783
 31
0.0
 11
6.3801834563
 21
4.2043082259
 31
0.0
 11
6.3799421468
 21
4.2056698397
 31
0.0
 11
6.3798171194
 21
4.2062527217
 31
0.0
 11
6.3796895385
 21
4.2067691098
 31
0.0
 11
6.3795596752
 21
4.2072180962
 31
0.0
 11
6.379427801
 21
4.2075987731
 31
0.0
 11
6.3792941869
 21
4.2079102324
 31
0.0
 11
6.3791591041
 21
4.2081515664
 31
0.0
  0
SPLINE
  5
30F
100
AcDbEntity
  8
0
100
AcDbSpline
 62
9
  6
CONTINUOUS
 70
0
 71
3
 72
18
 73
14
 74
12
 42
0.0000001
 43
0.0000001
 44
0.0000000001
 12
-0.0059148476
 22
0.0269147535
 32
0.0
 13
-0.0128794797
 23
0.0243620274
 33
0.0
 40
0.0
 40
0.0
 40
0.0
 40
0.0
 40
0.1714542774
 40
0.334610737
 40
0.4863878524
 40
0.6241711741
 40
0.7460697212
 40
0.8004987832
 40
0.8503026109
 40
0.8953107036
 40
0.9353610828
 40
0.9703019888
 40
1.0
 40
1.0
 40
1.0
 40
1.0
 10
6.014557782
 20
4.1468741137
 30
0.0
 10
6.01421974
 20
4.1484123303
 30
0.0
 10
6.0135417188
 20
4.1514103398
 30
0.0
 10
6.0124988532
 20
4.1557548615
 30
0.0
 10
6.011467985
 20
4.1597837717
 30
0.0
 10
6.0104658673
 20
4.1634282447
 30
0.0
 10
6.0096407455
 20
4.1661934392
 30
0.0
 10
6.0090020813
 20
4.1681700746
 30
0.0
 10
6.0085579139
 20
4.1694670916
 30
0.0
 10
6.0081323948
 20
4.170630626
 30
0.0
 10
6.0077275191
 20
4.171656027
 30
0.0
 10
6.0073453461
 20
4.1725386545
 30
0.0
 10
6.0070858508
 20
4.1730730863
 30
0.0
 10
6.0069583525
 20
4.1733142542
 30
0.0
 11
6.014557782
 21
4.1468741137
 31
0.0
 11
6.0135145555
 21
4.1514822718
 31
0.0
 11
6.0124632155
 21
4.1558537307
 31
0.0
 11
6.0114235143
 21
4.1599049697
 31
0.0
 11
6.0104131926
 21
4.163564981
 31
0.0
 11
6.0094468736
 21
4.1667821519
 31
0.0
 11
6.0089847017
 21
4.1682090736
 31
0.0
 11
6.0085389571
 21
4.1695071172
 31
0.0
 11
6.008111542
 21
4.1706714338
 31
0.0
 11
6.0077043643
 21
4.1716972465
 31
0.0
 11
6.0073193318
 21
4.1725797789
 31
0.0
 11
6.0069583525
 21
4.1733142542
 31
0.0
  0
SPLINE
  5
310
100
AcDbEntity
  8
0
100
AcDbSpline
 62
9
  6
CONTINUOUS
 70
0
 71
3
 72
18
 73
14
 74
12
 42
0.0000001
 43
0.0000001
 44
0.0000000001
 12
-0.0059293107
 22
0.0266071192
 32
0.0
 13
-0.0123292613
 23
0.0243122363
 33
0.0
 40
0.0
 40
0.0
 40
0.0
 40
0.0
 40
0.171377777
 40
0.3343980159
 40
0.4860339139
 40
0.6237159773
 40
0.7455830965
 40
0.8000304781
 40
0.8498783771
 40
0.8949567344
 40
0.9351030519
 40
0.9701635437
 40
1.0
 40
1.0
 40
1.0
 40
1.0
 10
6.0035553274
 20
4.1449898071
 30
0.0
 10
6.0032166101
 20
4.1465097634
 30
0.0
 10
6.0025388947
 20
4.1494718453
 30
0.0
 10
6.0015011646
 20
4.1537647061
 30
0.0
 10
6.0004799885
 20
4.1577462145
 30
0.0
 10
5.9994917189
 20
4.1613496013
 30
0.0
 10
5.9986817128
 20
4.1640856827
 30
0.0
 10
5.998057205
 20
4.1660436138
 30
0.0
 10
5.9976238777
 20
4.1673299562
 30
0.0
 10
5.9972098102
 20
4.1684854416
 30
0.0
 10
5.996816903
 20
4.1695055091
 30
0.0
 10
5.9964471134
 20
4.1703856106
 30
0.0
 10
5.9961969885
 20
4.1709199516
 30
0.0
 10
5.9960743681
 20
4.1711617485
 30
0.0
 11
6.0035553274
 21
4.1449898071
 31
0.0
 11
6.0025124337
 21
4.1495436343
 31
0.0
 11
6.0014665157
 21
4.1538626925
 31
0.0
 11
6.0004368903
 21
4.1578659659
 31
0.0
 11
5.9994408394
 21
4.1614845653
 31
0.0
 11
5.9984924906
 21
4.1646683976
 31
0.0
 11
5.9980405352
 21
4.1660821359
 31
0.0
 11
5.997605734
 21
4.1673695368
 31
0.0
 11
5.9971898997
 21
4.1685258652
 31
0.0
 11
5.9967948493
 21
4.1695464543
 31
0.0
 11
5.9964223998
 21
4.1704266376
 31
0.0
 11
5.9960743681
 21
4.1711617485
 31
0.0
  0
SPLINE
  5
311
100
AcDbEntity
  8
0
100
AcDbSpline
 62
9
  6
CONTINUOUS
 70
0
 71
3
 72
20
 73
16
 74
14
 42
0.0000001
 43
0.0000001
 44
0.0000000001
 12
-0.0456791777
 22
0.0654779015
 32
0.0
 13
-0.0333904326
 23
0.0725191139
 33
0.0
 40
0.0
 40
0.0
 40
0.0
 40
0.0
 40
0.1768241776
 40
0.3439593504
 40
0.498222276
 40
0.6371589275
 40
0.7001806148
 40
0.7585761832
 40
0.8121187895
 40
0.8605828243
 40
0.9037565014
 40
0.9414784818
 40
0.9736042079
 40
0.9875262429
 40
1.0
 40
1.0
 40
1.0
 40
1.0
 10
5.466351309
 20
4.9396382572
 30
0.0
 10
5.4636589147
 20
4.9434976159
 30
0.0
 10
5.4584469893
 20
4.9510225807
 30
0.0
 10
5.4509789671
 20
4.9619783815
 30
0.0
 10
5.4441666027
 20
4.9721603425
 30
0.0
 10
5.438975485
 20
4.9800928689
 30
0.0
 10
5.4352402149
 20
4.9859284772
 30
0.0
 10
5.4327599219
 20
4.9898690092
 30
0.0
 10
5.4305181557
 20
4.9935017289
 30
0.0
 10
5.4285244162
 20
4.9968112559
 30
0.0
 10
5.426787283
 20
4.9997835524
 30
0.0
 10
5.4253136113
 20
5.0024057315
 30
0.0
 10
5.424264533
 20
5.0043731382
 30
0.0
 10
5.4235663237
 20
5.0057653313
 30
0.0
 10
5.4232640002
 20
5.0063994798
 30
0.0
 10
5.4231251654
 20
5.0067010084
 30
0.0
 11
5.466351309
 21
4.9396382572
 31
0.0
 11
5.4583150277
 21
4.9512447603
 31
0.0
 11
5.4508025882
 21
4.9622726355
 31
0.0
 11
5.4439581351
 21
4.9725115075
 31
0.0
 11
5.4378907824
 21
4.9817973007
 31
0.0
 11
5.4351794231
 21
4.9860357121
 31
0.0
 11
5.4326972309
 21
4.9899821203
 31
0.0
 11
5.4304540089
 21
4.9936209171
 31
0.0
 11
5.42845956
 21
4.9969364944
 31
0.0
 11
5.4267230561
 21
4.9999139714
 31
0.0
 11
5.4252511447
 21
5.0025413779
 31
0.0
 11
5.4240498423
 21
5.0048074711
 31
0.0
 11
5.4235525497
 21
5.0058015119
 31
0.0
 11
5.4231251654
 21
5.0067010084
 31
0.0
  0
SPLINE
  5
312
100
AcDbEntity
  8
0
100
AcDbSpline
 62
6
  6
CONTINUOUS
 70
0
 71
3
 72
37
 73
33
 74
31
 42
0.0000001
 43
0.0000001
 44
0.0000000001
 12
0.4083853172
 22
-0.0243185954
 32
0.0
 13
0.3706633489
 23
0.1731434178
 33
0.0
 40
0.0
 40
0.0
 40
0.0
 40
0.0
 40
0.0950244868
 40
0.1892159886
 40
0.281676838
 40
0.3715959268
 40
0.4581546855
 40
0.5405698842
 40
0.6180987084
 40
0.6900395485
 40
0.7557436443
 40
0.7860686897
 40
0.8146176035
 40
0.8413240943
 40
0.8661299032
 40
0.8889797499
 40
0.9098207871
 40
0.9286089732
 40
0.9453026703
 40
0.9598644125
 40
0.9663370815
 40
0.9722666985
 40
0.9776502818
 40
0.98248515
 40
0.986769945
 40
0.9905045802
 40
0.9936899189
 40
0.9963285387
 40
0.9974446911
 40
0.9984269889
 40
0.9992775714
 40
1.0
 40
1.0
 40
1.0
 40
1.0
 10
5.2577946447
 20
3.3577815944
 30
0.0
 10
5.2707301797
 20
3.357011307
 30
0.0
 10
5.2964878567
 20
3.3554774801
 30
0.0
 10
5.3348326583
 20
3.353203786
 30
0.0
 10
5.3724836041
 20
3.3509906581
 30
0.0
 10
5.4090971847
 20
3.348867939
 30
0.0
 10
5.4443454276
 20
3.3468642635
 30
0.0
 10
5.4779095965
 20
3.3450073279
 30
0.0
 10
5.5094867969
 20
3.3433233711
 30
0.0
 10
5.5387923258
 20
3.3418371125
 30
0.0
 10
5.561672807
 20
3.3407547808
 30
0.0
 10
5.5786452319
 20
3.3400119301
 30
0.0
 10
5.5903059901
 20
3.3395330656
 30
0.0
 10
5.6012160962
 20
3.3391196648
 30
0.0
 10
5.6113509584
 20
3.3387737752
 30
0.0
 10
5.6206877688
 20
3.3384972684
 30
0.0
 10
5.6292055908
 20
3.3382919741
 30
0.0
 10
5.6368852552
 20
3.3381592392
 30
0.0
 10
5.6437095242
 20
3.3381004029
 30
0.0
 10
5.6488546503
 20
3.3381139585
 30
0.0
 10
5.6525313704
 20
3.338167889
 30
0.0
 10
5.6549561663
 20
3.3382260703
 30
0.0
 10
5.6571569622
 20
3.3383035783
 30
0.0
 10
5.6591324684
 20
3.3384004869
 30
0.0
 10
5.6608816455
 20
3.3385167794
 30
0.0
 10
5.6624038064
 20
3.3386522466
 30
0.0
 10
5.6636983127
 20
3.3388068185
 30
0.0
 10
5.6646331012
 20
3.3389580795
 30
0.0
 10
5.6652648958
 20
3.339093418
 30
0.0
 10
5.6656544321
 20
3.3391940344
 30
0.0
 10
5.6659867708
 20
3.3392994177
 30
0.0
 10
5.6661862769
 20
3.339379182
 30
0.0
 10
5.6662755362
 20
3.3394208766
 30
0.0
 11
5.2577946447
 21
3.3577815944
 31
0.0
 11
5.2966013468
 21
3.3554723611
 31
0.0
 11
5.3350684495
 21
3.3531931427
 31
0.0
 11
5.3728299247
 21
3.3509754313
 31
0.0
 11
5.4095550681
 21
3.3488484512
 31
0.0
 11
5.4449100867
 21
3.3468413411
 31
0.0
 11
5.47857556
 21
3.3449820302
 31
0.0
 11
5.5102484917
 21
3.3432970583
 31
0.0
 11
5.5396426009
 21
3.341811467
 31
0.0
 11
5.5664930303
 21
3.3405484209
 31
0.0
 11
5.5788874552
 21
3.3400070786
 31
0.0
 11
5.5905572819
 21
3.3395291275
 31
0.0
 11
5.6014753629
 21
3.3391169416
 31
0.0
 11
5.611617793
 21
3.3387726133
 31
0.0
 11
5.6209618345
 21
3.3384981336
 31
0.0
 11
5.6294856747
 21
3.3382954124
 31
0.0
 11
5.6371709972
 21
3.3381660523
 31
0.0
 11
5.6440003173
 21
3.3381115827
 31
0.0
 11
5.6499576134
 21
3.3381334054
 31
0.0
 11
5.6526053388
 21
3.338173269
 31
0.0
 11
5.6550304711
 21
3.3382326073
 31
0.0
 11
5.6572315268
 21
3.3383115501
 31
0.0
 11
5.6592070509
 21
3.3384102248
 31
0.0
 11
5.6609559881
 21
3.3385287236
 31
0.0
 11
5.6624775797
 21
3.3386671128
 31
0.0
 11
5.6637710737
 21
3.3388254578
 31
0.0
 11
5.664835718
 21
3.3390038244
 31
0.0
 11
5.6652819866
 21
3.3391005362
 31
0.0
 11
5.6656707609
 21
3.3392022779
 31
0.0
 11
5.6660019538
 21
3.3393090572
 31
0.0
 11
5.6662755362
 21
3.3394208766
 31
0.0
  0
LINE
  5
313
100
AcDbEntity
  8
0
100
AcDbLine
 62
6
  6
CONTINUOUS
 10
5.6666689315
 20
3.3496874238
 11
5.6671491043
 21
3.3494058013
  0
LINE
  5
314
100
AcDbEntity
  8
0
100
AcDbLine
 62
6
  6
CONTINUOUS
 10
5.6790899045
 20
3.4920189819
 11
5.6796000559
 21
3.4917221866
  0
SPLINE
  5
315
100
AcDbEntity
  8
0
100
AcDbSpline
 62
6
  6
CONTINUOUS
 70
0
 71
3
 72
37
 73
33
 74
31
 42
0.0000001
 43
0.0000001
 44
0.0000000001
 12
0.4083851949
 22
-0.0243185881
 32
0.0
 13
0.3706645598
 23
0.1731405361
 33
0.0
 40
0.0
 40
0.0
 40
0.0
 40
0.0
 40
0.095025541
 40
0.1892161157
 40
0.2816760788
 40
0.3715946214
 40
0.4581529375
 40
0.5405682463
 40
0.6180974971
 40
0.6900386117
 40
0.75574269
 40
0.7860681331
 40
0.8146169516
 40
0.8413234131
 40
0.8661296657
 40
0.8889793303
 40
0.9098206162
 40
0.9286093735
 40
0.9453027607
 40
0.9598648011
 40
0.9663377408
 40
0.9722674543
 40
0.9776507746
 40
0.98248534
 40
0.9867702003
 40
0.9905050716
 40
0.993690605
 40
0.99632917
 40
0.9974451402
 40
0.9984271893
 40
0.9992776116
 40
1.0
 40
1.0
 40
1.0
 40
1.0
 10
5.2702457141
 20
3.5000979689
 30
0.0
 10
5.2831813888
 20
3.4993276733
 30
0.0
 10
5.3089390753
 20
3.4977938459
 30
0.0
 10
5.3472837621
 20
3.4955201582
 30
0.0
 10
5.3849343755
 20
3.493307051
 30
0.0
 10
5.4215476897
 20
3.491184345
 30
0.0
 10
5.4567958023
 20
3.4891806763
 30
0.0
 10
5.490359974
 20
3.487323742
 30
0.0
 10
5.5219372752
 20
3.4856397761
 30
0.0
 10
5.5512428882
 20
3.4841535064
 30
0.0
 10
5.5741234522
 20
3.4830711826
 30
0.0
 10
5.5910959102
 20
3.4823283158
 30
0.0
 10
5.6027567023
 20
3.481849454
 30
0.0
 10
5.6136668489
 20
3.4814360571
 30
0.0
 10
5.623801739
 20
3.4810901485
 30
0.0
 10
5.6331386167
 20
3.4808136537
 30
0.0
 10
5.641656523
 20
3.4806083593
 30
0.0
 10
5.6493362543
 20
3.4804755963
 30
0.0
 10
5.6561605978
 20
3.4804167907
 30
0.0
 10
5.6613057576
 20
3.4804303404
 30
0.0
 10
5.6649825675
 20
3.4804842573
 30
0.0
 10
5.667407377
 20
3.4805424321
 30
0.0
 10
5.669608108
 20
3.4806199528
 30
0.0
 10
5.6715835442
 20
3.4807168821
 30
0.0
 10
5.6733327208
 20
3.4808331683
 30
0.0
 10
5.6748549503
 20
3.4809686213
 30
0.0
 10
5.6761495097
 20
3.4811231771
 30
0.0
 10
5.677084294
 20
3.4812744303
 30
0.0
 10
5.6777160183
 20
3.4814097821
 30
0.0
 10
5.6781054665
 20
3.4815104173
 30
0.0
 10
5.6784377373
 20
3.4816158107
 30
0.0
 10
5.6786372148
 20
3.4816955716
 30
0.0
 10
5.6787264694
 20
3.4817372631
 30
0.0
 11
5.2702457141
 21
3.5000979689
 31
0.0
 11
5.3090528351
 21
3.4977887108
 31
0.0
 11
5.3475195477
 21
3.4955095154
 31
0.0
 11
5.3852806496
 21
3.4932918262
 31
0.0
 11
5.4220055589
 21
3.4911648583
 31
0.0
 11
5.457360386
 21
3.4891577585
 31
0.0
 11
5.4910258942
 21
3.4872984458
 31
0.0
 11
5.5226989906
 21
3.4856134616
 31
0.0
 11
5.552093203
 21
3.4841278626
 31
0.0
 11
5.5789436173
 21
3.4828648194
 31
0.0
 11
5.5913382007
 21
3.4823234639
 31
0.0
 11
5.6030079851
 21
3.4818455166
 31
0.0
 11
5.6139260509
 21
3.4814333321
 31
0.0
 11
5.624068659
 21
3.4810889892
 31
0.0
 11
5.6334126234
 21
3.4808145189
 31
0.0
 11
5.6419365627
 21
3.4806117932
 31
0.0
 11
5.6496221164
 21
3.4804824179
 31
0.0
 11
5.6564513079
 21
3.480427965
 31
0.0
 11
5.6624087242
 21
3.4804497823
 31
0.0
 11
5.6650565596
 21
3.4804896382
 31
0.0
 11
5.6674817307
 21
3.4805489744
 31
0.0
 11
5.6696826778
 21
3.4806279271
 31
0.0
 11
5.6716580767
 21
3.4807266123
 31
0.0
 11
5.6734070405
 21
3.4808451076
 31
0.0
 11
5.6749287295
 21
3.4809834865
 31
0.0
 11
5.6762223044
 21
3.4811418225
 31
0.0
 11
5.6772869257
 21
3.4813201892
 31
0.0
 11
5.6777331166
 21
3.481416907
 31
0.0
 11
5.6781217833
 21
3.4815186574
 31
0.0
 11
5.6784529054
 21
3.4816254424
 31
0.0
 11
5.6787264694
 21
3.4817372631
 31
0.0
  0
LINE
  5
316
100
AcDbEntity
  8
0
100
AcDbLine
 62
6
  6
CONTINUOUS
 10
5.6730106456
 20
3.4207849248
 11
5.6733746683
 21
3.420563986
  0
SPLINE
  5
317
100
AcDbEntity
  8
0
100
AcDbSpline
 62
6
  6
CONTINUOUS
 70
0
 71
3
 72
37
 73
33
 74
31
 42
0.0000001
 43
0.0000001
 44
0.0000000001
 12
0.408385332
 22
-0.0243185963
 32
0.0
 13
0.3706648555
 23
0.1731402278
 33
0.0
 40
0.0
 40
0.0
 40
0.0
 40
0.0
 40
0.0950248044
 40
0.1892175965
 40
0.2816791684
 40
0.3715984076
 40
0.4581572395
 40
0.5405719826
 40
0.6180995697
 40
0.6900387325
 40
0.7557413755
 40
0.7860660905
 40
0.8146148001
 40
0.8413212268
 40
0.8661271917
 40
0.8889772466
 40
0.9098186204
 40
0.9286072992
 40
0.945301454
 40
0.9598635696
 40
0.9663364108
 40
0.9722661941
 40
0.9776499407
 40
0.9824849549
 40
0.9867698204
 40
0.9905044733
 40
0.9936898087
 40
0.9963284353
 40
0.9974446044
 40
0.9984269324
 40
0.9992775523
 40
1.0
 40
1.0
 40
1.0
 40
1.0
 10
5.2640201794
 20
3.4289397816
 30
0.0
 10
5.2769557581
 20
3.4281694917
 30
0.0
 10
5.3027136549
 20
3.4266356516
 30
0.0
 10
5.3410587752
 20
3.424361939
 30
0.0
 10
5.3787100169
 20
3.4221487937
 30
0.0
 10
5.4153237277
 20
3.4200260687
 30
0.0
 10
5.4505719403
 20
3.4180223961
 30
0.0
 10
5.4841358899
 20
3.4161654731
 30
0.0
 10
5.5157126328
 20
3.4144815444
 30
0.0
 10
5.5450175679
 20
3.412995313
 30
0.0
 10
5.5678975785
 20
3.4119130044
 30
0.0
 10
5.584869733
 20
3.4111701607
 30
0.0
 10
5.59653041
 20
3.4106912968
 30
0.0
 10
5.6074405011
 20
3.4102778939
 30
0.0
 10
5.6175754043
 20
3.4099319958
 30
0.0
 10
5.6269123105
 20
3.4096554824
 30
0.0
 10
5.6354302741
 20
3.4094501811
 30
0.0
 10
5.6431101142
 20
3.409317435
 30
0.0
 10
5.6499345638
 20
3.4092585912
 30
0.0
 10
5.655079827
 20
3.4092721449
 30
0.0
 10
5.6587566443
 20
3.4093260744
 30
0.0
 10
5.6611815087
 20
3.4093842549
 30
0.0
 10
5.6633823697
 20
3.4094617618
 30
0.0
 10
5.6653579279
 20
3.4095586676
 30
0.0
 10
5.6671071371
 20
3.409674961
 30
0.0
 10
5.6686293094
 20
3.4098104306
 30
0.0
 10
5.6699238184
 20
3.4099650055
 30
0.0
 10
5.6708586093
 20
3.4101162686
 30
0.0
 10
5.6714904114
 20
3.410251607
 30
0.0
 10
5.6718799596
 20
3.4103522229
 30
0.0
 10
5.6722123118
 20
3.4104576029
 30
0.0
 10
5.6724118263
 20
3.4105373675
 30
0.0
 10
5.6725010883
 20
3.4105790624
 30
0.0
 11
5.2640201794
 21
3.4289397816
 31
0.0
 11
5.3028270126
 21
3.4266305406
 31
0.0
 11
5.3412946437
 21
3.4243512911
 31
0.0
 11
5.3790564153
 21
3.4221335626
 31
0.0
 11
5.4157816216
 21
3.4200065803
 31
0.0
 11
5.4511366714
 21
3.4179994696
 31
0.0
 11
5.4848019599
 21
3.4161401701
 31
0.0
 11
5.5164743875
 21
3.4144552272
 31
0.0
 11
5.5458678124
 21
3.4129696692
 31
0.0
 11
5.572717649
 21
3.4117066494
 31
0.0
 11
5.5851119391
 21
3.4111653099
 31
0.0
 11
5.5967816827
 21
3.4106873593
 31
0.0
 11
5.6076997378
 21
3.4102751708
 31
0.0
 11
5.6178422318
 21
3.4099308345
 31
0.0
 11
5.6271863586
 21
3.4096563481
 31
0.0
 11
5.6357103367
 21
3.409453619
 31
0.0
 11
5.6433958609
 21
3.4093242482
 31
0.0
 11
5.6502253685
 21
3.4092697715
 31
0.0
 11
5.6561828176
 21
3.4092915915
 31
0.0
 11
5.6588306135
 21
3.4093314543
 31
0.0
 11
5.661255814
 21
3.4093907917
 31
0.0
 11
5.6634569367
 21
3.4094697333
 31
0.0
 11
5.6654325207
 21
3.4095684067
 31
0.0
 11
5.6671814869
 21
3.4096869063
 31
0.0
 11
5.6687030856
 21
3.4098252975
 31
0.0
 11
5.6699965779
 21
3.4099836447
 31
0.0
 11
5.671061225
 21
3.4101620125
 31
0.0
 11
5.6715075006
 21
3.4102587243
 31
0.0
 11
5.6718962878
 21
3.4103604653
 31
0.0
 11
5.6722274972
 21
3.4104672435
 31
0.0
 11
5.6725010883
 21
3.4105790624
 31
0.0
  0
SPLINE
  5
318
100
AcDbEntity
  8
0
100
AcDbSpline
 62
6
  6
CONTINUOUS
 70
0
 71
3
 72
37
 73
33
 74
31
 42
0.0000001
 43
0.0000001
 44
0.0000000001
 12
-0.4083853186
 22
0.0243185955
 32
0.0
 13
-0.370663663
 23
-0.1731427487
 33
0.0
 40
0.0
 40
0.0
 40
0.0
 40
0.0
 40
0.0950248434
 40
0.1892173832
 40
0.2816788802
 40
0.3715981024
 40
0.4581568154
 40
0.5405716039
 40
0.6180996444
 40
0.6900395146
 40
0.7557424016
 40
0.7860669082
 40
0.8146153295
 40
0.8413215697
 40
0.8661274846
 40
0.8889774667
 40
0.9098188032
 40
0.9286074921
 40
0.94530156
 40
0.9598636612
 40
0.9663365244
 40
0.9722663162
 40
0.9776500332
 40
0.982484983
 40
0.9867698374
 40
0.9905045155
 40
0.9936898838
 40
0.9963285223
 40
0.9974446809
 40
0.9984269833
 40
0.999277569
 40
1.0
 40
1.0
 40
1.0
 40
1.0
 10
5.2647984172
 20
3.4378350802
 30
0.0
 10
5.2518628335
 20
3.4386053705
 30
0.0
 10
5.2261049666
 20
3.4401392087
 30
0.0
 10
5.1877598869
 20
3.442412919
 30
0.0
 10
5.1501086933
 20
3.4446260615
 30
0.0
 10
5.1134950124
 20
3.446748785
 30
0.0
 10
5.0782468133
 20
3.4487524571
 30
0.0
 10
5.044682813
 20
3.4506093826
 30
0.0
 10
5.013105907
 20
3.4522933214
 30
0.0
 10
4.9838007815
 20
3.45377956
 30
0.0
 10
4.9609206704
 20
3.4548618737
 30
0.0
 10
4.9439485508
 20
3.4556047155
 30
0.0
 10
4.9322879673
 20
3.4560835738
 30
0.0
 10
4.921377948
 20
3.4564969724
 30
0.0
 10
4.9112430873
 20
3.4568428702
 30
0.0
 10
4.9019062032
 20
3.4571193814
 30
0.0
 10
4.8933882535
 20
3.4573246813
 30
0.0
 10
4.8857084293
 20
3.4574574298
 30
0.0
 10
4.8788839922
 20
3.4575162696
 30
0.0
 10
4.87373874
 20
3.4575027155
 30
0.0
 10
4.8700619206
 20
3.4574487881
 30
0.0
 10
4.8676370562
 20
3.4573906084
 30
0.0
 10
4.8654362069
 20
3.4573131013
 30
0.0
 10
4.8634606633
 20
3.4572161914
 30
0.0
 10
4.8617114611
 20
3.4570998979
 30
0.0
 10
4.8601892823
 20
3.4569644299
 30
0.0
 10
4.8588947635
 20
3.4568098573
 30
0.0
 10
4.8579599676
 20
3.4566585957
 30
0.0
 10
4.8573281689
 20
3.4565232569
 30
0.0
 10
4.8569386307
 20
3.4564226404
 30
0.0
 10
4.8566062905
 20
3.456317257
 30
0.0
 10
4.8564067835
 20
3.4562374927
 30
0.0
 10
4.8563175239
 20
3.4561957981
 30
0.0
 11
5.2647984172
 21
3.4378350802
 31
0.0
 11
5.2259915693
 21
3.4401443221
 31
0.0
 11
5.1875240425
 21
3.4424235655
 31
0.0
 11
5.1497623027
 21
3.4446412921
 31
0.0
 11
5.1130371046
 21
3.4467682742
 31
0.0
 11
5.0776821045
 21
3.4487753823
 31
0.0
 11
5.0440167987
 21
3.4506346828
 31
0.0
 11
5.0123441868
 21
3.4523196361
 31
0.0
 11
4.9829504739
 21
3.4538052072
 31
0.0
 11
4.9561005384
 21
3.4550682313
 31
0.0
 11
4.9437063338
 21
3.4556095665
 31
0.0
 11
4.9320367084
 21
3.4560875108
 31
0.0
 11
4.9211187299
 21
3.4564996953
 31
0.0
 11
4.9109762567
 21
3.4568440312
 31
0.0
 11
4.9016321599
 21
3.4571185156
 31
0.0
 11
4.8931081974
 21
3.457321244
 31
0.0
 11
4.8854226693
 21
3.4574506156
 31
0.0
 11
4.8785931974
 21
3.4575050897
 31
0.0
 11
4.8726357545
 21
3.4574832697
 31
0.0
 11
4.8699879496
 21
3.457443408
 31
0.0
 11
4.8675627457
 21
3.4573840712
 31
0.0
 11
4.8653616352
 21
3.4573051288
 31
0.0
 11
4.8633860778
 21
3.4572064533
 31
0.0
 11
4.8616371162
 21
3.4570879535
 31
0.0
 11
4.8601155071
 21
3.4569495635
 31
0.0
 11
4.858822001
 21
3.4567912177
 31
0.0
 11
4.857757349
 21
3.4566128507
 31
0.0
 11
4.8573110778
 21
3.4565161387
 31
0.0
 11
4.8569223017
 21
3.4564143968
 31
0.0
 11
4.8565911073
 21
3.4563076175
 31
0.0
 11
4.8563175239
 21
3.4561957981
 31
0.0
  0
SPLINE
  5
319
100
AcDbEntity
  8
0
100
AcDbSpline
 62
6
  6
CONTINUOUS
 70
0
 71
3
 72
42
 73
38
 74
36
 42
0.0000001
 43
0.0000001
 44
0.0000000001
 12
-0.4091370477
 22
0.0243633596
 32
0.0
 13
-0.0354216027
 23
-0.4083283081
 33
0.0
 40
0.0
 40
0.0
 40
0.0
 40
0.0
 40
0.0978376188
 40
0.1947611705
 40
0.2897886872
 40
0.3820336086
 40
0.4706027037
 40
0.5546430753
 40
0.6333478657
 40
0.7059590349
 40
0.7717803983
 40
0.8019448186
 40
0.8301808397
 40
0.8564192183
 40
0.8805996861
 40
0.9026636945
 40
0.9225579894
 40
0.9402384361
 40
0.9556626067
 40
0.962517369
 40
0.9687962292
 40
0.9744962346
 40
0.9796146638
 40
0.9841491535
 40
0.9880985096
 40
0.9914637285
 40
0.9929281855
 40
0.9942479407
 40
0.99542394
 40
0.9964576104
 40
0.9973511607
 40
0.9981081454
 40
0.9987345911
 40
0.999241424
 40
0.9996495477
 40
0.999828787
 40
1.0
 40
1.0
 40
1.0
 40
1.0
 10
5.2577946447
 20
3.3577815944
 30
0.0
 10
5.2444516465
 20
3.3585761454
 30
0.0
 10
5.21789031
 20
3.3601578294
 30
0.0
 10
5.1783685852
 20
3.3625006717
 30
0.0
 10
5.1396083441
 20
3.364777064
 30
0.0
 10
5.1019856501
 20
3.3669543421
 30
0.0
 10
5.065859012
 20
3.3690012105
 30
0.0
 10
5.0315761406
 20
3.3708874795
 30
0.0
 10
4.9994664048
 20
3.3725846667
 30
0.0
 10
4.9698379382
 20
3.3740660563
 30
0.0
 10
4.9468286053
 20
3.3751297218
 30
0.0
 10
4.9298724537
 20
3.3758461209
 30
0.0
 10
4.918317892
 20
3.3762988566
 30
0.0
 10
4.9075787688
 20
3.3766805225
 30
0.0
 10
4.8976808864
 20
3.3769890381
 30
0.0
 10
4.8886479314
 20
3.3772224234
 30
0.0
 10
4.8805014743
 20
3.3773789379
 30
0.0
 10
4.87326106
 20
3.3774571939
 30
0.0
 10
4.8678016073
 20
3.3774565746
 30
0.0
 10
4.8639002548
 20
3.3774103997
 30
0.0
 10
4.8613277138
 20
3.3773566013
 30
0.0
 10
4.8589929968
 20
3.3772822768
 30
0.0
 10
4.8568975448
 20
3.3771873605
 30
0.0
 10
4.8550426628
 20
3.3770718945
 30
0.0
 10
4.8534294222
 20
3.3769358454
 30
0.0
 10
4.8522374219
 20
3.3768002139
 30
0.0
 10
4.8514061568
 20
3.376677919
 30
0.0
 10
4.8508730243
 20
3.376585284
 30
0.0
 10
4.8504007456
 20
3.3764874972
 30
0.0
 10
4.8499893064
 20
3.3763845921
 30
0.0
 10
4.849638604
 20
3.3762765963
 30
0.0
 10
4.8493483966
 20
3.3761635874
 30
0.0
 10
4.8491180783
 20
3.3760452166
 30
0.0
 10
4.8489467032
 20
3.3759211249
 30
0.0
 10
4.8488483656
 20
3.3758049301
 30
0.0
 10
4.8488064575
 20
3.3757094086
 30
0.0
 10
4.8487969046
 20
3.3756620269
 30
0.0
 10
4.8487948831
 20
3.3756387232
 30
0.0
 11
5.2577946447
 21
3.3577815944
 31
0.0
 11
5.2177655437
 21
3.3601634593
 31
0.0
 11
5.1781097856
 21
3.3625123437
 31
0.0
 11
5.1392285095
 21
3.3647937243
 31
0.0
 11
5.1014838498
 21
3.366975594
 31
0.0
 11
5.0652407191
 21
3.3690260907
 31
0.0
 11
5.0308475984
 21
3.3709147465
 31
0.0
 11
4.998634229
 21
3.3726126932
 31
0.0
 11
4.968910514
 21
3.3740928239
 31
0.0
 11
4.9419612445
 21
3.3753302226
 31
0.0
 11
4.9296089626
 21
3.3758507286
 31
0.0
 11
4.9180449086
 21
3.3763022737
 31
0.0
 11
4.9072975186
 21
3.3766823699
 31
0.0
 11
4.8973916084
 21
3.3769888462
 31
0.0
 11
4.8883513584
 21
3.3772195871
 31
0.0
 11
4.8801988837
 21
3.3773726576
 31
0.0
 11
4.8729527195
 21
3.3774464363
 31
0.0
 11
4.8666309451
 21
3.3774393413
 31
0.0
 11
4.8638216494
 21
3.3774050336
 31
0.0
 11
4.861248772
 21
3.3773500419
 31
0.0
 11
4.8589137877
 21
3.3772742373
 31
0.0
 11
4.8568181711
 21
3.3771774907
 31
0.0
 11
4.8549633952
 21
3.3770596733
 31
0.0
 11
4.8533506837
 21
3.376920678
 31
0.0
 11
4.8519807482
 21
3.3767604425
 31
0.0
 11
4.8513870241
 21
3.376672342
 31
0.0
 11
4.8508542371
 21
3.3765789102
 31
0.0
 11
4.8503824684
 21
3.37648014
 31
0.0
 11
4.8499717989
 21
3.3763760243
 31
0.0
 11
4.8496223098
 21
3.376266556
 31
0.0
 11
4.849334082
 21
3.376151728
 31
0.0
 11
4.8491071966
 21
3.3760315332
 31
0.0
 11
4.8489417113
 21
3.3759059667
 31
0.0
 11
4.8488376147
 21
3.3757750293
 31
0.0
 11
4.8488085797
 21
3.3757075472
 31
0.0
 11
4.8487948831
 21
3.3756387232
 31
0.0
  0
SPLINE
  5
31A
100
AcDbEntity
  8
0
100
AcDbSpline
 62
6
  6
CONTINUOUS
 70
0
 71
3
 72
9
 73
5
 74
3
 42
0.0000001
 43
0.0000001
 44
0.0000000001
 12
-0.0000169388
 22
0.0000858486
 32
0.0
 13
0.0000062464
 23
0.0000872805
 33
0.0
 40
0.0
 40
0.0
 40
0.0
 40
0.0
 40
0.2546641244
 40
1.0
 40
1.0
 40
1.0
 40
1.0
 10
4.8495780924
 20
3.3844418828
 30
0.0
 10
4.8495766545
 20
3.3844491703
 30
0.0
 10
4.8495718994
 20
3.384477953
 30
0.0
 10
4.849570919
 20
3.3845073761
 30
0.0
 10
4.8495724709
 20
3.3845290605
 30
0.0
 11
4.8495780924
 21
3.3844418828
 31
0.0
 11
4.8495744774
 21
3.3844638717
 31
0.0
 11
4.8495724709
 21
3.3845290605
 31
0.0
  0
SPLINE
  5
31B
100
AcDbEntity
  8
0
100
AcDbSpline
 62
6
  6
CONTINUOUS
 70
0
 71
3
 72
37
 73
33
 74
31
 42
0.0000001
 43
0.0000001
 44
0.0000000001
 12
-0.4083848448
 22
0.0243185673
 32
0.0
 13
-0.3707334627
 23
-0.1729921208
 33
0.0
 40
0.0
 40
0.0
 40
0.0
 40
0.0
 40
0.0950260931
 40
0.1892142212
 40
0.2816743004
 40
0.3715924797
 40
0.4581493086
 40
0.5405633924
 40
0.6180918626
 40
0.6900328066
 40
0.7557362234
 40
0.786062033
 40
0.8146100465
 40
0.8413171557
 40
0.8661239126
 40
0.8889730646
 40
0.9098155608
 40
0.9286046015
 40
0.9452979264
 40
0.9598617171
 40
0.966335056
 40
0.9722644423
 40
0.9776476096
 40
0.9824828191
 40
0.9867686794
 40
0.9905043546
 40
0.9936899783
 40
0.9963281722
 40
0.9974441241
 40
0.9984263815
 40
0.9992771712
 40
1.0
 40
1.0
 40
1.0
 40
1.0
 10
5.2585728825
 20
3.3666768929
 30
0.0
 10
5.2456371437
 20
3.3674471924
 30
0.0
 10
5.2198797371
 20
3.3689810033
 30
0.0
 10
5.1815353254
 20
3.3712546749
 30
0.0
 10
5.1438851109
 20
3.3734677578
 30
0.0
 10
5.1072720644
 20
3.3755904512
 30
0.0
 10
5.0720244008
 20
3.377594097
 30
0.0
 10
5.0384607335
 20
3.3794510039
 30
0.0
 10
5.0068837558
 20
3.3811349532
 30
0.0
 10
4.9775783888
 20
3.3826212371
 30
0.0
 10
4.9546979071
 20
3.3837035403
 30
0.0
 10
4.9377256153
 20
3.3844464391
 30
0.0
 10
4.9260648036
 20
3.3849252766
 30
0.0
 10
4.9151546202
 20
3.3853387018
 30
0.0
 10
4.9050196525
 20
3.3856846429
 30
0.0
 10
4.8956826182
 20
3.3859611131
 30
0.0
 10
4.8871645871
 20
3.3861664713
 30
0.0
 10
4.879484667
 20
3.3862992504
 30
0.0
 10
4.8726600604
 20
3.3863580136
 30
0.0
 10
4.8675146205
 20
3.3863445423
 30
0.0
 10
4.8638375644
 20
3.3862906663
 30
0.0
 10
4.8614127681
 20
3.3862324867
 30
0.0
 10
4.8592120169
 20
3.386154965
 30
0.0
 10
4.857236377
 20
3.3860580763
 30
0.0
 10
4.8554868645
 20
3.3859418339
 30
0.0
 10
4.8539643742
 20
3.3858064087
 30
0.0
 10
4.8526697468
 20
3.3856518159
 30
0.0
 10
4.8517350218
 20
3.3855004537
 30
0.0
 10
4.8511033353
 20
3.3853650481
 30
0.0
 10
4.850713815
 20
3.3852643926
 30
0.0
 10
4.850381401
 20
3.3851589953
 30
0.0
 10
4.8501818005
 20
3.3850792495
 30
0.0
 10
4.8500924749
 20
3.3850375683
 30
0.0
 11
5.2585728825
 21
3.3666768929
 31
0.0
 11
5.2197655692
 21
3.3689861626
 31
0.0
 11
5.1812998888
 21
3.3712652969
 31
0.0
 11
5.1435387718
 21
3.3734829871
 31
0.0
 11
5.1068140426
 21
3.3756099468
 31
0.0
 11
5.0714598533
 21
3.3776170126
 31
0.0
 11
5.0377948744
 21
3.379476297
 31
0.0
 11
5.0061221244
 21
3.3811612683
 31
0.0
 11
4.9767280076
 21
3.3826468766
 31
0.0
 11
4.9498778869
 21
3.3839099122
 31
0.0
 11
4.937483165
 21
3.3844512889
 31
0.0
 11
4.9258137194
 21
3.3849292149
 31
0.0
 11
4.9148953989
 21
3.3853414289
 31
0.0
 11
4.9047525938
 21
3.3856857967
 31
0.0
 11
4.8954088469
 21
3.3859602574
 31
0.0
 11
4.8868844209
 21
3.3861630335
 31
0.0
 11
4.879198758
 21
3.3862924187
 31
0.0
 11
4.8723695978
 21
3.3863468627
 31
0.0
 11
4.8664114703
 21
3.3863251101
 31
0.0
 11
4.8637634734
 21
3.3862852778
 31
0.0
 11
4.8613384382
 21
3.386225946
 31
0.0
 11
4.8591375552
 21
3.386147005
 31
0.0
 11
4.8571618925
 21
3.386048354
 31
0.0
 11
4.8554125179
 21
3.3859298925
 31
0.0
 11
4.8538904994
 21
3.3857915197
 31
0.0
 11
4.8525968942
 21
3.3856331366
 31
0.0
 11
4.8515324416
 21
3.3854546872
 31
0.0
 11
4.8510862661
 21
3.3853579356
 31
0.0
 11
4.8506975168
 21
3.3852561655
 31
0.0
 11
4.8503662383
 21
3.3851493765
 31
0.0
 11
4.8500924749
 21
3.3850375683
 31
0.0
  0
SPLINE
  5
31C
100
AcDbEntity
  8
0
100
AcDbSpline
 62
6
  6
CONTINUOUS
 70
0
 71
3
 72
37
 73
33
 74
31
 42
0.0000001
 43
0.0000001
 44
0.0000000001
 12
-0.4083852994
 22
0.0243185943
 32
0.0
 13
-0.3706617446
 23
-0.1731468103
 33
0.0
 40
0.0
 40
0.0
 40
0.0
 40
0.0
 40
0.0950249077
 40
0.1892161921
 40
0.2816760496
 40
0.3715943545
 40
0.4581527899
 40
0.5405681299
 40
0.6180972369
 40
0.690038304
 40
0.7557425789
 40
0.7860677906
 40
0.8146167915
 40
0.8413233302
 40
0.8661293002
 40
0.8889792421
 40
0.909820437
 40
0.9286088845
 40
0.9453027135
 40
0.9598645568
 40
0.9663372797
 40
0.9722669307
 40
0.9776505116
 40
0.9824853441
 40
0.9867701233
 40
0.9905047526
 40
0.9936900796
 40
0.9963286662
 40
0.9974447894
 40
0.9984270478
 40
0.9992775914
 40
1.0
 40
1.0
 40
1.0
 40
1.0
 10
5.2710239519
 20
3.5089932675
 30
0.0
 10
5.2580883601
 20
3.5097635582
 30
0.0
 10
5.2323306565
 20
3.5112973866
 30
0.0
 10
5.1939859639
 20
3.5135710745
 30
0.0
 10
5.156335291
 20
3.515784186
 30
0.0
 10
5.1197219979
 20
3.5179068895
 30
0.0
 10
5.0844738881
 20
3.5199105581
 30
0.0
 10
5.050909707
 20
3.5217674949
 30
0.0
 10
5.0193324194
 20
3.5234514588
 30
0.0
 10
4.9900267981
 20
3.5249377244
 30
0.0
 10
4.9671462399
 20
3.5260200589
 30
0.0
 10
4.950173757
 20
3.5267629157
 30
0.0
 10
4.9385129583
 20
3.5272417829
 30
0.0
 10
4.9276028122
 20
3.5276551845
 30
0.0
 10
4.9174679092
 20
3.5280010797
 30
0.0
 10
4.9081310427
 20
3.5282775877
 30
0.0
 10
4.899613151
 20
3.5284828827
 30
0.0
 10
4.8919334118
 20
3.5286156236
 30
0.0
 10
4.8851090757
 20
3.5286744585
 30
0.0
 10
4.8799639107
 20
3.528660901
 30
0.0
 10
4.876287165
 20
3.5286069708
 30
0.0
 10
4.8738623576
 20
3.5285487895
 30
0.0
 10
4.8716615622
 20
3.5284712812
 30
0.0
 10
4.8696860636
 20
3.5283743705
 30
0.0
 10
4.8679368943
 20
3.5282580788
 30
0.0
 10
4.866414738
 20
3.5281226135
 30
0.0
 10
4.8651202384
 20
3.5279680439
 30
0.0
 10
4.86418546
 20
3.5278167841
 30
0.0
 10
4.8635536797
 20
3.5276814451
 30
0.0
 10
4.8631641587
 20
3.5275808276
 30
0.0
 10
4.862831835
 20
3.5274754416
 30
0.0
 10
4.8626323374
 20
3.5273956777
 30
0.0
 10
4.862543081
 20
3.5273539834
 30
0.0
 11
5.2710239519
 21
3.5089932675
 31
0.0
 11
5.2322170795
 21
3.5113025108
 31
0.0
 11
5.1937500673
 21
3.513581724
 31
0.0
 11
5.1559889988
 21
3.5157994115
 31
0.0
 11
5.1192641772
 21
3.5179263737
 31
0.0
 11
5.0839092923
 21
3.5199334769
 31
0.0
 11
5.0502437628
 21
3.5217927919
 31
0.0
 11
5.018570717
 21
3.523477772
 31
0.0
 11
4.9891765164
 21
3.5249633697
 31
0.0
 11
4.9623260151
 21
3.5262264202
 31
0.0
 11
4.9499315229
 21
3.5267677674
 31
0.0
 11
4.9382616611
 21
3.5272457209
 31
0.0
 11
4.927343561
 21
3.5276579081
 31
0.0
 11
4.9172010656
 21
3.5280022412
 31
0.0
 11
4.9078569855
 21
3.528276722
 31
0.0
 11
4.8993330813
 21
3.5284794451
 31
0.0
 11
4.8916476522
 21
3.5286088096
 31
0.0
 11
4.8848182783
 21
3.5286632785
 31
0.0
 11
4.8788609412
 21
3.5286414543
 31
0.0
 11
4.8762131939
 21
3.5286015906
 31
0.0
 11
4.8737880478
 21
3.5285422522
 31
0.0
 11
4.8715869931
 21
3.5284633088
 31
0.0
 11
4.8696114838
 21
3.5283646332
 31
0.0
 11
4.8678625531
 21
3.528246135
 31
0.0
 11
4.8663409638
 21
3.5281077474
 31
0.0
 11
4.8650474746
 21
3.5279494039
 31
0.0
 11
4.8639828439
 21
3.5277710381
 31
0.0
 11
4.8635365876
 21
3.5276743261
 31
0.0
 11
4.8631478303
 21
3.5275725835
 31
0.0
 11
4.8628166543
 21
3.5274658033
 31
0.0
 11
4.862543081
 21
3.5273539834
 31
0.0
  0
LINE
  5
31D
100
AcDbEntity
  8
0
100
AcDbLine
 62
6
  6
CONTINUOUS
 10
4.8620826043
 20
3.5171220424
 11
4.8616694728
 21
3.5173690622
  0
SPLINE
  5
31E
100
AcDbEntity
  8
0
100
AcDbSpline
 62
6
  6
CONTINUOUS
 70
0
 71
3
 72
30
 73
26
 74
24
 42
0.0000001
 43
0.0000001
 44
0.0000000001
 12
0.3699544893
 22
-0.0253665954
 32
0.0
 13
0.3672851455
 23
0.0511019592
 33
0.0
 40
0.0
 40
0.0
 40
0.0
 40
0.0
 40
0.1855839425
 40
0.2762237812
 40
0.3644315753
 40
0.4494711678
 40
0.5306271939
 40
0.6072183805
 40
0.6785971989
 40
0.7441552929
 40
0.8033290713
 40
0.8556098071
 40
0.8790211262
 40
0.9005440521
 40
0.9201296979
 40
0.9377371241
 40
0.9533272157
 40
0.966863899
 40
0.9783200823
 40
0.9832603524
 40
0.9876715068
 40
0.9915513729
 40
0.9948992142
 40
0.997715037
 40
1.0
 40
1.0
 40
1.0
 40
1.0
 10
5.2751721515
 20
3.5564074065
 30
0.0
 10
5.2980580224
 20
3.5548381956
 30
0.0
 10
5.3321215697
 20
3.5525045639
 30
0.0
 10
5.3770645496
 20
3.5494516106
 30
0.0
 10
5.4096092965
 20
3.5472593938
 30
0.0
 10
5.4409860492
 20
3.5451702393
 30
0.0
 10
5.470932094
 20
3.5432070453
 30
0.0
 10
5.499195611
 20
3.5413917313
 30
0.0
 10
5.5255379261
 20
3.5397450185
 30
0.0
 10
5.5497348114
 20
3.5382862129
 30
0.0
 10
5.5715790634
 20
3.537033241
 30
0.0
 10
5.5882258271
 20
3.5361434326
 30
0.0
 10
5.6002278694
 20
3.5355533588
 30
0.0
 10
5.6081946937
 20
3.5351885189
 30
0.0
 10
5.6154461713
 20
3.5348862352
 30
0.0
 10
5.621966251
 20
3.5346477628
 30
0.0
 10
5.627740405
 20
3.5344741011
 30
0.0
 10
5.6327556787
 20
3.5343663244
 30
0.0
 10
5.6364556135
 20
3.5343296524
 30
0.0
 10
5.6390276163
 20
3.5343387482
 30
0.0
 10
5.6406629781
 20
3.5343623081
 30
0.0
 10
5.6421011115
 20
3.5344028678
 30
0.0
 10
5.6433413469
 20
3.5344602914
 30
0.0
 10
5.6443831242
 20
3.5345344424
 30
0.0
 10
5.6450103369
 20
3.5346014475
 30
0.0
 10
5.6452900812
 20
3.5346403695
 30
0.0
 11
5.2751721515
 21
3.5564074065
 31
0.0
 11
5.3438305536
 21
3.5517113013
 31
0.0
 11
5.3773646952
 21
3.5494344477
 31
0.0
 11
5.4100003126
 21
3.5472373599
 31
0.0
 11
5.4414653899
 21
3.5451438256
 31
0.0
 11
5.4714955781
 21
3.5431769521
 31
0.0
 11
5.4998391061
 21
3.5413587939
 31
0.0
 11
5.5262566379
 21
3.5397102958
 31
0.0
 11
5.5505232647
 21
3.5382511351
 31
0.0
 11
5.572430547
 21
3.5369995511
 31
0.0
 11
5.5917902036
 21
3.5359720244
 31
0.0
 11
5.6004612497
 21
3.5355469598
 31
0.0
 11
5.6084341577
 21
3.5351832712
 31
0.0
 11
5.6156907396
 21
3.5348825513
 31
0.0
 11
5.6222156989
 21
3.5346461384
 31
0.0
 11
5.6279943411
 21
3.5344753179
 31
0.0
 11
5.6330129782
 21
3.5343712879
 31
0.0
 11
5.6372610407
 21
3.534334975
 31
0.0
 11
5.6390929917
 21
3.5343424859
 31
0.0
 11
5.6407285622
 21
3.5343672538
 31
0.0
 11
5.6421666896
 21
3.5344093718
 31
0.0
 11
5.6434067188
 21
3.5344688961
 31
0.0
 11
5.6444480494
 21
3.5345458782
 31
0.0
 11
5.6452900812
 21
3.5346403695
 31
0.0
  0
LINE
  5
31F
100
AcDbEntity
  8
0
100
AcDbLine
 62
6
  6
CONTINUOUS
 10
5.6452900812
 20
3.5346403695
 11
5.6457345816
 21
3.5347120166
  0
LINE
  5
320
100
AcDbEntity
  8
0
100
AcDbLine
 62
6
  6
CONTINUOUS
 10
5.6457345816
 20
3.5347120166
 11
5.6464341399
 21
3.5349082896
  0
SPLINE
  5
321
100
AcDbEntity
  8
0
100
AcDbSpline
 62
6
  6
CONTINUOUS
 70
0
 71
3
 72
40
 73
36
 74
34
 42
0.0000001
 43
0.0000001
 44
0.0000000001
 12
-0.3938839201
 22
0.0270073599
 32
0.0
 13
-0.3022675215
 23
-0.2539848134
 33
0.0
 40
0.0
 40
0.0
 40
0.0
 40
0.0
 40
0.0966289525
 40
0.1925086546
 40
0.2866492394
 40
0.378156465
 40
0.4661335109
 40
0.5497291602
 40
0.6281412418
 40
0.7006190423
 40
0.7344161493
 40
0.7664761908
 40
0.7967259555
 40
0.8250935239
 40
0.8515121315
 40
0.8759227618
 40
0.8982674282
 40
0.9184953193
 40
0.9365625716
 40
0.9524266073
 40
0.959521643
 40
0.9660540688
 40
0.9720205095
 40
0.9774176663
 40
0.9822424552
 40
0.9864930929
 40
0.9901687793
 40
0.9932692161
 40
0.9957950467
 40
0.9968432964
 40
0.9977492478
 40
0.9985141712
 40
0.9991404682
 40
0.999632619
 40
1.0
 40
1.0
 40
1.0
 40
1.0
 10
5.2751721515
 20
3.5564074065
 30
0.0
 10
5.262485288
 20
3.5572773041
 30
0.0
 10
5.2372099944
 20
3.5590112423
 30
0.0
 10
5.1995742784
 20
3.5615887665
 30
0.0
 10
5.1626102481
 20
3.5641089317
 30
0.0
 10
5.1266825719
 20
3.5665399742
 30
0.0
 10
5.0921377411
 20
3.5688516086
 30
0.0
 10
5.0593101988
 20
3.5710147264
 30
0.0
 10
5.0285152559
 20
3.5730018751
 30
0.0
 10
5.0042575695
 20
3.574523542
 30
0.0
 10
4.9860859318
 20
3.5756299148
 30
0.0
 10
4.9734602873
 20
3.5763808193
 30
0.0
 10
4.9615467854
 20
3.577069886
 30
0.0
 10
4.9503732543
 20
3.5776946735
 30
0.0
 10
4.9399656743
 20
3.5782529184
 30
0.0
 10
4.9303482204
 20
3.5787426235
 30
0.0
 10
4.921542994
 20
3.5791618689
 30
0.0
 10
4.9135701434
 20
3.5795090055
 30
0.0
 10
4.9064478568
 20
3.5797826176
 30
0.0
 10
4.9010513417
 20
3.5799543354
 30
0.0
 10
4.8971713605
 20
3.5800508593
 30
0.0
 10
4.8945932241
 20
3.5801012601
 30
0.0
 10
4.8922382417
 20
3.5801323639
 30
0.0
 10
4.8901078099
 20
3.5801440833
 30
0.0
 10
4.8882031538
 20
3.5801363629
 30
0.0
 10
4.8865252425
 20
3.5801091998
 30
0.0
 10
4.8850747382
 20
3.5800627736
 30
0.0
 10
4.8838522438
 20
3.5799971268
 30
0.0
 10
4.8829766834
 20
3.5799232884
 30
0.0
 10
4.8823914894
 20
3.5798508709
 30
0.0
 10
4.8820379055
 20
3.5797951711
 30
0.0
 10
4.8817415787
 20
3.5797348222
 30
0.0
 10
4.8815020154
 20
3.5796698675
 30
0.0
 10
4.8813189796
 20
3.5796006332
 30
0.0
 10
4.8812197259
 20
3.5795436015
 30
0.0
 10
4.8811827102
 20
3.5795124984
 30
0.0
 11
5.2751721515
 21
3.5564074065
 31
0.0
 11
5.2371115717
 21
3.5590172558
 31
0.0
 11
5.1993458074
 21
3.5616024618
 31
0.0
 11
5.1622642749
 21
3.5641292982
 31
0.0
 11
5.1262187425
 21
3.5665667772
 31
0.0
 11
5.0915620216
 21
3.5688840704
 31
0.0
 11
5.0586289994
 21
3.5710518805
 31
0.0
 11
5.0277352951
 21
3.5730425756
 31
0.0
 11
4.9991763255
 21
3.5748303074
 31
0.0
 11
4.9858575584
 21
3.5756406064
 31
0.0
 11
4.9732222623
 21
3.5763914313
 31
0.0
 11
4.9612992721
 21
3.5770802588
 31
0.0
 11
4.9501169245
 21
3.5777046086
 31
0.0
 11
4.9397015409
 21
3.5782621773
 31
0.0
 11
4.9300764117
 21
3.5787509263
 31
0.0
 11
4.921264447
 21
3.5791688504
 31
0.0
 11
4.9132857689
 21
3.5795141881
 31
0.0
 11
4.9061578181
 21
3.5797854129
 31
0.0
 11
4.8998976139
 21
3.5799810348
 31
0.0
 11
4.8970972836
 21
3.5800501124
 31
0.0
 11
4.8945187048
 21
3.5800998677
 31
0.0
 11
4.8921632969
 21
3.5801301765
 31
0.0
 11
4.8900324793
 21
3.5801409145
 31
0.0
 11
4.8881276315
 21
3.5801319608
 31
0.0
 11
4.8864496885
 21
3.5801032335
 31
0.0
 11
4.884999308
 21
3.5800546751
 31
0.0
 11
4.8837771437
 21
3.5799862282
 31
0.0
 11
4.8827838489
 21
3.5798978356
 31
0.0
 11
4.8823732319
 21
3.5798461417
 31
0.0
 11
4.8820200774
 21
3.5797894399
 31
0.0
 11
4.8817244522
 21
3.5797277243
 31
0.0
 11
4.881486359
 21
3.5796609947
 31
0.0
 11
4.8813057832
 21
3.5795892523
 31
0.0
 11
4.8811827102
 21
3.5795124984
 31
0.0
  0
SPLINE
  5
322
100
AcDbEntity
  8
0
100
AcDbSpline
 62
6
  6
CONTINUOUS
 70
0
 71
3
 72
38
 73
34
 74
32
 42
0.0000001
 43
0.0000001
 44
0.0000000001
 12
-0.3803853765
 22
0.0262519128
 32
0.0
 13
-0.3455046455
 23
-0.1612722466
 33
0.0
 40
0.0
 40
0.0
 40
0.0
 40
0.0
 40
0.0961532671
 40
0.1913261424
 40
0.2846255461
 40
0.3752489343
 40
0.4623837645
 40
0.5452456421
 40
0.6230888322
 40
0.6952064785
 40
0.7609400533
 40
0.7912203125
 40
0.8196832241
 40
0.8462613951
 40
0.8708924619
 40
0.893520964
 40
0.9140922701
 40
0.9325580504
 40
0.9488766492
 40
0.96300749
 40
0.9692419865
 40
0.9749182348
 40
0.9800331813
 40
0.984583915
 40
0.9885677581
 40
0.991983065
 40
0.9948299863
 40
0.9960407913
 40
0.9971103078
 40
0.9980392489
 40
0.9988288125
 40
0.9994810911
 40
1.0
 40
1.0
 40
1.0
 40
1.0
 10
5.2531789558
 20
3.3050240287
 30
0.0
 10
5.2409871902
 20
3.305865431
 30
0.0
 10
5.2167279156
 20
3.3075388997
 30
0.0
 10
5.180638145
 20
3.3100202891
 30
0.0
 10
5.1452485803
 20
3.3124393593
 30
0.0
 10
5.1108768631
 20
3.3147684528
 30
0.0
 10
5.0778268763
 20
3.3169810222
 30
0.0
 10
5.0463953311
 20
3.3190512223
 30
0.0
 10
5.0168655808
 20
3.3209544241
 30
0.0
 10
4.9895050781
 20
3.3226673665
 30
0.0
 10
4.9681746984
 20
3.3239514102
 30
0.0
 10
4.952380367
 20
3.3248626216
 30
0.0
 10
4.9415531234
 20
3.3254665008
 30
0.0
 10
4.9314415138
 20
3.3260076419
 30
0.0
 10
4.9220690629
 20
3.326483993
 30
0.0
 10
4.9134577064
 20
3.3268937655
 30
0.0
 10
4.9056276295
 20
3.3272352278
 30
0.0
 10
4.8985973124
 20
3.3275069139
 30
0.0
 10
4.892383541
 20
3.3277075619
 30
0.0
 10
4.8877223785
 20
3.3278191853
 30
0.0
 10
4.8844129196
 20
3.3278682512
 30
0.0
 10
4.8822490522
 20
3.3278849021
 30
0.0
 10
4.8802991134
 20
3.3278829776
 30
0.0
 10
4.8785643854
 20
3.3278624185
 30
0.0
 10
4.8770460278
 20
3.3278232737
 30
0.0
 10
4.8757449892
 20
3.3277655206
 30
0.0
 10
4.8747973099
 20
3.3276992867
 30
0.0
 10
4.8741488724
 20
3.3276341045
 30
0.0
 10
4.8737441165
 20
3.327583208
 30
0.0
 10
4.8733940707
 20
3.3275277146
 30
0.0
 10
4.87309863
 20
3.3274676971
 30
0.0
 10
4.8728577615
 20
3.3274032627
 30
0.0
 10
4.8727175829
 20
3.3273518267
 30
0.0
 10
4.8726578211
 20
3.3273239315
 30
0.0
 11
5.2531789558
 21
3.3050240287
 31
0.0
 11
5.2166035112
 21
3.307546093
 31
0.0
 11
5.180400427
 21
3.3100341926
 31
0.0
 11
5.1449090178
 21
3.312459008
 31
0.0
 11
5.1104341724
 21
3.3147936709
 31
0.0
 11
5.077284605
 21
3.3170111944
 31
0.0
 11
5.0457583532
 21
3.3190855167
 31
0.0
 11
5.0161387904
 21
3.3209918147
 31
0.0
 11
4.9886945591
 21
3.3227065817
 31
0.0
 11
4.963675999
 21
3.324207915
 31
0.0
 11
4.9521495561
 21
3.3248721381
 31
0.0
 11
4.9413137204
 21
3.3254756367
 31
0.0
 11
4.9311941506
 21
3.326016166
 31
0.0
 11
4.9218146109
 21
3.3264916459
 31
0.0
 11
4.9131962648
 21
3.326900222
 31
0.0
 11
4.9053599935
 21
3.3272400647
 31
0.0
 11
4.8983243321
 21
3.3275095507
 31
0.0
 11
4.892105353
 21
3.3277072735
 31
0.0
 11
4.8867188427
 21
3.3278318516
 31
0.0
 11
4.8843419407
 21
3.3278663459
 31
0.0
 11
4.8821777008
 21
3.3278821564
 31
0.0
 11
4.8802274242
 21
3.3278791694
 31
0.0
 11
4.8784924124
 21
3.3278572709
 31
0.0
 11
4.8769739635
 21
3.3278163473
 31
0.0
 11
4.8756731254
 21
3.3277563071
 31
0.0
 11
4.8745905162
 21
3.327677096
 31
0.0
 11
4.8741312274
 21
3.3276302855
 31
0.0
 11
4.8737267119
 21
3.3275786633
 31
0.0
 11
4.8733770415
 21
3.3275222232
 31
0.0
 11
4.8730822882
 21
3.3274609587
 31
0.0
 11
4.8728425241
 21
3.3273948636
 31
0.0
 11
4.8726578211
 21
3.3273239315
 31
0.0
  0
LINE
  5
323
100
AcDbEntity
  8
0
100
AcDbLine
 62
9
  6
CONTINUOUS
 10
6.432672862
 20
4.0053080874
 11
6.4193686294
 21
4.0158167396
  0
LINE
  5
324
100
AcDbEntity
  8
0
100
AcDbLine
 62
9
  6
CONTINUOUS
 10
6.1148080885
 20
4.0053080874
 11
6.0818965839
 21
4.0219242386
  0
LINE
  5
325
100
AcDbEntity
  8
0
100
AcDbLine
 62
9
  6
CONTINUOUS
 10
5.7669943018
 20
3.7704885774
 11
5.7113718321
 21
3.7800170102
  0
LINE
  5
326
100
AcDbEntity
  8
0
100
AcDbLine
 62
9
  6
CONTINUOUS
 10
5.7412350767
 20
3.662991491
 11
5.6811842385
 21
3.6702089448
  0
SPLINE
  5
327
100
AcDbEntity
  8
0
100
AcDbSpline
 62
6
  6
CONTINUOUS
 70
0
 71
3
 72
42
 73
38
 74
36
 42
0.0000001
 43
0.0000001
 44
0.0000000001
 12
-0.0348441446
 22
-0.4083785322
 32
0.0
 13
-0.4091375871
 23
0.0243633917
 33
0.0
 40
0.0
 40
0.0
 40
0.0
 40
0.0
 40
0.0001711905
 40
0.0003503493
 40
0.0007581316
 40
0.0012643763
 40
0.0018899903
 40
0.0026460428
 40
0.0035387594
 40
0.0045717752
 40
0.0057472666
 40
0.0070666181
 40
0.00853073
 40
0.0118952443
 40
0.0158435511
 40
0.0203764046
 40
0.0254935058
 40
0.0311928434
 40
0.0374713371
 40
0.0443256624
 40
0.0597476806
 40
0.0774271579
 40
0.0973210174
 40
0.1193832514
 40
0.1435631304
 40
0.1698010293
 40
0.1980358977
 40
0.2282004076
 40
0.294021193
 40
0.3666325737
 40
0.4453380819
 40
0.5293795169
 40
0.6179506758
 40
0.7101996902
 40
0.8052318643
 40
0.9021579321
 40
1.0
 40
1.0
 40
1.0
 40
1.0
 10
5.667572609
 20
3.3488204384
 30
0.0
 10
5.6675706207
 20
3.3487971349
 30
0.0
 10
5.6675611406
 20
3.3487497533
 30
0.0
 10
5.667519397
 20
3.3486542257
 30
0.0
 10
5.6674213021
 20
3.3485380046
 30
0.0
 10
5.6672502521
 20
3.3484138707
 30
0.0
 10
5.6670203236
 20
3.3482954416
 30
0.0
 10
5.6667305148
 20
3.3481823799
 30
0.0
 10
5.6663801674
 20
3.3480743494
 30
0.0
 10
5.6659690137
 20
3.3479714215
 30
0.0
 10
5.6654969568
 20
3.3478736148
 30
0.0
 10
5.6649640006
 20
3.3477809626
 30
0.0
 10
5.6641329385
 20
3.3476586437
 30
0.0
 10
5.662941228
 20
3.3475229874
 30
0.0
 10
5.6613284543
 20
3.3473868914
 30
0.0
 10
5.6594741251
 20
3.3472713298
 30
0.0
 10
5.6573791695
 20
3.3471763538
 30
0.0
 10
5.6550447731
 20
3.3471020001
 30
0.0
 10
5.6524724302
 20
3.3470481782
 30
0.0
 10
5.6485714769
 20
3.3470019691
 30
0.0
 10
5.6431125033
 20
3.3470012294
 30
0.0
 10
5.6358725646
 20
3.3470794452
 30
0.0
 10
5.6277265308
 20
3.3472359283
 30
0.0
 10
5.6186939439
 20
3.3474692181
 30
0.0
 10
5.6087964361
 20
3.3477777084
 30
0.0
 10
5.5980576013
 20
3.3481593425
 30
0.0
 10
5.586503233
 20
3.3486120199
 30
0.0
 10
5.5695472827
 20
3.3493284039
 30
0.0
 10
5.5465379548
 20
3.3503920149
 30
0.0
 10
5.5169094006
 20
3.3518733956
 30
0.0
 10
5.4847993494
 20
3.3535705784
 30
0.0
 10
5.4505159074
 20
3.3554568612
 30
0.0
 10
5.4143882363
 20
3.3575037794
 30
0.0
 10
5.3767640174
 20
3.3596811415
 30
0.0
 10
5.3380021884
 20
3.3619576233
 30
0.0
 10
5.2984788264
 20
3.3643005619
 30
0.0
 10
5.271916505
 20
3.3658823047
 30
0.0
 10
5.2585728825
 20
3.3666768929
 30
0.0
 11
5.667572609
 21
3.3488204384
 31
0.0
 11
5.6675590139
 21
3.3487516036
 31
0.0
 11
5.6675300892
 21
3.34868411
 31
0.0
 11
5.6674262507
 21
3.348553146
 31
0.0
 11
5.6672610926
 21
3.3484275467
 31
0.0
 11
5.667034614
 21
3.3483073121
 31
0.0
 11
5.6667468138
 21
3.3481924421
 31
0.0
 11
5.6663976939
 21
3.3480829367
 31
0.0
 11
5.6659873082
 21
3.347978791
 31
0.0
 11
5.6655157567
 21
3.3478799963
 31
0.0
 11
5.6649831406
 21
3.3477865438
 31
0.0
 11
5.6643895614
 21
3.3476984247
 31
0.0
 11
5.6630199193
 21
3.3475381511
 31
0.0
 11
5.6614076417
 21
3.3473991047
 31
0.0
 11
5.6595535399
 21
3.3472812147
 31
0.0
 11
5.6574584683
 21
3.3471844064
 31
0.0
 11
5.655123756
 21
3.3471085638
 31
0.0
 11
5.6525510261
 21
3.347053545
 31
0.0
 11
5.6497419061
 21
3.3470192078
 31
0.0
 11
5.6434210057
 21
3.3470120088
 31
0.0
 11
5.6361752287
 21
3.3470857277
 31
0.0
 11
5.6280229211
 21
3.3472387605
 31
0.0
 11
5.6189833845
 21
3.3474694194
 31
0.0
 11
5.6090777015
 21
3.3477758598
 31
0.0
 11
5.598330493
 21
3.3481559251
 31
0.0
 11
5.5867668943
 21
3.3486074138
 31
0.0
 11
5.5744145588
 21
3.3491279061
 31
0.0
 11
5.5474654884
 21
3.3503652524
 31
0.0
 11
5.5177416465
 21
3.3518453649
 31
0.0
 11
5.4855279398
 21
3.3535433101
 31
0.0
 11
5.4511343377
 21
3.3554319754
 31
0.0
 11
5.4148903141
 21
3.3574825127
 31
0.0
 11
5.3771439296
 21
3.3596644771
 31
0.0
 11
5.3382606964
 21
3.3619459692
 31
0.0
 11
5.2986038565
 21
3.3642949166
 31
0.0
 11
5.2585728825
 21
3.3666768929
 31
0.0
  0
SPLINE
  5
328
100
AcDbEntity
  8
0
100
AcDbSpline
 62
6
  6
CONTINUOUS
 70
0
 71
3
 72
42
 73
38
 74
36
 42
0.0000001
 43
0.0000001
 44
0.0000000001
 12
-0.0372333303
 22
-0.4081658097
 32
0.0
 13
-0.4091357715
 23
0.0243632836
 33
0.0
 40
0.0
 40
0.0
 40
0.0
 40
0.0
 40
0.0001712841
 40
0.0003507374
 40
0.0007595624
 40
0.0012671851
 40
0.0018943191
 40
0.002651934
 40
0.003546207
 40
0.0045807993
 40
0.0057578844
 40
0.0070788335
 40
0.0085445361
 40
0.011912174
 40
0.0158634726
 40
0.0203991261
 40
0.0255188206
 40
0.0312206571
 40
0.0375015469
 40
0.0443581439
 40
0.0597842473
 40
0.0774672565
 40
0.0973641922
 40
0.1194290061
 40
0.1436110169
 40
0.1698506309
 40
0.1980868154
 40
0.2282523418
 40
0.2940742909
 40
0.3666856178
 40
0.4453888965
 40
0.5294256993
 40
0.617989906
 40
0.7102301756
 40
0.8052520299
 40
0.9021673152
 40
1.0
 40
1.0
 40
1.0
 40
1.0
 10
5.6737979782
 20
3.4199768224
 30
0.0
 10
5.6737958523
 20
3.4199535183
 30
0.0
 10
5.6737860824
 20
3.4199061423
 30
0.0
 10
5.6737437542
 20
3.4198106638
 30
0.0
 10
5.673644977
 20
3.4196945647
 30
0.0
 10
5.6734732059
 20
3.4195705308
 30
0.0
 10
5.6732425566
 20
3.4194521832
 30
0.0
 10
5.6729520439
 20
3.4193391945
 30
0.0
 10
5.6726010074
 20
3.4192312314
 30
0.0
 10
5.6721891726
 20
3.419128376
 30
0.0
 10
5.6717164381
 20
3.4190306423
 30
0.0
 10
5.6711828088
 20
3.4189380635
 30
0.0
 10
5.6703508631
 20
3.4188158539
 30
0.0
 10
5.669158085
 20
3.4186803239
 30
0.0
 10
5.667544085
 20
3.4185443641
 30
0.0
 10
5.6656886087
 20
3.4184289319
 30
0.0
 10
5.6635925777
 20
3.4183340761
 30
0.0
 10
5.6612571644
 20
3.4182598427
 30
0.0
 10
5.6586838513
 20
3.4182061366
 30
0.0
 10
5.6547817176
 20
3.418160083
 30
0.0
 10
5.6493214174
 20
3.4181595144
 30
0.0
 10
5.6420800519
 20
3.4182379095
 30
0.0
 10
5.633932802
 20
3.4183945554
 30
0.0
 10
5.6248991946
 20
3.418627988
 30
0.0
 10
5.6150008563
 20
3.4189366038
 30
0.0
 10
5.6042613673
 20
3.4193183465
 30
0.0
 10
5.5927065005
 20
3.4197711161
 30
0.0
 10
5.575750152
 20
3.4204876048
 30
0.0
 10
5.5527406399
 20
3.4215513072
 30
0.0
 10
5.5231123736
 20
3.4230327485
 30
0.0
 10
5.4910034114
 20
3.4247299288
 30
0.0
 10
5.4567220079
 20
3.4266161364
 30
0.0
 10
5.4205972715
 20
3.4286629136
 30
0.0
 10
5.382976769
 20
3.4308400765
 30
0.0
 10
5.3442191831
 20
3.4331163154
 30
0.0
 10
5.3047001542
 20
3.4354589999
 30
0.0
 10
5.2781407008
 20
3.4370405717
 30
0.0
 10
5.2647984172
 20
3.4378350802
 30
0.0
 11
5.6737979782
 21
3.4199768224
 31
0.0
 11
5.6737839786
 21
3.4199080298
 31
0.0
 11
5.6737546529
 21
3.4198405781
 31
0.0
 11
5.6736500251
 21
3.4197096973
 31
0.0
 11
5.6734840975
 21
3.4195841796
 31
0.0
 11
5.6732568728
 21
3.4194640247
 31
0.0
 11
5.6729683538
 21
3.4193492325
 31
0.0
 11
5.6726185434
 21
3.4192398026
 31
0.0
 11
5.6722074741
 21
3.4191357321
 31
0.0
 11
5.6717352416
 21
3.4190370127
 31
0.0
 11
5.67120195
 21
3.4189436353
 31
0.0
 11
5.6706077034
 21
3.4188555907
 31
0.0
 11
5.6692367614
 21
3.4186954634
 31
0.0
 11
5.6676232481
 21
3.4185565581
 31
0.0
 11
5.6657679962
 21
3.4184388017
 31
0.0
 11
5.663671864
 21
3.4183421191
 31
0.0
 11
5.6613361334
 21
3.4182663981
 31
0.0
 11
5.6587624301
 21
3.4182114966
 31
0.0
 11
5.6559523901
 21
3.4181772715
 31
0.0
 11
5.6496298431
 21
3.4181702787
 31
0.0
 11
5.6423826525
 21
3.4182441817
 31
0.0
 11
5.6342291231
 21
3.4183973799
 31
0.0
 11
5.6251885727
 21
3.4186281841
 31
0.0
 11
5.6152820634
 21
3.4189347514
 31
0.0
 11
5.6045342032
 21
3.4193149265
 31
0.0
 11
5.5929701197
 21
3.4197665082
 31
0.0
 11
5.5806174254
 21
3.42028708
 31
0.0
 11
5.5536680029
 21
3.421524545
 31
0.0
 11
5.5239443187
 21
3.423004727
 31
0.0
 11
5.4917316704
 21
3.4247026732
 31
0.0
 11
5.4573401188
 21
3.4265912649
 31
0.0
 11
5.4210991024
 21
3.4286416584
 31
0.0
 11
5.3833564645
 21
3.4308234223
 31
0.0
 11
5.3444776267
 21
3.433104664
 31
0.0
 11
5.3048253746
 21
3.4354533425
 31
0.0
 11
5.2647984172
 21
3.4378350802
 31
0.0
  0
SPLINE
  5
329
100
AcDbEntity
  8
0
100
AcDbSpline
 62
6
  6
CONTINUOUS
 70
0
 71
3
 72
42
 73
38
 74
36
 42
0.0000001
 43
0.0000001
 44
0.0000000001
 12
-0.0355706507
 22
-0.4083151793
 32
0.0
 13
-0.4091368769
 23
0.0243633494
 33
0.0
 40
0.0
 40
0.0
 40
0.0
 40
0.0
 40
0.0001712197
 40
0.0003504671
 40
0.0007585566
 40
0.001265205
 40
0.0018912722
 40
0.002647811
 40
0.0035410399
 40
0.0045745787
 40
0.005750598
 40
0.0070704799
 40
0.0085351227
 40
0.0119006954
 40
0.0158500497
 40
0.020383934
 40
0.0255020254
 40
0.0312022649
 40
0.0374815866
 40
0.0443366849
 40
0.0597601584
 40
0.077440914
 40
0.0973358363
 40
0.1193990081
 40
0.1435795887
 40
0.1698179274
 40
0.1980529935
 40
0.228217408
 40
0.2940381191
 40
0.3666494948
 40
0.4453543074
 40
0.5293940346
 40
0.6179627998
 40
0.7102091222
 40
0.8052383218
 40
0.9021612079
 40
1.0
 40
1.0
 40
1.0
 40
1.0
 10
5.6800234595
 20
3.4911362293
 30
0.0
 10
5.6800214294
 20
3.4911129254
 30
0.0
 10
5.6800118622
 20
3.4910655453
 30
0.0
 10
5.6799699462
 20
3.4909700317
 30
0.0
 10
5.6798716535
 20
3.4908538439
 30
0.0
 10
5.6797003929
 20
3.4907297357
 30
0.0
 10
5.6794702489
 20
3.4906113279
 30
0.0
 10
5.6791802206
 20
3.4904982865
 30
0.0
 10
5.6788296496
 20
3.4903902786
 30
0.0
 10
5.6784182712
 20
3.4902873731
 30
0.0
 10
5.6779459899
 20
3.4901895895
 30
0.0
 10
5.6774128103
 20
3.4900969609
 30
0.0
 10
5.6765814517
 20
3.4899746779
 30
0.0
 10
5.6753893762
 20
3.4898390642
 30
0.0
 10
5.6737761713
 20
3.4897030162
 30
0.0
 10
5.6719214225
 20
3.4895875025
 30
0.0
 10
5.6698260687
 20
3.4894925728
 30
0.0
 10
5.6674913033
 20
3.4894182602
 30
0.0
 10
5.6649186222
 20
3.4893644768
 30
0.0
 10
5.6610172575
 20
3.4893183183
 30
0.0
 10
5.6555578143
 20
3.4893176377
 30
0.0
 10
5.6483173702
 20
3.4893959162
 30
0.0
 10
5.6401709036
 20
3.4895524543
 30
0.0
 10
5.6311379644
 20
3.489785796
 30
0.0
 10
5.6212401909
 20
3.4900943289
 30
0.0
 10
5.610501193
 20
3.4904759971
 30
0.0
 10
5.5989467718
 20
3.4909287025
 30
0.0
 10
5.5819908482
 20
3.4916451122
 30
0.0
 10
5.5589815856
 20
3.4927087515
 30
0.0
 10
5.5293531895
 20
3.4941901455
 30
0.0
 10
5.4972435237
 20
3.4958873264
 30
0.0
 10
5.4629607962
 20
3.4977735819
 30
0.0
 10
5.4268341149
 20
3.4998204521
 30
0.0
 10
5.389211061
 20
3.5019977514
 30
0.0
 10
5.3504505062
 20
3.5042741606
 30
0.0
 10
5.3109284991
 20
3.5066170197
 30
0.0
 10
5.2843671045
 20
3.5081987073
 30
0.0
 10
5.2710239519
 20
3.5089932675
 30
0.0
 11
5.6800234595
 21
3.4911362293
 31
0.0
 11
5.6800097426
 21
3.4910674065
 31
0.0
 11
5.6799806992
 21
3.4909999245
 31
0.0
 11
5.6798766306
 21
3.4908689828
 31
0.0
 11
5.6797112489
 21
3.490743405
 31
0.0
 11
5.6794845491
 21
3.4906231916
 31
0.0
 11
5.6791965263
 21
3.4905083435
 31
0.0
 11
5.6788471798
 21
3.4903988607
 31
0.0
 11
5.6784365679
 21
3.4902947383
 31
0.0
 11
5.6779647911
 21
3.4901959675
 31
0.0
 11
5.677431951
 21
3.4901025393
 31
0.0
 11
5.6768381493
 21
3.4900144447
 31
0.0
 11
5.6754680671
 21
3.4898542206
 31
0.0
 11
5.6738553571
 21
3.4897152237
 31
0.0
 11
5.6720008321
 21
3.4895973824
 31
0.0
 11
5.6699053557
 21
3.4895006207
 31
0.0
 11
5.6675702762
 21
3.4894248207
 31
0.0
 11
5.6649972104
 21
3.4893698412
 31
0.0
 11
5.6621877781
 21
3.4893355408
 31
0.0
 11
5.6558662921
 21
3.4893284119
 31
0.0
 11
5.6486200044
 21
3.4894021949
 31
0.0
 11
5.6404672763
 21
3.4895552843
 31
0.0
 11
5.6314273722
 21
3.4897859953
 31
0.0
 11
5.6215214201
 21
3.4900924793
 31
0.0
 11
5.6107740512
 21
3.4904725796
 31
0.0
 11
5.5992103925
 21
3.4909240962
 31
0.0
 11
5.5868581184
 21
3.4914446067
 31
0.0
 11
5.5599091269
 21
3.4926819846
 31
0.0
 11
5.5301853397
 21
3.4941621184
 31
0.0
 11
5.4979719746
 21
3.4958600638
 31
0.0
 11
5.4635791318
 21
3.4977487002
 31
0.0
 11
5.4273361512
 21
3.4997991869
 31
0.0
 11
5.3895909339
 21
3.5019810886
 31
0.0
 11
5.3507089854
 21
3.5042625078
 31
0.0
 11
5.3110535162
 21
3.5066113749
 31
0.0
 11
5.2710239519
 21
3.5089932675
 31
0.0
  0
SPLINE
  5
32A
100
AcDbEntity
  8
0
100
AcDbSpline
 62
6
  6
CONTINUOUS
 70
0
 71
3
 72
9
 73
5
 74
3
 42
0.0000001
 43
0.0000001
 44
0.0000000001
 12
0.0000076029
 22
0.0000869271
 32
0.0
 13
0.0000302857
 23
0.0000818346
 33
0.0
 40
0.0
 40
0.0
 40
0.0
 40
0.0
 40
0.2474008285
 40
1.0
 40
1.0
 40
1.0
 40
1.0
 10
4.8550201624
 20
3.4467969118
 30
0.0
 10
4.8550207894
 20
3.4468040804
 30
0.0
 10
4.8550243108
 20
3.4468329649
 30
0.0
 10
4.8550318549
 20
3.44686133
 30
0.0
 10
4.8550394525
 20
3.4468818595
 30
0.0
 11
4.8550201624
 21
3.4467969118
 31
0.0
 11
4.855022778
 21
3.4468183407
 31
0.0
 11
4.8550394525
 21
3.4468818595
 31
0.0
  0
SPLINE
  5
32B
100
AcDbEntity
  8
0
100
AcDbSpline
 62
6
  6
CONTINUOUS
 70
0
 71
3
 72
40
 73
36
 74
34
 42
0.0000001
 43
0.0000001
 44
0.0000000001
 12
0.142224052
 22
0.3843010074
 32
0.0
 13
0.4090496614
 23
-0.0243581559
 33
0.0
 40
0.0
 40
0.0
 40
0.0
 40
0.0
 40
0.0003776675
 40
0.0008409319
 40
0.0014160913
 40
0.0021168849
 40
0.0029508033
 40
0.0039222088
 40
0.0050337995
 40
0.0062873273
 40
0.009224355
 40
0.0127390624
 40
0.0168327871
 40
0.0215050977
 40
0.026754758
 40
0.0325800489
 40
0.0389788822
 40
0.0459479769
 40
0.0615799214
 40
0.0794411049
 40
0.0994926082
 40
0.1216857766
 40
0.145969732
 40
0.172287768
 40
0.2005761795
 40
0.2307698687
 40
0.296578342
 40
0.3690882339
 40
0.4476083842
 40
0.5313902573
 40
0.6196375331
 40
0.7115112891
 40
0.8061288433
 40
0.9026103012
 40
1.0
 40
1.0
 40
1.0
 40
1.0
 10
4.8550394525
 20
3.4468818595
 30
0.0
 10
4.855057357
 20
3.4469302389
 30
0.0
 10
4.8551214895
 20
3.44702897
 30
0.0
 10
4.8552697823
 20
3.4471552626
 30
0.0
 10
4.8554757674
 20
3.4472753007
 30
0.0
 10
4.8557407088
 20
3.4473898122
 30
0.0
 10
4.8560653106
 20
3.4474993638
 30
0.0
 10
4.8564499629
 20
3.4476038857
 30
0.0
 10
4.8568948322
 20
3.4477033834
 30
0.0
 10
4.857606872
 20
3.4478363233
 30
0.0
 10
4.8586493347
 20
3.4479843015
 30
0.0
 10
4.8600821182
 20
3.4481341863
 30
0.0
 10
4.8617547083
 20
3.4482638358
 30
0.0
 10
4.8636660986
 20
3.4483732185
 30
0.0
 10
4.86581527
 20
3.4484622066
 30
0.0
 10
4.8682011037
 20
3.4485308014
 30
0.0
 10
4.870822328
 20
3.4485790371
 30
0.0
 10
4.8747833121
 20
3.4486177262
 30
0.0
 10
4.8803102642
 20
3.4486099989
 30
0.0
 10
4.8876235725
 20
3.4485229435
 30
0.0
 10
4.8958319412
 20
3.4483583666
 30
0.0
 10
4.9049160483
 20
3.4481179535
 30
0.0
 10
4.9148542993
 20
3.447803293
 30
0.0
 10
4.9256231279
 20
3.4474163288
 30
0.0
 10
4.9371970994
 20
3.4469592942
 30
0.0
 10
4.9541588337
 20
3.4462384069
 30
0.0
 10
4.9771514799
 20
3.4451715107
 30
0.0
 10
5.0067326801
 20
3.4436890126
 30
0.0
 10
5.0387611694
 20
3.4419936857
 30
0.0
 10
5.0729322974
 20
3.4401118959
 30
0.0
 10
5.1089214016
 20
3.4380717386
 30
0.0
 10
5.1463856217
 20
3.4359029975
 30
0.0
 10
5.1849707719
 20
3.4336365823
 30
0.0
 10
5.2243067949
 20
3.431304646
 30
0.0
 10
5.2507411049
 20
3.4297305261
 30
0.0
 10
5.2640201794
 20
3.4289397816
 30
0.0
 11
4.8550394525
 21
3.4468818595
 31
0.0
 11
4.8551197881
 21
3.4470141334
 31
0.0
 11
4.8552608993
 21
3.4471411157
 31
0.0
 11
4.8554627381
 21
3.447262807
 31
0.0
 11
4.8557252565
 21
3.4473792076
 31
0.0
 11
4.8560484063
 21
3.4474903181
 31
0.0
 11
4.8564321397
 21
3.4475961388
 31
0.0
 11
4.8568764086
 21
3.4476966702
 31
0.0
 11
4.857381165
 21
3.4477919129
 31
0.0
 11
4.8585719479
 21
3.4479665334
 31
0.0
 11
4.8600039826
 21
3.4481200205
 31
0.0
 11
4.861676249
 21
3.4482524648
 31
0.0
 11
4.8635875916
 21
3.448363975
 31
0.0
 11
4.8657368549
 21
3.4484546601
 31
0.0
 11
4.8681228835
 21
3.448524629
 31
0.0
 11
4.870744496
 21
3.4485739926
 31
0.0
 11
4.8736001054
 21
3.4486028917
 31
0.0
 11
4.8800056732
 21
3.4485999562
 31
0.0
 11
4.887324258
 21
3.4485171453
 31
0.0
 11
4.8955392656
 21
3.4483558976
 31
0.0
 11
4.9046303425
 21
3.4481179968
 31
0.0
 11
4.914576368
 21
3.4478052966
 31
0.0
 11
4.9253539315
 21
3.4474198486
 31
0.0
 11
4.9369368257
 21
3.4469639462
 31
0.0
 11
4.9492983205
 21
3.4464399282
 31
0.0
 11
4.9762363308
 21
3.4451981088
 31
0.0
 11
5.0059120688
 21
3.4437167689
 31
0.0
 11
5.0380428682
 21
3.4420206313
 31
0.0
 11
5.0723227811
 21
3.440136455
 31
0.0
 11
5.1084264444
 21
3.4380927212
 31
0.0
 11
5.1460111634
 21
3.4359194303
 31
0.0
 11
5.1847164119
 21
3.4336480451
 31
0.0
 11
5.2241828512
 21
3.4313102529
 31
0.0
 11
5.2640201794
 21
3.4289397816
 31
0.0
  0
SPLINE
  5
32C
100
AcDbEntity
  8
0
100
AcDbSpline
 62
6
  6
CONTINUOUS
 70
0
 71
3
 72
42
 73
38
 74
36
 42
0.0000001
 43
0.0000001
 44
0.0000000001
 12
0.0356344535
 22
0.408309736
 32
0.0
 13
0.4091369961
 23
-0.0243633565
 33
0.0
 40
0.0
 40
0.0
 40
0.0
 40
0.0
 40
0.0001712207
 40
0.0003504762
 40
0.0007586021
 40
0.0012652998
 40
0.0018914101
 40
0.0026479678
 40
0.0035411829
 40
0.0045747113
 40
0.0057507285
 40
0.007070613
 40
0.0085352598
 40
0.0119008301
 40
0.015850145
 40
0.020383924
 40
0.0255018685
 40
0.0312020556
 40
0.0374813884
 40
0.0443365153
 40
0.0597599165
 40
0.0774405862
 40
0.0973355322
 40
0.1193985922
 40
0.1435791406
 40
0.169817501
 40
0.1980524841
 40
0.2282169205
 40
0.2940376107
 40
0.3666490235
 40
0.4453538031
 40
0.5293935808
 40
0.6179624398
 40
0.7102088769
 40
0.8052381745
 40
0.9021609882
 40
1.0
 40
1.0
 40
1.0
 40
1.0
 10
4.8612460341
 20
3.5179550128
 30
0.0
 10
4.8612480678
 20
3.5179783165
 30
0.0
 10
4.8612576438
 20
3.5180256963
 30
0.0
 10
4.8612995808
 20
3.5181212075
 30
0.0
 10
4.861397901
 20
3.5182373881
 30
0.0
 10
4.8615691879
 20
3.5183614888
 30
0.0
 10
4.8617993515
 20
3.5184798912
 30
0.0
 10
4.8620893878
 20
3.5185929295
 30
0.0
 10
4.8624399574
 20
3.5187009394
 30
0.0
 10
4.8628513327
 20
3.5188038436
 30
0.0
 10
4.8633236129
 20
3.5189016266
 30
0.0
 10
4.8638567933
 20
3.5189942547
 30
0.0
 10
4.8646881527
 20
3.5191165376
 30
0.0
 10
4.8658802233
 20
3.5192521523
 30
0.0
 10
4.8674934081
 20
3.5193882038
 30
0.0
 10
4.8693481171
 20
3.5195037243
 30
0.0
 10
4.8714434295
 20
3.5195986633
 30
0.0
 10
4.8737781698
 20
3.5196729769
 30
0.0
 10
4.87635085
 20
3.5197267598
 30
0.0
 10
4.8802522114
 20
3.5197729158
 30
0.0
 10
4.8857116385
 20
3.5197736003
 30
0.0
 10
4.8929520663
 20
3.5196953252
 30
0.0
 10
4.9010985115
 20
3.5195387851
 30
0.0
 10
4.910131437
 20
3.5193054497
 30
0.0
 10
4.9200291967
 20
3.5189969176
 30
0.0
 10
4.930768185
 20
3.5186152487
 30
0.0
 10
4.9423226044
 20
3.5181625471
 30
0.0
 10
4.9592785216
 20
3.5174461365
 30
0.0
 10
4.9822877963
 20
3.5163824998
 30
0.0
 10
5.0119161986
 20
3.5149011048
 30
0.0
 10
5.0440258813
 20
3.5132039242
 30
0.0
 10
5.078308634
 20
3.5113176678
 30
0.0
 10
5.1144353612
 20
3.5092707954
 30
0.0
 10
5.1520584679
 20
3.507093493
 30
0.0
 10
5.1908190532
 20
3.5048170822
 30
0.0
 10
5.2303411052
 20
3.5024742205
 30
0.0
 10
5.2569025276
 20
3.5008925312
 30
0.0
 10
5.2702457141
 20
3.5000979689
 30
0.0
 11
4.8612460341
 21
3.5179550128
 31
0.0
 11
4.861259763
 21
3.5180238336
 31
0.0
 11
4.8612888203
 21
3.5180913133
 31
0.0
 11
4.8613929195
 21
3.5182222497
 31
0.0
 11
4.8615583309
 21
3.5183478221
 31
0.0
 11
4.8617850533
 21
3.5184680306
 31
0.0
 11
4.8620730859
 21
3.5185828754
 31
0.0
 11
4.862422427
 21
3.5186923567
 31
0.0
 11
4.8628330349
 21
3.5187964782
 31
0.0
 11
4.863304811
 21
3.5188952484
 31
0.0
 11
4.8638376524
 21
3.5189886764
 31
0.0
 11
4.864431456
 21
3.5190767711
 31
0.0
 11
4.8658015375
 21
3.5192369968
 31
0.0
 11
4.8674142313
 21
3.5193759973
 31
0.0
 11
4.8692687132
 21
3.5194938445
 31
0.0
 11
4.8713641297
 21
3.5195906131
 31
0.0
 11
4.8736991883
 21
3.5196664158
 31
0.0
 11
4.8762722593
 21
3.5197213952
 31
0.0
 11
4.8790817043
 21
3.5197556945
 31
0.0
 11
4.8854031625
 21
3.5197628256
 31
0.0
 11
4.8926494171
 21
3.5196890457
 31
0.0
 11
4.9008021573
 21
3.519535956
 31
0.0
 11
4.9098420183
 21
3.5193052496
 31
0.0
 11
4.9197479601
 21
3.5189987672
 31
0.0
 11
4.9304953411
 21
3.5186186664
 31
0.0
 11
4.9420589692
 21
3.5181671532
 31
0.0
 11
4.9544112559
 21
3.5176466425
 31
0.0
 11
4.9813602468
 21
3.5164092663
 31
0.0
 11
5.0110840578
 21
3.5149291317
 31
0.0
 11
5.0432974188
 21
3.5132311872
 31
0.0
 11
5.0776902923
 21
3.5113425498
 31
0.0
 11
5.113933322
 21
3.5092920607
 31
0.0
 11
5.1516785971
 21
3.5071101557
 31
0.0
 11
5.1905605971
 21
3.5048287336
 31
0.0
 11
5.2302160483
 21
3.5024798676
 31
0.0
 11
5.2702457141
 21
3.5000979689
 31
0.0
  0
SPLINE
  5
32D
100
AcDbEntity
  8
0
100
AcDbSpline
 62
6
  6
CONTINUOUS
 70
0
 71
3
 72
70
 73
66
 74
64
 42
0.0000001
 43
0.0000001
 44
0.0000000001
 12
0.672085334
 22
0.3137593972
 32
0.0
 13
0.0651049032
 23
0.7388538469
 33
0.0
 40
0.0
 40
0.0
 40
0.0
 40
0.0
 40
0.000401344
 40
0.0008681983
 40
0.0014022955
 40
0.0020047624
 40
0.0034174847
 40
0.0051102657
 40
0.0070848609
 40
0.0093414787
 40
0.0118795566
 40
0.0146982231
 40
0.0177964125
 40
0.0211729301
 40
0.0287546957
 40
0.0374265412
 40
0.0471692166
 40
0.0579621588
 40
0.0697797538
 40
0.0825947404
 40
0.096378851
 40
0.1110992843
 40
0.1267218186
 40
0.1605288086
 40
0.1974853406
 40
0.2372486723
 40
0.2794500351
 40
0.3236964842
 40
0.369577017
 40
0.4166653231
 40
0.4645231599
 40
0.5127057741
 40
0.5607649939
 40
0.6082539082
 40
0.6547311789
 40
0.6997641909
 40
0.7429346845
 40
0.7838416297
 40
0.8221041487
 40
0.8573676863
 40
0.889305269
 40
0.9039324138
 40
0.9176200534
 40
0.9303365856
 40
0.942051631
 40
0.9527395671
 40
0.962376096
 40
0.9709383979
 40
0.9784090064
 40
0.9817300489
 40
0.9847723978
 40
0.9875344592
 40
0.9900154302
 40
0.9922148764
 40
0.9941326996
 40
0.9957693715
 40
0.9971264093
 40
0.9977012043
 40
0.9982079095
 40
0.9986479097
 40
0.9990233414
 40
0.9993376754
 40
0.9995968669
 40
0.9998115335
 40
1.0
 40
1.0
 40
1.0
 40
1.0
 10
4.903055481
 20
3.5462724362
 30
0.0
 10
4.9031453935
 20
3.5463144114
 30
0.0
 10
4.9033446155
 20
3.5463951323
 30
0.0
 10
4.9036743446
 20
3.5465028257
 30
0.0
 10
4.9040572476
 20
3.5466060676
 30
0.0
 10
4.9046721234
 20
3.546745162
 30
0.0
 10
4.9055758102
 20
3.5469024037
 30
0.0
 10
4.9068214069
 20
3.5470653225
 30
0.0
 10
4.9082790362
 20
3.5472103876
 30
0.0
 10
4.9099479337
 20
3.5473375993
 30
0.0
 10
4.9118271632
 20
3.5474468297
 30
0.0
 10
4.9139156169
 20
3.5475380705
 30
0.0
 10
4.9162121755
 20
3.5476113569
 30
0.0
 10
4.9196866796
 20
3.5476880928
 30
0.0
 10
4.9245399857
 20
3.5477335373
 30
0.0
 10
4.9309673581
 20
3.5477172024
 30
0.0
 10
4.9381881646
 20
3.5476323701
 30
0.0
 10
4.9461857444
 20
3.5474802122
 30
0.0
 10
4.9549416406
 20
3.5472622517
 30
0.0
 10
4.964435581
 20
3.5469801432
 30
0.0
 10
4.9746455881
 20
3.5466356193
 30
0.0
 10
4.9855480228
 20
3.5462307971
 30
0.0
 10
5.001395718
 20
3.5455965281
 30
0.0
 10
5.0227333245
 20
3.5446618471
 30
0.0
 10
5.0500291905
 20
3.5433666433
 30
0.0
 10
5.0793941445
 20
3.5418914891
 30
0.0
 10
5.1105557842
 20
3.5402599677
 30
0.0
 10
5.143224983
 20
3.5384971551
 30
0.0
 10
5.1770984906
 20
3.5366293948
 30
0.0
 10
5.2118619372
 20
3.5346840457
 30
0.0
 10
5.2471926649
 20
3.5326892458
 30
0.0
 10
5.2827626428
 20
3.5306735758
 30
0.0
 10
5.3182417118
 20
3.528665835
 30
0.0
 10
5.3533005517
 20
3.5266947422
 30
0.0
 10
5.3876136631
 20
3.5247886513
 30
0.0
 10
5.4208625869
 20
3.5229753268
 30
0.0
 10
5.4527387601
 20
3.5212815933
 30
0.0
 10
5.4829463168
 20
3.5197331249
 30
0.0
 10
5.5112050201
 20
3.5183541687
 30
0.0
 10
5.5372527622
 20
3.5171673526
 30
0.0
 10
5.557466754
 20
3.5163324002
 30
0.0
 10
5.5723534191
 20
3.5157842755
 30
0.0
 10
5.5824923388
 20
3.5154459976
 30
0.0
 10
5.5919128869
 20
3.5151702028
 30
0.0
 10
5.6005932665
 20
3.514958839
 30
0.0
 10
5.6085134012
 20
3.5148134448
 30
0.0
 10
5.6156549939
 20
3.5147353624
 30
0.0
 10
5.6220015752
 20
3.5147260265
 30
0.0
 10
5.6267865433
 20
3.5147776082
 30
0.0
 10
5.6302059164
 20
3.5148593428
 30
0.0
 10
5.6324608206
 20
3.5149362062
 30
0.0
 10
5.6345071519
 20
3.5150310842
 30
0.0
 10
5.636343844
 20
3.5151439785
 30
0.0
 10
5.6379700427
 20
3.5152748486
 30
0.0
 10
5.6393850589
 20
3.5154235127
 30
0.0
 10
5.6405881522
 20
3.5155899117
 30
0.0
 10
5.6414563063
 20
3.5157503284
 30
0.0
 10
5.6420424065
 20
3.51589233
 30
0.0
 10
5.6424037805
 20
3.5159973896
 30
0.0
 10
5.6427120298
 20
3.5161069072
 30
0.0
 10
5.6429674314
 20
3.5162209468
 30
0.0
 10
5.643170517
 20
3.5163397216
 30
0.0
 10
5.643321976
 20
3.516464174
 30
0.0
 10
5.6434220455
 20
3.5165965395
 30
0.0
 10
5.6434520089
 20
3.5166945941
 30
0.0
 10
5.643456099
 20
3.5167410105
 30
0.0
 11
4.903055481
 21
3.5462724362
 31
0.0
 11
4.9033306349
 21
3.5463860401
 31
0.0
 11
4.9036593324
 21
3.5464949595
 31
0.0
 11
4.9040415208
 21
3.546599199
 31
0.0
 11
4.9044771474
 21
3.5466987633
 31
0.0
 11
4.9055085049
 21
3.5468838846
 31
0.0
 11
4.9067529833
 21
3.5470503603
 31
0.0
 11
4.9082100894
 21
3.5471982334
 31
0.0
 11
4.9098788545
 21
3.5473275888
 31
0.0
 11
4.9117581175
 21
3.547438528
 31
0.0
 11
4.9138467167
 21
3.5475311526
 31
0.0
 11
4.9161434904
 21
3.5476055644
 31
0.0
 11
4.9186472769
 21
3.5476618648
 31
0.0
 11
4.9242704923
 21
3.547720604
 31
0.0
 11
4.9307025337
 21
3.5477085801
 31
0.0
 11
4.9379283793
 21
3.5476271073
 31
0.0
 11
4.9459322878
 21
3.5474775629
 31
0.0
 11
4.9546949353
 21
3.5472616373
 31
0.0
 11
4.9641958846
 21
3.5469811188
 31
0.0
 11
4.9744140254
 21
3.5466378541
 31
0.0
 11
4.9853249442
 21
3.5462339792
 31
0.0
 11
4.9969032146
 21
3.5457717186
 31
0.0
 11
5.0219547081
 21
3.5446814105
 31
0.0
 11
5.0493354209
 21
3.5433873221
 31
0.0
 11
5.0787916076
 21
3.5419116533
 31
0.0
 11
5.1100504173
 21
3.5402782754
 31
0.0
 11
5.1428212157
 21
3.5385126156
 31
0.0
 11
5.1768000805
 21
3.5366412637
 31
0.0
 11
5.2116718143
 21
3.5346917959
 31
0.0
 11
5.2471124262
 21
3.5326925577
 31
0.0
 11
5.2827931281
 21
3.5306723144
 31
0.0
 11
5.3183826116
 21
3.5286600517
 31
0.0
 11
5.3535504974
 21
3.5266846739
 31
0.0
 11
5.3879705148
 21
3.5247747262
 31
0.0
 11
5.4213228194
 21
3.5229581912
 31
0.0
 11
5.4532981448
 21
3.5212621263
 31
0.0
 11
5.4835999099
 21
3.519712479
 31
0.0
 11
5.5119463565
 21
3.5183338998
 31
0.0
 11
5.5380750738
 21
3.5171493469
 31
0.0
 11
5.5617438712
 21
3.516180009
 31
0.0
 11
5.5725857719
 21
3.5157821724
 31
0.0
 11
5.5827325273
 21
3.5154451531
 31
0.0
 11
5.5921606067
 21
3.5151710098
 31
0.0
 11
5.6008473308
 21
3.5149617268
 31
0.0
 11
5.6087734662
 21
3.5148189866
 31
0.0
 11
5.6159206513
 21
3.5147443957
 31
0.0
 11
5.6222714517
 21
3.5147394794
 31
0.0
 11
5.6278121342
 21
3.5148054393
 31
0.0
 11
5.6302746782
 21
3.514865348
 31
0.0
 11
5.6325298891
 21
3.514943396
 31
0.0
 11
5.6345762908
 21
3.5150397125
 31
0.0
 11
5.636412892
 21
3.5151543841
 31
0.0
 11
5.6380388189
 21
3.5152874873
 31
0.0
 11
5.6394531978
 21
3.5154390986
 31
0.0
 11
5.6406551547
 21
3.5156092944
 31
0.0
 11
5.6416438159
 21
3.5157981512
 31
0.0
 11
5.642057905
 21
3.5158995997
 31
0.0
 11
5.6424184394
 21
3.5160057338
 31
0.0
 11
5.642725403
 21
3.5161165546
 31
0.0
 11
5.6429787798
 21
3.5162320637
 31
0.0
 11
5.6431785539
 21
3.5163522625
 31
0.0
 11
5.6433247091
 21
3.5164771522
 31
0.0
 11
5.6434172295
 21
3.5166067345
 31
0.0
 11
5.643456099
 21
3.5167410105
 31
0.0
  0
SPLINE
  5
32E
100
AcDbEntity
  8
0
100
AcDbSpline
 62
6
  6
CONTINUOUS
 70
0
 71
3
 72
40
 73
36
 74
34
 42
0.0000001
 43
0.0000001
 44
0.0000000001
 12
-0.3100419027
 22
-0.2591622886
 32
0.0
 13
-0.4031339925
 23
0.0278218855
 33
0.0
 40
0.0
 40
0.0
 40
0.0
 40
0.0
 40
0.0003612852
 40
0.0008477578
 40
0.0014686488
 40
0.002228286
 40
0.0031289837
 40
0.0041721041
 40
0.0066886031
 40
0.0097810805
 40
0.013449647
 40
0.0176934545
 40
0.0225111792
 40
0.0279012257
 40
0.0338615664
 40
0.0403888147
 40
0.0474791424
 40
0.0633334523
 40
0.0813922233
 40
0.1016140819
 40
0.123952501
 40
0.1483586952
 40
0.1747745942
 40
0.203139493
 40
0.2333887841
 40
0.265449551
 40
0.2992476136
 40
0.3717316279
 40
0.4501525169
 40
0.5337593769
 40
0.6217506279
 40
0.7132767662
 40
0.807439514
 40
0.9033415899
 40
1.0
 40
1.0
 40
1.0
 40
1.0
 10
5.6564230054
 20
3.2811087936
 30
0.0
 10
5.6563856676
 20
3.2810775831
 30
0.0
 10
5.6562851117
 20
3.2810205724
 30
0.0
 10
5.6560995495
 20
3.2809516199
 30
0.0
 10
5.6558561303
 20
3.2808870238
 30
0.0
 10
5.6555546561
 20
3.2808271267
 30
0.0
 10
5.6551946064
 20
3.2807719765
 30
0.0
 10
5.65459801
 20
3.2807004752
 30
0.0
 10
5.6537046298
 20
3.2806281546
 30
0.0
 10
5.6524564865
 20
3.28056475
 30
0.0
 10
5.6509747115
 20
3.2805210428
 30
0.0
 10
5.6492601184
 20
3.2804970659
 30
0.0
 10
5.6473134924
 20
3.2804929786
 30
0.0
 10
5.6451357186
 20
3.280508788
 30
0.0
 10
5.6427278893
 20
3.2805444902
 30
0.0
 10
5.6400913599
 20
3.2805999757
 30
0.0
 10
5.6361229206
 20
3.2807042036
 30
0.0
 10
5.6306028118
 20
3.2808866658
 30
0.0
 10
5.6233166154
 20
3.2811745665
 30
0.0
 10
5.6151594294
 20
3.2815378261
 30
0.0
 10
5.606149781
 20
3.2819749017
 30
0.0
 10
5.5963083875
 20
3.2824841807
 30
0.0
 10
5.5856578305
 20
3.2830636801
 30
0.0
 10
5.5742227958
 20
3.2837113151
 30
0.0
 10
5.5620299466
 20
3.2844248234
 30
0.0
 10
5.5491077357
 20
3.2852016771
 30
0.0
 10
5.5305084126
 20
3.2863454534
 30
0.0
 10
5.5056790362
 20
3.2879171765
 30
0.0
 10
5.4741574869
 20
3.2899679595
 30
0.0
 10
5.4405544956
 20
3.2921990233
 30
0.0
 10
5.4051924979
 20
3.2945822849
 30
0.0
 10
5.3684136832
 20
3.2970879547
 30
0.0
 10
5.3305730608
 20
3.2996850074
 30
0.0
 10
5.2920435521
 20
3.3023409573
 30
0.0
 10
5.2661677194
 20
3.3041276222
 30
0.0
 10
5.2531789558
 20
3.3050240287
 30
0.0
 11
5.6564230054
 21
3.2811087936
 31
0.0
 11
5.6562987697
 21
3.2810321165
 31
0.0
 11
5.6561156717
 21
3.2809605703
 31
0.0
 11
5.6558737244
 21
3.2808941538
 31
0.0
 11
5.655572941
 21
3.2808328659
 31
0.0
 11
5.6552133344
 21
3.2807767054
 31
0.0
 11
5.6547949176
 21
3.2807256711
 31
0.0
 11
5.6537817206
 21
3.2806389752
 31
0.0
 11
5.6525338292
 21
3.2805727362
 31
0.0
 11
5.651052097
 21
3.2805268792
 31
0.0
 11
5.6493373948
 21
3.2805013282
 31
0.0
 11
5.6473905938
 21
3.2804960069
 31
0.0
 11
5.6452125648
 21
3.2805108392
 31
0.0
 11
5.6428042862
 21
3.2805457394
 31
0.0
 11
5.6401672417
 21
3.2806005776
 31
0.0
 11
5.6373030628
 21
3.280675211
 31
0.0
 11
5.6308998287
 21
3.2808832917
 31
0.0
 11
5.6236079951
 21
3.2811688072
 31
0.0
 11
5.6154444844
 21
3.2815302761
 31
0.0
 11
5.6064282122
 21
3.2819660423
 31
0.0
 11
5.5965789515
 21
3.2824743751
 31
0.0
 11
5.5859201802
 21
3.2830532185
 31
0.0
 11
5.5744764128
 21
3.283700426
 31
0.0
 11
5.5622737184
 21
3.2844137156
 31
0.0
 11
5.549341499
 21
3.285190515
 31
0.0
 11
5.5357096562
 21
3.2860282083
 31
0.0
 11
5.5064776507
 21
3.287874854
 31
0.0
 11
5.4748549978
 21
3.2899293902
 31
0.0
 11
5.4411441311
 21
3.2921653564
 31
0.0
 11
5.4056678477
 21
3.2945544905
 31
0.0
 11
5.3687682148
 21
3.2970668522
 31
0.0
 11
5.3308069239
 21
3.2996708473
 31
0.0
 11
5.2921452379
 21
3.3023346843
 31
0.0
 11
5.2531789558
 21
3.3050240287
 31
0.0
  0
LINE
  5
32F
100
AcDbEntity
  8
0
100
AcDbLine
 62
6
  6
CONTINUOUS
 10
4.8843787739
 20
3.3327978823
 11
4.8852293587
 21
3.3330899696
  0
SPLINE
  5
330
100
AcDbEntity
  8
0
100
AcDbSpline
 62
6
  6
CONTINUOUS
 70
0
 71
3
 72
66
 73
62
 74
60
 42
0.0000001
 43
0.0000001
 44
0.0000000001
 12
0.7161444789
 22
0.189595454
 32
0.0
 13
0.0639865673
 23
0.7380481489
 33
0.0
 40
0.0
 40
0.0
 40
0.0
 40
0.0
 40
0.0012148336
 40
0.0027023382
 40
0.0044648601
 40
0.0065033531
 40
0.0088180411
 40
0.01140873
 40
0.0142748287
 40
0.0174149491
 40
0.0245104105
 40
0.0326809464
 40
0.0419105114
 40
0.0521778138
 40
0.063459962
 40
0.0757329437
 40
0.0889681187
 40
0.1031354409
 40
0.1341386652
 40
0.1684604131
 40
0.2057892965
 40
0.2457865168
 40
0.2880873169
 40
0.3323070783
 40
0.3780434834
 40
0.4248796115
 40
0.4723892888
 40
0.5201397681
 40
0.5676961485
 40
0.6146255327
 40
0.6605001981
 40
0.7049028358
 40
0.7474291855
 40
0.7876916173
 40
0.8253246035
 40
0.859985674
 40
0.8913593057
 40
0.9057239441
 40
0.9191621338
 40
0.9316440721
 40
0.9431422981
 40
0.9536298436
 40
0.9630839429
 40
0.9714846088
 40
0.9788126074
 40
0.982069689
 40
0.9850536322
 40
0.98776318
 40
0.9901972156
 40
0.9923548392
 40
0.9942358099
 40
0.9958410272
 40
0.9971724858
 40
0.997736814
 40
0.998234562
 40
0.9986670455
 40
0.9990363283
 40
0.9993458011
 40
0.9996013214
 40
0.999813382
 40
1.0
 40
1.0
 40
1.0
 40
1.0
 10
4.8852293587
 20
3.3330899696
 30
0.0
 10
4.8855193575
 20
3.3331667452
 30
0.0
 10
4.8861724798
 20
3.3333069159
 30
0.0
 10
4.8872616225
 20
3.3334799155
 30
0.0
 10
4.888558493
 20
3.3336357593
 30
0.0
 10
4.8900624672
 20
3.3337742418
 30
0.0
 10
4.8917730139
 20
3.3338951601
 30
0.0
 10
4.8936893822
 20
3.3339984352
 30
0.0
 10
4.8958106194
 20
3.3340840492
 30
0.0
 10
4.8990446064
 20
3.334178543
 30
0.0
 10
4.9035895034
 20
3.3342464736
 30
0.0
 10
4.9096385137
 20
3.3342572485
 30
0.0
 10
4.9164705298
 20
3.3342003837
 30
0.0
 10
4.9240701278
 20
3.3340772091
 30
0.0
 10
4.9324201258
 20
3.3338889591
 30
0.0
 10
4.9415016231
 20
3.3336370556
 30
0.0
 10
4.9512940431
 20
3.3333233291
 30
0.0
 10
4.9657075494
 20
3.3328092922
 30
0.0
 10
4.9853214198
 20
3.3320175464
 30
0.0
 10
5.0106452832
 20
3.3308825826
 30
0.0
 10
5.0381835497
 20
3.3295552058
 30
0.0
 10
5.0676860921
 20
3.3280570011
 30
0.0
 10
5.0988848856
 20
3.3264111395
 30
0.0
 10
5.1314963426
 20
3.3246422092
 30
0.0
 10
5.1652240929
 20
3.3227759746
 30
0.0
 10
5.1997615763
 20
3.3208391581
 30
0.0
 10
5.2347947651
 20
3.3188591081
 30
0.0
 10
5.2700052214
 20
3.3168636
 30
0.0
 10
5.3050728571
 20
3.3148805515
 30
0.0
 10
5.3396788159
 20
3.3129377521
 30
0.0
 10
5.3735085607
 20
3.3110626401
 30
0.0
 10
5.4062545773
 20
3.3092819816
 30
0.0
 10
5.4376191851
 20
3.3076216599
 30
0.0
 10
5.467317398
 20
3.3061064555
 30
0.0
 10
5.4950793617
 20
3.3047596272
 30
0.0
 10
5.5206528539
 20
3.3036029587
 30
0.0
 10
5.5404900864
 20
3.3027914751
 30
0.0
 10
5.5550934238
 20
3.3022603332
 30
0.0
 10
5.5650359544
 20
3.3019335421
 30
0.0
 10
5.5742722226
 20
3.3016682297
 30
0.0
 10
5.5827812827
 20
3.3014660899
 30
0.0
 10
5.590543852
 20
3.3013287975
 30
0.0
 10
5.597542396
 20
3.3012576368
 30
0.0
 10
5.6037611027
 20
3.3012537176
 30
0.0
 10
5.6084492941
 20
3.3013088958
 30
0.0
 10
5.6117990097
 20
3.3013928155
 30
0.0
 10
5.6140079222
 20
3.3014708719
 30
0.0
 10
5.6160127049
 20
3.3015665236
 30
0.0
 10
5.617812183
 20
3.301679802
 30
0.0
 10
5.6194052727
 20
3.3018107093
 30
0.0
 10
5.6207912333
 20
3.3019591107
 30
0.0
 10
5.6219695162
 20
3.3021249
 30
0.0
 10
5.6228197831
 20
3.3022844559
 30
0.0
 10
5.6233939344
 20
3.3024254558
 30
0.0
 10
5.623748131
 20
3.3025297257
 30
0.0
 10
5.6240503405
 20
3.3026383595
 30
0.0
 10
5.624300789
 20
3.3027514275
 30
0.0
 10
5.6244999507
 20
3.3028691496
 30
0.0
 10
5.6246484531
 20
3.3029924784
 30
0.0
 10
5.624746439
 20
3.3031236062
 30
0.0
 10
5.6247756652
 20
3.3032205255
 30
0.0
 10
5.6247796456
 20
3.3032664365
 30
0.0
 11
4.8852293587
 21
3.3330899696
 31
0.0
 11
4.8861078066
 21
3.3332856054
 31
0.0
 11
4.887195412
 21
3.3334629424
 31
0.0
 11
4.8884913874
 21
3.3336220493
 31
0.0
 11
4.8899949453
 21
3.3337629952
 31
0.0
 11
4.8917052981
 21
3.3338858488
 31
0.0
 11
4.8936216586
 21
3.3339906791
 31
0.0
 11
4.8957431338
 21
3.3340775642
 31
0.0
 11
4.8980683621
 21
3.3341466231
 31
0.0
 11
4.9033241084
 21
3.3342317851
 31
0.0
 11
4.9093769579
 21
3.3342472096
 31
0.0
 11
4.9162141667
 21
3.3341940116
 31
0.0
 11
4.9238194027
 21
3.3340736198
 31
0.0
 11
4.9321753348
 21
3.3338875507
 31
0.0
 11
4.941263922
 21
3.3336373826
 31
0.0
 11
4.9510637824
 21
3.3333249861
 31
0.0
 11
4.9615525526
 21
3.3329523178
 31
0.0
 11
4.9845019111
 21
3.3320344695
 31
0.0
 11
5.0099028082
 21
3.3309021394
 31
0.0
 11
5.0375248272
 21
3.3295754863
 31
0.0
 11
5.0671174907
 21
3.3280764241
 31
0.0
 11
5.0984112711
 21
3.3264285335
 31
0.0
 11
5.1311220543
 21
3.3246566712
 31
0.0
 11
5.1649527119
 21
3.3227868326
 31
0.0
 11
5.1995953697
 21
3.3208459532
 31
0.0
 11
5.2347353454
 21
3.3188615641
 31
0.0
 11
5.2700531167
 21
3.3168616199
 31
0.0
 11
5.3052275756
 21
3.3148742139
 31
0.0
 11
5.3399390899
 21
3.3129273103
 31
0.0
 11
5.3738718356
 21
3.3110485402
 31
0.0
 11
5.4067176549
 21
3.3092648637
 31
0.0
 11
5.4381779898
 21
3.3076024015
 31
0.0
 11
5.4679665096
 21
3.3060862041
 31
0.0
 11
5.4958131274
 21
3.3047399012
 31
0.0
 11
5.5214646702
 21
3.3035856424
 31
0.0
 11
5.5446876909
 21
3.3026438517
 31
0.0
 11
5.5553222725
 21
3.3022584266
 31
0.0
 11
5.565272184
 21
3.3019329024
 31
0.0
 11
5.5745152517
 21
3.3016692189
 31
0.0
 11
5.5830309798
 21
3.3014691695
 31
0.0
 11
5.5907991616
 21
3.3013345218
 31
0.0
 11
5.5978025885
 21
3.3012667816
 31
0.0
 11
5.6040259419
 21
3.3012672889
 31
0.0
 11
5.6094541933
 21
3.3013373587
 31
0.0
 11
5.6118663108
 21
3.3013988158
 31
0.0
 11
5.6140754459
 21
3.3014780316
 31
0.0
 11
5.6160803751
 21
3.3015751132
 31
0.0
 11
5.6178798748
 21
3.3016901674
 31
0.0
 11
5.6194727243
 21
3.3018233013
 31
0.0
 11
5.6208579405
 21
3.3019746007
 31
0.0
 11
5.6220349683
 21
3.3021441142
 31
0.0
 11
5.6230032973
 21
3.3023318865
 31
0.0
 11
5.6234090402
 21
3.3024326336
 31
0.0
 11
5.6237624169
 21
3.3025379622
 31
0.0
 11
5.6240633636
 21
3.3026478778
 31
0.0
 11
5.6243118166
 21
3.3027623861
 31
0.0
 11
5.624507712
 21
3.3028814925
 31
0.0
 11
5.6246509876
 21
3.3030052026
 31
0.0
 11
5.624741624
 21
3.303133518
 31
0.0
 11
5.6247796456
 21
3.3032664365
 31
0.0
  0
SPLINE
  5
331
100
AcDbEntity
  8
0
100
AcDbSpline
 62
6
  6
CONTINUOUS
 70
0
 71
3
 72
70
 73
66
 74
64
 42
0.0000001
 43
0.0000001
 44
0.0000000001
 12
0.0650733918
 22
0.7388567531
 32
0.0
 13
0.6720929511
 23
0.3137433873
 33
0.0
 40
0.0
 40
0.0
 40
0.0
 40
0.0
 40
0.0001884647
 40
0.0004031262
 40
0.0006623111
 40
0.0009766392
 40
0.0013520681
 40
0.0017920704
 40
0.0022987846
 40
0.0028735973
 40
0.0042306569
 40
0.0058673191
 40
0.0077851176
 40
0.0099845416
 40
0.0124655105
 40
0.0152276072
 40
0.018269984
 40
0.0215910146
 40
0.0290615655
 40
0.0376239061
 40
0.0472604535
 40
0.0579483238
 40
0.0696634119
 40
0.0823799638
 40
0.0960675324
 40
0.1106947219
 40
0.1426322519
 40
0.1778958533
 40
0.2161583425
 40
0.257065241
 40
0.3002357853
 40
0.3452687667
 40
0.3917460111
 40
0.4392349477
 40
0.4872941373
 40
0.5354767616
 40
0.5833345785
 40
0.6304228543
 40
0.6763034479
 40
0.7205498252
 40
0.7627511556
 40
0.8025146095
 40
0.8394710133
 40
0.8732779664
 40
0.8889005208
 40
0.9036211217
 40
0.9174050248
 40
0.9302200368
 40
0.9420378258
 40
0.9528305308
 40
0.9625732374
 40
0.9712453003
 40
0.9788268022
 40
0.9822032635
 40
0.9853015466
 40
0.9881203564
 40
0.9906585268
 40
0.9929150872
 40
0.9948894565
 40
0.996582181
 40
0.9979950019
 40
0.9985975425
 40
0.9991317119
 40
0.9995986243
 40
1.0
 40
1.0
 40
1.0
 40
1.0
 10
4.885362504
 20
3.3500338508
 30
0.0
 10
4.885366592
 20
3.3500802669
 30
0.0
 10
4.8853965498
 20
3.3501783214
 30
0.0
 10
4.8854966119
 20
3.3503106886
 30
0.0
 10
4.8856480646
 20
3.3504351421
 30
0.0
 10
4.8858511456
 20
3.3505539176
 30
0.0
 10
4.8861065455
 20
3.3506679574
 30
0.0
 10
4.8864147972
 20
3.3507774748
 30
0.0
 10
4.8867761788
 20
3.3508825338
 30
0.0
 10
4.8873622925
 20
3.3510245311
 30
0.0
 10
4.8882304544
 20
3.3511849463
 30
0.0
 10
4.8894335444
 20
3.3513513479
 30
0.0
 10
4.8908485465
 20
3.3515000143
 30
0.0
 10
4.8924747331
 20
3.3516308863
 30
0.0
 10
4.8943114283
 20
3.3517437812
 30
0.0
 10
4.8963577753
 20
3.351838655
 30
0.0
 10
4.8986126926
 20
3.351915516
 30
0.0
 10
4.902032056
 20
3.3519972527
 30
0.0
 10
4.9068170173
 20
3.35204884
 30
0.0
 10
4.9131635996
 20
3.3520394984
 30
0.0
 10
4.9203051913
 20
3.3519614147
 30
0.0
 10
4.9282253264
 20
3.3518160269
 30
0.0
 10
4.9369057067
 20
3.3516046583
 30
0.0
 10
4.9463262542
 20
3.3513288622
 30
0.0
 10
4.9564651742
 20
3.3509905898
 30
0.0
 10
4.9713518222
 20
3.3504424597
 30
0.0
 10
4.9915658316
 20
3.3496075131
 30
0.0
 10
5.0176135733
 20
3.348420691
 30
0.0
 10
5.0458722786
 20
3.3470417371
 30
0.0
 10
5.0760798342
 20
3.3454932704
 30
0.0
 10
5.1079560062
 20
3.3437995338
 30
0.0
 10
5.1412049344
 20
3.3419862107
 30
0.0
 10
5.1755180433
 20
3.3400801205
 30
0.0
 10
5.2105768809
 20
3.3381090262
 30
0.0
 10
5.2460559567
 20
3.3361012865
 30
0.0
 10
5.2816259309
 20
3.3340856157
 30
0.0
 10
5.3169566548
 20
3.3320908162
 30
0.0
 10
5.3517201103
 20
3.3301454683
 30
0.0
 10
5.3855936134
 20
3.3282777047
 30
0.0
 10
5.4182628073
 20
3.3265148948
 30
0.0
 10
5.449424457
 20
3.3248833756
 30
0.0
 10
5.4787894062
 20
3.3234082135
 30
0.0
 10
5.5060852668
 20
3.3221130178
 30
0.0
 10
5.5274228412
 20
3.3211783362
 30
0.0
 10
5.5432705765
 20
3.3205440693
 30
0.0
 10
5.5541730077
 20
3.3201392328
 30
0.0
 10
5.5643830135
 20
3.3197947243
 30
0.0
 10
5.5738769585
 20
3.3195126163
 30
0.0
 10
5.5826328513
 20
3.3192946357
 30
0.0
 10
5.5906304301
 20
3.3191424995
 30
0.0
 10
5.5978512406
 20
3.3190576694
 30
0.0
 10
5.6042786104
 20
3.319041303
 30
0.0
 10
5.6091318917
 20
3.3190867747
 30
0.0
 10
5.6126063403
 20
3.3191635191
 30
0.0
 10
5.6149029442
 20
3.3192367974
 30
0.0
 10
5.6169914804
 20
3.3193280262
 30
0.0
 10
5.6188707549
 20
3.3194372473
 30
0.0
 10
5.620539606
 20
3.3195644543
 30
0.0
 10
5.6219971477
 20
3.3197095553
 30
0.0
 10
5.6232426975
 20
3.3198724804
 30
0.0
 10
5.6241464149
 20
3.3200297112
 30
0.0
 10
5.6247613552
 20
3.3201687947
 30
0.0
 10
5.6251443122
 20
3.3202720303
 30
0.0
 10
5.6254740855
 20
3.3203797176
 30
0.0
 10
5.6256733322
 20
3.3204604373
 30
0.0
 10
5.6257632528
 20
3.3205024136
 30
0.0
 11
4.885362504
 21
3.3500338508
 31
0.0
 11
4.8854013668
 21
3.3501681274
 31
0.0
 11
4.8854938798
 21
3.3502977103
 31
0.0
 11
4.885640028
 21
3.3504226006
 31
0.0
 11
4.8858397968
 21
3.3505427998
 31
0.0
 11
4.8860931713
 21
3.3506583091
 31
0.0
 11
4.8864001367
 21
3.3507691298
 31
0.0
 11
4.8867606783
 21
3.3508752632
 31
0.0
 11
4.8871747812
 21
3.3509767106
 31
0.0
 11
4.8881634594
 21
3.3511655659
 31
0.0
 11
4.8893654091
 21
3.3513357623
 31
0.0
 11
4.8907797697
 21
3.3514873752
 31
0.0
 11
4.8924056803
 21
3.3516204799
 31
0.0
 11
4.8942422802
 21
3.3517351516
 31
0.0
 11
4.8962887086
 21
3.3518314657
 31
0.0
 11
4.8985439406
 21
3.3519095119
 31
0.0
 11
4.9010064762
 21
3.3519694213
 31
0.0
 11
4.9065471169
 21
3.3520353848
 31
0.0
 11
4.9128979471
 21
3.352030466
 31
0.0
 11
4.9200451472
 21
3.3519558738
 31
0.0
 11
4.9279712353
 21
3.3518131377
 31
0.0
 11
4.9366579925
 21
3.3516038518
 31
0.0
 11
4.9460860881
 21
3.3513297071
 31
0.0
 11
4.9562327927
 21
3.3509926922
 31
0.0
 11
4.9670747285
 21
3.3505948526
 31
0.0
 11
4.990743491
 21
3.3496255178
 31
0.0
 11
5.01687226
 21
3.3484409603
 31
0.0
 11
5.0452186895
 21
3.3470623826
 31
0.0
 11
5.0755204254
 21
3.3455127378
 31
0.0
 11
5.1074957938
 21
3.3438166692
 31
0.0
 11
5.1408480816
 21
3.3420001357
 31
0.0
 11
5.1752680856
 21
3.3400901891
 31
0.0
 11
5.210435994
 21
3.3381148094
 31
0.0
 11
5.2460254614
 21
3.3361025481
 31
0.0
 11
5.281706177
 21
3.3340823035
 31
0.0
 11
5.3171467804
 21
3.3320830661
 31
0.0
 11
5.3520184979
 21
3.3301335997
 31
0.0
 11
5.3859974135
 21
3.3282622434
 31
0.0
 11
5.4187681645
 21
3.3264965878
 31
0.0
 11
5.4500269557
 21
3.3248632115
 31
0.0
 11
5.479483238
 21
3.3233875343
 31
0.0
 11
5.5068638607
 21
3.3220934538
 31
0.0
 11
5.5319153314
 21
3.3210031477
 31
0.0
 11
5.5434936186
 21
3.3205408856
 31
0.0
 11
5.5544046633
 21
3.3201369997
 31
0.0
 11
5.5646226524
 21
3.3197937483
 31
0.0
 11
5.574123622
 21
3.319513228
 31
0.0
 11
5.5828864147
 21
3.3192972897
 31
0.0
 11
5.590890149
 21
3.3191477605
 31
0.0
 11
5.5981160191
 21
3.3190662856
 31
0.0
 11
5.6045482227
 21
3.3190542475
 31
0.0
 11
5.6101712433
 21
3.3191130037
 31
0.0
 11
5.6126749884
 21
3.3191693078
 31
0.0
 11
5.6149718323
 21
3.3192437134
 31
0.0
 11
5.6170605386
 21
3.3193363287
 31
0.0
 11
5.6189398711
 21
3.3194472618
 31
0.0
 11
5.6206085934
 21
3.3195766209
 31
0.0
 11
5.6220655299
 21
3.3197245089
 31
0.0
 11
5.6233099657
 21
3.3198909882
 31
0.0
 11
5.6243413989
 21
3.3200761029
 31
0.0
 11
5.6247770829
 21
3.3201756622
 31
0.0
 11
5.6251593282
 21
3.3202798968
 31
0.0
 11
5.6254880724
 21
3.3203888121
 31
0.0
 11
5.6257632528
 21
3.3205024136
 31
0.0
  0
SPLINE
  5
332
100
AcDbEntity
  8
0
100
AcDbSpline
 62
6
  6
CONTINUOUS
 70
0
 71
3
 72
70
 73
66
 74
64
 42
0.0000001
 43
0.0000001
 44
0.0000000001
 12
0.672127007
 22
0.3136690619
 32
0.0
 13
0.0652041348
 23
0.7388446486
 33
0.0
 40
0.0
 40
0.0
 40
0.0
 40
0.0
 40
0.0004014226
 40
0.000868357
 40
0.0014025386
 40
0.0020050995
 40
0.0034180638
 40
0.0051112051
 40
0.0070861397
 40
0.0093429604
 40
0.0118811701
 40
0.0146999635
 40
0.0177983407
 40
0.0211751705
 40
0.0287574077
 40
0.0374294628
 40
0.0471725766
 40
0.0579659218
 40
0.0697836678
 40
0.0825990153
 40
0.0963834523
 40
0.1111039788
 40
0.1267267933
 40
0.1605340681
 40
0.1974909653
 40
0.2372543977
 40
0.2794557917
 40
0.3237022949
 40
0.36958269
 40
0.416670821
 40
0.4645284467
 40
0.5127107458
 40
0.5607696547
 40
0.6082581649
 40
0.6547350216
 40
0.6997676698
 40
0.742937654
 40
0.7838441712
 40
0.8221063572
 40
0.8573693719
 40
0.8893065926
 40
0.9039335345
 40
0.917621148
 40
0.9303374029
 40
0.9420522729
 40
0.9527402286
 40
0.9623765068
 40
0.9709386681
 40
0.9784093444
 40
0.9817303416
 40
0.9847725198
 40
0.9875344716
 40
0.990015452
 40
0.9922149613
 40
0.9941328364
 40
0.9957694853
 40
0.9971263747
 40
0.9977011087
 40
0.99820779
 40
0.9986477946
 40
0.9990232497
 40
0.9993376165
 40
0.9995968402
 40
0.9998115282
 40
1.0
 40
1.0
 40
1.0
 40
1.0
 10
4.8906048959
 20
3.4039560181
 30
0.0
 10
4.8906948315
 20
3.4039979894
 30
0.0
 10
4.8908940947
 20
3.4040787111
 30
0.0
 10
4.891223881
 20
3.4041864217
 30
0.0
 10
4.8916068423
 20
3.4042896914
 30
0.0
 10
4.8922218132
 20
3.4044288348
 30
0.0
 10
4.8931256628
 20
3.4045861445
 30
0.0
 10
4.8943714893
 20
3.4047490992
 30
0.0
 10
4.8958293412
 20
3.4048941731
 30
0.0
 10
4.8974984048
 20
3.4050213853
 30
0.0
 10
4.8993777486
 20
3.4051305976
 30
0.0
 10
4.9014663129
 20
3.4052218091
 30
0.0
 10
4.9037630263
 20
3.4052950586
 30
0.0
 10
4.9072377701
 20
3.4053717294
 30
0.0
 10
4.9120913188
 20
3.4054171407
 30
0.0
 10
4.9185189641
 20
3.4054008081
 30
0.0
 10
4.925740026
 20
3.4053159513
 30
0.0
 10
4.9337378458
 20
3.405163766
 30
0.0
 10
4.9424939627
 20
3.4049457941
 30
0.0
 10
4.9519881038
 20
3.4046636523
 30
0.0
 10
4.962198297
 20
3.4043191038
 30
0.0
 10
4.973100898
 20
3.4039142748
 30
0.0
 10
4.9889487453
 20
3.4032799769
 30
0.0
 10
5.0102865685
 20
3.4023452804
 30
0.0
 10
5.0375826024
 20
3.4010500449
 30
0.0
 10
5.0669476611
 20
3.3995748796
 30
0.0
 10
5.0981093276
 20
3.3979433492
 30
0.0
 10
5.1307784933
 20
3.3961805284
 30
0.0
 10
5.1646519166
 20
3.3943127708
 30
0.0
 10
5.1994152128
 20
3.392367427
 30
0.0
 10
5.234745746
 20
3.3903726355
 30
0.0
 10
5.2703154959
 20
3.3883569797
 30
0.0
 10
5.3057942892
 20
3.3863492538
 30
0.0
 10
5.3408528296
 20
3.3843781807
 30
0.0
 10
5.3751656288
 20
3.3824721107
 30
0.0
 10
5.4084142148
 20
3.3806588048
 30
0.0
 10
5.440290048
 20
3.3789650968
 30
0.0
 10
5.4704972731
 20
3.377416651
 30
0.0
 10
5.4987556423
 20
3.3760377096
 30
0.0
 10
5.5248030686
 20
3.3748509226
 30
0.0
 10
5.5450167795
 20
3.374015981
 30
0.0
 10
5.55990329
 20
3.3734678731
 30
0.0
 10
5.5700420782
 20
3.3731295907
 30
0.0
 10
5.5794625027
 20
3.3728538119
 30
0.0
 10
5.5881427702
 20
3.3726424592
 30
0.0
 10
5.5960627995
 20
3.3724970536
 30
0.0
 10
5.6032042962
 20
3.3724189883
 30
0.0
 10
5.6095507936
 20
3.3724096624
 30
0.0
 10
5.6143357298
 20
3.3724612308
 30
0.0
 10
5.6177550643
 20
3.372542963
 30
0.0
 10
5.6200098861
 20
3.3726198412
 30
0.0
 10
5.6220561487
 20
3.3727147273
 30
0.0
 10
5.6238928307
 20
3.3728276179
 30
0.0
 10
5.6255190599
 20
3.3729584796
 30
0.0
 10
5.6269340988
 20
3.373107136
 30
0.0
 10
5.6281371634
 20
3.3732735242
 30
0.0
 10
5.6290052556
 20
3.3734339597
 30
0.0
 10
5.6295912938
 20
3.3735759701
 30
0.0
 10
5.6299526465
 20
3.3736810302
 30
0.0
 10
5.6302608969
 20
3.3737905465
 30
0.0
 10
5.6305163158
 20
3.373904583
 30
0.0
 10
5.6307194289
 20
3.374023353
 30
0.0
 10
5.6308709199
 20
3.374147799
 30
0.0
 10
5.6309710231
 20
3.3742801563
 30
0.0
 10
5.6310010081
 20
3.3743782122
 30
0.0
 10
5.6310051044
 20
3.3744246293
 30
0.0
 11
4.8906048959
 21
3.4039560181
 31
0.0
 11
4.8908801126
 21
3.404069622
 31
0.0
 11
4.8912088674
 21
3.4041785565
 31
0.0
 11
4.8915911133
 21
3.4042828222
 31
0.0
 11
4.8920268037
 21
3.4043824195
 31
0.0
 11
4.8930583303
 21
3.4045676106
 31
0.0
 11
4.8943030714
 21
3.4047341333
 31
0.0
 11
4.8957604279
 21
3.4048820221
 31
0.0
 11
4.8974293432
 21
3.4050113745
 31
0.0
 11
4.8993087041
 21
3.4051222957
 31
0.0
 11
4.9013973976
 21
3.4052148909
 31
0.0
 11
4.9036943104
 21
3.4052892655
 31
0.0
 11
4.9061983281
 21
3.4053455246
 31
0.0
 11
4.9118218903
 21
3.405404216
 31
0.0
 11
4.9182540832
 21
3.4053921822
 31
0.0
 11
4.9254802495
 21
3.4053106889
 31
0.0
 11
4.9334844517
 21
3.4051611186
 31
0.0
 11
4.9422472056
 21
3.404945178
 31
0.0
 11
4.9517484161
 21
3.4046646298
 31
0.0
 11
4.9619667921
 21
3.4043213398
 31
0.0
 11
4.9728777733
 21
3.4039174562
 31
0.0
 11
4.9844562438
 21
3.4034551751
 31
0.0
 11
5.0095079326
 21
3.4023648424
 31
0.0
 11
5.0368888986
 21
3.401070724
 31
0.0
 11
5.0663451418
 21
3.3995950427
 31
0.0
 11
5.0976039554
 21
3.3979616569
 31
0.0
 11
5.1303747737
 21
3.3961959878
 31
0.0
 11
5.1643535158
 21
3.3943246391
 31
0.0
 11
5.1992250989
 21
3.3923751769
 31
0.0
 11
5.234665533
 21
3.3903759467
 31
0.0
 11
5.2703459802
 21
3.388355718
 31
0.0
 11
5.3059352121
 21
3.3863434697
 31
0.0
 11
5.3411027776
 21
3.3843681124
 31
0.0
 11
5.3755224678
 21
3.3824581857
 31
0.0
 11
5.408874483
 21
3.3806416685
 31
0.0
 11
5.4408494122
 21
3.3789456307
 31
0.0
 11
5.4711508423
 21
3.377396005
 31
0.0
 11
5.4994970253
 21
3.3760174414
 31
0.0
 11
5.5256253399
 21
3.3748329161
 31
0.0
 11
5.5492938549
 21
3.3738635953
 31
0.0
 11
5.5601355989
 21
3.3734657686
 31
0.0
 11
5.5702823288
 21
3.3731287478
 31
0.0
 11
5.5797101972
 21
3.3728546192
 31
0.0
 11
5.588396786
 21
3.3726453441
 31
0.0
 11
5.5963229312
 21
3.3725025993
 31
0.0
 11
5.6034699262
 21
3.3724280212
 31
0.0
 11
5.6098206185
 21
3.3724231107
 31
0.0
 11
5.615361348
 21
3.3724890627
 31
0.0
 11
5.617823857
 21
3.3725489725
 31
0.0
 11
5.6200789394
 21
3.3726270299
 31
0.0
 11
5.6221252582
 21
3.3727233517
 31
0.0
 11
5.6239618655
 21
3.3728380209
 31
0.0
 11
5.6255878389
 21
3.3729711181
 31
0.0
 11
5.6270022562
 21
3.3731227242
 31
0.0
 11
5.6282041952
 21
3.3732929196
 31
0.0
 11
5.6291927422
 21
3.3734817845
 31
0.0
 11
5.6296067836
 21
3.3735832363
 31
0.0
 11
5.6299672991
 21
3.373689371
 31
0.0
 11
5.6302742664
 21
3.3738001906
 31
0.0
 11
5.6305276634
 21
3.373915697
 31
0.0
 11
5.6307274678
 21
3.3740358921
 31
0.0
 11
5.6308736576
 21
3.3741607779
 31
0.0
 11
5.6309662105
 21
3.3742903563
 31
0.0
 11
5.6310051044
 21
3.3744246293
 31
0.0
  0
LINE
  5
333
100
AcDbEntity
  8
0
100
AcDbLine
 62
6
  6
CONTINUOUS
 10
4.8968297682
 20
3.4751142635
 11
4.8974137589
 21
3.4753308933
  0
SPLINE
  5
334
100
AcDbEntity
  8
0
100
AcDbSpline
 62
6
  6
CONTINUOUS
 70
0
 71
3
 72
68
 73
64
 74
62
 42
0.0000001
 43
0.0000001
 44
0.0000000001
 12
0.7092272417
 22
0.2149811171
 32
0.0
 13
0.0640056709
 23
0.7383247491
 33
0.0
 40
0.0
 40
0.0
 40
0.0
 40
0.0
 40
0.0005265475
 40
0.0011205522
 40
0.0025134075
 40
0.0041820396
 40
0.0061278589
 40
0.0083513595
 40
0.0108525262
 40
0.0136308965
 40
0.0166851751
 40
0.0236148872
 40
0.0316279762
 40
0.0407087714
 40
0.0508362475
 40
0.0619877358
 40
0.0741394223
 40
0.0872627891
 40
0.1013278833
 40
0.1163038593
 40
0.1321556696
 40
0.1663405608
 40
0.2035707173
 40
0.243506348
 40
0.2857811912
 40
0.3300086995
 40
0.3757842133
 40
0.4226880843
 40
0.4702911099
 40
0.5181572384
 40
0.5658480391
 40
0.6129269322
 40
0.6589624015
 40
0.7035332971
 40
0.7462315225
 40
0.7866656761
 40
0.8244665841
 40
0.8592882861
 40
0.8908119988
 40
0.9052467791
 40
0.9187513726
 40
0.9312956444
 40
0.9428518454
 40
0.9533927169
 40
0.962895227
 40
0.9713391739
 40
0.9787051063
 40
0.981979086
 40
0.9849785254
 40
0.9877021509
 40
0.9901488291
 40
0.9923176434
 40
0.9942083324
 40
0.995821786
 40
0.9971599936
 40
0.9977271371
 40
0.9982273272
 40
0.9986618801
 40
0.9990328612
 40
0.9993436667
 40
0.9996001693
 40
0.9998129043
 40
1.0
 40
1.0
 40
1.0
 40
1.0
 10
4.8974137589
 20
3.4753308933
 30
0.0
 10
4.8975382395
 20
3.4753686259
 30
0.0
 10
4.8978054314
 20
3.4754414459
 30
0.0
 10
4.8984108103
 20
3.4755798955
 30
0.0
 10
4.8993006686
 20
3.4757365262
 30
0.0
 10
4.900527114
 20
3.4758990397
 30
0.0
 10
4.9019621522
 20
3.4760440442
 30
0.0
 10
4.9036051433
 20
3.4761714796
 30
0.0
 10
4.9054554621
 20
3.4762811727
 30
0.0
 10
4.9075121799
 20
3.4763731078
 30
0.0
 10
4.9106632499
 20
3.476476375
 30
0.0
 10
4.9151086446
 20
3.4765545196
 30
0.0
 10
4.9210433048
 20
3.4765765889
 30
0.0
 10
4.9277677767
 20
3.4765304869
 30
0.0
 10
4.9352668006
 20
3.4764175225
 30
0.0
 10
4.9435233341
 20
3.4762388925
 30
0.0
 10
4.9525185864
 20
3.475996004
 30
0.0
 10
4.9622320621
 20
3.4756906491
 30
0.0
 10
4.9726415868
 20
3.4753246865
 30
0.0
 10
4.9837234174
 20
3.4749000748
 30
0.0
 10
4.9997701066
 20
3.4742418893
 30
0.0
 10
5.0213064493
 20
3.473282259
 30
0.0
 10
5.0487819526
 20
3.4719633887
 30
0.0
 10
5.0782497954
 20
3.4704711681
 30
0.0
 10
5.10944075
 20
3.4688289945
 30
0.0
 10
5.1420696973
 20
3.467061544
 30
0.0
 10
5.1758384291
 20
3.4651947483
 30
0.0
 10
5.2104382748
 20
3.4632555087
 30
0.0
 10
5.245552857
 20
3.4612713772
 30
0.0
 10
5.2808611899
 20
3.4592703505
 30
0.0
 10
5.316040476
 20
3.457280582
 30
0.0
 10
5.3507690304
 20
3.4553301077
 30
0.0
 10
5.3847294122
 20
3.4534466189
 30
0.0
 10
5.417611169
 20
3.4516571381
 30
0.0
 10
5.4491136906
 20
3.4499878041
 30
0.0
 10
5.4789491143
 20
3.4484636483
 30
0.0
 10
5.5068448002
 20
3.4471081719
 30
0.0
 10
5.532545873
 20
3.4459433897
 30
0.0
 10
5.5524844452
 20
3.44512562
 30
0.0
 10
5.5671639404
 20
3.4445899014
 30
0.0
 10
5.5771592501
 20
3.4442600291
 30
0.0
 10
5.5864450397
 20
3.4439919203
 30
0.0
 10
5.5950001316
 20
3.4437872875
 30
0.0
 10
5.6028050281
 20
3.4436478247
 30
0.0
 10
5.6098419981
 20
3.4435748336
 30
0.0
 10
5.6160950523
 20
3.4435694374
 30
0.0
 10
5.620809248
 20
3.4436236542
 30
0.0
 10
5.6241776105
 20
3.4437070083
 30
0.0
 10
5.6263988487
 20
3.4437847544
 30
0.0
 10
5.6284148339
 20
3.4438801931
 30
0.0
 10
5.6302243789
 20
3.4439933568
 30
0.0
 10
5.6318263861
 20
3.4441242477
 30
0.0
 10
5.6332201031
 20
3.4442727321
 30
0.0
 10
5.6344049723
 20
3.4444387038
 30
0.0
 10
5.6352599966
 20
3.4445985047
 30
0.0
 10
5.6358373649
 20
3.4447397681
 30
0.0
 10
5.6361935309
 20
3.4448442464
 30
0.0
 10
5.6364974149
 20
3.4449531121
 30
0.0
 10
5.6367492439
 20
3.4450664349
 30
0.0
 10
5.636949496
 20
3.4451844333
 30
0.0
 10
5.6370988065
 20
3.4453080625
 30
0.0
 10
5.6371973353
 20
3.4454395347
 30
0.0
 10
5.6372267238
 20
3.4455367653
 30
0.0
 10
5.6372307155
 20
3.4455828111
 30
0.0
 11
4.8974137589
 21
3.4753308933
 31
0.0
 11
4.8977899436
 21
3.4754346123
 31
0.0
 11
4.8982188558
 21
3.4755337182
 31
0.0
 11
4.899234487
 21
3.4757181239
 31
0.0
 11
4.9004599007
 21
3.4758841759
 31
0.0
 11
4.9018943449
 21
3.4760319401
 31
0.0
 11
4.9035370678
 21
3.4761614823
 31
0.0
 11
4.9053873174
 21
3.4762728683
 31
0.0
 11
4.9074442356
 21
3.4763661731
 31
0.0
 11
4.9097064886
 21
3.4764415134
 31
0.0
 11
4.9148411341
 21
3.4765388138
 31
0.0
 11
4.9207795241
 21
3.4765657957
 31
0.0
 11
4.9275091135
 21
3.4765235566
 31
0.0
 11
4.9350137174
 21
3.4764135125
 31
0.0
 11
4.9432761357
 21
3.4762371682
 31
0.0
 11
4.952278449
 21
3.4759960915
 31
0.0
 11
4.9619993454
 21
3.4756921469
 31
0.0
 11
4.9724165133
 21
3.4753272865
 31
0.0
 11
4.9835070244
 21
3.4749035162
 31
0.0
 11
4.9952448773
 21
3.4744231108
 31
0.0
 11
5.0205542676
 21
3.4733018734
 31
0.0
 11
5.0481138066
 21
3.4719837735
 31
0.0
 11
5.0776721782
 21
3.4704907984
 31
0.0
 11
5.1089586342
 21
3.4688466355
 31
0.0
 11
5.1416875247
 21
3.4670762759
 31
0.0
 11
5.175559877
 21
3.4652058764
 31
0.0
 11
5.2102656849
 21
3.463262559
 31
0.0
 11
5.2454879102
 21
3.4612740609
 31
0.0
 11
5.2809044694
 21
3.4592685608
 31
0.0
 11
5.3161915276
 21
3.4572743906
 31
0.0
 11
5.3510266129
 21
3.4553197629
 31
0.0
 11
5.3850909819
 21
3.4534325641
 31
0.0
 11
5.4180735252
 21
3.4516400128
 31
0.0
 11
5.4496727404
 21
3.449968487
 31
0.0
 11
5.4795994045
 21
3.4484432905
 31
0.0
 11
5.5075806381
 21
3.4470882971
 31
0.0
 11
5.5333605959
 21
3.4459258904
 31
0.0
 11
5.5567033369
 21
3.4449767125
 31
0.0
 11
5.5673937978
 21
3.444587942
 31
0.0
 11
5.5773965734
 21
3.4442593362
 31
0.0
 11
5.5866892366
 21
3.4439928572
 31
0.0
 11
5.5952510713
 21
3.4437903174
 31
0.0
 11
5.6030616487
 21
3.4436535041
 31
0.0
 11
5.6101035573
 21
3.4435839406
 31
0.0
 11
5.6163613147
 21
3.4435829814
 31
0.0
 11
5.6218197265
 21
3.4436519559
 31
0.0
 11
5.6242452846
 21
3.4437130089
 31
0.0
 11
5.6264667498
 21
3.4437919177
 31
0.0
 11
5.6284828861
 21
3.4438887905
 31
0.0
 11
5.6302924573
 21
3.4440037353
 31
0.0
 11
5.6318942299
 21
3.4441368602
 31
0.0
 11
5.6332872052
 21
3.4442882525
 31
0.0
 11
5.6344708211
 21
3.4444579614
 31
0.0
 11
5.6354445627
 21
3.4446460319
 31
0.0
 11
5.6358525698
 21
3.4447469668
 31
0.0
 11
5.6362079152
 21
3.444852509
 31
0.0
 11
5.6365105345
 21
3.4449626642
 31
0.0
 11
5.6367603635
 21
3.4450774379
 31
0.0
 11
5.6369573377
 21
3.4451968358
 31
0.0
 11
5.6371013943
 21
3.4453208634
 31
0.0
 11
5.637192512
 21
3.4454495225
 31
0.0
 11
5.6372307155
 21
3.4455828111
 31
0.0
  0
ENDSEC
  0
SECTION
  2
OBJECTS
  0
DICTIONARY
  5
C
100
AcDbDictionary
280
0
281
1
  3
ACAD_GROUP
350
D
  3
ACAD_MLINESTYLE
350
17
  3
ACAD_LAYOUT
350
1A
  3
ACAD_PLOTSETTINGS
350
19
  3
ACAD_PLOTSTYLENAME
350
E
  0
DICTIONARY
  5
D
102
{ACAD_REACTORS
330
C
102
}
100
AcDbDictionary
280
0
281
1
  0
ACDBDICTIONARYWDFLT
  5
E
102
{ACAD_REACTORS
330
C
102
}
100
AcDbDictionary
281
1
  3
Normal
350
F
100
AcDbDictionaryWithDefault
340
F
  0
DICTIONARY
  5
17
102
{ACAD_REACTORS
330
C
102
}
100
AcDbDictionary
280
0
281
1
  3
Standard
350
18
  0
DICTIONARY
  5
19
102
{ACAD_REACTORS
330
C
102
}
100
AcDbDictionary
281
1
  0
DICTIONARY
  5
1A
102
{ACAD_REACTORS
330
C
102
}
100
AcDbDictionary
281
1
  3
Model
350
335
  3
Layout1
350
336
  0
ACDBPLACEHOLDER
  5
F
102
{ACAD_REACTORS
330
E
102
}
  0
MLINESTYLE
  5
18
102
{ACAD_REACTORS
330
17
102
}
100
AcDbMlineStyle
  2
STANDARD
 70
0
  3

 62
256
 51
90.0
 52
90.0
 71
2
 49
0.5
 62
256
  6
BYLAYER
 49
-0.5
 62
256
  6
BYLAYER
  0
LAYOUT
  5
335
102
{ACAD_REACTORS
330
1A
102
}
100
AcDbPlotSettings
  1

  2
none_device
  4
ISO_A4_(297.00_x_210.00_MM)
  6

 40
0.0
 41
0.0
 42
0.0
 43
0.0
 44
297.0
 45
210.0
 46
0.0
 47
0.0
 48
0.0
 49
0.0
140
0.0
141
0.0
142
1.0
143
1.0
 70
1024
 72
0
 73
0
 74
0
  7

 75
0
147
1.0
148
0.0
149
0.0
100
AcDbLayout
  1
Model
 70
0
 71
0
 10
0.0
 20
0.0
 11
11.6929133858
 21
8.2677165354
 12
0.0
 22
0.0
 32
0.0
 14
0.0
 24
0.0
 34
0.0
 15
0.0
 25
0.0
 35
0.0
146
0.0
 13
0.0
 23
0.0
 33
0.0
 16
1.0
 26
0.0
 36
0.0
 17
0.0
 27
1.0
 37
0.0
 76
0
330
203
345
0
346
0
  0
LAYOUT
  5
336
102
{ACAD_REACTORS
330
1A
102
}
100
AcDbPlotSettings
  1

  2
none_device
  4
ISO_A4_(297.00_x_210.00_MM)
  6

 40
0.0
 41
0.0
 42
0.0
 43
0.0
 44
297.0
 45
210.0
 46
0.0
 47
0.0
 48
0.0
 49
0.0
140
0.0
141
0.0
142
1.0
143
1.0
 70
0
 72
0
 73
0
 74
0
  7

 75
0
147
1.0
148
0.0
149
0.0
100
AcDbLayout
  1
Layout1
 70
0
 71
1
 10
0.0
 20
0.0
 11
11.6929133858
 21
8.2677165354
 12
0.0
 22
0.0
 32
0.0
 14
0.0
 24
0.0
 34
0.0
 15
0.0
 25
0.0
 35
0.0
146
0.0
 13
0.0
 23
0.0
 33
0.0
 16
1.0
 26
0.0
 36
0.0
 17
0.0
 27
1.0
 37
0.0
 76
0
330
204
345
0
346
0
  0
ENDSEC
  0
EOF
