  0
SECTION
  2
HEADER
  9
$ACADVER
  1
AC1021
  9
$DWGCODEPAGE
  3
ANSI_1252
  9
$EXTMAX
 10
11.6929133858
 20
8.2677165354
 30
0.0
  9
$EXTMIN
 10
0.0
 20
0.0
 30
0.0
  9
$LIMMIN
 10
0.0
 20
0.0
  9
$LIMMAX
 10
11.6929133858
 20
8.2677165354
  9
$VIEWCTR
 10
5.8464566929
 20
4.1338582677
  9
$VIEWSIZE
 40
8.2677165354
  9
$CLAYER
  8
0
  9
$LTSCALE
 40
0.6431102362
  9
$CELTYPE
  6
BYLAYER
  9
$DIMSCALE
 40
1.0
  9
$DIMASZ
 40
0.1875
  9
$DIMEXO
 40
0.0730807087
  9
$DIMDLI
 40
0.4443307087
  9
$DIMEXE
 40
0.2104724409
  9
$DIMCEN
 40
0.1052362205
  9
$DIMLFAC
 40
1.0
  9
$DIMBLK
  1
_CLOSED
  9
$DIMTXT
 40
0.15625
  9
$DIMTOL
 70
0
  9
$DIMLIM
 70
0
  9
$DIMTFAC
 40
1.0
  9
$PDMODE
 70
3
  9
$PDSIZE
 40
0.3125
  9
$HANDSEED
  5
2C8
  9
$TILEMODE
 70
1
  9
$MEASUREMENT
 70
0
  9
$INSUNITS
 70
1
  0
ENDSEC
  0
SECTION
  2
CLASSES
  0
CLASS
  1
ACDBDICTIONARYWDFLT
  2
AcDbDictionaryWithDefault
  3
AutoCAD 2000
 90
0
 91
1
280
0
281
0
  0
CLASS
  1
ACDBPLACEHOLDER
  2
AcDbPlaceHolder
  3
AutoCAD 2000
 90
0
 91
1
280
0
281
0
  0
CLASS
  1
LAYOUT
  2
AcDbLayout
  3
AutoCAD 2000
 90
0
 91
0
280
0
281
0
  0
ENDSEC
  0
SECTION
  2
TABLES
  0
TABLE
  2
VPORT
  5
8
100
AcDbSymbolTable
 70
2
  0
VPORT
  5
1F4
100
AcDbSymbolTableRecord
100
AcDbViewportTableRecord
  2
*ACTIVE
 70
0
 10
0.0
 20
0.0
 11
1.0
 21
1.0
 12
5.8464566929
 22
4.1338582677
 13
0.0
 23
0.0
 14
1.0
 24
1.0
 15
0.0
 25
0.0
 16
0.0
 26
0.0
 36
1.0
 17
0.0
 27
0.0
 37
0.0
 40
8.2677165354
 41
1.4142857143
 42
50.0
 43
0.0
 44
0.0
 50
0.0
 51
0.0
 71
0
 72
100
 73
1
 74
1
 75
0
 76
0
 77
0
 78
0
  0
ENDTAB
  0
TABLE
  2
LTYPE
  5
5
100
AcDbSymbolTable
 70
6
  0
LTYPE
  5
14
100
AcDbSymbolTableRecord
100
AcDbLinetypeTableRecord
  2
BYBLOCK
 70
0
  3

 72
65
 73
0
 40
0.0
  0
LTYPE
  5
15
100
AcDbSymbolTableRecord
100
AcDbLinetypeTableRecord
  2
BYLAYER
 70
0
  3

 72
65
 73
0
 40
0.0
  0
LTYPE
  5
16
100
AcDbSymbolTableRecord
100
AcDbLinetypeTableRecord
  2
CONTINUOUS
 70
64
  3
Solid line
 72
65
 73
0
 40
0.0
  0
LTYPE
  5
1F5
100
AcDbSymbolTableRecord
100
AcDbLinetypeTableRecord
  2
CENTER
 70
64
  3
____ _ ____ _ ____ _ ____ _ ____ _ ____ _ ____
 72
65
 73
4
 40
0.6
 49
0.375
 74
0
 49
-0.075
 74
0
 49
0.075
 74
0
 49
-0.075
 74
0
  0
LTYPE
  5
1F6
100
AcDbSymbolTableRecord
100
AcDbLinetypeTableRecord
  2
HIDDEN
 70
64
  3
- - - - - - - - - - - - - - - - - - - -
 72
65
 73
2
 40
0.2
 49
0.1
 74
0
 49
-0.1
 74
0
  0
LTYPE
  5
1F7
100
AcDbSymbolTableRecord
100
AcDbLinetypeTableRecord
  2
PHANTOM
 70
64
  3
_____ _ _ _____ _ _ _____ _ _ _____
 72
65
 73
6
 40
0.8
 49
0.45
 74
0
 49
-0.05
 74
0
 49
0.1
 74
0
 49
-0.05
 74
0
 49
0.1
 74
0
 49
-0.05
 74
0
  0
LTYPE
  5
1F8
100
AcDbSymbolTableRecord
100
AcDbLinetypeTableRecord
  2
DOT
 70
64
  3
. . . . . . . . . . . . . . . . . . . .
 72
65
 73
2
 40
0.2
 49
0.1
 74
0
 49
-0.1
 74
0
  0
LTYPE
  5
1F9
100
AcDbSymbolTableRecord
100
AcDbLinetypeTableRecord
  2
DASHED
 70
64
  3
- - - - - - - - - - - - - - - - - - - -
 72
65
 73
2
 40
0.2
 49
0.1
 74
0
 49
-0.1
 74
0
  0
ENDTAB
  0
TABLE
  2
LAYER
  5
2
100
AcDbSymbolTable
 70
36
  0
LAYER
  5
10
100
AcDbSymbolTableRecord
100
AcDbLayerTableRecord
  2
0
 70
0
 62
7
  6
CONTINUOUS
370
-3
390
F
  0
LAYER
  5
1FA
100
AcDbSymbolTableRecord
100
AcDbLayerTableRecord
  2
DEFAULT_1
 70
0
 62
7
  6
CENTER
370
-3
390
F
  0
LAYER
  5
1FB
100
AcDbSymbolTableRecord
100
AcDbLayerTableRecord
  2
DEFAULT_2
 70
0
 62
8
  6
HIDDEN
370
-3
390
F
  0
LAYER
  5
1FC
100
AcDbSymbolTableRecord
100
AcDbLayerTableRecord
  2
DEFAULT_3
 70
0
 62
7
  6
PHANTOM
370
-3
390
F
  0
LAYER
  5
1FD
100
AcDbSymbolTableRecord
100
AcDbLayerTableRecord
  2
DEFAULT_COORDINATE_SYSTEM
 70
0
 62
7
  6
CONTINUOUS
370
-3
390
F
  0
LAYER
  5
1FE
100
AcDbSymbolTableRecord
100
AcDbLayerTableRecord
  2
DEFAULT_DATUM_AXES
 70
0
 62
7
  6
CONTINUOUS
370
-3
390
F
  0
LAYER
  5
1FF
100
AcDbSymbolTableRecord
100
AcDbLayerTableRecord
  2
DEFAULT_DATUM_CURVES
 70
0
 62
7
  6
CONTINUOUS
370
-3
390
F
  0
LAYER
  5
200
100
AcDbSymbolTableRecord
100
AcDbLayerTableRecord
  2
DEFAULT_DATUM_PLANES
 70
0
 62
7
  6
CONTINUOUS
370
-3
390
F
  0
ENDTAB
  0
TABLE
  2
STYLE
  5
3
100
AcDbSymbolTable
 70
1
  0
STYLE
  5
11
100
AcDbSymbolTableRecord
100
AcDbTextStyleTableRecord
  2
STANDARD
 70
0
 40
0.0
 41
0.8
 50
0.0
 71
0
 42
0.2
  3
txt
  4

  0
STYLE
  5
201
100
AcDbSymbolTableRecord
100
AcDbTextStyleTableRecord
  2
TEXTSTYLE_1
 70
0
 40
0.0
 41
0.8
 50
0.0
 71
0
 42
0.2
  3
gdt
  4

  0
ENDTAB
  0
TABLE
  2
VIEW
  5
6
100
AcDbSymbolTable
 70
0
  0
ENDTAB
  0
TABLE
  2
UCS
  5
7
100
AcDbSymbolTable
 70
0
  0
ENDTAB
  0
TABLE
  2
APPID
  5
9
100
AcDbSymbolTable
 70
1
  0
APPID
  5
202
100
AcDbSymbolTableRecord
100
AcDbRegAppTableRecord
  2
ACAD
 70
0
  0
ENDTAB
  0
TABLE
  2
BLOCK_RECORD
  5
1
100
AcDbSymbolTable
 70
0
  0
BLOCK_RECORD
  5
203
100
AcDbSymbolTableRecord
100
AcDbBlockTableRecord
  2
*Model_Space
  0
BLOCK_RECORD
  5
204
100
AcDbSymbolTableRecord
100
AcDbBlockTableRecord
  2
*Paper_Space
  0
ENDTAB
  0
TABLE
  2
DIMSTYLE
  5
A
100
AcDbSymbolTable
 70
1
100
AcDbDimStyleTable
 71
0
  0
DIMSTYLE
105
205
100
AcDbSymbolTableRecord
100
AcDbDimStyleTableRecord
  2
STANDARD
 70
0
  3

  4

 40
1.0
 41
0.1875
 42
0.0625
 43
0.38
 44
0.18
 45
0.0
 46
0.0
 47
0.001
 48
0.001
140
0.15625
141
0.09
142
0.0
143
25.4
144
1.0
145
0.0
146
1.0
147
0.09
 71
0.0
 72
0.0
 73
1
 74
1
 75
0
 76
0
 77
0
 78
4
170
0
171
2
172
0
173
0
174
0
175
0
176
0
177
0
178
0
270
2
271
3
272
3
273
2
274
2
275
0
280
0
281
0
282
0
283
1
284
4
285
0
286
0
287
3
288
0
340
11
  0
ENDTAB
  0
ENDSEC
  0
SECTION
  2
BLOCKS
  0
BLOCK
  5
20
100
AcDbEntity
  8
0
100
AcDbBlockBegin
  2
*Model_Space
 70
0
 10
0.0
 20
0.0
 30
0.0
  3
*Model_Space
  1

  0
ENDBLK
  5
21
100
AcDbEntity
  8
0
100
AcDbBlockEnd
  0
BLOCK
  5
1C
100
AcDbEntity
  8
0
100
AcDbBlockBegin
  2
*Paper_Space
 70
0
 10
0.0
 20
0.0
 30
0.0
  3
*Paper_Space
  1

  0
ENDBLK
  5
1D
100
AcDbEntity
  8
0
100
AcDbBlockEnd
  0
ENDSEC
  0
SECTION
  2
ENTITIES
  0
LINE
  5
206
100
AcDbEntity
  8
0
100
AcDbLine
 62
9
  6
CONTINUOUS
 10
5.4786719082
 20
3.6825672447
 11
5.4786726892
 21
3.6825662816
  0
LWPOLYLINE
  5
207
100
AcDbEntity
  8
0
100
AcDbPolyline
 62
6
  6
CONTINUOUS
 90
4
 70
0
 10
5.4786716861
 20
3.6825675185
 10
5.5154427874
 20
3.6374452532
 10
5.5215719251
 20
3.6296797849
 10
5.5273625236
 20
3.6221487029
  0
LINE
  5
208
100
AcDbEntity
  8
0
100
AcDbLine
 62
9
  6
CONTINUOUS
 10
5.4725097931
 20
3.6908967574
 11
5.4662076218
 21
3.6988151882
  0
LINE
  5
209
100
AcDbEntity
  8
0
100
AcDbLine
 62
9
  6
CONTINUOUS
 10
5.4722714438
 20
3.6912492091
 11
5.4655425669
 21
3.6997353047
  0
LWPOLYLINE
  5
20A
100
AcDbEntity
  8
0
100
AcDbPolyline
 62
6
  6
CONTINUOUS
 90
3
 70
0
 10
5.4662076218
 20
3.6988151882
 10
5.4770357137
 20
3.6845995193
 10
5.4786722705
 20
3.6825668043
  0
LINE
  5
20B
100
AcDbEntity
  8
0
100
AcDbLine
 62
6
  6
CONTINUOUS
 10
5.4655425669
 20
3.6997353047
 11
5.4662073592
 21
3.6988155494
  0
LINE
  5
20C
100
AcDbEntity
  8
0
100
AcDbLine
 62
9
  6
CONTINUOUS
 10
5.4655425669
 20
3.6997353047
 11
5.4655354014
 21
3.6997452704
  0
LWPOLYLINE
  5
20D
100
AcDbEntity
  8
0
100
AcDbPolyline
 62
6
  6
CONTINUOUS
 90
4
 70
0
 10
5.4457702295
 20
3.735133971
 10
5.4499883958
 20
3.7259925551
 10
5.4574328746
 20
3.7121583075
 10
5.4655354529
 20
3.6997453074
  0
LINE
  5
20E
100
AcDbEntity
  8
0
100
AcDbLine
 62
9
  6
CONTINUOUS
 10
5.44576702
 20
3.7351412807
 11
5.4457685725
 21
3.7351377184
  0
LWPOLYLINE
  5
20F
100
AcDbEntity
  8
0
100
AcDbPolyline
 62
6
  6
CONTINUOUS
 90
20
 70
0
 10
5.3467106344
 20
4.3083392149
 10
5.3510493391
 20
4.2637336041
 10
5.3555451064
 20
4.2190604784
 10
5.3600174924
 20
4.1763465077
 10
5.3644652272
 20
4.1357316818
 10
5.3688874176
 20
4.0973295323
 10
5.3732876873
 20
4.0611826361
 10
5.3776762911
 20
4.0272681231
 10
5.3820687705
 20
3.9955229981
 10
5.3864875683
 20
3.9658405473
 10
5.3909625326
 20
3.9380689084
 10
5.395543001
 20
3.9119669874
 10
5.4002586944
 20
3.8874413259
 10
5.4051261444
 20
3.8644552468
 10
5.4103250763
 20
3.842271618
 10
5.4161078639
 20
3.8201150498
 10
5.4227677472
 20
3.7973775825
 10
5.4304151514
 20
3.7742693934
 10
5.438966877
 20
3.7514533097
 10
5.4457680645
 20
3.7351388835
  0
LINE
  5
210
100
AcDbEntity
  8
0
100
AcDbLine
 62
6
  6
CONTINUOUS
 10
5.338881482
 20
4.3920869176
 11
5.3467107272
 21
4.3083382467
  0
LWPOLYLINE
  5
211
100
AcDbEntity
  8
0
100
AcDbPolyline
 62
6
  6
CONTINUOUS
 90
6
 70
0
 10
5.265311024
 20
5.2704932952
 10
5.3067671205
 20
4.766331417
 10
5.314858336
 20
4.6688539192
 10
5.3228945921
 20
4.5736517862
 10
5.3308958569
 20
4.4812393344
 10
5.338881482
 20
4.3920869176
  0
LINE
  5
212
100
AcDbEntity
  8
0
100
AcDbLine
 62
6
  6
CONTINUOUS
 10
5.340311024
 20
5.2704932952
 11
5.340311024
 21
5.2804932952
  0
LINE
  5
213
100
AcDbEntity
  8
0
100
AcDbLine
 62
9
  6
CONTINUOUS
 10
5.890311024
 20
5.2704932952
 11
5.890311024
 21
3.4422247076
  0
LINE
  5
214
100
AcDbEntity
  8
0
100
AcDbLine
 62
6
  6
CONTINUOUS
 10
6.440311024
 20
5.2704932952
 11
6.440311024
 21
5.2804932952
  0
LWPOLYLINE
  5
215
100
AcDbEntity
  8
0
100
AcDbPolyline
 62
6
  6
CONTINUOUS
 90
7
 70
0
 10
6.4339113209
 20
4.3083382467
 10
6.4417405661
 20
4.3920869176
 10
6.4497261912
 20
4.4812393344
 10
6.457727456
 20
4.5736517862
 10
6.465763712
 20
4.6688539192
 10
6.4738549276
 20
4.766331417
 10
6.515311024
 20
5.2704932952
  0
LWPOLYLINE
  5
216
100
AcDbEntity
  8
0
100
AcDbPolyline
 62
6
  6
CONTINUOUS
 90
20
 70
0
 10
6.3348540272
 20
3.7351389835
 10
6.3417041409
 20
3.7515762058
 10
6.350244143
 20
3.7743752289
 10
6.3578835771
 20
3.7974717945
 10
6.3645385954
 20
3.8202035529
 10
6.3703188123
 20
3.8423600909
 10
6.3755159282
 20
3.8645452469
 10
6.3803810346
 20
3.887529018
 10
6.3850933824
 20
3.9120451056
 10
6.3896710724
 20
3.9381377062
 10
6.3941435932
 20
3.9658994413
 10
6.3985601918
 20
3.9955712173
 10
6.4029506826
 20
4.0273049658
 10
6.4073375331
 20
4.0612079325
 10
6.4117363265
 20
4.0973438682
 10
6.4161573503
 20
4.1357364
 10
6.4206042692
 20
4.1763438296
 10
6.4250762499
 20
4.2190537335
 10
6.4295720885
 20
4.2637273265
 10
6.4339114136
 20
4.308339214
  0
LINE
  5
217
100
AcDbEntity
  8
0
100
AcDbLine
 62
9
  6
CONTINUOUS
 10
6.3348562831
 20
3.7351441612
 11
6.3348530789
 21
3.7351368092
  0
LWPOLYLINE
  5
218
100
AcDbEntity
  8
0
100
AcDbPolyline
 62
6
  6
CONTINUOUS
 90
4
 70
0
 10
6.3150851421
 20
3.699743311
 10
6.3232889166
 20
3.7123267006
 10
6.3307982798
 20
3.7263299885
 10
6.3348505603
 20
3.735131069
  0
LINE
  5
219
100
AcDbEntity
  8
0
100
AcDbLine
 62
9
  6
CONTINUOUS
 10
6.3150852053
 20
3.6997432656
 11
6.3150794817
 21
3.6997353055
  0
LINE
  5
21A
100
AcDbEntity
  8
0
100
AcDbLine
 62
6
  6
CONTINUOUS
 10
6.3144146879
 20
3.698815548
 11
6.3150794817
 21
3.6997353055
  0
LINE
  5
21B
100
AcDbEntity
  8
0
100
AcDbLine
 62
6
  6
CONTINUOUS
 10
6.3035858639
 20
3.6845989312
 11
6.3144143614
 21
3.6988150999
  0
LWPOLYLINE
  5
21C
100
AcDbEntity
  8
0
100
AcDbPolyline
 62
6
  6
CONTINUOUS
 90
4
 70
0
 10
6.2532595245
 20
3.6221487029
 10
6.259050123
 20
3.6296797849
 10
6.2651792606
 20
3.6374452532
 10
6.2711720768
 20
3.6448461035
  0
LINE
  5
21D
100
AcDbEntity
  8
0
100
AcDbLine
 62
9
  6
CONTINUOUS
 10
6.3150794817
 20
3.6997353055
 11
6.3083506043
 21
3.6912492091
  0
LINE
  5
21E
100
AcDbEntity
  8
0
100
AcDbLine
 62
9
  6
CONTINUOUS
 10
6.3144143614
 20
3.6988150999
 11
6.3081122546
 21
3.6908967577
  0
LINE
  5
21F
100
AcDbEntity
  8
0
100
AcDbLine
 62
6
  6
CONTINUOUS
 10
6.2963176965
 20
3.6756308351
 11
6.3035858639
 21
3.6845989312
  0
LINE
  5
220
100
AcDbEntity
  8
0
100
AcDbLine
 62
6
  6
CONTINUOUS
 10
6.2711723715
 20
3.644846463
 11
6.2963176965
 21
3.6756308351
  0
LINE
  5
221
100
AcDbEntity
  8
0
100
AcDbLine
 62
6
  6
CONTINUOUS
 10
5.265311024
 20
5.2704932952
 11
6.515311024
 21
5.2704932952
  0
LINE
  5
222
100
AcDbEntity
  8
0
100
AcDbLine
 62
6
  6
CONTINUOUS
 10
5.340311024
 20
5.2804932952
 11
6.440311024
 21
5.2804932952
  0
ARC
  5
223
100
AcDbEntity
  8
0
100
AcDbCircle
 62
9
  6
CONTINUOUS
 10
-173.1354796859
 20
-1.5489786509
 40
178.8488970151
100
AcDbArc
 50
2.0235610659
 51
2.185206104
  0
ARC
  5
224
100
AcDbEntity
  8
0
100
AcDbCircle
 62
9
  6
CONTINUOUS
 10
-59.8928989326
 20
1.4335187399
 40
65.3891616316
100
AcDbArc
 50
2.9796909156
 51
3.3639947803
  0
ARC
  5
225
100
AcDbEntity
  8
0
100
AcDbCircle
 62
9
  6
CONTINUOUS
 10
-7.3074304253
 20
5.2415260412
 40
13.4945387707
100
AcDbArc
 50
357.8674375164
 51
357.9816678723
  0
ARC
  5
226
100
AcDbEntity
  8
0
100
AcDbCircle
 62
9
  6
CONTINUOUS
 10
-5.5916339422
 20
5.4113593624
 40
11.8975814274
100
AcDbArc
 50
356.7430808754
 51
356.873869167
  0
ARC
  5
227
100
AcDbEntity
  8
0
100
AcDbCircle
 62
9
  6
CONTINUOUS
 10
3.2610700231
 20
2.4694951752
 40
2.5586512113
100
AcDbArc
 50
25.5983141057
 51
25.9837322643
  0
ARC
  5
228
100
AcDbEntity
  8
0
100
AcDbCircle
 62
9
  6
CONTINUOUS
 10
3.5987063945
 20
2.7915767525
 40
2.1199336902
100
AcDbArc
 50
21.6874529839
 51
22.0798481126
  0
ARC
  5
229
100
AcDbEntity
  8
0
100
AcDbCircle
 62
9
  6
CONTINUOUS
 10
4.8464864844
 20
4.6784229533
 40
1.732874108
100
AcDbArc
 50
317.3938846175
 51
318.1792532749
  0
ARC
  5
22A
100
AcDbEntity
  8
0
100
AcDbCircle
 62
9
  6
CONTINUOUS
 10
4.7232295375
 20
4.3759440737
 40
1.6475101463
100
AcDbArc
 50
328.1003857489
 51
328.6265319978
  0
ARC
  5
22B
100
AcDbEntity
  8
0
100
AcDbCircle
 62
9
  6
CONTINUOUS
 10
5.6573152789
 20
5.4701418316
 40
1.4892714711
100
AcDbArc
 50
294.9417187647
 51
297.7887578457
  0
ARC
  5
22C
100
AcDbEntity
  8
0
100
AcDbCircle
 62
9
  6
CONTINUOUS
 10
5.8312908783
 20
4.1070281035
 40
0.6328175655
100
AcDbArc
 50
309.1851180659
 51
318.926392679
  0
ARC
  5
22D
100
AcDbEntity
  8
0
100
AcDbCircle
 62
9
  6
CONTINUOUS
 10
5.7342370084
 20
3.8844118606
 40
0.5418432788
100
AcDbArc
 50
318.154974622
 51
322.1203357444
  0
ARC
  5
22E
100
AcDbEntity
  8
0
100
AcDbCircle
 62
9
  6
CONTINUOUS
 10
5.8735592533
 20
3.9708132401
 40
0.5141503005
100
AcDbArc
 50
312.2916138341
 51
320.6547428133
  0
ARC
  5
22F
100
AcDbEntity
  8
0
100
AcDbCircle
 62
6
  6
CONTINUOUS
 10
5.8898901152
 20
3.8976683676
 40
0.4553757077
100
AcDbArc
 50
225.1220375143
 51
239.4894425748
  0
ARC
  5
230
100
AcDbEntity
  8
0
100
AcDbCircle
 62
6
  6
CONTINUOUS
 10
5.8890679075
 20
3.8966350814
 40
0.4540633841
100
AcDbArc
 50
217.1936727938
 51
225.1035565203
  0
ARC
  5
231
100
AcDbEntity
  8
0
100
AcDbCircle
 62
9
  6
CONTINUOUS
 10
5.8764007502
 20
3.8878018564
 40
0.4332709353
100
AcDbArc
 50
223.7011384101
 51
237.364013186
  0
ARC
  5
232
100
AcDbEntity
  8
0
100
AcDbCircle
 62
9
  6
CONTINUOUS
 10
5.7864999929
 20
4.2678321992
 40
0.3148478575
100
AcDbArc
 50
211.4131287
 51
217.0249321273
  0
ARC
  5
233
100
AcDbEntity
  8
0
100
AcDbCircle
 62
9
  6
CONTINUOUS
 10
5.6088799675
 20
4.8408636677
 40
0.1403848675
100
AcDbArc
 50
210.4476150073
 51
213.9150109226
  0
ARC
  5
234
100
AcDbEntity
  8
0
100
AcDbCircle
 62
9
  6
CONTINUOUS
 10
5.6898304511
 20
3.6451693863
 40
0.1172937243
100
AcDbArc
 50
232.4236913881
 51
244.2107839368
  0
ARC
  5
235
100
AcDbEntity
  8
0
100
AcDbCircle
 62
9
  6
CONTINUOUS
 10
5.6898317082
 20
3.6446765307
 40
0.1170475737
100
AcDbArc
 50
232.5797759062
 51
244.2230126409
  0
ARC
  5
236
100
AcDbEntity
  8
0
100
AcDbCircle
 62
9
  6
CONTINUOUS
 10
5.7057076345
 20
3.6209843891
 40
0.1165255879
100
AcDbArc
 50
237.2894858361
 51
241.8659254173
  0
ARC
  5
237
100
AcDbEntity
  8
0
100
AcDbCircle
 62
9
  6
CONTINUOUS
 10
5.5115681109
 20
3.7175671734
 40
0.0472954891
100
AcDbArc
 50
213.8112131414
 51
214.3266586765
  0
ARC
  5
238
100
AcDbEntity
  8
0
100
AcDbCircle
 62
9
  6
CONTINUOUS
 10
5.5245089934
 20
3.5858426398
 40
0.0395723313
100
AcDbArc
 50
40.1957560882
 51
50.8383884577
  0
ARC
  5
239
100
AcDbEntity
  8
0
100
AcDbCircle
 62
9
  6
CONTINUOUS
 10
5.52448974
 20
3.5859825598
 40
0.0395402989
100
AcDbArc
 50
40.1860787546
 51
50.8614797575
  0
ARC
  5
23A
100
AcDbEntity
  8
0
100
AcDbCircle
 62
9
  6
CONTINUOUS
 10
5.5346670134
 20
3.5612963413
 40
0.0393682832
100
AcDbArc
 50
43.6218805343
 51
47.8444372766
  0
ARC
  5
23B
100
AcDbEntity
  8
0
100
AcDbCircle
 62
9
  6
CONTINUOUS
 10
5.6323534025
 20
3.5633473098
 40
0.0179298684
100
AcDbArc
 50
218.4041293756
 51
220.4389459687
  0
ARC
  5
23C
100
AcDbEntity
  8
0
100
AcDbCircle
 62
9
  6
CONTINUOUS
 10
-189.1003533307
 20
15.429168038
 40
195.6795353319
100
AcDbArc
 50
356.8752165523
 51
357.0241601572
  0
ARC
  5
23D
100
AcDbEntity
  8
0
100
AcDbCircle
 62
9
  6
CONTINUOUS
 10
5.5342782151
 20
9.4762057467
 40
4.7627795187
100
AcDbArc
 50
279.5932476634
 51
280.1109858758
  0
ARC
  5
23E
100
AcDbEntity
  8
0
100
AcDbCircle
 62
9
  6
CONTINUOUS
 10
185.1190349065
 20
-1.5566367838
 40
179.051973901
100
AcDbArc
 50
177.8148211752
 51
177.9762828746
  0
ARC
  5
23F
100
AcDbEntity
  8
0
100
AcDbCircle
 62
9
  6
CONTINUOUS
 10
71.7667771244
 20
1.4284617851
 40
65.4825546499
100
AcDbArc
 50
176.6363762023
 51
177.0201319198
  0
ARC
  5
240
100
AcDbEntity
  8
0
100
AcDbCircle
 62
9
  6
CONTINUOUS
 10
19.0880535502
 20
5.2415260802
 40
13.4945398482
100
AcDbArc
 50
182.0183321323
 51
182.132562479
  0
ARC
  5
241
100
AcDbEntity
  8
0
100
AcDbCircle
 62
9
  6
CONTINUOUS
 10
17.3722487164
 20
5.4113589568
 40
11.8975741423
100
AcDbArc
 50
183.126130793
 51
183.2569191647
  0
ARC
  5
242
100
AcDbEntity
  8
0
100
AcDbCircle
 62
9
  6
CONTINUOUS
 10
8.5195520238
 20
2.4694951758
 40
2.55865121
100
AcDbArc
 50
154.0162677356
 51
154.4016858944
  0
ARC
  5
243
100
AcDbEntity
  8
0
100
AcDbCircle
 62
9
  6
CONTINUOUS
 10
8.1819156518
 20
2.7915767532
 40
2.1199336882
100
AcDbArc
 50
157.9201518873
 51
158.3125470163
  0
ARC
  5
244
100
AcDbEntity
  8
0
100
AcDbCircle
 62
9
  6
CONTINUOUS
 10
6.9341351986
 20
4.6784226221
 40
1.7328736151
100
AcDbArc
 50
221.8207466134
 51
222.6061154942
  0
ARC
  5
245
100
AcDbEntity
  8
0
100
AcDbCircle
 62
9
  6
CONTINUOUS
 10
7.0573915471
 20
4.3759434801
 40
1.6475090147
100
AcDbArc
 50
211.3734678215
 51
211.8996144318
  0
ARC
  5
246
100
AcDbEntity
  8
0
100
AcDbCircle
 62
9
  6
CONTINUOUS
 10
6.1166892468
 20
5.4567905864
 40
1.4743748631
100
AcDbArc
 50
242.1968563669
 51
245.0726670227
  0
ARC
  5
247
100
AcDbEntity
  8
0
100
AcDbCircle
 62
9
  6
CONTINUOUS
 10
5.9493311698
 20
4.1070281035
 40
0.6328175655
100
AcDbArc
 50
221.073607321
 51
230.8148819341
  0
ARC
  5
248
100
AcDbEntity
  8
0
100
AcDbCircle
 62
9
  6
CONTINUOUS
 10
6.0463847382
 20
3.8844116089
 40
0.5418428863
100
AcDbArc
 50
217.8796628188
 51
221.8450268147
  0
ARC
  5
249
100
AcDbEntity
  8
0
100
AcDbCircle
 62
9
  6
CONTINUOUS
 10
5.9070627948
 20
3.9708132401
 40
0.5141503005
100
AcDbArc
 50
219.3452571866
 51
227.7083861659
  0
ARC
  5
24A
100
AcDbEntity
  8
0
100
AcDbCircle
 62
6
  6
CONTINUOUS
 10
5.8902564561
 20
3.8985522392
 40
0.4563227474
100
AcDbArc
 50
239.506157502
 51
270.0068514695
  0
ARC
  5
24B
100
AcDbEntity
  8
0
100
AcDbCircle
 62
6
  6
CONTINUOUS
 10
5.890365592
 20
3.8985522392
 40
0.4563227474
100
AcDbArc
 50
269.9931485293
 51
300.4938424758
  0
ARC
  5
24C
100
AcDbEntity
  8
0
100
AcDbCircle
 62
6
  6
CONTINUOUS
 10
5.8907319329
 20
3.8976683676
 40
0.4553757077
100
AcDbArc
 50
300.5105574041
 51
314.8779624857
  0
ARC
  5
24D
100
AcDbEntity
  8
0
100
AcDbCircle
 62
6
  6
CONTINUOUS
 10
5.8915541406
 20
3.8966350814
 40
0.4540633841
100
AcDbArc
 50
314.8964434797
 51
322.8063272062
  0
ARC
  5
24E
100
AcDbEntity
  8
0
100
AcDbCircle
 62
9
  6
CONTINUOUS
 10
5.9042212979
 20
3.8878018564
 40
0.4332709353
100
AcDbArc
 50
302.635986814
 51
316.2988615899
  0
ARC
  5
24F
100
AcDbEntity
  8
0
100
AcDbCircle
 62
9
  6
CONTINUOUS
 10
5.9941220552
 20
4.2678321992
 40
0.3148478575
100
AcDbArc
 50
322.9750678727
 51
328.5868713
  0
ARC
  5
250
100
AcDbEntity
  8
0
100
AcDbCircle
 62
9
  6
CONTINUOUS
 10
6.1695202771
 20
4.8422618002
 40
0.1430087946
100
AcDbArc
 50
326.1168084342
 51
329.5205656359
  0
ARC
  5
251
100
AcDbEntity
  8
0
100
AcDbCircle
 62
9
  6
CONTINUOUS
 10
6.0907915968
 20
3.6451693869
 40
0.1172937249
100
AcDbArc
 50
295.7892160063
 51
307.5763084893
  0
ARC
  5
252
100
AcDbEntity
  8
0
100
AcDbCircle
 62
9
  6
CONTINUOUS
 10
6.0907903399
 20
3.6446765307
 40
0.1170475737
100
AcDbArc
 50
295.7769873538
 51
307.420224089
  0
ARC
  5
253
100
AcDbEntity
  8
0
100
AcDbCircle
 62
9
  6
CONTINUOUS
 10
6.0749144135
 20
3.6209843891
 40
0.1165255879
100
AcDbArc
 50
298.1340745865
 51
302.7105141678
  0
ARC
  5
254
100
AcDbEntity
  8
0
100
AcDbCircle
 62
9
  6
CONTINUOUS
 10
6.2213299978
 20
3.7664387089
 40
0.115054988
100
AcDbArc
 50
324.0027497101
 51
324.571830793
  0
ARC
  5
255
100
AcDbEntity
  8
0
100
AcDbCircle
 62
9
  6
CONTINUOUS
 10
6.2690546066
 20
3.7175667207
 40
0.047294681
100
AcDbArc
 50
325.6733369197
 51
326.1887912623
  0
ARC
  5
256
100
AcDbEntity
  8
0
100
AcDbCircle
 62
9
  6
CONTINUOUS
 10
6.2561130547
 20
3.5858426398
 40
0.0395723313
100
AcDbArc
 50
129.1616115176
 51
139.8042438877
  0
ARC
  5
257
100
AcDbEntity
  8
0
100
AcDbCircle
 62
9
  6
CONTINUOUS
 10
6.256132311
 20
3.5859826113
 40
0.0395402812
100
AcDbArc
 50
129.138570761
 51
139.8139809921
  0
ARC
  5
258
100
AcDbEntity
  8
0
100
AcDbCircle
 62
9
  6
CONTINUOUS
 10
6.2459550347
 20
3.5612963413
 40
0.0393682832
100
AcDbArc
 50
132.155562722
 51
136.3781194645
  0
ARC
  5
259
100
AcDbEntity
  8
0
100
AcDbCircle
 62
9
  6
CONTINUOUS
 10
6.1482642483
 20
3.5633509245
 40
0.0179355597
100
AcDbArc
 50
319.5613769126
 51
321.5955477432
  0
ARC
  5
25A
100
AcDbEntity
  8
0
100
AcDbCircle
 62
9
  6
CONTINUOUS
 10
200.8802972991
 20
15.4291319043
 40
195.6788562908
100
AcDbArc
 50
182.9758395844
 51
183.1247837061
  0
ARC
  5
25B
100
AcDbEntity
  8
0
100
AcDbCircle
 62
9
  6
CONTINUOUS
 10
6.2392348523
 20
9.4352711697
 40
4.7212326578
100
AcDbArc
 50
259.8867360597
 51
260.4090304011
  0
LINE
  5
25C
100
AcDbEntity
  8
0
100
AcDbLine
 62
6
  6
CONTINUOUS
 10
5.4873451287
 20
4.7813469255
 11
5.465311024
 21
5.2704932952
  0
LINE
  5
25D
100
AcDbEntity
  8
0
100
AcDbLine
 62
6
  6
CONTINUOUS
 10
6.2932769193
 20
4.7813469255
 11
6.315311024
 21
5.2704932952
  0
LINE
  5
25E
100
AcDbEntity
  8
0
100
AcDbLine
 62
9
  6
CONTINUOUS
 10
5.6388004513
 20
3.5395580381
 11
5.6389312938
 21
3.5392759507
  0
SPLINE
  5
25F
100
AcDbEntity
  8
0
100
AcDbSpline
 62
9
  6
CONTINUOUS
 70
0
 71
3
 72
17
 73
13
 74
11
 42
0.0000001
 43
0.0000001
 44
0.0000000001
 12
-0.2495955316
 22
0.0
 32
0.0
 13
-0.2197937272
 23
0.1182736103
 33
0.0
 40
0.0
 40
0.0
 40
0.0
 40
0.0
 40
0.1250148136
 40
0.2500351336
 40
0.375059459
 40
0.4375787107
 40
0.500096626
 40
0.6251113462
 40
0.7501106215
 40
0.8126064276
 40
0.8750910554
 40
1.0
 40
1.0
 40
1.0
 40
1.0
 10
5.890311024
 20
3.457601608
 30
0.0
 10
5.8799099778
 20
3.457601608
 30
0.0
 10
5.8591015352
 20
3.4582552167
 30
0.0
 10
5.828015423
 20
3.4611749528
 30
0.0
 10
5.802306555
 20
3.4652069985
 30
0.0
 10
5.7819218817
 20
3.469380673
 30
0.0
 10
5.7616767482
 20
3.4741828987
 30
0.0
 10
5.7366662445
 20
3.4813596148
 30
0.0
 10
5.7121461711
 20
3.4900589624
 30
0.0
 10
5.6928818138
 20
3.4979050958
 30
0.0
 10
5.6738733657
 20
3.5063321705
 30
0.0
 10
5.6599129828
 20
3.5133022166
 30
0.0
 10
5.650761582
 20
3.5182266939
 30
0.0
 11
5.890311024
 21
3.457601608
 31
0.0
 11
5.8591231778
 21
3.4585783998
 31
0.0
 11
5.8280552357
 21
3.4614946672
 31
0.0
 11
5.7972265012
 21
3.4663292481
 31
0.0
 11
5.7819391193
 21
3.469459293
 31
0.0
 11
5.7667562781
 21
3.4730609805
 31
0.0
 11
5.7367627552
 21
3.4816646424
 31
0.0
 11
5.7073585472
 21
3.4920947151
 31
0.0
 11
5.6929120853
 21
3.4979784527
 31
0.0
 11
5.6786545308
 21
3.5042993493
 31
0.0
 11
5.650761582
 21
3.5182266939
 31
0.0
  0
LINE
  5
260
100
AcDbEntity
  8
0
100
AcDbLine
 62
9
  6
CONTINUOUS
 10
5.4878551787
 20
4.769723584
 11
5.4873451287
 21
4.7813469255
  0
LINE
  5
261
100
AcDbEntity
  8
0
100
AcDbLine
 62
9
  6
CONTINUOUS
 10
6.515311024
 20
5.2704932952
 11
6.475857274
 21
4.8249799312
  0
SPLINE
  5
262
100
AcDbEntity
  8
0
100
AcDbSpline
 62
9
  6
CONTINUOUS
 70
0
 71
3
 72
15
 73
11
 74
9
 42
0.0000001
 43
0.0000001
 44
0.0000000001
 12
-0.0516105723
 22
-0.5677868353
 32
0.0
 13
-0.0625767304
 23
-0.5666830634
 33
0.0
 40
0.0
 40
0.0
 40
0.0
 40
0.0
 40
0.1310626091
 40
0.2615283717
 40
0.3907819703
 40
0.5182829827
 40
0.6434744145
 40
0.7658204199
 40
0.8848429486
 40
1.0
 40
1.0
 40
1.0
 40
1.0
 10
6.4717810971
 20
4.7797423537
 30
0.0
 10
6.4695263583
 20
4.7549371457
 30
0.0
 10
6.4650094367
 20
4.7054412962
 30
0.0
 10
6.4581821505
 20
4.6314905614
 30
0.0
 10
6.4513127847
 20
4.5582235055
 30
0.0
 10
6.4444039722
 20
4.4859669965
 30
0.0
 10
6.437460529
 20
4.415032683
 30
0.0
 10
6.4304857722
 20
4.3457206303
 30
0.0
 10
6.4234802916
 20
4.2783286016
 30
0.0
 10
6.4187034997
 20
4.2340814418
 30
0.0
 10
6.4163014491
 20
4.212328925
 30
0.0
 11
6.4717810971
 21
4.7797423537
 31
0.0
 11
6.4649860196
 21
4.7053295413
 31
0.0
 11
6.4581433195
 21
4.6312628141
 31
0.0
 11
6.4512590333
 21
4.5578940361
 31
0.0
 11
6.4443348217
 21
4.485532715
 31
0.0
 11
6.437375327
 21
4.414497724
 31
0.0
 11
6.4303839791
 21
4.3450961399
 31
0.0
 11
6.4233590473
 21
4.2776027087
 31
0.0
 11
6.4163014491
 21
4.212328925
 31
0.0
  0
LINE
  5
263
100
AcDbEntity
  8
0
100
AcDbLine
 62
9
  6
CONTINUOUS
 10
6.475857274
 20
4.8249799312
 11
6.4717810971
 21
4.7797423537
  0
SPLINE
  5
264
100
AcDbEntity
  8
0
100
AcDbSpline
 62
9
  6
CONTINUOUS
 70
0
 71
3
 72
30
 73
26
 74
24
 42
0.0000001
 43
0.0000001
 44
0.0000000001
 12
-0.0521316659
 22
-0.4649364715
 32
0.0
 13
-0.1869194915
 23
-0.4288877904
 33
0.0
 40
0.0
 40
0.0
 40
0.0
 40
0.0
 40
0.0908359292
 40
0.1786528523
 40
0.2632130448
 40
0.3443172282
 40
0.4217987704
 40
0.4954984338
 40
0.5652756111
 40
0.6309955876
 40
0.692542009
 40
0.7217193654
 40
0.7498167383
 40
0.7768227836
 40
0.8027282678
 40
0.8275249973
 40
0.8512052452
 40
0.873761851
 40
0.8951884913
 40
0.9154820263
 40
0.9346422541
 40
0.952670305
 40
0.9695689345
 40
0.985342995
 40
1.0
 40
1.0
 40
1.0
 40
1.0
 10
6.4143938169
 20
4.1951846403
 30
0.0
 10
6.4128153407
 20
4.1811069948
 30
0.0
 10
6.4096613031
 20
4.1534251041
 30
0.0
 10
6.4048440789
 20
4.1126605396
 30
0.0
 10
6.4000157822
 20
4.0734259271
 30
0.0
 10
6.3951756118
 20
4.0358172802
 30
0.0
 10
6.390322504
 20
3.9999186478
 30
0.0
 10
6.3854540533
 20
3.9658054779
 30
0.0
 10
6.3805680183
 20
3.9335487114
 30
0.0
 10
6.375660986
 20
3.9032135165
 30
0.0
 10
6.3714809369
 20
3.8791760899
 30
0.0
 10
6.3681108819
 20
3.8609548067
 30
0.0
 10
6.3656209118
 20
3.8480490814
 30
0.0
 10
6.3631228629
 20
3.8356650131
 30
0.0
 10
6.3606162248
 20
3.8238082862
 30
0.0
 10
6.3581004824
 20
3.8124841974
 30
0.0
 10
6.3555750838
 20
3.8016979377
 30
0.0
 10
6.3530395046
 20
3.7914546589
 30
0.0
 10
6.3504930438
 20
3.7817591476
 30
0.0
 10
6.347935185
 20
3.7726154281
 30
0.0
 10
6.3453655533
 20
3.7640267588
 30
0.0
 10
6.3427836438
 20
3.7559960974
 30
0.0
 10
6.3401889537
 20
3.7485262881
 30
0.0
 10
6.3375810091
 20
3.7416203156
 30
0.0
 10
6.3357670016
 20
3.7372337929
 30
0.0
 10
6.334853775
 20
3.7351383894
 30
0.0
 11
6.4143938169
 21
4.1951846403
 31
0.0
 11
6.4095781193
 21
4.1529607815
 31
0.0
 11
6.4047510864
 21
4.1121601788
 31
0.0
 11
6.3999128976
 21
4.0728956505
 31
0.0
 11
6.3950625826
 21
4.0352623329
 31
0.0
 11
6.3901982018
 21
3.9993404527
 31
0.0
 11
6.3853175493
 21
3.965207237
 31
0.0
 11
6.3804176645
 21
3.9329318023
 31
0.0
 11
6.3754954236
 21
3.9025812637
 31
0.0
 11
6.3705474525
 21
3.8742150785
 31
0.0
 11
6.3680626919
 21
3.8607925016
 31
0.0
 11
6.3655701456
 21
3.8478856196
 31
0.0
 11
6.3630693477
 21
3.8355008047
 31
0.0
 11
6.3605597496
 21
3.8236435944
 31
0.0
 11
6.358040772
 21
3.8123192209
 31
0.0
 11
6.3555118359
 21
3.8015329154
 31
0.0
 11
6.352972362
 21
3.7912899096
 31
0.0
 11
6.3504217721
 21
3.7815953665
 31
0.0
 11
6.3478595023
 21
3.772453316
 31
0.0
 11
6.3452850008
 21
3.7638668581
 31
0.0
 11
6.342697716
 21
3.7558390649
 31
0.0
 11
6.3400970964
 21
3.7483730089
 31
0.0
 11
6.3374825917
 21
3.7414717622
 31
0.0
 11
6.334853775
 21
3.7351383894
 31
0.0
  0
LINE
  5
265
100
AcDbEntity
  8
0
100
AcDbLine
 62
9
  6
CONTINUOUS
 10
6.4163014491
 20
4.212328925
 11
6.4143938169
 21
4.1951846403
  0
LINE
  5
266
100
AcDbEntity
  8
0
100
AcDbLine
 62
9
  6
CONTINUOUS
 10
6.3280075453
 20
4.7800304418
 11
6.355340396
 21
5.2704932952
  0
SPLINE
  5
267
100
AcDbEntity
  8
0
100
AcDbSpline
 62
9
  6
CONTINUOUS
 70
0
 71
3
 72
14
 73
10
 74
8
 42
0.0000001
 43
0.0000001
 44
0.0000000001
 12
-0.0330692481
 22
0.6633071262
 32
0.0
 13
-0.0288641963
 23
0.6635034114
 33
0.0
 40
0.0
 40
0.0
 40
0.0
 40
0.0
 40
0.1131223151
 40
0.2309065127
 40
0.3527112743
 40
0.4779151048
 40
0.6058947689
 40
0.7359982857
 40
1.0
 40
1.0
 40
1.0
 40
1.0
 10
5.517672725
 20
4.1062634832
 30
0.0
 10
5.5164257684
 20
4.1312750958
 30
0.0
 10
5.5139364787
 20
4.1823318747
 30
0.0
 10
5.5102681757
 20
4.2603278436
 30
0.0
 10
5.5065840392
 20
4.3410005118
 30
0.0
 10
5.5028841039
 20
4.4239317973
 30
0.0
 10
5.4991664673
 20
4.5087012439
 30
0.0
 10
5.4941546888
 20
4.6241701104
 30
0.0
 10
5.4903952445
 20
4.7113349046
 30
0.0
 10
5.4878551787
 20
4.769723584
 30
0.0
 11
5.517672725
 21
4.1062634832
 31
0.0
 11
5.5140078071
 21
4.181302069
 31
0.0
 11
5.5103274222
 21
4.2594395725
 31
0.0
 11
5.5066323295
 21
4.3402494481
 31
0.0
 11
5.5029218602
 21
4.4233183599
 31
0.0
 11
5.4991934014
 21
4.5082317989
 31
0.0
 11
5.4954426432
 21
4.594556125
 31
0.0
 11
5.4878551787
 21
4.769723584
 31
0.0
  0
LINE
  5
268
100
AcDbEntity
  8
0
100
AcDbLine
 62
9
  6
CONTINUOUS
 10
6.3727661947
 20
4.8325766091
 11
6.3704103131
 21
4.7873943986
  0
LINE
  5
269
100
AcDbEntity
  8
0
100
AcDbLine
 62
9
  6
CONTINUOUS
 10
6.3273001613
 20
4.7687804549
 11
6.3280075453
 21
4.7800304418
  0
SPLINE
  5
26A
100
AcDbEntity
  8
0
100
AcDbSpline
 62
9
  6
CONTINUOUS
 70
0
 71
3
 72
18
 73
14
 74
12
 42
0.0000001
 43
0.0000001
 44
0.0000000001
 12
-0.0159693503
 22
-0.6167644941
 32
0.0
 13
-0.0255954559
 23
-0.6164400489
 33
0.0
 40
0.0
 40
0.0
 40
0.0
 40
0.0
 40
0.1323283052
 40
0.2638393476
 40
0.3938433456
 40
0.4580891364
 40
0.5217278931
 40
0.5846805633
 40
0.6468682652
 40
0.7082178647
 40
0.7686634921
 40
0.8865761364
 40
1.0
 40
1.0
 40
1.0
 40
1.0
 10
6.3704103131
 20
4.7873943986
 30
0.0
 10
6.3697059141
 20
4.7601892652
 30
0.0
 10
6.3683260905
 20
4.7059463812
 30
0.0
 10
6.3662937373
 20
4.6249752176
 30
0.0
 10
6.3645967414
 20
4.5580016928
 30
0.0
 10
6.3632207784
 20
4.5049829405
 30
0.0
 10
6.3621775761
 20
4.4657497811
 30
0.0
 10
6.3611096038
 20
4.4269407034
 30
0.0
 10
6.3600071782
 20
4.3886035585
 30
0.0
 10
6.3588632718
 20
4.3507834479
 30
0.0
 10
6.3572923464
 20
4.3015108474
 30
0.0
 10
6.3552173866
 20
4.2415395217
 30
0.0
 10
6.3533669746
 20
4.1939993228
 30
0.0
 10
6.3523992627
 20
4.1706929855
 30
0.0
 11
6.3704103131
 21
4.7873943986
 31
0.0
 11
6.3683264276
 21
4.7057782447
 31
0.0
 11
6.3662827184
 21
4.6246654615
 31
0.0
 11
6.364243208
 21
4.544482673
 31
0.0
 11
6.3632133129
 21
4.5048582523
 31
0.0
 11
6.3621677214
 21
4.4656088969
 31
0.0
 11
6.3610972264
 21
4.4267836676
 31
0.0
 11
6.3599926442
 21
4.3884315498
 31
0.0
 11
6.358847267
 21
4.3505979475
 31
0.0
 11
6.3576575293
 21
4.3133237186
 31
0.0
 11
6.355132129
 21
4.2406188596
 31
0.0
 11
6.3523992627
 21
4.1706929855
 31
0.0
  0
LINE
  5
26B
100
AcDbEntity
  8
0
100
AcDbLine
 62
9
  6
CONTINUOUS
 10
6.3523992627
 20
4.1706929855
 11
6.3516330967
 21
4.1526243621
  0
SPLINE
  5
26C
100
AcDbEntity
  8
0
100
AcDbSpline
 62
9
  6
CONTINUOUS
 70
0
 71
3
 72
17
 73
13
 74
11
 42
0.0000001
 43
0.0000001
 44
0.0000000001
 12
0.0455674611
 22
0.6487749707
 32
0.0
 13
0.0405586529
 23
0.64910735
 33
0.0
 40
0.0
 40
0.0
 40
0.0
 40
0.0
 40
0.1138155903
 40
0.2320444091
 40
0.354072056
 40
0.4163238623
 40
0.4793028271
 40
0.5429327468
 40
0.6071357229
 40
0.7369439992
 40
0.8681046325
 40
1.0
 40
1.0
 40
1.0
 40
1.0
 10
6.2853353208
 20
4.1197639802
 30
0.0
 10
6.2870640833
 20
4.144377549
 30
0.0
 10
6.2905231407
 20
4.1945636935
 30
0.0
 10
6.2956527553
 20
4.271151798
 30
0.0
 10
6.2999403294
 20
4.336592605
 30
0.0
 10
6.3034025921
 20
4.3900840945
 30
0.0
 10
6.3060296031
 20
4.430943045
 30
0.0
 10
6.3086665677
 20
4.4722252213
 30
0.0
 10
6.3122054188
 20
4.5279673097
 30
0.0
 10
6.316638603
 20
4.5983221448
 30
0.0
 10
6.321961889
 20
4.6833250954
 30
0.0
 10
6.3255169952
 20
4.7402423707
 30
0.0
 10
6.3273001613
 20
4.7687804549
 30
0.0
 11
6.2853353208
 21
4.1197639802
 31
0.0
 11
6.2904339407
 21
4.1936107916
 31
0.0
 11
6.2955794469
 21
4.2703312957
 31
0.0
 11
6.3007737552
 21
4.3495246472
 31
0.0
 11
6.3033895375
 21
4.3899269676
 31
0.0
 11
6.3060177268
 21
4.4308023954
 31
0.0
 11
6.3086559837
 21
4.4721014101
 31
0.0
 11
6.31130212
 21
4.5137733787
 31
0.0
 11
6.3166147796
 21
4.5980298839
 31
0.0
 11
6.3219496249
 21
4.6831662673
 31
0.0
 11
6.3273001613
 21
4.7687804549
 31
0.0
  0
LINE
  5
26D
100
AcDbEntity
  8
0
100
AcDbLine
 62
9
  6
CONTINUOUS
 10
6.2851775684
 20
4.1172696154
 11
6.2853154369
 21
4.1197599411
  0
SPLINE
  5
26E
100
AcDbEntity
  8
0
100
AcDbSpline
 62
9
  6
CONTINUOUS
 70
0
 71
3
 72
33
 73
29
 74
27
 42
0.0000001
 43
0.0000001
 44
0.0000000001
 12
-0.0176134478
 22
-0.4555979156
 32
0.0
 13
-0.1670241164
 23
-0.4242436078
 33
0.0
 40
0.0
 40
0.0
 40
0.0
 40
0.0
 40
0.0982933364
 40
0.1927251437
 40
0.2829986222
 40
0.3688731128
 40
0.4501545996
 40
0.5266573171
 40
0.5982133991
 40
0.6646611255
 40
0.6959264288
 40
0.7258670261
 40
0.7544690351
 40
0.781718786
 40
0.8076035188
 40
0.8321122167
 40
0.8552344006
 40
0.8769600268
 40
0.8972796171
 40
0.9161859699
 40
0.9336772396
 40
0.949753663
 40
0.964417292
 40
0.9776727742
 40
0.9837751858
 40
0.9895291347
 40
0.9949365693
 40
1.0
 40
1.0
 40
1.0
 40
1.0
 10
6.3516330967
 20
4.1526243621
 30
0.0
 10
6.3510560018
 20
4.1376969491
 30
0.0
 10
6.3498909944
 20
4.1084298342
 30
0.0
 10
6.3480579315
 20
4.0654588802
 30
0.0
 10
6.3461637713
 20
4.024379871
 30
0.0
 10
6.3441966534
 20
3.9853052336
 30
0.0
 10
6.342142107
 20
3.9483309606
 30
0.0
 10
6.3399865182
 20
3.9135423942
 30
0.0
 10
6.3377279894
 20
3.8810198128
 30
0.0
 10
6.3357190384
 20
3.8553724921
 30
0.0
 10
6.3340468926
 20
3.8360438706
 30
0.0
 10
6.3327907668
 20
3.8224527529
 30
0.0
 10
6.3315068566
 20
3.8094773466
 30
0.0
 10
6.3301948791
 20
3.7971244388
 30
0.0
 10
6.3288547151
 20
3.785400482
 30
0.0
 10
6.3274870402
 20
3.7743114807
 30
0.0
 10
6.3260924352
 20
3.7638631854
 30
0.0
 10
6.3246715142
 20
3.7540613001
 30
0.0
 10
6.3232248658
 20
3.7449112794
 30
0.0
 10
6.321752953
 20
3.736417662
 30
0.0
 10
6.3202564178
 20
3.7285839025
 30
0.0
 10
6.3187358522
 20
3.7214125625
 30
0.0
 10
6.3171917695
 20
3.7149061448
 30
0.0
 10
6.3158517119
 20
3.7099111583
 30
0.0
 10
6.3147603644
 20
3.706253814
 30
0.0
 10
6.31395885
 20
3.703755272
 30
0.0
 10
6.3131517432
 20
3.7014250258
 30
0.0
 10
6.312591696
 20
3.6999352065
 30
0.0
 10
6.312309791
 20
3.6992191638
 30
0.0
 11
6.3516330967
 21
4.1526243621
 31
0.0
 11
6.3498459765
 21
4.1078443164
 31
0.0
 11
6.3480057426
 21
4.0648285879
 31
0.0
 11
6.3461033211
 21
4.0237134449
 31
0.0
 11
6.344126674
 21
3.9846099063
 31
0.0
 11
6.3420613215
 21
3.9476081637
 31
0.0
 11
6.3398953615
 21
3.9127949623
 31
0.0
 11
6.3376245076
 21
3.8802489337
 31
0.0
 11
6.3352458689
 21
3.8500463946
 31
0.0
 11
6.3340153624
 21
3.8358445552
 31
0.0
 11
6.3327570606
 21
3.8222516078
 31
0.0
 11
6.331470713
 21
3.8092744558
 31
0.0
 11
6.3301560698
 21
3.7969200009
 31
0.0
 11
6.3288131035
 21
3.7851948199
 31
0.0
 11
6.3274422798
 21
3.7741047684
 31
0.0
 11
6.3260441307
 21
3.7636556049
 31
0.0
 11
6.324619188
 21
3.7538530877
 31
0.0
 11
6.3231679836
 21
3.7447029746
 31
0.0
 11
6.321691012
 21
3.7362103196
 31
0.0
 11
6.3201886606
 21
3.7283781684
 31
0.0
 11
6.3186612978
 21
3.7212092104
 31
0.0
 11
6.317109292
 21
3.7147061351
 31
0.0
 11
6.3155330118
 21
3.708871632
 31
0.0
 11
6.3147358983
 21
3.7062059369
 31
0.0
 11
6.3139329208
 21
3.7037083994
 31
0.0
 11
6.3131241837
 21
3.7013793612
 31
0.0
 11
6.312309791
 21
3.6992191638
 31
0.0
  0
SPLINE
  5
26F
100
AcDbEntity
  8
0
100
AcDbSpline
 62
9
  6
CONTINUOUS
 70
0
 71
3
 72
11
 73
7
 74
5
 42
0.0000001
 43
0.0000001
 44
0.0000000001
 12
-0.0032655143
 22
-0.0082944523
 32
0.0
 13
-0.0049417639
 23
-0.007418928
 33
0.0
 40
0.0
 40
0.0
 40
0.0
 40
0.0
 40
0.2860602549
 40
0.5477086623
 40
0.7854540952
 40
1.0
 40
1.0
 40
1.0
 40
1.0
 10
6.312309791
 20
3.6992191638
 30
0.0
 10
6.311998413
 20
3.6984282594
 30
0.0
 10
6.3113763254
 20
3.6969238999
 30
0.0
 10
6.3103937567
 20
3.6948060115
 30
0.0
 10
6.3094039044
 20
3.6929286092
 30
0.0
 10
6.3087040161
 20
3.691779776
 30
0.0
 10
6.3083506043
 20
3.6912492091
 30
0.0
 11
6.312309791
 21
3.6992191638
 31
0.0
 11
6.3113313935
 21
3.6968643576
 31
0.0
 11
6.3103452788
 21
3.6947507103
 31
0.0
 11
6.3093516235
 21
3.6928788011
 31
0.0
 11
6.3083506043
 21
3.6912492091
 31
0.0
  0
LINE
  5
270
100
AcDbEntity
  8
0
100
AcDbLine
 62
9
  6
CONTINUOUS
 10
6.2311263645
 20
3.6165287081
 11
6.2311703396
 21
3.6166474424
  0
SPLINE
  5
271
100
AcDbEntity
  8
0
100
AcDbSpline
 62
9
  6
CONTINUOUS
 70
0
 71
3
 72
37
 73
33
 74
31
 42
0.0000001
 43
0.0000001
 44
0.0000000001
 12
0.194805928
 22
0.4649738191
 32
0.0
 13
0.0357547098
 23
0.5028634037
 33
0.0
 40
0.0
 40
0.0
 40
0.0
 40
0.0
 40
0.0041002795
 40
0.0085920216
 40
0.0134778356
 40
0.0187593831
 40
0.0244376405
 40
0.0305130791
 40
0.0369857896
 40
0.0438555724
 40
0.0511220317
 40
0.058784623
 40
0.0668426606
 40
0.0752953432
 40
0.0933808676
 40
0.1130333126
 40
0.1342423667
 40
0.1569909374
 40
0.1812597534
 40
0.2070291735
 40
0.2342792529
 40
0.2629893608
 40
0.2931382625
 40
0.3247045724
 40
0.3920004955
 40
0.464666811
 40
0.542469183
 40
0.6251810025
 40
0.7125674296
 40
0.8043516457
 40
0.9002571596
 40
1.0
 40
1.0
 40
1.0
 40
1.0
 10
6.2311745759
 20
3.6166508922
 30
0.0
 10
6.2314408288
 20
3.6172863997
 30
0.0
 10
6.2319711878
 20
3.6186297125
 30
0.0
 10
6.2327340491
 20
3.6207625616
 30
0.0
 10
6.2335002103
 20
3.6231040451
 30
0.0
 10
6.2342695929
 20
3.6256534439
 30
0.0
 10
6.2350421386
 20
3.6284100754
 30
0.0
 10
6.2358177895
 20
3.6313732126
 30
0.0
 10
6.2365964945
 20
3.6345421193
 30
0.0
 10
6.2373782077
 20
3.6379160519
 30
0.0
 10
6.2381628893
 20
3.6414942697
 30
0.0
 10
6.2389505006
 20
3.6452760373
 30
0.0
 10
6.2397410233
 20
3.6492606193
 30
0.0
 10
6.2408234407
 20
3.6549727285
 30
0.0
 10
6.2421779811
 20
3.6626160014
 30
0.0
 10
6.2437807207
 20
3.6723914111
 30
0.0
 10
6.2453946876
 20
3.6829583604
 30
0.0
 10
6.247019939
 20
3.6943077879
 30
0.0
 10
6.2486562665
 20
3.7064293635
 30
0.0
 10
6.2503034673
 20
3.7193124409
 30
0.0
 10
6.2519613474
 20
3.7329462832
 30
0.0
 10
6.2536296848
 20
3.7473199919
 30
0.0
 10
6.255308253
 20
3.7624225105
 30
0.0
 10
6.2576090381
 20
3.7839797216
 30
0.0
 10
6.2604961113
 20
3.8126594441
 30
0.0
 10
6.2639295212
 20
3.8490923113
 30
0.0
 10
6.267400593
 20
3.8881230826
 30
0.0
 10
6.2709069261
 20
3.92963366
 30
0.0
 10
6.274445533
 20
3.9734991094
 30
0.0
 10
6.2780119678
 20
4.0195863754
 30
0.0
 10
6.2816032853
 20
4.0677541385
 30
0.0
 10
6.2839689736
 20
4.1005465414
 30
0.0
 10
6.2851577324
 20
4.1172655495
 30
0.0
 11
6.2311745759
 21
3.6166508922
 31
0.0
 11
6.2319369943
 21
3.618572236
 31
0.0
 11
6.2327024154
 21
3.6207033852
 31
0.0
 11
6.2334708161
 21
3.6230435605
 31
0.0
 11
6.2342421732
 21
3.625591983
 31
0.0
 11
6.2350164636
 21
3.6283478736
 31
0.0
 11
6.2357936643
 21
3.6313104533
 31
0.0
 11
6.2365737521
 21
3.634478943
 31
0.0
 11
6.2373567039
 21
3.6378525642
 31
0.0
 11
6.2381424996
 21
3.6414305537
 31
0.0
 11
6.2389311214
 21
3.6452121632
 31
0.0
 11
6.2397225521
 21
3.6491966454
 31
0.0
 11
6.2405167741
 21
3.6533832527
 31
0.0
 11
6.2421135222
 21
3.6623598529
 31
0.0
 11
6.2437212263
 21
3.6721359843
 31
0.0
 11
6.2453397501
 21
3.6827049551
 31
0.0
 11
6.2469689722
 21
3.6940569426
 31
0.0
 11
6.2486087753
 21
3.7061812632
 31
0.0
 11
6.2502590418
 21
3.7190672337
 31
0.0
 11
6.2519196523
 21
3.7327041591
 31
0.0
 11
6.253590442
 21
3.7470811115
 31
0.0
 11
6.2552712043
 21
3.7621869473
 31
0.0
 11
6.2569617312
 21
3.778010515
 31
0.0
 11
6.2603712651
 21
3.8117648433
 31
0.0
 11
6.2638176317
 21
3.8482358531
 31
0.0
 11
6.2672995429
 21
3.887303735
 31
0.0
 11
6.2708153928
 21
3.9288529979
 31
0.0
 11
6.2743627986
 21
3.972764316
 31
0.0
 11
6.2779374028
 21
4.01889748
 31
0.0
 11
6.281536397
 21
4.0671124705
 31
0.0
 11
6.2851577324
 21
4.1172655495
 31
0.0
  0
SPLINE
  5
272
100
AcDbEntity
  8
0
100
AcDbSpline
 62
9
  6
CONTINUOUS
 70
0
 71
3
 72
9
 73
5
 74
3
 42
0.0000001
 43
0.0000001
 44
0.0000000001
 12
0.0124987698
 22
0.0256249673
 32
0.0
 13
0.010801642
 23
0.0263852748
 33
0.0
 40
0.0
 40
0.0
 40
0.0
 40
0.0
 40
0.4800214226
 40
1.0
 40
1.0
 40
1.0
 40
1.0
 10
6.2195331753
 20
3.5904810474
 30
0.0
 10
6.2215330677
 20
3.5945812251
 30
0.0
 10
6.2255315778
 20
3.6032051803
 30
0.0
 10
6.2292505265
 20
3.6119524912
 30
0.0
 10
6.231122734
 20
3.6165257504
 30
0.0
 11
6.2195331753
 21
3.5904810474
 31
0.0
 11
6.225307392
 21
3.6028890153
 31
0.0
 11
6.231122734
 21
3.6165257504
 31
0.0
  0
SPLINE
  5
273
100
AcDbEntity
  8
0
100
AcDbSpline
 62
9
  6
CONTINUOUS
 70
0
 71
3
 72
9
 73
5
 74
3
 42
0.0000001
 43
0.0000001
 44
0.0000000001
 12
-0.0058427237
 22
-0.008559081
 32
0.0
 13
-0.0065273119
 23
-0.0080491917
 33
0.0
 40
0.0
 40
0.0
 40
0.0
 40
0.0
 40
0.5153875585
 40
1.0
 40
1.0
 40
1.0
 40
1.0
 10
6.3081122551
 20
3.6908967573
 30
0.0
 10
6.3071084994
 20
3.6894263427
 30
0.0
 10
6.3051133635
 20
3.6866053423
 30
0.0
 10
6.3030046219
 20
3.6838675751
 30
0.0
 10
6.3019502164
 20
3.682567329
 30
0.0
 11
6.3081122551
 21
3.6908967573
 31
0.0
 11
6.3050217865
 21
3.6865406345
 31
0.0
 11
6.3019502164
 21
3.682567329
 31
0.0
  0
LINE
  5
274
100
AcDbEntity
  8
0
100
AcDbLine
 62
9
  6
CONTINUOUS
 10
6.2927668693
 20
4.769723584
 11
6.2932769193
 21
4.7813469255
  0
SPLINE
  5
275
100
AcDbEntity
  8
0
100
AcDbSpline
 62
9
  6
CONTINUOUS
 70
0
 71
3
 72
15
 73
11
 74
9
 42
0.0000001
 43
0.0000001
 44
0.0000000001
 12
0.0373180337
 22
-0.6554438587
 32
0.0
 13
0.0483287545
 23
-0.6547240786
 33
0.0
 40
0.0
 40
0.0
 40
0.0
 40
0.0
 40
0.1323388786
 40
0.2639938321
 40
0.394179619
 40
0.5222184808
 40
0.6474368079
 40
0.7691915198
 40
0.8869162878
 40
1.0
 40
1.0
 40
1.0
 40
1.0
 10
5.4938913345
 20
4.7354178519
 30
0.0
 10
5.4955375434
 20
4.7065042835
 30
0.0
 10
5.4988433409
 20
4.6488278139
 30
0.0
 10
5.5038610175
 20
4.5627135144
 30
0.0
 10
5.5089247159
 20
4.4775445378
 30
0.0
 10
5.5140285644
 20
4.3937890743
 30
0.0
 10
5.519168768
 20
4.3118843837
 30
0.0
 10
5.5243454451
 20
4.2322436742
 30
0.0
 10
5.5295674567
 20
4.1552672773
 30
0.0
 10
5.5331669486
 20
4.104886524
 30
0.0
 10
5.5349886803
 20
4.0802069809
 30
0.0
 11
5.4938913345
 21
4.7354178519
 31
0.0
 11
5.4988656486
 21
4.6486791859
 31
0.0
 11
5.5038968267
 21
4.5623935588
 31
0.0
 11
5.5089737819
 21
4.477076816
 31
0.0
 11
5.514091754
 21
4.3931745681
 31
0.0
 11
5.5192472028
 21
4.3111298824
 31
0.0
 11
5.5244408495
 21
4.2313661693
 31
0.0
 11
5.529683249
 21
4.15425723
 31
0.0
 11
5.5349886803
 21
4.0802069809
 31
0.0
  0
SPLINE
  5
276
100
AcDbEntity
  8
0
100
AcDbSpline
 62
9
  6
CONTINUOUS
 70
0
 71
3
 72
14
 73
10
 74
8
 42
0.0000001
 43
0.0000001
 44
0.0000000001
 12
0.0330692974
 22
0.6633071237
 32
0.0
 13
0.0288642243
 23
0.6635034102
 33
0.0
 40
0.0
 40
0.0
 40
0.0
 40
0.0
 40
0.1131216918
 40
0.230906015
 40
0.3527112171
 40
0.4779161279
 40
0.6058959623
 40
0.7359997635
 40
1.0
 40
1.0
 40
1.0
 40
1.0
 10
6.262949323
 20
4.1062634832
 30
0.0
 10
6.2641962747
 20
4.1312749579
 30
0.0
 10
6.2666855569
 20
4.1823316269
 30
0.0
 10
6.2703538535
 20
4.2603275833
 30
0.0
 10
6.2740380454
 20
4.3410006139
 30
0.0
 10
6.2777378919
 20
4.4239322781
 30
0.0
 10
6.2814556507
 20
4.5087020594
 30
0.0
 10
6.2864673642
 20
4.6241707021
 30
0.0
 10
6.2902268153
 20
4.7113352316
 30
0.0
 10
6.2927668693
 20
4.769723584
 30
0.0
 11
6.262949323
 21
4.1062634832
 31
0.0
 11
6.2666142203
 21
4.1813016555
 31
0.0
 11
6.2702946109
 21
4.2594392422
 31
0.0
 11
6.2739897249
 21
4.3402494098
 31
0.0
 11
6.27770018
 21
4.4233190404
 31
0.0
 11
6.2814286904
 21
4.5082325903
 31
0.0
 11
6.2851794473
 21
4.5945571056
 31
0.0
 11
6.2927668693
 21
4.769723584
 31
0.0
  0
LINE
  5
277
100
AcDbEntity
  8
0
100
AcDbLine
 62
9
  6
CONTINUOUS
 10
6.2628194009
 20
4.1037243116
 11
6.2629529651
 21
4.1062709149
  0
LINE
  5
278
100
AcDbEntity
  8
0
100
AcDbLine
 62
9
  6
CONTINUOUS
 10
6.2456273595
 20
4.0801961751
 11
6.2454942749
 21
4.0782534438
  0
SPLINE
  5
279
100
AcDbEntity
  8
0
100
AcDbSpline
 62
9
  6
CONTINUOUS
 70
0
 71
3
 72
15
 73
11
 74
9
 42
0.0000001
 43
0.0000001
 44
0.0000000001
 12
-0.0373180983
 22
-0.6554438551
 32
0.0
 13
-0.0483294327
 23
-0.6547240285
 33
0.0
 40
0.0
 40
0.0
 40
0.0
 40
0.0
 40
0.1323384594
 40
0.2639918405
 40
0.3941764926
 40
0.5222149583
 40
0.6474318101
 40
0.7691858405
 40
0.886913851
 40
1.0
 40
1.0
 40
1.0
 40
1.0
 10
6.2867307136
 20
4.7354178519
 30
0.0
 10
6.285084507
 20
4.7065043753
 30
0.0
 10
6.2817787442
 20
4.6488283402
 30
0.0
 10
6.2767611091
 20
4.5627147236
 30
0.0
 10
6.2716974061
 20
4.4775464275
 30
0.0
 10
6.2665936159
 20
4.3937916197
 30
0.0
 10
6.2614535587
 20
4.3118874795
 30
0.0
 10
6.2562767381
 20
4.2322465413
 30
0.0
 10
6.2510547404
 20
4.1552690474
 30
0.0
 10
6.2474551643
 20
4.1048870539
 30
0.0
 10
6.2456333678
 20
4.0802069809
 30
0.0
 11
6.2867307136
 21
4.7354178519
 31
0.0
 11
6.2817564199
 21
4.6486794604
 31
0.0
 11
6.2767252978
 21
4.5623948641
 31
0.0
 11
6.2716483604
 21
4.4770788665
 31
0.0
 11
6.2665304282
 21
4.3931768768
 31
0.0
 11
6.2613750951
 21
4.3111331542
 31
0.0
 11
6.256181426
 21
4.2313698909
 31
0.0
 11
6.250938922
 21
4.154258825
 31
0.0
 11
6.2456333678
 21
4.0802069809
 31
0.0
  0
SPLINE
  5
27A
100
AcDbEntity
  8
0
100
AcDbSpline
 62
9
  6
CONTINUOUS
 70
0
 71
3
 72
33
 73
29
 74
27
 42
0.0000001
 43
0.0000001
 44
0.0000000001
 12
0.154994626
 22
0.4689976442
 32
0.0
 13
0.0245887453
 23
0.49333307
 33
0.0
 40
0.0
 40
0.0
 40
0.0
 40
0.0
 40
0.0035565685
 40
0.0075229978
 40
0.0119012471
 40
0.0166924196
 40
0.0218970339
 40
0.0275151966
 40
0.0399909941
 40
0.0541165692
 40
0.0698869394
 40
0.0872958991
 40
0.1063364046
 40
0.1269990601
 40
0.1492674525
 40
0.1731233456
 40
0.1985482903
 40
0.2255236313
 40
0.2540298895
 40
0.3155545699
 40
0.3829569117
 40
0.456029037
 40
0.5345377175
 40
0.6182560333
 40
0.7069459245
 40
0.8003250237
 40
0.8981084953
 40
1.0
 40
1.0
 40
1.0
 40
1.0
 10
6.2259253863
 20
3.6114968097
 30
0.0
 10
6.226109136
 20
3.6120528171
 30
0.0
 10
6.2264734612
 20
3.6132369993
 30
0.0
 10
6.2269915653
 20
3.6151270146
 30
0.0
 10
6.2275108921
 20
3.617226737
 30
0.0
 10
6.2280314437
 20
3.6195355831
 30
0.0
 10
6.2285532764
 20
3.6220529906
 30
0.0
 10
6.2292762936
 20
3.625820428
 30
0.0
 10
6.2301746042
 20
3.6310492156
 30
0.0
 10
6.231225686
 20
3.6379463159
 30
0.0
 10
6.2322840562
 20
3.6456629953
 30
0.0
 10
6.2333501467
 20
3.6541947261
 30
0.0
 10
6.2344242667
 20
3.6635367293
 30
0.0
 10
6.2355067388
 20
3.673682766
 30
0.0
 10
6.2365978983
 20
3.6846249376
 30
0.0
 10
6.2376979419
 20
3.6963539958
 30
0.0
 10
6.2388070553
 20
3.7088604228
 30
0.0
 10
6.2399254872
 20
3.7221345667
 30
0.0
 10
6.2414687923
 20
3.741337597
 30
0.0
 10
6.2434106435
 20
3.7671860932
 30
0.0
 10
6.2457239272
 20
3.8003645194
 30
0.0
 10
6.2480746593
 20
3.8363431468
 30
0.0
 10
6.2504617443
 20
3.8750112492
 30
0.0
 10
6.2528828753
 20
3.9162533834
 30
0.0
 10
6.255335512
 20
3.9599461182
 30
0.0
 10
6.2578184136
 20
4.0059564889
 30
0.0
 10
6.2603293531
 20
4.0541420445
 30
0.0
 10
6.2619879721
 20
4.0869763757
 30
0.0
 10
6.2628231002
 20
4.1037318587
 30
0.0
 11
6.2259253863
 21
3.6114968097
 31
0.0
 11
6.2264453826
 21
3.6131748376
 31
0.0
 11
6.2269660987
 21
3.6150635722
 31
0.0
 11
6.2274876258
 21
3.6171623621
 31
0.0
 11
6.2280100551
 21
3.6194705559
 31
0.0
 11
6.2285334777
 21
3.6219875023
 31
0.0
 11
6.2290579848
 21
3.6247125498
 31
0.0
 11
6.2301106165
 21
3.6307843445
 31
0.0
 11
6.2311686477
 21
3.637680922
 31
0.0
 11
6.2322327192
 21
3.6453976066
 31
0.0
 11
6.2333034659
 21
3.6539297589
 31
0.0
 11
6.2343815229
 21
3.6632727392
 31
0.0
 11
6.2354674599
 21
3.6734210282
 31
0.0
 11
6.2365616056
 21
3.6843658451
 31
0.0
 11
6.2376642325
 21
3.6960976535
 31
0.0
 11
6.2387756132
 21
3.7086069166
 31
0.0
 11
6.2398960114
 21
3.7218840753
 31
0.0
 11
6.2410255599
 21
3.7359192327
 31
0.0
 11
6.243312236
 21
3.7662229173
 31
0.0
 11
6.2456358027
 21
3.7994348172
 31
0.0
 11
6.2479955207
 21
3.8354512432
 31
0.0
 11
6.2503900573
 21
3.8741562502
 31
0.0
 11
6.2528177764
 21
3.9154372078
 31
0.0
 11
6.2552768763
 21
3.9591761039
 31
0.0
 11
6.2577654705
 21
4.0052331027
 31
0.0
 11
6.2602816286
 21
4.0534672215
 31
0.0
 11
6.2628231002
 21
4.1037318587
 31
0.0
  0
SPLINE
  5
27B
100
AcDbEntity
  8
0
100
AcDbSpline
 62
9
  6
CONTINUOUS
 70
0
 71
3
 72
9
 73
5
 74
3
 42
0.0000001
 43
0.0000001
 44
0.0000000001
 12
-0.0574049084
 22
-0.0663165156
 32
0.0
 13
-0.0702667897
 23
-0.0524955427
 33
0.0
 40
0.0
 40
0.0
 40
0.0
 40
0.0
 40
0.5040378742
 40
1.0
 40
1.0
 40
1.0
 40
1.0
 10
6.2259253863
 20
3.6114968097
 30
0.0
 10
6.216280637
 20
3.6003547978
 30
0.0
 10
6.195983553
 20
3.5792267833
 30
0.0
 10
6.1735315805
 20
3.560395927
 30
0.0
 10
6.161915025
 20
3.5517173266
 30
0.0
 11
6.2259253863
 21
3.6114968097
 31
0.0
 11
6.1952721804
 21
3.5796397614
 31
0.0
 11
6.161915025
 21
3.5517173266
 31
0.0
  0
SPLINE
  5
27C
100
AcDbEntity
  8
0
100
AcDbSpline
 62
9
  6
CONTINUOUS
 70
0
 71
3
 72
38
 73
34
 74
32
 42
0.0000001
 43
0.0000001
 44
0.0000000001
 12
-0.0395404498
 22
-0.5342062613
 32
0.0
 13
-0.3326200919
 23
-0.4198852835
 33
0.0
 40
0.0
 40
0.0
 40
0.0
 40
0.0
 40
0.097606802
 40
0.1914779357
 40
0.2813464277
 40
0.3669837006
 40
0.4481768826
 40
0.4870480647
 40
0.5247387549
 40
0.5612264131
 40
0.5964877523
 40
0.630499568
 40
0.6632390877
 40
0.6946842463
 40
0.7248151262
 40
0.7536132165
 40
0.7810607764
 40
0.807140901
 40
0.8318355343
 40
0.8551256847
 40
0.876993756
 40
0.8974241271
 40
0.916405813
 40
0.9339340987
 40
0.9500081711
 40
0.9575014449
 40
0.9646333697
 40
0.9714058232
 40
0.9778214301
 40
0.9838836055
 40
0.9895967463
 40
0.9949664822
 40
1.0
 40
1.0
 40
1.0
 40
1.0
 10
6.2454882587
 20
4.0782426292
 30
0.0
 10
6.2442017865
 20
4.0608619076
 30
0.0
 10
6.2416132962
 20
4.026770407
 30
0.0
 10
6.2375755772
 20
3.9766966701
 30
0.0
 10
6.2334392253
 20
3.928775712
 30
0.0
 10
6.2291832968
 20
3.8831382158
 30
0.0
 10
6.2254672619
 20
3.8465968465
 30
0.0
 10
6.2223993281
 20
3.8185962009
 30
0.0
 10
6.2200868671
 20
3.7985433161
 30
0.0
 10
6.217726407
 20
3.779145165
 30
0.0
 10
6.2153149802
 20
3.7604153782
 30
0.0
 10
6.2128496664
 20
3.7423678206
 30
0.0
 10
6.2103276257
 20
3.7250163523
 30
0.0
 10
6.2077456873
 20
3.7083745711
 30
0.0
 10
6.2051025422
 20
3.6924553405
 30
0.0
 10
6.2023973707
 20
3.6772709975
 30
0.0
 10
6.1996293536
 20
3.6628337323
 30
0.0
 10
6.1967973051
 20
3.6491562363
 30
0.0
 10
6.1939024822
 20
3.6362515479
 30
0.0
 10
6.1909483424
 20
3.6241329887
 30
0.0
 10
6.1879381709
 20
3.6128142303
 30
0.0
 10
6.1848747713
 20
3.6023086586
 30
0.0
 10
6.1817624997
 20
3.5926281506
 30
0.0
 10
6.1786101729
 20
3.5837822052
 30
0.0
 10
6.1758967769
 20
3.576962103
 30
0.0
 10
6.1737027884
 20
3.5719383242
 30
0.0
 10
6.1720907141
 20
3.5684739556
 30
0.0
 10
6.1704744961
 20
3.5652250599
 30
0.0
 10
6.1688553441
 20
3.5621924693
 30
0.0
 10
6.1672344701
 20
3.5593770035
 30
0.0
 10
6.1656130404
 20
3.5567794301
 30
0.0
 10
6.1639922821
 20
3.5544006144
 30
0.0
 10
6.1628774464
 20
3.5529136992
 30
0.0
 10
6.1623193634
 20
3.5522091991
 30
0.0
 11
6.2454882587
 21
4.0782426292
 31
0.0
 11
6.2415213525
 21
4.0261085319
 31
0.0
 11
6.2374699912
 21
3.975988282
 31
0.0
 11
6.2333179193
 21
3.9280280361
 31
0.0
 11
6.2290443053
 21
3.882354426
 31
0.0
 11
6.2246268113
 21
3.8390867909
 31
0.0
 11
6.2223564806
 21
3.818388901
 31
0.0
 11
6.2200409379
 21
3.798332443
 31
0.0
 11
6.2176770934
 21
3.7789306575
 31
0.0
 11
6.2152619725
 21
3.7601973391
 31
0.0
 11
6.2127926317
 21
3.7421464299
 31
0.0
 11
6.210266127
 21
3.7247918721
 31
0.0
 11
6.2076796607
 21
3.7081474835
 31
0.0
 11
6.2050316461
 21
3.6922260511
 31
0.0
 11
6.202321097
 21
3.6770398504
 31
0.0
 11
6.1995470311
 21
3.6626011538
 31
0.0
 11
6.1967085654
 21
3.6489222733
 31
0.0
 11
6.1938068446
 21
3.6360163428
 31
0.0
 11
6.1908449128
 21
3.6238972661
 31
0.0
 11
6.1878258872
 21
3.6125789762
 31
0.0
 11
6.1847529103
 21
3.6020753819
 31
0.0
 11
6.181630855
 21
3.5923986865
 31
0.0
 11
6.1784674212
 21
3.5835583079
 31
0.0
 11
6.1752705694
 21
3.5755634074
 31
0.0
 11
6.1736620995
 21
3.5718858743
 31
0.0
 11
6.1720482695
 21
3.5684231357
 31
0.0
 11
6.1704302109
 21
3.5651761829
 31
0.0
 11
6.1688091475
 21
3.5621459027
 31
0.0
 11
6.1671863052
 21
3.5593331797
 31
0.0
 11
6.1655629098
 21
3.5567388984
 31
0.0
 11
6.1639401872
 21
3.5543639434
 31
0.0
 11
6.1623193634
 21
3.5522091991
 31
0.0
  0
LINE
  5
27D
100
AcDbEntity
  8
0
100
AcDbLine
 62
9
  6
CONTINUOUS
 10
6.2258830652
 20
3.6113792236
 11
6.2259277091
 21
3.6114995613
  0
SPLINE
  5
27E
100
AcDbEntity
  8
0
100
AcDbSpline
 62
9
  6
CONTINUOUS
 70
0
 71
3
 72
11
 73
7
 74
5
 42
0.0000001
 43
0.0000001
 44
0.0000000001
 12
0.0091729375
 22
0.0226426558
 32
0.0
 13
0.0078492064
 23
0.0231348785
 33
0.0
 40
0.0
 40
0.0
 40
0.0
 40
0.0
 40
0.232236528
 40
0.4763561669
 40
0.7322935092
 40
1.0
 40
1.0
 40
1.0
 40
1.0
 10
6.2174560017
 20
3.5884563642
 30
0.0
 10
6.2181660988
 20
3.5902091815
 30
0.0
 10
6.2195876447
 20
3.5938187404
 30
0.0
 10
6.2216818348
 20
3.5994025047
 30
0.0
 10
6.2237942864
 20
3.6052872083
 30
0.0
 10
6.2251855455
 20
3.609318214
 30
0.0
 10
6.2258859734
 20
3.6113826664
 30
0.0
 11
6.2174560017
 21
3.5884563642
 31
0.0
 11
6.2195380938
 21
3.5937340861
 31
0.0
 11
6.2216351282
 21
3.5993171255
 31
0.0
 11
6.2237500762
 21
3.605201161
 31
0.0
 11
6.2258859734
 21
3.6113826664
 31
0.0
  0
LINE
  5
27F
100
AcDbEntity
  8
0
100
AcDbLine
 62
9
  6
CONTINUOUS
 10
5.5349946886
 20
4.0801961751
 11
5.5351277732
 21
4.0782534438
  0
SPLINE
  5
280
100
AcDbEntity
  8
0
100
AcDbSpline
 62
9
  6
CONTINUOUS
 70
0
 71
3
 72
11
 73
7
 74
5
 42
0.0000001
 43
0.0000001
 44
0.0000000001
 12
-0.2867113821
 22
-0.0254005827
 32
0.0
 13
-0.2878343381
 23
0.0
 33
0.0
 40
0.0
 40
0.0
 40
0.0
 40
0.0
 40
0.2494216814
 40
0.4993459493
 40
0.7495950382
 40
1.0
 40
1.0
 40
1.0
 40
1.0
 10
6.1777621216
 20
4.7393720736
 30
0.0
 10
6.1539247766
 20
4.7372602549
 30
0.0
 10
6.1061577125
 20
4.7335151028
 30
0.0
 10
6.0343491642
 20
4.7294196985
 30
0.0
 10
5.962372997
 20
4.7269105546
 30
0.0
 10
5.9143360729
 20
4.7263383149
 30
0.0
 10
5.890311024
 20
4.7263383149
 30
0.0
 11
6.1777621216
 21
4.7393720736
 31
0.0
 11
6.1061886969
 21
4.733772606
 31
0.0
 11
6.0343680646
 21
4.7296862885
 31
0.0
 11
5.9623811824
 21
4.7271862594
 31
0.0
 11
5.890311024
 21
4.7263383149
 31
0.0
  0
SPLINE
  5
281
100
AcDbEntity
  8
0
100
AcDbSpline
 62
9
  6
CONTINUOUS
 70
0
 71
3
 72
16
 73
12
 74
10
 42
0.0000001
 43
0.0000001
 44
0.0000000001
 12
-0.0163489069
 22
-0.7023830764
 32
0.0
 13
-0.0168908289
 23
-0.7023702532
 33
0.0
 40
0.0
 40
0.0
 40
0.0
 40
0.0
 40
0.1337742508
 40
0.2665856767
 40
0.3975960571
 40
0.4621947475
 40
0.5260654261
 40
0.6512448318
 40
0.7724092172
 40
0.8889034315
 40
1.0
 40
1.0
 40
1.0
 40
1.0
 10
6.1777621216
 20
4.7393720736
 30
0.0
 10
6.1770331006
 20
4.708051817
 30
0.0
 10
6.1755960788
 20
4.64563636
 30
0.0
 10
6.1734891582
 20
4.5525467379
 30
0.0
 10
6.1717704909
 20
4.475652782
 30
0.0
 10
6.1704213439
 20
4.4148999106
 30
0.0
 10
6.1691047099
 20
4.3555122165
 30
0.0
 10
6.1674876058
 20
4.2828807449
 30
0.0
 10
6.1655577652
 20
4.1979292244
 30
0.0
 10
6.1636625033
 20
4.1162758545
 30
0.0
 10
6.1623967361
 20
4.0629911457
 30
0.0
 10
6.1617712317
 20
4.0369808373
 30
0.0
 11
6.1777621216
 21
4.7393720736
 31
0.0
 11
6.1755970189
 21
4.6454107952
 31
0.0
 11
6.1734840281
 21
4.5521249578
 31
0.0
 11
6.1714259068
 21
4.4601035724
 31
0.0
 11
6.1704178398
 21
4.4147294526
 31
0.0
 11
6.1694224733
 21
4.3698666584
 31
0.0
 11
6.1674599411
 21
4.2819408469
 31
0.0
 11
6.1655257835
 21
4.1968359579
 31
0.0
 11
6.163625584
 21
4.1150122921
 31
0.0
 11
6.1617712317
 21
4.0369808373
 31
0.0
  0
SPLINE
  5
282
100
AcDbEntity
  8
0
100
AcDbSpline
 62
9
  6
CONTINUOUS
 70
0
 71
3
 72
12
 73
8
 74
6
 42
0.0000001
 43
0.0000001
 44
0.0000000001
 12
-0.2659592979
 22
-0.0672918513
 32
0.0
 13
-0.2743401928
 23
0.0
 33
0.0
 40
0.0
 40
0.0
 40
0.0
 40
0.0
 40
0.2500631156
 40
0.3751189326
 40
0.5001596669
 40
0.7501305892
 40
1.0
 40
1.0
 40
1.0
 40
1.0
 10
6.1617712317
 20
4.0369808373
 30
0.0
 10
6.1396023615
 20
4.0313717674
 30
0.0
 10
6.1060967809
 20
4.0238987112
 30
0.0
 10
6.0610511029
 20
4.0159412269
 30
0.0
 10
6.0157907809
 20
4.0093614622
 30
0.0
 10
5.9588822175
 20
4.0037752374
 30
0.0
 10
5.9131607648
 20
4.0022445679
 30
0.0
 10
5.890311024
 20
4.0022445679
 30
0.0
 11
6.1617712317
 21
4.0369808373
 31
0.0
 11
6.0948073351
 21
4.0220771197
 31
0.0
 11
6.0610218657
 21
4.0161130825
 31
0.0
 11
6.0270745598
 21
4.0111811258
 31
0.0
 11
5.9588228329
 21
4.0045090617
 31
0.0
 11
5.890311024
 21
4.0022445679
 31
0.0
  0
SPLINE
  5
283
100
AcDbEntity
  8
0
100
AcDbSpline
 62
9
  6
CONTINUOUS
 70
0
 71
3
 72
34
 73
30
 74
28
 42
0.0000001
 43
0.0000001
 44
0.0000000001
 12
-0.0116929794
 22
-0.4960295742
 32
0.0
 13
-0.1825595465
 23
-0.4613611126
 33
0.0
 40
0.0
 40
0.0
 40
0.0
 40
0.0
 40
0.2062225871
 40
0.3020692996
 40
0.392677242
 40
0.4777814399
 40
0.5571525294
 40
0.6305737494
 40
0.6978459173
 40
0.7291162238
 40
0.7587824076
 40
0.7868302907
 40
0.8132459931
 40
0.8380157717
 40
0.8611273599
 40
0.882571059
 40
0.90233777
 40
0.9204189116
 40
0.936809126
 40
0.9515108142
 40
0.9645290961
 40
0.9704093697
 40
0.9758719881
 40
0.9809184517
 40
0.9855505409
 40
0.9897706679
 40
0.9935821606
 40
0.9969896949
 40
1.0
 40
1.0
 40
1.0
 40
1.0
 10
6.1617230756
 20
4.0349401786
 30
0.0
 10
6.1609192901
 20
4.0008426779
 30
0.0
 10
6.1597463132
 20
3.9508974726
 30
0.0
 10
6.1582133947
 20
3.8859710204
 30
0.0
 10
6.1571351752
 20
3.8410710812
 30
0.0
 10
6.1560896467
 20
3.79889604
 30
0.0
 10
6.1550664753
 20
3.759563836
 30
0.0
 10
6.1540559529
 20
3.7231815727
 30
0.0
 10
6.1531905968
 20
3.6947537553
 30
0.0
 10
6.1524812203
 20
3.6735612905
 30
0.0
 10
6.1519536186
 20
3.6588536862
 30
0.0
 10
6.1514148589
 20
3.6449499488
 30
0.0
 10
6.1508622983
 20
3.631857236
 30
0.0
 10
6.1502934183
 20
3.6195824425
 30
0.0
 10
6.1497053127
 20
3.6081318647
 30
0.0
 10
6.1490939757
 20
3.5975112033
 30
0.0
 10
6.1484555733
 20
3.5877257091
 30
0.0
 10
6.1477862296
 20
3.5787801646
 30
0.0
 10
6.1470821131
 20
3.5706777589
 30
0.0
 10
6.1463398884
 20
3.5634199514
 30
0.0
 10
6.1456663871
 20
3.5579032374
 30
0.0
 10
6.1450971619
 20
3.5539144461
 30
0.0
 10
6.1446728813
 20
3.5512371086
 30
0.0
 10
6.1442363123
 20
3.5487711107
 30
0.0
 10
6.1437871378
 20
3.5465165173
 30
0.0
 10
6.1433250892
 20
3.5444734006
 30
0.0
 10
6.1428498989
 20
3.5426417212
 30
0.0
 10
6.142361331
 20
3.5410214986
 30
0.0
 10
6.1420047835
 20
3.540020984
 30
0.0
 10
6.1418215968
 20
3.5395580381
 30
0.0
 11
6.1617230756
 21
4.0349401786
 31
0.0
 11
6.1593148049
 21
3.9326476038
 31
0.0
 11
6.1581896565
 21
3.8851049041
 31
0.0
 11
6.1571073285
 21
3.8401612295
 31
0.0
 11
6.1560572469
 21
3.7979483618
 31
0.0
 11
6.1550288861
 21
3.7585804457
 31
0.0
 11
6.1540108481
 21
3.7221654593
 31
0.0
 11
6.1529864298
 21
3.6888029284
 31
0.0
 11
6.1524659876
 21
3.6732963537
 31
0.0
 11
6.1519367838
 21
3.6585864774
 31
0.0
 11
6.1513961744
 21
3.6446805373
 31
0.0
 11
6.150841509
 21
3.6315856695
 31
0.0
 11
6.1502701315
 21
3.6193090027
 31
0.0
 11
6.1496789231
 21
3.6078570371
 31
0.0
 11
6.149063946
 21
3.597235161
 31
0.0
 11
6.1484211787
 21
3.5874486493
 31
0.0
 11
6.1477465998
 21
3.5785027746
 31
0.0
 11
6.1470362701
 21
3.5704015668
 31
0.0
 11
6.1462864714
 21
3.5631457068
 31
0.0
 11
6.1454935226
 21
3.5567353168
 31
0.0
 11
6.1450797164
 21
3.5538472112
 31
0.0
 11
6.1446537439
 21
3.5511705212
 31
0.0
 11
6.1442151958
 21
3.5487053349
 31
0.0
 11
6.143763721
 21
3.5464518233
 31
0.0
 11
6.1432989715
 21
3.5444101621
 31
0.0
 11
6.1428205996
 21
3.542580527
 31
0.0
 11
6.1423282573
 21
3.5409630938
 31
0.0
 11
6.1418215968
 21
3.5395580381
 31
0.0
  0
SPLINE
  5
284
100
AcDbEntity
  8
0
100
AcDbSpline
 62
9
  6
CONTINUOUS
 70
0
 71
3
 72
16
 73
12
 74
10
 42
0.0000001
 43
0.0000001
 44
0.0000000001
 12
-0.2344036078
 22
-0.1133757423
 32
0.0
 13
-0.2603826228
 23
0.0
 33
0.0
 40
0.0
 40
0.0
 40
0.0
 40
0.0
 40
0.1252254644
 40
0.2504109523
 40
0.3755289405
 40
0.4380634501
 40
0.5005767225
 40
0.6255291355
 40
0.7504058843
 40
0.8752211853
 40
1.0
 40
1.0
 40
1.0
 40
1.0
 10
6.1418215968
 20
3.5395580381
 30
0.0
 10
6.1320371633
 20
3.5348255281
 30
0.0
 10
6.112210552
 20
3.5258904399
 30
0.0
 10
6.0817951157
 20
3.514132987
 30
0.0
 10
6.0559539393
 20
3.5057469247
 30
0.0
 10
6.0350365871
 20
3.4999140436
 30
0.0
 10
6.0139773447
 20
3.4946753226
 30
0.0
 10
5.9874002328
 20
3.4892498656
 30
0.0
 10
5.9552050001
 20
3.4845640318
 30
0.0
 10
5.9228096111
 20
3.4817306593
 30
0.0
 10
5.9011411024
 20
3.4810949423
 30
0.0
 10
5.890311024
 20
3.4810949423
 30
0.0
 11
6.1418215968
 21
3.5395580381
 31
0.0
 11
6.1120935829
 21
3.5261628409
 31
0.0
 11
6.08168892
 21
3.5144127822
 31
0.0
 11
6.0507000066
 21
3.5043604609
 31
0.0
 11
6.0350153306
 21
3.4999873891
 31
0.0
 11
6.019219248
 21
3.4960584521
 31
0.0
 11
5.9873409382
 21
3.4895524529
 31
0.0
 11
5.9551638497
 21
3.4848718521
 31
0.0
 11
5.9227874044
 21
3.4820436738
 31
0.0
 11
5.890311024
 21
3.4810949423
 31
0.0
  0
LINE
  5
285
100
AcDbEntity
  8
0
100
AcDbLine
 62
9
  6
CONTINUOUS
 10
6.1617712317
 20
4.0369808373
 11
6.1617230756
 21
4.0349401786
  0
SPLINE
  5
286
100
AcDbEntity
  8
0
100
AcDbSpline
 62
9
  6
CONTINUOUS
 70
0
 71
3
 72
9
 73
5
 74
3
 42
0.0000001
 43
0.0000001
 44
0.0000000001
 12
-0.0111854561
 22
-0.0214023937
 32
0.0
 13
-0.0125400906
 23
-0.0206379024
 33
0.0
 40
0.0
 40
0.0
 40
0.0
 40
0.0
 40
0.5110935804
 40
1.0
 40
1.0
 40
1.0
 40
1.0
 10
6.1416907543
 20
3.5392759507
 30
0.0
 10
6.1397851494
 20
3.5356297421
 30
0.0
 10
6.1359564463
 20
3.5285474074
 30
0.0
 10
6.1319041097
 20
3.5215900282
 30
0.0
 10
6.1298604661
 20
3.5182266939
 30
0.0
 11
6.1416907543
 21
3.5392759507
 31
0.0
 11
6.1358130814
 21
3.5284229109
 31
0.0
 11
6.1298604661
 21
3.5182266939
 31
0.0
  0
SPLINE
  5
287
100
AcDbEntity
  8
0
100
AcDbSpline
 62
9
  6
CONTINUOUS
 70
0
 71
3
 72
17
 73
13
 74
11
 42
0.0000001
 43
0.0000001
 44
0.0000000001
 12
-0.2197937272
 22
-0.1182736103
 32
0.0
 13
-0.2495955316
 23
0.0
 33
0.0
 40
0.0
 40
0.0
 40
0.0
 40
0.0
 40
0.1249089446
 40
0.1873935724
 40
0.2498893785
 40
0.3748886538
 40
0.499903374
 40
0.5624212893
 40
0.624940541
 40
0.7499648664
 40
0.8749851864
 40
1.0
 40
1.0
 40
1.0
 40
1.0
 10
6.1298604661
 20
3.5182266939
 30
0.0
 10
6.1207090653
 20
3.5133022166
 30
0.0
 10
6.1067486823
 20
3.5063321705
 30
0.0
 10
6.0877402343
 20
3.4979050958
 30
0.0
 10
6.068475877
 20
3.4900589624
 30
0.0
 10
6.0439558036
 20
3.4813596148
 30
0.0
 10
6.0189452999
 20
3.4741828987
 30
0.0
 10
5.9987001664
 20
3.469380673
 30
0.0
 10
5.9783154931
 20
3.4652069985
 30
0.0
 10
5.952606625
 20
3.4611749528
 30
0.0
 10
5.9215205129
 20
3.4582552167
 30
0.0
 10
5.9007120703
 20
3.457601608
 30
0.0
 10
5.890311024
 20
3.457601608
 30
0.0
 11
6.1298604661
 21
3.5182266939
 31
0.0
 11
6.1019675172
 21
3.5042993493
 31
0.0
 11
6.0877099627
 21
3.4979784527
 31
0.0
 11
6.0732635009
 21
3.4920947151
 31
0.0
 11
6.0438592929
 21
3.4816646424
 31
0.0
 11
6.0138657699
 21
3.4730609805
 31
0.0
 11
5.9986829288
 21
3.469459293
 31
0.0
 11
5.9833955469
 21
3.4663292481
 31
0.0
 11
5.9525668124
 21
3.4614946672
 31
0.0
 11
5.9214988703
 21
3.4585783998
 31
0.0
 11
5.890311024
 21
3.457601608
 31
0.0
  0
LINE
  5
288
100
AcDbEntity
  8
0
100
AcDbLine
 62
9
  6
CONTINUOUS
 10
6.1418215968
 20
3.5395580381
 11
6.1416907543
 21
3.5392759507
  0
LINE
  5
289
100
AcDbEntity
  8
0
100
AcDbLine
 62
9
  6
CONTINUOUS
 10
5.5178026471
 20
4.1037243116
 11
5.517669083
 21
4.1062709149
  0
SPLINE
  5
28A
100
AcDbEntity
  8
0
100
AcDbSpline
 62
9
  6
CONTINUOUS
 70
0
 71
3
 72
33
 73
29
 74
27
 42
0.0000001
 43
0.0000001
 44
0.0000000001
 12
-0.1549897191
 22
0.4689992626
 32
0.0
 13
-0.0245882741
 23
0.4933330904
 33
0.0
 40
0.0
 40
0.0
 40
0.0
 40
0.0
 40
0.0035570619
 40
0.0075236888
 40
0.0119018116
 40
0.0166925096
 40
0.0218963388
 40
0.0275134857
 40
0.0399868807
 40
0.0541098943
 40
0.0698776005
 40
0.0872835838
 40
0.1063198006
 40
0.1269771766
 40
0.1492411397
 40
0.1730924648
 40
0.1985118275
 40
0.2254812166
 40
0.2539830284
 40
0.3155068188
 40
0.3829081423
 40
0.4559808485
 40
0.5344915338
 40
0.6182146783
 40
0.7069088781
 40
0.8002981679
 40
0.89809093
 40
1.0
 40
1.0
 40
1.0
 40
1.0
 10
5.5546966617
 20
3.6114968097
 30
0.0
 10
5.5545128924
 20
3.6120528961
 30
0.0
 10
5.5541485425
 20
3.6132371897
 30
0.0
 10
5.553630423
 20
3.6151272971
 30
0.0
 10
5.5531111177
 20
3.6172269565
 30
0.0
 10
5.5525906159
 20
3.6195355797
 30
0.0
 10
5.552068854
 20
3.6220526192
 30
0.0
 10
5.5513459541
 20
3.6258193743
 30
0.0
 10
5.5504477695
 20
3.6310471842
 30
0.0
 10
5.5493967943
 20
3.6379430303
 30
0.0
 10
5.5483385456
 20
3.6456583634
 30
0.0
 10
5.5472726542
 20
3.6541884716
 30
0.0
 10
5.5461987714
 20
3.6635284229
 30
0.0
 10
5.545116561
 20
3.6736721697
 30
0.0
 10
5.544025658
 20
3.6846120045
 30
0.0
 10
5.5429257532
 20
3.6963386643
 30
0.0
 10
5.5418165876
 20
3.7088424248
 30
0.0
 10
5.5406981138
 20
3.7221139249
 30
0.0
 10
5.5391547771
 20
3.7413150881
 30
0.0
 10
5.5372131236
 20
3.7671625503
 30
0.0
 10
5.5348998311
 20
3.800340756
 30
0.0
 10
5.5325489096
 20
3.8363196294
 30
0.0
 10
5.5301615377
 20
3.8749889371
 30
0.0
 10
5.5277404124
 20
3.9162329092
 30
0.0
 10
5.5252874957
 20
3.9599288151
 30
0.0
 10
5.5228043374
 20
4.0059430944
 30
0.0
 10
5.5202930608
 20
4.05413474
 30
0.0
 10
5.5186342039
 20
4.0869734865
 30
0.0
 10
5.5177989479
 20
4.1037318587
 30
0.0
 11
5.5546966617
 21
3.6114968097
 31
0.0
 11
5.5541766071
 21
3.6131750746
 31
0.0
 11
5.5536558752
 21
3.6150639061
 31
0.0
 11
5.5531343692
 21
3.6171626369
 31
0.0
 11
5.5526119921
 21
3.6194706022
 31
0.0
 11
5.5520886437
 21
3.6219871679
 31
0.0
 11
5.5515642216
 21
3.6247117207
 31
0.0
 11
5.5505117473
 21
3.6307823383
 31
0.0
 11
5.5494538345
 21
3.6376776538
 31
0.0
 11
5.5483898846
 21
3.6453930269
 31
0.0
 11
5.5473193072
 21
3.6539237187
 31
0.0
 11
5.5462414963
 21
3.6632645948
 31
0.0
 11
5.5451558517
 21
3.6734102924
 31
0.0
 11
5.5440619292
 21
3.6843529328
 31
0.0
 11
5.5429594176
 21
3.6960824857
 31
0.0
 11
5.5418480345
 21
3.7085889805
 31
0.0
 11
5.5407276357
 21
3.7218631886
 31
0.0
 11
5.5395981261
 21
3.7358961457
 31
0.0
 11
5.537311499
 21
3.766199393
 31
0.0
 11
5.5349879523
 21
3.7994107898
 31
0.0
 11
5.5326280638
 21
3.835427492
 31
0.0
 11
5.5302333095
 21
3.8741334775
 31
0.0
 11
5.5278054712
 21
3.915416817
 31
0.0
 11
5.5253461972
 21
3.9591578347
 31
0.0
 11
5.5228572792
 21
4.0052198566
 31
0.0
 11
5.5203408569
 21
4.0534585565
 31
0.0
 11
5.5177989479
 21
4.1037318587
 31
0.0
  0
SPLINE
  5
28B
100
AcDbEntity
  8
0
100
AcDbSpline
 62
9
  6
CONTINUOUS
 70
0
 71
3
 72
38
 73
34
 74
32
 42
0.0000001
 43
0.0000001
 44
0.0000000001
 12
0.0395386158
 22
-0.5342062352
 32
0.0
 13
0.3325927539
 23
-0.4199067324
 33
0.0
 40
0.0
 40
0.0
 40
0.0
 40
0.0
 40
0.0975986108
 40
0.1914726558
 40
0.2813428314
 40
0.3669795104
 40
0.4481766099
 40
0.4870486824
 40
0.5247386139
 40
0.5612234965
 40
0.5964807392
 40
0.6304883807
 40
0.6632253239
 40
0.6946709968
 40
0.7248054072
 40
0.7536092094
 40
0.7810626661
 40
0.8071457569
 40
0.8318394397
 40
0.8551259742
 40
0.8769894503
 40
0.8974174344
 40
0.9164004336
 40
0.9339316955
 40
0.9500082783
 40
0.9575021403
 40
0.9646343695
 40
0.9714069739
 40
0.9778225954
 40
0.9838846601
 40
0.9895975711
 40
0.994966958
 40
1.0
 40
1.0
 40
1.0
 40
1.0
 10
5.5351337893
 20
4.0782426292
 30
0.0
 10
5.536420094
 20
4.060863367
 30
0.0
 10
5.5390083267
 20
4.0267728025
 30
0.0
 10
5.5430461343
 20
3.9766997315
 30
0.0
 10
5.5471828203
 20
3.9287781001
 30
0.0
 10
5.5514387934
 20
3.8831397245
 30
0.0
 10
5.555154746
 20
3.8465976026
 30
0.0
 10
5.5582223749
 20
3.8185962049
 30
0.0
 10
5.5605345965
 20
3.7985437736
 30
0.0
 10
5.5628949043
 20
3.7791469817
 30
0.0
 10
5.5653065716
 20
3.7604192189
 30
0.0
 10
5.5677725484
 20
3.7423737116
 30
0.0
 10
5.5702949958
 20
3.725023436
 30
0.0
 10
5.5728762267
 20
3.7083812893
 30
0.0
 10
5.5755183889
 20
3.6924601331
 30
0.0
 10
5.5782240343
 20
3.6772731259
 30
0.0
 10
5.5809935978
 20
3.6628335131
 30
0.0
 10
5.5838255276
 20
3.6491545634
 30
0.0
 10
5.5867186782
 20
3.6362498015
 30
0.0
 10
5.5896715321
 20
3.6241325997
 30
0.0
 10
5.5926835425
 20
3.6128162708
 30
0.0
 10
5.5957492371
 20
3.6023124447
 30
0.0
 10
5.5988611296
 20
3.5926314866
 30
0.0
 10
5.6020123011
 20
3.5837838527
 30
0.0
 10
5.6047248988
 20
3.5769622521
 30
0.0
 10
5.6069191143
 20
3.5719379064
 30
0.0
 10
5.6085313898
 20
3.568473427
 30
0.0
 10
5.6101477622
 20
3.5652245157
 30
0.0
 10
5.6117670349
 20
3.5621919796
 30
0.0
 10
5.6133879688
 20
3.5593766171
 30
0.0
 10
5.6150093784
 20
3.5567791782
 30
0.0
 10
5.616630015
 20
3.5544005098
 30
0.0
 10
5.6177447003
 20
3.5529136685
 30
0.0
 10
5.6183026847
 20
3.5522091991
 30
0.0
 11
5.5351337893
 21
4.0782426292
 31
0.0
 11
5.539100184
 21
4.0261129092
 31
0.0
 11
5.5431517663
 21
3.9759911277
 31
0.0
 11
5.5473041139
 21
3.9280300152
 31
0.0
 11
5.55157768
 21
3.882356734
 31
0.0
 11
5.5559951317
 21
3.8390869983
 31
0.0
 11
5.5582652681
 21
3.8183886136
 31
0.0
 11
5.5605805987
 21
3.7983325464
 31
0.0
 11
5.5629443296
 21
3.7789322508
 31
0.0
 11
5.5653596633
 21
3.7602011781
 31
0.0
 11
5.5678294951
 21
3.7421525984
 31
0.0
 11
5.5703561903
 21
3.7247994684
 31
0.0
 11
5.5729420614
 21
3.7081547137
 31
0.0
 11
5.5755894211
 21
3.6922312601
 31
0.0
 11
5.5783004979
 21
3.6770420503
 31
0.0
 11
5.5810757925
 21
3.6626003778
 31
0.0
 11
5.5839141873
 21
3.6489198642
 31
0.0
 11
5.5868145029
 21
3.6360141438
 31
0.0
 11
5.5897755597
 21
3.6238968509
 31
0.0
 11
5.5927958388
 21
3.6125814469
 31
0.0
 11
5.5958704284
 21
3.6020796603
 31
0.0
 11
5.5989924627
 21
3.5924022221
 31
0.0
 11
5.6021550522
 21
3.5835598513
 31
0.0
 11
5.6053513077
 21
3.5755632669
 31
0.0
 11
5.6069598487
 21
3.5718854223
 31
0.0
 11
5.6085738489
 21
3.5684225845
 31
0.0
 11
5.6101920617
 21
3.5651756195
 31
0.0
 11
5.6118132406
 21
3.5621453933
 31
0.0
 11
5.6134361389
 21
3.5593327721
 31
0.0
 11
5.6150595101
 21
3.556738622
 31
0.0
 11
5.6166821075
 21
3.554363809
 31
0.0
 11
5.6183026847
 21
3.5522091991
 31
0.0
  0
SPLINE
  5
28C
100
AcDbEntity
  8
0
100
AcDbSpline
 62
9
  6
CONTINUOUS
 70
0
 71
3
 72
9
 73
5
 74
3
 42
0.0000001
 43
0.0000001
 44
0.0000000001
 12
-0.0702667897
 22
0.0524955427
 32
0.0
 13
-0.0574049084
 23
0.0663165156
 33
0.0
 40
0.0
 40
0.0
 40
0.0
 40
0.0
 40
0.4959621258
 40
1.0
 40
1.0
 40
1.0
 40
1.0
 10
5.6187070231
 20
3.5517173266
 30
0.0
 10
5.6070904676
 20
3.560395927
 30
0.0
 10
5.5846384951
 20
3.5792267833
 30
0.0
 10
5.5643414111
 20
3.6003547978
 30
0.0
 10
5.5546966617
 20
3.6114968097
 30
0.0
 11
5.6187070231
 21
3.5517173266
 31
0.0
 11
5.5853498677
 21
3.5796397614
 31
0.0
 11
5.5546966617
 21
3.6114968097
 31
0.0
  0
LINE
  5
28D
100
AcDbEntity
  8
0
100
AcDbLine
 62
9
  6
CONTINUOUS
 10
5.5547389828
 20
3.6113792236
 11
5.5546943389
 21
3.6114995613
  0
SPLINE
  5
28E
100
AcDbEntity
  8
0
100
AcDbSpline
 62
9
  6
CONTINUOUS
 70
0
 71
3
 72
26
 73
22
 74
20
 42
0.0000001
 43
0.0000001
 44
0.0000000001
 12
-0.1081221529
 22
-0.017914457
 32
0.0
 13
-0.1094510974
 23
0.0056378177
 33
0.0
 40
0.0
 40
0.0
 40
0.0
 40
0.0
 40
0.0023626517
 40
0.0052439359
 40
0.0125608168
 40
0.0219411165
 40
0.0333689601
 40
0.0468263532
 40
0.062293375
 40
0.0797386136
 40
0.0991232627
 40
0.1435540917
 40
0.1952642976
 40
0.2538449993
 40
0.3188311757
 40
0.3897341198
 40
0.4659751431
 40
0.5469526972
 40
0.6320485022
 40
0.8120048762
 40
1.0
 40
1.0
 40
1.0
 40
1.0
 10
6.2882427277
 20
4.7625341698
 30
0.0
 10
6.288157576
 20
4.7625200613
 30
0.0
 10
6.2879676853
 20
4.7624941891
 30
0.0
 10
6.2875111566
 20
4.7624474544
 30
0.0
 10
6.2867972553
 20
4.7624006446
 30
0.0
 10
6.2857706034
 20
4.7623589646
 30
0.0
 10
6.2845191039
 20
4.7623295428
 30
0.0
 10
6.2830450302
 20
4.7623125109
 30
0.0
 10
6.2813510371
 20
4.7623082499
 30
0.0
 10
6.2794405302
 20
4.7623167804
 30
0.0
 10
6.2764720464
 20
4.7623466706
 30
0.0
 10
6.2722522249
 20
4.7624189791
 30
0.0
 10
6.2666014617
 20
4.7625520458
 30
0.0
 10
6.2602008023
 20
4.7627343791
 30
0.0
 10
6.2531001359
 20
4.7629646582
 30
0.0
 10
6.245355514
 20
4.763241396
 30
0.0
 10
6.2370279338
 20
4.7635622822
 30
0.0
 10
6.2281831103
 20
4.7639248981
 30
0.0
 10
6.2155537091
 20
4.7644707134
 30
0.0
 10
6.1990206194
 20
4.7652361085
 30
0.0
 10
6.1855952201
 20
4.7659051317
 30
0.0
 10
6.1787364625
 20
4.7662584257
 30
0.0
 11
6.2882427277
 21
4.7625341698
 31
0.0
 11
6.2879863231
 21
4.7624980392
 31
0.0
 11
6.2876722743
 21
4.7624650403
 31
0.0
 11
6.2868723682
 21
4.7624084923
 31
0.0
 11
6.2858452589
 21
4.7623646348
 31
0.0
 11
6.2845931958
 21
4.7623335765
 31
0.0
 11
6.2831184283
 21
4.7623154265
 31
0.0
 11
6.2814233092
 21
4.7623102853
 31
0.0
 11
6.2795113935
 21
4.7623181557
 31
0.0
 11
6.2773870116
 21
4.7623389775
 31
0.0
 11
6.2725182228
 21
4.7624192303
 31
0.0
 11
6.2668525012
 21
4.7625505062
 31
0.0
 11
6.2604348365
 21
4.7627317116
 31
0.0
 11
6.2533163027
 21
4.7629613946
 31
0.0
 11
6.245550531
 21
4.7632379197
 31
0.0
 11
6.2372009733
 21
4.7635589405
 31
0.0
 11
6.2283335672
 21
4.7639219294
 31
0.0
 11
6.2190160675
 21
4.7643241455
 31
0.0
 11
6.1993145241
 21
4.7652338635
 31
0.0
 11
6.1787364625
 21
4.7662584257
 31
0.0
  0
SPLINE
  5
28F
100
AcDbEntity
  8
0
100
AcDbSpline
 62
9
  6
CONTINUOUS
 70
0
 71
3
 72
25
 73
21
 74
19
 42
0.0000001
 43
0.0000001
 44
0.0000000001
 12
-0.1078471325
 22
-0.0162573793
 32
0.0
 13
-0.1089092918
 23
0.0058371672
 33
0.0
 40
0.0
 40
0.0
 40
0.0
 40
0.0
 40
0.0024698426
 40
0.0054548029
 40
0.0129673034
 40
0.0225265925
 40
0.0341162346
 40
0.0477178927
 40
0.0633114148
 40
0.1003415109
 40
0.1449047045
 40
0.1966821944
 40
0.2552697701
 40
0.3202082073
 40
0.3910150865
 40
0.4671198537
 40
0.5479295658
 40
0.6328349232
 40
0.8123810278
 40
1.0
 40
1.0
 40
1.0
 40
1.0
 10
6.2867307143
 20
4.7354178519
 30
0.0
 10
6.2866419258
 20
4.7354044675
 30
0.0
 10
6.2864450771
 20
4.7353799314
 30
0.0
 10
6.2859756681
 20
4.7353359311
 30
0.0
 10
6.2852476274
 20
4.7352924679
 30
0.0
 10
6.2842062782
 20
4.7352549481
 30
0.0
 10
6.2829431099
 20
4.7352300373
 30
0.0
 10
6.2814603994
 20
4.7352178482
 30
0.0
 10
6.2790527417
 20
4.7352192129
 30
0.0
 10
6.275519629
 20
4.7352582785
 30
0.0
 10
6.2706718084
 20
4.7353534485
 30
0.0
 10
6.2650412307
 20
4.7354998067
 30
0.0
 10
6.2586710457
 20
4.7356962297
 30
0.0
 10
6.251610276
 20
4.7359414462
 30
0.0
 10
6.2439139635
 20
4.7362338178
 30
0.0
 10
6.2356419659
 20
4.7365709578
 30
0.0
 10
6.2268587388
 20
4.7369503445
 30
0.0
 10
6.2143196019
 20
4.7375195154
 30
0.0
 10
6.1979036946
 20
4.7383146539
 30
0.0
 10
6.1845732735
 20
4.7390070185
 30
0.0
 10
6.1777621237
 20
4.7393720729
 30
0.0
 11
6.2867307143
 21
4.7354178519
 31
0.0
 11
6.2864635408
 21
4.735383484
 31
0.0
 11
6.2861394779
 21
4.7353523345
 31
0.0
 11
6.2853218123
 21
4.7352997395
 31
0.0
 11
6.284279974
 21
4.7352601648
 31
0.0
 11
6.2830162196
 21
4.7352337083
 31
0.0
 11
6.2815328056
 21
4.7352204679
 31
0.0
 11
6.2798320887
 21
4.7352205333
 31
0.0
 11
6.2757935764
 21
4.7352604873
 31
0.0
 11
6.2709341465
 21
4.7353530644
 31
0.0
 11
6.2652888543
 21
4.7354976435
 31
0.0
 11
6.2589019531
 21
4.7356930419
 31
0.0
 11
6.2518236306
 21
4.7359377146
 31
0.0
 11
6.2441065661
 21
4.7362299328
 31
0.0
 11
6.2358130106
 21
4.7365672547
 31
0.0
 11
6.2270076376
 21
4.7369470573
 31
0.0
 11
6.2177568879
 21
4.7373665064
 31
0.0
 11
6.1981974023
 21
4.7383115896
 31
0.0
 11
6.1777621237
 21
4.7393720729
 31
0.0
  0
SPLINE
  5
290
100
AcDbEntity
  8
0
100
AcDbSpline
 62
9
  6
CONTINUOUS
 70
0
 71
3
 72
23
 73
19
 74
17
 42
0.0000001
 43
0.0000001
 44
0.0000000001
 12
-0.0463065303
 22
-0.0860541474
 32
0.0
 13
-0.0971542422
 23
-0.0105197086
 33
0.0
 40
0.0
 40
0.0
 40
0.0
 40
0.0
 40
0.0487090465
 40
0.0990400905
 40
0.151138334
 40
0.205112505
 40
0.2610426319
 40
0.3189811311
 40
0.378948443
 40
0.440938548
 40
0.5049205933
 40
0.5708281936
 40
0.6385734864
 40
0.7080555922
 40
0.7791486123
 40
0.8516543066
 40
0.92534847
 40
1.0
 40
1.0
 40
1.0
 40
1.0
 10
6.2454882529
 20
4.0782426304
 30
0.0
 10
6.2447364039
 20
4.0768454253
 30
0.0
 10
6.2430662658
 20
4.0740786013
 30
0.0
 10
6.2401462699
 20
4.0701074661
 30
0.0
 10
6.2367873121
 20
4.0662691604
 30
0.0
 10
6.2330041157
 20
4.0625827229
 30
0.0
 10
6.2288111947
 20
4.0590666898
 30
0.0
 10
6.2242285207
 20
4.0557334541
 30
0.0
 10
6.2192754065
 20
4.0525950853
 30
0.0
 10
6.2139712566
 20
4.0496638571
 30
0.0
 10
6.2083362807
 20
4.0469523935
 30
0.0
 10
6.2023933664
 20
4.0444698845
 30
0.0
 10
6.1961657827
 20
4.0422259257
 30
0.0
 10
6.1896774316
 20
4.0402303941
 30
0.0
 10
6.1829549766
 20
4.0384936386
 30
0.0
 10
6.1760296642
 20
4.0370205978
 30
0.0
 10
6.1689350664
 20
4.0358171962
 30
0.0
 10
6.1641406357
 20
4.0352019752
 30
0.0
 10
6.1617230647
 20
4.0349402044
 30
0.0
 11
6.2454882529
 21
4.0782426304
 31
0.0
 11
6.2430347645
 21
4.074163718
 31
0.0
 11
6.2401270861
 21
4.0701967778
 31
0.0
 11
6.2367795843
 21
4.0663608889
 31
0.0
 11
6.2330066251
 21
4.0626751309
 31
0.0
 11
6.2288234326
 21
4.0591574905
 31
0.0
 11
6.2242486606
 21
4.0558215856
 31
0.0
 11
6.2193018207
 21
4.0526799419
 31
0.0
 11
6.2140024243
 21
4.0497450847
 31
0.0
 11
6.2083706747
 21
4.0470290841
 31
0.0
 11
6.2024295416
 21
4.0445421884
 31
0.0
 11
6.1962026864
 21
4.0422941904
 31
0.0
 11
6.1897137706
 21
4.0402948827
 31
0.0
 11
6.1829882109
 21
4.0385534299
 31
0.0
 11
6.1760584448
 21
4.0370764837
 31
0.0
 11
6.1689586651
 21
4.0358700674
 31
0.0
 11
6.1617230647
 21
4.0349402044
 31
0.0
  0
SPLINE
  5
291
100
AcDbEntity
  8
0
100
AcDbSpline
 62
9
  6
CONTINUOUS
 70
0
 71
3
 72
33
 73
29
 74
27
 42
0.0000001
 43
0.0000001
 44
0.0000000001
 12
-0.0961937323
 22
-0.0379131146
 32
0.0
 13
-0.1030026554
 23
0.0090050749
 33
0.0
 40
0.0
 40
0.0
 40
0.0
 40
0.0
 40
0.0004578577
 40
0.0010480756
 40
0.0026354842
 40
0.0047725734
 40
0.0074617615
 40
0.0107032634
 40
0.0144963757
 40
0.0188399456
 40
0.0237325743
 40
0.0351586861
 40
0.0487604124
 40
0.0645099244
 40
0.0823708107
 40
0.1023063095
 40
0.1242795312
 40
0.1482533795
 40
0.1741831629
 40
0.2316837972
 40
0.2963227755
 40
0.367614812
 40
0.4449731531
 40
0.5277852621
 40
0.6154173638
 40
0.7072028161
 40
0.80245987
 40
1.0
 40
1.0
 40
1.0
 40
1.0
 10
6.4758572741
 20
4.8249799312
 30
0.0
 10
6.475842593
 20
4.824974145
 30
0.0
 10
6.4758078815
 20
4.8249637717
 30
0.0
 10
6.4757189418
 20
4.8249451538
 30
0.0
 10
6.4755711223
 20
4.8249271155
 30
0.0
 10
6.4753506432
 20
4.8249112248
 30
0.0
 10
6.4750727497
 20
4.82490028
 30
0.0
 10
6.4747376615
 20
4.8248942457
 30
0.0
 10
6.4743454972
 20
4.8248932878
 30
0.0
 10
6.4738964518
 20
4.8248974258
 30
0.0
 10
6.4731844339
 20
4.8249105165
 30
0.0
 10
6.4721536453
 20
4.8249411482
 30
0.0
 10
6.4707493272
 20
4.8249965833
 30
0.0
 10
6.4691239132
 20
4.8250724997
 30
0.0
 10
6.4672809479
 20
4.8251687302
 30
0.0
 10
6.4652242634
 20
4.8252851297
 30
0.0
 10
6.4629577042
 20
4.8254215103
 30
0.0
 10
6.4604853787
 20
4.8255776626
 30
0.0
 10
6.4567916335
 20
4.8258203734
 30
0.0
 10
6.4517005074
 20
4.826171975
 30
0.0
 10
6.445051241
 20
4.826653314
 30
0.0
 10
6.4377208317
 20
4.8272039882
 30
0.0
 10
6.4297672135
 20
4.827819539
 30
0.0
 10
6.4212534169
 20
4.8284951963
 30
0.0
 10
6.4122452004
 20
4.8292258173
 30
0.0
 10
6.4028106759
 20
4.8300058287
 30
0.0
 10
6.3896026312
 20
4.8311171264
 30
0.0
 10
6.3795485807
 20
4.8319836546
 30
0.0
 10
6.3727661947
 20
4.8325766091
 30
0.0
 11
6.4758572741
 21
4.8249799312
 31
0.0
 11
6.4758121396
 21
4.8249656484
 31
0.0
 11
6.475752512
 21
4.8249526596
 31
0.0
 11
6.4755898749
 21
4.8249305657
 31
0.0
 11
6.4753695575
 21
4.8249136536
 31
0.0
 11
6.4750917549
 21
4.8249019268
 31
0.0
 11
6.4747566618
 21
4.8248953892
 31
0.0
 11
6.4743644732
 21
4.8248940446
 31
0.0
 11
6.4739153839
 21
4.8248978968
 31
0.0
 11
6.4734095889
 21
4.8249069496
 31
0.0
 11
6.4722286613
 21
4.824940672
 31
0.0
 11
6.4708233621
 21
4.82499523
 31
0.0
 11
6.4691966733
 21
4.8250705008
 31
0.0
 11
6.4673524221
 21
4.8251662705
 31
0.0
 11
6.46529445
 21
4.8252823238
 31
0.0
 11
6.4630265983
 21
4.8254184453
 31
0.0
 11
6.4605527213
 21
4.8255744186
 31
0.0
 11
6.4578774499
 21
4.825749955
 31
0.0
 11
6.4519461671
 21
4.8261581063
 31
0.0
 11
6.4452801538
 21
4.8266396293
 31
0.0
 11
6.4379295235
 21
4.8271909787
 31
0.0
 11
6.4299548153
 21
4.8278075459
 31
0.0
 11
6.4214192108
 21
4.8284844518
 31
0.0
 11
6.4123880658
 21
4.8292165385
 31
0.0
 11
6.402930106
 21
4.8299982157
 31
0.0
 11
6.3931156079
 21
4.8308237322
 31
0.0
 11
6.3727661947
 21
4.8325766091
 31
0.0
  0
SPLINE
  5
292
100
AcDbEntity
  8
0
100
AcDbSpline
 62
9
  6
CONTINUOUS
 70
0
 71
3
 72
33
 73
29
 74
27
 42
0.0000001
 43
0.0000001
 44
0.0000000001
 12
-0.096489859
 22
-0.0320750775
 32
0.0
 13
-0.1012833907
 23
0.0089876723
 33
0.0
 40
0.0
 40
0.0
 40
0.0
 40
0.0
 40
0.0004929547
 40
0.0011186577
 40
0.0027757867
 40
0.004979316
 40
0.0077309936
 40
0.0110307602
 40
0.014877781
 40
0.019270834
 40
0.0242084832
 40
0.0357111825
 40
0.0493715521
 40
0.0651622758
 40
0.0830477856
 40
0.1029921872
 40
0.1249594691
 40
0.1489134235
 40
0.1748104807
 40
0.2322131166
 40
0.2967207862
 40
0.3678610173
 40
0.4450626587
 40
0.5277294842
 40
0.6152444267
 40
0.7069581645
 40
0.8022065328
 40
1.0
 40
1.0
 40
1.0
 40
1.0
 10
6.4717810983
 20
4.7797423536
 30
0.0
 10
6.4717652432
 20
4.7797370831
 30
0.0
 10
6.4717284481
 20
4.7797276215
 30
0.0
 10
6.4716358575
 20
4.7797107664
 30
0.0
 10
6.4714844916
 20
4.7796946431
 30
0.0
 10
6.4712607859
 20
4.7796809329
 30
0.0
 10
6.4709810906
 20
4.7796721402
 30
0.0
 10
6.4706456068
 20
4.7796682465
 30
0.0
 10
6.4702544675
 20
4.7796693895
 30
0.0
 10
6.4698078612
 20
4.7796755874
 30
0.0
 10
6.4691019103
 20
4.7796914947
 30
0.0
 10
6.4680822207
 20
4.779725417
 30
0.0
 10
6.4666953856
 20
4.7797844583
 30
0.0
 10
6.4650929195
 20
4.7798637661
 30
0.0
 10
6.463278227
 20
4.7799631706
 30
0.0
 10
6.4612549855
 20
4.7800825206
 30
0.0
 10
6.4590268837
 20
4.780221626
 30
0.0
 10
6.4565978619
 20
4.7803802757
 30
0.0
 10
6.4529709461
 20
4.7806260845
 30
0.0
 10
6.4479737645
 20
4.780980943
 30
0.0
 10
6.4414484937
 20
4.7814653102
 30
0.0
 10
6.4342554293
 20
4.7820182497
 30
0.0
 10
6.426450023
 20
4.7826354009
 30
0.0
 10
6.4180926072
 20
4.7833120943
 30
0.0
 10
6.4092461389
 20
4.7840433028
 30
0.0
 10
6.3999758476
 20
4.78482359
 30
0.0
 10
6.386982512
 20
4.7859355492
 30
0.0
 10
6.3770880486
 20
4.7868018301
 30
0.0
 10
6.3704103176
 20
4.7873943977
 30
0.0
 11
6.4717810983
 21
4.7797423536
 31
0.0
 11
6.4717327136
 21
4.7797292626
 31
0.0
 11
6.4716701967
 21
4.7797174544
 31
0.0
 11
6.4715028609
 21
4.7796976882
 31
0.0
 11
6.4712792812
 21
4.7796830575
 31
0.0
 11
6.4709996479
 21
4.7796735646
 31
0.0
 11
6.4706641513
 21
4.779669212
 31
0.0
 11
6.4702729817
 21
4.7796700022
 31
0.0
 11
6.4698263294
 21
4.7796759377
 31
0.0
 11
6.4693243848
 21
4.7796870209
 31
0.0
 11
6.4681553796
 21
4.7797246401
 31
0.0
 11
6.4667675953
 21
4.7797828681
 31
0.0
 11
6.4651639031
 21
4.7798615777
 31
0.0
 11
6.4633479751
 21
4.779960555
 31
0.0
 11
6.4613234969
 21
4.7800795845
 31
0.0
 11
6.4590941542
 21
4.7802184505
 31
0.0
 11
6.4566636447
 21
4.7803769364
 31
0.0
 11
6.4540364069
 21
4.780554756
 31
0.0
 11
6.4482141904
 21
4.7809668096
 31
0.0
 11
6.4416728859
 21
4.7814513924
 31
0.0
 11
6.4344604659
 21
4.7820050196
 31
0.0
 11
6.4266348733
 21
4.7826231809
 31
0.0
 11
6.4182565784
 21
4.7833011048
 31
0.0
 11
6.4093881497
 21
4.7840337518
 31
0.0
 11
6.4000954081
 21
4.7848156664
 31
0.0
 11
6.3904456733
 21
4.7856412369
 31
0.0
 11
6.3704103176
 21
4.7873943977
 31
0.0
  0
SPLINE
  5
293
100
AcDbEntity
  8
0
100
AcDbSpline
 62
9
  6
CONTINUOUS
 70
0
 71
3
 72
23
 73
19
 74
17
 42
0.0000001
 43
0.0000001
 44
0.0000000001
 12
-0.020896359
 22
-0.0772763859
 32
0.0
 13
-0.0787461737
 23
-0.0143992277
 33
0.0
 40
0.0
 40
0.0
 40
0.0
 40
0.0
 40
0.0471926781
 40
0.09548713
 40
0.145231675
 40
0.1967298064
 40
0.2502425661
 40
0.3059831647
 40
0.3641121849
 40
0.4247454298
 40
0.4879571514
 40
0.5537690785
 40
0.622168292
 40
0.6931184901
 40
0.7665482776
 40
0.84230086
 40
0.9201857098
 40
1.0
 40
1.0
 40
1.0
 40
1.0
 10
6.4163014491
 20
4.212328925
 30
0.0
 10
6.4159727307
 20
4.2111132984
 30
0.0
 10
6.4151636557
 20
4.2086903881
 30
0.0
 10
6.4135349871
 20
4.205166086
 30
0.0
 10
6.4114882667
 20
4.2017326348
 30
0.0
 10
6.4090316993
 20
4.1984055591
 30
0.0
 10
6.4061734198
 20
4.1951996463
 30
0.0
 10
6.4029269982
 20
4.1921250734
 30
0.0
 10
6.3993052863
 20
4.1891916021
 30
0.0
 10
6.3953210904
 20
4.186409241
 30
0.0
 10
6.3909878787
 20
4.1837884252
 30
0.0
 10
6.386321658
 20
4.1813370328
 30
0.0
 10
6.3813387148
 20
4.1790634243
 30
0.0
 10
6.3760558867
 20
4.1769763027
 30
0.0
 10
6.3704924374
 20
4.1750849756
 30
0.0
 10
6.3646718783
 20
4.1733948057
 30
0.0
 10
6.3586197172
 20
4.1719122429
 30
0.0
 10
6.3544942861
 20
4.1710760735
 30
0.0
 10
6.3523992627
 20
4.1706929855
 30
0.0
 11
6.4163014491
 21
4.212328925
 31
0.0
 11
6.4151090564
 21
4.208744175
 31
0.0
 11
6.4134924218
 21
4.2052323504
 31
0.0
 11
6.4114588188
 21
4.2018086217
 31
0.0
 11
6.4090155212
 21
4.1984881593
 31
0.0
 11
6.4061707149
 21
4.1952853516
 31
0.0
 11
6.4029362351
 21
4.1922114594
 31
0.0
 11
6.3993248292
 21
4.1892769618
 31
0.0
 11
6.3953492447
 21
4.1864923377
 31
0.0
 11
6.3910228829
 21
4.1838677677
 31
0.0
 11
6.3863617608
 21
4.1814122388
 31
0.0
 11
6.3813825492
 21
4.1791344399
 31
0.0
 11
6.3761019191
 21
4.1770430598
 31
0.0
 11
6.3705381136
 21
4.1751464353
 31
0.0
 11
6.3647156655
 21
4.1734514962
 31
0.0
 11
6.3586606802
 21
4.1719648203
 31
0.0
 11
6.3523992627
 21
4.1706929855
 31
0.0
  0
SPLINE
  5
294
100
AcDbEntity
  8
0
100
AcDbSpline
 62
9
  6
CONTINUOUS
 70
0
 71
3
 72
23
 73
19
 74
17
 42
0.0000001
 43
0.0000001
 44
0.0000000001
 12
-0.0208166899
 22
-0.0767667017
 32
0.0
 13
-0.0780237216
 23
-0.0154518587
 33
0.0
 40
0.0
 40
0.0
 40
0.0
 40
0.0
 40
0.0481072905
 40
0.0972492911
 40
0.1477447676
 40
0.1998736663
 40
0.25387967
 40
0.3099662178
 40
0.3682897638
 40
0.4289658825
 40
0.4920718401
 40
0.5576361446
 40
0.6256545942
 40
0.6961005886
 40
0.7689139483
 40
0.8439531088
 40
0.9210439154
 40
1.0
 40
1.0
 40
1.0
 40
1.0
 10
6.4143937964
 20
4.1951846435
 30
0.0
 10
6.4140599849
 20
4.1939536308
 30
0.0
 10
6.4132458715
 20
4.1915008382
 30
0.0
 10
6.4116220897
 20
4.1879288067
 30
0.0
 10
6.4095929939
 20
4.1844464973
 30
0.0
 10
6.4071664028
 20
4.1810691941
 30
0.0
 10
6.4043500473
 20
4.1778114789
 30
0.0
 10
6.4011568811
 20
4.1746835681
 30
0.0
 10
6.3975991929
 20
4.1716952018
 30
0.0
 10
6.3936892184
 20
4.168856318
 30
0.0
 10
6.3894397922
 20
4.1661772459
 30
0.0
 10
6.3848661986
 20
4.1636658676
 30
0.0
 10
6.3799839538
 20
4.1613304984
 30
0.0
 10
6.3748090745
 20
4.1591797819
 30
0.0
 10
6.3693598531
 20
4.1572229685
 30
0.0
 10
6.3636586856
 20
4.155465531
 30
0.0
 10
6.3577298277
 20
4.1539140005
 30
0.0
 10
6.3536865187
 20
4.1530311035
 30
0.0
 10
6.3516330362
 20
4.1526244307
 30
0.0
 11
6.4143937964
 21
4.1951846435
 31
0.0
 11
6.4131922062
 21
4.1915517959
 31
0.0
 11
6.4115792947
 21
4.1879913863
 31
0.0
 11
6.4095620945
 21
4.1845183371
 31
0.0
 11
6.4071476383
 21
4.1811475707
 31
0.0
 11
6.4043438114
 21
4.1778932478
 31
0.0
 11
6.4011619109
 21
4.1747664822
 31
0.0
 11
6.3976140867
 21
4.171777626
 31
0.0
 11
6.3937124888
 21
4.1689370314
 31
0.0
 11
6.3894698835
 21
4.1662547641
 31
0.0
 11
6.3849015032
 21
4.1637397451
 31
0.0
 11
6.3800231965
 21
4.1614006093
 31
0.0
 11
6.3748508123
 21
4.1592459913
 31
0.0
 11
6.3694016925
 21
4.1572841984
 31
0.0
 11
6.3636991514
 21
4.1555222277
 31
0.0
 11
6.3577679968
 21
4.1539667486
 31
0.0
 11
6.3516330362
 21
4.1526244307
 31
0.0
  0
SPLINE
  5
295
100
AcDbEntity
  8
0
100
AcDbSpline
 62
9
  6
CONTINUOUS
 70
0
 71
3
 72
26
 73
22
 74
20
 42
0.0000001
 43
0.0000001
 44
0.0000000001
 12
-0.1094510974
 22
-0.0056378177
 32
0.0
 13
-0.1081221528
 23
0.017914457
 33
0.0
 40
0.0
 40
0.0
 40
0.0
 40
0.0
 40
0.1879951238
 40
0.3679514978
 40
0.4530473028
 40
0.5340248569
 40
0.6102658802
 40
0.6811688243
 40
0.7461550007
 40
0.8047357024
 40
0.8564459084
 40
0.9008767374
 40
0.9202613864
 40
0.937706625
 40
0.9531736468
 40
0.9666310399
 40
0.9780588835
 40
0.9874391832
 40
0.9947560641
 40
0.9976373483
 40
1.0
 40
1.0
 40
1.0
 40
1.0
 10
5.6018855855
 20
4.7662584257
 30
0.0
 10
5.595026828
 20
4.7659051317
 30
0.0
 10
5.5816014287
 20
4.7652361085
 30
0.0
 10
5.565068339
 20
4.7644707134
 30
0.0
 10
5.5524389378
 20
4.7639248981
 30
0.0
 10
5.5435941143
 20
4.7635622822
 30
0.0
 10
5.5352665341
 20
4.763241396
 30
0.0
 10
5.5275219121
 20
4.7629646582
 30
0.0
 10
5.5204212458
 20
4.7627343791
 30
0.0
 10
5.5140205864
 20
4.7625520458
 30
0.0
 10
5.5083698232
 20
4.7624189791
 30
0.0
 10
5.5041500017
 20
4.7623466706
 30
0.0
 10
5.5011815179
 20
4.7623167804
 30
0.0
 10
5.499271011
 20
4.7623082499
 30
0.0
 10
5.4975770179
 20
4.7623125109
 30
0.0
 10
5.4961029442
 20
4.7623295428
 30
0.0
 10
5.4948514446
 20
4.7623589646
 30
0.0
 10
5.4938247928
 20
4.7624006446
 30
0.0
 10
5.4931108915
 20
4.7624474544
 30
0.0
 10
5.4926543628
 20
4.7624941891
 30
0.0
 10
5.4924644721
 20
4.7625200613
 30
0.0
 10
5.4923793204
 20
4.7625341698
 30
0.0
 11
5.6018855855
 21
4.7662584257
 31
0.0
 11
5.581307524
 21
4.7652338635
 31
0.0
 11
5.5616059806
 21
4.7643241455
 31
0.0
 11
5.5522884808
 21
4.7639219294
 31
0.0
 11
5.5434210748
 21
4.7635589405
 31
0.0
 11
5.5350715171
 21
4.7632379197
 31
0.0
 11
5.5273057454
 21
4.7629613946
 31
0.0
 11
5.5201872116
 21
4.7627317116
 31
0.0
 11
5.5137695469
 21
4.7625505062
 31
0.0
 11
5.5081038253
 21
4.7624192303
 31
0.0
 11
5.5032350365
 21
4.7623389775
 31
0.0
 11
5.5011106546
 21
4.7623181557
 31
0.0
 11
5.4991987389
 21
4.7623102853
 31
0.0
 11
5.4975036198
 21
4.7623154265
 31
0.0
 11
5.4960288523
 21
4.7623335765
 31
0.0
 11
5.4947767892
 21
4.7623646348
 31
0.0
 11
5.4937496799
 21
4.7624084923
 31
0.0
 11
5.4929497738
 21
4.7624650403
 31
0.0
 11
5.4926357249
 21
4.7624980392
 31
0.0
 11
5.4923793204
 21
4.7625341698
 31
0.0
  0
SPLINE
  5
296
100
AcDbEntity
  8
0
100
AcDbSpline
 62
9
  6
CONTINUOUS
 70
0
 71
3
 72
25
 73
21
 74
19
 42
0.0000001
 43
0.0000001
 44
0.0000000001
 12
-0.1089092914
 22
-0.0058371648
 32
0.0
 13
-0.1078471349
 23
0.0162573599
 33
0.0
 40
0.0
 40
0.0
 40
0.0
 40
0.0
 40
0.1876189777
 40
0.3671650857
 40
0.4520704439
 40
0.5328801561
 40
0.6089849228
 40
0.679791801
 40
0.7447302369
 40
0.8033178109
 40
0.8550952992
 40
0.8996584913
 40
0.9366885862
 40
0.9522821078
 40
0.9658837656
 40
0.9774734074
 40
0.9870326965
 40
0.994545197
 40
0.9975301573
 40
1.0
 40
1.0
 40
1.0
 40
1.0
 10
5.6028599238
 20
4.7393720727
 30
0.0
 10
5.5960487738
 20
4.7390070184
 30
0.0
 10
5.5827183525
 20
4.7383146541
 30
0.0
 10
5.5663024449
 20
4.7375195158
 30
0.0
 10
5.5537633079
 20
4.7369503451
 30
0.0
 10
5.5449800809
 20
4.7365709584
 30
0.0
 10
5.5367080834
 20
4.7362338184
 30
0.0
 10
5.529011771
 20
4.7359414469
 30
0.0
 10
5.5219510014
 20
4.7356962304
 30
0.0
 10
5.5155808166
 20
4.7354998074
 30
0.0
 10
5.5099502391
 20
4.7353534491
 30
0.0
 10
5.5051024187
 20
4.735258279
 30
0.0
 10
5.5015693061
 20
4.7352192133
 30
0.0
 10
5.4991616485
 20
4.7352178485
 30
0.0
 10
5.497678938
 20
4.7352300376
 30
0.0
 10
5.4964157698
 20
4.7352549483
 30
0.0
 10
5.4953744206
 20
4.735292468
 30
0.0
 10
5.4946463799
 20
4.7353359312
 30
0.0
 10
5.4941769709
 20
4.7353799314
 30
0.0
 10
5.4939801222
 20
4.7354044675
 30
0.0
 10
5.4938913337
 20
4.7354178519
 30
0.0
 11
5.6028599238
 21
4.7393720727
 31
0.0
 11
5.5824246447
 21
4.7383115897
 31
0.0
 11
5.5628651589
 21
4.7373665068
 31
0.0
 11
5.5536144091
 21
4.7369470579
 31
0.0
 11
5.5448090361
 21
4.7365672553
 31
0.0
 11
5.5365154807
 21
4.7362299334
 31
0.0
 11
5.5287984164
 21
4.7359377153
 31
0.0
 11
5.521720094
 21
4.7356930426
 31
0.0
 11
5.5153331931
 21
4.7354976442
 31
0.0
 11
5.509687901
 21
4.735353065
 31
0.0
 11
5.5048284713
 21
4.7352604878
 31
0.0
 11
5.5007899592
 21
4.7352205337
 31
0.0
 11
5.4990892424
 21
4.7352204683
 31
0.0
 11
5.4976058284
 21
4.7352337086
 31
0.0
 11
5.496342074
 21
4.735260165
 31
0.0
 11
5.4953002357
 21
4.7352997397
 31
0.0
 11
5.4944825701
 21
4.7353523346
 31
0.0
 11
5.4941585072
 21
4.7353834841
 31
0.0
 11
5.4938913337
 21
4.7354178519
 31
0.0
  0
SPLINE
  5
297
100
AcDbEntity
  8
0
100
AcDbSpline
 62
9
  6
CONTINUOUS
 70
0
 71
3
 72
23
 73
19
 74
17
 42
0.0000001
 43
0.0000001
 44
0.0000000001
 12
-0.0971542022
 22
0.0105197122
 32
0.0
 13
-0.0463066218
 23
0.0860540535
 33
0.0
 40
0.0
 40
0.0
 40
0.0
 40
0.0
 40
0.0746515231
 40
0.1483456813
 40
0.2208513721
 40
0.2919443905
 40
0.3614264964
 40
0.4291717906
 40
0.4950793936
 40
0.5590614425
 40
0.6210515516
 40
0.6810188678
 40
0.738957371
 40
0.7948875012
 40
0.8488616741
 40
0.9009599174
 40
0.951290959
 40
1.0
 40
1.0
 40
1.0
 40
1.0
 10
5.6188990089
 20
4.0349402648
 30
0.0
 10
5.6164814392
 20
4.0352020357
 30
0.0
 10
5.6116870108
 20
4.0358172566
 30
0.0
 10
5.6045924163
 20
4.0370206575
 30
0.0
 10
5.597667107
 20
4.038493697
 30
0.0
 10
5.5909446546
 20
4.0402304507
 30
0.0
 10
5.5844563056
 20
4.0422259799
 30
0.0
 10
5.5782287236
 20
4.0444699359
 30
0.0
 10
5.5722858104
 20
4.0469524416
 30
0.0
 10
5.5666508352
 20
4.0496639016
 30
0.0
 10
5.5613466854
 20
4.0525951258
 30
0.0
 10
5.5563935708
 20
4.0557334902
 30
0.0
 10
5.5518108958
 20
4.0590667214
 30
0.0
 10
5.5476179734
 20
4.0625827496
 30
0.0
 10
5.5438347749
 20
4.0662691822
 30
0.0
 10
5.5404758144
 20
4.0701074827
 30
0.0
 10
5.5375558153
 20
4.0740786129
 30
0.0
 10
5.5358856745
 20
4.0768454334
 30
0.0
 10
5.5351338241
 20
4.0782426369
 30
0.0
 11
5.6188990089
 21
4.0349402648
 31
0.0
 11
5.6116634121
 21
4.0358701277
 31
0.0
 11
5.6045636358
 21
4.0370765433
 31
0.0
 11
5.5976338727
 21
4.0385534882
 31
0.0
 11
5.5909083155
 21
4.0402949391
 31
0.0
 11
5.5844194019
 21
4.0422942444
 31
0.0
 11
5.5781925484
 21
4.0445422397
 31
0.0
 11
5.5722514164
 21
4.0470291321
 31
0.0
 11
5.5666196674
 21
4.049745129
 31
0.0
 11
5.5613202712
 21
4.0526799822
 31
0.0
 11
5.5563734308
 21
4.0558216217
 31
0.0
 11
5.5517986578
 21
4.059157522
 31
0.0
 11
5.5476154638
 21
4.0626751576
 31
0.0
 11
5.5438425025
 21
4.0663609107
 31
0.0
 11
5.540494998
 21
4.0701967944
 31
0.0
 11
5.5375873164
 21
4.0741637296
 31
0.0
 11
5.5351338241
 21
4.0782426369
 31
0.0
  0
SPLINE
  5
298
100
AcDbEntity
  8
0
100
AcDbSpline
 62
9
  6
CONTINUOUS
 70
0
 71
3
 72
33
 73
29
 74
27
 42
0.0000001
 43
0.0000001
 44
0.0000000001
 12
-0.1030026553
 22
-0.0090050749
 32
0.0
 13
-0.0961937318
 23
0.0379131157
 33
0.0
 40
0.0
 40
0.0
 40
0.0
 40
0.0
 40
0.19754013
 40
0.292797184
 40
0.3845826363
 40
0.472214738
 40
0.555026847
 40
0.6323851882
 40
0.7036772246
 40
0.7683162029
 40
0.8258168372
 40
0.8517466207
 40
0.8757204689
 40
0.8976936906
 40
0.9176291894
 40
0.9354900757
 40
0.9512395877
 40
0.964841314
 40
0.9762674258
 40
0.9811600544
 40
0.9855036243
 40
0.9892967367
 40
0.9925382385
 40
0.9952274266
 40
0.9973645159
 40
0.9989519245
 40
0.9995421423
 40
1.0
 40
1.0
 40
1.0
 40
1.0
 10
5.4078558533
 20
4.8325766091
 30
0.0
 10
5.4010734674
 20
4.8319836546
 30
0.0
 10
5.3910194169
 20
4.8311171264
 30
0.0
 10
5.3778113722
 20
4.8300058287
 30
0.0
 10
5.3683768476
 20
4.8292258173
 30
0.0
 10
5.3593686312
 20
4.8284951963
 30
0.0
 10
5.3508548346
 20
4.8278195389
 30
0.0
 10
5.3429012164
 20
4.8272039882
 30
0.0
 10
5.3355708071
 20
4.826653314
 30
0.0
 10
5.3289215407
 20
4.826171975
 30
0.0
 10
5.3238304146
 20
4.8258203734
 30
0.0
 10
5.3201366694
 20
4.8255776626
 30
0.0
 10
5.3176643439
 20
4.8254215103
 30
0.0
 10
5.3153977847
 20
4.8252851297
 30
0.0
 10
5.3133411002
 20
4.8251687302
 30
0.0
 10
5.3114981349
 20
4.8250724997
 30
0.0
 10
5.3098727209
 20
4.8249965833
 30
0.0
 10
5.3084684028
 20
4.8249411482
 30
0.0
 10
5.3074376142
 20
4.8249105165
 30
0.0
 10
5.3067255963
 20
4.8248974258
 30
0.0
 10
5.3062765509
 20
4.8248932878
 30
0.0
 10
5.3058843866
 20
4.8248942457
 30
0.0
 10
5.3055492984
 20
4.82490028
 30
0.0
 10
5.3052714049
 20
4.8249112248
 30
0.0
 10
5.3050509258
 20
4.8249271155
 30
0.0
 10
5.3049031063
 20
4.8249451538
 30
0.0
 10
5.3048141667
 20
4.8249637717
 30
0.0
 10
5.3047794551
 20
4.824974145
 30
0.0
 10
5.3047647741
 20
4.8249799312
 30
0.0
 11
5.4078558533
 21
4.8325766091
 31
0.0
 11
5.3875064402
 21
4.8308237322
 31
0.0
 11
5.3776919421
 21
4.8299982157
 31
0.0
 11
5.3682339823
 21
4.8292165385
 31
0.0
 11
5.3592028373
 21
4.8284844518
 31
0.0
 11
5.3506672328
 21
4.8278075459
 31
0.0
 11
5.3426925246
 21
4.8271909787
 31
0.0
 11
5.3353418943
 21
4.8266396293
 31
0.0
 11
5.328675881
 21
4.8261581063
 31
0.0
 11
5.3227445982
 21
4.825749955
 31
0.0
 11
5.3200693268
 21
4.8255744186
 31
0.0
 11
5.3175954498
 21
4.8254184453
 31
0.0
 11
5.3153275981
 21
4.8252823238
 31
0.0
 11
5.313269626
 21
4.8251662705
 31
0.0
 11
5.3114253749
 21
4.8250705007
 31
0.0
 11
5.3097986861
 21
4.82499523
 31
0.0
 11
5.3083933868
 21
4.824940672
 31
0.0
 11
5.3072124592
 21
4.8249069496
 31
0.0
 11
5.3067066642
 21
4.8248978968
 31
0.0
 11
5.3062575749
 21
4.8248940446
 31
0.0
 11
5.3058653863
 21
4.8248953892
 31
0.0
 11
5.3055302933
 21
4.8249019268
 31
0.0
 11
5.3052524906
 21
4.8249136536
 31
0.0
 11
5.3050321732
 21
4.8249305658
 31
0.0
 11
5.3048695361
 21
4.8249526596
 31
0.0
 11
5.3048099085
 21
4.8249656484
 31
0.0
 11
5.3047647741
 21
4.8249799312
 31
0.0
  0
SPLINE
  5
299
100
AcDbEntity
  8
0
100
AcDbSpline
 62
9
  6
CONTINUOUS
 70
0
 71
3
 72
33
 73
29
 74
27
 42
0.0000001
 43
0.0000001
 44
0.0000000001
 12
-0.1012833903
 22
-0.0089876729
 32
0.0
 13
-0.0964898484
 23
0.0320751082
 33
0.0
 40
0.0
 40
0.0
 40
0.0
 40
0.0
 40
0.1977934705
 40
0.2930418401
 40
0.384755579
 40
0.4722705223
 40
0.5549373483
 40
0.6321389899
 40
0.7032792209
 40
0.7677868902
 40
0.8251895256
 40
0.8510865824
 40
0.8750405364
 40
0.8970078179
 40
0.916952219
 40
0.9348377283
 40
0.9506284514
 40
0.9642888204
 40
0.9757915192
 40
0.9807291681
 40
0.9851222208
 40
0.9889692412
 40
0.9922690076
 40
0.9950206849
 40
0.9972242139
 40
0.9988813426
 40
0.9995070454
 40
1.0
 40
1.0
 40
1.0
 40
1.0
 10
5.41021173
 20
4.7873943976
 30
0.0
 10
5.4035339989
 20
4.78680183
 30
0.0
 10
5.3936395354
 20
4.785935549
 30
0.0
 10
5.3806461997
 20
4.7848235897
 30
0.0
 10
5.3713759083
 20
4.7840433025
 30
0.0
 10
5.36252944
 20
4.7833120939
 30
0.0
 10
5.3541720242
 20
4.7826354005
 30
0.0
 10
5.3463666179
 20
4.7820182493
 30
0.0
 10
5.3391735536
 20
4.7814653098
 30
0.0
 10
5.3326482828
 20
4.7809809426
 30
0.0
 10
5.3276511013
 20
4.7806260842
 30
0.0
 10
5.3240241855
 20
4.7803802754
 30
0.0
 10
5.3215951638
 20
4.7802216257
 30
0.0
 10
5.319367062
 20
4.7800825203
 30
0.0
 10
5.3173438205
 20
4.7799631704
 30
0.0
 10
5.3155291281
 20
4.7798637659
 30
0.0
 10
5.3139266621
 20
4.7797844581
 30
0.0
 10
5.3125398271
 20
4.7797254169
 30
0.0
 10
5.3115201375
 20
4.7796914945
 30
0.0
 10
5.3108141867
 20
4.7796755873
 30
0.0
 10
5.3103675804
 20
4.7796693893
 30
0.0
 10
5.3099764411
 20
4.7796682464
 30
0.0
 10
5.3096409573
 20
4.7796721402
 30
0.0
 10
5.3093612621
 20
4.7796809329
 30
0.0
 10
5.3091375565
 20
4.7796946431
 30
0.0
 10
5.3089861906
 20
4.7797107663
 30
0.0
 10
5.3088935999
 20
4.7797276215
 30
0.0
 10
5.3088568049
 20
4.7797370831
 30
0.0
 10
5.3088409498
 20
4.7797423536
 30
0.0
 11
5.41021173
 21
4.7873943976
 31
0.0
 11
5.3901763741
 21
4.7856412367
 31
0.0
 11
5.3805266392
 21
4.7848156661
 31
0.0
 11
5.3712338976
 21
4.7840337515
 31
0.0
 11
5.3623654688
 21
4.7833011045
 31
0.0
 11
5.3539871739
 21
4.7826231805
 31
0.0
 11
5.3461615813
 21
4.7820050193
 31
0.0
 11
5.3389491614
 21
4.781451392
 31
0.0
 11
5.3324078569
 21
4.7809668092
 31
0.0
 11
5.3265856405
 21
4.7805547556
 31
0.0
 11
5.3239584028
 21
4.7803769361
 31
0.0
 11
5.3215278933
 21
4.7802184502
 31
0.0
 11
5.3192985506
 21
4.7800795842
 31
0.0
 11
5.3172740725
 21
4.7799605548
 31
0.0
 11
5.3154581445
 21
4.7798615775
 31
0.0
 11
5.3138544524
 21
4.7797828679
 31
0.0
 11
5.3124666682
 21
4.77972464
 31
0.0
 11
5.311297663
 21
4.7796870207
 31
0.0
 11
5.3107957184
 21
4.7796759376
 31
0.0
 11
5.3103490662
 21
4.7796700021
 31
0.0
 11
5.3099578966
 21
4.7796692119
 31
0.0
 11
5.3096224001
 21
4.7796735645
 31
0.0
 11
5.3093427668
 21
4.7796830574
 31
0.0
 11
5.3091191871
 21
4.7796976882
 31
0.0
 11
5.3089518514
 21
4.7797174544
 31
0.0
 11
5.3088893344
 21
4.7797292625
 31
0.0
 11
5.3088409498
 21
4.7797423536
 31
0.0
  0
SPLINE
  5
29A
100
AcDbEntity
  8
0
100
AcDbSpline
 62
9
  6
CONTINUOUS
 70
0
 71
3
 72
23
 73
19
 74
17
 42
0.0000001
 43
0.0000001
 44
0.0000000001
 12
-0.0787461737
 22
0.0143992277
 32
0.0
 13
-0.020896359
 23
0.0772763859
 33
0.0
 40
0.0
 40
0.0
 40
0.0
 40
0.0
 40
0.0798142902
 40
0.15769914
 40
0.2334517224
 40
0.3068815099
 40
0.3778317081
 40
0.4462309215
 40
0.5120428486
 40
0.5752545702
 40
0.6358878151
 40
0.6940168353
 40
0.7497574339
 40
0.8032701936
 40
0.854768325
 40
0.90451287
 40
0.9528073219
 40
1.0
 40
1.0
 40
1.0
 40
1.0
 10
5.4282227853
 20
4.1706929855
 30
0.0
 10
5.426127762
 20
4.1710760735
 30
0.0
 10
5.4220023309
 20
4.1719122429
 30
0.0
 10
5.4159501697
 20
4.1733948057
 30
0.0
 10
5.4101296107
 20
4.1750849756
 30
0.0
 10
5.4045661613
 20
4.1769763027
 30
0.0
 10
5.3992833333
 20
4.1790634243
 30
0.0
 10
5.3943003901
 20
4.1813370328
 30
0.0
 10
5.3896341693
 20
4.1837884252
 30
0.0
 10
5.3853009577
 20
4.186409241
 30
0.0
 10
5.3813167618
 20
4.1891916021
 30
0.0
 10
5.3776950499
 20
4.1921250734
 30
0.0
 10
5.3744486283
 20
4.1951996463
 30
0.0
 10
5.3715903488
 20
4.1984055591
 30
0.0
 10
5.3691337813
 20
4.2017326348
 30
0.0
 10
5.367087061
 20
4.205166086
 30
0.0
 10
5.3654583924
 20
4.2086903881
 30
0.0
 10
5.3646493174
 20
4.2111132984
 30
0.0
 10
5.364320599
 20
4.212328925
 30
0.0
 11
5.4282227853
 21
4.1706929855
 31
0.0
 11
5.4219613679
 21
4.1719648203
 31
0.0
 11
5.4159063825
 21
4.1734514962
 31
0.0
 11
5.4100839345
 21
4.1751464353
 31
0.0
 11
5.404520129
 21
4.1770430598
 31
0.0
 11
5.3992394989
 21
4.1791344399
 31
0.0
 11
5.3942602873
 21
4.1814122388
 31
0.0
 11
5.3895991652
 21
4.1838677676
 31
0.0
 11
5.3852728034
 21
4.1864923377
 31
0.0
 11
5.3812972189
 21
4.1892769618
 31
0.0
 11
5.377685813
 21
4.1922114594
 31
0.0
 11
5.3744513332
 21
4.1952853516
 31
0.0
 11
5.3716065269
 21
4.1984881593
 31
0.0
 11
5.3691632293
 21
4.2018086217
 31
0.0
 11
5.3671296263
 21
4.2052323504
 31
0.0
 11
5.3655129917
 21
4.208744175
 31
0.0
 11
5.364320599
 21
4.212328925
 31
0.0
  0
SPLINE
  5
29B
100
AcDbEntity
  8
0
100
AcDbSpline
 62
9
  6
CONTINUOUS
 70
0
 71
3
 72
23
 73
19
 74
17
 42
0.0000001
 43
0.0000001
 44
0.0000000001
 12
-0.0780237231
 22
0.0154518553
 32
0.0
 13
-0.0208166838
 23
0.0767667042
 33
0.0
 40
0.0
 40
0.0
 40
0.0
 40
0.0
 40
0.0789560831
 40
0.1560468882
 40
0.2310860473
 40
0.3038994055
 40
0.3743453986
 40
0.4423638471
 40
0.5079281507
 40
0.5710341075
 40
0.6317102259
 40
0.6900337718
 40
0.74612032
 40
0.8001263246
 40
0.8522552247
 40
0.9027507032
 40
0.9518927063
 40
1.0
 40
1.0
 40
1.0
 40
1.0
 10
5.4289890104
 20
4.152624429
 30
0.0
 10
5.4269355279
 20
4.1530311017
 30
0.0
 10
5.4228922189
 20
4.1539139986
 30
0.0
 10
5.416963361
 20
4.1554655288
 30
0.0
 10
5.4112621935
 20
4.1572229662
 30
0.0
 10
5.4058129722
 20
4.1591797795
 30
0.0
 10
5.4006380929
 20
4.161330496
 30
0.0
 10
5.3957558481
 20
4.1636658652
 30
0.0
 10
5.3911822546
 20
4.1661772436
 30
0.0
 10
5.3869328284
 20
4.1688563158
 30
0.0
 10
5.383022854
 20
4.1716951997
 30
0.0
 10
5.3794651659
 20
4.1746835662
 30
0.0
 10
5.3762719998
 20
4.1778114772
 30
0.0
 10
5.3734556445
 20
4.1810691927
 30
0.0
 10
5.3710290535
 20
4.1844464963
 30
0.0
 10
5.3689999578
 20
4.187928806
 30
0.0
 10
5.3673761763
 20
4.1915008379
 30
0.0
 10
5.366562063
 20
4.1939536307
 30
0.0
 10
5.3662282516
 20
4.1951846435
 30
0.0
 11
5.4289890104
 21
4.152624429
 31
0.0
 11
5.4228540498
 21
4.1539667467
 31
0.0
 11
5.4169228952
 21
4.1555222255
 31
0.0
 11
5.4112203541
 21
4.1572841961
 31
0.0
 11
5.4057712343
 21
4.1592459889
 31
0.0
 11
5.4005988501
 21
4.1614006069
 31
0.0
 11
5.3957205435
 21
4.1637397427
 31
0.0
 11
5.3911521633
 21
4.1662547617
 31
0.0
 11
5.3869095581
 21
4.1689370291
 31
0.0
 11
5.3830079602
 21
4.171777624
 31
0.0
 11
5.3794601361
 21
4.1747664803
 31
0.0
 11
5.3762782357
 21
4.1778932462
 31
0.0
 11
5.373474409
 21
4.1811475693
 31
0.0
 11
5.3710599529
 21
4.184518336
 31
0.0
 11
5.3690427529
 21
4.1879913855
 31
0.0
 11
5.3674298416
 21
4.1915517955
 31
0.0
 11
5.3662282516
 21
4.1951846435
 31
0.0
  0
LINE
  5
29C
100
AcDbEntity
  8
0
100
AcDbLine
 62
9
  6
CONTINUOUS
 10
6.3280075452
 20
4.7800304418
 11
6.2932769192
 21
4.7813469255
  0
SPLINE
  5
29D
100
AcDbEntity
  8
0
100
AcDbSpline
 62
9
  6
CONTINUOUS
 70
0
 71
3
 72
11
 73
7
 74
5
 42
0.0000001
 43
0.0000001
 44
0.0000000001
 12
-0.0091729375
 22
0.0226426558
 32
0.0
 13
-0.0078492065
 23
0.0231348785
 33
0.0
 40
0.0
 40
0.0
 40
0.0
 40
0.0
 40
0.232236528
 40
0.4763561669
 40
0.7322935092
 40
1.0
 40
1.0
 40
1.0
 40
1.0
 10
5.5631660464
 20
3.5884563642
 30
0.0
 10
5.5624559493
 20
3.5902091815
 30
0.0
 10
5.5610344034
 20
3.5938187404
 30
0.0
 10
5.5589402133
 20
3.5994025047
 30
0.0
 10
5.5568277617
 20
3.6052872083
 30
0.0
 10
5.5554365025
 20
3.609318214
 30
0.0
 10
5.5547360747
 20
3.6113826664
 30
0.0
 11
5.5631660464
 21
3.5884563642
 31
0.0
 11
5.5610839543
 21
3.5937340861
 31
0.0
 11
5.5589869198
 21
3.5993171255
 31
0.0
 11
5.5568719718
 21
3.605201161
 31
0.0
 11
5.5547360747
 21
3.6113826664
 31
0.0
  0
SPLINE
  5
29E
100
AcDbEntity
  8
0
100
AcDbSpline
 62
9
  6
CONTINUOUS
 70
0
 71
3
 72
23
 73
19
 74
17
 42
0.0000001
 43
0.0000001
 44
0.0000000001
 12
-0.0345220219
 22
0.0014468212
 32
0.0
 13
-0.0341745544
 23
-0.0050954021
 33
0.0
 40
0.0
 40
0.0
 40
0.0
 40
0.0
 40
0.1910121514
 40
0.3727332579
 40
0.5391137328
 40
0.6150835938
 40
0.685528371
 40
0.7499368683
 40
0.8078872041
 40
0.8589800191
 40
0.9028163721
 40
0.9390342873
 40
0.9542166335
 40
0.9674182387
 40
0.9786173273
 40
0.9877928694
 40
0.9949254583
 40
1.0
 40
1.0
 40
1.0
 40
1.0
 10
6.3273001613
 20
4.7687804549
 30
0.0
 10
6.3251021194
 20
4.768872575
 30
0.0
 10
6.3208127046
 20
4.769046524
 30
0.0
 10
6.3146078881
 20
4.7692803263
 30
0.0
 10
6.309726533
 20
4.7694479243
 30
0.0
 10
6.3061256788
 20
4.7695601415
 30
0.0
 10
6.3036985379
 20
4.7696299986
 30
0.0
 10
6.3014786782
 20
4.7696876406
 30
0.0
 10
6.2994814636
 20
4.7697327377
 30
0.0
 10
6.2977209717
 20
4.7697650542
 30
0.0
 10
6.2962106083
 20
4.7697843582
 30
0.0
 10
6.2951137185
 20
4.7697899045
 30
0.0
 10
6.2943696727
 20
4.7697866605
 30
0.0
 10
6.2939138028
 20
4.7697811061
 30
0.0
 10
6.2935271869
 20
4.7697723443
 30
0.0
 10
6.2932105595
 20
4.7697605592
 30
0.0
 10
6.2929647437
 20
4.7697457299
 30
0.0
 10
6.2928246761
 20
4.7697322029
 30
0.0
 10
6.2927668693
 20
4.769723584
 30
0.0
 11
6.3273001613
 21
4.7687804549
 31
0.0
 11
6.3207056571
 21
4.7690476292
 31
0.0
 11
6.3144311955
 21
4.7692833301
 31
0.0
 11
6.3086857106
 21
4.7694794915
 31
0.0
 11
6.3060620423
 21
4.7695610435
 31
0.0
 11
6.3036290113
 21
4.7696308069
 31
0.0
 11
6.3014042893
 21
4.7696882501
 31
0.0
 11
6.299402471
 21
4.7697330235
 31
0.0
 11
6.2976373818
 21
4.7697648229
 31
0.0
 11
6.2961228471
 21
4.7697833443
 31
0.0
 11
6.2948714439
 21
4.7697883618
 31
0.0
 11
6.2943468646
 21
4.7697858292
 31
0.0
 11
6.2938907561
 21
4.7697799635
 31
0.0
 11
6.2935039104
 21
4.7697707853
 31
0.0
 11
6.2931871194
 21
4.7697583154
 31
0.0
 11
6.2929411751
 21
4.7697425747
 31
0.0
 11
6.2927668693
 21
4.769723584
 31
0.0
  0
SPLINE
  5
29F
100
AcDbEntity
  8
0
100
AcDbSpline
 62
9
  6
CONTINUOUS
 70
0
 71
3
 72
15
 73
11
 74
9
 42
0.0000001
 43
0.0000001
 44
0.0000000001
 12
-0.0264223423
 22
-0.0054187344
 32
0.0
 13
-0.0119012823
 23
-0.0242045933
 33
0.0
 40
0.0
 40
0.0
 40
0.0
 40
0.0
 40
0.1512780351
 40
0.2963935066
 40
0.4340647036
 40
0.5634714575
 40
0.6844426587
 40
0.7971329713
 40
0.9020286069
 40
1.0
 40
1.0
 40
1.0
 40
1.0
 10
6.2853353203
 20
4.1197639809
 30
0.0
 10
6.284002947
 20
4.1194907357
 30
0.0
 10
6.2814099429
 20
4.1188645612
 30
0.0
 10
6.277691886
 20
4.1176663061
 30
0.0
 10
6.2742660028
 20
4.1162404765
 30
0.0
 10
6.2711794847
 20
4.1146017795
 30
0.0
 10
6.268467936
 20
4.1127719491
 30
0.0
 10
6.2661653952
 20
4.1107673903
 30
0.0
 10
6.2643010536
 20
4.1086157933
 30
0.0
 10
6.2633379847
 20
4.1070539358
 30
0.0
 10
6.262949323
 20
4.1062634832
 30
0.0
 11
6.2853353203
 21
4.1197639809
 31
0.0
 11
6.2813701473
 21
4.1188015165
 31
0.0
 11
6.2776470598
 21
4.1175937339
 31
0.0
 11
6.2742226782
 21
4.1161576864
 31
0.0
 11
6.2711448613
 21
4.1145115135
 31
0.0
 11
6.2684478887
 21
4.1126750391
 31
0.0
 11
6.2661644991
 21
4.1106688566
 31
0.0
 11
6.264323104
 21
4.1085208234
 31
0.0
 11
6.262949323
 21
4.1062634832
 31
0.0
  0
SPLINE
  5
2A0
100
AcDbEntity
  8
0
100
AcDbSpline
 62
9
  6
CONTINUOUS
 70
0
 71
3
 72
15
 73
11
 74
9
 42
0.0000001
 43
0.0000001
 44
0.0000000001
 12
-0.0263838258
 22
-0.0054600208
 32
0.0
 13
-0.0118869179
 23
-0.0241789014
 33
0.0
 40
0.0
 40
0.0
 40
0.0
 40
0.0
 40
0.151074584
 40
0.296025215
 40
0.4335848644
 40
0.5629449526
 40
0.6839409542
 40
0.7967307661
 40
0.9017973492
 40
1.0
 40
1.0
 40
1.0
 40
1.0
 10
6.2851577324
 20
4.1172655495
 30
0.0
 10
6.2838290906
 20
4.1169905927
 30
0.0
 10
6.2812432878
 20
4.1163610604
 30
0.0
 10
6.2775357721
 20
4.1151580238
 30
0.0
 10
6.2741192964
 20
4.1137276744
 30
0.0
 10
6.2710407199
 20
4.1120847156
 30
0.0
 10
6.268335396
 20
4.1102508227
 30
0.0
 10
6.2660371608
 20
4.1082424115
 30
0.0
 10
6.2641750234
 20
4.1060871275
 30
0.0
 10
6.2632122091
 20
4.1045233361
 30
0.0
 10
6.2628231002
 20
4.1037318587
 30
0.0
 11
6.2851577324
 21
4.1172655495
 31
0.0
 11
6.2812039991
 21
4.1162980755
 31
0.0
 11
6.2774915984
 21
4.1150855914
 31
0.0
 11
6.2740767191
 21
4.1136451407
 31
0.0
 11
6.2710068596
 21
4.1119948376
 31
0.0
 11
6.2683160486
 21
4.1101544571
 31
0.0
 11
6.2660367886
 21
4.108144539
 31
0.0
 11
6.2641973128
 21
4.1059928584
 31
0.0
 11
6.2628231002
 21
4.1037318587
 31
0.0
  0
SPLINE
  5
2A1
100
AcDbEntity
  8
0
100
AcDbSpline
 62
9
  6
CONTINUOUS
 70
0
 71
3
 72
11
 73
7
 74
5
 42
0.0000001
 43
0.0000001
 44
0.0000000001
 12
-0.2878343381
 22
0.0
 32
0.0
 13
-0.2867113821
 23
0.0254005827
 33
0.0
 40
0.0
 40
0.0
 40
0.0
 40
0.0
 40
0.2504049618
 40
0.5006540507
 40
0.7505783186
 40
1.0
 40
1.0
 40
1.0
 40
1.0
 10
5.890311024
 20
4.7263383149
 30
0.0
 10
5.8662859752
 20
4.7263383149
 30
0.0
 10
5.8182490511
 20
4.7269105546
 30
0.0
 10
5.7462728839
 20
4.7294196985
 30
0.0
 10
5.6744643356
 20
4.7335151028
 30
0.0
 10
5.6266972715
 20
4.7372602549
 30
0.0
 10
5.6028599265
 20
4.7393720736
 30
0.0
 11
5.890311024
 21
4.7263383149
 31
0.0
 11
5.8182408657
 21
4.7271862594
 31
0.0
 11
5.7462539834
 21
4.7296862885
 31
0.0
 11
5.6744333512
 21
4.733772606
 31
0.0
 11
5.6028599265
 21
4.7393720736
 31
0.0
  0
LINE
  5
2A2
100
AcDbEntity
  8
0
100
AcDbLine
 62
9
  6
CONTINUOUS
 10
5.4526145028
 20
4.7800304418
 11
5.4252816455
 21
5.2704932952
  0
LINE
  5
2A3
100
AcDbEntity
  8
0
100
AcDbLine
 62
9
  6
CONTINUOUS
 10
5.4873451289
 20
4.7813469255
 11
5.4526145028
 21
4.7800304418
  0
SPLINE
  5
2A4
100
AcDbEntity
  8
0
100
AcDbSpline
 62
9
  6
CONTINUOUS
 70
0
 71
3
 72
23
 73
19
 74
17
 42
0.0000001
 43
0.0000001
 44
0.0000000001
 12
-0.0341745544
 22
0.0050954021
 32
0.0
 13
-0.0345220219
 23
-0.0014468212
 33
0.0
 40
0.0
 40
0.0
 40
0.0
 40
0.0
 40
0.0050745417
 40
0.0122071306
 40
0.0213826727
 40
0.0325817613
 40
0.0457833665
 40
0.0609657127
 40
0.0971836279
 40
0.1410199809
 40
0.1921127959
 40
0.2500631317
 40
0.314471629
 40
0.3849164062
 40
0.4608862672
 40
0.6272667421
 40
0.8089878486
 40
1.0
 40
1.0
 40
1.0
 40
1.0
 10
5.4878551787
 20
4.769723584
 30
0.0
 10
5.487797372
 20
4.7697322029
 30
0.0
 10
5.4876573044
 20
4.7697457299
 30
0.0
 10
5.4874114886
 20
4.7697605592
 30
0.0
 10
5.4870948612
 20
4.7697723443
 30
0.0
 10
5.4867082453
 20
4.7697811061
 30
0.0
 10
5.4862523754
 20
4.7697866605
 30
0.0
 10
5.4855083296
 20
4.7697899045
 30
0.0
 10
5.4844114397
 20
4.7697843582
 30
0.0
 10
5.4829010763
 20
4.7697650542
 30
0.0
 10
5.4811405845
 20
4.7697327377
 30
0.0
 10
5.4791433699
 20
4.7696876406
 30
0.0
 10
5.4769235101
 20
4.7696299986
 30
0.0
 10
5.4744963692
 20
4.7695601415
 30
0.0
 10
5.470895515
 20
4.7694479243
 30
0.0
 10
5.46601416
 20
4.7692803263
 30
0.0
 10
5.4598093435
 20
4.769046524
 30
0.0
 10
5.4555199287
 20
4.768872575
 30
0.0
 10
5.4533218868
 20
4.7687804549
 30
0.0
 11
5.4878551787
 21
4.769723584
 31
0.0
 11
5.487680873
 21
4.7697425747
 31
0.0
 11
5.4874349286
 21
4.7697583154
 31
0.0
 11
5.4871181376
 21
4.7697707853
 31
0.0
 11
5.4867312919
 21
4.7697799635
 31
0.0
 11
5.4862751835
 21
4.7697858292
 31
0.0
 11
5.4857506042
 21
4.7697883618
 31
0.0
 11
5.484499201
 21
4.7697833443
 31
0.0
 11
5.4829846663
 21
4.7697648229
 31
0.0
 11
5.481219577
 21
4.7697330235
 31
0.0
 11
5.4792177587
 21
4.7696882501
 31
0.0
 11
5.4769930368
 21
4.7696308069
 31
0.0
 11
5.4745600058
 21
4.7695610435
 31
0.0
 11
5.4719363375
 21
4.7694794915
 31
0.0
 11
5.4661908526
 21
4.7692833301
 31
0.0
 11
5.459916391
 21
4.7690476292
 31
0.0
 11
5.4533218868
 21
4.7687804549
 31
0.0
  0
SPLINE
  5
2A5
100
AcDbEntity
  8
0
100
AcDbSpline
 62
9
  6
CONTINUOUS
 70
0
 71
3
 72
15
 73
11
 74
9
 42
0.0000001
 43
0.0000001
 44
0.0000000001
 12
-0.0119012836
 22
0.0242045927
 32
0.0
 13
-0.0264223425
 23
0.0054187342
 33
0.0
 40
0.0
 40
0.0
 40
0.0
 40
0.0
 40
0.0979713938
 40
0.2028670302
 40
0.3155573435
 40
0.436528545
 40
0.565935299
 40
0.7036064956
 40
0.8487219662
 40
1.0
 40
1.0
 40
1.0
 40
1.0
 10
5.5176727252
 20
4.1062634832
 30
0.0
 10
5.5172840634
 20
4.1070539358
 30
0.0
 10
5.5163209945
 20
4.1086157933
 30
0.0
 10
5.5144566527
 20
4.1107673902
 30
0.0
 10
5.5121541118
 20
4.112771949
 30
0.0
 10
5.5094425631
 20
4.1146017793
 30
0.0
 10
5.5063560449
 20
4.1162404762
 30
0.0
 10
5.5029301618
 20
4.1176663058
 30
0.0
 10
5.4992121049
 20
4.1188645609
 30
0.0
 10
5.4966191008
 20
4.1194907353
 30
0.0
 10
5.4952867274
 20
4.1197639804
 30
0.0
 11
5.5176727252
 21
4.1062634832
 31
0.0
 11
5.5162989441
 21
4.1085208234
 31
0.0
 11
5.5144575489
 21
4.1106688566
 31
0.0
 11
5.5121741592
 21
4.112675039
 31
0.0
 11
5.5094771865
 21
4.1145115133
 31
0.0
 11
5.5063993696
 21
4.1161576861
 31
0.0
 11
5.5029749879
 21
4.1175937336
 31
0.0
 11
5.4992519005
 21
4.1188015162
 31
0.0
 11
5.4952867274
 21
4.1197639804
 31
0.0
  0
SPLINE
  5
2A6
100
AcDbEntity
  8
0
100
AcDbSpline
 62
9
  6
CONTINUOUS
 70
0
 71
3
 72
15
 73
11
 74
9
 42
0.0000001
 43
0.0000001
 44
0.0000000001
 12
-0.0118869179
 22
0.0241789014
 32
0.0
 13
-0.0263838258
 23
0.0054600208
 33
0.0
 40
0.0
 40
0.0
 40
0.0
 40
0.0
 40
0.0982026508
 40
0.2032692339
 40
0.3160590458
 40
0.4370550474
 40
0.5664151356
 40
0.703974785
 40
0.848925416
 40
1.0
 40
1.0
 40
1.0
 40
1.0
 10
5.5177989479
 20
4.1037318587
 30
0.0
 10
5.5174098389
 20
4.1045233361
 30
0.0
 10
5.5164470247
 20
4.1060871275
 30
0.0
 10
5.5145848873
 20
4.1082424115
 30
0.0
 10
5.5122866521
 20
4.1102508227
 30
0.0
 10
5.5095813282
 20
4.1120847156
 30
0.0
 10
5.5065027517
 20
4.1137276744
 30
0.0
 10
5.5030862759
 20
4.1151580238
 30
0.0
 10
5.4993787602
 20
4.1163610604
 30
0.0
 10
5.4967929575
 20
4.1169905927
 30
0.0
 10
5.4954643157
 20
4.1172655495
 30
0.0
 11
5.5177989479
 21
4.1037318587
 31
0.0
 11
5.5164247353
 21
4.1059928584
 31
0.0
 11
5.5145852595
 21
4.108144539
 31
0.0
 11
5.5123059995
 21
4.1101544571
 31
0.0
 11
5.5096151884
 21
4.1119948376
 31
0.0
 11
5.506545329
 21
4.1136451407
 31
0.0
 11
5.5031304497
 21
4.1150855914
 31
0.0
 11
5.499418049
 21
4.1162980755
 31
0.0
 11
5.4954643157
 21
4.1172655495
 31
0.0
  0
LINE
  5
2A7
100
AcDbEntity
  8
0
100
AcDbLine
 62
9
  6
CONTINUOUS
 10
5.4078558533
 20
4.8325766091
 11
5.410211735
 21
4.7873943986
  0
SPLINE
  5
2A8
100
AcDbEntity
  8
0
100
AcDbSpline
 62
9
  6
CONTINUOUS
 70
0
 71
3
 72
16
 73
12
 74
10
 42
0.0000001
 43
0.0000001
 44
0.0000000001
 12
0.0163489093
 22
-0.7023830763
 32
0.0
 13
0.0168896095
 23
-0.7023702825
 33
0.0
 40
0.0
 40
0.0
 40
0.0
 40
0.0
 40
0.1337747058
 40
0.2665878418
 40
0.3975995406
 40
0.4621984328
 40
0.5260692481
 40
0.6512501236
 40
0.7724155006
 40
0.8889061163
 40
1.0
 40
1.0
 40
1.0
 40
1.0
 10
5.6028599265
 20
4.7393720736
 30
0.0
 10
5.60358895
 20
4.7080517105
 30
0.0
 10
5.6050260545
 20
4.6456357483
 30
0.0
 10
5.6071329171
 20
4.5525453087
 30
0.0
 10
5.6088514197
 20
4.4756505925
 30
0.0
 10
5.610200757
 20
4.4148973372
 30
0.0
 10
5.6115176132
 20
4.3555092245
 30
0.0
 10
5.6131346537
 20
4.2828771429
 30
0.0
 10
5.6150642887
 20
4.1979258841
 30
0.0
 10
5.6169595565
 20
4.1162737539
 30
0.0
 10
5.6182253723
 20
4.0629905182
 30
0.0
 10
5.6188508164
 20
4.0369808373
 30
0.0
 11
5.6028599265
 21
4.7393720736
 31
0.0
 11
5.6050250771
 21
4.6454104766
 31
0.0
 11
5.6071380248
 21
4.5521234364
 31
0.0
 11
5.6091960828
 21
4.4601011231
 31
0.0
 11
5.6102042665
 21
4.414726864
 31
0.0
 11
5.611199768
 21
4.3698639768
 31
0.0
 11
5.6131623009
 21
4.2819371325
 31
0.0
 11
5.6150963327
 21
4.1968315437
 31
0.0
 11
5.6169964871
 21
4.1150104058
 31
0.0
 11
5.6188508164
 21
4.0369808373
 31
0.0
  0
LINE
  5
2A9
100
AcDbEntity
  8
0
100
AcDbLine
 62
9
  6
CONTINUOUS
 10
5.4533218868
 20
4.7687804549
 11
5.4526145028
 21
4.7800304418
  0
SPLINE
  5
2AA
100
AcDbEntity
  8
0
100
AcDbSpline
 62
9
  6
CONTINUOUS
 70
0
 71
3
 72
17
 73
13
 74
11
 42
0.0000001
 43
0.0000001
 44
0.0000000001
 12
-0.0455674147
 22
0.6487749725
 32
0.0
 13
-0.0405586357
 23
0.6491073496
 33
0.0
 40
0.0
 40
0.0
 40
0.0
 40
0.0
 40
0.1138161968
 40
0.2320449025
 40
0.3540721254
 40
0.4793018154
 40
0.5429319338
 40
0.6071345933
 40
0.6718308497
 40
0.7369425851
 40
0.8681035793
 40
1.0
 40
1.0
 40
1.0
 40
1.0
 10
5.4952867273
 20
4.1197639802
 30
0.0
 10
5.4935579573
 20
4.1443776802
 30
0.0
 10
5.4900989005
 20
4.1945639317
 30
0.0
 10
5.4849692438
 20
4.2711520488
 30
0.0
 10
5.4797892307
 20
4.3502165862
 30
0.0
 10
5.4754533591
 20
4.4174745165
 30
0.0
 10
5.4719556512
 20
4.4722245917
 30
0.0
 10
5.4693108336
 20
4.5138792897
 30
0.0
 10
5.4666594117
 20
4.5558554139
 30
0.0
 10
5.4631068562
 20
4.6123195151
 30
0.0
 10
5.4586601945
 20
4.683324562
 30
0.0
 10
5.4551050664
 20
4.7402421428
 30
0.0
 10
5.4533218868
 20
4.7687804549
 30
0.0
 11
5.4952867273
 21
4.1197639802
 31
0.0
 11
5.4901880815
 21
4.1936111851
 31
0.0
 11
5.4850425811
 21
4.2703316156
 31
0.0
 11
5.4798482407
 21
4.3495246885
 31
0.0
 11
5.4746046446
 21
4.4308017581
 31
0.0
 11
5.4719662339
 21
4.4721008924
 31
0.0
 11
5.4693198804
 21
4.5137726408
 31
0.0
 11
5.4666668126
 21
4.5557656295
 31
0.0
 11
5.4640073424
 21
4.5980289675
 31
0.0
 11
5.4586724654
 21
4.6831655838
 31
0.0
 11
5.4533218868
 21
4.7687804549
 31
0.0
  0
LINE
  5
2AB
100
AcDbEntity
  8
0
100
AcDbLine
 62
9
  6
CONTINUOUS
 10
5.4282227853
 20
4.1706929855
 11
5.4289889514
 21
4.1526243621
  0
SPLINE
  5
2AC
100
AcDbEntity
  8
0
100
AcDbSpline
 62
9
  6
CONTINUOUS
 70
0
 71
3
 72
18
 73
14
 74
12
 42
0.0000001
 43
0.0000001
 44
0.0000000001
 12
0.0159693057
 22
-0.6167644954
 32
0.0
 13
0.025595833
 23
-0.6164400334
 33
0.0
 40
0.0
 40
0.0
 40
0.0
 40
0.0
 40
0.1323282934
 40
0.2638393232
 40
0.393843332
 40
0.4580891299
 40
0.521727896
 40
0.5846805859
 40
0.6468683244
 40
0.7082179628
 40
0.7686636079
 40
0.8865761703
 40
1.0
 40
1.0
 40
1.0
 40
1.0
 10
5.410211735
 20
4.7873943986
 30
0.0
 10
5.410916132
 20
4.7601892675
 30
0.0
 10
5.4122959338
 20
4.7059463881
 30
0.0
 10
5.4143283182
 20
4.624975228
 30
0.0
 10
5.416025381
 20
4.5580017038
 30
0.0
 10
5.4174013024
 20
4.5049829448
 30
0.0
 10
5.4184444418
 20
4.4657497763
 30
0.0
 10
5.4195123577
 20
4.4269406835
 30
0.0
 10
5.4206147736
 20
4.3886035187
 30
0.0
 10
5.4217587286
 20
4.3507833903
 30
0.0
 10
5.4233297397
 20
4.3015107978
 30
0.0
 10
5.4254047046
 20
4.2415394926
 30
0.0
 10
5.4272550595
 20
4.1939993153
 30
0.0
 10
5.4282227853
 20
4.1706929855
 30
0.0
 11
5.410211735
 21
4.7873943986
 31
0.0
 11
5.4122956074
 21
4.7057782516
 31
0.0
 11
5.4143393454
 21
4.624665477
 31
0.0
 11
5.416378896
 21
4.5444826827
 31
0.0
 11
5.4174087623
 21
4.5048582569
 31
0.0
 11
5.4184542972
 21
4.4656088942
 31
0.0
 11
5.4195247426
 21
4.4267836513
 31
0.0
 11
5.4206293175
 21
4.3884315107
 31
0.0
 11
5.4217747369
 21
4.3505978856
 31
0.0
 11
5.42296453
 21
4.3133236477
 31
0.0
 11
5.4254899462
 21
4.2406188398
 31
0.0
 11
5.4282227853
 21
4.1706929855
 31
0.0
  0
LINE
  5
2AD
100
AcDbEntity
  8
0
100
AcDbLine
 62
9
  6
CONTINUOUS
 10
5.4954444796
 20
4.1172696154
 11
5.4953066112
 21
4.1197599411
  0
SPLINE
  5
2AE
100
AcDbEntity
  8
0
100
AcDbSpline
 62
9
  6
CONTINUOUS
 70
0
 71
3
 72
37
 73
33
 74
31
 42
0.0000001
 43
0.0000001
 44
0.0000000001
 12
-0.194802831
 22
0.4649751194
 32
0.0
 13
-0.0357545532
 23
0.5028634174
 33
0.0
 40
0.0
 40
0.0
 40
0.0
 40
0.0
 40
0.004100928
 40
0.0085929681
 40
0.0134786904
 40
0.0187597229
 40
0.0244370654
 40
0.0305112537
 40
0.0369824433
 40
0.0438505008
 40
0.0511151171
 40
0.0587758467
 40
0.0668321016
 40
0.0752831778
 40
0.0933659862
 40
0.1130150582
 40
0.1342195482
 40
0.1569638386
 40
0.1812276922
 40
0.2069905858
 40
0.2342336018
 40
0.2629384215
 40
0.2930859076
 40
0.3246531916
 40
0.3919497358
 40
0.4646165289
 40
0.5424205486
 40
0.6251382996
 40
0.7125297151
 40
0.8043240575
 40
0.9002395179
 40
1.0
 40
1.0
 40
1.0
 40
1.0
 10
5.5494474722
 20
3.6166508922
 30
0.0
 10
5.5491811814
 20
3.617286502
 30
0.0
 10
5.548650758
 20
3.6186299601
 30
0.0
 10
5.5478878212
 20
3.6207629347
 30
0.0
 10
5.5471216454
 20
3.6231043589
 30
0.0
 10
5.5463523175
 20
3.6256535072
 30
0.0
 10
5.5455798924
 20
3.628409705
 30
0.0
 10
5.5448044148
 20
3.6313722473
 30
0.0
 10
5.5440259212
 20
3.634540428
 30
0.0
 10
5.5432444423
 20
3.6379135369
 30
0.0
 10
5.5424600004
 20
3.6414908731
 30
0.0
 10
5.5416726145
 20
3.6452717457
 30
0.0
 10
5.540882283
 20
3.6492554659
 30
0.0
 10
5.539800042
 20
3.6549665643
 30
0.0
 10
5.5384455957
 20
3.6626085398
 30
0.0
 10
5.536842794
 20
3.6723821245
 30
0.0
 10
5.5352287037
 20
3.6829469786
 30
0.0
 10
5.5336036
 20
3.6942940843
 30
0.0
 10
5.5319675819
 20
3.706413028
 30
0.0
 10
5.530320887
 20
3.7192930275
 30
0.0
 10
5.5286635723
 20
3.7329237429
 30
0.0
 10
5.5269956295
 20
3.7472951681
 30
0.0
 10
5.5253170623
 20
3.7623967178
 30
0.0
 10
5.5230158635
 20
3.7839539147
 30
0.0
 10
5.5201280024
 20
3.8126339088
 30
0.0
 10
5.5166946453
 20
3.8490672474
 30
0.0
 10
5.5132241096
 20
3.8880994241
 30
0.0
 10
5.5097165675
 20
3.9296120181
 30
0.0
 10
5.5061776495
 20
3.9734809926
 30
0.0
 10
5.5026113638
 20
4.0195724938
 30
0.0
 10
5.4990192139
 20
4.0677465502
 30
0.0
 10
5.4966532795
 20
4.1005435838
 30
0.0
 10
5.4954643157
 20
4.1172655495
 30
0.0
 11
5.5494474722
 21
3.6166508922
 31
0.0
 11
5.5486849296
 21
3.6185725385
 31
0.0
 11
5.5479194345
 21
3.6207038207
 31
0.0
 11
5.5471510206
 21
3.623043943
 31
0.0
 11
5.5463797206
 21
3.6255921116
 31
0.0
 11
5.5456055538
 21
3.6283475579
 31
0.0
 11
5.5448285288
 21
3.631309532
 31
0.0
 11
5.5440486546
 21
3.6344772846
 31
0.0
 11
5.5432659393
 21
3.6378500679
 31
0.0
 11
5.5424803856
 21
3.6414271593
 31
0.0
 11
5.5416919911
 21
3.6452078575
 31
0.0
 11
5.5409007535
 21
3.6491914617
 31
0.0
 11
5.5401066703
 21
3.6533772711
 31
0.0
 11
5.5385100102
 21
3.6623524964
 31
0.0
 11
5.5369022547
 21
3.672126896
 31
0.0
 11
5.5352836977
 21
3.6826935341
 31
0.0
 11
5.5336545743
 21
3.6940433558
 31
0.0
 11
5.5320150606
 21
3.7061651912
 31
0.0
 11
5.5303653057
 21
3.7190479102
 31
0.0
 11
5.5287052867
 21
3.7326813205
 31
0.0
 11
5.5270349053
 21
3.7470556364
 31
0.0
 11
5.5253541264
 21
3.7621607525
 31
0.0
 11
5.5236632661
 21
3.7779847784
 31
0.0
 11
5.5202530264
 21
3.8117393504
 31
0.0
 11
5.5168066342
 21
3.8482105997
 31
0.0
 11
5.5133249465
 21
3.8872793357
 31
0.0
 11
5.5098082721
 21
3.9288315301
 31
0.0
 11
5.5062605323
 21
3.9727453443
 31
0.0
 11
5.502685788
 21
4.018883618
 31
0.0
 11
5.4990862846
 21
4.0671035991
 31
0.0
 11
5.4954643157
 21
4.1172655495
 31
0.0
  0
SPLINE
  5
2AF
100
AcDbEntity
  8
0
100
AcDbSpline
 62
9
  6
CONTINUOUS
 70
0
 71
3
 72
23
 73
19
 74
17
 42
0.0000001
 43
0.0000001
 44
0.0000000001
 12
-0.0463185322
 22
-0.0861117725
 32
0.0
 13
-0.0972195513
 23
-0.0104404332
 33
0.0
 40
0.0
 40
0.0
 40
0.0
 40
0.0
 40
0.0486236501
 40
0.0988786509
 40
0.1509118915
 40
0.2048333217
 40
0.2607237633
 40
0.3186358835
 40
0.3785900204
 40
0.4405798288
 40
0.5045739307
 40
0.5705051385
 40
0.6382846534
 40
0.7078105957
 40
0.7789559419
 40
0.8515209706
 40
0.9252798905
 40
1.0
 40
1.0
 40
1.0
 40
1.0
 10
6.2456333678
 20
4.0802069809
 30
0.0
 10
6.2448826425
 20
4.0788112914
 30
0.0
 10
6.2432141398
 20
4.0760474053
 30
0.0
 10
6.2402953569
 20
4.0720809683
 30
0.0
 10
6.2369361854
 20
4.0682472953
 30
0.0
 10
6.233151391
 20
4.0645654546
 30
0.0
 10
6.2289555347
 20
4.0610540138
 30
0.0
 10
6.2243686607
 20
4.0577253712
 30
0.0
 10
6.2194101551
 20
4.0545916096
 30
0.0
 10
6.2140994985
 20
4.0516650195
 30
0.0
 10
6.2084569844
 20
4.0489582442
 30
0.0
 10
6.2025055951
 20
4.0464804795
 30
0.0
 10
6.1962686997
 20
4.0442413311
 30
0.0
 10
6.1897703055
 20
4.042250687
 30
0.0
 10
6.1830371971
 20
4.0405189065
 30
0.0
 10
6.1761007588
 20
4.0390509192
 30
0.0
 10
6.1689947144
 20
4.0378526436
 30
0.0
 10
6.1641926502
 20
4.0372408741
 30
0.0
 10
6.1617712317
 20
4.0369808373
 30
0.0
 11
6.2456333678
 21
4.0802069809
 31
0.0
 11
6.2431826864
 21
4.0761329164
 31
0.0
 11
6.2402763371
 21
4.0721706996
 31
0.0
 11
6.2369287233
 21
4.0683394432
 31
0.0
 11
6.2331542486
 21
4.0646582601
 31
0.0
 11
6.2289681806
 21
4.0611451683
 31
0.0
 11
6.2243892451
 21
4.057813807
 31
0.0
 11
6.2194370324
 21
4.0546767208
 31
0.0
 11
6.2141311328
 21
4.0517464543
 31
0.0
 11
6.2084918323
 21
4.049035095
 31
0.0
 11
6.2025422007
 21
4.0465529028
 31
0.0
 11
6.1963060038
 21
4.0443096808
 31
0.0
 11
6.1898070074
 21
4.0423152319
 31
0.0
 11
6.183070741
 21
4.040578728
 31
0.0
 11
6.17612979
 21
4.0391068166
 31
0.0
 11
6.1690185038
 21
4.0379055142
 31
0.0
 11
6.1617712317
 21
4.0369808373
 31
0.0
  0
SPLINE
  5
2B0
100
AcDbEntity
  8
0
100
AcDbSpline
 62
9
  6
CONTINUOUS
 70
0
 71
3
 72
23
 73
19
 74
17
 42
0.0000001
 43
0.0000001
 44
0.0000000001
 12
-0.0972195513
 22
0.0104404332
 32
0.0
 13
-0.0463185322
 23
0.0861117725
 33
0.0
 40
0.0
 40
0.0
 40
0.0
 40
0.0
 40
0.0747201095
 40
0.1484790294
 40
0.2210440581
 40
0.2921894043
 40
0.3617153466
 40
0.4294948615
 40
0.4954260693
 40
0.5594201712
 40
0.6214099796
 40
0.6813641165
 40
0.7392762367
 40
0.7951666783
 40
0.8490881085
 40
0.9011213491
 40
0.9513763499
 40
1.0
 40
1.0
 40
1.0
 40
1.0
 10
5.6188508164
 20
4.0369808373
 30
0.0
 10
5.6164293979
 20
4.0372408741
 30
0.0
 10
5.6116273337
 20
4.0378526436
 30
0.0
 10
5.6045212893
 20
4.0390509192
 30
0.0
 10
5.597584851
 20
4.0405189065
 30
0.0
 10
5.5908517426
 20
4.042250687
 30
0.0
 10
5.5843533483
 20
4.0442413311
 30
0.0
 10
5.578116453
 20
4.0464804795
 30
0.0
 10
5.5721650637
 20
4.0489582442
 30
0.0
 10
5.5665225496
 20
4.0516650195
 30
0.0
 10
5.5612118929
 20
4.0545916096
 30
0.0
 10
5.5562533874
 20
4.0577253712
 30
0.0
 10
5.5516665134
 20
4.0610540138
 30
0.0
 10
5.547470657
 20
4.0645654546
 30
0.0
 10
5.5436858627
 20
4.0682472953
 30
0.0
 10
5.5403266912
 20
4.0720809683
 30
0.0
 10
5.5374079083
 20
4.0760474053
 30
0.0
 10
5.5357394056
 20
4.0788112914
 30
0.0
 10
5.5349886803
 20
4.0802069809
 30
0.0
 11
5.6188508164
 21
4.0369808373
 31
0.0
 11
5.6116035443
 21
4.0379055142
 31
0.0
 11
5.6044922581
 21
4.0391068166
 31
0.0
 11
5.5975513071
 21
4.040578728
 31
0.0
 11
5.5908150407
 21
4.0423152319
 31
0.0
 11
5.5843160443
 21
4.0443096808
 31
0.0
 11
5.5780798474
 21
4.0465529028
 31
0.0
 11
5.5721302158
 21
4.049035095
 31
0.0
 11
5.5664909153
 21
4.0517464543
 31
0.0
 11
5.5611850156
 21
4.0546767208
 31
0.0
 11
5.556232803
 21
4.057813807
 31
0.0
 11
5.5516538675
 21
4.0611451683
 31
0.0
 11
5.5474677995
 21
4.0646582601
 31
0.0
 11
5.5436933247
 21
4.0683394432
 31
0.0
 11
5.540345711
 21
4.0721706996
 31
0.0
 11
5.5374393617
 21
4.0761329164
 31
0.0
 11
5.5349886803
 21
4.0802069809
 31
0.0
  0
LINE
  5
2B1
100
AcDbEntity
  8
0
100
AcDbLine
 62
9
  6
CONTINUOUS
 10
5.5494956836
 20
3.6165287081
 11
5.5494517085
 21
3.6166474424
  0
SPLINE
  5
2B2
100
AcDbEntity
  8
0
100
AcDbSpline
 62
9
  6
CONTINUOUS
 70
0
 71
3
 72
33
 73
29
 74
27
 42
0.0000001
 43
0.0000001
 44
0.0000000001
 12
0.017621009
 22
-0.4557923692
 32
0.0
 13
0.1682218395
 23
-0.4239794765
 33
0.0
 40
0.0
 40
0.0
 40
0.0
 40
0.0
 40
0.0983833498
 40
0.1928949786
 40
0.283237624
 40
0.3691710958
 40
0.4504997573
 40
0.5270370796
 40
0.5986149283
 40
0.6650716406
 40
0.696337062
 40
0.726274531
 40
0.7548698664
 40
0.7821091265
 40
0.807979678
 40
0.8324705339
 40
0.8555711442
 40
0.8772714004
 40
0.8975618207
 40
0.916436227
 40
0.9338930279
 40
0.9499322333
 40
0.9645557049
 40
0.9777679586
 40
0.9838476012
 40
0.9895780546
 40
0.994961326
 40
1.0
 40
1.0
 40
1.0
 40
1.0
 10
5.4289889514
 20
4.1526243621
 30
0.0
 10
5.4295668227
 20
4.1376769021
 30
0.0
 10
5.4307334045
 20
4.1083714955
 30
0.0
 10
5.432569056
 20
4.0653459058
 30
0.0
 10
5.4344659529
 20
4.0242177978
 30
0.0
 10
5.4364360838
 20
3.9850999007
 30
0.0
 10
5.4384941622
 20
3.948088558
 30
0.0
 10
5.4406534035
 20
3.913269538
 30
0.0
 10
5.442915704
 20
3.8807233075
 30
0.0
 10
5.4449283192
 20
3.8550605487
 30
0.0
 10
5.4466036435
 20
3.8357229782
 30
0.0
 10
5.4478621701
 20
3.8221277101
 30
0.0
 10
5.4491485951
 20
3.80915006
 30
0.0
 10
5.4504632593
 20
3.7967968977
 30
0.0
 10
5.4518061061
 20
3.7850746837
 30
0.0
 10
5.4531764499
 20
3.7739894167
 30
0.0
 10
5.4545737286
 20
3.7635468758
 30
0.0
 10
5.4559973305
 20
3.7537527996
 30
0.0
 10
5.457446724
 20
3.7446125209
 30
0.0
 10
5.4589214162
 20
3.7361303982
 30
0.0
 10
5.4604207919
 20
3.7283097538
 30
0.0
 10
5.4619442864
 20
3.7211532137
 30
0.0
 10
5.4634913841
 20
3.7146634171
 30
0.0
 10
5.4648343108
 20
3.7096836112
 30
0.0
 10
5.4659280713
 20
3.7060394876
 30
0.0
 10
5.4667312128
 20
3.7035515373
 30
0.0
 10
5.4675399472
 20
3.701232394
 30
0.0
 10
5.4681012362
 20
3.6997502611
 30
0.0
 10
5.4683837745
 20
3.6990381629
 30
0.0
 11
5.4289889514
 21
4.1526243621
 31
0.0
 11
5.4307785574
 21
4.1077841817
 31
0.0
 11
5.4326214026
 21
4.064713729
 31
0.0
 11
5.4345266009
 21
4.0235495455
 31
0.0
 11
5.436506347
 21
3.9844024934
 31
0.0
 11
5.438575212
 21
3.9473635534
 31
0.0
 11
5.4407448687
 21
3.9125198509
 31
0.0
 11
5.4430196028
 21
3.8799501817
 31
0.0
 11
5.4454025065
 21
3.8497308964
 31
0.0
 11
5.4466353125
 21
3.8355230952
 31
0.0
 11
5.4478960338
 21
3.8219259536
 31
0.0
 11
5.4491849284
 21
3.80894652
 31
0.0
 11
5.4505022458
 21
3.7965918294
 31
0.0
 11
5.4518479115
 21
3.7848683987
 31
0.0
 11
5.4532214315
 21
3.7737820755
 31
0.0
 11
5.454622284
 21
3.7633386626
 31
0.0
 11
5.4560499473
 21
3.7535439631
 31
0.0
 11
5.457503901
 21
3.7444037552
 31
0.0
 11
5.4589836895
 21
3.7359226476
 31
0.0
 11
5.4604889484
 21
3.728103599
 31
0.0
 11
5.4620193204
 21
3.7209494434
 31
0.0
 11
5.4635744481
 21
3.7144630146
 31
0.0
 11
5.4651539708
 21
3.7086471459
 31
0.0
 11
5.4659527269
 21
3.7059915462
 31
0.0
 11
5.4667573486
 21
3.7035046233
 31
0.0
 11
5.4675677324
 21
3.7011867159
 31
0.0
 11
5.4683837745
 21
3.6990381629
 31
0.0
  0
SPLINE
  5
2B3
100
AcDbEntity
  8
0
100
AcDbSpline
 62
9
  6
CONTINUOUS
 70
0
 71
3
 72
11
 73
7
 74
5
 42
0.0000001
 43
0.0000001
 44
0.0000000001
 12
0.0032157707
 22
-0.0081048975
 32
0.0
 13
0.0048338436
 23
-0.0072570311
 33
0.0
 40
0.0
 40
0.0
 40
0.0
 40
0.0
 40
0.2854913188
 40
0.5469573204
 40
0.7848979099
 40
1.0
 40
1.0
 40
1.0
 40
1.0
 10
5.4683837745
 20
3.6990381629
 30
0.0
 10
5.4686897994
 20
3.6982668703
 30
0.0
 10
5.4693012355
 20
3.6967989331
 30
0.0
 10
5.4702662408
 20
3.6947308806
 30
0.0
 10
5.4712382712
 20
3.6928946096
 30
0.0
 10
5.4719248538
 20
3.6917695433
 30
0.0
 10
5.4722714438
 20
3.6912492091
 30
0.0
 11
5.4683837745
 21
3.6990381629
 31
0.0
 11
5.4693447202
 21
3.6967417581
 31
0.0
 11
5.4703130907
 21
3.6946777701
 31
0.0
 11
5.4712887203
 21
3.69284674
 31
0.0
 11
5.4722714438
 21
3.6912492091
 31
0.0
  0
SPLINE
  5
2B4
100
AcDbEntity
  8
0
100
AcDbSpline
 62
9
  6
CONTINUOUS
 70
0
 71
3
 72
9
 73
5
 74
3
 42
0.0000001
 43
0.0000001
 44
0.0000000001
 12
-0.0124987699
 22
0.0256249673
 32
0.0
 13
-0.010801642
 23
0.0263852748
 33
0.0
 40
0.0
 40
0.0
 40
0.0
 40
0.0
 40
0.4800214226
 40
1.0
 40
1.0
 40
1.0
 40
1.0
 10
5.5610888728
 20
3.5904810474
 30
0.0
 10
5.5590889804
 20
3.5945812251
 30
0.0
 10
5.5550904703
 20
3.6032051803
 30
0.0
 10
5.5513715216
 20
3.6119524912
 30
0.0
 10
5.5494993141
 20
3.6165257504
 30
0.0
 11
5.5610888728
 21
3.5904810474
 31
0.0
 11
5.5553146561
 21
3.6028890153
 31
0.0
 11
5.5494993141
 21
3.6165257504
 31
0.0
  0
SPLINE
  5
2B5
100
AcDbEntity
  8
0
100
AcDbSpline
 62
9
  6
CONTINUOUS
 70
0
 71
3
 72
9
 73
5
 74
3
 42
0.0000001
 43
0.0000001
 44
0.0000000001
 12
0.0058427201
 22
-0.008559089
 32
0.0
 13
0.0065273156
 23
-0.0080491946
 33
0.0
 40
0.0
 40
0.0
 40
0.0
 40
0.0
 40
0.5153872692
 40
1.0
 40
1.0
 40
1.0
 40
1.0
 10
5.472509793
 20
3.6908967573
 30
0.0
 10
5.4735135475
 20
3.6894263421
 30
0.0
 10
5.4755086845
 20
3.6866053406
 30
0.0
 10
5.4776174279
 20
3.683867573
 30
0.0
 10
5.4786718346
 20
3.6825673256
 30
0.0
 11
5.472509793
 21
3.6908967573
 31
0.0
 11
5.4756002605
 21
3.6865406345
 31
0.0
 11
5.4786718346
 21
3.6825673256
 31
0.0
  0
SPLINE
  5
2B6
100
AcDbEntity
  8
0
100
AcDbSpline
 62
9
  6
CONTINUOUS
 70
0
 71
3
 72
12
 73
8
 74
6
 42
0.0000001
 43
0.0000001
 44
0.0000000001
 12
-0.2743401928
 22
0.0
 32
0.0
 13
-0.2659592979
 23
0.0672918513
 33
0.0
 40
0.0
 40
0.0
 40
0.0
 40
0.0
 40
0.2498694108
 40
0.4998403331
 40
0.6248810674
 40
0.7499368844
 40
1.0
 40
1.0
 40
1.0
 40
1.0
 10
5.890311024
 20
4.0022445679
 30
0.0
 10
5.8674612833
 20
4.0022445679
 30
0.0
 10
5.8217398306
 20
4.0037752374
 30
0.0
 10
5.7648312672
 20
4.0093614622
 30
0.0
 10
5.7195709452
 20
4.0159412269
 30
0.0
 10
5.6745252671
 20
4.0238987112
 30
0.0
 10
5.6410196866
 20
4.0313717674
 30
0.0
 10
5.6188508164
 20
4.0369808373
 30
0.0
 11
5.890311024
 21
4.0022445679
 31
0.0
 11
5.8217992152
 21
4.0045090617
 31
0.0
 11
5.7535474883
 21
4.0111811258
 31
0.0
 11
5.7196001823
 21
4.0161130825
 31
0.0
 11
5.685814713
 21
4.0220771197
 31
0.0
 11
5.6188508164
 21
4.0369808373
 31
0.0
  0
LINE
  5
2B7
100
AcDbEntity
  8
0
100
AcDbLine
 62
9
  6
CONTINUOUS
 10
5.265311024
 20
5.2704932952
 11
5.3047647741
 21
4.8249799312
  0
SPLINE
  5
2B8
100
AcDbEntity
  8
0
100
AcDbSpline
 62
9
  6
CONTINUOUS
 70
0
 71
3
 72
9
 73
5
 74
3
 42
0.0000001
 43
0.0000001
 44
0.0000000001
 12
-0.0088815239
 22
0.0379105307
 32
0.0
 13
-0.0031901425
 23
0.0388060922
 33
0.0
 40
0.0
 40
0.0
 40
0.0
 40
0.0
 40
0.2457771563
 40
1.0
 40
1.0
 40
1.0
 40
1.0
 10
5.3047647741
 20
4.8249799312
 30
0.0
 10
5.3040371489
 20
4.8280857787
 30
0.0
 10
5.3013225982
 20
4.8407793775
 30
0.0
 10
5.2995758146
 20
4.8536767382
 30
0.0
 10
5.2987737885
 20
4.8634328853
 30
0.0
 11
5.3047647741
 21
4.8249799312
 31
0.0
 11
5.3027612591
 21
4.8343376805
 31
0.0
 11
5.2987737885
 21
4.8634328853
 31
0.0
  0
SPLINE
  5
2B9
100
AcDbEntity
  8
0
100
AcDbSpline
 62
9
  6
CONTINUOUS
 70
0
 71
3
 72
14
 73
10
 74
8
 42
0.0000001
 43
0.0000001
 44
0.0000000001
 12
0.0516105742
 22
-0.5677867728
 32
0.0
 13
0.0625768521
 23
-0.5666829875
 33
0.0
 40
0.0
 40
0.0
 40
0.0
 40
0.0
 40
0.1310626039
 40
0.2615283947
 40
0.5182828655
 40
0.6434743298
 40
0.7658205497
 40
0.884843007
 40
1.0
 40
1.0
 40
1.0
 40
1.0
 10
5.308840951
 20
4.7797423537
 30
0.0
 10
5.3110956897
 20
4.7549371494
 30
0.0
 10
5.3156125959
 20
4.7054412953
 30
0.0
 10
5.324667506
 20
4.6073626097
 30
0.0
 10
5.3338251376
 20
4.5104138672
 30
0.0
 10
5.3431614895
 20
4.4150326722
 30
0.0
 10
5.3501362919
 20
4.3457205973
 30
0.0
 10
5.3571417657
 20
4.2783285595
 30
0.0
 10
5.361918545
 20
4.2340814279
 30
0.0
 10
5.364320599
 20
4.212328925
 30
0.0
 11
5.308840951
 21
4.7797423537
 31
0.0
 11
5.3156360261
 21
4.7053295522
 31
0.0
 11
5.3224787304
 21
4.6312628174
 31
0.0
 11
5.3362872158
 21
4.4855327511
 31
0.0
 11
5.343246706
 21
4.4144977488
 31
0.0
 11
5.3502380823
 21
4.3450960523
 31
0.0
 11
5.3572630084
 21
4.2776026689
 31
0.0
 11
5.364320599
 21
4.212328925
 31
0.0
  0
SPLINE
  5
2BA
100
AcDbEntity
  8
0
100
AcDbSpline
 62
9
  6
CONTINUOUS
 70
0
 71
3
 72
12
 73
8
 74
6
 42
0.0000001
 43
0.0000001
 44
0.0000000001
 12
-0.0261952573
 22
0.094153869
 32
0.0
 13
-0.0093205479
 23
0.0972844794
 33
0.0
 40
0.0
 40
0.0
 40
0.0
 40
0.0
 40
0.2450616584
 40
0.493862506
 40
0.6194641202
 40
0.7457485896
 40
1.0
 40
1.0
 40
1.0
 40
1.0
 10
5.364320599
 20
4.212328925
 30
0.0
 10
5.3621807813
 20
4.2200200927
 30
0.0
 10
5.3582294394
 20
4.2356223602
 30
0.0
 10
5.3541539605
 20
4.2553934751
 30
0.0
 10
5.3513857778
 20
4.2714687674
 30
0.0
 10
5.3489419898
 20
4.2877758709
 30
0.0
 10
5.347500648
 20
4.3000933414
 30
0.0
 10
5.3467107272
 20
4.3083382467
 30
0.0
 11
5.364320599
 21
4.212328925
 31
0.0
 11
5.3584322583
 21
4.2355436482
 31
0.0
 11
5.3535170743
 21
4.2593569737
 31
0.0
 11
5.3514334234
 21
4.2714538735
 31
0.0
 11
5.3496034658
 21
4.283659227
 31
0.0
 11
5.3467107272
 21
4.3083382467
 31
0.0
  0
LINE
  5
2BB
100
AcDbEntity
  8
0
100
AcDbLine
 62
9
  6
CONTINUOUS
 10
5.2978315427
 20
4.8864334244
 11
5.2997737009
 21
4.8634989017
  0
LINE
  5
2BC
100
AcDbEntity
  8
0
100
AcDbLine
 62
9
  6
CONTINUOUS
 10
5.3047647741
 20
4.8249799312
 11
5.308840951
 21
4.7797423537
  0
LINE
  5
2BD
100
AcDbEntity
  8
0
100
AcDbLine
 62
9
  6
CONTINUOUS
 10
5.364320599
 20
4.212328925
 11
5.3662282312
 21
4.1951846403
  0
SPLINE
  5
2BE
100
AcDbEntity
  8
0
100
AcDbSpline
 62
9
  6
CONTINUOUS
 70
0
 71
3
 72
30
 73
26
 74
24
 42
0.0000001
 43
0.0000001
 44
0.0000000001
 12
0.0521317375
 22
-0.4649367632
 32
0.0
 13
0.1869220383
 23
-0.4288870054
 33
0.0
 40
0.0
 40
0.0
 40
0.0
 40
0.0
 40
0.090836207
 40
0.178652671
 40
0.2632122384
 40
0.3443163527
 40
0.4217975131
 40
0.4954964054
 40
0.5652729601
 40
0.6309929399
 40
0.6925405199
 40
0.7217183468
 40
0.7498157836
 40
0.7768215145
 40
0.802726544
 40
0.8275226923
 40
0.8512022455
 40
0.8737580566
 40
0.8951840437
 40
0.9154776414
 40
0.9346384797
 40
0.9526674732
 40
0.9695671672
 40
0.9853422126
 40
1.0
 40
1.0
 40
1.0
 40
1.0
 10
5.3662282312
 20
4.1951846403
 30
0.0
 10
5.3678067143
 20
4.181106943
 30
0.0
 10
5.3709607505
 20
4.1534250627
 30
0.0
 10
5.3757779632
 20
4.1126605971
 30
0.0
 10
5.3806062519
 20
4.0734261394
 30
0.0
 10
5.385446386
 20
4.0358176328
 30
0.0
 10
5.3902994563
 20
3.9999191643
 30
0.0
 10
5.3951678696
 20
3.9658062466
 30
0.0
 10
5.4000538842
 20
3.9335496752
 30
0.0
 10
5.4049609712
 20
3.9032143843
 30
0.0
 10
5.4091410178
 20
3.8791766833
 30
0.0
 10
5.4125110784
 20
3.8609551206
 30
0.0
 10
5.4150010358
 20
3.8480493494
 30
0.0
 10
5.4174990598
 20
3.8356653801
 30
0.0
 10
5.420005655
 20
3.8238088514
 30
0.0
 10
5.4225213511
 20
3.8124850212
 30
0.0
 10
5.4250467015
 20
3.8016990746
 30
0.0
 10
5.4275822458
 20
3.7914561242
 30
0.0
 10
5.4301287111
 20
3.7817608312
 30
0.0
 10
5.43268653
 20
3.7726170916
 30
0.0
 10
5.4352561502
 20
3.7640281499
 30
0.0
 10
5.4378380894
 20
3.7559970637
 30
0.0
 10
5.4404328599
 20
3.7485267825
 30
0.0
 10
5.4430409775
 20
3.7416203974
 30
0.0
 10
5.4448551136
 20
3.7372336262
 30
0.0
 10
5.4457684014
 20
3.7351381147
 30
0.0
 11
5.3662282312
 21
4.1951846403
 31
0.0
 11
5.3710439477
 21
4.1529606256
 31
0.0
 11
5.3758709605
 21
4.1121602105
 31
0.0
 11
5.3807091207
 21
4.0728959479
 31
0.0
 11
5.3855594217
 21
4.0352626368
 31
0.0
 11
5.3904237687
 21
3.999340909
 31
0.0
 11
5.3953043717
 21
3.9652080285
 31
0.0
 11
5.4002042283
 21
3.9329328631
 31
0.0
 11
5.4051264881
 21
3.9025823061
 31
0.0
 11
5.4100745098
 21
3.8742155609
 31
0.0
 11
5.4125592819
 21
3.8607927535
 31
0.0
 11
5.4150518158
 21
3.8478858301
 31
0.0
 11
5.4175525797
 21
3.8355011502
 31
0.0
 11
5.4200621361
 21
3.8236441407
 31
0.0
 11
5.4225810675
 21
3.8123200278
 31
0.0
 11
5.4251099565
 21
3.8015340379
 31
0.0
 11
5.4276493859
 21
3.7912913972
 31
0.0
 11
5.4301999367
 21
3.7815971531
 31
0.0
 11
5.4327621804
 21
3.7724550586
 31
0.0
 11
5.4353366838
 21
3.7638682971
 31
0.0
 11
5.4379240139
 21
3.7558400496
 31
0.0
 11
5.4405247376
 21
3.7483734971
 31
0.0
 11
5.4431394122
 21
3.741471817
 31
0.0
 11
5.4457684014
 21
3.7351381147
 31
0.0
  0
SPLINE
  5
2BF
100
AcDbEntity
  8
0
100
AcDbSpline
 62
9
  6
CONTINUOUS
 70
0
 71
3
 72
36
 73
32
 74
30
 42
0.0000001
 43
0.0000001
 44
0.0000000001
 12
0.0116924508
 22
-0.4960296358
 32
0.0
 13
0.1825453513
 23
-0.4613667822
 33
0.0
 40
0.0
 40
0.0
 40
0.0
 40
0.0
 40
0.1054133274
 40
0.206219489
 40
0.3020692494
 40
0.3926758303
 40
0.4777854162
 40
0.5571593387
 40
0.630578575
 40
0.6978375759
 40
0.7291063182
 40
0.7587764126
 40
0.7868293638
 40
0.8132487249
 40
0.8380217797
 40
0.8611363798
 40
0.8825806216
 40
0.9023431716
 40
0.9204184017
 40
0.9368065599
 40
0.9515091845
 40
0.9582294248
 40
0.9645296727
 40
0.9704107535
 40
0.9758737769
 40
0.9809202034
 40
0.9855519546
 40
0.9897715927
 40
0.9935825932
 40
0.9969897745
 40
1.0
 40
1.0
 40
1.0
 40
1.0
 10
5.6188989725
 20
4.0349401786
 30
0.0
 10
5.6193098192
 20
4.0175108004
 30
0.0
 10
5.6201120198
 20
3.9834137716
 30
0.0
 10
5.621287334
 20
3.9334686246
 30
0.0
 10
5.6224090234
 20
3.8859717689
 30
0.0
 10
5.6234860524
 20
3.8410706263
 30
0.0
 10
5.624530922
 20
3.7988944298
 30
0.0
 10
5.6255549362
 20
3.75956121
 30
0.0
 10
5.6265686899
 20
3.7231810717
 30
0.0
 10
5.6274333605
 20
3.6947559997
 30
0.0
 10
5.628141347
 20
3.673565277
 30
0.0
 10
5.6286679227
 20
3.6588564075
 30
0.0
 10
5.6292057367
 20
3.6449505405
 30
0.0
 10
5.6297576504
 20
3.6318558115
 30
0.0
 10
5.6303268047
 20
3.6195793806
 30
0.0
 10
5.6309163095
 20
3.6081277411
 30
0.0
 10
5.6315292812
 20
3.5975072721
 30
0.0
 10
5.6321687854
 20
3.5877234337
 30
0.0
 10
5.6328383001
 20
3.5787799045
 30
0.0
 10
5.6335418162
 20
3.570678653
 30
0.0
 10
5.6341769473
 20
3.5644570911
 30
0.0
 10
5.6347121521
 20
3.5599032501
 30
0.0
 10
5.6351126473
 20
3.556802816
 30
0.0
 10
5.6355248332
 20
3.5539137891
 30
0.0
 10
5.6359490764
 20
3.5512362495
 30
0.0
 10
5.636385654
 20
3.5487702471
 30
0.0
 10
5.6368348509
 20
3.5465158034
 30
0.0
 10
5.6372969314
 20
3.5444729171
 30
0.0
 10
5.6377721542
 20
3.5426414739
 30
0.0
 10
5.6382607475
 20
3.5410214187
 30
0.0
 10
5.6386172837
 20
3.5400209774
 30
0.0
 10
5.6388004513
 20
3.5395580381
 30
0.0
 11
5.6188989725
 21
4.0349401786
 31
0.0
 11
5.6201299873
 21
3.9826520083
 31
0.0
 11
5.6213073358
 21
3.9326491334
 31
0.0
 11
5.6224325142
 21
3.8851049171
 31
0.0
 11
5.6235139311
 21
3.8401618918
 31
0.0
 11
5.6245635872
 21
3.7979463352
 31
0.0
 11
5.625593042
 21
3.7585770377
 31
0.0
 11
5.6266132325
 21
3.7221630925
 31
0.0
 11
5.6276370219
 21
3.6888070751
 31
0.0
 11
5.6281565056
 21
3.6733012433
 31
0.0
 11
5.6286847293
 21
3.6585893888
 31
0.0
 11
5.629224455
 21
3.6446808965
 31
0.0
 11
5.6297785906
 21
3.6315841879
 31
0.0
 11
5.6303503131
 21
3.6193059086
 31
0.0
 11
5.6309428284
 21
3.607852513
 31
0.0
 11
5.6315593426
 21
3.5972304553
 31
0.0
 11
5.632203082
 21
3.5874460755
 31
0.0
 11
5.632877732
 21
3.5785031467
 31
0.0
 11
5.6335874311
 21
3.570402907
 31
0.0
 11
5.6343363369
 21
3.563146487
 31
0.0
 11
5.6347267917
 21
3.5598350628
 31
0.0
 11
5.6351286074
 21
3.5567350174
 31
0.0
 11
5.6355422907
 21
3.5538464894
 31
0.0
 11
5.6359682377
 21
3.5511695916
 31
0.0
 11
5.6364067878
 21
3.5487044241
 31
0.0
 11
5.6368582801
 21
3.5464510867
 31
0.0
 11
5.6373230536
 21
3.5444096796
 31
0.0
 11
5.6378014473
 21
3.5425803024
 31
0.0
 11
5.6382938002
 21
3.5409630553
 31
0.0
 11
5.6388004513
 21
3.5395580381
 31
0.0
  0
SPLINE
  5
2C0
100
AcDbEntity
  8
0
100
AcDbSpline
 62
9
  6
CONTINUOUS
 70
0
 71
3
 72
12
 73
8
 74
6
 42
0.0000001
 43
0.0000001
 44
0.0000000001
 12
-0.0093205479
 22
-0.0972844794
 32
0.0
 13
-0.0261952573
 23
-0.094153869
 33
0.0
 40
0.0
 40
0.0
 40
0.0
 40
0.0
 40
0.2542514104
 40
0.3805358798
 40
0.506137494
 40
0.7549383416
 40
1.0
 40
1.0
 40
1.0
 40
1.0
 10
6.4339113209
 20
4.3083382467
 30
0.0
 10
6.4331214001
 20
4.3000933414
 30
0.0
 10
6.4316800583
 20
4.2877758709
 30
0.0
 10
6.4292362703
 20
4.2714687674
 30
0.0
 10
6.4264680876
 20
4.2553934751
 30
0.0
 10
6.4223926086
 20
4.2356223602
 30
0.0
 10
6.4184412668
 20
4.2200200927
 30
0.0
 10
6.4163014491
 20
4.212328925
 30
0.0
 11
6.4339113209
 21
4.3083382467
 31
0.0
 11
6.4310185823
 21
4.283659227
 31
0.0
 11
6.4291886247
 21
4.2714538735
 31
0.0
 11
6.4271049737
 21
4.2593569737
 31
0.0
 11
6.4221897898
 21
4.2355436482
 31
0.0
 11
6.4163014491
 21
4.212328925
 31
0.0
  0
SPLINE
  5
2C1
100
AcDbEntity
  8
0
100
AcDbSpline
 62
9
  6
CONTINUOUS
 70
0
 71
3
 72
9
 73
5
 74
3
 42
0.0000001
 43
0.0000001
 44
0.0000000001
 12
-0.0031901111
 22
-0.0388057103
 32
0.0
 13
-0.0088814365
 23
-0.0379101576
 33
0.0
 40
0.0
 40
0.0
 40
0.0
 40
0.0
 40
0.2537980897
 40
1.0
 40
1.0
 40
1.0
 40
1.0
 10
6.4818482596
 20
4.8634328853
 30
0.0
 10
6.4815783782
 20
4.8601499469
 30
0.0
 10
6.4802856156
 20
4.8472350176
 30
0.0
 10
6.4780663889
 20
4.8344094752
 30
0.0
 10
6.475857274
 20
4.8249799312
 30
0.0
 11
6.4818482596
 21
4.8634328853
 31
0.0
 11
6.4808625001
 21
4.8536001358
 31
0.0
 11
6.475857274
 21
4.8249799312
 31
0.0
  0
LINE
  5
2C2
100
AcDbEntity
  8
0
100
AcDbLine
 62
9
  6
CONTINUOUS
 10
5.6188508164
 20
4.0369808373
 11
5.6188989725
 21
4.0349401786
  0
SPLINE
  5
2C3
100
AcDbEntity
  8
0
100
AcDbSpline
 62
9
  6
CONTINUOUS
 70
0
 71
3
 72
11
 73
7
 74
5
 42
0.0000001
 43
0.0000001
 44
0.0000000001
 12
0.0085142973
 22
-0.0104991846
 32
0.0
 13
0.0104071413
 23
-0.0086265605
 33
0.0
 40
0.0
 40
0.0
 40
0.0
 40
0.0
 40
0.2685807396
 40
0.5243252944
 40
0.7678609248
 40
1.0
 40
1.0
 40
1.0
 40
1.0
 10
5.4786726157
 20
3.6825663624
 30
0.0
 10
5.4794348745
 20
3.6816264028
 30
0.0
 10
5.4809564974
 20
3.6798181785
 30
0.0
 10
5.4832957998
 20
3.6772673614
 30
0.0
 10
5.4856399245
 20
3.6749488011
 30
0.0
 10
5.4872462832
 20
3.6735275539
 30
0.0
 10
5.4880515845
 20
3.6728600334
 30
0.0
 11
5.4786726157
 21
3.6825663624
 31
0.0
 11
5.4810136232
 21
3.6797913406
 31
0.0
 11
5.4833537422
 21
3.6772467195
 31
0.0
 11
5.4856979091
 21
3.6749353788
 31
0.0
 11
5.4880515845
 21
3.6728600334
 31
0.0
  0
SPLINE
  5
2C4
100
AcDbEntity
  8
0
100
AcDbSpline
 62
9
  6
CONTINUOUS
 70
0
 71
3
 72
16
 73
12
 74
10
 42
0.0000001
 43
0.0000001
 44
0.0000000001
 12
-0.2603826228
 22
0.0
 32
0.0
 13
-0.2344036078
 23
0.1133757423
 33
0.0
 40
0.0
 40
0.0
 40
0.0
 40
0.0
 40
0.1247788147
 40
0.2495941157
 40
0.3744708645
 40
0.4994232775
 40
0.5619365499
 40
0.6244710595
 40
0.7495890477
 40
0.8747745356
 40
1.0
 40
1.0
 40
1.0
 40
1.0
 10
5.890311024
 20
3.4810949423
 30
0.0
 10
5.8794809457
 20
3.4810949423
 30
0.0
 10
5.857812437
 20
3.4817306593
 30
0.0
 10
5.825417048
 20
3.4845640318
 30
0.0
 10
5.7932218152
 20
3.4892498656
 30
0.0
 10
5.7666447034
 20
3.4946753226
 30
0.0
 10
5.7455854609
 20
3.4999140436
 30
0.0
 10
5.7246681087
 20
3.5057469247
 30
0.0
 10
5.6988269323
 20
3.514132987
 30
0.0
 10
5.6684114961
 20
3.5258904399
 30
0.0
 10
5.6485848848
 20
3.5348255281
 30
0.0
 10
5.6388004513
 20
3.5395580381
 30
0.0
 11
5.890311024
 21
3.4810949423
 31
0.0
 11
5.8578346437
 21
3.4820436738
 31
0.0
 11
5.8254581983
 21
3.4848718521
 31
0.0
 11
5.7932811099
 21
3.4895524529
 31
0.0
 11
5.7614028001
 21
3.4960584521
 31
0.0
 11
5.7456067175
 21
3.4999873891
 31
0.0
 11
5.7299220415
 21
3.5043604609
 31
0.0
 11
5.6989331281
 21
3.5144127822
 31
0.0
 11
5.6685284651
 21
3.5261628409
 31
0.0
 11
5.6388004513
 21
3.5395580381
 31
0.0
  0
SPLINE
  5
2C5
100
AcDbEntity
  8
0
100
AcDbSpline
 62
9
  6
CONTINUOUS
 70
0
 71
3
 72
9
 73
5
 74
3
 42
0.0000001
 43
0.0000001
 44
0.0000000001
 12
0.0111854563
 22
-0.0214023936
 32
0.0
 13
0.012540087
 23
-0.0206379045
 33
0.0
 40
0.0
 40
0.0
 40
0.0
 40
0.0
 40
0.5110935908
 40
1.0
 40
1.0
 40
1.0
 40
1.0
 10
5.6389312938
 20
3.5392759507
 30
0.0
 10
5.6408368988
 20
3.535629742
 30
0.0
 10
5.6446656015
 20
3.5285474071
 30
0.0
 10
5.648717939
 20
3.5215900285
 30
0.0
 10
5.650761582
 20
3.5182266939
 30
0.0
 11
5.6389312938
 21
3.5392759507
 31
0.0
 11
5.6448089667
 21
3.5284229107
 31
0.0
 11
5.650761582
 21
3.5182266939
 31
0.0
  0
ENDSEC
  0
SECTION
  2
OBJECTS
  0
DICTIONARY
  5
C
100
AcDbDictionary
280
0
281
1
  3
ACAD_GROUP
350
D
  3
ACAD_MLINESTYLE
350
17
  3
ACAD_LAYOUT
350
1A
  3
ACAD_PLOTSETTINGS
350
19
  3
ACAD_PLOTSTYLENAME
350
E
  0
DICTIONARY
  5
D
102
{ACAD_REACTORS
330
C
102
}
100
AcDbDictionary
280
0
281
1
  0
ACDBDICTIONARYWDFLT
  5
E
102
{ACAD_REACTORS
330
C
102
}
100
AcDbDictionary
281
1
  3
Normal
350
F
100
AcDbDictionaryWithDefault
340
F
  0
DICTIONARY
  5
17
102
{ACAD_REACTORS
330
C
102
}
100
AcDbDictionary
280
0
281
1
  3
Standard
350
18
  0
DICTIONARY
  5
19
102
{ACAD_REACTORS
330
C
102
}
100
AcDbDictionary
281
1
  0
DICTIONARY
  5
1A
102
{ACAD_REACTORS
330
C
102
}
100
AcDbDictionary
281
1
  3
Model
350
2C6
  3
Layout1
350
2C7
  0
ACDBPLACEHOLDER
  5
F
102
{ACAD_REACTORS
330
E
102
}
  0
MLINESTYLE
  5
18
102
{ACAD_REACTORS
330
17
102
}
100
AcDbMlineStyle
  2
STANDARD
 70
0
  3

 62
256
 51
90.0
 52
90.0
 71
2
 49
0.5
 62
256
  6
BYLAYER
 49
-0.5
 62
256
  6
BYLAYER
  0
LAYOUT
  5
2C6
102
{ACAD_REACTORS
330
1A
102
}
100
AcDbPlotSettings
  1

  2
none_device
  4
ISO_A4_(297.00_x_210.00_MM)
  6

 40
0.0
 41
0.0
 42
0.0
 43
0.0
 44
297.0
 45
210.0
 46
0.0
 47
0.0
 48
0.0
 49
0.0
140
0.0
141
0.0
142
1.0
143
1.0
 70
1024
 72
0
 73
0
 74
0
  7

 75
0
147
1.0
148
0.0
149
0.0
100
AcDbLayout
  1
Model
 70
0
 71
0
 10
0.0
 20
0.0
 11
11.6929133858
 21
8.2677165354
 12
0.0
 22
0.0
 32
0.0
 14
0.0
 24
0.0
 34
0.0
 15
0.0
 25
0.0
 35
0.0
146
0.0
 13
0.0
 23
0.0
 33
0.0
 16
1.0
 26
0.0
 36
0.0
 17
0.0
 27
1.0
 37
0.0
 76
0
330
203
345
0
346
0
  0
LAYOUT
  5
2C7
102
{ACAD_REACTORS
330
1A
102
}
100
AcDbPlotSettings
  1

  2
none_device
  4
ISO_A4_(297.00_x_210.00_MM)
  6

 40
0.0
 41
0.0
 42
0.0
 43
0.0
 44
297.0
 45
210.0
 46
0.0
 47
0.0
 48
0.0
 49
0.0
140
0.0
141
0.0
142
1.0
143
1.0
 70
0
 72
0
 73
0
 74
0
  7

 75
0
147
1.0
148
0.0
149
0.0
100
AcDbLayout
  1
Layout1
 70
0
 71
1
 10
0.0
 20
0.0
 11
11.6929133858
 21
8.2677165354
 12
0.0
 22
0.0
 32
0.0
 14
0.0
 24
0.0
 34
0.0
 15
0.0
 25
0.0
 35
0.0
146
0.0
 13
0.0
 23
0.0
 33
0.0
 16
1.0
 26
0.0
 36
0.0
 17
0.0
 27
1.0
 37
0.0
 76
0
330
204
345
0
346
0
  0
ENDSEC
  0
EOF
