999
DXF file: 285-6_front.dxf
999
Pro/ENGINEER 2019352 by Parametric Technology Corporation
  0
SECTION
  2
HEADER
  9
$ACADVER
  1
AC1032
  9
$DWGCODEPAGE
  3
ANSI_1252
  9
$EXTMAX
 10
11.0
 20
8.5
 30
0.0
  9
$EXTMIN
 10
0.0
 20
0.0
 30
0.0
  9
$LIMMIN
 10
0.0
 20
0.0
  9
$LIMMAX
 10
11.0
 20
8.5
  9
$VIEWCTR
 10
5.5
 20
4.25
  9
$VIEWSIZE
 40
8.5
  9
$CLAYER
  8
0
  9
$LTSCALE
 40
0.605
  9
$CELTYPE
  6
BYLAYER
  9
$DIMSCALE
 40
1.0
  9
$DIMASZ
 40
0.1
  9
$DIMEXO
 40
0.0625
  9
$DIMDLI
 40
0.418
  9
$DIMEXE
 40
0.125
  9
$DIMCEN
 40
0.099
  9
$DIMLFAC
 40
1.0
  9
$DIMBLK
  1
_FILLED
  9
$DIMALT
 70
1
  9
$DIMALTD
 70
2
  9
$DIMALTTD
 70
2
  9
$DIMALTF
 40
25.4
  9
$DIMTXT
 40
0.08
  9
$DIMTOL
 70
1
  9
$DIMLIM
 70
0
  9
$DIMTFAC
 40
1.0
  9
$DIMTP
 40
0.001
  9
$DIMTM
 40
0.001
  9
$DIMGAP
 40
0.09
  9
$DIMDSEP
 70
46
  9
$AUNITS
 70
0
  9
$PDMODE
 70
3
  9
$PDSIZE
 40
0.3125
  9
$HANDSEED
  5
27C
  9
$TILEMODE
 70
1
  9
$MEASUREMENT
 70
0
  9
$INSUNITS
 70
1
  0
ENDSEC
  0
SECTION
  2
CLASSES
  0
CLASS
  1
ACDBDICTIONARYWDFLT
  2
AcDbDictionaryWithDefault
  3
AutoCAD 2000
 90
0
 91
1
280
0
281
0
  0
CLASS
  1
ACDBPLACEHOLDER
  2
AcDbPlaceHolder
  3
AutoCAD 2000
 90
0
 91
1
280
0
281
0
  0
CLASS
  1
LAYOUT
  2
AcDbLayout
  3
AutoCAD 2000
 90
0
 91
0
280
0
281
0
  0
ENDSEC
  0
SECTION
  2
TABLES
  0
TABLE
  2
VPORT
  5
8
100
AcDbSymbolTable
 70
2
  0
VPORT
  5
1F4
100
AcDbSymbolTableRecord
100
AcDbViewportTableRecord
  2
*ACTIVE
 70
0
 10
0.0
 20
0.0
 11
1.0
 21
1.0
 12
5.5
 22
4.25
 13
0.0
 23
0.0
 14
1.0
 24
1.0
 15
0.0
 25
0.0
 16
0.0
 26
0.0
 36
1.0
 17
0.0
 27
0.0
 37
0.0
 40
8.5
 41
1.2941176471
 42
50.0
 43
0.0
 44
0.0
 50
0.0
 51
0.0
 71
0
 72
100
 73
1
 74
1
 75
0
 76
0
 77
0
 78
0
  0
ENDTAB
  0
TABLE
  2
LTYPE
  5
5
100
AcDbSymbolTable
 70
6
  0
LTYPE
  5
14
100
AcDbSymbolTableRecord
100
AcDbLinetypeTableRecord
  2
BYBLOCK
 70
0
  3

 72
65
 73
0
 40
0.0
  0
LTYPE
  5
15
100
AcDbSymbolTableRecord
100
AcDbLinetypeTableRecord
  2
BYLAYER
 70
0
  3

 72
65
 73
0
 40
0.0
  0
LTYPE
  5
16
100
AcDbSymbolTableRecord
100
AcDbLinetypeTableRecord
  2
CONTINUOUS
 70
64
  3
Solid line
 72
65
 73
0
 40
0.0
  0
LTYPE
  5
1F5
100
AcDbSymbolTableRecord
100
AcDbLinetypeTableRecord
  2
CENTER
 70
64
  3
____ _ ____ _ ____ _ ____ _ ____ _ ____ _ ____
 72
65
 73
4
 40
0.6
 49
0.375
 74
0
 49
-0.075
 74
0
 49
0.075
 74
0
 49
-0.075
 74
0
  0
LTYPE
  5
1F6
100
AcDbSymbolTableRecord
100
AcDbLinetypeTableRecord
  2
HIDDEN
 70
64
  3
- - - - - - - - - - - - - - - - - - - -
 72
65
 73
2
 40
0.2
 49
0.1
 74
0
 49
-0.1
 74
0
  0
LTYPE
  5
1F7
100
AcDbSymbolTableRecord
100
AcDbLinetypeTableRecord
  2
PHANTOM
 70
64
  3
_____ _ _ _____ _ _ _____ _ _ _____
 72
65
 73
6
 40
0.8
 49
0.45
 74
0
 49
-0.05
 74
0
 49
0.1
 74
0
 49
-0.05
 74
0
 49
0.1
 74
0
 49
-0.05
 74
0
  0
LTYPE
  5
1F8
100
AcDbSymbolTableRecord
100
AcDbLinetypeTableRecord
  2
DOT
 70
64
  3
. . . . . . . . . . . . . . . . . . . .
 72
65
 73
2
 40
0.2
 49
0.1
 74
0
 49
-0.1
 74
0
  0
LTYPE
  5
1F9
100
AcDbSymbolTableRecord
100
AcDbLinetypeTableRecord
  2
DASHED
 70
64
  3
- - - - - - - - - - - - - - - - - - - -
 72
65
 73
2
 40
0.2
 49
0.1
 74
0
 49
-0.1
 74
0
  0
ENDTAB
  0
TABLE
  2
LAYER
  5
2
100
AcDbSymbolTable
 70
36
  0
LAYER
  5
10
100
AcDbSymbolTableRecord
100
AcDbLayerTableRecord
  2
0
 70
0
 62
7
  6
CONTINUOUS
370
-3
390
F
  0
LAYER
  5
1FA
100
AcDbSymbolTableRecord
100
AcDbLayerTableRecord
  2
DEFAULT_1
 70
0
 62
7
  6
CENTER
370
-3
390
F
  0
LAYER
  5
1FB
100
AcDbSymbolTableRecord
100
AcDbLayerTableRecord
  2
DEFAULT_2
 70
0
 62
8
  6
HIDDEN
370
-3
390
F
  0
LAYER
  5
1FC
100
AcDbSymbolTableRecord
100
AcDbLayerTableRecord
  2
DEFAULT_3
 70
0
 62
7
  6
PHANTOM
370
-3
390
F
  0
LAYER
  5
1FD
100
AcDbSymbolTableRecord
100
AcDbLayerTableRecord
  2
DEFAULT_COORDINATE_SYSTEM
 70
0
 62
7
  6
CONTINUOUS
370
-3
390
F
  0
LAYER
  5
1FE
100
AcDbSymbolTableRecord
100
AcDbLayerTableRecord
  2
DEFAULT_DATUM_AXES
 70
0
 62
7
  6
CONTINUOUS
370
-3
390
F
  0
LAYER
  5
1FF
100
AcDbSymbolTableRecord
100
AcDbLayerTableRecord
  2
DEFAULT_DATUM_PLANES
 70
0
 62
7
  6
CONTINUOUS
370
-3
390
F
  0
ENDTAB
  0
TABLE
  2
STYLE
  5
3
100
AcDbSymbolTable
 70
1
  0
STYLE
  5
11
100
AcDbSymbolTableRecord
100
AcDbTextStyleTableRecord
  2
STANDARD
 70
0
 40
0.0
 41
0.8
 50
0.0
 71
0
 42
0.2
  3
txt
  4

  0
STYLE
  5
200
100
AcDbSymbolTableRecord
100
AcDbTextStyleTableRecord
  2
TEXTSTYLE_1
 70
0
 40
0.0
 41
0.8
 50
0.0
 71
0
 42
0.2
  3
gdt
  4

  0
ENDTAB
  0
TABLE
  2
VIEW
  5
6
100
AcDbSymbolTable
 70
0
  0
ENDTAB
  0
TABLE
  2
UCS
  5
7
100
AcDbSymbolTable
 70
0
  0
ENDTAB
  0
TABLE
  2
APPID
  5
9
100
AcDbSymbolTable
 70
1
  0
APPID
  5
201
100
AcDbSymbolTableRecord
100
AcDbRegAppTableRecord
  2
ACAD
 70
0
  0
ENDTAB
  0
TABLE
  2
BLOCK_RECORD
  5
1
100
AcDbSymbolTable
 70
0
  0
BLOCK_RECORD
  5
202
100
AcDbSymbolTableRecord
100
AcDbBlockTableRecord
  2
*Model_Space
  0
BLOCK_RECORD
  5
203
100
AcDbSymbolTableRecord
100
AcDbBlockTableRecord
  2
*Paper_Space
  0
BLOCK_RECORD
  5
204
100
AcDbSymbolTableRecord
100
AcDbBlockTableRecord
  2
_FILLED
  0
ENDTAB
  0
TABLE
  2
DIMSTYLE
  5
A
100
AcDbSymbolTable
 70
1
100
AcDbDimStyleTable
 71
0
  0
DIMSTYLE
105
205
100
AcDbSymbolTableRecord
100
AcDbDimStyleTableRecord
  2
STANDARD
 70
0
  3

  4

 40
1.0
 41
0.1
 42
0.0625
 43
0.38
 44
0.125
 45
0.0
 46
0.0
 47
0.001
 48
0.001
140
0.08
141
0.09
142
0.0
143
25.4
144
1.0
145
0.0
146
1.0
147
0.09
 71
1.0
 72
0.0
 73
1
 74
1
 75
0
 76
0
 77
0
 78
4
 79
1
170
1
171
2
172
0
173
0
174
0
175
0
176
0
177
0
178
0
270
2
179
3
271
3
272
3
273
2
274
2
275
0
280
0
281
0
282
0
283
1
284
4
285
0
286
0
287
3
288
0
340
11
278
46
341
204
342
204
343
204
344
204
  0
ENDTAB
  0
ENDSEC
  0
SECTION
  2
BLOCKS
  0
BLOCK
  5
20
100
AcDbEntity
  8
0
100
AcDbBlockBegin
  2
*Model_Space
 70
0
 10
0.0
 20
0.0
 30
0.0
  3
*Model_Space
  1

  0
ENDBLK
  5
21
100
AcDbEntity
  8
0
100
AcDbBlockEnd
  0
BLOCK
  5
1C
100
AcDbEntity
  8
0
100
AcDbBlockBegin
  2
*Paper_Space
 70
0
 10
0.0
 20
0.0
 30
0.0
  3
*Paper_Space
  1

  0
ENDBLK
  5
1D
100
AcDbEntity
  8
0
100
AcDbBlockEnd
  0
BLOCK
  5
206
100
AcDbEntity
  8
0
100
AcDbBlockBegin
  2
_FILLED
 70
64
 10
0.0
 20
0.0
  3
_FILLED
  1

  0
SOLID
  5
207
100
AcDbEntity
  8
0
  6
BYBLOCK
 62
0
100
AcDbTrace
 10
0.0
 20
0.0
 11
-1.0
 21
0.2
 12
-1.0
 22
-0.2
 13
-1.0
 23
-0.2
  0
ENDBLK
  5
208
100
AcDbEntity
  8
0
  6
BYBLOCK
 62
0
100
AcDbBlockEnd
  0
ENDSEC
  0
SECTION
  2
ENTITIES
  0
LINE
  5
209
100
AcDbEntity
  8
0
100
AcDbLine
 62
7
  6
CONTINUOUS
 10
0.0
 20
0.0
 11
0.0
 21
8.5
  0
LINE
  5
20A
100
AcDbEntity
  8
0
100
AcDbLine
 62
7
  6
CONTINUOUS
 10
0.0
 20
0.0
 11
11.0
 21
0.0
  0
LINE
  5
20B
100
AcDbEntity
  8
0
100
AcDbLine
 62
7
  6
CONTINUOUS
 10
0.0
 20
8.5
 11
11.0
 21
8.5
  0
LINE
  5
20C
100
AcDbEntity
  8
0
100
AcDbLine
 62
7
  6
CONTINUOUS
 10
11.0
 20
0.0
 11
11.0
 21
8.5
  0
LINE
  5
20D
100
AcDbEntity
  8
0
100
AcDbLine
 62
7
  6
CONTINUOUS
 10
4.697665144
 20
3.4865831242
 11
5.4356519828
 21
3.4865831242
  0
LINE
  5
20E
100
AcDbEntity
  8
0
100
AcDbLine
 62
7
  6
CONTINUOUS
 10
5.4029622184
 20
3.4879231242
 11
4.9114989345
 21
3.4879231242
  0
LINE
  5
20F
100
AcDbEntity
  8
0
100
AcDbLine
 62
7
  6
CONTINUOUS
 10
5.4119154117
 20
3.5265831242
 11
5.1557272136
 21
3.5265831242
  0
LINE
  5
210
100
AcDbEntity
  8
0
100
AcDbLine
 62
7
  6
CONTINUOUS
 10
4.6581317308
 20
3.5681837299
 11
4.6961877572
 21
3.5461840186
  0
LINE
  5
211
100
AcDbEntity
  8
0
100
AcDbLine
 62
7
  6
CONTINUOUS
 10
4.6581317308
 20
3.6396137299
 11
4.6961877572
 21
3.6176140186
  0
LINE
  5
212
100
AcDbEntity
  8
0
100
AcDbLine
 62
7
  6
CONTINUOUS
 10
4.6581317308
 20
3.7110437299
 11
4.6961877572
 21
3.6890440186
  0
LINE
  5
213
100
AcDbEntity
  8
0
100
AcDbLine
 62
7
  6
CONTINUOUS
 10
4.6705619896
 20
3.513679698
 11
4.6976585634
 21
3.4865831242
  0
LINE
  5
214
100
AcDbEntity
  8
0
100
AcDbLine
 62
7
  6
CONTINUOUS
 10
4.0666585634
 20
5.7885831242
 11
4.0666585634
 21
3.8985831242
  0
LINE
  5
215
100
AcDbEntity
  8
0
100
AcDbLine
 62
7
  6
CONTINUOUS
 10
4.1066585634
 20
3.8585831242
 11
4.1066585634
 21
5.8285831242
  0
LINE
  5
216
100
AcDbEntity
  8
0
100
AcDbLine
 62
7
  6
CONTINUOUS
 10
4.6576585634
 20
3.7195831242
 11
4.75464133
 21
3.7195831242
  0
LINE
  5
217
100
AcDbEntity
  8
0
100
AcDbLine
 62
7
  6
CONTINUOUS
 10
4.6581317308
 20
3.6396137299
 11
4.6576585634
 21
3.6401606242
  0
LINE
  5
218
100
AcDbEntity
  8
0
100
AcDbLine
 62
7
  6
CONTINUOUS
 10
4.6963185634
 20
3.7582431242
 11
4.9873157381
 21
3.7582431242
  0
LINE
  5
219
100
AcDbEntity
  8
0
100
AcDbLine
 62
7
  6
CONTINUOUS
 10
4.7016585634
 20
3.7635831242
 11
5.4316585634
 21
3.7635831242
  0
LINE
  5
21A
100
AcDbEntity
  8
0
100
AcDbLine
 62
7
  6
CONTINUOUS
 10
4.5666644199
 20
3.8435831242
 11
5.5666527068
 21
3.8435831242
  0
LINE
  5
21B
100
AcDbEntity
  8
0
100
AcDbLine
 62
7
  6
CONTINUOUS
 10
5.4399745081
 20
3.4914165706
 11
5.4371293696
 21
3.4930615074
  0
LINE
  5
21C
100
AcDbEntity
  8
0
100
AcDbLine
 62
7
  6
CONTINUOUS
 10
4.1066585634
 20
3.8585831242
 11
4.5666585634
 21
3.8585831242
  0
LINE
  5
21D
100
AcDbEntity
  8
0
100
AcDbLine
 62
7
  6
CONTINUOUS
 10
5.5666585634
 20
3.8585831242
 11
5.9966585634
 21
3.8585831242
  0
LINE
  5
21E
100
AcDbEntity
  8
0
100
AcDbLine
 62
7
  6
CONTINUOUS
 10
4.0666585634
 20
3.8985831242
 11
4.5666585634
 21
3.8985831242
  0
LINE
  5
21F
100
AcDbEntity
  8
0
100
AcDbLine
 62
7
  6
CONTINUOUS
 10
5.5666585634
 20
3.8985831242
 11
6.0366585634
 21
3.8985831242
  0
LINE
  5
220
100
AcDbEntity
  8
0
100
AcDbLine
 62
7
  6
CONTINUOUS
 10
5.4751853959
 20
3.5424917957
 11
5.4369985634
 21
3.5645671348
  0
LINE
  5
221
100
AcDbEntity
  8
0
100
AcDbLine
 62
7
  6
CONTINUOUS
 10
5.4751853959
 20
3.6139217957
 11
5.4369985634
 21
3.6359971348
  0
LINE
  5
222
100
AcDbEntity
  8
0
100
AcDbLine
 62
7
  6
CONTINUOUS
 10
5.4751853959
 20
3.6853517957
 11
5.4369985634
 21
3.7074271348
  0
LINE
  5
223
100
AcDbEntity
  8
0
100
AcDbLine
 62
7
  6
CONTINUOUS
 10
4.5666585634
 20
3.8435831242
 11
4.5666585634
 21
4.8435831242
  0
LINE
  5
224
100
AcDbEntity
  8
0
100
AcDbLine
 62
7
  6
CONTINUOUS
 10
4.6576585634
 20
3.7195831242
 11
4.6576585634
 21
3.7115906242
  0
LINE
  5
225
100
AcDbEntity
  8
0
100
AcDbLine
 62
7
  6
CONTINUOUS
 10
4.6576585634
 20
3.6490899014
 11
4.6576585634
 21
3.6401606242
  0
LINE
  5
226
100
AcDbEntity
  8
0
100
AcDbLine
 62
7
  6
CONTINUOUS
 10
4.6576585634
 20
3.5776599014
 11
4.6576585634
 21
3.5687306242
  0
LINE
  5
227
100
AcDbEntity
  8
0
100
AcDbLine
 62
7
  6
CONTINUOUS
 10
4.6963185634
 20
3.7582431242
 11
4.6963185634
 21
3.7431421348
  0
LINE
  5
228
100
AcDbEntity
  8
0
100
AcDbLine
 62
7
  6
CONTINUOUS
 10
4.6963185634
 20
3.6892702628
 11
4.6963185634
 21
3.6717121348
  0
LINE
  5
229
100
AcDbEntity
  8
0
100
AcDbLine
 62
7
  6
CONTINUOUS
 10
4.6963185634
 20
3.6178402628
 11
4.6963185634
 21
3.6002821348
  0
LINE
  5
22A
100
AcDbEntity
  8
0
100
AcDbLine
 62
7
  6
CONTINUOUS
 10
4.6963185634
 20
3.5464102628
 11
4.6963185634
 21
3.5288521348
  0
LINE
  5
22B
100
AcDbEntity
  8
0
100
AcDbLine
 62
7
  6
CONTINUOUS
 10
4.7016585634
 20
3.8435831242
 11
4.7016585634
 21
3.7635831242
  0
LINE
  5
22C
100
AcDbEntity
  8
0
100
AcDbLine
 62
7
  6
CONTINUOUS
 10
5.4316585634
 20
3.7635831242
 11
5.4580832026
 21
3.737158485
  0
LINE
  5
22D
100
AcDbEntity
  8
0
100
AcDbLine
 62
7
  6
CONTINUOUS
 10
5.4751853959
 20
3.6139217957
 11
5.4756585634
 21
3.6133749014
  0
LINE
  5
22E
100
AcDbEntity
  8
0
100
AcDbLine
 62
7
  6
CONTINUOUS
 10
5.4316585634
 20
3.8435831242
 11
5.4316585634
 21
3.7635831242
  0
LINE
  5
22F
100
AcDbEntity
  8
0
100
AcDbLine
 62
7
  6
CONTINUOUS
 10
5.4369985634
 20
3.4928352628
 11
5.4369985634
 21
3.5103933912
  0
LINE
  5
230
100
AcDbEntity
  8
0
100
AcDbLine
 62
7
  6
CONTINUOUS
 10
5.4369985634
 20
3.5642652628
 11
5.4369985634
 21
3.5818233912
  0
LINE
  5
231
100
AcDbEntity
  8
0
100
AcDbLine
 62
7
  6
CONTINUOUS
 10
5.4369985634
 20
3.6356952628
 11
5.4369985634
 21
3.6532533912
  0
LINE
  5
232
100
AcDbEntity
  8
0
100
AcDbLine
 62
7
  6
CONTINUOUS
 10
5.4369985634
 20
3.7071252628
 11
5.4369985634
 21
3.7246833912
  0
LINE
  5
233
100
AcDbEntity
  8
0
100
AcDbLine
 62
7
  6
CONTINUOUS
 10
4.6581317308
 20
3.6496367957
 11
4.6576585634
 21
3.6490899014
  0
LINE
  5
234
100
AcDbEntity
  8
0
100
AcDbLine
 62
7
  6
CONTINUOUS
 10
4.7016585634
 20
3.7635831242
 11
4.6963185634
 21
3.7582431242
  0
LINE
  5
235
100
AcDbEntity
  8
0
100
AcDbLine
 62
7
  6
CONTINUOUS
 10
4.659875002
 20
3.7217995628
 11
4.6576585634
 21
3.7195831242
  0
LINE
  5
236
100
AcDbEntity
  8
0
100
AcDbLine
 62
7
  6
CONTINUOUS
 10
5.4756585634
 20
3.6848049014
 11
5.4756585634
 21
3.6758756242
  0
LINE
  5
237
100
AcDbEntity
  8
0
100
AcDbLine
 62
7
  6
CONTINUOUS
 10
5.4756585634
 20
3.6133749014
 11
5.4756585634
 21
3.6044456242
  0
LINE
  5
238
100
AcDbEntity
  8
0
100
AcDbLine
 62
7
  6
CONTINUOUS
 10
5.4756585634
 20
3.5419449014
 11
5.4756585634
 21
3.5330156242
  0
LINE
  5
239
100
AcDbEntity
  8
0
100
AcDbLine
 62
7
  6
CONTINUOUS
 10
5.5666585634
 20
3.8435831242
 11
5.5666585634
 21
4.8435831238
  0
LINE
  5
23A
100
AcDbEntity
  8
0
100
AcDbLine
 62
7
  6
CONTINUOUS
 10
4.6968409261
 20
3.7434441456
 11
4.6616574509
 21
3.7231047493
  0
LINE
  5
23B
100
AcDbEntity
  8
0
100
AcDbLine
 62
7
  6
CONTINUOUS
 10
4.6968409261
 20
3.6720141456
 11
4.6581317308
 21
3.6496367957
  0
LINE
  5
23C
100
AcDbEntity
  8
0
100
AcDbLine
 62
7
  6
CONTINUOUS
 10
4.6968409261
 20
3.6005841456
 11
4.6581317308
 21
3.5782067957
  0
LINE
  5
23D
100
AcDbEntity
  8
0
100
AcDbLine
 62
7
  6
CONTINUOUS
 10
4.6968409261
 20
3.5291541456
 11
4.6706924051
 21
3.5140373694
  0
LINE
  5
23E
100
AcDbEntity
  8
0
100
AcDbLine
 62
7
  6
CONTINUOUS
 10
5.9966585634
 20
3.8585831242
 11
5.9966585634
 21
5.8285831242
  0
LINE
  5
23F
100
AcDbEntity
  8
0
100
AcDbLine
 62
7
  6
CONTINUOUS
 10
6.0366585634
 20
3.8985831242
 11
6.0366585634
 21
5.7885831242
  0
LINE
  5
240
100
AcDbEntity
  8
0
100
AcDbLine
 62
7
  6
CONTINUOUS
 10
5.4751853959
 20
3.6038987299
 11
5.4756585634
 21
3.6044456242
  0
LINE
  5
241
100
AcDbEntity
  8
0
100
AcDbLine
 62
7
  6
CONTINUOUS
 10
5.4364762006
 20
3.7243813801
 11
5.4579512479
 21
3.7367965593
  0
LINE
  5
242
100
AcDbEntity
  8
0
100
AcDbLine
 62
7
  6
CONTINUOUS
 10
5.4394546327
 20
3.4903791935
 11
5.4356585634
 21
3.4865831242
  0
LINE
  5
243
100
AcDbEntity
  8
0
100
AcDbLine
 62
7
  6
CONTINUOUS
 10
5.4364762006
 20
3.6529513801
 11
5.4751853959
 21
3.6753287299
  0
LINE
  5
244
100
AcDbEntity
  8
0
100
AcDbLine
 62
7
  6
CONTINUOUS
 10
5.4364762006
 20
3.5815213801
 11
5.4751853959
 21
3.6038987299
  0
LINE
  5
245
100
AcDbEntity
  8
0
100
AcDbLine
 62
7
  6
CONTINUOUS
 10
4.0666585634
 20
5.7885831242
 11
6.0366585634
 21
5.7885831242
  0
LINE
  5
246
100
AcDbEntity
  8
0
100
AcDbLine
 62
7
  6
CONTINUOUS
 10
5.4364762006
 20
3.5100913801
 11
5.4751853959
 21
3.5324687299
  0
LINE
  5
247
100
AcDbEntity
  8
0
100
AcDbLine
 62
7
  6
CONTINUOUS
 10
5.9966585634
 20
5.8285831242
 11
4.1066585634
 21
5.8285831242
  0
ARC
  5
248
100
AcDbEntity
  8
0
100
AcDbCircle
 62
7
  6
CONTINUOUS
 10
5.0666585634
 20
4.8435831242
 40
0.5
100
AcDbArc
 50
0.0
 51
180.0
  0
ARC
  5
249
100
AcDbEntity
  8
0
100
AcDbCircle
 62
7
  6
CONTINUOUS
 10
4.1066585634
 20
5.7885831242
 40
0.04
100
AcDbArc
 50
90.0
 51
180.0
  0
ARC
  5
24A
100
AcDbEntity
  8
0
100
AcDbCircle
 62
7
  6
CONTINUOUS
 10
5.9966585634
 20
5.7885831242
 40
0.04
100
AcDbArc
 50
0.0
 51
90.0
  0
ARC
  5
24B
100
AcDbEntity
  8
0
100
AcDbCircle
 62
7
  6
CONTINUOUS
 10
4.1066585634
 20
3.8985831242
 40
0.04
100
AcDbArc
 50
180.0
 51
270.0
  0
ARC
  5
24C
100
AcDbEntity
  8
0
100
AcDbCircle
 62
7
  6
CONTINUOUS
 10
5.9966585634
 20
3.8985831242
 40
0.04
100
AcDbArc
 50
270.0
 51
360.0
  0
LINE
  5
24D
100
AcDbEntity
  8
0
100
AcDbLine
 62
7
  6
CONTINUOUS
 10
4.6576588058
 20
3.5687306251
 11
4.6581318586
 21
3.5681837292
  0
LINE
  5
24E
100
AcDbEntity
  8
0
100
AcDbLine
 62
7
  6
CONTINUOUS
 10
4.6576590251
 20
3.5776599024
 11
4.6581324293
 21
3.5782067953
  0
LINE
  5
24F
100
AcDbEntity
  8
0
100
AcDbLine
 62
7
  6
CONTINUOUS
 10
5.4756579776
 20
3.5330156249
 11
5.4751851288
 21
3.5324687316
  0
LINE
  5
250
100
AcDbEntity
  8
0
100
AcDbLine
 62
7
  6
CONTINUOUS
 10
5.4756583149
 20
3.5419449005
 11
5.4751852656
 21
3.5424917965
  0
SPLINE
  5
251
100
AcDbEntity
  8
0
100
AcDbSpline
 62
7
  6
CONTINUOUS
 70
0
 71
3
 72
14
 73
10
 74
0
 42
0.0000001
 43
0.0000001
 44
0.0000000001
 40
0.0
 40
0.0
 40
0.0
 40
0.0
 40
0.3313755128
 40
0.4601685908
 40
0.5700138978
 40
0.6686338083
 40
0.766464284
 40
0.8741870679
 40
1.0
 40
1.0
 40
1.0
 40
1.0
 10
5.4579508379
 20
3.7367965583
 30
0.0
 10
5.4579955491
 20
3.7368223818
 30
0.0
 10
5.4580561754
 20
3.7368625006
 30
0.0
 10
5.458116271
 20
3.7369285499
 30
0.0
 10
5.4581423414
 20
3.7369748888
 30
0.0
 10
5.4581522216
 20
3.7370225234
 30
0.0
 10
5.4581447985
 20
3.7370703022
 30
0.0
 10
5.4581209482
 20
3.7371168275
 30
0.0
 10
5.4580970557
 20
3.7371446274
 30
0.0
 10
5.45808319
 20
3.7371584851
 30
0.0
  0
LINE
  5
252
100
AcDbEntity
  8
0
100
AcDbLine
 62
7
  6
CONTINUOUS
 10
4.6616581359
 20
3.7231047437
 11
4.6598765028
 21
3.7217995529
  0
LINE
  5
253
100
AcDbEntity
  8
0
100
AcDbLine
 62
7
  6
CONTINUOUS
 10
5.4756583599
 20
3.6848049006
 11
5.4751852345
 21
3.6853517965
  0
LINE
  5
254
100
AcDbEntity
  8
0
100
AcDbLine
 62
7
  6
CONTINUOUS
 10
5.4756584075
 20
3.6758756235
 11
5.4751847268
 21
3.6753287295
  0
LINE
  5
255
100
AcDbEntity
  8
0
100
AcDbLine
 62
7
  6
CONTINUOUS
 10
4.6576592514
 20
3.7115906241
 11
4.6581322101
 21
3.7110437311
  0
SPLINE
  5
256
100
AcDbEntity
  8
0
100
AcDbSpline
 62
7
  6
CONTINUOUS
 70
0
 71
3
 72
14
 73
10
 74
0
 42
0.0000001
 43
0.0000001
 44
0.0000000001
 40
0.0
 40
0.0
 40
0.0
 40
0.0
 40
0.1259313111
 40
0.2337641317
 40
0.3316478863
 40
0.4302400743
 40
0.540000157
 40
0.6686997371
 40
1.0
 40
1.0
 40
1.0
 40
1.0
 10
4.6705623255
 20
3.5136796977
 30
0.0
 10
4.6705486041
 20
3.5136933942
 30
0.0
 10
4.6705249528
 20
3.5137208683
 30
0.0
 10
4.6705012913
 20
3.5137668324
 30
0.0
 10
4.6704938323
 20
3.5138140398
 30
0.0
 10
4.6705034701
 20
3.5138611237
 30
0.0
 10
4.6705291324
 20
3.5139069313
 30
0.0
 10
4.6705884225
 20
3.5139722228
 30
0.0
 10
4.6706483035
 20
3.5140118573
 30
0.0
 10
4.6706924685
 20
3.5140373698
 30
0.0
  0
SPLINE
  5
257
100
AcDbEntity
  8
0
100
AcDbSpline
 62
7
  6
CONTINUOUS
 70
0
 71
3
 72
14
 73
10
 74
0
 42
0.0000001
 43
0.0000001
 44
0.0000000001
 40
0.0
 40
0.0
 40
0.0
 40
0.0
 40
0.3312532773
 40
0.4599528195
 40
0.5697122933
 40
0.6683041538
 40
0.7661945661
 40
0.8740438503
 40
1.0
 40
1.0
 40
1.0
 40
1.0
 10
5.4399744434
 20
3.4914165714
 30
0.0
 10
5.4400212663
 20
3.4913895173
 30
0.0
 10
5.440084751
 20
3.4913474865
 30
0.0
 10
5.4401476184
 20
3.49127826
 30
0.0
 10
5.4401748306
 20
3.4912296857
 30
0.0
 10
5.4401850438
 20
3.4911797553
 30
0.0
 10
5.4401771223
 20
3.4911296949
 30
0.0
 10
5.440152018
 20
3.4910809535
 30
0.0
 10
5.4401269295
 20
3.4910518191
 30
0.0
 10
5.4401123748
 20
3.4910372945
 30
0.0
  0
SPLINE
  5
258
100
AcDbEntity
  8
0
100
AcDbSpline
 62
7
  6
CONTINUOUS
 70
0
 71
3
 72
35
 73
31
 74
0
 42
0.0000001
 43
0.0000001
 44
0.0000000001
 40
0.0
 40
0.0
 40
0.0
 40
0.0
 40
0.0007224019
 40
0.0015727264
 40
0.0036696349
 40
0.0063074804
 40
0.0094932197
 40
0.0132289175
 40
0.0175146451
 40
0.0223495321
 40
0.0277321541
 40
0.0401331467
 40
0.054697099
 40
0.0713906187
 40
0.0901776129
 40
0.1110202564
 40
0.1338706833
 40
0.1586759256
 40
0.1853826964
 40
0.2139319972
 40
0.2442567743
 40
0.3099598273
 40
0.3818999019
 40
0.4594284163
 40
0.5418440881
 40
0.6284051506
 40
0.7183175658
 40
0.8107810899
 40
0.9049878886
 40
1.0
 40
1.0
 40
1.0
 40
1.0
 10
4.6581324293
 20
3.5782067953
 30
0.0
 10
4.6582177142
 20
3.5782561043
 30
0.0
 10
4.6584094593
 20
3.5783529648
 30
0.0
 10
4.6588717686
 20
3.5785452172
 30
0.0
 10
4.6595981798
 20
3.5787778309
 30
0.0
 10
4.660645434
 20
3.5790433227
 30
0.0
 10
4.6619218099
 20
3.5793099217
 30
0.0
 10
4.6634266489
 20
3.5795775692
 30
0.0
 10
4.6651593305
 20
3.5798458265
 30
0.0
 10
4.6671188583
 20
3.5801145758
 30
0.0
 10
4.6701803067
 20
3.5804913562
 30
0.0
 10
4.674567464
 20
3.5809543004
 30
0.0
 10
4.6804972136
 20
3.581489037
 30
0.0
 10
4.6873007708
 20
3.5820251448
 30
0.0
 10
4.694962783
 20
3.5825623388
 30
0.0
 10
4.7034662109
 20
3.5831001261
 30
0.0
 10
4.7127917916
 20
3.583638447
 30
0.0
 10
4.7229182523
 20
3.5841772119
 30
0.0
 10
4.7338228648
 20
3.5847162511
 30
0.0
 10
4.7454810176
 20
3.5852554997
 30
0.0
 10
4.7624534409
 20
3.5859947157
 30
0.0
 10
4.7853408573
 20
3.5869106593
 30
0.0
 10
4.8146640583
 20
3.5879841897
 30
0.0
 10
4.8462677194
 20
3.5890587549
 30
0.0
 10
4.8798662769
 20
3.5901342353
 30
0.0
 10
4.9151544204
 20
3.5912102213
 30
0.0
 10
4.9518133771
 20
3.5922866772
 30
0.0
 10
4.9895154011
 20
3.5933635033
 30
0.0
 10
5.0279131405
 20
3.5944404486
 30
0.0
 10
5.0537068299
 20
3.595157399
 30
0.0
 10
5.0666585634
 20
3.5955174014
 30
0.0
  0
SPLINE
  5
259
100
AcDbEntity
  8
0
100
AcDbSpline
 62
7
  6
CONTINUOUS
 70
0
 71
3
 72
21
 73
17
 74
0
 42
0.0000001
 43
0.0000001
 44
0.0000000001
 40
0.0
 40
0.0
 40
0.0
 40
0.0
 40
0.0438856407
 40
0.0923244475
 40
0.1449501319
 40
0.2013956702
 40
0.2612621982
 40
0.3241019291
 40
0.3894381492
 40
0.4567682877
 40
0.5952647498
 40
0.7351133972
 40
0.8040752714
 40
0.8716076003
 40
0.9371310314
 40
1.0
 40
1.0
 40
1.0
 40
1.0
 10
5.4119154117
 20
3.5265831242
 30
0.0
 10
5.404617884
 20
3.5257719272
 30
0.0
 10
5.3892547614
 20
3.5241634638
 30
0.0
 10
5.3651129517
 20
3.5218571547
 30
0.0
 10
5.3388623259
 20
3.5195357433
 30
0.0
 10
5.310694105
 20
3.5171992266
 30
0.0
 10
5.2808126469
 20
3.5148478451
 30
0.0
 10
5.2494404636
 20
3.5124815669
 30
0.0
 10
5.2168172336
 20
3.5101004794
 30
0.0
 10
5.1715639058
 20
3.5068757616
 30
0.0
 10
5.1138689483
 20
3.5028578811
 30
0.0
 10
5.0559024136
 20
3.4988098266
 30
0.0
 10
5.00978634
 20
3.4954992571
 30
0.0
 10
4.9760785123
 20
3.4930121015
 30
0.0
 10
4.9433941089
 20
3.4905094544
 30
0.0
 10
4.921981657
 20
3.4887907064
 30
0.0
 10
4.9114989345
 20
3.4879231242
 30
0.0
  0
LINE
  5
25A
100
AcDbEntity
  8
0
100
AcDbLine
 62
7
  6
CONTINUOUS
 10
4.6968409262
 20
3.6005841456
 11
4.6984690274
 21
3.601205824
  0
SPLINE
  5
25B
100
AcDbEntity
  8
0
100
AcDbSpline
 62
7
  6
CONTINUOUS
 70
0
 71
3
 72
62
 73
58
 74
0
 42
0.0000001
 43
0.0000001
 44
0.0000000001
 40
0.0
 40
0.0
 40
0.0
 40
0.0
 40
0.0014622039
 40
0.0031954305
 40
0.005200818
 40
0.0074787676
 40
0.0128514431
 40
0.0193055027
 40
0.0268276853
 40
0.0354037118
 40
0.0450165038
 40
0.0556435216
 40
0.0672613169
 40
0.0798458571
 40
0.1077981443
 40
0.1392509765
 40
0.1739225151
 40
0.2115040389
 40
0.2516568082
 40
0.2940227833
 40
0.338220526
 40
0.3838544825
 40
0.4305148548
 40
0.4777830815
 40
0.5252350325
 40
0.5724449907
 40
0.6189891914
 40
0.6644501365
 40
0.7084201641
 40
0.7505041777
 40
0.7903261096
 40
0.8275270539
 40
0.8617759276
 40
0.892764228
 40
0.9202163832
 40
0.9325382488
 40
0.9438878844
 40
0.9542388428
 40
0.9635682856
 40
0.9718577081
 40
0.9790892047
 40
0.982302959
 40
0.9852467817
 40
0.9879197499
 40
0.99032108
 40
0.9924501997
 40
0.9943068745
 40
0.9958914429
 40
0.9972054386
 40
0.9977622957
 40
0.9982534888
 40
0.9986803879
 40
0.9990451047
 40
0.9993510611
 40
0.999604098
 40
0.9998145398
 40
1.0
 40
1.0
 40
1.0
 40
1.0
 10
4.6984690274
 20
3.601205824
 30
0.0
 10
4.6988158573
 20
3.6013047503
 30
0.0
 10
4.6995803962
 20
3.6014978071
 30
0.0
 10
4.7008354388
 20
3.6017641402
 30
0.0
 10
4.7022954025
 20
3.6020312042
 30
0.0
 10
4.704647094
 20
3.6024090574
 30
0.0
 10
4.7080958588
 20
3.6028707909
 30
0.0
 10
4.7128389265
 20
3.6034021392
 30
0.0
 10
4.7183761752
 20
3.6039352442
 30
0.0
 10
4.724695506
 20
3.6044697099
 30
0.0
 10
4.7317830219
 20
3.6050049393
 30
0.0
 10
4.7396226687
 20
3.6055408796
 30
0.0
 10
4.7481968353
 20
3.6060773612
 30
0.0
 10
4.7610397512
 20
3.6068192692
 30
0.0
 10
4.7787729968
 20
3.6077353123
 30
0.0
 10
4.8019531661
 20
3.6088023969
 30
0.0
 10
4.8275106413
 20
3.6098712602
 30
0.0
 10
4.8552156707
 20
3.6109413866
 30
0.0
 10
4.8848198611
 20
3.6120125171
 30
0.0
 10
4.9160569687
 20
3.6130842476
 30
0.0
 10
4.9486467873
 20
3.6141565118
 30
0.0
 10
4.9822963893
 20
3.615229086
 30
0.0
 10
5.0167037133
 20
3.6163018963
 30
0.0
 10
5.0515596679
 20
3.6173748285
 30
0.0
 10
5.0865512439
 20
3.6184478001
 30
0.0
 10
5.1213641518
 20
3.619520719
 30
0.0
 10
5.1556857339
 20
3.6205935024
 30
0.0
 10
5.1892077757
 20
3.6216660524
 30
0.0
 10
5.2216291168
 20
3.6227382237
 30
0.0
 10
5.2526587848
 20
3.6238099373
 30
0.0
 10
5.2820177988
 20
3.6248808708
 30
0.0
 10
5.3094428927
 20
3.6259509438
 30
0.0
 10
5.3346874031
 20
3.6270194947
 30
0.0
 10
5.3575250262
 20
3.6280863435
 30
0.0
 10
5.3749551271
 20
3.6290026759
 30
0.0
 10
5.3875432741
 20
3.6297453411
 30
0.0
 10
5.3959180329
 20
3.6302816203
 30
0.0
 10
5.4035530817
 20
3.6308173892
 30
0.0
 10
5.4104313299
 20
3.6313525086
 30
0.0
 10
5.4165376226
 20
3.6318866812
 30
0.0
 10
5.4211358931
 20
3.6323467663
 30
0.0
 10
5.4244173386
 20
3.6327195493
 30
0.0
 10
5.4265789119
 20
3.6329878454
 30
0.0
 10
5.4285384493
 20
3.6332558826
 30
0.0
 10
5.4302950253
 20
3.6335235961
 30
0.0
 10
5.4318477301
 20
3.633790877
 30
0.0
 10
5.4331957906
 20
3.6340574934
 30
0.0
 10
5.4343384137
 20
3.6343233184
 30
0.0
 10
5.4351593139
 20
3.6345546735
 30
0.0
 10
5.4357105439
 20
3.6347437908
 30
0.0
 10
5.4360490405
 20
3.6348775512
 30
0.0
 10
5.4363361376
 20
3.6350111361
 30
0.0
 10
5.4365720907
 20
3.6351446377
 30
0.0
 10
5.4367573763
 20
3.6352783192
 30
0.0
 10
5.436892544
 20
3.6354131565
 30
0.0
 10
5.4369775278
 20
3.6355512676
 30
0.0
 10
5.4369980231
 20
3.6356495167
 30
0.0
 10
5.4369980716
 20
3.6356952617
 30
0.0
  0
SPLINE
  5
25C
100
AcDbEntity
  8
0
100
AcDbSpline
 62
7
  6
CONTINUOUS
 70
0
 71
3
 72
17
 73
13
 74
0
 42
0.0000001
 43
0.0000001
 44
0.0000000001
 40
0.0
 40
0.0
 40
0.0
 40
0.0
 40
0.1893341129
 40
0.3608226739
 40
0.5141427034
 40
0.6489777463
 40
0.7650566003
 40
0.8622645124
 40
0.9037781769
 40
0.9405638439
 40
0.9726303951
 40
1.0
 40
1.0
 40
1.0
 40
1.0
 10
5.4029622184
 20
3.4879231242
 30
0.0
 10
5.4050001183
 20
3.4880725109
 30
0.0
 10
5.4088829757
 20
3.4883692206
 30
0.0
 10
5.4144122264
 20
3.4888357864
 30
0.0
 10
5.4193510418
 20
3.48930177
 30
0.0
 10
5.4236890276
 20
3.4897666118
 30
0.0
 10
5.4274175699
 20
3.4902302207
 30
0.0
 10
5.4301383345
 20
3.4906326564
 30
0.0
 10
5.4320038797
 20
3.4909612265
 30
0.0
 10
5.43317214
 20
3.4911941281
 30
0.0
 10
5.4341844269
 20
3.4914264951
 30
0.0
 10
5.4348039163
 20
3.4915940392
 30
0.0
 10
5.4350866418
 20
3.491679583
 30
0.0
  0
SPLINE
  5
25D
100
AcDbEntity
  8
0
100
AcDbSpline
 62
7
  6
CONTINUOUS
 70
0
 71
3
 72
15
 73
11
 74
0
 42
0.0000001
 43
0.0000001
 44
0.0000000001
 40
0.0
 40
0.0
 40
0.0
 40
0.0
 40
0.2020541493
 40
0.3799153881
 40
0.534033145
 40
0.665106021
 40
0.7742815654
 40
0.8635626789
 40
0.9366159779
 40
1.0
 40
1.0
 40
1.0
 40
1.0
 10
5.4350866418
 20
3.491679583
 30
0.0
 10
5.4352367062
 20
3.4917249878
 30
0.0
 10
5.4355175419
 20
3.4918148968
 30
0.0
 10
5.4359065105
 20
3.4919582383
 30
0.0
 10
5.4362363459
 20
3.4921013733
 30
0.0
 10
5.4365073416
 20
3.4922443484
 30
0.0
 10
5.4367200976
 20
3.4923874073
 30
0.0
 10
5.4368753624
 20
3.4925316045
 30
0.0
 10
5.4369735624
 20
3.4926795579
 30
0.0
 10
5.4369975972
 20
3.4927860776
 30
0.0
 10
5.4369976441
 20
3.4928352602
 30
0.0
  0
SPLINE
  5
25E
100
AcDbEntity
  8
0
100
AcDbSpline
 62
7
  6
CONTINUOUS
 70
0
 71
3
 72
37
 73
33
 74
0
 42
0.0000001
 43
0.0000001
 44
0.0000000001
 40
0.0
 40
0.0
 40
0.0
 40
0.0
 40
0.0799911185
 40
0.1631975557
 40
0.2483407048
 40
0.3341876216
 40
0.4194572188
 40
0.50288608
 40
0.5832394338
 40
0.6593260186
 40
0.7300179455
 40
0.7630112161
 40
0.794269562
 40
0.8236799911
 40
0.8511314194
 40
0.8765231389
 40
0.8997634061
 40
0.9207635183
 40
0.9394497258
 40
0.9557540967
 40
0.9629934696
 40
0.9696166033
 40
0.9756184394
 40
0.9809941425
 40
0.9857392228
 40
0.9898503394
 40
0.9933272157
 40
0.9961718647
 40
0.9973588966
 40
0.9983907249
 40
0.9992697307
 40
1.0
 40
1.0
 40
1.0
 40
1.0
 10
4.9114989345
 20
3.4879231242
 30
0.0
 10
4.925507518
 20
3.4883967196
 30
0.0
 10
4.954088704
 20
3.4893354534
 30
0.0
 10
4.9975829342
 20
3.4907101333
 30
0.0
 10
5.0421037401
 20
3.4920852852
 30
0.0
 10
5.0869862322
 20
3.4934605528
 30
0.0
 10
5.1315681983
 20
3.4948357046
 30
0.0
 10
5.1751870953
 20
3.4962104134
 30
0.0
 10
5.2171960914
 20
3.4975842696
 30
0.0
 10
5.2569720286
 20
3.4989568777
 30
0.0
 10
5.2884512803
 20
3.5001242893
 30
0.0
 10
5.3120782252
 20
3.5010668626
 30
0.0
 10
5.3284758122
 20
3.5017572713
 30
0.0
 10
5.3439014291
 20
3.5024472714
 30
0.0
 10
5.3582979789
 20
3.5031369241
 30
0.0
 10
5.371612047
 20
3.5038260946
 30
0.0
 10
5.3837940766
 20
3.5045144736
 30
0.0
 10
5.3947991319
 20
3.5052020026
 30
0.0
 10
5.4045862739
 20
3.505888271
 30
0.0
 10
5.4119626513
 20
3.5064793706
 30
0.0
 10
5.417226976
 20
3.5069586229
 30
0.0
 10
5.4206906741
 20
3.5073033934
 30
0.0
 10
5.423826082
 20
3.5076477872
 30
0.0
 10
5.4266302844
 20
3.5079916927
 30
0.0
 10
5.429100484
 20
3.5083349499
 30
0.0
 10
5.4312345319
 20
3.5086772535
 30
0.0
 10
5.4330307515
 20
3.5090183651
 30
0.0
 10
5.4343131494
 20
3.5093157214
 30
0.0
 10
5.4351663803
 20
3.5095597782
 30
0.0
 10
5.4356816535
 20
3.5097312999
 30
0.0
 10
5.436111942
 20
3.509902367
 30
0.0
 10
5.4363653758
 20
3.5100273468
 30
0.0
 10
5.436476165
 20
3.5100913796
 30
0.0
  0
SPLINE
  5
25F
100
AcDbEntity
  8
0
100
AcDbSpline
 62
7
  6
CONTINUOUS
 70
0
 71
3
 72
38
 73
34
 74
0
 42
0.0000001
 43
0.0000001
 44
0.0000000001
 40
0.0
 40
0.0
 40
0.0
 40
0.0
 40
0.1061030879
 40
0.2089335792
 40
0.3077443861
 40
0.4019253913
 40
0.4909140151
 40
0.5741654774
 40
0.6511488411
 40
0.721390611
 40
0.784453173
 40
0.8399519853
 40
0.8647566361
 40
0.8875435849
 40
0.9082817222
 40
0.9269420098
 40
0.9434960447
 40
0.9579181843
 40
0.9643249958
 40
0.9701938998
 40
0.9755239472
 40
0.9803145794
 40
0.9845658293
 40
0.9882786686
 40
0.9914556744
 40
0.9941030462
 40
0.9962334247
 40
0.9971123663
 40
0.9978734893
 40
0.9985251382
 40
0.9990806395
 40
0.9995614127
 40
1.0
 40
1.0
 40
1.0
 40
1.0
 10
5.1787272388
 20
3.5499027628
 30
0.0
 10
5.1878880588
 20
3.5501978086
 30
0.0
 10
5.2059269172
 20
3.5507859644
 30
0.0
 10
5.2324959551
 20
3.5516802445
 30
0.0
 10
5.2580345206
 20
3.5525744234
 30
0.0
 10
5.2823766314
 20
3.5534680612
 30
0.0
 10
5.305373734
 20
3.554361279
 30
0.0
 10
5.3268840847
 20
3.5552537806
 30
0.0
 10
5.3467735518
 20
3.5561455749
 30
0.0
 10
5.3649172011
 20
3.5570360598
 30
0.0
 10
5.3812025441
 20
3.5579251117
 30
0.0
 10
5.393563578
 20
3.5586896997
 30
0.0
 10
5.4024473737
 20
3.5593091832
 30
0.0
 10
5.4083330563
 20
3.5597559658
 30
0.0
 10
5.4136863391
 20
3.5602022902
 30
0.0
 10
5.4184992114
 20
3.5606479923
 30
0.0
 10
5.4227639501
 20
3.5610929155
 30
0.0
 10
5.4259705842
 20
3.5614763465
 30
0.0
 10
5.4282558845
 20
3.561786903
 30
0.0
 10
5.429760273
 20
3.5620103755
 30
0.0
 10
5.4311234103
 20
3.5622336409
 30
0.0
 10
5.4323447993
 20
3.5624566553
 30
0.0
 10
5.433423994
 20
3.5626793209
 30
0.0
 10
5.4343605654
 20
3.5629015226
 30
0.0
 10
5.4351544327
 20
3.563123045
 30
0.0
 10
5.4358055081
 20
3.5633438216
 30
0.0
 10
5.4362554296
 20
3.5635372027
 30
0.0
 10
5.4365400481
 20
3.5636961885
 30
0.0
 10
5.4367039849
 20
3.5638077596
 30
0.0
 10
5.4368327102
 20
3.5639196383
 30
0.0
 10
5.4369263569
 20
3.5640325555
 30
0.0
 10
5.4369843734
 20
3.5641475309
 30
0.0
 10
5.436997938
 20
3.5642273752
 30
0.0
 10
5.4369979701
 20
3.5642652619
 30
0.0
  0
SPLINE
  5
260
100
AcDbEntity
  8
0
100
AcDbSpline
 62
7
  6
CONTINUOUS
 70
0
 71
3
 72
30
 73
26
 74
0
 42
0.0000001
 43
0.0000001
 44
0.0000000001
 40
0.0
 40
0.0
 40
0.0
 40
0.0
 40
0.2010763182
 40
0.296475814
 40
0.3876782157
 40
0.4741862652
 40
0.5555166151
 40
0.6311972372
 40
0.7007926065
 40
0.7639121073
 40
0.8201932962
 40
0.8693260262
 40
0.8911198281
 40
0.9110262293
 40
0.9290199406
 40
0.9450762049
 40
0.9591717568
 40
0.9712918774
 40
0.9814287429
 40
0.985752514
 40
0.9895801456
 40
0.9929131341
 40
0.9957547694
 40
0.9981123248
 40
1.0
 40
1.0
 40
1.0
 40
1.0
 10
5.1787272388
 20
3.5677627628
 30
0.0
 10
5.1960322205
 20
3.5683201106
 30
0.0
 10
5.2215468695
 20
3.5691604731
 30
0.0
 10
5.2549081875
 20
3.570323362
 30
0.0
 10
5.2784091084
 20
3.5711798304
 30
0.0
 10
5.3006977587
 20
3.5720358955
 30
0.0
 10
5.3216488646
 20
3.5728914569
 30
0.0
 10
5.3411424172
 20
3.5737463628
 30
0.0
 10
5.3590663132
 20
3.5746004561
 30
0.0
 10
5.3753178127
 20
3.5754531373
 30
0.0
 10
5.389804732
 20
3.5763043927
 30
0.0
 10
5.4007337819
 20
3.5770375021
 30
0.0
 10
5.4085324753
 20
3.5776323817
 30
0.0
 10
5.4136547237
 20
3.5780601587
 30
0.0
 10
5.4182811022
 20
3.5784873915
 30
0.0
 10
5.4224048365
 20
3.5789139373
 30
0.0
 10
5.4260199291
 20
3.5793395283
 30
0.0
 10
5.4291214018
 20
3.5797639469
 30
0.0
 10
5.431380788
 20
3.5801324838
 30
0.0
 10
5.4329266153
 20
3.5804334784
 30
0.0
 10
5.4338923628
 20
3.5806467539
 30
0.0
 10
5.4347271001
 20
3.5808595277
 30
0.0
 10
5.4354308637
 20
3.5810716935
 30
0.0
 10
5.4360036819
 20
3.581283025
 30
0.0
 10
5.436335
 20
3.5814399872
 30
0.0
 10
5.4364756932
 20
3.5815213812
 30
0.0
  0
LINE
  5
261
100
AcDbEntity
  8
0
100
AcDbLine
 62
7
  6
CONTINUOUS
 10
5.0666585634
 20
3.5865881242
 11
5.1904261506
 21
3.5900831242
  0
SPLINE
  5
262
100
AcDbEntity
  8
0
100
AcDbSpline
 62
7
  6
CONTINUOUS
 70
0
 71
3
 72
66
 73
62
 74
0
 42
0.0000001
 43
0.0000001
 44
0.0000000001
 40
0.0
 40
0.0
 40
0.0
 40
0.0
 40
0.0001884569
 40
0.0004030848
 40
0.0006622127
 40
0.0009764702
 40
0.0013518261
 40
0.0017917642
 40
0.0022984336
 40
0.002873231
 40
0.0042303626
 40
0.0058671809
 40
0.0077851445
 40
0.0099846658
 40
0.0124655868
 40
0.0152274131
 40
0.0182694386
 40
0.021590509
 40
0.0290617327
 40
0.0376240713
 40
0.0472597057
 40
0.0579482966
 40
0.0696638383
 40
0.0823793334
 40
0.1106951375
 40
0.1426316708
 40
0.1778957733
 40
0.2161583119
 40
0.2570649671
 40
0.300235695
 40
0.3452685465
 40
0.391745941
 40
0.4392347158
 40
0.48729407
 40
0.535476545
 40
0.5833345998
 40
0.6304225588
 40
0.6763034604
 40
0.720549737
 40
0.7627509279
 40
0.8025146235
 40
0.8394708316
 40
0.8732781377
 40
0.9036206396
 40
0.9174050087
 40
0.930220411
 40
0.9420373077
 40
0.9528301872
 40
0.9625738765
 40
0.9712449856
 40
0.9788261758
 40
0.9853019868
 40
0.9881208762
 40
0.9906584936
 40
0.9929144307
 40
0.9948886841
 40
0.9965817584
 40
0.9979950717
 40
0.9991318542
 40
0.9995987665
 40
1.0
 40
1.0
 40
1.0
 40
1.0
 10
4.6963192685
 20
3.6892702633
 30
0.0
 10
4.696319289
 20
3.6893168571
 30
0.0
 10
4.6963405594
 20
3.6894171427
 30
0.0
 10
4.6964286509
 20
3.6895577321
 30
0.0
 10
4.6965686216
 20
3.6896949159
 30
0.0
 10
4.6967605159
 20
3.6898309413
 30
0.0
 10
4.6970049454
 20
3.6899668078
 30
0.0
 10
4.6973024293
 20
3.6901027749
 30
0.0
 10
4.6976532462
 20
3.690238931
 30
0.0
 10
4.6982247549
 20
3.690431476
 30
0.0
 10
4.6990756878
 20
3.6906669416
 30
0.0
 10
4.7002597971
 20
3.6909375599
 30
0.0
 10
4.7016565629
 20
3.6912089818
 30
0.0
 10
4.7032652083
 20
3.6914810846
 30
0.0
 10
4.7050850188
 20
3.6917536259
 30
0.0
 10
4.7071151405
 20
3.6920264977
 30
0.0
 10
4.7093546292
 20
3.6922996189
 30
0.0
 10
4.7127539457
 20
3.6926790557
 30
0.0
 10
4.7175163807
 20
3.6931474391
 30
0.0
 10
4.7238395623
 20
3.6936912728
 30
0.0
 10
4.7309607243
 20
3.6942360078
 30
0.0
 10
4.738863458
 20
3.6947813792
 30
0.0
 10
4.7475292527
 20
3.6953273598
 30
0.0
 10
4.7605484334
 20
3.6960832732
 30
0.0
 10
4.7785649582
 20
3.6970158684
 30
0.0
 10
4.8021554219
 20
3.6981019112
 30
0.0
 10
4.8282073754
 20
3.6991896382
 30
0.0
 10
4.8564787851
 20
3.7002788902
 30
0.0
 10
4.8867063302
 20
3.7013690764
 30
0.0
 10
4.9186087568
 20
3.7024599659
 30
0.0
 10
4.9518892346
 20
3.7035513893
 30
0.0
 10
4.9862378432
 20
3.7046431252
 30
0.0
 10
5.0213350801
 20
3.7057351229
 30
0.0
 10
5.0568540764
 20
3.7068272158
 30
0.0
 10
5.0924644143
 20
3.7079193567
 30
0.0
 10
5.1278344755
 20
3.7090114055
 30
0.0
 10
5.1626352289
 20
3.7101033164
 30
0.0
 10
5.1965425729
 20
3.711194912
 30
0.0
 10
5.2292410865
 20
3.712286126
 30
0.0
 10
5.2604263355
 20
3.7133767338
 30
0.0
 10
5.2898080677
 20
3.7144665155
 30
0.0
 10
5.3171130357
 20
3.71555518
 30
0.0
 10
5.3420867815
 20
3.7166422218
 30
0.0
 10
5.3613327384
 20
3.7175735173
 30
0.0
 10
5.3753909442
 20
3.7183267303
 30
0.0
 10
5.3848733366
 20
3.7188731253
 30
0.0
 10
5.3936148178
 20
3.7194191637
 30
0.0
 10
5.4015952859
 20
3.719964642
 30
0.0
 10
5.4087960563
 20
3.7205093945
 30
0.0
 10
5.4152003475
 20
3.7210532525
 30
0.0
 10
5.4207935065
 20
3.7215958444
 30
0.0
 10
5.4249397196
 20
3.7220651398
 30
0.0
 10
5.4278401929
 20
3.7224468971
 30
0.0
 10
5.429702511
 20
3.7227195428
 30
0.0
 10
5.4313536094
 20
3.7229917379
 30
0.0
 10
5.4327928089
 20
3.7232633733
 30
0.0
 10
5.4340197484
 20
3.7235340839
 30
0.0
 10
5.4350338746
 20
3.7238037319
 30
0.0
 10
5.4357426053
 20
3.7240396155
 30
0.0
 10
5.4361989061
 20
3.7242339048
 30
0.0
 10
5.4363903053
 20
3.724331717
 30
0.0
 10
5.4364761789
 20
3.7243813804
 30
0.0
  0
SPLINE
  5
263
100
AcDbEntity
  8
0
100
AcDbSpline
 62
7
  6
CONTINUOUS
 70
0
 71
3
 72
30
 73
26
 74
0
 42
0.0000001
 43
0.0000001
 44
0.0000000001
 40
0.0
 40
0.0
 40
0.0
 40
0.0
 40
0.2018628174
 40
0.2975975746
 40
0.3890994562
 40
0.4758621893
 40
0.5573929444
 40
0.6332105049
 40
0.7028835056
 40
0.766008984
 40
0.8222304689
 40
0.8712227246
 40
0.8929202261
 40
0.9127122734
 40
0.930569669
 40
0.9464664297
 40
0.9603849193
 40
0.9723100345
 40
0.9822289079
 40
0.9864335773
 40
0.9901357162
 40
0.9933375513
 40
0.9960430052
 40
0.9982592015
 40
1.0
 40
1.0
 40
1.0
 40
1.0
 10
5.1904261506
 20
3.5900831242
 30
0.0
 10
5.2096145439
 20
3.5906427156
 30
0.0
 10
5.2379026279
 20
3.5914864198
 30
0.0
 10
5.2748864015
 20
3.5926542085
 30
0.0
 10
5.3009287403
 20
3.5935141684
 30
0.0
 10
5.3256195618
 20
3.5943737637
 30
0.0
 10
5.3488179179
 20
3.5952327825
 30
0.0
 10
5.3703899276
 20
3.5960912314
 30
0.0
 10
5.3902101996
 20
3.5969486796
 30
0.0
 10
5.4081651102
 20
3.5978048941
 30
0.0
 10
5.4241509448
 20
3.5986593583
 30
0.0
 10
5.4361975404
 20
3.5993957357
 30
0.0
 10
5.4447813627
 20
3.5999933412
 30
0.0
 10
5.4504087677
 20
3.6004227829
 30
0.0
 10
5.4554828311
 20
3.6008516579
 30
0.0
 10
5.4599961768
 20
3.6012799349
 30
0.0
 10
5.4639426792
 20
3.6017071006
 30
0.0
 10
5.4673170042
 20
3.6021329175
 30
0.0
 10
5.4697668344
 20
3.6025029844
 30
0.0
 10
5.4714348714
 20
3.6028057493
 30
0.0
 10
5.472469511
 20
3.6030197663
 30
0.0
 10
5.4733582354
 20
3.6032332107
 30
0.0
 10
5.474101337
 20
3.6034458838
 30
0.0
 10
5.4746988726
 20
3.6036574846
 30
0.0
 10
5.4750416196
 20
3.603815922
 30
0.0
 10
5.4751849655
 20
3.603898729
 30
0.0
  0
SPLINE
  5
264
100
AcDbEntity
  8
0
100
AcDbSpline
 62
7
  6
CONTINUOUS
 70
0
 71
3
 72
40
 73
36
 74
0
 42
0.0000001
 43
0.0000001
 44
0.0000000001
 40
0.0
 40
0.0
 40
0.0
 40
0.0
 40
0.0978270166
 40
0.1947632667
 40
0.2897926179
 40
0.3820326257
 40
0.4706043123
 40
0.5546447808
 40
0.6333487771
 40
0.705961508
 40
0.7717819918
 40
0.8019473025
 40
0.8301828928
 40
0.8564210105
 40
0.8806018785
 40
0.9026663348
 40
0.9225601635
 40
0.9402402669
 40
0.9556656335
 40
0.962520538
 40
0.9687988486
 40
0.9744981241
 40
0.9796161542
 40
0.9841510788
 40
0.9881016001
 40
0.9914673948
 40
0.9942507773
 40
0.9954262661
 40
0.9964594192
 40
0.9973525457
 40
0.9981092935
 40
0.998735766
 40
0.9992428771
 40
0.9996513304
 40
1.0
 40
1.0
 40
1.0
 40
1.0
 10
5.0666585634
 20
3.5865881242
 30
0.0
 10
5.0532985765
 20
3.5862167742
 30
0.0
 10
5.0267002523
 20
3.5854774597
 30
0.0
 10
4.9871243061
 20
3.5843668295
 30
0.0
 10
4.9483119579
 20
3.5832563564
 30
0.0
 10
4.9106428445
 20
3.5821462956
 30
0.0
 10
4.8744756911
 20
3.5810367727
 30
0.0
 10
4.840158719
 20
3.5799278975
 30
0.0
 10
4.8080232273
 20
3.5788200526
 30
0.0
 10
4.7783784939
 20
3.5777135733
 30
0.0
 10
4.7553638689
 20
3.576767731
 30
0.0
 10
4.7384099071
 20
3.5760036246
 30
0.0
 10
4.7268598629
 20
3.5754475724
 30
0.0
 10
4.7161284125
 20
3.5748918046
 30
0.0
 10
4.7062412539
 20
3.5743364943
 30
0.0
 10
4.6972223043
 20
3.5737817333
 30
0.0
 10
4.6890932796
 20
3.5732276322
 30
0.0
 10
4.6818735683
 20
3.5726745073
 30
0.0
 10
4.6764348198
 20
3.5721981151
 30
0.0
 10
4.6725522403
 20
3.5718120955
 30
0.0
 10
4.6699943416
 20
3.5715342805
 30
0.0
 10
4.6676752281
 20
3.57125674
 30
0.0
 10
4.6655961198
 20
3.5709795467
 30
0.0
 10
4.6637582228
 20
3.5707028167
 30
0.0
 10
4.6621626084
 20
3.5704268206
 30
0.0
 10
4.6608102892
 20
3.5701516651
 30
0.0
 10
4.6598381307
 20
3.5699121323
 30
0.0
 10
4.6591847333
 20
3.5697161485
 30
0.0
 10
4.6587840468
 20
3.5695777489
 30
0.0
 10
4.6584442666
 20
3.569439607
 30
0.0
 10
4.6581651245
 20
3.56930168
 30
0.0
 10
4.6579459813
 20
3.5691637899
 30
0.0
 10
4.6577860116
 20
3.5690249262
 30
0.0
 10
4.6576842179
 20
3.5688823029
 30
0.0
 10
4.6576588613
 20
3.5687782604
 30
0.0
 10
4.6576588058
 20
3.5687306251
 30
0.0
  0
LINE
  5
265
100
AcDbEntity
  8
0
100
AcDbLine
 62
7
  6
CONTINUOUS
 10
5.1904261506
 20
3.5275824014
 11
5.1557272136
 21
3.5265831242
  0
SPLINE
  5
266
100
AcDbEntity
  8
0
100
AcDbSpline
 62
7
  6
CONTINUOUS
 70
0
 71
3
 72
37
 73
33
 74
0
 42
0.0000001
 43
0.0000001
 44
0.0000000001
 40
0.0
 40
0.0
 40
0.0
 40
0.0
 40
0.1061552048
 40
0.2090311013
 40
0.3078835073
 40
0.4021055139
 40
0.4911328258
 40
0.5744180836
 40
0.6514295422
 40
0.7216955508
 40
0.7847755372
 40
0.8402869006
 40
0.8878807413
 40
0.908618449
 40
0.9272751654
 40
0.9438206734
 40
0.9582316873
 40
0.9646320481
 40
0.9704933915
 40
0.975814319
 40
0.980593758
 40
0.9848311304
 40
0.9885267575
 40
0.9916833218
 40
0.9943064501
 40
0.9964065259
 40
0.9972668581
 40
0.9980062248
 40
0.9986320933
 40
0.9991568564
 40
0.9996015103
 40
1.0
 40
1.0
 40
1.0
 40
1.0
 10
5.1904261506
 20
3.5275824014
 30
0.0
 10
5.2005435456
 20
3.5278774552
 30
0.0
 10
5.2204655851
 20
3.5284656117
 30
0.0
 10
5.2498080716
 20
3.5293598905
 30
0.0
 10
5.2780122077
 20
3.5302540568
 30
0.0
 10
5.3048952337
 20
3.5311476896
 30
0.0
 10
5.3302931148
 20
3.5320409084
 30
0.0
 10
5.3540489541
 20
3.5329334062
 30
0.0
 10
5.3760146175
 20
3.5338251965
 30
0.0
 10
5.396052081
 20
3.5347157002
 30
0.0
 10
5.4140374217
 20
3.5356046103
 30
0.0
 10
5.4298581654
 20
3.5364911738
 30
0.0
 10
5.441641731
 20
3.5372577263
 30
0.0
 10
5.4499124518
 20
3.5378818677
 30
0.0
 10
5.4552276457
 20
3.5383275594
 30
0.0
 10
5.4599372992
 20
3.5387724986
 30
0.0
 10
5.4634786888
 20
3.5391559445
 30
0.0
 10
5.4660028911
 20
3.5394665105
 30
0.0
 10
5.4676644449
 20
3.5396899681
 30
0.0
 10
5.4691699586
 20
3.539913211
 30
0.0
 10
5.4705188031
 20
3.5401361944
 30
0.0
 10
5.4717104114
 20
3.5403588072
 30
0.0
 10
5.4727443277
 20
3.5405809696
 30
0.0
 10
5.4736205499
 20
3.5408023941
 30
0.0
 10
5.4743390714
 20
3.5410229648
 30
0.0
 10
5.4748362377
 20
3.5412162001
 30
0.0
 10
5.4751513625
 20
3.5413754174
 30
0.0
 10
5.4753323751
 20
3.541486789
 30
0.0
 10
5.4754745485
 20
3.5415983782
 30
0.0
 10
5.4755781741
 20
3.5417109916
 30
0.0
 10
5.4756428893
 20
3.5418260448
 30
0.0
 10
5.4756582694
 20
3.5419069053
 30
0.0
 10
5.4756583149
 20
3.5419449005
 30
0.0
  0
SPLINE
  5
267
100
AcDbEntity
  8
0
100
AcDbSpline
 62
7
  6
CONTINUOUS
 70
0
 71
3
 72
35
 73
31
 74
0
 42
0.0000001
 43
0.0000001
 44
0.0000000001
 40
0.0
 40
0.0
 40
0.0
 40
0.0
 40
0.0007226348
 40
0.0015731692
 40
0.0036702771
 40
0.0063077797
 40
0.0094927967
 40
0.013228306
 40
0.0175142845
 40
0.0223496168
 40
0.0277326313
 40
0.0401332642
 40
0.0546966067
 40
0.0713907833
 40
0.0901780553
 40
0.1110198596
 40
0.1338705745
 40
0.1586763219
 40
0.1853825829
 40
0.213931764
 40
0.2442569727
 40
0.309959582
 40
0.3819001388
 40
0.4594284037
 40
0.5418439568
 40
0.6284050896
 40
0.7183180991
 40
0.810781035
 40
0.9049865142
 40
1.0
 40
1.0
 40
1.0
 40
1.0
 10
5.4751847268
 20
3.6753287295
 30
0.0
 10
5.4750994044
 20
3.6752794219
 30
0.0
 10
5.4749075901
 20
3.6751825653
 30
0.0
 10
5.4744451813
 20
3.6749903253
 30
0.0
 10
5.4737187587
 20
3.6747577245
 30
0.0
 10
5.4726716314
 20
3.6744922146
 30
0.0
 10
5.4713954385
 20
3.6742255738
 30
0.0
 10
5.469890687
 20
3.6739579436
 30
0.0
 10
5.4681579343
 20
3.673689694
 30
0.0
 10
5.4661982554
 20
3.6734209519
 30
0.0
 10
5.4631367386
 20
3.6730441941
 30
0.0
 10
5.4587496634
 20
3.6725812239
 30
0.0
 10
5.4528199583
 20
3.672046462
 30
0.0
 10
5.4460163535
 20
3.6715103906
 30
0.0
 10
5.4383543276
 20
3.6709732037
 30
0.0
 10
5.429850939
 20
3.6704353797
 30
0.0
 10
5.4205253632
 20
3.6698970775
 30
0.0
 10
5.4103988627
 20
3.6693583262
 30
0.0
 10
5.3994942677
 20
3.668819268
 30
0.0
 10
5.3878361415
 20
3.6682800199
 30
0.0
 10
5.3708637348
 20
3.6675408221
 30
0.0
 10
5.3479762544
 20
3.6666248532
 30
0.0
 10
5.3186530803
 20
3.6655513447
 30
0.0
 10
5.2870494029
 20
3.6644767661
 30
0.0
 10
5.2534508846
 20
3.6634012922
 30
0.0
 10
5.2181626655
 20
3.6623253027
 30
0.0
 10
5.181503697
 20
3.6612488466
 30
0.0
 10
5.1438018506
 20
3.6601720262
 30
0.0
 10
5.1054041825
 20
3.6590950822
 30
0.0
 10
5.0796104846
 20
3.6583781318
 30
0.0
 10
5.0666585634
 20
3.6580181242
 30
0.0
  0
SPLINE
  5
268
100
AcDbEntity
  8
0
100
AcDbSpline
 62
7
  6
CONTINUOUS
 70
0
 71
3
 72
40
 73
36
 74
0
 42
0.0000001
 43
0.0000001
 44
0.0000000001
 40
0.0
 40
0.0
 40
0.0
 40
0.0
 40
0.0003486112
 40
0.000757038
 40
0.0012642405
 40
0.0018909181
 40
0.0026479475
 40
0.0035413846
 40
0.0045748272
 40
0.0057505333
 40
0.0085339304
 40
0.0118989443
 40
0.015848814
 40
0.0203838182
 40
0.02550234
 40
0.0312021727
 40
0.0374807573
 40
0.0443353038
 40
0.0597596672
 40
0.0774405343
 40
0.0973347344
 40
0.1193981397
 40
0.143579411
 40
0.1698180788
 40
0.1980528927
 40
0.2282182567
 40
0.2940388309
 40
0.3666517401
 40
0.4453554483
 40
0.5293959843
 40
0.6179673744
 40
0.710208167
 40
0.8052369295
 40
0.9021713268
 40
1.0
 40
1.0
 40
1.0
 40
1.0
 10
5.4756585634
 20
3.6133749014
 30
0.0
 10
5.4756585634
 20
3.613327274
 30
0.0
 10
5.4756332802
 20
3.6132232114
 30
0.0
 10
5.4755314787
 20
3.6130805831
 30
0.0
 10
5.4753714528
 20
3.6129417274
 30
0.0
 10
5.4751522115
 20
3.612803844
 30
0.0
 10
5.4748729458
 20
3.6126659215
 30
0.0
 10
5.4745330344
 20
3.6125277824
 30
0.0
 10
5.4741322291
 20
3.6123893847
 30
0.0
 10
5.4734787528
 20
3.6121934152
 30
0.0
 10
5.472506669
 20
3.6119538965
 30
0.0
 10
5.4711545568
 20
3.6116786907
 30
0.0
 10
5.46955913
 20
3.6114026832
 30
0.0
 10
5.4677212401
 20
3.6111259703
 30
0.0
 10
5.4656419735
 20
3.6108487864
 30
0.0
 10
5.4633226755
 20
3.6105712535
 30
0.0
 10
5.4607647094
 20
3.6102934455
 30
0.0
 10
5.456882278
 20
3.6099074115
 30
0.0
 10
5.4514436107
 20
3.6094309818
 30
0.0
 10
5.4442238725
 20
3.6088779062
 30
0.0
 10
5.4360948303
 20
3.6083238146
 30
0.0
 10
5.4270759151
 20
3.6077690076
 30
0.0
 10
5.4171887615
 20
3.6072137225
 30
0.0
 10
5.4064572788
 20
3.6066579705
 30
0.0
 10
5.3949072517
 20
3.6061018892
 30
0.0
 10
5.377953364
 20
3.6053377999
 30
0.0
 10
5.3549386795
 20
3.60439195
 30
0.0
 10
5.3252939281
 20
3.6032854791
 30
0.0
 10
5.2931584206
 20
3.6021776221
 30
0.0
 10
5.2588414952
 20
3.601068759
 30
0.0
 10
5.2226742414
 20
3.5999592262
 30
0.0
 10
5.1850051158
 20
3.5988491682
 30
0.0
 10
5.1461929674
 20
3.5977387003
 30
0.0
 10
5.1066171012
 20
3.5966280719
 30
0.0
 10
5.0800187856
 20
3.595888758
 30
0.0
 10
5.0666585634
 20
3.5955174014
 30
0.0
  0
SPLINE
  5
269
100
AcDbEntity
  8
0
100
AcDbSpline
 62
7
  6
CONTINUOUS
 70
0
 71
3
 72
66
 73
62
 74
0
 42
0.0000001
 43
0.0000001
 44
0.0000000001
 40
0.0
 40
0.0
 40
0.0
 40
0.0
 40
0.0001884299
 40
0.0004029947
 40
0.0006620592
 40
0.0009762858
 40
0.0013516698
 40
0.0017917178
 40
0.0022985853
 40
0.0028735856
 40
0.0042308706
 40
0.0058675702
 40
0.0077852793
 40
0.009984551
 40
0.0124653698
 40
0.0152273847
 40
0.0182698173
 40
0.0215910041
 40
0.0290618378
 40
0.0376238688
 40
0.047260094
 40
0.0579486176
 40
0.0696637126
 40
0.0823793992
 40
0.1106952049
 40
0.1426320381
 40
0.1778956969
 40
0.2161586534
 40
0.2570649508
 40
0.3002359079
 40
0.3452687245
 40
0.3917460835
 40
0.4392349342
 40
0.487294237
 40
0.5354767537
 40
0.583334784
 40
0.6304228302
 40
0.6763035471
 40
0.7205501271
 40
0.7627510012
 40
0.8025150421
 40
0.8394710512
 40
0.8732782857
 40
0.9036210909
 40
0.9174054653
 40
0.9302203471
 40
0.9420375665
 40
0.9528307791
 40
0.9625739237
 40
0.9712450164
 40
0.9788266939
 40
0.9853023957
 40
0.9881208769
 40
0.9906583856
 40
0.992914471
 40
0.9948889863
 40
0.9965822938
 40
0.997995672
 40
0.9991322206
 40
0.9995989216
 40
1.0
 40
1.0
 40
1.0
 40
1.0
 10
4.6963192824
 20
3.6178402624
 30
0.0
 10
4.6963192672
 20
3.6178868496
 30
0.0
 10
4.6963404545
 20
3.6179871317
 30
0.0
 10
4.6964284592
 20
3.6181277361
 30
0.0
 10
4.6965683734
 20
3.6182649253
 30
0.0
 10
4.696760248
 20
3.6184009522
 30
0.0
 10
4.6970047086
 20
3.6185368187
 30
0.0
 10
4.6973022852
 20
3.6186727842
 30
0.0
 10
4.6976532429
 20
3.6188089264
 30
0.0
 10
4.6982249043
 20
3.6190014455
 30
0.0
 10
4.699075894
 20
3.6192369189
 30
0.0
 10
4.7002599444
 20
3.6195075517
 30
0.0
 10
4.701656551
 20
3.6197789843
 30
0.0
 10
4.7032650432
 20
3.6200510938
 30
0.0
 10
4.7050848121
 20
3.6203236405
 30
0.0
 10
4.7071150577
 20
3.6205965069
 30
0.0
 10
4.7093547267
 20
3.6208696012
 30
0.0
 10
4.7127540759
 20
3.6212490378
 30
0.0
 10
4.7175163637
 20
3.6217174445
 30
0.0
 10
4.7238395162
 20
3.6222613046
 30
0.0
 10
4.7309607357
 20
3.6228059805
 30
0.0
 10
4.7388634861
 20
3.6233513708
 30
0.0
 10
4.7475291985
 20
3.6238973774
 30
0.0
 10
4.7605483172
 20
3.6246532577
 30
0.0
 10
4.7785649609
 20
3.6255858805
 30
0.0
 10
4.8021553887
 20
3.626671891
 30
0.0
 10
4.8282074058
 20
3.6277596583
 30
0.0
 10
4.8564787195
 20
3.6288488716
 30
0.0
 10
4.8867063322
 20
3.6299390888
 30
0.0
 10
4.9186087161
 20
3.6310299591
 30
0.0
 10
4.9518892298
 20
3.6321213897
 30
0.0
 10
4.9862378366
 20
3.6332131263
 30
0.0
 10
5.0213350676
 20
3.6343051204
 30
0.0
 10
5.0568540768
 20
3.6353972174
 30
0.0
 10
5.0924644031
 20
3.6364893549
 30
0.0
 10
5.1278344866
 20
3.6375814083
 30
0.0
 10
5.1626352069
 20
3.6386733107
 30
0.0
 10
5.1965425981
 20
3.6397649221
 30
0.0
 10
5.2292410605
 20
3.6408561136
 30
0.0
 10
5.2604263877
 20
3.641946748
 30
0.0
 10
5.2898080759
 20
3.643036505
 30
0.0
 10
5.3171130593
 20
3.6441251833
 30
0.0
 10
5.3420868107
 20
3.6452122293
 30
0.0
 10
5.3613328246
 20
3.6461435192
 30
0.0
 10
5.3753909777
 20
3.6468967148
 30
0.0
 10
5.3848733193
 20
3.6474431489
 30
0.0
 10
5.3936148342
 20
3.6479891685
 30
0.0
 10
5.4015953317
 20
3.648534612
 30
0.0
 10
5.4087960413
 20
3.6490794122
 30
0.0
 10
5.415200313
 20
3.6496232748
 30
0.0
 10
5.4207935647
 20
3.650165828
 30
0.0
 10
5.4249397732
 20
3.6506351026
 30
0.0
 10
5.427840083
 20
3.6510169137
 30
0.0
 10
5.4297023088
 20
3.6512895586
 30
0.0
 10
5.4313534833
 20
3.6515617482
 30
0.0
 10
5.4327928458
 20
3.6518333756
 30
0.0
 10
5.4340199299
 20
3.6521040739
 30
0.0
 10
5.4350340773
 20
3.652373702
 30
0.0
 10
5.4357427138
 20
3.6526095827
 30
0.0
 10
5.4361988381
 20
3.6528039096
 30
0.0
 10
5.4363901345
 20
3.6529017225
 30
0.0
 10
5.4364759666
 20
3.6529513811
 30
0.0
  0
SPLINE
  5
26A
100
AcDbEntity
  8
0
100
AcDbSpline
 62
7
  6
CONTINUOUS
 70
0
 71
3
 72
40
 73
36
 74
0
 42
0.0000001
 43
0.0000001
 44
0.0000000001
 40
0.0
 40
0.0
 40
0.0
 40
0.0
 40
0.0978271896
 40
0.1947632538
 40
0.2897925405
 40
0.382032627
 40
0.470604287
 40
0.5546447584
 40
0.6333487193
 40
0.7059614821
 40
0.7717819555
 40
0.8019472883
 40
0.8301827892
 40
0.8564209488
 40
0.8806018766
 40
0.9026662336
 40
0.9225600678
 40
0.9402402641
 40
0.9556655707
 40
0.9625204018
 40
0.9687987185
 40
0.974498045
 40
0.9796161351
 40
0.9841510936
 40
0.9881015871
 40
0.991467278
 40
0.994250625
 40
0.9954261249
 40
0.9964593015
 40
0.9973524584
 40
0.9981092383
 40
0.9987357392
 40
0.99924287
 40
0.9996513312
 40
1.0
 40
1.0
 40
1.0
 40
1.0
 10
5.0666585634
 20
3.6669474014
 30
0.0
 10
5.0800185748
 20
3.6673187522
 30
0.0
 10
5.1066168992
 20
3.6680580666
 30
0.0
 10
5.1461928378
 20
3.6691686966
 30
0.0
 10
5.1850051654
 20
3.6702791692
 30
0.0
 10
5.2226742799
 20
3.6713892297
 30
0.0
 10
5.2588414434
 20
3.6724987535
 30
0.0
 10
5.29315841
 20
3.6736076275
 30
0.0
 10
5.3252939039
 20
3.6747154739
 30
0.0
 10
5.3549386376
 20
3.6758219516
 30
0.0
 10
5.3779532702
 20
3.6767677958
 30
0.0
 10
5.3949072228
 20
3.6775318995
 30
0.0
 10
5.4064572642
 20
3.6780879549
 30
0.0
 10
5.4171887171
 20
3.6786437216
 30
0.0
 10
5.427075877
 20
3.6791990288
 30
0.0
 10
5.4360948224
 20
3.6797537939
 30
0.0
 10
5.4442238475
 20
3.6803078952
 30
0.0
 10
5.4514435649
 20
3.6808610158
 30
0.0
 10
5.4568823083
 20
3.6813374082
 30
0.0
 10
5.4607648702
 20
3.681723432
 30
0.0
 10
5.4633227668
 20
3.6820012462
 30
0.0
 10
5.4656418967
 20
3.6822787861
 30
0.0
 10
5.4677210253
 20
3.6825559783
 30
0.0
 10
5.4695589317
 20
3.6828327074
 30
0.0
 10
5.4711545332
 20
3.6831087008
 30
0.0
 10
5.4725068279
 20
3.6833838632
 30
0.0
 10
5.4734789683
 20
3.683623396
 30
0.0
 10
5.4741323661
 20
3.6838193781
 30
0.0
 10
5.474533062
 20
3.6839577776
 30
0.0
 10
5.474872855
 20
3.6840959192
 30
0.0
 10
5.4751520111
 20
3.6842338459
 30
0.0
 10
5.4753711676
 20
3.6843717354
 30
0.0
 10
5.4755311481
 20
3.6845105982
 30
0.0
 10
5.4756329494
 20
3.6846532209
 30
0.0
 10
5.4756583064
 20
3.6847572654
 30
0.0
 10
5.4756583599
 20
3.6848049006
 30
0.0
  0
SPLINE
  5
26B
100
AcDbEntity
  8
0
100
AcDbSpline
 62
7
  6
CONTINUOUS
 70
0
 71
3
 72
31
 73
27
 74
0
 42
0.0000001
 43
0.0000001
 44
0.0000000001
 40
0.0
 40
0.0
 40
0.0
 40
0.0
 40
0.225420781
 40
0.4246362554
 40
0.5138394194
 40
0.595887317
 40
0.6706348137
 40
0.7379404724
 40
0.7976877072
 40
0.8497743805
 40
0.8729144451
 40
0.8941032795
 40
0.913332283
 40
0.9305982935
 40
0.9459001113
 40
0.9592388462
 40
0.9706195203
 40
0.9800543243
 40
0.9840502393
 40
0.987571985
 40
0.9906286567
 40
0.9932351044
 40
0.9954155637
 40
0.9972115369
 40
0.9986970334
 40
1.0
 40
1.0
 40
1.0
 40
1.0
 10
4.75464133
 20
3.7195831242
 30
0.0
 10
4.7473079964
 20
3.7192678546
 30
0.0
 10
4.7334950415
 20
3.718645268
 30
0.0
 10
4.7167849522
 20
3.7177952668
 30
0.0
 10
4.7047415523
 20
3.7171061673
 30
0.0
 10
4.6967467993
 20
3.7166089997
 30
0.0
 10
4.6894665301
 20
3.7161124
 30
0.0
 10
4.6829142115
 20
3.7156163984
 30
0.0
 10
4.6771020672
 20
3.7151211873
 30
0.0
 10
4.6727276437
 20
3.7146945908
 30
0.0
 10
4.6696072138
 20
3.7143490089
 30
0.0
 10
4.6675526056
 20
3.7141003308
 30
0.0
 10
4.6656907656
 20
3.7138518656
 30
0.0
 10
4.6640224435
 20
3.7136037001
 30
0.0
 10
4.6625482145
 20
3.7133559335
 30
0.0
 10
4.6612685114
 20
3.713108785
 30
0.0
 10
4.6601838238
 20
3.7128623655
 30
0.0
 10
4.6594043503
 20
3.7126479489
 30
0.0
 10
4.658880777
 20
3.7124726388
 30
0.0
 10
4.658559387
 20
3.7123486808
 30
0.0
 10
4.658286891
 20
3.7122248881
 30
0.0
 10
4.6580630457
 20
3.7121011893
 30
0.0
 10
4.6578873613
 20
3.7119773518
 30
0.0
 10
4.6577592552
 20
3.7118524621
 30
0.0
 10
4.6576786474
 20
3.711724442
 30
0.0
 10
4.6576592299
 20
3.7116330511
 30
0.0
 10
4.6576592514
 20
3.7115906241
 30
0.0
  0
SPLINE
  5
26C
100
AcDbEntity
  8
0
100
AcDbSpline
 62
7
  6
CONTINUOUS
 70
0
 71
3
 72
37
 73
33
 74
0
 42
0.0000001
 43
0.0000001
 44
0.0000000001
 40
0.0
 40
0.0
 40
0.0
 40
0.0
 40
0.0961927568
 40
0.19142531
 40
0.2847747813
 40
0.37543902
 40
0.4626167222
 40
0.5455133933
 40
0.6233822335
 40
0.6955158611
 40
0.761252571
 40
0.791531965
 40
0.8199901692
 40
0.8465593689
 40
0.8711804255
 40
0.8937955777
 40
0.9143488589
 40
0.9327942675
 40
0.9490895031
 40
0.9631931844
 40
0.9694127804
 40
0.9750733758
 40
0.9801720014
 40
0.9847058248
 40
0.9886722311
 40
0.9920690794
 40
0.9948961195
 40
0.9971551924
 40
0.9980732191
 40
0.9988516441
 40
0.9994925828
 40
1.0
 40
1.0
 40
1.0
 40
1.0
 10
5.0666585634
 20
3.7258372836
 30
0.0
 10
5.0792116431
 20
3.7260619261
 30
0.0
 10
5.1041924835
 20
3.7265097105
 30
0.0
 10
5.1413552047
 20
3.7271839822
 30
0.0
 10
5.1777962035
 20
3.7278592885
 30
0.0
 10
5.2131856807
 20
3.728535484
 30
0.0
 10
5.2472105839
 20
3.7292125084
 30
0.0
 10
5.2795650688
 20
3.7298903181
 30
0.0
 10
5.3099555337
 20
3.7305686881
 30
0.0
 10
5.3381056704
 20
3.7312474723
 30
0.0
 10
5.3600449471
 20
3.7318279305
 30
0.0
 10
5.3762845788
 20
3.7322971356
 30
0.0
 10
5.3874135752
 20
3.7326394793
 30
0.0
 10
5.3978036676
 20
3.7329819806
 30
0.0
 10
5.4074306778
 20
3.7333245513
 30
0.0
 10
5.4162719542
 20
3.7336671074
 30
0.0
 10
5.4243065253
 20
3.7340096494
 30
0.0
 10
5.4315154102
 20
3.7343519528
 30
0.0
 10
5.4378814482
 20
3.7346938391
 30
0.0
 10
5.4426518616
 20
3.734989096
 30
0.0
 10
5.4460348168
 20
3.7352288419
 30
0.0
 10
5.4482442228
 20
3.7354009483
 30
0.0
 10
5.45023288
 20
3.7355729146
 30
0.0
 10
5.4519995197
 20
3.7357446683
 30
0.0
 10
5.4535428896
 20
3.7359161071
 30
0.0
 10
5.4548620293
 20
3.7360869732
 30
0.0
 10
5.4559561703
 20
3.736257178
 30
0.0
 10
5.4567259683
 20
3.7364060376
 30
0.0
 10
5.4572274596
 20
3.7365291239
 30
0.0
 10
5.4575204594
 20
3.7366146879
 30
0.0
 10
5.4577572219
 20
3.7366998558
 30
0.0
 10
5.4578934878
 20
3.7367634352
 30
0.0
 10
5.4579508379
 20
3.7367965583
 30
0.0
  0
SPLINE
  5
26D
100
AcDbEntity
  8
0
100
AcDbSpline
 62
7
  6
CONTINUOUS
 70
0
 71
3
 72
34
 73
30
 74
0
 42
0.0000001
 43
0.0000001
 44
0.0000000001
 40
0.0
 40
0.0
 40
0.0
 40
0.0
 40
0.0950147663
 40
0.1892189079
 40
0.2816812968
 40
0.371594874
 40
0.4581559515
 40
0.5405714363
 40
0.6180994316
 40
0.6900403959
 40
0.7557426837
 40
0.8146169598
 40
0.8413230591
 40
0.8661293497
 40
0.8889799993
 40
0.9098211243
 40
0.9286089558
 40
0.9453034911
 40
0.9598658749
 40
0.9722668173
 40
0.9776502635
 40
0.9824858877
 40
0.9867717763
 40
0.990506642
 40
0.9936912273
 40
0.9963288664
 40
0.9984263999
 40
0.9992771664
 40
1.0
 40
1.0
 40
1.0
 40
1.0
 10
5.0666585634
 20
3.6669474014
 30
0.0
 10
5.0537064627
 20
3.6665873888
 30
0.0
 10
5.0279127629
 20
3.6658704387
 30
0.0
 10
4.9895151628
 20
3.6647934961
 30
0.0
 10
4.9518134818
 20
3.6637166805
 30
0.0
 10
4.9151545042
 20
3.6626402257
 30
0.0
 10
4.8798662117
 20
3.6615642288
 30
0.0
 10
4.8462677332
 20
3.660488771
 30
0.0
 10
4.8146640382
 20
3.6594141521
 30
0.0
 10
4.7853408666
 20
3.6583407524
 30
0.0
 10
4.7585632858
 20
3.6572687835
 30
0.0
 10
4.7379533034
 20
3.6563503422
 30
0.0
 10
4.72291827
 20
3.6556072068
 30
0.0
 10
4.7127917224
 20
3.6550684512
 30
0.0
 10
4.70346617
 20
3.654530159
 30
0.0
 10
4.6949628057
 20
3.6539923019
 30
0.0
 10
4.6873007431
 20
3.6534551339
 30
0.0
 10
4.6804971383
 20
3.6529190968
 30
0.0
 10
4.6745674762
 20
3.6523842736
 30
0.0
 10
4.6701804281
 20
3.651921318
 30
0.0
 10
4.6671187661
 20
3.6515445768
 30
0.0
 10
4.6651589984
 20
3.6512758411
 30
0.0
 10
4.6634263033
 20
3.6510076064
 30
0.0
 10
4.6619217171
 20
3.6507399488
 30
0.0
 10
4.6606456598
 20
3.650473285
 30
0.0
 10
4.659598513
 20
3.650207781
 30
0.0
 10
4.6588719739
 20
3.6499751922
 30
0.0
 10
4.6584094353
 20
3.6497829603
 30
0.0
 10
4.6582175546
 20
3.649686105
 30
0.0
 10
4.6581322013
 20
3.6496367965
 30
0.0
  0
SPLINE
  5
26E
100
AcDbEntity
  8
0
100
AcDbSpline
 62
7
  6
CONTINUOUS
 70
0
 71
3
 72
23
 73
19
 74
0
 42
0.0000001
 43
0.0000001
 44
0.0000000001
 40
0.0
 40
0.0
 40
0.0
 40
0.0
 40
0.0065116866
 40
0.0145632039
 40
0.0242010587
 40
0.0354494282
 40
0.048320596
 40
0.0628210817
 40
0.0967190212
 40
0.1371477421
 40
0.1840926905
 40
0.2375277279
 40
0.297404654
 40
0.3636662809
 40
0.4362535303
 40
0.6001538765
 40
0.7883891622
 40
1.0
 40
1.0
 40
1.0
 40
1.0
 10
5.4751851288
 20
3.5324687316
 30
0.0
 10
5.4750655227
 20
3.5323995549
 30
0.0
 10
5.4747860987
 20
3.5322656623
 30
0.0
 10
5.4743052535
 20
3.5320846002
 30
0.0
 10
5.4737184083
 20
3.5319029122
 30
0.0
 10
5.4730255159
 20
3.5317207501
 30
0.0
 10
5.4722265181
 20
3.5315381978
 30
0.0
 10
5.4709520659
 20
3.531280863
 30
0.0
 10
5.4690934082
 20
3.5309655496
 30
0.0
 10
5.4665457654
 20
3.5306022937
 30
0.0
 10
5.463580103
 20
3.5302380459
 30
0.0
 10
5.4601991988
 20
3.5298730352
 30
0.0
 10
5.4564063668
 20
3.5295074854
 30
0.0
 10
5.452205507
 20
3.5291414712
 30
0.0
 10
5.4458017009
 20
3.5286321299
 30
0.0
 10
5.4368112862
 20
3.5280042181
 30
0.0
 10
5.4248713572
 20
3.5272757671
 30
0.0
 10
5.4163995213
 20
3.5268156122
 30
0.0
 10
5.4119154117
 20
3.5265831242
 30
0.0
  0
SPLINE
  5
26F
100
AcDbEntity
  8
0
100
AcDbSpline
 62
7
  6
CONTINUOUS
 70
0
 71
3
 72
40
 73
36
 74
0
 42
0.0000001
 43
0.0000001
 44
0.0000000001
 40
0.0
 40
0.0
 40
0.0
 40
0.0
 40
0.0003486112
 40
0.0007570379
 40
0.0012642404
 40
0.001890918
 40
0.0026479474
 40
0.0035413845
 40
0.0045748271
 40
0.0057505333
 40
0.0085339304
 40
0.0118989441
 40
0.0158488137
 40
0.0203838178
 40
0.0255023395
 40
0.0312021721
 40
0.0374807566
 40
0.044335303
 40
0.0597596663
 40
0.0774405334
 40
0.097334734
 40
0.1193981402
 40
0.1435794133
 40
0.1698180834
 40
0.1980528993
 40
0.2282182659
 40
0.2940388452
 40
0.366651759
 40
0.4453554698
 40
0.5293960074
 40
0.6179673971
 40
0.7102081884
 40
0.8052369438
 40
0.9021713304
 40
1.0
 40
1.0
 40
1.0
 40
1.0
 10
4.6576585634
 20
3.6401606242
 30
0.0
 10
4.6576585634
 20
3.6402082516
 30
0.0
 10
4.6576838465
 20
3.6403123142
 30
0.0
 10
4.657785648
 20
3.6404549425
 30
0.0
 10
4.6579456739
 20
3.6405937982
 30
0.0
 10
4.6581649152
 20
3.6407316816
 30
0.0
 10
4.6584441809
 20
3.6408696042
 30
0.0
 10
4.6587840922
 20
3.6410077432
 30
0.0
 10
4.6591848976
 20
3.6411461409
 30
0.0
 10
4.6598383739
 20
3.6413421104
 30
0.0
 10
4.6608104577
 20
3.6415816291
 30
0.0
 10
4.6621625698
 20
3.6418568348
 30
0.0
 10
4.6637579965
 20
3.6421328424
 30
0.0
 10
4.6655958864
 20
3.6424095553
 30
0.0
 10
4.6676751529
 20
3.6426867391
 30
0.0
 10
4.6699944509
 20
3.6429642721
 30
0.0
 10
4.672552417
 20
3.6432420801
 30
0.0
 10
4.6764348484
 20
3.6436281141
 30
0.0
 10
4.6818735156
 20
3.6441045438
 30
0.0
 10
4.6890932539
 20
3.6446576194
 30
0.0
 10
4.6972222964
 20
3.645211711
 30
0.0
 10
4.706241212
 20
3.645766518
 30
0.0
 10
4.7161283662
 20
3.6463218032
 30
0.0
 10
4.7268598498
 20
3.6468775552
 30
0.0
 10
4.7384098778
 20
3.6474336365
 30
0.0
 10
4.7553637668
 20
3.6481977259
 30
0.0
 10
4.778378453
 20
3.6491435759
 30
0.0
 10
4.8080232061
 20
3.6502500468
 30
0.0
 10
4.8401587147
 20
3.6513579039
 30
0.0
 10
4.8744756407
 20
3.6524667669
 30
0.0
 10
4.9106428945
 20
3.6535762997
 30
0.0
 10
4.9483120189
 20
3.6546863577
 30
0.0
 10
4.9871241647
 20
3.6557968255
 30
0.0
 10
5.026700028
 20
3.6569074537
 30
0.0
 10
5.0532983416
 20
3.6576467676
 30
0.0
 10
5.0666585634
 20
3.6580181242
 30
0.0
  0
SPLINE
  5
270
100
AcDbEntity
  8
0
100
AcDbSpline
 62
7
  6
CONTINUOUS
 70
0
 71
3
 72
30
 73
26
 74
0
 42
0.0000001
 43
0.0000001
 44
0.0000000001
 40
0.0
 40
0.0
 40
0.0
 40
0.0
 40
0.1887294046
 40
0.2796330233
 40
0.3673658223
 40
0.4513501191
 40
0.5310261247
 40
0.6058661236
 40
0.6753997012
 40
0.7391941492
 40
0.7968697297
 40
0.8233047644
 40
0.8480905452
 40
0.8711932347
 40
0.8925803135
 40
0.9122272094
 40
0.930114515
 40
0.9462244735
 40
0.9605425125
 40
0.9730650299
 40
0.9837987447
 40
0.9885004552
 40
0.9927633609
 40
0.9965934231
 40
1.0
 40
1.0
 40
1.0
 40
1.0
 10
4.9873157381
 20
3.7582431242
 30
0.0
 10
4.966730313
 20
3.756736453
 30
0.0
 10
4.9362305947
 20
3.7544912914
 30
0.0
 10
4.8961690634
 20
3.7514450986
 30
0.0
 10
4.867535033
 20
3.7492029209
 30
0.0
 10
4.8401317118
 20
3.7469743753
 30
0.0
 10
4.814142111
 20
3.7447596851
 30
0.0
 10
4.7897377495
 20
3.742558609
 30
0.0
 10
4.7670764158
 20
3.7403718233
 30
0.0
 10
4.7463002582
 20
3.738199088
 30
0.0
 10
4.7302299297
 20
3.7363517692
 30
0.0
 10
4.7184131962
 20
3.7348672831
 30
0.0
 10
4.7103563879
 20
3.733789869
 30
0.0
 10
4.7028564077
 20
3.7327159023
 30
0.0
 10
4.695924095
 20
3.7316452231
 30
0.0
 10
4.689568898
 20
3.730578043
 30
0.0
 10
4.6837989401
 20
3.7295146802
 30
0.0
 10
4.6786217626
 20
3.7284554205
 30
0.0
 10
4.6740437878
 20
3.7274004689
 30
0.0
 10
4.670070177
 20
3.7263501072
 30
0.0
 10
4.6671482293
 20
3.7254440744
 30
0.0
 10
4.6651223685
 20
3.7247101806
 30
0.0
 10
4.663824825
 20
3.7241852583
 30
0.0
 10
4.6626810108
 20
3.7236612924
 30
0.0
 10
4.6619806389
 20
3.7232912761
 30
0.0
 10
4.6616581359
 20
3.7231047437
 30
0.0
  0
SPLINE
  5
271
100
AcDbEntity
  8
0
100
AcDbSpline
 62
7
  6
CONTINUOUS
 70
0
 71
3
 72
40
 73
36
 74
0
 42
0.0000001
 43
0.0000001
 44
0.0000000001
 40
0.0
 40
0.0
 40
0.0
 40
0.0
 40
0.0003547911
 40
0.0007792648
 40
0.0013166474
 40
0.0019887211
 40
0.0028065763
 40
0.0037763093
 40
0.0049013847
 40
0.0061837434
 40
0.0092242699
 40
0.0129028608
 40
0.0172205992
 40
0.0221769111
 40
0.027770187
 40
0.0339965648
 40
0.0408506874
 40
0.0483269552
 40
0.0651227469
 40
0.0843325664
 40
0.1058885606
 40
0.1297188672
 40
0.1557444334
 40
0.1838730689
 40
0.2140106515
 40
0.2460542148
 40
0.3154086935
 40
0.3909858278
 40
0.4717480673
 40
0.5565832941
 40
0.6443273297
 40
0.7337731617
 40
0.8236823821
 40
0.9128520871
 40
1.0
 40
1.0
 40
1.0
 40
1.0
 10
4.6963192542
 20
3.5464102628
 30
0.0
 10
4.6963192542
 20
3.546467431
 30
0.0
 10
4.6963528185
 20
3.5465936807
 30
0.0
 10
4.6964850289
 20
3.5467636935
 30
0.0
 10
4.6966915386
 20
3.5469291578
 30
0.0
 10
4.6969746784
 20
3.5470936536
 30
0.0
 10
4.6973356095
 20
3.5472583709
 30
0.0
 10
4.6977752417
 20
3.5474234159
 30
0.0
 10
4.6982938448
 20
3.5475888109
 30
0.0
 10
4.6991399883
 20
3.5478231863
 30
0.0
 10
4.700397705
 20
3.548109477
 30
0.0
 10
4.7021456344
 20
3.5484384327
 30
0.0
 10
4.7042066757
 20
3.5487684383
 30
0.0
 10
4.7065794305
 20
3.549099328
 30
0.0
 10
4.709262273
 20
3.5494307208
 30
0.0
 10
4.7122529255
 20
3.5497625188
 30
0.0
 10
4.7155486289
 20
3.5500946613
 30
0.0
 10
4.7205428395
 20
3.5505559392
 30
0.0
 10
4.7275261753
 20
3.5511253442
 30
0.0
 10
4.7367776947
 20
3.5517864836
 30
0.0
 10
4.7471651769
 20
3.5524488653
 30
0.0
 10
4.7586528289
 20
3.5531121465
 30
0.0
 10
4.7712011159
 20
3.5537759669
 30
0.0
 10
4.7847669813
 20
3.5544403649
 30
0.0
 10
4.7993036
 20
3.5551051108
 30
0.0
 10
4.8204786263
 20
3.5560159848
 30
0.0
 10
4.8489727719
 20
3.5571431586
 30
0.0
 10
4.8853152656
 20
3.5584649262
 30
0.0
 10
4.9241536838
 20
3.559788132
 30
0.0
 10
4.9649536113
 20
3.5611124268
 30
0.0
 10
5.0071534284
 20
3.5624373701
 30
0.0
 10
5.0501712094
 20
3.5637626318
 30
0.0
 10
5.0934188137
 20
3.565088063
 30
0.0
 10
5.1362959807
 20
3.5664133232
 30
0.0
 10
5.1646922056
 20
3.5673107314
 30
0.0
 10
5.1787272388
 20
3.5677627628
 30
0.0
  0
SPLINE
  5
272
100
AcDbEntity
  8
0
100
AcDbSpline
 62
7
  6
CONTINUOUS
 70
0
 71
3
 72
30
 73
26
 74
0
 42
0.0000001
 43
0.0000001
 44
0.0000000001
 40
0.0
 40
0.0
 40
0.0
 40
0.0
 40
0.0018202237
 40
0.0041241101
 40
0.0069253353
 40
0.0102308163
 40
0.0140442154
 40
0.0183674534
 40
0.0285459863
 40
0.040761943
 40
0.0549981347
 40
0.0712345292
 40
0.0894496998
 40
0.1096164211
 40
0.1316995463
 40
0.1814702773
 40
0.2384465708
 40
0.3022472672
 40
0.3724604741
 40
0.4486187663
 40
0.5302264645
 40
0.6167316132
 40
0.7075678935
 40
0.802157365
 40
1.0
 40
1.0
 40
1.0
 40
1.0
 10
4.6968410458
 20
3.7434441463
 30
0.0
 10
4.6969939524
 20
3.7435325028
 30
0.0
 10
4.6973578815
 20
3.7437019445
 30
0.0
 10
4.6979906987
 20
3.7439287845
 30
0.0
 10
4.6987746702
 20
3.744156711
 30
0.0
 10
4.6997097419
 20
3.7443854206
 30
0.0
 10
4.7007960791
 20
3.7446147179
 30
0.0
 10
4.7025433452
 20
3.7449388679
 30
0.0
 10
4.7051055385
 20
3.7453352797
 30
0.0
 10
4.7086302739
 20
3.7457914196
 30
0.0
 10
4.7127467667
 20
3.7462490185
 30
0.0
 10
4.7174482507
 20
3.746707803
 30
0.0
 10
4.72272747
 20
3.747167264
 30
0.0
 10
4.7285758134
 20
3.7476272498
 30
0.0
 10
4.7374808102
 20
3.7482669481
 30
0.0
 10
4.749955312
 20
3.749055354
 30
0.0
 10
4.7664767294
 20
3.7499704822
 30
0.0
 10
4.7849840859
 20
3.7508875567
 30
0.0
 10
4.8053544755
 20
3.7518058723
 30
0.0
 10
4.8274540677
 20
3.7527252884
 30
0.0
 10
4.8511355554
 20
3.7536452769
 30
0.0
 10
4.8762420933
 20
3.7545658775
 30
0.0
 10
4.9026089184
 20
3.7554868427
 30
0.0
 10
4.9397729282
 20
3.7567339916
 30
0.0
 10
4.9681304027
 20
3.7576401862
 30
0.0
 10
4.9873157381
 20
3.7582431242
 30
0.0
  0
SPLINE
  5
273
100
AcDbEntity
  8
0
100
AcDbSpline
 62
7
  6
CONTINUOUS
 70
0
 71
3
 72
14
 73
10
 74
0
 42
0.0000001
 43
0.0000001
 44
0.0000000001
 40
0.0
 40
0.0
 40
0.0
 40
0.0
 40
0.0497655957
 40
0.1195011278
 40
0.2106082648
 40
0.3236858119
 40
0.4590321435
 40
0.6168115053
 40
1.0
 40
1.0
 40
1.0
 40
1.0
 10
5.4401123748
 20
3.4910372945
 30
0.0
 10
5.4400675806
 20
3.4909925931
 30
0.0
 10
5.4399379662
 20
3.4909088625
 30
0.0
 10
5.4396923505
 20
3.4908022188
 30
0.0
 10
5.4393605694
 20
3.4906942849
 30
0.0
 10
5.4389426186
 20
3.4905857019
 30
0.0
 10
5.4384376097
 20
3.4904765315
 30
0.0
 10
5.4375918504
 20
3.4903202002
 30
0.0
 10
5.4369111909
 20
3.4902190841
 30
0.0
 10
5.4364284085
 20
3.4901531052
 30
0.0
  0
SPLINE
  5
274
100
AcDbEntity
  8
0
100
AcDbSpline
 62
7
  6
CONTINUOUS
 70
0
 71
3
 72
14
 73
10
 74
0
 42
0.0000001
 43
0.0000001
 44
0.0000000001
 40
0.0
 40
0.0
 40
0.0
 40
0.0
 40
0.0692794361
 40
0.1547284351
 40
0.2562640163
 40
0.3737905211
 40
0.5071792806
 40
0.6561904279
 40
1.0
 40
1.0
 40
1.0
 40
1.0
 10
5.4364284085
 20
3.4901531052
 30
0.0
 10
5.4356608214
 20
3.4900482039
 30
0.0
 10
5.4339420399
 20
3.4898467847
 30
0.0
 10
5.4310893336
 20
3.4895733304
 30
0.0
 10
5.4276951296
 20
3.4892984126
 30
0.0
 10
5.4237634544
 20
3.4890223489
 30
0.0
 10
5.4192997848
 20
3.4887455315
 30
0.0
 10
5.4123079206
 20
3.4883567918
 30
0.0
 10
5.4068030756
 20
3.4880943926
 30
0.0
 10
5.4029622184
 20
3.4879231242
 30
0.0
  0
SPLINE
  5
275
100
AcDbEntity
  8
0
100
AcDbSpline
 62
7
  6
CONTINUOUS
 70
0
 71
3
 72
13
 73
9
 74
0
 42
0.0000001
 43
0.0000001
 44
0.0000000001
 40
0.0
 40
0.0
 40
0.0
 40
0.0
 40
0.0986512114
 40
0.2076015671
 40
0.3255574981
 40
0.4511851885
 40
0.7194998453
 40
1.0
 40
1.0
 40
1.0
 40
1.0
 10
4.75464133
 20
3.7195831242
 30
0.0
 10
4.7649000551
 20
3.7198570346
 30
0.0
 10
4.786489476
 20
3.7203974409
 30
0.0
 10
4.8203474653
 20
3.7211681327
 30
0.0
 10
4.8570123496
 20
3.721941302
 30
0.0
 10
4.9102530651
 20
3.7229983573
 30
0.0
 10
4.9804012293
 20
3.7242975765
 30
0.0
 10
5.0374836688
 20
3.725315187
 30
0.0
 10
5.0666585634
 20
3.7258372836
 30
0.0
  0
LINE
  5
276
100
AcDbEntity
  8
0
100
AcDbLine
 62
7
  6
CONTINUOUS
 10
4.6968409613
 20
3.672014146
 11
4.6981124143
 21
3.6725294836
  0
SPLINE
  5
277
100
AcDbEntity
  8
0
100
AcDbSpline
 62
7
  6
CONTINUOUS
 70
0
 71
3
 72
63
 73
59
 74
0
 42
0.0000001
 43
0.0000001
 44
0.0000000001
 40
0.0
 40
0.0
 40
0.0
 40
0.0
 40
0.0013596436
 40
0.0029910473
 40
0.0048958618
 40
0.0070747912
 40
0.0095280067
 40
0.0122549413
 40
0.0185242502
 40
0.0258702278
 40
0.034279081
 40
0.0437340319
 40
0.0542127953
 40
0.0656921966
 40
0.078148402
 40
0.1058744305
 40
0.1371422333
 40
0.1716697662
 40
0.2091478751
 40
0.2492366052
 40
0.2915762733
 40
0.3357834296
 40
0.3814598632
 40
0.4281930129
 40
0.4755609485
 40
0.5231361288
 40
0.5704889934
 40
0.6171919999
 40
0.6628234685
 40
0.7069718983
 40
0.7492379042
 40
0.7892416283
 40
0.8266202755
 40
0.8610389126
 40
0.8921860728
 40
0.919782342
 40
0.9321702379
 40
0.9435811832
 40
0.9539882423
 40
0.9633689189
 40
0.971704228
 40
0.9789756317
 40
0.9822071164
 40
0.9851673185
 40
0.9878552421
 40
0.9902700303
 40
0.992411038
 40
0.9942779587
 40
0.9958710656
 40
0.9971920659
 40
0.9977518877
 40
0.9982456764
 40
0.9986747943
 40
0.9990413468
 40
0.999348753
 40
0.9996028615
 40
0.9998140347
 40
1.0
 40
1.0
 40
1.0
 40
1.0
 10
4.6981124143
 20
3.6725294836
 30
0.0
 10
4.6984327001
 20
3.672629484
 30
0.0
 10
4.6991452419
 20
3.6728239308
 30
0.0
 10
4.7003238325
 20
3.673090714
 30
0.0
 10
4.7017088026
 20
3.6733583051
 30
0.0
 10
4.7032996597
 20
3.6736264942
 30
0.0
 10
4.7050958513
 20
3.6738951001
 30
0.0
 10
4.7078962777
 20
3.6742713349
 30
0.0
 10
4.7119029404
 20
3.6747338092
 30
0.0
 10
4.7173118661
 20
3.6752684204
 30
0.0
 10
4.7235101663
 20
3.6758042431
 30
0.0
 10
4.7304840198
 20
3.676340982
 30
0.0
 10
4.7382175765
 20
3.6768784535
 30
0.0
 10
4.7466933626
 20
3.6774165054
 30
0.0
 10
4.7594207376
 20
3.678161161
 30
0.0
 10
4.7770294281
 20
3.6790802686
 30
0.0
 10
4.800083962
 20
3.680150398
 30
0.0
 10
4.8255473723
 20
3.6812223852
 30
0.0
 10
4.8531893166
 20
3.6822956816
 30
0.0
 10
4.8827604539
 20
3.683370018
 30
0.0
 10
4.9139931972
 20
3.684444979
 30
0.0
 10
4.9466056364
 20
3.6855204866
 30
0.0
 10
4.9803028585
 20
3.6865963213
 30
0.0
 10
5.0147804787
 20
3.6876723961
 30
0.0
 10
5.0497268928
 20
3.6887486041
 30
0.0
 10
5.0848263111
 20
3.6898248522
 30
0.0
 10
5.119761562
 20
3.690901056
 30
0.0
 10
5.1542169173
 20
3.6919771211
 30
0.0
 10
5.1878810947
 20
3.693052962
 30
0.0
 10
5.2204497445
 20
3.6941284165
 30
0.0
 10
5.2516288058
 20
3.6952034209
 30
0.0
 10
5.2811362042
 20
3.6962776417
 30
0.0
 10
5.3087056956
 20
3.6973509935
 30
0.0
 10
5.33408785
 20
3.6984228399
 30
0.0
 10
5.3570536225
 20
3.6994929436
 30
0.0
 10
5.3745835552
 20
3.7004120909
 30
0.0
 10
5.3872450289
 20
3.7011570082
 30
0.0
 10
5.3956692744
 20
3.7016949306
 30
0.0
 10
5.4033497855
 20
3.7022323703
 30
0.0
 10
5.4102693124
 20
3.7027691319
 30
0.0
 10
5.4164125022
 20
3.7033049327
 30
0.0
 10
5.4210386416
 20
3.7037664397
 30
0.0
 10
5.4243400105
 20
3.7041403814
 30
0.0
 10
5.4265147865
 20
3.7044095017
 30
0.0
 10
5.428486372
 20
3.7046783628
 30
0.0
 10
5.4302537872
 20
3.7049468974
 30
0.0
 10
5.4318160674
 20
3.705214998
 30
0.0
 10
5.4331723882
 20
3.7054824246
 30
0.0
 10
5.4343219583
 20
3.7057490801
 30
0.0
 10
5.4351478455
 20
3.7059811567
 30
0.0
 10
5.4357024639
 20
3.7061708545
 30
0.0
 10
5.4360430595
 20
3.7063050245
 30
0.0
 10
5.4363319528
 20
3.7064390163
 30
0.0
 10
5.436569395
 20
3.7065729215
 30
0.0
 10
5.4367558616
 20
3.7067070017
 30
0.0
 10
5.4368919058
 20
3.7068422364
 30
0.0
 10
5.4369774763
 20
3.7069807657
 30
0.0
 10
5.4369981375
 20
3.707079369
 30
0.0
 10
5.4369981913
 20
3.7071252617
 30
0.0
  0
SPLINE
  5
278
100
AcDbEntity
  8
0
100
AcDbSpline
 62
7
  6
CONTINUOUS
 70
0
 71
3
 72
37
 73
33
 74
0
 42
0.0000001
 43
0.0000001
 44
0.0000000001
 40
0.0
 40
0.0
 40
0.0
 40
0.0
 40
0.0004792582
 40
0.0011029063
 40
0.0018751604
 40
0.0027980762
 40
0.0050995629
 40
0.0080115272
 40
0.0115347138
 40
0.0156684996
 40
0.0204101126
 40
0.0257555089
 40
0.0317004394
 40
0.0382405359
 40
0.0530880699
 40
0.0702528974
 40
0.0896788648
 40
0.1113085123
 40
0.1350750891
 40
0.1609031997
 40
0.1887164429
 40
0.2184295143
 40
0.2499503821
 40
0.3180356879
 40
0.3921519817
 40
0.4714150932
 40
0.5548844117
 40
0.6415765247
 40
0.730471681
 40
0.8205298545
 40
0.9107404249
 40
1.0
 40
1.0
 40
1.0
 40
1.0
 10
4.6706924685
 20
3.5140373698
 30
0.0
 10
4.6707596026
 20
3.5140761508
 30
0.0
 10
4.670922994
 20
3.5141496112
 30
0.0
 10
4.6712104681
 20
3.5142468456
 30
0.0
 10
4.6715728272
 20
3.5143446881
 30
0.0
 10
4.672203789
 20
3.5144862842
 30
0.0
 10
4.67318219
 20
3.5146568592
 30
0.0
 10
4.6745821352
 20
3.5148517061
 30
0.0
 10
4.6762807879
 20
3.5150474071
 30
0.0
 10
4.6782769402
 20
3.5152438357
 30
0.0
 10
4.6805690745
 20
3.515440632
 30
0.0
 10
4.683155117
 20
3.5156376954
 30
0.0
 10
4.6860328428
 20
3.5158349253
 30
0.0
 10
4.6904459424
 20
3.5161097828
 30
0.0
 10
4.696673539
 20
3.5164480895
 30
0.0
 10
4.7049856161
 20
3.5168397309
 30
0.0
 10
4.7143958938
 20
3.517231848
 30
0.0
 10
4.7248749567
 20
3.517624166
 30
0.0
 10
4.7363903571
 20
3.5180165093
 30
0.0
 10
4.7489066159
 20
3.518408848
 30
0.0
 10
4.7623852886
 20
3.5188010093
 30
0.0
 10
4.7767852544
 20
3.5191929865
 30
0.0
 10
4.7976985507
 20
3.5197292243
 30
0.0
 10
4.8257940943
 20
3.5203922371
 30
0.0
 10
4.8616123642
 20
3.5211686495
 30
0.0
 10
4.8999198847
 20
3.5219443671
 30
0.0
 10
4.9402622217
 20
3.5227192141
 30
0.0
 10
4.9821630426
 20
3.5234929947
 30
0.0
 10
5.0251299499
 20
3.5242655454
 30
0.0
 10
5.0686661558
 20
3.5250368258
 30
0.0
 10
5.1122613487
 20
3.5258066643
 30
0.0
 10
5.1412898964
 20
3.5263234781
 30
0.0
 10
5.1557272136
 20
3.5265831242
 30
0.0
  0
SPLINE
  5
279
100
AcDbEntity
  8
0
100
AcDbSpline
 62
7
  6
CONTINUOUS
 70
0
 71
3
 72
36
 73
32
 74
0
 42
0.0000001
 43
0.0000001
 44
0.0000000001
 40
0.0
 40
0.0
 40
0.0
 40
0.0
 40
0.0007395454
 40
0.0016208659
 40
0.0026477828
 40
0.0038225657
 40
0.0066205466
 40
0.0100211195
 40
0.014026289
 40
0.0186362515
 40
0.0238498521
 40
0.0296634868
 40
0.0430723519
 40
0.0588243801
 40
0.0768745704
 40
0.0971625748
 40
0.1196245374
 40
0.1441909429
 40
0.170779295
 40
0.1993049952
 40
0.2296774566
 40
0.2617954068
 40
0.3308514218
 40
0.4055769242
 40
0.4850039865
 40
0.5681006276
 40
0.6537895744
 40
0.7409560297
 40
0.8284623817
 40
0.9152064327
 40
1.0
 40
1.0
 40
1.0
 40
1.0
 10
4.6968409494
 20
3.5291541452
 30
0.0
 10
4.6969439277
 20
3.5292137012
 30
0.0
 10
4.6971776829
 20
3.529330281
 30
0.0
 10
4.6975725203
 20
3.5294905879
 30
0.0
 10
4.6980419147
 20
3.5296512616
 30
0.0
 10
4.6988133058
 20
3.5298793129
 30
0.0
 10
4.6999669106
 20
3.5301576019
 30
0.0
 10
4.7015770758
 20
3.5304770999
 30
0.0
 10
4.7034833264
 20
3.5307976599
 30
0.0
 10
4.7056845259
 20
3.531119101
 30
0.0
 10
4.7081792553
 20
3.5314410761
 30
0.0
 10
4.7120839873
 20
3.5318927131
 30
0.0
 10
4.7176827628
 20
3.5324473669
 30
0.0
 10
4.7252499857
 20
3.5330881854
 30
0.0
 10
4.7339270848
 20
3.5337304127
 30
0.0
 10
4.7436859897
 20
3.5343740582
 30
0.0
 10
4.7544950495
 20
3.5350185543
 30
0.0
 10
4.7663191522
 20
3.5356635876
 30
0.0
 10
4.7791199403
 20
3.5363091844
 30
0.0
 10
4.7928557455
 20
3.5369551369
 30
0.0
 10
4.8074819235
 20
3.5376013299
 30
0.0
 10
4.8286234361
 20
3.5384847849
 30
0.0
 10
4.8568967044
 20
3.5395790469
 30
0.0
 10
4.8927780127
 20
3.5408644866
 30
0.0
 10
4.9309191444
 20
3.5421510904
 30
0.0
 10
4.9708247231
 20
3.5434385878
 30
0.0
 10
5.0119758302
 20
3.5447266357
 30
0.0
 10
5.0538365936
 20
3.5460149328
 30
0.0
 10
5.0958671513
 20
3.5473033751
 30
0.0
 10
5.1375158423
 20
3.5485916523
 30
0.0
 10
5.1650948082
 20
3.5494636982
 30
0.0
 10
5.1787272388
 20
3.5499027628
 30
0.0
  0
ENDSEC
  0
SECTION
  2
OBJECTS
  0
DICTIONARY
  5
C
100
AcDbDictionary
280
0
281
1
  3
ACAD_GROUP
350
D
  3
ACAD_MLINESTYLE
350
17
  3
ACAD_LAYOUT
350
1A
  3
ACAD_PLOTSETTINGS
350
19
  3
ACAD_PLOTSTYLENAME
350
E
  0
DICTIONARY
  5
D
102
{ACAD_REACTORS
330
C
102
}
100
AcDbDictionary
280
0
281
1
  0
ACDBDICTIONARYWDFLT
  5
E
102
{ACAD_REACTORS
330
C
102
}
100
AcDbDictionary
281
1
  3
Normal
350
F
100
AcDbDictionaryWithDefault
340
F
  0
DICTIONARY
  5
17
102
{ACAD_REACTORS
330
C
102
}
100
AcDbDictionary
280
0
281
1
  3
Standard
350
18
  0
DICTIONARY
  5
19
102
{ACAD_REACTORS
330
C
102
}
100
AcDbDictionary
281
1
  0
DICTIONARY
  5
1A
102
{ACAD_REACTORS
330
C
102
}
100
AcDbDictionary
281
1
  3
Model
350
27A
  3
Layout1
350
27B
  0
ACDBPLACEHOLDER
  5
F
102
{ACAD_REACTORS
330
E
102
}
  0
MLINESTYLE
  5
18
102
{ACAD_REACTORS
330
17
102
}
100
AcDbMlineStyle
  2
STANDARD
 70
0
  3

 62
256
 51
90.0
 52
90.0
 71
2
 49
0.5
 62
256
  6
BYLAYER
 49
-0.5
 62
256
  6
BYLAYER
  0
LAYOUT
  5
27A
102
{ACAD_REACTORS
330
1A
102
}
100
AcDbPlotSettings
  1

  2
none_device
  4
ANSI_A_(11.00_x_8.50_Inches)
  6

 40
0.0
 41
0.0
 42
0.0
 43
0.0
 44
279.4
 45
215.9
 46
0.0
 47
0.0
 48
0.0
 49
0.0
140
0.0
141
0.0
142
1.0
143
1.0
 70
1024
 72
0
 73
0
 74
0
  7

 75
0
147
1.0
148
0.0
149
0.0
100
AcDbLayout
  1
Model
 70
0
 71
0
 10
0.0
 20
0.0
 11
11.0
 21
8.5
 12
0.0
 22
0.0
 32
0.0
 14
0.0
 24
0.0
 34
0.0
 15
0.0
 25
0.0
 35
0.0
146
0.0
 13
0.0
 23
0.0
 33
0.0
 16
1.0
 26
0.0
 36
0.0
 17
0.0
 27
1.0
 37
0.0
 76
0
330
202
345
0
346
0
  0
LAYOUT
  5
27B
102
{ACAD_REACTORS
330
1A
102
}
100
AcDbPlotSettings
  1

  2
none_device
  4
ANSI_A_(11.00_x_8.50_Inches)
  6

 40
0.0
 41
0.0
 42
0.0
 43
0.0
 44
279.4
 45
215.9
 46
0.0
 47
0.0
 48
0.0
 49
0.0
140
0.0
141
0.0
142
1.0
143
1.0
 70
0
 72
0
 73
0
 74
0
  7

 75
0
147
1.0
148
0.0
149
0.0
100
AcDbLayout
  1
Layout1
 70
0
 71
1
 10
0.0
 20
0.0
 11
11.0
 21
8.5
 12
0.0
 22
0.0
 32
0.0
 14
0.0
 24
0.0
 34
0.0
 15
0.0
 25
0.0
 35
0.0
146
0.0
 13
0.0
 23
0.0
 33
0.0
 16
1.0
 26
0.0
 36
0.0
 17
0.0
 27
1.0
 37
0.0
 76
0
330
203
345
0
346
0
  0
ENDSEC
  0
EOF
