  0
SECTION
  2
HEADER
  9
$ACADVER
  1
AC1015
  9
$DWGCODEPAGE
  3
ANSI_1252
  9
$EXTMAX
 10
11.0
 20
8.5
 30
0.0
  9
$EXTMIN
 10
0.0
 20
0.0
 30
0.0
  9
$LIMMIN
 10
0.0
 20
0.0
  9
$LIMMAX
 10
11.0
 20
8.5
  9
$VIEWCTR
 10
5.5
 20
4.25
  9
$VIEWSIZE
 40
8.5
  9
$CLAYER
  8
0
  9
$LTSCALE
 40
0.605
  9
$CELTYPE
  6
BYLAYER
  9
$DIMSCALE
 40
1.0
  9
$DIMASZ
 40
0.1
  9
$DIMEXO
 40
0.06875
  9
$DIMDLI
 40
0.418
  9
$DIMEXE
 40
0.198
  9
$DIMCEN
 40
0.099
  9
$DIMLFAC
 40
1.0
  9
$DIMBLK
  1
_FILLED
  9
$DIMTXT
 40
0.08
  9
$DIMTOL
 70
1
  9
$DIMLIM
 70
0
  9
$DIMTFAC
 40
1.0
  9
$DIMTP
 40
0.01
  9
$DIMTM
 40
0.01
  9
$PDMODE
 70
3
  9
$PDSIZE
 40
0.06
  9
$HANDSEED
  5
2F2
  9
$TILEMODE
 70
1
  9
$MEASUREMENT
 70
0
  9
$INSUNITS
 70
1
  0
ENDSEC
  0
SECTION
  2
CLASSES
  0
CLASS
  1
ACDBDICTIONARYWDFLT
  2
AcDbDictionaryWithDefault
  3
AutoCAD 2000
 90
0
280
0
281
0
  0
CLASS
  1
ACDBPLACEHOLDER
  2
AcDbPlaceHolder
  3
AutoCAD 2000
 90
0
280
0
281
0
  0
CLASS
  1
LAYOUT
  2
AcDbLayout
  3
AutoCAD 2000
 90
0
280
0
281
0
  0
ENDSEC
  0
SECTION
  2
TABLES
  0
TABLE
  2
VPORT
  5
8
100
AcDbSymbolTable
 70
2
  0
VPORT
  5
1F4
100
AcDbSymbolTableRecord
100
AcDbViewportTableRecord
  2
*ACTIVE
 70
0
 10
0.0
 20
0.0
 11
1.0
 21
1.0
 12
5.5
 22
4.25
 13
0.0
 23
0.0
 14
1.0
 24
1.0
 15
0.0
 25
0.0
 16
0.0
 26
0.0
 36
1.0
 17
0.0
 27
0.0
 37
0.0
 40
8.5
 41
1.2941176471
 42
50.0
 43
0.0
 44
0.0
 50
0.0
 51
0.0
 71
0
 72
100
 73
1
 74
1
 75
0
 76
0
 77
0
 78
0
  0
ENDTAB
  0
TABLE
  2
LTYPE
  5
5
100
AcDbSymbolTable
 70
6
  0
LTYPE
  5
14
100
AcDbSymbolTableRecord
100
AcDbLinetypeTableRecord
  2
BYBLOCK
 70
0
  3

 72
65
 73
0
 40
0.0
  0
LTYPE
  5
15
100
AcDbSymbolTableRecord
100
AcDbLinetypeTableRecord
  2
BYLAYER
 70
0
  3

 72
65
 73
0
 40
0.0
  0
LTYPE
  5
16
100
AcDbSymbolTableRecord
100
AcDbLinetypeTableRecord
  2
CONTINUOUS
 70
64
  3
Solid line
 72
65
 73
0
 40
0.0
  0
LTYPE
  5
1F5
100
AcDbSymbolTableRecord
100
AcDbLinetypeTableRecord
  2
CENTER
 70
64
  3
____ _ ____ _ ____ _ ____ _ ____ _ ____ _ ____
 72
65
 73
4
 40
0.6
 49
0.375
 74
0
 49
-0.075
 74
0
 49
0.075
 74
0
 49
-0.075
 74
0
  0
LTYPE
  5
1F6
100
AcDbSymbolTableRecord
100
AcDbLinetypeTableRecord
  2
HIDDEN
 70
64
  3
- - - - - - - - - - - - - - - - - - - -
 72
65
 73
2
 40
0.2
 49
0.1
 74
0
 49
-0.1
 74
0
  0
LTYPE
  5
1F7
100
AcDbSymbolTableRecord
100
AcDbLinetypeTableRecord
  2
PHANTOM
 70
64
  3
_____ _ _ _____ _ _ _____ _ _ _____
 72
65
 73
6
 40
0.8
 49
0.45
 74
0
 49
-0.05
 74
0
 49
0.1
 74
0
 49
-0.05
 74
0
 49
0.1
 74
0
 49
-0.05
 74
0
  0
LTYPE
  5
1F8
100
AcDbSymbolTableRecord
100
AcDbLinetypeTableRecord
  2
DOT
 70
64
  3
. . . . . . . . . . . . . . . . . . . .
 72
65
 73
2
 40
0.2
 49
0.1
 74
0
 49
-0.1
 74
0
  0
LTYPE
  5
1F9
100
AcDbSymbolTableRecord
100
AcDbLinetypeTableRecord
  2
DASHED
 70
64
  3
- - - - - - - - - - - - - - - - - - - -
 72
65
 73
2
 40
0.2
 49
0.1
 74
0
 49
-0.1
 74
0
  0
ENDTAB
  0
TABLE
  2
LAYER
  5
2
100
AcDbSymbolTable
 70
36
  0
LAYER
  5
10
100
AcDbSymbolTableRecord
100
AcDbLayerTableRecord
  2
0
 70
0
 62
7
  6
CONTINUOUS
370
-3
390
F
  0
LAYER
  5
1FA
100
AcDbSymbolTableRecord
100
AcDbLayerTableRecord
  2
DEFAULT_1
 70
0
 62
7
  6
CENTER
370
-3
390
F
  0
LAYER
  5
1FB
100
AcDbSymbolTableRecord
100
AcDbLayerTableRecord
  2
DEFAULT_2
 70
0
 62
8
  6
HIDDEN
370
-3
390
F
  0
LAYER
  5
1FC
100
AcDbSymbolTableRecord
100
AcDbLayerTableRecord
  2
DEFAULT_3
 70
0
 62
7
  6
PHANTOM
370
-3
390
F
  0
LAYER
  5
1FD
100
AcDbSymbolTableRecord
100
AcDbLayerTableRecord
  2
DEFAULT_COORDINATE_SYSTEM
 70
0
 62
7
  6
CONTINUOUS
370
-3
390
F
  0
LAYER
  5
1FE
100
AcDbSymbolTableRecord
100
AcDbLayerTableRecord
  2
DEFAULT_DATUM_AXES
 70
0
 62
7
  6
CONTINUOUS
370
-3
390
F
  0
LAYER
  5
1FF
100
AcDbSymbolTableRecord
100
AcDbLayerTableRecord
  2
DEFAULT_DATUM_CURVES
 70
0
 62
7
  6
CONTINUOUS
370
-3
390
F
  0
LAYER
  5
200
100
AcDbSymbolTableRecord
100
AcDbLayerTableRecord
  2
DEFAULT_DATUM_PLANES
 70
0
 62
7
  6
CONTINUOUS
370
-3
390
F
  0
ENDTAB
  0
TABLE
  2
STYLE
  5
3
100
AcDbSymbolTable
 70
1
  0
STYLE
  5
11
100
AcDbSymbolTableRecord
100
AcDbTextStyleTableRecord
  2
STANDARD
 70
0
 40
0.0
 41
0.8
 50
0.0
 71
0
 42
0.2
  3
txt
  4

  0
STYLE
  5
201
100
AcDbSymbolTableRecord
100
AcDbTextStyleTableRecord
  2
TEXTSTYLE_1
 70
0
 40
0.0
 41
0.8
 50
0.0
 71
0
 42
0.2
  3
gdt
  4

  0
ENDTAB
  0
TABLE
  2
VIEW
  5
6
100
AcDbSymbolTable
 70
0
  0
ENDTAB
  0
TABLE
  2
UCS
  5
7
100
AcDbSymbolTable
 70
0
  0
ENDTAB
  0
TABLE
  2
APPID
  5
9
100
AcDbSymbolTable
 70
1
  0
APPID
  5
202
100
AcDbSymbolTableRecord
100
AcDbRegAppTableRecord
  2
ACAD
 70
0
  0
ENDTAB
  0
TABLE
  2
BLOCK_RECORD
  5
1
100
AcDbSymbolTable
 70
0
  0
BLOCK_RECORD
  5
203
100
AcDbSymbolTableRecord
100
AcDbBlockTableRecord
  2
*Model_Space
  0
BLOCK_RECORD
  5
204
100
AcDbSymbolTableRecord
100
AcDbBlockTableRecord
  2
*Paper_Space
  0
ENDTAB
  0
TABLE
  2
DIMSTYLE
  5
A
100
AcDbSymbolTable
 70
1
100
AcDbDimStyleTable
 71
0
  0
DIMSTYLE
105
205
100
AcDbSymbolTableRecord
100
AcDbDimStyleTableRecord
  2
STANDARD
 70
0
  3

  4

 40
1.0
 41
0.1
 42
0.0625
 43
0.38
 44
0.18
 45
0.0
 46
0.0
 47
0.01
 48
0.01
140
0.08
141
0.09
142
0.0
143
25.4
144
1.0
145
0.0
146
1.0
147
0.09
 71
1.0
 72
0.0
 73
1
 74
1
 75
0
 76
0
 77
0
 78
4
170
0
171
2
172
0
173
0
174
0
175
0
176
0
177
0
178
0
270
2
271
2
272
2
273
2
274
2
275
0
280
0
281
0
282
0
283
1
284
4
285
0
286
0
287
3
288
0
340
11
  0
ENDTAB
  0
ENDSEC
  0
SECTION
  2
BLOCKS
  0
BLOCK
  5
20
100
AcDbEntity
  8
0
100
AcDbBlockBegin
  2
*Model_Space
 70
0
 10
0.0
 20
0.0
 30
0.0
  3
*Model_Space
  1

  0
ENDBLK
  5
21
100
AcDbEntity
  8
0
100
AcDbBlockEnd
  0
BLOCK
  5
1C
100
AcDbEntity
  8
0
100
AcDbBlockBegin
  2
*Paper_Space
 70
0
 10
0.0
 20
0.0
 30
0.0
  3
*Paper_Space
  1

  0
ENDBLK
  5
1D
100
AcDbEntity
  8
0
100
AcDbBlockEnd
  0
ENDSEC
  0
SECTION
  2
ENTITIES
  0
LINE
  5
206
100
AcDbEntity
  8
0
100
AcDbLine
 62
6
  6
CONTINUOUS
 10
5.2300098959
 20
5.574764365
 11
5.2282934718
 21
5.5737719237
  0
LINE
  5
207
100
AcDbEntity
  8
0
100
AcDbLine
 62
6
  6
CONTINUOUS
 10
5.2319831431
 20
5.5754858317
 11
5.2300098959
 21
5.574764365
  0
LINE
  5
208
100
AcDbEntity
  8
0
100
AcDbLine
 62
9
  6
CONTINUOUS
 10
6.0583018948
 20
2.9958258317
 11
5.1233272637
 21
2.9958258317
  0
LINE
  5
209
100
AcDbEntity
  8
0
100
AcDbLine
 62
6
  6
CONTINUOUS
 10
5.2282934718
 20
5.5737719237
 11
5.2262990877
 21
5.5723103358
  0
LINE
  5
20A
100
AcDbEntity
  8
0
100
AcDbLine
 62
6
  6
CONTINUOUS
 10
5.2300098959
 20
5.503334365
 11
5.1912983552
 21
5.480954289
  0
LINE
  5
20B
100
AcDbEntity
  8
0
100
AcDbLine
 62
9
  6
CONTINUOUS
 10
6.0663140491
 20
2.9998420709
 11
5.1153151095
 21
2.9998420709
  0
LINE
  5
20C
100
AcDbEntity
  8
0
100
AcDbLine
 62
9
  6
CONTINUOUS
 10
6.12010802
 20
3.0718712863
 11
5.0615211385
 21
3.0718712863
  0
LINE
  5
20D
100
AcDbEntity
  8
0
100
AcDbLine
 62
9
  6
CONTINUOUS
 10
6.1220746828
 20
3.0785055996
 11
5.0595544757
 21
3.0785055996
  0
LINE
  5
20E
100
AcDbEntity
  8
0
100
AcDbLine
 62
6
  6
CONTINUOUS
 10
5.1908145793
 20
5.5368258317
 11
5.2263032501
 21
5.5723145026
  0
LINE
  5
20F
100
AcDbEntity
  8
0
100
AcDbLine
 62
6
  6
CONTINUOUS
 10
5.2294745793
 20
5.5754858317
 11
5.2308145793
 21
5.5768258317
  0
LINE
  5
210
100
AcDbEntity
  8
0
100
AcDbLine
 62
6
  6
CONTINUOUS
 10
5.2300098959
 20
5.431904365
 11
5.1912983552
 21
5.409524289
  0
LINE
  5
211
100
AcDbEntity
  8
0
100
AcDbLine
 62
6
  6
CONTINUOUS
 10
5.2300098959
 20
5.360474365
 11
5.1912983552
 21
5.338094289
  0
LINE
  5
212
100
AcDbEntity
  8
0
100
AcDbLine
 62
6
  6
CONTINUOUS
 10
5.1153151095
 20
2.9998420709
 11
5.0615211385
 21
3.0718712863
  0
LINE
  5
213
100
AcDbEntity
  8
0
100
AcDbLine
 62
6
  6
CONTINUOUS
 10
5.1912983552
 20
5.480954289
 11
5.1908145793
 21
5.480395109
  0
LINE
  5
214
100
AcDbEntity
  8
0
100
AcDbLine
 62
6
  6
CONTINUOUS
 10
5.2300098959
 20
5.289044365
 11
5.1912983552
 21
5.266664289
  0
LINE
  5
215
100
AcDbEntity
  8
0
100
AcDbLine
 62
6
  6
CONTINUOUS
 10
5.1912983552
 20
5.338094289
 11
5.1908145793
 21
5.3375351217
  0
LINE
  5
216
100
AcDbEntity
  8
0
100
AcDbLine
 62
6
  6
CONTINUOUS
 10
5.1912983552
 20
5.266664289
 11
5.1908145793
 21
5.2661051052
  0
LINE
  5
217
100
AcDbEntity
  8
0
100
AcDbLine
 62
6
  6
CONTINUOUS
 10
5.2300098959
 20
5.217614365
 11
5.1912983552
 21
5.195234289
  0
LINE
  5
218
100
AcDbEntity
  8
0
100
AcDbLine
 62
6
  6
CONTINUOUS
 10
5.2300098959
 20
5.146184365
 11
5.1912983552
 21
5.123804289
  0
LINE
  5
219
100
AcDbEntity
  8
0
100
AcDbLine
 62
6
  6
CONTINUOUS
 10
5.1912983552
 20
5.195234289
 11
5.1908145793
 21
5.1946751033
  0
LINE
  5
21A
100
AcDbEntity
  8
0
100
AcDbLine
 62
6
  6
CONTINUOUS
 10
5.1912983552
 20
5.123804289
 11
5.1908145793
 21
5.1232451089
  0
LINE
  5
21B
100
AcDbEntity
  8
0
100
AcDbLine
 62
6
  6
CONTINUOUS
 10
5.9516192626
 20
5.5467415756
 11
5.9698491756
 21
5.5572814881
  0
LINE
  5
21C
100
AcDbEntity
  8
0
100
AcDbLine
 62
6
  6
CONTINUOUS
 10
5.2300098959
 20
5.074754365
 11
5.1912983552
 21
5.052374289
  0
LINE
  5
21D
100
AcDbEntity
  8
0
100
AcDbLine
 62
6
  6
CONTINUOUS
 10
5.9516192626
 20
5.4753115756
 11
5.9903308033
 21
5.4976916516
  0
LINE
  5
21E
100
AcDbEntity
  8
0
100
AcDbLine
 62
6
  6
CONTINUOUS
 10
5.1912983552
 20
5.052374289
 11
5.1908145793
 21
5.0518151157
  0
LINE
  5
21F
100
AcDbEntity
  8
0
100
AcDbLine
 62
6
  6
CONTINUOUS
 10
5.9516192626
 20
5.4038815756
 11
5.9903308033
 21
5.4262616516
  0
LINE
  5
220
100
AcDbEntity
  8
0
100
AcDbLine
 62
6
  6
CONTINUOUS
 10
5.9516192626
 20
5.3324515756
 11
5.9903308033
 21
5.3548316516
  0
LINE
  5
221
100
AcDbEntity
  8
0
100
AcDbLine
 62
6
  6
CONTINUOUS
 10
5.9516192626
 20
5.2610215756
 11
5.9903308033
 21
5.2834016516
  0
LINE
  5
222
100
AcDbEntity
  8
0
100
AcDbLine
 62
6
  6
CONTINUOUS
 10
5.1908145793
 20
4.8264817284
 11
5.1665278475
 21
4.8124597773
  0
LINE
  5
223
100
AcDbEntity
  8
0
100
AcDbLine
 62
6
  6
CONTINUOUS
 10
5.9516192626
 20
5.1895915756
 11
5.9903308033
 21
5.2119716516
  0
LINE
  5
224
100
AcDbEntity
  8
0
100
AcDbLine
 62
6
  6
CONTINUOUS
 10
5.1183145793
 20
4.2946997163
 11
5.1183145793
 21
4.7289519471
  0
LINE
  5
225
100
AcDbEntity
  8
0
100
AcDbLine
 62
6
  6
CONTINUOUS
 10
5.9908145793
 20
5.4982508301
 11
5.9903308033
 21
5.4976916516
  0
LINE
  5
226
100
AcDbEntity
  8
0
100
AcDbLine
 62
6
  6
CONTINUOUS
 10
5.9645567408
 20
5.0461634287
 11
5.9888899389
 21
5.0602844962
  0
LINE
  5
227
100
AcDbEntity
  8
0
100
AcDbLine
 62
6
  6
CONTINUOUS
 10
5.9516192626
 20
5.1181615756
 11
5.9903308033
 21
5.1405416516
  0
LINE
  5
228
100
AcDbEntity
  8
0
100
AcDbLine
 62
6
  6
CONTINUOUS
 10
5.1908145793
 20
3.9798258317
 11
5.1908145793
 21
5.0518151089
  0
LINE
  5
229
100
AcDbEntity
  8
0
100
AcDbLine
 62
6
  6
CONTINUOUS
 10
5.1908145793
 20
5.1053858317
 11
5.1908145793
 21
5.1232451089
  0
LINE
  5
22A
100
AcDbEntity
  8
0
100
AcDbLine
 62
6
  6
CONTINUOUS
 10
5.1908145793
 20
5.1768158317
 11
5.1908145793
 21
5.1946751089
  0
LINE
  5
22B
100
AcDbEntity
  8
0
100
AcDbLine
 62
6
  6
CONTINUOUS
 10
5.1908145793
 20
5.2482458317
 11
5.1908145793
 21
5.2661051089
  0
LINE
  5
22C
100
AcDbEntity
  8
0
100
AcDbLine
 62
6
  6
CONTINUOUS
 10
5.1908145793
 20
5.3196758317
 11
5.1908145793
 21
5.3375351089
  0
LINE
  5
22D
100
AcDbEntity
  8
0
100
AcDbLine
 62
6
  6
CONTINUOUS
 10
5.1908145793
 20
5.3911058317
 11
5.1908145793
 21
5.4089651089
  0
LINE
  5
22E
100
AcDbEntity
  8
0
100
AcDbLine
 62
6
  6
CONTINUOUS
 10
5.1908145793
 20
5.4625358317
 11
5.1908145793
 21
5.4803951089
  0
LINE
  5
22F
100
AcDbEntity
  8
0
100
AcDbLine
 62
6
  6
CONTINUOUS
 10
5.1908145793
 20
5.5339658317
 11
5.1908145793
 21
5.5368258317
  0
LINE
  5
230
100
AcDbEntity
  8
0
100
AcDbLine
 62
6
  6
CONTINUOUS
 10
5.2294745793
 20
5.5754858317
 11
5.2294745793
 21
5.5744548434
  0
LINE
  5
231
100
AcDbEntity
  8
0
100
AcDbLine
 62
6
  6
CONTINUOUS
 10
5.2294745793
 20
5.5116454703
 11
5.2294745793
 21
5.5030248561
  0
LINE
  5
232
100
AcDbEntity
  8
0
100
AcDbLine
 62
6
  6
CONTINUOUS
 10
5.2294745793
 20
5.4402154703
 11
5.2294745793
 21
5.4315948561
  0
LINE
  5
233
100
AcDbEntity
  8
0
100
AcDbLine
 62
6
  6
CONTINUOUS
 10
5.2294745793
 20
5.3687854703
 11
5.2294745793
 21
5.3601648561
  0
LINE
  5
234
100
AcDbEntity
  8
0
100
AcDbLine
 62
6
  6
CONTINUOUS
 10
5.2294745793
 20
5.2973554703
 11
5.2294745793
 21
5.2887348561
  0
LINE
  5
235
100
AcDbEntity
  8
0
100
AcDbLine
 62
6
  6
CONTINUOUS
 10
5.2294745793
 20
5.2259254703
 11
5.2294745793
 21
5.2173048561
  0
LINE
  5
236
100
AcDbEntity
  8
0
100
AcDbLine
 62
6
  6
CONTINUOUS
 10
5.2294745793
 20
5.1544954703
 11
5.2294745793
 21
5.1458748561
  0
LINE
  5
237
100
AcDbEntity
  8
0
100
AcDbLine
 62
6
  6
CONTINUOUS
 10
5.2294745793
 20
5.0830654703
 11
5.2294745793
 21
5.0744448561
  0
LINE
  5
238
100
AcDbEntity
  8
0
100
AcDbLine
 62
6
  6
CONTINUOUS
 10
5.0595544757
 20
3.0785055996
 11
5.1177050573
 21
3.9704763844
  0
LINE
  5
239
100
AcDbEntity
  8
0
100
AcDbLine
 62
6
  6
CONTINUOUS
 10
5.9903308033
 20
5.4262616516
 11
5.9908145793
 21
5.4268208212
  0
LINE
  5
23A
100
AcDbEntity
  8
0
100
AcDbLine
 62
6
  6
CONTINUOUS
 10
5.9903308033
 20
5.3548316516
 11
5.9908145793
 21
5.3553908317
  0
LINE
  5
23B
100
AcDbEntity
  8
0
100
AcDbLine
 62
6
  6
CONTINUOUS
 10
5.9903308033
 20
5.2834016516
 11
5.9908145792
 21
5.2839610763
  0
LINE
  5
23C
100
AcDbEntity
  8
0
100
AcDbLine
 62
6
  6
CONTINUOUS
 10
5.9903308033
 20
5.2119716516
 11
5.9908145793
 21
5.2125308361
  0
LINE
  5
23D
100
AcDbEntity
  8
0
100
AcDbLine
 62
9
  6
CONTINUOUS
 10
6.0639241012
 20
3.9704763844
 11
5.1177050573
 21
3.9704763844
  0
LINE
  5
23E
100
AcDbEntity
  8
0
100
AcDbLine
 62
9
  6
CONTINUOUS
 10
6.0539452834
 20
3.9798258317
 11
5.1276838752
 21
3.9798258317
  0
LINE
  5
23F
100
AcDbEntity
  8
0
100
AcDbLine
 62
6
  6
CONTINUOUS
 10
5.1665278475
 20
4.2111918861
 11
5.1908145793
 21
4.197169935
  0
LINE
  5
240
100
AcDbEntity
  8
0
100
AcDbLine
 62
6
  6
CONTINUOUS
 10
5.3718145793
 20
4.7975918174
 11
5.3718145793
 21
4.7973818979
  0
LINE
  5
241
100
AcDbEntity
  8
0
100
AcDbLine
 62
6
  6
CONTINUOUS
 10
5.9903308033
 20
5.1405416516
 11
5.9908145793
 21
5.1411008257
  0
LINE
  5
242
100
AcDbEntity
  8
0
100
AcDbLine
 62
6
  6
CONTINUOUS
 10
5.4767145793
 20
4.2941616746
 11
5.4767145793
 21
4.2405237557
  0
LINE
  5
243
100
AcDbEntity
  8
0
100
AcDbLine
 62
6
  6
CONTINUOUS
 10
5.9698491756
 20
5.5572814881
 11
5.9699852398
 21
5.5576551711
  0
LINE
  5
244
100
AcDbEntity
  8
0
100
AcDbLine
 62
6
  6
CONTINUOUS
 10
5.6846549988
 20
5.0232551089
 11
5.6846549988
 21
5.0321851089
  0
LINE
  5
245
100
AcDbEntity
  8
0
100
AcDbLine
 62
6
  6
CONTINUOUS
 10
5.7049145793
 20
4.294179255
 11
5.7049145793
 21
4.2405493622
  0
LINE
  5
246
100
AcDbEntity
  8
0
100
AcDbLine
 62
6
  6
CONTINUOUS
 10
5.8098145793
 20
4.7974712549
 11
5.8098145793
 21
4.7973826341
  0
LINE
  5
247
100
AcDbEntity
  8
0
100
AcDbLine
 62
6
  6
CONTINUOUS
 10
5.8098145793
 20
4.2262656714
 11
5.8098145793
 21
4.2260810351
  0
LINE
  5
248
100
AcDbEntity
  8
0
100
AcDbLine
 62
6
  6
CONTINUOUS
 10
5.9908145793
 20
4.197169935
 11
6.015101311
 21
4.2111918861
  0
LINE
  5
249
100
AcDbEntity
  8
0
100
AcDbLine
 62
6
  6
CONTINUOUS
 10
5.1912983552
 20
5.1048266516
 11
5.1908145793
 21
5.1053858385
  0
LINE
  5
24A
100
AcDbEntity
  8
0
100
AcDbLine
 62
6
  6
CONTINUOUS
 10
5.1912983552
 20
5.1762566516
 11
5.1908145793
 21
5.1768158317
  0
LINE
  5
24B
100
AcDbEntity
  8
0
100
AcDbLine
 62
6
  6
CONTINUOUS
 10
5.9521545793
 20
5.1098504703
 11
5.9521545793
 21
5.1184710844
  0
LINE
  5
24C
100
AcDbEntity
  8
0
100
AcDbLine
 62
6
  6
CONTINUOUS
 10
5.9521545793
 20
5.1812804703
 11
5.9521545793
 21
5.1899010844
  0
LINE
  5
24D
100
AcDbEntity
  8
0
100
AcDbLine
 62
6
  6
CONTINUOUS
 10
5.9521545793
 20
5.2527104703
 11
5.9521545793
 21
5.2613310844
  0
LINE
  5
24E
100
AcDbEntity
  8
0
100
AcDbLine
 62
6
  6
CONTINUOUS
 10
5.9521545793
 20
5.3241404703
 11
5.9521545793
 21
5.3327610844
  0
LINE
  5
24F
100
AcDbEntity
  8
0
100
AcDbLine
 62
6
  6
CONTINUOUS
 10
5.9521545793
 20
5.3955704703
 11
5.9521545793
 21
5.4041910844
  0
LINE
  5
250
100
AcDbEntity
  8
0
100
AcDbLine
 62
6
  6
CONTINUOUS
 10
5.9521545793
 20
5.4670004703
 11
5.9521545793
 21
5.4756210844
  0
LINE
  5
251
100
AcDbEntity
  8
0
100
AcDbLine
 62
6
  6
CONTINUOUS
 10
5.9521545793
 20
5.5384304703
 11
5.9521545793
 21
5.5470510844
  0
LINE
  5
252
100
AcDbEntity
  8
0
100
AcDbLine
 62
6
  6
CONTINUOUS
 10
5.9650648086
 20
5.0378237067
 11
5.9650648086
 21
5.0464583178
  0
LINE
  5
253
100
AcDbEntity
  8
0
100
AcDbLine
 62
6
  6
CONTINUOUS
 10
5.1912983552
 20
5.2476866516
 11
5.1908145793
 21
5.2482458261
  0
LINE
  5
254
100
AcDbEntity
  8
0
100
AcDbLine
 62
6
  6
CONTINUOUS
 10
5.1912983552
 20
5.3191166516
 11
5.1908145793
 21
5.319675828
  0
LINE
  5
255
100
AcDbEntity
  8
0
100
AcDbLine
 62
6
  6
CONTINUOUS
 10
6.1220746828
 20
3.0785055996
 11
6.0639241012
 21
3.9704763844
  0
LINE
  5
256
100
AcDbEntity
  8
0
100
AcDbLine
 62
6
  6
CONTINUOUS
 10
5.9908145793
 20
3.9798258317
 11
5.9908145793
 21
5.0232551089
  0
LINE
  5
257
100
AcDbEntity
  8
0
100
AcDbLine
 62
6
  6
CONTINUOUS
 10
5.9908145793
 20
5.0625158317
 11
5.9908145793
 21
5.0875301089
  0
LINE
  5
258
100
AcDbEntity
  8
0
100
AcDbLine
 62
6
  6
CONTINUOUS
 10
5.9908145793
 20
5.1411008317
 11
5.9908145793
 21
5.1589601089
  0
LINE
  5
259
100
AcDbEntity
  8
0
100
AcDbLine
 62
6
  6
CONTINUOUS
 10
5.9908145793
 20
5.2125308317
 11
5.9908145793
 21
5.2303901089
  0
LINE
  5
25A
100
AcDbEntity
  8
0
100
AcDbLine
 62
6
  6
CONTINUOUS
 10
5.9908145793
 20
5.2839608317
 11
5.9908145793
 21
5.3018201089
  0
LINE
  5
25B
100
AcDbEntity
  8
0
100
AcDbLine
 62
6
  6
CONTINUOUS
 10
5.9908145793
 20
5.3553908317
 11
5.9908145793
 21
5.3732501089
  0
LINE
  5
25C
100
AcDbEntity
  8
0
100
AcDbLine
 62
6
  6
CONTINUOUS
 10
5.9908145793
 20
5.4268208317
 11
5.9908145793
 21
5.4446801089
  0
LINE
  5
25D
100
AcDbEntity
  8
0
100
AcDbLine
 62
6
  6
CONTINUOUS
 10
5.9908145793
 20
5.4982508317
 11
5.9908145793
 21
5.5161101089
  0
LINE
  5
25E
100
AcDbEntity
  8
0
100
AcDbLine
 62
6
  6
CONTINUOUS
 10
6.0633145793
 20
4.2946997163
 11
6.0633145793
 21
4.7289519471
  0
LINE
  5
25F
100
AcDbEntity
  8
0
100
AcDbLine
 62
6
  6
CONTINUOUS
 10
5.1912983552
 20
5.3905466516
 11
5.1908145793
 21
5.3911058445
  0
LINE
  5
260
100
AcDbEntity
  8
0
100
AcDbLine
 62
6
  6
CONTINUOUS
 10
5.1912983552
 20
5.4619766516
 11
5.1908145793
 21
5.4625358382
  0
LINE
  5
261
100
AcDbEntity
  8
0
100
AcDbLine
 62
6
  6
CONTINUOUS
 10
5.1912983552
 20
5.1048266516
 11
5.2294745793
 21
5.0827560844
  0
LINE
  5
262
100
AcDbEntity
  8
0
100
AcDbLine
 62
6
  6
CONTINUOUS
 10
5.1912983552
 20
5.1762566516
 11
5.2294745793
 21
5.1541860844
  0
LINE
  5
263
100
AcDbEntity
  8
0
100
AcDbLine
 62
6
  6
CONTINUOUS
 10
5.1908145793
 20
5.5339658378
 11
5.1912983552
 21
5.5334066516
  0
LINE
  5
264
100
AcDbEntity
  8
0
100
AcDbLine
 62
6
  6
CONTINUOUS
 10
5.1912983552
 20
5.2476866516
 11
5.2294745793
 21
5.2256160844
  0
LINE
  5
265
100
AcDbEntity
  8
0
100
AcDbLine
 62
6
  6
CONTINUOUS
 10
5.9908145788
 20
5.0232551089
 11
5.6846549988
 21
5.0232551089
  0
LINE
  5
266
100
AcDbEntity
  8
0
100
AcDbLine
 62
6
  6
CONTINUOUS
 10
6.015101311
 20
4.8124597773
 11
5.9908145793
 21
4.8264817284
  0
LINE
  5
267
100
AcDbEntity
  8
0
100
AcDbLine
 62
6
  6
CONTINUOUS
 10
5.1912983552
 20
5.3191166516
 11
5.2294745793
 21
5.2970460844
  0
LINE
  5
268
100
AcDbEntity
  8
0
100
AcDbLine
 62
6
  6
CONTINUOUS
 10
5.1912983552
 20
5.3905466516
 11
5.2294745793
 21
5.3684760844
  0
LINE
  5
269
100
AcDbEntity
  8
0
100
AcDbLine
 62
6
  6
CONTINUOUS
 10
5.9908145793
 20
5.0232551089
 11
5.9650648086
 21
5.0381217459
  0
LINE
  5
26A
100
AcDbEntity
  8
0
100
AcDbLine
 62
6
  6
CONTINUOUS
 10
5.1912983552
 20
5.4619766516
 11
5.2294745793
 21
5.4399060844
  0
LINE
  5
26B
100
AcDbEntity
  8
0
100
AcDbLine
 62
6
  6
CONTINUOUS
 10
5.9516192626
 20
5.110469365
 11
5.9521545793
 21
5.1098504703
  0
LINE
  5
26C
100
AcDbEntity
  8
0
100
AcDbLine
 62
6
  6
CONTINUOUS
 10
5.9903308033
 20
5.088089289
 11
5.9908145793
 21
5.0875301029
  0
LINE
  5
26D
100
AcDbEntity
  8
0
100
AcDbLine
 62
6
  6
CONTINUOUS
 10
5.1912983552
 20
5.5334066516
 11
5.2294745793
 21
5.5113360844
  0
LINE
  5
26E
100
AcDbEntity
  8
0
100
AcDbLine
 62
6
  6
CONTINUOUS
 10
5.9903308033
 20
5.088089289
 11
5.9521545793
 21
5.1101598561
  0
LINE
  5
26F
100
AcDbEntity
  8
0
100
AcDbLine
 62
6
  6
CONTINUOUS
 10
5.9903308033
 20
5.230949289
 11
5.9908145792
 21
5.2303903535
  0
LINE
  5
270
100
AcDbEntity
  8
0
100
AcDbLine
 62
6
  6
CONTINUOUS
 10
5.9903308033
 20
5.159519289
 11
5.9908145793
 21
5.1589601133
  0
LINE
  5
271
100
AcDbEntity
  8
0
100
AcDbLine
 62
6
  6
CONTINUOUS
 10
5.9516192626
 20
5.253329365
 11
5.9521545793
 21
5.2527104703
  0
LINE
  5
272
100
AcDbEntity
  8
0
100
AcDbLine
 62
6
  6
CONTINUOUS
 10
5.9903308033
 20
5.159519289
 11
5.9521545793
 21
5.1815898561
  0
LINE
  5
273
100
AcDbEntity
  8
0
100
AcDbLine
 62
6
  6
CONTINUOUS
 10
5.9903308033
 20
5.230949289
 11
5.9521545793
 21
5.2530198561
  0
LINE
  5
274
100
AcDbEntity
  8
0
100
AcDbLine
 62
6
  6
CONTINUOUS
 10
5.9516192626
 20
5.324759365
 11
5.9521545793
 21
5.3241404703
  0
LINE
  5
275
100
AcDbEntity
  8
0
100
AcDbLine
 62
6
  6
CONTINUOUS
 10
5.9903308033
 20
5.302379289
 11
5.9908145793
 21
5.3018201089
  0
LINE
  5
276
100
AcDbEntity
  8
0
100
AcDbLine
 62
6
  6
CONTINUOUS
 10
5.9516192626
 20
5.396189365
 11
5.9521545793
 21
5.3955704703
  0
LINE
  5
277
100
AcDbEntity
  8
0
100
AcDbLine
 62
6
  6
CONTINUOUS
 10
5.9903308033
 20
5.373809289
 11
5.9908145793
 21
5.3732500984
  0
LINE
  5
278
100
AcDbEntity
  8
0
100
AcDbLine
 62
6
  6
CONTINUOUS
 10
5.9903308033
 20
5.302379289
 11
5.9521545793
 21
5.3244498561
  0
LINE
  5
279
100
AcDbEntity
  8
0
100
AcDbLine
 62
6
  6
CONTINUOUS
 10
5.9903308033
 20
5.445239289
 11
5.9908145793
 21
5.444680098
  0
LINE
  5
27A
100
AcDbEntity
  8
0
100
AcDbLine
 62
6
  6
CONTINUOUS
 10
5.9908145793
 20
5.5161101117
 11
5.9903308033
 21
5.516669289
  0
LINE
  5
27B
100
AcDbEntity
  8
0
100
AcDbLine
 62
6
  6
CONTINUOUS
 10
6.0663140491
 20
2.9998420709
 11
6.12010802
 21
3.0718712863
  0
LINE
  5
27C
100
AcDbEntity
  8
0
100
AcDbLine
 62
6
  6
CONTINUOUS
 10
5.9903308033
 20
5.373809289
 11
5.9521545793
 21
5.3958798561
  0
LINE
  5
27D
100
AcDbEntity
  8
0
100
AcDbLine
 62
6
  6
CONTINUOUS
 10
5.9903308033
 20
5.445239289
 11
5.9521545793
 21
5.4673098561
  0
LINE
  5
27E
100
AcDbEntity
  8
0
100
AcDbLine
 62
6
  6
CONTINUOUS
 10
5.9699853439
 20
5.5576550671
 11
5.9508145793
 21
5.5768258317
  0
LINE
  5
27F
100
AcDbEntity
  8
0
100
AcDbLine
 62
6
  6
CONTINUOUS
 10
5.1908145793
 20
5.5368258317
 11
5.2034058271
 21
5.5368258317
  0
LINE
  5
280
100
AcDbEntity
  8
0
100
AcDbLine
 62
6
  6
CONTINUOUS
 10
5.2294745793
 20
5.5754858317
 11
5.2319831431
 21
5.5754858317
  0
LINE
  5
281
100
AcDbEntity
  8
0
100
AcDbLine
 62
6
  6
CONTINUOUS
 10
5.2308145793
 20
5.5768258317
 11
5.9508145793
 21
5.5768258317
  0
LINE
  5
282
100
AcDbEntity
  8
0
100
AcDbLine
 62
6
  6
CONTINUOUS
 10
5.9903308033
 20
5.516669289
 11
5.9521545793
 21
5.5387398561
  0
ARC
  5
283
100
AcDbEntity
  8
0
100
AcDbCircle
 62
6
  6
CONTINUOUS
 10
5.1276838739
 20
3.9698258317
 40
0.01
100
AcDbArc
 50
89.9999989652
 51
176.2699734129
  0
ARC
  5
284
100
AcDbEntity
  8
0
100
AcDbCircle
 62
6
  6
CONTINUOUS
 10
5.0695332923
 20
3.0778550469
 40
0.01
100
AcDbArc
 50
176.2699734399
 51
216.7536797553
  0
ARC
  5
285
100
AcDbEntity
  8
0
100
AcDbCircle
 62
6
  6
CONTINUOUS
 10
5.1233272632
 20
3.0058258317
 40
0.01
100
AcDbArc
 50
216.7536810612
 51
270.0000029755
  0
ARC
  5
286
100
AcDbEntity
  8
0
100
AcDbCircle
 62
9
  6
CONTINUOUS
 10
5.5265299177
 20
4.5117913544
 40
0.4642821227
100
AcDbArc
 50
352.7987051904
 51
357.6539188493
  0
ARC
  5
287
100
AcDbEntity
  8
0
100
AcDbCircle
 62
9
  6
CONTINUOUS
 10
5.5279162681
 20
4.5116316535
 40
0.4628866889
100
AcDbArc
 50
351.2576396889
 51
352.7968057183
  0
ARC
  5
288
100
AcDbEntity
  8
0
100
AcDbCircle
 62
6
  6
CONTINUOUS
 10
5.5855911948
 20
4.3053023752
 40
0.1350589146
100
AcDbArc
 50
205.9372191645
 51
206.4427550499
  0
ARC
  5
289
100
AcDbEntity
  8
0
100
AcDbCircle
 62
6
  6
CONTINUOUS
 10
5.2403871765
 20
5.5521555219
 40
0.0247753294
100
AcDbArc
 50
115.0369053346
 51
116.7028231499
  0
ARC
  5
28A
100
AcDbEntity
  8
0
100
AcDbCircle
 62
6
  6
CONTINUOUS
 10
6.0539452846
 20
3.9698258317
 40
0.01
100
AcDbArc
 50
3.7300265871
 51
90.0000010348
  0
ARC
  5
28B
100
AcDbEntity
  8
0
100
AcDbCircle
 62
6
  6
CONTINUOUS
 10
6.1120958662
 20
3.0778550469
 40
0.01
100
AcDbArc
 50
323.2463202447
 51
3.7300265601
  0
ARC
  5
28C
100
AcDbEntity
  8
0
100
AcDbCircle
 62
6
  6
CONTINUOUS
 10
6.0583018954
 20
3.0058258317
 40
0.01
100
AcDbArc
 50
269.9999970245
 51
323.2463189388
  0
ARC
  5
28D
100
AcDbEntity
  8
0
100
AcDbCircle
 62
6
  6
CONTINUOUS
 10
5.5908145793
 20
4.5118258317
 40
0.52
100
AcDbArc
 50
204.6800190935
 51
215.3199809065
  0
ARC
  5
28E
100
AcDbEntity
  8
0
100
AcDbCircle
 62
6
  6
CONTINUOUS
 10
5.5908145793
 20
4.5118258317
 40
0.52
100
AcDbArc
 50
144.6800190935
 51
155.3199809065
  0
ARC
  5
28F
100
AcDbEntity
  8
0
100
AcDbCircle
 62
6
  6
CONTINUOUS
 10
5.5908145793
 20
4.5118258317
 40
0.52
100
AcDbArc
 50
324.6800190935
 51
335.3199809065
  0
ARC
  5
290
100
AcDbEntity
  8
0
100
AcDbCircle
 62
6
  6
CONTINUOUS
 10
5.5908145793
 20
4.5118258317
 40
0.52
100
AcDbArc
 50
24.6800190935
 51
35.3199809065
  0
ARC
  5
291
100
AcDbEntity
  8
0
100
AcDbCircle
 62
9
  6
CONTINUOUS
 10
5.5908145793
 20
4.5118258317
 40
0.5029629131
100
AcDbArc
 50
200.0434330167
 51
217.1955585306
  0
ARC
  5
292
100
AcDbEntity
  8
0
100
AcDbCircle
 62
9
  6
CONTINUOUS
 10
5.5908145793
 20
4.5118258317
 40
0.5029629131
100
AcDbArc
 50
142.8044546075
 51
159.9565669833
  0
ARC
  5
293
100
AcDbEntity
  8
0
100
AcDbCircle
 62
9
  6
CONTINUOUS
 10
5.5908145793
 20
4.5118258317
 40
0.5029629131
100
AcDbArc
 50
20.0434330167
 51
37.1955585306
  0
ARC
  5
294
100
AcDbEntity
  8
0
100
AcDbCircle
 62
9
  6
CONTINUOUS
 10
5.5908145793
 20
4.5118258317
 40
0.5029629131
100
AcDbArc
 50
322.8044546075
 51
339.9565669833
  0
ARC
  5
295
100
AcDbEntity
  8
0
100
AcDbCircle
 62
6
  6
CONTINUOUS
 10
5.5908145793
 20
4.5118258317
 40
0.4704293994
100
AcDbArc
 50
148.4007841811
 51
211.5992158189
  0
ARC
  5
296
100
AcDbEntity
  8
0
100
AcDbCircle
 62
6
  6
CONTINUOUS
 10
5.5908145793
 20
4.5118258317
 40
0.4704293994
100
AcDbArc
 50
328.4007841811
 51
31.5992158189
  0
ARC
  5
297
100
AcDbEntity
  8
0
100
AcDbCircle
 62
9
  6
CONTINUOUS
 10
5.6553884444
 20
4.5118312191
 40
0.4645734902
100
AcDbArc
 50
180.0006644289
 51
188.7084597082
  0
CIRCLE
  5
298
100
AcDbEntity
  8
0
100
AcDbCircle
 62
6
  6
CONTINUOUS
 10
5.5908145793
 20
4.5118258317
 40
0.4
  0
ARC
  5
299
100
AcDbEntity
  8
0
100
AcDbCircle
 62
6
  6
CONTINUOUS
 10
5.5908145793
 20
4.5118258317
 40
0.36134
100
AcDbArc
 50
31.5248677806
 51
76.5311676545
  0
CIRCLE
  5
29A
100
AcDbEntity
  8
0
100
AcDbCircle
 62
6
  6
CONTINUOUS
 10
5.5908145793
 20
4.5118258317
 40
0.36
  0
CIRCLE
  5
29B
100
AcDbEntity
  8
0
100
AcDbCircle
 62
9
  6
CONTINUOUS
 10
5.5908145793
 20
4.5118258317
 40
0.3262499118
  0
CIRCLE
  5
29C
100
AcDbEntity
  8
0
100
AcDbCircle
 62
6
  6
CONTINUOUS
 10
5.5908145793
 20
4.5118258317
 40
0.295
  0
ARC
  5
29D
100
AcDbEntity
  8
0
100
AcDbCircle
 62
6
  6
CONTINUOUS
 10
5.5965482068
 20
4.3050485464
 40
0.1344890224
100
AcDbArc
 50
333.5572705858
 51
334.0210268946
  0
ARC
  5
29E
100
AcDbEntity
  8
0
100
AcDbCircle
 62
6
  6
CONTINUOUS
 10
5.5908145793
 20
4.5118258317
 40
0.1344547981
100
AcDbArc
 50
307.8831300683
 51
232.1168699317
  0
SPLINE
  5
29F
100
AcDbEntity
  8
0
100
AcDbSpline
 62
6
  6
CONTINUOUS
 70
0
 71
3
 72
11
 73
7
 74
5
 42
0.0000001
 43
0.0000001
 44
0.0000000001
 12
-0.0039409221
 22
0.1997475588
 32
0.0
 13
-0.1078374211
 23
0.1681835567
 33
0.0
 40
0.0
 40
0.0
 40
0.0
 40
0.0
 40
0.2499989664
 40
0.5000007455
 40
0.7500020215
 40
1.0
 40
1.0
 40
1.0
 40
1.0
 10
5.9561201279
 20
4.5118258317
 30
0.0
 10
5.9557917191
 20
4.5284713928
 30
0.0
 10
5.9528508246
 20
4.5617624515
 30
0.0
 10
5.9416523908
 20
4.6105935464
 30
0.0
 10
5.9238656614
 20
4.6574291374
 30
0.0
 10
5.9078119826
 20
4.6867439822
 30
0.0
 10
5.8988256035
 20
4.7007591652
 30
0.0
 11
5.9561201279
 21
4.5118258317
 31
0.0
 11
5.9517196741
 21
4.5615780076
 31
0.0
 11
5.9405543242
 21
4.6102610036
 31
0.0
 11
5.922816596
 21
4.6569521388
 31
0.0
 11
5.8988256035
 21
4.7007591652
 31
0.0
  0
SPLINE
  5
2A0
100
AcDbEntity
  8
0
100
AcDbSpline
 62
6
  6
CONTINUOUS
 70
0
 71
3
 72
45
 73
41
 74
39
 42
0.0000001
 43
0.0000001
 44
0.0000000001
 12
-0.6565589633
 22
0.0548760295
 32
0.0
 13
0.0122379776
 23
-0.6587346073
 33
0.0
 40
0.0
 40
0.0
 40
0.0
 40
0.0
 40
0.0312305456
 40
0.0624851185
 40
0.0937481512
 40
0.1093794721
 40
0.1250084911
 40
0.1562588201
 40
0.1875055057
 40
0.2031300128
 40
0.2187550438
 40
0.2500038967
 40
0.281253564
 40
0.2968796686
 40
0.312505649
 40
0.3437546873
 40
0.3750034434
 40
0.4062520864
 40
0.4375011248
 40
0.4687504487
 40
0.4999997578
 40
0.531249219
 40
0.5624987544
 40
0.5937479431
 40
0.6093737285
 40
0.6249994916
 40
0.6562484194
 40
0.6874976368
 40
0.7031238594
 40
0.7187503787
 40
0.7500011079
 40
0.7812511309
 40
0.7968768095
 40
0.8125019191
 40
0.8437490151
 40
0.8749985863
 40
0.906254478
 40
0.9375161905
 40
0.9687700339
 40
1.0
 40
1.0
 40
1.0
 40
1.0
 10
5.631306602
 20
4.9097710492
 30
0.0
 10
5.6244717038
 20
4.9103423186
 30
0.0
 10
5.6107644561
 20
4.9111320321
 30
0.0
 10
5.5901678357
 20
4.9112576526
 30
0.0
 10
5.5730143456
 20
4.9104790995
 30
0.0
 10
5.559330478
 20
4.9093250409
 30
0.0
 10
5.5456838102
 20
4.9078173605
 30
0.0
 10
5.5287076774
 20
4.905272326
 30
0.0
 10
5.5118866824
 20
4.9018536778
 30
0.0
 10
5.4985514591
 20
4.898599562
 30
0.0
 10
5.4853046785
 20
4.895000489
 30
0.0
 10
5.4689272139
 20
4.8898597194
 30
0.0
 10
5.4528376035
 20
4.883877929
 30
0.0
 10
5.4401662398
 20
4.8785970496
 30
0.0
 10
5.4276367037
 20
4.8729883668
 30
0.0
 10
5.4122547659
 20
4.86536896
 30
0.0
 10
5.3942975067
 20
4.8552801241
 30
0.0
 10
5.3768890429
 20
4.8442707016
 30
0.0
 10
5.3600788874
 20
4.83236763
 30
0.0
 10
5.3439113765
 20
4.8196051237
 30
0.0
 10
5.3284311386
 20
4.8060169617
 30
0.0
 10
5.3136834245
 20
4.7916368751
 30
0.0
 10
5.2997075962
 20
4.7765059825
 30
0.0
 10
5.2887353775
 20
4.7633044773
 30
0.0
 10
5.2803831484
 20
4.7524102016
 30
0.0
 10
5.2723199041
 20
4.7413003755
 30
0.0
 10
5.2627913099
 20
4.7270222691
 30
0.0
 10
5.2540244472
 20
4.7122640428
 30
0.0
 10
5.2474843788
 20
4.7001942143
 30
0.0
 10
5.2412645575
 20
4.6879559073
 30
0.0
 10
5.2340968647
 20
4.672357515
 30
0.0
 10
5.2277590691
 20
4.6564040828
 30
0.0
 10
5.2231988208
 20
4.6434560807
 30
0.0
 10
5.2189823393
 20
4.6303927944
 30
0.0
 10
5.214360777
 20
4.6138611793
 30
0.0
 10
5.2098691709
 20
4.5937579123
 30
0.0
 10
5.2064463033
 20
4.573441778
 30
0.0
 10
5.2041055925
 20
4.5529717083
 30
0.0
 10
5.202849877
 20
4.532412886
 30
0.0
 10
5.2027392307
 20
4.5186832515
 30
0.0
 10
5.2028666279
 20
4.5118258317
 30
0.0
 11
5.631306602
 21
4.9097710492
 31
0.0
 11
5.6107645225
 21
4.9109553679
 31
0.0
 11
5.5901728845
 21
4.9110810392
 31
0.0
 11
5.5695965098
 21
4.9101463033
 31
0.0
 11
5.5593342779
 21
4.9092807528
 31
0.0
 11
5.5490993926
 21
4.9081500606
 31
0.0
 11
5.5287377207
 21
4.9050974354
 31
0.0
 11
5.5085633912
 21
4.9009969732
 31
0.0
 11
5.4985626838
 21
4.8985564847
 31
0.0
 11
5.4886282851
 21
4.8958574175
 31
0.0
 11
5.4689849979
 21
4.8896915905
 31
0.0
 11
5.4496868733
 21
4.8825165894
 31
0.0
 11
5.4401839282
 21
4.8785560547
 31
0.0
 11
5.4307872751
 21
4.8743497463
 31
0.0
 11
5.4123381537
 21
4.8652113053
 31
0.0
 11
5.3943889509
 21
4.8551266808
 31
0.0
 11
5.3769888502
 21
4.8441218203
 31
0.0
 11
5.3601860648
 21
4.8322244427
 31
0.0
 11
5.3440259315
 21
4.8194675221
 31
0.0
 11
5.328553256
 21
4.8058850023
 31
0.0
 11
5.3138120807
 21
4.791511749
 31
0.0
 11
5.2998424355
 21
4.7763874742
 31
0.0
 11
5.2866830368
 21
4.7605534763
 31
0.0
 11
5.2804192657
 21
4.7523832471
 31
0.0
 11
5.2743721503
 21
4.7440514066
 31
0.0
 11
5.2629436981
 21
4.7269263178
 31
0.0
 11
5.2524291706
 21
4.7092251665
 31
0.0
 11
5.2475244611
 21
4.700173248
 31
0.0
 11
5.2428598111
 21
4.6909950962
 31
0.0
 11
5.2342627666
 21
4.6722863313
 31
0.0
 11
5.2266615689
 21
4.6531518155
 31
0.0
 11
5.2232417275
 21
4.6434414751
 31
0.0
 11
5.2200795637
 21
4.6336445866
 31
0.0
 11
5.2145366701
 21
4.6138177153
 31
0.0
 11
5.2100476604
 21
4.5937243225
 31
0.0
 11
5.2066268772
 21
4.573417541
 31
0.0
 11
5.2042862199
 21
4.5529542465
 31
0.0
 11
5.2030312761
 21
4.5324009823
 31
0.0
 11
5.2028666279
 21
4.5118258317
 31
0.0
  0
SPLINE
  5
2A1
100
AcDbEntity
  8
0
100
AcDbSpline
 62
6
  6
CONTINUOUS
 70
0
 71
3
 72
85
 73
81
 74
79
 42
0.0000001
 43
0.0000001
 44
0.0000000001
 12
0.0219800023
 22
-1.1831193563
 32
0.0
 13
-0.0233418543
 23
1.1830932717
 33
0.0
 40
0.0
 40
0.0
 40
0.0
 40
0.0
 40
0.0156134115
 40
0.0312389673
 40
0.0390548051
 40
0.0468712334
 40
0.0546874677
 40
0.0625028165
 40
0.0781296293
 40
0.0937540344
 40
0.1093775392
 40
0.1250016831
 40
0.1406267697
 40
0.1562521773
 40
0.1718773575
 40
0.1875021323
 40
0.2031266237
 40
0.2187509211
 40
0.2265636307
 40
0.2343763992
 40
0.250000969
 40
0.265625593
 40
0.2734384347
 40
0.2812512422
 40
0.2968756881
 40
0.3125001383
 40
0.3203129125
 40
0.3281256634
 40
0.3359384039
 40
0.3437511686
 40
0.3593756632
 40
0.3750002031
 40
0.3906246538
 40
0.4062491035
 40
0.4218736694
 40
0.4374982996
 40
0.4531230486
 40
0.4687481177
 40
0.4843733891
 40
0.4999986631
 40
0.5078118837
 40
0.5156251306
 40
0.5234383975
 40
0.531251661
 40
0.5468768872
 40
0.5625018455
 40
0.5781266481
 40
0.5937513345
 40
0.6093758287
 40
0.6171886188
 40
0.6250014217
 40
0.6406259178
 40
0.656250474
 40
0.6718750825
 40
0.687499947
 40
0.7031250285
 40
0.7187501132
 40
0.7265632364
 40
0.7343763729
 40
0.7500014713
 40
0.7656264465
 40
0.7734394311
 40
0.7812523366
 40
0.7968767996
 40
0.8125012417
 40
0.8203140914
 40
0.8281269796
 40
0.8359399483
 40
0.8437530532
 40
0.8593782875
 40
0.8750032853
 40
0.8906273705
 40
0.9062504033
 40
0.9218737364
 40
0.9374991251
 40
0.9453138172
 40
0.9531296603
 40
0.9687607844
 40
0.9843866854
 40
1.0
 40
1.0
 40
1.0
 40
1.0
 10
5.2028666279
 20
4.5118258317
 30
0.0
 10
5.2029810222
 20
4.5056683219
 30
0.0
 10
5.203504807
 20
4.4933521199
 30
0.0
 10
5.2048922813
 20
4.4780038308
 30
0.0
 10
5.2064402826
 20
4.4657710183
 30
0.0
 10
5.2078200853
 20
4.4566245534
 30
0.0
 10
5.2094180186
 20
4.4475138446
 30
0.0
 10
5.2118387535
 20
4.4354232298
 30
0.0
 10
5.2154065897
 20
4.4204258857
 30
0.0
 10
5.2205434483
 20
4.402657311
 30
0.0
 10
5.2265247353
 20
4.3851557591
 30
0.0
 10
5.2333398502
 20
4.3679614864
 30
0.0
 10
5.2409726083
 20
4.3511134254
 30
0.0
 10
5.2494045758
 20
4.334650335
 30
0.0
 10
5.2586178365
 20
4.3186114913
 30
0.0
 10
5.2685940171
 20
4.3030360745
 30
0.0
 10
5.2793080089
 20
4.2879593944
 30
0.0
 10
5.2888314527
 20
4.275839403
 30
0.0
 10
5.2967937854
 20
4.2664286699
 30
0.0
 10
5.3049816162
 20
4.2572132849
 30
0.0
 10
5.3156305691
 20
4.2460691584
 30
0.0
 10
5.3268051433
 20
4.2354521084
 30
0.0
 10
5.3360440903
 20
4.2272907469
 30
0.0
 10
5.3454779026
 20
4.2193555365
 30
0.0
 10
5.3576272915
 20
4.2098696177
 30
0.0
 10
5.3702221079
 20
4.2009836286
 30
0.0
 10
5.3805464112
 20
4.1942478448
 30
0.0
 10
5.3884103214
 20
4.1893850711
 30
0.0
 10
5.3963900411
 20
4.1847147574
 30
0.0
 10
5.4071775743
 20
4.1787489261
 30
0.0
 10
5.4209297929
 20
4.1717865646
 30
0.0
 10
5.4378179367
 20
4.1642440081
 30
0.0
 10
5.455053179
 20
4.157531662
 30
0.0
 10
5.4725956803
 20
4.1516691473
 30
0.0
 10
5.4904033885
 20
4.1466695465
 30
0.0
 10
5.5084338099
 20
4.1425441042
 30
0.0
 10
5.5266445894
 20
4.1393049938
 30
0.0
 10
5.5449925839
 20
4.1369625758
 30
0.0
 10
5.5634331356
 20
4.1355203241
 30
0.0
 10
5.5788417247
 20
4.1350722049
 30
0.0
 10
5.5911693478
 20
4.1351681179
 30
0.0
 10
5.6004110587
 20
4.135467589
 30
0.0
 10
5.6096426362
 20
4.1359940381
 30
0.0
 10
5.621929689
 20
4.1369979277
 30
0.0
 10
5.6372368533
 20
4.1388180421
 30
0.0
 10
5.6554745808
 20
4.1419025523
 30
0.0
 10
5.6735378913
 20
4.1458836284
 30
0.0
 10
5.6913827111
 20
4.1507494404
 30
0.0
 10
5.7060363392
 20
4.1555323922
 30
0.0
 10
5.7176054564
 20
4.1597892148
 30
0.0
 10
5.7290655763
 20
4.1643313159
 30
0.0
 10
5.7431749433
 20
4.1705386031
 30
0.0
 10
5.7597164642
 20
4.1788144609
 30
0.0
 10
5.7758284998
 20
4.187899025
 30
0.0
 10
5.7914693554
 20
4.1977731784
 30
0.0
 10
5.8066012934
 20
4.2084107385
 30
0.0
 10
5.8187568077
 20
4.2178905961
 30
0.0
 10
5.8281883167
 20
4.2258293697
 30
0.0
 10
5.8374189019
 20
4.2340009401
 30
0.0
 10
5.8485710103
 20
4.2446428213
 30
0.0
 10
5.859179828
 20
4.2558263113
 30
0.0
 10
5.867323891
 20
4.2650809086
 30
0.0
 10
5.8752343496
 20
4.2745357039
 30
0.0
 10
5.884674969
 20
4.2867208831
 30
0.0
 10
5.8934952227
 20
4.299362352
 30
0.0
 10
5.9001653682
 20
4.3097293548
 30
0.0
 10
5.9049722655
 20
4.3176278167
 30
0.0
 10
5.9095798411
 20
4.3256443165
 30
0.0
 10
5.9154526365
 20
4.3364834387
 30
0.0
 10
5.9222811063
 20
4.3503037619
 30
0.0
 10
5.9296338554
 20
4.3672762478
 30
0.0
 10
5.9361262738
 20
4.3845954566
 30
0.0
 10
5.941738274
 20
4.40221898
 30
0.0
 10
5.9464568982
 20
4.4201027174
 30
0.0
 10
5.9496345409
 20
4.4351869625
 30
0.0
 10
5.9517175917
 20
4.4473394902
 30
0.0
 10
5.9534927881
 20
4.4595430605
 30
0.0
 10
5.95513297
 20
4.4748747237
 30
0.0
 10
5.9561715171
 20
4.4933403858
 30
0.0
 10
5.9562416091
 20
4.5056684959
 30
0.0
 10
5.9561201279
 20
4.5118258317
 30
0.0
 11
5.2028666279
 21
4.5118258317
 31
0.0
 11
5.2036509948
 21
4.493366772
 31
0.0
 11
5.2053155234
 21
4.4749517596
 31
0.0
 11
5.206476675
 21
4.4657762746
 31
0.0
 11
5.207856459
 21
4.4566304056
 31
0.0
 11
5.2094544061
 21
4.4475203541
 31
0.0
 11
5.211269989
 21
4.4384522367
 31
0.0
 11
5.2155494923
 21
4.4204626786
 31
0.0
 11
5.2206843413
 21
4.4027013073
 31
0.0
 11
5.2266636011
 21
4.3852072499
 31
0.0
 11
5.2334759304
 21
4.368019646
 31
0.0
 11
5.2411057269
 21
4.3511777633
 31
0.0
 11
5.2495348449
 21
4.3347209465
 31
0.0
 11
5.2587451041
 21
4.3186885409
 31
0.0
 11
5.2687170803
 21
4.3031190563
 31
0.0
 11
5.2794270677
 21
4.2880481262
 31
0.0
 11
5.2908504399
 21
4.273510766
 31
0.0
 11
5.2968219496
 21
4.2664531169
 31
0.0
 11
5.3029624685
 21
4.2595419191
 31
0.0
 11
5.3157356728
 21
4.2461745915
 31
0.0
 11
5.3291395749
 21
4.23343968
 31
0.0
 11
5.3360684662
 21
4.2273190023
 31
0.0
 11
5.3431435461
 21
4.2213679749
 31
0.0
 11
5.3577163765
 21
4.2099896013
 31
0.0
 11
5.3728236023
 21
4.1993309576
 31
0.0
 11
5.3805664896
 21
4.1942793787
 31
0.0
 11
5.388429627
 21
4.1894171453
 31
0.0
 11
5.3964085647
 21
4.1847473947
 31
0.0
 11
5.4044988281
 21
4.1802732263
 31
0.0
 11
5.4209940633
 21
4.171921932
 31
0.0
 11
5.4378758217
 21
4.1643823618
 31
0.0
 11
5.4551043874
 21
4.1576733007
 31
0.0
 11
5.4726398263
 21
4.1518129831
 31
0.0
 11
5.4904404637
 21
4.1468152507
 31
0.0
 11
5.5084637912
 21
4.1426918417
 31
0.0
 11
5.5266672921
 21
4.1394544678
 31
0.0
 11
5.5450078964
 21
4.1371126157
 31
0.0
 11
5.5634413677
 21
4.135671078
 31
0.0
 11
5.5819233213
 21
4.1351340518
 31
0.0
 11
5.5911686086
 21
4.1352060399
 31
0.0
 11
5.6004093591
 21
4.1355054182
 31
0.0
 11
5.6096399858
 21
4.1360317881
 31
0.0
 11
5.6188548985
 21
4.1367846777
 31
0.0
 11
5.6372152213
 21
4.1389681292
 31
0.0
 11
5.6554456065
 21
4.1420519982
 31
0.0
 11
5.6735015503
 21
4.1460311027
 31
0.0
 11
5.6913393491
 21
4.1508950754
 31
0.0
 11
5.7089154833
 21
4.1566323559
 31
0.0
 11
5.7175918264
 21
4.159824874
 31
0.0
 11
5.7261864819
 21
4.1632312328
 31
0.0
 11
5.7431100027
 21
4.17067646
 31
0.0
 11
5.7596448439
 21
4.178949224
 31
0.0
 11
5.7757498536
 21
4.1880305535
 31
0.0
 11
5.7913844383
 21
4.1979003483
 31
0.0
 11
5.8065103577
 21
4.2085337461
 31
0.0
 11
5.8210899919
 21
4.2199046294
 31
0.0
 11
5.8281631958
 21
4.2258584665
 31
0.0
 11
5.8350857898
 21
4.2319867919
 31
0.0
 11
5.8484623964
 21
4.2447511845
 31
0.0
 11
5.8611870603
 21
4.2581653881
 31
0.0
 11
5.8672947261
 21
4.2651059771
 31
0.0
 11
5.873227181
 21
4.2721967886
 31
0.0
 11
5.8845509054
 21
4.2868121497
 31
0.0
 11
5.8951303667
 21
4.30197492
 31
0.0
 11
5.9001327035
 21
4.3097498175
 31
0.0
 11
5.9049390206
 21
4.3176474478
 31
0.0
 11
5.9095459999
 21
4.3256631044
 31
0.0
 11
5.9139504071
 21
4.333792015
 31
0.0
 11
5.9221409558
 21
4.3503686305
 31
0.0
 11
5.9294906546
 21
4.3673345035
 31
0.0
 11
5.935979711
 21
4.3846466708
 31
0.0
 11
5.9415893259
 21
4.4022621515
 31
0.0
 11
5.9463057391
 21
4.4201378761
 31
0.0
 11
5.9501167842
 21
4.4382307465
 31
0.0
 11
5.9516789918
 21
4.4473451433
 31
0.0
 11
5.9530104178
 21
4.4564974773
 31
0.0
 11
5.9549782618
 21
4.4748891775
 31
0.0
 11
5.956016145
 21
4.4933505221
 31
0.0
 11
5.9561201279
 21
4.5118258317
 31
0.0
  0
SPLINE
  5
2A2
100
AcDbEntity
  8
0
100
AcDbSpline
 62
6
  6
CONTINUOUS
 70
0
 71
3
 72
13
 73
9
 74
7
 42
0.0000001
 43
0.0000001
 44
0.0000000001
 12
-0.0258552789
 22
0.0531589634
 32
0.0
 13
-0.0000090976
 23
0.0591132028
 33
0.0
 40
0.0
 40
0.0
 40
0.0
 40
0.0
 40
0.2521724015
 40
0.5028758162
 40
0.6277151842
 40
0.7521840845
 40
0.8762784966
 40
1.0
 40
1.0
 40
1.0
 40
1.0
 10
5.4641362455
 20
4.2462294906
 30
0.0
 10
5.4619629162
 20
4.2506978984
 30
0.0
 10
5.4581168859
 20
4.2598553528
 30
0.0
 10
5.454621121
 20
4.2717481872
 30
0.0
 10
5.4526529674
 20
4.2814066304
 30
0.0
 10
5.451594966
 20
4.2886920796
 30
0.0
 10
5.4509578203
 20
4.2960038228
 30
0.0
 10
5.4508149904
 20
4.3008880363
 30
0.0
 10
5.4508146152
 20
4.3033258944
 30
0.0
 11
5.4641362455
 21
4.2462294906
 31
0.0
 11
5.4583685552
 21
4.259975181
 31
0.0
 11
5.4541934541
 21
4.2741947953
 31
0.0
 11
5.4527204484
 21
4.2814259475
 31
0.0
 11
5.4516638346
 21
4.2887074399
 31
0.0
 11
5.4510277174
 21
4.2960154253
 31
0.0
 11
5.4508146152
 21
4.3033258944
 31
0.0
  0
SPLINE
  5
2A3
100
AcDbEntity
  8
0
100
AcDbSpline
 62
6
  6
CONTINUOUS
 70
0
 71
3
 72
36
 73
32
 74
30
 42
0.0000001
 43
0.0000001
 44
0.0000000001
 12
-0.1871896981
 22
0.0
 32
0.0
 13
-0.0559254157
 23
-0.1786402277
 33
0.0
 40
0.0
 40
0.0
 40
0.0
 40
0.0
 40
0.0643358637
 40
0.0965119845
 40
0.1286191028
 40
0.1606176005
 40
0.1925085905
 40
0.2242934473
 40
0.2559639714
 40
0.2875071825
 40
0.3189318851
 40
0.3502525194
 40
0.3814752065
 40
0.4125983602
 40
0.4436248556
 40
0.4745736249
 40
0.5054606626
 40
0.536296795
 40
0.5670881031
 40
0.5978436363
 40
0.6285796921
 40
0.6593106708
 40
0.6900483733
 40
0.7208020985
 40
0.7515806787
 40
0.7823961459
 40
0.81326037
 40
0.8751721452
 40
0.9062453003
 40
0.9374043717
 40
1.0
 40
1.0
 40
1.0
 40
1.0
 10
5.5908145793
 20
4.3723144918
 30
0.0
 10
5.5868002423
 20
4.3723144918
 30
0.0
 10
5.5807710151
 20
4.3719584309
 30
0.0
 10
5.5728260172
 20
4.370806411
 30
0.0
 10
5.5669349766
 20
4.3696107828
 30
0.0
 10
5.5611381131
 20
4.3680907313
 30
0.0
 10
5.5554515187
 20
4.3662646478
 30
0.0
 10
5.5498878596
 20
4.3641501578
 30
0.0
 10
5.5444587429
 20
4.3617647089
 30
0.0
 10
5.5391741952
 20
4.3591243806
 30
0.0
 10
5.5340406283
 20
4.3562460668
 30
0.0
 10
5.5290613842
 20
4.3531463374
 30
0.0
 10
5.5242390811
 20
4.3498411312
 30
0.0
 10
5.5195756512
 20
4.346346067
 30
0.0
 10
5.5150717419
 20
4.3426748855
 30
0.0
 10
5.5107270407
 20
4.3388389872
 30
0.0
 10
5.5065398478
 20
4.3348491002
 30
0.0
 10
5.5025084354
 20
4.3307157278
 30
0.0
 10
5.4986305178
 20
4.3264492254
 30
0.0
 10
5.4949040376
 20
4.3220581034
 30
0.0
 10
5.4913278793
 20
4.3175485843
 30
0.0
 10
5.4879001485
 20
4.3129266918
 30
0.0
 10
5.4846190312
 20
4.3081983118
 30
0.0
 10
5.4814825184
 20
4.3033693131
 30
0.0
 10
5.4784887897
 20
4.2984448939
 30
0.0
 10
5.4756381728
 20
4.2934282859
 30
0.0
 10
5.4720247208
 20
4.2866146325
 30
0.0
 10
5.4687003618
 20
4.2796329822
 30
0.0
 10
5.4656663426
 20
4.2725048403
 30
0.0
 10
5.4628179412
 20
4.2652547262
 30
0.0
 10
5.4609104853
 20
4.2597200844
 30
0.0
 10
5.4597435898
 20
4.2559927186
 30
0.0
 11
5.5908145793
 21
4.3723144918
 31
0.0
 11
5.5787919652
 21
4.3716138755
 31
0.0
 11
5.5728311938
 21
4.3707500495
 31
0.0
 11
5.5669411841
 21
4.3695544954
 31
0.0
 11
5.5611468323
 21
4.3680369116
 31
0.0
 11
5.5554625386
 21
4.3662132607
 31
0.0
 11
5.5499003353
 21
4.364100919
 31
0.0
 11
5.5444722547
 21
4.3617172625
 31
0.0
 11
5.5391896056
 21
4.3590795557
 31
0.0
 11
5.5340578865
 21
4.356204167
 31
0.0
 11
5.5290797988
 21
4.3531070327
 31
0.0
 11
5.524258026
 21
4.349804087
 31
0.0
 11
5.519595239
 21
4.3463112483
 31
0.0
 11
5.5150927011
 21
4.3426427116
 31
0.0
 11
5.5107489909
 21
4.3388093842
 31
0.0
 11
5.5065623852
 21
4.334821804
 31
0.0
 11
5.5025311609
 21
4.3306905092
 31
0.0
 11
5.498653594
 21
4.3264259992
 31
0.0
 11
5.4949279183
 21
4.3220369492
 31
0.0
 11
5.4913523081
 21
4.3175294596
 31
0.0
 11
5.487924933
 21
4.3129094361
 31
0.0
 11
5.4846439629
 21
4.3081827847
 31
0.0
 11
5.4815075687
 21
4.3033554093
 31
0.0
 11
5.4785143875
 21
4.2984325058
 31
0.0
 11
5.4756642215
 21
4.2934175006
 31
0.0
 11
5.472957052
 21
4.2883135479
 31
0.0
 11
5.4679716279
 21
4.2778514171
 31
0.0
 11
5.4656935905
 21
4.2724994937
 31
0.0
 11
5.4635608947
 21
4.2670707279
 31
0.0
 11
5.4597435898
 21
4.2559927186
 31
0.0
  0
LINE
  5
2A4
100
AcDbEntity
  8
0
100
AcDbLine
 62
6
  6
CONTINUOUS
 10
5.1912987202
 20
5.4095242908
 11
5.1908147227
 21
5.4089651142
  0
SPLINE
  5
2A5
100
AcDbEntity
  8
0
100
AcDbSpline
 62
6
  6
CONTINUOUS
 70
0
 71
3
 72
14
 73
10
 74
8
 42
0.0000001
 43
0.0000001
 44
0.0000000001
 12
0.0007385467
 22
-0.0004267243
 32
0.0
 13
-0.0000012879
 23
-0.0008529614
 33
0.0
 40
0.0
 40
0.0
 40
0.0
 40
0.0
 40
0.3291960377
 40
0.4701521213
 40
0.5966956272
 40
0.7104096142
 40
0.8134715735
 40
0.9087870745
 40
1.0
 40
1.0
 40
1.0
 40
1.0
 10
5.9516190876
 20
5.1818993663
 30
0.0
 10
5.9517001298
 20
5.181852541
 30
0.0
 10
5.9518131231
 20
5.1817800952
 30
0.0
 10
5.9519436917
 20
5.1816714598
 30
0.0
 10
5.9520198914
 20
5.1815940683
 30
0.0
 10
5.9520795157
 20
5.1815164046
 30
0.0
 10
5.9521224585
 20
5.1814382723
 30
0.0
 10
5.9521484459
 20
5.1813596075
 30
0.0
 10
5.9521542514
 20
5.1813064023
 30
0.0
 10
5.9521542123
 20
5.1812804686
 30
0.0
 11
5.9516190876
 21
5.1818993663
 31
0.0
 11
5.9518534045
 21
5.1817446419
 31
0.0
 11
5.9519454393
 21
5.1816672797
 31
0.0
 11
5.9520207085
 21
5.1815899174
 31
0.0
 11
5.9520792138
 21
5.1815125552
 31
0.0
 11
5.9521209619
 21
5.181435193
 31
0.0
 11
5.9521459592
 21
5.1813578308
 31
0.0
 11
5.9521542123
 21
5.1812804686
 31
0.0
  0
SPLINE
  5
2A6
100
AcDbEntity
  8
0
100
AcDbSpline
 62
6
  6
CONTINUOUS
 70
0
 71
3
 72
15
 73
11
 74
9
 42
0.0000001
 43
0.0000001
 44
0.0000000001
 12
0.0026567013
 22
0.0015411389
 32
0.0
 13
0.0000007305
 23
0.0030713466
 33
0.0
 40
0.0
 40
0.0
 40
0.0
 40
0.0
 40
0.1725500645
 40
0.3288609915
 40
0.469740502
 40
0.5963038075
 40
0.7101008413
 40
0.8132729385
 40
0.9086967761
 40
1.0
 40
1.0
 40
1.0
 40
1.0
 10
5.9888891823
 20
5.0602844964
 30
0.0
 10
5.989041987
 20
5.0603731377
 30
0.0
 10
5.9893290102
 20
5.0605495564
 30
0.0
 10
5.9897218646
 20
5.0608276262
 30
0.0
 10
5.9900553829
 20
5.0611059451
 30
0.0
 10
5.9903295792
 20
5.0613848032
 30
0.0
 10
5.9905443555
 20
5.0616646607
 30
0.0
 10
5.9906992553
 20
5.0619461921
 30
0.0
 10
5.9907931902
 20
5.0622296549
 30
0.0
 10
5.9908144021
 20
5.0624213997
 30
0.0
 10
5.9908144244
 20
5.0625148743
 30
0.0
 11
5.9888891823
 21
5.0602844964
 31
0.0
 11
5.9893398827
 21
5.0605632937
 31
0.0
 11
5.9897307199
 21
5.0608420909
 31
0.0
 11
5.9900616165
 21
5.0611208882
 31
0.0
 11
5.990332495
 21
5.0613996855
 31
0.0
 11
5.9905432779
 21
5.0616784827
 31
0.0
 11
5.9906938878
 21
5.0619572799
 31
0.0
 11
5.9907842639
 21
5.0622360771
 31
0.0
 11
5.9908144244
 21
5.0625148743
 31
0.0
  0
SPLINE
  5
2A7
100
AcDbEntity
  8
0
100
AcDbSpline
 62
6
  6
CONTINUOUS
 70
0
 71
3
 72
14
 73
10
 74
8
 42
0.0000001
 43
0.0000001
 44
0.0000000001
 12
0.0000413912
 22
-0.0593148159
 32
0.0
 13
-0.0259823565
 23
-0.0533213489
 33
0.0
 40
0.0
 40
0.0
 40
0.0
 40
0.0
 40
0.1236843945
 40
0.2477388484
 40
0.3721836391
 40
0.4970343752
 40
0.6223012911
 40
0.7479498072
 40
1.0
 40
1.0
 40
1.0
 40
1.0
 10
5.7308141845
 20
4.3034188536
 30
0.0
 10
5.730815891
 20
4.3009734146
 30
0.0
 10
5.7306760914
 20
4.296073937
 30
0.0
 10
5.7300399711
 20
4.2887389264
 30
0.0
 10
5.7289808085
 20
4.2814294385
 30
0.0
 10
5.7275020739
 20
4.2741688867
 30
0.0
 10
5.7256066303
 20
4.2669807676
 30
0.0
 10
5.7225324168
 20
4.2575197523
 30
0.0
 10
5.7196307202
 20
4.2506166896
 30
0.0
 10
5.7174477675
 20
4.2461368042
 30
0.0
 11
5.7308141845
 21
4.3034188536
 31
0.0
 11
5.7306056057
 21
4.2960855004
 31
0.0
 11
5.7299707964
 21
4.2887546656
 31
0.0
 11
5.7289129447
 21
4.2814494391
 31
0.0
 11
5.7274353932
 21
4.2741928369
 31
0.0
 11
5.7255417667
 21
4.2670080028
 31
0.0
 11
5.7232393644
 21
4.2599197395
 31
0.0
 11
5.7174477675
 21
4.2461368042
 31
0.0
  0
SPLINE
  5
2A8
100
AcDbEntity
  8
0
100
AcDbSpline
 62
6
  6
CONTINUOUS
 70
0
 71
3
 72
36
 73
32
 74
30
 42
0.0000001
 43
0.0000001
 44
0.0000000001
 12
-0.0563782157
 22
0.1776599046
 32
0.0
 13
-0.1863908391
 23
0.0
 33
0.0
 40
0.0
 40
0.0
 40
0.0
 40
0.0
 40
0.0625710127
 40
0.0937196463
 40
0.1247832654
 40
0.186679753
 40
0.217538448
 40
0.2483498431
 40
0.2791258039
 40
0.3098778894
 40
0.3406145658
 40
0.371345471
 40
0.402082707
 40
0.4328409282
 40
0.4636359875
 40
0.4944755501
 40
0.5253662549
 40
0.5563195447
 40
0.5873519561
 40
0.6184815751
 40
0.6497093505
 40
0.6810345787
 40
0.7124642854
 40
0.7440136009
 40
0.7756894237
 40
0.8074784008
 40
0.8393729546
 40
0.8713750314
 40
0.903485111
 40
0.9356628205
 40
1.0
 40
1.0
 40
1.0
 40
1.0
 10
5.7216454132
 20
4.2567548547
 30
0.0
 10
5.7204695326
 20
4.2604603081
 30
0.0
 10
5.7185502725
 20
4.2659620652
 30
0.0
 10
5.7156895448
 20
4.2731685807
 30
0.0
 10
5.712645471
 20
4.2802540744
 30
0.0
 10
5.7093134353
 20
4.2871933573
 30
0.0
 10
5.7056947991
 20
4.2939652056
 30
0.0
 10
5.702841461
 20
4.2989510344
 30
0.0
 10
5.699846329
 20
4.3038451757
 30
0.0
 10
5.6967095922
 20
4.3086443036
 30
0.0
 10
5.6934291895
 20
4.3133430459
 30
0.0
 10
5.6900032584
 20
4.3179356732
 30
0.0
 10
5.6864299955
 20
4.3224164086
 30
0.0
 10
5.6827075848
 20
4.3267793344
 30
0.0
 10
5.6788350014
 20
4.3310182336
 30
0.0
 10
5.6748099609
 20
4.335124314
 30
0.0
 10
5.6706303432
 20
4.3390873845
 30
0.0
 10
5.6662944043
 20
4.3428971264
 30
0.0
 10
5.6618005187
 20
4.3465429819
 30
0.0
 10
5.657148529
 20
4.3500136142
 30
0.0
 10
5.6523390808
 20
4.3532951835
 30
0.0
 10
5.647374154
 20
4.3563722357
 30
0.0
 10
5.6422562498
 20
4.3592290801
 30
0.0
 10
5.6369887234
 20
4.3618492984
 30
0.0
 10
5.6315781441
 20
4.3642163607
 30
0.0
 10
5.6260345176
 20
4.3663142669
 30
0.0
 10
5.6203692934
 20
4.368125749
 30
0.0
 10
5.614594965
 20
4.3696332918
 30
0.0
 10
5.6087275921
 20
4.3708189365
 30
0.0
 10
5.6008154845
 20
4.3719613932
 30
0.0
 10
5.5948118662
 20
4.3723144918
 30
0.0
 10
5.5908145793
 20
4.3723144918
 30
0.0
 11
5.7216454132
 21
4.2567548547
 31
0.0
 11
5.7178045656
 21
4.2677669213
 31
0.0
 11
5.7156626132
 21
4.2731631779
 31
0.0
 11
5.7133769862
 21
4.2784829249
 31
0.0
 11
5.7083801206
 21
4.2888815921
 31
0.0
 11
5.705669017
 21
4.2939543496
 31
0.0
 11
5.7028161479
 21
4.2989385995
 31
0.0
 11
5.6998215241
 21
4.3038312493
 31
0.0
 11
5.6966848531
 21
4.3086287542
 31
0.0
 11
5.6934046378
 21
4.3133257776
 31
0.0
 11
5.6899790832
 21
4.3179165392
 31
0.0
 11
5.6864063941
 21
4.3223952587
 31
0.0
 11
5.6826847754
 21
4.3267561559
 31
0.0
 11
5.6788124374
 21
4.3309930941
 31
0.0
 11
5.6747876342
 21
4.3350971043
 31
0.0
 11
5.6706086404
 21
4.3390578657
 31
0.0
 11
5.6662737309
 21
4.3428650494
 31
0.0
 11
5.6617811805
 21
4.3465083261
 31
0.0
 11
5.6571297183
 21
4.349976799
 31
0.0
 11
5.6523208489
 21
4.3532561015
 31
0.0
 11
5.6473571248
 21
4.3563305569
 31
0.0
 11
5.6422411004
 21
4.359184486
 31
0.0
 11
5.6369753735
 21
4.3618022027
 31
0.0
 11
5.6315657891
 21
4.3641674922
 31
0.0
 11
5.6260236352
 21
4.3662632544
 31
0.0
 11
5.6203607197
 21
4.3680723042
 31
0.0
 11
5.6145888504
 21
4.3695774567
 31
0.0
 11
5.6087224347
 21
4.3707630735
 31
0.0
 11
5.6027862963
 21
4.371619712
 31
0.0
 11
5.5908145793
 21
4.3723144918
 31
0.0
  0
SPLINE
  5
2A9
100
AcDbEntity
  8
0
100
AcDbSpline
 62
6
  6
CONTINUOUS
 70
0
 71
3
 72
42
 73
38
 74
36
 42
0.0000001
 43
0.0000001
 44
0.0000000001
 12
0.3999457776
 22
0.0113668965
 32
0.0
 13
0.3464726736
 23
0.2001062663
 33
0.0
 40
0.0
 40
0.0
 40
0.0
 40
0.0
 40
0.0949365469
 40
0.1890845954
 40
0.2814907905
 40
0.3713451225
 40
0.4578568904
 40
0.5402351508
 40
0.6177338834
 40
0.6896555636
 40
0.7233219719
 40
0.7553567899
 40
0.7856844947
 40
0.8142381643
 40
0.8409561915
 40
0.8657771346
 40
0.8886423679
 40
0.9095043445
 40
0.928318527
 40
0.9369439013
 40
0.9450409362
 40
0.952605601
 40
0.9596346849
 40
0.9661250703
 40
0.9720737535
 40
0.977477892
 40
0.9823348794
 40
0.9866424876
 40
0.9903999552
 40
0.9920728439
 40
0.9936088849
 40
0.9950085545
 40
0.996272533
 40
0.9974018021
 40
0.998397805
 40
0.9992627257
 40
1.0
 40
1.0
 40
1.0
 40
1.0
 10
5.5908145793
 20
5.3375333317
 30
0.0
 10
5.6034710696
 20
5.337893043
 30
0.0
 10
5.6286789315
 20
5.3386094772
 30
0.0
 10
5.6662056755
 20
5.3396856553
 30
0.0
 10
5.7030543293
 20
5.3407617544
 30
0.0
 10
5.7388841084
 20
5.3418374342
 30
0.0
 10
5.7733758627
 20
5.3429126839
 30
0.0
 10
5.8062189476
 20
5.3439873716
 30
0.0
 10
5.8371150939
 20
5.3450612416
 30
0.0
 10
5.8615161902
 20
5.345974146
 30
0.0
 10
5.8798561017
 20
5.3467096097
 30
0.0
 10
5.8926520471
 20
5.3472488289
 30
0.0
 10
5.9047654797
 20
5.347787933
 30
0.0
 10
5.9161690829
 20
5.3483268666
 30
0.0
 10
5.9268373975
 20
5.3488655196
 30
0.0
 10
5.9367460349
 20
5.3494038356
 30
0.0
 10
5.9458724361
 20
5.3499418402
 30
0.0
 10
5.9541962366
 20
5.350479346
 30
0.0
 10
5.9606218294
 20
5.350938938
 30
0.0
 10
5.9653468315
 20
5.3513093617
 30
0.0
 10
5.9685747499
 20
5.3515790065
 30
0.0
 10
5.97158899
 20
5.3518485621
 30
0.0
 10
5.9743880484
 20
5.3521180028
 30
0.0
 10
5.9769705273
 20
5.3523872975
 30
0.0
 10
5.9793350378
 20
5.3526564033
 30
0.0
 10
5.9814801965
 20
5.3529252682
 30
0.0
 10
5.9834046545
 20
5.3531937887
 30
0.0
 10
5.9851071715
 20
5.3534619208
 30
0.0
 10
5.9863853862
 20
5.3536929229
 30
0.0
 10
5.9872955294
 20
5.3538798642
 30
0.0
 10
5.9878952868
 20
5.3540145087
 30
0.0
 10
5.9884390491
 20
5.3541490553
 30
0.0
 10
5.9889267917
 20
5.3542834913
 30
0.0
 10
5.9893585029
 20
5.3544177846
 30
0.0
 10
5.9897342379
 20
5.3545519089
 30
0.0
 10
5.9900540274
 20
5.3546858208
 30
0.0
 10
5.9902449764
 20
5.3547824721
 30
0.0
 10
5.9903301248
 20
5.3548316499
 30
0.0
 11
5.5908145793
 21
5.3375333317
 31
0.0
 11
5.628784004
 21
5.3386140938
 31
0.0
 11
5.6664377935
 21
5.339695641
 31
0.0
 11
5.7033943732
 21
5.3407767982
 31
0.0
 11
5.7393294883
 21
5.3418578364
 31
0.0
 11
5.7739265871
 21
5.342938995
 31
0.0
 11
5.8068689913
 21
5.3440201584
 31
0.0
 11
5.8378579449
 21
5.3451012845
 31
0.0
 11
5.8666140157
 21
5.3461824256
 31
0.0
 11
5.880073339
 21
5.3467230062
 31
0.0
 11
5.8928792979
 21
5.3472635901
 31
0.0
 11
5.9050015857
 21
5.3478041746
 31
0.0
 11
5.9164133199
 21
5.3483447575
 31
0.0
 11
5.9270897201
 21
5.3488853372
 31
0.0
 11
5.9370060366
 21
5.3494259118
 31
0.0
 11
5.9461385982
 21
5.3499664804
 31
0.0
 11
5.9544681046
 21
5.3505070446
 31
0.0
 11
5.961976362
 21
5.351047607
 31
0.0
 11
5.9654168368
 21
5.3513178884
 31
0.0
 11
5.9686452251
 21
5.3515881702
 31
0.0
 11
5.9716598102
 21
5.3518584528
 31
0.0
 11
5.9744591799
 21
5.3521287362
 31
0.0
 11
5.9770419262
 21
5.3523990208
 31
0.0
 11
5.979406641
 21
5.3526693066
 31
0.0
 11
5.9815519161
 21
5.3529395939
 31
0.0
 11
5.9834763435
 21
5.3532098829
 31
0.0
 11
5.9851785227
 21
5.3534801736
 31
0.0
 11
5.9866574154
 21
5.3537504662
 31
0.0
 11
5.9873129645
 21
5.3538856131
 31
0.0
 11
5.987912502
 21
5.3540207604
 31
0.0
 11
5.9884559679
 21
5.354155908
 31
0.0
 11
5.9889433024
 21
5.3542910559
 31
0.0
 11
5.9893744453
 21
5.3544262041
 31
0.0
 11
5.9897493367
 21
5.3545613525
 31
0.0
 11
5.9900679165
 21
5.3546965011
 31
0.0
 11
5.9903301248
 21
5.3548316499
 31
0.0
  0
SPLINE
  5
2AA
100
AcDbEntity
  8
0
100
AcDbSpline
 62
6
  6
CONTINUOUS
 70
0
 71
3
 72
50
 73
46
 74
44
 42
0.0000001
 43
0.0000001
 44
0.0000000001
 12
0.0000263529
 22
-0.400878603
 32
0.0
 13
-0.4007167953
 23
-0.0113888097
 33
0.0
 40
0.0
 40
0.0
 40
0.0
 40
0.0
 40
0.0001750202
 40
0.0003579561
 40
0.0005557666
 40
0.0007739822
 40
0.0010167332
 40
0.0012870191
 40
0.0015870071
 40
0.0019182751
 40
0.0026788252
 40
0.0035752372
 40
0.0046112216
 40
0.0057891094
 40
0.007110426
 40
0.0085761996
 40
0.0101871375
 40
0.0119437302
 40
0.0158950462
 40
0.0204315131
 40
0.0255517328
 40
0.0312532287
 40
0.0375331544
 40
0.0443884213
 40
0.0518157755
 40
0.0598118473
 40
0.0683728907
 40
0.0774935132
 40
0.0973895137
 40
0.1194516717
 40
0.1436311982
 40
0.1698717449
 40
0.1981068733
 40
0.2282693128
 40
0.260290401
 40
0.2940912481
 40
0.3295881416
 40
0.3666972844
 40
0.445395575
 40
0.5294296683
 40
0.6179936101
 40
0.7102241262
 40
0.8052524696
 40
0.9021905838
 40
1.0
 40
1.0
 40
1.0
 40
1.0
 10
5.9908145791
 20
5.0875301029
 30
0.0
 10
5.9908145807
 20
5.0875067156
 30
0.0
 10
5.9908092724
 20
5.087458737
 30
0.0
 10
5.9907857445
 20
5.0873878149
 30
0.0
 10
5.9907469556
 20
5.0873173736
 30
0.0
 10
5.9906931647
 20
5.087247351
 30
0.0
 10
5.9906244765
 20
5.0871775787
 30
0.0
 10
5.9905409044
 20
5.0871079437
 30
0.0
 10
5.9904424338
 20
5.0870383639
 30
0.0
 10
5.9902837912
 20
5.0869410991
 30
0.0
 10
5.990046225
 20
5.0868212288
 30
0.0
 10
5.9897137527
 20
5.0866830487
 30
0.0
 10
5.9893216789
 20
5.0865446568
 30
0.0
 10
5.9888699663
 20
5.0864060677
 30
0.0
 10
5.988358551
 20
5.0862673237
 30
0.0
 10
5.987787445
 20
5.0861284575
 30
0.0
 10
5.9871566745
 20
5.085989485
 30
0.0
 10
5.9861978852
 20
5.0857964279
 30
0.0
 10
5.9848497158
 20
5.0855579425
 30
0.0
 10
5.9830524084
 20
5.0852812155
 30
0.0
 10
5.9810188696
 20
5.0850040542
 30
0.0
 10
5.9787505003
 20
5.0847265291
 30
0.0
 10
5.9762487566
 20
5.084448747
 30
0.0
 10
5.9735151269
 20
5.0841707642
 30
0.0
 10
5.9705511058
 20
5.0838926257
 30
0.0
 10
5.9673582343
 20
5.083614368
 30
0.0
 10
5.9639383073
 20
5.0833360293
 30
0.0
 10
5.9589315121
 20
5.0829536203
 30
0.0
 10
5.9521224812
 20
5.0824791728
 30
0.0
 10
5.9433021414
 20
5.0819242898
 30
0.0
 10
5.9336325098
 20
5.0813689476
 30
0.0
 10
5.9231367864
 20
5.0808132457
 30
0.0
 10
5.9118405733
 20
5.0802571749
 30
0.0
 10
5.8997710709
 20
5.0797008266
 30
0.0
 10
5.8869571082
 20
5.0791443483
 30
0.0
 10
5.8734296956
 20
5.0785877131
 30
0.0
 10
5.8592218464
 20
5.0780309079
 30
0.0
 10
5.8390178083
 20
5.0772734902
 30
0.0
 10
5.8123302819
 20
5.0763328698
 30
0.0
 10
5.7787688047
 20
5.0752239693
 30
0.0
 10
5.7433981558
 20
5.0741144671
 30
0.0
 10
5.7065577165
 20
5.0730044026
 30
0.0
 10
5.6685977922
 20
5.0718938747
 30
0.0
 10
5.6298920734
 20
5.0707832315
 30
0.0
 10
5.6038792045
 20
5.0700439198
 30
0.0
 10
5.5908145793
 20
5.0696726089
 30
0.0
 11
5.9908145791
 21
5.0875301029
 31
0.0
 11
5.9908070361
 21
5.0874603477
 31
0.0
 11
5.9907844031
 21
5.0873905925
 31
0.0
 11
5.9907466882
 21
5.0873208375
 31
0.0
 11
5.9906938996
 21
5.0872510825
 31
0.0
 11
5.9906260453
 21
5.0871813276
 31
0.0
 11
5.9905431334
 21
5.0871115728
 31
0.0
 11
5.990445172
 21
5.087041818
 31
0.0
 11
5.9903321691
 21
5.0869720633
 31
0.0
 11
5.9900610713
 21
5.0868325541
 31
0.0
 11
5.9897299045
 21
5.0866930451
 31
0.0
 11
5.9893387336
 21
5.0865535364
 31
0.0
 11
5.988887623
 21
5.0864140279
 31
0.0
 11
5.9883766373
 21
5.0862745195
 31
0.0
 11
5.9878058413
 21
5.0861350114
 31
0.0
 11
5.9871752996
 21
5.0859955033
 31
0.0
 11
5.9864850767
 21
5.0858559954
 31
0.0
 11
5.9849258461
 21
5.08557698
 31
0.0
 11
5.983128805
 21
5.0852979648
 31
0.0
 11
5.9810952707
 21
5.0850189497
 31
0.0
 11
5.9788267573
 21
5.0847399343
 31
0.0
 11
5.976324779
 21
5.0844609184
 31
0.0
 11
5.9735908501
 21
5.0841819017
 31
0.0
 11
5.9706264849
 21
5.0839028839
 31
0.0
 11
5.9674331975
 21
5.0836238647
 31
0.0
 11
5.9640126196
 21
5.0833448439
 31
0.0
 11
5.9603670193
 21
5.0830658215
 31
0.0
 11
5.9524106849
 21
5.0825077722
 31
0.0
 11
5.9435840614
 21
5.0819497175
 31
0.0
 11
5.9339070846
 21
5.0813916581
 31
0.0
 11
5.9234026243
 21
5.0808335949
 31
0.0
 11
5.9120975313
 21
5.0802755294
 31
0.0
 11
5.9000189399
 21
5.079717463
 31
0.0
 11
5.8871945074
 21
5.0791593975
 31
0.0
 11
5.8736559678
 21
5.0786013358
 31
0.0
 11
5.8594369695
 21
5.0780432817
 31
0.0
 11
5.8445711785
 21
5.0774852388
 31
0.0
 11
5.8130424648
 21
5.0763691781
 31
0.0
 11
5.7793734882
 21
5.0752530907
 31
0.0
 11
5.7438876465
 21
5.0741369846
 31
0.0
 11
5.7069312527
 21
5.0730209755
 31
0.0
 11
5.6688527769
 21
5.0719048576
 31
0.0
 11
5.6300084041
 21
5.0707883327
 31
0.0
 11
5.5908145793
 21
5.0696726089
 31
0.0
  0
SPLINE
  5
2AB
100
AcDbEntity
  8
0
100
AcDbSpline
 62
6
  6
CONTINUOUS
 70
0
 71
3
 72
50
 73
46
 74
44
 42
0.0000001
 43
0.0000001
 44
0.0000000001
 12
-0.000026886
 22
-0.40087858
 32
0.0
 13
-0.4007167724
 23
-0.011388809
 33
0.0
 40
0.0
 40
0.0
 40
0.0
 40
0.0
 40
0.0001750227
 40
0.0003579657
 40
0.0005557868
 40
0.0007740152
 40
0.0010167804
 40
0.0012870812
 40
0.0015870844
 40
0.0019183674
 40
0.0026789469
 40
0.0035753865
 40
0.0046113965
 40
0.0057893077
 40
0.0071106455
 40
0.0085764385
 40
0.0101873938
 40
0.0119440024
 40
0.0158953461
 40
0.0204318715
 40
0.0255522115
 40
0.0312538635
 40
0.0375339542
 40
0.0443893682
 40
0.0518168249
 40
0.0598129273
 40
0.0683739556
 40
0.0774945827
 40
0.0973905896
 40
0.1194526428
 40
0.1436318433
 40
0.16987193
 40
0.1981064179
 40
0.2282679374
 40
0.2602876862
 40
0.2940868907
 40
0.3295822947
 40
0.3666905412
 40
0.4453882313
 40
0.5294236196
 40
0.6179893265
 40
0.7102215141
 40
0.8052513437
 40
0.902190393
 40
1.0
 40
1.0
 40
1.0
 40
1.0
 10
5.9908145792
 20
5.1589601133
 30
0.0
 10
5.9908145776
 20
5.1589367257
 30
0.0
 10
5.9908092629
 20
5.1588887466
 30
0.0
 10
5.9907857261
 20
5.1588178246
 30
0.0
 10
5.990746929
 20
5.1587473834
 30
0.0
 10
5.9906931304
 20
5.1586773604
 30
0.0
 10
5.9906244348
 20
5.1586075876
 30
0.0
 10
5.9905408556
 20
5.1585379519
 30
0.0
 10
5.9904423783
 20
5.1584683713
 30
0.0
 10
5.990283727
 20
5.1583711054
 30
0.0
 10
5.990046151
 20
5.1582512333
 30
0.0
 10
5.9897136679
 20
5.1581130506
 30
0.0
 10
5.9893215843
 20
5.1579746558
 30
0.0
 10
5.9888698629
 20
5.1578360636
 30
0.0
 10
5.9883584396
 20
5.1576973164
 30
0.0
 10
5.9877873264
 20
5.157558447
 30
0.0
 10
5.9871565495
 20
5.1574194713
 30
0.0
 10
5.9861977528
 20
5.1572264098
 30
0.0
 10
5.9848495708
 20
5.1569879182
 30
0.0
 10
5.9830522364
 20
5.1567111858
 30
0.0
 10
5.9810186528
 20
5.1564340218
 30
0.0
 10
5.9787502245
 20
5.1561564945
 30
0.0
 10
5.9762484182
 20
5.155878711
 30
0.0
 10
5.973514733
 20
5.1556007274
 30
0.0
 10
5.9705506745
 20
5.1553225889
 30
0.0
 10
5.9673577874
 20
5.1550443309
 30
0.0
 10
5.9639378579
 20
5.1547659918
 30
0.0
 10
5.9589310633
 20
5.1543835856
 30
0.0
 10
5.952122045
 20
5.1539091434
 30
0.0
 10
5.9433017621
 20
5.1533542684
 30
0.0
 10
5.9336322498
 20
5.1527989326
 30
0.0
 10
5.9231367174
 20
5.1522432414
 30
0.0
 10
5.9118407746
 20
5.1516871841
 30
0.0
 10
5.89977166
 20
5.1511308534
 30
0.0
 10
5.886958219
 20
5.150574395
 30
0.0
 10
5.8734314045
 20
5.1500177787
 30
0.0
 10
5.8592240942
 20
5.1494609902
 30
0.0
 10
5.8390204559
 20
5.14870359
 30
0.0
 10
5.8123329583
 20
5.1477629593
 30
0.0
 10
5.7787711546
 20
5.1466540464
 30
0.0
 10
5.743399876
 20
5.1455445189
 30
0.0
 10
5.7065587812
 20
5.1444344343
 30
0.0
 10
5.6685983125
 20
5.1433238896
 30
0.0
 10
5.629892247
 20
5.1422132365
 30
0.0
 10
5.6038792293
 20
5.1414739205
 30
0.0
 10
5.5908145793
 20
5.1411026089
 30
0.0
 11
5.9908145792
 21
5.1589601133
 31
0.0
 11
5.990807027
 21
5.1588903581
 31
0.0
 11
5.9907843854
 21
5.1588206028
 31
0.0
 11
5.9907466623
 21
5.1587508474
 31
0.0
 11
5.9906938658
 21
5.1586810919
 31
0.0
 11
5.9906260039
 21
5.1586113364
 31
0.0
 11
5.9905430848
 21
5.1585415809
 31
0.0
 11
5.9904451165
 21
5.1584718253
 31
0.0
 11
5.9903321071
 21
5.1584020696
 31
0.0
 11
5.9900609972
 21
5.1582625582
 31
0.0
 11
5.9897298196
 21
5.1581230467
 31
0.0
 11
5.9893386387
 21
5.1579835352
 31
0.0
 11
5.9888875193
 21
5.1578440237
 31
0.0
 11
5.9883765257
 21
5.1577045122
 31
0.0
 11
5.9878057226
 21
5.1575650008
 31
0.0
 11
5.9871751744
 21
5.1574254896
 31
0.0
 11
5.9864849457
 21
5.1572859785
 31
0.0
 11
5.9849257049
 21
5.1570069572
 31
0.0
 11
5.983128641
 21
5.1567279371
 31
0.0
 11
5.9810950586
 21
5.1564489181
 31
0.0
 11
5.9788264827
 21
5.1561698998
 31
0.0
 11
5.9763244382
 21
5.1558908819
 31
0.0
 11
5.9735904503
 21
5.155611864
 31
0.0
 11
5.9706260441
 21
5.1553328457
 31
0.0
 11
5.9674327445
 21
5.1550538268
 31
0.0
 11
5.9640121728
 21
5.154774807
 31
0.0
 11
5.9603665707
 21
5.1544957861
 31
0.0
 11
5.9524102339
 21
5.1539377415
 31
0.0
 11
5.9435836526
 21
5.1533796934
 31
0.0
 11
5.9339068067
 21
5.1528216422
 31
0.0
 11
5.9234025312
 21
5.1522635892
 31
0.0
 11
5.9120976953
 21
5.1517055366
 31
0.0
 11
5.900019473
 21
5.1511474868
 31
0.0
 11
5.8871955778
 21
5.1505894419
 31
0.0
 11
5.8736576971
 21
5.1500314023
 31
0.0
 11
5.8594392964
 21
5.1494733679
 31
0.0
 11
5.8445738654
 21
5.1489153383
 31
0.0
 11
5.8130453943
 21
5.1477992785
 31
0.0
 11
5.7793759009
 21
5.1466831695
 31
0.0
 11
5.7438893541
 21
5.1455670371
 31
0.0
 11
5.7069322928
 21
5.1444510065
 31
0.0
 11
5.6688532236
 21
5.1433348705
 31
0.0
 11
5.6300084783
 21
5.1422183348
 31
0.0
 11
5.5908145793
 21
5.1411026089
 31
0.0
  0
SPLINE
  5
2AC
100
AcDbEntity
  8
0
100
AcDbSpline
 62
6
  6
CONTINUOUS
 70
0
 71
3
 72
38
 73
34
 74
32
 42
0.0000001
 43
0.0000001
 44
0.0000000001
 12
-0.0000309835
 22
-0.0769241729
 32
0.0
 13
-0.0768342383
 23
-0.0037187574
 33
0.0
 40
0.0
 40
0.0
 40
0.0
 40
0.0
 40
0.0007273926
 40
0.0014759895
 40
0.0031079852
 40
0.0050217224
 40
0.0072932431
 40
0.0099681531
 40
0.0130742575
 40
0.0166291856
 40
0.0206445955
 40
0.0251284972
 40
0.0300865791
 40
0.0355229935
 40
0.0414408428
 40
0.0547287905
 40
0.0699594753
 40
0.0871341535
 40
0.1062510861
 40
0.1273066619
 40
0.1502960373
 40
0.1752135245
 40
0.2020528392
 40
0.2614682732
 40
0.3284641306
 40
0.4029416347
 40
0.4429544619
 40
0.4847995952
 40
0.5739348738
 40
0.670213431
 40
0.7734468101
 40
0.8834405885
 40
1.0
 40
1.0
 40
1.0
 40
1.0
 10
5.9908140617
 20
5.2303903529
 30
0.0
 10
5.9908140542
 20
5.2303717016
 30
0.0
 10
5.9908107201
 20
5.2303337794
 30
0.0
 10
5.9907903917
 20
5.2302563837
 30
0.0
 10
5.9907371928
 20
5.230158201
 30
0.0
 10
5.9906372737
 20
5.2300463329
 30
0.0
 10
5.990500119
 20
5.22993532
 30
0.0
 10
5.9903254361
 20
5.2298246339
 30
0.0
 10
5.9901129421
 20
5.2297139392
 30
0.0
 10
5.9898624391
 20
5.2296031721
 30
0.0
 10
5.989573812
 20
5.2294923088
 30
0.0
 10
5.9892469943
 20
5.229381357
 30
0.0
 10
5.9888819493
 20
5.2292703297
 30
0.0
 10
5.9884786599
 20
5.2291592317
 30
0.0
 10
5.987865866
 20
5.2290050091
 30
0.0
 10
5.9870034944
 20
5.2288144307
 30
0.0
 10
5.9858528304
 20
5.2285931947
 30
0.0
 10
5.9845503537
 20
5.2283716331
 30
0.0
 10
5.9830966643
 20
5.2281498025
 30
0.0
 10
5.9814923524
 20
5.2279277803
 30
0.0
 10
5.9797380387
 20
5.2277056119
 30
0.0
 10
5.977834351
 20
5.2274833211
 30
0.0
 10
5.9750002944
 20
5.2271763051
 30
0.0
 10
5.9710890434
 20
5.2267961984
 30
0.0
 10
5.9659569749
 20
5.2263533766
 30
0.0
 10
5.9613173386
 20
5.225993028
 30
0.0
 10
5.9573191861
 20
5.2257029245
 30
0.0
 10
5.952945186
 20
5.2253994992
 30
0.0
 10
5.9471301767
 20
5.2250217424
 30
0.0
 10
5.9397421992
 20
5.2245772138
 30
0.0
 10
5.9318184922
 20
5.224132507
 30
0.0
 10
5.9233739936
 20
5.2236877871
 30
0.0
 10
5.9175719985
 20
5.2233995943
 30
0.0
 10
5.9145867473
 20
5.2232551089
 30
0.0
 11
5.9908140617
 21
5.2303903529
 31
0.0
 11
5.9908092331
 21
5.2303346076
 31
0.0
 11
5.9907947932
 21
5.2302788622
 31
0.0
 11
5.9907370864
 21
5.2301673714
 31
0.0
 11
5.9906409544
 21
5.2300558806
 31
0.0
 11
5.9905064106
 21
5.2299443896
 31
0.0
 11
5.9903334682
 21
5.2298328985
 31
0.0
 11
5.9901221405
 21
5.2297214072
 31
0.0
 11
5.9898724407
 21
5.2296099158
 31
0.0
 11
5.989584382
 21
5.2294984242
 31
0.0
 11
5.9892579778
 21
5.2293869323
 31
0.0
 11
5.9888932413
 21
5.2292754403
 31
0.0
 11
5.9884901858
 21
5.2291639479
 31
0.0
 11
5.9880488244
 21
5.2290524554
 31
0.0
 11
5.9870512787
 21
5.2288294694
 31
0.0
 11
5.9859010865
 21
5.228606483
 31
0.0
 11
5.9845988924
 21
5.2283834974
 31
0.0
 11
5.9831453421
 21
5.2281605135
 31
0.0
 11
5.9815410815
 21
5.2279375326
 31
0.0
 11
5.9797867562
 21
5.2277145555
 31
0.0
 11
5.9778830121
 21
5.2274915835
 31
0.0
 11
5.9758304948
 21
5.2272686176
 31
0.0
 11
5.9712818155
 21
5.2268227072
 31
0.0
 11
5.9661475403
 21
5.2263768093
 31
0.0
 11
5.9604357996
 21
5.2259308902
 31
0.0
 11
5.957365933
 21
5.225707912
 31
0.0
 11
5.954154764
 21
5.2254849156
 31
0.0
 11
5.9473126307
 21
5.2250388521
 31
0.0
 11
5.939919931
 21
5.2245927199
 31
0.0
 11
5.9319913271
 21
5.2241466348
 31
0.0
 11
5.9235419042
 21
5.2237007226
 31
0.0
 11
5.9145867473
 21
5.2232551089
 31
0.0
  0
SPLINE
  5
2AD
100
AcDbEntity
  8
0
100
AcDbSpline
 62
6
  6
CONTINUOUS
 70
0
 71
3
 72
50
 73
46
 74
44
 42
0.0000001
 43
0.0000001
 44
0.0000000001
 12
-0.0000072018
 22
-0.4008785764
 32
0.0
 13
-0.4007167679
 23
-0.0113888089
 33
0.0
 40
0.0
 40
0.0
 40
0.0
 40
0.0
 40
0.0001750312
 40
0.0003579835
 40
0.000555817
 40
0.0007740623
 40
0.0010168494
 40
0.0012871774
 40
0.0015872128
 40
0.0019185329
 40
0.0026791995
 40
0.0035757406
 40
0.0046118627
 40
0.0057898929
 40
0.007111353
 40
0.0085772677
 40
0.0101883406
 40
0.0119450588
 40
0.0158965831
 40
0.0204333049
 40
0.0255539693
 40
0.0312560178
 40
0.0375365175
 40
0.0443922933
 40
0.0518200048
 40
0.0598161953
 40
0.0683771891
 40
0.0774978503
 40
0.0973940405
 40
0.1194562308
 40
0.1436353395
 40
0.1698755965
 40
0.1981105839
 40
0.2282727974
 40
0.2602935499
 40
0.2940942934
 40
0.3295912634
 40
0.366700599
 40
0.4454000363
 40
0.5294354462
 40
0.6180005649
 40
0.7102299857
 40
0.8052551129
 40
0.9021909415
 40
1.0
 40
1.0
 40
1.0
 40
1.0
 10
5.9908145792
 20
5.3018201089
 30
0.0
 10
5.9908145788
 20
5.3017967202
 30
0.0
 10
5.9908092653
 20
5.3017487383
 30
0.0
 10
5.9907857271
 20
5.3016778125
 30
0.0
 10
5.9907469255
 20
5.3016073676
 30
0.0
 10
5.99069312
 20
5.3015373414
 30
0.0
 10
5.9906244149
 20
5.3014675654
 30
0.0
 10
5.9905408242
 20
5.3013979266
 30
0.0
 10
5.9904423333
 20
5.3013283429
 30
0.0
 10
5.9902836601
 20
5.3012310727
 30
0.0
 10
5.9900460528
 20
5.3011111957
 30
0.0
 10
5.9897135285
 20
5.3009730076
 30
0.0
 10
5.9893213997
 20
5.3008346076
 30
0.0
 10
5.9888696303
 20
5.3006960104
 30
0.0
 10
5.9883581581
 20
5.3005572583
 30
0.0
 10
5.9877869964
 20
5.3004183843
 30
0.0
 10
5.9871561728
 20
5.300279404
 30
0.0
 10
5.9861973214
 20
5.3000863379
 30
0.0
 10
5.9848490749
 20
5.2998478376
 30
0.0
 10
5.9830516473
 20
5.2995710945
 30
0.0
 10
5.9810179406
 20
5.2992939268
 30
0.0
 10
5.9787493607
 20
5.2990163953
 30
0.0
 10
5.9762473978
 20
5.2987386086
 30
0.0
 10
5.9735135751
 20
5.2984606228
 30
0.0
 10
5.9705494221
 20
5.2981824835
 30
0.0
 10
5.9673564938
 20
5.2979042243
 30
0.0
 10
5.9639365528
 20
5.2976258831
 30
0.0
 10
5.9589297334
 20
5.2972434818
 30
0.0
 10
5.952120667
 20
5.2967690492
 30
0.0
 10
5.9433003528
 20
5.2962141869
 30
0.0
 10
5.9336308118
 20
5.2956588513
 30
0.0
 10
5.9231352019
 20
5.2951031632
 30
0.0
 10
5.9118390768
 20
5.2945471052
 30
0.0
 10
5.8997696689
 20
5.2939907655
 30
0.0
 10
5.8869557958
 20
5.2934342907
 30
0.0
 10
5.8734284324
 20
5.2928776617
 30
0.0
 10
5.859220562
 20
5.2923208595
 30
0.0
 10
5.8390163361
 20
5.2915634361
 30
0.0
 10
5.8123284566
 20
5.2906228095
 30
0.0
 10
5.7787664955
 20
5.2895138927
 30
0.0
 10
5.743395662
 20
5.288404393
 30
0.0
 10
5.706555644
 20
5.2872943395
 30
0.0
 10
5.6685966034
 20
5.2861838408
 30
0.0
 10
5.6298916699
 20
5.2850732203
 30
0.0
 10
5.6038791559
 20
5.2843339184
 30
0.0
 10
5.5908145793
 20
5.2839626089
 30
0.0
 11
5.9908145792
 21
5.3018201089
 31
0.0
 11
5.990807029
 21
5.3017503501
 31
0.0
 11
5.9907843861
 21
5.3016805912
 31
0.0
 11
5.9907466589
 21
5.3016108324
 31
0.0
 11
5.9906938557
 21
5.3015410735
 31
0.0
 11
5.9906259847
 21
5.3014713147
 31
0.0
 11
5.9905430541
 21
5.3014015559
 31
0.0
 11
5.9904450722
 21
5.3013317971
 31
0.0
 11
5.9903320472
 21
5.3012620384
 31
0.0
 11
5.9900609011
 21
5.301122521
 31
0.0
 11
5.9897296817
 21
5.3009830039
 31
0.0
 11
5.9893384551
 21
5.3008434869
 31
0.0
 11
5.9888872873
 21
5.3007039702
 31
0.0
 11
5.9883762443
 21
5.3005644537
 31
0.0
 11
5.9878053921
 21
5.3004249376
 31
0.0
 11
5.9871747966
 21
5.3002854219
 31
0.0
 11
5.986484524
 21
5.3001459065
 31
0.0
 11
5.9849252111
 21
5.2998668771
 31
0.0
 11
5.9831280687
 21
5.2995878497
 31
0.0
 11
5.981094356
 21
5.2993088242
 31
0.0
 11
5.9788256206
 21
5.2990298004
 31
0.0
 11
5.9763234117
 21
5.2987507781
 31
0.0
 11
5.9735892783
 21
5.2984717571
 31
0.0
 11
5.9706247696
 21
5.2981927373
 31
0.0
 11
5.9674314347
 21
5.2979137183
 31
0.0
 11
5.9640108767
 21
5.2976347
 31
0.0
 11
5.9603652608
 21
5.2973556821
 31
0.0
 11
5.9524088498
 21
5.2967976461
 31
0.0
 11
5.9435822129
 21
5.2962396075
 31
0.0
 11
5.9339054036
 21
5.2956815636
 31
0.0
 11
5.9234010597
 21
5.2951235133
 31
0.0
 11
5.9120960235
 21
5.2945654582
 31
0.0
 11
5.9000175233
 21
5.2940074004
 31
0.0
 11
5.887193226
 21
5.2934493419
 31
0.0
 11
5.8736547287
 21
5.2928912852
 31
0.0
 11
5.8594357006
 21
5.2923332333
 31
0.0
 11
5.8445698334
 21
5.2917751893
 31
0.0
 11
5.8130406622
 21
5.2906591173
 31
0.0
 11
5.7793711603
 21
5.289543015
 31
0.0
 11
5.7438848493
 21
5.2884268995
 31
0.0
 11
5.7069288969
 21
5.2873109047
 31
0.0
 11
5.6688517123
 21
5.2861948266
 31
0.0
 11
5.6300082581
 21
5.2850783287
 31
0.0
 11
5.5908145793
 21
5.2839626089
 31
0.0
  0
SPLINE
  5
2AE
100
AcDbEntity
  8
0
100
AcDbSpline
 62
6
  6
CONTINUOUS
 70
0
 71
3
 72
50
 73
46
 74
44
 42
0.0000001
 43
0.0000001
 44
0.0000000001
 12
0.0000109243
 22
-0.4008785812
 32
0.0
 13
-0.4007167728
 23
-0.0113888091
 33
0.0
 40
0.0
 40
0.0
 40
0.0
 40
0.0
 40
0.0001750264
 40
0.0003579719
 40
0.0005557968
 40
0.0007740319
 40
0.0010168073
 40
0.0012871222
 40
0.0015871433
 40
0.0019184478
 40
0.0026790794
 40
0.0035755807
 40
0.0046116581
 40
0.0057896387
 40
0.0071110439
 40
0.0085768986
 40
0.0101879059
 40
0.011944553
 40
0.0158959175
 40
0.0204324172
 40
0.0255527548
 40
0.0312544235
 40
0.0375345452
 40
0.0443899993
 40
0.0518175001
 40
0.0598136455
 40
0.068374739
 40
0.0774954965
 40
0.0973919036
 40
0.1194544404
 40
0.1436341242
 40
0.1698750106
 40
0.1981105808
 40
0.2282732963
 40
0.2602944815
 40
0.2940956471
 40
0.329592955
 40
0.3667024673
 40
0.4454018668
 40
0.5294357608
 40
0.6179983858
 40
0.7102271032
 40
0.8052536038
 40
0.902190682
 40
1.0
 40
1.0
 40
1.0
 40
1.0
 10
5.990814579
 20
5.3732500984
 30
0.0
 10
5.9908145797
 20
5.3732267103
 30
0.0
 10
5.9908092686
 20
5.3731787298
 30
0.0
 10
5.9907857342
 20
5.3731078055
 30
0.0
 10
5.9907469368
 20
5.3730373622
 30
0.0
 10
5.9906931358
 20
5.3729673376
 30
0.0
 10
5.9906244357
 20
5.3728975633
 30
0.0
 10
5.9905408503
 20
5.3728279262
 30
0.0
 10
5.9904423652
 20
5.3727583443
 30
0.0
 10
5.9902837006
 20
5.3726610766
 30
0.0
 10
5.9900461052
 20
5.3725412027
 30
0.0
 10
5.9897135967
 20
5.3724030184
 30
0.0
 10
5.9893214855
 20
5.3722646223
 30
0.0
 10
5.9888697358
 20
5.372126029
 30
0.0
 10
5.9883582853
 20
5.371987281
 30
0.0
 10
5.9877871473
 20
5.371848411
 30
0.0
 10
5.9871563497
 20
5.371709435
 30
0.0
 10
5.9861975376
 20
5.3715163747
 30
0.0
 10
5.984849351
 20
5.3712778831
 30
0.0
 10
5.9830520177
 20
5.3710011497
 30
0.0
 10
5.9810184353
 20
5.3707239884
 30
0.0
 10
5.9787500006
 20
5.3704464636
 30
0.0
 10
5.9762481822
 20
5.3701686826
 30
0.0
 10
5.9735144813
 20
5.3698907013
 30
0.0
 10
5.9705504055
 20
5.3696125644
 30
0.0
 10
5.967357498
 20
5.3693343067
 30
0.0
 10
5.9639375366
 20
5.3690559663
 30
0.0
 10
5.9589306624
 20
5.3686735577
 30
0.0
 10
5.9521215085
 20
5.3681991108
 30
0.0
 10
5.9433010431
 20
5.3676442282
 30
0.0
 10
5.9336312952
 20
5.3670888774
 30
0.0
 10
5.9231354468
 20
5.3665331758
 30
0.0
 10
5.9118390927
 20
5.3659771063
 30
0.0
 10
5.8997694821
 20
5.3654207573
 30
0.0
 10
5.8869554278
 20
5.3648642745
 30
0.0
 10
5.8734279049
 20
5.3643076408
 30
0.0
 10
5.8592199091
 20
5.3637508354
 30
0.0
 10
5.8390156193
 20
5.3629934094
 30
0.0
 10
5.8123279233
 20
5.3620527925
 30
0.0
 10
5.7787665024
 20
5.3609438926
 30
0.0
 10
5.743396298
 20
5.3598344109
 30
0.0
 10
5.706556523
 20
5.3587243672
 30
0.0
 10
5.6685972256
 20
5.3576138586
 30
0.0
 10
5.6298919066
 20
5.3565032268
 30
0.0
 10
5.6038791907
 20
5.3557639194
 30
0.0
 10
5.5908145793
 20
5.3553926089
 30
0.0
 11
5.990814579
 21
5.3732500984
 31
0.0
 11
5.9908070321
 21
5.3731803412
 31
0.0
 11
5.990784393
 21
5.373110584
 31
0.0
 11
5.99074667
 21
5.3730408268
 31
0.0
 11
5.9906938713
 21
5.3729710696
 31
0.0
 11
5.9906260052
 21
5.3729013125
 31
0.0
 11
5.99054308
 21
5.3728315555
 31
0.0
 11
5.9904451039
 21
5.3727617985
 31
0.0
 11
5.9903320851
 21
5.3726920416
 31
0.0
 11
5.9900609529
 21
5.3725525279
 31
0.0
 11
5.9897297492
 21
5.3724130145
 31
0.0
 11
5.9893385403
 21
5.3722735014
 31
0.0
 11
5.9888873921
 21
5.3721339886
 31
0.0
 11
5.9883763707
 21
5.3719944762
 31
0.0
 11
5.9878055423
 21
5.3718549642
 31
0.0
 11
5.9871749728
 21
5.3717154526
 31
0.0
 11
5.9864847284
 21
5.3715759415
 31
0.0
 11
5.9849254791
 21
5.3712969207
 31
0.0
 11
5.9831284254
 21
5.371017902
 31
0.0
 11
5.9810948437
 21
5.370738885
 31
0.0
 11
5.9788262607
 21
5.3704598691
 31
0.0
 11
5.9763242034
 21
5.3701808535
 31
0.0
 11
5.9735901992
 21
5.3699018377
 31
0.0
 11
5.970625775
 21
5.3696228209
 31
0.0
 11
5.9674324581
 21
5.3693438027
 31
0.0
 11
5.9640118602
 21
5.3690647824
 31
0.0
 11
5.9603662058
 21
5.3687857599
 31
0.0
 11
5.9524097086
 21
5.3682277093
 31
0.0
 11
5.9435829336
 21
5.3676696524
 31
0.0
 11
5.9339058942
 21
5.3671115907
 31
0.0
 11
5.9234012983
 21
5.3665535257
 31
0.0
 11
5.9120960286
 21
5.365995459
 31
0.0
 11
5.9000173272
 21
5.3654373919
 31
0.0
 11
5.8871928565
 21
5.364879326
 31
0.0
 11
5.8736541899
 21
5.3643212638
 31
0.0
 11
5.8594350262
 21
5.3637632081
 31
0.0
 11
5.844569088
 21
5.3632051618
 31
0.0
 11
5.8130399315
 21
5.3620890926
 31
0.0
 11
5.7793710366
 21
5.3609730104
 31
0.0
 11
5.7438857244
 21
5.3598569253
 31
0.0
 11
5.7069300534
 21
5.3587409398
 31
0.0
 11
5.668852318
 21
5.3576248443
 31
0.0
 11
5.6300083626
 21
5.3565083315
 31
0.0
 11
5.5908145793
 21
5.3553926089
 31
0.0
  0
SPLINE
  5
2AF
100
AcDbEntity
  8
0
100
AcDbSpline
 62
6
  6
CONTINUOUS
 70
0
 71
3
 72
50
 73
46
 74
44
 42
0.0000001
 43
0.0000001
 44
0.0000000001
 12
-0.0000094582
 22
-0.4008785916
 32
0.0
 13
-0.4007167832
 23
-0.0113888093
 33
0.0
 40
0.0
 40
0.0
 40
0.0
 40
0.0
 40
0.0001750199
 40
0.0003579572
 40
0.0005557698
 40
0.0007739867
 40
0.0010167378
 40
0.0012870222
 40
0.0015870071
 40
0.0019182702
 40
0.0026788063
 40
0.0035751995
 40
0.0046111621
 40
0.0057890266
 40
0.0071103205
 40
0.008576074
 40
0.0101869959
 40
0.0119435788
 40
0.0158949015
 40
0.0204313792
 40
0.0255515761
 40
0.0312530273
 40
0.0375328978
 40
0.0443881109
 40
0.0518154246
 40
0.0598114808
 40
0.0683725051
 40
0.0774930642
 40
0.0973888658
 40
0.119450832
 40
0.1436302628
 40
0.1698706049
 40
0.1981054642
 40
0.2282676961
 40
0.2602886154
 40
0.2940891561
 40
0.3295857359
 40
0.3666946878
 40
0.4453926641
 40
0.5294272704
 40
0.6179921903
 40
0.7102235861
 40
0.8052524901
 40
0.902190722
 40
1.0
 40
1.0
 40
1.0
 40
1.0
 10
5.9908145794
 20
5.4446800979
 30
0.0
 10
5.9908145788
 20
5.4446567107
 30
0.0
 10
5.9908092667
 20
5.4446087325
 30
0.0
 10
5.9907857347
 20
5.4445378114
 30
0.0
 10
5.990746943
 20
5.444467371
 30
0.0
 10
5.9906931506
 20
5.4443973491
 30
0.0
 10
5.9906244617
 20
5.4443275774
 30
0.0
 10
5.9905408899
 20
5.444257943
 30
0.0
 10
5.9904424206
 20
5.4441883638
 30
0.0
 10
5.9902837808
 20
5.4440910999
 30
0.0
 10
5.9900462198
 20
5.4439712303
 30
0.0
 10
5.9897137552
 20
5.4438330511
 30
0.0
 10
5.9893216902
 20
5.44369466
 30
0.0
 10
5.9888699868
 20
5.4435560716
 30
0.0
 10
5.9883585805
 20
5.4434173282
 30
0.0
 10
5.9877874824
 20
5.4432784627
 30
0.0
 10
5.9871567182
 20
5.4431394907
 30
0.0
 10
5.9861979314
 20
5.4429464337
 30
0.0
 10
5.9848497608
 20
5.4427079499
 30
0.0
 10
5.9830524539
 20
5.4424312247
 30
0.0
 10
5.9810189228
 20
5.4421540632
 30
0.0
 10
5.9787505701
 20
5.4418765384
 30
0.0
 10
5.9762488471
 20
5.4415987564
 30
0.0
 10
5.9735152375
 20
5.4413207739
 30
0.0
 10
5.9705512312
 20
5.4410426357
 30
0.0
 10
5.9673583698
 20
5.4407643793
 30
0.0
 10
5.9639384559
 20
5.4404860421
 30
0.0
 10
5.9589316985
 20
5.4401036345
 30
0.0
 10
5.9521227285
 20
5.4396291881
 30
0.0
 10
5.9433024541
 20
5.4390743067
 30
0.0
 10
5.9336328882
 20
5.4385189701
 30
0.0
 10
5.9231372413
 20
5.4379632695
 30
0.0
 10
5.9118411196
 20
5.4374071998
 30
0.0
 10
5.8997717039
 20
5.4368508542
 30
0.0
 10
5.8869578327
 20
5.4362943803
 30
0.0
 10
5.873430526
 20
5.4357377463
 30
0.0
 10
5.8592227857
 20
5.4351809426
 30
0.0
 10
5.8390188575
 20
5.4344235294
 30
0.0
 10
5.812331331
 20
5.4334829041
 30
0.0
 10
5.7787696976
 20
5.4323739992
 30
0.0
 10
5.7433987332
 20
5.4312644845
 30
0.0
 10
5.706557972
 20
5.43015441
 30
0.0
 10
5.6685978408
 20
5.4290438761
 30
0.0
 10
5.629892051
 20
5.4279332309
 30
0.0
 10
5.6038791857
 20
5.4271939193
 30
0.0
 10
5.5908145793
 20
5.4268226089
 30
0.0
 11
5.9908145794
 21
5.4446800979
 31
0.0
 11
5.9908070308
 21
5.4446103435
 31
0.0
 11
5.9907843936
 21
5.444540589
 31
0.0
 11
5.9907466759
 21
5.4444708347
 31
0.0
 11
5.9906938855
 21
5.4444010804
 31
0.0
 11
5.9906260305
 21
5.4443313261
 31
0.0
 11
5.9905431188
 21
5.4442615719
 31
0.0
 11
5.9904451585
 21
5.4441918177
 31
0.0
 11
5.9903321576
 21
5.4441220636
 31
0.0
 11
5.9900610655
 21
5.4439825554
 31
0.0
 11
5.9897299066
 21
5.4438430474
 31
0.0
 11
5.9893387446
 21
5.4437035396
 31
0.0
 11
5.9888876435
 21
5.4435640319
 31
0.0
 11
5.9883766672
 21
5.4434245242
 31
0.0
 11
5.9878058794
 21
5.4432850167
 31
0.0
 11
5.9871753441
 21
5.4431455093
 31
0.0
 11
5.9864851251
 21
5.4430060019
 31
0.0
 11
5.9849258916
 21
5.4427269873
 31
0.0
 11
5.9831288461
 21
5.4424479729
 31
0.0
 11
5.981095321
 21
5.4421689583
 31
0.0
 11
5.9788268257
 21
5.4418899434
 31
0.0
 11
5.9763248697
 21
5.4416109279
 31
0.0
 11
5.9735909625
 21
5.4413319117
 31
0.0
 11
5.9706266136
 21
5.4410528945
 31
0.0
 11
5.9674333326
 21
5.440773876
 31
0.0
 11
5.9640127623
 21
5.4404948561
 31
0.0
 11
5.9603671876
 21
5.4402158347
 31
0.0
 11
5.9524109332
 21
5.4396577879
 31
0.0
 11
5.9435843869
 21
5.4390997359
 31
0.0
 11
5.9339074486
 21
5.438541679
 31
0.0
 11
5.9234030706
 21
5.4379836183
 31
0.0
 11
5.9120980858
 21
5.4374255551
 31
0.0
 11
5.900019578
 21
5.4368674911
 31
0.0
 11
5.8871952136
 21
5.4363094281
 31
0.0
 11
5.8736567972
 21
5.435751369
 31
0.0
 11
5.8594379251
 21
5.4351933175
 31
0.0
 11
5.8445722111
 21
5.4346352769
 31
0.0
 11
5.8130436243
 21
5.4335192174
 31
0.0
 11
5.7793744433
 21
5.4324031222
 31
0.0
 11
5.7438882108
 21
5.4312870021
 31
0.0
 11
5.7069314657
 21
5.4301709818
 31
0.0
 11
5.6688527663
 21
5.4290548573
 31
0.0
 11
5.6300083475
 21
5.4279383311
 31
0.0
 11
5.5908145793
 21
5.4268226089
 31
0.0
  0
LINE
  5
2B0
100
AcDbEntity
  8
0
100
AcDbLine
 62
9
  6
CONTINUOUS
 10
5.1961710951
 20
4.4414916976
 11
5.1962857013
 21
4.440748138
  0
LINE
  5
2B1
100
AcDbEntity
  8
0
100
AcDbLine
 62
9
  6
CONTINUOUS
 10
5.1962857013
 20
4.440748138
 11
5.1963126897
 21
4.440574198
  0
LINE
  5
2B2
100
AcDbEntity
  8
0
100
AcDbLine
 62
9
  6
CONTINUOUS
 10
5.1963126897
 20
4.440574198
 11
5.1963357791
 21
4.4404257324
  0
SPLINE
  5
2B3
100
AcDbEntity
  8
0
100
AcDbSpline
 62
9
  6
CONTINUOUS
 70
0
 71
3
 72
44
 73
40
 74
38
 42
0.0000001
 43
0.0000001
 44
0.0000000001
 12
0.0894337574
 22
-0.5744480925
 32
0.0
 13
0.581368218
 23
-0.0000550726
 33
0.0
 40
0.0
 40
0.0
 40
0.0
 40
0.0
 40
0.0272019724
 40
0.0544828229
 40
0.0818574855
 40
0.1093422832
 40
0.1369548238
 40
0.1647140015
 40
0.1926389894
 40
0.2207462084
 40
0.249053265
 40
0.2775803106
 40
0.3063500413
 40
0.335384697
 40
0.3647034735
 40
0.394328854
 40
0.424287515
 40
0.4546071541
 40
0.4853079391
 40
0.5164131027
 40
0.5479520809
 40
0.5799493969
 40
0.6124184696
 40
0.6453795356
 40
0.678851868
 40
0.7128321884
 40
0.7300140317
 40
0.7473238596
 40
0.7823130171
 40
0.8177628589
 40
0.8356508923
 40
0.8536398891
 40
0.8717208449
 40
0.8898846725
 40
0.9081227902
 40
0.9264270432
 40
0.9447850764
 40
0.9631791756
 40
1.0
 40
1.0
 40
1.0
 40
1.0
 10
5.1963357791
 20
4.4404257324
 30
0.0
 10
5.197146704
 20
4.4352170253
 30
0.0
 10
5.1989493101
 20
4.4248113839
 30
0.0
 10
5.2021916162
 20
4.4092801093
 30
0.0
 10
5.205982806
 20
4.3938169046
 30
0.0
 10
5.2103294186
 20
4.3784337262
 30
0.0
 10
5.2152381151
 20
4.3631422077
 30
0.0
 10
5.2207154971
 20
4.3479542848
 30
0.0
 10
5.2267676129
 20
4.3328826385
 30
0.0
 10
5.2334060969
 20
4.317943493
 30
0.0
 10
5.2406423559
 20
4.303154413
 30
0.0
 10
5.2484877443
 20
4.2885332334
 30
0.0
 10
5.2569529444
 20
4.2740981114
 30
0.0
 10
5.2660491493
 20
4.2598693898
 30
0.0
 10
5.2757923236
 20
4.2458728134
 30
0.0
 10
5.2861969334
 20
4.2321350964
 30
0.0
 10
5.2972771371
 20
4.2186837176
 30
0.0
 10
5.3090450555
 20
4.2055481427
 30
0.0
 10
5.3215168516
 20
4.1927661157
 30
0.0
 10
5.3347067404
 20
4.1803782033
 30
0.0
 10
5.3486264495
 20
4.1684264911
 30
0.0
 10
5.3632844529
 20
4.1569579104
 30
0.0
 10
5.378688102
 20
4.1460279437
 30
0.0
 10
5.394839689
 20
4.1356953589
 30
0.0
 10
5.4117335889
 20
4.1260228477
 30
0.0
 10
5.426365879
 20
4.1185964216
 30
0.0
 10
5.438422249
 20
4.1130512817
 30
0.0
 10
5.4507992896
 20
4.1077463516
 30
0.0
 10
5.4666908652
 20
4.1016709876
 30
0.0
 10
5.482993097
 20
4.0964237963
 30
0.0
 10
5.4963152785
 20
4.0927333888
 30
0.0
 10
5.5064674353
 20
4.0902231379
 30
0.0
 10
5.5167378624
 20
4.0879858324
 30
0.0
 10
5.5271145699
 20
4.0860289754
 30
0.0
 10
5.5375852912
 20
4.0843598452
 30
0.0
 10
5.5481368463
 20
4.0829865382
 30
0.0
 10
5.558753773
 20
4.0819142087
 30
0.0
 10
5.5729757226
 20
4.0808878712
 30
0.0
 10
5.5836790936
 20
4.0805765076
 30
0.0
 10
5.5908145793
 20
4.0805758317
 30
0.0
 11
5.1963357791
 21
4.4404257324
 31
0.0
 11
5.1990352964
 21
4.4248434777
 31
0.0
 11
5.2022770358
 21
4.4093180892
 31
0.0
 11
5.2060671818
 21
4.3938612349
 31
0.0
 11
5.2104123424
 21
4.3784845889
 31
0.0
 11
5.2153191258
 21
4.363199825
 31
0.0
 11
5.2207941398
 21
4.3480186172
 31
0.0
 11
5.2268446791
 21
4.3329535426
 31
0.0
 11
5.2334811066
 21
4.3180212128
 31
0.0
 11
5.2407146414
 21
4.3032393657
 31
0.0
 11
5.2485565027
 21
4.2886257395
 31
0.0
 11
5.2570179155
 21
4.2741980883
 31
0.0
 11
5.2661110521
 21
4.2599768578
 31
0.0
 11
5.2758500818
 21
4.2459881661
 31
0.0
 11
5.2862494265
 21
4.2322588496
 31
0.0
 11
5.2973235083
 21
4.2188157447
 31
0.0
 11
5.3090866083
 21
4.2056880568
 31
0.0
 11
5.3215524558
 21
4.1929142478
 31
0.0
 11
5.3347346456
 21
4.1805350402
 31
0.0
 11
5.3486467203
 21
4.1685912443
 31
0.0
 11
5.3632985797
 21
4.1571297564
 31
0.0
 11
5.3786941724
 21
4.1462074175
 31
0.0
 11
5.3948368959
 21
4.1358819873
 31
0.0
 11
5.4117252787
 21
4.126214288
 31
0.0
 11
5.4293421145
 21
4.1172750364
 31
0.0
 11
5.4384173339
 21
4.113101301
 31
0.0
 11
5.4476669617
 21
4.1091369499
 31
0.0
 11
5.4666676341
 21
4.1018737207
 31
0.0
 11
5.4862864862
 21
4.0955611551
 31
0.0
 11
5.4963086648
 21
4.0927851427
 31
0.0
 11
5.5064611141
 21
4.0902746902
 31
0.0
 11
5.5167319535
 21
4.0880373816
 31
0.0
 11
5.5271089505
 21
4.0860806411
 31
0.0
 11
5.5375798723
 21
4.0844118933
 31
0.0
 11
5.5481323848
 21
4.0830384898
 31
0.0
 11
5.5587510978
 21
4.0819655939
 31
0.0
 11
5.5694171031
 21
4.0811958492
 31
0.0
 11
5.5908145793
 21
4.0805758317
 31
0.0
  0
SPLINE
  5
2B4
100
AcDbEntity
  8
0
100
AcDbSpline
 62
6
  6
CONTINUOUS
 70
0
 71
3
 72
32
 73
28
 74
26
 42
0.0000001
 43
0.0000001
 44
0.0000000001
 12
0.0760644395
 22
0.0036814993
 32
0.0
 13
0.0659257403
 23
0.0381201936
 33
0.0
 40
0.0
 40
0.0
 40
0.0
 40
0.0
 40
0.1087452443
 40
0.2118706737
 40
0.3092222632
 40
0.400646226
 40
0.485989607
 40
0.565127045
 40
0.6379738615
 40
0.7044493868
 40
0.7644740872
 40
0.8179719255
 40
0.8422553983
 40
0.8648880993
 40
0.8858651899
 40
0.9051823069
 40
0.9228357458
 40
0.9388227402
 40
0.953141906
 40
0.9657939791
 40
0.9767841113
 40
0.9816604624
 40
0.9861276359
 40
0.9901892649
 40
0.9938502373
 40
0.9971172937
 40
1.0
 40
1.0
 40
1.0
 40
1.0
 10
5.9145867473
 20
5.2768258317
 30
0.0
 10
5.9173439626
 20
5.2769592802
 30
0.0
 10
5.9227156022
 20
5.2772255799
 30
0.0
 10
5.9305543478
 20
5.2776355874
 30
0.0
 10
5.9379527658
 20
5.2780456298
 30
0.0
 10
5.944899067
 20
5.2784555747
 30
0.0
 10
5.9513821651
 20
5.2788653444
 30
0.0
 10
5.9573926981
 20
5.2792748998
 30
0.0
 10
5.9629231063
 20
5.2796841173
 30
0.0
 10
5.9679669423
 20
5.2800929233
 30
0.0
 10
5.9725178827
 20
5.280501254
 30
0.0
 10
5.9759985551
 20
5.2808513845
 30
0.0
 10
5.9785318291
 20
5.2811339275
 30
0.0
 10
5.9802430598
 20
5.2813388594
 30
0.0
 10
5.9818272671
 20
5.2815436963
 30
0.0
 10
5.9832839576
 20
5.2817484232
 30
0.0
 10
5.9846126474
 20
5.2819530041
 30
0.0
 10
5.9858128585
 20
5.2821573978
 30
0.0
 10
5.9868841484
 20
5.2823615283
 30
0.0
 10
5.9878260888
 20
5.2825653464
 30
0.0
 10
5.9885285642
 20
5.2827411124
 30
0.0
 10
5.9890247704
 20
5.2828834115
 30
0.0
 10
5.989349338
 20
5.2829857852
 30
0.0
 10
5.9896414294
 20
5.2830880936
 30
0.0
 10
5.9899010777
 20
5.2831903398
 30
0.0
 10
5.9901283054
 20
5.2832925103
 30
0.0
 10
5.9902667225
 20
5.2833650235
 30
0.0
 10
5.9903300707
 20
5.2834016533
 30
0.0
 11
5.9145867473
 21
5.2768258317
 31
0.0
 11
5.9228578874
 21
5.2772364965
 31
0.0
 11
5.9307004894
 21
5.2776474233
 31
0.0
 11
5.9381027454
 21
5.2780585135
 31
0.0
 11
5.9450528472
 21
5.2784696689
 31
0.0
 11
5.9515390263
 21
5.2788807921
 31
0.0
 11
5.9575515837
 21
5.2792918334
 31
0.0
 11
5.9630838778
 21
5.279702814
 31
0.0
 11
5.9681295131
 21
5.2801137606
 31
0.0
 11
5.9726820937
 21
5.2805247001
 31
0.0
 11
5.9767353602
 21
5.2809356573
 31
0.0
 11
5.978573179
 21
5.2811411448
 31
0.0
 11
5.9802844441
 21
5.2813466372
 31
0.0
 11
5.98186865
 21
5.2815521336
 31
0.0
 11
5.9833252914
 21
5.2817576332
 31
0.0
 11
5.9846538628
 21
5.2819631351
 31
0.0
 11
5.9858538586
 21
5.2821686385
 31
0.0
 11
5.9869247735
 21
5.2823741425
 31
0.0
 11
5.9878661019
 21
5.2825796463
 31
0.0
 11
5.9886774167
 21
5.2827851493
 31
0.0
 11
5.9890342694
 21
5.2828879004
 31
0.0
 11
5.9893585718
 21
5.2829906514
 31
0.0
 11
5.9896503135
 21
5.2830934021
 31
0.0
 11
5.9899094841
 21
5.2831961526
 31
0.0
 11
5.9901360733
 21
5.283298903
 31
0.0
 11
5.9903300707
 21
5.2834016533
 31
0.0
  0
SPLINE
  5
2B5
100
AcDbEntity
  8
0
100
AcDbSpline
 62
6
  6
CONTINUOUS
 70
0
 71
3
 72
50
 73
46
 74
44
 42
0.0000001
 43
0.0000001
 44
0.0000000001
 12
-0.0000094963
 22
0.4008785807
 32
0.0
 13
0.4007167723
 23
0.011388809
 33
0.0
 40
0.0
 40
0.0
 40
0.0
 40
0.0
 40
0.0001750274
 40
0.0003579744
 40
0.0005558013
 40
0.0007740389
 40
0.0010168174
 40
0.0012871358
 40
0.0015871609
 40
0.0019184699
 40
0.0026791117
 40
0.0035756242
 40
0.0046117135
 40
0.0057897064
 40
0.007111124
 40
0.0085769906
 40
0.0101880092
 40
0.0119446664
 40
0.0158960465
 40
0.0204325651
 40
0.0255529403
 40
0.0312546585
 40
0.0375348338
 40
0.0443903381
 40
0.0518178779
 40
0.0598140436
 40
0.068375147
 40
0.0774959305
 40
0.0973924144
 40
0.1194550177
 40
0.1436347156
 40
0.1698756482
 40
0.1981112872
 40
0.2282740416
 40
0.2602952277
 40
0.2940964304
 40
0.3295937828
 40
0.3667033133
 40
0.445402795
 40
0.5294367496
 40
0.6179994311
 40
0.7102279369
 40
0.8052539683
 40
0.9021907239
 40
1.0
 40
1.0
 40
1.0
 40
1.0
 10
5.1908145794
 20
5.1053858385
 30
0.0
 10
5.1908145788
 20
5.1054092267
 30
0.0
 10
5.1908198902
 20
5.1054572076
 30
0.0
 10
5.1908434253
 20
5.1055281322
 30
0.0
 10
5.1908822236
 20
5.1055985759
 30
0.0
 10
5.1909360258
 20
5.105668601
 30
0.0
 10
5.1910047272
 20
5.1057383757
 30
0.0
 10
5.1910883141
 20
5.1058080132
 30
0.0
 10
5.1911868009
 20
5.1058775955
 30
0.0
 10
5.191345468
 20
5.1059748638
 30
0.0
 10
5.1915830669
 20
5.1060947384
 30
0.0
 10
5.1919155799
 20
5.1062329236
 30
0.0
 10
5.1923076958
 20
5.1063713207
 30
0.0
 10
5.1927594503
 20
5.1065099149
 30
0.0
 10
5.1932709057
 20
5.1066486638
 30
0.0
 10
5.1938420483
 20
5.1067875346
 30
0.0
 10
5.1944728503
 20
5.1069265115
 30
0.0
 10
5.1954316672
 20
5.1071195727
 30
0.0
 10
5.1967798596
 20
5.1073580659
 30
0.0
 10
5.1985772024
 20
5.107634801
 30
0.0
 10
5.2006107989
 20
5.1079119629
 30
0.0
 10
5.2028792525
 20
5.1081894885
 30
0.0
 10
5.2053810915
 20
5.10846727
 30
0.0
 10
5.2081148115
 20
5.1087452517
 30
0.0
 10
5.2110789019
 20
5.1090233889
 30
0.0
 10
5.2142718187
 20
5.109301647
 30
0.0
 10
5.2176917876
 20
5.109579988
 30
0.0
 10
5.2226986769
 20
5.1099623967
 30
0.0
 10
5.2295078535
 20
5.1104368431
 30
0.0
 10
5.23832834
 20
5.110991725
 30
0.0
 10
5.2479981048
 20
5.1115470771
 30
0.0
 10
5.2584939705
 20
5.1121027783
 30
0.0
 10
5.2697903451
 20
5.1126588472
 30
0.0
 10
5.2818599703
 20
5.113215196
 30
0.0
 10
5.2946740349
 20
5.1137716794
 30
0.0
 10
5.3082015688
 20
5.1143283126
 30
0.0
 10
5.3224095778
 20
5.1148851175
 30
0.0
 10
5.342613887
 20
5.1156425441
 30
0.0
 10
5.3693016046
 20
5.1165831604
 30
0.0
 10
5.4028630521
 20
5.117692061
 30
0.0
 10
5.4382332438
 20
5.1188015411
 30
0.0
 10
5.4750729354
 20
5.1199115825
 30
0.0
 10
5.5130320987
 20
5.1210220868
 30
0.0
 10
5.5517373062
 20
5.1221327153
 30
0.0
 10
5.5777499734
 20
5.1228720213
 30
0.0
 10
5.5908145793
 20
5.1232433317
 30
0.0
 11
5.1908145794
 21
5.1053858385
 31
0.0
 11
5.1908221267
 21
5.1054555961
 31
0.0
 11
5.1908447665
 21
5.1055253537
 31
0.0
 11
5.1908824904
 21
5.1055951113
 31
0.0
 11
5.1909352902
 21
5.1056648689
 31
0.0
 11
5.1910031576
 21
5.1057346264
 31
0.0
 11
5.1910860843
 21
5.1058043839
 31
0.0
 11
5.1911840621
 21
5.1058741413
 31
0.0
 11
5.1912970827
 21
5.1059438987
 31
0.0
 11
5.1915682191
 21
5.1060834133
 31
0.0
 11
5.1918994272
 21
5.1062229276
 31
0.0
 11
5.1922906409
 21
5.1063624416
 31
0.0
 11
5.192741794
 21
5.1065019553
 31
0.0
 11
5.1932528202
 21
5.1066414685
 31
0.0
 11
5.1938236534
 21
5.1067809814
 31
0.0
 11
5.1944542273
 21
5.1069204939
 31
0.0
 11
5.1951444757
 21
5.1070600058
 31
0.0
 11
5.1967037311
 21
5.1073390281
 31
0.0
 11
5.1985007923
 21
5.107618048
 31
0.0
 11
5.200534389
 21
5.1078970661
 31
0.0
 11
5.2028029919
 21
5.108176083
 31
0.0
 11
5.2053050707
 21
5.1084550992
 31
0.0
 11
5.2080390951
 21
5.1087341156
 31
0.0
 11
5.2110035349
 21
5.1090131327
 31
0.0
 11
5.21419686
 21
5.1092921512
 31
0.0
 11
5.2176174619
 21
5.1095711717
 31
0.0
 11
5.2212631267
 21
5.1098501943
 31
0.0
 11
5.2292196548
 21
5.1104082449
 31
0.0
 11
5.2380464565
 21
5.1109663017
 31
0.0
 11
5.2477235015
 21
5.1115243633
 31
0.0
 11
5.258228116
 21
5.1120824282
 31
0.0
 11
5.2695334132
 21
5.1126404949
 31
0.0
 11
5.2816121302
 21
5.1131985619
 31
0.0
 11
5.2944366013
 21
5.1137566276
 31
0.0
 11
5.3079752827
 21
5.1143146896
 31
0.0
 11
5.3221944643
 21
5.114872745
 31
0.0
 11
5.3370604098
 21
5.1154307912
 31
0.0
 11
5.3685895992
 21
5.1165468606
 31
0.0
 11
5.4022585184
 21
5.1176629431
 31
0.0
 11
5.4377438532
 21
5.1187790281
 31
0.0
 11
5.4746994394
 21
5.1198950108
 31
0.0
 11
5.5127769867
 21
5.1210111005
 31
0.0
 11
5.5516208128
 21
5.1221276096
 31
0.0
 11
5.5908145793
 21
5.1232433317
 31
0.0
  0
SPLINE
  5
2B6
100
AcDbEntity
  8
0
100
AcDbSpline
 62
6
  6
CONTINUOUS
 70
0
 71
3
 72
50
 73
46
 74
44
 42
0.0000001
 43
0.0000001
 44
0.0000000001
 12
0.0000001067
 22
0.4008785785
 32
0.0
 13
0.40071677
 23
0.011388809
 33
0.0
 40
0.0
 40
0.0
 40
0.0
 40
0.0
 40
0.000175031
 40
0.0003579826
 40
0.0005558154
 40
0.0007740601
 40
0.0010168468
 40
0.0012871746
 40
0.0015872101
 40
0.0019185307
 40
0.0026791989
 40
0.0035757425
 40
0.0046118678
 40
0.0057899015
 40
0.0071113651
 40
0.0085772831
 40
0.0101883585
 40
0.0119450784
 40
0.0158966019
 40
0.0204333214
 40
0.0255539912
 40
0.0312560499
 40
0.0375365615
 40
0.0443923474
 40
0.051820064
 40
0.0598162511
 40
0.0683772342
 40
0.077497887
 40
0.0973940561
 40
0.1194561972
 40
0.1436352025
 40
0.1698753056
 40
0.1981101217
 40
0.2282721803
 40
0.2602928007
 40
0.2940934015
 40
0.3295902512
 40
0.3666995235
 40
0.4453988862
 40
0.5294344045
 40
0.6179997438
 40
0.7102295805
 40
0.8052551401
 40
0.9021910148
 40
1.0
 40
1.0
 40
1.0
 40
1.0
 10
5.1908145793
 20
5.1768158317
 30
0.0
 10
5.1908145793
 20
5.1768392204
 30
0.0
 10
5.190819892
 20
5.1768872022
 30
0.0
 10
5.1908434294
 20
5.1769581282
 30
0.0
 10
5.1908822302
 20
5.1770285731
 30
0.0
 10
5.1909360354
 20
5.1770985994
 30
0.0
 10
5.1910047402
 20
5.1771683754
 30
0.0
 10
5.1910883308
 20
5.1772380143
 30
0.0
 10
5.1911868218
 20
5.177307598
 30
0.0
 10
5.1913454953
 20
5.1774048682
 30
0.0
 10
5.1915831033
 20
5.1775247452
 30
0.0
 10
5.1919156287
 20
5.1776629333
 30
0.0
 10
5.1923077588
 20
5.1778013334
 30
0.0
 10
5.1927595295
 20
5.1779399306
 30
0.0
 10
5.1932710031
 20
5.1780786827
 30
0.0
 10
5.1938421661
 20
5.1782175568
 30
0.0
 10
5.1944729908
 20
5.1783565371
 30
0.0
 10
5.1954318426
 20
5.1785496032
 30
0.0
 10
5.1967800889
 20
5.1787881037
 30
0.0
 10
5.1985775167
 20
5.1790648473
 30
0.0
 10
5.2006112253
 20
5.1793420149
 30
0.0
 10
5.2028798089
 20
5.1796195466
 30
0.0
 10
5.2053817761
 20
5.1798973334
 30
0.0
 10
5.2081156024
 20
5.1801753192
 30
0.0
 10
5.211079757
 20
5.1804534586
 30
0.0
 10
5.2142726841
 20
5.1807317177
 30
0.0
 10
5.2176926222
 20
5.181010059
 30
0.0
 10
5.2226994362
 20
5.1813924599
 30
0.0
 10
5.2295084922
 20
5.1818668915
 30
0.0
 10
5.2383287833
 20
5.1824217521
 30
0.0
 10
5.2479982834
 20
5.1829770858
 30
0.0
 10
5.2584938361
 20
5.1835327716
 30
0.0
 10
5.2697898972
 20
5.1840888272
 30
0.0
 10
5.281859244
 20
5.1846451643
 30
0.0
 10
5.2946730597
 20
5.1852016367
 30
0.0
 10
5.3082003704
 20
5.1857582646
 30
0.0
 10
5.3224081973
 20
5.1863150662
 30
0.0
 10
5.3426123888
 20
5.1870724885
 30
0.0
 10
5.3693002645
 20
5.1880131165
 30
0.0
 10
5.4028622597
 20
5.1891220346
 30
0.0
 10
5.4382331928
 20
5.1902315385
 30
0.0
 10
5.4750733538
 20
5.1913415962
 30
0.0
 10
5.513032514
 20
5.1924520986
 30
0.0
 10
5.5517375019
 20
5.1935627208
 30
0.0
 10
5.5777500124
 20
5.1943020224
 30
0.0
 10
5.5908145793
 20
5.1946733317
 30
0.0
 11
5.1908145793
 21
5.1768158317
 31
0.0
 11
5.1908221284
 21
5.1768855906
 31
0.0
 11
5.1908447704
 21
5.1769553495
 31
0.0
 11
5.1908824969
 21
5.1770251083
 31
0.0
 11
5.1909352997
 21
5.1770948672
 31
0.0
 11
5.1910031704
 21
5.177164626
 31
0.0
 11
5.1910861009
 21
5.1772343849
 31
0.0
 11
5.1911840829
 21
5.1773041437
 31
0.0
 11
5.191297108
 21
5.1773739024
 31
0.0
 11
5.1915682549
 21
5.1775134198
 31
0.0
 11
5.1918994753
 21
5.1776529371
 31
0.0
 11
5.1922907033
 21
5.1777924541
 31
0.0
 11
5.1927418725
 21
5.1779319708
 31
0.0
 11
5.193252917
 21
5.1780714873
 31
0.0
 11
5.1938237705
 21
5.1782110035
 31
0.0
 11
5.194454367
 21
5.1783505193
 31
0.0
 11
5.1951446403
 21
5.1784900347
 31
0.0
 11
5.1967039529
 21
5.1787690642
 31
0.0
 11
5.1985010943
 21
5.1790480918
 31
0.0
 11
5.2005348093
 21
5.1793271175
 31
0.0
 11
5.2028035488
 21
5.1796061415
 31
0.0
 11
5.2053057625
 21
5.1798851639
 31
0.0
 11
5.2080398999
 21
5.180164185
 31
0.0
 11
5.2110044106
 21
5.1804432049
 31
0.0
 11
5.2141977442
 21
5.1807222239
 31
0.0
 11
5.2176182979
 21
5.1810012421
 31
0.0
 11
5.2212639105
 21
5.1812802597
 31
0.0
 11
5.2292203131
 21
5.1818382949
 31
0.0
 11
5.2380469303
 21
5.1823963321
 31
0.0
 11
5.2477236983
 21
5.182954374
 31
0.0
 11
5.2582279807
 21
5.1835124217
 31
0.0
 11
5.2695329483
 21
5.184070474
 31
0.0
 11
5.2816113865
 21
5.1846285292
 31
0.0
 11
5.294435631
 21
5.1851865857
 31
0.0
 11
5.3079740711
 21
5.185744641
 31
0.0
 11
5.3221930511
 21
5.1863026919
 31
0.0
 11
5.337058893
 21
5.1868607354
 31
0.0
 11
5.3685880344
 21
5.1879768075
 31
0.0
 11
5.4022575799
 21
5.1890929119
 31
0.0
 11
5.4377439794
 21
5.190209031
 31
0.0
 11
5.4747000986
 21
5.1913250309
 31
0.0
 11
5.5127774567
 21
5.1924411143
 31
0.0
 11
5.5516209296
 21
5.1935576128
 31
0.0
 11
5.5908145793
 21
5.1946733317
 31
0.0
  0
SPLINE
  5
2B7
100
AcDbEntity
  8
0
100
AcDbSpline
 62
6
  6
CONTINUOUS
 70
0
 71
3
 72
50
 73
46
 74
44
 42
0.0000001
 43
0.0000001
 44
0.0000000001
 12
0.0000087877
 22
0.4008785826
 32
0.0
 13
0.4007167742
 23
0.0113888091
 33
0.0
 40
0.0
 40
0.0
 40
0.0
 40
0.0
 40
0.0001750283
 40
0.0003579768
 40
0.000555805
 40
0.0007740431
 40
0.001016821
 40
0.0012871377
 40
0.0015871598
 40
0.0019184649
 40
0.0026790964
 40
0.0035755968
 40
0.0046116741
 40
0.0057896567
 40
0.0071110675
 40
0.0085769326
 40
0.0101879568
 40
0.0119446285
 40
0.0158960712
 40
0.0204326968
 40
0.0255531994
 40
0.0312550508
 40
0.0375353506
 40
0.044390956
 40
0.0518185593
 40
0.0598147363
 40
0.0683757987
 40
0.0774965074
 40
0.0973926886
 40
0.1194546921
 40
0.1436333648
 40
0.1698726677
 40
0.1981063709
 40
0.2282672882
 40
0.2602867202
 40
0.2940857944
 40
0.3295812154
 40
0.3666895846
 40
0.4453874598
 40
0.5294230233
 40
0.6179888253
 40
0.7102211079
 40
0.8052511134
 40
0.9021903567
 40
1.0
 40
1.0
 40
1.0
 40
1.0
 10
5.1908145794
 20
5.2482458261
 30
0.0
 10
5.1908145799
 20
5.2482692145
 30
0.0
 10
5.1908198931
 20
5.2483171954
 30
0.0
 10
5.1908434299
 20
5.24838812
 30
0.0
 10
5.1908822289
 20
5.2484585637
 30
0.0
 10
5.1909360311
 20
5.2485285889
 30
0.0
 10
5.1910047319
 20
5.2485983638
 30
0.0
 10
5.1910883177
 20
5.2486680016
 30
0.0
 10
5.1911868029
 20
5.2487375843
 30
0.0
 10
5.191345467
 20
5.2488348529
 30
0.0
 10
5.1915830616
 20
5.2489547283
 30
0.0
 10
5.1919155693
 20
5.2490929144
 30
0.0
 10
5.19230768
 20
5.2492313125
 30
0.0
 10
5.1927594301
 20
5.2493699078
 30
0.0
 10
5.1932708825
 20
5.2495086579
 30
0.0
 10
5.1938420244
 20
5.2496475301
 30
0.0
 10
5.1944728287
 20
5.2497865085
 30
0.0
 10
5.1954316564
 20
5.2499795725
 30
0.0
 10
5.1967798731
 20
5.2502180689
 30
0.0
 10
5.1985772556
 20
5.2504948069
 30
0.0
 10
5.2006109013
 20
5.2507719726
 30
0.0
 10
5.2028794062
 20
5.2510495019
 30
0.0
 10
5.2053812931
 20
5.2513272868
 30
0.0
 10
5.2081150517
 20
5.2516052713
 30
0.0
 10
5.2110791656
 20
5.2518834102
 30
0.0
 10
5.2142720868
 20
5.2521616691
 30
0.0
 10
5.2176920417
 20
5.2524400097
 30
0.0
 10
5.2226988753
 20
5.2528224135
 30
0.0
 10
5.2295079218
 20
5.2532968495
 30
0.0
 10
5.2383281514
 20
5.2538517141
 30
0.0
 10
5.2479974819
 20
5.2544070412
 30
0.0
 10
5.2584927347
 20
5.2549627181
 30
0.0
 10
5.2697883879
 20
5.2555187599
 30
0.0
 10
5.2818572752
 20
5.2560750775
 30
0.0
 10
5.2946705762
 20
5.2566315282
 30
0.0
 10
5.3081973334
 20
5.2571881435
 30
0.0
 10
5.3224046449
 20
5.2577449343
 30
0.0
 10
5.3426083266
 20
5.2585023372
 30
0.0
 10
5.3692958888
 20
5.2594429713
 30
0.0
 10
5.4028577535
 20
5.2605518857
 30
0.0
 10
5.438229081
 20
5.2616614157
 30
0.0
 10
5.4750702248
 20
5.2627715018
 30
0.0
 10
5.5130307558
 20
5.2638820484
 30
0.0
 10
5.5517368757
 20
5.264992703
 30
0.0
 10
5.5777499243
 20
5.2657320199
 30
0.0
 10
5.5908145793
 20
5.2661033317
 30
0.0
 11
5.1908145794
 21
5.2482458261
 31
0.0
 11
5.1908221294
 21
5.2483155838
 31
0.0
 11
5.1908447709
 21
5.2483853415
 31
0.0
 11
5.1908824957
 21
5.2484550992
 31
0.0
 11
5.1909352956
 21
5.248524857
 31
0.0
 11
5.1910031625
 21
5.2485946147
 31
0.0
 11
5.1910860881
 21
5.2486643724
 31
0.0
 11
5.1911840642
 21
5.2487341301
 31
0.0
 11
5.1912970827
 21
5.2488038878
 31
0.0
 11
5.1915682141
 21
5.248943403
 31
0.0
 11
5.1918994167
 21
5.2490829182
 31
0.0
 11
5.1922906249
 21
5.2492224331
 31
0.0
 11
5.1927417733
 21
5.2493619479
 31
0.0
 11
5.1932527964
 21
5.2495014624
 31
0.0
 11
5.1938236287
 21
5.2496409766
 31
0.0
 11
5.1944542045
 21
5.2497804905
 31
0.0
 11
5.1951444585
 21
5.249920004
 31
0.0
 11
5.1967037388
 21
5.2501990298
 31
0.0
 11
5.1985008428
 21
5.2504780536
 31
0.0
 11
5.2005344906
 21
5.2507570758
 31
0.0
 11
5.2028031468
 21
5.2510360966
 31
0.0
 11
5.2053052753
 21
5.2513151165
 31
0.0
 11
5.2080393403
 21
5.2515941357
 31
0.0
 11
5.2110038055
 21
5.2518731548
 31
0.0
 11
5.214197135
 21
5.2521521739
 31
0.0
 11
5.2176177205
 21
5.2524311935
 31
0.0
 11
5.2212633554
 21
5.2527102135
 31
0.0
 11
5.2292197626
 21
5.2532682543
 31
0.0
 11
5.2380463245
 21
5.2538262947
 31
0.0
 11
5.2477229592
 21
5.2543843334
 31
0.0
 11
5.258226921
 21
5.2549423702
 31
0.0
 11
5.2695314429
 21
5.2555004062
 31
0.0
 11
5.2816094241
 21
5.2560584427
 31
0.0
 11
5.2944331926
 21
5.2566164808
 31
0.0
 11
5.307971021
 21
5.2571745192
 31
0.0
 11
5.3221894286
 21
5.2577325557
 31
0.0
 11
5.3370549088
 21
5.2582905882
 31
0.0
 11
5.3685834541
 21
5.2594066518
 31
0.0
 11
5.4022530179
 21
5.2605227632
 31
0.0
 11
5.4377396029
 21
5.2616388973
 31
0.0
 11
5.4746967025
 21
5.2627549292
 31
0.0
 11
5.5127758423
 21
5.2638710674
 31
0.0
 11
5.5516206655
 21
5.2649876054
 31
0.0
 11
5.5908145793
 21
5.2661033317
 31
0.0
  0
SPLINE
  5
2B8
100
AcDbEntity
  8
0
100
AcDbSpline
 62
6
  6
CONTINUOUS
 70
0
 71
3
 72
50
 73
46
 74
44
 42
0.0000001
 43
0.0000001
 44
0.0000000001
 12
0.000017501
 22
0.4008785847
 32
0.0
 13
0.4007167765
 23
0.0113888092
 33
0.0
 40
0.0
 40
0.0
 40
0.0
 40
0.0
 40
0.0001750216
 40
0.0003579626
 40
0.0005557812
 40
0.0007740066
 40
0.0010167685
 40
0.0012870657
 40
0.0015870651
 40
0.0019183444
 40
0.002678916
 40
0.0035753476
 40
0.0046113494
 40
0.0057892522
 40
0.0071105815
 40
0.0085763657
 40
0.0101873122
 40
0.0119439116
 40
0.0158952363
 40
0.0204317376
 40
0.0255520452
 40
0.0312536602
 40
0.0375337131
 40
0.044389092
 40
0.0518165202
 40
0.0598126045
 40
0.0683736205
 40
0.0774942301
 40
0.0973902009
 40
0.1194522414
 40
0.1436314784
 40
0.1698716238
 40
0.1981061933
 40
0.2282678307
 40
0.2602877464
 40
0.2940871406
 40
0.3295827022
 40
0.3666910215
 40
0.4453886957
 40
0.529423982
 40
0.6179896689
 40
0.7102218235
 40
0.8052515317
 40
0.9021904272
 40
1.0
 40
1.0
 40
1.0
 40
1.0
 10
5.1908145792
 20
5.319675828
 30
0.0
 10
5.1908145802
 20
5.3196992155
 30
0.0
 10
5.1908198938
 20
5.3197471943
 30
0.0
 10
5.1908434288
 20
5.319818116
 30
0.0
 10
5.1908822243
 20
5.319888557
 30
0.0
 10
5.1909360214
 20
5.3199585797
 30
0.0
 10
5.1910047155
 20
5.3200283522
 30
0.0
 10
5.191088293
 20
5.3200979876
 30
0.0
 10
5.1911867688
 20
5.3201675679
 30
0.0
 10
5.1913454179
 20
5.3202648334
 30
0.0
 10
5.1915829913
 20
5.320384705
 30
0.0
 10
5.1919154711
 20
5.320522887
 30
0.0
 10
5.1923075514
 20
5.3206612812
 30
0.0
 10
5.1927592696
 20
5.3207998727
 30
0.0
 10
5.1932706895
 20
5.3209386192
 30
0.0
 10
5.1938417992
 20
5.321077488
 30
0.0
 10
5.1944725726
 20
5.3212164632
 30
0.0
 10
5.1954313645
 20
5.3214095238
 30
0.0
 10
5.1967795396
 20
5.3216480144
 30
0.0
 10
5.198576864
 20
5.3219247459
 30
0.0
 10
5.200610435
 20
5.3222019093
 30
0.0
 10
5.202878849
 20
5.322479436
 30
0.0
 10
5.2053806406
 20
5.3227572192
 30
0.0
 10
5.2081143122
 20
5.3230352025
 30
0.0
 10
5.2110783598
 20
5.3233133409
 30
0.0
 10
5.2142712391
 20
5.3235915987
 30
0.0
 10
5.2176911622
 20
5.3238699375
 30
0.0
 10
5.2226979479
 20
5.324252344
 30
0.0
 10
5.2295069574
 20
5.3247267869
 30
0.0
 10
5.2383272387
 20
5.3252816631
 30
0.0
 10
5.247996762
 20
5.3258369997
 30
0.0
 10
5.2584923182
 20
5.3263926927
 30
0.0
 10
5.2697882955
 20
5.3269487522
 30
0.0
 10
5.2818574591
 20
5.3275050855
 30
0.0
 10
5.2946709636
 20
5.3280615466
 30
0.0
 10
5.308197847
 20
5.3286181653
 30
0.0
 10
5.3224052135
 20
5.3291749557
 30
0.0
 10
5.3426088806
 20
5.3299323575
 30
0.0
 10
5.3692963725
 20
5.3308729872
 30
0.0
 10
5.4028581581
 20
5.3319818992
 30
0.0
 10
5.4382294164
 20
5.3330914256
 30
0.0
 10
5.4750704882
 20
5.3342015097
 30
0.0
 10
5.5130309162
 20
5.335312053
 30
0.0
 10
5.5517369407
 20
5.3364227049
 30
0.0
 10
5.5777499337
 20
5.3371620202
 30
0.0
 10
5.5908145793
 20
5.3375333317
 30
0.0
 11
5.1908145792
 21
5.319675828
 31
0.0
 11
5.1908221297
 21
5.3197455829
 31
0.0
 11
5.1908447697
 21
5.319815338
 31
0.0
 11
5.1908824912
 21
5.3198850931
 31
0.0
 11
5.1909352861
 21
5.3199548482
 31
0.0
 11
5.1910031464
 21
5.3200246034
 31
0.0
 11
5.1910860639
 21
5.3200943587
 31
0.0
 11
5.1911840305
 21
5.320164114
 31
0.0
 11
5.1912970384
 21
5.3202338693
 31
0.0
 11
5.1915681451
 21
5.32037338
 31
0.0
 11
5.1918993195
 21
5.3205128909
 31
0.0
 11
5.1922904971
 21
5.3206524018
 31
0.0
 11
5.1927416132
 21
5.3207919126
 31
0.0
 11
5.1932526034
 21
5.3209314235
 31
0.0
 11
5.1938234031
 21
5.3210709342
 31
0.0
 11
5.1944539478
 21
5.3212104449
 31
0.0
 11
5.1951441729
 21
5.3213499553
 31
0.0
 11
5.1967034061
 21
5.3216289756
 31
0.0
 11
5.1985004604
 21
5.3219079948
 31
0.0
 11
5.2005340298
 21
5.322187013
 31
0.0
 11
5.2028025909
 21
5.3224660308
 31
0.0
 11
5.2053046202
 21
5.3227450482
 31
0.0
 11
5.208038594
 21
5.3230240658
 31
0.0
 11
5.2110029888
 21
5.3233030838
 31
0.0
 11
5.2141962811
 21
5.3235821026
 31
0.0
 11
5.217616848
 21
5.3238611225
 31
0.0
 11
5.221262443
 21
5.3241401434
 31
0.0
 11
5.2292187654
 21
5.3246981885
 31
0.0
 11
5.2380453416
 21
5.3252562375
 31
0.0
 11
5.2477222022
 21
5.3258142899
 31
0.0
 11
5.2582265013
 21
5.3263723447
 31
0.0
 11
5.26953137
 21
5.3269303994
 31
0.0
 11
5.2816096396
 21
5.3274884517
 31
0.0
 11
5.2944336018
 21
5.3280464995
 31
0.0
 11
5.3079715586
 21
5.3286045418
 31
0.0
 11
5.3221900226
 21
5.3291625785
 31
0.0
 11
5.3370554829
 21
5.3297206093
 31
0.0
 11
5.368583948
 21
5.3308366685
 31
0.0
 11
5.4022534009
 21
5.3319527758
 31
0.0
 11
5.43773994
 21
5.3330689076
 31
0.0
 11
5.4746969885
 21
5.3341849378
 31
0.0
 11
5.5127760095
 21
5.3353010722
 31
0.0
 11
5.5516206935
 21
5.3364176062
 31
0.0
 11
5.5908145793
 21
5.3375333317
 31
0.0
  0
SPLINE
  5
2B9
100
AcDbEntity
  8
0
100
AcDbSpline
 62
6
  6
CONTINUOUS
 70
0
 71
3
 72
50
 73
46
 74
44
 42
0.0000001
 43
0.0000001
 44
0.0000000001
 12
-0.0000230131
 22
0.4008785959
 32
0.0
 13
0.400716788
 23
0.0113888095
 33
0.0
 40
0.0
 40
0.0
 40
0.0
 40
0.0
 40
0.0001750213
 40
0.000357959
 40
0.0005557725
 40
0.0007739922
 40
0.0010167484
 40
0.0012870406
 40
0.0015870358
 40
0.0019183118
 40
0.00267888
 40
0.0035753121
 40
0.0046113176
 40
0.0057892266
 40
0.0071105637
 40
0.0085763564
 40
0.0101873109
 40
0.0119439171
 40
0.0158952476
 40
0.0204317254
 40
0.0255519712
 40
0.0312535029
 40
0.0375334687
 40
0.0443887742
 40
0.0518161602
 40
0.0598122512
 40
0.0683733124
 40
0.0774939707
 40
0.0973900713
 40
0.1194523243
 40
0.143631902
 40
0.169872541
 40
0.1981077803
 40
0.2282702905
 40
0.26029141
 40
0.2940923373
 40
0.3295893324
 40
0.3666985687
 40
0.4453971194
 40
0.5294310801
 40
0.6179945707
 40
0.7102246446
 40
0.8052526647
 40
0.9021906112
 40
1.0
 40
1.0
 40
1.0
 40
1.0
 10
5.1908145796
 20
5.3911058445
 30
0.0
 10
5.1908145782
 20
5.3911292319
 30
0.0
 10
5.1908198871
 20
5.3911772109
 30
0.0
 10
5.1908434165
 20
5.3912481333
 30
0.0
 10
5.1908822072
 20
5.3913185749
 30
0.0
 10
5.1909360004
 20
5.3913885979
 30
0.0
 10
5.1910046913
 20
5.3914583705
 30
0.0
 10
5.1910882664
 20
5.3915280058
 30
0.0
 10
5.1911867403
 20
5.3915975859
 30
0.0
 10
5.1913453879
 20
5.391694851
 30
0.0
 10
5.1915829608
 20
5.3918147219
 30
0.0
 10
5.1919154413
 20
5.3919529025
 30
0.0
 10
5.1923075237
 20
5.3920912949
 30
0.0
 10
5.192759245
 20
5.3922298846
 30
0.0
 10
5.1932706686
 20
5.3923686291
 30
0.0
 10
5.1938417822
 20
5.3925074957
 30
0.0
 10
5.1944725592
 20
5.3926464687
 30
0.0
 10
5.1954313546
 20
5.3928395261
 30
0.0
 10
5.196779529
 20
5.3930780123
 30
0.0
 10
5.1985768432
 20
5.3933547402
 30
0.0
 10
5.2006103919
 20
5.3936319013
 30
0.0
 10
5.2028787749
 20
5.3939094262
 30
0.0
 10
5.205380534
 20
5.394187208
 30
0.0
 10
5.2081141785
 20
5.3944651905
 30
0.0
 10
5.2110782116
 20
5.3947433288
 30
0.0
 10
5.2142710923
 20
5.3950215866
 30
0.0
 10
5.2176910289
 20
5.3952999258
 30
0.0
 10
5.2226978446
 20
5.3956823348
 30
0.0
 10
5.2295069063
 20
5.3961567824
 30
0.0
 10
5.2383272789
 20
5.3967116656
 30
0.0
 10
5.2479969422
 20
5.3972670099
 30
0.0
 10
5.2584926994
 20
5.3978227119
 30
0.0
 10
5.2697889489
 20
5.3983787825
 30
0.0
 10
5.2818584796
 20
5.3989351312
 30
0.0
 10
5.2946724664
 20
5.3994916105
 30
0.0
 10
5.3081999072
 20
5.4000482454
 30
0.0
 10
5.3224077929
 20
5.4006050507
 30
0.0
 10
5.3426118915
 20
5.4013624703
 30
0.0
 10
5.369299447
 20
5.4023030895
 30
0.0
 10
5.4028608804
 20
5.4034119888
 30
0.0
 10
5.4382313916
 20
5.4045214854
 30
0.0
 10
5.4750716678
 20
5.4056315446
 30
0.0
 10
5.5130314667
 20
5.4067420687
 30
0.0
 10
5.5517371155
 20
5.40785271
 30
0.0
 10
5.5777499579
 20
5.4085920209
 30
0.0
 10
5.5908145793
 20
5.4089633317
 30
0.0
 11
5.1908145796
 21
5.3911058445
 31
0.0
 11
5.1908221235
 21
5.3911756
 31
0.0
 11
5.1908447578
 21
5.3912453555
 31
0.0
 11
5.1908824745
 21
5.3913151109
 31
0.0
 11
5.1909352654
 21
5.3913848662
 31
0.0
 11
5.1910031223
 21
5.3914546215
 31
0.0
 11
5.1910860372
 21
5.3915243766
 31
0.0
 11
5.191184002
 21
5.3915941317
 31
0.0
 11
5.1912970085
 21
5.3916638867
 31
0.0
 11
5.1915681141
 21
5.3918033966
 31
0.0
 11
5.1918992893
 21
5.3919429062
 31
0.0
 11
5.192290469
 21
5.3920824155
 31
0.0
 11
5.1927415884
 21
5.3922219246
 31
0.0
 11
5.1932525824
 21
5.3923614334
 31
0.0
 11
5.1938233861
 21
5.3925009421
 31
0.0
 11
5.1944539346
 21
5.3926404505
 31
0.0
 11
5.1951441629
 21
5.3927799588
 31
0.0
 11
5.1967033993
 21
5.3930589749
 31
0.0
 11
5.1985004447
 21
5.3933379904
 31
0.0
 11
5.2005339895
 21
5.3936170056
 31
0.0
 11
5.2028025174
 21
5.393896021
 31
0.0
 11
5.2053045117
 21
5.3941750367
 31
0.0
 11
5.2080384562
 21
5.3944540533
 31
0.0
 11
5.2110028341
 21
5.3947330709
 31
0.0
 11
5.2141961292
 21
5.39501209
 31
0.0
 11
5.2176167142
 21
5.3952911108
 31
0.0
 11
5.2212623288
 21
5.3955701334
 31
0.0
 11
5.2292187033
 21
5.3961281832
 31
0.0
 11
5.2380453647
 21
5.3966862386
 31
0.0
 11
5.2477223619
 21
5.3972442988
 31
0.0
 11
5.258226859
 21
5.3978023625
 31
0.0
 11
5.2695319963
 21
5.3983604285
 31
0.0
 11
5.2816106158
 21
5.3989184951
 31
0.0
 11
5.2944350606
 21
5.3994765608
 31
0.0
 11
5.3079736321
 21
5.4000346227
 31
0.0
 11
5.3221926709
 21
5.4005926772
 31
0.0
 11
5.3370584991
 21
5.4011507209
 31
0.0
 11
5.3685873165
 21
5.4022667835
 31
0.0
 11
5.4022562394
 21
5.4033828686
 31
0.0
 11
5.4377418997
 21
5.404498968
 31
0.0
 11
5.4746981156
 21
5.4056149713
 31
0.0
 11
5.5127764612
 21
5.4067310853
 31
0.0
 11
5.5516207661
 21
5.4078476083
 31
0.0
 11
5.5908145793
 21
5.4089633317
 31
0.0
  0
SPLINE
  5
2BA
100
AcDbEntity
  8
0
100
AcDbSpline
 62
6
  6
CONTINUOUS
 70
0
 71
3
 72
21
 73
17
 74
15
 42
0.0000001
 43
0.0000001
 44
0.0000000001
 12
0.3238231294
 22
0.0092034076
 32
0.0
 13
0.3235751171
 23
0.0156609526
 33
0.0
 40
0.0
 40
0.0
 40
0.0
 40
0.0
 40
0.1452773181
 40
0.2885828033
 40
0.3588395438
 40
0.427851735
 40
0.49538353
 40
0.5611983176
 40
0.6250625427
 40
0.6867563526
 40
0.746063902
 40
0.8027802084
 40
0.8567186137
 40
0.9076940165
 40
0.9555180061
 40
1.0
 40
1.0
 40
1.0
 40
1.0
 10
5.5908145793
 20
5.2661033317
 30
0.0
 10
5.6064959645
 20
5.2665490138
 30
0.0
 10
5.6376458935
 20
5.2674343203
 30
0.0
 10
5.6763789748
 20
5.2685504105
 30
0.0
 10
5.7068794603
 20
5.269448163
 30
0.0
 10
5.7292007426
 20
5.2701170172
 30
0.0
 10
5.751042144
 20
5.2707858337
 30
0.0
 10
5.7723273801
 20
5.2714545723
 30
0.0
 10
5.7929818856
 20
5.2721232629
 30
0.0
 10
5.8129333348
 20
5.2727917933
 30
0.0
 10
5.832112476
 20
5.2734601487
 30
0.0
 10
5.8504536278
 20
5.2741283817
 30
0.0
 10
5.8678944176
 20
5.2747964373
 30
0.0
 10
5.8843742378
 20
5.2754643906
 30
0.0
 10
5.8998320377
 20
5.2761319247
 30
0.0
 10
5.9097889918
 20
5.2765936216
 30
0.0
 10
5.9145867473
 20
5.2768258317
 30
0.0
 11
5.5908145793
 21
5.2661033317
 31
0.0
 11
5.6378586468
 21
5.2674434779
 31
0.0
 11
5.6842636569
 21
5.2687840331
 31
0.0
 11
5.7070137341
 21
5.2694541459
 31
0.0
 11
5.7293604562
 21
5.2701242751
 31
0.0
 11
5.7512273766
 21
5.2707944458
 31
0.0
 11
5.7725377973
 21
5.2714646335
 31
0.0
 11
5.7932160039
 21
5.2721348139
 31
0.0
 11
5.8131907148
 21
5.2728049669
 31
0.0
 11
5.8323919365
 21
5.2734750743
 31
0.0
 11
5.8507531812
 21
5.2741451635
 31
0.0
 11
5.8682138808
 21
5.2748153385
 31
0.0
 11
5.8847139493
 21
5.2754856865
 31
0.0
 11
5.9001922093
 21
5.2761559912
 31
0.0
 11
5.9145867473
 21
5.2768258317
 31
0.0
  0
SPLINE
  5
2BB
100
AcDbEntity
  8
0
100
AcDbSpline
 62
6
  6
CONTINUOUS
 70
0
 71
3
 72
47
 73
43
 74
41
 42
0.0000001
 43
0.0000001
 44
0.0000000001
 12
-0.000339536
 22
0.277353611
 32
0.0
 13
0.2772300866
 23
0.0082837161
 33
0.0
 40
0.0
 40
0.0
 40
0.0
 40
0.0
 40
0.0002019979
 40
0.0004098723
 40
0.000863209
 40
0.0013952624
 40
0.0020272364
 40
0.0027717565
 40
0.0036364609
 40
0.0046261467
 40
0.0057439474
 40
0.0069919826
 40
0.0083717268
 40
0.0098842285
 40
0.0115302452
 40
0.0152247626
 40
0.0194583028
 40
0.0242323239
 40
0.0295474699
 40
0.035403578
 40
0.0417989073
 40
0.0487311537
 40
0.0561978446
 40
0.0727240077
 40
0.0913557803
 40
0.1120702168
 40
0.1231993299
 40
0.1348368155
 40
0.1596178652
 40
0.1863752173
 40
0.2150705199
 40
0.2456631035
 40
0.2781034928
 40
0.3123399751
 40
0.3483207808
 40
0.4253014379
 40
0.5085616608
 40
0.5975823585
 40
0.6918284351
 40
0.7907474224
 40
0.8937211276
 40
1.0
 40
1.0
 40
1.0
 40
1.0
 10
5.1908147227
 20
5.462535837
 30
0.0
 10
5.1908146999
 20
5.462554512
 30
0.0
 10
5.1908179867
 20
5.462592487
 30
0.0
 10
5.190838293
 20
5.4626700078
 30
0.0
 10
5.190891645
 20
5.462768361
 30
0.0
 10
5.190991963
 20
5.4628803695
 30
0.0
 10
5.1911297069
 20
5.4629915198
 30
0.0
 10
5.1913051579
 20
5.4631023455
 30
0.0
 10
5.1915185756
 20
5.4632131838
 30
0.0
 10
5.1917701331
 20
5.4633240969
 30
0.0
 10
5.1920599185
 20
5.4634351079
 30
0.0
 10
5.1923879708
 20
5.4635462084
 30
0.0
 10
5.192754299
 20
5.4636573847
 30
0.0
 10
5.1931588921
 20
5.463768632
 30
0.0
 10
5.1937734034
 20
5.4639230408
 30
0.0
 10
5.1946379026
 20
5.4641138852
 30
0.0
 10
5.1957912361
 20
5.4643354486
 30
0.0
 10
5.1970967518
 20
5.464557328
 30
0.0
 10
5.1985541368
 20
5.4647794668
 30
0.0
 10
5.2001629471
 20
5.4650017705
 30
0.0
 10
5.2019225296
 20
5.4652242242
 30
0.0
 10
5.2038320832
 20
5.4654468078
 30
0.0
 10
5.2066746005
 20
5.4657542166
 30
0.0
 10
5.2105969914
 20
5.4661348779
 30
0.0
 10
5.2157434548
 20
5.4665784194
 30
0.0
 10
5.2203960409
 20
5.4669392626
 30
0.0
 10
5.2244054137
 20
5.4672297409
 30
0.0
 10
5.2287907532
 20
5.467533505
 30
0.0
 10
5.2346192197
 20
5.467911656
 30
0.0
 10
5.2420235857
 20
5.4683567265
 30
0.0
 10
5.2499661251
 20
5.4688019908
 30
0.0
 10
5.2584348323
 20
5.4692473621
 30
0.0
 10
5.2674164862
 20
5.4696928762
 30
0.0
 10
5.2768968599
 20
5.4701385244
 30
0.0
 10
5.290491913
 20
5.4707466407
 30
0.0
 10
5.30861717
 20
5.4715019555
 30
0.0
 10
5.3316446274
 20
5.4723900564
 30
0.0
 10
5.3562693786
 20
5.4732787139
 30
0.0
 10
5.382342668
 20
5.4741678727
 30
0.0
 10
5.409706624
 20
5.475057558
 30
0.0
 10
5.4381835862
 20
5.4759473231
 30
0.0
 10
5.4575204077
 20
5.4765323704
 30
0.0
 10
5.4673416414
 20
5.4768258317
 30
0.0
 11
5.1908147227
 21
5.462535837
 31
0.0
 11
5.1908194831
 21
5.4625916593
 31
0.0
 11
5.1908339033
 21
5.4626474816
 31
0.0
 11
5.1908917367
 21
5.4627591262
 31
0.0
 11
5.1909882329
 21
5.4628707707
 31
0.0
 11
5.1911233577
 21
5.4629824152
 31
0.0
 11
5.1912970699
 21
5.4630940597
 31
0.0
 11
5.191509328
 21
5.4632057041
 31
0.0
 11
5.1917600909
 21
5.4633173483
 31
0.0
 11
5.1920493173
 21
5.4634289925
 31
0.0
 11
5.1923769659
 21
5.4635406364
 31
0.0
 11
5.1927429954
 21
5.4636522802
 31
0.0
 11
5.1931473645
 21
5.4637639238
 31
0.0
 11
5.193590032
 21
5.4638755671
 31
0.0
 11
5.194590097
 21
5.464098853
 31
0.0
 11
5.19574286
 21
5.4643221377
 31
0.0
 11
5.197047991
 21
5.4645454209
 31
0.0
 11
5.1985051596
 21
5.4647687026
 31
0.0
 11
5.2001139532
 21
5.4649919826
 31
0.0
 11
5.2018736132
 21
5.465215261
 31
0.0
 11
5.2037832899
 21
5.4654385384
 31
0.0
 11
5.2058421336
 21
5.4656618149
 31
0.0
 11
5.2104039237
 21
5.466108367
 31
0.0
 11
5.2155521866
 21
5.46655492
 31
0.0
 11
5.2212800338
 21
5.4670014765
 31
0.0
 11
5.2243586496
 21
5.4672247564
 31
0.0
 11
5.2275786185
 21
5.4674480373
 31
0.0
 11
5.2344372147
 21
5.4678946015
 31
0.0
 11
5.2418450205
 21
5.4683411681
 31
0.0
 11
5.2497912338
 21
5.4687877363
 31
0.0
 11
5.2582644439
 21
5.4692343053
 31
0.0
 11
5.2672508207
 21
5.469680876
 31
0.0
 11
5.2767359329
 21
5.4701274495
 31
0.0
 11
5.2867053496
 21
5.470574027
 31
0.0
 11
5.3080375389
 21
5.4714671932
 31
0.0
 11
5.3311128015
 21
5.4723603291
 31
0.0
 11
5.3557868762
 21
5.4732533677
 31
0.0
 11
5.3819111261
 21
5.4741464035
 31
0.0
 11
5.4093321383
 21
5.4750397037
 31
0.0
 11
5.4378783104
 21
5.4759331513
 31
0.0
 11
5.4673416414
 21
5.4768258317
 31
0.0
  0
SPLINE
  5
2BC
100
AcDbEntity
  8
0
100
AcDbSpline
 62
6
  6
CONTINUOUS
 70
0
 71
3
 72
84
 73
80
 74
78
 42
0.0000001
 43
0.0000001
 44
0.0000000001
 12
-0.6265644178
 22
-0.3622301036
 32
0.0
 13
0.0009619011
 23
-0.7237352364
 33
0.0
 40
0.0
 40
0.0
 40
0.0
 40
0.0
 40
0.000410316
 40
0.0008861689
 40
0.001429229
 40
0.002040572
 40
0.0027209106
 40
0.003470725
 40
0.0042903407
 40
0.0051799766
 40
0.0071697808
 40
0.0094407655
 40
0.0119929697
 40
0.0148260652
 40
0.017938832
 40
0.0213294559
 40
0.024996021
 40
0.028936545
 40
0.0331489979
 40
0.0376313133
 40
0.0473968004
 40
0.0582108242
 40
0.0700470483
 40
0.0828788804
 40
0.0966787717
 40
0.1114136938
 40
0.1270484601
 40
0.1435478379
 40
0.1608749202
 40
0.1789880398
 40
0.197844663
 40
0.2376156904
 40
0.2798176758
 40
0.3240603081
 40
0.3699311779
 40
0.417005588
 40
0.4648451274
 40
0.5130060744
 40
0.5610406183
 40
0.6085025441
 40
0.6549510539
 40
0.6999545286
 40
0.7430949716
 40
0.783972168
 40
0.8222058055
 40
0.8402197073
 40
0.857442774
 40
0.8738336128
 40
0.8893542093
 40
0.9039703286
 40
0.9176479737
 40
0.93035373
 40
0.9420593581
 40
0.9527395872
 40
0.9623693339
 40
0.9667826861
 40
0.9709252479
 40
0.9747951418
 40
0.9783905285
 40
0.9817096206
 40
0.9847507024
 40
0.9875121592
 40
0.989992548
 40
0.9921912212
 40
0.9941084847
 40
0.9949618807
 40
0.9957453506
 40
0.9964591863
 40
0.9971038083
 40
0.9976798259
 40
0.9981881379
 40
0.9986301056
 40
0.9990078657
 40
0.9993249245
 40
0.999587317
 40
0.9997013476
 40
0.9998063419
 40
0.9999048644
 40
1.0
 40
1.0
 40
1.0
 40
1.0
 10
5.9516192576
 20
5.5467415754
 30
0.0
 10
5.9515335611
 20
5.5466920324
 30
0.0
 10
5.9513430419
 20
5.5465944115
 30
0.0
 10
5.9510260244
 20
5.5464584076
 30
0.0
 10
5.9506569064
 20
5.5463222303
 30
0.0
 10
5.9502357019
 20
5.5461859126
 30
0.0
 10
5.9497624042
 20
5.5460494727
 30
0.0
 10
5.9492370598
 20
5.5459129365
 30
0.0
 10
5.9486597271
 20
5.5457763131
 30
0.0
 10
5.947787635
 20
5.5455869181
 30
0.0
 10
5.9465672113
 20
5.5453527113
 30
0.0
 10
5.944946195
 20
5.5450805594
 30
0.0
 10
5.9431192824
 20
5.5448080334
 30
0.0
 10
5.9410873374
 20
5.5445352304
 30
0.0
 10
5.9388515173
 20
5.5442622122
 30
0.0
 10
5.9364132886
 20
5.5439890067
 30
0.0
 10
5.9337742346
 20
5.5437156572
 30
0.0
 10
5.9309359483
 20
5.5434421941
 30
0.0
 10
5.9279000267
 20
5.543168631
 30
0.0
 10
5.9234624328
 20
5.5427929537
 30
0.0
 10
5.917434299
 20
5.5423268165
 30
0.0
 10
5.9096331354
 20
5.5417815644
 30
0.0
 10
5.9010906256
 20
5.5412357755
 30
0.0
 10
5.8918264721
 20
5.5406895661
 30
0.0
 10
5.8818619105
 20
5.5401431479
 30
0.0
 10
5.8712202216
 20
5.5395964801
 30
0.0
 10
5.8599265
 20
5.5390495856
 30
0.0
 10
5.8480067478
 20
5.5385025338
 30
0.0
 10
5.8354885106
 20
5.5379554159
 30
0.0
 10
5.8224010871
 20
5.5374081626
 30
0.0
 10
5.8039026487
 20
5.5366651012
 30
0.0
 10
5.7795954758
 20
5.5357417505
 30
0.0
 10
5.7491660534
 20
5.5346515338
 30
0.0
 10
5.7172641939
 20
5.5335608304
 30
0.0
 10
5.6841862439
 20
5.5324696452
 30
0.0
 10
5.6502401072
 20
5.5313782333
 30
0.0
 10
5.6157412276
 20
5.5302866183
 30
0.0
 10
5.5810106071
 20
5.5291949576
 30
0.0
 10
5.5463711285
 20
5.5281033143
 30
0.0
 10
5.5121449696
 20
5.5270117931
 30
0.0
 10
5.4786504118
 20
5.5259205038
 30
0.0
 10
5.4461989468
 20
5.524829562
 30
0.0
 10
5.4150923023
 20
5.5237391252
 30
0.0
 10
5.3856198759
 20
5.5226493818
 30
0.0
 10
5.362207206
 20
5.5217246871
 30
0.0
 10
5.3444984036
 20
5.5209801552
 30
0.0
 10
5.3320554517
 20
5.5204330402
 30
0.0
 10
5.3202146012
 20
5.5198860377
 30
0.0
 10
5.3090033641
 20
5.5193391502
 30
0.0
 10
5.298447483
 20
5.518792489
 30
0.0
 10
5.2885716194
 20
5.5182461176
 30
0.0
 10
5.279399033
 20
5.5176999797
 30
0.0
 10
5.2709509114
 20
5.5171542253
 30
0.0
 10
5.2632465113
 20
5.516609013
 30
0.0
 10
5.2573002878
 20
5.5161427987
 30
0.0
 10
5.2529291922
 20
5.515766958
 30
0.0
 10
5.2499440135
 20
5.5154934112
 30
0.0
 10
5.2471570361
 20
5.5152199701
 30
0.0
 10
5.2445697258
 20
5.5149466474
 30
0.0
 10
5.2421835433
 20
5.514673477
 30
0.0
 10
5.2399999417
 20
5.5144005012
 30
0.0
 10
5.2380203605
 20
5.5141277789
 30
0.0
 10
5.2362460661
 20
5.5138553763
 30
0.0
 10
5.2346780454
 20
5.5135833436
 30
0.0
 10
5.2335021415
 20
5.5133489982
 30
0.0
 10
5.2326659139
 20
5.5131593467
 30
0.0
 10
5.2321154655
 20
5.5130227599
 30
0.0
 10
5.2316170262
 20
5.5128862696
 30
0.0
 10
5.2311706313
 20
5.5127498857
 30
0.0
 10
5.2307762935
 20
5.5126136354
 30
0.0
 10
5.2304339785
 20
5.5124775345
 30
0.0
 10
5.2301436045
 20
5.5123416039
 30
0.0
 10
5.2299048969
 20
5.5122057266
 30
0.0
 10
5.2297175902
 20
5.5120697553
 30
0.0
 10
5.2295986148
 20
5.5119503061
 30
0.0
 10
5.2295331478
 20
5.511853976
 30
0.0
 10
5.2294995446
 20
5.5117847781
 30
0.0
 10
5.2294792732
 20
5.5117152606
 30
0.0
 10
5.2294747643
 20
5.5116684199
 30
0.0
 10
5.2294747948
 20
5.5116454689
 30
0.0
 11
5.9516192576
 21
5.5467415754
 31
0.0
 11
5.9513558365
 21
5.5466044812
 31
0.0
 11
5.9510399078
 21
5.546467387
 31
0.0
 11
5.950671561
 21
5.5463302929
 31
0.0
 11
5.9502508853
 21
5.5461931987
 31
0.0
 11
5.9497779703
 21
5.5460561045
 31
0.0
 11
5.9492529053
 21
5.5459190104
 31
0.0
 11
5.9486757797
 21
5.5457819162
 31
0.0
 11
5.9480466829
 21
5.545644822
 31
0.0
 11
5.9466329334
 21
5.5453706337
 31
0.0
 11
5.9450123721
 21
5.5450964454
 31
0.0
 11
5.9431857141
 21
5.544822257
 31
0.0
 11
5.9411537167
 21
5.5445480687
 31
0.0
 11
5.9389176434
 21
5.5442738804
 31
0.0
 11
5.9364790936
 21
5.543999692
 31
0.0
 11
5.9338396724
 21
5.5437255037
 31
0.0
 11
5.9310009849
 21
5.5434513154
 31
0.0
 11
5.9279646364
 21
5.5431771271
 31
0.0
 11
5.924732232
 21
5.5429029387
 31
0.0
 11
5.917685905
 21
5.5423545621
 31
0.0
 11
5.9098786431
 21
5.5418061854
 31
0.0
 11
5.9013299135
 21
5.5412578087
 31
0.0
 11
5.8920592608
 21
5.5407094321
 31
0.0
 11
5.8820868505
 21
5.5401610554
 31
0.0
 11
5.8714367675
 21
5.5396126787
 31
0.0
 11
5.8601346219
 21
5.5390643021
 31
0.0
 11
5.8482060285
 21
5.5385159254
 31
0.0
 11
5.8356777933
 21
5.5379675488
 31
0.0
 11
5.8225801535
 21
5.5374191721
 31
0.0
 11
5.8089439608
 21
5.5368707954
 31
0.0
 11
5.780181144
 21
5.5357740421
 31
0.0
 11
5.7496577508
 21
5.5346772888
 31
0.0
 11
5.7176565592
 21
5.5335805354
 31
0.0
 11
5.6844762863
 21
5.5324837821
 31
0.0
 11
5.6504245047
 21
5.5313870288
 31
0.0
 11
5.615818689
 21
5.5302902755
 31
0.0
 11
5.5809801431
 21
5.5291935221
 31
0.0
 11
5.5462331249
 21
5.5280967688
 31
0.0
 11
5.51190074
 21
5.5270000155
 31
0.0
 11
5.4783021829
 21
5.5259032622
 31
0.0
 11
5.4457500245
 21
5.5248065088
 31
0.0
 11
5.4145470072
 21
5.5237097555
 31
0.0
 11
5.3849830501
 21
5.5226130022
 31
0.0
 11
5.3573337387
 21
5.5215162489
 31
0.0
 11
5.3443079697
 21
5.5209678722
 31
0.0
 11
5.3318550868
 21
5.5204194955
 31
0.0
 11
5.3200051305
 21
5.5198711189
 31
0.0
 11
5.3087857116
 21
5.5193227422
 31
0.0
 11
5.2982217253
 21
5.5187743655
 31
0.0
 11
5.2883379238
 21
5.5182259889
 31
0.0
 11
5.2791586777
 21
5.5176776122
 31
0.0
 11
5.2707046616
 21
5.5171292355
 31
0.0
 11
5.2629944733
 21
5.5165808589
 31
0.0
 11
5.2560466878
 21
5.5160324822
 31
0.0
 11
5.2528643766
 21
5.5157582939
 31
0.0
 11
5.2498788201
 21
5.5154841056
 31
0.0
 11
5.2470914925
 21
5.5152099172
 31
0.0
 11
5.2445038683
 21
5.5149357289
 31
0.0
 11
5.2421174219
 21
5.5146615406
 31
0.0
 11
5.2399336276
 21
5.5143873522
 31
0.0
 11
5.2379539599
 21
5.5141131639
 31
0.0
 11
5.2361798766
 21
5.5138389756
 31
0.0
 11
5.2346124185
 21
5.5135647872
 31
0.0
 11
5.2332521857
 21
5.5132905989
 31
0.0
 11
5.2326499597
 21
5.5131535047
 31
0.0
 11
5.2320997572
 21
5.5130164106
 31
0.0
 11
5.2316016506
 21
5.5128793164
 31
0.0
 11
5.2311557122
 21
5.5127422222
 31
0.0
 11
5.2307620144
 21
5.5126051281
 31
0.0
 11
5.2304206296
 21
5.5124680339
 31
0.0
 11
5.2301316302
 21
5.5123309397
 31
0.0
 11
5.2298950886
 21
5.5121938456
 31
0.0
 11
5.2297110771
 21
5.5120567514
 31
0.0
 11
5.2295796682
 21
5.5119196572
 31
0.0
 11
5.2295337099
 21
5.5118511102
 31
0.0
 11
5.2295009151
 21
5.5117825631
 31
0.0
 11
5.2294812784
 21
5.511714016
 31
0.0
 11
5.2294747948
 21
5.5116454689
 31
0.0
  0
SPLINE
  5
2BD
100
AcDbEntity
  8
0
100
AcDbSpline
 62
6
  6
CONTINUOUS
 70
0
 71
3
 72
25
 73
21
 74
19
 42
0.0000001
 43
0.0000001
 44
0.0000000001
 12
0.105074421
 22
-0.0633951388
 32
0.0
 13
0.0000856349
 23
-0.1227174406
 33
0.0
 40
0.0
 40
0.0
 40
0.0
 40
0.0
 40
0.062486144
 40
0.0936676317
 40
0.1248097169
 40
0.1869859394
 40
0.249070131
 40
0.2800991466
 40
0.3111258994
 40
0.3731812252
 40
0.4352766538
 40
0.4974454601
 40
0.5597149242
 40
0.6221081004
 40
0.6846471818
 40
0.7473492848
 40
0.8102264809
 40
0.8732891199
 40
0.9365458646
 40
1.0
 40
1.0
 40
1.0
 40
1.0
 10
5.6733769297
 20
4.4057053765
 30
0.0
 10
5.6755654949
 20
4.4043849372
 30
0.0
 10
5.6787865499
 20
4.4023039637
 30
0.0
 10
5.6829405926
 20
4.3993348366
 30
0.0
 10
5.6869889214
 20
4.3962436878
 30
0.0
 10
5.6918546032
 20
4.3921457104
 30
0.0
 10
5.6964432017
 20
4.3877461905
 30
0.0
 10
5.6999335138
 20
4.3840566978
 30
0.0
 10
5.7033006928
 20
4.3802560991
 30
0.0
 10
5.7072755037
 20
4.3753006971
 30
0.0
 10
5.7116485501
 20
4.3690520096
 30
0.0
 10
5.7156063415
 20
4.3625219484
 30
0.0
 10
5.7191348418
 20
4.3557366726
 30
0.0
 10
5.7222204174
 20
4.3487222741
 30
0.0
 10
5.7248492402
 20
4.3415054457
 30
0.0
 10
5.7270136652
 20
4.3341154807
 30
0.0
 10
5.7287061008
 20
4.3265814415
 30
0.0
 10
5.7299182454
 20
4.3189323806
 30
0.0
 10
5.7306480997
 20
4.3111990605
 30
0.0
 10
5.7308123732
 20
4.3060144967
 30
0.0
 10
5.7308141845
 20
4.3034188536
 30
0.0
 11
5.6733769297
 21
4.4057053765
 31
0.0
 11
5.6798169916
 21
4.4015429255
 31
0.0
 11
5.68292995
 21
4.3993176853
 31
0.0
 11
5.6859672527
 21
4.3969981995
 31
0.0
 11
5.6918026823
 21
4.3920822743
 31
0.0
 11
5.6973015326
 21
4.3868088516
 31
0.0
 11
5.6999182861
 21
4.384042634
 31
0.0
 11
5.7024432003
 21
4.3811927127
 31
0.0
 11
5.7072079768
 21
4.3752522344
 31
0.0
 11
5.7115769153
 21
4.3690088594
 31
0.0
 11
5.7155317893
 21
4.3624847775
 31
0.0
 11
5.7190577509
 21
4.3557053308
 31
0.0
 11
5.722140976
 21
4.348696816
 31
0.0
 11
5.7247687375
 21
4.3414860646
 31
0.0
 11
5.7269323187
 21
4.3341018615
 31
0.0
 11
5.7286239195
 21
4.3265734383
 31
0.0
 11
5.7298363781
 21
4.3189301194
 31
0.0
 11
5.7305668303
 21
4.311201855
 31
0.0
 11
5.7308141845
 21
4.3034188536
 31
0.0
  0
SPLINE
  5
2BE
100
AcDbEntity
  8
0
100
AcDbSpline
 62
6
  6
CONTINUOUS
 70
0
 71
3
 72
44
 73
40
 74
38
 42
0.0000001
 43
0.0000001
 44
0.0000000001
 12
-0.4094280917
 22
-0.236924566
 32
0.0
 13
-0.4727790802
 23
-0.0156382102
 33
0.0
 40
0.0
 40
0.0
 40
0.0
 40
0.0
 40
0.0007546165
 40
0.0016509931
 40
0.0026931478
 40
0.0038833438
 40
0.0052229358
 40
0.0067127523
 40
0.0083532863
 40
0.0101448078
 40
0.0120874334
 40
0.0141811705
 40
0.0188215768
 40
0.024064892
 40
0.0299090904
 40
0.0363498737
 40
0.0433817623
 40
0.0509991062
 40
0.0591961407
 40
0.0679670184
 40
0.0773057839
 40
0.0976561676
 40
0.1201778311
 40
0.144799112
 40
0.1714437653
 40
0.2000215409
 40
0.2304393154
 40
0.2626015449
 40
0.2964008226
 40
0.3317259721
 40
0.3684646847
 40
0.4064956731
 40
0.4859312923
 40
0.568999402
 40
0.6546170464
 40
0.7416580052
 40
0.8289894614
 40
0.9155083605
 40
1.0
 40
1.0
 40
1.0
 40
1.0
 10
5.9516190113
 20
5.4753115771
 30
0.0
 10
5.9515160243
 20
5.4752519813
 30
0.0
 10
5.9512828323
 20
5.4751352047
 30
0.0
 10
5.9508895685
 20
5.4749743692
 30
0.0
 10
5.9504230708
 20
5.4748132351
 30
0.0
 10
5.9498833424
 20
5.4746518473
 30
0.0
 10
5.9492703857
 20
5.4744902532
 30
0.0
 10
5.9485843148
 20
5.474328499
 30
0.0
 10
5.9478252588
 20
5.4741666185
 30
0.0
 10
5.9469933689
 20
5.4740046399
 30
0.0
 10
5.9460888066
 20
5.4738425746
 30
0.0
 10
5.9447390789
 20
5.4736186482
 30
0.0
 10
5.9428708149
 20
5.4733413404
 30
0.0
 10
5.9404118847
 20
5.4730183872
 30
0.0
 10
5.9376669393
 20
5.4726951082
 30
0.0
 10
5.934638261
 20
5.4723715154
 30
0.0
 10
5.9313285725
 20
5.4720476773
 30
0.0
 10
5.9277407655
 20
5.4717236469
 30
0.0
 10
5.9238777378
 20
5.4713994685
 30
0.0
 10
5.919742401
 20
5.471075158
 30
0.0
 10
5.9136944114
 20
5.4706297904
 30
0.0
 10
5.9054803221
 20
5.4700773746
 30
0.0
 10
5.8948576192
 20
5.4694310541
 30
0.0
 10
5.8832408056
 20
5.4687841199
 30
0.0
 10
5.8706677343
 20
5.4681368156
 30
0.0
 10
5.8571795759
 20
5.4674890825
 30
0.0
 10
5.842820489
 20
5.4668410219
 30
0.0
 10
5.8276372972
 20
5.4661928185
 30
0.0
 10
5.8116796556
 20
5.4655444027
 30
0.0
 10
5.7949998376
 20
5.4648957974
 30
0.0
 10
5.7776522865
 20
5.4642471157
 30
0.0
 10
5.753353158
 20
5.4633693022
 30
0.0
 10
5.721751787
 20
5.4622789254
 30
0.0
 10
5.6826495035
 20
5.4609878707
 30
0.0
 10
5.6423474026
 20
5.4596963059
 30
0.0
 10
5.601372733
 20
5.4584044733
 30
0.0
 10
5.5602558889
 20
5.4571124909
 30
0.0
 10
5.5195412138
 20
5.4558206725
 30
0.0
 10
5.492590594
 20
5.454945903
 30
0.0
 10
5.4792753008
 20
5.4545054703
 30
0.0
 11
5.9516190113
 21
5.4753115771
 31
0.0
 11
5.9513012062
 21
5.4751490293
 31
0.0
 11
5.95090958
 21
5.4749864816
 31
0.0
 11
5.9504441705
 21
5.4748239339
 31
0.0
 11
5.9499051383
 21
5.4746613862
 31
0.0
 11
5.9492926635
 21
5.4744988385
 31
0.0
 11
5.9486069262
 21
5.4743362908
 31
0.0
 11
5.9478481064
 21
5.4741737431
 31
0.0
 11
5.9470163842
 21
5.4740111954
 31
0.0
 11
5.9461119397
 21
5.4738486477
 31
0.0
 11
5.945134953
 21
5.4736861
 31
0.0
 11
5.9429640732
 21
5.4733610045
 31
0.0
 11
5.9405051854
 21
5.4730359091
 31
0.0
 11
5.937759841
 21
5.4727108137
 31
0.0
 11
5.934730502
 21
5.4723857183
 31
0.0
 11
5.9314200784
 21
5.4720606229
 31
0.0
 11
5.9278314833
 21
5.4717355274
 31
0.0
 11
5.9239676297
 21
5.471410432
 31
0.0
 11
5.9198314306
 21
5.4710853366
 31
0.0
 11
5.9154258213
 21
5.4707602412
 31
0.0
 11
5.9058213064
 21
5.4701100504
 31
0.0
 11
5.8951875708
 21
5.4694598596
 31
0.0
 11
5.883558941
 21
5.4688096687
 31
0.0
 11
5.8709717987
 21
5.4681594777
 31
0.0
 11
5.8574690802
 21
5.4675092868
 31
0.0
 11
5.8430950256
 21
5.4668590962
 31
0.0
 11
5.8278949801
 21
5.4662089057
 31
0.0
 11
5.8119198754
 21
5.4655587152
 31
0.0
 11
5.7952224041
 21
5.4649085239
 31
0.0
 11
5.7778557772
 21
5.4642583317
 31
0.0
 11
5.7598774414
 21
5.4636081396
 31
0.0
 11
5.7223239108
 21
5.4623077638
 31
0.0
 11
5.6830510907
 21
5.4610073853
 31
0.0
 11
5.6425716047
 21
5.4597069669
 31
0.0
 11
5.601418493
 21
5.4584066375
 31
0.0
 11
5.5601278955
 21
5.457106351
 31
0.0
 11
5.519221878
 21
5.455805507
 31
0.0
 11
5.4792753008
 21
5.4545054703
 31
0.0
  0
SPLINE
  5
2BF
100
AcDbEntity
  8
0
100
AcDbSpline
 62
6
  6
CONTINUOUS
 70
0
 71
3
 72
42
 73
38
 74
36
 42
0.0000001
 43
0.0000001
 44
0.0000000001
 12
-0.3464312332
 22
-0.2001774728
 32
0.0
 13
-0.3999455135
 23
-0.011366889
 33
0.0
 40
0.0
 40
0.0
 40
0.0
 40
0.0
 40
0.0007369587
 40
0.0016014961
 40
0.0025970895
 40
0.0037259656
 40
0.0049896108
 40
0.0063890502
 40
0.0079250072
 40
0.0095980013
 40
0.0133563116
 40
0.0176645946
 40
0.0225214906
 40
0.0279250543
 40
0.033872983
 40
0.0403627395
 40
0.0473916261
 40
0.0549568288
 40
0.063054817
 40
0.07168058
 40
0.0904943486
 40
0.1113557659
 40
0.1342218875
 40
0.1590429572
 40
0.1857598414
 40
0.214312595
 40
0.2446405266
 40
0.2766745217
 40
0.3103396627
 40
0.3822615316
 40
0.4597606567
 40
0.5421398055
 40
0.6286500483
 40
0.718503933
 40
0.8109130467
 40
0.9050647561
 40
1.0
 40
1.0
 40
1.0
 40
1.0
 10
5.9903298229
 20
5.4976916508
 30
0.0
 10
5.9902447211
 20
5.4976424767
 30
0.0
 10
5.9900538751
 20
5.4975458285
 30
0.0
 10
5.9897342448
 20
5.4974119191
 30
0.0
 10
5.9893586767
 20
5.497277798
 30
0.0
 10
5.9889271232
 20
5.4971435084
 30
0.0
 10
5.9884395121
 20
5.4970090761
 30
0.0
 10
5.987895838
 20
5.4968745333
 30
0.0
 10
5.9872961087
 20
5.4967398925
 30
0.0
 10
5.9863858496
 20
5.4965529453
 30
0.0
 10
5.9851074085
 20
5.4963219818
 30
0.0
 10
5.9834046984
 20
5.4960538646
 30
0.0
 10
5.9814802423
 20
5.4957853325
 30
0.0
 10
5.9793352769
 20
5.4955164606
 30
0.0
 10
5.9769710317
 20
5.4952473474
 30
0.0
 10
5.9743887671
 20
5.4949780461
 30
0.0
 10
5.9715897499
 20
5.4947085978
 30
0.0
 10
5.9685753381
 20
5.4944390456
 30
0.0
 10
5.9653471691
 20
5.4941694152
 30
0.0
 10
5.9606220466
 20
5.4937989857
 30
0.0
 10
5.9541965377
 20
5.4933393726
 30
0.0
 10
5.945872756
 20
5.4928018353
 30
0.0
 10
5.9367462981
 20
5.492263862
 30
0.0
 10
5.9268376843
 20
5.4917255495
 30
0.0
 10
5.9161696353
 20
5.4911868872
 30
0.0
 10
5.9047662841
 20
5.4906479544
 30
0.0
 10
5.8926530598
 20
5.4901088867
 30
0.0
 10
5.8798573716
 20
5.4895696687
 30
0.0
 10
5.8615177265
 20
5.4888341923
 30
0.0
 10
5.8371167369
 20
5.487921316
 30
0.0
 10
5.806220416
 20
5.4868474125
 30
0.0
 10
5.773377385
 20
5.4857727401
 30
0.0
 10
5.7388857985
 20
5.4846974801
 30
0.0
 10
5.7030559166
 20
5.4836218049
 30
0.0
 10
5.6662064698
 20
5.4825456766
 30
0.0
 10
5.6286790471
 20
5.4814694812
 30
0.0
 10
5.6034708875
 20
5.4807530378
 30
0.0
 10
5.5908145793
 20
5.4803933317
 30
0.0
 11
5.9903298229
 21
5.4976916508
 31
0.0
 11
5.990067754
 21
5.4975565077
 31
0.0
 11
5.9897493386
 21
5.4974213646
 31
0.0
 11
5.9893746198
 21
5.4972862215
 31
0.0
 11
5.9889436404
 21
5.4971510784
 31
0.0
 11
5.9884564433
 21
5.4970159353
 31
0.0
 11
5.9879130716
 21
5.4968807922
 31
0.0
 11
5.987313568
 21
5.4967456491
 31
0.0
 11
5.9866579755
 21
5.496610506
 31
0.0
 11
5.9851787398
 21
5.4963402198
 31
0.0
 11
5.9834762878
 21
5.4960699336
 31
0.0
 11
5.9815518982
 21
5.4957996474
 31
0.0
 11
5.9794068561
 21
5.4955293612
 31
0.0
 11
5.9770424468
 21
5.495259075
 31
0.0
 11
5.9744599555
 21
5.4949887887
 31
0.0
 11
5.9716606672
 21
5.4947185025
 31
0.0
 11
5.9686458683
 21
5.4944482162
 31
0.0
 11
5.9654170998
 21
5.49417793
 31
0.0
 11
5.9619764717
 21
5.4939076437
 31
0.0
 11
5.9544683861
 21
5.4933670712
 31
0.0
 11
5.94613911
 21
5.4928264987
 31
0.0
 11
5.9370061985
 21
5.4922859264
 31
0.0
 11
5.9270898378
 21
5.4917453543
 31
0.0
 11
5.9164139022
 21
5.4912047819
 31
0.0
 11
5.905002542
 21
5.490664209
 31
0.0
 11
5.8928801708
 21
5.4901236355
 31
0.0
 11
5.8800745496
 21
5.4895830617
 31
0.0
 11
5.8666157423
 21
5.489042489
 31
0.0
 11
5.8378596149
 21
5.4879613505
 31
0.0
 11
5.8068705252
 21
5.4868802087
 31
0.0
 11
5.7739277874
 21
5.485799036
 31
0.0
 11
5.7393313216
 21
5.4847178905
 31
0.0
 11
5.7033964091
 21
5.4836368597
 31
0.0
 11
5.6664386865
 21
5.4825556667
 31
0.0
 11
5.6287834578
 21
5.4814740784
 31
0.0
 11
5.5908145793
 21
5.4803933317
 31
0.0
  0
SPLINE
  5
2C0
100
AcDbEntity
  8
0
100
AcDbSpline
 62
6
  6
CONTINUOUS
 70
0
 71
3
 72
83
 73
79
 74
77
 42
0.0000001
 43
0.0000001
 44
0.0000000001
 12
-0.0010239092
 22
-0.7237336853
 32
0.0
 13
-0.6265711115
 23
-0.3622155958
 33
0.0
 40
0.0
 40
0.0
 40
0.0
 40
0.0
 40
0.0000951593
 40
0.0001937409
 40
0.0002988078
 40
0.0004128995
 40
0.0006753086
 40
0.0009922118
 40
0.0013696686
 40
0.0018112342
 40
0.0023191027
 40
0.002894696
 40
0.0035389751
 40
0.0042526118
 40
0.0050360889
 40
0.0058897378
 40
0.0078079673
 40
0.0100076118
 40
0.0124882673
 40
0.0152491748
 40
0.018289353
 40
0.0216076747
 40
0.0252029129
 40
0.0290735193
 40
0.0332171117
 40
0.0376311161
 40
0.0472598983
 40
0.0579388149
 40
0.0696456768
 40
0.0823524756
 40
0.0960288268
 40
0.1106442608
 40
0.1261663395
 40
0.1425574955
 40
0.1597792942
 40
0.1777931846
 40
0.2160278906
 40
0.2569045552
 40
0.3000454183
 40
0.3450488777
 40
0.3914974725
 40
0.4389595234
 40
0.4869942037
 40
0.5351550603
 40
0.5829950657
 40
0.63006901
 40
0.6759406741
 40
0.7201826192
 40
0.7623854267
 40
0.8021559331
 40
0.8391260814
 40
0.8564521339
 40
0.872952616
 40
0.8885883331
 40
0.9033219344
 40
0.9171211484
 40
0.9299546244
 40
0.9417911935
 40
0.9526035284
 40
0.9623690392
 40
0.9668523361
 40
0.9710656714
 40
0.9750063591
 40
0.9786722687
 40
0.982061925
 40
0.9851739526
 40
0.988007067
 40
0.9905601162
 40
0.9928321478
 40
0.994822524
 40
0.9957120907
 40
0.9965314318
 40
0.9972808352
 40
0.997960695
 40
0.9985715593
 40
0.9991142072
 40
0.9995897781
 40
1.0
 40
1.0
 40
1.0
 40
1.0
 10
5.9521540223
 20
5.5384304686
 30
0.0
 10
5.9521539898
 20
5.5384075119
 30
0.0
 10
5.9521493552
 20
5.5383606647
 30
0.0
 10
5.9521289279
 20
5.5382911565
 30
0.0
 10
5.9520952069
 20
5.5382219673
 30
0.0
 10
5.9520296482
 20
5.5381256598
 30
0.0
 10
5.9519107048
 20
5.5380062195
 30
0.0
 10
5.9517235435
 20
5.5378702305
 30
0.0
 10
5.9514850839
 20
5.5377343401
 30
0.0
 10
5.9511950205
 20
5.5375983999
 30
0.0
 10
5.9508530382
 20
5.5374622926
 30
0.0
 10
5.9504590113
 20
5.5373260378
 30
0.0
 10
5.9500128617
 20
5.5371896506
 30
0.0
 10
5.9495145575
 20
5.537053158
 30
0.0
 10
5.9489640948
 20
5.5369165708
 30
0.0
 10
5.9481275658
 20
5.5367269178
 30
0.0
 10
5.9469511186
 20
5.536492606
 30
0.0
 10
5.9453825559
 20
5.5362206105
 30
0.0
 10
5.9436080988
 20
5.5359482011
 30
0.0
 10
5.9416288151
 20
5.535675448
 30
0.0
 10
5.939445761
 20
5.5354024513
 30
0.0
 10
5.9370600279
 20
5.5351292634
 30
0.0
 10
5.9344727733
 20
5.5348559351
 30
0.0
 10
5.9316854125
 20
5.534582519
 30
0.0
 10
5.9286996576
 20
5.5343089947
 30
0.0
 10
5.9243283933
 20
5.5339331984
 30
0.0
 10
5.9183825803
 20
5.5334669249
 30
0.0
 10
5.9106784528
 20
5.532921639
 30
0.0
 10
5.9022301097
 20
5.5323759713
 30
0.0
 10
5.8930573021
 20
5.5318298766
 30
0.0
 10
5.8831816892
 20
5.5312834308
 30
0.0
 10
5.8726259508
 20
5.5307367424
 30
0.0
 10
5.8614144638
 20
5.5301899282
 30
0.0
 10
5.849573509
 20
5.5296429269
 30
0.0
 10
5.8371308172
 20
5.5290957567
 30
0.0
 10
5.8194221007
 20
5.5283512439
 30
0.0
 10
5.79600935
 20
5.5274265871
 30
0.0
 10
5.7665367543
 20
5.5263367929
 30
0.0
 10
5.7354302025
 20
5.5252463872
 30
0.0
 10
5.7029786856
 20
5.5241554317
 30
0.0
 10
5.6694841485
 20
5.5230641463
 30
0.0
 10
5.6352579754
 20
5.5219726237
 30
0.0
 10
5.6006185255
 20
5.5208809865
 30
0.0
 10
5.5658878524
 20
5.5197893099
 30
0.0
 10
5.5313890635
 20
5.5186977243
 30
0.0
 10
5.4974428054
 20
5.5176062689
 30
0.0
 10
5.4643650069
 20
5.5165151411
 30
0.0
 10
5.4324629911
 20
5.515424366
 30
0.0
 10
5.4020337175
 20
5.5143342482
 30
0.0
 10
5.3733598867
 20
5.5132448427
 30
0.0
 10
5.3506856231
 20
5.5123191621
 30
0.0
 10
5.333622571
 20
5.5115733708
 30
0.0
 10
5.3217025938
 20
5.5110263526
 30
0.0
 10
5.3104087153
 20
5.5104795096
 30
0.0
 10
5.2997673038
 20
5.5099327828
 30
0.0
 10
5.289802851
 20
5.5093863146
 30
0.0
 10
5.2805383943
 20
5.5088401929
 30
0.0
 10
5.2719958268
 20
5.5082944388
 30
0.0
 10
5.2641950057
 20
5.507749079
 30
0.0
 10
5.2581670509
 20
5.5072829334
 30
0.0
 10
5.2537290045
 20
5.5069073103
 30
0.0
 10
5.2506925959
 20
5.5066337696
 30
0.0
 10
5.2478542197
 20
5.5063603153
 30
0.0
 10
5.2452155267
 20
5.5060869489
 30
0.0
 10
5.2427778786
 20
5.5058137234
 30
0.0
 10
5.2405424768
 20
5.5055406772
 30
0.0
 10
5.2385105081
 20
5.5052678597
 30
0.0
 10
5.2366831295
 20
5.5049953619
 30
0.0
 10
5.2350615076
 20
5.5047232489
 30
0.0
 10
5.2338407005
 20
5.5044890645
 30
0.0
 10
5.2329685588
 20
5.5042996454
 30
0.0
 10
5.232391415
 20
5.5041630189
 30
0.0
 10
5.2318663627
 20
5.5040264789
 30
0.0
 10
5.2313934108
 20
5.5038900339
 30
0.0
 10
5.2309725567
 20
5.5037537093
 30
0.0
 10
5.2306037446
 20
5.5036175226
 30
0.0
 10
5.2302869405
 20
5.5034815059
 30
0.0
 10
5.2300965205
 20
5.503383895
 30
0.0
 10
5.2300108428
 20
5.5033343655
 30
0.0
 11
5.9521540223
 21
5.5384304686
 31
0.0
 11
5.9521473599
 21
5.5383619215
 31
0.0
 11
5.952127569
 21
5.5382933745
 31
0.0
 11
5.9520946531
 21
5.5382248274
 31
0.0
 11
5.9520486157
 21
5.5381562803
 31
0.0
 11
5.95191719
 21
5.5380191862
 31
0.0
 11
5.9517333196
 21
5.537882092
 31
0.0
 11
5.9514970323
 21
5.5377449979
 31
0.0
 11
5.9512083557
 21
5.5376079037
 31
0.0
 11
5.9508673177
 21
5.5374708095
 31
0.0
 11
5.9504739459
 21
5.5373337154
 31
0.0
 11
5.9500282681
 21
5.5371966212
 31
0.0
 11
5.949530312
 21
5.5370595271
 31
0.0
 11
5.9489801052
 21
5.5369224329
 31
0.0
 11
5.9483776928
 21
5.5367853388
 31
0.0
 11
5.9470167497
 21
5.5365111505
 31
0.0
 11
5.9454485812
 21
5.5362369622
 31
0.0
 11
5.9436743064
 21
5.5359627739
 31
0.0
 11
5.9416950441
 21
5.5356885856
 31
0.0
 11
5.9395119134
 21
5.5354143973
 31
0.0
 11
5.9371260331
 21
5.5351402089
 31
0.0
 11
5.9345385223
 21
5.5348660206
 31
0.0
 11
5.9317506822
 21
5.5345918323
 31
0.0
 11
5.9287643828
 21
5.534317644
 31
0.0
 11
5.9255816044
 21
5.5340434557
 31
0.0
 11
5.9186345332
 21
5.5334950791
 31
0.0
 11
5.910925313
 21
5.5329467025
 31
0.0
 11
5.9024704191
 21
5.5323983259
 31
0.0
 11
5.8932904359
 21
5.5318499493
 31
0.0
 11
5.8834075924
 21
5.5313015727
 31
0.0
 11
5.8728441241
 21
5.530753196
 31
0.0
 11
5.861623654
 21
5.5302048194
 31
0.0
 11
5.8497734919
 21
5.5296564428
 31
0.0
 11
5.8373215529
 21
5.5291080662
 31
0.0
 11
5.8242958186
 21
5.5285596896
 31
0.0
 11
5.7966457893
 21
5.5274629364
 31
0.0
 11
5.7670822774
 21
5.5263661832
 31
0.0
 11
5.7358790191
 21
5.5252694299
 31
0.0
 11
5.7033269377
 21
5.5241726767
 31
0.0
 11
5.6697283873
 21
5.5230759235
 31
0.0
 11
5.6353959814
 21
5.5219791703
 31
0.0
 11
5.600648935
 21
5.520882417
 31
0.0
 11
5.5658105251
 21
5.5197856638
 31
0.0
 11
5.5312044421
 21
5.5186889106
 31
0.0
 11
5.4971530668
 21
5.5175921574
 31
0.0
 11
5.4639722861
 21
5.5164954041
 31
0.0
 11
5.431971657
 21
5.5153986509
 31
0.0
 11
5.4014477304
 21
5.5143018977
 31
0.0
 11
5.3726853492
 21
5.5132051445
 31
0.0
 11
5.3459512682
 21
5.5121083912
 31
0.0
 11
5.3334238044
 21
5.5115600146
 31
0.0
 11
5.3214944351
 21
5.511011638
 31
0.0
 11
5.3101916236
 21
5.5104632614
 31
0.0
 11
5.2995425193
 21
5.5099148848
 31
0.0
 11
5.2895706202
 21
5.5093665082
 31
0.0
 11
5.2802987945
 21
5.5088181316
 31
0.0
 11
5.2717498321
 21
5.508269755
 31
0.0
 11
5.2639438114
 21
5.5077213783
 31
0.0
 11
5.2568974816
 21
5.5071730017
 31
0.0
 11
5.253664371
 21
5.5068988134
 31
0.0
 11
5.2506273873
 21
5.5066246251
 31
0.0
 11
5.2477885867
 21
5.5063504368
 31
0.0
 11
5.2451496478
 21
5.5060762485
 31
0.0
 11
5.2427118076
 21
5.5058020602
 31
0.0
 11
5.2404762781
 21
5.5055278719
 31
0.0
 11
5.238444271
 21
5.5052536836
 31
0.0
 11
5.2366169984
 21
5.5049794953
 31
0.0
 11
5.234995672
 21
5.504705307
 31
0.0
 11
5.2335815037
 21
5.5044311187
 31
0.0
 11
5.2329524596
 21
5.5042940245
 31
0.0
 11
5.2323755395
 21
5.5041569304
 31
0.0
 11
5.231850783
 21
5.5040198362
 31
0.0
 11
5.2313782298
 21
5.5038827421
 31
0.0
 11
5.2309579196
 21
5.5037456479
 31
0.0
 11
5.2305898919
 21
5.5036085538
 31
0.0
 11
5.2302741864
 21
5.5034714596
 31
0.0
 11
5.2300108428
 21
5.5033343655
 31
0.0
  0
SPLINE
  5
2C1
100
AcDbEntity
  8
0
100
AcDbSpline
 62
6
  6
CONTINUOUS
 70
0
 71
3
 72
51
 73
47
 74
45
 42
0.0000001
 43
0.0000001
 44
0.0000000001
 12
-0.0001958136
 22
-0.4738900361
 32
0.0
 13
-0.4736310472
 23
-0.0156663909
 33
0.0
 40
0.0
 40
0.0
 40
0.0
 40
0.0
 40
0.000177815
 40
0.0003649788
 40
0.0005695462
 40
0.0007977348
 40
0.0010540473
 40
0.0013416676
 40
0.0016628485
 40
0.0020192059
 40
0.0028416828
 40
0.0038157157
 40
0.0049450442
 40
0.0062319088
 40
0.0076775073
 40
0.0092825235
 40
0.0110473288
 40
0.0129720858
 40
0.0150568126
 40
0.0173014245
 40
0.0222695534
 40
0.0278746608
 40
0.0341142025
 40
0.040983554
 40
0.0484764194
 40
0.0565863002
 40
0.0653065868
 40
0.074630589
 40
0.0845514895
 40
0.106148961
 40
0.1300211179
 40
0.1560878926
 40
0.1842623334
 40
0.2144433871
 40
0.246528105
 40
0.2804081863
 40
0.3159631949
 40
0.3530709514
 40
0.391605292
 40
0.4724077961
 40
0.5572547478
 40
0.6449725774
 40
0.734341574
 40
0.8241228292
 40
0.9131131824
 40
1.0
 40
1.0
 40
1.0
 40
1.0
 10
5.9521536384
 20
5.4670004698
 30
0.0
 10
5.9521536268
 20
5.4669723815
 30
0.0
 10
5.9521466607
 20
5.4669145304
 30
0.0
 10
5.9521159753
 20
5.4668292909
 30
0.0
 10
5.9520655414
 20
5.4667447714
 30
0.0
 10
5.9519957166
 20
5.4666608261
 30
0.0
 10
5.9519066069
 20
5.4665771937
 30
0.0
 10
5.9517981963
 20
5.4664937168
 30
0.0
 10
5.9516704404
 20
5.4664102904
 30
0.0
 10
5.9514641736
 20
5.4662934295
 30
0.0
 10
5.9511554785
 20
5.4661495948
 30
0.0
 10
5.9507237816
 20
5.4659839185
 30
0.0
 10
5.9502144146
 20
5.4658179576
 30
0.0
 10
5.949627356
 20
5.4656517435
 30
0.0
 10
5.9489626232
 20
5.4654853223
 30
0.0
 10
5.9482203655
 20
5.465318739
 30
0.0
 10
5.9474007522
 20
5.4651520287
 30
0.0
 10
5.9465039726
 20
5.4649852199
 30
0.0
 10
5.9455302253
 20
5.464818324
 30
0.0
 10
5.9440797355
 20
5.4645878341
 30
0.0
 10
5.9420750811
 20
5.4643023439
 30
0.0
 10
5.9394401074
 20
5.4639697454
 30
0.0
 10
5.9365027226
 20
5.4636368106
 30
0.0
 10
5.9332654597
 20
5.463303576
 30
0.0
 10
5.9297313553
 20
5.4629700911
 30
0.0
 10
5.9259036968
 20
5.4626364118
 30
0.0
 10
5.921785784
 20
5.4623025821
 30
0.0
 10
5.9173809332
 20
5.4619686183
 30
0.0
 10
5.9109456264
 20
5.4615101576
 30
0.0
 10
5.9022143722
 20
5.4609414515
 30
0.0
 10
5.8909338086
 20
5.4602758866
 30
0.0
 10
5.8786127116
 20
5.4596097265
 30
0.0
 10
5.8652937263
 20
5.4589431735
 30
0.0
 10
5.8510230444
 20
5.4582761663
 30
0.0
 10
5.8358501735
 20
5.4576088621
 30
0.0
 10
5.819827648
 20
5.4569414028
 30
0.0
 10
5.8030110234
 20
5.4562737028
 30
0.0
 10
5.78545865
 20
5.4556058317
 30
0.0
 10
5.7607627028
 20
5.4547009028
 30
0.0
 10
5.7285286927
 20
5.4535774242
 30
0.0
 10
5.6885279981
 20
5.4522486844
 30
0.0
 10
5.6471734159
 20
5.4509192895
 30
0.0
 10
5.6050390136
 20
5.4495895833
 30
0.0
 10
5.5627035056
 20
5.448259698
 30
0.0
 10
5.5207602798
 20
5.4469299861
 30
0.0
 10
5.4929927323
 20
5.4460292046
 30
0.0
 10
5.4792753008
 20
5.4455754703
 30
0.0
 11
5.9521536384
 21
5.4670004698
 31
0.0
 11
5.9521438252
 21
5.4669167783
 31
0.0
 11
5.9521144557
 21
5.4668330869
 31
0.0
 11
5.9520655314
 21
5.4667493955
 31
0.0
 11
5.9519970536
 21
5.4666657041
 31
0.0
 11
5.9519090238
 21
5.4665820127
 31
0.0
 11
5.9518014434
 21
5.4664983213
 31
0.0
 11
5.9516743138
 21
5.4664146299
 31
0.0
 11
5.9515276364
 21
5.4663309385
 31
0.0
 11
5.9511756439
 21
5.4661635557
 31
0.0
 11
5.9507454773
 21
5.4659961729
 31
0.0
 11
5.9502371487
 21
5.4658287901
 31
0.0
 11
5.9496507372
 21
5.4656614073
 31
0.0
 11
5.9489864458
 21
5.4654940245
 31
0.0
 11
5.9482444907
 21
5.4653266417
 31
0.0
 11
5.9474250883
 21
5.4651592589
 31
0.0
 11
5.9465284547
 21
5.4649918761
 31
0.0
 11
5.9455548062
 21
5.4648244932
 31
0.0
 11
5.9445043591
 21
5.4646571104
 31
0.0
 11
5.9421739339
 21
5.4643223448
 31
0.0
 11
5.939538909
 21
5.4639875792
 31
0.0
 11
5.9366010638
 21
5.4636528136
 31
0.0
 11
5.9333630051
 21
5.463318048
 31
0.0
 11
5.9298280265
 21
5.4629832823
 31
0.0
 11
5.9259994423
 21
5.4626485167
 31
0.0
 11
5.9218805668
 21
5.4623137511
 31
0.0
 11
5.9174747145
 21
5.4619789855
 31
0.0
 11
5.9127852319
 21
5.4616442199
 31
0.0
 11
5.9025723273
 21
5.4609746887
 31
0.0
 11
5.891279379
 21
5.4603051575
 31
0.0
 11
5.8789447511
 21
5.4596356262
 31
0.0
 11
5.8656099609
 21
5.4589660948
 31
0.0
 11
5.8513231388
 21
5.4582965636
 31
0.0
 11
5.8361332578
 21
5.4576270326
 31
0.0
 11
5.8200917897
 21
5.4569575017
 31
0.0
 11
5.8032559317
 21
5.4562879706
 31
0.0
 11
5.7856836846
 21
5.4556184386
 31
0.0
 11
5.7674349212
 21
5.4549489058
 31
0.0
 11
5.7291668371
 21
5.4536098457
 31
0.0
 11
5.6889810122
 21
5.4522707911
 31
0.0
 11
5.6474339777
 21
5.4509316964
 31
0.0
 11
5.6051040707
 21
5.4495926619
 31
0.0
 11
5.5625786986
 21
5.4482537154
 31
0.0
 11
5.5204283318
 21
5.4469142202
 31
0.0
 11
5.4792753008
 21
5.4455754703
 31
0.0
  0
SPLINE
  5
2C2
100
AcDbEntity
  8
0
100
AcDbSpline
 62
6
  6
CONTINUOUS
 70
0
 71
3
 72
42
 73
38
 74
36
 42
0.0000001
 43
0.0000001
 44
0.0000000001
 12
0.3999457867
 22
0.0113668968
 32
0.0
 13
0.3464694377
 23
0.2001118871
 33
0.0
 40
0.0
 40
0.0
 40
0.0
 40
0.0
 40
0.0949368799
 40
0.1890877412
 40
0.2814983813
 40
0.3713555663
 40
0.4578679196
 40
0.5402462988
 40
0.6177434253
 40
0.6896628003
 40
0.7233276218
 40
0.7553611212
 40
0.7856880552
 40
0.8142411205
 40
0.8409587823
 40
0.865779722
 40
0.8886450307
 40
0.9095068869
 40
0.9283209709
 40
0.9369463721
 40
0.9450434601
 40
0.9526080115
 40
0.9596368466
 40
0.9661269024
 40
0.9720752294
 40
0.9774790394
 40
0.9823357804
 40
0.9866432656
 40
0.9904006019
 40
0.9920734087
 40
0.9936093615
 40
0.9950089399
 40
0.9962728276
 40
0.9974020095
 40
0.9983979322
 40
0.9992627828
 40
1.0
 40
1.0
 40
1.0
 40
1.0
 10
5.5908145793
 20
5.1946733317
 30
0.0
 10
5.6034711143
 20
5.1950330443
 30
0.0
 10
5.6286793962
 20
5.1957494902
 30
0.0
 10
5.6662071529
 20
5.1968256972
 30
0.0
 10
5.7030571554
 20
5.19790184
 30
0.0
 10
5.7388879863
 20
5.1989775488
 30
0.0
 10
5.7733802151
 20
5.2000528271
 30
0.0
 10
5.8062231805
 20
5.2011275094
 30
0.0
 10
5.8371188214
 20
5.2022013825
 30
0.0
 10
5.8615191856
 20
5.2031142562
 30
0.0
 10
5.8798584027
 20
5.2038497039
 30
0.0
 10
5.8926538581
 20
5.2043889093
 30
0.0
 10
5.9047669322
 20
5.2049279971
 30
0.0
 10
5.9161703035
 20
5.2054669253
 30
0.0
 10
5.9268384884
 20
5.2060055788
 30
0.0
 10
5.9367470868
 20
5.206543895
 30
0.0
 10
5.9458734816
 20
5.2070819027
 30
0.0
 10
5.9541972623
 20
5.2076194203
 30
0.0
 10
5.9606228291
 20
5.2080790203
 30
0.0
 10
5.9653478286
 20
5.2084494459
 30
0.0
 10
5.9685757429
 20
5.208719087
 30
0.0
 10
5.9715899417
 20
5.2089886421
 30
0.0
 10
5.9743889077
 20
5.2092580808
 30
0.0
 10
5.9769712617
 20
5.2095273726
 30
0.0
 10
5.9793356365
 20
5.2097964746
 30
0.0
 10
5.9814806707
 20
5.2100653347
 30
0.0
 10
5.9834050353
 20
5.2103338509
 30
0.0
 10
5.9851074866
 20
5.2106019708
 30
0.0
 10
5.9863856573
 20
5.2108329652
 30
0.0
 10
5.9872957605
 20
5.2110199013
 30
0.0
 10
5.9878954832
 20
5.2111545412
 30
0.0
 10
5.9884392096
 20
5.211289083
 30
0.0
 10
5.9889269164
 20
5.2114235142
 30
0.0
 10
5.9893585931
 20
5.2115578023
 30
0.0
 10
5.9897342963
 20
5.2116919213
 30
0.0
 10
5.9900540581
 20
5.2118258277
 30
0.0
 10
5.9902449903
 20
5.2119224748
 30
0.0
 10
5.9903301314
 20
5.2119716501
 30
0.0
 11
5.5908145793
 21
5.1946733317
 31
0.0
 11
5.6287841381
 21
5.1957540975
 31
0.0
 11
5.6664390533
 21
5.1968356775
 31
0.0
 11
5.7033974115
 21
5.1979168892
 31
0.0
 11
5.7393336684
 21
5.1989979633
 31
0.0
 11
5.7739310017
 21
5.2000791378
 31
0.0
 11
5.8068734541
 21
5.2011603079
 31
0.0
 11
5.8378617657
 21
5.2022414246
 31
0.0
 11
5.8666169153
 21
5.2033225361
 31
0.0
 11
5.8800756042
 21
5.2038630987
 31
0.0
 11
5.892881036
 21
5.2044036661
 31
0.0
 11
5.905003016
 21
5.2049442386
 31
0.0
 11
5.9164145086
 21
5.205484815
 31
0.0
 11
5.9270907628
 21
5.2060253932
 31
0.0
 11
5.9370070779
 21
5.206565971
 31
0.0
 11
5.9461396696
 21
5.2071065465
 31
0.0
 11
5.9544691274
 21
5.207647119
 31
0.0
 11
5.9619773449
 21
5.2081876882
 31
0.0
 11
5.9654178305
 21
5.2084579715
 31
0.0
 11
5.9686462401
 21
5.2087282537
 31
0.0
 11
5.9716607798
 21
5.2089985351
 31
0.0
 11
5.9744600499
 21
5.2092688161
 31
0.0
 11
5.977042664
 21
5.2095390968
 31
0.0
 11
5.9794072359
 21
5.2098093776
 31
0.0
 11
5.9815523795
 21
5.2100796589
 31
0.0
 11
5.9834767083
 21
5.2103499409
 31
0.0
 11
5.9851788389
 21
5.2106202239
 31
0.0
 11
5.9866576798
 21
5.2108905082
 31
0.0
 11
5.9873131963
 21
5.2110256506
 31
0.0
 11
5.9879126987
 21
5.2111607932
 31
0.0
 11
5.9884561283
 21
5.211295936
 31
0.0
 11
5.9889434265
 21
5.2114310788
 31
0.0
 11
5.9893745345
 21
5.2115662217
 31
0.0
 11
5.9897493938
 21
5.2117013645
 31
0.0
 11
5.9900679456
 21
5.2118365074
 31
0.0
 11
5.9903301314
 21
5.2119716501
 31
0.0
  0
SPLINE
  5
2C3
100
AcDbEntity
  8
0
100
AcDbSpline
 62
6
  6
CONTINUOUS
 70
0
 71
3
 72
21
 73
17
 74
15
 42
0.0000001
 43
0.0000001
 44
0.0000000001
 12
-0.3235751171
 22
-0.0156609526
 32
0.0
 13
-0.3238231294
 23
-0.0092034076
 33
0.0
 40
0.0
 40
0.0
 40
0.0
 40
0.0
 40
0.0444819939
 40
0.0923059835
 40
0.1432813863
 40
0.1972197916
 40
0.253936098
 40
0.3132436474
 40
0.3749374573
 40
0.4388016824
 40
0.50461647
 40
0.572148265
 40
0.6411604562
 40
0.7114171967
 40
0.8547226819
 40
1.0
 40
1.0
 40
1.0
 40
1.0
 10
5.9145867473
 20
5.2232551089
 30
0.0
 10
5.9097889918
 20
5.2230228988
 30
0.0
 10
5.8998320377
 20
5.2225612019
 30
0.0
 10
5.8843742378
 20
5.2218936678
 30
0.0
 10
5.8678944176
 20
5.2212257144
 30
0.0
 10
5.8504536278
 20
5.2205576589
 30
0.0
 10
5.832112476
 20
5.2198894259
 30
0.0
 10
5.8129333348
 20
5.2192210705
 30
0.0
 10
5.7929818856
 20
5.2185525401
 30
0.0
 10
5.7723273801
 20
5.2178838494
 30
0.0
 10
5.751042144
 20
5.2172151109
 30
0.0
 10
5.7292007426
 20
5.2165462944
 30
0.0
 10
5.7068794603
 20
5.2158774402
 30
0.0
 10
5.6763789748
 20
5.2149796876
 30
0.0
 10
5.6376458935
 20
5.2138635975
 30
0.0
 10
5.6064959645
 20
5.212978291
 30
0.0
 10
5.5908145793
 20
5.2125326089
 30
0.0
 11
5.9145867473
 21
5.2232551089
 31
0.0
 11
5.9001922093
 21
5.2225852683
 31
0.0
 11
5.8847139493
 21
5.2219149637
 31
0.0
 11
5.8682138808
 21
5.2212446157
 31
0.0
 11
5.8507531812
 21
5.2205744407
 31
0.0
 11
5.8323919365
 21
5.2199043515
 31
0.0
 11
5.8131907148
 21
5.2192342441
 31
0.0
 11
5.7932160039
 21
5.2185640911
 31
0.0
 11
5.7725377973
 21
5.2178939107
 31
0.0
 11
5.7512273766
 21
5.217223723
 31
0.0
 11
5.7293604562
 21
5.2165535523
 31
0.0
 11
5.7070137341
 21
5.2158834231
 31
0.0
 11
5.6842636569
 21
5.2152133103
 31
0.0
 11
5.6378586468
 21
5.2138727551
 31
0.0
 11
5.5908145793
 21
5.2125326089
 31
0.0
  0
SPLINE
  5
2C4
100
AcDbEntity
  8
0
100
AcDbSpline
 62
6
  6
CONTINUOUS
 70
0
 71
3
 72
42
 73
38
 74
36
 42
0.0000001
 43
0.0000001
 44
0.0000000001
 12
0.3999458591
 22
0.0113668988
 32
0.0
 13
0.346465226
 23
0.2001193239
 33
0.0
 40
0.0
 40
0.0
 40
0.0
 40
0.0
 40
0.0949367253
 40
0.1890867404
 40
0.281495978
 40
0.3713515707
 40
0.457862238
 40
0.5402391293
 40
0.617736535
 40
0.6896577515
 40
0.7233241462
 40
0.7553591578
 40
0.7856871946
 40
0.8142410295
 40
0.8409592315
 40
0.8657805721
 40
0.8886461227
 40
0.9095080273
 40
0.9283220838
 40
0.9369474796
 40
0.9450445702
 40
0.9526090557
 40
0.9596377658
 40
0.9661276618
 40
0.9720758189
 40
0.9774794733
 40
0.9823360972
 40
0.9866435255
 40
0.9904008233
 40
0.9920736089
 40
0.9936095387
 40
0.9950090925
 40
0.9962729536
 40
0.9974021069
 40
0.9983979989
 40
0.9992628169
 40
1.0
 40
1.0
 40
1.0
 40
1.0
 10
5.5908145793
 20
5.1232433317
 30
0.0
 10
5.603471096
 20
5.1236030438
 30
0.0
 10
5.628679249
 20
5.124319486
 30
0.0
 10
5.6662066922
 20
5.1253956841
 30
0.0
 10
5.7030561892
 20
5.1264718112
 30
0.0
 10
5.7388864027
 20
5.1275475017
 30
0.0
 10
5.7733780026
 20
5.1286227544
 30
0.0
 10
5.8062205881
 20
5.1296974248
 30
0.0
 10
5.8371163194
 20
5.130771287
 30
0.0
 10
5.8615171801
 20
5.1316841834
 30
0.0
 10
5.8798570574
 20
5.1324196505
 30
0.0
 10
5.8926530735
 20
5.1329588747
 30
0.0
 10
5.9047666006
 20
5.133497982
 30
0.0
 10
5.9161702955
 20
5.1340369253
 30
0.0
 10
5.9268387101
 20
5.1345755913
 30
0.0
 10
5.9367474679
 20
5.1351139164
 30
0.0
 10
5.9458739562
 20
5.1356519309
 30
0.0
 10
5.9541977731
 20
5.1361894561
 30
0.0
 10
5.9606233428
 20
5.1366490609
 30
0.0
 10
5.965348339
 20
5.1370194886
 30
0.0
 10
5.9685762447
 20
5.1372891289
 30
0.0
 10
5.9715904189
 20
5.1375586842
 30
0.0
 10
5.9743893384
 20
5.1378281228
 30
0.0
 10
5.976971632
 20
5.1380974136
 30
0.0
 10
5.9793359422
 20
5.1383665142
 30
0.0
 10
5.9814809177
 20
5.1386353719
 30
0.0
 10
5.9834052386
 20
5.1389038855
 30
0.0
 10
5.9851076624
 20
5.1391719995
 30
0.0
 10
5.9863858185
 20
5.1394029882
 30
0.0
 10
5.9872959115
 20
5.1395899203
 30
0.0
 10
5.9878956256
 20
5.1397245571
 30
0.0
 10
5.9884393427
 20
5.1398590958
 30
0.0
 10
5.9889270393
 20
5.1399935239
 30
0.0
 10
5.989358705
 20
5.1401278091
 30
0.0
 10
5.9897343963
 20
5.1402619254
 30
0.0
 10
5.9900541452
 20
5.1403958293
 30
0.0
 10
5.9902450681
 20
5.1404924752
 30
0.0
 10
5.9903302042
 20
5.14054165
 30
0.0
 11
5.5908145793
 21
5.1232433317
 31
0.0
 11
5.6287840831
 21
5.1243240959
 31
0.0
 11
5.6664386667
 21
5.1254056664
 31
0.0
 11
5.7033964708
 21
5.1264868612
 31
0.0
 11
5.7393320974
 21
5.1275679153
 31
0.0
 11
5.7739287629
 21
5.1286490652
 31
0.0
 11
5.8068706263
 21
5.1297302127
 31
0.0
 11
5.8378590554
 21
5.1308113248
 31
0.0
 11
5.8666149466
 21
5.1318924623
 31
0.0
 11
5.8800742671
 21
5.1324330457
 31
0.0
 11
5.8928803059
 21
5.1329736347
 31
0.0
 11
5.9050027289
 21
5.1335142257
 31
0.0
 11
5.9164145312
 21
5.1340548169
 31
0.0
 11
5.9270910031
 21
5.1345954067
 31
0.0
 11
5.9370074802
 21
5.1351359939
 31
0.0
 11
5.94614017
 21
5.1356765772
 31
0.0
 11
5.9544696484
 21
5.1362171558
 31
0.0
 11
5.9619778559
 21
5.1367577293
 31
0.0
 11
5.9654183398
 21
5.1370280138
 31
0.0
 11
5.968646751
 21
5.1372982968
 31
0.0
 11
5.9716612648
 21
5.1375685784
 31
0.0
 11
5.9744604851
 21
5.1378388588
 31
0.0
 11
5.9770430356
 21
5.1381091382
 31
0.0
 11
5.9794075398
 21
5.1383794169
 31
0.0
 11
5.9815526213
 21
5.1386496953
 31
0.0
 11
5.9834769038
 21
5.1389199734
 31
0.0
 11
5.9851790124
 21
5.1391902516
 31
0.0
 11
5.986657839
 21
5.1394605302
 31
0.0
 11
5.9873133475
 21
5.1395956696
 31
0.0
 11
5.9879128414
 21
5.1397308091
 31
0.0
 11
5.9884562617
 21
5.1398659488
 31
0.0
 11
5.9889435497
 21
5.1400010887
 31
0.0
 11
5.9893746467
 21
5.1401362287
 31
0.0
 11
5.9897494939
 21
5.1402713689
 31
0.0
 11
5.9900680327
 21
5.1404065094
 31
0.0
 11
5.9903302042
 21
5.14054165
 31
0.0
  0
SPLINE
  5
2C5
100
AcDbEntity
  8
0
100
AcDbSpline
 62
6
  6
CONTINUOUS
 70
0
 71
3
 72
83
 73
79
 74
77
 42
0.0000001
 43
0.0000001
 44
0.0000000001
 12
-0.6265024311
 22
-0.3623340097
 32
0.0
 13
-0.0004188928
 23
-0.7237341054
 33
0.0
 40
0.0
 40
0.0
 40
0.0
 40
0.0
 40
0.0004100964
 40
0.0008855497
 40
0.001428104
 40
0.0020389152
 40
0.0027187784
 40
0.0034682575
 40
0.004287762
 40
0.0051775444
 40
0.0071681632
 40
0.0094401822
 40
0.0119930616
 40
0.0148259481
 40
0.01793779
 40
0.0213274033
 40
0.0249935127
 40
0.0289345014
 40
0.0331479184
 40
0.0376311371
 40
0.0473963179
 40
0.0582086025
 40
0.070045542
 40
0.0828789288
 40
0.096677922
 40
0.1114115951
 40
0.1270474985
 40
0.1435478908
 40
0.1608738278
 40
0.1978441322
 40
0.2376145471
 40
0.279817423
 40
0.3240593495
 40
0.3699310345
 40
0.417004987
 40
0.4648449954
 40
0.5130058851
 40
0.5610405302
 40
0.6085026794
 40
0.6549511452
 40
0.6999548104
 40
0.7430954135
 40
0.7839723964
 40
0.8222067389
 40
0.8402211051
 40
0.8574427962
 40
0.8738335434
 40
0.8893556903
 40
0.9039717259
 40
0.9176477416
 40
0.9303540611
 40
0.9420613217
 40
0.9527407407
 40
0.9623689441
 40
0.9667826331
 40
0.9709261049
 40
0.9747969443
 40
0.9783927751
 40
0.9817113933
 40
0.9847514452
 40
0.9875119905
 40
0.9899922351
 40
0.992191606
 40
0.9941098829
 40
0.994963732
 40
0.9957475287
 40
0.9964614989
 40
0.9971060051
 40
0.9976816862
 40
0.99818953
 40
0.9986309876
 40
0.9990082835
 40
0.9993250055
 40
0.999587249
 40
0.9997012757
 40
0.9998062951
 40
0.999904849
 40
1.0
 40
1.0
 40
1.0
 40
1.0
 10
5.9516182601
 20
5.4038815761
 30
0.0
 10
5.951532618
 20
5.4038320455
 30
0.0
 10
5.9513422653
 20
5.4037344316
 30
0.0
 10
5.9510255498
 20
5.4035984138
 30
0.0
 10
5.9506568059
 20
5.4034622264
 30
0.0
 10
5.9502359882
 20
5.4033259014
 30
0.0
 10
5.9497630299
 20
5.4031894561
 30
0.0
 10
5.9492379172
 20
5.4030529157
 30
0.0
 10
5.9486606598
 20
5.402916293
 30
0.0
 10
5.9477883608
 20
5.402726893
 30
0.0
 10
5.946567445
 20
5.4024927089
 30
0.0
 10
5.9449458103
 20
5.4022205875
 30
0.0
 10
5.9431185332
 20
5.4019480833
 30
0.0
 10
5.9410867076
 20
5.4016752612
 30
0.0
 10
5.9388514177
 20
5.4014022116
 30
0.0
 10
5.9364137776
 20
5.4011289827
 30
0.0
 10
5.9337749735
 20
5.4008556229
 30
0.0
 10
5.9309364557
 20
5.4005821811
 30
0.0
 10
5.9278999747
 20
5.4003086357
 30
0.0
 10
5.9234620085
 20
5.3999330116
 30
0.0
 10
5.9174341671
 20
5.3994668531
 30
0.0
 10
5.9096333505
 20
5.3989214909
 30
0.0
 10
5.9010907277
 20
5.3983757623
 30
0.0
 10
5.8918262596
 20
5.397829628
 30
0.0
 10
5.8818618673
 20
5.397283152
 30
0.0
 10
5.8712204493
 20
5.3967364296
 30
0.0
 10
5.8599265325
 20
5.3961895944
 30
0.0
 10
5.8480065633
 20
5.3956425702
 30
0.0
 10
5.8309435276
 20
5.3948967734
 30
0.0
 10
5.8082692815
 20
5.3939711045
 30
0.0
 10
5.7795954263
 20
5.3928816889
 30
0.0
 10
5.7491661703
 20
5.3917915771
 30
0.0
 10
5.7172641455
 20
5.3907007988
 30
0.0
 10
5.6841863528
 20
5.3896096723
 30
0.0
 10
5.6502400955
 20
5.3885182166
 30
0.0
 10
5.6157413047
 20
5.3874266302
 30
0.0
 10
5.5810106401
 20
5.3863349556
 30
0.0
 10
5.5463711759
 20
5.3852433141
 30
0.0
 10
5.5121450272
 20
5.384151799
 30
0.0
 10
5.4786504567
 20
5.3830605017
 30
0.0
 10
5.4461989916
 20
5.3819695634
 30
0.0
 10
5.4150923848
 20
5.3808791336
 30
0.0
 10
5.3856198689
 20
5.379789372
 30
0.0
 10
5.3622070218
 20
5.378864674
 30
0.0
 10
5.3444983074
 20
5.3781201945
 30
0.0
 10
5.3320556287
 20
5.3775730189
 30
0.0
 10
5.3202147858
 20
5.3770260043
 30
0.0
 10
5.3090032389
 20
5.3764791835
 30
0.0
 10
5.2984474206
 20
5.3759325311
 30
0.0
 10
5.2885718625
 20
5.3753860684
 30
0.0
 10
5.2793991595
 20
5.3748399467
 30
0.0
 10
5.2709507158
 20
5.3742942934
 30
0.0
 10
5.2632465092
 20
5.3737490505
 30
0.0
 10
5.2573007949
 20
5.3732827443
 30
0.0
 10
5.2529297781
 20
5.3729069396
 30
0.0
 10
5.2499440737
 20
5.3726334093
 30
0.0
 10
5.2471565435
 20
5.3723599872
 30
0.0
 10
5.2445690143
 20
5.372086688
 30
0.0
 10
5.2421830956
 20
5.3718135072
 30
0.0
 10
5.2400000894
 20
5.3715405043
 30
0.0
 10
5.2380210261
 20
5.371267744
 30
0.0
 10
5.2362468265
 20
5.3709953245
 30
0.0
 10
5.2346784226
 20
5.3707233151
 30
0.0
 10
5.2335019836
 20
5.370488999
 30
0.0
 10
5.2326653124
 20
5.3702993563
 30
0.0
 10
5.232114636
 20
5.370162777
 30
0.0
 10
5.2316161083
 20
5.370026297
 30
0.0
 10
5.2311697932
 20
5.3698899159
 30
0.0
 10
5.2307756921
 20
5.3697536607
 30
0.0
 10
5.2304337211
 20
5.3696175532
 30
0.0
 10
5.2301437357
 20
5.3694816122
 30
0.0
 10
5.2299054012
 20
5.3693457194
 30
0.0
 10
5.229718393
 20
5.3692097254
 30
0.0
 10
5.2295995954
 20
5.3690902767
 30
0.0
 10
5.2295341565
 20
5.3689939685
 30
0.0
 10
5.2295005165
 20
5.3689247772
 30
0.0
 10
5.2294801643
 20
5.3688552681
 30
0.0
 10
5.2294755743
 20
5.3688084258
 30
0.0
 10
5.229475561
 20
5.3687854711
 30
0.0
 11
5.9516182601
 21
5.4038815761
 31
0.0
 11
5.951355019
 21
5.403744482
 31
0.0
 11
5.9510394065
 21
5.4036073878
 31
0.0
 11
5.9506714512
 21
5.4034702937
 31
0.0
 11
5.9502511815
 21
5.4033331995
 31
0.0
 11
5.9497786259
 21
5.4031961053
 31
0.0
 11
5.9492538129
 21
5.4030590112
 31
0.0
 11
5.9486767714
 21
5.402921917
 31
0.0
 11
5.9480475677
 21
5.4027848229
 31
0.0
 11
5.9466332209
 21
5.4025106345
 31
0.0
 11
5.9450119042
 21
5.4022364462
 31
0.0
 11
5.9431847563
 21
5.4019622579
 31
0.0
 11
5.9411529162
 21
5.4016880696
 31
0.0
 11
5.9389175226
 21
5.4014138813
 31
0.0
 11
5.9364797144
 21
5.4011396929
 31
0.0
 11
5.9338406308
 21
5.4008655046
 31
0.0
 11
5.931001612
 21
5.4005913163
 31
0.0
 11
5.9279645698
 21
5.400317128
 31
0.0
 11
5.9247315169
 21
5.4000429397
 31
0.0
 11
5.9176854283
 21
5.399494563
 31
0.0
 11
5.9098794461
 21
5.3989461864
 31
0.0
 11
5.9013302172
 21
5.3983978097
 31
0.0
 11
5.8920584586
 21
5.3978494331
 31
0.0
 11
5.882086722
 21
5.3973010564
 31
0.0
 11
5.8714375685
 21
5.3967526798
 31
0.0
 11
5.8601346247
 21
5.3962043032
 31
0.0
 11
5.8482053236
 21
5.3956559265
 31
0.0
 11
5.8356779466
 21
5.3951075499
 31
0.0
 11
5.8089437593
 21
5.3940107966
 31
0.0
 11
5.7801814517
 21
5.3929140433
 31
0.0
 11
5.7496574833
 21
5.39181729
 31
0.0
 11
5.7176568757
 21
5.3907205367
 31
0.0
 11
5.6844760883
 21
5.3896237835
 31
0.0
 11
5.6504247157
 21
5.3885270302
 31
0.0
 11
5.6158186392
 21
5.3874302769
 31
0.0
 11
5.5809802142
 21
5.3863335236
 31
0.0
 11
5.5462332021
 21
5.3852367703
 31
0.0
 11
5.5119007338
 21
5.384140017
 31
0.0
 11
5.4783022851
 21
5.3830432638
 31
0.0
 11
5.4457500631
 21
5.3819465105
 31
0.0
 11
5.4145470009
 21
5.3808497572
 31
0.0
 11
5.3849832659
 21
5.3797530039
 31
0.0
 11
5.3573335069
 21
5.3786562506
 31
0.0
 11
5.3443074313
 21
5.378107874
 31
0.0
 11
5.3318555734
 21
5.3775594973
 31
0.0
 11
5.3200057105
 21
5.3770111207
 31
0.0
 11
5.3087851938
 21
5.3764627441
 31
0.0
 11
5.2982212922
 21
5.3759143674
 31
0.0
 11
5.2883386944
 21
5.3753659908
 31
0.0
 11
5.2791590611
 21
5.3748176141
 31
0.0
 11
5.2707038802
 21
5.3742692375
 31
0.0
 11
5.2629942974
 21
5.3737208609
 31
0.0
 11
5.2560476482
 21
5.3731724842
 31
0.0
 11
5.2528650997
 21
5.3728982959
 31
0.0
 11
5.2498788886
 21
5.3726241076
 31
0.0
 11
5.2470908798
 21
5.3723499192
 31
0.0
 11
5.2445029384
 21
5.3720757309
 31
0.0
 11
5.2421168428
 21
5.3718015426
 31
0.0
 11
5.2399338047
 21
5.3715273543
 31
0.0
 11
5.2379548075
 21
5.371253166
 31
0.0
 11
5.2361808341
 21
5.3709789776
 31
0.0
 11
5.2346128671
 21
5.3707047893
 31
0.0
 11
5.2332518893
 21
5.370430601
 31
0.0
 11
5.2326493285
 21
5.3702935068
 31
0.0
 11
5.2320988835
 21
5.3701564127
 31
0.0
 11
5.2316006772
 21
5.3700193185
 31
0.0
 11
5.2311548275
 21
5.3698822244
 31
0.0
 11
5.2307613886
 21
5.3697451302
 31
0.0
 11
5.2304203699
 21
5.369608036
 31
0.0
 11
5.23013178
 21
5.3694709419
 31
0.0
 11
5.2298956274
 21
5.3693338477
 31
0.0
 11
5.2297119207
 21
5.3691967536
 31
0.0
 11
5.2295806684
 21
5.3690596594
 31
0.0
 11
5.2295347153
 21
5.3689911123
 31
0.0
 11
5.229501879
 21
5.3689225652
 31
0.0
 11
5.2294821605
 21
5.3688540182
 31
0.0
 11
5.229475561
 21
5.3687854711
 31
0.0
  0
SPLINE
  5
2C6
100
AcDbEntity
  8
0
100
AcDbSpline
 62
6
  6
CONTINUOUS
 70
0
 71
3
 72
84
 73
80
 74
78
 42
0.0000001
 43
0.0000001
 44
0.0000000001
 12
-0.6266784769
 22
-0.3620317632
 32
0.0
 13
0.0011087761
 23
-0.723734538
 33
0.0
 40
0.0
 40
0.0
 40
0.0
 40
0.0
 40
0.0004104594
 40
0.0008863348
 40
0.0014293154
 40
0.0020405
 40
0.0027206266
 40
0.0034702019
 40
0.0042895783
 40
0.0051790023
 40
0.0071685742
 40
0.0094397673
 40
0.0119926634
 40
0.0148262138
 40
0.0179389337
 40
0.0213292038
 40
0.0249953126
 40
0.0289354831
 40
0.0331478904
 40
0.0376306578
 40
0.0473969468
 40
0.0582103894
 40
0.0700460162
 40
0.0828785735
 40
0.0966788266
 40
0.1114131331
 40
0.1270475689
 40
0.1435477476
 40
0.1608748539
 40
0.1789874368
 40
0.1978439927
 40
0.2376155236
 40
0.279817248
 40
0.3240600958
 40
0.3699309192
 40
0.4170054001
 40
0.4648449239
 40
0.5130059748
 40
0.5610404049
 40
0.6085025725
 40
0.6549508271
 40
0.699954687
 40
0.7430947659
 40
0.783972415
 40
0.8222056705
 40
0.8402199804
 40
0.8574430263
 40
0.8738333313
 40
0.8893541891
 40
0.9039707267
 40
0.9176481171
 40
0.930353455
 40
0.9420594771
 40
0.9527400595
 40
0.9623692944
 40
0.9667824227
 40
0.970925034
 40
0.9747951382
 40
0.9783907837
 40
0.9817100708
 40
0.9847511717
 40
0.9875123616
 40
0.9899923787
 40
0.9921909741
 40
0.9941083717
 40
0.9949618798
 40
0.9957454733
 40
0.9964594307
 40
0.997104159
 40
0.9976802544
 40
0.9981886033
 40
0.9986305559
 40
0.9990082409
 40
0.9993251631
 40
0.9995874074
 40
0.9997013903
 40
0.9998063568
 40
0.9999048669
 40
1.0
 40
1.0
 40
1.0
 40
1.0
 10
5.9516188553
 20
5.3324515738
 30
0.0
 10
5.9515331133
 20
5.3324020407
 30
0.0
 10
5.9513425459
 20
5.3323044299
 30
0.0
 10
5.9510255094
 20
5.3321684188
 30
0.0
 10
5.9506564494
 20
5.3320322362
 30
0.0
 10
5.9502353607
 20
5.3318959144
 30
0.0
 10
5.9497622172
 20
5.3317594715
 30
0.0
 10
5.9492370459
 20
5.331622933
 30
0.0
 10
5.9486598851
 20
5.3314863079
 30
0.0
 10
5.9477879644
 20
5.3312969028
 30
0.0
 10
5.9465676019
 20
5.331062681
 30
0.0
 10
5.9449464225
 20
5.330790531
 30
0.0
 10
5.9431191736
 20
5.3305180518
 30
0.0
 10
5.9410869621
 20
5.3302452534
 30
0.0
 10
5.938851132
 20
5.3299722221
 30
0.0
 10
5.936413114
 20
5.3296990077
 30
0.0
 10
5.9337743448
 20
5.3294256507
 30
0.0
 10
5.9309362682
 20
5.329152182
 30
0.0
 10
5.9279003364
 20
5.3288786125
 30
0.0
 10
5.9234624508
 20
5.3285029602
 30
0.0
 10
5.9174341559
 20
5.3280368579
 30
0.0
 10
5.9096330921
 20
5.3274915591
 30
0.0
 10
5.9010906994
 20
5.3269457393
 30
0.0
 10
5.891826431
 20
5.3263995776
 30
0.0
 10
5.881861762
 20
5.3258531669
 30
0.0
 10
5.8712202228
 20
5.3253064721
 30
0.0
 10
5.8599265446
 20
5.3247595609
 30
0.0
 10
5.8480066792
 20
5.3242125502
 30
0.0
 10
5.8354883813
 20
5.3236654229
 30
0.0
 10
5.8224011074
 20
5.3231181525
 30
0.0
 10
5.8039027057
 20
5.3223750937
 30
0.0
 10
5.7795955061
 20
5.3214517643
 30
0.0
 10
5.7491659946
 20
5.3203615224
 30
0.0
 10
5.7172641783
 20
5.3192708352
 30
0.0
 10
5.684186193
 20
5.3181796411
 30
0.0
 10
5.6502400769
 20
5.3170882344
 30
0.0
 10
5.6157411823
 20
5.3159966147
 30
0.0
 10
5.5810105913
 20
5.3149049611
 30
0.0
 10
5.5463710804
 20
5.3138133063
 30
0.0
 10
5.5121449748
 20
5.3127218021
 30
0.0
 10
5.4786503506
 20
5.3116304899
 30
0.0
 10
5.446198963
 20
5.310539577
 30
0.0
 10
5.4150922264
 20
5.309449106
 30
0.0
 10
5.3856198893
 20
5.3083594021
 30
0.0
 10
5.3622071212
 20
5.3074346671
 30
0.0
 10
5.3444983284
 20
5.3066901614
 30
0.0
 10
5.33205542
 20
5.3061430512
 30
0.0
 10
5.3202146497
 20
5.3055960204
 30
0.0
 10
5.3090033843
 20
5.3050491456
 30
0.0
 10
5.2984474068
 20
5.3045025028
 30
0.0
 10
5.2885716119
 20
5.3039561232
 30
0.0
 10
5.2793991008
 20
5.3034099576
 30
0.0
 10
5.2709509043
 20
5.3028642226
 30
0.0
 10
5.2632464501
 20
5.3023190407
 30
0.0
 10
5.2573003253
 20
5.301852799
 30
0.0
 10
5.2529293996
 20
5.301476948
 30
0.0
 10
5.249944214
 20
5.3012034049
 30
0.0
 10
5.2471571125
 20
5.3009299669
 30
0.0
 10
5.2445696424
 20
5.3006566486
 30
0.0
 10
5.2421833462
 20
5.300383483
 30
0.0
 10
5.2399997578
 20
5.3001105152
 30
0.0
 10
5.2380203293
 20
5.2998377885
 30
0.0
 10
5.2362462153
 20
5.2995653583
 30
0.0
 10
5.2346782726
 20
5.2992933289
 30
0.0
 10
5.2335023269
 20
5.2990589907
 30
0.0
 10
5.2326660073
 20
5.2988693444
 30
0.0
 10
5.2321154702
 20
5.2987327586
 30
0.0
 10
5.231616943
 20
5.2985962695
 30
0.0
 10
5.2311704709
 20
5.2984598871
 30
0.0
 10
5.2307760761
 20
5.298323639
 30
0.0
 10
5.2304337342
 20
5.2981875411
 30
0.0
 10
5.2301433723
 20
5.2980516142
 30
0.0
 10
5.2299047245
 20
5.2979157419
 30
0.0
 10
5.2297175231
 20
5.2977797675
 30
0.0
 10
5.2295986809
 20
5.2976602971
 30
0.0
 10
5.2295333061
 20
5.2975639702
 30
0.0
 10
5.2294997517
 20
5.2974947728
 30
0.0
 10
5.229479515
 20
5.2974252567
 30
0.0
 10
5.2294750202
 20
5.2973784188
 30
0.0
 10
5.2294750554
 20
5.2973554685
 30
0.0
 11
5.9516188553
 21
5.3324515738
 31
0.0
 11
5.9513553174
 21
5.3323144797
 31
0.0
 11
5.9510393713
 21
5.3321773855
 31
0.0
 11
5.9506710861
 21
5.3320402913
 31
0.0
 11
5.9502505314
 21
5.3319031972
 31
0.0
 11
5.9497777764
 21
5.331766103
 31
0.0
 11
5.9492528907
 21
5.3316290089
 31
0.0
 11
5.9486759435
 21
5.3314919147
 31
0.0
 11
5.9480470042
 21
5.3313548205
 31
0.0
 11
5.9466334268
 21
5.3310806322
 31
0.0
 11
5.9450127137
 21
5.3308064439
 31
0.0
 11
5.9431855506
 21
5.3305322556
 31
0.0
 11
5.9411532223
 21
5.3302580672
 31
0.0
 11
5.9389171848
 21
5.3299838789
 31
0.0
 11
5.9364788943
 21
5.3297096906
 31
0.0
 11
5.9338398068
 21
5.3294355023
 31
0.0
 11
5.9310013784
 21
5.329161314
 31
0.0
 11
5.9279650651
 21
5.3288871256
 31
0.0
 11
5.9247323346
 21
5.3286129373
 31
0.0
 11
5.9176854303
 21
5.3280645607
 31
0.0
 11
5.9098785954
 21
5.327516184
 31
0.0
 11
5.9013303047
 21
5.3269678074
 31
0.0
 11
5.8920591325
 21
5.3264194307
 31
0.0
 11
5.8820864667
 21
5.3258710541
 31
0.0
 11
5.871436837
 21
5.3253226774
 31
0.0
 11
5.8601349386
 21
5.3247743008
 31
0.0
 11
5.8482057729
 21
5.3242259241
 31
0.0
 11
5.8356775288
 21
5.3236775475
 31
0.0
 11
5.8225802867
 21
5.3231291708
 31
0.0
 11
5.8089441519
 21
5.3225807942
 31
0.0
 11
5.7801809899
 21
5.3214840409
 31
0.0
 11
5.7496578064
 21
5.3203872876
 31
0.0
 11
5.7176564803
 21
5.3192905343
 31
0.0
 11
5.6844762634
 21
5.318193781
 31
0.0
 11
5.6504244535
 21
5.3170970277
 31
0.0
 11
5.6158186724
 21
5.3160002745
 31
0.0
 11
5.5809800748
 21
5.3149035212
 31
0.0
 11
5.5462331625
 21
5.3138067679
 31
0.0
 11
5.5119006258
 21
5.3127100146
 31
0.0
 11
5.4783022761
 21
5.3116132613
 31
0.0
 11
5.4457498608
 21
5.310516508
 31
0.0
 11
5.4145471281
 21
5.3094197547
 31
0.0
 11
5.3849828633
 21
5.3083230014
 31
0.0
 11
5.3573338472
 21
5.3072262481
 31
0.0
 11
5.3443077914
 21
5.3066778715
 31
0.0
 11
5.3318549319
 21
5.3061294948
 31
0.0
 11
5.3200053704
 21
5.3055811182
 31
0.0
 11
5.3087857698
 21
5.3050327415
 31
0.0
 11
5.2982214874
 21
5.3044843649
 31
0.0
 11
5.2883378772
 21
5.3039359882
 31
0.0
 11
5.2791589408
 21
5.3033876116
 31
0.0
 11
5.2707046445
 21
5.302839235
 31
0.0
 11
5.2629942052
 21
5.3022908583
 31
0.0
 11
5.2560467958
 21
5.3017424817
 31
0.0
 11
5.2528646495
 21
5.3014682933
 31
0.0
 11
5.249879059
 21
5.301194105
 31
0.0
 11
5.2470915804
 21
5.3009199167
 31
0.0
 11
5.2445037696
 21
5.3006457284
 31
0.0
 11
5.2421171828
 21
5.30037154
 31
0.0
 11
5.239933376
 21
5.3000973517
 31
0.0
 11
5.2379539047
 21
5.2998231634
 31
0.0
 11
5.236180095
 21
5.2995489751
 31
0.0
 11
5.2346126951
 21
5.2992747868
 31
0.0
 11
5.2332523642
 21
5.2990005984
 31
0.0
 11
5.2326500555
 21
5.2988635043
 31
0.0
 11
5.2320997612
 21
5.2987264101
 31
0.0
 11
5.2316015635
 21
5.2985893159
 31
0.0
 11
5.231155545
 21
5.2984522218
 31
0.0
 11
5.2307617878
 21
5.2983151276
 31
0.0
 11
5.2304203745
 21
5.2981780335
 31
0.0
 11
5.2301313874
 21
5.2980409393
 31
0.0
 11
5.2298949089
 21
5.2979038451
 31
0.0
 11
5.2297110209
 21
5.297766751
 31
0.0
 11
5.2295797673
 21
5.2976296568
 31
0.0
 11
5.229533871
 21
5.2975611097
 31
0.0
 11
5.2295011229
 21
5.2974925627
 31
0.0
 11
5.2294815191
 21
5.2974240156
 31
0.0
 11
5.2294750554
 21
5.2973554685
 31
0.0
  0
SPLINE
  5
2C7
100
AcDbEntity
  8
0
100
AcDbSpline
 62
6
  6
CONTINUOUS
 70
0
 71
3
 72
30
 73
26
 74
24
 42
0.0000001
 43
0.0000001
 44
0.0000000001
 12
-0.0595158933
 22
-0.0344368505
 32
0.0
 13
-0.0686622511
 23
-0.0036787904
 33
0.0
 40
0.0
 40
0.0
 40
0.0
 40
0.0
 40
0.0031406407
 40
0.0066583615
 40
0.0105622319
 40
0.0148588386
 40
0.0246460937
 40
0.0360436803
 40
0.0490632748
 40
0.0637108014
 40
0.0799887261
 40
0.0978973185
 40
0.1174353894
 40
0.138600744
 40
0.1613904727
 40
0.1858011334
 40
0.239461531
 40
0.2995189624
 40
0.3659032425
 40
0.4385422375
 40
0.5173625135
 40
0.6022753062
 40
0.6931433354
 40
0.7898189163
 40
1.0
 40
1.0
 40
1.0
 40
1.0
 10
5.9516190763
 20
5.2610215782
 30
0.0
 10
5.9515567703
 20
5.260985527
 30
0.0
 10
5.9514218109
 20
5.2609140167
 30
0.0
 10
5.9512018602
 20
5.2608126721
 30
0.0
 10
5.9509530725
 20
5.2607112657
 30
0.0
 10
5.9505657451
 20
5.2605697919
 30
0.0
 10
5.9500080376
 20
5.2603953783
 30
0.0
 10
5.9492503133
 20
5.2601936192
 30
0.0
 10
5.9483779178
 20
5.2599915067
 30
0.0
 10
5.9473911509
 20
5.2597890949
 30
0.0
 10
5.946290292
 20
5.2595864717
 30
0.0
 10
5.9450756772
 20
5.2593836841
 30
0.0
 10
5.9437476521
 20
5.2591807707
 30
0.0
 10
5.9423065747
 20
5.2589777612
 30
0.0
 10
5.9407528096
 20
5.2587746673
 30
0.0
 10
5.9384580235
 20
5.2584948963
 30
0.0
 10
5.9353110286
 20
5.2581481047
 30
0.0
 10
5.9312028684
 20
5.2577433626
 30
0.0
 10
5.9266578614
 20
5.2573381654
 30
0.0
 10
5.921681297
 20
5.2569325593
 30
0.0
 10
5.916278789
 20
5.256526642
 30
0.0
 10
5.9104573942
 20
5.2561205403
 30
0.0
 10
5.9042258389
 20
5.2557142491
 30
0.0
 10
5.895126936
 20
5.2551567856
 30
0.0
 10
5.8881046694
 20
5.2547632077
 30
0.0
 10
5.8832941673
 20
5.2545054703
 30
0.0
 11
5.9516190763
 21
5.2610215782
 31
0.0
 11
5.9514286316
 21
5.2609197626
 31
0.0
 11
5.9512092235
 21
5.2608179466
 31
0.0
 11
5.9509608494
 21
5.2607161302
 31
0.0
 11
5.9506835106
 21
5.2606143133
 31
0.0
 11
5.9500420798
 21
5.2604106785
 31
0.0
 11
5.9492852917
 21
5.2602070431
 31
0.0
 11
5.9484135224
 21
5.2600034079
 31
0.0
 11
5.9474271483
 21
5.2597997737
 31
0.0
 11
5.9463265456
 21
5.2595961414
 31
0.0
 11
5.9451120908
 21
5.259392512
 31
0.0
 11
5.9437841601
 21
5.2591888861
 31
0.0
 11
5.9423431299
 21
5.2589852648
 31
0.0
 11
5.9407893764
 21
5.2587816488
 31
0.0
 11
5.9391232767
 21
5.258578039
 31
0.0
 11
5.9354560873
 21
5.2581708337
 31
0.0
 11
5.9313466201
 21
5.257763627
 31
0.0
 11
5.9268001904
 21
5.2573563933
 31
0.0
 11
5.9218221135
 21
5.256949107
 31
0.0
 11
5.9164177047
 21
5.2565417424
 31
0.0
 11
5.9105932728
 21
5.2561342983
 31
0.0
 11
5.9043584196
 21
5.2557268536
 31
0.0
 11
5.8977234286
 21
5.2553195036
 31
0.0
 11
5.8832941673
 21
5.2545054703
 31
0.0
  0
SPLINE
  5
2C8
100
AcDbEntity
  8
0
100
AcDbSpline
 62
6
  6
CONTINUOUS
 70
0
 71
3
 72
84
 73
80
 74
78
 42
0.0000001
 43
0.0000001
 44
0.0000000001
 12
-0.0010777789
 22
-0.7237338775
 32
0.0
 13
-0.6264099577
 23
-0.3624947612
 33
0.0
 40
0.0
 40
0.0
 40
0.0
 40
0.0
 40
0.00009516
 40
0.0001937436
 40
0.0002988135
 40
0.000412909
 40
0.0006753269
 40
0.0009922382
 40
0.001369701
 40
0.0018112687
 40
0.0023191342
 40
0.0028947183
 40
0.0035389808
 40
0.0042525923
 40
0.0050360346
 40
0.0058896502
 40
0.0078078668
 40
0.0100075493
 40
0.012488267
 40
0.0152492337
 40
0.0182894407
 40
0.0216077334
 40
0.0252028574
 40
0.0290733609
 40
0.0332169618
 40
0.0376310428
 40
0.0472600068
 40
0.0579388496
 40
0.0696454548
 40
0.082352426
 40
0.0960289749
 40
0.1106441834
 40
0.1261660893
 40
0.1425574883
 40
0.1597794408
 40
0.1777929782
 40
0.2160279167
 40
0.2569042813
 40
0.3000454391
 40
0.3450485982
 40
0.3914974338
 40
0.4389592718
 40
0.4869940627
 40
0.5351548265
 40
0.5829948316
 40
0.6300687383
 40
0.6759404486
 40
0.7201822229
 40
0.7623853557
 40
0.802155322
 40
0.8210129546
 40
0.8391262488
 40
0.8564520461
 40
0.8729517442
 40
0.8885876831
 40
0.9033222737
 40
0.9171208389
 40
0.9299534902
 40
0.9417908538
 40
0.95260391
 40
0.962368405
 40
0.9668511912
 40
0.9710643867
 40
0.9750055677
 40
0.978672347
 40
0.9820624259
 40
0.985174212
 40
0.9880067215
 40
0.9905591173
 40
0.9928307598
 40
0.9948213208
 40
0.9957112584
 40
0.996531065
 40
0.9972809154
 40
0.9979610928
 40
0.9985720726
 40
0.9991146619
 40
0.9995900459
 40
1.0
 40
1.0
 40
1.0
 40
1.0
 10
5.9521539948
 20
5.3955704685
 30
0.0
 10
5.9521539606
 20
5.3955475116
 30
0.0
 10
5.9521493223
 20
5.3955006641
 30
0.0
 10
5.9521288897
 20
5.3954311561
 30
0.0
 10
5.9520951635
 20
5.395361967
 30
0.0
 10
5.9520295979
 20
5.3952656597
 30
0.0
 10
5.951910647
 20
5.3951462199
 30
0.0
 10
5.9517234788
 20
5.395010231
 30
0.0
 10
5.9514850146
 20
5.3948743406
 30
0.0
 10
5.9511949499
 20
5.3947384005
 30
0.0
 10
5.95085297
 20
5.3946022931
 30
0.0
 10
5.9504589504
 20
5.3944660383
 30
0.0
 10
5.9500128135
 20
5.394329651
 30
0.0
 10
5.9495145283
 20
5.3941931584
 30
0.0
 10
5.9489640888
 20
5.3940565702
 30
0.0
 10
5.9481275803
 20
5.3938669136
 30
0.0
 10
5.9469511343
 20
5.3936326029
 30
0.0
 10
5.9453825493
 20
5.3933606092
 30
0.0
 10
5.9436080523
 20
5.3930882014
 30
0.0
 10
5.9416287312
 20
5.3928154494
 30
0.0
 10
5.9394456619
 20
5.3925424534
 30
0.0
 10
5.9370599555
 20
5.3922692666
 30
0.0
 10
5.9344727601
 20
5.3919959338
 30
0.0
 10
5.9316854492
 20
5.3917225143
 30
0.0
 10
5.9286996972
 20
5.3914489924
 30
0.0
 10
5.9243283665
 20
5.3910731977
 30
0.0
 10
5.9183825059
 20
5.3906069325
 30
0.0
 10
5.9106784118
 20
5.3900616433
 30
0.0
 10
5.9022301048
 20
5.3895159586
 30
0.0
 10
5.8930572656
 20
5.3889698767
 30
0.0
 10
5.8831816136
 20
5.3884234398
 30
0.0
 10
5.8726259203
 20
5.3878767399
 30
0.0
 10
5.8614144669
 20
5.3873299194
 30
0.0
 10
5.8495734531
 20
5.3867829281
 30
0.0
 10
5.8371307457
 20
5.3862357657
 30
0.0
 10
5.8194220157
 20
5.3854912265
 30
0.0
 10
5.7960093565
 20
5.3845666013
 30
0.0
 10
5.766536696
 20
5.3834767785
 30
0.0
 10
5.7354302054
 20
5.3823863988
 30
0.0
 10
5.7029786204
 20
5.3812954198
 30
0.0
 10
5.6694841358
 20
5.3802041541
 30
0.0
 10
5.635257917
 20
5.3791126162
 30
0.0
 10
5.6006185009
 20
5.3780209894
 30
0.0
 10
5.5658878108
 20
5.3769293066
 30
0.0
 10
5.5313890405
 20
5.3758377241
 30
0.0
 10
5.4974427677
 20
5.3747462657
 30
0.0
 10
5.464364996
 20
5.373655143
 30
0.0
 10
5.4324629193
 20
5.3725643605
 30
0.0
 10
5.40203373
 20
5.3714742401
 30
0.0
 10
5.3777263365
 20
5.3705507912
 30
0.0
 10
5.3592278968
 20
5.369807788
 30
0.0
 10
5.3461405186
 20
5.3692605522
 30
0.0
 10
5.3336224955
 20
5.3687133736
 30
0.0
 10
5.3217027124
 20
5.3681663347
 30
0.0
 10
5.3104087267
 20
5.3676194868
 30
0.0
 10
5.2997671724
 20
5.3670728187
 30
0.0
 10
5.2898028344
 20
5.3665263203
 30
0.0
 10
5.2805385413
 20
5.3659801493
 30
0.0
 10
5.2719958013
 20
5.3654344324
 30
0.0
 10
5.264194852
 20
5.3648891331
 30
0.0
 10
5.2581670936
 20
5.3644229339
 30
0.0
 10
5.2537294501
 20
5.3640472979
 30
0.0
 10
5.2506930796
 20
5.3637737452
 30
0.0
 10
5.2478544057
 20
5.363500295
 30
0.0
 10
5.245215275
 20
5.363226963
 30
0.0
 10
5.2427773693
 20
5.3629537504
 30
0.0
 10
5.2405420707
 20
5.362680694
 30
0.0
 10
5.2385104678
 20
5.3624078643
 30
0.0
 10
5.2366834928
 20
5.3621353494
 30
0.0
 10
5.2350620841
 20
5.3618632133
 30
0.0
 10
5.2338412375
 20
5.3616290244
 30
0.0
 10
5.2329688378
 20
5.3614396325
 30
0.0
 10
5.2323913737
 20
5.3613030144
 30
0.0
 10
5.2318660118
 20
5.361166485
 30
0.0
 10
5.2313928353
 20
5.3610300512
 30
0.0
 10
5.2309718852
 20
5.3608937274
 30
0.0
 10
5.230603106
 20
5.3607575398
 30
0.0
 10
5.2302864363
 20
5.3606215215
 30
0.0
 10
5.2300961444
 20
5.3605238986
 30
0.0
 10
5.2300105446
 20
5.3604743632
 30
0.0
 11
5.9521539948
 21
5.3955704685
 31
0.0
 11
5.9521473272
 21
5.3955019214
 31
0.0
 11
5.9521275311
 21
5.3954333743
 31
0.0
 11
5.9520946101
 21
5.3953648272
 31
0.0
 11
5.9520485676
 21
5.3952962802
 31
0.0
 11
5.9519171327
 21
5.395159186
 31
0.0
 11
5.9517332548
 21
5.3950220918
 31
0.0
 11
5.9514969624
 21
5.3948849977
 31
0.0
 11
5.951208284
 21
5.3947479035
 31
0.0
 11
5.9508672482
 21
5.3946108093
 31
0.0
 11
5.9504738833
 21
5.3944737152
 31
0.0
 11
5.9500282179
 21
5.394336621
 31
0.0
 11
5.9495302805
 21
5.3941995269
 31
0.0
 11
5.9489800995
 21
5.3940624327
 31
0.0
 11
5.9483777116
 21
5.3939253385
 31
0.0
 11
5.9470167774
 21
5.3936511502
 31
0.0
 11
5.9454485804
 21
5.3933769619
 31
0.0
 11
5.9436742593
 21
5.3931027736
 31
0.0
 11
5.9416949531
 21
5.3928285853
 31
0.0
 11
5.9395118005
 21
5.3925543969
 31
0.0
 11
5.9371259405
 21
5.3922802086
 31
0.0
 11
5.9345385118
 21
5.3920060203
 31
0.0
 11
5.9317507455
 21
5.391731832
 31
0.0
 11
5.9287644387
 21
5.3914576436
 31
0.0
 11
5.9255816035
 21
5.3911834553
 31
0.0
 11
5.9186343977
 21
5.3906350787
 31
0.0
 11
5.9109252281
 21
5.390086702
 31
0.0
 11
5.9024705173
 21
5.3895383254
 31
0.0
 11
5.8932904057
 21
5.3889899487
 31
0.0
 11
5.8834074151
 21
5.3884415721
 31
0.0
 11
5.8728441063
 21
5.3878931955
 31
0.0
 11
5.8616237572
 21
5.3873448188
 31
0.0
 11
5.8497734146
 21
5.3867964422
 31
0.0
 11
5.8373213595
 21
5.3862480655
 31
0.0
 11
5.8242958761
 21
5.3856996889
 31
0.0
 11
5.7966456681
 21
5.3846029356
 31
0.0
 11
5.7670823623
 21
5.3835061823
 31
0.0
 11
5.7358788789
 21
5.382409429
 31
0.0
 11
5.7033270029
 21
5.3813126757
 31
0.0
 11
5.6697282655
 21
5.3802159224
 31
0.0
 11
5.6353960009
 21
5.3791191691
 31
0.0
 11
5.6006488615
 21
5.3780224158
 31
0.0
 11
5.5658105058
 21
5.3769256626
 31
0.0
 11
5.53120441
 21
5.3758289093
 31
0.0
 11
5.4971530492
 21
5.374732156
 31
0.0
 11
5.4639722226
 21
5.3736354027
 31
0.0
 11
5.4319717052
 21
5.3725386494
 31
0.0
 11
5.4014475316
 21
5.3714418961
 31
0.0
 11
5.3726855309
 21
5.3703451428
 31
0.0
 11
5.3590486296
 21
5.3697967662
 31
0.0
 11
5.3459508851
 21
5.3692483895
 31
0.0
 11
5.3334236015
 21
5.3687000129
 31
0.0
 11
5.3214947958
 21
5.3681516362
 31
0.0
 11
5.3101918192
 21
5.3676032596
 31
0.0
 11
5.2995419941
 21
5.367054883
 31
0.0
 11
5.2895705615
 21
5.3665065063
 31
0.0
 11
5.2802993303
 21
5.3659581297
 31
0.0
 11
5.2717497884
 21
5.365409753
 31
0.0
 11
5.2639432415
 21
5.3648613764
 31
0.0
 11
5.2568976464
 21
5.3643129997
 31
0.0
 11
5.2536649055
 21
5.3640388114
 31
0.0
 11
5.2506280224
 21
5.3637646231
 31
0.0
 11
5.2477888619
 21
5.3634904348
 31
0.0
 11
5.2451492892
 21
5.3632162464
 31
0.0
 11
5.2427111403
 21
5.3629420581
 31
0.0
 11
5.2404757861
 21
5.3626678698
 31
0.0
 11
5.23844422
 21
5.3623936815
 31
0.0
 11
5.2366174248
 21
5.3621194932
 31
0.0
 11
5.2349963834
 21
5.3618453048
 31
0.0
 11
5.2335820784
 21
5.3615711165
 31
0.0
 11
5.2329527592
 21
5.3614340223
 31
0.0
 11
5.2323754927
 21
5.3612969282
 31
0.0
 11
5.2318504016
 21
5.361159834
 31
0.0
 11
5.2313776089
 21
5.3610227399
 31
0.0
 11
5.2309572105
 21
5.3608856457
 31
0.0
 11
5.230589228
 21
5.3607485515
 31
0.0
 11
5.2302736699
 21
5.3606114574
 31
0.0
 11
5.2300105446
 21
5.3604743632
 31
0.0
  0
SPLINE
  5
2C9
100
AcDbEntity
  8
0
100
AcDbSpline
 62
6
  6
CONTINUOUS
 70
0
 71
3
 72
84
 73
80
 74
78
 42
0.0000001
 43
0.0000001
 44
0.0000000001
 12
0.0008500834
 22
-0.7237352881
 32
0.0
 13
-0.6266312145
 23
-0.3621143617
 33
0.0
 40
0.0
 40
0.0
 40
0.0
 40
0.0
 40
0.0000951373
 40
0.0001936669
 40
0.000298676
 40
0.0004127292
 40
0.0006751667
 40
0.0009922557
 40
0.0013700283
 40
0.001811992
 40
0.002320286
 40
0.0028962753
 40
0.0035408623
 40
0.0042546606
 40
0.0050380944
 40
0.00589146
 40
0.0078086962
 40
0.0100074145
 40
0.0124879132
 40
0.0152494133
 40
0.0182904796
 40
0.0216095226
 40
0.0252048515
 40
0.0290747041
 40
0.0332172665
 40
0.0376306854
 40
0.0472605041
 40
0.0579406727
 40
0.0696462454
 40
0.0823520706
 40
0.0960297381
 40
0.1106458176
 40
0.126166391
 40
0.1425572698
 40
0.1597803437
 40
0.1777942301
 40
0.2160278686
 40
0.2569050772
 40
0.3000455052
 40
0.3450490051
 40
0.391497494
 40
0.4389594448
 40
0.4869939713
 40
0.5351549391
 40
0.5829944607
 40
0.6300689077
 40
0.6759397313
 40
0.720182452
 40
0.7623843229
 40
0.8021555176
 40
0.8210120642
 40
0.8391250532
 40
0.8564522134
 40
0.8729517673
 40
0.8885863818
 40
0.9033211588
 40
0.9171212638
 40
0.9299532043
 40
0.9417891976
 40
0.9526031038
 40
0.9623689455
 40
0.9668513224
 40
0.9710636994
 40
0.975004078
 40
0.9786704957
 40
0.9820610378
 40
0.9851738557
 40
0.9880071937
 40
0.9905595806
 40
0.9928305516
 40
0.9948202234
 40
0.9957097728
 40
0.9965293013
 40
0.9972790373
 40
0.9979593158
 40
0.9985706259
 40
0.999113689
 40
0.9995895884
 40
1.0
 40
1.0
 40
1.0
 40
1.0
 10
5.9521544368
 20
5.3241404715
 30
0.0
 10
5.9521544638
 20
5.3241175201
 30
0.0
 10
5.9521499456
 20
5.3240706778
 30
0.0
 10
5.9521296546
 20
5.3240011599
 30
0.0
 10
5.952096026
 20
5.3239319622
 30
0.0
 10
5.9520305174
 20
5.3238356366
 30
0.0
 10
5.9519115084
 20
5.3237161905
 30
0.0
 10
5.9517241768
 20
5.3235802178
 30
0.0
 10
5.9514854596
 20
5.3234443393
 30
0.0
 10
5.9511950888
 20
5.3233084076
 30
0.0
 10
5.9508527873
 20
5.3231723059
 30
0.0
 10
5.9504584704
 20
5.3230360551
 30
0.0
 10
5.9500121012
 20
5.3228996707
 30
0.0
 10
5.9495136892
 20
5.32276318
 30
0.0
 10
5.9489632667
 20
5.322626593
 30
0.0
 10
5.9481270628
 20
5.3224369398
 30
0.0
 10
5.9469511625
 20
5.322202592
 30
0.0
 10
5.9453831104
 20
5.3219305605
 30
0.0
 10
5.9436087665
 20
5.3216581666
 30
0.0
 10
5.9416291525
 20
5.3213854417
 30
0.0
 10
5.9394455564
 20
5.3211124648
 30
0.0
 10
5.9370594042
 20
5.3208392932
 30
0.0
 10
5.9344721302
 20
5.3205659696
 30
0.0
 10
5.9316851771
 20
5.3202925279
 30
0.0
 10
5.9286999925
 20
5.3200189802
 30
0.0
 10
5.9243288633
 20
5.3196431443
 30
0.0
 10
5.9183826216
 20
5.3191769312
 30
0.0
 10
5.9106782333
 20
5.3186317148
 30
0.0
 10
5.9022301243
 20
5.3180859575
 30
0.0
 10
5.89305753
 20
5.3175398246
 30
0.0
 10
5.8831816552
 20
5.3169934527
 30
0.0
 10
5.8726257853
 20
5.31644679
 30
0.0
 10
5.8614145551
 20
5.3158999016
 30
0.0
 10
5.8495737001
 20
5.3153529012
 30
0.0
 10
5.8371307421
 20
5.3148057857
 30
0.0
 10
5.8194219436
 20
5.314061253
 30
0.0
 10
5.7960092771
 20
5.3131365587
 30
0.0
 10
5.7665368547
 20
5.312046816
 30
0.0
 10
5.7354302087
 20
5.310956378
 30
0.0
 10
5.7029787502
 20
5.3098654379
 30
0.0
 10
5.6694841893
 20
5.3087741468
 30
0.0
 10
5.6352580378
 20
5.3076826274
 30
0.0
 10
5.6006185566
 20
5.3065909825
 30
0.0
 10
5.5658879438
 20
5.3054993234
 30
0.0
 10
5.5313890588
 20
5.3044077064
 30
0.0
 10
5.4974429327
 20
5.3033162976
 30
0.0
 10
5.4643649678
 20
5.3022251076
 30
0.0
 10
5.4324631294
 20
5.3011344116
 30
0.0
 10
5.402033677
 20
5.3000441845
 30
0.0
 10
5.3777265124
 20
5.2991208439
 30
0.0
 10
5.359228086
 20
5.2983777797
 30
0.0
 10
5.3461406956
 20
5.2978305217
 30
0.0
 10
5.33362243
 20
5.2972834047
 30
0.0
 10
5.3217026542
 20
5.2967363622
 30
0.0
 10
5.3104089635
 20
5.2961894616
 30
0.0
 10
5.2997672964
 20
5.2956427848
 30
0.0
 10
5.2898026927
 20
5.295096377
 30
0.0
 10
5.2805385179
 20
5.2945501743
 30
0.0
 10
5.2719960676
 20
5.2940043759
 30
0.0
 10
5.2641949047
 20
5.2934591079
 30
0.0
 10
5.2581666978
 20
5.2929929927
 30
0.0
 10
5.2537290221
 20
5.2926173148
 30
0.0
 10
5.2506931397
 20
5.2923437497
 30
0.0
 10
5.2478549433
 20
5.2920702846
 30
0.0
 10
5.2452159808
 20
5.2917969323
 30
0.0
 10
5.2427777959
 20
5.2915237243
 30
0.0
 10
5.2405419254
 20
5.2912506998
 30
0.0
 10
5.2385098632
 20
5.2909779095
 30
0.0
 10
5.2366828489
 20
5.2907053933
 30
0.0
 10
5.2350618242
 20
5.2904332383
 30
0.0
 10
5.2338414585
 20
5.2901990267
 30
0.0
 10
5.2329694427
 20
5.2900096289
 30
0.0
 10
5.2323921727
 20
5.2898730047
 30
0.0
 10
5.2318668849
 20
5.2897364676
 30
0.0
 10
5.2313936307
 20
5.2896000265
 30
0.0
 10
5.2309724497
 20
5.2894637071
 30
0.0
 10
5.2306033284
 20
5.2893275276
 30
0.0
 10
5.2302862743
 20
5.2891915209
 30
0.0
 10
5.2300957151
 20
5.2890939046
 30
0.0
 10
5.2300099895
 20
5.289044366
 30
0.0
 11
5.9521544368
 21
5.3241404715
 31
0.0
 11
5.95214794
 21
5.3240719244
 31
0.0
 11
5.9521282847
 21
5.3240033773
 31
0.0
 11
5.9520954652
 21
5.3239348302
 31
0.0
 11
5.9520494775
 21
5.3238662831
 31
0.0
 11
5.9519180216
 21
5.323729189
 31
0.0
 11
5.9517339829
 21
5.3235920948
 31
0.0
 11
5.9514974308
 21
5.3234550007
 31
0.0
 11
5.9512084347
 21
5.3233179065
 31
0.0
 11
5.950867064
 21
5.3231808123
 31
0.0
 11
5.950473388
 21
5.3230437182
 31
0.0
 11
5.9500274761
 21
5.322906624
 31
0.0
 11
5.9495293976
 21
5.3227695298
 31
0.0
 11
5.9489792221
 21
5.3226324357
 31
0.0
 11
5.9483770187
 21
5.3224953415
 31
0.0
 11
5.9470168062
 21
5.3222211532
 31
0.0
 11
5.9454493152
 21
5.3219469649
 31
0.0
 11
5.9436751517
 21
5.3216727766
 31
0.0
 11
5.9416954526
 21
5.3213985882
 31
0.0
 11
5.9395116699
 21
5.3211243999
 31
0.0
 11
5.9371252596
 21
5.3208502116
 31
0.0
 11
5.9345376777
 21
5.3205760233
 31
0.0
 11
5.9317503805
 21
5.3203018349
 31
0.0
 11
5.9287648239
 21
5.3200276466
 31
0.0
 11
5.9255824647
 21
5.3197534583
 31
0.0
 11
5.9186346278
 21
5.3192050816
 31
0.0
 11
5.9109244843
 21
5.318656705
 31
0.0
 11
5.9024705093
 21
5.3181083283
 31
0.0
 11
5.8932912145
 21
5.3175599517
 31
0.0
 11
5.8834073979
 21
5.317011575
 31
0.0
 11
5.8728434417
 21
5.3164631984
 31
0.0
 11
5.8616240409
 21
5.3159148217
 31
0.0
 11
5.8497740571
 21
5.3153664451
 31
0.0
 11
5.8373211704
 21
5.3148180684
 31
0.0
 11
5.8242954143
 21
5.3142696918
 31
0.0
 11
5.7966461054
 21
5.3131729385
 31
0.0
 11
5.7670821432
 21
5.3120761852
 31
0.0
 11
5.7358791405
 21
5.3109794319
 31
0.0
 11
5.7033269678
 21
5.3098826786
 31
0.0
 11
5.66972843
 21
5.3087859253
 31
0.0
 11
5.6353960311
 21
5.307689172
 31
0.0
 11
5.6006490299
 21
5.3065924187
 31
0.0
 11
5.5658104731
 21
5.3054956654
 31
0.0
 11
5.5312046745
 21
5.3043989121
 31
0.0
 11
5.4971528703
 21
5.3033021588
 31
0.0
 11
5.463972635
 21
5.3022054055
 31
0.0
 11
5.4319713832
 21
5.3011086522
 31
0.0
 11
5.4014480767
 21
5.3000118989
 31
0.0
 11
5.3726851422
 21
5.2989151456
 31
0.0
 11
5.3590490066
 21
5.298366769
 31
0.0
 11
5.3459514632
 21
5.2978183923
 31
0.0
 11
5.333423173
 21
5.2972700157
 31
0.0
 11
5.3214944534
 21
5.296721639
 31
0.0
 11
5.3101924192
 21
5.2961732624
 31
0.0
 11
5.2995424427
 21
5.2956248857
 31
0.0
 11
5.2895698787
 21
5.2950765091
 31
0.0
 11
5.2802991486
 21
5.2945281325
 31
0.0
 11
5.2717505873
 21
5.2939797558
 31
0.0
 11
5.2639434117
 21
5.2934313792
 31
0.0
 11
5.2568968282
 21
5.2928830025
 31
0.0
 11
5.2536643796
 21
5.2926088142
 31
0.0
 11
5.2506280866
 21
5.2923346259
 31
0.0
 11
5.2477895052
 21
5.2920604375
 31
0.0
 11
5.2451501915
 21
5.2917862492
 31
0.0
 11
5.2427117015
 21
5.2915120609
 31
0.0
 11
5.2404755913
 21
5.2912378726
 31
0.0
 11
5.238443417
 21
5.2909636842
 31
0.0
 11
5.2366166256
 21
5.2906894959
 31
0.0
 11
5.2349960745
 21
5.2904153076
 31
0.0
 11
5.2335824228
 21
5.2901411193
 31
0.0
 11
5.2329533901
 21
5.2900040251
 31
0.0
 11
5.2323763295
 21
5.2898669309
 31
0.0
 11
5.2318513231
 21
5.2897298368
 31
0.0
 11
5.2313784535
 21
5.2895927426
 31
0.0
 11
5.230957803
 21
5.2894556485
 31
0.0
 11
5.2305894539
 21
5.2893185543
 31
0.0
 11
5.2302734886
 21
5.2891814601
 31
0.0
 11
5.2300099895
 21
5.289044366
 31
0.0
  0
SPLINE
  5
2CA
100
AcDbEntity
  8
0
100
AcDbSpline
 62
6
  6
CONTINUOUS
 70
0
 71
3
 72
37
 73
33
 74
31
 42
0.0000001
 43
0.0000001
 44
0.0000000001
 12
0.0000248188
 22
-0.0696127984
 32
0.0
 13
-0.0695131019
 23
-0.0037243774
 33
0.0
 40
0.0
 40
0.0
 40
0.0
 40
0.0
 40
0.0016206855
 40
0.0033879622
 40
0.0054170618
 40
0.007785329
 40
0.0105417284
 40
0.0137173423
 40
0.0173324747
 40
0.021400871
 40
0.0259321524
 40
0.0309328626
 40
0.0364073143
 40
0.0423585522
 40
0.055698865
 40
0.0709650649
 40
0.0881616211
 40
0.1072894579
 40
0.1283472617
 40
0.1513322387
 40
0.1762405786
 40
0.2030676419
 40
0.2318056986
 40
0.2624440172
 40
0.3293763388
 40
0.4037731287
 40
0.4855401349
 40
0.5745777487
 40
0.6707336326
 40
0.7738172997
 40
0.8836368586
 40
1.0
 40
1.0
 40
1.0
 40
1.0
 10
5.9521537317
 20
5.2527104725
 30
0.0
 10
5.9521537451
 20
5.2526728656
 30
0.0
 10
5.9521408705
 20
5.2525938261
 30
0.0
 10
5.9520852803
 20
5.2524796236
 30
0.0
 10
5.9519952469
 20
5.2523673508
 30
0.0
 10
5.9518713463
 20
5.2522561016
 30
0.0
 10
5.9517134689
 20
5.2521452026
 30
0.0
 10
5.9515213925
 20
5.2520343837
 30
0.0
 10
5.9512949407
 20
5.2519235325
 30
0.0
 10
5.951033994
 20
5.2518126163
 30
0.0
 10
5.9507384829
 20
5.2517016347
 30
0.0
 10
5.9504083887
 20
5.2515905929
 30
0.0
 10
5.950043733
 20
5.251479486
 30
0.0
 10
5.9494900656
 20
5.2513253493
 30
0.0
 10
5.9487109483
 20
5.2511347952
 30
0.0
 10
5.9476713015
 20
5.2509135135
 30
0.0
 10
5.9464947733
 20
5.250691926
 30
0.0
 10
5.9451818098
 20
5.2504700833
 30
0.0
 10
5.9437328461
 20
5.2502480582
 30
0.0
 10
5.9421483493
 20
5.2500258914
 30
0.0
 10
5.9404287959
 20
5.249803615
 30
0.0
 10
5.9385747306
 20
5.249581267
 30
0.0
 10
5.9365868283
 20
5.2493588517
 30
0.0
 10
5.9336718974
 20
5.2490531234
 30
0.0
 10
5.9296995042
 20
5.2486737671
 30
0.0
 10
5.924541697
 20
5.2482302839
 30
0.0
 10
5.9188692785
 20
5.2477863157
 30
0.0
 10
5.9126905754
 20
5.2473420207
 30
0.0
 10
5.9060160768
 20
5.246897472
 30
0.0
 10
5.8988583676
 20
5.2464527678
 30
0.0
 10
5.8912309187
 20
5.2460080876
 30
0.0
 10
5.8859904216
 20
5.2457199304
 30
0.0
 10
5.8832941673
 20
5.2455754703
 30
0.0
 11
5.9521537317
 21
5.2527104725
 31
0.0
 11
5.9521364177
 21
5.2525989884
 31
0.0
 11
5.9520843944
 21
5.2524875042
 31
0.0
 11
5.9519976585
 21
5.2523760196
 31
0.0
 11
5.9518762068
 21
5.2522645347
 31
0.0
 11
5.9517200363
 21
5.2521530494
 31
0.0
 11
5.9515291438
 21
5.2520415636
 31
0.0
 11
5.9513035261
 21
5.2519300775
 31
0.0
 11
5.9510431802
 21
5.2518185908
 31
0.0
 11
5.950748104
 21
5.2517071036
 31
0.0
 11
5.950418326
 21
5.2515956159
 31
0.0
 11
5.9500539067
 21
5.2514841279
 31
0.0
 11
5.9496549076
 21
5.2513726397
 31
0.0
 11
5.9487534175
 21
5.2511496633
 31
0.0
 11
5.9477143496
 21
5.2509266877
 31
0.0
 11
5.9465381981
 21
5.2507037141
 31
0.0
 11
5.945225457
 21
5.2504807437
 31
0.0
 11
5.9437766204
 21
5.2502577775
 31
0.0
 11
5.9421921822
 21
5.2500348167
 31
0.0
 11
5.9404726366
 21
5.2498118625
 31
0.0
 11
5.9386184852
 21
5.2495889157
 31
0.0
 11
5.9366304097
 21
5.249365975
 31
0.0
 11
5.9345092741
 21
5.2491430362
 31
0.0
 11
5.9298713119
 21
5.2486971477
 31
0.0
 11
5.9247115768
 21
5.2482512164
 31
0.0
 11
5.9190370471
 21
5.2478052088
 31
0.0
 11
5.9128549644
 21
5.2473590979
 31
0.0
 11
5.9061761691
 21
5.2469129439
 31
0.0
 11
5.899014104
 21
5.2464668711
 31
0.0
 11
5.8913822698
 21
5.2460210048
 31
0.0
 11
5.8832941673
 21
5.2455754703
 31
0.0
  0
SPLINE
  5
2CB
100
AcDbEntity
  8
0
100
AcDbSpline
 62
6
  6
CONTINUOUS
 70
0
 71
3
 72
39
 73
35
 74
33
 42
0.0000001
 43
0.0000001
 44
0.0000000001
 12
0.305478707
 22
0.017862592
 32
0.0
 13
0.2646890804
 23
0.1535447925
 33
0.0
 40
0.0
 40
0.0
 40
0.0
 40
0.0
 40
0.0972700261
 40
0.1922112086
 40
0.2841636365
 40
0.3725807084
 40
0.4569602126
 40
0.5368108814
 40
0.6116506978
 40
0.6470521354
 40
0.6810395089
 40
0.7135618049
 40
0.7445697202
 40
0.7740201874
 40
0.801871769
 40
0.8280832529
 40
0.852614511
 40
0.8754325022
 40
0.8861899291
 40
0.8965081701
 40
0.9158129409
 40
0.9333197836
 40
0.9413924144
 40
0.9490088608
 40
0.9561676885
 40
0.9628676895
 40
0.9691079512
 40
0.9748879531
 40
0.9802077059
 40
0.9850680052
 40
0.9894714494
 40
0.9934227269
 40
0.9969287714
 40
1.0
 40
1.0
 40
1.0
 40
1.0
 10
5.6846549988
 20
5.0321851089
 30
0.0
 10
5.6945596394
 20
5.0327642738
 30
0.0
 10
5.7141311717
 20
5.033919249
 30
0.0
 10
5.7430630269
 20
5.035669579
 30
0.0
 10
5.7710901888
 20
5.0374198288
 30
0.0
 10
5.7980379408
 20
5.0391692397
 30
0.0
 10
5.8237486506
 20
5.0409180019
 30
0.0
 10
5.8480711767
 20
5.0426658594
 30
0.0
 10
5.8674039877
 20
5.0441476461
 30
0.0
 10
5.8820670463
 20
5.0453388841
 30
0.0
 10
5.8924249867
 20
5.0462155414
 30
0.0
 10
5.9023331304
 20
5.0470920454
 30
0.0
 10
5.9117766258
 20
5.0479684769
 30
0.0
 10
5.9207415775
 20
5.0488447187
 30
0.0
 10
5.9292148609
 20
5.0497207156
 30
0.0
 10
5.9371835907
 20
5.050596398
 30
0.0
 10
5.9446356277
 20
5.0514718516
 30
0.0
 10
5.950515855
 20
5.0522149286
 30
0.0
 10
5.9549531094
 20
5.0528115357
 30
0.0
 10
5.9590319964
 20
5.0533837601
 30
0.0
 10
5.9637864601
 20
5.0540952078
 30
0.0
 10
5.9683036902
 20
5.0548414434
 30
0.0
 10
5.9716360076
 20
5.0554422385
 30
0.0
 10
5.9739249772
 20
5.0558804651
 30
0.0
 10
5.9760712617
 20
5.0563185774
 30
0.0
 10
5.978074117
 20
5.0567565677
 30
0.0
 10
5.9799328081
 20
5.0571944089
 30
0.0
 10
5.981646611
 20
5.0576320731
 30
0.0
 10
5.9832148244
 20
5.0580695194
 30
0.0
 10
5.9846368513
 20
5.0585067466
 30
0.0
 10
5.9859122776
 20
5.0589437062
 30
0.0
 10
5.9870409696
 20
5.0593803375
 30
0.0
 10
5.9880227944
 20
5.0598165764
 30
0.0
 10
5.9886182087
 20
5.0601273061
 30
0.0
 10
5.9888891823
 20
5.0602844964
 30
0.0
 11
5.6846549988
 21
5.0321851089
 31
0.0
 11
5.7143678592
 21
5.0339406608
 31
0.0
 11
5.7433667394
 21
5.0356975273
 31
0.0
 11
5.7714493494
 21
5.0374540446
 31
0.0
 11
5.7984479683
 21
5.0392101225
 31
0.0
 11
5.8242083516
 21
5.0409662274
 31
0.0
 11
5.8485795012
 21
5.0427224454
 31
0.0
 11
5.8714130844
 21
5.0444786603
 31
0.0
 11
5.8822102952
 21
5.0453567549
 31
0.0
 11
5.8925733136
 21
5.0462348481
 31
0.0
 11
5.9024863377
 21
5.0471129456
 31
0.0
 11
5.9119340562
 21
5.0479910516
 31
0.0
 11
5.9209030306
 21
5.0488691646
 31
0.0
 11
5.9293802702
 21
5.0497472816
 31
0.0
 11
5.9373527841
 21
5.0506253994
 31
0.0
 11
5.9448078239
 21
5.0515035153
 31
0.0
 11
5.951734704
 21
5.052381628
 31
0.0
 11
5.9549970703
 21
5.0528206829
 31
0.0
 11
5.9581237818
 21
5.0532597367
 31
0.0
 11
5.9639654227
 21
5.0541378409
 31
0.0
 11
5.9692500696
 21
5.05501594
 31
0.0
 11
5.9716809684
 21
5.0554549878
 31
0.0
 11
5.9739698774
 21
5.0558940346
 31
0.0
 11
5.976116034
 21
5.0563330808
 31
0.0
 11
5.9781186758
 21
5.0567721264
 31
0.0
 11
5.9799770402
 21
5.0572111718
 31
0.0
 11
5.9816903647
 21
5.0576502172
 31
0.0
 11
5.9832578866
 21
5.0580892628
 31
0.0
 11
5.9846788593
 21
5.0585283088
 31
0.0
 11
5.9859527809
 21
5.0589673552
 31
0.0
 11
5.9870793437
 21
5.059406402
 31
0.0
 11
5.988058245
 21
5.0598454491
 31
0.0
 11
5.9888891823
 21
5.0602844964
 31
0.0
  0
SPLINE
  5
2CC
100
AcDbEntity
  8
0
100
AcDbSpline
 62
6
  6
CONTINUOUS
 70
0
 71
3
 72
50
 73
46
 74
44
 42
0.0000001
 43
0.0000001
 44
0.0000000001
 12
0.4007167288
 22
0.0113888078
 32
0.0
 13
-0.0005389195
 23
0.4008781751
 33
0.0
 40
0.0
 40
0.0
 40
0.0
 40
0.0
 40
0.0978134242
 40
0.1947485923
 40
0.2897736021
 40
0.3820042159
 40
0.4705694543
 40
0.554604607
 40
0.6333046278
 40
0.6704136779
 40
0.7059109127
 40
0.7397110428
 40
0.7717297552
 40
0.8018918537
 40
0.8301272984
 40
0.8563662468
 40
0.8805444669
 40
0.9026082059
 40
0.9225051008
 40
0.9316248329
 40
0.940184851
 40
0.9481810524
 40
0.9556094199
 40
0.9624660211
 40
0.9687470412
 40
0.974448832
 40
0.9795681288
 40
0.9841034669
 40
0.9880548083
 40
0.9898117845
 40
0.9914232522
 40
0.9928896265
 40
0.9942115394
 40
0.9953899453
 40
0.9964262979
 40
0.9973228608
 40
0.9980832872
 40
0.9984143793
 40
0.9987141221
 40
0.9989841253
 40
0.9992265917
 40
0.9994445555
 40
0.9996421776
 40
0.9998250071
 40
1.0
 40
1.0
 40
1.0
 40
1.0
 10
5.5908145793
 20
5.4982526089
 30
0.0
 10
5.6038797377
 20
5.498623935
 30
0.0
 10
5.6298927441
 20
5.49936325
 30
0.0
 10
5.668598153
 20
5.5004738866
 30
0.0
 10
5.7065572454
 20
5.5015843856
 30
0.0
 10
5.7433974194
 20
5.5026944488
 30
0.0
 10
5.7787683905
 20
5.5038039465
 30
0.0
 10
5.8123304074
 20
5.5049128794
 30
0.0
 10
5.8390182899
 20
5.5058535035
 30
0.0
 10
5.8592225884
 20
5.5066109456
 30
0.0
 10
5.8734303733
 20
5.5071677306
 30
0.0
 10
5.8869574167
 20
5.5077243404
 30
0.0
 10
5.8997709171
 20
5.5082808414
 30
0.0
 10
5.9118400978
 20
5.5088371572
 30
0.0
 10
5.9231360944
 20
5.5093931769
 30
0.0
 10
5.9336314695
 20
5.5099488841
 30
0.0
 10
5.9433009205
 20
5.5105042566
 30
0.0
 10
5.9521214185
 20
5.5110590857
 30
0.0
 10
5.9589306632
 20
5.5115335005
 30
0.0
 10
5.9639373183
 20
5.5119159408
 30
0.0
 10
5.9673570029
 20
5.5121943081
 30
0.0
 10
5.9705498896
 20
5.512472566
 30
0.0
 10
5.9735142428
 20
5.5127507019
 30
0.0
 10
5.9762483348
 20
5.5130286803
 30
0.0
 10
5.9787504449
 20
5.513306457
 30
0.0
 10
5.9810188782
 20
5.5135839709
 30
0.0
 10
5.9830521763
 20
5.5138611611
 30
0.0
 10
5.9848492
 20
5.5141379484
 30
0.0
 10
5.9861972717
 20
5.5143764274
 30
0.0
 10
5.987156191
 20
5.5145694731
 30
0.0
 10
5.987787168
 20
5.5147084473
 30
0.0
 10
5.9883585111
 20
5.5148473144
 30
0.0
 10
5.9888701637
 20
5.5149860582
 30
0.0
 10
5.989322084
 20
5.5151246456
 30
0.0
 10
5.9897143064
 20
5.5152630336
 30
0.0
 10
5.9900468388
 20
5.5154012071
 30
0.0
 10
5.9902843837
 20
5.5155210803
 30
0.0
 10
5.9904429342
 20
5.5156183575
 30
0.0
 10
5.9905412882
 20
5.5156879405
 30
0.0
 10
5.9906247163
 20
5.51575758
 30
0.0
 10
5.9906932438
 20
5.5158273583
 30
0.0
 10
5.9907468675
 20
5.5158973883
 30
0.0
 10
5.9907854928
 20
5.5159678367
 30
0.0
 10
5.9908088719
 20
5.5160387621
 30
0.0
 10
5.9908141002
 20
5.5160867294
 30
0.0
 10
5.9908140688
 20
5.516110113
 30
0.0
 11
5.5908145793
 21
5.4982526089
 31
0.0
 11
5.6300100037
 21
5.4993683782
 31
0.0
 11
5.6688531894
 21
5.5004848697
 31
0.0
 11
5.7069303233
 21
5.5016009467
 31
0.0
 11
5.74388675
 21
5.5027169578
 31
0.0
 11
5.7793731055
 21
5.503833074
 31
0.0
 11
5.8130425008
 21
5.5049491807
 31
0.0
 11
5.8445719025
 21
5.5060652668
 31
0.0
 11
5.8594376536
 21
5.5066233123
 31
0.0
 11
5.8736567868
 21
5.5071813598
 31
0.0
 11
5.887195037
 21
5.507739408
 31
0.0
 11
5.9000185148
 21
5.5082974557
 31
0.0
 11
5.9120969683
 21
5.5088555028
 31
0.0
 11
5.9234021873
 21
5.5094135495
 31
0.0
 11
5.933906005
 21
5.5099715962
 31
0.0
 11
5.9435824564
 21
5.5105296431
 31
0.0
 11
5.952409714
 21
5.5110876901
 31
0.0
 11
5.9603664066
 21
5.5116457372
 31
0.0
 11
5.9640116482
 21
5.5119247607
 31
0.0
 11
5.967431813
 21
5.5122037842
 31
0.0
 11
5.9706251516
 21
5.5124828077
 31
0.0
 11
5.9735899238
 21
5.5127618312
 31
0.0
 11
5.9763243892
 21
5.5130408546
 31
0.0
 11
5.9788268076
 21
5.5133198781
 31
0.0
 11
5.9810954388
 21
5.5135989016
 31
0.0
 11
5.9831285982
 21
5.5138779251
 31
0.0
 11
5.9849251797
 21
5.5141569485
 31
0.0
 11
5.986484419
 21
5.514435972
 31
0.0
 11
5.9871747979
 21
5.5145754838
 31
0.0
 11
5.9878055562
 21
5.5147149955
 31
0.0
 11
5.9883765991
 21
5.5148545073
 31
0.0
 11
5.9888878315
 21
5.514994019
 31
0.0
 11
5.9893391584
 21
5.5151335308
 31
0.0
 11
5.9897304849
 21
5.5152730425
 31
0.0
 11
5.990061716
 21
5.5154125543
 31
0.0
 11
5.9903327567
 21
5.515552066
 31
0.0
 11
5.990445676
 21
5.5156218219
 31
0.0
 11
5.990543516
 21
5.5156915778
 31
0.0
 11
5.9906262788
 21
5.5157613336
 31
0.0
 11
5.9906939683
 21
5.5158310895
 31
0.0
 11
5.9907465883
 21
5.5159008454
 31
0.0
 11
5.9907841425
 21
5.5159706013
 31
0.0
 11
5.9908066347
 21
5.5160403571
 31
0.0
 11
5.9908140688
 21
5.516110113
 31
0.0
  0
SPLINE
  5
2CD
100
AcDbEntity
  8
0
100
AcDbSpline
 62
6
  6
CONTINUOUS
 70
0
 71
3
 72
27
 73
23
 74
21
 42
0.0000001
 43
0.0000001
 44
0.0000000001
 12
-0.013051446
 22
-0.0014901326
 32
0.0
 13
0.0000062603
 23
-0.013136236
 33
0.0
 40
0.0
 40
0.0
 40
0.0
 40
0.0
 40
0.2251324974
 40
0.3268341797
 40
0.4212717653
 40
0.5084328482
 40
0.5883084287
 40
0.6608943018
 40
0.7261932236
 40
0.7842184398
 40
0.8349997241
 40
0.8785943619
 40
0.8977299663
 40
0.9151170842
 40
0.930787553
 40
0.9447848934
 40
0.9571700979
 40
0.9680311481
 40
0.9774983801
 40
0.9857680279
 40
0.9931323855
 40
1.0
 40
1.0
 40
1.0
 40
1.0
 10
5.2034058271
 20
5.5368258317
 30
0.0
 10
5.2024263922
 20
5.5367140059
 30
0.0
 10
5.2010054813
 20
5.5365426566
 30
0.0
 10
5.1991772953
 20
5.5362966301
 30
0.0
 10
5.1979496314
 20
5.5361184524
 30
0.0
 10
5.1968186095
 20
5.5359403317
 30
0.0
 10
5.1957845361
 20
5.5357622914
 30
0.0
 10
5.1948477062
 20
5.5355843749
 30
0.0
 10
5.194008406
 20
5.53540663
 30
0.0
 10
5.1932668704
 20
5.5352291405
 30
0.0
 10
5.1926233522
 20
5.5350519593
 30
0.0
 10
5.1921502145
 20
5.5348987855
 30
0.0
 10
5.1918220639
 20
5.5347745485
 30
0.0
 10
5.191611511
 20
5.5346855043
 30
0.0
 10
5.191425581
 20
5.5345965089
 30
0.0
 10
5.1912642176
 20
5.5345075399
 30
0.0
 10
5.1911273366
 20
5.5344185599
 30
0.0
 10
5.1910148293
 20
5.5343294663
 30
0.0
 10
5.1909265905
 20
5.5342400498
 30
0.0
 10
5.1908626442
 20
5.5341498749
 30
0.0
 10
5.190823464
 20
5.5340585105
 30
0.0
 10
5.1908145089
 20
5.5339959043
 30
0.0
 10
5.1908145233
 20
5.5339658328
 30
0.0
 11
5.2034058271
 21
5.5368258317
 31
0.0
 11
5.200470078
 21
5.5364686814
 31
0.0
 11
5.1991461009
 21
5.5362900186
 31
0.0
 11
5.197918486
 21
5.5361113084
 31
0.0
 11
5.1967875564
 21
5.5359325586
 31
0.0
 11
5.195753635
 21
5.5357537773
 31
0.0
 11
5.1948170448
 21
5.5355749727
 31
0.0
 11
5.1939781088
 21
5.5353961529
 31
0.0
 11
5.1932371499
 21
5.5352173258
 31
0.0
 11
5.1925944911
 21
5.5350384996
 31
0.0
 11
5.1920504555
 21
5.5348596823
 31
0.0
 11
5.1918155216
 21
5.5347702795
 31
0.0
 11
5.1916053428
 21
5.5346808814
 31
0.0
 11
5.1914199152
 21
5.5345914877
 31
0.0
 11
5.1912592336
 21
5.5345020982
 31
0.0
 11
5.191123293
 21
5.5344127125
 31
0.0
 11
5.1910120881
 21
5.5343233304
 31
0.0
 11
5.1909256138
 21
5.5342339517
 31
0.0
 11
5.190863865
 21
5.534144576
 31
0.0
 11
5.1908268366
 21
5.5340552031
 31
0.0
 11
5.1908145233
 21
5.5339658328
 31
0.0
  0
SPLINE
  5
2CE
100
AcDbEntity
  8
0
100
AcDbSpline
 62
6
  6
CONTINUOUS
 70
0
 71
3
 72
83
 73
79
 74
77
 42
0.0000001
 43
0.0000001
 44
0.0000000001
 12
-0.6265521985
 22
-0.3622480136
 32
0.0
 13
-0.0000279969
 23
-0.7237342606
 33
0.0
 40
0.0
 40
0.0
 40
0.0
 40
0.0
 40
0.0004101855
 40
0.0008857183
 40
0.0014283305
 40
0.0020391663
 40
0.0027190093
 40
0.0034684121
 40
0.0042877733
 40
0.0051773849
 40
0.0071678421
 40
0.0094399029
 40
0.011992944
 40
0.0148260277
 40
0.0179380169
 40
0.0213276422
 40
0.024993543
 40
0.0289342519
 40
0.0331476132
 40
0.0376309335
 40
0.0473964679
 40
0.0582087691
 40
0.0700452691
 40
0.0828788119
 40
0.0966781071
 40
0.1114116452
 40
0.1270472524
 40
0.1435478508
 40
0.160874008
 40
0.1978439411
 40
0.2376146867
 40
0.2798172926
 40
0.324059428
 40
0.369930951
 40
0.4170050095
 40
0.4648449313
 40
0.5130058907
 40
0.5610404522
 40
0.608502716
 40
0.6549510234
 40
0.6999548954
 40
0.7430952293
 40
0.7839725191
 40
0.8222064922
 40
0.8402211093
 40
0.8574429272
 40
0.8738334029
 40
0.8893554037
 40
0.9039718363
 40
0.9176478439
 40
0.9303538332
 40
0.9420610416
 40
0.9527409248
 40
0.9623689823
 40
0.9667824813
 40
0.9709257944
 40
0.9747965881
 40
0.9783925682
 40
0.9817114994
 40
0.984751656
 40
0.9875121203
 40
0.9899921846
 40
0.992191362
 40
0.9941095176
 40
0.9949633594
 40
0.995747198
 40
0.9964612691
 40
0.997105938
 40
0.9976817676
 40
0.9981896933
 40
0.9986311769
 40
0.9990084557
 40
0.9993251317
 40
0.9995873172
 40
0.9997013171
 40
0.9998063144
 40
0.9999048539
 40
1.0
 40
1.0
 40
1.0
 40
1.0
 10
5.9516182399
 20
5.1895915754
 30
0.0
 10
5.9515325723
 20
5.1895420458
 30
0.0
 10
5.9513421729
 20
5.1894444344
 30
0.0
 10
5.9510253978
 20
5.1893084172
 30
0.0
 10
5.9506566123
 20
5.1891722302
 30
0.0
 10
5.9502357788
 20
5.1890359054
 30
0.0
 10
5.9497628386
 20
5.1888994602
 30
0.0
 10
5.9492377857
 20
5.1887629202
 30
0.0
 10
5.948660626
 20
5.1886262935
 30
0.0
 10
5.9477884476
 20
5.188436878
 30
0.0
 10
5.9465676024
 20
5.1882026959
 30
0.0
 10
5.9449459563
 20
5.1879305808
 30
0.0
 10
5.9431185805
 20
5.187658082
 30
0.0
 10
5.9410866311
 20
5.1873852637
 30
0.0
 10
5.9388512542
 20
5.1871122169
 30
0.0
 10
5.9364136257
 20
5.1868389909
 30
0.0
 10
5.9337749377
 20
5.1865656242
 30
0.0
 10
5.9309365527
 20
5.1862921711
 30
0.0
 10
5.9279001277
 20
5.1860186305
 30
0.0
 10
5.9234620645
 20
5.1856430079
 30
0.0
 10
5.9174341076
 20
5.1851768632
 30
0.0
 10
5.9096333074
 20
5.1846315028
 30
0.0
 10
5.9010907506
 20
5.1840857439
 30
0.0
 10
5.8918262765
 20
5.183539626
 30
0.0
 10
5.8818618051
 20
5.1829931608
 30
0.0
 10
5.8712204181
 20
5.1824464318
 30
0.0
 10
5.8599265559
 20
5.1818995831
 30
0.0
 10
5.8480065541
 20
5.1813525702
 30
0.0
 10
5.8309435038
 20
5.1806067845
 30
0.0
 10
5.8082692145
 20
5.1796810871
 30
0.0
 10
5.7795954317
 20
5.1785917019
 30
0.0
 10
5.74916611
 20
5.1775015658
 30
0.0
 10
5.717264137
 20
5.1764108059
 30
0.0
 10
5.6841863063
 20
5.1753196659
 30
0.0
 10
5.6502400815
 20
5.1742282198
 30
0.0
 10
5.6157412677
 20
5.1731366262
 30
0.0
 10
5.5810106255
 20
5.172044958
 30
0.0
 10
5.5463711356
 20
5.1709533093
 30
0.0
 10
5.5121450157
 20
5.1698618038
 30
0.0
 10
5.4786504047
 20
5.1687704933
 30
0.0
 10
5.4461989907
 20
5.1676795729
 30
0.0
 10
5.4150923242
 20
5.1665891199
 30
0.0
 10
5.385619886
 20
5.1654993875
 30
0.0
 10
5.3622069935
 20
5.1645746601
 30
0.0
 10
5.3444982755
 20
5.1638301956
 30
0.0
 10
5.3320555703
 20
5.1632830256
 30
0.0
 10
5.3202147975
 20
5.1627360024
 30
0.0
 10
5.3090032556
 20
5.1621891698
 30
0.0
 10
5.298447377
 20
5.1616425398
 30
0.0
 10
5.2885718044
 20
5.1610960752
 30
0.0
 10
5.279399196
 20
5.1605499414
 30
0.0
 10
5.270950733
 20
5.1600042745
 30
0.0
 10
5.263246459
 20
5.1594590694
 30
0.0
 10
5.2573007143
 20
5.1589927499
 30
0.0
 10
5.2529298177
 20
5.1586169383
 30
0.0
 10
5.2499442089
 20
5.158343405
 30
0.0
 10
5.2471566923
 20
5.1580699796
 30
0.0
 10
5.2445690623
 20
5.1577966779
 30
0.0
 10
5.2421830036
 20
5.157523516
 30
0.0
 10
5.2399999155
 20
5.1572505122
 30
0.0
 10
5.2380208905
 20
5.1569777494
 30
0.0
 10
5.2362468023
 20
5.1567053261
 30
0.0
 10
5.2346785204
 20
5.1564333115
 30
0.0
 10
5.2335021613
 20
5.1561989924
 30
0.0
 10
5.2326655112
 20
5.1560093514
 30
0.0
 10
5.2321148015
 20
5.1558727706
 30
0.0
 10
5.2316161984
 20
5.1557362878
 30
0.0
 10
5.2311697771
 20
5.1555999144
 30
0.0
 10
5.2307755728
 20
5.155463667
 30
0.0
 10
5.230433535
 20
5.1553275593
 30
0.0
 10
5.230143525
 20
5.1551916185
 30
0.0
 10
5.2299052003
 20
5.1550557255
 30
0.0
 10
5.2297182281
 20
5.1549197303
 30
0.0
 10
5.2295994776
 20
5.1548002771
 30
0.0
 10
5.2295340868
 20
5.1547039669
 30
0.0
 10
5.2295004837
 20
5.1546347743
 30
0.0
 10
5.2294801701
 20
5.1545652641
 30
0.0
 10
5.2294756065
 20
5.1545184238
 30
0.0
 10
5.2294756056
 20
5.1544954703
 30
0.0
 11
5.9516182399
 21
5.1895915754
 31
0.0
 11
5.951354926
 21
5.1894544812
 31
0.0
 11
5.9510392508
 21
5.1893173871
 31
0.0
 11
5.9506712507
 21
5.1891802929
 31
0.0
 11
5.9502509622
 21
5.1890431988
 31
0.0
 11
5.9497784218
 21
5.1889061046
 31
0.0
 11
5.9492536659
 21
5.1887690104
 31
0.0
 11
5.948676731
 21
5.1886319163
 31
0.0
 11
5.9480476537
 21
5.1884948221
 31
0.0
 11
5.9466334261
 21
5.1882206338
 31
0.0
 11
5.9450120786
 21
5.1879464455
 31
0.0
 11
5.9431848122
 21
5.1876722572
 31
0.0
 11
5.941152828
 21
5.1873980688
 31
0.0
 11
5.9389173269
 21
5.1871238805
 31
0.0
 11
5.9364795099
 21
5.1868496922
 31
0.0
 11
5.9338405779
 21
5.1865755039
 31
0.0
 11
5.9310017624
 21
5.1863013156
 31
0.0
 11
5.9279647606
 21
5.1860271272
 31
0.0
 11
5.9247316336
 21
5.1857529389
 31
0.0
 11
5.9176852881
 21
5.1852045623
 31
0.0
 11
5.9098792935
 21
5.1846561856
 31
0.0
 11
5.9013303829
 21
5.184107809
 31
0.0
 11
5.8920585108
 21
5.1835594323
 31
0.0
 11
5.8820865547
 21
5.1830110557
 31
0.0
 11
5.8714374985
 21
5.1824626791
 31
0.0
 11
5.8601347689
 21
5.1819143024
 31
0.0
 11
5.8482053178
 21
5.1813659258
 31
0.0
 11
5.8356777808
 21
5.1808175491
 31
0.0
 11
5.8089438611
 21
5.1797207959
 31
0.0
 11
5.7801813127
 21
5.1786240426
 31
0.0
 11
5.7496575383
 21
5.1775272893
 31
0.0
 11
5.717656778
 21
5.176430536
 31
0.0
 11
5.6844761062
 21
5.1753337827
 31
0.0
 11
5.6504246553
 21
5.1742370294
 31
0.0
 11
5.6158186399
 21
5.1731402762
 31
0.0
 11
5.5809801627
 21
5.1720435229
 31
0.0
 11
5.5462332095
 21
5.1709467696
 31
0.0
 11
5.5119006565
 21
5.1698500163
 31
0.0
 11
5.478302321
 21
5.168753263
 31
0.0
 11
5.4457499476
 21
5.1676565097
 31
0.0
 11
5.4145470789
 21
5.1665597565
 31
0.0
 11
5.3849831203
 21
5.1654630032
 31
0.0
 11
5.3573336275
 21
5.1643662499
 31
0.0
 11
5.3443073696
 21
5.1638178733
 31
0.0
 11
5.3318554191
 21
5.1632694966
 31
0.0
 11
5.3200057523
 21
5.16272112
 31
0.0
 11
5.308785341
 21
5.1621727433
 31
0.0
 11
5.2982211513
 21
5.1616243667
 31
0.0
 11
5.2883385588
 21
5.16107599
 31
0.0
 11
5.2791591644
 21
5.1605276134
 31
0.0
 11
5.270704021
 21
5.1599792368
 31
0.0
 11
5.262994101
 21
5.1594308601
 31
0.0
 11
5.2560475574
 21
5.1588824835
 31
0.0
 11
5.2528651468
 21
5.1586082952
 31
0.0
 11
5.2498790509
 21
5.1583341068
 31
0.0
 11
5.2470910752
 21
5.1580599185
 31
0.0
 11
5.244503025
 21
5.1577857302
 31
0.0
 11
5.2421167012
 21
5.1575115419
 31
0.0
 11
5.2399335867
 21
5.1572373536
 31
0.0
 11
5.2379546486
 21
5.1569631652
 31
0.0
 11
5.2361808071
 21
5.1566889769
 31
0.0
 11
5.2346129822
 21
5.1564147886
 31
0.0
 11
5.2332520939
 21
5.1561406003
 31
0.0
 11
5.2326495384
 21
5.1560035061
 31
0.0
 11
5.2320990622
 21
5.155866412
 31
0.0
 11
5.2316007801
 21
5.1557293178
 31
0.0
 11
5.2311548072
 21
5.1555922236
 31
0.0
 11
5.2307612545
 21
5.1554551295
 31
0.0
 11
5.2304201719
 21
5.1553180353
 31
0.0
 11
5.2301315612
 21
5.1551809412
 31
0.0
 11
5.2298954229
 21
5.155043847
 31
0.0
 11
5.2297117577
 21
5.1549067528
 31
0.0
 11
5.229580566
 21
5.1547696587
 31
0.0
 11
5.2295346479
 21
5.1547011116
 31
0.0
 11
5.2295018485
 21
5.1546325645
 31
0.0
 11
5.2294821677
 21
5.1545640174
 31
0.0
 11
5.2294756056
 21
5.1544954703
 31
0.0
  0
SPLINE
  5
2CF
100
AcDbEntity
  8
0
100
AcDbSpline
 62
6
  6
CONTINUOUS
 70
0
 71
3
 72
84
 73
80
 74
78
 42
0.0000001
 43
0.0000001
 44
0.0000000001
 12
-0.6266593666
 22
-0.3620654004
 32
0.0
 13
0.0010240318
 23
-0.7237349427
 33
0.0
 40
0.0
 40
0.0
 40
0.0
 40
0.0
 40
0.0004104466
 40
0.0008863501
 40
0.0014293914
 40
0.0020406597
 40
0.0027208825
 40
0.0034705559
 40
0.0042900216
 40
0.005179515
 40
0.0071691228
 40
0.0094401408
 40
0.0119927251
 40
0.0148261849
 40
0.0179389897
 40
0.021329437
 40
0.0249957315
 40
0.0289360122
 40
0.03314837
 40
0.0376308602
 40
0.047396941
 40
0.0582106885
 40
0.0700465087
 40
0.0828786487
 40
0.0966788663
 40
0.1114134691
 40
0.1270479763
 40
0.1435477646
 40
0.1608749415
 40
0.1789877714
 40
0.1978442807
 40
0.2376156434
 40
0.2798174124
 40
0.3240602193
 40
0.3699310132
 40
0.4170054934
 40
0.4648450005
 40
0.5130060068
 40
0.5610404871
 40
0.6085025243
 40
0.6549509121
 40
0.6999545598
 40
0.7430948334
 40
0.7839722356
 40
0.8222056912
 40
0.8402197457
 40
0.8574428498
 40
0.8738334835
 40
0.8893541346
 40
0.9039704065
 40
0.9176480241
 40
0.9303536052
 40
0.942059328
 40
0.9527396849
 40
0.9623693308
 40
0.9667825942
 40
0.9709251472
 40
0.9747950838
 40
0.978390536
 40
0.9817096881
 40
0.9847507956
 40
0.9875122156
 40
0.9899925073
 40
0.9921911406
 40
0.9941084174
 40
0.9949618328
 40
0.9957453268
 40
0.9964591885
 40
0.9971038356
 40
0.9976798745
 40
0.9981882015
 40
0.9986301753
 40
0.9990079308
 40
0.9993249733
 40
0.9995873396
 40
0.999701359
 40
0.9998063463
 40
0.9999048653
 40
1.0
 40
1.0
 40
1.0
 40
1.0
 10
5.9516190619
 20
5.1181615742
 30
0.0
 10
5.9515333251
 20
5.118112038
 30
0.0
 10
5.9513427545
 20
5.1180144243
 30
0.0
 10
5.9510256968
 20
5.1178784158
 30
0.0
 10
5.9506565914
 20
5.1177422349
 30
0.0
 10
5.9502354412
 20
5.1176059146
 30
0.0
 10
5.9497622274
 20
5.1174694727
 30
0.0
 10
5.949236985
 20
5.117332935
 30
0.0
 10
5.9486597601
 20
5.1171963104
 30
0.0
 10
5.9477877901
 20
5.1170069099
 30
0.0
 10
5.9465674433
 20
5.1167726948
 30
0.0
 10
5.9449463748
 20
5.1165005381
 30
0.0
 10
5.9431192692
 20
5.1162280371
 30
0.0
 10
5.9410871329
 20
5.1159552467
 30
0.0
 10
5.9388512599
 20
5.115682219
 30
0.0
 10
5.9364131317
 20
5.1154090085
 30
0.0
 10
5.9337742465
 20
5.1151356543
 30
0.0
 10
5.9309361089
 20
5.1148621877
 30
0.0
 10
5.9279002282
 20
5.1145886209
 30
0.0
 10
5.9234624721
 20
5.1142129484
 30
0.0
 10
5.9174342184
 20
5.1137468449
 30
0.0
 10
5.9096330802
 20
5.1132015633
 30
0.0
 10
5.9010906639
 20
5.1126557561
 30
0.0
 10
5.8918264562
 20
5.1121095664
 30
0.0
 10
5.8818618208
 20
5.1115631614
 30
0.0
 10
5.8712201967
 20
5.111016477
 30
0.0
 10
5.8599265194
 20
5.1104695709
 30
0.0
 10
5.8480067103
 20
5.1099225405
 30
0.0
 10
5.8354884247
 20
5.1093754211
 30
0.0
 10
5.8224010801
 20
5.1088281582
 30
0.0
 10
5.8039026636
 20
5.1080850935
 30
0.0
 10
5.7795954959
 20
5.1071617612
 30
0.0
 10
5.7491660121
 20
5.1060715246
 30
0.0
 10
5.7172641897
 20
5.1049808351
 30
0.0
 10
5.6841862088
 20
5.1038896412
 30
0.0
 10
5.6502400909
 20
5.1027982349
 30
0.0
 10
5.6157411979
 20
5.1017066157
 30
0.0
 10
5.5810105962
 20
5.1006149595
 30
0.0
 10
5.5463711019
 20
5.0995233102
 30
0.0
 10
5.5121449705
 20
5.0984317972
 30
0.0
 10
5.4786503834
 20
5.0973404973
 30
0.0
 10
5.446198956
 20
5.0962495687
 30
0.0
 10
5.4150922705
 20
5.0951591163
 30
0.0
 10
5.385619887
 20
5.0940693908
 30
0.0
 10
5.3622071819
 20
5.0931446792
 30
0.0
 10
5.3444983822
 20
5.0924001565
 30
0.0
 10
5.3320554374
 20
5.0918530452
 30
0.0
 10
5.3202146181
 20
5.0913060319
 30
0.0
 10
5.3090033836
 20
5.0907591478
 30
0.0
 10
5.2984474618
 20
5.0902124921
 30
0.0
 10
5.2885716131
 20
5.0896661218
 30
0.0
 10
5.2793990562
 20
5.0891199721
 30
0.0
 10
5.2709509253
 20
5.0885742235
 30
0.0
 10
5.2632464973
 20
5.0880290194
 30
0.0
 10
5.2573002908
 20
5.0875628014
 30
0.0
 10
5.2529292449
 20
5.0871869549
 30
0.0
 10
5.2499440803
 20
5.0869134092
 30
0.0
 10
5.2471570796
 20
5.0866399688
 30
0.0
 10
5.2445697291
 20
5.0863666471
 30
0.0
 10
5.2421835105
 20
5.086093478
 30
0.0
 10
5.2399998974
 20
5.0858205037
 30
0.0
 10
5.2380203429
 20
5.0855477832
 30
0.0
 10
5.2362460926
 20
5.0852753728
 30
0.0
 10
5.2346781027
 20
5.08500334
 30
0.0
 10
5.2335022007
 20
5.0847689962
 30
0.0
 10
5.2326659591
 20
5.084579346
 30
0.0
 10
5.2321154934
 20
5.0844427594
 30
0.0
 10
5.2316170355
 20
5.0843062693
 30
0.0
 10
5.2311706224
 20
5.0841698856
 30
0.0
 10
5.2307762689
 20
5.0840336357
 30
0.0
 10
5.2304339428
 20
5.0838975353
 30
0.0
 10
5.230143564
 20
5.0837616056
 30
0.0
 10
5.2299048602
 20
5.0836257288
 30
0.0
 10
5.229717566
 20
5.083489759
 30
0.0
 10
5.2295986116
 20
5.083370306
 30
0.0
 10
5.2295331654
 20
5.0832739747
 30
0.0
 10
5.2294995744
 20
5.0832047769
 30
0.0
 10
5.2294793127
 20
5.0831352595
 30
0.0
 10
5.2294748088
 20
5.0830884195
 30
0.0
 10
5.2294748412
 20
5.0830654688
 30
0.0
 11
5.9516190619
 21
5.1181615742
 31
0.0
 11
5.9513555343
 21
5.1180244801
 31
0.0
 11
5.9510395658
 21
5.1178873859
 31
0.0
 11
5.9506712336
 21
5.1177502917
 31
0.0
 11
5.9502506151
 21
5.1176131976
 31
0.0
 11
5.9497777874
 21
5.1174761034
 31
0.0
 11
5.949252828
 21
5.1173390092
 31
0.0
 11
5.9486758142
 21
5.1172019151
 31
0.0
 11
5.9480468232
 21
5.1170648209
 31
0.0
 11
5.9466332189
 21
5.1167906326
 31
0.0
 11
5.9450126336
 21
5.1165164443
 31
0.0
 11
5.9431856979
 21
5.1162422559
 31
0.0
 11
5.941153435
 21
5.1159680676
 31
0.0
 11
5.9389173348
 21
5.1156938793
 31
0.0
 11
5.9364789142
 21
5.115419691
 31
0.0
 11
5.9338396906
 21
5.1151455027
 31
0.0
 11
5.931001181
 21
5.1148713143
 31
0.0
 11
5.9279649024
 21
5.114597126
 31
0.0
 11
5.9247323721
 21
5.1143229377
 31
0.0
 11
5.9176856161
 21
5.113774561
 31
0.0
 11
5.9098785569
 21
5.1132261844
 31
0.0
 11
5.9013301227
 21
5.1126778077
 31
0.0
 11
5.8920592494
 21
5.1121294311
 31
0.0
 11
5.8820866055
 21
5.1115810544
 31
0.0
 11
5.8714367569
 21
5.1110326778
 31
0.0
 11
5.8601348024
 21
5.1104843012
 31
0.0
 11
5.848205915
 21
5.1099359245
 31
0.0
 11
5.8356776148
 21
5.1093875479
 31
0.0
 11
5.8225801887
 21
5.1088391712
 31
0.0
 11
5.8089440824
 21
5.1082907946
 31
0.0
 11
5.7801810311
 21
5.1071940413
 31
0.0
 11
5.7496578034
 21
5.106097288
 31
0.0
 11
5.7176564946
 21
5.1050005347
 31
0.0
 11
5.6844762863
 21
5.1039037814
 31
0.0
 11
5.6504244637
 21
5.1028070281
 31
0.0
 11
5.6158186813
 21
5.1017102748
 31
0.0
 11
5.5809801025
 21
5.1006135215
 31
0.0
 11
5.5462331405
 21
5.0995167682
 31
0.0
 11
5.5119006848
 21
5.0984200149
 31
0.0
 11
5.4783022257
 21
5.0973232616
 31
0.0
 11
5.4457499515
 21
5.0962265083
 31
0.0
 11
5.4145470658
 21
5.095129755
 31
0.0
 11
5.3849829682
 21
5.0940330017
 31
0.0
 11
5.3573337965
 21
5.0929362484
 31
0.0
 11
5.3443079206
 21
5.0923878718
 31
0.0
 11
5.3318550142
 21
5.0918394951
 31
0.0
 11
5.3200052099
 21
5.0912911185
 31
0.0
 11
5.3087857548
 21
5.0907427418
 31
0.0
 11
5.2982216609
 21
5.0901943652
 31
0.0
 11
5.2883378821
 21
5.0896459885
 31
0.0
 11
5.2791587658
 21
5.0890976119
 31
0.0
 11
5.2707046834
 21
5.0885492352
 31
0.0
 11
5.2629944046
 21
5.0880008586
 31
0.0
 11
5.2560466942
 21
5.087452482
 31
0.0
 11
5.2528644486
 21
5.0871782936
 31
0.0
 11
5.2498788993
 21
5.0869041053
 31
0.0
 11
5.2470915414
 21
5.086629917
 31
0.0
 11
5.2445038703
 21
5.0863557287
 31
0.0
 11
5.2421173809
 21
5.0860815403
 31
0.0
 11
5.2399335685
 21
5.085807352
 31
0.0
 11
5.2379539282
 21
5.0855331637
 31
0.0
 11
5.2361799166
 21
5.0852589754
 31
0.0
 11
5.2346124883
 21
5.084984787
 31
0.0
 11
5.2332522461
 21
5.0847105987
 31
0.0
 11
5.2326500059
 21
5.0845735046
 31
0.0
 11
5.2320997856
 21
5.0844364104
 31
0.0
 11
5.2316016595
 21
5.0842993162
 31
0.0
 11
5.2311557023
 21
5.0841622221
 31
0.0
 11
5.2307619883
 21
5.0840251279
 31
0.0
 11
5.2304205919
 21
5.0838880337
 31
0.0
 11
5.2301315877
 21
5.0837509396
 31
0.0
 11
5.22989505
 21
5.0836138454
 31
0.0
 11
5.2297110534
 21
5.0834767513
 31
0.0
 11
5.229579672
 21
5.0833396571
 31
0.0
 11
5.2295337282
 21
5.08327111
 31
0.0
 11
5.2295009452
 21
5.0832025629
 31
0.0
 11
5.2294813179
 21
5.0831340159
 31
0.0
 11
5.2294748412
 21
5.0830654688
 31
0.0
  0
SPLINE
  5
2D0
100
AcDbEntity
  8
0
100
AcDbSpline
 62
6
  6
CONTINUOUS
 70
0
 71
3
 72
44
 73
40
 74
38
 42
0.0000001
 43
0.0000001
 44
0.0000000001
 12
-0.0002650928
 22
-0.1755700445
 32
0.0
 13
-0.175451853
 23
-0.006446555
 33
0.0
 40
0.0
 40
0.0
 40
0.0
 40
0.0
 40
0.0005243924
 40
0.0010815666
 40
0.0016988991
 40
0.0023966871
 40
0.0031890379
 40
0.004085579
 40
0.0050929309
 40
0.006215734
 40
0.0074573152
 40
0.0088201138
 40
0.0119159161
 40
0.0155136641
 40
0.0196194943
 40
0.0242373496
 40
0.029369725
 40
0.035017327
 40
0.0411798365
 40
0.0478565309
 40
0.0550464033
 40
0.0709605279
 40
0.0889110398
 40
0.1088850501
 40
0.1308679402
 40
0.1548373727
 40
0.1807668495
 40
0.2086295344
 40
0.2383983714
 40
0.2700461405
 40
0.3035431309
 40
0.3388524487
 40
0.414754779
 40
0.4974460629
 40
0.586595685
 40
0.6818252741
 40
0.7827495612
 40
0.8889565554
 40
1.0
 40
1.0
 40
1.0
 40
1.0
 10
5.9521542123
 20
5.1812804686
 30
0.0
 10
5.9521541659
 20
5.1812497794
 30
0.0
 10
5.9521456919
 20
5.1811862414
 30
0.0
 10
5.9521087878
 20
5.1810930679
 30
0.0
 10
5.9520484471
 20
5.1810008908
 30
0.0
 10
5.9519651269
 20
5.180909422
 30
0.0
 10
5.9518589166
 20
5.1808182952
 30
0.0
 10
5.951729768
 20
5.1807273139
 30
0.0
 10
5.9515776108
 20
5.1806363718
 30
0.0
 10
5.9514023874
 20
5.1805454248
 30
0.0
 10
5.9512040612
 20
5.1804544457
 30
0.0
 10
5.9508954249
 20
5.1803276519
 30
0.0
 10
5.9504503362
 20
5.1801712091
 30
0.0
 10
5.9498446401
 20
5.1799901839
 30
0.0
 10
5.9491465808
 20
5.1798088731
 30
0.0
 10
5.9483561779
 20
5.1796273162
 30
0.0
 10
5.9474734919
 20
5.179445597
 30
0.0
 10
5.9464987329
 20
5.1792637359
 30
0.0
 10
5.9454321991
 20
5.179081761
 30
0.0
 10
5.9442742276
 20
5.178899687
 30
0.0
 10
5.9425495653
 20
5.1786482292
 30
0.0
 10
5.9401670527
 20
5.1783367988
 30
0.0
 10
5.9370371134
 20
5.1779739633
 30
0.0
 10
5.9335499309
 20
5.1776107007
 30
0.0
 10
5.9297088178
 20
5.1772471442
 30
0.0
 10
5.9255177747
 20
5.1768833371
 30
0.0
 10
5.9209814564
 20
5.1765193089
 30
0.0
 10
5.9161047406
 20
5.1761551104
 30
0.0
 10
5.9108925128
 20
5.1757907732
 30
0.0
 10
5.9053497993
 20
5.1754263376
 30
0.0
 10
5.8994821825
 20
5.1750618429
 30
0.0
 10
5.891027993
 20
5.1745636553
 30
0.0
 10
5.8796969718
 20
5.1739446628
 30
0.0
 10
5.8652163812
 20
5.1732179304
 30
0.0
 10
5.8496033975
 20
5.1724908186
 30
0.0
 10
5.8329223051
 20
5.1717631876
 30
0.0
 10
5.8152420778
 20
5.1710352758
 30
0.0
 10
5.7966356368
 20
5.170307167
 30
0.0
 10
5.7839302937
 20
5.169831517
 30
0.0
 10
5.7774360343
 20
5.1695929012
 30
0.0
 11
5.9521542123
 21
5.1812804686
 31
0.0
 11
5.9521424179
 21
5.1811891595
 31
0.0
 11
5.9521073177
 21
5.1810978503
 31
0.0
 11
5.9520489225
 21
5.1810065412
 31
0.0
 11
5.951967243
 21
5.1809152321
 31
0.0
 11
5.95186229
 21
5.180823923
 31
0.0
 11
5.9517340742
 21
5.1807326139
 31
0.0
 11
5.9515826065
 21
5.1806413047
 31
0.0
 11
5.9514078976
 21
5.1805499956
 31
0.0
 11
5.9512099583
 21
5.1804586865
 31
0.0
 11
5.9509887993
 21
5.1803673774
 31
0.0
 11
5.9504768655
 21
5.1801847591
 31
0.0
 11
5.9498721823
 21
5.1800021409
 31
0.0
 11
5.9491748359
 21
5.1798195227
 31
0.0
 11
5.9483849124
 21
5.1796369044
 31
0.0
 11
5.947502519
 21
5.1794542862
 31
0.0
 11
5.94652793
 21
5.1792716679
 31
0.0
 11
5.9454614997
 21
5.1790890497
 31
0.0
 11
5.944303583
 21
5.1789064315
 31
0.0
 11
5.9430545347
 21
5.1787238132
 31
0.0
 11
5.9402844626
 21
5.1783585767
 31
0.0
 11
5.937154122
 21
5.1779933402
 31
0.0
 11
5.9336663516
 21
5.1776281038
 31
0.0
 11
5.9298241307
 21
5.1772628673
 31
0.0
 11
5.9256316908
 21
5.1768976308
 31
0.0
 11
5.921093921
 21
5.1765323943
 31
0.0
 11
5.9162157164
 21
5.1761671578
 31
0.0
 11
5.9110019716
 21
5.1758019214
 31
0.0
 11
5.905457582
 21
5.1754366849
 31
0.0
 11
5.8995878594
 21
5.1750714484
 31
0.0
 11
5.8933993624
 21
5.1747062119
 31
0.0
 11
5.8800932071
 21
5.1739757389
 31
0.0
 11
5.8655934665
 21
5.173245266
 31
0.0
 11
5.8499585002
 21
5.172514793
 31
0.0
 11
5.8332549828
 21
5.17178432
 31
0.0
 11
5.8155507442
 21
5.1710538471
 31
0.0
 11
5.7969182696
 21
5.1703233741
 31
0.0
 11
5.7774360343
 21
5.1695929012
 31
0.0
  0
SPLINE
  5
2D1
100
AcDbEntity
  8
0
100
AcDbSpline
 62
6
  6
CONTINUOUS
 70
0
 71
3
 72
17
 73
13
 74
11
 42
0.0000001
 43
0.0000001
 44
0.0000000001
 12
-0.3671823689
 22
-0.0134912301
 32
0.0
 13
-0.3671879763
 23
-0.0133377439
 33
0.0
 40
0.0
 40
0.0
 40
0.0
 40
0.0
 40
0.0572351135
 40
0.1164700543
 40
0.2398775995
 40
0.368038462
 40
0.4986828655
 40
0.6294949738
 40
0.7581582648
 40
0.8823941197
 40
0.9421582141
 40
1.0
 40
1.0
 40
1.0
 40
1.0
 10
5.7774360343
 20
5.1695929012
 30
0.0
 10
5.7704307928
 20
5.1693355105
 30
0.0
 10
5.7561751491
 20
5.1688224135
 30
0.0
 10
5.7268134787
 20
5.1678011791
 30
0.0
 10
5.6887683676
 20
5.1665345174
 30
0.0
 10
5.6419802687
 20
5.1650334106
 30
0.0
 10
5.5942848438
 20
5.1635318385
 30
0.0
 10
5.5465278545
 20
5.162030217
 30
0.0
 10
5.4995561418
 20
5.1605289971
 30
0.0
 10
5.4612830883
 20
5.1592631123
 30
0.0
 10
5.4316806896
 20
5.158242565
 30
0.0
 10
5.4172858311
 20
5.1577298597
 30
0.0
 10
5.4102062283
 20
5.1574727
 30
0.0
 11
5.7774360343
 21
5.1695929012
 31
0.0
 11
5.7564197762
 21
5.1688353886
 31
0.0
 11
5.7346682603
 21
5.168077876
 31
0.0
 11
5.6893499262
 21
5.1665628509
 31
0.0
 11
5.6422841407
 21
5.1650478257
 31
0.0
 11
5.5943053637
 21
5.1635328006
 31
0.0
 11
5.5462649362
 21
5.1620177755
 31
0.0
 11
5.4990144479
 21
5.1605027503
 31
0.0
 11
5.4533915991
 21
5.1589877252
 31
0.0
 11
5.4314455393
 21
5.1582302126
 31
0.0
 11
5.4102062283
 21
5.1574727
 31
0.0
  0
SPLINE
  5
2D2
100
AcDbEntity
  8
0
100
AcDbSpline
 62
6
  6
CONTINUOUS
 70
0
 71
3
 72
38
 73
34
 74
32
 42
0.0000001
 43
0.0000001
 44
0.0000000001
 12
-0.1806156144
 22
-0.0065606854
 32
0.0
 13
-0.1564279969
 23
-0.0905280318
 33
0.0
 40
0.0
 40
0.0
 40
0.0
 40
0.0
 40
0.1055447533
 40
0.2068348388
 40
0.3034898641
 40
0.3951336523
 40
0.4814103646
 40
0.5619996932
 40
0.6365857843
 40
0.7048805372
 40
0.7365907906
 40
0.7666354259
 40
0.7949839013
 40
0.8216069032
 40
0.846481603
 40
0.8695875658
 40
0.8909045858
 40
0.9104127739
 40
0.9280926958
 40
0.9439275432
 40
0.957908421
 40
0.9642018429
 40
0.9700298301
 40
0.975392127
 40
0.9802887977
 40
0.9847203617
 40
0.9867621155
 40
0.9886881174
 40
0.9921940622
 40
0.9952421779
 40
0.9978396429
 40
0.9989733922
 40
1.0
 40
1.0
 40
1.0
 40
1.0
 10
5.4102062283
 20
5.1574727
 30
0.0
 10
5.4038518848
 20
5.1572418847
 30
0.0
 10
5.3913996357
 20
5.1567816575
 30
0.0
 10
5.3731294483
 20
5.1560781239
 30
0.0
 10
5.3556973601
 20
5.1553748491
 30
0.0
 10
5.3391705122
 20
5.1546718279
 30
0.0
 10
5.3236124552
 20
5.153969031
 30
0.0
 10
5.3090831263
 20
5.1532667397
 30
0.0
 10
5.295638453
 20
5.1525649333
 30
0.0
 10
5.2851371936
 20
5.1519667552
 30
0.0
 10
5.2773171608
 20
5.1514852717
 30
0.0
 10
5.2719003071
 20
5.1511332325
 30
0.0
 10
5.2667906099
 20
5.1507812988
 30
0.0
 10
5.2619931524
 20
5.1504294331
 30
0.0
 10
5.2575124233
 20
5.1500776919
 30
0.0
 10
5.2533523913
 20
5.1497261215
 30
0.0
 10
5.2495168849
 20
5.1493747695
 30
0.0
 10
5.2460097277
 20
5.1490236951
 30
0.0
 10
5.2428346017
 20
5.1486729965
 30
0.0
 10
5.2399946715
 20
5.1483226681
 30
0.0
 10
5.2378400545
 20
5.1480216898
 30
0.0
 10
5.2362864025
 20
5.1477785436
 30
0.0
 10
5.2352478447
 20
5.1476027189
 30
0.0
 10
5.2342947083
 20
5.1474269998
 30
0.0
 10
5.2334272243
 20
5.1472513937
 30
0.0
 10
5.2327587978
 20
5.1471013733
 30
0.0
 10
5.2322673756
 20
5.146980647
 30
0.0
 10
5.231831755
 20
5.1468667598
 30
0.0
 10
5.231340589
 20
5.1467257238
 30
0.0
 10
5.23081747
 20
5.1465510473
 30
0.0
 10
5.2304377025
 20
5.1463997261
 30
0.0
 10
5.2301786139
 20
5.146276921
 30
0.0
 10
5.2300638602
 20
5.1462153422
 30
0.0
 10
5.2300103301
 20
5.1461843632
 30
0.0
 11
5.4102062283
 21
5.1574727
 31
0.0
 11
5.3911436773
 21
5.156767179
 31
0.0
 11
5.3728506411
 21
5.1560616579
 31
0.0
 11
5.355395974
 21
5.1553561369
 31
0.0
 11
5.3388477915
 21
5.1546506158
 31
0.0
 11
5.3232705622
 21
5.1539450948
 31
0.0
 11
5.3087223688
 21
5.1532395737
 31
0.0
 11
5.2952605469
 21
5.1525340527
 31
0.0
 11
5.2829374929
 21
5.1518285316
 31
0.0
 11
5.2772172156
 21
5.1514757711
 31
0.0
 11
5.271798577
 21
5.1511230106
 31
0.0
 11
5.2666871813
 21
5.1507702501
 31
0.0
 11
5.2618884286
 21
5.1504174895
 31
0.0
 11
5.2574065676
 21
5.150064729
 31
0.0
 11
5.2532454436
 21
5.1497119685
 31
0.0
 11
5.2494089013
 21
5.149359208
 31
0.0
 11
5.2459007856
 21
5.1490064474
 31
0.0
 11
5.2427249413
 21
5.1486536869
 31
0.0
 11
5.2398848584
 21
5.1483009264
 31
0.0
 11
5.2373827731
 21
5.1479481658
 31
0.0
 11
5.2362590918
 21
5.1477717856
 31
0.0
 11
5.2352206447
 21
5.1475954053
 31
0.0
 11
5.2342676767
 21
5.1474190251
 31
0.0
 11
5.2334004326
 21
5.1472426448
 31
0.0
 11
5.2326191574
 21
5.1470662645
 31
0.0
 11
5.2322608347
 21
5.1469780744
 31
0.0
 11
5.231924096
 21
5.1468898843
 31
0.0
 11
5.2313154933
 21
5.146713504
 31
0.0
 11
5.2307935918
 21
5.1465371237
 31
0.0
 11
5.230358534
 21
5.1463607435
 31
0.0
 11
5.2301735752
 21
5.1462725534
 31
0.0
 11
5.2300103301
 21
5.1461843632
 31
0.0
  0
SPLINE
  5
2D3
100
AcDbEntity
  8
0
100
AcDbSpline
 62
6
  6
CONTINUOUS
 70
0
 71
3
 72
84
 73
80
 74
78
 42
0.0000001
 43
0.0000001
 44
0.0000000001
 12
0.0010790944
 22
-0.7237347722
 32
0.0
 13
-0.6266695249
 23
-0.3620476372
 33
0.0
 40
0.0
 40
0.0
 40
0.0
 40
0.0
 40
0.0000951338
 40
0.0001936486
 40
0.0002986267
 40
0.0004126305
 40
0.0006749503
 40
0.0009919564
 40
0.001369693
 40
0.0018116649
 40
0.0023200043
 40
0.002896067
 40
0.0035407455
 40
0.0042546426
 40
0.0050381721
 40
0.0058916193
 40
0.0078089324
 40
0.0100075396
 40
0.0124877199
 40
0.0152490725
 40
0.0182901885
 40
0.0216093951
 40
0.0252049177
 40
0.0290749104
 40
0.0332174752
 40
0.0376306754
 40
0.0472601886
 40
0.057940638
 40
0.0696464611
 40
0.0823519315
 40
0.0960294894
 40
0.1106458633
 40
0.1261665784
 40
0.1425570825
 40
0.1597801816
 40
0.1777943305
 40
0.2160277004
 40
0.2569052013
 40
0.3000453971
 40
0.3450491252
 40
0.3914974609
 40
0.4389595466
 40
0.4869940054
 40
0.5351550302
 40
0.582994538
 40
0.6300690253
 40
0.6759398197
 40
0.7201826557
 40
0.7623843915
 40
0.8021558305
 40
0.8210123405
 40
0.8391250801
 40
0.8564522441
 40
0.8729521734
 40
0.8885866398
 40
0.9033211379
 40
0.9171213867
 40
0.9299536664
 40
0.9417894045
 40
0.9526030486
 40
0.9623692292
 40
0.9668518076
 40
0.9710641711
 40
0.9750044052
 40
0.978670631
 40
0.9820610177
 40
0.9851738001
 40
0.9880073058
 40
0.9905600077
 40
0.9928310735
 40
0.9948206585
 40
0.9957101239
 40
0.9965295558
 40
0.9972791934
 40
0.9979593825
 40
0.9985706227
 40
0.9991136454
 40
0.9995895433
 40
1.0
 40
1.0
 40
1.0
 40
1.0
 10
5.9521542423
 20
5.109850472
 30
0.0
 10
5.9521542765
 20
5.1098275214
 30
0.0
 10
5.9521497776
 20
5.1097806824
 30
0.0
 10
5.9521295277
 20
5.1097111654
 30
0.0
 10
5.9520959527
 20
5.1096419677
 30
0.0
 10
5.9520305365
 20
5.1095456371
 30
0.0
 10
5.9519116229
 20
5.109426176
 30
0.0
 10
5.9517243563
 20
5.1092902079
 30
0.0
 10
5.951485668
 20
5.1091543321
 30
0.0
 10
5.9511952907
 20
5.1090184035
 30
0.0
 10
5.9508529555
 20
5.1088823039
 30
0.0
 10
5.9504585845
 20
5.1087460547
 30
0.0
 10
5.9500121485
 20
5.1086096714
 30
0.0
 10
5.9495136649
 20
5.1084731817
 30
0.0
 10
5.9489631738
 20
5.1083365953
 30
0.0
 10
5.9481269063
 20
5.1081469466
 30
0.0
 10
5.9469509937
 20
5.1079126049
 30
0.0
 10
5.9453830287
 20
5.1076405731
 30
0.0
 10
5.9436088301
 20
5.1073681537
 30
0.0
 10
5.9416293172
 20
5.1070954334
 30
0.0
 10
5.9394457052
 20
5.1068224609
 30
0.0
 10
5.9370594543
 20
5.1065492932
 30
0.0
 10
5.9344720601
 20
5.1062759727
 30
0.0
 10
5.9316850262
 20
5.1060025331
 30
0.0
 10
5.9286998607
 20
5.1057289884
 30
0.0
 10
5.9243288603
 20
5.1053531387
 30
0.0
 10
5.91838268
 20
5.1048869141
 30
0.0
 10
5.9106782379
 20
5.1043417178
 30
0.0
 10
5.9022300879
 20
5.1037959743
 30
0.0
 10
5.8930575495
 20
5.1032498171
 30
0.0
 10
5.8831817187
 20
5.1027034453
 30
0.0
 10
5.8726257724
 20
5.1021567939
 30
0.0
 10
5.8614145302
 20
5.1016099129
 30
0.0
 10
5.8495737298
 20
5.1010628927
 30
0.0
 10
5.8371307962
 20
5.1005157827
 30
0.0
 10
5.8194219976
 20
5.0997712659
 30
0.0
 10
5.7960092698
 20
5.0988465453
 30
0.0
 10
5.7665369054
 20
5.0977568284
 30
0.0
 10
5.7354301996
 20
5.0966663687
 30
0.0
 10
5.7029787879
 20
5.0955754462
 30
0.0
 10
5.6694841866
 20
5.0944841415
 30
0.0
 10
5.6352580656
 20
5.0933926319
 30
0.0
 10
5.6006185646
 20
5.0923009805
 30
0.0
 10
5.5658879678
 20
5.0912093255
 30
0.0
 10
5.5313890727
 20
5.0901177057
 30
0.0
 10
5.4974429571
 20
5.0890262998
 30
0.0
 10
5.4643649715
 20
5.0879351049
 30
0.0
 10
5.4324631539
 20
5.0868444175
 30
0.0
 10
5.4020336566
 20
5.0857541775
 30
0.0
 10
5.3777264812
 20
5.0848308478
 30
0.0
 10
5.3592280702
 20
5.0840877842
 30
0.0
 10
5.3461407521
 20
5.0835405186
 30
0.0
 10
5.3336224591
 20
5.0829933969
 30
0.0
 10
5.32170263
 20
5.0824463737
 30
0.0
 10
5.3104089554
 20
5.0818994651
 30
0.0
 10
5.2997673604
 20
5.0813527768
 30
0.0
 10
5.2898027103
 20
5.080806371
 30
0.0
 10
5.2805384818
 20
5.0802601906
 30
0.0
 10
5.2719960779
 20
5.0797143785
 30
0.0
 10
5.2641949619
 20
5.0791690901
 30
0.0
 10
5.2581666884
 20
5.0787029893
 30
0.0
 10
5.2537288854
 20
5.0783273228
 30
0.0
 10
5.2506929937
 20
5.0780537548
 30
0.0
 10
5.2478548831
 20
5.0777802875
 30
0.0
 10
5.2452160409
 20
5.0775069322
 30
0.0
 10
5.2427779501
 20
5.0772337203
 30
0.0
 10
5.2405420865
 20
5.0769606912
 30
0.0
 10
5.2385099165
 20
5.0766878985
 30
0.0
 10
5.2366827582
 20
5.0764154066
 30
0.0
 10
5.235061655
 20
5.0761432504
 30
0.0
 10
5.2338413093
 20
5.0759090331
 30
0.0
 10
5.2329693607
 20
5.0757196311
 30
0.0
 10
5.2323921602
 20
5.0755830063
 30
0.0
 10
5.2318669436
 20
5.0754464683
 30
0.0
 10
5.2313937545
 20
5.0753100259
 30
0.0
 10
5.2309726248
 20
5.0751737051
 30
0.0
 10
5.2306035333
 20
5.0750375235
 30
0.0
 10
5.2302864798
 20
5.074901514
 30
0.0
 10
5.2300959076
 20
5.0748039015
 30
0.0
 10
5.2300101673
 20
5.0747543665
 30
0.0
 11
5.9521542423
 21
5.109850472
 31
0.0
 11
5.9521477727
 21
5.1097819249
 31
0.0
 11
5.9521281566
 21
5.1097133778
 31
0.0
 11
5.9520953891
 21
5.1096448307
 31
0.0
 11
5.9520494655
 21
5.1095762836
 31
0.0
 11
5.9519181328
 21
5.1094391895
 31
0.0
 11
5.951734169
 21
5.1093020953
 31
0.0
 11
5.9514976472
 21
5.1091650012
 31
0.0
 11
5.9512086446
 21
5.109027907
 31
0.0
 11
5.9508672386
 21
5.1088908128
 31
0.0
 11
5.9504735064
 21
5.1087537187
 31
0.0
 11
5.9500275254
 21
5.1086166245
 31
0.0
 11
5.9495293729
 21
5.1084795303
 31
0.0
 11
5.9489791261
 21
5.1083424362
 31
0.0
 11
5.9483768625
 21
5.108205342
 31
0.0
 11
5.9470165936
 21
5.1079311537
 31
0.0
 11
5.9454491846
 21
5.1076569654
 31
0.0
 11
5.9436752548
 21
5.107382777
 31
0.0
 11
5.9416956641
 21
5.1071085887
 31
0.0
 11
5.9395118458
 21
5.1068344004
 31
0.0
 11
5.937125317
 21
5.1065602121
 31
0.0
 11
5.9345375949
 21
5.1062860238
 31
0.0
 11
5.9317501966
 21
5.1060118354
 31
0.0
 11
5.9287646392
 21
5.1057376471
 31
0.0
 11
5.9255824398
 21
5.1054634588
 31
0.0
 11
5.9186348267
 21
5.1049150821
 31
0.0
 11
5.9109244817
 21
5.1043667055
 31
0.0
 11
5.9024703276
 21
5.1038183288
 31
0.0
 11
5.8932912927
 21
5.1032699522
 31
0.0
 11
5.8834075585
 21
5.1027215755
 31
0.0
 11
5.872843392
 21
5.1021731989
 31
0.0
 11
5.8616238918
 21
5.1016248223
 31
0.0
 11
5.8497741829
 21
5.1010764456
 31
0.0
 11
5.8373212816
 21
5.100528069
 31
0.0
 11
5.8242953391
 21
5.0999796923
 31
0.0
 11
5.7966462329
 21
5.098882939
 31
0.0
 11
5.7670820676
 21
5.0977861857
 31
0.0
 11
5.7358792421
 21
5.0966894324
 31
0.0
 11
5.7033269136
 21
5.0955926791
 31
0.0
 11
5.6697284966
 21
5.0944959258
 31
0.0
 11
5.63539601
 21
5.0933991725
 31
0.0
 11
5.600649068
 21
5.0923024193
 31
0.0
 11
5.56581048
 21
5.091205666
 31
0.0
 11
5.5312047015
 21
5.0901089127
 31
0.0
 11
5.497152878
 21
5.0890121594
 31
0.0
 11
5.4639726735
 21
5.0879154061
 31
0.0
 11
5.4319713476
 21
5.0868186528
 31
0.0
 11
5.4014481478
 21
5.0857218995
 31
0.0
 11
5.3726850448
 21
5.0846251462
 31
0.0
 11
5.3590489397
 21
5.0840767695
 31
0.0
 11
5.3459515807
 21
5.0835283929
 31
0.0
 11
5.3334232914
 21
5.0829800163
 31
0.0
 11
5.3214943034
 21
5.0824316396
 31
0.0
 11
5.3101923798
 21
5.081883263
 31
0.0
 11
5.2995426084
 21
5.0813348863
 31
0.0
 11
5.2895699431
 21
5.0807865097
 31
0.0
 11
5.2802989698
 21
5.080238133
 31
0.0
 11
5.2717505962
 21
5.0796897564
 31
0.0
 11
5.2639436129
 21
5.0791413797
 31
0.0
 11
5.2568967855
 21
5.0785930031
 31
0.0
 11
5.2536641915
 21
5.0783188148
 31
0.0
 11
5.2506279091
 21
5.0780446264
 31
0.0
 11
5.2477894337
 21
5.0777704381
 31
0.0
 11
5.2451502604
 21
5.0774962498
 31
0.0
 11
5.2427118843
 21
5.0772220615
 31
0.0
 11
5.2404758007
 21
5.0769478731
 31
0.0
 11
5.2384435046
 21
5.0766736848
 31
0.0
 11
5.236616483
 21
5.0763994965
 31
0.0
 11
5.2349958629
 21
5.0761253082
 31
0.0
 11
5.2335822756
 21
5.0758511198
 31
0.0
 11
5.2329533054
 21
5.0757140257
 31
0.0
 11
5.2323763168
 21
5.0755769315
 31
0.0
 11
5.2318513842
 21
5.0754398374
 31
0.0
 11
5.2313785821
 21
5.0753027432
 31
0.0
 11
5.2309579849
 21
5.075165649
 31
0.0
 11
5.230589667
 21
5.0750285549
 31
0.0
 11
5.2302737031
 21
5.0748914607
 31
0.0
 11
5.2300101673
 21
5.0747543665
 31
0.0
  0
SPLINE
  5
2D4
100
AcDbEntity
  8
0
100
AcDbSpline
 62
6
  6
CONTINUOUS
 70
0
 71
3
 72
40
 73
36
 74
34
 42
0.0000001
 43
0.0000001
 44
0.0000000001
 12
-0.2425552224
 22
-0.1407980527
 32
0.0
 13
-0.2803360926
 23
-0.0082947434
 33
0.0
 40
0.0
 40
0.0
 40
0.0
 40
0.0
 40
0.0008581312
 40
0.0018345715
 40
0.002932264
 40
0.0041532296
 40
0.0054988935
 40
0.0069702807
 40
0.0102928716
 40
0.0141250328
 40
0.0184677815
 40
0.0233205699
 40
0.0286821998
 40
0.034551054
 40
0.0409252331
 40
0.0478026396
 40
0.0551810339
 40
0.0714305385
 40
0.0896463718
 40
0.1097961226
 40
0.1318468234
 40
0.1557649295
 40
0.1815113654
 40
0.209041751
 40
0.2383113725
 40
0.2692753921
 40
0.3018859128
 40
0.3718326164
 40
0.4477192478
 40
0.5290786704
 40
0.6154101018
 40
0.7062076558
 40
0.8009600183
 40
0.8991107603
 40
1.0
 40
1.0
 40
1.0
 40
1.0
 10
5.9645559987
 20
5.0461634257
 30
0.0
 10
5.9644866173
 20
5.0461231513
 30
0.0
 10
5.9643345218
 20
5.0460435047
 30
0.0
 10
5.9640841659
 20
5.0459315635
 30
0.0
 10
5.963797083
 20
5.0458195883
 30
0.0
 10
5.9634732716
 20
5.0457075957
 30
0.0
 10
5.963112718
 20
5.0455955831
 30
0.0
 10
5.9625602203
 20
5.0454398535
 30
0.0
 10
5.9617767809
 20
5.0452477377
 30
0.0
 10
5.9607250739
 20
5.0450252707
 30
0.0
 10
5.9595275736
 20
5.0448026808
 30
0.0
 10
5.958184951
 20
5.0445800146
 30
0.0
 10
5.9566979115
 20
5.0443573612
 30
0.0
 10
5.9550672016
 20
5.044134766
 30
0.0
 10
5.9532935749
 20
5.0439122693
 30
0.0
 10
5.9513777954
 20
5.0436898868
 30
0.0
 10
5.9485424366
 20
5.0433836228
 30
0.0
 10
5.9446489015
 20
5.0430047663
 30
0.0
 10
5.9395621628
 20
5.0425636811
 30
0.0
 10
5.9339312358
 20
5.04212296
 30
0.0
 10
5.9277657197
 20
5.0416826942
 30
0.0
 10
5.9210757306
 20
5.0412430449
 30
0.0
 10
5.913872407
 20
5.0408040547
 30
0.0
 10
5.9061678899
 20
5.0403657209
 30
0.0
 10
5.897974825
 20
5.0399280866
 30
0.0
 10
5.8893061628
 20
5.0394911865
 30
0.0
 10
5.8768379619
 20
5.0388956937
 30
0.0
 10
5.860172164
 20
5.0381583427
 30
0.0
 10
5.8389502706
 20
5.0372953315
 30
0.0
 10
5.8161953558
 20
5.0364349829
 30
0.0
 10
5.7920454489
 20
5.0355773307
 30
0.0
 10
5.7666426458
 20
5.0347224922
 30
0.0
 10
5.7401342159
 20
5.0338703899
 30
0.0
 10
5.7126817899
 20
5.0330213351
 30
0.0
 10
5.6940826306
 20
5.032464059
 30
0.0
 10
5.6846549988
 20
5.0321851089
 30
0.0
 11
5.9645559987
 21
5.0461634257
 31
0.0
 11
5.964343337
 21
5.0460507437
 31
0.0
 11
5.9640937164
 21
5.04593812
 31
0.0
 11
5.9638071764
 21
5.0458255544
 31
0.0
 11
5.963483756
 21
5.0457130468
 31
0.0
 11
5.9631234946
 21
5.0456005972
 31
0.0
 11
5.9627264313
 21
5.0454882055
 31
0.0
 11
5.9618220562
 21
5.0452635954
 31
0.0
 11
5.9607709759
 21
5.0450392159
 31
0.0
 11
5.9595738174
 21
5.0448150663
 31
0.0
 11
5.9582313569
 21
5.0445911459
 31
0.0
 11
5.956744372
 21
5.044367454
 31
0.0
 11
5.9551136401
 21
5.0441439899
 31
0.0
 11
5.9533399386
 21
5.0439207528
 31
0.0
 11
5.9514240452
 21
5.0436977421
 31
0.0
 11
5.9493667372
 21
5.043474957
 31
0.0
 11
5.9448311889
 21
5.0430300609
 31
0.0
 11
5.939741729
 21
5.0425860591
 31
0.0
 11
5.9341079537
 21
5.042142946
 31
0.0
 11
5.9279394728
 21
5.0417007163
 31
0.0
 11
5.9212459649
 21
5.0412593645
 31
0.0
 11
5.9140385983
 21
5.0408188857
 31
0.0
 11
5.9063299849
 21
5.0403792753
 31
0.0
 11
5.8981327959
 21
5.0399405289
 31
0.0
 11
5.8894597117
 21
5.0395026418
 31
0.0
 11
5.8803242526
 21
5.0390656087
 31
0.0
 11
5.8607264547
 21
5.0381940768
 31
0.0
 11
5.8394610981
 21
5.0373258785
 31
0.0
 11
5.8166595305
 21
5.0364609993
 31
0.0
 11
5.7924624552
 21
5.0355994618
 31
0.0
 11
5.7670119522
 21
5.0347411753
 31
0.0
 11
5.7404515876
 21
5.0338858815
 31
0.0
 11
5.7129375468
 21
5.0330336132
 31
0.0
 11
5.6846549988
 21
5.0321851089
 31
0.0
  0
SPLINE
  5
2D5
100
AcDbEntity
  8
0
100
AcDbSpline
 62
6
  6
CONTINUOUS
 70
0
 71
3
 72
47
 73
43
 74
41
 42
0.0000001
 43
0.0000001
 44
0.0000000001
 12
-0.0003307578
 22
-0.2812703091
 32
0.0
 13
-0.2811474605
 23
-0.0083187506
 33
0.0
 40
0.0
 40
0.0
 40
0.0
 40
0.0
 40
0.0002098718
 40
0.0004257528
 40
0.000895822
 40
0.0014460735
 40
0.0020982387
 40
0.0028653494
 40
0.0037553269
 40
0.004773162
 40
0.0059221222
 40
0.0072044208
 40
0.0086215991
 40
0.0101747541
 40
0.0118646781
 40
0.0156568432
 40
0.0200004883
 40
0.0248953652
 40
0.0303402918
 40
0.0363335418
 40
0.0428730307
 40
0.0499564283
 40
0.0575812311
 40
0.0657447916
 40
0.0744436679
 40
0.0934294868
 40
0.1145023092
 40
0.1376250316
 40
0.1627595672
 40
0.1898605359
 40
0.2188778433
 40
0.2497611853
 40
0.2824597947
 40
0.3169174118
 40
0.3530735666
 40
0.430238726
 40
0.5134448658
 40
0.6021329747
 40
0.695735482
 40
0.7936781204
 40
0.8953450268
 40
1.0
 40
1.0
 40
1.0
 40
1.0
 10
5.9650645678
 20
5.037823705
 30
0.0
 10
5.9650645447
 20
5.0378040281
 30
0.0
 10
5.965061021
 20
5.0377640347
 30
0.0
 10
5.9650396715
 20
5.0376824514
 30
0.0
 10
5.964983914
 20
5.0375789928
 30
0.0
 10
5.9648791987
 20
5.0374611019
 30
0.0
 10
5.9647355315
 20
5.0373441791
 30
0.0
 10
5.9645526456
 20
5.0372276678
 30
0.0
 10
5.964330278
 20
5.0371112149
 30
0.0
 10
5.9640682526
 20
5.0369947514
 30
0.0
 10
5.9637664788
 20
5.0368782511
 30
0.0
 10
5.963424917
 20
5.0367617216
 30
0.0
 10
5.9630435588
 20
5.036645176
 30
0.0
 10
5.9626224163
 20
5.0365286193
 30
0.0
 10
5.9619828901
 20
5.0363669414
 30
0.0
 10
5.9610833594
 20
5.036167296
 30
0.0
 10
5.9598836767
 20
5.0359357615
 30
0.0
 10
5.95852654
 20
5.0357041298
 30
0.0
 10
5.9570127705
 20
5.0354724611
 30
0.0
 10
5.9553431864
 20
5.0352408344
 30
0.0
 10
5.9535186381
 20
5.0350092933
 30
0.0
 10
5.9515399824
 20
5.0347778722
 30
0.0
 10
5.9494080852
 20
5.0345465969
 30
0.0
 10
5.9471238833
 20
5.0343154877
 30
0.0
 10
5.94377785
 20
5.0339982617
 30
0.0
 10
5.9392233365
 20
5.0336053068
 30
0.0
 10
5.9333173715
 20
5.0331467819
 30
0.0
 10
5.9268333143
 20
5.0326887711
 30
0.0
 10
5.9197827523
 20
5.0322314128
 30
0.0
 10
5.9121784212
 20
5.0317747459
 30
0.0
 10
5.9040341597
 20
5.0313187833
 30
0.0
 10
5.8953642736
 20
5.0308635704
 30
0.0
 10
5.8861836201
 20
5.0304091795
 30
0.0
 10
5.8765079943
 20
5.0299556011
 30
0.0
 10
5.862666452
 20
5.0293384317
 30
0.0
 10
5.8442564776
 20
5.0285740416
 30
0.0
 10
5.8209226149
 20
5.0276783043
 30
0.0
 10
5.7960464774
 20
5.0267854188
 30
0.0
 10
5.7697877547
 20
5.0258955482
 30
0.0
 10
5.7423114229
 20
5.0250086063
 30
0.0
 10
5.7137982289
 20
5.0241249319
 30
0.0
 10
5.6944628255
 20
5.0235453084
 30
0.0
 10
5.6846549988
 20
5.0232551089
 30
0.0
 11
5.9650645678
 21
5.037823705
 31
0.0
 11
5.9650594614
 21
5.0377648956
 31
0.0
 11
5.9650442842
 21
5.037706102
 31
0.0
 11
5.9649837392
 21
5.0375885624
 31
0.0
 11
5.9648829773
 21
5.0374710863
 31
0.0
 11
5.9647420426
 21
5.0373536735
 31
0.0
 11
5.9645609794
 21
5.037236324
 31
0.0
 11
5.9643398319
 21
5.0371190376
 31
0.0
 11
5.9640786444
 21
5.0370018143
 31
0.0
 11
5.9637774611
 21
5.0368846539
 31
0.0
 11
5.9634363262
 21
5.0367675564
 31
0.0
 11
5.9630552839
 21
5.0366505217
 31
0.0
 11
5.9626343786
 21
5.0365335497
 31
0.0
 11
5.9621736544
 21
5.0364166403
 31
0.0
 11
5.9611329318
 21
5.036183009
 31
0.0
 11
5.9599336905
 21
5.035949627
 31
0.0
 11
5.958576788
 21
5.0357164935
 31
0.0
 11
5.9570631011
 21
5.0354836078
 31
0.0
 11
5.9553935065
 21
5.035250969
 31
0.0
 11
5.953568881
 21
5.0350185763
 31
0.0
 11
5.9515901012
 21
5.034786429
 31
0.0
 11
5.949458044
 21
5.0345545262
 31
0.0
 11
5.9471735911
 21
5.0343228671
 31
0.0
 11
5.9447378222
 21
5.0340914509
 31
0.0
 11
5.939417703
 21
5.0336293442
 31
0.0
 11
5.9335085057
 21
5.0331682002
 31
0.0
 11
5.9270210672
 21
5.0327080125
 31
0.0
 11
5.9199663954
 21
5.0322487752
 31
0.0
 11
5.9123574815
 21
5.0317904827
 31
0.0
 11
5.9042085931
 21
5.03133313
 31
0.0
 11
5.895534019
 21
5.030876712
 31
0.0
 11
5.8863481506
 21
5.0304212234
 31
0.0
 11
5.8766669051
 21
5.0299666575
 31
0.0
 11
5.8665073686
 21
5.0295130064
 31
0.0
 11
5.8448219443
 21
5.0286084169
 31
0.0
 11
5.8214358613
 21
5.0277074208
 31
0.0
 11
5.7965066586
 21
5.0268100415
 31
0.0
 11
5.7701942113
 21
5.0259162163
 31
0.0
 11
5.7426602341
 21
5.0250256686
 31
0.0
 11
5.7140781014
 21
5.0241383684
 31
0.0
 11
5.6846549988
 21
5.0232551089
 31
0.0
  0
SPLINE
  5
2D6
100
AcDbEntity
  8
0
100
AcDbSpline
 62
9
  6
CONTINUOUS
 70
0
 71
3
 72
44
 73
40
 74
38
 42
0.0000001
 43
0.0000001
 44
0.0000000001
 12
0.5813592129
 22
0.0000563395
 32
0.0
 13
0.0894427118
 23
0.5744375849
 33
0.0
 40
0.0
 40
0.0
 40
0.0
 40
0.0
 40
0.0368205844
 40
0.0552144685
 40
0.0735722435
 40
0.091876239
 40
0.110114211
 40
0.1282779754
 40
0.1463589063
 40
0.164347875
 40
0.1822358809
 40
0.2176858056
 40
0.2526750112
 40
0.2699847994
 40
0.2871666525
 40
0.3211470831
 40
0.3546194829
 40
0.3875805773
 40
0.4200497566
 40
0.4520471532
 40
0.4835861435
 40
0.5146913686
 40
0.5453922298
 40
0.5757119086
 40
0.6056706012
 40
0.6352960539
 40
0.6646149144
 40
0.6936496337
 40
0.7224193988
 40
0.7509464862
 40
0.7792535882
 40
0.8073608477
 40
0.8352858612
 40
0.8630450605
 40
0.8906576308
 40
0.918142461
 40
0.9455171529
 40
0.9727980233
 40
1.0
 40
1.0
 40
1.0
 40
1.0
 10
5.5908145793
 20
4.0805758317
 30
0.0
 10
5.5979499079
 20
4.0805765232
 30
0.0
 10
5.6086530243
 20
4.080887852
 30
0.0
 10
5.6228746194
 20
4.0819141172
 30
0.0
 10
5.6334912433
 20
4.0829863942
 30
0.0
 10
5.6440425054
 20
4.0843596812
 30
0.0
 10
5.6545129805
 20
4.0860287351
 30
0.0
 10
5.6648894939
 20
4.0879854933
 30
0.0
 10
5.6751597555
 20
4.0902226879
 30
0.0
 10
5.6853117546
 20
4.0927328378
 30
0.0
 10
5.6986337487
 20
4.096423139
 30
0.0
 10
5.7149357894
 20
4.1016701188
 30
0.0
 10
5.7308271933
 20
4.1077452456
 30
0.0
 10
5.7432040802
 20
4.113050014
 30
0.0
 10
5.7552603193
 20
4.1185949834
 30
0.0
 10
5.7698924796
 20
4.1260211832
 30
0.0
 10
5.7867862497
 20
4.1356933943
 30
0.0
 10
5.8029377185
 20
4.1460256857
 30
0.0
 10
5.8183412718
 20
4.1569553537
 30
0.0
 10
5.8329992071
 20
4.1684236156
 30
0.0
 10
5.8469188693
 20
4.1803749922
 30
0.0
 10
5.8601087123
 20
4.1927625866
 30
0.0
 10
5.872580488
 20
4.2055442945
 30
0.0
 10
5.8843484231
 20
4.2186795255
 30
0.0
 10
5.8954286629
 20
4.2321305612
 30
0.0
 10
5.9058333122
 20
4.2458679592
 30
0.0
 10
5.9155765482
 20
4.2598642225
 30
0.0
 10
5.9246728409
 20
4.2740926189
 30
0.0
 10
5.9331381559
 20
4.2885274044
 30
0.0
 10
5.9409836519
 20
4.3031482616
 30
0.0
 10
5.9482200342
 20
4.3179370248
 30
0.0
 10
5.9548586598
 20
4.3328758536
 30
0.0
 10
5.9609109523
 20
4.3479471758
 30
0.0
 10
5.966388531
 20
4.3631347779
 30
0.0
 10
5.9712974279
 20
4.3784259879
 30
0.0
 10
5.9756442516
 20
4.3938088678
 30
0.0
 10
5.9794356618
 20
4.4092717808
 30
0.0
 10
5.9826781994
 20
4.4248027666
 30
0.0
 10
5.9844809661
 20
4.4352082189
 30
0.0
 10
5.9852919723
 20
4.4404168315
 30
0.0
 11
5.5908145793
 21
4.0805758317
 31
0.0
 11
5.6122115852
 21
4.0811958117
 31
0.0
 11
5.6228773029
 21
4.0819655038
 31
0.0
 11
5.6334957038
 21
4.0830383508
 31
0.0
 11
5.6440479041
 21
4.0844117158
 31
0.0
 11
5.6545185852
 21
4.086080393
 31
0.0
 11
5.6648953963
 21
4.088037038
 31
0.0
 11
5.6751660771
 21
4.0902742415
 31
0.0
 11
5.6853183674
 21
4.0927845939
 31
0.0
 11
5.6953403883
 21
4.0955605126
 31
0.0
 11
5.7149590297
 21
4.1018728478
 31
0.0
 11
5.7339594963
 21
4.1091358113
 31
0.0
 11
5.7432089874
 21
4.113100027
 31
0.0
 11
5.752284103
 21
4.1172736318
 31
0.0
 11
5.7699008007
 21
4.1262126209
 31
0.0
 11
5.7867890501
 21
4.1358800253
 31
0.0
 11
5.8029316379
 21
4.1462051475
 31
0.0
 11
5.8183271532
 21
4.1571271973
 31
0.0
 11
5.8329789507
 21
4.1685883728
 31
0.0
 11
5.8468909568
 21
4.1805318233
 31
0.0
 11
5.8600731093
 21
4.1929107137
 31
0.0
 11
5.8725389467
 21
4.2056842082
 31
0.0
 11
5.8843020563
 21
4.2188115518
 31
0.0
 11
5.8953761647
 21
4.2322543091
 31
0.0
 11
5.9057755559
 21
4.2459833084
 31
0.0
 11
5.9155146528
 21
4.2599716911
 31
0.0
 11
5.9246078784
 21
4.2741925982
 31
0.0
 11
5.9330693963
 21
4.2886199106
 31
0.0
 11
5.9409113691
 21
4.3032332131
 31
0.0
 11
5.9481450286
 21
4.3180147447
 31
0.0
 11
5.9547816013
 21
4.3329467587
 31
0.0
 11
5.9608323139
 21
4.3480115089
 31
0.0
 11
5.9663075209
 21
4.3631923947
 31
0.0
 11
5.9712145061
 21
4.3784768508
 31
0.0
 11
5.9755598779
 21
4.3938531995
 31
0.0
 11
5.979350245
 21
4.4093097633
 31
0.0
 11
5.9825922156
 21
4.4248348644
 31
0.0
 11
5.9852919723
 21
4.4404168315
 31
0.0
  0
SPLINE
  5
2D7
100
AcDbEntity
  8
0
100
AcDbSpline
 62
9
  6
CONTINUOUS
 70
0
 71
3
 72
8
 73
4
 74
2
 42
0.0000001
 43
0.0000001
 44
0.0000000001
 12
0.0000106607
 22
0.0000685009
 32
0.0
 13
0.0000106607
 23
0.0000685009
 33
0.0
 40
0.0
 40
0.0
 40
0.0
 40
0.0
 40
1.0
 40
1.0
 40
1.0
 40
1.0
 10
5.9852919723
 20
4.4404168315
 30
0.0
 10
5.9852955259
 20
4.4404396652
 30
0.0
 10
5.9852990794
 20
4.4404624988
 30
0.0
 10
5.985302633
 20
4.4404853325
 30
0.0
 11
5.9852919723
 21
4.4404168315
 31
0.0
 11
5.985302633
 21
4.4404853325
 31
0.0
  0
LINE
  5
2D8
100
AcDbEntity
  8
0
100
AcDbLine
 62
9
  6
CONTINUOUS
 10
5.985302633
 20
4.4404853325
 11
5.9853197186
 21
4.4405952588
  0
LINE
  5
2D9
100
AcDbEntity
  8
0
100
AcDbLine
 62
9
  6
CONTINUOUS
 10
5.9853197186
 20
4.4405952588
 11
5.9853424812
 21
4.4407419808
  0
LINE
  5
2DA
100
AcDbEntity
  8
0
100
AcDbLine
 62
9
  6
CONTINUOUS
 10
5.9853424812
 20
4.4407419808
 11
5.9854250401
 21
4.4412767655
  0
SPLINE
  5
2DB
100
AcDbEntity
  8
0
100
AcDbSpline
 62
6
  6
CONTINUOUS
 70
0
 71
3
 72
24
 73
20
 74
18
 42
0.0000001
 43
0.0000001
 44
0.0000000001
 12
-0.0000189005
 22
0.1228095411
 32
0.0
 13
0.1051532559
 23
0.0634427027
 33
0.0
 40
0.0
 40
0.0
 40
0.0
 40
0.0
 40
0.063416516
 40
0.0950547758
 40
0.1266446803
 40
0.1896754137
 40
0.2525258235
 40
0.3152067173
 40
0.3777327455
 40
0.4401209904
 40
0.5023920855
 40
0.5645701911
 40
0.6266811067
 40
0.6887566497
 40
0.7508292982
 40
0.8129401022
 40
0.875142926
 40
0.9374853777
 40
1.0
 40
1.0
 40
1.0
 40
1.0
 10
5.4508146152
 20
4.3033258944
 30
0.0
 10
5.4508142157
 20
4.3059219454
 30
0.0
 10
5.4509343621
 20
4.3098146264
 30
0.0
 10
5.4513375883
 20
4.3149839284
 30
0.0
 10
5.4519010888
 20
4.3201224832
 30
0.0
 10
5.4529067379
 20
4.3264946021
 30
0.0
 10
5.4545935019
 20
4.33403238
 30
0.0
 10
5.4567535087
 20
4.3414271235
 30
0.0
 10
5.4593798743
 20
4.3486492447
 30
0.0
 10
5.4624619567
 20
4.3556707197
 30
0.0
 10
5.4659895606
 20
4.3624632573
 30
0.0
 10
5.4699474538
 20
4.3690011657
 30
0.0
 10
5.4743215311
 20
4.3752585361
 30
0.0
 10
5.4790934478
 20
4.3812124741
 30
0.0
 10
5.4842440995
 20
4.3868419621
 30
0.0
 10
5.4897541684
 20
4.392127551
 30
0.0
 10
5.4956016253
 20
4.3970544278
 30
0.0
 10
5.5017646537
 20
4.4016074967
 30
0.0
 10
5.5060610234
 20
4.4043833443
 30
0.0
 10
5.5082522288
 20
4.4057053765
 30
0.0
 11
5.4508146152
 21
4.3033258944
 31
0.0
 11
5.4510557596
 21
4.3111103135
 31
0.0
 11
5.4513579926
 21
4.3149840213
 31
0.0
 11
5.4517810497
 21
4.3188404272
 31
0.0
 11
5.4529886578
 21
4.3264864254
 31
0.0
 11
5.4546749615
 21
4.3340185984
 31
0.0
 11
5.4568341837
 21
4.3414073782
 31
0.0
 11
5.4594589587
 21
4.3486236388
 31
0.0
 11
5.4625392966
 21
4.3556390361
 31
0.0
 11
5.4660640567
 21
4.3624257944
 31
0.0
 11
5.4700190364
 21
4.36895784
 31
0.0
 11
5.4743891258
 21
4.3752097079
 31
0.0
 11
5.4791566355
 21
4.3811585003
 31
0.0
 11
5.4843022889
 21
4.3867829213
 31
0.0
 11
5.4898062143
 21
4.392064032
 31
0.0
 11
5.4956475596
 21
4.3969868907
 31
0.0
 11
5.5018045369
 21
4.4015376888
 31
0.0
 11
5.5082522288
 21
4.4057053765
 31
0.0
  0
LINE
  5
2DC
100
AcDbEntity
  8
0
100
AcDbLine
 62
6
  6
CONTINUOUS
 10
5.4673416414
 20
5.4768258317
 11
5.5908145793
 21
5.4803933317
  0
SPLINE
  5
2DD
100
AcDbEntity
  8
0
100
AcDbSpline
 62
6
  6
CONTINUOUS
 70
0
 71
3
 72
42
 73
38
 74
36
 42
0.0000001
 43
0.0000001
 44
0.0000000001
 12
-0.3999457873
 22
-0.0113668968
 32
0.0
 13
-0.3464731528
 23
-0.200105456
 33
0.0
 40
0.0
 40
0.0
 40
0.0
 40
0.0
 40
0.0949362975
 40
0.1890845928
 40
0.2814924739
 40
0.3713483767
 40
0.4578607494
 40
0.5402393035
 40
0.6177377483
 40
0.6896588934
 40
0.7233248117
 40
0.7553591144
 40
0.7856863193
 40
0.8142393923
 40
0.8409568267
 40
0.8657772985
 40
0.8886422982
 40
0.9095042384
 40
0.9283184639
 40
0.9369438525
 40
0.9450408883
 40
0.9526055619
 40
0.9596346597
 40
0.9661250595
 40
0.9720737528
 40
0.9774778926
 40
0.982334868
 40
0.9866424497
 40
0.990399906
 40
0.992072796
 40
0.9936088416
 40
0.9950085182
 40
0.9962725051
 40
0.9974017829
 40
0.998397794
 40
0.9992627214
 40
1.0
 40
1.0
 40
1.0
 40
1.0
 10
5.5908145793
 20
5.4982526089
 30
0.0
 10
5.5781581218
 20
5.4978928985
 30
0.0
 10
5.5529502597
 20
5.4971764646
 30
0.0
 10
5.5154232904
 20
5.4961002798
 30
0.0
 10
5.4785741686
 20
5.495024166
 30
0.0
 10
5.4427438738
 20
5.4939484716
 30
0.0
 10
5.4082517896
 20
5.4928732073
 30
0.0
 10
5.3754086226
 20
5.4917985171
 30
0.0
 10
5.3445125462
 20
5.4907246427
 30
0.0
 10
5.3201116244
 20
5.489811744
 30
0.0
 10
5.3017719179
 20
5.4890762831
 30
0.0
 10
5.288976173
 20
5.4885370698
 30
0.0
 10
5.2768629548
 20
5.4879979761
 30
0.0
 10
5.2654595763
 20
5.4874590521
 30
0.0
 10
5.2547914828
 20
5.4869204083
 30
0.0
 10
5.2448830181
 20
5.4863820988
 30
0.0
 10
5.2357567155
 20
5.4858440985
 30
0.0
 10
5.227432945
 20
5.4853065952
 30
0.0
 10
5.2210073491
 20
5.4848470041
 30
0.0
 10
5.2162823392
 20
5.48447658
 30
0.0
 10
5.2130544176
 20
5.4842069346
 30
0.0
 10
5.2100401742
 20
5.4839373788
 30
0.0
 10
5.2072411108
 20
5.4836679381
 30
0.0
 10
5.2046586267
 20
5.4833986434
 30
0.0
 10
5.2022941127
 20
5.4831295376
 30
0.0
 10
5.2001489539
 20
5.4828606729
 30
0.0
 10
5.1982245009
 20
5.4825921527
 30
0.0
 10
5.1965219907
 20
5.4823240195
 30
0.0
 10
5.1952437809
 20
5.4820930174
 30
0.0
 10
5.1943336384
 20
5.4819060764
 30
0.0
 10
5.1937338793
 20
5.4817714319
 30
0.0
 10
5.1931901141
 20
5.4816368854
 30
0.0
 10
5.1927023682
 20
5.4815024493
 30
0.0
 10
5.1922706535
 20
5.4813681561
 30
0.0
 10
5.1918949152
 20
5.4812340318
 30
0.0
 10
5.1915751228
 20
5.48110012
 30
0.0
 10
5.1913841722
 20
5.4810034686
 30
0.0
 10
5.1912990231
 20
5.4809542908
 30
0.0
 11
5.5908145793
 21
5.4982526089
 31
0.0
 11
5.5528452533
 21
5.4971718497
 31
0.0
 11
5.5151913643
 21
5.4960902995
 31
0.0
 11
5.4782341094
 21
5.495009122
 31
0.0
 11
5.4422983651
 21
5.4939280645
 31
0.0
 11
5.4077010238
 21
5.4928468955
 31
0.0
 11
5.3747585014
 21
5.4917657264
 31
0.0
 11
5.3437696623
 21
5.4906845996
 31
0.0
 11
5.3150138048
 21
5.4896034629
 31
0.0
 11
5.3015546772
 21
5.4890628867
 31
0.0
 11
5.2887489242
 21
5.4885223093
 31
0.0
 11
5.2766268359
 21
5.4879817337
 31
0.0
 11
5.2652153399
 21
5.4874411611
 31
0.0
 11
5.2545391764
 21
5.4869005914
 31
0.0
 11
5.2446230481
 21
5.4863600246
 31
0.0
 11
5.2354905796
 21
5.4858194603
 31
0.0
 11
5.2271610875
 21
5.4852788975
 31
0.0
 11
5.2196528127
 21
5.4847383348
 31
0.0
 11
5.2162123321
 21
5.4844680531
 31
0.0
 11
5.2129839435
 21
5.484197771
 31
0.0
 11
5.2099693548
 21
5.4839274883
 31
0.0
 11
5.2071699794
 21
5.4836572046
 31
0.0
 11
5.2045872272
 21
5.48338692
 31
0.0
 11
5.2022225083
 21
5.4831166341
 31
0.0
 11
5.2000772326
 21
5.4828463468
 31
0.0
 11
5.19815281
 21
5.4825760579
 31
0.0
 11
5.1964506416
 21
5.4823057671
 31
0.0
 11
5.1949717534
 21
5.4820354745
 31
0.0
 11
5.1943162038
 21
5.4819003276
 31
0.0
 11
5.1937166643
 21
5.4817651803
 31
0.0
 11
5.1931731955
 21
5.4816300327
 31
0.0
 11
5.1926858576
 21
5.4814948848
 31
0.0
 11
5.192254711
 21
5.4813597366
 31
0.0
 11
5.1918798161
 21
5.4812245882
 31
0.0
 11
5.1915612334
 21
5.4810894396
 31
0.0
 11
5.1912990231
 21
5.4809542908
 31
0.0
  0
LINE
  5
2DE
100
AcDbEntity
  8
0
100
AcDbLine
 62
6
  6
CONTINUOUS
 10
5.5908145793
 20
5.4268226089
 11
5.4673416414
 21
5.4232551089
  0
SPLINE
  5
2DF
100
AcDbEntity
  8
0
100
AcDbSpline
 62
6
  6
CONTINUOUS
 70
0
 71
3
 72
40
 73
36
 74
34
 42
0.0000001
 43
0.0000001
 44
0.0000000001
 12
-0.276459759
 22
-0.0082606985
 32
0.0
 13
-0.2395117867
 23
-0.1383197077
 33
0.0
 40
0.0
 40
0.0
 40
0.0
 40
0.0
 40
0.1024621167
 40
0.2018918913
 40
0.2976180435
 40
0.3890785608
 40
0.475780724
 40
0.5572444317
 40
0.6330066617
 40
0.702621423
 40
0.7350025091
 40
0.7657046546
 40
0.7946819098
 40
0.8218921685
 40
0.8473004534
 40
0.8708726724
 40
0.8925748921
 40
0.9123737944
 40
0.930243047
 40
0.9461623801
 40
0.9533847899
 40
0.9601125605
 40
0.9663434802
 40
0.9720754761
 40
0.9773068186
 40
0.9820371007
 40
0.9862667586
 40
0.9899968402
 40
0.9932293796
 40
0.9946602442
 40
0.995968353
 40
0.9971546917
 40
0.9982206315
 40
0.9991681204
 40
1.0
 40
1.0
 40
1.0
 40
1.0
 10
5.4673416414
 20
5.4232551089
 30
0.0
 10
5.457899424
 20
5.4229729727
 30
0.0
 10
5.4392946287
 20
5.4224103394
 30
0.0
 10
5.4118692429
 20
5.4215551266
 30
0.0
 10
5.3854586504
 20
5.4206999618
 30
0.0
 10
5.3602220974
 20
5.4198452284
 30
0.0
 10
5.3363012355
 20
5.4189909605
 30
0.0
 10
5.3138286253
 20
5.4181371127
 30
0.0
 10
5.2929325631
 20
5.4172839992
 30
0.0
 10
5.2765603377
 20
5.416557248
 30
0.0
 10
5.2643403214
 20
5.41597204
 30
0.0
 10
5.2558636552
 20
5.4155439142
 30
0.0
 10
5.247864345
 20
5.4151159112
 30
0.0
 10
5.2403538334
 20
5.414688004
 30
0.0
 10
5.233342485
 20
5.41426029
 30
0.0
 10
5.2268399419
 20
5.4138328196
 30
0.0
 10
5.2208557341
 20
5.4134056683
 30
0.0
 10
5.2153987308
 20
5.4129788664
 30
0.0
 10
5.2104766352
 20
5.4125524846
 30
0.0
 10
5.2067132616
 20
5.4121869128
 30
0.0
 10
5.2039752849
 20
5.4118918968
 30
0.0
 10
5.2021270184
 20
5.4116779634
 30
0.0
 10
5.2004171318
 20
5.411464138
 30
0.0
 10
5.1988463515
 20
5.4112504372
 30
0.0
 10
5.1974152867
 20
5.4110368744
 30
0.0
 10
5.1961243823
 20
5.4108235025
 30
0.0
 10
5.194973905
 20
5.4106104134
 30
0.0
 10
5.1939640948
 20
5.4103976609
 30
0.0
 10
5.1932121233
 20
5.4102141268
 30
0.0
 10
5.1926819825
 20
5.4100654642
 30
0.0
 10
5.1923361737
 20
5.4099586077
 30
0.0
 10
5.1920257121
 20
5.4098518266
 30
0.0
 10
5.1917505838
 20
5.409745119
 30
0.0
 10
5.1915107859
 20
5.4096385017
 30
0.0
 10
5.1913651352
 20
5.4095626459
 30
0.0
 10
5.1912987202
 20
5.4095242908
 30
0.0
 11
5.4673416414
 21
5.4232551089
 31
0.0
 11
5.4390153298
 21
5.4223973794
 31
0.0
 11
5.4115281324
 21
5.4215389051
 31
0.0
 11
5.3850658102
 21
5.4206805243
 31
0.0
 11
5.3597839312
 21
5.4198224139
 31
0.0
 11
5.335818931
 21
5.4189643352
 31
0.0
 11
5.3133037912
 21
5.4181061622
 31
0.0
 11
5.2923668171
 21
5.4172479456
 31
0.0
 11
5.273131683
 21
5.4163897381
 31
0.0
 11
5.2641859055
 21
5.4159606398
 31
0.0
 11
5.2557050578
 21
5.4155315438
 31
0.0
 11
5.2477019322
 21
5.4151024489
 31
0.0
 11
5.2401882758
 21
5.4146733549
 31
0.0
 11
5.2331738846
 21
5.4142442624
 31
0.0
 11
5.2266683415
 21
5.4138151724
 31
0.0
 11
5.2206812296
 21
5.4133860856
 31
0.0
 11
5.2152220235
 21
5.4129570029
 31
0.0
 11
5.2102983503
 21
5.4125279233
 31
0.0
 11
5.205916288
 21
5.4120988445
 31
0.0
 11
5.2039302453
 21
5.4118843046
 31
0.0
 11
5.2020818665
 21
5.411669764
 31
0.0
 11
5.2003719053
 21
5.4114552224
 31
0.0
 11
5.1988011156
 21
5.4112406795
 31
0.0
 11
5.197370209
 21
5.4110261351
 31
0.0
 11
5.1960796039
 21
5.4108115891
 31
0.0
 11
5.1949295937
 21
5.4105970417
 31
0.0
 11
5.1939204714
 21
5.4103824932
 31
0.0
 11
5.19305253
 21
5.4101679437
 31
0.0
 11
5.1926715936
 21
5.4100606686
 31
0.0
 11
5.1923260623
 21
5.4099533933
 31
0.0
 11
5.1920159727
 21
5.4098461179
 31
0.0
 11
5.1917413614
 21
5.4097388423
 31
0.0
 11
5.191502265
 21
5.4096315666
 31
0.0
 11
5.1912987202
 21
5.4095242908
 31
0.0
  0
SPLINE
  5
2E0
100
AcDbEntity
  8
0
100
AcDbSpline
 62
6
  6
CONTINUOUS
 70
0
 71
3
 72
42
 73
38
 74
36
 42
0.0000001
 43
0.0000001
 44
0.0000000001
 12
-0.3999458559
 22
-0.0113668988
 32
0.0
 13
-0.346466032
 23
-0.2001179221
 33
0.0
 40
0.0
 40
0.0
 40
0.0
 40
0.0
 40
0.0949367506
 40
0.1890866608
 40
0.2814956404
 40
0.3713508569
 40
0.457861111
 40
0.5402378128
 40
0.6177354739
 40
0.6896569026
 40
0.7233233936
 40
0.7553584646
 40
0.7856865314
 40
0.8142404532
 40
0.8409587565
 40
0.865780159
 40
0.8886457565
 40
0.9095077449
 40
0.9283218751
 40
0.9369472891
 40
0.9450443827
 40
0.9526088806
 40
0.9596376124
 40
0.9661275344
 40
0.9720757166
 40
0.9774793902
 40
0.9823360223
 40
0.986643444
 40
0.9904007425
 40
0.9920735339
 40
0.9936094723
 40
0.9950090365
 40
0.9962729093
 40
0.9974020747
 40
0.9983979787
 40
0.9992628076
 40
1.0
 40
1.0
 40
1.0
 40
1.0
 10
5.5908145793
 20
5.3553926089
 30
0.0
 10
5.5781580593
 20
5.3550328967
 30
0.0
 10
5.5529499171
 20
5.3543164548
 30
0.0
 10
5.5154225192
 20
5.353240258
 30
0.0
 10
5.4785731209
 20
5.3521641338
 30
0.0
 10
5.4427430474
 20
5.3510884476
 30
0.0
 10
5.4082515782
 20
5.3500132005
 30
0.0
 10
5.3754090393
 20
5.3489385307
 30
0.0
 10
5.3445132711
 20
5.3478646696
 30
0.0
 10
5.3201123354
 20
5.3469517706
 30
0.0
 10
5.3017724092
 20
5.3462163031
 30
0.0
 10
5.2889763685
 20
5.3456770787
 30
0.0
 10
5.2768628179
 20
5.3451379699
 30
0.0
 10
5.265459094
 20
5.3445990263
 30
0.0
 10
5.2547906461
 20
5.3440603602
 30
0.0
 10
5.2448818604
 20
5.3435220341
 30
0.0
 10
5.2357553465
 20
5.3429840176
 30
0.0
 10
5.2274315024
 20
5.3424464921
 30
0.0
 10
5.2210059093
 20
5.341986887
 30
0.0
 10
5.2162809005
 20
5.3416164589
 30
0.0
 10
5.2130529903
 20
5.341346818
 30
0.0
 10
5.2100388112
 20
5.3410772626
 30
0.0
 10
5.2072398837
 20
5.3408078242
 30
0.0
 10
5.2046575804
 20
5.3405385334
 30
0.0
 10
5.2022932607
 20
5.340269433
 30
0.0
 10
5.2001482782
 20
5.3400005753
 30
0.0
 10
5.1982239545
 20
5.3397320617
 30
0.0
 10
5.1965215305
 20
5.3394639465
 30
0.0
 10
5.1952433746
 20
5.339232957
 30
0.0
 10
5.1943332797
 20
5.3390460245
 30
0.0
 10
5.1937335623
 20
5.3389113872
 30
0.0
 10
5.1931898411
 20
5.338776848
 30
0.0
 10
5.1927021399
 20
5.3386424193
 30
0.0
 10
5.1922704694
 20
5.3385081335
 30
0.0
 10
5.1918947734
 20
5.3383740166
 30
0.0
 10
5.1915750201
 20
5.3382401121
 30
0.0
 10
5.1913840944
 20
5.3381434657
 30
0.0
 10
5.191298957
 20
5.3380942906
 30
0.0
 11
5.5908145793
 21
5.3553926089
 31
0.0
 11
5.5528450656
 21
5.3543118444
 31
0.0
 11
5.5151905242
 21
5.3532302752
 31
0.0
 11
5.4782328236
 21
5.3521490834
 31
0.0
 11
5.4422973478
 21
5.3510680341
 31
0.0
 11
5.4077008478
 21
5.3499868903
 31
0.0
 11
5.3747590604
 21
5.3489057454
 31
0.0
 11
5.3437705293
 21
5.3478246313
 31
0.0
 11
5.3150145535
 21
5.3467434916
 31
0.0
 11
5.3015551946
 21
5.3462029076
 31
0.0
 11
5.2887491321
 21
5.3456623183
 31
0.0
 11
5.2766266973
 21
5.3451217267
 31
0.0
 11
5.2652148602
 21
5.344581135
 31
0.0
 11
5.2545383479
 21
5.3440405444
 31
0.0
 11
5.2446218461
 21
5.3434999563
 31
0.0
 11
5.2354891376
 21
5.342959372
 31
0.0
 11
5.2271596258
 21
5.3424187924
 31
0.0
 11
5.2196513888
 21
5.3418782182
 31
0.0
 11
5.2162108977
 21
5.3416079334
 31
0.0
 11
5.2129824853
 21
5.3413376503
 31
0.0
 11
5.2099679666
 21
5.3410673687
 31
0.0
 11
5.2071687375
 21
5.3407970883
 31
0.0
 11
5.2045861766
 21
5.3405268089
 31
0.0
 11
5.2022216623
 21
5.3402565301
 31
0.0
 11
5.2000765731
 21
5.3399862517
 31
0.0
 11
5.1981522874
 21
5.3397159732
 31
0.0
 11
5.1964501816
 21
5.3394456945
 31
0.0
 11
5.1949713548
 21
5.3391754152
 31
0.0
 11
5.194315844
 21
5.3390402753
 31
0.0
 11
5.1937163468
 21
5.3389051353
 31
0.0
 11
5.1931729223
 21
5.338769995
 31
0.0
 11
5.1926856296
 21
5.3386348546
 31
0.0
 11
5.1922545277
 21
5.3384997139
 31
0.0
 11
5.1918796756
 21
5.3383645731
 31
0.0
 11
5.1915611324
 21
5.338229432
 31
0.0
 11
5.191298957
 21
5.3380942906
 31
0.0
  0
SPLINE
  5
2E1
100
AcDbEntity
  8
0
100
AcDbSpline
 62
6
  6
CONTINUOUS
 70
0
 71
3
 72
42
 73
38
 74
36
 42
0.0000001
 43
0.0000001
 44
0.0000000001
 12
-0.3999457967
 22
-0.0113668971
 32
0.0
 13
-0.3464689569
 23
-0.2001127396
 33
0.0
 40
0.0
 40
0.0
 40
0.0
 40
0.0
 40
0.094936838
 40
0.1890875428
 40
0.2814980478
 40
0.3713551838
 40
0.4578675168
 40
0.5402457955
 40
0.6177428744
 40
0.6896623992
 40
0.7233273943
 40
0.7553610738
 40
0.7856881489
 40
0.8142413136
 40
0.8409590459
 40
0.8657800394
 40
0.8886453712
 40
0.9095072085
 40
0.928321259
 40
0.9369466467
 40
0.9450437244
 40
0.9526082561
 40
0.9596370632
 40
0.9661270859
 40
0.9720753783
 40
0.9774791556
 40
0.982335869
 40
0.9866433349
 40
0.9904006556
 40
0.992073455
 40
0.9936094006
 40
0.9950089721
 40
0.9962728531
 40
0.9974020284
 40
0.9983979447
 40
0.999262789
 40
1.0
 40
1.0
 40
1.0
 40
1.0
 10
5.5908145793
 20
5.2839626089
 30
0.0
 10
5.5781580495
 20
5.2836028965
 30
0.0
 10
5.5529497934
 20
5.2828864512
 30
0.0
 10
5.5154220802
 20
5.2818102455
 30
0.0
 10
5.4785721222
 20
5.2807341042
 30
0.0
 10
5.4427413176
 20
5.2796583961
 30
0.0
 10
5.4082491106
 20
5.2785831189
 30
0.0
 10
5.3754061668
 20
5.2775084374
 30
0.0
 10
5.3445105249
 20
5.2764345655
 30
0.0
 10
5.3201101234
 20
5.2755216897
 30
0.0
 10
5.3017708387
 20
5.2747862399
 30
0.0
 10
5.2889753169
 20
5.2742470321
 30
0.0
 10
5.2768621866
 20
5.2737079417
 30
0.0
 10
5.2654587735
 20
5.2731690112
 30
0.0
 10
5.2547905586
 20
5.2726303557
 30
0.0
 10
5.2448819403
 20
5.2720920382
 30
0.0
 10
5.2357555376
 20
5.2715540296
 30
0.0
 10
5.2274317607
 20
5.271016511
 30
0.0
 10
5.2210062026
 20
5.2705569105
 30
0.0
 10
5.2162812106
 20
5.2701864848
 30
0.0
 10
5.213053302
 20
5.269916844
 30
0.0
 10
5.2100391108
 20
5.2696472891
 30
0.0
 10
5.2072401556
 20
5.2693778506
 30
0.0
 10
5.2046578144
 20
5.2691085591
 30
0.0
 10
5.202293453
 20
5.2688394575
 30
0.0
 10
5.2001484314
 20
5.268570598
 30
0.0
 10
5.1982240774
 20
5.2683020824
 30
0.0
 10
5.1965216343
 20
5.2680339635
 30
0.0
 10
5.1952434691
 20
5.2678029702
 30
0.0
 10
5.1943333698
 20
5.2676160349
 30
0.0
 10
5.1937336499
 20
5.2674813955
 30
0.0
 10
5.1931899262
 20
5.2673468543
 30
0.0
 10
5.192702222
 20
5.2672124238
 30
0.0
 10
5.1922705479
 20
5.2670781364
 30
0.0
 10
5.1918948472
 20
5.266944018
 30
0.0
 10
5.1915750878
 20
5.2668101122
 30
0.0
 10
5.1913841573
 20
5.2667134656
 30
0.0
 10
5.191299017
 20
5.2666642905
 30
0.0
 11
5.5908145793
 21
5.2839626089
 31
0.0
 11
5.5528450362
 21
5.2828818435
 31
0.0
 11
5.5151901827
 21
5.2818002653
 31
0.0
 11
5.4782318775
 21
5.2807190553
 31
0.0
 11
5.4422956394
 21
5.2796379818
 31
0.0
 11
5.4076983133
 21
5.2785568078
 31
0.0
 11
5.3747559003
 21
5.2774756394
 31
0.0
 11
5.3437676069
 21
5.276394524
 31
0.0
 11
5.3150123966
 21
5.2753134101
 31
0.0
 11
5.301553638
 21
5.2747728451
 31
0.0
 11
5.2887481339
 21
5.2742322749
 31
0.0
 11
5.2766260972
 21
5.2736916999
 31
0.0
 11
5.2652145646
 21
5.2731511212
 31
0.0
 11
5.254538282
 21
5.2726105412
 31
0.0
 11
5.2446219451
 21
5.2720699619
 31
0.0
 11
5.235489344
 21
5.2715293853
 31
0.0
 11
5.2271598936
 21
5.2709888121
 31
0.0
 11
5.2196516894
 21
5.2704482426
 31
0.0
 11
5.2162112092
 21
5.2701779593
 31
0.0
 11
5.2129828036
 21
5.2699076771
 31
0.0
 11
5.2099682717
 21
5.2696373959
 31
0.0
 11
5.2071690128
 21
5.2693671152
 31
0.0
 11
5.2045864119
 21
5.2690968349
 31
0.0
 11
5.2022218538
 21
5.2688265545
 31
0.0
 11
5.2000767233
 21
5.2685562739
 31
0.0
 11
5.1981524054
 21
5.2682859927
 31
0.0
 11
5.1964502825
 21
5.2680157106
 31
0.0
 11
5.1949714477
 21
5.2677454274
 31
0.0
 11
5.194315934
 21
5.2676102856
 31
0.0
 11
5.1937164344
 21
5.2674751435
 31
0.0
 11
5.1931730075
 21
5.2673400014
 31
0.0
 11
5.192685712
 21
5.2672048592
 31
0.0
 11
5.1922546065
 21
5.267069717
 31
0.0
 11
5.1918797497
 21
5.2669345748
 31
0.0
 11
5.1915612003
 21
5.2667994326
 31
0.0
 11
5.191299017
 21
5.2666642905
 31
0.0
  0
SPLINE
  5
2E2
100
AcDbEntity
  8
0
100
AcDbSpline
 62
6
  6
CONTINUOUS
 70
0
 71
3
 72
42
 73
38
 74
36
 42
0.0000001
 43
0.0000001
 44
0.0000000001
 12
-0.3999457822
 22
-0.0113668967
 32
0.0
 13
-0.3464713612
 23
-0.2001085479
 33
0.0
 40
0.0
 40
0.0
 40
0.0
 40
0.0
 40
0.0949370046
 40
0.189088139
 40
0.2814990414
 40
0.3713564026
 40
0.4578689069
 40
0.5402475101
 40
0.6177448411
 40
0.6896644436
 40
0.7233292245
 40
0.7553625247
 40
0.7856890417
 40
0.814241426
 40
0.840958295
 40
0.865778497
 40
0.8886434186
 40
0.9095052865
 40
0.9283195208
 40
0.9369449679
 40
0.9450420688
 40
0.9526067011
 40
0.959635675
 40
0.9661259026
 40
0.9720744096
 40
0.9774783832
 40
0.9823352465
 40
0.9866427939
 40
0.9904002042
 40
0.9920730596
 40
0.9936090656
 40
0.9950086998
 40
0.9962726436
 40
0.9974018797
 40
0.9983978524
 40
0.999262747
 40
1.0
 40
1.0
 40
1.0
 40
1.0
 10
5.5908145793
 20
5.2125326089
 30
0.0
 10
5.5781580277
 20
5.2121728958
 30
0.0
 10
5.5529496931
 20
5.2114564483
 30
0.0
 10
5.5154218488
 20
5.2103802389
 30
0.0
 10
5.4785717519
 20
5.2093040931
 30
0.0
 10
5.4427408427
 20
5.2082283819
 30
0.0
 10
5.4082485408
 20
5.2071531002
 30
0.0
 10
5.3754054986
 20
5.2060784156
 30
0.0
 10
5.3445097707
 20
5.205004538
 30
0.0
 10
5.3201093547
 20
5.2040916603
 30
0.0
 10
5.3017701396
 20
5.2033562095
 30
0.0
 10
5.2889747718
 20
5.2028170069
 30
0.0
 10
5.2768618706
 20
5.2022779289
 30
0.0
 10
5.2654587512
 20
5.201739014
 30
0.0
 10
5.254790861
 20
5.2012003755
 30
0.0
 10
5.2448825182
 20
5.2006620705
 30
0.0
 10
5.2357562718
 20
5.2001240714
 30
0.0
 10
5.2274325207
 20
5.1995865625
 30
0.0
 10
5.2210069259
 20
5.1991269673
 30
0.0
 10
5.2162818983
 20
5.1987565424
 30
0.0
 10
5.2130539656
 20
5.198486899
 30
0.0
 10
5.2100397356
 20
5.1982173434
 30
0.0
 10
5.2072407173
 20
5.1979479038
 30
0.0
 10
5.2046582977
 20
5.1976786107
 30
0.0
 10
5.202293854
 20
5.197409507
 30
0.0
 10
5.2001487575
 20
5.1971406447
 30
0.0
 10
5.1982243463
 20
5.1968721263
 30
0.0
 10
5.1965218611
 20
5.1966039999
 30
0.0
 10
5.1952436662
 20
5.1963730014
 30
0.0
 10
5.1943335396
 20
5.1961860624
 30
0.0
 10
5.193733796
 20
5.1960514198
 30
0.0
 10
5.1931900476
 20
5.1959168751
 30
0.0
 10
5.1927023187
 20
5.195782441
 30
0.0
 10
5.1922706207
 20
5.1956481497
 30
0.0
 10
5.1918948976
 20
5.1955140273
 30
0.0
 10
5.1915751185
 20
5.1953801175
 30
0.0
 10
5.1913841758
 20
5.1952834677
 30
0.0
 10
5.1912990301
 20
5.1952342908
 30
0.0
 11
5.5908145793
 21
5.2125326089
 31
0.0
 11
5.552844971
 21
5.2114518417
 31
0.0
 11
5.515189947
 21
5.2103702585
 31
0.0
 11
5.4782314842
 21
5.2092890436
 31
0.0
 11
5.4422951573
 21
5.2082079672
 31
0.0
 11
5.407697764
 21
5.20712679
 31
0.0
 11
5.3747552224
 21
5.2060456167
 31
0.0
 11
5.3437668294
 21
5.2049644958
 31
0.0
 11
5.3150115893
 21
5.2038833779
 31
0.0
 11
5.3015529168
 21
5.2033428141
 31
0.0
 11
5.2887475648
 21
5.2028022494
 31
0.0
 11
5.2766257517
 21
5.2022616858
 31
0.0
 11
5.2652145312
 21
5.2017211235
 31
0.0
 11
5.254538594
 21
5.2011805612
 31
0.0
 11
5.2446225737
 21
5.2006399977
 31
0.0
 11
5.2354901367
 21
5.2000994323
 31
0.0
 11
5.227160674
 21
5.1995588656
 31
0.0
 11
5.219652396
 21
5.1990182989
 31
0.0
 11
5.2162118922
 21
5.198748016
 31
0.0
 11
5.2129834774
 21
5.1984777336
 31
0.0
 11
5.2099689052
 21
5.1982074515
 31
0.0
 11
5.2071695795
 21
5.1979371693
 31
0.0
 11
5.2045868965
 21
5.1976668869
 31
0.0
 11
5.2022222524
 21
5.1973966038
 31
0.0
 11
5.2000770433
 21
5.1971263197
 31
0.0
 11
5.1981526655
 21
5.1968560342
 31
0.0
 11
5.1964505104
 21
5.1965857472
 31
0.0
 11
5.1949716402
 21
5.1963154583
 31
0.0
 11
5.1943161044
 21
5.1961803133
 31
0.0
 11
5.1937165808
 21
5.196045168
 31
0.0
 11
5.1931731289
 21
5.1959100223
 31
0.0
 11
5.1926858083
 21
5.1957748764
 31
0.0
 11
5.1922546786
 21
5.1956397303
 31
0.0
 11
5.1918797993
 21
5.1955045839
 31
0.0
 11
5.1915612299
 21
5.1953694374
 31
0.0
 11
5.1912990301
 21
5.1952342908
 31
0.0
  0
SPLINE
  5
2E3
100
AcDbEntity
  8
0
100
AcDbSpline
 62
6
  6
CONTINUOUS
 70
0
 71
3
 72
38
 73
34
 74
32
 42
0.0000001
 43
0.0000001
 44
0.0000000001
 12
0.0188714433
 22
0.5481148137
 32
0.0
 13
-0.5413668291
 23
0.0877948558
 33
0.0
 40
0.0
 40
0.0
 40
0.0
 40
0.0
 40
0.062471856
 40
0.0937393513
 40
0.1250088367
 40
0.1562719461
 40
0.1875282504
 40
0.2187801399
 40
0.2500304096
 40
0.2812821235
 40
0.3125354537
 40
0.3437891205
 40
0.3750423433
 40
0.4062951239
 40
0.4375473426
 40
0.468798593
 40
0.500048922
 40
0.5312990758
 40
0.5625491748
 40
0.5937987751
 40
0.62504795
 40
0.6562974849
 40
0.6875469409
 40
0.7187949421
 40
0.7500405944
 40
0.7812840219
 40
0.8125270225
 40
0.8437722125
 40
0.8750229322
 40
0.9062816201
 40
0.9375394112
 40
0.9687830783
 40
1.0
 40
1.0
 40
1.0
 40
1.0
 10
5.9887534619
 20
4.4712716001
 30
0.0
 10
5.9891464399
 20
4.4826855167
 30
0.0
 10
5.9889971801
 20
4.4998496902
 30
0.0
 10
5.9873235264
 20
4.5226463224
 30
0.0
 10
5.9853290218
 20
4.5396837387
 30
0.0
 10
5.9825943238
 20
4.5566154817
 30
0.0
 10
5.97912438
 20
4.5734088464
 30
0.0
 10
5.9749248921
 20
4.590032345
 30
0.0
 10
5.9700013874
 20
4.6064551644
 30
0.0
 10
5.9643591844
 20
4.6226454598
 30
0.0
 10
5.9580084504
 20
4.6385718461
 30
0.0
 10
5.9509605912
 20
4.6542025722
 30
0.0
 10
5.9432269984
 20
4.6695055894
 30
0.0
 10
5.9348185637
 20
4.6844482026
 30
0.0
 10
5.9257511568
 20
4.6989999496
 30
0.0
 10
5.9160423077
 20
4.7131312907
 30
0.0
 10
5.9057093122
 20
4.726812484
 30
0.0
 10
5.8947692147
 20
4.7400130384
 30
0.0
 10
5.8832433413
 20
4.7527051737
 30
0.0
 10
5.8711546088
 20
4.7648621998
 30
0.0
 10
5.8585257925
 20
4.7764571423
 30
0.0
 10
5.8453796274
 20
4.7874620927
 30
0.0
 10
5.8317432064
 20
4.7978530174
 30
0.0
 10
5.8176451428
 20
4.8076072134
 30
0.0
 10
5.8031139181
 20
4.816701603
 30
0.0
 10
5.7881777247
 20
4.8251126128
 30
0.0
 10
5.7728672433
 20
4.8328211668
 30
0.0
 10
5.7572134536
 20
4.8398096135
 30
0.0
 10
5.7412474464
 20
4.8460600301
 30
0.0
 10
5.725002884
 20
4.8515531744
 30
0.0
 10
5.7085192459
 20
4.8562764189
 30
0.0
 10
5.6918393636
 20
4.8602168107
 30
0.0
 10
5.6806098531
 20
4.8623142513
 30
0.0
 10
5.6749765845
 20
4.863227813
 30
0.0
 11
5.9887534619
 21
4.4712716001
 31
0.0
 11
5.9884563807
 21
4.505532351
 31
0.0
 11
5.9872004401
 21
4.522634629
 31
0.0
 11
5.9852054427
 21
4.539667618
 31
0.0
 11
5.982471462
 21
4.5565941698
 31
0.0
 11
5.9790025246
 21
4.5733817042
 31
0.0
 11
5.9748041104
 21
4.5899993198
 31
0.0
 11
5.9698817013
 21
4.6064161182
 31
0.0
 11
5.9642412348
 21
4.6226011009
 31
0.0
 11
5.9578923036
 21
4.6385224699
 31
0.0
 11
5.9508462596
 21
4.6541480422
 31
0.0
 11
5.9431144658
 21
4.6694456323
 31
0.0
 11
5.9347086517
 21
4.6843831981
 31
0.0
 11
5.9256441117
 21
4.6989300925
 31
0.0
 11
5.9159381485
 21
4.7130564541
 31
0.0
 11
5.9056080874
 21
4.7267324306
 31
0.0
 11
5.8946715641
 21
4.7399283261
 31
0.0
 11
5.8831494479
 21
4.7526160764
 31
0.0
 11
5.8710645268
 21
4.7647685854
 31
0.0
 11
5.8584396141
 21
4.7763587699
 31
0.0
 11
5.8452978781
 21
4.7873597854
 31
0.0
 11
5.8316659541
 21
4.7977471205
 31
0.0
 11
5.8175724369
 21
4.8074975824
 31
0.0
 11
5.8030459433
 21
4.8165879931
 31
0.0
 11
5.7881152635
 21
4.8249955829
 31
0.0
 11
5.7728105894
 21
4.8327008858
 31
0.0
 11
5.7571627924
 21
4.8396860372
 31
0.0
 11
5.7412027484
 21
4.8459331832
 31
0.0
 11
5.7249626717
 21
4.8514249556
 31
0.0
 11
5.7084828041
 21
4.8561468999
 31
0.0
 11
5.6918063665
 21
4.8600856428
 31
0.0
 11
5.6749765845
 21
4.863227813
 31
0.0
  0
SPLINE
  5
2E4
100
AcDbEntity
  8
0
100
AcDbSpline
 62
6
  6
CONTINUOUS
 70
0
 71
3
 72
42
 73
38
 74
36
 42
0.0000001
 43
0.0000001
 44
0.0000000001
 12
-0.399945781
 22
-0.0113668966
 32
0.0
 13
-0.3464727968
 23
-0.2001060598
 33
0.0
 40
0.0
 40
0.0
 40
0.0
 40
0.0
 40
0.0949364774
 40
0.1890845541
 40
0.2814911514
 40
0.37134591
 40
0.4578579094
 40
0.5402363073
 40
0.6177349849
 40
0.6896565275
 40
0.723322804
 40
0.7553574851
 40
0.7856850589
 40
0.8142385678
 40
0.8409564307
 40
0.8657772366
 40
0.8886423869
 40
0.9095043251
 40
0.9283184894
 40
0.9369438544
 40
0.94504088
 40
0.9526055445
 40
0.959634635
 40
0.9661250307
 40
0.972073725
 40
0.9774778722
 40
0.9823348632
 40
0.986642468
 40
0.9903999353
 40
0.9920728256
 40
0.993608869
 40
0.9950085416
 40
0.9962725234
 40
0.9974017956
 40
0.9983978013
 40
0.9992627243
 40
1.0
 40
1.0
 40
1.0
 40
1.0
 10
5.5908145793
 20
5.1411026089
 30
0.0
 10
5.5781580981
 20
5.1407428978
 30
0.0
 10
5.5529502414
 20
5.1400264639
 30
0.0
 10
5.5154234491
 20
5.1389502843
 30
0.0
 10
5.4785746807
 20
5.1378741817
 30
0.0
 10
5.4427447599
 20
5.1367984978
 30
0.0
 10
5.4082528993
 20
5.1357232437
 30
0.0
 10
5.3754097723
 20
5.1346485547
 30
0.0
 10
5.3445136331
 20
5.133574683
 30
0.0
 10
5.3201125798
 20
5.13266178
 30
0.0
 10
5.3017727224
 20
5.1319263169
 30
0.0
 10
5.2889768302
 20
5.1313870992
 30
0.0
 10
5.2768634546
 20
5.1308479978
 30
0.0
 10
5.265459912
 20
5.1303090666
 30
0.0
 10
5.254791659
 20
5.1297704159
 30
0.0
 10
5.2448830727
 20
5.129232102
 30
0.0
 10
5.2357567059
 20
5.1286940993
 30
0.0
 10
5.2274329239
 20
5.1281565949
 30
0.0
 10
5.2210073397
 20
5.1276970038
 30
0.0
 10
5.2162823425
 20
5.1273265803
 30
0.0
 10
5.2130544267
 20
5.1270569354
 30
0.0
 10
5.2100401869
 20
5.1267873798
 30
0.0
 10
5.2072411263
 20
5.1265179391
 30
0.0
 10
5.2046586436
 20
5.1262486443
 30
0.0
 10
5.2022941291
 20
5.1259795384
 30
0.0
 10
5.2001489672
 20
5.1257106734
 30
0.0
 10
5.198224508
 20
5.1254421529
 30
0.0
 10
5.1965219911
 20
5.1251740202
 30
0.0
 10
5.1952437767
 20
5.124943018
 30
0.0
 10
5.194333633
 20
5.1247560767
 30
0.0
 10
5.1937338747
 20
5.1246214321
 30
0.0
 10
5.1931901111
 20
5.1244868855
 30
0.0
 10
5.1927023672
 20
5.1243524494
 30
0.0
 10
5.1922706548
 20
5.1242181562
 30
0.0
 10
5.1918949186
 20
5.1240840318
 30
0.0
 10
5.1915751282
 20
5.1239501199
 30
0.0
 10
5.1913841787
 20
5.1238534685
 30
0.0
 10
5.19129903
 20
5.1238042907
 30
0.0
 11
5.5908145793
 21
5.1411026089
 31
0.0
 11
5.552845182
 21
5.1400218476
 31
0.0
 11
5.5151913809
 21
5.1389403
 31
0.0
 11
5.47823464
 21
5.137859138
 31
0.0
 11
5.442299354
 21
5.1367780945
 31
0.0
 11
5.4077021624
 21
5.1356969323
 31
0.0
 11
5.3747597029
 21
5.1346157666
 31
0.0
 11
5.3437707711
 21
5.13353464
 31
0.0
 11
5.3150147551
 21
5.1324534999
 31
0.0
 11
5.3015554844
 21
5.1319129204
 31
0.0
 11
5.2887495802
 21
5.1313723382
 31
0.0
 11
5.2766273446
 21
5.1308317559
 31
0.0
 11
5.2652156746
 21
5.1302911756
 31
0.0
 11
5.25453934
 21
5.1297505986
 31
0.0
 11
5.2446230783
 21
5.1292100263
 31
0.0
 11
5.2354905497
 21
5.1286694595
 31
0.0
 11
5.2271610585
 21
5.1281288965
 31
0.0
 11
5.2196528084
 21
5.1275883347
 31
0.0
 11
5.2162123373
 21
5.1273180536
 31
0.0
 11
5.2129839527
 21
5.1270477718
 31
0.0
 11
5.2099693677
 21
5.1267774893
 31
0.0
 11
5.2071699953
 21
5.1265072057
 31
0.0
 11
5.2045872448
 21
5.126236921
 31
0.0
 11
5.2022225256
 21
5.125966635
 31
0.0
 11
5.2000772469
 21
5.1256963475
 31
0.0
 11
5.1981528181
 21
5.1254260584
 31
0.0
 11
5.1964506404
 21
5.1251557675
 31
0.0
 11
5.1949717477
 21
5.1248854748
 31
0.0
 11
5.194316198
 21
5.1247503278
 31
0.0
 11
5.1937166595
 21
5.1246151805
 31
0.0
 11
5.1931731923
 21
5.1244800328
 31
0.0
 11
5.1926858565
 21
5.1243448848
 31
0.0
 11
5.1922547123
 21
5.1242097366
 31
0.0
 11
5.1918798197
 21
5.1240745882
 31
0.0
 11
5.1915612389
 21
5.1239394395
 31
0.0
 11
5.19129903
 21
5.1238042907
 31
0.0
  0
SPLINE
  5
2E5
100
AcDbEntity
  8
0
100
AcDbSpline
 62
6
  6
CONTINUOUS
 70
0
 71
3
 72
42
 73
38
 74
36
 42
0.0000001
 43
0.0000001
 44
0.0000000001
 12
-0.3999458002
 22
-0.0113668972
 32
0.0
 13
-0.346471683
 23
-0.2001080267
 33
0.0
 40
0.0
 40
0.0
 40
0.0
 40
0.0
 40
0.094936726
 40
0.1890856158
 40
0.2814927411
 40
0.3713464121
 40
0.4578558596
 40
0.5402323745
 40
0.6177309739
 40
0.6896530672
 40
0.7233198938
 40
0.7553551528
 40
0.7856832961
 40
0.8142375428
 40
0.8409562218
 40
0.8657778126
 40
0.8886435694
 40
0.9095059146
 40
0.9283203699
 40
0.9369458628
 40
0.945042975
 40
0.9526075635
 40
0.9596364483
 40
0.9661265548
 40
0.9720749219
 40
0.9774787499
 40
0.9823354752
 40
0.9866429065
 40
0.9904002442
 40
0.9920730783
 40
0.9936090709
 40
0.9950086979
 40
0.9962726391
 40
0.9974018756
 40
0.9983978503
 40
0.9992627467
 40
1.0
 40
1.0
 40
1.0
 40
1.0
 10
5.5908145793
 20
5.0696726089
 30
0.0
 10
5.5781580643
 20
5.0693128969
 30
0.0
 10
5.5529500649
 20
5.068596459
 30
0.0
 10
5.5154230588
 20
5.0675202733
 30
0.0
 10
5.4785742549
 20
5.0664441679
 30
0.0
 10
5.4427447471
 20
5.065368498
 30
0.0
 10
5.408253621
 20
5.0642932684
 30
0.0
 10
5.3754110941
 20
5.0632185969
 30
0.0
 10
5.3445151412
 20
5.0621447392
 30
0.0
 10
5.3201139505
 20
5.0612318311
 30
0.0
 10
5.3017738682
 20
5.0604963647
 30
0.0
 10
5.2889777491
 20
5.0599571402
 30
0.0
 10
5.2768641217
 20
5.0594180268
 30
0.0
 10
5.2654602957
 20
5.0588790844
 30
0.0
 10
5.2547917304
 20
5.0583404199
 30
0.0
 10
5.2448828497
 20
5.0578020907
 30
0.0
 10
5.2357562433
 20
5.0572640687
 30
0.0
 10
5.2274322878
 20
5.0567265446
 30
0.0
 10
5.2210065939
 20
5.0562669403
 30
0.0
 10
5.2162815292
 20
5.0558965116
 30
0.0
 10
5.2130535946
 20
5.0556268683
 30
0.0
 10
5.2100393807
 20
5.0553573135
 30
0.0
 10
5.2072403961
 20
5.0550878758
 30
0.0
 10
5.204658023
 20
5.0548185855
 30
0.0
 10
5.2022936334
 20
5.054549485
 30
0.0
 10
5.2001485932
 20
5.0542806262
 30
0.0
 10
5.1982242353
 20
5.0540121113
 30
0.0
 10
5.1965217937
 20
5.0537439875
 30
0.0
 10
5.1952436267
 20
5.053512992
 30
0.0
 10
5.1943335142
 20
5.0533260555
 30
0.0
 10
5.193733776
 20
5.0531914142
 30
0.0
 10
5.1931900305
 20
5.0530568707
 30
0.0
 10
5.1927023026
 20
5.0529224377
 30
0.0
 10
5.1922706042
 20
5.0527881475
 30
0.0
 10
5.1918948802
 20
5.052654026
 30
0.0
 10
5.1915751001
 20
5.052520117
 30
0.0
 10
5.1913841569
 20
5.0524234676
 30
0.0
 10
5.191299011
 20
5.0523742908
 30
0.0
 11
5.5908145793
 21
5.0696726089
 31
0.0
 11
5.5528450807
 21
5.0685918448
 31
0.0
 11
5.5151909527
 21
5.0675102876
 31
0.0
 11
5.4782339988
 21
5.0664291184
 31
0.0
 11
5.442299146
 21
5.0653480889
 31
0.0
 11
5.4077029733
 21
5.0642669595
 31
0.0
 11
5.3747612652
 21
5.0631858188
 31
0.0
 11
5.343772363
 21
5.0621046981
 31
0.0
 11
5.3150161253
 21
5.0610235529
 31
0.0
 11
5.3015566339
 21
5.0604829681
 31
0.0
 11
5.288750498
 21
5.0599423785
 31
0.0
 11
5.2766280342
 21
5.0594017864
 31
0.0
 11
5.2652160686
 21
5.0588611938
 31
0.0
 11
5.2545394073
 21
5.058320602
 31
0.0
 11
5.2446228316
 21
5.0577800123
 31
0.0
 11
5.2354900606
 21
5.0572394262
 31
0.0
 11
5.227160407
 21
5.056698845
 31
0.0
 11
5.2196520408
 21
5.0561582699
 31
0.0
 11
5.2162115184
 21
5.055887985
 31
0.0
 11
5.212983099
 21
5.0556177021
 31
0.0
 11
5.2099685443
 21
5.0553474209
 31
0.0
 11
5.2071692541
 21
5.0550771408
 31
0.0
 11
5.2045866193
 21
5.0548068612
 31
0.0
 11
5.202222031
 21
5.0545365816
 31
0.0
 11
5.2000768801
 21
5.0542663012
 31
0.0
 11
5.1981525574
 21
5.0539960195
 31
0.0
 11
5.1964504487
 21
5.053725736
 31
0.0
 11
5.1949716075
 21
5.0534554503
 31
0.0
 11
5.19431608
 21
5.0533203067
 31
0.0
 11
5.1937165616
 21
5.0531851626
 31
0.0
 11
5.1931731123
 21
5.0530500182
 31
0.0
 11
5.1926857925
 21
5.0529148733
 31
0.0
 11
5.1922546623
 21
5.0527797281
 31
0.0
 11
5.1918797818
 21
5.0526445826
 31
0.0
 11
5.1915612114
 21
5.0525094368
 31
0.0
 11
5.191299011
 21
5.0523742908
 31
0.0
  0
SPLINE
  5
2E6
100
AcDbEntity
  8
0
100
AcDbSpline
 62
6
  6
CONTINUOUS
 70
0
 71
3
 72
26
 73
22
 74
20
 42
0.0000001
 43
0.0000001
 44
0.0000000001
 12
0.3866572127
 22
0.0261539897
 32
0.0
 13
0.387474755
 23
0.007151612
 33
0.0
 40
0.0
 40
0.0
 40
0.0
 40
0.0
 40
0.0120399864
 40
0.0257170327
 40
0.0410053867
 40
0.0578791086
 40
0.0763111458
 40
0.0962701583
 40
0.1177236343
 40
0.1406390202
 40
0.164982016
 40
0.1907108885
 40
0.2461512322
 40
0.306598955
 40
0.3716460699
 40
0.440863297
 40
0.5137833077
 40
0.5899191075
 40
0.6687438885
 40
0.8323118559
 40
1.0
 40
1.0
 40
1.0
 40
1.0
 10
5.2034058271
 20
5.5368258317
 30
0.0
 10
5.2049576096
 20
5.5369307963
 30
0.0
 10
5.2082733369
 20
5.5371377837
 30
0.0
 10
5.2135624183
 20
5.537429435
 30
0.0
 10
5.2194767295
 20
5.5377218587
 30
0.0
 10
5.2260059369
 20
5.5380148497
 30
0.0
 10
5.2331390383
 20
5.5383081986
 30
0.0
 10
5.2408641977
 20
5.5386019126
 30
0.0
 10
5.2491688919
 20
5.5388959752
 30
0.0
 10
5.2580402297
 20
5.5391903691
 30
0.0
 10
5.2674641398
 20
5.5394850628
 30
0.0
 10
5.281088266
 20
5.5398885264
 30
0.0
 10
5.2993755287
 20
5.5403898792
 30
0.0
 10
5.3227413694
 20
5.540978959
 30
0.0
 10
5.3478874
 20
5.5415694697
 30
0.0
 10
5.3746449912
 20
5.5421611735
 30
0.0
 10
5.4028353259
 20
5.5427541119
 30
0.0
 10
5.4322670067
 20
5.5433481079
 30
0.0
 10
5.4734067636
 20
5.5441514434
 30
0.0
 10
5.5263717678
 20
5.5451468484
 30
0.0
 10
5.5691562717
 20
5.5459341189
 30
0.0
 10
5.5908145793
 20
5.5463338657
 30
0.0
 11
5.2034058271
 21
5.5368258317
 31
0.0
 11
5.2080625725
 21
5.5371193307
 31
0.0
 11
5.2133548303
 21
5.5374132397
 31
0.0
 11
5.2192723802
 21
5.5377074694
 31
0.0
 11
5.2258050018
 21
5.5380019307
 31
0.0
 11
5.2329420888
 21
5.5382965525
 31
0.0
 11
5.2406714001
 21
5.5385913396
 31
0.0
 11
5.2489802618
 21
5.5388863169
 31
0.0
 11
5.2578560002
 21
5.5391815095
 31
0.0
 11
5.2672852761
 21
5.5394769376
 31
0.0
 11
5.277251878
 21
5.5397726006
 31
0.0
 11
5.2987291127
 21
5.5403646076
 31
0.0
 11
5.3221475646
 21
5.5409574913
 31
0.0
 11
5.3473489785
 21
5.541551251
 31
0.0
 11
5.3741668825
 21
5.5421458988
 31
0.0
 11
5.4024200817
 21
5.5427414561
 31
0.0
 11
5.4319197768
 21
5.5433379345
 31
0.0
 11
5.4624617502
 21
5.5439352923
 31
0.0
 11
5.5258396913
 21
5.5451327511
 31
0.0
 11
5.5908145793
 21
5.5463338657
 31
0.0
  0
LINE
  5
2E7
100
AcDbEntity
  8
0
100
AcDbLine
 62
6
  6
CONTINUOUS
 10
5.2319831431
 20
5.5754858317
 11
5.229902209
 21
5.5746028469
  0
LINE
  5
2E8
100
AcDbEntity
  8
0
100
AcDbLine
 62
6
  6
CONTINUOUS
 10
5.2292540598
 20
5.5742885437
 11
5.2282947769
 21
5.5737719204
  0
SPLINE
  5
2E9
100
AcDbEntity
  8
0
100
AcDbSpline
 62
6
  6
CONTINUOUS
 70
0
 71
3
 72
42
 73
38
 74
36
 42
0.0000001
 43
0.0000001
 44
0.0000000001
 12
0.379244094
 22
0.0069996989
 32
0.0
 13
0.3284869066
 23
0.1896613582
 33
0.0
 40
0.0
 40
0.0
 40
0.0
 40
0.0
 40
0.0961228942
 40
0.1913065736
 40
0.2846065042
 40
0.3752143899
 40
0.4623421942
 40
0.5452004833
 40
0.6230369051
 40
0.6951477184
 40
0.7288494375
 40
0.7608788558
 40
0.7911592851
 40
0.8196213559
 40
0.846201734
 40
0.8708373078
 40
0.8934671647
 40
0.9140412314
 40
0.9325129374
 40
0.9488359835
 40
0.9561786783
 40
0.9629704506
 40
0.9692078541
 40
0.9748875082
 40
0.9800061274
 40
0.9845605703
 40
0.9885479387
 40
0.9919665959
 40
0.9934627671
 40
0.9948170086
 40
0.9960296014
 40
0.9971010032
 40
0.9980319561
 40
0.9988236863
 40
0.9994783111
 40
0.9997554181
 40
1.0
 40
1.0
 40
1.0
 40
1.0
 10
5.5908145793
 20
5.5463338657
 30
0.0
 10
5.6029659259
 20
5.5465581428
 30
0.0
 10
5.6271498746
 20
5.5470052699
 30
0.0
 10
5.6631281477
 20
5.5476786162
 30
0.0
 10
5.6984089792
 20
5.5483530664
 30
0.0
 10
5.7326710486
 20
5.5490283956
 30
0.0
 10
5.7656126334
 20
5.5497046055
 30
0.0
 10
5.7969390717
 20
5.5503815875
 30
0.0
 10
5.8263663346
 20
5.5510592162
 30
0.0
 10
5.8495790593
 20
5.5516364787
 30
0.0
 10
5.8670010544
 20
5.5521022878
 30
0.0
 10
5.8791355914
 20
5.5524439156
 30
0.0
 10
5.8906073643
 20
5.5527857595
 30
0.0
 10
5.9013898513
 20
5.553127798
 30
0.0
 10
5.9114582379
 20
5.5534699546
 30
0.0
 10
5.9207887632
 20
5.553812179
 30
0.0
 10
5.9293593177
 20
5.5541544954
 30
0.0
 10
5.9371498647
 20
5.554496733
 30
0.0
 10
5.9441421609
 20
5.5548387667
 30
0.0
 10
5.9494617952
 20
5.5551328411
 30
0.0
 10
5.9533053832
 20
5.5553707882
 30
0.0
 10
5.9558753835
 20
5.5555428743
 30
0.0
 10
5.9582346092
 20
5.5557149151
 30
0.0
 10
5.9603816825
 20
5.555886883
 30
0.0
 10
5.9623152295
 20
5.5560587302
 30
0.0
 10
5.9640339006
 20
5.5562303588
 30
0.0
 10
5.9655364511
 20
5.5564017214
 30
0.0
 10
5.9666523202
 20
5.5565499353
 30
0.0
 10
5.9674357876
 20
5.5566703343
 30
0.0
 10
5.9679422454
 20
5.5567565129
 30
0.0
 10
5.9683941619
 20
5.5568425988
 30
0.0
 10
5.9687915029
 20
5.5569285685
 30
0.0
 10
5.9691342958
 20
5.5570143523
 30
0.0
 10
5.9694225372
 20
5.5570999169
 30
0.0
 10
5.9696275679
 20
5.5571744728
 30
0.0
 10
5.9697633051
 20
5.5572354105
 30
0.0
 10
5.9698218036
 20
5.5572660238
 30
0.0
 10
5.9698485843
 20
5.5572814864
 30
0.0
 11
5.5908145793
 21
5.5463338657
 31
0.0
 11
5.6272685794
 21
5.5470088491
 31
0.0
 11
5.6633662341
 21
5.5476855103
 31
0.0
 11
5.6987492203
 21
5.5483631253
 31
0.0
 11
5.733110876
 21
5.5490418345
 31
0.0
 11
5.7661522131
 21
5.5497217955
 31
0.0
 11
5.7975736996
 21
5.5504029528
 31
0.0
 11
5.8270898448
 21
5.5510852792
 31
0.0
 11
5.8544335606
 21
5.5517688078
 31
0.0
 11
5.8672123337
 21
5.5521110302
 31
0.0
 11
5.8793565406
 21
5.5524535596
 31
0.0
 11
5.8908370526
 21
5.552796397
 31
0.0
 11
5.9016275085
 21
5.5531395429
 31
0.0
 11
5.9117038251
 21
5.5534829973
 31
0.0
 11
5.9210419869
 21
5.5538267601
 31
0.0
 11
5.9296187895
 21
5.5541708313
 31
0.0
 11
5.9374151094
 21
5.5545152112
 31
0.0
 11
5.9444131042
 21
5.5548599001
 31
0.0
 11
5.9505949579
 21
5.5552048983
 31
0.0
 11
5.9533747516
 21
5.5553775137
 31
0.0
 11
5.9559451351
 21
5.555550207
 31
0.0
 11
5.9583047196
 21
5.5557229785
 31
0.0
 11
5.9604521163
 21
5.5558958287
 31
0.0
 11
5.9623859365
 21
5.5560687577
 31
0.0
 11
5.9641047913
 21
5.556241766
 31
0.0
 11
5.9656072978
 21
5.5564148538
 31
0.0
 11
5.9668924096
 21
5.5565880213
 31
0.0
 11
5.9674532718
 21
5.556674635
 31
0.0
 11
5.9679595892
 21
5.5567612685
 31
0.0
 11
5.9684112997
 21
5.5568479219
 31
0.0
 11
5.9688083415
 21
5.5569345951
 31
0.0
 11
5.9691506528
 21
5.5570212882
 31
0.0
 11
5.9694381716
 21
5.5571080012
 31
0.0
 11
5.969670836
 21
5.5571947339
 31
0.0
 11
5.9697665785
 21
5.5572381077
 31
0.0
 11
5.9698485843
 21
5.5572814864
 31
0.0
  0
SPLINE
  5
2EA
100
AcDbEntity
  8
0
100
AcDbSpline
 62
6
  6
CONTINUOUS
 70
0
 71
3
 72
42
 73
38
 74
36
 42
0.0000001
 43
0.0000001
 44
0.0000000001
 12
0.3999458105
 22
0.0113668975
 32
0.0
 13
0.3464708068
 23
0.2001095643
 33
0.0
 40
0.0
 40
0.0
 40
0.0
 40
0.0
 40
0.0949367634
 40
0.1890859505
 40
0.2814935372
 40
0.3713474531
 40
0.4578568601
 40
0.5402333205
 40
0.6177318264
 40
0.6896538708
 40
0.7233206528
 40
0.7553558894
 40
0.7856840272
 40
0.8142382178
 40
0.840956831
 40
0.8657783941
 40
0.8886441226
 40
0.9095063945
 40
0.9283207789
 40
0.9369462522
 40
0.9450433549
 40
0.9526079157
 40
0.9596367577
 40
0.966126813
 40
0.9720751278
 40
0.9774789091
 40
0.9823356002
 40
0.9866430151
 40
0.990400336
 40
0.9920731596
 40
0.9936091408
 40
0.9950087557
 40
0.9962726846
 40
0.9974019089
 40
0.9983978716
 40
0.9992627568
 40
1.0
 40
1.0
 40
1.0
 40
1.0
 10
5.5908145793
 20
5.4089633317
 30
0.0
 10
5.6034710995
 20
5.4093230439
 30
0.0
 10
5.6286791442
 20
5.410039483
 30
0.0
 10
5.6662062574
 20
5.4111156718
 30
0.0
 10
5.703055196
 20
5.4121917816
 30
0.0
 10
5.7388847934
 20
5.4132674539
 30
0.0
 10
5.7733759404
 20
5.4143426854
 30
0.0
 10
5.806218443
 20
5.4154173561
 30
0.0
 10
5.8371143705
 20
5.4164912145
 30
0.0
 10
5.8615155369
 20
5.4174041218
 30
0.0
 10
5.8798556041
 20
5.4181395891
 30
0.0
 10
5.8926517138
 20
5.4186788139
 30
0.0
 10
5.9047653303
 20
5.4192179266
 30
0.0
 10
5.9161691397
 20
5.4197568695
 30
0.0
 10
5.9268376851
 20
5.4202955347
 30
0.0
 10
5.9367465499
 20
5.4208338636
 30
0.0
 10
5.9458731393
 20
5.421371885
 30
0.0
 10
5.9541970719
 20
5.4219094098
 30
0.0
 10
5.9606227441
 20
5.4223690145
 30
0.0
 10
5.9653477955
 20
5.4227394429
 30
0.0
 10
5.9685757227
 20
5.4230090855
 30
0.0
 10
5.971589926
 20
5.42327864
 30
0.0
 10
5.9743888943
 20
5.4235480774
 30
0.0
 10
5.9769712479
 20
5.4238173673
 30
0.0
 10
5.9793356175
 20
5.4240864672
 30
0.0
 10
5.9814806399
 20
5.4243553254
 30
0.0
 10
5.9834049849
 20
5.4246238395
 30
0.0
 10
5.9851074177
 20
5.4248919614
 30
0.0
 10
5.9863855791
 20
5.4251229556
 30
0.0
 10
5.9872956865
 20
5.4253098912
 30
0.0
 10
5.9878954203
 20
5.4254445316
 30
0.0
 10
5.9884391612
 20
5.4255790742
 30
0.0
 10
5.9889268842
 20
5.4257135064
 30
0.0
 10
5.9893585778
 20
5.4258477957
 30
0.0
 10
5.9897342971
 20
5.4259819163
 30
0.0
 10
5.9900540727
 20
5.4261158245
 30
0.0
 10
5.9902450131
 20
5.4262124733
 30
0.0
 10
5.9903301575
 20
5.4262616498
 30
0.0
 11
5.5908145793
 21
5.4089633317
 31
0.0
 11
5.6287840937
 21
5.4100440962
 31
0.0
 11
5.6664383416
 21
5.411125657
 31
0.0
 11
5.7033954809
 21
5.4122068318
 31
0.0
 11
5.7393304326
 21
5.4132878644
 31
0.0
 11
5.77392659
 21
5.4143689942
 31
0.0
 11
5.8068682771
 21
5.4154501347
 31
0.0
 11
5.8378571427
 21
5.4165312552
 31
0.0
 11
5.8666133616
 21
5.4176124005
 31
0.0
 11
5.8800728355
 21
5.4181529855
 31
0.0
 11
5.8928789628
 21
5.4186935754
 31
0.0
 11
5.9050014246
 21
5.4192341676
 31
0.0
 11
5.916413368
 21
5.4197747603
 31
0.0
 11
5.9270900032
 21
5.4203153522
 31
0.0
 11
5.9370065681
 21
5.4208559419
 31
0.0
 11
5.946139328
 21
5.4213965282
 31
0.0
 11
5.9544689524
 21
5.4219371095
 31
0.0
 11
5.9619772904
 21
5.4224776846
 31
0.0
 11
5.9654178049
 21
5.4227479693
 31
0.0
 11
5.9686462206
 21
5.423018252
 31
0.0
 11
5.9716607644
 21
5.4232885329
 31
0.0
 11
5.9744600375
 21
5.4235588126
 31
0.0
 11
5.9770426518
 21
5.4238290916
 31
0.0
 11
5.9794072191
 21
5.4240993706
 31
0.0
 11
5.9815523514
 21
5.4243696501
 31
0.0
 11
5.9834766605
 21
5.4246399307
 31
0.0
 11
5.9851787628
 21
5.4249102129
 31
0.0
 11
5.9866575975
 21
5.4251804972
 31
0.0
 11
5.9873131209
 21
5.42531564
 31
0.0
 11
5.9879126348
 21
5.4254507832
 31
0.0
 11
5.9884560793
 21
5.4255859268
 31
0.0
 11
5.9889433943
 21
5.4257210708
 31
0.0
 11
5.9893745196
 21
5.4258562151
 31
0.0
 11
5.9897493953
 21
5.4259913597
 31
0.0
 11
5.9900679613
 21
5.4261265046
 31
0.0
 11
5.9903301575
 21
5.4262616498
 31
0.0
  0
SPLINE
  5
2EB
100
AcDbEntity
  8
0
100
AcDbSpline
 62
6
  6
CONTINUOUS
 70
0
 71
3
 72
46
 73
42
 74
40
 42
0.0000001
 43
0.0000001
 44
0.0000000001
 12
-0.2505603943
 22
-0.0082878374
 32
0.0
 13
-0.0002228834
 23
-0.250697327
 33
0.0
 40
0.0
 40
0.0
 40
0.0
 40
0.0
 40
0.1062226661
 40
0.2091497294
 40
0.3080291311
 40
0.4022341517
 40
0.4912141922
 40
0.5744353263
 40
0.6513848831
 40
0.6873515811
 40
0.7215742529
 40
0.7540025225
 40
0.7845860832
 40
0.8132750502
 40
0.8400262689
 40
0.8648028314
 40
0.8875682694
 40
0.9082864183
 40
0.9269234627
 40
0.9354541007
 40
0.9434562022
 40
0.9509274237
 40
0.9578655314
 40
0.9642684392
 40
0.9701342641
 40
0.9754614104
 40
0.9802487691
 40
0.9844968881
 40
0.9882080983
 40
0.98986362
 40
0.9913866249
 40
0.9927780897
 40
0.9940393319
 40
0.9951721625
 40
0.9961791296
 40
0.9970639195
 40
0.9978320376
 40
0.9984919832
 40
0.9990572358
 40
0.9995492126
 40
1.0
 40
1.0
 40
1.0
 40
1.0
 10
5.4792753008
 20
5.4545054703
 30
0.0
 10
5.4704035698
 20
5.4542120182
 30
0.0
 10
5.4529355952
 20
5.4536269664
 30
0.0
 10
5.4272102689
 20
5.4527371766
 30
0.0
 10
5.4024898255
 20
5.4518474548
 30
0.0
 10
5.3789356443
 20
5.4509582465
 30
0.0
 10
5.3566909149
 20
5.4500696085
 30
0.0
 10
5.3358893543
 20
5.4491814749
 30
0.0
 10
5.3195163377
 20
5.4484261997
 30
0.0
 10
5.3072355898
 20
5.4478181027
 30
0.0
 10
5.298671841
 20
5.4473724552
 30
0.0
 10
5.2905585714
 20
5.446926941
 30
0.0
 10
5.2829084568
 20
5.4464815799
 30
0.0
 10
5.2757335937
 20
5.4460363466
 30
0.0
 10
5.2690449817
 20
5.4455912733
 30
0.0
 10
5.2628525302
 20
5.4451464674
 30
0.0
 10
5.2571656102
 20
5.4447020147
 30
0.0
 10
5.2519934175
 20
5.4442579912
 30
0.0
 10
5.2480097902
 20
5.4438780338
 30
0.0
 10
5.2450867757
 20
5.4435718157
 30
0.0
 10
5.243093255
 20
5.4433490483
 30
0.0
 10
5.2412336892
 20
5.443126364
 30
0.0
 10
5.2395087724
 20
5.4429037728
 30
0.0
 10
5.2379191941
 20
5.4426813004
 30
0.0
 10
5.2364656363
 20
5.4424589787
 30
0.0
 10
5.2351487681
 20
5.4422368512
 30
0.0
 10
5.2339691389
 20
5.4420149631
 30
0.0
 10
5.2329271462
 20
5.4417933592
 30
0.0
 10
5.2321464661
 20
5.4416025191
 30
0.0
 10
5.2315917498
 20
5.4414481623
 30
0.0
 10
5.2312263765
 20
5.4413368977
 30
0.0
 10
5.2308955628
 20
5.4412256959
 30
0.0
 10
5.2305993053
 20
5.4411145577
 30
0.0
 10
5.2303375816
 20
5.4410034905
 30
0.0
 10
5.230110343
 20
5.4408924891
 30
0.0
 10
5.2299174993
 20
5.4407815221
 30
0.0
 10
5.2297589025
 20
5.4406704785
 30
0.0
 10
5.2296343564
 20
5.4405590901
 30
0.0
 10
5.2295437728
 20
5.4404466819
 30
0.0
 10
5.2294877445
 20
5.4403323331
 30
0.0
 10
5.2294746817
 20
5.4402531415
 30
0.0
 10
5.2294746482
 20
5.4402154711
 30
0.0
 11
5.4792753008
 21
5.4545054703
 31
0.0
 11
5.4526605173
 21
5.4536128185
 31
0.0
 11
5.4268724409
 21
5.4527193399
 31
0.0
 11
5.4020997328
 21
5.4518259716
 31
0.0
 11
5.3784996683
 21
5.4509329018
 31
0.0
 11
5.3562104839
 21
5.4500398702
 31
0.0
 11
5.3353662851
 21
5.4491467479
 31
0.0
 11
5.3160959163
 21
5.448253594
 31
0.0
 11
5.307090223
 21
5.4478070249
 31
0.0
 11
5.298522317
 21
5.4473604618
 31
0.0
 11
5.2904049071
 21
5.4469139023
 31
0.0
 11
5.2827507026
 21
5.4464673441
 31
0.0
 11
5.275572329
 21
5.4460207846
 31
0.0
 11
5.2688807514
 21
5.4455742232
 31
0.0
 11
5.2626854043
 21
5.4451276605
 31
0.0
 11
5.2569956651
 21
5.444681097
 31
0.0
 11
5.2518209112
 21
5.4442345335
 31
0.0
 11
5.2471700418
 21
5.4437879704
 31
0.0
 11
5.2450431206
 21
5.443564689
 31
0.0
 11
5.2430494787
 21
5.4433414078
 31
0.0
 11
5.241189819
 21
5.4431181266
 31
0.0
 11
5.239464844
 21
5.4428948455
 31
0.0
 11
5.2378752564
 21
5.4426715644
 31
0.0
 11
5.2364217591
 21
5.4424482833
 31
0.0
 11
5.2351050546
 21
5.4422250022
 31
0.0
 11
5.2339258285
 21
5.4420017211
 31
0.0
 11
5.2328845051
 21
5.4417784399
 31
0.0
 11
5.2319813038
 21
5.4415551587
 31
0.0
 11
5.2315815658
 21
5.4414435181
 31
0.0
 11
5.2312164386
 21
5.4413318775
 31
0.0
 11
5.230885949
 21
5.4412202369
 31
0.0
 11
5.2305901237
 21
5.4411085962
 31
0.0
 11
5.2303289895
 21
5.4409969556
 31
0.0
 11
5.2301025732
 21
5.440885315
 31
0.0
 11
5.2299109014
 21
5.4407736743
 31
0.0
 11
5.229754001
 21
5.4406620337
 31
0.0
 11
5.2296318987
 21
5.4405503931
 31
0.0
 11
5.2295446213
 21
5.4404387524
 31
0.0
 11
5.2294921956
 21
5.4403271118
 31
0.0
 11
5.2294746482
 21
5.4402154711
 31
0.0
  0
SPLINE
  5
2EC
100
AcDbEntity
  8
0
100
AcDbSpline
 62
6
  6
CONTINUOUS
 70
0
 71
3
 72
39
 73
35
 74
33
 42
0.0000001
 43
0.0000001
 44
0.0000000001
 12
-0.2497078665
 22
-0.0082596381
 32
0.0
 13
-0.2163218771
 23
-0.1250083426
 33
0.0
 40
0.0
 40
0.0
 40
0.0
 40
0.0
 40
0.1020321321
 40
0.2010680273
 40
0.2964429002
 40
0.3875917829
 40
0.47402932
 40
0.5552814668
 40
0.6308958651
 40
0.7004305507
 40
0.7327963307
 40
0.7635019736
 40
0.7925032967
 40
0.8197568507
 40
0.8452261421
 40
0.8688789057
 40
0.8906831151
 40
0.9106070031
 40
0.9286206143
 40
0.9447030791
 40
0.9520148677
 40
0.9588376479
 40
0.965169541
 40
0.9710088209
 40
0.9763539719
 40
0.9812037771
 40
0.9855578141
 40
0.9894174225
 40
0.9927851791
 40
0.9956653771
 40
0.9969249482
 40
0.9980658315
 40
0.9990899485
 40
1.0
 40
1.0
 40
1.0
 40
1.0
 10
5.4792753008
 20
5.4455754703
 30
0.0
 10
5.4707825588
 20
5.4452945541
 30
0.0
 10
5.4540466882
 20
5.4447343163
 30
0.0
 10
5.4293731701
 20
5.4438827732
 30
0.0
 10
5.4056065811
 20
5.4430312652
 30
0.0
 10
5.3828898871
 20
5.4421801599
 30
0.0
 10
5.3613501988
 20
5.4413295824
 30
0.0
 10
5.3411052932
 20
5.4404793809
 30
0.0
 10
5.3222693747
 20
5.4396299231
 30
0.0
 10
5.3075033318
 20
5.4389064579
 30
0.0
 10
5.296475062
 20
5.4383239139
 30
0.0
 10
5.288818954
 20
5.4378976321
 30
0.0
 10
5.2815892869
 20
5.4374714929
 30
0.0
 10
5.2747965065
 20
5.4370454493
 30
0.0
 10
5.2684500839
 20
5.4366195547
 30
0.0
 10
5.2625585663
 20
5.4361938927
 30
0.0
 10
5.2571301532
 20
5.43576852
 30
0.0
 10
5.2521729021
 20
5.4353435449
 30
0.0
 10
5.2476940549
 20
5.434918932
 30
0.0
 10
5.2442646922
 20
5.4345550225
 30
0.0
 10
5.2417653296
 20
5.4342614632
 30
0.0
 10
5.2400741953
 20
5.4340484226
 30
0.0
 10
5.2385067199
 20
5.4338354815
 30
0.0
 10
5.2370635056
 20
5.4336226538
 30
0.0
 10
5.2357451476
 20
5.4334099725
 30
0.0
 10
5.2345521973
 20
5.4331974768
 30
0.0
 10
5.2334850778
 20
5.4329851901
 30
0.0
 10
5.2325439976
 20
5.4327732326
 30
0.0
 10
5.2317290789
 20
5.4325616668
 30
0.0
 10
5.2311308902
 20
5.4323786251
 30
0.0
 10
5.230716883
 20
5.4322300495
 30
0.0
 10
5.2304521541
 20
5.4321237106
 30
0.0
 10
5.2302190412
 20
5.432017446
 30
0.0
 10
5.2300764111
 20
5.4319422877
 30
0.0
 10
5.2300107898
 20
5.4319043664
 30
0.0
 11
5.4792753008
 21
5.4455754703
 31
0.0
 11
5.4537974483
 21
5.4447215034
 31
0.0
 11
5.4290686496
 21
5.4438667398
 31
0.0
 11
5.4052551025
 21
5.4430120239
 31
0.0
 11
5.3824980957
 21
5.442157606
 31
0.0
 11
5.360919064
 21
5.4413032631
 31
0.0
 11
5.3406366564
 21
5.4404488389
 31
0.0
 11
5.3217641536
 21
5.4395943684
 31
0.0
 11
5.304412325
 21
5.4387399093
 31
0.0
 11
5.2963372084
 21
5.4383126879
 31
0.0
 11
5.2886774792
 21
5.4378854693
 31
0.0
 11
5.2814442656
 21
5.4374582513
 31
0.0
 11
5.2746485324
 21
5.4370310319
 31
0.0
 11
5.2682995293
 21
5.4366038107
 31
0.0
 11
5.262405481
 21
5.4361765884
 31
0.0
 11
5.2569745987
 21
5.4357493654
 31
0.0
 11
5.2520150931
 21
5.4353221424
 31
0.0
 11
5.2475348158
 21
5.4348949198
 31
0.0
 11
5.243539478
 21
5.4344676976
 31
0.0
 11
5.2417252002
 21
5.4342540866
 31
0.0
 11
5.2400340036
 21
5.4340404757
 31
0.0
 11
5.2384665033
 21
5.4338268648
 31
0.0
 11
5.2370233146
 21
5.433613254
 31
0.0
 11
5.235705053
 21
5.4333996431
 31
0.0
 11
5.2345123336
 21
5.4331860323
 31
0.0
 11
5.2334456806
 21
5.4329724213
 31
0.0
 11
5.232505336
 21
5.4327588104
 31
0.0
 11
5.2316914871
 21
5.4325451994
 31
0.0
 11
5.2310043215
 21
5.4323315884
 31
0.0
 11
5.2307083035
 21
5.4322247829
 31
0.0
 11
5.2304440266
 21
5.4321179774
 31
0.0
 11
5.2302115142
 21
5.4320111719
 31
0.0
 11
5.2300107898
 21
5.4319043664
 31
0.0
  0
SPLINE
  5
2ED
100
AcDbEntity
  8
0
100
AcDbSpline
 62
6
  6
CONTINUOUS
 70
0
 71
3
 72
59
 73
55
 74
53
 42
0.0000001
 43
0.0000001
 44
0.0000000001
 12
-0.6540362314
 22
-0.0350419945
 32
0.0
 13
-0.0009000968
 23
-0.6549736813
 33
0.0
 40
0.0
 40
0.0
 40
0.0
 40
0.0
 40
0.0268242869
 40
0.0562563894
 40
0.0880922099
 40
0.1221291344
 40
0.158165087
 40
0.1959832744
 40
0.2353469356
 40
0.2760144912
 40
0.3602488754
 40
0.446615456
 40
0.5329881495
 40
0.5755106554
 40
0.6172410409
 40
0.6579205319
 40
0.6973003843
 40
0.7351364827
 40
0.7711965172
 40
0.8052591239
 40
0.8371125951
 40
0.8665645364
 40
0.8803310593
 40
0.8934298854
 40
0.9058419609
 40
0.9175482622
 40
0.9285298085
 40
0.9387691876
 40
0.9482523412
 40
0.9569657215
 40
0.9648958968
 40
0.9720298053
 40
0.9752949706
 40
0.9783577332
 40
0.9812172458
 40
0.9838727031
 40
0.9863233563
 40
0.9885685337
 40
0.9906076736
 40
0.9924403739
 40
0.9940665813
 40
0.995487109
 40
0.9961207412
 40
0.9967036282
 40
0.9972361508
 40
0.99771882
 40
0.9981523357
 40
0.9985376799
 40
0.9988762701
 40
0.9991702196
 40
0.9994227863
 40
0.9996391314
 40
0.9998274477
 40
1.0
 40
1.0
 40
1.0
 40
1.0
 10
5.8832941673
 20
5.2545054703
 30
0.0
 10
5.8774461488
 20
5.2541921448
 30
0.0
 10
5.8651795932
 20
5.2535718966
 30
0.0
 10
5.8459673256
 20
5.2526844638
 30
0.0
 10
5.8251788495
 20
5.2517962361
 30
0.0
 10
5.8029473909
 20
5.2509075398
 30
0.0
 10
5.7794088705
 20
5.2500184205
 30
0.0
 10
5.7547066193
 20
5.2491289474
 30
0.0
 10
5.728992562
 20
5.2482390757
 30
0.0
 10
5.6931494132
 20
5.247038363
 30
0.0
 10
5.647048197
 20
5.2455522116
 30
0.0
 10
5.5909722332
 20
5.2437878805
 30
0.0
 10
5.5439984907
 20
5.2423101734
 30
0.0
 10
5.5067658128
 20
5.2411169645
 30
0.0
 10
5.4795045059
 20
5.2402268265
 30
0.0
 10
5.452929688
 20
5.2393367874
 30
0.0
 10
5.4272055704
 20
5.2384470109
 30
0.0
 10
5.40249061
 20
5.2375574739
 30
0.0
 10
5.3789373072
 20
5.2366682837
 30
0.0
 10
5.356691115
 20
5.2357796404
 30
0.0
 10
5.3358888375
 20
5.2348914583
 30
0.0
 10
5.3195161381
 20
5.2341361841
 30
0.0
 10
5.3072357132
 20
5.2335281167
 30
0.0
 10
5.2986720563
 20
5.233082464
 30
0.0
 10
5.2905588298
 20
5.2326369431
 30
0.0
 10
5.2829085844
 20
5.2321915707
 30
0.0
 10
5.2757335346
 20
5.2317463568
 30
0.0
 10
5.2690448391
 20
5.2313012811
 30
0.0
 10
5.2628524973
 20
5.2308564668
 30
0.0
 10
5.2571656854
 20
5.2304120036
 30
0.0
 10
5.2519934443
 20
5.229967978
 30
0.0
 10
5.2480097031
 20
5.2295880475
 30
0.0
 10
5.2450866283
 20
5.2292818206
 30
0.0
 10
5.2430931727
 20
5.229059052
 30
0.0
 10
5.2412337057
 20
5.2288363659
 30
0.0
 10
5.2395088886
 20
5.2286137725
 30
0.0
 10
5.2379193783
 20
5.2283912971
 30
0.0
 10
5.2364658241
 20
5.2281689725
 30
0.0
 10
5.2351488687
 20
5.2279468386
 30
0.0
 10
5.2339690982
 20
5.227724968
 30
0.0
 10
5.2329269869
 20
5.2275033717
 30
0.0
 10
5.2321462639
 20
5.2273125263
 30
0.0
 10
5.2315915631
 20
5.2271581652
 30
0.0
 10
5.2312262274
 20
5.2270469004
 30
0.0
 10
5.2308954629
 20
5.2269356983
 30
0.0
 10
5.2305992618
 20
5.2268245596
 30
0.0
 10
5.2303375976
 20
5.2267134919
 30
0.0
 10
5.2301104174
 20
5.2266024896
 30
0.0
 10
5.2299176266
 20
5.2264915214
 30
0.0
 10
5.2297590734
 20
5.2263804762
 30
0.0
 10
5.2296345582
 20
5.226269086
 30
0.0
 10
5.2295439892
 20
5.2261566772
 30
0.0
 10
5.2294879548
 20
5.2260423322
 30
0.0
 10
5.2294748651
 20
5.2259631442
 30
0.0
 10
5.2294748133
 20
5.2259254718
 30
0.0
 11
5.8832941673
 21
5.2545054703
 31
0.0
 11
5.8657476402
 21
5.2536128185
 31
0.0
 11
5.8464910864
 21
5.2527193399
 31
0.0
 11
5.8256585887
 21
5.2518259716
 31
0.0
 11
5.8033831733
 21
5.2509329018
 31
0.0
 11
5.779797451
 21
5.2500398701
 31
0.0
 11
5.7550436169
 21
5.2491467479
 31
0.0
 11
5.7292769056
 21
5.248253594
 31
0.0
 11
5.7026556797
 21
5.2473604618
 31
0.0
 11
5.6475132463
 21
5.2455742232
 31
0.0
 11
5.5909735651
 21
5.2437879703
 31
0.0
 11
5.5344298779
 21
5.242001721
 31
0.0
 11
5.5065930534
 21
5.2411085961
 31
0.0
 11
5.4792753194
 21
5.240215471
 31
0.0
 11
5.4526462715
 21
5.239322346
 31
0.0
 11
5.426868948
 21
5.2384292211
 31
0.0
 11
5.4021033751
 21
5.2375360962
 31
0.0
 11
5.378501872
 21
5.2366429712
 31
0.0
 11
5.3562096241
 21
5.2357498463
 31
0.0
 11
5.3353655446
 21
5.2348567213
 31
0.0
 11
5.3160959665
 21
5.2339635963
 31
0.0
 11
5.3070903129
 21
5.2335170339
 31
0.0
 11
5.2985225482
 21
5.2330704714
 31
0.0
 11
5.290405232
 21
5.2326239089
 31
0.0
 11
5.2827509209
 21
5.2321773464
 31
0.0
 11
5.2755721664
 21
5.231730784
 31
0.0
 11
5.2688805202
 21
5.2312842215
 31
0.0
 11
5.2626853722
 21
5.230837659
 31
0.0
 11
5.25699583
 21
5.2303910965
 31
0.0
 11
5.2518210014
 21
5.229944534
 31
0.0
 11
5.247169863
 21
5.2294979716
 31
0.0
 11
5.2450429515
 21
5.2292746903
 31
0.0
 11
5.2430493856
 21
5.2290514091
 31
0.0
 11
5.2411898354
 21
5.2288281279
 31
0.0
 11
5.2394649707
 21
5.2286048466
 31
0.0
 11
5.2378754617
 21
5.2283815654
 31
0.0
 11
5.2364219781
 21
5.2281582841
 31
0.0
 11
5.2351051901
 21
5.2279350029
 31
0.0
 11
5.2339257676
 21
5.2277117217
 31
0.0
 11
5.2328843097
 21
5.2274884404
 31
0.0
 11
5.2319810894
 21
5.2272651592
 31
0.0
 11
5.2315813746
 21
5.2271535186
 31
0.0
 11
5.2312162865
 21
5.2270418779
 31
0.0
 11
5.2308858476
 21
5.2269302373
 31
0.0
 11
5.2305900803
 21
5.2268185967
 31
0.0
 11
5.2303290071
 21
5.2267069561
 31
0.0
 11
5.2301026504
 21
5.2265953155
 31
0.0
 11
5.2299110326
 21
5.2264836748
 31
0.0
 11
5.2297541763
 21
5.2263720342
 31
0.0
 11
5.2296321037
 21
5.2262603936
 31
0.0
 11
5.2295448374
 21
5.226148753
 31
0.0
 11
5.2294923998
 21
5.2260371124
 31
0.0
 11
5.2294748133
 21
5.2259254718
 31
0.0
  0
SPLINE
  5
2EE
100
AcDbEntity
  8
0
100
AcDbSpline
 62
6
  6
CONTINUOUS
 70
0
 71
3
 72
54
 73
50
 74
48
 42
0.0000001
 43
0.0000001
 44
0.0000000001
 12
-0.6531845951
 22
-0.0349963655
 32
0.0
 13
-0.5663152583
 23
-0.3273559058
 33
0.0
 40
0.0
 40
0.0
 40
0.0
 40
0.0
 40
0.0262492327
 40
0.055002052
 40
0.0860670615
 40
0.1192541888
 40
0.1543741494
 40
0.1912261812
 40
0.2295890698
 40
0.2692374633
 40
0.3099359203
 40
0.3514454845
 40
0.4359157787
 40
0.5206577037
 40
0.5625051296
 40
0.6036744273
 40
0.643921778
 40
0.6830102144
 40
0.7207099544
 40
0.7567967739
 40
0.7910609207
 40
0.8232973385
 40
0.853318903
 40
0.8809478698
 40
0.8938131043
 40
0.9060212665
 40
0.917554517
 40
0.9283950476
 40
0.9385261434
 40
0.9479343919
 40
0.9566070763
 40
0.9645315792
 40
0.9716954727
 40
0.9780886475
 40
0.9809940788
 40
0.9837043481
 40
0.9862187223
 40
0.9885365277
 40
0.9906571725
 40
0.9925801813
 40
0.9943052524
 40
0.9958325824
 40
0.9971631823
 40
0.9977552546
 40
0.9982988853
 40
0.9987944936
 40
0.999242644
 40
0.9996441138
 40
1.0
 40
1.0
 40
1.0
 40
1.0
 10
5.8832941673
 20
5.2455754703
 30
0.0
 10
5.8775789691
 20
5.245269261
 30
0.0
 10
5.8656015773
 20
5.2446628399
 30
0.0
 10
5.8468555387
 20
5.2437944216
 30
0.0
 10
5.8265952965
 20
5.2429252318
 30
0.0
 10
5.8049455931
 20
5.2420556372
 30
0.0
 10
5.7820331446
 20
5.2411856345
 30
0.0
 10
5.7579914118
 20
5.2403153222
 30
0.0
 10
5.7329616929
 20
5.2394446204
 30
0.0
 10
5.707092813
 20
5.2385738052
 30
0.0
 10
5.6805374596
 20
5.237702807
 30
0.0
 10
5.6442136179
 20
5.2365346106
 30
0.0
 10
5.5982905385
 20
5.2350872822
 30
0.0
 10
5.5522936869
 20
5.2336421774
 30
0.0
 10
5.5157341097
 20
5.2324758186
 30
0.0
 10
5.4888716683
 20
5.2316047817
 30
0.0
 10
5.4626111166
 20
5.2307338563
 30
0.0
 10
5.4371074898
 20
5.2298630887
 30
0.0
 10
5.4125115626
 20
5.2289926002
 30
0.0
 10
5.3889682025
 20
5.2281223105
 30
0.0
 10
5.3666169002
 20
5.2272525205
 30
0.0
 10
5.3455891072
 20
5.2263831289
 30
0.0
 10
5.3260093413
 20
5.2255144345
 30
0.0
 10
5.310651794
 20
5.2247748296
 30
0.0
 10
5.2991759813
 20
5.224179179
 30
0.0
 10
5.2912061519
 20
5.2237432456
 30
0.0
 10
5.2836784776
 20
5.2233074546
 30
0.0
 10
5.2766044816
 20
5.2228718125
 30
0.0
 10
5.2699947487
 20
5.2224362872
 30
0.0
 10
5.2638587747
 20
5.2220009908
 30
0.0
 10
5.2582052079
 20
5.2215659921
 30
0.0
 10
5.2530425331
 20
5.2211314079
 30
0.0
 10
5.2483787767
 20
5.2206972615
 30
0.0
 10
5.2448085205
 20
5.2203250925
 30
0.0
 10
5.2422073455
 20
5.2200248506
 30
0.0
 10
5.2404480744
 20
5.2198069922
 30
0.0
 10
5.2388179658
 20
5.219589237
 30
0.0
 10
5.2373176342
 20
5.2193715991
 30
0.0
 10
5.2359476846
 20
5.2191541144
 30
0.0
 10
5.2347087141
 20
5.2189368251
 30
0.0
 10
5.2336012334
 20
5.2187197923
 30
0.0
 10
5.2326256257
 20
5.2185030407
 30
0.0
 10
5.2318967265
 20
5.2183162623
 30
0.0
 10
5.231380596
 20
5.2181651292
 30
0.0
 10
5.2310419159
 20
5.2180562859
 30
0.0
 10
5.2307363281
 20
5.2179475058
 30
0.0
 10
5.2304638121
 20
5.2178387847
 30
0.0
 10
5.2302243579
 20
5.2177301354
 30
0.0
 10
5.2300780717
 20
5.2176531995
 30
0.0
 10
5.2300108905
 20
5.2176143657
 30
0.0
 11
5.8832941673
 21
5.2455754703
 31
0.0
 11
5.8661462048
 21
5.2447021611
 31
0.0
 11
5.8473586932
 21
5.2438280396
 31
0.0
 11
5.8270572108
 21
5.2429539969
 31
0.0
 11
5.80536639
 21
5.2420802535
 31
0.0
 11
5.7824102906
 21
5.2412065671
 31
0.0
 11
5.7583204277
 21
5.2403327935
 31
0.0
 11
5.7332416581
 21
5.2394589806
 31
0.0
 11
5.7073215179
 21
5.2385851849
 31
0.0
 11
5.680714128
 21
5.2377114063
 31
0.0
 11
5.653575895
 21
5.2368376273
 31
0.0
 11
5.5983497074
 21
5.2350900558
 31
0.0
 11
5.5429457516
 21
5.2333424869
 31
0.0
 11
5.5155864026
 21
5.2324687027
 31
0.0
 11
5.4886708617
 21
5.2315949181
 31
0.0
 11
5.4623587111
 21
5.2307211334
 31
0.0
 11
5.4368050616
 21
5.2298473489
 31
0.0
 11
5.4121603385
 21
5.2289735644
 31
0.0
 11
5.3885713539
 21
5.2280997799
 31
0.0
 11
5.3661754799
 21
5.2272259954
 31
0.0
 11
5.3451070595
 21
5.2263522109
 31
0.0
 11
5.3254887597
 21
5.2254784263
 31
0.0
 11
5.3074371954
 21
5.2246046418
 31
0.0
 11
5.2990331181
 21
5.2241677496
 31
0.0
 11
5.2910594575
 21
5.2237308573
 31
0.0
 11
5.2835279722
 21
5.223293965
 31
0.0
 11
5.2764504204
 21
5.2228570728
 31
0.0
 11
5.2698378705
 21
5.2224201805
 31
0.0
 11
5.2636992609
 21
5.2219832883
 31
0.0
 11
5.2580431202
 21
5.221546396
 31
0.0
 11
5.2528779772
 21
5.2211095037
 31
0.0
 11
5.2482123316
 21
5.2206726115
 31
0.0
 11
5.244053303
 21
5.2202357192
 31
0.0
 11
5.242165394
 21
5.2200172731
 31
0.0
 11
5.2404060584
 21
5.219798827
 31
0.0
 11
5.2387759237
 21
5.2195803808
 31
0.0
 11
5.237275617
 21
5.2193619347
 31
0.0
 11
5.2359057659
 21
5.2191434886
 31
0.0
 11
5.2346669978
 21
5.2189250424
 31
0.0
 11
5.2335599379
 21
5.2187065963
 31
0.0
 11
5.232585053
 21
5.2184881502
 31
0.0
 11
5.2317425376
 21
5.218269704
 31
0.0
 11
5.2313709711
 21
5.218160481
 31
0.0
 11
5.2310325601
 21
5.2180512579
 31
0.0
 11
5.2307273254
 21
5.2179420348
 31
0.0
 11
5.2304552883
 21
5.2178328118
 31
0.0
 11
5.2302164696
 21
5.2177235887
 31
0.0
 11
5.2300108905
 21
5.2176143657
 31
0.0
  0
ELLIPSE
  5
2EF
100
AcDbEntity
  8
0
100
AcDbEllipse
 62
6
  6
CONTINUOUS
 10
5.5908145793
 20
4.2833258317
 30
0.0
 11
0.0
 21
0.151534908
 31
0.0
 40
0.9238795325
 41
5.6524595001
 42
6.9139111142
  0
ENDSEC
  0
SECTION
  2
OBJECTS
  0
DICTIONARY
  5
C
100
AcDbDictionary
280
0
281
1
  3
ACAD_GROUP
350
D
  3
ACAD_MLINESTYLE
350
17
  3
ACAD_LAYOUT
350
1A
  3
ACAD_PLOTSETTINGS
350
19
  3
ACAD_PLOTSTYLENAME
350
E
  0
DICTIONARY
  5
D
102
{ACAD_REACTORS
330
C
102
}
100
AcDbDictionary
280
0
281
1
  0
ACDBDICTIONARYWDFLT
  5
E
102
{ACAD_REACTORS
330
C
102
}
100
AcDbDictionary
281
1
  3
Normal
350
F
100
AcDbDictionaryWithDefault
340
F
  0
DICTIONARY
  5
17
102
{ACAD_REACTORS
330
C
102
}
100
AcDbDictionary
280
0
281
1
  3
Standard
350
18
  0
DICTIONARY
  5
19
102
{ACAD_REACTORS
330
C
102
}
100
AcDbDictionary
281
1
  0
DICTIONARY
  5
1A
102
{ACAD_REACTORS
330
C
102
}
100
AcDbDictionary
281
1
  3
Model
350
2F0
  3
Layout1
350
2F1
  0
ACDBPLACEHOLDER
  5
F
102
{ACAD_REACTORS
330
E
102
}
  0
MLINESTYLE
  5
18
102
{ACAD_REACTORS
330
17
102
}
100
AcDbMlineStyle
  2
STANDARD
 70
0
  3

 62
256
 51
90.0
 52
90.0
 71
2
 49
0.5
 62
256
  6
BYLAYER
 49
-0.5
 62
256
  6
BYLAYER
  0
LAYOUT
  5
2F0
102
{ACAD_REACTORS
330
1A
102
}
100
AcDbPlotSettings
  1

  2
none_device
  4
ANSI_A_(11.00_x_8.50_Inches)
  6

 40
0.0
 41
0.0
 42
0.0
 43
0.0
 44
279.4
 45
215.9
 46
0.0
 47
0.0
 48
0.0
 49
0.0
140
0.0
141
0.0
142
1.0
143
1.0
 70
1024
 72
0
 73
0
 74
0
  7

 75
0
147
1.0
148
0.0
149
0.0
100
AcDbLayout
  1
Model
 70
0
 71
0
 10
0.0
 20
0.0
 11
11.0
 21
8.5
 12
0.0
 22
0.0
 32
0.0
 14
0.0
 24
0.0
 34
0.0
 15
0.0
 25
0.0
 35
0.0
146
0.0
 13
0.0
 23
0.0
 33
0.0
 16
1.0
 26
0.0
 36
0.0
 17
0.0
 27
1.0
 37
0.0
 76
0
330
203
345
0
346
0
  0
LAYOUT
  5
2F1
102
{ACAD_REACTORS
330
1A
102
}
100
AcDbPlotSettings
  1

  2
none_device
  4
ANSI_A_(11.00_x_8.50_Inches)
  6

 40
0.0
 41
0.0
 42
0.0
 43
0.0
 44
279.4
 45
215.9
 46
0.0
 47
0.0
 48
0.0
 49
0.0
140
0.0
141
0.0
142
1.0
143
1.0
 70
0
 72
0
 73
0
 74
0
  7

 75
0
147
1.0
148
0.0
149
0.0
100
AcDbLayout
  1
Layout1
 70
0
 71
1
 10
0.0
 20
0.0
 11
11.0
 21
8.5
 12
0.0
 22
0.0
 32
0.0
 14
0.0
 24
0.0
 34
0.0
 15
0.0
 25
0.0
 35
0.0
146
0.0
 13
0.0
 23
0.0
 33
0.0
 16
1.0
 26
0.0
 36
0.0
 17
0.0
 27
1.0
 37
0.0
 76
0
330
204
345
0
346
0
  0
ENDSEC
  0
EOF
