  0
SECTION
  2
HEADER
  9
$ACADVER
  1
AC1015
  9
$DWGCODEPAGE
  3
ANSI_1252
  9
$EXTMAX
 10
11.0
 20
8.5
 30
0.0
  9
$EXTMIN
 10
0.0
 20
0.0
 30
0.0
  9
$LIMMIN
 10
0.0
 20
0.0
  9
$LIMMAX
 10
11.0
 20
8.5
  9
$VIEWCTR
 10
5.5
 20
4.25
  9
$VIEWSIZE
 40
8.5
  9
$CLAYER
  8
0
  9
$LTSCALE
 40
0.605
  9
$CELTYPE
  6
BYLAYER
  9
$DIMSCALE
 40
1.0
  9
$DIMASZ
 40
0.1
  9
$DIMEXO
 40
0.06875
  9
$DIMDLI
 40
0.418
  9
$DIMEXE
 40
0.198
  9
$DIMCEN
 40
0.099
  9
$DIMLFAC
 40
1.0
  9
$DIMBLK
  1
_FILLED
  9
$DIMTXT
 40
0.08
  9
$DIMTOL
 70
1
  9
$DIMLIM
 70
0
  9
$DIMTFAC
 40
1.0
  9
$DIMTP
 40
0.01
  9
$DIMTM
 40
0.01
  9
$PDMODE
 70
3
  9
$PDSIZE
 40
0.06
  9
$HANDSEED
  5
258
  9
$TILEMODE
 70
1
  9
$MEASUREMENT
 70
0
  9
$INSUNITS
 70
1
  0
ENDSEC
  0
SECTION
  2
CLASSES
  0
CLASS
  1
ACDBDICTIONARYWDFLT
  2
AcDbDictionaryWithDefault
  3
AutoCAD 2000
 90
0
280
0
281
0
  0
CLASS
  1
ACDBPLACEHOLDER
  2
AcDbPlaceHolder
  3
AutoCAD 2000
 90
0
280
0
281
0
  0
CLASS
  1
LAYOUT
  2
AcDbLayout
  3
AutoCAD 2000
 90
0
280
0
281
0
  0
ENDSEC
  0
SECTION
  2
TABLES
  0
TABLE
  2
VPORT
  5
8
100
AcDbSymbolTable
 70
2
  0
VPORT
  5
1F4
100
AcDbSymbolTableRecord
100
AcDbViewportTableRecord
  2
*ACTIVE
 70
0
 10
0.0
 20
0.0
 11
1.0
 21
1.0
 12
5.5
 22
4.25
 13
0.0
 23
0.0
 14
1.0
 24
1.0
 15
0.0
 25
0.0
 16
0.0
 26
0.0
 36
1.0
 17
0.0
 27
0.0
 37
0.0
 40
8.5
 41
1.2941176471
 42
50.0
 43
0.0
 44
0.0
 50
0.0
 51
0.0
 71
0
 72
100
 73
1
 74
1
 75
0
 76
0
 77
0
 78
0
  0
ENDTAB
  0
TABLE
  2
LTYPE
  5
5
100
AcDbSymbolTable
 70
6
  0
LTYPE
  5
14
100
AcDbSymbolTableRecord
100
AcDbLinetypeTableRecord
  2
BYBLOCK
 70
0
  3

 72
65
 73
0
 40
0.0
  0
LTYPE
  5
15
100
AcDbSymbolTableRecord
100
AcDbLinetypeTableRecord
  2
BYLAYER
 70
0
  3

 72
65
 73
0
 40
0.0
  0
LTYPE
  5
16
100
AcDbSymbolTableRecord
100
AcDbLinetypeTableRecord
  2
CONTINUOUS
 70
64
  3
Solid line
 72
65
 73
0
 40
0.0
  0
LTYPE
  5
1F5
100
AcDbSymbolTableRecord
100
AcDbLinetypeTableRecord
  2
CENTER
 70
64
  3
____ _ ____ _ ____ _ ____ _ ____ _ ____ _ ____
 72
65
 73
4
 40
0.6
 49
0.375
 74
0
 49
-0.075
 74
0
 49
0.075
 74
0
 49
-0.075
 74
0
  0
LTYPE
  5
1F6
100
AcDbSymbolTableRecord
100
AcDbLinetypeTableRecord
  2
HIDDEN
 70
64
  3
- - - - - - - - - - - - - - - - - - - -
 72
65
 73
2
 40
0.2
 49
0.1
 74
0
 49
-0.1
 74
0
  0
LTYPE
  5
1F7
100
AcDbSymbolTableRecord
100
AcDbLinetypeTableRecord
  2
PHANTOM
 70
64
  3
_____ _ _ _____ _ _ _____ _ _ _____
 72
65
 73
6
 40
0.8
 49
0.45
 74
0
 49
-0.05
 74
0
 49
0.1
 74
0
 49
-0.05
 74
0
 49
0.1
 74
0
 49
-0.05
 74
0
  0
LTYPE
  5
1F8
100
AcDbSymbolTableRecord
100
AcDbLinetypeTableRecord
  2
DOT
 70
64
  3
. . . . . . . . . . . . . . . . . . . .
 72
65
 73
2
 40
0.2
 49
0.1
 74
0
 49
-0.1
 74
0
  0
LTYPE
  5
1F9
100
AcDbSymbolTableRecord
100
AcDbLinetypeTableRecord
  2
DASHED
 70
64
  3
- - - - - - - - - - - - - - - - - - - -
 72
65
 73
2
 40
0.2
 49
0.1
 74
0
 49
-0.1
 74
0
  0
ENDTAB
  0
TABLE
  2
LAYER
  5
2
100
AcDbSymbolTable
 70
36
  0
LAYER
  5
10
100
AcDbSymbolTableRecord
100
AcDbLayerTableRecord
  2
0
 70
0
 62
7
  6
CONTINUOUS
370
-3
390
F
  0
LAYER
  5
1FA
100
AcDbSymbolTableRecord
100
AcDbLayerTableRecord
  2
DEFAULT_1
 70
0
 62
7
  6
CENTER
370
-3
390
F
  0
LAYER
  5
1FB
100
AcDbSymbolTableRecord
100
AcDbLayerTableRecord
  2
DEFAULT_2
 70
0
 62
8
  6
HIDDEN
370
-3
390
F
  0
LAYER
  5
1FC
100
AcDbSymbolTableRecord
100
AcDbLayerTableRecord
  2
DEFAULT_3
 70
0
 62
7
  6
PHANTOM
370
-3
390
F
  0
LAYER
  5
1FD
100
AcDbSymbolTableRecord
100
AcDbLayerTableRecord
  2
DEFAULT_COORDINATE_SYSTEM
 70
0
 62
7
  6
CONTINUOUS
370
-3
390
F
  0
LAYER
  5
1FE
100
AcDbSymbolTableRecord
100
AcDbLayerTableRecord
  2
DEFAULT_DATUM_AXES
 70
0
 62
7
  6
CONTINUOUS
370
-3
390
F
  0
LAYER
  5
1FF
100
AcDbSymbolTableRecord
100
AcDbLayerTableRecord
  2
DEFAULT_DATUM_CURVES
 70
0
 62
7
  6
CONTINUOUS
370
-3
390
F
  0
LAYER
  5
200
100
AcDbSymbolTableRecord
100
AcDbLayerTableRecord
  2
DEFAULT_DATUM_PLANES
 70
0
 62
7
  6
CONTINUOUS
370
-3
390
F
  0
ENDTAB
  0
TABLE
  2
STYLE
  5
3
100
AcDbSymbolTable
 70
1
  0
STYLE
  5
11
100
AcDbSymbolTableRecord
100
AcDbTextStyleTableRecord
  2
STANDARD
 70
0
 40
0.0
 41
0.8
 50
0.0
 71
0
 42
0.2
  3
txt
  4

  0
STYLE
  5
201
100
AcDbSymbolTableRecord
100
AcDbTextStyleTableRecord
  2
TEXTSTYLE_1
 70
0
 40
0.0
 41
0.8
 50
0.0
 71
0
 42
0.2
  3
gdt
  4

  0
ENDTAB
  0
TABLE
  2
VIEW
  5
6
100
AcDbSymbolTable
 70
0
  0
ENDTAB
  0
TABLE
  2
UCS
  5
7
100
AcDbSymbolTable
 70
0
  0
ENDTAB
  0
TABLE
  2
APPID
  5
9
100
AcDbSymbolTable
 70
1
  0
APPID
  5
202
100
AcDbSymbolTableRecord
100
AcDbRegAppTableRecord
  2
ACAD
 70
0
  0
ENDTAB
  0
TABLE
  2
BLOCK_RECORD
  5
1
100
AcDbSymbolTable
 70
0
  0
BLOCK_RECORD
  5
203
100
AcDbSymbolTableRecord
100
AcDbBlockTableRecord
  2
*Model_Space
  0
BLOCK_RECORD
  5
204
100
AcDbSymbolTableRecord
100
AcDbBlockTableRecord
  2
*Paper_Space
  0
ENDTAB
  0
TABLE
  2
DIMSTYLE
  5
A
100
AcDbSymbolTable
 70
1
100
AcDbDimStyleTable
 71
0
  0
DIMSTYLE
105
205
100
AcDbSymbolTableRecord
100
AcDbDimStyleTableRecord
  2
STANDARD
 70
0
  3

  4

 40
1.0
 41
0.1
 42
0.0625
 43
0.38
 44
0.18
 45
0.0
 46
0.0
 47
0.01
 48
0.01
140
0.08
141
0.09
142
0.0
143
25.4
144
1.0
145
0.0
146
1.0
147
0.09
 71
1.0
 72
0.0
 73
1
 74
1
 75
0
 76
0
 77
0
 78
4
170
0
171
2
172
0
173
0
174
0
175
0
176
0
177
0
178
0
270
2
271
2
272
2
273
2
274
2
275
0
280
0
281
0
282
0
283
1
284
4
285
0
286
0
287
3
288
0
340
11
  0
ENDTAB
  0
ENDSEC
  0
SECTION
  2
BLOCKS
  0
BLOCK
  5
20
100
AcDbEntity
  8
0
100
AcDbBlockBegin
  2
*Model_Space
 70
0
 10
0.0
 20
0.0
 30
0.0
  3
*Model_Space
  1

  0
ENDBLK
  5
21
100
AcDbEntity
  8
0
100
AcDbBlockEnd
  0
BLOCK
  5
1C
100
AcDbEntity
  8
0
100
AcDbBlockBegin
  2
*Paper_Space
 70
0
 10
0.0
 20
0.0
 30
0.0
  3
*Paper_Space
  1

  0
ENDBLK
  5
1D
100
AcDbEntity
  8
0
100
AcDbBlockEnd
  0
ENDSEC
  0
SECTION
  2
ENTITIES
  0
LINE
  5
206
100
AcDbEntity
  8
0
100
AcDbLine
 62
6
  6
CONTINUOUS
 10
4.9556741683
 20
4.1060154841
 11
4.9556741683
 21
3.9578941346
  0
LINE
  5
207
100
AcDbEntity
  8
0
100
AcDbLine
 62
6
  6
CONTINUOUS
 10
5.0510803475
 20
3.7926457849
 11
5.3682679891
 21
3.6095174146
  0
LINE
  5
208
100
AcDbEntity
  8
0
100
AcDbLine
 62
9
  6
CONTINUOUS
 10
4.9533638052
 20
4.1091841242
 11
4.9533653104
 21
4.1091819956
  0
LINE
  5
209
100
AcDbEntity
  8
0
100
AcDbLine
 62
9
  6
CONTINUOUS
 10
5.0195772425
 20
4.7274952163
 11
5.0195778079
 21
4.727483181
  0
LINE
  5
20A
100
AcDbEntity
  8
0
100
AcDbLine
 62
9
  6
CONTINUOUS
 10
5.1074241683
 20
4.5572257982
 11
5.1074241683
 21
4.600520509
  0
LINE
  5
20B
100
AcDbEntity
  8
0
100
AcDbLine
 62
6
  6
CONTINUOUS
 10
5.1274241683
 20
4.0159559625
 11
5.1274241683
 21
4.5831967316
  0
LINE
  5
20C
100
AcDbEntity
  8
0
100
AcDbLine
 62
9
  6
CONTINUOUS
 10
5.809652884
 20
4.6003581938
 11
5.8096546388
 21
4.6003592438
  0
LINE
  5
20D
100
AcDbEntity
  8
0
100
AcDbLine
 62
9
  6
CONTINUOUS
 10
5.0990116791
 20
3.9978138836
 11
5.099013153
 21
3.9978132004
  0
LINE
  5
20E
100
AcDbEntity
  8
0
100
AcDbLine
 62
6
  6
CONTINUOUS
 10
5.2636741683
 20
4.2985225049
 11
5.2636741683
 21
4.3829889525
  0
LINE
  5
20F
100
AcDbEntity
  8
0
100
AcDbLine
 62
6
  6
CONTINUOUS
 10
5.6636741683
 20
4.2985225049
 11
5.6636741683
 21
4.3830111892
  0
LINE
  5
210
100
AcDbEntity
  8
0
100
AcDbLine
 62
9
  6
CONTINUOUS
 10
5.1176954526
 20
4.6003581938
 11
5.1176936977
 21
4.6003592438
  0
LINE
  5
211
100
AcDbEntity
  8
0
100
AcDbLine
 62
6
  6
CONTINUOUS
 10
5.7999241683
 20
4.5831967316
 11
5.7999241683
 21
4.0159559341
  0
LINE
  5
212
100
AcDbEntity
  8
0
100
AcDbLine
 62
9
  6
CONTINUOUS
 10
5.8283332419
 20
3.9978123026
 11
5.8283278262
 21
3.9978097892
  0
LINE
  5
213
100
AcDbEntity
  8
0
100
AcDbLine
 62
9
  6
CONTINUOUS
 10
5.8199241683
 20
4.6005295771
 11
5.8199241683
 21
4.5572261377
  0
LINE
  5
214
100
AcDbEntity
  8
0
100
AcDbLine
 62
9
  6
CONTINUOUS
 10
5.9077705254
 20
4.7274831121
 11
5.9077711991
 21
4.7274974541
  0
LINE
  5
215
100
AcDbEntity
  8
0
100
AcDbLine
 62
9
  6
CONTINUOUS
 10
5.9739832471
 20
4.109182308
 11
5.9739845314
 21
4.1091841242
  0
LINE
  5
216
100
AcDbEntity
  8
0
100
AcDbLine
 62
6
  6
CONTINUOUS
 10
5.9716741683
 20
3.9578941346
 11
5.9716741683
 21
4.1060090301
  0
LINE
  5
217
100
AcDbEntity
  8
0
100
AcDbLine
 62
6
  6
CONTINUOUS
 10
5.5590803475
 20
3.6095174146
 11
5.8762679891
 21
3.7926457849
  0
CIRCLE
  5
218
100
AcDbEntity
  8
0
100
AcDbCircle
 62
6
  6
CONTINUOUS
 10
5.4636741683
 20
4.1410225049
 40
1.1827746656
  0
ARC
  5
219
100
AcDbEntity
  8
0
100
AcDbCircle
 62
9
  6
CONTINUOUS
 10
5.4636741683
 20
4.1410225049
 40
0.8678216644
100
AcDbArc
 50
124.6336705038
 51
55.2414738268
  0
ARC
  5
21A
100
AcDbEntity
  8
0
100
AcDbCircle
 62
9
  6
CONTINUOUS
 10
5.4636741683
 20
4.1410225049
 40
0.8032139478
100
AcDbArc
 50
136.6894578121
 51
43.2665864461
  0
ARC
  5
21B
100
AcDbEntity
  8
0
100
AcDbCircle
 62
6
  6
CONTINUOUS
 10
5.4636741263
 20
4.4700280425
 40
0.6250000343
100
AcDbArc
 50
324.73561254
 51
35.26438746
  0
ARC
  5
21C
100
AcDbEntity
  8
0
100
AcDbCircle
 62
6
  6
CONTINUOUS
 10
5.4636742103
 20
4.4700280425
 40
0.6250000343
100
AcDbArc
 50
144.73561254
 51
215.26438746
  0
ARC
  5
21D
100
AcDbEntity
  8
0
100
AcDbCircle
 62
6
  6
CONTINUOUS
 10
5.33826512
 20
4.513861218
 40
0.5688119727
100
AcDbArc
 50
244.6739171352
 51
245.1262910096
  0
ARC
  5
21E
100
AcDbEntity
  8
0
100
AcDbCircle
 62
6
  6
CONTINUOUS
 10
5.5897428316
 20
4.5124529616
 40
0.5672569036
100
AcDbArc
 50
294.8721109639
 51
295.3267232362
  0
ARC
  5
21F
100
AcDbEntity
  8
0
100
AcDbCircle
 62
7
  6
CONTINUOUS
 10
5.4636741683
 20
4.1410225049
 40
0.54
100
AcDbArc
 50
259.8236714717
 51
280.1763285283
  0
ARC
  5
220
100
AcDbEntity
  8
0
100
AcDbCircle
 62
7
  6
CONTINUOUS
 10
5.4636741683
 20
4.1410225049
 40
0.54
100
AcDbArc
 50
199.8236714717
 51
220.1763285283
  0
ARC
  5
221
100
AcDbEntity
  8
0
100
AcDbCircle
 62
7
  6
CONTINUOUS
 10
5.4636741683
 20
4.1410225049
 40
0.54
100
AcDbArc
 50
319.8236714717
 51
340.1763285283
  0
ARC
  5
222
100
AcDbEntity
  8
0
100
AcDbCircle
 62
6
  6
CONTINUOUS
 10
5.4636741683
 20
4.1410225049
 40
0.4
100
AcDbArc
 50
200.1549103013
 51
339.8451334661
  0
ARC
  5
223
100
AcDbEntity
  8
0
100
AcDbCircle
 62
6
  6
CONTINUOUS
 10
5.4636741683
 20
4.8477797819
 40
0.2
100
AcDbArc
 50
52.8644528874
 51
127.1243718111
  0
ARC
  5
224
100
AcDbEntity
  8
0
100
AcDbCircle
 62
9
  6
CONTINUOUS
 10
5.7960276106
 20
4.7327389326
 40
0.1118659256
100
AcDbArc
 50
354.0461266373
 51
357.3070720618
  0
ARC
  5
225
100
AcDbEntity
  8
0
100
AcDbCircle
 62
9
  6
CONTINUOUS
 10
5.1311915989
 20
4.7327287184
 40
0.1117364612
100
AcDbArc
 50
182.6907716905
 51
186.1685046803
  0
ARC
  5
226
100
AcDbEntity
  8
0
100
AcDbCircle
 62
6
  6
CONTINUOUS
 10
5.8199242239
 20
4.0159586679
 40
0.0200000556
100
AcDbArc
 50
180.0002505518
 51
294.8274049088
  0
ARC
  5
227
100
AcDbEntity
  8
0
100
AcDbCircle
 62
6
  6
CONTINUOUS
 10
5.1074241411
 20
4.0159586367
 40
0.0200000272
100
AcDbArc
 50
245.1307885402
 51
359.9998387895
  0
ARC
  5
228
100
AcDbEntity
  8
0
100
AcDbCircle
 62
6
  6
CONTINUOUS
 10
5.1074242061
 20
4.5831971783
 40
0.019999941
100
AcDbArc
 50
359.9999776423
 51
59.1044120085
  0
ARC
  5
229
100
AcDbEntity
  8
0
100
AcDbCircle
 62
6
  6
CONTINUOUS
 10
5.8199241305
 20
4.5831971783
 40
0.019999941
100
AcDbArc
 50
120.8955879915
 51
180.0000223577
  0
ARC
  5
22A
100
AcDbEntity
  8
0
100
AcDbCircle
 62
9
  6
CONTINUOUS
 10
5.8252880612
 20
4.0043726666
 40
0.007232702
100
AcDbArc
 50
290.8873577846
 51
294.8748129208
  0
SPLINE
  5
22B
100
AcDbEntity
  8
0
100
AcDbSpline
 62
6
  6
CONTINUOUS
 70
0
 71
3
 72
24
 73
20
 74
18
 42
0.0000001
 43
0.0000001
 44
0.0000000001
 12
0.0078352943
 22
-0.1668547011
 32
0.0
 13
0.1433276373
 23
-0.0857850309
 33
0.0
 40
0.0
 40
0.0
 40
0.0
 40
0.0
 40
0.0488247799
 40
0.0982837482
 40
0.1487582821
 40
0.2006001212
 40
0.227134138
 40
0.254122374
 40
0.3095733922
 40
0.3671758797
 40
0.4271069702
 40
0.4894981672
 40
0.5544498678
 40
0.6220289069
 40
0.6922759763
 40
0.7652075532
 40
0.8408219852
 40
0.9191005114
 40
1.0
 40
1.0
 40
1.0
 40
1.0
 10
5.0195770588
 20
4.7274939452
 30
0.0
 10
5.0197045777
 20
4.7247783972
 30
0.0
 10
5.0201935081
 20
4.7193202439
 30
0.0
 10
5.0216199811
 20
4.711152037
 30
0.0
 10
5.023752315
 20
4.7029652852
 30
0.0
 10
5.0261066077
 20
4.6961800557
 30
0.0
 10
5.0283409263
 20
4.6907543372
 30
0.0
 10
5.0308587713
 20
4.6852324649
 30
0.0
 10
5.0344815166
 20
4.6783196174
 30
0.0
 10
5.0395323911
 20
4.6701103147
 30
0.0
 10
5.0453290201
 20
4.6619313092
 30
0.0
 10
5.0518708445
 20
4.6538035408
 30
0.0
 10
5.0591538276
 20
4.6457492929
 30
0.0
 10
5.0671701851
 20
4.6377912372
 30
0.0
 10
5.0759088017
 20
4.6299519594
 30
0.0
 10
5.0853559799
 20
4.6222536878
 30
0.0
 10
5.0954953419
 20
4.6147172808
 30
0.0
 10
5.106308354
 20
4.607363642
 30
0.0
 10
5.1138304084
 20
4.6026715155
 30
0.0
 10
5.1176954526
 20
4.6003581938
 30
0.0
 11
5.0195770588
 21
4.7274939452
 31
0.0
 11
5.0203022778
 21
4.719370632
 31
0.0
 11
5.0217194172
 21
4.7112315282
 31
0.0
 11
5.0238382393
 21
4.7030709141
 31
0.0
 11
5.0266696354
 21
4.6948872942
 31
0.0
 11
5.0283562806
 21
4.6907885552
 31
0.0
 11
5.0302255534
 21
4.686686291
 31
0.0
 11
5.0345164119
 21
4.6784776569
 31
0.0
 11
5.0395496152
 21
4.6702772538
 31
0.0
 11
5.0453294796
 21
4.6621035548
 31
0.0
 11
5.0518557361
 21
4.653978251
 31
0.0
 11
5.0591247085
 21
4.6459239126
 31
0.0
 11
5.0671286668
 21
4.6379638559
 31
0.0
 11
5.0758566272
 21
4.6301211041
 31
0.0
 11
5.0852946634
 21
4.6224182472
 31
0.0
 11
5.0954264892
 21
4.6148766093
 31
0.0
 11
5.1062339249
 21
4.6075166571
 31
0.0
 11
5.1176954526
 21
4.6003581938
 31
0.0
  0
SPLINE
  5
22C
100
AcDbEntity
  8
0
100
AcDbSpline
 62
6
  6
CONTINUOUS
 70
0
 71
3
 72
24
 73
20
 74
18
 42
0.0000001
 43
0.0000001
 44
0.0000000001
 12
0.1433293004
 22
0.0857860263
 32
0.0
 13
0.0078330598
 23
0.1668567464
 33
0.0
 40
0.0
 40
0.0
 40
0.0
 40
0.0
 40
0.0808998584
 40
0.1591781289
 40
0.234792633
 40
0.3077243981
 40
0.3779715429
 40
0.445550644
 40
0.5105023609
 40
0.572893589
 40
0.632824591
 40
0.6904270859
 40
0.7458778824
 40
0.7728662588
 40
0.7994001866
 40
0.8512416817
 40
0.9017163876
 40
0.9511750183
 40
1.0
 40
1.0
 40
1.0
 40
1.0
 10
5.809652884
 20
4.6003581938
 30
0.0
 10
5.8135179907
 20
4.6026715529
 30
0.0
 10
5.8210401385
 20
4.6073637364
 30
0.0
 10
5.8318532761
 20
4.6147174791
 30
0.0
 10
5.8419927434
 20
4.6222539905
 30
0.0
 10
5.8514400345
 20
4.6299523776
 30
0.0
 10
5.8601787361
 20
4.6377917918
 30
0.0
 10
5.8681951686
 20
4.6457499708
 30
0.0
 10
5.8754781861
 20
4.6538043655
 30
0.0
 10
5.8820200503
 20
4.6619322553
 30
0.0
 10
5.887816657
 20
4.6701114157
 30
0.0
 10
5.8928675319
 20
4.6783208301
 30
0.0
 10
5.8964902193
 20
4.6852338065
 30
0.0
 10
5.8990080233
 20
4.6907557641
 30
0.0
 10
5.9012423062
 20
4.6961815534
 30
0.0
 10
5.9035965143
 20
4.702966887
 30
0.0
 10
5.9057287113
 20
4.711153744
 30
0.0
 10
5.9071551238
 20
4.7193220647
 30
0.0
 10
5.9076438659
 20
4.724780291
 30
0.0
 10
5.9077713489
 20
4.7274958835
 30
0.0
 11
5.809652884
 21
4.6003581938
 31
0.0
 11
5.8211145959
 21
4.6075167748
 31
0.0
 11
5.8319221139
 21
4.6148767997
 31
0.0
 11
5.8420540555
 21
4.6224185478
 31
0.0
 11
5.8514922108
 21
4.6301215321
 31
0.0
 11
5.8602202558
 21
4.6379644123
 31
0.0
 11
5.8682242839
 21
4.6459245992
 31
0.0
 11
5.8754932965
 21
4.6539790746
 31
0.0
 11
5.8820195847
 21
4.6621045147
 31
0.0
 11
5.8877994349
 21
4.6702783479
 31
0.0
 11
5.8928326299
 21
4.6784788885
 31
0.0
 11
5.8971234194
 21
4.6866876382
 31
0.0
 11
5.8989926747
 21
4.6907899936
 31
0.0
 11
5.900679288
 21
4.6948887853
 31
0.0
 11
5.9035105749
 21
4.7030724885
 31
0.0
 11
5.905629292
 21
4.7112332607
 31
0.0
 11
5.9070463128
 21
4.7193724252
 31
0.0
 11
5.9077713489
 21
4.7274958835
 31
0.0
  0
SPLINE
  5
22D
100
AcDbEntity
  8
0
100
AcDbSpline
 62
6
  6
CONTINUOUS
 70
0
 71
3
 72
32
 73
28
 74
26
 42
0.0000001
 43
0.0000001
 44
0.0000000001
 12
0.5420170652
 22
-0.0089770933
 32
0.0
 13
0.3129766164
 23
-0.4426157756
 33
0.0
 40
0.0
 40
0.0
 40
0.0
 40
0.0
 40
0.0739276782
 40
0.1474216364
 40
0.2201863401
 40
0.2919350094
 40
0.3623933475
 40
0.4313035167
 40
0.4651051753
 40
0.4984327672
 40
0.5312606528
 40
0.5635650429
 40
0.5953241928
 40
0.6265185925
 40
0.657131084
 40
0.6871472395
 40
0.7165552767
 40
0.7453466231
 40
0.7735156885
 40
0.8010606019
 40
0.8279829241
 40
0.8542885338
 40
0.8799869793
 40
0.9050918488
 40
0.9296215125
 40
0.9536006679
 40
1.0
 40
1.0
 40
1.0
 40
1.0
 10
5.4813506587
 20
5.0138270539
 30
0.0
 10
5.4947073465
 20
5.0136058353
 30
0.0
 10
5.5213368511
 20
5.0126647084
 30
0.0
 10
5.5610265251
 20
5.0097543797
 30
0.0
 10
5.6001843846
 20
5.0053628325
 30
0.0
 10
5.6385967031
 20
4.9995128004
 30
0.0
 10
5.6760550509
 20
4.9922343452
 30
0.0
 10
5.7065011182
 20
4.9849630988
 30
0.0
 10
5.7302059159
 20
4.9784483091
 30
0.0
 10
5.7475088294
 20
4.9732612485
 30
0.0
 10
5.7644263997
 20
4.9677484257
 30
0.0
 10
5.780936422
 20
4.9619163409
 30
0.0
 10
5.797017213
 20
4.9557717452
 30
0.0
 10
5.8126478319
 20
4.9493216878
 30
0.0
 10
5.8278079853
 20
4.9425732443
 30
0.0
 10
5.8424781543
 20
4.9355337966
 30
0.0
 10
5.8566394601
 20
4.9282105907
 30
0.0
 10
5.8702737956
 20
4.9206111382
 30
0.0
 10
5.883363636
 20
4.9127426926
 30
0.0
 10
5.8958921855
 20
4.9046127096
 30
0.0
 10
5.9078431506
 20
4.8962282834
 30
0.0
 10
5.9192007605
 20
4.8875965946
 30
0.0
 10
5.9299495639
 20
4.8787245433
 30
0.0
 10
5.9400742153
 20
4.8696194568
 30
0.0
 10
5.9495604767
 20
4.8602872308
 30
0.0
 10
5.9612059642
 20
4.8476928655
 30
0.0
 10
5.9691438961
 20
4.8377176528
 30
0.0
 10
5.9739845314
 20
4.8308719607
 30
0.0
 11
5.4813506587
 21
5.0138270539
 31
0.0
 11
5.5214011067
 21
5.0124085982
 31
0.0
 11
5.5611344241
 21
5.0094889451
 31
0.0
 11
5.6003327457
 21
5.0050833705
 31
0.0
 11
5.6387817895
 21
4.9992147718
 31
0.0
 11
5.676272275
 21
4.9919133494
 31
0.0
 11
5.7126013332
 21
4.9832161575
 31
0.0
 11
5.7302690142
 21
4.97835746
 31
0.0
 11
5.7475738169
 21
4.9731665182
 31
0.0
 11
5.7644927724
 21
4.967649599
 31
0.0
 11
5.7810035263
 21
4.9618132668
 31
0.0
 11
5.7970843718
 21
4.9556643214
 31
0.0
 11
5.8127143009
 21
4.9492098101
 31
0.0
 11
5.8278729563
 21
4.9424569215
 31
0.0
 11
5.8425407787
 21
4.9354130099
 31
0.0
 11
5.8566988077
 21
4.9280854858
 31
0.0
 11
5.870328912
 21
4.9204818287
 31
0.0
 11
5.8834134758
 21
4.9126095072
 31
0.0
 11
5.895935691
 21
4.9044759598
 31
0.0
 11
5.9078791616
 21
4.8960885386
 31
0.0
 11
5.9192282048
 21
4.8874544147
 31
0.0
 11
5.9299673233
 21
4.8785807748
 31
0.0
 11
5.9400812621
 21
4.8694749103
 31
0.0
 11
5.9495549754
 21
4.8601439153
 31
0.0
 11
5.9583739531
 21
4.8505942097
 31
0.0
 11
5.9739845314
 21
4.8308719607
 31
0.0
  0
SPLINE
  5
22E
100
AcDbEntity
  8
0
100
AcDbSpline
 62
6
  6
CONTINUOUS
 70
0
 71
3
 72
32
 73
28
 74
26
 42
0.0000001
 43
0.0000001
 44
0.0000000001
 12
0.3129766195
 22
0.44261578
 32
0.0
 13
0.5420170727
 23
0.0089769644
 33
0.0
 40
0.0
 40
0.0
 40
0.0
 40
0.0
 40
0.0463993121
 40
0.0703784556
 40
0.0949081512
 40
0.1200130399
 40
0.1457115
 40
0.1720171346
 40
0.1989394844
 40
0.2264844209
 40
0.2546535106
 40
0.2834448726
 40
0.3128529301
 40
0.3428690944
 40
0.3734816025
 40
0.4046760049
 40
0.4364351678
 40
0.4687395567
 40
0.5015674507
 40
0.5348950366
 40
0.5686966985
 40
0.637606855
 40
0.7080651702
 40
0.7798138073
 40
0.8525784702
 40
0.9260723789
 40
1.0
 40
1.0
 40
1.0
 40
1.0
 10
4.9533638052
 20
4.8308719607
 30
0.0
 10
4.9582044385
 20
4.8377176499
 30
0.0
 10
4.9661423658
 20
4.8476928592
 30
0.0
 10
4.9777878554
 20
4.8602872227
 30
0.0
 10
4.9872741192
 20
4.8696194565
 30
0.0
 10
4.9973987799
 20
4.8787245506
 30
0.0
 10
5.0081475928
 20
4.8875966074
 30
0.0
 10
5.019505213
 20
4.8962283029
 30
0.0
 10
5.03145619
 20
4.9046127361
 30
0.0
 10
5.0439847519
 20
4.9127427252
 30
0.0
 10
5.0570746041
 20
4.9206111736
 30
0.0
 10
5.0707089494
 20
4.9282106313
 30
0.0
 10
5.0848702652
 20
4.9355338357
 30
0.0
 10
5.0995404412
 20
4.9425732883
 30
0.0
 10
5.1147006027
 20
4.9493217265
 30
0.0
 10
5.1303312259
 20
4.9557717893
 30
0.0
 10
5.1464120231
 20
4.9619163766
 30
0.0
 10
5.1629220473
 20
4.9677484673
 30
0.0
 10
5.1798396214
 20
4.9732612798
 30
0.0
 10
5.1971425344
 20
4.978448346
 30
0.0
 10
5.2208473332
 20
4.9849631229
 30
0.0
 10
5.2512933948
 20
4.9922343682
 30
0.0
 10
5.2887517321
 20
4.9995128154
 30
0.0
 10
5.3271640343
 20
5.0053628418
 30
0.0
 10
5.3663218725
 20
5.0097543843
 30
0.0
 10
5.4060115204
 20
5.0126647076
 30
0.0
 10
5.432641006
 20
5.0136058381
 30
0.0
 10
5.4459976836
 20
5.0138270533
 30
0.0
 11
4.9533638052
 21
4.8308719607
 31
0.0
 11
4.9689743766
 21
4.8505942016
 31
0.0
 11
4.9777933505
 21
4.8601439021
 31
0.0
 11
4.9872670747
 21
4.8694749109
 31
0.0
 11
4.9973810213
 21
4.8785807824
 31
0.0
 11
5.0081201469
 21
4.8874544263
 31
0.0
 11
5.0194692017
 21
4.8960885577
 31
0.0
 11
5.0314126853
 21
4.9044759866
 31
0.0
 11
5.0439349121
 21
4.9126095393
 31
0.0
 11
5.0570194888
 21
4.9204818653
 31
0.0
 11
5.0706496015
 21
4.9280855251
 31
0.0
 11
5.0848076421
 21
4.935413051
 31
0.0
 11
5.0994754695
 21
4.9424569635
 31
0.0
 11
5.1146341353
 21
4.9492098515
 31
0.0
 11
5.1302640661
 21
4.9556643628
 31
0.0
 11
5.1463449203
 21
4.9618133058
 31
0.0
 11
5.1628556738
 21
4.9676496376
 31
0.0
 11
5.1797746356
 21
4.9731665529
 31
0.0
 11
5.1970794352
 21
4.978357494
 31
0.0
 11
5.2147471197
 21
4.9832161865
 31
0.0
 11
5.2510761727
 21
4.9919133719
 31
0.0
 11
5.2885666472
 21
4.9992147877
 31
0.0
 11
5.3270156747
 21
5.0050833803
 31
0.0
 11
5.3662139751
 21
5.0094889498
 31
0.0
 11
5.4059472661
 21
5.0124085992
 31
0.0
 11
5.4459976836
 21
5.0138270533
 31
0.0
  0
SPLINE
  5
22F
100
AcDbEntity
  8
0
100
AcDbSpline
 62
6
  6
CONTINUOUS
 70
0
 71
3
 72
39
 73
35
 74
33
 42
0.0000001
 43
0.0000001
 44
0.0000000001
 12
-0.5894119281
 22
0.3799046757
 32
0.0
 13
-0.5894234081
 23
-0.3798868642
 33
0.0
 40
0.0
 40
0.0
 40
0.0
 40
0.0
 40
0.0251893252
 40
0.0514619789
 40
0.0787773497
 40
0.1070872559
 40
0.1363370305
 40
0.1664663553
 40
0.1974098861
 40
0.2290978977
 40
0.2614568738
 40
0.2944099946
 40
0.3278775488
 40
0.3617774234
 40
0.3960255244
 40
0.4305361739
 40
0.4652225128
 40
0.4999969109
 40
0.5347713369
 40
0.5694577567
 40
0.6039685389
 40
0.6382168283
 40
0.6721169432
 40
0.7055847857
 40
0.7385382451
 40
0.7708976105
 40
0.8025860546
 40
0.8335300595
 40
0.8636599026
 40
0.8929102323
 40
0.9212207255
 40
0.9485367127
 40
0.9748100119
 40
1.0
 40
1.0
 40
1.0
 40
1.0
 10
5.8001673622
 20
4.3259610209
 30
0.0
 10
5.7952183993
 20
4.3291508683
 30
0.0
 10
5.7849271179
 20
4.3353911556
 30
0.0
 10
5.7687208161
 20
4.3441472698
 30
0.0
 10
5.7514702276
 20
4.3524617987
 30
0.0
 10
5.7332380328
 20
4.3602981598
 30
0.0
 10
5.71408913
 20
4.3676235677
 30
0.0
 10
5.6940912686
 20
4.3744081844
 30
0.0
 10
5.6733145195
 20
4.3806253332
 30
0.0
 10
5.6518310159
 20
4.3862511091
 30
0.0
 10
5.6297146889
 20
4.3912642592
 30
0.0
 10
5.6070410892
 20
4.395646161
 30
0.0
 10
5.5838872035
 20
4.3993808808
 30
0.0
 10
5.5603312152
 20
4.4024549351
 30
0.0
 10
5.5364523107
 20
4.4048572594
 30
0.0
 10
5.5123305006
 20
4.4065793241
 30
0.0
 10
5.4880464068
 20
4.4076150978
 30
0.0
 10
5.4636810544
 20
4.4079609166
 30
0.0
 10
5.4393156774
 20
4.4076154938
 30
0.0
 10
5.4150315108
 20
4.4065801018
 30
0.0
 10
5.3909095795
 20
4.4048584174
 30
0.0
 10
5.3670305037
 20
4.4024564854
 30
0.0
 10
5.3434742978
 20
4.3993828031
 30
0.0
 10
5.3203201489
 20
4.3956484421
 30
0.0
 10
5.2976462388
 20
4.391266896
 30
0.0
 10
5.2755295532
 20
4.3862541012
 30
0.0
 10
5.2540456513
 20
4.3806286508
 30
0.0
 10
5.2332684623
 20
4.3744118112
 30
0.0
 10
5.2132701153
 20
4.3676275007
 30
0.0
 10
5.1941206877
 20
4.3603023788
 30
0.0
 10
5.1758879365
 20
4.3524662717
 30
0.0
 10
5.1586367577
 20
4.3441519735
 30
0.0
 10
5.1424298213
 20
4.3353960878
 30
0.0
 10
5.1321381066
 20
4.3291559259
 30
0.0
 10
5.1271889171
 20
4.3259661441
 30
0.0
 11
5.8001673622
 21
4.3259610209
 31
0.0
 11
5.7850729329
 21
4.3351351395
 31
0.0
 11
5.7688720521
 21
4.3439073678
 31
0.0
 11
5.7516236841
 21
4.3522374952
 31
0.0
 11
5.733390349
 21
4.3600889971
 31
0.0
 11
5.714237516
 21
4.3674287286
 31
0.0
 11
5.6942332327
 21
4.3742267476
 31
0.0
 11
5.673447898
 21
4.3804562087
 31
0.0
 11
5.6519539419
 21
4.3860931168
 31
0.0
 11
5.6298255616
 21
4.3911161716
 31
0.0
 11
5.6071385404
 21
4.3955067316
 31
0.0
 11
5.5839700933
 21
4.3992488
 31
0.0
 11
5.5603986154
 21
4.4023288747
 31
0.0
 11
5.5365034914
 21
4.404735902
 31
0.0
 11
5.51236492
 21
4.4064613398
 31
0.0
 11
5.4880637091
 21
4.4074991312
 31
0.0
 11
5.46368106
 21
4.4078456124
 31
0.0
 11
5.4392983856
 21
4.4074995259
 31
0.0
 11
5.4149971016
 21
4.4064621193
 31
0.0
 11
5.3908584095
 21
4.4047370651
 31
0.0
 11
5.3669631136
 21
4.4023304257
 31
0.0
 11
5.3433914169
 21
4.399250725
 31
0.0
 11
5.3202227066
 21
4.3955090183
 31
0.0
 11
5.2975353744
 21
4.3911188157
 31
0.0
 11
5.2754066345
 21
4.3860961119
 31
0.0
 11
5.2539122786
 21
4.3804595323
 31
0.0
 11
5.2331265032
 21
4.374230384
 31
0.0
 11
5.2131217327
 21
4.3674326689
 31
0.0
 11
5.1939683738
 21
4.3600932219
 31
0.0
 11
5.1757344803
 21
4.3522419761
 31
0.0
 11
5.1584855187
 21
4.343912084
 31
0.0
 11
5.1422840042
 21
4.3351400752
 31
0.0
 11
5.1271889171
 21
4.3259661441
 31
0.0
  0
SPLINE
  5
230
100
AcDbEntity
  8
0
100
AcDbSpline
 62
6
  6
CONTINUOUS
 70
0
 71
3
 72
15
 73
11
 74
9
 42
0.0000001
 43
0.0000001
 44
0.0000000001
 12
-0.1044161493
 22
-0.147664128
 32
0.0
 13
-0.163468599
 23
-0.0773656518
 33
0.0
 40
0.0
 40
0.0
 40
0.0
 40
0.0
 40
0.1098743996
 40
0.2236098678
 40
0.3415406252
 40
0.463915944
 40
0.5909018308
 40
0.7225776973
 40
0.8589651713
 40
1.0
 40
1.0
 40
1.0
 40
1.0
 10
5.9739831725
 20
4.1091822301
 30
0.0
 10
5.9701589519
 20
4.103774061
 30
0.0
 10
5.9618792821
 20
4.0931120161
 30
0.0
 10
5.9479622261
 20
4.0779121359
 30
0.0
 10
5.9324072039
 20
4.0632714646
 30
0.0
 10
5.9152764434
 20
4.049218442
 30
0.0
 10
5.896630635
 20
4.03577949
 30
0.0
 10
5.8765320769
 20
4.0229814508
 30
0.0
 10
5.8550464169
 20
4.0108532746
 30
0.0
 10
5.8400886217
 20
4.0033561011
 30
0.0
 10
5.8324036997
 20
3.9997190173
 30
0.0
 11
5.9739831725
 21
4.1091822301
 31
0.0
 11
5.9618213782
 21
4.093467671
 31
0.0
 11
5.9479551804
 21
4.078274782
 31
0.0
 11
5.9324459193
 21
4.0636341977
 31
0.0
 11
5.9153537353
 21
4.0495745224
 31
0.0
 11
5.8967390863
 21
4.0361240321
 31
0.0
 11
5.8766654832
 21
4.0233119562
 31
0.0
 11
5.8551967903
 21
4.0111668405
 31
0.0
 11
5.8324036997
 21
3.9997190173
 31
0.0
  0
SPLINE
  5
231
100
AcDbEntity
  8
0
100
AcDbSpline
 62
6
  6
CONTINUOUS
 70
0
 71
3
 72
15
 73
11
 74
9
 42
0.0000001
 43
0.0000001
 44
0.0000000001
 12
-0.1634683935
 22
0.0773654895
 32
0.0
 13
-0.1044163108
 23
0.1476637013
 33
0.0
 40
0.0
 40
0.0
 40
0.0
 40
0.0
 40
0.1410348796
 40
0.2774223603
 40
0.409098291
 40
0.536084152
 40
0.6584594405
 40
0.7763901675
 40
0.8901256003
 40
1.0
 40
1.0
 40
1.0
 40
1.0
 10
5.0949447715
 20
3.9997189533
 30
0.0
 10
5.0872598564
 20
4.0033560308
 30
0.0
 10
5.072302077
 20
4.0108531911
 30
0.0
 10
5.050816437
 20
4.0229813466
 30
0.0
 10
5.0307178974
 20
4.0357793571
 30
0.0
 10
5.012072107
 20
4.0492182794
 30
0.0
 10
4.9949413628
 20
4.0632712642
 30
0.0
 10
4.9793863514
 20
4.0779118943
 30
0.0
 10
4.9654692958
 20
4.09311173
 30
0.0
 10
4.9571896244
 20
4.1037737466
 30
0.0
 10
4.953365398
 20
4.1091819001
 30
0.0
 11
5.0949447715
 21
3.9997189533
 31
0.0
 11
5.0721517013
 21
4.0111667576
 31
0.0
 11
5.0506830332
 21
4.0233118488
 31
0.0
 11
5.0306094416
 21
4.0361239018
 31
0.0
 11
5.011994814
 21
4.0495743585
 31
0.0
 11
4.9949026465
 21
4.0636339961
 31
0.0
 11
4.9793933953
 21
4.0782745391
 31
0.0
 11
4.9655272006
 21
4.0934673829
 31
0.0
 11
4.953365398
 21
4.1091819001
 31
0.0
  0
SPLINE
  5
232
100
AcDbEntity
  8
0
100
AcDbSpline
 62
7
  6
CONTINUOUS
 70
0
 71
3
 72
38
 73
34
 74
32
 42
0.0000001
 43
0.0000001
 44
0.0000000001
 12
0.0
 22
-0.2934577049
 32
0.0
 13
0.2934577049
 23
0.0
 33
0.0
 40
0.0
 40
0.0
 40
0.0
 40
0.0
 40
0.0289725
 40
0.0579679046
 40
0.0870094766
 40
0.1161198917
 40
0.1453203521
 40
0.1746310395
 40
0.2040715389
 40
0.2336599752
 40
0.2634119635
 40
0.2933413419
 40
0.3234607098
 40
0.3537809163
 40
0.3843095999
 40
0.4150521782
 40
0.4460125286
 40
0.4771930621
 40
0.5085931984
 40
0.5402100312
 40
0.5720391533
 40
0.6040749398
 40
0.6363085707
 40
0.6687284706
 40
0.7013216759
 40
0.7340745049
 40
0.7669742259
 40
0.800008363
 40
0.8331635972
 40
0.866426174
 40
0.8997760303
 40
0.9331806363
 40
1.0
 40
1.0
 40
1.0
 40
1.0
 10
5.2636751791
 20
4.2985225049
 30
0.0
 10
5.2636751791
 20
4.2956884371
 30
0.0
 10
5.2638356818
 20
4.2900167549
 30
0.0
 10
5.2645577476
 20
4.2815318842
 30
0.0
 10
5.2657614739
 20
4.2730879551
 30
0.0
 10
5.2674423631
 20
4.2647056142
 30
0.0
 10
5.269595363
 20
4.2564047772
 30
0.0
 10
5.2722154373
 20
4.248205458
 30
0.0
 10
5.2752980796
 20
4.2401280135
 30
0.0
 10
5.2788353155
 20
4.2321918675
 30
0.0
 10
5.2828171235
 20
4.2244155303
 30
0.0
 10
5.2872338911
 20
4.2168176676
 30
0.0
 10
5.2920761997
 20
4.2094172236
 30
0.0
 10
5.2973328808
 20
4.2022324861
 30
0.0
 10
5.3029895758
 20
4.1952796327
 30
0.0
 10
5.3090324642
 20
4.1885752325
 30
0.0
 10
5.3154476118
 20
4.1821358589
 30
0.0
 10
5.322220662
 20
4.1759781487
 30
0.0
 10
5.3293340037
 20
4.1701155695
 30
0.0
 10
5.3367702307
 20
4.1645618046
 30
0.0
 10
5.3445117894
 20
4.1593304293
 30
0.0
 10
5.352541115
 20
4.1544356408
 30
0.0
 10
5.3608379692
 20
4.1498881439
 30
0.0
 10
5.3693815759
 20
4.1456979419
 30
0.0
 10
5.3781511798
 20
4.1418751799
 30
0.0
 10
5.3871262882
 20
4.1384303959
 30
0.0
 10
5.3962856639
 20
4.1353717925
 30
0.0
 10
5.4056076978
 20
4.132705404
 30
0.0
 10
5.4150711245
 20
4.1304375523
 30
0.0
 10
5.4246539518
 20
4.1285749706
 30
0.0
 10
5.4343324968
 20
4.1271230056
 30
0.0
 10
5.4473274209
 20
4.1257364232
 30
0.0
 10
5.4571379493
 20
4.1253174241
 30
0.0
 10
5.4636741683
 20
4.1253174241
 30
0.0
 11
5.2636751791
 21
4.2985225049
 31
0.0
 11
5.263915694
 21
4.2900237041
 31
0.0
 11
5.2646372388
 21
4.2815454274
 31
0.0
 11
5.2658392786
 21
4.2731081502
 31
0.0
 11
5.2675180748
 21
4.2647320562
 31
0.0
 11
5.2696687003
 21
4.2564372213
 31
0.0
 11
5.2722862265
 21
4.248243721
 31
0.0
 11
5.275365555
 21
4.240171583
 31
0.0
 11
5.2788990537
 21
4.2322401211
 31
0.0
 11
5.2828771391
 21
4.224468099
 31
0.0
 11
5.287290178
 21
4.2168742664
 31
0.0
 11
5.2921285103
 21
4.2094773596
 31
0.0
 11
5.2973808764
 21
4.2022953206
 31
0.0
 11
5.3030335374
 21
4.1953448596
 31
0.0
 11
5.309072541
 21
4.1886425809
 31
0.0
 11
5.3154839351
 21
4.1822050886
 31
0.0
 11
5.3222530443
 21
4.1760484068
 31
0.0
 11
5.3293628243
 21
4.1701866578
 31
0.0
 11
5.336795746
 21
4.1646335749
 31
0.0
 11
5.3445342801
 21
4.1594028913
 31
0.0
 11
5.3525606156
 21
4.1545080441
 31
0.0
 11
5.360854858
 21
4.1499602812
 31
0.0
 11
5.3693961786
 21
4.1457698692
 31
0.0
 11
5.3781637447
 21
4.1419470701
 31
0.0
 11
5.3871367092
 21
4.138502047
 31
0.0
 11
5.3962939488
 21
4.1354430038
 31
0.0
 11
5.4056140859
 21
4.1327763495
 31
0.0
 11
5.4150757342
 21
4.1305084262
 31
0.0
 11
5.4246574863
 21
4.1286455629
 31
0.0
 11
5.4343358209
 21
4.1271927202
 31
0.0
 11
5.4440832933
 21
4.1261523193
 31
0.0
 11
5.4636741683
 21
4.1253174241
 31
0.0
  0
SPLINE
  5
233
100
AcDbEntity
  8
0
100
AcDbSpline
 62
7
  6
CONTINUOUS
 70
0
 71
3
 72
38
 73
34
 74
32
 42
0.0000001
 43
0.0000001
 44
0.0000000001
 12
0.2934577049
 22
0.0
 32
0.0
 13
0.0
 23
0.2934577049
 33
0.0
 40
0.0
 40
0.0
 40
0.0
 40
0.0
 40
0.0668193637
 40
0.1002239697
 40
0.133573826
 40
0.1668364028
 40
0.199991637
 40
0.2330257741
 40
0.2659254951
 40
0.2986783241
 40
0.3312715294
 40
0.3636914293
 40
0.3959250602
 40
0.4279608467
 40
0.4597899688
 40
0.4914068016
 40
0.5228069379
 40
0.5539874714
 40
0.5849478218
 40
0.6156904001
 40
0.6462190837
 40
0.6765392902
 40
0.7066586581
 40
0.7365880365
 40
0.7663400248
 40
0.7959284611
 40
0.8253689605
 40
0.8546796479
 40
0.8838801083
 40
0.9129905234
 40
0.9420320954
 40
0.9710275
 40
1.0
 40
1.0
 40
1.0
 40
1.0
 10
5.4636741683
 20
4.1253174241
 30
0.0
 10
5.4702103873
 20
4.1253174241
 30
0.0
 10
5.4800209157
 20
4.1257364232
 30
0.0
 10
5.4930158398
 20
4.1271230056
 30
0.0
 10
5.5026943848
 20
4.1285749706
 30
0.0
 10
5.5122772121
 20
4.1304375523
 30
0.0
 10
5.5217406388
 20
4.132705404
 30
0.0
 10
5.5310626727
 20
4.1353717925
 30
0.0
 10
5.5402220484
 20
4.1384303959
 30
0.0
 10
5.5491971568
 20
4.1418751799
 30
0.0
 10
5.5579667607
 20
4.1456979419
 30
0.0
 10
5.5665103674
 20
4.1498881439
 30
0.0
 10
5.5748072216
 20
4.1544356408
 30
0.0
 10
5.5828365472
 20
4.1593304293
 30
0.0
 10
5.5905781059
 20
4.1645618046
 30
0.0
 10
5.5980143329
 20
4.1701155695
 30
0.0
 10
5.6051276746
 20
4.1759781487
 30
0.0
 10
5.6119007248
 20
4.1821358589
 30
0.0
 10
5.6183158724
 20
4.1885752325
 30
0.0
 10
5.6243587607
 20
4.1952796327
 30
0.0
 10
5.6300154557
 20
4.2022324861
 30
0.0
 10
5.6352721369
 20
4.2094172236
 30
0.0
 10
5.6401144455
 20
4.2168176676
 30
0.0
 10
5.6445312131
 20
4.2244155303
 30
0.0
 10
5.6485130211
 20
4.2321918675
 30
0.0
 10
5.652050257
 20
4.2401280135
 30
0.0
 10
5.6551328993
 20
4.248205458
 30
0.0
 10
5.6577529736
 20
4.2564047772
 30
0.0
 10
5.6599059735
 20
4.2647056142
 30
0.0
 10
5.6615868627
 20
4.2730879551
 30
0.0
 10
5.662790589
 20
4.2815318842
 30
0.0
 10
5.6635126548
 20
4.2900167549
 30
0.0
 10
5.6636731575
 20
4.2956884371
 30
0.0
 10
5.6636731575
 20
4.2985225049
 30
0.0
 11
5.4636741683
 21
4.1253174241
 31
0.0
 11
5.4832650433
 21
4.1261523193
 31
0.0
 11
5.4930125157
 21
4.1271927202
 31
0.0
 11
5.5026908503
 21
4.1286455629
 31
0.0
 11
5.5122726024
 21
4.1305084262
 31
0.0
 11
5.5217342506
 21
4.1327763495
 31
0.0
 11
5.5310543878
 21
4.1354430038
 31
0.0
 11
5.5402116273
 21
4.138502047
 31
0.0
 11
5.5491845919
 21
4.1419470701
 31
0.0
 11
5.557952158
 21
4.1457698692
 31
0.0
 11
5.5664934786
 21
4.1499602812
 31
0.0
 11
5.574787721
 21
4.1545080441
 31
0.0
 11
5.5828140565
 21
4.1594028913
 31
0.0
 11
5.5905525906
 21
4.1646335749
 31
0.0
 11
5.5979855123
 21
4.1701866578
 31
0.0
 11
5.6050952923
 21
4.1760484068
 31
0.0
 11
5.6118644015
 21
4.1822050886
 31
0.0
 11
5.6182757956
 21
4.1886425809
 31
0.0
 11
5.6243147992
 21
4.1953448596
 31
0.0
 11
5.6299674602
 21
4.2022953206
 31
0.0
 11
5.6352198263
 21
4.2094773596
 31
0.0
 11
5.6400581586
 21
4.2168742664
 31
0.0
 11
5.6444711975
 21
4.224468099
 31
0.0
 11
5.6484492829
 21
4.2322401211
 31
0.0
 11
5.6519827816
 21
4.240171583
 31
0.0
 11
5.6550621101
 21
4.248243721
 31
0.0
 11
5.6576796363
 21
4.2564372213
 31
0.0
 11
5.6598302618
 21
4.2647320562
 31
0.0
 11
5.6615090579
 21
4.2731081502
 31
0.0
 11
5.6627110978
 21
4.2815454274
 31
0.0
 11
5.6634326426
 21
4.2900237041
 31
0.0
 11
5.6636731575
 21
4.2985225049
 31
0.0
  0
SPLINE
  5
234
100
AcDbEntity
  8
0
100
AcDbSpline
 62
9
  6
CONTINUOUS
 70
0
 71
3
 72
17
 73
13
 74
11
 42
0.0000001
 43
0.0000001
 44
0.0000000001
 12
0.1043319922
 22
-0.1475489755
 32
0.0
 13
0.1639460452
 23
-0.0760102562
 33
0.0
 40
0.0
 40
0.0
 40
0.0
 40
0.0
 40
0.106756955
 40
0.1619503568
 40
0.2184017777
 40
0.2761452672
 40
0.3352068403
 40
0.4573430302
 40
0.5849215715
 40
0.7179476711
 40
0.8563523736
 40
1.0
 40
1.0
 40
1.0
 40
1.0
 10
4.9533653763
 20
4.1091820073
 30
0.0
 10
4.9570780982
 20
4.1039313808
 30
0.0
 10
4.9630826572
 20
4.096222585
 30
0.0
 10
4.9717910091
 20
4.0863589385
 30
0.0
 10
4.978843903
 20
4.0789816991
 30
0.0
 10
4.9863384733
 20
4.0717154484
 30
0.0
 10
4.9970300068
 20
4.0620756693
 30
0.0
 10
5.0114898341
 20
4.0503530201
 30
0.0
 10
5.0302920253
 20
4.036987694
 30
0.0
 10
5.0506679181
 20
4.0242162607
 30
0.0
 10
5.0725424983
 20
4.0120847828
 30
0.0
 10
5.0877971554
 20
4.004587584
 30
0.0
 10
5.0956473088
 20
4.0009480197
 30
0.0
 11
4.9533653763
 21
4.1091820073
 31
0.0
 11
4.9651912584
 21
4.0939396665
 31
0.0
 11
4.9717889896
 21
4.0864597011
 31
0.0
 11
4.9788353033
 21
4.0790829835
 31
0.0
 11
4.9863239436
 21
4.0718162744
 31
0.0
 11
4.9942478245
 21
4.0646661298
 31
0.0
 11
5.0113721083
 21
4.050741527
 31
0.0
 11
5.0301456451
 21
4.0373598061
 31
0.0
 11
5.0504997603
 21
4.0245697193
 31
0.0
 11
5.0723602347
 21
4.0124177283
 31
0.0
 11
5.0956473088
 21
4.0009480197
 31
0.0
  0
SPLINE
  5
235
100
AcDbEntity
  8
0
100
AcDbSpline
 62
9
  6
CONTINUOUS
 70
0
 71
3
 72
37
 73
33
 74
31
 42
0.0000001
 43
0.0000001
 44
0.0000000001
 12
0.5840249406
 22
0.393858303
 32
0.0
 13
0.5840251062
 23
-0.3938580575
 33
0.0
 40
0.0
 40
0.0
 40
0.0
 40
0.0
 40
0.0254472292
 40
0.0518942713
 40
0.0793166368
 40
0.1076822084
 40
0.1369488036
 40
0.1670652633
 40
0.1979757453
 40
0.2296165445
 40
0.2619186867
 40
0.2948100836
 40
0.3282130105
 40
0.3620470474
 40
0.3962297136
 40
0.4306753133
 40
0.4999999638
 40
0.5693246157
 40
0.6037702169
 40
0.6379528853
 40
0.6717869251
 40
0.7051898554
 40
0.7380812565
 40
0.7703834035
 40
0.802024208
 40
0.8329346959
 40
0.8630511617
 40
0.8923177633
 40
0.9206833418
 40
0.9481057142
 40
0.9745527634
 40
1.0
 40
1.0
 40
1.0
 40
1.0
 10
5.126621596
 20
4.3337165866
 30
0.0
 10
5.1315755348
 20
4.3370574541
 30
0.0
 10
5.141875922
 20
4.34358082
 30
0.0
 10
5.1581143561
 20
4.3527154959
 30
0.0
 10
5.1753869466
 20
4.36136327
 30
0.0
 10
5.1936359378
 20
4.3694924356
 30
0.0
 10
5.2127996376
 20
4.3770762742
 30
0.0
 10
5.2328127571
 20
4.3840909269
 30
0.0
 10
5.2536085269
 20
4.3905100765
 30
0.0
 10
5.275116075
 20
4.3963136353
 30
0.0
 10
5.2972625477
 20
4.4014825835
 30
0.0
 10
5.3199734315
 20
4.4059969943
 30
0.0
 10
5.3431713564
 20
4.4098438934
 30
0.0
 10
5.3667777765
 20
4.4130097183
 30
0.0
 10
5.3907130653
 20
4.4154821154
 30
0.0
 10
5.4230226678
 20
4.4178508838
 30
0.0
 10
5.4636740777
 20
4.4190300927
 30
0.0
 10
5.5043254883
 20
4.4178508927
 30
0.0
 10
5.5366350924
 20
4.4154821312
 30
0.0
 10
5.5605703833
 20
4.4130097392
 30
0.0
 10
5.5841768062
 20
4.4098439196
 30
0.0
 10
5.6073747344
 20
4.4059970253
 30
0.0
 10
5.6300856221
 20
4.4014826196
 30
0.0
 10
5.6522320993
 20
4.3963136761
 30
0.0
 10
5.6737396526
 20
4.3905101217
 30
0.0
 10
5.694535428
 20
4.3840909769
 30
0.0
 10
5.7145485537
 20
4.3770763284
 30
0.0
 10
5.7337122599
 20
4.3694924938
 30
0.0
 10
5.7519612582
 20
4.3613633324
 30
0.0
 10
5.769233856
 20
4.352715562
 30
0.0
 10
5.7854722977
 20
4.3435808895
 30
0.0
 10
5.7957726906
 20
4.3370575261
 30
0.0
 10
5.8007266323
 20
4.3337166597
 30
0.0
 11
5.126621596
 21
4.3337165866
 31
0.0
 11
5.141755353
 21
4.3433236439
 31
0.0
 11
5.1579836274
 21
4.352473227
 31
0.0
 11
5.1752497211
 21
4.361134905
 31
0.0
 11
5.1934961831
 21
4.3692785889
 31
0.0
 11
5.2126609385
 21
4.3768767634
 31
0.0
 11
5.2326778913
 21
4.3839041513
 31
0.0
 11
5.2534802696
 21
4.3903359735
 31
0.0
 11
5.2749968006
 21
4.396150967
 31
0.0
 11
5.297153983
 21
4.4013296101
 31
0.0
 11
5.3198774735
 21
4.4058533513
 31
0.0
 11
5.3430893649
 21
4.409707775
 31
0.0
 11
5.3667107848
 21
4.4128795882
 31
0.0
 11
5.3906619706
 21
4.4153572884
 31
0.0
 11
5.4148610853
 21
4.4171335446
 31
0.0
 11
5.4636740775
 21
4.4185578204
 31
0.0
 11
5.5124870709
 21
4.4171335552
 31
0.0
 11
5.536686187
 21
4.4153573042
 31
0.0
 11
5.5606373749
 21
4.4128796092
 31
0.0
 11
5.5842587975
 21
4.4097078012
 31
0.0
 11
5.6074706922
 21
4.4058533824
 31
0.0
 11
5.6301941867
 21
4.4013296462
 31
0.0
 11
5.6523513737
 21
4.3961510079
 31
0.0
 11
5.6738679098
 21
4.3903360189
 31
0.0
 11
5.6946702939
 21
4.3839042012
 31
0.0
 11
5.7146872528
 21
4.3768768176
 31
0.0
 11
5.7338520145
 21
4.3692786473
 31
0.0
 11
5.7520984837
 21
4.3611349675
 31
0.0
 11
5.7693645847
 21
4.3524732932
 31
0.0
 11
5.7855928669
 21
4.3433237136
 31
0.0
 11
5.8007266323
 21
4.3337166597
 31
0.0
  0
SPLINE
  5
236
100
AcDbEntity
  8
0
100
AcDbSpline
 62
9
  6
CONTINUOUS
 70
0
 71
3
 72
17
 73
13
 74
11
 42
0.0000001
 43
0.0000001
 44
0.0000000001
 12
0.1639463964
 22
0.0760104017
 32
0.0
 13
0.1043319224
 23
0.14754949
 33
0.0
 40
0.0
 40
0.0
 40
0.0
 40
0.0
 40
0.1436477151
 40
0.2820524525
 40
0.4150786007
 40
0.5426571464
 40
0.6647933194
 40
0.723854889
 40
0.7815983533
 40
0.8380497436
 40
0.8932431327
 40
1.0
 40
1.0
 40
1.0
 40
1.0
 10
5.8317010278
 20
4.0009480197
 30
0.0
 10
5.8395512029
 20
4.0045875932
 30
0.0
 10
5.8548058978
 20
4.0120848129
 30
0.0
 10
5.8766805307
 20
4.0242163258
 30
0.0
 10
5.8970564666
 20
4.0369877956
 30
0.0
 10
5.9158586929
 20
4.0503531602
 30
0.0
 10
5.930318537
 20
4.062075849
 30
0.0
 10
5.9410100861
 20
4.071715652
 30
0.0
 10
5.9485046601
 20
4.0789819255
 30
0.0
 10
5.9555575525
 20
4.0863591901
 30
0.0
 10
5.9642659136
 20
4.096222855
 30
0.0
 10
5.9702704591
 20
4.1039316802
 30
0.0
 10
5.9739831755
 20
4.1091823206
 30
0.0
 11
5.8317010278
 21
4.0009480197
 31
0.0
 11
5.8549881644
 21
4.012417761
 31
0.0
 11
5.8768486878
 21
4.0245697852
 31
0.0
 11
5.8972028489
 21
4.0373599105
 31
0.0
 11
5.9159764182
 21
4.0507416705
 31
0.0
 11
5.9331007237
 21
4.0646663154
 31
0.0
 11
5.9410246157
 21
4.0718164801
 31
0.0
 11
5.9485132593
 21
4.0790832108
 31
0.0
 11
5.955559573
 21
4.0864599504
 31
0.0
 11
5.9621573097
 21
4.0939399359
 31
0.0
 11
5.9739831755
 21
4.1091823206
 31
0.0
  0
SPLINE
  5
237
100
AcDbEntity
  8
0
100
AcDbSpline
 62
9
  6
CONTINUOUS
 70
0
 71
3
 72
11
 73
7
 74
5
 42
0.0000001
 43
0.0000001
 44
0.0000000001
 12
-0.002318187
 22
-0.0040531338
 32
0.0
 13
-0.0042345393
 23
-0.0019673743
 33
0.0
 40
0.0
 40
0.0
 40
0.0
 40
0.0
 40
0.2559704655
 40
0.5061731261
 40
0.7539077898
 40
1.0
 40
1.0
 40
1.0
 40
1.0
 10
5.8317010278
 20
4.0009480197
 30
0.0
 10
5.831503232
 20
4.0006021922
 30
0.0
 10
5.8310633235
 20
3.9999446322
 30
0.0
 10
5.8302672421
 20
3.9990762248
 30
0.0
 10
5.829355799
 20
3.9983543634
 30
0.0
 10
5.8286832015
 20
3.9979748573
 30
0.0
 10
5.8283358391
 20
3.9978134721
 30
0.0
 11
5.8317010278
 21
4.0009480197
 31
0.0
 11
5.8310341238
 21
3.9999561943
 31
0.0
 11
5.8302433804
 21
3.9990962217
 31
0.0
 11
5.8293367605
 21
3.9983778377
 31
0.0
 11
5.8283358391
 21
3.9978134721
 31
0.0
  0
SPLINE
  5
238
100
AcDbEntity
  8
0
100
AcDbSpline
 62
9
  6
CONTINUOUS
 70
0
 71
3
 72
11
 73
7
 74
5
 42
0.0000001
 43
0.0000001
 44
0.0000000001
 12
0.0023992005
 22
-0.0039991475
 32
0.0
 13
0.0042309969
 23
-0.0019616341
 33
0.0
 40
0.0
 40
0.0
 40
0.0
 40
0.0
 40
0.2626386319
 40
0.5149398001
 40
0.7595449594
 40
1.0
 40
1.0
 40
1.0
 40
1.0
 10
5.0956473088
 20
4.0009480197
 30
0.0
 10
5.0958573497
 20
4.0005979095
 30
0.0
 10
5.0963131478
 20
3.9999364495
 30
0.0
 10
5.0971150316
 20
3.9990641943
 30
0.0
 10
5.0980130137
 20
3.9983445358
 30
0.0
 10
5.0986725877
 20
3.9979711768
 30
0.0
 10
5.0990117092
 20
3.9978139486
 30
0.0
 11
5.0956473088
 21
4.0009480197
 31
0.0
 11
5.09634515
 21
3.9999414082
 31
0.0
 11
5.097143921
 21
3.9990774415
 31
0.0
 11
5.0980355767
 21
3.9983659291
 31
0.0
 11
5.0990117092
 21
3.9978139486
 31
0.0
  0
SPLINE
  5
239
100
AcDbEntity
  8
0
100
AcDbSpline
 62
9
  6
CONTINUOUS
 70
0
 71
3
 72
9
 73
5
 74
3
 42
0.0000001
 43
0.0000001
 44
0.0000000001
 12
0.0036099339
 22
-0.0024421034
 32
0.0
 13
0.0040447406
 23
-0.0016234424
 33
0.0
 40
0.0
 40
0.0
 40
0.0
 40
0.0
 40
0.2481221151
 40
1.0
 40
1.0
 40
1.0
 40
1.0
 10
5.0956473088
 20
4.0009480197
 30
0.0
 10
5.0959458769
 20
4.0007460398
 30
0.0
 10
5.0971714714
 20
3.9999653353
 30
0.0
 10
5.0984813281
 20
3.9993177759
 30
0.0
 10
5.0994950451
 20
3.9989108991
 30
0.0
 11
5.0956473088
 21
4.0009480197
 31
0.0
 11
5.0965592587
 21
4.0003668167
 31
0.0
 11
5.0994950451
 21
3.9989108991
 31
0.0
  0
SPLINE
  5
23A
100
AcDbEntity
  8
0
100
AcDbSpline
 62
9
  6
CONTINUOUS
 70
0
 71
3
 72
24
 73
20
 74
18
 42
0.0000001
 43
0.0000001
 44
0.0000000001
 12
0.0356405475
 22
-0.0143050891
 32
0.0
 13
-0.0
 23
0.0384042211
 33
0.0
 40
0.0
 40
0.0
 40
0.0
 40
0.0
 40
0.0639481456
 40
0.1281323045
 40
0.1924319851
 40
0.256748432
 40
0.3209816404
 40
0.385010928
 40
0.4486993661
 40
0.5119441377
 40
0.5746805161
 40
0.6058525578
 40
0.636876994
 40
0.6984591325
 40
0.7595159682
 40
0.820135646
 40
0.880427471
 40
0.9403973225
 40
1.0
 40
1.0
 40
1.0
 40
1.0
 10
5.0994950451
 20
3.9989108991
 30
0.0
 10
5.1002547608
 20
3.9986059712
 30
0.0
 10
5.1018140576
 20
3.9980828992
 30
0.0
 10
5.104230438
 20
3.9975771828
 30
0.0
 10
5.1066937685
 20
3.9973524539
 30
0.0
 10
5.1091672736
 20
3.9974098596
 30
0.0
 10
5.1116142547
 20
3.9977519869
 30
0.0
 10
5.1139979939
 20
3.998370264
 30
0.0
 10
5.1162829686
 20
3.9992549814
 30
0.0
 10
5.1184318198
 20
4.000397481
 30
0.0
 10
5.1200873524
 20
4.0015497166
 30
0.0
 10
5.1213123082
 20
4.0025793168
 30
0.0
 10
5.1224611415
 20
4.003671879
 30
0.0
 10
5.1237572925
 20
4.0051590314
 30
0.0
 10
5.1250674704
 20
4.0071124643
 30
0.0
 10
5.1261097598
 20
4.0092031709
 30
0.0
 10
5.1268626538
 20
4.0114000838
 30
0.0
 10
5.1273201364
 20
4.0136630311
 30
0.0
 10
5.1274241683
 20
4.0151955823
 30
0.0
 10
5.1274241683
 20
4.0159585805
 30
0.0
 11
5.0994950451
 21
3.9989108991
 31
0.0
 11
5.1018235569
 21
3.9981302754
 31
0.0
 11
5.1042360262
 21
3.9976243764
 31
0.0
 11
5.1066951458
 21
3.9973995114
 31
0.0
 11
5.1091644887
 21
3.9974574735
 31
0.0
 11
5.1116075848
 21
3.9977988141
 31
0.0
 11
5.1139876882
 21
3.9984166847
 31
0.0
 11
5.1162679497
 21
3.9993014772
 31
0.0
 11
5.1184123406
 21
4.0004420818
 31
0.0
 11
5.1203892886
 21
4.0018192543
 31
0.0
 11
5.1213055759
 21
4.0025896808
 31
0.0
 11
5.122168728
 21
4.0034110014
 31
0.0
 11
5.1237219669
 21
4.0051944644
 31
0.0
 11
5.1250270444
 21
4.0071425528
 31
0.0
 11
5.1260640591
 21
4.0092268811
 31
0.0
 11
5.1268150608
 21
4.0114171674
 31
0.0
 11
5.1272707378
 21
4.013674734
 31
0.0
 11
5.1274241683
 21
4.0159585805
 31
0.0
  0
LINE
  5
23B
100
AcDbEntity
  8
0
100
AcDbLine
 62
9
  6
CONTINUOUS
 10
5.0956497608
 20
4.0009468829
 11
5.0956463652
 21
4.5422143346
  0
SPLINE
  5
23C
100
AcDbEntity
  8
0
100
AcDbSpline
 62
9
  6
CONTINUOUS
 70
0
 71
3
 72
43
 73
39
 74
37
 42
0.0000001
 43
0.0000001
 44
0.0000000001
 12
0.0324084798
 22
0.0004632509
 32
0.0
 13
0.0
 23
-0.0324117905
 33
0.0
 40
0.0
 40
0.0
 40
0.0
 40
0.0
 40
0.0349545602
 40
0.0716592322
 40
0.1098780681
 40
0.1493515353
 40
0.1898165363
 40
0.2103422761
 40
0.2310278181
 40
0.2727945644
 40
0.3149471315
 40
0.3573083624
 40
0.3996955668
 40
0.4419218117
 40
0.4837959657
 40
0.5657137366
 40
0.6439091995
 40
0.7169080584
 40
0.7510623803
 40
0.7834537204
 40
0.8139361676
 40
0.8423692759
 40
0.868633216
 40
0.8926169848
 40
0.9142061735
 40
0.933283362
 40
0.9418429244
 40
0.949730693
 40
0.9569491214
 40
0.9635160245
 40
0.9694570356
 40
0.9748098639
 40
0.9796308734
 40
0.9840039397
 40
0.9880500589
 40
0.9919322487
 40
0.9958470125
 40
1.0
 40
1.0
 40
1.0
 40
1.0
 10
5.0956473088
 20
4.5422138971
 30
0.0
 10
5.0960249168
 20
4.5422192947
 30
0.0
 10
5.0967987781
 20
4.5422493419
 30
0.0
 10
5.0979831641
 20
4.542330693
 30
0.0
 10
5.0992148121
 20
4.5424337681
 30
0.0
 10
5.1004867073
 20
4.5425427466
 30
0.0
 10
5.1015690441
 20
4.5426250334
 30
0.0
 10
5.1024498939
 20
4.5426780789
 30
0.0
 10
5.1033453547
 20
4.5427213582
 30
0.0
 10
5.1044749798
 20
4.542758086
 30
0.0
 10
5.1058392094
 20
4.5427783977
 30
0.0
 10
5.1072102775
 20
4.5427791089
 30
0.0
 10
5.1085820421
 20
4.5427640569
 30
0.0
 10
5.1099483611
 20
4.5427375511
 30
0.0
 10
5.1117414024
 20
4.5426905034
 30
0.0
 10
5.1139222122
 20
4.5426078809
 30
0.0
 10
5.1164368299
 20
4.5424644539
 30
0.0
 10
5.1184329703
 20
4.5423014255
 30
0.0
 10
5.1199323482
 20
4.5421432969
 30
0.0
 10
5.1209727967
 20
4.542014849
 30
0.0
 10
5.1219492544
 20
4.5418740476
 30
0.0
 10
5.1228566973
 20
4.5417202927
 30
0.0
 10
5.1236909054
 20
4.5415563843
 30
0.0
 10
5.1244483918
 20
4.5413869117
 30
0.0
 10
5.1251257272
 20
4.5412160258
 30
0.0
 10
5.1256375817
 20
4.5410712869
 30
0.0
 10
5.1260042163
 20
4.5409577252
 30
0.0
 10
5.1262471822
 20
4.5408780457
 30
0.0
 10
5.1264679824
 20
4.5408000075
 30
0.0
 10
5.1266663678
 20
4.5407219671
 30
0.0
 10
5.1268422836
 20
4.5406423931
 30
0.0
 10
5.1269956897
 20
4.54055966
 30
0.0
 10
5.1271265484
 20
4.5404720516
 30
0.0
 10
5.127234724
 20
4.5403776985
 30
0.0
 10
5.1273197796
 20
4.5402746406
 30
0.0
 10
5.127380846
 20
4.5401611568
 30
0.0
 10
5.1274170394
 20
4.5400362788
 30
0.0
 10
5.1274241683
 20
4.5399488183
 30
0.0
 10
5.1274241683
 20
4.5399039497
 30
0.0
 11
5.0956473088
 21
4.5422138971
 31
0.0
 11
5.0967795358
 21
4.5422540824
 31
0.0
 11
5.0979666152
 21
4.5423324608
 31
0.0
 11
5.0992012663
 21
4.5424330379
 31
0.0
 11
5.1004762081
 21
4.5425398195
 31
0.0
 11
5.1017841599
 21
4.5426368116
 31
0.0
 11
5.102448241
 21
4.5426766678
 31
0.0
 11
5.1031179069
 21
4.5427091948
 31
0.0
 11
5.1044709004
 21
4.5427539954
 31
0.0
 11
5.1058369776
 21
4.5427751003
 31
0.0
 11
5.1072099802
 21
4.54277648
 31
0.0
 11
5.1085837502
 21
4.5427621053
 31
0.0
 11
5.1099521278
 21
4.5427359119
 31
0.0
 11
5.1113088708
 21
4.5427000715
 31
0.0
 11
5.1139619987
 21
4.5425977153
 31
0.0
 11
5.1164921784
 21
4.5424505676
 31
0.0
 11
5.1188500765
 21
4.542254647
 31
0.0
 11
5.1199509119
 21
4.5421379572
 31
0.0
 11
5.1209927834
 21
4.54200868
 31
0.0
 11
5.1219705249
 21
4.5418667395
 31
0.0
 11
5.1228790542
 21
4.5417122662
 31
0.0
 11
5.1237142859
 21
4.5415478464
 31
0.0
 11
5.1244727883
 21
4.5413776766
 31
0.0
 11
5.1251511413
 21
4.5412059813
 31
0.0
 11
5.1257459246
 21
4.5410369853
 31
0.0
 11
5.1260109088
 21
4.5409548197
 31
0.0
 11
5.1262537295
 21
4.5408748291
 31
0.0
 11
5.1264741253
 21
4.540796318
 31
0.0
 11
5.1266719466
 21
4.5407177702
 31
0.0
 11
5.1268470462
 21
4.5406376514
 31
0.0
 11
5.1269992769
 21
4.5405544273
 31
0.0
 11
5.1271284914
 21
4.5404665636
 31
0.0
 11
5.1272345425
 21
4.5403725259
 31
0.0
 11
5.1273172829
 21
4.54027078
 31
0.0
 11
5.1273765655
 21
4.5401597915
 31
0.0
 11
5.1274122431
 21
4.5400380262
 31
0.0
 11
5.1274241683
 21
4.5399039497
 31
0.0
  0
LINE
  5
23D
100
AcDbEntity
  8
0
100
AcDbLine
 62
9
  6
CONTINUOUS
 10
5.8317015299
 20
4.5422141299
 11
5.8316985078
 21
4.0009468514
  0
LINE
  5
23E
100
AcDbEntity
  8
0
100
AcDbLine
 62
9
  6
CONTINUOUS
 10
5.8317010278
 20
4.0009480197
 11
5.8278421084
 21
3.9989326983
  0
SPLINE
  5
23F
100
AcDbEntity
  8
0
100
AcDbSpline
 62
9
  6
CONTINUOUS
 70
0
 71
3
 72
26
 73
22
 74
20
 42
0.0000001
 43
0.0000001
 44
0.0000000001
 12
-0.0355402113
 22
-0.014553643
 32
0.0
 13
0.0
 23
0.038404624
 33
0.0
 40
0.0
 40
0.0
 40
0.0
 40
0.0
 40
0.0320615939
 40
0.0641948107
 40
0.0963344749
 40
0.1284716108
 40
0.1927406231
 40
0.2570270532
 40
0.3212444366
 40
0.3852490204
 40
0.4488962557
 40
0.5120933418
 40
0.5747975521
 40
0.6369787309
 40
0.6986374238
 40
0.7597287428
 40
0.7900498391
 40
0.8201980514
 40
0.8800161643
 40
0.9397264768
 40
1.0
 40
1.0
 40
1.0
 40
1.0
 10
5.8278421084
 20
3.9989326983
 30
0.0
 10
5.8274622832
 20
3.9987771606
 30
0.0
 10
5.8266930877
 20
3.9984864613
 30
0.0
 10
5.8255156396
 20
3.9981173935
 30
0.0
 10
5.8243164774
 20
3.9978218354
 30
0.0
 10
5.8226965254
 20
3.9975276815
 30
0.0
 10
5.8206423437
 20
3.9973439657
 30
0.0
 10
5.8181702024
 20
3.9974109454
 30
0.0
 10
5.8157249058
 20
3.9977573144
 30
0.0
 10
5.8133423289
 20
3.9983755914
 30
0.0
 10
5.8110582347
 20
3.9992584438
 30
0.0
 10
5.8089100522
 20
4.0003993467
 30
0.0
 10
5.8069291933
 20
4.0017782394
 30
0.0
 10
5.8051448502
 20
4.0033746607
 30
0.0
 10
5.8035889621
 20
4.0051671044
 30
0.0
 10
5.8024960112
 20
4.006800255
 30
0.0
 10
5.8017565028
 20
4.0081705265
 30
0.0
 10
5.8011127815
 20
4.0095703654
 30
0.0
 10
5.800483666
 20
4.0113866955
 30
0.0
 10
5.8000253098
 20
4.0136489148
 30
0.0
 10
5.7999241683
 20
4.0151869865
 30
0.0
 10
5.7999241683
 20
4.0159585805
 30
0.0
 11
5.8278421084
 21
3.9989326983
 31
0.0
 11
5.8266900981
 21
3.9984979512
 31
0.0
 11
5.825512254
 21
3.9981297155
 31
0.0
 11
5.8243138106
 21
3.9978343195
 31
0.0
 11
5.8230995149
 21
3.9976134763
 31
0.0
 11
5.8206412549
 21
3.9973918829
 31
0.0
 11
5.8181732351
 21
3.9974576595
 31
0.0
 11
5.8157313551
 21
3.9978034685
 31
0.0
 11
5.8133523212
 21
3.998421785
 31
0.0
 11
5.8110731245
 21
3.999305018
 31
0.0
 11
5.8089298851
 21
4.0004439413
 31
0.0
 11
5.8069541167
 21
4.0018206901
 31
0.0
 11
5.8051758177
 21
4.0034145566
 31
0.0
 11
5.8036236215
 21
4.005202855
 31
0.0
 11
5.8023194496
 21
4.0071531727
 31
0.0
 11
5.8017665792
 21
4.0081780266
 31
0.0
 11
5.8012831624
 21
4.0092301104
 31
0.0
 11
5.8005327252
 21
4.0114013761
 31
0.0
 11
5.8000774474
 21
4.0136488789
 31
0.0
 11
5.7999241683
 21
4.0159585805
 31
0.0
  0
SPLINE
  5
240
100
AcDbEntity
  8
0
100
AcDbSpline
 62
9
  6
CONTINUOUS
 70
0
 71
3
 72
43
 73
39
 74
37
 42
0.0000001
 43
0.0000001
 44
0.0000000001
 12
-0.0324084705
 22
0.0004631786
 32
0.0
 13
0.0
 23
-0.0324117802
 33
0.0
 40
0.0
 40
0.0
 40
0.0
 40
0.0
 40
0.0349545655
 40
0.0716592435
 40
0.1098780866
 40
0.1493515625
 40
0.1898165735
 40
0.2103423187
 40
0.2310278663
 40
0.2727946245
 40
0.3149472042
 40
0.3573084481
 40
0.3996956659
 40
0.4419219244
 40
0.4837960922
 40
0.5657138903
 40
0.6439093789
 40
0.71690826
 40
0.7510625912
 40
0.7834539391
 40
0.8139363923
 40
0.8423695045
 40
0.8686334459
 40
0.8926172132
 40
0.9142063974
 40
0.9332835779
 40
0.9418431349
 40
0.9497308971
 40
0.9569493178
 40
0.9635162117
 40
0.9694572115
 40
0.9748100259
 40
0.9796310182
 40
0.9840040634
 40
0.988050157
 40
0.9919323168
 40
0.9958470474
 40
1.0
 40
1.0
 40
1.0
 40
1.0
 10
5.8317010278
 20
4.5422138971
 30
0.0
 10
5.8313234198
 20
4.5422192938
 30
0.0
 10
5.8305495586
 20
4.5422493394
 30
0.0
 10
5.8293651726
 20
4.5423306883
 30
0.0
 10
5.8281335246
 20
4.5424337612
 30
0.0
 10
5.8268616294
 20
4.5425427376
 30
0.0
 10
5.8257792925
 20
4.5426250229
 30
0.0
 10
5.8248984427
 20
4.5426780672
 30
0.0
 10
5.8240029819
 20
4.5427213453
 30
0.0
 10
5.8228733568
 20
4.5427580717
 30
0.0
 10
5.8215091272
 20
4.5427783818
 30
0.0
 10
5.8201380591
 20
4.5427790917
 30
0.0
 10
5.8187662945
 20
4.5427640385
 30
0.0
 10
5.8173999755
 20
4.5427375318
 30
0.0
 10
5.8156069342
 20
4.542690483
 30
0.0
 10
5.8134261244
 20
4.5426078595
 30
0.0
 10
5.8109115067
 20
4.5424644321
 30
0.0
 10
5.8089153663
 20
4.5423014041
 30
0.0
 10
5.8074159884
 20
4.5421432761
 30
0.0
 10
5.8063755399
 20
4.5420148288
 30
0.0
 10
5.8053990822
 20
4.5418740282
 30
0.0
 10
5.8044916394
 20
4.5417202743
 30
0.0
 10
5.8036574312
 20
4.5415563671
 30
0.0
 10
5.8028999449
 20
4.5413868958
 30
0.0
 10
5.8022226094
 20
4.5412160114
 30
0.0
 10
5.8017107549
 20
4.5410712739
 30
0.0
 10
5.8013441203
 20
4.5409577134
 30
0.0
 10
5.8011011544
 20
4.5408780349
 30
0.0
 10
5.8008803542
 20
4.5407999976
 30
0.0
 10
5.8006819689
 20
4.5407219582
 30
0.0
 10
5.8005060531
 20
4.5406423852
 30
0.0
 10
5.8003526469
 20
4.5405596532
 30
0.0
 10
5.8002217883
 20
4.5404720459
 30
0.0
 10
5.8001136127
 20
4.5403776939
 30
0.0
 10
5.8000285571
 20
4.5402746371
 30
0.0
 10
5.7999674906
 20
4.5401611546
 30
0.0
 10
5.7999312971
 20
4.5400362777
 30
0.0
 10
5.7999241683
 20
4.5399488179
 30
0.0
 10
5.7999241683
 20
4.5399039497
 30
0.0
 11
5.8317010278
 21
4.5422138971
 31
0.0
 11
5.8305688009
 21
4.54225408
 31
0.0
 11
5.8293817215
 21
4.5423324561
 31
0.0
 11
5.8281470704
 21
4.542433031
 31
0.0
 11
5.8268721285
 21
4.5425398106
 31
0.0
 11
5.8255641767
 21
4.5426368008
 31
0.0
 11
5.8249000956
 21
4.542676656
 31
0.0
 11
5.8242304296
 21
4.5427091822
 31
0.0
 11
5.8228774361
 21
4.5427539812
 31
0.0
 11
5.821511359
 21
4.5427750845
 31
0.0
 11
5.8201383563
 21
4.5427764629
 31
0.0
 11
5.8187645864
 21
4.542762087
 31
0.0
 11
5.8173962088
 21
4.5427358926
 31
0.0
 11
5.8160394658
 21
4.5427000513
 31
0.0
 11
5.8133863379
 21
4.542597694
 31
0.0
 11
5.8108561582
 21
4.542450546
 31
0.0
 11
5.8084982601
 21
4.5422546257
 31
0.0
 11
5.8073974247
 21
4.5421379365
 31
0.0
 11
5.8063555532
 21
4.5420086599
 31
0.0
 11
5.8053778117
 21
4.5418667202
 31
0.0
 11
5.8044692824
 21
4.5417122479
 31
0.0
 11
5.8036340507
 21
4.5415478293
 31
0.0
 11
5.8028755483
 21
4.5413776607
 31
0.0
 11
5.8021971953
 21
4.541205967
 31
0.0
 11
5.801602412
 21
4.5410369726
 31
0.0
 11
5.8013374278
 21
4.5409548079
 31
0.0
 11
5.8010946071
 21
4.5408748183
 31
0.0
 11
5.8008742113
 21
4.5407963082
 31
0.0
 11
5.80067639
 21
4.5407177614
 31
0.0
 11
5.8005012904
 21
4.5406376436
 31
0.0
 11
5.8003490597
 21
4.5405544205
 31
0.0
 11
5.8002198452
 21
4.5404665579
 31
0.0
 11
5.8001137941
 21
4.5403725213
 31
0.0
 11
5.8000310537
 21
4.5402707765
 31
0.0
 11
5.7999717711
 21
4.5401597892
 31
0.0
 11
5.7999360935
 21
4.540038025
 31
0.0
 11
5.7999241683
 21
4.5399039497
 31
0.0
  0
SPLINE
  5
241
100
AcDbEntity
  8
0
100
AcDbSpline
 62
9
  6
CONTINUOUS
 70
0
 71
3
 72
37
 73
33
 74
31
 42
0.0000001
 43
0.0000001
 44
0.0000000001
 12
-0.3397814506
 22
0.1575341163
 32
0.0
 13
0.2162266198
 23
0.3058013749
 33
0.0
 40
0.0
 40
0.0
 40
0.0
 40
0.0
 40
0.0419833576
 40
0.0830667171
 40
0.1232272941
 40
0.1624523942
 40
0.200732594
 40
0.2380615669
 40
0.2744381892
 40
0.3098666257
 40
0.3443564675
 40
0.3779235849
 40
0.4105895204
 40
0.4423835117
 40
0.5034850702
 40
0.5616285715
 40
0.5897589168
 40
0.6173516846
 40
0.644490044
 40
0.6712634123
 40
0.6977673741
 40
0.7241020194
 40
0.7503698843
 40
0.7766748659
 40
0.8031204878
 40
0.8298073803
 40
0.8568322279
 40
0.8842870595
 40
0.9122577164
 40
0.9408214942
 40
0.970048074
 40
1.0
 40
1.0
 40
1.0
 40
1.0
 10
5.0956473088
 20
4.5422138971
 30
0.0
 10
5.0908922534
 20
4.5444185008
 30
0.0
 10
5.0815434621
 20
4.5489100956
 30
0.0
 10
5.0678739296
 20
4.555972222
 30
0.0
 10
5.0547254513
 20
4.5632782552
 30
0.0
 10
5.0421157165
 20
4.5708184141
 30
0.0
 10
5.0300610224
 20
4.578582898
 30
0.0
 10
5.0185772964
 20
4.5865617072
 30
0.0
 10
5.007679694
 20
4.5947443879
 30
0.0
 10
4.9973825614
 20
4.6031202611
 30
0.0
 10
4.9876996164
 20
4.6116787044
 30
0.0
 10
4.9786434562
 20
4.6204081353
 30
0.0
 10
4.9702262432
 20
4.6292981782
 30
0.0
 10
4.9600066325
 20
4.641190493
 30
0.0
 10
4.9488051062
 20
4.6564047143
 30
0.0
 10
4.9396127535
 20
4.6723969467
 30
0.0
 10
4.9337154353
 20
4.6853405101
 30
0.0
 10
4.9300407491
 20
4.6950185872
 30
0.0
 10
4.9270716767
 20
4.7047590774
 30
0.0
 10
4.9248134368
 20
4.7145494607
 30
0.0
 10
4.9232699481
 20
4.7243763213
 30
0.0
 10
4.9224423682
 20
4.734225995
 30
0.0
 10
4.9223320437
 20
4.7440850078
 30
0.0
 10
4.9229405556
 20
4.7539397134
 30
0.0
 10
4.9242670936
 20
4.7637762929
 30
0.0
 10
4.9263082194
 20
4.7735813317
 30
0.0
 10
4.9290608828
 20
4.7833415236
 30
0.0
 10
4.93252206
 20
4.7930434834
 30
0.0
 10
4.9366875102
 20
4.8026737607
 30
0.0
 10
4.9415497051
 20
4.8122202016
 30
0.0
 10
4.947101333
 20
4.8216700047
 30
0.0
 10
4.9512050206
 20
4.8278188444
 30
0.0
 10
4.9533638218
 20
4.8308719578
 30
0.0
 11
5.0956473088
 21
4.5422138971
 31
0.0
 11
5.0814764646
 21
4.5490274599
 31
0.0
 11
5.067808657
 21
4.5560944286
 31
0.0
 11
5.0546635454
 21
4.5634047678
 31
0.0
 11
5.0420579487
 21
4.570949112
 31
0.0
 11
5.0300082329
 21
4.5787176395
 31
0.0
 11
5.0185305126
 21
4.5867000761
 31
0.0
 11
5.0076399658
 21
4.5948858814
 31
0.0
 11
4.9973509685
 21
4.6032642965
 31
0.0
 11
4.9876771913
 21
4.6118243335
 31
0.0
 11
4.9786312495
 21
4.6205546591
 31
0.0
 11
4.9702254504
 21
4.6294438572
 31
0.0
 11
4.9624706676
 21
4.6384801614
 31
0.0
 11
4.9489548373
 21
4.6569463618
 31
0.0
 11
4.9381553904
 21
4.6758559565
 31
0.0
 11
4.9337933062
 21
4.6854459993
 31
0.0
 11
4.9301307582
 21
4.6951093648
 31
0.0
 11
4.9271723992
 21
4.7048332779
 31
0.0
 11
4.9249228496
 21
4.7146049614
 31
0.0
 11
4.9233853324
 21
4.7244115409
 31
0.0
 11
4.9225611624
 21
4.7342400098
 31
0.0
 11
4.9224515173
 21
4.7440773519
 31
0.0
 11
4.9230575065
 21
4.7539105511
 31
0.0
 11
4.9243784342
 21
4.7637265998
 31
0.0
 11
4.9264116534
 21
4.7735124992
 31
0.0
 11
4.9291544204
 21
4.7832552509
 31
0.0
 11
4.9326039825
 21
4.7929418574
 31
0.0
 11
4.9367563438
 21
4.8025594442
 31
0.0
 11
4.9416049863
 21
4.8120953864
 31
0.0
 11
4.9471430868
 21
4.8215370891
 31
0.0
 11
4.9533638218
 21
4.8308719578
 31
0.0
  0
SPLINE
  5
242
100
AcDbEntity
  8
0
100
AcDbSpline
 62
9
  6
CONTINUOUS
 70
0
 71
3
 72
23
 73
19
 74
17
 42
0.0000001
 43
0.0000001
 44
0.0000000001
 12
-0.006229935
 22
0.0184578407
 32
0.0
 13
-0.0174745911
 23
0.0086106118
 33
0.0
 40
0.0
 40
0.0
 40
0.0
 40
0.0
 40
0.0669309958
 40
0.1340971222
 40
0.2013046075
 40
0.2683758785
 40
0.3351562191
 40
0.4014606414
 40
0.4670692722
 40
0.5317528702
 40
0.5952845384
 40
0.6574340358
 40
0.7180325029
 40
0.7770869232
 40
0.8346983858
 40
0.8910317511
 40
0.9461347231
 40
1.0
 40
1.0
 40
1.0
 40
1.0
 10
5.8317010278
 20
4.5422138971
 30
0.0
 10
5.8315620359
 20
4.5426256976
 30
0.0
 10
5.8312638409
 20
4.5434442374
 30
0.0
 10
5.8307583243
 20
4.5446502385
 30
0.0
 10
5.8301950063
 20
4.5458314313
 30
0.0
 10
5.8295754577
 20
4.5469812274
 30
0.0
 10
5.8289083939
 20
4.5480971783
 30
0.0
 10
5.8282022325
 20
4.5491773865
 30
0.0
 10
5.827465683
 20
4.5502204169
 30
0.0
 10
5.8267047338
 20
4.5512232618
 30
0.0
 10
5.8259239123
 20
4.5521819102
 30
0.0
 10
5.8251281533
 20
4.5530932462
 30
0.0
 10
5.8243197163
 20
4.5539540108
 30
0.0
 10
5.8234929184
 20
4.5547556197
 30
0.0
 10
5.8226425283
 20
4.5554908328
 30
0.0
 10
5.8217638998
 20
4.556150465
 30
0.0
 10
5.8208605336
 20
4.556731901
 30
0.0
 10
5.8202379262
 20
4.5570698535
 30
0.0
 10
5.8199241683
 20
4.5572244578
 30
0.0
 11
5.8317010278
 21
4.5422138971
 31
0.0
 11
5.83125476
 21
4.543439022
 31
0.0
 11
5.8307488537
 21
4.5446457161
 31
0.0
 11
5.8301850373
 21
4.5458273557
 31
0.0
 11
5.8295661156
 21
4.5469780753
 31
0.0
 11
5.8288993919
 21
4.548095179
 31
0.0
 11
5.828193345
 21
4.5491767992
 31
0.0
 11
5.8274562878
 21
4.5502209824
 31
0.0
 11
5.8266944769
 21
4.5512247137
 31
0.0
 11
5.825912779
 21
4.5521842605
 31
0.0
 11
5.8251160227
 21
4.5530958724
 31
0.0
 11
5.8243061776
 21
4.5539547994
 31
0.0
 11
5.8234786743
 21
4.5547540051
 31
0.0
 11
5.822628033
 21
4.5554861346
 31
0.0
 11
5.8217498887
 21
4.5561443129
 31
0.0
 11
5.8208468397
 21
4.5567246618
 31
0.0
 11
5.8199241683
 21
4.5572244578
 31
0.0
  0
SPLINE
  5
243
100
AcDbEntity
  8
0
100
AcDbSpline
 62
9
  6
CONTINUOUS
 70
0
 71
3
 72
78
 73
74
 74
72
 42
0.0000001
 43
0.0000001
 44
0.0000000001
 12
-1.1454775081
 22
0.5310817389
 32
0.0
 13
1.1514216016
 23
-0.5180683645
 33
0.0
 40
0.0
 40
0.0
 40
0.0
 40
0.0
 40
0.0161410477
 40
0.0318106105
 40
0.0469965967
 40
0.0616926599
 40
0.0758949989
 40
0.0896048813
 40
0.1028286229
 40
0.1155781585
 40
0.1278715284
 40
0.1397335439
 40
0.1511960254
 40
0.1622985166
 40
0.1730877108
 40
0.1836181164
 40
0.1888064624
 40
0.1939533969
 40
0.1990674079
 40
0.2041572297
 40
0.2092317427
 40
0.2142999326
 40
0.2193708491
 40
0.2244535591
 40
0.2295570314
 40
0.23469003
 40
0.2398610876
 40
0.2450784755
 40
0.2503501789
 40
0.2556838749
 40
0.2665632232
 40
0.2777709745
 40
0.289351857
 40
0.3013437902
 40
0.3137762127
 40
0.3266715586
 40
0.340046778
 40
0.3539121361
 40
0.3682716924
 40
0.3831256317
 40
0.3984698376
 40
0.4142948591
 40
0.4305883889
 40
0.4473356315
 40
0.4645176111
 40
0.4821128785
 40
0.5000985464
 40
0.5184490169
 40
0.5371363134
 40
0.5561315374
 40
0.5754043954
 40
0.5949225552
 40
0.6146529665
 40
0.6345620056
 40
0.6546147796
 40
0.674775786
 40
0.695009328
 40
0.7152793659
 40
0.7355495527
 40
0.7557835342
 40
0.7759452437
 40
0.7959990038
 40
0.8159093346
 40
0.8356412932
 40
0.8551612386
 40
0.8744361687
 40
0.8934337374
 40
0.9121235546
 40
0.9304767828
 40
0.9484654841
 40
0.9660639112
 40
0.9832492075
 40
1.0
 40
1.0
 40
1.0
 40
1.0
 10
5.1074241683
 20
4.5572257982
 30
0.0
 10
5.1012610993
 20
4.5600832034
 30
0.0
 10
5.0892166368
 20
4.5659376254
 30
0.0
 10
5.0717790353
 20
4.575284344
 30
0.0
 10
5.0552725648
 20
4.5850467
 30
0.0
 10
5.0397358326
 20
4.5952002589
 30
0.0
 10
5.0252059325
 20
4.6057225417
 30
0.0
 10
5.0117172591
 20
4.6165886096
 30
0.0
 10
4.9993020645
 20
4.6277735343
 30
0.0
 10
4.9879899139
 20
4.6392513531
 30
0.0
 10
4.9778084201
 20
4.6509959488
 30
0.0
 10
4.9687820978
 20
4.6629800264
 30
0.0
 10
4.9609343567
 20
4.6751765818
 30
0.0
 10
4.9542839346
 20
4.6875567152
 30
0.0
 10
4.9488506616
 20
4.7000916869
 30
0.0
 10
4.9453305448
 20
4.7106957807
 30
0.0
 10
4.9431498949
 20
4.7192052035
 30
0.0
 10
4.9418333293
 20
4.7255752129
 30
0.0
 10
4.9408287898
 20
4.7319597679
 30
0.0
 10
4.9401364571
 20
4.7383550835
 30
0.0
 10
4.9397566964
 20
4.7447572421
 30
0.0
 10
4.9396898197
 20
4.7511623614
 30
0.0
 10
4.939936102
 20
4.7575665495
 30
0.0
 10
4.9404959507
 20
4.7639658643
 30
0.0
 10
4.9413687853
 20
4.7703563802
 30
0.0
 10
4.9425536243
 20
4.7767342383
 30
0.0
 10
4.9440495802
 20
4.7830955848
 30
0.0
 10
4.9458557201
 20
4.789436536
 30
0.0
 10
4.9479711681
 20
4.7957533762
 30
0.0
 10
4.9512239578
 20
4.8041929863
 30
0.0
 10
4.9560812792
 20
4.8146783977
 30
0.0
 10
4.9630827379
 20
4.8270143143
 30
0.0
 10
4.9712779627
 20
4.8391598688
 30
0.0
 10
4.9806485106
 20
4.8510843048
 30
0.0
 10
4.9911690766
 20
4.8627617247
 30
0.0
 10
5.0028135044
 20
4.874165886
 30
0.0
 10
5.0155557111
 20
4.8852687063
 30
0.0
 10
5.029364771
 20
4.8960447287
 30
0.0
 10
5.0442065207
 20
4.9064704505
 30
0.0
 10
5.0600467221
 20
4.9165204186
 30
0.0
 10
5.0768484642
 20
4.9261698885
 30
0.0
 10
5.094570545
 20
4.9353982364
 30
0.0
 10
5.1131711781
 20
4.9441834326
 30
0.0
 10
5.1326071762
 20
4.9525027623
 30
0.0
 10
5.1528315444
 20
4.9603382004
 30
0.0
 10
5.1737959763
 20
4.9676717302
 30
0.0
 10
5.1954513498
 20
4.9744841483
 30
0.0
 10
5.2177459649
 20
4.9807596817
 30
0.0
 10
5.2406262784
 20
4.9864848039
 30
0.0
 10
5.2640381713
 20
4.9916447714
 30
0.0
 10
5.287926105
 20
4.9962263242
 30
0.0
 10
5.3122327495
 20
5.000220418
 30
0.0
 10
5.3369002581
 20
5.0036172466
 30
0.0
 10
5.361870127
 20
5.0064069243
 30
0.0
 10
5.3870826435
 20
5.0085843912
 30
0.0
 10
5.4124776479
 20
5.0101449721
 30
0.0
 10
5.4379947339
 20
5.0110832361
 30
0.0
 10
5.4635730585
 20
5.0113974206
 30
0.0
 10
5.4891516255
 20
5.0110880898
 30
0.0
 10
5.5146694406
 20
5.0101548893
 30
0.0
 10
5.540065643
 20
5.0085991801
 30
0.0
 10
5.5652798284
 20
5.0064264758
 30
0.0
 10
5.5902518609
 20
5.0036416847
 30
0.0
 10
5.6149219981
 20
5.000249677
 30
0.0
 10
5.6392317014
 20
4.9962601711
 30
0.0
 10
5.6631231683
 20
4.9916832012
 30
0.0
 10
5.686539077
 20
4.986527893
 30
0.0
 10
5.7094237801
 20
4.9808071015
 30
0.0
 10
5.731723216
 20
4.9745357815
 30
0.0
 10
5.7533838807
 20
4.9677277015
 30
0.0
 10
5.7743540178
 20
4.9603981564
 30
0.0
 10
5.7945841556
 20
4.9525666135
 30
0.0
 10
5.8077194263
 20
4.9469486708
 30
0.0
 10
5.8141485011
 20
4.9440559856
 30
0.0
 11
5.1074241683
 21
4.5572257982
 31
0.0
 11
5.089100287
 21
4.5661459461
 31
0.0
 11
5.0716686104
 21
4.5755033306
 31
0.0
 11
5.05517172
 21
4.5852752296
 31
0.0
 11
5.0396471802
 21
4.5954382815
 31
0.0
 11
5.0251327129
 21
4.6059684231
 31
0.0
 11
5.0116628568
 21
4.6168405854
 31
0.0
 11
4.9992698032
 21
4.6280289673
 31
0.0
 11
4.9879831262
 21
4.639506935
 31
0.0
 11
4.9778299564
 21
4.6512472355
 31
0.0
 11
4.9688344858
 21
4.6632218987
 31
0.0
 11
4.9610186212
 21
4.6754025136
 31
0.0
 11
4.9544005718
 21
4.6877599752
 31
0.0
 11
4.9489972205
 21
4.7002649933
 31
0.0
 11
4.9448206926
 21
4.7128877051
 31
0.0
 11
4.9431958102
 21
4.719233808
 31
0.0
 11
4.9418815888
 21
4.7255980663
 31
0.0
 11
4.9408787871
 21
4.7319766866
 31
0.0
 11
4.9401877163
 21
4.7383658458
 31
0.0
 11
4.9398086739
 21
4.7447617197
 31
0.0
 11
4.9397419577
 21
4.7511604841
 31
0.0
 11
4.939987865
 21
4.7575583148
 31
0.0
 11
4.9405466283
 21
4.7639513883
 31
0.0
 11
4.9414177957
 21
4.7703358867
 31
0.0
 11
4.9426005082
 21
4.7767079956
 31
0.0
 11
4.9440939013
 21
4.7830639006
 31
0.0
 11
4.9458971105
 21
4.7893997875
 31
0.0
 11
4.9480092714
 21
4.7957118418
 31
0.0
 11
4.9504295114
 21
4.8019962501
 31
0.0
 11
4.9561882421
 21
4.8144671329
 31
0.0
 11
4.9631576664
 21
4.8267828247
 31
0.0
 11
4.9713212319
 21
4.8389138089
 31
0.0
 11
4.9806613348
 21
4.8508307686
 31
0.0
 11
4.9911542976
 21
4.8625055399
 31
0.0
 11
5.002774266
 21
4.8739103723
 31
0.0
 11
5.0154951396
 21
4.8850175852
 31
0.0
 11
5.0292863935
 21
4.8958007616
 31
0.0
 11
5.0441136468
 21
4.9062345857
 31
0.0
 11
5.0599423755
 21
4.9162937842
 31
0.0
 11
5.0767357627
 21
4.925954019
 31
0.0
 11
5.0944522013
 21
4.935192905
 31
0.0
 11
5.1130494835
 21
4.9439883019
 31
0.0
 11
5.132484595
 21
4.9523185208
 31
0.0
 11
5.1527101795
 21
4.9601643001
 31
0.0
 11
5.1736774262
 21
4.9675071915
 31
0.0
 11
5.1953373496
 21
4.974328884
 31
0.0
 11
5.2176381501
 21
4.9806132748
 31
0.0
 11
5.2405257501
 21
4.9863460499
 31
0.0
 11
5.2639459952
 21
4.9915129595
 31
0.0
 11
5.2878434844
 21
4.9961012159
 31
0.0
 11
5.3121604461
 21
5.0001008113
 31
0.0
 11
5.3368388433
 21
5.003502049
 31
0.0
 11
5.3618203163
 21
5.006295888
 31
0.0
 11
5.3870449331
 21
5.0084764798
 31
0.0
 11
5.4124522841
 21
5.0100389457
 31
0.0
 11
5.4379819298
 21
5.0109785963
 31
0.0
 11
5.4635730054
 21
5.0112934392
 31
0.0
 11
5.4891643288
 21
5.0109834939
 31
0.0
 11
5.5146947135
 21
5.0100488482
 31
0.0
 11
5.5401032545
 21
5.0084912769
 31
0.0
 11
5.5653295365
 21
5.0063154966
 31
0.0
 11
5.5903131937
 21
5.0035265192
 31
0.0
 11
5.6149942241
 21
5.0001300817
 31
0.0
 11
5.639314233
 21
4.9961351247
 31
0.0
 11
5.6632152698
 21
4.9915514731
 31
0.0
 11
5.6866395587
 21
4.9863891546
 31
0.0
 11
5.7095315362
 21
4.9806607599
 31
0.0
 11
5.7318371563
 21
4.9743806371
 31
0.0
 11
5.753502432
 21
4.967563192
 31
0.0
 11
5.7744753198
 21
4.9602243404
 31
0.0
 11
5.794706892
 21
4.9523824198
 31
0.0
 11
5.8141485011
 21
4.9440559856
 31
0.0
  0
SPLINE
  5
244
100
AcDbEntity
  8
0
100
AcDbSpline
 62
9
  6
CONTINUOUS
 70
0
 71
3
 72
23
 73
19
 74
17
 42
0.0000001
 43
0.0000001
 44
0.0000000001
 12
0.006229935
 22
0.0184578407
 32
0.0
 13
0.0174745911
 23
0.0086106118
 33
0.0
 40
0.0
 40
0.0
 40
0.0
 40
0.0
 40
0.0669309958
 40
0.1340971222
 40
0.2013046075
 40
0.2683758785
 40
0.3351562191
 40
0.4014606414
 40
0.4670692722
 40
0.5317528702
 40
0.5952845384
 40
0.6574340358
 40
0.7180325029
 40
0.7770869232
 40
0.8346983858
 40
0.8910317511
 40
0.9461347231
 40
1.0
 40
1.0
 40
1.0
 40
1.0
 10
5.0956473088
 20
4.5422138971
 30
0.0
 10
5.0957863007
 20
4.5426256976
 30
0.0
 10
5.0960844957
 20
4.5434442374
 30
0.0
 10
5.0965900123
 20
4.5446502385
 30
0.0
 10
5.0971533303
 20
4.5458314313
 30
0.0
 10
5.0977728789
 20
4.5469812274
 30
0.0
 10
5.0984399427
 20
4.5480971783
 30
0.0
 10
5.0991461041
 20
4.5491773865
 30
0.0
 10
5.0998826536
 20
4.5502204169
 30
0.0
 10
5.1006436028
 20
4.5512232618
 30
0.0
 10
5.1014244242
 20
4.5521819102
 30
0.0
 10
5.1022201833
 20
4.5530932462
 30
0.0
 10
5.1030286203
 20
4.5539540108
 30
0.0
 10
5.1038554182
 20
4.5547556197
 30
0.0
 10
5.1047058083
 20
4.5554908328
 30
0.0
 10
5.1055844368
 20
4.556150465
 30
0.0
 10
5.106487803
 20
4.556731901
 30
0.0
 10
5.1071104104
 20
4.5570698535
 30
0.0
 10
5.1074241683
 20
4.5572244578
 30
0.0
 11
5.0956473088
 21
4.5422138971
 31
0.0
 11
5.0960935766
 21
4.543439022
 31
0.0
 11
5.0965994829
 21
4.5446457161
 31
0.0
 11
5.0971632993
 21
4.5458273557
 31
0.0
 11
5.097782221
 21
4.5469780753
 31
0.0
 11
5.0984489447
 21
4.548095179
 31
0.0
 11
5.0991549916
 21
4.5491767992
 31
0.0
 11
5.0998920488
 21
4.5502209824
 31
0.0
 11
5.1006538597
 21
4.5512247137
 31
0.0
 11
5.1014355576
 21
4.5521842605
 31
0.0
 11
5.1022323139
 21
4.5530958724
 31
0.0
 11
5.103042159
 21
4.5539547994
 31
0.0
 11
5.1038696623
 21
4.5547540051
 31
0.0
 11
5.1047203036
 21
4.5554861346
 31
0.0
 11
5.1055984479
 21
4.5561443129
 31
0.0
 11
5.1065014969
 21
4.5567246618
 31
0.0
 11
5.1074241683
 21
4.5572244578
 31
0.0
  0
SPLINE
  5
245
100
AcDbEntity
  8
0
100
AcDbSpline
 62
9
  6
CONTINUOUS
 70
0
 71
3
 72
79
 73
75
 74
73
 42
0.0000001
 43
0.0000001
 44
0.0000000001
 12
1.0045734171
 22
0.6012613005
 32
0.0
 13
-0.9115281107
 23
-0.7347104227
 33
0.0
 40
0.0
 40
0.0
 40
0.0
 40
0.0
 40
0.0149264519
 40
0.0293443431
 40
0.0432443989
 40
0.0566242605
 40
0.0694970311
 40
0.0818843763
 40
0.0938143023
 40
0.1053221802
 40
0.116450897
 40
0.1218900708
 40
0.1272545531
 40
0.1325523026
 40
0.1377916804
 40
0.142981434
 40
0.1481306756
 40
0.1532488563
 40
0.158345744
 40
0.1634312711
 40
0.1685154225
 40
0.1736081827
 40
0.1787194842
 40
0.1838591541
 40
0.1890367797
 40
0.1942615658
 40
0.1995423368
 40
0.2103022973
 40
0.2213819144
 40
0.2328345251
 40
0.2447044156
 40
0.2570281819
 40
0.2698333651
 40
0.2831393347
 40
0.2969595059
 40
0.3113000688
 40
0.3261608679
 40
0.3415377362
 40
0.3574211728
 40
0.3737968745
 40
0.3906479419
 40
0.4079536463
 40
0.4256896055
 40
0.4438297658
 40
0.462345407
 40
0.481205057
 40
0.5003761737
 40
0.5198244793
 40
0.5395137351
 40
0.5594070457
 40
0.5794665541
 40
0.5996532072
 40
0.619927611
 40
0.6402500728
 40
0.6605804843
 40
0.6808786784
 40
0.701104771
 40
0.7212192823
 40
0.7411829692
 40
0.760957401
 40
0.7805054208
 40
0.7997904638
 40
0.8187772929
 40
0.8374328789
 40
0.8557252557
 40
0.8736243456
 40
0.891103306
 40
0.9081370217
 40
0.9247029703
 40
0.9407830462
 40
0.9563618454
 40
0.9714275534
 40
0.9859742128
 40
1.0
 40
1.0
 40
1.0
 40
1.0
 10
5.8199241683
 20
4.6005295771
 30
0.0
 10
5.8249224072
 20
4.6035211431
 30
0.0
 10
5.8346180045
 20
4.6096246409
 30
0.0
 10
5.8484486066
 20
4.6193075121
 30
0.0
 10
5.8612752755
 20
4.6293348349
 30
0.0
 10
5.8730548878
 20
4.6396822967
 30
0.0
 10
5.883756949
 20
4.6503201582
 30
0.0
 10
5.893356408
 20
4.6612209391
 30
0.0
 10
5.9018283537
 20
4.6723589874
 30
0.0
 10
5.9091512141
 20
4.6837045689
 30
0.0
 10
5.9143186207
 20
4.6933829759
 30
0.0
 10
5.9178373788
 20
4.701188138
 30
0.0
 10
5.9201574625
 20
4.7070302469
 30
0.0
 10
5.922177147
 20
4.7129004697
 30
0.0
 10
5.9238952839
 20
4.7187950385
 30
0.0
 10
5.9253106628
 20
4.7247100266
 30
0.0
 10
5.9264221329
 20
4.7306415312
 30
0.0
 10
5.9272283838
 20
4.7365856532
 30
0.0
 10
5.9277289459
 20
4.7425383568
 30
0.0
 10
5.9279239542
 20
4.7484956096
 30
0.0
 10
5.9278134332
 20
4.7544534191
 30
0.0
 10
5.9273974443
 20
4.7604077868
 30
0.0
 10
5.9266760942
 20
4.7663547218
 30
0.0
 10
5.9256493547
 20
4.7722901868
 30
0.0
 10
5.924317966
 20
4.7782101306
 30
0.0
 10
5.9226833335
 20
4.7841108153
 30
0.0
 10
5.9200855665
 20
4.7919955034
 30
0.0
 10
5.9160638955
 20
4.8018031392
 30
0.0
 10
5.9100752878
 20
4.8133507619
 30
0.0
 10
5.9029126443
 20
4.8247234139
 30
0.0
 10
5.8945977415
 20
4.8358923152
 30
0.0
 10
5.8851510675
 20
4.8468276888
 30
0.0
 10
5.8745991791
 20
4.8575024475
 30
0.0
 10
5.862971125
 20
4.8678908166
 30
0.0
 10
5.850295808
 20
4.8779645276
 30
0.0
 10
5.8366070787
 20
4.8876983882
 30
0.0
 10
5.821941582
 20
4.8970687711
 30
0.0
 10
5.8063364077
 20
4.9060497097
 30
0.0
 10
5.789832636
 20
4.9146183112
 30
0.0
 10
5.7724740935
 20
4.9227537778
 30
0.0
 10
5.754305322
 20
4.9304332489
 30
0.0
 10
5.7353739773
 20
4.9376368199
 30
0.0
 10
5.7157301738
 20
4.9443471843
 30
0.0
 10
5.6954247984
 20
4.950545254
 30
0.0
 10
5.6745110743
 20
4.9562147032
 30
0.0
 10
5.65304425
 20
4.9613422399
 30
0.0
 10
5.6310802663
 20
4.9659130423
 30
0.0
 10
5.6086767037
 20
4.9699148144
 30
0.0
 10
5.5858926388
 20
4.9733386672
 30
0.0
 10
5.5627876669
 20
4.9761743945
 30
0.0
 10
5.5394223894
 20
4.9784140494
 30
0.0
 10
5.5158583068
 20
4.9800534105
 30
0.0
 10
5.4921571998
 20
4.9810871098
 30
0.0
 10
5.468381278
 20
4.9815117428
 30
0.0
 10
5.4445930005
 20
4.981327902
 30
0.0
 10
5.4208548269
 20
4.9805351606
 30
0.0
 10
5.3972291249
 20
4.9791347263
 30
0.0
 10
5.373777818
 20
4.9771320345
 30
0.0
 10
5.3505625288
 20
4.9745315858
 30
0.0
 10
5.3276443326
 20
4.9713391481
 30
0.0
 10
5.305083127
 20
4.967564909
 30
0.0
 10
5.2829382027
 20
4.9632181676
 30
0.0
 10
5.2612679292
 20
4.9583090775
 30
0.0
 10
5.2401287232
 20
4.9528523669
 30
0.0
 10
5.2195760977
 20
4.9468618856
 30
0.0
 10
5.1996643789
 20
4.9403518772
 30
0.0
 10
5.180445117
 20
4.9333412709
 30
0.0
 10
5.1619686828
 20
4.9258480924
 30
0.0
 10
5.1442841495
 20
4.917890259
 30
0.0
 10
5.1274369121
 20
4.9094904069
 30
0.0
 10
5.1114710116
 20
4.9006702607
 30
0.0
 10
5.0964290803
 20
4.8914507272
 30
0.0
 10
5.0823498574
 20
4.8818579873
 30
0.0
 10
5.0734673344
 20
4.875106807
 30
0.0
 10
5.0692057013
 20
4.871671843
 30
0.0
 11
5.8199241683
 21
4.6005295771
 31
0.0
 11
5.8347056803
 21
4.6098512527
 31
0.0
 11
5.8485245628
 21
4.6195450651
 31
0.0
 11
5.8613344391
 21
4.6295819391
 31
0.0
 11
5.8730918067
 21
4.6399330219
 31
0.0
 11
5.8837677421
 21
4.6505705887
 31
0.0
 11
5.8933379328
 21
4.6614672718
 31
0.0
 11
5.9017785847
 21
4.6725954019
 31
0.0
 11
5.9090689224
 21
4.6839255491
 31
0.0
 11
5.9151892632
 21
4.6954276457
 31
0.0
 11
5.9178046038
 21
4.7012337729
 31
0.0
 11
5.9201209769
 21
4.707071536
 31
0.0
 11
5.9221372485
 21
4.7129370658
 31
0.0
 11
5.923852292
 21
4.7188264929
 31
0.0
 11
5.9252649806
 21
4.7247359478
 31
0.0
 11
5.9263741879
 21
4.7306615608
 31
0.0
 11
5.9271788272
 21
4.7365994607
 31
0.0
 11
5.9276784407
 21
4.7425457494
 31
0.0
 11
5.9278730716
 21
4.7484965076
 31
0.0
 11
5.9277627773
 21
4.7544478152
 31
0.0
 11
5.9273476147
 21
4.7603957523
 31
0.0
 11
5.9266276411
 21
4.7663363988
 31
0.0
 11
5.9256029372
 21
4.7722658359
 31
0.0
 11
5.9242741628
 21
4.7781801711
 31
0.0
 11
5.9226425774
 21
4.7840755393
 31
0.0
 11
5.9207094683
 21
4.7899480767
 31
0.0
 11
5.9159438288
 21
4.8016092041
 31
0.0
 11
5.9099880738
 21
4.8131327087
 31
0.0
 11
5.9028586011
 21
4.8244884355
 31
0.0
 11
5.894575133
 21
4.8356466416
 31
0.0
 11
5.8851578487
 21
4.8465776762
 31
0.0
 11
5.8746320293
 21
4.8572529619
 31
0.0
 11
5.8630263961
 21
4.867644645
 31
0.0
 11
5.85037004
 21
4.8777249801
 31
0.0
 11
5.8366965485
 21
4.8874676162
 31
0.0
 11
5.8220429346
 21
4.8968472646
 31
0.0
 11
5.8064465112
 21
4.9058387558
 31
0.0
 11
5.7899483998
 21
4.9144185624
 31
0.0
 11
5.7725930028
 21
4.9225645715
 31
0.0
 11
5.7544249699
 21
4.9302547993
 31
0.0
 11
5.7354920225
 21
4.9374690746
 31
0.0
 11
5.7158448707
 21
4.9441889899
 31
0.0
 11
5.6955344328
 21
4.9503962801
 31
0.0
 11
5.6746139492
 21
4.9560745873
 31
0.0
 11
5.6531392101
 21
4.9612096476
 31
0.0
 11
5.6311661812
 21
4.9657873591
 31
0.0
 11
5.6087524167
 21
4.9697955487
 31
0.0
 11
5.5859574393
 21
4.9732244338
 31
0.0
 11
5.5628409141
 21
4.9760644212
 31
0.0
 11
5.5394634045
 21
4.9783078006
 31
0.0
 11
5.5158867332
 21
4.9799494991
 31
0.0
 11
5.4921728213
 21
4.9809846685
 31
0.0
 11
5.4683838682
 21
4.9814102401
 31
0.0
 11
5.444582515
 21
4.9812259644
 31
0.0
 11
5.4208314388
 21
4.9804318594
 31
0.0
 11
5.3971930618
 21
4.9790295722
 31
0.0
 11
5.3737293481
 21
4.9770236745
 31
0.0
 11
5.3505022095
 21
4.9744190532
 31
0.0
 11
5.3275728679
 21
4.9712220394
 31
0.0
 11
5.3050011395
 21
4.9674419092
 31
0.0
 11
5.2828466651
 21
4.9630883018
 31
0.0
 11
5.261168066
 21
4.958172095
 31
0.0
 11
5.2400215968
 21
4.9527070396
 31
0.0
 11
5.219463175
 21
4.9467072951
 31
0.0
 11
5.1995474722
 21
4.940188044
 31
0.0
 11
5.1803258611
 21
4.9331671782
 31
0.0
 11
5.1618491734
 21
4.9256630334
 31
0.0
 11
5.1441668668
 21
4.9176947564
 31
0.0
 11
5.1273242353
 21
4.9092839507
 31
0.0
 11
5.1113657873
 21
4.9004526834
 31
0.0
 11
5.0963346152
 21
4.8912236321
 31
0.0
 11
5.0822688872
 21
4.8816215979
 31
0.0
 11
5.0692057013
 21
4.871671843
 31
0.0
  0
SPLINE
  5
246
100
AcDbEntity
  8
0
100
AcDbSpline
 62
9
  6
CONTINUOUS
 70
0
 71
3
 72
23
 73
19
 74
17
 42
0.0000001
 43
0.0000001
 44
0.0000000001
 12
0.0293369604
 22
0.0
 32
0.0
 13
0.0
 23
-0.0293369604
 33
0.0
 40
0.0
 40
0.0
 40
0.0
 40
0.0
 40
0.0667360317
 40
0.1334923833
 40
0.199990791
 40
0.2659822466
 40
0.3313358312
 40
0.3959698489
 40
0.459819895
 40
0.5228386402
 40
0.5849854627
 40
0.6462448755
 40
0.7066634077
 40
0.7663410705
 40
0.8254047238
 40
0.8839874033
 40
0.942163801
 40
1.0
 40
1.0
 40
1.0
 40
1.0
 10
5.1074241683
 20
4.5572244578
 30
0.0
 10
5.1080767791
 20
4.5572244578
 30
0.0
 10
5.1093828636
 20
4.557168248
 30
0.0
 10
5.1113248457
 20
4.5569189788
 30
0.0
 10
5.1132317842
 20
4.5565072895
 30
0.0
 10
5.1150824364
 20
4.5559346943
 30
0.0
 10
5.1168584358
 20
4.5552077979
 30
0.0
 10
5.1185437224
 20
4.5543344157
 30
0.0
 10
5.1201220035
 20
4.5533213339
 30
0.0
 10
5.1215784977
 20
4.5521787536
 30
0.0
 10
5.1229000473
 20
4.5509187315
 30
0.0
 10
5.1240728193
 20
4.5495522601
 30
0.0
 10
5.1250847233
 20
4.5480918928
 30
0.0
 10
5.1259273767
 20
4.546552054
 30
0.0
 10
5.1265916217
 20
4.5449464801
 30
0.0
 10
5.127069465
 20
4.5432910987
 30
0.0
 10
5.1273588363
 20
4.5416050296
 30
0.0
 10
5.1274241683
 20
4.5404695292
 30
0.0
 10
5.1274241683
 20
4.5399039497
 30
0.0
 11
5.1074241683
 21
4.5572244578
 31
0.0
 11
5.1093802091
 21
4.557140721
 31
0.0
 11
5.111322682
 21
4.5568912399
 31
0.0
 11
5.1132294054
 21
4.556478608
 31
0.0
 11
5.1150787237
 21
4.5559058304
 31
0.0
 11
5.1168528693
 21
4.5551789516
 31
0.0
 11
5.1185358173
 21
4.5543053783
 31
0.0
 11
5.1201116348
 21
4.5532926835
 31
0.0
 11
5.1215656469
 21
4.5521508295
 31
0.0
 11
5.1228841464
 21
4.5508916181
 31
0.0
 11
5.1240535056
 21
4.54952692
 31
0.0
 11
5.1250622212
 21
4.5480694444
 31
0.0
 11
5.1259015486
 21
4.5465329892
 31
0.0
 11
5.1265629351
 21
4.5449314326
 31
0.0
 11
5.1270394014
 21
4.5432801617
 31
0.0
 11
5.1273274774
 21
4.5415979307
 31
0.0
 11
5.1274241683
 21
4.5399039497
 31
0.0
  0
SPLINE
  5
247
100
AcDbEntity
  8
0
100
AcDbSpline
 62
9
  6
CONTINUOUS
 70
0
 71
3
 72
12
 73
8
 74
6
 42
0.0000001
 43
0.0000001
 44
0.0000000001
 12
0.009758937
 22
0.0
 32
0.0
 13
0.0088483374
 23
-0.0041162819
 33
0.0
 40
0.0
 40
0.0
 40
0.0
 40
0.0
 40
0.2518093294
 40
0.5033775626
 40
0.6286040365
 40
0.7531874866
 40
1.0
 40
1.0
 40
1.0
 40
1.0
 10
5.1074241683
 20
4.6005176786
 30
0.0
 10
5.1082432988
 20
4.6005176786
 30
0.0
 10
5.1098819806
 20
4.600429228
 30
0.0
 10
5.1119046671
 20
4.6001029149
 30
0.0
 10
5.1134892925
 20
4.5997136139
 30
0.0
 10
5.1150350676
 20
4.5992421807
 30
0.0
 10
5.1161606507
 20
4.598794235
 30
0.0
 10
5.1168886109
 20
4.598455585
 30
0.0
 11
5.1074241683
 21
4.6005176786
 31
0.0
 11
5.1098780254
 21
4.6003859301
 31
0.0
 11
5.1123015945
 21
4.5999941046
 31
0.0
 11
5.1134883139
 21
4.5997022661
 31
0.0
 11
5.1146511979
 21
4.5993474768
 31
0.0
 11
5.1168886109
 21
4.598455585
 31
0.0
  0
SPLINE
  5
248
100
AcDbEntity
  8
0
100
AcDbSpline
 62
9
  6
CONTINUOUS
 70
0
 71
3
 72
17
 73
13
 74
11
 42
0.0000001
 43
0.0000001
 44
0.0000000001
 12
0.0177463843
 22
-0.0082556889
 32
0.0
 13
-0.0
 23
-0.0195726992
 33
0.0
 40
0.0
 40
0.0
 40
0.0
 40
0.0
 40
0.1325877471
 40
0.262907063
 40
0.3907896711
 40
0.4538283019
 40
0.5162616923
 40
0.6394194653
 40
0.7003391968
 40
0.7608850063
 40
0.8809583422
 40
1.0
 40
1.0
 40
1.0
 40
1.0
 10
5.1168886109
 20
4.598455585
 30
0.0
 10
5.1176729286
 20
4.5980907173
 30
0.0
 10
5.1191858635
 20
4.5972711464
 30
0.0
 10
5.1212591777
 20
4.5957758752
 30
0.0
 10
5.1227888259
 20
4.5943329702
 30
0.0
 10
5.1238680557
 20
4.5930793485
 30
0.0
 10
5.1248376863
 20
4.5917776424
 30
0.0
 10
5.1256589946
 20
4.5903870306
 30
0.0
 10
5.1263132253
 20
4.5889299527
 30
0.0
 10
5.1268485592
 20
4.5874463558
 30
0.0
 10
5.1273006845
 20
4.5855362647
 30
0.0
 10
5.1274241683
 20
4.583973826
 30
0.0
 10
5.1274241683
 20
4.5831971705
 30
0.0
 11
5.1168886109
 21
4.598455585
 31
0.0
 11
5.119168882
 21
4.597216671
 31
0.0
 11
5.1212363401
 21
4.5957227863
 31
0.0
 11
5.1230545983
 21
4.5940026162
 31
0.0
 11
5.1238592365
 21
4.5930672504
 31
0.0
 11
5.1245889344
 21
4.5920870461
 31
0.0
 11
5.1258121948
 21
4.5900099595
 31
0.0
 11
5.1263002289
 21
4.5889220469
 31
0.0
 11
5.1267022652
 21
4.5878072832
 31
0.0
 11
5.1272424054
 21
4.5855200365
 31
0.0
 11
5.1274241683
 21
4.5831971705
 31
0.0
  0
SPLINE
  5
249
100
AcDbEntity
  8
0
100
AcDbSpline
 62
9
  6
CONTINUOUS
 70
0
 71
3
 72
23
 73
19
 74
17
 42
0.0000001
 43
0.0000001
 44
0.0000000001
 12
-0.0293369604
 22
0.0
 32
0.0
 13
0.0
 23
-0.0293369604
 33
0.0
 40
0.0
 40
0.0
 40
0.0
 40
0.0
 40
0.0667360317
 40
0.1334923833
 40
0.199990791
 40
0.2659822466
 40
0.3313358312
 40
0.3959698489
 40
0.459819895
 40
0.5228386402
 40
0.5849854627
 40
0.6462448755
 40
0.7066634077
 40
0.7663410705
 40
0.8254047238
 40
0.8839874033
 40
0.942163801
 40
1.0
 40
1.0
 40
1.0
 40
1.0
 10
5.8199241683
 20
4.5572244578
 30
0.0
 10
5.8192715575
 20
4.5572244578
 30
0.0
 10
5.817965473
 20
4.557168248
 30
0.0
 10
5.8160234909
 20
4.5569189788
 30
0.0
 10
5.8141165524
 20
4.5565072895
 30
0.0
 10
5.8122659002
 20
4.5559346943
 30
0.0
 10
5.8104899008
 20
4.5552077979
 30
0.0
 10
5.8088046141
 20
4.5543344157
 30
0.0
 10
5.8072263331
 20
4.5533213339
 30
0.0
 10
5.8057698389
 20
4.5521787536
 30
0.0
 10
5.8044482893
 20
4.5509187315
 30
0.0
 10
5.8032755173
 20
4.5495522601
 30
0.0
 10
5.8022636133
 20
4.5480918928
 30
0.0
 10
5.8014209599
 20
4.546552054
 30
0.0
 10
5.8007567149
 20
4.5449464801
 30
0.0
 10
5.8002788716
 20
4.5432910987
 30
0.0
 10
5.7999895003
 20
4.5416050296
 30
0.0
 10
5.7999241683
 20
4.5404695292
 30
0.0
 10
5.7999241683
 20
4.5399039497
 30
0.0
 11
5.8199241683
 21
4.5572244578
 31
0.0
 11
5.8179681275
 21
4.557140721
 31
0.0
 11
5.8160256546
 21
4.5568912399
 31
0.0
 11
5.8141189312
 21
4.556478608
 31
0.0
 11
5.8122696129
 21
4.5559058304
 31
0.0
 11
5.8104954673
 21
4.5551789516
 31
0.0
 11
5.8088125193
 21
4.5543053783
 31
0.0
 11
5.8072367018
 21
4.5532926835
 31
0.0
 11
5.8057826897
 21
4.5521508295
 31
0.0
 11
5.8044641902
 21
4.5508916181
 31
0.0
 11
5.803294831
 21
4.54952692
 31
0.0
 11
5.8022861154
 21
4.5480694444
 31
0.0
 11
5.801446788
 21
4.5465329892
 31
0.0
 11
5.8007854015
 21
4.5449314326
 31
0.0
 11
5.8003089352
 21
4.5432801617
 31
0.0
 11
5.8000208592
 21
4.5415979307
 31
0.0
 11
5.7999241683
 21
4.5399039497
 31
0.0
  0
SPLINE
  5
24A
100
AcDbEntity
  8
0
100
AcDbSpline
 62
9
  6
CONTINUOUS
 70
0
 71
3
 72
12
 73
8
 74
6
 42
0.0000001
 43
0.0000001
 44
0.0000000001
 12
-0.0097568905
 22
0.0
 32
0.0
 13
-0.0088468793
 23
-0.0041145643
 33
0.0
 40
0.0
 40
0.0
 40
0.0
 40
0.0
 40
0.2518082711
 40
0.5033758535
 40
0.6286023468
 40
0.7531860959
 40
1.0
 40
1.0
 40
1.0
 40
1.0
 10
5.8199241683
 20
4.6005176786
 30
0.0
 10
5.8191052131
 20
4.6005176786
 30
0.0
 10
5.8174668809
 20
4.6004292657
 30
0.0
 10
5.8154446146
 20
4.6001030908
 30
0.0
 10
5.8138603025
 20
4.5997139549
 30
0.0
 10
5.8123148158
 20
4.5992427197
 30
0.0
 10
5.8111894278
 20
4.5987949597
 30
0.0
 10
5.8104615835
 20
4.5984564492
 30
0.0
 11
5.8199241683
 21
4.6005176786
 31
0.0
 11
5.8174708346
 21
4.6003859863
 31
0.0
 11
5.8150477665
 21
4.5999943272
 31
0.0
 11
5.8138612804
 21
4.5997026122
 31
0.0
 11
5.8126986144
 21
4.599347972
 31
0.0
 11
5.8104615835
 21
4.5984564492
 31
0.0
  0
SPLINE
  5
24B
100
AcDbEntity
  8
0
100
AcDbSpline
 62
9
  6
CONTINUOUS
 70
0
 71
3
 72
17
 73
13
 74
11
 42
0.0000001
 43
0.0000001
 44
0.0000000001
 12
-0.0177490361
 22
-0.0082548374
 32
0.0
 13
-0.0
 23
-0.0195747446
 33
0.0
 40
0.0
 40
0.0
 40
0.0
 40
0.0
 40
0.1325884384
 40
0.2629083674
 40
0.390791449
 40
0.4538302361
 40
0.5162636947
 40
0.6394213264
 40
0.7003408716
 40
0.7608864257
 40
0.8809591116
 40
1.0
 40
1.0
 40
1.0
 40
1.0
 10
5.8104615835
 20
4.5984564492
 30
0.0
 10
5.8096771446
 20
4.5980916172
 30
0.0
 10
5.8081639675
 20
4.5972720963
 30
0.0
 10
5.8060903024
 20
4.5957768332
 30
0.0
 10
5.8045603835
 20
4.5943338816
 30
0.0
 10
5.8034809562
 20
4.5930801956
 30
0.0
 10
5.8025111469
 20
4.5917784102
 30
0.0
 10
5.8016896835
 20
4.5903876945
 30
0.0
 10
5.8010353272
 20
4.5889304941
 30
0.0
 10
5.8004998897
 20
4.5874467666
 30
0.0
 10
5.8000476765
 20
4.5855364953
 30
0.0
 10
5.7999241683
 20
4.5839739022
 30
0.0
 10
5.7999241683
 20
4.5831971705
 30
0.0
 11
5.8104615835
 21
4.5984564492
 31
0.0
 11
5.8081809479
 21
4.5972176096
 31
0.0
 11
5.8061131405
 21
4.5957237327
 31
0.0
 11
5.8042945611
 21
4.5940035081
 31
0.0
 11
5.8034897761
 21
4.5930680945
 31
0.0
 11
5.8027599433
 21
4.5920878298
 31
0.0
 11
5.801536453
 21
4.5900105894
 31
0.0
 11
5.8010483257
 21
4.5889225861
 31
0.0
 11
5.8006462117
 21
4.587807724
 31
0.0
 11
5.8001059666
 21
4.5855202629
 31
0.0
 11
5.7999241683
 21
4.5831971705
 31
0.0
  0
SPLINE
  5
24C
100
AcDbEntity
  8
0
100
AcDbSpline
 62
9
  6
CONTINUOUS
 70
0
 71
3
 72
15
 73
11
 74
9
 42
0.0000001
 43
0.0000001
 44
0.0000000001
 12
-0.0091417332
 22
0.0054720149
 32
0.0
 13
-0.0098311536
 23
-0.0041064158
 33
0.0
 40
0.0
 40
0.0
 40
0.0
 40
0.0
 40
0.1144166586
 40
0.2300014571
 40
0.3479059992
 40
0.4691463884
 40
0.5945884312
 40
0.724808418
 40
0.8599599512
 40
1.0
 40
1.0
 40
1.0
 40
1.0
 10
5.1176932973
 20
4.6003585747
 30
0.0
 10
5.1173446417
 20
4.6005672713
 30
0.0
 10
5.1166139001
 20
4.6009390742
 30
0.0
 10
5.1154427998
 20
4.6013441717
 30
0.0
 10
5.1142046358
 20
4.601595274
 30
0.0
 10
5.1129101544
 20
4.6016913361
 30
0.0
 10
5.1115700072
 20
4.6016306958
 30
0.0
 10
5.1101963723
 20
4.6014143051
 30
0.0
 10
5.1088019907
 20
4.6010468772
 30
0.0
 10
5.1078830867
 20
4.6007093661
 30
0.0
 10
5.1074241683
 20
4.6005176786
 30
0.0
 11
5.1176932973
 21
4.6003585747
 31
0.0
 11
5.1166068527
 21
4.6009114513
 31
0.0
 11
5.1154434959
 21
4.6013153494
 31
0.0
 11
5.1142127858
 21
4.6015670805
 31
0.0
 11
5.1129247659
 21
4.6016649416
 31
0.0
 11
5.1115895121
 21
4.601607288
 31
0.0
 11
5.1102185229
 21
4.6013945035
 31
0.0
 11
5.1088254605
 21
4.6010300576
 31
0.0
 11
5.1074241683
 21
4.6005176786
 31
0.0
  0
SPLINE
  5
24D
100
AcDbEntity
  8
0
100
AcDbSpline
 62
9
  6
CONTINUOUS
 70
0
 71
3
 72
15
 73
11
 74
9
 42
0.0000001
 43
0.0000001
 44
0.0000000001
 12
0.0091417332
 22
0.0054720149
 32
0.0
 13
0.0098311536
 23
-0.0041064158
 33
0.0
 40
0.0
 40
0.0
 40
0.0
 40
0.0
 40
0.1144166586
 40
0.2300014571
 40
0.3479059992
 40
0.4691463884
 40
0.5945884312
 40
0.724808418
 40
0.8599599512
 40
1.0
 40
1.0
 40
1.0
 40
1.0
 10
5.8096550393
 20
4.6003585747
 30
0.0
 10
5.8100036949
 20
4.6005672713
 30
0.0
 10
5.8107344365
 20
4.6009390742
 30
0.0
 10
5.8119055368
 20
4.6013441717
 30
0.0
 10
5.8131437008
 20
4.601595274
 30
0.0
 10
5.8144381822
 20
4.6016913361
 30
0.0
 10
5.8157783293
 20
4.6016306958
 30
0.0
 10
5.8171519643
 20
4.6014143051
 30
0.0
 10
5.8185463459
 20
4.6010468772
 30
0.0
 10
5.8194652499
 20
4.6007093661
 30
0.0
 10
5.8199241683
 20
4.6005176786
 30
0.0
 11
5.8096550393
 21
4.6003585747
 31
0.0
 11
5.8107414839
 21
4.6009114513
 31
0.0
 11
5.8119048407
 21
4.6013153494
 31
0.0
 11
5.8131355508
 21
4.6015670805
 31
0.0
 11
5.8144235707
 21
4.6016649416
 31
0.0
 11
5.8157588245
 21
4.601607288
 31
0.0
 11
5.8171298137
 21
4.6013945035
 31
0.0
 11
5.8185228761
 21
4.6010300576
 31
0.0
 11
5.8199241683
 21
4.6005176786
 31
0.0
  0
SPLINE
  5
24E
100
AcDbEntity
  8
0
100
AcDbSpline
 62
9
  6
CONTINUOUS
 70
0
 71
3
 72
37
 73
33
 74
31
 42
0.0000001
 43
0.0000001
 44
0.0000000001
 12
0.2162280296
 22
-0.3058003737
 32
0.0
 13
-0.3397814572
 23
-0.1575340935
 33
0.0
 40
0.0
 40
0.0
 40
0.0
 40
0.0
 40
0.0299520338
 40
0.059178664
 40
0.0877424882
 40
0.1157132202
 40
0.1431681275
 40
0.1701929961
 40
0.1968798976
 40
0.223325536
 40
0.249630529
 40
0.2758983844
 40
0.302233021
 40
0.3287369736
 40
0.3555103169
 40
0.3826486658
 40
0.4102414322
 40
0.4383717545
 40
0.4965152188
 40
0.5576167278
 40
0.589410707
 40
0.6220766184
 40
0.6556437145
 40
0.6901335415
 40
0.7255619541
 40
0.7619385583
 40
0.7992675063
 40
0.8375476891
 40
0.8767727751
 40
0.916933326
 40
0.9580166464
 40
1.0
 40
1.0
 40
1.0
 40
1.0
 10
5.9739845231
 20
4.8308719593
 30
0.0
 10
5.9761433462
 20
4.8278188449
 30
0.0
 10
5.9802470512
 20
4.8216699919
 30
0.0
 10
5.9857986608
 20
4.812220148
 30
0.0
 10
5.9906608267
 20
4.8026736687
 30
0.0
 10
5.9948262894
 20
4.7930433721
 30
0.0
 10
5.998287539
 20
4.7833414147
 30
0.0
 10
6.0010401691
 20
4.7735811977
 30
0.0
 10
6.0030812454
 20
4.7637761429
 30
0.0
 10
6.0044077526
 20
4.7539395568
 30
0.0
 10
6.0050163315
 20
4.7440848533
 30
0.0
 10
6.0049059835
 20
4.7342258395
 30
0.0
 10
6.004078359
 20
4.7243761733
 30
0.0
 10
6.0025348452
 20
4.7145493236
 30
0.0
 10
6.0002766473
 20
4.7047589365
 30
0.0
 10
5.997307551
 20
4.6950184569
 30
0.0
 10
5.9936328349
 20
4.6853403971
 30
0.0
 10
5.9877355375
 20
4.6723968328
 30
0.0
 10
5.9785431591
 20
4.6564046303
 30
0.0
 10
5.9673416526
 20
4.6411904111
 30
0.0
 10
5.9571220322
 20
4.6292981185
 30
0.0
 10
5.948704827
 20
4.6204080787
 30
0.0
 10
5.9396486698
 20
4.6116786552
 30
0.0
 10
5.9299657251
 20
4.6031202233
 30
0.0
 10
5.9196686007
 20
4.5947443515
 30
0.0
 10
5.9087710009
 20
4.5865616814
 30
0.0
 10
5.8972872825
 20
4.5785828747
 30
0.0
 10
5.8852325923
 20
4.5708183979
 30
0.0
 10
5.8726228639
 20
4.5632782426
 30
0.0
 10
5.8594743936
 20
4.5559722156
 30
0.0
 10
5.8458048695
 20
4.5489100922
 30
0.0
 10
5.8364560828
 20
4.5444185003
 30
0.0
 10
5.8317010278
 20
4.5422138971
 30
0.0
 11
5.9739845231
 21
4.8308719593
 31
0.0
 11
5.980205294
 21
4.8215370661
 31
0.0
 11
5.985743378
 21
4.8120953319
 31
0.0
 11
5.9905919981
 21
4.8025593589
 31
0.0
 11
5.9947443773
 21
4.7929417493
 31
0.0
 11
5.9981939864
 21
4.7832551296
 31
0.0
 11
6.0009367328
 21
4.773512364
 31
0.0
 11
6.0029699077
 21
4.7637264521
 31
0.0
 11
6.0042908181
 21
4.7539103949
 31
0.0
 11
6.0048968429
 21
4.7440771937
 31
0.0
 11
6.0047871858
 21
4.7342398555
 31
0.0
 11
6.0039629781
 21
4.7244113931
 31
0.0
 11
6.0024254432
 21
4.7146048199
 31
0.0
 11
6.0001759144
 21
4.7048331414
 31
0.0
 11
5.9972175415
 21
4.6951092367
 31
0.0
 11
5.9935549705
 21
4.6854458806
 31
0.0
 11
5.9891928919
 21
4.6758558448
 31
0.0
 11
5.9783934367
 21
4.656946271
 31
0.0
 11
5.9648776143
 21
4.638480088
 31
0.0
 11
5.9571228266
 21
4.6294437941
 31
0.0
 11
5.9487170331
 21
4.6205546034
 31
0.0
 11
5.9396710951
 21
4.6118242854
 31
0.0
 11
5.9299973185
 21
4.6032642563
 31
0.0
 11
5.9197083284
 21
4.5948858468
 31
0.0
 11
5.908817785
 21
4.5867000486
 31
0.0
 11
5.8973400723
 21
4.5787176176
 31
0.0
 11
5.8852903609
 21
4.5709490953
 31
0.0
 11
5.8726847683
 21
4.5634047546
 31
0.0
 11
5.859539665
 21
4.556094421
 31
0.0
 11
5.8458718707
 21
4.5490274587
 31
0.0
 11
5.8317010278
 21
4.5422138971
 31
0.0
  0
SPLINE
  5
24F
100
AcDbEntity
  8
0
100
AcDbSpline
 62
6
  6
CONTINUOUS
 70
0
 71
3
 72
15
 73
11
 74
9
 42
0.0000001
 43
0.0000001
 44
0.0000000001
 12
0.0
 22
0.085680851
 32
0.0
 13
0.0397828761
 23
0.0758849853
 33
0.0
 40
0.0
 40
0.0
 40
0.0
 40
0.0
 40
0.1237517741
 40
0.2477134372
 40
0.3719346395
 40
0.4964742838
 40
0.6214393088
 40
0.746946424
 40
0.873104624
 40
1.0
 40
1.0
 40
1.0
 40
1.0
 10
5.2337285225
 20
4.2985225049
 30
0.0
 10
5.2337285225
 20
4.3020568907
 30
0.0
 10
5.2339470972
 20
4.3091335693
 30
0.0
 10
5.2349262955
 20
4.3197172349
 30
0.0
 10
5.2365541053
 20
4.330243914
 30
0.0
 10
5.2388285508
 20
4.3406792409
 30
0.0
 10
5.2417413133
 20
4.3509927447
 30
0.0
 10
5.2452834767
 20
4.3611563625
 30
0.0
 10
5.2494463747
 20
4.3711411529
 30
0.0
 10
5.2526174669
 20
4.3776410085
 30
0.0
 10
5.2543002212
 20
4.3808508264
 30
0.0
 11
5.2337285225
 21
4.2985225049
 31
0.0
 11
5.2340551245
 21
4.309120631
 31
0.0
 11
5.2350330139
 21
4.3196966588
 31
0.0
 11
5.2366593159
 21
4.3302150542
 31
0.0
 11
5.238930475
 21
4.3406412174
 31
0.0
 11
5.2418392126
 21
4.3509456555
 31
0.0
 11
5.2453769839
 21
4.3611006124
 31
0.0
 11
5.2495347913
 21
4.3710783131
 31
0.0
 11
5.2543002212
 21
4.3808508264
 31
0.0
  0
SPLINE
  5
250
100
AcDbEntity
  8
0
100
AcDbSpline
 62
6
  6
CONTINUOUS
 70
0
 71
3
 72
15
 73
11
 74
9
 42
0.0000001
 43
0.0000001
 44
0.0000000001
 12
0.0397842429
 22
-0.0758860448
 32
0.0
 13
0.0
 23
-0.085682424
 33
0.0
 40
0.0
 40
0.0
 40
0.0
 40
0.0
 40
0.1268954388
 40
0.2530536793
 40
0.3785608126
 40
0.5035258359
 40
0.6280654622
 40
0.7522866364
 40
0.8762482651
 40
1.0
 40
1.0
 40
1.0
 40
1.0
 10
5.6730473847
 20
4.3808522202
 30
0.0
 10
5.6747301976
 20
4.3776423558
 30
0.0
 10
5.6779014008
 20
4.3711424032
 30
0.0
 10
5.6820644462
 20
4.3611574552
 30
0.0
 10
5.6856067356
 20
4.3509936701
 30
0.0
 10
5.6885196023
 20
4.340679991
 30
0.0
 10
5.6907941295
 20
4.3302444824
 30
0.0
 10
5.6924219979
 20
4.3197176166
 30
0.0
 10
5.6934012315
 20
4.3091337609
 30
0.0
 10
5.693619814
 20
4.3020569544
 30
0.0
 10
5.693619814
 20
4.2985225049
 30
0.0
 11
5.6730473847
 21
4.3808522202
 31
0.0
 11
5.6778129818
 21
4.3710795603
 31
0.0
 11
5.6819709362
 21
4.3611017022
 31
0.0
 11
5.6855088332
 21
4.3509465783
 31
0.0
 11
5.6884176746
 21
4.3406419655
 31
0.0
 11
5.6906889152
 21
4.3302156211
 31
0.0
 11
5.6923152757
 21
4.3196970394
 31
0.0
 11
5.6932932003
 21
4.309120822
 31
0.0
 11
5.693619814
 21
4.2985225049
 31
0.0
  0
SPLINE
  5
251
100
AcDbEntity
  8
0
100
AcDbSpline
 62
6
  6
CONTINUOUS
 70
0
 71
3
 72
67
 73
63
 74
61
 42
0.0000001
 43
0.0000001
 44
0.0000000001
 12
0.0
 22
-0.6747763988
 32
0.0
 13
0.0
 23
0.6747763988
 33
0.0
 40
0.0
 40
0.0
 40
0.0
 40
0.0
 40
0.0144775022
 40
0.0289771998
 40
0.0435040413
 40
0.05806326
 40
0.0726642775
 40
0.0873188724
 40
0.1020382863
 40
0.1168324631
 40
0.1466638181
 40
0.1768743885
 40
0.1921388273
 40
0.207510492
 40
0.2229914198
 40
0.2385822057
 40
0.2542825872
 40
0.2700914831
 40
0.2860064581
 40
0.3020241542
 40
0.3181405883
 40
0.3343507196
 40
0.3506485343
 40
0.3670275017
 40
0.3834804863
 40
0.3999994719
 40
0.4165759835
 40
0.4332012814
 40
0.4498660719
 40
0.4665606617
 40
0.4832752655
 40
0.5
 40
0.5167247345
 40
0.5334393383
 40
0.5501339281
 40
0.5667987186
 40
0.5834240165
 40
0.6000005281
 40
0.6165195137
 40
0.6329724983
 40
0.6493514657
 40
0.6656492804
 40
0.6818594117
 40
0.6979758458
 40
0.7139935419
 40
0.7299085169
 40
0.7457174128
 40
0.7614177943
 40
0.7770085802
 40
0.792489508
 40
0.8078611727
 40
0.8231256115
 40
0.8533361819
 40
0.8831675369
 40
0.8979617137
 40
0.9126811276
 40
0.9273357225
 40
0.94193674
 40
0.9564959587
 40
0.9710228002
 40
0.9855224978
 40
1.0
 40
1.0
 40
1.0
 40
1.0
 10
5.693619814
 20
4.2985225049
 30
0.0
 10
5.693619814
 20
4.295266146
 30
0.0
 10
5.6934343047
 20
4.2887469377
 30
0.0
 10
5.6926029141
 20
4.2789921995
 30
0.0
 10
5.6912206253
 20
4.269281274
 30
0.0
 10
5.6892888502
 20
4.2596414235
 30
0.0
 10
5.6868126578
 20
4.2500972031
 30
0.0
 10
5.6837994423
 20
4.240671001
 30
0.0
 10
5.6802554994
 20
4.231384495
 30
0.0
 10
5.674819584
 20
4.2191872323
 30
0.0
 10
5.6667274659
 20
4.2043881404
 30
0.0
 10
5.6570584194
 20
4.1904412478
 30
0.0
 10
5.6484189547
 20
4.1798206203
 30
0.0
 10
5.6414705188
 20
4.1721127016
 30
0.0
 10
5.6340938431
 20
4.1647101311
 30
0.0
 10
5.6263074089
 20
4.1576295107
 30
0.0
 10
5.6181295258
 20
4.1508884124
 30
0.0
 10
5.6095792473
 20
4.1445038986
 30
0.0
 10
5.6006781521
 20
4.1384900929
 30
0.0
 10
5.5914476317
 20
4.1328613622
 30
0.0
 10
5.5819091457
 20
4.1276325096
 30
0.0
 10
5.5720861777
 20
4.1228152829
 30
0.0
 10
5.5620026648
 20
4.1184205674
 30
0.0
 10
5.5516823931
 20
4.1144599373
 30
0.0
 10
5.5411501666
 20
4.1109431592
 30
0.0
 10
5.530431761
 20
4.1078774117
 30
0.0
 10
5.5195527828
 20
4.1052704615
 30
0.0
 10
5.5085391534
 20
4.1031298
 30
0.0
 10
5.4974176798
 20
4.1014591911
 30
0.0
 10
5.4862150918
 20
4.1002624122
 30
0.0
 10
5.4749581967
 20
4.099543737
 30
0.0
 10
5.4636741683
 20
4.0993042939
 30
0.0
 10
5.4523901399
 20
4.099543737
 30
0.0
 10
5.4411332448
 20
4.1002624122
 30
0.0
 10
5.4299306568
 20
4.1014591911
 30
0.0
 10
5.4188091832
 20
4.1031298
 30
0.0
 10
5.4077955538
 20
4.1052704615
 30
0.0
 10
5.3969165756
 20
4.1078774117
 30
0.0
 10
5.38619817
 20
4.1109431592
 30
0.0
 10
5.3756659435
 20
4.1144599373
 30
0.0
 10
5.3653456718
 20
4.1184205674
 30
0.0
 10
5.3552621589
 20
4.1228152829
 30
0.0
 10
5.3454391909
 20
4.1276325096
 30
0.0
 10
5.3359007049
 20
4.1328613622
 30
0.0
 10
5.3266701845
 20
4.1384900929
 30
0.0
 10
5.3177690893
 20
4.1445038986
 30
0.0
 10
5.3092188108
 20
4.1508884124
 30
0.0
 10
5.3010409277
 20
4.1576295107
 30
0.0
 10
5.2932544935
 20
4.1647101311
 30
0.0
 10
5.2858778178
 20
4.1721127016
 30
0.0
 10
5.2789293819
 20
4.1798206203
 30
0.0
 10
5.2702899172
 20
4.1904412478
 30
0.0
 10
5.2606208707
 20
4.2043881404
 30
0.0
 10
5.2525287526
 20
4.2191872323
 30
0.0
 10
5.2470928372
 20
4.231384495
 30
0.0
 10
5.2435488943
 20
4.240671001
 30
0.0
 10
5.2405356788
 20
4.2500972031
 30
0.0
 10
5.2380594863
 20
4.2596414235
 30
0.0
 10
5.2361277113
 20
4.269281274
 30
0.0
 10
5.2347454225
 20
4.2789921995
 30
0.0
 10
5.2339140319
 20
4.2887469377
 30
0.0
 10
5.2337285225
 20
4.295266146
 30
0.0
 10
5.2337285225
 20
4.2985225049
 30
0.0
 11
5.693619814
 21
4.2985225049
 31
0.0
 11
5.6933425218
 21
4.2887573643
 31
0.0
 11
5.6925121442
 21
4.2790086115
 31
0.0
 11
5.6911309298
 21
4.2693040404
 31
0.0
 11
5.6892013132
 21
4.2596711892
 31
0.0
 11
5.6867281954
 21
4.2501342134
 31
0.0
 11
5.6837182237
 21
4.2407148726
 31
0.0
 11
5.6801780952
 21
4.2314348762
 31
0.0
 11
5.6761158842
 21
4.2223159966
 31
0.0
 11
5.6664681148
 21
4.2046491608
 31
0.0
 11
5.6548666174
 21
4.1878870316
 31
0.0
 11
5.6483681471
 21
4.1798956867
 31
0.0
 11
5.6414244721
 21
4.1721903108
 31
0.0
 11
5.6340523295
 21
4.1647893737
 31
0.0
 11
5.6262700982
 21
4.1577102869
 31
0.0
 11
5.6180962216
 21
4.1509704199
 31
0.0
 11
5.6095499234
 21
4.1445864006
 31
0.0
 11
5.600652388
 21
4.138572995
 31
0.0
 11
5.5914251026
 21
4.1329446807
 31
0.0
 11
5.5818897564
 21
4.1277156686
 31
0.0
 11
5.5720695808
 21
4.1228981303
 31
0.0
 11
5.5619885189
 21
4.1185032955
 31
0.0
 11
5.5516705402
 21
4.1145423448
 31
0.0
 11
5.5411403885
 21
4.1110249293
 31
0.0
 11
5.5304237588
 21
4.1079588209
 31
0.0
 11
5.5195464047
 21
4.1053516755
 31
0.0
 11
5.5085342941
 21
4.1032104161
 31
0.0
 11
5.4974141281
 21
4.101539459
 31
0.0
 11
5.4862127642
 21
4.1003426855
 31
0.0
 11
5.4749570797
 21
4.0996237697
 31
0.0
 11
5.4636741683
 21
4.0993841244
 31
0.0
 11
5.4523912569
 21
4.0996237697
 31
0.0
 11
5.4411355724
 21
4.1003426855
 31
0.0
 11
5.4299342085
 21
4.101539459
 31
0.0
 11
5.4188140425
 21
4.1032104161
 31
0.0
 11
5.4078019319
 21
4.1053516755
 31
0.0
 11
5.3969245778
 21
4.1079588209
 31
0.0
 11
5.3862079481
 21
4.1110249293
 31
0.0
 11
5.3756777963
 21
4.1145423448
 31
0.0
 11
5.3653598177
 21
4.1185032955
 31
0.0
 11
5.3552787558
 21
4.1228981303
 31
0.0
 11
5.3454585802
 21
4.1277156686
 31
0.0
 11
5.335923234
 21
4.1329446807
 31
0.0
 11
5.3266959486
 21
4.138572995
 31
0.0
 11
5.3177984132
 21
4.1445864006
 31
0.0
 11
5.309252115
 21
4.1509704199
 31
0.0
 11
5.3010782384
 21
4.1577102869
 31
0.0
 11
5.2932960071
 21
4.1647893737
 31
0.0
 11
5.2859238645
 21
4.1721903108
 31
0.0
 11
5.2789801895
 21
4.1798956867
 31
0.0
 11
5.2724817192
 21
4.1878870316
 31
0.0
 11
5.2608802218
 21
4.2046491608
 31
0.0
 11
5.2512324524
 21
4.2223159966
 31
0.0
 11
5.2471702414
 21
4.2314348762
 31
0.0
 11
5.2436301129
 21
4.2407148726
 31
0.0
 11
5.2406201412
 21
4.2501342134
 31
0.0
 11
5.2381470233
 21
4.2596711892
 31
0.0
 11
5.2362174068
 21
4.2693040404
 31
0.0
 11
5.2348361924
 21
4.2790086115
 31
0.0
 11
5.2340058148
 21
4.2887573643
 31
0.0
 11
5.2337285225
 21
4.2985225049
 31
0.0
  0
SPLINE
  5
252
100
AcDbEntity
  8
0
100
AcDbSpline
 62
9
  6
CONTINUOUS
 70
0
 71
3
 72
77
 73
73
 74
71
 42
0.0000001
 43
0.0000001
 44
0.0000000001
 12
0.0508352146
 22
1.0850826806
 32
0.0
 13
0.0508570462
 23
-1.0850816575
 33
0.0
 40
0.0
 40
0.0
 40
0.0
 40
0.0
 40
0.0050941678
 40
0.0101889011
 40
0.0152936346
 40
0.0204177467
 40
0.0255705106
 40
0.0307609586
 40
0.0359977696
 40
0.0412892732
 40
0.052065156
 40
0.063150437
 40
0.074595963
 40
0.0864441621
 40
0.0987303987
 40
0.1114819105
 40
0.1247180137
 40
0.138452446
 40
0.1526926957
 40
0.167439742
 40
0.1826906626
 40
0.1984382459
 40
0.2146700765
 40
0.2313710226
 40
0.2485231889
 40
0.2661045836
 40
0.2840912248
 40
0.302457436
 40
0.3211744656
 40
0.3402120189
 40
0.3595388157
 40
0.3791214905
 40
0.3989254765
 40
0.41891568
 40
0.4390558518
 40
0.4593089183
 40
0.50000103
 40
0.5406931264
 40
0.5609461739
 40
0.581086319
 40
0.6010764885
 40
0.6208804332
 40
0.6404630597
 40
0.6597898013
 40
0.6788272929
 40
0.6975442545
 40
0.7159103919
 40
0.7338969535
 40
0.7514782637
 40
0.7686303408
 40
0.7853311938
 40
0.8015629279
 40
0.8173104118
 40
0.8325612311
 40
0.847308175
 40
0.861548322
 40
0.8752826525
 40
0.8885186562
 40
0.9012700716
 40
0.9135562166
 40
0.9254043304
 40
0.9368497789
 40
0.9479349918
 40
0.9587108178
 40
0.9640022975
 40
0.9692390881
 40
0.9744295191
 40
0.9795822695
 40
0.9847063718
 40
0.9898110994
 40
0.9949058305
 40
1.0
 40
1.0
 40
1.0
 40
1.0
 10
5.9077706734
 20
4.7274974603
 30
0.0
 10
5.9078569944
 20
4.7293399914
 30
0.0
 10
5.907938064
 20
4.7330302115
 30
0.0
 10
5.9077838419
 20
4.7385679266
 30
0.0
 10
5.9073538069
 20
4.7441020776
 30
0.0
 10
5.9066480513
 20
4.7496289871
 30
0.0
 10
5.9056665479
 20
4.7551451553
 30
0.0
 10
5.9044100712
 20
4.7606470383
 30
0.0
 10
5.9028798339
 20
4.7661313623
 30
0.0
 10
5.9004618606
 20
4.7734591165
 30
0.0
 10
5.8967406716
 20
4.782574932
 30
0.0
 10
5.8912249061
 20
4.7933152858
 30
0.0
 10
5.8846477391
 20
4.8038994991
 30
0.0
 10
5.877028291
 20
4.8143023275
 30
0.0
 10
5.8683843595
 20
4.8244977343
 30
0.0
 10
5.8587383552
 20
4.8344613341
 30
0.0
 10
5.8481158376
 20
4.8441706808
 30
0.0
 10
5.8365419353
 20
4.8536012254
 30
0.0
 10
5.8240451307
 20
4.8627297991
 30
0.0
 10
5.8106575042
 20
4.8715359327
 30
0.0
 10
5.796411301
 20
4.8799972515
 30
0.0
 10
5.7813411886
 20
4.8880921818
 30
0.0
 10
5.765485337
 20
4.8958026602
 30
0.0
 10
5.7488824839
 20
4.9031091642
 30
0.0
 10
5.731573074
 20
4.9099924087
 30
0.0
 10
5.7136006057
 20
4.9164371475
 30
0.0
 10
5.695009371
 20
4.9224272677
 30
0.0
 10
5.6758448436
 20
4.9279464251
 30
0.0
 10
5.6561549126
 20
4.9329824903
 30
0.0
 10
5.6359883296
 20
4.9375231708
 30
0.0
 10
5.6153946372
 20
4.9415556084
 30
0.0
 10
5.5944250873
 20
4.9450709889
 30
0.0
 10
5.5731316931
 20
4.9480611415
 30
0.0
 10
5.5515670058
 20
4.9505170873
 30
0.0
 10
5.5297843949
 20
4.9524335066
 30
0.0
 10
5.5004787954
 20
4.95426682
 30
0.0
 10
5.4636719343
 20
4.9551798623
 30
0.0
 10
5.4268650846
 20
4.954266635
 30
0.0
 10
5.3975595166
 20
4.9524331737
 30
0.0
 10
5.3757769442
 20
4.9505166448
 30
0.0
 10
5.3542123064
 20
4.9480605904
 30
0.0
 10
5.3329189725
 20
4.9450703306
 30
0.0
 10
5.3119494934
 20
4.9415548446
 30
0.0
 10
5.2913558823
 20
4.9375223032
 30
0.0
 10
5.2711893907
 20
4.9329815212
 30
0.0
 10
5.2514995611
 20
4.9279453569
 30
0.0
 10
5.2323351448
 20
4.922426103
 30
0.0
 10
5.2137440308
 20
4.9164358891
 30
0.0
 10
5.1957716922
 20
4.90999106
 30
0.0
 10
5.178462421
 20
4.9031077282
 30
0.0
 10
5.161859715
 20
4.8958011405
 30
0.0
 10
5.1460040184
 20
4.8880905823
 30
0.0
 10
5.1309340689
 20
4.8799955761
 30
0.0
 10
5.116688036
 20
4.8715341853
 30
0.0
 10
5.1033005865
 20
4.8627279842
 30
0.0
 10
5.0908039654
 20
4.8535993473
 30
0.0
 10
5.0792302529
 20
4.844168744
 30
0.0
 10
5.0686079303
 20
4.8344593433
 30
0.0
 10
5.0589621262
 20
4.8244956943
 30
0.0
 10
5.0503183998
 20
4.814300243
 30
0.0
 10
5.0426991609
 20
4.8038973754
 30
0.0
 10
5.0361222067
 20
4.7933131279
 30
0.0
 10
5.0306066577
 20
4.7825727449
 30
0.0
 10
5.0268856534
 20
4.773456912
 30
0.0
 10
5.0244678285
 20
4.7661291474
 30
0.0
 10
5.0229377017
 20
4.7606448156
 30
0.0
 10
5.0216813359
 20
4.7551429261
 30
0.0
 10
5.020699944
 20
4.7496267529
 30
0.0
 10
5.0199942998
 20
4.7440998399
 30
0.0
 10
5.0195643764
 20
4.7385656867
 30
0.0
 10
5.019410266
 20
4.7330279708
 30
0.0
 10
5.01949141
 20
4.7293377525
 30
0.0
 10
5.0195777681
 20
4.7274952225
 30
0.0
 11
5.9077706734
 21
4.7274974603
 31
0.0
 11
5.9078921108
 21
4.7330297836
 31
0.0
 11
5.9077381872
 21
4.738561913
 31
0.0
 11
5.9073089551
 21
4.7440904085
 31
0.0
 11
5.9066044672
 21
4.7496118303
 31
0.0
 11
5.9056248124
 21
4.75512274
 31
0.0
 11
5.9043706515
 21
4.7606197265
 31
0.0
 11
5.9028430998
 21
4.7660993997
 31
0.0
 11
5.9010432854
 21
4.7715583704
 31
0.0
 11
5.8966313802
 21
4.7824006471
 31
0.0
 11
5.8911443519
 21
4.7931194903
 31
0.0
 11
5.8845963471
 21
4.8036884175
 31
0.0
 11
5.8770046475
 21
4.814081333
 31
0.0
 11
5.8683867779
 21
4.8242721872
 31
0.0
 11
5.8587641589
 21
4.8342357507
 31
0.0
 11
5.8481618941
 21
4.8439475692
 31
0.0
 11
5.8366053015
 21
4.8533832403
 31
0.0
 11
5.8241226549
 21
4.8625192783
 31
0.0
 11
5.810746215
 21
4.8713334333
 31
0.0
 11
5.7965085409
 21
4.87980355
 31
0.0
 11
5.7814442373
 21
4.8879083552
 31
0.0
 11
5.7655918895
 21
4.8956282918
 31
0.0
 11
5.7489905424
 21
4.9029440009
 31
0.0
 11
5.7316805105
 21
4.9098368729
 31
0.0
 11
5.7137057403
 21
4.9162904412
 31
0.0
 11
5.6951108242
 21
4.9222886202
 31
0.0
 11
5.6759410479
 21
4.9278158935
 31
0.0
 11
5.6562446699
 21
4.9328591863
 31
0.0
 11
5.6360707457
 21
4.9374060781
 31
0.0
 11
5.6154686545
 21
4.9414445413
 31
0.0
 11
5.594489878
 21
4.9449651008
 31
0.0
 11
5.5731867378
 21
4.9479593018
 31
0.0
 11
5.5516116738
 21
4.9504189348
 31
0.0
 11
5.5298183064
 21
4.9523382625
 31
0.0
 11
5.5078609436
 21
4.9537129889
 31
0.0
 11
5.4636719297
 21
4.9548142742
 31
0.0
 11
5.419482938
 21
4.9537127662
 31
0.0
 11
5.3975256028
 21
4.9523379292
 31
0.0
 11
5.375732274
 21
4.9504184916
 31
0.0
 11
5.3541572597
 21
4.9479587498
 31
0.0
 11
5.3328541799
 21
4.9449644416
 31
0.0
 11
5.3118754743
 21
4.9414437763
 31
0.0
 11
5.2912734646
 21
4.9374052093
 31
0.0
 11
5.271099632
 21
4.9328582158
 31
0.0
 11
5.2514033556
 21
4.9278148238
 31
0.0
 11
5.2322336907
 21
4.9222874538
 31
0.0
 11
5.2136388956
 21
4.9162891811
 31
0.0
 11
5.1956642555
 21
4.9098355223
 31
0.0
 11
5.1783543625
 21
4.9029425631
 31
0.0
 11
5.161753163
 21
4.8956267702
 31
0.0
 11
5.1459009707
 21
4.8879067538
 31
0.0
 11
5.1308368304
 21
4.8798018727
 31
0.0
 11
5.1165993271
 21
4.8713316841
 31
0.0
 11
5.1032230649
 21
4.8625174618
 31
0.0
 11
5.0907406025
 21
4.8533813609
 31
0.0
 11
5.0791842002
 21
4.8439456315
 31
0.0
 11
5.0685821311
 21
4.8342337597
 31
0.0
 11
5.0589597128
 21
4.8242701477
 31
0.0
 11
5.0503420488
 21
4.81407925
 31
0.0
 11
5.0427505586
 21
4.8036862963
 31
0.0
 11
5.0362027668
 21
4.7931173361
 31
0.0
 11
5.0307159547
 21
4.7823984652
 31
0.0
 11
5.0263042681
 21
4.7715561664
 31
0.0
 11
5.0245045637
 21
4.7660971866
 31
0.0
 11
5.0229771224
 21
4.7606175057
 31
0.0
 11
5.0217230723
 21
4.755120513
 31
0.0
 11
5.0207435287
 21
4.7496095983
 31
0.0
 11
5.0200391521
 21
4.7440881731
 31
0.0
 11
5.0196100314
 21
4.7385596754
 31
0.0
 11
5.0194562192
 21
4.7330275453
 31
0.0
 11
5.0195777681
 21
4.7274952225
 31
0.0
  0
SPLINE
  5
253
100
AcDbEntity
  8
0
100
AcDbSpline
 62
6
  6
CONTINUOUS
 70
0
 71
3
 72
24
 73
20
 74
18
 42
0.0000001
 43
0.0000001
 44
0.0000000001
 12
0.0353493409
 22
0.0006193559
 32
0.0
 13
0.0353492386
 23
-0.0006251668
 33
0.0
 40
0.0
 40
0.0
 40
0.0
 40
0.0
 40
0.0618170155
 40
0.1236341516
 40
0.1854492916
 40
0.2473444265
 40
0.3095683442
 40
0.372386005
 40
0.4359958218
 40
0.5000900414
 40
0.5641334275
 40
0.5959691226
 40
0.6276060939
 40
0.6903481425
 40
0.7525737075
 40
0.814511618
 40
0.8763652787
 40
0.9381913664
 40
1.0
 40
1.0
 40
1.0
 40
1.0
 10
5.4459995821
 20
5.0138292358
 30
0.0
 10
5.4467279791
 20
5.013841998
 30
0.0
 10
5.4481849376
 20
5.0138590325
 30
0.0
 10
5.4503704948
 20
5.013858623
 30
0.0
 10
5.4525568036
 20
5.0138307442
 30
0.0
 10
5.4547474005
 20
5.0137774503
 30
0.0
 10
5.456949535
 20
5.0137146685
 30
0.0
 10
5.4591720217
 20
5.0136562043
 30
0.0
 10
5.461417016
 20
5.0136177119
 30
0.0
 10
5.4636767371
 20
5.0136027947
 30
0.0
 10
5.4655620377
 20
5.0136112161
 30
0.0
 10
5.4670646742
 20
5.0136316755
 30
0.0
 10
5.4685518142
 20
5.0136615394
 30
0.0
 10
5.4703967137
 20
5.0137119123
 30
0.0
 10
5.4725983978
 20
5.0137774895
 30
0.0
 10
5.4747899437
 20
5.0138322214
 30
0.0
 10
5.476977327
 20
5.0138595448
 30
0.0
 10
5.4791633434
 20
5.0138596788
 30
0.0
 10
5.4806203058
 20
5.0138423565
 30
0.0
 10
5.4813486018
 20
5.0138294763
 30
0.0
 11
5.4459995821
 21
5.0138292358
 31
0.0
 11
5.4481849599
 21
5.0138547056
 31
0.0
 11
5.4503704902
 21
5.0138540466
 31
0.0
 11
5.4525557769
 21
5.0138265444
 31
0.0
 11
5.4547434817
 21
5.0137760254
 31
0.0
 11
5.4569425658
 21
5.0137156711
 31
0.0
 11
5.459162767
 21
5.0136598166
 31
0.0
 11
5.461411355
 21
5.0136217462
 31
0.0
 11
5.463677343
 21
5.0136069726
 31
0.0
 11
5.4659415573
 21
5.0136175232
 31
0.0
 11
5.4670669955
 21
5.0136329236
 31
0.0
 11
5.4681852937
 21
5.0136550815
 31
0.0
 11
5.470402768
 21
5.0137129983
 31
0.0
 11
5.472601841
 21
5.0137758245
 31
0.0
 11
5.4747910271
 21
5.0138276898
 31
0.0
 11
5.476977678
 21
5.0138550177
 31
0.0
 11
5.4791635249
 21
5.0138553247
 31
0.0
 11
5.4813486018
 21
5.0138294763
 31
0.0
  0
SPLINE
  5
254
100
AcDbEntity
  8
0
100
AcDbSpline
 62
9
  6
CONTINUOUS
 70
0
 71
3
 72
50
 73
46
 74
44
 42
0.0000001
 43
0.0000001
 44
0.0000000001
 12
0.4959423481
 22
-0.223143322
 32
0.0
 13
-0.4933820976
 23
-0.2287484656
 33
0.0
 40
0.0
 40
0.0
 40
0.0
 40
0.0
 40
0.0401748666
 40
0.0791191947
 40
0.1167995466
 40
0.1531913879
 40
0.1882860243
 40
0.2053492245
 40
0.2220904324
 40
0.2546139924
 40
0.2704094461
 40
0.285900836
 40
0.3159968171
 40
0.3449782319
 40
0.3729410604
 40
0.400003715
 40
0.4132434784
 40
0.4263119933
 40
0.4392302134
 40
0.4520201211
 40
0.4647045577
 40
0.4773071482
 40
0.4898522094
 40
0.5023646585
 40
0.5148697626
 40
0.5273927471
 40
0.5399586314
 40
0.5525920994
 40
0.5653173686
 40
0.5781578483
 40
0.5911358668
 40
0.6042727015
 40
0.6175885451
 40
0.6311024603
 40
0.658786933
 40
0.6874560223
 40
0.7172115455
 40
0.7481325121
 40
0.7802783271
 40
0.8136886588
 40
0.8483865678
 40
0.8843794803
 40
0.9216595857
 40
0.9602101634
 40
1.0
 40
1.0
 40
1.0
 40
1.0
 10
5.8141485011
 20
4.9440559856
 30
0.0
 10
5.8207899737
 20
4.9410677345
 30
0.0
 10
5.8337578303
 20
4.9349299896
 30
0.0
 10
5.85250958
 20
4.9250846715
 30
0.0
 10
5.8702172383
 20
4.9147664602
 30
0.0
 10
5.8868310894
 20
4.9040005903
 30
0.0
 10
5.8998485507
 20
4.894594493
 30
0.0
 10
5.9096622169
 20
4.8868662518
 30
0.0
 10
5.9188942309
 20
4.879161177
 30
0.0
 10
5.9276148897
 20
4.8712078487
 30
0.0
 10
5.9357764485
 20
4.8630082056
 30
0.0
 10
5.9433616637
 20
4.8548645747
 30
0.0
 10
5.9520651116
 20
4.844505557
 30
0.0
 10
5.9612959036
 20
4.8316897777
 30
0.0
 10
5.9691857607
 20
4.8186446564
 30
0.0
 10
5.9746660869
 20
4.8075294355
 30
0.0
 10
5.9783362782
 20
4.7985744626
 30
0.0
 10
5.9807213514
 20
4.7918725729
 30
0.0
 10
5.982757345
 20
4.7851417046
 30
0.0
 10
5.9844432544
 20
4.7783863532
 30
0.0
 10
5.9857779885
 20
4.7716111808
 30
0.0
 10
5.9867604936
 20
4.7648208196
 30
0.0
 10
5.9873896968
 20
4.7580199165
 30
0.0
 10
5.9876646213
 20
4.7512131682
 30
0.0
 10
5.9875856932
 20
4.7444053356
 30
0.0
 10
5.987153301
 20
4.7376010994
 30
0.0
 10
5.9863678551
 20
4.7308051397
 30
0.0
 10
5.9852298178
 20
4.7240221198
 30
0.0
 10
5.983739517
 20
4.7172567754
 30
0.0
 10
5.9818981471
 20
4.7105137574
 30
0.0
 10
5.9797075128
 20
4.7037975542
 30
0.0
 10
5.9771692973
 20
4.6971127319
 30
0.0
 10
5.9742851638
 20
4.6904636715
 30
0.0
 10
5.9699463308
 20
4.6815818182
 30
0.0
 10
5.9636386392
 20
4.670579615
 30
0.0
 10
5.954786056
 20
4.6577040799
 30
0.0
 10
5.9446131049
 20
4.6450825146
 30
0.0
 10
5.9331498555
 20
4.6327473081
 30
0.0
 10
5.920426882
 20
4.6207309032
 30
0.0
 10
5.9064793737
 20
4.6090638047
 30
0.0
 10
5.8913445698
 20
4.5977766244
 30
0.0
 10
5.8750630799
 20
4.5868992002
 30
0.0
 10
5.8576788133
 20
4.5764588548
 30
0.0
 10
5.8392377626
 20
4.5664844561
 30
0.0
 10
5.8264680326
 20
4.5602600924
 30
0.0
 10
5.8199241683
 20
4.5572261377
 30
0.0
 11
5.8141485011
 21
4.9440559856
 31
0.0
 11
5.8338910497
 21
4.9346975137
 31
0.0
 11
5.8526360175
 21
4.924839459
 31
0.0
 11
5.8703329782
 21
4.9145085075
 31
0.0
 11
5.8869325376
 21
4.9037317625
 31
0.0
 11
5.9023913448
 21
4.8925387715
 31
0.0
 11
5.9096801046
 21
4.8867956945
 31
0.0
 11
5.9166682426
 21
4.8809599691
 31
0.0
 11
5.9297227829
 21
4.8690259904
 31
0.0
 11
5.9357808019
 21
4.8629358843
 31
0.0
 11
5.9415208535
 21
4.8567692606
 31
0.0
 11
5.9520316857
 21
4.8442231493
 31
0.0
 11
5.9612249681
 21
4.831421115
 31
0.0
 11
5.9690764883
 21
4.81839776
 31
0.0
 11
5.9755665825
 21
4.8051885398
 31
0.0
 11
5.9782949839
 21
4.7985253164
 31
0.0
 11
5.9806759619
 21
4.7918289571
 31
0.0
 11
5.9827083002
 21
4.7851040204
 31
0.0
 11
5.9843909998
 21
4.7783550865
 31
0.0
 11
5.9857230617
 21
4.7715867359
 31
0.0
 11
5.9867034869
 21
4.764803549
 31
0.0
 11
5.9873312765
 21
4.7580101062
 31
0.0
 11
5.9876057143
 21
4.7512109895
 31
0.0
 11
5.987527004
 21
4.7444107864
 31
0.0
 11
5.9870955362
 21
4.7376140853
 31
0.0
 11
5.9863117013
 21
4.7308254747
 31
0.0
 11
5.9851758898
 21
4.7240495432
 31
0.0
 11
5.9836885291
 21
4.7172908768
 31
0.0
 11
5.9818506854
 21
4.7105540182
 31
0.0
 11
5.9796639635
 21
4.7038434735
 31
0.0
 11
5.9771299853
 21
4.6971637478
 31
0.0
 11
5.9742503726
 21
4.6905193461
 31
0.0
 11
5.9710267903
 21
4.6839147682
 31
0.0
 11
5.9635571753
 21
4.6708427417
 31
0.0
 11
5.9547422396
 21
4.657982718
 31
0.0
 11
5.9446051946
 21
4.6453693796
 31
0.0
 11
5.9331740951
 21
4.6330364949
 31
0.0
 11
5.9204794218
 21
4.621017287
 31
0.0
 11
5.906555842
 21
4.6093439457
 31
0.0
 11
5.8914407134
 21
4.5980478534
 31
0.0
 11
5.875174679
 21
4.5871593506
 31
0.0
 11
5.8578023736
 21
4.5767075257
 31
0.0
 11
5.8393688956
 21
4.5667206601
 31
0.0
 11
5.8199241683
 21
4.5572261377
 31
0.0
  0
SPLINE
  5
255
100
AcDbEntity
  8
0
100
AcDbSpline
 62
9
  6
CONTINUOUS
 70
0
 71
3
 72
39
 73
35
 74
33
 42
0.0000001
 43
0.0000001
 44
0.0000000001
 12
-0.2630269737
 22
-0.2120051557
 32
0.0
 13
0.2898757621
 23
-0.1734976008
 33
0.0
 40
0.0
 40
0.0
 40
0.0
 40
0.0
 40
0.0358523386
 40
0.0706772598
 40
0.1044975853
 40
0.1373430535
 40
0.1692522684
 40
0.2002757733
 40
0.2304732637
 40
0.2599134081
 40
0.2886752113
 40
0.3168494295
 40
0.3445354537
 40
0.3718403131
 40
0.3988782868
 40
0.4257693496
 40
0.4526357043
 40
0.4795999981
 40
0.5067835607
 40
0.5343030697
 40
0.5622687183
 40
0.5907835869
 40
0.6199423106
 40
0.6498274422
 40
0.6805110665
 40
0.7120561445
 40
0.7445169258
 40
0.7779382885
 40
0.8123569164
 40
0.8478024816
 40
0.8842944842
 40
0.9218320968
 40
0.9604055041
 40
1.0
 40
1.0
 40
1.0
 40
1.0
 10
5.0692057013
 20
4.871671843
 30
0.0
 10
5.066062324
 20
4.8691382161
 30
0.0
 10
5.0599697955
 20
4.8640123833
 30
0.0
 10
5.0513132763
 20
4.856035303
 30
0.0
 10
5.0432852123
 20
4.8478942941
 30
0.0
 10
5.035898488
 20
4.839601492
 30
0.0
 10
5.0291656071
 20
4.8311684258
 30
0.0
 10
5.0230960565
 20
4.8226085283
 30
0.0
 10
5.0176988782
 20
4.813934762
 30
0.0
 10
5.012983116
 20
4.8051599415
 30
0.0
 10
5.0089578935
 20
4.7962967556
 30
0.0
 10
5.0056286004
 20
4.7873594023
 30
0.0
 10
5.0030003454
 20
4.7783617163
 30
0.0
 10
5.00107823
 20
4.7693175641
 30
0.0
 10
4.9998673201
 20
4.7602410884
 30
0.0
 10
4.9993681933
 20
4.7511471506
 30
0.0
 10
4.9995811828
 20
4.7420502896
 30
0.0
 10
5.0005064722
 20
4.7329650552
 30
0.0
 10
5.0021439389
 20
4.7239063028
 30
0.0
 10
5.0044890386
 20
4.7148882813
 30
0.0
 10
5.0075372311
 20
4.7059249483
 30
0.0
 10
5.0112839467
 20
4.6970302399
 30
0.0
 10
5.0157242027
 20
4.6882184916
 30
0.0
 10
5.0208489507
 20
4.6795025456
 30
0.0
 10
5.0266492946
 20
4.6708954265
 30
0.0
 10
5.0331163735
 20
4.6624102536
 30
0.0
 10
5.0402411267
 20
4.654060274
 30
0.0
 10
5.0480121567
 20
4.6458570056
 30
0.0
 10
5.0564182007
 20
4.6378120883
 30
0.0
 10
5.0654477069
 20
4.6299375547
 30
0.0
 10
5.0750871953
 20
4.6222465757
 30
0.0
 10
5.0853186788
 20
4.6147504744
 30
0.0
 10
5.0961228138
 20
4.6074622017
 30
0.0
 10
5.1035983401
 20
4.6028103591
 30
0.0
 10
5.1074241683
 20
4.600520509
 30
0.0
 11
5.0692057013
 21
4.871671843
 31
0.0
 11
5.0599423863
 21
4.8638685249
 31
0.0
 11
5.0512960957
 21
4.8558901211
 31
0.0
 11
5.0432795844
 21
4.8477489681
 31
0.0
 11
5.0359056074
 21
4.8394574025
 31
0.0
 11
5.0291862444
 21
4.831027903
 31
0.0
 11
5.0231309116
 21
4.8224735089
 31
0.0
 11
5.0177483681
 21
4.8138073978
 31
0.0
 11
5.013047373
 21
4.8050427474
 31
0.0
 11
5.009035965
 21
4.7961928242
 31
0.0
 11
5.0057193838
 21
4.7872712405
 31
0.0
 11
5.0031021902
 21
4.7782916926
 31
0.0
 11
5.0011889448
 21
4.7692678764
 31
0.0
 11
4.9999834561
 21
4.7602135235
 31
0.0
 11
4.999486634
 21
4.7511425005
 31
0.0
 11
4.9996986901
 21
4.7420687068
 31
0.0
 11
5.0006198358
 21
4.733006042
 31
0.0
 11
5.0022495516
 21
4.723968372
 31
0.0
 11
5.0045844914
 21
4.7149694332
 31
0.0
 11
5.0076206261
 21
4.7060229309
 31
0.0
 11
5.0113539268
 21
4.6971425705
 31
0.0
 11
5.0157795661
 21
4.6883419984
 31
0.0
 11
5.0208896763
 21
4.679634638
 31
0.0
 11
5.0266756659
 21
4.6710338592
 31
0.0
 11
5.0331289436
 21
4.662553032
 31
0.0
 11
5.0402404259
 21
4.6542052654
 31
0.0
 11
5.047999256
 21
4.6460027269
 31
0.0
 11
5.0563941776
 21
4.6379573719
 31
0.0
 11
5.0654139342
 21
4.630081156
 31
0.0
 11
5.0750457015
 21
4.6223862683
 31
0.0
 11
5.0852710841
 21
4.6148857285
 31
0.0
 11
5.0960704504
 21
4.6075927408
 31
0.0
 11
5.1074241683
 21
4.600520509
 31
0.0
  0
ENDSEC
  0
SECTION
  2
OBJECTS
  0
DICTIONARY
  5
C
100
AcDbDictionary
280
0
281
1
  3
ACAD_GROUP
350
D
  3
ACAD_MLINESTYLE
350
17
  3
ACAD_LAYOUT
350
1A
  3
ACAD_PLOTSETTINGS
350
19
  3
ACAD_PLOTSTYLENAME
350
E
  0
DICTIONARY
  5
D
102
{ACAD_REACTORS
330
C
102
}
100
AcDbDictionary
280
0
281
1
  0
ACDBDICTIONARYWDFLT
  5
E
102
{ACAD_REACTORS
330
C
102
}
100
AcDbDictionary
281
1
  3
Normal
350
F
100
AcDbDictionaryWithDefault
340
F
  0
DICTIONARY
  5
17
102
{ACAD_REACTORS
330
C
102
}
100
AcDbDictionary
280
0
281
1
  3
Standard
350
18
  0
DICTIONARY
  5
19
102
{ACAD_REACTORS
330
C
102
}
100
AcDbDictionary
281
1
  0
DICTIONARY
  5
1A
102
{ACAD_REACTORS
330
C
102
}
100
AcDbDictionary
281
1
  3
Model
350
256
  3
Layout1
350
257
  0
ACDBPLACEHOLDER
  5
F
102
{ACAD_REACTORS
330
E
102
}
  0
MLINESTYLE
  5
18
102
{ACAD_REACTORS
330
17
102
}
100
AcDbMlineStyle
  2
STANDARD
 70
0
  3

 62
256
 51
90.0
 52
90.0
 71
2
 49
0.5
 62
256
  6
BYLAYER
 49
-0.5
 62
256
  6
BYLAYER
  0
LAYOUT
  5
256
102
{ACAD_REACTORS
330
1A
102
}
100
AcDbPlotSettings
  1

  2
none_device
  4
ANSI_A_(11.00_x_8.50_Inches)
  6

 40
0.0
 41
0.0
 42
0.0
 43
0.0
 44
279.4
 45
215.9
 46
0.0
 47
0.0
 48
0.0
 49
0.0
140
0.0
141
0.0
142
1.0
143
1.0
 70
1024
 72
0
 73
0
 74
0
  7

 75
0
147
1.0
148
0.0
149
0.0
100
AcDbLayout
  1
Model
 70
0
 71
0
 10
0.0
 20
0.0
 11
11.0
 21
8.5
 12
0.0
 22
0.0
 32
0.0
 14
0.0
 24
0.0
 34
0.0
 15
0.0
 25
0.0
 35
0.0
146
0.0
 13
0.0
 23
0.0
 33
0.0
 16
1.0
 26
0.0
 36
0.0
 17
0.0
 27
1.0
 37
0.0
 76
0
330
203
345
0
346
0
  0
LAYOUT
  5
257
102
{ACAD_REACTORS
330
1A
102
}
100
AcDbPlotSettings
  1

  2
none_device
  4
ANSI_A_(11.00_x_8.50_Inches)
  6

 40
0.0
 41
0.0
 42
0.0
 43
0.0
 44
279.4
 45
215.9
 46
0.0
 47
0.0
 48
0.0
 49
0.0
140
0.0
141
0.0
142
1.0
143
1.0
 70
0
 72
0
 73
0
 74
0
  7

 75
0
147
1.0
148
0.0
149
0.0
100
AcDbLayout
  1
Layout1
 70
0
 71
1
 10
0.0
 20
0.0
 11
11.0
 21
8.5
 12
0.0
 22
0.0
 32
0.0
 14
0.0
 24
0.0
 34
0.0
 15
0.0
 25
0.0
 35
0.0
146
0.0
 13
0.0
 23
0.0
 33
0.0
 16
1.0
 26
0.0
 36
0.0
 17
0.0
 27
1.0
 37
0.0
 76
0
330
204
345
0
346
0
  0
ENDSEC
  0
EOF
