  0
SECTION
  2
HEADER
  9
$ACADVER
  1
AC1021
  9
$DWGCODEPAGE
  3
ANSI_1252
  9
$EXTMAX
 10
33.1102362205
 20
23.3858267717
 30
0.0
  9
$EXTMIN
 10
0.0
 20
0.0
 30
0.0
  9
$LIMMIN
 10
0.0
 20
0.0
  9
$LIMMAX
 10
33.1102362205
 20
23.3858267717
  9
$VIEWCTR
 10
16.5551181102
 20
11.6929133858
  9
$VIEWSIZE
 40
23.3858267717
  9
$CLAYER
  8
0
  9
$LTSCALE
 40
1.8210629921
  9
$CELTYPE
  6
BYLAYER
  9
$DIMSCALE
 40
1.0
  9
$DIMASZ
 40
0.1875
  9
$DIMEXO
 40
0.2069389764
  9
$DIMDLI
 40
1.2581889764
  9
$DIMEXE
 40
0.595984252
  9
$DIMCEN
 40
0.297992126
  9
$DIMLFAC
 40
1.0
  9
$DIMBLK
  1
_CLOSED
  9
$DIMTXT
 40
0.15625
  9
$DIMTOL
 70
0
  9
$DIMLIM
 70
0
  9
$DIMTFAC
 40
1.0
  9
$PDMODE
 70
3
  9
$PDSIZE
 40
0.3125
  9
$HANDSEED
  5
6B9
  9
$TILEMODE
 70
1
  9
$MEASUREMENT
 70
0
  9
$INSUNITS
 70
1
  0
ENDSEC
  0
SECTION
  2
CLASSES
  0
CLASS
  1
ACDBDICTIONARYWDFLT
  2
AcDbDictionaryWithDefault
  3
AutoCAD 2000
 90
0
 91
1
280
0
281
0
  0
CLASS
  1
ACDBPLACEHOLDER
  2
AcDbPlaceHolder
  3
AutoCAD 2000
 90
0
 91
1
280
0
281
0
  0
CLASS
  1
LAYOUT
  2
AcDbLayout
  3
AutoCAD 2000
 90
0
 91
0
280
0
281
0
  0
ENDSEC
  0
SECTION
  2
TABLES
  0
TABLE
  2
VPORT
  5
8
100
AcDbSymbolTable
 70
2
  0
VPORT
  5
1F4
100
AcDbSymbolTableRecord
100
AcDbViewportTableRecord
  2
*ACTIVE
 70
0
 10
0.0
 20
0.0
 11
1.0
 21
1.0
 12
16.5551181102
 22
11.6929133858
 13
0.0
 23
0.0
 14
1.0
 24
1.0
 15
0.0
 25
0.0
 16
0.0
 26
0.0
 36
1.0
 17
0.0
 27
0.0
 37
0.0
 40
23.3858267717
 41
1.4158249158
 42
50.0
 43
0.0
 44
0.0
 50
0.0
 51
0.0
 71
0
 72
100
 73
1
 74
1
 75
0
 76
0
 77
0
 78
0
  0
ENDTAB
  0
TABLE
  2
LTYPE
  5
5
100
AcDbSymbolTable
 70
6
  0
LTYPE
  5
14
100
AcDbSymbolTableRecord
100
AcDbLinetypeTableRecord
  2
BYBLOCK
 70
0
  3

 72
65
 73
0
 40
0.0
  0
LTYPE
  5
15
100
AcDbSymbolTableRecord
100
AcDbLinetypeTableRecord
  2
BYLAYER
 70
0
  3

 72
65
 73
0
 40
0.0
  0
LTYPE
  5
16
100
AcDbSymbolTableRecord
100
AcDbLinetypeTableRecord
  2
CONTINUOUS
 70
64
  3
Solid line
 72
65
 73
0
 40
0.0
  0
LTYPE
  5
1F5
100
AcDbSymbolTableRecord
100
AcDbLinetypeTableRecord
  2
CENTER
 70
64
  3
____ _ ____ _ ____ _ ____ _ ____ _ ____ _ ____
 72
65
 73
4
 40
0.6
 49
0.375
 74
0
 49
-0.075
 74
0
 49
0.075
 74
0
 49
-0.075
 74
0
  0
LTYPE
  5
1F6
100
AcDbSymbolTableRecord
100
AcDbLinetypeTableRecord
  2
HIDDEN
 70
64
  3
- - - - - - - - - - - - - - - - - - - -
 72
65
 73
2
 40
0.2
 49
0.1
 74
0
 49
-0.1
 74
0
  0
LTYPE
  5
1F7
100
AcDbSymbolTableRecord
100
AcDbLinetypeTableRecord
  2
PHANTOM
 70
64
  3
_____ _ _ _____ _ _ _____ _ _ _____
 72
65
 73
6
 40
0.8
 49
0.45
 74
0
 49
-0.05
 74
0
 49
0.1
 74
0
 49
-0.05
 74
0
 49
0.1
 74
0
 49
-0.05
 74
0
  0
LTYPE
  5
1F8
100
AcDbSymbolTableRecord
100
AcDbLinetypeTableRecord
  2
DOT
 70
64
  3
. . . . . . . . . . . . . . . . . . . .
 72
65
 73
2
 40
0.2
 49
0.1
 74
0
 49
-0.1
 74
0
  0
LTYPE
  5
1F9
100
AcDbSymbolTableRecord
100
AcDbLinetypeTableRecord
  2
DASHED
 70
64
  3
- - - - - - - - - - - - - - - - - - - -
 72
65
 73
2
 40
0.2
 49
0.1
 74
0
 49
-0.1
 74
0
  0
ENDTAB
  0
TABLE
  2
LAYER
  5
2
100
AcDbSymbolTable
 70
36
  0
LAYER
  5
10
100
AcDbSymbolTableRecord
100
AcDbLayerTableRecord
  2
0
 70
0
 62
7
  6
CONTINUOUS
370
-3
390
F
  0
LAYER
  5
1FA
100
AcDbSymbolTableRecord
100
AcDbLayerTableRecord
  2
DEFAULT_1
 70
0
 62
7
  6
CENTER
370
-3
390
F
  0
LAYER
  5
1FB
100
AcDbSymbolTableRecord
100
AcDbLayerTableRecord
  2
DEFAULT_2
 70
0
 62
8
  6
HIDDEN
370
-3
390
F
  0
LAYER
  5
1FC
100
AcDbSymbolTableRecord
100
AcDbLayerTableRecord
  2
DEFAULT_3
 70
0
 62
7
  6
PHANTOM
370
-3
390
F
  0
LAYER
  5
1FD
100
AcDbSymbolTableRecord
100
AcDbLayerTableRecord
  2
DEFAULT_COORDINATE_SYSTEM
 70
0
 62
7
  6
CONTINUOUS
370
-3
390
F
  0
LAYER
  5
1FE
100
AcDbSymbolTableRecord
100
AcDbLayerTableRecord
  2
DEFAULT_DATUM_AXES
 70
0
 62
7
  6
CONTINUOUS
370
-3
390
F
  0
LAYER
  5
1FF
100
AcDbSymbolTableRecord
100
AcDbLayerTableRecord
  2
DEFAULT_DATUM_CURVES
 70
0
 62
7
  6
CONTINUOUS
370
-3
390
F
  0
LAYER
  5
200
100
AcDbSymbolTableRecord
100
AcDbLayerTableRecord
  2
DEFAULT_DATUM_PLANES
 70
0
 62
7
  6
CONTINUOUS
370
-3
390
F
  0
ENDTAB
  0
TABLE
  2
STYLE
  5
3
100
AcDbSymbolTable
 70
1
  0
STYLE
  5
11
100
AcDbSymbolTableRecord
100
AcDbTextStyleTableRecord
  2
STANDARD
 70
0
 40
0.0
 41
0.8
 50
0.0
 71
0
 42
0.2
  3
txt
  4

  0
STYLE
  5
201
100
AcDbSymbolTableRecord
100
AcDbTextStyleTableRecord
  2
TEXTSTYLE_1
 70
0
 40
0.0
 41
0.8
 50
0.0
 71
0
 42
0.2
  3
gdt
  4

  0
ENDTAB
  0
TABLE
  2
VIEW
  5
6
100
AcDbSymbolTable
 70
0
  0
ENDTAB
  0
TABLE
  2
UCS
  5
7
100
AcDbSymbolTable
 70
0
  0
ENDTAB
  0
TABLE
  2
APPID
  5
9
100
AcDbSymbolTable
 70
1
  0
APPID
  5
202
100
AcDbSymbolTableRecord
100
AcDbRegAppTableRecord
  2
ACAD
 70
0
  0
ENDTAB
  0
TABLE
  2
BLOCK_RECORD
  5
1
100
AcDbSymbolTable
 70
0
  0
BLOCK_RECORD
  5
203
100
AcDbSymbolTableRecord
100
AcDbBlockTableRecord
  2
*Model_Space
  0
BLOCK_RECORD
  5
204
100
AcDbSymbolTableRecord
100
AcDbBlockTableRecord
  2
*Paper_Space
  0
ENDTAB
  0
TABLE
  2
DIMSTYLE
  5
A
100
AcDbSymbolTable
 70
1
100
AcDbDimStyleTable
 71
0
  0
DIMSTYLE
105
205
100
AcDbSymbolTableRecord
100
AcDbDimStyleTableRecord
  2
STANDARD
 70
0
  3

  4

 40
1.0
 41
0.1875
 42
0.0625
 43
0.38
 44
0.18
 45
0.0
 46
0.0
 47
0.001
 48
0.001
140
0.15625
141
0.09
142
0.0
143
25.4
144
1.0
145
0.0
146
1.0
147
0.09
 71
0.0
 72
0.0
 73
1
 74
1
 75
0
 76
0
 77
0
 78
4
170
0
171
2
172
0
173
0
174
0
175
0
176
0
177
0
178
0
270
2
271
3
272
3
273
2
274
2
275
0
280
0
281
0
282
0
283
1
284
4
285
0
286
0
287
3
288
0
340
11
  0
ENDTAB
  0
ENDSEC
  0
SECTION
  2
BLOCKS
  0
BLOCK
  5
20
100
AcDbEntity
  8
0
100
AcDbBlockBegin
  2
*Model_Space
 70
0
 10
0.0
 20
0.0
 30
0.0
  3
*Model_Space
  1

  0
ENDBLK
  5
21
100
AcDbEntity
  8
0
100
AcDbBlockEnd
  0
BLOCK
  5
1C
100
AcDbEntity
  8
0
100
AcDbBlockBegin
  2
*Paper_Space
 70
0
 10
0.0
 20
0.0
 30
0.0
  3
*Paper_Space
  1

  0
ENDBLK
  5
1D
100
AcDbEntity
  8
0
100
AcDbBlockEnd
  0
ENDSEC
  0
SECTION
  2
ENTITIES
  0
LINE
  5
206
100
AcDbEntity
  8
0
100
AcDbLine
 62
7
  6
CONTINUOUS
 10
3.3490711366
 20
10.6259244467
 11
3.346853753
 21
10.647021442
  0
LINE
  5
207
100
AcDbEntity
  8
0
100
AcDbLine
 62
7
  6
CONTINUOUS
 10
3.1643024783
 20
12.3838808008
 11
3.1620850948
 21
12.4049777961
  0
LINE
  5
208
100
AcDbEntity
  8
0
100
AcDbLine
 62
6
  6
CONTINUOUS
 10
3.3153137
 20
10.6535668243
 11
3.3138339417
 21
10.6747283535
  0
LINE
  5
209
100
AcDbEntity
  8
0
100
AcDbLine
 62
6
  6
CONTINUOUS
 10
3.1920093898
 20
12.4169006121
 11
3.1905296316
 21
12.4380621413
  0
LINE
  5
20A
100
AcDbEntity
  8
0
100
AcDbLine
 62
7
  6
CONTINUOUS
 10
3.2825415326
 20
10.6823704805
 11
3.2818012025
 21
10.7035707615
  0
LINE
  5
20B
100
AcDbEntity
  8
0
100
AcDbLine
 62
7
  6
CONTINUOUS
 10
3.2208517978
 20
12.4489333514
 11
3.2201114677
 21
12.4701336323
  0
LINE
  5
20C
100
AcDbEntity
  8
0
100
AcDbLine
 62
6
  6
CONTINUOUS
 10
3.2507945622
 20
10.7123003225
 11
3.2507945622
 21
10.7335135259
  0
LINE
  5
20D
100
AcDbEntity
  8
0
100
AcDbLine
 62
6
  6
CONTINUOUS
 10
3.2507945622
 20
12.4799399916
 11
3.2507945622
 21
12.5011531951
  0
LINE
  5
20E
100
AcDbEntity
  8
0
100
AcDbLine
 62
7
  6
CONTINUOUS
 10
3.2201114677
 20
10.7433198852
 11
3.2208517978
 21
10.7645201661
  0
LINE
  5
20F
100
AcDbEntity
  8
0
100
AcDbLine
 62
7
  6
CONTINUOUS
 10
3.2818012025
 20
12.509882756
 11
3.2825415326
 21
12.531083037
  0
LINE
  5
210
100
AcDbEntity
  8
0
100
AcDbLine
 62
6
  6
CONTINUOUS
 10
3.1905296316
 20
10.7753913762
 11
3.1920093898
 21
10.7965529054
  0
LINE
  5
211
100
AcDbEntity
  8
0
100
AcDbLine
 62
6
  6
CONTINUOUS
 10
3.3138339417
 20
12.538725164
 11
3.3153137
 21
12.5598866932
  0
LINE
  5
212
100
AcDbEntity
  8
0
100
AcDbLine
 62
7
  6
CONTINUOUS
 10
3.1620850948
 20
10.8084757214
 11
3.1643024783
 21
10.8295727167
  0
LINE
  5
213
100
AcDbEntity
  8
0
100
AcDbLine
 62
7
  6
CONTINUOUS
 10
3.346853753
 20
12.5664320755
 11
3.3490711366
 21
12.5875290708
  0
LINE
  5
214
100
AcDbEntity
  8
0
100
AcDbLine
 62
6
  6
CONTINUOUS
 10
3.1348125127
 20
10.8425326125
 11
3.13776482
 21
10.8635393705
  0
LINE
  5
215
100
AcDbEntity
  8
0
100
AcDbLine
 62
6
  6
CONTINUOUS
 10
3.3808204068
 20
12.5929697339
 11
3.3837727141
 21
12.6139764919
  0
LINE
  5
216
100
AcDbEntity
  8
0
100
AcDbLine
 62
7
  6
CONTINUOUS
 10
3.1087451126
 20
10.8775205564
 11
3.1124287467
 21
10.8984114836
  0
LINE
  5
217
100
AcDbEntity
  8
0
100
AcDbLine
 62
7
  6
CONTINUOUS
 10
3.4156925199
 20
12.6183058071
 11
3.4193761541
 21
12.6391967343
  0
LINE
  5
218
100
AcDbEntity
  8
0
100
AcDbLine
 62
6
  6
CONTINUOUS
 10
3.0839146538
 20
10.9133969257
 11
3.0883251267
 21
10.9341465698
  0
LINE
  5
219
100
AcDbEntity
  8
0
100
AcDbLine
 62
7
  6
CONTINUOUS
 10
3.4514276061
 20
12.6424094271
 11
3.4558380791
 21
12.6631590711
  0
LINE
  5
21A
100
AcDbEntity
  8
0
100
AcDbLine
 62
6
  6
CONTINUOUS
 10
3.0603513882
 20
10.9501180107
 11
3.0654833266
 21
10.9707010913
  0
LINE
  5
21B
100
AcDbEntity
  8
0
100
AcDbLine
 62
7
  6
CONTINUOUS
 10
3.4879821277
 20
12.6652512273
 11
3.4931140661
 21
12.6858343079
  0
LINE
  5
21C
100
AcDbEntity
  8
0
100
AcDbLine
 62
7
  6
CONTINUOUS
 10
3.0380840241
 20
10.9876390723
 11
3.0439311754
 21
11.0080305122
  0
LINE
  5
21D
100
AcDbEntity
  8
0
100
AcDbLine
 62
7
  6
CONTINUOUS
 10
3.5253115485
 20
12.6868033785
 11
3.5311586998
 21
12.7071948184
  0
LINE
  5
21E
100
AcDbEntity
  8
0
100
AcDbLine
 62
7
  6
CONTINUOUS
 10
3.5311586998
 20
10.5062586991
 11
3.5253115485
 21
10.526650139
  0
LINE
  5
21F
100
AcDbEntity
  8
0
100
AcDbLine
 62
7
  6
CONTINUOUS
 10
3.0439311754
 20
12.2054230053
 11
3.0380840241
 21
12.2258144452
  0
LINE
  5
220
100
AcDbEntity
  8
0
100
AcDbLine
 62
7
  6
CONTINUOUS
 10
3.4931140661
 20
10.5276192096
 11
3.4879821277
 21
10.5482022902
  0
LINE
  5
221
100
AcDbEntity
  8
0
100
AcDbLine
 62
6
  6
CONTINUOUS
 10
3.0654833266
 20
12.2427524262
 11
3.0603513882
 21
12.2633355068
  0
LINE
  5
222
100
AcDbEntity
  8
0
100
AcDbLine
 62
7
  6
CONTINUOUS
 10
3.4558380791
 20
10.5502944464
 11
3.4514276061
 21
10.5710440904
  0
LINE
  5
223
100
AcDbEntity
  8
0
100
AcDbLine
 62
6
  6
CONTINUOUS
 10
3.0883251267
 20
12.2793069477
 11
3.0839146538
 21
12.3000565918
  0
LINE
  5
224
100
AcDbEntity
  8
0
100
AcDbLine
 62
7
  6
CONTINUOUS
 10
3.4193761541
 20
10.5742567832
 11
3.4156925199
 21
10.5951477104
  0
LINE
  5
225
100
AcDbEntity
  8
0
100
AcDbLine
 62
7
  6
CONTINUOUS
 10
3.1124287467
 20
12.3150420339
 11
3.1087451126
 21
12.3359329611
  0
LINE
  5
226
100
AcDbEntity
  8
0
100
AcDbLine
 62
6
  6
CONTINUOUS
 10
3.3837727141
 20
10.5994770256
 11
3.3808204068
 21
10.6204837836
  0
LINE
  5
227
100
AcDbEntity
  8
0
100
AcDbLine
 62
6
  6
CONTINUOUS
 10
3.13776482
 20
12.349914147
 11
3.1348125127
 21
12.370920905
  0
LINE
  5
228
100
AcDbEntity
  8
0
100
AcDbLine
 62
6
  6
CONTINUOUS
 10
3.0171396908
 20
11.0259143968
 11
3.0236949312
 21
11.0460893522
  0
LINE
  5
229
100
AcDbEntity
  8
0
100
AcDbLine
 62
6
  6
CONTINUOUS
 10
3.5633703885
 20
12.7070396226
 11
3.5699256289
 21
12.727214578
  0
LINE
  5
22A
100
AcDbEntity
  8
0
100
AcDbLine
 62
6
  6
CONTINUOUS
 10
2.9975439059
 20
11.0648973518
 11
3.0047992487
 21
11.0848312425
  0
LINE
  5
22B
100
AcDbEntity
  8
0
100
AcDbLine
 62
7
  6
CONTINUOUS
 10
3.6021122789
 20
12.7259353051
 11
3.6093676217
 21
12.7458691958
  0
LINE
  5
22C
100
AcDbEntity
  8
0
100
AcDbLine
 62
7
  6
CONTINUOUS
 10
2.9793205436
 20
11.1045404424
 11
2.9872671495
 21
11.1242089821
  0
LINE
  5
22D
100
AcDbEntity
  8
0
100
AcDbLine
 62
7
  6
CONTINUOUS
 10
3.6414900185
 20
12.7434674043
 11
3.6494366243
 21
12.7631359441
  0
LINE
  5
22E
100
AcDbEntity
  8
0
100
AcDbLine
 62
6
  6
CONTINUOUS
 10
2.9624918065
 20
11.1447953697
 11
2.9711199936
 21
11.1641745953
  0
LINE
  5
22F
100
AcDbEntity
  8
0
100
AcDbLine
 62
6
  6
CONTINUOUS
 10
3.6814556317
 20
12.7596145602
 11
3.6900838188
 21
12.7789937859
  0
LINE
  5
230
100
AcDbEntity
  8
0
100
AcDbLine
 62
6
  6
CONTINUOUS
 10
2.9470781976
 20
11.1856130892
 11
2.956377454
 21
11.2046793902
  0
LINE
  5
231
100
AcDbEntity
  8
0
100
AcDbLine
 62
7
  6
CONTINUOUS
 10
3.7219604265
 20
12.7743570999
 11
3.7312596828
 21
12.7934234008
  0
LINE
  5
232
100
AcDbEntity
  8
0
100
AcDbLine
 62
6
  6
CONTINUOUS
 10
2.9330984962
 20
11.2269438709
 11
2.943057492
 21
11.2456740178
  0
LINE
  5
233
100
AcDbEntity
  8
0
100
AcDbLine
 62
7
  6
CONTINUOUS
 10
3.7629550542
 20
12.7876770618
 11
3.7729140499
 21
12.8064072087
  0
LINE
  5
234
100
AcDbEntity
  8
0
100
AcDbLine
 62
7
  6
CONTINUOUS
 10
3.7729140499
 20
10.4070463088
 11
3.7629550542
 21
10.4257764557
  0
LINE
  5
235
100
AcDbEntity
  8
0
100
AcDbLine
 62
6
  6
CONTINUOUS
 10
2.943057492
 20
11.9677794997
 11
2.9330984962
 21
11.9865096466
  0
LINE
  5
236
100
AcDbEntity
  8
0
100
AcDbLine
 62
7
  6
CONTINUOUS
 10
3.7312596828
 20
10.4200301167
 11
3.7219604265
 21
10.4390964176
  0
LINE
  5
237
100
AcDbEntity
  8
0
100
AcDbLine
 62
6
  6
CONTINUOUS
 10
2.956377454
 20
12.0087741273
 11
2.9470781976
 21
12.0278404283
  0
LINE
  5
238
100
AcDbEntity
  8
0
100
AcDbLine
 62
6
  6
CONTINUOUS
 10
3.6900838188
 20
10.4344597317
 11
3.6814556317
 21
10.4538389573
  0
LINE
  5
239
100
AcDbEntity
  8
0
100
AcDbLine
 62
6
  6
CONTINUOUS
 10
2.9711199936
 20
12.0492789222
 11
2.9624918065
 21
12.0686581478
  0
LINE
  5
23A
100
AcDbEntity
  8
0
100
AcDbLine
 62
7
  6
CONTINUOUS
 10
3.6494366243
 20
10.4503175734
 11
3.6414900185
 21
10.4699861132
  0
LINE
  5
23B
100
AcDbEntity
  8
0
100
AcDbLine
 62
7
  6
CONTINUOUS
 10
2.9872671495
 20
12.0892445354
 11
2.9793205436
 21
12.1089130751
  0
LINE
  5
23C
100
AcDbEntity
  8
0
100
AcDbLine
 62
7
  6
CONTINUOUS
 10
3.6093676217
 20
10.4675843217
 11
3.6021122789
 21
10.4875182124
  0
LINE
  5
23D
100
AcDbEntity
  8
0
100
AcDbLine
 62
6
  6
CONTINUOUS
 10
3.0047992487
 20
12.128622275
 11
2.9975439059
 21
12.1485561657
  0
LINE
  5
23E
100
AcDbEntity
  8
0
100
AcDbLine
 62
6
  6
CONTINUOUS
 10
3.5699256289
 20
10.4862389395
 11
3.5633703885
 21
10.5064138949
  0
LINE
  5
23F
100
AcDbEntity
  8
0
100
AcDbLine
 62
6
  6
CONTINUOUS
 10
3.0236949312
 20
12.1673641653
 11
3.0171396908
 21
12.1875391207
  0
LINE
  5
240
100
AcDbEntity
  8
0
100
AcDbLine
 62
7
  6
CONTINUOUS
 10
4.8989444536
 20
12.5875290708
 11
4.9011618372
 21
12.5664320755
  0
LINE
  5
241
100
AcDbEntity
  8
0
100
AcDbLine
 62
6
  6
CONTINUOUS
 10
5.0837131118
 20
10.8295727167
 11
5.0859304954
 21
10.8084757214
  0
LINE
  5
242
100
AcDbEntity
  8
0
100
AcDbLine
 62
7
  6
CONTINUOUS
 10
4.9327018902
 20
12.5598866932
 11
4.9341816485
 21
12.538725164
  0
LINE
  5
243
100
AcDbEntity
  8
0
100
AcDbLine
 62
7
  6
CONTINUOUS
 10
5.0560062004
 20
10.7965529054
 11
5.0574859586
 21
10.7753913762
  0
LINE
  5
244
100
AcDbEntity
  8
0
100
AcDbLine
 62
7
  6
CONTINUOUS
 10
4.9654740576
 20
12.531083037
 11
4.9662143877
 21
12.509882756
  0
LINE
  5
245
100
AcDbEntity
  8
0
100
AcDbLine
 62
7
  6
CONTINUOUS
 10
5.0271637924
 20
10.7645201661
 11
5.0279041225
 21
10.7433198852
  0
LINE
  5
246
100
AcDbEntity
  8
0
100
AcDbLine
 62
7
  6
CONTINUOUS
 10
4.997221028
 20
12.5011531951
 11
4.997221028
 21
12.4799399916
  0
LINE
  5
247
100
AcDbEntity
  8
0
100
AcDbLine
 62
7
  6
CONTINUOUS
 10
4.997221028
 20
10.7335135259
 11
4.997221028
 21
10.7123003225
  0
LINE
  5
248
100
AcDbEntity
  8
0
100
AcDbLine
 62
7
  6
CONTINUOUS
 10
5.0279041225
 20
12.4701336323
 11
5.0271637924
 21
12.4489333514
  0
LINE
  5
249
100
AcDbEntity
  8
0
100
AcDbLine
 62
7
  6
CONTINUOUS
 10
4.9662143877
 20
10.7035707615
 11
4.9654740576
 21
10.6823704805
  0
LINE
  5
24A
100
AcDbEntity
  8
0
100
AcDbLine
 62
7
  6
CONTINUOUS
 10
5.0574859586
 20
12.4380621413
 11
5.0560062004
 21
12.4169006121
  0
LINE
  5
24B
100
AcDbEntity
  8
0
100
AcDbLine
 62
7
  6
CONTINUOUS
 10
4.9341816485
 20
10.6747283535
 11
4.9327018902
 21
10.6535668243
  0
LINE
  5
24C
100
AcDbEntity
  8
0
100
AcDbLine
 62
6
  6
CONTINUOUS
 10
5.0859304954
 20
12.4049777961
 11
5.0837131118
 21
12.3838808008
  0
LINE
  5
24D
100
AcDbEntity
  8
0
100
AcDbLine
 62
7
  6
CONTINUOUS
 10
4.9011618372
 20
10.647021442
 11
4.8989444536
 21
10.6259244467
  0
LINE
  5
24E
100
AcDbEntity
  8
0
100
AcDbLine
 62
6
  6
CONTINUOUS
 10
5.1132030775
 20
12.370920905
 11
5.1102507702
 21
12.349914147
  0
LINE
  5
24F
100
AcDbEntity
  8
0
100
AcDbLine
 62
6
  6
CONTINUOUS
 10
4.8671951834
 20
10.6204837836
 11
4.8642428761
 21
10.5994770256
  0
LINE
  5
250
100
AcDbEntity
  8
0
100
AcDbLine
 62
6
  6
CONTINUOUS
 10
5.1392704776
 20
12.3359329611
 11
5.1355868434
 21
12.3150420339
  0
LINE
  5
251
100
AcDbEntity
  8
0
100
AcDbLine
 62
7
  6
CONTINUOUS
 10
4.8323230702
 20
10.5951477104
 11
4.8286394361
 21
10.5742567832
  0
LINE
  5
252
100
AcDbEntity
  8
0
100
AcDbLine
 62
6
  6
CONTINUOUS
 10
5.1641009364
 20
12.3000565918
 11
5.1596904634
 21
12.2793069477
  0
LINE
  5
253
100
AcDbEntity
  8
0
100
AcDbLine
 62
6
  6
CONTINUOUS
 10
4.7965879841
 20
10.5710440904
 11
4.7921775111
 21
10.5502944464
  0
LINE
  5
254
100
AcDbEntity
  8
0
100
AcDbLine
 62
7
  6
CONTINUOUS
 10
5.187664202
 20
12.2633355068
 11
5.1825322636
 21
12.2427524262
  0
LINE
  5
255
100
AcDbEntity
  8
0
100
AcDbLine
 62
7
  6
CONTINUOUS
 10
4.7600334625
 20
10.5482022902
 11
4.7549015241
 21
10.5276192096
  0
LINE
  5
256
100
AcDbEntity
  8
0
100
AcDbLine
 62
6
  6
CONTINUOUS
 10
5.2099315661
 20
12.2258144452
 11
5.2040844148
 21
12.2054230053
  0
LINE
  5
257
100
AcDbEntity
  8
0
100
AcDbLine
 62
7
  6
CONTINUOUS
 10
4.7227040417
 20
10.526650139
 11
4.7168568904
 21
10.5062586991
  0
LINE
  5
258
100
AcDbEntity
  8
0
100
AcDbLine
 62
6
  6
CONTINUOUS
 10
5.2308758994
 20
12.1875391207
 11
5.224320659
 21
12.1673641653
  0
LINE
  5
259
100
AcDbEntity
  8
0
100
AcDbLine
 62
6
  6
CONTINUOUS
 10
4.6846452017
 20
10.5064138949
 11
4.6780899613
 21
10.4862389395
  0
LINE
  5
25A
100
AcDbEntity
  8
0
100
AcDbLine
 62
6
  6
CONTINUOUS
 10
2.9205697344
 20
11.2687373595
 11
2.9311763361
 21
11.2871085326
  0
LINE
  5
25B
100
AcDbEntity
  8
0
100
AcDbLine
 62
7
  6
CONTINUOUS
 10
3.8043895689
 20
12.7995582178
 11
3.8149961707
 21
12.8179293908
  0
LINE
  5
25C
100
AcDbEntity
  8
0
100
AcDbLine
 62
7
  6
CONTINUOUS
 10
2.9095071764
 20
11.3109426362
 11
2.9207484615
 21
11.328932453
  0
LINE
  5
25D
100
AcDbEntity
  8
0
100
AcDbLine
 62
7
  6
CONTINUOUS
 10
3.8462134893
 20
12.8099860923
 11
3.8574547745
 21
12.8279759091
  0
LINE
  5
25E
100
AcDbEntity
  8
0
100
AcDbLine
 62
6
  6
CONTINUOUS
 10
2.8999243003
 20
11.3535082802
 11
2.9117865732
 21
11.3710948229
  0
LINE
  5
25F
100
AcDbEntity
  8
0
100
AcDbLine
 62
7
  6
CONTINUOUS
 10
3.8883758592
 20
12.8189479807
 11
3.900238132
 21
12.8365345234
  0
LINE
  5
260
100
AcDbEntity
  8
0
100
AcDbLine
 62
6
  6
CONTINUOUS
 10
2.8918327815
 20
11.396382432
 11
2.9043015896
 21
11.413544274
  0
LINE
  5
261
100
AcDbEntity
  8
0
100
AcDbLine
 62
6
  6
CONTINUOUS
 10
3.9308253104
 20
12.8264329642
 11
3.9432941185
 21
12.8435948063
  0
LINE
  5
262
100
AcDbEntity
  8
0
100
AcDbLine
 62
6
  6
CONTINUOUS
 10
3.9432941185
 20
10.3698587112
 11
3.9308253104
 21
10.3870205533
  0
LINE
  5
263
100
AcDbEntity
  8
0
100
AcDbLine
 62
6
  6
CONTINUOUS
 10
2.9043015896
 20
11.7999092435
 11
2.8918327815
 21
11.8170710856
  0
LINE
  5
264
100
AcDbEntity
  8
0
100
AcDbLine
 62
7
  6
CONTINUOUS
 10
3.900238132
 20
10.3769189941
 11
3.8883758592
 21
10.3945055368
  0
LINE
  5
265
100
AcDbEntity
  8
0
100
AcDbLine
 62
6
  6
CONTINUOUS
 10
2.9117865732
 20
11.8423586946
 11
2.8999243003
 21
11.8599452373
  0
LINE
  5
266
100
AcDbEntity
  8
0
100
AcDbLine
 62
7
  6
CONTINUOUS
 10
3.8574547745
 20
10.3854776084
 11
3.8462134893
 21
10.4034674252
  0
LINE
  5
267
100
AcDbEntity
  8
0
100
AcDbLine
 62
7
  6
CONTINUOUS
 10
2.9207484615
 20
11.8845210645
 11
2.9095071764
 21
11.9025108813
  0
LINE
  5
268
100
AcDbEntity
  8
0
100
AcDbLine
 62
7
  6
CONTINUOUS
 10
3.8149961707
 20
10.3955241267
 11
3.8043895689
 21
10.4138952997
  0
LINE
  5
269
100
AcDbEntity
  8
0
100
AcDbLine
 62
6
  6
CONTINUOUS
 10
2.9311763361
 20
11.9263449849
 11
2.9205697344
 21
11.944716158
  0
LINE
  5
26A
100
AcDbEntity
  8
0
100
AcDbLine
 62
6
  6
CONTINUOUS
 10
4.6780899613
 20
12.727214578
 11
4.6846452017
 21
12.7070396226
  0
LINE
  5
26B
100
AcDbEntity
  8
0
100
AcDbLine
 62
6
  6
CONTINUOUS
 10
5.224320659
 20
11.0460893522
 11
5.2308758994
 21
11.0259143968
  0
LINE
  5
26C
100
AcDbEntity
  8
0
100
AcDbLine
 62
7
  6
CONTINUOUS
 10
4.7168568904
 20
12.7071948184
 11
4.7227040417
 21
12.6868033785
  0
LINE
  5
26D
100
AcDbEntity
  8
0
100
AcDbLine
 62
6
  6
CONTINUOUS
 10
5.2040844148
 20
11.0080305122
 11
5.2099315661
 21
10.9876390723
  0
LINE
  5
26E
100
AcDbEntity
  8
0
100
AcDbLine
 62
7
  6
CONTINUOUS
 10
4.7549015241
 20
12.6858343079
 11
4.7600334625
 21
12.6652512273
  0
LINE
  5
26F
100
AcDbEntity
  8
0
100
AcDbLine
 62
7
  6
CONTINUOUS
 10
5.1825322636
 20
10.9707010913
 11
5.187664202
 21
10.9501180107
  0
LINE
  5
270
100
AcDbEntity
  8
0
100
AcDbLine
 62
6
  6
CONTINUOUS
 10
4.7921775111
 20
12.6631590711
 11
4.7965879841
 21
12.6424094271
  0
LINE
  5
271
100
AcDbEntity
  8
0
100
AcDbLine
 62
6
  6
CONTINUOUS
 10
5.1596904634
 20
10.9341465698
 11
5.1641009364
 21
10.9133969257
  0
LINE
  5
272
100
AcDbEntity
  8
0
100
AcDbLine
 62
7
  6
CONTINUOUS
 10
4.8286394361
 20
12.6391967343
 11
4.8323230702
 21
12.6183058071
  0
LINE
  5
273
100
AcDbEntity
  8
0
100
AcDbLine
 62
6
  6
CONTINUOUS
 10
5.1355868434
 20
10.8984114836
 11
5.1392704776
 21
10.8775205564
  0
LINE
  5
274
100
AcDbEntity
  8
0
100
AcDbLine
 62
6
  6
CONTINUOUS
 10
4.8642428761
 20
12.6139764919
 11
4.8671951834
 21
12.5929697339
  0
LINE
  5
275
100
AcDbEntity
  8
0
100
AcDbLine
 62
6
  6
CONTINUOUS
 10
5.1102507702
 20
10.8635393705
 11
5.1132030775
 21
10.8425326125
  0
LINE
  5
276
100
AcDbEntity
  8
0
100
AcDbLine
 62
7
  6
CONTINUOUS
 10
5.2504716843
 20
12.1485561657
 11
5.2432163414
 21
12.128622275
  0
LINE
  5
277
100
AcDbEntity
  8
0
100
AcDbLine
 62
7
  6
CONTINUOUS
 10
4.6459033113
 20
10.4875182124
 11
4.6386479684
 21
10.4675843217
  0
LINE
  5
278
100
AcDbEntity
  8
0
100
AcDbLine
 62
6
  6
CONTINUOUS
 10
5.2686950466
 20
12.1089130751
 11
5.2607484407
 21
12.0892445354
  0
LINE
  5
279
100
AcDbEntity
  8
0
100
AcDbLine
 62
7
  6
CONTINUOUS
 10
4.6065255717
 20
10.4699861132
 11
4.5985789658
 21
10.4503175734
  0
LINE
  5
27A
100
AcDbEntity
  8
0
100
AcDbLine
 62
6
  6
CONTINUOUS
 10
5.2855237837
 20
12.0686581478
 11
5.2768955966
 21
12.0492789222
  0
LINE
  5
27B
100
AcDbEntity
  8
0
100
AcDbLine
 62
6
  6
CONTINUOUS
 10
4.5665599585
 20
10.4538389573
 11
4.5579317713
 21
10.4344597317
  0
LINE
  5
27C
100
AcDbEntity
  8
0
100
AcDbLine
 62
6
  6
CONTINUOUS
 10
5.3009373925
 20
12.0278404283
 11
5.2916381362
 21
12.0087741273
  0
LINE
  5
27D
100
AcDbEntity
  8
0
100
AcDbLine
 62
6
  6
CONTINUOUS
 10
4.5260551637
 20
10.4390964176
 11
4.5167559073
 21
10.4200301167
  0
LINE
  5
27E
100
AcDbEntity
  8
0
100
AcDbLine
 62
7
  6
CONTINUOUS
 10
5.3149170939
 20
11.9865096466
 11
5.3049580982
 21
11.9677794997
  0
LINE
  5
27F
100
AcDbEntity
  8
0
100
AcDbLine
 62
6
  6
CONTINUOUS
 10
4.485060536
 20
10.4257764557
 11
4.4751015403
 21
10.4070463088
  0
LINE
  5
280
100
AcDbEntity
  8
0
100
AcDbLine
 62
6
  6
CONTINUOUS
 10
2.8852424781
 20
11.4395128559
 11
2.8983026302
 21
11.4562290883
  0
LINE
  5
281
100
AcDbEntity
  8
0
100
AcDbLine
 62
6
  6
CONTINUOUS
 10
3.9735101246
 20
12.8324319237
 11
3.9865702767
 21
12.8491481561
  0
LINE
  5
282
100
AcDbEntity
  8
0
100
AcDbLine
 62
6
  6
CONTINUOUS
 10
2.8801614194
 20
11.4828470041
 11
2.8937970037
 21
11.4990972608
  0
LINE
  5
283
100
AcDbEntity
  8
0
100
AcDbLine
 62
6
  6
CONTINUOUS
 10
4.0163782971
 20
12.8369375501
 11
4.0300138814
 21
12.8531878068
  0
LINE
  5
284
100
AcDbEntity
  8
0
100
AcDbLine
 62
6
  6
CONTINUOUS
 10
2.8765957959
 20
11.5263320808
 11
2.8907901996
 21
11.5420965632
  0
LINE
  5
285
100
AcDbEntity
  8
0
100
AcDbLine
 62
6
  6
CONTINUOUS
 10
4.0593775995
 20
12.8399443543
 11
4.0735720032
 21
12.8557088366
  0
LINE
  5
286
100
AcDbEntity
  8
0
100
AcDbLine
 62
6
  6
CONTINUOUS
 10
4.0735720032
 20
10.3577446809
 11
4.0593775995
 21
10.3735091632
  0
LINE
  5
287
100
AcDbEntity
  8
0
100
AcDbLine
 62
6
  6
CONTINUOUS
 10
2.8907901996
 20
11.6713569543
 11
2.8765957959
 21
11.6871214367
  0
LINE
  5
288
100
AcDbEntity
  8
0
100
AcDbLine
 62
6
  6
CONTINUOUS
 10
4.0300138814
 20
10.3602657107
 11
4.0163782971
 21
10.3765159674
  0
LINE
  5
289
100
AcDbEntity
  8
0
100
AcDbLine
 62
6
  6
CONTINUOUS
 10
2.8937970037
 20
11.7143562567
 11
2.8801614194
 21
11.7306065134
  0
LINE
  5
28A
100
AcDbEntity
  8
0
100
AcDbLine
 62
6
  6
CONTINUOUS
 10
3.9865702767
 20
10.3643053614
 11
3.9735101246
 21
10.3810215938
  0
LINE
  5
28B
100
AcDbEntity
  8
0
100
AcDbLine
 62
6
  6
CONTINUOUS
 10
2.8983026302
 20
11.7572244292
 11
2.8852424781
 21
11.7739406616
  0
LINE
  5
28C
100
AcDbEntity
  8
0
100
AcDbLine
 62
6
  6
CONTINUOUS
 10
4.4751015403
 20
12.8064072087
 11
4.485060536
 21
12.7876770618
  0
LINE
  5
28D
100
AcDbEntity
  8
0
100
AcDbLine
 62
7
  6
CONTINUOUS
 10
5.3049580982
 20
11.2456740178
 11
5.3149170939
 21
11.2269438709
  0
LINE
  5
28E
100
AcDbEntity
  8
0
100
AcDbLine
 62
6
  6
CONTINUOUS
 10
4.5167559073
 20
12.7934234008
 11
4.5260551637
 21
12.7743570999
  0
LINE
  5
28F
100
AcDbEntity
  8
0
100
AcDbLine
 62
6
  6
CONTINUOUS
 10
5.2916381362
 20
11.2046793902
 11
5.3009373925
 21
11.1856130892
  0
LINE
  5
290
100
AcDbEntity
  8
0
100
AcDbLine
 62
6
  6
CONTINUOUS
 10
4.5579317713
 20
12.7789937859
 11
4.5665599585
 21
12.7596145602
  0
LINE
  5
291
100
AcDbEntity
  8
0
100
AcDbLine
 62
6
  6
CONTINUOUS
 10
5.2768955966
 20
11.1641745953
 11
5.2855237837
 21
11.1447953697
  0
LINE
  5
292
100
AcDbEntity
  8
0
100
AcDbLine
 62
7
  6
CONTINUOUS
 10
4.5985789658
 20
12.7631359441
 11
4.6065255717
 21
12.7434674043
  0
LINE
  5
293
100
AcDbEntity
  8
0
100
AcDbLine
 62
6
  6
CONTINUOUS
 10
5.2607484407
 20
11.1242089821
 11
5.2686950466
 21
11.1045404424
  0
LINE
  5
294
100
AcDbEntity
  8
0
100
AcDbLine
 62
7
  6
CONTINUOUS
 10
4.6386479684
 20
12.7458691958
 11
4.6459033113
 21
12.7259353051
  0
LINE
  5
295
100
AcDbEntity
  8
0
100
AcDbLine
 62
7
  6
CONTINUOUS
 10
5.2432163414
 20
11.0848312425
 11
5.2504716843
 21
11.0648973518
  0
LINE
  5
296
100
AcDbEntity
  8
0
100
AcDbLine
 62
6
  6
CONTINUOUS
 10
5.3274458558
 20
11.944716158
 11
5.3168392541
 21
11.9263449849
  0
LINE
  5
297
100
AcDbEntity
  8
0
100
AcDbLine
 62
6
  6
CONTINUOUS
 10
4.4436260212
 20
10.4138952997
 11
4.4330194195
 21
10.3955241267
  0
LINE
  5
298
100
AcDbEntity
  8
0
100
AcDbLine
 62
7
  6
CONTINUOUS
 10
4.4018021009
 20
10.4034674252
 11
4.3905608157
 21
10.3854776084
  0
LINE
  5
299
100
AcDbEntity
  8
0
100
AcDbLine
 62
6
  6
CONTINUOUS
 10
4.359639731
 20
10.3945055368
 11
4.3477774581
 21
10.3769189941
  0
LINE
  5
29A
100
AcDbEntity
  8
0
100
AcDbLine
 62
7
  6
CONTINUOUS
 10
4.3171902798
 20
10.3870205533
 11
4.3047214717
 21
10.3698587112
  0
LINE
  5
29B
100
AcDbEntity
  8
0
100
AcDbLine
 62
7
  6
CONTINUOUS
 10
2.8745499518
 20
11.5699151061
 11
2.8892858811
 21
11.5851746076
  0
LINE
  5
29C
100
AcDbEntity
  8
0
100
AcDbLine
 62
7
  6
CONTINUOUS
 10
4.1024556439
 20
12.8414486727
 11
4.1171915732
 21
12.8567081743
  0
LINE
  5
29D
100
AcDbEntity
  8
0
100
AcDbLine
 62
6
  6
CONTINUOUS
 10
2.8740263796
 20
11.6135429806
 11
2.8892858811
 21
11.6282789099
  0
LINE
  5
29E
100
AcDbEntity
  8
0
100
AcDbLine
 62
7
  6
CONTINUOUS
 10
4.1455599463
 20
12.8414486727
 11
4.1608194478
 21
12.8561846021
  0
LINE
  5
29F
100
AcDbEntity
  8
0
100
AcDbLine
 62
6
  6
CONTINUOUS
 10
2.8750257172
 20
11.6571625506
 11
2.8907901996
 21
11.6713569543
  0
LINE
  5
2A0
100
AcDbEntity
  8
0
100
AcDbLine
 62
6
  6
CONTINUOUS
 10
4.1886379906
 20
12.8399443543
 11
4.204402473
 21
12.854138758
  0
LINE
  5
2A1
100
AcDbEntity
  8
0
100
AcDbLine
 62
6
  6
CONTINUOUS
 10
4.204402473
 20
10.3593147595
 11
4.1886379906
 21
10.3735091632
  0
LINE
  5
2A2
100
AcDbEntity
  8
0
100
AcDbLine
 62
6
  6
CONTINUOUS
 10
2.8907901996
 20
11.5420965632
 11
2.8750257172
 21
11.5562909669
  0
LINE
  5
2A3
100
AcDbEntity
  8
0
100
AcDbLine
 62
7
  6
CONTINUOUS
 10
4.1608194478
 20
10.3572689154
 11
4.1455599463
 21
10.3720048448
  0
LINE
  5
2A4
100
AcDbEntity
  8
0
100
AcDbLine
 62
6
  6
CONTINUOUS
 10
2.8892858811
 20
11.5851746076
 11
2.8740263796
 21
11.5999105369
  0
LINE
  5
2A5
100
AcDbEntity
  8
0
100
AcDbLine
 62
7
  6
CONTINUOUS
 10
4.1171915732
 20
10.3567453432
 11
4.1024556439
 21
10.3720048448
  0
LINE
  5
2A6
100
AcDbEntity
  8
0
100
AcDbLine
 62
7
  6
CONTINUOUS
 10
2.8892858811
 20
11.6282789099
 11
2.8745499518
 21
11.6435384115
  0
LINE
  5
2A7
100
AcDbEntity
  8
0
100
AcDbLine
 62
7
  6
CONTINUOUS
 10
4.3047214717
 20
12.8435948063
 11
4.3171902798
 21
12.8264329642
  0
LINE
  5
2A8
100
AcDbEntity
  8
0
100
AcDbLine
 62
6
  6
CONTINUOUS
 10
4.3477774581
 20
12.8365345234
 11
4.359639731
 21
12.8189479807
  0
LINE
  5
2A9
100
AcDbEntity
  8
0
100
AcDbLine
 62
7
  6
CONTINUOUS
 10
4.3905608157
 20
12.8279759091
 11
4.4018021009
 21
12.8099860923
  0
LINE
  5
2AA
100
AcDbEntity
  8
0
100
AcDbLine
 62
6
  6
CONTINUOUS
 10
4.4330194195
 20
12.8179293908
 11
4.4436260212
 21
12.7995582178
  0
LINE
  5
2AB
100
AcDbEntity
  8
0
100
AcDbLine
 62
6
  6
CONTINUOUS
 10
5.3168392541
 20
11.2871085326
 11
5.3274458558
 21
11.2687373595
  0
LINE
  5
2AC
100
AcDbEntity
  8
0
100
AcDbLine
 62
6
  6
CONTINUOUS
 10
4.2745054656
 20
10.3810215938
 11
4.2614453134
 21
10.3643053614
  0
LINE
  5
2AD
100
AcDbEntity
  8
0
100
AcDbLine
 62
6
  6
CONTINUOUS
 10
4.2316372931
 20
10.3765159674
 11
4.2180017088
 21
10.3602657107
  0
LINE
  5
2AE
100
AcDbEntity
  8
0
100
AcDbLine
 62
6
  6
CONTINUOUS
 10
4.1886379906
 20
10.3735091632
 11
4.174443587
 21
10.3577446809
  0
LINE
  5
2AF
100
AcDbEntity
  8
0
100
AcDbLine
 62
6
  6
CONTINUOUS
 10
2.8775467471
 20
11.7007206724
 11
2.8937970037
 21
11.7143562567
  0
LINE
  5
2B0
100
AcDbEntity
  8
0
100
AcDbLine
 62
6
  6
CONTINUOUS
 10
4.2316372931
 20
12.8369375501
 11
4.2478875497
 21
12.8505731345
  0
LINE
  5
2B1
100
AcDbEntity
  8
0
100
AcDbLine
 62
6
  6
CONTINUOUS
 10
2.8815863978
 20
11.7441642771
 11
2.8983026302
 21
11.7572244292
  0
LINE
  5
2B2
100
AcDbEntity
  8
0
100
AcDbLine
 62
6
  6
CONTINUOUS
 10
4.2745054656
 20
12.8324319237
 11
4.291221698
 21
12.8454920758
  0
LINE
  5
2B3
100
AcDbEntity
  8
0
100
AcDbLine
 62
7
  6
CONTINUOUS
 10
2.8871397475
 20
11.7874404353
 11
2.9043015896
 21
11.7999092435
  0
LINE
  5
2B4
100
AcDbEntity
  8
0
100
AcDbLine
 62
6
  6
CONTINUOUS
 10
4.3171902798
 20
12.8264329642
 11
4.3343521219
 21
12.8389017724
  0
LINE
  5
2B5
100
AcDbEntity
  8
0
100
AcDbLine
 62
6
  6
CONTINUOUS
 10
4.3343521219
 20
10.3745517451
 11
4.3171902798
 21
10.3870205533
  0
LINE
  5
2B6
100
AcDbEntity
  8
0
100
AcDbLine
 62
7
  6
CONTINUOUS
 10
2.9043015896
 20
11.413544274
 11
2.8871397475
 21
11.4260130822
  0
LINE
  5
2B7
100
AcDbEntity
  8
0
100
AcDbLine
 62
6
  6
CONTINUOUS
 10
4.291221698
 20
10.3679614417
 11
4.2745054656
 21
10.3810215938
  0
LINE
  5
2B8
100
AcDbEntity
  8
0
100
AcDbLine
 62
6
  6
CONTINUOUS
 10
2.8983026302
 20
11.4562290883
 11
2.8815863978
 21
11.4692892404
  0
LINE
  5
2B9
100
AcDbEntity
  8
0
100
AcDbLine
 62
6
  6
CONTINUOUS
 10
4.2478875497
 20
10.362880383
 11
4.2316372931
 21
10.3765159674
  0
LINE
  5
2BA
100
AcDbEntity
  8
0
100
AcDbLine
 62
6
  6
CONTINUOUS
 10
2.8937970037
 20
11.4990972608
 11
2.8775467471
 21
11.5127328451
  0
LINE
  5
2BB
100
AcDbEntity
  8
0
100
AcDbLine
 62
6
  6
CONTINUOUS
 10
4.174443587
 20
12.8557088366
 11
4.1886379906
 21
12.8399443543
  0
LINE
  5
2BC
100
AcDbEntity
  8
0
100
AcDbLine
 62
6
  6
CONTINUOUS
 10
4.2180017088
 20
12.8531878068
 11
4.2316372931
 21
12.8369375501
  0
LINE
  5
2BD
100
AcDbEntity
  8
0
100
AcDbLine
 62
6
  6
CONTINUOUS
 10
4.2614453134
 20
12.8491481561
 11
4.2745054656
 21
12.8324319237
  0
LINE
  5
2BE
100
AcDbEntity
  8
0
100
AcDbLine
 62
6
  6
CONTINUOUS
 10
4.1455599463
 20
10.3720048448
 11
4.1308240169
 21
10.3567453432
  0
LINE
  5
2BF
100
AcDbEntity
  8
0
100
AcDbLine
 62
6
  6
CONTINUOUS
 10
4.1024556439
 20
10.3720048448
 11
4.0871961424
 21
10.3572689154
  0
LINE
  5
2C0
100
AcDbEntity
  8
0
100
AcDbLine
 62
7
  6
CONTINUOUS
 10
4.0593775995
 20
10.3735091632
 11
4.0436131172
 21
10.3593147595
  0
LINE
  5
2C1
100
AcDbEntity
  8
0
100
AcDbLine
 62
7
  6
CONTINUOUS
 10
2.8942000305
 20
11.8304964218
 11
2.9117865732
 21
11.8423586946
  0
LINE
  5
2C2
100
AcDbEntity
  8
0
100
AcDbLine
 62
6
  6
CONTINUOUS
 10
4.359639731
 20
12.8189479807
 11
4.3772262736
 21
12.8308102535
  0
LINE
  5
2C3
100
AcDbEntity
  8
0
100
AcDbLine
 62
6
  6
CONTINUOUS
 10
2.9027586448
 20
11.8732797794
 11
2.9207484615
 21
11.8845210645
  0
LINE
  5
2C4
100
AcDbEntity
  8
0
100
AcDbLine
 62
7
  6
CONTINUOUS
 10
4.4018021009
 20
12.8099860923
 11
4.4197919177
 21
12.8212273775
  0
LINE
  5
2C5
100
AcDbEntity
  8
0
100
AcDbLine
 62
7
  6
CONTINUOUS
 10
4.4197919177
 20
10.39222614
 11
4.4018021009
 21
10.4034674252
  0
LINE
  5
2C6
100
AcDbEntity
  8
0
100
AcDbLine
 62
6
  6
CONTINUOUS
 10
2.9207484615
 20
11.328932453
 11
2.9027586448
 21
11.3401737381
  0
LINE
  5
2C7
100
AcDbEntity
  8
0
100
AcDbLine
 62
6
  6
CONTINUOUS
 10
4.3772262736
 20
10.382643264
 11
4.359639731
 21
10.3945055368
  0
LINE
  5
2C8
100
AcDbEntity
  8
0
100
AcDbLine
 62
7
  6
CONTINUOUS
 10
2.9117865732
 20
11.3710948229
 11
2.8942000305
 21
11.3829570957
  0
LINE
  5
2C9
100
AcDbEntity
  8
0
100
AcDbLine
 62
7
  6
CONTINUOUS
 10
4.0436131172
 20
12.854138758
 11
4.0593775995
 21
12.8399443543
  0
LINE
  5
2CA
100
AcDbEntity
  8
0
100
AcDbLine
 62
6
  6
CONTINUOUS
 10
4.0871961424
 20
12.8561846021
 11
4.1024556439
 21
12.8414486727
  0
LINE
  5
2CB
100
AcDbEntity
  8
0
100
AcDbLine
 62
6
  6
CONTINUOUS
 10
4.1308240169
 20
12.8567081743
 11
4.1455599463
 21
12.8414486727
  0
LINE
  5
2CC
100
AcDbEntity
  8
0
100
AcDbLine
 62
6
  6
CONTINUOUS
 10
4.0163782971
 20
10.3765159674
 11
4.0001280405
 21
10.362880383
  0
LINE
  5
2CD
100
AcDbEntity
  8
0
100
AcDbLine
 62
6
  6
CONTINUOUS
 10
3.9735101246
 20
10.3810215938
 11
3.9567938922
 21
10.3679614417
  0
LINE
  5
2CE
100
AcDbEntity
  8
0
100
AcDbLine
 62
6
  6
CONTINUOUS
 10
3.9308253104
 20
10.3870205533
 11
3.9136634683
 21
10.3745517451
  0
LINE
  5
2CF
100
AcDbEntity
  8
0
100
AcDbLine
 62
7
  6
CONTINUOUS
 10
2.912805163
 20
11.9157383832
 11
2.9311763361
 21
11.9263449849
  0
LINE
  5
2D0
100
AcDbEntity
  8
0
100
AcDbLine
 62
7
  6
CONTINUOUS
 10
4.4436260212
 20
12.7995582178
 11
4.4619971943
 21
12.8101648195
  0
LINE
  5
2D1
100
AcDbEntity
  8
0
100
AcDbLine
 62
6
  6
CONTINUOUS
 10
2.9243273451
 20
11.9578205039
 11
2.943057492
 21
11.9677794997
  0
LINE
  5
2D2
100
AcDbEntity
  8
0
100
AcDbLine
 62
6
  6
CONTINUOUS
 10
4.485060536
 20
12.7876770618
 11
4.5037906829
 21
12.7976360576
  0
LINE
  5
2D3
100
AcDbEntity
  8
0
100
AcDbLine
 62
6
  6
CONTINUOUS
 10
2.937311153
 20
11.999474871
 11
2.956377454
 21
12.0087741273
  0
LINE
  5
2D4
100
AcDbEntity
  8
0
100
AcDbLine
 62
6
  6
CONTINUOUS
 10
4.5260551637
 20
12.7743570999
 11
4.5451214646
 21
12.7836563562
  0
LINE
  5
2D5
100
AcDbEntity
  8
0
100
AcDbLine
 62
6
  6
CONTINUOUS
 10
4.5451214646
 20
10.4297971613
 11
4.5260551637
 21
10.4390964176
  0
LINE
  5
2D6
100
AcDbEntity
  8
0
100
AcDbLine
 62
6
  6
CONTINUOUS
 10
2.956377454
 20
11.2046793902
 11
2.937311153
 21
11.2139786465
  0
LINE
  5
2D7
100
AcDbEntity
  8
0
100
AcDbLine
 62
6
  6
CONTINUOUS
 10
4.5037906829
 20
10.4158174599
 11
4.485060536
 21
10.4257764557
  0
LINE
  5
2D8
100
AcDbEntity
  8
0
100
AcDbLine
 62
6
  6
CONTINUOUS
 10
2.943057492
 20
11.2456740178
 11
2.9243273451
 21
11.2556330136
  0
LINE
  5
2D9
100
AcDbEntity
  8
0
100
AcDbLine
 62
7
  6
CONTINUOUS
 10
4.4619971943
 20
10.403288698
 11
4.4436260212
 21
10.4138952997
  0
LINE
  5
2DA
100
AcDbEntity
  8
0
100
AcDbLine
 62
7
  6
CONTINUOUS
 10
2.9311763361
 20
11.2871085326
 11
2.912805163
 21
11.2977151343
  0
LINE
  5
2DB
100
AcDbEntity
  8
0
100
AcDbLine
 62
6
  6
CONTINUOUS
 10
3.9136634683
 20
12.8389017724
 11
3.9308253104
 21
12.8264329642
  0
LINE
  5
2DC
100
AcDbEntity
  8
0
100
AcDbLine
 62
6
  6
CONTINUOUS
 10
3.9567938922
 20
12.8454920758
 11
3.9735101246
 21
12.8324319237
  0
LINE
  5
2DD
100
AcDbEntity
  8
0
100
AcDbLine
 62
6
  6
CONTINUOUS
 10
4.0001280405
 20
12.8505731345
 11
4.0163782971
 21
12.8369375501
  0
LINE
  5
2DE
100
AcDbEntity
  8
0
100
AcDbLine
 62
6
  6
CONTINUOUS
 10
3.8883758592
 20
10.3945055368
 11
3.8707893165
 21
10.382643264
  0
LINE
  5
2DF
100
AcDbEntity
  8
0
100
AcDbLine
 62
7
  6
CONTINUOUS
 10
3.8462134893
 20
10.4034674252
 11
3.8282236725
 21
10.39222614
  0
LINE
  5
2E0
100
AcDbEntity
  8
0
100
AcDbLine
 62
6
  6
CONTINUOUS
 10
2.951740768
 20
12.040650735
 11
2.9711199936
 21
12.0492789222
  0
LINE
  5
2E1
100
AcDbEntity
  8
0
100
AcDbLine
 62
6
  6
CONTINUOUS
 10
4.5665599585
 20
12.7596145602
 11
4.5859391841
 21
12.7682427474
  0
LINE
  5
2E2
100
AcDbEntity
  8
0
100
AcDbLine
 62
7
  6
CONTINUOUS
 10
2.9675986098
 20
12.0812979295
 11
2.9872671495
 21
12.0892445354
  0
LINE
  5
2E3
100
AcDbEntity
  8
0
100
AcDbLine
 62
7
  6
CONTINUOUS
 10
4.6065255717
 20
12.7434674043
 11
4.6261941114
 21
12.7514140102
  0
LINE
  5
2E4
100
AcDbEntity
  8
0
100
AcDbLine
 62
7
  6
CONTINUOUS
 10
4.6261941114
 20
10.4620395073
 11
4.6065255717
 21
10.4699861132
  0
LINE
  5
2E5
100
AcDbEntity
  8
0
100
AcDbLine
 62
7
  6
CONTINUOUS
 10
2.9872671495
 20
11.1242089821
 11
2.9675986098
 21
11.132155588
  0
LINE
  5
2E6
100
AcDbEntity
  8
0
100
AcDbLine
 62
6
  6
CONTINUOUS
 10
4.5859391841
 20
10.4452107701
 11
4.5665599585
 21
10.4538389573
  0
LINE
  5
2E7
100
AcDbEntity
  8
0
100
AcDbLine
 62
6
  6
CONTINUOUS
 10
2.9711199936
 20
11.1641745953
 11
2.951740768
 21
11.1728027825
  0
LINE
  5
2E8
100
AcDbEntity
  8
0
100
AcDbLine
 62
7
  6
CONTINUOUS
 10
3.8282236725
 20
12.8212273775
 11
3.8462134893
 21
12.8099860923
  0
LINE
  5
2E9
100
AcDbEntity
  8
0
100
AcDbLine
 62
6
  6
CONTINUOUS
 10
3.8707893165
 20
12.8308102535
 11
3.8883758592
 21
12.8189479807
  0
LINE
  5
2EA
100
AcDbEntity
  8
0
100
AcDbLine
 62
6
  6
CONTINUOUS
 10
5.3291683835
 20
11.2942267588
 11
5.3168392541
 21
11.2871085326
  0
LINE
  5
2EB
100
AcDbEntity
  8
0
100
AcDbLine
 62
6
  6
CONTINUOUS
 10
3.8043895689
 20
10.4138952997
 11
3.7860183959
 21
10.403288698
  0
LINE
  5
2EC
100
AcDbEntity
  8
0
100
AcDbLine
 62
6
  6
CONTINUOUS
 10
5.3236882451
 20
11.2556330136
 11
5.3049580982
 21
11.2456740178
  0
LINE
  5
2ED
100
AcDbEntity
  8
0
100
AcDbLine
 62
6
  6
CONTINUOUS
 10
3.7629550542
 20
10.4257764557
 11
3.7442249072
 21
10.4158174599
  0
LINE
  5
2EE
100
AcDbEntity
  8
0
100
AcDbLine
 62
6
  6
CONTINUOUS
 10
5.3107044372
 20
11.2139786465
 11
5.2916381362
 21
11.2046793902
  0
LINE
  5
2EF
100
AcDbEntity
  8
0
100
AcDbLine
 62
6
  6
CONTINUOUS
 10
3.7219604265
 20
10.4390964176
 11
3.7028941256
 21
10.4297971613
  0
LINE
  5
2F0
100
AcDbEntity
  8
0
100
AcDbLine
 62
7
  6
CONTINUOUS
 10
2.984865358
 20
12.1213669321
 11
3.0047992487
 21
12.128622275
  0
LINE
  5
2F1
100
AcDbEntity
  8
0
100
AcDbLine
 62
6
  6
CONTINUOUS
 10
4.6459033113
 20
12.7259353051
 11
4.6658372021
 21
12.733190648
  0
LINE
  5
2F2
100
AcDbEntity
  8
0
100
AcDbLine
 62
7
  6
CONTINUOUS
 10
3.0035199758
 20
12.1608089249
 11
3.0236949312
 21
12.1673641653
  0
LINE
  5
2F3
100
AcDbEntity
  8
0
100
AcDbLine
 62
6
  6
CONTINUOUS
 10
4.6846452017
 20
12.7070396226
 11
4.704820157
 21
12.713594863
  0
LINE
  5
2F4
100
AcDbEntity
  8
0
100
AcDbLine
 62
6
  6
CONTINUOUS
 10
4.704820157
 20
10.4998586545
 11
4.6846452017
 21
10.5064138949
  0
LINE
  5
2F5
100
AcDbEntity
  8
0
100
AcDbLine
 62
7
  6
CONTINUOUS
 10
3.0236949312
 20
11.0460893522
 11
3.0035199758
 21
11.0526445926
  0
LINE
  5
2F6
100
AcDbEntity
  8
0
100
AcDbLine
 62
6
  6
CONTINUOUS
 10
4.6658372021
 20
10.4802628695
 11
4.6459033113
 21
10.4875182124
  0
LINE
  5
2F7
100
AcDbEntity
  8
0
100
AcDbLine
 62
7
  6
CONTINUOUS
 10
3.0047992487
 20
11.0848312425
 11
2.984865358
 21
11.0920865854
  0
LINE
  5
2F8
100
AcDbEntity
  8
0
100
AcDbLine
 62
6
  6
CONTINUOUS
 10
3.7028941256
 20
12.7836563562
 11
3.7219604265
 21
12.7743570999
  0
LINE
  5
2F9
100
AcDbEntity
  8
0
100
AcDbLine
 62
6
  6
CONTINUOUS
 10
5.2916381362
 20
12.0087741273
 11
5.3107044372
 21
11.999474871
  0
LINE
  5
2FA
100
AcDbEntity
  8
0
100
AcDbLine
 62
6
  6
CONTINUOUS
 10
3.7442249072
 20
12.7976360576
 11
3.7629550542
 21
12.7876770618
  0
LINE
  5
2FB
100
AcDbEntity
  8
0
100
AcDbLine
 62
6
  6
CONTINUOUS
 10
5.3049580982
 20
11.9677794997
 11
5.3236882451
 21
11.9578205039
  0
LINE
  5
2FC
100
AcDbEntity
  8
0
100
AcDbLine
 62
6
  6
CONTINUOUS
 10
3.7860183959
 20
12.8101648195
 11
3.8043895689
 21
12.7995582178
  0
LINE
  5
2FD
100
AcDbEntity
  8
0
100
AcDbLine
 62
6
  6
CONTINUOUS
 10
5.3168392541
 20
11.9263449849
 11
5.3291683835
 21
11.9192267588
  0
LINE
  5
2FE
100
AcDbEntity
  8
0
100
AcDbLine
 62
6
  6
CONTINUOUS
 10
5.2962748222
 20
11.1728027825
 11
5.2768955966
 21
11.1641745953
  0
LINE
  5
2FF
100
AcDbEntity
  8
0
100
AcDbLine
 62
6
  6
CONTINUOUS
 10
3.6814556317
 20
10.4538389573
 11
3.662076406
 21
10.4452107701
  0
LINE
  5
300
100
AcDbEntity
  8
0
100
AcDbLine
 62
6
  6
CONTINUOUS
 10
5.2804169804
 20
11.132155588
 11
5.2607484407
 21
11.1242089821
  0
LINE
  5
301
100
AcDbEntity
  8
0
100
AcDbLine
 62
7
  6
CONTINUOUS
 10
3.6414900185
 20
10.4699861132
 11
3.6218214787
 21
10.4620395073
  0
LINE
  5
302
100
AcDbEntity
  8
0
100
AcDbLine
 62
6
  6
CONTINUOUS
 10
3.0235397355
 20
12.199575854
 11
3.0439311754
 21
12.2054230053
  0
LINE
  5
303
100
AcDbEntity
  8
0
100
AcDbLine
 62
7
  6
CONTINUOUS
 10
4.7227040417
 20
12.6868033785
 11
4.7430954816
 21
12.6926505298
  0
LINE
  5
304
100
AcDbEntity
  8
0
100
AcDbLine
 62
6
  6
CONTINUOUS
 10
29.4561153443
 20
10.9758330297
 11
29.4355322636
 21
10.9707010913
  0
LINE
  5
305
100
AcDbEntity
  8
0
100
AcDbLine
 62
7
  6
CONTINUOUS
 10
27.7409821277
 20
10.5482022902
 11
27.720399047
 21
10.5430703518
  0
LINE
  5
306
100
AcDbEntity
  8
0
100
AcDbLine
 62
7
  6
CONTINUOUS
 10
4.7806165431
 20
10.5430703518
 11
4.7600334625
 21
10.5482022902
  0
LINE
  5
307
100
AcDbEntity
  8
0
100
AcDbLine
 62
6
  6
CONTINUOUS
 10
3.0654833266
 20
10.9707010913
 11
3.0449002459
 21
10.9758330297
  0
LINE
  5
308
100
AcDbEntity
  8
0
100
AcDbLine
 62
7
  6
CONTINUOUS
 10
4.7430954816
 20
10.5208029877
 11
4.7227040417
 21
10.526650139
  0
LINE
  5
309
100
AcDbEntity
  8
0
100
AcDbLine
 62
6
  6
CONTINUOUS
 10
3.0439311754
 20
11.0080305122
 11
3.0235397355
 21
11.0138776635
  0
LINE
  5
30A
100
AcDbEntity
  8
0
100
AcDbLine
 62
7
  6
CONTINUOUS
 10
3.6218214787
 20
12.7514140102
 11
3.6414900185
 21
12.7434674043
  0
LINE
  5
30B
100
AcDbEntity
  8
0
100
AcDbLine
 62
6
  6
CONTINUOUS
 10
5.2607484407
 20
12.0892445354
 11
5.2804169804
 21
12.0812979295
  0
LINE
  5
30C
100
AcDbEntity
  8
0
100
AcDbLine
 62
6
  6
CONTINUOUS
 10
3.662076406
 20
12.7682427474
 11
3.6814556317
 21
12.7596145602
  0
LINE
  5
30D
100
AcDbEntity
  8
0
100
AcDbLine
 62
6
  6
CONTINUOUS
 10
5.2768955966
 20
12.0492789222
 11
5.2962748222
 21
12.040650735
  0
LINE
  5
30E
100
AcDbEntity
  8
0
100
AcDbLine
 62
7
  6
CONTINUOUS
 10
5.2631502322
 20
11.0920865854
 11
5.2432163414
 21
11.0848312425
  0
LINE
  5
30F
100
AcDbEntity
  8
0
100
AcDbLine
 62
6
  6
CONTINUOUS
 10
3.6021122789
 20
10.4875182124
 11
3.5821783881
 21
10.4802628695
  0
LINE
  5
310
100
AcDbEntity
  8
0
100
AcDbLine
 62
7
  6
CONTINUOUS
 10
5.2444956143
 20
11.0526445926
 11
5.224320659
 21
11.0460893522
  0
LINE
  5
311
100
AcDbEntity
  8
0
100
AcDbLine
 62
6
  6
CONTINUOUS
 10
3.5633703885
 20
10.5064138949
 11
3.5431954332
 21
10.4998586545
  0
LINE
  5
312
100
AcDbEntity
  8
0
100
AcDbLine
 62
6
  6
CONTINUOUS
 10
29.4334401075
 20
10.9385570428
 11
29.4126904634
 21
10.9341465698
  0
LINE
  5
313
100
AcDbEntity
  8
0
100
AcDbLine
 62
6
  6
CONTINUOUS
 10
27.7044276061
 20
10.5710440904
 11
27.6836779621
 21
10.5666336174
  0
LINE
  5
314
100
AcDbEntity
  8
0
100
AcDbLine
 62
7
  6
CONTINUOUS
 10
29.4094777707
 20
10.9020951177
 11
29.3885868434
 21
10.8984114836
  0
LINE
  5
315
100
AcDbEntity
  8
0
100
AcDbLine
 62
6
  6
CONTINUOUS
 10
27.6686925199
 20
10.5951477104
 11
27.6478015927
 21
10.5914640763
  0
LINE
  5
316
100
AcDbEntity
  8
0
100
AcDbLine
 62
6
  6
CONTINUOUS
 10
4.8532139975
 20
10.5914640763
 11
4.8323230702
 21
10.5951477104
  0
LINE
  5
317
100
AcDbEntity
  8
0
100
AcDbLine
 62
7
  6
CONTINUOUS
 10
3.1124287467
 20
10.8984114836
 11
3.0915378195
 21
10.9020951177
  0
LINE
  5
318
100
AcDbEntity
  8
0
100
AcDbLine
 62
6
  6
CONTINUOUS
 10
4.8173376281
 20
10.5666336174
 11
4.7965879841
 21
10.5710440904
  0
LINE
  5
319
100
AcDbEntity
  8
0
100
AcDbLine
 62
6
  6
CONTINUOUS
 10
3.0883251267
 20
10.9341465698
 11
3.0675754827
 21
10.9385570428
  0
LINE
  5
31A
100
AcDbEntity
  8
0
100
AcDbLine
 62
6
  6
CONTINUOUS
 10
3.5431954332
 20
12.713594863
 11
3.5633703885
 21
12.7070396226
  0
LINE
  5
31B
100
AcDbEntity
  8
0
100
AcDbLine
 62
7
  6
CONTINUOUS
 10
5.224320659
 20
12.1673641653
 11
5.2444956143
 21
12.1608089249
  0
LINE
  5
31C
100
AcDbEntity
  8
0
100
AcDbLine
 62
6
  6
CONTINUOUS
 10
3.5821783881
 20
12.733190648
 11
3.6021122789
 21
12.7259353051
  0
LINE
  5
31D
100
AcDbEntity
  8
0
100
AcDbLine
 62
7
  6
CONTINUOUS
 10
5.2432163414
 20
12.128622275
 11
5.2631502322
 21
12.1213669321
  0
LINE
  5
31E
100
AcDbEntity
  8
0
100
AcDbLine
 62
6
  6
CONTINUOUS
 10
5.2244758547
 20
11.0138776635
 11
5.2040844148
 21
11.0080305122
  0
LINE
  5
31F
100
AcDbEntity
  8
0
100
AcDbLine
 62
7
  6
CONTINUOUS
 10
3.5253115485
 20
10.526650139
 11
3.5049201086
 21
10.5208029877
  0
LINE
  5
320
100
AcDbEntity
  8
0
100
AcDbLine
 62
6
  6
CONTINUOUS
 10
27.2979002459
 20
12.2376204878
 11
27.3184833266
 21
12.2427524262
  0
LINE
  5
321
100
AcDbEntity
  8
0
100
AcDbLine
 62
6
  6
CONTINUOUS
 10
29.0130334625
 20
12.6652512273
 11
29.0336165431
 21
12.6703831657
  0
LINE
  5
322
100
AcDbEntity
  8
0
100
AcDbLine
 62
6
  6
CONTINUOUS
 10
29.3842575282
 20
10.8664916778
 11
29.3632507702
 21
10.8635393705
  0
LINE
  5
323
100
AcDbEntity
  8
0
100
AcDbLine
 62
6
  6
CONTINUOUS
 10
27.6338204068
 20
10.6204837836
 11
27.6128136488
 21
10.6175314763
  0
LINE
  5
324
100
AcDbEntity
  8
0
100
AcDbLine
 62
7
  6
CONTINUOUS
 10
29.3578101071
 20
10.8317901002
 11
29.3367131118
 21
10.8295727167
  0
LINE
  5
325
100
AcDbEntity
  8
0
100
AcDbLine
 62
7
  6
CONTINUOUS
 10
27.599853753
 20
10.647021442
 11
27.5787567577
 21
10.6448040585
  0
LINE
  5
326
100
AcDbEntity
  8
0
100
AcDbLine
 62
6
  6
CONTINUOUS
 10
29.3301677295
 20
10.7980326637
 11
29.3090062004
 21
10.7965529054
  0
LINE
  5
327
100
AcDbEntity
  8
0
100
AcDbLine
 62
7
  6
CONTINUOUS
 10
27.5668339417
 20
10.6747283535
 11
27.5456724126
 21
10.6732485952
  0
LINE
  5
328
100
AcDbEntity
  8
0
100
AcDbLine
 62
7
  6
CONTINUOUS
 10
4.9553431776
 20
10.6732485952
 11
4.9341816485
 21
10.6747283535
  0
LINE
  5
329
100
AcDbEntity
  8
0
100
AcDbLine
 62
6
  6
CONTINUOUS
 10
3.1920093898
 20
10.7965529054
 11
3.1708478607
 21
10.7980326637
  0
LINE
  5
32A
100
AcDbEntity
  8
0
100
AcDbLine
 62
7
  6
CONTINUOUS
 10
4.9222588324
 20
10.6448040585
 11
4.9011618372
 21
10.647021442
  0
LINE
  5
32B
100
AcDbEntity
  8
0
100
AcDbLine
 62
7
  6
CONTINUOUS
 10
3.1643024783
 20
10.8295727167
 11
3.1432054831
 21
10.8317901002
  0
LINE
  5
32C
100
AcDbEntity
  8
0
100
AcDbLine
 62
6
  6
CONTINUOUS
 10
4.8882019414
 20
10.6175314763
 11
4.8671951834
 21
10.6204837836
  0
LINE
  5
32D
100
AcDbEntity
  8
0
100
AcDbLine
 62
6
  6
CONTINUOUS
 10
3.13776482
 20
10.8635393705
 11
3.116758062
 21
10.8664916778
  0
LINE
  5
32E
100
AcDbEntity
  8
0
100
AcDbLine
 62
6
  6
CONTINUOUS
 10
3.467399047
 20
12.6703831657
 11
3.4879821277
 21
12.6652512273
  0
LINE
  5
32F
100
AcDbEntity
  8
0
100
AcDbLine
 62
6
  6
CONTINUOUS
 10
5.1825322636
 20
12.2427524262
 11
5.2031153443
 21
12.2376204878
  0
LINE
  5
330
100
AcDbEntity
  8
0
100
AcDbLine
 62
7
  6
CONTINUOUS
 10
3.5049201086
 20
12.6926505298
 11
3.5253115485
 21
12.6868033785
  0
LINE
  5
331
100
AcDbEntity
  8
0
100
AcDbLine
 62
6
  6
CONTINUOUS
 10
5.2040844148
 20
12.2054230053
 11
5.2244758547
 21
12.199575854
  0
LINE
  5
332
100
AcDbEntity
  8
0
100
AcDbLine
 62
7
  6
CONTINUOUS
 10
27.3205754827
 20
12.2748964747
 11
27.3413251267
 21
12.2793069477
  0
LINE
  5
333
100
AcDbEntity
  8
0
100
AcDbLine
 62
6
  6
CONTINUOUS
 10
29.0495879841
 20
12.6424094271
 11
29.0703376281
 21
12.6468199001
  0
LINE
  5
334
100
AcDbEntity
  8
0
100
AcDbLine
 62
6
  6
CONTINUOUS
 10
27.3445378195
 20
12.3113583998
 11
27.3654287467
 21
12.3150420339
  0
LINE
  5
335
100
AcDbEntity
  8
0
100
AcDbLine
 62
7
  6
CONTINUOUS
 10
29.0853230702
 20
12.6183058071
 11
29.1062139975
 21
12.6219894412
  0
LINE
  5
336
100
AcDbEntity
  8
0
100
AcDbLine
 62
7
  6
CONTINUOUS
 10
27.369758062
 20
12.3469618397
 11
27.39076482
 21
12.349914147
  0
LINE
  5
337
100
AcDbEntity
  8
0
100
AcDbLine
 62
6
  6
CONTINUOUS
 10
29.1201951834
 20
12.5929697339
 11
29.1412019414
 21
12.5959220412
  0
LINE
  5
338
100
AcDbEntity
  8
0
100
AcDbLine
 62
7
  6
CONTINUOUS
 10
29.3013640733
 20
10.7652604963
 11
29.2801637924
 21
10.7645201661
  0
LINE
  5
339
100
AcDbEntity
  8
0
100
AcDbLine
 62
7
  6
CONTINUOUS
 10
27.5348012025
 20
10.7035707615
 11
27.5136009215
 21
10.7028304313
  0
LINE
  5
33A
100
AcDbEntity
  8
0
100
AcDbLine
 62
6
  6
CONTINUOUS
 10
29.2714342314
 20
10.7335135259
 11
29.250221028
 21
10.7335135259
  0
LINE
  5
33B
100
AcDbEntity
  8
0
100
AcDbLine
 62
7
  6
CONTINUOUS
 10
27.5037945622
 20
10.7335135259
 11
27.4825813588
 21
10.7335135259
  0
LINE
  5
33C
100
AcDbEntity
  8
0
100
AcDbLine
 62
7
  6
CONTINUOUS
 10
5.0184342314
 20
10.7335135259
 11
4.997221028
 21
10.7335135259
  0
LINE
  5
33D
100
AcDbEntity
  8
0
100
AcDbLine
 62
6
  6
CONTINUOUS
 10
3.2507945622
 20
10.7335135259
 11
3.2295813588
 21
10.7335135259
  0
LINE
  5
33E
100
AcDbEntity
  8
0
100
AcDbLine
 62
7
  6
CONTINUOUS
 10
4.9874146686
 20
10.7028304313
 11
4.9662143877
 21
10.7035707615
  0
LINE
  5
33F
100
AcDbEntity
  8
0
100
AcDbLine
 62
7
  6
CONTINUOUS
 10
3.2208517978
 20
10.7645201661
 11
3.1996515169
 21
10.7652604963
  0
LINE
  5
340
100
AcDbEntity
  8
0
100
AcDbLine
 62
6
  6
CONTINUOUS
 10
3.3598136488
 20
12.5959220412
 11
3.3808204068
 21
12.5929697339
  0
LINE
  5
341
100
AcDbEntity
  8
0
100
AcDbLine
 62
7
  6
CONTINUOUS
 10
5.1102507702
 20
12.349914147
 11
5.1312575282
 21
12.3469618397
  0
LINE
  5
342
100
AcDbEntity
  8
0
100
AcDbLine
 62
7
  6
CONTINUOUS
 10
3.3948015927
 20
12.6219894412
 11
3.4156925199
 21
12.6183058071
  0
LINE
  5
343
100
AcDbEntity
  8
0
100
AcDbLine
 62
6
  6
CONTINUOUS
 10
5.1355868434
 20
12.3150420339
 11
5.1564777707
 21
12.3113583998
  0
LINE
  5
344
100
AcDbEntity
  8
0
100
AcDbLine
 62
6
  6
CONTINUOUS
 10
3.4306779621
 20
12.6468199001
 11
3.4514276061
 21
12.6424094271
  0
LINE
  5
345
100
AcDbEntity
  8
0
100
AcDbLine
 62
7
  6
CONTINUOUS
 10
5.1596904634
 20
12.2793069477
 11
5.1804401075
 21
12.2748964747
  0
LINE
  5
346
100
AcDbEntity
  8
0
100
AcDbLine
 62
7
  6
CONTINUOUS
 10
27.3962054831
 20
12.3816634173
 11
27.4173024783
 21
12.3838808008
  0
LINE
  5
347
100
AcDbEntity
  8
0
100
AcDbLine
 62
7
  6
CONTINUOUS
 10
29.1541618372
 20
12.5664320755
 11
29.1752588324
 21
12.5686494591
  0
LINE
  5
348
100
AcDbEntity
  8
0
100
AcDbLine
 62
7
  6
CONTINUOUS
 10
5.0771677295
 20
10.7980326637
 11
5.0560062004
 21
10.7965529054
  0
LINE
  5
349
100
AcDbEntity
  8
0
100
AcDbLine
 62
6
  6
CONTINUOUS
 10
3.3138339417
 20
10.6747283535
 11
3.2926724126
 21
10.6732485952
  0
LINE
  5
34A
100
AcDbEntity
  8
0
100
AcDbLine
 62
7
  6
CONTINUOUS
 10
27.4238478607
 20
12.4154208538
 11
27.4450093898
 21
12.4169006121
  0
LINE
  5
34B
100
AcDbEntity
  8
0
100
AcDbLine
 62
6
  6
CONTINUOUS
 10
29.1871816485
 20
12.538725164
 11
29.2083431776
 21
12.5402049223
  0
LINE
  5
34C
100
AcDbEntity
  8
0
100
AcDbLine
 62
7
  6
CONTINUOUS
 10
5.0483640733
 20
10.7652604963
 11
5.0271637924
 21
10.7645201661
  0
LINE
  5
34D
100
AcDbEntity
  8
0
100
AcDbLine
 62
7
  6
CONTINUOUS
 10
3.2818012025
 20
10.7035707615
 11
3.2606009215
 21
10.7028304313
  0
LINE
  5
34E
100
AcDbEntity
  8
0
100
AcDbLine
 62
6
  6
CONTINUOUS
 10
4.513059315
 20
11.2942267588
 11
27.9867230905
 21
11.2942267588
  0
LINE
  5
34F
100
AcDbEntity
  8
0
100
AcDbLine
 62
7
  6
CONTINUOUS
 10
29.2404146686
 20
10.7028304313
 11
29.2192143877
 21
10.7035707615
  0
LINE
  5
350
100
AcDbEntity
  8
0
100
AcDbLine
 62
7
  6
CONTINUOUS
 10
27.4738517978
 20
10.7645201661
 11
27.4526515169
 21
10.7652604963
  0
LINE
  5
351
100
AcDbEntity
  8
0
100
AcDbLine
 62
6
  6
CONTINUOUS
 10
29.2083431776
 20
10.6732485952
 11
29.1871816485
 21
10.6747283535
  0
LINE
  5
352
100
AcDbEntity
  8
0
100
AcDbLine
 62
7
  6
CONTINUOUS
 10
27.4450093898
 20
10.7965529054
 11
27.4238478607
 21
10.7980326637
  0
LINE
  5
353
100
AcDbEntity
  8
0
100
AcDbLine
 62
6
  6
CONTINUOUS
 10
3.2926724126
 20
12.5402049223
 11
3.3138339417
 21
12.538725164
  0
LINE
  5
354
100
AcDbEntity
  8
0
100
AcDbLine
 62
7
  6
CONTINUOUS
 10
5.0560062004
 20
12.4169006121
 11
5.0771677295
 21
12.4154208538
  0
LINE
  5
355
100
AcDbEntity
  8
0
100
AcDbLine
 62
7
  6
CONTINUOUS
 10
3.3257567577
 20
12.5686494591
 11
3.346853753
 21
12.5664320755
  0
LINE
  5
356
100
AcDbEntity
  8
0
100
AcDbLine
 62
7
  6
CONTINUOUS
 10
5.0837131118
 20
12.3838808008
 11
5.1048101071
 21
12.3816634173
  0
LINE
  5
357
100
AcDbEntity
  8
0
100
AcDbLine
 62
7
  6
CONTINUOUS
 10
5.1312575282
 20
10.8664916778
 11
5.1102507702
 21
10.8635393705
  0
LINE
  5
358
100
AcDbEntity
  8
0
100
AcDbLine
 62
6
  6
CONTINUOUS
 10
3.3808204068
 20
10.6204837836
 11
3.3598136488
 21
10.6175314763
  0
LINE
  5
359
100
AcDbEntity
  8
0
100
AcDbLine
 62
7
  6
CONTINUOUS
 10
5.1048101071
 20
10.8317901002
 11
5.0837131118
 21
10.8295727167
  0
LINE
  5
35A
100
AcDbEntity
  8
0
100
AcDbLine
 62
7
  6
CONTINUOUS
 10
3.346853753
 20
10.647021442
 11
3.3257567577
 21
10.6448040585
  0
LINE
  5
35B
100
AcDbEntity
  8
0
100
AcDbLine
 62
7
  6
CONTINUOUS
 10
27.4526515169
 20
12.4481930212
 11
27.4738517978
 21
12.4489333514
  0
LINE
  5
35C
100
AcDbEntity
  8
0
100
AcDbLine
 62
7
  6
CONTINUOUS
 10
29.2192143877
 20
12.509882756
 11
29.2404146686
 21
12.5106230862
  0
LINE
  5
35D
100
AcDbEntity
  8
0
100
AcDbLine
 62
6
  6
CONTINUOUS
 10
4.513059315
 20
11.9192267588
 11
27.9867251416
 21
11.9192267588
  0
LINE
  5
35E
100
AcDbEntity
  8
0
100
AcDbLine
 62
6
  6
CONTINUOUS
 10
3.2295813588
 20
12.4799399916
 11
3.2507945622
 21
12.4799399916
  0
LINE
  5
35F
100
AcDbEntity
  8
0
100
AcDbLine
 62
7
  6
CONTINUOUS
 10
4.997221028
 20
12.4799399916
 11
5.0184342314
 21
12.4799399916
  0
LINE
  5
360
100
AcDbEntity
  8
0
100
AcDbLine
 62
7
  6
CONTINUOUS
 10
27.4825813588
 20
12.4799399916
 11
27.5037945622
 21
12.4799399916
  0
LINE
  5
361
100
AcDbEntity
  8
0
100
AcDbLine
 62
6
  6
CONTINUOUS
 10
29.250221028
 20
12.4799399916
 11
29.2714342314
 21
12.4799399916
  0
LINE
  5
362
100
AcDbEntity
  8
0
100
AcDbLine
 62
7
  6
CONTINUOUS
 10
3.2606009215
 20
12.5106230862
 11
3.2818012025
 21
12.509882756
  0
LINE
  5
363
100
AcDbEntity
  8
0
100
AcDbLine
 62
7
  6
CONTINUOUS
 10
5.0271637924
 20
12.4489333514
 11
5.0483640733
 21
12.4481930212
  0
LINE
  5
364
100
AcDbEntity
  8
0
100
AcDbLine
 62
7
  6
CONTINUOUS
 10
29.1752588324
 20
10.6448040585
 11
29.1541618372
 21
10.647021442
  0
LINE
  5
365
100
AcDbEntity
  8
0
100
AcDbLine
 62
7
  6
CONTINUOUS
 10
27.4173024783
 20
10.8295727167
 11
27.3962054831
 21
10.8317901002
  0
LINE
  5
366
100
AcDbEntity
  8
0
100
AcDbLine
 62
6
  6
CONTINUOUS
 10
29.1412019414
 20
10.6175314763
 11
29.1201951834
 21
10.6204837836
  0
LINE
  5
367
100
AcDbEntity
  8
0
100
AcDbLine
 62
7
  6
CONTINUOUS
 10
27.39076482
 20
10.8635393705
 11
27.369758062
 21
10.8664916778
  0
LINE
  5
368
100
AcDbEntity
  8
0
100
AcDbLine
 62
7
  6
CONTINUOUS
 10
5.1804401075
 20
10.9385570428
 11
5.1596904634
 21
10.9341465698
  0
LINE
  5
369
100
AcDbEntity
  8
0
100
AcDbLine
 62
6
  6
CONTINUOUS
 10
3.4514276061
 20
10.5710440904
 11
3.4306779621
 21
10.5666336174
  0
LINE
  5
36A
100
AcDbEntity
  8
0
100
AcDbLine
 62
6
  6
CONTINUOUS
 10
5.1564777707
 20
10.9020951177
 11
5.1355868434
 21
10.8984114836
  0
LINE
  5
36B
100
AcDbEntity
  8
0
100
AcDbLine
 62
7
  6
CONTINUOUS
 10
3.4156925199
 20
10.5951477104
 11
3.3948015927
 21
10.5914640763
  0
LINE
  5
36C
100
AcDbEntity
  8
0
100
AcDbLine
 62
6
  6
CONTINUOUS
 10
3.1708478607
 20
12.4154208538
 11
3.1920093898
 21
12.4169006121
  0
LINE
  5
36D
100
AcDbEntity
  8
0
100
AcDbLine
 62
7
  6
CONTINUOUS
 10
4.9341816485
 20
12.538725164
 11
4.9553431776
 21
12.5402049223
  0
LINE
  5
36E
100
AcDbEntity
  8
0
100
AcDbLine
 62
7
  6
CONTINUOUS
 10
3.1996515169
 20
12.4481930212
 11
3.2208517978
 21
12.4489333514
  0
LINE
  5
36F
100
AcDbEntity
  8
0
100
AcDbLine
 62
7
  6
CONTINUOUS
 10
4.9662143877
 20
12.509882756
 11
4.9874146686
 21
12.5106230862
  0
LINE
  5
370
100
AcDbEntity
  8
0
100
AcDbLine
 62
7
  6
CONTINUOUS
 10
27.5136009215
 20
12.5106230862
 11
27.5348012025
 21
12.509882756
  0
LINE
  5
371
100
AcDbEntity
  8
0
100
AcDbLine
 62
7
  6
CONTINUOUS
 10
29.2801637924
 20
12.4489333514
 11
29.3013640733
 21
12.4481930212
  0
LINE
  5
372
100
AcDbEntity
  8
0
100
AcDbLine
 62
7
  6
CONTINUOUS
 10
27.5456724126
 20
12.5402049223
 11
27.5668339417
 21
12.538725164
  0
LINE
  5
373
100
AcDbEntity
  8
0
100
AcDbLine
 62
6
  6
CONTINUOUS
 10
29.3090062004
 20
12.4169006121
 11
29.3301677295
 21
12.4154208538
  0
LINE
  5
374
100
AcDbEntity
  8
0
100
AcDbLine
 62
7
  6
CONTINUOUS
 10
29.1062139975
 20
10.5914640763
 11
29.0853230702
 21
10.5951477104
  0
LINE
  5
375
100
AcDbEntity
  8
0
100
AcDbLine
 62
6
  6
CONTINUOUS
 10
27.3654287467
 20
10.8984114836
 11
27.3445378195
 21
10.9020951177
  0
LINE
  5
376
100
AcDbEntity
  8
0
100
AcDbLine
 62
6
  6
CONTINUOUS
 10
29.0703376281
 20
10.5666336174
 11
29.0495879841
 21
10.5710440904
  0
LINE
  5
377
100
AcDbEntity
  8
0
100
AcDbLine
 62
7
  6
CONTINUOUS
 10
27.3413251267
 20
10.9341465698
 11
27.3205754827
 21
10.9385570428
  0
LINE
  5
378
100
AcDbEntity
  8
0
100
AcDbLine
 62
6
  6
CONTINUOUS
 10
27.2765397355
 20
12.199575854
 11
27.2969311754
 21
12.2054230053
  0
LINE
  5
379
100
AcDbEntity
  8
0
100
AcDbLine
 62
7
  6
CONTINUOUS
 10
28.9757040417
 20
12.6868033785
 11
28.9960954816
 21
12.6926505298
  0
LINE
  5
37A
100
AcDbEntity
  8
0
100
AcDbLine
 62
6
  6
CONTINUOUS
 10
5.2031153443
 20
10.9758330297
 11
5.1825322636
 21
10.9707010913
  0
LINE
  5
37B
100
AcDbEntity
  8
0
100
AcDbLine
 62
6
  6
CONTINUOUS
 10
3.4879821277
 20
10.5482022902
 11
3.467399047
 21
10.5430703518
  0
LINE
  5
37C
100
AcDbEntity
  8
0
100
AcDbLine
 62
6
  6
CONTINUOUS
 10
3.116758062
 20
12.3469618397
 11
3.13776482
 21
12.349914147
  0
LINE
  5
37D
100
AcDbEntity
  8
0
100
AcDbLine
 62
6
  6
CONTINUOUS
 10
4.8671951834
 20
12.5929697339
 11
4.8882019414
 21
12.5959220412
  0
LINE
  5
37E
100
AcDbEntity
  8
0
100
AcDbLine
 62
7
  6
CONTINUOUS
 10
3.1432054831
 20
12.3816634173
 11
3.1643024783
 21
12.3838808008
  0
LINE
  5
37F
100
AcDbEntity
  8
0
100
AcDbLine
 62
7
  6
CONTINUOUS
 10
4.9011618372
 20
12.5664320755
 11
4.9222588324
 21
12.5686494591
  0
LINE
  5
380
100
AcDbEntity
  8
0
100
AcDbLine
 62
7
  6
CONTINUOUS
 10
27.5787567577
 20
12.5686494591
 11
27.599853753
 21
12.5664320755
  0
LINE
  5
381
100
AcDbEntity
  8
0
100
AcDbLine
 62
7
  6
CONTINUOUS
 10
29.3367131118
 20
12.3838808008
 11
29.3578101071
 21
12.3816634173
  0
LINE
  5
382
100
AcDbEntity
  8
0
100
AcDbLine
 62
6
  6
CONTINUOUS
 10
27.6128136488
 20
12.5959220412
 11
27.6338204068
 21
12.5929697339
  0
LINE
  5
383
100
AcDbEntity
  8
0
100
AcDbLine
 62
6
  6
CONTINUOUS
 10
29.3632507702
 20
12.349914147
 11
29.3842575282
 21
12.3469618397
  0
LINE
  5
384
100
AcDbEntity
  8
0
100
AcDbLine
 62
6
  6
CONTINUOUS
 10
29.0336165431
 20
10.5430703518
 11
29.0130334625
 21
10.5482022902
  0
LINE
  5
385
100
AcDbEntity
  8
0
100
AcDbLine
 62
6
  6
CONTINUOUS
 10
27.3184833266
 20
10.9707010913
 11
27.2979002459
 21
10.9758330297
  0
LINE
  5
386
100
AcDbEntity
  8
0
100
AcDbLine
 62
7
  6
CONTINUOUS
 10
28.9960954816
 20
10.5208029877
 11
28.9757040417
 21
10.526650139
  0
LINE
  5
387
100
AcDbEntity
  8
0
100
AcDbLine
 62
6
  6
CONTINUOUS
 10
27.2969311754
 20
11.0080305122
 11
27.2765397355
 21
11.0138776635
  0
LINE
  5
388
100
AcDbEntity
  8
0
100
AcDbLine
 62
6
  6
CONTINUOUS
 10
27.2205986098
 20
12.0812979295
 11
27.2402671495
 21
12.0892445354
  0
LINE
  5
389
100
AcDbEntity
  8
0
100
AcDbLine
 62
7
  6
CONTINUOUS
 10
28.8595255717
 20
12.7434674043
 11
28.8791941114
 21
12.7514140102
  0
LINE
  5
38A
100
AcDbEntity
  8
0
100
AcDbLine
 62
7
  6
CONTINUOUS
 10
27.237865358
 20
12.1213669321
 11
27.2577992487
 21
12.128622275
  0
LINE
  5
38B
100
AcDbEntity
  8
0
100
AcDbLine
 62
6
  6
CONTINUOUS
 10
28.8989033113
 20
12.7259353051
 11
28.9188372021
 21
12.733190648
  0
LINE
  5
38C
100
AcDbEntity
  8
0
100
AcDbLine
 62
7
  6
CONTINUOUS
 10
27.2565199758
 20
12.1608089249
 11
27.2766949312
 21
12.1673641653
  0
LINE
  5
38D
100
AcDbEntity
  8
0
100
AcDbLine
 62
6
  6
CONTINUOUS
 10
28.9376452017
 20
12.7070396226
 11
28.957820157
 21
12.713594863
  0
LINE
  5
38E
100
AcDbEntity
  8
0
100
AcDbLine
 62
6
  6
CONTINUOUS
 10
3.0675754827
 20
12.2748964747
 11
3.0883251267
 21
12.2793069477
  0
LINE
  5
38F
100
AcDbEntity
  8
0
100
AcDbLine
 62
6
  6
CONTINUOUS
 10
4.7965879841
 20
12.6424094271
 11
4.8173376281
 21
12.6468199001
  0
LINE
  5
390
100
AcDbEntity
  8
0
100
AcDbLine
 62
7
  6
CONTINUOUS
 10
3.0915378195
 20
12.3113583998
 11
3.1124287467
 21
12.3150420339
  0
LINE
  5
391
100
AcDbEntity
  8
0
100
AcDbLine
 62
6
  6
CONTINUOUS
 10
4.8323230702
 20
12.6183058071
 11
4.8532139975
 21
12.6219894412
  0
LINE
  5
392
100
AcDbEntity
  8
0
100
AcDbLine
 62
6
  6
CONTINUOUS
 10
27.6478015927
 20
12.6219894412
 11
27.6686925199
 21
12.6183058071
  0
LINE
  5
393
100
AcDbEntity
  8
0
100
AcDbLine
 62
7
  6
CONTINUOUS
 10
29.3885868434
 20
12.3150420339
 11
29.4094777707
 21
12.3113583998
  0
LINE
  5
394
100
AcDbEntity
  8
0
100
AcDbLine
 62
6
  6
CONTINUOUS
 10
27.6836779621
 20
12.6468199001
 11
27.7044276061
 21
12.6424094271
  0
LINE
  5
395
100
AcDbEntity
  8
0
100
AcDbLine
 62
6
  6
CONTINUOUS
 10
29.4126904634
 20
12.2793069477
 11
29.4334401075
 21
12.2748964747
  0
LINE
  5
396
100
AcDbEntity
  8
0
100
AcDbLine
 62
6
  6
CONTINUOUS
 10
28.957820157
 20
10.4998586545
 11
28.9376452017
 21
10.5064138949
  0
LINE
  5
397
100
AcDbEntity
  8
0
100
AcDbLine
 62
7
  6
CONTINUOUS
 10
27.2766949312
 20
11.0460893522
 11
27.2565199758
 21
11.0526445926
  0
LINE
  5
398
100
AcDbEntity
  8
0
100
AcDbLine
 62
6
  6
CONTINUOUS
 10
28.9188372021
 20
10.4802628695
 11
28.8989033113
 21
10.4875182124
  0
LINE
  5
399
100
AcDbEntity
  8
0
100
AcDbLine
 62
7
  6
CONTINUOUS
 10
27.2577992487
 20
11.0848312425
 11
27.237865358
 21
11.0920865854
  0
LINE
  5
39A
100
AcDbEntity
  8
0
100
AcDbLine
 62
7
  6
CONTINUOUS
 10
28.8791941114
 20
10.4620395073
 11
28.8595255717
 21
10.4699861132
  0
LINE
  5
39B
100
AcDbEntity
  8
0
100
AcDbLine
 62
6
  6
CONTINUOUS
 10
27.2402671495
 20
11.1242089821
 11
27.2205986098
 21
11.132155588
  0
LINE
  5
39C
100
AcDbEntity
  8
0
100
AcDbLine
 62
6
  6
CONTINUOUS
 10
27.190311153
 20
11.999474871
 11
27.209377454
 21
12.0087741273
  0
LINE
  5
39D
100
AcDbEntity
  8
0
100
AcDbLine
 62
6
  6
CONTINUOUS
 10
28.7790551637
 20
12.7743570999
 11
28.7981214646
 21
12.7836563562
  0
LINE
  5
39E
100
AcDbEntity
  8
0
100
AcDbLine
 62
6
  6
CONTINUOUS
 10
27.204740768
 20
12.040650735
 11
27.2241199936
 21
12.0492789222
  0
LINE
  5
39F
100
AcDbEntity
  8
0
100
AcDbLine
 62
6
  6
CONTINUOUS
 10
28.8195599585
 20
12.7596145602
 11
28.8389391841
 21
12.7682427474
  0
LINE
  5
3A0
100
AcDbEntity
  8
0
100
AcDbLine
 62
6
  6
CONTINUOUS
 10
29.4774758547
 20
11.0138776635
 11
29.4570844148
 21
11.0080305122
  0
LINE
  5
3A1
100
AcDbEntity
  8
0
100
AcDbLine
 62
7
  6
CONTINUOUS
 10
27.7783115485
 20
10.526650139
 11
27.7579201086
 21
10.5208029877
  0
LINE
  5
3A2
100
AcDbEntity
  8
0
100
AcDbLine
 62
6
  6
CONTINUOUS
 10
3.0449002459
 20
12.2376204878
 11
3.0654833266
 21
12.2427524262
  0
LINE
  5
3A3
100
AcDbEntity
  8
0
100
AcDbLine
 62
7
  6
CONTINUOUS
 10
4.7600334625
 20
12.6652512273
 11
4.7806165431
 21
12.6703831657
  0
LINE
  5
3A4
100
AcDbEntity
  8
0
100
AcDbLine
 62
7
  6
CONTINUOUS
 10
27.720399047
 20
12.6703831657
 11
27.7409821277
 21
12.6652512273
  0
LINE
  5
3A5
100
AcDbEntity
  8
0
100
AcDbLine
 62
6
  6
CONTINUOUS
 10
29.4355322636
 20
12.2427524262
 11
29.4561153443
 21
12.2376204878
  0
LINE
  5
3A6
100
AcDbEntity
  8
0
100
AcDbLine
 62
7
  6
CONTINUOUS
 10
27.7579201086
 20
12.6926505298
 11
27.7783115485
 21
12.6868033785
  0
LINE
  5
3A7
100
AcDbEntity
  8
0
100
AcDbLine
 62
6
  6
CONTINUOUS
 10
29.4570844148
 20
12.2054230053
 11
29.4774758547
 21
12.199575854
  0
LINE
  5
3A8
100
AcDbEntity
  8
0
100
AcDbLine
 62
6
  6
CONTINUOUS
 10
28.8389391841
 20
10.4452107701
 11
28.8195599585
 21
10.4538389573
  0
LINE
  5
3A9
100
AcDbEntity
  8
0
100
AcDbLine
 62
6
  6
CONTINUOUS
 10
27.2241199936
 20
11.1641745953
 11
27.204740768
 21
11.1728027825
  0
LINE
  5
3AA
100
AcDbEntity
  8
0
100
AcDbLine
 62
6
  6
CONTINUOUS
 10
28.7981214646
 20
10.4297971613
 11
28.7790551637
 21
10.4390964176
  0
LINE
  5
3AB
100
AcDbEntity
  8
0
100
AcDbLine
 62
6
  6
CONTINUOUS
 10
27.209377454
 20
11.2046793902
 11
27.190311153
 21
11.2139786465
  0
LINE
  5
3AC
100
AcDbEntity
  8
0
100
AcDbLine
 62
6
  6
CONTINUOUS
 10
27.1718472067
 20
11.9192267588
 11
27.1841763361
 21
11.9263449849
  0
LINE
  5
3AD
100
AcDbEntity
  8
0
100
AcDbLine
 62
6
  6
CONTINUOUS
 10
28.6966260212
 20
12.7995582178
 11
28.7149971943
 21
12.8101648195
  0
LINE
  5
3AE
100
AcDbEntity
  8
0
100
AcDbLine
 62
6
  6
CONTINUOUS
 10
27.1773273451
 20
11.9578205039
 11
27.196057492
 21
11.9677794997
  0
LINE
  5
3AF
100
AcDbEntity
  8
0
100
AcDbLine
 62
6
  6
CONTINUOUS
 10
28.738060536
 20
12.7876770618
 11
28.7567906829
 21
12.7976360576
  0
LINE
  5
3B0
100
AcDbEntity
  8
0
100
AcDbLine
 62
7
  6
CONTINUOUS
 10
29.5334169804
 20
11.132155588
 11
29.5137484407
 21
11.1242089821
  0
LINE
  5
3B1
100
AcDbEntity
  8
0
100
AcDbLine
 62
7
  6
CONTINUOUS
 10
27.8944900185
 20
10.4699861132
 11
27.8748214787
 21
10.4620395073
  0
LINE
  5
3B2
100
AcDbEntity
  8
0
100
AcDbLine
 62
7
  6
CONTINUOUS
 10
29.5161502322
 20
11.0920865854
 11
29.4962163414
 21
11.0848312425
  0
LINE
  5
3B3
100
AcDbEntity
  8
0
100
AcDbLine
 62
6
  6
CONTINUOUS
 10
27.8551122789
 20
10.4875182124
 11
27.8351783881
 21
10.4802628695
  0
LINE
  5
3B4
100
AcDbEntity
  8
0
100
AcDbLine
 62
7
  6
CONTINUOUS
 10
29.4974956143
 20
11.0526445926
 11
29.477320659
 21
11.0460893522
  0
LINE
  5
3B5
100
AcDbEntity
  8
0
100
AcDbLine
 62
6
  6
CONTINUOUS
 10
27.8163703885
 20
10.5064138949
 11
27.7961954332
 21
10.4998586545
  0
LINE
  5
3B6
100
AcDbEntity
  8
0
100
AcDbLine
 62
6
  6
CONTINUOUS
 10
27.7961954332
 20
12.713594863
 11
27.8163703885
 21
12.7070396226
  0
LINE
  5
3B7
100
AcDbEntity
  8
0
100
AcDbLine
 62
7
  6
CONTINUOUS
 10
29.477320659
 20
12.1673641653
 11
29.4974956143
 21
12.1608089249
  0
LINE
  5
3B8
100
AcDbEntity
  8
0
100
AcDbLine
 62
6
  6
CONTINUOUS
 10
27.8351783881
 20
12.733190648
 11
27.8551122789
 21
12.7259353051
  0
LINE
  5
3B9
100
AcDbEntity
  8
0
100
AcDbLine
 62
7
  6
CONTINUOUS
 10
29.4962163414
 20
12.128622275
 11
29.5161502322
 21
12.1213669321
  0
LINE
  5
3BA
100
AcDbEntity
  8
0
100
AcDbLine
 62
7
  6
CONTINUOUS
 10
27.8748214787
 20
12.7514140102
 11
27.8944900185
 21
12.7434674043
  0
LINE
  5
3BB
100
AcDbEntity
  8
0
100
AcDbLine
 62
7
  6
CONTINUOUS
 10
29.5137484407
 20
12.0892445354
 11
29.5334169804
 21
12.0812979295
  0
LINE
  5
3BC
100
AcDbEntity
  8
0
100
AcDbLine
 62
6
  6
CONTINUOUS
 10
28.7567906829
 20
10.4158174599
 11
28.738060536
 21
10.4257764557
  0
LINE
  5
3BD
100
AcDbEntity
  8
0
100
AcDbLine
 62
6
  6
CONTINUOUS
 10
27.196057492
 20
11.2456740178
 11
27.1773273451
 21
11.2556330136
  0
LINE
  5
3BE
100
AcDbEntity
  8
0
100
AcDbLine
 62
6
  6
CONTINUOUS
 10
28.7149971943
 20
10.403288698
 11
28.6966260212
 21
10.4138952997
  0
LINE
  5
3BF
100
AcDbEntity
  8
0
100
AcDbLine
 62
6
  6
CONTINUOUS
 10
27.1841763361
 20
11.2871085326
 11
27.1718472067
 21
11.2942267588
  0
LINE
  5
3C0
100
AcDbEntity
  8
0
100
AcDbLine
 62
6
  6
CONTINUOUS
 10
28.5701902798
 20
12.8264329642
 11
28.5873521219
 21
12.8389017724
  0
LINE
  5
3C1
100
AcDbEntity
  8
0
100
AcDbLine
 62
6
  6
CONTINUOUS
 10
28.612639731
 20
12.8189479807
 11
28.6302262736
 21
12.8308102535
  0
LINE
  5
3C2
100
AcDbEntity
  8
0
100
AcDbLine
 62
7
  6
CONTINUOUS
 10
28.6548021009
 20
12.8099860923
 11
28.6727919177
 21
12.8212273775
  0
LINE
  5
3C3
100
AcDbEntity
  8
0
100
AcDbLine
 62
6
  6
CONTINUOUS
 10
29.5637044372
 20
11.2139786465
 11
29.5446381362
 21
11.2046793902
  0
LINE
  5
3C4
100
AcDbEntity
  8
0
100
AcDbLine
 62
6
  6
CONTINUOUS
 10
27.9749604265
 20
10.4390964176
 11
27.9558941256
 21
10.4297971613
  0
LINE
  5
3C5
100
AcDbEntity
  8
0
100
AcDbLine
 62
6
  6
CONTINUOUS
 10
29.5492748222
 20
11.1728027825
 11
29.5298955966
 21
11.1641745953
  0
LINE
  5
3C6
100
AcDbEntity
  8
0
100
AcDbLine
 62
6
  6
CONTINUOUS
 10
27.9344556317
 20
10.4538389573
 11
27.915076406
 21
10.4452107701
  0
LINE
  5
3C7
100
AcDbEntity
  8
0
100
AcDbLine
 62
6
  6
CONTINUOUS
 10
27.915076406
 20
12.7682427474
 11
27.9344556317
 21
12.7596145602
  0
LINE
  5
3C8
100
AcDbEntity
  8
0
100
AcDbLine
 62
6
  6
CONTINUOUS
 10
29.5298955966
 20
12.0492789222
 11
29.5492748222
 21
12.040650735
  0
LINE
  5
3C9
100
AcDbEntity
  8
0
100
AcDbLine
 62
6
  6
CONTINUOUS
 10
27.9558941256
 20
12.7836563562
 11
27.9749604265
 21
12.7743570999
  0
LINE
  5
3CA
100
AcDbEntity
  8
0
100
AcDbLine
 62
6
  6
CONTINUOUS
 10
29.5446381362
 20
12.0087741273
 11
29.5637044372
 21
11.999474871
  0
LINE
  5
3CB
100
AcDbEntity
  8
0
100
AcDbLine
 62
7
  6
CONTINUOUS
 10
28.6727919177
 20
10.39222614
 11
28.6548021009
 21
10.4034674252
  0
LINE
  5
3CC
100
AcDbEntity
  8
0
100
AcDbLine
 62
6
  6
CONTINUOUS
 10
28.6302262736
 20
10.382643264
 11
28.612639731
 21
10.3945055368
  0
LINE
  5
3CD
100
AcDbEntity
  8
0
100
AcDbLine
 62
6
  6
CONTINUOUS
 10
28.5873521219
 20
10.3745517451
 11
28.5701902798
 21
10.3870205533
  0
LINE
  5
3CE
100
AcDbEntity
  8
0
100
AcDbLine
 62
7
  6
CONTINUOUS
 10
28.4416379906
 20
12.8399443543
 11
28.457402473
 21
12.854138758
  0
LINE
  5
3CF
100
AcDbEntity
  8
0
100
AcDbLine
 62
6
  6
CONTINUOUS
 10
28.4846372931
 20
12.8369375501
 11
28.5008875497
 21
12.8505731345
  0
LINE
  5
3D0
100
AcDbEntity
  8
0
100
AcDbLine
 62
6
  6
CONTINUOUS
 10
28.5275054656
 20
12.8324319237
 11
28.544221698
 21
12.8454920758
  0
LINE
  5
3D1
100
AcDbEntity
  8
0
100
AcDbLine
 62
7
  6
CONTINUOUS
 10
29.5882104272
 20
11.2977151343
 11
29.5698392541
 21
11.2871085326
  0
LINE
  5
3D2
100
AcDbEntity
  8
0
100
AcDbLine
 62
7
  6
CONTINUOUS
 10
28.0573895689
 20
10.4138952997
 11
28.0390183959
 21
10.403288698
  0
LINE
  5
3D3
100
AcDbEntity
  8
0
100
AcDbLine
 62
6
  6
CONTINUOUS
 10
29.5766882451
 20
11.2556330136
 11
29.5579580982
 21
11.2456740178
  0
LINE
  5
3D4
100
AcDbEntity
  8
0
100
AcDbLine
 62
6
  6
CONTINUOUS
 10
28.0159550542
 20
10.4257764557
 11
27.9972249072
 21
10.4158174599
  0
LINE
  5
3D5
100
AcDbEntity
  8
0
100
AcDbLine
 62
6
  6
CONTINUOUS
 10
27.9972249072
 20
12.7976360576
 11
28.0159550542
 21
12.7876770618
  0
LINE
  5
3D6
100
AcDbEntity
  8
0
100
AcDbLine
 62
6
  6
CONTINUOUS
 10
29.5579580982
 20
11.9677794997
 11
29.5766882451
 21
11.9578205039
  0
LINE
  5
3D7
100
AcDbEntity
  8
0
100
AcDbLine
 62
7
  6
CONTINUOUS
 10
28.0390183959
 20
12.8101648195
 11
28.0573895689
 21
12.7995582178
  0
LINE
  5
3D8
100
AcDbEntity
  8
0
100
AcDbLine
 62
7
  6
CONTINUOUS
 10
29.5698392541
 20
11.9263449849
 11
29.5882104272
 21
11.9157383832
  0
LINE
  5
3D9
100
AcDbEntity
  8
0
100
AcDbLine
 62
6
  6
CONTINUOUS
 10
28.544221698
 20
10.3679614417
 11
28.5275054656
 21
10.3810215938
  0
LINE
  5
3DA
100
AcDbEntity
  8
0
100
AcDbLine
 62
6
  6
CONTINUOUS
 10
28.5008875497
 20
10.362880383
 11
28.4846372931
 21
10.3765159674
  0
LINE
  5
3DB
100
AcDbEntity
  8
0
100
AcDbLine
 62
7
  6
CONTINUOUS
 10
28.457402473
 20
10.3593147595
 11
28.4416379906
 21
10.3735091632
  0
LINE
  5
3DC
100
AcDbEntity
  8
0
100
AcDbLine
 62
6
  6
CONTINUOUS
 10
28.3123775995
 20
12.8399443543
 11
28.3265720032
 21
12.8557088366
  0
LINE
  5
3DD
100
AcDbEntity
  8
0
100
AcDbLine
 62
6
  6
CONTINUOUS
 10
28.3554556439
 20
12.8414486727
 11
28.3701915732
 21
12.8567081743
  0
LINE
  5
3DE
100
AcDbEntity
  8
0
100
AcDbLine
 62
6
  6
CONTINUOUS
 10
28.3985599463
 20
12.8414486727
 11
28.4138194478
 21
12.8561846021
  0
LINE
  5
3DF
100
AcDbEntity
  8
0
100
AcDbLine
 62
7
  6
CONTINUOUS
 10
29.6138758427
 20
11.4260130822
 11
29.5967140006
 21
11.413544274
  0
LINE
  5
3E0
100
AcDbEntity
  8
0
100
AcDbLine
 62
6
  6
CONTINUOUS
 10
28.1838253104
 20
10.3870205533
 11
28.1666634683
 21
10.3745517451
  0
LINE
  5
3E1
100
AcDbEntity
  8
0
100
AcDbLine
 62
7
  6
CONTINUOUS
 10
29.6068155597
 20
11.3829570957
 11
29.589229017
 21
11.3710948229
  0
LINE
  5
3E2
100
AcDbEntity
  8
0
100
AcDbLine
 62
6
  6
CONTINUOUS
 10
28.1413758592
 20
10.3945055368
 11
28.1237893165
 21
10.382643264
  0
LINE
  5
3E3
100
AcDbEntity
  8
0
100
AcDbLine
 62
6
  6
CONTINUOUS
 10
29.5982569454
 20
11.3401737381
 11
29.5802671286
 21
11.328932453
  0
LINE
  5
3E4
100
AcDbEntity
  8
0
100
AcDbLine
 62
7
  6
CONTINUOUS
 10
28.0992134893
 20
10.4034674252
 11
28.0812236725
 21
10.39222614
  0
LINE
  5
3E5
100
AcDbEntity
  8
0
100
AcDbLine
 62
7
  6
CONTINUOUS
 10
28.0812236725
 20
12.8212273775
 11
28.0992134893
 21
12.8099860923
  0
LINE
  5
3E6
100
AcDbEntity
  8
0
100
AcDbLine
 62
6
  6
CONTINUOUS
 10
29.5802671286
 20
11.8845210645
 11
29.5982569454
 21
11.8732797794
  0
LINE
  5
3E7
100
AcDbEntity
  8
0
100
AcDbLine
 62
6
  6
CONTINUOUS
 10
28.1237893165
 20
12.8308102535
 11
28.1413758592
 21
12.8189479807
  0
LINE
  5
3E8
100
AcDbEntity
  8
0
100
AcDbLine
 62
7
  6
CONTINUOUS
 10
29.589229017
 20
11.8423586946
 11
29.6068155597
 21
11.8304964218
  0
LINE
  5
3E9
100
AcDbEntity
  8
0
100
AcDbLine
 62
6
  6
CONTINUOUS
 10
28.1666634683
 20
12.8389017724
 11
28.1838253104
 21
12.8264329642
  0
LINE
  5
3EA
100
AcDbEntity
  8
0
100
AcDbLine
 62
7
  6
CONTINUOUS
 10
29.5967140006
 20
11.7999092435
 11
29.6138758427
 21
11.7874404353
  0
LINE
  5
3EB
100
AcDbEntity
  8
0
100
AcDbLine
 62
6
  6
CONTINUOUS
 10
28.4138194478
 20
10.3572689154
 11
28.3985599463
 21
10.3720048448
  0
LINE
  5
3EC
100
AcDbEntity
  8
0
100
AcDbLine
 62
6
  6
CONTINUOUS
 10
28.3701915732
 20
10.3567453432
 11
28.3554556439
 21
10.3720048448
  0
LINE
  5
3ED
100
AcDbEntity
  8
0
100
AcDbLine
 62
6
  6
CONTINUOUS
 10
28.3265720032
 20
10.3577446809
 11
28.3123775995
 21
10.3735091632
  0
LINE
  5
3EE
100
AcDbEntity
  8
0
100
AcDbLine
 62
7
  6
CONTINUOUS
 10
28.1838253104
 20
12.8264329642
 11
28.1962941185
 21
12.8435948063
  0
LINE
  5
3EF
100
AcDbEntity
  8
0
100
AcDbLine
 62
6
  6
CONTINUOUS
 10
28.2265101246
 20
12.8324319237
 11
28.2395702767
 21
12.8491481561
  0
LINE
  5
3F0
100
AcDbEntity
  8
0
100
AcDbLine
 62
6
  6
CONTINUOUS
 10
28.2693782971
 20
12.8369375501
 11
28.2830138814
 21
12.8531878068
  0
LINE
  5
3F1
100
AcDbEntity
  8
0
100
AcDbLine
 62
6
  6
CONTINUOUS
 10
29.625989873
 20
11.5562909669
 11
29.6102253906
 21
11.5420965632
  0
LINE
  5
3F2
100
AcDbEntity
  8
0
100
AcDbLine
 62
6
  6
CONTINUOUS
 10
28.3123775995
 20
10.3735091632
 11
28.2966131172
 21
10.3593147595
  0
LINE
  5
3F3
100
AcDbEntity
  8
0
100
AcDbLine
 62
6
  6
CONTINUOUS
 10
29.6234688431
 20
11.5127328451
 11
29.6072185865
 21
11.4990972608
  0
LINE
  5
3F4
100
AcDbEntity
  8
0
100
AcDbLine
 62
6
  6
CONTINUOUS
 10
28.2693782971
 20
10.3765159674
 11
28.2531280405
 21
10.362880383
  0
LINE
  5
3F5
100
AcDbEntity
  8
0
100
AcDbLine
 62
6
  6
CONTINUOUS
 10
29.6194291924
 20
11.4692892404
 11
29.60271296
 21
11.4562290883
  0
LINE
  5
3F6
100
AcDbEntity
  8
0
100
AcDbLine
 62
6
  6
CONTINUOUS
 10
28.2265101246
 20
10.3810215938
 11
28.2097938922
 21
10.3679614417
  0
LINE
  5
3F7
100
AcDbEntity
  8
0
100
AcDbLine
 62
6
  6
CONTINUOUS
 10
28.2097938922
 20
12.8454920758
 11
28.2265101246
 21
12.8324319237
  0
LINE
  5
3F8
100
AcDbEntity
  8
0
100
AcDbLine
 62
6
  6
CONTINUOUS
 10
29.60271296
 20
11.7572244292
 11
29.6194291924
 21
11.7441642771
  0
LINE
  5
3F9
100
AcDbEntity
  8
0
100
AcDbLine
 62
6
  6
CONTINUOUS
 10
28.2531280405
 20
12.8505731345
 11
28.2693782971
 21
12.8369375501
  0
LINE
  5
3FA
100
AcDbEntity
  8
0
100
AcDbLine
 62
6
  6
CONTINUOUS
 10
29.6072185865
 20
11.7143562567
 11
29.6234688431
 21
11.7007206724
  0
LINE
  5
3FB
100
AcDbEntity
  8
0
100
AcDbLine
 62
6
  6
CONTINUOUS
 10
28.2966131172
 20
12.854138758
 11
28.3123775995
 21
12.8399443543
  0
LINE
  5
3FC
100
AcDbEntity
  8
0
100
AcDbLine
 62
6
  6
CONTINUOUS
 10
29.6102253906
 20
11.6713569543
 11
29.625989873
 21
11.6571625506
  0
LINE
  5
3FD
100
AcDbEntity
  8
0
100
AcDbLine
 62
6
  6
CONTINUOUS
 10
28.2830138814
 20
10.3602657107
 11
28.2693782971
 21
10.3765159674
  0
LINE
  5
3FE
100
AcDbEntity
  8
0
100
AcDbLine
 62
6
  6
CONTINUOUS
 10
28.2395702767
 20
10.3643053614
 11
28.2265101246
 21
10.3810215938
  0
LINE
  5
3FF
100
AcDbEntity
  8
0
100
AcDbLine
 62
7
  6
CONTINUOUS
 10
28.1962941185
 20
10.3698587112
 11
28.1838253104
 21
10.3870205533
  0
LINE
  5
400
100
AcDbEntity
  8
0
100
AcDbLine
 62
7
  6
CONTINUOUS
 10
27.1860984962
 20
11.2269438709
 11
27.196057492
 21
11.2456740178
  0
LINE
  5
401
100
AcDbEntity
  8
0
100
AcDbLine
 62
6
  6
CONTINUOUS
 10
28.0159550542
 20
12.7876770618
 11
28.0259140499
 21
12.8064072087
  0
LINE
  5
402
100
AcDbEntity
  8
0
100
AcDbLine
 62
6
  6
CONTINUOUS
 10
27.1735697344
 20
11.2687373595
 11
27.1841763361
 21
11.2871085326
  0
LINE
  5
403
100
AcDbEntity
  8
0
100
AcDbLine
 62
6
  6
CONTINUOUS
 10
28.0573895689
 20
12.7995582178
 11
28.0679961707
 21
12.8179293908
  0
LINE
  5
404
100
AcDbEntity
  8
0
100
AcDbLine
 62
7
  6
CONTINUOUS
 10
28.0992134893
 20
12.8099860923
 11
28.1104547745
 21
12.8279759091
  0
LINE
  5
405
100
AcDbEntity
  8
0
100
AcDbLine
 62
6
  6
CONTINUOUS
 10
28.1413758592
 20
12.8189479807
 11
28.153238132
 21
12.8365345234
  0
LINE
  5
406
100
AcDbEntity
  8
0
100
AcDbLine
 62
6
  6
CONTINUOUS
 10
29.6244197943
 20
11.6871214367
 11
29.6102253906
 21
11.6713569543
  0
LINE
  5
407
100
AcDbEntity
  8
0
100
AcDbLine
 62
6
  6
CONTINUOUS
 10
28.4416379906
 20
10.3735091632
 11
28.427443587
 21
10.3577446809
  0
LINE
  5
408
100
AcDbEntity
  8
0
100
AcDbLine
 62
7
  6
CONTINUOUS
 10
29.6264656384
 20
11.6435384115
 11
29.6117297091
 21
11.6282789099
  0
LINE
  5
409
100
AcDbEntity
  8
0
100
AcDbLine
 62
7
  6
CONTINUOUS
 10
28.3985599463
 20
10.3720048448
 11
28.3838240169
 21
10.3567453432
  0
LINE
  5
40A
100
AcDbEntity
  8
0
100
AcDbLine
 62
6
  6
CONTINUOUS
 10
29.6269892106
 20
11.5999105369
 11
29.6117297091
 21
11.5851746076
  0
LINE
  5
40B
100
AcDbEntity
  8
0
100
AcDbLine
 62
7
  6
CONTINUOUS
 10
28.3554556439
 20
10.3720048448
 11
28.3401961424
 21
10.3572689154
  0
LINE
  5
40C
100
AcDbEntity
  8
0
100
AcDbLine
 62
7
  6
CONTINUOUS
 10
28.3401961424
 20
12.8561846021
 11
28.3554556439
 21
12.8414486727
  0
LINE
  5
40D
100
AcDbEntity
  8
0
100
AcDbLine
 62
6
  6
CONTINUOUS
 10
29.6117297091
 20
11.6282789099
 11
29.6269892106
 21
11.6135429806
  0
LINE
  5
40E
100
AcDbEntity
  8
0
100
AcDbLine
 62
7
  6
CONTINUOUS
 10
28.3838240169
 20
12.8567081743
 11
28.3985599463
 21
12.8414486727
  0
LINE
  5
40F
100
AcDbEntity
  8
0
100
AcDbLine
 62
7
  6
CONTINUOUS
 10
29.6117297091
 20
11.5851746076
 11
29.6264656384
 21
11.5699151061
  0
LINE
  5
410
100
AcDbEntity
  8
0
100
AcDbLine
 62
6
  6
CONTINUOUS
 10
28.427443587
 20
12.8557088366
 11
28.4416379906
 21
12.8399443543
  0
LINE
  5
411
100
AcDbEntity
  8
0
100
AcDbLine
 62
6
  6
CONTINUOUS
 10
29.6102253906
 20
11.5420965632
 11
29.6244197943
 21
11.5263320808
  0
LINE
  5
412
100
AcDbEntity
  8
0
100
AcDbLine
 62
6
  6
CONTINUOUS
 10
28.153238132
 20
10.3769189941
 11
28.1413758592
 21
10.3945055368
  0
LINE
  5
413
100
AcDbEntity
  8
0
100
AcDbLine
 62
7
  6
CONTINUOUS
 10
28.1104547745
 20
10.3854776084
 11
28.0992134893
 21
10.4034674252
  0
LINE
  5
414
100
AcDbEntity
  8
0
100
AcDbLine
 62
6
  6
CONTINUOUS
 10
28.0679961707
 20
10.3955241267
 11
28.0573895689
 21
10.4138952997
  0
LINE
  5
415
100
AcDbEntity
  8
0
100
AcDbLine
 62
6
  6
CONTINUOUS
 10
27.1841763361
 20
11.9263449849
 11
27.1735697344
 21
11.944716158
  0
LINE
  5
416
100
AcDbEntity
  8
0
100
AcDbLine
 62
6
  6
CONTINUOUS
 10
28.0259140499
 20
10.4070463088
 11
28.0159550542
 21
10.4257764557
  0
LINE
  5
417
100
AcDbEntity
  8
0
100
AcDbLine
 62
7
  6
CONTINUOUS
 10
27.196057492
 20
11.9677794997
 11
27.1860984962
 21
11.9865096466
  0
LINE
  5
418
100
AcDbEntity
  8
0
100
AcDbLine
 62
6
  6
CONTINUOUS
 10
27.2910840241
 20
10.9876390723
 11
27.2969311754
 21
11.0080305122
  0
LINE
  5
419
100
AcDbEntity
  8
0
100
AcDbLine
 62
7
  6
CONTINUOUS
 10
27.7783115485
 20
12.6868033785
 11
27.7841586998
 21
12.7071948184
  0
LINE
  5
41A
100
AcDbEntity
  8
0
100
AcDbLine
 62
6
  6
CONTINUOUS
 10
27.2701396908
 20
11.0259143968
 11
27.2766949312
 21
11.0460893522
  0
LINE
  5
41B
100
AcDbEntity
  8
0
100
AcDbLine
 62
6
  6
CONTINUOUS
 10
27.8163703885
 20
12.7070396226
 11
27.8229256289
 21
12.727214578
  0
LINE
  5
41C
100
AcDbEntity
  8
0
100
AcDbLine
 62
7
  6
CONTINUOUS
 10
27.2505439059
 20
11.0648973518
 11
27.2577992487
 21
11.0848312425
  0
LINE
  5
41D
100
AcDbEntity
  8
0
100
AcDbLine
 62
7
  6
CONTINUOUS
 10
27.8551122789
 20
12.7259353051
 11
27.8623676217
 21
12.7458691958
  0
LINE
  5
41E
100
AcDbEntity
  8
0
100
AcDbLine
 62
6
  6
CONTINUOUS
 10
27.2323205436
 20
11.1045404424
 11
27.2402671495
 21
11.1242089821
  0
LINE
  5
41F
100
AcDbEntity
  8
0
100
AcDbLine
 62
7
  6
CONTINUOUS
 10
27.8944900185
 20
12.7434674043
 11
27.9024366243
 21
12.7631359441
  0
LINE
  5
420
100
AcDbEntity
  8
0
100
AcDbLine
 62
6
  6
CONTINUOUS
 10
27.2154918065
 20
11.1447953697
 11
27.2241199936
 21
11.1641745953
  0
LINE
  5
421
100
AcDbEntity
  8
0
100
AcDbLine
 62
6
  6
CONTINUOUS
 10
27.9344556317
 20
12.7596145602
 11
27.9430838188
 21
12.7789937859
  0
LINE
  5
422
100
AcDbEntity
  8
0
100
AcDbLine
 62
6
  6
CONTINUOUS
 10
27.2000781976
 20
11.1856130892
 11
27.209377454
 21
11.2046793902
  0
LINE
  5
423
100
AcDbEntity
  8
0
100
AcDbLine
 62
6
  6
CONTINUOUS
 10
27.9749604265
 20
12.7743570999
 11
27.9842596828
 21
12.7934234008
  0
LINE
  5
424
100
AcDbEntity
  8
0
100
AcDbLine
 62
6
  6
CONTINUOUS
 10
29.6091828087
 20
11.8170710856
 11
29.5967140006
 21
11.7999092435
  0
LINE
  5
425
100
AcDbEntity
  8
0
100
AcDbLine
 62
6
  6
CONTINUOUS
 10
28.5701902798
 20
10.3870205533
 11
28.5577214717
 21
10.3698587112
  0
LINE
  5
426
100
AcDbEntity
  8
0
100
AcDbLine
 62
6
  6
CONTINUOUS
 10
29.6157731121
 20
11.7739406616
 11
29.60271296
 21
11.7572244292
  0
LINE
  5
427
100
AcDbEntity
  8
0
100
AcDbLine
 62
6
  6
CONTINUOUS
 10
28.5275054656
 20
10.3810215938
 11
28.5144453134
 21
10.3643053614
  0
LINE
  5
428
100
AcDbEntity
  8
0
100
AcDbLine
 62
6
  6
CONTINUOUS
 10
29.6208541708
 20
11.7306065134
 11
29.6072185865
 21
11.7143562567
  0
LINE
  5
429
100
AcDbEntity
  8
0
100
AcDbLine
 62
6
  6
CONTINUOUS
 10
28.4846372931
 20
10.3765159674
 11
28.4710017088
 21
10.3602657107
  0
LINE
  5
42A
100
AcDbEntity
  8
0
100
AcDbLine
 62
6
  6
CONTINUOUS
 10
28.4710017088
 20
12.8531878068
 11
28.4846372931
 21
12.8369375501
  0
LINE
  5
42B
100
AcDbEntity
  8
0
100
AcDbLine
 62
6
  6
CONTINUOUS
 10
29.6072185865
 20
11.4990972608
 11
29.6208541708
 21
11.4828470041
  0
LINE
  5
42C
100
AcDbEntity
  8
0
100
AcDbLine
 62
6
  6
CONTINUOUS
 10
28.5144453134
 20
12.8491481561
 11
28.5275054656
 21
12.8324319237
  0
LINE
  5
42D
100
AcDbEntity
  8
0
100
AcDbLine
 62
6
  6
CONTINUOUS
 10
29.60271296
 20
11.4562290883
 11
29.6157731121
 21
11.4395128559
  0
LINE
  5
42E
100
AcDbEntity
  8
0
100
AcDbLine
 62
6
  6
CONTINUOUS
 10
28.5577214717
 20
12.8435948063
 11
28.5701902798
 21
12.8264329642
  0
LINE
  5
42F
100
AcDbEntity
  8
0
100
AcDbLine
 62
6
  6
CONTINUOUS
 10
29.5967140006
 20
11.413544274
 11
29.6091828087
 21
11.396382432
  0
LINE
  5
430
100
AcDbEntity
  8
0
100
AcDbLine
 62
6
  6
CONTINUOUS
 10
27.9842596828
 20
10.4200301167
 11
27.9749604265
 21
10.4390964176
  0
LINE
  5
431
100
AcDbEntity
  8
0
100
AcDbLine
 62
6
  6
CONTINUOUS
 10
27.209377454
 20
12.0087741273
 11
27.2000781976
 21
12.0278404283
  0
LINE
  5
432
100
AcDbEntity
  8
0
100
AcDbLine
 62
6
  6
CONTINUOUS
 10
27.9430838188
 20
10.4344597317
 11
27.9344556317
 21
10.4538389573
  0
LINE
  5
433
100
AcDbEntity
  8
0
100
AcDbLine
 62
6
  6
CONTINUOUS
 10
27.2241199936
 20
12.0492789222
 11
27.2154918065
 21
12.0686581478
  0
LINE
  5
434
100
AcDbEntity
  8
0
100
AcDbLine
 62
7
  6
CONTINUOUS
 10
27.9024366243
 20
10.4503175734
 11
27.8944900185
 21
10.4699861132
  0
LINE
  5
435
100
AcDbEntity
  8
0
100
AcDbLine
 62
6
  6
CONTINUOUS
 10
27.2402671495
 20
12.0892445354
 11
27.2323205436
 21
12.1089130751
  0
LINE
  5
436
100
AcDbEntity
  8
0
100
AcDbLine
 62
7
  6
CONTINUOUS
 10
27.8623676217
 20
10.4675843217
 11
27.8551122789
 21
10.4875182124
  0
LINE
  5
437
100
AcDbEntity
  8
0
100
AcDbLine
 62
7
  6
CONTINUOUS
 10
27.2577992487
 20
12.128622275
 11
27.2505439059
 21
12.1485561657
  0
LINE
  5
438
100
AcDbEntity
  8
0
100
AcDbLine
 62
6
  6
CONTINUOUS
 10
27.8229256289
 20
10.4862389395
 11
27.8163703885
 21
10.5064138949
  0
LINE
  5
439
100
AcDbEntity
  8
0
100
AcDbLine
 62
6
  6
CONTINUOUS
 10
27.2766949312
 20
12.1673641653
 11
27.2701396908
 21
12.1875391207
  0
LINE
  5
43A
100
AcDbEntity
  8
0
100
AcDbLine
 62
7
  6
CONTINUOUS
 10
27.7841586998
 20
10.5062586991
 11
27.7783115485
 21
10.526650139
  0
LINE
  5
43B
100
AcDbEntity
  8
0
100
AcDbLine
 62
6
  6
CONTINUOUS
 10
27.2969311754
 20
12.2054230053
 11
27.2910840241
 21
12.2258144452
  0
LINE
  5
43C
100
AcDbEntity
  8
0
100
AcDbLine
 62
7
  6
CONTINUOUS
 10
27.6020711366
 20
10.6259244467
 11
27.599853753
 21
10.647021442
  0
LINE
  5
43D
100
AcDbEntity
  8
0
100
AcDbLine
 62
6
  6
CONTINUOUS
 10
27.4173024783
 20
12.3838808008
 11
27.4150850948
 21
12.4049777961
  0
LINE
  5
43E
100
AcDbEntity
  8
0
100
AcDbLine
 62
7
  6
CONTINUOUS
 10
27.5683137
 20
10.6535668243
 11
27.5668339417
 21
10.6747283535
  0
LINE
  5
43F
100
AcDbEntity
  8
0
100
AcDbLine
 62
7
  6
CONTINUOUS
 10
27.4450093898
 20
12.4169006121
 11
27.4435296316
 21
12.4380621413
  0
LINE
  5
440
100
AcDbEntity
  8
0
100
AcDbLine
 62
7
  6
CONTINUOUS
 10
27.5355415326
 20
10.6823704805
 11
27.5348012025
 21
10.7035707615
  0
LINE
  5
441
100
AcDbEntity
  8
0
100
AcDbLine
 62
7
  6
CONTINUOUS
 10
27.4738517978
 20
12.4489333514
 11
27.4731114677
 21
12.4701336323
  0
LINE
  5
442
100
AcDbEntity
  8
0
100
AcDbLine
 62
7
  6
CONTINUOUS
 10
27.5037945622
 20
10.7123003225
 11
27.5037945622
 21
10.7335135259
  0
LINE
  5
443
100
AcDbEntity
  8
0
100
AcDbLine
 62
7
  6
CONTINUOUS
 10
27.5037945622
 20
12.4799399916
 11
27.5037945622
 21
12.5011531951
  0
LINE
  5
444
100
AcDbEntity
  8
0
100
AcDbLine
 62
7
  6
CONTINUOUS
 10
27.4731114677
 20
10.7433198852
 11
27.4738517978
 21
10.7645201661
  0
LINE
  5
445
100
AcDbEntity
  8
0
100
AcDbLine
 62
7
  6
CONTINUOUS
 10
27.5348012025
 20
12.509882756
 11
27.5355415326
 21
12.531083037
  0
LINE
  5
446
100
AcDbEntity
  8
0
100
AcDbLine
 62
7
  6
CONTINUOUS
 10
27.4435296316
 20
10.7753913762
 11
27.4450093898
 21
10.7965529054
  0
LINE
  5
447
100
AcDbEntity
  8
0
100
AcDbLine
 62
7
  6
CONTINUOUS
 10
27.5668339417
 20
12.538725164
 11
27.5683137
 21
12.5598866932
  0
LINE
  5
448
100
AcDbEntity
  8
0
100
AcDbLine
 62
6
  6
CONTINUOUS
 10
27.4150850948
 20
10.8084757214
 11
27.4173024783
 21
10.8295727167
  0
LINE
  5
449
100
AcDbEntity
  8
0
100
AcDbLine
 62
7
  6
CONTINUOUS
 10
27.599853753
 20
12.5664320755
 11
27.6020711366
 21
12.5875290708
  0
LINE
  5
44A
100
AcDbEntity
  8
0
100
AcDbLine
 62
6
  6
CONTINUOUS
 10
27.3878125127
 20
10.8425326125
 11
27.39076482
 21
10.8635393705
  0
LINE
  5
44B
100
AcDbEntity
  8
0
100
AcDbLine
 62
6
  6
CONTINUOUS
 10
27.6338204068
 20
12.5929697339
 11
27.6367727141
 21
12.6139764919
  0
LINE
  5
44C
100
AcDbEntity
  8
0
100
AcDbLine
 62
6
  6
CONTINUOUS
 10
27.3617451126
 20
10.8775205564
 11
27.3654287467
 21
10.8984114836
  0
LINE
  5
44D
100
AcDbEntity
  8
0
100
AcDbLine
 62
7
  6
CONTINUOUS
 10
27.6686925199
 20
12.6183058071
 11
27.6723761541
 21
12.6391967343
  0
LINE
  5
44E
100
AcDbEntity
  8
0
100
AcDbLine
 62
6
  6
CONTINUOUS
 10
27.3369146538
 20
10.9133969257
 11
27.3413251267
 21
10.9341465698
  0
LINE
  5
44F
100
AcDbEntity
  8
0
100
AcDbLine
 62
6
  6
CONTINUOUS
 10
27.7044276061
 20
12.6424094271
 11
27.7088380791
 21
12.6631590711
  0
LINE
  5
450
100
AcDbEntity
  8
0
100
AcDbLine
 62
7
  6
CONTINUOUS
 10
27.3133513882
 20
10.9501180107
 11
27.3184833266
 21
10.9707010913
  0
LINE
  5
451
100
AcDbEntity
  8
0
100
AcDbLine
 62
7
  6
CONTINUOUS
 10
27.7409821277
 20
12.6652512273
 11
27.7461140661
 21
12.6858343079
  0
LINE
  5
452
100
AcDbEntity
  8
0
100
AcDbLine
 62
6
  6
CONTINUOUS
 10
29.5679170939
 20
11.9865096466
 11
29.5579580982
 21
11.9677794997
  0
LINE
  5
453
100
AcDbEntity
  8
0
100
AcDbLine
 62
7
  6
CONTINUOUS
 10
28.738060536
 20
10.4257764557
 11
28.7281015403
 21
10.4070463088
  0
LINE
  5
454
100
AcDbEntity
  8
0
100
AcDbLine
 62
6
  6
CONTINUOUS
 10
29.5804458558
 20
11.944716158
 11
29.5698392541
 21
11.9263449849
  0
LINE
  5
455
100
AcDbEntity
  8
0
100
AcDbLine
 62
7
  6
CONTINUOUS
 10
28.6966260212
 20
10.4138952997
 11
28.6860194195
 21
10.3955241267
  0
LINE
  5
456
100
AcDbEntity
  8
0
100
AcDbLine
 62
7
  6
CONTINUOUS
 10
29.5915084138
 20
11.9025108813
 11
29.5802671286
 21
11.8845210645
  0
LINE
  5
457
100
AcDbEntity
  8
0
100
AcDbLine
 62
7
  6
CONTINUOUS
 10
28.6548021009
 20
10.4034674252
 11
28.6435608157
 21
10.3854776084
  0
LINE
  5
458
100
AcDbEntity
  8
0
100
AcDbLine
 62
6
  6
CONTINUOUS
 10
29.6010912898
 20
11.8599452373
 11
29.589229017
 21
11.8423586946
  0
LINE
  5
459
100
AcDbEntity
  8
0
100
AcDbLine
 62
7
  6
CONTINUOUS
 10
28.612639731
 20
10.3945055368
 11
28.6007774581
 21
10.3769189941
  0
LINE
  5
45A
100
AcDbEntity
  8
0
100
AcDbLine
 62
7
  6
CONTINUOUS
 10
28.6007774581
 20
12.8365345234
 11
28.612639731
 21
12.8189479807
  0
LINE
  5
45B
100
AcDbEntity
  8
0
100
AcDbLine
 62
6
  6
CONTINUOUS
 10
29.589229017
 20
11.3710948229
 11
29.6010912898
 21
11.3535082802
  0
LINE
  5
45C
100
AcDbEntity
  8
0
100
AcDbLine
 62
7
  6
CONTINUOUS
 10
28.6435608157
 20
12.8279759091
 11
28.6548021009
 21
12.8099860923
  0
LINE
  5
45D
100
AcDbEntity
  8
0
100
AcDbLine
 62
7
  6
CONTINUOUS
 10
29.5802671286
 20
11.328932453
 11
29.5915084138
 21
11.3109426362
  0
LINE
  5
45E
100
AcDbEntity
  8
0
100
AcDbLine
 62
7
  6
CONTINUOUS
 10
28.6860194195
 20
12.8179293908
 11
28.6966260212
 21
12.7995582178
  0
LINE
  5
45F
100
AcDbEntity
  8
0
100
AcDbLine
 62
6
  6
CONTINUOUS
 10
29.5698392541
 20
11.2871085326
 11
29.5804458558
 21
11.2687373595
  0
LINE
  5
460
100
AcDbEntity
  8
0
100
AcDbLine
 62
7
  6
CONTINUOUS
 10
28.7281015403
 20
12.8064072087
 11
28.738060536
 21
12.7876770618
  0
LINE
  5
461
100
AcDbEntity
  8
0
100
AcDbLine
 62
6
  6
CONTINUOUS
 10
29.5579580982
 20
11.2456740178
 11
29.5679170939
 21
11.2269438709
  0
LINE
  5
462
100
AcDbEntity
  8
0
100
AcDbLine
 62
7
  6
CONTINUOUS
 10
27.7461140661
 20
10.5276192096
 11
27.7409821277
 21
10.5482022902
  0
LINE
  5
463
100
AcDbEntity
  8
0
100
AcDbLine
 62
7
  6
CONTINUOUS
 10
27.3184833266
 20
12.2427524262
 11
27.3133513882
 21
12.2633355068
  0
LINE
  5
464
100
AcDbEntity
  8
0
100
AcDbLine
 62
6
  6
CONTINUOUS
 10
27.7088380791
 20
10.5502944464
 11
27.7044276061
 21
10.5710440904
  0
LINE
  5
465
100
AcDbEntity
  8
0
100
AcDbLine
 62
6
  6
CONTINUOUS
 10
27.3413251267
 20
12.2793069477
 11
27.3369146538
 21
12.3000565918
  0
LINE
  5
466
100
AcDbEntity
  8
0
100
AcDbLine
 62
7
  6
CONTINUOUS
 10
27.6723761541
 20
10.5742567832
 11
27.6686925199
 21
10.5951477104
  0
LINE
  5
467
100
AcDbEntity
  8
0
100
AcDbLine
 62
6
  6
CONTINUOUS
 10
27.3654287467
 20
12.3150420339
 11
27.3617451126
 21
12.3359329611
  0
LINE
  5
468
100
AcDbEntity
  8
0
100
AcDbLine
 62
6
  6
CONTINUOUS
 10
27.6367727141
 20
10.5994770256
 11
27.6338204068
 21
10.6204837836
  0
LINE
  5
469
100
AcDbEntity
  8
0
100
AcDbLine
 62
6
  6
CONTINUOUS
 10
27.39076482
 20
12.349914147
 11
27.3878125127
 21
12.370920905
  0
LINE
  5
46A
100
AcDbEntity
  8
0
100
AcDbLine
 62
7
  6
CONTINUOUS
 10
29.1519444536
 20
12.5875290708
 11
29.1541618372
 21
12.5664320755
  0
LINE
  5
46B
100
AcDbEntity
  8
0
100
AcDbLine
 62
7
  6
CONTINUOUS
 10
29.3367131118
 20
10.8295727167
 11
29.3389304954
 21
10.8084757214
  0
LINE
  5
46C
100
AcDbEntity
  8
0
100
AcDbLine
 62
6
  6
CONTINUOUS
 10
29.1857018902
 20
12.5598866932
 11
29.1871816485
 21
12.538725164
  0
LINE
  5
46D
100
AcDbEntity
  8
0
100
AcDbLine
 62
6
  6
CONTINUOUS
 10
29.3090062004
 20
10.7965529054
 11
29.3104859586
 21
10.7753913762
  0
LINE
  5
46E
100
AcDbEntity
  8
0
100
AcDbLine
 62
7
  6
CONTINUOUS
 10
29.2184740576
 20
12.531083037
 11
29.2192143877
 21
12.509882756
  0
LINE
  5
46F
100
AcDbEntity
  8
0
100
AcDbLine
 62
7
  6
CONTINUOUS
 10
29.2801637924
 20
10.7645201661
 11
29.2809041225
 21
10.7433198852
  0
LINE
  5
470
100
AcDbEntity
  8
0
100
AcDbLine
 62
6
  6
CONTINUOUS
 10
29.250221028
 20
12.5011531951
 11
29.250221028
 21
12.4799399916
  0
LINE
  5
471
100
AcDbEntity
  8
0
100
AcDbLine
 62
6
  6
CONTINUOUS
 10
29.250221028
 20
10.7335135259
 11
29.250221028
 21
10.7123003225
  0
LINE
  5
472
100
AcDbEntity
  8
0
100
AcDbLine
 62
7
  6
CONTINUOUS
 10
29.2809041225
 20
12.4701336323
 11
29.2801637924
 21
12.4489333514
  0
LINE
  5
473
100
AcDbEntity
  8
0
100
AcDbLine
 62
7
  6
CONTINUOUS
 10
29.2192143877
 20
10.7035707615
 11
29.2184740576
 21
10.6823704805
  0
LINE
  5
474
100
AcDbEntity
  8
0
100
AcDbLine
 62
6
  6
CONTINUOUS
 10
29.3104859586
 20
12.4380621413
 11
29.3090062004
 21
12.4169006121
  0
LINE
  5
475
100
AcDbEntity
  8
0
100
AcDbLine
 62
6
  6
CONTINUOUS
 10
29.1871816485
 20
10.6747283535
 11
29.1857018902
 21
10.6535668243
  0
LINE
  5
476
100
AcDbEntity
  8
0
100
AcDbLine
 62
7
  6
CONTINUOUS
 10
29.3389304954
 20
12.4049777961
 11
29.3367131118
 21
12.3838808008
  0
LINE
  5
477
100
AcDbEntity
  8
0
100
AcDbLine
 62
7
  6
CONTINUOUS
 10
29.1541618372
 20
10.647021442
 11
29.1519444536
 21
10.6259244467
  0
LINE
  5
478
100
AcDbEntity
  8
0
100
AcDbLine
 62
6
  6
CONTINUOUS
 10
29.3662030775
 20
12.370920905
 11
29.3632507702
 21
12.349914147
  0
LINE
  5
479
100
AcDbEntity
  8
0
100
AcDbLine
 62
6
  6
CONTINUOUS
 10
29.1201951834
 20
10.6204837836
 11
29.1172428761
 21
10.5994770256
  0
LINE
  5
47A
100
AcDbEntity
  8
0
100
AcDbLine
 62
7
  6
CONTINUOUS
 10
29.3922704776
 20
12.3359329611
 11
29.3885868434
 21
12.3150420339
  0
LINE
  5
47B
100
AcDbEntity
  8
0
100
AcDbLine
 62
7
  6
CONTINUOUS
 10
29.0853230702
 20
10.5951477104
 11
29.0816394361
 21
10.5742567832
  0
LINE
  5
47C
100
AcDbEntity
  8
0
100
AcDbLine
 62
6
  6
CONTINUOUS
 10
29.4171009364
 20
12.3000565918
 11
29.4126904634
 21
12.2793069477
  0
LINE
  5
47D
100
AcDbEntity
  8
0
100
AcDbLine
 62
7
  6
CONTINUOUS
 10
29.0495879841
 20
10.5710440904
 11
29.0451775111
 21
10.5502944464
  0
LINE
  5
47E
100
AcDbEntity
  8
0
100
AcDbLine
 62
6
  6
CONTINUOUS
 10
29.440664202
 20
12.2633355068
 11
29.4355322636
 21
12.2427524262
  0
LINE
  5
47F
100
AcDbEntity
  8
0
100
AcDbLine
 62
7
  6
CONTINUOUS
 10
29.0130334625
 20
10.5482022902
 11
29.0079015241
 21
10.5276192096
  0
LINE
  5
480
100
AcDbEntity
  8
0
100
AcDbLine
 62
7
  6
CONTINUOUS
 10
29.4629315661
 20
12.2258144452
 11
29.4570844148
 21
12.2054230053
  0
LINE
  5
481
100
AcDbEntity
  8
0
100
AcDbLine
 62
7
  6
CONTINUOUS
 10
28.9757040417
 20
10.526650139
 11
28.9698568904
 21
10.5062586991
  0
LINE
  5
482
100
AcDbEntity
  8
0
100
AcDbLine
 62
6
  6
CONTINUOUS
 10
29.4838758994
 20
12.1875391207
 11
29.477320659
 21
12.1673641653
  0
LINE
  5
483
100
AcDbEntity
  8
0
100
AcDbLine
 62
6
  6
CONTINUOUS
 10
28.9376452017
 20
10.5064138949
 11
28.9310899613
 21
10.4862389395
  0
LINE
  5
484
100
AcDbEntity
  8
0
100
AcDbLine
 62
6
  6
CONTINUOUS
 10
29.5034716843
 20
12.1485561657
 11
29.4962163414
 21
12.128622275
  0
LINE
  5
485
100
AcDbEntity
  8
0
100
AcDbLine
 62
7
  6
CONTINUOUS
 10
28.8989033113
 20
10.4875182124
 11
28.8916479684
 21
10.4675843217
  0
LINE
  5
486
100
AcDbEntity
  8
0
100
AcDbLine
 62
7
  6
CONTINUOUS
 10
29.5216950466
 20
12.1089130751
 11
29.5137484407
 21
12.0892445354
  0
LINE
  5
487
100
AcDbEntity
  8
0
100
AcDbLine
 62
7
  6
CONTINUOUS
 10
28.8595255717
 20
10.4699861132
 11
28.8515789658
 21
10.4503175734
  0
LINE
  5
488
100
AcDbEntity
  8
0
100
AcDbLine
 62
6
  6
CONTINUOUS
 10
29.5385237837
 20
12.0686581478
 11
29.5298955966
 21
12.0492789222
  0
LINE
  5
489
100
AcDbEntity
  8
0
100
AcDbLine
 62
6
  6
CONTINUOUS
 10
28.8195599585
 20
10.4538389573
 11
28.8109317713
 21
10.4344597317
  0
LINE
  5
48A
100
AcDbEntity
  8
0
100
AcDbLine
 62
6
  6
CONTINUOUS
 10
29.5539373925
 20
12.0278404283
 11
29.5446381362
 21
12.0087741273
  0
LINE
  5
48B
100
AcDbEntity
  8
0
100
AcDbLine
 62
7
  6
CONTINUOUS
 10
28.7790551637
 20
10.4390964176
 11
28.7697559073
 21
10.4200301167
  0
LINE
  5
48C
100
AcDbEntity
  8
0
100
AcDbLine
 62
7
  6
CONTINUOUS
 10
28.7697559073
 20
12.7934234008
 11
28.7790551637
 21
12.7743570999
  0
LINE
  5
48D
100
AcDbEntity
  8
0
100
AcDbLine
 62
6
  6
CONTINUOUS
 10
29.5446381362
 20
11.2046793902
 11
29.5539373925
 21
11.1856130892
  0
LINE
  5
48E
100
AcDbEntity
  8
0
100
AcDbLine
 62
6
  6
CONTINUOUS
 10
28.8109317713
 20
12.7789937859
 11
28.8195599585
 21
12.7596145602
  0
LINE
  5
48F
100
AcDbEntity
  8
0
100
AcDbLine
 62
6
  6
CONTINUOUS
 10
29.5298955966
 20
11.1641745953
 11
29.5385237837
 21
11.1447953697
  0
LINE
  5
490
100
AcDbEntity
  8
0
100
AcDbLine
 62
7
  6
CONTINUOUS
 10
28.8515789658
 20
12.7631359441
 11
28.8595255717
 21
12.7434674043
  0
LINE
  5
491
100
AcDbEntity
  8
0
100
AcDbLine
 62
7
  6
CONTINUOUS
 10
29.5137484407
 20
11.1242089821
 11
29.5216950466
 21
11.1045404424
  0
LINE
  5
492
100
AcDbEntity
  8
0
100
AcDbLine
 62
7
  6
CONTINUOUS
 10
28.8916479684
 20
12.7458691958
 11
28.8989033113
 21
12.7259353051
  0
LINE
  5
493
100
AcDbEntity
  8
0
100
AcDbLine
 62
6
  6
CONTINUOUS
 10
29.4962163414
 20
11.0848312425
 11
29.5034716843
 21
11.0648973518
  0
LINE
  5
494
100
AcDbEntity
  8
0
100
AcDbLine
 62
6
  6
CONTINUOUS
 10
28.9310899613
 20
12.727214578
 11
28.9376452017
 21
12.7070396226
  0
LINE
  5
495
100
AcDbEntity
  8
0
100
AcDbLine
 62
6
  6
CONTINUOUS
 10
29.477320659
 20
11.0460893522
 11
29.4838758994
 21
11.0259143968
  0
LINE
  5
496
100
AcDbEntity
  8
0
100
AcDbLine
 62
7
  6
CONTINUOUS
 10
28.9698568904
 20
12.7071948184
 11
28.9757040417
 21
12.6868033785
  0
LINE
  5
497
100
AcDbEntity
  8
0
100
AcDbLine
 62
7
  6
CONTINUOUS
 10
29.4570844148
 20
11.0080305122
 11
29.4629315661
 21
10.9876390723
  0
LINE
  5
498
100
AcDbEntity
  8
0
100
AcDbLine
 62
7
  6
CONTINUOUS
 10
29.0079015241
 20
12.6858343079
 11
29.0130334625
 21
12.6652512273
  0
LINE
  5
499
100
AcDbEntity
  8
0
100
AcDbLine
 62
6
  6
CONTINUOUS
 10
29.4355322636
 20
10.9707010913
 11
29.440664202
 21
10.9501180107
  0
LINE
  5
49A
100
AcDbEntity
  8
0
100
AcDbLine
 62
7
  6
CONTINUOUS
 10
29.0451775111
 20
12.6631590711
 11
29.0495879841
 21
12.6424094271
  0
LINE
  5
49B
100
AcDbEntity
  8
0
100
AcDbLine
 62
6
  6
CONTINUOUS
 10
29.4126904634
 20
10.9341465698
 11
29.4171009364
 21
10.9133969257
  0
LINE
  5
49C
100
AcDbEntity
  8
0
100
AcDbLine
 62
7
  6
CONTINUOUS
 10
29.0816394361
 20
12.6391967343
 11
29.0853230702
 21
12.6183058071
  0
LINE
  5
49D
100
AcDbEntity
  8
0
100
AcDbLine
 62
7
  6
CONTINUOUS
 10
29.3885868434
 20
10.8984114836
 11
29.3922704776
 21
10.8775205564
  0
LINE
  5
49E
100
AcDbEntity
  8
0
100
AcDbLine
 62
6
  6
CONTINUOUS
 10
29.1172428761
 20
12.6139764919
 11
29.1201951834
 21
12.5929697339
  0
LINE
  5
49F
100
AcDbEntity
  8
0
100
AcDbLine
 62
6
  6
CONTINUOUS
 10
29.3632507702
 20
10.8635393705
 11
29.3662030775
 21
10.8425326125
  0
ARC
  5
4A0
100
AcDbEntity
  8
0
100
AcDbCircle
 62
6
  6
CONTINUOUS
 10
28.3770077951
 20
11.6067267588
 40
0.5
100
AcDbArc
 50
219.3915163943
 51
360.0
  0
ARC
  5
4A1
100
AcDbEntity
  8
0
100
AcDbCircle
 62
6
  6
CONTINUOUS
 10
28.3770077951
 20
11.6067267588
 40
1.25
100
AcDbArc
 50
47.6875658564
 51
48.3124341436
  0
ARC
  5
4A2
100
AcDbEntity
  8
0
100
AcDbCircle
 62
6
  6
CONTINUOUS
 10
28.3770077951
 20
11.6067267588
 40
1.25
100
AcDbArc
 50
51.6875658564
 51
52.3124341436
  0
ARC
  5
4A3
100
AcDbEntity
  8
0
100
AcDbCircle
 62
6
  6
CONTINUOUS
 10
28.3770077951
 20
11.6067267588
 40
1.25
100
AcDbArc
 50
53.6875658564
 51
54.3124341436
  0
ARC
  5
4A4
100
AcDbEntity
  8
0
100
AcDbCircle
 62
6
  6
CONTINUOUS
 10
28.3770077951
 20
11.6067267588
 40
1.25
100
AcDbArc
 50
57.6875658564
 51
58.3124341436
  0
ARC
  5
4A5
100
AcDbEntity
  8
0
100
AcDbCircle
 62
6
  6
CONTINUOUS
 10
28.3770077951
 20
11.6067267588
 40
1.25
100
AcDbArc
 50
59.6875658564
 51
60.3124341436
  0
ARC
  5
4A6
100
AcDbEntity
  8
0
100
AcDbCircle
 62
6
  6
CONTINUOUS
 10
28.3770077951
 20
11.6067267588
 40
1.25
100
AcDbArc
 50
63.6875658564
 51
64.3124341436
  0
ARC
  5
4A7
100
AcDbEntity
  8
0
100
AcDbCircle
 62
6
  6
CONTINUOUS
 10
28.3770077951
 20
11.6067267588
 40
1.25
100
AcDbArc
 50
65.6875658564
 51
66.3124341436
  0
ARC
  5
4A8
100
AcDbEntity
  8
0
100
AcDbCircle
 62
6
  6
CONTINUOUS
 10
28.3770077951
 20
11.6067267588
 40
1.25
100
AcDbArc
 50
69.6875658564
 51
70.3124341436
  0
ARC
  5
4A9
100
AcDbEntity
  8
0
100
AcDbCircle
 62
6
  6
CONTINUOUS
 10
28.3770077951
 20
11.6067267588
 40
1.25
100
AcDbArc
 50
71.6875658564
 51
72.3124341436
  0
ARC
  5
4AA
100
AcDbEntity
  8
0
100
AcDbCircle
 62
6
  6
CONTINUOUS
 10
28.3770077951
 20
11.6067267588
 40
1.25
100
AcDbArc
 50
75.6875658564
 51
76.3124341436
  0
ARC
  5
4AB
100
AcDbEntity
  8
0
100
AcDbCircle
 62
6
  6
CONTINUOUS
 10
28.3770077951
 20
11.6067267588
 40
1.25
100
AcDbArc
 50
79.6875658564
 51
80.3124341436
  0
ARC
  5
4AC
100
AcDbEntity
  8
0
100
AcDbCircle
 62
6
  6
CONTINUOUS
 10
28.3770077951
 20
11.6067267588
 40
1.25
100
AcDbArc
 50
81.6875658564
 51
82.3124341436
  0
ARC
  5
4AD
100
AcDbEntity
  8
0
100
AcDbCircle
 62
6
  6
CONTINUOUS
 10
28.3770077951
 20
11.6067267588
 40
1.25
100
AcDbArc
 50
83.6875658564
 51
84.3124341436
  0
ARC
  5
4AE
100
AcDbEntity
  8
0
100
AcDbCircle
 62
6
  6
CONTINUOUS
 10
28.3770077951
 20
11.6067267588
 40
1.25
100
AcDbArc
 50
85.6875658564
 51
86.3124341436
  0
ARC
  5
4AF
100
AcDbEntity
  8
0
100
AcDbCircle
 62
6
  6
CONTINUOUS
 10
28.3770077951
 20
11.6067267588
 40
1.25
100
AcDbArc
 50
87.6875658564
 51
88.3124341436
  0
ARC
  5
4B0
100
AcDbEntity
  8
0
100
AcDbCircle
 62
6
  6
CONTINUOUS
 10
28.3770077951
 20
11.6067267588
 40
1.25
100
AcDbArc
 50
91.6875658564
 51
92.3124341436
  0
ARC
  5
4B1
100
AcDbEntity
  8
0
100
AcDbCircle
 62
6
  6
CONTINUOUS
 10
28.3770077951
 20
11.6067267588
 40
1.25
100
AcDbArc
 50
93.6875658564
 51
94.3124341436
  0
ARC
  5
4B2
100
AcDbEntity
  8
0
100
AcDbCircle
 62
6
  6
CONTINUOUS
 10
28.3770077951
 20
11.6067267588
 40
1.25
100
AcDbArc
 50
95.6875658564
 51
96.3124341436
  0
ARC
  5
4B3
100
AcDbEntity
  8
0
100
AcDbCircle
 62
6
  6
CONTINUOUS
 10
28.3770077951
 20
11.6067267588
 40
1.25
100
AcDbArc
 50
97.6875658564
 51
98.3124341436
  0
ARC
  5
4B4
100
AcDbEntity
  8
0
100
AcDbCircle
 62
6
  6
CONTINUOUS
 10
28.3770077951
 20
11.6067267588
 40
1.25
100
AcDbArc
 50
99.6875658564
 51
100.3124341436
  0
ARC
  5
4B5
100
AcDbEntity
  8
0
100
AcDbCircle
 62
6
  6
CONTINUOUS
 10
28.3770077951
 20
11.6067267588
 40
1.25
100
AcDbArc
 50
103.6875658564
 51
104.3124341436
  0
ARC
  5
4B6
100
AcDbEntity
  8
0
100
AcDbCircle
 62
6
  6
CONTINUOUS
 10
28.3770077951
 20
11.6067267588
 40
1.25
100
AcDbArc
 50
107.6875658564
 51
108.3124341436
  0
ARC
  5
4B7
100
AcDbEntity
  8
0
100
AcDbCircle
 62
6
  6
CONTINUOUS
 10
28.3770077951
 20
11.6067267588
 40
1.25
100
AcDbArc
 50
109.6875658564
 51
110.3124341436
  0
ARC
  5
4B8
100
AcDbEntity
  8
0
100
AcDbCircle
 62
6
  6
CONTINUOUS
 10
28.3770077951
 20
11.6067267588
 40
1.25
100
AcDbArc
 50
113.6875658564
 51
114.3124341436
  0
ARC
  5
4B9
100
AcDbEntity
  8
0
100
AcDbCircle
 62
6
  6
CONTINUOUS
 10
28.3770077951
 20
11.6067267588
 40
1.25
100
AcDbArc
 50
115.6875658564
 51
116.3124341436
  0
ARC
  5
4BA
100
AcDbEntity
  8
0
100
AcDbCircle
 62
6
  6
CONTINUOUS
 10
28.3770077951
 20
11.6067267588
 40
1.25
100
AcDbArc
 50
119.6875658564
 51
120.3124341436
  0
ARC
  5
4BB
100
AcDbEntity
  8
0
100
AcDbCircle
 62
6
  6
CONTINUOUS
 10
28.3770077951
 20
11.6067267588
 40
1.25
100
AcDbArc
 50
121.6875658564
 51
122.3124341436
  0
ARC
  5
4BC
100
AcDbEntity
  8
0
100
AcDbCircle
 62
6
  6
CONTINUOUS
 10
28.3770077951
 20
11.6067267588
 40
1.25
100
AcDbArc
 50
125.6875658564
 51
126.3124341436
  0
ARC
  5
4BD
100
AcDbEntity
  8
0
100
AcDbCircle
 62
6
  6
CONTINUOUS
 10
28.3770077951
 20
11.6067267588
 40
1.25
100
AcDbArc
 50
127.6875658564
 51
128.3124341436
  0
ARC
  5
4BE
100
AcDbEntity
  8
0
100
AcDbCircle
 62
6
  6
CONTINUOUS
 10
28.3770077951
 20
11.6067267588
 40
1.25
100
AcDbArc
 50
131.6875658564
 51
132.3124341436
  0
ARC
  5
4BF
100
AcDbEntity
  8
0
100
AcDbCircle
 62
6
  6
CONTINUOUS
 10
28.3770077951
 20
11.6067267588
 40
1.25
100
AcDbArc
 50
137.6875658564
 51
138.3124341436
  0
ARC
  5
4C0
100
AcDbEntity
  8
0
100
AcDbCircle
 62
6
  6
CONTINUOUS
 10
28.3770077951
 20
11.6067267588
 40
1.25
100
AcDbArc
 50
141.6875658564
 51
142.3124341436
  0
ARC
  5
4C1
100
AcDbEntity
  8
0
100
AcDbCircle
 62
6
  6
CONTINUOUS
 10
28.3770077951
 20
11.6067267588
 40
1.25
100
AcDbArc
 50
143.6875658564
 51
144.3124341436
  0
ARC
  5
4C2
100
AcDbEntity
  8
0
100
AcDbCircle
 62
6
  6
CONTINUOUS
 10
28.3770077951
 20
11.6067267588
 40
1.25
100
AcDbArc
 50
147.6875658564
 51
148.3124341436
  0
ARC
  5
4C3
100
AcDbEntity
  8
0
100
AcDbCircle
 62
6
  6
CONTINUOUS
 10
28.3770077951
 20
11.6067267588
 40
1.25
100
AcDbArc
 50
149.6875658564
 51
150.3124341436
  0
ARC
  5
4C4
100
AcDbEntity
  8
0
100
AcDbCircle
 62
6
  6
CONTINUOUS
 10
28.3770077951
 20
11.6067267588
 40
1.25
100
AcDbArc
 50
153.6875658564
 51
154.3124341436
  0
ARC
  5
4C5
100
AcDbEntity
  8
0
100
AcDbCircle
 62
6
  6
CONTINUOUS
 10
28.3770077951
 20
11.6067267588
 40
1.25
100
AcDbArc
 50
155.6875658564
 51
156.3124341436
  0
ARC
  5
4C6
100
AcDbEntity
  8
0
100
AcDbCircle
 62
6
  6
CONTINUOUS
 10
28.3770077951
 20
11.6067267588
 40
1.25
100
AcDbArc
 50
159.6875658564
 51
160.3124341436
  0
ARC
  5
4C7
100
AcDbEntity
  8
0
100
AcDbCircle
 62
6
  6
CONTINUOUS
 10
28.3770077951
 20
11.6067267588
 40
1.25
100
AcDbArc
 50
161.6875658564
 51
162.3124341436
  0
ARC
  5
4C8
100
AcDbEntity
  8
0
100
AcDbCircle
 62
6
  6
CONTINUOUS
 10
28.3770077951
 20
11.6067267588
 40
1.25
100
AcDbArc
 50
197.6875658564
 51
198.3124341436
  0
ARC
  5
4C9
100
AcDbEntity
  8
0
100
AcDbCircle
 62
6
  6
CONTINUOUS
 10
28.3770077951
 20
11.6067267588
 40
1.25
100
AcDbArc
 50
199.6875658564
 51
200.3124341436
  0
ARC
  5
4CA
100
AcDbEntity
  8
0
100
AcDbCircle
 62
6
  6
CONTINUOUS
 10
28.3770077951
 20
11.6067267588
 40
1.25
100
AcDbArc
 50
203.6875658564
 51
204.3124341436
  0
ARC
  5
4CB
100
AcDbEntity
  8
0
100
AcDbCircle
 62
6
  6
CONTINUOUS
 10
28.3770077951
 20
11.6067267588
 40
1.25
100
AcDbArc
 50
205.6875658564
 51
206.3124341436
  0
ARC
  5
4CC
100
AcDbEntity
  8
0
100
AcDbCircle
 62
6
  6
CONTINUOUS
 10
28.3770077951
 20
11.6067267588
 40
1.25
100
AcDbArc
 50
209.6875658564
 51
210.3124341436
  0
ARC
  5
4CD
100
AcDbEntity
  8
0
100
AcDbCircle
 62
6
  6
CONTINUOUS
 10
28.3770077951
 20
11.6067267588
 40
1.25
100
AcDbArc
 50
211.6875658564
 51
212.3124341436
  0
ARC
  5
4CE
100
AcDbEntity
  8
0
100
AcDbCircle
 62
6
  6
CONTINUOUS
 10
28.3770077951
 20
11.6067267588
 40
1.25
100
AcDbArc
 50
215.6875658564
 51
216.3124341436
  0
ARC
  5
4CF
100
AcDbEntity
  8
0
100
AcDbCircle
 62
6
  6
CONTINUOUS
 10
28.3770077951
 20
11.6067267588
 40
1.25
100
AcDbArc
 50
217.6875658564
 51
218.3124341436
  0
ARC
  5
4D0
100
AcDbEntity
  8
0
100
AcDbCircle
 62
6
  6
CONTINUOUS
 10
28.3770077951
 20
11.6067267588
 40
1.25
100
AcDbArc
 50
221.6875658564
 51
222.3124341436
  0
ARC
  5
4D1
100
AcDbEntity
  8
0
100
AcDbCircle
 62
6
  6
CONTINUOUS
 10
4.1240077951
 20
11.6067267588
 40
1.25
100
AcDbArc
 50
176.3748842303
 51
177.6213366563
  0
ARC
  5
4D2
100
AcDbEntity
  8
0
100
AcDbCircle
 62
6
  6
CONTINUOUS
 10
4.1240077951
 20
11.6067267588
 40
1.25
100
AcDbArc
 50
174.3151756157
 51
175.6413670003
  0
ARC
  5
4D3
100
AcDbEntity
  8
0
100
AcDbCircle
 62
6
  6
CONTINUOUS
 10
4.1240077951
 20
11.6067267588
 40
1.25
100
AcDbArc
 50
172.3737072283
 51
173.6567841423
  0
ARC
  5
4D4
100
AcDbEntity
  8
0
100
AcDbCircle
 62
6
  6
CONTINUOUS
 10
4.1240077951
 20
11.6067267588
 40
1.25
100
AcDbArc
 50
170.3685310575
 51
171.6200494136
  0
ARC
  5
4D5
100
AcDbEntity
  8
0
100
AcDbCircle
 62
6
  6
CONTINUOUS
 10
4.1240077951
 20
11.6067267588
 40
1.25
100
AcDbArc
 50
166.3779281853
 51
167.64409075
  0
ARC
  5
4D6
100
AcDbEntity
  8
0
100
AcDbCircle
 62
6
  6
CONTINUOUS
 10
4.1240077951
 20
11.6067267588
 40
1.25
100
AcDbArc
 50
164.3595190999
 51
165.6211742822
  0
ARC
  5
4D7
100
AcDbEntity
  8
0
100
AcDbCircle
 62
6
  6
CONTINUOUS
 10
4.1240077951
 20
11.6067267588
 40
1.25
100
AcDbArc
 50
160.3798397719
 51
161.6341732487
  0
ARC
  5
4D8
100
AcDbEntity
  8
0
100
AcDbCircle
 62
6
  6
CONTINUOUS
 10
4.1240077951
 20
11.6067267588
 40
1.25
100
AcDbArc
 50
158.3477609844
 51
159.6246338309
  0
ARC
  5
4D9
100
AcDbEntity
  8
0
100
AcDbCircle
 62
6
  6
CONTINUOUS
 10
4.1240077951
 20
11.6067267588
 40
1.25
100
AcDbArc
 50
154.3793653114
 51
155.6269433566
  0
ARC
  5
4DA
100
AcDbEntity
  8
0
100
AcDbCircle
 62
6
  6
CONTINUOUS
 10
4.1240077951
 20
11.6067267588
 40
1.25
100
AcDbArc
 50
148.3764258315
 51
149.6223154785
  0
ARC
  5
4DB
100
AcDbEntity
  8
0
100
AcDbCircle
 62
6
  6
CONTINUOUS
 10
4.1240077951
 20
11.6067267588
 40
1.25
100
AcDbArc
 50
142.3709399649
 51
143.6202065923
  0
ARC
  5
4DC
100
AcDbEntity
  8
0
100
AcDbCircle
 62
6
  6
CONTINUOUS
 10
4.1240077951
 20
11.6067267588
 40
1.25
100
AcDbArc
 50
138.3767740741
 51
139.6480090091
  0
ARC
  5
4DD
100
AcDbEntity
  8
0
100
AcDbCircle
 62
6
  6
CONTINUOUS
 10
4.1240077951
 20
11.6067267588
 40
1.25
100
AcDbArc
 50
136.362823844
 51
137.6205361401
  0
ARC
  5
4DE
100
AcDbEntity
  8
0
100
AcDbCircle
 62
6
  6
CONTINUOUS
 10
4.1240077951
 20
11.6067267588
 40
1.25
100
AcDbArc
 50
132.3794638599
 51
133.637176156
  0
ARC
  5
4DF
100
AcDbEntity
  8
0
100
AcDbCircle
 62
6
  6
CONTINUOUS
 10
4.1240077951
 20
11.6067267588
 40
1.25
100
AcDbArc
 50
130.3519909909
 51
131.6232259259
  0
ARC
  5
4E0
100
AcDbEntity
  8
0
100
AcDbCircle
 62
6
  6
CONTINUOUS
 10
4.1240077951
 20
11.6067267588
 40
1.25
100
AcDbArc
 50
126.3797934077
 51
127.6290600351
  0
ARC
  5
4E1
100
AcDbEntity
  8
0
100
AcDbCircle
 62
6
  6
CONTINUOUS
 10
4.1240077951
 20
11.6067267588
 40
1.25
100
AcDbArc
 50
120.3776845215
 51
121.6235741685
  0
ARC
  5
4E2
100
AcDbEntity
  8
0
100
AcDbCircle
 62
6
  6
CONTINUOUS
 10
4.1240077951
 20
11.6067267588
 40
1.25
100
AcDbArc
 50
114.3730566434
 51
115.6206346886
  0
ARC
  5
4E3
100
AcDbEntity
  8
0
100
AcDbCircle
 62
6
  6
CONTINUOUS
 10
4.1240077951
 20
11.6067267588
 40
1.25
100
AcDbArc
 50
110.3753661691
 51
111.6522390156
  0
ARC
  5
4E4
100
AcDbEntity
  8
0
100
AcDbCircle
 62
6
  6
CONTINUOUS
 10
4.1240077951
 20
11.6067267588
 40
1.25
100
AcDbArc
 50
108.3658267513
 51
109.6201602281
  0
ARC
  5
4E5
100
AcDbEntity
  8
0
100
AcDbCircle
 62
6
  6
CONTINUOUS
 10
4.1240077951
 20
11.6067267588
 40
1.25
100
AcDbArc
 50
104.3788257178
 51
105.6404809001
  0
ARC
  5
4E6
100
AcDbEntity
  8
0
100
AcDbCircle
 62
6
  6
CONTINUOUS
 10
4.1240077951
 20
11.6067267588
 40
1.25
100
AcDbArc
 50
102.35590925
 51
103.6220718147
  0
ARC
  5
4E7
100
AcDbEntity
  8
0
100
AcDbCircle
 62
6
  6
CONTINUOUS
 10
4.1240077951
 20
11.6067267588
 40
1.25
100
AcDbArc
 50
98.3799505864
 51
99.6314689425
  0
ARC
  5
4E8
100
AcDbEntity
  8
0
100
AcDbCircle
 62
6
  6
CONTINUOUS
 10
4.1240077951
 20
11.6067267588
 40
1.25
100
AcDbArc
 50
96.3432158577
 51
97.6262927717
  0
ARC
  5
4E9
100
AcDbEntity
  8
0
100
AcDbCircle
 62
6
  6
CONTINUOUS
 10
4.1240077951
 20
11.6067267588
 40
1.25
100
AcDbArc
 50
94.3586329997
 51
95.6848243843
  0
ARC
  5
4EA
100
AcDbEntity
  8
0
100
AcDbCircle
 62
6
  6
CONTINUOUS
 10
4.1240077951
 20
11.6067267588
 40
1.25
100
AcDbArc
 50
92.3786633437
 51
93.6251157697
  0
ARC
  5
4EB
100
AcDbEntity
  8
0
100
AcDbCircle
 62
6
  6
CONTINUOUS
 10
4.1240077951
 20
11.6067267588
 40
1.25
100
AcDbArc
 50
86.3748842303
 51
87.6213366563
  0
ARC
  5
4EC
100
AcDbEntity
  8
0
100
AcDbCircle
 62
6
  6
CONTINUOUS
 10
4.1240077951
 20
11.6067267588
 40
1.25
100
AcDbArc
 50
84.3151756157
 51
85.6413670003
  0
ARC
  5
4ED
100
AcDbEntity
  8
0
100
AcDbCircle
 62
6
  6
CONTINUOUS
 10
4.1240077951
 20
11.6067267588
 40
1.25
100
AcDbArc
 50
82.3737072283
 51
83.6567841423
  0
ARC
  5
4EE
100
AcDbEntity
  8
0
100
AcDbCircle
 62
6
  6
CONTINUOUS
 10
4.1240077951
 20
11.6067267588
 40
1.25
100
AcDbArc
 50
80.3685310575
 51
81.6200494136
  0
ARC
  5
4EF
100
AcDbEntity
  8
0
100
AcDbCircle
 62
6
  6
CONTINUOUS
 10
4.1240077951
 20
11.6067267588
 40
1.25
100
AcDbArc
 50
76.3779281853
 51
77.64409075
  0
ARC
  5
4F0
100
AcDbEntity
  8
0
100
AcDbCircle
 62
6
  6
CONTINUOUS
 10
4.1240077951
 20
11.6067267588
 40
1.25
100
AcDbArc
 50
74.3595190999
 51
75.6211742822
  0
ARC
  5
4F1
100
AcDbEntity
  8
0
100
AcDbCircle
 62
6
  6
CONTINUOUS
 10
4.1240077951
 20
11.6067267588
 40
1.25
100
AcDbArc
 50
70.3798397719
 51
71.6341732487
  0
ARC
  5
4F2
100
AcDbEntity
  8
0
100
AcDbCircle
 62
6
  6
CONTINUOUS
 10
4.1240077951
 20
11.6067267588
 40
1.25
100
AcDbArc
 50
68.3477609844
 51
69.6246338309
  0
ARC
  5
4F3
100
AcDbEntity
  8
0
100
AcDbCircle
 62
6
  6
CONTINUOUS
 10
4.1240077951
 20
11.6067267588
 40
1.25
100
AcDbArc
 50
64.3793653114
 51
65.6269433566
  0
ARC
  5
4F4
100
AcDbEntity
  8
0
100
AcDbCircle
 62
6
  6
CONTINUOUS
 10
4.1240077951
 20
11.6067267588
 40
1.25
100
AcDbArc
 50
58.3764258315
 51
59.6223154785
  0
ARC
  5
4F5
100
AcDbEntity
  8
0
100
AcDbCircle
 62
6
  6
CONTINUOUS
 10
4.1240077951
 20
11.6067267588
 40
1.25
100
AcDbArc
 50
52.3709399649
 51
53.6202065923
  0
ARC
  5
4F6
100
AcDbEntity
  8
0
100
AcDbCircle
 62
6
  6
CONTINUOUS
 10
4.1240077951
 20
11.6067267588
 40
1.25
100
AcDbArc
 50
48.3767740741
 51
49.6480090091
  0
ARC
  5
4F7
100
AcDbEntity
  8
0
100
AcDbCircle
 62
6
  6
CONTINUOUS
 10
4.1240077951
 20
11.6067267588
 40
1.25
100
AcDbArc
 50
46.362823844
 51
47.6205361401
  0
ARC
  5
4F8
100
AcDbEntity
  8
0
100
AcDbCircle
 62
6
  6
CONTINUOUS
 10
4.1240077951
 20
11.6067267588
 40
1.25
100
AcDbArc
 50
42.3794638599
 51
43.637176156
  0
ARC
  5
4F9
100
AcDbEntity
  8
0
100
AcDbCircle
 62
6
  6
CONTINUOUS
 10
4.1240077951
 20
11.6067267588
 40
1.25
100
AcDbArc
 50
40.3519909909
 51
41.6232259259
  0
ARC
  5
4FA
100
AcDbEntity
  8
0
100
AcDbCircle
 62
6
  6
CONTINUOUS
 10
4.1240077951
 20
11.6067267588
 40
1.25
100
AcDbArc
 50
36.3797934077
 51
37.6290600351
  0
ARC
  5
4FB
100
AcDbEntity
  8
0
100
AcDbCircle
 62
6
  6
CONTINUOUS
 10
4.1240077951
 20
11.6067267588
 40
1.25
100
AcDbArc
 50
30.3776845215
 51
31.6235741685
  0
ARC
  5
4FC
100
AcDbEntity
  8
0
100
AcDbCircle
 62
6
  6
CONTINUOUS
 10
4.1240077951
 20
11.6067267588
 40
1.25
100
AcDbArc
 50
24.3730566434
 51
25.6206346886
  0
ARC
  5
4FD
100
AcDbEntity
  8
0
100
AcDbCircle
 62
6
  6
CONTINUOUS
 10
4.1240077951
 20
11.6067267588
 40
1.25
100
AcDbArc
 50
20.3753661691
 51
21.6522390156
  0
ARC
  5
4FE
100
AcDbEntity
  8
0
100
AcDbCircle
 62
6
  6
CONTINUOUS
 10
4.1240077951
 20
11.6067267588
 40
1.25
100
AcDbArc
 50
18.3658267513
 51
19.6201602281
  0
ARC
  5
4FF
100
AcDbEntity
  8
0
100
AcDbCircle
 62
6
  6
CONTINUOUS
 10
4.1240077951
 20
11.6067267588
 40
1.25
100
AcDbArc
 50
14.4945930001
 51
15.6404809001
  0
ARC
  5
500
100
AcDbEntity
  8
0
100
AcDbCircle
 62
6
  6
CONTINUOUS
 10
4.1240077951
 20
11.6067267588
 40
1.25
100
AcDbArc
 50
182.3786633437
 51
183.6251157697
  0
ARC
  5
501
100
AcDbEntity
  8
0
100
AcDbCircle
 62
6
  6
CONTINUOUS
 10
4.1240077951
 20
11.6067267588
 40
1.25
100
AcDbArc
 50
184.3586329997
 51
185.6848243843
  0
ARC
  5
502
100
AcDbEntity
  8
0
100
AcDbCircle
 62
6
  6
CONTINUOUS
 10
4.1240077951
 20
11.6067267588
 40
1.25
100
AcDbArc
 50
186.3432158577
 51
187.6262927717
  0
ARC
  5
503
100
AcDbEntity
  8
0
100
AcDbCircle
 62
6
  6
CONTINUOUS
 10
4.1240077951
 20
11.6067267588
 40
1.25
100
AcDbArc
 50
188.3799505864
 51
189.6314689425
  0
ARC
  5
504
100
AcDbEntity
  8
0
100
AcDbCircle
 62
6
  6
CONTINUOUS
 10
4.1240077951
 20
11.6067267588
 40
1.25
100
AcDbArc
 50
192.35590925
 51
193.6220718147
  0
ARC
  5
505
100
AcDbEntity
  8
0
100
AcDbCircle
 62
6
  6
CONTINUOUS
 10
4.1240077951
 20
11.6067267588
 40
1.25
100
AcDbArc
 50
194.3788257178
 51
195.6404809001
  0
ARC
  5
506
100
AcDbEntity
  8
0
100
AcDbCircle
 62
6
  6
CONTINUOUS
 10
4.1240077951
 20
11.6067267588
 40
1.25
100
AcDbArc
 50
198.3658267513
 51
199.6201602281
  0
ARC
  5
507
100
AcDbEntity
  8
0
100
AcDbCircle
 62
6
  6
CONTINUOUS
 10
4.1240077951
 20
11.6067267588
 40
1.25
100
AcDbArc
 50
200.3753661691
 51
201.6522390156
  0
ARC
  5
508
100
AcDbEntity
  8
0
100
AcDbCircle
 62
6
  6
CONTINUOUS
 10
4.1240077951
 20
11.6067267588
 40
1.25
100
AcDbArc
 50
204.3730566434
 51
205.6206346886
  0
ARC
  5
509
100
AcDbEntity
  8
0
100
AcDbCircle
 62
6
  6
CONTINUOUS
 10
4.1240077951
 20
11.6067267588
 40
1.25
100
AcDbArc
 50
210.3776845215
 51
211.6235741685
  0
ARC
  5
50A
100
AcDbEntity
  8
0
100
AcDbCircle
 62
6
  6
CONTINUOUS
 10
4.1240077951
 20
11.6067267588
 40
1.25
100
AcDbArc
 50
216.3797934077
 51
217.6290600351
  0
ARC
  5
50B
100
AcDbEntity
  8
0
100
AcDbCircle
 62
6
  6
CONTINUOUS
 10
4.1240077951
 20
11.6067267588
 40
1.25
100
AcDbArc
 50
220.3519909909
 51
221.6232259259
  0
ARC
  5
50C
100
AcDbEntity
  8
0
100
AcDbCircle
 62
6
  6
CONTINUOUS
 10
4.1240077951
 20
11.6067267588
 40
1.25
100
AcDbArc
 50
222.3794638599
 51
223.637176156
  0
ARC
  5
50D
100
AcDbEntity
  8
0
100
AcDbCircle
 62
6
  6
CONTINUOUS
 10
4.1240077951
 20
11.6067267588
 40
1.25
100
AcDbArc
 50
226.362823844
 51
227.6205361401
  0
ARC
  5
50E
100
AcDbEntity
  8
0
100
AcDbCircle
 62
6
  6
CONTINUOUS
 10
4.1240077951
 20
11.6067267588
 40
1.25
100
AcDbArc
 50
228.3767740741
 51
229.6480090091
  0
ARC
  5
50F
100
AcDbEntity
  8
0
100
AcDbCircle
 62
6
  6
CONTINUOUS
 10
4.1240077951
 20
11.6067267588
 40
1.25
100
AcDbArc
 50
232.3709399649
 51
233.6202065923
  0
ARC
  5
510
100
AcDbEntity
  8
0
100
AcDbCircle
 62
6
  6
CONTINUOUS
 10
4.1240077951
 20
11.6067267588
 40
1.25
100
AcDbArc
 50
238.3764258315
 51
239.6223154785
  0
ARC
  5
511
100
AcDbEntity
  8
0
100
AcDbCircle
 62
6
  6
CONTINUOUS
 10
4.1240077951
 20
11.6067267588
 40
1.25
100
AcDbArc
 50
244.3793653114
 51
245.6269433566
  0
ARC
  5
512
100
AcDbEntity
  8
0
100
AcDbCircle
 62
6
  6
CONTINUOUS
 10
4.1240077951
 20
11.6067267588
 40
1.25
100
AcDbArc
 50
248.3477609844
 51
249.6246338309
  0
ARC
  5
513
100
AcDbEntity
  8
0
100
AcDbCircle
 62
6
  6
CONTINUOUS
 10
4.1240077951
 20
11.6067267588
 40
1.25
100
AcDbArc
 50
250.3798397719
 51
251.6341732487
  0
ARC
  5
514
100
AcDbEntity
  8
0
100
AcDbCircle
 62
6
  6
CONTINUOUS
 10
4.1240077951
 20
11.6067267588
 40
1.25
100
AcDbArc
 50
254.3595190999
 51
255.6211742822
  0
ARC
  5
515
100
AcDbEntity
  8
0
100
AcDbCircle
 62
6
  6
CONTINUOUS
 10
4.1240077951
 20
11.6067267588
 40
1.25
100
AcDbArc
 50
256.3779281853
 51
257.64409075
  0
ARC
  5
516
100
AcDbEntity
  8
0
100
AcDbCircle
 62
6
  6
CONTINUOUS
 10
4.1240077951
 20
11.6067267588
 40
1.25
100
AcDbArc
 50
260.3685310575
 51
261.6200494136
  0
ARC
  5
517
100
AcDbEntity
  8
0
100
AcDbCircle
 62
6
  6
CONTINUOUS
 10
4.1240077951
 20
11.6067267588
 40
1.25
100
AcDbArc
 50
262.3737072283
 51
263.6567841423
  0
ARC
  5
518
100
AcDbEntity
  8
0
100
AcDbCircle
 62
6
  6
CONTINUOUS
 10
4.1240077951
 20
11.6067267588
 40
1.25
100
AcDbArc
 50
264.3151756157
 51
265.6413670003
  0
ARC
  5
519
100
AcDbEntity
  8
0
100
AcDbCircle
 62
6
  6
CONTINUOUS
 10
4.1240077951
 20
11.6067267588
 40
1.25
100
AcDbArc
 50
266.3748842303
 51
267.6213366563
  0
ARC
  5
51A
100
AcDbEntity
  8
0
100
AcDbCircle
 62
6
  6
CONTINUOUS
 10
4.1240077951
 20
11.6067267588
 40
1.25
100
AcDbArc
 50
272.3786633437
 51
273.6251157697
  0
ARC
  5
51B
100
AcDbEntity
  8
0
100
AcDbCircle
 62
6
  6
CONTINUOUS
 10
4.1240077951
 20
11.6067267588
 40
1.25
100
AcDbArc
 50
274.3586329997
 51
275.6848243843
  0
ARC
  5
51C
100
AcDbEntity
  8
0
100
AcDbCircle
 62
6
  6
CONTINUOUS
 10
4.1240077951
 20
11.6067267588
 40
1.25
100
AcDbArc
 50
276.3432158577
 51
277.6262927717
  0
ARC
  5
51D
100
AcDbEntity
  8
0
100
AcDbCircle
 62
6
  6
CONTINUOUS
 10
4.1240077951
 20
11.6067267588
 40
1.25
100
AcDbArc
 50
278.3799505864
 51
279.6314689425
  0
ARC
  5
51E
100
AcDbEntity
  8
0
100
AcDbCircle
 62
6
  6
CONTINUOUS
 10
4.1240077951
 20
11.6067267588
 40
1.25
100
AcDbArc
 50
282.35590925
 51
283.6220718147
  0
ARC
  5
51F
100
AcDbEntity
  8
0
100
AcDbCircle
 62
6
  6
CONTINUOUS
 10
4.1240077951
 20
11.6067267588
 40
1.25
100
AcDbArc
 50
284.3788257178
 51
285.6404809001
  0
ARC
  5
520
100
AcDbEntity
  8
0
100
AcDbCircle
 62
6
  6
CONTINUOUS
 10
4.1240077951
 20
11.6067267588
 40
1.25
100
AcDbArc
 50
288.3658267513
 51
289.6201602281
  0
ARC
  5
521
100
AcDbEntity
  8
0
100
AcDbCircle
 62
6
  6
CONTINUOUS
 10
4.1240077951
 20
11.6067267588
 40
1.25
100
AcDbArc
 50
290.3753661691
 51
291.6522390156
  0
ARC
  5
522
100
AcDbEntity
  8
0
100
AcDbCircle
 62
6
  6
CONTINUOUS
 10
4.1240077951
 20
11.6067267588
 40
1.25
100
AcDbArc
 50
294.3730566434
 51
295.6206346886
  0
ARC
  5
523
100
AcDbEntity
  8
0
100
AcDbCircle
 62
6
  6
CONTINUOUS
 10
4.1240077951
 20
11.6067267588
 40
1.25
100
AcDbArc
 50
300.3776845215
 51
301.6235741685
  0
ARC
  5
524
100
AcDbEntity
  8
0
100
AcDbCircle
 62
6
  6
CONTINUOUS
 10
4.1240077951
 20
11.6067267588
 40
1.25
100
AcDbArc
 50
306.3797934077
 51
307.6290600351
  0
ARC
  5
525
100
AcDbEntity
  8
0
100
AcDbCircle
 62
6
  6
CONTINUOUS
 10
4.1240077951
 20
11.6067267588
 40
1.25
100
AcDbArc
 50
310.3519909909
 51
311.6232259259
  0
ARC
  5
526
100
AcDbEntity
  8
0
100
AcDbCircle
 62
6
  6
CONTINUOUS
 10
4.1240077951
 20
11.6067267588
 40
1.25
100
AcDbArc
 50
312.3794638599
 51
313.637176156
  0
ARC
  5
527
100
AcDbEntity
  8
0
100
AcDbCircle
 62
6
  6
CONTINUOUS
 10
4.1240077951
 20
11.6067267588
 40
1.25
100
AcDbArc
 50
316.362823844
 51
317.6205361401
  0
ARC
  5
528
100
AcDbEntity
  8
0
100
AcDbCircle
 62
6
  6
CONTINUOUS
 10
4.1240077951
 20
11.6067267588
 40
1.25
100
AcDbArc
 50
318.3767740741
 51
319.6480090091
  0
ARC
  5
529
100
AcDbEntity
  8
0
100
AcDbCircle
 62
6
  6
CONTINUOUS
 10
4.1240077951
 20
11.6067267588
 40
1.25
100
AcDbArc
 50
322.3709399649
 51
323.6202065923
  0
ARC
  5
52A
100
AcDbEntity
  8
0
100
AcDbCircle
 62
6
  6
CONTINUOUS
 10
4.1240077951
 20
11.6067267588
 40
1.25
100
AcDbArc
 50
328.3764258315
 51
329.6223154785
  0
ARC
  5
52B
100
AcDbEntity
  8
0
100
AcDbCircle
 62
6
  6
CONTINUOUS
 10
4.1240077951
 20
11.6067267588
 40
1.25
100
AcDbArc
 50
334.3793653114
 51
335.6269433566
  0
ARC
  5
52C
100
AcDbEntity
  8
0
100
AcDbCircle
 62
6
  6
CONTINUOUS
 10
4.1240077951
 20
11.6067267588
 40
1.25
100
AcDbArc
 50
338.3477609844
 51
339.6246338309
  0
ARC
  5
52D
100
AcDbEntity
  8
0
100
AcDbCircle
 62
6
  6
CONTINUOUS
 10
4.1240077951
 20
11.6067267588
 40
1.25
100
AcDbArc
 50
340.3798397719
 51
341.6341732487
  0
ARC
  5
52E
100
AcDbEntity
  8
0
100
AcDbCircle
 62
6
  6
CONTINUOUS
 10
4.1240077951
 20
11.6067267588
 40
1.25
100
AcDbArc
 50
344.3595190999
 51
345.5054069999
  0
ARC
  5
52F
100
AcDbEntity
  8
0
100
AcDbCircle
 62
6
  6
CONTINUOUS
 10
28.3770077951
 20
11.6067267588
 40
1.25
100
AcDbArc
 50
227.6875658564
 51
228.3124341436
  0
ARC
  5
530
100
AcDbEntity
  8
0
100
AcDbCircle
 62
6
  6
CONTINUOUS
 10
28.3770077951
 20
11.6067267588
 40
1.25
100
AcDbArc
 50
231.6875658564
 51
232.3124341436
  0
ARC
  5
531
100
AcDbEntity
  8
0
100
AcDbCircle
 62
6
  6
CONTINUOUS
 10
28.3770077951
 20
11.6067267588
 40
1.25
100
AcDbArc
 50
233.6875658564
 51
234.3124341436
  0
ARC
  5
532
100
AcDbEntity
  8
0
100
AcDbCircle
 62
6
  6
CONTINUOUS
 10
28.3770077951
 20
11.6067267588
 40
1.25
100
AcDbArc
 50
237.6875658564
 51
238.3124341436
  0
ARC
  5
533
100
AcDbEntity
  8
0
100
AcDbCircle
 62
6
  6
CONTINUOUS
 10
28.3770077951
 20
11.6067267588
 40
1.25
100
AcDbArc
 50
239.6875658564
 51
240.3124341436
  0
ARC
  5
534
100
AcDbEntity
  8
0
100
AcDbCircle
 62
6
  6
CONTINUOUS
 10
28.3770077951
 20
11.6067267588
 40
1.25
100
AcDbArc
 50
243.6875658564
 51
244.3124341436
  0
ARC
  5
535
100
AcDbEntity
  8
0
100
AcDbCircle
 62
6
  6
CONTINUOUS
 10
28.3770077951
 20
11.6067267588
 40
1.25
100
AcDbArc
 50
245.6875658564
 51
246.3124341436
  0
ARC
  5
536
100
AcDbEntity
  8
0
100
AcDbCircle
 62
6
  6
CONTINUOUS
 10
28.3770077951
 20
11.6067267588
 40
1.25
100
AcDbArc
 50
249.6875658564
 51
250.3124341436
  0
ARC
  5
537
100
AcDbEntity
  8
0
100
AcDbCircle
 62
6
  6
CONTINUOUS
 10
28.3770077951
 20
11.6067267588
 40
1.25
100
AcDbArc
 50
251.6875658564
 51
252.3124341436
  0
ARC
  5
538
100
AcDbEntity
  8
0
100
AcDbCircle
 62
6
  6
CONTINUOUS
 10
28.3770077951
 20
11.6067267588
 40
1.25
100
AcDbArc
 50
255.6875658564
 51
256.3124341436
  0
ARC
  5
539
100
AcDbEntity
  8
0
100
AcDbCircle
 62
6
  6
CONTINUOUS
 10
28.3770077951
 20
11.6067267588
 40
1.25
100
AcDbArc
 50
259.6875658564
 51
260.3124341436
  0
ARC
  5
53A
100
AcDbEntity
  8
0
100
AcDbCircle
 62
6
  6
CONTINUOUS
 10
28.3770077951
 20
11.6067267588
 40
1.25
100
AcDbArc
 50
261.6875658564
 51
262.3124341436
  0
ARC
  5
53B
100
AcDbEntity
  8
0
100
AcDbCircle
 62
6
  6
CONTINUOUS
 10
28.3770077951
 20
11.6067267588
 40
1.25
100
AcDbArc
 50
263.6875658564
 51
264.3124341436
  0
ARC
  5
53C
100
AcDbEntity
  8
0
100
AcDbCircle
 62
6
  6
CONTINUOUS
 10
28.3770077951
 20
11.6067267588
 40
1.25
100
AcDbArc
 50
265.6875658564
 51
266.3124341436
  0
ARC
  5
53D
100
AcDbEntity
  8
0
100
AcDbCircle
 62
6
  6
CONTINUOUS
 10
28.3770077951
 20
11.6067267588
 40
1.25
100
AcDbArc
 50
267.6875658564
 51
268.3124341436
  0
ARC
  5
53E
100
AcDbEntity
  8
0
100
AcDbCircle
 62
6
  6
CONTINUOUS
 10
28.3770077951
 20
11.6067267588
 40
1.25
100
AcDbArc
 50
271.6875658564
 51
272.3124341436
  0
ARC
  5
53F
100
AcDbEntity
  8
0
100
AcDbCircle
 62
6
  6
CONTINUOUS
 10
28.3770077951
 20
11.6067267588
 40
1.25
100
AcDbArc
 50
273.6875658564
 51
274.3124341436
  0
ARC
  5
540
100
AcDbEntity
  8
0
100
AcDbCircle
 62
6
  6
CONTINUOUS
 10
28.3770077951
 20
11.6067267588
 40
1.25
100
AcDbArc
 50
275.6875658564
 51
276.3124341436
  0
ARC
  5
541
100
AcDbEntity
  8
0
100
AcDbCircle
 62
6
  6
CONTINUOUS
 10
28.3770077951
 20
11.6067267588
 40
1.25
100
AcDbArc
 50
277.6875658564
 51
278.3124341436
  0
ARC
  5
542
100
AcDbEntity
  8
0
100
AcDbCircle
 62
6
  6
CONTINUOUS
 10
28.3770077951
 20
11.6067267588
 40
1.25
100
AcDbArc
 50
279.6875658564
 51
280.3124341436
  0
ARC
  5
543
100
AcDbEntity
  8
0
100
AcDbCircle
 62
6
  6
CONTINUOUS
 10
28.3770077951
 20
11.6067267588
 40
1.25
100
AcDbArc
 50
283.6875658564
 51
284.3124341436
  0
ARC
  5
544
100
AcDbEntity
  8
0
100
AcDbCircle
 62
6
  6
CONTINUOUS
 10
28.3770077951
 20
11.6067267588
 40
1.25
100
AcDbArc
 50
287.6875658564
 51
288.3124341436
  0
ARC
  5
545
100
AcDbEntity
  8
0
100
AcDbCircle
 62
6
  6
CONTINUOUS
 10
28.3770077951
 20
11.6067267588
 40
1.25
100
AcDbArc
 50
289.6875658564
 51
290.3124341436
  0
ARC
  5
546
100
AcDbEntity
  8
0
100
AcDbCircle
 62
6
  6
CONTINUOUS
 10
28.3770077951
 20
11.6067267588
 40
1.25
100
AcDbArc
 50
293.6875658564
 51
294.3124341436
  0
ARC
  5
547
100
AcDbEntity
  8
0
100
AcDbCircle
 62
6
  6
CONTINUOUS
 10
28.3770077951
 20
11.6067267588
 40
1.25
100
AcDbArc
 50
295.6875658564
 51
296.3124341436
  0
ARC
  5
548
100
AcDbEntity
  8
0
100
AcDbCircle
 62
6
  6
CONTINUOUS
 10
28.3770077951
 20
11.6067267588
 40
1.25
100
AcDbArc
 50
299.6875658564
 51
300.3124341436
  0
ARC
  5
549
100
AcDbEntity
  8
0
100
AcDbCircle
 62
6
  6
CONTINUOUS
 10
28.3770077951
 20
11.6067267588
 40
1.25
100
AcDbArc
 50
301.6875658564
 51
302.3124341436
  0
ARC
  5
54A
100
AcDbEntity
  8
0
100
AcDbCircle
 62
6
  6
CONTINUOUS
 10
28.3770077951
 20
11.6067267588
 40
1.25
100
AcDbArc
 50
305.6875658564
 51
306.3124341436
  0
ARC
  5
54B
100
AcDbEntity
  8
0
100
AcDbCircle
 62
6
  6
CONTINUOUS
 10
28.3770077951
 20
11.6067267588
 40
1.25
100
AcDbArc
 50
307.6875658564
 51
308.3124341436
  0
ARC
  5
54C
100
AcDbEntity
  8
0
100
AcDbCircle
 62
6
  6
CONTINUOUS
 10
28.3770077951
 20
11.6067267588
 40
1.25
100
AcDbArc
 50
311.6875658564
 51
312.3124341436
  0
ARC
  5
54D
100
AcDbEntity
  8
0
100
AcDbCircle
 62
6
  6
CONTINUOUS
 10
28.3770077951
 20
11.6067267588
 40
1.25
100
AcDbArc
 50
317.6875658564
 51
318.3124341436
  0
ARC
  5
54E
100
AcDbEntity
  8
0
100
AcDbCircle
 62
6
  6
CONTINUOUS
 10
28.3770077951
 20
11.6067267588
 40
1.25
100
AcDbArc
 50
321.6875658564
 51
322.3124341436
  0
ARC
  5
54F
100
AcDbEntity
  8
0
100
AcDbCircle
 62
6
  6
CONTINUOUS
 10
28.3770077951
 20
11.6067267588
 40
1.25
100
AcDbArc
 50
323.6875658564
 51
324.3124341436
  0
ARC
  5
550
100
AcDbEntity
  8
0
100
AcDbCircle
 62
6
  6
CONTINUOUS
 10
28.3770077951
 20
11.6067267588
 40
1.25
100
AcDbArc
 50
327.6875658564
 51
328.3124341436
  0
ARC
  5
551
100
AcDbEntity
  8
0
100
AcDbCircle
 62
6
  6
CONTINUOUS
 10
28.3770077951
 20
11.6067267588
 40
1.25
100
AcDbArc
 50
329.6875658564
 51
330.3124341436
  0
ARC
  5
552
100
AcDbEntity
  8
0
100
AcDbCircle
 62
6
  6
CONTINUOUS
 10
28.3770077951
 20
11.6067267588
 40
1.25
100
AcDbArc
 50
333.6875658564
 51
334.3124341436
  0
ARC
  5
553
100
AcDbEntity
  8
0
100
AcDbCircle
 62
6
  6
CONTINUOUS
 10
28.3770077951
 20
11.6067267588
 40
1.25
100
AcDbArc
 50
335.6875658564
 51
336.3124341436
  0
ARC
  5
554
100
AcDbEntity
  8
0
100
AcDbCircle
 62
6
  6
CONTINUOUS
 10
28.3770077951
 20
11.6067267588
 40
1.25
100
AcDbArc
 50
339.6875658564
 51
340.3124341436
  0
ARC
  5
555
100
AcDbEntity
  8
0
100
AcDbCircle
 62
6
  6
CONTINUOUS
 10
28.3770077951
 20
11.6067267588
 40
1.25
100
AcDbArc
 50
341.6875658564
 51
342.3124341436
  0
ARC
  5
556
100
AcDbEntity
  8
0
100
AcDbCircle
 62
6
  6
CONTINUOUS
 10
28.3770077951
 20
11.6067267588
 40
1.25
100
AcDbArc
 50
345.6875658564
 51
346.3124341436
  0
ARC
  5
557
100
AcDbEntity
  8
0
100
AcDbCircle
 62
6
  6
CONTINUOUS
 10
28.3770077951
 20
11.6067267588
 40
1.25
100
AcDbArc
 50
349.6875658564
 51
350.3124341436
  0
ARC
  5
558
100
AcDbEntity
  8
0
100
AcDbCircle
 62
6
  6
CONTINUOUS
 10
28.3770077951
 20
11.6067267588
 40
1.25
100
AcDbArc
 50
351.6875658564
 51
352.3124341436
  0
ARC
  5
559
100
AcDbEntity
  8
0
100
AcDbCircle
 62
6
  6
CONTINUOUS
 10
28.3770077951
 20
11.6067267588
 40
1.25
100
AcDbArc
 50
353.6875658564
 51
354.3124341436
  0
ARC
  5
55A
100
AcDbEntity
  8
0
100
AcDbCircle
 62
6
  6
CONTINUOUS
 10
28.3770077951
 20
11.6067267588
 40
1.25
100
AcDbArc
 50
355.6875658564
 51
356.3124341436
  0
ARC
  5
55B
100
AcDbEntity
  8
0
100
AcDbCircle
 62
6
  6
CONTINUOUS
 10
28.3770077951
 20
11.6067267588
 40
1.25
100
AcDbArc
 50
357.6875658564
 51
358.3124341436
  0
ARC
  5
55C
100
AcDbEntity
  8
0
100
AcDbCircle
 62
6
  6
CONTINUOUS
 10
28.3770077951
 20
11.6067267588
 40
1.25
100
AcDbArc
 50
1.6875658564
 51
2.3124341436
  0
ARC
  5
55D
100
AcDbEntity
  8
0
100
AcDbCircle
 62
6
  6
CONTINUOUS
 10
28.3770077951
 20
11.6067267588
 40
1.25
100
AcDbArc
 50
3.6875658564
 51
4.3124341436
  0
ARC
  5
55E
100
AcDbEntity
  8
0
100
AcDbCircle
 62
6
  6
CONTINUOUS
 10
28.3770077951
 20
11.6067267588
 40
1.25
100
AcDbArc
 50
5.6875658564
 51
6.3124341436
  0
ARC
  5
55F
100
AcDbEntity
  8
0
100
AcDbCircle
 62
6
  6
CONTINUOUS
 10
28.3770077951
 20
11.6067267588
 40
1.25
100
AcDbArc
 50
7.6875658564
 51
8.3124341436
  0
ARC
  5
560
100
AcDbEntity
  8
0
100
AcDbCircle
 62
6
  6
CONTINUOUS
 10
28.3770077951
 20
11.6067267588
 40
1.25
100
AcDbArc
 50
9.6875658564
 51
10.3124341436
  0
ARC
  5
561
100
AcDbEntity
  8
0
100
AcDbCircle
 62
6
  6
CONTINUOUS
 10
28.3770077951
 20
11.6067267588
 40
1.25
100
AcDbArc
 50
13.6875658564
 51
14.3124341436
  0
ARC
  5
562
100
AcDbEntity
  8
0
100
AcDbCircle
 62
6
  6
CONTINUOUS
 10
28.3770077951
 20
11.6067267588
 40
1.25
100
AcDbArc
 50
17.6875658564
 51
18.3124341436
  0
ARC
  5
563
100
AcDbEntity
  8
0
100
AcDbCircle
 62
6
  6
CONTINUOUS
 10
28.3770077951
 20
11.6067267588
 40
1.25
100
AcDbArc
 50
19.6875658564
 51
20.3124341436
  0
ARC
  5
564
100
AcDbEntity
  8
0
100
AcDbCircle
 62
6
  6
CONTINUOUS
 10
28.3770077951
 20
11.6067267588
 40
1.25
100
AcDbArc
 50
23.6875658564
 51
24.3124341436
  0
ARC
  5
565
100
AcDbEntity
  8
0
100
AcDbCircle
 62
6
  6
CONTINUOUS
 10
28.3770077951
 20
11.6067267588
 40
1.25
100
AcDbArc
 50
25.6875658564
 51
26.3124341436
  0
ARC
  5
566
100
AcDbEntity
  8
0
100
AcDbCircle
 62
6
  6
CONTINUOUS
 10
28.3770077951
 20
11.6067267588
 40
1.25
100
AcDbArc
 50
29.6875658564
 51
30.3124341436
  0
ARC
  5
567
100
AcDbEntity
  8
0
100
AcDbCircle
 62
6
  6
CONTINUOUS
 10
4.1240077951
 20
11.6067267588
 40
1.25
100
AcDbArc
 50
41.6875658564
 51
42.3124341436
  0
ARC
  5
568
100
AcDbEntity
  8
0
100
AcDbCircle
 62
6
  6
CONTINUOUS
 10
28.3770077951
 20
11.6067267588
 40
1.25
100
AcDbArc
 50
31.6875658564
 51
32.3124341436
  0
ARC
  5
569
100
AcDbEntity
  8
0
100
AcDbCircle
 62
6
  6
CONTINUOUS
 10
4.1240077951
 20
11.6067267588
 40
1.25
100
AcDbArc
 50
38.3517208288
 51
40.3124341436
  0
ARC
  5
56A
100
AcDbEntity
  8
0
100
AcDbCircle
 62
6
  6
CONTINUOUS
 10
4.1240077951
 20
11.6067267588
 40
1.25
100
AcDbArc
 50
37.6875658564
 51
38.3124341436
  0
ARC
  5
56B
100
AcDbEntity
  8
0
100
AcDbCircle
 62
6
  6
CONTINUOUS
 10
4.1240077951
 20
11.6067267588
 40
1.25
100
AcDbArc
 50
35.6875658564
 51
36.3124341436
  0
ARC
  5
56C
100
AcDbEntity
  8
0
100
AcDbCircle
 62
6
  6
CONTINUOUS
 10
28.3770077951
 20
11.6067267588
 40
1.25
100
AcDbArc
 50
35.6875658564
 51
36.3124341436
  0
ARC
  5
56D
100
AcDbEntity
  8
0
100
AcDbCircle
 62
6
  6
CONTINUOUS
 10
4.1240077951
 20
11.6067267588
 40
1.25
100
AcDbArc
 50
32.3617416902
 51
35.6282000166
  0
ARC
  5
56E
100
AcDbEntity
  8
0
100
AcDbCircle
 62
6
  6
CONTINUOUS
 10
4.1240077951
 20
11.6067267588
 40
1.25
100
AcDbArc
 50
31.6875658564
 51
32.3124341436
  0
ARC
  5
56F
100
AcDbEntity
  8
0
100
AcDbCircle
 62
6
  6
CONTINUOUS
 10
28.3770077951
 20
11.6067267588
 40
1.25
100
AcDbArc
 50
37.6875658564
 51
38.3124341436
  0
ARC
  5
570
100
AcDbEntity
  8
0
100
AcDbCircle
 62
6
  6
CONTINUOUS
 10
4.1240077951
 20
11.6067267588
 40
1.25
100
AcDbArc
 50
29.6875658564
 51
30.3124341436
  0
ARC
  5
571
100
AcDbEntity
  8
0
100
AcDbCircle
 62
6
  6
CONTINUOUS
 10
4.1240077951
 20
11.6067267588
 40
1.25
100
AcDbArc
 50
26.3696471399
 51
29.6353846488
  0
ARC
  5
572
100
AcDbEntity
  8
0
100
AcDbCircle
 62
6
  6
CONTINUOUS
 10
4.1240077951
 20
11.6067267588
 40
1.25
100
AcDbArc
 50
25.6875658564
 51
26.3124341436
  0
ARC
  5
573
100
AcDbEntity
  8
0
100
AcDbCircle
 62
6
  6
CONTINUOUS
 10
4.1240077951
 20
11.6067267588
 40
1.25
100
AcDbArc
 50
23.6875658564
 51
24.3124341436
  0
ARC
  5
574
100
AcDbEntity
  8
0
100
AcDbCircle
 62
6
  6
CONTINUOUS
 10
4.1240077951
 20
11.6067267588
 40
1.25
100
AcDbArc
 50
21.6875658564
 51
23.6447081397
  0
ARC
  5
575
100
AcDbEntity
  8
0
100
AcDbCircle
 62
6
  6
CONTINUOUS
 10
4.1240077951
 20
11.6067267588
 40
1.25
100
AcDbArc
 50
19.6875658564
 51
20.3124341436
  0
ARC
  5
576
100
AcDbEntity
  8
0
100
AcDbCircle
 62
6
  6
CONTINUOUS
 10
28.3770077951
 20
11.6067267588
 40
1.25
100
AcDbArc
 50
41.6875658564
 51
42.3124341436
  0
ARC
  5
577
100
AcDbEntity
  8
0
100
AcDbCircle
 62
6
  6
CONTINUOUS
 10
4.1240077951
 20
11.6067267588
 40
1.25
100
AcDbArc
 50
17.6875658564
 51
18.3124341436
  0
ARC
  5
578
100
AcDbEntity
  8
0
100
AcDbCircle
 62
6
  6
CONTINUOUS
 10
4.1240077951
 20
11.6067267588
 40
1.25
100
AcDbArc
 50
15.6875658564
 51
17.6561008017
  0
ARC
  5
579
100
AcDbEntity
  8
0
100
AcDbCircle
 62
6
  6
CONTINUOUS
 10
4.1240077951
 20
11.6067267588
 40
1.25
100
AcDbArc
 50
342.3438991983
 51
344.3124341436
  0
ARC
  5
57A
100
AcDbEntity
  8
0
100
AcDbCircle
 62
6
  6
CONTINUOUS
 10
4.1240077951
 20
11.6067267588
 40
1.25
100
AcDbArc
 50
341.6875658564
 51
342.3124341436
  0
ARC
  5
57B
100
AcDbEntity
  8
0
100
AcDbCircle
 62
6
  6
CONTINUOUS
 10
4.1240077951
 20
11.6067267588
 40
1.25
100
AcDbArc
 50
339.6875658564
 51
340.3124341436
  0
ARC
  5
57C
100
AcDbEntity
  8
0
100
AcDbCircle
 62
6
  6
CONTINUOUS
 10
4.1240077951
 20
11.6067267588
 40
1.25
100
AcDbArc
 50
336.3552918603
 51
338.3124341436
  0
ARC
  5
57D
100
AcDbEntity
  8
0
100
AcDbCircle
 62
6
  6
CONTINUOUS
 10
4.1240077951
 20
11.6067267588
 40
1.25
100
AcDbArc
 50
335.6875658564
 51
336.3124341436
  0
ARC
  5
57E
100
AcDbEntity
  8
0
100
AcDbCircle
 62
6
  6
CONTINUOUS
 10
4.1240077951
 20
11.6067267588
 40
1.25
100
AcDbArc
 50
333.6875658564
 51
334.3124341436
  0
ARC
  5
57F
100
AcDbEntity
  8
0
100
AcDbCircle
 62
6
  6
CONTINUOUS
 10
4.1240077951
 20
11.6067267588
 40
1.25
100
AcDbArc
 50
330.3646153512
 51
333.6303528601
  0
ARC
  5
580
100
AcDbEntity
  8
0
100
AcDbCircle
 62
6
  6
CONTINUOUS
 10
4.1240077951
 20
11.6067267588
 40
1.25
100
AcDbArc
 50
329.6875658564
 51
330.3124341436
  0
ARC
  5
581
100
AcDbEntity
  8
0
100
AcDbCircle
 62
6
  6
CONTINUOUS
 10
4.1240077951
 20
11.6067267588
 40
1.25
100
AcDbArc
 50
327.6875658564
 51
328.3124341436
  0
ARC
  5
582
100
AcDbEntity
  8
0
100
AcDbCircle
 62
6
  6
CONTINUOUS
 10
4.1240077951
 20
11.6067267588
 40
1.25
100
AcDbArc
 50
324.3717999834
 51
327.6382583098
  0
ARC
  5
583
100
AcDbEntity
  8
0
100
AcDbCircle
 62
6
  6
CONTINUOUS
 10
4.1240077951
 20
11.6067267588
 40
1.25
100
AcDbArc
 50
323.6875658564
 51
324.3124341436
  0
ARC
  5
584
100
AcDbEntity
  8
0
100
AcDbCircle
 62
6
  6
CONTINUOUS
 10
4.1240077951
 20
11.6067267588
 40
1.25
100
AcDbArc
 50
321.6875658564
 51
322.3124341436
  0
ARC
  5
585
100
AcDbEntity
  8
0
100
AcDbCircle
 62
6
  6
CONTINUOUS
 10
4.1240077951
 20
11.6067267588
 40
1.25
100
AcDbArc
 50
319.6875658564
 51
321.6482791712
  0
ARC
  5
586
100
AcDbEntity
  8
0
100
AcDbCircle
 62
6
  6
CONTINUOUS
 10
4.1240077951
 20
11.6067267588
 40
1.25
100
AcDbArc
 50
317.6875658564
 51
318.3124341436
  0
ARC
  5
587
100
AcDbEntity
  8
0
100
AcDbCircle
 62
6
  6
CONTINUOUS
 10
4.1240077951
 20
11.6067267588
 40
1.25
100
AcDbArc
 50
313.6875658564
 51
316.3124341436
  0
ARC
  5
588
100
AcDbEntity
  8
0
100
AcDbCircle
 62
6
  6
CONTINUOUS
 10
4.1240077951
 20
11.6067267588
 40
1.25
100
AcDbArc
 50
311.6875658564
 51
312.3124341436
  0
ARC
  5
589
100
AcDbEntity
  8
0
100
AcDbCircle
 62
6
  6
CONTINUOUS
 10
4.1240077951
 20
11.6067267588
 40
1.25
100
AcDbArc
 50
308.3517208288
 51
310.3124341436
  0
ARC
  5
58A
100
AcDbEntity
  8
0
100
AcDbCircle
 62
6
  6
CONTINUOUS
 10
4.1240077951
 20
11.6067267588
 40
1.25
100
AcDbArc
 50
307.6875658564
 51
308.3124341436
  0
ARC
  5
58B
100
AcDbEntity
  8
0
100
AcDbCircle
 62
6
  6
CONTINUOUS
 10
4.1240077951
 20
11.6067267588
 40
1.25
100
AcDbArc
 50
305.6875658564
 51
306.3124341436
  0
ARC
  5
58C
100
AcDbEntity
  8
0
100
AcDbCircle
 62
6
  6
CONTINUOUS
 10
4.1240077951
 20
11.6067267588
 40
1.25
100
AcDbArc
 50
302.3617416902
 51
305.6282000166
  0
ARC
  5
58D
100
AcDbEntity
  8
0
100
AcDbCircle
 62
6
  6
CONTINUOUS
 10
4.1240077951
 20
11.6067267588
 40
1.25
100
AcDbArc
 50
301.6875658564
 51
302.3124341436
  0
ARC
  5
58E
100
AcDbEntity
  8
0
100
AcDbCircle
 62
6
  6
CONTINUOUS
 10
4.1240077951
 20
11.6067267588
 40
1.25
100
AcDbArc
 50
299.6875658564
 51
300.3124341436
  0
ARC
  5
58F
100
AcDbEntity
  8
0
100
AcDbCircle
 62
6
  6
CONTINUOUS
 10
4.1240077951
 20
11.6067267588
 40
1.25
100
AcDbArc
 50
296.3696471399
 51
299.6353846488
  0
ARC
  5
590
100
AcDbEntity
  8
0
100
AcDbCircle
 62
6
  6
CONTINUOUS
 10
4.1240077951
 20
11.6067267588
 40
1.25
100
AcDbArc
 50
295.6875658564
 51
296.3124341436
  0
ARC
  5
591
100
AcDbEntity
  8
0
100
AcDbCircle
 62
6
  6
CONTINUOUS
 10
4.1240077951
 20
11.6067267588
 40
1.25
100
AcDbArc
 50
293.6875658564
 51
294.3124341436
  0
ARC
  5
592
100
AcDbEntity
  8
0
100
AcDbCircle
 62
6
  6
CONTINUOUS
 10
4.1240077951
 20
11.6067267588
 40
1.25
100
AcDbArc
 50
291.6875658564
 51
293.6447081397
  0
ARC
  5
593
100
AcDbEntity
  8
0
100
AcDbCircle
 62
6
  6
CONTINUOUS
 10
4.1240077951
 20
11.6067267588
 40
1.25
100
AcDbArc
 50
289.6875658564
 51
290.3124341436
  0
ARC
  5
594
100
AcDbEntity
  8
0
100
AcDbCircle
 62
6
  6
CONTINUOUS
 10
4.1240077951
 20
11.6067267588
 40
1.25
100
AcDbArc
 50
287.6875658564
 51
288.3124341436
  0
ARC
  5
595
100
AcDbEntity
  8
0
100
AcDbCircle
 62
6
  6
CONTINUOUS
 10
4.1240077951
 20
11.6067267588
 40
1.25
100
AcDbArc
 50
285.6875658564
 51
287.6561008017
  0
ARC
  5
596
100
AcDbEntity
  8
0
100
AcDbCircle
 62
6
  6
CONTINUOUS
 10
4.1240077951
 20
11.6067267588
 40
1.25
100
AcDbArc
 50
283.6875658564
 51
284.3124341436
  0
ARC
  5
597
100
AcDbEntity
  8
0
100
AcDbCircle
 62
6
  6
CONTINUOUS
 10
4.1240077951
 20
11.6067267588
 40
1.25
100
AcDbArc
 50
280.3479224382
 51
282.3124341436
  0
ARC
  5
598
100
AcDbEntity
  8
0
100
AcDbCircle
 62
6
  6
CONTINUOUS
 10
4.1240077951
 20
11.6067267588
 40
1.25
100
AcDbArc
 50
279.6875658564
 51
280.3124341436
  0
ARC
  5
599
100
AcDbEntity
  8
0
100
AcDbCircle
 62
6
  6
CONTINUOUS
 10
4.1240077951
 20
11.6067267588
 40
1.25
100
AcDbArc
 50
277.6875658564
 51
278.3124341436
  0
ARC
  5
59A
100
AcDbEntity
  8
0
100
AcDbCircle
 62
6
  6
CONTINUOUS
 10
4.1240077951
 20
11.6067267588
 40
1.25
100
AcDbArc
 50
275.6875658564
 51
276.3124341436
  0
ARC
  5
59B
100
AcDbEntity
  8
0
100
AcDbCircle
 62
6
  6
CONTINUOUS
 10
4.1240077951
 20
11.6067267588
 40
1.25
100
AcDbArc
 50
273.6875658564
 51
274.3124341436
  0
ARC
  5
59C
100
AcDbEntity
  8
0
100
AcDbCircle
 62
6
  6
CONTINUOUS
 10
4.1240077951
 20
11.6067267588
 40
1.25
100
AcDbArc
 50
271.6875658564
 51
272.3124341436
  0
ARC
  5
59D
100
AcDbEntity
  8
0
100
AcDbCircle
 62
6
  6
CONTINUOUS
 10
4.1240077951
 20
11.6067267588
 40
1.25
100
AcDbArc
 50
268.3672513776
 51
271.6327486224
  0
ARC
  5
59E
100
AcDbEntity
  8
0
100
AcDbCircle
 62
6
  6
CONTINUOUS
 10
4.1240077951
 20
11.6067267588
 40
1.25
100
AcDbArc
 50
267.6875658564
 51
268.3124341436
  0
ARC
  5
59F
100
AcDbEntity
  8
0
100
AcDbCircle
 62
6
  6
CONTINUOUS
 10
4.1240077951
 20
11.6067267588
 40
1.25
100
AcDbArc
 50
265.6875658564
 51
266.3124341436
  0
ARC
  5
5A0
100
AcDbEntity
  8
0
100
AcDbCircle
 62
6
  6
CONTINUOUS
 10
4.1240077951
 20
11.6067267588
 40
1.25
100
AcDbArc
 50
263.6875658564
 51
264.3124341436
  0
ARC
  5
5A1
100
AcDbEntity
  8
0
100
AcDbCircle
 62
6
  6
CONTINUOUS
 10
4.1240077951
 20
11.6067267588
 40
1.25
100
AcDbArc
 50
261.6875658564
 51
262.3124341436
  0
ARC
  5
5A2
100
AcDbEntity
  8
0
100
AcDbCircle
 62
6
  6
CONTINUOUS
 10
4.1240077951
 20
11.6067267588
 40
1.25
100
AcDbArc
 50
259.6875658564
 51
260.3124341436
  0
ARC
  5
5A3
100
AcDbEntity
  8
0
100
AcDbCircle
 62
6
  6
CONTINUOUS
 10
4.1240077951
 20
11.6067267588
 40
1.25
100
AcDbArc
 50
257.6875658564
 51
259.6520775618
  0
ARC
  5
5A4
100
AcDbEntity
  8
0
100
AcDbCircle
 62
6
  6
CONTINUOUS
 10
4.1240077951
 20
11.6067267588
 40
1.25
100
AcDbArc
 50
255.6875658564
 51
256.3124341436
  0
ARC
  5
5A5
100
AcDbEntity
  8
0
100
AcDbCircle
 62
6
  6
CONTINUOUS
 10
4.1240077951
 20
11.6067267588
 40
1.25
100
AcDbArc
 50
252.3438991983
 51
254.3124341436
  0
ARC
  5
5A6
100
AcDbEntity
  8
0
100
AcDbCircle
 62
6
  6
CONTINUOUS
 10
4.1240077951
 20
11.6067267588
 40
1.25
100
AcDbArc
 50
251.6875658564
 51
252.3124341436
  0
ARC
  5
5A7
100
AcDbEntity
  8
0
100
AcDbCircle
 62
6
  6
CONTINUOUS
 10
4.1240077951
 20
11.6067267588
 40
1.25
100
AcDbArc
 50
249.6875658564
 51
250.3124341436
  0
ARC
  5
5A8
100
AcDbEntity
  8
0
100
AcDbCircle
 62
6
  6
CONTINUOUS
 10
4.1240077951
 20
11.6067267588
 40
1.25
100
AcDbArc
 50
246.3552918603
 51
248.3124341436
  0
ARC
  5
5A9
100
AcDbEntity
  8
0
100
AcDbCircle
 62
6
  6
CONTINUOUS
 10
4.1240077951
 20
11.6067267588
 40
1.25
100
AcDbArc
 50
245.6875658564
 51
246.3124341436
  0
ARC
  5
5AA
100
AcDbEntity
  8
0
100
AcDbCircle
 62
6
  6
CONTINUOUS
 10
4.1240077951
 20
11.6067267588
 40
1.25
100
AcDbArc
 50
243.6875658564
 51
244.3124341436
  0
ARC
  5
5AB
100
AcDbEntity
  8
0
100
AcDbCircle
 62
6
  6
CONTINUOUS
 10
4.1240077951
 20
11.6067267588
 40
1.25
100
AcDbArc
 50
240.3646153512
 51
243.6303528601
  0
ARC
  5
5AC
100
AcDbEntity
  8
0
100
AcDbCircle
 62
6
  6
CONTINUOUS
 10
4.1240077951
 20
11.6067267588
 40
1.25
100
AcDbArc
 50
239.6875658564
 51
240.3124341436
  0
ARC
  5
5AD
100
AcDbEntity
  8
0
100
AcDbCircle
 62
6
  6
CONTINUOUS
 10
4.1240077951
 20
11.6067267588
 40
1.25
100
AcDbArc
 50
237.6875658564
 51
238.3124341436
  0
ARC
  5
5AE
100
AcDbEntity
  8
0
100
AcDbCircle
 62
6
  6
CONTINUOUS
 10
4.1240077951
 20
11.6067267588
 40
1.25
100
AcDbArc
 50
234.3717999834
 51
237.6382583098
  0
ARC
  5
5AF
100
AcDbEntity
  8
0
100
AcDbCircle
 62
6
  6
CONTINUOUS
 10
4.1240077951
 20
11.6067267588
 40
1.25
100
AcDbArc
 50
233.6875658564
 51
234.3124341436
  0
ARC
  5
5B0
100
AcDbEntity
  8
0
100
AcDbCircle
 62
6
  6
CONTINUOUS
 10
4.1240077951
 20
11.6067267588
 40
1.25
100
AcDbArc
 50
231.6875658564
 51
232.3124341436
  0
ARC
  5
5B1
100
AcDbEntity
  8
0
100
AcDbCircle
 62
6
  6
CONTINUOUS
 10
4.1240077951
 20
11.6067267588
 40
1.25
100
AcDbArc
 50
229.6875658564
 51
231.6482791712
  0
ARC
  5
5B2
100
AcDbEntity
  8
0
100
AcDbCircle
 62
6
  6
CONTINUOUS
 10
4.1240077951
 20
11.6067267588
 40
1.25
100
AcDbArc
 50
227.6875658564
 51
228.3124341436
  0
ARC
  5
5B3
100
AcDbEntity
  8
0
100
AcDbCircle
 62
6
  6
CONTINUOUS
 10
4.1240077951
 20
11.6067267588
 40
1.25
100
AcDbArc
 50
223.6875658564
 51
226.3124341436
  0
ARC
  5
5B4
100
AcDbEntity
  8
0
100
AcDbCircle
 62
6
  6
CONTINUOUS
 10
4.1240077951
 20
11.6067267588
 40
1.25
100
AcDbArc
 50
221.6875658564
 51
222.3124341436
  0
ARC
  5
5B5
100
AcDbEntity
  8
0
100
AcDbCircle
 62
6
  6
CONTINUOUS
 10
4.1240077951
 20
11.6067267588
 40
1.25
100
AcDbArc
 50
218.3517208288
 51
220.3124341436
  0
ARC
  5
5B6
100
AcDbEntity
  8
0
100
AcDbCircle
 62
6
  6
CONTINUOUS
 10
4.1240077951
 20
11.6067267588
 40
1.25
100
AcDbArc
 50
217.6875658564
 51
218.3124341436
  0
ARC
  5
5B7
100
AcDbEntity
  8
0
100
AcDbCircle
 62
6
  6
CONTINUOUS
 10
4.1240077951
 20
11.6067267588
 40
1.25
100
AcDbArc
 50
215.6875658564
 51
216.3124341436
  0
ARC
  5
5B8
100
AcDbEntity
  8
0
100
AcDbCircle
 62
6
  6
CONTINUOUS
 10
4.1240077951
 20
11.6067267588
 40
1.25
100
AcDbArc
 50
212.3617416902
 51
215.6282000166
  0
ARC
  5
5B9
100
AcDbEntity
  8
0
100
AcDbCircle
 62
6
  6
CONTINUOUS
 10
4.1240077951
 20
11.6067267588
 40
1.25
100
AcDbArc
 50
211.6875658564
 51
212.3124341436
  0
ARC
  5
5BA
100
AcDbEntity
  8
0
100
AcDbCircle
 62
6
  6
CONTINUOUS
 10
4.1240077951
 20
11.6067267588
 40
1.25
100
AcDbArc
 50
209.6875658564
 51
210.3124341436
  0
ARC
  5
5BB
100
AcDbEntity
  8
0
100
AcDbCircle
 62
6
  6
CONTINUOUS
 10
4.1240077951
 20
11.6067267588
 40
1.25
100
AcDbArc
 50
206.3696471399
 51
209.6353846488
  0
ARC
  5
5BC
100
AcDbEntity
  8
0
100
AcDbCircle
 62
6
  6
CONTINUOUS
 10
4.1240077951
 20
11.6067267588
 40
1.25
100
AcDbArc
 50
205.6875658564
 51
206.3124341436
  0
ARC
  5
5BD
100
AcDbEntity
  8
0
100
AcDbCircle
 62
6
  6
CONTINUOUS
 10
4.1240077951
 20
11.6067267588
 40
1.25
100
AcDbArc
 50
203.6875658564
 51
204.3124341436
  0
ARC
  5
5BE
100
AcDbEntity
  8
0
100
AcDbCircle
 62
6
  6
CONTINUOUS
 10
4.1240077951
 20
11.6067267588
 40
1.25
100
AcDbArc
 50
201.6875658564
 51
203.6447081397
  0
ARC
  5
5BF
100
AcDbEntity
  8
0
100
AcDbCircle
 62
6
  6
CONTINUOUS
 10
4.1240077951
 20
11.6067267588
 40
1.25
100
AcDbArc
 50
199.6875658564
 51
200.3124341436
  0
ARC
  5
5C0
100
AcDbEntity
  8
0
100
AcDbCircle
 62
6
  6
CONTINUOUS
 10
4.1240077951
 20
11.6067267588
 40
1.25
100
AcDbArc
 50
197.6875658564
 51
198.3124341436
  0
ARC
  5
5C1
100
AcDbEntity
  8
0
100
AcDbCircle
 62
6
  6
CONTINUOUS
 10
4.1240077951
 20
11.6067267588
 40
1.25
100
AcDbArc
 50
195.6875658564
 51
197.6561008017
  0
ARC
  5
5C2
100
AcDbEntity
  8
0
100
AcDbCircle
 62
6
  6
CONTINUOUS
 10
4.1240077951
 20
11.6067267588
 40
1.25
100
AcDbArc
 50
193.6875658564
 51
194.3124341436
  0
ARC
  5
5C3
100
AcDbEntity
  8
0
100
AcDbCircle
 62
6
  6
CONTINUOUS
 10
4.1240077951
 20
11.6067267588
 40
1.25
100
AcDbArc
 50
190.3479224382
 51
192.3124341436
  0
ARC
  5
5C4
100
AcDbEntity
  8
0
100
AcDbCircle
 62
6
  6
CONTINUOUS
 10
4.1240077951
 20
11.6067267588
 40
1.25
100
AcDbArc
 50
189.6875658564
 51
190.3124341436
  0
ARC
  5
5C5
100
AcDbEntity
  8
0
100
AcDbCircle
 62
6
  6
CONTINUOUS
 10
4.1240077951
 20
11.6067267588
 40
1.25
100
AcDbArc
 50
187.6875658564
 51
188.3124341436
  0
ARC
  5
5C6
100
AcDbEntity
  8
0
100
AcDbCircle
 62
6
  6
CONTINUOUS
 10
4.1240077951
 20
11.6067267588
 40
1.25
100
AcDbArc
 50
185.6875658564
 51
186.3124341436
  0
ARC
  5
5C7
100
AcDbEntity
  8
0
100
AcDbCircle
 62
6
  6
CONTINUOUS
 10
4.1240077951
 20
11.6067267588
 40
1.25
100
AcDbArc
 50
183.6875658564
 51
184.3124341436
  0
ARC
  5
5C8
100
AcDbEntity
  8
0
100
AcDbCircle
 62
6
  6
CONTINUOUS
 10
4.1240077951
 20
11.6067267588
 40
1.25
100
AcDbArc
 50
181.6875658564
 51
182.3124341436
  0
ARC
  5
5C9
100
AcDbEntity
  8
0
100
AcDbCircle
 62
6
  6
CONTINUOUS
 10
4.1240077951
 20
11.6067267588
 40
1.25
100
AcDbArc
 50
178.3672513776
 51
181.6327486224
  0
ARC
  5
5CA
100
AcDbEntity
  8
0
100
AcDbCircle
 62
6
  6
CONTINUOUS
 10
4.1240077951
 20
11.6067267588
 40
1.25
100
AcDbArc
 50
177.6875658564
 51
178.3124341436
  0
ARC
  5
5CB
100
AcDbEntity
  8
0
100
AcDbCircle
 62
6
  6
CONTINUOUS
 10
4.1240077951
 20
11.6067267588
 40
1.25
100
AcDbArc
 50
175.6875658564
 51
176.3124341436
  0
ARC
  5
5CC
100
AcDbEntity
  8
0
100
AcDbCircle
 62
6
  6
CONTINUOUS
 10
4.1240077951
 20
11.6067267588
 40
1.25
100
AcDbArc
 50
173.6875658564
 51
174.3124341436
  0
ARC
  5
5CD
100
AcDbEntity
  8
0
100
AcDbCircle
 62
6
  6
CONTINUOUS
 10
4.1240077951
 20
11.6067267588
 40
1.25
100
AcDbArc
 50
171.6875658564
 51
172.3124341436
  0
ARC
  5
5CE
100
AcDbEntity
  8
0
100
AcDbCircle
 62
6
  6
CONTINUOUS
 10
4.1240077951
 20
11.6067267588
 40
1.25
100
AcDbArc
 50
169.6875658564
 51
170.3124341436
  0
ARC
  5
5CF
100
AcDbEntity
  8
0
100
AcDbCircle
 62
6
  6
CONTINUOUS
 10
4.1240077951
 20
11.6067267588
 40
1.25
100
AcDbArc
 50
167.6875658564
 51
169.6520775618
  0
ARC
  5
5D0
100
AcDbEntity
  8
0
100
AcDbCircle
 62
6
  6
CONTINUOUS
 10
4.1240077951
 20
11.6067267588
 40
1.25
100
AcDbArc
 50
165.6875658564
 51
166.3124341436
  0
ARC
  5
5D1
100
AcDbEntity
  8
0
100
AcDbCircle
 62
6
  6
CONTINUOUS
 10
4.1240077951
 20
11.6067267588
 40
1.25
100
AcDbArc
 50
162.3438991983
 51
164.3124341436
  0
ARC
  5
5D2
100
AcDbEntity
  8
0
100
AcDbCircle
 62
6
  6
CONTINUOUS
 10
4.1240077951
 20
11.6067267588
 40
1.25
100
AcDbArc
 50
161.6875658564
 51
162.3124341436
  0
ARC
  5
5D3
100
AcDbEntity
  8
0
100
AcDbCircle
 62
6
  6
CONTINUOUS
 10
4.1240077951
 20
11.6067267588
 40
1.25
100
AcDbArc
 50
159.6875658564
 51
160.3124341436
  0
ARC
  5
5D4
100
AcDbEntity
  8
0
100
AcDbCircle
 62
6
  6
CONTINUOUS
 10
4.1240077951
 20
11.6067267588
 40
1.25
100
AcDbArc
 50
156.3552918603
 51
158.3124341436
  0
ARC
  5
5D5
100
AcDbEntity
  8
0
100
AcDbCircle
 62
6
  6
CONTINUOUS
 10
4.1240077951
 20
11.6067267588
 40
1.25
100
AcDbArc
 50
155.6875658564
 51
156.3124341436
  0
ARC
  5
5D6
100
AcDbEntity
  8
0
100
AcDbCircle
 62
6
  6
CONTINUOUS
 10
4.1240077951
 20
11.6067267588
 40
1.25
100
AcDbArc
 50
153.6875658564
 51
154.3124341436
  0
ARC
  5
5D7
100
AcDbEntity
  8
0
100
AcDbCircle
 62
6
  6
CONTINUOUS
 10
4.1240077951
 20
11.6067267588
 40
1.25
100
AcDbArc
 50
150.3646153512
 51
153.6303528601
  0
ARC
  5
5D8
100
AcDbEntity
  8
0
100
AcDbCircle
 62
6
  6
CONTINUOUS
 10
4.1240077951
 20
11.6067267588
 40
1.25
100
AcDbArc
 50
149.6875658564
 51
150.3124341436
  0
ARC
  5
5D9
100
AcDbEntity
  8
0
100
AcDbCircle
 62
6
  6
CONTINUOUS
 10
4.1240077951
 20
11.6067267588
 40
1.25
100
AcDbArc
 50
147.6875658564
 51
148.3124341436
  0
ARC
  5
5DA
100
AcDbEntity
  8
0
100
AcDbCircle
 62
6
  6
CONTINUOUS
 10
4.1240077951
 20
11.6067267588
 40
1.25
100
AcDbArc
 50
144.3717999834
 51
147.6382583098
  0
ARC
  5
5DB
100
AcDbEntity
  8
0
100
AcDbCircle
 62
6
  6
CONTINUOUS
 10
4.1240077951
 20
11.6067267588
 40
1.25
100
AcDbArc
 50
143.6875658564
 51
144.3124341436
  0
ARC
  5
5DC
100
AcDbEntity
  8
0
100
AcDbCircle
 62
6
  6
CONTINUOUS
 10
4.1240077951
 20
11.6067267588
 40
1.25
100
AcDbArc
 50
141.6875658564
 51
142.3124341436
  0
ARC
  5
5DD
100
AcDbEntity
  8
0
100
AcDbCircle
 62
6
  6
CONTINUOUS
 10
4.1240077951
 20
11.6067267588
 40
1.25
100
AcDbArc
 50
139.6875658564
 51
141.6482791712
  0
ARC
  5
5DE
100
AcDbEntity
  8
0
100
AcDbCircle
 62
6
  6
CONTINUOUS
 10
4.1240077951
 20
11.6067267588
 40
1.25
100
AcDbArc
 50
137.6875658564
 51
138.3124341436
  0
ARC
  5
5DF
100
AcDbEntity
  8
0
100
AcDbCircle
 62
6
  6
CONTINUOUS
 10
4.1240077951
 20
11.6067267588
 40
1.25
100
AcDbArc
 50
133.6875658564
 51
136.3124341436
  0
ARC
  5
5E0
100
AcDbEntity
  8
0
100
AcDbCircle
 62
6
  6
CONTINUOUS
 10
4.1240077951
 20
11.6067267588
 40
1.25
100
AcDbArc
 50
131.6875658564
 51
132.3124341436
  0
ARC
  5
5E1
100
AcDbEntity
  8
0
100
AcDbCircle
 62
6
  6
CONTINUOUS
 10
4.1240077951
 20
11.6067267588
 40
1.25
100
AcDbArc
 50
128.3517208288
 51
130.3124341436
  0
ARC
  5
5E2
100
AcDbEntity
  8
0
100
AcDbCircle
 62
6
  6
CONTINUOUS
 10
4.1240077951
 20
11.6067267588
 40
1.25
100
AcDbArc
 50
127.6875658564
 51
128.3124341436
  0
ARC
  5
5E3
100
AcDbEntity
  8
0
100
AcDbCircle
 62
6
  6
CONTINUOUS
 10
4.1240077951
 20
11.6067267588
 40
1.25
100
AcDbArc
 50
125.6875658564
 51
126.3124341436
  0
ARC
  5
5E4
100
AcDbEntity
  8
0
100
AcDbCircle
 62
6
  6
CONTINUOUS
 10
4.1240077951
 20
11.6067267588
 40
1.25
100
AcDbArc
 50
122.3617416902
 51
125.6282000166
  0
ARC
  5
5E5
100
AcDbEntity
  8
0
100
AcDbCircle
 62
6
  6
CONTINUOUS
 10
4.1240077951
 20
11.6067267588
 40
1.25
100
AcDbArc
 50
121.6875658564
 51
122.3124341436
  0
ARC
  5
5E6
100
AcDbEntity
  8
0
100
AcDbCircle
 62
6
  6
CONTINUOUS
 10
4.1240077951
 20
11.6067267588
 40
1.25
100
AcDbArc
 50
119.6875658564
 51
120.3124341436
  0
ARC
  5
5E7
100
AcDbEntity
  8
0
100
AcDbCircle
 62
6
  6
CONTINUOUS
 10
4.1240077951
 20
11.6067267588
 40
1.25
100
AcDbArc
 50
116.3696471399
 51
119.6353846488
  0
ARC
  5
5E8
100
AcDbEntity
  8
0
100
AcDbCircle
 62
6
  6
CONTINUOUS
 10
4.1240077951
 20
11.6067267588
 40
1.25
100
AcDbArc
 50
115.6875658564
 51
116.3124341436
  0
ARC
  5
5E9
100
AcDbEntity
  8
0
100
AcDbCircle
 62
6
  6
CONTINUOUS
 10
4.1240077951
 20
11.6067267588
 40
1.25
100
AcDbArc
 50
113.6875658564
 51
114.3124341436
  0
ARC
  5
5EA
100
AcDbEntity
  8
0
100
AcDbCircle
 62
6
  6
CONTINUOUS
 10
4.1240077951
 20
11.6067267588
 40
1.25
100
AcDbArc
 50
111.6875658564
 51
113.6447081397
  0
ARC
  5
5EB
100
AcDbEntity
  8
0
100
AcDbCircle
 62
6
  6
CONTINUOUS
 10
4.1240077951
 20
11.6067267588
 40
1.25
100
AcDbArc
 50
109.6875658564
 51
110.3124341436
  0
ARC
  5
5EC
100
AcDbEntity
  8
0
100
AcDbCircle
 62
6
  6
CONTINUOUS
 10
4.1240077951
 20
11.6067267588
 40
1.25
100
AcDbArc
 50
107.6875658564
 51
108.3124341436
  0
ARC
  5
5ED
100
AcDbEntity
  8
0
100
AcDbCircle
 62
6
  6
CONTINUOUS
 10
4.1240077951
 20
11.6067267588
 40
1.25
100
AcDbArc
 50
105.6875658564
 51
107.6561008017
  0
ARC
  5
5EE
100
AcDbEntity
  8
0
100
AcDbCircle
 62
6
  6
CONTINUOUS
 10
4.1240077951
 20
11.6067267588
 40
1.25
100
AcDbArc
 50
103.6875658564
 51
104.3124341436
  0
ARC
  5
5EF
100
AcDbEntity
  8
0
100
AcDbCircle
 62
6
  6
CONTINUOUS
 10
4.1240077951
 20
11.6067267588
 40
1.25
100
AcDbArc
 50
100.3479224382
 51
102.3124341436
  0
ARC
  5
5F0
100
AcDbEntity
  8
0
100
AcDbCircle
 62
6
  6
CONTINUOUS
 10
4.1240077951
 20
11.6067267588
 40
1.25
100
AcDbArc
 50
99.6875658564
 51
100.3124341436
  0
ARC
  5
5F1
100
AcDbEntity
  8
0
100
AcDbCircle
 62
6
  6
CONTINUOUS
 10
4.1240077951
 20
11.6067267588
 40
1.25
100
AcDbArc
 50
97.6875658564
 51
98.3124341436
  0
ARC
  5
5F2
100
AcDbEntity
  8
0
100
AcDbCircle
 62
6
  6
CONTINUOUS
 10
4.1240077951
 20
11.6067267588
 40
1.25
100
AcDbArc
 50
95.6875658564
 51
96.3124341436
  0
ARC
  5
5F3
100
AcDbEntity
  8
0
100
AcDbCircle
 62
6
  6
CONTINUOUS
 10
4.1240077951
 20
11.6067267588
 40
1.25
100
AcDbArc
 50
93.6875658564
 51
94.3124341436
  0
ARC
  5
5F4
100
AcDbEntity
  8
0
100
AcDbCircle
 62
6
  6
CONTINUOUS
 10
4.1240077951
 20
11.6067267588
 40
1.25
100
AcDbArc
 50
91.6875658564
 51
92.3124341436
  0
ARC
  5
5F5
100
AcDbEntity
  8
0
100
AcDbCircle
 62
6
  6
CONTINUOUS
 10
4.1240077951
 20
11.6067267588
 40
1.25
100
AcDbArc
 50
88.3672513776
 51
91.6327486224
  0
ARC
  5
5F6
100
AcDbEntity
  8
0
100
AcDbCircle
 62
6
  6
CONTINUOUS
 10
4.1240077951
 20
11.6067267588
 40
1.25
100
AcDbArc
 50
87.6875658564
 51
88.3124341436
  0
ARC
  5
5F7
100
AcDbEntity
  8
0
100
AcDbCircle
 62
6
  6
CONTINUOUS
 10
4.1240077951
 20
11.6067267588
 40
1.25
100
AcDbArc
 50
85.6875658564
 51
86.3124341436
  0
ARC
  5
5F8
100
AcDbEntity
  8
0
100
AcDbCircle
 62
6
  6
CONTINUOUS
 10
4.1240077951
 20
11.6067267588
 40
1.25
100
AcDbArc
 50
83.6875658564
 51
84.3124341436
  0
ARC
  5
5F9
100
AcDbEntity
  8
0
100
AcDbCircle
 62
6
  6
CONTINUOUS
 10
4.1240077951
 20
11.6067267588
 40
1.25
100
AcDbArc
 50
81.6875658564
 51
82.3124341436
  0
ARC
  5
5FA
100
AcDbEntity
  8
0
100
AcDbCircle
 62
6
  6
CONTINUOUS
 10
4.1240077951
 20
11.6067267588
 40
1.25
100
AcDbArc
 50
79.6875658564
 51
80.3124341436
  0
ARC
  5
5FB
100
AcDbEntity
  8
0
100
AcDbCircle
 62
6
  6
CONTINUOUS
 10
4.1240077951
 20
11.6067267588
 40
1.25
100
AcDbArc
 50
77.6875658564
 51
79.6520775618
  0
ARC
  5
5FC
100
AcDbEntity
  8
0
100
AcDbCircle
 62
6
  6
CONTINUOUS
 10
4.1240077951
 20
11.6067267588
 40
1.25
100
AcDbArc
 50
75.6875658564
 51
76.3124341436
  0
ARC
  5
5FD
100
AcDbEntity
  8
0
100
AcDbCircle
 62
6
  6
CONTINUOUS
 10
4.1240077951
 20
11.6067267588
 40
1.25
100
AcDbArc
 50
72.3438991983
 51
74.3124341436
  0
ARC
  5
5FE
100
AcDbEntity
  8
0
100
AcDbCircle
 62
6
  6
CONTINUOUS
 10
4.1240077951
 20
11.6067267588
 40
1.25
100
AcDbArc
 50
71.6875658564
 51
72.3124341436
  0
ARC
  5
5FF
100
AcDbEntity
  8
0
100
AcDbCircle
 62
6
  6
CONTINUOUS
 10
4.1240077951
 20
11.6067267588
 40
1.25
100
AcDbArc
 50
69.6875658564
 51
70.3124341436
  0
ARC
  5
600
100
AcDbEntity
  8
0
100
AcDbCircle
 62
6
  6
CONTINUOUS
 10
4.1240077951
 20
11.6067267588
 40
1.25
100
AcDbArc
 50
66.3552918603
 51
68.3124341436
  0
ARC
  5
601
100
AcDbEntity
  8
0
100
AcDbCircle
 62
6
  6
CONTINUOUS
 10
4.1240077951
 20
11.6067267588
 40
1.25
100
AcDbArc
 50
65.6875658564
 51
66.3124341436
  0
ARC
  5
602
100
AcDbEntity
  8
0
100
AcDbCircle
 62
6
  6
CONTINUOUS
 10
4.1240077951
 20
11.6067267588
 40
1.25
100
AcDbArc
 50
63.6875658564
 51
64.3124341436
  0
ARC
  5
603
100
AcDbEntity
  8
0
100
AcDbCircle
 62
6
  6
CONTINUOUS
 10
4.1240077951
 20
11.6067267588
 40
1.25
100
AcDbArc
 50
60.3646153512
 51
63.6303528601
  0
ARC
  5
604
100
AcDbEntity
  8
0
100
AcDbCircle
 62
6
  6
CONTINUOUS
 10
4.1240077951
 20
11.6067267588
 40
1.25
100
AcDbArc
 50
59.6875658564
 51
60.3124341436
  0
ARC
  5
605
100
AcDbEntity
  8
0
100
AcDbCircle
 62
6
  6
CONTINUOUS
 10
4.1240077951
 20
11.6067267588
 40
1.25
100
AcDbArc
 50
57.6875658564
 51
58.3124341436
  0
ARC
  5
606
100
AcDbEntity
  8
0
100
AcDbCircle
 62
6
  6
CONTINUOUS
 10
4.1240077951
 20
11.6067267588
 40
1.25
100
AcDbArc
 50
54.3717999834
 51
57.6382583098
  0
ARC
  5
607
100
AcDbEntity
  8
0
100
AcDbCircle
 62
6
  6
CONTINUOUS
 10
4.1240077951
 20
11.6067267588
 40
1.25
100
AcDbArc
 50
53.6875658564
 51
54.3124341436
  0
ARC
  5
608
100
AcDbEntity
  8
0
100
AcDbCircle
 62
6
  6
CONTINUOUS
 10
4.1240077951
 20
11.6067267588
 40
1.25
100
AcDbArc
 50
51.6875658564
 51
52.3124341436
  0
ARC
  5
609
100
AcDbEntity
  8
0
100
AcDbCircle
 62
6
  6
CONTINUOUS
 10
4.1240077951
 20
11.6067267588
 40
1.25
100
AcDbArc
 50
49.6875658564
 51
51.6482791712
  0
ARC
  5
60A
100
AcDbEntity
  8
0
100
AcDbCircle
 62
6
  6
CONTINUOUS
 10
4.1240077951
 20
11.6067267588
 40
1.25
100
AcDbArc
 50
47.6875658564
 51
48.3124341436
  0
ARC
  5
60B
100
AcDbEntity
  8
0
100
AcDbCircle
 62
6
  6
CONTINUOUS
 10
4.1240077951
 20
11.6067267588
 40
1.25
100
AcDbArc
 50
43.6875658564
 51
46.3124341436
  0
ARC
  5
60C
100
AcDbEntity
  8
0
100
AcDbCircle
 62
6
  6
CONTINUOUS
 10
28.3770077951
 20
11.6067267588
 40
1.25
100
AcDbArc
 50
194.4945930001
 51
195.6404809001
  0
ARC
  5
60D
100
AcDbEntity
  8
0
100
AcDbCircle
 62
6
  6
CONTINUOUS
 10
28.3770077951
 20
11.6067267588
 40
1.25
100
AcDbArc
 50
195.6875658564
 51
197.6561008017
  0
ARC
  5
60E
100
AcDbEntity
  8
0
100
AcDbCircle
 62
6
  6
CONTINUOUS
 10
28.3770077951
 20
11.6067267588
 40
1.25
100
AcDbArc
 50
198.3658267513
 51
199.6201602281
  0
ARC
  5
60F
100
AcDbEntity
  8
0
100
AcDbCircle
 62
6
  6
CONTINUOUS
 10
28.3770077951
 20
11.6067267588
 40
1.25
100
AcDbArc
 50
200.3753661691
 51
201.6522390156
  0
ARC
  5
610
100
AcDbEntity
  8
0
100
AcDbCircle
 62
6
  6
CONTINUOUS
 10
28.3770077951
 20
11.6067267588
 40
1.25
100
AcDbArc
 50
201.6875658564
 51
203.6447081397
  0
ARC
  5
611
100
AcDbEntity
  8
0
100
AcDbCircle
 62
6
  6
CONTINUOUS
 10
28.3770077951
 20
11.6067267588
 40
1.25
100
AcDbArc
 50
204.3730566434
 51
205.6206346886
  0
ARC
  5
612
100
AcDbEntity
  8
0
100
AcDbCircle
 62
6
  6
CONTINUOUS
 10
28.3770077951
 20
11.6067267588
 40
1.25
100
AcDbArc
 50
206.3696471399
 51
209.6353846488
  0
ARC
  5
613
100
AcDbEntity
  8
0
100
AcDbCircle
 62
6
  6
CONTINUOUS
 10
28.3770077951
 20
11.6067267588
 40
1.25
100
AcDbArc
 50
210.3776845215
 51
211.6235741685
  0
ARC
  5
614
100
AcDbEntity
  8
0
100
AcDbCircle
 62
6
  6
CONTINUOUS
 10
28.3770077951
 20
11.6067267588
 40
1.25
100
AcDbArc
 50
212.3617416902
 51
215.6282000166
  0
ARC
  5
615
100
AcDbEntity
  8
0
100
AcDbCircle
 62
6
  6
CONTINUOUS
 10
28.3770077951
 20
11.6067267588
 40
1.25
100
AcDbArc
 50
216.3797934077
 51
217.6290600351
  0
ARC
  5
616
100
AcDbEntity
  8
0
100
AcDbCircle
 62
6
  6
CONTINUOUS
 10
28.3770077951
 20
11.6067267588
 40
1.25
100
AcDbArc
 50
218.3517208288
 51
220.3124341436
  0
ARC
  5
617
100
AcDbEntity
  8
0
100
AcDbCircle
 62
6
  6
CONTINUOUS
 10
28.3770077951
 20
11.6067267588
 40
1.25
100
AcDbArc
 50
220.3519909909
 51
221.6232259259
  0
ARC
  5
618
100
AcDbEntity
  8
0
100
AcDbCircle
 62
6
  6
CONTINUOUS
 10
28.3770077951
 20
11.6067267588
 40
1.25
100
AcDbArc
 50
222.3794638599
 51
223.637176156
  0
ARC
  5
619
100
AcDbEntity
  8
0
100
AcDbCircle
 62
6
  6
CONTINUOUS
 10
28.3770077951
 20
11.6067267588
 40
1.25
100
AcDbArc
 50
223.6875658564
 51
226.3124341436
  0
ARC
  5
61A
100
AcDbEntity
  8
0
100
AcDbCircle
 62
6
  6
CONTINUOUS
 10
28.3770077951
 20
11.6067267588
 40
1.25
100
AcDbArc
 50
226.362823844
 51
227.6205361401
  0
ARC
  5
61B
100
AcDbEntity
  8
0
100
AcDbCircle
 62
6
  6
CONTINUOUS
 10
28.3770077951
 20
11.6067267588
 40
1.25
100
AcDbArc
 50
228.3767740741
 51
229.6480090091
  0
ARC
  5
61C
100
AcDbEntity
  8
0
100
AcDbCircle
 62
6
  6
CONTINUOUS
 10
28.3770077951
 20
11.6067267588
 40
1.25
100
AcDbArc
 50
229.6875658564
 51
231.6482791712
  0
ARC
  5
61D
100
AcDbEntity
  8
0
100
AcDbCircle
 62
6
  6
CONTINUOUS
 10
28.3770077951
 20
11.6067267588
 40
1.25
100
AcDbArc
 50
232.3709399649
 51
233.6202065923
  0
ARC
  5
61E
100
AcDbEntity
  8
0
100
AcDbCircle
 62
6
  6
CONTINUOUS
 10
28.3770077951
 20
11.6067267588
 40
1.25
100
AcDbArc
 50
234.3717999834
 51
237.6382583098
  0
ARC
  5
61F
100
AcDbEntity
  8
0
100
AcDbCircle
 62
6
  6
CONTINUOUS
 10
28.3770077951
 20
11.6067267588
 40
1.25
100
AcDbArc
 50
238.3764258315
 51
239.6223154785
  0
ARC
  5
620
100
AcDbEntity
  8
0
100
AcDbCircle
 62
6
  6
CONTINUOUS
 10
28.3770077951
 20
11.6067267588
 40
1.25
100
AcDbArc
 50
240.3646153512
 51
243.6303528601
  0
ARC
  5
621
100
AcDbEntity
  8
0
100
AcDbCircle
 62
6
  6
CONTINUOUS
 10
28.3770077951
 20
11.6067267588
 40
1.25
100
AcDbArc
 50
244.3793653114
 51
245.6269433566
  0
ARC
  5
622
100
AcDbEntity
  8
0
100
AcDbCircle
 62
6
  6
CONTINUOUS
 10
28.3770077951
 20
11.6067267588
 40
1.25
100
AcDbArc
 50
246.3552918603
 51
248.3124341436
  0
ARC
  5
623
100
AcDbEntity
  8
0
100
AcDbCircle
 62
6
  6
CONTINUOUS
 10
28.3770077951
 20
11.6067267588
 40
1.25
100
AcDbArc
 50
248.3477609844
 51
249.6246338309
  0
ARC
  5
624
100
AcDbEntity
  8
0
100
AcDbCircle
 62
6
  6
CONTINUOUS
 10
28.3770077951
 20
11.6067267588
 40
1.25
100
AcDbArc
 50
250.3798397719
 51
251.6341732487
  0
ARC
  5
625
100
AcDbEntity
  8
0
100
AcDbCircle
 62
6
  6
CONTINUOUS
 10
28.3770077951
 20
11.6067267588
 40
1.25
100
AcDbArc
 50
252.3438991983
 51
254.3124341436
  0
ARC
  5
626
100
AcDbEntity
  8
0
100
AcDbCircle
 62
6
  6
CONTINUOUS
 10
28.3770077951
 20
11.6067267588
 40
1.25
100
AcDbArc
 50
254.3595190999
 51
255.6211742822
  0
ARC
  5
627
100
AcDbEntity
  8
0
100
AcDbCircle
 62
6
  6
CONTINUOUS
 10
28.3770077951
 20
11.6067267588
 40
1.25
100
AcDbArc
 50
256.3779281853
 51
257.64409075
  0
ARC
  5
628
100
AcDbEntity
  8
0
100
AcDbCircle
 62
6
  6
CONTINUOUS
 10
28.3770077951
 20
11.6067267588
 40
1.25
100
AcDbArc
 50
257.6875658564
 51
259.6520775618
  0
ARC
  5
629
100
AcDbEntity
  8
0
100
AcDbCircle
 62
6
  6
CONTINUOUS
 10
28.3770077951
 20
11.6067267588
 40
1.25
100
AcDbArc
 50
260.3685310575
 51
261.6200494136
  0
ARC
  5
62A
100
AcDbEntity
  8
0
100
AcDbCircle
 62
6
  6
CONTINUOUS
 10
28.3770077951
 20
11.6067267588
 40
1.25
100
AcDbArc
 50
262.3737072283
 51
263.6567841423
  0
ARC
  5
62B
100
AcDbEntity
  8
0
100
AcDbCircle
 62
6
  6
CONTINUOUS
 10
28.3770077951
 20
11.6067267588
 40
1.25
100
AcDbArc
 50
264.3151756157
 51
265.6413670003
  0
ARC
  5
62C
100
AcDbEntity
  8
0
100
AcDbCircle
 62
6
  6
CONTINUOUS
 10
28.3770077951
 20
11.6067267588
 40
1.25
100
AcDbArc
 50
266.3748842303
 51
267.6213366563
  0
ARC
  5
62D
100
AcDbEntity
  8
0
100
AcDbCircle
 62
6
  6
CONTINUOUS
 10
28.3770077951
 20
11.6067267588
 40
1.25
100
AcDbArc
 50
268.3672513776
 51
271.6327486224
  0
ARC
  5
62E
100
AcDbEntity
  8
0
100
AcDbCircle
 62
6
  6
CONTINUOUS
 10
28.3770077951
 20
11.6067267588
 40
1.25
100
AcDbArc
 50
272.3786633437
 51
273.6251157697
  0
ARC
  5
62F
100
AcDbEntity
  8
0
100
AcDbCircle
 62
6
  6
CONTINUOUS
 10
28.3770077951
 20
11.6067267588
 40
1.25
100
AcDbArc
 50
274.3586329997
 51
275.6848243843
  0
ARC
  5
630
100
AcDbEntity
  8
0
100
AcDbCircle
 62
6
  6
CONTINUOUS
 10
28.3770077951
 20
11.6067267588
 40
1.25
100
AcDbArc
 50
276.3432158577
 51
277.6262927717
  0
ARC
  5
631
100
AcDbEntity
  8
0
100
AcDbCircle
 62
6
  6
CONTINUOUS
 10
28.3770077951
 20
11.6067267588
 40
1.25
100
AcDbArc
 50
278.3799505864
 51
279.6314689425
  0
ARC
  5
632
100
AcDbEntity
  8
0
100
AcDbCircle
 62
6
  6
CONTINUOUS
 10
28.3770077951
 20
11.6067267588
 40
1.25
100
AcDbArc
 50
280.3479224382
 51
282.3124341436
  0
ARC
  5
633
100
AcDbEntity
  8
0
100
AcDbCircle
 62
6
  6
CONTINUOUS
 10
28.3770077951
 20
11.6067267588
 40
1.25
100
AcDbArc
 50
282.35590925
 51
283.6220718147
  0
ARC
  5
634
100
AcDbEntity
  8
0
100
AcDbCircle
 62
6
  6
CONTINUOUS
 10
28.3770077951
 20
11.6067267588
 40
1.25
100
AcDbArc
 50
284.3788257178
 51
285.6404809001
  0
ARC
  5
635
100
AcDbEntity
  8
0
100
AcDbCircle
 62
6
  6
CONTINUOUS
 10
28.3770077951
 20
11.6067267588
 40
1.25
100
AcDbArc
 50
285.6875658564
 51
287.6561008017
  0
ARC
  5
636
100
AcDbEntity
  8
0
100
AcDbCircle
 62
6
  6
CONTINUOUS
 10
28.3770077951
 20
11.6067267588
 40
1.25
100
AcDbArc
 50
288.3658267513
 51
289.6201602281
  0
ARC
  5
637
100
AcDbEntity
  8
0
100
AcDbCircle
 62
6
  6
CONTINUOUS
 10
28.3770077951
 20
11.6067267588
 40
1.25
100
AcDbArc
 50
290.3753661691
 51
291.6522390156
  0
ARC
  5
638
100
AcDbEntity
  8
0
100
AcDbCircle
 62
6
  6
CONTINUOUS
 10
28.3770077951
 20
11.6067267588
 40
1.25
100
AcDbArc
 50
291.6875658564
 51
293.6447081397
  0
ARC
  5
639
100
AcDbEntity
  8
0
100
AcDbCircle
 62
6
  6
CONTINUOUS
 10
28.3770077951
 20
11.6067267588
 40
1.25
100
AcDbArc
 50
294.3730566434
 51
295.6206346886
  0
ARC
  5
63A
100
AcDbEntity
  8
0
100
AcDbCircle
 62
6
  6
CONTINUOUS
 10
28.3770077951
 20
11.6067267588
 40
1.25
100
AcDbArc
 50
296.3696471399
 51
299.6353846488
  0
ARC
  5
63B
100
AcDbEntity
  8
0
100
AcDbCircle
 62
6
  6
CONTINUOUS
 10
28.3770077951
 20
11.6067267588
 40
1.25
100
AcDbArc
 50
300.3776845215
 51
301.6235741685
  0
ARC
  5
63C
100
AcDbEntity
  8
0
100
AcDbCircle
 62
6
  6
CONTINUOUS
 10
28.3770077951
 20
11.6067267588
 40
1.25
100
AcDbArc
 50
302.3617416902
 51
305.6282000166
  0
ARC
  5
63D
100
AcDbEntity
  8
0
100
AcDbCircle
 62
6
  6
CONTINUOUS
 10
28.3770077951
 20
11.6067267588
 40
1.25
100
AcDbArc
 50
306.3797934077
 51
307.6290600351
  0
ARC
  5
63E
100
AcDbEntity
  8
0
100
AcDbCircle
 62
6
  6
CONTINUOUS
 10
28.3770077951
 20
11.6067267588
 40
1.25
100
AcDbArc
 50
308.3517208288
 51
310.3124341436
  0
ARC
  5
63F
100
AcDbEntity
  8
0
100
AcDbCircle
 62
6
  6
CONTINUOUS
 10
28.3770077951
 20
11.6067267588
 40
1.25
100
AcDbArc
 50
310.3519909909
 51
311.6232259259
  0
ARC
  5
640
100
AcDbEntity
  8
0
100
AcDbCircle
 62
6
  6
CONTINUOUS
 10
28.3770077951
 20
11.6067267588
 40
1.25
100
AcDbArc
 50
312.3794638599
 51
313.637176156
  0
ARC
  5
641
100
AcDbEntity
  8
0
100
AcDbCircle
 62
6
  6
CONTINUOUS
 10
28.3770077951
 20
11.6067267588
 40
1.25
100
AcDbArc
 50
313.6875658564
 51
316.3124341436
  0
ARC
  5
642
100
AcDbEntity
  8
0
100
AcDbCircle
 62
6
  6
CONTINUOUS
 10
28.3770077951
 20
11.6067267588
 40
1.25
100
AcDbArc
 50
316.362823844
 51
317.6205361401
  0
ARC
  5
643
100
AcDbEntity
  8
0
100
AcDbCircle
 62
6
  6
CONTINUOUS
 10
28.3770077951
 20
11.6067267588
 40
1.25
100
AcDbArc
 50
318.3767740741
 51
319.6480090091
  0
ARC
  5
644
100
AcDbEntity
  8
0
100
AcDbCircle
 62
6
  6
CONTINUOUS
 10
28.3770077951
 20
11.6067267588
 40
1.25
100
AcDbArc
 50
319.6875658564
 51
321.6482791712
  0
ARC
  5
645
100
AcDbEntity
  8
0
100
AcDbCircle
 62
6
  6
CONTINUOUS
 10
28.3770077951
 20
11.6067267588
 40
1.25
100
AcDbArc
 50
322.3709399649
 51
323.6202065923
  0
ARC
  5
646
100
AcDbEntity
  8
0
100
AcDbCircle
 62
6
  6
CONTINUOUS
 10
28.3770077951
 20
11.6067267588
 40
1.25
100
AcDbArc
 50
324.3717999834
 51
327.6382583098
  0
ARC
  5
647
100
AcDbEntity
  8
0
100
AcDbCircle
 62
6
  6
CONTINUOUS
 10
28.3770077951
 20
11.6067267588
 40
1.25
100
AcDbArc
 50
328.3764258315
 51
329.6223154785
  0
ARC
  5
648
100
AcDbEntity
  8
0
100
AcDbCircle
 62
6
  6
CONTINUOUS
 10
28.3770077951
 20
11.6067267588
 40
1.25
100
AcDbArc
 50
330.3646153512
 51
333.6303528601
  0
ARC
  5
649
100
AcDbEntity
  8
0
100
AcDbCircle
 62
6
  6
CONTINUOUS
 10
28.3770077951
 20
11.6067267588
 40
1.25
100
AcDbArc
 50
334.3793653114
 51
335.6269433566
  0
ARC
  5
64A
100
AcDbEntity
  8
0
100
AcDbCircle
 62
6
  6
CONTINUOUS
 10
28.3770077951
 20
11.6067267588
 40
1.25
100
AcDbArc
 50
336.3552918603
 51
338.3124341436
  0
ARC
  5
64B
100
AcDbEntity
  8
0
100
AcDbCircle
 62
6
  6
CONTINUOUS
 10
28.3770077951
 20
11.6067267588
 40
1.25
100
AcDbArc
 50
338.3477609844
 51
339.6246338309
  0
ARC
  5
64C
100
AcDbEntity
  8
0
100
AcDbCircle
 62
6
  6
CONTINUOUS
 10
28.3770077951
 20
11.6067267588
 40
1.25
100
AcDbArc
 50
340.3798397719
 51
341.6341732487
  0
ARC
  5
64D
100
AcDbEntity
  8
0
100
AcDbCircle
 62
6
  6
CONTINUOUS
 10
28.3770077951
 20
11.6067267588
 40
1.25
100
AcDbArc
 50
342.3438991983
 51
344.3124341436
  0
ARC
  5
64E
100
AcDbEntity
  8
0
100
AcDbCircle
 62
6
  6
CONTINUOUS
 10
28.3770077951
 20
11.6067267588
 40
1.25
100
AcDbArc
 50
344.3595190999
 51
345.6211742822
  0
ARC
  5
64F
100
AcDbEntity
  8
0
100
AcDbCircle
 62
6
  6
CONTINUOUS
 10
28.3770077951
 20
11.6067267588
 40
1.25
100
AcDbArc
 50
346.3779281853
 51
347.64409075
  0
ARC
  5
650
100
AcDbEntity
  8
0
100
AcDbCircle
 62
6
  6
CONTINUOUS
 10
28.3770077951
 20
11.6067267588
 40
1.25
100
AcDbArc
 50
347.6875658564
 51
349.6520775618
  0
ARC
  5
651
100
AcDbEntity
  8
0
100
AcDbCircle
 62
6
  6
CONTINUOUS
 10
28.3770077951
 20
11.6067267588
 40
1.25
100
AcDbArc
 50
350.3685310575
 51
351.6200494136
  0
ARC
  5
652
100
AcDbEntity
  8
0
100
AcDbCircle
 62
6
  6
CONTINUOUS
 10
28.3770077951
 20
11.6067267588
 40
1.25
100
AcDbArc
 50
352.3737072283
 51
353.6567841423
  0
ARC
  5
653
100
AcDbEntity
  8
0
100
AcDbCircle
 62
6
  6
CONTINUOUS
 10
28.3770077951
 20
11.6067267588
 40
1.25
100
AcDbArc
 50
354.3151756157
 51
355.6413670003
  0
ARC
  5
654
100
AcDbEntity
  8
0
100
AcDbCircle
 62
6
  6
CONTINUOUS
 10
28.3770077951
 20
11.6067267588
 40
1.25
100
AcDbArc
 50
356.3748842303
 51
357.6213366563
  0
ARC
  5
655
100
AcDbEntity
  8
0
100
AcDbCircle
 62
6
  6
CONTINUOUS
 10
28.3770077951
 20
11.6067267588
 40
1.25
100
AcDbArc
 50
164.3595190999
 51
165.5054069999
  0
ARC
  5
656
100
AcDbEntity
  8
0
100
AcDbCircle
 62
6
  6
CONTINUOUS
 10
28.3770077951
 20
11.6067267588
 40
1.25
100
AcDbArc
 50
162.3438991983
 51
164.3124341436
  0
ARC
  5
657
100
AcDbEntity
  8
0
100
AcDbCircle
 62
6
  6
CONTINUOUS
 10
28.3770077951
 20
11.6067267588
 40
1.25
100
AcDbArc
 50
160.3798397719
 51
161.6341732487
  0
ARC
  5
658
100
AcDbEntity
  8
0
100
AcDbCircle
 62
6
  6
CONTINUOUS
 10
28.3770077951
 20
11.6067267588
 40
1.25
100
AcDbArc
 50
158.3477609844
 51
159.6246338309
  0
ARC
  5
659
100
AcDbEntity
  8
0
100
AcDbCircle
 62
6
  6
CONTINUOUS
 10
28.3770077951
 20
11.6067267588
 40
1.25
100
AcDbArc
 50
156.3552918603
 51
158.3124341436
  0
ARC
  5
65A
100
AcDbEntity
  8
0
100
AcDbCircle
 62
6
  6
CONTINUOUS
 10
28.3770077951
 20
11.6067267588
 40
1.25
100
AcDbArc
 50
154.3793653114
 51
155.6269433566
  0
ARC
  5
65B
100
AcDbEntity
  8
0
100
AcDbCircle
 62
6
  6
CONTINUOUS
 10
28.3770077951
 20
11.6067267588
 40
1.25
100
AcDbArc
 50
150.3646153512
 51
153.6303528601
  0
ARC
  5
65C
100
AcDbEntity
  8
0
100
AcDbCircle
 62
6
  6
CONTINUOUS
 10
28.3770077951
 20
11.6067267588
 40
1.25
100
AcDbArc
 50
148.3764258315
 51
149.6223154785
  0
ARC
  5
65D
100
AcDbEntity
  8
0
100
AcDbCircle
 62
6
  6
CONTINUOUS
 10
28.3770077951
 20
11.6067267588
 40
1.25
100
AcDbArc
 50
144.3717999834
 51
147.6382583098
  0
ARC
  5
65E
100
AcDbEntity
  8
0
100
AcDbCircle
 62
6
  6
CONTINUOUS
 10
28.3770077951
 20
11.6067267588
 40
1.25
100
AcDbArc
 50
142.3709399649
 51
143.6202065923
  0
ARC
  5
65F
100
AcDbEntity
  8
0
100
AcDbCircle
 62
6
  6
CONTINUOUS
 10
28.3770077951
 20
11.6067267588
 40
1.25
100
AcDbArc
 50
139.6875658564
 51
141.6482791712
  0
ARC
  5
660
100
AcDbEntity
  8
0
100
AcDbCircle
 62
6
  6
CONTINUOUS
 10
28.3770077951
 20
11.6067267588
 40
1.25
100
AcDbArc
 50
138.3767740741
 51
139.6480090091
  0
ARC
  5
661
100
AcDbEntity
  8
0
100
AcDbCircle
 62
6
  6
CONTINUOUS
 10
28.3770077951
 20
11.6067267588
 40
1.25
100
AcDbArc
 50
136.362823844
 51
137.6205361401
  0
ARC
  5
662
100
AcDbEntity
  8
0
100
AcDbCircle
 62
6
  6
CONTINUOUS
 10
28.3770077951
 20
11.6067267588
 40
1.25
100
AcDbArc
 50
133.6875658564
 51
136.3124341436
  0
ARC
  5
663
100
AcDbEntity
  8
0
100
AcDbCircle
 62
6
  6
CONTINUOUS
 10
28.3770077951
 20
11.6067267588
 40
1.25
100
AcDbArc
 50
132.3794638599
 51
133.637176156
  0
ARC
  5
664
100
AcDbEntity
  8
0
100
AcDbCircle
 62
6
  6
CONTINUOUS
 10
28.3770077951
 20
11.6067267588
 40
1.25
100
AcDbArc
 50
130.3519909909
 51
131.6232259259
  0
ARC
  5
665
100
AcDbEntity
  8
0
100
AcDbCircle
 62
6
  6
CONTINUOUS
 10
28.3770077951
 20
11.6067267588
 40
1.25
100
AcDbArc
 50
128.3517208288
 51
130.3124341436
  0
ARC
  5
666
100
AcDbEntity
  8
0
100
AcDbCircle
 62
6
  6
CONTINUOUS
 10
28.3770077951
 20
11.6067267588
 40
1.25
100
AcDbArc
 50
126.3797934077
 51
127.6290600351
  0
ARC
  5
667
100
AcDbEntity
  8
0
100
AcDbCircle
 62
6
  6
CONTINUOUS
 10
28.3770077951
 20
11.6067267588
 40
1.25
100
AcDbArc
 50
122.3617416902
 51
125.6282000166
  0
ARC
  5
668
100
AcDbEntity
  8
0
100
AcDbCircle
 62
6
  6
CONTINUOUS
 10
28.3770077951
 20
11.6067267588
 40
1.25
100
AcDbArc
 50
120.3776845215
 51
121.6235741685
  0
ARC
  5
669
100
AcDbEntity
  8
0
100
AcDbCircle
 62
6
  6
CONTINUOUS
 10
28.3770077951
 20
11.6067267588
 40
1.25
100
AcDbArc
 50
116.3696471399
 51
119.6353846488
  0
ARC
  5
66A
100
AcDbEntity
  8
0
100
AcDbCircle
 62
6
  6
CONTINUOUS
 10
28.3770077951
 20
11.6067267588
 40
1.25
100
AcDbArc
 50
114.3730566434
 51
115.6206346886
  0
ARC
  5
66B
100
AcDbEntity
  8
0
100
AcDbCircle
 62
6
  6
CONTINUOUS
 10
28.3770077951
 20
11.6067267588
 40
1.25
100
AcDbArc
 50
111.6875658564
 51
113.6447081397
  0
ARC
  5
66C
100
AcDbEntity
  8
0
100
AcDbCircle
 62
6
  6
CONTINUOUS
 10
28.3770077951
 20
11.6067267588
 40
1.25
100
AcDbArc
 50
110.3753661691
 51
111.6522390156
  0
ARC
  5
66D
100
AcDbEntity
  8
0
100
AcDbCircle
 62
6
  6
CONTINUOUS
 10
28.3770077951
 20
11.6067267588
 40
1.25
100
AcDbArc
 50
108.3658267513
 51
109.6201602281
  0
ARC
  5
66E
100
AcDbEntity
  8
0
100
AcDbCircle
 62
6
  6
CONTINUOUS
 10
28.3770077951
 20
11.6067267588
 40
1.25
100
AcDbArc
 50
105.6875658564
 51
107.6561008017
  0
ARC
  5
66F
100
AcDbEntity
  8
0
100
AcDbCircle
 62
6
  6
CONTINUOUS
 10
28.3770077951
 20
11.6067267588
 40
1.25
100
AcDbArc
 50
104.3788257178
 51
105.6404809001
  0
ARC
  5
670
100
AcDbEntity
  8
0
100
AcDbCircle
 62
6
  6
CONTINUOUS
 10
28.3770077951
 20
11.6067267588
 40
1.25
100
AcDbArc
 50
102.35590925
 51
103.6220718147
  0
ARC
  5
671
100
AcDbEntity
  8
0
100
AcDbCircle
 62
6
  6
CONTINUOUS
 10
28.3770077951
 20
11.6067267588
 40
1.25
100
AcDbArc
 50
100.3479224382
 51
102.3124341436
  0
ARC
  5
672
100
AcDbEntity
  8
0
100
AcDbCircle
 62
6
  6
CONTINUOUS
 10
28.3770077951
 20
11.6067267588
 40
1.25
100
AcDbArc
 50
98.3799505864
 51
99.6314689425
  0
ARC
  5
673
100
AcDbEntity
  8
0
100
AcDbCircle
 62
6
  6
CONTINUOUS
 10
28.3770077951
 20
11.6067267588
 40
1.25
100
AcDbArc
 50
96.3432158577
 51
97.6262927717
  0
ARC
  5
674
100
AcDbEntity
  8
0
100
AcDbCircle
 62
6
  6
CONTINUOUS
 10
28.3770077951
 20
11.6067267588
 40
1.25
100
AcDbArc
 50
94.3586329997
 51
95.6848243843
  0
ARC
  5
675
100
AcDbEntity
  8
0
100
AcDbCircle
 62
6
  6
CONTINUOUS
 10
28.3770077951
 20
11.6067267588
 40
1.25
100
AcDbArc
 50
92.3786633437
 51
93.6251157697
  0
ARC
  5
676
100
AcDbEntity
  8
0
100
AcDbCircle
 62
6
  6
CONTINUOUS
 10
28.3770077951
 20
11.6067267588
 40
1.25
100
AcDbArc
 50
88.3672513776
 51
91.6327486224
  0
ARC
  5
677
100
AcDbEntity
  8
0
100
AcDbCircle
 62
6
  6
CONTINUOUS
 10
28.3770077951
 20
11.6067267588
 40
1.25
100
AcDbArc
 50
86.3748842303
 51
87.6213366563
  0
ARC
  5
678
100
AcDbEntity
  8
0
100
AcDbCircle
 62
6
  6
CONTINUOUS
 10
28.3770077951
 20
11.6067267588
 40
1.25
100
AcDbArc
 50
84.3151756157
 51
85.6413670003
  0
ARC
  5
679
100
AcDbEntity
  8
0
100
AcDbCircle
 62
6
  6
CONTINUOUS
 10
28.3770077951
 20
11.6067267588
 40
1.25
100
AcDbArc
 50
82.3737072283
 51
83.6567841423
  0
ARC
  5
67A
100
AcDbEntity
  8
0
100
AcDbCircle
 62
6
  6
CONTINUOUS
 10
28.3770077951
 20
11.6067267588
 40
1.25
100
AcDbArc
 50
80.3685310575
 51
81.6200494136
  0
ARC
  5
67B
100
AcDbEntity
  8
0
100
AcDbCircle
 62
6
  6
CONTINUOUS
 10
28.3770077951
 20
11.6067267588
 40
1.25
100
AcDbArc
 50
77.6875658564
 51
79.6520775618
  0
ARC
  5
67C
100
AcDbEntity
  8
0
100
AcDbCircle
 62
6
  6
CONTINUOUS
 10
28.3770077951
 20
11.6067267588
 40
1.25
100
AcDbArc
 50
76.3779281853
 51
77.64409075
  0
ARC
  5
67D
100
AcDbEntity
  8
0
100
AcDbCircle
 62
6
  6
CONTINUOUS
 10
28.3770077951
 20
11.6067267588
 40
1.25
100
AcDbArc
 50
74.3595190999
 51
75.6211742822
  0
ARC
  5
67E
100
AcDbEntity
  8
0
100
AcDbCircle
 62
6
  6
CONTINUOUS
 10
28.3770077951
 20
11.6067267588
 40
1.25
100
AcDbArc
 50
72.3438991983
 51
74.3124341436
  0
ARC
  5
67F
100
AcDbEntity
  8
0
100
AcDbCircle
 62
6
  6
CONTINUOUS
 10
28.3770077951
 20
11.6067267588
 40
1.25
100
AcDbArc
 50
70.3798397719
 51
71.6341732487
  0
ARC
  5
680
100
AcDbEntity
  8
0
100
AcDbCircle
 62
6
  6
CONTINUOUS
 10
28.3770077951
 20
11.6067267588
 40
1.25
100
AcDbArc
 50
68.3477609844
 51
69.6246338309
  0
ARC
  5
681
100
AcDbEntity
  8
0
100
AcDbCircle
 62
6
  6
CONTINUOUS
 10
28.3770077951
 20
11.6067267588
 40
1.25
100
AcDbArc
 50
66.3552918603
 51
68.3124341436
  0
ARC
  5
682
100
AcDbEntity
  8
0
100
AcDbCircle
 62
6
  6
CONTINUOUS
 10
28.3770077951
 20
11.6067267588
 40
1.25
100
AcDbArc
 50
64.3793653114
 51
65.6269433566
  0
ARC
  5
683
100
AcDbEntity
  8
0
100
AcDbCircle
 62
6
  6
CONTINUOUS
 10
28.3770077951
 20
11.6067267588
 40
1.25
100
AcDbArc
 50
60.3646153512
 51
63.6303528601
  0
ARC
  5
684
100
AcDbEntity
  8
0
100
AcDbCircle
 62
6
  6
CONTINUOUS
 10
28.3770077951
 20
11.6067267588
 40
1.25
100
AcDbArc
 50
58.3764258315
 51
59.6223154785
  0
ARC
  5
685
100
AcDbEntity
  8
0
100
AcDbCircle
 62
6
  6
CONTINUOUS
 10
28.3770077951
 20
11.6067267588
 40
1.25
100
AcDbArc
 50
54.3717999834
 51
57.6382583098
  0
ARC
  5
686
100
AcDbEntity
  8
0
100
AcDbCircle
 62
6
  6
CONTINUOUS
 10
28.3770077951
 20
11.6067267588
 40
1.25
100
AcDbArc
 50
52.3709399649
 51
53.6202065923
  0
ARC
  5
687
100
AcDbEntity
  8
0
100
AcDbCircle
 62
6
  6
CONTINUOUS
 10
28.3770077951
 20
11.6067267588
 40
1.25
100
AcDbArc
 50
49.6875658564
 51
51.6482791712
  0
ARC
  5
688
100
AcDbEntity
  8
0
100
AcDbCircle
 62
6
  6
CONTINUOUS
 10
28.3770077951
 20
11.6067267588
 40
1.25
100
AcDbArc
 50
48.3767740741
 51
49.6480090091
  0
ARC
  5
689
100
AcDbEntity
  8
0
100
AcDbCircle
 62
6
  6
CONTINUOUS
 10
28.3770077951
 20
11.6067267588
 40
1.25
100
AcDbArc
 50
46.362823844
 51
47.6205361401
  0
ARC
  5
68A
100
AcDbEntity
  8
0
100
AcDbCircle
 62
6
  6
CONTINUOUS
 10
28.3770077951
 20
11.6067267588
 40
1.25
100
AcDbArc
 50
43.6875658564
 51
46.3124341436
  0
ARC
  5
68B
100
AcDbEntity
  8
0
100
AcDbCircle
 62
6
  6
CONTINUOUS
 10
28.3770077951
 20
11.6067267588
 40
1.25
100
AcDbArc
 50
42.3794638599
 51
43.637176156
  0
ARC
  5
68C
100
AcDbEntity
  8
0
100
AcDbCircle
 62
6
  6
CONTINUOUS
 10
28.3770077951
 20
11.6067267588
 40
1.25
100
AcDbArc
 50
40.3519909909
 51
41.6232259259
  0
ARC
  5
68D
100
AcDbEntity
  8
0
100
AcDbCircle
 62
6
  6
CONTINUOUS
 10
28.3770077951
 20
11.6067267588
 40
1.25
100
AcDbArc
 50
38.3517208288
 51
40.3124341436
  0
ARC
  5
68E
100
AcDbEntity
  8
0
100
AcDbCircle
 62
6
  6
CONTINUOUS
 10
28.3770077951
 20
11.6067267588
 40
1.25
100
AcDbArc
 50
36.3797934077
 51
37.6290600351
  0
ARC
  5
68F
100
AcDbEntity
  8
0
100
AcDbCircle
 62
6
  6
CONTINUOUS
 10
28.3770077951
 20
11.6067267588
 40
1.25
100
AcDbArc
 50
32.3617416902
 51
35.6282000166
  0
ARC
  5
690
100
AcDbEntity
  8
0
100
AcDbCircle
 62
6
  6
CONTINUOUS
 10
28.3770077951
 20
11.6067267588
 40
1.25
100
AcDbArc
 50
30.3776845215
 51
31.6235741685
  0
ARC
  5
691
100
AcDbEntity
  8
0
100
AcDbCircle
 62
6
  6
CONTINUOUS
 10
28.3770077951
 20
11.6067267588
 40
1.25
100
AcDbArc
 50
26.3696471399
 51
29.6353846488
  0
ARC
  5
692
100
AcDbEntity
  8
0
100
AcDbCircle
 62
6
  6
CONTINUOUS
 10
28.3770077951
 20
11.6067267588
 40
1.25
100
AcDbArc
 50
24.3730566434
 51
25.6206346886
  0
ARC
  5
693
100
AcDbEntity
  8
0
100
AcDbCircle
 62
6
  6
CONTINUOUS
 10
28.3770077951
 20
11.6067267588
 40
1.25
100
AcDbArc
 50
21.6875658564
 51
23.6447081397
  0
ARC
  5
694
100
AcDbEntity
  8
0
100
AcDbCircle
 62
6
  6
CONTINUOUS
 10
28.3770077951
 20
11.6067267588
 40
1.25
100
AcDbArc
 50
20.3753661691
 51
21.6522390156
  0
ARC
  5
695
100
AcDbEntity
  8
0
100
AcDbCircle
 62
6
  6
CONTINUOUS
 10
28.3770077951
 20
11.6067267588
 40
1.25
100
AcDbArc
 50
18.3658267513
 51
19.6201602281
  0
ARC
  5
696
100
AcDbEntity
  8
0
100
AcDbCircle
 62
6
  6
CONTINUOUS
 10
28.3770077951
 20
11.6067267588
 40
1.25
100
AcDbArc
 50
15.6875658564
 51
17.6561008017
  0
ARC
  5
697
100
AcDbEntity
  8
0
100
AcDbCircle
 62
6
  6
CONTINUOUS
 10
28.3770077951
 20
11.6067267588
 40
1.25
100
AcDbArc
 50
14.3788257178
 51
15.6404809001
  0
ARC
  5
698
100
AcDbEntity
  8
0
100
AcDbCircle
 62
6
  6
CONTINUOUS
 10
28.3770077951
 20
11.6067267588
 40
1.25
100
AcDbArc
 50
12.35590925
 51
13.6220718147
  0
ARC
  5
699
100
AcDbEntity
  8
0
100
AcDbCircle
 62
6
  6
CONTINUOUS
 10
28.3770077951
 20
11.6067267588
 40
1.25
100
AcDbArc
 50
10.3479224382
 51
12.3124341436
  0
ARC
  5
69A
100
AcDbEntity
  8
0
100
AcDbCircle
 62
6
  6
CONTINUOUS
 10
28.3770077951
 20
11.6067267588
 40
1.25
100
AcDbArc
 50
8.3799505864
 51
9.6314689425
  0
ARC
  5
69B
100
AcDbEntity
  8
0
100
AcDbCircle
 62
6
  6
CONTINUOUS
 10
28.3770077951
 20
11.6067267588
 40
1.25
100
AcDbArc
 50
6.3432158577
 51
7.6262927717
  0
ARC
  5
69C
100
AcDbEntity
  8
0
100
AcDbCircle
 62
6
  6
CONTINUOUS
 10
28.3770077951
 20
11.6067267588
 40
1.25
100
AcDbArc
 50
4.3586329997
 51
5.6848243843
  0
ARC
  5
69D
100
AcDbEntity
  8
0
100
AcDbCircle
 62
6
  6
CONTINUOUS
 10
28.3770077951
 20
11.6067267588
 40
1.25
100
AcDbArc
 50
2.3786633437
 51
3.6251157697
  0
ARC
  5
69E
100
AcDbEntity
  8
0
100
AcDbCircle
 62
6
  6
CONTINUOUS
 10
28.3770077951
 20
11.6067267588
 40
1.25
100
AcDbArc
 50
358.3672513776
 51
1.6327486224
  0
ARC
  5
69F
100
AcDbEntity
  8
0
100
AcDbCircle
 62
7
  6
CONTINUOUS
 10
4.1240077951
 20
11.6067267588
 40
1.175
100
AcDbArc
 50
15.4413889209
 51
344.5586110791
  0
ARC
  5
6A0
100
AcDbEntity
  8
0
100
AcDbCircle
 62
7
  6
CONTINUOUS
 10
28.3770077951
 20
11.6067267588
 40
1.175
100
AcDbArc
 50
195.4413889209
 51
164.5586110791
  0
ARC
  5
6A1
100
AcDbEntity
  8
0
100
AcDbCircle
 62
6
  6
CONTINUOUS
 10
4.1240077951
 20
11.6067267588
 40
1.075
100
AcDbArc
 50
16.9002528103
 51
343.0997471897
  0
ARC
  5
6A2
100
AcDbEntity
  8
0
100
AcDbCircle
 62
6
  6
CONTINUOUS
 10
28.3770077951
 20
11.6067267588
 40
1.075
100
AcDbArc
 50
196.9002528103
 51
163.0997471897
  0
ARC
  5
6A3
100
AcDbEntity
  8
0
100
AcDbCircle
 62
7
  6
CONTINUOUS
 10
4.1240077951
 20
11.6067267588
 40
1.025
100
AcDbArc
 50
17.7626035683
 51
342.2373964317
  0
ARC
  5
6A4
100
AcDbEntity
  8
0
100
AcDbCircle
 62
7
  6
CONTINUOUS
 10
28.3770077951
 20
11.6067267588
 40
1.025
100
AcDbArc
 50
197.7626035683
 51
162.2373964317
  0
ARC
  5
6A5
100
AcDbEntity
  8
0
100
AcDbCircle
 62
6
  6
CONTINUOUS
 10
4.1240077951
 20
11.6067267588
 40
0.925
100
AcDbArc
 50
19.7465144811
 51
340.2534855189
  0
ARC
  5
6A6
100
AcDbEntity
  8
0
100
AcDbCircle
 62
6
  6
CONTINUOUS
 10
28.3770077951
 20
11.6067267588
 40
0.925
100
AcDbArc
 50
199.7465144811
 51
160.2534855189
  0
ARC
  5
6A7
100
AcDbEntity
  8
0
100
AcDbCircle
 62
6
  6
CONTINUOUS
 10
28.3770077951
 20
11.6067267588
 40
0.74
100
AcDbArc
 50
205.0241411715
 51
154.9758588285
  0
ARC
  5
6A8
100
AcDbEntity
  8
0
100
AcDbCircle
 62
6
  6
CONTINUOUS
 10
4.1240077951
 20
11.6067267588
 40
0.74
100
AcDbArc
 50
25.0241411715
 51
334.9758588285
  0
ARC
  5
6A9
100
AcDbEntity
  8
0
100
AcDbCircle
 62
7
  6
CONTINUOUS
 10
28.3770077951
 20
11.6067267588
 40
0.6935
100
AcDbArc
 50
206.7903134335
 51
153.2096865665
  0
ARC
  5
6AA
100
AcDbEntity
  8
0
100
AcDbCircle
 62
7
  6
CONTINUOUS
 10
4.1240077951
 20
11.6067267588
 40
0.6935
100
AcDbArc
 50
26.7903134335
 51
333.2096865665
  0
ARC
  5
6AB
100
AcDbEntity
  8
0
100
AcDbCircle
 62
6
  6
CONTINUOUS
 10
28.3770077951
 20
11.6067267588
 40
0.567
100
AcDbArc
 50
213.5819903836
 51
146.4180096164
  0
ARC
  5
6AC
100
AcDbEntity
  8
0
100
AcDbCircle
 62
6
  6
CONTINUOUS
 10
4.1240077951
 20
11.6067267588
 40
0.567
100
AcDbArc
 50
33.5819903836
 51
326.4180096164
  0
ARC
  5
6AD
100
AcDbEntity
  8
0
100
AcDbCircle
 62
7
  6
CONTINUOUS
 10
28.3770077951
 20
11.6067267588
 40
0.5
100
AcDbArc
 50
180.0
 51
219.3915163943
  0
ARC
  5
6AE
100
AcDbEntity
  8
0
100
AcDbCircle
 62
6
  6
CONTINUOUS
 10
28.3770077951
 20
11.6067267588
 40
0.5
100
AcDbArc
 50
0.0
 51
180.0
  0
ARC
  5
6AF
100
AcDbEntity
  8
0
100
AcDbCircle
 62
6
  6
CONTINUOUS
 10
4.1240077951
 20
11.6067267588
 40
0.5
100
AcDbArc
 50
7.3816625943
 51
320.6246408931
  0
ARC
  5
6B0
100
AcDbEntity
  8
0
100
AcDbCircle
 62
7
  6
CONTINUOUS
 10
4.1240077951
 20
11.6067267588
 40
0.5
100
AcDbArc
 50
320.6246408931
 51
7.3816625943
  0
CIRCLE
  5
6B1
100
AcDbEntity
  8
0
100
AcDbCircle
 62
7
  6
CONTINUOUS
 10
28.3770077951
 20
11.6067267588
 40
0.4874999956
  0
CIRCLE
  5
6B2
100
AcDbEntity
  8
0
100
AcDbCircle
 62
7
  6
CONTINUOUS
 10
4.1240077951
 20
11.6067267588
 40
0.4874999956
  0
CIRCLE
  5
6B3
100
AcDbEntity
  8
0
100
AcDbCircle
 62
6
  6
CONTINUOUS
 10
28.3770077951
 20
11.6067267588
 40
0.4125
  0
CIRCLE
  5
6B4
100
AcDbEntity
  8
0
100
AcDbCircle
 62
6
  6
CONTINUOUS
 10
4.1240077951
 20
11.6067267588
 40
0.4125
  0
CIRCLE
  5
6B5
100
AcDbEntity
  8
0
100
AcDbCircle
 62
6
  6
CONTINUOUS
 10
28.3770077951
 20
11.6067267588
 40
0.3625
  0
CIRCLE
  5
6B6
100
AcDbEntity
  8
0
100
AcDbCircle
 62
6
  6
CONTINUOUS
 10
4.1240077951
 20
11.6067267588
 40
0.3625
  0
ENDSEC
  0
SECTION
  2
OBJECTS
  0
DICTIONARY
  5
C
100
AcDbDictionary
280
0
281
1
  3
ACAD_GROUP
350
D
  3
ACAD_MLINESTYLE
350
17
  3
ACAD_LAYOUT
350
1A
  3
ACAD_PLOTSETTINGS
350
19
  3
ACAD_PLOTSTYLENAME
350
E
  0
DICTIONARY
  5
D
102
{ACAD_REACTORS
330
C
102
}
100
AcDbDictionary
280
0
281
1
  0
ACDBDICTIONARYWDFLT
  5
E
102
{ACAD_REACTORS
330
C
102
}
100
AcDbDictionary
281
1
  3
Normal
350
F
100
AcDbDictionaryWithDefault
340
F
  0
DICTIONARY
  5
17
102
{ACAD_REACTORS
330
C
102
}
100
AcDbDictionary
280
0
281
1
  3
Standard
350
18
  0
DICTIONARY
  5
19
102
{ACAD_REACTORS
330
C
102
}
100
AcDbDictionary
281
1
  0
DICTIONARY
  5
1A
102
{ACAD_REACTORS
330
C
102
}
100
AcDbDictionary
281
1
  3
Model
350
6B7
  3
Layout1
350
6B8
  0
ACDBPLACEHOLDER
  5
F
102
{ACAD_REACTORS
330
E
102
}
  0
MLINESTYLE
  5
18
102
{ACAD_REACTORS
330
17
102
}
100
AcDbMlineStyle
  2
STANDARD
 70
0
  3

 62
256
 51
90.0
 52
90.0
 71
2
 49
0.5
 62
256
  6
BYLAYER
 49
-0.5
 62
256
  6
BYLAYER
  0
LAYOUT
  5
6B7
102
{ACAD_REACTORS
330
1A
102
}
100
AcDbPlotSettings
  1

  2
none_device
  4
ISO_A1_(594.00_x_841.00_MM)
  6

 40
0.0
 41
0.0
 42
0.0
 43
0.0
 44
841.0
 45
594.0
 46
0.0
 47
0.0
 48
0.0
 49
0.0
140
0.0
141
0.0
142
1.0
143
1.0
 70
1024
 72
0
 73
0
 74
0
  7

 75
0
147
1.0
148
0.0
149
0.0
100
AcDbLayout
  1
Model
 70
0
 71
0
 10
0.0
 20
0.0
 11
33.1102362205
 21
23.3858267717
 12
0.0
 22
0.0
 32
0.0
 14
0.0
 24
0.0
 34
0.0
 15
0.0
 25
0.0
 35
0.0
146
0.0
 13
0.0
 23
0.0
 33
0.0
 16
1.0
 26
0.0
 36
0.0
 17
0.0
 27
1.0
 37
0.0
 76
0
330
203
345
0
346
0
  0
LAYOUT
  5
6B8
102
{ACAD_REACTORS
330
1A
102
}
100
AcDbPlotSettings
  1

  2
none_device
  4
ISO_A1_(594.00_x_841.00_MM)
  6

 40
0.0
 41
0.0
 42
0.0
 43
0.0
 44
841.0
 45
594.0
 46
0.0
 47
0.0
 48
0.0
 49
0.0
140
0.0
141
0.0
142
1.0
143
1.0
 70
0
 72
0
 73
0
 74
0
  7

 75
0
147
1.0
148
0.0
149
0.0
100
AcDbLayout
  1
Layout1
 70
0
 71
1
 10
0.0
 20
0.0
 11
33.1102362205
 21
23.3858267717
 12
0.0
 22
0.0
 32
0.0
 14
0.0
 24
0.0
 34
0.0
 15
0.0
 25
0.0
 35
0.0
146
0.0
 13
0.0
 23
0.0
 33
0.0
 16
1.0
 26
0.0
 36
0.0
 17
0.0
 27
1.0
 37
0.0
 76
0
330
204
345
0
346
0
  0
ENDSEC
  0
EOF
