  0
SECTION
  2
HEADER
  9
$ACADVER
  1
AC1021
  9
$DWGCODEPAGE
  3
ANSI_1252
  9
$EXTMAX
 10
11.6929133858
 20
8.2677165354
 30
0.0
  9
$EXTMIN
 10
0.0
 20
-0.0
 30
0.0
  9
$LIMMIN
 10
0.0
 20
-0.0
  9
$LIMMAX
 10
11.6929133858
 20
8.2677165354
  9
$VIEWCTR
 10
5.8464566929
 20
4.1338582677
  9
$VIEWSIZE
 40
8.2677165354
  9
$CLAYER
  8
0
  9
$LTSCALE
 40
0.6431102362
  9
$CELTYPE
  6
BYLAYER
  9
$DIMSCALE
 40
1.0
  9
$DIMASZ
 40
0.1875
  9
$DIMEXO
 40
0.0730807087
  9
$DIMDLI
 40
0.4443307087
  9
$DIMEXE
 40
0.2104724409
  9
$DIMCEN
 40
0.1052362205
  9
$DIMLFAC
 40
1.0
  9
$DIMBLK
  1
_CLOSED
  9
$DIMTXT
 40
0.15625
  9
$DIMTOL
 70
0
  9
$DIMLIM
 70
0
  9
$DIMTFAC
 40
1.0
  9
$PDMODE
 70
3
  9
$PDSIZE
 40
0.3125
  9
$HANDSEED
  5
392
  9
$TILEMODE
 70
1
  9
$MEASUREMENT
 70
0
  9
$INSUNITS
 70
1
  0
ENDSEC
  0
SECTION
  2
CLASSES
  0
CLASS
  1
ACDBDICTIONARYWDFLT
  2
AcDbDictionaryWithDefault
  3
AutoCAD 2000
 90
0
 91
1
280
0
281
0
  0
CLASS
  1
ACDBPLACEHOLDER
  2
AcDbPlaceHolder
  3
AutoCAD 2000
 90
0
 91
1
280
0
281
0
  0
CLASS
  1
LAYOUT
  2
AcDbLayout
  3
AutoCAD 2000
 90
0
 91
0
280
0
281
0
  0
ENDSEC
  0
SECTION
  2
TABLES
  0
TABLE
  2
VPORT
  5
8
100
AcDbSymbolTable
 70
2
  0
VPORT
  5
1F4
100
AcDbSymbolTableRecord
100
AcDbViewportTableRecord
  2
*ACTIVE
 70
0
 10
0.0
 20
0.0
 11
1.0
 21
1.0
 12
5.8464566929
 22
4.1338582677
 13
0.0
 23
0.0
 14
1.0
 24
1.0
 15
0.0
 25
0.0
 16
0.0
 26
0.0
 36
1.0
 17
0.0
 27
0.0
 37
0.0
 40
8.2677165354
 41
1.4142857143
 42
50.0
 43
0.0
 44
0.0
 50
0.0
 51
0.0
 71
0
 72
100
 73
1
 74
1
 75
0
 76
0
 77
0
 78
0
  0
ENDTAB
  0
TABLE
  2
LTYPE
  5
5
100
AcDbSymbolTable
 70
6
  0
LTYPE
  5
14
100
AcDbSymbolTableRecord
100
AcDbLinetypeTableRecord
  2
BYBLOCK
 70
0
  3

 72
65
 73
0
 40
0.0
  0
LTYPE
  5
15
100
AcDbSymbolTableRecord
100
AcDbLinetypeTableRecord
  2
BYLAYER
 70
0
  3

 72
65
 73
0
 40
0.0
  0
LTYPE
  5
16
100
AcDbSymbolTableRecord
100
AcDbLinetypeTableRecord
  2
CONTINUOUS
 70
64
  3
Solid line
 72
65
 73
0
 40
0.0
  0
LTYPE
  5
1F5
100
AcDbSymbolTableRecord
100
AcDbLinetypeTableRecord
  2
CENTER
 70
64
  3
____ _ ____ _ ____ _ ____ _ ____ _ ____ _ ____
 72
65
 73
4
 40
0.6
 49
0.375
 74
0
 49
-0.075
 74
0
 49
0.075
 74
0
 49
-0.075
 74
0
  0
LTYPE
  5
1F6
100
AcDbSymbolTableRecord
100
AcDbLinetypeTableRecord
  2
HIDDEN
 70
64
  3
- - - - - - - - - - - - - - - - - - - -
 72
65
 73
2
 40
0.2
 49
0.1
 74
0
 49
-0.1
 74
0
  0
LTYPE
  5
1F7
100
AcDbSymbolTableRecord
100
AcDbLinetypeTableRecord
  2
PHANTOM
 70
64
  3
_____ _ _ _____ _ _ _____ _ _ _____
 72
65
 73
6
 40
0.8
 49
0.45
 74
0
 49
-0.05
 74
0
 49
0.1
 74
0
 49
-0.05
 74
0
 49
0.1
 74
0
 49
-0.05
 74
0
  0
LTYPE
  5
1F8
100
AcDbSymbolTableRecord
100
AcDbLinetypeTableRecord
  2
DOT
 70
64
  3
. . . . . . . . . . . . . . . . . . . .
 72
65
 73
2
 40
0.2
 49
0.1
 74
0
 49
-0.1
 74
0
  0
LTYPE
  5
1F9
100
AcDbSymbolTableRecord
100
AcDbLinetypeTableRecord
  2
DASHED
 70
64
  3
- - - - - - - - - - - - - - - - - - - -
 72
65
 73
2
 40
0.2
 49
0.1
 74
0
 49
-0.1
 74
0
  0
ENDTAB
  0
TABLE
  2
LAYER
  5
2
100
AcDbSymbolTable
 70
36
  0
LAYER
  5
10
100
AcDbSymbolTableRecord
100
AcDbLayerTableRecord
  2
0
 70
0
 62
7
  6
CONTINUOUS
370
-3
390
F
  0
LAYER
  5
1FA
100
AcDbSymbolTableRecord
100
AcDbLayerTableRecord
  2
DEFAULT_1
 70
0
 62
7
  6
CENTER
370
-3
390
F
  0
LAYER
  5
1FB
100
AcDbSymbolTableRecord
100
AcDbLayerTableRecord
  2
DEFAULT_2
 70
0
 62
8
  6
HIDDEN
370
-3
390
F
  0
LAYER
  5
1FC
100
AcDbSymbolTableRecord
100
AcDbLayerTableRecord
  2
DEFAULT_3
 70
0
 62
7
  6
PHANTOM
370
-3
390
F
  0
LAYER
  5
1FD
100
AcDbSymbolTableRecord
100
AcDbLayerTableRecord
  2
DEFAULT_COORDINATE_SYSTEM
 70
0
 62
7
  6
CONTINUOUS
370
-3
390
F
  0
LAYER
  5
1FE
100
AcDbSymbolTableRecord
100
AcDbLayerTableRecord
  2
DEFAULT_DATUM_AXES
 70
0
 62
7
  6
CONTINUOUS
370
-3
390
F
  0
LAYER
  5
1FF
100
AcDbSymbolTableRecord
100
AcDbLayerTableRecord
  2
DEFAULT_DATUM_CURVES
 70
0
 62
7
  6
CONTINUOUS
370
-3
390
F
  0
LAYER
  5
200
100
AcDbSymbolTableRecord
100
AcDbLayerTableRecord
  2
DEFAULT_DATUM_PLANES
 70
0
 62
7
  6
CONTINUOUS
370
-3
390
F
  0
ENDTAB
  0
TABLE
  2
STYLE
  5
3
100
AcDbSymbolTable
 70
1
  0
STYLE
  5
11
100
AcDbSymbolTableRecord
100
AcDbTextStyleTableRecord
  2
STANDARD
 70
0
 40
0.0
 41
0.8
 50
0.0
 71
0
 42
0.2
  3
txt
  4

  0
STYLE
  5
201
100
AcDbSymbolTableRecord
100
AcDbTextStyleTableRecord
  2
TEXTSTYLE_1
 70
0
 40
0.0
 41
0.8
 50
0.0
 71
0
 42
0.2
  3
gdt
  4

  0
ENDTAB
  0
TABLE
  2
VIEW
  5
6
100
AcDbSymbolTable
 70
0
  0
ENDTAB
  0
TABLE
  2
UCS
  5
7
100
AcDbSymbolTable
 70
0
  0
ENDTAB
  0
TABLE
  2
APPID
  5
9
100
AcDbSymbolTable
 70
1
  0
APPID
  5
202
100
AcDbSymbolTableRecord
100
AcDbRegAppTableRecord
  2
ACAD
 70
0
  0
ENDTAB
  0
TABLE
  2
BLOCK_RECORD
  5
1
100
AcDbSymbolTable
 70
0
  0
BLOCK_RECORD
  5
203
100
AcDbSymbolTableRecord
100
AcDbBlockTableRecord
  2
*Model_Space
  0
BLOCK_RECORD
  5
204
100
AcDbSymbolTableRecord
100
AcDbBlockTableRecord
  2
*Paper_Space
  0
ENDTAB
  0
TABLE
  2
DIMSTYLE
  5
A
100
AcDbSymbolTable
 70
1
100
AcDbDimStyleTable
 71
0
  0
DIMSTYLE
105
205
100
AcDbSymbolTableRecord
100
AcDbDimStyleTableRecord
  2
STANDARD
 70
0
  3

  4

 40
1.0
 41
0.1875
 42
0.0625
 43
0.38
 44
0.18
 45
0.0
 46
0.0
 47
0.001
 48
0.001
140
0.15625
141
0.09
142
0.0
143
25.4
144
1.0
145
0.0
146
1.0
147
0.09
 71
0.0
 72
0.0
 73
1
 74
1
 75
0
 76
0
 77
0
 78
4
170
0
171
2
172
0
173
0
174
0
175
0
176
0
177
0
178
0
270
2
271
3
272
3
273
2
274
2
275
0
280
0
281
0
282
0
283
1
284
4
285
0
286
0
287
3
288
0
340
11
  0
ENDTAB
  0
ENDSEC
  0
SECTION
  2
BLOCKS
  0
BLOCK
  5
20
100
AcDbEntity
  8
0
100
AcDbBlockBegin
  2
*Model_Space
 70
0
 10
0.0
 20
0.0
 30
0.0
  3
*Model_Space
  1

  0
ENDBLK
  5
21
100
AcDbEntity
  8
0
100
AcDbBlockEnd
  0
BLOCK
  5
1C
100
AcDbEntity
  8
0
100
AcDbBlockBegin
  2
*Paper_Space
 70
0
 10
0.0
 20
0.0
 30
0.0
  3
*Paper_Space
  1

  0
ENDBLK
  5
1D
100
AcDbEntity
  8
0
100
AcDbBlockEnd
  0
ENDSEC
  0
SECTION
  2
ENTITIES
  0
LINE
  5
206
100
AcDbEntity
  8
0
100
AcDbLine
 62
6
  6
CONTINUOUS
 10
3.7197253148
 20
5.1185146442
 11
3.7197253148
 21
4.7685146442
  0
LINE
  5
207
100
AcDbEntity
  8
0
100
AcDbLine
 62
6
  6
CONTINUOUS
 10
3.8572253148
 20
5.2435146442
 11
3.8572253148
 21
5.1935146442
  0
LINE
  5
208
100
AcDbEntity
  8
0
100
AcDbLine
 62
6
  6
CONTINUOUS
 10
4.0822253148
 20
5.2435146442
 11
4.0822253148
 21
5.1935146442
  0
LINE
  5
209
100
AcDbEntity
  8
0
100
AcDbLine
 62
6
  6
CONTINUOUS
 10
4.2197253148
 20
5.1185146442
 11
4.2197253148
 21
4.7685146442
  0
LINE
  5
20A
100
AcDbEntity
  8
0
100
AcDbLine
 62
9
  6
CONTINUOUS
 10
4.4697253148
 20
4.1435146442
 11
4.4697253148
 21
4.3935146442
  0
LINE
  5
20B
100
AcDbEntity
  8
0
100
AcDbLine
 62
6
  6
CONTINUOUS
 10
5.0947886563
 20
3.2877123322
 11
5.0925712727
 21
3.3088093275
  0
LINE
  5
20C
100
AcDbEntity
  8
0
100
AcDbLine
 62
6
  6
CONTINUOUS
 10
4.910019998
 20
5.0456686863
 11
4.9078026145
 21
5.0667656816
  0
LINE
  5
20D
100
AcDbEntity
  8
0
100
AcDbLine
 62
6
  6
CONTINUOUS
 10
5.0610312197
 20
3.3153547098
 11
5.0595514614
 21
3.336516239
  0
LINE
  5
20E
100
AcDbEntity
  8
0
100
AcDbLine
 62
6
  6
CONTINUOUS
 10
4.9377269095
 20
5.0786884976
 11
4.9362471512
 21
5.0998500267
  0
LINE
  5
20F
100
AcDbEntity
  8
0
100
AcDbLine
 62
6
  6
CONTINUOUS
 10
5.0282590523
 20
3.344158366
 11
5.0275187222
 21
3.3653586469
  0
LINE
  5
210
100
AcDbEntity
  8
0
100
AcDbLine
 62
6
  6
CONTINUOUS
 10
4.9665693175
 20
5.1107212368
 11
4.9658289874
 21
5.1319215178
  0
LINE
  5
211
100
AcDbEntity
  8
0
100
AcDbLine
 62
6
  6
CONTINUOUS
 10
4.9965120819
 20
3.3740882079
 11
4.9965120819
 21
3.3953014114
  0
LINE
  5
212
100
AcDbEntity
  8
0
100
AcDbLine
 62
6
  6
CONTINUOUS
 10
4.9965120819
 20
5.1417278771
 11
4.9965120819
 21
5.1629410805
  0
LINE
  5
213
100
AcDbEntity
  8
0
100
AcDbLine
 62
6
  6
CONTINUOUS
 10
4.9658289874
 20
3.4051077707
 11
4.9665693175
 21
3.4263080516
  0
LINE
  5
214
100
AcDbEntity
  8
0
100
AcDbLine
 62
6
  6
CONTINUOUS
 10
5.0275187222
 20
5.1716706415
 11
5.0282590523
 21
5.1928709225
  0
LINE
  5
215
100
AcDbEntity
  8
0
100
AcDbLine
 62
6
  6
CONTINUOUS
 10
4.9362471512
 20
3.4371792617
 11
4.9377269095
 21
3.4583407909
  0
LINE
  5
216
100
AcDbEntity
  8
0
100
AcDbLine
 62
6
  6
CONTINUOUS
 10
5.0595514614
 20
5.2005130495
 11
5.0610312197
 21
5.2216745786
  0
LINE
  5
217
100
AcDbEntity
  8
0
100
AcDbLine
 62
6
  6
CONTINUOUS
 10
4.9078026145
 20
3.4702636069
 11
4.910019998
 21
3.4913606022
  0
LINE
  5
218
100
AcDbEntity
  8
0
100
AcDbLine
 62
6
  6
CONTINUOUS
 10
5.0925712727
 20
5.228219961
 11
5.0947886563
 21
5.2493169563
  0
LINE
  5
219
100
AcDbEntity
  8
0
100
AcDbLine
 62
6
  6
CONTINUOUS
 10
4.8805300323
 20
3.5043204979
 11
4.8834823397
 21
3.5253272559
  0
LINE
  5
21A
100
AcDbEntity
  8
0
100
AcDbLine
 62
6
  6
CONTINUOUS
 10
5.1265379265
 20
5.2547576194
 11
5.1294902338
 21
5.2757643774
  0
LINE
  5
21B
100
AcDbEntity
  8
0
100
AcDbLine
 62
6
  6
CONTINUOUS
 10
4.8544626323
 20
3.5393084419
 11
4.8581462664
 21
3.5601993691
  0
LINE
  5
21C
100
AcDbEntity
  8
0
100
AcDbLine
 62
6
  6
CONTINUOUS
 10
5.1614100396
 20
5.2800936926
 11
5.1650936737
 21
5.3009846198
  0
LINE
  5
21D
100
AcDbEntity
  8
0
100
AcDbLine
 62
6
  6
CONTINUOUS
 10
4.8296321734
 20
3.5751848112
 11
4.8340426464
 21
3.5959344553
  0
LINE
  5
21E
100
AcDbEntity
  8
0
100
AcDbLine
 62
6
  6
CONTINUOUS
 10
5.1971451258
 20
5.3041973126
 11
5.2015555988
 21
5.3249469566
  0
LINE
  5
21F
100
AcDbEntity
  8
0
100
AcDbLine
 62
6
  6
CONTINUOUS
 10
4.8060689079
 20
3.6119058962
 11
4.8112008462
 21
3.6324889768
  0
LINE
  5
220
100
AcDbEntity
  8
0
100
AcDbLine
 62
6
  6
CONTINUOUS
 10
5.2336996474
 20
5.3270391128
 11
5.2388315857
 21
5.3476221934
  0
LINE
  5
221
100
AcDbEntity
  8
0
100
AcDbLine
 62
6
  6
CONTINUOUS
 10
4.7838015438
 20
3.6494269578
 11
4.7896486951
 21
3.6698183977
  0
LINE
  5
222
100
AcDbEntity
  8
0
100
AcDbLine
 62
6
  6
CONTINUOUS
 10
5.2710290682
 20
5.3485912639
 11
5.2768762195
 21
5.3689827039
  0
LINE
  5
223
100
AcDbEntity
  8
0
100
AcDbLine
 62
6
  6
CONTINUOUS
 10
4.7628572105
 20
3.6877022823
 11
4.7694124509
 21
3.7078772377
  0
LINE
  5
224
100
AcDbEntity
  8
0
100
AcDbLine
 62
6
  6
CONTINUOUS
 10
5.3090879082
 20
5.3688275081
 11
5.3156431486
 21
5.3890024635
  0
LINE
  5
225
100
AcDbEntity
  8
0
100
AcDbLine
 62
6
  6
CONTINUOUS
 10
4.7432614255
 20
3.7266852373
 11
4.7505167684
 21
3.746619128
  0
LINE
  5
226
100
AcDbEntity
  8
0
100
AcDbLine
 62
6
  6
CONTINUOUS
 10
5.3478297985
 20
5.3877231906
 11
5.3550851414
 21
5.4076570813
  0
LINE
  5
227
100
AcDbEntity
  8
0
100
AcDbLine
 62
6
  6
CONTINUOUS
 10
4.7250380633
 20
3.7663283279
 11
4.7329846692
 21
3.7859968676
  0
LINE
  5
228
100
AcDbEntity
  8
0
100
AcDbLine
 62
6
  6
CONTINUOUS
 10
5.3872075382
 20
5.4052552898
 11
5.395154144
 21
5.4249238296
  0
LINE
  5
229
100
AcDbEntity
  8
0
100
AcDbLine
 62
6
  6
CONTINUOUS
 10
4.7082093262
 20
3.8065832552
 11
4.7168375133
 21
3.8259624808
  0
LINE
  5
22A
100
AcDbEntity
  8
0
100
AcDbLine
 62
6
  6
CONTINUOUS
 10
5.4271731514
 20
5.4214024457
 11
5.4358013385
 21
5.4407816713
  0
LINE
  5
22B
100
AcDbEntity
  8
0
100
AcDbLine
 62
6
  6
CONTINUOUS
 10
4.6927957173
 20
3.8474009747
 11
4.7020949736
 21
3.8664672757
  0
LINE
  5
22C
100
AcDbEntity
  8
0
100
AcDbLine
 62
6
  6
CONTINUOUS
 10
5.4676779462
 20
5.4361449854
 11
5.4769772025
 21
5.4552112863
  0
LINE
  5
22D
100
AcDbEntity
  8
0
100
AcDbLine
 62
6
  6
CONTINUOUS
 10
4.6788160159
 20
3.8887317564
 11
4.6887750117
 21
3.9074619033
  0
LINE
  5
22E
100
AcDbEntity
  8
0
100
AcDbLine
 62
6
  6
CONTINUOUS
 10
5.5086725738
 20
5.4494649473
 11
5.5186315696
 21
5.4681950942
  0
LINE
  5
22F
100
AcDbEntity
  8
0
100
AcDbLine
 62
6
  6
CONTINUOUS
 10
4.666287254
 20
3.930525245
 11
4.6768938558
 21
3.9488964181
  0
LINE
  5
230
100
AcDbEntity
  8
0
100
AcDbLine
 62
6
  6
CONTINUOUS
 10
5.5501070886
 20
5.4613461032
 11
5.5607136903
 21
5.4797172763
  0
LINE
  5
231
100
AcDbEntity
  8
0
100
AcDbLine
 62
6
  6
CONTINUOUS
 10
4.6552246961
 20
3.9727305217
 11
4.6664659812
 21
3.9907203384
  0
LINE
  5
232
100
AcDbEntity
  8
0
100
AcDbLine
 62
6
  6
CONTINUOUS
 10
5.591931009
 20
5.4717739778
 11
5.6031722941
 21
5.4897637946
  0
LINE
  5
233
100
AcDbEntity
  8
0
100
AcDbLine
 62
6
  6
CONTINUOUS
 10
4.64564182
 20
4.0152961657
 11
4.6575040928
 21
4.0328827084
  0
LINE
  5
234
100
AcDbEntity
  8
0
100
AcDbLine
 62
6
  6
CONTINUOUS
 10
5.6340933789
 20
5.4807358662
 11
5.6459556517
 21
5.4983224088
  0
LINE
  5
235
100
AcDbEntity
  8
0
100
AcDbLine
 62
6
  6
CONTINUOUS
 10
4.6375503012
 20
4.0581703174
 11
4.6500191093
 21
4.0753321595
  0
LINE
  5
236
100
AcDbEntity
  8
0
100
AcDbLine
 62
6
  6
CONTINUOUS
 10
5.6765428301
 20
5.4882208497
 11
5.6890116382
 21
5.5053826918
  0
LINE
  5
237
100
AcDbEntity
  8
0
100
AcDbLine
 62
6
  6
CONTINUOUS
 10
4.6309599977
 20
4.1013007413
 11
4.6440201499
 21
4.1180169738
  0
LINE
  5
238
100
AcDbEntity
  8
0
100
AcDbLine
 62
6
  6
CONTINUOUS
 10
5.7192276443
 20
5.4942198091
 11
5.7322877964
 21
5.5109360416
  0
LINE
  5
239
100
AcDbEntity
  8
0
100
AcDbLine
 62
6
  6
CONTINUOUS
 10
5.7620958168
 20
5.4987254356
 11
5.7757314011
 21
5.5149756922
  0
LINE
  5
23A
100
AcDbEntity
  8
0
100
AcDbLine
 62
6
  6
CONTINUOUS
 10
5.8050951192
 20
5.5017322398
 11
5.8192895229
 21
5.5174967221
  0
LINE
  5
23B
100
AcDbEntity
  8
0
100
AcDbLine
 62
6
  6
CONTINUOUS
 10
5.8481731636
 20
5.5032365582
 11
5.8629090929
 21
5.5184960597
  0
LINE
  5
23C
100
AcDbEntity
  8
0
100
AcDbLine
 62
6
  6
CONTINUOUS
 10
5.891277466
 20
5.5032365582
 11
5.9065369675
 21
5.5179724875
  0
LINE
  5
23D
100
AcDbEntity
  8
0
100
AcDbLine
 62
6
  6
CONTINUOUS
 10
5.9343555103
 20
5.5017322398
 11
5.9501199927
 21
5.5159266434
  0
LINE
  5
23E
100
AcDbEntity
  8
0
100
AcDbLine
 62
6
  6
CONTINUOUS
 10
5.9773548128
 20
5.4987254356
 11
5.9936050694
 21
5.51236102
  0
LINE
  5
23F
100
AcDbEntity
  8
0
100
AcDbLine
 62
6
  6
CONTINUOUS
 10
4.6273039174
 20
4.4059521626
 11
4.6440201499
 21
4.4190123147
  0
LINE
  5
240
100
AcDbEntity
  8
0
100
AcDbLine
 62
6
  6
CONTINUOUS
 10
6.0202229852
 20
5.4942198091
 11
6.0369392177
 21
5.5072799613
  0
LINE
  5
241
100
AcDbEntity
  8
0
100
AcDbLine
 62
6
  6
CONTINUOUS
 10
4.6328572672
 20
4.4492283208
 11
4.6500191093
 21
4.4616971289
  0
LINE
  5
242
100
AcDbEntity
  8
0
100
AcDbLine
 62
6
  6
CONTINUOUS
 10
6.0629077995
 20
5.4882208497
 11
6.0800696416
 21
5.5006896578
  0
LINE
  5
243
100
AcDbEntity
  8
0
100
AcDbLine
 62
6
  6
CONTINUOUS
 10
4.6399175502
 20
4.4922843073
 11
4.6575040928
 21
4.5041465801
  0
LINE
  5
244
100
AcDbEntity
  8
0
100
AcDbLine
 62
6
  6
CONTINUOUS
 10
6.1053572506
 20
5.4807358662
 11
6.1229437933
 21
5.492598139
  0
LINE
  5
245
100
AcDbEntity
  8
0
100
AcDbLine
 62
6
  6
CONTINUOUS
 10
4.6484761644
 20
4.5350676649
 11
4.6664659812
 21
4.54630895
  0
LINE
  5
246
100
AcDbEntity
  8
0
100
AcDbLine
 62
6
  6
CONTINUOUS
 10
6.1475196206
 20
5.4717739778
 11
6.1655094374
 21
5.4830152629
  0
LINE
  5
247
100
AcDbEntity
  8
0
100
AcDbLine
 62
6
  6
CONTINUOUS
 10
4.6585226827
 20
4.5775262687
 11
4.6768938558
 21
4.5881328704
  0
LINE
  5
248
100
AcDbEntity
  8
0
100
AcDbLine
 62
6
  6
CONTINUOUS
 10
6.1893435409
 20
5.4613461032
 11
6.207714714
 21
5.471952705
  0
LINE
  5
249
100
AcDbEntity
  8
0
100
AcDbLine
 62
6
  6
CONTINUOUS
 10
4.6700448648
 20
4.6196083894
 11
4.6887750117
 21
4.6295673852
  0
LINE
  5
24A
100
AcDbEntity
  8
0
100
AcDbLine
 62
6
  6
CONTINUOUS
 10
6.2307780557
 20
5.4494649473
 11
6.2495082026
 21
5.4594239431
  0
LINE
  5
24B
100
AcDbEntity
  8
0
100
AcDbLine
 62
6
  6
CONTINUOUS
 10
4.6830286727
 20
4.6612627565
 11
4.7020949736
 21
4.6705620128
  0
LINE
  5
24C
100
AcDbEntity
  8
0
100
AcDbLine
 62
6
  6
CONTINUOUS
 10
6.2717726833
 20
5.4361449854
 11
6.2908389843
 21
5.4454442417
  0
LINE
  5
24D
100
AcDbEntity
  8
0
100
AcDbLine
 62
6
  6
CONTINUOUS
 10
4.6974582877
 20
4.7024386205
 11
4.7168375133
 21
4.7110668076
  0
LINE
  5
24E
100
AcDbEntity
  8
0
100
AcDbLine
 62
6
  6
CONTINUOUS
 10
6.3122774782
 20
5.4214024457
 11
6.3316567038
 21
5.4300306328
  0
LINE
  5
24F
100
AcDbEntity
  8
0
100
AcDbLine
 62
6
  6
CONTINUOUS
 10
4.7133161295
 20
4.743085815
 11
4.7329846692
 21
4.7510324208
  0
LINE
  5
250
100
AcDbEntity
  8
0
100
AcDbLine
 62
6
  6
CONTINUOUS
 10
6.3522430914
 20
5.4052552898
 11
6.3719116311
 21
5.4132018957
  0
LINE
  5
251
100
AcDbEntity
  8
0
100
AcDbLine
 62
6
  6
CONTINUOUS
 10
4.7305828777
 20
4.7831548176
 11
4.7505167684
 21
4.7904101605
  0
LINE
  5
252
100
AcDbEntity
  8
0
100
AcDbLine
 62
6
  6
CONTINUOUS
 10
6.391620831
 20
5.3877231906
 11
6.4115547217
 21
5.3949785335
  0
LINE
  5
253
100
AcDbEntity
  8
0
100
AcDbLine
 62
6
  6
CONTINUOUS
 10
4.7492374955
 20
4.8225968104
 11
4.7694124509
 21
4.8291520508
  0
LINE
  5
254
100
AcDbEntity
  8
0
100
AcDbLine
 62
6
  6
CONTINUOUS
 10
6.4303627213
 20
5.3688275081
 11
6.4505376767
 21
5.3753827485
  0
LINE
  5
255
100
AcDbEntity
  8
0
100
AcDbLine
 62
6
  6
CONTINUOUS
 10
4.7692572552
 20
4.8613637395
 11
4.7896486951
 21
4.8672108908
  0
LINE
  5
256
100
AcDbEntity
  8
0
100
AcDbLine
 62
6
  6
CONTINUOUS
 10
6.4684215613
 20
5.3485912639
 11
6.4888130013
 21
5.3544384152
  0
LINE
  5
257
100
AcDbEntity
  8
0
100
AcDbLine
 62
6
  6
CONTINUOUS
 10
6.9488328639
 20
3.6376209152
 11
6.9282497833
 21
3.6324889768
  0
LINE
  5
258
100
AcDbEntity
  8
0
100
AcDbLine
 62
6
  6
CONTINUOUS
 10
5.2336996474
 20
3.2099901757
 11
5.2131165667
 21
3.2048582373
  0
LINE
  5
259
100
AcDbEntity
  8
0
100
AcDbLine
 62
6
  6
CONTINUOUS
 10
6.9261576272
 20
3.6003449283
 11
6.9054079831
 21
3.5959344553
  0
LINE
  5
25A
100
AcDbEntity
  8
0
100
AcDbLine
 62
6
  6
CONTINUOUS
 10
5.1971451258
 20
3.2328319759
 11
5.1763954818
 21
3.2284215029
  0
LINE
  5
25B
100
AcDbEntity
  8
0
100
AcDbLine
 62
6
  6
CONTINUOUS
 10
6.9021952903
 20
3.5638830032
 11
6.8813043631
 21
3.5601993691
  0
LINE
  5
25C
100
AcDbEntity
  8
0
100
AcDbLine
 62
6
  6
CONTINUOUS
 10
5.1614100396
 20
3.2569355959
 11
5.1405191124
 21
3.2532519618
  0
LINE
  5
25D
100
AcDbEntity
  8
0
100
AcDbLine
 62
6
  6
CONTINUOUS
 10
6.8769750479
 20
3.5282795632
 11
6.8559682899
 21
3.5253272559
  0
LINE
  5
25E
100
AcDbEntity
  8
0
100
AcDbLine
 62
6
  6
CONTINUOUS
 10
5.1265379265
 20
3.2822716691
 11
5.1055311685
 21
3.2793193618
  0
LINE
  5
25F
100
AcDbEntity
  8
0
100
AcDbLine
 62
6
  6
CONTINUOUS
 10
6.8505276268
 20
3.4935779857
 11
6.8294306315
 21
3.4913606022
  0
LINE
  5
260
100
AcDbEntity
  8
0
100
AcDbLine
 62
6
  6
CONTINUOUS
 10
5.0925712727
 20
3.3088093275
 11
5.0714742774
 21
3.3065919439
  0
LINE
  5
261
100
AcDbEntity
  8
0
100
AcDbLine
 62
6
  6
CONTINUOUS
 10
6.8228852492
 20
3.4598205491
 11
6.80172372
 21
3.4583407909
  0
LINE
  5
262
100
AcDbEntity
  8
0
100
AcDbLine
 62
6
  6
CONTINUOUS
 10
5.0595514614
 20
3.336516239
 11
5.0383899323
 21
3.3350364807
  0
LINE
  5
263
100
AcDbEntity
  8
0
100
AcDbLine
 62
6
  6
CONTINUOUS
 10
6.794081593
 20
3.4270483817
 11
6.7728813121
 21
3.4263080516
  0
LINE
  5
264
100
AcDbEntity
  8
0
100
AcDbLine
 62
6
  6
CONTINUOUS
 10
5.0275187222
 20
3.3653586469
 11
5.0063184412
 21
3.3646183168
  0
LINE
  5
265
100
AcDbEntity
  8
0
100
AcDbLine
 62
6
  6
CONTINUOUS
 10
6.7641517511
 20
3.3953014114
 11
6.7429385476
 21
3.3953014114
  0
LINE
  5
266
100
AcDbEntity
  8
0
100
AcDbLine
 62
6
  6
CONTINUOUS
 10
4.9965120819
 20
3.3953014114
 11
4.9752988785
 21
3.3953014114
  0
LINE
  5
267
100
AcDbEntity
  8
0
100
AcDbLine
 62
6
  6
CONTINUOUS
 10
6.7331321883
 20
3.3646183168
 11
6.7119319074
 21
3.3653586469
  0
LINE
  5
268
100
AcDbEntity
  8
0
100
AcDbLine
 62
6
  6
CONTINUOUS
 10
4.9665693175
 20
3.4263080516
 11
4.9453690366
 21
3.4270483817
  0
LINE
  5
269
100
AcDbEntity
  8
0
100
AcDbLine
 62
6
  6
CONTINUOUS
 10
6.7010606973
 20
3.3350364807
 11
6.6798991681
 21
3.336516239
  0
LINE
  5
26A
100
AcDbEntity
  8
0
100
AcDbLine
 62
6
  6
CONTINUOUS
 10
4.9377269095
 20
3.4583407909
 11
4.9165653804
 21
3.4598205491
  0
LINE
  5
26B
100
AcDbEntity
  8
0
100
AcDbLine
 62
6
  6
CONTINUOUS
 10
6.6679763521
 20
3.3065919439
 11
6.6468793568
 21
3.3088093275
  0
LINE
  5
26C
100
AcDbEntity
  8
0
100
AcDbLine
 62
6
  6
CONTINUOUS
 10
4.910019998
 20
3.4913606022
 11
4.8889230027
 21
3.4935779857
  0
LINE
  5
26D
100
AcDbEntity
  8
0
100
AcDbLine
 62
6
  6
CONTINUOUS
 10
6.6339194611
 20
3.2793193618
 11
6.6129127031
 21
3.2822716691
  0
LINE
  5
26E
100
AcDbEntity
  8
0
100
AcDbLine
 62
6
  6
CONTINUOUS
 10
4.8834823397
 20
3.5253272559
 11
4.8624755817
 21
3.5282795632
  0
LINE
  5
26F
100
AcDbEntity
  8
0
100
AcDbLine
 62
6
  6
CONTINUOUS
 10
6.5989315171
 20
3.2532519618
 11
6.5780405899
 21
3.2569355959
  0
LINE
  5
270
100
AcDbEntity
  8
0
100
AcDbLine
 62
6
  6
CONTINUOUS
 10
4.8581462664
 20
3.5601993691
 11
4.8372553392
 21
3.5638830032
  0
LINE
  5
271
100
AcDbEntity
  8
0
100
AcDbLine
 62
6
  6
CONTINUOUS
 10
6.5630551478
 20
3.2284215029
 11
6.5423055037
 21
3.2328319759
  0
LINE
  5
272
100
AcDbEntity
  8
0
100
AcDbLine
 62
6
  6
CONTINUOUS
 10
4.8340426464
 20
3.5959344553
 11
4.8132930024
 21
3.6003449283
  0
LINE
  5
273
100
AcDbEntity
  8
0
100
AcDbLine
 62
6
  6
CONTINUOUS
 10
6.5263340628
 20
3.2048582373
 11
6.5057509822
 21
3.2099901757
  0
LINE
  5
274
100
AcDbEntity
  8
0
100
AcDbLine
 62
6
  6
CONTINUOUS
 10
4.8112008462
 20
3.6324889768
 11
4.7906177656
 21
3.6376209152
  0
LINE
  5
275
100
AcDbEntity
  8
0
100
AcDbLine
 62
6
  6
CONTINUOUS
 10
6.4888130013
 20
3.1825908732
 11
6.4684215613
 21
3.1884380245
  0
LINE
  5
276
100
AcDbEntity
  8
0
100
AcDbLine
 62
6
  6
CONTINUOUS
 10
4.7896486951
 20
3.6698183977
 11
4.7692572552
 21
3.675665549
  0
LINE
  5
277
100
AcDbEntity
  8
0
100
AcDbLine
 62
6
  6
CONTINUOUS
 10
6.4505376767
 20
3.16164654
 11
6.4303627213
 21
3.1682017803
  0
LINE
  5
278
100
AcDbEntity
  8
0
100
AcDbLine
 62
6
  6
CONTINUOUS
 10
4.7694124509
 20
3.7078772377
 11
4.7492374955
 21
3.714432478
  0
LINE
  5
279
100
AcDbEntity
  8
0
100
AcDbLine
 62
6
  6
CONTINUOUS
 10
6.4115547217
 20
3.142050755
 11
6.391620831
 21
3.1493060979
  0
LINE
  5
27A
100
AcDbEntity
  8
0
100
AcDbLine
 62
6
  6
CONTINUOUS
 10
4.7505167684
 20
3.746619128
 11
4.7305828777
 21
3.7538744709
  0
LINE
  5
27B
100
AcDbEntity
  8
0
100
AcDbLine
 62
6
  6
CONTINUOUS
 10
6.3719116311
 20
3.1238273928
 11
6.3522430914
 21
3.1317739986
  0
LINE
  5
27C
100
AcDbEntity
  8
0
100
AcDbLine
 62
6
  6
CONTINUOUS
 10
4.7329846692
 20
3.7859968676
 11
4.7133161295
 21
3.7939434735
  0
LINE
  5
27D
100
AcDbEntity
  8
0
100
AcDbLine
 62
6
  6
CONTINUOUS
 10
6.3316567038
 20
3.1069986556
 11
6.3122774782
 21
3.1156268428
  0
LINE
  5
27E
100
AcDbEntity
  8
0
100
AcDbLine
 62
6
  6
CONTINUOUS
 10
4.7168375133
 20
3.8259624808
 11
4.6974582877
 21
3.834590668
  0
LINE
  5
27F
100
AcDbEntity
  8
0
100
AcDbLine
 62
6
  6
CONTINUOUS
 10
6.2908389843
 20
3.0915850468
 11
6.2717726833
 21
3.1008843031
  0
LINE
  5
280
100
AcDbEntity
  8
0
100
AcDbLine
 62
6
  6
CONTINUOUS
 10
4.7020949736
 20
3.8664672757
 11
4.6830286727
 21
3.875766532
  0
LINE
  5
281
100
AcDbEntity
  8
0
100
AcDbLine
 62
6
  6
CONTINUOUS
 10
6.2495082026
 20
3.0776053454
 11
6.2307780557
 21
3.0875643411
  0
LINE
  5
282
100
AcDbEntity
  8
0
100
AcDbLine
 62
6
  6
CONTINUOUS
 10
4.6887750117
 20
3.9074619033
 11
4.6700448648
 21
3.9174208991
  0
LINE
  5
283
100
AcDbEntity
  8
0
100
AcDbLine
 62
6
  6
CONTINUOUS
 10
6.207714714
 20
3.0650765835
 11
6.1893435409
 21
3.0756831852
  0
LINE
  5
284
100
AcDbEntity
  8
0
100
AcDbLine
 62
6
  6
CONTINUOUS
 10
4.6768938558
 20
3.9488964181
 11
4.6585226827
 21
3.9595030198
  0
LINE
  5
285
100
AcDbEntity
  8
0
100
AcDbLine
 62
6
  6
CONTINUOUS
 10
6.1655094374
 20
3.0540140255
 11
6.1475196206
 21
3.0652553107
  0
LINE
  5
286
100
AcDbEntity
  8
0
100
AcDbLine
 62
6
  6
CONTINUOUS
 10
4.6664659812
 20
3.9907203384
 11
4.6484761644
 21
4.0019616236
  0
LINE
  5
287
100
AcDbEntity
  8
0
100
AcDbLine
 62
6
  6
CONTINUOUS
 10
6.1229437933
 20
3.0444311495
 11
6.1053572506
 21
3.0562934223
  0
LINE
  5
288
100
AcDbEntity
  8
0
100
AcDbLine
 62
6
  6
CONTINUOUS
 10
4.6575040928
 20
4.0328827084
 11
4.6399175502
 21
4.0447449812
  0
LINE
  5
289
100
AcDbEntity
  8
0
100
AcDbLine
 62
6
  6
CONTINUOUS
 10
6.0800696416
 20
3.0363396306
 11
6.0629077995
 21
3.0488084387
  0
LINE
  5
28A
100
AcDbEntity
  8
0
100
AcDbLine
 62
6
  6
CONTINUOUS
 10
4.6500191093
 20
4.0753321595
 11
4.6328572672
 21
4.0878009676
  0
LINE
  5
28B
100
AcDbEntity
  8
0
100
AcDbLine
 62
6
  6
CONTINUOUS
 10
6.0369392177
 20
3.0297493272
 11
6.0202229852
 21
3.0428094793
  0
LINE
  5
28C
100
AcDbEntity
  8
0
100
AcDbLine
 62
6
  6
CONTINUOUS
 10
4.6440201499
 20
4.1180169738
 11
4.6273039174
 21
4.1310771259
  0
LINE
  5
28D
100
AcDbEntity
  8
0
100
AcDbLine
 62
6
  6
CONTINUOUS
 10
5.9936050694
 20
3.0246682685
 11
5.9773548128
 21
3.0383038528
  0
LINE
  5
28E
100
AcDbEntity
  8
0
100
AcDbLine
 62
6
  6
CONTINUOUS
 10
5.9501199927
 20
3.021102645
 11
5.9343555103
 21
3.0352970487
  0
LINE
  5
28F
100
AcDbEntity
  8
0
100
AcDbLine
 62
6
  6
CONTINUOUS
 10
5.9065369675
 20
3.0190568009
 11
5.891277466
 21
3.0337927302
  0
LINE
  5
290
100
AcDbEntity
  8
0
100
AcDbLine
 62
6
  6
CONTINUOUS
 10
5.8629090929
 20
3.0185332287
 11
5.8481731636
 21
3.0337927302
  0
LINE
  5
291
100
AcDbEntity
  8
0
100
AcDbLine
 62
6
  6
CONTINUOUS
 10
5.8192895229
 20
3.0195325663
 11
5.8050951192
 21
3.0352970487
  0
LINE
  5
292
100
AcDbEntity
  8
0
100
AcDbLine
 62
6
  6
CONTINUOUS
 10
5.7757314011
 20
3.0220535962
 11
5.7620958168
 21
3.0383038528
  0
LINE
  5
293
100
AcDbEntity
  8
0
100
AcDbLine
 62
6
  6
CONTINUOUS
 10
5.7322877964
 20
3.0260932469
 11
5.7192276443
 21
3.0428094793
  0
LINE
  5
294
100
AcDbEntity
  8
0
100
AcDbLine
 62
6
  6
CONTINUOUS
 10
4.6440201499
 20
4.4190123147
 11
4.6309599977
 21
4.4357285471
  0
LINE
  5
295
100
AcDbEntity
  8
0
100
AcDbLine
 62
6
  6
CONTINUOUS
 10
5.6890116382
 20
3.0316465967
 11
5.6765428301
 21
3.0488084387
  0
LINE
  5
296
100
AcDbEntity
  8
0
100
AcDbLine
 62
6
  6
CONTINUOUS
 10
4.6500191093
 20
4.4616971289
 11
4.6375503012
 21
4.478858971
  0
LINE
  5
297
100
AcDbEntity
  8
0
100
AcDbLine
 62
6
  6
CONTINUOUS
 10
5.6459556517
 20
3.0387068796
 11
5.6340933789
 21
3.0562934223
  0
LINE
  5
298
100
AcDbEntity
  8
0
100
AcDbLine
 62
6
  6
CONTINUOUS
 10
4.6575040928
 20
4.5041465801
 11
4.64564182
 21
4.5217331228
  0
LINE
  5
299
100
AcDbEntity
  8
0
100
AcDbLine
 62
6
  6
CONTINUOUS
 10
5.6031722941
 20
3.0472654939
 11
5.591931009
 21
3.0652553107
  0
LINE
  5
29A
100
AcDbEntity
  8
0
100
AcDbLine
 62
6
  6
CONTINUOUS
 10
4.6664659812
 20
4.54630895
 11
4.6552246961
 21
4.5642987668
  0
LINE
  5
29B
100
AcDbEntity
  8
0
100
AcDbLine
 62
6
  6
CONTINUOUS
 10
5.5607136903
 20
3.0573120121
 11
5.5501070886
 21
3.0756831852
  0
LINE
  5
29C
100
AcDbEntity
  8
0
100
AcDbLine
 62
6
  6
CONTINUOUS
 10
4.6768938558
 20
4.5881328704
 11
4.666287254
 21
4.6065040435
  0
LINE
  5
29D
100
AcDbEntity
  8
0
100
AcDbLine
 62
6
  6
CONTINUOUS
 10
5.5186315696
 20
3.0688341942
 11
5.5086725738
 21
3.0875643411
  0
LINE
  5
29E
100
AcDbEntity
  8
0
100
AcDbLine
 62
6
  6
CONTINUOUS
 10
4.6887750117
 20
4.6295673852
 11
4.6788160159
 21
4.6482975321
  0
LINE
  5
29F
100
AcDbEntity
  8
0
100
AcDbLine
 62
6
  6
CONTINUOUS
 10
5.4769772025
 20
3.0818180022
 11
5.4676779462
 21
3.1008843031
  0
LINE
  5
2A0
100
AcDbEntity
  8
0
100
AcDbLine
 62
6
  6
CONTINUOUS
 10
4.7020949736
 20
4.6705620128
 11
4.6927957173
 21
4.6896283137
  0
LINE
  5
2A1
100
AcDbEntity
  8
0
100
AcDbLine
 62
6
  6
CONTINUOUS
 10
5.4358013385
 20
3.0962476171
 11
5.4271731514
 21
3.1156268428
  0
LINE
  5
2A2
100
AcDbEntity
  8
0
100
AcDbLine
 62
6
  6
CONTINUOUS
 10
4.7168375133
 20
4.7110668076
 11
4.7082093262
 21
4.7304460333
  0
LINE
  5
2A3
100
AcDbEntity
  8
0
100
AcDbLine
 62
6
  6
CONTINUOUS
 10
5.395154144
 20
3.1121054589
 11
5.3872075382
 21
3.1317739986
  0
LINE
  5
2A4
100
AcDbEntity
  8
0
100
AcDbLine
 62
6
  6
CONTINUOUS
 10
4.7329846692
 20
4.7510324208
 11
4.7250380633
 21
4.7707009606
  0
LINE
  5
2A5
100
AcDbEntity
  8
0
100
AcDbLine
 62
6
  6
CONTINUOUS
 10
5.3550851414
 20
3.1293722071
 11
5.3478297985
 21
3.1493060979
  0
LINE
  5
2A6
100
AcDbEntity
  8
0
100
AcDbLine
 62
6
  6
CONTINUOUS
 10
4.7505167684
 20
4.7904101605
 11
4.7432614255
 21
4.8103440512
  0
LINE
  5
2A7
100
AcDbEntity
  8
0
100
AcDbLine
 62
6
  6
CONTINUOUS
 10
5.3156431486
 20
3.148026825
 11
5.3090879082
 21
3.1682017803
  0
LINE
  5
2A8
100
AcDbEntity
  8
0
100
AcDbLine
 62
6
  6
CONTINUOUS
 10
4.7694124509
 20
4.8291520508
 11
4.7628572105
 21
4.8493270062
  0
LINE
  5
2A9
100
AcDbEntity
  8
0
100
AcDbLine
 62
6
  6
CONTINUOUS
 10
5.2768762195
 20
3.1680465846
 11
5.2710290682
 21
3.1884380245
  0
LINE
  5
2AA
100
AcDbEntity
  8
0
100
AcDbLine
 62
6
  6
CONTINUOUS
 10
4.7896486951
 20
4.8672108908
 11
4.7838015438
 21
4.8876023307
  0
LINE
  5
2AB
100
AcDbEntity
  8
0
100
AcDbLine
 62
6
  6
CONTINUOUS
 10
5.2388315857
 20
3.1894070951
 11
5.2336996474
 21
3.2099901757
  0
LINE
  5
2AC
100
AcDbEntity
  8
0
100
AcDbLine
 62
6
  6
CONTINUOUS
 10
4.8112008462
 20
4.9045403116
 11
4.8060689079
 21
4.9251233923
  0
LINE
  5
2AD
100
AcDbEntity
  8
0
100
AcDbLine
 62
6
  6
CONTINUOUS
 10
5.2015555988
 20
3.2120823318
 11
5.1971451258
 21
3.2328319759
  0
LINE
  5
2AE
100
AcDbEntity
  8
0
100
AcDbLine
 62
6
  6
CONTINUOUS
 10
4.8340426464
 20
4.9410948332
 11
4.8296321734
 21
4.9618444772
  0
LINE
  5
2AF
100
AcDbEntity
  8
0
100
AcDbLine
 62
6
  6
CONTINUOUS
 10
5.1650936737
 20
3.2360446687
 11
5.1614100396
 21
3.2569355959
  0
LINE
  5
2B0
100
AcDbEntity
  8
0
100
AcDbLine
 62
6
  6
CONTINUOUS
 10
4.8581462664
 20
4.9768299194
 11
4.8544626323
 21
4.9977208466
  0
LINE
  5
2B1
100
AcDbEntity
  8
0
100
AcDbLine
 62
6
  6
CONTINUOUS
 10
5.1294902338
 20
3.2612649111
 11
5.1265379265
 21
3.2822716691
  0
LINE
  5
2B2
100
AcDbEntity
  8
0
100
AcDbLine
 62
6
  6
CONTINUOUS
 10
4.8834823397
 20
5.0117020325
 11
4.8805300323
 21
5.0327087905
  0
LINE
  5
2B3
100
AcDbEntity
  8
0
100
AcDbLine
 62
6
  6
CONTINUOUS
 10
5.3865273304
 20
4.1435146442
 11
4.4697253148
 21
4.1435146442
  0
LINE
  5
2B4
100
AcDbEntity
  8
0
100
AcDbLine
 62
6
  6
CONTINUOUS
 10
6.3529232992
 20
4.1435146442
 11
7.2697253148
 21
4.1435146442
  0
LINE
  5
2B5
100
AcDbEntity
  8
0
100
AcDbLine
 62
6
  6
CONTINUOUS
 10
5.3865273304
 20
4.3935146442
 11
4.4697253148
 21
4.3935146442
  0
LINE
  5
2B6
100
AcDbEntity
  8
0
100
AcDbLine
 62
6
  6
CONTINUOUS
 10
6.3529232992
 20
4.3935146442
 11
7.2697253148
 21
4.3935146442
  0
LINE
  5
2B7
100
AcDbEntity
  8
0
100
AcDbLine
 62
6
  6
CONTINUOUS
 10
8.0197253148
 20
4.7685146442
 11
7.5197253148
 21
4.7685146442
  0
LINE
  5
2B8
100
AcDbEntity
  8
0
100
AcDbLine
 62
6
  6
CONTINUOUS
 10
4.2197253148
 20
4.7685146442
 11
3.7197253148
 21
4.7685146442
  0
LINE
  5
2B9
100
AcDbEntity
  8
0
100
AcDbLine
 62
6
  6
CONTINUOUS
 10
8.0197253148
 20
5.1185146442
 11
7.5197253148
 21
5.1185146442
  0
LINE
  5
2BA
100
AcDbEntity
  8
0
100
AcDbLine
 62
6
  6
CONTINUOUS
 10
4.2197253148
 20
5.1185146442
 11
3.7197253148
 21
5.1185146442
  0
LINE
  5
2BB
100
AcDbEntity
  8
0
100
AcDbLine
 62
6
  6
CONTINUOUS
 10
6.6446619733
 20
5.2493169563
 11
6.6468793568
 21
5.228219961
  0
LINE
  5
2BC
100
AcDbEntity
  8
0
100
AcDbLine
 62
6
  6
CONTINUOUS
 10
6.8294306315
 20
3.4913606022
 11
6.8316480151
 21
3.4702636069
  0
LINE
  5
2BD
100
AcDbEntity
  8
0
100
AcDbLine
 62
6
  6
CONTINUOUS
 10
6.6784194099
 20
5.2216745786
 11
6.6798991681
 21
5.2005130495
  0
LINE
  5
2BE
100
AcDbEntity
  8
0
100
AcDbLine
 62
6
  6
CONTINUOUS
 10
6.80172372
 20
3.4583407909
 11
6.8032034783
 21
3.4371792617
  0
LINE
  5
2BF
100
AcDbEntity
  8
0
100
AcDbLine
 62
6
  6
CONTINUOUS
 10
6.7111915773
 20
5.1928709225
 11
6.7119319074
 21
5.1716706415
  0
LINE
  5
2C0
100
AcDbEntity
  8
0
100
AcDbLine
 62
6
  6
CONTINUOUS
 10
6.7728813121
 20
3.4263080516
 11
6.7736216422
 21
3.4051077707
  0
LINE
  5
2C1
100
AcDbEntity
  8
0
100
AcDbLine
 62
6
  6
CONTINUOUS
 10
6.7429385476
 20
5.1629410805
 11
6.7429385476
 21
5.1417278771
  0
LINE
  5
2C2
100
AcDbEntity
  8
0
100
AcDbLine
 62
6
  6
CONTINUOUS
 10
6.7429385476
 20
3.3953014114
 11
6.7429385476
 21
3.3740882079
  0
LINE
  5
2C3
100
AcDbEntity
  8
0
100
AcDbLine
 62
6
  6
CONTINUOUS
 10
6.7736216422
 20
5.1319215178
 11
6.7728813121
 21
5.1107212368
  0
LINE
  5
2C4
100
AcDbEntity
  8
0
100
AcDbLine
 62
6
  6
CONTINUOUS
 10
6.7119319074
 20
3.3653586469
 11
6.7111915773
 21
3.344158366
  0
LINE
  5
2C5
100
AcDbEntity
  8
0
100
AcDbLine
 62
6
  6
CONTINUOUS
 10
6.8032034783
 20
5.0998500267
 11
6.80172372
 21
5.0786884976
  0
LINE
  5
2C6
100
AcDbEntity
  8
0
100
AcDbLine
 62
6
  6
CONTINUOUS
 10
6.6798991681
 20
3.336516239
 11
6.6784194099
 21
3.3153547098
  0
LINE
  5
2C7
100
AcDbEntity
  8
0
100
AcDbLine
 62
6
  6
CONTINUOUS
 10
6.8316480151
 20
5.0667656816
 11
6.8294306315
 21
5.0456686863
  0
LINE
  5
2C8
100
AcDbEntity
  8
0
100
AcDbLine
 62
6
  6
CONTINUOUS
 10
6.6468793568
 20
3.3088093275
 11
6.6446619733
 21
3.2877123322
  0
LINE
  5
2C9
100
AcDbEntity
  8
0
100
AcDbLine
 62
6
  6
CONTINUOUS
 10
6.8589205972
 20
5.0327087905
 11
6.8559682899
 21
5.0117020325
  0
LINE
  5
2CA
100
AcDbEntity
  8
0
100
AcDbLine
 62
6
  6
CONTINUOUS
 10
6.6129127031
 20
3.2822716691
 11
6.6099603958
 21
3.2612649111
  0
LINE
  5
2CB
100
AcDbEntity
  8
0
100
AcDbLine
 62
6
  6
CONTINUOUS
 10
6.8849879973
 20
4.9977208466
 11
6.8813043631
 21
4.9768299194
  0
LINE
  5
2CC
100
AcDbEntity
  8
0
100
AcDbLine
 62
6
  6
CONTINUOUS
 10
6.5780405899
 20
3.2569355959
 11
6.5743569558
 21
3.2360446687
  0
LINE
  5
2CD
100
AcDbEntity
  8
0
100
AcDbLine
 62
6
  6
CONTINUOUS
 10
6.9098184561
 20
4.9618444772
 11
6.9054079831
 21
4.9410948332
  0
LINE
  5
2CE
100
AcDbEntity
  8
0
100
AcDbLine
 62
6
  6
CONTINUOUS
 10
6.5423055037
 20
3.2328319759
 11
6.5378950307
 21
3.2120823318
  0
LINE
  5
2CF
100
AcDbEntity
  8
0
100
AcDbLine
 62
6
  6
CONTINUOUS
 10
6.9333817217
 20
4.9251233923
 11
6.9282497833
 21
4.9045403116
  0
LINE
  5
2D0
100
AcDbEntity
  8
0
100
AcDbLine
 62
6
  6
CONTINUOUS
 10
6.5057509822
 20
3.2099901757
 11
6.5006190438
 21
3.1894070951
  0
LINE
  5
2D1
100
AcDbEntity
  8
0
100
AcDbLine
 62
6
  6
CONTINUOUS
 10
6.9556490858
 20
4.8876023307
 11
6.9498019345
 21
4.8672108908
  0
LINE
  5
2D2
100
AcDbEntity
  8
0
100
AcDbLine
 62
6
  6
CONTINUOUS
 10
6.4684215613
 20
3.1884380245
 11
6.46257441
 21
3.1680465846
  0
LINE
  5
2D3
100
AcDbEntity
  8
0
100
AcDbLine
 62
6
  6
CONTINUOUS
 10
6.976593419
 20
4.8493270062
 11
6.9700381787
 21
4.8291520508
  0
LINE
  5
2D4
100
AcDbEntity
  8
0
100
AcDbLine
 62
6
  6
CONTINUOUS
 10
6.4303627213
 20
3.1682017803
 11
6.423807481
 21
3.148026825
  0
LINE
  5
2D5
100
AcDbEntity
  8
0
100
AcDbLine
 62
6
  6
CONTINUOUS
 10
6.996189204
 20
4.8103440512
 11
6.9889338611
 21
4.7904101605
  0
LINE
  5
2D6
100
AcDbEntity
  8
0
100
AcDbLine
 62
6
  6
CONTINUOUS
 10
6.391620831
 20
3.1493060979
 11
6.3843654881
 21
3.1293722071
  0
LINE
  5
2D7
100
AcDbEntity
  8
0
100
AcDbLine
 62
6
  6
CONTINUOUS
 10
7.0144125662
 20
4.7707009606
 11
7.0064659604
 21
4.7510324208
  0
LINE
  5
2D8
100
AcDbEntity
  8
0
100
AcDbLine
 62
6
  6
CONTINUOUS
 10
6.3522430914
 20
3.1317739986
 11
6.3442964855
 21
3.1121054589
  0
LINE
  5
2D9
100
AcDbEntity
  8
0
100
AcDbLine
 62
6
  6
CONTINUOUS
 10
7.0312413034
 20
4.7304460333
 11
7.0226131162
 21
4.7110668076
  0
LINE
  5
2DA
100
AcDbEntity
  8
0
100
AcDbLine
 62
6
  6
CONTINUOUS
 10
6.3122774782
 20
3.1156268428
 11
6.303649291
 21
3.0962476171
  0
LINE
  5
2DB
100
AcDbEntity
  8
0
100
AcDbLine
 62
6
  6
CONTINUOUS
 10
7.0466549122
 20
4.6896283137
 11
7.0373556559
 21
4.6705620128
  0
LINE
  5
2DC
100
AcDbEntity
  8
0
100
AcDbLine
 62
6
  6
CONTINUOUS
 10
6.2717726833
 20
3.1008843031
 11
6.262473427
 21
3.0818180022
  0
LINE
  5
2DD
100
AcDbEntity
  8
0
100
AcDbLine
 62
6
  6
CONTINUOUS
 10
7.0606346136
 20
4.6482975321
 11
7.0506756179
 21
4.6295673852
  0
LINE
  5
2DE
100
AcDbEntity
  8
0
100
AcDbLine
 62
6
  6
CONTINUOUS
 10
6.2307780557
 20
3.0875643411
 11
6.2208190599
 21
3.0688341942
  0
LINE
  5
2DF
100
AcDbEntity
  8
0
100
AcDbLine
 62
6
  6
CONTINUOUS
 10
7.0731633755
 20
4.6065040435
 11
7.0625567738
 21
4.5881328704
  0
LINE
  5
2E0
100
AcDbEntity
  8
0
100
AcDbLine
 62
6
  6
CONTINUOUS
 10
6.1893435409
 20
3.0756831852
 11
6.1787369392
 21
3.0573120121
  0
LINE
  5
2E1
100
AcDbEntity
  8
0
100
AcDbLine
 62
6
  6
CONTINUOUS
 10
7.0842259335
 20
4.5642987668
 11
7.0729846483
 21
4.54630895
  0
LINE
  5
2E2
100
AcDbEntity
  8
0
100
AcDbLine
 62
6
  6
CONTINUOUS
 10
6.1475196206
 20
3.0652553107
 11
6.1362783354
 21
3.0472654939
  0
LINE
  5
2E3
100
AcDbEntity
  8
0
100
AcDbLine
 62
6
  6
CONTINUOUS
 10
7.0938088095
 20
4.5217331228
 11
7.0819465367
 21
4.5041465801
  0
LINE
  5
2E4
100
AcDbEntity
  8
0
100
AcDbLine
 62
6
  6
CONTINUOUS
 10
6.1053572506
 20
3.0562934223
 11
6.0934949778
 21
3.0387068796
  0
LINE
  5
2E5
100
AcDbEntity
  8
0
100
AcDbLine
 62
6
  6
CONTINUOUS
 10
7.1019003284
 20
4.478858971
 11
7.0894315203
 21
4.4616971289
  0
LINE
  5
2E6
100
AcDbEntity
  8
0
100
AcDbLine
 62
6
  6
CONTINUOUS
 10
6.0629077995
 20
3.0488084387
 11
6.0504389914
 21
3.0316465967
  0
LINE
  5
2E7
100
AcDbEntity
  8
0
100
AcDbLine
 62
6
  6
CONTINUOUS
 10
7.1084906318
 20
4.4357285471
 11
7.0954304797
 21
4.4190123147
  0
LINE
  5
2E8
100
AcDbEntity
  8
0
100
AcDbLine
 62
6
  6
CONTINUOUS
 10
6.0202229852
 20
3.0428094793
 11
6.0071628331
 21
3.0260932469
  0
LINE
  5
2E9
100
AcDbEntity
  8
0
100
AcDbLine
 62
6
  6
CONTINUOUS
 10
5.9773548128
 20
3.0383038528
 11
5.9637192284
 21
3.0220535962
  0
LINE
  5
2EA
100
AcDbEntity
  8
0
100
AcDbLine
 62
6
  6
CONTINUOUS
 10
5.9343555103
 20
3.0352970487
 11
5.9201611067
 21
3.0195325663
  0
LINE
  5
2EB
100
AcDbEntity
  8
0
100
AcDbLine
 62
6
  6
CONTINUOUS
 10
5.891277466
 20
3.0337927302
 11
5.8765415366
 21
3.0185332287
  0
LINE
  5
2EC
100
AcDbEntity
  8
0
100
AcDbLine
 62
6
  6
CONTINUOUS
 10
5.8481731636
 20
3.0337927302
 11
5.8329136621
 21
3.0190568009
  0
LINE
  5
2ED
100
AcDbEntity
  8
0
100
AcDbLine
 62
6
  6
CONTINUOUS
 10
5.8050951192
 20
3.0352970487
 11
5.7893306369
 21
3.021102645
  0
LINE
  5
2EE
100
AcDbEntity
  8
0
100
AcDbLine
 62
6
  6
CONTINUOUS
 10
5.7620958168
 20
3.0383038528
 11
5.7458455602
 21
3.0246682685
  0
LINE
  5
2EF
100
AcDbEntity
  8
0
100
AcDbLine
 62
6
  6
CONTINUOUS
 10
7.1121467121
 20
4.1310771259
 11
7.0954304797
 21
4.1180169738
  0
LINE
  5
2F0
100
AcDbEntity
  8
0
100
AcDbLine
 62
6
  6
CONTINUOUS
 10
5.7192276443
 20
3.0428094793
 11
5.7025114119
 21
3.0297493272
  0
LINE
  5
2F1
100
AcDbEntity
  8
0
100
AcDbLine
 62
6
  6
CONTINUOUS
 10
7.1065933623
 20
4.0878009676
 11
7.0894315203
 21
4.0753321595
  0
LINE
  5
2F2
100
AcDbEntity
  8
0
100
AcDbLine
 62
6
  6
CONTINUOUS
 10
5.6765428301
 20
3.0488084387
 11
5.659380988
 21
3.0363396306
  0
LINE
  5
2F3
100
AcDbEntity
  8
0
100
AcDbLine
 62
6
  6
CONTINUOUS
 10
7.0995330794
 20
4.0447449812
 11
7.0819465367
 21
4.0328827084
  0
LINE
  5
2F4
100
AcDbEntity
  8
0
100
AcDbLine
 62
6
  6
CONTINUOUS
 10
5.6340933789
 20
3.0562934223
 11
5.6165068362
 21
3.0444311495
  0
LINE
  5
2F5
100
AcDbEntity
  8
0
100
AcDbLine
 62
6
  6
CONTINUOUS
 10
7.0909744651
 20
4.0019616236
 11
7.0729846483
 21
3.9907203384
  0
LINE
  5
2F6
100
AcDbEntity
  8
0
100
AcDbLine
 62
6
  6
CONTINUOUS
 10
5.591931009
 20
3.0652553107
 11
5.5739411922
 21
3.0540140255
  0
LINE
  5
2F7
100
AcDbEntity
  8
0
100
AcDbLine
 62
6
  6
CONTINUOUS
 10
7.0809279469
 20
3.9595030198
 11
7.0625567738
 21
3.9488964181
  0
LINE
  5
2F8
100
AcDbEntity
  8
0
100
AcDbLine
 62
6
  6
CONTINUOUS
 10
5.5501070886
 20
3.0756831852
 11
5.5317359156
 21
3.0650765835
  0
LINE
  5
2F9
100
AcDbEntity
  8
0
100
AcDbLine
 62
6
  6
CONTINUOUS
 10
7.0694057648
 20
3.9174208991
 11
7.0506756179
 21
3.9074619033
  0
LINE
  5
2FA
100
AcDbEntity
  8
0
100
AcDbLine
 62
6
  6
CONTINUOUS
 10
5.5086725738
 20
3.0875643411
 11
5.4899424269
 21
3.0776053454
  0
LINE
  5
2FB
100
AcDbEntity
  8
0
100
AcDbLine
 62
6
  6
CONTINUOUS
 10
7.0564219569
 20
3.875766532
 11
7.0373556559
 21
3.8664672757
  0
LINE
  5
2FC
100
AcDbEntity
  8
0
100
AcDbLine
 62
6
  6
CONTINUOUS
 10
5.4676779462
 20
3.1008843031
 11
5.4486116453
 21
3.0915850468
  0
LINE
  5
2FD
100
AcDbEntity
  8
0
100
AcDbLine
 62
6
  6
CONTINUOUS
 10
7.0419923419
 20
3.834590668
 11
7.0226131162
 21
3.8259624808
  0
LINE
  5
2FE
100
AcDbEntity
  8
0
100
AcDbLine
 62
6
  6
CONTINUOUS
 10
5.4271731514
 20
3.1156268428
 11
5.4077939257
 21
3.1069986556
  0
LINE
  5
2FF
100
AcDbEntity
  8
0
100
AcDbLine
 62
6
  6
CONTINUOUS
 10
7.0261345001
 20
3.7939434735
 11
7.0064659604
 21
3.7859968676
  0
LINE
  5
300
100
AcDbEntity
  8
0
100
AcDbLine
 62
6
  6
CONTINUOUS
 10
5.3872075382
 20
3.1317739986
 11
5.3675389984
 21
3.1238273928
  0
LINE
  5
301
100
AcDbEntity
  8
0
100
AcDbLine
 62
6
  6
CONTINUOUS
 10
7.0088677519
 20
3.7538744709
 11
6.9889338611
 21
3.746619128
  0
LINE
  5
302
100
AcDbEntity
  8
0
100
AcDbLine
 62
6
  6
CONTINUOUS
 10
5.3478297985
 20
3.1493060979
 11
5.3278959078
 21
3.142050755
  0
LINE
  5
303
100
AcDbEntity
  8
0
100
AcDbLine
 62
6
  6
CONTINUOUS
 10
6.990213134
 20
3.714432478
 11
6.9700381787
 21
3.7078772377
  0
LINE
  5
304
100
AcDbEntity
  8
0
100
AcDbLine
 62
6
  6
CONTINUOUS
 10
5.3090879082
 20
3.1682017803
 11
5.2889129529
 21
3.16164654
  0
LINE
  5
305
100
AcDbEntity
  8
0
100
AcDbLine
 62
6
  6
CONTINUOUS
 10
6.9701933744
 20
3.675665549
 11
6.9498019345
 21
3.6698183977
  0
LINE
  5
306
100
AcDbEntity
  8
0
100
AcDbLine
 62
6
  6
CONTINUOUS
 10
5.2710290682
 20
3.1884380245
 11
5.2506376283
 21
3.1825908732
  0
LINE
  5
307
100
AcDbEntity
  8
0
100
AcDbLine
 62
6
  6
CONTINUOUS
 10
4.7906177656
 20
4.8994083733
 11
4.8112008462
 21
4.9045403116
  0
LINE
  5
308
100
AcDbEntity
  8
0
100
AcDbLine
 62
6
  6
CONTINUOUS
 10
6.5057509822
 20
5.3270391128
 11
6.5263340628
 21
5.3321710512
  0
LINE
  5
309
100
AcDbEntity
  8
0
100
AcDbLine
 62
6
  6
CONTINUOUS
 10
4.8132930024
 20
4.9366843602
 11
4.8340426464
 21
4.9410948332
  0
LINE
  5
30A
100
AcDbEntity
  8
0
100
AcDbLine
 62
6
  6
CONTINUOUS
 10
6.5423055037
 20
5.3041973126
 11
6.5630551478
 21
5.3086077856
  0
LINE
  5
30B
100
AcDbEntity
  8
0
100
AcDbLine
 62
6
  6
CONTINUOUS
 10
4.8372553392
 20
4.9731462853
 11
4.8581462664
 21
4.9768299194
  0
LINE
  5
30C
100
AcDbEntity
  8
0
100
AcDbLine
 62
6
  6
CONTINUOUS
 10
6.5780405899
 20
5.2800936926
 11
6.5989315171
 21
5.2837773267
  0
LINE
  5
30D
100
AcDbEntity
  8
0
100
AcDbLine
 62
6
  6
CONTINUOUS
 10
4.8624755817
 20
5.0087497252
 11
4.8834823397
 21
5.0117020325
  0
LINE
  5
30E
100
AcDbEntity
  8
0
100
AcDbLine
 62
6
  6
CONTINUOUS
 10
6.6129127031
 20
5.2547576194
 11
6.6339194611
 21
5.2577099267
  0
LINE
  5
30F
100
AcDbEntity
  8
0
100
AcDbLine
 62
6
  6
CONTINUOUS
 10
4.8889230027
 20
5.0434513027
 11
4.910019998
 21
5.0456686863
  0
LINE
  5
310
100
AcDbEntity
  8
0
100
AcDbLine
 62
6
  6
CONTINUOUS
 10
6.6468793568
 20
5.228219961
 11
6.6679763521
 21
5.2304373445
  0
LINE
  5
311
100
AcDbEntity
  8
0
100
AcDbLine
 62
6
  6
CONTINUOUS
 10
4.9165653804
 20
5.0772087393
 11
4.9377269095
 21
5.0786884976
  0
LINE
  5
312
100
AcDbEntity
  8
0
100
AcDbLine
 62
6
  6
CONTINUOUS
 10
6.6798991681
 20
5.2005130495
 11
6.7010606973
 21
5.2019928078
  0
LINE
  5
313
100
AcDbEntity
  8
0
100
AcDbLine
 62
6
  6
CONTINUOUS
 10
4.9453690366
 20
5.1099809067
 11
4.9665693175
 21
5.1107212368
  0
LINE
  5
314
100
AcDbEntity
  8
0
100
AcDbLine
 62
6
  6
CONTINUOUS
 10
6.7119319074
 20
5.1716706415
 11
6.7331321883
 21
5.1724109717
  0
LINE
  5
315
100
AcDbEntity
  8
0
100
AcDbLine
 62
6
  6
CONTINUOUS
 10
4.9752988785
 20
5.1417278771
 11
4.9965120819
 21
5.1417278771
  0
LINE
  5
316
100
AcDbEntity
  8
0
100
AcDbLine
 62
6
  6
CONTINUOUS
 10
6.7429385476
 20
5.1417278771
 11
6.7641517511
 21
5.1417278771
  0
LINE
  5
317
100
AcDbEntity
  8
0
100
AcDbLine
 62
6
  6
CONTINUOUS
 10
7.9322253148
 20
5.1935146442
 11
7.6072253148
 21
5.1935146442
  0
LINE
  5
318
100
AcDbEntity
  8
0
100
AcDbLine
 62
6
  6
CONTINUOUS
 10
4.1322253148
 20
5.1935146442
 11
3.8072253148
 21
5.1935146442
  0
LINE
  5
319
100
AcDbEntity
  8
0
100
AcDbLine
 62
6
  6
CONTINUOUS
 10
7.8822253148
 20
5.2435146442
 11
7.6572253148
 21
5.2435146442
  0
LINE
  5
31A
100
AcDbEntity
  8
0
100
AcDbLine
 62
6
  6
CONTINUOUS
 10
4.0822253148
 20
5.2435146442
 11
3.8572253148
 21
5.2435146442
  0
LINE
  5
31B
100
AcDbEntity
  8
0
100
AcDbLine
 62
6
  6
CONTINUOUS
 10
5.0063184412
 20
5.1724109717
 11
5.0275187222
 21
5.1716706415
  0
LINE
  5
31C
100
AcDbEntity
  8
0
100
AcDbLine
 62
6
  6
CONTINUOUS
 10
6.7728813121
 20
5.1107212368
 11
6.794081593
 21
5.1099809067
  0
LINE
  5
31D
100
AcDbEntity
  8
0
100
AcDbLine
 62
6
  6
CONTINUOUS
 10
5.0383899323
 20
5.2019928078
 11
5.0595514614
 21
5.2005130495
  0
LINE
  5
31E
100
AcDbEntity
  8
0
100
AcDbLine
 62
6
  6
CONTINUOUS
 10
6.80172372
 20
5.0786884976
 11
6.8228852492
 21
5.0772087393
  0
LINE
  5
31F
100
AcDbEntity
  8
0
100
AcDbLine
 62
6
  6
CONTINUOUS
 10
5.0714742774
 20
5.2304373445
 11
5.0925712727
 21
5.228219961
  0
LINE
  5
320
100
AcDbEntity
  8
0
100
AcDbLine
 62
6
  6
CONTINUOUS
 10
6.8294306315
 20
5.0456686863
 11
6.8505276268
 21
5.0434513027
  0
LINE
  5
321
100
AcDbEntity
  8
0
100
AcDbLine
 62
6
  6
CONTINUOUS
 10
5.1055311685
 20
5.2577099267
 11
5.1265379265
 21
5.2547576194
  0
LINE
  5
322
100
AcDbEntity
  8
0
100
AcDbLine
 62
6
  6
CONTINUOUS
 10
6.8559682899
 20
5.0117020325
 11
6.8769750479
 21
5.0087497252
  0
LINE
  5
323
100
AcDbEntity
  8
0
100
AcDbLine
 62
6
  6
CONTINUOUS
 10
5.1405191124
 20
5.2837773267
 11
5.1614100396
 21
5.2800936926
  0
LINE
  5
324
100
AcDbEntity
  8
0
100
AcDbLine
 62
6
  6
CONTINUOUS
 10
6.8813043631
 20
4.9768299194
 11
6.9021952903
 21
4.9731462853
  0
LINE
  5
325
100
AcDbEntity
  8
0
100
AcDbLine
 62
6
  6
CONTINUOUS
 10
5.1763954818
 20
5.3086077856
 11
5.1971451258
 21
5.3041973126
  0
LINE
  5
326
100
AcDbEntity
  8
0
100
AcDbLine
 62
6
  6
CONTINUOUS
 10
6.9054079831
 20
4.9410948332
 11
6.9261576272
 21
4.9366843602
  0
LINE
  5
327
100
AcDbEntity
  8
0
100
AcDbLine
 62
6
  6
CONTINUOUS
 10
5.2131165667
 20
5.3321710512
 11
5.2336996474
 21
5.3270391128
  0
LINE
  5
328
100
AcDbEntity
  8
0
100
AcDbLine
 62
6
  6
CONTINUOUS
 10
6.9282497833
 20
4.9045403116
 11
6.9488328639
 21
4.8994083733
  0
LINE
  5
329
100
AcDbEntity
  8
0
100
AcDbLine
 62
6
  6
CONTINUOUS
 10
5.2506376283
 20
5.3544384152
 11
5.2710290682
 21
5.3485912639
  0
LINE
  5
32A
100
AcDbEntity
  8
0
100
AcDbLine
 62
6
  6
CONTINUOUS
 10
6.9498019345
 20
4.8672108908
 11
6.9701933744
 21
4.8613637395
  0
LINE
  5
32B
100
AcDbEntity
  8
0
100
AcDbLine
 62
6
  6
CONTINUOUS
 10
5.2889129529
 20
5.3753827485
 11
5.3090879082
 21
5.3688275081
  0
LINE
  5
32C
100
AcDbEntity
  8
0
100
AcDbLine
 62
6
  6
CONTINUOUS
 10
6.9700381787
 20
4.8291520508
 11
6.990213134
 21
4.8225968104
  0
LINE
  5
32D
100
AcDbEntity
  8
0
100
AcDbLine
 62
6
  6
CONTINUOUS
 10
5.3278959078
 20
5.3949785335
 11
5.3478297985
 21
5.3877231906
  0
LINE
  5
32E
100
AcDbEntity
  8
0
100
AcDbLine
 62
6
  6
CONTINUOUS
 10
6.9889338611
 20
4.7904101605
 11
7.0088677519
 21
4.7831548176
  0
LINE
  5
32F
100
AcDbEntity
  8
0
100
AcDbLine
 62
6
  6
CONTINUOUS
 10
5.3675389984
 20
5.4132018957
 11
5.3872075382
 21
5.4052552898
  0
LINE
  5
330
100
AcDbEntity
  8
0
100
AcDbLine
 62
6
  6
CONTINUOUS
 10
7.0064659604
 20
4.7510324208
 11
7.0261345001
 21
4.743085815
  0
LINE
  5
331
100
AcDbEntity
  8
0
100
AcDbLine
 62
6
  6
CONTINUOUS
 10
5.4077939257
 20
5.4300306328
 11
5.4271731514
 21
5.4214024457
  0
LINE
  5
332
100
AcDbEntity
  8
0
100
AcDbLine
 62
6
  6
CONTINUOUS
 10
7.0226131162
 20
4.7110668076
 11
7.0419923419
 21
4.7024386205
  0
LINE
  5
333
100
AcDbEntity
  8
0
100
AcDbLine
 62
6
  6
CONTINUOUS
 10
5.4486116453
 20
5.4454442417
 11
5.4676779462
 21
5.4361449854
  0
LINE
  5
334
100
AcDbEntity
  8
0
100
AcDbLine
 62
6
  6
CONTINUOUS
 10
7.0373556559
 20
4.6705620128
 11
7.0564219569
 21
4.6612627565
  0
LINE
  5
335
100
AcDbEntity
  8
0
100
AcDbLine
 62
6
  6
CONTINUOUS
 10
5.4899424269
 20
5.4594239431
 11
5.5086725738
 21
5.4494649473
  0
LINE
  5
336
100
AcDbEntity
  8
0
100
AcDbLine
 62
6
  6
CONTINUOUS
 10
7.0506756179
 20
4.6295673852
 11
7.0694057648
 21
4.6196083894
  0
LINE
  5
337
100
AcDbEntity
  8
0
100
AcDbLine
 62
6
  6
CONTINUOUS
 10
5.5317359156
 20
5.471952705
 11
5.5501070886
 21
5.4613461032
  0
LINE
  5
338
100
AcDbEntity
  8
0
100
AcDbLine
 62
6
  6
CONTINUOUS
 10
7.0625567738
 20
4.5881328704
 11
7.0809279469
 21
4.5775262687
  0
LINE
  5
339
100
AcDbEntity
  8
0
100
AcDbLine
 62
6
  6
CONTINUOUS
 10
5.5739411922
 20
5.4830152629
 11
5.591931009
 21
5.4717739778
  0
LINE
  5
33A
100
AcDbEntity
  8
0
100
AcDbLine
 62
6
  6
CONTINUOUS
 10
7.0729846483
 20
4.54630895
 11
7.0909744651
 21
4.5350676649
  0
LINE
  5
33B
100
AcDbEntity
  8
0
100
AcDbLine
 62
6
  6
CONTINUOUS
 10
5.6165068362
 20
5.492598139
 11
5.6340933789
 21
5.4807358662
  0
LINE
  5
33C
100
AcDbEntity
  8
0
100
AcDbLine
 62
6
  6
CONTINUOUS
 10
7.0819465367
 20
4.5041465801
 11
7.0995330794
 21
4.4922843073
  0
LINE
  5
33D
100
AcDbEntity
  8
0
100
AcDbLine
 62
6
  6
CONTINUOUS
 10
5.659380988
 20
5.5006896578
 11
5.6765428301
 21
5.4882208497
  0
LINE
  5
33E
100
AcDbEntity
  8
0
100
AcDbLine
 62
6
  6
CONTINUOUS
 10
7.0894315203
 20
4.4616971289
 11
7.1065933623
 21
4.4492283208
  0
LINE
  5
33F
100
AcDbEntity
  8
0
100
AcDbLine
 62
6
  6
CONTINUOUS
 10
5.7025114119
 20
5.5072799613
 11
5.7192276443
 21
5.4942198091
  0
LINE
  5
340
100
AcDbEntity
  8
0
100
AcDbLine
 62
6
  6
CONTINUOUS
 10
7.0954304797
 20
4.4190123147
 11
7.1121467121
 21
4.4059521626
  0
LINE
  5
341
100
AcDbEntity
  8
0
100
AcDbLine
 62
6
  6
CONTINUOUS
 10
5.7458455602
 20
5.51236102
 11
5.7620958168
 21
5.4987254356
  0
LINE
  5
342
100
AcDbEntity
  8
0
100
AcDbLine
 62
6
  6
CONTINUOUS
 10
5.7893306369
 20
5.5159266434
 11
5.8050951192
 21
5.5017322398
  0
LINE
  5
343
100
AcDbEntity
  8
0
100
AcDbLine
 62
6
  6
CONTINUOUS
 10
5.8329136621
 20
5.5179724875
 11
5.8481731636
 21
5.5032365582
  0
LINE
  5
344
100
AcDbEntity
  8
0
100
AcDbLine
 62
6
  6
CONTINUOUS
 10
5.8765415366
 20
5.5184960597
 11
5.891277466
 21
5.5032365582
  0
LINE
  5
345
100
AcDbEntity
  8
0
100
AcDbLine
 62
6
  6
CONTINUOUS
 10
5.9201611067
 20
5.5174967221
 11
5.9343555103
 21
5.5017322398
  0
LINE
  5
346
100
AcDbEntity
  8
0
100
AcDbLine
 62
6
  6
CONTINUOUS
 10
5.9637192284
 20
5.5149756922
 11
5.9773548128
 21
5.4987254356
  0
LINE
  5
347
100
AcDbEntity
  8
0
100
AcDbLine
 62
6
  6
CONTINUOUS
 10
6.0071628331
 20
5.5109360416
 11
6.0202229852
 21
5.4942198091
  0
LINE
  5
348
100
AcDbEntity
  8
0
100
AcDbLine
 62
6
  6
CONTINUOUS
 10
7.0954304797
 20
4.1180169738
 11
7.1084906318
 21
4.1013007413
  0
LINE
  5
349
100
AcDbEntity
  8
0
100
AcDbLine
 62
6
  6
CONTINUOUS
 10
6.0504389914
 20
5.5053826918
 11
6.0629077995
 21
5.4882208497
  0
LINE
  5
34A
100
AcDbEntity
  8
0
100
AcDbLine
 62
6
  6
CONTINUOUS
 10
7.0894315203
 20
4.0753321595
 11
7.1019003284
 21
4.0581703174
  0
LINE
  5
34B
100
AcDbEntity
  8
0
100
AcDbLine
 62
6
  6
CONTINUOUS
 10
6.0934949778
 20
5.4983224088
 11
6.1053572506
 21
5.4807358662
  0
LINE
  5
34C
100
AcDbEntity
  8
0
100
AcDbLine
 62
6
  6
CONTINUOUS
 10
7.0819465367
 20
4.0328827084
 11
7.0938088095
 21
4.0152961657
  0
LINE
  5
34D
100
AcDbEntity
  8
0
100
AcDbLine
 62
6
  6
CONTINUOUS
 10
6.1362783354
 20
5.4897637946
 11
6.1475196206
 21
5.4717739778
  0
LINE
  5
34E
100
AcDbEntity
  8
0
100
AcDbLine
 62
6
  6
CONTINUOUS
 10
7.0729846483
 20
3.9907203384
 11
7.0842259335
 21
3.9727305217
  0
LINE
  5
34F
100
AcDbEntity
  8
0
100
AcDbLine
 62
6
  6
CONTINUOUS
 10
6.1787369392
 20
5.4797172763
 11
6.1893435409
 21
5.4613461032
  0
LINE
  5
350
100
AcDbEntity
  8
0
100
AcDbLine
 62
6
  6
CONTINUOUS
 10
7.0625567738
 20
3.9488964181
 11
7.0731633755
 21
3.930525245
  0
LINE
  5
351
100
AcDbEntity
  8
0
100
AcDbLine
 62
6
  6
CONTINUOUS
 10
6.2208190599
 20
5.4681950942
 11
6.2307780557
 21
5.4494649473
  0
LINE
  5
352
100
AcDbEntity
  8
0
100
AcDbLine
 62
6
  6
CONTINUOUS
 10
7.0506756179
 20
3.9074619033
 11
7.0606346136
 21
3.8887317564
  0
LINE
  5
353
100
AcDbEntity
  8
0
100
AcDbLine
 62
6
  6
CONTINUOUS
 10
6.262473427
 20
5.4552112863
 11
6.2717726833
 21
5.4361449854
  0
LINE
  5
354
100
AcDbEntity
  8
0
100
AcDbLine
 62
6
  6
CONTINUOUS
 10
7.0373556559
 20
3.8664672757
 11
7.0466549122
 21
3.8474009747
  0
LINE
  5
355
100
AcDbEntity
  8
0
100
AcDbLine
 62
6
  6
CONTINUOUS
 10
6.303649291
 20
5.4407816713
 11
6.3122774782
 21
5.4214024457
  0
LINE
  5
356
100
AcDbEntity
  8
0
100
AcDbLine
 62
6
  6
CONTINUOUS
 10
7.0226131162
 20
3.8259624808
 11
7.0312413034
 21
3.8065832552
  0
LINE
  5
357
100
AcDbEntity
  8
0
100
AcDbLine
 62
6
  6
CONTINUOUS
 10
6.3442964855
 20
5.4249238296
 11
6.3522430914
 21
5.4052552898
  0
LINE
  5
358
100
AcDbEntity
  8
0
100
AcDbLine
 62
6
  6
CONTINUOUS
 10
7.0064659604
 20
3.7859968676
 11
7.0144125662
 21
3.7663283279
  0
LINE
  5
359
100
AcDbEntity
  8
0
100
AcDbLine
 62
6
  6
CONTINUOUS
 10
6.3843654881
 20
5.4076570813
 11
6.391620831
 21
5.3877231906
  0
LINE
  5
35A
100
AcDbEntity
  8
0
100
AcDbLine
 62
6
  6
CONTINUOUS
 10
6.9889338611
 20
3.746619128
 11
6.996189204
 21
3.7266852373
  0
LINE
  5
35B
100
AcDbEntity
  8
0
100
AcDbLine
 62
6
  6
CONTINUOUS
 10
6.423807481
 20
5.3890024635
 11
6.4303627213
 21
5.3688275081
  0
LINE
  5
35C
100
AcDbEntity
  8
0
100
AcDbLine
 62
6
  6
CONTINUOUS
 10
6.9700381787
 20
3.7078772377
 11
6.976593419
 21
3.6877022823
  0
LINE
  5
35D
100
AcDbEntity
  8
0
100
AcDbLine
 62
6
  6
CONTINUOUS
 10
6.46257441
 20
5.3689827039
 11
6.4684215613
 21
5.3485912639
  0
LINE
  5
35E
100
AcDbEntity
  8
0
100
AcDbLine
 62
6
  6
CONTINUOUS
 10
6.9498019345
 20
3.6698183977
 11
6.9556490858
 21
3.6494269578
  0
LINE
  5
35F
100
AcDbEntity
  8
0
100
AcDbLine
 62
6
  6
CONTINUOUS
 10
6.5006190438
 20
5.3476221934
 11
6.5057509822
 21
5.3270391128
  0
LINE
  5
360
100
AcDbEntity
  8
0
100
AcDbLine
 62
6
  6
CONTINUOUS
 10
6.9282497833
 20
3.6324889768
 11
6.9333817217
 21
3.6119058962
  0
LINE
  5
361
100
AcDbEntity
  8
0
100
AcDbLine
 62
6
  6
CONTINUOUS
 10
6.5378950307
 20
5.3249469566
 11
6.5423055037
 21
5.3041973126
  0
LINE
  5
362
100
AcDbEntity
  8
0
100
AcDbLine
 62
6
  6
CONTINUOUS
 10
6.9054079831
 20
3.5959344553
 11
6.9098184561
 21
3.5751848112
  0
LINE
  5
363
100
AcDbEntity
  8
0
100
AcDbLine
 62
6
  6
CONTINUOUS
 10
6.5743569558
 20
5.3009846198
 11
6.5780405899
 21
5.2800936926
  0
LINE
  5
364
100
AcDbEntity
  8
0
100
AcDbLine
 62
6
  6
CONTINUOUS
 10
6.8813043631
 20
3.5601993691
 11
6.8849879973
 21
3.5393084419
  0
LINE
  5
365
100
AcDbEntity
  8
0
100
AcDbLine
 62
6
  6
CONTINUOUS
 10
6.6099603958
 20
5.2757643774
 11
6.6129127031
 21
5.2547576194
  0
LINE
  5
366
100
AcDbEntity
  8
0
100
AcDbLine
 62
6
  6
CONTINUOUS
 10
6.8559682899
 20
3.5253272559
 11
6.8589205972
 21
3.5043204979
  0
LINE
  5
367
100
AcDbEntity
  8
0
100
AcDbLine
 62
9
  6
CONTINUOUS
 10
7.2697253148
 20
4.3935146442
 11
7.2697253148
 21
4.1435146442
  0
LINE
  5
368
100
AcDbEntity
  8
0
100
AcDbLine
 62
6
  6
CONTINUOUS
 10
7.5197253148
 20
5.1185146442
 11
7.5197253148
 21
4.7685146442
  0
LINE
  5
369
100
AcDbEntity
  8
0
100
AcDbLine
 62
6
  6
CONTINUOUS
 10
7.6572253148
 20
5.2435146442
 11
7.6572253148
 21
5.1935146442
  0
LINE
  5
36A
100
AcDbEntity
  8
0
100
AcDbLine
 62
6
  6
CONTINUOUS
 10
7.8822253148
 20
5.2435146442
 11
7.8822253148
 21
5.1935146442
  0
LINE
  5
36B
100
AcDbEntity
  8
0
100
AcDbLine
 62
6
  6
CONTINUOUS
 10
8.0197253148
 20
5.1185146442
 11
8.0197253148
 21
4.7685146442
  0
ARC
  5
36C
100
AcDbEntity
  8
0
100
AcDbCircle
 62
6
  6
CONTINUOUS
 10
4.4697253148
 20
4.7685146442
 40
0.625
100
AcDbArc
 50
180.0
 51
270.0
  0
ARC
  5
36D
100
AcDbEntity
  8
0
100
AcDbCircle
 62
6
  6
CONTINUOUS
 10
4.4697253148
 20
4.7685146442
 40
0.375
100
AcDbArc
 50
180.0
 51
270.0
  0
ARC
  5
36E
100
AcDbEntity
  8
0
100
AcDbCircle
 62
6
  6
CONTINUOUS
 10
3.7322253148
 20
5.1935146442
 40
0.075
100
AcDbArc
 50
270.0
 51
360.0
  0
ARC
  5
36F
100
AcDbEntity
  8
0
100
AcDbCircle
 62
6
  6
CONTINUOUS
 10
4.2072253148
 20
5.1935146442
 40
0.075
100
AcDbArc
 50
180.0
 51
270.0
  0
ARC
  5
370
100
AcDbEntity
  8
0
100
AcDbCircle
 62
6
  6
CONTINUOUS
 10
5.8697253148
 20
4.2685146442
 40
1.25
100
AcDbArc
 50
157.6875658564
 51
174.2608249405
  0
ARC
  5
371
100
AcDbEntity
  8
0
100
AcDbCircle
 62
6
  6
CONTINUOUS
 10
5.8697253148
 20
4.2685146442
 40
1.25
100
AcDbArc
 50
112.3204965111
 51
157.6795034889
  0
ARC
  5
372
100
AcDbEntity
  8
0
100
AcDbCircle
 62
6
  6
CONTINUOUS
 10
5.8697253148
 20
4.2685146442
 40
1.25
100
AcDbArc
 50
67.6875658564
 51
112.3124341436
  0
ARC
  5
373
100
AcDbEntity
  8
0
100
AcDbCircle
 62
6
  6
CONTINUOUS
 10
5.8697253148
 20
4.2685146442
 40
1.25
100
AcDbArc
 50
185.7391902475
 51
202.3124341436
  0
ARC
  5
374
100
AcDbEntity
  8
0
100
AcDbCircle
 62
6
  6
CONTINUOUS
 10
5.8697253148
 20
4.2685146442
 40
1.25
100
AcDbArc
 50
202.3204965111
 51
247.6795034889
  0
ARC
  5
375
100
AcDbEntity
  8
0
100
AcDbCircle
 62
6
  6
CONTINUOUS
 10
5.8697253148
 20
4.2685146442
 40
1.25
100
AcDbArc
 50
247.6875658564
 51
292.3124341436
  0
ARC
  5
376
100
AcDbEntity
  8
0
100
AcDbCircle
 62
6
  6
CONTINUOUS
 10
5.8697253148
 20
4.2685146442
 40
1.25
100
AcDbArc
 50
292.3204965111
 51
337.6795034889
  0
ARC
  5
377
100
AcDbEntity
  8
0
100
AcDbCircle
 62
6
  6
CONTINUOUS
 10
5.8697253148
 20
4.2685146442
 40
1.25
100
AcDbArc
 50
337.6875658564
 51
354.2608204512
  0
ARC
  5
378
100
AcDbEntity
  8
0
100
AcDbCircle
 62
6
  6
CONTINUOUS
 10
5.8697253148
 20
4.2685146442
 40
1.25
100
AcDbArc
 50
22.3204965111
 51
67.6795034889
  0
ARC
  5
379
100
AcDbEntity
  8
0
100
AcDbCircle
 62
6
  6
CONTINUOUS
 10
5.8697253148
 20
4.2685146442
 40
1.25
100
AcDbArc
 50
5.7391860461
 51
22.3124341436
  0
ARC
  5
37A
100
AcDbEntity
  8
0
100
AcDbCircle
 62
7
  6
CONTINUOUS
 10
5.8697253148
 20
4.2685146442
 40
1.175
100
AcDbArc
 50
6.1088444234
 51
173.8911555766
  0
ARC
  5
37B
100
AcDbEntity
  8
0
100
AcDbCircle
 62
7
  6
CONTINUOUS
 10
5.8697253148
 20
4.2685146442
 40
1.175
100
AcDbArc
 50
186.1088444234
 51
353.8911555766
  0
ARC
  5
37C
100
AcDbEntity
  8
0
100
AcDbCircle
 62
6
  6
CONTINUOUS
 10
5.8697253148
 20
4.2685146442
 40
1.075
100
AcDbArc
 50
6.6780914238
 51
173.3219085762
  0
ARC
  5
37D
100
AcDbEntity
  8
0
100
AcDbCircle
 62
6
  6
CONTINUOUS
 10
5.8697253148
 20
4.2685146442
 40
1.075
100
AcDbArc
 50
186.6780914238
 51
353.3219085762
  0
ARC
  5
37E
100
AcDbEntity
  8
0
100
AcDbCircle
 62
7
  6
CONTINUOUS
 10
5.8697253148
 20
4.2685146442
 40
1.025
100
AcDbArc
 50
7.0103958389
 51
172.9896041611
  0
ARC
  5
37F
100
AcDbEntity
  8
0
100
AcDbCircle
 62
7
  6
CONTINUOUS
 10
5.8697253148
 20
4.2685146442
 40
1.025
100
AcDbArc
 50
187.0103958389
 51
352.9896041611
  0
ARC
  5
380
100
AcDbEntity
  8
0
100
AcDbCircle
 62
6
  6
CONTINUOUS
 10
5.8697253148
 20
4.2685146442
 40
0.925
100
AcDbArc
 50
7.7687016435
 51
172.2312983565
  0
ARC
  5
381
100
AcDbEntity
  8
0
100
AcDbCircle
 62
6
  6
CONTINUOUS
 10
5.8697253148
 20
4.2685146442
 40
0.925
100
AcDbArc
 50
187.7687016435
 51
352.2312983565
  0
ARC
  5
382
100
AcDbEntity
  8
0
100
AcDbCircle
 62
6
  6
CONTINUOUS
 10
5.8697253148
 20
4.2685146442
 40
0.74
100
AcDbArc
 50
189.7284901009
 51
350.2715098991
  0
ARC
  5
383
100
AcDbEntity
  8
0
100
AcDbCircle
 62
6
  6
CONTINUOUS
 10
5.8697253148
 20
4.2685146442
 40
0.74
100
AcDbArc
 50
9.7284901009
 51
170.2715098991
  0
ARC
  5
384
100
AcDbEntity
  8
0
100
AcDbCircle
 62
7
  6
CONTINUOUS
 10
5.8697253148
 20
4.2685146442
 40
0.6935
100
AcDbArc
 50
190.4044597111
 51
349.5955402889
  0
ARC
  5
385
100
AcDbEntity
  8
0
100
AcDbCircle
 62
7
  6
CONTINUOUS
 10
5.8697253148
 20
4.2685146442
 40
0.6935
100
AcDbArc
 50
10.4044597111
 51
169.5955402889
  0
ARC
  5
386
100
AcDbEntity
  8
0
100
AcDbCircle
 62
6
  6
CONTINUOUS
 10
5.8697253148
 20
4.2685146442
 40
0.567
100
AcDbArc
 50
192.7801763757
 51
347.2198236243
  0
ARC
  5
387
100
AcDbEntity
  8
0
100
AcDbCircle
 62
6
  6
CONTINUOUS
 10
5.8697253148
 20
4.2685146442
 40
0.567
100
AcDbArc
 50
12.7801763757
 51
167.2198236243
  0
CIRCLE
  5
388
100
AcDbEntity
  8
0
100
AcDbCircle
 62
6
  6
CONTINUOUS
 10
5.8697253148
 20
4.2685146442
 40
0.5
  0
CIRCLE
  5
389
100
AcDbEntity
  8
0
100
AcDbCircle
 62
7
  6
CONTINUOUS
 10
5.8697253148
 20
4.2685146442
 40
0.4874999956
  0
CIRCLE
  5
38A
100
AcDbEntity
  8
0
100
AcDbCircle
 62
6
  6
CONTINUOUS
 10
5.8697253148
 20
4.2685146442
 40
0.4125
  0
CIRCLE
  5
38B
100
AcDbEntity
  8
0
100
AcDbCircle
 62
6
  6
CONTINUOUS
 10
5.8697253148
 20
4.2685146442
 40
0.3625
  0
ARC
  5
38C
100
AcDbEntity
  8
0
100
AcDbCircle
 62
6
  6
CONTINUOUS
 10
7.2697253148
 20
4.7685146442
 40
0.625
100
AcDbArc
 50
270.0
 51
360.0
  0
ARC
  5
38D
100
AcDbEntity
  8
0
100
AcDbCircle
 62
6
  6
CONTINUOUS
 10
7.2697253148
 20
4.7685146442
 40
0.375
100
AcDbArc
 50
270.0
 51
360.0
  0
ARC
  5
38E
100
AcDbEntity
  8
0
100
AcDbCircle
 62
6
  6
CONTINUOUS
 10
7.5322253148
 20
5.1935146442
 40
0.075
100
AcDbArc
 50
270.0
 51
360.0
  0
ARC
  5
38F
100
AcDbEntity
  8
0
100
AcDbCircle
 62
6
  6
CONTINUOUS
 10
8.0072253148
 20
5.1935146442
 40
0.075
100
AcDbArc
 50
180.0
 51
270.0
  0
ENDSEC
  0
SECTION
  2
OBJECTS
  0
DICTIONARY
  5
C
100
AcDbDictionary
280
0
281
1
  3
ACAD_GROUP
350
D
  3
ACAD_MLINESTYLE
350
17
  3
ACAD_LAYOUT
350
1A
  3
ACAD_PLOTSETTINGS
350
19
  3
ACAD_PLOTSTYLENAME
350
E
  0
DICTIONARY
  5
D
102
{ACAD_REACTORS
330
C
102
}
100
AcDbDictionary
280
0
281
1
  0
ACDBDICTIONARYWDFLT
  5
E
102
{ACAD_REACTORS
330
C
102
}
100
AcDbDictionary
281
1
  3
Normal
350
F
100
AcDbDictionaryWithDefault
340
F
  0
DICTIONARY
  5
17
102
{ACAD_REACTORS
330
C
102
}
100
AcDbDictionary
280
0
281
1
  3
Standard
350
18
  0
DICTIONARY
  5
19
102
{ACAD_REACTORS
330
C
102
}
100
AcDbDictionary
281
1
  0
DICTIONARY
  5
1A
102
{ACAD_REACTORS
330
C
102
}
100
AcDbDictionary
281
1
  3
Model
350
390
  3
Layout1
350
391
  0
ACDBPLACEHOLDER
  5
F
102
{ACAD_REACTORS
330
E
102
}
  0
MLINESTYLE
  5
18
102
{ACAD_REACTORS
330
17
102
}
100
AcDbMlineStyle
  2
STANDARD
 70
0
  3

 62
256
 51
90.0
 52
90.0
 71
2
 49
0.5
 62
256
  6
BYLAYER
 49
-0.5
 62
256
  6
BYLAYER
  0
LAYOUT
  5
390
102
{ACAD_REACTORS
330
1A
102
}
100
AcDbPlotSettings
  1

  2
none_device
  4
ISO_A4_(297.00_x_210.00_MM)
  6

 40
0.0
 41
0.0
 42
0.0
 43
0.0
 44
297.0
 45
210.0
 46
0.0
 47
0.0
 48
0.0
 49
0.0
140
0.0
141
0.0
142
1.0
143
1.0
 70
1024
 72
0
 73
0
 74
0
  7

 75
0
147
1.0
148
0.0
149
0.0
100
AcDbLayout
  1
Model
 70
0
 71
0
 10
0.0
 20
0.0
 11
11.6929133858
 21
8.2677165354
 12
0.0
 22
0.0
 32
0.0
 14
0.0
 24
0.0
 34
0.0
 15
0.0
 25
0.0
 35
0.0
146
0.0
 13
0.0
 23
0.0
 33
0.0
 16
1.0
 26
0.0
 36
0.0
 17
0.0
 27
1.0
 37
0.0
 76
0
330
203
345
0
346
0
  0
LAYOUT
  5
391
102
{ACAD_REACTORS
330
1A
102
}
100
AcDbPlotSettings
  1

  2
none_device
  4
ISO_A4_(297.00_x_210.00_MM)
  6

 40
0.0
 41
0.0
 42
0.0
 43
0.0
 44
297.0
 45
210.0
 46
0.0
 47
0.0
 48
0.0
 49
0.0
140
0.0
141
0.0
142
1.0
143
1.0
 70
0
 72
0
 73
0
 74
0
  7

 75
0
147
1.0
148
0.0
149
0.0
100
AcDbLayout
  1
Layout1
 70
0
 71
1
 10
0.0
 20
0.0
 11
11.6929133858
 21
8.2677165354
 12
0.0
 22
0.0
 32
0.0
 14
0.0
 24
0.0
 34
0.0
 15
0.0
 25
0.0
 35
0.0
146
0.0
 13
0.0
 23
0.0
 33
0.0
 16
1.0
 26
0.0
 36
0.0
 17
0.0
 27
1.0
 37
0.0
 76
0
330
204
345
0
346
0
  0
ENDSEC
  0
EOF
