  0
SECTION
  2
HEADER
  9
$ACADVER
  1
AC1021
  9
$DWGCODEPAGE
  3
ANSI_1252
  9
$EXTMAX
 10
11.6929133858
 20
8.2677165354
 30
0.0
  9
$EXTMIN
 10
0.0
 20
0.0
 30
0.0
  9
$LIMMIN
 10
0.0
 20
0.0
  9
$LIMMAX
 10
11.6929133858
 20
8.2677165354
  9
$VIEWCTR
 10
5.8464566929
 20
4.1338582677
  9
$VIEWSIZE
 40
8.2677165354
  9
$CLAYER
  8
0
  9
$LTSCALE
 40
0.6431102362
  9
$CELTYPE
  6
BYLAYER
  9
$DIMSCALE
 40
1.0
  9
$DIMASZ
 40
0.1875
  9
$DIMEXO
 40
0.0730807087
  9
$DIMDLI
 40
0.4443307087
  9
$DIMEXE
 40
0.2104724409
  9
$DIMCEN
 40
0.1052362205
  9
$DIMLFAC
 40
1.0
  9
$DIMBLK
  1
_CLOSED
  9
$DIMTXT
 40
0.15625
  9
$DIMTOL
 70
0
  9
$DIMLIM
 70
0
  9
$DIMTFAC
 40
1.0
  9
$PDMODE
 70
3
  9
$PDSIZE
 40
0.3125
  9
$HANDSEED
  5
325
  9
$TILEMODE
 70
1
  9
$MEASUREMENT
 70
0
  9
$INSUNITS
 70
1
  0
ENDSEC
  0
SECTION
  2
CLASSES
  0
CLASS
  1
ACDBDICTIONARYWDFLT
  2
AcDbDictionaryWithDefault
  3
AutoCAD 2000
 90
0
 91
1
280
0
281
0
  0
CLASS
  1
ACDBPLACEHOLDER
  2
AcDbPlaceHolder
  3
AutoCAD 2000
 90
0
 91
1
280
0
281
0
  0
CLASS
  1
LAYOUT
  2
AcDbLayout
  3
AutoCAD 2000
 90
0
 91
0
280
0
281
0
  0
ENDSEC
  0
SECTION
  2
TABLES
  0
TABLE
  2
VPORT
  5
8
100
AcDbSymbolTable
 70
2
  0
VPORT
  5
1F4
100
AcDbSymbolTableRecord
100
AcDbViewportTableRecord
  2
*ACTIVE
 70
0
 10
0.0
 20
0.0
 11
1.0
 21
1.0
 12
5.8464566929
 22
4.1338582677
 13
0.0
 23
0.0
 14
1.0
 24
1.0
 15
0.0
 25
0.0
 16
0.0
 26
0.0
 36
1.0
 17
0.0
 27
0.0
 37
0.0
 40
8.2677165354
 41
1.4142857143
 42
50.0
 43
0.0
 44
0.0
 50
0.0
 51
0.0
 71
0
 72
100
 73
1
 74
1
 75
0
 76
0
 77
0
 78
0
  0
ENDTAB
  0
TABLE
  2
LTYPE
  5
5
100
AcDbSymbolTable
 70
6
  0
LTYPE
  5
14
100
AcDbSymbolTableRecord
100
AcDbLinetypeTableRecord
  2
BYBLOCK
 70
0
  3

 72
65
 73
0
 40
0.0
  0
LTYPE
  5
15
100
AcDbSymbolTableRecord
100
AcDbLinetypeTableRecord
  2
BYLAYER
 70
0
  3

 72
65
 73
0
 40
0.0
  0
LTYPE
  5
16
100
AcDbSymbolTableRecord
100
AcDbLinetypeTableRecord
  2
CONTINUOUS
 70
64
  3
Solid line
 72
65
 73
0
 40
0.0
  0
LTYPE
  5
1F5
100
AcDbSymbolTableRecord
100
AcDbLinetypeTableRecord
  2
CENTER
 70
64
  3
____ _ ____ _ ____ _ ____ _ ____ _ ____ _ ____
 72
65
 73
4
 40
0.6
 49
0.375
 74
0
 49
-0.075
 74
0
 49
0.075
 74
0
 49
-0.075
 74
0
  0
LTYPE
  5
1F6
100
AcDbSymbolTableRecord
100
AcDbLinetypeTableRecord
  2
HIDDEN
 70
64
  3
- - - - - - - - - - - - - - - - - - - -
 72
65
 73
2
 40
0.2
 49
0.1
 74
0
 49
-0.1
 74
0
  0
LTYPE
  5
1F7
100
AcDbSymbolTableRecord
100
AcDbLinetypeTableRecord
  2
PHANTOM
 70
64
  3
_____ _ _ _____ _ _ _____ _ _ _____
 72
65
 73
6
 40
0.8
 49
0.45
 74
0
 49
-0.05
 74
0
 49
0.1
 74
0
 49
-0.05
 74
0
 49
0.1
 74
0
 49
-0.05
 74
0
  0
LTYPE
  5
1F8
100
AcDbSymbolTableRecord
100
AcDbLinetypeTableRecord
  2
DOT
 70
64
  3
. . . . . . . . . . . . . . . . . . . .
 72
65
 73
2
 40
0.2
 49
0.1
 74
0
 49
-0.1
 74
0
  0
LTYPE
  5
1F9
100
AcDbSymbolTableRecord
100
AcDbLinetypeTableRecord
  2
DASHED
 70
64
  3
- - - - - - - - - - - - - - - - - - - -
 72
65
 73
2
 40
0.2
 49
0.1
 74
0
 49
-0.1
 74
0
  0
ENDTAB
  0
TABLE
  2
LAYER
  5
2
100
AcDbSymbolTable
 70
36
  0
LAYER
  5
10
100
AcDbSymbolTableRecord
100
AcDbLayerTableRecord
  2
0
 70
0
 62
7
  6
CONTINUOUS
370
-3
390
F
  0
LAYER
  5
1FA
100
AcDbSymbolTableRecord
100
AcDbLayerTableRecord
  2
DEFAULT_1
 70
0
 62
7
  6
CENTER
370
-3
390
F
  0
LAYER
  5
1FB
100
AcDbSymbolTableRecord
100
AcDbLayerTableRecord
  2
DEFAULT_2
 70
0
 62
8
  6
HIDDEN
370
-3
390
F
  0
LAYER
  5
1FC
100
AcDbSymbolTableRecord
100
AcDbLayerTableRecord
  2
DEFAULT_3
 70
0
 62
7
  6
PHANTOM
370
-3
390
F
  0
LAYER
  5
1FD
100
AcDbSymbolTableRecord
100
AcDbLayerTableRecord
  2
DEFAULT_COORDINATE_SYSTEM
 70
0
 62
7
  6
CONTINUOUS
370
-3
390
F
  0
LAYER
  5
1FE
100
AcDbSymbolTableRecord
100
AcDbLayerTableRecord
  2
DEFAULT_DATUM_AXES
 70
0
 62
7
  6
CONTINUOUS
370
-3
390
F
  0
LAYER
  5
1FF
100
AcDbSymbolTableRecord
100
AcDbLayerTableRecord
  2
DEFAULT_DATUM_CURVES
 70
0
 62
7
  6
CONTINUOUS
370
-3
390
F
  0
LAYER
  5
200
100
AcDbSymbolTableRecord
100
AcDbLayerTableRecord
  2
DEFAULT_DATUM_PLANES
 70
0
 62
7
  6
CONTINUOUS
370
-3
390
F
  0
ENDTAB
  0
TABLE
  2
STYLE
  5
3
100
AcDbSymbolTable
 70
1
  0
STYLE
  5
11
100
AcDbSymbolTableRecord
100
AcDbTextStyleTableRecord
  2
STANDARD
 70
0
 40
0.0
 41
0.8
 50
0.0
 71
0
 42
0.2
  3
txt
  4

  0
STYLE
  5
201
100
AcDbSymbolTableRecord
100
AcDbTextStyleTableRecord
  2
TEXTSTYLE_1
 70
0
 40
0.0
 41
0.8
 50
0.0
 71
0
 42
0.2
  3
gdt
  4

  0
ENDTAB
  0
TABLE
  2
VIEW
  5
6
100
AcDbSymbolTable
 70
0
  0
ENDTAB
  0
TABLE
  2
UCS
  5
7
100
AcDbSymbolTable
 70
0
  0
ENDTAB
  0
TABLE
  2
APPID
  5
9
100
AcDbSymbolTable
 70
1
  0
APPID
  5
202
100
AcDbSymbolTableRecord
100
AcDbRegAppTableRecord
  2
ACAD
 70
0
  0
ENDTAB
  0
TABLE
  2
BLOCK_RECORD
  5
1
100
AcDbSymbolTable
 70
0
  0
BLOCK_RECORD
  5
203
100
AcDbSymbolTableRecord
100
AcDbBlockTableRecord
  2
*Model_Space
  0
BLOCK_RECORD
  5
204
100
AcDbSymbolTableRecord
100
AcDbBlockTableRecord
  2
*Paper_Space
  0
ENDTAB
  0
TABLE
  2
DIMSTYLE
  5
A
100
AcDbSymbolTable
 70
1
100
AcDbDimStyleTable
 71
0
  0
DIMSTYLE
105
205
100
AcDbSymbolTableRecord
100
AcDbDimStyleTableRecord
  2
STANDARD
 70
0
  3

  4

 40
1.0
 41
0.1875
 42
0.0625
 43
0.38
 44
0.18
 45
0.0
 46
0.0
 47
0.001
 48
0.001
140
0.15625
141
0.09
142
0.0
143
25.4
144
1.0
145
0.0
146
1.0
147
0.09
 71
0.0
 72
0.0
 73
1
 74
1
 75
0
 76
0
 77
0
 78
4
170
0
171
2
172
0
173
0
174
0
175
0
176
0
177
0
178
0
270
2
271
3
272
3
273
2
274
2
275
0
280
0
281
0
282
0
283
1
284
4
285
0
286
0
287
3
288
0
340
11
  0
ENDTAB
  0
ENDSEC
  0
SECTION
  2
BLOCKS
  0
BLOCK
  5
20
100
AcDbEntity
  8
0
100
AcDbBlockBegin
  2
*Model_Space
 70
0
 10
0.0
 20
0.0
 30
0.0
  3
*Model_Space
  1

  0
ENDBLK
  5
21
100
AcDbEntity
  8
0
100
AcDbBlockEnd
  0
BLOCK
  5
1C
100
AcDbEntity
  8
0
100
AcDbBlockBegin
  2
*Paper_Space
 70
0
 10
0.0
 20
0.0
 30
0.0
  3
*Paper_Space
  1

  0
ENDBLK
  5
1D
100
AcDbEntity
  8
0
100
AcDbBlockEnd
  0
ENDSEC
  0
SECTION
  2
ENTITIES
  0
LINE
  5
206
100
AcDbEntity
  8
0
100
AcDbLine
 62
6
  6
CONTINUOUS
 10
3.8137471447
 20
4.0154633471
 11
3.8137471447
 21
4.7404633471
  0
LINE
  5
207
100
AcDbEntity
  8
0
100
AcDbLine
 62
6
  6
CONTINUOUS
 10
3.8637471447
 20
3.9654633471
 11
3.8637471447
 21
4.7904633471
  0
LINE
  5
208
100
AcDbEntity
  8
0
100
AcDbLine
 62
6
  6
CONTINUOUS
 10
3.9387471447
 20
3.8779633471
 11
3.9387471447
 21
4.8779633471
  0
LINE
  5
209
100
AcDbEntity
  8
0
100
AcDbLine
 62
6
  6
CONTINUOUS
 10
4.0557471447
 20
5.2279633471
 11
4.0557471447
 21
4.8779633471
  0
LINE
  5
20A
100
AcDbEntity
  8
0
100
AcDbLine
 62
6
  6
CONTINUOUS
 10
4.1807471447
 20
4.3779633471
 11
4.1807471447
 21
4.8779633471
  0
LINE
  5
20B
100
AcDbEntity
  8
0
100
AcDbLine
 62
6
  6
CONTINUOUS
 10
4.1932471447
 20
5.3529633471
 11
4.1932471447
 21
5.3029633471
  0
LINE
  5
20C
100
AcDbEntity
  8
0
100
AcDbLine
 62
6
  6
CONTINUOUS
 10
4.4182471447
 20
5.3529633471
 11
4.4182471447
 21
5.3029633471
  0
LINE
  5
20D
100
AcDbEntity
  8
0
100
AcDbLine
 62
6
  6
CONTINUOUS
 10
4.4307471447
 20
4.3779633471
 11
4.4307471447
 21
4.8779633471
  0
LINE
  5
20E
100
AcDbEntity
  8
0
100
AcDbLine
 62
6
  6
CONTINUOUS
 10
7.5637471447
 20
3.1279633471
 11
7.4137471447
 21
3.1279633471
  0
LINE
  5
20F
100
AcDbEntity
  8
0
100
AcDbLine
 62
6
  6
CONTINUOUS
 10
7.1637471447
 20
3.1279819316
 11
7.0887471447
 21
3.1279819316
  0
LINE
  5
210
100
AcDbEntity
  8
0
100
AcDbLine
 62
6
  6
CONTINUOUS
 10
7.1637471447
 20
3.1285055037
 11
7.0887471447
 21
3.1285055037
  0
LINE
  5
211
100
AcDbEntity
  8
0
100
AcDbLine
 62
6
  6
CONTINUOUS
 10
7.1637471447
 20
3.1289812692
 11
7.0887471447
 21
3.1289812692
  0
LINE
  5
212
100
AcDbEntity
  8
0
100
AcDbLine
 62
6
  6
CONTINUOUS
 10
7.1637471447
 20
3.1305513479
 11
7.0887471447
 21
3.1305513479
  0
LINE
  5
213
100
AcDbEntity
  8
0
100
AcDbLine
 62
6
  6
CONTINUOUS
 10
7.1637471447
 20
3.1315022991
 11
7.0887471447
 21
3.1315022991
  0
LINE
  5
214
100
AcDbEntity
  8
0
100
AcDbLine
 62
6
  6
CONTINUOUS
 10
7.1637471447
 20
3.1341169713
 11
7.0887471447
 21
3.1341169713
  0
LINE
  5
215
100
AcDbEntity
  8
0
100
AcDbLine
 62
6
  6
CONTINUOUS
 10
7.1637471447
 20
3.1355419497
 11
7.0887471447
 21
3.1355419497
  0
LINE
  5
216
100
AcDbEntity
  8
0
100
AcDbLine
 62
6
  6
CONTINUOUS
 10
7.1637471447
 20
3.13919803
 11
7.0887471447
 21
3.13919803
  0
LINE
  5
217
100
AcDbEntity
  8
0
100
AcDbLine
 62
6
  6
CONTINUOUS
 10
7.1637471447
 20
3.1410952995
 11
7.0887471447
 21
3.1410952995
  0
LINE
  5
218
100
AcDbEntity
  8
0
100
AcDbLine
 62
6
  6
CONTINUOUS
 10
7.1637471447
 20
3.1457883334
 11
7.0887471447
 21
3.1457883334
  0
LINE
  5
219
100
AcDbEntity
  8
0
100
AcDbLine
 62
6
  6
CONTINUOUS
 10
7.1637471447
 20
3.1481555824
 11
7.0887471447
 21
3.1481555824
  0
LINE
  5
21A
100
AcDbEntity
  8
0
100
AcDbLine
 62
6
  6
CONTINUOUS
 10
7.1637471447
 20
3.1538798523
 11
7.0887471447
 21
3.1538798523
  0
LINE
  5
21B
100
AcDbEntity
  8
0
100
AcDbLine
 62
6
  6
CONTINUOUS
 10
7.1637471447
 20
3.1567141967
 11
7.0887471447
 21
3.1567141967
  0
LINE
  5
21C
100
AcDbEntity
  8
0
100
AcDbLine
 62
6
  6
CONTINUOUS
 10
7.1637471447
 20
3.1634627284
 11
7.0887471447
 21
3.1634627284
  0
LINE
  5
21D
100
AcDbEntity
  8
0
100
AcDbLine
 62
6
  6
CONTINUOUS
 10
7.1637471447
 20
3.166760715
 11
7.0887471447
 21
3.166760715
  0
LINE
  5
21E
100
AcDbEntity
  8
0
100
AcDbLine
 62
6
  6
CONTINUOUS
 10
7.1637471447
 20
3.1745252863
 11
7.0887471447
 21
3.1745252863
  0
LINE
  5
21F
100
AcDbEntity
  8
0
100
AcDbLine
 62
6
  6
CONTINUOUS
 10
7.3637471447
 20
3.1779633471
 11
7.1637471447
 21
3.1779633471
  0
LINE
  5
220
100
AcDbEntity
  8
0
100
AcDbLine
 62
6
  6
CONTINUOUS
 10
7.1637471447
 20
3.1782828971
 11
7.0887471447
 21
3.1782828971
  0
LINE
  5
221
100
AcDbEntity
  8
0
100
AcDbLine
 62
6
  6
CONTINUOUS
 10
7.1637471447
 20
3.1870540482
 11
7.0887471447
 21
3.1870540482
  0
LINE
  5
222
100
AcDbEntity
  8
0
100
AcDbLine
 62
6
  6
CONTINUOUS
 10
7.1637471447
 20
3.191266705
 11
7.0887471447
 21
3.191266705
  0
LINE
  5
223
100
AcDbEntity
  8
0
100
AcDbLine
 62
6
  6
CONTINUOUS
 10
4.5557471447
 20
5.2279633471
 11
4.5557471447
 21
4.8779633471
  0
LINE
  5
224
100
AcDbEntity
  8
0
100
AcDbLine
 62
6
  6
CONTINUOUS
 10
7.1637471447
 20
3.2010337496
 11
7.0887471447
 21
3.2010337496
  0
LINE
  5
225
100
AcDbEntity
  8
0
100
AcDbLine
 62
6
  6
CONTINUOUS
 10
7.1637471447
 20
3.20569632
 11
7.0887471447
 21
3.20569632
  0
LINE
  5
226
100
AcDbEntity
  8
0
100
AcDbLine
 62
6
  6
CONTINUOUS
 10
7.1637471447
 20
3.2164473584
 11
7.0887471447
 21
3.2164473584
  0
LINE
  5
227
100
AcDbEntity
  8
0
100
AcDbLine
 62
6
  6
CONTINUOUS
 10
7.1637471447
 20
3.2215541617
 11
7.0887471447
 21
3.2215541617
  0
LINE
  5
228
100
AcDbEntity
  8
0
100
AcDbLine
 62
6
  6
CONTINUOUS
 10
7.1637471447
 20
3.2332760956
 11
7.0887471447
 21
3.2332760956
  0
LINE
  5
229
100
AcDbEntity
  8
0
100
AcDbLine
 62
6
  6
CONTINUOUS
 10
7.1637471447
 20
3.23882091
 11
7.0887471447
 21
3.23882091
  0
LINE
  5
22A
100
AcDbEntity
  8
0
100
AcDbLine
 62
6
  6
CONTINUOUS
 10
7.1637471447
 20
3.2514994578
 11
7.0887471447
 21
3.2514994578
  0
LINE
  5
22B
100
AcDbEntity
  8
0
100
AcDbLine
 62
6
  6
CONTINUOUS
 10
7.1637471447
 20
3.2574755278
 11
7.0887471447
 21
3.2574755278
  0
LINE
  5
22C
100
AcDbEntity
  8
0
100
AcDbLine
 62
6
  6
CONTINUOUS
 10
7.1637471447
 20
3.2710952428
 11
7.0887471447
 21
3.2710952428
  0
LINE
  5
22D
100
AcDbEntity
  8
0
100
AcDbLine
 62
6
  6
CONTINUOUS
 10
7.1637471447
 20
3.2774952874
 11
7.0887471447
 21
3.2774952874
  0
LINE
  5
22E
100
AcDbEntity
  8
0
100
AcDbLine
 62
6
  6
CONTINUOUS
 10
7.1637471447
 20
3.292039576
 11
7.0887471447
 21
3.292039576
  0
LINE
  5
22F
100
AcDbEntity
  8
0
100
AcDbLine
 62
6
  6
CONTINUOUS
 10
7.1637471447
 20
3.2988557979
 11
7.0887471447
 21
3.2988557979
  0
LINE
  5
230
100
AcDbEntity
  8
0
100
AcDbLine
 62
6
  6
CONTINUOUS
 10
7.1637471447
 20
3.3143069401
 11
7.0887471447
 21
3.3143069401
  0
LINE
  5
231
100
AcDbEntity
  8
0
100
AcDbLine
 62
6
  6
CONTINUOUS
 10
7.1637471447
 20
3.3215310347
 11
7.0887471447
 21
3.3215310347
  0
LINE
  5
232
100
AcDbEntity
  8
0
100
AcDbLine
 62
6
  6
CONTINUOUS
 10
7.1637471447
 20
3.3378702057
 11
7.0887471447
 21
3.3378702057
  0
LINE
  5
233
100
AcDbEntity
  8
0
100
AcDbLine
 62
6
  6
CONTINUOUS
 10
7.1637471447
 20
3.3454933715
 11
7.0887471447
 21
3.3454933715
  0
LINE
  5
234
100
AcDbEntity
  8
0
100
AcDbLine
 62
6
  6
CONTINUOUS
 10
4.6737471447
 20
3.8779633471
 11
4.6737471447
 21
4.8779633471
  0
LINE
  5
235
100
AcDbEntity
  8
0
100
AcDbLine
 62
6
  6
CONTINUOUS
 10
7.1637471447
 20
3.3627006646
 11
7.0887471447
 21
3.3627006646
  0
LINE
  5
236
100
AcDbEntity
  8
0
100
AcDbLine
 62
6
  6
CONTINUOUS
 10
7.1637471447
 20
3.3707136139
 11
7.0887471447
 21
3.3707136139
  0
LINE
  5
237
100
AcDbEntity
  8
0
100
AcDbLine
 62
6
  6
CONTINUOUS
 10
7.1637471447
 20
3.3887680646
 11
7.0887471447
 21
3.3887680646
  0
LINE
  5
238
100
AcDbEntity
  8
0
100
AcDbLine
 62
6
  6
CONTINUOUS
 10
7.1637471447
 20
3.397161035
 11
7.0887471447
 21
3.397161035
  0
LINE
  5
239
100
AcDbEntity
  8
0
100
AcDbLine
 62
6
  6
CONTINUOUS
 10
7.1637471447
 20
3.4160406468
 11
7.0887471447
 21
3.4160406468
  0
LINE
  5
23A
100
AcDbEntity
  8
0
100
AcDbLine
 62
6
  6
CONTINUOUS
 10
7.1637471447
 20
3.4248034127
 11
7.0887471447
 21
3.4248034127
  0
LINE
  5
23B
100
AcDbEntity
  8
0
100
AcDbLine
 62
6
  6
CONTINUOUS
 10
7.1637471447
 20
3.4444851835
 11
7.0887471447
 21
3.4444851835
  0
LINE
  5
23C
100
AcDbEntity
  8
0
100
AcDbLine
 62
6
  6
CONTINUOUS
 10
7.1637471447
 20
3.4536070688
 11
7.0887471447
 21
3.4536070688
  0
LINE
  5
23D
100
AcDbEntity
  8
0
100
AcDbLine
 62
6
  6
CONTINUOUS
 10
7.1637471447
 20
3.4740670196
 11
7.0887471447
 21
3.4740670196
  0
LINE
  5
23E
100
AcDbEntity
  8
0
100
AcDbLine
 62
6
  6
CONTINUOUS
 10
7.1637471447
 20
3.4835369108
 11
7.0887471447
 21
3.4835369108
  0
LINE
  5
23F
100
AcDbEntity
  8
0
100
AcDbLine
 62
6
  6
CONTINUOUS
 10
7.1637471447
 20
3.5047501142
 11
7.0887471447
 21
3.5047501142
  0
LINE
  5
240
100
AcDbEntity
  8
0
100
AcDbLine
 62
6
  6
CONTINUOUS
 10
7.1637471447
 20
3.5145564735
 11
7.0887471447
 21
3.5145564735
  0
LINE
  5
241
100
AcDbEntity
  8
0
100
AcDbLine
 62
6
  6
CONTINUOUS
 10
7.0887471447
 20
3.5357567544
 11
7.1637471447
 21
3.5357567544
  0
LINE
  5
242
100
AcDbEntity
  8
0
100
AcDbLine
 62
6
  6
CONTINUOUS
 10
7.1637471447
 20
3.5364970846
 11
7.0887471447
 21
3.5364970846
  0
LINE
  5
243
100
AcDbEntity
  8
0
100
AcDbLine
 62
6
  6
CONTINUOUS
 10
7.1637471447
 20
3.5466279646
 11
7.0887471447
 21
3.5466279646
  0
LINE
  5
244
100
AcDbEntity
  8
0
100
AcDbLine
 62
6
  6
CONTINUOUS
 10
7.0887471447
 20
3.5677894937
 11
7.1637471447
 21
3.5677894937
  0
LINE
  5
245
100
AcDbEntity
  8
0
100
AcDbLine
 62
6
  6
CONTINUOUS
 10
7.1637471447
 20
3.569269252
 11
7.0887471447
 21
3.569269252
  0
LINE
  5
246
100
AcDbEntity
  8
0
100
AcDbLine
 62
6
  6
CONTINUOUS
 10
7.1637471447
 20
3.5797123097
 11
7.0887471447
 21
3.5797123097
  0
LINE
  5
247
100
AcDbEntity
  8
0
100
AcDbLine
 62
6
  6
CONTINUOUS
 10
7.0887471447
 20
3.600809305
 11
7.1637471447
 21
3.600809305
  0
LINE
  5
248
100
AcDbEntity
  8
0
100
AcDbLine
 62
6
  6
CONTINUOUS
 10
7.1637471447
 20
3.6030266885
 11
7.0887471447
 21
3.6030266885
  0
LINE
  5
249
100
AcDbEntity
  8
0
100
AcDbLine
 62
6
  6
CONTINUOUS
 10
7.1637471447
 20
3.6137692008
 11
7.0887471447
 21
3.6137692008
  0
LINE
  5
24A
100
AcDbEntity
  8
0
100
AcDbLine
 62
6
  6
CONTINUOUS
 10
7.0887471447
 20
3.6347759588
 11
7.1637471447
 21
3.6347759588
  0
LINE
  5
24B
100
AcDbEntity
  8
0
100
AcDbLine
 62
6
  6
CONTINUOUS
 10
7.1637471447
 20
3.6377282661
 11
7.0887471447
 21
3.6377282661
  0
LINE
  5
24C
100
AcDbEntity
  8
0
100
AcDbLine
 62
6
  6
CONTINUOUS
 10
6.7137471447
 20
3.6379633471
 11
6.7887471447
 21
3.6379633471
  0
LINE
  5
24D
100
AcDbEntity
  8
0
100
AcDbLine
 62
6
  6
CONTINUOUS
 10
7.1637471447
 20
3.6487571447
 11
7.0887471447
 21
3.6487571447
  0
LINE
  5
24E
100
AcDbEntity
  8
0
100
AcDbLine
 62
6
  6
CONTINUOUS
 10
7.0887471447
 20
3.6696480719
 11
7.1637471447
 21
3.6696480719
  0
LINE
  5
24F
100
AcDbEntity
  8
0
100
AcDbLine
 62
6
  6
CONTINUOUS
 10
7.1637471447
 20
3.673331706
 11
7.0887471447
 21
3.673331706
  0
LINE
  5
250
100
AcDbEntity
  8
0
100
AcDbLine
 62
6
  6
CONTINUOUS
 10
7.1637471447
 20
3.6846335141
 11
7.0887471447
 21
3.6846335141
  0
LINE
  5
251
100
AcDbEntity
  8
0
100
AcDbLine
 62
6
  6
CONTINUOUS
 10
6.8887471447
 20
3.6879633471
 11
6.7887471447
 21
3.6879633471
  0
LINE
  5
252
100
AcDbEntity
  8
0
100
AcDbLine
 62
6
  6
CONTINUOUS
 10
7.0887471447
 20
3.7053831581
 11
7.1637471447
 21
3.7053831581
  0
LINE
  5
253
100
AcDbEntity
  8
0
100
AcDbLine
 62
6
  6
CONTINUOUS
 10
7.1637471447
 20
3.7097936311
 11
7.0887471447
 21
3.7097936311
  0
LINE
  5
254
100
AcDbEntity
  8
0
100
AcDbLine
 62
6
  6
CONTINUOUS
 10
7.1637471447
 20
3.721354599
 11
7.0887471447
 21
3.721354599
  0
LINE
  5
255
100
AcDbEntity
  8
0
100
AcDbLine
 62
6
  6
CONTINUOUS
 10
7.0887471447
 20
3.7419376796
 11
7.1637471447
 21
3.7419376796
  0
LINE
  5
256
100
AcDbEntity
  8
0
100
AcDbLine
 62
6
  6
CONTINUOUS
 10
7.1637471447
 20
3.747069618
 11
7.0887471447
 21
3.747069618
  0
LINE
  5
257
100
AcDbEntity
  8
0
100
AcDbLine
 62
6
  6
CONTINUOUS
 10
7.1637471447
 20
3.7588756606
 11
7.0887471447
 21
3.7588756606
  0
LINE
  5
258
100
AcDbEntity
  8
0
100
AcDbLine
 62
6
  6
CONTINUOUS
 10
7.0887471447
 20
3.7792671005
 11
7.1637471447
 21
3.7792671005
  0
LINE
  5
259
100
AcDbEntity
  8
0
100
AcDbLine
 62
6
  6
CONTINUOUS
 10
7.1637471447
 20
3.7851142518
 11
7.0887471447
 21
3.7851142518
  0
LINE
  5
25A
100
AcDbEntity
  8
0
100
AcDbLine
 62
6
  6
CONTINUOUS
 10
7.1637471447
 20
3.7971509851
 11
7.0887471447
 21
3.7971509851
  0
LINE
  5
25B
100
AcDbEntity
  8
0
100
AcDbLine
 62
6
  6
CONTINUOUS
 10
6.5872471447
 20
3.8109633471
 11
6.5607471447
 21
3.8109633471
  0
LINE
  5
25C
100
AcDbEntity
  8
0
100
AcDbLine
 62
6
  6
CONTINUOUS
 10
7.0887471447
 20
3.8173259405
 11
7.1637471447
 21
3.8173259405
  0
LINE
  5
25D
100
AcDbEntity
  8
0
100
AcDbLine
 62
6
  6
CONTINUOUS
 10
7.1637471447
 20
3.8238811809
 11
7.0887471447
 21
3.8238811809
  0
LINE
  5
25E
100
AcDbEntity
  8
0
100
AcDbLine
 62
6
  6
CONTINUOUS
 10
7.1637471447
 20
3.8361339401
 11
7.0887471447
 21
3.8361339401
  0
LINE
  5
25F
100
AcDbEntity
  8
0
100
AcDbLine
 62
6
  6
CONTINUOUS
 10
7.0887471447
 20
3.8560678308
 11
7.1637471447
 21
3.8560678308
  0
LINE
  5
260
100
AcDbEntity
  8
0
100
AcDbLine
 62
6
  6
CONTINUOUS
 10
7.1637471447
 20
3.8633231737
 11
7.0887471447
 21
3.8633231737
  0
LINE
  5
261
100
AcDbEntity
  8
0
100
AcDbLine
 62
6
  6
CONTINUOUS
 10
7.1637471447
 20
3.8757770307
 11
7.0887471447
 21
3.8757770307
  0
LINE
  5
262
100
AcDbEntity
  8
0
100
AcDbLine
 62
6
  6
CONTINUOUS
 10
4.6737471447
 20
3.8779633471
 11
3.9387471447
 21
3.8779633471
  0
LINE
  5
263
100
AcDbEntity
  8
0
100
AcDbLine
 62
6
  6
CONTINUOUS
 10
7.0887471447
 20
3.8954455704
 11
7.1637471447
 21
3.8954455704
  0
LINE
  5
264
100
AcDbEntity
  8
0
100
AcDbLine
 62
6
  6
CONTINUOUS
 10
7.1637471447
 20
3.9033921763
 11
7.0887471447
 21
3.9033921763
  0
LINE
  5
265
100
AcDbEntity
  8
0
100
AcDbLine
 62
6
  6
CONTINUOUS
 10
7.1637471447
 20
3.916031958
 11
7.0887471447
 21
3.916031958
  0
LINE
  5
266
100
AcDbEntity
  8
0
100
AcDbLine
 62
6
  6
CONTINUOUS
 10
7.0887471447
 20
3.9354111836
 11
7.1637471447
 21
3.9354111836
  0
LINE
  5
267
100
AcDbEntity
  8
0
100
AcDbLine
 62
6
  6
CONTINUOUS
 10
6.4337471447
 20
3.9379633471
 11
6.4077471447
 21
3.9379633471
  0
LINE
  5
268
100
AcDbEntity
  8
0
100
AcDbLine
 62
6
  6
CONTINUOUS
 10
7.1637471447
 20
3.9440393708
 11
7.0887471447
 21
3.9440393708
  0
LINE
  5
269
100
AcDbEntity
  8
0
100
AcDbLine
 62
6
  6
CONTINUOUS
 10
7.1637471447
 20
3.9568496775
 11
7.0887471447
 21
3.9568496775
  0
LINE
  5
26A
100
AcDbEntity
  8
0
100
AcDbLine
 62
6
  6
CONTINUOUS
 10
7.0887471447
 20
3.9759159785
 11
7.1637471447
 21
3.9759159785
  0
LINE
  5
26B
100
AcDbEntity
  8
0
100
AcDbLine
 62
6
  6
CONTINUOUS
 10
7.1637471447
 20
3.9852152348
 11
7.0887471447
 21
3.9852152348
  0
LINE
  5
26C
100
AcDbEntity
  8
0
100
AcDbLine
 62
6
  6
CONTINUOUS
 10
7.1637471447
 20
3.9981804592
 11
7.0887471447
 21
3.9981804592
  0
LINE
  5
26D
100
AcDbEntity
  8
0
100
AcDbLine
 62
6
  6
CONTINUOUS
 10
3.8637471447
 20
4.0154633471
 11
3.8137471447
 21
4.0154633471
  0
LINE
  5
26E
100
AcDbEntity
  8
0
100
AcDbLine
 62
6
  6
CONTINUOUS
 10
7.0887471447
 20
4.0169106061
 11
7.1637471447
 21
4.0169106061
  0
LINE
  5
26F
100
AcDbEntity
  8
0
100
AcDbLine
 62
6
  6
CONTINUOUS
 10
7.1637471447
 20
4.0268696019
 11
7.0887471447
 21
4.0268696019
  0
LINE
  5
270
100
AcDbEntity
  8
0
100
AcDbLine
 62
6
  6
CONTINUOUS
 10
6.4077471447
 20
4.0279633471
 11
4.6737471447
 21
4.0279633471
  0
LINE
  5
271
100
AcDbEntity
  8
0
100
AcDbLine
 62
6
  6
CONTINUOUS
 10
7.1637471447
 20
4.0399739478
 11
7.0887471447
 21
4.0399739478
  0
LINE
  5
272
100
AcDbEntity
  8
0
100
AcDbLine
 62
6
  6
CONTINUOUS
 10
7.0887471447
 20
4.0583451209
 11
7.1637471447
 21
4.0583451209
  0
LINE
  5
273
100
AcDbEntity
  8
0
100
AcDbLine
 62
6
  6
CONTINUOUS
 10
7.1637471447
 20
4.0689517226
 11
7.0887471447
 21
4.0689517226
  0
LINE
  5
274
100
AcDbEntity
  8
0
100
AcDbLine
 62
6
  6
CONTINUOUS
 10
7.1637471447
 20
4.0821792245
 11
7.0887471447
 21
4.0821792245
  0
LINE
  5
275
100
AcDbEntity
  8
0
100
AcDbLine
 62
6
  6
CONTINUOUS
 10
7.0887471447
 20
4.1001690413
 11
7.1637471447
 21
4.1001690413
  0
LINE
  5
276
100
AcDbEntity
  8
0
100
AcDbLine
 62
6
  6
CONTINUOUS
 10
7.1637471447
 20
4.1114103264
 11
7.0887471447
 21
4.1114103264
  0
LINE
  5
277
100
AcDbEntity
  8
0
100
AcDbLine
 62
6
  6
CONTINUOUS
 10
7.1637471447
 20
4.1247448685
 11
7.0887471447
 21
4.1247448685
  0
LINE
  5
278
100
AcDbEntity
  8
0
100
AcDbLine
 62
6
  6
CONTINUOUS
 10
7.0887471447
 20
4.1423314112
 11
7.1637471447
 21
4.1423314112
  0
LINE
  5
279
100
AcDbEntity
  8
0
100
AcDbLine
 62
6
  6
CONTINUOUS
 10
7.1637471447
 20
4.154193684
 11
7.0887471447
 21
4.154193684
  0
LINE
  5
27A
100
AcDbEntity
  8
0
100
AcDbLine
 62
6
  6
CONTINUOUS
 10
7.1637471447
 20
4.1676190203
 11
7.0887471447
 21
4.1676190203
  0
LINE
  5
27B
100
AcDbEntity
  8
0
100
AcDbLine
 62
6
  6
CONTINUOUS
 10
7.0887471447
 20
4.1847808623
 11
7.1637471447
 21
4.1847808623
  0
LINE
  5
27C
100
AcDbEntity
  8
0
100
AcDbLine
 62
6
  6
CONTINUOUS
 10
7.1637471447
 20
4.1972496705
 11
7.0887471447
 21
4.1972496705
  0
LINE
  5
27D
100
AcDbEntity
  8
0
100
AcDbLine
 62
6
  6
CONTINUOUS
 10
7.1637471447
 20
4.2107494442
 11
7.0887471447
 21
4.2107494442
  0
LINE
  5
27E
100
AcDbEntity
  8
0
100
AcDbLine
 62
6
  6
CONTINUOUS
 10
7.0887471447
 20
4.2274656766
 11
7.1637471447
 21
4.2274656766
  0
LINE
  5
27F
100
AcDbEntity
  8
0
100
AcDbLine
 62
6
  6
CONTINUOUS
 10
7.1637471447
 20
4.2405258287
 11
7.0887471447
 21
4.2405258287
  0
LINE
  5
280
100
AcDbEntity
  8
0
100
AcDbLine
 62
6
  6
CONTINUOUS
 10
7.1637471447
 20
4.2540835925
 11
7.0887471447
 21
4.2540835925
  0
LINE
  5
281
100
AcDbEntity
  8
0
100
AcDbLine
 62
6
  6
CONTINUOUS
 10
7.0887471447
 20
4.2703338491
 11
7.1637471447
 21
4.2703338491
  0
LINE
  5
282
100
AcDbEntity
  8
0
100
AcDbLine
 62
6
  6
CONTINUOUS
 10
7.1637471447
 20
4.2839694334
 11
7.0887471447
 21
4.2839694334
  0
LINE
  5
283
100
AcDbEntity
  8
0
100
AcDbLine
 62
6
  6
CONTINUOUS
 10
7.1637471447
 20
4.2975686691
 11
7.0887471447
 21
4.2975686691
  0
LINE
  5
284
100
AcDbEntity
  8
0
100
AcDbLine
 62
6
  6
CONTINUOUS
 10
7.0887471447
 20
4.3133331515
 11
7.1637471447
 21
4.3133331515
  0
LINE
  5
285
100
AcDbEntity
  8
0
100
AcDbLine
 62
6
  6
CONTINUOUS
 10
7.1637471447
 20
4.3275275552
 11
7.0887471447
 21
4.3275275552
  0
LINE
  5
286
100
AcDbEntity
  8
0
100
AcDbLine
 62
6
  6
CONTINUOUS
 10
7.1637471447
 20
4.3411516944
 11
7.0887471447
 21
4.3411516944
  0
LINE
  5
287
100
AcDbEntity
  8
0
100
AcDbLine
 62
6
  6
CONTINUOUS
 10
7.0887471447
 20
4.3564111959
 11
7.1637471447
 21
4.3564111959
  0
LINE
  5
288
100
AcDbEntity
  8
0
100
AcDbLine
 62
6
  6
CONTINUOUS
 10
7.1637471447
 20
4.3711471252
 11
7.0887471447
 21
4.3711471252
  0
LINE
  5
289
100
AcDbEntity
  8
0
100
AcDbLine
 62
6
  6
CONTINUOUS
 10
7.1637471447
 20
4.3847795689
 11
7.0887471447
 21
4.3847795689
  0
LINE
  5
28A
100
AcDbEntity
  8
0
100
AcDbLine
 62
6
  6
CONTINUOUS
 10
7.0887471447
 20
4.3995154982
 11
7.1637471447
 21
4.3995154982
  0
LINE
  5
28B
100
AcDbEntity
  8
0
100
AcDbLine
 62
6
  6
CONTINUOUS
 10
7.1637471447
 20
4.4147749998
 11
7.0887471447
 21
4.4147749998
  0
LINE
  5
28C
100
AcDbEntity
  8
0
100
AcDbLine
 62
6
  6
CONTINUOUS
 10
7.1637471447
 20
4.4283991389
 11
7.0887471447
 21
4.4283991389
  0
LINE
  5
28D
100
AcDbEntity
  8
0
100
AcDbLine
 62
6
  6
CONTINUOUS
 10
7.0887471447
 20
4.4425935426
 11
7.1637471447
 21
4.4425935426
  0
LINE
  5
28E
100
AcDbEntity
  8
0
100
AcDbLine
 62
6
  6
CONTINUOUS
 10
7.1637471447
 20
4.458358025
 11
7.0887471447
 21
4.458358025
  0
LINE
  5
28F
100
AcDbEntity
  8
0
100
AcDbLine
 62
6
  6
CONTINUOUS
 10
7.1637471447
 20
4.4719572607
 11
7.0887471447
 21
4.4719572607
  0
LINE
  5
290
100
AcDbEntity
  8
0
100
AcDbLine
 62
6
  6
CONTINUOUS
 10
7.0887471447
 20
4.4855928451
 11
7.1637471447
 21
4.4855928451
  0
LINE
  5
291
100
AcDbEntity
  8
0
100
AcDbLine
 62
6
  6
CONTINUOUS
 10
7.1637471447
 20
4.5018431017
 11
7.0887471447
 21
4.5018431017
  0
LINE
  5
292
100
AcDbEntity
  8
0
100
AcDbLine
 62
6
  6
CONTINUOUS
 10
7.1637471447
 20
4.5154008654
 11
7.0887471447
 21
4.5154008654
  0
LINE
  5
293
100
AcDbEntity
  8
0
100
AcDbLine
 62
6
  6
CONTINUOUS
 10
7.0887471447
 20
4.5284610175
 11
7.1637471447
 21
4.5284610175
  0
LINE
  5
294
100
AcDbEntity
  8
0
100
AcDbLine
 62
6
  6
CONTINUOUS
 10
7.1637471447
 20
4.54517725
 11
7.0887471447
 21
4.54517725
  0
LINE
  5
295
100
AcDbEntity
  8
0
100
AcDbLine
 62
6
  6
CONTINUOUS
 10
7.1637471447
 20
4.5586770236
 11
7.0887471447
 21
4.5586770236
  0
LINE
  5
296
100
AcDbEntity
  8
0
100
AcDbLine
 62
6
  6
CONTINUOUS
 10
7.0887471447
 20
4.5711458318
 11
7.1637471447
 21
4.5711458318
  0
LINE
  5
297
100
AcDbEntity
  8
0
100
AcDbLine
 62
6
  6
CONTINUOUS
 10
7.1637471447
 20
4.5883076739
 11
7.0887471447
 21
4.5883076739
  0
LINE
  5
298
100
AcDbEntity
  8
0
100
AcDbLine
 62
6
  6
CONTINUOUS
 10
7.1637471447
 20
4.6017330101
 11
7.0887471447
 21
4.6017330101
  0
LINE
  5
299
100
AcDbEntity
  8
0
100
AcDbLine
 62
6
  6
CONTINUOUS
 10
7.0887471447
 20
4.6135952829
 11
7.1637471447
 21
4.6135952829
  0
LINE
  5
29A
100
AcDbEntity
  8
0
100
AcDbLine
 62
6
  6
CONTINUOUS
 10
7.1637471447
 20
4.6311818256
 11
7.0887471447
 21
4.6311818256
  0
LINE
  5
29B
100
AcDbEntity
  8
0
100
AcDbLine
 62
6
  6
CONTINUOUS
 10
7.1637471447
 20
4.6445163677
 11
7.0887471447
 21
4.6445163677
  0
LINE
  5
29C
100
AcDbEntity
  8
0
100
AcDbLine
 62
6
  6
CONTINUOUS
 10
7.0887471447
 20
4.6557576529
 11
7.1637471447
 21
4.6557576529
  0
LINE
  5
29D
100
AcDbEntity
  8
0
100
AcDbLine
 62
6
  6
CONTINUOUS
 10
7.1637471447
 20
4.6737474696
 11
7.0887471447
 21
4.6737474696
  0
LINE
  5
29E
100
AcDbEntity
  8
0
100
AcDbLine
 62
6
  6
CONTINUOUS
 10
7.1637471447
 20
4.6869749715
 11
7.0887471447
 21
4.6869749715
  0
LINE
  5
29F
100
AcDbEntity
  8
0
100
AcDbLine
 62
6
  6
CONTINUOUS
 10
7.0887471447
 20
4.6975815732
 11
7.1637471447
 21
4.6975815732
  0
LINE
  5
2A0
100
AcDbEntity
  8
0
100
AcDbLine
 62
6
  6
CONTINUOUS
 10
7.4137471447
 20
5.6279633471
 11
7.3637471447
 21
5.5779633471
  0
LINE
  5
2A1
100
AcDbEntity
  8
0
100
AcDbLine
 62
6
  6
CONTINUOUS
 10
7.1637471447
 20
4.7159527463
 11
7.0887471447
 21
4.7159527463
  0
LINE
  5
2A2
100
AcDbEntity
  8
0
100
AcDbLine
 62
6
  6
CONTINUOUS
 10
6.4077471447
 20
4.7279633471
 11
5.8867471447
 21
4.7279633471
  0
LINE
  5
2A3
100
AcDbEntity
  8
0
100
AcDbLine
 62
6
  6
CONTINUOUS
 10
5.6907471447
 20
4.7279633471
 11
4.6737471447
 21
4.7279633471
  0
LINE
  5
2A4
100
AcDbEntity
  8
0
100
AcDbLine
 62
6
  6
CONTINUOUS
 10
7.1637471447
 20
4.7290570922
 11
7.0887471447
 21
4.7290570922
  0
LINE
  5
2A5
100
AcDbEntity
  8
0
100
AcDbLine
 62
6
  6
CONTINUOUS
 10
7.0887471447
 20
4.739016088
 11
7.1637471447
 21
4.739016088
  0
LINE
  5
2A6
100
AcDbEntity
  8
0
100
AcDbLine
 62
6
  6
CONTINUOUS
 10
3.8637471447
 20
4.7404633471
 11
3.8137471447
 21
4.7404633471
  0
LINE
  5
2A7
100
AcDbEntity
  8
0
100
AcDbLine
 62
6
  6
CONTINUOUS
 10
7.1637471447
 20
4.7577462349
 11
7.0887471447
 21
4.7577462349
  0
LINE
  5
2A8
100
AcDbEntity
  8
0
100
AcDbLine
 62
6
  6
CONTINUOUS
 10
7.1637471447
 20
4.7707114593
 11
7.0887471447
 21
4.7707114593
  0
LINE
  5
2A9
100
AcDbEntity
  8
0
100
AcDbLine
 62
6
  6
CONTINUOUS
 10
7.0887471447
 20
4.7800107156
 11
7.1637471447
 21
4.7800107156
  0
LINE
  5
2AA
100
AcDbEntity
  8
0
100
AcDbLine
 62
6
  6
CONTINUOUS
 10
7.1637471447
 20
4.7990770166
 11
7.0887471447
 21
4.7990770166
  0
LINE
  5
2AB
100
AcDbEntity
  8
0
100
AcDbLine
 62
6
  6
CONTINUOUS
 10
7.1637471447
 20
4.8118873233
 11
7.0887471447
 21
4.8118873233
  0
LINE
  5
2AC
100
AcDbEntity
  8
0
100
AcDbLine
 62
6
  6
CONTINUOUS
 10
6.4337471447
 20
4.8179633471
 11
6.4077471447
 21
4.8179633471
  0
LINE
  5
2AD
100
AcDbEntity
  8
0
100
AcDbLine
 62
6
  6
CONTINUOUS
 10
7.0887471447
 20
4.8205155105
 11
7.1637471447
 21
4.8205155105
  0
LINE
  5
2AE
100
AcDbEntity
  8
0
100
AcDbLine
 62
6
  6
CONTINUOUS
 10
7.1637471447
 20
4.8398947361
 11
7.0887471447
 21
4.8398947361
  0
LINE
  5
2AF
100
AcDbEntity
  8
0
100
AcDbLine
 62
6
  6
CONTINUOUS
 10
7.4137471447
 20
3.1279633471
 11
7.3637471447
 21
3.1779633471
  0
LINE
  5
2B0
100
AcDbEntity
  8
0
100
AcDbLine
 62
6
  6
CONTINUOUS
 10
7.1637471447
 20
4.8525345178
 11
7.0887471447
 21
4.8525345178
  0
LINE
  5
2B1
100
AcDbEntity
  8
0
100
AcDbLine
 62
6
  6
CONTINUOUS
 10
7.0887471447
 20
4.8604811237
 11
7.1637471447
 21
4.8604811237
  0
LINE
  5
2B2
100
AcDbEntity
  8
0
100
AcDbLine
 62
6
  6
CONTINUOUS
 10
3.9387471447
 20
4.8779633471
 11
4.6737471447
 21
4.8779633471
  0
LINE
  5
2B3
100
AcDbEntity
  8
0
100
AcDbLine
 62
6
  6
CONTINUOUS
 10
7.1637471447
 20
4.8801496634
 11
7.0887471447
 21
4.8801496634
  0
LINE
  5
2B4
100
AcDbEntity
  8
0
100
AcDbLine
 62
6
  6
CONTINUOUS
 10
7.1637471447
 20
4.8926035204
 11
7.0887471447
 21
4.8926035204
  0
LINE
  5
2B5
100
AcDbEntity
  8
0
100
AcDbLine
 62
6
  6
CONTINUOUS
 10
7.0887471447
 20
4.8998588633
 11
7.1637471447
 21
4.8998588633
  0
LINE
  5
2B6
100
AcDbEntity
  8
0
100
AcDbLine
 62
6
  6
CONTINUOUS
 10
7.1637471447
 20
4.919792754
 11
7.0887471447
 21
4.919792754
  0
LINE
  5
2B7
100
AcDbEntity
  8
0
100
AcDbLine
 62
6
  6
CONTINUOUS
 10
7.1637471447
 20
4.9320455133
 11
7.0887471447
 21
4.9320455133
  0
LINE
  5
2B8
100
AcDbEntity
  8
0
100
AcDbLine
 62
6
  6
CONTINUOUS
 10
7.0887471447
 20
4.9386007536
 11
7.1637471447
 21
4.9386007536
  0
LINE
  5
2B9
100
AcDbEntity
  8
0
100
AcDbLine
 62
6
  6
CONTINUOUS
 10
6.5872471447
 20
4.9449633471
 11
6.5607471447
 21
4.9449633471
  0
LINE
  5
2BA
100
AcDbEntity
  8
0
100
AcDbLine
 62
6
  6
CONTINUOUS
 10
7.1637471447
 20
4.958775709
 11
7.0887471447
 21
4.958775709
  0
LINE
  5
2BB
100
AcDbEntity
  8
0
100
AcDbLine
 62
6
  6
CONTINUOUS
 10
7.1637471447
 20
4.9708124423
 11
7.0887471447
 21
4.9708124423
  0
LINE
  5
2BC
100
AcDbEntity
  8
0
100
AcDbLine
 62
6
  6
CONTINUOUS
 10
7.0887471447
 20
4.9766595936
 11
7.1637471447
 21
4.9766595936
  0
LINE
  5
2BD
100
AcDbEntity
  8
0
100
AcDbLine
 62
6
  6
CONTINUOUS
 10
7.1637471447
 20
4.9970510335
 11
7.0887471447
 21
4.9970510335
  0
LINE
  5
2BE
100
AcDbEntity
  8
0
100
AcDbLine
 62
6
  6
CONTINUOUS
 10
6.4077471447
 20
3.9379633471
 11
6.4077471447
 21
4.8179633471
  0
LINE
  5
2BF
100
AcDbEntity
  8
0
100
AcDbLine
 62
9
  6
CONTINUOUS
 10
6.4337471447
 20
3.9379633471
 11
6.4337471447
 21
4.8179633471
  0
LINE
  5
2C0
100
AcDbEntity
  8
0
100
AcDbLine
 62
6
  6
CONTINUOUS
 10
7.1637471447
 20
5.0088570761
 11
7.0887471447
 21
5.0088570761
  0
LINE
  5
2C1
100
AcDbEntity
  8
0
100
AcDbLine
 62
6
  6
CONTINUOUS
 10
7.0887471447
 20
5.0139890145
 11
7.1637471447
 21
5.0139890145
  0
LINE
  5
2C2
100
AcDbEntity
  8
0
100
AcDbLine
 62
6
  6
CONTINUOUS
 10
7.1637471447
 20
5.0345720951
 11
7.0887471447
 21
5.0345720951
  0
LINE
  5
2C3
100
AcDbEntity
  8
0
100
AcDbLine
 62
6
  6
CONTINUOUS
 10
7.1637471447
 20
5.046133063
 11
7.0887471447
 21
5.046133063
  0
LINE
  5
2C4
100
AcDbEntity
  8
0
100
AcDbLine
 62
6
  6
CONTINUOUS
 10
7.0887471447
 20
5.050543536
 11
7.1637471447
 21
5.050543536
  0
LINE
  5
2C5
100
AcDbEntity
  8
0
100
AcDbLine
 62
6
  6
CONTINUOUS
 10
6.8887471447
 20
5.0679633471
 11
6.7887471447
 21
5.0679633471
  0
LINE
  5
2C6
100
AcDbEntity
  8
0
100
AcDbLine
 62
6
  6
CONTINUOUS
 10
7.1637471447
 20
5.0712931801
 11
7.0887471447
 21
5.0712931801
  0
LINE
  5
2C7
100
AcDbEntity
  8
0
100
AcDbLine
 62
6
  6
CONTINUOUS
 10
7.1637471447
 20
5.0825949881
 11
7.0887471447
 21
5.0825949881
  0
LINE
  5
2C8
100
AcDbEntity
  8
0
100
AcDbLine
 62
6
  6
CONTINUOUS
 10
7.0887471447
 20
5.0862786222
 11
7.1637471447
 21
5.0862786222
  0
LINE
  5
2C9
100
AcDbEntity
  8
0
100
AcDbLine
 62
6
  6
CONTINUOUS
 10
7.1637471447
 20
5.1071695494
 11
7.0887471447
 21
5.1071695494
  0
LINE
  5
2CA
100
AcDbEntity
  8
0
100
AcDbLine
 62
6
  6
CONTINUOUS
 10
6.7137471447
 20
5.1179633471
 11
6.7887471447
 21
5.1179633471
  0
LINE
  5
2CB
100
AcDbEntity
  8
0
100
AcDbLine
 62
6
  6
CONTINUOUS
 10
7.1637471447
 20
5.118198428
 11
7.0887471447
 21
5.118198428
  0
LINE
  5
2CC
100
AcDbEntity
  8
0
100
AcDbLine
 62
6
  6
CONTINUOUS
 10
7.0887471447
 20
5.1211507354
 11
7.1637471447
 21
5.1211507354
  0
LINE
  5
2CD
100
AcDbEntity
  8
0
100
AcDbLine
 62
6
  6
CONTINUOUS
 10
7.1637471447
 20
5.1421574933
 11
7.0887471447
 21
5.1421574933
  0
LINE
  5
2CE
100
AcDbEntity
  8
0
100
AcDbLine
 62
6
  6
CONTINUOUS
 10
6.5607471447
 20
3.8109633471
 11
6.5607471447
 21
4.9449633471
  0
LINE
  5
2CF
100
AcDbEntity
  8
0
100
AcDbLine
 62
9
  6
CONTINUOUS
 10
6.5872471447
 20
3.8109633471
 11
6.5872471447
 21
4.9449633471
  0
LINE
  5
2D0
100
AcDbEntity
  8
0
100
AcDbLine
 62
6
  6
CONTINUOUS
 10
7.1637471447
 20
5.1529000056
 11
7.0887471447
 21
5.1529000056
  0
LINE
  5
2D1
100
AcDbEntity
  8
0
100
AcDbLine
 62
6
  6
CONTINUOUS
 10
7.0887471447
 20
5.1551173891
 11
7.1637471447
 21
5.1551173891
  0
LINE
  5
2D2
100
AcDbEntity
  8
0
100
AcDbLine
 62
6
  6
CONTINUOUS
 10
7.1637471447
 20
5.1762143844
 11
7.0887471447
 21
5.1762143844
  0
LINE
  5
2D3
100
AcDbEntity
  8
0
100
AcDbLine
 62
6
  6
CONTINUOUS
 10
7.1637471447
 20
5.1866574422
 11
7.0887471447
 21
5.1866574422
  0
LINE
  5
2D4
100
AcDbEntity
  8
0
100
AcDbLine
 62
6
  6
CONTINUOUS
 10
7.0887471447
 20
5.1881372004
 11
7.1637471447
 21
5.1881372004
  0
LINE
  5
2D5
100
AcDbEntity
  8
0
100
AcDbLine
 62
6
  6
CONTINUOUS
 10
7.1637471447
 20
5.2092987296
 11
7.0887471447
 21
5.2092987296
  0
LINE
  5
2D6
100
AcDbEntity
  8
0
100
AcDbLine
 62
6
  6
CONTINUOUS
 10
7.1637471447
 20
5.2194296096
 11
7.0887471447
 21
5.2194296096
  0
LINE
  5
2D7
100
AcDbEntity
  8
0
100
AcDbLine
 62
6
  6
CONTINUOUS
 10
7.0887471447
 20
5.2201699397
 11
7.1637471447
 21
5.2201699397
  0
LINE
  5
2D8
100
AcDbEntity
  8
0
100
AcDbLine
 62
6
  6
CONTINUOUS
 10
4.0557471447
 20
5.2279633471
 11
4.5557471447
 21
5.2279633471
  0
LINE
  5
2D9
100
AcDbEntity
  8
0
100
AcDbLine
 62
6
  6
CONTINUOUS
 10
7.1637471447
 20
5.2413702206
 11
7.0887471447
 21
5.2413702206
  0
LINE
  5
2DA
100
AcDbEntity
  8
0
100
AcDbLine
 62
6
  6
CONTINUOUS
 10
7.1637471447
 20
5.2511765799
 11
7.0887471447
 21
5.2511765799
  0
LINE
  5
2DB
100
AcDbEntity
  8
0
100
AcDbLine
 62
6
  6
CONTINUOUS
 10
7.1637471447
 20
5.2723897834
 11
7.0887471447
 21
5.2723897834
  0
LINE
  5
2DC
100
AcDbEntity
  8
0
100
AcDbLine
 62
6
  6
CONTINUOUS
 10
7.1637471447
 20
5.2818596745
 11
7.0887471447
 21
5.2818596745
  0
LINE
  5
2DD
100
AcDbEntity
  8
0
100
AcDbLine
 62
6
  6
CONTINUOUS
 10
6.7137471447
 20
3.6379762812
 11
6.7137471447
 21
5.1179504129
  0
LINE
  5
2DE
100
AcDbEntity
  8
0
100
AcDbLine
 62
6
  6
CONTINUOUS
 10
7.1637471447
 20
5.3023196253
 11
7.0887471447
 21
5.3023196253
  0
LINE
  5
2DF
100
AcDbEntity
  8
0
100
AcDbLine
 62
6
  6
CONTINUOUS
 10
4.1432490488
 20
5.3029633471
 11
4.4682452407
 21
5.3029633471
  0
LINE
  5
2E0
100
AcDbEntity
  8
0
100
AcDbLine
 62
6
  6
CONTINUOUS
 10
7.1637471447
 20
5.3114415106
 11
7.0887471447
 21
5.3114415106
  0
LINE
  5
2E1
100
AcDbEntity
  8
0
100
AcDbLine
 62
6
  6
CONTINUOUS
 10
7.1637471447
 20
5.3311232815
 11
7.0887471447
 21
5.3311232815
  0
LINE
  5
2E2
100
AcDbEntity
  8
0
100
AcDbLine
 62
6
  6
CONTINUOUS
 10
7.1637471447
 20
5.3398860474
 11
7.0887471447
 21
5.3398860474
  0
LINE
  5
2E3
100
AcDbEntity
  8
0
100
AcDbLine
 62
6
  6
CONTINUOUS
 10
4.1932491111
 20
5.3529633471
 11
4.4182451784
 21
5.3529633471
  0
LINE
  5
2E4
100
AcDbEntity
  8
0
100
AcDbLine
 62
6
  6
CONTINUOUS
 10
7.1637471447
 20
5.3587656591
 11
7.0887471447
 21
5.3587656591
  0
LINE
  5
2E5
100
AcDbEntity
  8
0
100
AcDbLine
 62
6
  6
CONTINUOUS
 10
7.1637471447
 20
5.3671586295
 11
7.0887471447
 21
5.3671586295
  0
LINE
  5
2E6
100
AcDbEntity
  8
0
100
AcDbLine
 62
6
  6
CONTINUOUS
 10
7.1637471447
 20
5.3852130802
 11
7.0887471447
 21
5.3852130802
  0
LINE
  5
2E7
100
AcDbEntity
  8
0
100
AcDbLine
 62
6
  6
CONTINUOUS
 10
7.1637471447
 20
5.3932260295
 11
7.0887471447
 21
5.3932260295
  0
LINE
  5
2E8
100
AcDbEntity
  8
0
100
AcDbLine
 62
6
  6
CONTINUOUS
 10
7.1637471447
 20
5.4104333226
 11
7.0887471447
 21
5.4104333226
  0
LINE
  5
2E9
100
AcDbEntity
  8
0
100
AcDbLine
 62
6
  6
CONTINUOUS
 10
7.1637471447
 20
5.4180564884
 11
7.0887471447
 21
5.4180564884
  0
LINE
  5
2EA
100
AcDbEntity
  8
0
100
AcDbLine
 62
6
  6
CONTINUOUS
 10
7.1637471447
 20
5.4343956594
 11
7.0887471447
 21
5.4343956594
  0
LINE
  5
2EB
100
AcDbEntity
  8
0
100
AcDbLine
 62
6
  6
CONTINUOUS
 10
7.1637471447
 20
5.441619754
 11
7.0887471447
 21
5.441619754
  0
LINE
  5
2EC
100
AcDbEntity
  8
0
100
AcDbLine
 62
6
  6
CONTINUOUS
 10
6.7887471447
 20
3.6379762812
 11
6.7887471447
 21
5.1179504129
  0
LINE
  5
2ED
100
AcDbEntity
  8
0
100
AcDbLine
 62
6
  6
CONTINUOUS
 10
6.8887471447
 20
3.4529633471
 11
6.8887471447
 21
5.3029633471
  0
LINE
  5
2EE
100
AcDbEntity
  8
0
100
AcDbLine
 62
6
  6
CONTINUOUS
 10
7.1637471447
 20
5.4570708962
 11
7.0887471447
 21
5.4570708962
  0
LINE
  5
2EF
100
AcDbEntity
  8
0
100
AcDbLine
 62
6
  6
CONTINUOUS
 10
7.1637471447
 20
5.4638871181
 11
7.0887471447
 21
5.4638871181
  0
LINE
  5
2F0
100
AcDbEntity
  8
0
100
AcDbLine
 62
6
  6
CONTINUOUS
 10
7.1637471447
 20
5.4784314067
 11
7.0887471447
 21
5.4784314067
  0
LINE
  5
2F1
100
AcDbEntity
  8
0
100
AcDbLine
 62
6
  6
CONTINUOUS
 10
7.1637471447
 20
5.4848314513
 11
7.0887471447
 21
5.4848314513
  0
LINE
  5
2F2
100
AcDbEntity
  8
0
100
AcDbLine
 62
6
  6
CONTINUOUS
 10
7.1637471447
 20
5.4984511663
 11
7.0887471447
 21
5.4984511663
  0
LINE
  5
2F3
100
AcDbEntity
  8
0
100
AcDbLine
 62
6
  6
CONTINUOUS
 10
7.1637471447
 20
5.5044272363
 11
7.0887471447
 21
5.5044272363
  0
LINE
  5
2F4
100
AcDbEntity
  8
0
100
AcDbLine
 62
6
  6
CONTINUOUS
 10
7.1637471447
 20
5.5171057841
 11
7.0887471447
 21
5.5171057841
  0
LINE
  5
2F5
100
AcDbEntity
  8
0
100
AcDbLine
 62
6
  6
CONTINUOUS
 10
7.1637471447
 20
5.5226505985
 11
7.0887471447
 21
5.5226505985
  0
LINE
  5
2F6
100
AcDbEntity
  8
0
100
AcDbLine
 62
6
  6
CONTINUOUS
 10
7.1637471447
 20
5.5343725324
 11
7.0887471447
 21
5.5343725324
  0
LINE
  5
2F7
100
AcDbEntity
  8
0
100
AcDbLine
 62
6
  6
CONTINUOUS
 10
7.1637471447
 20
5.5394793357
 11
7.0887471447
 21
5.5394793357
  0
LINE
  5
2F8
100
AcDbEntity
  8
0
100
AcDbLine
 62
6
  6
CONTINUOUS
 10
7.1637471447
 20
5.5502303742
 11
7.0887471447
 21
5.5502303742
  0
LINE
  5
2F9
100
AcDbEntity
  8
0
100
AcDbLine
 62
6
  6
CONTINUOUS
 10
7.1637471447
 20
5.5548929445
 11
7.0887471447
 21
5.5548929445
  0
LINE
  5
2FA
100
AcDbEntity
  8
0
100
AcDbLine
 62
6
  6
CONTINUOUS
 10
7.1637471447
 20
5.5646599891
 11
7.0887471447
 21
5.5646599891
  0
LINE
  5
2FB
100
AcDbEntity
  8
0
100
AcDbLine
 62
6
  6
CONTINUOUS
 10
7.1637471447
 20
5.5688726459
 11
7.0887471447
 21
5.5688726459
  0
LINE
  5
2FC
100
AcDbEntity
  8
0
100
AcDbLine
 62
6
  6
CONTINUOUS
 10
7.1637471447
 20
5.5776437971
 11
7.0887471447
 21
5.5776437971
  0
LINE
  5
2FD
100
AcDbEntity
  8
0
100
AcDbLine
 62
6
  6
CONTINUOUS
 10
7.3637471447
 20
5.5779633471
 11
7.1637471447
 21
5.5779633471
  0
LINE
  5
2FE
100
AcDbEntity
  8
0
100
AcDbLine
 62
6
  6
CONTINUOUS
 10
7.1637471447
 20
5.5814014078
 11
7.0887471447
 21
5.5814014078
  0
LINE
  5
2FF
100
AcDbEntity
  8
0
100
AcDbLine
 62
6
  6
CONTINUOUS
 10
7.1637471447
 20
5.5891659791
 11
7.0887471447
 21
5.5891659791
  0
LINE
  5
300
100
AcDbEntity
  8
0
100
AcDbLine
 62
6
  6
CONTINUOUS
 10
7.1637471447
 20
5.5924639658
 11
7.0887471447
 21
5.5924639658
  0
LINE
  5
301
100
AcDbEntity
  8
0
100
AcDbLine
 62
6
  6
CONTINUOUS
 10
7.1637471447
 20
5.5992124974
 11
7.0887471447
 21
5.5992124974
  0
LINE
  5
302
100
AcDbEntity
  8
0
100
AcDbLine
 62
6
  6
CONTINUOUS
 10
6.9887471447
 20
3.3029633471
 11
6.9887471447
 21
5.4529633471
  0
LINE
  5
303
100
AcDbEntity
  8
0
100
AcDbLine
 62
6
  6
CONTINUOUS
 10
7.1637471447
 20
5.6020468418
 11
7.0887471447
 21
5.6020468418
  0
LINE
  5
304
100
AcDbEntity
  8
0
100
AcDbLine
 62
6
  6
CONTINUOUS
 10
7.1637471447
 20
5.6077711117
 11
7.0887471447
 21
5.6077711117
  0
LINE
  5
305
100
AcDbEntity
  8
0
100
AcDbLine
 62
6
  6
CONTINUOUS
 10
7.1637471447
 20
5.6101383607
 11
7.0887471447
 21
5.6101383607
  0
LINE
  5
306
100
AcDbEntity
  8
0
100
AcDbLine
 62
6
  6
CONTINUOUS
 10
7.1637471447
 20
5.6148313946
 11
7.0887471447
 21
5.6148313946
  0
LINE
  5
307
100
AcDbEntity
  8
0
100
AcDbLine
 62
6
  6
CONTINUOUS
 10
7.1637471447
 20
5.6167286641
 11
7.0887471447
 21
5.6167286641
  0
LINE
  5
308
100
AcDbEntity
  8
0
100
AcDbLine
 62
6
  6
CONTINUOUS
 10
7.1637471447
 20
5.6203847444
 11
7.0887471447
 21
5.6203847444
  0
LINE
  5
309
100
AcDbEntity
  8
0
100
AcDbLine
 62
6
  6
CONTINUOUS
 10
7.1637471447
 20
5.6218097228
 11
7.0887471447
 21
5.6218097228
  0
LINE
  5
30A
100
AcDbEntity
  8
0
100
AcDbLine
 62
6
  6
CONTINUOUS
 10
7.1637471447
 20
5.6244243951
 11
7.0887471447
 21
5.6244243951
  0
LINE
  5
30B
100
AcDbEntity
  8
0
100
AcDbLine
 62
6
  6
CONTINUOUS
 10
7.1637471447
 20
5.6253753463
 11
7.0887471447
 21
5.6253753463
  0
LINE
  5
30C
100
AcDbEntity
  8
0
100
AcDbLine
 62
6
  6
CONTINUOUS
 10
7.1637471447
 20
5.626945425
 11
7.0887471447
 21
5.626945425
  0
LINE
  5
30D
100
AcDbEntity
  8
0
100
AcDbLine
 62
6
  6
CONTINUOUS
 10
7.1637471447
 20
5.6274211904
 11
7.0887471447
 21
5.6274211904
  0
LINE
  5
30E
100
AcDbEntity
  8
0
100
AcDbLine
 62
6
  6
CONTINUOUS
 10
7.1637471447
 20
5.6279447626
 11
7.0887471447
 21
5.6279447626
  0
LINE
  5
30F
100
AcDbEntity
  8
0
100
AcDbLine
 62
6
  6
CONTINUOUS
 10
7.5637471447
 20
5.6279633471
 11
7.4137471447
 21
5.6279633471
  0
LINE
  5
310
100
AcDbEntity
  8
0
100
AcDbLine
 62
6
  6
CONTINUOUS
 10
7.0887471447
 20
3.1279819316
 11
7.0887471447
 21
5.6279447626
  0
LINE
  5
311
100
AcDbEntity
  8
0
100
AcDbLine
 62
6
  6
CONTINUOUS
 10
7.1637471447
 20
5.6279447626
 11
7.1637471447
 21
3.1279819316
  0
LINE
  5
312
100
AcDbEntity
  8
0
100
AcDbLine
 62
6
  6
CONTINUOUS
 10
7.3637471447
 20
3.1779633471
 11
7.3637471447
 21
5.5779633471
  0
LINE
  5
313
100
AcDbEntity
  8
0
100
AcDbLine
 62
6
  6
CONTINUOUS
 10
7.4137471447
 20
3.1279633471
 11
7.4137471447
 21
5.6279633471
  0
LINE
  5
314
100
AcDbEntity
  8
0
100
AcDbLine
 62
6
  6
CONTINUOUS
 10
7.5637471447
 20
3.1279633471
 11
7.5637471447
 21
5.6279633471
  0
ARC
  5
315
100
AcDbEntity
  8
0
100
AcDbCircle
 62
6
  6
CONTINUOUS
 10
3.8637471447
 20
3.8904633471
 40
0.075
100
AcDbArc
 50
0.0
 51
90.0
  0
ARC
  5
316
100
AcDbEntity
  8
0
100
AcDbCircle
 62
9
  6
CONTINUOUS
 10
4.3057471447
 20
4.3779633471
 40
0.125
100
AcDbArc
 50
180.0
 51
360.0
  0
ARC
  5
317
100
AcDbEntity
  8
0
100
AcDbCircle
 62
6
  6
CONTINUOUS
 10
4.5432471447
 20
5.3029633471
 40
0.075
100
AcDbArc
 50
180.0
 51
269.8366909978
  0
ARC
  5
318
100
AcDbEntity
  8
0
100
AcDbCircle
 62
6
  6
CONTINUOUS
 10
4.0682471447
 20
5.3029633471
 40
0.075
100
AcDbArc
 50
270.1633090022
 51
360.0
  0
ARC
  5
319
100
AcDbEntity
  8
0
100
AcDbCircle
 62
6
  6
CONTINUOUS
 10
3.8637471447
 20
4.8654633471
 40
0.075
100
AcDbArc
 50
270.0
 51
360.0
  0
ARC
  5
31A
100
AcDbEntity
  8
0
100
AcDbCircle
 62
6
  6
CONTINUOUS
 10
6.4337471447
 20
3.8109633471
 40
0.127
100
AcDbArc
 50
0.0
 51
90.0
  0
ARC
  5
31B
100
AcDbEntity
  8
0
100
AcDbCircle
 62
6
  6
CONTINUOUS
 10
6.5872471447
 20
3.6844633471
 40
0.1265
100
AcDbArc
 50
0.0
 51
90.0
  0
ARC
  5
31C
100
AcDbEntity
  8
0
100
AcDbCircle
 62
6
  6
CONTINUOUS
 10
6.9887471447
 20
3.2029633471
 40
0.1
100
AcDbArc
 50
1.5644468833
 51
90.0
  0
ARC
  5
31D
100
AcDbEntity
  8
0
100
AcDbCircle
 62
6
  6
CONTINUOUS
 10
6.8887471447
 20
3.3529633471
 40
0.1
100
AcDbArc
 50
0.0
 51
90.0
  0
ARC
  5
31E
100
AcDbEntity
  8
0
100
AcDbCircle
 62
6
  6
CONTINUOUS
 10
6.4337471447
 20
4.9449633471
 40
0.127
100
AcDbArc
 50
270.0
 51
360.0
  0
ARC
  5
31F
100
AcDbEntity
  8
0
100
AcDbCircle
 62
6
  6
CONTINUOUS
 10
6.5872471447
 20
5.0714633471
 40
0.1265
100
AcDbArc
 50
270.0
 51
360.0
  0
ARC
  5
320
100
AcDbEntity
  8
0
100
AcDbCircle
 62
6
  6
CONTINUOUS
 10
6.9887471447
 20
5.5529633471
 40
0.1
100
AcDbArc
 50
270.0
 51
358.4355531167
  0
ARC
  5
321
100
AcDbEntity
  8
0
100
AcDbCircle
 62
6
  6
CONTINUOUS
 10
6.8887471447
 20
5.4029633471
 40
0.1
100
AcDbArc
 50
270.0
 51
360.0
  0
SPLINE
  5
322
100
AcDbEntity
  8
0
100
AcDbSpline
 62
6
  6
CONTINUOUS
 70
0
 71
3
 72
25
 73
21
 74
19
 42
0.0000001
 43
0.0000001
 44
0.0000000001
 12
-0.1930311619
 22
-0.0422321942
 32
0.0
 13
-0.1930309644
 23
0.0422330877
 33
0.0
 40
0.0
 40
0.0
 40
0.0
 40
0.0
 40
0.0434556211
 40
0.1588899978
 40
0.2349440657
 40
0.2761426142
 40
0.318974781
 40
0.3631034276
 40
0.4081980742
 40
0.4539342019
 40
0.4999902391
 40
0.5460462848
 40
0.5917824611
 40
0.6368772139
 40
0.68100607
 40
0.7238385966
 40
0.7650376278
 40
0.8410931497
 40
0.9565343629
 40
1.0
 40
1.0
 40
1.0
 40
1.0
 10
5.8867471447
 20
4.7279633471
 30
0.0
 10
5.8839510484
 20
4.727351605
 30
0.0
 10
5.8737085125
 20
4.7251976272
 30
0.0
 10
5.8584677325
 20
4.7224764397
 30
0.0
 10
5.8432813524
 20
4.7203865385
 30
0.0
 10
5.8328014575
 20
4.7192149694
 30
0.0
 10
5.8243954258
 20
4.7184336074
 30
0.0
 10
5.81571978
 20
4.7177971559
 30
0.0
 10
5.8068418606
 20
4.7173282926
 30
0.0
 10
5.7978291981
 20
4.7170394411
 30
0.0
 10
5.7887490734
 20
4.7169433246
 30
0.0
 10
5.7796689436
 20
4.7170393359
 30
0.0
 10
5.7706562703
 20
4.7173281649
 30
0.0
 10
5.7617783172
 20
4.7177968544
 30
0.0
 10
5.7531026301
 20
4.7184333505
 30
0.0
 10
5.7446965125
 20
4.7192145336
 30
0.0
 10
5.7342164694
 20
4.7203861463
 30
0.0
 10
5.7190294968
 20
4.7224759644
 30
0.0
 10
5.7037875039
 20
4.7251972377
 30
0.0
 10
5.6935438827
 20
4.727351451
 30
0.0
 10
5.6907471447
 20
4.7279633471
 30
0.0
 11
5.8867471447
 21
4.7279633471
 31
0.0
 11
5.8783436492
 21
4.726196863
 31
0.0
 11
5.8558856207
 21
4.7222012993
 31
0.0
 11
5.8409966617
 21
4.7201555265
 31
0.0
 11
5.8329058606
 21
4.7192516003
 31
0.0
 11
5.8244782152
 21
4.7184684571
 31
0.0
 11
5.8157813848
 21
4.7178311771
 31
0.0
 11
5.8068827575
 21
4.7173610576
 31
0.0
 11
5.7978495728
 21
4.7170723135
 31
0.0
 11
5.7887490737
 21
4.7169754202
 31
0.0
 11
5.7796485719
 21
4.7170722218
 31
0.0
 11
5.7706153755
 21
4.7173609036
 31
0.0
 11
5.7617167213
 21
4.7178309107
 31
0.0
 11
5.7530198472
 21
4.7184681606
 31
0.0
 11
5.7445921204
 21
4.7192511968
 31
0.0
 11
5.7365012218
 21
4.720155109
 31
0.0
 11
5.7216119625
 21
4.7222008075
 31
0.0
 11
5.6991525757
 21
4.7261964489
 31
0.0
 11
5.6907471447
 21
4.7279633471
 31
0.0
  0
ENDSEC
  0
SECTION
  2
OBJECTS
  0
DICTIONARY
  5
C
100
AcDbDictionary
280
0
281
1
  3
ACAD_GROUP
350
D
  3
ACAD_MLINESTYLE
350
17
  3
ACAD_LAYOUT
350
1A
  3
ACAD_PLOTSETTINGS
350
19
  3
ACAD_PLOTSTYLENAME
350
E
  0
DICTIONARY
  5
D
102
{ACAD_REACTORS
330
C
102
}
100
AcDbDictionary
280
0
281
1
  0
ACDBDICTIONARYWDFLT
  5
E
102
{ACAD_REACTORS
330
C
102
}
100
AcDbDictionary
281
1
  3
Normal
350
F
100
AcDbDictionaryWithDefault
340
F
  0
DICTIONARY
  5
17
102
{ACAD_REACTORS
330
C
102
}
100
AcDbDictionary
280
0
281
1
  3
Standard
350
18
  0
DICTIONARY
  5
19
102
{ACAD_REACTORS
330
C
102
}
100
AcDbDictionary
281
1
  0
DICTIONARY
  5
1A
102
{ACAD_REACTORS
330
C
102
}
100
AcDbDictionary
281
1
  3
Model
350
323
  3
Layout1
350
324
  0
ACDBPLACEHOLDER
  5
F
102
{ACAD_REACTORS
330
E
102
}
  0
MLINESTYLE
  5
18
102
{ACAD_REACTORS
330
17
102
}
100
AcDbMlineStyle
  2
STANDARD
 70
0
  3

 62
256
 51
90.0
 52
90.0
 71
2
 49
0.5
 62
256
  6
BYLAYER
 49
-0.5
 62
256
  6
BYLAYER
  0
LAYOUT
  5
323
102
{ACAD_REACTORS
330
1A
102
}
100
AcDbPlotSettings
  1

  2
none_device
  4
ISO_A4_(297.00_x_210.00_MM)
  6

 40
0.0
 41
0.0
 42
0.0
 43
0.0
 44
297.0
 45
210.0
 46
0.0
 47
0.0
 48
0.0
 49
0.0
140
0.0
141
0.0
142
1.0
143
1.0
 70
1024
 72
0
 73
0
 74
0
  7

 75
0
147
1.0
148
0.0
149
0.0
100
AcDbLayout
  1
Model
 70
0
 71
0
 10
0.0
 20
0.0
 11
11.6929133858
 21
8.2677165354
 12
0.0
 22
0.0
 32
0.0
 14
0.0
 24
0.0
 34
0.0
 15
0.0
 25
0.0
 35
0.0
146
0.0
 13
0.0
 23
0.0
 33
0.0
 16
1.0
 26
0.0
 36
0.0
 17
0.0
 27
1.0
 37
0.0
 76
0
330
203
345
0
346
0
  0
LAYOUT
  5
324
102
{ACAD_REACTORS
330
1A
102
}
100
AcDbPlotSettings
  1

  2
none_device
  4
ISO_A4_(297.00_x_210.00_MM)
  6

 40
0.0
 41
0.0
 42
0.0
 43
0.0
 44
297.0
 45
210.0
 46
0.0
 47
0.0
 48
0.0
 49
0.0
140
0.0
141
0.0
142
1.0
143
1.0
 70
0
 72
0
 73
0
 74
0
  7

 75
0
147
1.0
148
0.0
149
0.0
100
AcDbLayout
  1
Layout1
 70
0
 71
1
 10
0.0
 20
0.0
 11
11.6929133858
 21
8.2677165354
 12
0.0
 22
0.0
 32
0.0
 14
0.0
 24
0.0
 34
0.0
 15
0.0
 25
0.0
 35
0.0
146
0.0
 13
0.0
 23
0.0
 33
0.0
 16
1.0
 26
0.0
 36
0.0
 17
0.0
 27
1.0
 37
0.0
 76
0
330
204
345
0
346
0
  0
ENDSEC
  0
EOF
