  0
SECTION
  2
HEADER
  9
$ACADVER
  1
AC1021
  9
$DWGCODEPAGE
  3
ANSI_1252
  9
$EXTMAX
 10
11.6929133858
 20
8.2677165354
 30
0.0
  9
$EXTMIN
 10
0.0
 20
0.0
 30
0.0
  9
$LIMMIN
 10
0.0
 20
0.0
  9
$LIMMAX
 10
11.6929133858
 20
8.2677165354
  9
$VIEWCTR
 10
5.8464566929
 20
4.1338582677
  9
$VIEWSIZE
 40
8.2677165354
  9
$CLAYER
  8
0
  9
$LTSCALE
 40
0.6431102362
  9
$CELTYPE
  6
BYLAYER
  9
$DIMSCALE
 40
1.0
  9
$DIMASZ
 40
0.1875
  9
$DIMEXO
 40
0.0730807087
  9
$DIMDLI
 40
0.4443307087
  9
$DIMEXE
 40
0.2104724409
  9
$DIMCEN
 40
0.1052362205
  9
$DIMLFAC
 40
1.0
  9
$DIMBLK
  1
_CLOSED
  9
$DIMTXT
 40
0.15625
  9
$DIMTOL
 70
0
  9
$DIMLIM
 70
0
  9
$DIMTFAC
 40
1.0
  9
$PDMODE
 70
3
  9
$PDSIZE
 40
0.3125
  9
$HANDSEED
  5
4E5
  9
$TILEMODE
 70
1
  9
$MEASUREMENT
 70
0
  9
$INSUNITS
 70
1
  0
ENDSEC
  0
SECTION
  2
CLASSES
  0
CLASS
  1
ACDBDICTIONARYWDFLT
  2
AcDbDictionaryWithDefault
  3
AutoCAD 2000
 90
0
 91
1
280
0
281
0
  0
CLASS
  1
ACDBPLACEHOLDER
  2
AcDbPlaceHolder
  3
AutoCAD 2000
 90
0
 91
1
280
0
281
0
  0
CLASS
  1
LAYOUT
  2
AcDbLayout
  3
AutoCAD 2000
 90
0
 91
0
280
0
281
0
  0
ENDSEC
  0
SECTION
  2
TABLES
  0
TABLE
  2
VPORT
  5
8
100
AcDbSymbolTable
 70
2
  0
VPORT
  5
1F4
100
AcDbSymbolTableRecord
100
AcDbViewportTableRecord
  2
*ACTIVE
 70
0
 10
0.0
 20
0.0
 11
1.0
 21
1.0
 12
5.8464566929
 22
4.1338582677
 13
0.0
 23
0.0
 14
1.0
 24
1.0
 15
0.0
 25
0.0
 16
0.0
 26
0.0
 36
1.0
 17
0.0
 27
0.0
 37
0.0
 40
8.2677165354
 41
1.4142857143
 42
50.0
 43
0.0
 44
0.0
 50
0.0
 51
0.0
 71
0
 72
100
 73
1
 74
1
 75
0
 76
0
 77
0
 78
0
  0
ENDTAB
  0
TABLE
  2
LTYPE
  5
5
100
AcDbSymbolTable
 70
6
  0
LTYPE
  5
14
100
AcDbSymbolTableRecord
100
AcDbLinetypeTableRecord
  2
BYBLOCK
 70
0
  3

 72
65
 73
0
 40
0.0
  0
LTYPE
  5
15
100
AcDbSymbolTableRecord
100
AcDbLinetypeTableRecord
  2
BYLAYER
 70
0
  3

 72
65
 73
0
 40
0.0
  0
LTYPE
  5
16
100
AcDbSymbolTableRecord
100
AcDbLinetypeTableRecord
  2
CONTINUOUS
 70
64
  3
Solid line
 72
65
 73
0
 40
0.0
  0
LTYPE
  5
1F5
100
AcDbSymbolTableRecord
100
AcDbLinetypeTableRecord
  2
CENTER
 70
64
  3
____ _ ____ _ ____ _ ____ _ ____ _ ____ _ ____
 72
65
 73
4
 40
0.6
 49
0.375
 74
0
 49
-0.075
 74
0
 49
0.075
 74
0
 49
-0.075
 74
0
  0
LTYPE
  5
1F6
100
AcDbSymbolTableRecord
100
AcDbLinetypeTableRecord
  2
HIDDEN
 70
64
  3
- - - - - - - - - - - - - - - - - - - -
 72
65
 73
2
 40
0.2
 49
0.1
 74
0
 49
-0.1
 74
0
  0
LTYPE
  5
1F7
100
AcDbSymbolTableRecord
100
AcDbLinetypeTableRecord
  2
PHANTOM
 70
64
  3
_____ _ _ _____ _ _ _____ _ _ _____
 72
65
 73
6
 40
0.8
 49
0.45
 74
0
 49
-0.05
 74
0
 49
0.1
 74
0
 49
-0.05
 74
0
 49
0.1
 74
0
 49
-0.05
 74
0
  0
LTYPE
  5
1F8
100
AcDbSymbolTableRecord
100
AcDbLinetypeTableRecord
  2
DOT
 70
64
  3
. . . . . . . . . . . . . . . . . . . .
 72
65
 73
2
 40
0.2
 49
0.1
 74
0
 49
-0.1
 74
0
  0
LTYPE
  5
1F9
100
AcDbSymbolTableRecord
100
AcDbLinetypeTableRecord
  2
DASHED
 70
64
  3
- - - - - - - - - - - - - - - - - - - -
 72
65
 73
2
 40
0.2
 49
0.1
 74
0
 49
-0.1
 74
0
  0
ENDTAB
  0
TABLE
  2
LAYER
  5
2
100
AcDbSymbolTable
 70
36
  0
LAYER
  5
10
100
AcDbSymbolTableRecord
100
AcDbLayerTableRecord
  2
0
 70
0
 62
7
  6
CONTINUOUS
370
-3
390
F
  0
LAYER
  5
1FA
100
AcDbSymbolTableRecord
100
AcDbLayerTableRecord
  2
DEFAULT_1
 70
0
 62
7
  6
CENTER
370
-3
390
F
  0
LAYER
  5
1FB
100
AcDbSymbolTableRecord
100
AcDbLayerTableRecord
  2
DEFAULT_2
 70
0
 62
8
  6
HIDDEN
370
-3
390
F
  0
LAYER
  5
1FC
100
AcDbSymbolTableRecord
100
AcDbLayerTableRecord
  2
DEFAULT_3
 70
0
 62
7
  6
PHANTOM
370
-3
390
F
  0
LAYER
  5
1FD
100
AcDbSymbolTableRecord
100
AcDbLayerTableRecord
  2
DEFAULT_COORDINATE_SYSTEM
 70
0
 62
7
  6
CONTINUOUS
370
-3
390
F
  0
LAYER
  5
1FE
100
AcDbSymbolTableRecord
100
AcDbLayerTableRecord
  2
DEFAULT_DATUM_AXES
 70
0
 62
7
  6
CONTINUOUS
370
-3
390
F
  0
LAYER
  5
1FF
100
AcDbSymbolTableRecord
100
AcDbLayerTableRecord
  2
DEFAULT_DATUM_CURVES
 70
0
 62
7
  6
CONTINUOUS
370
-3
390
F
  0
LAYER
  5
200
100
AcDbSymbolTableRecord
100
AcDbLayerTableRecord
  2
DEFAULT_DATUM_PLANES
 70
0
 62
7
  6
CONTINUOUS
370
-3
390
F
  0
ENDTAB
  0
TABLE
  2
STYLE
  5
3
100
AcDbSymbolTable
 70
1
  0
STYLE
  5
11
100
AcDbSymbolTableRecord
100
AcDbTextStyleTableRecord
  2
STANDARD
 70
0
 40
0.0
 41
0.8
 50
0.0
 71
0
 42
0.2
  3
txt
  4

  0
STYLE
  5
201
100
AcDbSymbolTableRecord
100
AcDbTextStyleTableRecord
  2
TEXTSTYLE_1
 70
0
 40
0.0
 41
0.8
 50
0.0
 71
0
 42
0.2
  3
gdt
  4

  0
ENDTAB
  0
TABLE
  2
VIEW
  5
6
100
AcDbSymbolTable
 70
0
  0
ENDTAB
  0
TABLE
  2
UCS
  5
7
100
AcDbSymbolTable
 70
0
  0
ENDTAB
  0
TABLE
  2
APPID
  5
9
100
AcDbSymbolTable
 70
1
  0
APPID
  5
202
100
AcDbSymbolTableRecord
100
AcDbRegAppTableRecord
  2
ACAD
 70
0
  0
ENDTAB
  0
TABLE
  2
BLOCK_RECORD
  5
1
100
AcDbSymbolTable
 70
0
  0
BLOCK_RECORD
  5
203
100
AcDbSymbolTableRecord
100
AcDbBlockTableRecord
  2
*Model_Space
  0
BLOCK_RECORD
  5
204
100
AcDbSymbolTableRecord
100
AcDbBlockTableRecord
  2
*Paper_Space
  0
ENDTAB
  0
TABLE
  2
DIMSTYLE
  5
A
100
AcDbSymbolTable
 70
1
100
AcDbDimStyleTable
 71
0
  0
DIMSTYLE
105
205
100
AcDbSymbolTableRecord
100
AcDbDimStyleTableRecord
  2
STANDARD
 70
0
  3

  4

 40
1.0
 41
0.1875
 42
0.0625
 43
0.38
 44
0.18
 45
0.0
 46
0.0
 47
0.001
 48
0.001
140
0.15625
141
0.09
142
0.0
143
25.4
144
1.0
145
0.0
146
1.0
147
0.09
 71
0.0
 72
0.0
 73
1
 74
1
 75
0
 76
0
 77
0
 78
4
170
0
171
2
172
0
173
0
174
0
175
0
176
0
177
0
178
0
270
2
271
3
272
3
273
2
274
2
275
0
280
0
281
0
282
0
283
1
284
4
285
0
286
0
287
3
288
0
340
11
  0
ENDTAB
  0
ENDSEC
  0
SECTION
  2
BLOCKS
  0
BLOCK
  5
20
100
AcDbEntity
  8
0
100
AcDbBlockBegin
  2
*Model_Space
 70
0
 10
0.0
 20
0.0
 30
0.0
  3
*Model_Space
  1

  0
ENDBLK
  5
21
100
AcDbEntity
  8
0
100
AcDbBlockEnd
  0
BLOCK
  5
1C
100
AcDbEntity
  8
0
100
AcDbBlockBegin
  2
*Paper_Space
 70
0
 10
0.0
 20
0.0
 30
0.0
  3
*Paper_Space
  1

  0
ENDBLK
  5
1D
100
AcDbEntity
  8
0
100
AcDbBlockEnd
  0
ENDSEC
  0
SECTION
  2
ENTITIES
  0
LINE
  5
206
100
AcDbEntity
  8
0
100
AcDbLine
 62
6
  6
CONTINUOUS
 10
1.3361539658
 20
6.3979613333
 11
1.3361539658
 21
6.2479613333
  0
LINE
  5
207
100
AcDbEntity
  8
0
100
AcDbLine
 62
6
  6
CONTINUOUS
 10
1.3361725503
 20
5.9979613333
 11
1.3361725503
 21
5.9229613333
  0
LINE
  5
208
100
AcDbEntity
  8
0
100
AcDbLine
 62
6
  6
CONTINUOUS
 10
1.3366961225
 20
5.9979613333
 11
1.3366961225
 21
5.9229613333
  0
LINE
  5
209
100
AcDbEntity
  8
0
100
AcDbLine
 62
6
  6
CONTINUOUS
 10
1.3371718879
 20
5.9979613333
 11
1.3371718879
 21
5.9229613333
  0
LINE
  5
20A
100
AcDbEntity
  8
0
100
AcDbLine
 62
6
  6
CONTINUOUS
 10
1.3387419666
 20
5.9979613333
 11
1.3387419666
 21
5.9229613333
  0
LINE
  5
20B
100
AcDbEntity
  8
0
100
AcDbLine
 62
6
  6
CONTINUOUS
 10
1.3396929178
 20
5.9979613333
 11
1.3396929178
 21
5.9229613333
  0
LINE
  5
20C
100
AcDbEntity
  8
0
100
AcDbLine
 62
6
  6
CONTINUOUS
 10
1.3423075901
 20
5.9979613333
 11
1.3423075901
 21
5.9229613333
  0
LINE
  5
20D
100
AcDbEntity
  8
0
100
AcDbLine
 62
6
  6
CONTINUOUS
 10
1.3437325685
 20
5.9979613333
 11
1.3437325685
 21
5.9229613333
  0
LINE
  5
20E
100
AcDbEntity
  8
0
100
AcDbLine
 62
6
  6
CONTINUOUS
 10
1.3473886488
 20
5.9979613333
 11
1.3473886488
 21
5.9229613333
  0
LINE
  5
20F
100
AcDbEntity
  8
0
100
AcDbLine
 62
6
  6
CONTINUOUS
 10
1.3492859182
 20
5.9979613333
 11
1.3492859182
 21
5.9229613333
  0
LINE
  5
210
100
AcDbEntity
  8
0
100
AcDbLine
 62
6
  6
CONTINUOUS
 10
1.3539789522
 20
5.9979613333
 11
1.3539789522
 21
5.9229613333
  0
LINE
  5
211
100
AcDbEntity
  8
0
100
AcDbLine
 62
6
  6
CONTINUOUS
 10
1.3563462012
 20
5.9979613333
 11
1.3563462012
 21
5.9229613333
  0
LINE
  5
212
100
AcDbEntity
  8
0
100
AcDbLine
 62
6
  6
CONTINUOUS
 10
1.362070471
 20
5.9979613333
 11
1.362070471
 21
5.9229613333
  0
LINE
  5
213
100
AcDbEntity
  8
0
100
AcDbLine
 62
6
  6
CONTINUOUS
 10
1.3649048155
 20
5.9979613333
 11
1.3649048155
 21
5.9229613333
  0
LINE
  5
214
100
AcDbEntity
  8
0
100
AcDbLine
 62
6
  6
CONTINUOUS
 10
1.3716533471
 20
5.9979613333
 11
1.3716533471
 21
5.9229613333
  0
LINE
  5
215
100
AcDbEntity
  8
0
100
AcDbLine
 62
6
  6
CONTINUOUS
 10
1.3749513337
 20
5.9979613333
 11
1.3749513337
 21
5.9229613333
  0
LINE
  5
216
100
AcDbEntity
  8
0
100
AcDbLine
 62
6
  6
CONTINUOUS
 10
1.3827159051
 20
5.9979613333
 11
1.3827159051
 21
5.9229613333
  0
LINE
  5
217
100
AcDbEntity
  8
0
100
AcDbLine
 62
6
  6
CONTINUOUS
 10
1.3861539658
 20
6.1979613333
 11
1.3861539658
 21
5.9979613333
  0
LINE
  5
218
100
AcDbEntity
  8
0
100
AcDbLine
 62
6
  6
CONTINUOUS
 10
1.3864735158
 20
5.9979613333
 11
1.3864735158
 21
5.9229613333
  0
LINE
  5
219
100
AcDbEntity
  8
0
100
AcDbLine
 62
6
  6
CONTINUOUS
 10
1.3952446669
 20
5.9979613333
 11
1.3952446669
 21
5.9229613333
  0
LINE
  5
21A
100
AcDbEntity
  8
0
100
AcDbLine
 62
6
  6
CONTINUOUS
 10
1.3994573237
 20
5.9979613333
 11
1.3994573237
 21
5.9229613333
  0
LINE
  5
21B
100
AcDbEntity
  8
0
100
AcDbLine
 62
6
  6
CONTINUOUS
 10
1.4092243683
 20
5.9979613333
 11
1.4092243683
 21
5.9229613333
  0
LINE
  5
21C
100
AcDbEntity
  8
0
100
AcDbLine
 62
6
  6
CONTINUOUS
 10
1.4138869387
 20
5.9979613333
 11
1.4138869387
 21
5.9229613333
  0
LINE
  5
21D
100
AcDbEntity
  8
0
100
AcDbLine
 62
6
  6
CONTINUOUS
 10
1.4246379772
 20
5.9979613333
 11
1.4246379772
 21
5.9229613333
  0
LINE
  5
21E
100
AcDbEntity
  8
0
100
AcDbLine
 62
6
  6
CONTINUOUS
 10
1.4297447805
 20
5.9979613333
 11
1.4297447805
 21
5.9229613333
  0
LINE
  5
21F
100
AcDbEntity
  8
0
100
AcDbLine
 62
6
  6
CONTINUOUS
 10
1.4414667143
 20
5.9979613333
 11
1.4414667143
 21
5.9229613333
  0
LINE
  5
220
100
AcDbEntity
  8
0
100
AcDbLine
 62
6
  6
CONTINUOUS
 10
1.4470115287
 20
5.9979613333
 11
1.4470115287
 21
5.9229613333
  0
LINE
  5
221
100
AcDbEntity
  8
0
100
AcDbLine
 62
6
  6
CONTINUOUS
 10
1.4596900766
 20
5.9979613333
 11
1.4596900766
 21
5.9229613333
  0
LINE
  5
222
100
AcDbEntity
  8
0
100
AcDbLine
 62
7
  6
CONTINUOUS
 10
1.4656661465
 20
5.9979613333
 11
1.4656661465
 21
5.9229613333
  0
LINE
  5
223
100
AcDbEntity
  8
0
100
AcDbLine
 62
6
  6
CONTINUOUS
 10
1.4669454194
 20
5.9229613333
 11
1.4669454194
 21
5.9979613333
  0
LINE
  5
224
100
AcDbEntity
  8
0
100
AcDbLine
 62
6
  6
CONTINUOUS
 10
1.4792858615
 20
5.9979613333
 11
1.4792858615
 21
5.9229613333
  0
LINE
  5
225
100
AcDbEntity
  8
0
100
AcDbLine
 62
7
  6
CONTINUOUS
 10
1.4856859062
 20
5.9979613333
 11
1.4856859062
 21
5.9229613333
  0
LINE
  5
226
100
AcDbEntity
  8
0
100
AcDbLine
 62
6
  6
CONTINUOUS
 10
1.5002301948
 20
5.9979613333
 11
1.5002301948
 21
5.9229613333
  0
LINE
  5
227
100
AcDbEntity
  8
0
100
AcDbLine
 62
6
  6
CONTINUOUS
 10
1.5070464166
 20
5.9979613333
 11
1.5070464166
 21
5.9229613333
  0
LINE
  5
228
100
AcDbEntity
  8
0
100
AcDbLine
 62
6
  6
CONTINUOUS
 10
1.5224975589
 20
5.9979613333
 11
1.5224975589
 21
5.9229613333
  0
LINE
  5
229
100
AcDbEntity
  8
0
100
AcDbLine
 62
6
  6
CONTINUOUS
 10
1.5297216534
 20
5.9979613333
 11
1.5297216534
 21
5.9229613333
  0
LINE
  5
22A
100
AcDbEntity
  8
0
100
AcDbLine
 62
6
  6
CONTINUOUS
 10
1.5460608245
 20
5.9979613333
 11
1.5460608245
 21
5.9229613333
  0
LINE
  5
22B
100
AcDbEntity
  8
0
100
AcDbLine
 62
6
  6
CONTINUOUS
 10
1.5536839902
 20
5.9979613333
 11
1.5536839902
 21
5.9229613333
  0
LINE
  5
22C
100
AcDbEntity
  8
0
100
AcDbLine
 62
6
  6
CONTINUOUS
 10
1.5708912833
 20
5.9979613333
 11
1.5708912833
 21
5.9229613333
  0
LINE
  5
22D
100
AcDbEntity
  8
0
100
AcDbLine
 62
6
  6
CONTINUOUS
 10
1.5789042327
 20
5.9979613333
 11
1.5789042327
 21
5.9229613333
  0
LINE
  5
22E
100
AcDbEntity
  8
0
100
AcDbLine
 62
6
  6
CONTINUOUS
 10
1.5969586834
 20
5.9979613333
 11
1.5969586834
 21
5.9229613333
  0
LINE
  5
22F
100
AcDbEntity
  8
0
100
AcDbLine
 62
6
  6
CONTINUOUS
 10
1.6053516538
 20
5.9979613333
 11
1.6053516538
 21
5.9229613333
  0
LINE
  5
230
100
AcDbEntity
  8
0
100
AcDbLine
 62
6
  6
CONTINUOUS
 10
1.6242312655
 20
5.9979613333
 11
1.6242312655
 21
5.9229613333
  0
LINE
  5
231
100
AcDbEntity
  8
0
100
AcDbLine
 62
6
  6
CONTINUOUS
 10
1.6329940314
 20
5.9979613333
 11
1.6329940314
 21
5.9229613333
  0
LINE
  5
232
100
AcDbEntity
  8
0
100
AcDbLine
 62
6
  6
CONTINUOUS
 10
1.6526758023
 20
5.9979613333
 11
1.6526758023
 21
5.9229613333
  0
LINE
  5
233
100
AcDbEntity
  8
0
100
AcDbLine
 62
6
  6
CONTINUOUS
 10
1.6617976876
 20
5.9979613333
 11
1.6617976876
 21
5.9229613333
  0
LINE
  5
234
100
AcDbEntity
  8
0
100
AcDbLine
 62
6
  6
CONTINUOUS
 10
1.6822576384
 20
5.9979613333
 11
1.6822576384
 21
5.9229613333
  0
LINE
  5
235
100
AcDbEntity
  8
0
100
AcDbLine
 62
6
  6
CONTINUOUS
 10
1.6917275295
 20
5.9979613333
 11
1.6917275295
 21
5.9229613333
  0
LINE
  5
236
100
AcDbEntity
  8
0
100
AcDbLine
 62
6
  6
CONTINUOUS
 10
1.7129407329
 20
5.9979613333
 11
1.7129407329
 21
5.9229613333
  0
LINE
  5
237
100
AcDbEntity
  8
0
100
AcDbLine
 62
6
  6
CONTINUOUS
 10
1.7227470923
 20
5.9979613333
 11
1.7227470923
 21
5.9229613333
  0
LINE
  5
238
100
AcDbEntity
  8
0
100
AcDbLine
 62
7
  6
CONTINUOUS
 10
1.7439473732
 20
5.9229613333
 11
1.7439473732
 21
5.9979613333
  0
LINE
  5
239
100
AcDbEntity
  8
0
100
AcDbLine
 62
7
  6
CONTINUOUS
 10
1.7446877033
 20
5.9979613333
 11
1.7446877033
 21
5.9229613333
  0
LINE
  5
23A
100
AcDbEntity
  8
0
100
AcDbLine
 62
6
  6
CONTINUOUS
 10
1.7548185833
 20
5.9979613333
 11
1.7548185833
 21
5.9229613333
  0
LINE
  5
23B
100
AcDbEntity
  8
0
100
AcDbLine
 62
6
  6
CONTINUOUS
 10
1.7759801124
 20
5.9229613333
 11
1.7759801124
 21
5.9979613333
  0
LINE
  5
23C
100
AcDbEntity
  8
0
100
AcDbLine
 62
6
  6
CONTINUOUS
 10
1.7774598707
 20
5.9979613333
 11
1.7774598707
 21
5.9229613333
  0
LINE
  5
23D
100
AcDbEntity
  8
0
100
AcDbLine
 62
6
  6
CONTINUOUS
 10
1.7879029284
 20
5.9979613333
 11
1.7879029284
 21
5.9229613333
  0
LINE
  5
23E
100
AcDbEntity
  8
0
100
AcDbLine
 62
7
  6
CONTINUOUS
 10
1.8089999237
 20
5.9229613333
 11
1.8089999237
 21
5.9979613333
  0
LINE
  5
23F
100
AcDbEntity
  8
0
100
AcDbLine
 62
7
  6
CONTINUOUS
 10
1.8112173073
 20
5.9979613333
 11
1.8112173073
 21
5.9229613333
  0
LINE
  5
240
100
AcDbEntity
  8
0
100
AcDbLine
 62
6
  6
CONTINUOUS
 10
1.8219598195
 20
5.9979613333
 11
1.8219598195
 21
5.9229613333
  0
LINE
  5
241
100
AcDbEntity
  8
0
100
AcDbLine
 62
6
  6
CONTINUOUS
 10
1.8429665775
 20
5.9229613333
 11
1.8429665775
 21
5.9979613333
  0
LINE
  5
242
100
AcDbEntity
  8
0
100
AcDbLine
 62
6
  6
CONTINUOUS
 10
1.8459188848
 20
5.9979613333
 11
1.8459188848
 21
5.9229613333
  0
LINE
  5
243
100
AcDbEntity
  8
0
100
AcDbLine
 62
6
  6
CONTINUOUS
 10
1.8461539658
 20
5.5479613333
 11
1.8461539658
 21
5.6229613333
  0
LINE
  5
244
100
AcDbEntity
  8
0
100
AcDbLine
 62
6
  6
CONTINUOUS
 10
1.8569477634
 20
5.9979613333
 11
1.8569477634
 21
5.9229613333
  0
LINE
  5
245
100
AcDbEntity
  8
0
100
AcDbLine
 62
6
  6
CONTINUOUS
 10
1.8778386906
 20
5.9229613333
 11
1.8778386906
 21
5.9979613333
  0
LINE
  5
246
100
AcDbEntity
  8
0
100
AcDbLine
 62
6
  6
CONTINUOUS
 10
1.8815223248
 20
5.9979613333
 11
1.8815223248
 21
5.9229613333
  0
LINE
  5
247
100
AcDbEntity
  8
0
100
AcDbLine
 62
6
  6
CONTINUOUS
 10
1.8928241328
 20
5.9979613333
 11
1.8928241328
 21
5.9229613333
  0
LINE
  5
248
100
AcDbEntity
  8
0
100
AcDbLine
 62
6
  6
CONTINUOUS
 10
1.8961539658
 20
5.7229613333
 11
1.8961539658
 21
5.6229613333
  0
LINE
  5
249
100
AcDbEntity
  8
0
100
AcDbLine
 62
6
  6
CONTINUOUS
 10
1.9135737768
 20
5.9229613333
 11
1.9135737768
 21
5.9979613333
  0
LINE
  5
24A
100
AcDbEntity
  8
0
100
AcDbLine
 62
6
  6
CONTINUOUS
 10
1.9179842498
 20
5.9979613333
 11
1.9179842498
 21
5.9229613333
  0
LINE
  5
24B
100
AcDbEntity
  8
0
100
AcDbLine
 62
6
  6
CONTINUOUS
 10
1.9295452177
 20
5.9979613333
 11
1.9295452177
 21
5.9229613333
  0
LINE
  5
24C
100
AcDbEntity
  8
0
100
AcDbLine
 62
7
  6
CONTINUOUS
 10
1.9501282984
 20
5.9229613333
 11
1.9501282984
 21
5.9979613333
  0
LINE
  5
24D
100
AcDbEntity
  8
0
100
AcDbLine
 62
7
  6
CONTINUOUS
 10
1.9552602368
 20
5.9979613333
 11
1.9552602368
 21
5.9229613333
  0
LINE
  5
24E
100
AcDbEntity
  8
0
100
AcDbLine
 62
6
  6
CONTINUOUS
 10
1.9670662793
 20
5.9979613333
 11
1.9670662793
 21
5.9229613333
  0
LINE
  5
24F
100
AcDbEntity
  8
0
100
AcDbLine
 62
6
  6
CONTINUOUS
 10
1.9874577192
 20
5.9229613333
 11
1.9874577192
 21
5.9979613333
  0
LINE
  5
250
100
AcDbEntity
  8
0
100
AcDbLine
 62
6
  6
CONTINUOUS
 10
1.9933048705
 20
5.9979613333
 11
1.9933048705
 21
5.9229613333
  0
LINE
  5
251
100
AcDbEntity
  8
0
100
AcDbLine
 62
6
  6
CONTINUOUS
 10
2.0053416039
 20
5.9979613333
 11
2.0053416039
 21
5.9229613333
  0
LINE
  5
252
100
AcDbEntity
  8
0
100
AcDbLine
 62
6
  6
CONTINUOUS
 10
2.0191539658
 20
5.4214613333
 11
2.0191539658
 21
5.3949613333
  0
LINE
  5
253
100
AcDbEntity
  8
0
100
AcDbLine
 62
6
  6
CONTINUOUS
 10
2.0255165592
 20
5.9229613333
 11
2.0255165592
 21
5.9979613333
  0
LINE
  5
254
100
AcDbEntity
  8
0
100
AcDbLine
 62
6
  6
CONTINUOUS
 10
2.0320717996
 20
5.9979613333
 11
2.0320717996
 21
5.9229613333
  0
LINE
  5
255
100
AcDbEntity
  8
0
100
AcDbLine
 62
6
  6
CONTINUOUS
 10
2.0443245588
 20
5.9979613333
 11
2.0443245588
 21
5.9229613333
  0
LINE
  5
256
100
AcDbEntity
  8
0
100
AcDbLine
 62
6
  6
CONTINUOUS
 10
2.0642584496
 20
5.9229613333
 11
2.0642584496
 21
5.9979613333
  0
LINE
  5
257
100
AcDbEntity
  8
0
100
AcDbLine
 62
6
  6
CONTINUOUS
 10
2.0715137924
 20
5.9979613333
 11
2.0715137924
 21
5.9229613333
  0
LINE
  5
258
100
AcDbEntity
  8
0
100
AcDbLine
 62
6
  6
CONTINUOUS
 10
2.0839676494
 20
5.9979613333
 11
2.0839676494
 21
5.9229613333
  0
LINE
  5
259
100
AcDbEntity
  8
0
100
AcDbLine
 62
6
  6
CONTINUOUS
 10
2.0861539658
 20
3.5079613333
 11
2.0861539658
 21
2.7729613333
  0
LINE
  5
25A
100
AcDbEntity
  8
0
100
AcDbLine
 62
6
  6
CONTINUOUS
 10
2.1036361892
 20
5.9229613333
 11
2.1036361892
 21
5.9979613333
  0
LINE
  5
25B
100
AcDbEntity
  8
0
100
AcDbLine
 62
6
  6
CONTINUOUS
 10
2.1115827951
 20
5.9979613333
 11
2.1115827951
 21
5.9229613333
  0
LINE
  5
25C
100
AcDbEntity
  8
0
100
AcDbLine
 62
6
  6
CONTINUOUS
 10
2.1242225767
 20
5.9979613333
 11
2.1242225767
 21
5.9229613333
  0
LINE
  5
25D
100
AcDbEntity
  8
0
100
AcDbLine
 62
6
  6
CONTINUOUS
 10
2.1436018024
 20
5.9229613333
 11
2.1436018024
 21
5.9979613333
  0
LINE
  5
25E
100
AcDbEntity
  8
0
100
AcDbLine
 62
6
  6
CONTINUOUS
 10
2.1461539658
 20
5.2679613333
 11
2.1461539658
 21
5.2419613333
  0
LINE
  5
25F
100
AcDbEntity
  8
0
100
AcDbLine
 62
6
  6
CONTINUOUS
 10
2.1522299895
 20
5.9979613333
 11
2.1522299895
 21
5.9229613333
  0
LINE
  5
260
100
AcDbEntity
  8
0
100
AcDbLine
 62
6
  6
CONTINUOUS
 10
2.1650402963
 20
5.9979613333
 11
2.1650402963
 21
5.9229613333
  0
LINE
  5
261
100
AcDbEntity
  8
0
100
AcDbLine
 62
6
  6
CONTINUOUS
 10
2.1841065972
 20
5.9229613333
 11
2.1841065972
 21
5.9979613333
  0
LINE
  5
262
100
AcDbEntity
  8
0
100
AcDbLine
 62
6
  6
CONTINUOUS
 10
2.1934058535
 20
5.9979613333
 11
2.1934058535
 21
5.9229613333
  0
LINE
  5
263
100
AcDbEntity
  8
0
100
AcDbLine
 62
6
  6
CONTINUOUS
 10
2.206371078
 20
5.9979613333
 11
2.206371078
 21
5.9229613333
  0
LINE
  5
264
100
AcDbEntity
  8
0
100
AcDbLine
 62
6
  6
CONTINUOUS
 10
2.2236539658
 20
2.6979613333
 11
2.2236539658
 21
2.6479613333
  0
LINE
  5
265
100
AcDbEntity
  8
0
100
AcDbLine
 62
6
  6
CONTINUOUS
 10
2.2251012249
 20
5.9229613333
 11
2.2251012249
 21
5.9979613333
  0
LINE
  5
266
100
AcDbEntity
  8
0
100
AcDbLine
 62
6
  6
CONTINUOUS
 10
2.2350602206
 20
5.9979613333
 11
2.2350602206
 21
5.9229613333
  0
LINE
  5
267
100
AcDbEntity
  8
0
100
AcDbLine
 62
6
  6
CONTINUOUS
 10
2.2361539658
 20
5.2419613333
 11
2.2361539658
 21
3.5079613333
  0
LINE
  5
268
100
AcDbEntity
  8
0
100
AcDbLine
 62
6
  6
CONTINUOUS
 10
2.2481645666
 20
5.9979613333
 11
2.2481645666
 21
5.9229613333
  0
LINE
  5
269
100
AcDbEntity
  8
0
100
AcDbLine
 62
6
  6
CONTINUOUS
 10
2.2665357396
 20
5.9229613333
 11
2.2665357396
 21
5.9979613333
  0
LINE
  5
26A
100
AcDbEntity
  8
0
100
AcDbLine
 62
6
  6
CONTINUOUS
 10
2.2771423414
 20
5.9979613333
 11
2.2771423414
 21
5.9229613333
  0
LINE
  5
26B
100
AcDbEntity
  8
0
100
AcDbLine
 62
6
  6
CONTINUOUS
 10
2.2903698432
 20
5.9979613333
 11
2.2903698432
 21
5.9229613333
  0
LINE
  5
26C
100
AcDbEntity
  8
0
100
AcDbLine
 62
6
  6
CONTINUOUS
 10
2.30835966
 20
5.9229613333
 11
2.30835966
 21
5.9979613333
  0
LINE
  5
26D
100
AcDbEntity
  8
0
100
AcDbLine
 62
6
  6
CONTINUOUS
 10
2.3196009452
 20
5.9979613333
 11
2.3196009452
 21
5.9229613333
  0
LINE
  5
26E
100
AcDbEntity
  8
0
100
AcDbLine
 62
6
  6
CONTINUOUS
 10
2.3329354872
 20
5.9979613333
 11
2.3329354872
 21
5.9229613333
  0
LINE
  5
26F
100
AcDbEntity
  8
0
100
AcDbLine
 62
6
  6
CONTINUOUS
 10
2.3505220299
 20
5.9229613333
 11
2.3505220299
 21
5.9979613333
  0
LINE
  5
270
100
AcDbEntity
  8
0
100
AcDbLine
 62
6
  6
CONTINUOUS
 10
2.3623843028
 20
5.9979613333
 11
2.3623843028
 21
5.9229613333
  0
LINE
  5
271
100
AcDbEntity
  8
0
100
AcDbLine
 62
6
  6
CONTINUOUS
 10
2.375809639
 20
5.9979613333
 11
2.375809639
 21
5.9229613333
  0
LINE
  5
272
100
AcDbEntity
  8
0
100
AcDbLine
 62
6
  6
CONTINUOUS
 10
2.3929714811
 20
5.9229613333
 11
2.3929714811
 21
5.9979613333
  0
LINE
  5
273
100
AcDbEntity
  8
0
100
AcDbLine
 62
6
  6
CONTINUOUS
 10
2.4054402892
 20
5.9979613333
 11
2.4054402892
 21
5.9229613333
  0
LINE
  5
274
100
AcDbEntity
  8
0
100
AcDbLine
 62
6
  6
CONTINUOUS
 10
2.4189400629
 20
5.9979613333
 11
2.4189400629
 21
5.9229613333
  0
LINE
  5
275
100
AcDbEntity
  8
0
100
AcDbLine
 62
6
  6
CONTINUOUS
 10
2.4356562953
 20
5.9229613333
 11
2.4356562953
 21
5.9979613333
  0
LINE
  5
276
100
AcDbEntity
  8
0
100
AcDbLine
 62
6
  6
CONTINUOUS
 10
2.4487164474
 20
5.9979613333
 11
2.4487164474
 21
5.9229613333
  0
LINE
  5
277
100
AcDbEntity
  8
0
100
AcDbLine
 62
6
  6
CONTINUOUS
 10
2.4622742112
 20
5.9979613333
 11
2.4622742112
 21
5.9229613333
  0
LINE
  5
278
100
AcDbEntity
  8
0
100
AcDbLine
 62
6
  6
CONTINUOUS
 10
2.4785244678
 20
5.9229613333
 11
2.4785244678
 21
5.9979613333
  0
LINE
  5
279
100
AcDbEntity
  8
0
100
AcDbLine
 62
6
  6
CONTINUOUS
 10
2.4921600521
 20
5.9979613333
 11
2.4921600521
 21
5.9229613333
  0
LINE
  5
27A
100
AcDbEntity
  8
0
100
AcDbLine
 62
6
  6
CONTINUOUS
 10
2.5057592879
 20
5.9979613333
 11
2.5057592879
 21
5.9229613333
  0
LINE
  5
27B
100
AcDbEntity
  8
0
100
AcDbLine
 62
6
  6
CONTINUOUS
 10
2.5215237702
 20
5.9229613333
 11
2.5215237702
 21
5.9979613333
  0
LINE
  5
27C
100
AcDbEntity
  8
0
100
AcDbLine
 62
6
  6
CONTINUOUS
 10
2.5357181739
 20
5.9979613333
 11
2.5357181739
 21
5.9229613333
  0
LINE
  5
27D
100
AcDbEntity
  8
0
100
AcDbLine
 62
6
  6
CONTINUOUS
 10
2.5493423131
 20
5.9979613333
 11
2.5493423131
 21
5.9229613333
  0
LINE
  5
27E
100
AcDbEntity
  8
0
100
AcDbLine
 62
6
  6
CONTINUOUS
 10
2.5646018146
 20
5.9229613333
 11
2.5646018146
 21
5.9979613333
  0
LINE
  5
27F
100
AcDbEntity
  8
0
100
AcDbLine
 62
6
  6
CONTINUOUS
 10
2.5793377439
 20
5.9979613333
 11
2.5793377439
 21
5.9229613333
  0
LINE
  5
280
100
AcDbEntity
  8
0
100
AcDbLine
 62
6
  6
CONTINUOUS
 10
2.5929701876
 20
5.9979613333
 11
2.5929701876
 21
5.9229613333
  0
LINE
  5
281
100
AcDbEntity
  8
0
100
AcDbLine
 62
6
  6
CONTINUOUS
 10
2.607706117
 20
5.9229613333
 11
2.607706117
 21
5.9979613333
  0
LINE
  5
282
100
AcDbEntity
  8
0
100
AcDbLine
 62
6
  6
CONTINUOUS
 10
2.6229656185
 20
5.9979613333
 11
2.6229656185
 21
5.9229613333
  0
LINE
  5
283
100
AcDbEntity
  8
0
100
AcDbLine
 62
6
  6
CONTINUOUS
 10
2.6365897577
 20
5.9979613333
 11
2.6365897577
 21
5.9229613333
  0
LINE
  5
284
100
AcDbEntity
  8
0
100
AcDbLine
 62
6
  6
CONTINUOUS
 10
2.6507841613
 20
5.9229613333
 11
2.6507841613
 21
5.9979613333
  0
LINE
  5
285
100
AcDbEntity
  8
0
100
AcDbLine
 62
6
  6
CONTINUOUS
 10
2.6665486437
 20
5.9979613333
 11
2.6665486437
 21
5.9229613333
  0
LINE
  5
286
100
AcDbEntity
  8
0
100
AcDbLine
 62
6
  6
CONTINUOUS
 10
2.6801478795
 20
5.9979613333
 11
2.6801478795
 21
5.9229613333
  0
LINE
  5
287
100
AcDbEntity
  8
0
100
AcDbLine
 62
6
  6
CONTINUOUS
 10
2.6937834638
 20
5.9229613333
 11
2.6937834638
 21
5.9979613333
  0
LINE
  5
288
100
AcDbEntity
  8
0
100
AcDbLine
 62
6
  6
CONTINUOUS
 10
2.7100337204
 20
5.9979613333
 11
2.7100337204
 21
5.9229613333
  0
LINE
  5
289
100
AcDbEntity
  8
0
100
AcDbLine
 62
6
  6
CONTINUOUS
 10
2.7235914841
 20
5.9979613333
 11
2.7235914841
 21
5.9229613333
  0
LINE
  5
28A
100
AcDbEntity
  8
0
100
AcDbLine
 62
6
  6
CONTINUOUS
 10
2.7366516363
 20
5.9229613333
 11
2.7366516363
 21
5.9979613333
  0
LINE
  5
28B
100
AcDbEntity
  8
0
100
AcDbLine
 62
6
  6
CONTINUOUS
 10
2.7533678687
 20
5.9979613333
 11
2.7533678687
 21
5.9229613333
  0
LINE
  5
28C
100
AcDbEntity
  8
0
100
AcDbLine
 62
6
  6
CONTINUOUS
 10
2.7668676424
 20
5.9979613333
 11
2.7668676424
 21
5.9229613333
  0
LINE
  5
28D
100
AcDbEntity
  8
0
100
AcDbLine
 62
6
  6
CONTINUOUS
 10
2.7793364505
 20
5.9229613333
 11
2.7793364505
 21
5.9979613333
  0
LINE
  5
28E
100
AcDbEntity
  8
0
100
AcDbLine
 62
6
  6
CONTINUOUS
 10
2.7964982926
 20
5.9979613333
 11
2.7964982926
 21
5.9229613333
  0
LINE
  5
28F
100
AcDbEntity
  8
0
100
AcDbLine
 62
6
  6
CONTINUOUS
 10
2.8099236288
 20
5.9979613333
 11
2.8099236288
 21
5.9229613333
  0
LINE
  5
290
100
AcDbEntity
  8
0
100
AcDbLine
 62
6
  6
CONTINUOUS
 10
2.8217859017
 20
5.9229613333
 11
2.8217859017
 21
5.9979613333
  0
LINE
  5
291
100
AcDbEntity
  8
0
100
AcDbLine
 62
6
  6
CONTINUOUS
 10
2.8393724443
 20
5.9979613333
 11
2.8393724443
 21
5.9229613333
  0
LINE
  5
292
100
AcDbEntity
  8
0
100
AcDbLine
 62
6
  6
CONTINUOUS
 10
2.8527069864
 20
5.9979613333
 11
2.8527069864
 21
5.9229613333
  0
LINE
  5
293
100
AcDbEntity
  8
0
100
AcDbLine
 62
6
  6
CONTINUOUS
 10
2.8639482716
 20
5.9229613333
 11
2.8639482716
 21
5.9979613333
  0
LINE
  5
294
100
AcDbEntity
  8
0
100
AcDbLine
 62
6
  6
CONTINUOUS
 10
2.8819380884
 20
5.9979613333
 11
2.8819380884
 21
5.9229613333
  0
LINE
  5
295
100
AcDbEntity
  8
0
100
AcDbLine
 62
6
  6
CONTINUOUS
 10
2.8951655902
 20
5.9979613333
 11
2.8951655902
 21
5.9229613333
  0
LINE
  5
296
100
AcDbEntity
  8
0
100
AcDbLine
 62
6
  6
CONTINUOUS
 10
2.9057721919
 20
5.9229613333
 11
2.9057721919
 21
5.9979613333
  0
LINE
  5
297
100
AcDbEntity
  8
0
100
AcDbLine
 62
6
  6
CONTINUOUS
 10
2.924143365
 20
5.9979613333
 11
2.924143365
 21
5.9229613333
  0
LINE
  5
298
100
AcDbEntity
  8
0
100
AcDbLine
 62
6
  6
CONTINUOUS
 10
2.9361539658
 20
5.2419613333
 11
2.9361539658
 21
4.7209613333
  0
LINE
  5
299
100
AcDbEntity
  8
0
100
AcDbLine
 62
6
  6
CONTINUOUS
 10
2.9361539658
 20
4.5249613333
 11
2.9361539658
 21
3.5079613333
  0
LINE
  5
29A
100
AcDbEntity
  8
0
100
AcDbLine
 62
6
  6
CONTINUOUS
 10
2.937247711
 20
5.9979613333
 11
2.937247711
 21
5.9229613333
  0
LINE
  5
29B
100
AcDbEntity
  8
0
100
AcDbLine
 62
6
  6
CONTINUOUS
 10
2.9472067067
 20
5.9229613333
 11
2.9472067067
 21
5.9979613333
  0
LINE
  5
29C
100
AcDbEntity
  8
0
100
AcDbLine
 62
6
  6
CONTINUOUS
 10
2.9486539658
 20
2.6979613333
 11
2.9486539658
 21
2.6479613333
  0
LINE
  5
29D
100
AcDbEntity
  8
0
100
AcDbLine
 62
6
  6
CONTINUOUS
 10
2.9659368536
 20
5.9979613333
 11
2.9659368536
 21
5.9229613333
  0
LINE
  5
29E
100
AcDbEntity
  8
0
100
AcDbLine
 62
6
  6
CONTINUOUS
 10
2.978902078
 20
5.9979613333
 11
2.978902078
 21
5.9229613333
  0
LINE
  5
29F
100
AcDbEntity
  8
0
100
AcDbLine
 62
6
  6
CONTINUOUS
 10
2.9882013344
 20
5.9229613333
 11
2.9882013344
 21
5.9979613333
  0
LINE
  5
2A0
100
AcDbEntity
  8
0
100
AcDbLine
 62
9
  6
CONTINUOUS
 10
2.9981539658
 20
2.998171095
 11
2.9981539658
 21
3.2826744597
  0
LINE
  5
2A1
100
AcDbEntity
  8
0
100
AcDbLine
 62
6
  6
CONTINUOUS
 10
3.0072676353
 20
5.9979613333
 11
3.0072676353
 21
5.9229613333
  0
LINE
  5
2A2
100
AcDbEntity
  8
0
100
AcDbLine
 62
6
  6
CONTINUOUS
 10
3.020077942
 20
5.9979613333
 11
3.020077942
 21
5.9229613333
  0
LINE
  5
2A3
100
AcDbEntity
  8
0
100
AcDbLine
 62
6
  6
CONTINUOUS
 10
3.0261539658
 20
5.2679613333
 11
3.0261539658
 21
5.2419613333
  0
LINE
  5
2A4
100
AcDbEntity
  8
0
100
AcDbLine
 62
6
  6
CONTINUOUS
 10
3.0287061292
 20
5.9229613333
 11
3.0287061292
 21
5.9979613333
  0
LINE
  5
2A5
100
AcDbEntity
  8
0
100
AcDbLine
 62
6
  6
CONTINUOUS
 10
3.0480853548
 20
5.9979613333
 11
3.0480853548
 21
5.9229613333
  0
LINE
  5
2A6
100
AcDbEntity
  8
0
100
AcDbLine
 62
6
  6
CONTINUOUS
 10
3.0607251365
 20
5.9979613333
 11
3.0607251365
 21
5.9229613333
  0
LINE
  5
2A7
100
AcDbEntity
  8
0
100
AcDbLine
 62
6
  6
CONTINUOUS
 10
3.0686717424
 20
5.9229613333
 11
3.0686717424
 21
5.9979613333
  0
LINE
  5
2A8
100
AcDbEntity
  8
0
100
AcDbLine
 62
9
  6
CONTINUOUS
 10
3.0731539658
 20
2.8439185951
 11
3.0731539658
 21
3.437003843
  0
LINE
  5
2A9
100
AcDbEntity
  8
0
100
AcDbLine
 62
6
  6
CONTINUOUS
 10
3.0861539658
 20
3.5079613333
 11
3.0861539658
 21
3.4579613333
  0
LINE
  5
2AA
100
AcDbEntity
  8
0
100
AcDbLine
 62
6
  6
CONTINUOUS
 10
3.0861539658
 20
2.8229613333
 11
3.0861539658
 21
2.7729613333
  0
LINE
  5
2AB
100
AcDbEntity
  8
0
100
AcDbLine
 62
6
  6
CONTINUOUS
 10
3.0883402821
 20
5.9979613333
 11
3.0883402821
 21
5.9229613333
  0
LINE
  5
2AC
100
AcDbEntity
  8
0
100
AcDbLine
 62
6
  6
CONTINUOUS
 10
3.1007941391
 20
5.9979613333
 11
3.1007941391
 21
5.9229613333
  0
LINE
  5
2AD
100
AcDbEntity
  8
0
100
AcDbLine
 62
6
  6
CONTINUOUS
 10
3.108049482
 20
5.9229613333
 11
3.108049482
 21
5.9979613333
  0
LINE
  5
2AE
100
AcDbEntity
  8
0
100
AcDbLine
 62
6
  6
CONTINUOUS
 10
3.1279833728
 20
5.9979613333
 11
3.1279833728
 21
5.9229613333
  0
LINE
  5
2AF
100
AcDbEntity
  8
0
100
AcDbLine
 62
6
  6
CONTINUOUS
 10
3.140236132
 20
5.9979613333
 11
3.140236132
 21
5.9229613333
  0
LINE
  5
2B0
100
AcDbEntity
  8
0
100
AcDbLine
 62
9
  6
CONTINUOUS
 10
3.1457724035
 20
2.7967113333
 11
3.1457724035
 21
3.4842113333
  0
LINE
  5
2B1
100
AcDbEntity
  8
0
100
AcDbLine
 62
6
  6
CONTINUOUS
 10
3.1467913724
 20
5.9229613333
 11
3.1467913724
 21
5.9979613333
  0
LINE
  5
2B2
100
AcDbEntity
  8
0
100
AcDbLine
 62
6
  6
CONTINUOUS
 10
3.1531539658
 20
5.4214613333
 11
3.1531539658
 21
5.3949613333
  0
LINE
  5
2B3
100
AcDbEntity
  8
0
100
AcDbLine
 62
6
  6
CONTINUOUS
 10
3.1669663277
 20
5.9979613333
 11
3.1669663277
 21
5.9229613333
  0
LINE
  5
2B4
100
AcDbEntity
  8
0
100
AcDbLine
 62
6
  6
CONTINUOUS
 10
3.1790030611
 20
5.9979613333
 11
3.1790030611
 21
5.9229613333
  0
LINE
  5
2B5
100
AcDbEntity
  8
0
100
AcDbLine
 62
6
  6
CONTINUOUS
 10
3.1848502124
 20
5.9229613333
 11
3.1848502124
 21
5.9979613333
  0
LINE
  5
2B6
100
AcDbEntity
  8
0
100
AcDbLine
 62
6
  6
CONTINUOUS
 10
3.2052416523
 20
5.9979613333
 11
3.2052416523
 21
5.9229613333
  0
LINE
  5
2B7
100
AcDbEntity
  8
0
100
AcDbLine
 62
6
  6
CONTINUOUS
 10
3.8361539658
 20
6.2479613333
 11
3.7861539658
 21
6.1979613333
  0
LWPOLYLINE
  5
2B8
100
AcDbEntity
  8
0
100
AcDbPolyline
 62
6
  6
CONTINUOUS
 90
18
 70
0
 10
3.389295134
 20
2.7871787208
 10
3.3894278904
 20
2.7848197729
 10
3.3895622015
 20
2.7826566107
 10
3.3896991335
 20
2.7806749158
 10
3.389840528
 20
2.7788550304
 10
3.3899896325
 20
2.777169513
 10
3.3901524037
 20
2.7755786546
 10
3.3903404179
 20
2.7740218559
 10
3.3905773436
 20
2.7724041317
 10
3.3909095924
 20
2.7705966105
 10
3.3914386315
 20
2.7683953148
 10
3.3923938488
 20
2.7654996872
 10
3.3941994606
 20
2.7617226347
 10
3.3974595625
 20
2.7572446205
 10
3.4023721589
 20
2.7528974814
 10
3.4087498635
 20
2.7494953944
 10
3.416213407
 20
2.7477314389
 10
3.4185741266
 20
2.7476224372
  0
LINE
  5
2B9
100
AcDbEntity
  8
0
100
AcDbLine
 62
6
  6
CONTINUOUS
 10
3.2170476948
 20
5.9979613333
 11
3.2170476948
 21
5.9229613333
  0
LINE
  5
2BA
100
AcDbEntity
  8
0
100
AcDbLine
 62
9
  6
CONTINUOUS
 10
3.2183908413
 20
2.7654613333
 11
3.2183908413
 21
3.5154613333
  0
LINE
  5
2BB
100
AcDbEntity
  8
0
100
AcDbLine
 62
6
  6
CONTINUOUS
 10
3.2221796332
 20
5.9229613333
 11
3.2221796332
 21
5.9979613333
  0
LINE
  5
2BC
100
AcDbEntity
  8
0
100
AcDbLine
 62
6
  6
CONTINUOUS
 10
3.2427627138
 20
5.9979613333
 11
3.2427627138
 21
5.9229613333
  0
LINE
  5
2BD
100
AcDbEntity
  8
0
100
AcDbLine
 62
6
  6
CONTINUOUS
 10
3.2543236818
 20
5.9979613333
 11
3.2543236818
 21
5.9229613333
  0
LINE
  5
2BE
100
AcDbEntity
  8
0
100
AcDbLine
 62
7
  6
CONTINUOUS
 10
3.2587341548
 20
5.9229613333
 11
3.2587341548
 21
5.9979613333
  0
LINE
  5
2BF
100
AcDbEntity
  8
0
100
AcDbLine
 62
6
  6
CONTINUOUS
 10
3.2761539658
 20
5.7229613333
 11
3.2761539658
 21
5.6229613333
  0
LINE
  5
2C0
100
AcDbEntity
  8
0
100
AcDbLine
 62
7
  6
CONTINUOUS
 10
3.2794837988
 20
5.9979613333
 11
3.2794837988
 21
5.9229613333
  0
LINE
  5
2C1
100
AcDbEntity
  8
0
100
AcDbLine
 62
6
  6
CONTINUOUS
 10
3.2907856068
 20
5.9979613333
 11
3.2907856068
 21
5.9229613333
  0
LINE
  5
2C2
100
AcDbEntity
  8
0
100
AcDbLine
 62
6
  6
CONTINUOUS
 10
3.2944692409
 20
5.9229613333
 11
3.2944692409
 21
5.9979613333
  0
LINE
  5
2C3
100
AcDbEntity
  8
0
100
AcDbLine
 62
6
  6
CONTINUOUS
 10
3.3153601682
 20
5.9979613333
 11
3.3153601682
 21
5.9229613333
  0
LINE
  5
2C4
100
AcDbEntity
  8
0
100
AcDbLine
 62
6
  6
CONTINUOUS
 10
3.3261539658
 20
5.5479613333
 11
3.3261539658
 21
5.6229613333
  0
LINE
  5
2C5
100
AcDbEntity
  8
0
100
AcDbLine
 62
6
  6
CONTINUOUS
 10
3.3263890468
 20
5.9979613333
 11
3.3263890468
 21
5.9229613333
  0
LINE
  5
2C6
100
AcDbEntity
  8
0
100
AcDbLine
 62
6
  6
CONTINUOUS
 10
3.3293413541
 20
5.9229613333
 11
3.3293413541
 21
5.9979613333
  0
LINE
  5
2C7
100
AcDbEntity
  8
0
100
AcDbLine
 62
6
  6
CONTINUOUS
 10
3.3503481121
 20
5.9979613333
 11
3.3503481121
 21
5.9229613333
  0
LINE
  5
2C8
100
AcDbEntity
  8
0
100
AcDbLine
 62
7
  6
CONTINUOUS
 10
3.3610906243
 20
5.9979613333
 11
3.3610906243
 21
5.9229613333
  0
LINE
  5
2C9
100
AcDbEntity
  8
0
100
AcDbLine
 62
7
  6
CONTINUOUS
 10
3.3633080079
 20
5.9229613333
 11
3.3633080079
 21
5.9979613333
  0
LINE
  5
2CA
100
AcDbEntity
  8
0
100
AcDbLine
 62
6
  6
CONTINUOUS
 10
3.3844050032
 20
5.9979613333
 11
3.3844050032
 21
5.9229613333
  0
LINE
  5
2CB
100
AcDbEntity
  8
0
100
AcDbLine
 62
6
  6
CONTINUOUS
 10
3.3948480609
 20
5.9979613333
 11
3.3948480609
 21
5.9229613333
  0
LINE
  5
2CC
100
AcDbEntity
  8
0
100
AcDbLine
 62
6
  6
CONTINUOUS
 10
3.3963278192
 20
5.9229613333
 11
3.3963278192
 21
5.9979613333
  0
LINE
  5
2CD
100
AcDbEntity
  8
0
100
AcDbLine
 62
6
  6
CONTINUOUS
 10
3.4174893483
 20
5.9979613333
 11
3.4174893483
 21
5.9229613333
  0
LINE
  5
2CE
100
AcDbEntity
  8
0
100
AcDbLine
 62
7
  6
CONTINUOUS
 10
3.4276202283
 20
5.9979613333
 11
3.4276202283
 21
5.9229613333
  0
LINE
  5
2CF
100
AcDbEntity
  8
0
100
AcDbLine
 62
7
  6
CONTINUOUS
 10
3.4283605584
 20
5.9229613333
 11
3.4283605584
 21
5.9979613333
  0
LINE
  5
2D0
100
AcDbEntity
  8
0
100
AcDbLine
 62
6
  6
CONTINUOUS
 10
3.4495608393
 20
5.9979613333
 11
3.4495608393
 21
5.9229613333
  0
LINE
  5
2D1
100
AcDbEntity
  8
0
100
AcDbLine
 62
6
  6
CONTINUOUS
 10
3.4593671987
 20
5.9979613333
 11
3.4593671987
 21
5.9229613333
  0
LINE
  5
2D2
100
AcDbEntity
  8
0
100
AcDbLine
 62
6
  6
CONTINUOUS
 10
3.4805804021
 20
5.9979613333
 11
3.4805804021
 21
5.9229613333
  0
LINE
  5
2D3
100
AcDbEntity
  8
0
100
AcDbLine
 62
6
  6
CONTINUOUS
 10
3.4900502932
 20
5.9979613333
 11
3.4900502932
 21
5.9229613333
  0
LINE
  5
2D4
100
AcDbEntity
  8
0
100
AcDbLine
 62
6
  6
CONTINUOUS
 10
3.510510244
 20
5.9979613333
 11
3.510510244
 21
5.9229613333
  0
LINE
  5
2D5
100
AcDbEntity
  8
0
100
AcDbLine
 62
6
  6
CONTINUOUS
 10
3.5196321293
 20
5.9979613333
 11
3.5196321293
 21
5.9229613333
  0
LINE
  5
2D6
100
AcDbEntity
  8
0
100
AcDbLine
 62
6
  6
CONTINUOUS
 10
3.5393139002
 20
5.9979613333
 11
3.5393139002
 21
5.9229613333
  0
LINE
  5
2D7
100
AcDbEntity
  8
0
100
AcDbLine
 62
6
  6
CONTINUOUS
 10
3.5480766661
 20
5.9979613333
 11
3.5480766661
 21
5.9229613333
  0
LINE
  5
2D8
100
AcDbEntity
  8
0
100
AcDbLine
 62
6
  6
CONTINUOUS
 10
3.5669562778
 20
5.9979613333
 11
3.5669562778
 21
5.9229613333
  0
LINE
  5
2D9
100
AcDbEntity
  8
0
100
AcDbLine
 62
6
  6
CONTINUOUS
 10
3.5753492482
 20
5.9979613333
 11
3.5753492482
 21
5.9229613333
  0
LINE
  5
2DA
100
AcDbEntity
  8
0
100
AcDbLine
 62
6
  6
CONTINUOUS
 10
3.5934036989
 20
5.9979613333
 11
3.5934036989
 21
5.9229613333
  0
LINE
  5
2DB
100
AcDbEntity
  8
0
100
AcDbLine
 62
6
  6
CONTINUOUS
 10
3.6014166483
 20
5.9979613333
 11
3.6014166483
 21
5.9229613333
  0
LINE
  5
2DC
100
AcDbEntity
  8
0
100
AcDbLine
 62
6
  6
CONTINUOUS
 10
3.6186239414
 20
5.9979613333
 11
3.6186239414
 21
5.9229613333
  0
LINE
  5
2DD
100
AcDbEntity
  8
0
100
AcDbLine
 62
6
  6
CONTINUOUS
 10
3.6262471071
 20
5.9979613333
 11
3.6262471071
 21
5.9229613333
  0
LINE
  5
2DE
100
AcDbEntity
  8
0
100
AcDbLine
 62
6
  6
CONTINUOUS
 10
3.6425862782
 20
5.9979613333
 11
3.6425862782
 21
5.9229613333
  0
LINE
  5
2DF
100
AcDbEntity
  8
0
100
AcDbLine
 62
6
  6
CONTINUOUS
 10
3.6498103727
 20
5.9979613333
 11
3.6498103727
 21
5.9229613333
  0
LINE
  5
2E0
100
AcDbEntity
  8
0
100
AcDbLine
 62
6
  6
CONTINUOUS
 10
3.665261515
 20
5.9979613333
 11
3.665261515
 21
5.9229613333
  0
LINE
  5
2E1
100
AcDbEntity
  8
0
100
AcDbLine
 62
6
  6
CONTINUOUS
 10
3.6720777368
 20
5.9979613333
 11
3.6720777368
 21
5.9229613333
  0
LINE
  5
2E2
100
AcDbEntity
  8
0
100
AcDbLine
 62
7
  6
CONTINUOUS
 10
3.6866220254
 20
5.9979613333
 11
3.6866220254
 21
5.9229613333
  0
LINE
  5
2E3
100
AcDbEntity
  8
0
100
AcDbLine
 62
6
  6
CONTINUOUS
 10
3.6930220701
 20
5.9979613333
 11
3.6930220701
 21
5.9229613333
  0
LINE
  5
2E4
100
AcDbEntity
  8
0
100
AcDbLine
 62
6
  6
CONTINUOUS
 10
3.706641785
 20
5.9979613333
 11
3.706641785
 21
5.9229613333
  0
LINE
  5
2E5
100
AcDbEntity
  8
0
100
AcDbLine
 62
6
  6
CONTINUOUS
 10
3.712617855
 20
5.9979613333
 11
3.712617855
 21
5.9229613333
  0
LINE
  5
2E6
100
AcDbEntity
  8
0
100
AcDbLine
 62
6
  6
CONTINUOUS
 10
3.7252964029
 20
5.9979613333
 11
3.7252964029
 21
5.9229613333
  0
LINE
  5
2E7
100
AcDbEntity
  8
0
100
AcDbLine
 62
6
  6
CONTINUOUS
 10
3.7308412173
 20
5.9979613333
 11
3.7308412173
 21
5.9229613333
  0
LINE
  5
2E8
100
AcDbEntity
  8
0
100
AcDbLine
 62
6
  6
CONTINUOUS
 10
3.7425631511
 20
5.9979613333
 11
3.7425631511
 21
5.9229613333
  0
LINE
  5
2E9
100
AcDbEntity
  8
0
100
AcDbLine
 62
6
  6
CONTINUOUS
 10
3.7476699544
 20
5.9979613333
 11
3.7476699544
 21
5.9229613333
  0
LINE
  5
2EA
100
AcDbEntity
  8
0
100
AcDbLine
 62
6
  6
CONTINUOUS
 10
3.7584209929
 20
5.9979613333
 11
3.7584209929
 21
5.9229613333
  0
LINE
  5
2EB
100
AcDbEntity
  8
0
100
AcDbLine
 62
6
  6
CONTINUOUS
 10
3.7630835632
 20
5.9979613333
 11
3.7630835632
 21
5.9229613333
  0
LINE
  5
2EC
100
AcDbEntity
  8
0
100
AcDbLine
 62
6
  6
CONTINUOUS
 10
3.7728506079
 20
5.9979613333
 11
3.7728506079
 21
5.9229613333
  0
LINE
  5
2ED
100
AcDbEntity
  8
0
100
AcDbLine
 62
6
  6
CONTINUOUS
 10
3.7770632646
 20
5.9979613333
 11
3.7770632646
 21
5.9229613333
  0
LINE
  5
2EE
100
AcDbEntity
  8
0
100
AcDbLine
 62
6
  6
CONTINUOUS
 10
3.7858344158
 20
5.9979613333
 11
3.7858344158
 21
5.9229613333
  0
LINE
  5
2EF
100
AcDbEntity
  8
0
100
AcDbLine
 62
6
  6
CONTINUOUS
 10
3.7861539658
 20
6.1979613333
 11
3.7861539658
 21
5.9979613333
  0
LINE
  5
2F0
100
AcDbEntity
  8
0
100
AcDbLine
 62
6
  6
CONTINUOUS
 10
3.7895920265
 20
5.9979613333
 11
3.7895920265
 21
5.9229613333
  0
LINE
  5
2F1
100
AcDbEntity
  8
0
100
AcDbLine
 62
6
  6
CONTINUOUS
 10
3.7973565979
 20
5.9979613333
 11
3.7973565979
 21
5.9229613333
  0
LINE
  5
2F2
100
AcDbEntity
  8
0
100
AcDbLine
 62
6
  6
CONTINUOUS
 10
3.8006545845
 20
5.9979613333
 11
3.8006545845
 21
5.9229613333
  0
LINE
  5
2F3
100
AcDbEntity
  8
0
100
AcDbLine
 62
7
  6
CONTINUOUS
 10
3.8074031161
 20
5.9979613333
 11
3.8074031161
 21
5.9229613333
  0
LINE
  5
2F4
100
AcDbEntity
  8
0
100
AcDbLine
 62
6
  6
CONTINUOUS
 10
3.8102374605
 20
5.9979613333
 11
3.8102374605
 21
5.9229613333
  0
LINE
  5
2F5
100
AcDbEntity
  8
0
100
AcDbLine
 62
6
  6
CONTINUOUS
 10
3.8159617304
 20
5.9979613333
 11
3.8159617304
 21
5.9229613333
  0
LINE
  5
2F6
100
AcDbEntity
  8
0
100
AcDbLine
 62
6
  6
CONTINUOUS
 10
3.8183289794
 20
5.9979613333
 11
3.8183289794
 21
5.9229613333
  0
LINE
  5
2F7
100
AcDbEntity
  8
0
100
AcDbLine
 62
6
  6
CONTINUOUS
 10
3.8230220134
 20
5.9979613333
 11
3.8230220134
 21
5.9229613333
  0
LINE
  5
2F8
100
AcDbEntity
  8
0
100
AcDbLine
 62
6
  6
CONTINUOUS
 10
3.8249192828
 20
5.9979613333
 11
3.8249192828
 21
5.9229613333
  0
LINE
  5
2F9
100
AcDbEntity
  8
0
100
AcDbLine
 62
6
  6
CONTINUOUS
 10
3.8285753631
 20
5.9979613333
 11
3.8285753631
 21
5.9229613333
  0
LINE
  5
2FA
100
AcDbEntity
  8
0
100
AcDbLine
 62
6
  6
CONTINUOUS
 10
3.8300003415
 20
5.9979613333
 11
3.8300003415
 21
5.9229613333
  0
LINE
  5
2FB
100
AcDbEntity
  8
0
100
AcDbLine
 62
6
  6
CONTINUOUS
 10
3.8326150138
 20
5.9979613333
 11
3.8326150138
 21
5.9229613333
  0
LINE
  5
2FC
100
AcDbEntity
  8
0
100
AcDbLine
 62
6
  6
CONTINUOUS
 10
3.833565965
 20
5.9979613333
 11
3.833565965
 21
5.9229613333
  0
LINE
  5
2FD
100
AcDbEntity
  8
0
100
AcDbLine
 62
6
  6
CONTINUOUS
 10
3.8351360437
 20
5.9979613333
 11
3.8351360437
 21
5.9229613333
  0
LINE
  5
2FE
100
AcDbEntity
  8
0
100
AcDbLine
 62
6
  6
CONTINUOUS
 10
3.8356118091
 20
5.9979613333
 11
3.8356118091
 21
5.9229613333
  0
LINE
  5
2FF
100
AcDbEntity
  8
0
100
AcDbLine
 62
6
  6
CONTINUOUS
 10
3.8361353813
 20
5.9979613333
 11
3.8361353813
 21
5.9229613333
  0
LINE
  5
300
100
AcDbEntity
  8
0
100
AcDbLine
 62
6
  6
CONTINUOUS
 10
3.8361539658
 20
6.3979613333
 11
3.8361539658
 21
6.2479613333
  0
LWPOLYLINE
  5
301
100
AcDbEntity
  8
0
100
AcDbPolyline
 62
6
  6
CONTINUOUS
 90
4
 70
0
 10
7.9551948794
 20
2.7313839227
 10
7.9649930941
 20
2.7325611832
 10
7.9816991527
 20
2.7402799984
 10
7.9818944519
 20
2.7404613333
  0
LWPOLYLINE
  5
302
100
AcDbEntity
  8
0
100
AcDbPolyline
 62
6
  6
CONTINUOUS
 90
17
 70
0
 10
8.2928410988
 20
2.7231635552
 10
8.2958234928
 20
2.7233368211
 10
8.3030933335
 20
2.7252015366
 10
8.3092085869
 20
2.7285440411
 10
8.3139742034
 20
2.7327778609
 10
8.3172218164
 20
2.7372056551
 10
8.3190635362
 20
2.7409963647
 10
8.3200576105
 20
2.7439279974
 10
8.320625454
 20
2.7461839072
 10
8.3210013466
 20
2.7480918905
 10
8.3212867518
 20
2.7498731285
 10
8.3215263937
 20
2.7516612017
 10
8.3217412858
 20
2.7535371813
 10
8.32194247
 20
2.7555570136
 10
8.3221366511
 20
2.7577685087
 10
8.322327379
 20
2.7602053921
 10
8.3225167271
 20
2.7628944087
  0
LINE
  5
303
100
AcDbEntity
  8
0
100
AcDbLine
 62
6
  6
CONTINUOUS
 10
9.1986539658
 20
2.6479613333
 11
8.4736539658
 21
2.6479613333
  0
LINE
  5
304
100
AcDbEntity
  8
0
100
AcDbLine
 62
6
  6
CONTINUOUS
 10
2.2236539658
 20
2.6479613333
 11
2.9486539658
 21
2.6479613333
  0
LINE
  5
305
100
AcDbEntity
  8
0
100
AcDbLine
 62
6
  6
CONTINUOUS
 10
1.3361539658
 20
6.2479613333
 11
1.3861539658
 21
6.1979613333
  0
LWPOLYLINE
  5
306
100
AcDbEntity
  8
0
100
AcDbPolyline
 62
6
  6
CONTINUOUS
 90
4
 70
0
 10
4.1147817424
 20
2.756054603
 10
4.1244100773
 20
2.7571668615
 10
4.141318726
 20
2.7647523999
 10
4.142101267
 20
2.7654613333
  0
LWPOLYLINE
  5
307
100
AcDbEntity
  8
0
100
AcDbPolyline
 62
6
  6
CONTINUOUS
 90
3
 70
0
 10
4.5948458293
 20
2.7609881449
 10
4.601209967
 20
2.7614790409
 10
4.6129346262
 20
2.7654613333
  0
LWPOLYLINE
  5
308
100
AcDbEntity
  8
0
100
AcDbPolyline
 62
6
  6
CONTINUOUS
 90
7
 70
0
 10
3.4185742311
 20
2.7476224371
 10
3.4214567966
 20
2.7477846344
 10
3.4288625371
 20
2.7496786597
 10
3.4351376396
 20
2.7531550921
 10
3.4399423047
 20
2.7575308039
 10
3.4431087011
 20
2.7620019221
 10
3.4447161838
 20
2.7654613333
  0
LINE
  5
309
100
AcDbEntity
  8
0
100
AcDbLine
 62
6
  6
CONTINUOUS
 10
9.2486539658
 20
2.6979613333
 11
8.4236539658
 21
2.6979613333
  0
LINE
  5
30A
100
AcDbEntity
  8
0
100
AcDbLine
 62
6
  6
CONTINUOUS
 10
2.9986539658
 20
2.6979613333
 11
2.1736539658
 21
2.6979613333
  0
LINE
  5
30B
100
AcDbEntity
  8
0
100
AcDbLine
 62
6
  6
CONTINUOUS
 10
5.2841539658
 20
2.7404613333
 11
7.4724524056
 21
2.7404613333
  0
LINE
  5
30C
100
AcDbEntity
  8
0
100
AcDbLine
 62
6
  6
CONTINUOUS
 10
7.4776782625
 20
2.7404613333
 11
8.1837945089
 21
2.7404613333
  0
LINE
  5
30D
100
AcDbEntity
  8
0
100
AcDbLine
 62
6
  6
CONTINUOUS
 10
5.2841539658
 20
2.7654613333
 11
3.2183908413
 21
2.7654613333
  0
LINE
  5
30E
100
AcDbEntity
  8
0
100
AcDbLine
 62
6
  6
CONTINUOUS
 10
9.3361539658
 20
2.7729613333
 11
8.3361539658
 21
2.7729613333
  0
LINE
  5
30F
100
AcDbEntity
  8
0
100
AcDbLine
 62
6
  6
CONTINUOUS
 10
3.0861539658
 20
2.7729613333
 11
2.0861539658
 21
2.7729613333
  0
LINE
  5
310
100
AcDbEntity
  8
0
100
AcDbLine
 62
6
  6
CONTINUOUS
 10
7.4724524056
 20
2.7404613333
 11
7.4753477936
 21
2.7401703894
  0
LINE
  5
311
100
AcDbEntity
  8
0
100
AcDbLine
 62
6
  6
CONTINUOUS
 10
8.1922475774
 20
3.553972923
 11
8.1799263977
 21
3.55105673
  0
LWPOLYLINE
  5
312
100
AcDbEntity
  8
0
100
AcDbPolyline
 62
6
  6
CONTINUOUS
 90
4
 70
0
 10
3.6347914066
 20
2.7511207995
 10
3.644136303
 20
2.7521748832
 10
3.6607504302
 20
2.7594788071
 10
3.6674923708
 20
2.7654613333
  0
LINE
  5
313
100
AcDbEntity
  8
0
100
AcDbLine
 62
7
  6
CONTINUOUS
 10
3.4390399838
 20
3.1404613333
 11
3.3832679478
 21
3.1404613333
  0
LWPOLYLINE
  5
314
100
AcDbEntity
  8
0
100
AcDbPolyline
 62
6
  6
CONTINUOUS
 90
3
 70
0
 10
4.834924126
 20
3.5174675255
 10
4.8264473937
 20
3.5166083635
 10
4.8236752189
 20
3.5154613333
  0
LWPOLYLINE
  5
315
100
AcDbEntity
  8
0
100
AcDbPolyline
 62
6
  6
CONTINUOUS
 90
3
 70
0
 10
7.7153438263
 20
3.5451455891
 10
7.7072107563
 20
3.5443333871
 10
7.6978482235
 20
3.5404613333
  0
LINE
  5
316
100
AcDbEntity
  8
0
100
AcDbLine
 62
6
  6
CONTINUOUS
 10
8.195289557
 20
3.5540944163
 11
8.1922475774
 21
3.553972923
  0
LWPOLYLINE
  5
317
100
AcDbEntity
  8
0
100
AcDbPolyline
 62
6
  6
CONTINUOUS
 90
20
 70
0
 10
8.3105044974
 20
3.5584363183
 10
8.3088610133
 20
3.5583832564
 10
8.3019446217
 20
3.5570151453
 10
8.2958768446
 20
3.5541864233
 10
8.2909429679
 20
3.5503961242
 10
8.2873337037
 20
3.5461875455
 10
8.2850611058
 20
3.5422008935
 10
8.2838077205
 20
3.5389406693
 10
8.2831624287
 20
3.5365606356
 10
8.2828140682
 20
3.5348372229
 10
8.2825955484
 20
3.5334592961
 10
8.2824377457
 20
3.532237732
 10
8.2823110938
 20
3.5310680161
 10
8.282201915
 20
3.5298926214
 10
8.2821036105
 20
3.5286829972
 10
8.2820115494
 20
3.5274089385
 10
8.2819227874
 20
3.5260444758
 10
8.2818357821
 20
3.5245734868
 10
8.2817495495
 20
3.5229830339
 10
8.2815769598
 20
3.5194009668
  0
LINE
  5
318
100
AcDbEntity
  8
0
100
AcDbLine
 62
6
  6
CONTINUOUS
 10
9.3361539658
 20
3.5079613333
 11
8.3361539658
 21
3.5079613333
  0
LINE
  5
319
100
AcDbEntity
  8
0
100
AcDbLine
 62
6
  6
CONTINUOUS
 10
2.0861539658
 20
3.5079613333
 11
3.0861539658
 21
3.5079613333
  0
LINE
  5
31A
100
AcDbEntity
  8
0
100
AcDbLine
 62
6
  6
CONTINUOUS
 10
5.2841539658
 20
3.5154613333
 11
4.8463402333
 21
3.5154613333
  0
LINE
  5
31B
100
AcDbEntity
  8
0
100
AcDbLine
 62
6
  6
CONTINUOUS
 10
4.834924126
 20
3.5154613333
 11
3.2183908413
 21
3.5154613333
  0
LINE
  5
31C
100
AcDbEntity
  8
0
100
AcDbLine
 62
6
  6
CONTINUOUS
 10
5.2841539658
 20
3.5404613333
 11
8.1837945089
 21
3.5404613333
  0
LWPOLYLINE
  5
31D
100
AcDbEntity
  8
0
100
AcDbPolyline
 62
6
  6
CONTINUOUS
 90
4
 70
0
 10
3.8749302601
 20
3.5273350445
 10
3.8664072115
 20
3.526458495
 10
3.849661502
 20
3.519444949
 10
3.8450521917
 20
3.5154613333
  0
LWPOLYLINE
  5
31E
100
AcDbEntity
  8
0
100
AcDbPolyline
 62
6
  6
CONTINUOUS
 90
3
 70
0
 10
4.3549243903
 20
3.5224012995
 10
4.3465103892
 20
3.5215503454
 10
4.3317442535
 20
3.5154613333
  0
LWPOLYLINE
  5
31F
100
AcDbEntity
  8
0
100
AcDbPolyline
 62
6
  6
CONTINUOUS
 90
7
 70
0
 10
3.4442484545
 20
3.532745758
 10
3.4406827249
 20
3.5325096726
 10
3.4318123471
 20
3.5298654963
 10
3.4247205544
 20
3.5252487346
 10
3.4199844018
 20
3.5201565786
 10
3.4171352654
 20
3.5155573189
 10
3.4170930397
 20
3.5154613333
  0
LINE
  5
320
100
AcDbEntity
  8
0
100
AcDbLine
 62
6
  6
CONTINUOUS
 10
5.2841539658
 20
2.7404722361
 11
5.2841539658
 21
3.5404504305
  0
LINE
  5
321
100
AcDbEntity
  8
0
100
AcDbLine
 62
6
  6
CONTINUOUS
 10
9.2761539658
 20
5.2419613333
 11
8.3961539658
 21
5.2419613333
  0
LINE
  5
322
100
AcDbEntity
  8
0
100
AcDbLine
 62
6
  6
CONTINUOUS
 10
2.1461539658
 20
5.2419613333
 11
3.0261539658
 21
5.2419613333
  0
LINE
  5
323
100
AcDbEntity
  8
0
100
AcDbLine
 62
9
  6
CONTINUOUS
 10
9.2761539658
 20
5.2679613333
 11
8.3961539658
 21
5.2679613333
  0
LINE
  5
324
100
AcDbEntity
  8
0
100
AcDbLine
 62
9
  6
CONTINUOUS
 10
2.1461539658
 20
5.2679613333
 11
3.0261539658
 21
5.2679613333
  0
LINE
  5
325
100
AcDbEntity
  8
0
100
AcDbLine
 62
6
  6
CONTINUOUS
 10
9.4031539658
 20
5.3949613333
 11
8.2691539658
 21
5.3949613333
  0
LINE
  5
326
100
AcDbEntity
  8
0
100
AcDbLine
 62
6
  6
CONTINUOUS
 10
2.0191539658
 20
5.3949613333
 11
3.1531539658
 21
5.3949613333
  0
LINE
  5
327
100
AcDbEntity
  8
0
100
AcDbLine
 62
9
  6
CONTINUOUS
 10
9.4031539658
 20
5.4214613333
 11
8.2691539658
 21
5.4214613333
  0
LINE
  5
328
100
AcDbEntity
  8
0
100
AcDbLine
 62
9
  6
CONTINUOUS
 10
2.0191539658
 20
5.4214613333
 11
3.1531539658
 21
5.4214613333
  0
LINE
  5
329
100
AcDbEntity
  8
0
100
AcDbLine
 62
6
  6
CONTINUOUS
 10
1.8461669
 20
5.5479613333
 11
3.3261410316
 21
5.5479613333
  0
LINE
  5
32A
100
AcDbEntity
  8
0
100
AcDbLine
 62
6
  6
CONTINUOUS
 10
8.0961669
 20
5.5479613333
 11
9.5761410316
 21
5.5479613333
  0
LINE
  5
32B
100
AcDbEntity
  8
0
100
AcDbLine
 62
6
  6
CONTINUOUS
 10
1.8461669
 20
5.6229613333
 11
3.3261410316
 21
5.6229613333
  0
LINE
  5
32C
100
AcDbEntity
  8
0
100
AcDbLine
 62
6
  6
CONTINUOUS
 10
8.0961669
 20
5.6229613333
 11
9.5761410316
 21
5.6229613333
  0
LINE
  5
32D
100
AcDbEntity
  8
0
100
AcDbLine
 62
6
  6
CONTINUOUS
 10
1.6611539658
 20
5.7229613333
 11
3.5111539658
 21
5.7229613333
  0
LINE
  5
32E
100
AcDbEntity
  8
0
100
AcDbLine
 62
6
  6
CONTINUOUS
 10
7.9111539658
 20
5.7229613333
 11
9.7611539658
 21
5.7229613333
  0
LINE
  5
32F
100
AcDbEntity
  8
0
100
AcDbLine
 62
6
  6
CONTINUOUS
 10
1.5111539658
 20
5.8229613333
 11
3.6611539658
 21
5.8229613333
  0
LINE
  5
330
100
AcDbEntity
  8
0
100
AcDbLine
 62
6
  6
CONTINUOUS
 10
7.7611539658
 20
5.8229613333
 11
9.9111539658
 21
5.8229613333
  0
LINE
  5
331
100
AcDbEntity
  8
0
100
AcDbLine
 62
6
  6
CONTINUOUS
 10
9.9430220701
 20
5.9229613333
 11
9.9366220254
 21
5.9229613333
  0
LINE
  5
332
100
AcDbEntity
  8
0
100
AcDbLine
 62
6
  6
CONTINUOUS
 10
1.4856859062
 20
5.9229613333
 11
1.4792858615
 21
5.9229613333
  0
LINE
  5
333
100
AcDbEntity
  8
0
100
AcDbLine
 62
6
  6
CONTINUOUS
 10
1.3361725503
 20
5.9229613333
 11
1.3369153899
 21
5.9229613333
  0
LINE
  5
334
100
AcDbEntity
  8
0
100
AcDbLine
 62
6
  6
CONTINUOUS
 10
1.3371718879
 20
5.9229613333
 11
1.4656661465
 21
5.9229613333
  0
LINE
  5
335
100
AcDbEntity
  8
0
100
AcDbLine
 62
7
  6
CONTINUOUS
 10
1.4656661465
 20
5.9229613333
 11
1.4792858615
 21
5.9229613333
  0
LINE
  5
336
100
AcDbEntity
  8
0
100
AcDbLine
 62
7
  6
CONTINUOUS
 10
1.4856859062
 20
5.9229613333
 11
1.5002301948
 21
5.9229613333
  0
LINE
  5
337
100
AcDbEntity
  8
0
100
AcDbLine
 62
6
  6
CONTINUOUS
 10
1.5002301948
 20
5.9229613333
 11
1.7439473732
 21
5.9229613333
  0
LINE
  5
338
100
AcDbEntity
  8
0
100
AcDbLine
 62
7
  6
CONTINUOUS
 10
1.7439473732
 20
5.9229613333
 11
1.7446877033
 21
5.9229613333
  0
LINE
  5
339
100
AcDbEntity
  8
0
100
AcDbLine
 62
6
  6
CONTINUOUS
 10
1.7446877033
 20
5.9229613333
 11
1.8089999237
 21
5.9229613333
  0
LINE
  5
33A
100
AcDbEntity
  8
0
100
AcDbLine
 62
7
  6
CONTINUOUS
 10
1.8089999237
 20
5.9229613333
 11
1.8112173073
 21
5.9229613333
  0
LINE
  5
33B
100
AcDbEntity
  8
0
100
AcDbLine
 62
6
  6
CONTINUOUS
 10
1.8112173073
 20
5.9229613333
 11
1.9501282984
 21
5.9229613333
  0
LINE
  5
33C
100
AcDbEntity
  8
0
100
AcDbLine
 62
7
  6
CONTINUOUS
 10
1.9501282984
 20
5.9229613333
 11
1.9552602368
 21
5.9229613333
  0
LINE
  5
33D
100
AcDbEntity
  8
0
100
AcDbLine
 62
7
  6
CONTINUOUS
 10
3.2587341548
 20
5.9229613333
 11
3.2794837988
 21
5.9229613333
  0
LINE
  5
33E
100
AcDbEntity
  8
0
100
AcDbLine
 62
6
  6
CONTINUOUS
 10
1.9552602368
 20
5.9229613333
 11
3.2587341548
 21
5.9229613333
  0
LINE
  5
33F
100
AcDbEntity
  8
0
100
AcDbLine
 62
6
  6
CONTINUOUS
 10
3.2794837988
 20
5.9229613333
 11
3.3610906243
 21
5.9229613333
  0
LINE
  5
340
100
AcDbEntity
  8
0
100
AcDbLine
 62
7
  6
CONTINUOUS
 10
3.3610906243
 20
5.9229613333
 11
3.3633080079
 21
5.9229613333
  0
LINE
  5
341
100
AcDbEntity
  8
0
100
AcDbLine
 62
6
  6
CONTINUOUS
 10
3.3633080079
 20
5.9229613333
 11
3.4276202283
 21
5.9229613333
  0
LINE
  5
342
100
AcDbEntity
  8
0
100
AcDbLine
 62
7
  6
CONTINUOUS
 10
3.4276202283
 20
5.9229613333
 11
3.4283605584
 21
5.9229613333
  0
LINE
  5
343
100
AcDbEntity
  8
0
100
AcDbLine
 62
6
  6
CONTINUOUS
 10
3.4283605584
 20
5.9229613333
 11
3.6720777368
 21
5.9229613333
  0
LINE
  5
344
100
AcDbEntity
  8
0
100
AcDbLine
 62
7
  6
CONTINUOUS
 10
3.6720777368
 20
5.9229613333
 11
3.6866220254
 21
5.9229613333
  0
LINE
  5
345
100
AcDbEntity
  8
0
100
AcDbLine
 62
6
  6
CONTINUOUS
 10
3.6866220254
 20
5.9229613333
 11
3.8006545845
 21
5.9229613333
  0
LINE
  5
346
100
AcDbEntity
  8
0
100
AcDbLine
 62
7
  6
CONTINUOUS
 10
3.8006545845
 20
5.9229613333
 11
3.8074031161
 21
5.9229613333
  0
LINE
  5
347
100
AcDbEntity
  8
0
100
AcDbLine
 62
6
  6
CONTINUOUS
 10
3.8074031161
 20
5.9229613333
 11
3.8351360437
 21
5.9229613333
  0
LINE
  5
348
100
AcDbEntity
  8
0
100
AcDbLine
 62
6
  6
CONTINUOUS
 10
3.8356118091
 20
5.9229613333
 11
3.8361353813
 21
5.9229613333
  0
LINE
  5
349
100
AcDbEntity
  8
0
100
AcDbLine
 62
6
  6
CONTINUOUS
 10
7.5861725503
 20
5.9229613333
 11
7.5869153899
 21
5.9229613333
  0
LINE
  5
34A
100
AcDbEntity
  8
0
100
AcDbLine
 62
6
  6
CONTINUOUS
 10
7.5871718879
 20
5.9229613333
 11
7.6149048155
 21
5.9229613333
  0
LINE
  5
34B
100
AcDbEntity
  8
0
100
AcDbLine
 62
7
  6
CONTINUOUS
 10
7.6149048155
 20
5.9229613333
 11
7.6216533471
 21
5.9229613333
  0
LINE
  5
34C
100
AcDbEntity
  8
0
100
AcDbLine
 62
6
  6
CONTINUOUS
 10
7.6216533471
 20
5.9229613333
 11
7.7356859062
 21
5.9229613333
  0
LINE
  5
34D
100
AcDbEntity
  8
0
100
AcDbLine
 62
7
  6
CONTINUOUS
 10
7.7356859062
 20
5.9229613333
 11
7.7502301948
 21
5.9229613333
  0
LINE
  5
34E
100
AcDbEntity
  8
0
100
AcDbLine
 62
6
  6
CONTINUOUS
 10
7.7502301948
 20
5.9229613333
 11
7.9939473732
 21
5.9229613333
  0
LINE
  5
34F
100
AcDbEntity
  8
0
100
AcDbLine
 62
7
  6
CONTINUOUS
 10
7.9939473732
 20
5.9229613333
 11
7.9946877033
 21
5.9229613333
  0
LINE
  5
350
100
AcDbEntity
  8
0
100
AcDbLine
 62
6
  6
CONTINUOUS
 10
7.9946877033
 20
5.9229613333
 11
8.0589999237
 21
5.9229613333
  0
LINE
  5
351
100
AcDbEntity
  8
0
100
AcDbLine
 62
7
  6
CONTINUOUS
 10
8.0589999237
 20
5.9229613333
 11
8.0612173073
 21
5.9229613333
  0
LINE
  5
352
100
AcDbEntity
  8
0
100
AcDbLine
 62
6
  6
CONTINUOUS
 10
8.0612173073
 20
5.9229613333
 11
8.1428241328
 21
5.9229613333
  0
LINE
  5
353
100
AcDbEntity
  8
0
100
AcDbLine
 62
7
  6
CONTINUOUS
 10
8.1428241328
 20
5.9229613333
 11
8.1635737768
 21
5.9229613333
  0
LINE
  5
354
100
AcDbEntity
  8
0
100
AcDbLine
 62
6
  6
CONTINUOUS
 10
8.1635737768
 20
5.9229613333
 11
9.4670476948
 21
5.9229613333
  0
LINE
  5
355
100
AcDbEntity
  8
0
100
AcDbLine
 62
7
  6
CONTINUOUS
 10
9.4670476948
 20
5.9229613333
 11
9.4721796332
 21
5.9229613333
  0
LINE
  5
356
100
AcDbEntity
  8
0
100
AcDbLine
 62
6
  6
CONTINUOUS
 10
9.4721796332
 20
5.9229613333
 11
9.6110906243
 21
5.9229613333
  0
LINE
  5
357
100
AcDbEntity
  8
0
100
AcDbLine
 62
7
  6
CONTINUOUS
 10
9.6110906243
 20
5.9229613333
 11
9.6133080079
 21
5.9229613333
  0
LINE
  5
358
100
AcDbEntity
  8
0
100
AcDbLine
 62
6
  6
CONTINUOUS
 10
9.6133080079
 20
5.9229613333
 11
9.6776202283
 21
5.9229613333
  0
LINE
  5
359
100
AcDbEntity
  8
0
100
AcDbLine
 62
7
  6
CONTINUOUS
 10
9.6776202283
 20
5.9229613333
 11
9.6783605584
 21
5.9229613333
  0
LINE
  5
35A
100
AcDbEntity
  8
0
100
AcDbLine
 62
6
  6
CONTINUOUS
 10
9.6783605584
 20
5.9229613333
 11
9.9220777368
 21
5.9229613333
  0
LINE
  5
35B
100
AcDbEntity
  8
0
100
AcDbLine
 62
7
  6
CONTINUOUS
 10
9.9220777368
 20
5.9229613333
 11
9.9366220254
 21
5.9229613333
  0
LINE
  5
35C
100
AcDbEntity
  8
0
100
AcDbLine
 62
7
  6
CONTINUOUS
 10
9.9430220701
 20
5.9229613333
 11
9.956641785
 21
5.9229613333
  0
LINE
  5
35D
100
AcDbEntity
  8
0
100
AcDbLine
 62
6
  6
CONTINUOUS
 10
9.956641785
 20
5.9229613333
 11
10.0851360437
 21
5.9229613333
  0
LINE
  5
35E
100
AcDbEntity
  8
0
100
AcDbLine
 62
6
  6
CONTINUOUS
 10
10.0856118091
 20
5.9229613333
 11
10.0861353813
 21
5.9229613333
  0
LINE
  5
35F
100
AcDbEntity
  8
0
100
AcDbLine
 62
6
  6
CONTINUOUS
 10
1.3361725503
 20
5.9979613333
 11
1.3366961225
 21
5.9979613333
  0
LINE
  5
360
100
AcDbEntity
  8
0
100
AcDbLine
 62
6
  6
CONTINUOUS
 10
1.3371718879
 20
5.9979613333
 11
1.4656661465
 21
5.9979613333
  0
LINE
  5
361
100
AcDbEntity
  8
0
100
AcDbLine
 62
7
  6
CONTINUOUS
 10
1.4656661465
 20
5.9979613333
 11
1.4792858615
 21
5.9979613333
  0
LINE
  5
362
100
AcDbEntity
  8
0
100
AcDbLine
 62
6
  6
CONTINUOUS
 10
1.4792858615
 20
5.9979613333
 11
1.4856859062
 21
5.9979613333
  0
LINE
  5
363
100
AcDbEntity
  8
0
100
AcDbLine
 62
7
  6
CONTINUOUS
 10
1.4856859062
 20
5.9979613333
 11
1.5002301948
 21
5.9979613333
  0
LINE
  5
364
100
AcDbEntity
  8
0
100
AcDbLine
 62
6
  6
CONTINUOUS
 10
1.5002301948
 20
5.9979613333
 11
1.7439473732
 21
5.9979613333
  0
LINE
  5
365
100
AcDbEntity
  8
0
100
AcDbLine
 62
7
  6
CONTINUOUS
 10
1.7439473732
 20
5.9979613333
 11
1.7446877033
 21
5.9979613333
  0
LINE
  5
366
100
AcDbEntity
  8
0
100
AcDbLine
 62
6
  6
CONTINUOUS
 10
1.7446877033
 20
5.9979613333
 11
1.8089999237
 21
5.9979613333
  0
LINE
  5
367
100
AcDbEntity
  8
0
100
AcDbLine
 62
7
  6
CONTINUOUS
 10
1.8089999237
 20
5.9979613333
 11
1.8112173073
 21
5.9979613333
  0
LINE
  5
368
100
AcDbEntity
  8
0
100
AcDbLine
 62
6
  6
CONTINUOUS
 10
1.8112173073
 20
5.9979613333
 11
1.9501282984
 21
5.9979613333
  0
LINE
  5
369
100
AcDbEntity
  8
0
100
AcDbLine
 62
7
  6
CONTINUOUS
 10
1.9501282984
 20
5.9979613333
 11
1.9552602368
 21
5.9979613333
  0
LINE
  5
36A
100
AcDbEntity
  8
0
100
AcDbLine
 62
7
  6
CONTINUOUS
 10
3.2587341548
 20
5.9979613333
 11
3.2794837988
 21
5.9979613333
  0
LINE
  5
36B
100
AcDbEntity
  8
0
100
AcDbLine
 62
6
  6
CONTINUOUS
 10
1.9552602368
 20
5.9979613333
 11
3.2587341548
 21
5.9979613333
  0
LINE
  5
36C
100
AcDbEntity
  8
0
100
AcDbLine
 62
6
  6
CONTINUOUS
 10
3.2794837988
 20
5.9979613333
 11
3.3610906243
 21
5.9979613333
  0
LINE
  5
36D
100
AcDbEntity
  8
0
100
AcDbLine
 62
7
  6
CONTINUOUS
 10
3.3610906243
 20
5.9979613333
 11
3.3633080079
 21
5.9979613333
  0
LINE
  5
36E
100
AcDbEntity
  8
0
100
AcDbLine
 62
6
  6
CONTINUOUS
 10
3.3633080079
 20
5.9979613333
 11
3.4276202283
 21
5.9979613333
  0
LINE
  5
36F
100
AcDbEntity
  8
0
100
AcDbLine
 62
7
  6
CONTINUOUS
 10
3.4276202283
 20
5.9979613333
 11
3.4283605584
 21
5.9979613333
  0
LINE
  5
370
100
AcDbEntity
  8
0
100
AcDbLine
 62
6
  6
CONTINUOUS
 10
3.4283605584
 20
5.9979613333
 11
3.6720777368
 21
5.9979613333
  0
LINE
  5
371
100
AcDbEntity
  8
0
100
AcDbLine
 62
7
  6
CONTINUOUS
 10
3.6720777368
 20
5.9979613333
 11
3.6866220254
 21
5.9979613333
  0
LINE
  5
372
100
AcDbEntity
  8
0
100
AcDbLine
 62
6
  6
CONTINUOUS
 10
3.6866220254
 20
5.9979613333
 11
3.8006545845
 21
5.9979613333
  0
LINE
  5
373
100
AcDbEntity
  8
0
100
AcDbLine
 62
7
  6
CONTINUOUS
 10
3.8006545845
 20
5.9979613333
 11
3.8074031161
 21
5.9979613333
  0
LINE
  5
374
100
AcDbEntity
  8
0
100
AcDbLine
 62
6
  6
CONTINUOUS
 10
3.8074031161
 20
5.9979613333
 11
3.8351360437
 21
5.9979613333
  0
LINE
  5
375
100
AcDbEntity
  8
0
100
AcDbLine
 62
6
  6
CONTINUOUS
 10
3.8353924817
 20
5.9979613333
 11
3.8361353813
 21
5.9979613333
  0
LINE
  5
376
100
AcDbEntity
  8
0
100
AcDbLine
 62
6
  6
CONTINUOUS
 10
7.5861725503
 20
5.9979613333
 11
7.5866961225
 21
5.9979613333
  0
LINE
  5
377
100
AcDbEntity
  8
0
100
AcDbLine
 62
6
  6
CONTINUOUS
 10
7.5871718879
 20
5.9979613333
 11
7.6149048155
 21
5.9979613333
  0
LINE
  5
378
100
AcDbEntity
  8
0
100
AcDbLine
 62
7
  6
CONTINUOUS
 10
7.6149048155
 20
5.9979613333
 11
7.6216533471
 21
5.9979613333
  0
LINE
  5
379
100
AcDbEntity
  8
0
100
AcDbLine
 62
6
  6
CONTINUOUS
 10
7.6216533471
 20
5.9979613333
 11
7.7356859062
 21
5.9979613333
  0
LINE
  5
37A
100
AcDbEntity
  8
0
100
AcDbLine
 62
7
  6
CONTINUOUS
 10
7.7356859062
 20
5.9979613333
 11
7.7502301948
 21
5.9979613333
  0
LINE
  5
37B
100
AcDbEntity
  8
0
100
AcDbLine
 62
6
  6
CONTINUOUS
 10
7.7502301948
 20
5.9979613333
 11
7.9939473732
 21
5.9979613333
  0
LINE
  5
37C
100
AcDbEntity
  8
0
100
AcDbLine
 62
7
  6
CONTINUOUS
 10
7.9939473732
 20
5.9979613333
 11
7.9946877033
 21
5.9979613333
  0
LINE
  5
37D
100
AcDbEntity
  8
0
100
AcDbLine
 62
6
  6
CONTINUOUS
 10
7.9946877033
 20
5.9979613333
 11
8.0589999237
 21
5.9979613333
  0
LINE
  5
37E
100
AcDbEntity
  8
0
100
AcDbLine
 62
7
  6
CONTINUOUS
 10
8.0589999237
 20
5.9979613333
 11
8.0612173073
 21
5.9979613333
  0
LINE
  5
37F
100
AcDbEntity
  8
0
100
AcDbLine
 62
6
  6
CONTINUOUS
 10
8.0612173073
 20
5.9979613333
 11
8.1428241328
 21
5.9979613333
  0
LINE
  5
380
100
AcDbEntity
  8
0
100
AcDbLine
 62
7
  6
CONTINUOUS
 10
8.1428241328
 20
5.9979613333
 11
8.1635737768
 21
5.9979613333
  0
LINE
  5
381
100
AcDbEntity
  8
0
100
AcDbLine
 62
6
  6
CONTINUOUS
 10
8.1635737768
 20
5.9979613333
 11
9.4670476948
 21
5.9979613333
  0
LINE
  5
382
100
AcDbEntity
  8
0
100
AcDbLine
 62
7
  6
CONTINUOUS
 10
9.4670476948
 20
5.9979613333
 11
9.4721796332
 21
5.9979613333
  0
LINE
  5
383
100
AcDbEntity
  8
0
100
AcDbLine
 62
6
  6
CONTINUOUS
 10
9.4721796332
 20
5.9979613333
 11
9.6110906243
 21
5.9979613333
  0
LINE
  5
384
100
AcDbEntity
  8
0
100
AcDbLine
 62
7
  6
CONTINUOUS
 10
9.6110906243
 20
5.9979613333
 11
9.6133080079
 21
5.9979613333
  0
LINE
  5
385
100
AcDbEntity
  8
0
100
AcDbLine
 62
6
  6
CONTINUOUS
 10
9.6133080079
 20
5.9979613333
 11
9.6776202283
 21
5.9979613333
  0
LINE
  5
386
100
AcDbEntity
  8
0
100
AcDbLine
 62
7
  6
CONTINUOUS
 10
9.6776202283
 20
5.9979613333
 11
9.6783605584
 21
5.9979613333
  0
LINE
  5
387
100
AcDbEntity
  8
0
100
AcDbLine
 62
6
  6
CONTINUOUS
 10
9.6783605584
 20
5.9979613333
 11
9.9220777368
 21
5.9979613333
  0
LINE
  5
388
100
AcDbEntity
  8
0
100
AcDbLine
 62
7
  6
CONTINUOUS
 10
9.9220777368
 20
5.9979613333
 11
9.9366220254
 21
5.9979613333
  0
LINE
  5
389
100
AcDbEntity
  8
0
100
AcDbLine
 62
6
  6
CONTINUOUS
 10
9.9366220254
 20
5.9979613333
 11
9.9430220701
 21
5.9979613333
  0
LINE
  5
38A
100
AcDbEntity
  8
0
100
AcDbLine
 62
7
  6
CONTINUOUS
 10
9.9430220701
 20
5.9979613333
 11
9.956641785
 21
5.9979613333
  0
LINE
  5
38B
100
AcDbEntity
  8
0
100
AcDbLine
 62
6
  6
CONTINUOUS
 10
10.0853924817
 20
5.9979613333
 11
10.0861353813
 21
5.9979613333
  0
LINE
  5
38C
100
AcDbEntity
  8
0
100
AcDbLine
 62
6
  6
CONTINUOUS
 10
9.956641785
 20
5.9979613333
 11
10.0851360437
 21
5.9979613333
  0
LINE
  5
38D
100
AcDbEntity
  8
0
100
AcDbLine
 62
6
  6
CONTINUOUS
 10
7.5861539658
 20
6.3979613333
 11
7.5861539658
 21
6.2479613333
  0
LINE
  5
38E
100
AcDbEntity
  8
0
100
AcDbLine
 62
6
  6
CONTINUOUS
 10
7.5861725503
 20
5.9979613333
 11
7.5861725503
 21
5.9229613333
  0
LINE
  5
38F
100
AcDbEntity
  8
0
100
AcDbLine
 62
6
  6
CONTINUOUS
 10
7.5866961225
 20
5.9979613333
 11
7.5866961225
 21
5.9229613333
  0
LINE
  5
390
100
AcDbEntity
  8
0
100
AcDbLine
 62
6
  6
CONTINUOUS
 10
7.5871718879
 20
5.9979613333
 11
7.5871718879
 21
5.9229613333
  0
LINE
  5
391
100
AcDbEntity
  8
0
100
AcDbLine
 62
6
  6
CONTINUOUS
 10
7.5887419666
 20
5.9979613333
 11
7.5887419666
 21
5.9229613333
  0
LINE
  5
392
100
AcDbEntity
  8
0
100
AcDbLine
 62
6
  6
CONTINUOUS
 10
7.5896929178
 20
5.9979613333
 11
7.5896929178
 21
5.9229613333
  0
LINE
  5
393
100
AcDbEntity
  8
0
100
AcDbLine
 62
6
  6
CONTINUOUS
 10
7.5923075901
 20
5.9979613333
 11
7.5923075901
 21
5.9229613333
  0
LINE
  5
394
100
AcDbEntity
  8
0
100
AcDbLine
 62
6
  6
CONTINUOUS
 10
7.5937325685
 20
5.9979613333
 11
7.5937325685
 21
5.9229613333
  0
LINE
  5
395
100
AcDbEntity
  8
0
100
AcDbLine
 62
6
  6
CONTINUOUS
 10
7.5973886488
 20
5.9979613333
 11
7.5973886488
 21
5.9229613333
  0
LINE
  5
396
100
AcDbEntity
  8
0
100
AcDbLine
 62
6
  6
CONTINUOUS
 10
7.5992859182
 20
5.9979613333
 11
7.5992859182
 21
5.9229613333
  0
LINE
  5
397
100
AcDbEntity
  8
0
100
AcDbLine
 62
6
  6
CONTINUOUS
 10
7.6039789522
 20
5.9979613333
 11
7.6039789522
 21
5.9229613333
  0
LINE
  5
398
100
AcDbEntity
  8
0
100
AcDbLine
 62
6
  6
CONTINUOUS
 10
7.6063462012
 20
5.9979613333
 11
7.6063462012
 21
5.9229613333
  0
LINE
  5
399
100
AcDbEntity
  8
0
100
AcDbLine
 62
6
  6
CONTINUOUS
 10
7.612070471
 20
5.9979613333
 11
7.612070471
 21
5.9229613333
  0
LINE
  5
39A
100
AcDbEntity
  8
0
100
AcDbLine
 62
7
  6
CONTINUOUS
 10
7.6149048155
 20
5.9979613333
 11
7.6149048155
 21
5.9229613333
  0
LINE
  5
39B
100
AcDbEntity
  8
0
100
AcDbLine
 62
6
  6
CONTINUOUS
 10
7.6216533471
 20
5.9979613333
 11
7.6216533471
 21
5.9229613333
  0
LINE
  5
39C
100
AcDbEntity
  8
0
100
AcDbLine
 62
6
  6
CONTINUOUS
 10
7.6249513337
 20
5.9979613333
 11
7.6249513337
 21
5.9229613333
  0
LINE
  5
39D
100
AcDbEntity
  8
0
100
AcDbLine
 62
6
  6
CONTINUOUS
 10
7.6327159051
 20
5.9979613333
 11
7.6327159051
 21
5.9229613333
  0
LINE
  5
39E
100
AcDbEntity
  8
0
100
AcDbLine
 62
6
  6
CONTINUOUS
 10
7.6361539658
 20
6.1979613333
 11
7.6361539658
 21
5.9979613333
  0
LINE
  5
39F
100
AcDbEntity
  8
0
100
AcDbLine
 62
6
  6
CONTINUOUS
 10
7.6364735158
 20
5.9979613333
 11
7.6364735158
 21
5.9229613333
  0
LINE
  5
3A0
100
AcDbEntity
  8
0
100
AcDbLine
 62
6
  6
CONTINUOUS
 10
7.6452446669
 20
5.9979613333
 11
7.6452446669
 21
5.9229613333
  0
LINE
  5
3A1
100
AcDbEntity
  8
0
100
AcDbLine
 62
6
  6
CONTINUOUS
 10
7.6494573237
 20
5.9979613333
 11
7.6494573237
 21
5.9229613333
  0
LINE
  5
3A2
100
AcDbEntity
  8
0
100
AcDbLine
 62
6
  6
CONTINUOUS
 10
10.0861539658
 20
6.2479613333
 11
10.0361539658
 21
6.1979613333
  0
LINE
  5
3A3
100
AcDbEntity
  8
0
100
AcDbLine
 62
6
  6
CONTINUOUS
 10
1.3861539658
 20
6.1979613333
 11
3.7861539658
 21
6.1979613333
  0
LINE
  5
3A4
100
AcDbEntity
  8
0
100
AcDbLine
 62
6
  6
CONTINUOUS
 10
7.6361539658
 20
6.1979613333
 11
10.0361539658
 21
6.1979613333
  0
LINE
  5
3A5
100
AcDbEntity
  8
0
100
AcDbLine
 62
6
  6
CONTINUOUS
 10
1.3361539658
 20
6.2479613333
 11
3.8361539658
 21
6.2479613333
  0
LINE
  5
3A6
100
AcDbEntity
  8
0
100
AcDbLine
 62
6
  6
CONTINUOUS
 10
7.5861539658
 20
6.2479613333
 11
10.0861539658
 21
6.2479613333
  0
LINE
  5
3A7
100
AcDbEntity
  8
0
100
AcDbLine
 62
6
  6
CONTINUOUS
 10
1.3361539658
 20
6.3979613333
 11
3.8361539658
 21
6.3979613333
  0
LINE
  5
3A8
100
AcDbEntity
  8
0
100
AcDbLine
 62
6
  6
CONTINUOUS
 10
7.5861539658
 20
6.3979613333
 11
10.0861539658
 21
6.3979613333
  0
LINE
  5
3A9
100
AcDbEntity
  8
0
100
AcDbLine
 62
6
  6
CONTINUOUS
 10
7.6592243683
 20
5.9979613333
 11
7.6592243683
 21
5.9229613333
  0
LINE
  5
3AA
100
AcDbEntity
  8
0
100
AcDbLine
 62
6
  6
CONTINUOUS
 10
7.6638869387
 20
5.9979613333
 11
7.6638869387
 21
5.9229613333
  0
LINE
  5
3AB
100
AcDbEntity
  8
0
100
AcDbLine
 62
6
  6
CONTINUOUS
 10
7.6746379772
 20
5.9979613333
 11
7.6746379772
 21
5.9229613333
  0
LINE
  5
3AC
100
AcDbEntity
  8
0
100
AcDbLine
 62
6
  6
CONTINUOUS
 10
7.6797447805
 20
5.9979613333
 11
7.6797447805
 21
5.9229613333
  0
LINE
  5
3AD
100
AcDbEntity
  8
0
100
AcDbLine
 62
6
  6
CONTINUOUS
 10
7.6914667143
 20
5.9979613333
 11
7.6914667143
 21
5.9229613333
  0
LINE
  5
3AE
100
AcDbEntity
  8
0
100
AcDbLine
 62
6
  6
CONTINUOUS
 10
7.6970115287
 20
5.9979613333
 11
7.6970115287
 21
5.9229613333
  0
LINE
  5
3AF
100
AcDbEntity
  8
0
100
AcDbLine
 62
6
  6
CONTINUOUS
 10
7.7096900766
 20
5.9979613333
 11
7.7096900766
 21
5.9229613333
  0
LINE
  5
3B0
100
AcDbEntity
  8
0
100
AcDbLine
 62
6
  6
CONTINUOUS
 10
7.7156661465
 20
5.9979613333
 11
7.7156661465
 21
5.9229613333
  0
LINE
  5
3B1
100
AcDbEntity
  8
0
100
AcDbLine
 62
6
  6
CONTINUOUS
 10
7.7292858615
 20
5.9979613333
 11
7.7292858615
 21
5.9229613333
  0
LINE
  5
3B2
100
AcDbEntity
  8
0
100
AcDbLine
 62
7
  6
CONTINUOUS
 10
7.7356859062
 20
5.9979613333
 11
7.7356859062
 21
5.9229613333
  0
LINE
  5
3B3
100
AcDbEntity
  8
0
100
AcDbLine
 62
6
  6
CONTINUOUS
 10
7.7502301948
 20
5.9979613333
 11
7.7502301948
 21
5.9229613333
  0
LINE
  5
3B4
100
AcDbEntity
  8
0
100
AcDbLine
 62
6
  6
CONTINUOUS
 10
7.7570464166
 20
5.9979613333
 11
7.7570464166
 21
5.9229613333
  0
LINE
  5
3B5
100
AcDbEntity
  8
0
100
AcDbLine
 62
6
  6
CONTINUOUS
 10
7.7724975589
 20
5.9979613333
 11
7.7724975589
 21
5.9229613333
  0
LINE
  5
3B6
100
AcDbEntity
  8
0
100
AcDbLine
 62
6
  6
CONTINUOUS
 10
7.7797216534
 20
5.9979613333
 11
7.7797216534
 21
5.9229613333
  0
LINE
  5
3B7
100
AcDbEntity
  8
0
100
AcDbLine
 62
6
  6
CONTINUOUS
 10
7.7960608245
 20
5.9979613333
 11
7.7960608245
 21
5.9229613333
  0
LINE
  5
3B8
100
AcDbEntity
  8
0
100
AcDbLine
 62
6
  6
CONTINUOUS
 10
7.8036839902
 20
5.9979613333
 11
7.8036839902
 21
5.9229613333
  0
LINE
  5
3B9
100
AcDbEntity
  8
0
100
AcDbLine
 62
6
  6
CONTINUOUS
 10
7.8208912833
 20
5.9979613333
 11
7.8208912833
 21
5.9229613333
  0
LINE
  5
3BA
100
AcDbEntity
  8
0
100
AcDbLine
 62
6
  6
CONTINUOUS
 10
7.8289042327
 20
5.9979613333
 11
7.8289042327
 21
5.9229613333
  0
LINE
  5
3BB
100
AcDbEntity
  8
0
100
AcDbLine
 62
6
  6
CONTINUOUS
 10
7.8469586834
 20
5.9979613333
 11
7.8469586834
 21
5.9229613333
  0
LINE
  5
3BC
100
AcDbEntity
  8
0
100
AcDbLine
 62
6
  6
CONTINUOUS
 10
7.8553516538
 20
5.9979613333
 11
7.8553516538
 21
5.9229613333
  0
LINE
  5
3BD
100
AcDbEntity
  8
0
100
AcDbLine
 62
6
  6
CONTINUOUS
 10
7.8742312655
 20
5.9979613333
 11
7.8742312655
 21
5.9229613333
  0
LINE
  5
3BE
100
AcDbEntity
  8
0
100
AcDbLine
 62
6
  6
CONTINUOUS
 10
7.8829940314
 20
5.9979613333
 11
7.8829940314
 21
5.9229613333
  0
LINE
  5
3BF
100
AcDbEntity
  8
0
100
AcDbLine
 62
6
  6
CONTINUOUS
 10
7.9026758023
 20
5.9979613333
 11
7.9026758023
 21
5.9229613333
  0
LINE
  5
3C0
100
AcDbEntity
  8
0
100
AcDbLine
 62
6
  6
CONTINUOUS
 10
7.9117976876
 20
5.9979613333
 11
7.9117976876
 21
5.9229613333
  0
LINE
  5
3C1
100
AcDbEntity
  8
0
100
AcDbLine
 62
6
  6
CONTINUOUS
 10
7.9322576384
 20
5.9979613333
 11
7.9322576384
 21
5.9229613333
  0
LINE
  5
3C2
100
AcDbEntity
  8
0
100
AcDbLine
 62
6
  6
CONTINUOUS
 10
7.9417275295
 20
5.9979613333
 11
7.9417275295
 21
5.9229613333
  0
LINE
  5
3C3
100
AcDbEntity
  8
0
100
AcDbLine
 62
6
  6
CONTINUOUS
 10
7.9629407329
 20
5.9979613333
 11
7.9629407329
 21
5.9229613333
  0
LINE
  5
3C4
100
AcDbEntity
  8
0
100
AcDbLine
 62
6
  6
CONTINUOUS
 10
7.9727470923
 20
5.9979613333
 11
7.9727470923
 21
5.9229613333
  0
LINE
  5
3C5
100
AcDbEntity
  8
0
100
AcDbLine
 62
9
  6
CONTINUOUS
 10
8.1710442862
 20
3.5464570103
 11
8.1707733909
 21
3.5462826205
  0
LINE
  5
3C6
100
AcDbEntity
  8
0
100
AcDbLine
 62
6
  6
CONTINUOUS
 10
8.1799263977
 20
3.55105673
 11
8.1707733909
 21
3.5462826205
  0
LWPOLYLINE
  5
3C7
100
AcDbEntity
  8
0
100
AcDbPolyline
 62
6
  6
CONTINUOUS
 90
18
 70
0
 10
8.2630408872
 20
2.7637133034
 10
8.2632241856
 20
2.761191521
 10
8.2634086128
 20
2.758864505
 10
8.2635957809
 20
2.7567161577
 10
8.2637884333
 20
2.754724128
 10
8.2639908791
 20
2.7528609903
 10
8.2642088013
 20
2.751101789
 10
8.2644532171
 20
2.7494011335
 10
8.2647461992
 20
2.7476817765
 10
8.2651341986
 20
2.7458148335
 10
8.2657210749
 20
2.7435869174
 10
8.2667397974
 20
2.7406918618
 10
8.2686102881
 20
2.736952094
 10
8.2719081713
 20
2.7325576822
 10
8.2767529651
 20
2.7283480338
 10
8.2829744278
 20
2.7250494466
 10
8.2903306962
 20
2.7232865184
 10
8.2928409347
 20
2.7231635552
  0
LWPOLYLINE
  5
3C8
100
AcDbEntity
  8
0
100
AcDbPolyline
 62
6
  6
CONTINUOUS
 90
15
 70
0
 10
8.338958966
 20
3.5276336571
 10
8.3388655389
 20
3.5289680425
 10
8.338761771
 20
3.5302559546
 10
8.3386416104
 20
3.5315243018
 10
8.3384916742
 20
3.5328346582
 10
8.3382808802
 20
3.5343077395
 10
8.3379322912
 20
3.5361670608
 10
8.3372800144
 20
3.5386842431
 10
8.3360288945
 20
3.5420220719
 10
8.3338418802
 20
3.5459444625
 10
8.3303346307
 20
3.5501363676
 10
8.3254602064
 20
3.5539826599
 10
8.3194238384
 20
3.5568926957
 10
8.3125431387
 20
3.5583548196
 10
8.3105045771
 20
3.5584363183
  0
LINE
  5
3C9
100
AcDbEntity
  8
0
100
AcDbLine
 62
6
  6
CONTINUOUS
 10
8.2628576572
 20
2.766443062
 11
8.2630408872
 21
2.7637133034
  0
LINE
  5
3CA
100
AcDbEntity
  8
0
100
AcDbLine
 62
6
  6
CONTINUOUS
 10
8.3389816286
 20
3.5272831304
 11
8.338958966
 21
3.5276336571
  0
LINE
  5
3CB
100
AcDbEntity
  8
0
100
AcDbLine
 62
6
  6
CONTINUOUS
 10
8.2624887374
 20
2.7725698021
 11
8.2628576572
 21
2.766443062
  0
LINE
  5
3CC
100
AcDbEntity
  8
0
100
AcDbLine
 62
6
  6
CONTINUOUS
 10
8.3183106756
 20
2.7732451081
 11
8.3179326561
 21
2.7800306285
  0
LINE
  5
3CD
100
AcDbEntity
  8
0
100
AcDbLine
 62
6
  6
CONTINUOUS
 10
8.2621138517
 20
2.7796455439
 11
8.2624887374
 21
2.7725698021
  0
LINE
  5
3CE
100
AcDbEntity
  8
0
100
AcDbLine
 62
6
  6
CONTINUOUS
 10
8.3179326561
 20
2.7800306285
 11
8.3175353082
 21
2.7881353279
  0
LINE
  5
3CF
100
AcDbEntity
  8
0
100
AcDbLine
 62
6
  6
CONTINUOUS
 10
8.2617311139
 20
2.7877290083
 11
8.2621138517
 21
2.7796455439
  0
LINE
  5
3D0
100
AcDbEntity
  8
0
100
AcDbLine
 62
6
  6
CONTINUOUS
 10
8.3175353082
 20
2.7881353279
 11
8.3171206685
 21
2.7975992525
  0
LINE
  5
3D1
100
AcDbEntity
  8
0
100
AcDbLine
 62
6
  6
CONTINUOUS
 10
8.2611397727
 20
2.8018535835
 11
8.2617311139
 21
2.7877290083
  0
LINE
  5
3D2
100
AcDbEntity
  8
0
100
AcDbLine
 62
6
  6
CONTINUOUS
 10
8.3171206685
 20
2.7975992525
 11
8.316465067
 21
2.8145263141
  0
LINE
  5
3D3
100
AcDbEntity
  8
0
100
AcDbLine
 62
6
  6
CONTINUOUS
 10
8.2603080765
 20
2.8248538615
 11
8.2611397727
 21
2.8018535835
  0
LINE
  5
3D4
100
AcDbEntity
  8
0
100
AcDbLine
 62
6
  6
CONTINUOUS
 10
8.316465067
 20
2.8145263141
 11
8.3155198086
 21
2.8427795446
  0
LWPOLYLINE
  5
3D5
100
AcDbEntity
  8
0
100
AcDbPolyline
 62
6
  6
CONTINUOUS
 90
19
 70
0
 10
8.3140358569
 20
2.8948977734
 10
8.3127532019
 20
2.9361513356
 10
8.3107695571
 20
2.9856378466
 10
8.3081912096
 20
3.038270144
 10
8.3050190835
 20
3.0929659947
 10
8.3012518763
 20
3.1486347026
 10
8.2968682319
 20
3.2043910903
 10
8.2918350917
 20
3.2593307336
 10
8.2861922037
 20
3.3117763201
 10
8.2800430795
 20
3.3599193254
 10
8.2734673631
 20
3.4027142879
 10
8.2665179715
 20
3.4396697082
 10
8.2592215103
 20
3.4706689975
 10
8.251539374
 20
3.4959627443
 10
8.2432854046
 20
3.5161244714
 10
8.2339111702
 20
3.5319766231
 10
8.2216779227
 20
3.5446574119
 10
8.2048876039
 20
3.552895958
 10
8.1951990108
 20
3.5540940265
  0
LINE
  5
3D6
100
AcDbEntity
  8
0
100
AcDbLine
 62
6
  6
CONTINUOUS
 10
8.2591695217
 20
2.8616212452
 11
8.2603080765
 21
2.8248538615
  0
LINE
  5
3D7
100
AcDbEntity
  8
0
100
AcDbLine
 62
6
  6
CONTINUOUS
 10
8.2582720635
 20
2.8942723529
 11
8.2591695217
 21
2.8616212452
  0
LINE
  5
3D8
100
AcDbEntity
  8
0
100
AcDbLine
 62
6
  6
CONTINUOUS
 10
8.3155198086
 20
2.8427795446
 11
8.3140358471
 21
2.8948981443
  0
LINE
  5
3D9
100
AcDbEntity
  8
0
100
AcDbLine
 62
7
  6
CONTINUOUS
 10
7.9939473732
 20
5.9229613333
 11
7.9939473732
 21
5.9979613333
  0
LINE
  5
3DA
100
AcDbEntity
  8
0
100
AcDbLine
 62
7
  6
CONTINUOUS
 10
7.9946877033
 20
5.9979613333
 11
7.9946877033
 21
5.9229613333
  0
LINE
  5
3DB
100
AcDbEntity
  8
0
100
AcDbLine
 62
6
  6
CONTINUOUS
 10
8.0048185833
 20
5.9979613333
 11
8.0048185833
 21
5.9229613333
  0
LINE
  5
3DC
100
AcDbEntity
  8
0
100
AcDbLine
 62
6
  6
CONTINUOUS
 10
8.0259801124
 20
5.9229613333
 11
8.0259801124
 21
5.9979613333
  0
LINE
  5
3DD
100
AcDbEntity
  8
0
100
AcDbLine
 62
6
  6
CONTINUOUS
 10
8.0274598707
 20
5.9979613333
 11
8.0274598707
 21
5.9229613333
  0
LINE
  5
3DE
100
AcDbEntity
  8
0
100
AcDbLine
 62
6
  6
CONTINUOUS
 10
8.0379029284
 20
5.9979613333
 11
8.0379029284
 21
5.9229613333
  0
LINE
  5
3DF
100
AcDbEntity
  8
0
100
AcDbLine
 62
7
  6
CONTINUOUS
 10
8.0589999237
 20
5.9229613333
 11
8.0589999237
 21
5.9979613333
  0
LINE
  5
3E0
100
AcDbEntity
  8
0
100
AcDbLine
 62
7
  6
CONTINUOUS
 10
8.0612173073
 20
5.9979613333
 11
8.0612173073
 21
5.9229613333
  0
LINE
  5
3E1
100
AcDbEntity
  8
0
100
AcDbLine
 62
6
  6
CONTINUOUS
 10
8.0719598195
 20
5.9979613333
 11
8.0719598195
 21
5.9229613333
  0
LINE
  5
3E2
100
AcDbEntity
  8
0
100
AcDbLine
 62
6
  6
CONTINUOUS
 10
8.0929665775
 20
5.9229613333
 11
8.0929665775
 21
5.9979613333
  0
LINE
  5
3E3
100
AcDbEntity
  8
0
100
AcDbLine
 62
6
  6
CONTINUOUS
 10
8.0959188848
 20
5.9979613333
 11
8.0959188848
 21
5.9229613333
  0
LINE
  5
3E4
100
AcDbEntity
  8
0
100
AcDbLine
 62
6
  6
CONTINUOUS
 10
8.0961539658
 20
5.5479613333
 11
8.0961539658
 21
5.6229613333
  0
LINE
  5
3E5
100
AcDbEntity
  8
0
100
AcDbLine
 62
6
  6
CONTINUOUS
 10
8.1069477634
 20
5.9979613333
 11
8.1069477634
 21
5.9229613333
  0
LINE
  5
3E6
100
AcDbEntity
  8
0
100
AcDbLine
 62
6
  6
CONTINUOUS
 10
8.1278386906
 20
5.9229613333
 11
8.1278386906
 21
5.9979613333
  0
LINE
  5
3E7
100
AcDbEntity
  8
0
100
AcDbLine
 62
6
  6
CONTINUOUS
 10
8.1315223248
 20
5.9979613333
 11
8.1315223248
 21
5.9229613333
  0
LINE
  5
3E8
100
AcDbEntity
  8
0
100
AcDbLine
 62
7
  6
CONTINUOUS
 10
8.1428241328
 20
5.9979613333
 11
8.1428241328
 21
5.9229613333
  0
LINE
  5
3E9
100
AcDbEntity
  8
0
100
AcDbLine
 62
6
  6
CONTINUOUS
 10
8.1461539658
 20
5.7229613333
 11
8.1461539658
 21
5.6229613333
  0
LINE
  5
3EA
100
AcDbEntity
  8
0
100
AcDbLine
 62
7
  6
CONTINUOUS
 10
8.1635737768
 20
5.9229613333
 11
8.1635737768
 21
5.9979613333
  0
LINE
  5
3EB
100
AcDbEntity
  8
0
100
AcDbLine
 62
6
  6
CONTINUOUS
 10
8.1679842498
 20
5.9979613333
 11
8.1679842498
 21
5.9229613333
  0
LINE
  5
3EC
100
AcDbEntity
  8
0
100
AcDbLine
 62
6
  6
CONTINUOUS
 10
8.1795452177
 20
5.9979613333
 11
8.1795452177
 21
5.9229613333
  0
LINE
  5
3ED
100
AcDbEntity
  8
0
100
AcDbLine
 62
9
  6
CONTINUOUS
 10
8.1837945089
 20
2.7404613333
 11
8.1837945089
 21
3.5404613333
  0
LINE
  5
3EE
100
AcDbEntity
  8
0
100
AcDbLine
 62
6
  6
CONTINUOUS
 10
8.2001282984
 20
5.9229613333
 11
8.2001282984
 21
5.9979613333
  0
LINE
  5
3EF
100
AcDbEntity
  8
0
100
AcDbLine
 62
6
  6
CONTINUOUS
 10
8.2052602368
 20
5.9979613333
 11
8.2052602368
 21
5.9229613333
  0
LINE
  5
3F0
100
AcDbEntity
  8
0
100
AcDbLine
 62
6
  6
CONTINUOUS
 10
8.2170662793
 20
5.9979613333
 11
8.2170662793
 21
5.9229613333
  0
LINE
  5
3F1
100
AcDbEntity
  8
0
100
AcDbLine
 62
6
  6
CONTINUOUS
 10
8.2374577192
 20
5.9229613333
 11
8.2374577192
 21
5.9979613333
  0
LINE
  5
3F2
100
AcDbEntity
  8
0
100
AcDbLine
 62
6
  6
CONTINUOUS
 10
8.2433048705
 20
5.9979613333
 11
8.2433048705
 21
5.9229613333
  0
LINE
  5
3F3
100
AcDbEntity
  8
0
100
AcDbLine
 62
6
  6
CONTINUOUS
 10
8.2553416039
 20
5.9979613333
 11
8.2553416039
 21
5.9229613333
  0
LINE
  5
3F4
100
AcDbEntity
  8
0
100
AcDbLine
 62
9
  6
CONTINUOUS
 10
8.2664742373
 20
3.4398555143
 11
8.2664742373
 21
3.4967113333
  0
LINE
  5
3F5
100
AcDbEntity
  8
0
100
AcDbLine
 62
6
  6
CONTINUOUS
 10
8.2691539658
 20
5.4214613333
 11
8.2691539658
 21
5.3949613333
  0
LINE
  5
3F6
100
AcDbEntity
  8
0
100
AcDbLine
 62
6
  6
CONTINUOUS
 10
8.2755165592
 20
5.9229613333
 11
8.2755165592
 21
5.9979613333
  0
LINE
  5
3F7
100
AcDbEntity
  8
0
100
AcDbLine
 62
6
  6
CONTINUOUS
 10
8.2820717996
 20
5.9979613333
 11
8.2820717996
 21
5.9229613333
  0
LINE
  5
3F8
100
AcDbEntity
  8
0
100
AcDbLine
 62
6
  6
CONTINUOUS
 10
8.170943173
 20
3.546371177
 11
8.1639812598
 21
3.5404613333
  0
LINE
  5
3F9
100
AcDbEntity
  8
0
100
AcDbLine
 62
6
  6
CONTINUOUS
 10
7.6361539658
 20
6.1979613333
 11
7.5861539658
 21
6.2479613333
  0
LWPOLYLINE
  5
3FA
100
AcDbEntity
  8
0
100
AcDbPolyline
 62
6
  6
CONTINUOUS
 90
11
 70
0
 10
8.3195231891
 20
2.7584302037
 10
8.3195215871
 20
2.7584399237
 10
8.3194762617
 20
2.7587469138
 10
8.3193884485
 20
2.759432978
 10
8.3192731701
 20
2.7604630696
 10
8.3191390068
 20
2.7618170311
 10
8.3189911545
 20
2.7634832704
 10
8.3188327317
 20
2.7654576817
 10
8.3186657003
 20
2.7677407125
 10
8.3184913753
 20
2.770335155
 10
8.3183106756
 20
2.7732451081
  0
LINE
  5
3FB
100
AcDbEntity
  8
0
100
AcDbLine
 62
6
  6
CONTINUOUS
 10
8.2943245588
 20
5.9979613333
 11
8.2943245588
 21
5.9229613333
  0
LINE
  5
3FC
100
AcDbEntity
  8
0
100
AcDbLine
 62
6
  6
CONTINUOUS
 10
8.3142584496
 20
5.9229613333
 11
8.3142584496
 21
5.9979613333
  0
LINE
  5
3FD
100
AcDbEntity
  8
0
100
AcDbLine
 62
6
  6
CONTINUOUS
 10
8.3215137924
 20
5.9979613333
 11
8.3215137924
 21
5.9229613333
  0
LINE
  5
3FE
100
AcDbEntity
  8
0
100
AcDbLine
 62
6
  6
CONTINUOUS
 10
8.3339676494
 20
5.9979613333
 11
8.3339676494
 21
5.9229613333
  0
LINE
  5
3FF
100
AcDbEntity
  8
0
100
AcDbLine
 62
6
  6
CONTINUOUS
 10
8.3361539658
 20
3.5079613333
 11
8.3361539658
 21
3.4579613333
  0
LINE
  5
400
100
AcDbEntity
  8
0
100
AcDbLine
 62
6
  6
CONTINUOUS
 10
8.3361539658
 20
2.8229613333
 11
8.3361539658
 21
2.7729613333
  0
LINE
  5
401
100
AcDbEntity
  8
0
100
AcDbLine
 62
9
  6
CONTINUOUS
 10
8.3491539658
 20
2.8439187004
 11
8.3491539658
 21
3.4370042758
  0
LINE
  5
402
100
AcDbEntity
  8
0
100
AcDbLine
 62
6
  6
CONTINUOUS
 10
8.3536361892
 20
5.9229613333
 11
8.3536361892
 21
5.9979613333
  0
LINE
  5
403
100
AcDbEntity
  8
0
100
AcDbLine
 62
6
  6
CONTINUOUS
 10
8.3615827951
 20
5.9979613333
 11
8.3615827951
 21
5.9229613333
  0
LINE
  5
404
100
AcDbEntity
  8
0
100
AcDbLine
 62
6
  6
CONTINUOUS
 10
8.3742225767
 20
5.9979613333
 11
8.3742225767
 21
5.9229613333
  0
LINE
  5
405
100
AcDbEntity
  8
0
100
AcDbLine
 62
6
  6
CONTINUOUS
 10
8.3936018024
 20
5.9229613333
 11
8.3936018024
 21
5.9979613333
  0
LINE
  5
406
100
AcDbEntity
  8
0
100
AcDbLine
 62
6
  6
CONTINUOUS
 10
8.3961539658
 20
5.2679613333
 11
8.3961539658
 21
5.2419613333
  0
LINE
  5
407
100
AcDbEntity
  8
0
100
AcDbLine
 62
6
  6
CONTINUOUS
 10
8.4022299895
 20
5.9979613333
 11
8.4022299895
 21
5.9229613333
  0
LINE
  5
408
100
AcDbEntity
  8
0
100
AcDbLine
 62
6
  6
CONTINUOUS
 10
8.4150402963
 20
5.9979613333
 11
8.4150402963
 21
5.9229613333
  0
LINE
  5
409
100
AcDbEntity
  8
0
100
AcDbLine
 62
9
  6
CONTINUOUS
 10
8.4241539658
 20
2.9982475952
 11
8.4241539658
 21
3.2827408206
  0
LINE
  5
40A
100
AcDbEntity
  8
0
100
AcDbLine
 62
6
  6
CONTINUOUS
 10
8.4341065972
 20
5.9229613333
 11
8.4341065972
 21
5.9979613333
  0
LINE
  5
40B
100
AcDbEntity
  8
0
100
AcDbLine
 62
6
  6
CONTINUOUS
 10
8.4434058535
 20
5.9979613333
 11
8.4434058535
 21
5.9229613333
  0
LINE
  5
40C
100
AcDbEntity
  8
0
100
AcDbLine
 62
6
  6
CONTINUOUS
 10
8.456371078
 20
5.9979613333
 11
8.456371078
 21
5.9229613333
  0
LINE
  5
40D
100
AcDbEntity
  8
0
100
AcDbLine
 62
6
  6
CONTINUOUS
 10
8.4736539658
 20
2.6979613333
 11
8.4736539658
 21
2.6479613333
  0
LINE
  5
40E
100
AcDbEntity
  8
0
100
AcDbLine
 62
6
  6
CONTINUOUS
 10
8.4751012249
 20
5.9229613333
 11
8.4751012249
 21
5.9979613333
  0
LINE
  5
40F
100
AcDbEntity
  8
0
100
AcDbLine
 62
6
  6
CONTINUOUS
 10
8.4850602206
 20
5.9979613333
 11
8.4850602206
 21
5.9229613333
  0
LINE
  5
410
100
AcDbEntity
  8
0
100
AcDbLine
 62
6
  6
CONTINUOUS
 10
8.4861539658
 20
5.2419613333
 11
8.4861539658
 21
4.7209613333
  0
LINE
  5
411
100
AcDbEntity
  8
0
100
AcDbLine
 62
6
  6
CONTINUOUS
 10
8.4861539658
 20
4.5249613333
 11
8.4861539658
 21
3.5079613333
  0
LINE
  5
412
100
AcDbEntity
  8
0
100
AcDbLine
 62
6
  6
CONTINUOUS
 10
8.4981645666
 20
5.9979613333
 11
8.4981645666
 21
5.9229613333
  0
LINE
  5
413
100
AcDbEntity
  8
0
100
AcDbLine
 62
6
  6
CONTINUOUS
 10
8.5165357396
 20
5.9229613333
 11
8.5165357396
 21
5.9979613333
  0
LINE
  5
414
100
AcDbEntity
  8
0
100
AcDbLine
 62
6
  6
CONTINUOUS
 10
8.5271423414
 20
5.9979613333
 11
8.5271423414
 21
5.9229613333
  0
LINE
  5
415
100
AcDbEntity
  8
0
100
AcDbLine
 62
6
  6
CONTINUOUS
 10
8.5403698432
 20
5.9979613333
 11
8.5403698432
 21
5.9229613333
  0
LINE
  5
416
100
AcDbEntity
  8
0
100
AcDbLine
 62
6
  6
CONTINUOUS
 10
8.55835966
 20
5.9229613333
 11
8.55835966
 21
5.9979613333
  0
LINE
  5
417
100
AcDbEntity
  8
0
100
AcDbLine
 62
6
  6
CONTINUOUS
 10
8.5696009452
 20
5.9979613333
 11
8.5696009452
 21
5.9229613333
  0
LINE
  5
418
100
AcDbEntity
  8
0
100
AcDbLine
 62
6
  6
CONTINUOUS
 10
8.5829354872
 20
5.9979613333
 11
8.5829354872
 21
5.9229613333
  0
LINE
  5
419
100
AcDbEntity
  8
0
100
AcDbLine
 62
6
  6
CONTINUOUS
 10
8.6005220299
 20
5.9229613333
 11
8.6005220299
 21
5.9979613333
  0
LINE
  5
41A
100
AcDbEntity
  8
0
100
AcDbLine
 62
6
  6
CONTINUOUS
 10
8.3355777848
 20
3.4542870146
 11
8.3356760643
 21
3.4590461115
  0
LINE
  5
41B
100
AcDbEntity
  8
0
100
AcDbLine
 62
6
  6
CONTINUOUS
 10
8.280842922
 20
3.4984028065
 11
8.2803769873
 21
3.4805960263
  0
LINE
  5
41C
100
AcDbEntity
  8
0
100
AcDbLine
 62
6
  6
CONTINUOUS
 10
8.3244781695
 20
2.8076673006
 11
8.3249907847
 21
2.8246239564
  0
LINE
  5
41D
100
AcDbEntity
  8
0
100
AcDbLine
 62
6
  6
CONTINUOUS
 10
8.2811297855
 20
3.5076854526
 11
8.280842922
 21
3.4984028065
  0
LINE
  5
41E
100
AcDbEntity
  8
0
100
AcDbLine
 62
6
  6
CONTINUOUS
 10
8.336942574
 20
3.5079613333
 11
8.3371047263
 21
3.5123937963
  0
LINE
  5
41F
100
AcDbEntity
  8
0
100
AcDbLine
 62
6
  6
CONTINUOUS
 10
8.3238695254
 20
2.7904000665
 11
8.3244781695
 21
2.8076673006
  0
LINE
  5
420
100
AcDbEntity
  8
0
100
AcDbLine
 62
6
  6
CONTINUOUS
 10
8.2814016964
 20
3.5152221928
 11
8.2811297855
 21
3.5076854526
  0
LINE
  5
421
100
AcDbEntity
  8
0
100
AcDbLine
 62
6
  6
CONTINUOUS
 10
8.3234742656
 20
2.780824431
 11
8.3238695254
 21
2.7904000665
  0
LINE
  5
422
100
AcDbEntity
  8
0
100
AcDbLine
 62
6
  6
CONTINUOUS
 10
8.2815769598
 20
3.5194009668
 11
8.2814016964
 21
3.5152221928
  0
LWPOLYLINE
  5
423
100
AcDbEntity
  8
0
100
AcDbPolyline
 62
6
  6
CONTINUOUS
 90
3
 70
0
 10
8.3371047263
 20
3.5123937963
 10
8.3372904683
 20
3.5168473207
 10
8.3373026627
 20
3.5171074011
  0
LWPOLYLINE
  5
424
100
AcDbEntity
  8
0
100
AcDbPolyline
 62
6
  6
CONTINUOUS
 90
5
 70
0
 10
8.3225167271
 20
2.7628944087
 10
8.3227059269
 20
2.7658573854
 10
8.3228958018
 20
2.7691141192
 10
8.3230869259
 20
2.7726831874
 10
8.3234742656
 20
2.780824431
  0
LINE
  5
425
100
AcDbEntity
  8
0
100
AcDbLine
 62
6
  6
CONTINUOUS
 10
8.6123843028
 20
5.9979613333
 11
8.6123843028
 21
5.9229613333
  0
LINE
  5
426
100
AcDbEntity
  8
0
100
AcDbLine
 62
6
  6
CONTINUOUS
 10
8.625809639
 20
5.9979613333
 11
8.625809639
 21
5.9229613333
  0
LINE
  5
427
100
AcDbEntity
  8
0
100
AcDbLine
 62
6
  6
CONTINUOUS
 10
8.6429714811
 20
5.9229613333
 11
8.6429714811
 21
5.9979613333
  0
LINE
  5
428
100
AcDbEntity
  8
0
100
AcDbLine
 62
6
  6
CONTINUOUS
 10
8.6554402892
 20
5.9979613333
 11
8.6554402892
 21
5.9229613333
  0
LINE
  5
429
100
AcDbEntity
  8
0
100
AcDbLine
 62
6
  6
CONTINUOUS
 10
8.6689400629
 20
5.9979613333
 11
8.6689400629
 21
5.9229613333
  0
LINE
  5
42A
100
AcDbEntity
  8
0
100
AcDbLine
 62
6
  6
CONTINUOUS
 10
8.6856562953
 20
5.9229613333
 11
8.6856562953
 21
5.9979613333
  0
LINE
  5
42B
100
AcDbEntity
  8
0
100
AcDbLine
 62
6
  6
CONTINUOUS
 10
8.6987164474
 20
5.9979613333
 11
8.6987164474
 21
5.9229613333
  0
LINE
  5
42C
100
AcDbEntity
  8
0
100
AcDbLine
 62
6
  6
CONTINUOUS
 10
8.7122742112
 20
5.9979613333
 11
8.7122742112
 21
5.9229613333
  0
LINE
  5
42D
100
AcDbEntity
  8
0
100
AcDbLine
 62
6
  6
CONTINUOUS
 10
8.7285244678
 20
5.9229613333
 11
8.7285244678
 21
5.9979613333
  0
LINE
  5
42E
100
AcDbEntity
  8
0
100
AcDbLine
 62
6
  6
CONTINUOUS
 10
8.7421600521
 20
5.9979613333
 11
8.7421600521
 21
5.9229613333
  0
LINE
  5
42F
100
AcDbEntity
  8
0
100
AcDbLine
 62
6
  6
CONTINUOUS
 10
8.7557592879
 20
5.9979613333
 11
8.7557592879
 21
5.9229613333
  0
LINE
  5
430
100
AcDbEntity
  8
0
100
AcDbLine
 62
6
  6
CONTINUOUS
 10
8.7715237702
 20
5.9229613333
 11
8.7715237702
 21
5.9979613333
  0
LINE
  5
431
100
AcDbEntity
  8
0
100
AcDbLine
 62
6
  6
CONTINUOUS
 10
8.7857181739
 20
5.9979613333
 11
8.7857181739
 21
5.9229613333
  0
LINE
  5
432
100
AcDbEntity
  8
0
100
AcDbLine
 62
6
  6
CONTINUOUS
 10
8.7993423131
 20
5.9979613333
 11
8.7993423131
 21
5.9229613333
  0
LINE
  5
433
100
AcDbEntity
  8
0
100
AcDbLine
 62
6
  6
CONTINUOUS
 10
8.8146018146
 20
5.9229613333
 11
8.8146018146
 21
5.9979613333
  0
LINE
  5
434
100
AcDbEntity
  8
0
100
AcDbLine
 62
6
  6
CONTINUOUS
 10
8.8293377439
 20
5.9979613333
 11
8.8293377439
 21
5.9229613333
  0
LINE
  5
435
100
AcDbEntity
  8
0
100
AcDbLine
 62
6
  6
CONTINUOUS
 10
8.8429701876
 20
5.9979613333
 11
8.8429701876
 21
5.9229613333
  0
LINE
  5
436
100
AcDbEntity
  8
0
100
AcDbLine
 62
6
  6
CONTINUOUS
 10
8.857706117
 20
5.9229613333
 11
8.857706117
 21
5.9979613333
  0
LINE
  5
437
100
AcDbEntity
  8
0
100
AcDbLine
 62
6
  6
CONTINUOUS
 10
8.8729656185
 20
5.9979613333
 11
8.8729656185
 21
5.9229613333
  0
LINE
  5
438
100
AcDbEntity
  8
0
100
AcDbLine
 62
6
  6
CONTINUOUS
 10
8.8865897577
 20
5.9979613333
 11
8.8865897577
 21
5.9229613333
  0
LINE
  5
439
100
AcDbEntity
  8
0
100
AcDbLine
 62
6
  6
CONTINUOUS
 10
8.9007841613
 20
5.9229613333
 11
8.9007841613
 21
5.9979613333
  0
LINE
  5
43A
100
AcDbEntity
  8
0
100
AcDbLine
 62
6
  6
CONTINUOUS
 10
8.9165486437
 20
5.9979613333
 11
8.9165486437
 21
5.9229613333
  0
LINE
  5
43B
100
AcDbEntity
  8
0
100
AcDbLine
 62
6
  6
CONTINUOUS
 10
8.9301478795
 20
5.9979613333
 11
8.9301478795
 21
5.9229613333
  0
LINE
  5
43C
100
AcDbEntity
  8
0
100
AcDbLine
 62
6
  6
CONTINUOUS
 10
8.9437834638
 20
5.9229613333
 11
8.9437834638
 21
5.9979613333
  0
LINE
  5
43D
100
AcDbEntity
  8
0
100
AcDbLine
 62
6
  6
CONTINUOUS
 10
8.9600337204
 20
5.9979613333
 11
8.9600337204
 21
5.9229613333
  0
LINE
  5
43E
100
AcDbEntity
  8
0
100
AcDbLine
 62
6
  6
CONTINUOUS
 10
8.9735914841
 20
5.9979613333
 11
8.9735914841
 21
5.9229613333
  0
LINE
  5
43F
100
AcDbEntity
  8
0
100
AcDbLine
 62
6
  6
CONTINUOUS
 10
8.9866516363
 20
5.9229613333
 11
8.9866516363
 21
5.9979613333
  0
LINE
  5
440
100
AcDbEntity
  8
0
100
AcDbLine
 62
6
  6
CONTINUOUS
 10
9.0033678687
 20
5.9979613333
 11
9.0033678687
 21
5.9229613333
  0
LINE
  5
441
100
AcDbEntity
  8
0
100
AcDbLine
 62
6
  6
CONTINUOUS
 10
9.0168676424
 20
5.9979613333
 11
9.0168676424
 21
5.9229613333
  0
LINE
  5
442
100
AcDbEntity
  8
0
100
AcDbLine
 62
6
  6
CONTINUOUS
 10
9.0293364505
 20
5.9229613333
 11
9.0293364505
 21
5.9979613333
  0
LINE
  5
443
100
AcDbEntity
  8
0
100
AcDbLine
 62
6
  6
CONTINUOUS
 10
9.0464982926
 20
5.9979613333
 11
9.0464982926
 21
5.9229613333
  0
LINE
  5
444
100
AcDbEntity
  8
0
100
AcDbLine
 62
6
  6
CONTINUOUS
 10
9.0599236288
 20
5.9979613333
 11
9.0599236288
 21
5.9229613333
  0
LINE
  5
445
100
AcDbEntity
  8
0
100
AcDbLine
 62
6
  6
CONTINUOUS
 10
9.0717859017
 20
5.9229613333
 11
9.0717859017
 21
5.9979613333
  0
LINE
  5
446
100
AcDbEntity
  8
0
100
AcDbLine
 62
6
  6
CONTINUOUS
 10
9.0893724443
 20
5.9979613333
 11
9.0893724443
 21
5.9229613333
  0
LINE
  5
447
100
AcDbEntity
  8
0
100
AcDbLine
 62
6
  6
CONTINUOUS
 10
9.1027069864
 20
5.9979613333
 11
9.1027069864
 21
5.9229613333
  0
LINE
  5
448
100
AcDbEntity
  8
0
100
AcDbLine
 62
6
  6
CONTINUOUS
 10
9.1139482716
 20
5.9229613333
 11
9.1139482716
 21
5.9979613333
  0
LINE
  5
449
100
AcDbEntity
  8
0
100
AcDbLine
 62
6
  6
CONTINUOUS
 10
9.1319380884
 20
5.9979613333
 11
9.1319380884
 21
5.9229613333
  0
LINE
  5
44A
100
AcDbEntity
  8
0
100
AcDbLine
 62
6
  6
CONTINUOUS
 10
9.1451655902
 20
5.9979613333
 11
9.1451655902
 21
5.9229613333
  0
LINE
  5
44B
100
AcDbEntity
  8
0
100
AcDbLine
 62
6
  6
CONTINUOUS
 10
9.1557721919
 20
5.9229613333
 11
9.1557721919
 21
5.9979613333
  0
LINE
  5
44C
100
AcDbEntity
  8
0
100
AcDbLine
 62
6
  6
CONTINUOUS
 10
9.174143365
 20
5.9979613333
 11
9.174143365
 21
5.9229613333
  0
LINE
  5
44D
100
AcDbEntity
  8
0
100
AcDbLine
 62
6
  6
CONTINUOUS
 10
9.1861539658
 20
5.2419613333
 11
9.1861539658
 21
3.5079613333
  0
LINE
  5
44E
100
AcDbEntity
  8
0
100
AcDbLine
 62
6
  6
CONTINUOUS
 10
9.187247711
 20
5.9979613333
 11
9.187247711
 21
5.9229613333
  0
LINE
  5
44F
100
AcDbEntity
  8
0
100
AcDbLine
 62
6
  6
CONTINUOUS
 10
9.1972067067
 20
5.9229613333
 11
9.1972067067
 21
5.9979613333
  0
LINE
  5
450
100
AcDbEntity
  8
0
100
AcDbLine
 62
6
  6
CONTINUOUS
 10
9.1986539658
 20
2.6979613333
 11
9.1986539658
 21
2.6479613333
  0
LINE
  5
451
100
AcDbEntity
  8
0
100
AcDbLine
 62
6
  6
CONTINUOUS
 10
9.2159368536
 20
5.9979613333
 11
9.2159368536
 21
5.9229613333
  0
LINE
  5
452
100
AcDbEntity
  8
0
100
AcDbLine
 62
6
  6
CONTINUOUS
 10
9.228902078
 20
5.9979613333
 11
9.228902078
 21
5.9229613333
  0
LINE
  5
453
100
AcDbEntity
  8
0
100
AcDbLine
 62
6
  6
CONTINUOUS
 10
9.2382013344
 20
5.9229613333
 11
9.2382013344
 21
5.9979613333
  0
LINE
  5
454
100
AcDbEntity
  8
0
100
AcDbLine
 62
6
  6
CONTINUOUS
 10
9.2572676353
 20
5.9979613333
 11
9.2572676353
 21
5.9229613333
  0
LINE
  5
455
100
AcDbEntity
  8
0
100
AcDbLine
 62
6
  6
CONTINUOUS
 10
9.270077942
 20
5.9979613333
 11
9.270077942
 21
5.9229613333
  0
LINE
  5
456
100
AcDbEntity
  8
0
100
AcDbLine
 62
6
  6
CONTINUOUS
 10
9.2761539658
 20
5.2679613333
 11
9.2761539658
 21
5.2419613333
  0
LINE
  5
457
100
AcDbEntity
  8
0
100
AcDbLine
 62
6
  6
CONTINUOUS
 10
9.2787061292
 20
5.9229613333
 11
9.2787061292
 21
5.9979613333
  0
LINE
  5
458
100
AcDbEntity
  8
0
100
AcDbLine
 62
6
  6
CONTINUOUS
 10
9.2980853548
 20
5.9979613333
 11
9.2980853548
 21
5.9229613333
  0
LINE
  5
459
100
AcDbEntity
  8
0
100
AcDbLine
 62
6
  6
CONTINUOUS
 10
9.3107251365
 20
5.9979613333
 11
9.3107251365
 21
5.9229613333
  0
LINE
  5
45A
100
AcDbEntity
  8
0
100
AcDbLine
 62
6
  6
CONTINUOUS
 10
9.3186717424
 20
5.9229613333
 11
9.3186717424
 21
5.9979613333
  0
LINE
  5
45B
100
AcDbEntity
  8
0
100
AcDbLine
 62
6
  6
CONTINUOUS
 10
9.3361539658
 20
3.5079613333
 11
9.3361539658
 21
2.7729613333
  0
LINE
  5
45C
100
AcDbEntity
  8
0
100
AcDbLine
 62
6
  6
CONTINUOUS
 10
9.3383402821
 20
5.9979613333
 11
9.3383402821
 21
5.9229613333
  0
LINE
  5
45D
100
AcDbEntity
  8
0
100
AcDbLine
 62
6
  6
CONTINUOUS
 10
9.3507941391
 20
5.9979613333
 11
9.3507941391
 21
5.9229613333
  0
LINE
  5
45E
100
AcDbEntity
  8
0
100
AcDbLine
 62
6
  6
CONTINUOUS
 10
9.358049482
 20
5.9229613333
 11
9.358049482
 21
5.9979613333
  0
LINE
  5
45F
100
AcDbEntity
  8
0
100
AcDbLine
 62
6
  6
CONTINUOUS
 10
9.3779833728
 20
5.9979613333
 11
9.3779833728
 21
5.9229613333
  0
LINE
  5
460
100
AcDbEntity
  8
0
100
AcDbLine
 62
6
  6
CONTINUOUS
 10
9.390236132
 20
5.9979613333
 11
9.390236132
 21
5.9229613333
  0
LINE
  5
461
100
AcDbEntity
  8
0
100
AcDbLine
 62
6
  6
CONTINUOUS
 10
9.3967913724
 20
5.9229613333
 11
9.3967913724
 21
5.9979613333
  0
LINE
  5
462
100
AcDbEntity
  8
0
100
AcDbLine
 62
6
  6
CONTINUOUS
 10
9.4031539658
 20
5.4214613333
 11
9.4031539658
 21
5.3949613333
  0
LINE
  5
463
100
AcDbEntity
  8
0
100
AcDbLine
 62
6
  6
CONTINUOUS
 10
9.4169663277
 20
5.9979613333
 11
9.4169663277
 21
5.9229613333
  0
LINE
  5
464
100
AcDbEntity
  8
0
100
AcDbLine
 62
6
  6
CONTINUOUS
 10
9.4290030611
 20
5.9979613333
 11
9.4290030611
 21
5.9229613333
  0
LINE
  5
465
100
AcDbEntity
  8
0
100
AcDbLine
 62
6
  6
CONTINUOUS
 10
9.4348502124
 20
5.9229613333
 11
9.4348502124
 21
5.9979613333
  0
LINE
  5
466
100
AcDbEntity
  8
0
100
AcDbLine
 62
6
  6
CONTINUOUS
 10
9.4552416523
 20
5.9979613333
 11
9.4552416523
 21
5.9229613333
  0
LINE
  5
467
100
AcDbEntity
  8
0
100
AcDbLine
 62
7
  6
CONTINUOUS
 10
9.4670476948
 20
5.9979613333
 11
9.4670476948
 21
5.9229613333
  0
LINE
  5
468
100
AcDbEntity
  8
0
100
AcDbLine
 62
7
  6
CONTINUOUS
 10
9.4721796332
 20
5.9229613333
 11
9.4721796332
 21
5.9979613333
  0
LINE
  5
469
100
AcDbEntity
  8
0
100
AcDbLine
 62
6
  6
CONTINUOUS
 10
9.4927627138
 20
5.9979613333
 11
9.4927627138
 21
5.9229613333
  0
LINE
  5
46A
100
AcDbEntity
  8
0
100
AcDbLine
 62
6
  6
CONTINUOUS
 10
9.5043236818
 20
5.9979613333
 11
9.5043236818
 21
5.9229613333
  0
LINE
  5
46B
100
AcDbEntity
  8
0
100
AcDbLine
 62
6
  6
CONTINUOUS
 10
9.5087341548
 20
5.9229613333
 11
9.5087341548
 21
5.9979613333
  0
LINE
  5
46C
100
AcDbEntity
  8
0
100
AcDbLine
 62
6
  6
CONTINUOUS
 10
9.5261539658
 20
5.7229613333
 11
9.5261539658
 21
5.6229613333
  0
LINE
  5
46D
100
AcDbEntity
  8
0
100
AcDbLine
 62
6
  6
CONTINUOUS
 10
9.5294837988
 20
5.9979613333
 11
9.5294837988
 21
5.9229613333
  0
LINE
  5
46E
100
AcDbEntity
  8
0
100
AcDbLine
 62
6
  6
CONTINUOUS
 10
9.5407856068
 20
5.9979613333
 11
9.5407856068
 21
5.9229613333
  0
LINE
  5
46F
100
AcDbEntity
  8
0
100
AcDbLine
 62
6
  6
CONTINUOUS
 10
9.5444692409
 20
5.9229613333
 11
9.5444692409
 21
5.9979613333
  0
LINE
  5
470
100
AcDbEntity
  8
0
100
AcDbLine
 62
6
  6
CONTINUOUS
 10
9.5653601682
 20
5.9979613333
 11
9.5653601682
 21
5.9229613333
  0
LINE
  5
471
100
AcDbEntity
  8
0
100
AcDbLine
 62
6
  6
CONTINUOUS
 10
9.5761539658
 20
5.5479613333
 11
9.5761539658
 21
5.6229613333
  0
LINE
  5
472
100
AcDbEntity
  8
0
100
AcDbLine
 62
6
  6
CONTINUOUS
 10
9.5763890468
 20
5.9979613333
 11
9.5763890468
 21
5.9229613333
  0
LINE
  5
473
100
AcDbEntity
  8
0
100
AcDbLine
 62
6
  6
CONTINUOUS
 10
9.5793413541
 20
5.9229613333
 11
9.5793413541
 21
5.9979613333
  0
LINE
  5
474
100
AcDbEntity
  8
0
100
AcDbLine
 62
6
  6
CONTINUOUS
 10
9.6003481121
 20
5.9979613333
 11
9.6003481121
 21
5.9229613333
  0
LINE
  5
475
100
AcDbEntity
  8
0
100
AcDbLine
 62
7
  6
CONTINUOUS
 10
9.6110906243
 20
5.9979613333
 11
9.6110906243
 21
5.9229613333
  0
LINE
  5
476
100
AcDbEntity
  8
0
100
AcDbLine
 62
7
  6
CONTINUOUS
 10
9.6133080079
 20
5.9229613333
 11
9.6133080079
 21
5.9979613333
  0
LINE
  5
477
100
AcDbEntity
  8
0
100
AcDbLine
 62
6
  6
CONTINUOUS
 10
9.6344050032
 20
5.9979613333
 11
9.6344050032
 21
5.9229613333
  0
LINE
  5
478
100
AcDbEntity
  8
0
100
AcDbLine
 62
6
  6
CONTINUOUS
 10
9.6448480609
 20
5.9979613333
 11
9.6448480609
 21
5.9229613333
  0
LINE
  5
479
100
AcDbEntity
  8
0
100
AcDbLine
 62
6
  6
CONTINUOUS
 10
9.6463278192
 20
5.9229613333
 11
9.6463278192
 21
5.9979613333
  0
LINE
  5
47A
100
AcDbEntity
  8
0
100
AcDbLine
 62
6
  6
CONTINUOUS
 10
9.6674893483
 20
5.9979613333
 11
9.6674893483
 21
5.9229613333
  0
LINE
  5
47B
100
AcDbEntity
  8
0
100
AcDbLine
 62
7
  6
CONTINUOUS
 10
9.6776202283
 20
5.9979613333
 11
9.6776202283
 21
5.9229613333
  0
LINE
  5
47C
100
AcDbEntity
  8
0
100
AcDbLine
 62
7
  6
CONTINUOUS
 10
9.6783605584
 20
5.9229613333
 11
9.6783605584
 21
5.9979613333
  0
LINE
  5
47D
100
AcDbEntity
  8
0
100
AcDbLine
 62
6
  6
CONTINUOUS
 10
9.6995608393
 20
5.9979613333
 11
9.6995608393
 21
5.9229613333
  0
LINE
  5
47E
100
AcDbEntity
  8
0
100
AcDbLine
 62
6
  6
CONTINUOUS
 10
9.7093671987
 20
5.9979613333
 11
9.7093671987
 21
5.9229613333
  0
LINE
  5
47F
100
AcDbEntity
  8
0
100
AcDbLine
 62
6
  6
CONTINUOUS
 10
9.7305804021
 20
5.9979613333
 11
9.7305804021
 21
5.9229613333
  0
LINE
  5
480
100
AcDbEntity
  8
0
100
AcDbLine
 62
6
  6
CONTINUOUS
 10
9.7400502932
 20
5.9979613333
 11
9.7400502932
 21
5.9229613333
  0
LINE
  5
481
100
AcDbEntity
  8
0
100
AcDbLine
 62
6
  6
CONTINUOUS
 10
9.760510244
 20
5.9979613333
 11
9.760510244
 21
5.9229613333
  0
LINE
  5
482
100
AcDbEntity
  8
0
100
AcDbLine
 62
6
  6
CONTINUOUS
 10
9.7696321293
 20
5.9979613333
 11
9.7696321293
 21
5.9229613333
  0
LINE
  5
483
100
AcDbEntity
  8
0
100
AcDbLine
 62
6
  6
CONTINUOUS
 10
9.7893139002
 20
5.9979613333
 11
9.7893139002
 21
5.9229613333
  0
LINE
  5
484
100
AcDbEntity
  8
0
100
AcDbLine
 62
6
  6
CONTINUOUS
 10
9.7980766661
 20
5.9979613333
 11
9.7980766661
 21
5.9229613333
  0
LINE
  5
485
100
AcDbEntity
  8
0
100
AcDbLine
 62
6
  6
CONTINUOUS
 10
9.8169562778
 20
5.9979613333
 11
9.8169562778
 21
5.9229613333
  0
LINE
  5
486
100
AcDbEntity
  8
0
100
AcDbLine
 62
6
  6
CONTINUOUS
 10
9.8253492482
 20
5.9979613333
 11
9.8253492482
 21
5.9229613333
  0
LINE
  5
487
100
AcDbEntity
  8
0
100
AcDbLine
 62
6
  6
CONTINUOUS
 10
9.8434036989
 20
5.9979613333
 11
9.8434036989
 21
5.9229613333
  0
LINE
  5
488
100
AcDbEntity
  8
0
100
AcDbLine
 62
6
  6
CONTINUOUS
 10
9.8514166483
 20
5.9979613333
 11
9.8514166483
 21
5.9229613333
  0
LINE
  5
489
100
AcDbEntity
  8
0
100
AcDbLine
 62
6
  6
CONTINUOUS
 10
9.8686239414
 20
5.9979613333
 11
9.8686239414
 21
5.9229613333
  0
LINE
  5
48A
100
AcDbEntity
  8
0
100
AcDbLine
 62
6
  6
CONTINUOUS
 10
9.8762471071
 20
5.9979613333
 11
9.8762471071
 21
5.9229613333
  0
LINE
  5
48B
100
AcDbEntity
  8
0
100
AcDbLine
 62
6
  6
CONTINUOUS
 10
9.8925862782
 20
5.9979613333
 11
9.8925862782
 21
5.9229613333
  0
LINE
  5
48C
100
AcDbEntity
  8
0
100
AcDbLine
 62
6
  6
CONTINUOUS
 10
9.8998103727
 20
5.9979613333
 11
9.8998103727
 21
5.9229613333
  0
LINE
  5
48D
100
AcDbEntity
  8
0
100
AcDbLine
 62
6
  6
CONTINUOUS
 10
9.915261515
 20
5.9979613333
 11
9.915261515
 21
5.9229613333
  0
LINE
  5
48E
100
AcDbEntity
  8
0
100
AcDbLine
 62
6
  6
CONTINUOUS
 10
9.9220777368
 20
5.9979613333
 11
9.9220777368
 21
5.9229613333
  0
LINE
  5
48F
100
AcDbEntity
  8
0
100
AcDbLine
 62
7
  6
CONTINUOUS
 10
9.9366220254
 20
5.9979613333
 11
9.9366220254
 21
5.9229613333
  0
LINE
  5
490
100
AcDbEntity
  8
0
100
AcDbLine
 62
6
  6
CONTINUOUS
 10
9.9430220701
 20
5.9979613333
 11
9.9430220701
 21
5.9229613333
  0
LINE
  5
491
100
AcDbEntity
  8
0
100
AcDbLine
 62
6
  6
CONTINUOUS
 10
9.9553625121
 20
5.9229613333
 11
9.9553625121
 21
5.9979613333
  0
LINE
  5
492
100
AcDbEntity
  8
0
100
AcDbLine
 62
7
  6
CONTINUOUS
 10
9.956641785
 20
5.9979613333
 11
9.956641785
 21
5.9229613333
  0
LINE
  5
493
100
AcDbEntity
  8
0
100
AcDbLine
 62
6
  6
CONTINUOUS
 10
9.962617855
 20
5.9979613333
 11
9.962617855
 21
5.9229613333
  0
LINE
  5
494
100
AcDbEntity
  8
0
100
AcDbLine
 62
6
  6
CONTINUOUS
 10
9.9752964029
 20
5.9979613333
 11
9.9752964029
 21
5.9229613333
  0
LINE
  5
495
100
AcDbEntity
  8
0
100
AcDbLine
 62
6
  6
CONTINUOUS
 10
9.9808412173
 20
5.9979613333
 11
9.9808412173
 21
5.9229613333
  0
LINE
  5
496
100
AcDbEntity
  8
0
100
AcDbLine
 62
6
  6
CONTINUOUS
 10
9.9925631511
 20
5.9979613333
 11
9.9925631511
 21
5.9229613333
  0
LINE
  5
497
100
AcDbEntity
  8
0
100
AcDbLine
 62
6
  6
CONTINUOUS
 10
9.9976699544
 20
5.9979613333
 11
9.9976699544
 21
5.9229613333
  0
LINE
  5
498
100
AcDbEntity
  8
0
100
AcDbLine
 62
6
  6
CONTINUOUS
 10
10.0084209929
 20
5.9979613333
 11
10.0084209929
 21
5.9229613333
  0
LINE
  5
499
100
AcDbEntity
  8
0
100
AcDbLine
 62
6
  6
CONTINUOUS
 10
10.0130835632
 20
5.9979613333
 11
10.0130835632
 21
5.9229613333
  0
LINE
  5
49A
100
AcDbEntity
  8
0
100
AcDbLine
 62
6
  6
CONTINUOUS
 10
10.0228506079
 20
5.9979613333
 11
10.0228506079
 21
5.9229613333
  0
LINE
  5
49B
100
AcDbEntity
  8
0
100
AcDbLine
 62
6
  6
CONTINUOUS
 10
10.0270632646
 20
5.9979613333
 11
10.0270632646
 21
5.9229613333
  0
LINE
  5
49C
100
AcDbEntity
  8
0
100
AcDbLine
 62
6
  6
CONTINUOUS
 10
10.0358344158
 20
5.9979613333
 11
10.0358344158
 21
5.9229613333
  0
LINE
  5
49D
100
AcDbEntity
  8
0
100
AcDbLine
 62
6
  6
CONTINUOUS
 10
10.0361539658
 20
6.1979613333
 11
10.0361539658
 21
5.9979613333
  0
LINE
  5
49E
100
AcDbEntity
  8
0
100
AcDbLine
 62
6
  6
CONTINUOUS
 10
10.0395920265
 20
5.9979613333
 11
10.0395920265
 21
5.9229613333
  0
LINE
  5
49F
100
AcDbEntity
  8
0
100
AcDbLine
 62
6
  6
CONTINUOUS
 10
10.0473565979
 20
5.9979613333
 11
10.0473565979
 21
5.9229613333
  0
LINE
  5
4A0
100
AcDbEntity
  8
0
100
AcDbLine
 62
6
  6
CONTINUOUS
 10
10.0506545845
 20
5.9979613333
 11
10.0506545845
 21
5.9229613333
  0
LINE
  5
4A1
100
AcDbEntity
  8
0
100
AcDbLine
 62
6
  6
CONTINUOUS
 10
10.0574031161
 20
5.9979613333
 11
10.0574031161
 21
5.9229613333
  0
LINE
  5
4A2
100
AcDbEntity
  8
0
100
AcDbLine
 62
6
  6
CONTINUOUS
 10
10.0602374605
 20
5.9979613333
 11
10.0602374605
 21
5.9229613333
  0
LINE
  5
4A3
100
AcDbEntity
  8
0
100
AcDbLine
 62
6
  6
CONTINUOUS
 10
10.0659617304
 20
5.9979613333
 11
10.0659617304
 21
5.9229613333
  0
LINE
  5
4A4
100
AcDbEntity
  8
0
100
AcDbLine
 62
6
  6
CONTINUOUS
 10
10.0683289794
 20
5.9979613333
 11
10.0683289794
 21
5.9229613333
  0
LINE
  5
4A5
100
AcDbEntity
  8
0
100
AcDbLine
 62
6
  6
CONTINUOUS
 10
10.0730220134
 20
5.9979613333
 11
10.0730220134
 21
5.9229613333
  0
LINE
  5
4A6
100
AcDbEntity
  8
0
100
AcDbLine
 62
6
  6
CONTINUOUS
 10
10.0749192828
 20
5.9979613333
 11
10.0749192828
 21
5.9229613333
  0
LINE
  5
4A7
100
AcDbEntity
  8
0
100
AcDbLine
 62
6
  6
CONTINUOUS
 10
10.0785753631
 20
5.9979613333
 11
10.0785753631
 21
5.9229613333
  0
LINE
  5
4A8
100
AcDbEntity
  8
0
100
AcDbLine
 62
6
  6
CONTINUOUS
 10
10.0800003415
 20
5.9979613333
 11
10.0800003415
 21
5.9229613333
  0
LINE
  5
4A9
100
AcDbEntity
  8
0
100
AcDbLine
 62
6
  6
CONTINUOUS
 10
10.0826150138
 20
5.9979613333
 11
10.0826150138
 21
5.9229613333
  0
LINE
  5
4AA
100
AcDbEntity
  8
0
100
AcDbLine
 62
6
  6
CONTINUOUS
 10
10.083565965
 20
5.9979613333
 11
10.083565965
 21
5.9229613333
  0
LINE
  5
4AB
100
AcDbEntity
  8
0
100
AcDbLine
 62
6
  6
CONTINUOUS
 10
10.0851360437
 20
5.9979613333
 11
10.0851360437
 21
5.9229613333
  0
LINE
  5
4AC
100
AcDbEntity
  8
0
100
AcDbLine
 62
6
  6
CONTINUOUS
 10
10.0856118091
 20
5.9979613333
 11
10.0856118091
 21
5.9229613333
  0
LINE
  5
4AD
100
AcDbEntity
  8
0
100
AcDbLine
 62
6
  6
CONTINUOUS
 10
10.0861353813
 20
5.9979613333
 11
10.0861353813
 21
5.9229613333
  0
LINE
  5
4AE
100
AcDbEntity
  8
0
100
AcDbLine
 62
6
  6
CONTINUOUS
 10
10.0861539658
 20
6.3979613333
 11
10.0861539658
 21
6.2479613333
  0
ARC
  5
4AF
100
AcDbEntity
  8
0
100
AcDbCircle
 62
6
  6
CONTINUOUS
 10
3.2183908413
 20
3.4154613333
 40
0.1
100
AcDbArc
 50
90.0
 51
136.5674634422
  0
ARC
  5
4B0
100
AcDbEntity
  8
0
100
AcDbCircle
 62
6
  6
CONTINUOUS
 10
3.0731539658
 20
3.5529613333
 40
0.1
100
AcDbArc
 50
275.9711167607
 51
316.5674634422
  0
ARC
  5
4B1
100
AcDbEntity
  8
0
100
AcDbCircle
 62
6
  6
CONTINUOUS
 10
3.2183908413
 20
2.8654613333
 40
0.1
100
AcDbArc
 50
223.4325365578
 51
270.0
  0
ARC
  5
4B2
100
AcDbEntity
  8
0
100
AcDbCircle
 62
6
  6
CONTINUOUS
 10
3.0731539658
 20
2.7279613333
 40
0.1
100
AcDbArc
 50
43.4325365578
 51
84.0289136287
  0
ARC
  5
4B3
100
AcDbEntity
  8
0
100
AcDbCircle
 62
6
  6
CONTINUOUS
 10
3.0736539658
 20
2.6979613333
 40
0.075
100
AcDbArc
 50
90.0
 51
180.0
  0
ARC
  5
4B4
100
AcDbEntity
  8
0
100
AcDbCircle
 62
6
  6
CONTINUOUS
 10
2.0986539658
 20
2.6979613333
 40
0.075
100
AcDbArc
 50
0.0
 51
90.0
  0
ARC
  5
4B5
100
AcDbEntity
  8
0
100
AcDbCircle
 62
6
  6
CONTINUOUS
 10
1.4111539658
 20
5.8229613333
 40
0.1
100
AcDbArc
 50
0.0
 51
85.7952301152
  0
ARC
  5
4B6
100
AcDbEntity
  8
0
100
AcDbCircle
 62
6
  6
CONTINUOUS
 10
1.5611539658
 20
5.7229613333
 40
0.1
100
AcDbArc
 50
0.0
 51
90.0
  0
ARC
  5
4B7
100
AcDbEntity
  8
0
100
AcDbCircle
 62
6
  6
CONTINUOUS
 10
2.0191539658
 20
5.2679613333
 40
0.127
100
AcDbArc
 50
0.0
 51
90.0
  0
ARC
  5
4B8
100
AcDbEntity
  8
0
100
AcDbCircle
 62
6
  6
CONTINUOUS
 10
1.8926539658
 20
5.4214613333
 40
0.1265
100
AcDbArc
 50
0.0
 51
90.0
  0
ARC
  5
4B9
100
AcDbEntity
  8
0
100
AcDbCircle
 62
6
  6
CONTINUOUS
 10
3.3504660094
 20
4.6229415467
 40
0.4253000893
100
AcDbArc
 50
181.3353241252
 51
181.818594337
  0
ARC
  5
4BA
100
AcDbEntity
  8
0
100
AcDbCircle
 62
6
  6
CONTINUOUS
 10
3.1531539658
 20
5.2679613333
 40
0.127
100
AcDbArc
 50
90.0
 51
180.0
  0
ARC
  5
4BB
100
AcDbEntity
  8
0
100
AcDbCircle
 62
6
  6
CONTINUOUS
 10
3.2796539658
 20
5.4214613333
 40
0.1265
100
AcDbArc
 50
90.0
 51
180.0
  0
ARC
  5
4BC
100
AcDbEntity
  8
0
100
AcDbCircle
 62
6
  6
CONTINUOUS
 10
3.6111539658
 20
5.7229613333
 40
0.1
100
AcDbArc
 50
90.0
 51
180.0
  0
ARC
  5
4BD
100
AcDbEntity
  8
0
100
AcDbCircle
 62
6
  6
CONTINUOUS
 10
3.7611539658
 20
5.8229613333
 40
0.1
100
AcDbArc
 50
94.2047698848
 51
180.0
  0
ARC
  5
4BE
100
AcDbEntity
  8
0
100
AcDbCircle
 62
6
  6
CONTINUOUS
 10
8.1837945089
 20
3.4404613333
 40
0.1
100
AcDbArc
 50
34.2288663278
 51
56.7624016886
  0
ARC
  5
4BF
100
AcDbEntity
  8
0
100
AcDbCircle
 62
6
  6
CONTINUOUS
 10
8.3491539658
 20
3.5529613333
 40
0.1
100
AcDbArc
 50
214.2288663278
 51
263.9529696857
  0
ARC
  5
4C0
100
AcDbEntity
  8
0
100
AcDbCircle
 62
6
  6
CONTINUOUS
 10
8.1837945089
 20
2.8404613333
 40
0.1
100
AcDbArc
 50
270.0
 51
321.8914577157
  0
ARC
  5
4C1
100
AcDbEntity
  8
0
100
AcDbCircle
 62
6
  6
CONTINUOUS
 10
8.3491539658
 20
2.7279613333
 40
0.1
100
AcDbArc
 50
96.0470656845
 51
109.3081461557
  0
ARC
  5
4C2
100
AcDbEntity
  8
0
100
AcDbCircle
 62
6
  6
CONTINUOUS
 10
9.3236539658
 20
2.6979613333
 40
0.075
100
AcDbArc
 50
90.0
 51
180.0
  0
ARC
  5
4C3
100
AcDbEntity
  8
0
100
AcDbCircle
 62
6
  6
CONTINUOUS
 10
8.3486539658
 20
2.6979613333
 40
0.075
100
AcDbArc
 50
0.0
 51
90.0
  0
ARC
  5
4C4
100
AcDbEntity
  8
0
100
AcDbCircle
 62
9
  6
CONTINUOUS
 10
8.1871209822
 20
3.5209226271
 40
0.030187027
100
AcDbArc
 50
114.6514388428
 51
115.5831740693
  0
ARC
  5
4C5
100
AcDbEntity
  8
0
100
AcDbCircle
 62
9
  6
CONTINUOUS
 10
8.1869978902
 20
3.5211713151
 40
0.0299095671
100
AcDbArc
 50
115.5762101063
 51
122.2493659338
  0
ARC
  5
4C6
100
AcDbEntity
  8
0
100
AcDbCircle
 62
9
  6
CONTINUOUS
 10
8.1865030554
 20
3.5219662078
 40
0.0289732009
100
AcDbArc
 50
122.8979512906
 51
126.3826811312
  0
ARC
  5
4C7
100
AcDbEntity
  8
0
100
AcDbCircle
 62
6
  6
CONTINUOUS
 10
8.3130381265
 20
3.5244095233
 40
0.0257237943
100
AcDbArc
 50
321.0088344345
 51
323.4572107454
  0
ARC
  5
4C8
100
AcDbEntity
  8
0
100
AcDbCircle
 62
6
  6
CONTINUOUS
 10
8.2691539658
 20
5.2679613333
 40
0.127
100
AcDbArc
 50
0.0
 51
90.0
  0
ARC
  5
4C9
100
AcDbEntity
  8
0
100
AcDbCircle
 62
6
  6
CONTINUOUS
 10
8.1426539658
 20
5.4214613333
 40
0.1265
100
AcDbArc
 50
0.0
 51
90.0
  0
ARC
  5
4CA
100
AcDbEntity
  8
0
100
AcDbCircle
 62
6
  6
CONTINUOUS
 10
7.8111539658
 20
5.7229613333
 40
0.1
100
AcDbArc
 50
0.0
 51
90.0
  0
ARC
  5
4CB
100
AcDbEntity
  8
0
100
AcDbCircle
 62
6
  6
CONTINUOUS
 10
7.6611539658
 20
5.8229613333
 40
0.1
100
AcDbArc
 50
0.0
 51
85.7952301152
  0
ARC
  5
4CC
100
AcDbEntity
  8
0
100
AcDbCircle
 62
6
  6
CONTINUOUS
 10
9.4031539658
 20
5.2679613333
 40
0.127
100
AcDbArc
 50
90.0
 51
180.0
  0
ARC
  5
4CD
100
AcDbEntity
  8
0
100
AcDbCircle
 62
6
  6
CONTINUOUS
 10
9.5296539658
 20
5.4214613333
 40
0.1265
100
AcDbArc
 50
90.0
 51
180.0
  0
ARC
  5
4CE
100
AcDbEntity
  8
0
100
AcDbCircle
 62
6
  6
CONTINUOUS
 10
9.8611539658
 20
5.7229613333
 40
0.1
100
AcDbArc
 50
90.0
 51
180.0
  0
ARC
  5
4CF
100
AcDbEntity
  8
0
100
AcDbCircle
 62
6
  6
CONTINUOUS
 10
10.0111539658
 20
5.8229613333
 40
0.1
100
AcDbArc
 50
94.2047698848
 51
180.0
  0
LINE
  5
4D0
100
AcDbEntity
  8
0
100
AcDbLine
 62
7
  6
CONTINUOUS
 10
8.3361539658
 20
3.4579613333
 11
8.3416290686
 21
3.4492678028
  0
SPLINE
  5
4D1
100
AcDbEntity
  8
0
100
AcDbSpline
 62
7
  6
CONTINUOUS
 70
0
 71
3
 72
37
 73
33
 74
31
 42
0.0000001
 43
0.0000001
 44
0.0000000001
 12
0.3512463834
 22
-0.5625283037
 32
0.0
 13
-0.3512455426
 23
-0.5625288287
 33
0.0
 40
0.0
 40
0.0
 40
0.0
 40
0.0
 40
0.0732927431
 40
0.1276860246
 40
0.1583360537
 40
0.1909681315
 40
0.2253710577
 40
0.2613570419
 40
0.2987439879
 40
0.3373604622
 40
0.3570721668
 40
0.3770221488
 40
0.3971825682
 40
0.4175206341
 40
0.4380064682
 40
0.4586080427
 40
0.4999949651
 40
0.520710554
 40
0.5413886668
 40
0.5619900945
 40
0.5824757571
 40
0.6028142706
 40
0.6229750552
 40
0.6429248869
 40
0.6626369091
 40
0.7012541353
 40
0.7386417606
 40
0.7746284237
 40
0.809032031
 40
0.8723101791
 40
0.9267048736
 40
1.0
 40
1.0
 40
1.0
 40
1.0
 10
8.3416290686
 20
3.4492678028
 30
0.0
 10
8.350210339
 20
3.435524722
 30
0.0
 10
8.3647280078
 20
3.4113068121
 30
0.0
 10
8.3815161368
 20
3.3805842887
 30
0.0
 10
8.3932617431
 20
3.3573708764
 30
0.0
 10
8.4025081017
 20
3.33785303
 30
0.0
 10
8.4116254595
 20
3.3169792953
 30
0.0
 10
8.420379077
 20
3.2948142056
 30
0.0
 10
8.4285111438
 20
3.2714230986
 30
0.0
 10
8.4344992605
 20
3.2511185715
 30
0.0
 10
8.4387196266
 20
3.2343348365
 30
0.0
 10
8.4415727438
 20
3.2214198863
 30
0.0
 10
8.4440584202
 20
3.2082881345
 30
0.0
 10
8.4461463809
 20
3.1949672142
 30
0.0
 10
8.4478033114
 20
3.181487069
 30
0.0
 10
8.4494044737
 20
3.1633230414
 30
0.0
 10
8.4500628771
 20
3.1450339272
 30
0.0
 10
8.4497327914
 20
3.1267343211
 30
0.0
 10
8.449003173
 20
3.1130460946
 30
0.0
 10
8.4478043862
 20
3.0994422437
 30
0.0
 10
8.4461469882
 20
3.0859623233
 30
0.0
 10
8.4440594708
 20
3.0726411474
 30
0.0
 10
8.4415742648
 20
3.0595091656
 30
0.0
 10
8.4387210853
 20
3.0465941026
 30
0.0
 10
8.4345008328
 20
3.0298101359
 30
0.0
 10
8.4285130677
 20
3.0095050879
 30
0.0
 10
8.4203808531
 20
2.9861135739
 30
0.0
 10
8.411627487
 20
2.9639477751
 30
0.0
 10
8.3997977146
 20
2.9368649832
 30
0.0
 10
8.3849759943
 20
2.9066709334
 30
0.0
 10
8.3647296335
 20
2.8696183717
 30
0.0
 10
8.3502111349
 20
2.8453992656
 30
0.0
 10
8.3416296061
 20
2.8316557251
 30
0.0
 11
8.3416290686
 21
3.4492678028
 31
0.0
 11
8.3665541728
 21
3.4075385155
 31
0.0
 11
8.3838173849
 21
3.3758648289
 31
0.0
 11
8.3929873251
 21
3.3577242011
 31
0.0
 11
8.4022427131
 21
3.3381621761
 31
0.0
 11
8.4113629583
 21
3.3172488852
 31
0.0
 11
8.4201133995
 21
3.2950456752
 31
0.0
 11
8.4282369814
 21
3.2716198426
 31
0.0
 11
8.43546091
 21
3.2470500075
 31
0.0
 11
8.4386458288
 21
3.2343714484
 31
0.0
 11
8.4414974879
 21
3.2214519265
 31
0.0
 11
8.4439820383
 21
3.2083147522
 31
0.0
 11
8.4460677312
 21
3.1949891222
 31
0.0
 11
8.4477229651
 21
3.1815044685
 31
0.0
 11
8.448922528
 21
3.1678946099
 31
0.0
 11
8.4498978857
 21
3.1404648289
 31
0.0
 11
8.4496519699
 21
3.1267287971
 31
0.0
 11
8.4489231353
 21
3.1130347993
 31
0.0
 11
8.4477239078
 21
3.0994250089
 31
0.0
 11
8.4460685118
 21
3.0859404897
 31
0.0
 11
8.443983092
 21
3.0726145164
 31
0.0
 11
8.4414988978
 21
3.0594770283
 31
0.0
 11
8.438647338
 21
3.0465575866
 31
0.0
 11
8.4354624838
 21
3.0338787941
 31
0.0
 11
8.4282388092
 21
3.0093083646
 31
0.0
 11
8.4201152455
 21
2.9858820488
 31
0.0
 11
8.4113649023
 21
2.9636783162
 31
0.0
 11
8.4022445515
 21
2.9427645786
 31
0.0
 11
8.3838190058
 21
2.9050609777
 31
0.0
 11
8.366555455
 21
2.8733864086
 31
0.0
 11
8.3416296061
 21
2.8316557251
 31
0.0
  0
LINE
  5
4D2
100
AcDbEntity
  8
0
100
AcDbLine
 62
7
  6
CONTINUOUS
 10
8.3416296061
 20
2.8316557251
 11
8.3361539658
 21
2.8229613333
  0
SPLINE
  5
4D3
100
AcDbEntity
  8
0
100
AcDbSpline
 62
6
  6
CONTINUOUS
 70
0
 71
3
 72
18
 73
14
 74
12
 42
0.0000001
 43
0.0000001
 44
0.0000000001
 12
0.0027640389
 22
-0.0416174957
 32
0.0
 13
0.0417091819
 23
-0.0
 33
0.0
 40
0.0
 40
0.0
 40
0.0
 40
0.0
 40
0.1241453538
 40
0.2486117053
 40
0.3109226072
 40
0.3731965231
 40
0.4354574076
 40
0.4978069061
 40
0.5603349518
 40
0.6230720367
 40
0.7489514001
 40
0.8748785709
 40
1.0
 40
1.0
 40
1.0
 40
1.0
 10
8.2833240404
 20
3.5235917574
 30
0.0
 10
8.2834384213
 20
3.5218695511
 30
0.0
 10
8.2839894823
 20
3.5184338523
 30
0.0
 10
8.2854684324
 20
3.5143434909
 30
0.0
 10
8.2870958124
 20
3.5112821142
 30
0.0
 10
8.288533629
 20
3.5091132976
 30
0.0
 10
8.2901827683
 20
3.5070997624
 30
0.0
 10
8.2920269863
 20
3.5052586707
 30
0.0
 10
8.2940429332
 20
3.5035972107
 30
0.0
 10
8.2969335301
 20
3.5016315142
 30
0.0
 10
8.3008678144
 20
3.4996657242
 30
0.0
 10
8.3059159583
 20
3.4981673103
 30
0.0
 10
8.309414395
 20
3.497806567
 30
0.0
 10
8.3111539658
 20
3.497806567
 30
0.0
 11
8.2833240404
 21
3.5235917574
 31
0.0
 11
8.2841462378
 21
3.5184794499
 31
0.0
 11
8.2859115295
 21
3.5135974142
 31
0.0
 11
8.2871322328
 21
3.5113029959
 31
0.0
 11
8.2885688921
 21
3.5091390952
 31
0.0
 11
8.2902140418
 21
3.5071298378
 31
0.0
 11
8.2920529424
 21
3.5052910102
 31
0.0
 11
8.29406455
 21
3.5036311711
 31
0.0
 11
8.2962276118
 21
3.5021586401
 31
0.0
 11
8.3009229042
 21
3.4998091411
 31
0.0
 11
8.3059610128
 21
3.4983244461
 31
0.0
 11
8.3111539658
 21
3.497806567
 31
0.0
  0
SPLINE
  5
4D4
100
AcDbEntity
  8
0
100
AcDbSpline
 62
6
  6
CONTINUOUS
 70
0
 71
3
 72
12
 73
8
 74
6
 42
0.0000001
 43
0.0000001
 44
0.0000000001
 12
-0.018228211
 22
0.0833099712
 32
0.0
 13
-0.0027060583
 23
0.085238513
 33
0.0
 40
0.0
 40
0.0
 40
0.0
 40
0.0
 40
0.0833600632
 40
0.308778113
 40
0.6285988774
 40
0.8102353061
 40
1.0
 40
1.0
 40
1.0
 40
1.0
 10
2.9361539658
 20
4.5249613333
 30
0.0
 10
2.9356474642
 20
4.5272762414
 30
0.0
 10
2.9338288803
 20
4.5358637613
 30
0.0
 10
2.93057369
 20
4.5534381814
 30
0.0
 10
2.927793355
 20
4.573927032
 30
0.0
 10
2.9260850827
 20
4.5935054008
 30
0.0
 10
2.9255513093
 20
4.6040528397
 30
0.0
 10
2.9253801379
 20
4.6094445932
 30
0.0
 11
2.9361539658
 21
4.5249613333
 31
0.0
 11
2.9346815506
 21
4.5319162478
 31
0.0
 11
2.9311886859
 21
4.5508202498
 31
0.0
 11
2.9275409094
 21
4.5778499998
 31
0.0
 11
2.9261970387
 21
4.5932818144
 31
0.0
 11
2.9253801379
 21
4.6094445932
 31
0.0
  0
SPLINE
  5
4D5
100
AcDbEntity
  8
0
100
AcDbSpline
 62
6
  6
CONTINUOUS
 70
0
 71
3
 72
13
 73
9
 74
7
 42
0.0000001
 43
0.0000001
 44
0.0000000001
 12
-0.0025323269
 22
0.108701134
 32
0.0
 13
0.0232373499
 23
0.1062102947
 33
0.0
 40
0.0
 40
0.0
 40
0.0
 40
0.0
 40
0.1787808305
 40
0.3547849247
 40
0.5222705722
 40
0.6752413201
 40
0.9102976693
 40
1.0
 40
1.0
 40
1.0
 40
1.0
 10
2.925281418
 20
4.613030484
 30
0.0
 10
2.9251305075
 20
4.619508377
 30
0.0
 10
2.9251240832
 20
4.6323723447
 30
0.0
 10
2.9259711371
 20
4.6512882688
 30
0.0
 10
2.9275488586
 20
4.6692178114
 30
0.0
 10
2.9300909491
 20
4.6891943659
 30
0.0
 10
2.9330494236
 20
4.7062635086
 30
0.0
 10
2.935459151
 20
4.717785563
 30
0.0
 10
2.9361539658
 20
4.7209613333
 30
0.0
 11
2.925281418
 21
4.613030484
 31
0.0
 11
2.9252717784
 21
4.6324694334
 31
0.0
 11
2.9261252864
 21
4.6515874263
 31
0.0
 11
2.9277173767
 21
4.6697285176
 31
0.0
 11
2.9298128093
 21
4.6862286001
 31
0.0
 11
2.9341583665
 21
4.7114142807
 31
0.0
 11
2.9361539658
 21
4.7209613333
 31
0.0
  0
LINE
  5
4D6
100
AcDbEntity
  8
0
100
AcDbLine
 62
7
  6
CONTINUOUS
 10
3.0861539658
 20
2.8229613333
 11
3.0806810108
 21
2.8316514204
  0
SPLINE
  5
4D7
100
AcDbEntity
  8
0
100
AcDbSpline
 62
7
  6
CONTINUOUS
 70
0
 71
3
 72
37
 73
33
 74
31
 42
0.0000001
 43
0.0000001
 44
0.0000000001
 12
-0.3512524155
 22
0.5625330395
 32
0.0
 13
0.3512511845
 23
0.5625338081
 33
0.0
 40
0.0
 40
0.0
 40
0.0
 40
0.0
 40
0.0732877031
 40
0.1276800055
 40
0.1583298192
 40
0.1909618341
 40
0.2253648327
 40
0.2613509779
 40
0.2987382129
 40
0.3373550802
 40
0.3570670533
 40
0.3770174025
 40
0.3971781516
 40
0.4175165683
 40
0.4380028574
 40
0.4586049057
 40
0.4999927592
 40
0.5207088583
 40
0.5413874883
 40
0.561989408
 40
0.5824755327
 40
0.6028144973
 40
0.622975704
 40
0.6429259147
 40
0.6626382817
 40
0.7012561034
 40
0.7386442737
 40
0.7746314033
 40
0.8090353965
 40
0.8723139357
 40
0.9267083341
 40
1.0
 40
1.0
 40
1.0
 40
1.0
 10
3.0806810108
 20
2.8316514204
 30
0.0
 10
3.0721001832
 20
2.8453936718
 30
0.0
 10
3.0575829516
 20
2.8696106485
 30
0.0
 10
3.0407950829
 20
2.9003321757
 30
0.0
 10
3.0290492727
 20
2.9235454902
 30
0.0
 10
3.0198026615
 20
2.9430634265
 30
0.0
 10
3.010684988
 20
2.9639373342
 30
0.0
 10
3.0019309931
 20
2.986102678
 30
0.0
 10
2.9937985445
 20
3.0094941341
 30
0.0
 10
2.9878100504
 20
3.029799009
 30
0.0
 10
2.983589416
 20
3.0465831057
 30
0.0
 10
2.9807361159
 20
3.0594983811
 30
0.0
 10
2.9782501983
 20
3.0726304703
 30
0.0
 10
2.97616202
 20
3.0859517604
 30
0.0
 10
2.9745050111
 20
3.09943233
 30
0.0
 10
2.972903619
 20
3.1175969477
 30
0.0
 10
2.9722450456
 20
3.1358866831
 30
0.0
 10
2.9725751284
 20
3.1541869212
 30
0.0
 10
2.9733046952
 20
3.1678756357
 30
0.0
 10
2.9745034804
 20
3.1814799633
 30
0.0
 10
2.9761609452
 20
3.1949603375
 30
0.0
 10
2.9782485344
 20
3.2082819493
 30
0.0
 10
2.9807338345
 20
3.2214143432
 30
0.0
 10
2.9835871305
 20
3.2343297875
 30
0.0
 10
2.9878075509
 20
3.2511142067
 30
0.0
 10
2.9937955539
 20
3.2714197677
 30
0.0
 10
3.0019280979
 20
3.2948118285
 30
0.0
 10
3.0106817699
 20
3.3169781175
 30
0.0
 10
3.0225119485
 20
3.344061383
 30
0.0
 10
3.0373340318
 20
3.3742557799
 30
0.0
 10
3.0575804447
 20
3.4113079881
 30
0.0
 10
3.0720987353
 20
3.4355266072
 30
0.0
 10
3.0806799967
 20
3.4492696205
 30
0.0
 11
3.0806810108
 21
2.8316514204
 31
0.0
 11
3.0557571575
 21
2.8733781772
 31
0.0
 11
3.0384938416
 21
2.9050515143
 31
0.0
 11
3.0293237109
 21
2.9231921334
 31
0.0
 11
3.0200680654
 21
2.9427542508
 31
0.0
 11
3.0109474986
 21
2.9636677246
 31
0.0
 11
3.0021966901
 21
2.9858711836
 31
0.0
 11
2.9940727107
 21
3.0092973666
 31
0.0
 11
2.9868483477
 21
3.0338676359
 31
0.0
 11
2.9836632246
 21
3.0465464738
 31
0.0
 11
2.9808113619
 21
3.0594663474
 31
0.0
 11
2.9783265862
 21
3.0726038497
 31
0.0
 11
2.9762406973
 21
3.085929833
 31
0.0
 11
2.974585343
 21
3.0994149248
 31
0.0
 11
2.9733856275
 21
3.1130252345
 31
0.0
 11
2.9724100502
 21
3.1404559242
 31
0.0
 11
2.9726559415
 21
3.1541924443
 31
0.0
 11
2.9733847417
 21
3.1678869368
 31
0.0
 11
2.9745839711
 21
3.1814972037
 31
0.0
 11
2.9762394231
 21
3.1949821737
 31
0.0
 11
2.9783249187
 21
3.2083085863
 31
0.0
 11
2.9808092082
 21
3.2214464893
 31
0.0
 11
2.9836608829
 21
3.2343663104
 31
0.0
 11
2.986845866
 21
3.2470454529
 31
0.0
 11
2.9940698281
 21
3.2716164997
 31
0.0
 11
3.0021937142
 21
3.2950433716
 31
0.0
 11
3.0109443737
 21
3.317247591
 31
0.0
 11
3.0200650472
 21
3.3381617379
 31
0.0
 11
3.0384911113
 21
3.375865882
 31
0.0
 11
3.0557549116
 21
3.4075405382
 31
0.0
 11
3.0806799967
 21
3.4492696205
 31
0.0
  0
LINE
  5
4D8
100
AcDbEntity
  8
0
100
AcDbLine
 62
7
  6
CONTINUOUS
 10
3.0806799967
 20
3.4492696205
 11
3.0861539658
 21
3.4579613333
  0
SPLINE
  5
4D9
100
AcDbEntity
  8
0
100
AcDbSpline
 62
6
  6
CONTINUOUS
 70
0
 71
3
 72
19
 73
15
 74
13
 42
0.0000001
 43
0.0000001
 44
0.0000000001
 12
0.0422313477
 22
-0.1930253534
 32
0.0
 13
-0.0422323747
 23
-0.1930251419
 33
0.0
 40
0.0
 40
0.0
 40
0.0
 40
0.0
 40
0.043456792
 40
0.1588942791
 40
0.2349503963
 40
0.3189797425
 40
0.4082008147
 40
0.4999902437
 40
0.5917797282
 40
0.6810011122
 40
0.7650312967
 40
0.841088868
 40
0.9565331917
 40
1.0
 40
1.0
 40
1.0
 40
1.0
 10
8.4861539658
 20
4.7209613333
 30
0.0
 10
8.4867657121
 20
4.7181652457
 30
0.0
 10
8.4889196856
 20
4.707922701
 30
0.0
 10
8.4916408292
 20
4.6926818293
 30
0.0
 10
8.494115551
 20
4.67470055
 30
0.0
 10
8.4957880074
 20
4.6583608657
 30
0.0
 10
8.4968875803
 20
4.6409332362
 30
0.0
 10
8.497270814
 20
4.6229632591
 30
0.0
 10
8.4968877339
 20
4.604993258
 30
0.0
 10
8.4957882971
 20
4.5875655406
 30
0.0
 10
8.4941159661
 20
4.5712256706
 30
0.0
 10
8.4916412842
 20
4.5532437793
 30
0.0
 10
8.4889200751
 20
4.5380016925
 30
0.0
 10
8.486765868
 20
4.5277580622
 30
0.0
 10
8.4861539658
 20
4.5249613333
 30
0.0
 11
8.4861539658
 21
4.7209613333
 31
0.0
 11
8.4879204499
 21
4.7125578378
 31
0.0
 11
8.4919160135
 21
4.6900998093
 31
0.0
 11
8.4939617864
 21
4.6752108503
 31
0.0
 11
8.4956488558
 21
4.6586924037
 31
0.0
 11
8.4967562553
 21
4.6410969461
 31
0.0
 11
8.4971418926
 21
4.6229632622
 31
0.0
 11
8.4967564092
 21
4.6048295641
 31
0.0
 11
8.4956491523
 21
4.5872340357
 31
0.0
 11
8.4939622039
 21
4.5707154103
 31
0.0
 11
8.4919165054
 21
4.5558261511
 31
0.0
 11
8.487920864
 21
4.5333667642
 31
0.0
 11
8.4861539658
 21
4.5249613333
 31
0.0
  0
SPLINE
  5
4DA
100
AcDbEntity
  8
0
100
AcDbSpline
 62
6
  6
CONTINUOUS
 70
0
 71
3
 72
13
 73
9
 74
7
 42
0.0000001
 43
0.0000001
 44
0.0000000001
 12
0.024980803
 22
0.0
 32
0.0
 13
0.0157190469
 23
0.019415254
 33
0.0
 40
0.0
 40
0.0
 40
0.0
 40
0.0
 40
0.2495297381
 40
0.3752192249
 40
0.5010104462
 40
0.7512271803
 40
0.8757944884
 40
1.0
 40
1.0
 40
1.0
 40
1.0
 10
8.3111539658
 20
3.497806567
 30
0.0
 10
8.3132317835
 20
3.497806567
 30
0.0
 10
8.3163689251
 20
3.4981930621
 30
0.0
 10
8.3203758101
 20
3.4993730435
 30
0.0
 10
8.3242424694
 20
3.5009709844
 30
0.0
 10
8.327832376
 20
3.5031631706
 30
0.0
 10
8.3309779192
 20
3.5058880283
 30
0.0
 10
8.3323809678
 20
3.5074202705
 30
0.0
 10
8.3330317652
 20
3.5082240977
 30
0.0
 11
8.3111539658
 21
3.497806567
 31
0.0
 11
8.3173440584
 21
3.4985405239
 31
0.0
 11
8.3203567504
 21
3.4994249355
 31
0.0
 11
8.3232609637
 21
3.5006249385
 31
0.0
 11
8.3285885216
 21
3.5038940843
 31
0.0
 11
8.3309387867
 21
3.5059335694
 31
0.0
 11
8.3330317652
 21
3.5082240977
 31
0.0
  0
SPLINE
  5
4DB
100
AcDbEntity
  8
0
100
AcDbSpline
 62
6
  6
CONTINUOUS
 70
0
 71
3
 72
11
 73
7
 74
5
 42
0.0000001
 43
0.0000001
 44
0.0000000001
 12
0.0114982438
 22
0.0155130406
 32
0.0
 13
-0.001267261
 23
0.0192680588
 33
0.0
 40
0.0
 40
0.0
 40
0.0
 40
0.0
 40
0.2503000543
 40
0.5007048049
 40
0.7505502983
 40
1.0
 40
1.0
 40
1.0
 40
1.0
 10
8.3337049422
 20
3.5090929858
 30
0.0
 10
8.3346642792
 20
3.5103872908
 30
0.0
 10
8.3363451567
 20
3.5131614499
 30
0.0
 10
8.3380919909
 20
3.5176908739
 30
0.0
 10
8.3390251803
 20
3.5224493693
 30
0.0
 10
8.3390904485
 20
3.5256812402
 30
0.0
 10
8.3389850758
 20
3.5272833774
 30
0.0
 11
8.3337049422
 21
3.5090929858
 31
0.0
 11
8.3362159754
 21
3.513222718
 31
0.0
 11
8.3379575901
 21
3.5177334053
 31
0.0
 11
8.3388863949
 21
3.5224675925
 31
0.0
 11
8.3389850758
 21
3.5272833774
 31
0.0
  0
SPLINE
  5
4DC
100
AcDbEntity
  8
0
100
AcDbSpline
 62
9
  6
CONTINUOUS
 70
0
 71
3
 72
21
 73
17
 74
15
 42
0.0000001
 43
0.0000001
 44
0.0000000001
 12
-0.0359327555
 22
0.0
 32
0.0
 13
-0.0009839568
 23
0.035919281
 33
0.0
 40
0.0
 40
0.0
 40
0.0
 40
0.0
 40
0.1495212415
 40
0.2966480445
 40
0.3681996811
 40
0.4378056337
 40
0.5051305039
 40
0.5699006443
 40
0.6319270634
 40
0.6911489771
 40
0.7476915709
 40
0.8017632151
 40
0.8536253373
 40
0.9036150132
 40
0.9521985808
 40
1.0
 40
1.0
 40
1.0
 40
1.0
 10
8.2861539658
 20
2.8768887459
 30
0.0
 10
8.2843630624
 20
2.8768887459
 30
0.0
 10
8.2808065302
 20
2.8771315394
 30
0.0
 10
8.2764668582
 20
2.8779800338
 30
0.0
 10
8.2731538878
 20
2.8789605128
 30
0.0
 10
8.2708093055
 20
2.8798256313
 30
0.0
 10
8.2686058995
 20
2.880821765
 30
0.0
 10
8.2665664543
 20
2.8819438117
 30
0.0
 10
8.264713158
 20
2.8831864996
 30
0.0
 10
8.2630698527
 20
2.8845471065
 30
0.0
 10
8.2616505003
 20
2.8860102936
 30
0.0
 10
8.2604632967
 20
2.8875581853
 30
0.0
 10
8.2595169879
 20
2.8891742588
 30
0.0
 10
8.2588204469
 20
2.8908424647
 30
0.0
 10
8.2583825955
 20
2.8925463238
 30
0.0
 10
8.258263618
 20
2.893699758
 30
0.0
 10
8.2582479398
 20
2.8942720889
 30
0.0
 11
8.2861539658
 21
2.8768887459
 31
0.0
 11
8.2807931124
 21
2.8772454889
 31
0.0
 11
8.2756052338
 21
2.8782627455
 31
0.0
 11
8.2731404529
 21
2.8789942781
 31
0.0
 11
8.2707950395
 21
2.8798630163
 31
0.0
 11
8.2685923376
 21
2.8808632554
 31
0.0
 11
8.2665555962
 21
2.8819894588
 31
0.0
 11
8.2647080647
 21
2.8832360896
 31
0.0
 11
8.2630719221
 21
2.8845967693
 31
0.0
 11
8.2616602054
 21
2.886057929
 31
0.0
 11
8.2604813168
 21
2.8876023543
 31
0.0
 11
8.2595436219
 21
2.8892128024
 31
0.0
 11
8.2588554838
 21
2.8908720313
 31
0.0
 11
8.2584232806
 21
2.8925634252
 31
0.0
 11
8.2582479398
 21
2.8942720889
 31
0.0
  0
SPLINE
  5
4DD
100
AcDbEntity
  8
0
100
AcDbSpline
 62
9
  6
CONTINUOUS
 70
0
 71
3
 72
20
 73
16
 74
14
 42
0.0000001
 43
0.0000001
 44
0.0000000001
 12
-0.0297522863
 22
-0.0
 32
0.0
 13
-0.0065871878
 23
0.029013919
 33
0.0
 40
0.0
 40
0.0
 40
0.0
 40
0.0
 40
0.1750034488
 40
0.345226147
 40
0.5048120291
 40
0.5789079247
 40
0.6483626528
 40
0.7125839457
 40
0.7710344379
 40
0.8234242546
 40
0.8697256052
 40
0.9100303725
 40
0.944627383
 40
0.9741719048
 40
1.0
 40
1.0
 40
1.0
 40
1.0
 10
3.5361539658
 20
3.0338535024
 30
0.0
 10
3.5344183816
 20
3.0338535024
 30
0.0
 10
3.5309939198
 20
3.0339509409
 30
0.0
 10
3.5260020756
 20
3.0343585767
 30
0.0
 10
3.5220305194
 20
3.0349005572
 30
0.0
 10
3.519075171
 20
3.0354549433
 30
0.0
 10
3.5170652139
 20
3.0359114287
 30
0.0
 10
3.5152270552
 20
3.0364160557
 30
0.0
 10
3.5135797758
 20
3.0369679159
 30
0.0
 10
3.5121379911
 20
3.0375633203
 30
0.0
 10
3.5109101671
 20
3.0381942893
 30
0.0
 10
3.5099025429
 20
3.0388548315
 30
0.0
 10
3.5091202373
 20
3.039540818
 30
0.0
 10
3.5085694617
 20
3.0402515874
 30
0.0
 10
3.5083551233
 20
3.0407676662
 30
0.0
 10
3.5082984118
 20
3.0410174576
 30
0.0
 11
3.5361539658
 21
3.0338535024
 31
0.0
 11
3.5309492432
 21
3.0339988874
 31
0.0
 11
3.525901779
 21
3.0344141122
 31
0.0
 11
3.5211990235
 21
3.0350683454
 31
0.0
 11
3.5190328057
 21
3.0354775139
 31
0.0
 11
3.5170184269
 21
3.0359384256
 31
0.0
 11
3.5151771464
 21
3.0364488924
 31
0.0
 11
3.5135299792
 21
3.0370066432
 31
0.0
 11
3.5120916276
 21
3.0376072617
 31
0.0
 11
3.5108700682
 21
3.0382440464
 31
0.0
 11
3.5098729512
 21
3.0389101845
 31
0.0
 11
3.5091079268
 21
3.0395988635
 31
0.0
 11
3.508582194
 21
3.0403033321
 31
0.0
 11
3.5082984118
 21
3.0410174576
 31
0.0
  0
SPLINE
  5
4DE
100
AcDbEntity
  8
0
100
AcDbSpline
 62
6
  6
CONTINUOUS
 70
0
 71
3
 72
19
 73
15
 74
13
 42
0.0000001
 43
0.0000001
 44
0.0000000001
 12
-0.0454163935
 22
0.0
 32
0.0
 13
0.0030097133
 23
-0.0453165579
 33
0.0
 40
0.0
 40
0.0
 40
0.0
 40
0.0
 40
0.1252095478
 40
0.2512337518
 40
0.3770245554
 40
0.4396757894
 40
0.5021136977
 40
0.5644211692
 40
0.6267260064
 40
0.6890708927
 40
0.7514290572
 40
0.8137365021
 40
0.8759330881
 40
1.0
 40
1.0
 40
1.0
 40
1.0
 10
8.3111539658
 20
3.5530864926
 30
0.0
 10
8.3092584438
 20
3.5530864926
 30
0.0
 10
8.3054449018
 20
3.5526578793
 30
0.0
 10
8.2999833711
 20
3.5508922408
 30
0.0
 10
8.2957821401
 20
3.5485846175
 30
0.0
 10
8.2927552775
 20
3.5462816074
 30
0.0
 10
8.2906809227
 20
3.5443384189
 30
0.0
 10
8.2888301274
 20
3.5421877588
 30
0.0
 10
8.2872287948
 20
3.5398472392
 30
0.0
 10
8.2858834014
 20
3.5373504368
 30
0.0
 10
8.2848029436
 20
3.5347283488
 30
0.0
 10
8.2839957934
 20
3.5320115025
 30
0.0
 10
8.2832973109
 20
3.5283092929
 30
0.0
 10
8.2831995718
 20
3.5254658525
 30
0.0
 10
8.2833240404
 20
3.5235917574
 30
0.0
 11
8.3111539658
 21
3.5530864926
 31
0.0
 11
8.305500536
 21
3.5524734958
 31
0.0
 11
8.3000510072
 21
3.550723687
 31
0.0
 11
8.2950473344
 21
3.5479666554
 31
0.0
 11
8.2927839465
 21
3.5462423187
 31
0.0
 11
8.2907161896
 21
3.5443018027
 31
0.0
 11
8.2888715182
 21
3.5421559123
 31
0.0
 11
8.2872718316
 21
3.5398218205
 31
0.0
 11
8.285927657
 21
3.5373297385
 31
0.0
 11
8.2848481291
 21
3.5347114732
 31
0.0
 11
8.284042383
 21
3.5319988315
 31
0.0
 11
8.2835186274
 21
3.5292230681
 31
0.0
 11
8.2833240404
 21
3.5235917574
 31
0.0
  0
SPLINE
  5
4DF
100
AcDbEntity
  8
0
100
AcDbSpline
 62
9
  6
CONTINUOUS
 70
0
 71
3
 72
23
 73
19
 74
17
 42
0.0000001
 43
0.0000001
 44
0.0000000001
 12
0.0068554942
 22
-0.0299553973
 32
0.0
 13
-0.0307298492
 23
-0.0
 33
0.0
 40
0.0
 40
0.0
 40
0.0
 40
0.0
 40
0.0127836607
 40
0.0254692997
 40
0.0384458145
 40
0.0520773772
 40
0.0824467002
 40
0.1184520436
 40
0.1609467257
 40
0.2102808619
 40
0.2665496591
 40
0.3296734981
 40
0.3991809257
 40
0.4743760097
 40
0.5545091372
 40
0.6387981806
 40
0.8163950105
 40
1.0
 40
1.0
 40
1.0
 40
1.0
 10
3.564008641
 20
3.041987227
 30
0.0
 10
3.5640378537
 20
3.0418595805
 30
0.0
 10
3.5640740898
 20
3.0415995336
 30
0.0
 10
3.5640557704
 20
3.0412040033
 30
0.0
 10
3.5639643231
 20
3.0408098629
 30
0.0
 10
3.5637378473
 20
3.0402693309
 30
0.0
 10
3.5632497078
 20
3.0395980718
 30
0.0
 10
3.5624118284
 20
3.0388542662
 30
0.0
 10
3.5613101919
 20
3.0381395717
 30
0.0
 10
3.5599509855
 20
3.0374606152
 30
0.0
 10
3.5583420807
 20
3.0368245522
 30
0.0
 10
3.5564956442
 20
3.0362417674
 30
0.0
 10
3.554432295
 20
3.0357143772
 30
0.0
 10
3.5521769715
 20
3.0352447528
 30
0.0
 10
3.5497562384
 20
3.0348360638
 30
0.0
 10
3.5462836773
 20
3.0343683025
 30
0.0
 10
3.5417352997
 20
3.0339675825
 30
0.0
 10
3.5380346837
 20
3.0338535024
 30
0.0
 10
3.5361539658
 20
3.0338535024
 30
0.0
 11
3.564008641
 21
3.041987227
 31
0.0
 11
3.5640620429
 21
3.0415980337
 31
0.0
 11
3.5640443029
 21
3.0412086098
 31
0.0
 11
3.563955421
 21
3.0408198752
 31
0.0
 11
3.563795397
 21
3.0404327498
 31
0.0
 11
3.5632619328
 21
3.0396670073
 31
0.0
 11
3.5624465534
 21
3.0389191014
 31
0.0
 11
3.5613581185
 21
3.0381975979
 31
0.0
 11
3.5600063842
 21
3.0375111847
 31
0.0
 11
3.5584011064
 21
3.03686855
 31
0.0
 11
3.5565534283
 21
3.0362779102
 31
0.0
 11
3.5544853328
 21
3.0357437983
 31
0.0
 11
3.5522239018
 21
3.0352690148
 31
0.0
 11
3.5497962465
 21
3.0348563501
 31
0.0
 11
3.5472295049
 21
3.0345086148
 31
0.0
 11
3.5417935442
 21
3.0340239535
 31
0.0
 11
3.5361539658
 21
3.0338535024
 31
0.0
  0
SPLINE
  5
4E0
100
AcDbEntity
  8
0
100
AcDbSpline
 62
6
  6
CONTINUOUS
 70
0
 71
3
 72
18
 73
14
 74
12
 42
0.0000001
 43
0.0000001
 44
0.0000000001
 12
-0.002738476
 22
0.0416371335
 32
0.0
 13
-0.0417270912
 23
0.0
 33
0.0
 40
0.0
 40
0.0
 40
0.0
 40
0.0
 40
0.1241446798
 40
0.2486108918
 40
0.3109221801
 40
0.373196492
 40
0.4354575024
 40
0.4978067073
 40
0.5603343318
 40
0.6230710691
 40
0.7489502056
 40
0.8748780169
 40
1.0
 40
1.0
 40
1.0
 40
1.0
 10
8.3389850758
 20
3.5272833774
 30
0.0
 10
8.3388717534
 20
3.5290063869
 30
0.0
 10
8.3383225532
 20
3.5324439047
 30
0.0
 10
8.3368451162
 20
3.5365368154
 30
0.0
 10
8.3352184944
 20
3.5396002939
 30
0.0
 10
8.3337810245
 20
3.5417706983
 30
0.0
 10
8.3321320213
 20
3.5437857986
 30
0.0
 10
8.3302876715
 20
3.5456283378
 30
0.0
 10
8.3282713729
 20
3.5472911175
 30
0.0
 10
8.3253800443
 20
3.5492583905
 30
0.0
 10
8.3214444196
 20
3.5512257752
 30
0.0
 10
8.3163942526
 20
3.5527254351
 30
0.0
 10
8.3128942913
 20
3.5530864926
 30
0.0
 10
8.3111539658
 20
3.5530864926
 30
0.0
 11
8.3389850758
 21
3.5272833774
 31
0.0
 11
8.3381656354
 21
3.5323983507
 31
0.0
 11
8.3364021751
 21
3.5372834119
 31
0.0
 11
8.3351820376
 21
3.5395794133
 31
0.0
 11
8.3337457231
 21
3.5417449011
 31
0.0
 11
8.332100698
 21
3.5437557082
 31
0.0
 11
8.330261677
 21
3.545595977
 31
0.0
 11
8.3282497255
 21
3.547257131
 31
0.0
 11
8.3260861238
 21
3.5487308398
 31
0.0
 11
8.3213892735
 21
3.5510822418
 31
0.0
 11
8.3163491499
 21
3.5525681719
 31
0.0
 11
8.3111539658
 21
3.5530864926
 31
0.0
  0
SPLINE
  5
4E1
100
AcDbEntity
  8
0
100
AcDbSpline
 62
9
  6
CONTINUOUS
 70
0
 71
3
 72
9
 73
5
 74
3
 42
0.0000001
 43
0.0000001
 44
0.0000000001
 12
-0.0056380382
 22
-0.0041550938
 32
0.0
 13
-0.0043918709
 23
-0.0054556163
 33
0.0
 40
0.0
 40
0.0
 40
0.0
 40
0.0
 40
0.5006541456
 40
1.0
 40
1.0
 40
1.0
 40
1.0
 10
8.1693168607
 20
3.5452917535
 30
0.0
 10
8.1683759582
 20
3.5445983318
 30
0.0
 10
8.1665794665
 20
3.5430968054
 30
0.0
 10
8.1649900844
 20
3.5413761813
 30
0.0
 10
8.1642590635
 20
3.5404681015
 30
0.0
 11
8.1693168607
 21
3.5452917535
 31
0.0
 11
8.1666290291
 21
3.5430399231
 31
0.0
 11
8.1642590635
 21
3.5404681015
 31
0.0
  0
SPLINE
  5
4E2
100
AcDbEntity
  8
0
100
AcDbSpline
 62
9
  6
CONTINUOUS
 70
0
 71
3
 72
21
 73
17
 74
15
 42
0.0000001
 43
0.0000001
 44
0.0000000001
 12
0.0010024083
 22
-0.0365434043
 32
0.0
 13
-0.0365571501
 23
-0.0
 33
0.0
 40
0.0
 40
0.0
 40
0.0
 40
0.0
 40
0.0479377622
 40
0.0964484806
 40
0.1462104936
 40
0.1977742299
 40
0.2515237131
 40
0.3077525263
 40
0.3666914656
 40
0.4285018717
 40
0.4931568647
 40
0.5604765406
 40
0.6301844361
 40
0.7019359284
 40
0.8496943623
 40
1.0
 40
1.0
 40
1.0
 40
1.0
 10
8.3140599801
 20
2.8948980377
 30
0.0
 10
8.3140759979
 20
2.8943141013
 30
0.0
 10
8.3140175332
 20
2.8931347956
 30
0.0
 10
8.3136575483
 20
2.8913832123
 30
0.0
 10
8.3130257088
 20
2.8896631896
 30
0.0
 10
8.3121292869
 20
2.8879931368
 30
0.0
 10
8.3109784891
 20
2.886389728
 30
0.0
 10
8.309582471
 20
2.8848707771
 30
0.0
 10
8.3079503548
 20
2.8834544838
 30
0.0
 10
8.3060942524
 20
2.8821598737
 30
0.0
 10
8.3040391306
 20
2.8809909241
 30
0.0
 10
8.3018088237
 20
2.8799527869
 30
0.0
 10
8.2994276017
 20
2.8790509493
 30
0.0
 10
8.2960526331
 20
2.8780281273
 30
0.0
 10
8.2916212889
 20
2.8771425064
 30
0.0
 10
8.2879855477
 20
2.8768887459
 30
0.0
 10
8.2861539658
 20
2.8768887459
 30
0.0
 11
8.3140599801
 21
2.8948980377
 31
0.0
 11
8.3139736603
 21
2.8931476969
 31
0.0
 11
8.3136186087
 21
2.8914101888
 31
0.0
 11
8.3129950918
 21
2.8897012242
 31
0.0
 11
8.3121080086
 21
2.8880379756
 31
0.0
 11
8.310966187
 21
2.8864388554
 31
0.0
 11
8.3095785794
 21
2.8849223155
 31
0.0
 11
8.3079541382
 21
2.8835068076
 31
0.0
 11
8.3061047834
 21
2.8822084491
 31
0.0
 11
8.3040530305
 21
2.8810350243
 31
0.0
 11
8.3018237587
 21
2.8799924581
 31
0.0
 11
8.2994418471
 21
2.8790866755
 31
0.0
 11
8.2969322331
 21
2.8783237046
 31
0.0
 11
8.2916360428
 21
2.8772616572
 31
0.0
 11
8.2861539658
 21
2.8768887459
 31
0.0
  0
ENDSEC
  0
SECTION
  2
OBJECTS
  0
DICTIONARY
  5
C
100
AcDbDictionary
280
0
281
1
  3
ACAD_GROUP
350
D
  3
ACAD_MLINESTYLE
350
17
  3
ACAD_LAYOUT
350
1A
  3
ACAD_PLOTSETTINGS
350
19
  3
ACAD_PLOTSTYLENAME
350
E
  0
DICTIONARY
  5
D
102
{ACAD_REACTORS
330
C
102
}
100
AcDbDictionary
280
0
281
1
  0
ACDBDICTIONARYWDFLT
  5
E
102
{ACAD_REACTORS
330
C
102
}
100
AcDbDictionary
281
1
  3
Normal
350
F
100
AcDbDictionaryWithDefault
340
F
  0
DICTIONARY
  5
17
102
{ACAD_REACTORS
330
C
102
}
100
AcDbDictionary
280
0
281
1
  3
Standard
350
18
  0
DICTIONARY
  5
19
102
{ACAD_REACTORS
330
C
102
}
100
AcDbDictionary
281
1
  0
DICTIONARY
  5
1A
102
{ACAD_REACTORS
330
C
102
}
100
AcDbDictionary
281
1
  3
Model
350
4E3
  3
Layout1
350
4E4
  0
ACDBPLACEHOLDER
  5
F
102
{ACAD_REACTORS
330
E
102
}
  0
MLINESTYLE
  5
18
102
{ACAD_REACTORS
330
17
102
}
100
AcDbMlineStyle
  2
STANDARD
 70
0
  3

 62
256
 51
90.0
 52
90.0
 71
2
 49
0.5
 62
256
  6
BYLAYER
 49
-0.5
 62
256
  6
BYLAYER
  0
LAYOUT
  5
4E3
102
{ACAD_REACTORS
330
1A
102
}
100
AcDbPlotSettings
  1

  2
none_device
  4
ISO_A4_(297.00_x_210.00_MM)
  6

 40
0.0
 41
0.0
 42
0.0
 43
0.0
 44
297.0
 45
210.0
 46
0.0
 47
0.0
 48
0.0
 49
0.0
140
0.0
141
0.0
142
1.0
143
1.0
 70
1024
 72
0
 73
0
 74
0
  7

 75
0
147
1.0
148
0.0
149
0.0
100
AcDbLayout
  1
Model
 70
0
 71
0
 10
0.0
 20
0.0
 11
11.6929133858
 21
8.2677165354
 12
0.0
 22
0.0
 32
0.0
 14
0.0
 24
0.0
 34
0.0
 15
0.0
 25
0.0
 35
0.0
146
0.0
 13
0.0
 23
0.0
 33
0.0
 16
1.0
 26
0.0
 36
0.0
 17
0.0
 27
1.0
 37
0.0
 76
0
330
203
345
0
346
0
  0
LAYOUT
  5
4E4
102
{ACAD_REACTORS
330
1A
102
}
100
AcDbPlotSettings
  1

  2
none_device
  4
ISO_A4_(297.00_x_210.00_MM)
  6

 40
0.0
 41
0.0
 42
0.0
 43
0.0
 44
297.0
 45
210.0
 46
0.0
 47
0.0
 48
0.0
 49
0.0
140
0.0
141
0.0
142
1.0
143
1.0
 70
0
 72
0
 73
0
 74
0
  7

 75
0
147
1.0
148
0.0
149
0.0
100
AcDbLayout
  1
Layout1
 70
0
 71
1
 10
0.0
 20
0.0
 11
11.6929133858
 21
8.2677165354
 12
0.0
 22
0.0
 32
0.0
 14
0.0
 24
0.0
 34
0.0
 15
0.0
 25
0.0
 35
0.0
146
0.0
 13
0.0
 23
0.0
 33
0.0
 16
1.0
 26
0.0
 36
0.0
 17
0.0
 27
1.0
 37
0.0
 76
0
330
204
345
0
346
0
  0
ENDSEC
  0
EOF
