  0
SECTION
  2
HEADER
  9
$ACADVER
  1
AC1021
  9
$DWGCODEPAGE
  3
ANSI_1252
  9
$EXTMAX
 10
23.3858267717
 20
16.5354330709
 30
0.0
  9
$EXTMIN
 10
0.0
 20
0.0
 30
0.0
  9
$LIMMIN
 10
0.0
 20
0.0
  9
$LIMMAX
 10
23.3858267717
 20
16.5354330709
  9
$VIEWCTR
 10
11.6929133858
 20
8.2677165354
  9
$VIEWSIZE
 40
16.5354330709
  9
$CLAYER
  8
0
  9
$LTSCALE
 40
1.2862204724
  9
$CELTYPE
  6
BYLAYER
  9
$DIMSCALE
 40
1.0
  9
$DIMASZ
 40
0.1
  9
$DIMEXO
 40
0.1461614173
  9
$DIMDLI
 40
0.8886614173
  9
$DIMEXE
 40
0.4209448819
  9
$DIMCEN
 40
0.2104724409
  9
$DIMLFAC
 40
1.0
  9
$DIMBLK
  1
_FILLED
  9
$DIMTXT
 40
0.08
  9
$DIMTOL
 70
1
  9
$DIMLIM
 70
0
  9
$DIMTFAC
 40
1.0
  9
$DIMTP
 40
0.001
  9
$DIMTM
 40
0.001
  9
$PDMODE
 70
3
  9
$PDSIZE
 40
0.06
  9
$HANDSEED
  5
396
  9
$TILEMODE
 70
1
  9
$MEASUREMENT
 70
0
  9
$INSUNITS
 70
1
  0
ENDSEC
  0
SECTION
  2
CLASSES
  0
CLASS
  1
ACDBDICTIONARYWDFLT
  2
AcDbDictionaryWithDefault
  3
AutoCAD 2000
 90
0
 91
1
280
0
281
0
  0
CLASS
  1
ACDBPLACEHOLDER
  2
AcDbPlaceHolder
  3
AutoCAD 2000
 90
0
 91
1
280
0
281
0
  0
CLASS
  1
LAYOUT
  2
AcDbLayout
  3
AutoCAD 2000
 90
0
 91
0
280
0
281
0
  0
ENDSEC
  0
SECTION
  2
TABLES
  0
TABLE
  2
VPORT
  5
8
100
AcDbSymbolTable
 70
2
  0
VPORT
  5
1F4
100
AcDbSymbolTableRecord
100
AcDbViewportTableRecord
  2
*ACTIVE
 70
0
 10
0.0
 20
0.0
 11
1.0
 21
1.0
 12
11.6929133858
 22
8.2677165354
 13
0.0
 23
0.0
 14
1.0
 24
1.0
 15
0.0
 25
0.0
 16
0.0
 26
0.0
 36
1.0
 17
0.0
 27
0.0
 37
0.0
 40
16.5354330709
 41
1.4142857143
 42
50.0
 43
0.0
 44
0.0
 50
0.0
 51
0.0
 71
0
 72
100
 73
1
 74
1
 75
0
 76
0
 77
0
 78
0
  0
ENDTAB
  0
TABLE
  2
LTYPE
  5
5
100
AcDbSymbolTable
 70
6
  0
LTYPE
  5
14
100
AcDbSymbolTableRecord
100
AcDbLinetypeTableRecord
  2
BYBLOCK
 70
0
  3

 72
65
 73
0
 40
0.0
  0
LTYPE
  5
15
100
AcDbSymbolTableRecord
100
AcDbLinetypeTableRecord
  2
BYLAYER
 70
0
  3

 72
65
 73
0
 40
0.0
  0
LTYPE
  5
16
100
AcDbSymbolTableRecord
100
AcDbLinetypeTableRecord
  2
CONTINUOUS
 70
64
  3
Solid line
 72
65
 73
0
 40
0.0
  0
LTYPE
  5
1F5
100
AcDbSymbolTableRecord
100
AcDbLinetypeTableRecord
  2
CENTER
 70
64
  3
____ _ ____ _ ____ _ ____ _ ____ _ ____ _ ____
 72
65
 73
4
 40
0.6
 49
0.375
 74
0
 49
-0.075
 74
0
 49
0.075
 74
0
 49
-0.075
 74
0
  0
LTYPE
  5
1F6
100
AcDbSymbolTableRecord
100
AcDbLinetypeTableRecord
  2
HIDDEN
 70
64
  3
- - - - - - - - - - - - - - - - - - - -
 72
65
 73
2
 40
0.2
 49
0.1
 74
0
 49
-0.1
 74
0
  0
LTYPE
  5
1F7
100
AcDbSymbolTableRecord
100
AcDbLinetypeTableRecord
  2
PHANTOM
 70
64
  3
_____ _ _ _____ _ _ _____ _ _ _____
 72
65
 73
6
 40
0.8
 49
0.45
 74
0
 49
-0.05
 74
0
 49
0.1
 74
0
 49
-0.05
 74
0
 49
0.1
 74
0
 49
-0.05
 74
0
  0
LTYPE
  5
1F8
100
AcDbSymbolTableRecord
100
AcDbLinetypeTableRecord
  2
DOT
 70
64
  3
. . . . . . . . . . . . . . . . . . . .
 72
65
 73
2
 40
0.2
 49
0.1
 74
0
 49
-0.1
 74
0
  0
LTYPE
  5
1F9
100
AcDbSymbolTableRecord
100
AcDbLinetypeTableRecord
  2
DASHED
 70
64
  3
- - - - - - - - - - - - - - - - - - - -
 72
65
 73
2
 40
0.2
 49
0.1
 74
0
 49
-0.1
 74
0
  0
ENDTAB
  0
TABLE
  2
LAYER
  5
2
100
AcDbSymbolTable
 70
36
  0
LAYER
  5
10
100
AcDbSymbolTableRecord
100
AcDbLayerTableRecord
  2
0
 70
0
 62
7
  6
CONTINUOUS
370
-3
390
F
  0
LAYER
  5
1FA
100
AcDbSymbolTableRecord
100
AcDbLayerTableRecord
  2
DEFAULT_1
 70
0
 62
7
  6
CENTER
370
-3
390
F
  0
LAYER
  5
1FB
100
AcDbSymbolTableRecord
100
AcDbLayerTableRecord
  2
DEFAULT_2
 70
0
 62
8
  6
HIDDEN
370
-3
390
F
  0
LAYER
  5
1FC
100
AcDbSymbolTableRecord
100
AcDbLayerTableRecord
  2
DEFAULT_3
 70
0
 62
7
  6
PHANTOM
370
-3
390
F
  0
LAYER
  5
1FD
100
AcDbSymbolTableRecord
100
AcDbLayerTableRecord
  2
DEFAULT_COORDINATE_SYSTEM
 70
0
 62
7
  6
CONTINUOUS
370
-3
390
F
  0
LAYER
  5
1FE
100
AcDbSymbolTableRecord
100
AcDbLayerTableRecord
  2
DEFAULT_DATUM_AXES
 70
0
 62
7
  6
CONTINUOUS
370
-3
390
F
  0
LAYER
  5
1FF
100
AcDbSymbolTableRecord
100
AcDbLayerTableRecord
  2
DEFAULT_DATUM_CURVES
 70
0
 62
7
  6
CONTINUOUS
370
-3
390
F
  0
LAYER
  5
200
100
AcDbSymbolTableRecord
100
AcDbLayerTableRecord
  2
DEFAULT_DATUM_PLANES
 70
0
 62
7
  6
CONTINUOUS
370
-3
390
F
  0
ENDTAB
  0
TABLE
  2
STYLE
  5
3
100
AcDbSymbolTable
 70
1
  0
STYLE
  5
11
100
AcDbSymbolTableRecord
100
AcDbTextStyleTableRecord
  2
STANDARD
 70
0
 40
0.0
 41
0.8
 50
0.0
 71
0
 42
0.2
  3
txt
  4

  0
STYLE
  5
201
100
AcDbSymbolTableRecord
100
AcDbTextStyleTableRecord
  2
TEXTSTYLE_1
 70
0
 40
0.0
 41
0.8
 50
0.0
 71
0
 42
0.2
  3
gdt
  4

  0
ENDTAB
  0
TABLE
  2
VIEW
  5
6
100
AcDbSymbolTable
 70
0
  0
ENDTAB
  0
TABLE
  2
UCS
  5
7
100
AcDbSymbolTable
 70
0
  0
ENDTAB
  0
TABLE
  2
APPID
  5
9
100
AcDbSymbolTable
 70
1
  0
APPID
  5
202
100
AcDbSymbolTableRecord
100
AcDbRegAppTableRecord
  2
ACAD
 70
0
  0
ENDTAB
  0
TABLE
  2
BLOCK_RECORD
  5
1
100
AcDbSymbolTable
 70
0
  0
BLOCK_RECORD
  5
203
100
AcDbSymbolTableRecord
100
AcDbBlockTableRecord
  2
*Model_Space
  0
BLOCK_RECORD
  5
204
100
AcDbSymbolTableRecord
100
AcDbBlockTableRecord
  2
*Paper_Space
  0
ENDTAB
  0
TABLE
  2
DIMSTYLE
  5
A
100
AcDbSymbolTable
 70
1
100
AcDbDimStyleTable
 71
0
  0
DIMSTYLE
105
205
100
AcDbSymbolTableRecord
100
AcDbDimStyleTableRecord
  2
STANDARD
 70
0
  3

  4

 40
1.0
 41
0.1
 42
0.0625
 43
0.38
 44
0.18
 45
0.0
 46
0.0
 47
0.001
 48
0.001
140
0.08
141
0.09
142
0.0
143
25.4
144
1.0
145
0.0
146
1.0
147
0.09
 71
1.0
 72
0.0
 73
1
 74
1
 75
0
 76
0
 77
0
 78
4
170
0
171
2
172
0
173
0
174
0
175
0
176
0
177
0
178
0
270
2
271
3
272
3
273
2
274
2
275
0
280
0
281
0
282
0
283
1
284
4
285
0
286
0
287
3
288
0
340
11
  0
ENDTAB
  0
ENDSEC
  0
SECTION
  2
BLOCKS
  0
BLOCK
  5
20
100
AcDbEntity
  8
0
100
AcDbBlockBegin
  2
*Model_Space
 70
0
 10
0.0
 20
0.0
 30
0.0
  3
*Model_Space
  1

  0
ENDBLK
  5
21
100
AcDbEntity
  8
0
100
AcDbBlockEnd
  0
BLOCK
  5
1C
100
AcDbEntity
  8
0
100
AcDbBlockBegin
  2
*Paper_Space
 70
0
 10
0.0
 20
0.0
 30
0.0
  3
*Paper_Space
  1

  0
ENDBLK
  5
1D
100
AcDbEntity
  8
0
100
AcDbBlockEnd
  0
ENDSEC
  0
SECTION
  2
ENTITIES
  0
LINE
  5
206
100
AcDbEntity
  8
0
100
AcDbLine
 62
6
  6
CONTINUOUS
 10
13.2576739071
 20
7.8510046158
 11
13.1076739071
 21
7.8510046158
  0
LINE
  5
207
100
AcDbEntity
  8
0
100
AcDbLine
 62
6
  6
CONTINUOUS
 10
12.8576739071
 20
7.8510232003
 11
12.7826739071
 21
7.8510232003
  0
LINE
  5
208
100
AcDbEntity
  8
0
100
AcDbLine
 62
6
  6
CONTINUOUS
 10
12.8576739071
 20
7.8515467725
 11
12.7826739071
 21
7.8515467725
  0
LINE
  5
209
100
AcDbEntity
  8
0
100
AcDbLine
 62
6
  6
CONTINUOUS
 10
12.8576739071
 20
7.8520225379
 11
12.7826739071
 21
7.8520225379
  0
LINE
  5
20A
100
AcDbEntity
  8
0
100
AcDbLine
 62
6
  6
CONTINUOUS
 10
12.8576739071
 20
7.8535926166
 11
12.7826739071
 21
7.8535926166
  0
LINE
  5
20B
100
AcDbEntity
  8
0
100
AcDbLine
 62
6
  6
CONTINUOUS
 10
12.8576739071
 20
7.8545435678
 11
12.7826739071
 21
7.8545435678
  0
LINE
  5
20C
100
AcDbEntity
  8
0
100
AcDbLine
 62
6
  6
CONTINUOUS
 10
12.8576739071
 20
7.8571582401
 11
12.7826739071
 21
7.8571582401
  0
LINE
  5
20D
100
AcDbEntity
  8
0
100
AcDbLine
 62
7
  6
CONTINUOUS
 10
12.8576739071
 20
7.8585832185
 11
12.7826739071
 21
7.8585832185
  0
LINE
  5
20E
100
AcDbEntity
  8
0
100
AcDbLine
 62
6
  6
CONTINUOUS
 10
12.8576739071
 20
7.8622392988
 11
12.7826739071
 21
7.8622392988
  0
LINE
  5
20F
100
AcDbEntity
  8
0
100
AcDbLine
 62
7
  6
CONTINUOUS
 10
12.8576739071
 20
7.8641365682
 11
12.7826739071
 21
7.8641365682
  0
LINE
  5
210
100
AcDbEntity
  8
0
100
AcDbLine
 62
6
  6
CONTINUOUS
 10
12.8576739071
 20
7.8688296022
 11
12.7826739071
 21
7.8688296022
  0
LINE
  5
211
100
AcDbEntity
  8
0
100
AcDbLine
 62
6
  6
CONTINUOUS
 10
12.8576739071
 20
7.8711968512
 11
12.7826739071
 21
7.8711968512
  0
LINE
  5
212
100
AcDbEntity
  8
0
100
AcDbLine
 62
6
  6
CONTINUOUS
 10
12.8576739071
 20
7.8769211211
 11
12.7826739071
 21
7.8769211211
  0
LINE
  5
213
100
AcDbEntity
  8
0
100
AcDbLine
 62
6
  6
CONTINUOUS
 10
12.8576739071
 20
7.8797554655
 11
12.7826739071
 21
7.8797554655
  0
LINE
  5
214
100
AcDbEntity
  8
0
100
AcDbLine
 62
6
  6
CONTINUOUS
 10
12.8576739071
 20
7.8865039971
 11
12.7826739071
 21
7.8865039971
  0
LINE
  5
215
100
AcDbEntity
  8
0
100
AcDbLine
 62
6
  6
CONTINUOUS
 10
12.8576739071
 20
7.8898019837
 11
12.7826739071
 21
7.8898019837
  0
LINE
  5
216
100
AcDbEntity
  8
0
100
AcDbLine
 62
6
  6
CONTINUOUS
 10
12.8576739071
 20
7.8975665551
 11
12.7826739071
 21
7.8975665551
  0
LINE
  5
217
100
AcDbEntity
  8
0
100
AcDbLine
 62
6
  6
CONTINUOUS
 10
13.0576739071
 20
7.9010046158
 11
12.8576739071
 21
7.9010046158
  0
LINE
  5
218
100
AcDbEntity
  8
0
100
AcDbLine
 62
6
  6
CONTINUOUS
 10
12.8576739071
 20
7.9013241658
 11
12.7826739071
 21
7.9013241658
  0
LINE
  5
219
100
AcDbEntity
  8
0
100
AcDbLine
 62
7
  6
CONTINUOUS
 10
12.8576739071
 20
7.9100953169
 11
12.7826739071
 21
7.9100953169
  0
LINE
  5
21A
100
AcDbEntity
  8
0
100
AcDbLine
 62
6
  6
CONTINUOUS
 10
12.8576739071
 20
7.9143079737
 11
12.7826739071
 21
7.9143079737
  0
LINE
  5
21B
100
AcDbEntity
  8
0
100
AcDbLine
 62
6
  6
CONTINUOUS
 10
12.8576739071
 20
7.9240750184
 11
12.7826739071
 21
7.9240750184
  0
LINE
  5
21C
100
AcDbEntity
  8
0
100
AcDbLine
 62
7
  6
CONTINUOUS
 10
12.8576739071
 20
7.9287375887
 11
12.7826739071
 21
7.9287375887
  0
LINE
  5
21D
100
AcDbEntity
  8
0
100
AcDbLine
 62
6
  6
CONTINUOUS
 10
12.7826739071
 20
7.9333742747
 11
12.8576739071
 21
7.9333742747
  0
LINE
  5
21E
100
AcDbEntity
  8
0
100
AcDbLine
 62
6
  6
CONTINUOUS
 10
12.8576739071
 20
7.9394886272
 11
12.7826739071
 21
7.9394886272
  0
LINE
  5
21F
100
AcDbEntity
  8
0
100
AcDbLine
 62
7
  6
CONTINUOUS
 10
12.8576739071
 20
7.9445954305
 11
12.7826739071
 21
7.9445954305
  0
LINE
  5
220
100
AcDbEntity
  8
0
100
AcDbLine
 62
7
  6
CONTINUOUS
 10
12.7826739071
 20
7.9481168143
 11
12.8576739071
 21
7.9481168143
  0
LINE
  5
221
100
AcDbEntity
  8
0
100
AcDbLine
 62
6
  6
CONTINUOUS
 10
12.8576739071
 20
7.9563173643
 11
12.7826739071
 21
7.9563173643
  0
LINE
  5
222
100
AcDbEntity
  8
0
100
AcDbLine
 62
6
  6
CONTINUOUS
 10
12.8576739071
 20
7.9618621787
 11
12.7826739071
 21
7.9618621787
  0
LINE
  5
223
100
AcDbEntity
  8
0
100
AcDbLine
 62
6
  6
CONTINUOUS
 10
12.8576739071
 20
7.9745407266
 11
12.7826739071
 21
7.9745407266
  0
LINE
  5
224
100
AcDbEntity
  8
0
100
AcDbLine
 62
6
  6
CONTINUOUS
 10
12.8576739071
 20
7.9805167965
 11
12.7826739071
 21
7.9805167965
  0
LINE
  5
225
100
AcDbEntity
  8
0
100
AcDbLine
 62
6
  6
CONTINUOUS
 10
12.8576739071
 20
7.9941365115
 11
12.7826739071
 21
7.9941365115
  0
LINE
  5
226
100
AcDbEntity
  8
0
100
AcDbLine
 62
6
  6
CONTINUOUS
 10
12.8576739071
 20
8.0005365562
 11
12.7826739071
 21
8.0005365562
  0
LINE
  5
227
100
AcDbEntity
  8
0
100
AcDbLine
 62
6
  6
CONTINUOUS
 10
12.8576739071
 20
8.0150808448
 11
12.7826739071
 21
8.0150808448
  0
LINE
  5
228
100
AcDbEntity
  8
0
100
AcDbLine
 62
6
  6
CONTINUOUS
 10
12.8576739071
 20
8.0218970666
 11
12.7826739071
 21
8.0218970666
  0
LINE
  5
229
100
AcDbEntity
  8
0
100
AcDbLine
 62
6
  6
CONTINUOUS
 10
12.8576739071
 20
8.0373482089
 11
12.7826739071
 21
8.0373482089
  0
LINE
  5
22A
100
AcDbEntity
  8
0
100
AcDbLine
 62
7
  6
CONTINUOUS
 10
12.8576739071
 20
8.0445723034
 11
12.7826739071
 21
8.0445723034
  0
LINE
  5
22B
100
AcDbEntity
  8
0
100
AcDbLine
 62
6
  6
CONTINUOUS
 10
12.8576739071
 20
8.0609114745
 11
12.7826739071
 21
8.0609114745
  0
LINE
  5
22C
100
AcDbEntity
  8
0
100
AcDbLine
 62
6
  6
CONTINUOUS
 10
12.8576739071
 20
8.0685346402
 11
12.7826739071
 21
8.0685346402
  0
LINE
  5
22D
100
AcDbEntity
  8
0
100
AcDbLine
 62
7
  6
CONTINUOUS
 10
12.8576739071
 20
8.0857419333
 11
12.7826739071
 21
8.0857419333
  0
LINE
  5
22E
100
AcDbEntity
  8
0
100
AcDbLine
 62
6
  6
CONTINUOUS
 10
12.8576739071
 20
8.0937548827
 11
12.7826739071
 21
8.0937548827
  0
LINE
  5
22F
100
AcDbEntity
  8
0
100
AcDbLine
 62
6
  6
CONTINUOUS
 10
12.8576739071
 20
8.1118093334
 11
12.7826739071
 21
8.1118093334
  0
LINE
  5
230
100
AcDbEntity
  8
0
100
AcDbLine
 62
6
  6
CONTINUOUS
 10
12.8576739071
 20
8.1202023038
 11
12.7826739071
 21
8.1202023038
  0
LINE
  5
231
100
AcDbEntity
  8
0
100
AcDbLine
 62
6
  6
CONTINUOUS
 10
12.8576739071
 20
8.1390819155
 11
12.7826739071
 21
8.1390819155
  0
LINE
  5
232
100
AcDbEntity
  8
0
100
AcDbLine
 62
7
  6
CONTINUOUS
 10
12.8576739071
 20
8.1478446814
 11
12.7826739071
 21
8.1478446814
  0
LINE
  5
233
100
AcDbEntity
  8
0
100
AcDbLine
 62
6
  6
CONTINUOUS
 10
12.8576739071
 20
8.1675264523
 11
12.7826739071
 21
8.1675264523
  0
LINE
  5
234
100
AcDbEntity
  8
0
100
AcDbLine
 62
6
  6
CONTINUOUS
 10
12.8576739071
 20
8.1766483376
 11
12.7826739071
 21
8.1766483376
  0
LINE
  5
235
100
AcDbEntity
  8
0
100
AcDbLine
 62
6
  6
CONTINUOUS
 10
12.8576739071
 20
8.1971082884
 11
12.7826739071
 21
8.1971082884
  0
LINE
  5
236
100
AcDbEntity
  8
0
100
AcDbLine
 62
7
  6
CONTINUOUS
 10
12.8576739071
 20
8.2065781795
 11
12.7826739071
 21
8.2065781795
  0
LINE
  5
237
100
AcDbEntity
  8
0
100
AcDbLine
 62
6
  6
CONTINUOUS
 10
12.8576739071
 20
8.2277913829
 11
12.7826739071
 21
8.2277913829
  0
LINE
  5
238
100
AcDbEntity
  8
0
100
AcDbLine
 62
6
  6
CONTINUOUS
 10
12.8576739071
 20
8.2375977423
 11
12.7826739071
 21
8.2375977423
  0
LINE
  5
239
100
AcDbEntity
  8
0
100
AcDbLine
 62
7
  6
CONTINUOUS
 10
12.7826739071
 20
8.2587980232
 11
12.8576739071
 21
8.2587980232
  0
LINE
  5
23A
100
AcDbEntity
  8
0
100
AcDbLine
 62
7
  6
CONTINUOUS
 10
12.8576739071
 20
8.2595383533
 11
12.7826739071
 21
8.2595383533
  0
LINE
  5
23B
100
AcDbEntity
  8
0
100
AcDbLine
 62
6
  6
CONTINUOUS
 10
12.8576739071
 20
8.2696692333
 11
12.7826739071
 21
8.2696692333
  0
LINE
  5
23C
100
AcDbEntity
  8
0
100
AcDbLine
 62
6
  6
CONTINUOUS
 10
12.7826739071
 20
8.2908307624
 11
12.8576739071
 21
8.2908307624
  0
LINE
  5
23D
100
AcDbEntity
  8
0
100
AcDbLine
 62
6
  6
CONTINUOUS
 10
12.8576739071
 20
8.2923105207
 11
12.7826739071
 21
8.2923105207
  0
LINE
  5
23E
100
AcDbEntity
  8
0
100
AcDbLine
 62
6
  6
CONTINUOUS
 10
12.8576739071
 20
8.3027535784
 11
12.7826739071
 21
8.3027535784
  0
LINE
  5
23F
100
AcDbEntity
  8
0
100
AcDbLine
 62
6
  6
CONTINUOUS
 10
12.7826739071
 20
8.3238505737
 11
12.8576739071
 21
8.3238505737
  0
LINE
  5
240
100
AcDbEntity
  8
0
100
AcDbLine
 62
6
  6
CONTINUOUS
 10
12.8576739071
 20
8.3260679573
 11
12.7826739071
 21
8.3260679573
  0
LINE
  5
241
100
AcDbEntity
  8
0
100
AcDbLine
 62
6
  6
CONTINUOUS
 10
12.8576739071
 20
8.3368104695
 11
12.7826739071
 21
8.3368104695
  0
LINE
  5
242
100
AcDbEntity
  8
0
100
AcDbLine
 62
6
  6
CONTINUOUS
 10
12.7826739071
 20
8.3578172275
 11
12.8576739071
 21
8.3578172275
  0
LINE
  5
243
100
AcDbEntity
  8
0
100
AcDbLine
 62
6
  6
CONTINUOUS
 10
12.8576739071
 20
8.3607695348
 11
12.7826739071
 21
8.3607695348
  0
LINE
  5
244
100
AcDbEntity
  8
0
100
AcDbLine
 62
7
  6
CONTINUOUS
 10
12.8576739071
 20
8.3717984134
 11
12.7826739071
 21
8.3717984134
  0
LINE
  5
245
100
AcDbEntity
  8
0
100
AcDbLine
 62
7
  6
CONTINUOUS
 10
12.7826739071
 20
8.3926893406
 11
12.8576739071
 21
8.3926893406
  0
LINE
  5
246
100
AcDbEntity
  8
0
100
AcDbLine
 62
6
  6
CONTINUOUS
 10
12.8576739071
 20
8.3963729748
 11
12.7826739071
 21
8.3963729748
  0
LINE
  5
247
100
AcDbEntity
  8
0
100
AcDbLine
 62
7
  6
CONTINUOUS
 10
12.8576739071
 20
8.4076747828
 11
12.7826739071
 21
8.4076747828
  0
LINE
  5
248
100
AcDbEntity
  8
0
100
AcDbLine
 62
7
  6
CONTINUOUS
 10
12.7826739071
 20
8.4284244268
 11
12.8576739071
 21
8.4284244268
  0
LINE
  5
249
100
AcDbEntity
  8
0
100
AcDbLine
 62
7
  6
CONTINUOUS
 10
12.8576739071
 20
8.4328348998
 11
12.7826739071
 21
8.4328348998
  0
LINE
  5
24A
100
AcDbEntity
  8
0
100
AcDbLine
 62
6
  6
CONTINUOUS
 10
12.8576739071
 20
8.4443958678
 11
12.7826739071
 21
8.4443958678
  0
LINE
  5
24B
100
AcDbEntity
  8
0
100
AcDbLine
 62
7
  6
CONTINUOUS
 10
12.7826739071
 20
8.4649789484
 11
12.8576739071
 21
8.4649789484
  0
LINE
  5
24C
100
AcDbEntity
  8
0
100
AcDbLine
 62
7
  6
CONTINUOUS
 10
12.8576739071
 20
8.4701108868
 11
12.7826739071
 21
8.4701108868
  0
LINE
  5
24D
100
AcDbEntity
  8
0
100
AcDbLine
 62
6
  6
CONTINUOUS
 10
10.8606739071
 20
8.4760046158
 11
12.5826739071
 21
8.4760046158
  0
LINE
  5
24E
100
AcDbEntity
  8
0
100
AcDbLine
 62
7
  6
CONTINUOUS
 10
12.8576739071
 20
8.4819169293
 11
12.7826739071
 21
8.4819169293
  0
LINE
  5
24F
100
AcDbEntity
  8
0
100
AcDbLine
 62
7
  6
CONTINUOUS
 10
12.8576739071
 20
8.5081555205
 11
12.7826739071
 21
8.5081555205
  0
LINE
  5
250
100
AcDbEntity
  8
0
100
AcDbLine
 62
6
  6
CONTINUOUS
 10
12.8576739071
 20
8.5201922539
 11
12.7826739071
 21
8.5201922539
  0
LINE
  5
251
100
AcDbEntity
  8
0
100
AcDbLine
 62
6
  6
CONTINUOUS
 10
12.7826739071
 20
8.5403672092
 11
12.8576739071
 21
8.5403672092
  0
LINE
  5
252
100
AcDbEntity
  8
0
100
AcDbLine
 62
6
  6
CONTINUOUS
 10
12.8576739071
 20
8.5469224496
 11
12.7826739071
 21
8.5469224496
  0
LINE
  5
253
100
AcDbEntity
  8
0
100
AcDbLine
 62
7
  6
CONTINUOUS
 10
12.8576739071
 20
8.5591752088
 11
12.7826739071
 21
8.5591752088
  0
LINE
  5
254
100
AcDbEntity
  8
0
100
AcDbLine
 62
7
  6
CONTINUOUS
 10
12.7826739071
 20
8.5791090996
 11
12.8576739071
 21
8.5791090996
  0
LINE
  5
255
100
AcDbEntity
  8
0
100
AcDbLine
 62
7
  6
CONTINUOUS
 10
12.8576739071
 20
8.5863644424
 11
12.7826739071
 21
8.5863644424
  0
LINE
  5
256
100
AcDbEntity
  8
0
100
AcDbLine
 62
6
  6
CONTINUOUS
 10
12.8576739071
 20
8.5988182995
 11
12.7826739071
 21
8.5988182995
  0
LINE
  5
257
100
AcDbEntity
  8
0
100
AcDbLine
 62
7
  6
CONTINUOUS
 10
12.7826739071
 20
8.6184868392
 11
12.8576739071
 21
8.6184868392
  0
LINE
  5
258
100
AcDbEntity
  8
0
100
AcDbLine
 62
7
  6
CONTINUOUS
 10
12.8576739071
 20
8.6264334451
 11
12.7826739071
 21
8.6264334451
  0
LINE
  5
259
100
AcDbEntity
  8
0
100
AcDbLine
 62
6
  6
CONTINUOUS
 10
12.8576739071
 20
8.6390732268
 11
12.7826739071
 21
8.6390732268
  0
LINE
  5
25A
100
AcDbEntity
  8
0
100
AcDbLine
 62
7
  6
CONTINUOUS
 10
12.7826739071
 20
8.6584524524
 11
12.8576739071
 21
8.6584524524
  0
LINE
  5
25B
100
AcDbEntity
  8
0
100
AcDbLine
 62
7
  6
CONTINUOUS
 10
12.8576739071
 20
8.6670806395
 11
12.7826739071
 21
8.6670806395
  0
LINE
  5
25C
100
AcDbEntity
  8
0
100
AcDbLine
 62
6
  6
CONTINUOUS
 10
12.8576739071
 20
8.6798909463
 11
12.7826739071
 21
8.6798909463
  0
LINE
  5
25D
100
AcDbEntity
  8
0
100
AcDbLine
 62
7
  6
CONTINUOUS
 10
12.7826739071
 20
8.6989572472
 11
12.8576739071
 21
8.6989572472
  0
LINE
  5
25E
100
AcDbEntity
  8
0
100
AcDbLine
 62
7
  6
CONTINUOUS
 10
12.8576739071
 20
8.7082565036
 11
12.7826739071
 21
8.7082565036
  0
LINE
  5
25F
100
AcDbEntity
  8
0
100
AcDbLine
 62
6
  6
CONTINUOUS
 10
12.8576739071
 20
8.721221728
 11
12.7826739071
 21
8.721221728
  0
LINE
  5
260
100
AcDbEntity
  8
0
100
AcDbLine
 62
7
  6
CONTINUOUS
 10
12.7826739071
 20
8.7399518749
 11
12.8576739071
 21
8.7399518749
  0
LINE
  5
261
100
AcDbEntity
  8
0
100
AcDbLine
 62
7
  6
CONTINUOUS
 10
12.8576739071
 20
8.7499108706
 11
12.7826739071
 21
8.7499108706
  0
LINE
  5
262
100
AcDbEntity
  8
0
100
AcDbLine
 62
6
  6
CONTINUOUS
 10
12.8576739071
 20
8.7630152166
 11
12.7826739071
 21
8.7630152166
  0
LINE
  5
263
100
AcDbEntity
  8
0
100
AcDbLine
 62
7
  6
CONTINUOUS
 10
12.7826739071
 20
8.7813863897
 11
12.8576739071
 21
8.7813863897
  0
LINE
  5
264
100
AcDbEntity
  8
0
100
AcDbLine
 62
7
  6
CONTINUOUS
 10
12.8576739071
 20
8.7919929914
 11
12.7826739071
 21
8.7919929914
  0
LINE
  5
265
100
AcDbEntity
  8
0
100
AcDbLine
 62
6
  6
CONTINUOUS
 10
12.8576739071
 20
8.8052204932
 11
12.7826739071
 21
8.8052204932
  0
LINE
  5
266
100
AcDbEntity
  8
0
100
AcDbLine
 62
6
  6
CONTINUOUS
 10
12.7826739071
 20
8.82321031
 11
12.8576739071
 21
8.82321031
  0
LINE
  5
267
100
AcDbEntity
  8
0
100
AcDbLine
 62
6
  6
CONTINUOUS
 10
12.8576739071
 20
8.8344515952
 11
12.7826739071
 21
8.8344515952
  0
LINE
  5
268
100
AcDbEntity
  8
0
100
AcDbLine
 62
7
  6
CONTINUOUS
 10
12.8576739071
 20
8.8477861373
 11
12.7826739071
 21
8.8477861373
  0
LINE
  5
269
100
AcDbEntity
  8
0
100
AcDbLine
 62
7
  6
CONTINUOUS
 10
12.7826739071
 20
8.8653726799
 11
12.8576739071
 21
8.8653726799
  0
LINE
  5
26A
100
AcDbEntity
  8
0
100
AcDbLine
 62
6
  6
CONTINUOUS
 10
12.8576739071
 20
8.8772349528
 11
12.7826739071
 21
8.8772349528
  0
LINE
  5
26B
100
AcDbEntity
  8
0
100
AcDbLine
 62
6
  6
CONTINUOUS
 10
12.8576739071
 20
8.890660289
 11
12.7826739071
 21
8.890660289
  0
LINE
  5
26C
100
AcDbEntity
  8
0
100
AcDbLine
 62
6
  6
CONTINUOUS
 10
12.7826739071
 20
8.9078221311
 11
12.8576739071
 21
8.9078221311
  0
LINE
  5
26D
100
AcDbEntity
  8
0
100
AcDbLine
 62
6
  6
CONTINUOUS
 10
12.8576739071
 20
8.9202909392
 11
12.7826739071
 21
8.9202909392
  0
LINE
  5
26E
100
AcDbEntity
  8
0
100
AcDbLine
 62
6
  6
CONTINUOUS
 10
12.8576739071
 20
8.9337907129
 11
12.7826739071
 21
8.9337907129
  0
LINE
  5
26F
100
AcDbEntity
  8
0
100
AcDbLine
 62
6
  6
CONTINUOUS
 10
12.7826739071
 20
8.9505069453
 11
12.8576739071
 21
8.9505069453
  0
LINE
  5
270
100
AcDbEntity
  8
0
100
AcDbLine
 62
6
  6
CONTINUOUS
 10
12.8576739071
 20
8.9635670975
 11
12.7826739071
 21
8.9635670975
  0
LINE
  5
271
100
AcDbEntity
  8
0
100
AcDbLine
 62
6
  6
CONTINUOUS
 10
12.8576739071
 20
8.9771248612
 11
12.7826739071
 21
8.9771248612
  0
LINE
  5
272
100
AcDbEntity
  8
0
100
AcDbLine
 62
6
  6
CONTINUOUS
 10
12.7826739071
 20
8.9933751178
 11
12.8576739071
 21
8.9933751178
  0
LINE
  5
273
100
AcDbEntity
  8
0
100
AcDbLine
 62
6
  6
CONTINUOUS
 10
12.8576739071
 20
9.0070107021
 11
12.7826739071
 21
9.0070107021
  0
LINE
  5
274
100
AcDbEntity
  8
0
100
AcDbLine
 62
6
  6
CONTINUOUS
 10
12.8576739071
 20
9.0206099379
 11
12.7826739071
 21
9.0206099379
  0
LINE
  5
275
100
AcDbEntity
  8
0
100
AcDbLine
 62
6
  6
CONTINUOUS
 10
12.7826739071
 20
9.0363744202
 11
12.8576739071
 21
9.0363744202
  0
LINE
  5
276
100
AcDbEntity
  8
0
100
AcDbLine
 62
6
  6
CONTINUOUS
 10
12.8576739071
 20
9.0505688239
 11
12.7826739071
 21
9.0505688239
  0
LINE
  5
277
100
AcDbEntity
  8
0
100
AcDbLine
 62
6
  6
CONTINUOUS
 10
12.8576739071
 20
9.0641929631
 11
12.7826739071
 21
9.0641929631
  0
LINE
  5
278
100
AcDbEntity
  8
0
100
AcDbLine
 62
6
  6
CONTINUOUS
 10
12.7826739071
 20
9.0794524646
 11
12.8576739071
 21
9.0794524646
  0
LINE
  5
279
100
AcDbEntity
  8
0
100
AcDbLine
 62
6
  6
CONTINUOUS
 10
12.8576739071
 20
9.094188394
 11
12.7826739071
 21
9.094188394
  0
LINE
  5
27A
100
AcDbEntity
  8
0
100
AcDbLine
 62
6
  6
CONTINUOUS
 10
12.8576739071
 20
9.1078208376
 11
12.7826739071
 21
9.1078208376
  0
LINE
  5
27B
100
AcDbEntity
  8
0
100
AcDbLine
 62
6
  6
CONTINUOUS
 10
13.1076739071
 20
10.3510046158
 11
13.0576739071
 21
10.3010046158
  0
LINE
  5
27C
100
AcDbEntity
  8
0
100
AcDbLine
 62
6
  6
CONTINUOUS
 10
12.7826739071
 20
9.122556767
 11
12.8576739071
 21
9.122556767
  0
LINE
  5
27D
100
AcDbEntity
  8
0
100
AcDbLine
 62
6
  6
CONTINUOUS
 10
12.8576739071
 20
9.1378162685
 11
12.7826739071
 21
9.1378162685
  0
LINE
  5
27E
100
AcDbEntity
  8
0
100
AcDbLine
 62
6
  6
CONTINUOUS
 10
12.8576739071
 20
9.1514404077
 11
12.7826739071
 21
9.1514404077
  0
LINE
  5
27F
100
AcDbEntity
  8
0
100
AcDbLine
 62
6
  6
CONTINUOUS
 10
12.7826739071
 20
9.1656348114
 11
12.8576739071
 21
9.1656348114
  0
LINE
  5
280
100
AcDbEntity
  8
0
100
AcDbLine
 62
6
  6
CONTINUOUS
 10
12.8576739071
 20
9.1813992937
 11
12.7826739071
 21
9.1813992937
  0
LINE
  5
281
100
AcDbEntity
  8
0
100
AcDbLine
 62
6
  6
CONTINUOUS
 10
12.8576739071
 20
9.1949985295
 11
12.7826739071
 21
9.1949985295
  0
LINE
  5
282
100
AcDbEntity
  8
0
100
AcDbLine
 62
6
  6
CONTINUOUS
 10
12.7826739071
 20
9.2086341138
 11
12.8576739071
 21
9.2086341138
  0
LINE
  5
283
100
AcDbEntity
  8
0
100
AcDbLine
 62
6
  6
CONTINUOUS
 10
12.8576739071
 20
9.2248843704
 11
12.7826739071
 21
9.2248843704
  0
LINE
  5
284
100
AcDbEntity
  8
0
100
AcDbLine
 62
6
  6
CONTINUOUS
 10
12.8576739071
 20
9.2384421341
 11
12.7826739071
 21
9.2384421341
  0
LINE
  5
285
100
AcDbEntity
  8
0
100
AcDbLine
 62
6
  6
CONTINUOUS
 10
13.1076739071
 20
7.8510046158
 11
13.0576739071
 21
7.9010046158
  0
LINE
  5
286
100
AcDbEntity
  8
0
100
AcDbLine
 62
6
  6
CONTINUOUS
 10
12.7826739071
 20
9.2515022863
 11
12.8576739071
 21
9.2515022863
  0
LINE
  5
287
100
AcDbEntity
  8
0
100
AcDbLine
 62
6
  6
CONTINUOUS
 10
12.8576739071
 20
9.2682185187
 11
12.7826739071
 21
9.2682185187
  0
LINE
  5
288
100
AcDbEntity
  8
0
100
AcDbLine
 62
6
  6
CONTINUOUS
 10
12.8576739071
 20
9.2817182924
 11
12.7826739071
 21
9.2817182924
  0
LINE
  5
289
100
AcDbEntity
  8
0
100
AcDbLine
 62
6
  6
CONTINUOUS
 10
12.7826739071
 20
9.2941871005
 11
12.8576739071
 21
9.2941871005
  0
LINE
  5
28A
100
AcDbEntity
  8
0
100
AcDbLine
 62
6
  6
CONTINUOUS
 10
12.8576739071
 20
9.3113489426
 11
12.7826739071
 21
9.3113489426
  0
LINE
  5
28B
100
AcDbEntity
  8
0
100
AcDbLine
 62
6
  6
CONTINUOUS
 10
12.8576739071
 20
9.3247742788
 11
12.7826739071
 21
9.3247742788
  0
LINE
  5
28C
100
AcDbEntity
  8
0
100
AcDbLine
 62
7
  6
CONTINUOUS
 10
12.7826739071
 20
9.3366365517
 11
12.8576739071
 21
9.3366365517
  0
LINE
  5
28D
100
AcDbEntity
  8
0
100
AcDbLine
 62
7
  6
CONTINUOUS
 10
12.8576739071
 20
9.3542230943
 11
12.7826739071
 21
9.3542230943
  0
LINE
  5
28E
100
AcDbEntity
  8
0
100
AcDbLine
 62
6
  6
CONTINUOUS
 10
12.8576739071
 20
9.3675576364
 11
12.7826739071
 21
9.3675576364
  0
LINE
  5
28F
100
AcDbEntity
  8
0
100
AcDbLine
 62
6
  6
CONTINUOUS
 10
12.7826739071
 20
9.3787989216
 11
12.8576739071
 21
9.3787989216
  0
LINE
  5
290
100
AcDbEntity
  8
0
100
AcDbLine
 62
6
  6
CONTINUOUS
 10
12.8576739071
 20
9.3967887384
 11
12.7826739071
 21
9.3967887384
  0
LINE
  5
291
100
AcDbEntity
  8
0
100
AcDbLine
 62
7
  6
CONTINUOUS
 10
12.8576739071
 20
9.4100162402
 11
12.7826739071
 21
9.4100162402
  0
LINE
  5
292
100
AcDbEntity
  8
0
100
AcDbLine
 62
7
  6
CONTINUOUS
 10
12.7826739071
 20
9.420622842
 11
12.8576739071
 21
9.420622842
  0
LINE
  5
293
100
AcDbEntity
  8
0
100
AcDbLine
 62
6
  6
CONTINUOUS
 10
12.8576739071
 20
9.438994015
 11
12.7826739071
 21
9.438994015
  0
LINE
  5
294
100
AcDbEntity
  8
0
100
AcDbLine
 62
7
  6
CONTINUOUS
 10
12.8576739071
 20
9.452098361
 11
12.7826739071
 21
9.452098361
  0
LINE
  5
295
100
AcDbEntity
  8
0
100
AcDbLine
 62
7
  6
CONTINUOUS
 10
12.7826739071
 20
9.4620573567
 11
12.8576739071
 21
9.4620573567
  0
LINE
  5
296
100
AcDbEntity
  8
0
100
AcDbLine
 62
6
  6
CONTINUOUS
 10
12.8576739071
 20
9.4807875036
 11
12.7826739071
 21
9.4807875036
  0
LINE
  5
297
100
AcDbEntity
  8
0
100
AcDbLine
 62
7
  6
CONTINUOUS
 10
12.8576739071
 20
9.4937527281
 11
12.7826739071
 21
9.4937527281
  0
LINE
  5
298
100
AcDbEntity
  8
0
100
AcDbLine
 62
7
  6
CONTINUOUS
 10
12.7826739071
 20
9.5030519844
 11
12.8576739071
 21
9.5030519844
  0
LINE
  5
299
100
AcDbEntity
  8
0
100
AcDbLine
 62
6
  6
CONTINUOUS
 10
12.8576739071
 20
9.5221182853
 11
12.7826739071
 21
9.5221182853
  0
LINE
  5
29A
100
AcDbEntity
  8
0
100
AcDbLine
 62
7
  6
CONTINUOUS
 10
12.8576739071
 20
9.5349285921
 11
12.7826739071
 21
9.5349285921
  0
LINE
  5
29B
100
AcDbEntity
  8
0
100
AcDbLine
 62
7
  6
CONTINUOUS
 10
12.7826739071
 20
9.5435567792
 11
12.8576739071
 21
9.5435567792
  0
LINE
  5
29C
100
AcDbEntity
  8
0
100
AcDbLine
 62
6
  6
CONTINUOUS
 10
12.8576739071
 20
9.5629360049
 11
12.7826739071
 21
9.5629360049
  0
LINE
  5
29D
100
AcDbEntity
  8
0
100
AcDbLine
 62
7
  6
CONTINUOUS
 10
12.8576739071
 20
9.5755757865
 11
12.7826739071
 21
9.5755757865
  0
LINE
  5
29E
100
AcDbEntity
  8
0
100
AcDbLine
 62
7
  6
CONTINUOUS
 10
12.7826739071
 20
9.5835223924
 11
12.8576739071
 21
9.5835223924
  0
LINE
  5
29F
100
AcDbEntity
  8
0
100
AcDbLine
 62
6
  6
CONTINUOUS
 10
12.8576739071
 20
9.6031909321
 11
12.7826739071
 21
9.6031909321
  0
LINE
  5
2A0
100
AcDbEntity
  8
0
100
AcDbLine
 62
7
  6
CONTINUOUS
 10
12.8576739071
 20
9.6156447892
 11
12.7826739071
 21
9.6156447892
  0
LINE
  5
2A1
100
AcDbEntity
  8
0
100
AcDbLine
 62
7
  6
CONTINUOUS
 10
12.7826739071
 20
9.622900132
 11
12.8576739071
 21
9.622900132
  0
LINE
  5
2A2
100
AcDbEntity
  8
0
100
AcDbLine
 62
7
  6
CONTINUOUS
 10
12.8576739071
 20
9.6428340228
 11
12.7826739071
 21
9.6428340228
  0
LINE
  5
2A3
100
AcDbEntity
  8
0
100
AcDbLine
 62
6
  6
CONTINUOUS
 10
12.8576739071
 20
9.655086782
 11
12.7826739071
 21
9.655086782
  0
LINE
  5
2A4
100
AcDbEntity
  8
0
100
AcDbLine
 62
6
  6
CONTINUOUS
 10
12.7826739071
 20
9.6616420224
 11
12.8576739071
 21
9.6616420224
  0
LINE
  5
2A5
100
AcDbEntity
  8
0
100
AcDbLine
 62
6
  6
CONTINUOUS
 10
12.8576739071
 20
9.6818169777
 11
12.7826739071
 21
9.6818169777
  0
LINE
  5
2A6
100
AcDbEntity
  8
0
100
AcDbLine
 62
7
  6
CONTINUOUS
 10
12.8576739071
 20
9.6938537111
 11
12.7826739071
 21
9.6938537111
  0
LINE
  5
2A7
100
AcDbEntity
  8
0
100
AcDbLine
 62
7
  6
CONTINUOUS
 10
12.8576739071
 20
9.7200923023
 11
12.7826739071
 21
9.7200923023
  0
LINE
  5
2A8
100
AcDbEntity
  8
0
100
AcDbLine
 62
6
  6
CONTINUOUS
 10
10.8606739071
 20
9.7260046158
 11
12.5826739071
 21
9.7260046158
  0
LINE
  5
2A9
100
AcDbEntity
  8
0
100
AcDbLine
 62
7
  6
CONTINUOUS
 10
12.8576739071
 20
9.7318983448
 11
12.7826739071
 21
9.7318983448
  0
LINE
  5
2AA
100
AcDbEntity
  8
0
100
AcDbLine
 62
7
  6
CONTINUOUS
 10
12.7826739071
 20
9.7370302832
 11
12.8576739071
 21
9.7370302832
  0
LINE
  5
2AB
100
AcDbEntity
  8
0
100
AcDbLine
 62
6
  6
CONTINUOUS
 10
12.8576739071
 20
9.7576133639
 11
12.7826739071
 21
9.7576133639
  0
LINE
  5
2AC
100
AcDbEntity
  8
0
100
AcDbLine
 62
7
  6
CONTINUOUS
 10
12.8576739071
 20
9.7691743318
 11
12.7826739071
 21
9.7691743318
  0
LINE
  5
2AD
100
AcDbEntity
  8
0
100
AcDbLine
 62
7
  6
CONTINUOUS
 10
12.7826739071
 20
9.7735848048
 11
12.8576739071
 21
9.7735848048
  0
LINE
  5
2AE
100
AcDbEntity
  8
0
100
AcDbLine
 62
7
  6
CONTINUOUS
 10
12.8576739071
 20
9.7943344488
 11
12.7826739071
 21
9.7943344488
  0
LINE
  5
2AF
100
AcDbEntity
  8
0
100
AcDbLine
 62
6
  6
CONTINUOUS
 10
12.8576739071
 20
9.8056362568
 11
12.7826739071
 21
9.8056362568
  0
LINE
  5
2B0
100
AcDbEntity
  8
0
100
AcDbLine
 62
7
  6
CONTINUOUS
 10
12.7826739071
 20
9.809319891
 11
12.8576739071
 21
9.809319891
  0
LINE
  5
2B1
100
AcDbEntity
  8
0
100
AcDbLine
 62
7
  6
CONTINUOUS
 10
12.8576739071
 20
9.8302108182
 11
12.7826739071
 21
9.8302108182
  0
LINE
  5
2B2
100
AcDbEntity
  8
0
100
AcDbLine
 62
6
  6
CONTINUOUS
 10
12.8576739071
 20
9.8412396968
 11
12.7826739071
 21
9.8412396968
  0
LINE
  5
2B3
100
AcDbEntity
  8
0
100
AcDbLine
 62
6
  6
CONTINUOUS
 10
12.7826739071
 20
9.8441920041
 11
12.8576739071
 21
9.8441920041
  0
LINE
  5
2B4
100
AcDbEntity
  8
0
100
AcDbLine
 62
6
  6
CONTINUOUS
 10
12.8576739071
 20
9.8651987621
 11
12.7826739071
 21
9.8651987621
  0
LINE
  5
2B5
100
AcDbEntity
  8
0
100
AcDbLine
 62
6
  6
CONTINUOUS
 10
12.8576739071
 20
9.8759412743
 11
12.7826739071
 21
9.8759412743
  0
LINE
  5
2B6
100
AcDbEntity
  8
0
100
AcDbLine
 62
6
  6
CONTINUOUS
 10
12.7826739071
 20
9.8781586579
 11
12.8576739071
 21
9.8781586579
  0
LINE
  5
2B7
100
AcDbEntity
  8
0
100
AcDbLine
 62
6
  6
CONTINUOUS
 10
12.8576739071
 20
9.8992556532
 11
12.7826739071
 21
9.8992556532
  0
LINE
  5
2B8
100
AcDbEntity
  8
0
100
AcDbLine
 62
6
  6
CONTINUOUS
 10
12.5826739071
 20
8.1760075987
 11
12.5826739071
 21
10.0260016329
  0
LINE
  5
2B9
100
AcDbEntity
  8
0
100
AcDbLine
 62
6
  6
CONTINUOUS
 10
12.8576739071
 20
9.9096987109
 11
12.7826739071
 21
9.9096987109
  0
LINE
  5
2BA
100
AcDbEntity
  8
0
100
AcDbLine
 62
6
  6
CONTINUOUS
 10
12.7826739071
 20
9.9111784692
 11
12.8576739071
 21
9.9111784692
  0
LINE
  5
2BB
100
AcDbEntity
  8
0
100
AcDbLine
 62
6
  6
CONTINUOUS
 10
12.8576739071
 20
9.9323399983
 11
12.7826739071
 21
9.9323399983
  0
LINE
  5
2BC
100
AcDbEntity
  8
0
100
AcDbLine
 62
7
  6
CONTINUOUS
 10
12.8576739071
 20
9.9424708783
 11
12.7826739071
 21
9.9424708783
  0
LINE
  5
2BD
100
AcDbEntity
  8
0
100
AcDbLine
 62
7
  6
CONTINUOUS
 10
12.7826739071
 20
9.9432112084
 11
12.8576739071
 21
9.9432112084
  0
LINE
  5
2BE
100
AcDbEntity
  8
0
100
AcDbLine
 62
6
  6
CONTINUOUS
 10
12.8576739071
 20
9.9644114893
 11
12.7826739071
 21
9.9644114893
  0
LINE
  5
2BF
100
AcDbEntity
  8
0
100
AcDbLine
 62
6
  6
CONTINUOUS
 10
12.8576739071
 20
9.9742178487
 11
12.7826739071
 21
9.9742178487
  0
LINE
  5
2C0
100
AcDbEntity
  8
0
100
AcDbLine
 62
7
  6
CONTINUOUS
 10
12.8576739071
 20
9.9954310521
 11
12.7826739071
 21
9.9954310521
  0
LINE
  5
2C1
100
AcDbEntity
  8
0
100
AcDbLine
 62
6
  6
CONTINUOUS
 10
12.8576739071
 20
10.0049009432
 11
12.7826739071
 21
10.0049009432
  0
LINE
  5
2C2
100
AcDbEntity
  8
0
100
AcDbLine
 62
6
  6
CONTINUOUS
 10
12.8576739071
 20
10.025360894
 11
12.7826739071
 21
10.025360894
  0
LINE
  5
2C3
100
AcDbEntity
  8
0
100
AcDbLine
 62
6
  6
CONTINUOUS
 10
12.6826739071
 20
8.026007271
 11
12.6826739071
 21
10.1760019606
  0
LINE
  5
2C4
100
AcDbEntity
  8
0
100
AcDbLine
 62
7
  6
CONTINUOUS
 10
12.7826739071
 20
10.3434260131
 11
12.7826739071
 21
10.3397699328
  0
LINE
  5
2C5
100
AcDbEntity
  8
0
100
AcDbLine
 62
7
  6
CONTINUOUS
 10
12.7826739071
 20
10.3378726634
 11
12.7826739071
 21
10.3331796294
  0
LINE
  5
2C6
100
AcDbEntity
  8
0
100
AcDbLine
 62
7
  6
CONTINUOUS
 10
12.7826739071
 20
10.2732716429
 11
12.7826739071
 21
10.2625206044
  0
LINE
  5
2C7
100
AcDbEntity
  8
0
100
AcDbLine
 62
7
  6
CONTINUOUS
 10
12.7826739071
 20
10.2574138011
 11
12.7826739071
 21
10.2456918673
  0
LINE
  5
2C8
100
AcDbEntity
  8
0
100
AcDbLine
 62
7
  6
CONTINUOUS
 10
12.7826739071
 20
10.1574369282
 11
12.7826739071
 21
10.1410977571
  0
LINE
  5
2C9
100
AcDbEntity
  8
0
100
AcDbLine
 62
7
  6
CONTINUOUS
 10
12.7826739071
 20
10.0541645502
 11
12.7826739071
 21
10.0330030211
  0
LINE
  5
2CA
100
AcDbEntity
  8
0
100
AcDbLine
 62
7
  6
CONTINUOUS
 10
12.7826739071
 20
9.9954310521
 11
12.7826739071
 21
9.9742178487
  0
LINE
  5
2CB
100
AcDbEntity
  8
0
100
AcDbLine
 62
7
  6
CONTINUOUS
 10
12.7826739071
 20
9.9432112084
 11
12.7826739071
 21
9.9424708783
  0
LINE
  5
2CC
100
AcDbEntity
  8
0
100
AcDbLine
 62
7
  6
CONTINUOUS
 10
12.7826739071
 20
9.8302108182
 11
12.7826739071
 21
9.809319891
  0
LINE
  5
2CD
100
AcDbEntity
  8
0
100
AcDbLine
 62
7
  6
CONTINUOUS
 10
12.7826739071
 20
9.7943344488
 11
12.7826739071
 21
9.7691743318
  0
LINE
  5
2CE
100
AcDbEntity
  8
0
100
AcDbLine
 62
7
  6
CONTINUOUS
 10
12.7826739071
 20
9.7370302832
 11
12.7826739071
 21
9.7318983448
  0
LINE
  5
2CF
100
AcDbEntity
  8
0
100
AcDbLine
 62
7
  6
CONTINUOUS
 10
12.7826739071
 20
9.7200923023
 11
12.7826739071
 21
9.6938537111
  0
LINE
  5
2D0
100
AcDbEntity
  8
0
100
AcDbLine
 62
7
  6
CONTINUOUS
 10
12.7826739071
 20
9.6428340228
 11
12.7826739071
 21
9.6156447892
  0
LINE
  5
2D1
100
AcDbEntity
  8
0
100
AcDbLine
 62
7
  6
CONTINUOUS
 10
12.7826739071
 20
9.5835223924
 11
12.7826739071
 21
9.5755757865
  0
LINE
  5
2D2
100
AcDbEntity
  8
0
100
AcDbLine
 62
7
  6
CONTINUOUS
 10
12.7826739071
 20
9.5435567792
 11
12.7826739071
 21
9.5349285921
  0
LINE
  5
2D3
100
AcDbEntity
  8
0
100
AcDbLine
 62
7
  6
CONTINUOUS
 10
12.7826739071
 20
9.5030519844
 11
12.7826739071
 21
9.4937527281
  0
LINE
  5
2D4
100
AcDbEntity
  8
0
100
AcDbLine
 62
7
  6
CONTINUOUS
 10
12.7826739071
 20
9.4620573567
 11
12.7826739071
 21
9.452098361
  0
LINE
  5
2D5
100
AcDbEntity
  8
0
100
AcDbLine
 62
7
  6
CONTINUOUS
 10
12.7826739071
 20
9.420622842
 11
12.7826739071
 21
9.4100162402
  0
LINE
  5
2D6
100
AcDbEntity
  8
0
100
AcDbLine
 62
7
  6
CONTINUOUS
 10
12.7826739071
 20
9.3542230943
 11
12.7826739071
 21
9.3366365517
  0
LINE
  5
2D7
100
AcDbEntity
  8
0
100
AcDbLine
 62
7
  6
CONTINUOUS
 10
12.7826739071
 20
8.8653726799
 11
12.7826739071
 21
8.8477861373
  0
LINE
  5
2D8
100
AcDbEntity
  8
0
100
AcDbLine
 62
7
  6
CONTINUOUS
 10
12.7826739071
 20
8.7919929914
 11
12.7826739071
 21
8.7813863897
  0
LINE
  5
2D9
100
AcDbEntity
  8
0
100
AcDbLine
 62
7
  6
CONTINUOUS
 10
12.7826739071
 20
8.7499108706
 11
12.7826739071
 21
8.7399518749
  0
LINE
  5
2DA
100
AcDbEntity
  8
0
100
AcDbLine
 62
7
  6
CONTINUOUS
 10
12.7826739071
 20
8.7082565036
 11
12.7826739071
 21
8.6989572472
  0
LINE
  5
2DB
100
AcDbEntity
  8
0
100
AcDbLine
 62
7
  6
CONTINUOUS
 10
12.7826739071
 20
8.6670806395
 11
12.7826739071
 21
8.6584524524
  0
LINE
  5
2DC
100
AcDbEntity
  8
0
100
AcDbLine
 62
7
  6
CONTINUOUS
 10
12.7826739071
 20
8.6264334451
 11
12.7826739071
 21
8.6184868392
  0
LINE
  5
2DD
100
AcDbEntity
  8
0
100
AcDbLine
 62
7
  6
CONTINUOUS
 10
12.7826739071
 20
8.5863644424
 11
12.7826739071
 21
8.5591752088
  0
LINE
  5
2DE
100
AcDbEntity
  8
0
100
AcDbLine
 62
7
  6
CONTINUOUS
 10
12.7826739071
 20
8.5081555205
 11
12.7826739071
 21
8.4819169293
  0
LINE
  5
2DF
100
AcDbEntity
  8
0
100
AcDbLine
 62
7
  6
CONTINUOUS
 10
12.7826739071
 20
8.4701108868
 11
12.7826739071
 21
8.4649789484
  0
LINE
  5
2E0
100
AcDbEntity
  8
0
100
AcDbLine
 62
7
  6
CONTINUOUS
 10
12.7826739071
 20
8.4328348998
 11
12.7826739071
 21
8.4076747828
  0
LINE
  5
2E1
100
AcDbEntity
  8
0
100
AcDbLine
 62
7
  6
CONTINUOUS
 10
12.7826739071
 20
8.3926893406
 11
12.7826739071
 21
8.3717984134
  0
LINE
  5
2E2
100
AcDbEntity
  8
0
100
AcDbLine
 62
7
  6
CONTINUOUS
 10
12.7826739071
 20
8.2595383533
 11
12.7826739071
 21
8.2587980232
  0
LINE
  5
2E3
100
AcDbEntity
  8
0
100
AcDbLine
 62
7
  6
CONTINUOUS
 10
12.7826739071
 20
8.2277913829
 11
12.7826739071
 21
8.2065781795
  0
LINE
  5
2E4
100
AcDbEntity
  8
0
100
AcDbLine
 62
7
  6
CONTINUOUS
 10
12.7826739071
 20
8.0609114745
 11
12.7826739071
 21
8.0445723034
  0
LINE
  5
2E5
100
AcDbEntity
  8
0
100
AcDbLine
 62
7
  6
CONTINUOUS
 10
12.7826739071
 20
7.9563173643
 11
12.7826739071
 21
7.9445954305
  0
LINE
  5
2E6
100
AcDbEntity
  8
0
100
AcDbLine
 62
7
  6
CONTINUOUS
 10
12.7826739071
 20
7.9394886272
 11
12.7826739071
 21
7.9287375887
  0
LINE
  5
2E7
100
AcDbEntity
  8
0
100
AcDbLine
 62
7
  6
CONTINUOUS
 10
12.7826739071
 20
7.8688296022
 11
12.7826739071
 21
7.8641365682
  0
LINE
  5
2E8
100
AcDbEntity
  8
0
100
AcDbLine
 62
7
  6
CONTINUOUS
 10
12.7826739071
 20
7.8622392988
 11
12.7826739071
 21
7.8585832185
  0
LINE
  5
2E9
100
AcDbEntity
  8
0
100
AcDbLine
 62
6
  6
CONTINUOUS
 10
12.7826739071
 20
7.8510232003
 11
12.7826739071
 21
7.8585832185
  0
LINE
  5
2EA
100
AcDbEntity
  8
0
100
AcDbLine
 62
6
  6
CONTINUOUS
 10
12.7826739071
 20
7.8622392988
 11
12.7826739071
 21
7.8641365682
  0
LINE
  5
2EB
100
AcDbEntity
  8
0
100
AcDbLine
 62
6
  6
CONTINUOUS
 10
12.7826739071
 20
7.8688296022
 11
12.7826739071
 21
7.9287375887
  0
LINE
  5
2EC
100
AcDbEntity
  8
0
100
AcDbLine
 62
6
  6
CONTINUOUS
 10
12.7826739071
 20
7.9394886272
 11
12.7826739071
 21
7.9445954305
  0
LINE
  5
2ED
100
AcDbEntity
  8
0
100
AcDbLine
 62
6
  6
CONTINUOUS
 10
12.7826739071
 20
7.9563173643
 11
12.7826739071
 21
8.0445723034
  0
LINE
  5
2EE
100
AcDbEntity
  8
0
100
AcDbLine
 62
7
  6
CONTINUOUS
 10
12.7826739071
 20
8.1478446814
 11
12.7826739071
 21
8.1690062105
  0
LINE
  5
2EF
100
AcDbEntity
  8
0
100
AcDbLine
 62
6
  6
CONTINUOUS
 10
12.7826739071
 20
8.0609114745
 11
12.7826739071
 21
8.1478446814
  0
LINE
  5
2F0
100
AcDbEntity
  8
0
100
AcDbLine
 62
6
  6
CONTINUOUS
 10
12.7826739071
 20
8.1690062105
 11
12.7826739071
 21
8.2065781795
  0
LINE
  5
2F1
100
AcDbEntity
  8
0
100
AcDbLine
 62
6
  6
CONTINUOUS
 10
12.7826739071
 20
8.2277913829
 11
12.7826739071
 21
8.2587980232
  0
LINE
  5
2F2
100
AcDbEntity
  8
0
100
AcDbLine
 62
6
  6
CONTINUOUS
 10
12.7826739071
 20
8.2595383533
 11
12.7826739071
 21
8.3717984134
  0
LINE
  5
2F3
100
AcDbEntity
  8
0
100
AcDbLine
 62
6
  6
CONTINUOUS
 10
12.7826739071
 20
8.3926893406
 11
12.7826739071
 21
8.4076747828
  0
LINE
  5
2F4
100
AcDbEntity
  8
0
100
AcDbLine
 62
6
  6
CONTINUOUS
 10
12.7826739071
 20
8.4328348998
 11
12.7826739071
 21
8.4649789484
  0
LINE
  5
2F5
100
AcDbEntity
  8
0
100
AcDbLine
 62
6
  6
CONTINUOUS
 10
12.7826739071
 20
8.4701108868
 11
12.7826739071
 21
8.4819169293
  0
LINE
  5
2F6
100
AcDbEntity
  8
0
100
AcDbLine
 62
6
  6
CONTINUOUS
 10
12.7826739071
 20
8.5081555205
 11
12.7826739071
 21
8.5591752088
  0
LINE
  5
2F7
100
AcDbEntity
  8
0
100
AcDbLine
 62
6
  6
CONTINUOUS
 10
12.7826739071
 20
8.5863644424
 11
12.7826739071
 21
8.6184868392
  0
LINE
  5
2F8
100
AcDbEntity
  8
0
100
AcDbLine
 62
6
  6
CONTINUOUS
 10
12.7826739071
 20
8.6264334451
 11
12.7826739071
 21
8.6584524524
  0
LINE
  5
2F9
100
AcDbEntity
  8
0
100
AcDbLine
 62
6
  6
CONTINUOUS
 10
12.7826739071
 20
8.6670806395
 11
12.7826739071
 21
8.6989572472
  0
LINE
  5
2FA
100
AcDbEntity
  8
0
100
AcDbLine
 62
6
  6
CONTINUOUS
 10
12.7826739071
 20
8.7082565036
 11
12.7826739071
 21
8.7399518749
  0
LINE
  5
2FB
100
AcDbEntity
  8
0
100
AcDbLine
 62
6
  6
CONTINUOUS
 10
12.7826739071
 20
8.7499108706
 11
12.7826739071
 21
8.7813863897
  0
LINE
  5
2FC
100
AcDbEntity
  8
0
100
AcDbLine
 62
6
  6
CONTINUOUS
 10
12.7826739071
 20
8.7919929914
 11
12.7826739071
 21
8.8477861373
  0
LINE
  5
2FD
100
AcDbEntity
  8
0
100
AcDbLine
 62
6
  6
CONTINUOUS
 10
12.7826739071
 20
8.8653726799
 11
12.7826739071
 21
9.3366365517
  0
LINE
  5
2FE
100
AcDbEntity
  8
0
100
AcDbLine
 62
6
  6
CONTINUOUS
 10
12.7826739071
 20
9.3542230943
 11
12.7826739071
 21
9.4100162402
  0
LINE
  5
2FF
100
AcDbEntity
  8
0
100
AcDbLine
 62
6
  6
CONTINUOUS
 10
12.7826739071
 20
9.420622842
 11
12.7826739071
 21
9.452098361
  0
LINE
  5
300
100
AcDbEntity
  8
0
100
AcDbLine
 62
6
  6
CONTINUOUS
 10
12.7826739071
 20
9.4620573567
 11
12.7826739071
 21
9.4937527281
  0
LINE
  5
301
100
AcDbEntity
  8
0
100
AcDbLine
 62
6
  6
CONTINUOUS
 10
12.7826739071
 20
9.5030519844
 11
12.7826739071
 21
9.5349285921
  0
LINE
  5
302
100
AcDbEntity
  8
0
100
AcDbLine
 62
6
  6
CONTINUOUS
 10
12.7826739071
 20
9.5435567792
 11
12.7826739071
 21
9.5755757865
  0
LINE
  5
303
100
AcDbEntity
  8
0
100
AcDbLine
 62
6
  6
CONTINUOUS
 10
12.7826739071
 20
9.5835223924
 11
12.7826739071
 21
9.6156447892
  0
LINE
  5
304
100
AcDbEntity
  8
0
100
AcDbLine
 62
6
  6
CONTINUOUS
 10
12.7826739071
 20
9.6428340228
 11
12.7826739071
 21
9.6938537111
  0
LINE
  5
305
100
AcDbEntity
  8
0
100
AcDbLine
 62
6
  6
CONTINUOUS
 10
12.7826739071
 20
9.7200923023
 11
12.7826739071
 21
9.7318983448
  0
LINE
  5
306
100
AcDbEntity
  8
0
100
AcDbLine
 62
6
  6
CONTINUOUS
 10
12.7826739071
 20
9.7370302832
 11
12.7826739071
 21
9.7691743318
  0
LINE
  5
307
100
AcDbEntity
  8
0
100
AcDbLine
 62
6
  6
CONTINUOUS
 10
12.7826739071
 20
9.7943344488
 11
12.7826739071
 21
9.809319891
  0
LINE
  5
308
100
AcDbEntity
  8
0
100
AcDbLine
 62
6
  6
CONTINUOUS
 10
12.7826739071
 20
9.8302108182
 11
12.7826739071
 21
9.9424708783
  0
LINE
  5
309
100
AcDbEntity
  8
0
100
AcDbLine
 62
6
  6
CONTINUOUS
 10
12.7826739071
 20
9.9432112084
 11
12.7826739071
 21
9.9742178487
  0
LINE
  5
30A
100
AcDbEntity
  8
0
100
AcDbLine
 62
6
  6
CONTINUOUS
 10
12.7826739071
 20
9.9954310521
 11
12.7826739071
 21
10.0330030211
  0
LINE
  5
30B
100
AcDbEntity
  8
0
100
AcDbLine
 62
6
  6
CONTINUOUS
 10
12.7826739071
 20
10.0541645502
 11
12.7826739071
 21
10.1410977571
  0
LINE
  5
30C
100
AcDbEntity
  8
0
100
AcDbLine
 62
6
  6
CONTINUOUS
 10
12.7826739071
 20
10.1574369282
 11
12.7826739071
 21
10.2456918673
  0
LINE
  5
30D
100
AcDbEntity
  8
0
100
AcDbLine
 62
6
  6
CONTINUOUS
 10
12.7826739071
 20
10.2574138011
 11
12.7826739071
 21
10.2625206044
  0
LINE
  5
30E
100
AcDbEntity
  8
0
100
AcDbLine
 62
6
  6
CONTINUOUS
 10
12.7826739071
 20
10.2732716429
 11
12.7826739071
 21
10.3331796294
  0
LINE
  5
30F
100
AcDbEntity
  8
0
100
AcDbLine
 62
6
  6
CONTINUOUS
 10
12.7826739071
 20
10.3378726634
 11
12.7826739071
 21
10.3397699328
  0
LINE
  5
310
100
AcDbEntity
  8
0
100
AcDbLine
 62
6
  6
CONTINUOUS
 10
12.7826739071
 20
10.3434260131
 11
12.7826739071
 21
10.3509860313
  0
LINE
  5
311
100
AcDbEntity
  8
0
100
AcDbLine
 62
6
  6
CONTINUOUS
 10
12.8576739071
 20
10.0344827793
 11
12.7826739071
 21
10.0344827793
  0
LINE
  5
312
100
AcDbEntity
  8
0
100
AcDbLine
 62
7
  6
CONTINUOUS
 10
12.8576739071
 20
10.0541645502
 11
12.7826739071
 21
10.0541645502
  0
LINE
  5
313
100
AcDbEntity
  8
0
100
AcDbLine
 62
6
  6
CONTINUOUS
 10
12.8576739071
 20
10.0629273161
 11
12.7826739071
 21
10.0629273161
  0
LINE
  5
314
100
AcDbEntity
  8
0
100
AcDbLine
 62
6
  6
CONTINUOUS
 10
12.8576739071
 20
10.0818069278
 11
12.7826739071
 21
10.0818069278
  0
LINE
  5
315
100
AcDbEntity
  8
0
100
AcDbLine
 62
6
  6
CONTINUOUS
 10
12.8576739071
 20
10.0901998982
 11
12.7826739071
 21
10.0901998982
  0
LINE
  5
316
100
AcDbEntity
  8
0
100
AcDbLine
 62
6
  6
CONTINUOUS
 10
12.8576739071
 20
10.1082543489
 11
12.7826739071
 21
10.1082543489
  0
LINE
  5
317
100
AcDbEntity
  8
0
100
AcDbLine
 62
7
  6
CONTINUOUS
 10
12.8576739071
 20
10.1162672983
 11
12.7826739071
 21
10.1162672983
  0
LINE
  5
318
100
AcDbEntity
  8
0
100
AcDbLine
 62
6
  6
CONTINUOUS
 10
12.8576739071
 20
10.1334745914
 11
12.7826739071
 21
10.1334745914
  0
LINE
  5
319
100
AcDbEntity
  8
0
100
AcDbLine
 62
6
  6
CONTINUOUS
 10
12.8576739071
 20
10.1410977571
 11
12.7826739071
 21
10.1410977571
  0
LINE
  5
31A
100
AcDbEntity
  8
0
100
AcDbLine
 62
7
  6
CONTINUOUS
 10
12.8576739071
 20
10.1574369282
 11
12.7826739071
 21
10.1574369282
  0
LINE
  5
31B
100
AcDbEntity
  8
0
100
AcDbLine
 62
6
  6
CONTINUOUS
 10
12.8576739071
 20
10.3397699328
 11
12.8576739071
 21
10.3378726634
  0
LINE
  5
31C
100
AcDbEntity
  8
0
100
AcDbLine
 62
6
  6
CONTINUOUS
 10
12.8576739071
 20
10.3509860313
 11
12.8576739071
 21
10.3434260131
  0
LINE
  5
31D
100
AcDbEntity
  8
0
100
AcDbLine
 62
7
  6
CONTINUOUS
 10
12.8576739071
 20
10.3434260131
 11
12.8576739071
 21
10.3397699328
  0
LINE
  5
31E
100
AcDbEntity
  8
0
100
AcDbLine
 62
7
  6
CONTINUOUS
 10
12.8576739071
 20
10.3378726634
 11
12.8576739071
 21
10.3331796294
  0
LINE
  5
31F
100
AcDbEntity
  8
0
100
AcDbLine
 62
6
  6
CONTINUOUS
 10
12.8576739071
 20
10.2625206044
 11
12.8576739071
 21
10.2574138011
  0
LINE
  5
320
100
AcDbEntity
  8
0
100
AcDbLine
 62
6
  6
CONTINUOUS
 10
12.8576739071
 20
10.3331796294
 11
12.8576739071
 21
10.2732716429
  0
LINE
  5
321
100
AcDbEntity
  8
0
100
AcDbLine
 62
7
  6
CONTINUOUS
 10
12.8576739071
 20
10.2732716429
 11
12.8576739071
 21
10.2625206044
  0
LINE
  5
322
100
AcDbEntity
  8
0
100
AcDbLine
 62
7
  6
CONTINUOUS
 10
12.8576739071
 20
10.2574138011
 11
12.8576739071
 21
10.2456918673
  0
LINE
  5
323
100
AcDbEntity
  8
0
100
AcDbLine
 62
7
  6
CONTINUOUS
 10
12.8576739071
 20
10.1574369282
 11
12.8576739071
 21
10.1410977571
  0
LINE
  5
324
100
AcDbEntity
  8
0
100
AcDbLine
 62
6
  6
CONTINUOUS
 10
12.8576739071
 20
10.2456918673
 11
12.8576739071
 21
10.1574369282
  0
LINE
  5
325
100
AcDbEntity
  8
0
100
AcDbLine
 62
7
  6
CONTINUOUS
 10
12.8576739071
 20
10.0541645502
 11
12.8576739071
 21
10.0344827793
  0
LINE
  5
326
100
AcDbEntity
  8
0
100
AcDbLine
 62
6
  6
CONTINUOUS
 10
12.8576739071
 20
10.1410977571
 11
12.8576739071
 21
10.0541645502
  0
LINE
  5
327
100
AcDbEntity
  8
0
100
AcDbLine
 62
6
  6
CONTINUOUS
 10
12.8576739071
 20
10.0344827793
 11
12.8576739071
 21
9.9954310521
  0
LINE
  5
328
100
AcDbEntity
  8
0
100
AcDbLine
 62
7
  6
CONTINUOUS
 10
12.8576739071
 20
9.9954310521
 11
12.8576739071
 21
9.9742178487
  0
LINE
  5
329
100
AcDbEntity
  8
0
100
AcDbLine
 62
6
  6
CONTINUOUS
 10
12.8576739071
 20
9.9742178487
 11
12.8576739071
 21
9.9432112084
  0
LINE
  5
32A
100
AcDbEntity
  8
0
100
AcDbLine
 62
7
  6
CONTINUOUS
 10
12.8576739071
 20
9.9432112084
 11
12.8576739071
 21
9.9424708783
  0
LINE
  5
32B
100
AcDbEntity
  8
0
100
AcDbLine
 62
6
  6
CONTINUOUS
 10
12.8576739071
 20
9.9424708783
 11
12.8576739071
 21
9.8302108182
  0
LINE
  5
32C
100
AcDbEntity
  8
0
100
AcDbLine
 62
7
  6
CONTINUOUS
 10
12.8576739071
 20
9.8302108182
 11
12.8576739071
 21
9.809319891
  0
LINE
  5
32D
100
AcDbEntity
  8
0
100
AcDbLine
 62
6
  6
CONTINUOUS
 10
12.8576739071
 20
9.809319891
 11
12.8576739071
 21
9.7943344488
  0
LINE
  5
32E
100
AcDbEntity
  8
0
100
AcDbLine
 62
7
  6
CONTINUOUS
 10
12.8576739071
 20
9.7943344488
 11
12.8576739071
 21
9.7691743318
  0
LINE
  5
32F
100
AcDbEntity
  8
0
100
AcDbLine
 62
6
  6
CONTINUOUS
 10
12.8576739071
 20
9.7691743318
 11
12.8576739071
 21
9.7370302832
  0
LINE
  5
330
100
AcDbEntity
  8
0
100
AcDbLine
 62
7
  6
CONTINUOUS
 10
12.8576739071
 20
9.7370302832
 11
12.8576739071
 21
9.7318983448
  0
LINE
  5
331
100
AcDbEntity
  8
0
100
AcDbLine
 62
6
  6
CONTINUOUS
 10
12.8576739071
 20
9.7318983448
 11
12.8576739071
 21
9.7200923023
  0
LINE
  5
332
100
AcDbEntity
  8
0
100
AcDbLine
 62
7
  6
CONTINUOUS
 10
12.8576739071
 20
9.7200923023
 11
12.8576739071
 21
9.6938537111
  0
LINE
  5
333
100
AcDbEntity
  8
0
100
AcDbLine
 62
6
  6
CONTINUOUS
 10
12.8576739071
 20
9.6938537111
 11
12.8576739071
 21
9.6428340228
  0
LINE
  5
334
100
AcDbEntity
  8
0
100
AcDbLine
 62
7
  6
CONTINUOUS
 10
12.8576739071
 20
9.6428340228
 11
12.8576739071
 21
9.6156447892
  0
LINE
  5
335
100
AcDbEntity
  8
0
100
AcDbLine
 62
7
  6
CONTINUOUS
 10
12.8576739071
 20
9.5835223924
 11
12.8576739071
 21
9.5755757865
  0
LINE
  5
336
100
AcDbEntity
  8
0
100
AcDbLine
 62
6
  6
CONTINUOUS
 10
12.8576739071
 20
9.6156447892
 11
12.8576739071
 21
9.5835223924
  0
LINE
  5
337
100
AcDbEntity
  8
0
100
AcDbLine
 62
6
  6
CONTINUOUS
 10
12.8576739071
 20
9.5755757865
 11
12.8576739071
 21
9.5435567792
  0
LINE
  5
338
100
AcDbEntity
  8
0
100
AcDbLine
 62
7
  6
CONTINUOUS
 10
12.8576739071
 20
9.5435567792
 11
12.8576739071
 21
9.5349285921
  0
LINE
  5
339
100
AcDbEntity
  8
0
100
AcDbLine
 62
6
  6
CONTINUOUS
 10
12.8576739071
 20
9.5349285921
 11
12.8576739071
 21
9.5030519844
  0
LINE
  5
33A
100
AcDbEntity
  8
0
100
AcDbLine
 62
7
  6
CONTINUOUS
 10
12.8576739071
 20
9.5030519844
 11
12.8576739071
 21
9.4937527281
  0
LINE
  5
33B
100
AcDbEntity
  8
0
100
AcDbLine
 62
6
  6
CONTINUOUS
 10
12.8576739071
 20
9.4937527281
 11
12.8576739071
 21
9.4620573567
  0
LINE
  5
33C
100
AcDbEntity
  8
0
100
AcDbLine
 62
7
  6
CONTINUOUS
 10
12.8576739071
 20
9.4620573567
 11
12.8576739071
 21
9.452098361
  0
LINE
  5
33D
100
AcDbEntity
  8
0
100
AcDbLine
 62
7
  6
CONTINUOUS
 10
12.8576739071
 20
9.420622842
 11
12.8576739071
 21
9.4100162402
  0
LINE
  5
33E
100
AcDbEntity
  8
0
100
AcDbLine
 62
6
  6
CONTINUOUS
 10
12.8576739071
 20
9.452098361
 11
12.8576739071
 21
9.420622842
  0
LINE
  5
33F
100
AcDbEntity
  8
0
100
AcDbLine
 62
7
  6
CONTINUOUS
 10
12.8576739071
 20
9.3542230943
 11
12.8576739071
 21
9.3366365517
  0
LINE
  5
340
100
AcDbEntity
  8
0
100
AcDbLine
 62
6
  6
CONTINUOUS
 10
12.8576739071
 20
9.4100162402
 11
12.8576739071
 21
9.3542230943
  0
LINE
  5
341
100
AcDbEntity
  8
0
100
AcDbLine
 62
6
  6
CONTINUOUS
 10
12.8576739071
 20
9.3366365517
 11
12.8576739071
 21
8.8653726799
  0
LINE
  5
342
100
AcDbEntity
  8
0
100
AcDbLine
 62
7
  6
CONTINUOUS
 10
12.8576739071
 20
8.8653726799
 11
12.8576739071
 21
8.8477861373
  0
LINE
  5
343
100
AcDbEntity
  8
0
100
AcDbLine
 62
7
  6
CONTINUOUS
 10
12.8576739071
 20
8.7919929914
 11
12.8576739071
 21
8.7813863897
  0
LINE
  5
344
100
AcDbEntity
  8
0
100
AcDbLine
 62
6
  6
CONTINUOUS
 10
12.8576739071
 20
8.8477861373
 11
12.8576739071
 21
8.7919929914
  0
LINE
  5
345
100
AcDbEntity
  8
0
100
AcDbLine
 62
6
  6
CONTINUOUS
 10
12.8576739071
 20
8.7813863897
 11
12.8576739071
 21
8.7499108706
  0
LINE
  5
346
100
AcDbEntity
  8
0
100
AcDbLine
 62
7
  6
CONTINUOUS
 10
12.8576739071
 20
8.7499108706
 11
12.8576739071
 21
8.7399518749
  0
LINE
  5
347
100
AcDbEntity
  8
0
100
AcDbLine
 62
6
  6
CONTINUOUS
 10
12.8576739071
 20
8.7399518749
 11
12.8576739071
 21
8.7082565036
  0
LINE
  5
348
100
AcDbEntity
  8
0
100
AcDbLine
 62
7
  6
CONTINUOUS
 10
12.8576739071
 20
8.7082565036
 11
12.8576739071
 21
8.6989572472
  0
LINE
  5
349
100
AcDbEntity
  8
0
100
AcDbLine
 62
6
  6
CONTINUOUS
 10
12.8576739071
 20
8.6989572472
 11
12.8576739071
 21
8.6670806395
  0
LINE
  5
34A
100
AcDbEntity
  8
0
100
AcDbLine
 62
7
  6
CONTINUOUS
 10
12.8576739071
 20
8.6670806395
 11
12.8576739071
 21
8.6584524524
  0
LINE
  5
34B
100
AcDbEntity
  8
0
100
AcDbLine
 62
7
  6
CONTINUOUS
 10
12.8576739071
 20
8.6264334451
 11
12.8576739071
 21
8.6184868392
  0
LINE
  5
34C
100
AcDbEntity
  8
0
100
AcDbLine
 62
6
  6
CONTINUOUS
 10
12.8576739071
 20
8.6584524524
 11
12.8576739071
 21
8.6264334451
  0
LINE
  5
34D
100
AcDbEntity
  8
0
100
AcDbLine
 62
6
  6
CONTINUOUS
 10
12.8576739071
 20
8.6184868392
 11
12.8576739071
 21
8.5863644424
  0
LINE
  5
34E
100
AcDbEntity
  8
0
100
AcDbLine
 62
7
  6
CONTINUOUS
 10
12.8576739071
 20
8.5863644424
 11
12.8576739071
 21
8.5591752088
  0
LINE
  5
34F
100
AcDbEntity
  8
0
100
AcDbLine
 62
6
  6
CONTINUOUS
 10
12.8576739071
 20
8.5591752088
 11
12.8576739071
 21
8.5081555205
  0
LINE
  5
350
100
AcDbEntity
  8
0
100
AcDbLine
 62
7
  6
CONTINUOUS
 10
12.8576739071
 20
8.5081555205
 11
12.8576739071
 21
8.4819169293
  0
LINE
  5
351
100
AcDbEntity
  8
0
100
AcDbLine
 62
6
  6
CONTINUOUS
 10
12.8576739071
 20
8.4819169293
 11
12.8576739071
 21
8.4701108868
  0
LINE
  5
352
100
AcDbEntity
  8
0
100
AcDbLine
 62
7
  6
CONTINUOUS
 10
12.8576739071
 20
8.4701108868
 11
12.8576739071
 21
8.4649789484
  0
LINE
  5
353
100
AcDbEntity
  8
0
100
AcDbLine
 62
6
  6
CONTINUOUS
 10
12.8576739071
 20
8.4649789484
 11
12.8576739071
 21
8.4328348998
  0
LINE
  5
354
100
AcDbEntity
  8
0
100
AcDbLine
 62
7
  6
CONTINUOUS
 10
12.8576739071
 20
8.4328348998
 11
12.8576739071
 21
8.4076747828
  0
LINE
  5
355
100
AcDbEntity
  8
0
100
AcDbLine
 62
7
  6
CONTINUOUS
 10
12.8576739071
 20
8.3926893406
 11
12.8576739071
 21
8.3717984134
  0
LINE
  5
356
100
AcDbEntity
  8
0
100
AcDbLine
 62
6
  6
CONTINUOUS
 10
12.8576739071
 20
8.4076747828
 11
12.8576739071
 21
8.3926893406
  0
LINE
  5
357
100
AcDbEntity
  8
0
100
AcDbLine
 62
7
  6
CONTINUOUS
 10
12.8576739071
 20
8.2595383533
 11
12.8576739071
 21
8.2587980232
  0
LINE
  5
358
100
AcDbEntity
  8
0
100
AcDbLine
 62
6
  6
CONTINUOUS
 10
12.8576739071
 20
8.3717984134
 11
12.8576739071
 21
8.2595383533
  0
LINE
  5
359
100
AcDbEntity
  8
0
100
AcDbLine
 62
7
  6
CONTINUOUS
 10
12.8576739071
 20
8.2277913829
 11
12.8576739071
 21
8.2065781795
  0
LINE
  5
35A
100
AcDbEntity
  8
0
100
AcDbLine
 62
6
  6
CONTINUOUS
 10
12.8576739071
 20
8.2587980232
 11
12.8576739071
 21
8.2277913829
  0
LINE
  5
35B
100
AcDbEntity
  8
0
100
AcDbLine
 62
7
  6
CONTINUOUS
 10
12.8576739071
 20
8.1675264523
 11
12.8576739071
 21
8.1478446814
  0
LINE
  5
35C
100
AcDbEntity
  8
0
100
AcDbLine
 62
6
  6
CONTINUOUS
 10
12.8576739071
 20
8.2065781795
 11
12.8576739071
 21
8.1675264523
  0
LINE
  5
35D
100
AcDbEntity
  8
0
100
AcDbLine
 62
7
  6
CONTINUOUS
 10
12.8576739071
 20
8.0609114745
 11
12.8576739071
 21
8.0445723034
  0
LINE
  5
35E
100
AcDbEntity
  8
0
100
AcDbLine
 62
6
  6
CONTINUOUS
 10
12.8576739071
 20
8.1478446814
 11
12.8576739071
 21
8.0609114745
  0
LINE
  5
35F
100
AcDbEntity
  8
0
100
AcDbLine
 62
7
  6
CONTINUOUS
 10
12.8576739071
 20
7.9563173643
 11
12.8576739071
 21
7.9445954305
  0
LINE
  5
360
100
AcDbEntity
  8
0
100
AcDbLine
 62
6
  6
CONTINUOUS
 10
12.8576739071
 20
7.9445954305
 11
12.8576739071
 21
7.9394886272
  0
LINE
  5
361
100
AcDbEntity
  8
0
100
AcDbLine
 62
6
  6
CONTINUOUS
 10
12.8576739071
 20
8.0445723034
 11
12.8576739071
 21
7.9563173643
  0
LINE
  5
362
100
AcDbEntity
  8
0
100
AcDbLine
 62
7
  6
CONTINUOUS
 10
12.8576739071
 20
7.9394886272
 11
12.8576739071
 21
7.9287375887
  0
LINE
  5
363
100
AcDbEntity
  8
0
100
AcDbLine
 62
7
  6
CONTINUOUS
 10
12.8576739071
 20
7.8688296022
 11
12.8576739071
 21
7.8641365682
  0
LINE
  5
364
100
AcDbEntity
  8
0
100
AcDbLine
 62
7
  6
CONTINUOUS
 10
12.8576739071
 20
7.8622392988
 11
12.8576739071
 21
7.8585832185
  0
LINE
  5
365
100
AcDbEntity
  8
0
100
AcDbLine
 62
6
  6
CONTINUOUS
 10
12.8576739071
 20
7.8585832185
 11
12.8576739071
 21
7.8510232003
  0
LINE
  5
366
100
AcDbEntity
  8
0
100
AcDbLine
 62
6
  6
CONTINUOUS
 10
12.8576739071
 20
7.8641365682
 11
12.8576739071
 21
7.8622392988
  0
LINE
  5
367
100
AcDbEntity
  8
0
100
AcDbLine
 62
6
  6
CONTINUOUS
 10
12.8576739071
 20
7.9287375887
 11
12.8576739071
 21
7.8688296022
  0
LINE
  5
368
100
AcDbEntity
  8
0
100
AcDbLine
 62
6
  6
CONTINUOUS
 10
12.8576739071
 20
10.1646610227
 11
12.7826739071
 21
10.1646610227
  0
LINE
  5
369
100
AcDbEntity
  8
0
100
AcDbLine
 62
6
  6
CONTINUOUS
 10
12.8576739071
 20
10.180112165
 11
12.7826739071
 21
10.180112165
  0
LINE
  5
36A
100
AcDbEntity
  8
0
100
AcDbLine
 62
6
  6
CONTINUOUS
 10
12.8576739071
 20
10.1869283868
 11
12.7826739071
 21
10.1869283868
  0
LINE
  5
36B
100
AcDbEntity
  8
0
100
AcDbLine
 62
6
  6
CONTINUOUS
 10
12.8576739071
 20
10.2014726754
 11
12.7826739071
 21
10.2014726754
  0
LINE
  5
36C
100
AcDbEntity
  8
0
100
AcDbLine
 62
6
  6
CONTINUOUS
 10
12.8576739071
 20
10.2078727201
 11
12.7826739071
 21
10.2078727201
  0
LINE
  5
36D
100
AcDbEntity
  8
0
100
AcDbLine
 62
6
  6
CONTINUOUS
 10
12.8576739071
 20
10.2214924351
 11
12.7826739071
 21
10.2214924351
  0
LINE
  5
36E
100
AcDbEntity
  8
0
100
AcDbLine
 62
6
  6
CONTINUOUS
 10
12.8576739071
 20
10.227468505
 11
12.7826739071
 21
10.227468505
  0
LINE
  5
36F
100
AcDbEntity
  8
0
100
AcDbLine
 62
6
  6
CONTINUOUS
 10
12.8576739071
 20
10.2401470529
 11
12.7826739071
 21
10.2401470529
  0
LINE
  5
370
100
AcDbEntity
  8
0
100
AcDbLine
 62
6
  6
CONTINUOUS
 10
12.8576739071
 20
10.2456918673
 11
12.7826739071
 21
10.2456918673
  0
LINE
  5
371
100
AcDbEntity
  8
0
100
AcDbLine
 62
7
  6
CONTINUOUS
 10
12.7826739071
 20
10.2538924173
 11
12.8576739071
 21
10.2538924173
  0
LINE
  5
372
100
AcDbEntity
  8
0
100
AcDbLine
 62
7
  6
CONTINUOUS
 10
12.8576739071
 20
10.2574138011
 11
12.7826739071
 21
10.2574138011
  0
LINE
  5
373
100
AcDbEntity
  8
0
100
AcDbLine
 62
6
  6
CONTINUOUS
 10
12.8576739071
 20
10.2625206044
 11
12.7826739071
 21
10.2625206044
  0
LINE
  5
374
100
AcDbEntity
  8
0
100
AcDbLine
 62
6
  6
CONTINUOUS
 10
12.7826739071
 20
10.2686349569
 11
12.8576739071
 21
10.2686349569
  0
LINE
  5
375
100
AcDbEntity
  8
0
100
AcDbLine
 62
7
  6
CONTINUOUS
 10
12.8576739071
 20
10.2732716429
 11
12.7826739071
 21
10.2732716429
  0
LINE
  5
376
100
AcDbEntity
  8
0
100
AcDbLine
 62
6
  6
CONTINUOUS
 10
12.8576739071
 20
10.2779342132
 11
12.7826739071
 21
10.2779342132
  0
LINE
  5
377
100
AcDbEntity
  8
0
100
AcDbLine
 62
6
  6
CONTINUOUS
 10
12.8576739071
 20
10.2877012579
 11
12.7826739071
 21
10.2877012579
  0
LINE
  5
378
100
AcDbEntity
  8
0
100
AcDbLine
 62
7
  6
CONTINUOUS
 10
12.8576739071
 20
10.2919139147
 11
12.7826739071
 21
10.2919139147
  0
LINE
  5
379
100
AcDbEntity
  8
0
100
AcDbLine
 62
6
  6
CONTINUOUS
 10
13.0576739071
 20
7.9010046158
 11
13.0576739071
 21
10.3010046158
  0
LINE
  5
37A
100
AcDbEntity
  8
0
100
AcDbLine
 62
6
  6
CONTINUOUS
 10
12.8576739071
 20
10.3006850658
 11
12.7826739071
 21
10.3006850658
  0
LINE
  5
37B
100
AcDbEntity
  8
0
100
AcDbLine
 62
6
  6
CONTINUOUS
 10
13.0576739071
 20
10.3010046158
 11
12.8576739071
 21
10.3010046158
  0
LINE
  5
37C
100
AcDbEntity
  8
0
100
AcDbLine
 62
6
  6
CONTINUOUS
 10
12.8576739071
 20
10.3044426765
 11
12.7826739071
 21
10.3044426765
  0
LINE
  5
37D
100
AcDbEntity
  8
0
100
AcDbLine
 62
6
  6
CONTINUOUS
 10
12.8576739071
 20
10.3122072479
 11
12.7826739071
 21
10.3122072479
  0
LINE
  5
37E
100
AcDbEntity
  8
0
100
AcDbLine
 62
6
  6
CONTINUOUS
 10
12.8576739071
 20
10.3155052345
 11
12.7826739071
 21
10.3155052345
  0
LINE
  5
37F
100
AcDbEntity
  8
0
100
AcDbLine
 62
6
  6
CONTINUOUS
 10
12.8576739071
 20
10.3222537661
 11
12.7826739071
 21
10.3222537661
  0
LINE
  5
380
100
AcDbEntity
  8
0
100
AcDbLine
 62
6
  6
CONTINUOUS
 10
12.8576739071
 20
10.3250881106
 11
12.7826739071
 21
10.3250881106
  0
LINE
  5
381
100
AcDbEntity
  8
0
100
AcDbLine
 62
6
  6
CONTINUOUS
 10
12.8576739071
 20
10.3308123804
 11
12.7826739071
 21
10.3308123804
  0
LINE
  5
382
100
AcDbEntity
  8
0
100
AcDbLine
 62
6
  6
CONTINUOUS
 10
12.8576739071
 20
10.3331796294
 11
12.7826739071
 21
10.3331796294
  0
LINE
  5
383
100
AcDbEntity
  8
0
100
AcDbLine
 62
7
  6
CONTINUOUS
 10
12.8576739071
 20
10.3378726634
 11
12.7826739071
 21
10.3378726634
  0
LINE
  5
384
100
AcDbEntity
  8
0
100
AcDbLine
 62
6
  6
CONTINUOUS
 10
12.8576739071
 20
10.3397699328
 11
12.7826739071
 21
10.3397699328
  0
LINE
  5
385
100
AcDbEntity
  8
0
100
AcDbLine
 62
7
  6
CONTINUOUS
 10
12.8576739071
 20
10.3434260131
 11
12.7826739071
 21
10.3434260131
  0
LINE
  5
386
100
AcDbEntity
  8
0
100
AcDbLine
 62
6
  6
CONTINUOUS
 10
12.8576739071
 20
10.3448509915
 11
12.7826739071
 21
10.3448509915
  0
LINE
  5
387
100
AcDbEntity
  8
0
100
AcDbLine
 62
6
  6
CONTINUOUS
 10
12.8576739071
 20
10.3474656638
 11
12.7826739071
 21
10.3474656638
  0
LINE
  5
388
100
AcDbEntity
  8
0
100
AcDbLine
 62
6
  6
CONTINUOUS
 10
12.8576739071
 20
10.348416615
 11
12.7826739071
 21
10.348416615
  0
LINE
  5
389
100
AcDbEntity
  8
0
100
AcDbLine
 62
6
  6
CONTINUOUS
 10
12.8576739071
 20
10.3499866937
 11
12.7826739071
 21
10.3499866937
  0
LINE
  5
38A
100
AcDbEntity
  8
0
100
AcDbLine
 62
6
  6
CONTINUOUS
 10
12.8576739071
 20
10.3504624591
 11
12.7826739071
 21
10.3504624591
  0
LINE
  5
38B
100
AcDbEntity
  8
0
100
AcDbLine
 62
6
  6
CONTINUOUS
 10
12.8576739071
 20
10.3509860313
 11
12.7826739071
 21
10.3509860313
  0
LINE
  5
38C
100
AcDbEntity
  8
0
100
AcDbLine
 62
6
  6
CONTINUOUS
 10
13.2576739071
 20
10.3510046158
 11
13.1076739071
 21
10.3510046158
  0
LINE
  5
38D
100
AcDbEntity
  8
0
100
AcDbLine
 62
6
  6
CONTINUOUS
 10
13.1076739071
 20
7.8510046158
 11
13.1076739071
 21
10.3510046158
  0
LINE
  5
38E
100
AcDbEntity
  8
0
100
AcDbLine
 62
6
  6
CONTINUOUS
 10
13.2576739071
 20
7.8510070204
 11
13.2576739071
 21
10.3510022112
  0
ARC
  5
38F
100
AcDbEntity
  8
0
100
AcDbCircle
 62
6
  6
CONTINUOUS
 10
10.8606739071
 20
9.1010046158
 40
0.625
100
AcDbArc
 50
90.0
 51
270.0
  0
ARC
  5
390
100
AcDbEntity
  8
0
100
AcDbCircle
 62
6
  6
CONTINUOUS
 10
12.6826739071
 20
7.9260046158
 40
0.1
100
AcDbArc
 50
4.2173648651
 51
90.0
  0
ARC
  5
391
100
AcDbEntity
  8
0
100
AcDbCircle
 62
6
  6
CONTINUOUS
 10
12.5826739071
 20
8.0760046158
 40
0.1
100
AcDbArc
 50
0.3275603096
 51
90.0
  0
ARC
  5
392
100
AcDbEntity
  8
0
100
AcDbCircle
 62
6
  6
CONTINUOUS
 10
12.6826739071
 20
10.2760046158
 40
0.1
100
AcDbArc
 50
270.0
 51
355.7826351349
  0
ARC
  5
393
100
AcDbEntity
  8
0
100
AcDbCircle
 62
6
  6
CONTINUOUS
 10
12.5826739071
 20
10.1260046158
 40
0.1
100
AcDbArc
 50
270.0
 51
359.6724396904
  0
ENDSEC
  0
SECTION
  2
OBJECTS
  0
DICTIONARY
  5
C
100
AcDbDictionary
280
0
281
1
  3
ACAD_GROUP
350
D
  3
ACAD_MLINESTYLE
350
17
  3
ACAD_LAYOUT
350
1A
  3
ACAD_PLOTSETTINGS
350
19
  3
ACAD_PLOTSTYLENAME
350
E
  0
DICTIONARY
  5
D
102
{ACAD_REACTORS
330
C
102
}
100
AcDbDictionary
280
0
281
1
  0
ACDBDICTIONARYWDFLT
  5
E
102
{ACAD_REACTORS
330
C
102
}
100
AcDbDictionary
281
1
  3
Normal
350
F
100
AcDbDictionaryWithDefault
340
F
  0
DICTIONARY
  5
17
102
{ACAD_REACTORS
330
C
102
}
100
AcDbDictionary
280
0
281
1
  3
Standard
350
18
  0
DICTIONARY
  5
19
102
{ACAD_REACTORS
330
C
102
}
100
AcDbDictionary
281
1
  0
DICTIONARY
  5
1A
102
{ACAD_REACTORS
330
C
102
}
100
AcDbDictionary
281
1
  3
Model
350
394
  3
Layout1
350
395
  0
ACDBPLACEHOLDER
  5
F
102
{ACAD_REACTORS
330
E
102
}
  0
MLINESTYLE
  5
18
102
{ACAD_REACTORS
330
17
102
}
100
AcDbMlineStyle
  2
STANDARD
 70
0
  3

 62
256
 51
90.0
 52
90.0
 71
2
 49
0.5
 62
256
  6
BYLAYER
 49
-0.5
 62
256
  6
BYLAYER
  0
LAYOUT
  5
394
102
{ACAD_REACTORS
330
1A
102
}
100
AcDbPlotSettings
  1

  2
none_device
  4
ISO_A2_(594.00_x_420.00_MM)
  6

 40
0.0
 41
0.0
 42
0.0
 43
0.0
 44
594.0
 45
420.0
 46
0.0
 47
0.0
 48
0.0
 49
0.0
140
0.0
141
0.0
142
1.0
143
1.0
 70
1024
 72
0
 73
0
 74
0
  7

 75
0
147
1.0
148
0.0
149
0.0
100
AcDbLayout
  1
Model
 70
0
 71
0
 10
0.0
 20
0.0
 11
23.3858267717
 21
16.5354330709
 12
0.0
 22
0.0
 32
0.0
 14
0.0
 24
0.0
 34
0.0
 15
0.0
 25
0.0
 35
0.0
146
0.0
 13
0.0
 23
0.0
 33
0.0
 16
1.0
 26
0.0
 36
0.0
 17
0.0
 27
1.0
 37
0.0
 76
0
330
203
345
0
346
0
  0
LAYOUT
  5
395
102
{ACAD_REACTORS
330
1A
102
}
100
AcDbPlotSettings
  1

  2
none_device
  4
ISO_A2_(594.00_x_420.00_MM)
  6

 40
0.0
 41
0.0
 42
0.0
 43
0.0
 44
594.0
 45
420.0
 46
0.0
 47
0.0
 48
0.0
 49
0.0
140
0.0
141
0.0
142
1.0
143
1.0
 70
0
 72
0
 73
0
 74
0
  7

 75
0
147
1.0
148
0.0
149
0.0
100
AcDbLayout
  1
Layout1
 70
0
 71
1
 10
0.0
 20
0.0
 11
23.3858267717
 21
16.5354330709
 12
0.0
 22
0.0
 32
0.0
 14
0.0
 24
0.0
 34
0.0
 15
0.0
 25
0.0
 35
0.0
146
0.0
 13
0.0
 23
0.0
 33
0.0
 16
1.0
 26
0.0
 36
0.0
 17
0.0
 27
1.0
 37
0.0
 76
0
330
204
345
0
346
0
  0
ENDSEC
  0
EOF
