  0
SECTION
  2
HEADER
  9
$ACADVER
  1
AC1021
  9
$DWGCODEPAGE
  3
ANSI_1252
  9
$EXTMAX
 10
46.811023622
 20
33.1102362205
 30
0.0
  9
$EXTMIN
 10
0.0
 20
0.0
 30
0.0
  9
$LIMMIN
 10
0.0
 20
0.0
  9
$LIMMAX
 10
46.811023622
 20
33.1102362205
  9
$VIEWCTR
 10
23.405511811
 20
16.5551181102
  9
$VIEWSIZE
 40
33.1102362205
  9
$CLAYER
  8
0
  9
$LTSCALE
 40
2.5746062992
  9
$CELTYPE
  6
BYLAYER
  9
$DIMSCALE
 40
1.0
  9
$DIMASZ
 40
0.1875
  9
$DIMEXO
 40
0.2925688976
  9
$DIMDLI
 40
1.7788188976
  9
$DIMEXE
 40
0.8425984252
  9
$DIMCEN
 40
0.4212992126
  9
$DIMLFAC
 40
1.0
  9
$DIMBLK
  1
_CLOSED
  9
$DIMTXT
 40
0.15625
  9
$DIMTOL
 70
0
  9
$DIMLIM
 70
0
  9
$DIMTFAC
 40
1.0
  9
$PDMODE
 70
3
  9
$PDSIZE
 40
0.3125
  9
$HANDSEED
  5
4AA
  9
$TILEMODE
 70
1
  9
$MEASUREMENT
 70
0
  9
$INSUNITS
 70
1
  0
ENDSEC
  0
SECTION
  2
CLASSES
  0
CLASS
  1
ACDBDICTIONARYWDFLT
  2
AcDbDictionaryWithDefault
  3
AutoCAD 2000
 90
0
 91
1
280
0
281
0
  0
CLASS
  1
ACDBPLACEHOLDER
  2
AcDbPlaceHolder
  3
AutoCAD 2000
 90
0
 91
1
280
0
281
0
  0
CLASS
  1
LAYOUT
  2
AcDbLayout
  3
AutoCAD 2000
 90
0
 91
0
280
0
281
0
  0
ENDSEC
  0
SECTION
  2
TABLES
  0
TABLE
  2
VPORT
  5
8
100
AcDbSymbolTable
 70
2
  0
VPORT
  5
1F4
100
AcDbSymbolTableRecord
100
AcDbViewportTableRecord
  2
*ACTIVE
 70
0
 10
0.0
 20
0.0
 11
1.0
 21
1.0
 12
23.405511811
 22
16.5551181102
 13
0.0
 23
0.0
 14
1.0
 24
1.0
 15
0.0
 25
0.0
 16
0.0
 26
0.0
 36
1.0
 17
0.0
 27
0.0
 37
0.0
 40
33.1102362205
 41
1.4137931034
 42
50.0
 43
0.0
 44
0.0
 50
0.0
 51
0.0
 71
0
 72
100
 73
1
 74
1
 75
0
 76
0
 77
0
 78
0
  0
ENDTAB
  0
TABLE
  2
LTYPE
  5
5
100
AcDbSymbolTable
 70
6
  0
LTYPE
  5
14
100
AcDbSymbolTableRecord
100
AcDbLinetypeTableRecord
  2
BYBLOCK
 70
0
  3

 72
65
 73
0
 40
0.0
  0
LTYPE
  5
15
100
AcDbSymbolTableRecord
100
AcDbLinetypeTableRecord
  2
BYLAYER
 70
0
  3

 72
65
 73
0
 40
0.0
  0
LTYPE
  5
16
100
AcDbSymbolTableRecord
100
AcDbLinetypeTableRecord
  2
CONTINUOUS
 70
64
  3
Solid line
 72
65
 73
0
 40
0.0
  0
LTYPE
  5
1F5
100
AcDbSymbolTableRecord
100
AcDbLinetypeTableRecord
  2
CENTER
 70
64
  3
____ _ ____ _ ____ _ ____ _ ____ _ ____ _ ____
 72
65
 73
4
 40
0.6
 49
0.375
 74
0
 49
-0.075
 74
0
 49
0.075
 74
0
 49
-0.075
 74
0
  0
LTYPE
  5
1F6
100
AcDbSymbolTableRecord
100
AcDbLinetypeTableRecord
  2
HIDDEN
 70
64
  3
- - - - - - - - - - - - - - - - - - - -
 72
65
 73
2
 40
0.2
 49
0.1
 74
0
 49
-0.1
 74
0
  0
LTYPE
  5
1F7
100
AcDbSymbolTableRecord
100
AcDbLinetypeTableRecord
  2
PHANTOM
 70
64
  3
_____ _ _ _____ _ _ _____ _ _ _____
 72
65
 73
6
 40
0.8
 49
0.45
 74
0
 49
-0.05
 74
0
 49
0.1
 74
0
 49
-0.05
 74
0
 49
0.1
 74
0
 49
-0.05
 74
0
  0
LTYPE
  5
1F8
100
AcDbSymbolTableRecord
100
AcDbLinetypeTableRecord
  2
DOT
 70
64
  3
. . . . . . . . . . . . . . . . . . . .
 72
65
 73
2
 40
0.2
 49
0.1
 74
0
 49
-0.1
 74
0
  0
LTYPE
  5
1F9
100
AcDbSymbolTableRecord
100
AcDbLinetypeTableRecord
  2
DASHED
 70
64
  3
- - - - - - - - - - - - - - - - - - - -
 72
65
 73
2
 40
0.2
 49
0.1
 74
0
 49
-0.1
 74
0
  0
ENDTAB
  0
TABLE
  2
LAYER
  5
2
100
AcDbSymbolTable
 70
36
  0
LAYER
  5
10
100
AcDbSymbolTableRecord
100
AcDbLayerTableRecord
  2
0
 70
0
 62
7
  6
CONTINUOUS
370
-3
390
F
  0
LAYER
  5
1FA
100
AcDbSymbolTableRecord
100
AcDbLayerTableRecord
  2
DEFAULT_1
 70
0
 62
7
  6
CENTER
370
-3
390
F
  0
LAYER
  5
1FB
100
AcDbSymbolTableRecord
100
AcDbLayerTableRecord
  2
DEFAULT_2
 70
0
 62
8
  6
HIDDEN
370
-3
390
F
  0
LAYER
  5
1FC
100
AcDbSymbolTableRecord
100
AcDbLayerTableRecord
  2
DEFAULT_3
 70
0
 62
7
  6
PHANTOM
370
-3
390
F
  0
LAYER
  5
1FD
100
AcDbSymbolTableRecord
100
AcDbLayerTableRecord
  2
DEFAULT_COORDINATE_SYSTEM
 70
0
 62
7
  6
CONTINUOUS
370
-3
390
F
  0
LAYER
  5
1FE
100
AcDbSymbolTableRecord
100
AcDbLayerTableRecord
  2
DEFAULT_DATUM_AXES
 70
0
 62
7
  6
CONTINUOUS
370
-3
390
F
  0
LAYER
  5
1FF
100
AcDbSymbolTableRecord
100
AcDbLayerTableRecord
  2
DEFAULT_DATUM_CURVES
 70
0
 62
7
  6
CONTINUOUS
370
-3
390
F
  0
LAYER
  5
200
100
AcDbSymbolTableRecord
100
AcDbLayerTableRecord
  2
DEFAULT_DATUM_PLANES
 70
0
 62
7
  6
CONTINUOUS
370
-3
390
F
  0
ENDTAB
  0
TABLE
  2
STYLE
  5
3
100
AcDbSymbolTable
 70
1
  0
STYLE
  5
11
100
AcDbSymbolTableRecord
100
AcDbTextStyleTableRecord
  2
STANDARD
 70
0
 40
0.0
 41
0.8
 50
0.0
 71
0
 42
0.2
  3
txt
  4

  0
STYLE
  5
201
100
AcDbSymbolTableRecord
100
AcDbTextStyleTableRecord
  2
TEXTSTYLE_1
 70
0
 40
0.0
 41
0.8
 50
0.0
 71
0
 42
0.2
  3
gdt
  4

  0
ENDTAB
  0
TABLE
  2
VIEW
  5
6
100
AcDbSymbolTable
 70
0
  0
ENDTAB
  0
TABLE
  2
UCS
  5
7
100
AcDbSymbolTable
 70
0
  0
ENDTAB
  0
TABLE
  2
APPID
  5
9
100
AcDbSymbolTable
 70
1
  0
APPID
  5
202
100
AcDbSymbolTableRecord
100
AcDbRegAppTableRecord
  2
ACAD
 70
0
  0
ENDTAB
  0
TABLE
  2
BLOCK_RECORD
  5
1
100
AcDbSymbolTable
 70
0
  0
BLOCK_RECORD
  5
203
100
AcDbSymbolTableRecord
100
AcDbBlockTableRecord
  2
*Model_Space
  0
BLOCK_RECORD
  5
204
100
AcDbSymbolTableRecord
100
AcDbBlockTableRecord
  2
*Paper_Space
  0
ENDTAB
  0
TABLE
  2
DIMSTYLE
  5
A
100
AcDbSymbolTable
 70
1
100
AcDbDimStyleTable
 71
0
  0
DIMSTYLE
105
205
100
AcDbSymbolTableRecord
100
AcDbDimStyleTableRecord
  2
STANDARD
 70
0
  3

  4

 40
1.0
 41
0.1875
 42
0.0625
 43
0.38
 44
0.18
 45
0.0
 46
0.0
 47
0.001
 48
0.001
140
0.15625
141
0.09
142
0.0
143
25.4
144
1.0
145
0.0
146
1.0
147
0.09
 71
0.0
 72
0.0
 73
1
 74
1
 75
0
 76
0
 77
0
 78
4
170
0
171
2
172
0
173
0
174
0
175
0
176
0
177
0
178
0
270
2
271
3
272
3
273
2
274
2
275
0
280
0
281
0
282
0
283
1
284
4
285
0
286
0
287
3
288
0
340
11
  0
ENDTAB
  0
ENDSEC
  0
SECTION
  2
BLOCKS
  0
BLOCK
  5
20
100
AcDbEntity
  8
0
100
AcDbBlockBegin
  2
*Model_Space
 70
0
 10
0.0
 20
0.0
 30
0.0
  3
*Model_Space
  1

  0
ENDBLK
  5
21
100
AcDbEntity
  8
0
100
AcDbBlockEnd
  0
BLOCK
  5
1C
100
AcDbEntity
  8
0
100
AcDbBlockBegin
  2
*Paper_Space
 70
0
 10
0.0
 20
0.0
 30
0.0
  3
*Paper_Space
  1

  0
ENDBLK
  5
1D
100
AcDbEntity
  8
0
100
AcDbBlockEnd
  0
ENDSEC
  0
SECTION
  2
ENTITIES
  0
LINE
  5
206
100
AcDbEntity
  8
0
100
AcDbLine
 62
6
  6
CONTINUOUS
 10
4.534421036
 20
14.9643679016
 11
4.5322036525
 21
14.9854648969
  0
LINE
  5
207
100
AcDbEntity
  8
0
100
AcDbLine
 62
6
  6
CONTINUOUS
 10
4.3496523778
 20
16.7223242558
 11
4.3474349942
 21
16.743421251
  0
LINE
  5
208
100
AcDbEntity
  8
0
100
AcDbLine
 62
6
  6
CONTINUOUS
 10
4.5006635994
 20
14.9920102793
 11
4.4991838412
 21
15.0131718084
  0
LINE
  5
209
100
AcDbEntity
  8
0
100
AcDbLine
 62
7
  6
CONTINUOUS
 10
4.3773592893
 20
16.755344067
 11
4.375879531
 21
16.7765055962
  0
LINE
  5
20A
100
AcDbEntity
  8
0
100
AcDbLine
 62
7
  6
CONTINUOUS
 10
4.4678914321
 20
15.0208139355
 11
4.4671511019
 21
15.0420142164
  0
LINE
  5
20B
100
AcDbEntity
  8
0
100
AcDbLine
 62
7
  6
CONTINUOUS
 10
4.4062016972
 20
16.7873768063
 11
4.4054613671
 21
16.8085770872
  0
LINE
  5
20C
100
AcDbEntity
  8
0
100
AcDbLine
 62
6
  6
CONTINUOUS
 10
4.4361444617
 20
15.0507437774
 11
4.4361444617
 21
15.0719569808
  0
LINE
  5
20D
100
AcDbEntity
  8
0
100
AcDbLine
 62
6
  6
CONTINUOUS
 10
4.4361444617
 20
16.8183834465
 11
4.4361444617
 21
16.83959665
  0
LINE
  5
20E
100
AcDbEntity
  8
0
100
AcDbLine
 62
7
  6
CONTINUOUS
 10
4.4054613671
 20
15.0817633401
 11
4.4062016972
 21
15.1029636211
  0
LINE
  5
20F
100
AcDbEntity
  8
0
100
AcDbLine
 62
7
  6
CONTINUOUS
 10
4.4671511019
 20
16.848326211
 11
4.4678914321
 21
16.8695264919
  0
LINE
  5
210
100
AcDbEntity
  8
0
100
AcDbLine
 62
7
  6
CONTINUOUS
 10
4.375879531
 20
15.1138348312
 11
4.3773592893
 21
15.1349963603
  0
LINE
  5
211
100
AcDbEntity
  8
0
100
AcDbLine
 62
6
  6
CONTINUOUS
 10
4.4991838412
 20
16.8771686189
 11
4.5006635994
 21
16.8983301481
  0
LINE
  5
212
100
AcDbEntity
  8
0
100
AcDbLine
 62
6
  6
CONTINUOUS
 10
4.3474349942
 20
15.1469191763
 11
4.3496523778
 21
15.1680161716
  0
LINE
  5
213
100
AcDbEntity
  8
0
100
AcDbLine
 62
6
  6
CONTINUOUS
 10
4.5322036525
 20
16.9048755304
 11
4.534421036
 21
16.9259725257
  0
LINE
  5
214
100
AcDbEntity
  8
0
100
AcDbLine
 62
7
  6
CONTINUOUS
 10
4.3201624121
 20
15.1809760674
 11
4.3231147194
 21
15.2019828254
  0
LINE
  5
215
100
AcDbEntity
  8
0
100
AcDbLine
 62
7
  6
CONTINUOUS
 10
4.5661703063
 20
16.9314131888
 11
4.5691226136
 21
16.9524199468
  0
LINE
  5
216
100
AcDbEntity
  8
0
100
AcDbLine
 62
7
  6
CONTINUOUS
 10
4.2940950121
 20
15.2159640113
 11
4.2977786462
 21
15.2368549385
  0
LINE
  5
217
100
AcDbEntity
  8
0
100
AcDbLine
 62
7
  6
CONTINUOUS
 10
4.6010424194
 20
16.956749262
 11
4.6047260535
 21
16.9776401892
  0
LINE
  5
218
100
AcDbEntity
  8
0
100
AcDbLine
 62
7
  6
CONTINUOUS
 10
4.2692645532
 20
15.2518403807
 11
4.2736750262
 21
15.2725900247
  0
LINE
  5
219
100
AcDbEntity
  8
0
100
AcDbLine
 62
7
  6
CONTINUOUS
 10
4.6367775056
 20
16.980852882
 11
4.6411879786
 21
17.0016025261
  0
LINE
  5
21A
100
AcDbEntity
  8
0
100
AcDbLine
 62
6
  6
CONTINUOUS
 10
4.2457012876
 20
15.2885614656
 11
4.250833226
 21
15.3091445463
  0
LINE
  5
21B
100
AcDbEntity
  8
0
100
AcDbLine
 62
7
  6
CONTINUOUS
 10
4.6733320271
 20
17.0036946822
 11
4.6784639655
 21
17.0242777628
  0
LINE
  5
21C
100
AcDbEntity
  8
0
100
AcDbLine
 62
6
  6
CONTINUOUS
 10
4.2234339235
 20
15.3260825272
 11
4.2292810748
 21
15.3464739671
  0
LINE
  5
21D
100
AcDbEntity
  8
0
100
AcDbLine
 62
7
  6
CONTINUOUS
 10
4.710661448
 20
17.0252468334
 11
4.7165085993
 21
17.0456382733
  0
LINE
  5
21E
100
AcDbEntity
  8
0
100
AcDbLine
 62
7
  6
CONTINUOUS
 10
4.2024895903
 20
15.3643578518
 11
4.2090448306
 21
15.3845328071
  0
LINE
  5
21F
100
AcDbEntity
  8
0
100
AcDbLine
 62
7
  6
CONTINUOUS
 10
4.748720288
 20
17.0454830776
 11
4.7552755284
 21
17.0656580329
  0
LINE
  5
220
100
AcDbEntity
  8
0
100
AcDbLine
 62
7
  6
CONTINUOUS
 10
4.7552755284
 20
14.8246823944
 11
4.748720288
 21
14.8448573498
  0
LINE
  5
221
100
AcDbEntity
  8
0
100
AcDbLine
 62
7
  6
CONTINUOUS
 10
4.2090448306
 20
16.5058076202
 11
4.2024895903
 21
16.5259825756
  0
LINE
  5
222
100
AcDbEntity
  8
0
100
AcDbLine
 62
7
  6
CONTINUOUS
 10
4.7165085993
 20
14.8447021541
 11
4.710661448
 21
14.865093594
  0
LINE
  5
223
100
AcDbEntity
  8
0
100
AcDbLine
 62
6
  6
CONTINUOUS
 10
4.2292810748
 20
16.5438664602
 11
4.2234339235
 21
16.5642579002
  0
LINE
  5
224
100
AcDbEntity
  8
0
100
AcDbLine
 62
7
  6
CONTINUOUS
 10
4.6784639655
 20
14.8660626645
 11
4.6733320271
 21
14.8866457451
  0
LINE
  5
225
100
AcDbEntity
  8
0
100
AcDbLine
 62
6
  6
CONTINUOUS
 10
4.250833226
 20
16.5811958811
 11
4.2457012876
 21
16.6017789617
  0
LINE
  5
226
100
AcDbEntity
  8
0
100
AcDbLine
 62
7
  6
CONTINUOUS
 10
4.6411879786
 20
14.8887379013
 11
4.6367775056
 21
14.9094875453
  0
LINE
  5
227
100
AcDbEntity
  8
0
100
AcDbLine
 62
7
  6
CONTINUOUS
 10
4.2736750262
 20
16.6177504026
 11
4.2692645532
 21
16.6385000467
  0
LINE
  5
228
100
AcDbEntity
  8
0
100
AcDbLine
 62
7
  6
CONTINUOUS
 10
4.6047260535
 20
14.9127002381
 11
4.6010424194
 21
14.9335911653
  0
LINE
  5
229
100
AcDbEntity
  8
0
100
AcDbLine
 62
7
  6
CONTINUOUS
 10
4.2977786462
 20
16.6534854888
 11
4.2940950121
 21
16.674376416
  0
LINE
  5
22A
100
AcDbEntity
  8
0
100
AcDbLine
 62
7
  6
CONTINUOUS
 10
4.5691226136
 20
14.9379204806
 11
4.5661703063
 21
14.9589272386
  0
LINE
  5
22B
100
AcDbEntity
  8
0
100
AcDbLine
 62
7
  6
CONTINUOUS
 10
4.3231147194
 20
16.688357602
 11
4.3201624121
 21
16.70936436
  0
LINE
  5
22C
100
AcDbEntity
  8
0
100
AcDbLine
 62
7
  6
CONTINUOUS
 10
6.0842943531
 20
16.9259725257
 11
6.0865117366
 21
16.9048755304
  0
LINE
  5
22D
100
AcDbEntity
  8
0
100
AcDbLine
 62
7
  6
CONTINUOUS
 10
6.2690630113
 20
15.1680161716
 11
6.2712803948
 21
15.1469191763
  0
LINE
  5
22E
100
AcDbEntity
  8
0
100
AcDbLine
 62
6
  6
CONTINUOUS
 10
6.1180517896
 20
16.8983301481
 11
6.1195315479
 21
16.8771686189
  0
LINE
  5
22F
100
AcDbEntity
  8
0
100
AcDbLine
 62
7
  6
CONTINUOUS
 10
6.2413560998
 20
15.1349963603
 11
6.2428358581
 21
15.1138348312
  0
LINE
  5
230
100
AcDbEntity
  8
0
100
AcDbLine
 62
7
  6
CONTINUOUS
 10
6.150823957
 20
16.8695264919
 11
6.1515642872
 21
16.848326211
  0
LINE
  5
231
100
AcDbEntity
  8
0
100
AcDbLine
 62
7
  6
CONTINUOUS
 10
6.2125136918
 20
15.1029636211
 11
6.213254022
 21
15.0817633401
  0
LINE
  5
232
100
AcDbEntity
  8
0
100
AcDbLine
 62
7
  6
CONTINUOUS
 10
6.1825709274
 20
16.83959665
 11
6.1825709274
 21
16.8183834465
  0
LINE
  5
233
100
AcDbEntity
  8
0
100
AcDbLine
 62
7
  6
CONTINUOUS
 10
6.1825709274
 20
15.0719569808
 11
6.1825709274
 21
15.0507437774
  0
LINE
  5
234
100
AcDbEntity
  8
0
100
AcDbLine
 62
7
  6
CONTINUOUS
 10
6.213254022
 20
16.8085770872
 11
6.2125136918
 21
16.7873768063
  0
LINE
  5
235
100
AcDbEntity
  8
0
100
AcDbLine
 62
7
  6
CONTINUOUS
 10
6.1515642872
 20
15.0420142164
 11
6.150823957
 21
15.0208139355
  0
LINE
  5
236
100
AcDbEntity
  8
0
100
AcDbLine
 62
7
  6
CONTINUOUS
 10
6.2428358581
 20
16.7765055962
 11
6.2413560998
 21
16.755344067
  0
LINE
  5
237
100
AcDbEntity
  8
0
100
AcDbLine
 62
6
  6
CONTINUOUS
 10
6.1195315479
 20
15.0131718084
 11
6.1180517896
 21
14.9920102793
  0
LINE
  5
238
100
AcDbEntity
  8
0
100
AcDbLine
 62
7
  6
CONTINUOUS
 10
6.2712803948
 20
16.743421251
 11
6.2690630113
 21
16.7223242558
  0
LINE
  5
239
100
AcDbEntity
  8
0
100
AcDbLine
 62
7
  6
CONTINUOUS
 10
6.0865117366
 20
14.9854648969
 11
6.0842943531
 21
14.9643679016
  0
LINE
  5
23A
100
AcDbEntity
  8
0
100
AcDbLine
 62
6
  6
CONTINUOUS
 10
6.298552977
 20
16.70936436
 11
6.2956006697
 21
16.688357602
  0
LINE
  5
23B
100
AcDbEntity
  8
0
100
AcDbLine
 62
7
  6
CONTINUOUS
 10
6.0525450828
 20
14.9589272386
 11
6.0495927755
 21
14.9379204806
  0
LINE
  5
23C
100
AcDbEntity
  8
0
100
AcDbLine
 62
6
  6
CONTINUOUS
 10
6.324620377
 20
16.674376416
 11
6.3209367429
 21
16.6534854888
  0
LINE
  5
23D
100
AcDbEntity
  8
0
100
AcDbLine
 62
7
  6
CONTINUOUS
 10
6.0176729697
 20
14.9335911653
 11
6.0139893356
 21
14.9127002381
  0
LINE
  5
23E
100
AcDbEntity
  8
0
100
AcDbLine
 62
7
  6
CONTINUOUS
 10
6.3494508359
 20
16.6385000467
 11
6.3450403629
 21
16.6177504026
  0
LINE
  5
23F
100
AcDbEntity
  8
0
100
AcDbLine
 62
7
  6
CONTINUOUS
 10
5.9819378835
 20
14.9094875453
 11
5.9775274105
 21
14.8887379013
  0
LINE
  5
240
100
AcDbEntity
  8
0
100
AcDbLine
 62
6
  6
CONTINUOUS
 10
6.3730141015
 20
16.6017789617
 11
6.3678821631
 21
16.5811958811
  0
LINE
  5
241
100
AcDbEntity
  8
0
100
AcDbLine
 62
6
  6
CONTINUOUS
 10
5.945383362
 20
14.8866457451
 11
5.9402514236
 21
14.8660626645
  0
LINE
  5
242
100
AcDbEntity
  8
0
100
AcDbLine
 62
6
  6
CONTINUOUS
 10
4.1828938053
 20
15.4033408067
 11
4.1901491482
 21
15.4232746974
  0
LINE
  5
243
100
AcDbEntity
  8
0
100
AcDbLine
 62
7
  6
CONTINUOUS
 10
4.7874621783
 20
17.06437876
 11
4.7947175212
 21
17.0843126508
  0
LINE
  5
244
100
AcDbEntity
  8
0
100
AcDbLine
 62
6
  6
CONTINUOUS
 10
4.1646704431
 20
15.4429838973
 11
4.172617049
 21
15.4626524371
  0
LINE
  5
245
100
AcDbEntity
  8
0
100
AcDbLine
 62
7
  6
CONTINUOUS
 10
4.8268399179
 20
17.0819108593
 11
4.8347865238
 21
17.101579399
  0
LINE
  5
246
100
AcDbEntity
  8
0
100
AcDbLine
 62
7
  6
CONTINUOUS
 10
4.1478417059
 20
15.4832388246
 11
4.1564698931
 21
15.5026180503
  0
LINE
  5
247
100
AcDbEntity
  8
0
100
AcDbLine
 62
6
  6
CONTINUOUS
 10
4.8668055311
 20
17.0980580151
 11
4.8754337183
 21
17.1174372408
  0
LINE
  5
248
100
AcDbEntity
  8
0
100
AcDbLine
 62
7
  6
CONTINUOUS
 10
4.1324280971
 20
15.5240565442
 11
4.1417273534
 21
15.5431228451
  0
LINE
  5
249
100
AcDbEntity
  8
0
100
AcDbLine
 62
7
  6
CONTINUOUS
 10
4.907310326
 20
17.1128005548
 11
4.9166095823
 21
17.1318668558
  0
LINE
  5
24A
100
AcDbEntity
  8
0
100
AcDbLine
 62
7
  6
CONTINUOUS
 10
4.1184483957
 20
15.5653873258
 11
4.1284073915
 21
15.5841174727
  0
LINE
  5
24B
100
AcDbEntity
  8
0
100
AcDbLine
 62
7
  6
CONTINUOUS
 10
4.9483049536
 20
17.1261205168
 11
4.9582639494
 21
17.1448506637
  0
LINE
  5
24C
100
AcDbEntity
  8
0
100
AcDbLine
 62
7
  6
CONTINUOUS
 10
4.9582639494
 20
14.7454897637
 11
4.9483049536
 21
14.7642199106
  0
LINE
  5
24D
100
AcDbEntity
  8
0
100
AcDbLine
 62
7
  6
CONTINUOUS
 10
4.1284073915
 20
16.3062229546
 11
4.1184483957
 21
16.3249531015
  0
LINE
  5
24E
100
AcDbEntity
  8
0
100
AcDbLine
 62
7
  6
CONTINUOUS
 10
4.9166095823
 20
14.7584735716
 11
4.907310326
 21
14.7775398725
  0
LINE
  5
24F
100
AcDbEntity
  8
0
100
AcDbLine
 62
7
  6
CONTINUOUS
 10
4.1417273534
 20
16.3472175822
 11
4.1324280971
 21
16.3662838832
  0
LINE
  5
250
100
AcDbEntity
  8
0
100
AcDbLine
 62
6
  6
CONTINUOUS
 10
4.8754337183
 20
14.7729031866
 11
4.8668055311
 21
14.7922824122
  0
LINE
  5
251
100
AcDbEntity
  8
0
100
AcDbLine
 62
7
  6
CONTINUOUS
 10
4.1564698931
 20
16.3877223771
 11
4.1478417059
 21
16.4071016027
  0
LINE
  5
252
100
AcDbEntity
  8
0
100
AcDbLine
 62
7
  6
CONTINUOUS
 10
4.8347865238
 20
14.7887610284
 11
4.8268399179
 21
14.8084295681
  0
LINE
  5
253
100
AcDbEntity
  8
0
100
AcDbLine
 62
6
  6
CONTINUOUS
 10
4.172617049
 20
16.4276879903
 11
4.1646704431
 21
16.44735653
  0
LINE
  5
254
100
AcDbEntity
  8
0
100
AcDbLine
 62
7
  6
CONTINUOUS
 10
4.7947175212
 20
14.8060277766
 11
4.7874621783
 21
14.8259616673
  0
LINE
  5
255
100
AcDbEntity
  8
0
100
AcDbLine
 62
6
  6
CONTINUOUS
 10
4.1901491482
 20
16.4670657299
 11
4.1828938053
 21
16.4869996206
  0
LINE
  5
256
100
AcDbEntity
  8
0
100
AcDbLine
 62
6
  6
CONTINUOUS
 10
5.9402514236
 20
17.0242777628
 11
5.945383362
 21
17.0036946822
  0
LINE
  5
257
100
AcDbEntity
  8
0
100
AcDbLine
 62
6
  6
CONTINUOUS
 10
6.3678821631
 20
15.3091445463
 11
6.3730141015
 21
15.2885614656
  0
LINE
  5
258
100
AcDbEntity
  8
0
100
AcDbLine
 62
7
  6
CONTINUOUS
 10
5.9775274105
 20
17.0016025261
 11
5.9819378835
 21
16.980852882
  0
LINE
  5
259
100
AcDbEntity
  8
0
100
AcDbLine
 62
7
  6
CONTINUOUS
 10
6.3450403629
 20
15.2725900247
 11
6.3494508359
 21
15.2518403807
  0
LINE
  5
25A
100
AcDbEntity
  8
0
100
AcDbLine
 62
7
  6
CONTINUOUS
 10
6.0139893356
 20
16.9776401892
 11
6.0176729697
 21
16.956749262
  0
LINE
  5
25B
100
AcDbEntity
  8
0
100
AcDbLine
 62
6
  6
CONTINUOUS
 10
6.3209367429
 20
15.2368549385
 11
6.324620377
 21
15.2159640113
  0
LINE
  5
25C
100
AcDbEntity
  8
0
100
AcDbLine
 62
7
  6
CONTINUOUS
 10
6.0495927755
 20
16.9524199468
 11
6.0525450828
 21
16.9314131888
  0
LINE
  5
25D
100
AcDbEntity
  8
0
100
AcDbLine
 62
6
  6
CONTINUOUS
 10
6.2956006697
 20
15.2019828254
 11
6.298552977
 21
15.1809760674
  0
LINE
  5
25E
100
AcDbEntity
  8
0
100
AcDbLine
 62
9
  6
CONTINUOUS
 10
7.0593576945
 20
16.5701702137
 11
7.0593576945
 21
15.3201702137
  0
LINE
  5
25F
100
AcDbEntity
  8
0
100
AcDbLine
 62
7
  6
CONTINUOUS
 10
5.9080539411
 20
14.865093594
 11
5.9022067898
 21
14.8447021541
  0
LINE
  5
260
100
AcDbEntity
  8
0
100
AcDbLine
 62
7
  6
CONTINUOUS
 10
5.8699951011
 20
14.8448573498
 11
5.8634398607
 21
14.8246823944
  0
LINE
  5
261
100
AcDbEntity
  8
0
100
AcDbLine
 62
6
  6
CONTINUOUS
 10
5.8312532108
 20
14.8259616673
 11
5.8239978679
 21
14.8060277766
  0
LINE
  5
262
100
AcDbEntity
  8
0
100
AcDbLine
 62
7
  6
CONTINUOUS
 10
5.7918754712
 20
14.8084295681
 11
5.7839288653
 21
14.7887610284
  0
LINE
  5
263
100
AcDbEntity
  8
0
100
AcDbLine
 62
7
  6
CONTINUOUS
 10
5.751909858
 20
14.7922824122
 11
5.7432816708
 21
14.7729031866
  0
LINE
  5
264
100
AcDbEntity
  8
0
100
AcDbLine
 62
6
  6
CONTINUOUS
 10
5.7114050631
 20
14.7775398725
 11
5.7021058068
 21
14.7584735716
  0
LINE
  5
265
100
AcDbEntity
  8
0
100
AcDbLine
 62
6
  6
CONTINUOUS
 10
4.1059196338
 20
15.6071808145
 11
4.1165262355
 21
15.6255519875
  0
LINE
  5
266
100
AcDbEntity
  8
0
100
AcDbLine
 62
7
  6
CONTINUOUS
 10
4.9897394684
 20
17.1380016727
 11
5.0003460701
 21
17.1563728458
  0
LINE
  5
267
100
AcDbEntity
  8
0
100
AcDbLine
 62
7
  6
CONTINUOUS
 10
4.0948570758
 20
15.6493860911
 11
4.106098361
 21
15.6673759079
  0
LINE
  5
268
100
AcDbEntity
  8
0
100
AcDbLine
 62
7
  6
CONTINUOUS
 10
5.0315633888
 20
17.1484295472
 11
5.0428046739
 21
17.166419364
  0
LINE
  5
269
100
AcDbEntity
  8
0
100
AcDbLine
 62
6
  6
CONTINUOUS
 10
4.0852741998
 20
15.6919517351
 11
4.0971364726
 21
15.7095382778
  0
LINE
  5
26A
100
AcDbEntity
  8
0
100
AcDbLine
 62
6
  6
CONTINUOUS
 10
5.0737257587
 20
17.1573914356
 11
5.0855880315
 21
17.1749779783
  0
LINE
  5
26B
100
AcDbEntity
  8
0
100
AcDbLine
 62
7
  6
CONTINUOUS
 10
4.0771826809
 20
15.7348258869
 11
4.0896514891
 21
15.751987729
  0
LINE
  5
26C
100
AcDbEntity
  8
0
100
AcDbLine
 62
7
  6
CONTINUOUS
 10
5.1161752098
 20
17.1648764192
 11
5.128644018
 21
17.1820382612
  0
LINE
  5
26D
100
AcDbEntity
  8
0
100
AcDbLine
 62
7
  6
CONTINUOUS
 10
5.128644018
 20
14.7083021661
 11
5.1161752098
 21
14.7254640082
  0
LINE
  5
26E
100
AcDbEntity
  8
0
100
AcDbLine
 62
7
  6
CONTINUOUS
 10
4.0896514891
 20
16.1383526984
 11
4.0771826809
 21
16.1555145405
  0
LINE
  5
26F
100
AcDbEntity
  8
0
100
AcDbLine
 62
6
  6
CONTINUOUS
 10
5.0855880315
 20
14.7153624491
 11
5.0737257587
 21
14.7329489917
  0
LINE
  5
270
100
AcDbEntity
  8
0
100
AcDbLine
 62
6
  6
CONTINUOUS
 10
4.0971364726
 20
16.1808021495
 11
4.0852741998
 21
16.1983886922
  0
LINE
  5
271
100
AcDbEntity
  8
0
100
AcDbLine
 62
7
  6
CONTINUOUS
 10
5.0428046739
 20
14.7239210633
 11
5.0315633888
 21
14.7419108801
  0
LINE
  5
272
100
AcDbEntity
  8
0
100
AcDbLine
 62
7
  6
CONTINUOUS
 10
4.106098361
 20
16.2229645195
 11
4.0948570758
 21
16.2409543363
  0
LINE
  5
273
100
AcDbEntity
  8
0
100
AcDbLine
 62
7
  6
CONTINUOUS
 10
5.0003460701
 20
14.7339675816
 11
4.9897394684
 21
14.7523387547
  0
LINE
  5
274
100
AcDbEntity
  8
0
100
AcDbLine
 62
6
  6
CONTINUOUS
 10
4.1165262355
 20
16.2647884398
 11
4.1059196338
 21
16.2831596129
  0
LINE
  5
275
100
AcDbEntity
  8
0
100
AcDbLine
 62
6
  6
CONTINUOUS
 10
5.7021058068
 20
17.1318668558
 11
5.7114050631
 21
17.1128005548
  0
LINE
  5
276
100
AcDbEntity
  8
0
100
AcDbLine
 62
7
  6
CONTINUOUS
 10
5.7432816708
 20
17.1174372408
 11
5.751909858
 21
17.0980580151
  0
LINE
  5
277
100
AcDbEntity
  8
0
100
AcDbLine
 62
7
  6
CONTINUOUS
 10
5.7839288653
 20
17.101579399
 11
5.7918754712
 21
17.0819108593
  0
LINE
  5
278
100
AcDbEntity
  8
0
100
AcDbLine
 62
6
  6
CONTINUOUS
 10
5.8239978679
 20
17.0843126508
 11
5.8312532108
 21
17.06437876
  0
LINE
  5
279
100
AcDbEntity
  8
0
100
AcDbLine
 62
7
  6
CONTINUOUS
 10
5.8634398607
 20
17.0656580329
 11
5.8699951011
 21
17.0454830776
  0
LINE
  5
27A
100
AcDbEntity
  8
0
100
AcDbLine
 62
7
  6
CONTINUOUS
 10
5.9022067898
 20
17.0456382733
 11
5.9080539411
 21
17.0252468334
  0
LINE
  5
27B
100
AcDbEntity
  8
0
100
AcDbLine
 62
7
  6
CONTINUOUS
 10
5.6704104355
 20
14.7642199106
 11
5.6604514397
 21
14.7454897637
  0
LINE
  5
27C
100
AcDbEntity
  8
0
100
AcDbLine
 62
6
  6
CONTINUOUS
 10
5.6289759207
 20
14.7523387547
 11
5.618369319
 21
14.7339675816
  0
LINE
  5
27D
100
AcDbEntity
  8
0
100
AcDbLine
 62
7
  6
CONTINUOUS
 10
5.5871520003
 20
14.7419108801
 11
5.5759107152
 21
14.7239210633
  0
LINE
  5
27E
100
AcDbEntity
  8
0
100
AcDbLine
 62
6
  6
CONTINUOUS
 10
5.5449896304
 20
14.7329489917
 11
5.5331273576
 21
14.7153624491
  0
LINE
  5
27F
100
AcDbEntity
  8
0
100
AcDbLine
 62
6
  6
CONTINUOUS
 10
4.0705923775
 20
15.7779563108
 11
4.0836525296
 21
15.7946725432
  0
LINE
  5
280
100
AcDbEntity
  8
0
100
AcDbLine
 62
6
  6
CONTINUOUS
 10
5.1588600241
 20
17.1708753786
 11
5.1719201762
 21
17.187591611
  0
LINE
  5
281
100
AcDbEntity
  8
0
100
AcDbLine
 62
7
  6
CONTINUOUS
 10
4.0655113188
 20
15.8212904591
 11
4.0791469032
 21
15.8375407157
  0
LINE
  5
282
100
AcDbEntity
  8
0
100
AcDbLine
 62
7
  6
CONTINUOUS
 10
5.2017281966
 20
17.1753810051
 11
5.2153637809
 21
17.1916312617
  0
LINE
  5
283
100
AcDbEntity
  8
0
100
AcDbLine
 62
6
  6
CONTINUOUS
 10
4.0619456953
 20
15.8647755358
 11
4.076140099
 21
15.8805400181
  0
LINE
  5
284
100
AcDbEntity
  8
0
100
AcDbLine
 62
6
  6
CONTINUOUS
 10
5.244727499
 20
17.1783878092
 11
5.2589219027
 21
17.1941522916
  0
LINE
  5
285
100
AcDbEntity
  8
0
100
AcDbLine
 62
6
  6
CONTINUOUS
 10
5.2589219027
 20
14.6961881358
 11
5.244727499
 21
14.7119526182
  0
LINE
  5
286
100
AcDbEntity
  8
0
100
AcDbLine
 62
6
  6
CONTINUOUS
 10
4.076140099
 20
16.0098004092
 11
4.0619456953
 21
16.0255648916
  0
LINE
  5
287
100
AcDbEntity
  8
0
100
AcDbLine
 62
7
  6
CONTINUOUS
 10
5.2153637809
 20
14.6987091657
 11
5.2017281966
 21
14.7149594223
  0
LINE
  5
288
100
AcDbEntity
  8
0
100
AcDbLine
 62
7
  6
CONTINUOUS
 10
4.0791469032
 20
16.0527997117
 11
4.0655113188
 21
16.0690499683
  0
LINE
  5
289
100
AcDbEntity
  8
0
100
AcDbLine
 62
6
  6
CONTINUOUS
 10
5.1719201762
 20
14.7027488163
 11
5.1588600241
 21
14.7194650488
  0
LINE
  5
28A
100
AcDbEntity
  8
0
100
AcDbLine
 62
6
  6
CONTINUOUS
 10
4.0836525296
 20
16.0956678841
 11
4.0705923775
 21
16.1123841166
  0
LINE
  5
28B
100
AcDbEntity
  8
0
100
AcDbLine
 62
6
  6
CONTINUOUS
 10
5.5331273576
 20
17.1749779783
 11
5.5449896304
 21
17.1573914356
  0
LINE
  5
28C
100
AcDbEntity
  8
0
100
AcDbLine
 62
7
  6
CONTINUOUS
 10
5.5759107152
 20
17.166419364
 11
5.5871520003
 21
17.1484295472
  0
LINE
  5
28D
100
AcDbEntity
  8
0
100
AcDbLine
 62
6
  6
CONTINUOUS
 10
5.618369319
 20
17.1563728458
 11
5.6289759207
 21
17.1380016727
  0
LINE
  5
28E
100
AcDbEntity
  8
0
100
AcDbLine
 62
7
  6
CONTINUOUS
 10
5.6604514397
 20
17.1448506637
 11
5.6704104355
 21
17.1261205168
  0
LINE
  5
28F
100
AcDbEntity
  8
0
100
AcDbLine
 62
7
  6
CONTINUOUS
 10
5.5025401793
 20
14.7254640082
 11
5.4900713711
 21
14.7083021661
  0
LINE
  5
290
100
AcDbEntity
  8
0
100
AcDbLine
 62
6
  6
CONTINUOUS
 10
5.459855365
 20
14.7194650488
 11
5.4467952129
 21
14.7027488163
  0
LINE
  5
291
100
AcDbEntity
  8
0
100
AcDbLine
 62
7
  6
CONTINUOUS
 10
5.4169871925
 20
14.7149594223
 11
5.4033516082
 21
14.6987091657
  0
LINE
  5
292
100
AcDbEntity
  8
0
100
AcDbLine
 62
7
  6
CONTINUOUS
 10
4.0598998512
 20
15.908358561
 11
4.0746357806
 21
15.9236180625
  0
LINE
  5
293
100
AcDbEntity
  8
0
100
AcDbLine
 62
7
  6
CONTINUOUS
 10
5.2878055434
 20
17.1798921277
 11
5.3025414727
 21
17.1951516292
  0
LINE
  5
294
100
AcDbEntity
  8
0
100
AcDbLine
 62
6
  6
CONTINUOUS
 10
4.059376279
 20
15.9519864355
 11
4.0746357806
 21
15.9667223649
  0
LINE
  5
295
100
AcDbEntity
  8
0
100
AcDbLine
 62
6
  6
CONTINUOUS
 10
5.3309098457
 20
17.1798921277
 11
5.3461693472
 21
17.194628057
  0
LINE
  5
296
100
AcDbEntity
  8
0
100
AcDbLine
 62
7
  6
CONTINUOUS
 10
4.0603756167
 20
15.9956060056
 11
4.076140099
 21
16.0098004092
  0
LINE
  5
297
100
AcDbEntity
  8
0
100
AcDbLine
 62
7
  6
CONTINUOUS
 10
5.3739878901
 20
17.1783878092
 11
5.3897523725
 21
17.1925822129
  0
LINE
  5
298
100
AcDbEntity
  8
0
100
AcDbLine
 62
7
  6
CONTINUOUS
 10
5.3897523725
 20
14.6977582145
 11
5.3739878901
 21
14.7119526182
  0
LINE
  5
299
100
AcDbEntity
  8
0
100
AcDbLine
 62
7
  6
CONTINUOUS
 10
4.076140099
 20
15.8805400181
 11
4.0603756167
 21
15.8947344218
  0
LINE
  5
29A
100
AcDbEntity
  8
0
100
AcDbLine
 62
6
  6
CONTINUOUS
 10
5.3461693472
 20
14.6957123704
 11
5.3309098457
 21
14.7104482997
  0
LINE
  5
29B
100
AcDbEntity
  8
0
100
AcDbLine
 62
6
  6
CONTINUOUS
 10
4.0746357806
 20
15.9236180625
 11
4.059376279
 21
15.9383539918
  0
LINE
  5
29C
100
AcDbEntity
  8
0
100
AcDbLine
 62
7
  6
CONTINUOUS
 10
5.3025414727
 20
14.6951887982
 11
5.2878055434
 21
14.7104482997
  0
LINE
  5
29D
100
AcDbEntity
  8
0
100
AcDbLine
 62
7
  6
CONTINUOUS
 10
4.0746357806
 20
15.9667223649
 11
4.0598998512
 21
15.9819818664
  0
LINE
  5
29E
100
AcDbEntity
  8
0
100
AcDbLine
 62
7
  6
CONTINUOUS
 10
5.4033516082
 20
17.1916312617
 11
5.4169871925
 21
17.1753810051
  0
LINE
  5
29F
100
AcDbEntity
  8
0
100
AcDbLine
 62
6
  6
CONTINUOUS
 10
5.4467952129
 20
17.187591611
 11
5.459855365
 21
17.1708753786
  0
LINE
  5
2A0
100
AcDbEntity
  8
0
100
AcDbLine
 62
7
  6
CONTINUOUS
 10
5.4900713711
 20
17.1820382612
 11
5.5025401793
 21
17.1648764192
  0
LINE
  5
2A1
100
AcDbEntity
  8
0
100
AcDbLine
 62
6
  6
CONTINUOUS
 10
5.3739878901
 20
14.7119526182
 11
5.3597934864
 21
14.6961881358
  0
LINE
  5
2A2
100
AcDbEntity
  8
0
100
AcDbLine
 62
7
  6
CONTINUOUS
 10
5.3309098457
 20
14.7104482997
 11
5.3161739164
 21
14.6951887982
  0
LINE
  5
2A3
100
AcDbEntity
  8
0
100
AcDbLine
 62
6
  6
CONTINUOUS
 10
5.2878055434
 20
14.7104482997
 11
5.2725460418
 21
14.6957123704
  0
LINE
  5
2A4
100
AcDbEntity
  8
0
100
AcDbLine
 62
6
  6
CONTINUOUS
 10
4.0628966465
 20
16.0391641273
 11
4.0791469032
 21
16.0527997117
  0
LINE
  5
2A5
100
AcDbEntity
  8
0
100
AcDbLine
 62
6
  6
CONTINUOUS
 10
5.4169871925
 20
17.1753810051
 11
5.4332374492
 21
17.1890165894
  0
LINE
  5
2A6
100
AcDbEntity
  8
0
100
AcDbLine
 62
7
  6
CONTINUOUS
 10
4.0669362972
 20
16.082607732
 11
4.0836525296
 21
16.0956678841
  0
LINE
  5
2A7
100
AcDbEntity
  8
0
100
AcDbLine
 62
7
  6
CONTINUOUS
 10
5.459855365
 20
17.1708753786
 11
5.4765715974
 21
17.1839355307
  0
LINE
  5
2A8
100
AcDbEntity
  8
0
100
AcDbLine
 62
6
  6
CONTINUOUS
 10
4.072489647
 20
16.1258838903
 11
4.0896514891
 21
16.1383526984
  0
LINE
  5
2A9
100
AcDbEntity
  8
0
100
AcDbLine
 62
6
  6
CONTINUOUS
 10
5.5025401793
 20
17.1648764192
 11
5.5197020213
 21
17.1773452273
  0
LINE
  5
2AA
100
AcDbEntity
  8
0
100
AcDbLine
 62
6
  6
CONTINUOUS
 10
5.5197020213
 20
14.7129952001
 11
5.5025401793
 21
14.7254640082
  0
LINE
  5
2AB
100
AcDbEntity
  8
0
100
AcDbLine
 62
6
  6
CONTINUOUS
 10
4.0896514891
 20
15.751987729
 11
4.072489647
 21
15.7644565371
  0
LINE
  5
2AC
100
AcDbEntity
  8
0
100
AcDbLine
 62
7
  6
CONTINUOUS
 10
5.4765715974
 20
14.7064048966
 11
5.459855365
 21
14.7194650488
  0
LINE
  5
2AD
100
AcDbEntity
  8
0
100
AcDbLine
 62
7
  6
CONTINUOUS
 10
4.0836525296
 20
15.7946725432
 11
4.0669362972
 21
15.8077326953
  0
LINE
  5
2AE
100
AcDbEntity
  8
0
100
AcDbLine
 62
6
  6
CONTINUOUS
 10
5.4332374492
 20
14.701323838
 11
5.4169871925
 21
14.7149594223
  0
LINE
  5
2AF
100
AcDbEntity
  8
0
100
AcDbLine
 62
6
  6
CONTINUOUS
 10
4.0791469032
 20
15.8375407157
 11
4.0628966465
 21
15.8511763
  0
LINE
  5
2B0
100
AcDbEntity
  8
0
100
AcDbLine
 62
6
  6
CONTINUOUS
 10
5.2725460418
 20
17.194628057
 11
5.2878055434
 21
17.1798921277
  0
LINE
  5
2B1
100
AcDbEntity
  8
0
100
AcDbLine
 62
7
  6
CONTINUOUS
 10
5.3161739164
 20
17.1951516292
 11
5.3309098457
 21
17.1798921277
  0
LINE
  5
2B2
100
AcDbEntity
  8
0
100
AcDbLine
 62
6
  6
CONTINUOUS
 10
5.3597934864
 20
17.1941522916
 11
5.3739878901
 21
17.1783878092
  0
LINE
  5
2B3
100
AcDbEntity
  8
0
100
AcDbLine
 62
7
  6
CONTINUOUS
 10
5.244727499
 20
14.7119526182
 11
5.2289630166
 21
14.6977582145
  0
LINE
  5
2B4
100
AcDbEntity
  8
0
100
AcDbLine
 62
6
  6
CONTINUOUS
 10
5.2017281966
 20
14.7149594223
 11
5.1854779399
 21
14.701323838
  0
LINE
  5
2B5
100
AcDbEntity
  8
0
100
AcDbLine
 62
7
  6
CONTINUOUS
 10
5.1588600241
 20
14.7194650488
 11
5.1421437917
 21
14.7064048966
  0
LINE
  5
2B6
100
AcDbEntity
  8
0
100
AcDbLine
 62
7
  6
CONTINUOUS
 10
4.0795499299
 20
16.1689398767
 11
4.0971364726
 21
16.1808021495
  0
LINE
  5
2B7
100
AcDbEntity
  8
0
100
AcDbLine
 62
7
  6
CONTINUOUS
 10
5.5449896304
 20
17.1573914356
 11
5.5625761731
 21
17.1692537084
  0
LINE
  5
2B8
100
AcDbEntity
  8
0
100
AcDbLine
 62
6
  6
CONTINUOUS
 10
4.0881085442
 20
16.2117232343
 11
4.106098361
 21
16.2229645195
  0
LINE
  5
2B9
100
AcDbEntity
  8
0
100
AcDbLine
 62
6
  6
CONTINUOUS
 10
5.5871520003
 20
17.1484295472
 11
5.6051418171
 21
17.1596708324
  0
LINE
  5
2BA
100
AcDbEntity
  8
0
100
AcDbLine
 62
6
  6
CONTINUOUS
 10
5.6051418171
 20
14.730669595
 11
5.5871520003
 21
14.7419108801
  0
LINE
  5
2BB
100
AcDbEntity
  8
0
100
AcDbLine
 62
6
  6
CONTINUOUS
 10
4.106098361
 20
15.6673759079
 11
4.0881085442
 21
15.678617193
  0
LINE
  5
2BC
100
AcDbEntity
  8
0
100
AcDbLine
 62
7
  6
CONTINUOUS
 10
5.5625761731
 20
14.7210867189
 11
5.5449896304
 21
14.7329489917
  0
LINE
  5
2BD
100
AcDbEntity
  8
0
100
AcDbLine
 62
7
  6
CONTINUOUS
 10
4.0971364726
 20
15.7095382778
 11
4.0795499299
 21
15.7214005506
  0
LINE
  5
2BE
100
AcDbEntity
  8
0
100
AcDbLine
 62
7
  6
CONTINUOUS
 10
5.1421437917
 20
17.1839355307
 11
5.1588600241
 21
17.1708753786
  0
LINE
  5
2BF
100
AcDbEntity
  8
0
100
AcDbLine
 62
6
  6
CONTINUOUS
 10
5.1854779399
 20
17.1890165894
 11
5.2017281966
 21
17.1753810051
  0
LINE
  5
2C0
100
AcDbEntity
  8
0
100
AcDbLine
 62
7
  6
CONTINUOUS
 10
5.2289630166
 20
17.1925822129
 11
5.244727499
 21
17.1783878092
  0
LINE
  5
2C1
100
AcDbEntity
  8
0
100
AcDbLine
 62
6
  6
CONTINUOUS
 10
5.1161752098
 20
14.7254640082
 11
5.0990133677
 21
14.7129952001
  0
LINE
  5
2C2
100
AcDbEntity
  8
0
100
AcDbLine
 62
7
  6
CONTINUOUS
 10
5.0737257587
 20
14.7329489917
 11
5.056139216
 21
14.7210867189
  0
LINE
  5
2C3
100
AcDbEntity
  8
0
100
AcDbLine
 62
7
  6
CONTINUOUS
 10
4.0981550625
 20
16.2541818381
 11
4.1165262355
 21
16.2647884398
  0
LINE
  5
2C4
100
AcDbEntity
  8
0
100
AcDbLine
 62
7
  6
CONTINUOUS
 10
5.6289759207
 20
17.1380016727
 11
5.6473470938
 21
17.1486082744
  0
LINE
  5
2C5
100
AcDbEntity
  8
0
100
AcDbLine
 62
7
  6
CONTINUOUS
 10
4.1096772445
 20
16.2962639588
 11
4.1284073915
 21
16.3062229546
  0
LINE
  5
2C6
100
AcDbEntity
  8
0
100
AcDbLine
 62
6
  6
CONTINUOUS
 10
5.6704104355
 20
17.1261205168
 11
5.6891405824
 21
17.1360795125
  0
LINE
  5
2C7
100
AcDbEntity
  8
0
100
AcDbLine
 62
6
  6
CONTINUOUS
 10
5.6891405824
 20
14.7542609148
 11
5.6704104355
 21
14.7642199106
  0
LINE
  5
2C8
100
AcDbEntity
  8
0
100
AcDbLine
 62
7
  6
CONTINUOUS
 10
4.1284073915
 20
15.5841174727
 11
4.1096772445
 21
15.5940764685
  0
LINE
  5
2C9
100
AcDbEntity
  8
0
100
AcDbLine
 62
7
  6
CONTINUOUS
 10
5.6473470938
 20
14.7417321529
 11
5.6289759207
 21
14.7523387547
  0
LINE
  5
2CA
100
AcDbEntity
  8
0
100
AcDbLine
 62
7
  6
CONTINUOUS
 10
4.1165262355
 20
15.6255519875
 11
4.0981550625
 21
15.6361585892
  0
LINE
  5
2CB
100
AcDbEntity
  8
0
100
AcDbLine
 62
7
  6
CONTINUOUS
 10
5.056139216
 20
17.1692537084
 11
5.0737257587
 21
17.1573914356
  0
LINE
  5
2CC
100
AcDbEntity
  8
0
100
AcDbLine
 62
6
  6
CONTINUOUS
 10
5.0990133677
 20
17.1773452273
 11
5.1161752098
 21
17.1648764192
  0
LINE
  5
2CD
100
AcDbEntity
  8
0
100
AcDbLine
 62
6
  6
CONTINUOUS
 10
5.0315633888
 20
14.7419108801
 11
5.013573572
 21
14.730669595
  0
LINE
  5
2CE
100
AcDbEntity
  8
0
100
AcDbLine
 62
6
  6
CONTINUOUS
 10
4.9897394684
 20
14.7523387547
 11
4.9713682953
 21
14.7417321529
  0
LINE
  5
2CF
100
AcDbEntity
  8
0
100
AcDbLine
 62
7
  6
CONTINUOUS
 10
4.9483049536
 20
14.7642199106
 11
4.9295748067
 21
14.7542609148
  0
LINE
  5
2D0
100
AcDbEntity
  8
0
100
AcDbLine
 62
7
  6
CONTINUOUS
 10
4.1226610525
 20
16.3379183259
 11
4.1417273534
 21
16.3472175822
  0
LINE
  5
2D1
100
AcDbEntity
  8
0
100
AcDbLine
 62
7
  6
CONTINUOUS
 10
5.7114050631
 20
17.1128005548
 11
5.7304713641
 21
17.1220998111
  0
LINE
  5
2D2
100
AcDbEntity
  8
0
100
AcDbLine
 62
6
  6
CONTINUOUS
 10
4.1370906674
 20
16.3790941899
 11
4.1564698931
 21
16.3877223771
  0
LINE
  5
2D3
100
AcDbEntity
  8
0
100
AcDbLine
 62
6
  6
CONTINUOUS
 10
5.751909858
 20
17.0980580151
 11
5.7712890836
 21
17.1066862023
  0
LINE
  5
2D4
100
AcDbEntity
  8
0
100
AcDbLine
 62
7
  6
CONTINUOUS
 10
4.1529485092
 20
16.4197413844
 11
4.172617049
 21
16.4276879903
  0
LINE
  5
2D5
100
AcDbEntity
  8
0
100
AcDbLine
 62
6
  6
CONTINUOUS
 10
5.7918754712
 20
17.0819108593
 11
5.8115440109
 21
17.0898574651
  0
LINE
  5
2D6
100
AcDbEntity
  8
0
100
AcDbLine
 62
6
  6
CONTINUOUS
 10
5.8115440109
 20
14.8004829622
 11
5.7918754712
 21
14.8084295681
  0
LINE
  5
2D7
100
AcDbEntity
  8
0
100
AcDbLine
 62
7
  6
CONTINUOUS
 10
4.172617049
 20
15.4626524371
 11
4.1529485092
 21
15.4705990429
  0
LINE
  5
2D8
100
AcDbEntity
  8
0
100
AcDbLine
 62
6
  6
CONTINUOUS
 10
5.7712890836
 20
14.7836542251
 11
5.751909858
 21
14.7922824122
  0
LINE
  5
2D9
100
AcDbEntity
  8
0
100
AcDbLine
 62
6
  6
CONTINUOUS
 10
4.1564698931
 20
15.5026180503
 11
4.1370906674
 21
15.5112462374
  0
LINE
  5
2DA
100
AcDbEntity
  8
0
100
AcDbLine
 62
7
  6
CONTINUOUS
 10
5.7304713641
 20
14.7682406162
 11
5.7114050631
 21
14.7775398725
  0
LINE
  5
2DB
100
AcDbEntity
  8
0
100
AcDbLine
 62
7
  6
CONTINUOUS
 10
4.1417273534
 20
15.5431228451
 11
4.1226610525
 21
15.5524221014
  0
LINE
  5
2DC
100
AcDbEntity
  8
0
100
AcDbLine
 62
7
  6
CONTINUOUS
 10
4.9295748067
 20
17.1360795125
 11
4.9483049536
 21
17.1261205168
  0
LINE
  5
2DD
100
AcDbEntity
  8
0
100
AcDbLine
 62
6
  6
CONTINUOUS
 10
4.9713682953
 20
17.1486082744
 11
4.9897394684
 21
17.1380016727
  0
LINE
  5
2DE
100
AcDbEntity
  8
0
100
AcDbLine
 62
6
  6
CONTINUOUS
 10
5.013573572
 20
17.1596708324
 11
5.0315633888
 21
17.1484295472
  0
LINE
  5
2DF
100
AcDbEntity
  8
0
100
AcDbLine
 62
7
  6
CONTINUOUS
 10
4.907310326
 20
14.7775398725
 11
4.888244025
 21
14.7682406162
  0
LINE
  5
2E0
100
AcDbEntity
  8
0
100
AcDbLine
 62
7
  6
CONTINUOUS
 10
4.8668055311
 20
14.7922824122
 11
4.8474263055
 21
14.7836542251
  0
LINE
  5
2E1
100
AcDbEntity
  8
0
100
AcDbLine
 62
6
  6
CONTINUOUS
 10
4.1702152575
 20
16.459810387
 11
4.1901491482
 21
16.4670657299
  0
LINE
  5
2E2
100
AcDbEntity
  8
0
100
AcDbLine
 62
7
  6
CONTINUOUS
 10
5.8312532108
 20
17.06437876
 11
5.8511871015
 21
17.0716341029
  0
LINE
  5
2E3
100
AcDbEntity
  8
0
100
AcDbLine
 62
7
  6
CONTINUOUS
 10
4.1888698753
 20
16.4992523799
 11
4.2090448306
 21
16.5058076202
  0
LINE
  5
2E4
100
AcDbEntity
  8
0
100
AcDbLine
 62
6
  6
CONTINUOUS
 10
5.8699951011
 20
17.0454830776
 11
5.8901700565
 21
17.0520383179
  0
LINE
  5
2E5
100
AcDbEntity
  8
0
100
AcDbLine
 62
6
  6
CONTINUOUS
 10
5.8901700565
 20
14.8383021094
 11
5.8699951011
 21
14.8448573498
  0
LINE
  5
2E6
100
AcDbEntity
  8
0
100
AcDbLine
 62
7
  6
CONTINUOUS
 10
4.2090448306
 20
15.3845328071
 11
4.1888698753
 21
15.3910880475
  0
LINE
  5
2E7
100
AcDbEntity
  8
0
100
AcDbLine
 62
7
  6
CONTINUOUS
 10
5.8511871015
 20
14.8187063244
 11
5.8312532108
 21
14.8259616673
  0
LINE
  5
2E8
100
AcDbEntity
  8
0
100
AcDbLine
 62
6
  6
CONTINUOUS
 10
4.1901491482
 20
15.4232746974
 11
4.1702152575
 21
15.4305300403
  0
LINE
  5
2E9
100
AcDbEntity
  8
0
100
AcDbLine
 62
7
  6
CONTINUOUS
 10
4.8474263055
 20
17.1066862023
 11
4.8668055311
 21
17.0980580151
  0
LINE
  5
2EA
100
AcDbEntity
  8
0
100
AcDbLine
 62
7
  6
CONTINUOUS
 10
4.888244025
 20
17.1220998111
 11
4.907310326
 21
17.1128005548
  0
LINE
  5
2EB
100
AcDbEntity
  8
0
100
AcDbLine
 62
6
  6
CONTINUOUS
 10
4.8268399179
 20
14.8084295681
 11
4.8071713782
 21
14.8004829622
  0
LINE
  5
2EC
100
AcDbEntity
  8
0
100
AcDbLine
 62
6
  6
CONTINUOUS
 10
4.7874621783
 20
14.8259616673
 11
4.7675282876
 21
14.8187063244
  0
LINE
  5
2ED
100
AcDbEntity
  8
0
100
AcDbLine
 62
7
  6
CONTINUOUS
 10
4.2088896349
 20
16.5380193089
 11
4.2292810748
 21
16.5438664602
  0
LINE
  5
2EE
100
AcDbEntity
  8
0
100
AcDbLine
 62
7
  6
CONTINUOUS
 10
5.9080539411
 20
17.0252468334
 11
5.928445381
 21
17.0310939847
  0
LINE
  5
2EF
100
AcDbEntity
  8
0
100
AcDbLine
 62
7
  6
CONTINUOUS
 10
42.3884652437
 20
15.3142764846
 11
42.3678821631
 21
15.3091445463
  0
LINE
  5
2F0
100
AcDbEntity
  8
0
100
AcDbLine
 62
7
  6
CONTINUOUS
 10
40.6733320271
 20
14.8866457451
 11
40.6527489465
 21
14.8815138068
  0
LINE
  5
2F1
100
AcDbEntity
  8
0
100
AcDbLine
 62
7
  6
CONTINUOUS
 10
5.9659664426
 20
14.8815138068
 11
5.945383362
 21
14.8866457451
  0
LINE
  5
2F2
100
AcDbEntity
  8
0
100
AcDbLine
 62
7
  6
CONTINUOUS
 10
4.250833226
 20
15.3091445463
 11
4.2302501454
 21
15.3142764846
  0
LINE
  5
2F3
100
AcDbEntity
  8
0
100
AcDbLine
 62
7
  6
CONTINUOUS
 10
5.928445381
 20
14.8592464427
 11
5.9080539411
 21
14.865093594
  0
LINE
  5
2F4
100
AcDbEntity
  8
0
100
AcDbLine
 62
7
  6
CONTINUOUS
 10
4.2292810748
 20
15.3464739671
 11
4.2088896349
 21
15.3523211184
  0
LINE
  5
2F5
100
AcDbEntity
  8
0
100
AcDbLine
 62
6
  6
CONTINUOUS
 10
4.7675282876
 20
17.0716341029
 11
4.7874621783
 21
17.06437876
  0
LINE
  5
2F6
100
AcDbEntity
  8
0
100
AcDbLine
 62
6
  6
CONTINUOUS
 10
4.8071713782
 20
17.0898574651
 11
4.8268399179
 21
17.0819108593
  0
LINE
  5
2F7
100
AcDbEntity
  8
0
100
AcDbLine
 62
7
  6
CONTINUOUS
 10
4.748720288
 20
14.8448573498
 11
4.7285453326
 21
14.8383021094
  0
LINE
  5
2F8
100
AcDbEntity
  8
0
100
AcDbLine
 62
6
  6
CONTINUOUS
 10
4.710661448
 20
14.865093594
 11
4.6902700081
 21
14.8592464427
  0
LINE
  5
2F9
100
AcDbEntity
  8
0
100
AcDbLine
 62
7
  6
CONTINUOUS
 10
42.3657900069
 20
15.2770004977
 11
42.3450403629
 21
15.2725900247
  0
LINE
  5
2FA
100
AcDbEntity
  8
0
100
AcDbLine
 62
6
  6
CONTINUOUS
 10
40.6367775056
 20
14.9094875453
 11
40.6160278615
 21
14.9050770723
  0
LINE
  5
2FB
100
AcDbEntity
  8
0
100
AcDbLine
 62
7
  6
CONTINUOUS
 10
42.3418276701
 20
15.2405385726
 11
42.3209367429
 21
15.2368549385
  0
LINE
  5
2FC
100
AcDbEntity
  8
0
100
AcDbLine
 62
7
  6
CONTINUOUS
 10
40.6010424194
 20
14.9335911653
 11
40.5801514922
 21
14.9299075312
  0
LINE
  5
2FD
100
AcDbEntity
  8
0
100
AcDbLine
 62
7
  6
CONTINUOUS
 10
6.0385638969
 20
14.9299075312
 11
6.0176729697
 21
14.9335911653
  0
LINE
  5
2FE
100
AcDbEntity
  8
0
100
AcDbLine
 62
7
  6
CONTINUOUS
 10
4.2977786462
 20
15.2368549385
 11
4.276887719
 21
15.2405385726
  0
LINE
  5
2FF
100
AcDbEntity
  8
0
100
AcDbLine
 62
6
  6
CONTINUOUS
 10
6.0026875276
 20
14.9050770723
 11
5.9819378835
 21
14.9094875453
  0
LINE
  5
300
100
AcDbEntity
  8
0
100
AcDbLine
 62
7
  6
CONTINUOUS
 10
4.2736750262
 20
15.2725900247
 11
4.2529253822
 21
15.2770004977
  0
LINE
  5
301
100
AcDbEntity
  8
0
100
AcDbLine
 62
6
  6
CONTINUOUS
 10
4.6902700081
 20
17.0310939847
 11
4.710661448
 21
17.0252468334
  0
LINE
  5
302
100
AcDbEntity
  8
0
100
AcDbLine
 62
7
  6
CONTINUOUS
 10
4.7285453326
 20
17.0520383179
 11
4.748720288
 21
17.0454830776
  0
LINE
  5
303
100
AcDbEntity
  8
0
100
AcDbLine
 62
6
  6
CONTINUOUS
 10
40.2302501454
 20
16.5760639427
 11
40.250833226
 21
16.5811958811
  0
LINE
  5
304
100
AcDbEntity
  8
0
100
AcDbLine
 62
6
  6
CONTINUOUS
 10
41.945383362
 20
17.0036946822
 11
41.9659664426
 21
17.0088266206
  0
LINE
  5
305
100
AcDbEntity
  8
0
100
AcDbLine
 62
7
  6
CONTINUOUS
 10
40.2529253822
 20
16.6133399297
 11
40.2736750262
 21
16.6177504026
  0
LINE
  5
306
100
AcDbEntity
  8
0
100
AcDbLine
 62
7
  6
CONTINUOUS
 10
41.9819378835
 20
16.980852882
 11
42.0026875276
 21
16.985263355
  0
LINE
  5
307
100
AcDbEntity
  8
0
100
AcDbLine
 62
7
  6
CONTINUOUS
 10
42.3166074277
 20
15.2049351327
 11
42.2956006697
 21
15.2019828254
  0
LINE
  5
308
100
AcDbEntity
  8
0
100
AcDbLine
 62
7
  6
CONTINUOUS
 10
40.5661703063
 20
14.9589272386
 11
40.5451635483
 21
14.9559749313
  0
LINE
  5
309
100
AcDbEntity
  8
0
100
AcDbLine
 62
7
  6
CONTINUOUS
 10
42.2901600066
 20
15.1702335552
 11
42.2690630113
 21
15.1680161716
  0
LINE
  5
30A
100
AcDbEntity
  8
0
100
AcDbLine
 62
7
  6
CONTINUOUS
 10
40.5322036525
 20
14.9854648969
 11
40.5111066572
 21
14.9832475134
  0
LINE
  5
30B
100
AcDbEntity
  8
0
100
AcDbLine
 62
7
  6
CONTINUOUS
 10
6.1076087319
 20
14.9832475134
 11
6.0865117366
 21
14.9854648969
  0
LINE
  5
30C
100
AcDbEntity
  8
0
100
AcDbLine
 62
7
  6
CONTINUOUS
 10
4.3496523778
 20
15.1680161716
 11
4.3285553825
 21
15.1702335552
  0
LINE
  5
30D
100
AcDbEntity
  8
0
100
AcDbLine
 62
7
  6
CONTINUOUS
 10
6.0735518408
 20
14.9559749313
 11
6.0525450828
 21
14.9589272386
  0
LINE
  5
30E
100
AcDbEntity
  8
0
100
AcDbLine
 62
7
  6
CONTINUOUS
 10
4.3231147194
 20
15.2019828254
 11
4.3021079614
 21
15.2049351327
  0
LINE
  5
30F
100
AcDbEntity
  8
0
100
AcDbLine
 62
7
  6
CONTINUOUS
 10
4.6160278615
 20
16.985263355
 11
4.6367775056
 21
16.980852882
  0
LINE
  5
310
100
AcDbEntity
  8
0
100
AcDbLine
 62
7
  6
CONTINUOUS
 10
6.3450403629
 20
16.6177504026
 11
6.3657900069
 21
16.6133399297
  0
LINE
  5
311
100
AcDbEntity
  8
0
100
AcDbLine
 62
6
  6
CONTINUOUS
 10
4.6527489465
 20
17.0088266206
 11
4.6733320271
 21
17.0036946822
  0
LINE
  5
312
100
AcDbEntity
  8
0
100
AcDbLine
 62
6
  6
CONTINUOUS
 10
6.3678821631
 20
16.5811958811
 11
6.3884652437
 21
16.5760639427
  0
LINE
  5
313
100
AcDbEntity
  8
0
100
AcDbLine
 62
7
  6
CONTINUOUS
 10
40.276887719
 20
16.6498018547
 11
40.2977786462
 21
16.6534854888
  0
LINE
  5
314
100
AcDbEntity
  8
0
100
AcDbLine
 62
7
  6
CONTINUOUS
 10
42.0176729697
 20
16.956749262
 11
42.0385638969
 21
16.9604328962
  0
LINE
  5
315
100
AcDbEntity
  8
0
100
AcDbLine
 62
7
  6
CONTINUOUS
 10
40.3021079614
 20
16.6854052947
 11
40.3231147194
 21
16.688357602
  0
LINE
  5
316
100
AcDbEntity
  8
0
100
AcDbLine
 62
7
  6
CONTINUOUS
 10
42.0525450828
 20
16.9314131888
 11
42.0735518408
 21
16.9343654961
  0
LINE
  5
317
100
AcDbEntity
  8
0
100
AcDbLine
 62
7
  6
CONTINUOUS
 10
42.262517629
 20
15.1364761186
 11
42.2413560998
 21
15.1349963603
  0
LINE
  5
318
100
AcDbEntity
  8
0
100
AcDbLine
 62
7
  6
CONTINUOUS
 10
40.4991838412
 20
15.0131718084
 11
40.478022312
 21
15.0116920501
  0
LINE
  5
319
100
AcDbEntity
  8
0
100
AcDbLine
 62
7
  6
CONTINUOUS
 10
42.2337139728
 20
15.1037039512
 11
42.2125136918
 21
15.1029636211
  0
LINE
  5
31A
100
AcDbEntity
  8
0
100
AcDbLine
 62
7
  6
CONTINUOUS
 10
40.4671511019
 20
15.0420142164
 11
40.445950821
 21
15.0412738863
  0
LINE
  5
31B
100
AcDbEntity
  8
0
100
AcDbLine
 62
7
  6
CONTINUOUS
 10
6.1727645681
 20
15.0412738863
 11
6.1515642872
 21
15.0420142164
  0
LINE
  5
31C
100
AcDbEntity
  8
0
100
AcDbLine
 62
7
  6
CONTINUOUS
 10
4.4062016972
 20
15.1029636211
 11
4.3850014163
 21
15.1037039512
  0
LINE
  5
31D
100
AcDbEntity
  8
0
100
AcDbLine
 62
7
  6
CONTINUOUS
 10
6.140693077
 20
15.0116920501
 11
6.1195315479
 21
15.0131718084
  0
LINE
  5
31E
100
AcDbEntity
  8
0
100
AcDbLine
 62
7
  6
CONTINUOUS
 10
4.3773592893
 20
15.1349963603
 11
4.3561977601
 21
15.1364761186
  0
LINE
  5
31F
100
AcDbEntity
  8
0
100
AcDbLine
 62
7
  6
CONTINUOUS
 10
4.5451635483
 20
16.9343654961
 11
4.5661703063
 21
16.9314131888
  0
LINE
  5
320
100
AcDbEntity
  8
0
100
AcDbLine
 62
7
  6
CONTINUOUS
 10
6.2956006697
 20
16.688357602
 11
6.3166074277
 21
16.6854052947
  0
LINE
  5
321
100
AcDbEntity
  8
0
100
AcDbLine
 62
7
  6
CONTINUOUS
 10
4.5801514922
 20
16.9604328962
 11
4.6010424194
 21
16.956749262
  0
LINE
  5
322
100
AcDbEntity
  8
0
100
AcDbLine
 62
7
  6
CONTINUOUS
 10
6.3209367429
 20
16.6534854888
 11
6.3418276701
 21
16.6498018547
  0
LINE
  5
323
100
AcDbEntity
  8
0
100
AcDbLine
 62
6
  6
CONTINUOUS
 10
40.3285553825
 20
16.7201068722
 11
40.3496523778
 21
16.7223242558
  0
LINE
  5
324
100
AcDbEntity
  8
0
100
AcDbLine
 62
6
  6
CONTINUOUS
 10
42.0865117366
 20
16.9048755304
 11
42.1076087319
 21
16.907092914
  0
LINE
  5
325
100
AcDbEntity
  8
0
100
AcDbLine
 62
7
  6
CONTINUOUS
 10
40.3561977601
 20
16.7538643088
 11
40.3773592893
 21
16.755344067
  0
LINE
  5
326
100
AcDbEntity
  8
0
100
AcDbLine
 62
7
  6
CONTINUOUS
 10
42.1195315479
 20
16.8771686189
 11
42.140693077
 21
16.8786483772
  0
LINE
  5
327
100
AcDbEntity
  8
0
100
AcDbLine
 62
7
  6
CONTINUOUS
 10
6.2337139728
 20
15.1037039512
 11
6.2125136918
 21
15.1029636211
  0
LINE
  5
328
100
AcDbEntity
  8
0
100
AcDbLine
 62
7
  6
CONTINUOUS
 10
4.4671511019
 20
15.0420142164
 11
4.445950821
 21
15.0412738863
  0
LINE
  5
329
100
AcDbEntity
  8
0
100
AcDbLine
 62
7
  6
CONTINUOUS
 10
42.2037841308
 20
15.0719569808
 11
42.1825709274
 21
15.0719569808
  0
LINE
  5
32A
100
AcDbEntity
  8
0
100
AcDbLine
 62
6
  6
CONTINUOUS
 10
40.4361444617
 20
15.0719569808
 11
40.4149312582
 21
15.0719569808
  0
LINE
  5
32B
100
AcDbEntity
  8
0
100
AcDbLine
 62
6
  6
CONTINUOUS
 10
6.2037841308
 20
15.0719569808
 11
6.1825709274
 21
15.0719569808
  0
LINE
  5
32C
100
AcDbEntity
  8
0
100
AcDbLine
 62
7
  6
CONTINUOUS
 10
4.4361444617
 20
15.0719569808
 11
4.4149312582
 21
15.0719569808
  0
LINE
  5
32D
100
AcDbEntity
  8
0
100
AcDbLine
 62
6
  6
CONTINUOUS
 10
5.3093576945
 20
15.3201702137
 11
41.3093576945
 21
15.3201702137
  0
LINE
  5
32E
100
AcDbEntity
  8
0
100
AcDbLine
 62
7
  6
CONTINUOUS
 10
42.1727645681
 20
15.0412738863
 11
42.1515642872
 21
15.0420142164
  0
LINE
  5
32F
100
AcDbEntity
  8
0
100
AcDbLine
 62
7
  6
CONTINUOUS
 10
40.4062016972
 20
15.1029636211
 11
40.3850014163
 21
15.1037039512
  0
LINE
  5
330
100
AcDbEntity
  8
0
100
AcDbLine
 62
7
  6
CONTINUOUS
 10
4.478022312
 20
16.8786483772
 11
4.4991838412
 21
16.8771686189
  0
LINE
  5
331
100
AcDbEntity
  8
0
100
AcDbLine
 62
7
  6
CONTINUOUS
 10
6.2413560998
 20
16.755344067
 11
6.262517629
 21
16.7538643088
  0
LINE
  5
332
100
AcDbEntity
  8
0
100
AcDbLine
 62
6
  6
CONTINUOUS
 10
4.5111066572
 20
16.907092914
 11
4.5322036525
 21
16.9048755304
  0
LINE
  5
333
100
AcDbEntity
  8
0
100
AcDbLine
 62
6
  6
CONTINUOUS
 10
6.2690630113
 20
16.7223242558
 11
6.2901600066
 21
16.7201068722
  0
LINE
  5
334
100
AcDbEntity
  8
0
100
AcDbLine
 62
6
  6
CONTINUOUS
 10
6.2901600066
 20
15.1702335552
 11
6.2690630113
 21
15.1680161716
  0
LINE
  5
335
100
AcDbEntity
  8
0
100
AcDbLine
 62
6
  6
CONTINUOUS
 10
4.5322036525
 20
14.9854648969
 11
4.5111066572
 21
14.9832475134
  0
LINE
  5
336
100
AcDbEntity
  8
0
100
AcDbLine
 62
7
  6
CONTINUOUS
 10
6.262517629
 20
15.1364761186
 11
6.2413560998
 21
15.1349963603
  0
LINE
  5
337
100
AcDbEntity
  8
0
100
AcDbLine
 62
7
  6
CONTINUOUS
 10
4.4991838412
 20
15.0131718084
 11
4.478022312
 21
15.0116920501
  0
LINE
  5
338
100
AcDbEntity
  8
0
100
AcDbLine
 62
7
  6
CONTINUOUS
 10
40.3850014163
 20
16.7866364762
 11
40.4062016972
 21
16.7873768063
  0
LINE
  5
339
100
AcDbEntity
  8
0
100
AcDbLine
 62
7
  6
CONTINUOUS
 10
42.1515642872
 20
16.848326211
 11
42.1727645681
 21
16.8490665411
  0
LINE
  5
33A
100
AcDbEntity
  8
0
100
AcDbLine
 62
6
  6
CONTINUOUS
 10
5.3093576945
 20
16.5701702137
 11
41.3093576945
 21
16.5701702137
  0
LINE
  5
33B
100
AcDbEntity
  8
0
100
AcDbLine
 62
7
  6
CONTINUOUS
 10
4.4149312582
 20
16.8183834465
 11
4.4361444617
 21
16.8183834465
  0
LINE
  5
33C
100
AcDbEntity
  8
0
100
AcDbLine
 62
6
  6
CONTINUOUS
 10
6.1825709274
 20
16.8183834465
 11
6.2037841308
 21
16.8183834465
  0
LINE
  5
33D
100
AcDbEntity
  8
0
100
AcDbLine
 62
6
  6
CONTINUOUS
 10
40.4149312582
 20
16.8183834465
 11
40.4361444617
 21
16.8183834465
  0
LINE
  5
33E
100
AcDbEntity
  8
0
100
AcDbLine
 62
7
  6
CONTINUOUS
 10
42.1825709274
 20
16.8183834465
 11
42.2037841308
 21
16.8183834465
  0
LINE
  5
33F
100
AcDbEntity
  8
0
100
AcDbLine
 62
7
  6
CONTINUOUS
 10
4.445950821
 20
16.8490665411
 11
4.4671511019
 21
16.848326211
  0
LINE
  5
340
100
AcDbEntity
  8
0
100
AcDbLine
 62
7
  6
CONTINUOUS
 10
6.2125136918
 20
16.7873768063
 11
6.2337139728
 21
16.7866364762
  0
LINE
  5
341
100
AcDbEntity
  8
0
100
AcDbLine
 62
7
  6
CONTINUOUS
 10
42.140693077
 20
15.0116920501
 11
42.1195315479
 21
15.0131718084
  0
LINE
  5
342
100
AcDbEntity
  8
0
100
AcDbLine
 62
7
  6
CONTINUOUS
 10
40.3773592893
 20
15.1349963603
 11
40.3561977601
 21
15.1364761186
  0
LINE
  5
343
100
AcDbEntity
  8
0
100
AcDbLine
 62
6
  6
CONTINUOUS
 10
42.1076087319
 20
14.9832475134
 11
42.0865117366
 21
14.9854648969
  0
LINE
  5
344
100
AcDbEntity
  8
0
100
AcDbLine
 62
6
  6
CONTINUOUS
 10
40.3496523778
 20
15.1680161716
 11
40.3285553825
 21
15.1702335552
  0
LINE
  5
345
100
AcDbEntity
  8
0
100
AcDbLine
 62
7
  6
CONTINUOUS
 10
6.3418276701
 20
15.2405385726
 11
6.3209367429
 21
15.2368549385
  0
LINE
  5
346
100
AcDbEntity
  8
0
100
AcDbLine
 62
7
  6
CONTINUOUS
 10
4.6010424194
 20
14.9335911653
 11
4.5801514922
 21
14.9299075312
  0
LINE
  5
347
100
AcDbEntity
  8
0
100
AcDbLine
 62
7
  6
CONTINUOUS
 10
6.3166074277
 20
15.2049351327
 11
6.2956006697
 21
15.2019828254
  0
LINE
  5
348
100
AcDbEntity
  8
0
100
AcDbLine
 62
7
  6
CONTINUOUS
 10
4.5661703063
 20
14.9589272386
 11
4.5451635483
 21
14.9559749313
  0
LINE
  5
349
100
AcDbEntity
  8
0
100
AcDbLine
 62
7
  6
CONTINUOUS
 10
4.3561977601
 20
16.7538643088
 11
4.3773592893
 21
16.755344067
  0
LINE
  5
34A
100
AcDbEntity
  8
0
100
AcDbLine
 62
7
  6
CONTINUOUS
 10
6.1195315479
 20
16.8771686189
 11
6.140693077
 21
16.8786483772
  0
LINE
  5
34B
100
AcDbEntity
  8
0
100
AcDbLine
 62
7
  6
CONTINUOUS
 10
4.3850014163
 20
16.7866364762
 11
4.4062016972
 21
16.7873768063
  0
LINE
  5
34C
100
AcDbEntity
  8
0
100
AcDbLine
 62
7
  6
CONTINUOUS
 10
6.1515642872
 20
16.848326211
 11
6.1727645681
 21
16.8490665411
  0
LINE
  5
34D
100
AcDbEntity
  8
0
100
AcDbLine
 62
7
  6
CONTINUOUS
 10
40.445950821
 20
16.8490665411
 11
40.4671511019
 21
16.848326211
  0
LINE
  5
34E
100
AcDbEntity
  8
0
100
AcDbLine
 62
7
  6
CONTINUOUS
 10
42.2125136918
 20
16.7873768063
 11
42.2337139728
 21
16.7866364762
  0
LINE
  5
34F
100
AcDbEntity
  8
0
100
AcDbLine
 62
7
  6
CONTINUOUS
 10
40.478022312
 20
16.8786483772
 11
40.4991838412
 21
16.8771686189
  0
LINE
  5
350
100
AcDbEntity
  8
0
100
AcDbLine
 62
7
  6
CONTINUOUS
 10
42.2413560998
 20
16.755344067
 11
42.262517629
 21
16.7538643088
  0
LINE
  5
351
100
AcDbEntity
  8
0
100
AcDbLine
 62
7
  6
CONTINUOUS
 10
42.0735518408
 20
14.9559749313
 11
42.0525450828
 21
14.9589272386
  0
LINE
  5
352
100
AcDbEntity
  8
0
100
AcDbLine
 62
7
  6
CONTINUOUS
 10
40.3231147194
 20
15.2019828254
 11
40.3021079614
 21
15.2049351327
  0
LINE
  5
353
100
AcDbEntity
  8
0
100
AcDbLine
 62
7
  6
CONTINUOUS
 10
42.0385638969
 20
14.9299075312
 11
42.0176729697
 21
14.9335911653
  0
LINE
  5
354
100
AcDbEntity
  8
0
100
AcDbLine
 62
7
  6
CONTINUOUS
 10
40.2977786462
 20
15.2368549385
 11
40.276887719
 21
15.2405385726
  0
LINE
  5
355
100
AcDbEntity
  8
0
100
AcDbLine
 62
6
  6
CONTINUOUS
 10
6.3884652437
 20
15.3142764846
 11
6.3678821631
 21
15.3091445463
  0
LINE
  5
356
100
AcDbEntity
  8
0
100
AcDbLine
 62
6
  6
CONTINUOUS
 10
4.6733320271
 20
14.8866457451
 11
4.6527489465
 21
14.8815138068
  0
LINE
  5
357
100
AcDbEntity
  8
0
100
AcDbLine
 62
7
  6
CONTINUOUS
 10
6.3657900069
 20
15.2770004977
 11
6.3450403629
 21
15.2725900247
  0
LINE
  5
358
100
AcDbEntity
  8
0
100
AcDbLine
 62
7
  6
CONTINUOUS
 10
4.6367775056
 20
14.9094875453
 11
4.6160278615
 21
14.9050770723
  0
LINE
  5
359
100
AcDbEntity
  8
0
100
AcDbLine
 62
7
  6
CONTINUOUS
 10
4.276887719
 20
16.6498018547
 11
4.2977786462
 21
16.6534854888
  0
LINE
  5
35A
100
AcDbEntity
  8
0
100
AcDbLine
 62
7
  6
CONTINUOUS
 10
6.0176729697
 20
16.956749262
 11
6.0385638969
 21
16.9604328962
  0
LINE
  5
35B
100
AcDbEntity
  8
0
100
AcDbLine
 62
7
  6
CONTINUOUS
 10
4.3021079614
 20
16.6854052947
 11
4.3231147194
 21
16.688357602
  0
LINE
  5
35C
100
AcDbEntity
  8
0
100
AcDbLine
 62
7
  6
CONTINUOUS
 10
6.0525450828
 20
16.9314131888
 11
6.0735518408
 21
16.9343654961
  0
LINE
  5
35D
100
AcDbEntity
  8
0
100
AcDbLine
 62
7
  6
CONTINUOUS
 10
4.3285553825
 20
16.7201068722
 11
4.3496523778
 21
16.7223242558
  0
LINE
  5
35E
100
AcDbEntity
  8
0
100
AcDbLine
 62
7
  6
CONTINUOUS
 10
6.0865117366
 20
16.9048755304
 11
6.1076087319
 21
16.907092914
  0
LINE
  5
35F
100
AcDbEntity
  8
0
100
AcDbLine
 62
7
  6
CONTINUOUS
 10
40.5111066572
 20
16.907092914
 11
40.5322036525
 21
16.9048755304
  0
LINE
  5
360
100
AcDbEntity
  8
0
100
AcDbLine
 62
7
  6
CONTINUOUS
 10
42.2690630113
 20
16.7223242558
 11
42.2901600066
 21
16.7201068722
  0
LINE
  5
361
100
AcDbEntity
  8
0
100
AcDbLine
 62
7
  6
CONTINUOUS
 10
40.5451635483
 20
16.9343654961
 11
40.5661703063
 21
16.9314131888
  0
LINE
  5
362
100
AcDbEntity
  8
0
100
AcDbLine
 62
7
  6
CONTINUOUS
 10
42.2956006697
 20
16.688357602
 11
42.3166074277
 21
16.6854052947
  0
LINE
  5
363
100
AcDbEntity
  8
0
100
AcDbLine
 62
7
  6
CONTINUOUS
 10
40.5801514922
 20
16.9604328962
 11
40.6010424194
 21
16.956749262
  0
LINE
  5
364
100
AcDbEntity
  8
0
100
AcDbLine
 62
7
  6
CONTINUOUS
 10
42.3209367429
 20
16.6534854888
 11
42.3418276701
 21
16.6498018547
  0
LINE
  5
365
100
AcDbEntity
  8
0
100
AcDbLine
 62
7
  6
CONTINUOUS
 10
42.0026875276
 20
14.9050770723
 11
41.9819378835
 21
14.9094875453
  0
LINE
  5
366
100
AcDbEntity
  8
0
100
AcDbLine
 62
7
  6
CONTINUOUS
 10
40.2736750262
 20
15.2725900247
 11
40.2529253822
 21
15.2770004977
  0
LINE
  5
367
100
AcDbEntity
  8
0
100
AcDbLine
 62
6
  6
CONTINUOUS
 10
41.9659664426
 20
14.8815138068
 11
41.945383362
 21
14.8866457451
  0
LINE
  5
368
100
AcDbEntity
  8
0
100
AcDbLine
 62
6
  6
CONTINUOUS
 10
40.250833226
 20
15.3091445463
 11
40.2302501454
 21
15.3142764846
  0
LINE
  5
369
100
AcDbEntity
  8
0
100
AcDbLine
 62
6
  6
CONTINUOUS
 10
41.8312532108
 20
17.06437876
 11
41.8511871015
 21
17.0716341029
  0
LINE
  5
36A
100
AcDbEntity
  8
0
100
AcDbLine
 62
7
  6
CONTINUOUS
 10
41.8699951011
 20
17.0454830776
 11
41.8901700565
 21
17.0520383179
  0
LINE
  5
36B
100
AcDbEntity
  8
0
100
AcDbLine
 62
6
  6
CONTINUOUS
 10
41.9080539411
 20
17.0252468334
 11
41.928445381
 21
17.0310939847
  0
LINE
  5
36C
100
AcDbEntity
  8
0
100
AcDbLine
 62
7
  6
CONTINUOUS
 10
4.2302501454
 20
16.5760639427
 11
4.250833226
 21
16.5811958811
  0
LINE
  5
36D
100
AcDbEntity
  8
0
100
AcDbLine
 62
7
  6
CONTINUOUS
 10
5.945383362
 20
17.0036946822
 11
5.9659664426
 21
17.0088266206
  0
LINE
  5
36E
100
AcDbEntity
  8
0
100
AcDbLine
 62
7
  6
CONTINUOUS
 10
4.2529253822
 20
16.6133399297
 11
4.2736750262
 21
16.6177504026
  0
LINE
  5
36F
100
AcDbEntity
  8
0
100
AcDbLine
 62
6
  6
CONTINUOUS
 10
5.9819378835
 20
16.980852882
 11
6.0026875276
 21
16.985263355
  0
LINE
  5
370
100
AcDbEntity
  8
0
100
AcDbLine
 62
6
  6
CONTINUOUS
 10
40.6160278615
 20
16.985263355
 11
40.6367775056
 21
16.980852882
  0
LINE
  5
371
100
AcDbEntity
  8
0
100
AcDbLine
 62
7
  6
CONTINUOUS
 10
42.3450403629
 20
16.6177504026
 11
42.3657900069
 21
16.6133399297
  0
LINE
  5
372
100
AcDbEntity
  8
0
100
AcDbLine
 62
7
  6
CONTINUOUS
 10
40.6527489465
 20
17.0088266206
 11
40.6733320271
 21
17.0036946822
  0
LINE
  5
373
100
AcDbEntity
  8
0
100
AcDbLine
 62
7
  6
CONTINUOUS
 10
42.3678821631
 20
16.5811958811
 11
42.3884652437
 21
16.5760639427
  0
LINE
  5
374
100
AcDbEntity
  8
0
100
AcDbLine
 62
6
  6
CONTINUOUS
 10
41.928445381
 20
14.8592464427
 11
41.9080539411
 21
14.865093594
  0
LINE
  5
375
100
AcDbEntity
  8
0
100
AcDbLine
 62
7
  6
CONTINUOUS
 10
41.8901700565
 20
14.8383021094
 11
41.8699951011
 21
14.8448573498
  0
LINE
  5
376
100
AcDbEntity
  8
0
100
AcDbLine
 62
6
  6
CONTINUOUS
 10
41.8511871015
 20
14.8187063244
 11
41.8312532108
 21
14.8259616673
  0
LINE
  5
377
100
AcDbEntity
  8
0
100
AcDbLine
 62
7
  6
CONTINUOUS
 10
41.751909858
 20
17.0980580151
 11
41.7712890836
 21
17.1066862023
  0
LINE
  5
378
100
AcDbEntity
  8
0
100
AcDbLine
 62
6
  6
CONTINUOUS
 10
41.7918754712
 20
17.0819108593
 11
41.8115440109
 21
17.0898574651
  0
LINE
  5
379
100
AcDbEntity
  8
0
100
AcDbLine
 62
7
  6
CONTINUOUS
 10
42.4298455138
 20
15.3910880475
 11
42.4096705584
 21
15.3845328071
  0
LINE
  5
37A
100
AcDbEntity
  8
0
100
AcDbLine
 62
6
  6
CONTINUOUS
 10
40.748720288
 20
14.8448573498
 11
40.7285453326
 21
14.8383021094
  0
LINE
  5
37B
100
AcDbEntity
  8
0
100
AcDbLine
 62
7
  6
CONTINUOUS
 10
42.4098257542
 20
15.3523211184
 11
42.3894343143
 21
15.3464739671
  0
LINE
  5
37C
100
AcDbEntity
  8
0
100
AcDbLine
 62
7
  6
CONTINUOUS
 10
40.710661448
 20
14.865093594
 11
40.6902700081
 21
14.8592464427
  0
LINE
  5
37D
100
AcDbEntity
  8
0
100
AcDbLine
 62
7
  6
CONTINUOUS
 10
40.6902700081
 20
17.0310939847
 11
40.710661448
 21
17.0252468334
  0
LINE
  5
37E
100
AcDbEntity
  8
0
100
AcDbLine
 62
7
  6
CONTINUOUS
 10
42.3894343143
 20
16.5438664602
 11
42.4098257542
 21
16.5380193089
  0
LINE
  5
37F
100
AcDbEntity
  8
0
100
AcDbLine
 62
6
  6
CONTINUOUS
 10
40.7285453326
 20
17.0520383179
 11
40.748720288
 21
17.0454830776
  0
LINE
  5
380
100
AcDbEntity
  8
0
100
AcDbLine
 62
7
  6
CONTINUOUS
 10
42.4096705584
 20
16.5058076202
 11
42.4298455138
 21
16.4992523799
  0
LINE
  5
381
100
AcDbEntity
  8
0
100
AcDbLine
 62
6
  6
CONTINUOUS
 10
41.8115440109
 20
14.8004829622
 11
41.7918754712
 21
14.8084295681
  0
LINE
  5
382
100
AcDbEntity
  8
0
100
AcDbLine
 62
7
  6
CONTINUOUS
 10
41.7712890836
 20
14.7836542251
 11
41.751909858
 21
14.7922824122
  0
LINE
  5
383
100
AcDbEntity
  8
0
100
AcDbLine
 62
7
  6
CONTINUOUS
 10
41.6704104355
 20
17.1261205168
 11
41.6891405824
 21
17.1360795125
  0
LINE
  5
384
100
AcDbEntity
  8
0
100
AcDbLine
 62
7
  6
CONTINUOUS
 10
41.7114050631
 20
17.1128005548
 11
41.7304713641
 21
17.1220998111
  0
LINE
  5
385
100
AcDbEntity
  8
0
100
AcDbLine
 62
7
  6
CONTINUOUS
 10
42.4657668799
 20
15.4705990429
 11
42.4460983401
 21
15.4626524371
  0
LINE
  5
386
100
AcDbEntity
  8
0
100
AcDbLine
 62
6
  6
CONTINUOUS
 10
40.8268399179
 20
14.8084295681
 11
40.8071713782
 21
14.8004829622
  0
LINE
  5
387
100
AcDbEntity
  8
0
100
AcDbLine
 62
6
  6
CONTINUOUS
 10
42.4485001316
 20
15.4305300403
 11
42.4285662409
 21
15.4232746974
  0
LINE
  5
388
100
AcDbEntity
  8
0
100
AcDbLine
 62
7
  6
CONTINUOUS
 10
40.7874621783
 20
14.8259616673
 11
40.7675282876
 21
14.8187063244
  0
LINE
  5
389
100
AcDbEntity
  8
0
100
AcDbLine
 62
7
  6
CONTINUOUS
 10
40.7675282876
 20
17.0716341029
 11
40.7874621783
 21
17.06437876
  0
LINE
  5
38A
100
AcDbEntity
  8
0
100
AcDbLine
 62
6
  6
CONTINUOUS
 10
42.4285662409
 20
16.4670657299
 11
42.4485001316
 21
16.459810387
  0
LINE
  5
38B
100
AcDbEntity
  8
0
100
AcDbLine
 62
6
  6
CONTINUOUS
 10
40.8071713782
 20
17.0898574651
 11
40.8268399179
 21
17.0819108593
  0
LINE
  5
38C
100
AcDbEntity
  8
0
100
AcDbLine
 62
7
  6
CONTINUOUS
 10
42.4460983401
 20
16.4276879903
 11
42.4657668799
 21
16.4197413844
  0
LINE
  5
38D
100
AcDbEntity
  8
0
100
AcDbLine
 62
7
  6
CONTINUOUS
 10
41.7304713641
 20
14.7682406162
 11
41.7114050631
 21
14.7775398725
  0
LINE
  5
38E
100
AcDbEntity
  8
0
100
AcDbLine
 62
7
  6
CONTINUOUS
 10
41.6891405824
 20
14.7542609148
 11
41.6704104355
 21
14.7642199106
  0
LINE
  5
38F
100
AcDbEntity
  8
0
100
AcDbLine
 62
6
  6
CONTINUOUS
 10
41.5871520003
 20
17.1484295472
 11
41.6051418171
 21
17.1596708324
  0
LINE
  5
390
100
AcDbEntity
  8
0
100
AcDbLine
 62
6
  6
CONTINUOUS
 10
41.6289759207
 20
17.1380016727
 11
41.6473470938
 21
17.1486082744
  0
LINE
  5
391
100
AcDbEntity
  8
0
100
AcDbLine
 62
7
  6
CONTINUOUS
 10
42.4960543366
 20
15.5524221014
 11
42.4769880357
 21
15.5431228451
  0
LINE
  5
392
100
AcDbEntity
  8
0
100
AcDbLine
 62
7
  6
CONTINUOUS
 10
40.907310326
 20
14.7775398725
 11
40.888244025
 21
14.7682406162
  0
LINE
  5
393
100
AcDbEntity
  8
0
100
AcDbLine
 62
6
  6
CONTINUOUS
 10
42.4816247216
 20
15.5112462374
 11
42.462245496
 21
15.5026180503
  0
LINE
  5
394
100
AcDbEntity
  8
0
100
AcDbLine
 62
6
  6
CONTINUOUS
 10
40.8668055311
 20
14.7922824122
 11
40.8474263055
 21
14.7836542251
  0
LINE
  5
395
100
AcDbEntity
  8
0
100
AcDbLine
 62
6
  6
CONTINUOUS
 10
40.8474263055
 20
17.1066862023
 11
40.8668055311
 21
17.0980580151
  0
LINE
  5
396
100
AcDbEntity
  8
0
100
AcDbLine
 62
6
  6
CONTINUOUS
 10
42.462245496
 20
16.3877223771
 11
42.4816247216
 21
16.3790941899
  0
LINE
  5
397
100
AcDbEntity
  8
0
100
AcDbLine
 62
7
  6
CONTINUOUS
 10
40.888244025
 20
17.1220998111
 11
40.907310326
 21
17.1128005548
  0
LINE
  5
398
100
AcDbEntity
  8
0
100
AcDbLine
 62
7
  6
CONTINUOUS
 10
42.4769880357
 20
16.3472175822
 11
42.4960543366
 21
16.3379183259
  0
LINE
  5
399
100
AcDbEntity
  8
0
100
AcDbLine
 62
6
  6
CONTINUOUS
 10
41.6473470938
 20
14.7417321529
 11
41.6289759207
 21
14.7523387547
  0
LINE
  5
39A
100
AcDbEntity
  8
0
100
AcDbLine
 62
6
  6
CONTINUOUS
 10
41.6051418171
 20
14.730669595
 11
41.5871520003
 21
14.7419108801
  0
LINE
  5
39B
100
AcDbEntity
  8
0
100
AcDbLine
 62
7
  6
CONTINUOUS
 10
41.459855365
 20
17.1708753786
 11
41.4765715974
 21
17.1839355307
  0
LINE
  5
39C
100
AcDbEntity
  8
0
100
AcDbLine
 62
6
  6
CONTINUOUS
 10
41.5025401793
 20
17.1648764192
 11
41.5197020213
 21
17.1773452273
  0
LINE
  5
39D
100
AcDbEntity
  8
0
100
AcDbLine
 62
7
  6
CONTINUOUS
 10
41.5449896304
 20
17.1573914356
 11
41.5625761731
 21
17.1692537084
  0
LINE
  5
39E
100
AcDbEntity
  8
0
100
AcDbLine
 62
6
  6
CONTINUOUS
 10
42.5306068449
 20
15.678617193
 11
42.5126170281
 21
15.6673759079
  0
LINE
  5
39F
100
AcDbEntity
  8
0
100
AcDbLine
 62
6
  6
CONTINUOUS
 10
41.0315633888
 20
14.7419108801
 11
41.013573572
 21
14.730669595
  0
LINE
  5
3A0
100
AcDbEntity
  8
0
100
AcDbLine
 62
7
  6
CONTINUOUS
 10
42.5205603266
 20
15.6361585892
 11
42.5021891536
 21
15.6255519875
  0
LINE
  5
3A1
100
AcDbEntity
  8
0
100
AcDbLine
 62
7
  6
CONTINUOUS
 10
40.9897394684
 20
14.7523387547
 11
40.9713682953
 21
14.7417321529
  0
LINE
  5
3A2
100
AcDbEntity
  8
0
100
AcDbLine
 62
7
  6
CONTINUOUS
 10
42.5090381445
 20
15.5940764685
 11
42.4903079976
 21
15.5841174727
  0
LINE
  5
3A3
100
AcDbEntity
  8
0
100
AcDbLine
 62
6
  6
CONTINUOUS
 10
40.9483049536
 20
14.7642199106
 11
40.9295748067
 21
14.7542609148
  0
LINE
  5
3A4
100
AcDbEntity
  8
0
100
AcDbLine
 62
6
  6
CONTINUOUS
 10
40.9295748067
 20
17.1360795125
 11
40.9483049536
 21
17.1261205168
  0
LINE
  5
3A5
100
AcDbEntity
  8
0
100
AcDbLine
 62
7
  6
CONTINUOUS
 10
42.4903079976
 20
16.3062229546
 11
42.5090381445
 21
16.2962639588
  0
LINE
  5
3A6
100
AcDbEntity
  8
0
100
AcDbLine
 62
7
  6
CONTINUOUS
 10
40.9713682953
 20
17.1486082744
 11
40.9897394684
 21
17.1380016727
  0
LINE
  5
3A7
100
AcDbEntity
  8
0
100
AcDbLine
 62
7
  6
CONTINUOUS
 10
42.5021891536
 20
16.2647884398
 11
42.5205603266
 21
16.2541818381
  0
LINE
  5
3A8
100
AcDbEntity
  8
0
100
AcDbLine
 62
6
  6
CONTINUOUS
 10
41.013573572
 20
17.1596708324
 11
41.0315633888
 21
17.1484295472
  0
LINE
  5
3A9
100
AcDbEntity
  8
0
100
AcDbLine
 62
6
  6
CONTINUOUS
 10
42.5126170281
 20
16.2229645195
 11
42.5306068449
 21
16.2117232343
  0
LINE
  5
3AA
100
AcDbEntity
  8
0
100
AcDbLine
 62
7
  6
CONTINUOUS
 10
41.5625761731
 20
14.7210867189
 11
41.5449896304
 21
14.7329489917
  0
LINE
  5
3AB
100
AcDbEntity
  8
0
100
AcDbLine
 62
6
  6
CONTINUOUS
 10
41.5197020213
 20
14.7129952001
 11
41.5025401793
 21
14.7254640082
  0
LINE
  5
3AC
100
AcDbEntity
  8
0
100
AcDbLine
 62
7
  6
CONTINUOUS
 10
41.4765715974
 20
14.7064048966
 11
41.459855365
 21
14.7194650488
  0
LINE
  5
3AD
100
AcDbEntity
  8
0
100
AcDbLine
 62
6
  6
CONTINUOUS
 10
41.3309098457
 20
17.1798921277
 11
41.3461693472
 21
17.194628057
  0
LINE
  5
3AE
100
AcDbEntity
  8
0
100
AcDbLine
 62
7
  6
CONTINUOUS
 10
41.3739878901
 20
17.1783878092
 11
41.3897523725
 21
17.1925822129
  0
LINE
  5
3AF
100
AcDbEntity
  8
0
100
AcDbLine
 62
6
  6
CONTINUOUS
 10
41.4169871925
 20
17.1753810051
 11
41.4332374492
 21
17.1890165894
  0
LINE
  5
3B0
100
AcDbEntity
  8
0
100
AcDbLine
 62
6
  6
CONTINUOUS
 10
42.5462257421
 20
15.7644565371
 11
42.5290639
 21
15.751987729
  0
LINE
  5
3B1
100
AcDbEntity
  8
0
100
AcDbLine
 62
6
  6
CONTINUOUS
 10
41.1161752098
 20
14.7254640082
 11
41.0990133677
 21
14.7129952001
  0
LINE
  5
3B2
100
AcDbEntity
  8
0
100
AcDbLine
 62
7
  6
CONTINUOUS
 10
42.5391654592
 20
15.7214005506
 11
42.5215789165
 21
15.7095382778
  0
LINE
  5
3B3
100
AcDbEntity
  8
0
100
AcDbLine
 62
7
  6
CONTINUOUS
 10
41.0737257587
 20
14.7329489917
 11
41.056139216
 21
14.7210867189
  0
LINE
  5
3B4
100
AcDbEntity
  8
0
100
AcDbLine
 62
7
  6
CONTINUOUS
 10
41.056139216
 20
17.1692537084
 11
41.0737257587
 21
17.1573914356
  0
LINE
  5
3B5
100
AcDbEntity
  8
0
100
AcDbLine
 62
7
  6
CONTINUOUS
 10
42.5215789165
 20
16.1808021495
 11
42.5391654592
 21
16.1689398767
  0
LINE
  5
3B6
100
AcDbEntity
  8
0
100
AcDbLine
 62
6
  6
CONTINUOUS
 10
41.0990133677
 20
17.1773452273
 11
41.1161752098
 21
17.1648764192
  0
LINE
  5
3B7
100
AcDbEntity
  8
0
100
AcDbLine
 62
6
  6
CONTINUOUS
 10
42.5290639
 20
16.1383526984
 11
42.5462257421
 21
16.1258838903
  0
LINE
  5
3B8
100
AcDbEntity
  8
0
100
AcDbLine
 62
6
  6
CONTINUOUS
 10
41.4332374492
 20
14.701323838
 11
41.4169871925
 21
14.7149594223
  0
LINE
  5
3B9
100
AcDbEntity
  8
0
100
AcDbLine
 62
7
  6
CONTINUOUS
 10
41.3897523725
 20
14.6977582145
 11
41.3739878901
 21
14.7119526182
  0
LINE
  5
3BA
100
AcDbEntity
  8
0
100
AcDbLine
 62
6
  6
CONTINUOUS
 10
41.3461693472
 20
14.6957123704
 11
41.3309098457
 21
14.7104482997
  0
LINE
  5
3BB
100
AcDbEntity
  8
0
100
AcDbLine
 62
7
  6
CONTINUOUS
 10
41.2017281966
 20
17.1753810051
 11
41.2153637809
 21
17.1916312617
  0
LINE
  5
3BC
100
AcDbEntity
  8
0
100
AcDbLine
 62
6
  6
CONTINUOUS
 10
41.244727499
 20
17.1783878092
 11
41.2589219027
 21
17.1941522916
  0
LINE
  5
3BD
100
AcDbEntity
  8
0
100
AcDbLine
 62
7
  6
CONTINUOUS
 10
41.2878055434
 20
17.1798921277
 11
41.3025414727
 21
17.1951516292
  0
LINE
  5
3BE
100
AcDbEntity
  8
0
100
AcDbLine
 62
7
  6
CONTINUOUS
 10
42.5583397724
 20
15.8947344218
 11
42.5425752901
 21
15.8805400181
  0
LINE
  5
3BF
100
AcDbEntity
  8
0
100
AcDbLine
 62
7
  6
CONTINUOUS
 10
41.244727499
 20
14.7119526182
 11
41.2289630166
 21
14.6977582145
  0
LINE
  5
3C0
100
AcDbEntity
  8
0
100
AcDbLine
 62
6
  6
CONTINUOUS
 10
42.5558187426
 20
15.8511763
 11
42.5395684859
 21
15.8375407157
  0
LINE
  5
3C1
100
AcDbEntity
  8
0
100
AcDbLine
 62
6
  6
CONTINUOUS
 10
41.2017281966
 20
14.7149594223
 11
41.1854779399
 21
14.701323838
  0
LINE
  5
3C2
100
AcDbEntity
  8
0
100
AcDbLine
 62
7
  6
CONTINUOUS
 10
42.5517790919
 20
15.8077326953
 11
42.5350628595
 21
15.7946725432
  0
LINE
  5
3C3
100
AcDbEntity
  8
0
100
AcDbLine
 62
7
  6
CONTINUOUS
 10
41.1588600241
 20
14.7194650488
 11
41.1421437917
 21
14.7064048966
  0
LINE
  5
3C4
100
AcDbEntity
  8
0
100
AcDbLine
 62
7
  6
CONTINUOUS
 10
41.1421437917
 20
17.1839355307
 11
41.1588600241
 21
17.1708753786
  0
LINE
  5
3C5
100
AcDbEntity
  8
0
100
AcDbLine
 62
7
  6
CONTINUOUS
 10
42.5350628595
 20
16.0956678841
 11
42.5517790919
 21
16.082607732
  0
LINE
  5
3C6
100
AcDbEntity
  8
0
100
AcDbLine
 62
6
  6
CONTINUOUS
 10
41.1854779399
 20
17.1890165894
 11
41.2017281966
 21
17.1753810051
  0
LINE
  5
3C7
100
AcDbEntity
  8
0
100
AcDbLine
 62
6
  6
CONTINUOUS
 10
42.5395684859
 20
16.0527997117
 11
42.5558187426
 21
16.0391641273
  0
LINE
  5
3C8
100
AcDbEntity
  8
0
100
AcDbLine
 62
7
  6
CONTINUOUS
 10
41.2289630166
 20
17.1925822129
 11
41.244727499
 21
17.1783878092
  0
LINE
  5
3C9
100
AcDbEntity
  8
0
100
AcDbLine
 62
7
  6
CONTINUOUS
 10
42.5425752901
 20
16.0098004092
 11
42.5583397724
 21
15.9956060056
  0
LINE
  5
3CA
100
AcDbEntity
  8
0
100
AcDbLine
 62
7
  6
CONTINUOUS
 10
41.3025414727
 20
14.6951887982
 11
41.2878055434
 21
14.7104482997
  0
LINE
  5
3CB
100
AcDbEntity
  8
0
100
AcDbLine
 62
6
  6
CONTINUOUS
 10
41.2589219027
 20
14.6961881358
 11
41.244727499
 21
14.7119526182
  0
LINE
  5
3CC
100
AcDbEntity
  8
0
100
AcDbLine
 62
7
  6
CONTINUOUS
 10
41.2153637809
 20
14.6987091657
 11
41.2017281966
 21
14.7149594223
  0
LINE
  5
3CD
100
AcDbEntity
  8
0
100
AcDbLine
 62
6
  6
CONTINUOUS
 10
41.0737257587
 20
17.1573914356
 11
41.0855880315
 21
17.1749779783
  0
LINE
  5
3CE
100
AcDbEntity
  8
0
100
AcDbLine
 62
7
  6
CONTINUOUS
 10
41.1161752098
 20
17.1648764192
 11
41.128644018
 21
17.1820382612
  0
LINE
  5
3CF
100
AcDbEntity
  8
0
100
AcDbLine
 62
6
  6
CONTINUOUS
 10
41.1588600241
 20
17.1708753786
 11
41.1719201762
 21
17.187591611
  0
LINE
  5
3D0
100
AcDbEntity
  8
0
100
AcDbLine
 62
6
  6
CONTINUOUS
 10
42.5567696938
 20
16.0255648916
 11
42.5425752901
 21
16.0098004092
  0
LINE
  5
3D1
100
AcDbEntity
  8
0
100
AcDbLine
 62
6
  6
CONTINUOUS
 10
41.3739878901
 20
14.7119526182
 11
41.3597934864
 21
14.6961881358
  0
LINE
  5
3D2
100
AcDbEntity
  8
0
100
AcDbLine
 62
7
  6
CONTINUOUS
 10
42.5588155379
 20
15.9819818664
 11
42.5440796085
 21
15.9667223649
  0
LINE
  5
3D3
100
AcDbEntity
  8
0
100
AcDbLine
 62
7
  6
CONTINUOUS
 10
41.3309098457
 20
14.7104482997
 11
41.3161739164
 21
14.6951887982
  0
LINE
  5
3D4
100
AcDbEntity
  8
0
100
AcDbLine
 62
6
  6
CONTINUOUS
 10
42.5593391101
 20
15.9383539918
 11
42.5440796085
 21
15.9236180625
  0
LINE
  5
3D5
100
AcDbEntity
  8
0
100
AcDbLine
 62
6
  6
CONTINUOUS
 10
41.2878055434
 20
14.7104482997
 11
41.2725460418
 21
14.6957123704
  0
LINE
  5
3D6
100
AcDbEntity
  8
0
100
AcDbLine
 62
6
  6
CONTINUOUS
 10
41.2725460418
 20
17.194628057
 11
41.2878055434
 21
17.1798921277
  0
LINE
  5
3D7
100
AcDbEntity
  8
0
100
AcDbLine
 62
6
  6
CONTINUOUS
 10
42.5440796085
 20
15.9667223649
 11
42.5593391101
 21
15.9519864355
  0
LINE
  5
3D8
100
AcDbEntity
  8
0
100
AcDbLine
 62
7
  6
CONTINUOUS
 10
41.3161739164
 20
17.1951516292
 11
41.3309098457
 21
17.1798921277
  0
LINE
  5
3D9
100
AcDbEntity
  8
0
100
AcDbLine
 62
7
  6
CONTINUOUS
 10
42.5440796085
 20
15.9236180625
 11
42.5588155379
 21
15.908358561
  0
LINE
  5
3DA
100
AcDbEntity
  8
0
100
AcDbLine
 62
6
  6
CONTINUOUS
 10
41.3597934864
 20
17.1941522916
 11
41.3739878901
 21
17.1783878092
  0
LINE
  5
3DB
100
AcDbEntity
  8
0
100
AcDbLine
 62
6
  6
CONTINUOUS
 10
42.5425752901
 20
15.8805400181
 11
42.5567696938
 21
15.8647755358
  0
LINE
  5
3DC
100
AcDbEntity
  8
0
100
AcDbLine
 62
6
  6
CONTINUOUS
 10
41.1719201762
 20
14.7027488163
 11
41.1588600241
 21
14.7194650488
  0
LINE
  5
3DD
100
AcDbEntity
  8
0
100
AcDbLine
 62
7
  6
CONTINUOUS
 10
41.128644018
 20
14.7083021661
 11
41.1161752098
 21
14.7254640082
  0
LINE
  5
3DE
100
AcDbEntity
  8
0
100
AcDbLine
 62
6
  6
CONTINUOUS
 10
41.0855880315
 20
14.7153624491
 11
41.0737257587
 21
14.7329489917
  0
LINE
  5
3DF
100
AcDbEntity
  8
0
100
AcDbLine
 62
7
  6
CONTINUOUS
 10
40.8668055311
 20
17.0980580151
 11
40.8754337183
 21
17.1174372408
  0
LINE
  5
3E0
100
AcDbEntity
  8
0
100
AcDbLine
 62
6
  6
CONTINUOUS
 10
40.907310326
 20
17.1128005548
 11
40.9166095823
 21
17.1318668558
  0
LINE
  5
3E1
100
AcDbEntity
  8
0
100
AcDbLine
 62
7
  6
CONTINUOUS
 10
40.9483049536
 20
17.1261205168
 11
40.9582639494
 21
17.1448506637
  0
LINE
  5
3E2
100
AcDbEntity
  8
0
100
AcDbLine
 62
6
  6
CONTINUOUS
 10
40.9897394684
 20
17.1380016727
 11
41.0003460701
 21
17.1563728458
  0
LINE
  5
3E3
100
AcDbEntity
  8
0
100
AcDbLine
 62
7
  6
CONTINUOUS
 10
41.0315633888
 20
17.1484295472
 11
41.0428046739
 21
17.166419364
  0
LINE
  5
3E4
100
AcDbEntity
  8
0
100
AcDbLine
 62
7
  6
CONTINUOUS
 10
42.5415327082
 20
16.1555145405
 11
42.5290639
 21
16.1383526984
  0
LINE
  5
3E5
100
AcDbEntity
  8
0
100
AcDbLine
 62
7
  6
CONTINUOUS
 10
41.5025401793
 20
14.7254640082
 11
41.4900713711
 21
14.7083021661
  0
LINE
  5
3E6
100
AcDbEntity
  8
0
100
AcDbLine
 62
6
  6
CONTINUOUS
 10
42.5481230116
 20
16.1123841166
 11
42.5350628595
 21
16.0956678841
  0
LINE
  5
3E7
100
AcDbEntity
  8
0
100
AcDbLine
 62
6
  6
CONTINUOUS
 10
41.459855365
 20
14.7194650488
 11
41.4467952129
 21
14.7027488163
  0
LINE
  5
3E8
100
AcDbEntity
  8
0
100
AcDbLine
 62
7
  6
CONTINUOUS
 10
42.5532040703
 20
16.0690499683
 11
42.5395684859
 21
16.0527997117
  0
LINE
  5
3E9
100
AcDbEntity
  8
0
100
AcDbLine
 62
7
  6
CONTINUOUS
 10
41.4169871925
 20
14.7149594223
 11
41.4033516082
 21
14.6987091657
  0
LINE
  5
3EA
100
AcDbEntity
  8
0
100
AcDbLine
 62
7
  6
CONTINUOUS
 10
41.4033516082
 20
17.1916312617
 11
41.4169871925
 21
17.1753810051
  0
LINE
  5
3EB
100
AcDbEntity
  8
0
100
AcDbLine
 62
7
  6
CONTINUOUS
 10
42.5395684859
 20
15.8375407157
 11
42.5532040703
 21
15.8212904591
  0
LINE
  5
3EC
100
AcDbEntity
  8
0
100
AcDbLine
 62
6
  6
CONTINUOUS
 10
41.4467952129
 20
17.187591611
 11
41.459855365
 21
17.1708753786
  0
LINE
  5
3ED
100
AcDbEntity
  8
0
100
AcDbLine
 62
6
  6
CONTINUOUS
 10
42.5350628595
 20
15.7946725432
 11
42.5481230116
 21
15.7779563108
  0
LINE
  5
3EE
100
AcDbEntity
  8
0
100
AcDbLine
 62
7
  6
CONTINUOUS
 10
41.4900713711
 20
17.1820382612
 11
41.5025401793
 21
17.1648764192
  0
LINE
  5
3EF
100
AcDbEntity
  8
0
100
AcDbLine
 62
7
  6
CONTINUOUS
 10
42.5290639
 20
15.751987729
 11
42.5415327082
 21
15.7348258869
  0
LINE
  5
3F0
100
AcDbEntity
  8
0
100
AcDbLine
 62
7
  6
CONTINUOUS
 10
41.0428046739
 20
14.7239210633
 11
41.0315633888
 21
14.7419108801
  0
LINE
  5
3F1
100
AcDbEntity
  8
0
100
AcDbLine
 62
6
  6
CONTINUOUS
 10
41.0003460701
 20
14.7339675816
 11
40.9897394684
 21
14.7523387547
  0
LINE
  5
3F2
100
AcDbEntity
  8
0
100
AcDbLine
 62
7
  6
CONTINUOUS
 10
40.9582639494
 20
14.7454897637
 11
40.9483049536
 21
14.7642199106
  0
LINE
  5
3F3
100
AcDbEntity
  8
0
100
AcDbLine
 62
6
  6
CONTINUOUS
 10
40.9166095823
 20
14.7584735716
 11
40.907310326
 21
14.7775398725
  0
LINE
  5
3F4
100
AcDbEntity
  8
0
100
AcDbLine
 62
7
  6
CONTINUOUS
 10
40.8754337183
 20
14.7729031866
 11
40.8668055311
 21
14.7922824122
  0
LINE
  5
3F5
100
AcDbEntity
  8
0
100
AcDbLine
 62
9
  6
CONTINUOUS
 10
39.5593576945
 20
16.5701702137
 11
39.5593576945
 21
15.3201702137
  0
LINE
  5
3F6
100
AcDbEntity
  8
0
100
AcDbLine
 62
6
  6
CONTINUOUS
 10
40.2940950121
 20
15.2159640113
 11
40.2977786462
 21
15.2368549385
  0
LINE
  5
3F7
100
AcDbEntity
  8
0
100
AcDbLine
 62
7
  6
CONTINUOUS
 10
40.6010424194
 20
16.956749262
 11
40.6047260535
 21
16.9776401892
  0
LINE
  5
3F8
100
AcDbEntity
  8
0
100
AcDbLine
 62
7
  6
CONTINUOUS
 10
40.2692645532
 20
15.2518403807
 11
40.2736750262
 21
15.2725900247
  0
LINE
  5
3F9
100
AcDbEntity
  8
0
100
AcDbLine
 62
7
  6
CONTINUOUS
 10
40.6367775056
 20
16.980852882
 11
40.6411879786
 21
17.0016025261
  0
LINE
  5
3FA
100
AcDbEntity
  8
0
100
AcDbLine
 62
6
  6
CONTINUOUS
 10
40.2457012876
 20
15.2885614656
 11
40.250833226
 21
15.3091445463
  0
LINE
  5
3FB
100
AcDbEntity
  8
0
100
AcDbLine
 62
6
  6
CONTINUOUS
 10
40.6733320271
 20
17.0036946822
 11
40.6784639655
 21
17.0242777628
  0
LINE
  5
3FC
100
AcDbEntity
  8
0
100
AcDbLine
 62
7
  6
CONTINUOUS
 10
40.710661448
 20
17.0252468334
 11
40.7165085993
 21
17.0456382733
  0
LINE
  5
3FD
100
AcDbEntity
  8
0
100
AcDbLine
 62
7
  6
CONTINUOUS
 10
40.748720288
 20
17.0454830776
 11
40.7552755284
 21
17.0656580329
  0
LINE
  5
3FE
100
AcDbEntity
  8
0
100
AcDbLine
 62
6
  6
CONTINUOUS
 10
40.7874621783
 20
17.06437876
 11
40.7947175212
 21
17.0843126508
  0
LINE
  5
3FF
100
AcDbEntity
  8
0
100
AcDbLine
 62
7
  6
CONTINUOUS
 10
40.8268399179
 20
17.0819108593
 11
40.8347865238
 21
17.101579399
  0
LINE
  5
400
100
AcDbEntity
  8
0
100
AcDbLine
 62
7
  6
CONTINUOUS
 10
42.5002669934
 20
16.3249531015
 11
42.4903079976
 21
16.3062229546
  0
LINE
  5
401
100
AcDbEntity
  8
0
100
AcDbLine
 62
7
  6
CONTINUOUS
 10
41.6704104355
 20
14.7642199106
 11
41.6604514397
 21
14.7454897637
  0
LINE
  5
402
100
AcDbEntity
  8
0
100
AcDbLine
 62
6
  6
CONTINUOUS
 10
42.5127957553
 20
16.2831596129
 11
42.5021891536
 21
16.2647884398
  0
LINE
  5
403
100
AcDbEntity
  8
0
100
AcDbLine
 62
7
  6
CONTINUOUS
 10
41.6289759207
 20
14.7523387547
 11
41.618369319
 21
14.7339675816
  0
LINE
  5
404
100
AcDbEntity
  8
0
100
AcDbLine
 62
7
  6
CONTINUOUS
 10
42.5238583132
 20
16.2409543363
 11
42.5126170281
 21
16.2229645195
  0
LINE
  5
405
100
AcDbEntity
  8
0
100
AcDbLine
 62
7
  6
CONTINUOUS
 10
41.5871520003
 20
14.7419108801
 11
41.5759107152
 21
14.7239210633
  0
LINE
  5
406
100
AcDbEntity
  8
0
100
AcDbLine
 62
6
  6
CONTINUOUS
 10
42.5334411893
 20
16.1983886922
 11
42.5215789165
 21
16.1808021495
  0
LINE
  5
407
100
AcDbEntity
  8
0
100
AcDbLine
 62
6
  6
CONTINUOUS
 10
41.5449896304
 20
14.7329489917
 11
41.5331273576
 21
14.7153624491
  0
LINE
  5
408
100
AcDbEntity
  8
0
100
AcDbLine
 62
6
  6
CONTINUOUS
 10
41.5331273576
 20
17.1749779783
 11
41.5449896304
 21
17.1573914356
  0
LINE
  5
409
100
AcDbEntity
  8
0
100
AcDbLine
 62
6
  6
CONTINUOUS
 10
42.5215789165
 20
15.7095382778
 11
42.5334411893
 21
15.6919517351
  0
LINE
  5
40A
100
AcDbEntity
  8
0
100
AcDbLine
 62
7
  6
CONTINUOUS
 10
41.5759107152
 20
17.166419364
 11
41.5871520003
 21
17.1484295472
  0
LINE
  5
40B
100
AcDbEntity
  8
0
100
AcDbLine
 62
7
  6
CONTINUOUS
 10
42.5126170281
 20
15.6673759079
 11
42.5238583132
 21
15.6493860911
  0
LINE
  5
40C
100
AcDbEntity
  8
0
100
AcDbLine
 62
7
  6
CONTINUOUS
 10
41.618369319
 20
17.1563728458
 11
41.6289759207
 21
17.1380016727
  0
LINE
  5
40D
100
AcDbEntity
  8
0
100
AcDbLine
 62
6
  6
CONTINUOUS
 10
42.5021891536
 20
15.6255519875
 11
42.5127957553
 21
15.6071808145
  0
LINE
  5
40E
100
AcDbEntity
  8
0
100
AcDbLine
 62
7
  6
CONTINUOUS
 10
41.6604514397
 20
17.1448506637
 11
41.6704104355
 21
17.1261205168
  0
LINE
  5
40F
100
AcDbEntity
  8
0
100
AcDbLine
 62
7
  6
CONTINUOUS
 10
42.4903079976
 20
15.5841174727
 11
42.5002669934
 21
15.5653873258
  0
LINE
  5
410
100
AcDbEntity
  8
0
100
AcDbLine
 62
7
  6
CONTINUOUS
 10
40.8347865238
 20
14.7887610284
 11
40.8268399179
 21
14.8084295681
  0
LINE
  5
411
100
AcDbEntity
  8
0
100
AcDbLine
 62
6
  6
CONTINUOUS
 10
40.7947175212
 20
14.8060277766
 11
40.7874621783
 21
14.8259616673
  0
LINE
  5
412
100
AcDbEntity
  8
0
100
AcDbLine
 62
7
  6
CONTINUOUS
 10
40.7552755284
 20
14.8246823944
 11
40.748720288
 21
14.8448573498
  0
LINE
  5
413
100
AcDbEntity
  8
0
100
AcDbLine
 62
7
  6
CONTINUOUS
 10
40.7165085993
 20
14.8447021541
 11
40.710661448
 21
14.865093594
  0
LINE
  5
414
100
AcDbEntity
  8
0
100
AcDbLine
 62
6
  6
CONTINUOUS
 10
40.6784639655
 20
14.8660626645
 11
40.6733320271
 21
14.8866457451
  0
LINE
  5
415
100
AcDbEntity
  8
0
100
AcDbLine
 62
6
  6
CONTINUOUS
 10
40.250833226
 20
16.5811958811
 11
40.2457012876
 21
16.6017789617
  0
LINE
  5
416
100
AcDbEntity
  8
0
100
AcDbLine
 62
7
  6
CONTINUOUS
 10
40.6411879786
 20
14.8887379013
 11
40.6367775056
 21
14.9094875453
  0
LINE
  5
417
100
AcDbEntity
  8
0
100
AcDbLine
 62
7
  6
CONTINUOUS
 10
40.2736750262
 20
16.6177504026
 11
40.2692645532
 21
16.6385000467
  0
LINE
  5
418
100
AcDbEntity
  8
0
100
AcDbLine
 62
7
  6
CONTINUOUS
 10
40.6047260535
 20
14.9127002381
 11
40.6010424194
 21
14.9335911653
  0
LINE
  5
419
100
AcDbEntity
  8
0
100
AcDbLine
 62
6
  6
CONTINUOUS
 10
40.2977786462
 20
16.6534854888
 11
40.2940950121
 21
16.674376416
  0
LINE
  5
41A
100
AcDbEntity
  8
0
100
AcDbLine
 62
7
  6
CONTINUOUS
 10
40.534421036
 20
14.9643679016
 11
40.5322036525
 21
14.9854648969
  0
LINE
  5
41B
100
AcDbEntity
  8
0
100
AcDbLine
 62
7
  6
CONTINUOUS
 10
40.3496523778
 20
16.7223242558
 11
40.3474349942
 21
16.743421251
  0
LINE
  5
41C
100
AcDbEntity
  8
0
100
AcDbLine
 62
6
  6
CONTINUOUS
 10
42.0842943531
 20
16.9259725257
 11
42.0865117366
 21
16.9048755304
  0
LINE
  5
41D
100
AcDbEntity
  8
0
100
AcDbLine
 62
6
  6
CONTINUOUS
 10
42.2690630113
 20
15.1680161716
 11
42.2712803948
 21
15.1469191763
  0
LINE
  5
41E
100
AcDbEntity
  8
0
100
AcDbLine
 62
6
  6
CONTINUOUS
 10
40.5006635994
 20
14.9920102793
 11
40.4991838412
 21
15.0131718084
  0
LINE
  5
41F
100
AcDbEntity
  8
0
100
AcDbLine
 62
7
  6
CONTINUOUS
 10
40.3773592893
 20
16.755344067
 11
40.375879531
 21
16.7765055962
  0
LINE
  5
420
100
AcDbEntity
  8
0
100
AcDbLine
 62
6
  6
CONTINUOUS
 10
42.1180517896
 20
16.8983301481
 11
42.1195315479
 21
16.8771686189
  0
LINE
  5
421
100
AcDbEntity
  8
0
100
AcDbLine
 62
7
  6
CONTINUOUS
 10
42.2413560998
 20
15.1349963603
 11
42.2428358581
 21
15.1138348312
  0
LINE
  5
422
100
AcDbEntity
  8
0
100
AcDbLine
 62
7
  6
CONTINUOUS
 10
40.4678914321
 20
15.0208139355
 11
40.4671511019
 21
15.0420142164
  0
LINE
  5
423
100
AcDbEntity
  8
0
100
AcDbLine
 62
7
  6
CONTINUOUS
 10
40.4062016972
 20
16.7873768063
 11
40.4054613671
 21
16.8085770872
  0
LINE
  5
424
100
AcDbEntity
  8
0
100
AcDbLine
 62
7
  6
CONTINUOUS
 10
42.150823957
 20
16.8695264919
 11
42.1515642872
 21
16.848326211
  0
LINE
  5
425
100
AcDbEntity
  8
0
100
AcDbLine
 62
7
  6
CONTINUOUS
 10
42.2125136918
 20
15.1029636211
 11
42.213254022
 21
15.0817633401
  0
LINE
  5
426
100
AcDbEntity
  8
0
100
AcDbLine
 62
7
  6
CONTINUOUS
 10
40.4361444617
 20
15.0507437774
 11
40.4361444617
 21
15.0719569808
  0
LINE
  5
427
100
AcDbEntity
  8
0
100
AcDbLine
 62
7
  6
CONTINUOUS
 10
40.4361444617
 20
16.8183834465
 11
40.4361444617
 21
16.83959665
  0
LINE
  5
428
100
AcDbEntity
  8
0
100
AcDbLine
 62
6
  6
CONTINUOUS
 10
42.1825709274
 20
16.83959665
 11
42.1825709274
 21
16.8183834465
  0
LINE
  5
429
100
AcDbEntity
  8
0
100
AcDbLine
 62
6
  6
CONTINUOUS
 10
42.1825709274
 20
15.0719569808
 11
42.1825709274
 21
15.0507437774
  0
LINE
  5
42A
100
AcDbEntity
  8
0
100
AcDbLine
 62
7
  6
CONTINUOUS
 10
40.4054613671
 20
15.0817633401
 11
40.4062016972
 21
15.1029636211
  0
LINE
  5
42B
100
AcDbEntity
  8
0
100
AcDbLine
 62
7
  6
CONTINUOUS
 10
40.4671511019
 20
16.848326211
 11
40.4678914321
 21
16.8695264919
  0
LINE
  5
42C
100
AcDbEntity
  8
0
100
AcDbLine
 62
7
  6
CONTINUOUS
 10
42.213254022
 20
16.8085770872
 11
42.2125136918
 21
16.7873768063
  0
LINE
  5
42D
100
AcDbEntity
  8
0
100
AcDbLine
 62
7
  6
CONTINUOUS
 10
42.1515642872
 20
15.0420142164
 11
42.150823957
 21
15.0208139355
  0
LINE
  5
42E
100
AcDbEntity
  8
0
100
AcDbLine
 62
7
  6
CONTINUOUS
 10
40.375879531
 20
15.1138348312
 11
40.3773592893
 21
15.1349963603
  0
LINE
  5
42F
100
AcDbEntity
  8
0
100
AcDbLine
 62
6
  6
CONTINUOUS
 10
40.4991838412
 20
16.8771686189
 11
40.5006635994
 21
16.8983301481
  0
LINE
  5
430
100
AcDbEntity
  8
0
100
AcDbLine
 62
7
  6
CONTINUOUS
 10
42.2428358581
 20
16.7765055962
 11
42.2413560998
 21
16.755344067
  0
LINE
  5
431
100
AcDbEntity
  8
0
100
AcDbLine
 62
6
  6
CONTINUOUS
 10
42.1195315479
 20
15.0131718084
 11
42.1180517896
 21
14.9920102793
  0
LINE
  5
432
100
AcDbEntity
  8
0
100
AcDbLine
 62
7
  6
CONTINUOUS
 10
40.3474349942
 20
15.1469191763
 11
40.3496523778
 21
15.1680161716
  0
LINE
  5
433
100
AcDbEntity
  8
0
100
AcDbLine
 62
7
  6
CONTINUOUS
 10
40.5322036525
 20
16.9048755304
 11
40.534421036
 21
16.9259725257
  0
LINE
  5
434
100
AcDbEntity
  8
0
100
AcDbLine
 62
6
  6
CONTINUOUS
 10
42.2712803948
 20
16.743421251
 11
42.2690630113
 21
16.7223242558
  0
LINE
  5
435
100
AcDbEntity
  8
0
100
AcDbLine
 62
6
  6
CONTINUOUS
 10
42.0865117366
 20
14.9854648969
 11
42.0842943531
 21
14.9643679016
  0
LINE
  5
436
100
AcDbEntity
  8
0
100
AcDbLine
 62
6
  6
CONTINUOUS
 10
40.3201624121
 20
15.1809760674
 11
40.3231147194
 21
15.2019828254
  0
LINE
  5
437
100
AcDbEntity
  8
0
100
AcDbLine
 62
7
  6
CONTINUOUS
 10
40.5661703063
 20
16.9314131888
 11
40.5691226136
 21
16.9524199468
  0
LINE
  5
438
100
AcDbEntity
  8
0
100
AcDbLine
 62
7
  6
CONTINUOUS
 10
42.298552977
 20
16.70936436
 11
42.2956006697
 21
16.688357602
  0
LINE
  5
439
100
AcDbEntity
  8
0
100
AcDbLine
 62
7
  6
CONTINUOUS
 10
42.0525450828
 20
14.9589272386
 11
42.0495927755
 21
14.9379204806
  0
LINE
  5
43A
100
AcDbEntity
  8
0
100
AcDbLine
 62
7
  6
CONTINUOUS
 10
42.324620377
 20
16.674376416
 11
42.3209367429
 21
16.6534854888
  0
LINE
  5
43B
100
AcDbEntity
  8
0
100
AcDbLine
 62
7
  6
CONTINUOUS
 10
42.0176729697
 20
14.9335911653
 11
42.0139893356
 21
14.9127002381
  0
LINE
  5
43C
100
AcDbEntity
  8
0
100
AcDbLine
 62
7
  6
CONTINUOUS
 10
42.3494508359
 20
16.6385000467
 11
42.3450403629
 21
16.6177504026
  0
LINE
  5
43D
100
AcDbEntity
  8
0
100
AcDbLine
 62
7
  6
CONTINUOUS
 10
41.9819378835
 20
14.9094875453
 11
41.9775274105
 21
14.8887379013
  0
LINE
  5
43E
100
AcDbEntity
  8
0
100
AcDbLine
 62
6
  6
CONTINUOUS
 10
42.3730141015
 20
16.6017789617
 11
42.3678821631
 21
16.5811958811
  0
LINE
  5
43F
100
AcDbEntity
  8
0
100
AcDbLine
 62
7
  6
CONTINUOUS
 10
41.945383362
 20
14.8866457451
 11
41.9402514236
 21
14.8660626645
  0
LINE
  5
440
100
AcDbEntity
  8
0
100
AcDbLine
 62
6
  6
CONTINUOUS
 10
42.3952814656
 20
16.5642579002
 11
42.3894343143
 21
16.5438664602
  0
LINE
  5
441
100
AcDbEntity
  8
0
100
AcDbLine
 62
7
  6
CONTINUOUS
 10
41.9080539411
 20
14.865093594
 11
41.9022067898
 21
14.8447021541
  0
LINE
  5
442
100
AcDbEntity
  8
0
100
AcDbLine
 62
7
  6
CONTINUOUS
 10
42.4162257988
 20
16.5259825756
 11
42.4096705584
 21
16.5058076202
  0
LINE
  5
443
100
AcDbEntity
  8
0
100
AcDbLine
 62
7
  6
CONTINUOUS
 10
41.8699951011
 20
14.8448573498
 11
41.8634398607
 21
14.8246823944
  0
LINE
  5
444
100
AcDbEntity
  8
0
100
AcDbLine
 62
6
  6
CONTINUOUS
 10
42.4358215838
 20
16.4869996206
 11
42.4285662409
 21
16.4670657299
  0
LINE
  5
445
100
AcDbEntity
  8
0
100
AcDbLine
 62
7
  6
CONTINUOUS
 10
41.8312532108
 20
14.8259616673
 11
41.8239978679
 21
14.8060277766
  0
LINE
  5
446
100
AcDbEntity
  8
0
100
AcDbLine
 62
6
  6
CONTINUOUS
 10
42.454044946
 20
16.44735653
 11
42.4460983401
 21
16.4276879903
  0
LINE
  5
447
100
AcDbEntity
  8
0
100
AcDbLine
 62
7
  6
CONTINUOUS
 10
41.7918754712
 20
14.8084295681
 11
41.7839288653
 21
14.7887610284
  0
LINE
  5
448
100
AcDbEntity
  8
0
100
AcDbLine
 62
7
  6
CONTINUOUS
 10
42.4708736832
 20
16.4071016027
 11
42.462245496
 21
16.3877223771
  0
LINE
  5
449
100
AcDbEntity
  8
0
100
AcDbLine
 62
6
  6
CONTINUOUS
 10
41.751909858
 20
14.7922824122
 11
41.7432816708
 21
14.7729031866
  0
LINE
  5
44A
100
AcDbEntity
  8
0
100
AcDbLine
 62
7
  6
CONTINUOUS
 10
42.486287292
 20
16.3662838832
 11
42.4769880357
 21
16.3472175822
  0
LINE
  5
44B
100
AcDbEntity
  8
0
100
AcDbLine
 62
7
  6
CONTINUOUS
 10
41.7114050631
 20
14.7775398725
 11
41.7021058068
 21
14.7584735716
  0
LINE
  5
44C
100
AcDbEntity
  8
0
100
AcDbLine
 62
7
  6
CONTINUOUS
 10
41.7021058068
 20
17.1318668558
 11
41.7114050631
 21
17.1128005548
  0
LINE
  5
44D
100
AcDbEntity
  8
0
100
AcDbLine
 62
7
  6
CONTINUOUS
 10
42.4769880357
 20
15.5431228451
 11
42.486287292
 21
15.5240565442
  0
LINE
  5
44E
100
AcDbEntity
  8
0
100
AcDbLine
 62
6
  6
CONTINUOUS
 10
41.7432816708
 20
17.1174372408
 11
41.751909858
 21
17.0980580151
  0
LINE
  5
44F
100
AcDbEntity
  8
0
100
AcDbLine
 62
7
  6
CONTINUOUS
 10
42.462245496
 20
15.5026180503
 11
42.4708736832
 21
15.4832388246
  0
LINE
  5
450
100
AcDbEntity
  8
0
100
AcDbLine
 62
7
  6
CONTINUOUS
 10
41.7839288653
 20
17.101579399
 11
41.7918754712
 21
17.0819108593
  0
LINE
  5
451
100
AcDbEntity
  8
0
100
AcDbLine
 62
6
  6
CONTINUOUS
 10
42.4460983401
 20
15.4626524371
 11
42.454044946
 21
15.4429838973
  0
LINE
  5
452
100
AcDbEntity
  8
0
100
AcDbLine
 62
7
  6
CONTINUOUS
 10
41.8239978679
 20
17.0843126508
 11
41.8312532108
 21
17.06437876
  0
LINE
  5
453
100
AcDbEntity
  8
0
100
AcDbLine
 62
6
  6
CONTINUOUS
 10
42.4285662409
 20
15.4232746974
 11
42.4358215838
 21
15.4033408067
  0
LINE
  5
454
100
AcDbEntity
  8
0
100
AcDbLine
 62
7
  6
CONTINUOUS
 10
41.8634398607
 20
17.0656580329
 11
41.8699951011
 21
17.0454830776
  0
LINE
  5
455
100
AcDbEntity
  8
0
100
AcDbLine
 62
7
  6
CONTINUOUS
 10
42.4096705584
 20
15.3845328071
 11
42.4162257988
 21
15.3643578518
  0
LINE
  5
456
100
AcDbEntity
  8
0
100
AcDbLine
 62
7
  6
CONTINUOUS
 10
41.9022067898
 20
17.0456382733
 11
41.9080539411
 21
17.0252468334
  0
LINE
  5
457
100
AcDbEntity
  8
0
100
AcDbLine
 62
6
  6
CONTINUOUS
 10
42.3894343143
 20
15.3464739671
 11
42.3952814656
 21
15.3260825272
  0
LINE
  5
458
100
AcDbEntity
  8
0
100
AcDbLine
 62
7
  6
CONTINUOUS
 10
41.9402514236
 20
17.0242777628
 11
41.945383362
 21
17.0036946822
  0
LINE
  5
459
100
AcDbEntity
  8
0
100
AcDbLine
 62
6
  6
CONTINUOUS
 10
42.3678821631
 20
15.3091445463
 11
42.3730141015
 21
15.2885614656
  0
LINE
  5
45A
100
AcDbEntity
  8
0
100
AcDbLine
 62
7
  6
CONTINUOUS
 10
41.9775274105
 20
17.0016025261
 11
41.9819378835
 21
16.980852882
  0
LINE
  5
45B
100
AcDbEntity
  8
0
100
AcDbLine
 62
7
  6
CONTINUOUS
 10
42.3450403629
 20
15.2725900247
 11
42.3494508359
 21
15.2518403807
  0
LINE
  5
45C
100
AcDbEntity
  8
0
100
AcDbLine
 62
7
  6
CONTINUOUS
 10
42.0139893356
 20
16.9776401892
 11
42.0176729697
 21
16.956749262
  0
LINE
  5
45D
100
AcDbEntity
  8
0
100
AcDbLine
 62
7
  6
CONTINUOUS
 10
42.3209367429
 20
15.2368549385
 11
42.324620377
 21
15.2159640113
  0
LINE
  5
45E
100
AcDbEntity
  8
0
100
AcDbLine
 62
7
  6
CONTINUOUS
 10
40.5691226136
 20
14.9379204806
 11
40.5661703063
 21
14.9589272386
  0
LINE
  5
45F
100
AcDbEntity
  8
0
100
AcDbLine
 62
6
  6
CONTINUOUS
 10
40.3231147194
 20
16.688357602
 11
40.3201624121
 21
16.70936436
  0
LINE
  5
460
100
AcDbEntity
  8
0
100
AcDbLine
 62
7
  6
CONTINUOUS
 10
42.0495927755
 20
16.9524199468
 11
42.0525450828
 21
16.9314131888
  0
LINE
  5
461
100
AcDbEntity
  8
0
100
AcDbLine
 62
7
  6
CONTINUOUS
 10
42.2956006697
 20
15.2019828254
 11
42.298552977
 21
15.1809760674
  0
ARC
  5
462
100
AcDbEntity
  8
0
100
AcDbCircle
 62
6
  6
CONTINUOUS
 10
5.3093576945
 20
15.9451702137
 40
1.25
100
AcDbArc
 50
59.6875658564
 51
60.3124341436
  0
ARC
  5
463
100
AcDbEntity
  8
0
100
AcDbCircle
 62
6
  6
CONTINUOUS
 10
5.3093576945
 20
15.9451702137
 40
1.25
100
AcDbArc
 50
119.6875658564
 51
120.3124341436
  0
ARC
  5
464
100
AcDbEntity
  8
0
100
AcDbCircle
 62
6
  6
CONTINUOUS
 10
5.3093576945
 20
15.9451702137
 40
1.25
100
AcDbArc
 50
179.6875658564
 51
180.3124341436
  0
ARC
  5
465
100
AcDbEntity
  8
0
100
AcDbCircle
 62
6
  6
CONTINUOUS
 10
5.3093576945
 20
15.9451702137
 40
1.25
100
AcDbArc
 50
239.6875658564
 51
240.3124341436
  0
ARC
  5
466
100
AcDbEntity
  8
0
100
AcDbCircle
 62
6
  6
CONTINUOUS
 10
41.3093576945
 20
15.9451702137
 40
1.25
100
AcDbArc
 50
27.6875658564
 51
32.3124341436
  0
ARC
  5
467
100
AcDbEntity
  8
0
100
AcDbCircle
 62
6
  6
CONTINUOUS
 10
5.3093576945
 20
15.9451702137
 40
1.25
100
AcDbArc
 50
299.6875658564
 51
300.3124341436
  0
ARC
  5
468
100
AcDbEntity
  8
0
100
AcDbCircle
 62
6
  6
CONTINUOUS
 10
41.3093576945
 20
15.9451702137
 40
1.25
100
AcDbArc
 50
5.6875658564
 51
27.6708920778
  0
ARC
  5
469
100
AcDbEntity
  8
0
100
AcDbCircle
 62
6
  6
CONTINUOUS
 10
41.3093576945
 20
15.9451702137
 40
1.25
100
AcDbArc
 50
0.3271295853
 51
5.6779118966
  0
ARC
  5
46A
100
AcDbEntity
  8
0
100
AcDbCircle
 62
6
  6
CONTINUOUS
 10
41.3093576945
 20
15.9451702137
 40
1.25
100
AcDbArc
 50
359.6875658564
 51
0.3124341436
  0
ARC
  5
46B
100
AcDbEntity
  8
0
100
AcDbCircle
 62
6
  6
CONTINUOUS
 10
41.3093576945
 20
15.9451702137
 40
1.25
100
AcDbArc
 50
354.3220881034
 51
359.6728704147
  0
ARC
  5
46C
100
AcDbEntity
  8
0
100
AcDbCircle
 62
6
  6
CONTINUOUS
 10
41.3093576945
 20
15.9451702137
 40
1.25
100
AcDbArc
 50
332.3291079222
 51
354.3124341436
  0
ARC
  5
46D
100
AcDbEntity
  8
0
100
AcDbCircle
 62
6
  6
CONTINUOUS
 10
41.3093576945
 20
15.9451702137
 40
1.25
100
AcDbArc
 50
327.6875658564
 51
332.3124341436
  0
ARC
  5
46E
100
AcDbEntity
  8
0
100
AcDbCircle
 62
6
  6
CONTINUOUS
 10
41.3093576945
 20
15.9451702137
 40
1.25
100
AcDbArc
 50
305.6875658564
 51
327.6708920778
  0
ARC
  5
46F
100
AcDbEntity
  8
0
100
AcDbCircle
 62
6
  6
CONTINUOUS
 10
41.3093576945
 20
15.9451702137
 40
1.25
100
AcDbArc
 50
300.3271295853
 51
305.6779118966
  0
ARC
  5
470
100
AcDbEntity
  8
0
100
AcDbCircle
 62
6
  6
CONTINUOUS
 10
41.3093576945
 20
15.9451702137
 40
1.25
100
AcDbArc
 50
299.6875658564
 51
300.3124341436
  0
ARC
  5
471
100
AcDbEntity
  8
0
100
AcDbCircle
 62
6
  6
CONTINUOUS
 10
41.3093576945
 20
15.9451702137
 40
1.25
100
AcDbArc
 50
294.3220881034
 51
299.6728704147
  0
ARC
  5
472
100
AcDbEntity
  8
0
100
AcDbCircle
 62
6
  6
CONTINUOUS
 10
41.3093576945
 20
15.9451702137
 40
1.25
100
AcDbArc
 50
272.3291079222
 51
294.3124341436
  0
ARC
  5
473
100
AcDbEntity
  8
0
100
AcDbCircle
 62
6
  6
CONTINUOUS
 10
41.3093576945
 20
15.9451702137
 40
1.25
100
AcDbArc
 50
267.6875658564
 51
272.3124341436
  0
ARC
  5
474
100
AcDbEntity
  8
0
100
AcDbCircle
 62
6
  6
CONTINUOUS
 10
41.3093576945
 20
15.9451702137
 40
1.25
100
AcDbArc
 50
245.6875658564
 51
267.6708920778
  0
ARC
  5
475
100
AcDbEntity
  8
0
100
AcDbCircle
 62
6
  6
CONTINUOUS
 10
41.3093576945
 20
15.9451702137
 40
1.25
100
AcDbArc
 50
240.3271295853
 51
245.6779118966
  0
ARC
  5
476
100
AcDbEntity
  8
0
100
AcDbCircle
 62
6
  6
CONTINUOUS
 10
41.3093576945
 20
15.9451702137
 40
1.25
100
AcDbArc
 50
239.6875658564
 51
240.3124341436
  0
ARC
  5
477
100
AcDbEntity
  8
0
100
AcDbCircle
 62
6
  6
CONTINUOUS
 10
41.3093576945
 20
15.9451702137
 40
1.25
100
AcDbArc
 50
234.3220881034
 51
239.6728704147
  0
ARC
  5
478
100
AcDbEntity
  8
0
100
AcDbCircle
 62
6
  6
CONTINUOUS
 10
41.3093576945
 20
15.9451702137
 40
1.25
100
AcDbArc
 50
212.3291079222
 51
234.3124341436
  0
ARC
  5
479
100
AcDbEntity
  8
0
100
AcDbCircle
 62
6
  6
CONTINUOUS
 10
41.3093576945
 20
15.9451702137
 40
1.25
100
AcDbArc
 50
210.0000000862
 51
212.3124341436
  0
ARC
  5
47A
100
AcDbEntity
  8
0
100
AcDbCircle
 62
6
  6
CONTINUOUS
 10
41.3093576945
 20
15.9451702137
 40
1.25
100
AcDbArc
 50
147.6875658564
 51
149.9999999151
  0
ARC
  5
47B
100
AcDbEntity
  8
0
100
AcDbCircle
 62
6
  6
CONTINUOUS
 10
41.3093576945
 20
15.9451702137
 40
1.25
100
AcDbArc
 50
125.6875658564
 51
147.6708920778
  0
ARC
  5
47C
100
AcDbEntity
  8
0
100
AcDbCircle
 62
6
  6
CONTINUOUS
 10
41.3093576945
 20
15.9451702137
 40
1.25
100
AcDbArc
 50
120.3271295853
 51
125.6779118966
  0
ARC
  5
47D
100
AcDbEntity
  8
0
100
AcDbCircle
 62
6
  6
CONTINUOUS
 10
41.3093576945
 20
15.9451702137
 40
1.25
100
AcDbArc
 50
119.6875658564
 51
120.3124341436
  0
ARC
  5
47E
100
AcDbEntity
  8
0
100
AcDbCircle
 62
6
  6
CONTINUOUS
 10
41.3093576945
 20
15.9451702137
 40
1.25
100
AcDbArc
 50
114.3220881034
 51
119.6728704147
  0
ARC
  5
47F
100
AcDbEntity
  8
0
100
AcDbCircle
 62
6
  6
CONTINUOUS
 10
41.3093576945
 20
15.9451702137
 40
1.25
100
AcDbArc
 50
92.3291079222
 51
114.3124341436
  0
ARC
  5
480
100
AcDbEntity
  8
0
100
AcDbCircle
 62
6
  6
CONTINUOUS
 10
41.3093576945
 20
15.9451702137
 40
1.25
100
AcDbArc
 50
87.6875658564
 51
92.3124341436
  0
ARC
  5
481
100
AcDbEntity
  8
0
100
AcDbCircle
 62
6
  6
CONTINUOUS
 10
41.3093576945
 20
15.9451702137
 40
1.25
100
AcDbArc
 50
65.6875658564
 51
87.6708920778
  0
ARC
  5
482
100
AcDbEntity
  8
0
100
AcDbCircle
 62
6
  6
CONTINUOUS
 10
41.3093576945
 20
15.9451702137
 40
1.25
100
AcDbArc
 50
60.3271295853
 51
65.6779118966
  0
ARC
  5
483
100
AcDbEntity
  8
0
100
AcDbCircle
 62
6
  6
CONTINUOUS
 10
41.3093576945
 20
15.9451702137
 40
1.25
100
AcDbArc
 50
59.6875658564
 51
60.3124341436
  0
ARC
  5
484
100
AcDbEntity
  8
0
100
AcDbCircle
 62
6
  6
CONTINUOUS
 10
41.3093576945
 20
15.9451702137
 40
1.25
100
AcDbArc
 50
54.3220881034
 51
59.6728704147
  0
ARC
  5
485
100
AcDbEntity
  8
0
100
AcDbCircle
 62
6
  6
CONTINUOUS
 10
41.3093576945
 20
15.9451702137
 40
1.25
100
AcDbArc
 50
32.3291079222
 51
54.3124341436
  0
ARC
  5
486
100
AcDbEntity
  8
0
100
AcDbCircle
 62
6
  6
CONTINUOUS
 10
5.3093576945
 20
15.9451702137
 40
1.25
100
AcDbArc
 50
180.3271295853
 51
185.6779118966
  0
ARC
  5
487
100
AcDbEntity
  8
0
100
AcDbCircle
 62
6
  6
CONTINUOUS
 10
5.3093576945
 20
15.9451702137
 40
1.25
100
AcDbArc
 50
185.6875658564
 51
207.6708920778
  0
ARC
  5
488
100
AcDbEntity
  8
0
100
AcDbCircle
 62
6
  6
CONTINUOUS
 10
5.3093576945
 20
15.9451702137
 40
1.25
100
AcDbArc
 50
207.6875658564
 51
212.3124341436
  0
ARC
  5
489
100
AcDbEntity
  8
0
100
AcDbCircle
 62
6
  6
CONTINUOUS
 10
5.3093576945
 20
15.9451702137
 40
1.25
100
AcDbArc
 50
212.3291079222
 51
234.3124341436
  0
ARC
  5
48A
100
AcDbEntity
  8
0
100
AcDbCircle
 62
6
  6
CONTINUOUS
 10
5.3093576945
 20
15.9451702137
 40
1.25
100
AcDbArc
 50
234.3220881034
 51
239.6728704147
  0
ARC
  5
48B
100
AcDbEntity
  8
0
100
AcDbCircle
 62
6
  6
CONTINUOUS
 10
5.3093576945
 20
15.9451702137
 40
1.25
100
AcDbArc
 50
240.3271295853
 51
245.6779118966
  0
ARC
  5
48C
100
AcDbEntity
  8
0
100
AcDbCircle
 62
6
  6
CONTINUOUS
 10
5.3093576945
 20
15.9451702137
 40
1.25
100
AcDbArc
 50
245.6875658564
 51
267.6708920778
  0
ARC
  5
48D
100
AcDbEntity
  8
0
100
AcDbCircle
 62
6
  6
CONTINUOUS
 10
5.3093576945
 20
15.9451702137
 40
1.25
100
AcDbArc
 50
267.6875658564
 51
272.3124341436
  0
ARC
  5
48E
100
AcDbEntity
  8
0
100
AcDbCircle
 62
6
  6
CONTINUOUS
 10
5.3093576945
 20
15.9451702137
 40
1.25
100
AcDbArc
 50
272.3291079222
 51
294.3124341436
  0
ARC
  5
48F
100
AcDbEntity
  8
0
100
AcDbCircle
 62
6
  6
CONTINUOUS
 10
5.3093576945
 20
15.9451702137
 40
1.25
100
AcDbArc
 50
294.3220881034
 51
299.6728704147
  0
ARC
  5
490
100
AcDbEntity
  8
0
100
AcDbCircle
 62
6
  6
CONTINUOUS
 10
5.3093576945
 20
15.9451702137
 40
1.25
100
AcDbArc
 50
300.3271295853
 51
305.6779118966
  0
ARC
  5
491
100
AcDbEntity
  8
0
100
AcDbCircle
 62
6
  6
CONTINUOUS
 10
5.3093576945
 20
15.9451702137
 40
1.25
100
AcDbArc
 50
305.6875658564
 51
327.6708920778
  0
ARC
  5
492
100
AcDbEntity
  8
0
100
AcDbCircle
 62
6
  6
CONTINUOUS
 10
5.3093576945
 20
15.9451702137
 40
1.25
100
AcDbArc
 50
327.6875658564
 51
329.9999999638
  0
ARC
  5
493
100
AcDbEntity
  8
0
100
AcDbCircle
 62
6
  6
CONTINUOUS
 10
5.3093576945
 20
15.9451702137
 40
1.25
100
AcDbArc
 50
174.3220881034
 51
179.6728704147
  0
ARC
  5
494
100
AcDbEntity
  8
0
100
AcDbCircle
 62
6
  6
CONTINUOUS
 10
5.3093576945
 20
15.9451702137
 40
1.25
100
AcDbArc
 50
152.3291079222
 51
174.3124341436
  0
ARC
  5
495
100
AcDbEntity
  8
0
100
AcDbCircle
 62
6
  6
CONTINUOUS
 10
5.3093576945
 20
15.9451702137
 40
1.25
100
AcDbArc
 50
147.6875658564
 51
152.3124341436
  0
ARC
  5
496
100
AcDbEntity
  8
0
100
AcDbCircle
 62
6
  6
CONTINUOUS
 10
5.3093576945
 20
15.9451702137
 40
1.25
100
AcDbArc
 50
125.6875658564
 51
147.6708920778
  0
ARC
  5
497
100
AcDbEntity
  8
0
100
AcDbCircle
 62
6
  6
CONTINUOUS
 10
5.3093576945
 20
15.9451702137
 40
1.25
100
AcDbArc
 50
120.3271295853
 51
125.6779118966
  0
ARC
  5
498
100
AcDbEntity
  8
0
100
AcDbCircle
 62
6
  6
CONTINUOUS
 10
5.3093576945
 20
15.9451702137
 40
1.25
100
AcDbArc
 50
114.3220881034
 51
119.6728704147
  0
ARC
  5
499
100
AcDbEntity
  8
0
100
AcDbCircle
 62
6
  6
CONTINUOUS
 10
5.3093576945
 20
15.9451702137
 40
1.25
100
AcDbArc
 50
92.3291079222
 51
114.3124341436
  0
ARC
  5
49A
100
AcDbEntity
  8
0
100
AcDbCircle
 62
6
  6
CONTINUOUS
 10
5.3093576945
 20
15.9451702137
 40
1.25
100
AcDbArc
 50
87.6875658564
 51
92.3124341436
  0
ARC
  5
49B
100
AcDbEntity
  8
0
100
AcDbCircle
 62
6
  6
CONTINUOUS
 10
5.3093576945
 20
15.9451702137
 40
1.25
100
AcDbArc
 50
65.6875658564
 51
87.6708920778
  0
ARC
  5
49C
100
AcDbEntity
  8
0
100
AcDbCircle
 62
6
  6
CONTINUOUS
 10
5.3093576945
 20
15.9451702137
 40
1.25
100
AcDbArc
 50
60.3271295853
 51
65.6779118966
  0
ARC
  5
49D
100
AcDbEntity
  8
0
100
AcDbCircle
 62
6
  6
CONTINUOUS
 10
5.3093576945
 20
15.9451702137
 40
1.25
100
AcDbArc
 50
54.3220881034
 51
59.6728704147
  0
ARC
  5
49E
100
AcDbEntity
  8
0
100
AcDbCircle
 62
6
  6
CONTINUOUS
 10
5.3093576945
 20
15.9451702137
 40
1.25
100
AcDbArc
 50
32.3291079222
 51
54.3124341436
  0
ARC
  5
49F
100
AcDbEntity
  8
0
100
AcDbCircle
 62
6
  6
CONTINUOUS
 10
5.3093576945
 20
15.9451702137
 40
1.25
100
AcDbArc
 50
30.0000000357
 51
32.3124341436
  0
ARC
  5
4A0
100
AcDbEntity
  8
0
100
AcDbCircle
 62
7
  6
CONTINUOUS
 10
41.3093576945
 20
15.9451702137
 40
1.175
100
AcDbArc
 50
212.1692021223
 51
147.8307978777
  0
ARC
  5
4A1
100
AcDbEntity
  8
0
100
AcDbCircle
 62
7
  6
CONTINUOUS
 10
5.3093576945
 20
15.9451702137
 40
1.175
100
AcDbArc
 50
32.1692021223
 51
327.8307978777
  0
ARC
  5
4A2
100
AcDbEntity
  8
0
100
AcDbCircle
 62
6
  6
CONTINUOUS
 10
41.3093576945
 20
15.9451702137
 40
1.075
100
AcDbArc
 50
215.5525059869
 51
144.4474940131
  0
ARC
  5
4A3
100
AcDbEntity
  8
0
100
AcDbCircle
 62
6
  6
CONTINUOUS
 10
5.3093576945
 20
15.9451702137
 40
1.075
100
AcDbArc
 50
35.5525059869
 51
324.4474940131
  0
ARC
  5
4A4
100
AcDbEntity
  8
0
100
AcDbCircle
 62
7
  6
CONTINUOUS
 10
41.3093576945
 20
15.9451702137
 40
1.025
100
AcDbArc
 50
217.6205605486
 51
142.3794394514
  0
ARC
  5
4A5
100
AcDbEntity
  8
0
100
AcDbCircle
 62
7
  6
CONTINUOUS
 10
5.3093576945
 20
15.9451702137
 40
1.025
100
AcDbArc
 50
37.6205605486
 51
322.3794394514
  0
ARC
  5
4A6
100
AcDbEntity
  8
0
100
AcDbCircle
 62
6
  6
CONTINUOUS
 10
41.3093576945
 20
15.9451702137
 40
0.925
100
AcDbArc
 50
222.5228244933
 51
137.4771755067
  0
ARC
  5
4A7
100
AcDbEntity
  8
0
100
AcDbCircle
 62
6
  6
CONTINUOUS
 10
5.3093576945
 20
15.9451702137
 40
0.925
100
AcDbArc
 50
42.5228244933
 51
317.4771755067
  0
ENDSEC
  0
SECTION
  2
OBJECTS
  0
DICTIONARY
  5
C
100
AcDbDictionary
280
0
281
1
  3
ACAD_GROUP
350
D
  3
ACAD_MLINESTYLE
350
17
  3
ACAD_LAYOUT
350
1A
  3
ACAD_PLOTSETTINGS
350
19
  3
ACAD_PLOTSTYLENAME
350
E
  0
DICTIONARY
  5
D
102
{ACAD_REACTORS
330
C
102
}
100
AcDbDictionary
280
0
281
1
  0
ACDBDICTIONARYWDFLT
  5
E
102
{ACAD_REACTORS
330
C
102
}
100
AcDbDictionary
281
1
  3
Normal
350
F
100
AcDbDictionaryWithDefault
340
F
  0
DICTIONARY
  5
17
102
{ACAD_REACTORS
330
C
102
}
100
AcDbDictionary
280
0
281
1
  3
Standard
350
18
  0
DICTIONARY
  5
19
102
{ACAD_REACTORS
330
C
102
}
100
AcDbDictionary
281
1
  0
DICTIONARY
  5
1A
102
{ACAD_REACTORS
330
C
102
}
100
AcDbDictionary
281
1
  3
Model
350
4A8
  3
Layout1
350
4A9
  0
ACDBPLACEHOLDER
  5
F
102
{ACAD_REACTORS
330
E
102
}
  0
MLINESTYLE
  5
18
102
{ACAD_REACTORS
330
17
102
}
100
AcDbMlineStyle
  2
STANDARD
 70
0
  3

 62
256
 51
90.0
 52
90.0
 71
2
 49
0.5
 62
256
  6
BYLAYER
 49
-0.5
 62
256
  6
BYLAYER
  0
LAYOUT
  5
4A8
102
{ACAD_REACTORS
330
1A
102
}
100
AcDbPlotSettings
  1

  2
none_device
  4
ISO_A0_(1189.00_x_841.00_MM)
  6

 40
0.0
 41
0.0
 42
0.0
 43
0.0
 44
1189.0
 45
841.0
 46
0.0
 47
0.0
 48
0.0
 49
0.0
140
0.0
141
0.0
142
1.0
143
1.0
 70
1024
 72
0
 73
0
 74
0
  7

 75
0
147
1.0
148
0.0
149
0.0
100
AcDbLayout
  1
Model
 70
0
 71
0
 10
0.0
 20
0.0
 11
46.811023622
 21
33.1102362205
 12
0.0
 22
0.0
 32
0.0
 14
0.0
 24
0.0
 34
0.0
 15
0.0
 25
0.0
 35
0.0
146
0.0
 13
0.0
 23
0.0
 33
0.0
 16
1.0
 26
0.0
 36
0.0
 17
0.0
 27
1.0
 37
0.0
 76
0
330
203
345
0
346
0
  0
LAYOUT
  5
4A9
102
{ACAD_REACTORS
330
1A
102
}
100
AcDbPlotSettings
  1

  2
none_device
  4
ISO_A0_(1189.00_x_841.00_MM)
  6

 40
0.0
 41
0.0
 42
0.0
 43
0.0
 44
1189.0
 45
841.0
 46
0.0
 47
0.0
 48
0.0
 49
0.0
140
0.0
141
0.0
142
1.0
143
1.0
 70
0
 72
0
 73
0
 74
0
  7

 75
0
147
1.0
148
0.0
149
0.0
100
AcDbLayout
  1
Layout1
 70
0
 71
1
 10
0.0
 20
0.0
 11
46.811023622
 21
33.1102362205
 12
0.0
 22
0.0
 32
0.0
 14
0.0
 24
0.0
 34
0.0
 15
0.0
 25
0.0
 35
0.0
146
0.0
 13
0.0
 23
0.0
 33
0.0
 16
1.0
 26
0.0
 36
0.0
 17
0.0
 27
1.0
 37
0.0
 76
0
330
204
345
0
346
0
  0
ENDSEC
  0
EOF
