999
DXF file: E:\BT Custom\CADOUTPUT\_TOP.dxf
999
Pro/ENGINEER 2018400 by Parametric Technology Corporation
  0
SECTION
  2
HEADER
  9
$ACADVER
  1
AC1018
  9
$DWGCODEPAGE
  3
ANSI_1252
  9
$EXTMAX
 10
22.0
 20
17.0
 30
0.0
  9
$EXTMIN
 10
0.0
 20
0.0
 30
0.0
  9
$LIMMIN
 10
0.0
 20
0.0
  9
$LIMMAX
 10
22.0
 20
17.0
  9
$VIEWCTR
 10
11.0
 20
8.5
  9
$VIEWSIZE
 40
17.0
  9
$CLAYER
  8
0
  9
$LTSCALE
 40
1.21
  9
$CELTYPE
  6
BYLAYER
  9
$DIMSCALE
 40
1.0
  9
$DIMASZ
 40
0.1
  9
$DIMEXO
 40
0.0625
  9
$DIMDLI
 40
0.836
  9
$DIMEXE
 40
0.125
  9
$DIMCEN
 40
0.198
  9
$DIMLFAC
 40
1.0
  9
$DIMBLK
  1
_FILLED
  9
$DIMALT
 70
1
  9
$DIMALTD
 70
2
  9
$DIMALTTD
 70
2
  9
$DIMALTF
 40
25.4
  9
$DIMTXT
 40
0.08
  9
$DIMTOL
 70
1
  9
$DIMLIM
 70
0
  9
$DIMTFAC
 40
1.0
  9
$DIMTP
 40
0.001
  9
$DIMTM
 40
0.001
  9
$DIMGAP
 40
0.09
  9
$DIMDSEP
 70
46
  9
$AUNITS
 70
0
  9
$PDMODE
 70
3
  9
$PDSIZE
 40
0.06
  9
$HANDSEED
  5
406
  9
$TILEMODE
 70
1
  9
$MEASUREMENT
 70
0
  9
$INSUNITS
 70
1
  0
ENDSEC
  0
SECTION
  2
CLASSES
  0
CLASS
  1
ACDBDICTIONARYWDFLT
  2
AcDbDictionaryWithDefault
  3
AutoCAD 2000
 90
0
 91
1
280
0
281
0
  0
CLASS
  1
ACDBPLACEHOLDER
  2
AcDbPlaceHolder
  3
AutoCAD 2000
 90
0
 91
1
280
0
281
0
  0
CLASS
  1
LAYOUT
  2
AcDbLayout
  3
AutoCAD 2000
 90
0
 91
0
280
0
281
0
  0
ENDSEC
  0
SECTION
  2
TABLES
  0
TABLE
  2
VPORT
  5
8
100
AcDbSymbolTable
 70
2
  0
VPORT
  5
1F4
100
AcDbSymbolTableRecord
100
AcDbViewportTableRecord
  2
*ACTIVE
 70
0
 10
0.0
 20
0.0
 11
1.0
 21
1.0
 12
11.0
 22
8.5
 13
0.0
 23
0.0
 14
1.0
 24
1.0
 15
0.0
 25
0.0
 16
0.0
 26
0.0
 36
1.0
 17
0.0
 27
0.0
 37
0.0
 40
17.0
 41
1.2941176471
 42
50.0
 43
0.0
 44
0.0
 50
0.0
 51
0.0
 71
0
 72
100
 73
1
 74
1
 75
0
 76
0
 77
0
 78
0
  0
ENDTAB
  0
TABLE
  2
LTYPE
  5
5
100
AcDbSymbolTable
 70
6
  0
LTYPE
  5
14
100
AcDbSymbolTableRecord
100
AcDbLinetypeTableRecord
  2
BYBLOCK
 70
0
  3

 72
65
 73
0
 40
0.0
  0
LTYPE
  5
15
100
AcDbSymbolTableRecord
100
AcDbLinetypeTableRecord
  2
BYLAYER
 70
0
  3

 72
65
 73
0
 40
0.0
  0
LTYPE
  5
16
100
AcDbSymbolTableRecord
100
AcDbLinetypeTableRecord
  2
CONTINUOUS
 70
64
  3
Solid line
 72
65
 73
0
 40
0.0
  0
LTYPE
  5
1F5
100
AcDbSymbolTableRecord
100
AcDbLinetypeTableRecord
  2
CENTER
 70
64
  3
____ _ ____ _ ____ _ ____ _ ____ _ ____ _ ____
 72
65
 73
4
 40
0.6
 49
0.375
 74
0
 49
-0.075
 74
0
 49
0.075
 74
0
 49
-0.075
 74
0
  0
LTYPE
  5
1F6
100
AcDbSymbolTableRecord
100
AcDbLinetypeTableRecord
  2
HIDDEN
 70
64
  3
- - - - - - - - - - - - - - - - - - - -
 72
65
 73
2
 40
0.2
 49
0.1
 74
0
 49
-0.1
 74
0
  0
LTYPE
  5
1F7
100
AcDbSymbolTableRecord
100
AcDbLinetypeTableRecord
  2
PHANTOM
 70
64
  3
_____ _ _ _____ _ _ _____ _ _ _____
 72
65
 73
6
 40
0.8
 49
0.45
 74
0
 49
-0.05
 74
0
 49
0.1
 74
0
 49
-0.05
 74
0
 49
0.1
 74
0
 49
-0.05
 74
0
  0
LTYPE
  5
1F8
100
AcDbSymbolTableRecord
100
AcDbLinetypeTableRecord
  2
DOT
 70
64
  3
. . . . . . . . . . . . . . . . . . . .
 72
65
 73
2
 40
0.2
 49
0.1
 74
0
 49
-0.1
 74
0
  0
LTYPE
  5
1F9
100
AcDbSymbolTableRecord
100
AcDbLinetypeTableRecord
  2
DASHED
 70
64
  3
- - - - - - - - - - - - - - - - - - - -
 72
65
 73
2
 40
0.2
 49
0.1
 74
0
 49
-0.1
 74
0
  0
ENDTAB
  0
TABLE
  2
LAYER
  5
2
100
AcDbSymbolTable
 70
36
  0
LAYER
  5
10
100
AcDbSymbolTableRecord
100
AcDbLayerTableRecord
  2
0
 70
0
 62
7
  6
CONTINUOUS
370
-3
390
F
  0
LAYER
  5
1FA
100
AcDbSymbolTableRecord
100
AcDbLayerTableRecord
  2
DEFAULT_1
 70
0
 62
7
  6
CENTER
370
-3
390
F
  0
LAYER
  5
1FB
100
AcDbSymbolTableRecord
100
AcDbLayerTableRecord
  2
DEFAULT_2
 70
0
 62
8
  6
HIDDEN
370
-3
390
F
  0
LAYER
  5
1FC
100
AcDbSymbolTableRecord
100
AcDbLayerTableRecord
  2
DEFAULT_3
 70
0
 62
7
  6
PHANTOM
370
-3
390
F
  0
LAYER
  5
1FD
100
AcDbSymbolTableRecord
100
AcDbLayerTableRecord
  2
ALL_FEATURES
 70
0
 62
7
  6
CONTINUOUS
370
-3
390
F
  0
LAYER
  5
1FE
100
AcDbSymbolTableRecord
100
AcDbLayerTableRecord
  2
AXES_FEATURES
 70
0
 62
7
  6
CONTINUOUS
370
-3
390
F
  0
LAYER
  5
1FF
100
AcDbSymbolTableRecord
100
AcDbLayerTableRecord
  2
DIMENSIONS
 70
0
 62
7
  6
CONTINUOUS
370
-3
390
F
  0
ENDTAB
  0
TABLE
  2
STYLE
  5
3
100
AcDbSymbolTable
 70
1
  0
STYLE
  5
11
100
AcDbSymbolTableRecord
100
AcDbTextStyleTableRecord
  2
STANDARD
 70
0
 40
0.0
 41
0.8
 50
0.0
 71
0
 42
0.2
  3
txt
  4

  0
STYLE
  5
200
100
AcDbSymbolTableRecord
100
AcDbTextStyleTableRecord
  2
TEXTSTYLE_1
 70
0
 40
0.0
 41
0.8
 50
0.0
 71
0
 42
0.2
  3
gdt
  4

  0
ENDTAB
  0
TABLE
  2
VIEW
  5
6
100
AcDbSymbolTable
 70
0
  0
ENDTAB
  0
TABLE
  2
UCS
  5
7
100
AcDbSymbolTable
 70
0
  0
ENDTAB
  0
TABLE
  2
APPID
  5
9
100
AcDbSymbolTable
 70
1
  0
APPID
  5
201
100
AcDbSymbolTableRecord
100
AcDbRegAppTableRecord
  2
ACAD
 70
0
  0
ENDTAB
  0
TABLE
  2
BLOCK_RECORD
  5
1
100
AcDbSymbolTable
 70
0
  0
BLOCK_RECORD
  5
202
100
AcDbSymbolTableRecord
100
AcDbBlockTableRecord
  2
*Model_Space
  0
BLOCK_RECORD
  5
203
100
AcDbSymbolTableRecord
100
AcDbBlockTableRecord
  2
*Paper_Space
  0
BLOCK_RECORD
  5
204
100
AcDbSymbolTableRecord
100
AcDbBlockTableRecord
  2
_FILLED
  0
ENDTAB
  0
TABLE
  2
DIMSTYLE
  5
A
100
AcDbSymbolTable
 70
1
100
AcDbDimStyleTable
 71
0
  0
DIMSTYLE
105
205
100
AcDbSymbolTableRecord
100
AcDbDimStyleTableRecord
  2
STANDARD
 70
0
  3

  4

 40
1.0
 41
0.1
 42
0.0625
 43
0.38
 44
0.125
 45
0.0
 46
0.0
 47
0.001
 48
0.001
140
0.08
141
0.09
142
0.0
143
25.4
144
1.0
145
0.0
146
1.0
147
0.09
 71
1.0
 72
0.0
 73
1
 74
1
 75
0
 76
0
 77
0
 78
4
 79
1
170
1
171
2
172
0
173
0
174
0
175
0
176
0
177
0
178
0
270
2
179
3
271
3
272
3
273
2
274
2
275
0
280
0
281
0
282
0
283
1
284
4
285
0
286
0
287
3
288
0
340
11
278
46
341
204
342
204
343
204
344
204
  0
ENDTAB
  0
ENDSEC
  0
SECTION
  2
BLOCKS
  0
BLOCK
  5
20
100
AcDbEntity
  8
0
100
AcDbBlockBegin
  2
*Model_Space
 70
0
 10
0.0
 20
0.0
 30
0.0
  3
*Model_Space
  1

  0
ENDBLK
  5
21
100
AcDbEntity
  8
0
100
AcDbBlockEnd
  0
BLOCK
  5
1C
100
AcDbEntity
  8
0
100
AcDbBlockBegin
  2
*Paper_Space
 70
0
 10
0.0
 20
0.0
 30
0.0
  3
*Paper_Space
  1

  0
ENDBLK
  5
1D
100
AcDbEntity
  8
0
100
AcDbBlockEnd
  0
BLOCK
  5
206
100
AcDbEntity
  8
0
100
AcDbBlockBegin
  2
_FILLED
 70
64
 10
0.0
 20
0.0
  3
_FILLED
  1

  0
SOLID
  5
207
100
AcDbEntity
  8
0
  6
BYBLOCK
 62
0
100
AcDbTrace
 10
0.0
 20
0.0
 11
-1.0
 21
0.2
 12
-1.0
 22
-0.2
 13
-1.0
 23
-0.2
  0
ENDBLK
  5
208
100
AcDbEntity
  8
0
  6
BYBLOCK
 62
0
100
AcDbBlockEnd
  0
ENDSEC
  0
SECTION
  2
ENTITIES
  0
LINE
  5
209
100
AcDbEntity
  8
0
100
AcDbLine
 62
9
  6
CONTINUOUS
 10
5.8346982967
 20
9.7319266323
 11
5.8346982967
 21
10.3616376876
  0
LINE
  5
20A
100
AcDbEntity
  8
0
100
AcDbLine
 62
7
  6
CONTINUOUS
 10
5.8946056786
 20
10.3592821599
 11
5.8946056786
 21
9.7342821599
  0
LINE
  5
20B
100
AcDbEntity
  8
0
100
AcDbLine
 62
7
  6
CONTINUOUS
 10
6.5691377086
 20
10.2435490141
 11
6.7514263253
 21
10.5592821599
  0
LINE
  5
20C
100
AcDbEntity
  8
0
100
AcDbLine
 62
7
  6
CONTINUOUS
 10
6.8528055017
 20
9.5858332299
 11
6.7623183383
 21
8.8940695002
  0
LINE
  5
20D
100
AcDbEntity
  8
0
100
AcDbLine
 62
7
  6
CONTINUOUS
 10
7.2418311749
 20
10.50773109
 11
7.3323183383
 21
11.1994948196
  0
LINE
  5
20E
100
AcDbEntity
  8
0
100
AcDbLine
 62
7
  6
CONTINUOUS
 10
7.525498968
 20
9.8500153057
 11
7.3432103512
 21
9.5342821599
  0
LWPOLYLINE
  5
20F
100
AcDbEntity
  8
0
100
AcDbPolyline
 62
7
  6
CONTINUOUS
 90
10
 70
0
 10
11.0473183412
 20
3.6675411513
 10
11.1910666815
 20
3.6769990954
 10
11.3348379628
 20
3.7063941875
 10
11.4631411037
 20
3.7523827165
 10
11.5751476574
 20
3.8126229474
 10
11.6696294351
 20
3.885337999
 10
11.7446684278
 20
3.9685742936
 10
11.798174127
 20
4.0596852956
 10
11.8286880165
 20
4.1550269762
 10
11.8365559845
 20
4.2366588366
  0
LINE
  5
210
100
AcDbEntity
  8
0
100
AcDbLine
 62
7
  6
CONTINUOUS
 10
6.8528042781
 20
10.5077404441
 11
6.7623183383
 21
11.1994948196
  0
LINE
  5
211
100
AcDbEntity
  8
0
100
AcDbLine
 62
7
  6
CONTINUOUS
 10
7.2418323984
 20
9.5858238758
 11
7.3323183383
 21
8.8940695002
  0
LINE
  5
212
100
AcDbEntity
  8
0
100
AcDbLine
 62
7
  6
CONTINUOUS
 10
10.7514196969
 20
10.6606927756
 11
10.7578390076
 21
10.6637456654
  0
LINE
  5
213
100
AcDbEntity
  8
0
100
AcDbLine
 62
7
  6
CONTINUOUS
 10
10.7940042469
 20
10.6794544456
 11
10.8006169293
 21
10.6820621492
  0
LINE
  5
214
100
AcDbEntity
  8
0
100
AcDbLine
 62
7
  6
CONTINUOUS
 10
10.8377698641
 20
10.6952663055
 11
10.8445450869
 21
10.6974166645
  0
LINE
  5
215
100
AcDbEntity
  8
0
100
AcDbLine
 62
7
  6
CONTINUOUS
 10
8.200030998
 20
10.3592780683
 11
8.200030998
 21
9.7342862516
  0
LINE
  5
216
100
AcDbEntity
  8
0
100
AcDbLine
 62
9
  6
CONTINUOUS
 10
8.2599383798
 20
9.7319266323
 11
8.2599383798
 21
10.3616376876
  0
LINE
  5
217
100
AcDbEntity
  8
0
100
AcDbLine
 62
7
  6
CONTINUOUS
 10
10.5967613193
 20
10.5580948066
 11
10.6021189247
 21
10.5627663963
  0
LINE
  5
218
100
AcDbEntity
  8
0
100
AcDbLine
 62
7
  6
CONTINUOUS
 10
10.6327048807
 20
10.5876499171
 11
10.6383687969
 21
10.5919450004
  0
LINE
  5
219
100
AcDbEntity
  8
0
100
AcDbLine
 62
7
  6
CONTINUOUS
 10
10.6705815614
 20
10.6146832525
 11
10.6765253805
 21
10.6185818036
  0
LINE
  5
21A
100
AcDbEntity
  8
0
100
AcDbLine
 62
7
  6
CONTINUOUS
 10
11.2052180069
 20
10.7097376195
 11
11.1819044909
 21
10.6944462839
  0
LINE
  5
21B
100
AcDbEntity
  8
0
100
AcDbLine
 62
7
  6
CONTINUOUS
 10
10.3763406993
 20
10.1660769776
 11
10.3996542143
 21
10.1813683126
  0
LINE
  5
21C
100
AcDbEntity
  8
0
100
AcDbLine
 62
7
  6
CONTINUOUS
 10
10.7102147629
 20
10.6390687708
 11
10.7164107722
 21
10.6425526129
  0
LINE
  5
21D
100
AcDbEntity
  8
0
100
AcDbLine
 62
7
  6
CONTINUOUS
 10
11.2500915868
 20
10.6974166628
 11
11.2257889024
 21
10.6837519455
  0
LINE
  5
21E
100
AcDbEntity
  8
0
100
AcDbLine
 62
7
  6
CONTINUOUS
 10
10.3860458693
 20
10.2115880073
 11
10.4103485527
 21
10.2252527241
  0
LINE
  5
21F
100
AcDbEntity
  8
0
100
AcDbLine
 62
7
  6
CONTINUOUS
 10
11.2940197443
 20
10.6820621478
 11
11.2688412017
 21
10.6700877599
  0
LINE
  5
220
100
AcDbEntity
  8
0
100
AcDbLine
 62
7
  6
CONTINUOUS
 10
10.3988341968
 20
10.256330636
 11
10.4240127383
 21
10.2683050234
  0
LINE
  5
221
100
AcDbEntity
  8
0
100
AcDbLine
 62
7
  6
CONTINUOUS
 10
11.3367976659
 20
10.6637456642
 11
11.3108606592
 21
10.6535174359
  0
LINE
  5
222
100
AcDbEntity
  8
0
100
AcDbLine
 62
7
  6
CONTINUOUS
 10
10.4146460567
 20
10.300096253
 11
10.4405830623
 21
10.3103244809
  0
LINE
  5
223
100
AcDbEntity
  8
0
100
AcDbLine
 62
7
  6
CONTINUOUS
 10
11.3782259012
 20
10.6425526119
 11
11.3516513607
 21
10.6341182319
  0
LINE
  5
224
100
AcDbEntity
  8
0
100
AcDbLine
 62
7
  6
CONTINUOUS
 10
10.4334077269
 20
10.3426808027
 11
10.4599822663
 21
10.3511151824
  0
LINE
  5
225
100
AcDbEntity
  8
0
100
AcDbLine
 62
7
  6
CONTINUOUS
 10
6.7514263253
 20
9.5342821599
 11
6.5691377086
 21
9.8500153057
  0
LINE
  5
226
100
AcDbEntity
  8
0
100
AcDbLine
 62
7
  6
CONTINUOUS
 10
10.5021554979
 20
10.4557317014
 11
10.5064505811
 21
10.4613956175
  0
LINE
  5
227
100
AcDbEntity
  8
0
100
AcDbLine
 62
7
  6
CONTINUOUS
 10
10.5313341019
 20
10.4919815735
 11
10.5360056916
 21
10.4973391789
  0
LINE
  5
228
100
AcDbEntity
  8
0
100
AcDbLine
 62
7
  6
CONTINUOUS
 10
11.0204994164
 20
10.7277542534
 11
11.0021759818
 21
10.7067400508
  0
LINE
  5
229
100
AcDbEntity
  8
0
100
AcDbLine
 62
7
  6
CONTINUOUS
 10
10.3690370136
 20
9.9806256016
 11
10.3873604475
 21
10.0016398035
  0
LINE
  5
22A
100
AcDbEntity
  8
0
100
AcDbLine
 62
7
  6
CONTINUOUS
 10
10.5629184627
 20
10.5261557204
 11
10.5679447778
 21
10.5311820355
  0
LINE
  5
22B
100
AcDbEntity
  8
0
100
AcDbLine
 62
7
  6
CONTINUOUS
 10
11.0670331191
 20
10.7279969408
 11
11.0473183383
 21
10.7082821599
  0
LINE
  5
22C
100
AcDbEntity
  8
0
100
AcDbLine
 62
7
  6
CONTINUOUS
 10
10.3661035611
 20
10.0270673827
 11
10.3858183383
 21
10.0467821599
  0
LINE
  5
22D
100
AcDbEntity
  8
0
100
AcDbLine
 62
7
  6
CONTINUOUS
 10
11.1134748974
 20
10.7250634853
 11
11.0924606947
 21
10.7067400508
  0
LINE
  5
22E
100
AcDbEntity
  8
0
100
AcDbLine
 62
7
  6
CONTINUOUS
 10
10.3663462456
 20
10.0736010825
 11
10.3873604475
 21
10.0919245164
  0
LINE
  5
22F
100
AcDbEntity
  8
0
100
AcDbLine
 62
7
  6
CONTINUOUS
 10
11.1596082258
 20
10.7189675718
 11
11.1373925767
 21
10.7021209132
  0
LINE
  5
230
100
AcDbEntity
  8
0
100
AcDbLine
 62
7
  6
CONTINUOUS
 10
10.3697639367
 20
10.1200097405
 11
10.391979585
 21
10.1368563983
  0
LINE
  5
231
100
AcDbEntity
  8
0
100
AcDbLine
 62
7
  6
CONTINUOUS
 10
10.4303548328
 20
10.3362614906
 11
10.4334077226
 21
10.3426808014
  0
LINE
  5
232
100
AcDbEntity
  8
0
100
AcDbLine
 62
7
  6
CONTINUOUS
 10
10.4515478853
 20
10.3776897261
 11
10.4550317274
 21
10.3838857353
  0
LINE
  5
233
100
AcDbEntity
  8
0
100
AcDbLine
 62
7
  6
CONTINUOUS
 10
10.8825124915
 20
10.7080546299
 11
10.8688477742
 21
10.6837519455
  0
LINE
  5
234
100
AcDbEntity
  8
0
100
AcDbLine
 62
7
  6
CONTINUOUS
 10
10.3966838359
 20
9.8440089124
 11
10.4103485527
 21
9.8683115958
  0
LINE
  5
235
100
AcDbEntity
  8
0
100
AcDbLine
 62
7
  6
CONTINUOUS
 10
10.4755186946
 20
10.4175751177
 11
10.4794172457
 21
10.4235189368
  0
LINE
  5
236
100
AcDbEntity
  8
0
100
AcDbLine
 62
7
  6
CONTINUOUS
 10
10.9280235212
 20
10.7177597999
 11
10.9127321856
 21
10.6944462839
  0
LINE
  5
237
100
AcDbEntity
  8
0
100
AcDbLine
 62
7
  6
CONTINUOUS
 10
10.3843628793
 20
9.8888824923
 11
10.3996542143
 21
9.9121960073
  0
LINE
  5
238
100
AcDbEntity
  8
0
100
AcDbLine
 62
7
  6
CONTINUOUS
 10
10.9740907584
 20
10.7243365624
 11
10.9572440999
 21
10.7021209132
  0
LINE
  5
239
100
AcDbEntity
  8
0
100
AcDbLine
 62
7
  6
CONTINUOUS
 10
10.3751329271
 20
9.9344922733
 11
10.391979585
 21
9.9567079216
  0
LINE
  5
23A
100
AcDbEntity
  8
0
100
AcDbLine
 62
7
  6
CONTINUOUS
 10
11.7182959773
 20
9.9274873422
 11
11.6949824623
 21
9.9121960073
  0
LINE
  5
23B
100
AcDbEntity
  8
0
100
AcDbLine
 62
7
  6
CONTINUOUS
 10
10.8894186697
 20
9.3838267004
 11
10.9127321856
 21
9.3991180359
  0
LINE
  5
23C
100
AcDbEntity
  8
0
100
AcDbLine
 62
7
  6
CONTINUOUS
 10
11.7085908073
 20
9.8819763126
 11
11.6842881239
 21
9.8683115958
  0
LINE
  5
23D
100
AcDbEntity
  8
0
100
AcDbLine
 62
7
  6
CONTINUOUS
 10
10.8445450898
 20
9.396147657
 11
10.8688477742
 21
9.4098123744
  0
LINE
  5
23E
100
AcDbEntity
  8
0
100
AcDbLine
 62
7
  6
CONTINUOUS
 10
11.6958024798
 20
9.8372336839
 11
11.6706239383
 21
9.8252592965
  0
LINE
  5
23F
100
AcDbEntity
  8
0
100
AcDbLine
 62
7
  6
CONTINUOUS
 10
10.8006169323
 20
9.4115021721
 11
10.8257954748
 21
9.42347656
  0
LINE
  5
240
100
AcDbEntity
  8
0
100
AcDbLine
 62
7
  6
CONTINUOUS
 10
11.6799906199
 20
9.7934680669
 11
11.6540536142
 21
9.783239839
  0
LINE
  5
241
100
AcDbEntity
  8
0
100
AcDbLine
 62
7
  6
CONTINUOUS
 10
10.7578390107
 20
9.4298186557
 11
10.7837760173
 21
9.440046884
  0
LINE
  5
242
100
AcDbEntity
  8
0
100
AcDbLine
 62
7
  6
CONTINUOUS
 10
11.3006324297
 20
9.4141098742
 11
11.2940197473
 21
9.4115021706
  0
LINE
  5
243
100
AcDbEntity
  8
0
100
AcDbLine
 62
7
  6
CONTINUOUS
 10
11.6612289497
 20
9.7508835172
 11
11.6346544103
 21
9.7424491375
  0
LINE
  5
244
100
AcDbEntity
  8
0
100
AcDbLine
 62
7
  6
CONTINUOUS
 10
10.7164107753
 20
9.4510117079
 11
10.7429853158
 21
9.459446088
  0
LINE
  5
245
100
AcDbEntity
  8
0
100
AcDbLine
 62
7
  6
CONTINUOUS
 10
11.2568668124
 20
9.3982980144
 11
11.2500915897
 21
9.3961476554
  0
LINE
  5
246
100
AcDbEntity
  8
0
100
AcDbLine
 62
7
  6
CONTINUOUS
 10
7.3432103512
 20
10.5592821599
 11
7.525498968
 21
10.2435490141
  0
LINE
  5
247
100
AcDbEntity
  8
0
100
AcDbLine
 62
7
  6
CONTINUOUS
 10
10.3843628769
 20
10.2046818313
 11
10.3860458654
 21
10.2115880051
  0
LINE
  5
248
100
AcDbEntity
  8
0
100
AcDbLine
 62
7
  6
CONTINUOUS
 10
10.3966838337
 20
10.2495554114
 11
10.3988341928
 21
10.2563306341
  0
LINE
  5
249
100
AcDbEntity
  8
0
100
AcDbLine
 62
7
  6
CONTINUOUS
 10
10.7514196958
 20
10.6606927724
 11
10.7429853158
 21
10.6341182319
  0
LINE
  5
24A
100
AcDbEntity
  8
0
100
AcDbLine
 62
7
  6
CONTINUOUS
 10
10.4515478866
 20
9.715874598
 11
10.4599822663
 21
9.7424491375
  0
LINE
  5
24B
100
AcDbEntity
  8
0
100
AcDbLine
 62
7
  6
CONTINUOUS
 10
10.412038349
 20
10.2934835689
 11
10.4146460526
 21
10.3000962513
  0
LINE
  5
24C
100
AcDbEntity
  8
0
100
AcDbLine
 62
7
  6
CONTINUOUS
 10
10.7940042457
 20
10.6794544425
 11
10.7837760173
 21
10.6535174359
  0
LINE
  5
24D
100
AcDbEntity
  8
0
100
AcDbLine
 62
7
  6
CONTINUOUS
 10
10.4303548344
 20
9.7573028334
 11
10.4405830623
 21
9.783239839
  0
LINE
  5
24E
100
AcDbEntity
  8
0
100
AcDbLine
 62
7
  6
CONTINUOUS
 10
10.8377698627
 20
10.6952663024
 11
10.8257954748
 21
10.6700877599
  0
LINE
  5
24F
100
AcDbEntity
  8
0
100
AcDbLine
 62
7
  6
CONTINUOUS
 10
10.4120383509
 20
9.800080755
 11
10.4240127383
 21
9.8252592965
  0
LINE
  5
250
100
AcDbEntity
  8
0
100
AcDbLine
 62
7
  6
CONTINUOUS
 10
11.7285331155
 20
10.0664969372
 11
11.7088183383
 21
10.0467821599
  0
LINE
  5
251
100
AcDbEntity
  8
0
100
AcDbLine
 62
7
  6
CONTINUOUS
 10
11.0276035574
 20
9.3655673791
 11
11.0473183383
 21
9.3852821599
  0
LINE
  5
252
100
AcDbEntity
  8
0
100
AcDbLine
 62
7
  6
CONTINUOUS
 10
11.7282904309
 20
10.0199632373
 11
11.7072762291
 21
10.0016398035
  0
LINE
  5
253
100
AcDbEntity
  8
0
100
AcDbLine
 62
7
  6
CONTINUOUS
 10
10.9811617792
 20
9.3685008345
 11
11.0021759818
 21
9.3868242691
  0
LINE
  5
254
100
AcDbEntity
  8
0
100
AcDbLine
 62
7
  6
CONTINUOUS
 10
11.4978753573
 20
9.5354695133
 11
11.4925177518
 21
9.5307979236
  0
LINE
  5
255
100
AcDbEntity
  8
0
100
AcDbLine
 62
7
  6
CONTINUOUS
 10
11.7248727398
 20
9.9735545794
 11
11.7026570916
 21
9.9567079216
  0
LINE
  5
256
100
AcDbEntity
  8
0
100
AcDbLine
 62
7
  6
CONTINUOUS
 10
10.9350284508
 20
9.3745967481
 11
10.9572440999
 21
9.3914434066
  0
LINE
  5
257
100
AcDbEntity
  8
0
100
AcDbLine
 62
7
  6
CONTINUOUS
 10
11.4619317959
 20
9.5059144027
 11
11.4562678797
 21
9.5016193195
  0
LINE
  5
258
100
AcDbEntity
  8
0
100
AcDbLine
 62
7
  6
CONTINUOUS
 10
11.4240551152
 20
9.4788810674
 11
11.418111296
 21
9.4749825163
  0
LINE
  5
259
100
AcDbEntity
  8
0
100
AcDbLine
 62
7
  6
CONTINUOUS
 10
11.3844219137
 20
9.454495549
 11
11.3782259044
 21
9.4510117069
  0
LINE
  5
25A
100
AcDbEntity
  8
0
100
AcDbLine
 62
7
  6
CONTINUOUS
 10
11.3432169797
 20
9.4328715443
 11
11.336797669
 21
9.4298186544
  0
LWPOLYLINE
  5
25B
100
AcDbEntity
  8
0
100
AcDbPolyline
 62
7
  6
CONTINUOUS
 90
10
 70
0
 10
10.2580806919
 20
4.2366587711
 10
10.2657157965
 20
4.1562206782
 10
10.2959675688
 20
4.0607921878
 10
10.3492511217
 20
3.969550079
 10
10.4241167907
 20
3.8861591315
 10
10.5184730625
 20
3.8132791534
 10
10.6303922056
 20
3.7528731193
 10
10.7586375133
 20
3.7067201055
 10
10.9023770787
 20
3.677158045
 10
11.0473183412
 20
3.6675411513
  0
LINE
  5
25C
100
AcDbEntity
  8
0
100
AcDbLine
 62
7
  6
CONTINUOUS
 10
10.3690370107
 20
10.1129387216
 11
10.3697639332
 21
10.1200097378
  0
LINE
  5
25D
100
AcDbEntity
  8
0
100
AcDbLine
 62
7
  6
CONTINUOUS
 10
10.3751329245
 20
10.1590720501
 11
10.3763406955
 21
10.1660769752
  0
LINE
  5
25E
100
AcDbEntity
  8
0
100
AcDbLine
 62
7
  6
CONTINUOUS
 10
10.6705815608
 20
10.6146832492
 11
10.6658443052
 21
10.5872077442
  0
LINE
  5
25F
100
AcDbEntity
  8
0
100
AcDbLine
 62
7
  6
CONTINUOUS
 10
10.5021554986
 20
9.6378326229
 11
10.5068927541
 21
9.6653081269
  0
LINE
  5
260
100
AcDbEntity
  8
0
100
AcDbLine
 62
7
  6
CONTINUOUS
 10
10.7102147629
 20
10.6390687708
 11
10.7036135553
 21
10.611980596
  0
LINE
  5
261
100
AcDbEntity
  8
0
100
AcDbLine
 62
7
  6
CONTINUOUS
 10
10.4755186957
 20
9.6759892065
 11
10.4821199022
 21
9.703077377
  0
LINE
  5
262
100
AcDbEntity
  8
0
100
AcDbLine
 62
7
  6
CONTINUOUS
 10
11.7102737972
 20
10.2046818276
 11
11.6949824623
 21
10.1813683126
  0
LINE
  5
263
100
AcDbEntity
  8
0
100
AcDbLine
 62
7
  6
CONTINUOUS
 10
11.1666131554
 20
9.37580452
 11
11.1819044909
 21
9.3991180359
  0
LINE
  5
264
100
AcDbEntity
  8
0
100
AcDbLine
 62
7
  6
CONTINUOUS
 10
11.7195037494
 20
10.1590720465
 11
11.7026570916
 21
10.1368563983
  0
LINE
  5
265
100
AcDbEntity
  8
0
100
AcDbLine
 62
7
  6
CONTINUOUS
 10
11.1205459181
 20
9.3692277575
 11
11.1373925767
 21
9.3914434066
  0
LINE
  5
266
100
AcDbEntity
  8
0
100
AcDbLine
 62
7
  6
CONTINUOUS
 10
11.5924811787
 20
9.6378326185
 11
11.5881860955
 21
9.6321687023
  0
LINE
  5
267
100
AcDbEntity
  8
0
100
AcDbLine
 62
7
  6
CONTINUOUS
 10
11.725599663
 20
10.1129387182
 11
11.7072762291
 21
10.0919245164
  0
LINE
  5
268
100
AcDbEntity
  8
0
100
AcDbLine
 62
7
  6
CONTINUOUS
 10
11.0741372601
 20
9.3658100664
 11
11.0924606947
 21
9.3868242691
  0
LINE
  5
269
100
AcDbEntity
  8
0
100
AcDbLine
 62
7
  6
CONTINUOUS
 10
11.5633025746
 20
9.6015827464
 11
11.5586309849
 21
9.5962251409
  0
LINE
  5
26A
100
AcDbEntity
  8
0
100
AcDbLine
 62
7
  6
CONTINUOUS
 10
11.5317182139
 20
9.5674085994
 11
11.5266918988
 21
9.5623822843
  0
LINE
  5
26B
100
AcDbEntity
  8
0
100
AcDbLine
 62
7
  6
CONTINUOUS
 10
11.7994878586
 20
4.4086951309
 11
11.7771107328
 21
4.447787747
  0
LINE
  5
26C
100
AcDbEntity
  8
0
100
AcDbLine
 62
7
  6
CONTINUOUS
 10
10.3697639332
 20
9.9735545821
 11
10.3690370107
 21
9.9806255983
  0
LINE
  5
26D
100
AcDbEntity
  8
0
100
AcDbLine
 62
7
  6
CONTINUOUS
 10
10.3663462423
 20
10.0199632403
 11
10.3661035576
 21
10.0270673792
  0
LINE
  5
26E
100
AcDbEntity
  8
0
100
AcDbLine
 62
7
  6
CONTINUOUS
 10
10.5629184628
 20
10.5261557171
 11
10.5638703479
 21
10.4982910642
  0
LINE
  5
26F
100
AcDbEntity
  8
0
100
AcDbLine
 62
7
  6
CONTINUOUS
 10
10.5967613191
 20
9.5354695177
 11
10.595809434
 21
9.5633341696
  0
LWPOLYLINE
  5
270
100
AcDbEntity
  8
0
100
AcDbPolyline
 62
7
  6
CONTINUOUS
 90
4
 70
0
 10
10.5558183383
 20
7.9193668134
 10
10.5508406974
 20
7.4272233325
 10
10.5357061578
 20
6.9304705233
 10
10.5118170095
 20
6.4544352729
  0
LINE
  5
271
100
AcDbEntity
  8
0
100
AcDbLine
 62
7
  6
CONTINUOUS
 10
10.3661035576
 20
10.0664969406
 11
10.3663462423
 21
10.0736010796
  0
LINE
  5
272
100
AcDbEntity
  8
0
100
AcDbLine
 62
7
  6
CONTINUOUS
 10
10.5967613192
 20
10.5580948032
 11
10.595809434
 21
10.5302301503
  0
LINE
  5
273
100
AcDbEntity
  8
0
100
AcDbLine
 62
7
  6
CONTINUOUS
 10
10.5629184628
 20
9.5674086039
 11
10.5638703479
 21
9.5952732557
  0
LINE
  5
274
100
AcDbEntity
  8
0
100
AcDbLine
 62
9
  6
CONTINUOUS
 10
10.4227450754
 20
5.286702155
 11
10.4228704382
 21
5.2893460719
  0
LINE
  5
275
100
AcDbEntity
  8
0
100
AcDbLine
 62
7
  6
CONTINUOUS
 10
10.5118176858
 20
6.4544466459
 11
10.5118170095
 21
6.4544352729
  0
LWPOLYLINE
  5
276
100
AcDbEntity
  8
0
100
AcDbPolyline
 62
7
  6
CONTINUOUS
 90
3
 70
0
 10
10.5118176858
 20
6.4544466463
 10
10.4915731127
 20
6.1380996863
 10
10.4671284452
 20
5.8034151059
  0
LINE
  5
277
100
AcDbEntity
  8
0
100
AcDbLine
 62
7
  6
CONTINUOUS
 10
10.4619469625
 20
5.7376874339
 11
10.4671284452
 21
5.8034151059
  0
LWPOLYLINE
  5
278
100
AcDbEntity
  8
0
100
AcDbPolyline
 62
7
  6
CONTINUOUS
 90
3
 70
0
 10
10.4619469625
 20
5.7376874339
 10
10.4534943596
 20
5.6338802641
 10
10.4379901176
 20
5.4536166042
  0
LINE
  5
279
100
AcDbEntity
  8
0
100
AcDbLine
 62
7
  6
CONTINUOUS
 10
10.4379901176
 20
5.4536166042
 11
10.4226187436
 21
5.2867142367
  0
LWPOLYLINE
  5
27A
100
AcDbEntity
  8
0
100
AcDbPolyline
 62
7
  6
CONTINUOUS
 90
15
 70
0
 10
10.4226187436
 20
5.2867142367
 10
10.4150330826
 20
5.2073950589
 10
10.4054487385
 20
5.1090344444
 10
10.3959326973
 20
5.0144092892
 10
10.3864952102
 20
4.9244696658
 10
10.3771506868
 20
4.8400097577
 10
10.3679253269
 20
4.7617531635
 10
10.3588570708
 20
4.6903301698
 10
10.3499980634
 20
4.6262675765
 10
10.3414300405
 20
4.5700797334
 10
10.3332902213
 20
4.5223123633
 10
10.3258252057
 20
4.4837130181
 10
10.3194638734
 20
4.4552155916
 10
10.3150501101
 20
4.4383615344
 10
10.3139317557
 20
4.4346472273
  0
LINE
  5
27B
100
AcDbEntity
  8
0
100
AcDbLine
 62
7
  6
CONTINUOUS
 10
10.6327048803
 20
10.5876499138
 11
10.6298536631
 21
10.5599151787
  0
LINE
  5
27C
100
AcDbEntity
  8
0
100
AcDbLine
 62
7
  6
CONTINUOUS
 10
10.5313341024
 20
9.6015827508
 11
10.5341853195
 21
9.6293174848
  0
LINE
  5
27D
100
AcDbEntity
  8
0
100
AcDbLine
 62
7
  6
CONTINUOUS
 10
11.6642818421
 20
10.3362614865
 11
11.6540536142
 21
10.3103244809
  0
LINE
  5
27E
100
AcDbEntity
  8
0
100
AcDbLine
 62
7
  6
CONTINUOUS
 10
11.3006324309
 20
9.4141098773
 11
11.3108606592
 21
9.440046884
  0
LINE
  5
27F
100
AcDbEntity
  8
0
100
AcDbLine
 62
7
  6
CONTINUOUS
 10
11.6825983257
 20
10.2934835649
 11
11.6706239383
 21
10.2683050234
  0
LINE
  5
280
100
AcDbEntity
  8
0
100
AcDbLine
 62
7
  6
CONTINUOUS
 10
11.2568668138
 20
9.3982980174
 11
11.2688412017
 21
9.42347656
  0
LINE
  5
281
100
AcDbEntity
  8
0
100
AcDbLine
 62
7
  6
CONTINUOUS
 10
11.6642818438
 20
9.7573028292
 11
11.6612289539
 21
9.7508835185
  0
LINE
  5
282
100
AcDbEntity
  8
0
100
AcDbLine
 62
7
  6
CONTINUOUS
 10
11.6979528407
 20
10.2495554075
 11
11.6842881239
 21
10.2252527241
  0
LINE
  5
283
100
AcDbEntity
  8
0
100
AcDbLine
 62
7
  6
CONTINUOUS
 10
11.2121241851
 20
9.3855096899
 11
11.2257889024
 21
9.4098123744
  0
LINE
  5
284
100
AcDbEntity
  8
0
100
AcDbLine
 62
7
  6
CONTINUOUS
 10
11.6430887913
 20
9.7158745938
 11
11.6396049492
 21
9.7096785845
  0
LINE
  5
285
100
AcDbEntity
  8
0
100
AcDbLine
 62
7
  6
CONTINUOUS
 10
11.6191179819
 20
9.6759892022
 11
11.6152194309
 21
9.670045383
  0
LINE
  5
286
100
AcDbEntity
  8
0
100
AcDbLine
 62
7
  6
CONTINUOUS
 10
11.7223309397
 20
9.5059572851
 11
11.7222045869
 21
9.5057996426
  0
LINE
  5
287
100
AcDbEntity
  8
0
100
AcDbLine
 62
7
  6
CONTINUOUS
 10
10.5313341023
 20
10.4919815702
 11
10.5341853195
 21
10.4642468351
  0
LINE
  5
288
100
AcDbEntity
  8
0
100
AcDbLine
 62
7
  6
CONTINUOUS
 10
10.6327048802
 20
9.5059144072
 11
10.6298536631
 21
9.5336491411
  0
LINE
  5
289
100
AcDbEntity
  8
0
100
AcDbLine
 62
9
  6
CONTINUOUS
 10
11.0473183412
 20
3.6675411513
 11
11.0473183383
 21
8.0656499094
  0
LINE
  5
28A
100
AcDbEntity
  8
0
100
AcDbLine
 62
7
  6
CONTINUOUS
 10
11.5924811779
 20
10.455731697
 11
11.5877439225
 21
10.428256193
  0
LINE
  5
28B
100
AcDbEntity
  8
0
100
AcDbLine
 62
7
  6
CONTINUOUS
 10
11.4240551157
 20
9.4788810706
 11
11.4287923714
 21
9.5063565757
  0
LINE
  5
28C
100
AcDbEntity
  8
0
100
AcDbLine
 62
7
  6
CONTINUOUS
 10
11.6191179809
 20
10.4175751134
 11
11.6125167744
 21
10.3904869429
  0
LINE
  5
28D
100
AcDbEntity
  8
0
100
AcDbLine
 62
7
  6
CONTINUOUS
 10
11.3844219137
 20
9.454495549
 11
11.3910231212
 21
9.4815837238
  0
LINE
  5
28E
100
AcDbEntity
  8
0
100
AcDbLine
 62
7
  6
CONTINUOUS
 10
11.6430887899
 20
10.3776897218
 11
11.6346544103
 21
10.3511151824
  0
LINE
  5
28F
100
AcDbEntity
  8
0
100
AcDbLine
 62
7
  6
CONTINUOUS
 10
11.3432169807
 20
9.4328715475
 11
11.3516513607
 21
9.459446088
  0
LINE
  5
290
100
AcDbEntity
  8
0
100
AcDbLine
 62
7
  6
CONTINUOUS
 10
11.6979528428
 20
9.8440089085
 11
11.6958024838
 21
9.8372336858
  0
LINE
  5
291
100
AcDbEntity
  8
0
100
AcDbLine
 62
7
  6
CONTINUOUS
 10
11.6825983276
 20
9.8000807509
 11
11.679990624
 21
9.7934680685
  0
LINE
  5
292
100
AcDbEntity
  8
0
100
AcDbLine
 62
7
  6
CONTINUOUS
 10
11.7339396325
 20
9.5016101834
 11
11.7419564156
 21
9.5218833986
  0
LWPOLYLINE
  5
293
100
AcDbEntity
  8
0
100
AcDbPolyline
 62
7
  6
CONTINUOUS
 90
6
 70
0
 10
11.7419564156
 20
9.5218833986
 10
11.7486400651
 20
9.5378505109
 10
11.7532988739
 20
9.5483659635
 10
11.7560695945
 20
9.5542922686
 10
11.7573579753
 20
9.5569149822
 10
11.7574828275
 20
9.5571606779
  0
LINE
  5
294
100
AcDbEntity
  8
0
100
AcDbLine
 62
9
  6
CONTINUOUS
 10
11.8365559799
 20
4.2366605134
 11
11.8362951239
 21
4.2373745109
  0
LWPOLYLINE
  5
295
100
AcDbEntity
  8
0
100
AcDbPolyline
 62
7
  6
CONTINUOUS
 90
13
 70
0
 10
11.7804953969
 20
4.4351692436
 10
11.7808869183
 20
4.4340839271
 10
11.7781325376
 20
4.4435879432
 10
11.772244503
 20
4.4677888386
 10
11.7644492349
 20
4.5056353745
 10
11.7554401056
 20
4.5564119837
 10
11.7456487869
 20
4.6193405257
 10
11.7353472274
 20
4.6936048502
 10
11.7247093977
 20
4.7782732126
 10
11.7138593135
 20
4.8722025121
 10
11.7028960773
 20
4.973929466
 10
11.691890494
 20
5.0818101236
 10
11.6808963841
 20
5.1939865094
  0
LINE
  5
296
100
AcDbEntity
  8
0
100
AcDbLine
 62
7
  6
CONTINUOUS
 10
11.8287947345
 20
4.3155333294
 11
11.7994878586
 21
4.4086951309
  0
LINE
  5
297
100
AcDbEntity
  8
0
100
AcDbLine
 62
7
  6
CONTINUOUS
 10
10.3860458654
 20
9.8819763148
 11
10.3843628769
 21
9.8888824886
  0
LINE
  5
298
100
AcDbEntity
  8
0
100
AcDbLine
 62
7
  6
CONTINUOUS
 10
10.3763406955
 20
9.9274873447
 11
10.3751329245
 21
9.9344922698
  0
LINE
  5
299
100
AcDbEntity
  8
0
100
AcDbLine
 62
7
  6
CONTINUOUS
 10
10.5021554984
 20
10.4557316981
 11
10.5068927541
 21
10.428256193
  0
LINE
  5
29A
100
AcDbEntity
  8
0
100
AcDbLine
 62
7
  6
CONTINUOUS
 10
10.6705815606
 20
9.4788810717
 11
10.6658443052
 21
9.5063565757
  0
LINE
  5
29B
100
AcDbEntity
  8
0
100
AcDbLine
 62
7
  6
CONTINUOUS
 10
11.8365559799
 20
4.2366605134
 11
11.8287947345
 21
4.3155333294
  0
LINE
  5
29C
100
AcDbEntity
  8
0
100
AcDbLine
 62
7
  6
CONTINUOUS
 10
11.6808963841
 20
5.1939865094
 11
11.6717662525
 21
5.2893459236
  0
LWPOLYLINE
  5
29D
100
AcDbEntity
  8
0
100
AcDbPolyline
 62
7
  6
CONTINUOUS
 90
3
 70
0
 10
11.6717662266
 20
5.2893461961
 10
11.6564268427
 20
5.4560848226
 10
11.6407335829
 20
5.638806323
  0
LINE
  5
29E
100
AcDbEntity
  8
0
100
AcDbLine
 62
7
  6
CONTINUOUS
 10
11.6407335829
 20
5.638806323
 11
11.6326193214
 21
5.7385694266
  0
LWPOLYLINE
  5
29F
100
AcDbEntity
  8
0
100
AcDbPolyline
 62
7
  6
CONTINUOUS
 90
4
 70
0
 10
11.6326193214
 20
5.7385694266
 10
11.6264881932
 20
5.8165506825
 10
11.6026175954
 20
6.1446335229
 10
11.5828189932
 20
6.454446605
  0
LINE
  5
2A0
100
AcDbEntity
  8
0
100
AcDbLine
 62
7
  6
CONTINUOUS
 10
11.5828196671
 20
6.4544352729
 11
11.5828189932
 21
6.4544466046
  0
LWPOLYLINE
  5
2A1
100
AcDbEntity
  8
0
100
AcDbPolyline
 62
7
  6
CONTINUOUS
 90
4
 70
0
 10
11.5828196671
 20
6.4544352729
 10
11.5589305188
 20
6.9304705233
 10
11.5437959792
 20
7.4272233325
 10
11.5388183383
 20
7.9193668134
  0
LINE
  5
2A2
100
AcDbEntity
  8
0
100
AcDbLine
 62
7
  6
CONTINUOUS
 10
11.5317182137
 20
10.526155716
 11
11.5307663287
 21
10.4982910642
  0
LINE
  5
2A3
100
AcDbEntity
  8
0
100
AcDbLine
 62
7
  6
CONTINUOUS
 10
11.4978753574
 20
9.5354695166
 11
11.4988272425
 21
9.5633341696
  0
LINE
  5
2A4
100
AcDbEntity
  8
0
100
AcDbLine
 62
7
  6
CONTINUOUS
 10
11.5633025742
 20
10.4919815691
 11
11.5604513571
 21
10.4642468351
  0
LINE
  5
2A5
100
AcDbEntity
  8
0
100
AcDbLine
 62
7
  6
CONTINUOUS
 10
11.4619317962
 20
9.5059144061
 11
11.4647830135
 21
9.5336491411
  0
LINE
  5
2A6
100
AcDbEntity
  8
0
100
AcDbLine
 62
7
  6
CONTINUOUS
 10
11.7255996659
 20
9.9806255983
 11
11.7248727434
 21
9.9735545821
  0
LINE
  5
2A7
100
AcDbEntity
  8
0
100
AcDbLine
 62
7
  6
CONTINUOUS
 10
11.7195037521
 20
9.9344922698
 11
11.718295981
 21
9.9274873447
  0
LINE
  5
2A8
100
AcDbEntity
  8
0
100
AcDbLine
 62
7
  6
CONTINUOUS
 10
11.7102737997
 20
9.8888824886
 11
11.7085908112
 21
9.8819763148
  0
LWPOLYLINE
  5
2A9
100
AcDbEntity
  8
0
100
AcDbPolyline
 62
7
  6
CONTINUOUS
 90
3
 70
0
 10
10.2955348666
 20
4.4095718161
 10
10.2660534239
 20
4.3166108872
 10
10.2580806965
 20
4.2366604732
  0
LINE
  5
2AA
100
AcDbEntity
  8
0
100
AcDbLine
 62
9
  6
CONTINUOUS
 10
10.2580806971
 20
4.2366606402
 11
10.2583415527
 21
4.2373745126
  0
LWPOLYLINE
  5
2AB
100
AcDbEntity
  8
0
100
AcDbPolyline
 62
7
  6
CONTINUOUS
 90
8
 70
0
 10
10.3373409998
 20
9.5568342961
 10
10.3372646891
 20
9.5569776797
 10
10.3373615154
 20
9.5567859297
 10
10.3383299195
 20
9.5548339182
 10
10.340377238
 20
9.55052815
 10
10.3437891488
 20
9.5430157222
 10
10.3487913448
 20
9.531452535
 10
10.3553948092
 20
9.5153925587
  0
LINE
  5
2AC
100
AcDbEntity
  8
0
100
AcDbLine
 62
7
  6
CONTINUOUS
 10
10.4334077226
 20
9.7508835185
 11
10.4303548328
 21
9.7573028292
  0
LINE
  5
2AD
100
AcDbEntity
  8
0
100
AcDbLine
 62
7
  6
CONTINUOUS
 10
10.4146460526
 20
9.7934680685
 11
10.412038349
 21
9.8000807509
  0
LINE
  5
2AE
100
AcDbEntity
  8
0
100
AcDbLine
 62
7
  6
CONTINUOUS
 10
10.430354834
 20
10.3362614875
 11
10.4405830623
 21
10.3103244809
  0
LINE
  5
2AF
100
AcDbEntity
  8
0
100
AcDbLine
 62
7
  6
CONTINUOUS
 10
10.7940042453
 20
9.4141098784
 11
10.7837760173
 21
9.440046884
  0
LINE
  5
2B0
100
AcDbEntity
  8
0
100
AcDbLine
 62
7
  6
CONTINUOUS
 10
10.3553948092
 20
9.5153925587
 11
10.3632951975
 21
9.4951549393
  0
LWPOLYLINE
  5
2B1
100
AcDbEntity
  8
0
100
AcDbPolyline
 62
7
  6
CONTINUOUS
 90
48
 70
0
 10
10.3632951975
 20
9.4951549393
 10
10.3717186775
 20
9.4724430032
 10
10.3800118846
 20
9.4489628331
 10
10.3880025064
 20
9.4252673185
 10
10.395668754
 20
9.4014976417
 10
10.4030374441
 20
9.3776319634
 10
10.410166403
 20
9.3535195616
 10
10.4170960446
 20
9.3290348975
 10
10.4238206609
 20
9.3041984047
 10
10.4303454362
 20
9.278989284
 10
10.4366786178
 20
9.2533695306
 10
10.4428301464
 20
9.2272871284
 10
10.4488109506
 20
9.200677072
 10
10.4546325894
 20
9.173460999
 10
10.4603035306
 20
9.1455637294
 10
10.465811949
 20
9.1170071333
 10
10.4711485445
 20
9.0878105066
 10
10.476307179
 20
9.0579859111
 10
10.4812837208
 20
9.0275430455
 10
10.4860759156
 20
8.9964890886
 10
10.4906832672
 20
8.9648283487
 10
10.4951068861
 20
8.9325619906
 10
10.4993484047
 20
8.8996951134
 10
10.5034103438
 20
8.8662342131
 10
10.5072962172
 20
8.8321857068
 10
10.5110104154
 20
8.7975557932
 10
10.5145580759
 20
8.76235027
 10
10.5179449386
 20
8.7265743116
 10
10.5211771859
 20
8.6902322083
 10
10.5242612665
 20
8.6533270738
 10
10.527203702
 20
8.6158605297
 10
10.5300108725
 20
8.5778323827
 10
10.5326887783
 20
8.5392403192
 10
10.5352427715
 20
8.5000796569
 10
10.5376771621
 20
8.4603446812
 10
10.5399941584
 20
8.4200418824
 10
10.542194175
 20
8.3791814853
 10
10.5442757556
 20
8.3377718371
 10
10.5462350743
 20
8.2958193833
 10
10.548065373
 20
8.2533288963
 10
10.5497563362
 20
8.2103039783
 10
10.5512934112
 20
8.1667477432
 10
10.5526570992
 20
8.1226633808
 10
10.5538222523
 20
8.0780540033
 10
10.5547574094
 20
8.0329208435
 10
10.5554241693
 20
7.9872586957
 10
10.5557765129
 20
7.9410477222
 10
10.5558183383
 20
7.9193748696
  0
LINE
  5
2B2
100
AcDbEntity
  8
0
100
AcDbLine
 62
7
  6
CONTINUOUS
 10
10.3988341928
 20
9.8372336858
 11
10.3966838337
 21
9.8440089085
  0
LINE
  5
2B3
100
AcDbEntity
  8
0
100
AcDbLine
 62
7
  6
CONTINUOUS
 10
10.4515478863
 20
10.3776897229
 11
10.4599822663
 21
10.3511151824
  0
LINE
  5
2B4
100
AcDbEntity
  8
0
100
AcDbLine
 62
7
  6
CONTINUOUS
 10
10.7514196955
 20
9.4328715485
 11
10.7429853158
 21
9.459446088
  0
LINE
  5
2B5
100
AcDbEntity
  8
0
100
AcDbLine
 62
7
  6
CONTINUOUS
 10
10.4755186954
 20
10.4175751144
 11
10.4821199022
 21
10.3904869429
  0
LINE
  5
2B6
100
AcDbEntity
  8
0
100
AcDbLine
 62
7
  6
CONTINUOUS
 10
10.7102147629
 20
9.454495549
 11
10.7036135553
 21
9.4815837238
  0
LINE
  5
2B7
100
AcDbEntity
  8
0
100
AcDbLine
 62
7
  6
CONTINUOUS
 10
11.4619317964
 20
10.5876499127
 11
11.4647830135
 21
10.5599151787
  0
LINE
  5
2B8
100
AcDbEntity
  8
0
100
AcDbLine
 62
7
  6
CONTINUOUS
 10
11.5633025743
 20
9.6015827497
 11
11.5604513571
 21
9.6293174848
  0
LINE
  5
2B9
100
AcDbEntity
  8
0
100
AcDbLine
 62
9
  6
CONTINUOUS
 10
11.6717662525
 20
5.2893459236
 11
11.6718916011
 21
5.286702155
  0
LINE
  5
2BA
100
AcDbEntity
  8
0
100
AcDbLine
 62
7
  6
CONTINUOUS
 10
11.4978753574
 20
10.5580948021
 11
11.4988272425
 21
10.5302301503
  0
LINE
  5
2BB
100
AcDbEntity
  8
0
100
AcDbLine
 62
7
  6
CONTINUOUS
 10
11.5317182138
 20
9.5674086027
 11
11.5307663287
 21
9.5952732557
  0
LINE
  5
2BC
100
AcDbEntity
  8
0
100
AcDbLine
 62
7
  6
CONTINUOUS
 10
11.7282904343
 20
10.0736010796
 11
11.728533119
 21
10.0664969406
  0
LWPOLYLINE
  5
2BD
100
AcDbEntity
  8
0
100
AcDbPolyline
 62
7
  6
CONTINUOUS
 90
48
 70
0
 10
11.5388183383
 20
7.9193651838
 10
11.5388597829
 20
7.9404908461
 10
11.5392150299
 20
7.9860340744
 10
11.5398865814
 20
8.030903575
 10
11.5408254426
 20
8.0751328755
 10
11.5419910354
 20
8.118741276
 10
11.5433502597
 20
8.1617417058
 10
11.5448766664
 20
8.2041450458
 10
11.5465496522
 20
8.2459618555
 10
11.5483536674
 20
8.28720257
 10
11.5502774585
 20
8.3278770259
 10
11.5523133719
 20
8.3679938605
 10
11.5544567342
 20
8.4075600521
 10
11.5567053126
 20
8.4465806894
 10
11.5590588511
 20
8.4850589556
 10
11.5615187556
 20
8.5229975003
 10
11.5640885366
 20
8.5604094284
 10
11.5667732164
 20
8.5973112166
 10
11.5695787318
 20
8.6337169789
 10
11.5725117304
 20
8.669638756
 10
11.5755793908
 20
8.7050867325
 10
11.5787892673
 20
8.7400694816
 10
11.582149154
 20
8.7745942125
 10
11.5856669633
 20
8.808667006
 10
11.5893506178
 20
8.8422930284
 10
11.5932079508
 20
8.8754767185
 10
11.597246616
 20
8.908221945
 10
11.6014740024
 20
8.9405321302
 10
11.6058971552
 20
8.9724103387
 10
11.6105124591
 20
9.0037916846
 10
11.6153188825
 20
9.0346452619
 10
11.620328177
 20
9.0650268588
 10
11.6255517738
 20
9.094983414
 10
11.6310006843
 20
9.1245539204
 10
11.6366853962
 20
9.1537702193
 10
11.6426157538
 20
9.1826576267
 10
11.6488008032
 20
9.2112353145
 10
11.655248564
 20
9.2395163108
 10
11.6619656516
 20
9.2675068788
 10
11.6689566082
 20
9.2952048593
 10
11.6762226836
 20
9.3225962716
 10
11.6837595879
 20
9.3496489683
 10
11.6915725222
 20
9.376365285
 10
11.6996878045
 20
9.4028083848
 10
11.7080789798
 20
9.4288588911
 10
11.7166688722
 20
9.4542544869
 10
11.7253650178
 20
9.4787121524
 10
11.7339396325
 20
9.5016101834
  0
LINE
  5
2BE
100
AcDbEntity
  8
0
100
AcDbLine
 62
7
  6
CONTINUOUS
 10
11.728533119
 20
10.0270673792
 11
11.7282904343
 21
10.0199632403
  0
LINE
  5
2BF
100
AcDbEntity
  8
0
100
AcDbLine
 62
7
  6
CONTINUOUS
 10
10.3266840512
 20
4.4637663136
 11
10.2955348666
 21
4.4095718161
  0
LINE
  5
2C0
100
AcDbEntity
  8
0
100
AcDbLine
 62
7
  6
CONTINUOUS
 10
10.3723994821
 20
9.5058403146
 11
10.3723014293
 21
9.5059626614
  0
LINE
  5
2C1
100
AcDbEntity
  8
0
100
AcDbLine
 62
7
  6
CONTINUOUS
 10
10.5064505811
 20
9.6321687023
 11
10.5021554979
 21
9.6378326185
  0
LINE
  5
2C2
100
AcDbEntity
  8
0
100
AcDbLine
 62
7
  6
CONTINUOUS
 10
10.4794172457
 20
9.670045383
 11
10.4755186946
 21
9.6759892022
  0
LINE
  5
2C3
100
AcDbEntity
  8
0
100
AcDbLine
 62
7
  6
CONTINUOUS
 10
10.4550317274
 20
9.7096785845
 11
10.4515478853
 21
9.7158745938
  0
LINE
  5
2C4
100
AcDbEntity
  8
0
100
AcDbLine
 62
7
  6
CONTINUOUS
 10
10.3966838354
 20
10.2495554085
 11
10.4103485527
 21
10.2252527241
  0
LINE
  5
2C5
100
AcDbEntity
  8
0
100
AcDbLine
 62
7
  6
CONTINUOUS
 10
10.882512491
 20
9.3855096909
 11
10.8688477742
 21
9.4098123744
  0
LINE
  5
2C6
100
AcDbEntity
  8
0
100
AcDbLine
 62
7
  6
CONTINUOUS
 10
10.4120383504
 20
10.2934835659
 11
10.4240127383
 21
10.2683050234
  0
LINE
  5
2C7
100
AcDbEntity
  8
0
100
AcDbLine
 62
7
  6
CONTINUOUS
 10
10.8377698622
 20
9.3982980184
 11
10.8257954748
 21
9.42347656
  0
LINE
  5
2C8
100
AcDbEntity
  8
0
100
AcDbLine
 62
7
  6
CONTINUOUS
 10
11.4240551159
 20
10.6146832481
 11
11.4287923714
 21
10.5872077442
  0
LINE
  5
2C9
100
AcDbEntity
  8
0
100
AcDbLine
 62
7
  6
CONTINUOUS
 10
11.5924811781
 20
9.6378326218
 11
11.5877439225
 21
9.6653081269
  0
LINE
  5
2CA
100
AcDbEntity
  8
0
100
AcDbLine
 62
7
  6
CONTINUOUS
 10
11.7248727434
 20
10.1200097378
 11
11.7255996659
 21
10.1129387216
  0
LINE
  5
2CB
100
AcDbEntity
  8
0
100
AcDbLine
 62
7
  6
CONTINUOUS
 10
10.6021189247
 20
9.5307979236
 11
10.5967613193
 21
9.5354695133
  0
LINE
  5
2CC
100
AcDbEntity
  8
0
100
AcDbLine
 62
7
  6
CONTINUOUS
 10
10.5679447778
 20
9.5623822843
 11
10.5629184627
 21
9.5674085994
  0
LINE
  5
2CD
100
AcDbEntity
  8
0
100
AcDbLine
 62
7
  6
CONTINUOUS
 10
11.0670331189
 20
9.3655673793
 11
11.0473183383
 21
9.3852821599
  0
LINE
  5
2CE
100
AcDbEntity
  8
0
100
AcDbLine
 62
7
  6
CONTINUOUS
 10
10.36610356
 20
10.0664969383
 11
10.3858183383
 21
10.0467821599
  0
LINE
  5
2CF
100
AcDbEntity
  8
0
100
AcDbLine
 62
7
  6
CONTINUOUS
 10
10.5360056916
 20
9.5962251409
 11
10.5313341019
 21
9.6015827464
  0
LINE
  5
2D0
100
AcDbEntity
  8
0
100
AcDbLine
 62
7
  6
CONTINUOUS
 10
10.3690370129
 20
10.1129387191
 11
10.3873604475
 21
10.0919245164
  0
LINE
  5
2D1
100
AcDbEntity
  8
0
100
AcDbLine
 62
7
  6
CONTINUOUS
 10
11.0204994157
 20
9.3658100673
 11
11.0021759818
 21
9.3868242691
  0
LINE
  5
2D2
100
AcDbEntity
  8
0
100
AcDbLine
 62
7
  6
CONTINUOUS
 10
10.3751329265
 20
10.1590720474
 11
10.391979585
 21
10.1368563983
  0
LINE
  5
2D3
100
AcDbEntity
  8
0
100
AcDbLine
 62
7
  6
CONTINUOUS
 10
10.9740907578
 20
9.3692277584
 11
10.9572440999
 21
9.3914434066
  0
LINE
  5
2D4
100
AcDbEntity
  8
0
100
AcDbLine
 62
7
  6
CONTINUOUS
 10
10.3843628787
 20
10.2046818285
 11
10.3996542143
 21
10.1813683126
  0
LINE
  5
2D5
100
AcDbEntity
  8
0
100
AcDbLine
 62
7
  6
CONTINUOUS
 10
10.9280235206
 20
9.3758045209
 11
10.9127321856
 21
9.3991180359
  0
LINE
  5
2D6
100
AcDbEntity
  8
0
100
AcDbLine
 62
7
  6
CONTINUOUS
 10
11.3432169811
 20
10.6606927713
 11
11.3516513607
 21
10.6341182319
  0
LINE
  5
2D7
100
AcDbEntity
  8
0
100
AcDbLine
 62
7
  6
CONTINUOUS
 10
11.6430887903
 20
9.715874597
 11
11.6346544103
 21
9.7424491375
  0
LINE
  5
2D8
100
AcDbEntity
  8
0
100
AcDbLine
 62
7
  6
CONTINUOUS
 10
11.3844219137
 20
10.6390687708
 11
11.3910231212
 21
10.611980596
  0
LINE
  5
2D9
100
AcDbEntity
  8
0
100
AcDbLine
 62
7
  6
CONTINUOUS
 10
11.6191179812
 20
9.6759892054
 11
11.6125167744
 21
9.703077377
  0
LINE
  5
2DA
100
AcDbEntity
  8
0
100
AcDbLine
 62
7
  6
CONTINUOUS
 10
11.7085908112
 20
10.2115880051
 11
11.7102737997
 21
10.2046818313
  0
LINE
  5
2DB
100
AcDbEntity
  8
0
100
AcDbLine
 62
7
  6
CONTINUOUS
 10
11.718295981
 20
10.1660769752
 11
11.7195037521
 21
10.1590720501
  0
LINE
  5
2DC
100
AcDbEntity
  8
0
100
AcDbLine
 62
7
  6
CONTINUOUS
 10
14.5691377086
 20
10.2435490141
 11
14.7514263253
 21
10.5592821599
  0
LINE
  5
2DD
100
AcDbEntity
  8
0
100
AcDbLine
 62
9
  6
CONTINUOUS
 10
6.7324628106
 20
8.8341621184
 11
7.3621738659
 21
8.8341621184
  0
LINE
  5
2DE
100
AcDbEntity
  8
0
100
AcDbLine
 62
9
  6
CONTINUOUS
 10
14.7324628106
 20
8.8341621184
 11
15.3621738659
 21
8.8341621184
  0
LINE
  5
2DF
100
AcDbEntity
  8
0
100
AcDbLine
 62
7
  6
CONTINUOUS
 10
15.3598142466
 20
8.8940695002
 11
14.7348224299
 21
8.8940695002
  0
LINE
  5
2E0
100
AcDbEntity
  8
0
100
AcDbLine
 62
7
  6
CONTINUOUS
 10
7.3598142466
 20
8.8940695002
 11
6.7348224299
 21
8.8940695002
  0
LINE
  5
2E1
100
AcDbEntity
  8
0
100
AcDbLine
 62
7
  6
CONTINUOUS
 10
10.8445450869
 20
9.3961476554
 11
10.8377698641
 21
9.3982980144
  0
LINE
  5
2E2
100
AcDbEntity
  8
0
100
AcDbLine
 62
7
  6
CONTINUOUS
 10
10.8006169293
 20
9.4115021706
 11
10.7940042469
 21
9.4141098742
  0
LINE
  5
2E3
100
AcDbEntity
  8
0
100
AcDbLine
 62
7
  6
CONTINUOUS
 10
10.7578390076
 20
9.4298186544
 11
10.7514196969
 21
9.4328715443
  0
LINE
  5
2E4
100
AcDbEntity
  8
0
100
AcDbLine
 62
7
  6
CONTINUOUS
 10
10.7164107722
 20
9.4510117069
 11
10.7102147629
 21
9.454495549
  0
LINE
  5
2E5
100
AcDbEntity
  8
0
100
AcDbLine
 62
7
  6
CONTINUOUS
 10
11.2500915858
 20
9.3961476576
 11
11.2257889024
 21
9.4098123744
  0
LINE
  5
2E6
100
AcDbEntity
  8
0
100
AcDbLine
 62
7
  6
CONTINUOUS
 10
10.3860458683
 20
9.8819763131
 11
10.4103485527
 21
9.8683115958
  0
LINE
  5
2E7
100
AcDbEntity
  8
0
100
AcDbLine
 62
7
  6
CONTINUOUS
 10
10.6765253805
 20
9.4749825163
 11
10.6705815614
 21
9.4788810674
  0
LINE
  5
2E8
100
AcDbEntity
  8
0
100
AcDbLine
 62
7
  6
CONTINUOUS
 10
11.2052180059
 20
9.383826701
 11
11.1819044909
 21
9.3991180359
  0
LINE
  5
2E9
100
AcDbEntity
  8
0
100
AcDbLine
 62
7
  6
CONTINUOUS
 10
10.3763406983
 20
9.9274873429
 11
10.3996542143
 21
9.9121960073
  0
LINE
  5
2EA
100
AcDbEntity
  8
0
100
AcDbLine
 62
7
  6
CONTINUOUS
 10
10.6383687969
 20
9.5016193195
 11
10.6327048807
 21
9.5059144027
  0
LINE
  5
2EB
100
AcDbEntity
  8
0
100
AcDbLine
 62
7
  6
CONTINUOUS
 10
11.1596082249
 20
9.3745967488
 11
11.1373925767
 21
9.3914434066
  0
LINE
  5
2EC
100
AcDbEntity
  8
0
100
AcDbLine
 62
7
  6
CONTINUOUS
 10
10.3697639359
 20
9.9735545801
 11
10.391979585
 21
9.9567079216
  0
LINE
  5
2ED
100
AcDbEntity
  8
0
100
AcDbLine
 62
7
  6
CONTINUOUS
 10
11.1134748966
 20
9.3685008353
 11
11.0924606947
 21
9.3868242691
  0
LINE
  5
2EE
100
AcDbEntity
  8
0
100
AcDbLine
 62
7
  6
CONTINUOUS
 10
10.3663462448
 20
10.0199632381
 11
10.3873604475
 21
10.0016398035
  0
LINE
  5
2EF
100
AcDbEntity
  8
0
100
AcDbLine
 62
7
  6
CONTINUOUS
 10
11.2121241856
 20
10.708054629
 11
11.2257889024
 21
10.6837519455
  0
LINE
  5
2F0
100
AcDbEntity
  8
0
100
AcDbLine
 62
7
  6
CONTINUOUS
 10
11.6979528412
 20
9.8440089114
 11
11.6842881239
 21
9.8683115958
  0
LINE
  5
2F1
100
AcDbEntity
  8
0
100
AcDbLine
 62
7
  6
CONTINUOUS
 10
11.2568668143
 20
10.6952663014
 11
11.2688412017
 21
10.6700877599
  0
LINE
  5
2F2
100
AcDbEntity
  8
0
100
AcDbLine
 62
7
  6
CONTINUOUS
 10
11.6825983262
 20
9.800080754
 11
11.6706239383
 21
9.8252592965
  0
LINE
  5
2F3
100
AcDbEntity
  8
0
100
AcDbLine
 62
7
  6
CONTINUOUS
 10
11.6612289539
 20
10.3426808014
 11
11.6642818438
 21
10.3362614906
  0
LINE
  5
2F4
100
AcDbEntity
  8
0
100
AcDbLine
 62
7
  6
CONTINUOUS
 10
11.3006324313
 20
10.6794544415
 11
11.3108606592
 21
10.6535174359
  0
LINE
  5
2F5
100
AcDbEntity
  8
0
100
AcDbLine
 62
7
  6
CONTINUOUS
 10
11.6642818425
 20
9.7573028323
 11
11.6540536142
 21
9.783239839
  0
LINE
  5
2F6
100
AcDbEntity
  8
0
100
AcDbLine
 62
7
  6
CONTINUOUS
 10
11.679990624
 20
10.3000962513
 11
11.6825983276
 21
10.2934835689
  0
LINE
  5
2F7
100
AcDbEntity
  8
0
100
AcDbLine
 62
7
  6
CONTINUOUS
 10
11.6958024838
 20
10.2563306341
 11
11.6979528428
 21
10.2495554114
  0
LINE
  5
2F8
100
AcDbEntity
  8
0
100
AcDbLine
 62
7
  6
CONTINUOUS
 10
11.2121241834
 20
9.385509687
 11
11.2052180097
 21
9.3838266985
  0
LINE
  5
2F9
100
AcDbEntity
  8
0
100
AcDbLine
 62
7
  6
CONTINUOUS
 10
11.6396049492
 20
9.7096785845
 11
11.6125167744
 21
9.703077377
  0
LINE
  5
2FA
100
AcDbEntity
  8
0
100
AcDbLine
 62
7
  6
CONTINUOUS
 10
10.6765253838
 20
9.4749825171
 11
10.7036135553
 21
9.4815837238
  0
LINE
  5
2FB
100
AcDbEntity
  8
0
100
AcDbLine
 62
7
  6
CONTINUOUS
 10
11.1666131535
 20
9.3758045172
 11
11.1596082284
 21
9.3745967461
  0
LINE
  5
2FC
100
AcDbEntity
  8
0
100
AcDbLine
 62
7
  6
CONTINUOUS
 10
11.6152194265
 20
9.6700453823
 11
11.5877439225
 21
9.6653081269
  0
LINE
  5
2FD
100
AcDbEntity
  8
0
100
AcDbLine
 62
7
  6
CONTINUOUS
 10
10.6383688001
 20
9.5016193201
 11
10.6658443052
 21
9.5063565757
  0
LINE
  5
2FE
100
AcDbEntity
  8
0
100
AcDbLine
 62
7
  6
CONTINUOUS
 10
14.586244383
 20
9.8522529692
 11
13.8946056786
 21
9.7617821599
  0
LINE
  5
2FF
100
AcDbEntity
  8
0
100
AcDbLine
 62
7
  6
CONTINUOUS
 10
15.5083922936
 20
10.2413113506
 11
16.200030998
 21
10.3317821599
  0
LINE
  5
300
100
AcDbEntity
  8
0
100
AcDbLine
 62
7
  6
CONTINUOUS
 10
11.1205459161
 20
9.3692277549
 11
11.1134748999
 21
9.3685008323
  0
LINE
  5
301
100
AcDbEntity
  8
0
100
AcDbLine
 62
7
  6
CONTINUOUS
 10
11.5881860911
 20
9.6321687019
 11
11.5604513571
 21
9.6293174848
  0
LINE
  5
302
100
AcDbEntity
  8
0
100
AcDbLine
 62
7
  6
CONTINUOUS
 10
10.602118928
 20
9.5307979239
 11
10.6298536631
 21
9.5336491411
  0
LINE
  5
303
100
AcDbEntity
  8
0
100
AcDbLine
 62
7
  6
CONTINUOUS
 10
11.074137258
 20
9.3658100639
 11
11.067033119
 21
9.3655673792
  0
LINE
  5
304
100
AcDbEntity
  8
0
100
AcDbLine
 62
7
  6
CONTINUOUS
 10
11.5586309805
 20
9.5962251408
 11
11.5307663287
 21
9.5952732557
  0
LINE
  5
305
100
AcDbEntity
  8
0
100
AcDbLine
 62
7
  6
CONTINUOUS
 10
10.5679447811
 20
9.5623822844
 11
10.595809434
 21
9.5633341696
  0
LINE
  5
306
100
AcDbEntity
  8
0
100
AcDbLine
 62
7
  6
CONTINUOUS
 10
15.3432103512
 20
9.5342821599
 11
15.2485743877
 21
9.5342821599
  0
LINE
  5
307
100
AcDbEntity
  8
0
100
AcDbLine
 62
7
  6
CONTINUOUS
 10
14.8460622888
 20
9.5342821599
 11
14.7514263253
 21
9.5342821599
  0
LINE
  5
308
100
AcDbEntity
  8
0
100
AcDbLine
 62
7
  6
CONTINUOUS
 10
7.3432103512
 20
9.5342821599
 11
7.2485743877
 21
9.5342821599
  0
LINE
  5
309
100
AcDbEntity
  8
0
100
AcDbLine
 62
7
  6
CONTINUOUS
 10
6.8460622888
 20
9.5342821599
 11
6.7514263253
 21
9.5342821599
  0
LINE
  5
30A
100
AcDbEntity
  8
0
100
AcDbLine
 62
7
  6
CONTINUOUS
 10
11.0276035576
 20
9.3655673792
 11
11.0204994186
 21
9.3658100639
  0
LINE
  5
30B
100
AcDbEntity
  8
0
100
AcDbLine
 62
7
  6
CONTINUOUS
 10
11.5266918944
 20
9.5623822845
 11
11.4988272425
 21
9.5633341696
  0
LINE
  5
30C
100
AcDbEntity
  8
0
100
AcDbLine
 62
7
  6
CONTINUOUS
 10
10.536005695
 20
9.5962251408
 11
10.5638703479
 21
9.5952732557
  0
LINE
  5
30D
100
AcDbEntity
  8
0
100
AcDbLine
 62
7
  6
CONTINUOUS
 10
10.9811617766
 20
9.3685008323
 11
10.9740907604
 21
9.3692277549
  0
LINE
  5
30E
100
AcDbEntity
  8
0
100
AcDbLine
 62
7
  6
CONTINUOUS
 10
11.4925177474
 20
9.530797924
 11
11.4647830135
 21
9.5336491411
  0
LINE
  5
30F
100
AcDbEntity
  8
0
100
AcDbLine
 62
7
  6
CONTINUOUS
 10
10.5064505844
 20
9.632168702
 11
10.5341853195
 21
9.6293174848
  0
LINE
  5
310
100
AcDbEntity
  8
0
100
AcDbLine
 62
7
  6
CONTINUOUS
 10
7.5083817872
 20
9.8522543435
 11
8.200030998
 21
9.7617821599
  0
LINE
  5
311
100
AcDbEntity
  8
0
100
AcDbLine
 62
7
  6
CONTINUOUS
 10
6.5862548894
 20
10.2413099763
 11
5.8946056786
 21
10.3317821599
  0
LINE
  5
312
100
AcDbEntity
  8
0
100
AcDbLine
 62
7
  6
CONTINUOUS
 10
10.9350284481
 20
9.3745967461
 11
10.928023523
 21
9.3758045172
  0
LINE
  5
313
100
AcDbEntity
  8
0
100
AcDbLine
 62
7
  6
CONTINUOUS
 10
11.4562678753
 20
9.5016193203
 11
11.4287923714
 21
9.5063565757
  0
LINE
  5
314
100
AcDbEntity
  8
0
100
AcDbLine
 62
7
  6
CONTINUOUS
 10
10.479417249
 20
9.6700453825
 11
10.5068927541
 21
9.6653081269
  0
LINE
  5
315
100
AcDbEntity
  8
0
100
AcDbLine
 62
7
  6
CONTINUOUS
 10
10.8894186669
 20
9.3838266985
 11
10.8825124931
 21
9.385509687
  0
LINE
  5
316
100
AcDbEntity
  8
0
100
AcDbLine
 62
7
  6
CONTINUOUS
 10
11.4181112917
 20
9.4749825173
 11
11.3910231212
 21
9.4815837238
  0
LINE
  5
317
100
AcDbEntity
  8
0
100
AcDbLine
 62
7
  6
CONTINUOUS
 10
10.4550317274
 20
9.7096785845
 11
10.4821199022
 21
9.703077377
  0
LINE
  5
318
100
AcDbEntity
  8
0
100
AcDbLine
 62
7
  6
CONTINUOUS
 10
11.3782259002
 20
9.4510117083
 11
11.3516513607
 21
9.459446088
  0
LINE
  5
319
100
AcDbEntity
  8
0
100
AcDbLine
 62
7
  6
CONTINUOUS
 10
10.4334077258
 20
9.7508835175
 11
10.4599822663
 21
9.7424491375
  0
LINE
  5
31A
100
AcDbEntity
  8
0
100
AcDbLine
 62
7
  6
CONTINUOUS
 10
11.3367976648
 20
9.4298186561
 11
11.3108606592
 21
9.440046884
  0
LINE
  5
31B
100
AcDbEntity
  8
0
100
AcDbLine
 62
7
  6
CONTINUOUS
 10
10.4146460557
 20
9.7934680673
 11
10.4405830623
 21
9.783239839
  0
LINE
  5
31C
100
AcDbEntity
  8
0
100
AcDbLine
 62
7
  6
CONTINUOUS
 10
11.2940197433
 20
9.4115021725
 11
11.2688412017
 21
9.42347656
  0
LINE
  5
31D
100
AcDbEntity
  8
0
100
AcDbLine
 62
7
  6
CONTINUOUS
 10
10.3988341958
 20
9.8372336844
 11
10.4240127383
 21
9.8252592965
  0
LINE
  5
31E
100
AcDbEntity
  8
0
100
AcDbLine
 62
7
  6
CONTINUOUS
 10
11.0741372609
 20
10.7277542526
 11
11.0924606947
 21
10.7067400508
  0
LINE
  5
31F
100
AcDbEntity
  8
0
100
AcDbLine
 62
7
  6
CONTINUOUS
 10
11.7255996637
 20
9.9806256008
 11
11.7072762291
 21
10.0016398035
  0
LINE
  5
320
100
AcDbEntity
  8
0
100
AcDbLine
 62
7
  6
CONTINUOUS
 10
11.1205459188
 20
10.7243365615
 11
11.1373925767
 21
10.7021209132
  0
LINE
  5
321
100
AcDbEntity
  8
0
100
AcDbLine
 62
7
  6
CONTINUOUS
 10
11.7195037501
 20
9.9344922724
 11
11.7026570916
 21
9.9567079216
  0
LINE
  5
322
100
AcDbEntity
  8
0
100
AcDbLine
 62
7
  6
CONTINUOUS
 10
11.166613156
 20
10.717759799
 11
11.1819044909
 21
10.6944462839
  0
LINE
  5
323
100
AcDbEntity
  8
0
100
AcDbLine
 62
7
  6
CONTINUOUS
 10
11.7102737978
 20
9.8888824913
 11
11.6949824623
 21
9.9121960073
  0
LINE
  5
324
100
AcDbEntity
  8
0
100
AcDbLine
 62
7
  6
CONTINUOUS
 10
11.6152194309
 20
10.4235189368
 11
11.6191179819
 21
10.4175751177
  0
LINE
  5
325
100
AcDbEntity
  8
0
100
AcDbLine
 62
7
  6
CONTINUOUS
 10
11.6396049492
 20
10.3838857353
 11
11.6430887913
 21
10.3776897261
  0
LINE
  5
326
100
AcDbEntity
  8
0
100
AcDbLine
 62
9
  6
CONTINUOUS
 10
14.5778601622
 20
10.0467821599
 11
14.5461425957
 21
10.0467821599
  0
LINE
  5
327
100
AcDbEntity
  8
0
100
AcDbLine
 62
9
  6
CONTINUOUS
 10
10.5959702792
 20
10.0467821599
 11
10.5684044863
 21
10.0467821599
  0
LINE
  5
328
100
AcDbEntity
  8
0
100
AcDbLine
 62
9
  6
CONTINUOUS
 10
6.5778604393
 20
10.0467821599
 11
6.5461425957
 21
10.0467821599
  0
LINE
  5
329
100
AcDbEntity
  8
0
100
AcDbLine
 62
9
  6
CONTINUOUS
 10
7.5167765144
 20
10.0467821599
 11
7.5484940809
 21
10.0467821599
  0
LINE
  5
32A
100
AcDbEntity
  8
0
100
AcDbLine
 62
9
  6
CONTINUOUS
 10
11.4986663974
 20
10.0467821599
 11
11.5262321903
 21
10.0467821599
  0
LINE
  5
32B
100
AcDbEntity
  8
0
100
AcDbLine
 62
9
  6
CONTINUOUS
 10
15.5167762373
 20
10.0467821599
 11
15.5484940809
 21
10.0467821599
  0
LINE
  5
32C
100
AcDbEntity
  8
0
100
AcDbLine
 62
7
  6
CONTINUOUS
 10
11.7182959782
 20
10.166076977
 11
11.6949824623
 21
10.1813683126
  0
LINE
  5
32D
100
AcDbEntity
  8
0
100
AcDbLine
 62
7
  6
CONTINUOUS
 10
10.8894186706
 20
10.7097376189
 11
10.9127321856
 21
10.6944462839
  0
LINE
  5
32E
100
AcDbEntity
  8
0
100
AcDbLine
 62
7
  6
CONTINUOUS
 10
11.7248727407
 20
10.1200097398
 11
11.7026570916
 21
10.1368563983
  0
LINE
  5
32F
100
AcDbEntity
  8
0
100
AcDbLine
 62
7
  6
CONTINUOUS
 10
10.9350284517
 20
10.7189675711
 11
10.9572440999
 21
10.7021209132
  0
LINE
  5
330
100
AcDbEntity
  8
0
100
AcDbLine
 62
7
  6
CONTINUOUS
 10
11.7282904318
 20
10.0736010818
 11
11.7072762291
 21
10.0919245164
  0
LINE
  5
331
100
AcDbEntity
  8
0
100
AcDbLine
 62
7
  6
CONTINUOUS
 10
10.98116178
 20
10.7250634846
 11
11.0021759818
 21
10.7067400508
  0
LINE
  5
332
100
AcDbEntity
  8
0
100
AcDbLine
 62
7
  6
CONTINUOUS
 10
11.4925177518
 20
10.5627663963
 11
11.4978753573
 21
10.5580948066
  0
LINE
  5
333
100
AcDbEntity
  8
0
100
AcDbLine
 62
7
  6
CONTINUOUS
 10
11.7285331166
 20
10.0270673816
 11
11.7088183383
 21
10.0467821599
  0
LINE
  5
334
100
AcDbEntity
  8
0
100
AcDbLine
 62
7
  6
CONTINUOUS
 10
11.0276035576
 20
10.7279969406
 11
11.0473183383
 21
10.7082821599
  0
LINE
  5
335
100
AcDbEntity
  8
0
100
AcDbLine
 62
7
  6
CONTINUOUS
 10
11.5266918988
 20
10.5311820355
 11
11.5317182139
 21
10.5261557204
  0
LINE
  5
336
100
AcDbEntity
  8
0
100
AcDbLine
 62
7
  6
CONTINUOUS
 10
11.5586309849
 20
10.4973391789
 11
11.5633025746
 21
10.4919815735
  0
LINE
  5
337
100
AcDbEntity
  8
0
100
AcDbLine
 62
7
  6
CONTINUOUS
 10
11.5881860955
 20
10.4613956176
 11
11.5924811787
 21
10.4557317014
  0
LINE
  5
338
100
AcDbEntity
  8
0
100
AcDbLine
 62
9
  6
CONTINUOUS
 10
13.8346982967
 20
9.7319266323
 11
13.8346982967
 21
10.3616376876
  0
LINE
  5
339
100
AcDbEntity
  8
0
100
AcDbLine
 62
7
  6
CONTINUOUS
 10
13.8946056786
 20
10.3592821599
 11
13.8946056786
 21
9.7342821599
  0
LINE
  5
33A
100
AcDbEntity
  8
0
100
AcDbLine
 62
7
  6
CONTINUOUS
 10
15.525498968
 20
9.8500153057
 11
15.3432103512
 21
9.5342821599
  0
LINE
  5
33B
100
AcDbEntity
  8
0
100
AcDbLine
 62
7
  6
CONTINUOUS
 10
11.4181112928
 20
10.6185818028
 11
11.3910231212
 21
10.611980596
  0
LINE
  5
33C
100
AcDbEntity
  8
0
100
AcDbLine
 62
7
  6
CONTINUOUS
 10
10.4550317274
 20
10.3838857353
 11
10.4821199022
 21
10.3904869429
  0
LINE
  5
33D
100
AcDbEntity
  8
0
100
AcDbLine
 62
7
  6
CONTINUOUS
 10
11.4562678764
 20
10.5919449998
 11
11.4287923714
 21
10.5872077442
  0
LINE
  5
33E
100
AcDbEntity
  8
0
100
AcDbLine
 62
7
  6
CONTINUOUS
 10
10.4794172501
 20
10.4235189376
 11
10.5068927541
 21
10.428256193
  0
LINE
  5
33F
100
AcDbEntity
  8
0
100
AcDbLine
 62
7
  6
CONTINUOUS
 10
6.586244383
 20
9.8522529692
 11
5.8946056786
 21
9.7617821599
  0
LINE
  5
340
100
AcDbEntity
  8
0
100
AcDbLine
 62
7
  6
CONTINUOUS
 10
11.4925177485
 20
10.5627663959
 11
11.4647830135
 21
10.5599151787
  0
LINE
  5
341
100
AcDbEntity
  8
0
100
AcDbLine
 62
7
  6
CONTINUOUS
 10
10.5064505855
 20
10.461395618
 11
10.5341853195
 21
10.4642468351
  0
LINE
  5
342
100
AcDbEntity
  8
0
100
AcDbLine
 62
7
  6
CONTINUOUS
 10
11.5266918955
 20
10.5311820354
 11
11.4988272425
 21
10.5302301503
  0
LINE
  5
343
100
AcDbEntity
  8
0
100
AcDbLine
 62
7
  6
CONTINUOUS
 10
10.5360056961
 20
10.4973391791
 11
10.5638703479
 21
10.4982910642
  0
LINE
  5
344
100
AcDbEntity
  8
0
100
AcDbLine
 62
7
  6
CONTINUOUS
 10
11.5586309816
 20
10.4973391791
 11
11.5307663287
 21
10.4982910642
  0
LINE
  5
345
100
AcDbEntity
  8
0
100
AcDbLine
 62
7
  6
CONTINUOUS
 10
10.5679447822
 20
10.5311820354
 11
10.595809434
 21
10.5302301503
  0
LINE
  5
346
100
AcDbEntity
  8
0
100
AcDbLine
 62
7
  6
CONTINUOUS
 10
11.5881860922
 20
10.4613956179
 11
11.5604513571
 21
10.4642468351
  0
LINE
  5
347
100
AcDbEntity
  8
0
100
AcDbLine
 62
7
  6
CONTINUOUS
 10
10.6021189291
 20
10.5627663958
 11
10.6298536631
 21
10.5599151787
  0
LINE
  5
348
100
AcDbEntity
  8
0
100
AcDbLine
 62
7
  6
CONTINUOUS
 10
15.5083817872
 20
9.8522543435
 11
16.200030998
 21
9.7617821599
  0
LINE
  5
349
100
AcDbEntity
  8
0
100
AcDbLine
 62
7
  6
CONTINUOUS
 10
11.6152194276
 20
10.4235189374
 11
11.5877439225
 21
10.428256193
  0
LINE
  5
34A
100
AcDbEntity
  8
0
100
AcDbLine
 62
7
  6
CONTINUOUS
 10
10.6383688012
 20
10.5919449996
 11
10.6658443052
 21
10.5872077442
  0
LINE
  5
34B
100
AcDbEntity
  8
0
100
AcDbLine
 62
7
  6
CONTINUOUS
 10
11.6396049492
 20
10.3838857353
 11
11.6125167744
 21
10.3904869429
  0
LINE
  5
34C
100
AcDbEntity
  8
0
100
AcDbLine
 62
7
  6
CONTINUOUS
 10
10.6765253849
 20
10.6185818025
 11
10.7036135553
 21
10.611980596
  0
LINE
  5
34D
100
AcDbEntity
  8
0
100
AcDbLine
 62
7
  6
CONTINUOUS
 10
11.6612289508
 20
10.3426808024
 11
11.6346544103
 21
10.3511151824
  0
LINE
  5
34E
100
AcDbEntity
  8
0
100
AcDbLine
 62
7
  6
CONTINUOUS
 10
10.7164107764
 20
10.6425526116
 11
10.7429853158
 21
10.6341182319
  0
LINE
  5
34F
100
AcDbEntity
  8
0
100
AcDbLine
 62
7
  6
CONTINUOUS
 10
11.6799906209
 20
10.3000962526
 11
11.6540536142
 21
10.3103244809
  0
LINE
  5
350
100
AcDbEntity
  8
0
100
AcDbLine
 62
7
  6
CONTINUOUS
 10
10.7578390117
 20
10.6637456638
 11
10.7837760173
 21
10.6535174359
  0
LINE
  5
351
100
AcDbEntity
  8
0
100
AcDbLine
 62
7
  6
CONTINUOUS
 10
11.2940197473
 20
10.6820621492
 11
11.3006324297
 21
10.6794544456
  0
LINE
  5
352
100
AcDbEntity
  8
0
100
AcDbLine
 62
7
  6
CONTINUOUS
 10
11.6958024808
 20
10.2563306355
 11
11.6706239383
 21
10.2683050234
  0
LINE
  5
353
100
AcDbEntity
  8
0
100
AcDbLine
 62
7
  6
CONTINUOUS
 10
10.8006169333
 20
10.6820621473
 11
10.8257954748
 21
10.6700877599
  0
LINE
  5
354
100
AcDbEntity
  8
0
100
AcDbLine
 62
7
  6
CONTINUOUS
 10
11.336797669
 20
10.6637456654
 11
11.3432169797
 21
10.6606927756
  0
LINE
  5
355
100
AcDbEntity
  8
0
100
AcDbLine
 62
7
  6
CONTINUOUS
 10
11.7085908083
 20
10.2115880067
 11
11.6842881239
 21
10.2252527241
  0
LINE
  5
356
100
AcDbEntity
  8
0
100
AcDbLine
 62
7
  6
CONTINUOUS
 10
10.8445450907
 20
10.6974166623
 11
10.8688477742
 21
10.6837519455
  0
LINE
  5
357
100
AcDbEntity
  8
0
100
AcDbLine
 62
7
  6
CONTINUOUS
 10
11.3782259044
 20
10.6425526129
 11
11.3844219137
 21
10.6390687708
  0
LINE
  5
358
100
AcDbEntity
  8
0
100
AcDbLine
 62
7
  6
CONTINUOUS
 10
11.418111296
 20
10.6185818036
 11
11.4240551152
 21
10.6146832525
  0
LINE
  5
359
100
AcDbEntity
  8
0
100
AcDbLine
 62
7
  6
CONTINUOUS
 10
11.4562678797
 20
10.5919450004
 11
11.4619317959
 21
10.5876499171
  0
LINE
  5
35A
100
AcDbEntity
  8
0
100
AcDbLine
 62
7
  6
CONTINUOUS
 10
14.8528055017
 20
9.5858332299
 11
14.7623183383
 21
8.8940695002
  0
LINE
  5
35B
100
AcDbEntity
  8
0
100
AcDbLine
 62
7
  6
CONTINUOUS
 10
10.8825124931
 20
10.7080546328
 11
10.8894186669
 21
10.7097376213
  0
LINE
  5
35C
100
AcDbEntity
  8
0
100
AcDbLine
 62
7
  6
CONTINUOUS
 10
10.928023523
 20
10.7177598027
 11
10.9350284481
 21
10.7189675738
  0
LINE
  5
35D
100
AcDbEntity
  8
0
100
AcDbLine
 62
7
  6
CONTINUOUS
 10
7.5083922936
 20
10.2413113506
 11
8.200030998
 21
10.3317821599
  0
LINE
  5
35E
100
AcDbEntity
  8
0
100
AcDbLine
 62
7
  6
CONTINUOUS
 10
10.9740907604
 20
10.724336565
 11
10.9811617766
 21
10.7250634875
  0
LINE
  5
35F
100
AcDbEntity
  8
0
100
AcDbLine
 62
7
  6
CONTINUOUS
 10
11.0204994186
 20
10.7277542559
 11
11.0276035576
 21
10.7279969406
  0
LINE
  5
360
100
AcDbEntity
  8
0
100
AcDbLine
 62
7
  6
CONTINUOUS
 10
6.7514263253
 20
10.5592821599
 11
6.8460622888
 21
10.5592821599
  0
LINE
  5
361
100
AcDbEntity
  8
0
100
AcDbLine
 62
7
  6
CONTINUOUS
 10
7.2485743877
 20
10.5592821599
 11
7.3432103512
 21
10.5592821599
  0
LINE
  5
362
100
AcDbEntity
  8
0
100
AcDbLine
 62
7
  6
CONTINUOUS
 10
14.7514263253
 20
10.5592821599
 11
14.8460622888
 21
10.5592821599
  0
LINE
  5
363
100
AcDbEntity
  8
0
100
AcDbLine
 62
7
  6
CONTINUOUS
 10
15.2485743877
 20
10.5592821599
 11
15.3432103512
 21
10.5592821599
  0
LINE
  5
364
100
AcDbEntity
  8
0
100
AcDbLine
 62
7
  6
CONTINUOUS
 10
11.067033119
 20
10.7279969406
 11
11.074137258
 21
10.7277542559
  0
LINE
  5
365
100
AcDbEntity
  8
0
100
AcDbLine
 62
7
  6
CONTINUOUS
 10
11.1134748999
 20
10.7250634875
 11
11.1205459161
 21
10.724336565
  0
LINE
  5
366
100
AcDbEntity
  8
0
100
AcDbLine
 62
7
  6
CONTINUOUS
 10
14.5862548894
 20
10.2413099763
 11
13.8946056786
 21
10.3317821599
  0
LINE
  5
367
100
AcDbEntity
  8
0
100
AcDbLine
 62
7
  6
CONTINUOUS
 10
11.1596082284
 20
10.7189675738
 11
11.1666131535
 21
10.7177598027
  0
LINE
  5
368
100
AcDbEntity
  8
0
100
AcDbLine
 62
7
  6
CONTINUOUS
 10
11.2052180097
 20
10.7097376213
 11
11.2121241834
 21
10.7080546328
  0
LINE
  5
369
100
AcDbEntity
  8
0
100
AcDbLine
 62
7
  6
CONTINUOUS
 10
11.2500915897
 20
10.6974166645
 11
11.2568668124
 21
10.6952663055
  0
LINE
  5
36A
100
AcDbEntity
  8
0
100
AcDbLine
 62
7
  6
CONTINUOUS
 10
15.2418311749
 20
10.50773109
 11
15.3323183383
 21
11.1994948196
  0
LINE
  5
36B
100
AcDbEntity
  8
0
100
AcDbLine
 62
7
  6
CONTINUOUS
 10
15.3598183383
 20
11.1994948196
 11
14.7348183383
 21
11.1994948196
  0
LINE
  5
36C
100
AcDbEntity
  8
0
100
AcDbLine
 62
7
  6
CONTINUOUS
 10
7.3598183383
 20
11.1994948196
 11
6.7348183383
 21
11.1994948196
  0
LINE
  5
36D
100
AcDbEntity
  8
0
100
AcDbLine
 62
9
  6
CONTINUOUS
 10
6.7324628106
 20
11.2594022015
 11
7.3621738659
 21
11.2594022015
  0
LINE
  5
36E
100
AcDbEntity
  8
0
100
AcDbLine
 62
9
  6
CONTINUOUS
 10
14.7324628106
 20
11.2594022015
 11
15.3621738659
 21
11.2594022015
  0
LINE
  5
36F
100
AcDbEntity
  8
0
100
AcDbLine
 62
7
  6
CONTINUOUS
 10
14.7514263253
 20
9.5342821599
 11
14.5691377086
 21
9.8500153057
  0
LINE
  5
370
100
AcDbEntity
  8
0
100
AcDbLine
 62
7
  6
CONTINUOUS
 10
14.8528042781
 20
10.5077404441
 11
14.7623183383
 21
11.1994948196
  0
LINE
  5
371
100
AcDbEntity
  8
0
100
AcDbLine
 62
7
  6
CONTINUOUS
 10
15.2418323984
 20
9.5858238758
 11
15.3323183383
 21
8.8940695002
  0
LINE
  5
372
100
AcDbEntity
  8
0
100
AcDbLine
 62
7
  6
CONTINUOUS
 10
16.200030998
 20
10.3592780683
 11
16.200030998
 21
9.7342862516
  0
LINE
  5
373
100
AcDbEntity
  8
0
100
AcDbLine
 62
9
  6
CONTINUOUS
 10
16.2599383798
 20
9.7319266323
 11
16.2599383798
 21
10.3616376876
  0
LINE
  5
374
100
AcDbEntity
  8
0
100
AcDbLine
 62
7
  6
CONTINUOUS
 10
15.3432103512
 20
10.5592821599
 11
15.525498968
 21
10.2435490141
  0
ARC
  5
375
100
AcDbEntity
  8
0
100
AcDbCircle
 62
9
  6
CONTINUOUS
 10
-20.6566536699
 20
8.2154301562
 40
31.2170868968
100
AcDbArc
 50
354.6215801226
 51
355.4475674388
  0
ARC
  5
376
100
AcDbEntity
  8
0
100
AcDbCircle
 62
7
  6
CONTINUOUS
 10
7.0473183383
 20
7.2617821599
 40
4.01
100
AcDbArc
 50
85.4966382723
 51
94.5033617277
  0
ARC
  5
377
100
AcDbEntity
  8
0
100
AcDbCircle
 62
9
  6
CONTINUOUS
 10
11.0468593199
 20
4.7578257652
 40
1.089944301
100
AcDbArc
 50
261.9303682551
 51
270.0241296604
  0
ARC
  5
378
100
AcDbEntity
  8
0
100
AcDbCircle
 62
7
  6
CONTINUOUS
 10
10.7405828757
 20
4.2124023405
 40
0.4867014517
100
AcDbArc
 50
150.7875379673
 51
152.460723073
  0
ARC
  5
379
100
AcDbEntity
  8
0
100
AcDbCircle
 62
7
  6
CONTINUOUS
 10
10.7283489165
 20
4.2187237051
 40
0.4729309507
100
AcDbArc
 50
152.4545038538
 51
155.5719241993
  0
ARC
  5
37A
100
AcDbEntity
  8
0
100
AcDbCircle
 62
7
  6
CONTINUOUS
 10
10.7137687238
 20
4.2253337073
 40
0.45692239
100
AcDbArc
 50
155.570499001
 51
161.6893082811
  0
ARC
  5
37B
100
AcDbEntity
  8
0
100
AcDbCircle
 62
7
  6
CONTINUOUS
 10
10.6900118883
 20
4.2331692725
 40
0.4319067417
100
AcDbArc
 50
161.6860117473
 51
167.98317677
  0
ARC
  5
37C
100
AcDbEntity
  8
0
100
AcDbCircle
 62
7
  6
CONTINUOUS
 10
10.6784258461
 20
4.2355043156
 40
0.4200884564
100
AcDbArc
 50
167.965674281
 51
179.7449233799
  0
ARC
  5
37D
100
AcDbEntity
  8
0
100
AcDbCircle
 62
9
  6
CONTINUOUS
 10
10.6770504147
 20
4.2360796654
 40
0.4187108641
100
AcDbArc
 50
179.822814727
 51
191.8055297162
  0
ARC
  5
37E
100
AcDbEntity
  8
0
100
AcDbCircle
 62
7
  6
CONTINUOUS
 10
4.2623183383
 20
10.0467821599
 40
4.01
100
AcDbArc
 50
355.4966382723
 51
4.5033617277
  0
ARC
  5
37F
100
AcDbEntity
  8
0
100
AcDbCircle
 62
9
  6
CONTINUOUS
 10
7.0473183208
 20
10.0467822134
 40
0.3241654991
100
AcDbArc
 50
359.9999906498
 51
180.0000094443
  0
ARC
  5
380
100
AcDbEntity
  8
0
100
AcDbCircle
 62
7
  6
CONTINUOUS
 10
6.7348183383
 20
8.8640695002
 40
0.03
100
AcDbArc
 50
90.0
 51
265.4966382723
  0
ARC
  5
381
100
AcDbEntity
  8
0
100
AcDbCircle
 62
7
  6
CONTINUOUS
 10
5.8646056786
 20
9.7342821599
 40
0.03
100
AcDbArc
 50
184.5033617277
 51
360.0
  0
ARC
  5
382
100
AcDbEntity
  8
0
100
AcDbCircle
 62
7
  6
CONTINUOUS
 10
5.8646056786
 20
10.3592821599
 40
0.03
100
AcDbArc
 50
0.0
 51
175.4966382723
  0
ARC
  5
383
100
AcDbEntity
  8
0
100
AcDbCircle
 62
7
  6
CONTINUOUS
 10
6.7348183383
 20
11.2294948196
 40
0.03
100
AcDbArc
 50
94.5033617277
 51
270.0
  0
ARC
  5
384
100
AcDbEntity
  8
0
100
AcDbCircle
 62
7
  6
CONTINUOUS
 10
7.3598183383
 20
8.8640695002
 40
0.03
100
AcDbArc
 50
274.5033617277
 51
90.0
  0
ARC
  5
385
100
AcDbEntity
  8
0
100
AcDbCircle
 62
7
  6
CONTINUOUS
 10
7.0473183383
 20
10.0467821599
 40
1.1355877937
100
AcDbArc
 50
14.1922940144
 51
75.8123462771
  0
ARC
  5
386
100
AcDbEntity
  8
0
100
AcDbCircle
 62
7
  6
CONTINUOUS
 10
7.0473183383
 20
10.0467821599
 40
1.1355877937
100
AcDbArc
 50
104.1877414261
 51
165.8078444831
  0
ARC
  5
387
100
AcDbEntity
  8
0
100
AcDbCircle
 62
7
  6
CONTINUOUS
 10
7.0473183383
 20
10.0467821599
 40
1.1355877937
100
AcDbArc
 50
194.1922940144
 51
255.8123462771
  0
ARC
  5
388
100
AcDbEntity
  8
0
100
AcDbCircle
 62
7
  6
CONTINUOUS
 10
7.0473183383
 20
10.0467821599
 40
1.1355877937
100
AcDbArc
 50
284.1877414261
 51
345.8078444831
  0
ARC
  5
389
100
AcDbEntity
  8
0
100
AcDbCircle
 62
9
  6
CONTINUOUS
 10
7.0473183383
 20
10.0467821599
 40
1.1018951051
100
AcDbArc
 50
14.3926286025
 51
75.6073706806
  0
ARC
  5
38A
100
AcDbEntity
  8
0
100
AcDbCircle
 62
9
  6
CONTINUOUS
 10
7.0473183383
 20
10.0467821599
 40
1.1018951051
100
AcDbArc
 50
104.3926300393
 51
165.6073689491
  0
ARC
  5
38B
100
AcDbEntity
  8
0
100
AcDbCircle
 62
9
  6
CONTINUOUS
 10
7.0473183383
 20
10.0467821599
 40
1.1018951051
100
AcDbArc
 50
194.3926286025
 51
255.6073706806
  0
ARC
  5
38C
100
AcDbEntity
  8
0
100
AcDbCircle
 62
9
  6
CONTINUOUS
 10
7.0473183383
 20
10.0467821599
 40
1.1018951051
100
AcDbArc
 50
284.3926300393
 51
345.6073689491
  0
ARC
  5
38D
100
AcDbEntity
  8
0
100
AcDbCircle
 62
9
  6
CONTINUOUS
 10
7.0473183383
 20
10.0467821599
 40
1.0686940646
100
AcDbArc
 50
284.6230652284
 51
345.3883902462
  0
ARC
  5
38E
100
AcDbEntity
  8
0
100
AcDbCircle
 62
9
  6
CONTINUOUS
 10
7.0473183383
 20
10.0467821599
 40
1.0686940646
100
AcDbArc
 50
194.6116097538
 51
255.3769347716
  0
ARC
  5
38F
100
AcDbEntity
  8
0
100
AcDbCircle
 62
9
  6
CONTINUOUS
 10
7.0473183383
 20
10.0467821599
 40
1.0686940646
100
AcDbArc
 50
14.6116097538
 51
75.3769347716
  0
ARC
  5
390
100
AcDbEntity
  8
0
100
AcDbCircle
 62
9
  6
CONTINUOUS
 10
7.0473183383
 20
10.0467821599
 40
1.0686940646
100
AcDbArc
 50
104.6230652284
 51
165.3883902462
  0
ARC
  5
391
100
AcDbEntity
  8
0
100
AcDbCircle
 62
9
  6
CONTINUOUS
 10
7.0473183383
 20
10.0467821599
 40
0.9981262705
100
AcDbArc
 50
285.1185056486
 51
344.8814960424
  0
ARC
  5
392
100
AcDbEntity
  8
0
100
AcDbCircle
 62
9
  6
CONTINUOUS
 10
7.0473183383
 20
10.0467821599
 40
0.9981262705
100
AcDbArc
 50
195.118507239
 51
254.8814947846
  0
ARC
  5
393
100
AcDbEntity
  8
0
100
AcDbCircle
 62
9
  6
CONTINUOUS
 10
7.0473183383
 20
10.0467821599
 40
0.9981262705
100
AcDbArc
 50
105.1185056486
 51
164.8814960424
  0
ARC
  5
394
100
AcDbEntity
  8
0
100
AcDbCircle
 62
9
  6
CONTINUOUS
 10
7.0473183383
 20
10.0467821599
 40
0.9981262705
100
AcDbArc
 50
15.118507239
 51
74.8814947846
  0
ARC
  5
395
100
AcDbEntity
  8
0
100
AcDbCircle
 62
9
  6
CONTINUOUS
 10
7.0473183383
 20
10.0467821599
 40
0.9302280237
100
AcDbArc
 50
195.6802629093
 51
254.3197355094
  0
ARC
  5
396
100
AcDbEntity
  8
0
100
AcDbCircle
 62
9
  6
CONTINUOUS
 10
7.0473183383
 20
10.0467821599
 40
0.9302280237
100
AcDbArc
 50
285.6802641594
 51
344.3197352602
  0
ARC
  5
397
100
AcDbEntity
  8
0
100
AcDbCircle
 62
9
  6
CONTINUOUS
 10
7.0473183383
 20
10.0467821599
 40
0.9302280237
100
AcDbArc
 50
15.6802629093
 51
74.3197355094
  0
ARC
  5
398
100
AcDbEntity
  8
0
100
AcDbCircle
 62
9
  6
CONTINUOUS
 10
7.0473183383
 20
10.0467821599
 40
0.9302280237
100
AcDbArc
 50
105.6802641594
 51
164.3197352602
  0
ARC
  5
399
100
AcDbEntity
  8
0
100
AcDbCircle
 62
9
  6
CONTINUOUS
 10
7.0473183383
 20
10.0467821599
 40
0.7616485311
100
AcDbArc
 50
17.5214085898
 51
72.4570971308
  0
ARC
  5
39A
100
AcDbEntity
  8
0
100
AcDbCircle
 62
9
  6
CONTINUOUS
 10
7.0473183383
 20
10.0467821599
 40
0.7616485311
100
AcDbArc
 50
107.5429028692
 51
162.4785914102
  0
ARC
  5
39B
100
AcDbEntity
  8
0
100
AcDbCircle
 62
9
  6
CONTINUOUS
 10
7.0473183383
 20
10.0467821599
 40
0.7616485311
100
AcDbArc
 50
287.5429028692
 51
342.4785914102
  0
ARC
  5
39C
100
AcDbEntity
  8
0
100
AcDbCircle
 62
9
  6
CONTINUOUS
 10
7.0473183383
 20
10.0467821599
 40
0.7616485311
100
AcDbArc
 50
197.5214085898
 51
252.4570971308
  0
ARC
  5
39D
100
AcDbEntity
  8
0
100
AcDbCircle
 62
7
  6
CONTINUOUS
 10
7.0473183383
 20
10.0467821599
 40
0.6917203626
100
AcDbArc
 50
288.5657701953
 51
341.4371451753
  0
ARC
  5
39E
100
AcDbEntity
  8
0
100
AcDbCircle
 62
7
  6
CONTINUOUS
 10
7.0473183383
 20
10.0467821599
 40
0.6917203626
100
AcDbArc
 50
198.5627145464
 51
251.4260499806
  0
ARC
  5
39F
100
AcDbEntity
  8
0
100
AcDbCircle
 62
7
  6
CONTINUOUS
 10
7.0473183383
 20
10.0467821599
 40
0.6917203626
100
AcDbArc
 50
108.5657701953
 51
161.4371451753
  0
ARC
  5
3A0
100
AcDbEntity
  8
0
100
AcDbCircle
 62
7
  6
CONTINUOUS
 10
7.0473183383
 20
10.0467821599
 40
0.6917203626
100
AcDbArc
 50
18.5627145464
 51
71.4260499806
  0
ARC
  5
3A1
100
AcDbEntity
  8
0
100
AcDbCircle
 62
9
  6
CONTINUOUS
 10
7.0473183383
 20
10.0467821599
 40
0.5085759512
100
AcDbArc
 50
22.6697234315
 51
67.3302765685
  0
ARC
  5
3A2
100
AcDbEntity
  8
0
100
AcDbCircle
 62
9
  6
CONTINUOUS
 10
7.0473183383
 20
10.0467821599
 40
0.5085759512
100
AcDbArc
 50
292.6697234315
 51
337.3302765685
  0
ARC
  5
3A3
100
AcDbEntity
  8
0
100
AcDbCircle
 62
9
  6
CONTINUOUS
 10
7.0473183383
 20
10.0467821599
 40
0.5085759512
100
AcDbArc
 50
112.6697234315
 51
157.3302765685
  0
ARC
  5
3A4
100
AcDbEntity
  8
0
100
AcDbCircle
 62
9
  6
CONTINUOUS
 10
7.0473183383
 20
10.0467821599
 40
0.5085759512
100
AcDbArc
 50
202.6697234315
 51
247.3302765685
  0
CIRCLE
  5
3A5
100
AcDbEntity
  8
0
100
AcDbCircle
 62
7
  6
CONTINUOUS
 10
7.0473183383
 20
10.0467821599
 40
0.5011757426
  0
CIRCLE
  5
3A6
100
AcDbEntity
  8
0
100
AcDbCircle
 62
9
  6
CONTINUOUS
 10
7.0473183383
 20
10.0467821599
 40
0.4694581761
  0
ARC
  5
3A7
100
AcDbEntity
  8
0
100
AcDbCircle
 62
9
  6
CONTINUOUS
 10
7.0473183558
 20
10.0467821065
 40
0.3241654991
100
AcDbArc
 50
179.9999905557
 51
0.0000094443
  0
ARC
  5
3A8
100
AcDbEntity
  8
0
100
AcDbCircle
 62
7
  6
CONTINUOUS
 10
8.230030998
 20
10.3592821599
 40
0.03
100
AcDbArc
 50
4.5033617277
 51
180.0
  0
ARC
  5
3A9
100
AcDbEntity
  8
0
100
AcDbCircle
 62
7
  6
CONTINUOUS
 10
8.230030998
 20
9.7342821599
 40
0.03
100
AcDbArc
 50
180.0
 51
355.4966382723
  0
ARC
  5
3AA
100
AcDbEntity
  8
0
100
AcDbCircle
 62
7
  6
CONTINUOUS
 10
9.8323183383
 20
10.0467821599
 40
4.01
100
AcDbArc
 50
175.4966382723
 51
184.5033617277
  0
ARC
  5
3AB
100
AcDbEntity
  8
0
100
AcDbCircle
 62
7
  6
CONTINUOUS
 10
7.0473183383
 20
12.8317821599
 40
4.01
100
AcDbArc
 50
265.4966382723
 51
274.5033617277
  0
ARC
  5
3AC
100
AcDbEntity
  8
0
100
AcDbCircle
 62
7
  6
CONTINUOUS
 10
7.3598183383
 20
11.2294948196
 40
0.03
100
AcDbArc
 50
270.0
 51
85.4966382723
  0
ARC
  5
3AD
100
AcDbEntity
  8
0
100
AcDbCircle
 62
9
  6
CONTINUOUS
 10
42.7512693007
 20
8.2154282832
 40
31.2170657681
100
AcDbArc
 50
184.5524383862
 51
185.3784203502
  0
ARC
  5
3AE
100
AcDbEntity
  8
0
100
AcDbCircle
 62
7
  6
CONTINUOUS
 10
15.0473183383
 20
7.2617821599
 40
4.01
100
AcDbArc
 50
85.4966382723
 51
94.5033617277
  0
ARC
  5
3AF
100
AcDbEntity
  8
0
100
AcDbCircle
 62
9
  6
CONTINUOUS
 10
11.0477109872
 20
4.7588917107
 40
1.0910102204
100
AcDbArc
 50
269.9793795477
 51
277.8381875555
  0
ARC
  5
3B0
100
AcDbEntity
  8
0
100
AcDbCircle
 62
7
  6
CONTINUOUS
 10
11.3538781527
 20
4.2123093167
 40
0.486900454
100
AcDbArc
 50
27.6043641387
 51
29.2187205289
  0
ARC
  5
3B1
100
AcDbEntity
  8
0
100
AcDbCircle
 62
7
  6
CONTINUOUS
 10
11.3662638951
 20
4.2187187271
 40
0.4729547186
100
AcDbArc
 50
24.3573777933
 51
27.6115461924
  0
ARC
  5
3B2
100
AcDbEntity
  8
0
100
AcDbCircle
 62
7
  6
CONTINUOUS
 10
11.3810521863
 20
4.2254094661
 40
0.4567232821
100
AcDbArc
 50
18.2632359428
 51
24.3578654699
  0
ARC
  5
3B3
100
AcDbEntity
  8
0
100
AcDbCircle
 62
7
  6
CONTINUOUS
 10
11.4048591328
 20
4.2332326692
 40
0.4316639095
100
AcDbArc
 50
11.9252285405
 51
18.2674268149
  0
ARC
  5
3B4
100
AcDbEntity
  8
0
100
AcDbCircle
 62
7
  6
CONTINUOUS
 10
11.4161389903
 20
4.2354934936
 40
0.4201603441
100
AcDbArc
 50
0.2565085423
 51
11.9414264396
  0
ARC
  5
3B5
100
AcDbEntity
  8
0
100
AcDbCircle
 62
9
  6
CONTINUOUS
 10
11.4173184847
 20
4.2360929271
 40
0.4189785992
100
AcDbArc
 50
346.8937837155
 51
0.1752584613
  0
ARC
  5
3B6
100
AcDbEntity
  8
0
100
AcDbCircle
 62
7
  6
CONTINUOUS
 10
12.2623183383
 20
10.0467821599
 40
4.01
100
AcDbArc
 50
355.4966382723
 51
4.5033617277
  0
ARC
  5
3B7
100
AcDbEntity
  8
0
100
AcDbCircle
 62
7
  6
CONTINUOUS
 10
11.0473183383
 20
10.0467821599
 40
1.25
100
AcDbArc
 50
296.2973691725
 51
243.7517000239
  0
ARC
  5
3B8
100
AcDbEntity
  8
0
100
AcDbCircle
 62
9
  6
CONTINUOUS
 10
11.0473183383
 20
10.0467821599
 40
1.2161755231
100
AcDbArc
 50
297.388792322
 51
242.6606243037
  0
ARC
  5
3B9
100
AcDbEntity
  8
0
100
AcDbCircle
 62
9
  6
CONTINUOUS
 10
11.0473183383
 20
10.0467821599
 40
1.1308126136
100
AcDbArc
 50
300.617186783
 51
239.4335776692
  0
ARC
  5
3BA
100
AcDbEntity
  8
0
100
AcDbCircle
 62
9
  6
CONTINUOUS
 10
11.0473183383
 20
10.0467821599
 40
0.8788116099
100
AcDbArc
 50
321.1882205108
 51
218.8391069362
  0
ARC
  5
3BB
100
AcDbEntity
  8
0
100
AcDbCircle
 62
7
  6
CONTINUOUS
 10
11.0473183383
 20
10.0467821599
 40
0.8649471413
100
AcDbArc
 50
321.2980455021
 51
218.7014981463
  0
CIRCLE
  5
3BC
100
AcDbEntity
  8
0
100
AcDbCircle
 62
7
  6
CONTINUOUS
 10
11.0473183383
 20
10.0467821599
 40
0.825
  0
CIRCLE
  5
3BD
100
AcDbEntity
  8
0
100
AcDbCircle
 62
9
  6
CONTINUOUS
 10
11.0473183383
 20
10.0467821599
 40
0.725
  0
CIRCLE
  5
3BE
100
AcDbEntity
  8
0
100
AcDbCircle
 62
9
  6
CONTINUOUS
 10
11.0473183383
 20
10.0467821599
 40
0.6315
  0
CIRCLE
  5
3BF
100
AcDbEntity
  8
0
100
AcDbCircle
 62
7
  6
CONTINUOUS
 10
11.0473183383
 20
10.0467821599
 40
0.5
  0
CIRCLE
  5
3C0
100
AcDbEntity
  8
0
100
AcDbCircle
 62
7
  6
CONTINUOUS
 10
11.0473183383
 20
10.0467821599
 40
0.478913852
  0
CIRCLE
  5
3C1
100
AcDbEntity
  8
0
100
AcDbCircle
 62
9
  6
CONTINUOUS
 10
11.0473183383
 20
10.0467821599
 40
0.4513477852
  0
CIRCLE
  5
3C2
100
AcDbEntity
  8
0
100
AcDbCircle
 62
9
  6
CONTINUOUS
 10
11.0473183383
 20
10.0467821599
 40
0.3284456645
  0
ARC
  5
3C3
100
AcDbEntity
  8
0
100
AcDbCircle
 62
7
  6
CONTINUOUS
 10
13.8646056786
 20
9.7342821599
 40
0.03
100
AcDbArc
 50
184.5033617277
 51
360.0
  0
ARC
  5
3C4
100
AcDbEntity
  8
0
100
AcDbCircle
 62
7
  6
CONTINUOUS
 10
13.8646056786
 20
10.3592821599
 40
0.03
100
AcDbArc
 50
0.0
 51
175.4966382723
  0
ARC
  5
3C5
100
AcDbEntity
  8
0
100
AcDbCircle
 62
7
  6
CONTINUOUS
 10
15.3598183383
 20
8.8640695002
 40
0.03
100
AcDbArc
 50
274.5033617277
 51
90.0
  0
ARC
  5
3C6
100
AcDbEntity
  8
0
100
AcDbCircle
 62
7
  6
CONTINUOUS
 10
14.7348183383
 20
8.8640695002
 40
0.03
100
AcDbArc
 50
90.0
 51
265.4966382723
  0
ARC
  5
3C7
100
AcDbEntity
  8
0
100
AcDbCircle
 62
9
  6
CONTINUOUS
 10
15.0473183558
 20
10.0467821065
 40
0.3241654991
100
AcDbArc
 50
179.9999906498
 51
0.0000094443
  0
ARC
  5
3C8
100
AcDbEntity
  8
0
100
AcDbCircle
 62
7
  6
CONTINUOUS
 10
15.0473183383
 20
10.0467821599
 40
1.1355877937
100
AcDbArc
 50
194.1922940144
 51
255.8123462771
  0
ARC
  5
3C9
100
AcDbEntity
  8
0
100
AcDbCircle
 62
7
  6
CONTINUOUS
 10
15.0473183383
 20
10.0467821599
 40
1.1355877937
100
AcDbArc
 50
284.1877414261
 51
345.8078444831
  0
ARC
  5
3CA
100
AcDbEntity
  8
0
100
AcDbCircle
 62
7
  6
CONTINUOUS
 10
15.0473183383
 20
10.0467821599
 40
1.1355877937
100
AcDbArc
 50
14.1922940144
 51
75.8123462771
  0
ARC
  5
3CB
100
AcDbEntity
  8
0
100
AcDbCircle
 62
7
  6
CONTINUOUS
 10
15.0473183383
 20
10.0467821599
 40
1.1355877937
100
AcDbArc
 50
104.1877414261
 51
165.8078444831
  0
ARC
  5
3CC
100
AcDbEntity
  8
0
100
AcDbCircle
 62
9
  6
CONTINUOUS
 10
15.0473183383
 20
10.0467821599
 40
1.1018951051
100
AcDbArc
 50
194.3926286025
 51
255.6073706806
  0
ARC
  5
3CD
100
AcDbEntity
  8
0
100
AcDbCircle
 62
9
  6
CONTINUOUS
 10
15.0473183383
 20
10.0467821599
 40
1.1018951051
100
AcDbArc
 50
284.3926300393
 51
345.6073689491
  0
ARC
  5
3CE
100
AcDbEntity
  8
0
100
AcDbCircle
 62
9
  6
CONTINUOUS
 10
15.0473183383
 20
10.0467821599
 40
1.1018951051
100
AcDbArc
 50
14.3926286025
 51
75.6073706806
  0
ARC
  5
3CF
100
AcDbEntity
  8
0
100
AcDbCircle
 62
9
  6
CONTINUOUS
 10
15.0473183383
 20
10.0467821599
 40
1.1018951051
100
AcDbArc
 50
104.3926300393
 51
165.6073689491
  0
ARC
  5
3D0
100
AcDbEntity
  8
0
100
AcDbCircle
 62
9
  6
CONTINUOUS
 10
15.0473183383
 20
10.0467821599
 40
1.0686940646
100
AcDbArc
 50
104.6230652284
 51
165.3883902462
  0
ARC
  5
3D1
100
AcDbEntity
  8
0
100
AcDbCircle
 62
9
  6
CONTINUOUS
 10
15.0473183383
 20
10.0467821599
 40
1.0686940646
100
AcDbArc
 50
14.6116097538
 51
75.3769347716
  0
ARC
  5
3D2
100
AcDbEntity
  8
0
100
AcDbCircle
 62
9
  6
CONTINUOUS
 10
15.0473183383
 20
10.0467821599
 40
1.0686940646
100
AcDbArc
 50
194.6116097538
 51
255.3769347716
  0
ARC
  5
3D3
100
AcDbEntity
  8
0
100
AcDbCircle
 62
9
  6
CONTINUOUS
 10
15.0473183383
 20
10.0467821599
 40
1.0686940646
100
AcDbArc
 50
284.6230652284
 51
345.3883902462
  0
ARC
  5
3D4
100
AcDbEntity
  8
0
100
AcDbCircle
 62
9
  6
CONTINUOUS
 10
15.0473183383
 20
10.0467821599
 40
0.9981262705
100
AcDbArc
 50
105.1185056486
 51
164.8814960424
  0
ARC
  5
3D5
100
AcDbEntity
  8
0
100
AcDbCircle
 62
9
  6
CONTINUOUS
 10
15.0473183383
 20
10.0467821599
 40
0.9981262705
100
AcDbArc
 50
15.118507239
 51
74.8814947846
  0
ARC
  5
3D6
100
AcDbEntity
  8
0
100
AcDbCircle
 62
9
  6
CONTINUOUS
 10
15.0473183383
 20
10.0467821599
 40
0.9981262705
100
AcDbArc
 50
285.1185056486
 51
344.8814960424
  0
ARC
  5
3D7
100
AcDbEntity
  8
0
100
AcDbCircle
 62
9
  6
CONTINUOUS
 10
15.0473183383
 20
10.0467821599
 40
0.9981262705
100
AcDbArc
 50
195.118507239
 51
254.8814947846
  0
ARC
  5
3D8
100
AcDbEntity
  8
0
100
AcDbCircle
 62
9
  6
CONTINUOUS
 10
15.0473183383
 20
10.0467821599
 40
0.9302280237
100
AcDbArc
 50
15.6802629093
 51
74.3197355094
  0
ARC
  5
3D9
100
AcDbEntity
  8
0
100
AcDbCircle
 62
9
  6
CONTINUOUS
 10
15.0473183383
 20
10.0467821599
 40
0.9302280237
100
AcDbArc
 50
105.6802641594
 51
164.3197352602
  0
ARC
  5
3DA
100
AcDbEntity
  8
0
100
AcDbCircle
 62
9
  6
CONTINUOUS
 10
15.0473183383
 20
10.0467821599
 40
0.9302280237
100
AcDbArc
 50
195.6802629093
 51
254.3197355094
  0
ARC
  5
3DB
100
AcDbEntity
  8
0
100
AcDbCircle
 62
9
  6
CONTINUOUS
 10
15.0473183383
 20
10.0467821599
 40
0.9302280237
100
AcDbArc
 50
285.6802641594
 51
344.3197352602
  0
ARC
  5
3DC
100
AcDbEntity
  8
0
100
AcDbCircle
 62
9
  6
CONTINUOUS
 10
15.0473183383
 20
10.0467821599
 40
0.7616485311
100
AcDbArc
 50
197.5214085898
 51
252.4570971308
  0
ARC
  5
3DD
100
AcDbEntity
  8
0
100
AcDbCircle
 62
9
  6
CONTINUOUS
 10
15.0473183383
 20
10.0467821599
 40
0.7616485311
100
AcDbArc
 50
287.5429028692
 51
342.4785914102
  0
ARC
  5
3DE
100
AcDbEntity
  8
0
100
AcDbCircle
 62
9
  6
CONTINUOUS
 10
15.0473183383
 20
10.0467821599
 40
0.7616485311
100
AcDbArc
 50
107.5429028692
 51
162.4785914102
  0
ARC
  5
3DF
100
AcDbEntity
  8
0
100
AcDbCircle
 62
9
  6
CONTINUOUS
 10
15.0473183383
 20
10.0467821599
 40
0.7616485311
100
AcDbArc
 50
17.5214085898
 51
72.4570971308
  0
ARC
  5
3E0
100
AcDbEntity
  8
0
100
AcDbCircle
 62
7
  6
CONTINUOUS
 10
15.0473183383
 20
10.0467821599
 40
0.6917203626
100
AcDbArc
 50
108.5657701953
 51
161.4371451753
  0
ARC
  5
3E1
100
AcDbEntity
  8
0
100
AcDbCircle
 62
7
  6
CONTINUOUS
 10
15.0473183383
 20
10.0467821599
 40
0.6917203626
100
AcDbArc
 50
18.5627145464
 51
71.4260499806
  0
ARC
  5
3E2
100
AcDbEntity
  8
0
100
AcDbCircle
 62
7
  6
CONTINUOUS
 10
15.0473183383
 20
10.0467821599
 40
0.6917203626
100
AcDbArc
 50
288.5657701953
 51
341.4371451753
  0
ARC
  5
3E3
100
AcDbEntity
  8
0
100
AcDbCircle
 62
7
  6
CONTINUOUS
 10
15.0473183383
 20
10.0467821599
 40
0.6917203626
100
AcDbArc
 50
198.5627145464
 51
251.4260499806
  0
ARC
  5
3E4
100
AcDbEntity
  8
0
100
AcDbCircle
 62
9
  6
CONTINUOUS
 10
15.0473183383
 20
10.0467821599
 40
0.5085759512
100
AcDbArc
 50
202.6697234315
 51
247.3302765685
  0
ARC
  5
3E5
100
AcDbEntity
  8
0
100
AcDbCircle
 62
9
  6
CONTINUOUS
 10
15.0473183383
 20
10.0467821599
 40
0.5085759512
100
AcDbArc
 50
112.6697234315
 51
157.3302765685
  0
ARC
  5
3E6
100
AcDbEntity
  8
0
100
AcDbCircle
 62
9
  6
CONTINUOUS
 10
15.0473183383
 20
10.0467821599
 40
0.5085759512
100
AcDbArc
 50
292.6697234315
 51
337.3302765685
  0
ARC
  5
3E7
100
AcDbEntity
  8
0
100
AcDbCircle
 62
9
  6
CONTINUOUS
 10
15.0473183383
 20
10.0467821599
 40
0.5085759512
100
AcDbArc
 50
22.6697234315
 51
67.3302765685
  0
CIRCLE
  5
3E8
100
AcDbEntity
  8
0
100
AcDbCircle
 62
7
  6
CONTINUOUS
 10
15.0473183383
 20
10.0467821599
 40
0.5011757426
  0
CIRCLE
  5
3E9
100
AcDbEntity
  8
0
100
AcDbCircle
 62
9
  6
CONTINUOUS
 10
15.0473183383
 20
10.0467821599
 40
0.4694581761
  0
ARC
  5
3EA
100
AcDbEntity
  8
0
100
AcDbCircle
 62
9
  6
CONTINUOUS
 10
15.0473183208
 20
10.0467822134
 40
0.3241654991
100
AcDbArc
 50
359.9999905557
 51
180.0000094443
  0
ARC
  5
3EB
100
AcDbEntity
  8
0
100
AcDbCircle
 62
7
  6
CONTINUOUS
 10
16.230030998
 20
9.7342821599
 40
0.03
100
AcDbArc
 50
180.0
 51
355.4966382723
  0
ARC
  5
3EC
100
AcDbEntity
  8
0
100
AcDbCircle
 62
7
  6
CONTINUOUS
 10
16.230030998
 20
10.3592821599
 40
0.03
100
AcDbArc
 50
4.5033617277
 51
180.0
  0
ARC
  5
3ED
100
AcDbEntity
  8
0
100
AcDbCircle
 62
7
  6
CONTINUOUS
 10
17.8323183383
 20
10.0467821599
 40
4.01
100
AcDbArc
 50
175.4966382723
 51
184.5033617277
  0
ARC
  5
3EE
100
AcDbEntity
  8
0
100
AcDbCircle
 62
7
  6
CONTINUOUS
 10
15.0473183383
 20
12.8317821599
 40
4.01
100
AcDbArc
 50
265.4966382723
 51
274.5033617277
  0
ARC
  5
3EF
100
AcDbEntity
  8
0
100
AcDbCircle
 62
7
  6
CONTINUOUS
 10
14.7348183383
 20
11.2294948196
 40
0.03
100
AcDbArc
 50
94.5033617277
 51
270.0
  0
ARC
  5
3F0
100
AcDbEntity
  8
0
100
AcDbCircle
 62
7
  6
CONTINUOUS
 10
15.3598183383
 20
11.2294948196
 40
0.03
100
AcDbArc
 50
270.0
 51
85.4966382723
  0
SPLINE
  5
3F1
100
AcDbEntity
  8
0
100
AcDbSpline
 62
9
  6
CONTINUOUS
 70
0
 71
3
 72
30
 73
26
 74
0
 42
0.0000001
 43
0.0000001
 44
0.0000000001
 40
0.0
 40
0.0
 40
0.0
 40
0.0
 40
0.0079171788
 40
0.0159807769
 40
0.0244240488
 40
0.0334869609
 40
0.0434101253
 40
0.0544571417
 40
0.0668822046
 40
0.0809209567
 40
0.0967790931
 40
0.1146128326
 40
0.1345493055
 40
0.1566991427
 40
0.1811467736
 40
0.2079091064
 40
0.2369807009
 40
0.2683506113
 40
0.3378216623
 40
0.4156738272
 40
0.5010703841
 40
0.5929220989
 40
0.6900463011
 40
0.7911509575
 40
1.0
 40
1.0
 40
1.0
 40
1.0
 10
11.6718916011
 20
5.286702155
 30
0.0
 10
11.6718916011
 20
5.2849996336
 30
0.0
 10
11.6715749378
 20
5.2815538921
 30
0.0
 10
11.6701005551
 20
5.2764810378
 30
0.0
 10
11.6675905987
 20
5.2715537975
 30
0.0
 10
11.6640157049
 20
5.2668275017
 30
0.0
 10
11.6593365492
 20
5.2623413106
 30
0.0
 10
11.6534947941
 20
5.258130276
 30
0.0
 10
11.6464241034
 20
5.2542154842
 30
0.0
 10
11.6380550316
 20
5.2506089209
 30
0.0
 10
11.6283217266
 20
5.2473229456
 30
0.0
 10
11.6171740654
 20
5.2443448357
 30
0.0
 10
11.6045651948
 20
5.2416678074
 30
0.0
 10
11.5904537211
 20
5.2392866118
 30
0.0
 10
11.5748148396
 20
5.2371971156
 30
0.0
 10
11.5576453945
 20
5.2353780054
 30
0.0
 10
11.5389572468
 20
5.2338118525
 30
0.0
 10
11.511079815
 20
5.2319770001
 30
0.0
 10
11.4726855388
 20
5.2303053563
 30
0.0
 10
11.4226550374
 20
5.229063753
 30
0.0
 10
11.3678009671
 20
5.2283912262
 30
0.0
 10
11.3087996481
 20
5.2281518497
 30
0.0
 10
11.2464201862
 20
5.2282121925
 30
0.0
 10
11.1588821482
 20
5.2285164529
 30
0.0
 10
11.0922295336
 20
5.2287837565
 30
0.0
 10
11.0473183383
 20
5.2287837565
 30
0.0
  0
SPLINE
  5
3F2
100
AcDbEntity
  8
0
100
AcDbSpline
 62
9
  6
CONTINUOUS
 70
0
 71
3
 72
17
 73
13
 74
0
 42
0.0000001
 43
0.0000001
 44
0.0000000001
 40
0.0
 40
0.0
 40
0.0
 40
0.0
 40
0.2724938684
 40
0.4093610176
 40
0.476860504
 40
0.5433138085
 40
0.6718009638
 40
0.7923090799
 40
0.8488115393
 40
0.9024323269
 40
0.9529131372
 40
1.0
 40
1.0
 40
1.0
 40
1.0
 10
11.6718916011
 20
5.286702155
 30
0.0
 10
11.6792427443
 20
5.2088982306
 30
0.0
 10
11.6903707294
 20
5.092022657
 30
0.0
 10
11.7041356172
 20
4.9559543073
 30
0.0
 10
11.7122995277
 20
4.8787140515
 30
0.0
 10
11.7204789004
 20
4.8038926681
 30
0.0
 10
11.7308726014
 20
4.7140206661
 30
0.0
 10
11.7419478873
 20
4.6271043121
 30
0.0
 10
11.7511327773
 20
4.5615998843
 30
0.0
 10
11.7579799565
 20
4.5160499555
 30
0.0
 10
11.7649309683
 20
4.4732492379
 30
0.0
 10
11.7698118894
 20
4.4456946262
 30
0.0
 10
11.7722889714
 20
4.432419381
 30
0.0
  0
SPLINE
  5
3F3
100
AcDbEntity
  8
0
100
AcDbSpline
 62
9
  6
CONTINUOUS
 70
0
 71
3
 72
19
 73
15
 74
0
 42
0.0000001
 43
0.0000001
 44
0.0000000001
 40
0.0
 40
0.0
 40
0.0
 40
0.0
 40
0.1891053576
 40
0.3607676982
 40
0.5141773351
 40
0.6487640062
 40
0.7089226749
 40
0.7643021695
 40
0.8149082445
 40
0.8607772527
 40
0.9020136802
 40
0.9387836195
 40
0.971327692
 40
1.0
 40
1.0
 40
1.0
 40
1.0
 10
11.7722889714
 20
4.432419381
 30
0.0
 10
11.7746874943
 20
4.4195651517
 30
0.0
 10
11.7794798377
 20
4.3950817641
 30
0.0
 10
11.7871123982
 20
4.3603526112
 30
0.0
 10
11.7948541831
 20
4.3295203814
 30
0.0
 10
11.8016234972
 20
4.3064074975
 30
0.0
 10
11.8071681794
 20
4.2900224606
 30
0.0
 10
11.8111981299
 20
4.2792615831
 30
0.0
 10
11.8152560437
 20
4.2695737239
 30
0.0
 10
11.8193441519
 20
4.2609688408
 30
0.0
 10
11.8234620032
 20
4.2534514962
 30
0.0
 10
11.827611591
 20
4.2470212565
 30
0.0
 10
11.8317950847
 20
4.2416783508
 30
0.0
 10
11.834788953
 20
4.2386637685
 30
0.0
 10
11.8362951238
 20
4.2373745125
 30
0.0
  0
SPLINE
  5
3F4
100
AcDbEntity
  8
0
100
AcDbSpline
 62
9
  6
CONTINUOUS
 70
0
 71
3
 72
20
 73
16
 74
0
 42
0.0000001
 43
0.0000001
 44
0.0000000001
 40
0.0
 40
0.0
 40
0.0
 40
0.0
 40
0.0620101708
 40
0.1240862684
 40
0.1862341913
 40
0.2484637117
 40
0.3107953477
 40
0.3732226404
 40
0.4357347713
 40
0.4983008895
 40
0.6234444303
 40
0.7488160055
 40
0.8115825663
 40
0.874375191
 40
1.0
 40
1.0
 40
1.0
 40
1.0
 10
11.8253832659
 20
4.1410866064
 30
0.0
 10
11.8215119895
 20
4.1244196437
 30
0.0
 10
11.8117525123
 20
4.0915022185
 30
0.0
 10
11.7915372105
 20
4.0441464522
 30
0.0
 10
11.7662757202
 20
3.9992156867
 30
0.0
 10
11.7365542852
 20
3.9570340882
 30
0.0
 10
11.7029631861
 20
3.9177776137
 30
0.0
 10
11.6660448046
 20
3.8815361361
 30
0.0
 10
11.626288994
 20
3.8483417987
 30
0.0
 10
11.5701081473
 20
3.8081164799
 30
0.0
 10
11.4948135023
 20
3.7652256382
 30
0.0
 10
11.4148959346
 20
3.7317663965
 30
0.0
 10
11.3490210813
 20
3.7103495839
 30
0.0
 10
11.2820479083
 20
3.692412782
 30
0.0
 10
11.2308376935
 20
3.6828087523
 30
0.0
 10
11.1964984598
 20
3.6780746174
 30
0.0
  0
SPLINE
  5
3F5
100
AcDbEntity
  8
0
100
AcDbSpline
 62
9
  6
CONTINUOUS
 70
0
 71
3
 72
30
 73
26
 74
0
 42
0.0000001
 43
0.0000001
 44
0.0000000001
 40
0.0
 40
0.0
 40
0.0
 40
0.0
 40
0.0079620198
 40
0.0163194865
 40
0.025305683
 40
0.0351405152
 40
0.0581426974
 40
0.0717278867
 40
0.0869376354
 40
0.1039248608
 40
0.122800297
 40
0.1436674583
 40
0.1666271308
 40
0.1917474253
 40
0.2190334955
 40
0.2484809693
 40
0.2800838779
 40
0.3495849079
 40
0.426923671
 40
0.5113138843
 40
0.6017184953
 40
0.6970177233
 40
0.7959893511
 40
0.8973939087
 40
1.0
 40
1.0
 40
1.0
 40
1.0
 10
11.5828189932
 20
6.4544466046
 30
0.0
 10
11.5827285242
 20
6.4559631189
 30
0.0
 10
11.5823016288
 20
6.4590619114
 30
0.0
 10
11.5809279876
 20
6.4637077925
 30
0.0
 10
11.5787766131
 20
6.4684429335
 30
0.0
 10
11.5746088705
 20
6.4752669067
 30
0.0
 10
11.5687605418
 20
6.482004749
 30
0.0
 10
11.5614526759
 20
6.488663051
 30
0.0
 10
11.5545763126
 20
6.4940643787
 30
0.0
 10
11.5465409655
 20
6.4995869649
 30
0.0
 10
11.5372874698
 20
6.5052130456
 30
0.0
 10
11.5267656853
 20
6.510916849
 30
0.0
 10
11.5149301712
 20
6.51666945
 30
0.0
 10
11.5017546348
 20
6.5224397416
 30
0.0
 10
11.4872341185
 20
6.5281995772
 30
0.0
 10
11.4713740347
 20
6.533913266
 30
0.0
 10
11.4476976456
 20
6.5416654089
 30
0.0
 10
11.414913593
 20
6.5509146406
 30
0.0
 10
11.3719418227
 20
6.5609709672
 30
0.0
 10
11.3246814469
 20
6.5700307867
 30
0.0
 10
11.2737373061
 20
6.5778876895
 30
0.0
 10
11.2197903046
 20
6.5843138714
 30
0.0
 10
11.1635687622
 20
6.5891293548
 30
0.0
 10
11.1058261799
 20
6.5921476138
 30
0.0
 10
11.0668963161
 20
6.592852914
 30
0.0
 10
11.0473183383
 20
6.592852914
 30
0.0
  0
SPLINE
  5
3F6
100
AcDbEntity
  8
0
100
AcDbSpline
 62
9
  6
CONTINUOUS
 70
0
 71
3
 72
21
 73
17
 74
0
 42
0.0000001
 43
0.0000001
 44
0.0000000001
 40
0.0
 40
0.0
 40
0.0
 40
0.0
 40
0.0620447983
 40
0.1241243908
 40
0.1862504709
 40
0.2484729037
 40
0.3108069841
 40
0.3732299999
 40
0.4357417098
 40
0.4982821638
 40
0.5608606578
 40
0.6234873875
 40
0.748836863
 40
0.8115981121
 40
0.8743844024
 40
1.0
 40
1.0
 40
1.0
 40
1.0
 10
10.2671962702
 20
4.1504153907
 30
0.0
 10
10.2707144111
 20
4.1335491284
 30
0.0
 10
10.2798338974
 20
4.1002078171
 30
0.0
 10
10.2992238589
 20
4.052146342
 30
0.0
 10
10.3238327474
 20
4.0064849032
 30
0.0
 10
10.3530574906
 20
3.9635647956
 30
0.0
 10
10.3862954502
 20
3.9235793681
 30
0.0
 10
10.4229944084
 20
3.8866467178
 30
0.0
 10
10.4626228343
 20
3.8528026385
 30
0.0
 10
10.5047205405
 20
3.8220243851
 30
0.0
 10
10.5489030951
 20
3.7942694703
 30
0.0
 10
10.6101477423
 20
3.7611737145
 30
0.0
 10
10.6743681603
 20
3.7337848941
 30
0.0
 10
10.7405275444
 20
3.7118631714
 30
0.0
 10
10.8078298179
 20
3.6934671136
 30
0.0
 10
10.8593208545
 20
3.6835775301
 30
0.0
 10
10.8938567822
 20
3.6786738747
 30
0.0
  0
SPLINE
  5
3F7
100
AcDbEntity
  8
0
100
AcDbSpline
 62
9
  6
CONTINUOUS
 70
0
 71
3
 72
30
 73
26
 74
0
 42
0.0000001
 43
0.0000001
 44
0.0000000001
 40
0.0
 40
0.0
 40
0.0
 40
0.0
 40
0.1026060692
 40
0.2040106057
 40
0.3029822145
 40
0.3982814263
 40
0.4886860249
 40
0.5730762303
 40
0.6504149908
 40
0.7199160235
 40
0.7515189355
 40
0.7809664138
 40
0.8082524896
 40
0.8333727909
 40
0.8563324711
 40
0.8771996406
 40
0.8960750853
 40
0.9130623194
 40
0.9282720769
 40
0.9418572745
 40
0.9648594712
 40
0.9746943092
 40
0.98368051
 40
0.9920379794
 40
1.0
 40
1.0
 40
1.0
 40
1.0
 10
11.0473183383
 20
6.592852914
 30
0.0
 10
11.027740366
 20
6.592852914
 30
0.0
 10
10.9888105133
 20
6.5921476142
 30
0.0
 10
10.931067947
 20
6.5891293569
 30
0.0
 10
10.8748464193
 20
6.584313876
 30
0.0
 10
10.8208994305
 20
6.5778876975
 30
0.0
 10
10.7699552999
 20
6.5700307987
 30
0.0
 10
10.7226949313
 20
6.5609709835
 30
0.0
 10
10.6797231647
 20
6.5509146613
 30
0.0
 10
10.646939113
 20
6.5416654334
 30
0.0
 10
10.6232627225
 20
6.5339132937
 30
0.0
 10
10.6074026366
 20
6.5281996068
 30
0.0
 10
10.5928821174
 20
6.5224397731
 30
0.0
 10
10.5797065772
 20
6.5166694831
 30
0.0
 10
10.5678710586
 20
6.5109168835
 30
0.0
 10
10.5573492692
 20
6.5052130814
 30
0.0
 10
10.5480957681
 20
6.4995870017
 30
0.0
 10
10.5400604153
 20
6.4940644163
 30
0.0
 10
10.5331840461
 20
6.4886630893
 30
0.0
 10
10.5258761724
 20
6.4820047879
 30
0.0
 10
10.5200278358
 20
6.4752669462
 30
0.0
 10
10.5158600848
 20
6.4684429734
 30
0.0
 10
10.5137087042
 20
6.4637078329
 30
0.0
 10
10.5123350567
 20
6.4590619525
 30
0.0
 10
10.511908157
 20
6.4559631602
 30
0.0
 10
10.5118176858
 20
6.4544466459
 30
0.0
  0
LINE
  5
3F8
100
AcDbEntity
  8
0
100
AcDbLine
 62
9
  6
CONTINUOUS
 10
10.4227450754
 20
5.286702155
 11
10.4229949863
 21
5.2893485229
  0
SPLINE
  5
3F9
100
AcDbEntity
  8
0
100
AcDbSpline
 62
9
  6
CONTINUOUS
 70
0
 71
3
 72
30
 73
26
 74
0
 42
0.0000001
 43
0.0000001
 44
0.0000000001
 40
0.0
 40
0.0
 40
0.0
 40
0.0
 40
0.2088490425
 40
0.3099536989
 40
0.4070779011
 40
0.4989296159
 40
0.5843261728
 40
0.6621783377
 40
0.7316493887
 40
0.7630192991
 40
0.7920908936
 40
0.8188532264
 40
0.8433008573
 40
0.8654506945
 40
0.8853871674
 40
0.9032209069
 40
0.9190790433
 40
0.9331177954
 40
0.9455428583
 40
0.9565898747
 40
0.9665130391
 40
0.9755759512
 40
0.9840192231
 40
0.9920828212
 40
1.0
 40
1.0
 40
1.0
 40
1.0
 10
11.0473183383
 20
5.2287837565
 30
0.0
 10
11.002407143
 20
5.2287837565
 30
0.0
 10
10.9357545284
 20
5.2285164529
 30
0.0
 10
10.8482164904
 20
5.2282121925
 30
0.0
 10
10.7858370285
 20
5.2281518497
 30
0.0
 10
10.7268357094
 20
5.2283912262
 30
0.0
 10
10.6719816391
 20
5.229063753
 30
0.0
 10
10.6219511378
 20
5.2303053563
 30
0.0
 10
10.5835568616
 20
5.2319770001
 30
0.0
 10
10.5556794297
 20
5.2338118525
 30
0.0
 10
10.5369912821
 20
5.2353780054
 30
0.0
 10
10.5198218369
 20
5.2371971156
 30
0.0
 10
10.5041829555
 20
5.2392866118
 30
0.0
 10
10.4900714818
 20
5.2416678074
 30
0.0
 10
10.4774626112
 20
5.2443448357
 30
0.0
 10
10.46631495
 20
5.2473229456
 30
0.0
 10
10.456581645
 20
5.2506089209
 30
0.0
 10
10.4482125731
 20
5.2542154842
 30
0.0
 10
10.4411418825
 20
5.258130276
 30
0.0
 10
10.4353001274
 20
5.2623413106
 30
0.0
 10
10.4306209717
 20
5.2668275017
 30
0.0
 10
10.4270460778
 20
5.2715537975
 30
0.0
 10
10.4245361214
 20
5.2764810378
 30
0.0
 10
10.4230617388
 20
5.2815538921
 30
0.0
 10
10.4227450754
 20
5.2849996336
 30
0.0
 10
10.4227450754
 20
5.286702155
 30
0.0
  0
SPLINE
  5
3FA
100
AcDbEntity
  8
0
100
AcDbSpline
 62
9
  6
CONTINUOUS
 70
0
 71
3
 72
17
 73
13
 74
0
 42
0.0000001
 43
0.0000001
 44
0.0000000001
 40
0.0
 40
0.0
 40
0.0
 40
0.0
 40
0.0864029295
 40
0.1810885117
 40
0.2317458619
 40
0.2847610617
 40
0.3403005342
 40
0.3985555084
 40
0.5241329399
 40
0.6640979765
 40
0.8216724506
 40
1.0
 40
1.0
 40
1.0
 40
1.0
 10
11.72221429
 20
9.5058154035
 30
0.0
 10
11.7126620859
 20
9.49389921
 30
0.0
 10
11.691587281
 20
9.4697545662
 30
0.0
 10
11.6621987904
 20
9.4411526962
 30
0.0
 10
11.6356526594
 20
9.4182368387
 30
0.0
 10
11.6135922047
 20
9.4007500061
 30
0.0
 10
11.5896984864
 20
9.3834578718
 30
0.0
 10
11.5543351943
 20
9.3602062271
 30
0.0
 10
11.5043531525
 20
9.3321428834
 30
0.0
 10
11.4359195773
 20
9.3017098392
 30
0.0
 10
11.3561031575
 20
9.2748058836
 30
0.0
 10
11.2982243725
 20
9.2611240191
 30
0.0
 10
11.2672622269
 20
9.2552179826
 30
0.0
  0
SPLINE
  5
3FB
100
AcDbEntity
  8
0
100
AcDbSpline
 62
9
  6
CONTINUOUS
 70
0
 71
3
 72
29
 73
25
 74
0
 42
0.0000001
 43
0.0000001
 44
0.0000000001
 40
0.0
 40
0.0
 40
0.0
 40
0.0
 40
0.0133807943
 40
0.0270869364
 40
0.0414172889
 40
0.0566297965
 40
0.0729350622
 40
0.0904910855
 40
0.1094133691
 40
0.1297853066
 40
0.1516634411
 40
0.1750749575
 40
0.2000286634
 40
0.2265215944
 40
0.284043349
 40
0.3473818453
 40
0.4161547055
 40
0.4898617092
 40
0.567938609
 40
0.6497432845
 40
0.7345940725
 40
0.8217599016
 40
0.9104873835
 40
1.0
 40
1.0
 40
1.0
 40
1.0
 10
11.5388183383
 20
7.919366814
 30
0.0
 10
11.5388182952
 20
7.921767562
 30
0.0
 10
11.5384106057
 20
7.9266364755
 30
0.0
 10
11.5365941807
 20
7.9338719492
 30
0.0
 10
11.533586544
 20
7.9410541392
 30
0.0
 10
11.5294037615
 20
7.948162724
 30
0.0
 10
11.5240605185
 20
7.9551831362
 30
0.0
 10
11.5175768841
 20
7.9621052018
 30
0.0
 10
11.5099701526
 20
7.9689173219
 30
0.0
 10
11.5012569608
 20
7.9756059445
 30
0.0
 10
11.491455631
 20
7.9821553022
 30
0.0
 10
11.4805905873
 20
7.9885531082
 30
0.0
 10
11.4686877118
 20
7.9947855207
 30
0.0
 10
11.4509789895
 20
8.0030826585
 30
0.0
 10
11.4263827333
 20
8.0128449766
 30
0.0
 10
11.3940147776
 20
8.0233850648
 30
0.0
 10
11.3583286161
 20
8.0329379229
 30
0.0
 10
11.3196644039
 20
8.0414198357
 30
0.0
 10
11.2783881549
 20
8.0487387975
 30
0.0
 10
11.2348946514
 20
8.0548311459
 30
0.0
 10
11.1896001447
 20
8.059629335
 30
0.0
 10
11.1429390815
 20
8.0630937124
 30
0.0
 10
11.0953598133
 20
8.0651832407
 30
0.0
 10
11.0633784633
 20
8.065649817
 30
0.0
 10
11.0473183383
 20
8.0656499014
 30
0.0
  0
SPLINE
  5
3FC
100
AcDbEntity
  8
0
100
AcDbSpline
 62
9
  6
CONTINUOUS
 70
0
 71
3
 72
17
 73
13
 74
0
 42
0.0000001
 43
0.0000001
 44
0.0000000001
 40
0.0
 40
0.0
 40
0.0
 40
0.0
 40
0.1781329151
 40
0.3355879518
 40
0.4755094391
 40
0.6011057652
 40
0.6593837613
 40
0.7149521023
 40
0.7680031212
 40
0.8187034562
 40
0.9134860225
 40
1.0
 40
1.0
 40
1.0
 40
1.0
 10
10.8251904557
 20
9.2556369143
 30
0.0
 10
10.7944010944
 20
9.2615759177
 30
0.0
 10
10.7368405635
 20
9.2753007027
 30
0.0
 10
10.6574576486
 20
9.3022101895
 30
0.0
 10
10.5893729927
 20
9.3326080381
 30
0.0
 10
10.5396301788
 20
9.3606158182
 30
0.0
 10
10.5044250246
 20
9.3838146906
 30
0.0
 10
10.4806320643
 20
9.4010660404
 30
0.0
 10
10.4586596982
 20
9.4185085459
 30
0.0
 10
10.4322089904
 20
9.4413622552
 30
0.0
 10
10.4029238872
 20
9.4698926394
 30
0.0
 10
10.3819170832
 20
9.4939704432
 30
0.0
 10
10.3723925547
 20
9.5058536337
 30
0.0
  0
SPLINE
  5
3FD
100
AcDbEntity
  8
0
100
AcDbSpline
 62
9
  6
CONTINUOUS
 70
0
 71
3
 72
17
 73
13
 74
0
 42
0.0000001
 43
0.0000001
 44
0.0000000001
 40
0.0
 40
0.0
 40
0.0
 40
0.0
 40
0.2725573175
 40
0.4094517584
 40
0.4769617168
 40
0.5434225616
 40
0.6719136464
 40
0.7924072849
 40
0.8488943099
 40
0.902493849
 40
0.9529471904
 40
1.0
 40
1.0
 40
1.0
 40
1.0
 10
10.4227450754
 20
5.286702155
 30
0.0
 10
10.4153878577
 20
5.2088339376
 30
0.0
 10
10.4042507423
 20
5.091863096
 30
0.0
 10
10.3904734622
 20
4.9556852407
 30
0.0
 10
10.3823020072
 20
4.8783863653
 30
0.0
 10
10.3741153172
 20
4.8035145204
 30
0.0
 10
10.3637123476
 20
4.7135904148
 30
0.0
 10
10.3526262206
 20
4.626630533
 30
0.0
 10
10.3434318844
 20
4.5611026186
 30
0.0
 10
10.3365779832
 20
4.5155446738
 30
0.0
 10
10.329620109
 20
4.4727430627
 30
0.0
 10
10.3247338521
 20
4.4451904543
 30
0.0
 10
10.3222539997
 20
4.4319175159
 30
0.0
  0
SPLINE
  5
3FE
100
AcDbEntity
  8
0
100
AcDbSpline
 62
9
  6
CONTINUOUS
 70
0
 71
3
 72
19
 73
15
 74
0
 42
0.0000001
 43
0.0000001
 44
0.0000000001
 40
0.0
 40
0.0
 40
0.0
 40
0.0
 40
0.1890774845
 40
0.3607142138
 40
0.5141031329
 40
0.648678499
 40
0.7088357569
 40
0.7642169245
 40
0.8148279508
 40
0.8607055087
 40
0.90195437
 40
0.9387405839
 40
0.9713045845
 40
1.0
 40
1.0
 40
1.0
 40
1.0
 10
10.3222539997
 20
4.4319175159
 30
0.0
 10
10.3198587442
 20
4.4190973669
 30
0.0
 10
10.3150729657
 20
4.3946790086
 30
0.0
 10
10.3074510247
 20
4.3600423467
 30
0.0
 10
10.2997201146
 20
4.3292921344
 30
0.0
 10
10.2929606112
 20
4.3062405271
 30
0.0
 10
10.287424166
 20
4.2898984444
 30
0.0
 10
10.2834001603
 20
4.2791651505
 30
0.0
 10
10.2793482666
 20
4.2695016572
 30
0.0
 10
10.2752662584
 20
4.260917851
 30
0.0
 10
10.2711546025
 20
4.2534182345
 30
0.0
 10
10.2670112997
 20
4.2470023687
 30
0.0
 10
10.2628341907
 20
4.2416704898
 30
0.0
 10
10.259845228
 20
4.2386616323
 30
0.0
 10
10.2583415527
 20
4.2373745125
 30
0.0
  0
LINE
  5
3FF
100
AcDbEntity
  8
0
100
AcDbLine
 62
9
  6
CONTINUOUS
 10
11.0473183383
 20
8.0656499014
 11
11.0443808089
 21
8.0656472967
  0
SPLINE
  5
400
100
AcDbEntity
  8
0
100
AcDbSpline
 62
9
  6
CONTINUOUS
 70
0
 71
3
 72
17
 73
13
 74
0
 42
0.0000001
 43
0.0000001
 44
0.0000000001
 40
0.0
 40
0.0
 40
0.0
 40
0.0
 40
0.1653629507
 40
0.32878589
 40
0.4854727576
 40
0.6306274164
 40
0.7594536803
 40
0.8671553339
 40
0.9115856122
 40
0.9489361574
 40
0.9786074518
 40
1.0
 40
1.0
 40
1.0
 40
1.0
 10
11.0443808089
 20
8.0656472967
 30
0.0
 10
11.0446648775
 20
8.1292441941
 30
0.0
 10
11.045154655
 20
8.2556922209
 30
0.0
 10
11.0457119411
 20
8.4424011186
 30
0.0
 10
11.0461258622
 20
8.6213383841
 30
0.0
 10
11.0464278746
 20
8.7869701871
 30
0.0
 10
11.0466499047
 20
8.9337626942
 30
0.0
 10
11.0468009806
 20
9.0418173123
 30
0.0
 10
11.0469170491
 20
9.1146909662
 30
0.0
 10
11.046997638
 20
9.1575546649
 30
0.0
 10
11.0470816785
 20
9.1915581647
 30
0.0
 10
11.0471506476
 20
9.2111968889
 30
0.0
 10
11.0471937397
 20
9.2194242131
 30
0.0
  0
LINE
  5
401
100
AcDbEntity
  8
0
100
AcDbLine
 62
9
  6
CONTINUOUS
 10
11.0471937397
 20
9.2194242131
 11
11.047212072
 21
9.2227263388
  0
SPLINE
  5
402
100
AcDbEntity
  8
0
100
AcDbSpline
 62
9
  6
CONTINUOUS
 70
0
 71
3
 72
28
 73
24
 74
0
 42
0.0000001
 43
0.0000001
 44
0.0000000001
 40
0.0
 40
0.0
 40
0.0
 40
0.0
 40
0.0896380126
 40
0.1784482001
 40
0.2656591036
 40
0.3505234064
 40
0.432315726
 40
0.5103606386
 40
0.584021941
 40
0.6527414109
 40
0.7160245988
 40
0.7734946025
 40
0.8248857131
 40
0.8482805183
 40
0.8701460284
 40
0.8905098358
 40
0.9094287565
 40
0.9269865547
 40
0.9432989329
 40
0.9585236948
 40
0.9728707941
 40
0.9865971223
 40
1.0
 40
1.0
 40
1.0
 40
1.0
 10
11.0443808089
 20
8.0656472967
 30
0.0
 10
11.0283861674
 20
8.0656188446
 30
0.0
 10
10.9965434713
 20
8.0650993792
 30
0.0
 10
10.9491827818
 20
8.0629416837
 30
0.0
 10
10.902757297
 20
8.05942091
 30
0.0
 10
10.8577097611
 20
8.0545783661
 30
0.0
 10
10.8144688893
 20
8.0484538678
 30
0.0
 10
10.7734454886
 20
8.041114682
 30
0.0
 10
10.7350285537
 20
8.0326242837
 30
0.0
 10
10.6995801083
 20
8.023073866
 30
0.0
 10
10.6674316309
 20
8.0125468262
 30
0.0
 10
10.6388814852
 20
8.001153812
 30
0.0
 10
10.6176776559
 20
7.9907141751
 30
0.0
 10
10.6028263599
 20
7.9819317477
 30
0.0
 10
10.5930972154
 20
7.9754023066
 30
0.0
 10
10.5844485367
 20
7.9687354388
 30
0.0
 10
10.5768985582
 20
7.9619462773
 30
0.0
 10
10.5704636253
 20
7.9550483644
 30
0.0
 10
10.5651607492
 20
7.9480531936
 30
0.0
 10
10.5610097562
 20
7.9409708594
 30
0.0
 10
10.558025205
 20
7.9338157886
 30
0.0
 10
10.5562228665
 20
7.9266081502
 30
0.0
 10
10.5558183812
 20
7.9217583728
 30
0.0
 10
10.5558183383
 20
7.9193668142
 30
0.0
  0
LINE
  5
403
100
AcDbEntity
  8
0
100
AcDbLine
 62
9
  6
CONTINUOUS
 10
11.6718916011
 20
5.286702155
 11
11.6716417043
 21
5.289348374
  0
ENDSEC
  0
SECTION
  2
OBJECTS
  0
DICTIONARY
  5
C
100
AcDbDictionary
280
0
281
1
  3
ACAD_GROUP
350
D
  3
ACAD_MLINESTYLE
350
17
  3
ACAD_LAYOUT
350
1A
  3
ACAD_PLOTSETTINGS
350
19
  3
ACAD_PLOTSTYLENAME
350
E
  0
DICTIONARY
  5
D
102
{ACAD_REACTORS
330
C
102
}
100
AcDbDictionary
280
0
281
1
  0
ACDBDICTIONARYWDFLT
  5
E
102
{ACAD_REACTORS
330
C
102
}
100
AcDbDictionary
281
1
  3
Normal
350
F
100
AcDbDictionaryWithDefault
340
F
  0
DICTIONARY
  5
17
102
{ACAD_REACTORS
330
C
102
}
100
AcDbDictionary
280
0
281
1
  3
Standard
350
18
  0
DICTIONARY
  5
19
102
{ACAD_REACTORS
330
C
102
}
100
AcDbDictionary
281
1
  0
DICTIONARY
  5
1A
102
{ACAD_REACTORS
330
C
102
}
100
AcDbDictionary
281
1
  3
Model
350
404
  3
Layout1
350
405
  0
ACDBPLACEHOLDER
  5
F
102
{ACAD_REACTORS
330
E
102
}
  0
MLINESTYLE
  5
18
102
{ACAD_REACTORS
330
17
102
}
100
AcDbMlineStyle
  2
STANDARD
 70
0
  3

 62
256
 51
90.0
 52
90.0
 71
2
 49
0.5
 62
256
  6
BYLAYER
 49
-0.5
 62
256
  6
BYLAYER
  0
LAYOUT
  5
404
102
{ACAD_REACTORS
330
1A
102
}
100
AcDbPlotSettings
  1

  2
none_device
  4
ANSI_C_(22.00_x_17.00_Inches)
  6

 40
0.0
 41
0.0
 42
0.0
 43
0.0
 44
558.8
 45
431.8
 46
0.0
 47
0.0
 48
0.0
 49
0.0
140
0.0
141
0.0
142
1.0
143
1.0
 70
1024
 72
0
 73
0
 74
0
  7

 75
0
147
1.0
148
0.0
149
0.0
100
AcDbLayout
  1
Model
 70
0
 71
0
 10
0.0
 20
0.0
 11
22.0
 21
17.0
 12
0.0
 22
0.0
 32
0.0
 14
0.0
 24
0.0
 34
0.0
 15
0.0
 25
0.0
 35
0.0
146
0.0
 13
0.0
 23
0.0
 33
0.0
 16
1.0
 26
0.0
 36
0.0
 17
0.0
 27
1.0
 37
0.0
 76
0
330
202
345
0
346
0
  0
LAYOUT
  5
405
102
{ACAD_REACTORS
330
1A
102
}
100
AcDbPlotSettings
  1

  2
none_device
  4
ANSI_C_(22.00_x_17.00_Inches)
  6

 40
0.0
 41
0.0
 42
0.0
 43
0.0
 44
558.8
 45
431.8
 46
0.0
 47
0.0
 48
0.0
 49
0.0
140
0.0
141
0.0
142
1.0
143
1.0
 70
0
 72
0
 73
0
 74
0
  7

 75
0
147
1.0
148
0.0
149
0.0
100
AcDbLayout
  1
Layout1
 70
0
 71
1
 10
0.0
 20
0.0
 11
22.0
 21
17.0
 12
0.0
 22
0.0
 32
0.0
 14
0.0
 24
0.0
 34
0.0
 15
0.0
 25
0.0
 35
0.0
146
0.0
 13
0.0
 23
0.0
 33
0.0
 16
1.0
 26
0.0
 36
0.0
 17
0.0
 27
1.0
 37
0.0
 76
0
330
203
345
0
346
0
  0
ENDSEC
  0
EOF
