999
DXF file: E:\BT Custom\CADOUTPUT\_RIGHT.dxf
999
Pro/ENGINEER 2018400 by Parametric Technology Corporation
  0
SECTION
  2
HEADER
  9
$ACADVER
  1
AC1018
  9
$DWGCODEPAGE
  3
ANSI_1252
  9
$EXTMAX
 10
22.0
 20
17.0
 30
0.0
  9
$EXTMIN
 10
0.0
 20
0.0
 30
0.0
  9
$LIMMIN
 10
0.0
 20
0.0
  9
$LIMMAX
 10
22.0
 20
17.0
  9
$VIEWCTR
 10
11.0
 20
8.5
  9
$VIEWSIZE
 40
17.0
  9
$CLAYER
  8
0
  9
$LTSCALE
 40
1.21
  9
$CELTYPE
  6
BYLAYER
  9
$DIMSCALE
 40
1.0
  9
$DIMASZ
 40
0.1
  9
$DIMEXO
 40
0.0625
  9
$DIMDLI
 40
0.836
  9
$DIMEXE
 40
0.125
  9
$DIMCEN
 40
0.198
  9
$DIMLFAC
 40
1.0
  9
$DIMBLK
  1
_FILLED
  9
$DIMALT
 70
1
  9
$DIMALTD
 70
2
  9
$DIMALTTD
 70
2
  9
$DIMALTF
 40
25.4
  9
$DIMTXT
 40
0.08
  9
$DIMTOL
 70
1
  9
$DIMLIM
 70
0
  9
$DIMTFAC
 40
1.0
  9
$DIMTP
 40
0.001
  9
$DIMTM
 40
0.001
  9
$DIMGAP
 40
0.09
  9
$DIMDSEP
 70
46
  9
$AUNITS
 70
0
  9
$PDMODE
 70
3
  9
$PDSIZE
 40
0.06
  9
$HANDSEED
  5
513
  9
$TILEMODE
 70
1
  9
$MEASUREMENT
 70
0
  9
$INSUNITS
 70
1
  0
ENDSEC
  0
SECTION
  2
CLASSES
  0
CLASS
  1
ACDBDICTIONARYWDFLT
  2
AcDbDictionaryWithDefault
  3
AutoCAD 2000
 90
0
 91
1
280
0
281
0
  0
CLASS
  1
ACDBPLACEHOLDER
  2
AcDbPlaceHolder
  3
AutoCAD 2000
 90
0
 91
1
280
0
281
0
  0
CLASS
  1
LAYOUT
  2
AcDbLayout
  3
AutoCAD 2000
 90
0
 91
0
280
0
281
0
  0
ENDSEC
  0
SECTION
  2
TABLES
  0
TABLE
  2
VPORT
  5
8
100
AcDbSymbolTable
 70
2
  0
VPORT
  5
1F4
100
AcDbSymbolTableRecord
100
AcDbViewportTableRecord
  2
*ACTIVE
 70
0
 10
0.0
 20
0.0
 11
1.0
 21
1.0
 12
11.0
 22
8.5
 13
0.0
 23
0.0
 14
1.0
 24
1.0
 15
0.0
 25
0.0
 16
0.0
 26
0.0
 36
1.0
 17
0.0
 27
0.0
 37
0.0
 40
17.0
 41
1.2941176471
 42
50.0
 43
0.0
 44
0.0
 50
0.0
 51
0.0
 71
0
 72
100
 73
1
 74
1
 75
0
 76
0
 77
0
 78
0
  0
ENDTAB
  0
TABLE
  2
LTYPE
  5
5
100
AcDbSymbolTable
 70
6
  0
LTYPE
  5
14
100
AcDbSymbolTableRecord
100
AcDbLinetypeTableRecord
  2
BYBLOCK
 70
0
  3

 72
65
 73
0
 40
0.0
  0
LTYPE
  5
15
100
AcDbSymbolTableRecord
100
AcDbLinetypeTableRecord
  2
BYLAYER
 70
0
  3

 72
65
 73
0
 40
0.0
  0
LTYPE
  5
16
100
AcDbSymbolTableRecord
100
AcDbLinetypeTableRecord
  2
CONTINUOUS
 70
64
  3
Solid line
 72
65
 73
0
 40
0.0
  0
LTYPE
  5
1F5
100
AcDbSymbolTableRecord
100
AcDbLinetypeTableRecord
  2
CENTER
 70
64
  3
____ _ ____ _ ____ _ ____ _ ____ _ ____ _ ____
 72
65
 73
4
 40
0.6
 49
0.375
 74
0
 49
-0.075
 74
0
 49
0.075
 74
0
 49
-0.075
 74
0
  0
LTYPE
  5
1F6
100
AcDbSymbolTableRecord
100
AcDbLinetypeTableRecord
  2
HIDDEN
 70
64
  3
- - - - - - - - - - - - - - - - - - - -
 72
65
 73
2
 40
0.2
 49
0.1
 74
0
 49
-0.1
 74
0
  0
LTYPE
  5
1F7
100
AcDbSymbolTableRecord
100
AcDbLinetypeTableRecord
  2
PHANTOM
 70
64
  3
_____ _ _ _____ _ _ _____ _ _ _____
 72
65
 73
6
 40
0.8
 49
0.45
 74
0
 49
-0.05
 74
0
 49
0.1
 74
0
 49
-0.05
 74
0
 49
0.1
 74
0
 49
-0.05
 74
0
  0
LTYPE
  5
1F8
100
AcDbSymbolTableRecord
100
AcDbLinetypeTableRecord
  2
DOT
 70
64
  3
. . . . . . . . . . . . . . . . . . . .
 72
65
 73
2
 40
0.2
 49
0.1
 74
0
 49
-0.1
 74
0
  0
LTYPE
  5
1F9
100
AcDbSymbolTableRecord
100
AcDbLinetypeTableRecord
  2
DASHED
 70
64
  3
- - - - - - - - - - - - - - - - - - - -
 72
65
 73
2
 40
0.2
 49
0.1
 74
0
 49
-0.1
 74
0
  0
ENDTAB
  0
TABLE
  2
LAYER
  5
2
100
AcDbSymbolTable
 70
36
  0
LAYER
  5
10
100
AcDbSymbolTableRecord
100
AcDbLayerTableRecord
  2
0
 70
0
 62
7
  6
CONTINUOUS
370
-3
390
F
  0
LAYER
  5
1FA
100
AcDbSymbolTableRecord
100
AcDbLayerTableRecord
  2
DEFAULT_1
 70
0
 62
7
  6
CENTER
370
-3
390
F
  0
LAYER
  5
1FB
100
AcDbSymbolTableRecord
100
AcDbLayerTableRecord
  2
DEFAULT_2
 70
0
 62
8
  6
HIDDEN
370
-3
390
F
  0
LAYER
  5
1FC
100
AcDbSymbolTableRecord
100
AcDbLayerTableRecord
  2
DEFAULT_3
 70
0
 62
7
  6
PHANTOM
370
-3
390
F
  0
LAYER
  5
1FD
100
AcDbSymbolTableRecord
100
AcDbLayerTableRecord
  2
ALL_FEATURES
 70
0
 62
7
  6
CONTINUOUS
370
-3
390
F
  0
LAYER
  5
1FE
100
AcDbSymbolTableRecord
100
AcDbLayerTableRecord
  2
AXES_FEATURES
 70
0
 62
7
  6
CONTINUOUS
370
-3
390
F
  0
LAYER
  5
1FF
100
AcDbSymbolTableRecord
100
AcDbLayerTableRecord
  2
DIMENSIONS
 70
0
 62
7
  6
CONTINUOUS
370
-3
390
F
  0
ENDTAB
  0
TABLE
  2
STYLE
  5
3
100
AcDbSymbolTable
 70
1
  0
STYLE
  5
11
100
AcDbSymbolTableRecord
100
AcDbTextStyleTableRecord
  2
STANDARD
 70
0
 40
0.0
 41
0.8
 50
0.0
 71
0
 42
0.2
  3
txt
  4

  0
STYLE
  5
200
100
AcDbSymbolTableRecord
100
AcDbTextStyleTableRecord
  2
TEXTSTYLE_1
 70
0
 40
0.0
 41
0.8
 50
0.0
 71
0
 42
0.2
  3
gdt
  4

  0
ENDTAB
  0
TABLE
  2
VIEW
  5
6
100
AcDbSymbolTable
 70
0
  0
ENDTAB
  0
TABLE
  2
UCS
  5
7
100
AcDbSymbolTable
 70
0
  0
ENDTAB
  0
TABLE
  2
APPID
  5
9
100
AcDbSymbolTable
 70
1
  0
APPID
  5
201
100
AcDbSymbolTableRecord
100
AcDbRegAppTableRecord
  2
ACAD
 70
0
  0
ENDTAB
  0
TABLE
  2
BLOCK_RECORD
  5
1
100
AcDbSymbolTable
 70
0
  0
BLOCK_RECORD
  5
202
100
AcDbSymbolTableRecord
100
AcDbBlockTableRecord
  2
*Model_Space
  0
BLOCK_RECORD
  5
203
100
AcDbSymbolTableRecord
100
AcDbBlockTableRecord
  2
*Paper_Space
  0
BLOCK_RECORD
  5
204
100
AcDbSymbolTableRecord
100
AcDbBlockTableRecord
  2
_FILLED
  0
ENDTAB
  0
TABLE
  2
DIMSTYLE
  5
A
100
AcDbSymbolTable
 70
1
100
AcDbDimStyleTable
 71
0
  0
DIMSTYLE
105
205
100
AcDbSymbolTableRecord
100
AcDbDimStyleTableRecord
  2
STANDARD
 70
0
  3

  4

 40
1.0
 41
0.1
 42
0.0625
 43
0.38
 44
0.125
 45
0.0
 46
0.0
 47
0.001
 48
0.001
140
0.08
141
0.09
142
0.0
143
25.4
144
1.0
145
0.0
146
1.0
147
0.09
 71
1.0
 72
0.0
 73
1
 74
1
 75
0
 76
0
 77
0
 78
4
 79
1
170
1
171
2
172
0
173
0
174
0
175
0
176
0
177
0
178
0
270
2
179
3
271
3
272
3
273
2
274
2
275
0
280
0
281
0
282
0
283
1
284
4
285
0
286
0
287
3
288
0
340
11
278
46
341
204
342
204
343
204
344
204
  0
ENDTAB
  0
ENDSEC
  0
SECTION
  2
BLOCKS
  0
BLOCK
  5
20
100
AcDbEntity
  8
0
100
AcDbBlockBegin
  2
*Model_Space
 70
0
 10
0.0
 20
0.0
 30
0.0
  3
*Model_Space
  1

  0
ENDBLK
  5
21
100
AcDbEntity
  8
0
100
AcDbBlockEnd
  0
BLOCK
  5
1C
100
AcDbEntity
  8
0
100
AcDbBlockBegin
  2
*Paper_Space
 70
0
 10
0.0
 20
0.0
 30
0.0
  3
*Paper_Space
  1

  0
ENDBLK
  5
1D
100
AcDbEntity
  8
0
100
AcDbBlockEnd
  0
BLOCK
  5
206
100
AcDbEntity
  8
0
100
AcDbBlockBegin
  2
_FILLED
 70
64
 10
0.0
 20
0.0
  3
_FILLED
  1

  0
SOLID
  5
207
100
AcDbEntity
  8
0
  6
BYBLOCK
 62
0
100
AcDbTrace
 10
0.0
 20
0.0
 11
-1.0
 21
0.2
 12
-1.0
 22
-0.2
 13
-1.0
 23
-0.2
  0
ENDBLK
  5
208
100
AcDbEntity
  8
0
  6
BYBLOCK
 62
0
100
AcDbBlockEnd
  0
ENDSEC
  0
SECTION
  2
ENTITIES
  0
LINE
  5
209
100
AcDbEntity
  8
0
100
AcDbLine
 62
7
  6
CONTINUOUS
 10
-0.3902053198
 20
6.833391804
 11
-0.3902053198
 21
6.913391804
  0
LINE
  5
20A
100
AcDbEntity
  8
0
100
AcDbLine
 62
7
  6
CONTINUOUS
 10
0.5347946802
 20
6.833391804
 11
0.5347946802
 21
6.913391804
  0
LINE
  5
20B
100
AcDbEntity
  8
0
100
AcDbLine
 62
7
  6
CONTINUOUS
 10
3.7348904236
 20
7.2361161012
 11
3.6826316745
 21
7.480082605
  0
LINE
  5
20C
100
AcDbEntity
  8
0
100
AcDbLine
 62
7
  6
CONTINUOUS
 10
3.8172946802
 20
7.103391804
 11
3.8172946802
 21
6.583391804
  0
LINE
  5
20D
100
AcDbEntity
  8
0
100
AcDbLine
 62
9
  6
CONTINUOUS
 10
4.0722946802
 20
7.9374962242
 11
4.0722946802
 21
7.8886247418
  0
LINE
  5
20E
100
AcDbEntity
  8
0
100
AcDbLine
 62
9
  6
CONTINUOUS
 10
4.0722946802
 20
7.1711148331
 11
4.0722946802
 21
7.123391804
  0
LINE
  5
20F
100
AcDbEntity
  8
0
100
AcDbLine
 62
7
  6
CONTINUOUS
 10
4.3272946802
 20
7.103391804
 11
4.3272946802
 21
6.583391804
  0
LINE
  5
210
100
AcDbEntity
  8
0
100
AcDbLine
 62
7
  6
CONTINUOUS
 10
4.4096989368
 20
7.2361161012
 11
4.461957686
 21
7.480082605
  0
LINE
  5
211
100
AcDbEntity
  8
0
100
AcDbLine
 62
7
  6
CONTINUOUS
 10
-0.7177053198
 20
6.333391804
 11
0.8622946802
 21
6.333391804
  0
LINE
  5
212
100
AcDbEntity
  8
0
100
AcDbLine
 62
7
  6
CONTINUOUS
 10
3.4162950428
 20
6.333391804
 11
4.7282943177
 21
6.333391804
  0
LINE
  5
213
100
AcDbEntity
  8
0
100
AcDbLine
 62
7
  6
CONTINUOUS
 10
10.9367068869
 20
6.333391804
 11
13.2078824736
 21
6.333391804
  0
LINE
  5
214
100
AcDbEntity
  8
0
100
AcDbLine
 62
7
  6
CONTINUOUS
 10
20.0598116017
 20
6.333391804
 11
22.0847777587
 21
6.333391804
  0
LINE
  5
215
100
AcDbEntity
  8
0
100
AcDbLine
 62
7
  6
CONTINUOUS
 10
4.5518713759
 20
6.458391804
 11
3.5927179845
 21
6.458391804
  0
LINE
  5
216
100
AcDbEntity
  8
0
100
AcDbLine
 62
9
  6
CONTINUOUS
 10
10.9703995751
 20
6.4740639736
 11
13.1741897853
 21
6.4740639736
  0
LINE
  5
217
100
AcDbEntity
  8
0
100
AcDbLine
 62
9
  6
CONTINUOUS
 10
11.0036006156
 20
6.5189226399
 11
13.1409887448
 21
6.5189226399
  0
LINE
  5
218
100
AcDbEntity
  8
0
100
AcDbLine
 62
9
  6
CONTINUOUS
 10
13.0704209507
 20
6.5612780896
 11
11.0741684097
 21
6.5612780896
  0
LINE
  5
219
100
AcDbEntity
  8
0
100
AcDbLine
 62
9
  6
CONTINUOUS
 10
22.0847946802
 20
6.5823592717
 11
20.0597946802
 21
6.5823592717
  0
LINE
  5
21A
100
AcDbEntity
  8
0
100
AcDbLine
 62
7
  6
CONTINUOUS
 10
4.3646214991
 20
6.583391804
 11
3.7799678614
 21
6.583391804
  0
LINE
  5
21B
100
AcDbEntity
  8
0
100
AcDbLine
 62
9
  6
CONTINUOUS
 10
11.1420666565
 20
6.5933034559
 11
13.0025227039
 21
6.5933034559
  0
LINE
  5
21C
100
AcDbEntity
  8
0
100
AcDbLine
 62
7
  6
CONTINUOUS
 10
22.0472946802
 20
6.653391804
 11
20.0972946802
 21
6.653391804
  0
LINE
  5
21D
100
AcDbEntity
  8
0
100
AcDbLine
 62
9
  6
CONTINUOUS
 10
11.3106461492
 20
6.7278500444
 11
12.8339432113
 21
6.7278500444
  0
LINE
  5
21E
100
AcDbEntity
  8
0
100
AcDbLine
 62
7
  6
CONTINUOUS
 10
0.5672942109
 20
6.833391804
 11
-0.4227048505
 21
6.833391804
  0
LINE
  5
21F
100
AcDbEntity
  8
0
100
AcDbLine
 62
7
  6
CONTINUOUS
 10
12.7640039112
 20
6.867414523
 11
11.3805854493
 21
6.867414523
  0
LINE
  5
220
100
AcDbEntity
  8
0
100
AcDbLine
 62
7
  6
CONTINUOUS
 10
11.5597946802
 20
6.877414523
 11
12.5847946802
 21
6.877414523
  0
LINE
  5
221
100
AcDbEntity
  8
0
100
AcDbLine
 62
9
  6
CONTINUOUS
 10
0.5347946802
 20
6.913391804
 11
-0.3902053198
 21
6.913391804
  0
LINE
  5
222
100
AcDbEntity
  8
0
100
AcDbLine
 62
9
  6
CONTINUOUS
 10
-0.3549934068
 20
7.0774943681
 11
0.4995827673
 21
7.0774943681
  0
LINE
  5
223
100
AcDbEntity
  8
0
100
AcDbLine
 62
7
  6
CONTINUOUS
 10
-0.3458737046
 20
7.083391804
 11
0.4904627385
 21
7.083391804
  0
LINE
  5
224
100
AcDbEntity
  8
0
100
AcDbLine
 62
9
  6
CONTINUOUS
 10
4.3272946802
 20
7.103391804
 11
3.8172946802
 21
7.103391804
  0
LINE
  5
225
100
AcDbEntity
  8
0
100
AcDbLine
 62
7
  6
CONTINUOUS
 10
3.7522951218
 20
7.123391804
 11
4.3922942386
 21
7.123391804
  0
LINE
  5
226
100
AcDbEntity
  8
0
100
AcDbLine
 62
9
  6
CONTINUOUS
 10
12.5808706315
 20
7.1429074842
 11
11.563718729
 21
7.1429074842
  0
LINE
  5
227
100
AcDbEntity
  8
0
100
AcDbLine
 62
9
  6
CONTINUOUS
 10
3.7241075542
 20
7.1711146897
 11
4.4204818063
 21
7.1711146897
  0
LINE
  5
228
100
AcDbEntity
  8
0
100
AcDbLine
 62
9
  6
CONTINUOUS
 10
12.51338831
 20
7.1739291417
 11
11.6312010504
 21
7.1739291417
  0
LINE
  5
229
100
AcDbEntity
  8
0
100
AcDbLine
 62
9
  6
CONTINUOUS
 10
12.4868127171
 20
7.2150004617
 11
11.6577766434
 21
7.2150004617
  0
LINE
  5
22A
100
AcDbEntity
  8
0
100
AcDbLine
 62
9
  6
CONTINUOUS
 10
3.7348906338
 20
7.2361160618
 11
4.4096987266
 21
7.2361160618
  0
LINE
  5
22B
100
AcDbEntity
  8
0
100
AcDbLine
 62
9
  6
CONTINUOUS
 10
12.4835970303
 20
7.2971652098
 11
11.6609923302
 21
7.2971652098
  0
LINE
  5
22C
100
AcDbEntity
  8
0
100
AcDbLine
 62
9
  6
CONTINUOUS
 10
12.5028927543
 20
7.4543865443
 11
11.6416966062
 21
7.4543865443
  0
LINE
  5
22D
100
AcDbEntity
  8
0
100
AcDbLine
 62
9
  6
CONTINUOUS
 10
4.461957686
 20
7.480082605
 11
3.6826316745
 21
7.480082605
  0
LINE
  5
22E
100
AcDbEntity
  8
0
100
AcDbLine
 62
9
  6
CONTINUOUS
 10
20.3641024827
 20
7.4941369442
 11
21.7804868778
 21
7.4941369442
  0
LINE
  5
22F
100
AcDbEntity
  8
0
100
AcDbLine
 62
7
  6
CONTINUOUS
 10
4.5236422174
 20
7.9374962649
 11
4.4007403229
 21
7.9509530003
  0
LINE
  5
230
100
AcDbEntity
  8
0
100
AcDbLine
 62
7
  6
CONTINUOUS
 10
12.493295097
 20
8.2074146558
 11
12.5046877446
 21
8.2085984401
  0
LINE
  5
231
100
AcDbEntity
  8
0
100
AcDbLine
 62
9
  6
CONTINUOUS
 10
20.4154240768
 20
7.6367325769
 11
21.7291652836
 21
7.6367325769
  0
LINE
  5
232
100
AcDbEntity
  8
0
100
AcDbLine
 62
9
  6
CONTINUOUS
 10
12.5318697695
 20
7.7522953107
 11
11.6127195909
 21
7.7522953107
  0
LINE
  5
233
100
AcDbEntity
  8
0
100
AcDbLine
 62
9
  6
CONTINUOUS
 10
4.5180326128
 20
7.8284260736
 11
3.6265567477
 21
7.8284260736
  0
LINE
  5
234
100
AcDbEntity
  8
0
100
AcDbLine
 62
9
  6
CONTINUOUS
 10
4.54360206
 20
7.8886248539
 11
3.6009873005
 21
7.8886248539
  0
LINE
  5
235
100
AcDbEntity
  8
0
100
AcDbLine
 62
9
  6
CONTINUOUS
 10
3.6209471431
 20
7.9374962649
 11
4.5236422174
 21
7.9374962649
  0
LINE
  5
236
100
AcDbEntity
  8
0
100
AcDbLine
 62
9
  6
CONTINUOUS
 10
3.7438494491
 20
7.9509530661
 11
4.4007399114
 21
7.9509530661
  0
LINE
  5
237
100
AcDbEntity
  8
0
100
AcDbLine
 62
9
  6
CONTINUOUS
 10
12.5198671818
 20
8.0481500442
 11
11.6247221819
 21
8.0481500488
  0
LINE
  5
238
100
AcDbEntity
  8
0
100
AcDbLine
 62
9
  6
CONTINUOUS
 10
12.54198853
 20
8.1117652483
 11
12.5388743496
 21
8.1117652452
  0
LINE
  5
239
100
AcDbEntity
  8
0
100
AcDbLine
 62
9
  6
CONTINUOUS
 10
11.6111205738
 20
8.1117652245
 11
11.6059464064
 21
8.1117652466
  0
LINE
  5
23A
100
AcDbEntity
  8
0
100
AcDbLine
 62
9
  6
CONTINUOUS
 10
12.4899639739
 20
8.1117651664
 11
12.4750391086
 21
8.111765249
  0
LINE
  5
23B
100
AcDbEntity
  8
0
100
AcDbLine
 62
9
  6
CONTINUOUS
 10
12.0714442464
 20
8.1117649587
 11
12.0410104653
 21
8.1117652422
  0
LINE
  5
23C
100
AcDbEntity
  8
0
100
AcDbLine
 62
9
  6
CONTINUOUS
 10
11.8549183103
 20
8.1117649456
 11
11.8283748134
 21
8.1117652428
  0
LINE
  5
23D
100
AcDbEntity
  8
0
100
AcDbLine
 62
9
  6
CONTINUOUS
 10
11.6400876756
 20
8.1117652006
 11
11.6289161229
 21
8.1117652722
  0
LINE
  5
23E
100
AcDbEntity
  8
0
100
AcDbLine
 62
9
  6
CONTINUOUS
 10
12.2881607865
 20
8.1117649401
 11
12.2606609617
 21
8.111765241
  0
LINE
  5
23F
100
AcDbEntity
  8
0
100
AcDbLine
 62
9
  6
CONTINUOUS
 10
11.6057150063
 20
8.1117652534
 11
11.6026008279
 21
8.1117652545
  0
LINE
  5
240
100
AcDbEntity
  8
0
100
AcDbLine
 62
9
  6
CONTINUOUS
 10
12.5431441698
 20
8.1117652468
 11
12.5421044996
 21
8.1117652502
  0
LINE
  5
241
100
AcDbEntity
  8
0
100
AcDbLine
 62
9
  6
CONTINUOUS
 10
12.5254544805
 20
8.1117652019
 11
12.5162423727
 21
8.1117653033
  0
LINE
  5
242
100
AcDbEntity
  8
0
100
AcDbLine
 62
9
  6
CONTINUOUS
 10
11.6186763626
 20
8.1117652032
 11
11.6114662262
 21
8.1117653409
  0
LINE
  5
243
100
AcDbEntity
  8
0
100
AcDbLine
 62
9
  6
CONTINUOUS
 10
11.9138160933
 20
8.1117650518
 11
11.8854871733
 21
8.1117655325
  0
LINE
  5
244
100
AcDbEntity
  8
0
100
AcDbLine
 62
9
  6
CONTINUOUS
 10
12.538642971
 20
8.1117652591
 11
12.5334688843
 21
8.1117653167
  0
LINE
  5
245
100
AcDbEntity
  8
0
100
AcDbLine
 62
9
  6
CONTINUOUS
 10
11.6871347342
 20
8.1117650822
 11
11.6704331537
 21
8.1117653742
  0
LINE
  5
246
100
AcDbEntity
  8
0
100
AcDbLine
 62
9
  6
CONTINUOUS
 10
12.1355667245
 20
8.1117650334
 11
12.1052745368
 21
8.1117655048
  0
LINE
  5
247
100
AcDbEntity
  8
0
100
AcDbLine
 62
9
  6
CONTINUOUS
 10
12.4564741985
 20
8.1117650689
 11
12.438074253
 21
8.1117653029
  0
LINE
  5
248
100
AcDbEntity
  8
0
100
AcDbLine
 62
9
  6
CONTINUOUS
 10
12.0073380823
 20
8.1117649616
 11
11.9773296028
 21
8.1117655154
  0
LINE
  5
249
100
AcDbEntity
  8
0
100
AcDbLine
 62
9
  6
CONTINUOUS
 10
11.727601013
 20
8.1117651283
 11
11.7075875307
 21
8.1117656171
  0
LINE
  5
24A
100
AcDbEntity
  8
0
100
AcDbLine
 62
9
  6
CONTINUOUS
 10
12.2291709416
 20
8.1117649812
 11
12.2001467818
 21
8.1117654663
  0
LINE
  5
24B
100
AcDbEntity
  8
0
100
AcDbLine
 62
9
  6
CONTINUOUS
 10
11.8000703264
 20
8.1117649641
 11
11.7758063466
 21
8.1117655346
  0
LINE
  5
24C
100
AcDbEntity
  8
0
100
AcDbLine
 62
9
  6
CONTINUOUS
 10
11.628347052
 20
8.1117652587
 11
11.6191346706
 21
8.1117654158
  0
LINE
  5
24D
100
AcDbEntity
  8
0
100
AcDbLine
 62
9
  6
CONTINUOUS
 10
11.7065150241
 20
8.1117651944
 11
11.6881146354
 21
8.1117656926
  0
LINE
  5
24E
100
AcDbEntity
  8
0
100
AcDbLine
 62
9
  6
CONTINUOUS
 10
12.4158279532
 20
8.1117650692
 11
12.3942957108
 21
8.1117654246
  0
LINE
  5
24F
100
AcDbEntity
  8
0
100
AcDbLine
 62
9
  6
CONTINUOUS
 10
11.750293625
 20
8.1117651227
 11
11.7287608031
 21
8.1117657139
  0
LINE
  5
250
100
AcDbEntity
  8
0
100
AcDbLine
 62
9
  6
CONTINUOUS
 10
11.7744880382
 20
8.1117651995
 11
11.7515358052
 21
8.1117658449
  0
LINE
  5
251
100
AcDbEntity
  8
0
100
AcDbLine
 62
9
  6
CONTINUOUS
 10
12.3431299119
 20
8.1117650453
 11
12.3176669019
 21
8.1117655429
  0
LINE
  5
252
100
AcDbEntity
  8
0
100
AcDbLine
 62
9
  6
CONTINUOUS
 10
11.9756654714
 20
8.1117652085
 11
11.9460795964
 21
8.1117659696
  0
LINE
  5
253
100
AcDbEntity
  8
0
100
AcDbLine
 62
9
  6
CONTINUOUS
 10
11.669550203
 20
8.1117652362
 11
11.6546251404
 21
8.1117655037
  0
LINE
  5
254
100
AcDbEntity
  8
0
100
AcDbLine
 62
9
  6
CONTINUOUS
 10
12.5156731986
 20
8.1117652433
 11
12.5045018147
 21
8.1117653534
  0
LINE
  5
255
100
AcDbEntity
  8
0
100
AcDbLine
 62
9
  6
CONTINUOUS
 10
11.9444422901
 20
8.1117651033
 11
11.9154177658
 21
8.1117659777
  0
LINE
  5
256
100
AcDbEntity
  8
0
100
AcDbLine
 62
9
  6
CONTINUOUS
 10
12.5331230445
 20
8.1117652382
 11
12.5259132356
 21
8.1117654017
  0
LINE
  5
257
100
AcDbEntity
  8
0
100
AcDbLine
 62
9
  6
CONTINUOUS
 10
12.1985100672
 20
8.111765227
 11
12.1689246406
 21
8.1117660494
  0
LINE
  5
258
100
AcDbEntity
  8
0
100
AcDbLine
 62
9
  6
CONTINUOUS
 10
11.6538435064
 20
8.111765183
 11
11.6407645965
 21
8.1117654345
  0
LINE
  5
259
100
AcDbEntity
  8
0
100
AcDbLine
 62
9
  6
CONTINUOUS
 10
12.1672592425
 20
8.1117650854
 11
12.1372512405
 21
8.111766007
  0
LINE
  5
25A
100
AcDbEntity
  8
0
100
AcDbLine
 62
9
  6
CONTINUOUS
 10
11.8839281375
 20
8.1117652462
 11
11.8564280359
 21
8.1117663176
  0
LINE
  5
25B
100
AcDbEntity
  8
0
100
AcDbLine
 62
9
  6
CONTINUOUS
 10
12.0393150636
 20
8.1117653235
 11
12.0090232926
 21
8.1117663699
  0
LINE
  5
25C
100
AcDbEntity
  8
0
100
AcDbLine
 62
9
  6
CONTINUOUS
 10
11.8269228074
 20
8.1117653259
 11
11.8014593361
 21
8.1117663759
  0
LINE
  5
25D
100
AcDbEntity
  8
0
100
AcDbLine
 62
9
  6
CONTINUOUS
 10
12.1035786374
 20
8.111765248
 11
12.0731452804
 21
8.1117662601
  0
LINE
  5
25E
100
AcDbEntity
  8
0
100
AcDbLine
 62
9
  6
CONTINUOUS
 10
12.2591023369
 20
8.1117653182
 11
12.2307744588
 21
8.1117662817
  0
LINE
  5
25F
100
AcDbEntity
  8
0
100
AcDbLine
 62
9
  6
CONTINUOUS
 10
12.5038246104
 20
8.1117652327
 11
12.490746296
 21
8.1117655387
  0
LINE
  5
260
100
AcDbEntity
  8
0
100
AcDbLine
 62
9
  6
CONTINUOUS
 10
12.437001759
 20
8.1117652778
 11
12.4169893732
 21
8.1117659531
  0
LINE
  5
261
100
AcDbEntity
  8
0
100
AcDbLine
 62
9
  6
CONTINUOUS
 10
12.3930534385
 20
8.1117652386
 11
12.3701023236
 21
8.1117660369
  0
LINE
  5
262
100
AcDbEntity
  8
0
100
AcDbLine
 62
9
  6
CONTINUOUS
 10
12.368782399
 20
8.1117650883
 11
12.3445194785
 21
8.1117659755
  0
LINE
  5
263
100
AcDbEntity
  8
0
100
AcDbLine
 62
9
  6
CONTINUOUS
 10
12.3162142988
 20
8.1117652441
 11
12.2896719078
 21
8.1117663334
  0
LINE
  5
264
100
AcDbEntity
  8
0
100
AcDbLine
 62
7
  6
CONTINUOUS
 10
11.6399016159
 20
8.2085984401
 11
12.5046877446
 21
8.2085984401
  0
LINE
  5
265
100
AcDbEntity
  8
0
100
AcDbLine
 62
9
  6
CONTINUOUS
 10
12.4741561985
 20
8.1117652928
 11
12.457454885
 21
8.111765521
  0
LINE
  5
266
100
AcDbEntity
  8
0
100
AcDbLine
 62
9
  6
CONTINUOUS
 10
11.6015729683
 20
8.1117652304
 11
11.6014451585
 21
8.1117652806
  0
LINE
  5
267
100
AcDbEntity
  8
0
100
AcDbLine
 62
7
  6
CONTINUOUS
 10
11.6512942634
 20
8.2074146558
 11
11.6399016159
 21
8.2085984401
  0
LINE
  5
268
100
AcDbEntity
  8
0
100
AcDbLine
 62
7
  6
CONTINUOUS
 10
13.0025227039
 20
6.5933034559
 11
13.0704209507
 21
6.5612780896
  0
LINE
  5
269
100
AcDbEntity
  8
0
100
AcDbLine
 62
7
  6
CONTINUOUS
 10
11.6961857266
 20
9.0351993032
 11
10.9195820205
 21
8.933614523
  0
LINE
  5
26A
100
AcDbEntity
  8
0
100
AcDbLine
 62
7
  6
CONTINUOUS
 10
3.6209471431
 20
7.9374962649
 11
3.7438490375
 21
7.9509530003
  0
LINE
  5
26B
100
AcDbEntity
  8
0
100
AcDbLine
 62
9
  6
CONTINUOUS
 10
12.4152946802
 20
8.3601744865
 11
11.7292946802
 21
8.3601744865
  0
LINE
  5
26C
100
AcDbEntity
  8
0
100
AcDbLine
 62
7
  6
CONTINUOUS
 10
12.3780546802
 20
8.3974144865
 11
11.7665346802
 21
8.3974144865
  0
LINE
  5
26D
100
AcDbEntity
  8
0
100
AcDbLine
 62
7
  6
CONTINUOUS
 10
11.7502056708
 20
8.781614523
 11
12.3943830919
 21
8.781614523
  0
LINE
  5
26E
100
AcDbEntity
  8
0
100
AcDbLine
 62
9
  6
CONTINUOUS
 10
11.7208278979
 20
8.829569085
 11
12.4237614626
 21
8.829569085
  0
LINE
  5
26F
100
AcDbEntity
  8
0
100
AcDbLine
 62
9
  6
CONTINUOUS
 10
12.1791013748
 20
8.8948258703
 11
12.4150226265
 21
8.8948259502
  0
LINE
  5
270
100
AcDbEntity
  8
0
100
AcDbLine
 62
9
  6
CONTINUOUS
 10
11.729566734
 20
8.8948259502
 11
11.9654879846
 21
8.8948258706
  0
LINE
  5
271
100
AcDbEntity
  8
0
100
AcDbLine
 62
9
  6
CONTINUOUS
 10
10.8596746387
 20
8.9037589953
 11
10.8596746387
 21
9.5334700506
  0
LINE
  5
272
100
AcDbEntity
  8
0
100
AcDbLine
 62
7
  6
CONTINUOUS
 10
10.9195820205
 20
8.906114523
 11
10.9195820205
 21
9.531114523
  0
LINE
  5
273
100
AcDbEntity
  8
0
100
AcDbLine
 62
7
  6
CONTINUOUS
 10
11.5597946802
 20
6.877414523
 11
11.5597946802
 21
7.1418381195
  0
LINE
  5
274
100
AcDbEntity
  8
0
100
AcDbLine
 62
7
  6
CONTINUOUS
 10
11.5822946802
 20
6.877414523
 11
11.5822946802
 21
6.867414523
  0
LINE
  5
275
100
AcDbEntity
  8
0
100
AcDbLine
 62
7
  6
CONTINUOUS
 10
11.5856711205
 20
8.1664391941
 11
11.5856711205
 21
8.1390762228
  0
LINE
  5
276
100
AcDbEntity
  8
0
100
AcDbLine
 62
7
  6
CONTINUOUS
 10
11.5879399842
 20
8.1664391941
 11
11.5879399842
 21
8.1390762228
  0
LINE
  5
277
100
AcDbEntity
  8
0
100
AcDbLine
 62
7
  6
CONTINUOUS
 10
11.592467133
 20
8.1664391941
 11
11.592467133
 21
8.1390762228
  0
LINE
  5
278
100
AcDbEntity
  8
0
100
AcDbLine
 62
7
  6
CONTINUOUS
 10
12.5210289046
 20
9.4115295972
 11
13.2250073399
 21
9.503614523
  0
LINE
  5
279
100
AcDbEntity
  8
0
100
AcDbLine
 62
7
  6
CONTINUOUS
 10
11.6028369864
 20
9.6065749103
 11
11.7481292696
 21
9.6253820287
  0
LINE
  5
27A
100
AcDbEntity
  8
0
100
AcDbLine
 62
9
  6
CONTINUOUS
 10
11.7757716848
 20
9.3869246271
 11
11.6381178768
 21
9.3869246271
  0
LINE
  5
27B
100
AcDbEntity
  8
0
100
AcDbLine
 62
9
  6
CONTINUOUS
 10
12.3688176757
 20
9.3869246271
 11
12.5064714837
 21
9.3869246271
  0
LINE
  5
27C
100
AcDbEntity
  8
0
100
AcDbLine
 62
9
  6
CONTINUOUS
 10
11.8644573796
 20
9.4889862628
 11
11.6068464129
 21
9.4889862356
  0
LINE
  5
27D
100
AcDbEntity
  8
0
100
AcDbLine
 62
9
  6
CONTINUOUS
 10
12.5377429476
 20
9.4889862356
 11
12.2801319819
 21
9.4889862619
  0
LINE
  5
27E
100
AcDbEntity
  8
0
100
AcDbLine
 62
9
  6
CONTINUOUS
 10
11.9888894427
 20
9.5495019301
 11
11.5802268253
 21
9.5495017794
  0
LINE
  5
27F
100
AcDbEntity
  8
0
100
AcDbLine
 62
9
  6
CONTINUOUS
 10
12.5643625352
 20
9.5495017794
 11
12.1556998602
 21
9.5495019475
  0
LINE
  5
280
100
AcDbEntity
  8
0
100
AcDbLine
 62
9
  6
CONTINUOUS
 10
11.6028369864
 20
9.6065749103
 11
12.5417523741
 21
9.6065749103
  0
LINE
  5
281
100
AcDbEntity
  8
0
100
AcDbLine
 62
9
  6
CONTINUOUS
 10
11.7481291446
 20
9.6253820052
 11
12.3964602158
 21
9.6253820052
  0
LINE
  5
282
100
AcDbEntity
  8
0
100
AcDbLine
 62
7
  6
CONTINUOUS
 10
20.3322956821
 20
9.801391804
 11
21.8122936783
 21
9.801391804
  0
LINE
  5
283
100
AcDbEntity
  8
0
100
AcDbLine
 62
9
  6
CONTINUOUS
 10
20.3122946802
 20
9.8762249518
 11
21.8322946802
 21
9.8762249518
  0
LINE
  5
284
100
AcDbEntity
  8
0
100
AcDbLine
 62
7
  6
CONTINUOUS
 10
12.5417523741
 20
9.6065749103
 11
12.3964600909
 21
9.6253820287
  0
LINE
  5
285
100
AcDbEntity
  8
0
100
AcDbLine
 62
7
  6
CONTINUOUS
 10
12.4484036338
 20
9.0351993032
 11
13.2250073399
 21
8.933614523
  0
LINE
  5
286
100
AcDbEntity
  8
0
100
AcDbLine
 62
7
  6
CONTINUOUS
 10
11.6235604634
 20
9.4115295962
 11
10.9195820205
 21
9.503614523
  0
LINE
  5
287
100
AcDbEntity
  8
0
100
AcDbLine
 62
7
  6
CONTINUOUS
 10
11.5992314594
 20
8.1664391941
 11
11.5992314594
 21
8.1390762228
  0
LINE
  5
288
100
AcDbEntity
  8
0
100
AcDbLine
 62
7
  6
CONTINUOUS
 10
11.6082014249
 20
8.1664391941
 11
11.6082014249
 21
8.1390762228
  0
LINE
  5
289
100
AcDbEntity
  8
0
100
AcDbLine
 62
7
  6
CONTINUOUS
 10
11.6193352073
 20
8.1664391941
 11
11.6193352073
 21
8.1390762228
  0
LINE
  5
28A
100
AcDbEntity
  8
0
100
AcDbLine
 62
7
  6
CONTINUOUS
 10
11.632580896
 20
8.1664391941
 11
11.632580896
 21
8.1390762228
  0
LINE
  5
28B
100
AcDbEntity
  8
0
100
AcDbLine
 62
7
  6
CONTINUOUS
 10
11.6478767332
 20
8.1664391941
 11
11.6478767332
 21
8.1390762228
  0
LINE
  5
28C
100
AcDbEntity
  8
0
100
AcDbLine
 62
7
  6
CONTINUOUS
 10
11.6651514029
 20
8.1664391941
 11
11.6651514029
 21
8.1390762228
  0
LINE
  5
28D
100
AcDbEntity
  8
0
100
AcDbLine
 62
7
  6
CONTINUOUS
 10
11.6843243625
 20
8.1664391941
 11
11.6843243625
 21
8.1390762228
  0
LINE
  5
28E
100
AcDbEntity
  8
0
100
AcDbLine
 62
9
  6
CONTINUOUS
 10
11.6961857266
 20
9.0351993032
 11
11.6961857266
 21
9.2651700733
  0
LINE
  5
28F
100
AcDbEntity
  8
0
100
AcDbLine
 62
7
  6
CONTINUOUS
 10
11.7053062188
 20
8.1664391941
 11
11.7053062188
 21
8.1390762228
  0
LINE
  5
290
100
AcDbEntity
  8
0
100
AcDbLine
 62
7
  6
CONTINUOUS
 10
11.7279991447
 20
8.1664391941
 11
11.7279991447
 21
8.1390762228
  0
LINE
  5
291
100
AcDbEntity
  8
0
100
AcDbLine
 62
7
  6
CONTINUOUS
 10
11.7292946802
 20
8.3601744865
 11
11.7292946802
 21
8.2085984401
  0
LINE
  5
292
100
AcDbEntity
  8
0
100
AcDbLine
 62
7
  6
CONTINUOUS
 10
11.7514947029
 20
8.1109639009
 11
11.7514947029
 21
8.1943165096
  0
LINE
  5
293
100
AcDbEntity
  8
0
100
AcDbLine
 62
7
  6
CONTINUOUS
 10
11.7522973353
 20
8.1664391941
 11
11.7522973353
 21
8.1390762228
  0
LINE
  5
294
100
AcDbEntity
  8
0
100
AcDbLine
 62
7
  6
CONTINUOUS
 10
11.7756833464
 20
8.1109637115
 11
11.7756833464
 21
8.1943165096
  0
LINE
  5
295
100
AcDbEntity
  8
0
100
AcDbLine
 62
7
  6
CONTINUOUS
 10
11.7780875012
 20
8.1664391941
 11
11.7780875012
 21
8.1390762228
  0
LINE
  5
296
100
AcDbEntity
  8
0
100
AcDbLine
 62
7
  6
CONTINUOUS
 10
11.8012549288
 20
8.1109641638
 11
11.8012549288
 21
8.1943165096
  0
LINE
  5
297
100
AcDbEntity
  8
0
100
AcDbLine
 62
7
  6
CONTINUOUS
 10
11.8052493969
 20
8.1664391941
 11
11.8052493969
 21
8.1390762228
  0
LINE
  5
298
100
AcDbEntity
  8
0
100
AcDbLine
 62
7
  6
CONTINUOUS
 10
11.8072946802
 20
8.781614523
 11
11.8072946802
 21
8.3974144865
  0
LINE
  5
299
100
AcDbEntity
  8
0
100
AcDbLine
 62
7
  6
CONTINUOUS
 10
11.8280902237
 20
8.1109635851
 11
11.8280902237
 21
8.1943165096
  0
LINE
  5
29A
100
AcDbEntity
  8
0
100
AcDbLine
 62
7
  6
CONTINUOUS
 10
11.8336563809
 20
8.1664391941
 11
11.8336563809
 21
8.1390762228
  0
LINE
  5
29B
100
AcDbEntity
  8
0
100
AcDbLine
 62
7
  6
CONTINUOUS
 10
11.8560641125
 20
8.1109641194
 11
11.8560641125
 21
8.1943165096
  0
LINE
  5
29C
100
AcDbEntity
  8
0
100
AcDbLine
 62
7
  6
CONTINUOUS
 10
11.8631760068
 20
8.1664391941
 11
11.8631760068
 21
8.1390762228
  0
LINE
  5
29D
100
AcDbEntity
  8
0
100
AcDbLine
 62
7
  6
CONTINUOUS
 10
11.885046168
 20
8.1109637483
 11
11.885046168
 21
8.1943165096
  0
LINE
  5
29E
100
AcDbEntity
  8
0
100
AcDbLine
 62
7
  6
CONTINUOUS
 10
11.8936706405
 20
8.1664391941
 11
11.8936706405
 21
8.1390762228
  0
LINE
  5
29F
100
AcDbEntity
  8
0
100
AcDbLine
 62
7
  6
CONTINUOUS
 10
11.9149012625
 20
8.1109639232
 11
11.9149012625
 21
8.1943165096
  0
LINE
  5
2A0
100
AcDbEntity
  8
0
100
AcDbLine
 62
7
  6
CONTINUOUS
 10
11.924998102
 20
8.1664391941
 11
11.924998102
 21
8.1390762228
  0
LINE
  5
2A1
100
AcDbEntity
  8
0
100
AcDbLine
 62
7
  6
CONTINUOUS
 10
11.9454901978
 20
8.1109639687
 11
11.9454901978
 21
8.1943165096
  0
LINE
  5
2A2
100
AcDbEntity
  8
0
100
AcDbLine
 62
7
  6
CONTINUOUS
 10
11.9570123281
 20
8.1664391941
 11
11.9570123281
 21
8.1390762228
  0
LINE
  5
2A3
100
AcDbEntity
  8
0
100
AcDbLine
 62
7
  6
CONTINUOUS
 10
11.9766703541
 20
8.1109637035
 11
11.9766703541
 21
8.1943165096
  0
LINE
  5
2A4
100
AcDbEntity
  8
0
100
AcDbLine
 62
7
  6
CONTINUOUS
 10
11.9895640537
 20
8.1664391941
 11
11.9895640537
 21
8.1390762228
  0
LINE
  5
2A5
100
AcDbEntity
  8
0
100
AcDbLine
 62
7
  6
CONTINUOUS
 10
12.0082963552
 20
8.1109641612
 11
12.0082963552
 21
8.1943165096
  0
LINE
  5
2A6
100
AcDbEntity
  8
0
100
AcDbLine
 62
7
  6
CONTINUOUS
 10
12.0225015077
 20
8.1664391941
 11
12.0225015077
 21
8.1390762228
  0
LINE
  5
2A7
100
AcDbEntity
  8
0
100
AcDbLine
 62
7
  6
CONTINUOUS
 10
12.0402207459
 20
8.1109635868
 11
12.0402207459
 21
8.1943165096
  0
LINE
  5
2A8
100
AcDbEntity
  8
0
100
AcDbLine
 62
7
  6
CONTINUOUS
 10
12.0556711205
 20
8.1664391941
 11
12.0556711205
 21
8.1390762228
  0
LINE
  5
2A9
100
AcDbEntity
  8
0
100
AcDbLine
 62
9
  6
CONTINUOUS
 10
12.0722946802
 20
9.6065748137
 11
12.0722946802
 21
9.561114523
  0
LINE
  5
2AA
100
AcDbEntity
  8
0
100
AcDbLine
 62
9
  6
CONTINUOUS
 10
12.0722946802
 20
8.8295690877
 11
12.0722946802
 21
8.781614523
  0
LINE
  5
2AB
100
AcDbEntity
  8
0
100
AcDbLine
 62
7
  6
CONTINUOUS
 10
12.0722946802
 20
7.1284915468
 11
12.0722946802
 21
6.877414523
  0
LINE
  5
2AC
100
AcDbEntity
  8
0
100
AcDbLine
 62
7
  6
CONTINUOUS
 10
12.0722946802
 20
8.1109640913
 11
12.0722946802
 21
8.1943165096
  0
LINE
  5
2AD
100
AcDbEntity
  8
0
100
AcDbLine
 62
7
  6
CONTINUOUS
 10
12.08891824
 20
8.1664391941
 11
12.08891824
 21
8.1390762228
  0
LINE
  5
2AE
100
AcDbEntity
  8
0
100
AcDbLine
 62
7
  6
CONTINUOUS
 10
12.1043686145
 20
8.110963734
 11
12.1043686145
 21
8.1943165096
  0
LINE
  5
2AF
100
AcDbEntity
  8
0
100
AcDbLine
 62
7
  6
CONTINUOUS
 10
12.1220878527
 20
8.1664391941
 11
12.1220878527
 21
8.1390762228
  0
LINE
  5
2B0
100
AcDbEntity
  8
0
100
AcDbLine
 62
7
  6
CONTINUOUS
 10
12.1362930053
 20
8.1109639519
 11
12.1362930053
 21
8.1943165096
  0
LINE
  5
2B1
100
AcDbEntity
  8
0
100
AcDbLine
 62
7
  6
CONTINUOUS
 10
12.1550253067
 20
8.1664391941
 11
12.1550253067
 21
8.1390762228
  0
LINE
  5
2B2
100
AcDbEntity
  8
0
100
AcDbLine
 62
7
  6
CONTINUOUS
 10
12.1679190064
 20
8.1109640102
 11
12.1679190064
 21
8.1943165096
  0
LINE
  5
2B3
100
AcDbEntity
  8
0
100
AcDbLine
 62
7
  6
CONTINUOUS
 10
12.1875770324
 20
8.1664391941
 11
12.1875770324
 21
8.1390762228
  0
LINE
  5
2B4
100
AcDbEntity
  8
0
100
AcDbLine
 62
7
  6
CONTINUOUS
 10
12.1990991627
 20
8.1109636804
 11
12.1990991627
 21
8.1943165096
  0
LINE
  5
2B5
100
AcDbEntity
  8
0
100
AcDbLine
 62
7
  6
CONTINUOUS
 10
12.2195912585
 20
8.1664391941
 11
12.2195912585
 21
8.1390762228
  0
LINE
  5
2B6
100
AcDbEntity
  8
0
100
AcDbLine
 62
7
  6
CONTINUOUS
 10
12.2296880979
 20
8.1109641159
 11
12.2296880979
 21
8.1943165096
  0
LINE
  5
2B7
100
AcDbEntity
  8
0
100
AcDbLine
 62
7
  6
CONTINUOUS
 10
12.2509187199
 20
8.1664391941
 11
12.2509187199
 21
8.1390762228
  0
LINE
  5
2B8
100
AcDbEntity
  8
0
100
AcDbLine
 62
7
  6
CONTINUOUS
 10
12.2595431925
 20
8.1109635847
 11
12.2595431925
 21
8.1943165096
  0
LINE
  5
2B9
100
AcDbEntity
  8
0
100
AcDbLine
 62
7
  6
CONTINUOUS
 10
12.2814133536
 20
8.1664391941
 11
12.2814133536
 21
8.1390762228
  0
LINE
  5
2BA
100
AcDbEntity
  8
0
100
AcDbLine
 62
7
  6
CONTINUOUS
 10
12.288525248
 20
8.1109641278
 11
12.288525248
 21
8.1943165096
  0
LINE
  5
2BB
100
AcDbEntity
  8
0
100
AcDbLine
 62
7
  6
CONTINUOUS
 10
12.3109329796
 20
8.1664391941
 11
12.3109329796
 21
8.1390762228
  0
LINE
  5
2BC
100
AcDbEntity
  8
0
100
AcDbLine
 62
7
  6
CONTINUOUS
 10
12.3164991367
 20
8.1109637541
 11
12.3164991367
 21
8.1943165096
  0
LINE
  5
2BD
100
AcDbEntity
  8
0
100
AcDbLine
 62
7
  6
CONTINUOUS
 10
12.3372946802
 20
8.781614523
 11
12.3372946802
 21
8.3974144865
  0
LINE
  5
2BE
100
AcDbEntity
  8
0
100
AcDbLine
 62
7
  6
CONTINUOUS
 10
12.3393399636
 20
8.1664391941
 11
12.3393399636
 21
8.1390762228
  0
LINE
  5
2BF
100
AcDbEntity
  8
0
100
AcDbLine
 62
7
  6
CONTINUOUS
 10
12.3433344316
 20
8.1109639354
 11
12.3433344316
 21
8.1943165096
  0
LINE
  5
2C0
100
AcDbEntity
  8
0
100
AcDbLine
 62
7
  6
CONTINUOUS
 10
12.3665018592
 20
8.1664391941
 11
12.3665018592
 21
8.1390762228
  0
LINE
  5
2C1
100
AcDbEntity
  8
0
100
AcDbLine
 62
7
  6
CONTINUOUS
 10
12.3689060141
 20
8.1109640029
 11
12.3689060141
 21
8.1943165096
  0
LINE
  5
2C2
100
AcDbEntity
  8
0
100
AcDbLine
 62
9
  6
CONTINUOUS
 10
21.8322946802
 20
10.4356525729
 11
20.3122946802
 21
10.4356525729
  0
LINE
  5
2C3
100
AcDbEntity
  8
0
100
AcDbLine
 62
9
  6
CONTINUOUS
 10
20.2838259015
 20
10.5055330736
 11
21.860763459
 21
10.5055330736
  0
LINE
  5
2C4
100
AcDbEntity
  8
0
100
AcDbLine
 62
7
  6
CONTINUOUS
 10
11.7032231352
 20
9.0212728317
 11
11.7295667345
 21
8.8948259827
  0
LINE
  5
2C5
100
AcDbEntity
  8
0
100
AcDbLine
 62
7
  6
CONTINUOUS
 10
11.6068461478
 20
9.4889862325
 11
11.6145013568
 21
9.4268498789
  0
LINE
  5
2C6
100
AcDbEntity
  8
0
100
AcDbLine
 62
7
  6
CONTINUOUS
 10
12.3922920252
 20
8.1664391941
 11
12.3922920252
 21
8.1390762228
  0
LINE
  5
2C7
100
AcDbEntity
  8
0
100
AcDbLine
 62
7
  6
CONTINUOUS
 10
12.3930946575
 20
8.1109636614
 11
12.3930946575
 21
8.1943165096
  0
LINE
  5
2C8
100
AcDbEntity
  8
0
100
AcDbLine
 62
7
  6
CONTINUOUS
 10
12.4152946802
 20
8.3601744865
 11
12.4152946802
 21
8.2085984401
  0
LINE
  5
2C9
100
AcDbEntity
  8
0
100
AcDbLine
 62
7
  6
CONTINUOUS
 10
12.4165902158
 20
8.1664391941
 11
12.4165902158
 21
8.1390762228
  0
LINE
  5
2CA
100
AcDbEntity
  8
0
100
AcDbLine
 62
7
  6
CONTINUOUS
 10
12.4392831417
 20
8.1664391941
 11
12.4392831417
 21
8.1390762228
  0
LINE
  5
2CB
100
AcDbEntity
  8
0
100
AcDbLine
 62
9
  6
CONTINUOUS
 10
12.4484036338
 20
9.2657678041
 11
12.4484036338
 21
9.0351993032
  0
LINE
  5
2CC
100
AcDbEntity
  8
0
100
AcDbLine
 62
7
  6
CONTINUOUS
 10
12.460264998
 20
8.1664391941
 11
12.460264998
 21
8.1390762228
  0
LINE
  5
2CD
100
AcDbEntity
  8
0
100
AcDbLine
 62
7
  6
CONTINUOUS
 10
12.4794379575
 20
8.1664391941
 11
12.4794379575
 21
8.1390762228
  0
LINE
  5
2CE
100
AcDbEntity
  8
0
100
AcDbLine
 62
7
  6
CONTINUOUS
 10
12.4967126272
 20
8.1664391941
 11
12.4967126272
 21
8.1390762228
  0
LINE
  5
2CF
100
AcDbEntity
  8
0
100
AcDbLine
 62
7
  6
CONTINUOUS
 10
12.5120084645
 20
8.1664391941
 11
12.5120084645
 21
8.1390762228
  0
LINE
  5
2D0
100
AcDbEntity
  8
0
100
AcDbLine
 62
7
  6
CONTINUOUS
 10
12.5252541531
 20
8.1664391941
 11
12.5252541531
 21
8.1390762228
  0
LINE
  5
2D1
100
AcDbEntity
  8
0
100
AcDbLine
 62
7
  6
CONTINUOUS
 10
12.5363879356
 20
8.1664391941
 11
12.5363879356
 21
8.1390762228
  0
LINE
  5
2D2
100
AcDbEntity
  8
0
100
AcDbLine
 62
7
  6
CONTINUOUS
 10
12.5453579011
 20
8.1664391941
 11
12.5453579011
 21
8.1390762228
  0
LINE
  5
2D3
100
AcDbEntity
  8
0
100
AcDbLine
 62
7
  6
CONTINUOUS
 10
12.5521222274
 20
8.1664391941
 11
12.5521222274
 21
8.1390762228
  0
LINE
  5
2D4
100
AcDbEntity
  8
0
100
AcDbLine
 62
7
  6
CONTINUOUS
 10
12.5566493763
 20
8.1664391941
 11
12.5566493763
 21
8.1390762228
  0
LINE
  5
2D5
100
AcDbEntity
  8
0
100
AcDbLine
 62
7
  6
CONTINUOUS
 10
12.55891824
 20
8.1664391941
 11
12.55891824
 21
8.1390762228
  0
LINE
  5
2D6
100
AcDbEntity
  8
0
100
AcDbLine
 62
7
  6
CONTINUOUS
 10
12.5622946802
 20
6.877414523
 11
12.5622946802
 21
6.867414523
  0
LINE
  5
2D7
100
AcDbEntity
  8
0
100
AcDbLine
 62
7
  6
CONTINUOUS
 10
12.5847946802
 20
7.1418381195
 11
12.5847946802
 21
6.877414523
  0
LINE
  5
2D8
100
AcDbEntity
  8
0
100
AcDbLine
 62
7
  6
CONTINUOUS
 10
12.5377432126
 20
9.4889862325
 11
12.5300880037
 21
9.4268498789
  0
LINE
  5
2D9
100
AcDbEntity
  8
0
100
AcDbLine
 62
7
  6
CONTINUOUS
 10
12.4413662253
 20
9.0212728317
 11
12.415022626
 21
8.8948259827
  0
LINE
  5
2DA
100
AcDbEntity
  8
0
100
AcDbLine
 62
7
  6
CONTINUOUS
 10
11.1420666565
 20
6.5933034559
 11
11.0741684097
 21
6.5612780896
  0
LINE
  5
2DB
100
AcDbEntity
  8
0
100
AcDbLine
 62
7
  6
CONTINUOUS
 10
20.0069170761
 20
10.801391804
 11
20.2049922669
 21
10.801391804
  0
LINE
  5
2DC
100
AcDbEntity
  8
0
100
AcDbLine
 62
7
  6
CONTINUOUS
 10
20.4329256367
 20
10.801391804
 11
20.9111214488
 21
10.801391804
  0
LINE
  5
2DD
100
AcDbEntity
  8
0
100
AcDbLine
 62
7
  6
CONTINUOUS
 10
21.2334679117
 20
10.801391804
 11
21.7116637237
 21
10.801391804
  0
LINE
  5
2DE
100
AcDbEntity
  8
0
100
AcDbLine
 62
7
  6
CONTINUOUS
 10
21.9395970936
 20
10.801391804
 11
22.1376722844
 21
10.801391804
  0
LINE
  5
2DF
100
AcDbEntity
  8
0
100
AcDbLine
 62
9
  6
CONTINUOUS
 10
22.1376722844
 20
11.411391804
 11
21.9395970936
 21
11.411391804
  0
LINE
  5
2E0
100
AcDbEntity
  8
0
100
AcDbLine
 62
9
  6
CONTINUOUS
 10
21.7116637237
 20
11.411391804
 11
21.2334679117
 21
11.411391804
  0
LINE
  5
2E1
100
AcDbEntity
  8
0
100
AcDbLine
 62
9
  6
CONTINUOUS
 10
20.9111214488
 20
11.411391804
 11
20.4329256367
 21
11.411391804
  0
LINE
  5
2E2
100
AcDbEntity
  8
0
100
AcDbLine
 62
9
  6
CONTINUOUS
 10
20.2049922669
 20
11.411391804
 11
20.0069170761
 21
11.411391804
  0
LINE
  5
2E3
100
AcDbEntity
  8
0
100
AcDbLine
 62
7
  6
CONTINUOUS
 10
13.2250073399
 20
9.531114523
 11
13.2250073399
 21
8.906114523
  0
LINE
  5
2E4
100
AcDbEntity
  8
0
100
AcDbLine
 62
9
  6
CONTINUOUS
 10
13.2849147218
 20
8.9037589953
 11
13.2849147218
 21
9.5334700506
  0
LINE
  5
2E5
100
AcDbEntity
  8
0
100
AcDbLine
 62
7
  6
CONTINUOUS
 10
21.9997796386
 20
11.561391804
 11
20.1448097219
 21
11.561391804
  0
LINE
  5
2E6
100
AcDbEntity
  8
0
100
AcDbLine
 62
9
  6
CONTINUOUS
 10
20.1631582472
 20
11.621391804
 11
21.9814311133
 21
11.621391804
  0
LINE
  5
2E7
100
AcDbEntity
  8
0
100
AcDbLine
 62
7
  6
CONTINUOUS
 10
21.860763459
 20
10.5055330736
 11
22.0622946802
 21
10.7118248749
  0
LINE
  5
2E8
100
AcDbEntity
  8
0
100
AcDbLine
 62
7
  6
CONTINUOUS
 10
20.2838259015
 20
10.5055330736
 11
20.0822946802
 21
10.7118248749
  0
LINE
  5
2E9
100
AcDbEntity
  8
0
100
AcDbLine
 62
7
  6
CONTINUOUS
 10
20.0069170761
 20
10.801391804
 11
20.0069170761
 21
11.411391804
  0
LINE
  5
2EA
100
AcDbEntity
  8
0
100
AcDbLine
 62
7
  6
CONTINUOUS
 10
20.0597946802
 20
6.5823592717
 11
20.0597946802
 21
6.333391804
  0
LINE
  5
2EB
100
AcDbEntity
  8
0
100
AcDbLine
 62
7
  6
CONTINUOUS
 10
20.4337665428
 20
10.7854668453
 11
20.4329256367
 21
10.801391804
  0
LINE
  5
2EC
100
AcDbEntity
  8
0
100
AcDbLine
 62
7
  6
CONTINUOUS
 10
20.2049922669
 20
10.801391804
 11
20.2049922669
 21
11.411391804
  0
LINE
  5
2ED
100
AcDbEntity
  8
0
100
AcDbLine
 62
7
  6
CONTINUOUS
 10
20.3122946802
 20
10.4356525729
 11
20.3122946802
 21
9.8762249518
  0
LINE
  5
2EE
100
AcDbEntity
  8
0
100
AcDbLine
 62
7
  6
CONTINUOUS
 10
20.4329256367
 20
10.801391804
 11
20.4329256367
 21
11.411391804
  0
LINE
  5
2EF
100
AcDbEntity
  8
0
100
AcDbLine
 62
7
  6
CONTINUOUS
 10
20.9111214488
 20
10.801391804
 11
20.9111214488
 21
11.411391804
  0
LINE
  5
2F0
100
AcDbEntity
  8
0
100
AcDbLine
 62
7
  6
CONTINUOUS
 10
20.4967057474
 20
9.801391804
 11
20.4154240768
 21
7.6367325769
  0
LINE
  5
2F1
100
AcDbEntity
  8
0
100
AcDbLine
 62
7
  6
CONTINUOUS
 10
21.647883613
 20
9.801391804
 11
21.7291652836
 21
7.6367325769
  0
LINE
  5
2F2
100
AcDbEntity
  8
0
100
AcDbLine
 62
7
  6
CONTINUOUS
 10
21.2334679117
 20
10.801391804
 11
21.2334679117
 21
11.411391804
  0
LINE
  5
2F3
100
AcDbEntity
  8
0
100
AcDbLine
 62
7
  6
CONTINUOUS
 10
21.7116637237
 20
10.801391804
 11
21.7116637237
 21
11.411391804
  0
LINE
  5
2F4
100
AcDbEntity
  8
0
100
AcDbLine
 62
7
  6
CONTINUOUS
 10
21.8322946802
 20
10.4356525729
 11
21.8322946802
 21
9.8762249518
  0
LINE
  5
2F5
100
AcDbEntity
  8
0
100
AcDbLine
 62
7
  6
CONTINUOUS
 10
21.9395970936
 20
10.801391804
 11
21.9395970936
 21
11.411391804
  0
LINE
  5
2F6
100
AcDbEntity
  8
0
100
AcDbLine
 62
7
  6
CONTINUOUS
 10
22.0847946802
 20
6.5823592717
 11
22.0847946802
 21
6.333391804
  0
LINE
  5
2F7
100
AcDbEntity
  8
0
100
AcDbLine
 62
7
  6
CONTINUOUS
 10
22.1376722844
 20
10.801391804
 11
22.1376722844
 21
11.411391804
  0
LINE
  5
2F8
100
AcDbEntity
  8
0
100
AcDbLine
 62
7
  6
CONTINUOUS
 10
21.7116637237
 20
10.801391804
 11
21.7108228177
 21
10.7854666192
  0
ARC
  5
2F9
100
AcDbEntity
  8
0
100
AcDbCircle
 62
7
  6
CONTINUOUS
 10
4.0722946802
 20
5.8965446259
 40
2.0804976133
100
AcDbArc
 50
80.9167919454
 51
99.0832080546
  0
ARC
  5
2FA
100
AcDbEntity
  8
0
100
AcDbCircle
 62
7
  6
CONTINUOUS
 10
0.1635150865
 20
6.1504967643
 40
0.9
100
AcDbArc
 50
130.6439171763
 51
168.2748731243
  0
ARC
  5
2FB
100
AcDbEntity
  8
0
100
AcDbCircle
 62
7
  6
CONTINUOUS
 10
-0.0189257261
 20
6.1504967643
 40
0.9
100
AcDbArc
 50
11.7251268757
 51
49.3560828237
  0
ARC
  5
2FC
100
AcDbEntity
  8
0
100
AcDbCircle
 62
7
  6
CONTINUOUS
 10
0.0097946802
 20
6.913391804
 40
0.4
100
AcDbArc
 50
155.7790568908
 51
180.0
  0
ARC
  5
2FD
100
AcDbEntity
  8
0
100
AcDbCircle
 62
7
  6
CONTINUOUS
 10
0.1347946802
 20
6.913391804
 40
0.4
100
AcDbArc
 50
0.0
 51
24.2209431092
  0
ARC
  5
2FE
100
AcDbEntity
  8
0
100
AcDbCircle
 62
7
  6
CONTINUOUS
 10
4.5518718926
 20
6.271391804
 40
0.187
100
AcDbArc
 50
19.3629299219
 51
90.0
  0
ARC
  5
2FF
100
AcDbEntity
  8
0
100
AcDbCircle
 62
7
  6
CONTINUOUS
 10
3.5927174679
 20
6.271391804
 40
0.187
100
AcDbArc
 50
90.0
 51
160.6370700781
  0
ARC
  5
300
100
AcDbEntity
  8
0
100
AcDbCircle
 62
7
  6
CONTINUOUS
 10
3.7799674679
 20
6.396391804
 40
0.187
100
AcDbArc
 50
90.0
 51
160.6370700781
  0
ARC
  5
301
100
AcDbEntity
  8
0
100
AcDbCircle
 62
7
  6
CONTINUOUS
 10
4.3646218926
 20
6.396391804
 40
0.187
100
AcDbArc
 50
19.3629299219
 51
90.0
  0
ARC
  5
302
100
AcDbEntity
  8
0
100
AcDbCircle
 62
7
  6
CONTINUOUS
 10
4.3472946802
 20
7.103391804
 40
0.02
100
AcDbArc
 50
90.0
 51
180.0
  0
ARC
  5
303
100
AcDbEntity
  8
0
100
AcDbCircle
 62
7
  6
CONTINUOUS
 10
3.7972946802
 20
7.103391804
 40
0.02
100
AcDbArc
 50
0.0
 51
90.0
  0
ARC
  5
304
100
AcDbEntity
  8
0
100
AcDbCircle
 62
7
  6
CONTINUOUS
 10
-0.3458737046
 20
7.073391804
 40
0.01
100
AcDbArc
 50
90.0
 51
155.7790568908
  0
ARC
  5
305
100
AcDbEntity
  8
0
100
AcDbCircle
 62
7
  6
CONTINUOUS
 10
0.4904630651
 20
7.073391804
 40
0.01
100
AcDbArc
 50
24.2209431092
 51
90.0
  0
ARC
  5
306
100
AcDbEntity
  8
0
100
AcDbCircle
 62
7
  6
CONTINUOUS
 10
2.583352425
 20
7.9611792461
 40
1.9392296678
100
AcDbArc
 50
345.63569187
 51
356.074651701
  0
ARC
  5
307
100
AcDbEntity
  8
0
100
AcDbCircle
 62
7
  6
CONTINUOUS
 10
5.5612369354
 20
7.9611792461
 40
1.9392296678
100
AcDbArc
 50
183.925348299
 51
194.36430813
  0
ARC
  5
308
100
AcDbEntity
  8
0
100
AcDbCircle
 62
7
  6
CONTINUOUS
 10
3.6363546433
 20
7.2190671116
 40
0.1000000406
100
AcDbArc
 50
331.3456801101
 51
9.8163197362
  0
ARC
  5
309
100
AcDbEntity
  8
0
100
AcDbCircle
 62
7
  6
CONTINUOUS
 10
4.5082347171
 20
7.2190671116
 40
0.1000000406
100
AcDbArc
 50
170.1836802638
 51
208.6543198912
  0
ARC
  5
30A
100
AcDbEntity
  8
0
100
AcDbCircle
 62
7
  6
CONTINUOUS
 10
4.6177980393
 20
7.8215803881
 40
0.1000000187
100
AcDbArc
 50
137.8986166955
 51
176.0746517544
  0
ARC
  5
30B
100
AcDbEntity
  8
0
100
AcDbCircle
 62
7
  6
CONTINUOUS
 10
3.5267913212
 20
7.8215803881
 40
0.1000000187
100
AcDbArc
 50
3.9253482456
 51
42.1013833042
  0
ARC
  5
30C
100
AcDbEntity
  8
0
100
AcDbCircle
 62
7
  6
CONTINUOUS
 10
9.1632637338
 20
7.0704145256
 40
2.5080000028
100
AcDbArc
 50
5.1872496666
 51
8.8065547675
  0
ARC
  5
30D
100
AcDbEntity
  8
0
100
AcDbCircle
 62
7
  6
CONTINUOUS
 10
11.5404759454
 20
6.2631527893
 40
0.6078409296
100
AcDbArc
 50
159.6970355868
 51
173.3643665395
  0
ARC
  5
30E
100
AcDbEntity
  8
0
100
AcDbCircle
 62
7
  6
CONTINUOUS
 10
10.9289304729
 20
7.0332351203
 40
0.4888424103
100
AcDbArc
 50
295.8490587853
 51
321.3390445145
  0
ARC
  5
30F
100
AcDbEntity
  8
0
100
AcDbCircle
 62
7
  6
CONTINUOUS
 10
11.2301523296
 20
6.2214318579
 40
0.3739337434
100
AcDbArc
 50
114.6543569548
 51
127.2907938915
  0
ARC
  5
310
100
AcDbEntity
  8
0
100
AcDbCircle
 62
7
  6
CONTINUOUS
 10
11.0186576294
 20
6.9614504485
 40
0.3739337434
100
AcDbArc
 50
321.3390445146
 51
345.43503933
  0
ARC
  5
311
100
AcDbEntity
  8
0
100
AcDbCircle
 62
7
  6
CONTINUOUS
 10
11.0641866734
 20
6.439365556
 40
0.1
100
AcDbArc
 50
127.2907938916
 51
159.6970355868
  0
ARC
  5
312
100
AcDbEntity
  8
0
100
AcDbCircle
 62
7
  6
CONTINUOUS
 10
9.8950042633
 20
7.8584145168
 40
2.6389999969
100
AcDbArc
 50
351.1934452326
 51
357.6954064276
  0
ARC
  5
313
100
AcDbEntity
  8
0
100
AcDbCircle
 62
7
  6
CONTINUOUS
 10
10.6983539684
 20
7.8260841485
 40
1.8349999961
100
AcDbArc
 50
357.6954064276
 51
6.950793285
  0
ARC
  5
314
100
AcDbEntity
  8
0
100
AcDbCircle
 62
7
  6
CONTINUOUS
 10
11.4497509253
 20
7.5533795791
 40
0.4260000011
100
AcDbArc
 50
284.9703215056
 51
285.5173434455
  0
ARC
  5
315
100
AcDbEntity
  8
0
100
AcDbCircle
 62
7
  6
CONTINUOUS
 10
11.3442946829
 20
7.2684145247
 40
0.3180000027
100
AcDbArc
 50
350.3302611379
 51
5.1872496666
  0
ARC
  5
316
100
AcDbEntity
  8
0
100
AcDbCircle
 62
7
  6
CONTINUOUS
 10
11.5013842256
 20
7.3674145235
 40
0.2330000021
100
AcDbArc
 50
285.5173434455
 51
303.859188203
  0
ARC
  5
317
100
AcDbEntity
  8
0
100
AcDbCircle
 62
7
  6
CONTINUOUS
 10
11.5966575159
 20
7.2254145248
 40
0.0620000037
100
AcDbArc
 50
303.859188203
 51
350.330261138
  0
ARC
  5
318
100
AcDbEntity
  8
0
100
AcDbCircle
 62
7
  6
CONTINUOUS
 10
11.5304802103
 20
8.0841981405
 40
0.1792398689
100
AcDbArc
 50
8.588022283
 51
8.8473089131
  0
ARC
  5
319
100
AcDbEntity
  8
0
100
AcDbCircle
 62
7
  6
CONTINUOUS
 10
11.5784637792
 20
8.0834029223
 40
0.1132596048
100
AcDbArc
 50
14.0839389605
 51
14.5025285898
  0
ARC
  5
31A
100
AcDbEntity
  8
0
100
AcDbCircle
 62
7
  6
CONTINUOUS
 10
11.6294199953
 20
8.0252069343
 40
0.1040351974
100
AcDbArc
 50
55.5182746691
 51
56.3060968919
  0
ARC
  5
31B
100
AcDbEntity
  8
0
100
AcDbCircle
 62
7
  6
CONTINUOUS
 10
11.6121615273
 20
8.0269179176
 40
0.1024328793
100
AcDbArc
 50
55.1344453646
 51
55.9266469564
  0
ARC
  5
31C
100
AcDbEntity
  8
0
100
AcDbCircle
 62
7
  6
CONTINUOUS
 10
11.5968331959
 20
8.0290726074
 40
0.1004400606
100
AcDbArc
 50
54.6193159464
 51
55.4167806387
  0
ARC
  5
31D
100
AcDbEntity
  8
0
100
AcDbCircle
 62
7
  6
CONTINUOUS
 10
11.5835191524
 20
8.0316840834
 40
0.0980456721
100
AcDbArc
 50
53.9592383825
 51
54.7631762093
  0
ARC
  5
31E
100
AcDbEntity
  8
0
100
AcDbCircle
 62
7
  6
CONTINUOUS
 10
11.5722972681
 20
8.0347411934
 40
0.0952587887
100
AcDbArc
 50
53.1455094453
 51
53.9569350562
  0
ARC
  5
31F
100
AcDbEntity
  8
0
100
AcDbCircle
 62
7
  6
CONTINUOUS
 10
11.5631545076
 20
8.0381187335
 40
0.0922303697
100
AcDbArc
 50
52.1682277497
 51
52.9875716037
  0
ARC
  5
320
100
AcDbEntity
  8
0
100
AcDbCircle
 62
7
  6
CONTINUOUS
 10
11.5852179911
 20
8.0810637493
 40
0.0905769327
100
AcDbArc
 50
19.2751545362
 51
19.8131949074
  0
ARC
  5
321
100
AcDbEntity
  8
0
100
AcDbCircle
 62
7
  6
CONTINUOUS
 10
11.5561364484
 20
8.0418023015
 40
0.0889832869
100
AcDbArc
 50
51.0085220107
 51
51.8361796668
  0
ARC
  5
322
100
AcDbEntity
  8
0
100
AcDbCircle
 62
7
  6
CONTINUOUS
 10
11.5512462539
 20
8.0457233736
 40
0.0856056636
100
AcDbArc
 50
49.6498160994
 51
50.4855279421
  0
ARC
  5
323
100
AcDbEntity
  8
0
100
AcDbCircle
 62
7
  6
CONTINUOUS
 10
11.5484432978
 20
8.0497851573
 40
0.0822312554
100
AcDbArc
 50
48.0715811338
 51
48.9142419398
  0
ARC
  5
324
100
AcDbEntity
  8
0
100
AcDbCircle
 62
7
  6
CONTINUOUS
 10
11.5476873316
 20
8.0539233691
 40
0.0789654968
100
AcDbArc
 50
46.2483158313
 51
47.095850942
  0
ARC
  5
325
100
AcDbEntity
  8
0
100
AcDbCircle
 62
7
  6
CONTINUOUS
 10
11.5837437738
 20
8.0791324132
 40
0.0780324309
100
AcDbArc
 50
24.0744818453
 51
24.72084905
  0
ARC
  5
326
100
AcDbEntity
  8
0
100
AcDbCircle
 62
7
  6
CONTINUOUS
 10
11.5488993259
 20
8.0580623622
 40
0.0759461118
100
AcDbArc
 50
44.1518678887
 51
45.0007339464
  0
ARC
  5
327
100
AcDbEntity
  8
0
100
AcDbCircle
 62
7
  6
CONTINUOUS
 10
11.5507895471
 20
8.0571634286
 40
0.0744800316
100
AcDbArc
 50
353.0491731612
 51
46.2485107892
  0
ARC
  5
328
100
AcDbEntity
  8
0
100
AcDbCircle
 62
7
  6
CONTINUOUS
 10
11.5519547609
 20
8.0621242557
 40
0.0733436241
100
AcDbArc
 50
41.7512047274
 51
42.596030813
  0
ARC
  5
329
100
AcDbEntity
  8
0
100
AcDbCircle
 62
7
  6
CONTINUOUS
 10
11.5775176558
 20
8.0764550607
 40
0.07243597
100
AcDbArc
 50
28.4506565173
 51
29.17431286
  0
ARC
  5
32A
100
AcDbEntity
  8
0
100
AcDbCircle
 62
7
  6
CONTINUOUS
 10
11.5566675148
 20
8.0660328518
 40
0.0713745429
100
AcDbArc
 50
39.0137659864
 51
39.8467985787
  0
ARC
  5
32B
100
AcDbEntity
  8
0
100
AcDbCircle
 62
7
  6
CONTINUOUS
 10
11.569714788
 20
8.0730780864
 40
0.0707210185
100
AcDbArc
 50
32.3916407906
 51
33.1639601367
  0
ARC
  5
32C
100
AcDbEntity
  8
0
100
AcDbCircle
 62
7
  6
CONTINUOUS
 10
11.562750728
 20
8.0697155342
 40
0.0703371263
100
AcDbArc
 50
35.9044089993
 51
36.7147331023
  0
ARC
  5
32D
100
AcDbEntity
  8
0
100
AcDbCircle
 62
7
  6
CONTINUOUS
 10
11.5648533822
 20
8.1478799777
 40
0.8517823313
100
AcDbArc
 50
358.2602873576
 51
359.4077982602
  0
ARC
  5
32E
100
AcDbEntity
  8
0
100
AcDbCircle
 62
7
  6
CONTINUOUS
 10
11.6358114206
 20
8.1531795144
 40
0.0518639451
100
AcDbArc
 50
164.2930910335
 51
165.1871392363
  0
ARC
  5
32F
100
AcDbEntity
  8
0
100
AcDbCircle
 62
7
  6
CONTINUOUS
 10
11.6359987943
 20
8.1530011148
 40
0.0499022164
100
AcDbArc
 50
162.4365798079
 51
164.3780834196
  0
ARC
  5
330
100
AcDbEntity
  8
0
100
AcDbCircle
 62
7
  6
CONTINUOUS
 10
11.6922723757
 20
8.0235151612
 40
0.1056151658
100
AcDbArc
 50
55.893221105
 51
56.6768937437
  0
ARC
  5
331
100
AcDbEntity
  8
0
100
AcDbCircle
 62
7
  6
CONTINUOUS
 10
11.6696113753
 20
8.0235643518
 40
0.1055564598
100
AcDbArc
 50
55.8925700635
 51
56.676317002
  0
ARC
  5
332
100
AcDbEntity
  8
0
100
AcDbCircle
 62
7
  6
CONTINUOUS
 10
11.6486137781
 20
8.0241124772
 40
0.1050502535
100
AcDbArc
 50
55.7672890655
 51
56.5524992343
  0
ARC
  5
333
100
AcDbEntity
  8
0
100
AcDbCircle
 62
7
  6
CONTINUOUS
 10
11.7166010028
 20
8.0241341679
 40
0.1050242456
100
AcDbArc
 50
55.7670390031
 51
56.5523012111
  0
ARC
  5
334
100
AcDbEntity
  8
0
100
AcDbCircle
 62
7
  6
CONTINUOUS
 10
11.7423102071
 20
8.0251297495
 40
0.1041250285
100
AcDbArc
 50
55.5215928231
 51
56.3091249476
  0
ARC
  5
335
100
AcDbEntity
  8
0
100
AcDbCircle
 62
7
  6
CONTINUOUS
 10
11.6653553774
 20
8.153747032
 40
0.0673309997
100
AcDbArc
 50
160.568083987
 51
169.1345083506
  0
ARC
  5
336
100
AcDbEntity
  8
0
100
AcDbCircle
 62
7
  6
CONTINUOUS
 10
11.656642219
 20
8.1521947635
 40
0.0655021967
100
AcDbArc
 50
191.553119524
 51
196.8616645298
  0
ARC
  5
337
100
AcDbEntity
  8
0
100
AcDbCircle
 62
7
  6
CONTINUOUS
 10
11.6537110969
 20
8.1534577779
 40
0.0626046347
100
AcDbArc
 50
158.7509159008
 51
168.0325764979
  0
ARC
  5
338
100
AcDbEntity
  8
0
100
AcDbCircle
 62
7
  6
CONTINUOUS
 10
11.6487094835
 20
8.1526248174
 40
0.0622615167
100
AcDbArc
 50
192.5685690347
 51
193.6865680728
  0
ARC
  5
339
100
AcDbEntity
  8
0
100
AcDbCircle
 62
7
  6
CONTINUOUS
 10
11.6475712302
 20
8.1523269716
 40
0.0610851145
100
AcDbArc
 50
193.6677470533
 51
198.252218294
  0
ARC
  5
33A
100
AcDbEntity
  8
0
100
AcDbCircle
 62
7
  6
CONTINUOUS
 10
11.6426464707
 20
8.1527437636
 40
0.0585917417
100
AcDbArc
 50
193.4895114198
 51
194.1258859806
  0
ARC
  5
33B
100
AcDbEntity
  8
0
100
AcDbCircle
 62
7
  6
CONTINUOUS
 10
11.6445753815
 20
8.1533791677
 40
0.0581217044
100
AcDbArc
 50
165.6098344774
 51
167.0146819137
  0
ARC
  5
33C
100
AcDbEntity
  8
0
100
AcDbCircle
 62
7
  6
CONTINUOUS
 10
11.6419899468
 20
8.1525615589
 40
0.0579106047
100
AcDbArc
 50
194.1095924443
 51
199.5372837519
  0
ARC
  5
33D
100
AcDbEntity
  8
0
100
AcDbCircle
 62
7
  6
CONTINUOUS
 10
11.6399663298
 20
8.1509804928
 40
0.0576205062
100
AcDbArc
 50
95.7716477386
 51
100.127148761
  0
ARC
  5
33E
100
AcDbEntity
  8
0
100
AcDbCircle
 62
7
  6
CONTINUOUS
 10
11.6398995873
 20
8.1512881447
 40
0.0573059131
100
AcDbArc
 50
100.1155435532
 51
113.2935868883
  0
ARC
  5
33F
100
AcDbEntity
  8
0
100
AcDbCircle
 62
7
  6
CONTINUOUS
 10
11.643774989
 20
8.153910298
 40
0.0571860882
100
AcDbArc
 50
146.3002453453
 51
157.1169969864
  0
ARC
  5
340
100
AcDbEntity
  8
0
100
AcDbCircle
 62
7
  6
CONTINUOUS
 10
11.6399116279
 20
8.1515610178
 40
0.0570374232
100
AcDbArc
 50
90.0100573518
 51
95.7756209268
  0
ARC
  5
341
100
AcDbEntity
  8
0
100
AcDbCircle
 62
7
  6
CONTINUOUS
 10
11.6397392461
 20
8.1515069406
 40
0.0561596013
100
AcDbArc
 50
130.3340282645
 51
142.2478154755
  0
ARC
  5
342
100
AcDbEntity
  8
0
100
AcDbCircle
 62
7
  6
CONTINUOUS
 10
11.6401227098
 20
8.152918896
 40
0.0560971316
100
AcDbArc
 50
144.1611304949
 51
149.279823725
  0
ARC
  5
343
100
AcDbEntity
  8
0
100
AcDbCircle
 62
7
  6
CONTINUOUS
 10
11.639062521
 20
8.1537376742
 40
0.0556743995
100
AcDbArc
 50
221.6229345548
 51
228.9288586707
  0
ARC
  5
344
100
AcDbEntity
  8
0
100
AcDbCircle
 62
7
  6
CONTINUOUS
 10
11.6396156553
 20
8.1530589968
 40
0.0556327769
100
AcDbArc
 50
131.1911035276
 51
132.1320573927
  0
ARC
  5
345
100
AcDbEntity
  8
0
100
AcDbCircle
 62
7
  6
CONTINUOUS
 10
11.639548085
 20
8.1528524242
 40
0.0556103501
100
AcDbArc
 50
194.3430656026
 51
195.0527345163
  0
ARC
  5
346
100
AcDbEntity
  8
0
100
AcDbCircle
 62
7
  6
CONTINUOUS
 10
11.63922171
 20
8.1529992062
 40
0.0554662838
100
AcDbArc
 50
113.3493709865
 51
116.5949116488
  0
ARC
  5
347
100
AcDbEntity
  8
0
100
AcDbCircle
 62
7
  6
CONTINUOUS
 10
11.6390911819
 20
8.151956941
 40
0.0553717024
100
AcDbArc
 50
142.2054161885
 51
153.723728917
  0
ARC
  5
348
100
AcDbEntity
  8
0
100
AcDbCircle
 62
7
  6
CONTINUOUS
 10
11.6392633947
 20
8.1527660664
 40
0.0553130012
100
AcDbArc
 50
195.0429372921
 51
200.7223608982
  0
ARC
  5
349
100
AcDbEntity
  8
0
100
AcDbCircle
 62
7
  6
CONTINUOUS
 10
11.6392666841
 20
8.153462207
 40
0.0550995315
100
AcDbArc
 50
128.3212028988
 51
131.1941569353
  0
ARC
  5
34A
100
AcDbEntity
  8
0
100
AcDbCircle
 62
7
  6
CONTINUOUS
 10
11.6386627982
 20
8.1532921593
 40
0.0545981907
100
AcDbArc
 50
165.2686846121
 51
166.066464678
  0
ARC
  5
34B
100
AcDbEntity
  8
0
100
AcDbCircle
 62
7
  6
CONTINUOUS
 10
11.6389027375
 20
8.1538836734
 40
0.0545432315
100
AcDbArc
 50
132.1578222388
 51
144.2323877518
  0
ARC
  5
34C
100
AcDbEntity
  8
0
100
AcDbCircle
 62
7
  6
CONTINUOUS
 10
11.6381535835
 20
8.1512729015
 40
0.0539294779
100
AcDbArc
 50
219.7895508048
 51
227.1033637624
  0
ARC
  5
34D
100
AcDbEntity
  8
0
100
AcDbCircle
 62
7
  6
CONTINUOUS
 10
11.6385355066
 20
8.1543980023
 40
0.0539119758
100
AcDbArc
 50
116.4721441047
 51
128.3282329518
  0
ARC
  5
34E
100
AcDbEntity
  8
0
100
AcDbCircle
 62
7
  6
CONTINUOUS
 10
11.6375648531
 20
8.1526560198
 40
0.0536936294
100
AcDbArc
 50
153.6715881765
 51
164.2618641417
  0
ARC
  5
34F
100
AcDbEntity
  8
0
100
AcDbCircle
 62
7
  6
CONTINUOUS
 10
11.6393207268
 20
8.1529612136
 40
0.0532236993
100
AcDbArc
 50
195.1268466771
 51
201.8017673002
  0
ARC
  5
350
100
AcDbEntity
  8
0
100
AcDbCircle
 62
7
  6
CONTINUOUS
 10
11.6374111274
 20
8.1506333784
 40
0.0529497016
100
AcDbArc
 50
216.6270454187
 51
219.7719557317
  0
ARC
  5
351
100
AcDbEntity
  8
0
100
AcDbCircle
 62
7
  6
CONTINUOUS
 10
11.6396987736
 20
8.1488577099
 40
0.0524608552
100
AcDbArc
 50
210.7645744142
 51
224.1815127722
  0
ARC
  5
352
100
AcDbEntity
  8
0
100
AcDbCircle
 62
7
  6
CONTINUOUS
 10
11.6396172624
 20
8.1487828455
 40
0.0523502252
100
AcDbArc
 50
224.1849275821
 51
225.0009062608
  0
ARC
  5
353
100
AcDbEntity
  8
0
100
AcDbCircle
 62
7
  6
CONTINUOUS
 10
11.6367644817
 20
8.1501483997
 40
0.0521414059
100
AcDbArc
 50
212.6467634948
 51
216.6232859125
  0
ARC
  5
354
100
AcDbEntity
  8
0
100
AcDbCircle
 62
7
  6
CONTINUOUS
 10
11.6380856052
 20
8.1523113713
 40
0.0520998929
100
AcDbArc
 50
152.374009482
 51
162.4059288318
  0
ARC
  5
355
100
AcDbEntity
  8
0
100
AcDbCircle
 62
7
  6
CONTINUOUS
 10
11.6420793905
 20
8.1531569391
 40
0.0515717235
100
AcDbArc
 50
195.8447517519
 51
202.7734387292
  0
ARC
  5
356
100
AcDbEntity
  8
0
100
AcDbCircle
 62
7
  6
CONTINUOUS
 10
11.6432483905
 20
8.1460609408
 40
0.0506720762
100
AcDbArc
 50
220.2655332892
 51
222.5956650071
  0
ARC
  5
357
100
AcDbEntity
  8
0
100
AcDbCircle
 62
7
  6
CONTINUOUS
 10
11.6473875853
 20
8.1533315343
 40
0.0502217719
100
AcDbArc
 50
196.4899550774
 51
203.6377492724
  0
ARC
  5
358
100
AcDbEntity
  8
0
100
AcDbCircle
 62
7
  6
CONTINUOUS
 10
11.6496510333
 20
8.1436262044
 40
0.0497314566
100
AcDbArc
 50
216.1400970694
 51
219.8411811794
  0
ARC
  5
359
100
AcDbEntity
  8
0
100
AcDbCircle
 62
7
  6
CONTINUOUS
 10
11.6589927671
 20
8.1414743637
 40
0.04971228
100
AcDbArc
 50
211.9080807462
 51
216.699691607
  0
ARC
  5
35A
100
AcDbEntity
  8
0
100
AcDbCircle
 62
7
  6
CONTINUOUS
 10
11.6388006586
 20
8.1528423005
 40
0.0482873804
100
AcDbArc
 50
160.5267493031
 51
163.6453087791
  0
ARC
  5
35B
100
AcDbEntity
  8
0
100
AcDbCircle
 62
7
  6
CONTINUOUS
 10
11.9541738516
 20
8.0840064639
 40
0.180514691
100
AcDbArc
 50
171.154137631
 51
171.4115815116
  0
ARC
  5
35C
100
AcDbEntity
  8
0
100
AcDbCircle
 62
7
  6
CONTINUOUS
 10
11.9077186113
 20
8.0842633797
 40
0.1097608653
100
AcDbArc
 50
165.4885284036
 51
165.920779994
  0
ARC
  5
35D
100
AcDbEntity
  8
0
100
AcDbCircle
 62
7
  6
CONTINUOUS
 10
11.769550484
 20
8.0269439783
 40
0.1024021262
100
AcDbArc
 50
55.133567674
 51
55.9259091516
  0
ARC
  5
35E
100
AcDbEntity
  8
0
100
AcDbCircle
 62
7
  6
CONTINUOUS
 10
11.7978354648
 20
8.028953851
 40
0.1005795951
100
AcDbArc
 50
54.6246086036
 51
55.4215815239
  0
ARC
  5
35F
100
AcDbEntity
  8
0
100
AcDbCircle
 62
7
  6
CONTINUOUS
 10
11.8273543679
 20
8.0316749823
 40
0.0980563662
100
AcDbArc
 50
53.9597500371
 51
54.7637032871
  0
ARC
  5
360
100
AcDbEntity
  8
0
100
AcDbCircle
 62
7
  6
CONTINUOUS
 10
11.8577401829
 20
8.0346936211
 40
0.0953128818
100
AcDbArc
 50
53.150124561
 51
53.9611598418
  0
ARC
  5
361
100
AcDbEntity
  8
0
100
AcDbCircle
 62
7
  6
CONTINUOUS
 10
11.8888721056
 20
8.0380465878
 40
0.0923176572
100
AcDbArc
 50
52.1717580864
 51
52.9908155054
  0
ARC
  5
362
100
AcDbEntity
  8
0
100
AcDbCircle
 62
7
  6
CONTINUOUS
 10
11.9142908496
 20
8.0808159857
 40
0.0913204559
100
AcDbArc
 50
160.1897507114
 51
160.7233488991
  0
ARC
  5
363
100
AcDbEntity
  8
0
100
AcDbCircle
 62
7
  6
CONTINUOUS
 10
11.920676371
 20
8.0417924493
 40
0.0889943143
100
AcDbArc
 50
51.0099020161
 51
51.8375106709
  0
ARC
  5
364
100
AcDbEntity
  8
0
100
AcDbCircle
 62
7
  6
CONTINUOUS
 10
11.9527857168
 20
8.0456064435
 40
0.0857499749
100
AcDbArc
 50
49.6575563728
 51
50.4926030764
  0
ARC
  5
365
100
AcDbEntity
  8
0
100
AcDbCircle
 62
7
  6
CONTINUOUS
 10
11.9241144535
 20
8.0805762488
 40
0.0745269857
100
AcDbArc
 50
155.2594761435
 51
155.9368560708
  0
ARC
  5
366
100
AcDbEntity
  8
0
100
AcDbCircle
 62
7
  6
CONTINUOUS
 10
11.9483000532
 20
8.0766923958
 40
0.0719415012
100
AcDbArc
 50
150.8221814558
 51
151.5508869119
  0
ARC
  5
367
100
AcDbEntity
  8
0
100
AcDbCircle
 62
7
  6
CONTINUOUS
 10
11.7665346802
 20
8.3601744865
 40
0.03724
100
AcDbArc
 50
90.0
 51
180.0
  0
ARC
  5
368
100
AcDbEntity
  8
0
100
AcDbCircle
 62
7
  6
CONTINUOUS
 10
9.2872946802
 20
9.218614523
 40
4.01
100
AcDbArc
 50
355.4966382723
 51
4.5033617277
  0
ARC
  5
369
100
AcDbEntity
  8
0
100
AcDbCircle
 62
7
  6
CONTINUOUS
 10
11.3047809514
 20
9.1433131495
 40
0.4166953634
100
AcDbArc
 50
344.4082175581
 51
348.690176335
  0
ARC
  5
36A
100
AcDbEntity
  8
0
100
AcDbCircle
 62
7
  6
CONTINUOUS
 10
11.3243701612
 20
9.1391403127
 40
0.3966683233
100
AcDbArc
 50
348.7262986871
 51
349.3481113519
  0
ARC
  5
36B
100
AcDbEntity
  8
0
100
AcDbCircle
 62
7
  6
CONTINUOUS
 10
11.507146647
 20
9.481242772
 40
0.1000000227
100
AcDbArc
 50
4.4411340873
 51
43.0463614032
  0
ARC
  5
36C
100
AcDbEntity
  8
0
100
AcDbCircle
 62
7
  6
CONTINUOUS
 10
11.6316066656
 20
8.8747306565
 40
0.0999999791
100
AcDbArc
 50
333.1526000705
 51
11.5927103617
  0
ARC
  5
36D
100
AcDbEntity
  8
0
100
AcDbCircle
 62
7
  6
CONTINUOUS
 10
11.606072921
 20
9.5721840959
 40
0.035032411
100
AcDbArc
 50
149.3020354207
 51
156.8160670758
  0
ARC
  5
36E
100
AcDbEntity
  8
0
100
AcDbCircle
 62
7
  6
CONTINUOUS
 10
11.6061280023
 20
9.5730021951
 40
0.0350286584
100
AcDbArc
 50
194.5018303362
 51
204.3325478705
  0
ARC
  5
36F
100
AcDbEntity
  8
0
100
AcDbCircle
 62
7
  6
CONTINUOUS
 10
11.6053448671
 20
9.5719121511
 40
0.0347464571
100
AcDbArc
 50
94.1734594185
 51
117.3454259998
  0
ARC
  5
370
100
AcDbEntity
  8
0
100
AcDbCircle
 62
7
  6
CONTINUOUS
 10
11.6057096996
 20
9.5728979293
 40
0.0345975739
100
AcDbArc
 50
186.3306460337
 51
194.5081296129
  0
ARC
  5
371
100
AcDbEntity
  8
0
100
AcDbCircle
 62
7
  6
CONTINUOUS
 10
11.6056503345
 20
9.572359386
 40
0.0345749417
100
AcDbArc
 50
156.8073985833
 51
167.3336784193
  0
ARC
  5
372
100
AcDbEntity
  8
0
100
AcDbCircle
 62
7
  6
CONTINUOUS
 10
11.6055997498
 20
9.5724720129
 40
0.0344785605
100
AcDbArc
 50
138.2989290592
 51
149.3120252509
  0
ARC
  5
373
100
AcDbEntity
  8
0
100
AcDbCircle
 62
7
  6
CONTINUOUS
 10
11.6055636963
 20
9.5727492141
 40
0.0344102439
100
AcDbArc
 50
204.3358840846
 51
212.5283024391
  0
ARC
  5
374
100
AcDbEntity
  8
0
100
AcDbCircle
 62
7
  6
CONTINUOUS
 10
11.7511669042
 20
8.8142173652
 40
0.034001903
100
AcDbArc
 50
153.1603029019
 51
163.4464207496
  0
ARC
  5
375
100
AcDbEntity
  8
0
100
AcDbCircle
 62
7
  6
CONTINUOUS
 10
11.7506034761
 20
8.8155746477
 40
0.0340012469
100
AcDbArc
 50
244.1283780309
 51
250.419040184
  0
ARC
  5
376
100
AcDbEntity
  8
0
100
AcDbCircle
 62
7
  6
CONTINUOUS
 10
11.7510300124
 20
8.8149508162
 40
0.0338522367
100
AcDbArc
 50
192.2846145053
 51
211.2848418617
  0
ARC
  5
377
100
AcDbEntity
  8
0
100
AcDbCircle
 62
7
  6
CONTINUOUS
 10
11.7505568778
 20
8.8144002406
 40
0.0333650565
100
AcDbArc
 50
163.4489830775
 51
172.2519277487
  0
ARC
  5
378
100
AcDbEntity
  8
0
100
AcDbCircle
 62
7
  6
CONTINUOUS
 10
11.6044313571
 20
9.5727567908
 40
0.0333114638
100
AcDbArc
 50
175.8142101461
 51
186.3318152588
  0
ARC
  5
379
100
AcDbEntity
  8
0
100
AcDbCircle
 62
7
  6
CONTINUOUS
 10
11.6041534363
 20
9.5727088037
 40
0.0330378573
100
AcDbArc
 50
167.355677591
 51
175.6960301777
  0
ARC
  5
37A
100
AcDbEntity
  8
0
100
AcDbCircle
 62
7
  6
CONTINUOUS
 10
11.6043271467
 20
9.5719666423
 40
0.0329468757
100
AcDbArc
 50
212.537182271
 51
222.9884566704
  0
ARC
  5
37B
100
AcDbEntity
  8
0
100
AcDbCircle
 62
7
  6
CONTINUOUS
 10
11.6044033319
 20
9.5735105959
 40
0.032894379
100
AcDbArc
 50
130.7632838051
 51
138.2632614299
  0
ARC
  5
37C
100
AcDbEntity
  8
0
100
AcDbCircle
 62
7
  6
CONTINUOUS
 10
11.749972775
 20
8.8147179352
 40
0.0327709859
100
AcDbArc
 50
183.6184753345
 51
192.2667391682
  0
ARC
  5
37D
100
AcDbEntity
  8
0
100
AcDbCircle
 62
7
  6
CONTINUOUS
 10
11.7490528586
 20
8.8146118318
 40
0.0318462429
100
AcDbArc
 50
172.2643259502
 51
183.5324156382
  0
ARC
  5
37E
100
AcDbEntity
  8
0
100
AcDbCircle
 62
7
  6
CONTINUOUS
 10
11.7493179411
 20
8.8137324913
 40
0.0317482129
100
AcDbArc
 50
223.0531417356
 51
231.2417695304
  0
ARC
  5
37F
100
AcDbEntity
  8
0
100
AcDbCircle
 62
7
  6
CONTINUOUS
 10
10.8895820205
 20
9.531114523
 40
0.03
100
AcDbArc
 50
0.0
 51
175.4966382723
  0
ARC
  5
380
100
AcDbEntity
  8
0
100
AcDbCircle
 62
7
  6
CONTINUOUS
 10
10.8895820205
 20
8.906114523
 40
0.03
100
AcDbArc
 50
184.5033617277
 51
360.0
  0
ARC
  5
381
100
AcDbEntity
  8
0
100
AcDbCircle
 62
7
  6
CONTINUOUS
 10
11.6922946802
 20
9.0649458956
 40
0.03
100
AcDbArc
 50
277.4523461735
 51
303.14748633
  0
ARC
  5
382
100
AcDbEntity
  8
0
100
AcDbCircle
 62
7
  6
CONTINUOUS
 10
12.604113415
 20
6.2631527893
 40
0.6078409296
100
AcDbArc
 50
6.6356334605
 51
20.3029644131
  0
ARC
  5
383
100
AcDbEntity
  8
0
100
AcDbCircle
 62
7
  6
CONTINUOUS
 10
12.9144370308
 20
6.2214318579
 40
0.3739337434
100
AcDbArc
 50
52.7092061085
 51
65.3456430452
  0
ARC
  5
384
100
AcDbEntity
  8
0
100
AcDbCircle
 62
7
  6
CONTINUOUS
 10
13.080402687
 20
6.439365556
 40
0.1
100
AcDbArc
 50
20.3029644131
 51
52.7092061084
  0
ARC
  5
385
100
AcDbEntity
  8
0
100
AcDbCircle
 62
7
  6
CONTINUOUS
 10
13.2156588876
 20
7.0332351203
 40
0.4888424103
100
AcDbArc
 50
218.6609554855
 51
244.1509412147
  0
ARC
  5
386
100
AcDbEntity
  8
0
100
AcDbCircle
 62
7
  6
CONTINUOUS
 10
12.6948384352
 20
7.5533795791
 40
0.4260000011
100
AcDbArc
 50
254.4826565545
 51
255.0296784944
  0
ARC
  5
387
100
AcDbEntity
  8
0
100
AcDbCircle
 62
7
  6
CONTINUOUS
 10
13.125931731
 20
6.9614504485
 40
0.3739337434
100
AcDbArc
 50
194.56496067
 51
218.6609554854
  0
ARC
  5
388
100
AcDbEntity
  8
0
100
AcDbCircle
 62
7
  6
CONTINUOUS
 10
12.8002946776
 20
7.2684145247
 40
0.3180000027
100
AcDbArc
 50
174.8127503334
 51
189.6697388621
  0
ARC
  5
389
100
AcDbEntity
  8
0
100
AcDbCircle
 62
7
  6
CONTINUOUS
 10
12.6432051348
 20
7.3674145235
 40
0.2330000021
100
AcDbArc
 50
236.140811797
 51
254.4826565545
  0
ARC
  5
38A
100
AcDbEntity
  8
0
100
AcDbCircle
 62
7
  6
CONTINUOUS
 10
12.5479318445
 20
7.2254145248
 40
0.0620000037
100
AcDbArc
 50
189.669738862
 51
236.140811797
  0
ARC
  5
38B
100
AcDbEntity
  8
0
100
AcDbCircle
 62
7
  6
CONTINUOUS
 10
12.0722946802
 20
7.9025806364
 40
1.7530338866
100
AcDbArc
 50
79.3437208976
 51
100.6562791024
  0
ARC
  5
38C
100
AcDbEntity
  8
0
100
AcDbCircle
 62
7
  6
CONTINUOUS
 10
12.2009835102
 20
8.0856237723
 40
0.1698237129
100
AcDbArc
 50
8.5814247839
 51
8.855144777
  0
ARC
  5
38D
100
AcDbEntity
  8
0
100
AcDbCircle
 62
7
  6
CONTINUOUS
 10
12.2364970578
 20
8.0841701918
 40
0.1101459405
100
AcDbArc
 50
14.0788271092
 51
14.509050815
  0
ARC
  5
38E
100
AcDbEntity
  8
0
100
AcDbCircle
 62
7
  6
CONTINUOUS
 10
12.2868291985
 20
8.0347156234
 40
0.0952834612
100
AcDbArc
 50
126.0358996818
 51
126.8481208626
  0
ARC
  5
38F
100
AcDbEntity
  8
0
100
AcDbCircle
 62
7
  6
CONTINUOUS
 10
12.2556627846
 20
8.038126702
 40
0.0922207609
100
AcDbArc
 50
127.0125182115
 51
127.832140242
  0
ARC
  5
390
100
AcDbEntity
  8
0
100
AcDbCircle
 62
7
  6
CONTINUOUS
 10
12.2239034303
 20
8.0417955585
 40
0.088986125
100
AcDbArc
 50
128.158101543
 51
128.9864476871
  0
ARC
  5
391
100
AcDbEntity
  8
0
100
AcDbCircle
 62
7
  6
CONTINUOUS
 10
12.2334084649
 20
8.0819183882
 40
0.0880209779
100
AcDbArc
 50
19.2676962136
 51
19.8214477172
  0
ARC
  5
392
100
AcDbEntity
  8
0
100
AcDbCircle
 62
7
  6
CONTINUOUS
 10
12.1917241709
 20
8.0457080335
 40
0.0856209613
100
AcDbArc
 50
129.5096660077
 51
130.3459949509
  0
ARC
  5
393
100
AcDbEntity
  8
0
100
AcDbCircle
 62
7
  6
CONTINUOUS
 10
12.1593164746
 20
8.0497794731
 40
0.0822361302
100
AcDbArc
 50
131.0832608806
 51
131.9261169608
  0
ARC
  5
394
100
AcDbEntity
  8
0
100
AcDbCircle
 62
7
  6
CONTINUOUS
 10
11.9852778488
 20
8.0497900703
 40
0.0822248203
100
AcDbArc
 50
48.0714535068
 51
48.9141956404
  0
ARC
  5
395
100
AcDbEntity
  8
0
100
AcDbCircle
 62
7
  6
CONTINUOUS
 10
12.0176136578
 20
8.0538326179
 40
0.0790823397
100
AcDbArc
 50
46.2554638381
 51
47.1023442062
  0
ARC
  5
396
100
AcDbEntity
  8
0
100
AcDbCircle
 62
7
  6
CONTINUOUS
 10
12.126907673
 20
8.0539056955
 40
0.0789825266
100
AcDbArc
 50
132.8971839939
 51
133.7455257673
  0
ARC
  5
397
100
AcDbEntity
  8
0
100
AcDbCircle
 62
7
  6
CONTINUOUS
 10
12.0498592359
 20
8.0580415952
 40
0.0759738401
100
AcDbArc
 50
44.1535450498
 51
45.002321267
  0
ARC
  5
398
100
AcDbEntity
  8
0
100
AcDbCircle
 62
7
  6
CONTINUOUS
 10
12.094711662
 20
8.0580622252
 40
0.0759461256
100
AcDbArc
 50
134.9991332882
 51
135.8479949932
  0
ARC
  5
399
100
AcDbEntity
  8
0
100
AcDbCircle
 62
7
  6
CONTINUOUS
 10
12.0815483793
 20
8.0620910907
 40
0.0733861624
100
AcDbArc
 50
41.756637876
 51
42.6010317492
  0
ARC
  5
39A
100
AcDbEntity
  8
0
100
AcDbCircle
 62
7
  6
CONTINUOUS
 10
12.0630193208
 20
8.0621072361
 40
0.0733594036
100
AcDbArc
 50
137.3956261042
 51
138.2413698688
  0
ARC
  5
39B
100
AcDbEntity
  8
0
100
AcDbCircle
 62
7
  6
CONTINUOUS
 10
12.1954817224
 20
8.0762511958
 40
0.0728616627
100
AcDbArc
 50
28.4515205016
 51
29.1708174
  0
ARC
  5
39C
100
AcDbEntity
  8
0
100
AcDbCircle
 62
7
  6
CONTINUOUS
 10
12.2224219792
 20
8.0814589098
 40
0.0723892144
100
AcDbArc
 50
24.0535924243
 51
24.7506424652
  0
ARC
  5
39D
100
AcDbEntity
  8
0
100
AcDbCircle
 62
7
  6
CONTINUOUS
 10
12.1124000908
 20
8.0659761593
 40
0.0714580623
100
AcDbArc
 50
39.0183801922
 51
39.8509105909
  0
ARC
  5
39E
100
AcDbEntity
  8
0
100
AcDbCircle
 62
7
  6
CONTINUOUS
 10
12.0321300913
 20
8.066030658
 40
0.0713775948
100
AcDbArc
 50
140.1526887034
 51
140.9858791745
  0
ARC
  5
39F
100
AcDbEntity
  8
0
100
AcDbCircle
 62
7
  6
CONTINUOUS
 10
12.1421166584
 20
8.0697075448
 40
0.0703496573
100
AcDbArc
 50
35.9050658653
 51
36.7151875614
  0
ARC
  5
3A0
100
AcDbEntity
  8
0
100
AcDbCircle
 62
7
  6
CONTINUOUS
 10
12.0024655012
 20
8.0697078958
 40
0.0703437897
100
AcDbArc
 50
143.2807789808
 51
144.0915339539
  0
ARC
  5
3A1
100
AcDbEntity
  8
0
100
AcDbCircle
 62
7
  6
CONTINUOUS
 10
11.9723917877
 20
8.0745073427
 40
0.0680752726
100
AcDbArc
 50
146.8169232895
 51
147.6199092449
  0
ARC
  5
3A2
100
AcDbEntity
  8
0
100
AcDbCircle
 62
7
  6
CONTINUOUS
 10
12.1748883641
 20
8.0762370411
 40
0.0648766414
100
AcDbArc
 50
32.3627747854
 51
33.205438663
  0
ARC
  5
3A3
100
AcDbEntity
  8
0
100
AcDbCircle
 62
7
  6
CONTINUOUS
 10
12.616337811
 20
8.0838586014
 40
0.1814942169
100
AcDbArc
 50
171.1551383558
 51
171.4111097823
  0
ARC
  5
3A4
100
AcDbEntity
  8
0
100
AcDbCircle
 62
7
  6
CONTINUOUS
 10
12.5629363843
 20
8.0842145308
 40
0.1099687851
100
AcDbArc
 50
165.4908257263
 51
165.921846383
  0
ARC
  5
3A5
100
AcDbEntity
  8
0
100
AcDbCircle
 62
7
  6
CONTINUOUS
 10
12.4749652189
 20
8.0235789591
 40
0.1055373355
100
AcDbArc
 50
123.3215842359
 51
124.106090808
  0
ARC
  5
3A6
100
AcDbEntity
  8
0
100
AcDbCircle
 62
7
  6
CONTINUOUS
 10
12.4522692756
 20
8.0235955845
 40
0.105521639
100
AcDbArc
 50
123.325761454
 51
124.109883938
  0
ARC
  5
3A7
100
AcDbEntity
  8
0
100
AcDbCircle
 62
7
  6
CONTINUOUS
 10
12.4279766978
 20
8.0241409887
 40
0.1050122919
100
AcDbArc
 50
123.4437384107
 51
124.2297040869
  0
ARC
  5
3A8
100
AcDbEntity
  8
0
100
AcDbCircle
 62
7
  6
CONTINUOUS
 10
12.4959454908
 20
8.02416361
 40
0.1049909088
100
AcDbArc
 50
123.4494562276
 51
124.234884644
  0
ARC
  5
3A9
100
AcDbEntity
  8
0
100
AcDbCircle
 62
7
  6
CONTINUOUS
 10
12.4021945174
 20
8.0252642038
 40
0.103966118
100
AcDbArc
 50
123.693250581
 51
124.4819656008
  0
ARC
  5
3AA
100
AcDbEntity
  8
0
100
AcDbCircle
 62
7
  6
CONTINUOUS
 10
12.5151259651
 20
8.0252694502
 40
0.1039591532
100
AcDbArc
 50
123.6932245001
 51
124.4814925637
  0
ARC
  5
3AB
100
AcDbEntity
  8
0
100
AcDbCircle
 62
7
  6
CONTINUOUS
 10
12.3750448613
 20
8.0269275805
 40
0.1024191405
100
AcDbArc
 50
124.0714077349
 51
124.8638812467
  0
ARC
  5
3AC
100
AcDbEntity
  8
0
100
AcDbCircle
 62
7
  6
CONTINUOUS
 10
12.5324171019
 20
8.0269359295
 40
0.1024119071
100
AcDbArc
 50
124.0741515685
 51
124.866412138
  0
ARC
  5
3AD
100
AcDbEntity
  8
0
100
AcDbCircle
 62
7
  6
CONTINUOUS
 10
12.3466783221
 20
8.029062977
 40
0.1004468941
100
AcDbArc
 50
124.5778371161
 51
125.3762667259
  0
ARC
  5
3AE
100
AcDbEntity
  8
0
100
AcDbCircle
 62
7
  6
CONTINUOUS
 10
12.5477477501
 20
8.0290842035
 40
0.1004257609
100
AcDbArc
 50
124.5827731336
 51
125.3805897183
  0
ARC
  5
3AF
100
AcDbEntity
  8
0
100
AcDbCircle
 62
7
  6
CONTINUOUS
 10
12.5610544154
 20
8.0317079118
 40
0.0980170741
100
AcDbArc
 50
125.2373764176
 51
126.0415085668
  0
ARC
  5
3B0
100
AcDbEntity
  8
0
100
AcDbCircle
 62
7
  6
CONTINUOUS
 10
12.3172135109
 20
8.0317092283
 40
0.0980159101
100
AcDbArc
 50
125.2378819677
 51
126.041927739
  0
ARC
  5
3B1
100
AcDbEntity
  8
0
100
AcDbCircle
 62
7
  6
CONTINUOUS
 10
12.5722919178
 20
8.0347403628
 40
0.0952593697
100
AcDbArc
 50
126.0426376055
 51
126.8540974121
  0
ARC
  5
3B2
100
AcDbEntity
  8
0
100
AcDbCircle
 62
7
  6
CONTINUOUS
 10
12.5814283537
 20
8.0381276586
 40
0.0922193322
100
AcDbArc
 50
127.0124267282
 51
127.8319851656
  0
ARC
  5
3B3
100
AcDbEntity
  8
0
100
AcDbCircle
 62
7
  6
CONTINUOUS
 10
12.5595634013
 20
8.0809967162
 40
0.0907803035
100
AcDbArc
 50
160.1881917761
 51
160.7249625285
  0
ARC
  5
3B4
100
AcDbEntity
  8
0
100
AcDbCircle
 62
7
  6
CONTINUOUS
 10
12.5884445686
 20
8.0418133285
 40
0.0889694525
100
AcDbArc
 50
128.1640049579
 51
128.9917772209
  0
ARC
  5
3B5
100
AcDbEntity
  8
0
100
AcDbCircle
 62
7
  6
CONTINUOUS
 10
12.5933435657
 20
8.0457227302
 40
0.0856064524
100
AcDbArc
 50
129.5144344278
 51
130.3501386
  0
ARC
  5
3B6
100
AcDbEntity
  8
0
100
AcDbCircle
 62
7
  6
CONTINUOUS
 10
12.5961466461
 20
8.0497844568
 40
0.0822321673
100
AcDbArc
 50
131.0857418107
 51
131.9283946981
  0
ARC
  5
3B7
100
AcDbEntity
  8
0
100
AcDbCircle
 62
7
  6
CONTINUOUS
 10
12.5969020282
 20
8.0539233679
 40
0.0789654972
100
AcDbArc
 50
132.9041521245
 51
133.7516831613
  0
ARC
  5
3B8
100
AcDbEntity
  8
0
100
AcDbCircle
 62
7
  6
CONTINUOUS
 10
12.5596654891
 20
8.0796670752
 40
0.0767368921
100
AcDbArc
 50
155.2734398284
 51
155.930552183
  0
ARC
  5
3B9
100
AcDbEntity
  8
0
100
AcDbCircle
 62
7
  6
CONTINUOUS
 10
12.5956904332
 20
8.0580619462
 40
0.0759466884
100
AcDbArc
 50
134.9992551008
 51
135.848115792
  0
ARC
  5
3BA
100
AcDbEntity
  8
0
100
AcDbCircle
 62
7
  6
CONTINUOUS
 10
12.5937998133
 20
8.0571634286
 40
0.0744800316
100
AcDbArc
 50
133.7514892107
 51
186.9508268374
  0
ARC
  5
3BB
100
AcDbEntity
  8
0
100
AcDbCircle
 62
7
  6
CONTINUOUS
 10
12.5926338978
 20
8.0621248983
 40
0.0733426736
100
AcDbArc
 50
137.4039622798
 51
138.2488038191
  0
ARC
  5
3BC
100
AcDbEntity
  8
0
100
AcDbCircle
 62
7
  6
CONTINUOUS
 10
12.5670655331
 20
8.076459158
 40
0.0724285672
100
AcDbArc
 50
150.8262690973
 51
151.5499035309
  0
ARC
  5
3BD
100
AcDbEntity
  8
0
100
AcDbCircle
 62
7
  6
CONTINUOUS
 10
12.5879242751
 20
8.0660312307
 40
0.0713774393
100
AcDbArc
 50
140.1535282264
 51
140.9864622635
  0
ARC
  5
3BE
100
AcDbEntity
  8
0
100
AcDbCircle
 62
7
  6
CONTINUOUS
 10
12.5818508932
 20
8.0697064956
 40
0.0703523546
100
AcDbArc
 50
143.2853903522
 51
144.0954880112
  0
ARC
  5
3BF
100
AcDbEntity
  8
0
100
AcDbCircle
 62
7
  6
CONTINUOUS
 10
12.5743437201
 20
8.0734194999
 40
0.0700898813
100
AcDbArc
 50
146.832235123
 51
147.6115390854
  0
ARC
  5
3C0
100
AcDbEntity
  8
0
100
AcDbCircle
 62
7
  6
CONTINUOUS
 10
12.4789072974
 20
8.1536566263
 40
0.067668876
100
AcDbArc
 50
10.8885249989
 51
19.7019059998
  0
ARC
  5
3C1
100
AcDbEntity
  8
0
100
AcDbCircle
 62
7
  6
CONTINUOUS
 10
12.3780546802
 20
8.3601744865
 40
0.03724
100
AcDbArc
 50
0.0
 51
90.0
  0
ARC
  5
3C2
100
AcDbEntity
  8
0
100
AcDbCircle
 62
7
  6
CONTINUOUS
 10
12.5797971401
 20
8.1478811392
 40
0.8518435019
100
AcDbArc
 50
180.5922373408
 51
181.7394652867
  0
ARC
  5
3C3
100
AcDbEntity
  8
0
100
AcDbCircle
 62
7
  6
CONTINUOUS
 10
12.4879474349
 20
8.1521946923
 40
0.065501895
100
AcDbArc
 50
343.1374460968
 51
348.4468901264
  0
ARC
  5
3C4
100
AcDbEntity
  8
0
100
AcDbCircle
 62
7
  6
CONTINUOUS
 10
12.4907946235
 20
8.153431921
 40
0.0626918189
100
AcDbArc
 50
11.9746907891
 51
21.5603608834
  0
ARC
  5
3C5
100
AcDbEntity
  8
0
100
AcDbCircle
 62
7
  6
CONTINUOUS
 10
12.4958799621
 20
8.1526247985
 40
0.0622614295
100
AcDbArc
 50
346.3133944858
 51
347.4314309051
  0
ARC
  5
3C6
100
AcDbEntity
  8
0
100
AcDbCircle
 62
7
  6
CONTINUOUS
 10
12.4970183303
 20
8.1523269163
 40
0.061084907
100
AcDbArc
 50
341.7468264399
 51
346.3322225385
  0
ARC
  5
3C7
100
AcDbEntity
  8
0
100
AcDbCircle
 62
7
  6
CONTINUOUS
 10
12.5019429773
 20
8.1527437426
 40
0.0585916518
100
AcDbArc
 50
345.874093089
 51
346.5104885577
  0
ARC
  5
3C8
100
AcDbEntity
  8
0
100
AcDbCircle
 62
7
  6
CONTINUOUS
 10
12.5000241654
 20
8.1533814896
 40
0.0581112567
100
AcDbArc
 50
12.9853440889
 51
14.404286813
  0
ARC
  5
3C9
100
AcDbEntity
  8
0
100
AcDbCircle
 62
7
  6
CONTINUOUS
 10
12.5025995349
 20
8.1525615241
 40
0.0579104786
100
AcDbArc
 50
340.4617013458
 51
345.8903916149
  0
ARC
  5
3CA
100
AcDbEntity
  8
0
100
AcDbCircle
 62
7
  6
CONTINUOUS
 10
12.5046230306
 20
8.1509804928
 40
0.0576205062
100
AcDbArc
 50
79.8728512384
 51
84.2283522614
  0
ARC
  5
3CB
100
AcDbEntity
  8
0
100
AcDbCircle
 62
7
  6
CONTINUOUS
 10
12.5005474536
 20
8.153766316
 40
0.0574878346
100
AcDbArc
 50
23.261608623
 51
33.9728429891
  0
ARC
  5
3CC
100
AcDbEntity
  8
0
100
AcDbCircle
 62
7
  6
CONTINUOUS
 10
12.5046897732
 20
8.1512881447
 40
0.0573059131
100
AcDbArc
 50
66.7064131117
 51
79.8844564461
  0
ARC
  5
3CD
100
AcDbEntity
  8
0
100
AcDbCircle
 62
7
  6
CONTINUOUS
 10
12.5046777326
 20
8.1515610178
 40
0.0570374232
100
AcDbArc
 50
84.2243790733
 51
89.9899426482
  0
ARC
  5
3CE
100
AcDbEntity
  8
0
100
AcDbCircle
 62
7
  6
CONTINUOUS
 10
12.504459367
 20
8.1529153596
 40
0.0561050404
100
AcDbArc
 50
30.7185692729
 51
35.837369751
  0
ARC
  5
3CF
100
AcDbEntity
  8
0
100
AcDbCircle
 62
7
  6
CONTINUOUS
 10
12.5049846974
 20
8.1516370468
 40
0.0559733186
100
AcDbArc
 50
25.9692671783
 51
49.6847862321
  0
ARC
  5
3D0
100
AcDbEntity
  8
0
100
AcDbCircle
 62
7
  6
CONTINUOUS
 10
12.5055272017
 20
8.1537372866
 40
0.0556738689
100
AcDbArc
 50
311.071125244
 51
318.3803286331
  0
ARC
  5
3D1
100
AcDbEntity
  8
0
100
AcDbCircle
 62
7
  6
CONTINUOUS
 10
12.5049737051
 20
8.1530589968
 40
0.0556327769
100
AcDbArc
 50
47.8679426073
 51
48.8088964724
  0
ARC
  5
3D2
100
AcDbEntity
  8
0
100
AcDbCircle
 62
7
  6
CONTINUOUS
 10
12.5050411939
 20
8.152852445
 40
0.0556104342
100
AcDbArc
 50
344.947288337
 51
345.656934427
  0
ARC
  5
3D3
100
AcDbEntity
  8
0
100
AcDbCircle
 62
7
  6
CONTINUOUS
 10
12.5053676504
 20
8.1529992062
 40
0.0554662838
100
AcDbArc
 50
63.4050883512
 51
66.6506290135
  0
ARC
  5
3D4
100
AcDbEntity
  8
0
100
AcDbCircle
 62
7
  6
CONTINUOUS
 10
12.5053259161
 20
8.1527660812
 40
0.055313053
100
AcDbArc
 50
339.2787043193
 51
344.9570832125
  0
ARC
  5
3D5
100
AcDbEntity
  8
0
100
AcDbCircle
 62
7
  6
CONTINUOUS
 10
12.5053226763
 20
8.153462207
 40
0.0550995315
100
AcDbArc
 50
48.8058430649
 51
51.6787971009
  0
ARC
  5
3D6
100
AcDbEntity
  8
0
100
AcDbCircle
 62
7
  6
CONTINUOUS
 10
12.5053517484
 20
8.1535837812
 40
0.0549903208
100
AcDbArc
 50
35.8171814228
 51
47.7932468974
  0
ARC
  5
3D7
100
AcDbEntity
  8
0
100
AcDbCircle
 62
7
  6
CONTINUOUS
 10
12.5059374409
 20
8.1532948489
 40
0.0545869845
100
AcDbArc
 50
13.9335448609
 51
14.7390811489
  0
ARC
  5
3D8
100
AcDbEntity
  8
0
100
AcDbCircle
 62
7
  6
CONTINUOUS
 10
12.5056866195
 20
8.1538836688
 40
0.0545432372
100
AcDbArc
 50
35.7675650929
 51
47.8421782881
  0
ARC
  5
3D9
100
AcDbEntity
  8
0
100
AcDbCircle
 62
7
  6
CONTINUOUS
 10
12.5066222384
 20
8.1525007971
 40
0.0541229276
100
AcDbArc
 50
15.7729341548
 51
25.9063050109
  0
ARC
  5
3DA
100
AcDbEntity
  8
0
100
AcDbCircle
 62
7
  6
CONTINUOUS
 10
12.5064356194
 20
8.1512730508
 40
0.0539296956
100
AcDbArc
 50
312.8966382532
 51
320.2071997472
  0
ARC
  5
3DB
100
AcDbEntity
  8
0
100
AcDbCircle
 62
7
  6
CONTINUOUS
 10
12.5060538539
 20
8.1543980023
 40
0.0539119758
100
AcDbArc
 50
51.671767048
 51
63.5278558954
  0
ARC
  5
3DC
100
AcDbEntity
  8
0
100
AcDbCircle
 62
7
  6
CONTINUOUS
 10
12.5052686502
 20
8.1529612072
 40
0.0532236816
100
AcDbArc
 50
338.1993432525
 51
344.8731534834
  0
ARC
  5
3DD
100
AcDbEntity
  8
0
100
AcDbCircle
 62
7
  6
CONTINUOUS
 10
12.5071852813
 20
8.1506276499
 40
0.0529406198
100
AcDbArc
 50
320.2246343612
 51
323.4583565955
  0
ARC
  5
3DE
100
AcDbEntity
  8
0
100
AcDbCircle
 62
7
  6
CONTINUOUS
 10
12.5048905748
 20
8.1488577209
 40
0.052460871
100
AcDbArc
 50
315.8184745831
 51
329.2314957217
  0
ARC
  5
3DF
100
AcDbEntity
  8
0
100
AcDbCircle
 62
7
  6
CONTINUOUS
 10
12.5049721694
 20
8.1487827742
 40
0.0523501238
100
AcDbArc
 50
314.9990961886
 51
315.8150608414
  0
ARC
  5
3E0
100
AcDbEntity
  8
0
100
AcDbCircle
 62
7
  6
CONTINUOUS
 10
12.5077210155
 20
8.1502240084
 40
0.0522698672
100
AcDbArc
 50
323.4641832147
 51
325.5727273329
  0
ARC
  5
3E1
100
AcDbEntity
  8
0
100
AcDbCircle
 62
7
  6
CONTINUOUS
 10
12.5080123814
 20
8.1500224236
 40
0.0519155678
100
AcDbArc
 50
323.4949579266
 51
327.3586702727
  0
ARC
  5
3E2
100
AcDbEntity
  8
0
100
AcDbCircle
 62
7
  6
CONTINUOUS
 10
12.5087680512
 20
8.1531769114
 40
0.0518741706
100
AcDbArc
 50
14.8128478445
 51
15.6985238038
  0
ARC
  5
3E3
100
AcDbEntity
  8
0
100
AcDbCircle
 62
7
  6
CONTINUOUS
 10
12.5025100359
 20
8.1531569156
 40
0.0515716537
100
AcDbArc
 50
337.2277056953
 51
344.1552534315
  0
ARC
  5
3E4
100
AcDbEntity
  8
0
100
AcDbCircle
 62
7
  6
CONTINUOUS
 10
12.501340909
 20
8.1460609968
 40
0.0506721579
100
AcDbArc
 50
317.4043427883
 51
319.7345712114
  0
ARC
  5
3E5
100
AcDbEntity
  8
0
100
AcDbCircle
 62
7
  6
CONTINUOUS
 10
12.4972018037
 20
8.1533315238
 40
0.0502217415
100
AcDbArc
 50
336.3624085477
 51
343.510047086
  0
ARC
  5
3E6
100
AcDbEntity
  8
0
100
AcDbCircle
 62
7
  6
CONTINUOUS
 10
12.5085843202
 20
8.1529994289
 40
0.0499086857
100
AcDbArc
 50
15.6218496361
 51
17.5456147527
  0
ARC
  5
3E7
100
AcDbEntity
  8
0
100
AcDbCircle
 62
7
  6
CONTINUOUS
 10
12.4949394393
 20
8.143625265
 40
0.0497300084
100
AcDbArc
 50
320.1587194312
 51
323.8602099265
  0
ARC
  5
3E8
100
AcDbEntity
  8
0
100
AcDbCircle
 62
7
  6
CONTINUOUS
 10
12.4855966369
 20
8.1414742904
 40
0.0497122049
100
AcDbArc
 50
323.3002686729
 51
328.0920968612
  0
ARC
  5
3E9
100
AcDbEntity
  8
0
100
AcDbCircle
 62
7
  6
CONTINUOUS
 10
12.5055380703
 20
8.1527615413
 40
0.0485506115
100
AcDbArc
 50
16.3628553069
 51
19.4370101496
  0
ARC
  5
3EA
100
AcDbEntity
  8
0
100
AcDbCircle
 62
7
  6
CONTINUOUS
 10
13.446235392
 20
7.8260841485
 40
1.8349999961
100
AcDbArc
 50
173.049206715
 51
182.3045935724
  0
ARC
  5
3EB
100
AcDbEntity
  8
0
100
AcDbCircle
 62
7
  6
CONTINUOUS
 10
14.9813256266
 20
7.0704145256
 40
2.5080000028
100
AcDbArc
 50
171.1934452325
 51
174.8127503334
  0
ARC
  5
3EC
100
AcDbEntity
  8
0
100
AcDbCircle
 62
7
  6
CONTINUOUS
 10
14.2495850971
 20
7.8584145168
 40
2.6389999969
100
AcDbArc
 50
182.3045935724
 51
188.8065547674
  0
ARC
  5
3ED
100
AcDbEntity
  8
0
100
AcDbCircle
 62
7
  6
CONTINUOUS
 10
21.0722946802
 20
5.2959760049
 40
6.3904157991
100
AcDbArc
 50
81.821031102
 51
98.178968898
  0
ARC
  5
3EE
100
AcDbEntity
  8
0
100
AcDbCircle
 62
7
  6
CONTINUOUS
 10
20.7482746722
 20
6.7038598012
 40
1.3
100
AcDbArc
 50
357.7751307225
 51
37.4382101818
  0
ARC
  5
3EF
100
AcDbEntity
  8
0
100
AcDbCircle
 62
7
  6
CONTINUOUS
 10
21.3963146883
 20
6.7038598012
 40
1.3
100
AcDbArc
 50
142.5617898181
 51
182.2248692774
  0
ARC
  5
3F0
100
AcDbEntity
  8
0
100
AcDbCircle
 62
7
  6
CONTINUOUS
 10
20.1458196223
 20
6.5823592717
 40
0.0860249421
100
AcDbArc
 50
124.3384233779
 51
180.0
  0
ARC
  5
3F1
100
AcDbEntity
  8
0
100
AcDbCircle
 62
7
  6
CONTINUOUS
 10
21.9987697382
 20
6.5823592717
 40
0.0860249421
100
AcDbArc
 50
0.0
 51
55.6615766221
  0
ARC
  5
3F2
100
AcDbEntity
  8
0
100
AcDbCircle
 62
7
  6
CONTINUOUS
 10
20.1656001354
 20
7.6461133178
 40
0.25
100
AcDbArc
 50
322.5617898181
 51
357.849587733
  0
ARC
  5
3F3
100
AcDbEntity
  8
0
100
AcDbCircle
 62
7
  6
CONTINUOUS
 10
21.978989225
 20
7.6461133178
 40
0.25
100
AcDbArc
 50
182.150412267
 51
217.4382101818
  0
ARC
  5
3F4
100
AcDbEntity
  8
0
100
AcDbCircle
 62
7
  6
CONTINUOUS
 10
14.8572946802
 20
9.218614523
 40
4.01
100
AcDbArc
 50
175.4966382723
 51
184.5033617277
  0
ARC
  5
3F5
100
AcDbEntity
  8
0
100
AcDbCircle
 62
7
  6
CONTINUOUS
 10
17.9262796397
 20
8.973869813
 40
2.7692758565
100
AcDbArc
 50
38.8776460553
 51
41.2943629937
  0
ARC
  5
3F6
100
AcDbEntity
  8
0
100
AcDbCircle
 62
7
  6
CONTINUOUS
 10
12.8437555293
 20
9.1442236973
 40
0.4207441697
100
AcDbArc
 50
190.9524540365
 51
195.5766833278
  0
ARC
  5
3F7
100
AcDbEntity
  8
0
100
AcDbCircle
 62
7
  6
CONTINUOUS
 10
12.8394676006
 20
9.1425015026
 40
0.4161498334
100
AcDbArc
 50
195.5068087209
 51
196.9363884055
  0
ARC
  5
3F8
100
AcDbEntity
  8
0
100
AcDbCircle
 62
7
  6
CONTINUOUS
 10
12.818472812
 20
9.1387826356
 40
0.3948859386
100
AcDbArc
 50
190.6300620978
 51
190.8743379628
  0
CIRCLE
  5
3F9
100
AcDbEntity
  8
0
100
AcDbCircle
 62
7
  6
CONTINUOUS
 10
12.0722946802
 20
9.218614523
 40
0.3425
  0
CIRCLE
  5
3FA
100
AcDbEntity
  8
0
100
AcDbCircle
 62
9
  6
CONTINUOUS
 10
12.0722946802
 20
9.218614523
 40
0.3148555276
  0
ARC
  5
3FB
100
AcDbEntity
  8
0
100
AcDbCircle
 62
7
  6
CONTINUOUS
 10
12.6374427135
 20
9.481242772
 40
0.1000000227
100
AcDbArc
 50
136.9536385964
 51
175.5588659127
  0
ARC
  5
3FC
100
AcDbEntity
  8
0
100
AcDbCircle
 62
7
  6
CONTINUOUS
 10
12.5129826949
 20
8.8747306565
 40
0.0999999791
100
AcDbArc
 50
168.4072896383
 51
206.8473999295
  0
ARC
  5
3FD
100
AcDbEntity
  8
0
100
AcDbCircle
 62
7
  6
CONTINUOUS
 10
12.5385164398
 20
9.5721840961
 40
0.0350324107
100
AcDbArc
 50
23.1840188548
 51
30.6979646501
  0
ARC
  5
3FE
100
AcDbEntity
  8
0
100
AcDbCircle
 62
7
  6
CONTINUOUS
 10
12.5384613579
 20
9.5730021951
 40
0.0350286587
100
AcDbArc
 50
335.6674521787
 51
345.4981967715
  0
ARC
  5
3FF
100
AcDbEntity
  8
0
100
AcDbCircle
 62
7
  6
CONTINUOUS
 10
12.5388796624
 20
9.5728979291
 40
0.0345975724
100
AcDbArc
 50
345.4918976313
 51
353.6693541052
  0
ARC
  5
400
100
AcDbEntity
  8
0
100
AcDbCircle
 62
7
  6
CONTINUOUS
 10
12.5389390214
 20
9.5723593846
 40
0.0345749464
100
AcDbArc
 50
12.6663222083
 51
23.19268765
  0
ARC
  5
401
100
AcDbEntity
  8
0
100
AcDbCircle
 62
7
  6
CONTINUOUS
 10
12.5389896084
 20
9.5724720114
 40
0.0344785632
100
AcDbArc
 50
30.6879749098
 51
41.7010206182
  0
ARC
  5
402
100
AcDbEntity
  8
0
100
AcDbCircle
 62
7
  6
CONTINUOUS
 10
12.539025661
 20
9.5727492156
 40
0.0344102474
100
AcDbArc
 50
327.4717605441
 51
335.6641157572
  0
ARC
  5
403
100
AcDbEntity
  8
0
100
AcDbCircle
 62
7
  6
CONTINUOUS
 10
12.3934224563
 20
8.8142173653
 40
0.0340019029
100
AcDbArc
 50
16.5535641761
 51
26.8396970877
  0
ARC
  5
404
100
AcDbEntity
  8
0
100
AcDbCircle
 62
7
  6
CONTINUOUS
 10
12.3939858844
 20
8.8155746477
 40
0.0340012469
100
AcDbArc
 50
289.5809598367
 51
295.8716790496
  0
ARC
  5
405
100
AcDbEntity
  8
0
100
AcDbCircle
 62
7
  6
CONTINUOUS
 10
12.393559348
 20
8.8149508162
 40
0.0338522368
100
AcDbArc
 50
328.715158143
 51
347.7153854995
  0
ARC
  5
406
100
AcDbEntity
  8
0
100
AcDbCircle
 62
7
  6
CONTINUOUS
 10
12.3940324837
 20
8.8144002408
 40
0.0333650555
100
AcDbArc
 50
7.748072136
 51
16.5510017419
  0
ARC
  5
407
100
AcDbEntity
  8
0
100
AcDbCircle
 62
7
  6
CONTINUOUS
 10
12.5401580058
 20
9.5727567906
 40
0.0333114614
100
AcDbArc
 50
353.6681845976
 51
4.1858232937
  0
ARC
  5
408
100
AcDbEntity
  8
0
100
AcDbCircle
 62
7
  6
CONTINUOUS
 10
12.5404359213
 20
9.5727088032
 40
0.0330378602
100
AcDbArc
 50
4.3040034159
 51
12.6443221945
  0
ARC
  5
409
100
AcDbEntity
  8
0
100
AcDbCircle
 62
7
  6
CONTINUOUS
 10
12.5402622085
 20
9.5719666466
 40
0.0329468825
100
AcDbArc
 50
317.0115442521
 51
327.462881589
  0
ARC
  5
40A
100
AcDbEntity
  8
0
100
AcDbCircle
 62
7
  6
CONTINUOUS
 10
12.5401860249
 20
9.5735105921
 40
0.0328943842
100
AcDbArc
 50
41.7366873021
 51
49.2367157605
  0
ARC
  5
40B
100
AcDbEntity
  8
0
100
AcDbCircle
 62
7
  6
CONTINUOUS
 10
12.3946165842
 20
8.8147179354
 40
0.0327709872
100
AcDbArc
 50
347.7332608979
 51
356.3815060172
  0
ARC
  5
40C
100
AcDbEntity
  8
0
100
AcDbCircle
 62
7
  6
CONTINUOUS
 10
12.3955365026
 20
8.8146118318
 40
0.0318462422
100
AcDbArc
 50
356.4675652611
 51
7.7356741159
  0
ARC
  5
40D
100
AcDbEntity
  8
0
100
AcDbCircle
 62
7
  6
CONTINUOUS
 10
12.3952714194
 20
8.8137324912
 40
0.0317482128
100
AcDbArc
 50
308.7582305436
 51
316.9468832754
  0
ARC
  5
40E
100
AcDbEntity
  8
0
100
AcDbCircle
 62
7
  6
CONTINUOUS
 10
13.2550073399
 20
9.531114523
 40
0.03
100
AcDbArc
 50
4.5033617277
 51
180.0
  0
ARC
  5
40F
100
AcDbEntity
  8
0
100
AcDbCircle
 62
7
  6
CONTINUOUS
 10
13.2550073399
 20
8.906114523
 40
0.03
100
AcDbArc
 50
180.0
 51
355.4966382723
  0
ARC
  5
410
100
AcDbEntity
  8
0
100
AcDbCircle
 62
7
  6
CONTINUOUS
 10
12.4522946802
 20
9.0649458956
 40
0.03
100
AcDbArc
 50
236.8376175377
 51
262.5476538265
  0
ARC
  5
411
100
AcDbEntity
  8
0
100
AcDbCircle
 62
7
  6
CONTINUOUS
 10
24.2588323218
 20
8.9397635228
 40
2.8222295728
100
AcDbArc
 50
138.7283127174
 51
141.099671301
  0
ARC
  5
412
100
AcDbEntity
  8
0
100
AcDbCircle
 62
7
  6
CONTINUOUS
 10
21.6822946802
 20
9.8762249518
 40
0.15
100
AcDbArc
 50
330.0735651336
 51
360.0
  0
ARC
  5
413
100
AcDbEntity
  8
0
100
AcDbCircle
 62
7
  6
CONTINUOUS
 10
20.4622946802
 20
9.8762249518
 40
0.15
100
AcDbArc
 50
180.0
 51
209.9264348664
  0
ARC
  5
414
100
AcDbEntity
  8
0
100
AcDbCircle
 62
7
  6
CONTINUOUS
 10
20.1447946802
 20
11.411391804
 40
0.15
100
AcDbArc
 50
90.0
 51
114.6243183522
  0
ARC
  5
415
100
AcDbEntity
  8
0
100
AcDbCircle
 62
7
  6
CONTINUOUS
 10
21.9997946802
 20
11.411391804
 40
0.15
100
AcDbArc
 50
65.3756816478
 51
90.0
  0
ARC
  5
416
100
AcDbEntity
  8
0
100
AcDbCircle
 62
7
  6
CONTINUOUS
 10
21.9322946802
 20
10.4356525729
 40
0.1
100
AcDbArc
 50
135.6687919533
 51
180.0
  0
ARC
  5
417
100
AcDbEntity
  8
0
100
AcDbCircle
 62
7
  6
CONTINUOUS
 10
20.2122946802
 20
10.4356525729
 40
0.1
100
AcDbArc
 50
0.0
 51
44.3312080467
  0
ARC
  5
418
100
AcDbEntity
  8
0
100
AcDbCircle
 62
7
  6
CONTINUOUS
 10
20.1674480324
 20
11.5915451562
 40
0.0301533521
100
AcDbArc
 50
98.1789688981
 51
270.0
  0
ARC
  5
419
100
AcDbEntity
  8
0
100
AcDbCircle
 62
7
  6
CONTINUOUS
 10
21.9771413281
 20
11.5915451562
 40
0.0301533521
100
AcDbArc
 50
270.0
 51
81.8210311019
  0
SPLINE
  5
41A
100
AcDbEntity
  8
0
100
AcDbSpline
 62
7
  6
CONTINUOUS
 70
0
 71
3
 72
20
 73
16
 74
0
 42
0.0000001
 43
0.0000001
 44
0.0000000001
 40
0.0
 40
0.0
 40
0.0
 40
0.0
 40
0.062457978
 40
0.1250052938
 40
0.1876271775
 40
0.25025151
 40
0.312804518
 40
0.3752664451
 40
0.4377208097
 40
0.5002623643
 40
0.6252591003
 40
0.7500175648
 40
0.8124686888
 40
0.8750044316
 40
1.0
 40
1.0
 40
1.0
 40
1.0
 10
3.7522946802
 20
7.123391804
 30
0.0
 10
3.7509069144
 20
7.123391804
 30
0.0
 10
3.7481260638
 20
7.123582001
 30
0.0
 10
3.7440288873
 20
7.1244089195
 30
0.0
 10
3.740065569
 20
7.1257492415
 30
0.0
 10
3.7363015652
 20
7.1275757316
 30
0.0
 10
3.7328015528
 20
7.129862069
 30
0.0
 10
3.729630626
 20
7.1325823403
 30
0.0
 10
3.7268595294
 20
7.1357095093
 30
0.0
 10
3.7237436634
 20
7.1403236256
 30
0.0
 10
3.7209844564
 20
7.1467745136
 30
0.0
 10
3.7199241554
 20
7.1537156166
 30
0.0
 10
3.7202150902
 20
7.1592731106
 30
0.0
 10
3.7212313151
 20
7.1647450625
 30
0.0
 10
3.7227757283
 20
7.1686778334
 30
0.0
 10
3.72410752
 20
7.1711149894
 30
0.0
  0
SPLINE
  5
41B
100
AcDbEntity
  8
0
100
AcDbSpline
 62
7
  6
CONTINUOUS
 70
0
 71
3
 72
20
 73
16
 74
0
 42
0.0000001
 43
0.0000001
 44
0.0000000001
 40
0.0
 40
0.0
 40
0.0
 40
0.0
 40
0.062457978
 40
0.1250052938
 40
0.1876271775
 40
0.25025151
 40
0.312804518
 40
0.3752664451
 40
0.4377208097
 40
0.5002623643
 40
0.6252591003
 40
0.7500175648
 40
0.8124686888
 40
0.8750044316
 40
1.0
 40
1.0
 40
1.0
 40
1.0
 10
4.3922946802
 20
7.123391804
 30
0.0
 10
4.393682446
 20
7.123391804
 30
0.0
 10
4.3964632966
 20
7.123582001
 30
0.0
 10
4.4005604732
 20
7.1244089195
 30
0.0
 10
4.4045237914
 20
7.1257492415
 30
0.0
 10
4.4082877953
 20
7.1275757316
 30
0.0
 10
4.4117878077
 20
7.129862069
 30
0.0
 10
4.4149587344
 20
7.1325823403
 30
0.0
 10
4.4177298311
 20
7.1357095093
 30
0.0
 10
4.4208456971
 20
7.1403236256
 30
0.0
 10
4.4236049041
 20
7.1467745136
 30
0.0
 10
4.424665205
 20
7.1537156166
 30
0.0
 10
4.4243742702
 20
7.1592731106
 30
0.0
 10
4.4233580454
 20
7.1647450625
 30
0.0
 10
4.4218136322
 20
7.1686778334
 30
0.0
 10
4.4204818405
 20
7.1711149894
 30
0.0
  0
SPLINE
  5
41C
100
AcDbEntity
  8
0
100
AcDbSpline
 62
7
  6
CONTINUOUS
 70
0
 71
3
 72
24
 73
20
 74
0
 42
0.0000001
 43
0.0000001
 44
0.0000000001
 40
0.0
 40
0.0
 40
0.0
 40
0.0
 40
0.0624522006
 40
0.1250020443
 40
0.1875830869
 40
0.2501035109
 40
0.3125232451
 40
0.3749254942
 40
0.4374216274
 40
0.4999957519
 40
0.5625614832
 40
0.6250391676
 40
0.6562614641
 40
0.6874752445
 40
0.7499107712
 40
0.8124471152
 40
0.8750295842
 40
0.93756524
 40
1.0
 40
1.0
 40
1.0
 40
1.0
 10
4.5436020652
 20
7.8886248343
 30
0.0
 10
4.5445196585
 20
7.8896403307
 30
0.0
 10
4.5462111467
 20
7.8918090642
 30
0.0
 10
4.5482710043
 20
7.8953808191
 30
0.0
 10
4.5498267527
 20
7.8992016033
 30
0.0
 10
4.5508449183
 20
7.9031964465
 30
0.0
 10
4.5512929142
 20
7.9072921604
 30
0.0
 10
4.5511316069
 20
7.911408872
 30
0.0
 10
4.5503870546
 20
7.9154628409
 30
0.0
 10
4.5490924643
 20
7.9193793783
 30
0.0
 10
4.5472779645
 20
7.9230829626
 30
0.0
 10
4.5453547134
 20
7.9259313696
 30
0.0
 10
4.5435871225
 20
7.9280245124
 30
0.0
 10
4.5416708156
 20
7.9299812218
 30
0.0
 10
4.5390123815
 20
7.9321575039
 30
0.0
 10
4.5354891396
 20
7.9342987893
 30
0.0
 10
4.5317045127
 20
7.9359408575
 30
0.0
 10
4.5277342612
 20
7.937051112
 30
0.0
 10
4.525008568
 20
7.9374147258
 30
0.0
 10
4.5236427267
 20
7.9374962242
 30
0.0
  0
SPLINE
  5
41D
100
AcDbEntity
  8
0
100
AcDbSpline
 62
7
  6
CONTINUOUS
 70
0
 71
3
 72
24
 73
20
 74
0
 42
0.0000001
 43
0.0000001
 44
0.0000000001
 40
0.0
 40
0.0
 40
0.0
 40
0.0
 40
0.0624522006
 40
0.1250020443
 40
0.1875830869
 40
0.2501035109
 40
0.3125232451
 40
0.3749254942
 40
0.4374216274
 40
0.4999957519
 40
0.5625614832
 40
0.6250391676
 40
0.6562614641
 40
0.6874752445
 40
0.7499107712
 40
0.8124471152
 40
0.8750295842
 40
0.93756524
 40
1.0
 40
1.0
 40
1.0
 40
1.0
 10
3.6009872953
 20
7.8886248343
 30
0.0
 10
3.6000697019
 20
7.8896403307
 30
0.0
 10
3.5983782138
 20
7.8918090642
 30
0.0
 10
3.5963183561
 20
7.8953808191
 30
0.0
 10
3.5947626077
 20
7.8992016033
 30
0.0
 10
3.5937444422
 20
7.9031964465
 30
0.0
 10
3.5932964462
 20
7.9072921604
 30
0.0
 10
3.5934577536
 20
7.911408872
 30
0.0
 10
3.5942023058
 20
7.9154628409
 30
0.0
 10
3.5954968962
 20
7.9193793783
 30
0.0
 10
3.5973113959
 20
7.9230829626
 30
0.0
 10
3.599234647
 20
7.9259313696
 30
0.0
 10
3.601002238
 20
7.9280245124
 30
0.0
 10
3.6029185449
 20
7.9299812218
 30
0.0
 10
3.6055769789
 20
7.9321575039
 30
0.0
 10
3.6091002208
 20
7.9342987893
 30
0.0
 10
3.6128848478
 20
7.9359408575
 30
0.0
 10
3.6168550992
 20
7.937051112
 30
0.0
 10
3.6195807925
 20
7.9374147258
 30
0.0
 10
3.6209466337
 20
7.9374962242
 30
0.0
  0
SPLINE
  5
41E
100
AcDbEntity
  8
0
100
AcDbSpline
 62
7
  6
CONTINUOUS
 70
0
 71
3
 72
9
 73
5
 74
0
 42
0.0000001
 43
0.0000001
 44
0.0000000001
 40
0.0
 40
0.0
 40
0.0
 40
0.0
 40
0.7495453609
 40
1.0
 40
1.0
 40
1.0
 40
1.0
 10
11.5829254283
 20
9.5984252468
 30
0.0
 10
11.5844016149
 20
9.599696405
 30
0.0
 10
11.5865316525
 20
9.601217692
 30
0.0
 10
11.5888057892
 20
9.6024767294
 30
0.0
 10
11.5893839453
 20
9.6027758071
 30
0.0
  0
SPLINE
  5
41F
100
AcDbEntity
  8
0
100
AcDbSpline
 62
7
  6
CONTINUOUS
 70
0
 71
3
 72
9
 73
5
 74
0
 42
0.0000001
 43
0.0000001
 44
0.0000000001
 40
0.0
 40
0.0
 40
0.0
 40
0.0
 40
0.7495453705
 40
1.0
 40
1.0
 40
1.0
 40
1.0
 10
12.5616639322
 20
9.5984252468
 30
0.0
 10
12.5601877657
 20
9.5996963876
 30
0.0
 10
12.5580577596
 20
9.6012176561
 30
0.0
 10
12.5557836577
 20
9.6024766824
 30
0.0
 10
12.5552055105
 20
9.6027757578
 30
0.0
  0
SPLINE
  5
420
100
AcDbEntity
  8
0
100
AcDbSpline
 62
7
  6
CONTINUOUS
 70
0
 71
3
 72
9
 73
5
 74
0
 42
0.0000001
 43
0.0000001
 44
0.0000000001
 40
0.0
 40
0.0
 40
0.0
 40
0.0
 40
0.4995250218
 40
1.0
 40
1.0
 40
1.0
 40
1.0
 10
12.3943836897
 20
8.781614523
 30
0.0
 10
12.3962494543
 20
8.781614523
 30
0.0
 10
12.3999910332
 20
8.7819502198
 30
0.0
 10
12.4036197801
 20
8.782913316
 30
0.0
 10
12.405381011
 20
8.7835397311
 30
0.0
  0
SPLINE
  5
421
100
AcDbEntity
  8
0
100
AcDbSpline
 62
7
  6
CONTINUOUS
 70
0
 71
3
 72
9
 73
5
 74
0
 42
0.0000001
 43
0.0000001
 44
0.0000000001
 40
0.0
 40
0.0
 40
0.0
 40
0.0
 40
0.2504147471
 40
1.0
 40
1.0
 40
1.0
 40
1.0
 10
12.4088225695
 20
8.7849812241
 30
0.0
 10
12.4093850115
 20
8.7852540203
 30
0.0
 10
12.4116005199
 20
8.7864050996
 30
0.0
 10
12.4136881636
 20
8.7878035195
 30
0.0
 10
12.4151469275
 20
8.7889754076
 30
0.0
  0
SPLINE
  5
422
100
AcDbEntity
  8
0
100
AcDbSpline
 62
7
  6
CONTINUOUS
 70
0
 71
3
 72
9
 73
5
 74
0
 42
0.0000001
 43
0.0000001
 44
0.0000000001
 40
0.0
 40
0.0
 40
0.0
 40
0.0
 40
0.7496152672
 40
1.0
 40
1.0
 40
1.0
 40
1.0
 10
12.4184705094
 20
8.7920587459
 30
0.0
 10
12.419607355
 20
8.7932768211
 30
0.0
 10
12.4209984203
 20
8.7950259396
 30
0.0
 10
12.4222002106
 20
8.7968960551
 30
0.0
 10
12.4224893424
 20
8.7973715854
 30
0.0
  0
SPLINE
  5
423
100
AcDbEntity
  8
0
100
AcDbSpline
 62
7
  6
CONTINUOUS
 70
0
 71
3
 72
9
 73
5
 74
0
 42
0.0000001
 43
0.0000001
 44
0.0000000001
 40
0.0
 40
0.0
 40
0.0
 40
0.0
 40
0.4995250218
 40
1.0
 40
1.0
 40
1.0
 40
1.0
 10
11.7502056708
 20
8.781614523
 30
0.0
 10
11.7483399062
 20
8.781614523
 30
0.0
 10
11.7445983272
 20
8.7819502198
 30
0.0
 10
11.7409695804
 20
8.782913316
 30
0.0
 10
11.7392083494
 20
8.7835397311
 30
0.0
  0
SPLINE
  5
424
100
AcDbEntity
  8
0
100
AcDbSpline
 62
7
  6
CONTINUOUS
 70
0
 71
3
 72
9
 73
5
 74
0
 42
0.0000001
 43
0.0000001
 44
0.0000000001
 40
0.0
 40
0.0
 40
0.0
 40
0.0
 40
0.2504147492
 40
1.0
 40
1.0
 40
1.0
 40
1.0
 10
11.7357668214
 20
8.7849812093
 30
0.0
 10
11.7352043766
 20
8.7852540062
 30
0.0
 10
11.7329888572
 20
8.7864050887
 30
0.0
 10
11.7309012035
 20
8.7878035142
 30
0.0
 10
11.729442433
 20
8.7889754076
 30
0.0
  0
SPLINE
  5
425
100
AcDbEntity
  8
0
100
AcDbSpline
 62
7
  6
CONTINUOUS
 70
0
 71
3
 72
9
 73
5
 74
0
 42
0.0000001
 43
0.0000001
 44
0.0000000001
 40
0.0
 40
0.0
 40
0.0
 40
0.0
 40
0.7496152661
 40
1.0
 40
1.0
 40
1.0
 40
1.0
 10
11.7261188605
 20
8.7920587358
 30
0.0
 10
11.724982012
 20
8.793276813
 30
0.0
 10
11.7235909433
 20
8.7950259348
 30
0.0
 10
11.7223891505
 20
8.7968960542
 30
0.0
 10
11.7221000181
 20
8.7973715854
 30
0.0
  0
LINE
  5
426
100
AcDbEntity
  8
0
100
AcDbLine
 62
7
  6
CONTINUOUS
 10
11.6145013568
 20
9.4268498789
 11
11.6381178768
 21
9.3869246271
  0
SPLINE
  5
427
100
AcDbEntity
  8
0
100
AcDbSpline
 62
7
  6
CONTINUOUS
 70
0
 71
3
 72
23
 73
19
 74
0
 42
0.0000001
 43
0.0000001
 44
0.0000000001
 40
0.0
 40
0.0
 40
0.0
 40
0.0
 40
0.0623997508
 40
0.1248859845
 40
0.1874581483
 40
0.2500345632
 40
0.3125301372
 40
0.3749339672
 40
0.437361862
 40
0.4998909547
 40
0.5624768384
 40
0.6250269555
 40
0.6874780435
 40
0.749873541
 40
0.8123432868
 40
0.8749063272
 40
0.93748844
 40
1.0
 40
1.0
 40
1.0
 40
1.0
 10
11.5802267986
 20
9.5495017844
 30
0.0
 10
11.5791406839
 20
9.5506646077
 30
0.0
 10
11.5771375106
 20
9.5531575554
 30
0.0
 10
11.57469978
 20
9.5572866534
 30
0.0
 10
11.5728517675
 20
9.5617163774
 30
0.0
 10
11.5716239816
 20
9.566356391
 30
0.0
 10
11.5710457317
 20
9.5711175363
 30
0.0
 10
11.5711520346
 20
9.5759103584
 30
0.0
 10
11.5719645261
 20
9.5806354452
 30
0.0
 10
11.5734314719
 20
9.5852030509
 30
0.0
 10
11.5755103419
 20
9.5895298733
 30
0.0
 10
11.5781586911
 20
9.593531191
 30
0.0
 10
11.5813343012
 20
9.5971237598
 30
0.0
 10
11.5850001965
 20
9.6002128343
 30
0.0
 10
11.5890757584
 20
9.6027396341
 30
0.0
 10
11.5934647931
 20
9.6046810213
 30
0.0
 10
11.5980773253
 20
9.6060068558
 30
0.0
 10
11.6012470441
 20
9.6064610222
 30
0.0
 10
11.6028369902
 20
9.6065748476
 30
0.0
  0
SPLINE
  5
428
100
AcDbEntity
  8
0
100
AcDbSpline
 62
7
  6
CONTINUOUS
 70
0
 71
3
 72
23
 73
19
 74
0
 42
0.0000001
 43
0.0000001
 44
0.0000000001
 40
0.0
 40
0.0
 40
0.0
 40
0.0
 40
0.0623997508
 40
0.1248859845
 40
0.1874581483
 40
0.2500345632
 40
0.3125301372
 40
0.3749339672
 40
0.437361862
 40
0.4998909547
 40
0.5624768384
 40
0.6250269555
 40
0.6874780435
 40
0.749873541
 40
0.8123432868
 40
0.8749063272
 40
0.93748844
 40
1.0
 40
1.0
 40
1.0
 40
1.0
 10
12.5643625618
 20
9.5495017844
 30
0.0
 10
12.5654486766
 20
9.5506646077
 30
0.0
 10
12.5674518499
 20
9.5531575554
 30
0.0
 10
12.5698895804
 20
9.5572866534
 30
0.0
 10
12.5717375929
 20
9.5617163774
 30
0.0
 10
12.5729653789
 20
9.566356391
 30
0.0
 10
12.5735436287
 20
9.5711175363
 30
0.0
 10
12.5734373259
 20
9.5759103584
 30
0.0
 10
12.5726248344
 20
9.5806354452
 30
0.0
 10
12.5711578886
 20
9.5852030509
 30
0.0
 10
12.5690790185
 20
9.5895298733
 30
0.0
 10
12.5664306693
 20
9.593531191
 30
0.0
 10
12.5632550593
 20
9.5971237598
 30
0.0
 10
12.559589164
 20
9.6002128343
 30
0.0
 10
12.555513602
 20
9.6027396341
 30
0.0
 10
12.5511245673
 20
9.6046810213
 30
0.0
 10
12.5465120352
 20
9.6060068558
 30
0.0
 10
12.5433423163
 20
9.6064610222
 30
0.0
 10
12.5417523703
 20
9.6065748476
 30
0.0
  0
SPLINE
  5
429
100
AcDbEntity
  8
0
100
AcDbSpline
 62
7
  6
CONTINUOUS
 70
0
 71
3
 72
26
 73
22
 74
0
 42
0.0000001
 43
0.0000001
 44
0.0000000001
 40
0.0
 40
0.0
 40
0.0
 40
0.0
 40
0.1047007777
 40
0.2263246734
 40
0.2917399696
 40
0.3594078658
 40
0.4287403017
 40
0.4990871024
 40
0.5344318733
 40
0.5697682566
 40
0.6049779793
 40
0.6399418101
 40
0.6745429699
 40
0.7086686601
 40
0.7422078486
 40
0.7750462822
 40
0.8070668833
 40
0.8381622291
 40
0.8971991208
 40
0.9513856941
 40
1.0
 40
1.0
 40
1.0
 40
1.0
 10
12.5064714837
 20
9.3869246271
 30
0.0
 10
12.5004688516
 20
9.3767813933
 30
0.0
 10
12.4878791072
 20
9.3546245457
 30
0.0
 10
12.4729652156
 20
9.3253439308
 30
0.0
 10
12.4611605557
 20
9.2992083109
 30
0.0
 10
12.4525564327
 20
9.2781022455
 30
0.0
 10
12.4446824234
 20
9.2561208456
 30
0.0
 10
12.4389427102
 20
9.2372625336
 30
0.0
 10
12.4349478851
 20
9.2218957531
 30
0.0
 10
12.4322836807
 20
9.2102752351
 30
0.0
 10
12.4299686312
 20
9.1986239036
 30
0.0
 10
12.428018581
 20
9.1869897356
 30
0.0
 10
12.4264497984
 20
9.1754210176
 30
0.0
 10
12.4252744503
 20
9.1639669542
 30
0.0
 10
12.4244752314
 20
9.15267959
 30
0.0
 10
12.4240368851
 20
9.141609694
 30
0.0
 10
12.4239451181
 20
9.1308065527
 30
0.0
 10
12.4242523211
 20
9.1170573799
 30
0.0
 10
12.4253096173
 20
9.1008363456
 30
0.0
 10
12.4274565284
 20
9.0827378198
 30
0.0
 10
12.4293541277
 20
9.0713178472
 30
0.0
 10
12.4303636303
 20
9.0659391897
 30
0.0
  0
SPLINE
  5
42A
100
AcDbEntity
  8
0
100
AcDbSpline
 62
7
  6
CONTINUOUS
 70
0
 71
3
 72
9
 73
5
 74
0
 42
0.0000001
 43
0.0000001
 44
0.0000000001
 40
0.0
 40
0.0
 40
0.0
 40
0.0
 40
0.4998024276
 40
1.0
 40
1.0
 40
1.0
 40
1.0
 10
12.5301062006
 20
8.2026430742
 30
0.0
 10
12.526187628
 20
8.204596107
 30
0.0
 10
12.5178563665
 20
8.2075781256
 30
0.0
 10
12.5090695104
 20
8.2085984401
 30
0.0
 10
12.5046877446
 20
8.2085984401
 30
0.0
  0
SPLINE
  5
42B
100
AcDbEntity
  8
0
100
AcDbSpline
 62
7
  6
CONTINUOUS
 70
0
 71
3
 72
9
 73
5
 74
0
 42
0.0000001
 43
0.0000001
 44
0.0000000001
 40
0.0
 40
0.0
 40
0.0
 40
0.0
 40
0.4998024276
 40
1.0
 40
1.0
 40
1.0
 40
1.0
 10
11.6144831598
 20
8.2026430742
 30
0.0
 10
11.6184017324
 20
8.204596107
 30
0.0
 10
11.6267329939
 20
8.2075781256
 30
0.0
 10
11.6355198501
 20
8.2085984401
 30
0.0
 10
11.6399016159
 20
8.2085984401
 30
0.0
  0
SPLINE
  5
42C
100
AcDbEntity
  8
0
100
AcDbSpline
 62
7
  6
CONTINUOUS
 70
0
 71
3
 72
17
 73
13
 74
0
 42
0.0000001
 43
0.0000001
 44
0.0000000001
 40
0.0
 40
0.0
 40
0.0
 40
0.0
 40
0.12483573
 40
0.249934993
 40
0.3747987116
 40
0.4372946918
 40
0.4998718156
 40
0.624967226
 40
0.7498597566
 40
0.8123501425
 40
0.8749122339
 40
1.0
 40
1.0
 40
1.0
 40
1.0
 10
12.3943836897
 20
8.781614523
 30
0.0
 10
12.3971794325
 20
8.781614523
 30
0.0
 10
12.4028003628
 20
8.7823722126
 30
0.0
 10
12.4106566158
 20
8.7855402993
 30
0.0
 10
12.4163749362
 20
8.7897206174
 30
0.0
 10
12.4201541038
 20
8.7938696124
 30
0.0
 10
12.4233669402
 20
8.7984759526
 30
0.0
 10
12.4262621171
 20
8.8049318203
 30
0.0
 10
12.4274860842
 20
8.8119050112
 30
0.0
 10
12.4273420974
 20
8.8175164536
 30
0.0
 10
12.4264672419
 20
8.823061073
 30
0.0
 10
12.4250265846
 20
8.8270696511
 30
0.0
 10
12.4237614414
 20
8.8295690877
 30
0.0
  0
SPLINE
  5
42D
100
AcDbEntity
  8
0
100
AcDbSpline
 62
7
  6
CONTINUOUS
 70
0
 71
3
 72
17
 73
13
 74
0
 42
0.0000001
 43
0.0000001
 44
0.0000000001
 40
0.0
 40
0.0
 40
0.0
 40
0.0
 40
0.12483573
 40
0.249934993
 40
0.3747987116
 40
0.4372946918
 40
0.4998718156
 40
0.624967226
 40
0.7498597566
 40
0.8123501425
 40
0.8749122339
 40
1.0
 40
1.0
 40
1.0
 40
1.0
 10
11.7502056708
 20
8.781614523
 30
0.0
 10
11.747409928
 20
8.781614523
 30
0.0
 10
11.7417889976
 20
8.7823722126
 30
0.0
 10
11.7339327446
 20
8.7855402993
 30
0.0
 10
11.7282144242
 20
8.7897206174
 30
0.0
 10
11.7244352567
 20
8.7938696124
 30
0.0
 10
11.7212224202
 20
8.7984759526
 30
0.0
 10
11.7183272434
 20
8.8049318203
 30
0.0
 10
11.7171032762
 20
8.8119050112
 30
0.0
 10
11.717247263
 20
8.8175164536
 30
0.0
 10
11.7181221186
 20
8.823061073
 30
0.0
 10
11.7195627758
 20
8.8270696511
 30
0.0
 10
11.720827919
 20
8.8295690877
 30
0.0
  0
LINE
  5
42E
100
AcDbEntity
  8
0
100
AcDbLine
 62
7
  6
CONTINUOUS
 10
12.5300880037
 20
9.4268498789
 11
12.5064714837
 21
9.3869246271
  0
LINE
  5
42F
100
AcDbEntity
  8
0
100
AcDbLine
 62
7
  6
CONTINUOUS
 10
11.7032231352
 20
9.0212728317
 11
11.7061436949
 21
9.0313127078
  0
SPLINE
  5
430
100
AcDbEntity
  8
0
100
AcDbSpline
 62
7
  6
CONTINUOUS
 70
0
 71
3
 72
24
 73
20
 74
0
 42
0.0000001
 43
0.0000001
 44
0.0000000001
 40
0.0
 40
0.0
 40
0.0
 40
0.0
 40
0.0485781775
 40
0.1027403597
 40
0.1617480311
 40
0.224846247
 40
0.2576707364
 40
0.2912005509
 40
0.3253253929
 40
0.3599258792
 40
0.3948821528
 40
0.4300778001
 40
0.465407375
 40
0.5007648456
 40
0.5711313796
 40
0.6404740923
 40
0.7735805076
 40
0.8952469451
 40
1.0
 40
1.0
 40
1.0
 40
1.0
 10
11.7142032366
 20
9.0658195652
 30
0.0
 10
11.7152142421
 20
9.0711956427
 30
0.0
 10
11.7171147945
 20
9.0826120695
 30
0.0
 10
11.7192664614
 20
9.1007061038
 30
0.0
 10
11.7205712873
 20
9.1205226922
 30
0.0
 10
11.7206902481
 20
9.1379804612
 30
0.0
 10
11.7201269018
 20
9.1525489539
 30
0.0
 10
11.7193289438
 20
9.1638376496
 30
0.0
 10
11.7181486768
 20
9.1752937113
 30
0.0
 10
11.7165896439
 20
9.186866473
 30
0.0
 10
11.7146521728
 20
9.1985042377
 30
0.0
 10
11.7123366049
 20
9.2101563351
 30
0.0
 10
11.7096667718
 20
9.221778619
 30
0.0
 10
11.7056751907
 20
9.2371545321
 30
0.0
 10
11.6999409433
 20
9.2560266422
 30
0.0
 10
11.6895786547
 20
9.2849576837
 30
0.0
 10
11.67510438
 20
9.3185054158
 30
0.0
 10
11.656725204
 20
9.3545986495
 30
0.0
 10
11.6441254926
 20
9.3767729719
 30
0.0
 10
11.6381178768
 20
9.3869246271
 30
0.0
  0
SPLINE
  5
431
100
AcDbEntity
  8
0
100
AcDbSpline
 62
7
  6
CONTINUOUS
 70
0
 71
3
 72
9
 73
5
 74
0
 42
0.0000001
 43
0.0000001
 44
0.0000000001
 40
0.0
 40
0.0
 40
0.0
 40
0.0
 40
0.2562895793
 40
1.0
 40
1.0
 40
1.0
 40
1.0
 10
12.5497197369
 20
8.1191055411
 30
0.0
 10
12.5492184897
 20
8.1184282604
 30
0.0
 10
12.5471988098
 20
8.1158333216
 30
0.0
 10
12.54493536
 20
8.1134296227
 30
0.0
 10
12.5431443745
 20
8.1117650865
 30
0.0
  0
SPLINE
  5
432
100
AcDbEntity
  8
0
100
AcDbSpline
 62
7
  6
CONTINUOUS
 70
0
 71
3
 72
9
 73
5
 74
0
 42
0.0000001
 43
0.0000001
 44
0.0000000001
 40
0.0
 40
0.0
 40
0.0
 40
0.0
 40
0.2418689427
 40
1.0
 40
1.0
 40
1.0
 40
1.0
 10
11.5946204027
 20
8.1220233698
 30
0.0
 10
11.5941140906
 20
8.1228739983
 30
0.0
 10
11.5921203916
 20
8.1264495522
 30
0.0
 10
11.5905317239
 20
8.1302484887
 30
0.0
 10
11.5895594911
 20
8.1331950786
 30
0.0
  0
SPLINE
  5
433
100
AcDbEntity
  8
0
100
AcDbSpline
 62
7
  6
CONTINUOUS
 70
0
 71
3
 72
9
 73
5
 74
0
 42
0.0000001
 43
0.0000001
 44
0.0000000001
 40
0.0
 40
0.0
 40
0.0
 40
0.0
 40
0.4736233715
 40
1.0
 40
1.0
 40
1.0
 40
1.0
 10
11.6045826942
 20
8.1133100135
 30
0.0
 10
11.6022696899
 20
8.1160404531
 30
0.0
 10
11.5979839753
 20
8.1223367628
 30
0.0
 10
11.5951106062
 20
8.1293893056
 30
0.0
 10
11.5939561011
 20
8.133195069
 30
0.0
  0
SPLINE
  5
434
100
AcDbEntity
  8
0
100
AcDbSpline
 62
7
  6
CONTINUOUS
 70
0
 71
3
 72
11
 73
7
 74
0
 42
0.0000001
 43
0.0000001
 44
0.0000000001
 40
0.0
 40
0.0
 40
0.0
 40
0.0
 40
0.2246541886
 40
0.4664665676
 40
0.7256415481
 40
1.0
 40
1.0
 40
1.0
 40
1.0
 10
11.6094890353
 20
8.1142964978
 30
0.0
 10
11.608294813
 20
8.1159307893
 30
0.0
 10
11.6060148257
 20
8.119474745
 30
0.0
 10
11.6031404084
 20
8.1253628801
 30
0.0
 10
11.6008020341
 20
8.1319602431
 30
0.0
 10
11.5996836361
 20
8.1366459749
 30
0.0
 10
11.5992314594
 20
8.1390762228
 30
0.0
  0
SPLINE
  5
435
100
AcDbEntity
  8
0
100
AcDbSpline
 62
7
  6
CONTINUOUS
 70
0
 71
3
 72
11
 73
7
 74
0
 42
0.0000001
 43
0.0000001
 44
0.0000000001
 40
0.0
 40
0.0
 40
0.0
 40
0.0
 40
0.222943513
 40
0.464473954
 40
0.7243095458
 40
1.0
 40
1.0
 40
1.0
 40
1.0
 10
11.6167921542
 20
8.1151985372
 30
0.0
 10
11.6157881225
 20
8.1168082466
 30
0.0
 10
11.6138775277
 20
8.1202781341
 30
0.0
 10
11.6114829502
 20
8.1259688514
 30
0.0
 10
11.6095281537
 20
8.1322959038
 30
0.0
 10
11.6085862147
 20
8.1367619698
 30
0.0
 10
11.6082014249
 20
8.1390762228
 30
0.0
  0
LINE
  5
436
100
AcDbEntity
  8
0
100
AcDbLine
 62
7
  6
CONTINUOUS
 10
11.6289159589
 20
8.1117650845
 11
11.6264650866
 21
8.1159407105
  0
SPLINE
  5
437
100
AcDbEntity
  8
0
100
AcDbSpline
 62
7
  6
CONTINUOUS
 70
0
 71
3
 72
11
 73
7
 74
0
 42
0.0000001
 43
0.0000001
 44
0.0000000001
 40
0.0
 40
0.0
 40
0.0
 40
0.0
 40
0.2213851572
 40
0.4626568135
 40
0.7230906911
 40
1.0
 40
1.0
 40
1.0
 40
1.0
 10
11.6264650866
 20
8.1159407105
 30
0.0
 10
11.6256289959
 20
8.1175285462
 30
0.0
 10
11.6240430641
 20
8.1209340271
 30
0.0
 10
11.6220646432
 20
8.1264591047
 30
0.0
 10
11.6204444087
 20
8.132565872
 30
0.0
 10
11.6196588301
 20
8.1368550948
 30
0.0
 10
11.6193352073
 20
8.1390762228
 30
0.0
  0
LINE
  5
438
100
AcDbEntity
  8
0
100
AcDbLine
 62
7
  6
CONTINUOUS
 10
11.6407644501
 20
8.1117652967
 11
11.6384527278
 21
8.1164321295
  0
LINE
  5
439
100
AcDbEntity
  8
0
100
AcDbLine
 62
7
  6
CONTINUOUS
 10
11.6384527278
 20
8.1164321295
 11
11.6363098998
 21
8.1220234829
  0
SPLINE
  5
43A
100
AcDbEntity
  8
0
100
AcDbSpline
 62
7
  6
CONTINUOUS
 70
0
 71
3
 72
9
 73
5
 74
0
 42
0.0000001
 43
0.0000001
 44
0.0000000001
 40
0.0
 40
0.0
 40
0.0
 40
0.0
 40
0.4748548464
 40
1.0
 40
1.0
 40
1.0
 40
1.0
 10
11.6363098998
 20
8.1220234829
 30
0.0
 10
11.6354376856
 20
8.1246486359
 30
0.0
 10
11.633924584
 20
8.1302866629
 30
0.0
 10
11.6329587171
 20
8.1360404196
 30
0.0
 10
11.632580896
 20
8.1390762228
 30
0.0
  0
SPLINE
  5
43B
100
AcDbEntity
  8
0
100
AcDbSpline
 62
7
  6
CONTINUOUS
 70
0
 71
3
 72
9
 73
5
 74
0
 42
0.0000001
 43
0.0000001
 44
0.0000000001
 40
0.0
 40
0.0
 40
0.0
 40
0.0
 40
0.4699644855
 40
1.0
 40
1.0
 40
1.0
 40
1.0
 10
11.6546250054
 20
8.1117653915
 30
0.0
 10
11.6539106837
 20
8.113317199
 30
0.0
 10
11.6525470145
 20
8.1166921665
 30
0.0
 10
11.6514608362
 20
8.1201653077
 30
0.0
 10
11.6509517246
 20
8.1220235057
 30
0.0
  0
SPLINE
  5
43C
100
AcDbEntity
  8
0
100
AcDbSpline
 62
7
  6
CONTINUOUS
 70
0
 71
3
 72
9
 73
5
 74
0
 42
0.0000001
 43
0.0000001
 44
0.0000000001
 40
0.0
 40
0.0
 40
0.0
 40
0.0
 40
0.4731888845
 40
1.0
 40
1.0
 40
1.0
 40
1.0
 10
11.6509517246
 20
8.1220235057
 30
0.0
 10
11.650228921
 20
8.1246616549
 30
0.0
 10
11.6489801173
 20
8.1303146186
 30
0.0
 10
11.648187638
 20
8.1360467844
 30
0.0
 10
11.6478767332
 20
8.1390762228
 30
0.0
  0
SPLINE
  5
43D
100
AcDbEntity
  8
0
100
AcDbSpline
 62
7
  6
CONTINUOUS
 70
0
 71
3
 72
9
 73
5
 74
0
 42
0.0000001
 43
0.0000001
 44
0.0000000001
 40
0.0
 40
0.0
 40
0.0
 40
0.0
 40
0.467335186
 40
1.0
 40
1.0
 40
1.0
 40
1.0
 10
11.6704330171
 20
8.1117652165
 30
0.0
 10
11.6698701992
 20
8.1133274313
 30
0.0
 10
11.6687993097
 20
8.1167189194
 30
0.0
 10
11.6679548989
 20
8.1201728837
 30
0.0
 10
11.6675580763
 20
8.1220234465
 30
0.0
  0
SPLINE
  5
43E
100
AcDbEntity
  8
0
100
AcDbSpline
 62
7
  6
CONTINUOUS
 70
0
 71
3
 72
9
 73
5
 74
0
 42
0.0000001
 43
0.0000001
 44
0.0000000001
 40
0.0
 40
0.0
 40
0.0
 40
0.0
 40
0.4717777388
 40
1.0
 40
1.0
 40
1.0
 40
1.0
 10
11.6675580763
 20
8.1220234465
 30
0.0
 10
11.6669899413
 20
8.1246729162
 30
0.0
 10
11.6660119525
 20
8.1303381191
 30
0.0
 10
11.6653943095
 20
8.1360520695
 30
0.0
 10
11.6651514029
 20
8.1390762228
 30
0.0
  0
SPLINE
  5
43F
100
AcDbEntity
  8
0
100
AcDbSpline
 62
7
  6
CONTINUOUS
 70
0
 71
3
 72
9
 73
5
 74
0
 42
0.0000001
 43
0.0000001
 44
0.0000000001
 40
0.0
 40
0.0
 40
0.0
 40
0.0
 40
0.465141429
 40
1.0
 40
1.0
 40
1.0
 40
1.0
 10
11.6881145467
 20
8.1117657018
 30
0.0
 10
11.6877083449
 20
8.1133368482
 30
0.0
 10
11.6869378039
 20
8.1167414825
 30
0.0
 10
11.6863352607
 20
8.1201792694
 30
0.0
 10
11.6860514496
 20
8.1220235991
 30
0.0
  0
SPLINE
  5
440
100
AcDbEntity
  8
0
100
AcDbSpline
 62
7
  6
CONTINUOUS
 70
0
 71
3
 72
9
 73
5
 74
0
 42
0.0000001
 43
0.0000001
 44
0.0000000001
 40
0.0
 40
0.0
 40
0.0
 40
0.0
 40
0.4706702392
 40
1.0
 40
1.0
 40
1.0
 40
1.0
 10
11.6860514496
 20
8.1220235991
 30
0.0
 10
11.6856423484
 20
8.124682119
 30
0.0
 10
11.6849402202
 20
8.1303565602
 30
0.0
 10
11.684498443
 20
8.1360561925
 30
0.0
 10
11.6843243625
 20
8.1390762228
 30
0.0
  0
LINE
  5
441
100
AcDbEntity
  8
0
100
AcDbLine
 62
7
  6
CONTINUOUS
 10
11.7075874338
 20
8.1117655478
 11
11.7063457039
 21
8.122023597
  0
SPLINE
  5
442
100
AcDbEntity
  8
0
100
AcDbSpline
 62
7
  6
CONTINUOUS
 70
0
 71
3
 72
9
 73
5
 74
0
 42
0.0000001
 43
0.0000001
 44
0.0000000001
 40
0.0
 40
0.0
 40
0.0
 40
0.0
 40
0.4699076753
 40
1.0
 40
1.0
 40
1.0
 40
1.0
 10
11.7063457039
 20
8.122023597
 30
0.0
 10
11.7060988887
 20
8.1246884727
 30
0.0
 10
11.7056761962
 20
8.1303691569
 30
0.0
 10
11.7054108959
 20
8.1360589854
 30
0.0
 10
11.7053062188
 20
8.1390762228
 30
0.0
  0
LINE
  5
443
100
AcDbEntity
  8
0
100
AcDbLine
 62
7
  6
CONTINUOUS
 10
11.7287607281
 20
8.1117656801
 11
11.7283461772
 21
8.1220236571
  0
LINE
  5
444
100
AcDbEntity
  8
0
100
AcDbLine
 62
7
  6
CONTINUOUS
 10
11.728801777
 20
8.1109638045
 11
11.7287607281
 21
8.1117656801
  0
LINE
  5
445
100
AcDbEntity
  8
0
100
AcDbLine
 62
7
  6
CONTINUOUS
 10
12.4158286342
 20
8.1117657852
 11
12.4157875834
 21
8.1109639311
  0
SPLINE
  5
446
100
AcDbEntity
  8
0
100
AcDbSpline
 62
7
  6
CONTINUOUS
 70
0
 71
3
 72
9
 73
5
 74
0
 42
0.0000001
 43
0.0000001
 44
0.0000000001
 40
0.0
 40
0.0
 40
0.0
 40
0.0
 40
0.2417959679
 40
1.0
 40
1.0
 40
1.0
 40
1.0
 10
11.6033903587
 20
8.1943165096
 30
0.0
 10
11.6027387494
 20
8.1936823233
 30
0.0
 10
11.6001141974
 20
8.1909880182
 30
0.0
 10
11.5977814276
 20
8.1880110568
 30
0.0
 10
11.5961986513
 20
8.1856394766
 30
0.0
  0
SPLINE
  5
447
100
AcDbEntity
  8
0
100
AcDbSpline
 62
7
  6
CONTINUOUS
 70
0
 71
3
 72
9
 73
5
 74
0
 42
0.0000001
 43
0.0000001
 44
0.0000000001
 40
0.0
 40
0.0
 40
0.0
 40
0.0
 40
0.4751123068
 40
1.0
 40
1.0
 40
1.0
 40
1.0
 10
11.6066722856
 20
8.1943165096
 30
0.0
 10
11.6043340085
 20
8.1918412619
 30
0.0
 10
11.5999466016
 20
8.186110379
 30
0.0
 10
11.596726886
 20
8.1796528687
 30
0.0
 10
11.595362722
 20
8.1761471462
 30
0.0
  0
SPLINE
  5
448
100
AcDbEntity
  8
0
100
AcDbSpline
 62
7
  6
CONTINUOUS
 70
0
 71
3
 72
9
 73
5
 74
0
 42
0.0000001
 43
0.0000001
 44
0.0000000001
 40
0.0
 40
0.0
 40
0.0
 40
0.0
 40
0.2418667962
 40
1.0
 40
1.0
 40
1.0
 40
1.0
 10
12.5499671186
 20
8.122020281
 30
0.0
 10
12.5504735902
 20
8.1228710463
 30
0.0
 10
12.5524679286
 20
8.1264472289
 30
0.0
 10
12.5540570643
 20
8.1302469201
 30
0.0
 10
12.5550295534
 20
8.1331941211
 30
0.0
  0
SPLINE
  5
449
100
AcDbEntity
  8
0
100
AcDbSpline
 62
7
  6
CONTINUOUS
 70
0
 71
3
 72
9
 73
5
 74
0
 42
0.0000001
 43
0.0000001
 44
0.0000000001
 40
0.0
 40
0.0
 40
0.0
 40
0.0
 40
0.2291027179
 40
1.0
 40
1.0
 40
1.0
 40
1.0
 10
11.612125159
 20
8.1943165096
 30
0.0
 10
11.6110845093
 20
8.1931028535
 30
0.0
 10
11.6068108723
 20
8.1875774768
 30
0.0
 10
11.6036512833
 20
8.18121952
 30
0.0
 10
11.6018597209
 20
8.1761471462
 30
0.0
  0
SPLINE
  5
44A
100
AcDbEntity
  8
0
100
AcDbSpline
 62
7
  6
CONTINUOUS
 70
0
 71
3
 72
9
 73
5
 74
0
 42
0.0000001
 43
0.0000001
 44
0.0000000001
 40
0.0
 40
0.0
 40
0.0
 40
0.0
 40
0.2584332431
 40
1.0
 40
1.0
 40
1.0
 40
1.0
 10
12.54822226
 20
8.1858905119
 30
0.0
 10
12.5476929262
 20
8.1866744006
 30
0.0
 10
12.5455684478
 20
8.1896553219
 30
0.0
 10
12.5431440268
 20
8.1924234914
 30
0.0
 10
12.5411990017
 20
8.1943165096
 30
0.0
  0
SPLINE
  5
44B
100
AcDbEntity
  8
0
100
AcDbSpline
 62
7
  6
CONTINUOUS
 70
0
 71
3
 72
11
 73
7
 74
0
 42
0.0000001
 43
0.0000001
 44
0.0000000001
 40
0.0
 40
0.0
 40
0.0
 40
0.0
 40
0.2170856842
 40
0.4559589238
 40
0.7173733803
 40
1.0
 40
1.0
 40
1.0
 40
1.0
 10
11.6197235552
 20
8.1943165096
 30
0.0
 10
11.6183841679
 20
8.1925685073
 30
0.0
 10
11.6158290758
 20
8.1886945956
 30
0.0
 10
11.6125969332
 20
8.1821560593
 30
0.0
 10
11.6099326233
 20
8.174656093
 30
0.0
 10
11.6086872919
 20
8.1692647336
 30
0.0
 10
11.6082014249
 20
8.1664391941
 30
0.0
  0
SPLINE
  5
44C
100
AcDbEntity
  8
0
100
AcDbSpline
 62
7
  6
CONTINUOUS
 70
0
 71
3
 72
11
 73
7
 74
0
 42
0.0000001
 43
0.0000001
 44
0.0000000001
 40
0.0
 40
0.0
 40
0.0
 40
0.0
 40
0.2131779852
 40
0.4508964773
 40
0.7137318384
 40
1.0
 40
1.0
 40
1.0
 40
1.0
 10
11.6294320468
 20
8.1943165096
 30
0.0
 10
11.6282489632
 20
8.1925545392
 30
0.0
 10
11.625999552
 20
8.1886545
 30
0.0
 10
11.6231739605
 20
8.1821201226
 30
0.0
 10
11.6208450193
 20
8.1746266821
 30
0.0
 10
11.6197598603
 20
8.1692573529
 30
0.0
 10
11.6193352073
 20
8.1664391941
 30
0.0
  0
SPLINE
  5
44D
100
AcDbEntity
  8
0
100
AcDbSpline
 62
7
  6
CONTINUOUS
 70
0
 71
3
 72
11
 73
7
 74
0
 42
0.0000001
 43
0.0000001
 44
0.0000000001
 40
0.0
 40
0.0
 40
0.0
 40
0.0
 40
0.2093773482
 40
0.4460094963
 40
0.7102369801
 40
1.0
 40
1.0
 40
1.0
 40
1.0
 10
11.6412053685
 20
8.1943165096
 30
0.0
 10
11.6401863182
 20
8.1925397376
 30
0.0
 10
11.6382566271
 20
8.1886143606
 30
0.0
 10
11.6358492601
 20
8.1820857412
 30
0.0
 10
11.633864855
 20
8.1745995008
 30
0.0
 10
11.6329427613
 20
8.1692506492
 30
0.0
 10
11.632580896
 20
8.1664391941
 30
0.0
  0
SPLINE
  5
44E
100
AcDbEntity
  8
0
100
AcDbSpline
 62
7
  6
CONTINUOUS
 70
0
 71
3
 72
9
 73
5
 74
0
 42
0.0000001
 43
0.0000001
 44
0.0000000001
 40
0.0
 40
0.0
 40
0.0
 40
0.0
 40
0.4736242173
 40
1.0
 40
1.0
 40
1.0
 40
1.0
 10
12.5400067273
 20
8.1133100872
 30
0.0
 10
12.5423196196
 20
8.1160404045
 30
0.0
 10
12.5466051451
 20
8.1223363928
 30
0.0
 10
12.549478462
 20
8.1293885561
 30
0.0
 10
12.5506329691
 20
8.1331941123
 30
0.0
  0
SPLINE
  5
44F
100
AcDbEntity
  8
0
100
AcDbSpline
 62
7
  6
CONTINUOUS
 70
0
 71
3
 72
11
 73
7
 74
0
 42
0.0000001
 43
0.0000001
 44
0.0000000001
 40
0.0
 40
0.0
 40
0.0
 40
0.0
 40
0.2058307437
 40
0.4414819866
 40
0.7070168218
 40
1.0
 40
1.0
 40
1.0
 40
1.0
 10
11.6549886276
 20
8.1943165096
 30
0.0
 10
11.6541411931
 20
8.1925247101
 30
0.0
 10
11.6525438806
 20
8.1885759333
 30
0.0
 10
11.6505638877
 20
8.1820541941
 30
0.0
 10
11.6489313621
 20
8.1745753441
 30
0.0
 10
11.6481745111
 20
8.1692447818
 30
0.0
 10
11.6478767332
 20
8.1664391941
 30
0.0
  0
SPLINE
  5
450
100
AcDbEntity
  8
0
100
AcDbSpline
 62
7
  6
CONTINUOUS
 70
0
 71
3
 72
9
 73
5
 74
0
 42
0.0000001
 43
0.0000001
 44
0.0000000001
 40
0.0
 40
0.0
 40
0.0
 40
0.0
 40
0.5245487
 40
1.0
 40
1.0
 40
1.0
 40
1.0
 10
12.549099955
 20
8.1764699868
 30
0.0
 10
12.5477392315
 20
8.1799095908
 30
0.0
 10
12.5445443513
 20
8.1862483567
 30
0.0
 10
12.5402194393
 20
8.1918792782
 30
0.0
 10
12.5379170749
 20
8.1943165096
 30
0.0
  0
SPLINE
  5
451
100
AcDbEntity
  8
0
100
AcDbSpline
 62
7
  6
CONTINUOUS
 70
0
 71
3
 72
11
 73
7
 74
0
 42
0.0000001
 43
0.0000001
 44
0.0000000001
 40
0.0
 40
0.0
 40
0.0
 40
0.0
 40
0.202702847
 40
0.4375153821
 40
0.7042093194
 40
1.0
 40
1.0
 40
1.0
 40
1.0
 10
11.6707175601
 20
8.1943165096
 30
0.0
 10
11.6700490025
 20
8.1925103672
 30
0.0
 10
11.6687949504
 20
8.1885413103
 30
0.0
 10
11.6672490983
 20
8.1820268171
 30
0.0
 10
11.6659740879
 20
8.1745549657
 30
0.0
 10
11.6653840542
 20
8.1692398954
 30
0.0
 10
11.6651514029
 20
8.1664391941
 30
0.0
  0
SPLINE
  5
452
100
AcDbEntity
  8
0
100
AcDbSpline
 62
7
  6
CONTINUOUS
 70
0
 71
3
 72
11
 73
7
 74
0
 42
0.0000001
 43
0.0000001
 44
0.0000000001
 40
0.0
 40
0.0
 40
0.0
 40
0.0
 40
0.2001636167
 40
0.4343135742
 40
0.7019520476
 40
1.0
 40
1.0
 40
1.0
 40
1.0
 10
11.6883188305
 20
8.1943165096
 30
0.0
 10
11.6878357347
 20
8.1924978856
 30
0.0
 10
11.6869336775
 20
8.188512718
 30
0.0
 10
11.6858266365
 20
8.1820048906
 30
0.0
 10
11.6849132266
 20
8.1745390283
 30
0.0
 10
11.6844910957
 20
8.1692361128
 30
0.0
 10
11.6843243625
 20
8.1664391941
 30
0.0
  0
SPLINE
  5
453
100
AcDbEntity
  8
0
100
AcDbSpline
 62
7
  6
CONTINUOUS
 70
0
 71
3
 72
11
 73
7
 74
0
 42
0.0000001
 43
0.0000001
 44
0.0000000001
 40
0.0
 40
0.0
 40
0.0
 40
0.0
 40
0.1983675403
 40
0.4320586619
 40
0.7003677368
 40
1.0
 40
1.0
 40
1.0
 40
1.0
 10
11.7077103736
 20
8.1943165096
 30
0.0
 10
11.707418124
 20
8.1924885775
 30
0.0
 10
11.7068743654
 20
8.1884922857
 30
0.0
 10
11.7062090849
 20
8.1819895786
 30
0.0
 10
11.7056600129
 20
8.1745280951
 30
0.0
 10
11.7054064782
 20
8.169233536
 30
0.0
 10
11.7053062188
 20
8.1664391941
 30
0.0
  0
SPLINE
  5
454
100
AcDbEntity
  8
0
100
AcDbSpline
 62
7
  6
CONTINUOUS
 70
0
 71
3
 72
11
 73
7
 74
0
 42
0.0000001
 43
0.0000001
 44
0.0000000001
 40
0.0
 40
0.0
 40
0.0
 40
0.0
 40
0.2246543501
 40
0.4664668393
 40
0.7256417809
 40
1.0
 40
1.0
 40
1.0
 40
1.0
 10
12.5351004249
 20
8.1142966276
 30
0.0
 10
12.5362946328
 20
8.1159309163
 30
0.0
 10
12.5385745969
 20
8.1194748591
 30
0.0
 10
12.5414489857
 20
8.1253629663
 30
0.0
 10
12.5437873386
 20
8.1319602902
 30
0.0
 10
12.5449057275
 20
8.1366459917
 30
0.0
 10
12.5453579011
 20
8.1390762228
 30
0.0
  0
SPLINE
  5
455
100
AcDbEntity
  8
0
100
AcDbSpline
 62
7
  6
CONTINUOUS
 70
0
 71
3
 72
10
 73
6
 74
0
 42
0.0000001
 43
0.0000001
 44
0.0000000001
 40
0.0
 40
0.0
 40
0.0
 40
0.0
 40
0.1974377188
 40
0.4308955506
 40
1.0
 40
1.0
 40
1.0
 40
1.0
 10
11.728801777
 20
8.1943165096
 30
0.0
 10
11.7287039421
 20
8.1924835799
 30
0.0
 10
11.7285222141
 20
8.1884816142
 30
0.0
 10
11.7282054149
 20
8.1791901013
 30
0.0
 10
11.7280625162
 20
8.1717296645
 30
0.0
 10
11.7279991447
 20
8.1664391941
 30
0.0
  0
SPLINE
  5
456
100
AcDbEntity
  8
0
100
AcDbSpline
 62
7
  6
CONTINUOUS
 70
0
 71
3
 72
9
 73
5
 74
0
 42
0.0000001
 43
0.0000001
 44
0.0000000001
 40
0.0
 40
0.0
 40
0.0
 40
0.0
 40
0.2721347461
 40
1.0
 40
1.0
 40
1.0
 40
1.0
 10
12.542614792
 20
8.1764696028
 30
0.0
 10
12.5419834333
 20
8.1782278976
 30
0.0
 10
12.5393884459
 20
8.1845838416
 30
0.0
 10
12.5357167559
 20
8.1905232232
 30
0.0
 10
12.5324642014
 20
8.1943165096
 30
0.0
  0
SPLINE
  5
457
100
AcDbEntity
  8
0
100
AcDbSpline
 62
7
  6
CONTINUOUS
 70
0
 71
3
 72
10
 73
6
 74
0
 42
0.0000001
 43
0.0000001
 44
0.0000000001
 40
0.0
 40
0.0
 40
0.0
 40
0.0
 40
0.5691605227
 40
0.8025784632
 40
1.0
 40
1.0
 40
1.0
 40
1.0
 10
12.4165902158
 20
8.1664391941
 30
0.0
 10
12.416526838
 20
8.1717301858
 30
0.0
 10
12.4163839537
 20
8.1791907737
 30
0.0
 10
12.4160671124
 20
8.1884822851
 30
0.0
 10
12.4158854103
 20
8.1924837302
 30
0.0
 10
12.4157875834
 20
8.1943165096
 30
0.0
  0
LINE
  5
458
100
AcDbEntity
  8
0
100
AcDbLine
 62
7
  6
CONTINUOUS
 10
12.4158286342
 20
8.1117657852
 11
12.4162430911
 21
8.1220206768
  0
SPLINE
  5
459
100
AcDbEntity
  8
0
100
AcDbSpline
 62
7
  6
CONTINUOUS
 70
0
 71
3
 72
11
 73
7
 74
0
 42
0.0000001
 43
0.0000001
 44
0.0000000001
 40
0.0
 40
0.0
 40
0.0
 40
0.0
 40
0.2996604933
 40
0.5679972786
 40
0.801648677
 40
1.0
 40
1.0
 40
1.0
 40
1.0
 10
12.4392831417
 20
8.1664391941
 30
0.0
 10
12.4391828728
 20
8.1692337994
 30
0.0
 10
12.4389292771
 20
8.1745288777
 30
0.0
 10
12.4383802476
 20
8.1819905172
 30
0.0
 10
12.437714891
 20
8.1884929517
 30
0.0
 10
12.4371712125
 20
8.1924887269
 30
0.0
 10
12.4368789869
 20
8.1943165096
 30
0.0
  0
LINE
  5
45A
100
AcDbEntity
  8
0
100
AcDbLine
 62
7
  6
CONTINUOUS
 10
12.4370018702
 20
8.1117650715
 11
12.438243429
 21
8.1220211415
  0
SPLINE
  5
45B
100
AcDbEntity
  8
0
100
AcDbSpline
 62
7
  6
CONTINUOUS
 70
0
 71
3
 72
9
 73
5
 74
0
 42
0.0000001
 43
0.0000001
 44
0.0000000001
 40
0.0
 40
0.0
 40
0.0
 40
0.0
 40
0.4699009754
 40
1.0
 40
1.0
 40
1.0
 40
1.0
 10
12.438243429
 20
8.1220211415
 30
0.0
 10
12.4384903073
 20
8.1246863609
 30
0.0
 10
12.4389130988
 20
8.1303678625
 30
0.0
 10
12.4391784481
 20
8.1360585118
 30
0.0
 10
12.4392831417
 20
8.1390762228
 30
0.0
  0
SPLINE
  5
45C
100
AcDbEntity
  8
0
100
AcDbSpline
 62
7
  6
CONTINUOUS
 70
0
 71
3
 72
11
 73
7
 74
0
 42
0.0000001
 43
0.0000001
 44
0.0000000001
 40
0.0
 40
0.0
 40
0.0
 40
0.0
 40
0.298076026
 40
0.5657424675
 40
0.7998526076
 40
1.0
 40
1.0
 40
1.0
 40
1.0
 10
12.460264998
 20
8.1664391941
 30
0.0
 10
12.4600982491
 20
8.1692363763
 30
0.0
 10
12.4596760082
 20
8.1745398102
 30
0.0
 10
12.4587626655
 20
8.1820058369
 30
0.0
 10
12.4576555038
 20
8.1885133757
 30
0.0
 10
12.4567535866
 20
8.192498033
 30
0.0
 10
12.4562705299
 20
8.1943165096
 30
0.0
  0
SPLINE
  5
45D
100
AcDbEntity
  8
0
100
AcDbSpline
 62
7
  6
CONTINUOUS
 70
0
 71
3
 72
9
 73
5
 74
0
 42
0.0000001
 43
0.0000001
 44
0.0000000001
 40
0.0
 40
0.0
 40
0.0
 40
0.0
 40
0.4651479509
 40
1.0
 40
1.0
 40
1.0
 40
1.0
 10
12.4564747746
 20
8.1117655628
 30
0.0
 10
12.4568808779
 20
8.1133363263
 30
0.0
 10
12.4576512579
 20
8.1167400741
 30
0.0
 10
12.4582537055
 20
8.1201769647
 30
0.0
 10
12.4585374786
 20
8.1220207909
 30
0.0
  0
SPLINE
  5
45E
100
AcDbEntity
  8
0
100
AcDbSpline
 62
7
  6
CONTINUOUS
 70
0
 71
3
 72
9
 73
5
 74
0
 42
0.0000001
 43
0.0000001
 44
0.0000000001
 40
0.0
 40
0.0
 40
0.0
 40
0.0
 40
0.4706626968
 40
1.0
 40
1.0
 40
1.0
 40
1.0
 10
12.4585374786
 20
8.1220207909
 30
0.0
 10
12.4589466966
 20
8.1246797
 30
0.0
 10
12.4596490167
 20
8.1303550734
 30
0.0
 10
12.4600908861
 20
8.1360556491
 30
0.0
 10
12.460264998
 20
8.1390762228
 30
0.0
  0
SPLINE
  5
45F
100
AcDbEntity
  8
0
100
AcDbSpline
 62
7
  6
CONTINUOUS
 70
0
 71
3
 72
11
 73
7
 74
0
 42
0.0000001
 43
0.0000001
 44
0.0000000001
 40
0.0
 40
0.0
 40
0.0
 40
0.0
 40
0.2229435308
 40
0.4644740947
 40
0.7243096703
 40
1.0
 40
1.0
 40
1.0
 40
1.0
 10
12.5277972675
 20
8.1151986343
 30
0.0
 10
12.5288012903
 20
8.1168083394
 30
0.0
 10
12.530711872
 20
8.120278215
 30
0.0
 10
12.53310643
 20
8.1259689115
 30
0.0
 10
12.5350612144
 20
8.1322959362
 30
0.0
 10
12.5360031477
 20
8.1367619812
 30
0.0
 10
12.5363879356
 20
8.1390762228
 30
0.0
  0
SPLINE
  5
460
100
AcDbEntity
  8
0
100
AcDbSpline
 62
7
  6
CONTINUOUS
 70
0
 71
3
 72
11
 73
7
 74
0
 42
0.0000001
 43
0.0000001
 44
0.0000000001
 40
0.0
 40
0.0
 40
0.0
 40
0.0
 40
0.2958186371
 40
0.5625401244
 40
0.7973136544
 40
1.0
 40
1.0
 40
1.0
 40
1.0
 10
12.4794379575
 20
8.1664391941
 30
0.0
 10
12.4792052842
 20
8.1692401604
 30
0.0
 10
12.4786151095
 20
8.1745557435
 30
0.0
 10
12.477340192
 20
8.1820277751
 30
0.0
 10
12.475794174
 20
8.1885419564
 30
0.0
 10
12.4745403036
 20
8.1925105141
 30
0.0
 10
12.4738718004
 20
8.1943165096
 30
0.0
  0
SPLINE
  5
461
100
AcDbEntity
  8
0
100
AcDbSpline
 62
7
  6
CONTINUOUS
 70
0
 71
3
 72
9
 73
5
 74
0
 42
0.0000001
 43
0.0000001
 44
0.0000000001
 40
0.0
 40
0.0
 40
0.0
 40
0.0
 40
0.4673439287
 40
1.0
 40
1.0
 40
1.0
 40
1.0
 10
12.4741562988
 20
8.1117650499
 30
0.0
 10
12.4747189687
 20
8.1133268426
 30
0.0
 10
12.4757895733
 20
8.1167173446
 30
0.0
 10
12.4766338412
 20
8.1201702878
 30
0.0
 10
12.4770306037
 20
8.1220202743
 30
0.0
  0
SPLINE
  5
462
100
AcDbEntity
  8
0
100
AcDbSpline
 62
7
  6
CONTINUOUS
 70
0
 71
3
 72
9
 73
5
 74
0
 42
0.0000001
 43
0.0000001
 44
0.0000000001
 40
0.0
 40
0.0
 40
0.0
 40
0.0
 40
0.4717696188
 40
1.0
 40
1.0
 40
1.0
 40
1.0
 10
12.4770306037
 20
8.1220202743
 30
0.0
 10
12.4775989227
 20
8.1246701783
 30
0.0
 10
12.4785772111
 20
8.1303364302
 30
0.0
 10
12.4791950015
 20
8.136051454
 30
0.0
 10
12.4794379575
 20
8.1390762228
 30
0.0
  0
SPLINE
  5
463
100
AcDbEntity
  8
0
100
AcDbSpline
 62
7
  6
CONTINUOUS
 70
0
 71
3
 72
11
 73
7
 74
0
 42
0.0000001
 43
0.0000001
 44
0.0000000001
 40
0.0
 40
0.0
 40
0.0
 40
0.0
 40
0.2826537524
 40
0.5440950744
 40
0.7829317051
 40
1.0
 40
1.0
 40
1.0
 40
1.0
 10
12.5363879356
 20
8.1664391941
 30
0.0
 10
12.5359020218
 20
8.1692650056
 30
0.0
 10
12.5346564098
 20
8.1746568556
 30
0.0
 10
12.5319922499
 20
8.1821570794
 30
0.0
 10
12.5287598267
 20
8.1886951734
 30
0.0
 10
12.5262050857
 20
8.1925686468
 30
0.0
 10
12.5248658053
 20
8.1943165096
 30
0.0
  0
SPLINE
  5
464
100
AcDbEntity
  8
0
100
AcDbSpline
 62
7
  6
CONTINUOUS
 70
0
 71
3
 72
11
 73
7
 74
0
 42
0.0000001
 43
0.0000001
 44
0.0000000001
 40
0.0
 40
0.0
 40
0.0
 40
0.0
 40
0.2930109669
 40
0.5585731533
 40
0.7941859326
 40
1.0
 40
1.0
 40
1.0
 40
1.0
 10
12.4967126272
 20
8.1664391941
 30
0.0
 10
12.496414821
 20
8.1692450483
 30
0.0
 10
12.4956577932
 20
8.1745761185
 30
0.0
 10
12.4940253794
 20
8.1820551655
 30
0.0
 10
12.4920451819
 20
8.1885765639
 30
0.0
 10
12.4904480988
 20
8.192524855
 30
0.0
 10
12.4896007329
 20
8.1943165096
 30
0.0
  0
SPLINE
  5
465
100
AcDbEntity
  8
0
100
AcDbSpline
 62
7
  6
CONTINUOUS
 70
0
 71
3
 72
9
 73
5
 74
0
 42
0.0000001
 43
0.0000001
 44
0.0000000001
 40
0.0
 40
0.0
 40
0.0
 40
0.0
 40
0.4699691293
 40
1.0
 40
1.0
 40
1.0
 40
1.0
 10
12.4899642671
 20
8.11176521
 30
0.0
 10
12.4906784557
 20
8.1133167166
 30
0.0
 10
12.4920418967
 20
8.1166909795
 30
0.0
 10
12.49312794
 20
8.1201633901
 30
0.0
 10
12.4936369986
 20
8.1220211807
 30
0.0
  0
SPLINE
  5
466
100
AcDbEntity
  8
0
100
AcDbSpline
 62
7
  6
CONTINUOUS
 70
0
 71
3
 72
9
 73
5
 74
0
 42
0.0000001
 43
0.0000001
 44
0.0000000001
 40
0.0
 40
0.0
 40
0.0
 40
0.0
 40
0.4731833379
 40
1.0
 40
1.0
 40
1.0
 40
1.0
 10
12.4936369986
 20
8.1220211807
 30
0.0
 10
12.4943599717
 20
8.124659644
 30
0.0
 10
12.4956090581
 20
8.130313372
 30
0.0
 10
12.496401676
 20
8.1360463318
 30
0.0
 10
12.4967126272
 20
8.1390762228
 30
0.0
  0
SPLINE
  5
467
100
AcDbEntity
  8
0
100
AcDbSpline
 62
7
  6
CONTINUOUS
 70
0
 71
3
 72
11
 73
7
 74
0
 42
0.0000001
 43
0.0000001
 44
0.0000000001
 40
0.0
 40
0.0
 40
0.0
 40
0.0
 40
0.2897905903
 40
0.5540453029
 40
0.7906395628
 40
1.0
 40
1.0
 40
1.0
 40
1.0
 10
12.5120084645
 20
8.1664391941
 30
0.0
 10
12.5116465647
 20
8.1692509172
 30
0.0
 10
12.5107242565
 20
8.1746002714
 30
0.0
 10
12.5087399804
 20
8.1820867283
 30
0.0
 10
12.5063323783
 20
8.1886149751
 30
0.0
 10
12.5044029602
 20
8.1925398808
 30
0.0
 10
12.5033839919
 20
8.1943165096
 30
0.0
  0
LINE
  5
468
100
AcDbEntity
  8
0
100
AcDbLine
 62
7
  6
CONTINUOUS
 10
12.503824844
 20
8.1117651431
 11
12.5061367678
 21
8.1164324358
  0
LINE
  5
469
100
AcDbEntity
  8
0
100
AcDbLine
 62
7
  6
CONTINUOUS
 10
12.5061367678
 20
8.1164324358
 11
12.5082784105
 21
8.1220203232
  0
SPLINE
  5
46A
100
AcDbEntity
  8
0
100
AcDbSpline
 62
7
  6
CONTINUOUS
 70
0
 71
3
 72
9
 73
5
 74
0
 42
0.0000001
 43
0.0000001
 44
0.0000000001
 40
0.0
 40
0.0
 40
0.0
 40
0.0
 40
0.4748477847
 40
1.0
 40
1.0
 40
1.0
 40
1.0
 10
12.5082784105
 20
8.1220203232
 30
0.0
 10
12.5091509025
 20
8.124645895
 30
0.0
 10
12.510664467
 20
8.1302849542
 30
0.0
 10
12.5116305664
 20
8.1360398012
 30
0.0
 10
12.5120084645
 20
8.1390762228
 30
0.0
  0
SPLINE
  5
46B
100
AcDbEntity
  8
0
100
AcDbSpline
 62
7
  6
CONTINUOUS
 70
0
 71
3
 72
11
 73
7
 74
0
 42
0.0000001
 43
0.0000001
 44
0.0000000001
 40
0.0
 40
0.0
 40
0.0
 40
0.0
 40
0.286295515
 40
0.5491579247
 40
0.7868391611
 40
1.0
 40
1.0
 40
1.0
 40
1.0
 10
12.5252541531
 20
8.1664391941
 30
0.0
 10
12.5248294594
 20
8.1692576229
 30
0.0
 10
12.523744052
 20
8.1746274487
 30
0.0
 10
12.5214152521
 20
8.182121126
 30
0.0
 10
12.5185893998
 20
8.1886550964
 30
0.0
 10
12.5163403024
 20
8.1925546805
 30
0.0
 10
12.5151573136
 20
8.1943165096
 30
0.0
  0
LINE
  5
46C
100
AcDbEntity
  8
0
100
AcDbLine
 62
7
  6
CONTINUOUS
 10
12.5156734258
 20
8.1117651388
 11
12.5181242849
 21
8.1159407347
  0
SPLINE
  5
46D
100
AcDbEntity
  8
0
100
AcDbSpline
 62
7
  6
CONTINUOUS
 70
0
 71
3
 72
11
 73
7
 74
0
 42
0.0000001
 43
0.0000001
 44
0.0000000001
 40
0.0
 40
0.0
 40
0.0
 40
0.0
 40
0.2213849814
 40
0.4626567572
 40
0.723090676
 40
1.0
 40
1.0
 40
1.0
 40
1.0
 10
12.5181242849
 20
8.1159407347
 30
0.0
 10
12.5189603762
 20
8.1175285662
 30
0.0
 10
12.5205463038
 20
8.1209340444
 30
0.0
 10
12.5225247201
 20
8.1264591165
 30
0.0
 10
12.5241449532
 20
8.1325658784
 30
0.0
 10
12.5249305307
 20
8.1368550971
 30
0.0
 10
12.5252541531
 20
8.1390762228
 30
0.0
  0
SPLINE
  5
46E
100
AcDbEntity
  8
0
100
AcDbSpline
 62
7
  6
CONTINUOUS
 70
0
 71
3
 72
11
 73
7
 74
0
 42
0.0000001
 43
0.0000001
 44
0.0000000001
 40
0.0
 40
0.0
 40
0.0
 40
0.0
 40
0.1988529619
 40
0.4327869825
 40
0.7016148667
 40
1.0
 40
1.0
 40
1.0
 40
1.0
 10
11.7758062732
 20
8.111765438
 30
0.0
 10
11.7760857318
 20
8.1135613583
 30
0.0
 10
11.7766094311
 20
8.1174833307
 30
0.0
 10
11.7772446441
 20
8.1238655704
 30
0.0
 10
11.7777571532
 20
8.1311710466
 30
0.0
 10
11.777992941
 20
8.1363505968
 30
0.0
 10
11.7780875012
 20
8.1390762228
 30
0.0
  0
SPLINE
  5
46F
100
AcDbEntity
  8
0
100
AcDbSpline
 62
7
  6
CONTINUOUS
 70
0
 71
3
 72
11
 73
7
 74
0
 42
0.0000001
 43
0.0000001
 44
0.0000000001
 40
0.0
 40
0.0
 40
0.0
 40
0.0
 40
0.2005896933
 40
0.4349659978
 40
0.7031253508
 40
1.0
 40
1.0
 40
1.0
 40
1.0
 10
11.801459393
 20
8.1117665811
 30
0.0
 10
11.8019214732
 20
8.1135539248
 30
0.0
 10
11.8027901578
 20
8.1174645826
 30
0.0
 10
11.8038470768
 20
8.1238514655
 30
0.0
 10
11.8046996948
 20
8.1311615969
 30
0.0
 10
11.8050921651
 20
8.1363484928
 30
0.0
 10
11.8052493969
 20
8.1390762228
 30
0.0
  0
SPLINE
  5
470
100
AcDbEntity
  8
0
100
AcDbSpline
 62
7
  6
CONTINUOUS
 70
0
 71
3
 72
11
 73
7
 74
0
 42
0.0000001
 43
0.0000001
 44
0.0000000001
 40
0.0
 40
0.0
 40
0.0
 40
0.0
 40
0.2030585056
 40
0.43806651
 40
0.7052795687
 40
1.0
 40
1.0
 40
1.0
 40
1.0
 10
11.8283747238
 20
8.1117650564
 30
0.0
 10
11.8290145835
 20
8.113541104
 30
0.0
 10
11.8302219761
 20
8.1174359336
 30
0.0
 10
11.8316981726
 20
8.1238294932
 30
0.0
 10
11.8328885308
 20
8.1311468577
 30
0.0
 10
11.8334370082
 20
8.1363450628
 30
0.0
 10
11.8336563809
 20
8.1390762228
 30
0.0
  0
SPLINE
  5
471
100
AcDbEntity
  8
0
100
AcDbSpline
 62
7
  6
CONTINUOUS
 70
0
 71
3
 72
11
 73
7
 74
0
 42
0.0000001
 43
0.0000001
 44
0.0000000001
 40
0.0
 40
0.0
 40
0.0
 40
0.0
 40
0.2061006418
 40
0.4419186377
 40
0.7079678768
 40
1.0
 40
1.0
 40
1.0
 40
1.0
 10
11.8564281207
 20
8.1117665029
 30
0.0
 10
11.8572395025
 20
8.1135292433
 30
0.0
 10
11.8587771339
 20
8.1174036518
 30
0.0
 10
11.8606677498
 20
8.1238038239
 30
0.0
 10
11.8621920651
 20
8.1311289969
 30
0.0
 10
11.8628952967
 20
8.1363409988
 30
0.0
 10
11.8631760068
 20
8.1390762228
 30
0.0
  0
SPLINE
  5
472
100
AcDbEntity
  8
0
100
AcDbSpline
 62
7
  6
CONTINUOUS
 70
0
 71
3
 72
11
 73
7
 74
0
 42
0.0000001
 43
0.0000001
 44
0.0000000001
 40
0.0
 40
0.0
 40
0.0
 40
0.0
 40
0.209566817
 40
0.4463278395
 40
0.7110576939
 40
1.0
 40
1.0
 40
1.0
 40
1.0
 10
11.8854871457
 20
8.1117654373
 30
0.0
 10
11.8864634048
 20
8.1135143359
 30
0.0
 10
11.8883206181
 20
8.1173656938
 30
0.0
 10
11.8906197559
 20
8.1237725749
 30
0.0
 10
11.8924731159
 20
8.1311069153
 30
0.0
 10
11.8933295817
 20
8.1363358054
 30
0.0
 10
11.8936706405
 20
8.1390762228
 30
0.0
  0
SPLINE
  5
473
100
AcDbEntity
  8
0
100
AcDbSpline
 62
7
  6
CONTINUOUS
 70
0
 71
3
 72
12
 73
8
 74
0
 42
0.0000001
 43
0.0000001
 44
0.0000000001
 40
0.0
 40
0.0
 40
0.0
 40
0.0
 40
0.2132578876
 40
0.3892010716
 40
0.5796905983
 40
0.7839350875
 40
1.0
 40
1.0
 40
1.0
 40
1.0
 10
11.9154178215
 20
8.1117660318
 30
0.0
 10
11.9165516813
 20
8.1135010993
 30
0.0
 10
11.9184193242
 20
8.1168032845
 30
0.0
 10
11.9206911831
 20
8.121965378
 30
0.0
 10
11.9224885709
 20
8.1272196138
 30
0.0
 10
11.923968018
 20
8.1329741905
 30
0.0
 10
11.9246953269
 20
8.1369981794
 30
0.0
 10
11.924998102
 20
8.1390762228
 30
0.0
  0
SPLINE
  5
474
100
AcDbEntity
  8
0
100
AcDbSpline
 62
7
  6
CONTINUOUS
 70
0
 71
3
 72
11
 73
7
 74
0
 42
0.0000001
 43
0.0000001
 44
0.0000000001
 40
0.0
 40
0.0
 40
0.0
 40
0.0
 40
0.2171362112
 40
0.4560692187
 40
0.7179402786
 40
1.0
 40
1.0
 40
1.0
 40
1.0
 10
11.94607967
 20
8.1117660316
 30
0.0
 10
11.9473638242
 20
8.1134879979
 30
0.0
 10
11.9498221033
 20
8.1172881488
 30
0.0
 10
11.9529093063
 20
8.123704139
 30
0.0
 10
11.9553990816
 20
8.1310558778
 30
0.0
 10
11.9565546616
 20
8.136323666
 30
0.0
 10
11.9570123281
 20
8.1390762228
 30
0.0
  0
SPLINE
  5
475
100
AcDbEntity
  8
0
100
AcDbSpline
 62
7
  6
CONTINUOUS
 70
0
 71
3
 72
11
 73
7
 74
0
 42
0.0000001
 43
0.0000001
 44
0.0000000001
 40
0.0
 40
0.0
 40
0.0
 40
0.0
 40
0.2209811588
 40
0.4610701328
 40
0.7215034754
 40
1.0
 40
1.0
 40
1.0
 40
1.0
 10
11.9773296075
 20
8.1117654151
 30
0.0
 10
11.9787566152
 20
8.1134753535
 30
0.0
 10
11.9814940314
 20
8.117249875
 30
0.0
 10
11.9849565068
 20
8.1236679871
 30
0.0
 10
11.9877503852
 20
8.1310276327
 30
0.0
 10
11.9890506214
 20
8.136316753
 30
0.0
 10
11.9895640537
 20
8.1390762228
 30
0.0
  0
SPLINE
  5
476
100
AcDbEntity
  8
0
100
AcDbSpline
 62
7
  6
CONTINUOUS
 70
0
 71
3
 72
11
 73
7
 74
0
 42
0.0000001
 43
0.0000001
 44
0.0000000001
 40
0.0
 40
0.0
 40
0.0
 40
0.0
 40
0.2247271614
 40
0.4659807883
 40
0.7250230896
 40
1.0
 40
1.0
 40
1.0
 40
1.0
 10
12.0090234683
 20
8.1117665757
 30
0.0
 10
12.0105855111
 20
8.1134655885
 30
0.0
 10
12.0135867229
 20
8.1172150043
 30
0.0
 10
12.0174081078
 20
8.1236332628
 30
0.0
 10
12.0204940709
 20
8.1309992074
 30
0.0
 10
12.0219344144
 20
8.1363097356
 30
0.0
 10
12.0225015077
 20
8.1390762228
 30
0.0
  0
SPLINE
  5
477
100
AcDbEntity
  8
0
100
AcDbSpline
 62
7
  6
CONTINUOUS
 70
0
 71
3
 72
11
 73
7
 74
0
 42
0.0000001
 43
0.0000001
 44
0.0000000001
 40
0.0
 40
0.0
 40
0.0
 40
0.0
 40
0.2283074135
 40
0.470701956
 40
0.7284256277
 40
1.0
 40
1.0
 40
1.0
 40
1.0
 10
12.041010454
 20
8.1117650579
 30
0.0
 10
12.0426999522
 20
8.113454503
 30
0.0
 10
12.0459490117
 20
8.1171809251
 30
0.0
 10
12.0501123262
 20
8.1235981103
 30
0.0
 10
12.05347719
 20
8.1309698629
 30
0.0
 10
12.0550526497
 20
8.1363022631
 30
0.0
 10
12.0556711205
 20
8.1390762228
 30
0.0
  0
SPLINE
  5
478
100
AcDbEntity
  8
0
100
AcDbSpline
 62
7
  6
CONTINUOUS
 70
0
 71
3
 72
11
 73
7
 74
0
 42
0.0000001
 43
0.0000001
 44
0.0000000001
 40
0.0
 40
0.0
 40
0.0
 40
0.0
 40
0.2316638777
 40
0.4751608837
 40
0.7316576144
 40
1.0
 40
1.0
 40
1.0
 40
1.0
 10
12.0731454626
 20
8.1117664269
 30
0.0
 10
12.0749540068
 20
8.1134473743
 30
0.0
 10
12.0784344002
 20
8.1171518987
 30
0.0
 10
12.0829187917
 20
8.1235664595
 30
0.0
 10
12.0865469045
 20
8.1309419267
 30
0.0
 10
12.0882510909
 20
8.1362951086
 30
0.0
 10
12.08891824
 20
8.1390762228
 30
0.0
  0
SPLINE
  5
479
100
AcDbEntity
  8
0
100
AcDbSpline
 62
7
  6
CONTINUOUS
 70
0
 71
3
 72
11
 73
7
 74
0
 42
0.0000001
 43
0.0000001
 44
0.0000000001
 40
0.0
 40
0.0
 40
0.0
 40
0.0
 40
0.2347668416
 40
0.4793043952
 40
0.7346762308
 40
1.0
 40
1.0
 40
1.0
 40
1.0
 10
12.1052745854
 20
8.1117654015
 30
0.0
 10
12.1071940544
 20
8.113439055
 30
0.0
 10
12.1108888309
 20
8.1171243089
 30
0.0
 10
12.1156737287
 20
8.1235355619
 30
0.0
 10
12.1195487621
 20
8.130914221
 30
0.0
 10
12.1213748635
 20
8.1362878043
 30
0.0
 10
12.1220878527
 20
8.1390762228
 30
0.0
  0
SPLINE
  5
47A
100
AcDbEntity
  8
0
100
AcDbSpline
 62
7
  6
CONTINUOUS
 70
0
 71
3
 72
11
 73
7
 74
0
 42
0.0000001
 43
0.0000001
 44
0.0000000001
 40
0.0
 40
0.0
 40
0.0
 40
0.0
 40
0.2375912245
 40
0.4830982026
 40
0.737453985
 40
1.0
 40
1.0
 40
1.0
 40
1.0
 10
12.1372513972
 20
8.1117660832
 30
0.0
 10
12.1392728737
 20
8.1134334099
 30
0.0
 10
12.143164514
 20
8.1171010139
 30
0.0
 10
12.1482262688
 20
8.123508234
 30
0.0
 10
12.1523297159
 20
8.1308885307
 30
0.0
 10
12.1542697016
 20
8.1362809531
 30
0.0
 10
12.1550253067
 20
8.1390762228
 30
0.0
  0
SPLINE
  5
47B
100
AcDbEntity
  8
0
100
AcDbSpline
 62
7
  6
CONTINUOUS
 70
0
 71
3
 72
11
 73
7
 74
0
 42
0.0000001
 43
0.0000001
 44
0.0000000001
 40
0.0
 40
0.0
 40
0.0
 40
0.0
 40
0.2401269364
 40
0.4865200363
 40
0.7399705414
 40
1.0
 40
1.0
 40
1.0
 40
1.0
 10
12.168924816
 20
8.1117661409
 30
0.0
 10
12.1710393364
 20
8.1134280763
 30
0.0
 10
12.1751098931
 20
8.1170802757
 30
0.0
 10
12.1804245058
 20
8.1234832186
 30
0.0
 10
12.1847370878
 20
8.1308644269
 30
0.0
 10
12.1867822266
 20
8.1362743971
 30
0.0
 10
12.1875770324
 20
8.1390762228
 30
0.0
  0
SPLINE
  5
47C
100
AcDbEntity
  8
0
100
AcDbSpline
 62
7
  6
CONTINUOUS
 70
0
 71
3
 72
12
 73
8
 74
0
 42
0.0000001
 43
0.0000001
 44
0.0000000001
 40
0.0
 40
0.0
 40
0.0
 40
0.0
 40
0.2423146553
 40
0.4894482226
 40
0.6151760965
 40
0.742272131
 40
1.0
 40
1.0
 40
1.0
 40
1.0
 10
12.200146855
 20
8.1117653489
 30
0.0
 10
12.2023451455
 20
8.1134227562
 30
0.0
 10
12.2065758516
 20
8.1170614237
 30
0.0
 10
12.2111721395
 20
8.1223675545
 30
0.0
 10
12.2143339873
 20
8.1270943879
 30
0.0
 10
12.2171452137
 20
8.132173733
 30
0.0
 10
12.2187609026
 20
8.136268218
 30
0.0
 10
12.2195912585
 20
8.1390762228
 30
0.0
  0
SPLINE
  5
47D
100
AcDbEntity
  8
0
100
AcDbSpline
 62
7
  6
CONTINUOUS
 70
0
 71
3
 72
11
 73
7
 74
0
 42
0.0000001
 43
0.0000001
 44
0.0000000001
 40
0.0
 40
0.0
 40
0.0
 40
0.0
 40
0.2443167896
 40
0.4922082592
 40
0.7441781577
 40
1.0
 40
1.0
 40
1.0
 40
1.0
 10
12.2307746967
 20
8.111766456
 30
0.0
 10
12.2330468324
 20
8.1134200202
 30
0.0
 10
12.2374194428
 20
8.1170473093
 30
0.0
 10
12.2431625438
 20
8.1234418082
 30
0.0
 10
12.2478306375
 20
8.1308229007
 30
0.0
 10
12.2500567867
 20
8.1362628268
 30
0.0
 10
12.2509187199
 20
8.1390762228
 30
0.0
  0
SPLINE
  5
47E
100
AcDbEntity
  8
0
100
AcDbSpline
 62
7
  6
CONTINUOUS
 70
0
 71
3
 72
11
 73
7
 74
0
 42
0.0000001
 43
0.0000001
 44
0.0000000001
 40
0.0
 40
0.0
 40
0.0
 40
0.0
 40
0.2459742173
 40
0.4944694729
 40
0.745859281
 40
1.0
 40
1.0
 40
1.0
 40
1.0
 10
12.2606610303
 20
8.1117650562
 30
0.0
 10
12.2629973558
 20
8.1134155153
 30
0.0
 10
12.2674923108
 20
8.1170336318
 30
0.0
 10
12.2734099872
 20
8.1234244159
 30
0.0
 10
12.2782231031
 20
8.1308053232
 30
0.0
 10
12.2805238653
 20
8.136257786
 30
0.0
 10
12.2814133536
 20
8.1390762228
 30
0.0
  0
SPLINE
  5
47F
100
AcDbEntity
  8
0
100
AcDbSpline
 62
7
  6
CONTINUOUS
 70
0
 71
3
 72
11
 73
7
 74
0
 42
0.0000001
 43
0.0000001
 44
0.0000000001
 40
0.0
 40
0.0
 40
0.0
 40
0.0
 40
0.2473444298
 40
0.496344755
 40
0.7472572499
 40
1.0
 40
1.0
 40
1.0
 40
1.0
 10
12.2896721683
 20
8.1117665257
 30
0.0
 10
12.2920620575
 20
8.1134144246
 30
0.0
 10
12.2966594473
 20
8.1170242608
 30
0.0
 10
12.3027224771
 20
8.1234116503
 30
0.0
 10
12.3076568315
 20
8.1307913762
 30
0.0
 10
12.3100203376
 20
8.1362537972
 30
0.0
 10
12.3109329796
 20
8.1390762228
 30
0.0
  0
SPLINE
  5
480
100
AcDbEntity
  8
0
100
AcDbSpline
 62
7
  6
CONTINUOUS
 70
0
 71
3
 72
11
 73
7
 74
0
 42
0.0000001
 43
0.0000001
 44
0.0000000001
 40
0.0
 40
0.0
 40
0.0
 40
0.0
 40
0.2484335058
 40
0.4978378473
 40
0.7483727737
 40
1.0
 40
1.0
 40
1.0
 40
1.0
 10
12.3176670268
 20
8.111765452
 30
0.0
 10
12.3201003526
 20
8.11341141
 30
0.0
 10
12.324780288
 20
8.1170154081
 30
0.0
 10
12.3309613488
 20
8.1234000895
 30
0.0
 10
12.3359939773
 20
8.1307793424
 30
0.0
 10
12.3384085211
 20
8.1362502744
 30
0.0
 10
12.3393399636
 20
8.1390762228
 30
0.0
  0
SPLINE
  5
481
100
AcDbEntity
  8
0
100
AcDbSpline
 62
7
  6
CONTINUOUS
 70
0
 71
3
 72
11
 73
7
 74
0
 42
0.0000001
 43
0.0000001
 44
0.0000000001
 40
0.0
 40
0.0
 40
0.0
 40
0.0
 40
0.2492454349
 40
0.49895314
 40
0.7492074044
 40
1.0
 40
1.0
 40
1.0
 40
1.0
 10
12.3445196856
 20
8.1117660389
 30
0.0
 10
12.3469855624
 20
8.1134105467
 30
0.0
 10
12.3517275595
 20
8.1170098049
 30
0.0
 10
12.3579968971
 20
8.1233923428
 30
0.0
 10
12.3631032042
 20
8.13077076
 30
0.0
 10
12.3655562578
 20
8.1362477615
 30
0.0
 10
12.3665018592
 20
8.1390762228
 30
0.0
  0
SPLINE
  5
482
100
AcDbEntity
  8
0
100
AcDbSpline
 62
7
  6
CONTINUOUS
 70
0
 71
3
 72
11
 73
7
 74
0
 42
0.0000001
 43
0.0000001
 44
0.0000000001
 40
0.0
 40
0.0
 40
0.0
 40
0.0
 40
0.2497844242
 40
0.4996943045
 40
0.7497627564
 40
1.0
 40
1.0
 40
1.0
 40
1.0
 10
12.3701025455
 20
8.1117661219
 30
0.0
 10
12.3725902502
 20
8.113409678
 30
0.0
 10
12.3773737665
 20
8.117005909
 30
0.0
 10
12.3837023007
 20
8.1233870007
 30
0.0
 10
12.3888580206
 20
8.1307648914
 30
0.0
 10
12.3913369184
 20
8.1362460314
 30
0.0
 10
12.3922920252
 20
8.1390762228
 30
0.0
  0
SPLINE
  5
483
100
AcDbEntity
  8
0
100
AcDbSpline
 62
7
  6
CONTINUOUS
 70
0
 71
3
 72
11
 73
7
 74
0
 42
0.0000001
 43
0.0000001
 44
0.0000000001
 40
0.0
 40
0.0
 40
0.0
 40
0.0
 40
0.2500532334
 40
0.5000641404
 40
0.7500401011
 40
1.0
 40
1.0
 40
1.0
 40
1.0
 10
12.3942958391
 20
8.1117652899
 30
0.0
 10
12.3967945952
 20
8.1134084037
 30
0.0
 10
12.4015989907
 20
8.1170033848
 30
0.0
 10
12.4079575922
 20
8.123383791
 30
0.0
 10
12.4131383011
 20
8.1307616633
 30
0.0
 10
12.4156303045
 20
8.136245057
 30
0.0
 10
12.4165902158
 20
8.1390762228
 30
0.0
  0
SPLINE
  5
484
100
AcDbEntity
  8
0
100
AcDbSpline
 62
7
  6
CONTINUOUS
 70
0
 71
3
 72
11
 73
7
 74
0
 42
0.0000001
 43
0.0000001
 44
0.0000000001
 40
0.0
 40
0.0
 40
0.0
 40
0.0
 40
0.2500532026
 40
0.5000641534
 40
0.7500400804
 40
1.0
 40
1.0
 40
1.0
 40
1.0
 10
12.4169895879
 20
8.1117660069
 30
0.0
 10
12.4194882466
 20
8.1134091031
 30
0.0
 10
12.4242925804
 20
8.1170038664
 30
0.0
 10
12.4306508414
 20
8.1233842407
 30
0.0
 10
12.4358313553
 20
8.1307619037
 30
0.0
 10
12.4383232594
 20
8.1362451426
 30
0.0
 10
12.4392831417
 20
8.1390762228
 30
0.0
  0
SPLINE
  5
485
100
AcDbEntity
  8
0
100
AcDbSpline
 62
7
  6
CONTINUOUS
 70
0
 71
3
 72
11
 73
7
 74
0
 42
0.0000001
 43
0.0000001
 44
0.0000000001
 40
0.0
 40
0.0
 40
0.0
 40
0.0
 40
0.2497844807
 40
0.4996942811
 40
0.7497627917
 40
1.0
 40
1.0
 40
1.0
 40
1.0
 10
12.4380743807
 20
8.1117651257
 30
0.0
 10
12.4405622209
 20
8.1134087064
 30
0.0
 10
12.4453458259
 20
8.1170052359
 30
0.0
 10
12.451674836
 20
8.1233863693
 30
0.0
 10
12.4568308416
 20
8.1307645443
 30
0.0
 10
12.4593098509
 20
8.1362459122
 30
0.0
 10
12.460264998
 20
8.1390762228
 30
0.0
  0
SPLINE
  5
486
100
AcDbEntity
  8
0
100
AcDbSpline
 62
7
  6
CONTINUOUS
 70
0
 71
3
 72
11
 73
7
 74
0
 42
0.0000001
 43
0.0000001
 44
0.0000000001
 40
0.0
 40
0.0
 40
0.0
 40
0.0
 40
0.2491726222
 40
0.4989012232
 40
0.7492058656
 40
1.0
 40
1.0
 40
1.0
 40
1.0
 10
12.4574550364
 20
8.1117655167
 30
0.0
 10
12.4599202692
 20
8.1134095545
 30
0.0
 10
12.4646647887
 20
8.1170051743
 30
0.0
 10
12.4709282878
 20
8.1233936235
 30
0.0
 10
12.476040127
 20
8.130769102
 30
0.0
 10
12.4784923282
 20
8.1362476779
 30
0.0
 10
12.4794379575
 20
8.1390762228
 30
0.0
  0
SPLINE
  5
487
100
AcDbEntity
  8
0
100
AcDbSpline
 62
7
  6
CONTINUOUS
 70
0
 71
3
 72
9
 73
5
 74
0
 42
0.0000001
 43
0.0000001
 44
0.0000000001
 40
0.0
 40
0.0
 40
0.0
 40
0.0
 40
0.2496598474
 40
1.0
 40
1.0
 40
1.0
 40
1.0
 10
12.4750392572
 20
8.1117650616
 30
0.0
 10
12.475604519
 20
8.1121474117
 30
0.0
 10
12.4778464585
 20
8.1137113014
 30
0.0
 10
12.4799954892
 20
8.1154095206
 30
0.0
 10
12.4815394386
 20
8.1167596593
 30
0.0
  0
SPLINE
  5
488
100
AcDbEntity
  8
0
100
AcDbSpline
 62
7
  6
CONTINUOUS
 70
0
 71
3
 72
11
 73
7
 74
0
 42
0.0000001
 43
0.0000001
 44
0.0000000001
 40
0.0
 40
0.0
 40
0.0
 40
0.0
 40
0.2486992157
 40
0.4982651472
 40
0.7487196086
 40
1.0
 40
1.0
 40
1.0
 40
1.0
 10
12.4815394386
 20
8.1167596593
 30
0.0
 10
12.4832426661
 20
8.118249082
 30
0.0
 10
12.4864953091
 20
8.1214241278
 30
0.0
 10
12.4907418649
 20
8.1267748414
 30
0.0
 10
12.4942412595
 20
8.1326706168
 30
0.0
 10
12.4959969964
 20
8.1369050359
 30
0.0
 10
12.4967126272
 20
8.1390762228
 30
0.0
  0
SPLINE
  5
489
100
AcDbEntity
  8
0
100
AcDbSpline
 62
7
  6
CONTINUOUS
 70
0
 71
3
 72
9
 73
5
 74
0
 42
0.0000001
 43
0.0000001
 44
0.0000000001
 40
0.0
 40
0.0
 40
0.0
 40
0.0
 40
0.2494489795
 40
1.0
 40
1.0
 40
1.0
 40
1.0
 10
12.4907464668
 20
8.1117654417
 30
0.0
 10
12.4913011374
 20
8.112147887
 30
0.0
 10
12.4935023632
 20
8.1137130874
 30
0.0
 10
12.4956099774
 20
8.1154110159
 30
0.0
 10
12.4971232369
 20
8.11675989
 30
0.0
  0
SPLINE
  5
48A
100
AcDbEntity
  8
0
100
AcDbSpline
 62
7
  6
CONTINUOUS
 70
0
 71
3
 72
11
 73
7
 74
0
 42
0.0000001
 43
0.0000001
 44
0.0000000001
 40
0.0
 40
0.0
 40
0.0
 40
0.0
 40
0.247824544
 40
0.4971031255
 40
0.7478675069
 40
1.0
 40
1.0
 40
1.0
 40
1.0
 10
12.4971232369
 20
8.11675989
 30
0.0
 10
12.4987959895
 20
8.1182509313
 30
0.0
 10
12.5019904271
 20
8.1214303667
 30
0.0
 10
12.5061555777
 20
8.12678176
 30
0.0
 10
12.5095872166
 20
8.132677399
 30
0.0
 10
12.511307047
 20
8.1369070277
 30
0.0
 10
12.5120084645
 20
8.1390762228
 30
0.0
  0
SPLINE
  5
48B
100
AcDbEntity
  8
0
100
AcDbSpline
 62
7
  6
CONTINUOUS
 70
0
 71
3
 72
9
 73
5
 74
0
 42
0.0000001
 43
0.0000001
 44
0.0000000001
 40
0.0
 40
0.0
 40
0.0
 40
0.0
 40
0.249178294
 40
1.0
 40
1.0
 40
1.0
 40
1.0
 10
12.5045019696
 20
8.1117651893
 30
0.0
 10
12.5050435274
 20
8.1121477679
 30
0.0
 10
12.5071943195
 20
8.1137147235
 30
0.0
 10
12.5092505949
 20
8.1154124041
 30
0.0
 10
12.510725864
 20
8.11675974
 30
0.0
  0
SPLINE
  5
48C
100
AcDbEntity
  8
0
100
AcDbSpline
 62
7
  6
CONTINUOUS
 70
0
 71
3
 72
11
 73
7
 74
0
 42
0.0000001
 43
0.0000001
 44
0.0000000001
 40
0.0
 40
0.0
 40
0.0
 40
0.0
 40
0.2467306186
 40
0.4956522996
 40
0.7468054108
 40
1.0
 40
1.0
 40
1.0
 40
1.0
 10
12.510725864
 20
8.11675974
 30
0.0
 10
12.512360785
 20
8.1182528832
 30
0.0
 10
12.5154829733
 20
8.1214378519
 30
0.0
 10
12.5195471838
 20
8.1267901131
 30
0.0
 10
12.5228948787
 20
8.1326856079
 30
0.0
 10
12.5245703169
 20
8.1369094166
 30
0.0
 10
12.5252541531
 20
8.1390762228
 30
0.0
  0
SPLINE
  5
48D
100
AcDbEntity
  8
0
100
AcDbSpline
 62
7
  6
CONTINUOUS
 70
0
 71
3
 72
11
 73
7
 74
0
 42
0.0000001
 43
0.0000001
 44
0.0000000001
 40
0.0
 40
0.0
 40
0.0
 40
0.0
 40
0.244317196
 40
0.4922081804
 40
0.7441780486
 40
1.0
 40
1.0
 40
1.0
 40
1.0
 10
12.5162425304
 20
8.111765123
 30
0.0
 10
12.5185148411
 20
8.1134187201
 30
0.0
 10
12.5228875337
 20
8.1170464001
 30
0.0
 10
12.5286312335
 20
8.1234409742
 30
0.0
 10
12.5332996565
 20
8.130822452
 30
0.0
 10
12.5355259542
 20
8.1362626692
 30
0.0
 10
12.5363879356
 20
8.1390762228
 30
0.0
  0
SPLINE
  5
48E
100
AcDbEntity
  8
0
100
AcDbSpline
 62
7
  6
CONTINUOUS
 70
0
 71
3
 72
11
 73
7
 74
0
 42
0.0000001
 43
0.0000001
 44
0.0000000001
 40
0.0
 40
0.0
 40
0.0
 40
0.0
 40
0.2437263769
 40
0.4913456489
 40
0.7434072021
 40
1.0
 40
1.0
 40
1.0
 40
1.0
 10
12.5259134018
 20
8.1117652533
 30
0.0
 10
12.527718712
 20
8.1131263668
 30
0.0
 10
12.5312156747
 20
8.1160663818
 30
0.0
 10
12.5359528732
 20
8.1211023522
 30
0.0
 10
12.5400543355
 20
8.1268199998
 30
0.0
 10
12.5422556542
 20
8.1310144946
 30
0.0
 10
12.5432099344
 20
8.1331951082
 30
0.0
  0
SPLINE
  5
48F
100
AcDbEntity
  8
0
100
AcDbSpline
 62
7
  6
CONTINUOUS
 70
0
 71
3
 72
11
 73
7
 74
0
 42
0.0000001
 43
0.0000001
 44
0.0000000001
 40
0.0
 40
0.0
 40
0.0
 40
0.0
 40
0.2418629074
 40
0.4887889289
 40
0.7414748133
 40
1.0
 40
1.0
 40
1.0
 40
1.0
 10
12.5334690473
 20
8.1117651373
 30
0.0
 10
12.5352047689
 20
8.1131292965
 30
0.0
 10
12.5385672645
 20
8.1160777372
 30
0.0
 10
12.5431113088
 20
8.1211165715
 30
0.0
 10
12.5470435372
 20
8.1268353206
 30
0.0
 10
12.5491482995
 20
8.1310193132
 30
0.0
 10
12.5500617013
 20
8.1331950875
 30
0.0
  0
SPLINE
  5
490
100
AcDbEntity
  8
0
100
AcDbSpline
 62
7
  6
CONTINUOUS
 70
0
 71
3
 72
10
 73
6
 74
0
 42
0.0000001
 43
0.0000001
 44
0.0000000001
 40
0.0
 40
0.0
 40
0.0
 40
0.0
 40
0.2406900503
 40
0.4876177221
 40
1.0
 40
1.0
 40
1.0
 40
1.0
 10
12.5471473215
 20
8.116759654
 30
0.0
 10
12.5481740691
 20
8.1179170334
 30
0.0
 10
12.550155386
 20
8.1203524964
 30
0.0
 10
12.5537477172
 20
8.1256902193
 30
0.0
 10
12.5558952515
 20
8.1301146223
 30
0.0
 10
12.5570609108
 20
8.1331950782
 30
0.0
  0
LINE
  5
491
100
AcDbEntity
  8
0
100
AcDbLine
 62
7
  6
CONTINUOUS
 10
11.7514947029
 20
8.1109639009
 11
11.7515357588
 21
8.1117658587
  0
LINE
  5
492
100
AcDbEntity
  8
0
100
AcDbLine
 62
7
  6
CONTINUOUS
 10
12.3930536283
 20
8.1117651875
 11
12.3930946575
 21
8.1109636594
  0
SPLINE
  5
493
100
AcDbEntity
  8
0
100
AcDbSpline
 62
7
  6
CONTINUOUS
 70
0
 71
3
 72
10
 73
6
 74
0
 42
0.0000001
 43
0.0000001
 44
0.0000000001
 40
0.0
 40
0.0
 40
0.0
 40
0.0
 40
0.2406888735
 40
0.4876160974
 40
1.0
 40
1.0
 40
1.0
 40
1.0
 10
11.5974441106
 20
8.1167573188
 30
0.0
 10
11.5964171896
 20
8.1179147586
 30
0.0
 10
11.5944355308
 20
8.12035037
 30
0.0
 10
11.5908425647
 20
8.125688508
 30
0.0
 10
11.5886946591
 20
8.130113342
 30
0.0
 10
11.5875288123
 20
8.13319412
 30
0.0
  0
SPLINE
  5
494
100
AcDbEntity
  8
0
100
AcDbSpline
 62
7
  6
CONTINUOUS
 70
0
 71
3
 72
10
 73
6
 74
0
 42
0.0000001
 43
0.0000001
 44
0.0000000001
 40
0.0
 40
0.0
 40
0.0
 40
0.0
 40
0.4854524005
 40
0.7390682722
 40
1.0
 40
1.0
 40
1.0
 40
1.0
 10
12.5388745262
 20
8.1117650531
 30
0.0
 10
12.5422297597
 20
8.1145323569
 30
0.0
 10
12.5469020935
 20
8.1193391762
 30
0.0
 10
12.5518185771
 20
8.1268515953
 30
0.0
 10
12.5538175817
 20
8.1310246014
 30
0.0
 10
12.5546858576
 20
8.1331950773
 30
0.0
  0
SPLINE
  5
495
100
AcDbEntity
  8
0
100
AcDbSpline
 62
7
  6
CONTINUOUS
 70
0
 71
3
 72
9
 73
5
 74
0
 42
0.0000001
 43
0.0000001
 44
0.0000000001
 40
0.0
 40
0.0
 40
0.0
 40
0.0
 40
0.5116161336
 40
1.0
 40
1.0
 40
1.0
 40
1.0
 10
11.5919254477
 20
8.1764699867
 30
0.0
 10
11.5937612992
 20
8.1799890808
 30
0.0
 10
11.5981284937
 20
8.1864852852
 30
0.0
 10
11.6037175813
 20
8.1919446363
 30
0.0
 10
11.6066722856
 20
8.1943165096
 30
0.0
  0
SPLINE
  5
496
100
AcDbEntity
  8
0
100
AcDbSpline
 62
7
  6
CONTINUOUS
 70
0
 71
3
 72
10
 73
6
 74
0
 42
0.0000001
 43
0.0000001
 44
0.0000000001
 40
0.0
 40
0.0
 40
0.0
 40
0.0
 40
0.4854527419
 40
0.7390685411
 40
1.0
 40
1.0
 40
1.0
 40
1.0
 10
11.6057148349
 20
8.1117650523
 30
0.0
 10
11.6023597271
 20
8.1145322523
 30
0.0
 10
11.5976875537
 20
8.119338865
 30
0.0
 10
11.5927711679
 20
8.1268509366
 30
0.0
 10
11.5907721701
 20
8.1310237454
 30
0.0
 10
11.5899038861
 20
8.1331941194
 30
0.0
  0
SPLINE
  5
497
100
AcDbEntity
  8
0
100
AcDbSpline
 62
7
  6
CONTINUOUS
 70
0
 71
3
 72
11
 73
7
 74
0
 42
0.0000001
 43
0.0000001
 44
0.0000000001
 40
0.0
 40
0.0
 40
0.0
 40
0.0
 40
0.2596284904
 40
0.5125550033
 40
0.7591974521
 40
1.0
 40
1.0
 40
1.0
 40
1.0
 10
11.59327545
 20
8.168939707
 30
0.0
 10
11.5941988261
 20
8.1715529345
 30
0.0
 10
11.5964597358
 20
8.1765671956
 30
0.0
 10
11.6009092671
 20
8.1833748564
 30
0.0
 10
11.6061467634
 20
8.1893262596
 30
0.0
 10
11.610083418
 20
8.1927546954
 30
0.0
 10
11.612125159
 20
8.1943165096
 30
0.0
  0
SPLINE
  5
498
100
AcDbEntity
  8
0
100
AcDbSpline
 62
7
  6
CONTINUOUS
 70
0
 71
3
 72
11
 73
7
 74
0
 42
0.0000001
 43
0.0000001
 44
0.0000000001
 40
0.0
 40
0.0
 40
0.0
 40
0.0
 40
0.2418630813
 40
0.4887891152
 40
0.7414749941
 40
1.0
 40
1.0
 40
1.0
 40
1.0
 10
11.6111202926
 20
8.1117651646
 30
0.0
 10
11.6093846382
 20
8.1131292728
 30
0.0
 10
11.6060222613
 20
8.1160775863
 30
0.0
 10
11.6014783621
 20
8.121116197
 30
0.0
 10
11.5975462206
 20
8.1268346739
 30
0.0
 10
11.5954414685
 20
8.1310184643
 30
0.0
 10
11.5945280594
 20
8.1331941342
 30
0.0
  0
SPLINE
  5
499
100
AcDbEntity
  8
0
100
AcDbSpline
 62
7
  6
CONTINUOUS
 70
0
 71
3
 72
19
 73
15
 74
0
 42
0.0000001
 43
0.0000001
 44
0.0000000001
 40
0.0
 40
0.0
 40
0.0
 40
0.0
 40
0.125001888
 40
0.2500323244
 40
0.312538981
 40
0.3750359873
 40
0.4375206047
 40
0.5000000003
 40
0.5624793972
 40
0.6249640144
 40
0.687461019
 40
0.7499676759
 40
0.874998112
 40
1.0
 40
1.0
 40
1.0
 40
1.0
 10
12.0722946802
 20
7.1284915468
 30
0.0
 10
12.0509258577
 20
7.1293847041
 30
0.0
 10
12.0082243514
 20
7.1320861152
 30
0.0
 10
11.9549058917
 20
7.1361511046
 30
0.0
 10
11.912213861
 20
7.138912786
 30
0.0
 10
11.8801754017
 20
7.1405446103
 30
0.0
 10
11.8481164655
 20
7.1416008518
 30
0.0
 10
11.8160446798
 20
7.1419490026
 30
0.0
 10
11.7839728944
 20
7.1416008462
 30
0.0
 10
11.7519139577
 20
7.1405446189
 30
0.0
 10
11.7198754992
 20
7.1389127828
 30
0.0
 10
11.6771834685
 20
7.136151107
 30
0.0
 10
11.623865009
 20
7.1320861138
 30
0.0
 10
11.5811635027
 20
7.1293847041
 30
0.0
 10
11.5597946802
 20
7.1284915468
 30
0.0
  0
SPLINE
  5
49A
100
AcDbEntity
  8
0
100
AcDbSpline
 62
7
  6
CONTINUOUS
 70
0
 71
3
 72
19
 73
15
 74
0
 42
0.0000001
 43
0.0000001
 44
0.0000000001
 40
0.0
 40
0.0
 40
0.0
 40
0.0
 40
0.1250018951
 40
0.2500322563
 40
0.3125389529
 40
0.3750359627
 40
0.437520576
 40
0.5000000004
 40
0.5624794259
 40
0.6249640391
 40
0.6874610473
 40
0.7499677437
 40
0.8749981049
 40
1.0
 40
1.0
 40
1.0
 40
1.0
 10
12.5847946802
 20
7.1284915468
 30
0.0
 10
12.5634258567
 20
7.1293847041
 30
0.0
 10
12.5207243585
 20
7.1320860556
 30
0.0
 10
12.4674059157
 20
7.1361512242
 30
0.0
 10
12.4247138766
 20
7.1389126798
 30
0.0
 10
12.3926754179
 20
7.1405446308
 30
0.0
 10
12.3606164746
 20
7.1416008429
 30
0.0
 10
12.3285446798
 20
7.1419488947
 30
0.0
 10
12.2964728852
 20
7.1416008382
 30
0.0
 10
12.2644139415
 20
7.140544639
 30
0.0
 10
12.2323754836
 20
7.1389126779
 30
0.0
 10
12.1896834447
 20
7.1361512244
 30
0.0
 10
12.136365002
 20
7.1320860552
 30
0.0
 10
12.0936635038
 20
7.1293847041
 30
0.0
 10
12.0722946802
 20
7.1284915468
 30
0.0
  0
SPLINE
  5
49B
100
AcDbEntity
  8
0
100
AcDbSpline
 62
7
  6
CONTINUOUS
 70
0
 71
3
 72
11
 73
7
 74
0
 42
0.0000001
 43
0.0000001
 44
0.0000000001
 40
0.0
 40
0.0
 40
0.0
 40
0.0
 40
0.2578422997
 40
0.510410359
 40
0.7576408568
 40
1.0
 40
1.0
 40
1.0
 40
1.0
 10
11.5992314594
 20
8.1664391941
 30
0.0
 10
11.6001150914
 20
8.1693285551
 30
0.0
 10
11.6024289918
 20
8.1748884975
 30
0.0
 10
11.6072318929
 20
8.1824007682
 30
0.0
 10
11.6130317983
 20
8.1889242083
 30
0.0
 10
11.6174338643
 20
8.1926363169
 30
0.0
 10
11.6197235552
 20
8.1943165096
 30
0.0
  0
SPLINE
  5
49C
100
AcDbEntity
  8
0
100
AcDbSpline
 62
7
  6
CONTINUOUS
 70
0
 71
3
 72
11
 73
7
 74
0
 42
0.0000001
 43
0.0000001
 44
0.0000000001
 40
0.0
 40
0.0
 40
0.0
 40
0.0
 40
0.2437262872
 40
0.491345479
 40
0.7434071289
 40
1.0
 40
1.0
 40
1.0
 40
1.0
 10
11.6186761061
 20
8.1117651401
 30
0.0
 10
11.6168707902
 20
8.1131262509
 30
0.0
 10
11.6133738152
 20
8.1160662602
 30
0.0
 10
11.6086365927
 20
8.1211022226
 30
0.0
 10
11.6045351059
 20
8.126819868
 30
0.0
 10
11.6023337703
 20
8.1310143645
 30
0.0
 10
11.6013794823
 20
8.1331949797
 30
0.0
  0
SPLINE
  5
49D
100
AcDbEntity
  8
0
100
AcDbSpline
 62
7
  6
CONTINUOUS
 70
0
 71
3
 72
11
 73
7
 74
0
 42
0.0000001
 43
0.0000001
 44
0.0000000001
 40
0.0
 40
0.0
 40
0.0
 40
0.0
 40
0.2558586073
 40
0.5077784651
 40
0.7557130312
 40
1.0
 40
1.0
 40
1.0
 40
1.0
 10
11.6082014249
 20
8.1664391941
 30
0.0
 10
11.6091188998
 20
8.1693348583
 30
0.0
 10
11.6115254811
 20
8.174909473
 30
0.0
 10
11.6165052863
 20
8.1824198477
 30
0.0
 10
11.622515568
 20
8.1889395034
 30
0.0
 10
11.627065388
 20
8.192640249
 30
0.0
 10
11.6294320468
 20
8.1943165096
 30
0.0
  0
SPLINE
  5
49E
100
AcDbEntity
  8
0
100
AcDbSpline
 62
7
  6
CONTINUOUS
 70
0
 71
3
 72
11
 73
7
 74
0
 42
0.0000001
 43
0.0000001
 44
0.0000000001
 40
0.0
 40
0.0
 40
0.0
 40
0.0
 40
0.2443170964
 40
0.4922080341
 40
0.7441779672
 40
1.0
 40
1.0
 40
1.0
 40
1.0
 10
11.6283468881
 20
8.1117650658
 30
0.0
 10
11.6260745709
 20
8.1134186633
 30
0.0
 10
11.6217018765
 20
8.1170463593
 30
0.0
 10
11.6159581538
 20
8.1234409373
 30
0.0
 10
11.6112897132
 20
8.1308224305
 30
0.0
 10
11.6090634085
 20
8.1362626617
 30
0.0
 10
11.6082014249
 20
8.1390762228
 30
0.0
  0
SPLINE
  5
49F
100
AcDbEntity
  8
0
100
AcDbSpline
 62
7
  6
CONTINUOUS
 70
0
 71
3
 72
9
 73
5
 74
0
 42
0.0000001
 43
0.0000001
 44
0.0000000001
 40
0.0
 40
0.0
 40
0.0
 40
0.0
 40
0.4882162931
 40
1.0
 40
1.0
 40
1.0
 40
1.0
 10
12.5379170749
 20
8.1943165096
 30
0.0
 10
12.5409166347
 20
8.1919086287
 30
0.0
 10
12.5465856642
 20
8.1863550216
 30
0.0
 10
12.5509901362
 20
8.1797345498
 30
0.0
 10
12.5528309698
 20
8.1761471462
 30
0.0
  0
SPLINE
  5
4A0
100
AcDbEntity
  8
0
100
AcDbSpline
 62
7
  6
CONTINUOUS
 70
0
 71
3
 72
9
 73
5
 74
0
 42
0.0000001
 43
0.0000001
 44
0.0000000001
 40
0.0
 40
0.0
 40
0.0
 40
0.0
 40
0.2472711202
 40
1.0
 40
1.0
 40
1.0
 40
1.0
 10
12.5528309698
 20
8.1761471462
 30
0.0
 10
12.5531609517
 20
8.1755040797
 30
0.0
 10
12.5544427365
 20
8.1728768111
 30
0.0
 10
12.555507917
 20
8.1701430913
 30
0.0
 10
12.5561711165
 20
8.16804515
 30
0.0
  0
SPLINE
  5
4A1
100
AcDbEntity
  8
0
100
AcDbSpline
 62
7
  6
CONTINUOUS
 70
0
 71
3
 72
11
 73
7
 74
0
 42
0.0000001
 43
0.0000001
 44
0.0000000001
 40
0.0
 40
0.0
 40
0.0
 40
0.0
 40
0.2541632358
 40
0.505536311
 40
0.7540758938
 40
1.0
 40
1.0
 40
1.0
 40
1.0
 10
11.6193352073
 20
8.1664391941
 30
0.0
 10
11.6202821347
 20
8.1693404192
 30
0.0
 10
11.6227695203
 20
8.1749276964
 30
0.0
 10
11.6279024671
 20
8.182436074
 30
0.0
 10
11.6340946951
 20
8.1889522561
 30
0.0
 10
11.6387721197
 20
8.1926434819
 30
0.0
 10
11.6412053685
 20
8.1943165096
 30
0.0
  0
SPLINE
  5
4A2
100
AcDbEntity
  8
0
100
AcDbSpline
 62
7
  6
CONTINUOUS
 70
0
 71
3
 72
9
 73
5
 74
0
 42
0.0000001
 43
0.0000001
 44
0.0000000001
 40
0.0
 40
0.0
 40
0.0
 40
0.0
 40
0.2491787283
 40
1.0
 40
1.0
 40
1.0
 40
1.0
 10
11.6400873258
 20
8.1117652645
 30
0.0
 10
11.639546003
 20
8.1121476786
 30
0.0
 10
11.6373961355
 20
8.1137139401
 30
0.0
 10
11.6353406935
 20
8.1154108028
 30
0.0
 10
11.6338659867
 20
8.1167574658
 30
0.0
  0
SPLINE
  5
4A3
100
AcDbEntity
  8
0
100
AcDbSpline
 62
7
  6
CONTINUOUS
 70
0
 71
3
 72
11
 73
7
 74
0
 42
0.0000001
 43
0.0000001
 44
0.0000000001
 40
0.0
 40
0.0
 40
0.0
 40
0.0
 40
0.2467301385
 40
0.4956516861
 40
0.7468049625
 40
1.0
 40
1.0
 40
1.0
 40
1.0
 10
11.6338659867
 20
8.1167574658
 30
0.0
 10
11.6322307764
 20
8.1182506963
 30
0.0
 10
11.6291080358
 20
8.1214358998
 30
0.0
 10
11.6250430918
 20
8.1267886583
 30
0.0
 10
11.6216948201
 20
8.1326848111
 30
0.0
 10
11.6200191303
 20
8.1369091418
 30
0.0
 10
11.6193352073
 20
8.1390762228
 30
0.0
  0
SPLINE
  5
4A4
100
AcDbEntity
  8
0
100
AcDbSpline
 62
7
  6
CONTINUOUS
 70
0
 71
3
 72
11
 73
7
 74
0
 42
0.0000001
 43
0.0000001
 44
0.0000000001
 40
0.0
 40
0.0
 40
0.0
 40
0.0
 40
0.2527554427
 40
0.5036795331
 40
0.7527237513
 40
1.0
 40
1.0
 40
1.0
 40
1.0
 10
11.632580896
 20
8.1664391941
 30
0.0
 10
11.6335526853
 20
8.169345163
 30
0.0
 10
11.6361083731
 20
8.1749430375
 30
0.0
 10
11.6413699916
 20
8.1824494879
 30
0.0
 10
11.6477149852
 20
8.1889626257
 30
0.0
 10
11.6524994426
 20
8.1926460811
 30
0.0
 10
11.6549886276
 20
8.1943165096
 30
0.0
  0
SPLINE
  5
4A5
100
AcDbEntity
  8
0
100
AcDbSpline
 62
7
  6
CONTINUOUS
 70
0
 71
3
 72
9
 73
5
 74
0
 42
0.0000001
 43
0.0000001
 44
0.0000000001
 40
0.0
 40
0.0
 40
0.0
 40
0.0
 40
0.2494491485
 40
1.0
 40
1.0
 40
1.0
 40
1.0
 10
11.6538432397
 20
8.1117651746
 30
0.0
 10
11.6532887496
 20
8.1121474912
 30
0.0
 10
11.6510882356
 20
8.1137121559
 30
0.0
 10
11.6489812737
 20
8.1154094648
 30
0.0
 10
11.6474684468
 20
8.116757819
 30
0.0
  0
SPLINE
  5
4A6
100
AcDbEntity
  8
0
100
AcDbSpline
 62
7
  6
CONTINUOUS
 70
0
 71
3
 72
11
 73
7
 74
0
 42
0.0000001
 43
0.0000001
 44
0.0000000001
 40
0.0
 40
0.0
 40
0.0
 40
0.0
 40
0.2478242623
 40
0.4971027943
 40
0.7478672783
 40
1.0
 40
1.0
 40
1.0
 40
1.0
 10
11.6474684468
 20
8.116757819
 30
0.0
 10
11.6457954309
 20
8.1182489467
 30
0.0
 10
11.642600471
 20
8.1214285862
 30
0.0
 10
11.6384346378
 20
8.1267804348
 30
0.0
 10
11.6350024603
 20
8.1326766721
 30
0.0
 10
11.6332823944
 20
8.1369067773
 30
0.0
 10
11.632580896
 20
8.1390762228
 30
0.0
  0
SPLINE
  5
4A7
100
AcDbEntity
  8
0
100
AcDbSpline
 62
7
  6
CONTINUOUS
 70
0
 71
3
 72
11
 73
7
 74
0
 42
0.0000001
 43
0.0000001
 44
0.0000000001
 40
0.0
 40
0.0
 40
0.0
 40
0.0
 40
0.2516333546
 40
0.5022028982
 40
0.751650655
 40
1.0
 40
1.0
 40
1.0
 40
1.0
 10
11.6478767332
 20
8.1664391941
 30
0.0
 10
11.6488686233
 20
8.1693490295
 30
0.0
 10
11.6514795989
 20
8.1749553982
 30
0.0
 10
11.6568448294
 20
8.1824601395
 30
0.0
 10
11.6633127796
 20
8.1889707549
 30
0.0
 10
11.6681833304
 20
8.1926480997
 30
0.0
 10
11.6707175601
 20
8.1943165096
 30
0.0
  0
SPLINE
  5
4A8
100
AcDbEntity
  8
0
100
AcDbSpline
 62
7
  6
CONTINUOUS
 70
0
 71
3
 72
9
 73
5
 74
0
 42
0.0000001
 43
0.0000001
 44
0.0000000001
 40
0.0
 40
0.0
 40
0.0
 40
0.0
 40
0.2496600587
 40
1.0
 40
1.0
 40
1.0
 40
1.0
 10
11.6695499395
 20
8.1117652212
 30
0.0
 10
11.6689849267
 20
8.1121474057
 30
0.0
 10
11.6667439629
 20
8.1137105962
 30
0.0
 10
11.6645958135
 20
8.1154079825
 30
0.0
 10
11.6630524629
 20
8.1167574372
 30
0.0
  0
SPLINE
  5
4A9
100
AcDbEntity
  8
0
100
AcDbSpline
 62
7
  6
CONTINUOUS
 70
0
 71
3
 72
11
 73
7
 74
0
 42
0.0000001
 43
0.0000001
 44
0.0000000001
 40
0.0
 40
0.0
 40
0.0
 40
0.0
 40
0.2486989743
 40
0.4982648842
 40
0.7487194273
 40
1.0
 40
1.0
 40
1.0
 40
1.0
 10
11.6630524629
 20
8.1167574372
 30
0.0
 10
11.6613489391
 20
8.118246942
 30
0.0
 10
11.6580957377
 20
8.1214222188
 30
0.0
 10
11.6538484327
 20
8.1267734161
 30
0.0
 10
11.6503484485
 20
8.1326698344
 30
0.0
 10
11.6485924529
 20
8.1369047663
 30
0.0
 10
11.6478767332
 20
8.1390762228
 30
0.0
  0
SPLINE
  5
4AA
100
AcDbEntity
  8
0
100
AcDbSpline
 62
7
  6
CONTINUOUS
 70
0
 71
3
 72
11
 73
7
 74
0
 42
0.0000001
 43
0.0000001
 44
0.0000000001
 40
0.0
 40
0.0
 40
0.0
 40
0.0
 40
0.2507945182
 40
0.5011009132
 40
0.7508511641
 40
1.0
 40
1.0
 40
1.0
 40
1.0
 10
11.6651514029
 20
8.1664391941
 30
0.0
 10
11.6661584927
 20
8.1693519702
 30
0.0
 10
11.6688113038
 20
8.1749647178
 30
0.0
 10
11.6742546401
 20
8.1824680775
 30
0.0
 10
11.6808152449
 20
8.1889767512
 30
0.0
 10
11.6857506427
 20
8.1926495788
 30
0.0
 10
11.6883188305
 20
8.1943165096
 30
0.0
  0
SPLINE
  5
4AB
100
AcDbEntity
  8
0
100
AcDbSpline
 62
7
  6
CONTINUOUS
 70
0
 71
3
 72
9
 73
5
 74
0
 42
0.0000001
 43
0.0000001
 44
0.0000000001
 40
0.0
 40
0.0
 40
0.0
 40
0.0
 40
0.2498151983
 40
1.0
 40
1.0
 40
1.0
 40
1.0
 10
11.6871341344
 20
8.1117655875
 30
0.0
 10
11.686561165
 20
8.1121476987
 30
0.0
 10
11.6842896091
 20
8.1137098827
 30
0.0
 10
11.6821102778
 20
8.1154073641
 30
0.0
 10
11.6805438323
 20
8.1167576971
 30
0.0
  0
SPLINE
  5
4AC
100
AcDbEntity
  8
0
100
AcDbSpline
 62
7
  6
CONTINUOUS
 70
0
 71
3
 72
11
 73
7
 74
0
 42
0.0000001
 43
0.0000001
 44
0.0000000001
 40
0.0
 40
0.0
 40
0.0
 40
0.0
 40
0.2493544959
 40
0.4991370123
 40
0.7493597793
 40
1.0
 40
1.0
 40
1.0
 40
1.0
 10
11.6805438323
 20
8.1167576971
 30
0.0
 10
11.6788173777
 20
8.1182459636
 30
0.0
 10
11.6755204858
 20
8.1214179609
 30
0.0
 10
11.6712119402
 20
8.1267685055
 30
0.0
 10
11.6676609878
 20
8.1326648733
 30
0.0
 10
11.6658778459
 20
8.136903303
 30
0.0
 10
11.6651514029
 20
8.1390762228
 30
0.0
  0
SPLINE
  5
4AD
100
AcDbEntity
  8
0
100
AcDbSpline
 62
7
  6
CONTINUOUS
 70
0
 71
3
 72
11
 73
7
 74
0
 42
0.0000001
 43
0.0000001
 44
0.0000000001
 40
0.0
 40
0.0
 40
0.0
 40
0.0
 40
0.2408141599
 40
0.4874869794
 40
0.7404102783
 40
1.0
 40
1.0
 40
1.0
 40
1.0
 10
12.5324642014
 20
8.1943165096
 30
0.0
 10
12.5345075208
 20
8.1927534881
 30
0.0
 10
12.5384473058
 20
8.1893221404
 30
0.0
 10
12.5436876255
 20
8.1833649656
 30
0.0
 10
12.548138709
 20
8.1765513936
 30
0.0
 10
12.5503990385
 20
8.1715329222
 30
0.0
 10
12.5513216807
 20
8.1689177446
 30
0.0
  0
SPLINE
  5
4AE
100
AcDbEntity
  8
0
100
AcDbSpline
 62
7
  6
CONTINUOUS
 70
0
 71
3
 72
11
 73
7
 74
0
 42
0.0000001
 43
0.0000001
 44
0.0000000001
 40
0.0
 40
0.0
 40
0.0
 40
0.0
 40
0.2502367255
 40
0.500369042
 40
0.7503208075
 40
1.0
 40
1.0
 40
1.0
 40
1.0
 10
11.6843243625
 20
8.1664391941
 30
0.0
 10
11.6853416451
 20
8.1693539499
 30
0.0
 10
11.6880225246
 20
8.1749709521
 30
0.0
 10
11.6935181179
 20
8.182473344
 30
0.0
 10
11.7001407003
 20
8.1889807013
 30
0.0
 10
11.7051194631
 20
8.1926505485
 30
0.0
 10
11.7077103736
 20
8.1943165096
 30
0.0
  0
SPLINE
  5
4AF
100
AcDbEntity
  8
0
100
AcDbSpline
 62
7
  6
CONTINUOUS
 70
0
 71
3
 72
11
 73
7
 74
0
 42
0.0000001
 43
0.0000001
 44
0.0000000001
 40
0.0
 40
0.0
 40
0.0
 40
0.0
 40
0.2497843377
 40
0.4996941456
 40
0.7497627047
 40
1.0
 40
1.0
 40
1.0
 40
1.0
 10
11.7065146075
 20
8.1117654846
 30
0.0
 10
11.7040268172
 20
8.1134090602
 30
0.0
 10
11.6992432133
 20
8.1170054473
 30
0.0
 10
11.692914381
 20
8.1233865847
 30
0.0
 10
11.6877584574
 20
8.1307646535
 30
0.0
 10
11.6852794962
 20
8.1362459518
 30
0.0
 10
11.6843243625
 20
8.1390762228
 30
0.0
  0
SPLINE
  5
4B0
100
AcDbEntity
  8
0
100
AcDbSpline
 62
7
  6
CONTINUOUS
 70
0
 71
3
 72
11
 73
7
 74
0
 42
0.0000001
 43
0.0000001
 44
0.0000000001
 40
0.0
 40
0.0
 40
0.0
 40
0.0
 40
0.2499582541
 40
0.5000039232
 40
0.750056445
 40
1.0
 40
1.0
 40
1.0
 40
1.0
 10
11.7053062188
 20
8.1664391941
 30
0.0
 10
11.7063286156
 20
8.1693549453
 30
0.0
 10
11.7090235779
 20
8.1749740767
 30
0.0
 10
11.7145453592
 20
8.1824759692
 30
0.0
 10
11.7211989944
 20
8.1889826604
 30
0.0
 10
11.7261994799
 20
8.1926510285
 30
0.0
 10
11.728801777
 20
8.1943165096
 30
0.0
  0
SPLINE
  5
4B1
100
AcDbEntity
  8
0
100
AcDbSpline
 62
7
  6
CONTINUOUS
 70
0
 71
3
 72
11
 73
7
 74
0
 42
0.0000001
 43
0.0000001
 44
0.0000000001
 40
0.0
 40
0.0
 40
0.0
 40
0.0
 40
0.2500531305
 40
0.5000640544
 40
0.7500400778
 40
1.0
 40
1.0
 40
1.0
 40
1.0
 10
11.7276007428
 20
8.1117652558
 30
0.0
 10
11.7251019768
 20
8.1134083732
 30
0.0
 10
11.7202975036
 20
8.1170032881
 30
0.0
 10
11.7139388963
 20
8.1233837439
 30
0.0
 10
11.7087581464
 20
8.1307616277
 30
0.0
 10
11.7062661338
 20
8.1362450459
 30
0.0
 10
11.7053062188
 20
8.1390762228
 30
0.0
  0
SPLINE
  5
4B2
100
AcDbEntity
  8
0
100
AcDbSpline
 62
7
  6
CONTINUOUS
 70
0
 71
3
 72
11
 73
7
 74
0
 42
0.0000001
 43
0.0000001
 44
0.0000000001
 40
0.0
 40
0.0
 40
0.0
 40
0.0
 40
0.2499582825
 40
0.5000039718
 40
0.7500564396
 40
1.0
 40
1.0
 40
1.0
 40
1.0
 10
11.7279991447
 20
8.1664391941
 30
0.0
 10
11.7290215416
 20
8.1693549456
 30
0.0
 10
11.7317165087
 20
8.1749740752
 30
0.0
 10
11.7372382865
 20
8.1824759694
 30
0.0
 10
11.7438919199
 20
8.188982662
 30
0.0
 10
11.7488924058
 20
8.1926510285
 30
0.0
 10
11.7514947029
 20
8.1943165096
 30
0.0
  0
SPLINE
  5
4B3
100
AcDbEntity
  8
0
100
AcDbSpline
 62
7
  6
CONTINUOUS
 70
0
 71
3
 72
11
 73
7
 74
0
 42
0.0000001
 43
0.0000001
 44
0.0000000001
 40
0.0
 40
0.0
 40
0.0
 40
0.0
 40
0.2500530947
 40
0.5000640112
 40
0.7500400116
 40
1.0
 40
1.0
 40
1.0
 40
1.0
 10
11.7502931061
 20
8.1117657028
 30
0.0
 10
11.7477944073
 20
8.1134088128
 30
0.0
 10
11.7429900016
 20
8.1170036175
 30
0.0
 10
11.7366316067
 20
8.123384036
 30
0.0
 10
11.7314509892
 20
8.1307617863
 30
0.0
 10
11.7289590408
 20
8.1362451017
 30
0.0
 10
11.7279991447
 20
8.1390762228
 30
0.0
  0
SPLINE
  5
4B4
100
AcDbEntity
  8
0
100
AcDbSpline
 62
7
  6
CONTINUOUS
 70
0
 71
3
 72
10
 73
6
 74
0
 42
0.0000001
 43
0.0000001
 44
0.0000000001
 40
0.0
 40
0.0
 40
0.0
 40
0.0
 40
0.1974377188
 40
0.4308955506
 40
1.0
 40
1.0
 40
1.0
 40
1.0
 10
11.7514947029
 20
8.1943165096
 30
0.0
 10
11.7515925378
 20
8.1924835799
 30
0.0
 10
11.7517742658
 20
8.1884816142
 30
0.0
 10
11.752091065
 20
8.1791901013
 30
0.0
 10
11.7522339637
 20
8.1717296645
 30
0.0
 10
11.7522973353
 20
8.1664391941
 30
0.0
  0
SPLINE
  5
4B5
100
AcDbEntity
  8
0
100
AcDbSpline
 62
7
  6
CONTINUOUS
 70
0
 71
3
 72
11
 73
7
 74
0
 42
0.0000001
 43
0.0000001
 44
0.0000000001
 40
0.0
 40
0.0
 40
0.0
 40
0.0
 40
0.2502367255
 40
0.500369042
 40
0.7503208075
 40
1.0
 40
1.0
 40
1.0
 40
1.0
 10
11.7522973353
 20
8.1664391941
 30
0.0
 10
11.7533146179
 20
8.1693539499
 30
0.0
 10
11.7559954974
 20
8.1749709521
 30
0.0
 10
11.7614910907
 20
8.182473344
 30
0.0
 10
11.7681136731
 20
8.1889807013
 30
0.0
 10
11.7730924359
 20
8.1926505485
 30
0.0
 10
11.7756833464
 20
8.1943165096
 30
0.0
  0
SPLINE
  5
4B6
100
AcDbEntity
  8
0
100
AcDbSpline
 62
7
  6
CONTINUOUS
 70
0
 71
3
 72
11
 73
7
 74
0
 42
0.0000001
 43
0.0000001
 44
0.0000000001
 40
0.0
 40
0.0
 40
0.0
 40
0.0
 40
0.24978435
 40
0.4996941428
 40
0.7497626998
 40
1.0
 40
1.0
 40
1.0
 40
1.0
 10
11.7744878003
 20
8.1117652745
 30
0.0
 10
11.7719999819
 20
8.1134088525
 30
0.0
 10
11.7672163805
 20
8.1170053242
 30
0.0
 10
11.7608874503
 20
8.1233864641
 30
0.0
 10
11.755731492
 20
8.1307646007
 30
0.0
 10
11.7532524768
 20
8.1362459284
 30
0.0
 10
11.7522973353
 20
8.1390762228
 30
0.0
  0
SPLINE
  5
4B7
100
AcDbEntity
  8
0
100
AcDbSpline
 62
7
  6
CONTINUOUS
 70
0
 71
3
 72
11
 73
7
 74
0
 42
0.0000001
 43
0.0000001
 44
0.0000000001
 40
0.0
 40
0.0
 40
0.0
 40
0.0
 40
0.1983675403
 40
0.4320586619
 40
0.7003677368
 40
1.0
 40
1.0
 40
1.0
 40
1.0
 10
11.7756833464
 20
8.1943165096
 30
0.0
 10
11.775975596
 20
8.1924885775
 30
0.0
 10
11.7765193545
 20
8.1884922857
 30
0.0
 10
11.7771846351
 20
8.1819895786
 30
0.0
 10
11.7777337071
 20
8.1745280951
 30
0.0
 10
11.7779872418
 20
8.169233536
 30
0.0
 10
11.7780875012
 20
8.1664391941
 30
0.0
  0
SPLINE
  5
4B8
100
AcDbEntity
  8
0
100
AcDbSpline
 62
7
  6
CONTINUOUS
 70
0
 71
3
 72
11
 73
7
 74
0
 42
0.0000001
 43
0.0000001
 44
0.0000000001
 40
0.0
 40
0.0
 40
0.0
 40
0.0
 40
0.2507945182
 40
0.5011009132
 40
0.7508511641
 40
1.0
 40
1.0
 40
1.0
 40
1.0
 10
11.7780875012
 20
8.1664391941
 30
0.0
 10
11.779094591
 20
8.1693519702
 30
0.0
 10
11.7817474022
 20
8.1749647178
 30
0.0
 10
11.7871907384
 20
8.1824680775
 30
0.0
 10
11.7937513432
 20
8.1889767512
 30
0.0
 10
11.798686741
 20
8.1926495788
 30
0.0
 10
11.8012549288
 20
8.1943165096
 30
0.0
  0
SPLINE
  5
4B9
100
AcDbEntity
  8
0
100
AcDbSpline
 62
7
  6
CONTINUOUS
 70
0
 71
3
 72
11
 73
7
 74
0
 42
0.0000001
 43
0.0000001
 44
0.0000000001
 40
0.0
 40
0.0
 40
0.0
 40
0.0
 40
0.2492452815
 40
0.4989530045
 40
0.7492073159
 40
1.0
 40
1.0
 40
1.0
 40
1.0
 10
11.8000696019
 20
8.1117661961
 30
0.0
 10
11.7976037482
 20
8.1134107122
 30
0.0
 10
11.7928616805
 20
8.1170098323
 30
0.0
 10
11.786592434
 20
8.123392417
 30
0.0
 10
11.7814861348
 20
8.1307707872
 30
0.0
 10
11.7790330989
 20
8.1362477726
 30
0.0
 10
11.7780875012
 20
8.1390762228
 30
0.0
  0
SPLINE
  5
4BA
100
AcDbEntity
  8
0
100
AcDbSpline
 62
7
  6
CONTINUOUS
 70
0
 71
3
 72
11
 73
7
 74
0
 42
0.0000001
 43
0.0000001
 44
0.0000000001
 40
0.0
 40
0.0
 40
0.0
 40
0.0
 40
0.2001631708
 40
0.4343129725
 40
0.7019519237
 40
1.0
 40
1.0
 40
1.0
 40
1.0
 10
11.8012549288
 20
8.1943165096
 30
0.0
 10
11.8017380236
 20
8.1924978897
 30
0.0
 10
11.8026400852
 20
8.1885127288
 30
0.0
 10
11.8037471259
 20
8.1820049022
 30
0.0
 10
11.8046605316
 20
8.1745390351
 30
0.0
 10
11.8050826636
 20
8.1692361141
 30
0.0
 10
11.8052493969
 20
8.1664391941
 30
0.0
  0
SPLINE
  5
4BB
100
AcDbEntity
  8
0
100
AcDbSpline
 62
7
  6
CONTINUOUS
 70
0
 71
3
 72
11
 73
7
 74
0
 42
0.0000001
 43
0.0000001
 44
0.0000000001
 40
0.0
 40
0.0
 40
0.0
 40
0.0
 40
0.2516333546
 40
0.5022028982
 40
0.751650655
 40
1.0
 40
1.0
 40
1.0
 40
1.0
 10
11.8052493969
 20
8.1664391941
 30
0.0
 10
11.8062412869
 20
8.1693490295
 30
0.0
 10
11.8088522625
 20
8.1749553982
 30
0.0
 10
11.814217493
 20
8.1824601395
 30
0.0
 10
11.8206854432
 20
8.1889707549
 30
0.0
 10
11.825555994
 20
8.1926480997
 30
0.0
 10
11.8280902237
 20
8.1943165096
 30
0.0
  0
SPLINE
  5
4BC
100
AcDbEntity
  8
0
100
AcDbSpline
 62
7
  6
CONTINUOUS
 70
0
 71
3
 72
11
 73
7
 74
0
 42
0.0000001
 43
0.0000001
 44
0.0000000001
 40
0.0
 40
0.0
 40
0.0
 40
0.0
 40
0.2484334321
 40
0.4978376909
 40
0.7483726978
 40
1.0
 40
1.0
 40
1.0
 40
1.0
 10
11.8269227588
 20
8.1117650696
 30
0.0
 10
11.8244893828
 20
8.113411036
 30
0.0
 10
11.8198094191
 20
8.1170151486
 30
0.0
 10
11.8136281825
 20
8.1233998491
 30
0.0
 10
11.8085954496
 20
8.1307792121
 30
0.0
 10
11.8061808546
 20
8.1362502282
 30
0.0
 10
11.8052493969
 20
8.1390762228
 30
0.0
  0
SPLINE
  5
4BD
100
AcDbEntity
  8
0
100
AcDbSpline
 62
7
  6
CONTINUOUS
 70
0
 71
3
 72
11
 73
7
 74
0
 42
0.0000001
 43
0.0000001
 44
0.0000000001
 40
0.0
 40
0.0
 40
0.0
 40
0.0
 40
0.202702847
 40
0.4375153821
 40
0.7042093194
 40
1.0
 40
1.0
 40
1.0
 40
1.0
 10
11.8280902237
 20
8.1943165096
 30
0.0
 10
11.8287587813
 20
8.1925103672
 30
0.0
 10
11.8300128334
 20
8.1885413103
 30
0.0
 10
11.8315586855
 20
8.1820268171
 30
0.0
 10
11.8328336959
 20
8.1745549657
 30
0.0
 10
11.8334237296
 20
8.1692398954
 30
0.0
 10
11.8336563809
 20
8.1664391941
 30
0.0
  0
SPLINE
  5
4BE
100
AcDbEntity
  8
0
100
AcDbSpline
 62
7
  6
CONTINUOUS
 70
0
 71
3
 72
11
 73
7
 74
0
 42
0.0000001
 43
0.0000001
 44
0.0000000001
 40
0.0
 40
0.0
 40
0.0
 40
0.0
 40
0.2527554681
 40
0.5036795807
 40
0.7527237471
 40
1.0
 40
1.0
 40
1.0
 40
1.0
 10
11.8336563809
 20
8.1664391941
 30
0.0
 10
11.8346281703
 20
8.1693451632
 30
0.0
 10
11.8371838627
 20
8.1749430361
 30
0.0
 10
11.8424454778
 20
8.1824494881
 30
0.0
 10
11.8487904697
 20
8.1889626273
 30
0.0
 10
11.8535749275
 20
8.1926460811
 30
0.0
 10
11.8560641125
 20
8.1943165096
 30
0.0
  0
SPLINE
  5
4BF
100
AcDbEntity
  8
0
100
AcDbSpline
 62
7
  6
CONTINUOUS
 70
0
 71
3
 72
11
 73
7
 74
0
 42
0.0000001
 43
0.0000001
 44
0.0000000001
 40
0.0
 40
0.0
 40
0.0
 40
0.0
 40
0.2473443267
 40
0.4963445781
 40
0.7472571412
 40
1.0
 40
1.0
 40
1.0
 40
1.0
 10
11.8549177701
 20
8.1117660806
 30
0.0
 10
11.8525278246
 20
8.1134140015
 30
0.0
 10
11.8479303269
 20
8.1170238907
 30
0.0
 10
11.8418671087
 20
8.1234113503
 30
0.0
 10
11.8369326097
 20
8.1307912052
 30
0.0
 10
11.8345690421
 20
8.1362537376
 30
0.0
 10
11.8336563809
 20
8.1390762228
 30
0.0
  0
SPLINE
  5
4C0
100
AcDbEntity
  8
0
100
AcDbSpline
 62
7
  6
CONTINUOUS
 70
0
 71
3
 72
11
 73
7
 74
0
 42
0.0000001
 43
0.0000001
 44
0.0000000001
 40
0.0
 40
0.0
 40
0.0
 40
0.0
 40
0.2058307437
 40
0.4414819865
 40
0.7070168218
 40
1.0
 40
1.0
 40
1.0
 40
1.0
 10
11.8560641125
 20
8.1943165096
 30
0.0
 10
11.8569115469
 20
8.1925247101
 30
0.0
 10
11.8585088595
 20
8.1885759333
 30
0.0
 10
11.8604888524
 20
8.1820541941
 30
0.0
 10
11.862121378
 20
8.1745753441
 30
0.0
 10
11.8628782289
 20
8.1692447818
 30
0.0
 10
11.8631760068
 20
8.1664391941
 30
0.0
  0
SPLINE
  5
4C1
100
AcDbEntity
  8
0
100
AcDbSpline
 62
7
  6
CONTINUOUS
 70
0
 71
3
 72
11
 73
7
 74
0
 42
0.0000001
 43
0.0000001
 44
0.0000000001
 40
0.0
 40
0.0
 40
0.0
 40
0.0
 40
0.2541632358
 40
0.505536311
 40
0.7540758938
 40
1.0
 40
1.0
 40
1.0
 40
1.0
 10
11.8631760068
 20
8.1664391941
 30
0.0
 10
11.8641229342
 20
8.1693404192
 30
0.0
 10
11.8666103198
 20
8.1749276964
 30
0.0
 10
11.8717432666
 20
8.182436074
 30
0.0
 10
11.8779354946
 20
8.1889522561
 30
0.0
 10
11.8826129192
 20
8.1926434819
 30
0.0
 10
11.885046168
 20
8.1943165096
 30
0.0
  0
SPLINE
  5
4C2
100
AcDbEntity
  8
0
100
AcDbSpline
 62
7
  6
CONTINUOUS
 70
0
 71
3
 72
11
 73
7
 74
0
 42
0.0000001
 43
0.0000001
 44
0.0000000001
 40
0.0
 40
0.0
 40
0.0
 40
0.0
 40
0.2459739807
 40
0.494469325
 40
0.7458592045
 40
1.0
 40
1.0
 40
1.0
 40
1.0
 10
11.8839279746
 20
8.1117654185
 30
0.0
 10
11.8815916983
 20
8.1134158709
 30
0.0
 10
11.8770967419
 20
8.1170338512
 30
0.0
 10
11.8711792386
 20
8.1234246328
 30
0.0
 10
11.8663661993
 20
8.1308054334
 30
0.0
 10
11.8640654825
 20
8.1362578258
 30
0.0
 10
11.8631760068
 20
8.1390762228
 30
0.0
  0
SPLINE
  5
4C3
100
AcDbEntity
  8
0
100
AcDbSpline
 62
7
  6
CONTINUOUS
 70
0
 71
3
 72
11
 73
7
 74
0
 42
0.0000001
 43
0.0000001
 44
0.0000000001
 40
0.0
 40
0.0
 40
0.0
 40
0.0
 40
0.2093773482
 40
0.4460094963
 40
0.7102369801
 40
1.0
 40
1.0
 40
1.0
 40
1.0
 10
11.885046168
 20
8.1943165096
 30
0.0
 10
11.8860652184
 20
8.1925397376
 30
0.0
 10
11.8879949094
 20
8.1886143606
 30
0.0
 10
11.8904022764
 20
8.1820857412
 30
0.0
 10
11.8923866815
 20
8.1745995008
 30
0.0
 10
11.8933087752
 20
8.1692506492
 30
0.0
 10
11.8936706405
 20
8.1664391941
 30
0.0
  0
SPLINE
  5
4C4
100
AcDbEntity
  8
0
100
AcDbSpline
 62
7
  6
CONTINUOUS
 70
0
 71
3
 72
11
 73
7
 74
0
 42
0.0000001
 43
0.0000001
 44
0.0000000001
 40
0.0
 40
0.0
 40
0.0
 40
0.0
 40
0.2558585852
 40
0.5077784187
 40
0.7557130341
 40
1.0
 40
1.0
 40
1.0
 40
1.0
 10
11.8936706405
 20
8.1664391941
 30
0.0
 10
11.8945881154
 20
8.1693348581
 30
0.0
 10
11.8969946922
 20
8.1749094742
 30
0.0
 10
11.9019745007
 20
8.1824198476
 30
0.0
 10
11.9079847841
 20
8.1889395019
 30
0.0
 10
11.9125346037
 20
8.192640249
 30
0.0
 10
11.9149012625
 20
8.1943165096
 30
0.0
  0
SPLINE
  5
4C5
100
AcDbEntity
  8
0
100
AcDbSpline
 62
7
  6
CONTINUOUS
 70
0
 71
3
 72
11
 73
7
 74
0
 42
0.0000001
 43
0.0000001
 44
0.0000000001
 40
0.0
 40
0.0
 40
0.0
 40
0.0
 40
0.2443167994
 40
0.4922079928
 40
0.7441779684
 40
1.0
 40
1.0
 40
1.0
 40
1.0
 10
11.9138159481
 20
8.1117653668
 30
0.0
 10
11.9115436674
 20
8.113418965
 30
0.0
 10
11.9071708719
 20
8.1170464576
 30
0.0
 10
11.9014273067
 20
8.1234410905
 30
0.0
 10
11.8967589057
 20
8.1308225045
 30
0.0
 10
11.8945326164
 20
8.1362626875
 30
0.0
 10
11.8936706405
 20
8.1390762228
 30
0.0
  0
SPLINE
  5
4C6
100
AcDbEntity
  8
0
100
AcDbSpline
 62
7
  6
CONTINUOUS
 70
0
 71
3
 72
11
 73
7
 74
0
 42
0.0000001
 43
0.0000001
 44
0.0000000001
 40
0.0
 40
0.0
 40
0.0
 40
0.0
 40
0.2131782651
 40
0.4508968572
 40
0.7137318375
 40
1.0
 40
1.0
 40
1.0
 40
1.0
 10
11.9149012625
 20
8.1943165096
 30
0.0
 10
11.9160843476
 20
8.192554537
 30
0.0
 10
11.9183337471
 20
8.1886544868
 30
0.0
 10
11.9211593418
 20
8.1821201127
 30
0.0
 10
11.9234882981
 20
8.1746266796
 30
0.0
 10
11.924573449
 20
8.1692573527
 30
0.0
 10
11.924998102
 20
8.1664391941
 30
0.0
  0
SPLINE
  5
4C7
100
AcDbEntity
  8
0
100
AcDbSpline
 62
7
  6
CONTINUOUS
 70
0
 71
3
 72
11
 73
7
 74
0
 42
0.0000001
 43
0.0000001
 44
0.0000000001
 40
0.0
 40
0.0
 40
0.0
 40
0.0
 40
0.2578423198
 40
0.5104104047
 40
0.7576408548
 40
1.0
 40
1.0
 40
1.0
 40
1.0
 10
11.924998102
 20
8.1664391941
 30
0.0
 10
11.9258817341
 20
8.1693285553
 30
0.0
 10
11.9281956389
 20
8.1748884963
 30
0.0
 10
11.9329985368
 20
8.1824007684
 30
0.0
 10
11.9387984405
 20
8.1889242099
 30
0.0
 10
11.9432005069
 20
8.1926363169
 30
0.0
 10
11.9454901978
 20
8.1943165096
 30
0.0
  0
SPLINE
  5
4C8
100
AcDbEntity
  8
0
100
AcDbSpline
 62
7
  6
CONTINUOUS
 70
0
 71
3
 72
11
 73
7
 74
0
 42
0.0000001
 43
0.0000001
 44
0.0000000001
 40
0.0
 40
0.0
 40
0.0
 40
0.0
 40
0.2423687215
 40
0.4895581427
 40
0.7422140709
 40
1.0
 40
1.0
 40
1.0
 40
1.0
 10
11.9444420765
 20
8.1117658401
 30
0.0
 10
11.9422438514
 20
8.1134232393
 30
0.0
 10
11.9380127358
 20
8.1170620876
 30
0.0
 10
11.9324705158
 20
8.1234607864
 30
0.0
 10
11.9279692958
 20
8.1308423278
 30
0.0
 10
11.9258284424
 20
8.1362682703
 30
0.0
 10
11.924998102
 20
8.1390762228
 30
0.0
  0
SPLINE
  5
4C9
100
AcDbEntity
  8
0
100
AcDbSpline
 62
7
  6
CONTINUOUS
 70
0
 71
3
 72
11
 73
7
 74
0
 42
0.0000001
 43
0.0000001
 44
0.0000000001
 40
0.0
 40
0.0
 40
0.0
 40
0.0
 40
0.2170856842
 40
0.4559589238
 40
0.7173733803
 40
1.0
 40
1.0
 40
1.0
 40
1.0
 10
11.9454901978
 20
8.1943165096
 30
0.0
 10
11.9468295851
 20
8.1925685073
 30
0.0
 10
11.9493846771
 20
8.1886945956
 30
0.0
 10
11.9526168197
 20
8.1821560593
 30
0.0
 10
11.9552811296
 20
8.174656093
 30
0.0
 10
11.9565264611
 20
8.1692647336
 30
0.0
 10
11.9570123281
 20
8.1664391941
 30
0.0
  0
SPLINE
  5
4CA
100
AcDbEntity
  8
0
100
AcDbSpline
 62
7
  6
CONTINUOUS
 70
0
 71
3
 72
11
 73
7
 74
0
 42
0.0000001
 43
0.0000001
 44
0.0000000001
 40
0.0
 40
0.0
 40
0.0
 40
0.0
 40
0.2601128568
 40
0.513434066
 40
0.7598638101
 40
1.0
 40
1.0
 40
1.0
 40
1.0
 10
11.9570123281
 20
8.1664391941
 30
0.0
 10
11.9578579537
 20
8.1693215988
 30
0.0
 10
11.9600680278
 20
8.1748649434
 30
0.0
 10
11.9646710955
 20
8.1823788168
 30
0.0
 10
11.9702330725
 20
8.1889062006
 30
0.0
 10
11.9744677012
 20
8.1926316071
 30
0.0
 10
11.9766703541
 20
8.1943165096
 30
0.0
  0
SPLINE
  5
4CB
100
AcDbEntity
  8
0
100
AcDbSpline
 62
7
  6
CONTINUOUS
 70
0
 71
3
 72
12
 73
8
 74
0
 42
0.0000001
 43
0.0000001
 44
0.0000000001
 40
0.0
 40
0.0
 40
0.0
 40
0.0
 40
0.2400821676
 40
0.3624925033
 40
0.486616166
 40
0.7400191126
 40
1.0
 40
1.0
 40
1.0
 40
1.0
 10
11.9756654037
 20
8.1117652601
 30
0.0
 10
11.9735507762
 20
8.1134272233
 30
0.0
 10
11.9705165774
 20
8.1161514347
 30
0.0
 10
11.9668758498
 20
8.120214426
 30
0.0
 10
11.9634730146
 20
8.1246696945
 30
0.0
 10
11.9598517809
 20
8.1308643127
 30
0.0
 10
11.9578071636
 20
8.1362742924
 30
0.0
 10
11.9570123281
 20
8.1390762228
 30
0.0
  0
SPLINE
  5
4CC
100
AcDbEntity
  8
0
100
AcDbSpline
 62
7
  6
CONTINUOUS
 70
0
 71
3
 72
11
 73
7
 74
0
 42
0.0000001
 43
0.0000001
 44
0.0000000001
 40
0.0
 40
0.0
 40
0.0
 40
0.0
 40
0.2210203648
 40
0.5883008537
 40
0.7890900682
 40
1.0
 40
1.0
 40
1.0
 40
1.0
 10
11.9766703541
 20
8.1943165096
 30
0.0
 10
11.9781582121
 20
8.1925812976
 30
0.0
 10
11.9817873246
 20
8.1876739579
 30
0.0
 10
11.9855118487
 20
8.1803485997
 30
0.0
 10
11.9881453153
 20
8.1727267957
 30
0.0
 10
11.9891518989
 20
8.1685810961
 30
0.0
 10
11.9895640537
 20
8.1664391941
 30
0.0
  0
SPLINE
  5
4CD
100
AcDbEntity
  8
0
100
AcDbSpline
 62
7
  6
CONTINUOUS
 70
0
 71
3
 72
11
 73
7
 74
0
 42
0.0000001
 43
0.0000001
 44
0.0000000001
 40
0.0
 40
0.0
 40
0.0
 40
0.0
 40
0.2626651011
 40
0.5168470896
 40
0.7623837157
 40
1.0
 40
1.0
 40
1.0
 40
1.0
 10
11.9895640537
 20
8.1664391941
 30
0.0
 10
11.9903677591
 20
8.1693140923
 30
0.0
 10
11.9924636518
 20
8.1748390474
 30
0.0
 10
11.9968449515
 20
8.1823540117
 30
0.0
 10
12.0021424761
 20
8.1888852967
 30
0.0
 10
12.0061904782
 20
8.192626028
 30
0.0
 10
12.0082963552
 20
8.1943165096
 30
0.0
  0
SPLINE
  5
4CE
100
AcDbEntity
  8
0
100
AcDbSpline
 62
7
  6
CONTINUOUS
 70
0
 71
3
 72
11
 73
7
 74
0
 42
0.0000001
 43
0.0000001
 44
0.0000000001
 40
0.0
 40
0.0
 40
0.0
 40
0.0
 40
0.2375907246
 40
0.483097884
 40
0.737453799
 40
1.0
 40
1.0
 40
1.0
 40
1.0
 10
12.00733795
 20
8.11176619
 30
0.0
 10
12.005316493
 20
8.1134335212
 30
0.0
 10
12.0014247752
 20
8.1171010176
 30
0.0
 10
11.9963630896
 20
8.1235082741
 30
0.0
 10
11.9922596334
 20
8.1308885414
 30
0.0
 10
11.9903196575
 20
8.1362809581
 30
0.0
 10
11.9895640537
 20
8.1390762228
 30
0.0
  0
SPLINE
  5
4CF
100
AcDbEntity
  8
0
100
AcDbSpline
 62
7
  6
CONTINUOUS
 70
0
 71
3
 72
10
 73
6
 74
0
 42
0.0000001
 43
0.0000001
 44
0.0000000001
 40
0.0
 40
0.0
 40
0.0
 40
0.0
 40
0.4654331253
 40
0.7243715587
 40
1.0
 40
1.0
 40
1.0
 40
1.0
 10
12.0082963552
 20
8.1943165096
 30
0.0
 10
12.011664748
 20
8.1907508044
 30
0.0
 10
12.0160996401
 20
8.1843854055
 30
0.0
 10
12.0203439876
 20
8.1747206314
 30
0.0
 10
12.0218990863
 20
8.1692808486
 30
0.0
 10
12.0225015077
 20
8.1664391941
 30
0.0
  0
SPLINE
  5
4D0
100
AcDbEntity
  8
0
100
AcDbSpline
 62
7
  6
CONTINUOUS
 70
0
 71
3
 72
9
 73
5
 74
0
 42
0.0000001
 43
0.0000001
 44
0.0000000001
 40
0.0
 40
0.0
 40
0.0
 40
0.0
 40
0.5204779001
 40
1.0
 40
1.0
 40
1.0
 40
1.0
 10
12.0225015077
 20
8.1664391941
 30
0.0
 10
12.0239835004
 20
8.1720434472
 30
0.0
 10
12.0286562803
 20
8.1823988638
 30
0.0
 10
12.036148694
 20
8.190860803
 30
0.0
 10
12.0402207459
 20
8.1943165096
 30
0.0
  0
SPLINE
  5
4D1
100
AcDbEntity
  8
0
100
AcDbSpline
 62
7
  6
CONTINUOUS
 70
0
 71
3
 72
11
 73
7
 74
0
 42
0.0000001
 43
0.0000001
 44
0.0000000001
 40
0.0
 40
0.0
 40
0.0
 40
0.0
 40
0.2347669716
 40
0.4793042236
 40
0.7346760706
 40
1.0
 40
1.0
 40
1.0
 40
1.0
 10
12.0393150569
 20
8.111765075
 30
0.0
 10
12.0373955504
 20
8.1134387389
 30
0.0
 10
12.033700766
 20
8.1171240796
 30
0.0
 10
12.0289157403
 20
8.1235353608
 30
0.0
 10
12.0250406411
 20
8.1309141131
 30
0.0
 10
12.0232145068
 20
8.1362877658
 30
0.0
 10
12.0225015077
 20
8.1390762228
 30
0.0
  0
SPLINE
  5
4D2
100
AcDbEntity
  8
0
100
AcDbSpline
 62
7
  6
CONTINUOUS
 70
0
 71
3
 72
11
 73
7
 74
0
 42
0.0000001
 43
0.0000001
 44
0.0000000001
 40
0.0
 40
0.0
 40
0.0
 40
0.0
 40
0.2283564857
 40
0.4707735393
 40
0.7281578155
 40
1.0
 40
1.0
 40
1.0
 40
1.0
 10
12.0402207459
 20
8.1943165096
 30
0.0
 10
12.0419814547
 20
8.1926028794
 30
0.0
 10
12.0453600653
 20
8.1888032734
 30
0.0
 10
12.0497173755
 20
8.1822626324
 30
0.0
 10
12.0533140238
 20
8.1747499349
 30
0.0
 10
12.0550139559
 20
8.1692892402
 30
0.0
 10
12.0556711205
 20
8.1664391941
 30
0.0
  0
SPLINE
  5
4D3
100
AcDbEntity
  8
0
100
AcDbSpline
 62
7
  6
CONTINUOUS
 70
0
 71
3
 72
9
 73
5
 74
0
 42
0.0000001
 43
0.0000001
 44
0.0000000001
 40
0.0
 40
0.0
 40
0.0
 40
0.0
 40
0.5246871276
 40
1.0
 40
1.0
 40
1.0
 40
1.0
 10
12.0556711205
 20
8.1664391941
 30
0.0
 10
12.0570528993
 20
8.1720088866
 30
0.0
 10
12.0613711868
 20
8.1822739125
 30
0.0
 10
12.0684394287
 20
8.1908291455
 30
0.0
 10
12.0722946802
 20
8.1943165096
 30
0.0
  0
SPLINE
  5
4D4
100
AcDbEntity
  8
0
100
AcDbSpline
 62
7
  6
CONTINUOUS
 70
0
 71
3
 72
11
 73
7
 74
0
 42
0.0000001
 43
0.0000001
 44
0.0000000001
 40
0.0
 40
0.0
 40
0.0
 40
0.0
 40
0.2316637068
 40
0.475160437
 40
0.7316572441
 40
1.0
 40
1.0
 40
1.0
 40
1.0
 10
12.0714442865
 20
8.1117660268
 30
0.0
 10
12.0696357046
 20
8.1134469942
 30
0.0
 10
12.066155236
 20
8.1171515617
 30
0.0
 10
12.0616707156
 20
8.1235661941
 30
0.0
 10
12.0580425071
 20
8.1309417781
 30
0.0
 10
12.0563382821
 20
8.1362950563
 30
0.0
 10
12.0556711205
 20
8.1390762228
 30
0.0
  0
SPLINE
  5
4D5
100
AcDbEntity
  8
0
100
AcDbSpline
 62
7
  6
CONTINUOUS
 70
0
 71
3
 72
9
 73
5
 74
0
 42
0.0000001
 43
0.0000001
 44
0.0000000001
 40
0.0
 40
0.0
 40
0.0
 40
0.0
 40
0.4753651977
 40
1.0
 40
1.0
 40
1.0
 40
1.0
 10
12.0722946802
 20
8.1943165096
 30
0.0
 10
12.0761503509
 20
8.1908287663
 30
0.0
 10
12.0832182161
 20
8.1822732077
 30
0.0
 10
12.0875366008
 20
8.1720083237
 30
0.0
 10
12.08891824
 20
8.1664391941
 30
0.0
  0
SPLINE
  5
4D6
100
AcDbEntity
  8
0
100
AcDbSpline
 62
7
  6
CONTINUOUS
 70
0
 71
3
 72
10
 73
6
 74
0
 42
0.0000001
 43
0.0000001
 44
0.0000000001
 40
0.0
 40
0.0
 40
0.0
 40
0.0
 40
0.2721802071
 40
0.5298857797
 40
1.0
 40
1.0
 40
1.0
 40
1.0
 10
12.08891824
 20
8.1664391941
 30
0.0
 10
12.0895754689
 20
8.1692895193
 30
0.0
 10
12.0912773629
 20
8.1747527222
 30
0.0
 10
12.0959240158
 20
8.1844666134
 30
0.0
 10
12.1007480158
 20
8.1907927198
 30
0.0
 10
12.1043686145
 20
8.1943165096
 30
0.0
  0
SPLINE
  5
4D7
100
AcDbEntity
  8
0
100
AcDbSpline
 62
7
  6
CONTINUOUS
 70
0
 71
3
 72
11
 73
7
 74
0
 42
0.0000001
 43
0.0000001
 44
0.0000000001
 40
0.0
 40
0.0
 40
0.0
 40
0.0
 40
0.228306786
 40
0.4707017721
 40
0.728425603
 40
1.0
 40
1.0
 40
1.0
 40
1.0
 10
12.1035786769
 20
8.1117653891
 30
0.0
 10
12.1018892179
 20
8.113454821
 30
0.0
 10
12.0986401383
 20
8.1171811393
 30
0.0
 10
12.0944769554
 20
8.1235983004
 30
0.0
 10
12.0911121333
 20
8.1309699599
 30
0.0
 10
12.0895367029
 20
8.1363022983
 30
0.0
 10
12.08891824
 20
8.1390762228
 30
0.0
  0
SPLINE
  5
4D8
100
AcDbEntity
  8
0
100
AcDbSpline
 62
7
  6
CONTINUOUS
 70
0
 71
3
 72
9
 73
5
 74
0
 42
0.0000001
 43
0.0000001
 44
0.0000000001
 40
0.0
 40
0.0
 40
0.0
 40
0.0
 40
0.4795741276
 40
1.0
 40
1.0
 40
1.0
 40
1.0
 10
12.1043686145
 20
8.1943165096
 30
0.0
 10
12.1084411025
 20
8.1908604329
 30
0.0
 10
12.1159331408
 20
8.1823981474
 30
0.0
 10
12.1206060102
 20
8.1720428791
 30
0.0
 10
12.1220878527
 20
8.1664391941
 30
0.0
  0
SPLINE
  5
4D9
100
AcDbEntity
  8
0
100
AcDbSpline
 62
7
  6
CONTINUOUS
 70
0
 71
3
 72
10
 73
6
 74
0
 42
0.0000001
 43
0.0000001
 44
0.0000000001
 40
0.0
 40
0.0
 40
0.0
 40
0.0
 40
0.2756549785
 40
0.5346197324
 40
1.0
 40
1.0
 40
1.0
 40
1.0
 10
12.1220878527
 20
8.1664391941
 30
0.0
 10
12.1226903329
 20
8.1692811252
 30
0.0
 10
12.1242457507
 20
8.1747213959
 30
0.0
 10
12.1284898905
 20
8.1843862905
 30
0.0
 10
12.1329249913
 20
8.1907512054
 30
0.0
 10
12.1362930053
 20
8.1943165096
 30
0.0
  0
SPLINE
  5
4DA
100
AcDbEntity
  8
0
100
AcDbSpline
 62
7
  6
CONTINUOUS
 70
0
 71
3
 72
11
 73
7
 74
0
 42
0.0000001
 43
0.0000001
 44
0.0000000001
 40
0.0
 40
0.0
 40
0.0
 40
0.0
 40
0.2247272715
 40
0.4659796447
 40
0.7250220323
 40
1.0
 40
1.0
 40
1.0
 40
1.0
 10
12.1355668252
 20
8.1117653933
 30
0.0
 10
12.1340046656
 20
8.1134644534
 30
0.0
 10
12.1310033397
 20
8.1172140636
 30
0.0
 10
12.1271815884
 20
8.1236325089
 30
0.0
 10
12.1240954162
 20
8.1309987973
 30
0.0
 10
12.1226549759
 20
8.1363095898
 30
0.0
 10
12.1220878527
 20
8.1390762228
 30
0.0
  0
SPLINE
  5
4DB
100
AcDbEntity
  8
0
100
AcDbSpline
 62
7
  6
CONTINUOUS
 70
0
 71
3
 72
11
 73
7
 74
0
 42
0.0000001
 43
0.0000001
 44
0.0000000001
 40
0.0
 40
0.0
 40
0.0
 40
0.0
 40
0.2376349649
 40
0.4832048712
 40
0.7373609165
 40
1.0
 40
1.0
 40
1.0
 40
1.0
 10
12.1362930053
 20
8.1943165096
 30
0.0
 10
12.1383990468
 20
8.1926258959
 30
0.0
 10
12.1424475578
 20
8.1888848152
 30
0.0
 10
12.1477447675
 20
8.1823529068
 30
0.0
 10
12.1521262205
 20
8.1748383039
 30
0.0
 10
12.1542216813
 20
8.1693138063
 30
0.0
 10
12.1550253067
 20
8.1664391941
 30
0.0
  0
SPLINE
  5
4DC
100
AcDbEntity
  8
0
100
AcDbSpline
 62
7
  6
CONTINUOUS
 70
0
 71
3
 72
10
 73
6
 74
0
 42
0.0000001
 43
0.0000001
 44
0.0000000001
 40
0.0
 40
0.0
 40
0.0
 40
0.0
 40
0.2791538557
 40
0.6615725649
 40
1.0
 40
1.0
 40
1.0
 40
1.0
 10
12.1550253067
 20
8.1664391941
 30
0.0
 10
12.1555705812
 20
8.1692728971
 30
0.0
 10
12.1572898479
 20
8.1759126621
 30
0.0
 10
12.1614062684
 20
8.185459441
 30
0.0
 10
12.1656417974
 20
8.1916607183
 30
0.0
 10
12.1679190064
 20
8.1943165096
 30
0.0
  0
SPLINE
  5
4DD
100
AcDbEntity
  8
0
100
AcDbSpline
 62
7
  6
CONTINUOUS
 70
0
 71
3
 72
11
 73
7
 74
0
 42
0.0000001
 43
0.0000001
 44
0.0000000001
 40
0.0
 40
0.0
 40
0.0
 40
0.0
 40
0.2209797561
 40
0.4610697428
 40
0.7215034186
 40
1.0
 40
1.0
 40
1.0
 40
1.0
 10
12.1672594776
 20
8.1117659219
 30
0.0
 10
12.1658325278
 20
8.1134758353
 30
0.0
 10
12.163095051
 20
8.117250198
 30
0.0
 10
12.1596327634
 20
8.1236682654
 30
0.0
 10
12.1568389282
 20
8.1310277747
 30
0.0
 10
12.1555387295
 20
8.1363168046
 30
0.0
 10
12.1550253067
 20
8.1390762228
 30
0.0
  0
SPLINE
  5
4DE
100
AcDbEntity
  8
0
100
AcDbSpline
 62
7
  6
CONTINUOUS
 70
0
 71
3
 72
11
 73
7
 74
0
 42
0.0000001
 43
0.0000001
 44
0.0000000001
 40
0.0
 40
0.0
 40
0.0
 40
0.0
 40
0.2401550297
 40
0.4866176562
 40
0.7399130301
 40
1.0
 40
1.0
 40
1.0
 40
1.0
 10
12.1679190064
 20
8.1943165096
 30
0.0
 10
12.1701218311
 20
8.1926314757
 30
0.0
 10
12.1743569857
 20
8.1889057307
 30
0.0
 10
12.1799186499
 20
8.1823777017
 30
0.0
 10
12.1845218675
 20
8.1748642022
 30
0.0
 10
12.1867314913
 20
8.1693213107
 30
0.0
 10
12.1875770324
 20
8.1664391941
 30
0.0
  0
SPLINE
  5
4DF
100
AcDbEntity
  8
0
100
AcDbSpline
 62
7
  6
CONTINUOUS
 70
0
 71
3
 72
11
 73
7
 74
0
 42
0.0000001
 43
0.0000001
 44
0.0000000001
 40
0.0
 40
0.0
 40
0.0
 40
0.0
 40
0.2826537524
 40
0.5440950744
 40
0.7829317051
 40
1.0
 40
1.0
 40
1.0
 40
1.0
 10
12.1875770324
 20
8.1664391941
 30
0.0
 10
12.1880629462
 20
8.1692650056
 30
0.0
 10
12.1893085581
 20
8.1746568556
 30
0.0
 10
12.1919727181
 20
8.1821570794
 30
0.0
 10
12.1952051412
 20
8.1886951734
 30
0.0
 10
12.1977598823
 20
8.1925686468
 30
0.0
 10
12.1990991627
 20
8.1943165096
 30
0.0
  0
SPLINE
  5
4E0
100
AcDbEntity
  8
0
100
AcDbSpline
 62
7
  6
CONTINUOUS
 70
0
 71
3
 72
11
 73
7
 74
0
 42
0.0000001
 43
0.0000001
 44
0.0000000001
 40
0.0
 40
0.0
 40
0.0
 40
0.0
 40
0.2171372161
 40
0.4560687551
 40
0.7179396381
 40
1.0
 40
1.0
 40
1.0
 40
1.0
 10
12.1985101538
 20
8.1117652189
 30
0.0
 10
12.1972259272
 20
8.113487228
 30
0.0
 10
12.1947676544
 20
8.1172875478
 30
0.0
 10
12.1916802154
 20
8.1237036573
 30
0.0
 10
12.1891903472
 20
8.1310556197
 30
0.0
 10
12.1880347142
 20
8.1363235732
 30
0.0
 10
12.1875770324
 20
8.1390762228
 30
0.0
  0
SPLINE
  5
4E1
100
AcDbEntity
  8
0
100
AcDbSpline
 62
7
  6
CONTINUOUS
 70
0
 71
3
 72
11
 73
7
 74
0
 42
0.0000001
 43
0.0000001
 44
0.0000000001
 40
0.0
 40
0.0
 40
0.0
 40
0.0
 40
0.2423781251
 40
0.4896411053
 40
0.7421834497
 40
1.0
 40
1.0
 40
1.0
 40
1.0
 10
12.1990991627
 20
8.1943165096
 30
0.0
 10
12.2013890319
 20
8.1926361861
 30
0.0
 10
12.2057916391
 20
8.1889237502
 30
0.0
 10
12.2115912329
 20
8.1823996447
 30
0.0
 10
12.2163942773
 20
8.1748877573
 30
0.0
 10
12.2187077151
 20
8.1693282652
 30
0.0
 10
12.2195912585
 20
8.1664391941
 30
0.0
  0
SPLINE
  5
4E2
100
AcDbEntity
  8
0
100
AcDbSpline
 62
7
  6
CONTINUOUS
 70
0
 71
3
 72
11
 73
7
 74
0
 42
0.0000001
 43
0.0000001
 44
0.0000000001
 40
0.0
 40
0.0
 40
0.0
 40
0.0
 40
0.2862955075
 40
0.5491579207
 40
0.7868391596
 40
1.0
 40
1.0
 40
1.0
 40
1.0
 10
12.2195912585
 20
8.1664391941
 30
0.0
 10
12.2200159521
 20
8.1692576228
 30
0.0
 10
12.22110136
 20
8.1746274485
 30
0.0
 10
12.2234301598
 20
8.1821211258
 30
0.0
 10
12.2262560117
 20
8.1886550964
 30
0.0
 10
12.2285051091
 20
8.1925546805
 30
0.0
 10
12.2296880979
 20
8.1943165096
 30
0.0
  0
SPLINE
  5
4E3
100
AcDbEntity
  8
0
100
AcDbSpline
 62
7
  6
CONTINUOUS
 70
0
 71
3
 72
12
 73
8
 74
0
 42
0.0000001
 43
0.0000001
 44
0.0000000001
 40
0.0
 40
0.0
 40
0.0
 40
0.0
 40
0.2132568785
 40
0.3892004793
 40
0.579690335
 40
0.7839350164
 40
1.0
 40
1.0
 40
1.0
 40
1.0
 10
12.2291714501
 20
8.1117662569
 30
0.0
 10
12.2280376194
 20
8.1135013113
 30
0.0
 10
12.2261699363
 20
8.1168034301
 30
0.0
 10
12.2238981382
 20
8.1219655003
 30
0.0
 10
12.2221007632
 20
8.1272197
 30
0.0
 10
12.220621334
 20
8.1329742376
 30
0.0
 10
12.2198940311
 20
8.1369981958
 30
0.0
 10
12.2195912585
 20
8.1390762228
 30
0.0
  0
SPLINE
  5
4E4
100
AcDbEntity
  8
0
100
AcDbSpline
 62
7
  6
CONTINUOUS
 70
0
 71
3
 72
11
 73
7
 74
0
 42
0.0000001
 43
0.0000001
 44
0.0000000001
 40
0.0
 40
0.0
 40
0.0
 40
0.0
 40
0.2443060709
 40
0.4922728699
 40
0.7441670678
 40
1.0
 40
1.0
 40
1.0
 40
1.0
 10
12.2296880979
 20
8.1943165096
 30
0.0
 10
12.2320549408
 20
8.1926401187
 30
0.0
 10
12.2366053146
 20
8.1889390525
 30
0.0
 10
12.2426152893
 20
8.1824187162
 30
0.0
 10
12.2475952374
 20
8.1749087355
 30
0.0
 10
12.2500013375
 20
8.1693345664
 30
0.0
 10
12.2509187199
 20
8.1664391941
 30
0.0
  0
SPLINE
  5
4E5
100
AcDbEntity
  8
0
100
AcDbSpline
 62
7
  6
CONTINUOUS
 70
0
 71
3
 72
11
 73
7
 74
0
 42
0.0000001
 43
0.0000001
 44
0.0000000001
 40
0.0
 40
0.0
 40
0.0
 40
0.0
 40
0.2897906012
 40
0.5540452682
 40
0.7906395483
 40
1.0
 40
1.0
 40
1.0
 40
1.0
 10
12.2509187199
 20
8.1664391941
 30
0.0
 10
12.2512806197
 20
8.1692509173
 30
0.0
 10
12.2522029258
 20
8.1746002716
 30
0.0
 10
12.2541872033
 20
8.1820867281
 30
0.0
 10
12.2565948066
 20
8.1886149743
 30
0.0
 10
12.2585242241
 20
8.1925398806
 30
0.0
 10
12.2595431925
 20
8.1943165096
 30
0.0
  0
SPLINE
  5
4E6
100
AcDbEntity
  8
0
100
AcDbSpline
 62
7
  6
CONTINUOUS
 70
0
 71
3
 72
11
 73
7
 74
0
 42
0.0000001
 43
0.0000001
 44
0.0000000001
 40
0.0
 40
0.0
 40
0.0
 40
0.0
 40
0.2095674017
 40
0.4463275856
 40
0.7110573642
 40
1.0
 40
1.0
 40
1.0
 40
1.0
 10
12.259102373
 20
8.1117650622
 30
0.0
 10
12.2581260859
 20
8.113513984
 30
0.0
 10
12.2562688831
 20
8.1173654122
 30
0.0
 10
12.2539696575
 20
8.123772358
 30
0.0
 10
12.252116268
 20
8.1311067984
 30
0.0
 10
12.251259784
 20
8.1363357634
 30
0.0
 10
12.2509187199
 20
8.1390762228
 30
0.0
  0
SPLINE
  5
4E7
100
AcDbEntity
  8
0
100
AcDbSpline
 62
7
  6
CONTINUOUS
 70
0
 71
3
 72
11
 73
7
 74
0
 42
0.0000001
 43
0.0000001
 44
0.0000000001
 40
0.0
 40
0.0
 40
0.0
 40
0.0
 40
0.2459433117
 40
0.4945148733
 40
0.7458623568
 40
1.0
 40
1.0
 40
1.0
 40
1.0
 10
12.2595431925
 20
8.1943165096
 30
0.0
 10
12.2619766302
 20
8.192643352
 30
0.0
 10
12.2666546195
 20
8.1889518125
 30
0.0
 10
12.2728465437
 20
8.182434936
 30
0.0
 10
12.2779796301
 20
8.1749269604
 30
0.0
 10
12.280466522
 20
8.1693401257
 30
0.0
 10
12.2814133536
 20
8.1664391941
 30
0.0
  0
SPLINE
  5
4E8
100
AcDbEntity
  8
0
100
AcDbSpline
 62
7
  6
CONTINUOUS
 70
0
 71
3
 72
11
 73
7
 74
0
 42
0.0000001
 43
0.0000001
 44
0.0000000001
 40
0.0
 40
0.0
 40
0.0
 40
0.0
 40
0.293010953
 40
0.558573187
 40
0.7941859491
 40
1.0
 40
1.0
 40
1.0
 40
1.0
 10
12.2814133536
 20
8.1664391941
 30
0.0
 10
12.2817111598
 20
8.1692450482
 30
0.0
 10
12.2824681893
 20
8.1745761185
 30
0.0
 10
12.2841006021
 20
8.1820551658
 30
0.0
 10
12.2860807984
 20
8.1885765646
 30
0.0
 10
12.2876778821
 20
8.1925248551
 30
0.0
 10
12.288525248
 20
8.1943165096
 30
0.0
  0
SPLINE
  5
4E9
100
AcDbEntity
  8
0
100
AcDbSpline
 62
7
  6
CONTINUOUS
 70
0
 71
3
 72
11
 73
7
 74
0
 42
0.0000001
 43
0.0000001
 44
0.0000000001
 40
0.0
 40
0.0
 40
0.0
 40
0.0
 40
0.2061001257
 40
0.4419174887
 40
0.7079669272
 40
1.0
 40
1.0
 40
1.0
 40
1.0
 10
12.2881614102
 20
8.1117660964
 30
0.0
 10
12.2873500121
 20
8.1135288573
 30
0.0
 10
12.2858123439
 20
8.1174033093
 30
0.0
 10
12.2839216714
 20
8.1238035642
 30
0.0
 10
12.2823973161
 20
8.1311288535
 30
0.0
 10
12.2816940691
 20
8.1363409472
 30
0.0
 10
12.2814133536
 20
8.1390762228
 30
0.0
  0
SPLINE
  5
4EA
100
AcDbEntity
  8
0
100
AcDbSpline
 62
7
  6
CONTINUOUS
 70
0
 71
3
 72
11
 73
7
 74
0
 42
0.0000001
 43
0.0000001
 44
0.0000000001
 40
0.0
 40
0.0
 40
0.0
 40
0.0
 40
0.2472955439
 40
0.4963714802
 40
0.7472700571
 40
1.0
 40
1.0
 40
1.0
 40
1.0
 10
12.288525248
 20
8.1943165096
 30
0.0
 10
12.2910146261
 20
8.1926459516
 30
0.0
 10
12.2957996575
 20
8.1889621898
 30
0.0
 10
12.3021443486
 20
8.1824483448
 30
0.0
 10
12.3074061003
 20
8.1749423013
 30
0.0
 10
12.3099612887
 20
8.1693448684
 30
0.0
 10
12.3109329796
 20
8.1664391941
 30
0.0
  0
SPLINE
  5
4EB
100
AcDbEntity
  8
0
100
AcDbSpline
 62
7
  6
CONTINUOUS
 70
0
 71
3
 72
11
 73
7
 74
0
 42
0.0000001
 43
0.0000001
 44
0.0000000001
 40
0.0
 40
0.0
 40
0.0
 40
0.0
 40
0.2958186371
 40
0.5625401244
 40
0.7973136544
 40
1.0
 40
1.0
 40
1.0
 40
1.0
 10
12.3109329796
 20
8.1664391941
 30
0.0
 10
12.3111656529
 20
8.1692401604
 30
0.0
 10
12.3117558276
 20
8.1745557435
 30
0.0
 10
12.3130307451
 20
8.1820277751
 30
0.0
 10
12.3145767631
 20
8.1885419564
 30
0.0
 10
12.3158306335
 20
8.1925105141
 30
0.0
 10
12.3164991367
 20
8.1943165096
 30
0.0
  0
SPLINE
  5
4EC
100
AcDbEntity
  8
0
100
AcDbSpline
 62
7
  6
CONTINUOUS
 70
0
 71
3
 72
11
 73
7
 74
0
 42
0.0000001
 43
0.0000001
 44
0.0000000001
 40
0.0
 40
0.0
 40
0.0
 40
0.0
 40
0.2030571402
 40
0.4380662803
 40
0.7052796458
 40
1.0
 40
1.0
 40
1.0
 40
1.0
 10
12.3162145433
 20
8.1117654303
 30
0.0
 10
12.3155747066
 20
8.113541445
 30
0.0
 10
12.3143672892
 20
8.1174362054
 30
0.0
 10
12.3128911616
 20
8.1238296907
 30
0.0
 10
12.3117008139
 20
8.1311469646
 30
0.0
 10
12.3111523492
 20
8.1363451012
 30
0.0
 10
12.3109329796
 20
8.1390762228
 30
0.0
  0
SPLINE
  5
4ED
100
AcDbEntity
  8
0
100
AcDbSpline
 62
7
  6
CONTINUOUS
 70
0
 71
3
 72
11
 73
7
 74
0
 42
0.0000001
 43
0.0000001
 44
0.0000000001
 40
0.0
 40
0.0
 40
0.0
 40
0.0
 40
0.2483687038
 40
0.4978480653
 40
0.7483921173
 40
1.0
 40
1.0
 40
1.0
 40
1.0
 10
12.3164991367
 20
8.1943165096
 30
0.0
 10
12.3190335628
 20
8.1926479704
 30
0.0
 10
12.3239046945
 20
8.1889703223
 30
0.0
 10
12.3303723465
 20
8.182458992
 30
0.0
 10
12.3357377111
 20
8.1749546644
 30
0.0
 10
12.3383481744
 20
8.1693487336
 30
0.0
 10
12.3393399636
 20
8.1664391941
 30
0.0
  0
SPLINE
  5
4EE
100
AcDbEntity
  8
0
100
AcDbSpline
 62
7
  6
CONTINUOUS
 70
0
 71
3
 72
11
 73
7
 74
0
 42
0.0000001
 43
0.0000001
 44
0.0000000001
 40
0.0
 40
0.0
 40
0.0
 40
0.0
 40
0.2980761996
 40
0.5657427741
 40
0.7998531564
 40
1.0
 40
1.0
 40
1.0
 40
1.0
 10
12.3393399636
 20
8.1664391941
 30
0.0
 10
12.3395067126
 20
8.1692363781
 30
0.0
 10
12.3399289455
 20
8.1745398157
 30
0.0
 10
12.3408422825
 20
8.1820058488
 30
0.0
 10
12.3419494468
 20
8.1885133863
 30
0.0
 10
12.3428513763
 20
8.1924980379
 30
0.0
 10
12.3433344316
 20
8.1943165096
 30
0.0
  0
SPLINE
  5
4EF
100
AcDbEntity
  8
0
100
AcDbSpline
 62
7
  6
CONTINUOUS
 70
0
 71
3
 72
11
 73
7
 74
0
 42
0.0000001
 43
0.0000001
 44
0.0000000001
 40
0.0
 40
0.0
 40
0.0
 40
0.0
 40
0.2005896992
 40
0.4349633977
 40
0.7031230201
 40
1.0
 40
1.0
 40
1.0
 40
1.0
 10
12.3431302324
 20
8.1117653777
 30
0.0
 10
12.3426681108
 20
8.1135527959
 30
0.0
 10
12.3417994079
 20
8.1174636086
 30
0.0
 10
12.3407423702
 20
8.1238507417
 30
0.0
 10
12.339889701
 20
8.1311611992
 30
0.0
 10
12.3394972036
 20
8.1363483497
 30
0.0
 10
12.3393399636
 20
8.1390762228
 30
0.0
  0
SPLINE
  5
4F0
100
AcDbEntity
  8
0
100
AcDbSpline
 62
7
  6
CONTINUOUS
 70
0
 71
3
 72
11
 73
7
 74
0
 42
0.0000001
 43
0.0000001
 44
0.0000000001
 40
0.0
 40
0.0
 40
0.0
 40
0.0
 40
0.2491682453
 40
0.4989499781
 40
0.7492309143
 40
1.0
 40
1.0
 40
1.0
 40
1.0
 10
12.3433344316
 20
8.1943165096
 30
0.0
 10
12.3459028184
 20
8.1926494497
 30
0.0
 10
12.3508388024
 20
8.1889763222
 30
0.0
 10
12.357399111
 20
8.1824669269
 30
0.0
 10
12.3628425795
 20
8.1749639847
 30
0.0
 10
12.365494872
 20
8.1693516735
 30
0.0
 10
12.3665018592
 20
8.1664391941
 30
0.0
  0
SPLINE
  5
4F1
100
AcDbEntity
  8
0
100
AcDbSpline
 62
7
  6
CONTINUOUS
 70
0
 71
3
 72
11
 73
7
 74
0
 42
0.0000001
 43
0.0000001
 44
0.0000000001
 40
0.0
 40
0.0
 40
0.0
 40
0.0
 40
0.2996604735
 40
0.5679973103
 40
0.8016486978
 40
1.0
 40
1.0
 40
1.0
 40
1.0
 10
12.3665018592
 20
8.1664391941
 30
0.0
 10
12.3666021281
 20
8.1692337992
 30
0.0
 10
12.3668557244
 20
8.1745288778
 30
0.0
 10
12.3674047536
 20
8.1819905175
 30
0.0
 10
12.3680701097
 20
8.1884929523
 30
0.0
 10
12.3686137884
 20
8.1924887271
 30
0.0
 10
12.3689060141
 20
8.1943165096
 30
0.0
  0
SPLINE
  5
4F2
100
AcDbEntity
  8
0
100
AcDbSpline
 62
7
  6
CONTINUOUS
 70
0
 71
3
 72
11
 73
7
 74
0
 42
0.0000001
 43
0.0000001
 44
0.0000000001
 40
0.0
 40
0.0
 40
0.0
 40
0.0
 40
0.1988506129
 40
0.4327863556
 40
0.7016147874
 40
1.0
 40
1.0
 40
1.0
 40
1.0
 10
12.3687830401
 20
8.1117659071
 30
0.0
 10
12.3685035964
 20
8.1135617763
 30
0.0
 10
12.3679798751
 20
8.1174836713
 30
0.0
 10
12.3673447044
 20
8.1238658044
 30
0.0
 10
12.3668321985
 20
8.1311711757
 30
0.0
 10
12.3665964179
 20
8.1363506429
 30
0.0
 10
12.3665018592
 20
8.1390762228
 30
0.0
  0
SPLINE
  5
4F3
100
AcDbEntity
  8
0
100
AcDbSpline
 62
7
  6
CONTINUOUS
 70
0
 71
3
 72
11
 73
7
 74
0
 42
0.0000001
 43
0.0000001
 44
0.0000000001
 40
0.0
 40
0.0
 40
0.0
 40
0.0
 40
0.2496986353
 40
0.4996818015
 40
0.7497886809
 40
1.0
 40
1.0
 40
1.0
 40
1.0
 10
12.3689060141
 20
8.1943165096
 30
0.0
 10
12.3714971251
 20
8.1926504195
 30
0.0
 10
12.3764764778
 20
8.1889802746
 30
0.0
 10
12.3830987653
 20
8.1824721914
 30
0.0
 10
12.3885944896
 20
8.1749702194
 30
0.0
 10
12.3912748463
 20
8.1693536527
 30
0.0
 10
12.3922920252
 20
8.1664391941
 30
0.0
  0
SPLINE
  5
4F4
100
AcDbEntity
  8
0
100
AcDbSpline
 62
7
  6
CONTINUOUS
 70
0
 71
3
 72
10
 73
6
 74
0
 42
0.0000001
 43
0.0000001
 44
0.0000000001
 40
0.0
 40
0.0
 40
0.0
 40
0.0
 40
0.5691605227
 40
0.8025784632
 40
1.0
 40
1.0
 40
1.0
 40
1.0
 10
12.3922920252
 20
8.1664391941
 30
0.0
 10
12.392355403
 20
8.1717301858
 30
0.0
 10
12.3924982872
 20
8.1791907737
 30
0.0
 10
12.3928151285
 20
8.1884822851
 30
0.0
 10
12.3929968306
 20
8.1924837302
 30
0.0
 10
12.3930946575
 20
8.1943165096
 30
0.0
  0
SPLINE
  5
4F5
100
AcDbEntity
  8
0
100
AcDbSpline
 62
7
  6
CONTINUOUS
 70
0
 71
3
 72
9
 73
5
 74
0
 42
0.0000001
 43
0.0000001
 44
0.0000000001
 40
0.0
 40
0.0
 40
0.0
 40
0.0
 40
0.4316597441
 40
1.0
 40
1.0
 40
1.0
 40
1.0
 10
12.3930536283
 20
8.1117651875
 30
0.0
 10
12.3928496645
 20
8.1156912973
 30
0.0
 10
12.3925168253
 20
8.1247938216
 30
0.0
 10
12.3923519742
 20
8.133900328
 30
0.0
 10
12.3922920252
 20
8.1390762228
 30
0.0
  0
SPLINE
  5
4F6
100
AcDbEntity
  8
0
100
AcDbSpline
 62
7
  6
CONTINUOUS
 70
0
 71
3
 72
11
 73
7
 74
0
 42
0.0000001
 43
0.0000001
 44
0.0000000001
 40
0.0
 40
0.0
 40
0.0
 40
0.0
 40
0.2499630199
 40
0.500046848
 40
0.750067111
 40
1.0
 40
1.0
 40
1.0
 40
1.0
 10
12.3930946575
 20
8.1943165096
 30
0.0
 10
12.3956971561
 20
8.1926508996
 30
0.0
 10
12.4006982336
 20
8.1889822365
 30
0.0
 10
12.4073515729
 20
8.1824748157
 30
0.0
 10
12.4128734809
 20
8.1749733428
 30
0.0
 10
12.4155679232
 20
8.1693546481
 30
0.0
 10
12.4165902158
 20
8.1664391941
 30
0.0
  0
SPLINE
  5
4F7
100
AcDbEntity
  8
0
100
AcDbSpline
 62
7
  6
CONTINUOUS
 70
0
 71
3
 72
11
 73
7
 74
0
 42
0.0000001
 43
0.0000001
 44
0.0000000001
 40
0.0
 40
0.0
 40
0.0
 40
0.0
 40
0.2499630199
 40
0.500046848
 40
0.750067111
 40
1.0
 40
1.0
 40
1.0
 40
1.0
 10
12.4157875834
 20
8.1943165096
 30
0.0
 10
12.418390082
 20
8.1926508996
 30
0.0
 10
12.4233911595
 20
8.1889822365
 30
0.0
 10
12.4300444988
 20
8.1824748157
 30
0.0
 10
12.4355664068
 20
8.1749733428
 30
0.0
 10
12.438260849
 20
8.1693546481
 30
0.0
 10
12.4392831417
 20
8.1664391941
 30
0.0
  0
SPLINE
  5
4F8
100
AcDbEntity
  8
0
100
AcDbSpline
 62
7
  6
CONTINUOUS
 70
0
 71
3
 72
11
 73
7
 74
0
 42
0.0000001
 43
0.0000001
 44
0.0000000001
 40
0.0
 40
0.0
 40
0.0
 40
0.0
 40
0.2496986353
 40
0.4996818015
 40
0.7497886809
 40
1.0
 40
1.0
 40
1.0
 40
1.0
 10
12.4368789869
 20
8.1943165096
 30
0.0
 10
12.4394700979
 20
8.1926504195
 30
0.0
 10
12.4444494506
 20
8.1889802746
 30
0.0
 10
12.4510717381
 20
8.1824721914
 30
0.0
 10
12.4565674624
 20
8.1749702194
 30
0.0
 10
12.4592478191
 20
8.1693536527
 30
0.0
 10
12.460264998
 20
8.1664391941
 30
0.0
  0
SPLINE
  5
4F9
100
AcDbEntity
  8
0
100
AcDbSpline
 62
7
  6
CONTINUOUS
 70
0
 71
3
 72
11
 73
7
 74
0
 42
0.0000001
 43
0.0000001
 44
0.0000000001
 40
0.0
 40
0.0
 40
0.0
 40
0.0
 40
0.2423781254
 40
0.4896411092
 40
0.7421834531
 40
1.0
 40
1.0
 40
1.0
 40
1.0
 10
12.5248658053
 20
8.1943165096
 30
0.0
 10
12.5271556745
 20
8.1926361861
 30
0.0
 10
12.5315582818
 20
8.1889237501
 30
0.0
 10
12.5373578754
 20
8.1823996445
 30
0.0
 10
12.5421609197
 20
8.1748877571
 30
0.0
 10
12.5444743577
 20
8.1693282652
 30
0.0
 10
12.5453579011
 20
8.1664391941
 30
0.0
  0
SPLINE
  5
4FA
100
AcDbEntity
  8
0
100
AcDbSpline
 62
7
  6
CONTINUOUS
 70
0
 71
3
 72
11
 73
7
 74
0
 42
0.0000001
 43
0.0000001
 44
0.0000000001
 40
0.0
 40
0.0
 40
0.0
 40
0.0
 40
0.24916823
 40
0.4989499688
 40
0.7492309153
 40
1.0
 40
1.0
 40
1.0
 40
1.0
 10
12.4562705299
 20
8.1943165096
 30
0.0
 10
12.4588389165
 20
8.1926494498
 30
0.0
 10
12.4637749002
 20
8.1889763219
 30
0.0
 10
12.4703352091
 20
8.1824669271
 30
0.0
 10
12.4757786787
 20
8.1749639853
 30
0.0
 10
12.4784309703
 20
8.1693516735
 30
0.0
 10
12.4794379575
 20
8.1664391941
 30
0.0
  0
SPLINE
  5
4FB
100
AcDbEntity
  8
0
100
AcDbSpline
 62
7
  6
CONTINUOUS
 70
0
 71
3
 72
11
 73
7
 74
0
 42
0.0000001
 43
0.0000001
 44
0.0000000001
 40
0.0
 40
0.0
 40
0.0
 40
0.0
 40
0.2483687038
 40
0.4978480653
 40
0.7483921173
 40
1.0
 40
1.0
 40
1.0
 40
1.0
 10
12.4738718004
 20
8.1943165096
 30
0.0
 10
12.4764062265
 20
8.1926479704
 30
0.0
 10
12.4812773581
 20
8.1889703223
 30
0.0
 10
12.4877450101
 20
8.182458992
 30
0.0
 10
12.4931103747
 20
8.1749546644
 30
0.0
 10
12.495720838
 20
8.1693487336
 30
0.0
 10
12.4967126272
 20
8.1664391941
 30
0.0
  0
SPLINE
  5
4FC
100
AcDbEntity
  8
0
100
AcDbSpline
 62
7
  6
CONTINUOUS
 70
0
 71
3
 72
11
 73
7
 74
0
 42
0.0000001
 43
0.0000001
 44
0.0000000001
 40
0.0
 40
0.0
 40
0.0
 40
0.0
 40
0.2472955439
 40
0.4963714802
 40
0.7472700571
 40
1.0
 40
1.0
 40
1.0
 40
1.0
 10
12.4896007329
 20
8.1943165096
 30
0.0
 10
12.492090111
 20
8.1926459516
 30
0.0
 10
12.4968751424
 20
8.1889621898
 30
0.0
 10
12.5032198335
 20
8.1824483448
 30
0.0
 10
12.5084815852
 20
8.1749423013
 30
0.0
 10
12.5110367736
 20
8.1693448684
 30
0.0
 10
12.5120084645
 20
8.1664391941
 30
0.0
  0
SPLINE
  5
4FD
100
AcDbEntity
  8
0
100
AcDbSpline
 62
7
  6
CONTINUOUS
 70
0
 71
3
 72
11
 73
7
 74
0
 42
0.0000001
 43
0.0000001
 44
0.0000000001
 40
0.0
 40
0.0
 40
0.0
 40
0.0
 40
0.2459433117
 40
0.4945148733
 40
0.7458623568
 40
1.0
 40
1.0
 40
1.0
 40
1.0
 10
12.5033839919
 20
8.1943165096
 30
0.0
 10
12.5058174297
 20
8.192643352
 30
0.0
 10
12.510495419
 20
8.1889518125
 30
0.0
 10
12.5166873432
 20
8.182434936
 30
0.0
 10
12.5218204296
 20
8.1749269604
 30
0.0
 10
12.5243073215
 20
8.1693401257
 30
0.0
 10
12.5252541531
 20
8.1664391941
 30
0.0
  0
SPLINE
  5
4FE
100
AcDbEntity
  8
0
100
AcDbSpline
 62
7
  6
CONTINUOUS
 70
0
 71
3
 72
11
 73
7
 74
0
 42
0.0000001
 43
0.0000001
 44
0.0000000001
 40
0.0
 40
0.0
 40
0.0
 40
0.0
 40
0.2443060709
 40
0.4922728699
 40
0.7441670678
 40
1.0
 40
1.0
 40
1.0
 40
1.0
 10
12.5151573136
 20
8.1943165096
 30
0.0
 10
12.5175241565
 20
8.1926401187
 30
0.0
 10
12.5220745303
 20
8.1889390525
 30
0.0
 10
12.5280845049
 20
8.1824187162
 30
0.0
 10
12.5330644531
 20
8.1749087355
 30
0.0
 10
12.5354705532
 20
8.1693345664
 30
0.0
 10
12.5363879356
 20
8.1664391941
 30
0.0
  0
SPLINE
  5
4FF
100
AcDbEntity
  8
0
100
AcDbSpline
 62
7
  6
CONTINUOUS
 70
0
 71
3
 72
9
 73
5
 74
0
 42
0.0000001
 43
0.0000001
 44
0.0000000001
 40
0.0
 40
0.0
 40
0.0
 40
0.0
 40
0.4316604078
 40
1.0
 40
1.0
 40
1.0
 40
1.0
 10
11.7515357588
 20
8.1117658587
 30
0.0
 10
11.7517397126
 20
8.1156918782
 30
0.0
 10
11.7520725461
 20
8.1247941786
 30
0.0
 10
11.7522373878
 20
8.1339004613
 30
0.0
 10
11.7522973353
 20
8.1390762228
 30
0.0
  0
LINE
  5
500
100
AcDbEntity
  8
0
100
AcDbLine
 62
7
  6
CONTINUOUS
 10
22.0650004831
 20
11.5462049982
 11
22.0622948438
 21
11.5477515131
  0
SPLINE
  5
501
100
AcDbEntity
  8
0
100
AcDbSpline
 62
7
  6
CONTINUOUS
 70
0
 71
3
 72
11
 73
7
 74
0
 42
0.0000001
 43
0.0000001
 44
0.0000000001
 40
0.0
 40
0.0
 40
0.0
 40
0.0
 40
0.2620202361
 40
0.5196870624
 40
0.7673339928
 40
1.0
 40
1.0
 40
1.0
 40
1.0
 10
20.4329256367
 20
11.411391804
 30
0.0
 10
20.4329256367
 20
11.4172027133
 30
0.0
 10
20.4330052666
 20
11.4287280112
 30
0.0
 10
20.4332785882
 20
11.445743404
 30
0.0
 10
20.433628041
 20
11.462105921
 30
0.0
 10
20.4337678783
 20
11.4727577376
 30
0.0
 10
20.4337666414
 20
11.4779176484
 30
0.0
  0
SPLINE
  5
502
100
AcDbEntity
  8
0
100
AcDbSpline
 62
7
  6
CONTINUOUS
 70
0
 71
3
 72
42
 73
38
 74
0
 42
0.0000001
 43
0.0000001
 44
0.0000000001
 40
0.0
 40
0.0
 40
0.0
 40
0.0
 40
0.0984088949
 40
0.1963670396
 40
0.2929067536
 40
0.3871215068
 40
0.4330679999
 40
0.4780580584
 40
0.5645404743
 40
0.6452583996
 40
0.7190779292
 40
0.7850409407
 40
0.8148134033
 40
0.8424056317
 40
0.867791831
 40
0.890933875
 40
0.9118063335
 40
0.9304282051
 40
0.9468189963
 40
0.9609919654
 40
0.9729546888
 40
0.9781096403
 40
0.9827158731
 40
0.9867750758
 40
0.9902888689
 40
0.9932588048
 40
0.9956863678
 40
0.9966972056
 40
0.9975729763
 40
0.9983138469
 40
0.9989199815
 40
0.9993915415
 40
0.9997286894
 40
0.9998468949
 40
0.999931512
 40
0.999982534
 40
1.0
 40
1.0
 40
1.0
 40
1.0
 10
20.0069170761
 20
11.411391804
 30
0.0
 10
20.0069170761
 20
11.4167416858
 30
0.0
 10
20.0074392044
 20
11.4274234376
 30
0.0
 10
20.0097176265
 20
11.4432065652
 30
0.0
 10
20.0134499315
 20
11.4584762392
 30
0.0
 10
20.0176659609
 20
11.4706550539
 30
0.0
 10
20.0216158805
 20
11.4799166644
 30
0.0
 10
20.025809286
 20
11.4886057369
 30
0.0
 10
20.0315020767
 20
11.4986570121
 30
0.0
 10
20.0389259656
 20
11.5094727248
 30
0.0
 10
20.0465152789
 20
11.5187676786
 30
0.0
 10
20.0528739576
 20
11.5254532902
 30
0.0
 10
20.0577557771
 20
11.5300504887
 30
0.0
 10
20.0611334003
 20
11.5330232085
 30
0.0
 10
20.0643249908
 20
11.5356582835
 30
0.0
 10
20.067302877
 20
11.5379756955
 30
0.0
 10
20.0700440164
 20
11.5399965155
 30
0.0
 10
20.0725340117
 20
11.5417377647
 30
0.0
 10
20.0747603172
 20
11.5432191735
 30
0.0
 10
20.0767111635
 20
11.5444600142
 30
0.0
 10
20.0781608685
 20
11.5453500743
 30
0.0
 10
20.0791729734
 20
11.5459586823
 30
0.0
 10
20.0798192601
 20
11.5463418482
 30
0.0
 10
20.0803908322
 20
11.5466760622
 30
0.0
 10
20.0808873285
 20
11.5469624203
 30
0.0
 10
20.0813083721
 20
11.5472020394
 30
0.0
 10
20.0816120945
 20
11.5473727005
 30
0.0
 10
20.0818169995
 20
11.5474868004
 30
0.0
 10
20.0819419603
 20
11.5475560143
 30
0.0
 10
20.082047731
 20
11.5476143941
 30
0.0
 10
20.0821344539
 20
11.5476620138
 30
0.0
 10
20.0822015865
 20
11.5476991715
 30
0.0
 10
20.0822462245
 20
11.547723377
 30
0.0
 10
20.082271096
 20
11.5477379857
 30
0.0
 10
20.0822842748
 20
11.5477444394
 30
0.0
 10
20.0822893363
 20
11.5477493305
 30
0.0
 10
20.0822947238
 20
11.5477505865
 30
0.0
 10
20.0822945167
 20
11.5477515131
 30
0.0
  0
LINE
  5
503
100
AcDbEntity
  8
0
100
AcDbLine
 62
7
  6
CONTINUOUS
 10
20.0821277
 20
10.7120320351
 11
20.0822945107
 21
10.7118251077
  0
LINE
  5
504
100
AcDbEntity
  8
0
100
AcDbLine
 62
7
  6
CONTINUOUS
 10
22.0624616604
 20
10.7120320351
 11
22.0622948498
 21
10.7118251077
  0
SPLINE
  5
505
100
AcDbEntity
  8
0
100
AcDbSpline
 62
7
  6
CONTINUOUS
 70
0
 71
3
 72
11
 73
7
 74
0
 42
0.0000001
 43
0.0000001
 44
0.0000000001
 40
0.0
 40
0.0
 40
0.0
 40
0.0
 40
0.2326623029
 40
0.4802949457
 40
0.7379616668
 40
1.0
 40
1.0
 40
1.0
 40
1.0
 10
21.7108228762
 20
11.4779175281
 30
0.0
 10
21.7108220043
 20
11.4727577089
 30
0.0
 10
21.7109615065
 20
11.462106314
 30
0.0
 10
21.7113106949
 20
11.44574422
 30
0.0
 10
21.7115843093
 20
11.4287287817
 30
0.0
 10
21.7116637237
 20
11.4172031039
 30
0.0
 10
21.7116637237
 20
11.411391804
 30
0.0
  0
LINE
  5
506
100
AcDbEntity
  8
0
100
AcDbLine
 62
7
  6
CONTINUOUS
 10
20.0822945167
 20
11.5477515131
 11
20.0790333926
 21
11.5458723726
  0
SPLINE
  5
507
100
AcDbEntity
  8
0
100
AcDbSpline
 62
7
  6
CONTINUOUS
 70
0
 71
3
 72
40
 73
36
 74
0
 42
0.0000001
 43
0.0000001
 44
0.0000000001
 40
0.0
 40
0.0
 40
0.0
 40
0.0
 40
0.0000163829
 40
0.0000663399
 40
0.0001499456
 40
0.0002672235
 40
0.0006028664
 40
0.0010734019
 40
0.0016789584
 40
0.0024196644
 40
0.0032956496
 40
0.0043070454
 40
0.0067365999
 40
0.0097094126
 40
0.0132265938
 40
0.0172892811
 40
0.0218986399
 40
0.0270557904
 40
0.0390175976
 40
0.0531855382
 40
0.069575121
 40
0.0882070009
 40
0.1091062218
 40
0.1322704178
 40
0.1576642247
 40
0.2150387342
 40
0.2810555688
 40
0.3549079972
 40
0.3944790427
 40
0.4356621576
 40
0.6129055984
 40
0.707112364
 40
0.8036401918
 40
0.9015919151
 40
1.0
 40
1.0
 40
1.0
 40
1.0
 10
22.0622948438
 20
11.5477515131
 30
0.0
 10
22.062295038
 20
11.5477523821
 30
0.0
 10
22.0622999565
 20
11.5477481234
 30
0.0
 10
22.0623056103
 20
11.5477470887
 30
0.0
 10
22.0623186125
 20
11.5477392617
 30
0.0
 10
22.0623438049
 20
11.5477265027
 30
0.0
 10
22.0623883883
 20
11.5477019647
 30
0.0
 10
22.0624555339
 20
11.5476655248
 30
0.0
 10
22.0625421058
 20
11.5476177461
 30
0.0
 10
22.0626476898
 20
11.54755918
 30
0.0
 10
22.0627724028
 20
11.5474894931
 30
0.0
 10
22.0629769352
 20
11.5473745174
 30
0.0
 10
22.0632801456
 20
11.5472024808
 30
0.0
 10
22.0637006975
 20
11.546961286
 30
0.0
 10
22.0641969644
 20
11.5466736926
 30
0.0
 10
22.0647687244
 20
11.5463389771
 30
0.0
 10
22.0654157771
 20
11.545956451
 30
0.0
 10
22.066429738
 20
11.5453509149
 30
0.0
 10
22.0678805909
 20
11.5444636959
 30
0.0
 10
22.069830061
 20
11.5432221965
 30
0.0
 10
22.0720546809
 20
11.5417388053
 30
0.0
 10
22.0745444071
 20
11.5399948397
 30
0.0
 10
22.0772883611
 20
11.5379735857
 30
0.0
 10
22.0802693458
 20
11.5356562592
 30
0.0
 10
22.0847101212
 20
11.5319901646
 30
0.0
 10
22.0906881065
 20
11.5265337922
 30
0.0
 10
22.0980814806
 20
11.5187573558
 30
0.0
 10
22.1042559345
 20
11.5111932671
 30
0.0
 10
22.1091674198
 20
11.5043714257
 30
0.0
 10
22.1168613405
 20
11.4926458525
 30
0.0
 10
22.1245983519
 20
11.4773883476
 30
0.0
 10
22.131141765
 20
11.4584661051
 30
0.0
 10
22.1348734151
 20
11.4431987132
 30
0.0
 10
22.1371504168
 20
11.4274200645
 30
0.0
 10
22.1376722844
 20
11.4167406233
 30
0.0
 10
22.1376722844
 20
11.411391804
 30
0.0
  0
SPLINE
  5
508
100
AcDbEntity
  8
0
100
AcDbSpline
 62
7
  6
CONTINUOUS
 70
0
 71
3
 72
30
 73
26
 74
0
 42
0.0000001
 43
0.0000001
 44
0.0000000001
 40
0.0
 40
0.0
 40
0.0
 40
0.0
 40
0.0503501105
 40
0.0983957564
 40
0.1444140061
 40
0.166886098
 40
0.1891621811
 40
0.2114333344
 40
0.233941356
 40
0.2569715637
 40
0.2808299407
 40
0.3058175815
 40
0.3321959428
 40
0.3601537662
 40
0.3897908846
 40
0.4211158974
 40
0.4540554915
 40
0.4884762846
 40
0.524210253
 40
0.5988626984
 40
0.6766468487
 40
0.7564110555
 40
0.8372850819
 40
0.9186418761
 40
1.0
 40
1.0
 40
1.0
 40
1.0
 10
21.7108227651
 20
10.7854649765
 30
0.0
 10
21.7108228806
 20
10.7804000882
 30
0.0
 10
21.7113551056
 20
10.7704879655
 30
0.0
 10
21.7140660372
 20
10.7561672418
 30
0.0
 10
21.7181399421
 20
10.7450943638
 30
0.0
 10
21.7225868605
 20
10.7371013434
 30
0.0
 10
21.726517914
 20
10.7316046777
 30
0.0
 10
21.7310991445
 20
10.7266289456
 30
0.0
 10
21.736352434
 20
10.7222457974
 30
0.0
 10
21.7422895114
 20
10.7185322832
 30
0.0
 10
21.7489057992
 20
10.7155620326
 30
0.0
 10
21.7561793781
 20
10.7133995264
 30
0.0
 10
21.76407089
 20
10.7120949112
 30
0.0
 10
21.7725242656
 20
10.7116767693
 30
0.0
 10
21.7814702712
 20
10.71215115
 30
0.0
 10
21.7908303863
 20
10.7135024417
 30
0.0
 10
21.8005215948
 20
10.7156945966
 30
0.0
 10
21.8104624669
 20
10.7186741746
 30
0.0
 10
21.8241467916
 20
10.7236873971
 30
0.0
 10
21.8413792457
 20
10.7315919421
 30
0.0
 10
21.8617849024
 20
10.7429944832
 30
0.0
 10
21.8819536045
 20
10.7559973337
 30
0.0
 10
21.9017162674
 20
10.7702258536
 30
0.0
 10
21.9209716562
 20
10.7853901423
 30
0.0
 10
21.9334484795
 20
10.7959905203
 30
0.0
 10
21.9395970936
 20
10.801391804
 30
0.0
  0
SPLINE
  5
509
100
AcDbEntity
  8
0
100
AcDbSpline
 62
7
  6
CONTINUOUS
 70
0
 71
3
 72
24
 73
20
 74
0
 42
0.0000001
 43
0.0000001
 44
0.0000000001
 40
0.0
 40
0.0
 40
0.0
 40
0.0
 40
0.1318112325
 40
0.1968396875
 40
0.2607441454
 40
0.3233024489
 40
0.3844440049
 40
0.444217975
 40
0.4737066354
 40
0.5030133794
 40
0.561363835
 40
0.5906293223
 40
0.6200774111
 40
0.6798025545
 40
0.7410219644
 40
0.8039084206
 40
0.8683442976
 40
0.9339376758
 40
1.0
 40
1.0
 40
1.0
 40
1.0
 10
21.0722946802
 20
11.5477507055
 30
0.0
 10
21.0616262328
 20
11.5477507055
 30
0.0
 10
21.045678803
 20
11.5471044509
 30
0.0
 10
21.0247062095
 20
11.5446836039
 30
0.0
 10
21.0094291484
 20
11.5420048052
 30
0.0
 10
20.9946901649
 20
11.5382854053
 30
0.0
 10
20.980652878
 20
11.5333710375
 30
0.0
 10
20.9696380948
 20
11.5281130354
 30
0.0
 10
20.9614161707
 20
11.5231500188
 30
0.0
 10
20.9536499823
 20
11.5177008585
 30
0.0
 10
20.9464915781
 20
11.5114514367
 30
0.0
 10
20.9400809904
 20
11.5044647664
 30
0.0
 10
20.9341411077
 20
11.4969304327
 30
0.0
 10
20.9276613008
 20
11.4865764186
 30
0.0
 10
20.9214607408
 20
11.4730109099
 30
0.0
 10
20.91676388
 20
11.4584598676
 30
0.0
 10
20.9134828631
 20
11.443170738
 30
0.0
 10
20.9115454716
 20
11.4273997665
 30
0.0
 10
20.9111214488
 20
11.4167387113
 30
0.0
 10
20.9111214488
 20
11.411391804
 30
0.0
  0
SPLINE
  5
50A
100
AcDbEntity
  8
0
100
AcDbSpline
 62
7
  6
CONTINUOUS
 70
0
 71
3
 72
39
 73
35
 74
0
 42
0.0000001
 43
0.0000001
 44
0.0000000001
 40
0.0
 40
0.0
 40
0.0
 40
0.0
 40
0.0394028841
 40
0.0788878626
 40
0.1183742626
 40
0.1578333745
 40
0.1972796469
 40
0.2367353947
 40
0.276170988
 40
0.2958644814
 40
0.3155220956
 40
0.3546742255
 40
0.393495695
 40
0.4317783949
 40
0.4693691655
 40
0.5416343259
 40
0.5760009806
 40
0.608950142
 40
0.6403344397
 40
0.6700401225
 40
0.6979498933
 40
0.7239836174
 40
0.7481066799
 40
0.7703417465
 40
0.790850423
 40
0.8099743584
 40
0.8282859649
 40
0.8466426739
 40
0.8660348548
 40
0.8873731449
 40
0.9112512452
 40
0.9380100443
 40
0.9676761048
 40
1.0
 40
1.0
 40
1.0
 40
1.0
 10
21.9395970936
 20
11.411391804
 30
0.0
 10
21.9395970936
 20
11.4160171249
 30
0.0
 10
21.9390934018
 20
11.4252849765
 30
0.0
 10
21.9368479417
 20
11.4390239671
 30
0.0
 10
21.9331125616
 20
11.4524445679
 30
0.0
 10
21.9279141152
 20
11.4653637702
 30
0.0
 10
21.9213137226
 20
11.477623471
 30
0.0
 10
21.9133689676
 20
11.4890532282
 30
0.0
 10
21.905745254
 20
11.497792197
 30
0.0
 10
21.8991198516
 20
11.5042503542
 30
0.0
 10
21.8921810237
 20
11.5103202521
 30
0.0
 10
21.8829814801
 20
11.5171890746
 30
0.0
 10
21.8713088562
 20
11.5242944575
 30
0.0
 10
21.859219882
 20
11.5302583764
 30
0.0
 10
21.8430551173
 20
11.5367045304
 30
0.0
 10
21.8267214978
 20
11.5413525503
 30
0.0
 10
21.8106361726
 20
11.5444924467
 30
0.0
 10
21.7991652287
 20
11.5461547589
 30
0.0
 10
21.7881749514
 20
11.5472296426
 30
0.0
 10
21.7777371389
 20
11.547755847
 30
0.0
 10
21.7679139756
 20
11.5477884117
 30
0.0
 10
21.7587567248
 20
11.5473114074
 30
0.0
 10
21.7503127124
 20
11.546290194
 30
0.0
 10
21.7426148947
 20
11.5446958002
 30
0.0
 10
21.7356948509
 20
11.5424276778
 30
0.0
 10
21.7295853659
 20
11.5393672417
 30
0.0
 10
21.7243345211
 20
11.5353812907
 30
0.0
 10
21.7199958778
 20
11.5303691511
 30
0.0
 10
21.7166026029
 20
11.5242698544
 30
0.0
 10
21.7141283051
 20
11.5170697889
 30
0.0
 10
21.712425034
 20
11.5087780094
 30
0.0
 10
21.711392427
 20
11.4993990758
 30
0.0
 10
21.7108963455
 20
11.4889892592
 30
0.0
 10
21.7108235174
 20
11.4817118793
 30
0.0
 10
21.7108228762
 20
11.4779175281
 30
0.0
  0
SPLINE
  5
50B
100
AcDbEntity
  8
0
100
AcDbSpline
 62
7
  6
CONTINUOUS
 70
0
 71
3
 72
30
 73
26
 74
0
 42
0.0000001
 43
0.0000001
 44
0.0000000001
 40
0.0
 40
0.0
 40
0.0
 40
0.0
 40
0.0813579753
 40
0.1627145897
 40
0.2435885736
 40
0.3233527338
 40
0.4011369388
 40
0.4757894302
 40
0.511523569
 40
0.5459443849
 40
0.5788838837
 40
0.6102089659
 40
0.6398461368
 40
0.6678039308
 40
0.6941822629
 40
0.7191699791
 40
0.7430283708
 40
0.7660584769
 40
0.7885664965
 40
0.8108376484
 40
0.8331137325
 40
0.8555858074
 40
0.9016040919
 40
0.949649769
 40
1.0
 40
1.0
 40
1.0
 40
1.0
 10
20.2049922669
 20
10.801391804
 30
0.0
 10
20.2111408697
 20
10.7959905301
 30
0.0
 10
20.2236176694
 20
10.7853901756
 30
0.0
 10
20.2428730261
 20
10.7702259068
 30
0.0
 10
20.2626356636
 20
10.7559973981
 30
0.0
 10
20.2828043579
 20
10.742994542
 30
0.0
 10
20.3032100168
 20
10.7315919946
 30
0.0
 10
20.3204424901
 20
10.7236874251
 30
0.0
 10
20.3341268389
 20
10.7186741993
 30
0.0
 10
20.3440677157
 20
10.7156946023
 30
0.0
 10
20.3537589257
 20
10.7135024556
 30
0.0
 10
20.3631190416
 20
10.7121511529
 30
0.0
 10
20.3720650567
 20
10.711676769
 30
0.0
 10
20.3805184311
 20
10.7120949098
 30
0.0
 10
20.3884099476
 20
10.7133995116
 30
0.0
 10
20.3956835285
 20
10.7155620311
 30
0.0
 10
20.4022998244
 20
10.7185322603
 30
0.0
 10
20.4082368919
 20
10.7222457746
 30
0.0
 10
20.4134901757
 20
10.7266289118
 30
0.0
 10
20.4180714147
 20
10.7316046358
 30
0.0
 10
20.4220024717
 20
10.7371012972
 30
0.0
 10
20.4264493955
 20
10.7450943165
 30
0.0
 10
20.4305233118
 20
10.7561671954
 30
0.0
 10
20.4332342565
 20
10.7704879363
 30
0.0
 10
20.4337664806
 20
10.7804000744
 30
0.0
 10
20.4337665972
 20
10.7854649749
 30
0.0
  0
SPLINE
  5
50C
100
AcDbEntity
  8
0
100
AcDbSpline
 62
7
  6
CONTINUOUS
 70
0
 71
3
 72
38
 73
34
 74
0
 42
0.0000001
 43
0.0000001
 44
0.0000000001
 40
0.0
 40
0.0
 40
0.0
 40
0.0
 40
0.032325881
 40
0.0619912006
 40
0.0887517712
 40
0.1126281082
 40
0.1339581907
 40
0.1533419503
 40
0.1716933995
 40
0.1900027938
 40
0.2091163395
 40
0.2296126224
 40
0.2518433088
 40
0.2759567884
 40
0.3019837566
 40
0.329892644
 40
0.3595941079
 40
0.3909846644
 40
0.4582961448
 40
0.4939137577
 40
0.530638631
 40
0.568244576
 40
0.6065466116
 40
0.6453912937
 40
0.6845611316
 40
0.7042251433
 40
0.7239237426
 40
0.7633677593
 40
0.8028301173
 40
0.8422780076
 40
0.8817356202
 40
0.9212213459
 40
1.0
 40
1.0
 40
1.0
 40
1.0
 10
20.4337666414
 20
11.4779176484
 30
0.0
 10
20.4337657318
 20
11.481711849
 30
0.0
 10
20.4336924326
 20
11.488988635
 30
0.0
 10
20.4331962487
 20
11.4993977241
 30
0.0
 10
20.4321654754
 20
11.5087757633
 30
0.0
 10
20.4304644574
 20
11.5170661993
 30
0.0
 10
20.4279901671
 20
11.5242633293
 30
0.0
 10
20.4245986382
 20
11.5303593376
 30
0.0
 10
20.4202668523
 20
11.5353740059
 30
0.0
 10
20.4150182962
 20
11.539359015
 30
0.0
 10
20.4089119074
 20
11.5424174073
 30
0.0
 10
20.4019963825
 20
11.5446855828
 30
0.0
 10
20.3943047253
 20
11.5462907704
 30
0.0
 10
20.385863154
 20
11.5473080273
 30
0.0
 10
20.3767090205
 20
11.5477815262
 30
0.0
 10
20.3668882543
 20
11.5477635551
 30
0.0
 10
20.3564510483
 20
11.5472319978
 30
0.0
 10
20.341448591
 20
11.5457608431
 30
0.0
 10
20.3258706077
 20
11.5431377663
 30
0.0
 10
20.3099752472
 20
11.539102962
 30
0.0
 10
20.2976756345
 20
11.5351657596
 30
0.0
 10
20.2853837935
 20
11.5302669017
 30
0.0
 10
20.2732912163
 20
11.524298964
 30
0.0
 10
20.2616140374
 20
11.517190027
 30
0.0
 10
20.252410054
 20
11.5103199268
 30
0.0
 10
20.2454683063
 20
11.5042495545
 30
0.0
 10
20.238841523
 20
11.4977907527
 30
0.0
 10
20.2312183253
 20
11.4890497518
 30
0.0
 10
20.2232735035
 20
11.4776192879
 30
0.0
 10
20.2166729227
 20
11.4653610593
 30
0.0
 10
20.2114757555
 20
11.4524402701
 30
0.0
 10
20.2065035629
 20
11.43458136
 30
0.0
 10
20.2049922669
 20
11.4206383279
 30
0.0
 10
20.2049922669
 20
11.411391804
 30
0.0
  0
SPLINE
  5
50D
100
AcDbEntity
  8
0
100
AcDbSpline
 62
7
  6
CONTINUOUS
 70
0
 71
3
 72
13
 73
9
 74
0
 42
0.0000001
 43
0.0000001
 44
0.0000000001
 40
0.0
 40
0.0
 40
0.0
 40
0.0
 40
0.1361919432
 40
0.2704629463
 40
0.4014873325
 40
0.5286684161
 40
0.7711438777
 40
1.0
 40
1.0
 40
1.0
 40
1.0
 10
21.0722946802
 20
10.7118248749
 30
0.0
 10
21.0636183704
 20
10.7118248749
 30
0.0
 10
21.0463591184
 20
10.7131595144
 30
0.0
 10
21.0213582149
 20
10.7189541393
 30
0.0
 10
20.9979573834
 20
10.7279796927
 30
0.0
 10
20.9698359101
 20
10.7431793184
 30
0.0
 10
20.939584146
 20
10.7668722985
 30
0.0
 10
20.9197383917
 20
10.7896311246
 30
0.0
 10
20.9111214488
 20
10.801391804
 30
0.0
  0
SPLINE
  5
50E
100
AcDbEntity
  8
0
100
AcDbSpline
 62
7
  6
CONTINUOUS
 70
0
 71
3
 72
13
 73
9
 74
0
 42
0.0000001
 43
0.0000001
 44
0.0000000001
 40
0.0
 40
0.0
 40
0.0
 40
0.0
 40
0.1361907984
 40
0.2704613738
 40
0.4014855002
 40
0.5286666722
 40
0.7711427288
 40
1.0
 40
1.0
 40
1.0
 40
1.0
 10
21.0722946802
 20
10.7118248749
 30
0.0
 10
21.0809709172
 20
10.7118248749
 30
0.0
 10
21.0982300696
 20
10.7131594847
 30
0.0
 10
21.1232308644
 20
10.7189540615
 30
0.0
 10
21.1466316765
 20
10.7279795568
 30
0.0
 10
21.1747532008
 20
10.7431791456
 30
0.0
 10
21.2050050986
 20
10.7668721511
 30
0.0
 10
21.2248509255
 20
10.7896310655
 30
0.0
 10
21.2334679117
 20
10.801391804
 30
0.0
  0
SPLINE
  5
50F
100
AcDbEntity
  8
0
100
AcDbSpline
 62
7
  6
CONTINUOUS
 70
0
 71
3
 72
23
 73
19
 74
0
 42
0.0000001
 43
0.0000001
 44
0.0000000001
 40
0.0
 40
0.0
 40
0.0
 40
0.0
 40
0.066101326
 40
0.1317115476
 40
0.1961461435
 40
0.2590331759
 40
0.320258805
 40
0.3799715875
 40
0.4386368427
 40
0.4678175399
 40
0.4970081604
 40
0.5557622304
 40
0.6155350602
 40
0.6766580578
 40
0.7392285705
 40
0.8031296894
 40
0.8681476699
 40
1.0
 40
1.0
 40
1.0
 40
1.0
 10
21.2334679117
 20
11.411391804
 30
0.0
 10
21.2334679117
 20
11.4167417016
 30
0.0
 10
21.2330431853
 20
11.4274069567
 30
0.0
 10
21.2311047423
 20
11.443181675
 30
0.0
 10
21.2278229039
 20
11.4584717285
 30
0.0
 10
21.2231216424
 20
11.473020794
 30
0.0
 10
21.2169249672
 20
11.4865882695
 30
0.0
 10
21.2091899869
 20
11.4989498082
 30
0.0
 10
21.2014233034
 20
11.5080838816
 30
0.0
 10
21.1945252241
 20
11.5145861461
 30
0.0
 10
21.1871605903
 20
11.5205671026
 30
0.0
 10
21.1770879108
 20
11.5270822514
 30
0.0
 10
21.163944029
 20
11.5333760758
 30
0.0
 10
21.1499034567
 20
11.5382843955
 30
0.0
 10
21.1351652506
 20
11.5419980565
 30
0.0
 10
21.1198901644
 20
11.5446855987
 30
0.0
 10
21.0989150742
 20
11.547099101
 30
0.0
 10
21.0829661222
 20
11.5477507055
 30
0.0
 10
21.0722946802
 20
11.5477507055
 30
0.0
  0
SPLINE
  5
510
100
AcDbEntity
  8
0
100
AcDbSpline
 62
7
  6
CONTINUOUS
 70
0
 71
3
 72
9
 73
5
 74
0
 42
0.0000001
 43
0.0000001
 44
0.0000000001
 40
0.0
 40
0.0
 40
0.0
 40
0.0
 40
0.5001754492
 40
1.0
 40
1.0
 40
1.0
 40
1.0
 10
12.5552055105
 20
9.6027757578
 30
0.0
 10
12.5531247825
 20
9.6038521177
 30
0.0
 10
12.548735356
 20
9.6055850706
 30
0.0
 10
12.5440873943
 20
9.6064076815
 30
0.0
 10
12.5417523703
 20
9.6065748476
 30
0.0
  0
ENDSEC
  0
SECTION
  2
OBJECTS
  0
DICTIONARY
  5
C
100
AcDbDictionary
280
0
281
1
  3
ACAD_GROUP
350
D
  3
ACAD_MLINESTYLE
350
17
  3
ACAD_LAYOUT
350
1A
  3
ACAD_PLOTSETTINGS
350
19
  3
ACAD_PLOTSTYLENAME
350
E
  0
DICTIONARY
  5
D
102
{ACAD_REACTORS
330
C
102
}
100
AcDbDictionary
280
0
281
1
  0
ACDBDICTIONARYWDFLT
  5
E
102
{ACAD_REACTORS
330
C
102
}
100
AcDbDictionary
281
1
  3
Normal
350
F
100
AcDbDictionaryWithDefault
340
F
  0
DICTIONARY
  5
17
102
{ACAD_REACTORS
330
C
102
}
100
AcDbDictionary
280
0
281
1
  3
Standard
350
18
  0
DICTIONARY
  5
19
102
{ACAD_REACTORS
330
C
102
}
100
AcDbDictionary
281
1
  0
DICTIONARY
  5
1A
102
{ACAD_REACTORS
330
C
102
}
100
AcDbDictionary
281
1
  3
Model
350
511
  3
Layout1
350
512
  0
ACDBPLACEHOLDER
  5
F
102
{ACAD_REACTORS
330
E
102
}
  0
MLINESTYLE
  5
18
102
{ACAD_REACTORS
330
17
102
}
100
AcDbMlineStyle
  2
STANDARD
 70
0
  3

 62
256
 51
90.0
 52
90.0
 71
2
 49
0.5
 62
256
  6
BYLAYER
 49
-0.5
 62
256
  6
BYLAYER
  0
LAYOUT
  5
511
102
{ACAD_REACTORS
330
1A
102
}
100
AcDbPlotSettings
  1

  2
none_device
  4
ANSI_C_(22.00_x_17.00_Inches)
  6

 40
0.0
 41
0.0
 42
0.0
 43
0.0
 44
558.8
 45
431.8
 46
0.0
 47
0.0
 48
0.0
 49
0.0
140
0.0
141
0.0
142
1.0
143
1.0
 70
1024
 72
0
 73
0
 74
0
  7

 75
0
147
1.0
148
0.0
149
0.0
100
AcDbLayout
  1
Model
 70
0
 71
0
 10
0.0
 20
0.0
 11
22.0
 21
17.0
 12
0.0
 22
0.0
 32
0.0
 14
0.0
 24
0.0
 34
0.0
 15
0.0
 25
0.0
 35
0.0
146
0.0
 13
0.0
 23
0.0
 33
0.0
 16
1.0
 26
0.0
 36
0.0
 17
0.0
 27
1.0
 37
0.0
 76
0
330
202
345
0
346
0
  0
LAYOUT
  5
512
102
{ACAD_REACTORS
330
1A
102
}
100
AcDbPlotSettings
  1

  2
none_device
  4
ANSI_C_(22.00_x_17.00_Inches)
  6

 40
0.0
 41
0.0
 42
0.0
 43
0.0
 44
558.8
 45
431.8
 46
0.0
 47
0.0
 48
0.0
 49
0.0
140
0.0
141
0.0
142
1.0
143
1.0
 70
0
 72
0
 73
0
 74
0
  7

 75
0
147
1.0
148
0.0
149
0.0
100
AcDbLayout
  1
Layout1
 70
0
 71
1
 10
0.0
 20
0.0
 11
22.0
 21
17.0
 12
0.0
 22
0.0
 32
0.0
 14
0.0
 24
0.0
 34
0.0
 15
0.0
 25
0.0
 35
0.0
146
0.0
 13
0.0
 23
0.0
 33
0.0
 16
1.0
 26
0.0
 36
0.0
 17
0.0
 27
1.0
 37
0.0
 76
0
330
203
345
0
346
0
  0
ENDSEC
  0
EOF
