  0
SECTION
  2
HEADER
  9
$ACADVER
  1
AC1015
  9
$DWGCODEPAGE
  3
ANSI_1252
  9
$EXTMAX
 10
11.6929133858
 20
8.2677165354
 30
0.0
  9
$EXTMIN
 10
0.0
 20
0.0
 30
0.0
  9
$LIMMIN
 10
0.0
 20
0.0
  9
$LIMMAX
 10
11.6929133858
 20
8.2677165354
  9
$VIEWCTR
 10
5.8464566929
 20
4.1338582677
  9
$VIEWSIZE
 40
8.2677165354
  9
$CLAYER
  8
0
  9
$LTSCALE
 40
0.6431102362
  9
$CELTYPE
  6
BYLAYER
  9
$DIMSCALE
 40
1.0
  9
$DIMASZ
 40
0.1
  9
$DIMEXO
 40
0.0730807087
  9
$DIMDLI
 40
0.4443307087
  9
$DIMEXE
 40
0.2104724409
  9
$DIMCEN
 40
0.1052362205
  9
$DIMLFAC
 40
1.0
  9
$DIMBLK
  1
_FILLED
  9
$DIMTXT
 40
0.08
  9
$DIMTOL
 70
1
  9
$DIMLIM
 70
0
  9
$DIMTFAC
 40
1.0
  9
$DIMTP
 40
0.01
  9
$DIMTM
 40
0.01
  9
$PDMODE
 70
3
  9
$PDSIZE
 40
0.06
  9
$HANDSEED
  5
3D4
  9
$TILEMODE
 70
1
  9
$MEASUREMENT
 70
0
  9
$INSUNITS
 70
1
  0
ENDSEC
  0
SECTION
  2
CLASSES
  0
CLASS
  1
ACDBDICTIONARYWDFLT
  2
AcDbDictionaryWithDefault
  3
AutoCAD 2000
 90
0
280
0
281
0
  0
CLASS
  1
ACDBPLACEHOLDER
  2
AcDbPlaceHolder
  3
AutoCAD 2000
 90
0
280
0
281
0
  0
CLASS
  1
LAYOUT
  2
AcDbLayout
  3
AutoCAD 2000
 90
0
280
0
281
0
  0
ENDSEC
  0
SECTION
  2
TABLES
  0
TABLE
  2
VPORT
  5
8
100
AcDbSymbolTable
 70
2
  0
VPORT
  5
1F4
100
AcDbSymbolTableRecord
100
AcDbViewportTableRecord
  2
*ACTIVE
 70
0
 10
0.0
 20
0.0
 11
1.0
 21
1.0
 12
5.8464566929
 22
4.1338582677
 13
0.0
 23
0.0
 14
1.0
 24
1.0
 15
0.0
 25
0.0
 16
0.0
 26
0.0
 36
1.0
 17
0.0
 27
0.0
 37
0.0
 40
8.2677165354
 41
1.4142857143
 42
50.0
 43
0.0
 44
0.0
 50
0.0
 51
0.0
 71
0
 72
100
 73
1
 74
1
 75
0
 76
0
 77
0
 78
0
  0
ENDTAB
  0
TABLE
  2
LTYPE
  5
5
100
AcDbSymbolTable
 70
6
  0
LTYPE
  5
14
100
AcDbSymbolTableRecord
100
AcDbLinetypeTableRecord
  2
BYBLOCK
 70
0
  3

 72
65
 73
0
 40
0.0
  0
LTYPE
  5
15
100
AcDbSymbolTableRecord
100
AcDbLinetypeTableRecord
  2
BYLAYER
 70
0
  3

 72
65
 73
0
 40
0.0
  0
LTYPE
  5
16
100
AcDbSymbolTableRecord
100
AcDbLinetypeTableRecord
  2
CONTINUOUS
 70
64
  3
Solid line
 72
65
 73
0
 40
0.0
  0
LTYPE
  5
1F5
100
AcDbSymbolTableRecord
100
AcDbLinetypeTableRecord
  2
CENTER
 70
64
  3
____ _ ____ _ ____ _ ____ _ ____ _ ____ _ ____
 72
65
 73
4
 40
0.6
 49
0.375
 74
0
 49
-0.075
 74
0
 49
0.075
 74
0
 49
-0.075
 74
0
  0
LTYPE
  5
1F6
100
AcDbSymbolTableRecord
100
AcDbLinetypeTableRecord
  2
HIDDEN
 70
64
  3
- - - - - - - - - - - - - - - - - - - -
 72
65
 73
2
 40
0.2
 49
0.1
 74
0
 49
-0.1
 74
0
  0
LTYPE
  5
1F7
100
AcDbSymbolTableRecord
100
AcDbLinetypeTableRecord
  2
PHANTOM
 70
64
  3
_____ _ _ _____ _ _ _____ _ _ _____
 72
65
 73
6
 40
0.8
 49
0.45
 74
0
 49
-0.05
 74
0
 49
0.1
 74
0
 49
-0.05
 74
0
 49
0.1
 74
0
 49
-0.05
 74
0
  0
LTYPE
  5
1F8
100
AcDbSymbolTableRecord
100
AcDbLinetypeTableRecord
  2
DOT
 70
64
  3
. . . . . . . . . . . . . . . . . . . .
 72
65
 73
2
 40
0.2
 49
0.1
 74
0
 49
-0.1
 74
0
  0
LTYPE
  5
1F9
100
AcDbSymbolTableRecord
100
AcDbLinetypeTableRecord
  2
DASHED
 70
64
  3
- - - - - - - - - - - - - - - - - - - -
 72
65
 73
2
 40
0.2
 49
0.1
 74
0
 49
-0.1
 74
0
  0
ENDTAB
  0
TABLE
  2
LAYER
  5
2
100
AcDbSymbolTable
 70
36
  0
LAYER
  5
10
100
AcDbSymbolTableRecord
100
AcDbLayerTableRecord
  2
0
 70
0
 62
7
  6
CONTINUOUS
370
-3
390
F
  0
LAYER
  5
1FA
100
AcDbSymbolTableRecord
100
AcDbLayerTableRecord
  2
DEFAULT_1
 70
0
 62
7
  6
CENTER
370
-3
390
F
  0
LAYER
  5
1FB
100
AcDbSymbolTableRecord
100
AcDbLayerTableRecord
  2
DEFAULT_2
 70
0
 62
8
  6
HIDDEN
370
-3
390
F
  0
LAYER
  5
1FC
100
AcDbSymbolTableRecord
100
AcDbLayerTableRecord
  2
DEFAULT_3
 70
0
 62
7
  6
PHANTOM
370
-3
390
F
  0
LAYER
  5
1FD
100
AcDbSymbolTableRecord
100
AcDbLayerTableRecord
  2
3_ALL_SYMBOLS
 70
0
 62
7
  6
CONTINUOUS
370
-3
390
F
  0
LAYER
  5
1FE
100
AcDbSymbolTableRecord
100
AcDbLayerTableRecord
  2
DEFAULT_COORDINATE_SYSTEM
 70
0
 62
7
  6
CONTINUOUS
370
-3
390
F
  0
LAYER
  5
1FF
100
AcDbSymbolTableRecord
100
AcDbLayerTableRecord
  2
DEFAULT_DATUM_AXES
 70
0
 62
7
  6
CONTINUOUS
370
-3
390
F
  0
LAYER
  5
200
100
AcDbSymbolTableRecord
100
AcDbLayerTableRecord
  2
DEFAULT_DATUM_CURVES
 70
0
 62
7
  6
CONTINUOUS
370
-3
390
F
  0
LAYER
  5
201
100
AcDbSymbolTableRecord
100
AcDbLayerTableRecord
  2
DEFAULT_DATUM_PLANES
 70
0
 62
7
  6
CONTINUOUS
370
-3
390
F
  0
ENDTAB
  0
TABLE
  2
STYLE
  5
3
100
AcDbSymbolTable
 70
1
  0
STYLE
  5
11
100
AcDbSymbolTableRecord
100
AcDbTextStyleTableRecord
  2
STANDARD
 70
0
 40
0.0
 41
0.8
 50
0.0
 71
0
 42
0.2
  3
txt
  4

  0
STYLE
  5
202
100
AcDbSymbolTableRecord
100
AcDbTextStyleTableRecord
  2
TEXTSTYLE_1
 70
0
 40
0.0
 41
0.8
 50
0.0
 71
0
 42
0.2
  3
gdt
  4

  0
ENDTAB
  0
TABLE
  2
VIEW
  5
6
100
AcDbSymbolTable
 70
0
  0
ENDTAB
  0
TABLE
  2
UCS
  5
7
100
AcDbSymbolTable
 70
0
  0
ENDTAB
  0
TABLE
  2
APPID
  5
9
100
AcDbSymbolTable
 70
1
  0
APPID
  5
203
100
AcDbSymbolTableRecord
100
AcDbRegAppTableRecord
  2
ACAD
 70
0
  0
ENDTAB
  0
TABLE
  2
BLOCK_RECORD
  5
1
100
AcDbSymbolTable
 70
0
  0
BLOCK_RECORD
  5
204
100
AcDbSymbolTableRecord
100
AcDbBlockTableRecord
  2
*Model_Space
  0
BLOCK_RECORD
  5
205
100
AcDbSymbolTableRecord
100
AcDbBlockTableRecord
  2
*Paper_Space
  0
ENDTAB
  0
TABLE
  2
DIMSTYLE
  5
A
100
AcDbSymbolTable
 70
1
100
AcDbDimStyleTable
 71
0
  0
DIMSTYLE
105
206
100
AcDbSymbolTableRecord
100
AcDbDimStyleTableRecord
  2
STANDARD
 70
0
  3

  4

 40
1.0
 41
0.1
 42
0.0625
 43
0.38
 44
0.18
 45
0.0
 46
0.0
 47
0.01
 48
0.01
140
0.08
141
0.09
142
0.0
143
25.4
144
1.0
145
0.0
146
1.0
147
0.09
 71
1.0
 72
0.0
 73
1
 74
1
 75
0
 76
0
 77
0
 78
4
170
0
171
2
172
0
173
0
174
0
175
0
176
0
177
0
178
0
270
2
271
2
272
2
273
2
274
2
275
0
280
0
281
0
282
0
283
1
284
4
285
0
286
0
287
3
288
0
340
11
  0
ENDTAB
  0
ENDSEC
  0
SECTION
  2
BLOCKS
  0
BLOCK
  5
20
100
AcDbEntity
  8
0
100
AcDbBlockBegin
  2
*Model_Space
 70
0
 10
0.0
 20
0.0
 30
0.0
  3
*Model_Space
  1

  0
ENDBLK
  5
21
100
AcDbEntity
  8
0
100
AcDbBlockEnd
  0
BLOCK
  5
1C
100
AcDbEntity
  8
0
100
AcDbBlockBegin
  2
*Paper_Space
 70
0
 10
0.0
 20
0.0
 30
0.0
  3
*Paper_Space
  1

  0
ENDBLK
  5
1D
100
AcDbEntity
  8
0
100
AcDbBlockEnd
  0
ENDSEC
  0
SECTION
  2
ENTITIES
  0
LINE
  5
207
100
AcDbEntity
  8
0
100
AcDbLine
 62
6
  6
CONTINUOUS
 10
2.6100294054
 20
1.3173188734
 11
2.6106018245
 21
1.3168236371
  0
LINE
  5
208
100
AcDbEntity
  8
0
100
AcDbLine
 62
6
  6
CONTINUOUS
 10
2.6814624141
 20
1.315038303
 11
2.6820315098
 21
1.3145459371
  0
LINE
  5
209
100
AcDbEntity
  8
0
100
AcDbLine
 62
6
  6
CONTINUOUS
 10
2.7528954215
 20
1.3128295528
 11
2.7534613475
 21
1.3123399241
  0
LINE
  5
20A
100
AcDbEntity
  8
0
100
AcDbLine
 62
6
  6
CONTINUOUS
 10
2.8243290148
 20
1.3105555926
 11
2.8248916184
 21
1.3100688323
  0
LINE
  5
20B
100
AcDbEntity
  8
0
100
AcDbLine
 62
6
  6
CONTINUOUS
 10
2.8957619724
 20
1.308405112
 11
2.8963216567
 21
1.307920872
  0
LINE
  5
20C
100
AcDbEntity
  8
0
100
AcDbLine
 62
6
  6
CONTINUOUS
 10
2.6299887307
 20
1.2832263328
 11
2.6294716167
 21
1.2836818404
  0
LINE
  5
20D
100
AcDbEntity
  8
0
100
AcDbLine
 62
6
  6
CONTINUOUS
 10
2.7008722122
 20
1.2814569687
 11
2.7013871518
 21
1.2810033779
  0
LINE
  5
20E
100
AcDbEntity
  8
0
100
AcDbLine
 62
6
  6
CONTINUOUS
 10
2.7723152095
 20
1.2792305494
 11
2.7728276991
 21
1.2787791114
  0
LINE
  5
20F
100
AcDbEntity
  8
0
100
AcDbLine
 62
6
  6
CONTINUOUS
 10
2.8437208703
 20
1.2770044212
 11
2.8442299464
 21
1.2765560374
  0
LINE
  5
210
100
AcDbEntity
  8
0
100
AcDbLine
 62
6
  6
CONTINUOUS
 10
2.9151982264
 20
1.2747767764
 11
2.9157046075
 21
1.2743307088
  0
LINE
  5
211
100
AcDbEntity
  8
0
100
AcDbLine
 62
6
  6
CONTINUOUS
 10
2.5748421211
 20
1.2858389789
 11
2.5257665872
 21
1.3349145128
  0
LINE
  5
212
100
AcDbEntity
  8
0
100
AcDbLine
 62
6
  6
CONTINUOUS
 10
2.6100294054
 20
1.3173188734
 11
2.6294716155
 21
1.2836818405
  0
LINE
  5
213
100
AcDbEntity
  8
0
100
AcDbLine
 62
6
  6
CONTINUOUS
 10
2.6814624141
 20
1.315038303
 11
2.7008722124
 21
1.2814569687
  0
LINE
  5
214
100
AcDbEntity
  8
0
100
AcDbLine
 62
6
  6
CONTINUOUS
 10
2.9671947362
 20
1.3061316573
 11
2.9677512553
 21
1.3056501516
  0
LINE
  5
215
100
AcDbEntity
  8
0
100
AcDbLine
 62
6
  6
CONTINUOUS
 10
3.0386276445
 20
1.3039249258
 11
3.0391811346
 21
1.3034460362
  0
LINE
  5
216
100
AcDbEntity
  8
0
100
AcDbLine
 62
6
  6
CONTINUOUS
 10
2.9866026405
 20
1.2725520305
 11
2.9871071343
 21
1.272107626
  0
LINE
  5
217
100
AcDbEntity
  8
0
100
AcDbLine
 62
6
  6
CONTINUOUS
 10
3.0580467276
 20
1.2703255905
 11
3.0585487875
 21
1.2698833251
  0
LINE
  5
218
100
AcDbEntity
  8
0
100
AcDbLine
 62
6
  6
CONTINUOUS
 10
2.7528954215
 20
1.3128295528
 11
2.7723152096
 21
1.2792305494
  0
LINE
  5
219
100
AcDbEntity
  8
0
100
AcDbLine
 62
6
  6
CONTINUOUS
 10
2.5575997838
 20
2.096776208
 11
2.5521644213
 21
2.1061784228
  0
LINE
  5
21A
100
AcDbEntity
  8
0
100
AcDbLine
 62
6
  6
CONTINUOUS
 10
2.8243290148
 20
1.3105555926
 11
2.8437208905
 21
1.2770044206
  0
LINE
  5
21B
100
AcDbEntity
  8
0
100
AcDbLine
 62
6
  6
CONTINUOUS
 10
2.8957619724
 20
1.308405112
 11
2.9151982249
 21
1.2747767764
  0
LINE
  5
21C
100
AcDbEntity
  8
0
100
AcDbLine
 62
6
  6
CONTINUOUS
 10
2.9671947362
 20
1.3061316573
 11
2.9866026407
 21
1.2725520305
  0
LINE
  5
21D
100
AcDbEntity
  8
0
100
AcDbLine
 62
6
  6
CONTINUOUS
 10
3.0386276445
 20
1.3039249258
 11
3.0580467277
 21
1.2703255905
  0
LINE
  5
21E
100
AcDbEntity
  8
0
100
AcDbLine
 62
6
  6
CONTINUOUS
 10
2.610071432
 20
2.1313499143
 11
2.6106092665
 21
2.1308929572
  0
LINE
  5
21F
100
AcDbEntity
  8
0
100
AcDbLine
 62
6
  6
CONTINUOUS
 10
2.6820407412
 20
2.1331200045
 11
2.6815063975
 21
2.133574007
  0
LINE
  5
220
100
AcDbEntity
  8
0
100
AcDbLine
 62
6
  6
CONTINUOUS
 10
2.7533740739
 20
2.1353483426
 11
2.752848298
 21
2.1357952022
  0
LINE
  5
221
100
AcDbEntity
  8
0
100
AcDbLine
 62
6
  6
CONTINUOUS
 10
2.8248676084
 20
2.1375721916
 11
2.82433935
 21
2.1380210411
  0
LINE
  5
222
100
AcDbEntity
  8
0
100
AcDbLine
 62
6
  6
CONTINUOUS
 10
2.8963209091
 20
2.139798247
 11
2.8957942238
 21
2.1402457537
  0
LINE
  5
223
100
AcDbEntity
  8
0
100
AcDbLine
 62
6
  6
CONTINUOUS
 10
2.5570258372
 20
2.0972727035
 11
2.5575997838
 21
2.096776208
  0
LINE
  5
224
100
AcDbEntity
  8
0
100
AcDbLine
 62
6
  6
CONTINUOUS
 10
2.6284567666
 20
2.0995240078
 11
2.6290273884
 21
2.0990303847
  0
LINE
  5
225
100
AcDbEntity
  8
0
100
AcDbLine
 62
6
  6
CONTINUOUS
 10
2.6998863775
 20
2.1017566064
 11
2.7004537789
 21
2.101265762
  0
LINE
  5
226
100
AcDbEntity
  8
0
100
AcDbLine
 62
6
  6
CONTINUOUS
 10
2.7713127772
 20
2.1038252148
 11
2.7718776943
 21
2.1033365072
  0
LINE
  5
227
100
AcDbEntity
  8
0
100
AcDbLine
 62
6
  6
CONTINUOUS
 10
2.8427458913
 20
2.1061568673
 11
2.8433070624
 21
2.1056714
  0
LINE
  5
228
100
AcDbEntity
  8
0
100
AcDbLine
 62
6
  6
CONTINUOUS
 10
2.9141764808
 20
2.1084246614
 11
2.9147344553
 21
2.1079419553
  0
LINE
  5
229
100
AcDbEntity
  8
0
100
AcDbLine
 62
6
  6
CONTINUOUS
 10
2.6290273884
 20
2.0990303847
 11
2.6106092665
 21
2.1308929572
  0
LINE
  5
22A
100
AcDbEntity
  8
0
100
AcDbLine
 62
6
  6
CONTINUOUS
 10
2.7004537789
 20
2.101265762
 11
2.6820407413
 21
2.1331200045
  0
LINE
  5
22B
100
AcDbEntity
  8
0
100
AcDbLine
 62
6
  6
CONTINUOUS
 10
2.7718776943
 20
2.1033365072
 11
2.7533740229
 21
2.135348341
  0
LINE
  5
22C
100
AcDbEntity
  8
0
100
AcDbLine
 62
6
  6
CONTINUOUS
 10
2.8433070624
 20
2.1056714
 11
2.8248676082
 21
2.1375721916
  0
LINE
  5
22D
100
AcDbEntity
  8
0
100
AcDbLine
 62
6
  6
CONTINUOUS
 10
2.9147344553
 20
2.1079419553
 11
2.896320909
 21
2.139798247
  0
LINE
  5
22E
100
AcDbEntity
  8
0
100
AcDbLine
 62
6
  6
CONTINUOUS
 10
2.9677485547
 20
2.1420249866
 11
2.9672251404
 21
2.1424697203
  0
LINE
  5
22F
100
AcDbEntity
  8
0
100
AcDbLine
 62
6
  6
CONTINUOUS
 10
2.9856061473
 20
2.1106501366
 11
2.9861610512
 21
2.1101700804
  0
LINE
  5
230
100
AcDbEntity
  8
0
100
AcDbLine
 62
6
  6
CONTINUOUS
 10
2.9861610512
 20
2.1101700804
 11
2.9677485548
 21
2.1420249866
  0
LINE
  5
231
100
AcDbEntity
  8
0
100
AcDbLine
 62
6
  6
CONTINUOUS
 10
2.5257665872
 20
1.3349145128
 11
2.5257665872
 21
2.0802818497
  0
LINE
  5
232
100
AcDbEntity
  8
0
100
AcDbLine
 62
6
  6
CONTINUOUS
 10
3.3737665872
 20
1.2012619952
 11
3.1437665872
 21
1.2012619952
  0
LINE
  5
233
100
AcDbEntity
  8
0
100
AcDbLine
 62
6
  6
CONTINUOUS
 10
3.1337665872
 20
1.2690981812
 11
3.0837665872
 21
1.2690981812
  0
LINE
  5
234
100
AcDbEntity
  8
0
100
AcDbLine
 62
6
  6
CONTINUOUS
 10
3.0213211346
 20
1.3034460362
 11
3.0391811346
 21
1.3034460362
  0
LINE
  5
235
100
AcDbEntity
  8
0
100
AcDbLine
 62
6
  6
CONTINUOUS
 10
2.9498912553
 20
1.3056501516
 11
2.9677512553
 21
1.3056501516
  0
LINE
  5
236
100
AcDbEntity
  8
0
100
AcDbLine
 62
6
  6
CONTINUOUS
 10
2.8784616567
 20
1.307920872
 11
2.8963216567
 21
1.307920872
  0
LINE
  5
237
100
AcDbEntity
  8
0
100
AcDbLine
 62
6
  6
CONTINUOUS
 10
2.8070316184
 20
1.3100688323
 11
2.8248916184
 21
1.3100688323
  0
LINE
  5
238
100
AcDbEntity
  8
0
100
AcDbLine
 62
6
  6
CONTINUOUS
 10
2.7356013475
 20
1.3123399241
 11
2.7534613475
 21
1.3123399241
  0
LINE
  5
239
100
AcDbEntity
  8
0
100
AcDbLine
 62
6
  6
CONTINUOUS
 10
2.6641715098
 20
1.3145459371
 11
2.6820315098
 21
1.3145459371
  0
LINE
  5
23A
100
AcDbEntity
  8
0
100
AcDbLine
 62
6
  6
CONTINUOUS
 10
2.5927418245
 20
1.3168236371
 11
2.6106018245
 21
1.3168236371
  0
LINE
  5
23B
100
AcDbEntity
  8
0
100
AcDbLine
 62
6
  6
CONTINUOUS
 10
4.2037665872
 20
1.3925981812
 11
4.1737665872
 21
1.3925981812
  0
LINE
  5
23C
100
AcDbEntity
  8
0
100
AcDbLine
 62
6
  6
CONTINUOUS
 10
4.1357698768
 20
1.4100981812
 11
4.0220623111
 21
1.4100981812
  0
LINE
  5
23D
100
AcDbEntity
  8
0
100
AcDbLine
 62
6
  6
CONTINUOUS
 10
3.0837665872
 20
1.2690981812
 11
3.0585487875
 21
1.2698833251
  0
LINE
  5
23E
100
AcDbEntity
  8
0
100
AcDbLine
 62
6
  6
CONTINUOUS
 10
3.0029334452
 20
1.2716148816
 11
2.9871071343
 21
1.272107626
  0
LINE
  5
23F
100
AcDbEntity
  8
0
100
AcDbLine
 62
6
  6
CONTINUOUS
 10
2.9315146854
 20
1.2738384697
 11
2.9157046075
 21
1.2743307088
  0
LINE
  5
240
100
AcDbEntity
  8
0
100
AcDbLine
 62
6
  6
CONTINUOUS
 10
2.8600581082
 20
1.2760632353
 11
2.8442299464
 21
1.2765560374
  0
LINE
  5
241
100
AcDbEntity
  8
0
100
AcDbLine
 62
6
  6
CONTINUOUS
 10
2.7886712095
 20
1.2782858315
 11
2.7728276991
 21
1.2787791114
  0
LINE
  5
242
100
AcDbEntity
  8
0
100
AcDbLine
 62
6
  6
CONTINUOUS
 10
2.7172145069
 20
1.280510601
 11
2.7013871518
 21
1.2810033779
  0
LINE
  5
243
100
AcDbEntity
  8
0
100
AcDbLine
 62
6
  6
CONTINUOUS
 10
2.6457946597
 20
1.282734223
 11
2.6299887307
 21
1.2832263328
  0
LINE
  5
244
100
AcDbEntity
  8
0
100
AcDbLine
 62
6
  6
CONTINUOUS
 10
2.5521644216
 20
2.1061784231
 11
2.5517970962
 21
2.1063123587
  0
LINE
  5
245
100
AcDbEntity
  8
0
100
AcDbLine
 62
6
  6
CONTINUOUS
 10
3.5137665872
 20
1.9665981812
 11
3.451585415
 21
1.9903153021
  0
LINE
  5
246
100
AcDbEntity
  8
0
100
AcDbLine
 62
6
  6
CONTINUOUS
 10
3.8887665872
 20
1.4485981812
 11
3.5137665872
 21
1.4485981812
  0
LINE
  5
247
100
AcDbEntity
  8
0
100
AcDbLine
 62
6
  6
CONTINUOUS
 10
3.3737665872
 20
1.4544300882
 11
3.1437665872
 21
1.4544300882
  0
LINE
  5
248
100
AcDbEntity
  8
0
100
AcDbLine
 62
6
  6
CONTINUOUS
 10
4.2037665872
 20
1.4550981812
 11
6.2037665872
 21
1.4550981812
  0
LINE
  5
249
100
AcDbEntity
  8
0
100
AcDbLine
 62
6
  6
CONTINUOUS
 10
3.0837665872
 20
2.1460981812
 11
3.0837665872
 21
1.2690981812
  0
LINE
  5
24A
100
AcDbEntity
  8
0
100
AcDbLine
 62
6
  6
CONTINUOUS
 10
3.1337665872
 20
2.1460981812
 11
3.1337665872
 21
1.3278460417
  0
LINE
  5
24B
100
AcDbEntity
  8
0
100
AcDbLine
 62
6
  6
CONTINUOUS
 10
4.2037665872
 20
1.9600981812
 11
6.2037665872
 21
1.9600981812
  0
LINE
  5
24C
100
AcDbEntity
  8
0
100
AcDbLine
 62
6
  6
CONTINUOUS
 10
3.3737665872
 20
1.9607662743
 11
3.1437665872
 21
1.9607662743
  0
LINE
  5
24D
100
AcDbEntity
  8
0
100
AcDbLine
 62
6
  6
CONTINUOUS
 10
3.8887665872
 20
1.9665981812
 11
3.5137665872
 21
1.9665981812
  0
LINE
  5
24E
100
AcDbEntity
  8
0
100
AcDbLine
 62
6
  6
CONTINUOUS
 10
4.1357698768
 20
2.0050981812
 11
4.0220623111
 21
2.0050981812
  0
LINE
  5
24F
100
AcDbEntity
  8
0
100
AcDbLine
 62
6
  6
CONTINUOUS
 10
4.2037665872
 20
2.0225981812
 11
4.1737665872
 21
2.0225981812
  0
LINE
  5
250
100
AcDbEntity
  8
0
100
AcDbLine
 62
6
  6
CONTINUOUS
 10
3.3837665872
 20
1.3278460416
 11
3.3837665872
 21
2.0873503209
  0
LINE
  5
251
100
AcDbEntity
  8
0
100
AcDbLine
 62
9
  6
CONTINUOUS
 10
3.451585415
 20
1.9903153021
 11
3.451585415
 21
1.4248810604
  0
LINE
  5
252
100
AcDbEntity
  8
0
100
AcDbLine
 62
6
  6
CONTINUOUS
 10
3.5137665872
 20
1.9665981812
 11
3.5137665872
 21
1.4485981812
  0
LINE
  5
253
100
AcDbEntity
  8
0
100
AcDbLine
 62
6
  6
CONTINUOUS
 10
3.0837665872
 20
2.1460981812
 11
3.0228268767
 21
2.1442008532
  0
LINE
  5
254
100
AcDbEntity
  8
0
100
AcDbLine
 62
6
  6
CONTINUOUS
 10
2.9672251404
 20
2.1424697203
 11
2.9513977463
 21
2.1419769421
  0
LINE
  5
255
100
AcDbEntity
  8
0
100
AcDbLine
 62
6
  6
CONTINUOUS
 10
2.8957942238
 20
2.1402457537
 11
2.8799935074
 21
2.1397538061
  0
LINE
  5
256
100
AcDbEntity
  8
0
100
AcDbLine
 62
6
  6
CONTINUOUS
 10
2.82433935
 20
2.1380210411
 11
2.8086267829
 21
2.137531838
  0
LINE
  5
257
100
AcDbEntity
  8
0
100
AcDbLine
 62
6
  6
CONTINUOUS
 10
2.752848298
 20
2.1357952022
 11
2.7371055711
 21
2.1353050601
  0
LINE
  5
258
100
AcDbEntity
  8
0
100
AcDbLine
 62
6
  6
CONTINUOUS
 10
2.6815063975
 20
2.133574007
 11
2.6656806271
 21
2.1330812794
  0
LINE
  5
259
100
AcDbEntity
  8
0
100
AcDbLine
 62
6
  6
CONTINUOUS
 10
2.6100714285
 20
2.1313499142
 11
2.594266659
 21
2.1308578404
  0
LINE
  5
25A
100
AcDbEntity
  8
0
100
AcDbLine
 62
6
  6
CONTINUOUS
 10
2.5748858372
 20
2.0972727035
 11
2.5570258372
 21
2.0972727035
  0
LINE
  5
25B
100
AcDbEntity
  8
0
100
AcDbLine
 62
6
  6
CONTINUOUS
 10
2.6463167666
 20
2.0995240078
 11
2.6284567666
 21
2.0995240078
  0
LINE
  5
25C
100
AcDbEntity
  8
0
100
AcDbLine
 62
6
  6
CONTINUOUS
 10
2.7177463775
 20
2.1017566064
 11
2.6998863775
 21
2.1017566064
  0
LINE
  5
25D
100
AcDbEntity
  8
0
100
AcDbLine
 62
6
  6
CONTINUOUS
 10
2.7891727772
 20
2.1038252148
 11
2.7713127772
 21
2.1038252148
  0
LINE
  5
25E
100
AcDbEntity
  8
0
100
AcDbLine
 62
6
  6
CONTINUOUS
 10
2.8606058913
 20
2.1061568673
 11
2.8427458913
 21
2.1061568673
  0
LINE
  5
25F
100
AcDbEntity
  8
0
100
AcDbLine
 62
6
  6
CONTINUOUS
 10
2.9320364808
 20
2.1084246614
 11
2.9141764808
 21
2.1084246614
  0
LINE
  5
260
100
AcDbEntity
  8
0
100
AcDbLine
 62
6
  6
CONTINUOUS
 10
3.0034661473
 20
2.1106501366
 11
2.9856061473
 21
2.1106501366
  0
LINE
  5
261
100
AcDbEntity
  8
0
100
AcDbLine
 62
6
  6
CONTINUOUS
 10
3.1337665872
 20
2.1460981812
 11
3.0837665872
 21
2.1460981812
  0
LINE
  5
262
100
AcDbEntity
  8
0
100
AcDbLine
 62
6
  6
CONTINUOUS
 10
3.3737665872
 20
2.2139343673
 11
3.1437665872
 21
2.2139343673
  0
LINE
  5
263
100
AcDbEntity
  8
0
100
AcDbLine
 62
6
  6
CONTINUOUS
 10
3.8887665872
 20
1.9665981812
 11
3.8887665872
 21
1.4485981812
  0
LINE
  5
264
100
AcDbEntity
  8
0
100
AcDbLine
 62
9
  6
CONTINUOUS
 10
4.0220623111
 20
2.0050981812
 11
4.0220623111
 21
1.4100981812
  0
LINE
  5
265
100
AcDbEntity
  8
0
100
AcDbLine
 62
9
  6
CONTINUOUS
 10
4.1357698768
 20
2.0050981812
 11
4.1357698768
 21
1.4100981812
  0
LINE
  5
266
100
AcDbEntity
  8
0
100
AcDbLine
 62
6
  6
CONTINUOUS
 10
4.1737665872
 20
2.0225981812
 11
4.1737665872
 21
1.3925981812
  0
LINE
  5
267
100
AcDbEntity
  8
0
100
AcDbLine
 62
6
  6
CONTINUOUS
 10
4.2037665872
 20
2.0225981812
 11
4.2037665872
 21
1.3925981812
  0
LINE
  5
268
100
AcDbEntity
  8
0
100
AcDbLine
 62
6
  6
CONTINUOUS
 10
2.5937463196
 20
2.1303994611
 11
2.5743117924
 21
2.0967760664
  0
LINE
  5
269
100
AcDbEntity
  8
0
100
AcDbLine
 62
6
  6
CONTINUOUS
 10
2.6651648084
 20
2.1326269164
 11
2.6457460387
 21
2.0990302319
  0
LINE
  5
26A
100
AcDbEntity
  8
0
100
AcDbLine
 62
6
  6
CONTINUOUS
 10
8.2134872794
 20
7.7013353631
 11
8.1798502464
 21
7.681893153
  0
LINE
  5
26B
100
AcDbEntity
  8
0
100
AcDbLine
 62
6
  6
CONTINUOUS
 10
8.211206709
 20
7.6299023543
 11
8.1776253747
 21
7.610492556
  0
LINE
  5
26C
100
AcDbEntity
  8
0
100
AcDbLine
 62
6
  6
CONTINUOUS
 10
2.7365917421
 20
2.1348524449
 11
2.7171788756
 21
2.1012656171
  0
LINE
  5
26D
100
AcDbEntity
  8
0
100
AcDbLine
 62
6
  6
CONTINUOUS
 10
2.8081085567
 20
2.1370751807
 11
2.7886077809
 21
2.1033363972
  0
LINE
  5
26E
100
AcDbEntity
  8
0
100
AcDbLine
 62
6
  6
CONTINUOUS
 10
2.8794843345
 20
2.1393052774
 11
2.8600446257
 21
2.105671264
  0
LINE
  5
26F
100
AcDbEntity
  8
0
100
AcDbLine
 62
6
  6
CONTINUOUS
 10
2.9508923744
 20
2.1415317662
 11
2.9314784077
 21
2.1079418132
  0
LINE
  5
270
100
AcDbEntity
  8
0
100
AcDbLine
 62
6
  6
CONTINUOUS
 10
3.0223234878
 20
2.1437574195
 11
3.0029111493
 21
2.1101699449
  0
LINE
  5
271
100
AcDbEntity
  8
0
100
AcDbLine
 62
6
  6
CONTINUOUS
 10
2.5751906381
 20
1.2859661003
 11
2.5933141359
 21
1.3173187183
  0
LINE
  5
272
100
AcDbEntity
  8
0
100
AcDbLine
 62
6
  6
CONTINUOUS
 10
8.2089979588
 20
7.558469347
 11
8.1753989554
 21
7.5390495589
  0
LINE
  5
273
100
AcDbEntity
  8
0
100
AcDbLine
 62
6
  6
CONTINUOUS
 10
8.9929446139
 20
7.7537649846
 11
9.0023468288
 21
7.7592003471
  0
LINE
  5
274
100
AcDbEntity
  8
0
100
AcDbLine
 62
6
  6
CONTINUOUS
 10
8.2067239986
 20
7.4870357537
 11
8.1731728266
 21
7.467643878
  0
LINE
  5
275
100
AcDbEntity
  8
0
100
AcDbLine
 62
6
  6
CONTINUOUS
 10
8.204573518
 20
7.415602796
 11
8.1709451824
 21
7.3961665435
  0
LINE
  5
276
100
AcDbEntity
  8
0
100
AcDbLine
 62
6
  6
CONTINUOUS
 10
8.2023000633
 20
7.3441700323
 11
8.1687204364
 21
7.3247621277
  0
LINE
  5
277
100
AcDbEntity
  8
0
100
AcDbLine
 62
6
  6
CONTINUOUS
 10
8.2000933318
 20
7.2727371239
 11
8.1664939965
 21
7.2533180408
  0
LINE
  5
278
100
AcDbEntity
  8
0
100
AcDbLine
 62
6
  6
CONTINUOUS
 10
2.6463306236
 20
1.2831895988
 11
2.6647405029
 21
1.3150381551
  0
LINE
  5
279
100
AcDbEntity
  8
0
100
AcDbLine
 62
6
  6
CONTINUOUS
 10
2.7177474734
 20
1.2809634363
 11
2.7361671738
 21
1.3128294089
  0
LINE
  5
27A
100
AcDbEntity
  8
0
100
AcDbLine
 62
6
  6
CONTINUOUS
 10
2.7892019725
 20
1.2787367626
 11
2.8075941235
 21
1.3105554497
  0
LINE
  5
27B
100
AcDbEntity
  8
0
100
AcDbLine
 62
6
  6
CONTINUOUS
 10
2.8605864554
 20
1.276512155
 11
2.8790212396
 21
1.3084049661
  0
LINE
  5
27C
100
AcDbEntity
  8
0
100
AcDbLine
 62
6
  6
CONTINUOUS
 10
8.9951987907
 20
7.68233738
 11
9.0270613632
 21
7.7007555019
  0
LINE
  5
27D
100
AcDbEntity
  8
0
100
AcDbLine
 62
6
  6
CONTINUOUS
 10
8.997434168
 20
7.6109109896
 11
9.0292884105
 21
7.6293240271
  0
LINE
  5
27E
100
AcDbEntity
  8
0
100
AcDbLine
 62
6
  6
CONTINUOUS
 10
8.9995049132
 20
7.5394870742
 11
9.0315167469
 21
7.5579907455
  0
LINE
  5
27F
100
AcDbEntity
  8
0
100
AcDbLine
 62
6
  6
CONTINUOUS
 10
9.001839806
 20
7.4680577061
 11
9.0337405976
 21
7.4864971602
  0
LINE
  5
280
100
AcDbEntity
  8
0
100
AcDbLine
 62
6
  6
CONTINUOUS
 10
9.0041103613
 20
7.3966303132
 11
9.035966653
 21
7.4150438594
  0
LINE
  5
281
100
AcDbEntity
  8
0
100
AcDbLine
 62
6
  6
CONTINUOUS
 10
2.9320396154
 20
1.2742844882
 11
2.9504476788
 21
1.3061315194
  0
LINE
  5
282
100
AcDbEntity
  8
0
100
AcDbLine
 62
6
  6
CONTINUOUS
 10
3.0034555813
 20
1.272058532
 11
3.0218745312
 21
1.303924791
  0
LINE
  5
283
100
AcDbEntity
  8
0
100
AcDbLine
 62
6
  6
CONTINUOUS
 10
8.2310829187
 20
7.7855981812
 11
8.1820073849
 21
7.7365226474
  0
LINE
  5
284
100
AcDbEntity
  8
0
100
AcDbLine
 62
6
  6
CONTINUOUS
 10
2.5517970962
 20
2.1063123587
 11
2.5257665872
 21
2.0802818497
  0
LINE
  5
285
100
AcDbEntity
  8
0
100
AcDbLine
 62
6
  6
CONTINUOUS
 10
9.0063384864
 20
7.3252037172
 11
9.0381933926
 21
7.3436162137
  0
LINE
  5
286
100
AcDbEntity
  8
0
100
AcDbLine
 62
6
  6
CONTINUOUS
 10
8.2134872794
 20
7.7013353631
 11
8.212992043
 21
7.700762944
  0
LINE
  5
287
100
AcDbEntity
  8
0
100
AcDbLine
 62
6
  6
CONTINUOUS
 10
8.1793947388
 20
7.6813760378
 11
8.1798502464
 21
7.6818931518
  0
LINE
  5
288
100
AcDbEntity
  8
0
100
AcDbLine
 62
6
  6
CONTINUOUS
 10
8.1776253747
 20
7.6104925563
 11
8.1771717839
 21
7.6099776167
  0
LINE
  5
289
100
AcDbEntity
  8
0
100
AcDbLine
 62
6
  6
CONTINUOUS
 10
2.59426666
 20
2.1308578404
 11
2.5937463194
 21
2.1303994611
  0
LINE
  5
28A
100
AcDbEntity
  8
0
100
AcDbLine
 62
6
  6
CONTINUOUS
 10
2.5743117924
 20
2.0967760664
 11
2.5748858372
 21
2.0972727035
  0
LINE
  5
28B
100
AcDbEntity
  8
0
100
AcDbLine
 62
6
  6
CONTINUOUS
 10
8.211206709
 20
7.6299023543
 11
8.2107143431
 21
7.6293332586
  0
LINE
  5
28C
100
AcDbEntity
  8
0
100
AcDbLine
 62
6
  6
CONTINUOUS
 10
8.2089979588
 20
7.558469347
 11
8.2085083301
 21
7.5579034209
  0
LINE
  5
28D
100
AcDbEntity
  8
0
100
AcDbLine
 62
6
  6
CONTINUOUS
 10
8.2067239986
 20
7.4870357537
 11
8.2062372383
 21
7.4864731501
  0
LINE
  5
28E
100
AcDbEntity
  8
0
100
AcDbLine
 62
6
  6
CONTINUOUS
 10
8.204573518
 20
7.415602796
 11
8.204089278
 21
7.4150431118
  0
LINE
  5
28F
100
AcDbEntity
  8
0
100
AcDbLine
 62
6
  6
CONTINUOUS
 10
8.2023000633
 20
7.3441700323
 11
8.2018185576
 21
7.3436135132
  0
LINE
  5
290
100
AcDbEntity
  8
0
100
AcDbLine
 62
6
  6
CONTINUOUS
 10
8.2000933318
 20
7.2727371239
 11
8.1996144422
 21
7.2721836339
  0
LINE
  5
291
100
AcDbEntity
  8
0
100
AcDbLine
 62
6
  6
CONTINUOUS
 10
8.1753989554
 20
7.539049559
 11
8.1749475174
 21
7.5385370693
  0
LINE
  5
292
100
AcDbEntity
  8
0
100
AcDbLine
 62
6
  6
CONTINUOUS
 10
8.1731728272
 20
7.4676438982
 11
8.1727244434
 21
7.4671348221
  0
LINE
  5
293
100
AcDbEntity
  8
0
100
AcDbLine
 62
6
  6
CONTINUOUS
 10
8.1709451824
 20
7.396166542
 11
8.1704991148
 21
7.395660161
  0
LINE
  5
294
100
AcDbEntity
  8
0
100
AcDbLine
 62
6
  6
CONTINUOUS
 10
8.1687204364
 20
7.324762128
 11
8.168276032
 21
7.3242576341
  0
LINE
  5
295
100
AcDbEntity
  8
0
100
AcDbLine
 62
6
  6
CONTINUOUS
 10
8.1664939965
 20
7.2533180409
 11
8.1660517311
 21
7.252815981
  0
LINE
  5
296
100
AcDbEntity
  8
0
100
AcDbLine
 62
6
  6
CONTINUOUS
 10
2.6457460387
 20
2.0990302319
 11
2.6463167666
 21
2.0995240078
  0
LINE
  5
297
100
AcDbEntity
  8
0
100
AcDbLine
 62
6
  6
CONTINUOUS
 10
2.7171788756
 20
2.1012656171
 11
2.7177463775
 21
2.1017566064
  0
LINE
  5
298
100
AcDbEntity
  8
0
100
AcDbLine
 62
6
  6
CONTINUOUS
 10
2.7886077809
 20
2.1033363972
 11
2.7891727772
 21
2.1038252148
  0
LINE
  5
299
100
AcDbEntity
  8
0
100
AcDbLine
 62
6
  6
CONTINUOUS
 10
2.8600446257
 20
2.105671264
 11
2.8606058913
 21
2.1061568673
  0
LINE
  5
29A
100
AcDbEntity
  8
0
100
AcDbLine
 62
6
  6
CONTINUOUS
 10
2.9314784077
 20
2.1079418132
 11
2.9320364808
 21
2.1084246614
  0
LINE
  5
29B
100
AcDbEntity
  8
0
100
AcDbLine
 62
6
  6
CONTINUOUS
 10
3.0029111493
 20
2.1101699449
 11
3.0034661473
 21
2.1106501366
  0
LINE
  5
29C
100
AcDbEntity
  8
0
100
AcDbLine
 62
6
  6
CONTINUOUS
 10
8.9934411095
 20
7.7543389312
 11
8.9929446139
 21
7.7537649846
  0
LINE
  5
29D
100
AcDbEntity
  8
0
100
AcDbLine
 62
6
  6
CONTINUOUS
 10
8.9956924138
 20
7.6829080019
 11
8.9951987907
 21
7.68233738
  0
LINE
  5
29E
100
AcDbEntity
  8
0
100
AcDbLine
 62
6
  6
CONTINUOUS
 10
2.5927418245
 20
1.3168236371
 11
2.5933141359
 21
1.3173187183
  0
LINE
  5
29F
100
AcDbEntity
  8
0
100
AcDbLine
 62
6
  6
CONTINUOUS
 10
2.6641715098
 20
1.3145459371
 11
2.6647405029
 21
1.3150381551
  0
LINE
  5
2A0
100
AcDbEntity
  8
0
100
AcDbLine
 62
9
  6
CONTINUOUS
 10
6.2037665859
 20
1.4550981812
 11
6.203766586
 21
1.9600981812
  0
LINE
  5
2A1
100
AcDbEntity
  8
0
100
AcDbLine
 62
6
  6
CONTINUOUS
 10
9.0275183203
 20
7.7012933364
 11
9.0270613632
 21
7.7007555019
  0
LINE
  5
2A2
100
AcDbEntity
  8
0
100
AcDbLine
 62
6
  6
CONTINUOUS
 10
9.0292884105
 20
7.6293240272
 11
9.029742413
 21
7.629858371
  0
LINE
  5
2A3
100
AcDbEntity
  8
0
100
AcDbLine
 62
6
  6
CONTINUOUS
 10
9.0315167486
 20
7.5579906946
 11
9.0319636082
 21
7.5585164704
  0
LINE
  5
2A4
100
AcDbEntity
  8
0
100
AcDbLine
 62
6
  6
CONTINUOUS
 10
9.0337405976
 20
7.4864971601
 11
9.0341894471
 21
7.4870254185
  0
LINE
  5
2A5
100
AcDbEntity
  8
0
100
AcDbLine
 62
6
  6
CONTINUOUS
 10
9.035966653
 20
7.4150438594
 11
9.0364141596
 21
7.4155705446
  0
LINE
  5
2A6
100
AcDbEntity
  8
0
100
AcDbLine
 62
6
  6
CONTINUOUS
 10
9.0381933926
 20
7.3436162138
 11
9.0386381263
 21
7.344139628
  0
LINE
  5
2A7
100
AcDbEntity
  8
0
100
AcDbLine
 62
6
  6
CONTINUOUS
 10
8.9979250124
 20
7.6114783909
 11
8.997434168
 21
7.6109109896
  0
LINE
  5
2A8
100
AcDbEntity
  8
0
100
AcDbLine
 62
6
  6
CONTINUOUS
 10
8.9999936208
 20
7.5400519913
 11
8.9995049132
 21
7.5394870742
  0
LINE
  5
2A9
100
AcDbEntity
  8
0
100
AcDbLine
 62
6
  6
CONTINUOUS
 10
9.0023252733
 20
7.4686188772
 11
9.001839806
 21
7.4680577061
  0
LINE
  5
2AA
100
AcDbEntity
  8
0
100
AcDbLine
 62
6
  6
CONTINUOUS
 10
9.0045930674
 20
7.3971882877
 11
9.0041103613
 21
7.3966303132
  0
LINE
  5
2AB
100
AcDbEntity
  8
0
100
AcDbLine
 62
6
  6
CONTINUOUS
 10
9.0068185426
 20
7.3257586212
 11
9.0063384864
 21
7.3252037172
  0
LINE
  5
2AC
100
AcDbEntity
  8
0
100
AcDbLine
 62
6
  6
CONTINUOUS
 10
2.7356013475
 20
1.3123399241
 11
2.7361671738
 21
1.3128294089
  0
LINE
  5
2AD
100
AcDbEntity
  8
0
100
AcDbLine
 62
6
  6
CONTINUOUS
 10
2.8070316184
 20
1.3100688323
 11
2.8075941235
 21
1.3105554497
  0
LINE
  5
2AE
100
AcDbEntity
  8
0
100
AcDbLine
 62
6
  6
CONTINUOUS
 10
2.8784616567
 20
1.307920872
 11
2.8790212396
 21
1.3084049661
  0
LINE
  5
2AF
100
AcDbEntity
  8
0
100
AcDbLine
 62
6
  6
CONTINUOUS
 10
2.9498912553
 20
1.3056501516
 11
2.9504476788
 21
1.3061315194
  0
LINE
  5
2B0
100
AcDbEntity
  8
0
100
AcDbLine
 62
6
  6
CONTINUOUS
 10
3.0213211346
 20
1.3034460362
 11
3.0218745312
 21
1.303924791
  0
LINE
  5
2B1
100
AcDbEntity
  8
0
100
AcDbLine
 62
6
  6
CONTINUOUS
 10
9.0023468291
 20
7.7592003469
 11
9.0024807647
 21
7.7595676722
  0
LINE
  5
2B2
100
AcDbEntity
  8
0
100
AcDbLine
 62
6
  6
CONTINUOUS
 10
8.9187665872
 20
6.1075981812
 11
8.2887665872
 21
6.1075981812
  0
LINE
  5
2B3
100
AcDbEntity
  8
0
100
AcDbLine
 62
6
  6
CONTINUOUS
 10
8.9187665872
 20
6.1375981812
 11
8.2887665872
 21
6.1375981812
  0
LINE
  5
2B4
100
AcDbEntity
  8
0
100
AcDbLine
 62
9
  6
CONTINUOUS
 10
8.9012665872
 20
6.1755948916
 11
8.3062665872
 21
6.1755948916
  0
LINE
  5
2B5
100
AcDbEntity
  8
0
100
AcDbLine
 62
9
  6
CONTINUOUS
 10
8.9012665872
 20
6.2893024574
 11
8.3062665872
 21
6.2893024574
  0
LINE
  5
2B6
100
AcDbEntity
  8
0
100
AcDbLine
 62
6
  6
CONTINUOUS
 10
8.886483708
 20
6.8597793535
 11
8.8627665872
 21
6.7975981812
  0
LINE
  5
2B7
100
AcDbEntity
  8
0
100
AcDbLine
 62
6
  6
CONTINUOUS
 10
3.5137665872
 20
1.4485981812
 11
3.451585415
 21
1.4248810604
  0
LINE
  5
2B8
100
AcDbEntity
  8
0
100
AcDbLine
 62
6
  6
CONTINUOUS
 10
8.8627665872
 20
6.4225981812
 11
8.3447665872
 21
6.4225981812
  0
LINE
  5
2B9
100
AcDbEntity
  8
0
100
AcDbLine
 62
6
  6
CONTINUOUS
 10
8.0974304011
 20
6.9375981812
 11
8.0974304011
 21
7.1675981812
  0
LINE
  5
2BA
100
AcDbEntity
  8
0
100
AcDbLine
 62
6
  6
CONTINUOUS
 10
8.1652665872
 20
7.2275981812
 11
8.1652665872
 21
7.1775981812
  0
LINE
  5
2BB
100
AcDbEntity
  8
0
100
AcDbLine
 62
6
  6
CONTINUOUS
 10
8.1996144422
 20
7.2900436339
 11
8.1996144422
 21
7.2721836339
  0
LINE
  5
2BC
100
AcDbEntity
  8
0
100
AcDbLine
 62
6
  6
CONTINUOUS
 10
8.2018185576
 20
7.3614735132
 11
8.2018185576
 21
7.3436135132
  0
LINE
  5
2BD
100
AcDbEntity
  8
0
100
AcDbLine
 62
6
  6
CONTINUOUS
 10
8.204089278
 20
7.4329031118
 11
8.204089278
 21
7.4150431118
  0
LINE
  5
2BE
100
AcDbEntity
  8
0
100
AcDbLine
 62
6
  6
CONTINUOUS
 10
8.2062372383
 20
7.5043331501
 11
8.2062372383
 21
7.4864731501
  0
LINE
  5
2BF
100
AcDbEntity
  8
0
100
AcDbLine
 62
6
  6
CONTINUOUS
 10
8.2085083301
 20
7.5757634209
 11
8.2085083301
 21
7.5579034209
  0
LINE
  5
2C0
100
AcDbEntity
  8
0
100
AcDbLine
 62
6
  6
CONTINUOUS
 10
8.2107143431
 20
7.6471932586
 11
8.2107143431
 21
7.6293332586
  0
LINE
  5
2C1
100
AcDbEntity
  8
0
100
AcDbLine
 62
6
  6
CONTINUOUS
 10
8.212992043
 20
7.718622944
 11
8.212992043
 21
7.700762944
  0
LINE
  5
2C2
100
AcDbEntity
  8
0
100
AcDbLine
 62
6
  6
CONTINUOUS
 10
8.2887665872
 20
6.1375981812
 11
8.2887665872
 21
6.1075981812
  0
LINE
  5
2C3
100
AcDbEntity
  8
0
100
AcDbLine
 62
6
  6
CONTINUOUS
 10
8.3062665872
 20
6.2893024574
 11
8.3062665872
 21
6.1755948916
  0
LINE
  5
2C4
100
AcDbEntity
  8
0
100
AcDbLine
 62
6
  6
CONTINUOUS
 10
8.1793947388
 20
7.6813760378
 11
8.178902629
 21
7.6655701088
  0
LINE
  5
2C5
100
AcDbEntity
  8
0
100
AcDbLine
 62
6
  6
CONTINUOUS
 10
8.1771717839
 20
7.6099776167
 11
8.176679007
 21
7.5941502616
  0
LINE
  5
2C6
100
AcDbEntity
  8
0
100
AcDbLine
 62
6
  6
CONTINUOUS
 10
8.1749475174
 20
7.5385370693
 11
8.1744542375
 21
7.522693559
  0
LINE
  5
2C7
100
AcDbEntity
  8
0
100
AcDbLine
 62
6
  6
CONTINUOUS
 10
8.1727244434
 20
7.4671348221
 11
8.1722316413
 21
7.4513066603
  0
LINE
  5
2C8
100
AcDbEntity
  8
0
100
AcDbLine
 62
6
  6
CONTINUOUS
 10
8.1704991148
 20
7.395660161
 11
8.1700068757
 21
7.3798500831
  0
LINE
  5
2C9
100
AcDbEntity
  8
0
100
AcDbLine
 62
6
  6
CONTINUOUS
 10
8.168276032
 20
7.3242576341
 11
8.1677832876
 21
7.3084313232
  0
LINE
  5
2CA
100
AcDbEntity
  8
0
100
AcDbLine
 62
6
  6
CONTINUOUS
 10
8.1660517311
 20
7.252815981
 11
8.1652665872
 21
7.2275981812
  0
LINE
  5
2CB
100
AcDbEntity
  8
0
100
AcDbLine
 62
6
  6
CONTINUOUS
 10
8.8627665872
 20
6.7975981812
 11
8.3447665872
 21
6.7975981812
  0
LINE
  5
2CC
100
AcDbEntity
  8
0
100
AcDbLine
 62
9
  6
CONTINUOUS
 10
8.886483708
 20
6.8597793535
 11
8.3210494664
 21
6.8597793535
  0
LINE
  5
2CD
100
AcDbEntity
  8
0
100
AcDbLine
 62
6
  6
CONTINUOUS
 10
8.2240144476
 20
6.9275981812
 11
8.9835187269
 21
6.9275981812
  0
LINE
  5
2CE
100
AcDbEntity
  8
0
100
AcDbLine
 62
6
  6
CONTINUOUS
 10
8.3447665872
 20
6.7975981812
 11
8.3447665872
 21
6.4225981812
  0
LINE
  5
2CF
100
AcDbEntity
  8
0
100
AcDbLine
 62
6
  6
CONTINUOUS
 10
8.3505984942
 20
6.9375981812
 11
8.3505984942
 21
7.1675981812
  0
LINE
  5
2D0
100
AcDbEntity
  8
0
100
AcDbLine
 62
6
  6
CONTINUOUS
 10
8.3512665872
 20
5.6633713723
 11
8.3512665872
 21
6.1075981812
  0
LINE
  5
2D1
100
AcDbEntity
  8
0
100
AcDbLine
 62
6
  6
CONTINUOUS
 10
9.0422665872
 20
7.1775981812
 11
8.2240144477
 21
7.1775981812
  0
LINE
  5
2D2
100
AcDbEntity
  8
0
100
AcDbLine
 62
6
  6
CONTINUOUS
 10
9.0422665872
 20
7.2275981812
 11
8.1652665872
 21
7.2275981812
  0
LINE
  5
2D3
100
AcDbEntity
  8
0
100
AcDbLine
 62
6
  6
CONTINUOUS
 10
8.8562665872
 20
4.1075981812
 11
8.8562665872
 21
6.1075981812
  0
LINE
  5
2D4
100
AcDbEntity
  8
0
100
AcDbLine
 62
6
  6
CONTINUOUS
 10
8.8569346803
 20
6.9375981812
 11
8.8569346803
 21
7.1675981812
  0
LINE
  5
2D5
100
AcDbEntity
  8
0
100
AcDbLine
 62
6
  6
CONTINUOUS
 10
8.8627665872
 20
6.7975981812
 11
8.8627665872
 21
6.4225981812
  0
LINE
  5
2D6
100
AcDbEntity
  8
0
100
AcDbLine
 62
6
  6
CONTINUOUS
 10
8.9012665872
 20
6.2893024574
 11
8.9012665872
 21
6.1755948916
  0
LINE
  5
2D7
100
AcDbEntity
  8
0
100
AcDbLine
 62
6
  6
CONTINUOUS
 10
8.9187665872
 20
6.1375981812
 11
8.9187665872
 21
6.1075981812
  0
LINE
  5
2D8
100
AcDbEntity
  8
0
100
AcDbLine
 62
6
  6
CONTINUOUS
 10
9.0292496854
 20
7.6456841414
 11
9.029742413
 21
7.629858371
  0
LINE
  5
2D9
100
AcDbEntity
  8
0
100
AcDbLine
 62
6
  6
CONTINUOUS
 10
9.0314734661
 20
7.5742591974
 11
9.0319636082
 21
7.5585164704
  0
LINE
  5
2DA
100
AcDbEntity
  8
0
100
AcDbLine
 62
6
  6
CONTINUOUS
 10
9.033700244
 20
7.5027379855
 11
9.0341894471
 21
7.4870254185
  0
LINE
  5
2DB
100
AcDbEntity
  8
0
100
AcDbLine
 62
6
  6
CONTINUOUS
 10
9.0359222121
 20
7.4313712611
 11
9.0364141596
 21
7.4155705446
  0
LINE
  5
2DC
100
AcDbEntity
  8
0
100
AcDbLine
 62
6
  6
CONTINUOUS
 10
9.0381453481
 20
7.3599670221
 11
9.0386381263
 21
7.344139628
  0
LINE
  5
2DD
100
AcDbEntity
  8
0
100
AcDbLine
 62
6
  6
CONTINUOUS
 10
9.0403692591
 20
7.2885378918
 11
9.0422665872
 21
7.2275981812
  0
LINE
  5
2DE
100
AcDbEntity
  8
0
100
AcDbLine
 62
6
  6
CONTINUOUS
 10
9.0275183202
 20
7.70129334
 11
9.0270262464
 21
7.7170981095
  0
LINE
  5
2DF
100
AcDbEntity
  8
0
100
AcDbLine
 62
6
  6
CONTINUOUS
 10
8.9934411095
 20
7.7364789312
 11
8.9934411095
 21
7.7543389312
  0
LINE
  5
2E0
100
AcDbEntity
  8
0
100
AcDbLine
 62
6
  6
CONTINUOUS
 10
8.9956924138
 20
7.6650480019
 11
8.9956924138
 21
7.6829080019
  0
LINE
  5
2E1
100
AcDbEntity
  8
0
100
AcDbLine
 62
6
  6
CONTINUOUS
 10
8.9979250124
 20
7.5936183909
 11
8.9979250124
 21
7.6114783909
  0
LINE
  5
2E2
100
AcDbEntity
  8
0
100
AcDbLine
 62
6
  6
CONTINUOUS
 10
8.9999936208
 20
7.5221919913
 11
8.9999936208
 21
7.5400519913
  0
LINE
  5
2E3
100
AcDbEntity
  8
0
100
AcDbLine
 62
6
  6
CONTINUOUS
 10
9.0023252733
 20
7.4507588772
 11
9.0023252733
 21
7.4686188772
  0
LINE
  5
2E4
100
AcDbEntity
  8
0
100
AcDbLine
 62
6
  6
CONTINUOUS
 10
9.0045930674
 20
7.3793282877
 11
9.0045930674
 21
7.3971882877
  0
LINE
  5
2E5
100
AcDbEntity
  8
0
100
AcDbLine
 62
6
  6
CONTINUOUS
 10
9.0068185426
 20
7.3078986212
 11
9.0068185426
 21
7.3257586212
  0
LINE
  5
2E6
100
AcDbEntity
  8
0
100
AcDbLine
 62
6
  6
CONTINUOUS
 10
9.0422665872
 20
7.2275981812
 11
9.0422665872
 21
7.1775981812
  0
LINE
  5
2E7
100
AcDbEntity
  8
0
100
AcDbLine
 62
6
  6
CONTINUOUS
 10
9.1101027733
 20
6.9375981812
 11
9.1101027733
 21
7.1675981812
  0
LINE
  5
2E8
100
AcDbEntity
  8
0
100
AcDbLine
 62
6
  6
CONTINUOUS
 10
8.2310829187
 20
7.7855981812
 11
8.9764502557
 21
7.7855981812
  0
LINE
  5
2E9
100
AcDbEntity
  8
0
100
AcDbLine
 62
6
  6
CONTINUOUS
 10
8.3210494664
 20
6.8597793535
 11
8.3447665872
 21
6.7975981812
  0
LINE
  5
2EA
100
AcDbEntity
  8
0
100
AcDbLine
 62
6
  6
CONTINUOUS
 10
8.1682269379
 20
7.3079091871
 11
8.200093197
 21
7.2894902373
  0
LINE
  5
2EB
100
AcDbEntity
  8
0
100
AcDbLine
 62
6
  6
CONTINUOUS
 10
8.1704528942
 20
7.3793251531
 11
8.2022999254
 21
7.3609170897
  0
LINE
  5
2EC
100
AcDbEntity
  8
0
100
AcDbLine
 62
6
  6
CONTINUOUS
 10
8.172680561
 20
7.450778313
 11
8.2045733721
 21
7.4323435289
  0
LINE
  5
2ED
100
AcDbEntity
  8
0
100
AcDbLine
 62
6
  6
CONTINUOUS
 10
8.1996144422
 20
7.2900436339
 11
8.200093197
 21
7.2894902373
  0
LINE
  5
2EE
100
AcDbEntity
  8
0
100
AcDbLine
 62
6
  6
CONTINUOUS
 10
8.2018185576
 20
7.3614735132
 11
8.2022999254
 21
7.3609170897
  0
LINE
  5
2EF
100
AcDbEntity
  8
0
100
AcDbLine
 62
6
  6
CONTINUOUS
 10
8.204089278
 20
7.4329031118
 11
8.2045733721
 21
7.4323435289
  0
LINE
  5
2F0
100
AcDbEntity
  8
0
100
AcDbLine
 62
6
  6
CONTINUOUS
 10
8.1749051686
 20
7.522162796
 11
8.2067238557
 21
7.503770645
  0
LINE
  5
2F1
100
AcDbEntity
  8
0
100
AcDbLine
 62
6
  6
CONTINUOUS
 10
8.1771318423
 20
7.593617295
 11
8.2089978149
 21
7.5751975947
  0
LINE
  5
2F2
100
AcDbEntity
  8
0
100
AcDbLine
 62
6
  6
CONTINUOUS
 10
8.1793580048
 20
7.6650341448
 11
8.2112065611
 21
7.6466242655
  0
LINE
  5
2F3
100
AcDbEntity
  8
0
100
AcDbLine
 62
6
  6
CONTINUOUS
 10
8.1821345063
 20
7.7361741304
 11
8.2134871243
 21
7.7180506325
  0
LINE
  5
2F4
100
AcDbEntity
  8
0
100
AcDbLine
 62
6
  6
CONTINUOUS
 10
9.0399258255
 20
7.2890412807
 11
9.0063383509
 21
7.3084536192
  0
LINE
  5
2F5
100
AcDbEntity
  8
0
100
AcDbLine
 62
6
  6
CONTINUOUS
 10
8.2062372383
 20
7.5043331501
 11
8.2067238557
 21
7.503770645
  0
LINE
  5
2F6
100
AcDbEntity
  8
0
100
AcDbLine
 62
6
  6
CONTINUOUS
 10
8.2085083301
 20
7.5757634209
 11
8.2089978149
 21
7.5751975947
  0
LINE
  5
2F7
100
AcDbEntity
  8
0
100
AcDbLine
 62
6
  6
CONTINUOUS
 10
8.2107143431
 20
7.6471932586
 11
8.2112065611
 21
7.6466242655
  0
LINE
  5
2F8
100
AcDbEntity
  8
0
100
AcDbLine
 62
6
  6
CONTINUOUS
 10
8.212992043
 20
7.718622944
 11
8.2134871243
 21
7.7180506325
  0
LINE
  5
2F9
100
AcDbEntity
  8
0
100
AcDbLine
 62
6
  6
CONTINUOUS
 10
9.0377001722
 20
7.360472394
 11
9.0041102192
 21
7.3798863608
  0
LINE
  5
2FA
100
AcDbEntity
  8
0
100
AcDbLine
 62
6
  6
CONTINUOUS
 10
9.0354736834
 20
7.431880434
 11
9.00183967
 21
7.4513201428
  0
LINE
  5
2FB
100
AcDbEntity
  8
0
100
AcDbLine
 62
6
  6
CONTINUOUS
 10
9.0332435867
 20
7.5032562118
 11
8.9995048032
 21
7.5227569876
  0
LINE
  5
2FC
100
AcDbEntity
  8
0
100
AcDbLine
 62
6
  6
CONTINUOUS
 10
9.0310208509
 20
7.5747730264
 11
8.9974340231
 21
7.5941858929
  0
LINE
  5
2FD
100
AcDbEntity
  8
0
100
AcDbLine
 62
6
  6
CONTINUOUS
 10
9.0287953224
 20
7.64619996
 11
8.9951986379
 21
7.6656187297
  0
LINE
  5
2FE
100
AcDbEntity
  8
0
100
AcDbLine
 62
6
  6
CONTINUOUS
 10
9.0265678671
 20
7.7176184489
 11
8.9929444724
 21
7.7370529761
  0
LINE
  5
2FF
100
AcDbEntity
  8
0
100
AcDbLine
 62
6
  6
CONTINUOUS
 10
9.0024807647
 20
7.7595676722
 11
8.9764502557
 21
7.7855981812
  0
LINE
  5
300
100
AcDbEntity
  8
0
100
AcDbLine
 62
6
  6
CONTINUOUS
 10
9.0270262464
 20
7.7170981085
 11
9.0265678671
 21
7.7176184491
  0
LINE
  5
301
100
AcDbEntity
  8
0
100
AcDbLine
 62
6
  6
CONTINUOUS
 10
9.0063383509
 20
7.3084536192
 11
9.0068185426
 21
7.3078986212
  0
LINE
  5
302
100
AcDbEntity
  8
0
100
AcDbLine
 62
6
  6
CONTINUOUS
 10
9.0041102192
 20
7.3798863608
 11
9.0045930674
 21
7.3793282877
  0
LINE
  5
303
100
AcDbEntity
  8
0
100
AcDbLine
 62
6
  6
CONTINUOUS
 10
9.00183967
 20
7.4513201428
 11
9.0023252733
 21
7.4507588772
  0
LINE
  5
304
100
AcDbEntity
  8
0
100
AcDbLine
 62
6
  6
CONTINUOUS
 10
8.9995048032
 20
7.5227569876
 11
8.9999936208
 21
7.5221919913
  0
LINE
  5
305
100
AcDbEntity
  8
0
100
AcDbLine
 62
6
  6
CONTINUOUS
 10
8.9974340231
 20
7.5941858929
 11
8.9979250124
 21
7.5936183909
  0
LINE
  5
306
100
AcDbEntity
  8
0
100
AcDbLine
 62
6
  6
CONTINUOUS
 10
8.9951986379
 20
7.6656187297
 11
8.9956924138
 21
7.6650480019
  0
LINE
  5
307
100
AcDbEntity
  8
0
100
AcDbLine
 62
6
  6
CONTINUOUS
 10
8.9929444724
 20
7.7370529761
 11
8.9934411095
 21
7.7364789312
  0
ARC
  5
308
100
AcDbEntity
  8
0
100
AcDbCircle
 62
6
  6
CONTINUOUS
 10
3.9030385001
 20
1.3282929946
 40
0.7692720427
100
AcDbArc
 50
180.0332892882
 51
184.398339866
  0
ARC
  5
309
100
AcDbEntity
  8
0
100
AcDbCircle
 62
6
  6
CONTINUOUS
 10
3.9024873601
 20
2.0869284421
 40
0.7687208886
100
AcDbArc
 50
175.5962293419
 51
179.9685557262
  0
ARC
  5
30A
100
AcDbEntity
  8
0
100
AcDbCircle
 62
6
  6
CONTINUOUS
 10
2.6150458144
 20
2.0869284421
 40
0.7687208886
100
AcDbArc
 50
0.0314442701
 51
4.4037706582
  0
ARC
  5
30B
100
AcDbEntity
  8
0
100
AcDbCircle
 62
6
  6
CONTINUOUS
 10
4.0220623111
 20
1.7550981812
 40
0.25
100
AcDbArc
 50
90.0
 51
122.2207635824
  0
ARC
  5
30C
100
AcDbEntity
  8
0
100
AcDbCircle
 62
6
  6
CONTINUOUS
 10
4.0220623111
 20
1.6600981812
 40
0.25
100
AcDbArc
 50
237.7792364176
 51
270.0
  0
ARC
  5
30D
100
AcDbEntity
  8
0
100
AcDbCircle
 62
6
  6
CONTINUOUS
 10
4.1357698768
 20
2.0550981812
 40
0.05
100
AcDbArc
 50
270.0
 51
319.4583981265
  0
ARC
  5
30E
100
AcDbEntity
  8
0
100
AcDbCircle
 62
6
  6
CONTINUOUS
 10
3.4337665872
 20
1.9435981812
 40
0.05
100
AcDbArc
 50
69.1221661176
 51
180.0
  0
ARC
  5
30F
100
AcDbEntity
  8
0
100
AcDbCircle
 62
6
  6
CONTINUOUS
 10
4.1357698768
 20
1.3600981812
 40
0.05
100
AcDbArc
 50
40.5416018735
 51
90.0
  0
ARC
  5
310
100
AcDbEntity
  8
0
100
AcDbCircle
 62
6
  6
CONTINUOUS
 10
3.4337665872
 20
1.4715981812
 40
0.05
100
AcDbArc
 50
180.0
 51
290.8778338824
  0
ARC
  5
311
100
AcDbEntity
  8
0
100
AcDbCircle
 62
6
  6
CONTINUOUS
 10
6.2031275183
 20
4.1076391073
 40
2.65313929
100
AcDbArc
 50
356.8603429496
 51
359.4759888442
  0
ARC
  5
312
100
AcDbEntity
  8
0
100
AcDbCircle
 62
6
  6
CONTINUOUS
 10
6.2037664875
 20
4.1075981377
 40
2.6524999028
100
AcDbArc
 50
269.9999999722
 51
234.0782147747
  0
ARC
  5
313
100
AcDbEntity
  8
0
100
AcDbCircle
 62
6
  6
CONTINUOUS
 10
6.2047223683
 20
4.1074960291
 40
2.6515389183
100
AcDbArc
 50
353.7219198506
 51
354.2443131123
  0
ARC
  5
314
100
AcDbEntity
  8
0
100
AcDbCircle
 62
6
  6
CONTINUOUS
 10
6.2064655583
 20
4.107599667
 40
2.6498010289
100
AcDbArc
 50
359.4761815079
 51
359.9999678452
  0
ARC
  5
315
100
AcDbEntity
  8
0
100
AcDbCircle
 62
6
  6
CONTINUOUS
 10
6.2021588802
 20
4.1076846007
 40
2.1491087282
100
AcDbArc
 50
355.3857774379
 51
358.2682218247
  0
ARC
  5
316
100
AcDbEntity
  8
0
100
AcDbCircle
 62
6
  6
CONTINUOUS
 10
6.2037567644
 20
4.1085215966
 40
2.1484228842
100
AcDbArc
 50
269.9995625063
 51
271.7302775813
  0
CIRCLE
  5
317
100
AcDbEntity
  8
0
100
AcDbCircle
 62
6
  6
CONTINUOUS
 10
6.2037754265
 20
4.1075941575
 40
2.1474906297
  0
ARC
  5
318
100
AcDbEntity
  8
0
100
AcDbCircle
 62
6
  6
CONTINUOUS
 10
6.204928722
 20
4.1074582181
 40
2.146329652
100
AcDbArc
 50
352.499654513
 51
355.3858528558
  0
ARC
  5
319
100
AcDbEntity
  8
0
100
AcDbCircle
 62
6
  6
CONTINUOUS
 10
6.2052227357
 20
4.1076045025
 40
2.1460438515
100
AcDbArc
 50
358.2678872943
 51
359.9998312758
  0
ARC
  5
31A
100
AcDbEntity
  8
0
100
AcDbCircle
 62
6
  6
CONTINUOUS
 10
8.2244614006
 20
7.6968700941
 40
0.7692720427
100
AcDbArc
 50
265.6016601341
 51
269.9667107081
  0
ARC
  5
31B
100
AcDbEntity
  8
0
100
AcDbCircle
 62
6
  6
CONTINUOUS
 10
8.2244614006
 20
6.4083262684
 40
0.7692720427
100
AcDbArc
 50
90.0332892882
 51
94.398339866
  0
ARC
  5
31C
100
AcDbEntity
  8
0
100
AcDbCircle
 62
6
  6
CONTINUOUS
 10
8.9830968481
 20
6.4088774084
 40
0.7687208886
100
AcDbArc
 50
85.5962293419
 51
89.9685557262
  0
ARC
  5
31D
100
AcDbEntity
  8
0
100
AcDbCircle
 62
6
  6
CONTINUOUS
 10
8.9830968481
 20
7.6963189541
 40
0.7687208886
100
AcDbArc
 50
270.03144427
 51
274.4037706582
  0
ARC
  5
31E
100
AcDbEntity
  8
0
100
AcDbCircle
 62
6
  6
CONTINUOUS
 10
8.6512665872
 20
6.2893024574
 40
0.25
100
AcDbArc
 50
0.0
 51
32.2207635824
  0
ARC
  5
31F
100
AcDbEntity
  8
0
100
AcDbCircle
 62
6
  6
CONTINUOUS
 10
8.5562665872
 20
6.2893024574
 40
0.25
100
AcDbArc
 50
147.7792364176
 51
180.0
  0
ARC
  5
320
100
AcDbEntity
  8
0
100
AcDbCircle
 62
6
  6
CONTINUOUS
 10
8.9512665872
 20
6.1755948916
 40
0.05
100
AcDbArc
 50
180.0
 51
229.4583981265
  0
ARC
  5
321
100
AcDbEntity
  8
0
100
AcDbCircle
 62
6
  6
CONTINUOUS
 10
8.8397665872
 20
6.8775981812
 40
0.05
100
AcDbArc
 50
339.1221661176
 51
90.0
  0
ARC
  5
322
100
AcDbEntity
  8
0
100
AcDbCircle
 62
6
  6
CONTINUOUS
 10
8.2562665872
 20
6.1755948916
 40
0.05
100
AcDbArc
 50
310.5416018735
 51
360.0
  0
ARC
  5
323
100
AcDbEntity
  8
0
100
AcDbCircle
 62
6
  6
CONTINUOUS
 10
8.3677665872
 20
6.8775981812
 40
0.05
100
AcDbArc
 50
90.0
 51
200.8778338824
  0
SPLINE
  5
324
100
AcDbEntity
  8
0
100
AcDbSpline
 62
6
  6
CONTINUOUS
 70
0
 71
3
 72
12
 73
8
 74
6
 42
0.0000001
 43
0.0000001
 44
0.0000000001
 12
0.003685544
 22
-0.0063835717
 32
0.0
 13
0.0010758336
 23
-0.0072921742
 33
0.0
 40
0.0
 40
0.0
 40
0.0
 40
0.0
 40
0.064917401
 40
0.1464288681
 40
0.3608828317
 40
0.6452198273
 40
1.0
 40
1.0
 40
1.0
 40
1.0
 10
2.6290273933
 20
2.0990276023
 30
0.0
 10
2.6291071453
 20
2.0988894674
 30
0.0
 10
2.6292606567
 20
2.0985628547
 30
0.0
 10
2.6295637022
 20
2.0977290097
 30
0.0
 10
2.6299229944
 20
2.0963466488
 30
0.0
 10
2.6303320007
 20
2.0942895225
 30
0.0
 10
2.6305789618
 20
2.0927382662
 30
0.0
 10
2.6307061899
 20
2.0918758932
 30
0.0
 11
2.6290273933
 21
2.0990276023
 31
0.0
 11
2.6292372554
 21
2.0985975643
 31
0.0
 11
2.629447114
 21
2.098034576
 31
0.0
 11
2.6298668203
 21
2.0965105488
 31
0.0
 11
2.6302865123
 21
2.0944571211
 31
0.0
 11
2.6307061899
 21
2.0918758932
 31
0.0
  0
SPLINE
  5
325
100
AcDbEntity
  8
0
100
AcDbSpline
 62
6
  6
CONTINUOUS
 70
0
 71
3
 72
48
 73
44
 74
42
 42
0.0000001
 43
0.0000001
 44
0.0000000001
 12
0.1136382575
 22
-0.7702584893
 32
0.0
 13
0.7785960398
 23
0.0000275589
 33
0.0
 40
0.0
 40
0.0
 40
0.0
 40
0.0
 40
0.0051260246
 40
0.0112812605
 40
0.0184525748
 40
0.0266259801
 40
0.0459196471
 40
0.0690057642
 40
0.0956824606
 40
0.125736097
 40
0.1589051271
 40
0.194910697
 40
0.2741986977
 40
0.3609222085
 40
0.452151679
 40
0.5448098739
 40
0.5906974885
 40
0.635772648
 40
0.6796526232
 40
0.7219714558
 40
0.7623675499
 40
0.8005018829
 40
0.8360565022
 40
0.8687238235
 40
0.8982383065
 40
0.9243471891
 40
0.9468303158
 40
0.9566564596
 40
0.9655099653
 40
0.9733698893
 40
0.9802218895
 40
0.9860560615
 40
0.9908635785
 40
0.9928802286
 40
0.994638068
 40
0.9961371732
 40
0.9973788907
 40
0.9983673903
 40
0.9991114352
 40
0.9993980587
 40
0.9996340343
 40
0.9998290706
 40
1.0
 40
1.0
 40
1.0
 40
1.0
 10
2.6307061899
 20
2.0918758932
 30
0.0
 10
2.6309003608
 20
2.0905597719
 30
0.0
 10
2.6312766493
 20
2.0876557721
 30
0.0
 10
2.6317927922
 20
2.0828944563
 30
0.0
 10
2.6323108066
 20
2.0773384513
 30
0.0
 10
2.6330444015
 20
2.0683785303
 30
0.0
 10
2.6339389269
 20
2.0552883768
 30
0.0
 10
2.6349688302
 20
2.0373954546
 30
0.0
 10
2.6360027446
 20
2.0167061884
 30
0.0
 10
2.637038893
 20
1.9933973656
 30
0.0
 10
2.6380770901
 20
1.9676653406
 30
0.0
 10
2.6395091844
 20
1.929161119
 30
0.0
 10
2.6412653915
 20
1.8767604933
 30
0.0
 10
2.6433183817
 20
1.8100297672
 30
0.0
 10
2.6453743662
 20
1.7398275914
 30
0.0
 10
2.64709377
 20
1.6802183445
 30
0.0
 10
2.6484865381
 20
1.63258318
 30
0.0
 10
2.6495274954
 20
1.5976026525
 30
0.0
 10
2.6505682298
 20
1.5635487498
 30
0.0
 10
2.651608361
 20
1.5307097793
 30
0.0
 10
2.6526479923
 20
1.4993627476
 30
0.0
 10
2.6536869215
 20
1.4697722354
 30
0.0
 10
2.6547245234
 20
1.4421888482
 30
0.0
 10
2.6557611336
 20
1.4168442526
 30
0.0
 10
2.6567953391
 20
1.393953243
 30
0.0
 10
2.6578269231
 20
1.3737082508
 30
0.0
 10
2.6587182927
 20
1.3585728086
 30
0.0
 10
2.6594438129
 20
1.3479143414
 30
0.0
 10
2.6599624269
 20
1.3410459427
 30
0.0
 10
2.6604801853
 20
1.334951809
 30
0.0
 10
2.6609965243
 20
1.3296442958
 30
0.0
 10
2.6615109977
 20
1.3251331607
 30
0.0
 10
2.6619587084
 20
1.3218779704
 30
0.0
 10
2.6623259211
 20
1.319680992
 30
0.0
 10
2.6625843237
 20
1.3183367348
 30
0.0
 10
2.6628418322
 20
1.317197739
 30
0.0
 10
2.6630979832
 20
1.3162636624
 30
0.0
 10
2.6633525924
 20
1.3155346035
 30
0.0
 10
2.6635779666
 20
1.3150584904
 30
0.0
 10
2.663767168
 20
1.3147885478
 30
0.0
 10
2.6638977483
 20
1.3146541843
 30
0.0
 10
2.6640315572
 20
1.3145695622
 30
0.0
 10
2.6641271485
 20
1.3145491293
 30
0.0
 10
2.6641715102
 20
1.3145491308
 30
0.0
 11
2.6307061899
 21
2.0918758932
 31
0.0
 11
2.6312297798
 21
2.0879192845
 31
0.0
 11
2.6317533473
 21
2.0831555276
 31
0.0
 11
2.6322768926
 21
2.0775965701
 31
0.0
 11
2.6328004157
 21
2.0712543597
 31
0.0
 11
2.6338473951
 21
2.0562689169
 31
0.0
 11
2.6348942856
 21
2.03832467
 31
0.0
 11
2.6359410875
 21
2.0175806954
 31
0.0
 11
2.6369878006
 21
1.9942044756
 31
0.0
 11
2.6380344253
 21
1.9684004172
 31
0.0
 11
2.6390809614
 21
1.9403861641
 31
0.0
 11
2.6411737687
 21
1.8786883248
 31
0.0
 11
2.6432662231
 21
1.811198172
 31
0.0
 11
2.6453583255
 21
1.7401980839
 31
0.0
 11
2.6474500764
 21
1.6680851112
 31
0.0
 11
2.6484958203
 21
1.6323725037
 31
0.0
 11
2.6495414766
 21
1.597292744
 31
0.0
 11
2.6505870454
 21
1.563143972
 31
0.0
 11
2.6516325267
 21
1.5302112872
 31
0.0
 11
2.6526779207
 21
1.4987764263
 31
0.0
 11
2.6537232274
 21
1.4691035918
 31
0.0
 11
2.6547684469
 21
1.4414406453
 31
0.0
 11
2.6558135793
 21
1.41602748
 31
0.0
 11
2.6568586245
 21
1.3930713953
 31
0.0
 11
2.6579035829
 21
1.372769998
 31
0.0
 11
2.6589484543
 21
1.3552959361
 31
0.0
 11
2.6594708574
 21
1.3476631958
 31
0.0
 11
2.6599932388
 21
1.3407897131
 31
0.0
 11
2.6605155986
 21
1.3346923417
 31
0.0
 11
2.6610379366
 21
1.3293830338
 31
0.0
 11
2.661560253
 21
1.3248706998
 31
0.0
 11
2.6620825478
 21
1.3211642045
 31
0.0
 11
2.662343687
 21
1.3196159165
 31
0.0
 11
2.6626048208
 21
1.3182724125
 31
0.0
 11
2.6628659492
 21
1.3171348002
 31
0.0
 11
2.6631270722
 21
1.316203935
 31
0.0
 11
2.6633881898
 21
1.3154799418
 31
0.0
 11
2.663649302
 21
1.3149628142
 31
0.0
 11
2.6637798561
 21
1.3147818231
 31
0.0
 11
2.6639104088
 21
1.314652546
 31
0.0
 11
2.6640409602
 21
1.3145749822
 31
0.0
 11
2.6641715102
 21
1.3145491308
 31
0.0
  0
LINE
  5
326
100
AcDbEntity
  8
0
100
AcDbLine
 62
6
  6
CONTINUOUS
 10
2.5575997784
 20
2.0967739819
 11
2.5584109705
 21
2.0943838327
  0
SPLINE
  5
327
100
AcDbEntity
  8
0
100
AcDbSpline
 62
6
  6
CONTINUOUS
 70
0
 71
3
 72
51
 73
47
 74
45
 42
0.0000001
 43
0.0000001
 44
0.0000000001
 12
0.181796718
 22
-0.7574005326
 32
0.0
 13
0.7789081157
 23
-0.0027858051
 33
0.0
 40
0.0
 40
0.0
 40
0.0
 40
0.0
 40
0.0034964363
 40
0.0080775264
 40
0.0137371295
 40
0.0204659487
 40
0.0282532981
 40
0.0370857691
 40
0.057797701
 40
0.082414111
 40
0.1107291853
 40
0.1424814671
 40
0.1773943017
 40
0.2151578414
 40
0.2554308459
 40
0.3420683198
 40
0.4342273358
 40
0.5286355208
 40
0.5756370318
 40
0.6219436829
 40
0.6671456817
 40
0.7108423018
 40
0.7526411425
 40
0.7921777908
 40
0.8290957316
 40
0.8630699483
 40
0.893803382
 40
0.9210153052
 40
0.9444774076
 40
0.9547347488
 40
0.9639762862
 40
0.9721852807
 40
0.9793466648
 40
0.9854459229
 40
0.9880930382
 40
0.9904697251
 40
0.9925751032
 40
0.9944095393
 40
0.9959740363
 40
0.9972705376
 40
0.9983028959
 40
0.9990794338
 40
0.9993779575
 40
0.9996229771
 40
0.9998244535
 40
1.0
 40
1.0
 40
1.0
 40
1.0
 10
2.5584109705
 20
2.0943838327
 30
0.0
 10
2.5586228508
 20
2.0935010985
 30
0.0
 10
2.5590173065
 20
2.0914395275
 30
0.0
 10
2.5595407141
 20
2.0879112493
 30
0.0
 10
2.5600678709
 20
2.0835364583
 30
0.0
 10
2.5605980839
 20
2.0783248157
 30
0.0
 10
2.5611299215
 20
2.0722858452
 30
0.0
 10
2.5618806984
 20
2.0626221159
 30
0.0
 10
2.5627978313
 20
2.0485894074
 30
0.0
 10
2.5638554371
 20
2.0294979093
 30
0.0
 10
2.5649157495
 20
2.0075362448
 30
0.0
 10
2.5659792572
 20
1.9828986776
 30
0.0
 10
2.5670441681
 20
1.95580593
 30
0.0
 10
2.5681102236
 20
1.9264993653
 30
0.0
 10
2.5695685453
 20
1.8837686326
 30
0.0
 10
2.5713608201
 20
1.8269181008
 30
0.0
 10
2.573467717
 20
1.7560151572
 30
0.0
 10
2.5752269212
 20
1.6953974346
 30
0.0
 10
2.5766529243
 20
1.6466800595
 30
0.0
 10
2.5777207027
 20
1.6107334535
 30
0.0
 10
2.5787881523
 20
1.5756452972
 30
0.0
 10
2.5798550419
 20
1.541728077
 30
0.0
 10
2.5809215481
 20
1.5092825375
 30
0.0
 10
2.5819870314
 20
1.4785979599
 30
0.0
 10
2.5830515739
 20
1.4499462111
 30
0.0
 10
2.5841147952
 20
1.423581753
 30
0.0
 10
2.585175479
 20
1.3997394482
 30
0.0
 10
2.5862340446
 20
1.3786294059
 30
0.0
 10
2.5871478872
 20
1.3628354583
 30
0.0
 10
2.5878919471
 20
1.351705935
 30
0.0
 10
2.5884241783
 20
1.3445315658
 30
0.0
 10
2.5889552898
 20
1.3381633698
 30
0.0
 10
2.5894850738
 20
1.3326141319
 30
0.0
 10
2.5899435224
 20
1.3285090834
 30
0.0
 10
2.5903166628
 20
1.3256452448
 30
0.0
 10
2.5905828049
 20
1.3238133875
 30
0.0
 10
2.5908485364
 20
1.3221949481
 30
0.0
 10
2.5911136341
 20
1.3207904173
 30
0.0
 10
2.5913778731
 20
1.3196000869
 30
0.0
 10
2.591640601
 20
1.3186232521
 30
0.0
 10
2.5919017115
 20
1.317860093
 30
0.0
 10
2.5921327345
 20
1.3173610627
 30
0.0
 10
2.5923268434
 20
1.3170774599
 30
0.0
 10
2.5924606577
 20
1.3169362139
 30
0.0
 10
2.5925978106
 20
1.31684686
 30
0.0
 10
2.5926962401
 20
1.3168248911
 30
0.0
 10
2.5927418183
 20
1.3168247281
 30
0.0
 11
2.5584109705
 21
2.0943838327
 31
0.0
 11
2.5589480962
 21
2.0917139052
 31
0.0
 11
2.5594852004
 21
2.0881862888
 31
0.0
 11
2.5600222832
 21
2.0838107894
 31
0.0
 11
2.5605593443
 21
2.078597213
 31
0.0
 11
2.5610963837
 21
2.0725553653
 31
0.0
 11
2.5616334011
 21
2.0656966293
 31
0.0
 11
2.5627073703
 21
2.0495996213
 31
0.0
 11
2.5637812516
 21
2.0304556732
 31
0.0
 11
2.5648550449
 21
2.0084268464
 31
0.0
 11
2.5659287497
 21
1.9837178957
 31
0.0
 11
2.5670023658
 21
1.9565450329
 31
0.0
 11
2.5680758927
 21
1.9271501137
 31
0.0
 11
2.5691493302
 21
1.8957993147
 31
0.0
 11
2.5712959358
 21
1.8283504014
 31
0.0
 11
2.5734421803
 21
1.756598629
 31
0.0
 11
2.5755880614
 21
1.6830941738
 31
0.0
 11
2.576660865
 21
1.6464998031
 31
0.0
 11
2.5777335771
 21
1.6104469011
 31
0.0
 11
2.5788061974
 21
1.5752548147
 31
0.0
 11
2.5798787256
 21
1.5412358478
 31
0.0
 11
2.5809511617
 21
1.5086958509
 31
0.0
 11
2.5820235052
 21
1.4779189136
 31
0.0
 11
2.5830957562
 21
1.449183044
 31
0.0
 11
2.5841679143
 21
1.42274181
 31
0.0
 11
2.5852399794
 21
1.3988271536
 31
0.0
 11
2.5863119513
 21
1.377658555
 31
0.0
 11
2.58738383
 21
1.3594150777
 31
0.0
 11
2.5879197342
 21
1.3514434935
 31
0.0
 11
2.5884556151
 21
1.3442651135
 31
0.0
 11
2.5889914726
 21
1.3378935135
 31
0.0
 11
2.5895273066
 21
1.3323412135
 31
0.0
 11
2.5900631173
 21
1.3276207335
 31
0.0
 11
2.5903310138
 21
1.3255763385
 31
0.0
 11
2.5905989044
 21
1.3237445916
 31
0.0
 11
2.5908667892
 21
1.322126713
 31
0.0
 11
2.5911346682
 21
1.3207231818
 31
0.0
 11
2.5914025412
 21
1.3195343809
 31
0.0
 11
2.5916704084
 21
1.318560693
 31
0.0
 11
2.5919382697
 21
1.317802501
 31
0.0
 11
2.5922061251
 21
1.3172601877
 31
0.0
 11
2.5923400506
 21
1.3170701051
 31
0.0
 11
2.5924739747
 21
1.3169341358
 31
0.0
 11
2.5926078972
 21
1.3168523275
 31
0.0
 11
2.5927418183
 21
1.3168247281
 31
0.0
  0
SPLINE
  5
328
100
AcDbEntity
  8
0
100
AcDbSpline
 62
6
  6
CONTINUOUS
 70
0
 71
3
 72
13
 73
9
 74
7
 42
0.0000001
 43
0.0000001
 44
0.0000000001
 12
-0.0011643827
 22
-0.0091531571
 32
0.0
 13
-0.0046053038
 23
-0.0079954517
 33
0.0
 40
0.0
 40
0.0
 40
0.0
 40
0.0
 40
0.3639321415
 40
0.651423893
 40
0.7666115462
 40
0.862896115
 40
0.9405208801
 40
1.0
 40
1.0
 40
1.0
 40
1.0
 10
2.7196203993
 20
1.2899688426
 30
0.0
 10
2.7194791472
 20
1.2888584666
 30
0.0
 10
2.7192052389
 20
1.2868735822
 30
0.0
 10
2.7188035511
 20
1.2845491154
 30
0.0
 10
2.7184702027
 20
1.2830508632
 30
0.0
 10
2.7182400689
 20
1.2821914681
 30
0.0
 10
2.7180115259
 20
1.2815107048
 30
0.0
 10
2.7178387791
 20
1.2811241228
 30
0.0
 10
2.7177474726
 20
1.280965602
 30
0.0
 11
2.7196203993
 21
1.2899688426
 31
0.0
 11
2.7191520536
 21
1.2866436906
 31
0.0
 11
2.7186836899
 21
1.2840327023
 31
0.0
 11
2.7184495453
 21
1.2829959871
 31
0.0
 11
2.7182154491
 21
1.282138974
 31
0.0
 11
2.717981419
 21
1.2814620499
 31
0.0
 11
2.7177474726
 21
1.280965602
 31
0.0
  0
SPLINE
  5
329
100
AcDbEntity
  8
0
100
AcDbSpline
 62
6
  6
CONTINUOUS
 70
0
 71
3
 72
10
 73
6
 74
4
 42
0.0000001
 43
0.0000001
 44
0.0000000001
 12
0.0016989889
 22
-0.0029352422
 32
0.0
 13
0.0006945419
 23
-0.0033196117
 33
0.0
 40
0.0
 40
0.0
 40
0.0
 40
0.0
 40
0.1709580245
 40
0.3937133021
 40
1.0
 40
1.0
 40
1.0
 40
1.0
 10
2.8433070581
 20
2.1056686505
 30
0.0
 10
2.8434038767
 20
2.1055013828
 30
0.0
 10
2.8435873099
 20
2.1050938277
 30
0.0
 10
2.8439488305
 20
2.1040222053
 30
0.0
 10
2.8441601477
 20
2.10310682
 30
0.0
 10
2.8443005115
 20
2.1024359411
 30
0.0
 11
2.8433070581
 21
2.1056686505
 31
0.0
 11
2.8435554284
 21
2.1051447391
 31
0.0
 11
2.8438037941
 21
2.1044312595
 31
0.0
 11
2.8443005115
 21
2.1024359411
 31
0.0
  0
SPLINE
  5
32A
100
AcDbEntity
  8
0
100
AcDbSpline
 62
6
  6
CONTINUOUS
 70
0
 71
3
 72
51
 73
47
 74
45
 42
0.0000001
 43
0.0000001
 44
0.0000000001
 12
0.162976303
 22
-0.7789567027
 32
0.0
 13
0.7958189694
 23
-0.0026434821
 33
0.0
 40
0.0
 40
0.0
 40
0.0
 40
0.0
 40
0.0038181645
 40
0.0087116874
 40
0.0146723177
 40
0.0216895328
 40
0.0297517577
 40
0.0388448194
 40
0.0600333507
 40
0.0850649341
 40
0.1137314905
 40
0.1457710321
 40
0.1809071929
 40
0.2188306868
 40
0.2592026735
 40
0.3458653264
 40
0.4378451138
 40
0.5319078727
 40
0.5786881935
 40
0.6247492712
 40
0.6696877738
 40
0.7131087428
 40
0.7546265424
 40
0.7938826621
 40
0.830525976
 40
0.8642382524
 40
0.8947261957
 40
0.9217150707
 40
0.9449805129
 40
0.9551499079
 40
0.9643116627
 40
0.9724495296
 40
0.9795483331
 40
0.9855934277
 40
0.9882165641
 40
0.9905713416
 40
0.9926571795
 40
0.9944744593
 40
0.9960240793
 40
0.9973078409
 40
0.9983293825
 40
0.9990966573
 40
0.9993909118
 40
0.9996317313
 40
0.9998289116
 40
1.0
 40
1.0
 40
1.0
 40
1.0
 10
2.8443005115
 20
2.1024359411
 30
0.0
 10
2.844507935
 20
2.1014445462
 30
0.0
 10
2.844898694
 20
2.0991655803
 30
0.0
 10
2.8454210696
 20
2.0953083625
 30
0.0
 10
2.8459467167
 20
2.0905963863
 30
0.0
 10
2.8464749078
 20
2.0850398992
 30
0.0
 10
2.8470045328
 20
2.0786493318
 30
0.0
 10
2.8477503033
 20
2.0685049675
 30
0.0
 10
2.8486626346
 20
2.0538597852
 30
0.0
 10
2.8497157375
 20
2.0340220481
 30
0.0
 10
2.8507713499
 20
2.0113024099
 30
0.0
 10
2.8518299379
 20
1.9858998884
 30
0.0
 10
2.8528898225
 20
1.9580398625
 30
0.0
 10
2.8539507963
 20
1.927968028
 30
0.0
 10
2.8554009974
 20
1.8842328613
 30
0.0
 10
2.8571839249
 20
1.8261612223
 30
0.0
 10
2.8592809069
 20
1.753849893
 30
0.0
 10
2.8610323421
 20
1.6921127715
 30
0.0
 10
2.8624518404
 20
1.642552197
 30
0.0
 10
2.8635143798
 20
1.606018155
 30
0.0
 10
2.8645765748
 20
1.5703756369
 30
0.0
 10
2.8656382275
 20
1.5359388676
 30
0.0
 10
2.8666994887
 20
1.5030102199
 30
0.0
 10
2.8677597177
 20
1.4718804551
 30
0.0
 10
2.868819052
 20
1.4428225351
 30
0.0
 10
2.8698770099
 20
1.4160921976
 30
0.0
 10
2.8709324992
 20
1.391925
 30
0.0
 10
2.8719858649
 20
1.37053194
 30
0.0
 10
2.8728951966
 20
1.354528609
 30
0.0
 10
2.8736356629
 20
1.3432530327
 30
0.0
 10
2.8741652784
 20
1.3359854024
 30
0.0
 10
2.8746937595
 20
1.329534614
 30
0.0
 10
2.8752209154
 20
1.3239136311
 30
0.0
 10
2.8756771027
 20
1.3197556811
 30
0.0
 10
2.8760484178
 20
1.3168551513
 30
0.0
 10
2.8763132649
 20
1.3150000447
 30
0.0
 10
2.876577686
 20
1.3133610728
 30
0.0
 10
2.876841466
 20
1.311938653
 30
0.0
 10
2.8771043868
 20
1.3107330998
 30
0.0
 10
2.877365774
 20
1.3097437564
 30
0.0
 10
2.8776255327
 20
1.308970865
 30
0.0
 10
2.8778553097
 20
1.3084653364
 30
0.0
 10
2.8780485384
 20
1.3081778346
 30
0.0
 10
2.878181598
 20
1.308034774
 30
0.0
 10
2.878318032
 20
1.3079441406
 30
0.0
 10
2.8784162663
 20
1.3079217841
 30
0.0
 10
2.8784616514
 20
1.3079216333
 30
0.0
 11
2.8443005115
 21
2.1024359411
 31
0.0
 11
2.8448349771
 21
2.0994447303
 31
0.0
 11
2.8453694211
 21
2.0955871969
 31
0.0
 11
2.8459038436
 21
2.0908737887
 31
0.0
 11
2.8464382445
 21
2.0853149533
 31
0.0
 11
2.8469726238
 21
2.0789211386
 31
0.0
 11
2.8475069814
 21
2.0717044237
 31
0.0
 11
2.8485756314
 21
2.0548759925
 31
0.0
 11
2.8496441944
 21
2.0349839536
 31
0.0
 11
2.8507126699
 21
2.0121954733
 31
0.0
 11
2.8517810578
 21
1.9867200508
 31
0.0
 11
2.8528493578
 21
1.958778288
 31
0.0
 11
2.8539175696
 21
1.9286167958
 31
0.0
 11
2.854985693
 21
1.8965055855
 31
0.0
 11
2.8571216736
 21
1.827570506
 31
0.0
 11
2.8592572978
 21
1.754402003
 31
0.0
 11
2.861392564
 21
1.679575122
 31
0.0
 11
2.8624600624
 21
1.6423615578
 31
0.0
 11
2.8635274706
 21
1.6057206205
 31
0.0
 11
2.8645947887
 21
1.5699734405
 31
0.0
 11
2.8656620163
 21
1.5354345034
 31
0.0
 11
2.8667291534
 21
1.5024109061
 31
0.0
 11
2.8677961999
 21
1.4711881971
 31
0.0
 11
2.8688631555
 21
1.4420461171
 31
0.0
 11
2.8699300201
 21
1.4152383205
 31
0.0
 11
2.8709967938
 21
1.3909987659
 31
0.0
 11
2.8720634762
 21
1.3695468925
 31
0.0
 11
2.8731300674
 21
1.3510624567
 31
0.0
 11
2.8736633287
 21
1.3429870024
 31
0.0
 11
2.8741965672
 21
1.3357153893
 31
0.0
 11
2.8747297828
 21
1.3292610728
 31
0.0
 11
2.8752629756
 21
1.3236368969
 31
0.0
 11
2.8757961455
 21
1.3188557056
 31
0.0
 11
2.8760627218
 21
1.3167852429
 31
0.0
 11
2.8763292924
 21
1.3149303124
 31
0.0
 11
2.8765958574
 21
1.3132918968
 31
0.0
 11
2.8768624165
 21
1.3118704405
 31
0.0
 11
2.87712897
 21
1.3106663681
 31
0.0
 11
2.8773955177
 21
1.3096801046
 31
0.0
 11
2.8776620598
 21
1.3089120745
 31
0.0
 11
2.877928596
 21
1.3083627028
 31
0.0
 11
2.878061862
 21
1.3081701465
 31
0.0
 11
2.8781951266
 21
1.3080324141
 31
0.0
 11
2.8783283897
 21
1.3079495587
 31
0.0
 11
2.8784616514
 21
1.3079216333
 31
0.0
  0
LINE
  5
32B
100
AcDbEntity
  8
0
100
AcDbLine
 62
6
  6
CONTINUOUS
 10
2.6647404967
 20
1.3150403112
 11
2.6655149993
 21
1.3172876054
  0
SPLINE
  5
32C
100
AcDbEntity
  8
0
100
AcDbSpline
 62
6
  6
CONTINUOUS
 70
0
 71
3
 72
13
 73
9
 74
7
 42
0.0000001
 43
0.0000001
 44
0.0000000001
 12
0.001097914
 22
0.0080780828
 32
0.0
 13
0.0040695457
 23
0.0070639673
 33
0.0
 40
0.0
 40
0.0
 40
0.0
 40
0.0
 40
0.3600521694
 40
0.6462207451
 40
0.7617227791
 40
0.8589809813
 40
0.9382411005
 40
1.0
 40
1.0
 40
1.0
 40
1.0
 10
2.8063674524
 20
2.1291372741
 30
0.0
 10
2.8064992212
 20
2.1301067845
 30
0.0
 10
2.8067550063
 20
2.1318442849
 30
0.0
 10
2.8071287062
 20
2.1338812331
 30
0.0
 10
2.8074379957
 20
2.1352015495
 30
0.0
 10
2.8076521732
 20
2.1359661043
 30
0.0
 10
2.8078650011
 20
2.1365779543
 30
0.0
 10
2.8080247784
 20
2.136927802
 30
0.0
 10
2.8081085553
 20
2.137073223
 30
0.0
 11
2.8063674524
 21
2.1291372741
 31
0.0
 11
2.8068032647
 21
2.1320400122
 31
0.0
 11
2.8072387983
 21
2.134331944
 31
0.0
 11
2.8074564236
 21
2.1352480633
 31
0.0
 11
2.8076739348
 21
2.1360105281
 31
0.0
 11
2.8078913169
 21
2.1366190205
 31
0.0
 11
2.8081085553
 21
2.137073223
 31
0.0
  0
LINE
  5
32D
100
AcDbEntity
  8
0
100
AcDbLine
 62
6
  6
CONTINUOUS
 10
2.5933141376
 20
1.3173187766
 11
2.5937607505
 21
1.3183935159
  0
SPLINE
  5
32E
100
AcDbEntity
  8
0
100
AcDbSpline
 62
6
  6
CONTINUOUS
 70
0
 71
3
 72
49
 73
45
 74
43
 42
0.0000001
 43
0.0000001
 44
0.0000000001
 12
0.7915037174
 22
-0.001239947
 32
0.0
 13
0.1121176329
 23
-0.783523649
 33
0.0
 40
0.0
 40
0.0
 40
0.0
 40
0.0
 40
0.0001686119
 40
0.0003617643
 40
0.0005963357
 40
0.0008819426
 40
0.0016247392
 40
0.0026125515
 40
0.0038537802
 40
0.0053525029
 40
0.0071106753
 40
0.0091284098
 40
0.0114051157
 40
0.0139399033
 40
0.0197792241
 40
0.0266366179
 40
0.0345012042
 40
0.0433600614
 40
0.0531928873
 40
0.0756899883
 40
0.1018097377
 40
0.1313353441
 40
0.1640103829
 40
0.1995685788
 40
0.2377033945
 40
0.2780940707
 40
0.3204030721
 40
0.3642681607
 40
0.4093229708
 40
0.4551860405
 40
0.5477837785
 40
0.6389450661
 40
0.7256032648
 40
0.8048420341
 40
0.8408339844
 40
0.8739985752
 40
0.9040594162
 40
0.930756394
 40
0.953877219
 40
0.9732217658
 40
0.9814268445
 40
0.9886340724
 40
0.9948295078
 40
1.0
 40
1.0
 40
1.0
 40
1.0
 10
2.8606058946
 20
2.1061539074
 30
0.0
 10
2.8606503803
 20
2.1061538377
 30
0.0
 10
2.8607464033
 20
2.1061327689
 30
0.0
 10
2.8608804042
 20
2.1060463204
 30
0.0
 10
2.8610111347
 20
2.1059093927
 30
0.0
 10
2.8612007246
 20
2.1056342629
 30
0.0
 10
2.8614263957
 20
2.1051495726
 30
0.0
 10
2.8616813932
 20
2.1044077931
 30
0.0
 10
2.8619379527
 20
2.1034576299
 30
0.0
 10
2.8621959496
 20
2.1022990535
 30
0.0
 10
2.8624547123
 20
2.100931488
 30
0.0
 10
2.86271411
 20
2.0993557006
 30
0.0
 10
2.8629739649
 20
2.0975726645
 30
0.0
 10
2.8633382658
 20
2.0947862443
 30
0.0
 10
2.8637859003
 20
2.0907923405
 30
0.0
 10
2.8643031208
 20
2.0853921234
 30
0.0
 10
2.8648215345
 20
2.079192189
 30
0.0
 10
2.8653407991
 20
2.0722049123
 30
0.0
 10
2.8660670629
 20
2.0613620943
 30
0.0
 10
2.8669592179
 20
2.0459665779
 30
0.0
 10
2.8679917673
 20
2.0253756226
 30
0.0
 10
2.8690265643
 20
2.0020965095
 30
0.0
 10
2.8700637025
 20
1.9763251225
 30
0.0
 10
2.8711016772
 20
1.9482806833
 30
0.0
 10
2.8721407356
 20
1.9181993426
 30
0.0
 10
2.8731804091
 20
1.8863359289
 30
0.0
 10
2.8742203626
 20
1.852959916
 30
0.0
 10
2.8752607561
 20
1.8183527829
 30
0.0
 10
2.8763012227
 20
1.7828075549
 30
0.0
 10
2.8776930226
 20
1.7344097377
 30
0.0
 10
2.8794108754
 20
1.6738517778
 30
0.0
 10
2.8814644226
 20
1.6025358255
 30
0.0
 10
2.8835143459
 20
1.5347458462
 30
0.0
 10
2.8852673311
 20
1.481509215
 30
0.0
 10
2.8866962703
 20
1.4423833932
 30
0.0
 10
2.887732135
 20
1.4162268343
 30
0.0
 10
2.8887657853
 20
1.3925246163
 30
0.0
 10
2.8897970734
 20
1.3714749358
 30
0.0
 10
2.8908242589
 20
1.3532562631
 30
0.0
 10
2.8917160994
 20
1.3399169201
 30
0.0
 10
2.8924471721
 20
1.3307759105
 30
0.0
 10
2.8929636252
 20
1.325098309
 30
0.0
 10
2.8934782151
 20
1.3202249869
 30
0.0
 10
2.8938529914
 20
1.3172493633
 30
0.0
 10
2.8940462258
 20
1.3158989623
 30
0.0
 11
2.8606058946
 21
2.1061539074
 31
0.0
 11
2.8607366892
 21
2.1061273825
 31
0.0
 11
2.8608674825
 21
2.1060482262
 31
0.0
 11
2.8609982746
 21
2.1059164509
 31
0.0
 11
2.8611290653
 21
2.1057320695
 31
0.0
 11
2.861390643
 21
2.1052055381
 31
0.0
 11
2.8616522155
 21
2.1044687329
 31
0.0
 11
2.861913783
 21
2.1035217549
 31
0.0
 11
2.8621753452
 21
2.1023647048
 31
0.0
 11
2.8624369023
 21
2.1009979045
 31
0.0
 11
2.8626984543
 21
2.0994224211
 31
0.0
 11
2.8629600012
 21
2.0976394793
 31
0.0
 11
2.8632215428
 21
2.0956503035
 31
0.0
 11
2.8637446107
 21
2.0910581476
 31
0.0
 11
2.8642676578
 21
2.0856557492
 31
0.0
 11
2.8647906843
 21
2.0794529042
 31
0.0
 11
2.86531369
 21
2.0724606096
 31
0.0
 11
2.8658366749
 21
2.0646954736
 31
0.0
 11
2.8668825822
 21
2.046919656
 31
0.0
 11
2.8679284059
 21
2.0262722211
 31
0.0
 11
2.8689741459
 21
2.0029259743
 31
0.0
 11
2.8700198017
 21
1.9770846752
 31
0.0
 11
2.8710653733
 21
1.9489596247
 31
0.0
 11
2.8721108603
 21
1.9187938511
 31
0.0
 11
2.8731562625
 21
1.8868415384
 31
0.0
 11
2.8742015798
 21
1.8533700842
 31
0.0
 11
2.8752468118
 21
1.8186663978
 31
0.0
 11
2.8762919585
 21
1.7830206231
 31
0.0
 11
2.8773370195
 21
1.7467348347
 31
0.0
 11
2.8794268841
 21
1.6734730925
 31
0.0
 11
2.8815164041
 21
1.6013487675
 31
0.0
 11
2.8836055783
 21
1.5327902211
 31
0.0
 11
2.8856944055
 21
1.4701071576
 31
0.0
 11
2.8867386886
 21
1.4416385069
 31
0.0
 11
2.8877828847
 21
1.4154093545
 31
0.0
 11
2.8888269935
 21
1.391638978
 31
0.0
 11
2.889871015
 21
1.370534002
 31
0.0
 11
2.890914949
 21
1.3522635604
 31
0.0
 11
2.8919587956
 21
1.3369878844
 31
0.0
 11
2.892480686
 21
1.3305145299
 31
0.0
 11
2.8930025545
 21
1.3248338963
 31
0.0
 11
2.8935244011
 21
1.3199580263
 31
0.0
 11
2.8940462258
 21
1.3158989623
 31
0.0
  0
SPLINE
  5
32F
100
AcDbEntity
  8
0
100
AcDbSpline
 62
6
  6
CONTINUOUS
 70
0
 71
3
 72
12
 73
8
 74
6
 42
0.0000001
 43
0.0000001
 44
0.0000000001
 12
0.0010923118
 22
-0.0076335192
 32
0.0
 13
0.0038547843
 23
-0.0066786524
 33
0.0
 40
0.0
 40
0.0
 40
0.0
 40
0.0
 40
0.3567595995
 40
0.6417693868
 40
0.8555641248
 40
0.9362421664
 40
1.0
 40
1.0
 40
1.0
 40
1.0
 10
2.8940462258
 20
1.3158989623
 30
0.0
 10
2.8941761234
 20
1.3149911853
 30
0.0
 10
2.8944280368
 20
1.313360429
 30
0.0
 10
2.8948457629
 20
1.3112012049
 30
0.0
 10
2.8952126459
 20
1.3097548903
 30
0.0
 10
2.8955228321
 20
1.3088873617
 30
0.0
 10
2.8956800434
 20
1.3085496837
 30
0.0
 10
2.8957619677
 20
1.3084077449
 30
0.0
 11
2.8940462258
 21
1.3158989623
 31
0.0
 11
2.8944751835
 21
1.3131815392
 31
0.0
 11
2.8949041264
 21
1.3110260152
 31
0.0
 11
2.8953330544
 21
1.3094341604
 31
0.0
 11
2.8955475129
 21
1.3088501621
 31
0.0
 11
2.8957619677
 21
1.3084077449
 31
0.0
  0
LINE
  5
330
100
AcDbEntity
  8
0
100
AcDbLine
 62
6
  6
CONTINUOUS
 10
2.7718776801
 20
2.1033339285
 11
2.7725576544
 21
2.1014538198
  0
SPLINE
  5
331
100
AcDbEntity
  8
0
100
AcDbSpline
 62
6
  6
CONTINUOUS
 70
0
 71
3
 72
51
 73
47
 74
45
 42
0.0000001
 43
0.0000001
 44
0.0000000001
 12
0.2014931804
 22
-0.7667014213
 32
0.0
 13
0.7927358069
 23
-0.000715247
 33
0.0
 40
0.0
 40
0.0
 40
0.0
 40
0.0
 40
0.0032222118
 40
0.0075372728
 40
0.0129407884
 40
0.0194244202
 40
0.0269781791
 40
0.0355888769
 40
0.0558939989
 40
0.0801561587
 40
0.1081707299
 40
0.1396767772
 40
0.1743991679
 40
0.2120251909
 40
0.252213977
 40
0.3388310502
 40
0.4311472031
 40
0.5258566202
 40
0.5730506716
 40
0.6195708136
 40
0.6650028088
 40
0.7089381061
 40
0.7509815754
 40
0.7907619214
 40
0.8279157712
 40
0.8621179321
 40
0.8930603598
 40
0.9204643355
 40
0.9440951634
 40
0.9544245314
 40
0.963732887
 40
0.9720029304
 40
0.9792177004
 40
0.985360775
 40
0.9880256682
 40
0.9904179615
 40
0.9925375663
 40
0.9943847007
 40
0.9959600797
 40
0.9972653301
 40
0.9983039345
 40
0.9990837427
 40
0.9993825831
 40
0.999626934
 40
0.9998267593
 40
1.0
 40
1.0
 40
1.0
 40
1.0
 10
2.7725576544
 20
2.1014538198
 30
0.0
 10
2.7727740723
 20
2.1006303283
 30
0.0
 10
2.77317169
 20
2.0986763843
 30
0.0
 10
2.7736958666
 20
2.0952971273
 30
0.0
 10
2.7742242122
 20
2.0910478427
 30
0.0
 10
2.7747561885
 20
2.0859381427
 30
0.0
 10
2.7752899517
 20
2.0799771574
 30
0.0
 10
2.7760451936
 20
2.0703697526
 30
0.0
 10
2.7769666327
 20
2.0563474614
 30
0.0
 10
2.7780282312
 20
2.0371972769
 30
0.0
 10
2.7790927399
 20
2.0150835152
 30
0.0
 10
2.7801606612
 20
1.990203069
 30
0.0
 10
2.7812299698
 20
1.9627807936
 30
0.0
 10
2.7823005632
 20
1.9330626045
 30
0.0
 10
2.7837659681
 20
1.8896369294
 30
0.0
 10
2.7855664085
 20
1.831762869
 30
0.0
 10
2.7876817906
 20
1.7594850071
 30
0.0
 10
2.7894475532
 20
1.6976187472
 30
0.0
 10
2.7908789829
 20
1.6478492596
 30
0.0
 10
2.7919511422
 20
1.6110961559
 30
0.0
 10
2.793022882
 20
1.5752045233
 30
0.0
 10
2.7940941223
 20
1.5404963567
 30
0.0
 10
2.7951648868
 20
1.5072823344
 30
0.0
 10
2.7962345748
 20
1.4758612173
 30
0.0
 10
2.797303459
 20
1.4465133712
 30
0.0
 10
2.7983707287
 20
1.4195025067
 30
0.0
 10
2.7994357307
 20
1.3950700785
 30
0.0
 10
2.800498437
 20
1.3734339393
 30
0.0
 10
2.8014156585
 20
1.3572444233
 30
0.0
 10
2.8021628114
 20
1.3458352708
 30
0.0
 10
2.8026971283
 20
1.338480081
 30
0.0
 10
2.8032302713
 20
1.3319502076
 30
0.0
 10
2.8037620656
 20
1.3262597937
 30
0.0
 10
2.8042222595
 20
1.3220506297
 30
0.0
 10
2.8045969451
 20
1.3191147464
 30
0.0
 10
2.8048641826
 20
1.3172371508
 30
0.0
 10
2.8051309483
 20
1.31557801
 30
0.0
 10
2.8053970664
 20
1.3141377092
 30
0.0
 10
2.8056623142
 20
1.3129167097
 30
0.0
 10
2.805926003
 20
1.3119144969
 30
0.0
 10
2.8061880394
 20
1.3111314692
 30
0.0
 10
2.8064198108
 20
1.3106192575
 30
0.0
 10
2.8066147773
 20
1.3103279521
 30
0.0
 10
2.8067489933
 20
1.3101830959
 30
0.0
 10
2.8068866516
 20
1.3100913836
 30
0.0
 10
2.8069858392
 20
1.3100689056
 30
0.0
 10
2.8070316172
 20
1.3100688643
 30
0.0
 11
2.7725576544
 21
2.1014538198
 31
0.0
 11
2.773097167
 21
2.0989570819
 31
0.0
 11
2.7736366495
 21
2.0955791861
 31
0.0
 11
2.7741761053
 21
2.0913297284
 31
0.0
 11
2.7747155378
 21
2.0862183048
 31
0.0
 11
2.7752549505
 21
2.0802545119
 31
0.0
 11
2.7757943456
 21
2.0734498457
 31
0.0
 11
2.7768730778
 21
2.0573894288
 31
0.0
 11
2.7779517205
 21
2.0381862079
 31
0.0
 11
2.7790302615
 21
2.0160042503
 31
0.0
 11
2.7801086972
 21
1.991051562
 31
0.0
 11
2.7811870254
 21
1.9635469985
 31
0.0
 11
2.7822652431
 21
1.9337389849
 31
0.0
 11
2.7833433463
 21
1.9018981287
 31
0.0
 11
2.7854991973
 21
1.8332674972
 31
0.0
 11
2.7876545618
 21
1.7601168942
 31
0.0
 11
2.7898094309
 21
1.6850682474
 31
0.0
 11
2.7908866789
 21
1.6476713301
 31
0.0
 11
2.7919638029
 21
1.6108088662
 31
0.0
 11
2.7930408042
 21
1.574809389
 31
0.0
 11
2.7941176841
 21
1.5399969434
 31
0.0
 11
2.7951944445
 21
1.5066849641
 31
0.0
 11
2.7962710879
 21
1.4751680307
 31
0.0
 11
2.7973476167
 21
1.445734512
 31
0.0
 11
2.7984240334
 21
1.4186425991
 31
0.0
 11
2.7995003407
 21
1.3941370435
 31
0.0
 11
2.8005765409
 21
1.3724395954
 31
0.0
 11
2.8016526364
 21
1.3537375174
 31
0.0
 11
2.8021906456
 21
1.3455667478
 31
0.0
 11
2.8027286295
 21
1.3382073155
 31
0.0
 11
2.8032665882
 21
1.3316734621
 31
0.0
 11
2.8038045221
 21
1.3259794068
 31
0.0
 11
2.8043424314
 21
1.3211393689
 31
0.0
 11
2.8046113769
 21
1.3190440011
 31
0.0
 11
2.8048803164
 21
1.31716671
 31
0.0
 11
2.8051492498
 21
1.315508084
 31
0.0
 11
2.8054181772
 21
1.3140687009
 31
0.0
 11
2.8056870987
 21
1.3128491385
 31
0.0
 11
2.8059560142
 21
1.3118499749
 31
0.0
 11
2.8062249237
 21
1.3110717877
 31
0.0
 11
2.8064938274
 21
1.310515155
 31
0.0
 11
2.8066282771
 21
1.3103201021
 31
0.0
 11
2.8067627253
 21
1.3101806546
 31
0.0
 11
2.806897172
 21
1.3100968845
 31
0.0
 11
2.8070316172
 21
1.3100688643
 31
0.0
  0
LINE
  5
332
100
AcDbEntity
  8
0
100
AcDbLine
 62
6
  6
CONTINUOUS
 10
3.0218745254
 20
1.3039258136
 11
3.022329083
 21
1.3050335887
  0
LINE
  5
333
100
AcDbEntity
  8
0
100
AcDbLine
 62
6
  6
CONTINUOUS
 10
2.9504476765
 20
1.3061316428
 11
2.9508302207
 21
1.3070207839
  0
SPLINE
  5
334
100
AcDbEntity
  8
0
100
AcDbSpline
 62
6
  6
CONTINUOUS
 70
0
 71
3
 72
53
 73
49
 74
47
 42
0.0000001
 43
0.0000001
 44
0.0000000001
 12
0.7929803829
 22
0.0008858562
 32
0.0
 13
0.2113355251
 23
-0.7643009671
 33
0.0
 40
0.0
 40
0.0
 40
0.0
 40
0.0
 40
0.0001739726
 40
0.0003743257
 40
0.0006191167
 40
0.0009184752
 40
0.0017001432
 40
0.0027425824
 40
0.0040545537
 40
0.0056397517
 40
0.0074991168
 40
0.0096325935
 40
0.0120396176
 40
0.0147193268
 40
0.0208924092
 40
0.0281423036
 40
0.0364574229
 40
0.0458183919
 40
0.0562020802
 40
0.0799440171
 40
0.1074838838
 40
0.1385654454
 40
0.1729135943
 40
0.2102211146
 40
0.250146415
 40
0.2923373998
 40
0.3364084151
 40
0.3819648757
 40
0.4285974741
 40
0.4758840499
 40
0.5707199559
 40
0.6630650451
 40
0.7072621356
 40
0.7496049942
 40
0.7897189911
 40
0.8272369262
 40
0.8618273403
 40
0.8931800049
 40
0.9210089363
 40
0.9450760863
 40
0.9651569746
 40
0.9736487378
 40
0.981085022
 40
0.9874491853
 40
0.9927259604
 40
0.996908547
 40
0.9985901789
 40
1.0
 40
1.0
 40
1.0
 40
1.0
 10
2.7891727644
 20
2.103820854
 30
0.0
 10
2.78921875
 20
2.1038209053
 30
0.0
 10
2.7893183589
 20
2.1037986923
 30
0.0
 10
2.7894567954
 20
2.1037072184
 30
0.0
 10
2.7895917481
 20
2.1035624074
 30
0.0
 10
2.7897877966
 20
2.1032707854
 30
0.0
 10
2.7900208384
 20
2.1027571066
 30
0.0
 10
2.7902842161
 20
2.1019707924
 30
0.0
 10
2.7905491686
 20
2.1009629992
 30
0.0
 10
2.7908156323
 20
2.099734086
 30
0.0
 10
2.791082997
 20
2.0982838991
 30
0.0
 10
2.7913510154
 20
2.0966135026
 30
0.0
 10
2.7916195054
 20
2.094723902
 30
0.0
 10
2.7919959058
 20
2.0917714477
 30
0.0
 10
2.7924584224
 20
2.0875399647
 30
0.0
 10
2.7929928141
 20
2.0818187606
 30
0.0
 10
2.7935282384
 20
2.0752518196
 30
0.0
 10
2.79406476
 20
2.067854221
 30
0.0
 10
2.7948150278
 20
2.0563839779
 30
0.0
 10
2.7957366319
 20
2.0401099201
 30
0.0
 10
2.796802997
 20
2.0183650741
 30
0.0
 10
2.7978723341
 20
1.993813888
 30
0.0
 10
2.7989435017
 20
1.966678749
 30
0.0
 10
2.8000157775
 20
1.9372043529
 30
0.0
 10
2.8010891869
 20
1.9056556552
 30
0.0
 10
2.8021629124
 20
1.8723182227
 30
0.0
 10
2.8032371968
 20
1.8374916072
 30
0.0
 10
2.8043116711
 20
1.8014904225
 30
0.0
 10
2.8053862207
 20
1.7646389134
 30
0.0
 10
2.8068203712
 20
1.7147664724
 30
0.0
 10
2.8085887377
 20
1.6528156087
 30
0.0
 10
2.8103785974
 20
1.5916823173
 30
0.0
 10
2.8118308056
 20
1.5444204743
 30
0.0
 10
2.8129036291
 20
1.5109596031
 30
0.0
 10
2.8139753696
 20
1.4792651254
 30
0.0
 10
2.8150462967
 20
1.4496210387
 30
0.0
 10
2.8161157007
 20
1.4222943657
 30
0.0
 10
2.8171829511
 20
1.3975308041
 30
0.0
 10
2.8182475633
 20
1.3755515261
 30
0.0
 10
2.8193076356
 20
1.3565554518
 30
0.0
 10
2.8202287697
 20
1.342671348
 30
0.0
 10
2.8209841992
 20
1.3331830847
 30
0.0
 10
2.8215173104
 20
1.3273146856
 30
0.0
 10
2.8220478577
 20
1.3222997255
 30
0.0
 10
2.8225759861
 20
1.3181503708
 30
0.0
 10
2.8230380437
 20
1.3152408433
 30
0.0
 10
2.8234212342
 20
1.3133564261
 30
0.0
 10
2.8236147105
 20
1.3125621147
 30
0.0
 10
2.8237140256
 20
1.3122029389
 30
0.0
 11
2.7891727644
 21
2.103820854
 31
0.0
 11
2.7893079027
 21
2.1037931095
 31
0.0
 11
2.7894430411
 21
2.1037095676
 31
0.0
 11
2.7895781793
 21
2.1035702186
 31
0.0
 11
2.7897133171
 21
2.1033750529
 31
0.0
 11
2.7899835903
 21
2.1028172324
 31
0.0
 11
2.7902538584
 21
2.1020360285
 31
0.0
 11
2.7905241194
 21
2.1010313769
 31
0.0
 11
2.7907943723
 21
2.0998037401
 31
0.0
 11
2.7910646174
 21
2.0983542768
 31
0.0
 11
2.7913348551
 21
2.0966841931
 31
0.0
 11
2.7916050859
 21
2.094794695
 31
0.0
 11
2.7918753101
 21
2.0926869887
 31
0.0
 11
2.7924157407
 21
2.087821776
 31
0.0
 11
2.7929561503
 21
2.082098204
 31
0.0
 11
2.793496542
 21
2.0755266547
 31
0.0
 11
2.7940369155
 21
2.06812328
 31
0.0
 11
2.7945772688
 21
2.0599069631
 31
0.0
 11
2.7956579079
 21
2.0411111003
 31
0.0
 11
2.7967384461
 21
2.0192992607
 31
0.0
 11
2.7978188788
 21
1.9946758691
 31
0.0
 11
2.798899204
 21
1.9674598768
 31
0.0
 11
2.7999794187
 21
1.9378954543
 31
0.0
 11
2.8010595192
 21
1.9062538841
 31
0.0
 11
2.8021395017
 21
1.8728146754
 31
0.0
 11
2.8032193642
 21
1.8378838906
 31
0.0
 11
2.8042991047
 21
1.8017746282
 31
0.0
 11
2.8053787219
 21
1.7648116328
 31
0.0
 11
2.8064582147
 21
1.7273298241
 31
0.0
 11
2.8086168257
 21
1.6521577506
 31
0.0
 11
2.8107749396
 21
1.5789616688
 31
0.0
 11
2.8118538129
 21
1.5439308306
 31
0.0
 11
2.8129325659
 21
1.5103710869
 31
0.0
 11
2.8140112013
 21
1.4785797474
 31
0.0
 11
2.8150897213
 21
1.4488482978
 31
0.0
 11
2.8161681285
 21
1.4214399681
 31
0.0
 11
2.8172464257
 21
1.3966012991
 31
0.0
 11
2.8183246151
 21
1.3745598435
 31
0.0
 11
2.8194026993
 21
1.3555055281
 31
0.0
 11
2.8204806803
 21
1.3396182974
 31
0.0
 11
2.8210196328
 21
1.3329060942
 31
0.0
 11
2.8215585604
 21
1.3270339417
 31
0.0
 11
2.8220974632
 21
1.3220161375
 31
0.0
 11
2.8226363415
 21
1.3178666001
 31
0.0
 11
2.8231751956
 21
1.3145939545
 31
0.0
 11
2.8234446136
 21
1.3132879524
 31
0.0
 11
2.8237140256
 21
1.3122029389
 31
0.0
  0
LINE
  5
335
100
AcDbEntity
  8
0
100
AcDbLine
 62
6
  6
CONTINUOUS
 10
2.8237140256
 20
1.3122029389
 11
2.8243290084
 21
1.3105572349
  0
SPLINE
  5
336
100
AcDbEntity
  8
0
100
AcDbSpline
 62
6
  6
CONTINUOUS
 70
0
 71
3
 72
10
 73
6
 74
4
 42
0.0000001
 43
0.0000001
 44
0.0000000001
 12
0.0011694965
 22
-0.000254564
 32
0.0
 13
0.0004440572
 23
-0.0011114577
 33
0.0
 40
0.0
 40
0.0
 40
0.0
 40
0.0
 40
0.3687664801
 40
0.6477622703
 40
1.0
 40
1.0
 40
1.0
 40
1.0
 10
2.6657555582
 20
2.1330742886
 30
0.0
 10
2.6658993153
 20
2.1330429971
 30
0.0
 10
2.6660972867
 20
2.1328325496
 30
0.0
 10
2.6662934513
 20
2.1324939005
 30
0.0
 10
2.6663960512
 20
2.1322611523
 30
0.0
 10
2.6664481891
 20
2.1321306532
 30
0.0
 11
2.6657555582
 21
2.1330742886
 31
0.0
 11
2.6661017434
 21
2.1328004947
 31
0.0
 11
2.6662749373
 21
2.1325149958
 31
0.0
 11
2.6664481891
 21
2.1321306532
 31
0.0
  0
SPLINE
  5
337
100
AcDbEntity
  8
0
100
AcDbSpline
 62
6
  6
CONTINUOUS
 70
0
 71
3
 72
51
 73
47
 74
45
 42
0.0000001
 43
0.0000001
 44
0.0000000001
 12
0.316008025
 22
-0.790955616
 32
0.0
 13
0.4249284185
 23
-0.7381786352
 33
0.0
 40
0.0
 40
0.0
 40
0.0
 40
0.0
 40
0.0009825983
 40
0.0022323207
 40
0.0037525905
 40
0.0055449375
 40
0.0099477116
 40
0.0154405132
 40
0.0220128337
 40
0.0296491076
 40
0.0383330545
 40
0.048048022
 40
0.0587750851
 40
0.0704880356
 40
0.0967600577
 40
0.1266369605
 40
0.1598494753
 40
0.1961011647
 40
0.2350725602
 40
0.2764080458
 40
0.3197432016
 40
0.4108307379
 40
0.5050760634
 40
0.599116823
 40
0.6450109301
 40
0.6896068914
 40
0.732502775
 40
0.7733135826
 40
0.8116785507
 40
0.8472481144
 40
0.8797139667
 40
0.9087821772
 40
0.9341982031
 40
0.9454664008
 40
0.9557376793
 40
0.964989414
 40
0.9732046261
 40
0.9803668933
 40
0.9864602702
 40
0.9914704457
 40
0.9935673328
 40
0.9953920913
 40
0.996945275
 40
0.9982282606
 40
0.9992441206
 40
1.0
 40
1.0
 40
1.0
 40
1.0
 10
2.6664481891
 20
2.1321306532
 30
0.0
 10
2.666551692
 20
2.1318715893
 30
0.0
 10
2.6667486935
 20
2.1312680374
 30
0.0
 10
2.6670124697
 20
2.1302355177
 30
0.0
 10
2.6672778027
 20
2.1289672978
 30
0.0
 10
2.6676596598
 20
2.1268101035
 30
0.0
 10
2.6681216932
 20
2.1235231665
 30
0.0
 10
2.6686501196
 20
2.1188774069
 30
0.0
 10
2.6691807636
 20
2.1133088428
 30
0.0
 10
2.6697134637
 20
2.1068310471
 30
0.0
 10
2.6702473151
 20
2.099458463
 30
0.0
 10
2.6707820205
 20
2.0912063932
 30
0.0
 10
2.671317266
 20
2.0820927559
 30
0.0
 10
2.6720603835
 20
2.068282592
 30
0.0
 10
2.672976585
 20
2.0490371808
 30
0.0
 10
2.6740411243
 20
2.0236883488
 30
0.0
 10
2.6751076787
 20
1.9955039826
 30
0.0
 10
2.6761758647
 20
1.9647359407
 30
0.0
 10
2.6772448832
 20
1.9316604084
 30
0.0
 10
2.6783149428
 20
1.8965728219
 30
0.0
 10
2.6797661971
 20
1.846693455
 30
0.0
 10
2.6815537452
 20
1.7817956562
 30
0.0
 10
2.683667141
 20
1.702505332
 30
0.0
 10
2.685441744
 20
1.6360416388
 30
0.0
 10
2.6868806868
 20
1.5836702457
 30
0.0
 10
2.6879507867
 20
1.5458150293
 30
0.0
 10
2.6890203972
 20
1.5094036205
 30
0.0
 10
2.6900894627
 20
1.4747620662
 30
0.0
 10
2.6911573212
 20
1.4422015704
 30
0.0
 10
2.6922242604
 20
1.4120116649
 30
0.0
 10
2.6932890867
 20
1.384462945
 30
0.0
 10
2.6943519606
 20
1.3597992729
 30
0.0
 10
2.6952674436
 20
1.3411534077
 30
0.0
 10
2.6960106421
 20
1.3278426969
 30
0.0
 10
2.6965448925
 20
1.3191168854
 30
0.0
 10
2.6970784416
 20
1.3112595943
 30
0.0
 10
2.6976109936
 20
1.304287192
 30
0.0
 10
2.6981419599
 20
1.2982142655
 30
0.0
 10
2.6986709862
 20
1.2930551793
 30
0.0
 10
2.6991319091
 20
1.2893352526
 30
0.0
 10
2.6995102686
 20
1.2868276134
 30
0.0
 10
2.6997762687
 20
1.2852959542
 30
0.0
 10
2.7000412412
 20
1.2839992748
 30
0.0
 10
2.7003045863
 20
1.2829370833
 30
0.0
 10
2.7005657391
 20
1.2821098645
 30
0.0
 10
2.7007651482
 20
1.2816452919
 30
0.0
 10
2.7008722131
 20
1.2814593006
 30
0.0
 11
2.6664481891
 21
2.1321306532
 31
0.0
 11
2.666717353
 21
2.1313381928
 31
0.0
 11
2.6669866107
 21
2.1303083643
 31
0.0
 11
2.6672559343
 21
2.1290417981
 31
0.0
 11
2.6675252963
 21
2.1275391245
 31
0.0
 11
2.6680640242
 21
2.123827976
 31
0.0
 11
2.6686025914
 21
2.1191806044
 31
0.0
 11
2.6691409656
 21
2.1136086031
 31
0.0
 11
2.6696792068
 21
2.1071267436
 31
0.0
 11
2.6702173757
 21
2.0997498279
 31
0.0
 11
2.6707555332
 21
2.0914926582
 31
0.0
 11
2.6712937248
 21
2.0823717859
 31
0.0
 11
2.6718319439
 21
2.0724098517
 31
0.0
 11
2.6729083919
 21
2.0500586588
 31
0.0
 11
2.6739847428
 21
2.024633889
 31
0.0
 11
2.6750609893
 21
1.9963657308
 31
0.0
 11
2.6761372043
 21
1.9655072477
 31
0.0
 11
2.6772134231
 21
1.9323309549
 31
0.0
 11
2.6782896175
 21
1.8971400575
 31
0.0
 11
2.6793657551
 21
1.8602451873
 31
0.0
 11
2.6815177583
 21
1.7826915618
 31
0.0
 11
2.6836693099
 21
1.7024472881
 31
0.0
 11
2.6858204941
 21
1.6223773056
 31
0.0
 11
2.6868960406
 21
1.5833019665
 31
0.0
 11
2.6879715642
 21
1.5453327485
 31
0.0
 11
2.6890470357
 21
1.5088121679
 31
0.0
 11
2.6901224238
 21
1.4740683498
 31
0.0
 11
2.6911976947
 21
1.4414088241
 31
0.0
 11
2.6922728316
 21
1.4111316607
 31
0.0
 11
2.6933478948
 21
1.3834998949
 31
0.0
 11
2.6944229569
 21
1.358764504
 31
0.0
 11
2.6954979635
 21
1.3371432046
 31
0.0
 11
2.6960353991
 21
1.3275606173
 31
0.0
 11
2.6965727654
 21
1.3188286123
 31
0.0
 11
2.6971100795
 21
1.310966821
 31
0.0
 11
2.6976473967
 21
1.3039902047
 31
0.0
 11
2.6981847745
 21
1.2979134841
 31
0.0
 11
2.6987222702
 21
1.2927513801
 31
0.0
 11
2.6992599236
 21
1.2885179865
 31
0.0
 11
2.6995287758
 21
1.2867523219
 31
0.0
 11
2.6997976093
 21
1.2852215169
 31
0.0
 11
2.7000663968
 21
1.283926192
 31
0.0
 11
2.7003351113
 21
1.2828669673
 31
0.0
 11
2.7006037258
 21
1.2820444634
 31
0.0
 11
2.7008722131
 21
1.2814593006
 31
0.0
  0
SPLINE
  5
338
100
AcDbEntity
  8
0
100
AcDbSpline
 62
6
  6
CONTINUOUS
 70
0
 71
3
 72
17
 73
13
 74
11
 42
0.0000001
 43
0.0000001
 44
0.0000000001
 12
0.0016403356
 22
0.0168346193
 32
0.0
 13
0.0169079238
 23
0.0004660691
 33
0.0
 40
0.0
 40
0.0
 40
0.0
 40
0.0
 40
0.4240644018
 40
0.5920934967
 40
0.730680913
 40
0.7889397866
 40
0.8398606598
 40
0.8834824058
 40
0.9198807233
 40
0.9492040514
 40
0.971765874
 40
1.0
 40
1.0
 40
1.0
 40
1.0
 10
2.6069058389
 20
2.1149486013
 30
0.0
 10
2.6071377082
 20
2.1173282555
 30
0.0
 10
2.6074910126
 20
2.1206486183
 30
0.0
 10
2.6080557993
 20
2.124729675
 30
0.0
 10
2.6083952355
 20
2.1267591841
 30
0.0
 10
2.6086734329
 20
2.1281283683
 30
0.0
 10
2.6088692121
 20
2.1289673099
 30
0.0
 10
2.6090650469
 20
2.1296799568
 30
0.0
 10
2.6092581625
 20
2.1302640938
 30
0.0
 10
2.6094555289
 20
2.130726949
 30
0.0
 10
2.6096699876
 20
2.1311098207
 30
0.0
 10
2.609912311
 20
2.1313441004
 30
0.0
 10
2.6100714378
 20
2.1313484868
 30
0.0
 11
2.6069058389
 21
2.1149486013
 31
0.0
 11
2.6076973222
 21
2.1220775713
 31
0.0
 11
2.6080930429
 21
2.1248919897
 31
0.0
 11
2.6084887496
 21
2.1272024645
 31
0.0
 11
2.6086865978
 21
2.1281678092
 31
0.0
 11
2.6088844425
 21
2.1290060715
 31
0.0
 11
2.6090822837
 21
2.1297168857
 31
0.0
 11
2.6092801214
 21
2.1302998863
 31
0.0
 11
2.6094779557
 21
2.1307547079
 31
0.0
 11
2.6096757865
 21
2.1310810446
 31
0.0
 11
2.6100714378
 21
2.1313484868
 31
0.0
  0
SPLINE
  5
339
100
AcDbEntity
  8
0
100
AcDbSpline
 62
6
  6
CONTINUOUS
 70
0
 71
3
 72
10
 73
6
 74
4
 42
0.0000001
 43
0.0000001
 44
0.0000000001
 12
0.0011233545
 22
-0.0002430943
 32
0.0
 13
0.0004344836
 23
-0.0010640697
 33
0.0
 40
0.0
 40
0.0
 40
0.0
 40
0.0
 40
0.3710264503
 40
0.649427268
 40
1.0
 40
1.0
 40
1.0
 40
1.0
 10
2.7371798326
 20
2.135298179
 30
0.0
 10
2.737318764
 20
2.1352681142
 30
0.0
 10
2.7375114924
 20
2.1350686497
 30
0.0
 10
2.7377030412
 20
2.1347448436
 30
0.0
 10
2.7378029966
 20
2.1345230262
 30
0.0
 10
2.7378537693
 20
2.1343986816
 30
0.0
 11
2.7371798326
 21
2.135298179
 31
0.0
 11
2.7375166773
 21
2.1350366678
 31
0.0
 11
2.7376851958
 21
2.134764657
 31
0.0
 11
2.7378537693
 21
2.1343986816
 31
0.0
  0
SPLINE
  5
33A
100
AcDbEntity
  8
0
100
AcDbSpline
 62
6
  6
CONTINUOUS
 70
0
 71
3
 72
52
 73
48
 74
46
 42
0.0000001
 43
0.0000001
 44
0.0000000001
 12
0.3236789678
 22
-0.7927042213
 32
0.0
 13
0.4271331456
 23
-0.7420952315
 33
0.0
 40
0.0
 40
0.0
 40
0.0
 40
0.0
 40
0.0009633547
 40
0.0021939043
 40
0.0036952597
 40
0.0054690329
 40
0.0098358297
 40
0.0152944988
 40
0.0218348895
 40
0.0294411979
 40
0.0380968626
 40
0.0477849449
 40
0.058486858
 40
0.0701768497
 40
0.0964089252
 40
0.1262534829
 40
0.1594422434
 40
0.1956777545
 40
0.2346408049
 40
0.2759751546
 40
0.3193157697
 40
0.3642693533
 40
0.4104322614
 40
0.5047260261
 40
0.5988276237
 40
0.6447525958
 40
0.6893790469
 40
0.732306002
 40
0.773149359
 40
0.8115459915
 40
0.8471460561
 40
0.8796405452
 40
0.9087335613
 40
0.9341718335
 40
0.945449144
 40
0.9557278109
 40
0.9649860735
 40
0.973206765
 40
0.9803730922
 40
0.9864687364
 40
0.9914792405
 40
0.993575692
 40
0.9953996136
 40
0.996951551
 40
0.9982328716
 40
0.9992466385
 40
1.0
 40
1.0
 40
1.0
 40
1.0
 10
2.7378537693
 20
2.1343986816
 30
0.0
 10
2.7379577086
 20
2.1341441298
 30
0.0
 10
2.7381551872
 20
2.133548681
 30
0.0
 10
2.7384191478
 20
2.132527298
 30
0.0
 10
2.738684721
 20
2.1312686514
 30
0.0
 10
2.7390672958
 20
2.1291211371
 30
0.0
 10
2.7395299357
 20
2.1258421393
 30
0.0
 10
2.7400589595
 20
2.1212009289
 30
0.0
 10
2.7405902074
 20
2.1156303002
 30
0.0
 10
2.7411235594
 20
2.1091439711
 30
0.0
 10
2.7416580651
 20
2.1017566895
 30
0.0
 10
2.7421934384
 20
2.0934839093
 30
0.0
 10
2.7427293355
 20
2.0843434966
 30
0.0
 10
2.7434734393
 20
2.0704854732
 30
0.0
 10
2.7443907609
 20
2.051165552
 30
0.0
 10
2.7454565427
 20
2.0257102188
 30
0.0
 10
2.7465243085
 20
1.997397613
 30
0.0
 10
2.7475937411
 20
1.9664808568
 30
0.0
 10
2.7486639836
 20
1.9332379841
 30
0.0
 10
2.7497352363
 20
1.8979662685
 30
0.0
 10
2.7508067635
 20
1.8609840353
 30
0.0
 10
2.7518787068
 20
1.8226231244
 30
0.0
 10
2.7533182643
 20
1.7697241052
 30
0.0
 10
2.7550934177
 20
1.7028015337
 30
0.0
 10
2.7568698746
 20
1.6359469293
 30
0.0
 10
2.7583101971
 20
1.5832641362
 30
0.0
 10
2.7593813044
 20
1.5451826533
 30
0.0
 10
2.7604519306
 20
1.5085521098
 30
0.0
 10
2.7615219794
 20
1.4737004153
 30
0.0
 10
2.7625908633
 20
1.4409409141
 30
0.0
 10
2.7636588284
 20
1.4105656155
 30
0.0
 10
2.7647246439
 20
1.3828473787
 30
0.0
 10
2.7657886055
 20
1.3580317512
 30
0.0
 10
2.7667049281
 20
1.3392712569
 30
0.0
 10
2.7674488497
 20
1.3258790572
 30
0.0
 10
2.7679836496
 20
1.3171004802
 30
0.0
 10
2.768517726
 20
1.3091960268
 30
0.0
 10
2.7690508048
 20
1.3021820618
 30
0.0
 10
2.7695822909
 20
1.2960735109
 30
0.0
 10
2.7701118262
 20
1.2908850606
 30
0.0
 10
2.7705732343
 20
1.2871446468
 30
0.0
 10
2.7709519869
 20
1.284623808
 30
0.0
 10
2.7712182279
 20
1.2830845953
 30
0.0
 10
2.7714834296
 20
1.2817819297
 30
0.0
 10
2.7717469821
 20
1.2807153102
 30
0.0
 10
2.7720083192
 20
1.2798852378
 30
0.0
 10
2.7722079485
 20
1.2794192739
 30
0.0
 10
2.7723152103
 20
1.2792329186
 30
0.0
 11
2.7378537693
 21
2.1343986816
 31
0.0
 11
2.7381232766
 21
2.1336190884
 31
0.0
 11
2.7383928803
 21
2.1326005183
 31
0.0
 11
2.7386625531
 21
2.1313436007
 31
0.0
 11
2.7389322677
 21
2.1298489646
 31
0.0
 11
2.7394717128
 21
2.1261490542
 31
0.0
 11
2.7400110109
 21
2.1215063374
 31
0.0
 11
2.7405501154
 21
2.1159321981
 31
0.0
 11
2.7410890789
 21
2.1094417067
 31
0.0
 11
2.741627956
 21
2.1020499915
 31
0.0
 11
2.7421668012
 21
2.0937721811
 31
0.0
 11
2.7427056597
 21
2.0846246257
 31
0.0
 11
2.7432445318
 21
2.0746296956
 31
0.0
 11
2.7443222635
 21
2.052194597
 31
0.0
 11
2.7453998958
 21
2.0266632058
 31
0.0
 11
2.7464774232
 21
1.9982660758
 31
0.0
 11
2.7475549082
 21
1.9672584733
 31
0.0
 11
2.7486323817
 21
1.9339141295
 31
0.0
 11
2.7497098167
 21
1.8985383827
 31
0.0
 11
2.7507871811
 21
1.8614440282
 31
0.0
 11
2.7518644479
 21
1.8229680204
 31
0.0
 11
2.7529415927
 21
1.7834561412
 31
0.0
 11
2.7550954972
 21
1.7027467222
 31
0.0
 11
2.757248956
 21
1.6222018912
 31
0.0
 11
2.7583255529
 21
1.5828938037
 31
0.0
 11
2.759402081
 21
1.5446979896
 31
0.0
 11
2.7604785541
 21
1.5079579524
 31
0.0
 11
2.761554961
 21
1.4730027792
 31
0.0
 11
2.7626312594
 21
1.4401436438
 31
0.0
 11
2.7637074294
 21
1.4096804241
 31
0.0
 11
2.7647835355
 21
1.3818781394
 31
0.0
 11
2.7658596468
 21
1.3569907705
 31
0.0
 11
2.7669356991
 21
1.3352360839
 31
0.0
 11
2.7674736589
 21
1.3255949892
 31
0.0
 11
2.7680115536
 21
1.3168104295
 31
0.0
 11
2.7685494068
 21
1.3089013959
 31
0.0
 11
2.7690872707
 21
1.3018830857
 31
0.0
 11
2.7696251979
 21
1.2957706094
 31
0.0
 11
2.7701632412
 21
1.2905790776
 31
0.0
 11
2.7707014314
 21
1.2863227712
 31
0.0
 11
2.7709705438
 21
1.2845479912
 31
0.0
 11
2.7712396321
 21
1.2830096324
 31
0.0
 11
2.7715086697
 21
1.2817083203
 31
0.0
 11
2.7717776298
 21
1.2806446804
 31
0.0
 11
2.7720464856
 21
1.279819338
 31
0.0
 11
2.7723152103
 21
1.2792329186
 31
0.0
  0
LINE
  5
33B
100
AcDbEntity
  8
0
100
AcDbLine
 62
6
  6
CONTINUOUS
 10
2.8790212425
 20
1.3084051614
 11
2.8794823204
 21
1.3095323264
  0
SPLINE
  5
33C
100
AcDbEntity
  8
0
100
AcDbSpline
 62
6
  6
CONTINUOUS
 70
0
 71
3
 72
11
 73
7
 74
5
 42
0.0000001
 43
0.0000001
 44
0.0000000001
 12
0.0011725613
 22
0.0000365071
 32
0.0
 13
0.0004506135
 23
-0.0010831344
 33
0.0
 40
0.0
 40
0.0
 40
0.0
 40
0.0
 40
0.1595148175
 40
0.364993357
 40
0.6416961247
 40
1.0
 40
1.0
 40
1.0
 40
1.0
 10
2.9513977463
 20
2.1419769421
 30
0.0
 10
2.9514600933
 20
2.1419788833
 30
0.0
 10
2.9516042543
 20
2.1419321543
 30
0.0
 10
2.9517849964
 20
2.1417520847
 30
0.0
 10
2.9519622448
 20
2.1414740197
 30
0.0
 10
2.9520662059
 20
2.1412477898
 30
0.0
 10
2.9521200247
 20
2.1411184261
 30
0.0
 11
2.9513977463
 21
2.1419769421
 31
0.0
 11
2.9515782011
 21
2.1419274014
 31
0.0
 11
2.9517587379
 21
2.1417676735
 31
0.0
 11
2.9519393485
 21
2.1414979509
 31
0.0
 11
2.9521200247
 21
2.1411184261
 31
0.0
  0
SPLINE
  5
33D
100
AcDbEntity
  8
0
100
AcDbSpline
 62
6
  6
CONTINUOUS
 70
0
 71
3
 72
52
 73
48
 74
46
 42
0.0000001
 43
0.0000001
 44
0.0000000001
 12
0.3340352188
 22
-0.8029165875
 32
0.0
 13
0.4337844313
 23
-0.7537145621
 33
0.0
 40
0.0
 40
0.0
 40
0.0
 40
0.0
 40
0.0009378496
 40
0.0021432554
 40
0.0036199975
 40
0.0053697474
 40
0.0096903425
 40
0.0151054488
 40
0.0216053747
 40
0.0291742455
 40
0.037795382
 40
0.0474517298
 40
0.0581250605
 40
0.0697900347
 40
0.095980656
 40
0.1257929173
 40
0.1589600852
 40
0.195181184
 40
0.2341376118
 40
0.2754737662
 40
0.3188242192
 40
0.3637959795
 40
0.4099853343
 40
0.5043527227
 40
0.598549571
 40
0.6445269563
 40
0.6892064331
 40
0.7321835376
 40
0.7730722599
 40
0.811509082
 40
0.8471433159
 40
0.8796655366
 40
0.9087797765
 40
0.9342319471
 40
0.9455132866
 40
0.9557939403
 40
0.9650520606
 40
0.9732704227
 40
0.9804321726
 40
0.9865209204
 40
0.9915221559
 40
0.9936130765
 40
0.9954308498
 40
0.9969759998
 40
0.9982498666
 40
0.999255484
 40
1.0
 40
1.0
 40
1.0
 40
1.0
 10
2.9521200247
 20
2.1411184261
 30
0.0
 10
2.9522244497
 20
2.1408674211
 30
0.0
 10
2.9524223029
 20
2.1402771553
 30
0.0
 10
2.9526861354
 20
2.1392612454
 30
0.0
 10
2.9529516616
 20
2.1380038748
 30
0.0
 10
2.9533346856
 20
2.1358497213
 30
0.0
 10
2.9537975034
 20
2.132551759
 30
0.0
 10
2.9543266234
 20
2.1278750485
 30
0.0
 10
2.9548579903
 20
2.122251907
 30
0.0
 10
2.955391536
 20
2.1156961923
 30
0.0
 10
2.9559262609
 20
2.1082229552
 30
0.0
 10
2.9564618902
 20
2.0998478494
 30
0.0
 10
2.9569980576
 20
2.0905888222
 30
0.0
 10
2.9577426707
 20
2.0765411125
 30
0.0
 10
2.9586605163
 20
2.0569471157
 30
0.0
 10
2.9597268641
 20
2.0311207523
 30
0.0
 10
2.9607950268
 20
2.0023846492
 30
0.0
 10
2.9618649209
 20
1.9709962797
 30
0.0
 10
2.962935568
 20
1.9372386714
 30
0.0
 10
2.9640072129
 20
1.9014134924
 30
0.0
 10
2.965079175
 20
1.8638438818
 30
0.0
 10
2.9661515886
 20
1.824866908
 30
0.0
 10
2.9675919274
 20
1.7711058741
 30
0.0
 10
2.9693681529
 20
1.7030795484
 30
0.0
 10
2.9711456443
 20
1.6351147202
 30
0.0
 10
2.9725869736
 20
1.5815493894
 30
0.0
 10
2.9736588871
 20
1.542826894
 30
0.0
 10
2.974730327
 20
1.5055800508
 30
0.0
 10
2.975801176
 20
1.4701435684
 30
0.0
 10
2.9768708267
 20
1.4368365948
 30
0.0
 10
2.9779395452
 20
1.4059561759
 30
0.0
 10
2.9790061146
 20
1.3777798133
 30
0.0
 10
2.9800708188
 20
1.3525572543
 30
0.0
 10
2.9809878375
 20
1.3334913997
 30
0.0
 10
2.9817323625
 20
1.319883409
 30
0.0
 10
2.9822675608
 20
1.3109653827
 30
0.0
 10
2.9828020351
 20
1.3029369431
 30
0.0
 10
2.9833355089
 20
1.2958147591
 30
0.0
 10
2.9838673793
 20
1.2896140292
 30
0.0
 10
2.9843972871
 20
1.2843496986
 30
0.0
 10
2.9848590727
 20
1.2805563078
 30
0.0
 10
2.9852382106
 20
1.2780013689
 30
0.0
 10
2.9855046339
 20
1.2764428372
 30
0.0
 10
2.98577
 20
1.2751250346
 30
0.0
 10
2.9860336688
 20
1.2740474309
 30
0.0
 10
2.9862950707
 20
1.2732105747
 30
0.0
 10
2.9864949883
 20
1.2727414306
 30
0.0
 10
2.9866026415
 20
1.2725543797
 30
0.0
 11
2.9521200247
 21
2.1411184261
 31
0.0
 11
2.9523896288
 21
2.1403486948
 31
0.0
 11
2.9526593339
 21
2.1393357291
 31
0.0
 11
2.9529291129
 21
2.1380801677
 31
0.0
 11
2.9531989389
 21
2.1365826492
 31
0.0
 11
2.9537386233
 21
2.1328642954
 31
0.0
 11
2.9542781814
 21
2.1281861745
 31
0.0
 11
2.9548175542
 21
2.1225594433
 31
0.0
 11
2.9553567925
 21
2.1159994596
 31
0.0
 11
2.9558959496
 21
2.1085216811
 31
0.0
 11
2.9564350786
 21
2.1001415656
 31
0.0
 11
2.9569742268
 21
2.0908753996
 31
0.0
 11
2.9575133964
 21
2.0807455386
 31
0.0
 11
2.9585917289
 21
2.0579949563
 31
0.0
 11
2.9596699384
 21
2.03209178
 31
0.0
 11
2.9607479888
 21
2.0032688032
 31
0.0
 11
2.96182594
 21
1.9717883359
 31
0.0
 11
2.9629038386
 21
1.9379278494
 31
0.0
 11
2.9639816908
 21
1.9019968944
 31
0.0
 11
2.9650594952
 21
1.8643134942
 31
0.0
 11
2.9661372396
 21
1.8252196006
 31
0.0
 11
2.9672149086
 21
1.785066458
 31
0.0
 11
2.9693700211
 21
1.7030301445
 31
0.0
 11
2.971524914
 21
1.621142183
 31
0.0
 11
2.9726023198
 21
1.5811734348
 31
0.0
 11
2.9736796898
 21
1.5423338063
 31
0.0
 11
2.9747569974
 21
1.5049752005
 31
0.0
 11
2.9758342115
 21
1.4694335029
 31
0.0
 11
2.9769112957
 21
1.4360250863
 31
0.0
 11
2.9779882376
 21
1.4050552426
 31
0.0
 11
2.9790651145
 21
1.3767934859
 31
0.0
 11
2.9801420102
 21
1.3514978115
 31
0.0
 11
2.9812188663
 21
1.3293900773
 31
0.0
 11
2.9817572346
 21
1.3195942804
 31
0.0
 11
2.9822955418
 21
1.3106701466
 31
0.0
 11
2.9828338115
 21
1.3026370304
 31
0.0
 11
2.9833720962
 21
1.2955104043
 31
0.0
 11
2.9839104488
 21
1.2893056501
 31
0.0
 11
2.9844489225
 21
1.28403815
 31
0.0
 11
2.9849875476
 21
1.2797224123
 31
0.0
 11
2.9852568784
 21
1.2779241444
 31
0.0
 11
2.9855261856
 21
1.2763664649
 31
0.0
 11
2.9857954424
 21
1.2750500113
 31
0.0
 11
2.9860646218
 21
1.273975421
 31
0.0
 11
2.9863336972
 21
1.2731433313
 31
0.0
 11
2.9866026415
 21
1.2725543797
 31
0.0
  0
SPLINE
  5
33E
100
AcDbEntity
  8
0
100
AcDbSpline
 62
6
  6
CONTINUOUS
 70
0
 71
3
 72
9
 73
5
 74
3
 42
0.0000001
 43
0.0000001
 44
0.0000000001
 12
0.0677521141
 22
0.0099876066
 32
0.0
 13
0.0682869388
 23
0.0051956941
 33
0.0
 40
0.0
 40
0.0
 40
0.0
 40
0.0
 40
0.5007486731
 40
1.0
 40
1.0
 40
1.0
 40
1.0
 10
8.0974304011
 20
7.1675981812
 30
0.0
 10
8.1087393282
 20
7.1692652748
 30
0.0
 10
8.1313732556
 20
7.1722681324
 30
0.0
 10
8.154101706
 20
7.1744681331
 30
0.0
 10
8.165465821
 20
7.1753327855
 30
0.0
 11
8.0974304011
 21
7.1675981812
 31
0.0
 11
8.131430848
 21
7.172071313
 31
0.0
 11
8.165465821
 21
7.1753327855
 31
0.0
  0
SPLINE
  5
33F
100
AcDbEntity
  8
0
100
AcDbSpline
 62
6
  6
CONTINUOUS
 70
0
 71
3
 72
10
 73
6
 74
4
 42
0.0000001
 43
0.0000001
 44
0.0000000001
 12
0.0011051948
 22
-0.0002397156
 32
0.0
 13
0.0004321707
 23
-0.0010450587
 33
0.0
 40
0.0
 40
0.0
 40
0.0
 40
0.0
 40
0.3725273243
 40
0.6505416855
 40
1.0
 40
1.0
 40
1.0
 40
1.0
 10
2.8087017319
 20
2.1375248751
 30
0.0
 10
2.8088389703
 20
2.1374951082
 30
0.0
 10
2.8090300594
 20
2.1373003795
 30
0.0
 10
2.8092203931
 20
2.1369825861
 30
0.0
 10
2.8093195344
 20
2.1367653793
 30
0.0
 10
2.8093698763
 20
2.1366436445
 30
0.0
 11
2.8087017319
 21
2.1375248751
 31
0.0
 11
2.8090357627
 21
2.1372681506
 31
0.0
 11
2.8092028122
 21
2.1370017962
 31
0.0
 11
2.8093698763
 21
2.1366436445
 31
0.0
  0
SPLINE
  5
340
100
AcDbEntity
  8
0
100
AcDbSpline
 62
6
  6
CONTINUOUS
 70
0
 71
3
 72
52
 73
48
 74
46
 42
0.0000001
 43
0.0000001
 44
0.0000000001
 12
0.3289186629
 22
-0.7953785854
 32
0.0
 13
0.4293419683
 23
-0.7459759078
 33
0.0
 40
0.0
 40
0.0
 40
0.0
 40
0.0
 40
0.0009545422
 40
0.0021762589
 40
0.0036688792
 40
0.0054340689
 40
0.0097842496
 40
0.0152271887
 40
0.0217529735
 40
0.0293457827
 40
0.037989009
 40
0.0476656636
 40
0.0583573575
 40
0.0700385093
 40
0.0962558875
 40
0.1260885199
 40
0.1592693746
 40
0.1955003016
 40
0.2344629237
 40
0.2758004204
 40
0.3191470867
 40
0.3641097064
 40
0.4102837973
 40
0.5046060152
 40
0.5987419913
 40
0.644684343
 40
0.6893272408
 40
0.732269665
 40
0.7731270247
 40
0.8115364527
 40
0.8471482096
 40
0.8796526343
 40
0.9087531991
 40
0.9341963325
 40
0.9454749379
 40
0.9557541017
 40
0.9650121238
 40
0.973231791
 40
0.9803962505
 40
0.9864891202
 40
0.9914959247
 40
0.993590198
 40
0.9954117136
 40
0.9969610079
 40
0.9982394364
 40
0.9992500508
 40
1.0
 40
1.0
 40
1.0
 40
1.0
 10
2.8093698763
 20
2.1366436445
 30
0.0
 10
2.8094745319
 20
2.1363905704
 30
0.0
 10
2.809673168
 20
2.1357973524
 30
0.0
 10
2.8099383675
 20
2.134778425
 30
0.0
 10
2.8102051153
 20
2.1335208287
 30
0.0
 10
2.8105894183
 20
2.1313719547
 30
0.0
 10
2.8110537467
 20
2.1280875986
 30
0.0
 10
2.8115843086
 20
2.1234356025
 30
0.0
 10
2.8121167528
 20
2.1178484032
 30
0.0
 10
2.8126509927
 20
2.1113397635
 30
0.0
 10
2.8131860662
 20
2.1039245448
 30
0.0
 10
2.8137217052
 20
2.0956182588
 30
0.0
 10
2.8142575654
 20
2.0864387755
 30
0.0
 10
2.8150012509
 20
2.072517952
 30
0.0
 10
2.8159172421
 20
2.0531071749
 30
0.0
 10
2.8169804733
 20
2.0275286711
 30
0.0
 10
2.8180446942
 20
1.999075085
 30
0.0
 10
2.8191098152
 20
1.968000469
 30
0.0
 10
2.8201750234
 20
1.9345844334
 30
0.0
 10
2.8212406451
 20
1.8991259232
 30
0.0
 10
2.8223060485
 20
1.8619452603
 30
0.0
 10
2.8233714461
 20
1.823376424
 30
0.0
 10
2.8248018525
 20
1.770187122
 30
0.0
 10
2.8265652086
 20
1.7028937586
 30
0.0
 10
2.8283298539
 20
1.6356669368
 30
0.0
 10
2.8297610174
 20
1.5826893799
 30
0.0
 10
2.8308256264
 20
1.5443948195
 30
0.0
 10
2.8318901639
 20
1.5075597326
 30
0.0
 10
2.8329546479
 20
1.4725138174
 30
0.0
 10
2.8340185223
 20
1.4395720864
 30
0.0
 10
2.8350820686
 20
1.4090281523
 30
0.0
 10
2.8361440277
 20
1.3811566309
 30
0.0
 10
2.8372046555
 20
1.3562047972
 30
0.0
 10
2.8381185325
 20
1.3373421825
 30
0.0
 10
2.8388607481
 20
1.3238779235
 30
0.0
 10
2.8393944256
 20
1.3150528842
 30
0.0
 10
2.83992749
 20
1.3071071757
 30
0.0
 10
2.8404596671
 20
1.3000572569
 30
0.0
 10
2.8409903561
 20
1.2939181743
 30
0.0
 10
2.8415191967
 20
1.2887047226
 30
0.0
 10
2.8419801095
 20
1.2849469508
 30
0.0
 10
2.8423585381
 20
1.2824150259
 30
0.0
 10
2.8426245412
 20
1.2808696104
 30
0.0
 10
2.8428895223
 20
1.2795621535
 30
0.0
 10
2.8431528601
 20
1.2784921447
 30
0.0
 10
2.8434139867
 20
1.277660104
 30
0.0
 10
2.8436135631
 20
1.2771932743
 30
0.0
 10
2.8437208914
 20
1.2770067929
 30
0.0
 11
2.8093698763
 21
2.1366436445
 31
0.0
 11
2.809640831
 21
2.1358680303
 31
0.0
 11
2.8099117826
 21
2.1348519994
 31
0.0
 11
2.8101827054
 21
2.1335961837
 31
0.0
 11
2.8104535739
 21
2.1321012153
 31
0.0
 11
2.8109950445
 21
2.1283963485
 31
0.0
 11
2.8115360011
 21
2.1237429162
 31
0.0
 11
2.8120764042
 21
2.1181521921
 31
0.0
 11
2.8126163189
 21
2.1116393579
 31
0.0
 11
2.8131558121
 21
2.1042196701
 31
0.0
 11
2.8136949509
 21
2.0959083848
 31
0.0
 11
2.8142337945
 21
2.0867217707
 31
0.0
 11
2.8147723569
 21
2.0766821697
 31
0.0
 11
2.8158486254
 21
2.0541423998
 31
0.0
 11
2.8169237381
 21
2.0284877958
 31
0.0
 11
2.8179977905
 21
1.9999490435
 31
0.0
 11
2.8190709713
 21
1.9687833441
 31
0.0
 11
2.8201434328
 21
1.9352651399
 31
0.0
 11
2.8212152474
 21
1.8997018617
 31
0.0
 11
2.8222864799
 21
1.8624085141
 31
0.0
 11
2.8233572046
 21
1.8237237388
 31
0.0
 11
2.8244275005
 21
1.7839958427
 31
0.0
 11
2.8265672187
 21
1.7028403595
 31
0.0
 11
2.8287065486
 21
1.6218452212
 31
0.0
 11
2.8297763337
 21
1.5823168434
 31
0.0
 11
2.8308463539
 21
1.5439073411
 31
0.0
 11
2.831916738
 21
1.5069620473
 31
0.0
 11
2.8329875639
 21
1.4718121856
 31
0.0
 11
2.8340588427
 21
1.4387703276
 31
0.0
 11
2.835130587
 21
1.4081378226
 31
0.0
 11
2.8362028325
 21
1.3801816289
 31
0.0
 11
2.8372756072
 21
1.3551575865
 31
0.0
 11
2.8383488197
 21
1.3332848458
 31
0.0
 11
2.83888554
 21
1.3235921327
 31
0.0
 11
2.8394223125
 21
1.3147610943
 31
0.0
 11
2.839959159
 21
1.3068107651
 31
0.0
 11
2.840496129
 21
1.2997564567
 31
0.0
 11
2.8410332723
 21
1.2936134034
 31
0.0
 11
2.8415706391
 21
1.2883968392
 31
0.0
 11
2.8421082562
 21
1.2841211199
 31
0.0
 11
2.842377119
 21
1.2823387307
 31
0.0
 11
2.8426459818
 21
1.2807941675
 31
0.0
 11
2.8429148176
 21
1.2794880611
 31
0.0
 11
2.8431835993
 21
1.2784210426
 31
0.0
 11
2.8434522995
 21
1.2775937428
 31
0.0
 11
2.8437208914
 21
1.2770067929
 31
0.0
  0
SPLINE
  5
341
100
AcDbEntity
  8
0
100
AcDbSpline
 62
6
  6
CONTINUOUS
 70
0
 71
3
 72
11
 73
7
 74
5
 42
0.0000001
 43
0.0000001
 44
0.0000000001
 12
0.0011838226
 22
0.0000368577
 32
0.0
 13
0.0004544032
 23
-0.0010937606
 33
0.0
 40
0.0
 40
0.0
 40
0.0
 40
0.0
 40
0.1594050943
 40
0.3648452298
 40
0.64158787
 40
1.0
 40
1.0
 40
1.0
 40
1.0
 10
2.8799935074
 20
2.1397538061
 30
0.0
 10
2.8800564098
 20
2.1397557645
 30
0.0
 10
2.8802018884
 20
2.1397085219
 30
0.0
 10
2.8803841871
 20
2.1395266077
 30
0.0
 10
2.8805629823
 20
2.1392457258
 30
0.0
 10
2.8806678432
 20
2.1390172138
 30
0.0
 10
2.8807221311
 20
2.1388865415
 30
0.0
 11
2.8799935074
 21
2.1397538061
 31
0.0
 11
2.8801755507
 21
2.1397037538
 31
0.0
 11
2.8803576746
 21
2.1395423948
 31
0.0
 11
2.8805398709
 21
2.1392699253
 31
0.0
 11
2.8807221311
 21
2.1388865415
 31
0.0
  0
SPLINE
  5
342
100
AcDbEntity
  8
0
100
AcDbSpline
 62
6
  6
CONTINUOUS
 70
0
 71
3
 72
52
 73
48
 74
46
 42
0.0000001
 43
0.0000001
 44
0.0000000001
 12
0.3319318449
 22
-0.7989687716
 32
0.0
 13
0.4315672459
 23
-0.7498530255
 33
0.0
 40
0.0
 40
0.0
 40
0.0
 40
0.0
 40
0.0009436327
 40
0.0021546768
 40
0.0036368964
 40
0.0053919619
 40
0.0097227098
 40
0.015147338
 40
0.0216561358
 40
0.0292332379
 40
0.0378619742
 40
0.0475252966
 40
0.058204987
 40
0.0698756945
 40
0.0960757224
 40
0.125894406
 40
0.1590655613
 40
0.1952892137
 40
0.2342474812
 40
0.2755843034
 40
0.3189340983
 40
0.363903695
 40
0.4100881128
 40
0.5044391517
 40
0.598613045
 40
0.644577273
 40
0.6892425028
 40
0.732205459
 40
0.7730801487
 40
0.8115049891
 40
0.8471309975
 40
0.8796479443
 40
0.9087587208
 40
0.9342091751
 40
0.9454903397
 40
0.9557713044
 40
0.965030292
 40
0.973250075
 40
0.9804137906
 40
0.9865050433
 40
0.9915093318
 40
0.993601996
 40
0.9954216625
 40
0.9969688608
 40
0.9982449377
 40
0.9992529348
 40
1.0
 40
1.0
 40
1.0
 40
1.0
 10
2.8807221311
 20
2.1388865415
 30
0.0
 10
2.8808265384
 20
2.1386352305
 30
0.0
 10
2.881024496
 20
2.1380448992
 30
0.0
 10
2.8812886085
 20
2.1370295756
 30
0.0
 10
2.8815543916
 20
2.1357741431
 30
0.0
 10
2.8819376583
 20
2.1336252748
 30
0.0
 10
2.882400841
 20
2.1303373031
 30
0.0
 10
2.8829303846
 20
2.1256766061
 30
0.0
 10
2.8834621454
 20
2.1200748377
 30
0.0
 10
2.8839960509
 20
2.1135457937
 30
0.0
 10
2.8845311101
 20
2.1061044478
 30
0.0
 10
2.8850670495
 20
2.0977663709
 30
0.0
 10
2.8856035042
 20
2.0885494205
 30
0.0
 10
2.8863484492
 20
2.0745676505
 30
0.0
 10
2.8872666643
 20
2.0550679927
 30
0.0
 10
2.8883333963
 20
2.0293683904
 30
0.0
 10
2.8894018605
 20
2.0007758991
 30
0.0
 10
2.8904719979
 20
1.9695460253
 30
0.0
 10
2.891542837
 20
1.9359599871
 30
0.0
 10
2.8926146325
 20
1.9003178803
 30
0.0
 10
2.8936866831
 20
1.8629414196
 30
0.0
 10
2.8947590916
 20
1.8241664107
 30
0.0
 10
2.8961993066
 20
1.7706876113
 30
0.0
 10
2.8979751442
 20
1.7030225943
 30
0.0
 10
2.8997520729
 20
1.6354211275
 30
0.0
 10
2.9011927658
 20
1.5821447795
 30
0.0
 10
2.9022641367
 20
1.5436326815
 30
0.0
 10
2.9033349253
 20
1.5065889349
 30
0.0
 10
2.9044050844
 20
1.4713456321
 30
0.0
 10
2.9054740282
 20
1.4382192345
 30
0.0
 10
2.9065420245
 20
1.4075044511
 30
0.0
 10
2.9076078612
 20
1.3794774352
 30
0.0
 10
2.9086718187
 20
1.3543872399
 30
0.0
 10
2.909588149
 20
1.3354207467
 30
0.0
 10
2.9103320869
 20
1.3218830664
 30
0.0
 10
2.9108668671
 20
1.3130105527
 30
0.0
 10
2.9114009152
 20
1.3050226238
 30
0.0
 10
2.9119339576
 20
1.2979358494
 30
0.0
 10
2.9124653939
 20
1.2917653597
 30
0.0
 10
2.9129948664
 20
1.2865260317
 30
0.0
 10
2.9134562548
 20
1.28275018
 30
0.0
 10
2.9138350399
 20
1.280206608
 30
0.0
 10
2.9141012385
 20
1.2786545879
 30
0.0
 10
2.9143663841
 20
1.2773419505
 30
0.0
 10
2.9146298454
 20
1.2762681749
 30
0.0
 10
2.9148910541
 20
1.2754337965
 30
0.0
 10
2.9150907561
 20
1.2749658652
 30
0.0
 10
2.9151982257
 20
1.2747791355
 30
0.0
 11
2.8807221311
 21
2.1388865415
 31
0.0
 11
2.8809919714
 21
2.1381160162
 31
0.0
 11
2.8812619065
 21
2.1371036183
 31
0.0
 11
2.8815319095
 21
2.1358499836
 31
0.0
 11
2.8818019533
 21
2.1343557484
 31
0.0
 11
2.8823420552
 21
2.13064802
 31
0.0
 11
2.8828820065
 21
2.1259859245
 31
0.0
 11
2.8834217498
 21
2.1203805938
 31
0.0
 11
2.8839613361
 21
2.1138473099
 31
0.0
 11
2.8845008194
 21
2.106401451
 31
0.0
 11
2.8850402533
 21
2.0980583954
 31
0.0
 11
2.8855796856
 21
2.0888343413
 31
0.0
 11
2.8861191182
 21
2.0787515426
 31
0.0
 11
2.8871979109
 21
2.0561095875
 31
0.0
 11
2.8882764895
 21
2.0303337287
 31
0.0
 11
2.8893548284
 21
2.0016551008
 31
0.0
 11
2.8904330149
 21
1.9703338111
 31
0.0
 11
2.8915111117
 21
1.9366452916
 31
0.0
 11
2.892589114
 21
1.9008979076
 31
0.0
 11
2.8936670059
 21
1.8634081894
 31
0.0
 11
2.894744762
 21
1.8245164952
 31
0.0
 11
2.8958223533
 21
1.7845733694
 31
0.0
 11
2.8979770397
 21
1.7029715388
 31
0.0
 11
2.9001311923
 21
1.6215230097
 31
0.0
 11
2.9012081116
 21
1.5817704384
 31
0.0
 11
2.9022849166
 21
1.5431421504
 31
0.0
 11
2.903361577
 21
1.5059872197
 31
0.0
 11
2.9044380782
 21
1.4706397998
 31
0.0
 11
2.9055144278
 21
1.4374129717
 31
0.0
 11
2.906590646
 21
1.4066089918
 31
0.0
 11
2.9076667927
 21
1.3784966936
 31
0.0
 11
2.9087429246
 21
1.3533337435
 31
0.0
 11
2.909818975
 21
1.3313409247
 31
0.0
 11
2.9103569263
 21
1.321595566
 31
0.0
 11
2.9108948077
 21
1.3127169981
 31
0.0
 11
2.9114326437
 21
1.304724418
 31
0.0
 11
2.911970487
 21
1.297633225
 31
0.0
 11
2.9125083905
 21
1.2914587348
 31
0.0
 11
2.9130464076
 21
1.2862162631
 31
0.0
 11
2.9135845683
 21
1.2819202482
 31
0.0
 11
2.913853664
 21
1.2801298343
 31
0.0
 11
2.9141227343
 21
1.2785786661
 31
0.0
 11
2.9143917524
 21
1.2772673778
 31
0.0
 11
2.9146606915
 21
1.2761966038
 31
0.0
 11
2.9149295249
 21
1.2753669783
 31
0.0
 11
2.9151982257
 21
1.2747791355
 31
0.0
  0
SPLINE
  5
343
100
AcDbEntity
  8
0
100
AcDbSpline
 62
6
  6
CONTINUOUS
 70
0
 71
3
 72
60
 73
56
 74
54
 42
0.0000001
 43
0.0000001
 44
0.0000000001
 12
0.8748260974
 22
0.0272372826
 32
0.0
 13
0.436584914
 23
-0.7585882831
 33
0.0
 40
0.0
 40
0.0
 40
0.0
 40
0.0
 40
0.0001602767
 40
0.0003494069
 40
0.0005872993
 40
0.0008841381
 40
0.0012450934
 40
0.0016729672
 40
0.0027351313
 40
0.0040779137
 40
0.0057041508
 40
0.0076150608
 40
0.0098110788
 40
0.0122922165
 40
0.015058144
 40
0.0214379811
 40
0.0289344466
 40
0.0375298612
 40
0.0472060934
 40
0.0579442634
 40
0.0697187983
 40
0.0824993543
 40
0.1109563702
 40
0.143059059
 40
0.1785000905
 40
0.2169546872
 40
0.2580601661
 40
0.3014298774
 40
0.346660263
 40
0.3933246969
 40
0.4409901813
 40
0.4892093201
 40
0.5855075406
 40
0.6326861883
 40
0.678627603
 40
0.7229018722
 40
0.7650902908
 40
0.8048044008
 40
0.8416660729
 40
0.8753381643
 40
0.9055052584
 40
0.9318878798
 40
0.9435846312
 40
0.9542453664
 40
0.9638449208
 40
0.9723646172
 40
0.9797865337
 40
0.9860932139
 40
0.991268825
 40
0.9934301308
 40
0.9953070212
 40
0.9968999895
 40
0.9982103665
 40
0.9992412362
 40
1.0
 40
1.0
 40
1.0
 40
1.0
 10
3.0228268767
 20
2.1442008532
 30
0.0
 10
3.0228736148
 20
2.1442023083
 30
0.0
 10
3.0229770347
 20
2.1441789571
 30
0.0
 10
3.0231178548
 20
2.1440765531
 30
0.0
 10
3.0232545435
 20
2.1439140498
 30
0.0
 10
3.0233903481
 20
2.1436900031
 30
0.0
 10
3.0235263285
 20
2.143403539
 30
0.0
 10
3.0237223655
 20
2.1428999961
 30
0.0
 10
3.0239591246
 20
2.1421070421
 30
0.0
 10
3.0242294076
 20
2.1409621478
 30
0.0
 10
3.0245010009
 20
2.1395642512
 30
0.0
 10
3.0247737487
 20
2.137913848
 30
0.0
 10
3.0250471362
 20
2.1360112065
 30
0.0
 10
3.0253210138
 20
2.1338569537
 30
0.0
 10
3.0257049975
 20
2.1304865323
 30
0.0
 10
3.0261764118
 20
2.125653813
 30
0.0
 10
3.0267209536
 20
2.1191202139
 30
0.0
 10
3.0272667853
 20
2.1116220962
 30
0.0
 10
3.0278137055
 20
2.1031761046
 30
0.0
 10
3.0283612
 20
2.0938009043
 30
0.0
 10
3.0289092572
 20
2.0835186554
 30
0.0
 10
3.0296680809
 20
2.068070964
 30
0.0
 10
3.0306045892
 20
2.0466943052
 30
0.0
 10
3.0316943291
 20
2.0187072291
 30
0.0
 10
3.0327861627
 20
1.987801447
 30
0.0
 10
3.0338791535
 20
1.9542676512
 30
0.0
 10
3.0349731359
 20
1.9184195549
 30
0.0
 10
3.0360677905
 20
1.8805937774
 30
0.0
 10
3.0371627173
 20
1.8411455363
 30
0.0
 10
3.0382580244
 20
1.8004435492
 30
0.0
 10
3.0393533657
 20
1.7588692871
 30
0.0
 10
3.0408132879
 20
1.7028189521
 30
0.0
 10
3.0422644614
 20
1.6469104698
 30
0.0
 10
3.0437345204
 20
1.5916672385
 30
0.0
 10
3.0448292565
 20
1.5515973891
 30
0.0
 10
3.0459233751
 20
1.5129839808
 30
0.0
 10
3.0470170141
 20
1.4761881337
 30
0.0
 10
3.0481093833
 20
1.441555876
 30
0.0
 10
3.0492007141
 20
1.40940954
 30
0.0
 10
3.0502899691
 20
1.380050195
 30
0.0
 10
3.0513769716
 20
1.3537503495
 30
0.0
 10
3.0523133146
 20
1.3338612811
 30
0.0
 10
3.0530735212
 20
1.3196616403
 30
0.0
 10
3.053619974
 20
1.3103541512
 30
0.0
 10
3.054165719
 20
1.3019752705
 30
0.0
 10
3.0547104323
 20
1.2945434754
 30
0.0
 10
3.0552534836
 20
1.2880751058
 30
0.0
 10
3.0557944989
 20
1.2825862137
 30
0.0
 10
3.0562659905
 20
1.2786331418
 30
0.0
 10
3.0566532656
 20
1.2759729156
 30
0.0
 10
3.0569252738
 20
1.2743524884
 30
0.0
 10
3.0571961776
 20
1.2729842613
 30
0.0
 10
3.0574652709
 20
1.2718676583
 30
0.0
 10
3.0577319698
 20
1.2710033361
 30
0.0
 10
3.0579363068
 20
1.2705197903
 30
0.0
 10
3.0580467284
 20
1.2703279272
 30
0.0
 11
3.0228268767
 21
2.1442008532
 31
0.0
 11
3.0229643618
 21
2.1441729795
 31
0.0
 11
3.0231018955
 21
2.1440808562
 31
0.0
 11
3.0232394742
 21
2.1439245689
 31
0.0
 11
3.0233770944
 21
2.1437042033
 31
0.0
 11
3.0235147524
 21
2.1434198451
 31
0.0
 11
3.0236524446
 21
2.1430715801
 31
0.0
 11
3.0239279173
 21
2.1421836719
 31
0.0
 11
3.0242034837
 21
2.1410411645
 31
0.0
 11
3.024479115
 21
2.1396447431
 31
0.0
 11
3.0247547825
 21
2.1379950935
 31
0.0
 11
3.0250304572
 21
2.136092901
 31
0.0
 11
3.0253061106
 21
2.1339388512
 31
0.0
 11
3.0255817158
 21
2.1315337124
 31
0.0
 11
3.0261327729
 21
2.1259770173
 31
0.0
 11
3.0266836726
 21
2.1194389041
 31
0.0
 11
3.0272344716
 21
2.1119359576
 31
0.0
 11
3.0277852268
 21
2.1034847624
 31
0.0
 11
3.0283359917
 21
2.0941023306
 31
0.0
 11
3.0288867778
 21
2.0838113978
 31
0.0
 11
3.0294375666
 21
2.0726387843
 31
0.0
 11
3.030539075
 21
2.0477561499
 31
0.0
 11
3.0316403999
 21
2.0196798635
 31
0.0
 11
3.0327415861
 21
1.9886796524
 31
0.0
 11
3.0338427154
 21
1.9550402835
 31
0.0
 11
3.0349437908
 21
1.9190795658
 31
0.0
 11
3.0360447668
 21
1.8811361955
 31
0.0
 11
3.0371456228
 21
1.8415636095
 31
0.0
 11
3.0382463748
 21
1.8007353993
 31
0.0
 11
3.0393470397
 21
1.7590307057
 31
0.0
 11
3.04044763
 21
1.7168412573
 31
0.0
 11
3.0426486331
 21
1.6325849825
 31
0.0
 11
3.0437490686
 21
1.5913065364
 31
0.0
 11
3.0448494566
 21
1.5511113724
 31
0.0
 11
3.0459497714
 21
1.5123759426
 31
0.0
 11
3.0470499841
 21
1.4754669234
 31
0.0
 11
3.0481500595
 21
1.4407245604
 31
0.0
 11
3.0492499693
 21
1.4084801361
 31
0.0
 11
3.0503497514
 21
1.3790291653
 31
0.0
 11
3.0514494733
 21
1.3526483278
 31
0.0
 11
3.0525491165
 21
1.3295831365
 31
0.0
 11
3.0530988742
 21
1.3193603264
 31
0.0
 11
3.0536485707
 21
1.3100457238
 31
0.0
 11
3.05419822
 21
1.3016617117
 31
0.0
 11
3.0547478765
 21
1.294225133
 31
0.0
 11
3.0552975977
 21
1.2877524022
 31
0.0
 11
3.055847441
 21
1.2822599337
 31
0.0
 11
3.0563974466
 21
1.2777634936
 31
0.0
 11
3.0566724754
 21
1.2758919105
 31
0.0
 11
3.0569474834
 21
1.2742723449
 31
0.0
 11
3.0572224416
 21
1.2729054804
 31
0.0
 11
3.0574973211
 21
1.2717920003
 31
0.0
 11
3.0577720931
 21
1.2709325881
 31
0.0
 11
3.0580467284
 21
1.2703279272
 31
0.0
  0
SPLINE
  5
344
100
AcDbEntity
  8
0
100
AcDbSpline
 62
6
  6
CONTINUOUS
 70
0
 71
3
 72
10
 73
6
 74
4
 42
0.0000001
 43
0.0000001
 44
0.0000000001
 12
0.0
 22
0.1270789436
 32
0.0
 13
0.0185329227
 23
0.1257202795
 33
0.0
 40
0.0
 40
0.0
 40
0.0
 40
0.0
 40
0.2493164543
 40
0.4989529464
 40
1.0
 40
1.0
 40
1.0
 40
1.0
 10
3.1337665872
 20
1.3278460417
 30
0.0
 10
3.1337665872
 20
1.3384069989
 30
0.0
 10
3.1342196426
 20
1.3595453931
 30
0.0
 10
3.1368804586
 20
1.4018303868
 30
0.0
 10
3.1406712984
 20
1.4334328297
 30
0.0
 10
3.1437665872
 20
1.4544300882
 30
0.0
 11
3.1337665872
 21
1.3278460417
 31
0.0
 11
3.1344377133
 21
1.3595218044
 31
0.0
 11
3.1364098283
 21
1.3911839879
 31
0.0
 11
3.1437665872
 21
1.4544300882
 31
0.0
  0
SPLINE
  5
345
100
AcDbEntity
  8
0
100
AcDbSpline
 62
6
  6
CONTINUOUS
 70
0
 71
3
 72
11
 73
7
 74
5
 42
0.0000001
 43
0.0000001
 44
0.0000000001
 12
0.000450725
 22
0.0016629818
 32
0.0
 13
0.0016415976
 23
0.0005232769
 33
0.0
 40
0.0
 40
0.0
 40
0.0
 40
0.0
 40
0.1456293436
 40
0.3526085413
 40
0.6355774083
 40
1.0
 40
1.0
 40
1.0
 40
1.0
 10
8.1677939495
 20
7.3085018807
 30
0.0
 10
8.1678158291
 20
7.3085826071
 30
0.0
 10
8.1679428637
 20
7.308753773
 30
0.0
 10
8.1682468893
 20
7.3089575012
 30
0.0
 10
8.1686933075
 20
7.3091652877
 30
0.0
 10
8.1690446837
 20
7.3092877134
 30
0.0
 10
8.1692440955
 20
7.309351278
 30
0.0
 11
8.1677939495
 21
7.3085018807
 31
0.0
 11
8.1679278628
 21
7.3087140748
 31
0.0
 11
8.1682144018
 21
7.3089263813
 31
0.0
 11
8.1686532511
 21
7.3091387868
 31
0.0
 11
8.1692440955
 21
7.309351278
 31
0.0
  0
SPLINE
  5
346
100
AcDbEntity
  8
0
100
AcDbSpline
 62
6
  6
CONTINUOUS
 70
0
 71
3
 72
49
 73
45
 74
43
 42
0.0000001
 43
0.0000001
 44
0.0000000001
 12
0.8288805506
 22
0.2642146132
 32
0.0
 13
0.7540093893
 23
0.4339610236
 33
0.0
 40
0.0
 40
0.0
 40
0.0
 40
0.0
 40
0.0011439202
 40
0.0025548362
 40
0.0061839362
 40
0.0108928403
 40
0.0166785911
 40
0.023528405
 40
0.0314263973
 40
0.0403561551
 40
0.0503009554
 40
0.0731497275
 40
0.0997632133
 40
0.1299157281
 40
0.1633380368
 40
0.1997372431
 40
0.238795372
 40
0.2801609238
 40
0.3234734944
 40
0.4143759347
 40
0.5082855683
 40
0.6018840417
 40
0.6475286177
 40
0.6918640835
 40
0.7344953495
 40
0.7750447731
 40
0.8131541609
 40
0.8484792704
 40
0.8807155819
 40
0.9095710003
 40
0.9347962113
 40
0.9459769114
 40
0.9561660097
 40
0.9653421848
 40
0.9734884225
 40
0.9805880515
 40
0.9866248636
 40
0.9915845038
 40
0.993658525
 40
0.9954620065
 40
0.996995477
 40
0.9982602753
 40
0.9992594203
 40
1.0
 40
1.0
 40
1.0
 40
1.0
 10
8.1692440955
 20
7.309351278
 30
0.0
 10
8.1695601532
 20
7.3094520248
 30
0.0
 10
8.1702758287
 20
7.309646082
 30
0.0
 10
8.1720279438
 20
7.3100296996
 30
0.0
 10
8.1748192783
 20
7.3104877628
 30
0.0
 10
8.1788817468
 20
7.311010488
 30
0.0
 10
8.1838844044
 20
7.3115357263
 30
0.0
 10
8.1898156047
 20
7.3120639355
 30
0.0
 10
8.1966615528
 20
7.3125935818
 30
0.0
 10
8.2044072496
 20
7.3131244479
 30
0.0
 10
8.2164838403
 20
7.3138680333
 30
0.0
 10
8.2336874545
 20
7.3147802158
 30
0.0
 10
8.2567509624
 20
7.3158362306
 30
0.0
 10
8.2828834227
 20
7.3168945733
 30
0.0
 10
8.3118556162
 20
7.3179553497
 30
0.0
 10
8.3434118788
 20
7.319017644
 30
0.0
 10
8.3772727801
 20
7.3200809331
 30
0.0
 10
8.4131393862
 20
7.3211453302
 30
0.0
 10
8.4640357054
 20
7.3225883244
 30
0.0
 10
8.5301658924
 20
7.3243664912
 30
0.0
 10
8.6108749934
 20
7.3264701597
 30
0.0
 10
8.6784640487
 20
7.3282373573
 30
0.0
 10
8.7316808539
 20
7.3296704104
 30
0.0
 10
8.770122162
 20
7.3307359764
 30
0.0
 10
8.8070853454
 20
7.3318012434
 30
0.0
 10
8.8422422541
 20
7.3328660729
 30
0.0
 10
8.8752794525
 20
7.3339299236
 30
0.0
 10
8.905904615
 20
7.3349930156
 30
0.0
 10
8.9338445461
 20
7.3360541232
 30
0.0
 10
8.9588533284
 20
7.3371135722
 30
0.0
 10
8.9777566937
 20
7.3380261594
 30
0.0
 10
8.9912485368
 20
7.3387671671
 30
0.0
 10
9.0000906072
 20
7.3392998829
 30
0.0
 10
9.0080510089
 20
7.3398319112
 30
0.0
 10
9.0151133334
 20
7.340362985
 30
0.0
 10
9.0212625433
 20
7.3408925053
 30
0.0
 10
9.0264838402
 20
7.3414201145
 30
0.0
 10
9.0302467315
 20
7.3418799142
 30
0.0
 10
9.0327816047
 20
7.3422574236
 30
0.0
 10
9.0343283454
 20
7.3425227394
 30
0.0
 10
9.0356365443
 20
7.3427870182
 30
0.0
 10
9.0367067225
 20
7.3430496319
 30
0.0
 10
9.0375383503
 20
7.3433100139
 30
0.0
 10
9.0380047545
 20
7.3435090869
 30
0.0
 10
9.0381908892
 20
7.3436162145
 30
0.0
 11
8.1692440955
 21
7.309351278
 31
0.0
 11
8.1702026791
 21
7.3096186711
 31
0.0
 11
8.171400639
 21
7.3098861518
 31
0.0
 11
8.1745121775
 21
7.3104212699
 31
0.0
 11
8.1785736908
 21
7.310956419
 31
0.0
 11
8.1835786216
 21
7.3114914267
 31
0.0
 11
8.1895137194
 21
7.3120262978
 31
0.0
 11
8.1963639129
 21
7.3125610853
 31
0.0
 11
8.2041141306
 21
7.313095842
 31
0.0
 11
8.2127492908
 21
7.313630621
 31
0.0
 11
8.2325982922
 21
7.3147003421
 31
0.0
 11
8.255726564
 21
7.3157702081
 31
0.0
 11
8.2819365974
 21
7.3168401246
 31
0.0
 11
8.3109933967
 21
7.3179101016
 31
0.0
 11
8.3426416228
 21
7.3189802035
 31
0.0
 11
8.3766042658
 21
7.3200504553
 31
0.0
 11
8.4125752408
 21
7.3211208276
 31
0.0
 11
8.4502407823
 21
7.3221912888
 31
0.0
 11
8.5292944255
 21
7.3243323774
 31
0.0
 11
8.6109651691
 21
7.3264736198
 31
0.0
 11
8.6923651127
 21
7.3286150868
 31
0.0
 11
8.7320602019
 21
7.329685933
 31
0.0
 11
8.7706159719
 21
7.3307568738
 31
0.0
 11
8.8076885368
 21
7.3318279258
 31
0.0
 11
8.8429491584
 21
7.3328990781
 31
0.0
 11
8.8760859717
 21
7.3339702896
 31
0.0
 11
8.9067991725
 21
7.3350415445
 31
0.0
 11
8.9348234087
 21
7.3361129091
 31
0.0
 11
8.9599039522
 21
7.3371844511
 31
0.0
 11
8.9818230131
 21
7.3382561028
 31
0.0
 11
8.9915351463
 21
7.3387919257
 31
0.0
 11
9.0003831745
 21
7.3393277264
 31
0.0
 11
9.0083481942
 21
7.3398635301
 31
0.0
 11
9.0154149103
 21
7.3403993886
 31
0.0
 11
9.0215680948
 21
7.3409353543
 31
0.0
 11
9.0267925196
 21
7.3414714796
 31
0.0
 11
9.0310738095
 21
7.3420077947
 31
0.0
 11
9.0328581083
 21
7.3422759856
 31
0.0
 11
9.0344039988
 21
7.3425441636
 31
0.0
 11
9.0357108515
 21
7.3428123019
 31
0.0
 11
9.0367780371
 21
7.3430803742
 31
0.0
 11
9.0376049262
 21
7.3433483539
 31
0.0
 11
9.0381908892
 21
7.3436162145
 31
0.0
  0
SPLINE
  5
347
100
AcDbEntity
  8
0
100
AcDbSpline
 62
6
  6
CONTINUOUS
 70
0
 71
3
 72
10
 73
6
 74
4
 42
0.0000001
 43
0.0000001
 44
0.0000000001
 12
0.0
 22
0.1270789436
 32
0.0
 13
-0.0185329227
 23
0.1257202796
 33
0.0
 40
0.0
 40
0.0
 40
0.0
 40
0.0
 40
0.2493164543
 40
0.4989529464
 40
1.0
 40
1.0
 40
1.0
 40
1.0
 10
3.3837665872
 20
1.3278460416
 30
0.0
 10
3.3837665872
 20
1.3384069988
 30
0.0
 10
3.3833135318
 20
1.3595453931
 30
0.0
 10
3.3806527158
 20
1.4018303867
 30
0.0
 10
3.376861876
 20
1.4334328297
 30
0.0
 10
3.3737665872
 20
1.4544300882
 30
0.0
 11
3.3837665872
 21
1.3278460416
 31
0.0
 11
3.3830954612
 21
1.3595218044
 31
0.0
 11
3.3811233461
 21
1.3911839878
 31
0.0
 11
3.3737665872
 21
1.4544300882
 31
0.0
  0
SPLINE
  5
348
100
AcDbEntity
  8
0
100
AcDbSpline
 62
6
  6
CONTINUOUS
 70
0
 71
3
 72
11
 73
7
 74
5
 42
0.0000001
 43
0.0000001
 44
0.0000000001
 12
0.0004506554
 22
0.0016616075
 32
0.0
 13
0.0016397925
 23
0.0005245095
 33
0.0
 40
0.0
 40
0.0
 40
0.0
 40
0.0
 40
0.145886345
 40
0.352951962
 40
0.6358309071
 40
1.0
 40
1.0
 40
1.0
 40
1.0
 10
8.1700176094
 20
7.3799210727
 30
0.0
 10
8.1700395243
 20
7.3800018747
 30
0.0
 10
8.1701663191
 20
7.3801731953
 30
0.0
 10
8.1704699367
 20
7.3803773337
 30
0.0
 10
8.170915608
 20
7.380585451
 30
0.0
 10
8.171266395
 20
7.3807080983
 30
0.0
 10
8.171465449
 20
7.3807717683
 30
0.0
 11
8.1700176094
 21
7.3799210727
 31
0.0
 11
8.1701514728
 21
7.3801335899
 31
0.0
 11
8.17043761
 21
7.3803462204
 31
0.0
 11
8.1708757068
 21
7.380558951
 31
0.0
 11
8.171465449
 21
7.3807717683
 31
0.0
  0
SPLINE
  5
349
100
AcDbEntity
  8
0
100
AcDbSpline
 62
6
  6
CONTINUOUS
 70
0
 71
3
 72
49
 73
45
 74
43
 42
0.0000001
 43
0.0000001
 44
0.0000000001
 12
0.824383814
 22
0.263690171
 32
0.0
 13
0.7501451638
 23
0.4317677759
 33
0.0
 40
0.0
 40
0.0
 40
0.0
 40
0.0
 40
0.001145858
 40
0.0025585846
 40
0.0061909846
 40
0.0109028304
 40
0.0166912851
 40
0.0235436478
 40
0.0314440097
 40
0.0403759291
 40
0.050322661
 40
0.0731757676
 40
0.0997923203
 40
0.1299447932
 40
0.1633658667
 40
0.1997613015
 40
0.2388151553
 40
0.2801755158
 40
0.3234819288
 40
0.4143710558
 40
0.5082669449
 40
0.601854712
 40
0.6474953504
 40
0.6918269515
 40
0.734454072
 40
0.7749982731
 40
0.813103816
 40
0.8484276466
 40
0.8806647684
 40
0.9095227541
 40
0.9347516577
 40
0.9459348768
 40
0.9561270125
 40
0.9653065461
 40
0.9734565003
 40
0.9805602683
 40
0.9866017097
 40
0.9915664693
 40
0.9936431959
 40
0.9954494884
 40
0.9969858852
 40
0.9982537375
 40
0.9992560779
 40
1.0
 40
1.0
 40
1.0
 40
1.0
 10
8.171465449
 20
7.3807717683
 30
0.0
 10
8.1717803246
 20
7.3808724855
 30
0.0
 10
8.1724932047
 20
7.381066522
 30
0.0
 10
8.1742380323
 20
7.3814501113
 30
0.0
 10
8.1770170858
 20
7.3819082025
 30
0.0
 10
8.181061061
 20
7.3824309746
 30
0.0
 10
8.1860402614
 20
7.3829562635
 30
0.0
 10
8.1919431337
 20
7.3834845191
 30
0.0
 10
8.1987559537
 20
7.3840142201
 30
0.0
 10
8.2064637704
 20
7.3845451451
 30
0.0
 10
8.2184808787
 20
7.3852888357
 30
0.0
 10
8.2355990764
 20
7.386201105
 30
0.0
 10
8.2585466654
 20
7.3872572577
 30
0.0
 10
8.2845459512
 20
7.388315782
 30
0.0
 10
8.3133685182
 20
7.3893766067
 30
0.0
 10
8.3447607482
 20
7.3904390275
 30
0.0
 10
8.3784447181
 20
7.3915024055
 30
0.0
 10
8.4141234689
 20
7.3925669264
 30
0.0
 10
8.464752514
 20
7.3940101152
 30
0.0
 10
8.5305351185
 20
7.3957885462
 30
0.0
 10
8.6108208261
 20
7.3978926202
 30
0.0
 10
8.6780562459
 20
7.3996602179
 30
0.0
 10
8.7309957095
 20
7.4010936358
 30
0.0
 10
8.7692370797
 20
7.4021594992
 30
0.0
 10
8.8060074987
 20
7.4032250123
 30
0.0
 10
8.8409808648
 20
7.4042901081
 30
0.0
 10
8.8738461632
 20
7.4053542242
 30
0.0
 10
8.9043134709
 20
7.4064176095
 30
0.0
 10
8.9321110929
 20
7.4074790512
 30
0.0
 10
8.9569939473
 20
7.4085388325
 30
0.0
 10
8.9758030649
 20
7.4094517337
 30
0.0
 10
8.9892284526
 20
7.4101929862
 30
0.0
 10
8.9980277657
 20
7.4107258896
 30
0.0
 10
9.005950241
 20
7.4112581164
 30
0.0
 10
9.0129795219
 20
7.411789393
 30
0.0
 10
9.0191006914
 20
7.4123191235
 30
0.0
 10
9.024299056
 20
7.4128469488
 30
0.0
 10
9.0280460451
 20
7.4133069145
 30
0.0
 10
9.03057077
 20
7.4136845445
 30
0.0
 10
9.0321118302
 20
7.4139499774
 30
0.0
 10
9.0334156398
 20
7.4142143808
 30
0.0
 10
9.0344827123
 20
7.4144771366
 30
0.0
 10
9.0353125357
 20
7.4147376792
 30
0.0
 10
9.0357781443
 20
7.4149367931
 30
0.0
 10
9.0359641608
 20
7.4150438603
 30
0.0
 11
8.171465449
 21
7.3807717683
 31
0.0
 11
8.1724204967
 21
7.3810391616
 31
0.0
 11
8.173613638
 21
7.3813066444
 31
0.0
 11
8.1767117105
 21
7.3818417733
 31
0.0
 11
8.1807546849
 21
7.3823769444
 31
0.0
 11
8.1857361116
 21
7.3829119853
 31
0.0
 11
8.1916428618
 21
7.3834468986
 31
0.0
 11
8.1984599091
 21
7.3839817363
 31
0.0
 11
8.2061722268
 21
7.3845165505
 31
0.0
 11
8.2147647864
 21
7.3850513934
 31
0.0
 11
8.2345158675
 21
7.3861212647
 31
0.0
 11
8.2575284138
 21
7.3871912872
 31
0.0
 11
8.2836043205
 21
7.3882613303
 31
0.0
 11
8.3125114441
 21
7.3893313981
 31
0.0
 11
8.3439945798
 21
7.3904015842
 31
0.0
 11
8.3777798886
 21
7.3914719384
 31
0.0
 11
8.4135624883
 21
7.3925424325
 31
0.0
 11
8.4510301704
 21
7.393613032
 31
0.0
 11
8.5296682328
 21
7.3957544388
 31
0.0
 11
8.6109096642
 21
7.3978960653
 31
0.0
 11
8.6918843052
 21
7.4000380294
 31
0.0
 11
8.7313730958
 21
7.4011091654
 31
0.0
 11
8.7697284445
 21
7.4021803995
 31
0.0
 11
8.8066079142
 21
7.4032517165
 31
0.0
 11
8.8416837542
 21
7.4043231077
 31
0.0
 11
8.8746478137
 21
7.4053945734
 31
0.0
 11
8.9052028447
 21
7.4064661268
 31
0.0
 11
8.9330844331
 21
7.4075378221
 31
0.0
 11
8.9580388585
 21
7.4086097109
 31
0.0
 11
8.9798488868
 21
7.4096817241
 31
0.0
 11
8.9895134393
 21
7.4102177343
 31
0.0
 11
8.9983187344
 21
7.4107537262
 31
0.0
 11
9.0062457905
 21
7.4112897235
 31
0.0
 11
9.0132794181
 21
7.4118257778
 31
0.0
 11
9.0194045163
 21
7.4123619415
 31
0.0
 11
9.0246059844
 21
7.4128982669
 31
0.0
 11
9.0288695048
 21
7.4134347858
 31
0.0
 11
9.0306468367
 21
7.4137030812
 31
0.0
 11
9.0321870448
 21
7.4139713655
 31
0.0
 11
9.0334895051
 21
7.4142396121
 31
0.0
 11
9.0345535938
 21
7.4145077944
 31
0.0
 11
9.035378687
 21
7.414775886
 31
0.0
 11
9.0359641608
 21
7.4150438603
 31
0.0
  0
SPLINE
  5
34A
100
AcDbEntity
  8
0
100
AcDbSpline
 62
6
  6
CONTINUOUS
 70
0
 71
3
 72
10
 73
6
 74
4
 42
0.0000001
 43
0.0000001
 44
0.0000000001
 12
0.0186280008
 22
0.2527305062
 32
0.0
 13
0.0
 23
0.2534160831
 33
0.0
 40
0.0
 40
0.0
 40
0.0
 40
0.0
 40
0.4999906585
 40
0.7499958842
 40
1.0
 40
1.0
 40
1.0
 40
1.0
 10
3.3737665872
 20
1.4544300882
 30
0.0
 10
3.376871196
 20
1.4965510523
 30
0.0
 10
3.3806590865
 20
1.5598067905
 30
0.0
 10
3.3833135465
 20
1.6442415601
 30
0.0
 10
3.3837665872
 20
1.6864798265
 30
0.0
 10
3.3837665872
 20
1.7075981811
 30
0.0
 11
3.3737665872
 21
1.4544300882
 31
0.0
 11
3.3811229794
 21
1.5809220302
 31
0.0
 11
3.383094995
 21
1.644246677
 31
0.0
 11
3.3837665872
 21
1.7075981811
 31
0.0
  0
SPLINE
  5
34B
100
AcDbEntity
  8
0
100
AcDbSpline
 62
6
  6
CONTINUOUS
 70
0
 71
3
 72
11
 73
7
 74
5
 42
0.0000001
 43
0.0000001
 44
0.0000000001
 12
0.0004567377
 22
0.0016804585
 32
0.0
 13
0.0016590722
 23
0.0005291781
 33
0.0
 40
0.0
 40
0.0
 40
0.0
 40
0.0
 40
0.1456981177
 40
0.3527122744
 40
0.6356599228
 40
1.0
 40
1.0
 40
1.0
 40
1.0
 10
8.1722424913
 20
7.4513782824
 30
0.0
 10
8.1722646733
 20
7.4514598956
 30
0.0
 10
8.1723931212
 20
7.4516328995
 30
0.0
 10
8.1727004072
 20
7.4518388889
 30
0.0
 10
8.173151529
 20
7.4520489616
 30
0.0
 10
8.1735065855
 20
7.4521727463
 30
0.0
 10
8.1737080744
 20
7.4522370132
 30
0.0
 11
8.1722424913
 21
7.4513782824
 31
0.0
 11
8.1723779681
 21
7.4515928071
 31
0.0
 11
8.172667605
 21
7.4518074462
 31
0.0
 11
8.1731110809
 21
7.4520221862
 31
0.0
 11
8.1737080744
 21
7.4522370132
 31
0.0
  0
SPLINE
  5
34C
100
AcDbEntity
  8
0
100
AcDbSpline
 62
6
  6
CONTINUOUS
 70
0
 71
3
 72
49
 73
45
 74
43
 42
0.0000001
 43
0.0000001
 44
0.0000000001
 12
0.8203452029
 22
0.2616575318
 32
0.0
 13
0.7462736075
 23
0.4295423362
 33
0.0
 40
0.0
 40
0.0
 40
0.0
 40
0.0
 40
0.0011540409
 40
0.0025747905
 40
0.0062226909
 40
0.0109492826
 40
0.0167516822
 40
0.023617133
 40
0.0315297212
 40
0.0404729991
 40
0.0504302151
 40
0.0733016375
 40
0.0999330457
 40
0.1300969985
 40
0.1635255658
 40
0.1999232676
 40
0.238973974
 40
0.280327933
 40
0.3236258895
 40
0.4144936453
 40
0.5083649461
 40
0.6019278556
 40
0.6475570505
 40
0.6918782614
 40
0.7344948569
 40
0.7750287686
 40
0.8131239389
 40
0.8484373011
 40
0.8806648887
 40
0.9095153623
 40
0.9347393103
 40
0.9459209206
 40
0.9561119962
 40
0.9652910839
 40
0.9734412211
 40
0.9805458101
 40
0.9865887224
 40
0.9915556274
 40
0.993633693
 40
0.9954415057
 40
0.9969796082
 40
0.9982493571
 40
0.9992537907
 40
1.0
 40
1.0
 40
1.0
 40
1.0
 10
8.1737080744
 20
7.4522370132
 30
0.0
 10
8.174023645
 20
7.4523376677
 30
0.0
 10
8.1747373903
 20
7.4525316917
 30
0.0
 10
8.1764820971
 20
7.4529152861
 30
0.0
 10
8.1792575137
 20
7.4533735802
 30
0.0
 10
8.1832930389
 20
7.4538965934
 30
0.0
 10
8.1882582975
 20
7.4544221013
 30
0.0
 10
8.1941417685
 20
7.4549505424
 30
0.0
 10
8.2009297706
 20
7.455480413
 30
0.0
 10
8.2086074224
 20
7.4560114922
 30
0.0
 10
8.2205738326
 20
7.456755315
 30
0.0
 10
8.2376159993
 20
7.4576677738
 30
0.0
 10
8.2604577613
 20
7.4587241594
 30
0.0
 10
8.2863323953
 20
7.4597828647
 30
0.0
 10
8.3150121508
 20
7.460843803
 30
0.0
 10
8.3462441287
 20
7.4619062606
 30
0.0
 10
8.3797520468
 20
7.4629696064
 30
0.0
 10
8.4152413863
 20
7.4640340165
 30
0.0
 10
8.4655986073
 20
7.4654770032
 30
0.0
 10
8.5310259494
 20
7.4672551517
 30
0.0
 10
8.6108768261
 20
7.4693587799
 30
0.0
 10
8.6777476436
 20
7.4711258623
 30
0.0
 10
8.7304003787
 20
7.4725587914
 30
0.0
 10
8.7684350143
 20
7.4736242273
 30
0.0
 10
8.8050066144
 20
7.4746892785
 30
0.0
 10
8.8397904335
 20
7.4757538202
 30
0.0
 10
8.8724770706
 20
7.4768172892
 30
0.0
 10
8.9027782966
 20
7.4778799324
 30
0.0
 10
8.9304244196
 20
7.478940547
 30
0.0
 10
8.9551723786
 20
7.4799994352
 30
0.0
 10
8.9738802214
 20
7.4809114853
 30
0.0
 10
8.9872339803
 20
7.4816519998
 30
0.0
 10
8.9959868649
 20
7.4821843653
 30
0.0
 10
9.0038679377
 20
7.4827160341
 30
0.0
 10
9.0108609492
 20
7.4832467351
 30
0.0
 10
9.0169510656
 20
7.4837758747
 30
0.0
 10
9.0221236758
 20
7.4843030952
 30
0.0
 10
9.0258525449
 20
7.4847625054
 30
0.0
 10
9.0283654787
 20
7.4851396452
 30
0.0
 10
9.0298997379
 20
7.4854047518
 30
0.0
 10
9.031198112
 20
7.4856688295
 30
0.0
 10
9.032261105
 20
7.4859312686
 30
0.0
 10
9.0330882167
 20
7.4861915052
 30
0.0
 10
9.0335524686
 20
7.4863903182
 30
0.0
 10
9.0337380941
 20
7.486497161
 30
0.0
 11
8.1737080744
 21
7.4522370132
 31
0.0
 11
8.1746650985
 21
7.4525045019
 31
0.0
 11
8.1758588335
 21
7.452772078
 31
0.0
 11
8.1789539582
 21
7.453307387
 31
0.0
 11
8.182988493
 21
7.4538427295
 31
0.0
 11
8.1879559808
 21
7.4543779339
 31
0.0
 11
8.1938433071
 21
7.4549130037
 31
0.0
 11
8.2006355141
 21
7.4554479905
 31
0.0
 11
8.2083176436
 21
7.4559829461
 31
0.0
 11
8.2168747355
 21
7.4565179222
 31
0.0
 11
8.2365393948
 21
7.4575880342
 31
0.0
 11
8.2594457492
 21
7.4586582636
 31
0.0
 11
8.2853967795
 21
7.4597284784
 31
0.0
 11
8.3141610083
 21
7.4607986628
 31
0.0
 11
8.3454834746
 21
7.4618688789
 31
0.0
 11
8.3790915873
 21
7.4629391699
 31
0.0
 11
8.4146838944
 21
7.4640095444
 31
0.0
 11
8.4519508278
 21
7.4650800023
 31
0.0
 11
8.5301644659
 21
7.4672210565
 31
0.0
 11
8.6109652832
 21
7.4693622009
 31
0.0
 11
8.6915004577
 21
7.4715035291
 31
0.0
 11
8.7307755133
 21
7.472574297
 31
0.0
 11
8.7689238789
 21
7.4736451178
 31
0.0
 11
8.8056038599
 21
7.4747159591
 31
0.0
 11
8.840489714
 21
7.475786795
 31
0.0
 11
8.8732746046
 21
7.4768576071
 31
0.0
 11
8.9036628035
 21
7.4779283982
 31
0.0
 11
8.9313921444
 21
7.4789992403
 31
0.0
 11
8.9562111478
 21
7.4800702052
 31
0.0
 11
8.9779041541
 21
7.4811412249
 31
0.0
 11
8.9875173318
 21
7.4816767094
 31
0.0
 11
8.9962761471
 21
7.482212155
 31
0.0
 11
9.0041617707
 21
7.4827475853
 31
0.0
 11
9.0111591008
 21
7.4832830519
 31
0.0
 11
9.0172531178
 21
7.483818607
 31
0.0
 11
9.0224288019
 21
7.4843543027
 31
0.0
 11
9.0266719204
 21
7.4848901705
 31
0.0
 11
9.0284410896
 21
7.4851581322
 31
0.0
 11
9.0299744976
 21
7.4854260773
 31
0.0
 11
9.0312715233
 21
7.4856939793
 31
0.0
 11
9.0323315454
 21
7.4859618116
 31
0.0
 11
9.0331539427
 21
7.4862295476
 31
0.0
 11
9.0337380941
 21
7.486497161
 31
0.0
  0
SPLINE
  5
34D
100
AcDbEntity
  8
0
100
AcDbSpline
 62
6
  6
CONTINUOUS
 70
0
 71
3
 72
11
 73
7
 74
5
 42
0.0000001
 43
0.0000001
 44
0.0000000001
 12
0.000462212
 22
0.0016984796
 32
0.0
 13
0.0016774765
 23
0.0005334281
 33
0.0
 40
0.0
 40
0.0
 40
0.0
 40
0.0
 40
0.1454653166
 40
0.3524116392
 40
0.6354432938
 40
1.0
 40
1.0
 40
1.0
 40
1.0
 10
8.1744651677
 20
7.5227656292
 30
0.0
 10
8.1744875797
 20
7.5228479858
 30
0.0
 10
8.1746176092
 20
7.5230225426
 30
0.0
 10
8.1749283991
 20
7.5232301989
 30
0.0
 10
8.1753847738
 20
7.5234420703
 30
0.0
 10
8.1757439513
 20
7.5235669038
 30
0.0
 10
8.1759477964
 20
7.5236317254
 30
0.0
 11
8.1744651677
 21
7.5227656292
 31
0.0
 11
8.174602137
 21
7.5229819705
 31
0.0
 11
8.1748951171
 21
7.5231984429
 31
0.0
 11
8.1753437797
 21
7.5234150325
 31
0.0
 11
8.1759477964
 21
7.5236317254
 31
0.0
  0
SPLINE
  5
34E
100
AcDbEntity
  8
0
100
AcDbSpline
 62
6
  6
CONTINUOUS
 70
0
 71
3
 72
49
 73
45
 74
43
 42
0.0000001
 43
0.0000001
 44
0.0000000001
 12
0.8163263883
 22
0.2595872067
 32
0.0
 13
0.7424062335
 23
0.4273257242
 33
0.0
 40
0.0
 40
0.0
 40
0.0
 40
0.0
 40
0.0011620395
 40
0.0025906708
 40
0.006253908
 40
0.0109952293
 40
0.0168116946
 40
0.0236904913
 40
0.031615704
 40
0.0405708827
 40
0.0505392728
 40
0.0734307831
 40
0.1000791714
 40
0.1302569587
 40
0.1636964822
 40
0.2001026033
 40
0.2391591486
 40
0.2805148469
 40
0.323809541
 40
0.4146627275
 40
0.5085156571
 40
0.6020570071
 40
0.6476745871
 40
0.6919841628
 40
0.7345893937
 40
0.775112112
 40
0.8131961336
 40
0.8484972701
 40
0.8807121226
 40
0.9095506619
 40
0.9347630719
 40
0.9459396725
 40
0.9561265029
 40
0.9653018648
 40
0.9734487958
 40
0.9805507366
 40
0.9865915969
 40
0.9915570405
 40
0.9936345671
 40
0.9954419665
 40
0.99697978
 40
0.9982493613
 40
0.9992537426
 40
1.0
 40
1.0
 40
1.0
 40
1.0
 10
8.1759477964
 20
7.5236317254
 30
0.0
 10
8.1762639975
 20
7.5237322756
 30
0.0
 10
8.1769784895
 20
7.5239262101
 30
0.0
 10
8.1787228786
 20
7.5243096915
 30
0.0
 10
8.1814944874
 20
7.5247681112
 30
0.0
 10
8.1855214487
 20
7.5252913758
 30
0.0
 10
8.190472778
 20
7.5258172194
 30
0.0
 10
8.1963369872
 20
7.5263460729
 30
0.0
 10
8.2031004413
 20
7.5268764538
 30
0.0
 10
8.2107483324
 20
7.5274081452
 30
0.0
 10
8.2226648446
 20
7.5281529119
 30
0.0
 10
8.2396322476
 20
7.5290668959
 30
0.0
 10
8.262369953
 20
7.5301255634
 30
0.0
 10
8.2881222372
 20
7.5311870458
 30
0.0
 10
8.3166626858
 20
7.532251286
 30
0.0
 10
8.3477398651
 20
7.5333176211
 30
0.0
 10
8.3810785719
 20
7.5343854128
 30
0.0
 10
8.4163851067
 20
7.5354547941
 30
0.0
 10
8.466476614
 20
7.536905135
 30
0.0
 10
8.5315543821
 20
7.5386933908
 30
0.0
 10
8.6109756898
 20
7.5408098682
 30
0.0
 10
8.677485073
 20
7.5425878755
 30
0.0
 10
8.7298519985
 20
7.5440293436
 30
0.0
 10
8.7676795216
 20
7.5451008681
 30
0.0
 10
8.8040517002
 20
7.5461716646
 30
0.0
 10
8.8386454881
 20
7.5472415175
 30
0.0
 10
8.8711527024
 20
7.5483097173
 30
0.0
 10
8.9012864104
 20
7.5493764392
 30
0.0
 10
8.9287785323
 20
7.550440381
 30
0.0
 10
8.953387689
 20
7.5515016797
 30
0.0
 10
8.9719902464
 20
7.5524150655
 30
0.0
 10
8.9852686882
 20
7.5531560768
 30
0.0
 10
8.9939723744
 20
7.5536885235
 30
0.0
 10
9.001809276
 20
7.5542200055
 30
0.0
 10
9.0087631697
 20
7.554750233
 30
0.0
 10
9.0148193209
 20
7.5552786047
 30
0.0
 10
9.0199632158
 20
7.5558047519
 30
0.0
 10
9.0236714714
 20
7.5562629464
 30
0.0
 10
9.0261705853
 20
7.5566388921
 30
0.0
 10
9.0276964638
 20
7.5569030781
 30
0.0
 10
9.0289877886
 20
7.5571661541
 30
0.0
 10
9.0300450587
 20
7.557427513
 30
0.0
 10
9.0308677777
 20
7.557686593
 30
0.0
 10
9.0313295883
 20
7.5578844475
 30
0.0
 10
9.0315142637
 20
7.5579907458
 30
0.0
 11
8.1759477964
 21
7.5236317254
 31
0.0
 11
8.1769065984
 21
7.5238991958
 31
0.0
 11
8.1781007611
 21
7.5241667765
 31
0.0
 11
8.1811927025
 21
7.5247021648
 31
0.0
 11
8.1852186882
 21
7.5252376825
 31
0.0
 11
8.1901722502
 21
7.5257731623
 31
0.0
 11
8.1960402917
 21
7.5263086116
 31
0.0
 11
8.2028079275
 21
7.5268440851
 31
0.0
 11
8.2104602722
 21
7.5273796376
 31
0.0
 11
8.2189824381
 21
7.5279153238
 31
0.0
 11
8.2385621312
 21
7.528987206
 31
0.0
 11
8.2613640996
 21
7.5300596889
 31
0.0
 11
8.2871923037
 21
7.5311326616
 31
0.0
 11
8.3158166871
 21
7.5322061418
 31
0.0
 11
8.3469838961
 21
7.5332802339
 31
0.0
 11
8.3804227102
 21
7.5343549854
 31
0.0
 11
8.4158319352
 21
7.5354303429
 31
0.0
 11
8.4529028318
 21
7.5365062391
 31
0.0
 11
8.5306984527
 21
7.5386592835
 31
0.0
 11
8.6110645968
 21
7.5408133704
 31
0.0
 11
8.6911637348
 21
7.5429677839
 31
0.0
 11
8.7302251917
 21
7.5440449019
 31
0.0
 11
8.768165771
 21
7.5451218203
 31
0.0
 11
8.8046457959
 21
7.5461984166
 31
0.0
 11
8.8393411248
 21
7.547274562
 31
0.0
 11
8.8719464011
 21
7.5483501194
 31
0.0
 11
8.9021664668
 21
7.5494249731
 31
0.0
 11
8.929740999
 21
7.5504990918
 31
0.0
 11
8.9544209425
 21
7.5515724543
 31
0.0
 11
8.9759914063
 21
7.5526449175
 31
0.0
 11
8.9855503463
 21
7.5531807427
 31
0.0
 11
8.9942600012
 21
7.5537162618
 31
0.0
 11
9.0021014288
 21
7.554251485
 31
0.0
 11
9.0090596063
 21
7.5547864514
 31
0.0
 11
9.0151196254
 21
7.5553212009
 31
0.0
 11
9.0202665777
 21
7.5558557736
 31
0.0
 11
9.0244863012
 21
7.5563901897
 31
0.0
 11
9.0262457636
 21
7.5566572993
 31
0.0
 11
9.0277707956
 21
7.5569243062
 31
0.0
 11
9.0290607794
 21
7.5571911823
 31
0.0
 11
9.0301150972
 21
7.5574578996
 31
0.0
 11
9.0309331312
 21
7.5577244301
 31
0.0
 11
9.0315142637
 21
7.5579907458
 31
0.0
  0
SPLINE
  5
34F
100
AcDbEntity
  8
0
100
AcDbSpline
 62
6
  6
CONTINUOUS
 70
0
 71
3
 72
11
 73
7
 74
5
 42
0.0000001
 43
0.0000001
 44
0.0000000001
 12
0.0004703484
 22
0.0017226339
 32
0.0
 13
0.0017026888
 23
0.0005380947
 33
0.0
 40
0.0
 40
0.0
 40
0.0
 40
0.0
 40
0.1450607722
 40
0.3518891226
 40
0.6350663555
 40
1.0
 40
1.0
 40
1.0
 40
1.0
 10
8.1766900544
 20
7.5942228878
 30
0.0
 10
8.1767127974
 20
7.5943061833
 30
0.0
 10
8.1768450955
 20
7.5944826647
 30
0.0
 10
8.1771607507
 20
7.5946922513
 30
0.0
 10
8.1776244404
 20
7.5949062292
 30
0.0
 10
8.1779893401
 20
7.59503226
 30
0.0
 10
8.1781964629
 20
7.5950977163
 30
0.0
 11
8.1766900544
 21
7.5942228878
 31
0.0
 11
8.1768291133
 21
7.594441431
 31
0.0
 11
8.1771267587
 21
7.5946600931
 31
0.0
 11
8.1775826541
 21
7.5948788597
 31
0.0
 11
8.1781964629
 21
7.5950977163
 31
0.0
  0
SPLINE
  5
350
100
AcDbEntity
  8
0
100
AcDbSpline
 62
6
  6
CONTINUOUS
 70
0
 71
3
 72
49
 73
45
 74
43
 42
0.0000001
 43
0.0000001
 44
0.0000000001
 12
0.812520335
 22
0.2567779301
 32
0.0
 13
0.7385133668
 23
0.4251143459
 33
0.0
 40
0.0
 40
0.0
 40
0.0
 40
0.0
 40
0.001171805
 40
0.0026099956
 40
0.0062916208
 40
0.0110503012
 40
0.0168829551
 40
0.0237766603
 40
0.0317155564
 40
0.0406832503
 40
0.0506630422
 40
0.0735736025
 40
0.1002361315
 40
0.1304234773
 40
0.1638681066
 40
0.2002756152
 40
0.2393301267
 40
0.2806800625
 40
0.3239652915
 40
0.414789764
 40
0.5086053474
 40
0.6021073855
 40
0.6477054306
 40
0.6919960561
 40
0.7345838021
 40
0.7750905202
 40
0.8131611956
 40
0.8484517686
 40
0.8806587273
 40
0.909492542
 40
0.9347027205
 40
0.9458798012
 40
0.9560684806
 40
0.9652467909
 40
0.9733977854
 40
0.9805049823
 40
0.986552376
 40
0.991525659
 40
0.9936075638
 40
0.9954196581
 40
0.9969624983
 40
0.9982374583
 40
0.9992475958
 40
1.0
 40
1.0
 40
1.0
 40
1.0
 10
8.1781964629
 20
7.5950977163
 30
0.0
 10
8.1785138347
 20
7.5951980142
 30
0.0
 10
8.1792300934
 20
7.5953915743
 30
0.0
 10
8.1809760519
 20
7.5957743215
 30
0.0
 10
8.1837459229
 20
7.5962320312
 30
0.0
 10
8.1877664772
 20
7.5967544149
 30
0.0
 10
8.1927055801
 20
7.5972792633
 30
0.0
 10
8.1985517643
 20
7.5978069931
 30
0.0
 10
8.2052914608
 20
7.5983361359
 30
0.0
 10
8.2129099873
 20
7.5988664758
 30
0.0
 10
8.2247763366
 20
7.599609106
 30
0.0
 10
8.2416676416
 20
7.6005202354
 30
0.0
 10
8.2642985794
 20
7.6015752108
 30
0.0
 10
8.2899244028
 20
7.6026325064
 30
0.0
 10
8.3183202151
 20
7.6036920646
 30
0.0
 10
8.3492362255
 20
7.6047531755
 30
0.0
 10
8.382398873
 20
7.6058151943
 30
0.0
 10
8.4175159943
 20
7.6068782936
 30
0.0
 10
8.46733326
 20
7.6083194018
 30
0.0
 10
8.5320495211
 20
7.6100953381
 30
0.0
 10
8.6110259017
 20
7.6121966662
 30
0.0
 10
8.6771604312
 20
7.6139620184
 30
0.0
 10
8.7292316185
 20
7.6153936552
 30
0.0
 10
8.7668455715
 20
7.6164581882
 30
0.0
 10
8.8030127805
 20
7.6175223853
 30
0.0
 10
8.8374124708
 20
7.6185861704
 30
0.0
 10
8.8697384407
 20
7.6196489021
 30
0.0
 10
8.8997055877
 20
7.6207108641
 30
0.0
 10
8.9270473714
 20
7.6217708568
 30
0.0
 10
8.9515235839
 20
7.6228290216
 30
0.0
 10
8.9700269331
 20
7.6237405585
 30
0.0
 10
8.9832358393
 20
7.6244806389
 30
0.0
 10
8.9918953907
 20
7.6250127142
 30
0.0
 10
8.9996936722
 20
7.6255441324
 30
0.0
 10
9.0066144871
 20
7.6260746094
 30
0.0
 10
9.0126432168
 20
7.6266035581
 30
0.0
 10
9.0177654593
 20
7.6271306212
 30
0.0
 10
9.0214592812
 20
7.6275898676
 30
0.0
 10
9.0239497417
 20
7.627966847
 30
0.0
 10
9.025471319
 20
7.6282319111
 30
0.0
 10
9.0267597968
 20
7.6284959656
 30
0.0
 10
9.0278156582
 20
7.6287584208
 30
0.0
 10
9.0286384328
 20
7.6290187152
 30
0.0
 10
9.029100684
 20
7.6292174087
 30
0.0
 10
9.0292859042
 20
7.629324028
 30
0.0
 11
8.1781964629
 21
7.5950977163
 31
0.0
 11
8.1791586078
 21
7.5953648076
 31
0.0
 11
8.1803546538
 21
7.5956319852
 31
0.0
 11
8.1834460049
 21
7.5961664944
 31
0.0
 11
8.187465629
 21
7.596701034
 31
0.0
 11
8.1924069901
 21
7.597235438
 31
0.0
 11
8.1982569708
 21
7.5977697147
 31
0.0
 11
8.2050008113
 21
7.5983039157
 31
0.0
 11
8.2126237519
 21
7.5988380929
 31
0.0
 11
8.2211110288
 21
7.5993722979
 31
0.0
 11
8.2406045198
 21
7.6004408858
 31
0.0
 11
8.2632992897
 21
7.6015096142
 31
0.0
 11
8.2890005979
 21
7.6025783544
 31
0.0
 11
8.317479697
 21
7.603647103
 31
0.0
 11
8.3484851815
 21
7.6047159393
 31
0.0
 11
8.3817474994
 21
7.6057849008
 31
0.0
 11
8.4169667664
 21
7.6068539517
 31
0.0
 11
8.4538358773
 21
7.6079230564
 31
0.0
 11
8.5312005164
 21
7.6100614494
 31
0.0
 11
8.6111149017
 21
7.6122001857
 31
0.0
 11
8.6907619977
 21
7.6143393751
 31
0.0
 11
8.7296026944
 21
7.6154091621
 31
0.0
 11
8.7673288623
 21
7.6164790642
 31
0.0
 11
8.8036033475
 21
7.6175490571
 31
0.0
 11
8.8381037151
 21
7.6186191134
 31
0.0
 11
8.8705271963
 21
7.6196892015
 31
0.0
 11
8.900580279
 21
7.6207593041
 31
0.0
 11
8.9280038968
 21
7.6218294673
 31
0.0
 11
8.9525507108
 21
7.622899748
 31
0.0
 11
8.9740063582
 21
7.6239701111
 31
0.0
 11
8.9835156272
 21
7.6245052913
 31
0.0
 11
8.9921811891
 21
7.6250404548
 31
0.0
 11
8.9999839643
 21
7.6255756225
 31
0.0
 11
9.0069090124
 21
7.6261108469
 31
0.0
 11
9.012941556
 21
7.6266461813
 31
0.0
 11
9.0180668178
 21
7.6271816792
 31
0.0
 11
9.0222707035
 21
7.6277173754
 31
0.0
 11
9.0240244128
 21
7.627985263
 31
0.0
 11
9.0255451379
 21
7.6282531415
 31
0.0
 11
9.0268322643
 21
7.628520984
 31
0.0
 11
9.0278851772
 21
7.6287887638
 31
0.0
 11
9.0287032621
 21
7.629056454
 31
0.0
 11
9.0292859042
 21
7.629324028
 31
0.0
  0
SPLINE
  5
351
100
AcDbEntity
  8
0
100
AcDbSpline
 62
6
  6
CONTINUOUS
 70
0
 71
3
 72
10
 73
6
 74
4
 42
0.0000001
 43
0.0000001
 44
0.0000000001
 12
-0.0186280008
 22
0.2527305063
 32
0.0
 13
0.0
 23
0.2534160832
 33
0.0
 40
0.0
 40
0.0
 40
0.0
 40
0.0
 40
0.4999906585
 40
0.7499958842
 40
1.0
 40
1.0
 40
1.0
 40
1.0
 10
3.1437665872
 20
1.4544300882
 30
0.0
 10
3.1406619784
 20
1.4965510523
 30
0.0
 10
3.1368740879
 20
1.5598067906
 30
0.0
 10
3.1342196279
 20
1.6442415601
 30
0.0
 10
3.1337665872
 20
1.6864798266
 30
0.0
 10
3.1337665872
 20
1.7075981812
 30
0.0
 11
3.1437665872
 21
1.4544300882
 31
0.0
 11
3.1364101951
 21
1.5809220302
 31
0.0
 11
3.1344381795
 21
1.6442466771
 31
0.0
 11
3.1337665872
 21
1.7075981812
 31
0.0
  0
SPLINE
  5
352
100
AcDbEntity
  8
0
100
AcDbSpline
 62
6
  6
CONTINUOUS
 70
0
 71
3
 72
10
 73
6
 74
4
 42
0.0000001
 43
0.0000001
 44
0.0000000001
 12
0.0
 22
0.2534161023
 32
0.0
 13
0.0186280023
 23
0.2527305254
 33
0.0
 40
0.0
 40
0.0
 40
0.0
 40
0.0
 40
0.2500041616
 40
0.5000082762
 40
1.0
 40
1.0
 40
1.0
 40
1.0
 10
3.1337665872
 20
1.7075981812
 30
0.0
 10
3.1337665872
 20
1.7287165413
 30
0.0
 10
3.1342189245
 20
1.7709547285
 30
0.0
 10
3.1368738647
 20
1.855389499
 30
0.0
 10
3.1406619716
 20
1.9186452173
 30
0.0
 10
3.1437665872
 20
1.9607662743
 30
0.0
 11
3.1337665872
 21
1.7075981812
 31
0.0
 11
3.1344377133
 21
1.7709497067
 31
0.0
 11
3.1364098283
 21
1.8342740736
 31
0.0
 11
3.1437665872
 21
1.9607662743
 31
0.0
  0
SPLINE
  5
353
100
AcDbEntity
  8
0
100
AcDbSpline
 62
6
  6
CONTINUOUS
 70
0
 71
3
 72
10
 73
6
 74
4
 42
0.0000001
 43
0.0000001
 44
0.0000000001
 12
0.0
 22
0.2534161024
 32
0.0
 13
-0.0186280023
 23
0.2527305255
 33
0.0
 40
0.0
 40
0.0
 40
0.0
 40
0.0
 40
0.2500041616
 40
0.5000082762
 40
1.0
 40
1.0
 40
1.0
 40
1.0
 10
3.3837665872
 20
1.7075981811
 30
0.0
 10
3.3837665872
 20
1.7287165412
 30
0.0
 10
3.38331425
 20
1.7709547284
 30
0.0
 10
3.3806593097
 20
1.855389499
 30
0.0
 10
3.3768712029
 20
1.9186452173
 30
0.0
 10
3.3737665872
 20
1.9607662743
 30
0.0
 11
3.3837665872
 21
1.7075981811
 31
0.0
 11
3.3830954612
 21
1.7709497066
 31
0.0
 11
3.3811233461
 21
1.8342740735
 31
0.0
 11
3.3737665872
 21
1.9607662743
 31
0.0
  0
SPLINE
  5
354
100
AcDbEntity
  8
0
100
AcDbSpline
 62
6
  6
CONTINUOUS
 70
0
 71
3
 72
10
 73
6
 74
4
 42
0.0000001
 43
0.0000001
 44
0.0000000001
 12
0.0185329172
 22
0.1257202418
 32
0.0
 13
0.0
 23
0.1270789055
 33
0.0
 40
0.0
 40
0.0
 40
0.0
 40
0.0
 40
0.5010458593
 40
0.7506834772
 40
1.0
 40
1.0
 40
1.0
 40
1.0
 10
3.3737665872
 20
1.9607662743
 30
0.0
 10
3.3768618677
 20
1.9817634765
 30
0.0
 10
3.3806524951
 20
2.0133659484
 30
0.0
 10
3.3833128283
 20
2.0556509404
 30
0.0
 10
3.3837665872
 20
2.0767893638
 30
0.0
 10
3.3837665872
 20
2.0873503208
 30
0.0
 11
3.3737665872
 21
1.9607662743
 31
0.0
 11
3.3811229794
 21
2.0240122453
 31
0.0
 11
3.383094995
 21
2.0556745687
 31
0.0
 11
3.3837665872
 21
2.0873503208
 31
0.0
  0
SPLINE
  5
355
100
AcDbEntity
  8
0
100
AcDbSpline
 62
6
  6
CONTINUOUS
 70
0
 71
3
 72
10
 73
6
 74
4
 42
0.0000001
 43
0.0000001
 44
0.0000000001
 12
-0.0185329172
 22
0.1257202418
 32
0.0
 13
0.0
 23
0.1270789055
 33
0.0
 40
0.0
 40
0.0
 40
0.0
 40
0.0
 40
0.5010458593
 40
0.7506834772
 40
1.0
 40
1.0
 40
1.0
 40
1.0
 10
3.1437665872
 20
1.9607662743
 30
0.0
 10
3.1406713068
 20
1.9817634765
 30
0.0
 10
3.1368806794
 20
2.0133659484
 30
0.0
 10
3.1342203462
 20
2.0556509404
 30
0.0
 10
3.1337665872
 20
2.0767893639
 30
0.0
 10
3.1337665872
 20
2.0873503208
 30
0.0
 11
3.1437665872
 21
1.9607662743
 31
0.0
 11
3.1364101951
 21
2.0240122453
 31
0.0
 11
3.1344381795
 21
2.0556745687
 31
0.0
 11
3.1337665872
 21
2.0873503208
 31
0.0
  0
LINE
  5
356
100
AcDbEntity
  8
0
100
AcDbLine
 62
6
  6
CONTINUOUS
 10
3.1360359652
 20
2.1459544022
 11
3.1363788318
 21
2.1503083783
  0
SPLINE
  5
357
100
AcDbEntity
  8
0
100
AcDbSpline
 62
6
  6
CONTINUOUS
 70
0
 71
3
 72
9
 73
5
 74
3
 42
0.0000001
 43
0.0000001
 44
0.0000000001
 12
0.0051951748
 22
0.0638491857
 32
0.0
 13
0.0093424023
 23
0.0633752938
 33
0.0
 40
0.0
 40
0.0
 40
0.0
 40
0.0
 40
0.2494985278
 40
1.0
 40
1.0
 40
1.0
 40
1.0
 10
3.1363788318
 20
2.1503083783
 30
0.0
 10
3.1368108946
 20
2.155618471
 30
0.0
 10
3.1387441494
 20
2.1768850732
 30
0.0
 10
3.141429425
 20
2.1980799502
 30
0.0
 10
3.1437665872
 20
2.2139343673
 30
0.0
 11
3.1363788318
 21
2.1503083783
 31
0.0
 11
3.137822396
 21
2.166225978
 31
0.0
 11
3.1437665872
 21
2.2139343673
 31
0.0
  0
LINE
  5
358
100
AcDbEntity
  8
0
100
AcDbLine
 62
6
  6
CONTINUOUS
 10
3.3814972092
 20
2.1459544022
 11
3.3811543427
 21
2.1503083783
  0
SPLINE
  5
359
100
AcDbEntity
  8
0
100
AcDbSpline
 62
6
  6
CONTINUOUS
 70
0
 71
3
 72
9
 73
5
 74
3
 42
0.0000001
 43
0.0000001
 44
0.0000000001
 12
-0.0051951748
 22
0.0638491857
 32
0.0
 13
-0.0093424023
 23
0.0633752939
 33
0.0
 40
0.0
 40
0.0
 40
0.0
 40
0.0
 40
0.2494985278
 40
1.0
 40
1.0
 40
1.0
 40
1.0
 10
3.3811543427
 20
2.1503083783
 30
0.0
 10
3.3807222798
 20
2.1556184709
 30
0.0
 10
3.3787890251
 20
2.1768850732
 30
0.0
 10
3.3761037494
 20
2.1980799502
 30
0.0
 10
3.3737665872
 20
2.2139343673
 30
0.0
 11
3.3811543427
 21
2.1503083783
 31
0.0
 11
3.3797107785
 21
2.166225978
 31
0.0
 11
3.3737665872
 21
2.2139343673
 31
0.0
  0
SPLINE
  5
35A
100
AcDbEntity
  8
0
100
AcDbSpline
 62
6
  6
CONTINUOUS
 70
0
 71
3
 72
51
 73
47
 74
45
 42
0.0000001
 43
0.0000001
 44
0.0000000001
 12
-0.0029017038
 22
-0.8042406817
 32
0.0
 13
-0.789435312
 23
-0.1536339227
 33
0.0
 40
0.0
 40
0.0
 40
0.0
 40
0.0
 40
0.0001693353
 40
0.0003648623
 40
0.0006041064
 40
0.0008968011
 40
0.0016608193
 40
0.0026787334
 40
0.003958408
 40
0.0055034564
 40
0.0073156839
 40
0.0093960081
 40
0.0117447282
 40
0.0143609224
 40
0.0203895246
 40
0.0274686362
 40
0.0355839651
 40
0.0447207004
 40
0.0548622995
 40
0.0780617455
 40
0.1049733794
 40
0.1353733817
 40
0.1689867939
 40
0.2055233169
 40
0.2446646294
 40
0.2860624068
 40
0.329360351
 40
0.3741746841
 40
0.4201138891
 40
0.4667771238
 40
0.5606332433
 40
0.6524654229
 40
0.7390670456
 40
0.779449087
 40
0.8174139657
 40
0.85262496
 40
0.88477594
 40
0.9135918116
 40
0.9388122792
 40
0.9602302349
 40
0.9694530965
 40
0.9776552081
 40
0.9848223116
 40
0.9909425001
 40
0.9960047677
 40
1.0
 40
1.0
 40
1.0
 40
1.0
 10
9.0068174428
 20
7.3078986151
 30
0.0
 10
9.006817279
 20
7.3078532196
 30
0.0
 10
9.0067946718
 20
7.3077548728
 30
0.0
 10
9.0067032622
 20
7.3076184861
 30
0.0
 10
9.0065590884
 20
7.3074854937
 30
0.0
 10
9.0062692449
 20
7.3072922707
 30
0.0
 10
9.0057597463
 20
7.3070625925
 30
0.0
 10
9.0049808318
 20
7.3068029346
 30
0.0
 10
9.0039836779
 20
7.3065416526
 30
0.0
 10
9.0027685042
 20
7.3062788358
 30
0.0
 10
9.0013346238
 20
7.3060151691
 30
0.0
 10
8.9996823513
 20
7.305750876
 30
0.0
 10
8.9978122055
 20
7.305486183
 30
0.0
 10
8.9948884232
 20
7.3051150708
 30
0.0
 10
8.9906975469
 20
7.304659155
 30
0.0
 10
8.9850323345
 20
7.3041323488
 30
0.0
 10
8.9785308763
 20
7.3036042649
 30
0.0
 10
8.9712061443
 20
7.3030751139
 30
0.0
 10
8.9598425931
 20
7.3023353925
 30
0.0
 10
8.9437152248
 20
7.3014269837
 30
0.0
 10
8.9221571926
 20
7.3003749309
 30
0.0
 10
8.8978045269
 20
7.2993209355
 30
0.0
 10
8.8708695557
 20
7.2982645849
 30
0.0
 10
8.8415895956
 20
7.2972071111
 30
0.0
 10
8.8102215584
 20
7.2961488579
 30
0.0
 10
8.7770399658
 20
7.295089772
 30
0.0
 10
8.7423368102
 20
7.2940304756
 30
0.0
 10
8.7064156472
 20
7.2929707889
 30
0.0
 10
8.6695919344
 20
7.2919109515
 30
0.0
 10
8.6196258105
 20
7.2904951325
 30
0.0
 10
8.5573610444
 20
7.2887485254
 30
0.0
 10
8.4843949577
 20
7.2866581254
 30
0.0
 10
8.4257612106
 20
7.2848817563
 30
0.0
 10
8.3815650477
 20
7.2834375097
 30
0.0
 10
8.3511405395
 20
7.2823807116
 30
0.0
 10
8.3229240031
 20
7.2813250977
 30
0.0
 10
8.2971619526
 20
7.2802709292
 30
0.0
 10
8.2740804859
 20
7.279219766
 30
0.0
 10
8.2538796062
 20
7.2781711516
 30
0.0
 10
8.2389313719
 20
7.2772633776
 30
0.0
 10
8.2285446115
 20
7.2765219885
 30
0.0
 10
8.2219729145
 20
7.2759948034
 30
0.0
 10
8.2162359045
 20
7.2754689963
 30
0.0
 10
8.2113443146
 20
7.2749455228
 30
0.0
 10
8.2073086321
 20
7.2744250955
 30
0.0
 10
8.2049105881
 20
7.2740374294
 30
0.0
 10
8.2038592623
 20
7.2738328284
 30
0.0
 11
9.0068174428
 21
7.3078986151
 31
0.0
 11
9.0067892724
 21
7.3077653732
 31
0.0
 11
9.0067057555
 21
7.3076321327
 31
0.0
 11
9.0065669414
 21
7.3074988936
 31
0.0
 11
9.0063728792
 21
7.3073656557
 31
0.0
 11
9.0058192076
 21
7.3070991842
 31
0.0
 11
9.0050451346
 21
7.3068327181
 31
0.0
 11
9.0040510542
 21
7.3065662574
 31
0.0
 11
9.00283736
 21
7.3062998021
 31
0.0
 11
9.001404446
 21
7.3060333523
 31
0.0
 11
8.9997527061
 21
7.3057669079
 31
0.0
 11
8.9978826427
 21
7.3055004688
 31
0.0
 11
8.9957955164
 21
7.3052340352
 31
0.0
 11
8.990976407
 21
7.3047011843
 31
0.0
 11
8.9853080484
 21
7.304168355
 31
0.0
 11
8.9788031125
 21
7.3036355474
 31
0.0
 11
8.971474271
 21
7.3031027615
 31
0.0
 11
8.9633353496
 21
7.3025699972
 31
0.0
 11
8.9447077363
 21
7.3015045337
 31
0.0
 11
8.9230904014
 21
7.3004391567
 31
0.0
 11
8.8986645431
 21
7.2993738663
 31
0.0
 11
8.871652088
 21
7.2983086624
 31
0.0
 11
8.8422870489
 21
7.2972435451
 31
0.0
 11
8.8108258299
 21
7.2961785144
 31
0.0
 11
8.7775488725
 21
7.2951135701
 31
0.0
 11
8.7427429631
 21
7.2940487123
 31
0.0
 11
8.7067169502
 21
7.2929839409
 31
0.0
 11
8.6697858759
 21
7.291919256
 31
0.0
 11
8.632272263
 21
7.2908546576
 31
0.0
 11
8.5568188905
 21
7.2887257199
 31
0.0
 11
8.4829939155
 21
7.2865971278
 31
0.0
 11
8.4133774378
 21
7.2844688812
 31
0.0
 11
8.3809177795
 21
7.2834048874
 31
0.0
 11
8.3504032221
 21
7.2823409799
 31
0.0
 11
8.3221049129
 21
7.2812771589
 31
0.0
 11
8.296269508
 21
7.2802134241
 31
0.0
 11
8.2731188826
 21
7.2791497757
 31
0.0
 11
8.2528633276
 21
7.2780862136
 31
0.0
 11
8.2356708847
 21
7.2770227378
 31
0.0
 11
8.2282725175
 21
7.2764910323
 31
0.0
 11
8.2216974647
 21
7.2759593483
 31
0.0
 11
8.2159579228
 21
7.275427686
 31
0.0
 11
8.2110645816
 21
7.2748960452
 31
0.0
 11
8.2070281315
 21
7.274364426
 31
0.0
 11
8.2038592623
 21
7.2738328284
 31
0.0
  0
SPLINE
  5
35B
100
AcDbEntity
  8
0
100
AcDbSpline
 62
6
  6
CONTINUOUS
 70
0
 71
3
 72
11
 73
7
 74
5
 42
0.0000001
 43
0.0000001
 44
0.0000000001
 12
-0.0038589769
 22
-0.0007510049
 32
0.0
 13
-0.0034028955
 23
-0.0019687593
 33
0.0
 40
0.0
 40
0.0
 40
0.0
 40
0.0
 40
0.3356872923
 40
0.6135756522
 40
0.8344597809
 40
1.0
 40
1.0
 40
1.0
 40
1.0
 10
8.2038592623
 20
7.2738328284
 30
0.0
 10
8.2034274591
 20
7.2737487941
 30
0.0
 10
8.2026402784
 20
7.2735842781
 30
0.0
 10
8.2015795649
 20
7.2733156101
 30
0.0
 10
8.2007506016
 20
7.2730489743
 30
0.0
 10
8.2002840916
 20
7.2728457567
 30
0.0
 10
8.2000963196
 20
7.2727371204
 30
0.0
 11
8.2038592623
 21
7.2738328284
 31
0.0
 11
8.2025682933
 21
7.2735588928
 31
0.0
 11
8.20151071
 21
7.2732849629
 31
0.0
 11
8.2006866672
 21
7.2730110388
 31
0.0
 11
8.2000963196
 21
7.2727371204
 31
0.0
  0
LINE
  5
35C
100
AcDbEntity
  8
0
100
AcDbLine
 62
6
  6
CONTINUOUS
 10
8.1844302774
 20
7.7355981812
 11
8.1821345199
 21
7.7361741304
  0
SPLINE
  5
35D
100
AcDbEntity
  8
0
100
AcDbSpline
 62
6
  6
CONTINUOUS
 70
0
 71
3
 72
49
 73
45
 74
43
 42
0.0000001
 43
0.0000001
 44
0.0000000001
 12
-0.0025732217
 22
-0.7980630728
 32
0.0
 13
-0.7874568973
 23
-0.129703217
 33
0.0
 40
0.0
 40
0.0
 40
0.0
 40
0.0
 40
0.0001689546
 40
0.0003632817
 40
0.0006001606
 40
0.0008892557
 40
0.0016424559
 40
0.0026449748
 40
0.0039049437
 40
0.00542621
 40
0.0072107946
 40
0.0092596283
 40
0.0141472766
 40
0.0200802633
 40
0.0270470189
 40
0.0350349883
 40
0.0440309494
 40
0.0540166738
 40
0.0768606991
 40
0.1033710525
 40
0.1333289099
 40
0.1664671483
 40
0.2025086315
 40
0.2411407385
 40
0.2820287916
 40
0.3248266857
 40
0.369160999
 40
0.4146531458
 40
0.4609121981
 40
0.554133335
 40
0.6456284348
 40
0.7322614673
 40
0.7728149678
 40
0.8110622629
 40
0.8466694441
 40
0.8793340374
 40
0.9087801813
 40
0.9347474562
 40
0.9570260529
 40
0.9754202956
 40
0.983111202
 40
0.9897796576
 40
0.9954130593
 40
1.0
 40
1.0
 40
1.0
 40
1.0
 10
9.0045908635
 20
7.3793282814
 30
0.0
 10
9.0045907186
 20
7.3792833359
 30
0.0
 10
9.0045688313
 20
7.3791861535
 30
0.0
 10
9.0044798671
 20
7.3790509622
 30
0.0
 10
9.0043393021
 20
7.3789190988
 30
0.0
 10
9.0040568405
 20
7.3787276937
 30
0.0
 10
9.0035598401
 20
7.3785000148
 30
0.0
 10
9.0027996729
 20
7.3782426819
 30
0.0
 10
9.0018262825
 20
7.3779837552
 30
0.0
 10
9.0006397229
 20
7.3777233424
 30
0.0
 10
8.9992392209
 20
7.3774620595
 30
0.0
 10
8.9969489723
 20
7.3770907809
 30
0.0
 10
8.9935548519
 20
7.3766382936
 30
0.0
 10
8.9888514585
 20
7.3761183633
 30
0.0
 10
8.9833192168
 20
7.3755965654
 30
0.0
 10
8.9769692253
 20
7.3750732187
 30
0.0
 10
8.9698137871
 20
7.3745490313
 30
0.0
 10
8.9587113064
 20
7.3738160688
 30
0.0
 10
8.9429509235
 20
7.3729157778
 30
0.0
 10
8.9218777348
 20
7.3718734497
 30
0.0
 10
8.8980632012
 20
7.3708291015
 30
0.0
 10
8.8717111126
 20
7.3697823385
 30
0.0
 10
8.8430498561
 20
7.3687346364
 30
0.0
 10
8.8123257374
 20
7.3676859975
 30
0.0
 10
8.7798033051
 20
7.3666366211
 30
0.0
 10
8.7457632166
 20
7.3655870231
 30
0.0
 10
8.7104977908
 20
7.3645369958
 30
0.0
 10
8.6743112272
 20
7.3634868626
 30
0.0
 10
8.6251244686
 20
7.3620830639
 30
0.0
 10
8.5637042864
 20
7.3603508683
 30
0.0
 10
8.491549043
 20
7.3582787823
 30
0.0
 10
8.4334013733
 20
7.3565196618
 30
0.0
 10
8.3894154662
 20
7.3550902788
 30
0.0
 10
8.358998383
 20
7.354042917
 30
0.0
 10
8.3306812125
 20
7.3529965412
 30
0.0
 10
8.3047070055
 20
7.3519515803
 30
0.0
 10
8.2812993999
 20
7.3509090452
 30
0.0
 10
8.2606575665
 20
7.3498693217
 30
0.0
 10
8.2429598651
 20
7.3488342079
 30
0.0
 10
8.2301249556
 20
7.3479337567
 30
0.0
 10
8.2214431492
 20
7.3471929966
 30
0.0
 10
8.2161498954
 20
7.3466728103
 30
0.0
 10
8.211686822
 20
7.3461550416
 30
0.0
 10
8.2089941862
 20
7.3457739992
 30
0.0
 10
8.2077901801
 20
7.3455756855
 30
0.0
 11
9.0045908635
 21
7.3793282814
 31
0.0
 11
9.0045634463
 21
7.3791962611
 31
0.0
 11
9.0044820663
 21
7.3790642423
 31
0.0
 11
9.0043467537
 21
7.3789322248
 31
0.0
 11
9.004157539
 21
7.3788002086
 31
0.0
 11
9.0036175245
 21
7.3785361805
 31
0.0
 11
9.0028622656
 21
7.3782721579
 31
0.0
 11
9.0018920051
 21
7.3780081408
 31
0.0
 11
9.0007069858
 21
7.3777441293
 31
0.0
 11
8.9993074505
 21
7.3774801232
 31
0.0
 11
8.9976937967
 21
7.3772161227
 31
0.0
 11
8.9938290232
 21
7.3766881381
 31
0.0
 11
8.989123628
 21
7.3761601756
 31
0.0
 11
8.9835888107
 21
7.3756322351
 31
0.0
 11
8.9772357706
 21
7.3751043166
 31
0.0
 11
8.9700758232
 21
7.3745764202
 31
0.0
 11
8.962124046
 21
7.3740485457
 31
0.0
 11
8.9439235689
 21
7.3729928626
 31
0.0
 11
8.9227928748
 21
7.3719372673
 31
0.0
 11
8.8989078014
 21
7.3708817597
 31
0.0
 11
8.8724823277
 21
7.3698263398
 31
0.0
 11
8.8437381679
 21
7.3687710075
 31
0.0
 11
8.8129252137
 21
7.3677157626
 31
0.0
 11
8.7803108628
 21
7.3666606051
 31
0.0
 11
8.7461715659
 21
7.3656055348
 31
0.0
 11
8.7108055355
 21
7.3645505519
 31
0.0
 11
8.674515073
 21
7.363495656
 31
0.0
 11
8.6376123116
 21
7.3624408472
 31
0.0
 11
8.563245487
 21
7.3603314905
 31
0.0
 11
8.4902567105
 21
7.3582224811
 31
0.0
 11
8.4211498904
 21
7.3561138184
 31
0.0
 11
8.3888026447
 21
7.3550596169
 31
0.0
 11
8.358296939
 21
7.3540055018
 31
0.0
 11
8.3298995694
 21
7.3529514731
 31
0.0
 11
8.3038523422
 21
7.3518975308
 31
0.0
 11
8.2803759819
 21
7.3508436746
 31
0.0
 11
8.2596791597
 21
7.3497899047
 31
0.0
 11
8.2419305916
 21
7.3487362209
 31
0.0
 11
8.2272886076
 21
7.3476826231
 31
0.0
 11
8.2211733932
 21
7.3471558565
 31
0.0
 11
8.2158776495
 21
7.3466291114
 31
0.0
 11
8.2114127779
 21
7.3461023877
 31
0.0
 11
8.2077901801
 21
7.3455756855
 31
0.0
  0
SPLINE
  5
35E
100
AcDbEntity
  8
0
100
AcDbSpline
 62
6
  6
CONTINUOUS
 70
0
 71
3
 72
12
 73
8
 74
6
 42
0.0000001
 43
0.0000001
 44
0.0000000001
 12
-0.0056077973
 22
-0.0009236688
 32
0.0
 13
-0.0049209077
 23
-0.0028434525
 33
0.0
 40
0.0
 40
0.0
 40
0.0
 40
0.0
 40
0.3475052393
 40
0.6293424088
 40
0.8462105682
 40
0.930796281
 40
1.0
 40
1.0
 40
1.0
 40
1.0
 10
8.2077901801
 20
7.3455756855
 30
0.0
 10
8.2071406005
 20
7.3454686923
 30
0.0
 10
8.2059663267
 20
7.3452603481
 30
0.0
 10
8.2044002061
 20
7.3449169232
 30
0.0
 10
8.2033352553
 20
7.344615323
 30
0.0
 10
8.2026794827
 20
7.3443631051
 30
0.0
 10
8.20241672
 20
7.3442356257
 30
0.0
 10
8.2023032049
 20
7.3441700332
 30
0.0
 11
8.2077901801
 21
7.3455756855
 31
0.0
 11
8.2058467012
 21
7.3452242581
 31
0.0
 11
8.2042839443
 21
7.3448728402
 31
0.0
 11
8.2031025615
 21
7.3445214319
 31
0.0
 11
8.2026550892
 21
7.3443457314
 31
0.0
 11
8.2023032049
 21
7.3441700332
 31
0.0
  0
SPLINE
  5
35F
100
AcDbEntity
  8
0
100
AcDbSpline
 62
6
  6
CONTINUOUS
 70
0
 71
3
 72
13
 73
9
 74
7
 42
0.0000001
 43
0.0000001
 44
0.0000000001
 12
-0.0091532367
 22
0.001164388
 32
0.0
 13
-0.0079955208
 23
0.0046053435
 33
0.0
 40
0.0
 40
0.0
 40
0.0
 40
0.0
 40
0.363932386
 40
0.6514242226
 40
0.7666118567
 40
0.8628963644
 40
0.9405210257
 40
1.0
 40
1.0
 40
1.0
 40
1.0
 10
8.1861373277
 20
7.5917443592
 30
0.0
 10
8.1850269413
 20
7.591885612
 30
0.0
 10
8.1830420386
 20
7.5921595217
 30
0.0
 10
8.1807175505
 20
7.5925612116
 30
0.0
 10
8.1792192851
 20
7.5928945618
 30
0.0
 10
8.178359883
 20
7.5931246968
 30
0.0
 10
8.1776791145
 20
7.5933532411
 30
0.0
 10
8.1772925298
 20
7.5935259888
 30
0.0
 10
8.177134008
 20
7.5936172958
 30
0.0
 11
8.1861373277
 21
7.5917443592
 31
0.0
 11
8.1828121445
 21
7.5922127073
 31
0.0
 11
8.1802011325
 21
7.5926810736
 31
0.0
 11
8.1791644084
 21
7.5929152194
 31
0.0
 11
8.1783073883
 21
7.5931493168
 31
0.0
 11
8.1776304591
 21
7.5933833482
 31
0.0
 11
8.177134008
 21
7.5936172958
 31
0.0
  0
LINE
  5
360
100
AcDbEntity
  8
0
100
AcDbLine
 62
6
  6
CONTINUOUS
 10
2.5757665872
 20
1.2882618715
 11
2.5751906381
 21
1.2859661139
  0
SPLINE
  5
361
100
AcDbEntity
  8
0
100
AcDbSpline
 62
6
  6
CONTINUOUS
 70
0
 71
3
 72
49
 73
45
 74
43
 42
0.0000001
 43
0.0000001
 44
0.0000000001
 12
-0.001239947
 22
-0.7915037174
 32
0.0
 13
-0.783523649
 23
-0.1121176329
 33
0.0
 40
0.0
 40
0.0
 40
0.0
 40
0.0
 40
0.0001686119
 40
0.0003617643
 40
0.0005963357
 40
0.0008819426
 40
0.0016247392
 40
0.0026125515
 40
0.0038537802
 40
0.0053525029
 40
0.0071106753
 40
0.0091284098
 40
0.0114051157
 40
0.0139399033
 40
0.0197792241
 40
0.0266366179
 40
0.0345012042
 40
0.0433600614
 40
0.0531928873
 40
0.0756899883
 40
0.1018097377
 40
0.1313353441
 40
0.1640103829
 40
0.1995685788
 40
0.2377033945
 40
0.2780940707
 40
0.3204030721
 40
0.3642681607
 40
0.4093229708
 40
0.4551860405
 40
0.5477837785
 40
0.6389450661
 40
0.7256032648
 40
0.8048420341
 40
0.8408339844
 40
0.8739985752
 40
0.9040594162
 40
0.930756394
 40
0.953877219
 40
0.9732217658
 40
0.9814268445
 40
0.9886340724
 40
0.9948295078
 40
1.0
 40
1.0
 40
1.0
 40
1.0
 10
9.0023223133
 20
7.4507588738
 30
0.0
 10
9.0023222436
 20
7.4507143882
 30
0.0
 10
9.0023011749
 20
7.4506183652
 30
0.0
 10
9.0022147264
 20
7.4504843643
 30
0.0
 10
9.0020777987
 20
7.4503536338
 30
0.0
 10
9.0018026689
 20
7.4501640438
 30
0.0
 10
9.0013179786
 20
7.4499383728
 30
0.0
 10
9.0005761991
 20
7.4496833752
 30
0.0
 10
8.9996260359
 20
7.4494268157
 30
0.0
 10
8.9984674595
 20
7.4491688189
 30
0.0
 10
8.997099894
 20
7.4489100562
 30
0.0
 10
8.9955241066
 20
7.4486506584
 30
0.0
 10
8.9937410705
 20
7.4483908035
 30
0.0
 10
8.9909546503
 20
7.4480265026
 30
0.0
 10
8.9869607465
 20
7.4475788682
 30
0.0
 10
8.9815605294
 20
7.4470616476
 30
0.0
 10
8.975360595
 20
7.446543234
 30
0.0
 10
8.9683733183
 20
7.4460239694
 30
0.0
 10
8.9575305003
 20
7.4452977056
 30
0.0
 10
8.9421349839
 20
7.4444055506
 30
0.0
 10
8.9215440286
 20
7.4433730012
 30
0.0
 10
8.8982649155
 20
7.4423382041
 30
0.0
 10
8.8724935285
 20
7.441301066
 30
0.0
 10
8.8444490893
 20
7.4402630912
 30
0.0
 10
8.8143677485
 20
7.4392240328
 30
0.0
 10
8.7825043349
 20
7.4381843594
 30
0.0
 10
8.749128322
 20
7.4371444059
 30
0.0
 10
8.7145211889
 20
7.4361040124
 30
0.0
 10
8.6789759609
 20
7.4350635458
 30
0.0
 10
8.6305781437
 20
7.4336717459
 30
0.0
 10
8.5700201838
 20
7.4319538931
 30
0.0
 10
8.4987042315
 20
7.4299003459
 30
0.0
 10
8.4309142522
 20
7.4278504226
 30
0.0
 10
8.377677621
 20
7.4260974374
 30
0.0
 10
8.3385517991
 20
7.4246684982
 30
0.0
 10
8.3123952403
 20
7.4236326335
 30
0.0
 10
8.2886930223
 20
7.4225989831
 30
0.0
 10
8.2676433418
 20
7.4215676951
 30
0.0
 10
8.249424669
 20
7.4205405096
 30
0.0
 10
8.2360853261
 20
7.4196486691
 30
0.0
 10
8.2269443165
 20
7.4189175964
 30
0.0
 10
8.2212667149
 20
7.4184011432
 30
0.0
 10
8.2163933929
 20
7.4178865534
 30
0.0
 10
8.2134177693
 20
7.4175117771
 30
0.0
 10
8.2120673683
 20
7.4173185427
 30
0.0
 11
9.0023223133
 21
7.4507588738
 31
0.0
 11
9.0022957885
 21
7.4506280792
 31
0.0
 11
9.0022166321
 21
7.4504972859
 31
0.0
 11
9.0020848569
 21
7.4503664939
 31
0.0
 11
9.0019004754
 21
7.4502357031
 31
0.0
 11
9.0013739441
 21
7.4499741255
 31
0.0
 11
9.0006371389
 21
7.4497125529
 31
0.0
 11
8.9996901608
 21
7.4494509855
 31
0.0
 11
8.9985331108
 21
7.4491894232
 31
0.0
 11
8.9971663104
 21
7.4489278661
 31
0.0
 11
8.9955908271
 21
7.4486663141
 31
0.0
 11
8.9938078853
 21
7.4484047673
 31
0.0
 11
8.9918187095
 21
7.4481432256
 31
0.0
 11
8.9872265536
 21
7.4476201578
 31
0.0
 11
8.9818241552
 21
7.4470971106
 31
0.0
 11
8.9756213102
 21
7.4465740842
 31
0.0
 11
8.9686290156
 21
7.4460510785
 31
0.0
 11
8.9608638795
 21
7.4455280936
 31
0.0
 11
8.9430880619
 21
7.4444821863
 31
0.0
 11
8.9224406271
 21
7.4434363625
 31
0.0
 11
8.8990943803
 21
7.4423906226
 31
0.0
 11
8.8732530812
 21
7.4413449667
 31
0.0
 11
8.8451280307
 21
7.4402993952
 31
0.0
 11
8.8149622571
 21
7.4392539082
 31
0.0
 11
8.7830099444
 21
7.4382085059
 31
0.0
 11
8.7495384902
 21
7.4371631887
 31
0.0
 11
8.7148348038
 21
7.4361179566
 31
0.0
 11
8.6791890291
 21
7.43507281
 31
0.0
 11
8.6429032406
 21
7.4340277489
 31
0.0
 11
8.5696414985
 21
7.4319378844
 31
0.0
 11
8.4975171735
 21
7.4298483644
 31
0.0
 11
8.428958627
 21
7.4277591902
 31
0.0
 11
8.3662755636
 21
7.425670363
 31
0.0
 11
8.3378069129
 21
7.4246260798
 31
0.0
 11
8.3115777605
 21
7.4235818838
 31
0.0
 11
8.287807384
 21
7.422537775
 31
0.0
 11
8.266702408
 21
7.4214937535
 31
0.0
 11
8.2484319664
 21
7.4204498195
 31
0.0
 11
8.2331562903
 21
7.4194059729
 31
0.0
 11
8.2266829358
 21
7.4188840825
 31
0.0
 11
8.2210023023
 21
7.418362214
 31
0.0
 11
8.2161264323
 21
7.4178403673
 31
0.0
 11
8.2120673683
 21
7.4173185427
 31
0.0
  0
SPLINE
  5
362
100
AcDbEntity
  8
0
100
AcDbSpline
 62
6
  6
CONTINUOUS
 70
0
 71
3
 72
12
 73
8
 74
6
 42
0.0000001
 43
0.0000001
 44
0.0000000001
 12
-0.0076335192
 22
-0.0010923118
 32
0.0
 13
-0.0066786524
 23
-0.0038547843
 33
0.0
 40
0.0
 40
0.0
 40
0.0
 40
0.0
 40
0.3567595995
 40
0.6417693868
 40
0.8555641248
 40
0.9362421664
 40
1.0
 40
1.0
 40
1.0
 40
1.0
 10
8.2120673683
 20
7.4173185427
 30
0.0
 10
8.2111595912
 20
7.4171886451
 30
0.0
 10
8.209528835
 20
7.4169367317
 30
0.0
 10
8.2073696109
 20
7.4165190056
 30
0.0
 10
8.2059232963
 20
7.4161521226
 30
0.0
 10
8.2050557677
 20
7.4158419364
 30
0.0
 10
8.2047180897
 20
7.415684725
 30
0.0
 10
8.2045761509
 20
7.4156028008
 30
0.0
 11
8.2120673683
 21
7.4173185427
 31
0.0
 11
8.2093499451
 21
7.416889585
 31
0.0
 11
8.2071944212
 21
7.4164606421
 31
0.0
 11
8.2056025664
 21
7.416031714
 31
0.0
 11
8.2050185681
 21
7.4158172556
 31
0.0
 11
8.2045761509
 21
7.4156028008
 31
0.0
  0
SPLINE
  5
363
100
AcDbEntity
  8
0
100
AcDbSpline
 62
6
  6
CONTINUOUS
 70
0
 71
3
 72
10
 73
6
 74
4
 42
0.0000001
 43
0.0000001
 44
0.0000000001
 12
0.0185329172
 22
0.1257202418
 32
0.0
 13
0.0
 23
0.1270789055
 33
0.0
 40
0.0
 40
0.0
 40
0.0
 40
0.0
 40
0.5010458593
 40
0.7506834772
 40
1.0
 40
1.0
 40
1.0
 40
1.0
 10
3.3737665872
 20
1.2012619952
 30
0.0
 10
3.3768618677
 20
1.2222591974
 30
0.0
 10
3.3806524951
 20
1.2538616693
 30
0.0
 10
3.3833128283
 20
1.2961466613
 30
0.0
 10
3.3837665872
 20
1.3172850847
 30
0.0
 10
3.3837665872
 20
1.3278460416
 30
0.0
 11
3.3737665872
 21
1.2012619952
 31
0.0
 11
3.3811229794
 21
1.2645079661
 31
0.0
 11
3.383094995
 21
1.2961702896
 31
0.0
 11
3.3837665872
 21
1.3278460416
 31
0.0
  0
SPLINE
  5
364
100
AcDbEntity
  8
0
100
AcDbSpline
 62
6
  6
CONTINUOUS
 70
0
 71
3
 72
53
 73
49
 74
47
 42
0.0000001
 43
0.0000001
 44
0.0000000001
 12
0.0008858562
 22
-0.7929803829
 32
0.0
 13
-0.764300967
 23
-0.2113355251
 33
0.0
 40
0.0
 40
0.0
 40
0.0
 40
0.0
 40
0.0001739726
 40
0.0003743257
 40
0.0006191167
 40
0.0009184752
 40
0.0017001432
 40
0.0027425824
 40
0.0040545537
 40
0.0056397517
 40
0.0074991168
 40
0.0096325935
 40
0.0120396176
 40
0.0147193268
 40
0.0208924092
 40
0.0281423036
 40
0.0364574229
 40
0.0458183919
 40
0.0562020802
 40
0.0799440171
 40
0.1074838838
 40
0.1385654454
 40
0.1729135943
 40
0.2102211146
 40
0.250146415
 40
0.2923373998
 40
0.3364084151
 40
0.3819648757
 40
0.4285974741
 40
0.4758840499
 40
0.5707199559
 40
0.6630650451
 40
0.7072621356
 40
0.7496049942
 40
0.7897189911
 40
0.8272369262
 40
0.8618273403
 40
0.8931800049
 40
0.9210089363
 40
0.9450760863
 40
0.9651569746
 40
0.9736487378
 40
0.981085022
 40
0.9874491853
 40
0.9927259604
 40
0.996908547
 40
0.9985901789
 40
1.0
 40
1.0
 40
1.0
 40
1.0
 10
8.9999892599
 20
7.5221920041
 30
0.0
 10
8.9999893113
 20
7.5221460185
 30
0.0
 10
8.9999670983
 20
7.5220464096
 30
0.0
 10
8.9998756244
 20
7.521907973
 30
0.0
 10
8.9997308134
 20
7.5217730203
 30
0.0
 10
8.9994391914
 20
7.5215769719
 30
0.0
 10
8.9989255126
 20
7.5213439301
 30
0.0
 10
8.9981391984
 20
7.5210805523
 30
0.0
 10
8.9971314052
 20
7.5208155998
 30
0.0
 10
8.995902492
 20
7.5205491362
 30
0.0
 10
8.9944523051
 20
7.5202817714
 30
0.0
 10
8.9927819085
 20
7.5200137531
 30
0.0
 10
8.990892308
 20
7.5197452631
 30
0.0
 10
8.9879398536
 20
7.5193688626
 30
0.0
 10
8.9837083707
 20
7.518906346
 30
0.0
 10
8.9779871666
 20
7.5183719544
 30
0.0
 10
8.9714202255
 20
7.5178365301
 30
0.0
 10
8.964022627
 20
7.5173000085
 30
0.0
 10
8.9525523839
 20
7.5165497407
 30
0.0
 10
8.936278326
 20
7.5156281366
 30
0.0
 10
8.91453348
 20
7.5145617715
 30
0.0
 10
8.889982294
 20
7.5134924344
 30
0.0
 10
8.862847155
 20
7.5124212667
 30
0.0
 10
8.8333727589
 20
7.511348991
 30
0.0
 10
8.8018240611
 20
7.5102755816
 30
0.0
 10
8.7684866287
 20
7.5092018561
 30
0.0
 10
8.7336600131
 20
7.5081275717
 30
0.0
 10
8.6976588284
 20
7.5070530974
 30
0.0
 10
8.6608073194
 20
7.5059785477
 30
0.0
 10
8.6109348783
 20
7.5045443973
 30
0.0
 10
8.5489840147
 20
7.5027760308
 30
0.0
 10
8.4878507232
 20
7.5009861711
 30
0.0
 10
8.4405888802
 20
7.4995339629
 30
0.0
 10
8.4071280091
 20
7.4984611394
 30
0.0
 10
8.3754335314
 20
7.4973893989
 30
0.0
 10
8.3457894447
 20
7.4963184718
 30
0.0
 10
8.3184627717
 20
7.4952490677
 30
0.0
 10
8.2936992101
 20
7.4941818174
 30
0.0
 10
8.271719932
 20
7.4931172052
 30
0.0
 10
8.2527238578
 20
7.4920571329
 30
0.0
 10
8.238839754
 20
7.4911359987
 30
0.0
 10
8.2293514907
 20
7.4903805692
 30
0.0
 10
8.2234830916
 20
7.4898474581
 30
0.0
 10
8.2184681315
 20
7.4893169108
 30
0.0
 10
8.2143187767
 20
7.4887887823
 30
0.0
 10
8.2114092493
 20
7.4883267248
 30
0.0
 10
8.2095248321
 20
7.4879435343
 30
0.0
 10
8.2087305207
 20
7.4877500579
 30
0.0
 10
8.2083713448
 20
7.4876507428
 30
0.0
 11
8.9999892599
 21
7.5221920041
 31
0.0
 11
8.9999615155
 21
7.5220568658
 31
0.0
 11
8.9998779736
 21
7.5219217274
 31
0.0
 11
8.9997386246
 21
7.5217865891
 31
0.0
 11
8.9995434589
 21
7.5216514513
 31
0.0
 11
8.9989856384
 21
7.5213811782
 31
0.0
 11
8.9982044345
 21
7.5211109101
 31
0.0
 11
8.9971997829
 21
7.520840649
 31
0.0
 11
8.9959721461
 21
7.5205703961
 31
0.0
 11
8.9945226828
 21
7.520300151
 31
0.0
 11
8.992852599
 21
7.5200299133
 31
0.0
 11
8.9909631009
 21
7.5197596826
 31
0.0
 11
8.9888553946
 21
7.5194894584
 31
0.0
 11
8.983990182
 21
7.5189490278
 31
0.0
 11
8.97826661
 21
7.5184086181
 31
0.0
 11
8.9716950607
 21
7.5178682265
 31
0.0
 11
8.964291686
 21
7.517327853
 31
0.0
 11
8.9560753691
 21
7.5167874997
 31
0.0
 11
8.9372795063
 21
7.5157068606
 31
0.0
 11
8.9154676666
 21
7.5146263224
 31
0.0
 11
8.890844275
 21
7.5135458897
 31
0.0
 11
8.8636282828
 21
7.5124655645
 31
0.0
 11
8.8340638602
 21
7.5113853497
 31
0.0
 11
8.8024222901
 21
7.5103052493
 31
0.0
 11
8.7689830814
 21
7.5092252667
 31
0.0
 11
8.7340522966
 21
7.5081454043
 31
0.0
 11
8.6979430342
 21
7.5070656638
 31
0.0
 11
8.6609800387
 21
7.5059860466
 31
0.0
 11
8.6234982301
 21
7.5049065538
 31
0.0
 11
8.5483261566
 21
7.5027479427
 31
0.0
 11
8.4751300747
 21
7.5005898289
 31
0.0
 11
8.4400992366
 21
7.4995109556
 31
0.0
 11
8.4065394928
 21
7.4984322025
 31
0.0
 11
8.3747481534
 21
7.4973535672
 31
0.0
 11
8.3450167037
 21
7.4962750472
 31
0.0
 11
8.3176083741
 21
7.4951966399
 31
0.0
 11
8.2927697051
 21
7.4941183428
 31
0.0
 11
8.2707282495
 21
7.4930401533
 31
0.0
 11
8.2516739341
 21
7.4919620692
 31
0.0
 11
8.2357867033
 21
7.4908840882
 31
0.0
 11
8.2290745002
 21
7.4903451356
 31
0.0
 11
8.2232023477
 21
7.4898062081
 31
0.0
 11
8.2181845435
 21
7.4892673053
 31
0.0
 11
8.2140350061
 21
7.488728427
 31
0.0
 11
8.2107623604
 21
7.4881895729
 31
0.0
 11
8.2094563583
 21
7.4879201549
 31
0.0
 11
8.2083713448
 21
7.4876507428
 31
0.0
  0
LINE
  5
365
100
AcDbEntity
  8
0
100
AcDbLine
 62
6
  6
CONTINUOUS
 10
8.2083713448
 20
7.4876507428
 11
8.2067256408
 21
7.48703576
  0
LINE
  5
366
100
AcDbEntity
  8
0
100
AcDbLine
 62
6
  6
CONTINUOUS
 10
3.0024805288
 20
2.1091351942
 11
3.002911148
 21
2.1101699038
  0
SPLINE
  5
367
100
AcDbEntity
  8
0
100
AcDbSpline
 62
6
  6
CONTINUOUS
 70
0
 71
3
 72
13
 73
9
 74
7
 42
0.0000001
 43
0.0000001
 44
0.0000000001
 12
0.0080780823
 22
-0.001097914
 32
0.0
 13
0.0070639669
 23
-0.0040695455
 33
0.0
 40
0.0
 40
0.0
 40
0.0
 40
0.0
 40
0.3600521677
 40
0.6462207428
 40
0.761722777
 40
0.8589809796
 40
0.9382410995
 40
1.0
 40
1.0
 40
1.0
 40
1.0
 10
9.0253056805
 20
7.504997316
 30
0.0
 10
9.0262751909
 20
7.5048655472
 30
0.0
 10
9.0280126912
 20
7.5046097621
 30
0.0
 10
9.0300496393
 20
7.5042360622
 30
0.0
 10
9.0313699556
 20
7.5039267728
 30
0.0
 10
9.0321345104
 20
7.5037125953
 30
0.0
 10
9.0327463603
 20
7.5034997673
 30
0.0
 10
9.033096208
 20
7.5033399901
 30
0.0
 10
9.0332416289
 20
7.5032562132
 30
0.0
 11
9.0253056805
 21
7.504997316
 31
0.0
 11
9.0282084185
 21
7.5045615038
 31
0.0
 11
9.0305003501
 21
7.5041259701
 31
0.0
 11
9.0314164694
 21
7.5039083448
 31
0.0
 11
9.0321789341
 21
7.5036908337
 31
0.0
 11
9.0327874265
 21
7.5034734515
 31
0.0
 11
9.0332416289
 21
7.5032562132
 31
0.0
  0
SPLINE
  5
368
100
AcDbEntity
  8
0
100
AcDbSpline
 62
6
  6
CONTINUOUS
 70
0
 71
3
 72
9
 73
5
 74
3
 42
0.0000001
 43
0.0000001
 44
0.0000000001
 12
-0.0099876066
 22
0.0677521141
 32
0.0
 13
-0.0051956941
 23
0.0682869388
 33
0.0
 40
0.0
 40
0.0
 40
0.0
 40
0.0
 40
0.5007486731
 40
1.0
 40
1.0
 40
1.0
 40
1.0
 10
3.1437665872
 20
1.2012619952
 30
0.0
 10
3.1420994936
 20
1.2125709222
 30
0.0
 10
3.1390966361
 20
1.2352048496
 30
0.0
 10
3.1368966354
 20
1.2579333
 30
0.0
 10
3.136031983
 20
1.269297415
 30
0.0
 11
3.1437665872
 21
1.2012619952
 31
0.0
 11
3.1392934555
 21
1.235262442
 31
0.0
 11
3.136031983
 21
1.269297415
 31
0.0
  0
LINE
  5
369
100
AcDbEntity
  8
0
100
AcDbLine
 62
6
  6
CONTINUOUS
 10
9.0053036001
 20
7.3088842397
 11
9.0063383098
 21
7.3084536204
  0
SPLINE
  5
36A
100
AcDbEntity
  8
0
100
AcDbSpline
 62
6
  6
CONTINUOUS
 70
0
 71
3
 72
51
 73
47
 74
45
 42
0.0000001
 43
0.0000001
 44
0.0000000001
 12
0.8042406818
 22
-0.0029017038
 32
0.0
 13
0.1536339227
 23
-0.789435312
 33
0.0
 40
0.0
 40
0.0
 40
0.0
 40
0.0
 40
0.0001693353
 40
0.0003648623
 40
0.0006041064
 40
0.0008968011
 40
0.0016608193
 40
0.0026787334
 40
0.003958408
 40
0.0055034564
 40
0.0073156839
 40
0.0093960081
 40
0.0117447282
 40
0.0143609224
 40
0.0203895246
 40
0.0274686362
 40
0.0355839651
 40
0.0447207004
 40
0.0548622995
 40
0.0780617455
 40
0.1049733794
 40
0.1353733817
 40
0.1689867939
 40
0.2055233169
 40
0.2446646294
 40
0.2860624068
 40
0.329360351
 40
0.3741746841
 40
0.4201138891
 40
0.4667771238
 40
0.5606332433
 40
0.6524654229
 40
0.7390670456
 40
0.779449087
 40
0.8174139657
 40
0.85262496
 40
0.88477594
 40
0.9135918116
 40
0.9388122792
 40
0.9602302349
 40
0.9694530965
 40
0.9776552081
 40
0.9848223116
 40
0.9909425001
 40
0.9960047677
 40
1.0
 40
1.0
 40
1.0
 40
1.0
 10
3.0034661534
 20
2.1106490369
 30
0.0
 10
3.0035115488
 20
2.1106488731
 30
0.0
 10
3.0036098956
 20
2.1106262658
 30
0.0
 10
3.0037462823
 20
2.1105348562
 30
0.0
 10
3.0038792748
 20
2.1103906824
 30
0.0
 10
3.0040724978
 20
2.1101008389
 30
0.0
 10
3.004302176
 20
2.1095913403
 30
0.0
 10
3.0045618338
 20
2.1088124258
 30
0.0
 10
3.0048231159
 20
2.1078152719
 30
0.0
 10
3.0050859327
 20
2.1066000982
 30
0.0
 10
3.0053495994
 20
2.1051662178
 30
0.0
 10
3.0056138924
 20
2.1035139453
 30
0.0
 10
3.0058785855
 20
2.1016437995
 30
0.0
 10
3.0062496976
 20
2.0987200172
 30
0.0
 10
3.0067056135
 20
2.094529141
 30
0.0
 10
3.0072324197
 20
2.0888639285
 30
0.0
 10
3.0077605036
 20
2.0823624703
 30
0.0
 10
3.0082896546
 20
2.0750377383
 30
0.0
 10
3.009029376
 20
2.0636741871
 30
0.0
 10
3.0099377848
 20
2.0475468188
 30
0.0
 10
3.0109898376
 20
2.0259887866
 30
0.0
 10
3.012043833
 20
2.0016361209
 30
0.0
 10
3.0131001836
 20
1.9747011497
 30
0.0
 10
3.0141576574
 20
1.9454211896
 30
0.0
 10
3.0152159105
 20
1.9140531524
 30
0.0
 10
3.0162749965
 20
1.8808715598
 30
0.0
 10
3.0173342928
 20
1.8461684042
 30
0.0
 10
3.0183939796
 20
1.8102472412
 30
0.0
 10
3.0194538169
 20
1.7734235284
 30
0.0
 10
3.0208696359
 20
1.7234574045
 30
0.0
 10
3.0226162431
 20
1.6611926384
 30
0.0
 10
3.024706643
 20
1.5882265517
 30
0.0
 10
3.0264830121
 20
1.5295928046
 30
0.0
 10
3.0279272588
 20
1.4853966417
 30
0.0
 10
3.0289840569
 20
1.4549721336
 30
0.0
 10
3.0300396708
 20
1.4267555971
 30
0.0
 10
3.0310938393
 20
1.4009935466
 30
0.0
 10
3.0321450025
 20
1.3779120799
 30
0.0
 10
3.0331936168
 20
1.3577112002
 30
0.0
 10
3.0341013909
 20
1.3427629659
 30
0.0
 10
3.0348427799
 20
1.3323762056
 30
0.0
 10
3.035369965
 20
1.3258045086
 30
0.0
 10
3.0358957722
 20
1.3200674985
 30
0.0
 10
3.0364192456
 20
1.3151759087
 30
0.0
 10
3.0369396729
 20
1.3111402261
 30
0.0
 10
3.037327339
 20
1.3087421821
 30
0.0
 10
3.0375319401
 20
1.3076908563
 30
0.0
 11
3.0034661534
 21
2.1106490369
 31
0.0
 11
3.0035993953
 21
2.1106208665
 31
0.0
 11
3.0037326358
 21
2.1105373496
 31
0.0
 11
3.0038658749
 21
2.1103985354
 31
0.0
 11
3.0039991127
 21
2.1102044732
 31
0.0
 11
3.0042655843
 21
2.1096508016
 31
0.0
 11
3.0045320504
 21
2.1088767287
 31
0.0
 11
3.0047985111
 21
2.1078826482
 31
0.0
 11
3.0050649663
 21
2.106668954
 31
0.0
 11
3.0053314162
 21
2.1052360401
 31
0.0
 11
3.0055978606
 21
2.1035843001
 31
0.0
 11
3.0058642996
 21
2.1017142368
 31
0.0
 11
3.0061307332
 21
2.0996271104
 31
0.0
 11
3.0066635842
 21
2.094808001
 31
0.0
 11
3.0071964134
 21
2.0891396425
 31
0.0
 11
3.007729221
 21
2.0826347065
 31
0.0
 11
3.008262007
 21
2.075305865
 31
0.0
 11
3.0087947712
 21
2.0671669437
 31
0.0
 11
3.0098602348
 21
2.0485393303
 31
0.0
 11
3.0109256118
 21
2.0269219955
 31
0.0
 11
3.0119909022
 21
2.0024961371
 31
0.0
 11
3.013056106
 21
1.975483682
 31
0.0
 11
3.0141212233
 21
1.946118643
 31
0.0
 11
3.0151862541
 21
1.9146574239
 31
0.0
 11
3.0162511984
 21
1.8813804665
 31
0.0
 11
3.0173160562
 21
1.8465745571
 31
0.0
 11
3.0183808275
 21
1.8105485442
 31
0.0
 11
3.0194455124
 21
1.77361747
 31
0.0
 11
3.0205101109
 21
1.736103857
 31
0.0
 11
3.0226390486
 21
1.6606504845
 31
0.0
 11
3.0247676407
 21
1.5868255095
 31
0.0
 11
3.0268958873
 21
1.5172090319
 31
0.0
 11
3.0279598811
 21
1.4847493736
 31
0.0
 11
3.0290237885
 21
1.4542348161
 31
0.0
 11
3.0300876096
 21
1.4259365069
 31
0.0
 11
3.0311513444
 21
1.4001011021
 31
0.0
 11
3.0322149928
 21
1.3769504766
 31
0.0
 11
3.0332785549
 21
1.3566949216
 31
0.0
 11
3.0343420307
 21
1.3395024787
 31
0.0
 11
3.0348737362
 21
1.3321041116
 31
0.0
 11
3.0354054201
 21
1.3255290588
 31
0.0
 11
3.0359370825
 21
1.3197895168
 31
0.0
 11
3.0364687233
 21
1.3148961757
 31
0.0
 11
3.0370003425
 21
1.3108597255
 31
0.0
 11
3.0375319401
 21
1.3076908563
 31
0.0
  0
SPLINE
  5
36B
100
AcDbEntity
  8
0
100
AcDbSpline
 62
6
  6
CONTINUOUS
 70
0
 71
3
 72
11
 73
7
 74
5
 42
0.0000001
 43
0.0000001
 44
0.0000000001
 12
0.0007510049
 22
-0.0038589769
 32
0.0
 13
0.0019687593
 23
-0.0034028955
 33
0.0
 40
0.0
 40
0.0
 40
0.0
 40
0.0
 40
0.3356872923
 40
0.6135756522
 40
0.8344597809
 40
1.0
 40
1.0
 40
1.0
 40
1.0
 10
3.0375319401
 20
1.3076908563
 30
0.0
 10
3.0376159744
 20
1.3072590531
 30
0.0
 10
3.0377804903
 20
1.3064718724
 30
0.0
 10
3.0380491583
 20
1.3054111589
 30
0.0
 10
3.0383157942
 20
1.3045821956
 30
0.0
 10
3.0385190117
 20
1.3041156856
 30
0.0
 10
3.038627648
 20
1.3039279136
 30
0.0
 11
3.0375319401
 21
1.3076908563
 31
0.0
 11
3.0378058757
 21
1.3063998873
 31
0.0
 11
3.0380798055
 21
1.305342304
 31
0.0
 11
3.0383537296
 21
1.3045182612
 31
0.0
 11
3.038627648
 21
1.3039279136
 31
0.0
  0
LINE
  5
36C
100
AcDbEntity
  8
0
100
AcDbLine
 62
6
  6
CONTINUOUS
 10
2.8963216514
 20
1.3079216333
 11
2.8967179091
 21
1.3081636373
  0
LINE
  5
36D
100
AcDbEntity
  8
0
100
AcDbLine
 62
6
  6
CONTINUOUS
 10
2.931113316
 20
2.1071037845
 11
2.9314784113
 21
2.1079414937
  0
LINE
  5
36E
100
AcDbEntity
  8
0
100
AcDbLine
 62
6
  6
CONTINUOUS
 10
8.9919098524
 20
7.7374871417
 11
8.9929435441
 21
7.7370529701
  0
LINE
  5
36F
100
AcDbEntity
  8
0
100
AcDbLine
 62
6
  6
CONTINUOUS
 10
8.2040900393
 20
7.4150431171
 11
8.2043320433
 21
7.4146468594
  0
LINE
  5
370
100
AcDbEntity
  8
0
100
AcDbLine
 62
6
  6
CONTINUOUS
 10
9.0032721905
 20
7.3802514524
 11
9.0041098996
 21
7.3798863572
  0
SPLINE
  5
371
100
AcDbEntity
  8
0
100
AcDbSpline
 62
6
  6
CONTINUOUS
 70
0
 71
3
 72
11
 73
7
 74
5
 42
0.0000001
 43
0.0000001
 44
0.0000000001
 12
-0.0016629745
 22
0.0004507227
 32
0.0
 13
-0.0005232758
 23
0.0016415899
 33
0.0
 40
0.0
 40
0.0
 40
0.0
 40
0.0
 40
0.1456295297
 40
0.3526087843
 40
0.635577585
 40
1.0
 40
1.0
 40
1.0
 40
1.0
 10
3.0028628878
 20
1.2716255435
 30
0.0
 10
3.0027821617
 20
1.271647423
 30
0.0
 10
3.0026109963
 20
1.2717744569
 30
0.0
 10
3.0024072685
 20
1.272078481
 30
0.0
 10
3.0021994826
 20
1.2725248969
 30
0.0
 10
3.0020770572
 20
1.2728762713
 30
0.0
 10
3.0020134928
 20
1.2730756821
 30
0.0
 11
3.0028628878
 21
1.2716255435
 31
0.0
 11
3.0026506943
 21
1.2717594562
 31
0.0
 11
3.0024383883
 21
1.2720459937
 31
0.0
 11
3.0022259834
 21
1.2724848408
 31
0.0
 11
3.0020134928
 21
1.2730756821
 31
0.0
  0
SPLINE
  5
372
100
AcDbEntity
  8
0
100
AcDbSpline
 62
6
  6
CONTINUOUS
 70
0
 71
3
 72
49
 73
45
 74
43
 42
0.0000001
 43
0.0000001
 44
0.0000000001
 12
-0.264215222
 22
0.8288803648
 32
0.0
 13
-0.4339611107
 23
0.7540093481
 33
0.0
 40
0.0
 40
0.0
 40
0.0
 40
0.0
 40
0.0011439179
 40
0.0025548317
 40
0.0061839273
 40
0.010892827
 40
0.0166785737
 40
0.0235283836
 40
0.0314263722
 40
0.0403561264
 40
0.0503009233
 40
0.0731496892
 40
0.0997631698
 40
0.1299156805
 40
0.1633379861
 40
0.1997371903
 40
0.2387953182
 40
0.2801608697
 40
0.3234734407
 40
0.4143758841
 40
0.5082855228
 40
0.6018840027
 40
0.6475285826
 40
0.6918640527
 40
0.7344953231
 40
0.7750447511
 40
0.8131541432
 40
0.8484792563
 40
0.8807155712
 40
0.9095709924
 40
0.9347962057
 40
0.9459769068
 40
0.9561660062
 40
0.9653421821
 40
0.9734884205
 40
0.98058805
 40
0.9866248627
 40
0.9915845034
 40
0.9936585246
 40
0.9954620063
 40
0.9969954769
 40
0.9982602753
 40
0.9992594203
 40
1.0
 40
1.0
 40
1.0
 40
1.0
 10
3.0020134928
 20
1.2730756821
 30
0.0
 10
3.0019127459
 20
1.2733917391
 30
0.0
 10
3.0017186887
 20
1.2741074132
 30
0.0
 10
3.001335071
 20
1.2758595257
 30
0.0
 10
3.0008770079
 20
1.278650857
 30
0.0
 10
3.0003542827
 20
1.2827133218
 30
0.0
 10
2.9998290443
 20
1.2877159757
 30
0.0
 10
2.9993008352
 20
1.2936471726
 30
0.0
 10
2.9987711888
 20
1.3004931176
 30
0.0
 10
2.9982403227
 20
1.3082388113
 30
0.0
 10
2.9974967372
 20
1.3203153983
 30
0.0
 10
2.9965845546
 20
1.3375190084
 30
0.0
 10
2.9955285398
 20
1.360582512
 30
0.0
 10
2.994470197
 20
1.3867149689
 30
0.0
 10
2.9934094205
 20
1.4156871599
 30
0.0
 10
2.9923471261
 20
1.4472434211
 30
0.0
 10
2.991283837
 20
1.4811043217
 30
0.0
 10
2.9902194398
 20
1.5169709278
 30
0.0
 10
2.9887764455
 20
1.5678672483
 30
0.0
 10
2.9869982785
 20
1.6339974385
 30
0.0
 10
2.9848946099
 20
1.7147065444
 30
0.0
 10
2.9831274122
 20
1.7822956048
 30
0.0
 10
2.9816943589
 20
1.8355124148
 30
0.0
 10
2.9806287929
 20
1.8739537269
 30
0.0
 10
2.9795635258
 20
1.9109169144
 30
0.0
 10
2.9784986962
 20
1.9460738272
 30
0.0
 10
2.9774348455
 20
1.9791110294
 30
0.0
 10
2.9763717533
 20
2.0097361956
 30
0.0
 10
2.9753106457
 20
2.0376761298
 30
0.0
 10
2.9742511966
 20
2.0626849148
 30
0.0
 10
2.9733386094
 20
2.081588282
 30
0.0
 10
2.9725976016
 20
2.0950801264
 30
0.0
 10
2.9720648858
 20
2.1039221978
 30
0.0
 10
2.9715328574
 20
2.1118826003
 30
0.0
 10
2.9710017836
 20
2.1189449255
 30
0.0
 10
2.9704722633
 20
2.1250941359
 30
0.0
 10
2.9699446541
 20
2.1303154333
 30
0.0
 10
2.9694848544
 20
2.134078325
 30
0.0
 10
2.9691073451
 20
2.1366131984
 30
0.0
 10
2.9688420293
 20
2.1381599393
 30
0.0
 10
2.9685777505
 20
2.1394681382
 30
0.0
 10
2.9683151368
 20
2.1405383165
 30
0.0
 10
2.9680547548
 20
2.1413699443
 30
0.0
 10
2.9678556817
 20
2.1418363486
 30
0.0
 10
2.9677485541
 20
2.1420224832
 30
0.0
 11
3.0020134928
 21
1.2730756821
 31
0.0
 11
3.0017460997
 21
1.2740342637
 31
0.0
 11
3.0014786189
 21
1.2752322215
 31
0.0
 11
3.0009435009
 21
1.2783437561
 31
0.0
 11
3.0004083517
 21
1.2824052657
 31
0.0
 11
2.999873344
 21
1.2874101929
 31
0.0
 11
2.9993384728
 21
1.2933452874
 31
0.0
 11
2.9988036854
 21
1.3001954776
 31
0.0
 11
2.9982689286
 21
1.3079456923
 31
0.0
 11
2.9977341495
 21
1.3165808495
 31
0.0
 11
2.9966644283
 21
1.3364298457
 31
0.0
 11
2.9955945623
 21
1.3595581132
 31
0.0
 11
2.9945246457
 21
1.3857681432
 31
0.0
 11
2.9934546686
 21
1.4148249402
 31
0.0
 11
2.9923845666
 21
1.4464731647
 31
0.0
 11
2.9913143148
 21
1.4804358071
 31
0.0
 11
2.9902439424
 21
1.5164067822
 31
0.0
 11
2.9891734811
 21
1.5540723244
 31
0.0
 11
2.9870323924
 21
1.633125971
 31
0.0
 11
2.9848911498
 21
1.7147967198
 31
0.0
 11
2.9827496826
 21
1.7961966697
 31
0.0
 11
2.9816788364
 21
1.8358917627
 31
0.0
 11
2.9806078955
 21
1.8744475367
 31
0.0
 11
2.9795368434
 21
1.9115201059
 31
0.0
 11
2.978465691
 21
1.9467807315
 31
0.0
 11
2.9773944794
 21
1.9799175488
 31
0.0
 11
2.9763232245
 21
2.0106307531
 31
0.0
 11
2.9752518598
 21
2.0386549925
 31
0.0
 11
2.9741803177
 21
2.0637355388
 31
0.0
 11
2.973108666
 21
2.0856546018
 31
0.0
 11
2.972572843
 21
2.095366736
 31
0.0
 11
2.9720370422
 21
2.1042147652
 31
0.0
 11
2.9715012385
 21
2.1121797857
 31
0.0
 11
2.97096538
 21
2.1192465024
 31
0.0
 11
2.9704294143
 21
2.1253996874
 31
0.0
 11
2.969893289
 21
2.1306241127
 31
0.0
 11
2.9693569739
 21
2.1349054031
 31
0.0
 11
2.969088783
 21
2.136689702
 31
0.0
 11
2.9688206051
 21
2.1382355926
 31
0.0
 11
2.9685524668
 21
2.1395424455
 31
0.0
 11
2.9682843945
 21
2.1406096312
 31
0.0
 11
2.9680164147
 21
2.1414365202
 31
0.0
 11
2.9677485541
 21
2.1420224832
 31
0.0
  0
SPLINE
  5
373
100
AcDbEntity
  8
0
100
AcDbSpline
 62
6
  6
CONTINUOUS
 70
0
 71
3
 72
11
 73
7
 74
5
 42
0.0000001
 43
0.0000001
 44
0.0000000001
 12
-0.0016615968
 22
0.000450652
 32
0.0
 13
-0.0005245079
 23
0.0016397813
 33
0.0
 40
0.0
 40
0.0
 40
0.0
 40
0.0
 40
0.1458866012
 40
0.3529522981
 40
0.6358311524
 40
1.0
 40
1.0
 40
1.0
 40
1.0
 10
2.9314436958
 20
1.2738492034
 30
0.0
 10
2.9313628942
 20
1.2738711181
 30
0.0
 10
2.9311915744
 20
1.273997912
 30
0.0
 10
2.9309874367
 20
1.2743015274
 30
0.0
 10
2.9307793202
 20
1.2747471953
 30
0.0
 10
2.9306566734
 20
1.2750979798
 30
0.0
 10
2.9305930036
 20
1.2752970322
 30
0.0
 11
2.9314436958
 21
1.2738492034
 31
0.0
 11
2.9312311795
 21
1.2739830659
 31
0.0
 11
2.9310185498
 21
1.274269201
 31
0.0
 11
2.9308058201
 21
1.2747072945
 31
0.0
 11
2.9305930036
 21
1.2752970322
 31
0.0
  0
SPLINE
  5
374
100
AcDbEntity
  8
0
100
AcDbSpline
 62
6
  6
CONTINUOUS
 70
0
 71
3
 72
49
 73
45
 74
43
 42
0.0000001
 43
0.0000001
 44
0.0000000001
 12
-0.263691051
 22
0.8243835444
 32
0.0
 13
-0.4317677747
 23
0.7501451775
 33
0.0
 40
0.0
 40
0.0
 40
0.0
 40
0.0
 40
0.0011458547
 40
0.002558578
 40
0.0061909716
 40
0.0109028111
 40
0.0166912599
 40
0.0235436169
 40
0.0314439735
 40
0.0403758878
 40
0.0503226148
 40
0.0731757126
 40
0.0997922578
 40
0.1299447246
 40
0.1633657933
 40
0.1997612247
 40
0.2388150766
 40
0.2801754363
 40
0.3234818497
 40
0.4143709804
 40
0.5082668763
 40
0.6018546528
 40
0.6474952963
 40
0.6918269029
 40
0.734454029
 40
0.7749982361
 40
0.8131037848
 40
0.8484276211
 40
0.880664748
 40
0.9095227384
 40
0.9347516463
 40
0.9459348673
 40
0.9561270048
 40
0.96530654
 40
0.9734564957
 40
0.980560265
 40
0.9866017075
 40
0.9915664679
 40
0.9936431948
 40
0.9954494876
 40
0.9969858847
 40
0.9982537372
 40
0.9992560778
 40
1.0
 40
1.0
 40
1.0
 40
1.0
 10
2.9305930036
 20
1.2752970322
 30
0.0
 10
2.9304922864
 20
1.2756119068
 30
0.0
 10
2.9302982498
 20
1.276324785
 30
0.0
 10
2.9299146604
 20
1.2780696087
 30
0.0
 10
2.9294565693
 20
1.2808486576
 30
0.0
 10
2.9289337971
 20
1.2848926275
 30
0.0
 10
2.9284085081
 20
1.2898718227
 30
0.0
 10
2.9278802525
 20
1.2957746902
 30
0.0
 10
2.9273505514
 20
1.3025875056
 30
0.0
 10
2.9268196264
 20
1.310295318
 30
0.0
 10
2.9260759357
 20
1.322312421
 30
0.0
 10
2.9251636663
 20
1.3394306129
 30
0.0
 10
2.9241075135
 20
1.3623781956
 30
0.0
 10
2.9230489891
 20
1.3883774764
 30
0.0
 10
2.9219881643
 20
1.4172000397
 30
0.0
 10
2.9209257434
 20
1.4485922672
 30
0.0
 10
2.9198623653
 20
1.4822762358
 30
0.0
 10
2.9187978443
 20
1.5179549864
 30
0.0
 10
2.9173546554
 20
1.568584033
 30
0.0
 10
2.9155762241
 20
1.6343666415
 30
0.0
 10
2.9134721499
 20
1.7146523559
 30
0.0
 10
2.9117045521
 20
1.7818877828
 30
0.0
 10
2.910271134
 20
1.8348272528
 30
0.0
 10
2.9092052706
 20
1.8730686282
 30
0.0
 10
2.9081397574
 20
1.9098390526
 30
0.0
 10
2.9070746615
 20
1.9448124242
 30
0.0
 10
2.9060105452
 20
1.977677728
 30
0.0
 10
2.9049471599
 20
2.0081450409
 30
0.0
 10
2.903885718
 20
2.0359426677
 30
0.0
 10
2.9028259367
 20
2.0608255266
 30
0.0
 10
2.9019130354
 20
2.0796346475
 30
0.0
 10
2.9011717827
 20
2.0930600377
 30
0.0
 10
2.9006388794
 20
2.1018593525
 30
0.0
 10
2.9001066525
 20
2.1097818292
 30
0.0
 10
2.8995753758
 20
2.1168111116
 30
0.0
 10
2.8990456453
 20
2.1229322823
 30
0.0
 10
2.89851782
 20
2.1281306478
 30
0.0
 10
2.8980578541
 20
2.1318776376
 30
0.0
 10
2.8976802241
 20
2.134402363
 30
0.0
 10
2.8974147912
 20
2.1359434235
 30
0.0
 10
2.8971503878
 20
2.1372472334
 30
0.0
 10
2.8968876319
 20
2.138314306
 30
0.0
 10
2.8966270893
 20
2.1391441296
 30
0.0
 10
2.8964279754
 20
2.1396097383
 30
0.0
 10
2.8963209082
 20
2.1397957548
 30
0.0
 11
2.9305930036
 21
1.2752970322
 31
0.0
 11
2.9303256103
 21
1.276252077
 31
0.0
 11
2.9300581275
 21
1.2774452154
 31
0.0
 11
2.9295229985
 21
1.2805432823
 31
0.0
 11
2.9289878274
 21
1.2845862513
 31
0.0
 11
2.9284527864
 21
1.2895676728
 31
0.0
 11
2.927917873
 21
1.2954744182
 31
0.0
 11
2.9273830353
 21
1.3022914609
 31
0.0
 11
2.926848221
 21
1.3100037744
 31
0.0
 11
2.926313378
 21
1.3185963298
 31
0.0
 11
2.9252435067
 21
1.3383474035
 31
0.0
 11
2.9241734841
 21
1.3613599437
 31
0.0
 11
2.9231034408
 21
1.3874358453
 31
0.0
 11
2.9220333729
 21
1.4163429652
 31
0.0
 11
2.9209631867
 21
1.4478260984
 31
0.0
 11
2.9198928324
 21
1.481611406
 31
0.0
 11
2.9188223382
 21
1.5173940054
 31
0.0
 11
2.9177517386
 21
1.5548616883
 31
0.0
 11
2.9156103316
 21
1.6334997549
 31
0.0
 11
2.9134687049
 21
1.7147411933
 31
0.0
 11
2.9113267406
 21
1.7957158434
 31
0.0
 11
2.9102556044
 21
1.8352046391
 31
0.0
 11
2.9091843703
 21
1.8735599929
 31
0.0
 11
2.9081130532
 21
1.9104394681
 31
0.0
 11
2.9070416619
 21
1.9455153137
 31
0.0
 11
2.905970196
 21
1.9784793787
 31
0.0
 11
2.9048986426
 21
2.0090344149
 31
0.0
 11
2.9038269471
 21
2.0369160081
 31
0.0
 11
2.9027550583
 21
2.0618704379
 31
0.0
 11
2.9016830449
 21
2.0836804702
 31
0.0
 11
2.9011470347
 21
2.0933450245
 31
0.0
 11
2.9006110427
 21
2.1021503213
 31
0.0
 11
2.9000750453
 21
2.1100773788
 31
0.0
 11
2.899538991
 21
2.1171110078
 31
0.0
 11
2.8990028272
 21
2.1232361072
 31
0.0
 11
2.8984665018
 21
2.1284375763
 31
0.0
 11
2.8979299829
 21
2.1327010975
 31
0.0
 11
2.8976616874
 21
2.1344784298
 31
0.0
 11
2.8973934031
 21
2.1360186381
 31
0.0
 11
2.8971251565
 21
2.1373210987
 31
0.0
 11
2.8968569741
 21
2.1383851876
 31
0.0
 11
2.8965888825
 21
2.139210281
 31
0.0
 11
2.8963209082
 21
2.1397957548
 31
0.0
  0
LINE
  5
375
100
AcDbEntity
  8
0
100
AcDbLine
 62
6
  6
CONTINUOUS
 10
9.0004526262
 20
7.4518613998
 11
9.0018383526
 21
7.4513201363
  0
SPLINE
  5
376
100
AcDbEntity
  8
0
100
AcDbSpline
 62
6
  6
CONTINUOUS
 70
0
 71
3
 72
11
 73
7
 74
5
 42
0.0000001
 43
0.0000001
 44
0.0000000001
 12
-0.0016804465
 22
0.000456734
 32
0.0
 13
-0.0005291763
 23
0.0016590596
 33
0.0
 40
0.0
 40
0.0
 40
0.0
 40
0.0
 40
0.1456984056
 40
0.3527126515
 40
0.6356601977
 40
1.0
 40
1.0
 40
1.0
 40
1.0
 10
2.8599864862
 20
1.2760740853
 30
0.0
 10
2.8599048734
 20
1.2760962671
 30
0.0
 10
2.8597318704
 20
1.2762247139
 30
0.0
 10
2.8595258817
 20
1.2765319975
 30
0.0
 10
2.8593158099
 20
1.2769831155
 30
0.0
 10
2.8591920258
 20
1.2773381691
 30
0.0
 10
2.8591277591
 20
1.2775396563
 30
0.0
 11
2.8599864862
 21
1.2760740853
 31
0.0
 11
2.8597719624
 21
1.2762095611
 31
0.0
 11
2.8595573242
 21
1.2764991957
 31
0.0
 11
2.8593425852
 21
1.2769426678
 31
0.0
 11
2.8591277591
 21
1.2775396563
 31
0.0
  0
SPLINE
  5
377
100
AcDbEntity
  8
0
100
AcDbSpline
 62
6
  6
CONTINUOUS
 70
0
 71
3
 72
49
 73
45
 74
43
 42
0.0000001
 43
0.0000001
 44
0.0000000001
 12
-0.2616585024
 22
0.8203449066
 32
0.0
 13
-0.4295423341
 23
0.7462736234
 33
0.0
 40
0.0
 40
0.0
 40
0.0
 40
0.0
 40
0.0011540372
 40
0.0025747831
 40
0.0062226763
 40
0.0109492611
 40
0.016751654
 40
0.0236170984
 40
0.0315296806
 40
0.0404729529
 40
0.0504301634
 40
0.073301576
 40
0.099932976
 40
0.1300969218
 40
0.1635254837
 40
0.1999231814
 40
0.2389738853
 40
0.2803278431
 40
0.3236257997
 40
0.4144935593
 40
0.5083648677
 40
0.601927788
 40
0.6475569891
 40
0.6918782065
 40
0.7344948086
 40
0.7750287269
 40
0.8131239037
 40
0.8484372722
 40
0.8806648656
 40
0.9095153446
 40
0.9347392975
 40
0.9459209099
 40
0.9561119875
 40
0.965291077
 40
0.9734412159
 40
0.9805458064
 40
0.9865887199
 40
0.9915556258
 40
0.9936336918
 40
0.9954415049
 40
0.9969796077
 40
0.9982493568
 40
0.9992537906
 40
1.0
 40
1.0
 40
1.0
 40
1.0
 10
2.8591277591
 20
1.2775396563
 30
0.0
 10
2.8590271046
 20
1.2778552258
 30
0.0
 10
2.8588330806
 20
1.2785689689
 30
0.0
 10
2.858449486
 20
1.2803136715
 30
0.0
 10
2.8579911919
 20
1.2830890829
 30
0.0
 10
2.8574681787
 20
1.2871246021
 30
0.0
 10
2.8569426707
 20
1.292089855
 30
0.0
 10
2.8564142296
 20
1.2979733207
 30
0.0
 10
2.855884359
 20
1.3047613177
 30
0.0
 10
2.8553532797
 20
1.3124389646
 30
0.0
 10
2.8546094567
 20
1.324405369
 30
0.0
 10
2.8536969978
 20
1.3414475292
 30
0.0
 10
2.8526406121
 20
1.3642892843
 30
0.0
 10
2.8515819068
 20
1.3901639127
 30
0.0
 10
2.8505209683
 20
1.4188436639
 30
0.0
 10
2.8494585106
 20
1.4500756388
 30
0.0
 10
2.8483951647
 20
1.4835835552
 30
0.0
 10
2.8473307545
 20
1.5190728942
 30
0.0
 10
2.8458877676
 20
1.5694301167
 30
0.0
 10
2.8441096189
 20
1.634857463
 30
0.0
 10
2.8420059905
 20
1.7147083473
 30
0.0
 10
2.8402389079
 20
1.7815791729
 30
0.0
 10
2.8388059787
 20
1.8342319154
 30
0.0
 10
2.8377405426
 20
1.8722665572
 30
0.0
 10
2.8366754913
 20
1.9088381635
 30
0.0
 10
2.8356109495
 20
1.9436219888
 30
0.0
 10
2.8345474803
 20
1.9763086319
 30
0.0
 10
2.833484837
 20
2.0066098637
 30
0.0
 10
2.8324242223
 20
2.0342559922
 30
0.0
 10
2.831365334
 20
2.0590039561
 30
0.0
 10
2.8304532838
 20
2.0777118027
 30
0.0
 10
2.8297127693
 20
2.0910655644
 30
0.0
 10
2.8291804037
 20
2.0998184509
 30
0.0
 10
2.8286487348
 20
2.1076995253
 30
0.0
 10
2.8281180338
 20
2.1146925384
 30
0.0
 10
2.8275888941
 20
2.1207826561
 30
0.0
 10
2.8270616736
 20
2.1259552674
 30
0.0
 10
2.8266022633
 20
2.1296841373
 30
0.0
 10
2.8262251235
 20
2.1321970716
 30
0.0
 10
2.8259600168
 20
2.1337313311
 30
0.0
 10
2.8256959391
 20
2.1350297055
 30
0.0
 10
2.8254334999
 20
2.1360926987
 30
0.0
 10
2.8251732633
 20
2.1369198106
 30
0.0
 10
2.8249744503
 20
2.1373840626
 30
0.0
 10
2.8248676075
 20
2.1375696881
 30
0.0
 11
2.8591277591
 21
1.2775396563
 31
0.0
 11
2.8588602704
 21
1.2784966771
 31
0.0
 11
2.8585926943
 21
1.2796904089
 31
0.0
 11
2.8580573852
 21
1.2827855273
 31
0.0
 11
2.8575220427
 21
1.2868200562
 31
0.0
 11
2.8569868381
 21
1.2917875382
 31
0.0
 11
2.8564517683
 21
1.2976748592
 31
0.0
 11
2.8559167814
 21
1.3044670611
 31
0.0
 11
2.8553818258
 21
1.3121491858
 31
0.0
 11
2.8548468496
 21
1.3207062731
 31
0.0
 11
2.8537767375
 21
1.3403709243
 31
0.0
 11
2.852706508
 21
1.3632772718
 31
0.0
 11
2.8516362931
 21
1.3892282965
 31
0.0
 11
2.8505661086
 21
1.417992521
 31
0.0
 11
2.8494958923
 21
1.4493149843
 31
0.0
 11
2.8484256012
 21
1.4829230953
 31
0.0
 11
2.8473552266
 21
1.5185154019
 31
0.0
 11
2.8462847686
 21
1.5557823359
 31
0.0
 11
2.8441437142
 21
1.6339959784
 31
0.0
 11
2.8420025695
 21
1.7147968036
 31
0.0
 11
2.8398612411
 21
1.7953319885
 31
0.0
 11
2.8387904731
 21
1.83460705
 31
0.0
 11
2.8377196521
 21
1.8727554217
 31
0.0
 11
2.8366488107
 21
1.909435409
 31
0.0
 11
2.8355779747
 21
1.9443212693
 31
0.0
 11
2.8345071625
 21
1.977106166
 31
0.0
 11
2.8334363712
 21
2.0074943707
 31
0.0
 11
2.8323655291
 21
2.0352237171
 31
0.0
 11
2.831294564
 21
2.0600427255
 31
0.0
 11
2.8302235442
 21
2.0817357363
 31
0.0
 11
2.8296880597
 21
2.0913489159
 31
0.0
 11
2.829152614
 21
2.1001077331
 31
0.0
 11
2.8286171836
 21
2.1079933584
 31
0.0
 11
2.8280817169
 21
2.11499069
 31
0.0
 11
2.8275461618
 21
2.1210847084
 31
0.0
 11
2.8270104661
 21
2.1262603936
 31
0.0
 11
2.8264745982
 21
2.130503513
 31
0.0
 11
2.8262066364
 21
2.1322726825
 31
0.0
 11
2.8259386913
 21
2.1338060909
 31
0.0
 11
2.8256707893
 21
2.1351031168
 31
0.0
 11
2.825402957
 21
2.1361631392
 31
0.0
 11
2.8251352209
 21
2.1369855366
 31
0.0
 11
2.8248676075
 21
2.1375696881
 31
0.0
  0
LINE
  5
378
100
AcDbEntity
  8
0
100
AcDbLine
 62
6
  6
CONTINUOUS
 10
8.9969428952
 20
7.5236042569
 11
8.9995011722
 21
7.5227569926
  0
SPLINE
  5
379
100
AcDbEntity
  8
0
100
AcDbSpline
 62
6
  6
CONTINUOUS
 70
0
 71
3
 72
11
 73
7
 74
5
 42
0.0000001
 43
0.0000001
 44
0.0000000001
 12
-0.001698468
 22
0.0004622084
 32
0.0
 13
-0.0005334263
 23
0.0016774643
 33
0.0
 40
0.0
 40
0.0
 40
0.0
 40
0.0
 40
0.1454655925
 40
0.3524120005
 40
0.635443557
 40
1.0
 40
1.0
 40
1.0
 40
1.0
 10
2.7885991394
 20
1.2782967617
 30
0.0
 10
2.7885167832
 20
1.2783191735
 30
0.0
 10
2.7883422272
 20
1.278449202
 30
0.0
 10
2.7881345716
 20
1.2787599895
 30
0.0
 10
2.7879227011
 20
1.2792163606
 30
0.0
 10
2.7877978681
 20
1.2795755352
 30
0.0
 10
2.7877330468
 20
1.2797793787
 30
0.0
 11
2.7885991394
 21
1.2782967617
 31
0.0
 11
2.7883827989
 21
1.2784337301
 31
0.0
 11
2.7881663274
 21
1.2787267079
 31
0.0
 11
2.7879497388
 21
1.2791753669
 31
0.0
 11
2.7877330468
 21
1.2797793787
 31
0.0
  0
SPLINE
  5
37A
100
AcDbEntity
  8
0
100
AcDbSpline
 62
6
  6
CONTINUOUS
 70
0
 71
3
 72
49
 73
45
 74
43
 42
0.0000001
 43
0.0000001
 44
0.0000000001
 12
-0.2595881295
 22
0.8163261078
 32
0.0
 13
-0.427325724
 23
0.7424062478
 33
0.0
 40
0.0
 40
0.0
 40
0.0
 40
0.0
 40
0.0011620359
 40
0.0025906637
 40
0.006253894
 40
0.0109952085
 40
0.0168116673
 40
0.023690458
 40
0.0316156649
 40
0.0405708381
 40
0.0505392229
 40
0.0734307237
 40
0.100079104
 40
0.1302568845
 40
0.1636964029
 40
0.2001025202
 40
0.2391590634
 40
0.2805147608
 40
0.3238094549
 40
0.4146626447
 40
0.5085155816
 40
0.6020569421
 40
0.6476745281
 40
0.6919841102
 40
0.7345893476
 40
0.7751120725
 40
0.8131961005
 40
0.8484972431
 40
0.8807121013
 40
0.9095506457
 40
0.9347630601
 40
0.9459396627
 40
0.9561264949
 40
0.9653018585
 40
0.973448791
 40
0.9805507332
 40
0.9865915946
 40
0.991557039
 40
0.993634566
 40
0.9954419658
 40
0.9969797796
 40
0.998249361
 40
0.9992537425
 40
1.0
 40
1.0
 40
1.0
 40
1.0
 10
2.7877330468
 20
1.2797793787
 30
0.0
 10
2.7876324965
 20
1.2800955788
 30
0.0
 10
2.787438562
 20
1.2808100686
 30
0.0
 10
2.7870550805
 20
1.2825544536
 30
0.0
 10
2.7865966608
 20
1.2853260575
 30
0.0
 10
2.7860733961
 20
1.2893530131
 30
0.0
 10
2.7855475525
 20
1.2943043369
 30
0.0
 10
2.7850186989
 20
1.3001685408
 30
0.0
 10
2.784488318
 20
1.3069319901
 30
0.0
 10
2.7839566265
 20
1.3145798766
 30
0.0
 10
2.7832118598
 20
1.3264963832
 30
0.0
 10
2.7822978756
 20
1.3434637799
 30
0.0
 10
2.7812392081
 20
1.3662014787
 30
0.0
 10
2.7801777256
 20
1.3919537575
 30
0.0
 10
2.7791134852
 20
1.420494202
 30
0.0
 10
2.77804715
 20
1.4515713786
 30
0.0
 10
2.7769793582
 20
1.484910084
 30
0.0
 10
2.7759099768
 20
1.5202166184
 30
0.0
 10
2.7744596357
 20
1.5703081271
 30
0.0
 10
2.7726713797
 20
1.6353858992
 30
0.0
 10
2.7705549021
 20
1.714807214
 30
0.0
 10
2.7687768946
 20
1.7813166049
 30
0.0
 10
2.7673354264
 20
1.8336835377
 30
0.0
 10
2.7662639018
 20
1.8715110667
 30
0.0
 10
2.7651931052
 20
1.9078832515
 30
0.0
 10
2.7641232521
 20
1.9424770455
 30
0.0
 10
2.7630550523
 20
1.9749842657
 30
0.0
 10
2.7619883302
 20
2.0051179793
 30
0.0
 10
2.7609243883
 20
2.0326101065
 30
0.0
 10
2.7598630895
 20
2.0572192678
 30
0.0
 10
2.7589497035
 20
2.0758218287
 30
0.0
 10
2.7582086922
 20
2.0891002731
 30
0.0
 10
2.7576762454
 20
2.097803961
 30
0.0
 10
2.7571447634
 20
2.1056408642
 30
0.0
 10
2.7566145358
 20
2.1125947592
 30
0.0
 10
2.7560861641
 20
2.1186509117
 30
0.0
 10
2.7555600168
 20
2.1237948076
 30
0.0
 10
2.7551018223
 20
2.1275030639
 30
0.0
 10
2.7547258766
 20
2.1300021783
 30
0.0
 10
2.7544616905
 20
2.1315280571
 30
0.0
 10
2.7541986145
 20
2.1328193821
 30
0.0
 10
2.7539372556
 20
2.1338766525
 30
0.0
 10
2.7536781755
 20
2.1346993716
 30
0.0
 10
2.753480321
 20
2.1351611823
 30
0.0
 10
2.7533740227
 20
2.1353458577
 30
0.0
 11
2.7877330468
 21
1.2797793787
 31
0.0
 11
2.7874655764
 21
1.2807381775
 31
0.0
 11
2.7871979956
 21
1.2819323372
 31
0.0
 11
2.7866626073
 21
1.2850242726
 31
0.0
 11
2.7861270895
 21
1.2890502524
 31
0.0
 11
2.7855916097
 21
1.2940038089
 31
0.0
 11
2.7850561603
 21
1.2998718453
 31
0.0
 11
2.7845206867
 21
1.3066394763
 31
0.0
 11
2.7839851341
 21
1.3142918163
 31
0.0
 11
2.783449448
 21
1.3228139778
 31
0.0
 11
2.7823775656
 21
1.3423936631
 31
0.0
 11
2.7813050826
 21
1.3651956248
 31
0.0
 11
2.7802321098
 21
1.3910238236
 31
0.0
 11
2.7791586295
 21
1.4196482029
 31
0.0
 11
2.7780845372
 21
1.4508154092
 31
0.0
 11
2.7770097857
 21
1.4842542219
 31
0.0
 11
2.775934428
 21
1.5196634466
 31
0.0
 11
2.7748585317
 21
1.5567343438
 31
0.0
 11
2.7727054871
 21
1.6345299686
 31
0.0
 11
2.7705513999
 21
1.7148961201
 31
0.0
 11
2.7683969862
 21
1.7949952683
 31
0.0
 11
2.7673198681
 21
1.8340567308
 31
0.0
 11
2.7662429496
 21
1.8719973161
 31
0.0
 11
2.7651663531
 21
1.9084773471
 31
0.0
 11
2.7640902076
 21
1.9431726822
 31
0.0
 11
2.7630146502
 21
1.9757779646
 31
0.0
 11
2.7619397963
 21
2.0059980359
 31
0.0
 11
2.7608656775
 21
2.0335725734
 31
0.0
 11
2.7597923149
 21
2.0582525215
 31
0.0
 11
2.7587198516
 21
2.0798229894
 31
0.0
 11
2.7581840263
 21
2.0893819313
 31
0.0
 11
2.7576485071
 21
2.0980915879
 31
0.0
 11
2.7571132839
 21
2.105933017
 31
0.0
 11
2.7565783175
 21
2.1128911959
 31
0.0
 11
2.7560435679
 21
2.1189512162
 31
0.0
 11
2.7555089951
 21
2.1240981695
 31
0.0
 11
2.7549745789
 21
2.1283178939
 31
0.0
 11
2.7547074693
 21
2.1300773566
 31
0.0
 11
2.7544404624
 21
2.1316023889
 31
0.0
 11
2.7541735863
 21
2.132892373
 31
0.0
 11
2.753906869
 21
2.133946691
 31
0.0
 11
2.7536403384
 21
2.1347647252
 31
0.0
 11
2.7533740227
 21
2.1353458577
 31
0.0
  0
LINE
  5
37B
100
AcDbEntity
  8
0
100
AcDbLine
 62
6
  6
CONTINUOUS
 10
2.5738776268
 20
2.0957414464
 11
2.5743117983
 21
2.0967751382
  0
SPLINE
  5
37C
100
AcDbEntity
  8
0
100
AcDbSpline
 62
6
  6
CONTINUOUS
 70
0
 71
3
 72
11
 73
7
 74
5
 42
0.0000001
 43
0.0000001
 44
0.0000000001
 12
-0.0017226197
 22
0.000470344
 32
0.0
 13
-0.0005380925
 23
0.0017026739
 33
0.0
 40
0.0
 40
0.0
 40
0.0
 40
0.0
 40
0.1450611007
 40
0.3518895529
 40
0.6350666691
 40
1.0
 40
1.0
 40
1.0
 40
1.0
 10
2.7171418808
 20
1.2805216484
 30
0.0
 10
2.7170585858
 20
1.2805443913
 30
0.0
 10
2.7168821054
 20
1.2806766879
 30
0.0
 10
2.7166725198
 20
1.2809923402
 30
0.0
 10
2.7164585429
 20
1.2814560255
 30
0.0
 10
2.7163325127
 20
1.2818209217
 30
0.0
 10
2.7162670567
 20
1.2820280426
 30
0.0
 11
2.7171418808
 21
1.2805216484
 31
0.0
 11
2.7169233387
 21
1.2806607062
 31
0.0
 11
2.7167046777
 21
1.2809583488
 31
0.0
 11
2.7164859122
 21
1.2814142397
 31
0.0
 11
2.7162670567
 21
1.2820280426
 31
0.0
  0
SPLINE
  5
37D
100
AcDbEntity
  8
0
100
AcDbSpline
 62
6
  6
CONTINUOUS
 70
0
 71
3
 72
49
 73
45
 74
43
 42
0.0000001
 43
0.0000001
 44
0.0000000001
 12
-0.2567790308
 22
0.8125200029
 32
0.0
 13
-0.4251143583
 23
0.738513377
 33
0.0
 40
0.0
 40
0.0
 40
0.0
 40
0.0
 40
0.0011718007
 40
0.002609987
 40
0.0062916037
 40
0.0110502759
 40
0.0168829219
 40
0.0237766198
 40
0.0317155088
 40
0.040683196
 40
0.0506629815
 40
0.0735735303
 40
0.1002360496
 40
0.1304233872
 40
0.1638680101
 40
0.2002755139
 40
0.2393300222
 40
0.2806799563
 40
0.323965185
 40
0.4147896614
 40
0.508605254
 40
0.6021073045
 40
0.6477053569
 40
0.6919959901
 40
0.734583744
 40
0.7750904702
 40
0.8131611534
 40
0.8484517338
 40
0.8806586996
 40
0.9094925207
 40
0.9347027052
 40
0.9458797885
 40
0.9560684704
 40
0.9652467829
 40
0.9733977793
 40
0.980504978
 40
0.9865523731
 40
0.9915256573
 40
0.9936075625
 40
0.9954196573
 40
0.9969624977
 40
0.998237458
 40
0.9992475956
 40
1.0
 40
1.0
 40
1.0
 40
1.0
 10
2.7162670567
 20
1.2820280426
 30
0.0
 10
2.7161667588
 20
1.2823454131
 30
0.0
 10
2.7159731986
 20
1.2830616692
 30
0.0
 10
2.7155904513
 20
1.2848076228
 30
0.0
 10
2.7151327416
 20
1.2875774878
 30
0.0
 10
2.7146103578
 20
1.2915980351
 30
0.0
 10
2.7140855094
 20
1.2965371315
 30
0.0
 10
2.7135577795
 20
1.3023833094
 30
0.0
 10
2.7130286366
 20
1.309123
 30
0.0
 10
2.7124982967
 20
1.3167415209
 30
0.0
 10
2.7117556663
 20
1.3286078634
 30
0.0
 10
2.7108445368
 20
1.3454991608
 30
0.0
 10
2.7097895613
 20
1.3681300907
 30
0.0
 10
2.7087322656
 20
1.3937559076
 30
0.0
 10
2.7076727072
 20
1.4221517148
 30
0.0
 10
2.7066115962
 20
1.4530677218
 30
0.0
 10
2.7055495772
 20
1.486230367
 30
0.0
 10
2.7044864778
 20
1.5213474875
 30
0.0
 10
2.7030453695
 20
1.5711647546
 30
0.0
 10
2.7012694329
 20
1.6358810204
 30
0.0
 10
2.6991681045
 20
1.7148574097
 30
0.0
 10
2.6974027521
 20
1.7809919486
 30
0.0
 10
2.6959711152
 20
1.8330631446
 30
0.0
 10
2.694906582
 20
1.8706771047
 30
0.0
 10
2.6938423848
 20
1.9068443211
 30
0.0
 10
2.6927785995
 20
1.9412440187
 30
0.0
 10
2.6917158677
 20
1.9735699959
 30
0.0
 10
2.6906539055
 20
2.0035371497
 30
0.0
 10
2.6895939127
 20
2.0308789398
 30
0.0
 10
2.6885357477
 20
2.0553551583
 30
0.0
 10
2.6876242107
 20
2.0738585121
 30
0.0
 10
2.6868841302
 20
2.0870674217
 30
0.0
 10
2.6863520548
 20
2.0957269752
 30
0.0
 10
2.6858206366
 20
2.1035252588
 30
0.0
 10
2.6852901595
 20
2.1104460755
 30
0.0
 10
2.6847612108
 20
2.1164748068
 30
0.0
 10
2.6842341476
 20
2.1215970506
 30
0.0
 10
2.6837749011
 20
2.1252908734
 30
0.0
 10
2.6833979216
 20
2.1277813345
 30
0.0
 10
2.6831328576
 20
2.1293029122
 30
0.0
 10
2.6828688031
 20
2.1305913902
 30
0.0
 10
2.6826063478
 20
2.1316472519
 30
0.0
 10
2.6823460534
 20
2.1324700267
 30
0.0
 10
2.6821473598
 20
2.132932278
 30
0.0
 10
2.6820407405
 20
2.1331174982
 30
0.0
 11
2.7162670567
 21
1.2820280426
 31
0.0
 11
2.7159999654
 21
1.2829901837
 31
0.0
 11
2.7157327877
 21
1.2841862259
 31
0.0
 11
2.7151982785
 21
1.2872775697
 31
0.0
 11
2.7146637388
 21
1.2912971868
 31
0.0
 11
2.7141293347
 21
1.2962385413
 31
0.0
 11
2.713595058
 21
1.3020885157
 31
0.0
 11
2.7130608568
 21
1.3088323504
 31
0.0
 11
2.7125266796
 21
1.3164552854
 31
0.0
 11
2.7119924745
 21
1.324942557
 31
0.0
 11
2.7109238865
 21
1.3444360385
 31
0.0
 11
2.7098551579
 21
1.3671308005
 31
0.0
 11
2.7087864176
 21
1.3928321021
 31
0.0
 11
2.7077176688
 21
1.4213111963
 31
0.0
 11
2.7066488325
 21
1.4523166772
 31
0.0
 11
2.7055798708
 21
1.485578993
 31
0.0
 11
2.7045108198
 21
1.5207982592
 31
0.0
 11
2.703441715
 21
1.5576673705
 31
0.0
 11
2.7013033217
 21
1.6350320143
 31
0.0
 11
2.6991645851
 21
1.7149464087
 31
0.0
 11
2.6970253954
 21
1.7945935168
 31
0.0
 11
2.6959556083
 21
1.8334342203
 31
0.0
 11
2.694885706
 21
1.8711603955
 31
0.0
 11
2.693815713
 21
1.9074348881
 31
0.0
 11
2.6927456566
 21
1.9419352632
 31
0.0
 11
2.6916755683
 21
1.9743587516
 31
0.0
 11
2.6906054655
 21
2.0044118412
 31
0.0
 11
2.6895353022
 21
2.0318354654
 31
0.0
 11
2.6884650214
 21
2.0563822853
 31
0.0
 11
2.6873946581
 21
2.0778379382
 31
0.0
 11
2.6868594778
 21
2.0873472096
 31
0.0
 11
2.6863243143
 21
2.0960127738
 31
0.0
 11
2.6857891464
 21
2.1038155509
 31
0.0
 11
2.685253922
 21
2.1107406008
 31
0.0
 11
2.6847185875
 21
2.1167731461
 31
0.0
 11
2.6841830896
 21
2.1218984092
 31
0.0
 11
2.6836473933
 21
2.1261022959
 31
0.0
 11
2.6833795057
 21
2.1278560056
 31
0.0
 11
2.6831116272
 21
2.1293767311
 31
0.0
 11
2.6828437846
 21
2.1306638578
 31
0.0
 11
2.6825760048
 21
2.1317167709
 31
0.0
 11
2.6823083145
 21
2.132534856
 31
0.0
 11
2.6820407405
 21
2.1331174982
 31
0.0
  0
SPLINE
  5
37E
100
AcDbEntity
  8
0
100
AcDbSpline
 62
6
  6
CONTINUOUS
 70
0
 71
3
 72
12
 73
8
 74
6
 42
0.0000001
 43
0.0000001
 44
0.0000000001
 12
-0.0061651291
 22
-0.0035596437
 32
0.0
 13
-0.0070423038
 23
-0.001042035
 33
0.0
 40
0.0
 40
0.0
 40
0.0
 40
0.0
 40
0.0650302286
 40
0.1466180889
 40
0.3611217058
 40
0.6453881956
 40
1.0
 40
1.0
 40
1.0
 40
1.0
 10
9.0063356239
 20
7.325203713
 30
0.0
 10
9.006201984
 20
7.3251265515
 30
0.0
 10
9.0058862009
 20
7.3249779771
 30
0.0
 10
9.0050805063
 20
7.3246846543
 30
0.0
 10
9.0037455161
 20
7.3243368002
 30
0.0
 10
9.0017593972
 20
7.3239408245
 30
0.0
 10
9.0002618699
 20
7.3237017153
 30
0.0
 10
8.9994294418
 20
7.3235785427
 30
0.0
 11
9.0063356239
 21
7.325203713
 31
0.0
 11
9.0059196326
 21
7.3250005557
 31
0.0
 11
9.0053754975
 21
7.3247974015
 31
0.0
 11
9.0039034942
 21
7.3243911026
 31
0.0
 11
9.0019210102
 21
7.3239848163
 31
0.0
 11
8.9994294418
 21
7.3235785427
 31
0.0
  0
SPLINE
  5
37F
100
AcDbEntity
  8
0
100
AcDbSpline
 62
6
  6
CONTINUOUS
 70
0
 71
3
 72
49
 73
45
 74
43
 42
0.0000001
 43
0.0000001
 44
0.0000000001
 12
-0.7924275492
 22
-0.1172538524
 32
0.0
 13
-0.0017473778
 23
-0.801053577
 33
0.0
 40
0.0
 40
0.0
 40
0.0
 40
0.0
 40
0.0049953983
 40
0.0110252041
 40
0.0180765741
 40
0.0261357788
 40
0.0452190438
 40
0.0681188344
 40
0.0946347759
 40
0.1245535027
 40
0.1576128745
 40
0.193535142
 40
0.272729517
 40
0.3594516818
 40
0.4507597793
 40
0.5435605827
 40
0.5895383591
 40
0.6347122601
 40
0.6786985396
 40
0.7211278546
 40
0.7616352689
 40
0.7998821625
 40
0.8355445341
 40
0.8683155284
 40
0.8979273265
 40
0.924121359
 40
0.9466823273
 40
0.956542371
 40
0.9654247894
 40
0.9733100406
 40
0.9801855123
 40
0.9860399268
 40
0.9885810108
 40
0.9908631062
 40
0.9928852633
 40
0.9946468313
 40
0.9961481454
 40
0.9973912581
 40
0.9983801086
 40
0.9991228745
 40
0.9994079427
 40
0.9996415422
 40
0.9998332391
 40
1.0
 40
1.0
 40
1.0
 40
1.0
 10
8.9994294418
 20
7.3235785427
 30
0.0
 10
8.9981099448
 20
7.3233832994
 30
0.0
 10
8.9951898711
 20
7.3230056553
 30
0.0
 10
8.9903906614
 20
7.3224888132
 30
0.0
 10
8.9847694999
 20
7.321969982
 30
0.0
 10
8.9756686646
 20
7.3212342877
 30
0.0
 10
8.9623360319
 20
7.3203378977
 30
0.0
 10
8.9440744806
 20
7.3193062418
 30
0.0
 10
8.9229158862
 20
7.3182704906
 30
0.0
 10
8.8990418017
 20
7.3172324094
 30
0.0
 10
8.8726540138
 20
7.3161921788
 30
0.0
 10
8.8331142784
 20
7.3147567315
 30
0.0
 10
8.7792481834
 20
7.312996679
 30
0.0
 10
8.7105952265
 20
7.3109397383
 30
0.0
 10
8.6383076578
 20
7.308879703
 30
0.0
 10
8.5768944163
 20
7.3071570676
 30
0.0
 10
8.5277955263
 20
7.3057616326
 30
0.0
 10
8.4917262711
 20
7.3047184927
 30
0.0
 10
8.4566049176
 20
7.3036756049
 30
0.0
 10
8.4227301492
 20
7.3026333267
 30
0.0
 10
8.3903886431
 20
7.3015914655
 30
0.0
 10
8.3598549927
 20
7.3005504361
 30
0.0
 10
8.3313883384
 20
7.2995106047
 30
0.0
 10
8.305229031
 20
7.2984717996
 30
0.0
 10
8.2815999947
 20
7.297435541
 30
0.0
 10
8.2607000504
 20
7.2964015958
 30
0.0
 10
8.2450739771
 20
7.2955084556
 30
0.0
 10
8.2340691098
 20
7.2947814629
 30
0.0
 10
8.2269779683
 20
7.2942616913
 30
0.0
 10
8.2206860496
 20
7.2937428227
 30
0.0
 10
8.2152056767
 20
7.2932252175
 30
0.0
 10
8.2111524166
 20
7.2927772807
 30
0.0
 10
8.2083246248
 20
7.2924127442
 30
0.0
 10
8.206515297
 20
7.2921527418
 30
0.0
 10
8.2049164336
 20
7.2918932148
 30
0.0
 10
8.203528982
 20
7.2916343108
 30
0.0
 10
8.2023536189
 20
7.2913761873
 30
0.0
 10
8.2013896702
 20
7.291119552
 30
0.0
 10
8.2006371068
 20
7.2908645027
 30
0.0
 10
8.2001452239
 20
7.290638837
 30
0.0
 10
8.1998658009
 20
7.2904491319
 30
0.0
 10
8.1997268023
 20
7.2903184392
 30
0.0
 10
8.1996389027
 20
7.2901844432
 30
0.0
 10
8.199617364
 20
7.290088166
 30
0.0
 10
8.1996172668
 20
7.2900436379
 30
0.0
 11
8.9994294418
 21
7.3235785427
 31
0.0
 11
8.9954623924
 21
7.3230538995
 31
0.0
 11
8.9906607582
 21
7.3225292773
 31
0.0
 11
8.9850366332
 21
7.3220046762
 31
0.0
 11
8.9786021111
 21
7.321480096
 31
0.0
 11
8.9633513982
 21
7.3204309988
 31
0.0
 11
8.9450374142
 21
7.3193819854
 31
0.0
 11
8.9238225892
 21
7.3183330561
 31
0.0
 11
8.8998789903
 21
7.3172842106
 31
0.0
 11
8.8734173741
 21
7.3162354491
 31
0.0
 11
8.8446607597
 21
7.3151867714
 31
0.0
 11
8.7812563428
 21
7.3130896677
 31
0.0
 11
8.7118187274
 21
7.3109928994
 31
0.0
 11
8.6387059257
 21
7.3088964662
 31
0.0
 11
8.5643968906
 21
7.3068003681
 31
0.0
 11
8.5275810517
 21
7.3057524447
 31
0.0
 11
8.4914094247
 21
7.304704605
 31
0.0
 11
8.4561895557
 21
7.3036568491
 31
0.0
 11
8.4222174711
 21
7.3026091768
 31
0.0
 11
8.3897856996
 21
7.3015615883
 31
0.0
 11
8.3591657281
 21
7.3005140835
 31
0.0
 11
8.3306173979
 21
7.2994666624
 31
0.0
 11
8.3043869141
 21
7.2984193249
 31
0.0
 11
8.2806893499
 21
7.2973720712
 31
0.0
 11
8.2597326229
 21
7.2963249011
 31
0.0
 11
8.241690394
 21
7.2952778147
 31
0.0
 11
8.2338093203
 21
7.2947543029
 31
0.0
 11
8.2267132937
 21
7.294230812
 31
0.0
 11
8.2204184982
 21
7.293707342
 31
0.0
 11
8.2149357948
 21
7.293183893
 31
0.0
 11
8.210275386
 21
7.2926604648
 31
0.0
 11
8.2082567303
 21
7.2923987586
 31
0.0
 11
8.2064474742
 21
7.2921370576
 31
0.0
 11
8.204848893
 21
7.2918753619
 31
0.0
 11
8.2034622568
 21
7.2916136713
 31
0.0
 11
8.2022884366
 21
7.291351986
 31
0.0
 11
8.2013276319
 21
7.2910903059
 31
0.0
 11
8.2005799777
 21
7.2908286311
 31
0.0
 11
8.2000456088
 21
7.2905669614
 31
0.0
 11
8.1998584485
 21
7.2904361286
 31
0.0
 11
8.1997246602
 21
7.2903052971
 31
0.0
 11
8.1996442607
 21
7.2901744668
 31
0.0
 11
8.1996172668
 21
7.2900436379
 31
0.0
  0
LINE
  5
380
100
AcDbEntity
  8
0
100
AcDbLine
 62
6
  6
CONTINUOUS
 10
2.7877605115
 20
2.1007744892
 11
2.7886077758
 21
2.1033327662
  0
SPLINE
  5
381
100
AcDbEntity
  8
0
100
AcDbSpline
 62
6
  6
CONTINUOUS
 70
0
 71
3
 72
11
 73
7
 74
5
 42
0.0000001
 43
0.0000001
 44
0.0000000001
 12
-0.0044109831
 22
-0.002550056
 32
0.0
 13
-0.0050200818
 23
-0.0008708253
 33
0.0
 40
0.0
 40
0.0
 40
0.0
 40
0.0
 40
0.1572767641
 40
0.3753830486
 40
0.6560458385
 40
1.0
 40
1.0
 40
1.0
 40
1.0
 10
9.0041072084
 20
7.3966303132
 30
0.0
 10
9.00387596
 20
7.396496625
 30
0.0
 10
9.0032827758
 20
7.3962524464
 30
0.0
 10
9.0022146156
 20
7.3959357891
 30
0.0
 10
9.0008184677
 20
7.3956161129
 30
0.0
 10
8.9997756131
 20
7.3954212411
 30
0.0
 10
8.9992000537
 20
7.3953213998
 30
0.0
 11
9.0041072084
 21
7.3966303132
 31
0.0
 11
9.0033757383
 21
7.3963030722
 31
0.0
 11
9.0023137477
 21
7.3959758396
 31
0.0
 11
9.0009216987
 21
7.3956486154
 31
0.0
 11
8.9992000537
 21
7.3953213998
 31
0.0
  0
SPLINE
  5
382
100
AcDbEntity
  8
0
100
AcDbSpline
 62
6
  6
CONTINUOUS
 70
0
 71
3
 72
49
 73
45
 74
43
 42
0.0000001
 43
0.0000001
 44
0.0000000001
 12
-0.7869014011
 22
-0.1365024823
 32
0.0
 13
-0.0028071913
 23
-0.7986481468
 33
0.0
 40
0.0
 40
0.0
 40
0.0
 40
0.0
 40
0.0044100319
 40
0.0098756258
 40
0.0163858822
 40
0.023928515
 40
0.0420567222
 40
0.0641098127
 40
0.0898920743
 40
0.1191926419
 40
0.1517491929
 40
0.1872845306
 40
0.2254930166
 40
0.266038458
 40
0.3527351716
 40
0.4443785879
 40
0.5378054496
 40
0.5841807188
 40
0.6297935589
 40
0.6742507046
 40
0.7171703183
 40
0.7581766811
 40
0.796922137
 40
0.833068833
 40
0.8663042806
 40
0.8963489559
 40
0.9229346556
 40
0.9458433733
 40
0.9558564778
 40
0.9648763878
 40
0.9728858659
 40
0.9798714313
 40
0.9858201545
 40
0.9907200909
 40
0.9927736767
 40
0.9945623772
 40
0.996087222
 40
0.997350181
 40
0.9983550445
 40
0.9991098752
 40
0.9993994901
 40
0.9996366779
 40
0.9998311047
 40
1.0
 40
1.0
 40
1.0
 40
1.0
 10
8.9992000537
 20
7.3953213998
 30
0.0
 10
8.9980433003
 20
7.3951207397
 30
0.0
 10
8.9954417007
 20
7.3947366847
 30
0.0
 10
8.9911103603
 20
7.394216776
 30
0.0
 10
8.9859402723
 20
7.3936942723
 30
0.0
 10
8.9774054267
 20
7.392948715
 30
0.0
 10
8.9647320745
 20
7.3920437193
 30
0.0
 10
8.9472020174
 20
7.391004132
 30
0.0
 10
8.9266934392
 20
7.389959931
 30
0.0
 10
8.9033857013
 20
7.3889129194
 30
0.0
 10
8.8774792852
 20
7.3878635447
 30
0.0
 10
8.8491997157
 20
7.386812902
 30
0.0
 10
8.8187920413
 20
7.3857613791
 30
0.0
 10
8.7747695237
 20
7.384326079
 30
0.0
 10
8.716525007
 20
7.3825604324
 30
0.0
 10
8.6442056881
 20
7.3804817799
 30
0.0
 10
8.5826152769
 20
7.3787447599
 30
0.0
 10
8.5332746005
 20
7.3773372909
 30
0.0
 10
8.4969657182
 20
7.3762844614
 30
0.0
 10
8.4615771781
 20
7.3752319268
 30
0.0
 10
8.4274155035
 20
7.3741799839
 30
0.0
 10
8.394775118
 20
7.3731284203
 30
0.0
 10
8.3639387527
 20
7.3720778097
 30
0.0
 10
8.3351723764
 20
7.3710282437
 30
0.0
 10
8.308723916
 20
7.3699798469
 30
0.0
 10
8.2848228153
 20
7.3689340277
 30
0.0
 10
8.2636737198
 20
7.3678903425
 30
0.0
 10
8.2478571423
 20
7.3669891031
 30
0.0
 10
8.2367155693
 20
7.366255421
 30
0.0
 10
8.2295354444
 20
7.3657307338
 30
0.0
 10
8.2231636273
 20
7.3652069756
 30
0.0
 10
8.217612334
 20
7.3646848166
 30
0.0
 10
8.2128929377
 20
7.3641645713
 30
0.0
 10
8.2094875104
 20
7.363711851
 30
0.0
 10
8.2071898682
 20
7.363340344
 30
0.0
 10
8.2057849561
 20
7.3630789356
 30
0.0
 10
8.2045945953
 20
7.3628184197
 30
0.0
 10
8.2036180101
 20
7.3625594055
 30
0.0
 10
8.2028552911
 20
7.3623019997
 30
0.0
 10
8.2023565609
 20
7.3620742782
 30
0.0
 10
8.2020730455
 20
7.3618828176
 30
0.0
 10
8.2019319603
 20
7.3617509435
 30
0.0
 10
8.2018426235
 20
7.3616157386
 30
0.0
 10
8.2018206045
 20
7.3615184821
 30
0.0
 10
8.2018204465
 20
7.3614735195
 30
0.0
 11
8.9992000537
 21
7.3953213998
 31
0.0
 11
8.9957180072
 21
7.3947918353
 31
0.0
 11
8.9913851329
 21
7.3942622929
 31
0.0
 11
8.9862127305
 21
7.3937327727
 31
0.0
 11
8.9802120998
 21
7.3932032746
 31
0.0
 11
8.9657727282
 21
7.3921443449
 31
0.0
 11
8.948191816
 21
7.3910855036
 31
0.0
 11
8.9276279708
 21
7.3900267507
 31
0.0
 11
8.9042509416
 21
7.388968086
 31
0.0
 11
8.8782711094
 21
7.3879095095
 31
0.0
 11
8.8499104482
 21
7.3868510211
 31
0.0
 11
8.8194134836
 21
7.3857926207
 31
0.0
 11
8.7870490407
 21
7.3847343082
 31
0.0
 11
8.7178407945
 21
7.3826179467
 31
0.0
 11
8.6446800919
 21
7.3805019359
 31
0.0
 11
8.5700944409
 21
7.3783862751
 31
0.0
 11
8.5330717949
 21
7.3773285758
 31
0.0
 11
8.4966583152
 21
7.3762709638
 31
0.0
 11
8.4611682313
 21
7.3752134389
 31
0.0
 11
8.426906664
 21
7.3741560013
 31
0.0
 11
8.3941738791
 21
7.3730986506
 31
0.0
 11
8.3632477684
 21
7.372041387
 31
0.0
 11
8.3343984618
 21
7.3709842102
 31
0.0
 11
8.3078759266
 21
7.3699271203
 31
0.0
 11
8.2839039462
 21
7.3688701172
 31
0.0
 11
8.2626975169
 21
7.3678132008
 31
0.0
 11
8.2444319471
 21
7.366756371
 31
0.0
 11
8.2364524253
 21
7.3662279886
 31
0.0
 11
8.2292680488
 21
7.3656996278
 31
0.0
 11
8.2228931106
 21
7.3651712887
 31
0.0
 11
8.2173391386
 21
7.3646429712
 31
0.0
 11
8.2126176365
 21
7.3641146752
 31
0.0
 11
8.2087401078
 21
7.3635864009
 31
0.0
 11
8.2071214131
 21
7.3633222718
 31
0.0
 11
8.2057174911
 21
7.3630581482
 31
0.0
 11
8.2045286547
 21
7.3627940299
 31
0.0
 11
8.2035551807
 21
7.362529917
 31
0.0
 11
8.202797346
 21
7.3622658095
 31
0.0
 11
8.2022554275
 21
7.3620017075
 31
0.0
 11
8.2020655233
 21
7.3618696584
 31
0.0
 11
8.201929702
 21
7.3617376108
 31
0.0
 11
8.2018479982
 21
7.3616055644
 31
0.0
 11
8.2018204465
 21
7.3614735195
 31
0.0
  0
LINE
  5
383
100
AcDbEntity
  8
0
100
AcDbLine
 62
6
  6
CONTINUOUS
 10
2.8595033687
 20
2.1042842202
 11
2.8600446321
 21
2.1056699466
  0
SPLINE
  5
384
100
AcDbEntity
  8
0
100
AcDbSpline
 62
6
  6
CONTINUOUS
 70
0
 71
3
 72
10
 73
6
 74
4
 42
0.0000001
 43
0.0000001
 44
0.0000000001
 12
-0.0029352422
 22
-0.0016989889
 32
0.0
 13
-0.0033196117
 23
-0.0006945419
 33
0.0
 40
0.0
 40
0.0
 40
0.0
 40
0.0
 40
0.1709580245
 40
0.3937133021
 40
1.0
 40
1.0
 40
1.0
 40
1.0
 10
9.0018370565
 20
7.4680577103
 30
0.0
 10
9.0016697888
 20
7.4679608917
 30
0.0
 10
9.0012622337
 20
7.4677774586
 30
0.0
 10
9.0001906113
 20
7.467415938
 30
0.0
 10
8.9992752259
 20
7.4672046208
 30
0.0
 10
8.9986043471
 20
7.4670642569
 30
0.0
 11
9.0018370565
 21
7.4680577103
 31
0.0
 11
9.0013131451
 21
7.46780934
 31
0.0
 11
9.0005996654
 21
7.4675609744
 31
0.0
 11
8.9986043471
 21
7.4670642569
 31
0.0
  0
SPLINE
  5
385
100
AcDbEntity
  8
0
100
AcDbSpline
 62
6
  6
CONTINUOUS
 70
0
 71
3
 72
51
 73
47
 74
45
 42
0.0000001
 43
0.0000001
 44
0.0000000001
 12
-0.7789567027
 22
-0.162976303
 32
0.0
 13
-0.002643482
 23
-0.7958189694
 33
0.0
 40
0.0
 40
0.0
 40
0.0
 40
0.0
 40
0.0038181645
 40
0.0087116874
 40
0.0146723177
 40
0.0216895328
 40
0.0297517577
 40
0.0388448194
 40
0.0600333507
 40
0.0850649341
 40
0.1137314905
 40
0.1457710321
 40
0.1809071929
 40
0.2188306868
 40
0.2592026735
 40
0.3458653264
 40
0.4378451138
 40
0.5319078727
 40
0.5786881935
 40
0.6247492712
 40
0.6696877738
 40
0.7131087428
 40
0.7546265424
 40
0.7938826621
 40
0.830525976
 40
0.8642382524
 40
0.8947261957
 40
0.9217150707
 40
0.9449805129
 40
0.9551499079
 40
0.9643116627
 40
0.9724495296
 40
0.9795483331
 40
0.9855934277
 40
0.9882165641
 40
0.9905713416
 40
0.9926571795
 40
0.9944744593
 40
0.9960240793
 40
0.9973078409
 40
0.9983293825
 40
0.9990966573
 40
0.9993909118
 40
0.9996317313
 40
0.9998289116
 40
1.0
 40
1.0
 40
1.0
 40
1.0
 10
8.9986043471
 20
7.4670642569
 30
0.0
 10
8.9976129522
 20
7.4668568335
 30
0.0
 10
8.9953339862
 20
7.4664660745
 30
0.0
 10
8.9914767685
 20
7.4659436989
 30
0.0
 10
8.9867647922
 20
7.4654180518
 30
0.0
 10
8.9812083051
 20
7.4648898606
 30
0.0
 10
8.9748177378
 20
7.4643602356
 30
0.0
 10
8.9646733735
 20
7.4636144651
 30
0.0
 10
8.9500281912
 20
7.4627021339
 30
0.0
 10
8.9301904541
 20
7.461649031
 30
0.0
 10
8.9074708159
 20
7.4605934186
 30
0.0
 10
8.8820682944
 20
7.4595348305
 30
0.0
 10
8.8542082685
 20
7.4584749459
 30
0.0
 10
8.824136434
 20
7.4574139721
 30
0.0
 10
8.7804012672
 20
7.455963771
 30
0.0
 10
8.7223296283
 20
7.4541808435
 30
0.0
 10
8.650018299
 20
7.4520838615
 30
0.0
 10
8.5882811775
 20
7.4503324263
 30
0.0
 10
8.538720603
 20
7.4489129281
 30
0.0
 10
8.502186561
 20
7.4478503887
 30
0.0
 10
8.4665440429
 20
7.4467881937
 30
0.0
 10
8.4321072736
 20
7.4457265409
 30
0.0
 10
8.3991786259
 20
7.4446652798
 30
0.0
 10
8.368048861
 20
7.4436050508
 30
0.0
 10
8.338990941
 20
7.4425457165
 30
0.0
 10
8.3122606036
 20
7.4414877586
 30
0.0
 10
8.288093406
 20
7.4404322693
 30
0.0
 10
8.2667003459
 20
7.4393789036
 30
0.0
 10
8.250697015
 20
7.4384695719
 30
0.0
 10
8.2394214386
 20
7.4377291055
 30
0.0
 10
8.2321538083
 20
7.43719949
 30
0.0
 10
8.22570302
 20
7.4366710089
 30
0.0
 10
8.2200820371
 20
7.4361438531
 30
0.0
 10
8.2159240871
 20
7.4356876658
 30
0.0
 10
8.2130235573
 20
7.4353163507
 30
0.0
 10
8.2111684507
 20
7.4350515036
 30
0.0
 10
8.2095294788
 20
7.4347870825
 30
0.0
 10
8.208107059
 20
7.4345233025
 30
0.0
 10
8.2069015058
 20
7.4342603817
 30
0.0
 10
8.2059121624
 20
7.4339989945
 30
0.0
 10
8.205139271
 20
7.4337392358
 30
0.0
 10
8.2046337424
 20
7.4335094588
 30
0.0
 10
8.2043462406
 20
7.4333162301
 30
0.0
 10
8.20420318
 20
7.4331831705
 30
0.0
 10
8.2041125465
 20
7.4330467365
 30
0.0
 10
8.20409019
 20
7.4329485022
 30
0.0
 10
8.2040900393
 20
7.4329031171
 30
0.0
 11
8.9986043471
 21
7.4670642569
 31
0.0
 11
8.9956131362
 21
7.4665297914
 31
0.0
 11
8.9917556029
 21
7.4659953473
 31
0.0
 11
8.9870421947
 21
7.4654609249
 31
0.0
 11
8.9814833593
 21
7.464926524
 31
0.0
 11
8.9750895446
 21
7.4643921447
 31
0.0
 11
8.9678728297
 21
7.4638577871
 31
0.0
 11
8.9510443985
 21
7.462789137
 31
0.0
 11
8.9311523596
 21
7.4617205741
 31
0.0
 11
8.9083638793
 21
7.4606520985
 31
0.0
 11
8.8828884568
 21
7.4595837106
 31
0.0
 11
8.854946694
 21
7.4585154107
 31
0.0
 11
8.8247852018
 21
7.4574471988
 31
0.0
 11
8.7926739915
 21
7.4563790754
 31
0.0
 11
8.723738912
 21
7.4542430948
 31
0.0
 11
8.650570409
 21
7.4521074706
 31
0.0
 11
8.575743528
 21
7.4499722045
 31
0.0
 11
8.5385299637
 21
7.4489047061
 31
0.0
 11
8.5018890265
 21
7.4478372978
 31
0.0
 11
8.4661418465
 21
7.4467699798
 31
0.0
 11
8.4316029094
 21
7.4457027521
 31
0.0
 11
8.3985793121
 21
7.444635615
 31
0.0
 11
8.3673566031
 21
7.4435685686
 31
0.0
 11
8.3382145231
 21
7.442501613
 31
0.0
 11
8.3114067265
 21
7.4414347483
 31
0.0
 11
8.2871671718
 21
7.4403679747
 31
0.0
 11
8.2657152984
 21
7.4393012923
 31
0.0
 11
8.2472308627
 21
7.4382347011
 31
0.0
 11
8.2391554084
 21
7.4377014398
 31
0.0
 11
8.2318837953
 21
7.4371682013
 31
0.0
 11
8.2254294788
 21
7.4366349856
 31
0.0
 11
8.2198053029
 21
7.4361017929
 31
0.0
 11
8.2150241115
 21
7.435568623
 31
0.0
 11
8.2129536488
 21
7.4353020467
 31
0.0
 11
8.2110987184
 21
7.435035476
 31
0.0
 11
8.2094603028
 21
7.4347689111
 31
0.0
 11
8.2080388465
 21
7.4345023519
 31
0.0
 11
8.2068347741
 21
7.4342357985
 31
0.0
 11
8.2058485105
 21
7.4339692507
 31
0.0
 11
8.2050804805
 21
7.4337027087
 31
0.0
 11
8.2045311088
 21
7.4334361724
 31
0.0
 11
8.2043385525
 21
7.4333029064
 31
0.0
 11
8.2042008201
 21
7.4331696419
 31
0.0
 11
8.2041179647
 21
7.4330363788
 31
0.0
 11
8.2040900393
 21
7.4329031171
 31
0.0
  0
LINE
  5
386
100
AcDbEntity
  8
0
100
AcDbLine
 62
6
  6
CONTINUOUS
 10
8.9995023345
 20
7.5394870883
 11
8.9976222258
 21
7.5388071141
  0
SPLINE
  5
387
100
AcDbEntity
  8
0
100
AcDbSpline
 62
6
  6
CONTINUOUS
 70
0
 71
3
 72
51
 73
47
 74
45
 42
0.0000001
 43
0.0000001
 44
0.0000000001
 12
-0.7667014213
 22
-0.2014931804
 32
0.0
 13
-0.000715247
 23
-0.7927358069
 33
0.0
 40
0.0
 40
0.0
 40
0.0
 40
0.0
 40
0.0032222118
 40
0.0075372728
 40
0.0129407884
 40
0.0194244202
 40
0.0269781791
 40
0.0355888769
 40
0.0558939989
 40
0.0801561587
 40
0.1081707299
 40
0.1396767772
 40
0.1743991679
 40
0.2120251909
 40
0.252213977
 40
0.3388310502
 40
0.4311472031
 40
0.5258566202
 40
0.5730506716
 40
0.6195708136
 40
0.6650028088
 40
0.7089381061
 40
0.7509815754
 40
0.7907619214
 40
0.8279157712
 40
0.8621179321
 40
0.8930603598
 40
0.9204643355
 40
0.9440951634
 40
0.9544245314
 40
0.963732887
 40
0.9720029304
 40
0.9792177004
 40
0.985360775
 40
0.9880256682
 40
0.9904179615
 40
0.9925375663
 40
0.9943847007
 40
0.9959600797
 40
0.9972653301
 40
0.9983039345
 40
0.9990837427
 40
0.9993825831
 40
0.999626934
 40
0.9998267593
 40
1.0
 40
1.0
 40
1.0
 40
1.0
 10
8.9976222258
 20
7.5388071141
 30
0.0
 10
8.9967987343
 20
7.5385906962
 30
0.0
 10
8.9948447903
 20
7.5381930784
 30
0.0
 10
8.9914655333
 20
7.5376689018
 30
0.0
 10
8.9872162487
 20
7.5371405563
 30
0.0
 10
8.9821065487
 20
7.5366085799
 30
0.0
 10
8.9761455634
 20
7.5360748168
 30
0.0
 10
8.9665381586
 20
7.5353195749
 30
0.0
 10
8.9525158674
 20
7.5343981358
 30
0.0
 10
8.9333656829
 20
7.5333365372
 30
0.0
 10
8.9112519211
 20
7.5322720285
 30
0.0
 10
8.886371475
 20
7.5312041073
 30
0.0
 10
8.8589491996
 20
7.5301347987
 30
0.0
 10
8.8292310105
 20
7.5290642053
 30
0.0
 10
8.7858053354
 20
7.5275988004
 30
0.0
 10
8.727931275
 20
7.52579836
 30
0.0
 10
8.6556534131
 20
7.5236829778
 30
0.0
 10
8.5937871532
 20
7.5219172152
 30
0.0
 10
8.5440176655
 20
7.5204857856
 30
0.0
 10
8.5072645619
 20
7.5194136263
 30
0.0
 10
8.4713729293
 20
7.5183418865
 30
0.0
 10
8.4366647626
 20
7.5172706462
 30
0.0
 10
8.4034507404
 20
7.5161998817
 30
0.0
 10
8.3720296233
 20
7.5151301937
 30
0.0
 10
8.3426817772
 20
7.5140613095
 30
0.0
 10
8.3156709127
 20
7.5129940397
 30
0.0
 10
8.2912384844
 20
7.5119290377
 30
0.0
 10
8.2696023453
 20
7.5108663314
 30
0.0
 10
8.2534128293
 20
7.5099491099
 30
0.0
 10
8.2420036768
 20
7.5092019571
 30
0.0
 10
8.234648487
 20
7.5086676402
 30
0.0
 10
8.2281186136
 20
7.5081344972
 30
0.0
 10
8.2224281997
 20
7.5076027028
 30
0.0
 10
8.2182190357
 20
7.507142509
 30
0.0
 10
8.2152831524
 20
7.5067678233
 30
0.0
 10
8.2134055568
 20
7.5065005858
 30
0.0
 10
8.211746416
 20
7.5062338202
 30
0.0
 10
8.2103061152
 20
7.505967702
 30
0.0
 10
8.2090851157
 20
7.5057024543
 30
0.0
 10
8.2080829029
 20
7.5054387654
 30
0.0
 10
8.2072998752
 20
7.5051767291
 30
0.0
 10
8.2067876635
 20
7.5049449577
 30
0.0
 10
8.2064963581
 20
7.5047499911
 30
0.0
 10
8.2063515019
 20
7.5046157752
 30
0.0
 10
8.2062597896
 20
7.5044781169
 30
0.0
 10
8.2062373116
 20
7.5043789293
 30
0.0
 10
8.2062372703
 20
7.5043331512
 30
0.0
 11
8.9976222258
 21
7.5388071141
 31
0.0
 11
8.9951254879
 21
7.5382676015
 31
0.0
 11
8.9917475921
 21
7.537728119
 31
0.0
 11
8.9874981344
 21
7.5371886632
 31
0.0
 11
8.9823867108
 21
7.5366492306
 31
0.0
 11
8.9764229179
 21
7.536109818
 31
0.0
 11
8.9696182517
 21
7.5355704229
 31
0.0
 11
8.9535578348
 21
7.5344916906
 31
0.0
 11
8.9343546139
 21
7.5334130479
 31
0.0
 11
8.9121726563
 21
7.5323345069
 31
0.0
 11
8.887219968
 21
7.5312560713
 31
0.0
 11
8.8597154045
 21
7.5301777431
 31
0.0
 11
8.8299073909
 21
7.5290995254
 31
0.0
 11
8.7980665347
 21
7.5280214222
 31
0.0
 11
8.7294359032
 21
7.5258655712
 31
0.0
 11
8.6562853002
 21
7.5237102067
 31
0.0
 11
8.5812366534
 21
7.5215553376
 31
0.0
 11
8.5438397361
 21
7.5204780896
 31
0.0
 11
8.5069772722
 21
7.5194009656
 31
0.0
 11
8.470977795
 21
7.5183239643
 31
0.0
 11
8.4361653494
 21
7.5172470844
 31
0.0
 11
8.4028533701
 21
7.5161703239
 31
0.0
 11
8.3713364367
 21
7.5150936806
 31
0.0
 11
8.341902918
 21
7.5140171518
 31
0.0
 11
8.314811005
 21
7.5129407351
 31
0.0
 11
8.2903054494
 21
7.5118644278
 31
0.0
 11
8.2686080014
 21
7.5107882276
 31
0.0
 11
8.2499059234
 21
7.509712132
 31
0.0
 11
8.2417351538
 21
7.5091741228
 31
0.0
 11
8.2343757215
 21
7.508636139
 31
0.0
 11
8.2278418681
 21
7.5080981802
 31
0.0
 11
8.2221478128
 21
7.5075602463
 31
0.0
 11
8.2173077748
 21
7.507022337
 31
0.0
 11
8.2152124071
 21
7.5067533915
 31
0.0
 11
8.213335116
 21
7.5064844521
 31
0.0
 11
8.21167649
 21
7.5062155187
 31
0.0
 11
8.2102371068
 21
7.5059465912
 31
0.0
 11
8.2090175445
 21
7.5056776698
 31
0.0
 11
8.2080183809
 21
7.5054087543
 31
0.0
 11
8.2072401937
 21
7.5051398447
 31
0.0
 11
8.206683561
 21
7.504870941
 31
0.0
 11
8.2064885081
 21
7.5047364914
 31
0.0
 11
8.2063490606
 21
7.5046020432
 31
0.0
 11
8.2062652905
 21
7.5044675965
 31
0.0
 11
8.2062372703
 21
7.5043331512
 31
0.0
  0
SPLINE
  5
388
100
AcDbEntity
  8
0
100
AcDbSpline
 62
6
  6
CONTINUOUS
 70
0
 71
3
 72
38
 73
34
 74
32
 42
0.0000001
 43
0.0000001
 44
0.0000000001
 12
0.4887499946
 22
0.4887499946
 32
0.0
 13
0.6909872351
 23
0.0170222027
 33
0.0
 40
0.0
 40
0.0
 40
0.0
 40
0.0
 40
0.0003374892
 40
0.0008438005
 40
0.0015293864
 40
0.0023980055
 40
0.0034512551
 40
0.0046898451
 40
0.0077238592
 40
0.0115002021
 40
0.016017341
 40
0.0212727342
 40
0.027260089
 40
0.0339710586
 40
0.0413971643
 40
0.0583605077
 40
0.0780782505
 40
0.1004510391
 40
0.125365054
 40
0.1527046767
 40
0.1823332307
 40
0.214098846
 40
0.2478485185
 40
0.283412828
 40
0.3592436248
 40
0.4400532671
 40
0.5241746875
 40
0.6098689349
 40
0.6953523451
 40
0.7788369036
 40
0.8585608936
 40
0.9328135191
 40
1.0
 40
1.0
 40
1.0
 40
1.0
 10
8.1820073849
 20
7.7365226474
 30
0.0
 10
8.1820623675
 20
7.73657763
 30
0.0
 10
8.1822348216
 20
7.7366762027
 30
0.0
 10
8.1825640921
 20
7.7367992446
 30
0.0
 10
8.1830230709
 20
7.7369245771
 30
0.0
 10
8.1836102656
 20
7.7370511226
 30
0.0
 10
8.1843273977
 20
7.7371785784
 30
0.0
 10
8.185540764
 20
7.737361836
 30
0.0
 10
8.1873822459
 20
7.7375839638
 30
0.0
 10
8.1899797308
 20
7.737838528
 30
0.0
 10
8.1930909872
 20
7.7380943513
 30
0.0
 10
8.1967130058
 20
7.738351147
 30
0.0
 10
8.2008415461
 20
7.7386085727
 30
0.0
 10
8.2054710363
 20
7.7388665702
 30
0.0
 10
8.2126274795
 20
7.7392273297
 30
0.0
 10
8.2227801215
 20
7.7396715037
 30
0.0
 10
8.2363763846
 20
7.7401861205
 30
0.0
 10
8.2518055585
 20
7.7407026313
 30
0.0
 10
8.2689916208
 20
7.7412208668
 30
0.0
 10
8.2878500599
 20
7.7417402052
 30
0.0
 10
8.30828762
 20
7.7422606117
 30
0.0
 10
8.330202466
 20
7.7427821117
 30
0.0
 10
8.3534852464
 20
7.743304486
 30
0.0
 10
8.386918857
 20
7.7440174176
 30
0.0
 10
8.431193833
 20
7.7449010265
 30
0.0
 10
8.4866553165
 20
7.745943878
 30
0.0
 10
8.5443896496
 20
7.746990132
 30
0.0
 10
8.6032009342
 20
7.748039231
 30
0.0
 10
8.6618654207
 20
7.7490907574
 30
0.0
 10
8.7191541042
 20
7.7501443644
 30
0.0
 10
8.7738547527
 20
7.7511993123
 30
0.0
 10
8.8247995791
 20
7.7522551289
 30
0.0
 10
8.857378525
 20
7.7530005794
 30
0.0
 10
8.8728535252
 20
7.7533818
 30
0.0
 11
8.1820073849
 21
7.7365226474
 31
0.0
 11
8.1822017919
 21
7.7366515718
 31
0.0
 11
8.1825270981
 21
7.7367806005
 31
0.0
 11
8.182983041
 21
7.7369097261
 31
0.0
 11
8.1835693581
 21
7.7370389414
 31
0.0
 11
8.1842857869
 21
7.7371682389
 31
0.0
 11
8.1851320649
 21
7.7372976113
 31
0.0
 11
8.1872131181
 21
7.7375565518
 31
0.0
 11
8.1898104177
 21
7.7378157042
 31
0.0
 11
8.1929218635
 21
7.7380750099
 31
0.0
 11
8.1965451007
 21
7.7383344152
 31
0.0
 11
8.2006753979
 21
7.7385939114
 31
0.0
 11
8.2053067289
 21
7.7388535146
 31
0.0
 11
8.2104330546
 21
7.739113241
 31
0.0
 11
8.2221465329
 21
7.7396331287
 31
0.0
 11
8.2357654297
 21
7.7401536932
 31
0.0
 11
8.2512206433
 21
7.7406749528
 31
0.0
 11
8.2684332215
 21
7.7411968727
 31
0.0
 11
8.287323057
 21
7.74171942
 31
0.0
 11
8.307795537
 21
7.7422425929
 31
0.0
 11
8.3297455816
 21
7.7427664125
 31
0.0
 11
8.3530673527
 21
7.7432908998
 31
0.0
 11
8.3776436818
 21
7.7438160615
 31
0.0
 11
8.4300471265
 21
7.7448683814
 31
0.0
 11
8.4858925352
 21
7.7459233213
 31
0.0
 11
8.5440273799
 21
7.7469808458
 31
0.0
 11
8.6032494882
 21
7.7480409471
 31
0.0
 11
8.6623257961
 21
7.7491036596
 31
0.0
 11
8.7200202249
 21
7.7501690942
 31
0.0
 11
8.775114843
 21
7.7512372956
 31
0.0
 11
8.8264268511
 21
7.7523082179
 31
0.0
 11
8.8728535252
 21
7.7533818
 31
0.0
  0
SPLINE
  5
389
100
AcDbEntity
  8
0
100
AcDbSpline
 62
6
  6
CONTINUOUS
 70
0
 71
3
 72
14
 73
10
 74
8
 42
0.0000001
 43
0.0000001
 44
0.0000000001
 12
0.1204049449
 22
0.0029661291
 32
0.0
 13
0.1200070248
 23
0.0102206983
 33
0.0
 40
0.0
 40
0.0
 40
0.0
 40
0.0
 40
0.3467557029
 40
0.4979839835
 40
0.6332462302
 40
0.7517538176
 40
0.8527458512
 40
0.935653603
 40
1.0
 40
1.0
 40
1.0
 40
1.0
 10
8.8728535252
 20
7.7533818
 30
0.0
 10
8.886770559
 20
7.7537246408
 30
0.0
 10
8.9067564671
 20
7.7542470746
 30
0.0
 10
8.9321678067
 20
7.7550193371
 30
0.0
 10
8.948418005
 20
7.755571427
 30
0.0
 10
8.96265008
 20
7.7561223503
 30
0.0
 10
8.9747786334
 20
7.7566712095
 30
0.0
 10
8.984730131
 20
7.7572171997
 30
0.0
 10
8.9906283392
 20
7.7576266614
 30
0.0
 10
8.9932023457
 20
7.7578458831
 30
0.0
 11
8.8728535252
 21
7.7533818
 31
0.0
 11
8.9146024985
 21
7.7544933532
 31
0.0
 11
8.9328081392
 21
7.7550502764
 31
0.0
 11
8.9490897759
 21
7.7556079469
 31
0.0
 11
8.9633520785
 21
7.756166316
 31
0.0
 11
8.9755028545
 21
7.7567253526
 31
0.0
 11
8.9854726823
 21
7.7572851559
 31
0.0
 11
8.9932023457
 21
7.7578458831
 31
0.0
  0
LINE
  5
38A
100
AcDbEntity
  8
0
100
AcDbLine
 62
6
  6
CONTINUOUS
 10
8.9932023457
 20
7.7578458831
 11
8.9935606366
 21
7.7578766946
  0
SPLINE
  5
38B
100
AcDbEntity
  8
0
100
AcDbSpline
 62
6
  6
CONTINUOUS
 70
0
 71
3
 72
14
 73
10
 74
8
 42
0.0000001
 43
0.0000001
 44
0.0000000001
 12
0.008874325
 22
0.0007706562
 32
0.0
 13
0.007723346
 23
0.0044381845
 33
0.0
 40
0.0
 40
0.0
 40
0.0
 40
0.0
 40
0.3840268081
 40
0.5424444208
 40
0.6784441788
 40
0.7920433495
 40
0.8833132614
 40
0.9524491645
 40
1.0
 40
1.0
 40
1.0
 40
1.0
 10
8.9935606366
 20
7.7578766946
 30
0.0
 10
8.9946966295
 20
7.7579753455
 30
0.0
 10
8.9963003798
 20
7.7581265528
 30
0.0
 10
8.9983012979
 20
7.7583602481
 30
0.0
 10
8.9995018978
 20
7.7585235497
 30
0.0
 10
9.0005008702
 20
7.7586861206
 30
0.0
 10
9.0012991254
 20
7.7588470043
 30
0.0
 10
9.0018952833
 20
7.7590061581
 30
0.0
 10
9.0022218287
 20
7.7591300005
 30
0.0
 10
9.0023442459
 20
7.7592003469
 30
0.0
 11
8.9935606366
 21
7.7578766946
 31
0.0
 11
8.9969654278
 21
7.7582073055
 31
0.0
 11
8.9983668392
 21
7.7583727244
 31
0.0
 11
8.9995669331
 21
7.7585381987
 31
0.0
 11
9.0005652152
 21
7.7587037133
 31
0.0
 11
9.0013611909
 21
7.7588692529
 31
0.0
 11
9.0019543659
 21
7.7590348026
 31
0.0
 11
9.0023442459
 21
7.7592003469
 31
0.0
  0
SPLINE
  5
38C
100
AcDbEntity
  8
0
100
AcDbSpline
 62
6
  6
CONTINUOUS
 70
0
 71
3
 72
10
 73
6
 74
4
 42
0.0000001
 43
0.0000001
 44
0.0000000001
 12
-0.0002545644
 22
-0.0011694981
 32
0.0
 13
-0.0011114593
 23
-0.0004440575
 33
0.0
 40
0.0
 40
0.0
 40
0.0
 40
0.0
 40
0.3687663993
 40
0.6477622109
 40
1.0
 40
1.0
 40
1.0
 40
1.0
 10
9.0292426946
 20
7.6456092102
 30
0.0
 10
9.029211403
 20
7.645465453
 30
0.0
 10
9.0290009552
 20
7.6452674814
 30
0.0
 10
9.0286623056
 20
7.6450713167
 30
0.0
 10
9.028429557
 20
7.6449687167
 30
0.0
 10
9.0282990576
 20
7.6449165788
 30
0.0
 11
9.0292426946
 21
7.6456092102
 31
0.0
 11
9.0289689003
 21
7.6452630248
 31
0.0
 11
9.0286834009
 21
7.6450898307
 31
0.0
 11
9.0282990576
 21
7.6449165788
 31
0.0
  0
SPLINE
  5
38D
100
AcDbEntity
  8
0
100
AcDbSpline
 62
6
  6
CONTINUOUS
 70
0
 71
3
 72
51
 73
47
 74
45
 42
0.0000001
 43
0.0000001
 44
0.0000000001
 12
-0.7909557011
 22
-0.3160078075
 32
0.0
 13
-0.7381786316
 23
-0.4249284215
 33
0.0
 40
0.0
 40
0.0
 40
0.0
 40
0.0
 40
0.0009825989
 40
0.0022323219
 40
0.0037525922
 40
0.0055449398
 40
0.009947715
 40
0.0154405176
 40
0.0220128391
 40
0.0296491138
 40
0.0383330617
 40
0.0480480301
 40
0.0587750941
 40
0.0704880455
 40
0.096760069
 40
0.126636973
 40
0.1598494886
 40
0.1961011785
 40
0.2350725742
 40
0.2764080598
 40
0.3197432154
 40
0.4108307508
 40
0.5050760751
 40
0.5991168335
 40
0.6450109398
 40
0.6896069003
 40
0.7325027829
 40
0.7733135894
 40
0.8116785564
 40
0.847248119
 40
0.8797139704
 40
0.90878218
 40
0.9341982052
 40
0.9454664025
 40
0.9557376808
 40
0.9649894152
 40
0.973204627
 40
0.980366894
 40
0.9864602706
 40
0.991470446
 40
0.993567333
 40
0.9953920914
 40
0.9969452751
 40
0.9982282606
 40
0.9992441207
 40
1.0
 40
1.0
 40
1.0
 40
1.0
 10
9.0282990576
 20
7.6449165788
 30
0.0
 10
9.0280399936
 20
7.6448130758
 30
0.0
 10
9.0274364413
 20
7.6446160743
 30
0.0
 10
9.0264039212
 20
7.6443522981
 30
0.0
 10
9.0251357007
 20
7.6440869652
 30
0.0
 10
9.0229785058
 20
7.6437051081
 30
0.0
 10
9.0196915681
 20
7.6432430748
 30
0.0
 10
9.0150458075
 20
7.6427146484
 30
0.0
 10
9.0094772426
 20
7.6421840043
 30
0.0
 10
9.0029994461
 20
7.6416513042
 30
0.0
 10
8.9956268613
 20
7.6411174529
 30
0.0
 10
8.9873747908
 20
7.6405827475
 30
0.0
 10
8.9782611527
 20
7.640047502
 30
0.0
 10
8.964450988
 20
7.6393043845
 30
0.0
 10
8.9452055758
 20
7.638388183
 30
0.0
 10
8.9198567428
 20
7.6373236437
 30
0.0
 10
8.891672376
 20
7.6362570893
 30
0.0
 10
8.8609043337
 20
7.6351889034
 30
0.0
 10
8.8278288012
 20
7.6341198848
 30
0.0
 10
8.7927412148
 20
7.6330498253
 30
0.0
 10
8.7428618483
 20
7.631598571
 30
0.0
 10
8.6779640504
 20
7.6298110229
 30
0.0
 10
8.5986737272
 20
7.6276976272
 30
0.0
 10
8.5322100351
 20
7.6259230242
 30
0.0
 10
8.4798386429
 20
7.6244840814
 30
0.0
 10
8.4419834272
 20
7.6234139815
 30
0.0
 10
8.4055720194
 20
7.6223443711
 30
0.0
 10
8.370930466
 20
7.6212753056
 30
0.0
 10
8.3383699712
 20
7.6202074471
 30
0.0
 10
8.3081800667
 20
7.619140508
 30
0.0
 10
8.2806313476
 20
7.6180756816
 30
0.0
 10
8.2559676763
 20
7.6170128078
 30
0.0
 10
8.2373218117
 20
7.6160973248
 30
0.0
 10
8.2240111013
 20
7.6153541263
 30
0.0
 10
8.2152852901
 20
7.6148198758
 30
0.0
 10
8.2074279992
 20
7.6142863268
 30
0.0
 10
8.2004555972
 20
7.6137537748
 30
0.0
 10
8.1943826709
 20
7.6132228085
 30
0.0
 10
8.1892235848
 20
7.6126937822
 30
0.0
 10
8.1855036583
 20
7.6122328594
 30
0.0
 10
8.1829960192
 20
7.6118544998
 30
0.0
 10
8.18146436
 20
7.6115884997
 30
0.0
 10
8.1801676807
 20
7.6113235272
 30
0.0
 10
8.1791054892
 20
7.6110601821
 30
0.0
 10
8.1782782704
 20
7.6107990293
 30
0.0
 10
8.1778136979
 20
7.6105996203
 30
0.0
 10
8.1776277065
 20
7.6104925554
 30
0.0
 11
9.0282990576
 21
7.6449165788
 31
0.0
 11
9.0275065967
 21
7.6446474149
 31
0.0
 11
9.0264767677
 21
7.6443781572
 31
0.0
 11
9.025210201
 21
7.6441088335
 31
0.0
 11
9.0237075269
 21
7.6438394716
 31
0.0
 11
9.0199963775
 21
7.6433007437
 31
0.0
 11
9.015349005
 21
7.6427621765
 31
0.0
 11
9.0097770029
 21
7.6422238023
 31
0.0
 11
9.0032951426
 21
7.6416855611
 31
0.0
 11
8.9959182262
 21
7.6411473922
 31
0.0
 11
8.9876610558
 21
7.6406092348
 31
0.0
 11
8.9785401827
 21
7.6400710431
 31
0.0
 11
8.9685782478
 21
7.639532824
 31
0.0
 11
8.9462270537
 21
7.638456376
 31
0.0
 11
8.9208022829
 21
7.6373800252
 31
0.0
 11
8.8925341241
 21
7.6363037787
 31
0.0
 11
8.8616756406
 21
7.6352275637
 31
0.0
 11
8.8284993477
 21
7.634151345
 31
0.0
 11
8.7933084504
 21
7.6330751506
 31
0.0
 11
8.7564135805
 21
7.631999013
 31
0.0
 11
8.6788599558
 21
7.6298470099
 31
0.0
 11
8.5986156834
 21
7.6276954583
 31
0.0
 11
8.518545702
 21
7.6255442741
 31
0.0
 11
8.4794703636
 21
7.6244687276
 31
0.0
 11
8.4415011464
 21
7.6233932041
 31
0.0
 11
8.4049805667
 21
7.6223177326
 31
0.0
 11
8.3702367497
 21
7.6212423445
 31
0.0
 11
8.337577225
 21
7.6201670736
 31
0.0
 11
8.3073000626
 21
7.6190919367
 31
0.0
 11
8.2796682976
 21
7.6180168736
 31
0.0
 11
8.2549329074
 21
7.6169418114
 31
0.0
 11
8.2333116087
 21
7.6158668049
 31
0.0
 11
8.2237290217
 21
7.6153293693
 31
0.0
 11
8.214997017
 21
7.614792003
 31
0.0
 11
8.2071352259
 21
7.6142546889
 31
0.0
 11
8.2001586098
 21
7.6137173717
 31
0.0
 11
8.1940818895
 21
7.6131799939
 31
0.0
 11
8.1889197856
 21
7.6126424982
 31
0.0
 11
8.1846863922
 21
7.6121048448
 31
0.0
 11
8.1829207277
 21
7.6118359926
 31
0.0
 11
8.1813899228
 21
7.6115671592
 31
0.0
 11
8.1800945978
 21
7.6112983717
 31
0.0
 11
8.1790353732
 21
7.6110296571
 31
0.0
 11
8.1782128694
 21
7.6107610427
 31
0.0
 11
8.1776277065
 21
7.6104925554
 31
0.0
  0
SPLINE
  5
38E
100
AcDbEntity
  8
0
100
AcDbSpline
 62
6
  6
CONTINUOUS
 70
0
 71
3
 72
38
 73
34
 74
32
 42
0.0000001
 43
0.0000001
 44
0.0000000001
 12
-0.4887499909
 22
0.4887499909
 32
0.0
 13
-0.0170222023
 23
0.6909872299
 33
0.0
 40
0.0
 40
0.0
 40
0.0
 40
0.0
 40
0.0003374892
 40
0.0008438005
 40
0.0015293864
 40
0.0023980055
 40
0.003451255
 40
0.0046898451
 40
0.0077238591
 40
0.011500202
 40
0.0160173409
 40
0.0212727341
 40
0.0272600889
 40
0.0339710586
 40
0.0413971642
 40
0.0583605075
 40
0.07807825
 40
0.1004510382
 40
0.1253650528
 40
0.1527046753
 40
0.1823332291
 40
0.2140988444
 40
0.2478485168
 40
0.2834128263
 40
0.3592436231
 40
0.4400532653
 40
0.5241746856
 40
0.6098689328
 40
0.6953523428
 40
0.7788369013
 40
0.8585608918
 40
0.932813518
 40
1.0
 40
1.0
 40
1.0
 40
1.0
 10
2.5748421211
 20
1.2858389789
 30
0.0
 10
2.5747871384
 20
1.2858939615
 30
0.0
 10
2.5746885658
 20
1.2860664157
 30
0.0
 10
2.5745655238
 20
1.2863956861
 30
0.0
 10
2.5744401913
 20
1.2868546649
 30
0.0
 10
2.5743136458
 20
1.2874418596
 30
0.0
 10
2.57418619
 20
1.2881589917
 30
0.0
 10
2.5740029324
 20
1.2893723579
 30
0.0
 10
2.5737808047
 20
1.2912138398
 30
0.0
 10
2.5735262405
 20
1.2938113247
 30
0.0
 10
2.5732704172
 20
1.2969225811
 30
0.0
 10
2.5730136215
 20
1.3005445997
 30
0.0
 10
2.5727561957
 20
1.3046731399
 30
0.0
 10
2.5724981982
 20
1.3093026301
 30
0.0
 10
2.5721374388
 20
1.3164590732
 30
0.0
 10
2.5716932648
 20
1.3266117151
 30
0.0
 10
2.571178648
 20
1.3402079778
 30
0.0
 10
2.5706621372
 20
1.3556371514
 30
0.0
 10
2.5701439017
 20
1.3728232134
 30
0.0
 10
2.5696245633
 20
1.3916816522
 30
0.0
 10
2.5691041568
 20
1.412119212
 30
0.0
 10
2.5685826568
 20
1.4340340578
 30
0.0
 10
2.5680602825
 20
1.4573168379
 30
0.0
 10
2.5673473509
 20
1.4907504483
 30
0.0
 10
2.5664637421
 20
1.5350254239
 30
0.0
 10
2.5654208906
 20
1.590486907
 30
0.0
 10
2.5643746366
 20
1.6482212396
 30
0.0
 10
2.5633255376
 20
1.7070325236
 30
0.0
 10
2.5622740111
 20
1.7656970095
 30
0.0
 10
2.5612204042
 20
1.8229856927
 30
0.0
 10
2.5601654563
 20
1.8776863411
 30
0.0
 10
2.5591096397
 20
1.9286311676
 30
0.0
 10
2.5583641892
 20
1.9612101137
 30
0.0
 10
2.5579829686
 20
1.976685114
 30
0.0
 11
2.5748421211
 21
1.2858389789
 31
0.0
 11
2.5747131966
 21
1.2860333859
 31
0.0
 11
2.5745841679
 21
1.2863586921
 31
0.0
 11
2.5744550423
 21
1.286814635
 31
0.0
 11
2.5743258271
 21
1.2874009521
 31
0.0
 11
2.5741965296
 21
1.2881173809
 31
0.0
 11
2.5740671572
 21
1.2889636588
 31
0.0
 11
2.5738082167
 21
1.291044712
 31
0.0
 11
2.5735490643
 21
1.2936420116
 31
0.0
 11
2.5732897586
 21
1.2967534574
 31
0.0
 11
2.5730303533
 21
1.3003766945
 31
0.0
 11
2.5727708571
 21
1.3045069917
 31
0.0
 11
2.5725112539
 21
1.3091383227
 31
0.0
 11
2.5722515274
 21
1.3142646484
 31
0.0
 11
2.5717316398
 21
1.3259781265
 31
0.0
 11
2.5712110753
 21
1.339597023
 31
0.0
 11
2.5706898157
 21
1.3550522363
 31
0.0
 11
2.5701678958
 21
1.3722648141
 31
0.0
 11
2.5696453486
 21
1.3911546493
 31
0.0
 11
2.5691221756
 21
1.411627129
 31
0.0
 11
2.568598356
 21
1.4335771734
 31
0.0
 11
2.5680738687
 21
1.4568989442
 31
0.0
 11
2.567548707
 21
1.4814752732
 31
0.0
 11
2.5664963871
 21
1.5338787174
 31
0.0
 11
2.5654414472
 21
1.5897241257
 31
0.0
 11
2.5643839228
 21
1.6478589699
 31
0.0
 11
2.5633238214
 21
1.7070810776
 31
0.0
 11
2.5622611089
 21
1.7661573849
 31
0.0
 11
2.5611956744
 21
1.8238518133
 31
0.0
 11
2.560127473
 21
1.8789464312
 31
0.0
 11
2.5590565507
 21
1.9302584395
 31
0.0
 11
2.5579829686
 21
1.976685114
 31
0.0
  0
SPLINE
  5
38F
100
AcDbEntity
  8
0
100
AcDbSpline
 62
6
  6
CONTINUOUS
 70
0
 71
3
 72
14
 73
10
 74
8
 42
0.0000001
 43
0.0000001
 44
0.0000000001
 12
-0.0029661291
 22
0.1204049449
 32
0.0
 13
-0.0102206956
 23
0.1200070251
 33
0.0
 40
0.0
 40
0.0
 40
0.0
 40
0.0
 40
0.3467556882
 40
0.4979839647
 40
0.6332462094
 40
0.7517537974
 40
0.8527458348
 40
0.9356535934
 40
1.0
 40
1.0
 40
1.0
 40
1.0
 10
2.5579829686
 20
1.976685114
 30
0.0
 10
2.5576401279
 20
1.9906021472
 30
0.0
 10
2.5571176941
 20
2.0105880546
 30
0.0
 10
2.5563454316
 20
2.0359993933
 30
0.0
 10
2.5557933418
 20
2.0522495914
 30
0.0
 10
2.5552424184
 20
2.0664816665
 30
0.0
 10
2.5546935593
 20
2.0786102203
 30
0.0
 10
2.5541475692
 20
2.0885617188
 30
0.0
 10
2.5537381075
 20
2.0944599276
 30
0.0
 10
2.5535188858
 20
2.0970339345
 30
0.0
 11
2.5579829686
 21
1.976685114
 31
0.0
 11
2.5568714155
 21
2.0184340855
 31
0.0
 11
2.5563144923
 21
2.0366397257
 31
0.0
 11
2.5557568219
 21
2.0529213622
 31
0.0
 11
2.5551984528
 21
2.0671836649
 31
0.0
 11
2.5546394162
 21
2.0793344413
 31
0.0
 11
2.554079613
 21
2.08930427
 31
0.0
 11
2.5535188858
 21
2.0970339345
 31
0.0
  0
LINE
  5
390
100
AcDbEntity
  8
0
100
AcDbLine
 62
6
  6
CONTINUOUS
 10
2.5535188858
 20
2.0970339345
 11
2.5534880743
 21
2.0973922254
  0
SPLINE
  5
391
100
AcDbEntity
  8
0
100
AcDbSpline
 62
6
  6
CONTINUOUS
 70
0
 71
3
 72
14
 73
10
 74
8
 42
0.0000001
 43
0.0000001
 44
0.0000000001
 12
-0.0007706564
 22
0.0088743302
 32
0.0
 13
-0.004438187
 23
0.0077233506
 33
0.0
 40
0.0
 40
0.0
 40
0.0
 40
0.0
 40
0.3840268185
 40
0.5424444343
 40
0.6784441937
 40
0.7920433638
 40
0.8833132734
 40
0.9524491717
 40
1.0
 40
1.0
 40
1.0
 40
1.0
 10
2.5534880743
 20
2.0973922254
 30
0.0
 10
2.5533894234
 20
2.098528219
 30
0.0
 10
2.553238216
 20
2.1001319703
 30
0.0
 10
2.5530045206
 20
2.1021328897
 30
0.0
 10
2.552841219
 20
2.1033334903
 30
0.0
 10
2.552678648
 20
2.1043324633
 30
0.0
 10
2.5525177643
 20
2.1051307188
 30
0.0
 10
2.5523586105
 20
2.1057268771
 30
0.0
 10
2.552234768
 20
2.1060534227
 30
0.0
 10
2.5521644215
 20
2.1061758399
 30
0.0
 11
2.5534880743
 21
2.0973922254
 31
0.0
 11
2.5531574633
 21
2.1007970187
 31
0.0
 11
2.5529920444
 21
2.102198431
 31
0.0
 11
2.55282657
 21
2.1033985256
 31
0.0
 11
2.5526610554
 21
2.1043968082
 31
0.0
 11
2.5524955156
 21
2.1051927844
 31
0.0
 11
2.552329966
 21
2.1057859598
 31
0.0
 11
2.5521644215
 21
2.1061758399
 31
0.0
  0
SPLINE
  5
392
100
AcDbEntity
  8
0
100
AcDbSpline
 62
6
  6
CONTINUOUS
 70
0
 71
3
 72
17
 73
13
 74
11
 42
0.0000001
 43
0.0000001
 44
0.0000000001
 12
0.0168346191
 22
-0.0016403356
 32
0.0
 13
0.0004660691
 23
-0.0169079236
 33
0.0
 40
0.0
 40
0.0
 40
0.0
 40
0.0
 40
0.4240644016
 40
0.5920934965
 40
0.7306809128
 40
0.7889397863
 40
0.8398606596
 40
0.8834824055
 40
0.9198807231
 40
0.9492040512
 40
0.9717658739
 40
1.0
 40
1.0
 40
1.0
 40
1.0
 10
9.0111170075
 20
7.7044589295
 30
0.0
 10
9.0134966617
 20
7.7042270602
 30
0.0
 10
9.0168170244
 20
7.7038737559
 30
0.0
 10
9.0208980811
 20
7.7033089691
 30
0.0
 10
9.0229275902
 20
7.7029695329
 30
0.0
 10
9.0242967743
 20
7.7026913356
 30
0.0
 10
9.0251357159
 20
7.7024955564
 30
0.0
 10
9.0258483628
 20
7.7022997215
 30
0.0
 10
9.0264324998
 20
7.702106606
 30
0.0
 10
9.026895355
 20
7.7019092396
 30
0.0
 10
9.0272782267
 20
7.7016947808
 30
0.0
 10
9.0275125064
 20
7.7014524575
 30
0.0
 10
9.0275168928
 20
7.7012933307
 30
0.0
 11
9.0111170075
 21
7.7044589295
 31
0.0
 11
9.0182459774
 21
7.7036674462
 31
0.0
 11
9.0210603957
 21
7.7032717256
 31
0.0
 11
9.0233708705
 21
7.7028760188
 31
0.0
 11
9.0243362152
 21
7.7026781707
 31
0.0
 11
9.0251744775
 21
7.702480326
 31
0.0
 11
9.0258852917
 21
7.7022824848
 31
0.0
 11
9.0264682923
 21
7.702084647
 31
0.0
 11
9.0269231139
 21
7.7018868128
 31
0.0
 11
9.0272494506
 21
7.7016889819
 31
0.0
 11
9.0275168928
 21
7.7012933307
 31
0.0
  0
SPLINE
  5
393
100
AcDbEntity
  8
0
100
AcDbSpline
 62
6
  6
CONTINUOUS
 70
0
 71
3
 72
10
 73
6
 74
4
 42
0.0000001
 43
0.0000001
 44
0.0000000001
 12
-0.0002430959
 22
-0.0011233607
 32
0.0
 13
-0.0010640761
 23
-0.0004344848
 33
0.0
 40
0.0
 40
0.0
 40
0.0
 40
0.0
 40
0.3710261008
 40
0.6494270104
 40
1.0
 40
1.0
 40
1.0
 40
1.0
 10
9.031466585
 20
7.5741849358
 30
0.0
 10
9.03143652
 20
7.5740460037
 30
0.0
 10
9.0312370539
 20
7.5738532747
 30
0.0
 10
9.0309132458
 20
7.5736617254
 30
0.0
 10
9.030691427
 20
7.5735617695
 30
0.0
 10
9.0305670815
 20
7.5735109967
 30
0.0
 11
9.031466585
 21
7.5741849358
 31
0.0
 11
9.0312050721
 21
7.5738480899
 31
0.0
 11
9.0309330594
 21
7.5736795709
 31
0.0
 11
9.0305670815
 21
7.5735109967
 31
0.0
  0
SPLINE
  5
394
100
AcDbEntity
  8
0
100
AcDbSpline
 62
6
  6
CONTINUOUS
 70
0
 71
3
 72
52
 73
48
 74
46
 42
0.0000001
 43
0.0000001
 44
0.0000000001
 12
-0.7927045941
 22
-0.3236780375
 32
0.0
 13
-0.7420952272
 23
-0.42713314
 33
0.0
 40
0.0
 40
0.0
 40
0.0
 40
0.0
 40
0.0009633571
 40
0.002193909
 40
0.0036952667
 40
0.0054690423
 40
0.0098358436
 40
0.015294517
 40
0.0218349118
 40
0.029441224
 40
0.0380968923
 40
0.0477849781
 40
0.0584868944
 40
0.070176889
 40
0.0964089697
 40
0.1262535318
 40
0.1594422957
 40
0.1956778093
 40
0.2346408612
 40
0.2759752115
 40
0.3193158264
 40
0.3642694089
 40
0.4104323155
 40
0.5047260753
 40
0.5988276659
 40
0.6447526343
 40
0.6893790817
 40
0.732306033
 40
0.773149386
 40
0.8115460145
 40
0.8471460751
 40
0.8796405605
 40
0.9087335732
 40
0.9341718422
 40
0.9454491513
 40
0.9557278169
 40
0.9649860782
 40
0.9732067686
 40
0.9803730948
 40
0.9864687381
 40
0.9914792416
 40
0.9935756928
 40
0.9953996142
 40
0.9969515514
 40
0.9982328718
 40
0.9992466386
 40
1.0
 40
1.0
 40
1.0
 40
1.0
 10
9.0305670815
 20
7.5735109967
 30
0.0
 10
9.030312529
 20
7.5734070575
 30
0.0
 10
9.0297170787
 20
7.5732095789
 30
0.0
 10
9.0286956937
 20
7.5729456183
 30
0.0
 10
9.027437045
 20
7.5726800451
 30
0.0
 10
9.0252895281
 20
7.5722974704
 30
0.0
 10
9.022010527
 20
7.5718348305
 30
0.0
 10
9.017369313
 20
7.5713058067
 30
0.0
 10
9.0117986808
 20
7.5707745589
 30
0.0
 10
9.0053123485
 20
7.5702412069
 30
0.0
 10
8.9979250638
 20
7.5697067012
 30
0.0
 10
8.9896522807
 20
7.569171328
 30
0.0
 10
8.9805118654
 20
7.5686354308
 30
0.0
 10
8.9666538388
 20
7.5678913272
 30
0.0
 10
8.9473339143
 20
7.5669740057
 30
0.0
 10
8.9218785775
 20
7.5659082239
 30
0.0
 10
8.8935659689
 20
7.5648404582
 30
0.0
 10
8.8626492109
 20
7.5637710256
 30
0.0
 10
8.8294063371
 20
7.5627007832
 30
0.0
 10
8.7941346213
 20
7.5616295306
 30
0.0
 10
8.7571523885
 20
7.5605580034
 30
0.0
 10
8.7187914787
 20
7.5594860602
 30
0.0
 10
8.6658924621
 20
7.5580465029
 30
0.0
 10
8.5989698949
 20
7.5562713496
 30
0.0
 10
8.5321152955
 20
7.5544948928
 30
0.0
 10
8.4794325069
 20
7.5530545703
 30
0.0
 10
8.4413510274
 20
7.5519834631
 30
0.0
 10
8.4047204875
 20
7.550912837
 30
0.0
 10
8.3698687967
 20
7.5498427883
 30
0.0
 10
8.3371092991
 20
7.5487739045
 30
0.0
 10
8.3067340041
 20
7.5477059394
 30
0.0
 10
8.2790157707
 20
7.546640124
 30
0.0
 10
8.2542001463
 20
7.5455761624
 30
0.0
 10
8.2354396545
 20
7.5446598399
 30
0.0
 10
8.2220474565
 20
7.5439159183
 30
0.0
 10
8.2132688807
 20
7.5433811185
 30
0.0
 10
8.2053644284
 20
7.5428470421
 30
0.0
 10
8.1983504645
 20
7.5423139634
 30
0.0
 10
8.1922419144
 20
7.5417824773
 30
0.0
 10
8.1870534649
 20
7.5412529421
 30
0.0
 10
8.1833130516
 20
7.5407915341
 30
0.0
 10
8.1807922132
 20
7.5404127814
 30
0.0
 10
8.1792530007
 20
7.5401465404
 30
0.0
 10
8.1779503353
 20
7.5398813387
 30
0.0
 10
8.1768837159
 20
7.5396177863
 30
0.0
 10
8.1760536437
 20
7.5393564492
 30
0.0
 10
8.1755876798
 20
7.53915682
 30
0.0
 10
8.1754013246
 20
7.5390495581
 30
0.0
 11
9.0305670815
 21
7.5735109967
 31
0.0
 11
9.0297874862
 21
7.5732414894
 31
0.0
 11
9.028768914
 21
7.5729718857
 31
0.0
 11
9.0275119943
 21
7.5727022129
 31
0.0
 11
9.0260173562
 21
7.5724324984
 31
0.0
 11
9.022317442
 21
7.5718930534
 31
0.0
 11
9.0176747215
 21
7.5713537552
 31
0.0
 11
9.0121005787
 21
7.5708146508
 31
0.0
 11
9.005610084
 21
7.5702756873
 31
0.0
 11
8.9982183658
 21
7.5697368102
 31
0.0
 11
8.9899405525
 21
7.5691979651
 31
0.0
 11
8.9807929944
 21
7.5686591067
 31
0.0
 11
8.9707980618
 21
7.5681202346
 31
0.0
 11
8.9483629591
 21
7.567042503
 31
0.0
 11
8.9228315642
 21
7.5659648708
 31
0.0
 11
8.8944344315
 21
7.5648873434
 31
0.0
 11
8.863426827
 21
7.5638098585
 31
0.0
 11
8.8300824822
 21
7.5627323851
 31
0.0
 11
8.7947067352
 21
7.5616549502
 31
0.0
 11
8.7576123812
 21
7.5605775859
 31
0.0
 11
8.7191363745
 21
7.5595003191
 31
0.0
 11
8.679624497
 21
7.5584231745
 31
0.0
 11
8.5989150828
 21
7.55626927
 31
0.0
 11
8.5183702584
 21
7.5541158114
 31
0.0
 11
8.4790621743
 21
7.5530392146
 31
0.0
 11
8.4408663637
 21
7.5519626866
 31
0.0
 11
8.4041263301
 21
7.5508862135
 31
0.0
 11
8.3691711605
 21
7.5498098067
 31
0.0
 11
8.3363120288
 21
7.5487335084
 31
0.0
 11
8.3058488128
 21
7.5476573384
 31
0.0
 11
8.2780465315
 21
7.5465812324
 31
0.0
 11
8.2531591658
 21
7.5455051212
 31
0.0
 11
8.231404482
 21
7.544429069
 31
0.0
 11
8.2217633886
 21
7.5438911092
 31
0.0
 11
8.21297883
 21
7.5433532146
 31
0.0
 11
8.2050697976
 21
7.5428153614
 31
0.0
 11
8.1980514884
 21
7.5422774976
 31
0.0
 11
8.191939013
 21
7.5417395704
 31
0.0
 11
8.186747482
 21
7.5412015271
 31
0.0
 11
8.1824911762
 21
7.5406633369
 31
0.0
 11
8.1807163964
 21
7.5403942245
 31
0.0
 11
8.1791780379
 21
7.5401251362
 31
0.0
 11
8.177876726
 21
7.5398560986
 31
0.0
 11
8.1768130862
 21
7.5395871386
 31
0.0
 11
8.1759877439
 21
7.5393182828
 31
0.0
 11
8.1754013246
 21
7.5390495581
 31
0.0
  0
SPLINE
  5
395
100
AcDbEntity
  8
0
100
AcDbSpline
 62
6
  6
CONTINUOUS
 70
0
 71
3
 72
59
 73
55
 74
53
 42
0.0000001
 43
0.0000001
 44
0.0000000001
 12
-0.4232619592
 22
0.735490029
 32
0.0
 13
-0.8482543903
 23
-0.0236803316
 33
0.0
 40
0.0
 40
0.0
 40
0.0
 40
0.0
 40
0.0007775986
 40
0.0018266676
 40
0.0031546045
 40
0.0047645356
 40
0.0066578244
 40
0.0088349839
 40
0.0140407135
 40
0.0203757763
 40
0.0278244651
 40
0.0363692719
 40
0.0459922029
 40
0.0566746594
 40
0.0683919813
 40
0.0948113348
 40
0.1250080729
 40
0.1587045022
 40
0.1955809887
 40
0.2353018405
 40
0.2774894795
 40
0.3217552093
 40
0.3676838971
 40
0.4148460588
 40
0.5111054482
 40
0.5593019264
 40
0.6069431769
 40
0.6535813125
 40
0.6987830073
 40
0.7421239175
 40
0.7831977137
 40
0.8216243547
 40
0.8570372893
 40
0.8891140934
 40
0.9175473443
 40
0.94207707
 40
0.9528066396
 40
0.9624753293
 40
0.9710620423
 40
0.9785505024
 40
0.9849249983
 40
0.9876898753
 40
0.9901708386
 40
0.9923665472
 40
0.9942769582
 40
0.9959028221
 40
0.9972457245
 40
0.9983089708
 40
0.9987379588
 40
0.999100562
 40
0.9993997511
 40
0.9996409152
 40
0.9998344336
 40
1.0
 40
1.0
 40
1.0
 40
1.0
 10
2.6294716161
 20
1.2836843348
 30
0.0
 10
2.6293619068
 20
1.2838749735
 30
0.0
 10
2.629158033
 20
1.2843526497
 30
0.0
 10
2.6288913523
 20
1.2852043479
 30
0.0
 10
2.6286223702
 20
1.286300304
 30
0.0
 10
2.6283516686
 20
1.2876399406
 30
0.0
 10
2.6280798939
 20
1.2892237562
 30
0.0
 10
2.6276931951
 20
1.2918191229
 30
0.0
 10
2.6272222004
 20
1.2956712925
 30
0.0
 10
2.6266816848
 20
1.3010156163
 30
0.0
 10
2.6261391654
 20
1.3073083539
 30
0.0
 10
2.6255950066
 20
1.3145338934
 30
0.0
 10
2.6250498141
 20
1.3226763497
 30
0.0
 10
2.6245038937
 20
1.3317179301
 30
0.0
 10
2.6237445333
 20
1.3455061448
 30
0.0
 10
2.6228091226
 20
1.3648125915
 30
0.0
 10
2.6217229735
 20
1.3903355263
 30
0.0
 10
2.6206347099
 20
1.4188186821
 30
0.0
 10
2.6195442565
 20
1.4499975319
 30
0.0
 10
2.6184528407
 20
1.4835795383
 30
0.0
 10
2.6173601607
 20
1.5192526676
 30
0.0
 10
2.6162669065
 20
1.5566825174
 30
0.0
 10
2.6151730336
 20
1.5955200253
 30
0.0
 10
2.6137039901
 20
1.6490597936
 30
0.0
 10
2.6122536271
 20
1.7032417738
 30
0.0
 10
2.6107942898
 20
1.7575590754
 30
0.0
 10
2.6096993483
 20
1.7978451536
 30
0.0
 10
2.6086043806
 20
1.8372838043
 30
0.0
 10
2.6075096801
 20
1.8755055811
 30
0.0
 10
2.6064153384
 20
1.9121527629
 30
0.0
 10
2.6053214126
 20
1.9468826611
 30
0.0
 10
2.6042286013
 20
1.9793689015
 30
0.0
 10
2.6031366061
 20
2.0093087213
 30
0.0
 10
2.6020469766
 20
2.0364198565
 30
0.0
 10
2.6009595664
 20
2.0604498669
 30
0.0
 10
2.600020332
 20
2.0784418064
 30
0.0
 10
2.5992555914
 20
2.0911272499
 30
0.0
 10
2.5987084861
 20
2.0993077818
 30
0.0
 10
2.5981623747
 20
2.1065693417
 30
0.0
 10
2.5976175835
 20
2.1128962127
 30
0.0
 10
2.5971460526
 20
2.1175761877
 30
0.0
 10
2.5967621644
 20
2.1208407174
 30
0.0
 10
2.5964884223
 20
2.1229278459
 30
0.0
 10
2.5962151245
 20
2.1247710459
 30
0.0
 10
2.5959424259
 20
2.1263694519
 30
0.0
 10
2.5956708176
 20
2.127722927
 30
0.0
 10
2.5954004253
 20
2.1288311998
 30
0.0
 10
2.5951634691
 20
2.1295984981
 30
0.0
 10
2.5949672959
 20
2.1300854684
 30
0.0
 10
2.5948310676
 20
2.1303627151
 30
0.0
 10
2.5946949054
 20
2.130579603
 30
0.0
 10
2.5945577301
 20
2.1307369777
 30
0.0
 10
2.5944164358
 20
2.1308358671
 30
0.0
 10
2.5943134787
 20
2.1308583224
 30
0.0
 10
2.5942666646
 20
2.1308570155
 30
0.0
 11
2.6294716161
 21
1.2836843348
 31
0.0
 11
2.6291972933
 21
1.2842844682
 31
0.0
 11
2.6289228308
 21
1.2851313267
 31
0.0
 11
2.6286482579
 21
1.2862242307
 31
0.0
 11
2.6283736038
 21
1.2875625008
 31
0.0
 11
2.6280988977
 21
1.2891454576
 31
0.0
 11
2.6278241689
 21
1.2909724216
 31
0.0
 11
2.6272747594
 21
1.2953556264
 31
0.0
 11
2.6267255152
 21
1.3007033334
 31
0.0
 11
2.6261763944
 21
1.3070002804
 31
0.0
 11
2.6256273338
 21
1.3142304563
 31
0.0
 11
2.6250782706
 21
1.3223778497
 31
0.0
 11
2.6245291438
 21
1.3314261732
 31
0.0
 11
2.6239799335
 21
1.3413541358
 31
0.0
 11
2.6228813251
 21
1.3637462653
 31
0.0
 11
2.6217825744
 21
1.3893471927
 31
0.0
 11
2.6206837376
 21
1.4179203513
 31
0.0
 11
2.6195847816
 21
1.4491938768
 31
0.0
 11
2.6184856778
 21
1.4828824658
 31
0.0
 11
2.6173864281
 21
1.5186653771
 31
0.0
 11
2.6162870394
 21
1.5562125137
 31
0.0
 11
2.6151875112
 21
1.5951713901
 31
0.0
 11
2.614087839
 21
1.6351773757
 31
0.0
 11
2.6118880516
 21
1.7168320105
 31
0.0
 11
2.6107879333
 21
1.7577160138
 31
0.0
 11
2.6096876624
 21
1.7981286827
 31
0.0
 11
2.6085872363
 21
1.8376897969
 31
0.0
 11
2.6074866531
 21
1.8760314782
 31
0.0
 11
2.6063859107
 21
1.9127934428
 31
0.0
 11
2.6052850075
 21
1.9476306538
 31
0.0
 11
2.6041839413
 21
1.9802203248
 31
0.0
 11
2.6030827102
 21
2.0102510207
 31
0.0
 11
2.6019813119
 21
2.037448619
 31
0.0
 11
2.6008797441
 21
2.0615514861
 31
0.0
 11
2.5997780047
 21
2.0823378627
 31
0.0
 11
2.59922707
 21
2.0914261295
 31
0.0
 11
2.5986760918
 21
2.0996123121
 31
0.0
 11
2.5981250697
 21
2.1068780023
 31
0.0
 11
2.5975740034
 21
2.113208657
 31
0.0
 11
2.5970228927
 21
2.1185898104
 31
0.0
 11
2.5967473207
 21
2.1209198035
 31
0.0
 11
2.5964717374
 21
2.1230069967
 31
0.0
 11
2.596196143
 21
2.1248497473
 31
0.0
 11
2.5959205372
 21
2.126447294
 31
0.0
 11
2.5956449202
 21
2.1277991674
 31
0.0
 11
2.5953692918
 21
2.1289048985
 31
0.0
 11
2.5950936521
 21
2.129764018
 31
0.0
 11
2.594955828
 21
2.1301009518
 31
0.0
 11
2.594818001
 21
2.1303760567
 31
0.0
 11
2.5946801712
 21
2.1305892742
 31
0.0
 11
2.5945423385
 21
2.1307405456
 31
0.0
 11
2.594404503
 21
2.1308298123
 31
0.0
 11
2.5942666646
 21
2.1308570155
 31
0.0
  0
LINE
  5
396
100
AcDbEntity
  8
0
100
AcDbLine
 62
6
  6
CONTINUOUS
 10
8.2134871826
 20
7.7180506309
 11
8.2145619219
 21
7.7176040179
  0
SPLINE
  5
397
100
AcDbEntity
  8
0
100
AcDbSpline
 62
6
  6
CONTINUOUS
 70
0
 71
3
 72
12
 73
8
 74
6
 42
0.0000001
 43
0.0000001
 44
0.0000000001
 12
0.0035596437
 22
-0.0061651291
 32
0.0
 13
0.001042035
 23
-0.0070423038
 33
0.0
 40
0.0
 40
0.0
 40
0.0
 40
0.0
 40
0.0650302286
 40
0.1466180889
 40
0.3611217058
 40
0.6453881956
 40
1.0
 40
1.0
 40
1.0
 40
1.0
 10
2.9861610555
 20
2.110167218
 30
0.0
 10
2.9862382169
 20
2.110033578
 30
0.0
 10
2.9863867914
 20
2.109717795
 30
0.0
 10
2.9866801142
 20
2.1089121003
 30
0.0
 10
2.9870279682
 20
2.1075771101
 30
0.0
 10
2.9874239439
 20
2.1055909912
 30
0.0
 10
2.9876630532
 20
2.1040934639
 30
0.0
 10
2.9877862258
 20
2.1032610359
 30
0.0
 11
2.9861610555
 21
2.110167218
 31
0.0
 11
2.9863642128
 21
2.1097512266
 31
0.0
 11
2.986567367
 21
2.1092070915
 31
0.0
 11
2.9869736658
 21
2.1077350882
 31
0.0
 11
2.9873799521
 21
2.1057526042
 31
0.0
 11
2.9877862258
 21
2.1032610359
 31
0.0
  0
SPLINE
  5
398
100
AcDbEntity
  8
0
100
AcDbSpline
 62
6
  6
CONTINUOUS
 70
0
 71
3
 72
49
 73
45
 74
43
 42
0.0000001
 43
0.0000001
 44
0.0000000001
 12
0.1172538524
 22
-0.7924275492
 32
0.0
 13
0.801053577
 23
-0.0017473778
 33
0.0
 40
0.0
 40
0.0
 40
0.0
 40
0.0
 40
0.0049953983
 40
0.0110252041
 40
0.0180765741
 40
0.0261357788
 40
0.0452190438
 40
0.0681188344
 40
0.0946347759
 40
0.1245535027
 40
0.1576128745
 40
0.193535142
 40
0.272729517
 40
0.3594516818
 40
0.4507597793
 40
0.5435605827
 40
0.5895383591
 40
0.6347122601
 40
0.6786985396
 40
0.7211278546
 40
0.7616352689
 40
0.7998821625
 40
0.8355445341
 40
0.8683155284
 40
0.8979273265
 40
0.924121359
 40
0.9466823273
 40
0.956542371
 40
0.9654247894
 40
0.9733100406
 40
0.9801855123
 40
0.9860399268
 40
0.9885810108
 40
0.9908631062
 40
0.9928852633
 40
0.9946468313
 40
0.9961481454
 40
0.9973912581
 40
0.9983801086
 40
0.9991228745
 40
0.9994079427
 40
0.9996415422
 40
0.9998332391
 40
1.0
 40
1.0
 40
1.0
 40
1.0
 10
2.9877862258
 20
2.1032610359
 30
0.0
 10
2.987981469
 20
2.1019415388
 30
0.0
 10
2.9883591132
 20
2.0990214652
 30
0.0
 10
2.9888759553
 20
2.0942222555
 30
0.0
 10
2.9893947865
 20
2.0886010939
 30
0.0
 10
2.9901304807
 20
2.0795002586
 30
0.0
 10
2.9910268708
 20
2.0661676259
 30
0.0
 10
2.9920585267
 20
2.0479060746
 30
0.0
 10
2.9930942779
 20
2.0267474802
 30
0.0
 10
2.994132359
 20
2.0028733957
 30
0.0
 10
2.9951725897
 20
1.9764856078
 30
0.0
 10
2.9966080369
 20
1.9369458724
 30
0.0
 10
2.9983680894
 20
1.8830797774
 30
0.0
 10
3.0004250301
 20
1.8144268205
 30
0.0
 10
3.0024850655
 20
1.7421392518
 30
0.0
 10
3.0042077009
 20
1.6807260103
 30
0.0
 10
3.0056031359
 20
1.6316271203
 30
0.0
 10
3.0066462758
 20
1.5955578652
 30
0.0
 10
3.0076891636
 20
1.5604365117
 30
0.0
 10
3.0087314418
 20
1.5265617432
 30
0.0
 10
3.009773303
 20
1.4942202372
 30
0.0
 10
3.0108143323
 20
1.4636865867
 30
0.0
 10
3.0118541638
 20
1.4352199325
 30
0.0
 10
3.0128929689
 20
1.409060625
 30
0.0
 10
3.0139292274
 20
1.3854315887
 30
0.0
 10
3.0149631727
 20
1.3645316444
 30
0.0
 10
3.0158563128
 20
1.3489055712
 30
0.0
 10
3.0165833056
 20
1.3379007039
 30
0.0
 10
3.0171030772
 20
1.3308095623
 30
0.0
 10
3.0176219458
 20
1.3245176436
 30
0.0
 10
3.018139551
 20
1.3190372707
 30
0.0
 10
3.0185874877
 20
1.3149840106
 30
0.0
 10
3.0189520242
 20
1.3121562188
 30
0.0
 10
3.0192120267
 20
1.310346891
 30
0.0
 10
3.0194715537
 20
1.3087480276
 30
0.0
 10
3.0197304576
 20
1.307360576
 30
0.0
 10
3.0199885812
 20
1.3061852129
 30
0.0
 10
3.0202452165
 20
1.3052212642
 30
0.0
 10
3.0205002658
 20
1.3044687008
 30
0.0
 10
3.0207259315
 20
1.3039768179
 30
0.0
 10
3.0209156366
 20
1.3036973949
 30
0.0
 10
3.0210463293
 20
1.3035583963
 30
0.0
 10
3.0211803253
 20
1.3034704967
 30
0.0
 10
3.0212766024
 20
1.303448958
 30
0.0
 10
3.0213211306
 20
1.3034488609
 30
0.0
 11
2.9877862258
 21
2.1032610359
 31
0.0
 11
2.988310869
 21
2.0992939864
 31
0.0
 11
2.9888354911
 21
2.0944923522
 31
0.0
 11
2.9893600923
 21
2.0888682272
 31
0.0
 11
2.9898846724
 21
2.0824337051
 31
0.0
 11
2.9909337697
 21
2.0671829922
 31
0.0
 11
2.991982783
 21
2.0488690082
 31
0.0
 11
2.9930317124
 21
2.0276541833
 31
0.0
 11
2.9940805578
 21
2.0037105844
 31
0.0
 11
2.9951293194
 21
1.9772489682
 31
0.0
 11
2.996177997
 21
1.9484923537
 31
0.0
 11
2.9982751007
 21
1.8850879368
 31
0.0
 11
3.0003718691
 21
1.8156503215
 31
0.0
 11
3.0024683023
 21
1.7425375197
 31
0.0
 11
3.0045644004
 21
1.6682284846
 31
0.0
 11
3.0056123238
 21
1.6314126457
 31
0.0
 11
3.0066601634
 21
1.5952410187
 31
0.0
 11
3.0077079194
 21
1.5600211497
 31
0.0
 11
3.0087555916
 21
1.5260490652
 31
0.0
 11
3.0098031801
 21
1.4936172936
 31
0.0
 11
3.010850685
 21
1.4629973221
 31
0.0
 11
3.0118981061
 21
1.4344489919
 31
0.0
 11
3.0129454435
 21
1.4082185082
 31
0.0
 11
3.0139926973
 21
1.3845209439
 31
0.0
 11
3.0150398674
 21
1.3635642169
 31
0.0
 11
3.0160869537
 21
1.345521988
 31
0.0
 11
3.0166104656
 21
1.3376409143
 31
0.0
 11
3.0171339565
 21
1.3305448877
 31
0.0
 11
3.0176574264
 21
1.3242500922
 31
0.0
 11
3.0181808755
 21
1.3187673888
 31
0.0
 11
3.0187043036
 21
1.31410698
 31
0.0
 11
3.0189660098
 21
1.3120883243
 31
0.0
 11
3.0192277108
 21
1.3102790682
 31
0.0
 11
3.0194894066
 21
1.3086804871
 31
0.0
 11
3.0197510972
 21
1.3072938508
 31
0.0
 11
3.0200127825
 21
1.3061200306
 31
0.0
 11
3.0202744625
 21
1.3051592259
 31
0.0
 11
3.0205361374
 21
1.3044115717
 31
0.0
 11
3.020797807
 21
1.3038772028
 31
0.0
 11
3.0209286399
 21
1.3036900425
 31
0.0
 11
3.0210594714
 21
1.3035562542
 31
0.0
 11
3.0211903016
 21
1.3034758547
 31
0.0
 11
3.0213211306
 21
1.3034488609
 31
0.0
  0
LINE
  5
399
100
AcDbEntity
  8
0
100
AcDbLine
 62
6
  6
CONTINUOUS
 10
8.2112087172
 20
7.6466242718
 11
8.2134560114
 21
7.6458497692
  0
LINE
  5
39A
100
AcDbEntity
  8
0
100
AcDbLine
 62
6
  6
CONTINUOUS
 10
8.9929423878
 20
7.75376499
 11
8.9905522387
 21
7.7529537979
  0
SPLINE
  5
39B
100
AcDbEntity
  8
0
100
AcDbSpline
 62
6
  6
CONTINUOUS
 70
0
 71
3
 72
51
 73
47
 74
45
 42
0.0000001
 43
0.0000001
 44
0.0000000001
 12
-0.7574005326
 22
-0.181796718
 32
0.0
 13
-0.0027858051
 23
-0.7789081157
 33
0.0
 40
0.0
 40
0.0
 40
0.0
 40
0.0
 40
0.0034964363
 40
0.0080775264
 40
0.0137371295
 40
0.0204659487
 40
0.0282532981
 40
0.0370857691
 40
0.057797701
 40
0.082414111
 40
0.1107291853
 40
0.1424814671
 40
0.1773943017
 40
0.2151578414
 40
0.2554308459
 40
0.3420683198
 40
0.4342273358
 40
0.5286355208
 40
0.5756370318
 40
0.6219436829
 40
0.6671456817
 40
0.7108423018
 40
0.7526411425
 40
0.7921777908
 40
0.8290957316
 40
0.8630699483
 40
0.893803382
 40
0.9210153052
 40
0.9444774076
 40
0.9547347488
 40
0.9639762862
 40
0.9721852807
 40
0.9793466648
 40
0.9854459229
 40
0.9880930382
 40
0.9904697251
 40
0.9925751032
 40
0.9944095393
 40
0.9959740363
 40
0.9972705376
 40
0.9983028959
 40
0.9990794338
 40
0.9993779575
 40
0.9996229771
 40
0.9998244535
 40
1.0
 40
1.0
 40
1.0
 40
1.0
 10
8.9905522387
 20
7.7529537979
 30
0.0
 10
8.9896695045
 20
7.7527419177
 30
0.0
 10
8.9876079335
 20
7.752347462
 30
0.0
 10
8.9840796553
 20
7.7518240544
 30
0.0
 10
8.9797048642
 20
7.7512968975
 30
0.0
 10
8.9744932217
 20
7.7507666846
 30
0.0
 10
8.9684542512
 20
7.7502348469
 30
0.0
 10
8.9587905219
 20
7.7494840701
 30
0.0
 10
8.9447578133
 20
7.7485669372
 30
0.0
 10
8.9256663153
 20
7.7475093313
 30
0.0
 10
8.9037046508
 20
7.746449019
 30
0.0
 10
8.8790670836
 20
7.7453855113
 30
0.0
 10
8.851974336
 20
7.7443206004
 30
0.0
 10
8.8226677713
 20
7.7432545449
 30
0.0
 10
8.7799370386
 20
7.7417962232
 30
0.0
 10
8.7230865067
 20
7.7400039484
 30
0.0
 10
8.6521835632
 20
7.7378970515
 30
0.0
 10
8.5915658406
 20
7.7361378472
 30
0.0
 10
8.5428484654
 20
7.7347118441
 30
0.0
 10
8.5069018595
 20
7.7336440657
 30
0.0
 10
8.4718137032
 20
7.7325766161
 30
0.0
 10
8.437896483
 20
7.7315097266
 30
0.0
 10
8.4054509434
 20
7.7304432204
 30
0.0
 10
8.3747663659
 20
7.729377737
 30
0.0
 10
8.346114617
 20
7.7283131946
 30
0.0
 10
8.319750159
 20
7.7272499732
 30
0.0
 10
8.2959078542
 20
7.7261892894
 30
0.0
 10
8.2747978119
 20
7.7251307239
 30
0.0
 10
8.2590038643
 20
7.7242168812
 30
0.0
 10
8.247874341
 20
7.7234728214
 30
0.0
 10
8.2406999718
 20
7.7229405902
 30
0.0
 10
8.2343317758
 20
7.7224094786
 30
0.0
 10
8.2287825379
 20
7.7218796947
 30
0.0
 10
8.2246774893
 20
7.7214212461
 30
0.0
 10
8.2218136508
 20
7.7210481057
 30
0.0
 10
8.2199817935
 20
7.7207819636
 30
0.0
 10
8.2183633541
 20
7.7205162321
 30
0.0
 10
8.2169588232
 20
7.7202511343
 30
0.0
 10
8.2157684929
 20
7.7199868954
 30
0.0
 10
8.2147916581
 20
7.7197241674
 30
0.0
 10
8.214028499
 20
7.719463057
 30
0.0
 10
8.2135294687
 20
7.719232034
 30
0.0
 10
8.2132458659
 20
7.719037925
 30
0.0
 10
8.2131046199
 20
7.7189041108
 30
0.0
 10
8.213015266
 20
7.7187669578
 30
0.0
 10
8.2129932971
 20
7.7186685283
 30
0.0
 10
8.2129931341
 20
7.7186229501
 30
0.0
 11
8.9905522387
 21
7.7529537979
 31
0.0
 11
8.9878823112
 21
7.7524166723
 31
0.0
 11
8.9843546948
 21
7.751879568
 31
0.0
 11
8.9799791954
 21
7.7513424853
 31
0.0
 11
8.974765619
 21
7.7508054242
 31
0.0
 11
8.9687237713
 21
7.7502683848
 31
0.0
 11
8.9618650353
 21
7.7497313673
 31
0.0
 11
8.9457680273
 21
7.7486573982
 31
0.0
 11
8.9266240792
 21
7.7475835169
 31
0.0
 11
8.9045952524
 21
7.7465097236
 31
0.0
 11
8.8798863017
 21
7.7454360188
 31
0.0
 11
8.8527134389
 21
7.7443624027
 31
0.0
 11
8.8233185197
 21
7.7432888758
 31
0.0
 11
8.7919677207
 21
7.7422154382
 31
0.0
 11
8.7245188074
 21
7.7400688326
 31
0.0
 11
8.652767035
 21
7.7379225882
 31
0.0
 11
8.5792625798
 21
7.7357767071
 31
0.0
 11
8.5426682091
 21
7.7347039034
 31
0.0
 11
8.5066153071
 21
7.7336311913
 31
0.0
 11
8.4714232207
 21
7.7325585711
 31
0.0
 11
8.4374042538
 21
7.7314860428
 31
0.0
 11
8.4048642568
 21
7.7304136068
 31
0.0
 11
8.3740873196
 21
7.7293412632
 31
0.0
 11
8.34535145
 21
7.7282690123
 31
0.0
 11
8.318910216
 21
7.7271968542
 31
0.0
 11
8.2949955595
 21
7.7261247891
 31
0.0
 11
8.273826961
 21
7.7250528171
 31
0.0
 11
8.2555834837
 21
7.7239809385
 31
0.0
 11
8.2476118995
 21
7.7234450342
 31
0.0
 11
8.2404335195
 21
7.7229091534
 31
0.0
 11
8.2340619195
 21
7.7223732959
 31
0.0
 11
8.2285096195
 21
7.7218374618
 31
0.0
 11
8.2237891395
 21
7.7213016512
 31
0.0
 11
8.2217447445
 21
7.7210337547
 31
0.0
 11
8.2199129976
 21
7.720765864
 31
0.0
 11
8.218295119
 21
7.7204979792
 31
0.0
 11
8.2168915878
 21
7.7202301003
 31
0.0
 11
8.2157027869
 21
7.7199622273
 31
0.0
 11
8.214729099
 21
7.7196943601
 31
0.0
 11
8.213970907
 21
7.7194264988
 31
0.0
 11
8.2134285937
 21
7.7191586434
 31
0.0
 11
8.2132385111
 21
7.7190247178
 31
0.0
 11
8.2131025418
 21
7.7188907938
 31
0.0
 11
8.2130207335
 21
7.7187568712
 31
0.0
 11
8.2129931341
 21
7.7186229501
 31
0.0
  0
SPLINE
  5
39C
100
AcDbEntity
  8
0
100
AcDbSpline
 62
6
  6
CONTINUOUS
 70
0
 71
3
 72
53
 73
49
 74
47
 42
0.0000001
 43
0.0000001
 44
0.0000000001
 12
0.7892160508
 22
0.0028824587
 32
0.0
 13
0.2413496562
 23
-0.7514124213
 33
0.0
 40
0.0
 40
0.0
 40
0.0
 40
0.0
 40
0.0001754846
 40
0.0003776144
 40
0.0006247863
 40
0.0009273306
 40
0.0017179416
 40
0.0027720316
 40
0.0040972439
 40
0.0056967481
 40
0.0075718194
 40
0.0097228051
 40
0.0121495476
 40
0.0148515919
 40
0.0210788199
 40
0.0283954556
 40
0.036783299
 40
0.0462221435
 40
0.0566914627
 40
0.0806354082
 40
0.108397878
 40
0.1397230301
 40
0.1743358491
 40
0.2119124819
 40
0.2521178759
 40
0.2945848333
 40
0.3389250442
 40
0.3847400873
 40
0.4316096233
 40
0.4791095539
 40
0.5742732633
 40
0.6667821893
 40
0.7109850812
 40
0.7532843307
 40
0.7932942691
 40
0.8306503804
 40
0.8650211695
 40
0.8960862425
 40
0.9235743079
 40
0.947233897
 40
0.9668512158
 40
0.9750927709
 40
0.9822633538
 40
0.9883452463
 40
0.9933297149
 40
0.9972134267
 40
0.9987431956
 40
1.0
 40
1.0
 40
1.0
 40
1.0
 10
2.7177463712
 20
2.1017553394
 30
0.0
 10
2.7177925363
 20
2.101755508
 30
0.0
 10
2.7178926095
 20
2.1017333865
 30
0.0
 10
2.7180316782
 20
2.1016415117
 30
0.0
 10
2.7181672052
 20
2.1014958549
 30
0.0
 10
2.7183641133
 20
2.1012022022
 30
0.0
 10
2.7185979923
 20
2.1006849439
 30
0.0
 10
2.7188624038
 20
2.099893748
 30
0.0
 10
2.719128489
 20
2.098880697
 30
0.0
 10
2.7193961597
 20
2.0976465037
 30
0.0
 10
2.7196647044
 20
2.0961909295
 30
0.0
 10
2.7199338979
 20
2.0945147405
 30
0.0
 10
2.720203556
 20
2.0926186178
 30
0.0
 10
2.7205816491
 20
2.089655091
 30
0.0
 10
2.7210461703
 20
2.0854062207
 30
0.0
 10
2.7215825629
 20
2.0796614082
 30
0.0
 10
2.7221203232
 20
2.0730686329
 30
0.0
 10
2.7226592193
 20
2.0656441535
 30
0.0
 10
2.7234128435
 20
2.0541323796
 30
0.0
 10
2.7243379036
 20
2.0378014715
 30
0.0
 10
2.7254090273
 20
2.0159842036
 30
0.0
 10
2.726482985
 20
1.9913573831
 30
0.0
 10
2.7275584872
 20
1.9641465992
 30
0.0
 10
2.7286356334
 20
1.9345980538
 30
0.0
 10
2.729713462
 20
1.902982045
 30
0.0
 10
2.7307919245
 20
1.8695857666
 30
0.0
 10
2.7318709131
 20
1.834713022
 30
0.0
 10
2.7329500153
 20
1.798681545
 30
0.0
 10
2.7340293725
 20
1.7618184743
 30
0.0
 10
2.7354693312
 20
1.7119780628
 30
0.0
 10
2.7372448386
 20
1.6501358144
 30
0.0
 10
2.739043196
 20
1.5891619353
 30
0.0
 10
2.7405029498
 20
1.542091437
 30
0.0
 10
2.7415805031
 20
1.5088268617
 30
0.0
 10
2.7426571815
 20
1.4773644542
 30
0.0
 10
2.7437330166
 20
1.4479890815
 30
0.0
 10
2.7448069306
 20
1.4209684821
 30
0.0
 10
2.745879267
 20
1.3965460811
 30
0.0
 10
2.7469479449
 20
1.3749443142
 30
0.0
 10
2.7480124351
 20
1.356358173
 30
0.0
 10
2.7489382778
 20
1.3428361104
 30
0.0
 10
2.7496984784
 20
1.3336520064
 30
0.0
 10
2.7502334917
 20
1.3280227134
 30
0.0
 10
2.7507658957
 20
1.3232542755
 30
0.0
 10
2.7512955251
 20
1.3193568883
 30
0.0
 10
2.7517592971
 20
1.3166595542
 30
0.0
 10
2.7521462884
 20
1.3149476439
 30
0.0
 10
2.7523419707
 20
1.314240581
 30
0.0
 10
2.7524430804
 20
1.3139257882
 30
0.0
 11
2.7177463712
 21
2.1017553394
 31
0.0
 11
2.7178820881
 21
2.1017277328
 31
0.0
 11
2.7180178035
 21
2.1016438902
 31
0.0
 11
2.7181535175
 21
2.1015037641
 31
0.0
 11
2.7182892301
 21
2.1013073072
 31
0.0
 11
2.718560651
 21
2.1007454659
 31
0.0
 11
2.718832066
 21
2.0999590764
 31
0.0
 11
2.7191034753
 21
2.0989490198
 31
0.0
 11
2.7193748789
 21
2.0977161776
 31
0.0
 11
2.7196462767
 21
2.0962614309
 31
0.0
 11
2.7199176688
 21
2.094585661
 31
0.0
 11
2.7201890551
 21
2.0926897491
 31
0.0
 11
2.7204604356
 21
2.0905745764
 31
0.0
 11
2.7210031795
 21
2.0856899758
 31
0.0
 11
2.7215459004
 21
2.0799410918
 31
0.0
 11
2.7220885982
 21
2.0733435098
 31
0.0
 11
2.7226312731
 21
2.0659139653
 31
0.0
 11
2.723173925
 21
2.0576691943
 31
0.0
 11
2.7242591598
 21
2.0388033097
 31
0.0
 11
2.7253443026
 21
2.0169194645
 31
0.0
 11
2.7264293537
 21
1.9922208092
 31
0.0
 11
2.7275143129
 21
1.964925189
 31
0.0
 11
2.7285991802
 21
1.9352887591
 31
0.0
 11
2.7296839558
 21
1.903576353
 31
0.0
 11
2.7307686396
 21
1.8700780817
 31
0.0
 11
2.7318532317
 21
1.8351006537
 31
0.0
 11
2.7329377321
 21
1.7989587127
 31
0.0
 11
2.7340221409
 21
1.7619841745
 31
0.0
 11
2.7351064579
 21
1.7245119017
 31
0.0
 11
2.7372748172
 21
1.6494379817
 31
0.0
 11
2.73944281
 21
1.5764601613
 31
0.0
 11
2.7405266691
 21
1.541591138
 31
0.0
 11
2.7416104367
 21
1.5082252652
 31
0.0
 11
2.7426941127
 21
1.4766671697
 31
0.0
 11
2.7437776972
 21
1.4472048501
 31
0.0
 11
2.7448611902
 21
1.4201003382
 31
0.0
 11
2.7459445918
 21
1.3956070696
 31
0.0
 11
2.7470279019
 21
1.3739399672
 31
0.0
 11
2.7481111205
 21
1.355298761
 31
0.0
 11
2.7491942476
 21
1.3398542883
 31
0.0
 11
2.7497357769
 21
1.3333724593
 31
0.0
 11
2.7502772833
 21
1.3277392494
 31
0.0
 11
2.7508187669
 21
1.3229699304
 31
0.0
 11
2.7513602276
 21
1.3190735235
 31
0.0
 11
2.7519016655
 21
1.3160566156
 31
0.0
 11
2.7521723758
 21
1.3148800305
 31
0.0
 11
2.7524430804
 21
1.3139257882
 31
0.0
  0
LINE
  5
39D
100
AcDbEntity
  8
0
100
AcDbLine
 62
6
  6
CONTINUOUS
 10
2.7524430804
 20
1.3139257882
 11
2.7528954192
 21
1.3128296737
  0
SPLINE
  5
39E
100
AcDbEntity
  8
0
100
AcDbSpline
 62
6
  6
CONTINUOUS
 70
0
 71
3
 72
11
 73
7
 74
5
 42
0.0000001
 43
0.0000001
 44
0.0000000001
 12
0.0000365073
 22
-0.0011725686
 32
0.0
 13
-0.0010831418
 23
-0.0004506148
 33
0.0
 40
0.0
 40
0.0
 40
0.0
 40
0.0
 40
0.1595144897
 40
0.3649929141
 40
0.6416957999
 40
1.0
 40
1.0
 40
1.0
 40
1.0
 10
9.0381453481
 20
7.3599670221
 30
0.0
 10
9.0381472893
 20
7.3599046749
 30
0.0
 10
9.0381005598
 20
7.3597605132
 30
0.0
 10
9.0379204888
 20
7.3595797705
 30
0.0
 10
9.0376424217
 20
7.3594025215
 30
0.0
 10
9.03741619
 20
7.35929856
 30
0.0
 10
9.0372868253
 20
7.3592447409
 30
0.0
 11
9.0381453481
 21
7.3599670221
 31
0.0
 11
9.038095807
 21
7.3597865667
 31
0.0
 11
9.0379360779
 21
7.3596060292
 31
0.0
 11
9.0376663531
 21
7.3594254179
 31
0.0
 11
9.0372868253
 21
7.3592447409
 31
0.0
  0
SPLINE
  5
39F
100
AcDbEntity
  8
0
100
AcDbSpline
 62
6
  6
CONTINUOUS
 70
0
 71
3
 72
52
 73
48
 74
46
 42
0.0000001
 43
0.0000001
 44
0.0000000001
 12
-0.8029170469
 22
-0.3340340955
 32
0.0
 13
-0.7537145535
 23
-0.4337844316
 33
0.0
 40
0.0
 40
0.0
 40
0.0
 40
0.0
 40
0.0009378522
 40
0.0021432607
 40
0.0036200055
 40
0.005369758
 40
0.0096903583
 40
0.0151054696
 40
0.0216054002
 40
0.0291742754
 40
0.0377954161
 40
0.0474517679
 40
0.0581251024
 40
0.0697900801
 40
0.0959807076
 40
0.1257929742
 40
0.1589601462
 40
0.195181248
 40
0.2341376776
 40
0.2754738329
 40
0.3188242861
 40
0.3637960458
 40
0.409985399
 40
0.504352782
 40
0.5985496223
 40
0.644527003
 40
0.6892064748
 40
0.7321835741
 40
0.7730722913
 40
0.8115091083
 40
0.8471433374
 40
0.8796655536
 40
0.9087797896
 40
0.9342319566
 40
0.9455132946
 40
0.9557939469
 40
0.9650520658
 40
0.9732704267
 40
0.9804321754
 40
0.9865209223
 40
0.9915221571
 40
0.9936130774
 40
0.9954308504
 40
0.9969760002
 40
0.9982498668
 40
0.9992554841
 40
1.0
 40
1.0
 40
1.0
 40
1.0
 10
9.0372868253
 20
7.3592447409
 30
0.0
 10
9.0370358194
 20
7.3591403161
 30
0.0
 10
9.036445552
 20
7.3589424629
 30
0.0
 10
9.0354296397
 20
7.3586786304
 30
0.0
 10
9.0341722668
 20
7.3584131042
 30
0.0
 10
9.0320181102
 20
7.3580300802
 30
0.0
 10
9.0287201442
 20
7.3575672625
 30
0.0
 10
9.0240434294
 20
7.3570381425
 30
0.0
 10
9.0184202839
 20
7.3565067756
 30
0.0
 10
9.0118645653
 20
7.3559732299
 30
0.0
 10
9.0043913246
 20
7.3554385051
 30
0.0
 10
8.9960162154
 20
7.3549028758
 30
0.0
 10
8.986757185
 20
7.3543667085
 30
0.0
 10
8.9727094715
 20
7.3536220954
 30
0.0
 10
8.9531154704
 20
7.3527042499
 30
0.0
 10
8.9272891028
 20
7.3516379022
 30
0.0
 10
8.8985529964
 20
7.3505697395
 30
0.0
 10
8.8671646245
 20
7.3494998456
 30
0.0
 10
8.8334070148
 20
7.3484291985
 30
0.0
 10
8.7975818353
 20
7.3473575537
 30
0.0
 10
8.7600122248
 20
7.3462855917
 30
0.0
 10
8.721035252
 20
7.3452131782
 30
0.0
 10
8.6672742207
 20
7.3437728395
 30
0.0
 10
8.5992478999
 20
7.3419966142
 30
0.0
 10
8.5312830775
 20
7.3402191229
 30
0.0
 10
8.4777177523
 20
7.3387777937
 30
0.0
 10
8.4389952615
 20
7.3377058802
 30
0.0
 10
8.401748423
 20
7.3366344405
 30
0.0
 10
8.3663119454
 20
7.3355635916
 30
0.0
 10
8.3330049765
 20
7.3344939409
 30
0.0
 10
8.302124562
 20
7.3334252226
 30
0.0
 10
8.2739482035
 20
7.3323586533
 30
0.0
 10
8.2487256481
 20
7.3312939492
 30
0.0
 10
8.2296597963
 20
7.3303769305
 30
0.0
 10
8.2160518076
 20
7.3296324056
 30
0.0
 10
8.2071337826
 20
7.3290972073
 30
0.0
 10
8.1991053443
 20
7.328562733
 30
0.0
 10
8.1919831614
 20
7.3280292592
 30
0.0
 10
8.1857824325
 20
7.327497389
 30
0.0
 10
8.1805181027
 20
7.3269674811
 30
0.0
 10
8.1767247125
 20
7.3265056956
 30
0.0
 10
8.1741697741
 20
7.3261265577
 30
0.0
 10
8.1726112426
 20
7.3258601345
 30
0.0
 10
8.1712934402
 20
7.3255947683
 30
0.0
 10
8.1702158366
 20
7.3253310996
 30
0.0
 10
8.1693789806
 20
7.3250696977
 30
0.0
 10
8.1689098365
 20
7.3248697801
 30
0.0
 10
8.1687227857
 20
7.324762127
 30
0.0
 11
9.0372868253
 21
7.3592447409
 31
0.0
 11
9.0365170915
 21
7.3589751369
 31
0.0
 11
9.0355041234
 21
7.3587054318
 31
0.0
 11
9.0342485597
 21
7.3584356528
 31
0.0
 11
9.0327510388
 21
7.3581658269
 31
0.0
 11
9.0290326805
 21
7.3576261425
 31
0.0
 11
9.0243545554
 21
7.3570865845
 31
0.0
 11
9.0187278201
 21
7.3565472117
 31
0.0
 11
9.0121678326
 21
7.3560079734
 31
0.0
 11
9.0046900505
 21
7.3554688164
 31
0.0
 11
8.9963099315
 21
7.3549296874
 31
0.0
 11
8.9870437623
 21
7.3543905392
 31
0.0
 11
8.9769138984
 21
7.3538513697
 31
0.0
 11
8.9541633108
 21
7.3527730373
 31
0.0
 11
8.9282601301
 21
7.3516948278
 31
0.0
 11
8.89943715
 21
7.3506167776
 31
0.0
 11
8.8679566804
 21
7.3495388265
 31
0.0
 11
8.8340961925
 21
7.3484609279
 31
0.0
 11
8.798165237
 21
7.3473830758
 31
0.0
 11
8.760481837
 21
7.3463052715
 31
0.0
 11
8.7213879443
 21
7.3452275271
 31
0.0
 11
8.6812348034
 21
7.3441498582
 31
0.0
 11
8.5991984953
 21
7.3419947459
 31
0.0
 11
8.5173105415
 21
7.3398398532
 31
0.0
 11
8.4773417976
 21
7.3387624475
 31
0.0
 11
8.4385021738
 21
7.3376850776
 31
0.0
 11
8.4011435727
 21
7.3366077701
 31
0.0
 11
8.3656018799
 21
7.335530556
 31
0.0
 11
8.3321934681
 21
7.334453472
 31
0.0
 11
8.3012236288
 21
7.3333765302
 31
0.0
 11
8.2729618762
 21
7.3322996534
 31
0.0
 11
8.2476662054
 21
7.3312227577
 31
0.0
 11
8.2255584744
 21
7.3301459017
 31
0.0
 11
8.215762679
 21
7.3296075334
 31
0.0
 11
8.2068385465
 21
7.3290692263
 31
0.0
 11
8.1988054316
 21
7.3285309566
 31
0.0
 11
8.1916788066
 21
7.327992672
 31
0.0
 11
8.1854740535
 21
7.3274543194
 31
0.0
 11
8.1802065542
 21
7.3269158458
 31
0.0
 11
8.1758908172
 21
7.3263772207
 31
0.0
 11
8.1740925495
 21
7.3261078899
 31
0.0
 11
8.1725348703
 21
7.3258385828
 31
0.0
 11
8.1712184169
 21
7.325569326
 31
0.0
 11
8.1701438268
 21
7.3253001466
 31
0.0
 11
8.1693117372
 21
7.3250310713
 31
0.0
 11
8.1687227857
 21
7.324762127
 31
0.0
  0
SPLINE
  5
3A0
100
AcDbEntity
  8
0
100
AcDbSpline
 62
6
  6
CONTINUOUS
 70
0
 71
3
 72
12
 73
8
 74
6
 42
0.0000001
 43
0.0000001
 44
0.0000000001
 12
-0.0063835717
 22
-0.003685544
 32
0.0
 13
-0.0072921742
 23
-0.0010758336
 33
0.0
 40
0.0
 40
0.0
 40
0.0
 40
0.0
 40
0.064917401
 40
0.1464288681
 40
0.3608828317
 40
0.6452198273
 40
1.0
 40
1.0
 40
1.0
 40
1.0
 10
8.9951960083
 20
7.6823373752
 30
0.0
 10
8.9950578733
 20
7.6822576232
 30
0.0
 10
8.9947312607
 20
7.6821041118
 30
0.0
 10
8.9938974157
 20
7.6818010662
 30
0.0
 10
8.9925150548
 20
7.6814417741
 30
0.0
 10
8.9904579285
 20
7.6810327677
 30
0.0
 10
8.9889066722
 20
7.6807858067
 30
0.0
 10
8.9880442992
 20
7.6806585785
 30
0.0
 11
8.9951960083
 21
7.6823373752
 31
0.0
 11
8.9947659703
 21
7.682127513
 31
0.0
 11
8.994202982
 21
7.6819176545
 31
0.0
 11
8.9926789548
 21
7.6814979482
 31
0.0
 11
8.9906255271
 21
7.6810782562
 31
0.0
 11
8.9880442992
 21
7.6806585785
 31
0.0
  0
SPLINE
  5
3A1
100
AcDbEntity
  8
0
100
AcDbSpline
 62
6
  6
CONTINUOUS
 70
0
 71
3
 72
48
 73
44
 74
42
 42
0.0000001
 43
0.0000001
 44
0.0000000001
 12
-0.7702584893
 22
-0.1136382575
 32
0.0
 13
0.0000275588
 23
-0.7785960398
 33
0.0
 40
0.0
 40
0.0
 40
0.0
 40
0.0
 40
0.0051260246
 40
0.0112812605
 40
0.0184525748
 40
0.0266259801
 40
0.0459196471
 40
0.0690057642
 40
0.0956824606
 40
0.125736097
 40
0.1589051271
 40
0.194910697
 40
0.2741986977
 40
0.3609222085
 40
0.452151679
 40
0.5448098739
 40
0.5906974885
 40
0.635772648
 40
0.6796526232
 40
0.7219714558
 40
0.7623675499
 40
0.8005018829
 40
0.8360565022
 40
0.8687238235
 40
0.8982383065
 40
0.9243471891
 40
0.9468303158
 40
0.9566564596
 40
0.9655099653
 40
0.9733698893
 40
0.9802218895
 40
0.9860560615
 40
0.9908635785
 40
0.9928802286
 40
0.994638068
 40
0.9961371732
 40
0.9973788907
 40
0.9983673903
 40
0.9991114352
 40
0.9993980587
 40
0.9996340343
 40
0.9998290706
 40
1.0
 40
1.0
 40
1.0
 40
1.0
 10
8.9880442992
 20
7.6806585785
 30
0.0
 10
8.9867281779
 20
7.6804644077
 30
0.0
 10
8.9838241781
 20
7.6800881192
 30
0.0
 10
8.9790628623
 20
7.6795719763
 30
0.0
 10
8.9735068573
 20
7.6790539619
 30
0.0
 10
8.9645469363
 20
7.678320367
 30
0.0
 10
8.9514567827
 20
7.6774258416
 30
0.0
 10
8.9335638606
 20
7.6763959383
 30
0.0
 10
8.9128745944
 20
7.6753620239
 30
0.0
 10
8.8895657716
 20
7.6743258755
 30
0.0
 10
8.8638337466
 20
7.6732876784
 30
0.0
 10
8.825329525
 20
7.6718555841
 30
0.0
 10
8.7729288992
 20
7.670099377
 30
0.0
 10
8.7061981732
 20
7.6680463867
 30
0.0
 10
8.6359959974
 20
7.6659904023
 30
0.0
 10
8.5763867505
 20
7.6642709985
 30
0.0
 10
8.528751586
 20
7.6628782304
 30
0.0
 10
8.4937710584
 20
7.6618372731
 30
0.0
 10
8.4597171558
 20
7.6607965387
 30
0.0
 10
8.4268781853
 20
7.6597564075
 30
0.0
 10
8.3955311535
 20
7.6587167761
 30
0.0
 10
8.3659406414
 20
7.657677847
 30
0.0
 10
8.3383572542
 20
7.6566402451
 30
0.0
 10
8.3130126585
 20
7.6556036348
 30
0.0
 10
8.290121649
 20
7.6545694294
 30
0.0
 10
8.2698766567
 20
7.6535378453
 30
0.0
 10
8.2547412146
 20
7.6526464758
 30
0.0
 10
8.2440827474
 20
7.6519209555
 30
0.0
 10
8.2372143486
 20
7.6514023416
 30
0.0
 10
8.231120215
 20
7.6508845831
 30
0.0
 10
8.2258127018
 20
7.6503682442
 30
0.0
 10
8.2213015667
 20
7.6498537707
 30
0.0
 10
8.2180463763
 20
7.6494060601
 30
0.0
 10
8.2158493979
 20
7.6490388474
 30
0.0
 10
8.2145051408
 20
7.6487804448
 30
0.0
 10
8.213366145
 20
7.6485229362
 30
0.0
 10
8.2124320684
 20
7.6482667853
 30
0.0
 10
8.2117030094
 20
7.6480121761
 30
0.0
 10
8.2112268964
 20
7.6477868018
 30
0.0
 10
8.2109569538
 20
7.6475976005
 30
0.0
 10
8.2108225903
 20
7.6474670202
 30
0.0
 10
8.2107379682
 20
7.6473332113
 30
0.0
 10
8.2107175352
 20
7.6472376199
 30
0.0
 10
8.2107175368
 20
7.6471932583
 30
0.0
 11
8.9880442992
 21
7.6806585785
 31
0.0
 11
8.9840876905
 21
7.6801349887
 31
0.0
 11
8.9793239336
 21
7.6796114212
 31
0.0
 11
8.9737649761
 21
7.6790878759
 31
0.0
 11
8.9674227657
 21
7.6785643528
 31
0.0
 11
8.9524373228
 21
7.6775173734
 31
0.0
 11
8.934493076
 21
7.6764704828
 31
0.0
 11
8.9137491013
 21
7.675423681
 31
0.0
 11
8.8903728816
 21
7.6743769678
 31
0.0
 11
8.8645688231
 21
7.6733303432
 31
0.0
 11
8.8365545701
 21
7.6722838071
 31
0.0
 11
8.7748567308
 21
7.6701909998
 31
0.0
 11
8.7073665779
 21
7.6680985454
 31
0.0
 11
8.6363664899
 21
7.666006443
 31
0.0
 11
8.5642535172
 21
7.6639146921
 31
0.0
 11
8.5285409097
 21
7.6628689481
 31
0.0
 11
8.49346115
 21
7.6618232918
 31
0.0
 11
8.459312378
 21
7.6607777231
 31
0.0
 11
8.4263796932
 21
7.6597322417
 31
0.0
 11
8.3949448323
 21
7.6586868477
 31
0.0
 11
8.3652719978
 21
7.6576415411
 31
0.0
 11
8.3376090513
 21
7.6565963216
 31
0.0
 11
8.312195886
 21
7.6555511892
 31
0.0
 11
8.2892398013
 21
7.6545061439
 31
0.0
 11
8.268938404
 21
7.6534611856
 31
0.0
 11
8.2514643421
 21
7.6524163142
 31
0.0
 11
8.2438316018
 21
7.6518939111
 31
0.0
 11
8.2369581191
 21
7.6513715296
 31
0.0
 11
8.2308607477
 21
7.6508491699
 31
0.0
 11
8.2255514398
 21
7.6503268318
 31
0.0
 11
8.2210391058
 21
7.6498045154
 31
0.0
 11
8.2173326105
 21
7.6492822207
 31
0.0
 11
8.2157843225
 21
7.6490210815
 31
0.0
 11
8.2144408185
 21
7.6487599476
 31
0.0
 11
8.2133032062
 21
7.6484988192
 31
0.0
 11
8.212372341
 21
7.6482376962
 31
0.0
 11
8.2116483478
 21
7.6479765786
 31
0.0
 11
8.2111312202
 21
7.6477154664
 31
0.0
 11
8.2109502291
 21
7.6475849124
 31
0.0
 11
8.210820952
 21
7.6474543597
 31
0.0
 11
8.2107433882
 21
7.6473238083
 31
0.0
 11
8.2107175368
 21
7.6471932583
 31
0.0
  0
SPLINE
  5
3A2
100
AcDbEntity
  8
0
100
AcDbSpline
 62
6
  6
CONTINUOUS
 70
0
 71
3
 72
12
 73
8
 74
6
 42
0.0000001
 43
0.0000001
 44
0.0000000001
 12
-0.0055030038
 22
-0.0031782753
 32
0.0
 13
-0.0062822855
 23
-0.000957796
 33
0.0
 40
0.0
 40
0.0
 40
0.0
 40
0.0
 40
0.0661781061
 40
0.148583328
 40
0.3637154855
 40
0.6473069406
 40
1.0
 40
1.0
 40
1.0
 40
1.0
 10
9.027058466
 20
7.7007554993
 30
0.0
 10
9.0269370733
 20
7.7006853886
 30
0.0
 10
9.0266519358
 20
7.7005500021
 30
0.0
 10
9.0259289136
 20
7.7002825527
 30
0.0
 10
9.0247374997
 20
7.6999646268
 30
0.0
 10
9.0229704641
 20
7.6996027435
 30
0.0
 10
9.021640101
 20
7.6993839635
 30
0.0
 10
9.0209015282
 20
7.6992713608
 30
0.0
 11
9.027058466
 21
7.7007554993
 31
0.0
 11
9.0266810473
 21
7.7005699714
 31
0.0
 11
9.026191337
 21
7.7003844465
 31
0.0
 11
9.0248755113
 21
7.7000134058
 31
0.0
 11
9.0231119285
 21
7.6996423772
 31
0.0
 11
9.0209015282
 21
7.6992713608
 31
0.0
  0
SPLINE
  5
3A3
100
AcDbEntity
  8
0
100
AcDbSpline
 62
6
  6
CONTINUOUS
 70
0
 71
3
 72
39
 73
35
 74
33
 42
0.0000001
 43
0.0000001
 44
0.0000000001
 12
-0.8317843021
 22
-0.126813665
 32
0.0
 13
-0.800479279
 23
-0.259190576
 33
0.0
 40
0.0
 40
0.0
 40
0.0
 40
0.0
 40
0.0045422749
 40
0.0100760843
 40
0.0165904408
 40
0.0240734182
 40
0.0418938194
 40
0.0633984247
 40
0.0884077187
 40
0.1167299296
 40
0.148127912
 40
0.1823502084
 40
0.2581397262
 40
0.3416457658
 40
0.430163868
 40
0.5208309454
 40
0.6107163212
 40
0.696913868
 40
0.7377506938
 40
0.776637288
 40
0.8132584944
 40
0.8473146192
 40
0.878538143
 40
0.9066693289
 40
0.9314868054
 40
0.9527928369
 40
0.9704102302
 40
0.9777956059
 40
0.984212616
 40
0.9896473069
 40
0.9940899012
 40
0.9975389359
 40
0.9988922157
 40
1.0
 40
1.0
 40
1.0
 40
1.0
 10
9.0209015282
 20
7.6992713608
 30
0.0
 10
9.0196421305
 20
7.6990793533
 30
0.0
 10
9.0168399619
 20
7.6987092429
 30
0.0
 10
9.0122141697
 20
7.6982046856
 30
0.0
 10
9.0067596499
 20
7.6976979965
 30
0.0
 10
8.9978648465
 20
7.6969778329
 30
0.0
 10
8.9847655688
 20
7.6961014901
 30
0.0
 10
8.9667500266
 20
7.6950937416
 30
0.0
 10
8.9457853368
 20
7.6940818461
 30
0.0
 10
8.922043238
 20
7.6930675078
 30
0.0
 10
8.8957151917
 20
7.6920509941
 30
0.0
 10
8.8560795038
 20
7.6906459761
 30
0.0
 10
8.8018316526
 20
7.6889235279
 30
0.0
 10
8.7323575905
 20
7.6869127265
 30
0.0
 10
8.6587093497
 20
7.6848985967
 30
0.0
 10
8.5832713274
 20
7.6828831552
 30
0.0
 10
8.5084843511
 20
7.6808685087
 30
0.0
 10
8.4476697689
 20
7.6791632242
 30
0.0
 10
8.4011552493
 20
7.6777800924
 30
0.0
 10
8.368540493
 20
7.6767620804
 30
0.0
 10
8.3378284312
 20
7.6757450023
 30
0.0
 10
8.3092668221
 20
7.6747287003
 30
0.0
 10
8.2830879192
 20
7.673714206
 30
0.0
 10
8.2595022027
 20
7.6727013165
 30
0.0
 10
8.2387006635
 20
7.6716916488
 30
0.0
 10
8.2208516564
 20
7.6706864354
 30
0.0
 10
8.2078925881
 20
7.6698118034
 30
0.0
 10
8.1991095967
 20
7.6690933031
 30
0.0
 10
8.1937378513
 20
7.6685879212
 30
0.0
 10
8.1891952099
 20
7.6680851695
 30
0.0
 10
8.1854910709
 20
7.667584732
 30
0.0
 10
8.1829340497
 20
7.667146371
 30
0.0
 10
8.1813170702
 20
7.6667803186
 30
0.0
 10
8.1806515165
 20
7.6665952599
 30
0.0
 10
8.1803559304
 20
7.6664995508
 30
0.0
 11
9.0209015282
 21
7.6992713608
 31
0.0
 11
9.0171142306
 21
7.6987586027
 31
0.0
 11
9.0124864242
 21
7.6982458678
 31
0.0
 11
9.0070293047
 21
7.697733156
 31
0.0
 11
9.0007540677
 21
7.6972204674
 31
0.0
 11
8.9857951547
 21
7.6961951594
 31
0.0
 11
8.967730339
 21
7.6951699436
 31
0.0
 11
8.94671261
 21
7.6941448198
 31
0.0
 11
8.9229044773
 21
7.6931197879
 31
0.0
 11
8.8965062377
 21
7.6920948476
 31
0.0
 11
8.8677299863
 21
7.6910699985
 31
0.0
 11
8.8039939482
 21
7.6890205729
 31
0.0
 11
8.7337622053
 21
7.6869715101
 31
0.0
 11
8.6593116314
 21
7.6849228094
 31
0.0
 11
8.5830522411
 21
7.6828744688
 31
0.0
 11
8.5074508007
 21
7.6808264873
 31
0.0
 11
8.4349534609
 21
7.6787788613
 31
0.0
 11
8.4006087814
 21
7.6777551776
 31
0.0
 11
8.3679057809
 21
7.6767315842
 31
0.0
 11
8.3371098561
 21
7.6757080889
 31
0.0
 11
8.3084734582
 21
7.674684688
 31
0.0
 11
8.2822220557
 21
7.6736613552
 31
0.0
 11
8.2585747251
 21
7.6726380683
 31
0.0
 11
8.2377184884
 21
7.6716148861
 31
0.0
 11
8.2198208948
 21
7.6705919164
 31
0.0
 11
8.205033022
 21
7.6695691358
 31
0.0
 11
8.1988400797
 21
7.669057709
 31
0.0
 11
8.1934651196
 21
7.6685461903
 31
0.0
 11
8.1889211097
 21
7.6680345297
 31
0.0
 11
8.1852183299
 21
7.667522752
 31
0.0
 11
8.1823618001
 21
7.6670110294
 31
0.0
 11
8.1812522571
 21
7.6667552478
 31
0.0
 11
8.1803559304
 21
7.6664995508
 31
0.0
  0
SPLINE
  5
3A4
100
AcDbEntity
  8
0
100
AcDbSpline
 62
6
  6
CONTINUOUS
 70
0
 71
3
 72
11
 73
7
 74
5
 42
0.0000001
 43
0.0000001
 44
0.0000000001
 12
-0.001636348
 22
-0.00052984
 32
0.0
 13
-0.0004511839
 23
-0.0016597585
 33
0.0
 40
0.0
 40
0.0
 40
0.0
 40
0.0
 40
0.363263757
 40
0.6458278793
 40
0.8532051879
 40
1.0
 40
1.0
 40
1.0
 40
1.0
 10
8.1803559304
 20
7.6664995508
 30
0.0
 10
8.1801577884
 20
7.6664353936
 30
0.0
 10
8.1798084577
 20
7.6663117416
 30
0.0
 10
8.1793646249
 20
7.6661020832
 30
0.0
 10
8.1790619029
 20
7.6658961376
 30
0.0
 10
8.1789357126
 20
7.6657239674
 30
0.0
 10
8.1789136355
 20
7.6656427528
 30
0.0
 11
8.1803559304
 21
7.6664995508
 31
0.0
 11
8.1797690384
 21
7.6662852023
 31
0.0
 11
8.1793328085
 21
7.6660709438
 31
0.0
 11
8.1790475658
 21
7.6658567893
 31
0.0
 11
8.1789136355
 21
7.6656427528
 31
0.0
  0
SPLINE
  5
3A5
100
AcDbEntity
  8
0
100
AcDbSpline
 62
6
  6
CONTINUOUS
 70
0
 71
3
 72
9
 73
5
 74
3
 42
0.0000001
 43
0.0000001
 44
0.0000000001
 12
0.0677521141
 22
-0.0099876066
 32
0.0
 13
0.0682869388
 23
-0.0051956941
 33
0.0
 40
0.0
 40
0.0
 40
0.0
 40
0.0
 40
0.5007486731
 40
1.0
 40
1.0
 40
1.0
 40
1.0
 10
8.0974304011
 20
6.9375981812
 30
0.0
 10
8.1087393282
 20
6.9359310877
 30
0.0
 10
8.1313732556
 20
6.9329282301
 30
0.0
 10
8.154101706
 20
6.9307282294
 30
0.0
 10
8.165465821
 20
6.929863577
 30
0.0
 11
8.0974304011
 21
6.9375981812
 31
0.0
 11
8.131430848
 21
6.9331250495
 31
0.0
 11
8.165465821
 21
6.929863577
 31
0.0
  0
LINE
  5
3A6
100
AcDbEntity
  8
0
100
AcDbLine
 62
6
  6
CONTINUOUS
 10
8.9974340595
 20
7.6109109874
 11
8.9963433113
 21
7.6104600888
  0
SPLINE
  5
3A7
100
AcDbEntity
  8
0
100
AcDbSpline
 62
6
  6
CONTINUOUS
 70
0
 71
3
 72
53
 73
49
 74
47
 42
0.0000001
 43
0.0000001
 44
0.0000000001
 12
-0.7512337254
 22
-0.2419172603
 32
0.0
 13
0.0028408144
 23
-0.7892198684
 33
0.0
 40
0.0
 40
0.0
 40
0.0
 40
0.0
 40
0.0012575543
 40
0.0027887907
 40
0.0066775759
 40
0.0116698747
 40
0.0177621975
 40
0.0249457217
 40
0.0332025575
 40
0.0528564962
 40
0.0765592392
 40
0.1040952637
 40
0.1352110433
 40
0.169633393
 40
0.2070400544
 40
0.2470976499
 40
0.2894401224
 40
0.3336802814
 40
0.4262412435
 40
0.5214217973
 40
0.5689161764
 40
0.6157708948
 40
0.6615625118
 40
0.7058713477
 40
0.7482999995
 40
0.7884616796
 40
0.8259902639
 40
0.8605527408
 40
0.8918269283
 40
0.9195393612
 40
0.9434368244
 40
0.9538844175
 40
0.9633028893
 40
0.9716721068
 40
0.9789722556
 40
0.9851851597
 40
0.9878807395
 40
0.9903015428
 40
0.992447162
 40
0.9943174859
 40
0.9959129068
 40
0.9972347413
 40
0.998286193
 40
0.9990749202
 40
0.9993767769
 40
0.9996233629
 40
0.9998249836
 40
1.0
 40
1.0
 40
1.0
 40
1.0
 10
8.9963433113
 20
7.6104600888
 30
0.0
 10
8.9960284055
 20
7.6103586807
 30
0.0
 10
8.9953208795
 20
7.6101624518
 30
0.0
 10
8.9936072302
 20
7.609774408
 30
0.0
 10
8.9909062377
 20
7.6093094607
 30
0.0
 10
8.9870028128
 20
7.6087785381
 30
0.0
 10
8.9822262317
 20
7.6082448681
 30
0.0
 10
8.9765868147
 20
7.6077086236
 30
0.0
 10
8.9673856901
 20
7.6069467322
 30
0.0
 10
8.9538386281
 20
7.6060189787
 30
0.0
 10
8.9352188581
 20
7.6049524484
 30
0.0
 10
8.9135797276
 20
7.6038819042
 30
0.0
 10
8.8891177287
 20
7.6028078648
 30
0.0
 10
8.8620568299
 20
7.6017324239
 30
0.0
 10
8.8326419434
 20
7.6006552406
 30
0.0
 10
8.8011422012
 20
7.5995773884
 30
0.0
 10
8.7678437732
 20
7.5984988442
 30
0.0
 10
8.7207382047
 20
7.5970381298
 30
0.0
 10
8.6597361265
 20
7.595239049
 30
0.0
 10
8.5978769367
 20
7.5934630789
 30
0.0
 10
8.5480372216
 20
7.5920231041
 30
0.0
 10
8.511185498
 20
7.5909440168
 30
0.0
 10
8.475172163
 20
7.5898653701
 30
0.0
 10
8.4403237422
 20
7.5887870169
 30
0.0
 10
8.4069571291
 20
7.587709364
 30
0.0
 10
8.3753751766
 20
7.5866325385
 30
0.0
 10
8.3458638602
 20
7.5855565593
 30
0.0
 10
8.3186922187
 20
7.5844824093
 30
0.0
 10
8.2941050689
 20
7.5834099925
 30
0.0
 10
8.2723264634
 20
7.5823405468
 30
0.0
 10
8.256026545
 20
7.5814171078
 30
0.0
 10
8.2445379797
 20
7.5806648748
 30
0.0
 10
8.237129406
 20
7.5801270409
 30
0.0
 10
8.2305511555
 20
7.5795903824
 30
0.0
 10
8.2248192712
 20
7.5790551424
 30
0.0
 10
8.2205801314
 20
7.5785916702
 30
0.0
 10
8.2176235701
 20
7.5782144323
 30
0.0
 10
8.2157320708
 20
7.5779454049
 30
0.0
 10
8.2140600484
 20
7.5776768518
 30
0.0
 10
8.212608146
 20
7.5774089564
 30
0.0
 10
8.2113770907
 20
7.5771419432
 30
0.0
 10
8.2103666108
 20
7.5768765199
 30
0.0
 10
8.2095773783
 20
7.5766127755
 30
0.0
 10
8.209061364
 20
7.5763794977
 30
0.0
 10
8.2087683504
 20
7.5761831311
 30
0.0
 10
8.2086230002
 20
7.5760479661
 30
0.0
 10
8.208531315
 20
7.5759092702
 30
0.0
 10
8.2085092333
 20
7.5758094568
 30
0.0
 10
8.2085093991
 20
7.5757634146
 30
0.0
 11
8.9963433113
 21
7.6104600888
 31
0.0
 11
8.9953886555
 21
7.6101886567
 31
0.0
 11
8.994211041
 21
7.6099172305
 31
0.0
 11
8.9911903016
 21
7.6093743952
 31
0.0
 11
8.9872878248
 21
7.6088315829
 31
0.0
 11
8.9825103469
 21
7.6082887937
 31
0.0
 11
8.9768669711
 21
7.6077460274
 31
0.0
 11
8.9703731112
 21
7.6072032842
 31
0.0
 11
8.9548997547
 21
7.6061178667
 31
0.0
 11
8.9362244684
 21
7.6050325411
 31
0.0
 11
8.9145194635
 21
7.6039473075
 31
0.0
 11
8.8899860998
 21
7.6028621657
 31
0.0
 11
8.8628407986
 21
7.6017771159
 31
0.0
 11
8.8333384701
 21
7.6006921578
 31
0.0
 11
8.8017426344
 21
7.5996072915
 31
0.0
 11
8.7683425084
 21
7.5985225171
 31
0.0
 11
8.7334439222
 21
7.5974378343
 31
0.0
 11
8.6604247088
 21
7.595268744
 31
0.0
 11
8.5853371506
 21
7.5931000203
 31
0.0
 11
8.5478690841
 21
7.5920157959
 31
0.0
 11
8.5109060654
 21
7.5909316632
 31
0.0
 11
8.4747824393
 21
7.589847622
 31
0.0
 11
8.4398296027
 21
7.5887636724
 31
0.0
 11
8.4063613964
 21
7.5876798143
 31
0.0
 11
8.3746833285
 21
7.5865960478
 31
0.0
 11
8.3450846635
 21
7.5855123728
 31
0.0
 11
8.3178286242
 21
7.5844287894
 31
0.0
 11
8.2931700469
 21
7.5833452974
 31
0.0
 11
8.2713255522
 21
7.5822618969
 31
0.0
 11
8.2524962146
 21
7.5811785879
 31
0.0
 11
8.244268521
 21
7.5806369677
 31
0.0
 11
8.2368549846
 21
7.5800953703
 31
0.0
 11
8.230272029
 21
7.5795537958
 31
0.0
 11
8.2245360774
 21
7.5790122442
 31
0.0
 11
8.2196626932
 21
7.5784707155
 31
0.0
 11
8.2175525742
 21
7.5781999597
 31
0.0
 11
8.2156612973
 21
7.5779292096
 31
0.0
 11
8.2139897051
 21
7.5776584652
 31
0.0
 11
8.2125386397
 21
7.5773877266
 31
0.0
 11
8.2113089437
 21
7.5771169936
 31
0.0
 11
8.2103014593
 21
7.5768462664
 31
0.0
 11
8.209517029
 21
7.5765755449
 31
0.0
 11
8.2089564951
 21
7.5763048291
 31
0.0
 11
8.2087604499
 21
7.5761694733
 31
0.0
 11
8.2086206179
 21
7.576034119
 31
0.0
 11
8.2085369516
 21
7.5758987661
 31
0.0
 11
8.2085093991
 21
7.5757634146
 31
0.0
  0
SPLINE
  5
3A8
100
AcDbEntity
  8
0
100
AcDbSpline
 62
6
  6
CONTINUOUS
 70
0
 71
3
 72
52
 73
48
 74
46
 42
0.0000001
 43
0.0000001
 44
0.0000000001
 12
0.7841678268
 22
-0.0019996932
 32
0.0
 13
0.2079955221
 23
-0.7560826953
 33
0.0
 40
0.0
 40
0.0
 40
0.0
 40
0.0
 40
0.0001758555
 40
0.000378228
 40
0.0006250468
 40
0.0009263531
 40
0.0017113787
 40
0.0027559458
 40
0.004068165
 40
0.0056516947
 40
0.0075082964
 40
0.0096387985
 40
0.0120435204
 40
0.0147222311
 40
0.0208954
 40
0.0281437742
 40
0.036451384
 40
0.0458017099
 40
0.0561776107
 40
0.0799085731
 40
0.1074220709
 40
0.1384823497
 40
0.172804145
 40
0.2100793108
 40
0.2499774884
 40
0.2921328435
 40
0.336172243
 40
0.3816965091
 40
0.4282958889
 40
0.4755536389
 40
0.5703372377
 40
0.6626493567
 40
0.74918085
 40
0.7892963622
 40
0.82683049
 40
0.8614423204
 40
0.8928218414
 40
0.9206949818
 40
0.9448027109
 40
0.9649430294
 40
0.9734678019
 40
0.9809337163
 40
0.9873281887
 40
0.9926417125
 40
0.9968665717
 40
0.998569601
 40
1.0
 40
1.0
 40
1.0
 40
1.0
 10
2.6463167705
 20
2.0995236652
 30
0.0
 10
2.6463627372
 20
2.0995235479
 30
0.0
 10
2.6464621712
 20
2.0995011373
 30
0.0
 10
2.6466004252
 20
2.0994099481
 30
0.0
 10
2.6467352654
 20
2.0992658949
 30
0.0
 10
2.6469310002
 20
2.0989764584
 30
0.0
 10
2.6471638089
 20
2.0984674186
 30
0.0
 10
2.6474269721
 20
2.0976891638
 30
0.0
 10
2.6476917697
 20
2.0966931127
 30
0.0
 10
2.6479581008
 20
2.0954795845
 30
0.0
 10
2.6482252902
 20
2.0940479937
 30
0.0
 10
2.6484931149
 20
2.0923987313
 30
0.0
 10
2.6487613874
 20
2.0905321748
 30
0.0
 10
2.6491374486
 20
2.087613861
 30
0.0
 10
2.6495994013
 20
2.0834305275
 30
0.0
 10
2.6501331899
 20
2.0777757374
 30
0.0
 10
2.6506682797
 20
2.0712873775
 30
0.0
 10
2.6512044889
 20
2.0639791793
 30
0.0
 10
2.6519540644
 20
2.0526445804
 30
0.0
 10
2.6528743178
 20
2.0365636542
 30
0.0
 10
2.6539403379
 20
2.0150763157
 30
0.0
 10
2.6550083561
 20
1.99081773
 30
0.0
 10
2.6560786046
 20
1.9640054402
 30
0.0
 10
2.6571501399
 20
1.9348813805
 30
0.0
 10
2.6582223443
 20
1.903708449
 30
0.0
 10
2.659295415
 20
1.8707664607
 30
0.0
 10
2.660368712
 20
1.8363531345
 30
0.0
 10
2.6614423421
 20
1.8007776517
 30
0.0
 10
2.6625161459
 20
1.7643605571
 30
0.0
 10
2.6639492279
 20
1.7150725626
 30
0.0
 10
2.665716435
 20
1.6538403748
 30
0.0
 10
2.6678330875
 20
1.5823482424
 30
0.0
 10
2.6696342628
 20
1.5251427554
 30
0.0
 10
2.6711000025
 20
1.4822524371
 30
0.0
 10
2.6721702718
 20
1.4529278888
 30
0.0
 10
2.6732390922
 20
1.4258884108
 30
0.0
 10
2.6743062622
 20
1.4013763015
 30
0.0
 10
2.6753697849
 20
1.3796125287
 30
0.0
 10
2.6764301616
 20
1.3607904299
 30
0.0
 10
2.6773506398
 20
1.3470263775
 30
0.0
 10
2.6781052716
 20
1.3376121303
 30
0.0
 10
2.6786383133
 20
1.3317850659
 30
0.0
 10
2.679169024
 20
1.3268010536
 30
0.0
 10
2.6796971623
 20
1.322669742
 30
0.0
 10
2.6801588036
 20
1.3197667307
 30
0.0
 10
2.680541484
 20
1.3178815436
 30
0.0
 10
2.6807347344
 20
1.3170852394
 30
0.0
 10
2.6808339066
 20
1.3167247394
 30
0.0
 11
2.6463167705
 21
2.0995236652
 31
0.0
 11
2.6464517902
 21
2.0994956245
 31
0.0
 11
2.6465868084
 21
2.0994122337
 31
0.0
 11
2.6467218252
 21
2.0992735567
 31
0.0
 11
2.6468568404
 21
2.0990796574
 31
0.0
 11
2.6471268665
 21
2.098526447
 31
0.0
 11
2.6473968866
 21
2.0977531137
 31
0.0
 11
2.6476669008
 21
2.0967601684
 31
0.0
 11
2.6479369091
 21
2.0955481221
 31
0.0
 11
2.6482069114
 21
2.0941174858
 31
0.0
 11
2.6484769078
 21
2.0924687704
 31
0.0
 11
2.6487468983
 21
2.090602487
 31
0.0
 11
2.6490168828
 21
2.0885193442
 31
0.0
 11
2.6495568342
 21
2.0837087357
 31
0.0
 11
2.6500967619
 21
2.0780504777
 31
0.0
 11
2.6506366659
 21
2.0715583074
 31
0.0
 11
2.6511765462
 21
2.0642459618
 31
0.0
 11
2.651716403
 21
2.0561274173
 31
0.0
 11
2.6527960456
 21
2.0375496447
 31
0.0
 11
2.6538755938
 21
2.0160014
 31
0.0
 11
2.6549550478
 21
1.9916687813
 31
0.0
 11
2.6560344075
 21
1.9647762982
 31
0.0
 11
2.6571136732
 21
1.9355661491
 31
0.0
 11
2.658192845
 21
1.9042977974
 31
0.0
 11
2.6592719228
 21
1.8712584336
 31
0.0
 11
2.6603509068
 21
1.836740901
 31
0.0
 11
2.6614297972
 21
1.801058427
 31
0.0
 11
2.662508594
 21
1.7645325015
 31
0.0
 11
2.6635872973
 21
1.7274900769
 31
0.0
 11
2.6657444237
 21
1.6531948955
 31
0.0
 11
2.6679011773
 21
1.5808386029
 31
0.0
 11
2.6700575586
 21
1.5130174418
 31
0.0
 11
2.67113561
 21
1.4815785234
 31
0.0
 11
2.6722135686
 21
1.4521651185
 31
0.0
 11
2.6732914344
 21
1.4250449573
 31
0.0
 11
2.6743692076
 21
1.4004616809
 31
0.0
 11
2.6754468884
 21
1.3786309738
 31
0.0
 11
2.6765244766
 21
1.3597571438
 31
0.0
 11
2.6776019725
 21
1.3440005012
 31
0.0
 11
2.6781406858
 21
1.3373373691
 31
0.0
 11
2.678679376
 21
1.331507656
 31
0.0
 11
2.6792180432
 21
1.3265223172
 31
0.0
 11
2.6797566874
 21
1.3223905721
 31
0.0
 11
2.6802953085
 21
1.3191216398
 31
0.0
 11
2.6805646104
 21
1.3178136094
 31
0.0
 11
2.6808339066
 21
1.3167247394
 31
0.0
  0
LINE
  5
3A9
100
AcDbEntity
  8
0
100
AcDbLine
 62
6
  6
CONTINUOUS
 10
2.6808339066
 20
1.3167247394
 11
2.681462421
 21
1.3150399339
  0
LINE
  5
3AA
100
AcDbEntity
  8
0
100
AcDbLine
 62
6
  6
CONTINUOUS
 10
8.9939152712
 20
7.6661303472
 11
8.9951980515
 21
7.6656187346
  0
SPLINE
  5
3AB
100
AcDbEntity
  8
0
100
AcDbSpline
 62
6
  6
CONTINUOUS
 70
0
 71
3
 72
10
 73
6
 74
4
 42
0.0000001
 43
0.0000001
 44
0.0000000001
 12
-0.0002397168
 22
-0.0011051994
 32
0.0
 13
-0.0010450635
 23
-0.0004321716
 33
0.0
 40
0.0
 40
0.0
 40
0.0
 40
0.0
 40
0.3725270634
 40
0.6505414927
 40
1.0
 40
1.0
 40
1.0
 40
1.0
 10
9.033693281
 20
7.5026630365
 30
0.0
 10
9.033663514
 20
7.5025257976
 30
0.0
 10
9.0334687842
 20
7.502334708
 30
0.0
 10
9.0331509894
 20
7.5021443739
 30
0.0
 10
9.0329337815
 20
7.5020452323
 30
0.0
 10
9.032812046
 20
7.5019948903
 30
0.0
 11
9.033693281
 21
7.5026630365
 31
0.0
 11
9.0334365553
 21
7.5023290048
 31
0.0
 11
9.0331701995
 21
7.5021619549
 31
0.0
 11
9.032812046
 21
7.5019948903
 31
0.0
  0
SPLINE
  5
3AC
100
AcDbEntity
  8
0
100
AcDbSpline
 62
6
  6
CONTINUOUS
 70
0
 71
3
 72
52
 73
48
 74
46
 42
0.0000001
 43
0.0000001
 44
0.0000000001
 12
-0.7953788727
 22
-0.3289179553
 32
0.0
 13
-0.745975898
 23
-0.4293419758
 33
0.0
 40
0.0
 40
0.0
 40
0.0
 40
0.0
 40
0.000954544
 40
0.0021762624
 40
0.0036688845
 40
0.0054340758
 40
0.00978426
 40
0.0152272023
 40
0.0217529902
 40
0.0293458023
 40
0.0379890314
 40
0.0476656888
 40
0.0583573852
 40
0.0700385394
 40
0.0962559219
 40
0.1260885578
 40
0.1592694151
 40
0.1955003439
 40
0.2344629672
 40
0.2758004643
 40
0.3191471303
 40
0.3641097493
 40
0.4102838389
 40
0.5046060531
 40
0.5987420243
 40
0.6446843732
 40
0.6893272681
 40
0.7322696891
 40
0.7731270454
 40
0.81153647
 40
0.8471482238
 40
0.8796526457
 40
0.9087532079
 40
0.934196339
 40
0.9454749434
 40
0.9557541063
 40
0.9650121274
 40
0.9732317937
 40
0.9803962525
 40
0.9864891215
 40
0.9914959255
 40
0.9935901986
 40
0.9954117141
 40
0.9969610082
 40
0.9982394365
 40
0.9992500508
 40
1.0
 40
1.0
 40
1.0
 40
1.0
 10
9.032812046
 20
7.5019948903
 30
0.0
 10
9.0325589713
 20
7.5018902348
 30
0.0
 10
9.0319657523
 20
7.5016915987
 30
0.0
 10
9.0309468233
 20
7.5014263992
 30
0.0
 10
9.0296892256
 20
7.5011596513
 30
0.0
 10
9.0275403496
 20
7.5007753484
 30
0.0
 10
9.024255991
 20
7.50031102
 30
0.0
 10
9.0196039921
 20
7.4997804582
 30
0.0
 10
9.0140167902
 20
7.499248014
 30
0.0
 10
9.007508148
 20
7.4987137741
 30
0.0
 10
9.0000929269
 20
7.4981787006
 30
0.0
 10
8.9917866386
 20
7.4976430617
 30
0.0
 10
8.9826071532
 20
7.4971072015
 30
0.0
 10
8.9686863271
 20
7.496363516
 30
0.0
 10
8.9492755471
 20
7.4954475249
 30
0.0
 10
8.9236970405
 20
7.4943842937
 30
0.0
 10
8.8952434523
 20
7.4933200729
 30
0.0
 10
8.8641688349
 20
7.492254952
 30
0.0
 10
8.8307527984
 20
7.4911897439
 30
0.0
 10
8.7952942881
 20
7.4901241221
 30
0.0
 10
8.7581136255
 20
7.4890587188
 30
0.0
 10
8.7195447902
 20
7.4879933213
 30
0.0
 10
8.66635549
 20
7.486562915
 30
0.0
 10
8.5990621299
 20
7.484799559
 30
0.0
 10
8.5318353118
 20
7.4830349138
 30
0.0
 10
8.4788577582
 20
7.4816037504
 30
0.0
 10
8.4405632006
 20
7.4805391414
 30
0.0
 10
8.4037281166
 20
7.4794746039
 30
0.0
 10
8.3686822045
 20
7.47841012
 30
0.0
 10
8.3357404765
 20
7.4773462456
 30
0.0
 10
8.3051965453
 20
7.4762826994
 30
0.0
 10
8.2773250264
 20
7.4752207404
 30
0.0
 10
8.252373195
 20
7.4741601126
 30
0.0
 10
8.2335105821
 20
7.4732462356
 30
0.0
 10
8.2200463244
 20
7.4725040201
 30
0.0
 10
8.211221286
 20
7.4719703426
 30
0.0
 10
8.2032755783
 20
7.4714372782
 30
0.0
 10
8.1962256604
 20
7.4709051012
 30
0.0
 10
8.1900865784
 20
7.4703744122
 30
0.0
 10
8.1848731273
 20
7.4698455717
 30
0.0
 10
8.1811153559
 20
7.4693846588
 30
0.0
 10
8.1785834313
 20
7.4690062303
 30
0.0
 10
8.177038016
 20
7.4687402272
 30
0.0
 10
8.1757305592
 20
7.4684752461
 30
0.0
 10
8.1746605505
 20
7.4682119084
 30
0.0
 10
8.1738285099
 20
7.4679507817
 30
0.0
 10
8.1733616802
 20
7.4677512053
 30
0.0
 10
8.1731751989
 20
7.4676438771
 30
0.0
 11
9.032812046
 21
7.5019948903
 31
0.0
 11
9.0320364302
 21
7.5017239357
 31
0.0
 11
9.0310203977
 21
7.5014529841
 31
0.0
 11
9.0297645805
 21
7.5011820612
 31
0.0
 11
9.0282696106
 21
7.5009111928
 31
0.0
 11
9.0245647408
 21
7.5003697222
 31
0.0
 11
9.0199113058
 21
7.4998287656
 31
0.0
 11
9.014320579
 21
7.4992883625
 31
0.0
 11
9.0078077423
 21
7.4987484479
 31
0.0
 11
9.0003880521
 21
7.4982089547
 31
0.0
 11
8.9920767646
 21
7.497669816
 31
0.0
 11
8.9828901483
 21
7.4971309724
 31
0.0
 11
8.9728505453
 21
7.49659241
 31
0.0
 11
8.9503107718
 21
7.4955161416
 31
0.0
 11
8.924656165
 21
7.4944410289
 31
0.0
 11
8.8961174105
 21
7.4933669766
 31
0.0
 11
8.8649517097
 21
7.4922937958
 31
0.0
 11
8.8314335047
 21
7.4912213344
 31
0.0
 11
8.7958702265
 21
7.4901495198
 31
0.0
 11
8.7585768793
 21
7.4890782875
 31
0.0
 11
8.7198921047
 21
7.4880075628
 31
0.0
 11
8.68016421
 21
7.4869372669
 31
0.0
 11
8.5990087304
 21
7.4847975489
 31
0.0
 11
8.5180135969
 21
7.482658219
 31
0.0
 11
8.4784852216
 21
7.481588434
 31
0.0
 11
8.440075722
 21
7.4805184138
 31
0.0
 11
8.4031304312
 21
7.4794480298
 31
0.0
 11
8.3679805727
 21
7.4783772039
 31
0.0
 11
8.3349387178
 21
7.4773059253
 31
0.0
 11
8.3043062157
 21
7.4762341809
 31
0.0
 11
8.2763500245
 21
7.4751619356
 31
0.0
 11
8.2513259844
 21
7.4740891609
 31
0.0
 11
8.2294532458
 21
7.4730159485
 31
0.0
 11
8.2197605337
 21
7.4724792282
 31
0.0
 11
8.2109294961
 21
7.4719424557
 31
0.0
 11
8.2029791678
 21
7.4714056092
 31
0.0
 11
8.1959248602
 21
7.4708686393
 31
0.0
 11
8.1897818076
 21
7.470331496
 31
0.0
 11
8.184565244
 21
7.4697941292
 31
0.0
 11
8.1802895251
 21
7.4692565122
 31
0.0
 11
8.1785071361
 21
7.4689876494
 31
0.0
 11
8.176962573
 21
7.4687187866
 31
0.0
 11
8.1756564668
 21
7.4684499508
 31
0.0
 11
8.1745894484
 21
7.4681811692
 31
0.0
 11
8.1737621488
 21
7.4679124689
 31
0.0
 11
8.1731751989
 21
7.4676438771
 31
0.0
  0
SPLINE
  5
3AD
100
AcDbEntity
  8
0
100
AcDbSpline
 62
6
  6
CONTINUOUS
 70
0
 71
3
 72
10
 73
6
 74
4
 42
0.0000001
 43
0.0000001
 44
0.0000000001
 12
0.1270789436
 22
0.0
 32
0.0
 13
0.1257202795
 23
-0.0185329227
 33
0.0
 40
0.0
 40
0.0
 40
0.0
 40
0.0
 40
0.2493164543
 40
0.4989529464
 40
1.0
 40
1.0
 40
1.0
 40
1.0
 10
8.2240144477
 20
7.1775981812
 30
0.0
 10
8.2345754049
 20
7.1775981812
 30
0.0
 10
8.2557137991
 20
7.1771451258
 30
0.0
 10
8.2979987927
 20
7.1744843099
 30
0.0
 10
8.3296012356
 20
7.17069347
 30
0.0
 10
8.3505984942
 20
7.1675981812
 30
0.0
 11
8.2240144477
 21
7.1775981812
 31
0.0
 11
8.2556902104
 21
7.1769270552
 31
0.0
 11
8.2873523938
 21
7.1749549402
 31
0.0
 11
8.3505984942
 21
7.1675981812
 31
0.0
  0
SPLINE
  5
3AE
100
AcDbEntity
  8
0
100
AcDbSpline
 62
6
  6
CONTINUOUS
 70
0
 71
3
 72
11
 73
7
 74
5
 42
0.0000001
 43
0.0000001
 44
0.0000000001
 12
0.002550056
 22
-0.0044109831
 32
0.0
 13
0.0008708253
 23
-0.0050200818
 33
0.0
 40
0.0
 40
0.0
 40
0.0
 40
0.0
 40
0.1572767641
 40
0.3753830486
 40
0.6560458385
 40
1.0
 40
1.0
 40
1.0
 40
1.0
 10
2.9147344552
 20
2.1079388024
 30
0.0
 10
2.9148681434
 20
2.107707554
 30
0.0
 10
2.915112322
 20
2.1071143699
 30
0.0
 10
2.9154289794
 20
2.1060462096
 30
0.0
 10
2.9157486555
 20
2.1046500617
 30
0.0
 10
2.9159435273
 20
2.1036072071
 30
0.0
 10
2.9160433687
 20
2.1030316477
 30
0.0
 11
2.9147344552
 21
2.1079388024
 31
0.0
 11
2.9150616963
 21
2.1072073324
 31
0.0
 11
2.9153889289
 21
2.1061453417
 31
0.0
 11
2.915716153
 21
2.1047532928
 31
0.0
 11
2.9160433687
 21
2.1030316477
 31
0.0
  0
SPLINE
  5
3AF
100
AcDbEntity
  8
0
100
AcDbSpline
 62
6
  6
CONTINUOUS
 70
0
 71
3
 72
49
 73
45
 74
43
 42
0.0000001
 43
0.0000001
 44
0.0000000001
 12
0.1365024823
 22
-0.7869014011
 32
0.0
 13
0.7986481468
 23
-0.0028071913
 33
0.0
 40
0.0
 40
0.0
 40
0.0
 40
0.0
 40
0.0044100319
 40
0.0098756258
 40
0.0163858822
 40
0.023928515
 40
0.0420567222
 40
0.0641098127
 40
0.0898920743
 40
0.1191926419
 40
0.1517491929
 40
0.1872845306
 40
0.2254930166
 40
0.266038458
 40
0.3527351716
 40
0.4443785879
 40
0.5378054496
 40
0.5841807188
 40
0.6297935589
 40
0.6742507046
 40
0.7171703183
 40
0.7581766811
 40
0.796922137
 40
0.833068833
 40
0.8663042806
 40
0.8963489559
 40
0.9229346556
 40
0.9458433733
 40
0.9558564778
 40
0.9648763878
 40
0.9728858659
 40
0.9798714313
 40
0.9858201545
 40
0.9907200909
 40
0.9927736767
 40
0.9945623772
 40
0.996087222
 40
0.997350181
 40
0.9983550445
 40
0.9991098752
 40
0.9993994901
 40
0.9996366779
 40
0.9998311047
 40
1.0
 40
1.0
 40
1.0
 40
1.0
 10
2.9160433687
 20
2.1030316477
 30
0.0
 10
2.9162440288
 20
2.1018748943
 30
0.0
 10
2.9166280838
 20
2.0992732947
 30
0.0
 10
2.9171479924
 20
2.0949419543
 30
0.0
 10
2.9176704962
 20
2.0897718664
 30
0.0
 10
2.9184160534
 20
2.0812370208
 30
0.0
 10
2.9193210491
 20
2.0685636686
 30
0.0
 10
2.9203606364
 20
2.0510336115
 30
0.0
 10
2.9214048375
 20
2.0305250332
 30
0.0
 10
2.922451849
 20
2.0072172953
 30
0.0
 10
2.9235012237
 20
1.9813108792
 30
0.0
 10
2.9245518665
 20
1.9530313097
 30
0.0
 10
2.9256033894
 20
1.9226236354
 30
0.0
 10
2.9270386895
 20
1.8786011177
 30
0.0
 10
2.9288043361
 20
1.820356601
 30
0.0
 10
2.9308829886
 20
1.7480372821
 30
0.0
 10
2.9326200085
 20
1.6864468709
 30
0.0
 10
2.9340274776
 20
1.6371061945
 30
0.0
 10
2.9350803071
 20
1.6007973123
 30
0.0
 10
2.9361328417
 20
1.5654087722
 30
0.0
 10
2.9371847846
 20
1.5312470975
 30
0.0
 10
2.9382363481
 20
1.498606712
 30
0.0
 10
2.9392869588
 20
1.4677703467
 30
0.0
 10
2.9403365247
 20
1.4390039704
 30
0.0
 10
2.9413849216
 20
1.41255551
 30
0.0
 10
2.9424307408
 20
1.3886544093
 30
0.0
 10
2.943474426
 20
1.3675053138
 30
0.0
 10
2.9443756653
 20
1.3516887363
 30
0.0
 10
2.9451093475
 20
1.3405471633
 30
0.0
 10
2.9456340347
 20
1.3333670385
 30
0.0
 10
2.9461577929
 20
1.3269952213
 30
0.0
 10
2.9466799519
 20
1.321443928
 30
0.0
 10
2.9472001972
 20
1.3167245317
 30
0.0
 10
2.9476529175
 20
1.3133191045
 30
0.0
 10
2.9480244245
 20
1.3110214622
 30
0.0
 10
2.9482858329
 20
1.3096165501
 30
0.0
 10
2.9485463487
 20
1.3084261893
 30
0.0
 10
2.948805363
 20
1.3074496041
 30
0.0
 10
2.9490627687
 20
1.3066868851
 30
0.0
 10
2.9492904902
 20
1.3061881549
 30
0.0
 10
2.9494819509
 20
1.3059046395
 30
0.0
 10
2.949613825
 20
1.3057635544
 30
0.0
 10
2.9497490299
 20
1.3056742175
 30
0.0
 10
2.9498462864
 20
1.3056521986
 30
0.0
 10
2.949891249
 20
1.3056520405
 30
0.0
 11
2.9160433687
 21
2.1030316477
 31
0.0
 11
2.9165729332
 21
2.0995496012
 31
0.0
 11
2.9171024756
 21
2.0952167269
 31
0.0
 11
2.9176319958
 21
2.0900443245
 31
0.0
 11
2.9181614938
 21
2.0840436938
 31
0.0
 11
2.9192204236
 21
2.0696043222
 31
0.0
 11
2.9202792649
 21
2.05202341
 31
0.0
 11
2.9213380178
 21
2.0314595648
 31
0.0
 11
2.9223966825
 21
2.0080825356
 31
0.0
 11
2.923455259
 21
1.9821027034
 31
0.0
 11
2.9245137474
 21
1.9537420422
 31
0.0
 11
2.9255721478
 21
1.9232450777
 31
0.0
 11
2.9266304603
 21
1.8908806347
 31
0.0
 11
2.9287468218
 21
1.8216723885
 31
0.0
 11
2.9308628326
 21
1.7485116859
 31
0.0
 11
2.9329784934
 21
1.6739260349
 31
0.0
 11
2.9340361927
 21
1.6369033889
 31
0.0
 11
2.9350938047
 21
1.6004899093
 31
0.0
 11
2.9361513295
 21
1.5649998254
 31
0.0
 11
2.9372087672
 21
1.530738258
 31
0.0
 11
2.9382661178
 21
1.4980054731
 31
0.0
 11
2.9393233815
 21
1.4670793624
 31
0.0
 11
2.9403805582
 21
1.4382300558
 31
0.0
 11
2.9414376481
 21
1.4117075207
 31
0.0
 11
2.9424946512
 21
1.3877355403
 31
0.0
 11
2.9435515676
 21
1.366529111
 31
0.0
 11
2.9446083974
 21
1.3482635411
 31
0.0
 11
2.9451367798
 21
1.3402840193
 31
0.0
 11
2.9456651406
 21
1.3330996428
 31
0.0
 11
2.9461934798
 21
1.3267247046
 31
0.0
 11
2.9467217973
 21
1.3211707327
 31
0.0
 11
2.9472500932
 21
1.3164492305
 31
0.0
 11
2.9477783676
 21
1.3125717018
 31
0.0
 11
2.9480424966
 21
1.3109530071
 31
0.0
 11
2.9483066203
 21
1.3095490851
 31
0.0
 11
2.9485707386
 21
1.3083602487
 31
0.0
 11
2.9488348514
 21
1.3073867747
 31
0.0
 11
2.9490989589
 21
1.30662894
 31
0.0
 11
2.949363061
 21
1.3060870215
 31
0.0
 11
2.94949511
 21
1.3058971173
 31
0.0
 11
2.9496271577
 21
1.305761296
 31
0.0
 11
2.949759204
 21
1.3056795922
 31
0.0
 11
2.949891249
 21
1.3056520405
 31
0.0
  0
SPLINE
  5
3B0
100
AcDbEntity
  8
0
100
AcDbSpline
 62
6
  6
CONTINUOUS
 70
0
 71
3
 72
49
 73
45
 74
43
 42
0.0000001
 43
0.0000001
 44
0.0000000001
 12
0.7759340249
 22
-0.0016929425
 32
0.0
 13
0.1295786099
 23
-0.7650397773
 33
0.0
 40
0.0
 40
0.0
 40
0.0
 40
0.0
 40
0.0001735396
 40
0.0003717783
 40
0.0006117889
 40
0.0009033813
 40
0.0016602814
 40
0.0026655398
 40
0.0039278149
 40
0.0054512902
 40
0.0072381517
 40
0.0092887927
 40
0.0141783761
 40
0.0201119428
 40
0.0270788843
 40
0.0350675556
 40
0.0440648934
 40
0.0540506867
 40
0.0768928298
 40
0.1034028089
 40
0.1333584712
 40
0.1664938576
 40
0.2025334733
 40
0.2411620012
 40
0.2820472221
 40
0.3248418306
 40
0.3691724707
 40
0.414661485
 40
0.4609170756
 40
0.5541317695
 40
0.6456209568
 40
0.7322493567
 40
0.7728011051
 40
0.8110472282
 40
0.8466532289
 40
0.8793177235
 40
0.9087640821
 40
0.9347322878
 40
0.9570128907
 40
0.9754098231
 40
0.983102617
 40
0.9897733957
 40
0.9954096167
 40
1.0
 40
1.0
 40
1.0
 40
1.0
 10
2.5748858419
 20
2.0972699251
 30
0.0
 10
2.574930727
 20
2.0972698272
 30
0.0
 10
2.5750274523
 20
2.0972488539
 30
0.0
 10
2.5751627242
 20
2.0971627429
 30
0.0
 10
2.5752947427
 20
2.0970262521
 30
0.0
 10
2.5754860395
 20
2.0967522386
 30
0.0
 10
2.5757138956
 20
2.0962693681
 30
0.0
 10
2.5759713319
 20
2.0955303432
 30
0.0
 10
2.5762303312
 20
2.0945839293
 30
0.0
 10
2.5764907678
 20
2.0934300735
 30
0.0
 10
2.5767520151
 20
2.0920681068
 30
0.0
 10
2.5771232508
 20
2.0898414699
 30
0.0
 10
2.5775757805
 20
2.0865420164
 30
0.0
 10
2.5780957672
 20
2.081969962
 30
0.0
 10
2.5786176074
 20
2.0765921321
 30
0.0
 10
2.5791409653
 20
2.0704188537
 30
0.0
 10
2.5796650932
 20
2.0634623585
 30
0.0
 10
2.5803980877
 20
2.0526692355
 30
0.0
 10
2.5812984832
 20
2.0373479101
 30
0.0
 10
2.5823407354
 20
2.0168616982
 30
0.0
 10
2.5833851575
 20
1.9937102598
 30
0.0
 10
2.5844319764
 20
1.9680919044
 30
0.0
 10
2.5854796548
 20
1.9402286807
 30
0.0
 10
2.5865283786
 20
1.9103597292
 30
0.0
 10
2.5875777606
 20
1.8787426437
 30
0.0
 10
2.588627397
 20
1.8456499719
 30
0.0
 10
2.5896774719
 20
1.81136599
 30
0.0
 10
2.5907276241
 20
1.7761864371
 30
0.0
 10
2.5921314802
 20
1.7283681875
 30
0.0
 10
2.5938637239
 20
1.6686567279
 30
0.0
 10
2.5959358782
 20
1.5985085062
 30
0.0
 10
2.597695034
 20
1.5419780171
 30
0.0
 10
2.5991244478
 20
1.4992151534
 30
0.0
 10
2.6001718135
 20
1.4696436473
 30
0.0
 10
2.6012182289
 20
1.4421134669
 30
0.0
 10
2.6022631851
 20
1.4168610098
 30
0.0
 10
2.6033057378
 20
1.3941035558
 30
0.0
 10
2.6043454834
 20
1.3740347926
 30
0.0
 10
2.6053805878
 20
1.3568281035
 30
0.0
 10
2.6062810565
 20
1.3443491579
 30
0.0
 10
2.6070217942
 20
1.3359080839
 30
0.0
 10
2.6075419879
 20
1.330761217
 30
0.0
 10
2.6080597706
 20
1.3264213535
 30
0.0
 10
2.6084407881
 20
1.3238032307
 30
0.0
 10
2.60863906
 20
1.3226326221
 30
0.0
 11
2.5748858419
 21
2.0972699251
 31
0.0
 11
2.5750178622
 21
2.0972434153
 31
0.0
 11
2.5751498813
 21
2.097164474
 31
0.0
 11
2.575281899
 21
2.0970331196
 31
0.0
 11
2.5754139154
 21
2.0968493701
 31
0.0
 11
2.5756779444
 21
2.0963247587
 31
0.0
 11
2.5759419681
 21
2.0955907857
 31
0.0
 11
2.5762059867
 21
2.0946475965
 31
0.0
 11
2.57647
 21
2.0934953367
 31
0.0
 11
2.5767340081
 21
2.0921342144
 31
0.0
 11
2.576998011
 21
2.0905651027
 31
0.0
 11
2.5775260011
 21
2.0868080179
 31
0.0
 11
2.5780539703
 21
2.0822343231
 31
0.0
 11
2.5785819185
 21
2.0768542651
 31
0.0
 11
2.5791098456
 21
2.0706780905
 31
0.0
 11
2.5796377516
 21
2.0637167213
 31
0.0
 11
2.5801656365
 21
2.055986389
 31
0.0
 11
2.5812213428
 21
2.0382938195
 31
0.0
 11
2.582276964
 21
2.01775088
 31
0.0
 11
2.5833324998
 21
1.9945311863
 31
0.0
 11
2.58438795
 21
1.9688419239
 31
0.0
 11
2.5854433143
 21
1.9408974149
 31
0.0
 11
2.5864985922
 21
1.9109427369
 31
0.0
 11
2.5875537836
 21
1.8792359808
 31
0.0
 11
2.5886088882
 21
1.846046876
 31
0.0
 11
2.5896639056
 21
1.8116653252
 31
0.0
 11
2.5907188356
 21
1.7763845354
 31
0.0
 11
2.591773678
 21
1.7405086676
 31
0.0
 11
2.5938830989
 21
1.6682108093
 31
0.0
 11
2.5959921664
 21
1.5972524036
 31
0.0
 11
2.5981008786
 21
1.5300674052
 31
0.0
 11
2.599155101
 21
1.4986195143
 31
0.0
 11
2.6002092341
 21
1.4689617031
 31
0.0
 11
2.6012632775
 21
1.4413538438
 31
0.0
 11
2.6023172312
 21
1.4160302137
 31
0.0
 11
2.603371095
 21
1.3932060449
 31
0.0
 11
2.6044248687
 21
1.3730839562
 31
0.0
 11
2.6054785522
 21
1.3558277768
 31
0.0
 11
2.6065321453
 21
1.3415918718
 31
0.0
 11
2.6070589079
 21
1.3356460454
 31
0.0
 11
2.6075856479
 21
1.3304968202
 31
0.0
 11
2.6081123653
 21
1.3261553085
 31
0.0
 11
2.60863906
 21
1.3226326221
 31
0.0
  0
SPLINE
  5
3B1
100
AcDbEntity
  8
0
100
AcDbSpline
 62
6
  6
CONTINUOUS
 70
0
 71
3
 72
11
 73
7
 74
5
 42
0.0000001
 43
0.0000001
 44
0.0000000001
 12
0.0009197001
 22
-0.0054299636
 32
0.0
 13
0.0027557128
 23
-0.0047682702
 33
0.0
 40
0.0
 40
0.0
 40
0.0
 40
0.0
 40
0.3456209702
 40
0.6268517166
 40
0.8444027823
 40
1.0
 40
1.0
 40
1.0
 40
1.0
 10
2.60863906
 20
1.3226326221
 30
0.0
 10
2.6087450158
 20
1.3220070524
 30
0.0
 10
2.608951693
 20
1.3208749355
 30
0.0
 10
2.6092909735
 20
1.3193612016
 30
0.0
 10
2.609626915
 20
1.3182080591
 30
0.0
 10
2.6098864778
 20
1.317569327
 30
0.0
 10
2.6100294048
 20
1.3173220171
 30
0.0
 11
2.60863906
 21
1.3226326221
 31
0.0
 11
2.608986661
 21
1.3207611919
 31
0.0
 11
2.6093342522
 21
1.3192518774
 31
0.0
 11
2.6096818335
 21
1.318105284
 31
0.0
 11
2.6100294048
 21
1.3173220171
 31
0.0
  0
SPLINE
  5
3B2
100
AcDbEntity
  8
0
100
AcDbSpline
 62
6
  6
CONTINUOUS
 70
0
 71
3
 72
10
 73
6
 74
4
 42
0.0000001
 43
0.0000001
 44
0.0000000001
 12
0.1270789436
 22
-0.0
 32
0.0
 13
0.1257202796
 23
0.0185329227
 33
0.0
 40
0.0
 40
0.0
 40
0.0
 40
0.0
 40
0.2493164543
 40
0.4989529464
 40
1.0
 40
1.0
 40
1.0
 40
1.0
 10
8.2240144476
 20
6.9275981812
 30
0.0
 10
8.2345754048
 20
6.9275981812
 30
0.0
 10
8.2557137991
 20
6.9280512366
 30
0.0
 10
8.2979987927
 20
6.9307120526
 30
0.0
 10
8.3296012356
 20
6.9345028925
 30
0.0
 10
8.3505984942
 20
6.9375981812
 30
0.0
 11
8.2240144476
 21
6.9275981812
 31
0.0
 11
8.2556902104
 21
6.9282693073
 31
0.0
 11
8.2873523938
 21
6.9302414223
 31
0.0
 11
8.3505984942
 21
6.9375981812
 31
0.0
  0
SPLINE
  5
3B3
100
AcDbEntity
  8
0
100
AcDbSpline
 62
6
  6
CONTINUOUS
 70
0
 71
3
 72
49
 73
45
 74
43
 42
0.0000001
 43
0.0000001
 44
0.0000000001
 12
-0.0016929425
 22
-0.7759340249
 32
0.0
 13
-0.7650397773
 23
-0.1295786099
 33
0.0
 40
0.0
 40
0.0
 40
0.0
 40
0.0
 40
0.0001735396
 40
0.0003717783
 40
0.0006117889
 40
0.0009033813
 40
0.0016602814
 40
0.0026655398
 40
0.0039278149
 40
0.0054512902
 40
0.0072381517
 40
0.0092887927
 40
0.0141783761
 40
0.0201119428
 40
0.0270788843
 40
0.0350675556
 40
0.0440648934
 40
0.0540506867
 40
0.0768928298
 40
0.1034028089
 40
0.1333584712
 40
0.1664938576
 40
0.2025334733
 40
0.2411620012
 40
0.2820472221
 40
0.3248418306
 40
0.3691724707
 40
0.414661485
 40
0.4609170756
 40
0.5541317695
 40
0.6456209568
 40
0.7322493567
 40
0.7728011051
 40
0.8110472282
 40
0.8466532289
 40
0.8793177235
 40
0.9087640821
 40
0.9347322877
 40
0.9570128907
 40
0.9754098231
 40
0.983102617
 40
0.9897733957
 40
0.9954096167
 40
1.0
 40
1.0
 40
1.0
 40
1.0
 10
8.9934383311
 20
7.7364789265
 30
0.0
 10
8.9934382332
 20
7.7364340414
 30
0.0
 10
8.9934172598
 20
7.7363373162
 30
0.0
 10
8.9933311489
 20
7.7362020442
 30
0.0
 10
8.9931946581
 20
7.7360700257
 30
0.0
 10
8.9929206446
 20
7.735878729
 30
0.0
 10
8.9924377741
 20
7.7356508729
 30
0.0
 10
8.9916987492
 20
7.7353934366
 30
0.0
 10
8.9907523353
 20
7.7351344372
 30
0.0
 10
8.9895984795
 20
7.7348740007
 30
0.0
 10
8.9882365128
 20
7.7346127534
 30
0.0
 10
8.9860098759
 20
7.7342415176
 30
0.0
 10
8.9827104224
 20
7.733788988
 30
0.0
 10
8.978138368
 20
7.7332690012
 30
0.0
 10
8.9727605381
 20
7.7327471611
 30
0.0
 10
8.9665872597
 20
7.7322238032
 30
0.0
 10
8.9596307645
 20
7.7316996753
 30
0.0
 10
8.9488376415
 20
7.7309666808
 30
0.0
 10
8.9335163161
 20
7.7300662852
 30
0.0
 10
8.9130301042
 20
7.729024033
 30
0.0
 10
8.8898786658
 20
7.727979611
 30
0.0
 10
8.8642603104
 20
7.726932792
 30
0.0
 10
8.8363970866
 20
7.7258851136
 30
0.0
 10
8.8065281352
 20
7.7248363899
 30
0.0
 10
8.7749110496
 20
7.7237870079
 30
0.0
 10
8.7418183779
 20
7.7227373715
 30
0.0
 10
8.707534396
 20
7.7216872965
 30
0.0
 10
8.6723548431
 20
7.7206371444
 30
0.0
 10
8.6245365935
 20
7.7192332883
 30
0.0
 10
8.5648251339
 20
7.7175010445
 30
0.0
 10
8.4946769122
 20
7.7154288903
 30
0.0
 10
8.4381464231
 20
7.7136697344
 30
0.0
 10
8.3953835593
 20
7.7122403206
 30
0.0
 10
8.3658120533
 20
7.7111929549
 30
0.0
 10
8.3382818729
 20
7.7101465395
 30
0.0
 10
8.3130294158
 20
7.7091015833
 30
0.0
 10
8.2902719618
 20
7.7080590307
 30
0.0
 10
8.2702031986
 20
7.707019285
 30
0.0
 10
8.2529965095
 20
7.7059841807
 30
0.0
 10
8.2405175639
 20
7.705083712
 30
0.0
 10
8.2320764899
 20
7.7043429742
 30
0.0
 10
8.226929623
 20
7.7038227805
 30
0.0
 10
8.2225897595
 20
7.7033049979
 30
0.0
 10
8.2199716367
 20
7.7029239803
 30
0.0
 10
8.2188010281
 20
7.7027257085
 30
0.0
 11
8.9934383311
 21
7.7364789265
 31
0.0
 11
8.9934118213
 21
7.7363469062
 31
0.0
 11
8.99333288
 21
7.7362148872
 31
0.0
 11
8.9932015255
 21
7.7360828695
 31
0.0
 11
8.993017776
 21
7.7359508531
 31
0.0
 11
8.9924931647
 21
7.7356868241
 31
0.0
 11
8.9917591917
 21
7.7354228004
 31
0.0
 11
8.9908160025
 21
7.7351587818
 31
0.0
 11
8.9896637427
 21
7.7348947685
 31
0.0
 11
8.9883026204
 21
7.7346307603
 31
0.0
 11
8.9867335087
 21
7.7343667574
 31
0.0
 11
8.9829764238
 21
7.7338387673
 31
0.0
 11
8.9784027291
 21
7.7333107982
 31
0.0
 11
8.9730226711
 21
7.73278285
 31
0.0
 11
8.9668464965
 21
7.7322549229
 31
0.0
 11
8.9598851272
 21
7.7317270169
 31
0.0
 11
8.952154795
 21
7.731199132
 31
0.0
 11
8.9344622255
 21
7.7301434257
 31
0.0
 11
8.913919286
 21
7.7290878045
 31
0.0
 11
8.8906995923
 21
7.7280322686
 31
0.0
 11
8.8650103299
 21
7.7269768184
 31
0.0
 11
8.8370658209
 21
7.7259214542
 31
0.0
 11
8.8071111429
 21
7.7248661762
 31
0.0
 11
8.7754043868
 21
7.7238109848
 31
0.0
 11
8.742215282
 21
7.7227558803
 31
0.0
 11
8.7078337312
 21
7.7217008629
 31
0.0
 11
8.6725529414
 21
7.7206459328
 31
0.0
 11
8.6366770736
 21
7.7195910904
 31
0.0
 11
8.5643792153
 21
7.7174816695
 31
0.0
 11
8.4934208096
 21
7.7153726021
 31
0.0
 11
8.4262358112
 21
7.7132638898
 31
0.0
 11
8.3947879202
 21
7.7122096674
 31
0.0
 11
8.3651301091
 21
7.7111555344
 31
0.0
 11
8.3375222498
 21
7.710101491
 31
0.0
 11
8.3121986197
 21
7.7090475373
 31
0.0
 11
8.2893744509
 21
7.7079936735
 31
0.0
 11
8.2692523622
 21
7.7069398998
 31
0.0
 11
8.2519961828
 21
7.7058862163
 31
0.0
 11
8.2377602777
 21
7.7048326232
 31
0.0
 11
8.2318144513
 21
7.7043058605
 31
0.0
 11
8.2266652262
 21
7.7037791205
 31
0.0
 11
8.2223237144
 21
7.7032524032
 31
0.0
 11
8.2188010281
 21
7.7027257085
 31
0.0
  0
SPLINE
  5
3B4
100
AcDbEntity
  8
0
100
AcDbSpline
 62
6
  6
CONTINUOUS
 70
0
 71
3
 72
11
 73
7
 74
5
 42
0.0000001
 43
0.0000001
 44
0.0000000001
 12
-0.0054299636
 22
-0.0009197001
 32
0.0
 13
-0.0047682702
 23
-0.0027557128
 33
0.0
 40
0.0
 40
0.0
 40
0.0
 40
0.0
 40
0.3456209702
 40
0.6268517166
 40
0.8444027823
 40
1.0
 40
1.0
 40
1.0
 40
1.0
 10
8.2188010281
 20
7.7027257085
 30
0.0
 10
8.2181754583
 20
7.7026197526
 30
0.0
 10
8.2170433415
 20
7.7024130754
 30
0.0
 10
8.2155296076
 20
7.702073795
 30
0.0
 10
8.2143764651
 20
7.7017378535
 30
0.0
 10
8.213737733
 20
7.7014782907
 30
0.0
 10
8.2134904231
 20
7.7013353636
 30
0.0
 11
8.2188010281
 21
7.7027257085
 31
0.0
 11
8.2169295979
 21
7.7023781075
 31
0.0
 11
8.2154202834
 21
7.7020305163
 31
0.0
 11
8.21427369
 21
7.701682935
 31
0.0
 11
8.2134904231
 21
7.7013353636
 31
0.0
  0
SPLINE
  5
3B5
100
AcDbEntity
  8
0
100
AcDbSpline
 62
6
  6
CONTINUOUS
 70
0
 71
3
 72
11
 73
7
 74
5
 42
0.0000001
 43
0.0000001
 44
0.0000000001
 12
0.000036858
 22
-0.0011838309
 32
0.0
 13
-0.001093769
 23
-0.0004544047
 33
0.0
 40
0.0
 40
0.0
 40
0.0
 40
0.0
 40
0.1594047337
 40
0.3648447419
 40
0.6415875118
 40
1.0
 40
1.0
 40
1.0
 40
1.0
 10
9.0359222121
 20
7.4313712611
 30
0.0
 10
9.0359241705
 20
7.4313083583
 30
0.0
 10
9.0358769273
 20
7.431162879
 30
0.0
 10
9.0356950115
 20
7.4309805796
 30
0.0
 10
9.0354141272
 20
7.4308017836
 30
0.0
 10
9.0351856133
 20
7.4306969223
 30
0.0
 10
9.0350549398
 20
7.4306426342
 30
0.0
 11
9.0359222121
 21
7.4313712611
 31
0.0
 11
9.0358721593
 21
7.431189217
 31
0.0
 11
9.0357107989
 21
7.4310070923
 31
0.0
 11
9.035438327
 21
7.4308248952
 31
0.0
 11
9.0350549398
 21
7.4306426342
 31
0.0
  0
SPLINE
  5
3B6
100
AcDbEntity
  8
0
100
AcDbSpline
 62
6
  6
CONTINUOUS
 70
0
 71
3
 72
52
 73
48
 74
46
 42
0.0000001
 43
0.0000001
 44
0.0000000001
 12
-0.7989692817
 22
-0.3319305955
 32
0.0
 13
-0.7498530065
 23
-0.4315672624
 33
0.0
 40
0.0
 40
0.0
 40
0.0
 40
0.0
 40
0.0009436357
 40
0.0021546828
 40
0.0036369055
 40
0.005391974
 40
0.0097227277
 40
0.0151473615
 40
0.0216561646
 40
0.0292332717
 40
0.0378620127
 40
0.0475253396
 40
0.0582050343
 40
0.0698757458
 40
0.0960757807
 40
0.1258944701
 40
0.15906563
 40
0.1952892857
 40
0.2342475554
 40
0.2755843786
 40
0.3189341733
 40
0.3639037689
 40
0.4100881846
 40
0.5044392171
 40
0.5986131014
 40
0.6445773243
 40
0.6892425488
 40
0.7322054995
 40
0.7730801837
 40
0.8115050186
 40
0.8471310218
 40
0.8796479637
 40
0.9087587357
 40
0.934209186
 40
0.9454903487
 40
0.9557713118
 40
0.9650302979
 40
0.9732500795
 40
0.9804137938
 40
0.9865050455
 40
0.9915093331
 40
0.993601997
 40
0.9954216632
 40
0.9969688612
 40
0.9982449379
 40
0.9992529349
 40
1.0
 40
1.0
 40
1.0
 40
1.0
 10
9.0350549398
 20
7.4306426342
 30
0.0
 10
9.0348036278
 20
7.430538227
 30
0.0
 10
9.0342132947
 20
7.4303402694
 30
0.0
 10
9.0331979684
 20
7.4300761568
 30
0.0
 10
9.0319425332
 20
7.4298103738
 30
0.0
 10
9.0297936615
 20
7.4294271072
 30
0.0
 10
9.0265056856
 20
7.4289639245
 30
0.0
 10
9.0218449839
 20
7.428434381
 30
0.0
 10
9.0162432109
 20
7.4279026202
 30
0.0
 10
9.0097141626
 20
7.4273687147
 30
0.0
 10
9.0022728126
 20
7.4268336556
 30
0.0
 10
8.9939347319
 20
7.4262977162
 30
0.0
 10
8.9847177779
 20
7.4257612616
 30
0.0
 10
8.9707360036
 20
7.4250163166
 30
0.0
 10
8.9512363411
 20
7.4240981017
 30
0.0
 10
8.925536734
 20
7.4230313697
 30
0.0
 10
8.896944239
 20
7.4219629056
 30
0.0
 10
8.8657143627
 20
7.4208927683
 30
0.0
 10
8.8321283229
 20
7.4198219293
 30
0.0
 10
8.7964862156
 20
7.4187501339
 30
0.0
 10
8.7591097553
 20
7.4176780834
 30
0.0
 10
8.7203347477
 20
7.4166056749
 30
0.0
 10
8.6668559516
 20
7.4151654601
 30
0.0
 10
8.5991909403
 20
7.4133896227
 30
0.0
 10
8.5315894801
 20
7.4116126941
 30
0.0
 10
8.4783131382
 20
7.4101720013
 30
0.0
 10
8.4398010451
 20
7.4091006306
 30
0.0
 10
8.4027573036
 20
7.408029842
 30
0.0
 10
8.3675140059
 20
7.4069596831
 30
0.0
 10
8.3343876132
 20
7.4058907394
 30
0.0
 10
8.3036728347
 20
7.4048227431
 30
0.0
 10
8.2756458233
 20
7.4037569065
 30
0.0
 10
8.2505556321
 20
7.4026929491
 30
0.0
 10
8.231589142
 20
7.4017766189
 30
0.0
 10
8.218051464
 20
7.401032681
 30
0.0
 10
8.2091789518
 20
7.4004979009
 30
0.0
 10
8.2011910243
 20
7.3999638529
 30
0.0
 10
8.1941042513
 20
7.3994308106
 30
0.0
 10
8.1879337626
 20
7.3988993742
 30
0.0
 10
8.1826944356
 20
7.3983699018
 30
0.0
 10
8.1789185846
 20
7.3979085135
 30
0.0
 10
8.176375013
 20
7.3975297284
 30
0.0
 10
8.1748229932
 20
7.3972635299
 30
0.0
 10
8.173510356
 20
7.3969983843
 30
0.0
 10
8.1724365806
 20
7.3967349231
 30
0.0
 10
8.1716022024
 20
7.3964737143
 30
0.0
 10
8.1711342711
 20
7.3962740124
 30
0.0
 10
8.1709475414
 20
7.3961665428
 30
0.0
 11
9.0350549398
 21
7.4306426342
 31
0.0
 11
9.0342844118
 21
7.4303727939
 31
0.0
 11
9.0332720111
 21
7.4301028588
 31
0.0
 11
9.0320183738
 21
7.4298328558
 31
0.0
 11
9.0305241359
 21
7.4295628121
 31
0.0
 11
9.0268164025
 21
7.4290227103
 31
0.0
 11
9.0221543022
 21
7.428482759
 31
0.0
 11
9.0165489669
 21
7.4279430158
 31
0.0
 11
9.0100156787
 21
7.4274034295
 31
0.0
 11
9.0025698158
 21
7.4268639463
 31
0.0
 11
8.9942267563
 21
7.4263245124
 31
0.0
 11
8.9850026985
 21
7.4257850802
 31
0.0
 11
8.9749198965
 21
7.4252456476
 31
0.0
 11
8.9522779356
 21
7.424166855
 31
0.0
 11
8.926502072
 21
7.4230882765
 31
0.0
 11
8.8978234404
 21
7.4220099377
 31
0.0
 11
8.8665021481
 21
7.4209317513
 31
0.0
 11
8.832813627
 21
7.4198536546
 31
0.0
 11
8.7970662425
 21
7.4187756524
 31
0.0
 11
8.7595765248
 21
7.4176977606
 31
0.0
 11
8.720684832
 21
7.4166200046
 31
0.0
 11
8.6807417084
 21
7.4155424134
 31
0.0
 11
8.5991398841
 21
7.4133877272
 31
0.0
 11
8.5176913636
 21
7.4112335748
 31
0.0
 11
8.477938797
 21
7.4101566556
 31
0.0
 11
8.439310514
 21
7.4090798507
 31
0.0
 11
8.4021555884
 21
7.4080031904
 31
0.0
 11
8.3668081736
 21
7.4069266893
 31
0.0
 11
8.3335813505
 21
7.4058503398
 31
0.0
 11
8.3027773755
 21
7.4047741217
 31
0.0
 11
8.2746650818
 21
7.4036979751
 31
0.0
 11
8.2495021357
 21
7.4026218432
 31
0.0
 11
8.2275093207
 21
7.4015457929
 31
0.0
 11
8.2177639637
 21
7.4010078417
 31
0.0
 11
8.2088853973
 21
7.4004699603
 31
0.0
 11
8.2008928185
 21
7.3999321243
 31
0.0
 11
8.1938016269
 21
7.3993942811
 31
0.0
 11
8.1876271378
 21
7.3988563776
 31
0.0
 11
8.1823846671
 21
7.3983183607
 31
0.0
 11
8.178088653
 21
7.3977802
 31
0.0
 11
8.1762982393
 21
7.3975111043
 31
0.0
 11
8.1747470714
 21
7.3972420341
 31
0.0
 11
8.1734357834
 21
7.396973016
 31
0.0
 11
8.1723650096
 21
7.3967040769
 31
0.0
 11
8.1715353842
 21
7.3964352436
 31
0.0
 11
8.1709475414
 21
7.3961665428
 31
0.0
  0
SPLINE
  5
3B7
100
AcDbEntity
  8
0
100
AcDbSpline
 62
6
  6
CONTINUOUS
 70
0
 71
3
 72
52
 73
48
 74
46
 42
0.0000001
 43
0.0000001
 44
0.0000000001
 12
-0.0019996932
 22
-0.7841678268
 32
0.0
 13
-0.7560826953
 23
-0.2079955221
 33
0.0
 40
0.0
 40
0.0
 40
0.0
 40
0.0
 40
0.0001758555
 40
0.000378228
 40
0.0006250468
 40
0.0009263531
 40
0.0017113787
 40
0.0027559458
 40
0.004068165
 40
0.0056516947
 40
0.0075082964
 40
0.0096387985
 40
0.0120435204
 40
0.0147222311
 40
0.0208954
 40
0.0281437742
 40
0.036451384
 40
0.0458017099
 40
0.0561776107
 40
0.0799085731
 40
0.1074220709
 40
0.1384823497
 40
0.172804145
 40
0.2100793108
 40
0.2499774884
 40
0.2921328435
 40
0.336172243
 40
0.3816965091
 40
0.4282958889
 40
0.4755536389
 40
0.5703372377
 40
0.6626493567
 40
0.74918085
 40
0.7892963622
 40
0.82683049
 40
0.8614423204
 40
0.8928218414
 40
0.9206949818
 40
0.9448027109
 40
0.9649430294
 40
0.9734678019
 40
0.9809337163
 40
0.9873281887
 40
0.9926417125
 40
0.9968665717
 40
0.998569601
 40
1.0
 40
1.0
 40
1.0
 40
1.0
 10
8.9956920711
 20
7.665047998
 30
0.0
 10
8.9956919539
 20
7.6650020312
 30
0.0
 10
8.9956695433
 20
7.6649025972
 30
0.0
 10
8.9955783541
 20
7.6647643432
 30
0.0
 10
8.9954343009
 20
7.6646295031
 30
0.0
 10
8.9951448644
 20
7.6644337683
 30
0.0
 10
8.9946358246
 20
7.6642009595
 30
0.0
 10
8.9938575697
 20
7.6639377964
 30
0.0
 10
8.9928615187
 20
7.6636729988
 30
0.0
 10
8.9916479905
 20
7.6634066677
 30
0.0
 10
8.9902163997
 20
7.6631394783
 30
0.0
 10
8.9885671373
 20
7.6628716535
 30
0.0
 10
8.9867005808
 20
7.6626033811
 30
0.0
 10
8.983782267
 20
7.6622273198
 30
0.0
 10
8.9795989335
 20
7.6617653672
 30
0.0
 10
8.9739441434
 20
7.6612315786
 30
0.0
 10
8.9674557835
 20
7.6606964888
 30
0.0
 10
8.9601475853
 20
7.6601602796
 30
0.0
 10
8.9488129864
 20
7.6594107041
 30
0.0
 10
8.9327320602
 20
7.6584904506
 30
0.0
 10
8.9112447217
 20
7.6574244306
 30
0.0
 10
8.886986136
 20
7.6563564124
 30
0.0
 10
8.8601738462
 20
7.6552861639
 30
0.0
 10
8.8310497865
 20
7.6542146285
 30
0.0
 10
8.799876855
 20
7.6531424241
 30
0.0
 10
8.7669348666
 20
7.6520693535
 30
0.0
 10
8.7325215405
 20
7.6509960564
 30
0.0
 10
8.6969460577
 20
7.6499224264
 30
0.0
 10
8.6605289631
 20
7.6488486225
 30
0.0
 10
8.6112409686
 20
7.6474155406
 30
0.0
 10
8.5500087807
 20
7.6456483334
 30
0.0
 10
8.4785166484
 20
7.6435316809
 30
0.0
 10
8.4213111614
 20
7.6417305057
 30
0.0
 10
8.3784208431
 20
7.640264766
 30
0.0
 10
8.3490962948
 20
7.6391944967
 30
0.0
 10
8.3220568167
 20
7.6381256763
 30
0.0
 10
8.2975447075
 20
7.6370585063
 30
0.0
 10
8.2757809346
 20
7.6359949836
 30
0.0
 10
8.2569588359
 20
7.6349346068
 30
0.0
 10
8.2431947835
 20
7.6340141286
 30
0.0
 10
8.2337805363
 20
7.6332594969
 30
0.0
 10
8.2279534719
 20
7.6327264552
 30
0.0
 10
8.2229694596
 20
7.6321957445
 30
0.0
 10
8.218838148
 20
7.6316676062
 30
0.0
 10
8.2159351367
 20
7.6312059649
 30
0.0
 10
8.2140499496
 20
7.6308232845
 30
0.0
 10
8.2132536454
 20
7.6306300341
 30
0.0
 10
8.2128931454
 20
7.6305308619
 30
0.0
 11
8.9956920711
 21
7.665047998
 31
0.0
 11
8.9956640305
 21
7.6649129783
 31
0.0
 11
8.9955806397
 21
7.6647779601
 31
0.0
 11
8.9954419627
 21
7.6646429433
 31
0.0
 11
8.9952480633
 21
7.6645079281
 31
0.0
 11
8.994694853
 21
7.664237902
 31
0.0
 11
8.9939215197
 21
7.6639678819
 31
0.0
 11
8.9929285744
 21
7.6636978677
 31
0.0
 11
8.9917165281
 21
7.6634278594
 31
0.0
 11
8.9902858917
 21
7.6631578571
 31
0.0
 11
8.9886371764
 21
7.6628878607
 31
0.0
 11
8.986770893
 21
7.6626178702
 31
0.0
 11
8.9846877501
 21
7.6623478856
 31
0.0
 11
8.9798771417
 21
7.6618079343
 31
0.0
 11
8.9742188837
 21
7.6612680066
 31
0.0
 11
8.9677267133
 21
7.6607281026
 31
0.0
 11
8.9604143677
 21
7.6601882222
 31
0.0
 11
8.9522958233
 21
7.6596483655
 31
0.0
 11
8.9337180507
 21
7.6585687229
 31
0.0
 11
8.912169806
 21
7.6574891746
 31
0.0
 11
8.8878371873
 21
7.6564097207
 31
0.0
 11
8.8609447042
 21
7.6553303609
 31
0.0
 11
8.8317345551
 21
7.6542510952
 31
0.0
 11
8.8004662034
 21
7.6531719235
 31
0.0
 11
8.7674268396
 21
7.6520928457
 31
0.0
 11
8.732909307
 21
7.6510138616
 31
0.0
 11
8.697226833
 21
7.6499349713
 31
0.0
 11
8.6607009074
 21
7.6488561745
 31
0.0
 11
8.6236584828
 21
7.6477774712
 31
0.0
 11
8.5493633015
 21
7.6456203448
 31
0.0
 11
8.4770070089
 21
7.6434635912
 31
0.0
 11
8.4091858477
 21
7.6413072098
 31
0.0
 11
8.3777469294
 21
7.6402291585
 31
0.0
 11
8.3483335244
 21
7.6391511999
 31
0.0
 11
8.3212133633
 21
7.6380733341
 31
0.0
 11
8.2966300869
 21
7.6369955608
 31
0.0
 11
8.2747993798
 21
7.6359178801
 31
0.0
 11
8.2559255498
 21
7.6348402919
 31
0.0
 11
8.2401689072
 21
7.633762796
 31
0.0
 11
8.2335057751
 21
7.6332240827
 31
0.0
 11
8.227676062
 21
7.6326853924
 31
0.0
 11
8.2226907232
 21
7.6321467252
 31
0.0
 11
8.2185589781
 21
7.6316080811
 31
0.0
 11
8.2152900458
 21
7.6310694599
 31
0.0
 11
8.2139820154
 21
7.630800158
 31
0.0
 11
8.2128931454
 21
7.6305308619
 31
0.0
  0
LINE
  5
3B8
100
AcDbEntity
  8
0
100
AcDbLine
 62
6
  6
CONTINUOUS
 10
8.2128931454
 20
7.6305308619
 11
8.2112083399
 21
7.6299023475
  0
SPLINE
  5
3B9
100
AcDbEntity
  8
0
100
AcDbSpline
 62
6
  6
CONTINUOUS
 70
0
 71
3
 72
10
 73
6
 74
4
 42
0.0000001
 43
0.0000001
 44
0.0000000001
 12
0.2527305062
 22
-0.0186280008
 32
0.0
 13
0.2534160831
 23
-0.0
 33
0.0
 40
0.0
 40
0.0
 40
0.0
 40
0.0
 40
0.4999906585
 40
0.7499958842
 40
1.0
 40
1.0
 40
1.0
 40
1.0
 10
8.3505984942
 20
6.9375981812
 30
0.0
 10
8.3927194583
 20
6.9344935724
 30
0.0
 10
8.4559751965
 20
6.9307056819
 30
0.0
 10
8.540409966
 20
6.928051222
 30
0.0
 10
8.5826482325
 20
6.9275981812
 30
0.0
 10
8.6037665871
 20
6.9275981812
 30
0.0
 11
8.3505984942
 21
6.9375981812
 31
0.0
 11
8.4770904361
 21
6.9302417891
 31
0.0
 11
8.540415083
 21
6.9282697735
 31
0.0
 11
8.6037665871
 21
6.9275981812
 31
0.0
  0
SPLINE
  5
3BA
100
AcDbEntity
  8
0
100
AcDbSpline
 62
6
  6
CONTINUOUS
 70
0
 71
3
 72
60
 73
56
 74
54
 42
0.0000001
 43
0.0000001
 44
0.0000000001
 12
0.0272372826
 22
-0.8748260974
 32
0.0
 13
-0.7585882796
 23
-0.4365849199
 33
0.0
 40
0.0
 40
0.0
 40
0.0
 40
0.0
 40
0.0001602767
 40
0.0003494068
 40
0.0005872992
 40
0.0008841381
 40
0.0012450934
 40
0.0016729673
 40
0.0027351314
 40
0.0040779138
 40
0.005704151
 40
0.0076150611
 40
0.0098110791
 40
0.0122922169
 40
0.0150581445
 40
0.0214379818
 40
0.0289344475
 40
0.0375298625
 40
0.0472060949
 40
0.0579442651
 40
0.0697188003
 40
0.0824993567
 40
0.1109563732
 40
0.1430590623
 40
0.1785000941
 40
0.2169546906
 40
0.2580601693
 40
0.3014298802
 40
0.3466602655
 40
0.3933246993
 40
0.4409901837
 40
0.4892093226
 40
0.585507543
 40
0.6326861904
 40
0.6786276047
 40
0.7229018735
 40
0.7650902917
 40
0.8048044012
 40
0.841666073
 40
0.8753381642
 40
0.9055052582
 40
0.9318878797
 40
0.9435846312
 40
0.9542453665
 40
0.963844921
 40
0.9723646173
 40
0.9797865338
 40
0.986093214
 40
0.9912688251
 40
0.9934301309
 40
0.9953070212
 40
0.9968999896
 40
0.9982103665
 40
0.9992412363
 40
1.0
 40
1.0
 40
1.0
 40
1.0
 10
9.0403692591
 20
7.2885378918
 30
0.0
 10
9.0403707143
 20
7.2884911537
 30
0.0
 10
9.0403473631
 20
7.2883877337
 30
0.0
 10
9.040244959
 20
7.2882469137
 30
0.0
 10
9.0400824557
 20
7.288110225
 30
0.0
 10
9.039858409
 20
7.2879744204
 30
0.0
 10
9.0395719449
 20
7.28783844
 30
0.0
 10
9.0390684019
 20
7.287642403
 30
0.0
 10
9.0382754479
 20
7.287405644
 30
0.0
 10
9.0371305536
 20
7.2871353609
 30
0.0
 10
9.035732657
 20
7.2868637677
 30
0.0
 10
9.0340822537
 20
7.2865910198
 30
0.0
 10
9.0321796121
 20
7.2863176323
 30
0.0
 10
9.0300253593
 20
7.2860437546
 30
0.0
 10
9.0266549378
 20
7.2856597709
 30
0.0
 10
9.0218222183
 20
7.2851883566
 30
0.0
 10
9.0152886189
 20
7.2846438148
 30
0.0
 10
9.007790501
 20
7.284097983
 30
0.0
 10
8.9993445092
 20
7.2835510628
 30
0.0
 10
8.9899693087
 20
7.2830035684
 30
0.0
 10
8.9796870595
 20
7.2824555112
 30
0.0
 10
8.9642393678
 20
7.2816966875
 30
0.0
 10
8.9428627086
 20
7.2807601792
 30
0.0
 10
8.9148756322
 20
7.2796704392
 30
0.0
 10
8.8839698499
 20
7.2785786056
 30
0.0
 10
8.8504360542
 20
7.2774856148
 30
0.0
 10
8.8145879581
 20
7.2763916325
 30
0.0
 10
8.7767621809
 20
7.2752969779
 30
0.0
 10
8.73731394
 20
7.2742020511
 30
0.0
 10
8.696611953
 20
7.273106744
 30
0.0
 10
8.6550376908
 20
7.2720114027
 30
0.0
 10
8.5989873559
 20
7.2705514806
 30
0.0
 10
8.5430788737
 20
7.269100307
 30
0.0
 10
8.4878356427
 20
7.267630248
 30
0.0
 10
8.4477657935
 20
7.2665355119
 30
0.0
 10
8.4091523856
 20
7.2654413933
 30
0.0
 10
8.3723565389
 20
7.2643477543
 30
0.0
 10
8.3377242815
 20
7.2632553852
 30
0.0
 10
8.3055779458
 20
7.2621640543
 30
0.0
 10
8.276218601
 20
7.2610747994
 30
0.0
 10
8.2499187556
 20
7.2599877969
 30
0.0
 10
8.2300296871
 20
7.2590514539
 30
0.0
 10
8.2158300462
 20
7.2582912472
 30
0.0
 10
8.2065225571
 20
7.2577447944
 30
0.0
 10
8.1981436764
 20
7.2571990494
 30
0.0
 10
8.1907118813
 20
7.2566543361
 30
0.0
 10
8.1842435116
 20
7.2561112849
 30
0.0
 10
8.1787546196
 20
7.2555702696
 30
0.0
 10
8.1748015476
 20
7.255098778
 30
0.0
 10
8.1721413215
 20
7.2547115029
 30
0.0
 10
8.1705208943
 20
7.2544394947
 30
0.0
 10
8.1691526672
 20
7.2541685909
 30
0.0
 10
8.1680360642
 20
7.2538994976
 30
0.0
 10
8.167171742
 20
7.2536327987
 30
0.0
 10
8.1666881962
 20
7.2534284616
 30
0.0
 10
8.1664963331
 20
7.25331804
 30
0.0
 11
9.0403692591
 21
7.2885378918
 31
0.0
 11
9.0403413855
 21
7.2884004067
 31
0.0
 11
9.0402492622
 21
7.288262873
 31
0.0
 11
9.0400929748
 21
7.2881252943
 31
0.0
 11
9.0398726093
 21
7.2879876742
 31
0.0
 11
9.0395882511
 21
7.2878500162
 31
0.0
 11
9.039239986
 21
7.287712324
 31
0.0
 11
9.0383520778
 21
7.2874368513
 31
0.0
 11
9.0372095702
 21
7.2871612849
 31
0.0
 11
9.0358131488
 21
7.2868856535
 31
0.0
 11
9.0341634991
 21
7.286609986
 31
0.0
 11
9.0322613066
 21
7.2863343112
 31
0.0
 11
9.0301072567
 21
7.2860586579
 31
0.0
 11
9.027702118
 21
7.2857830526
 31
0.0
 11
9.0221454226
 21
7.2852319955
 31
0.0
 11
9.0156073092
 21
7.2846810958
 31
0.0
 11
9.0081043624
 21
7.2841302967
 31
0.0
 11
8.999653167
 21
7.2835795416
 31
0.0
 11
8.9902707351
 21
7.2830287767
 31
0.0
 11
8.9799798019
 21
7.2824779905
 31
0.0
 11
8.9688071881
 21
7.2819272018
 31
0.0
 11
8.9439245532
 21
7.2808256934
 31
0.0
 11
8.9158482665
 21
7.2797243685
 31
0.0
 11
8.8848480552
 21
7.2786231823
 31
0.0
 11
8.8512086864
 21
7.2775220529
 31
0.0
 11
8.8152479689
 21
7.2764209776
 31
0.0
 11
8.777304599
 21
7.2753200016
 31
0.0
 11
8.7377320133
 21
7.2742191456
 31
0.0
 11
8.6969038032
 21
7.2731183936
 31
0.0
 11
8.6551991095
 21
7.2720177287
 31
0.0
 11
8.613009661
 21
7.2709171385
 31
0.0
 11
8.5287533864
 21
7.2687161353
 31
0.0
 11
8.4874749406
 21
7.2676156998
 31
0.0
 11
8.4472797769
 21
7.2665153118
 31
0.0
 11
8.4085443474
 21
7.265414997
 31
0.0
 11
8.3716353286
 21
7.2643147843
 31
0.0
 11
8.336892966
 21
7.263214709
 31
0.0
 11
8.304648542
 21
7.2621147992
 31
0.0
 11
8.2751975713
 21
7.2610150171
 31
0.0
 11
8.248816734
 21
7.2599152951
 31
0.0
 11
8.2257515425
 21
7.2588156519
 31
0.0
 11
8.2155287323
 21
7.2582658942
 31
0.0
 11
8.2062141296
 21
7.2577161978
 31
0.0
 11
8.1978301175
 21
7.2571665484
 31
0.0
 11
8.1903935388
 21
7.2566168919
 31
0.0
 11
8.183920808
 21
7.2560671707
 31
0.0
 11
8.1784283396
 21
7.2555173275
 31
0.0
 11
8.1739318995
 21
7.2549673219
 31
0.0
 11
8.1720603163
 21
7.254692293
 31
0.0
 11
8.1704407508
 21
7.2544172851
 31
0.0
 11
8.1690738863
 21
7.2541423268
 31
0.0
 11
8.1679604062
 21
7.2538674473
 31
0.0
 11
8.167100994
 21
7.2535926754
 31
0.0
 11
8.1664963331
 21
7.25331804
 31
0.0
  0
SPLINE
  5
3BB
100
AcDbEntity
  8
0
100
AcDbSpline
 62
6
  6
CONTINUOUS
 70
0
 71
3
 72
53
 73
49
 74
47
 42
0.0000001
 43
0.0000001
 44
0.0000000001
 12
0.0028824587
 22
-0.7892160508
 32
0.0
 13
-0.7514124213
 23
-0.2413496562
 33
0.0
 40
0.0
 40
0.0
 40
0.0
 40
0.0
 40
0.0001754846
 40
0.0003776144
 40
0.0006247863
 40
0.0009273306
 40
0.0017179416
 40
0.0027720316
 40
0.0040972439
 40
0.0056967481
 40
0.0075718194
 40
0.0097228051
 40
0.0121495476
 40
0.0148515919
 40
0.0210788199
 40
0.0283954556
 40
0.036783299
 40
0.0462221435
 40
0.0566914627
 40
0.0806354082
 40
0.108397878
 40
0.1397230301
 40
0.1743358491
 40
0.2119124819
 40
0.2521178759
 40
0.2945848333
 40
0.3389250442
 40
0.3847400873
 40
0.4316096233
 40
0.4791095539
 40
0.5742732633
 40
0.6667821893
 40
0.7109850812
 40
0.7532843307
 40
0.7932942691
 40
0.8306503804
 40
0.8650211695
 40
0.8960862425
 40
0.9235743079
 40
0.947233897
 40
0.9668512158
 40
0.9750927709
 40
0.9822633538
 40
0.9883452463
 40
0.9933297149
 40
0.9972134267
 40
0.9987431956
 40
1.0
 40
1.0
 40
1.0
 40
1.0
 10
8.9979237453
 20
7.5936183973
 30
0.0
 10
8.9979239139
 20
7.5935722322
 30
0.0
 10
8.9979017925
 20
7.593472159
 30
0.0
 10
8.9978099177
 20
7.5933330902
 30
0.0
 10
8.9976642609
 20
7.5931975633
 30
0.0
 10
8.9973706082
 20
7.5930006552
 30
0.0
 10
8.9968533499
 20
7.5927667761
 30
0.0
 10
8.996062154
 20
7.5925023647
 30
0.0
 10
8.995049103
 20
7.5922362794
 30
0.0
 10
8.9938149096
 20
7.5919686088
 30
0.0
 10
8.9923593355
 20
7.5917000641
 30
0.0
 10
8.9906831465
 20
7.5914308706
 30
0.0
 10
8.9887870238
 20
7.5911612125
 30
0.0
 10
8.985823497
 20
7.5907831194
 30
0.0
 10
8.9815746267
 20
7.5903185981
 30
0.0
 10
8.9758298142
 20
7.5897822055
 30
0.0
 10
8.9692370388
 20
7.5892444452
 30
0.0
 10
8.9618125595
 20
7.5887055491
 30
0.0
 10
8.9503007856
 20
7.587951925
 30
0.0
 10
8.9339698774
 20
7.5870268649
 30
0.0
 10
8.9121526096
 20
7.5859557411
 30
0.0
 10
8.8875257891
 20
7.5848817835
 30
0.0
 10
8.8603150052
 20
7.5838062813
 30
0.0
 10
8.8307664598
 20
7.5827291351
 30
0.0
 10
8.799150451
 20
7.5816513065
 30
0.0
 10
8.7657541726
 20
7.580572844
 30
0.0
 10
8.7308814279
 20
7.5794938553
 30
0.0
 10
8.6948499509
 20
7.5784147532
 30
0.0
 10
8.6579868802
 20
7.577335396
 30
0.0
 10
8.6081464688
 20
7.5758954373
 30
0.0
 10
8.5463042204
 20
7.5741199298
 30
0.0
 10
8.4853303413
 20
7.5723215725
 30
0.0
 10
8.438259843
 20
7.5708618187
 30
0.0
 10
8.4049952677
 20
7.5697842654
 30
0.0
 10
8.3735328602
 20
7.568707587
 30
0.0
 10
8.3441574875
 20
7.5676317519
 30
0.0
 10
8.3171368881
 20
7.5665578378
 30
0.0
 10
8.2927144871
 20
7.5654855015
 30
0.0
 10
8.2711127202
 20
7.5644168236
 30
0.0
 10
8.2525265789
 20
7.5633523334
 30
0.0
 10
8.2390045164
 20
7.5624264907
 30
0.0
 10
8.2298204123
 20
7.56166629
 30
0.0
 10
8.2241911194
 20
7.5611312768
 30
0.0
 10
8.2194226815
 20
7.5605988727
 30
0.0
 10
8.2155252942
 20
7.5600692434
 30
0.0
 10
8.2128279602
 20
7.5596054713
 30
0.0
 10
8.2111160498
 20
7.5592184801
 30
0.0
 10
8.210408987
 20
7.5590227978
 30
0.0
 10
8.2100941942
 20
7.558921688
 30
0.0
 11
8.9979237453
 21
7.5936183973
 31
0.0
 11
8.9978961388
 21
7.5934826804
 31
0.0
 11
8.9978122961
 21
7.5933469649
 31
0.0
 11
8.9976721701
 21
7.5932112509
 31
0.0
 11
8.9974757132
 21
7.5930755383
 31
0.0
 11
8.9969138719
 21
7.5928041175
 31
0.0
 11
8.9961274823
 21
7.5925327024
 31
0.0
 11
8.9951174258
 21
7.5922612931
 31
0.0
 11
8.9938845836
 21
7.5919898896
 31
0.0
 11
8.9924298369
 21
7.5917184917
 31
0.0
 11
8.990754067
 21
7.5914470997
 31
0.0
 11
8.988858155
 21
7.5911757134
 31
0.0
 11
8.9867429824
 21
7.5909043328
 31
0.0
 11
8.9818583818
 21
7.590361589
 31
0.0
 11
8.9761094978
 21
7.5898188681
 31
0.0
 11
8.9695119157
 21
7.5892761703
 31
0.0
 11
8.9620823713
 21
7.5887334954
 31
0.0
 11
8.9538376003
 21
7.5881908435
 31
0.0
 11
8.9349717157
 21
7.5871056087
 31
0.0
 11
8.9130878705
 21
7.5860204658
 31
0.0
 11
8.8883892152
 21
7.5849354148
 31
0.0
 11
8.861093595
 21
7.5838504556
 31
0.0
 11
8.8314571651
 21
7.5827655882
 31
0.0
 11
8.799744759
 21
7.5816808127
 31
0.0
 11
8.7662464877
 21
7.5805961288
 31
0.0
 11
8.7312690597
 21
7.5795115367
 31
0.0
 11
8.6951271187
 21
7.5784270363
 31
0.0
 11
8.6581525805
 21
7.5773426276
 31
0.0
 11
8.6206803077
 21
7.5762583105
 31
0.0
 11
8.5456063877
 21
7.5740899513
 31
0.0
 11
8.4726285673
 21
7.5719219584
 31
0.0
 11
8.437759544
 21
7.5708380993
 31
0.0
 11
8.4043936712
 21
7.5697543318
 31
0.0
 11
8.3728355757
 21
7.5686706558
 31
0.0
 11
8.3433732561
 21
7.5675870712
 31
0.0
 11
8.3162687442
 21
7.5665035782
 31
0.0
 11
8.2917754756
 21
7.5654201767
 31
0.0
 11
8.2701083732
 21
7.5643368666
 31
0.0
 11
8.251467167
 21
7.563253648
 31
0.0
 11
8.2360226943
 21
7.5621705209
 31
0.0
 11
8.2295408653
 21
7.5616289916
 31
0.0
 11
8.2239076554
 21
7.5610874851
 31
0.0
 11
8.2191383364
 21
7.5605460016
 31
0.0
 11
8.2152419294
 21
7.5600045409
 31
0.0
 11
8.2122250216
 21
7.559463103
 31
0.0
 11
8.2110484365
 21
7.5591923927
 31
0.0
 11
8.2100941942
 21
7.558921688
 31
0.0
  0
LINE
  5
3BC
100
AcDbEntity
  8
0
100
AcDbLine
 62
6
  6
CONTINUOUS
 10
8.2100941942
 20
7.558921688
 11
8.2089980796
 21
7.5584693493
  0
SPLINE
  5
3BD
100
AcDbEntity
  8
0
100
AcDbSpline
 62
6
  6
CONTINUOUS
 70
0
 71
3
 72
10
 73
6
 74
4
 42
0.0000001
 43
0.0000001
 44
0.0000000001
 12
0.2527305063
 22
0.0186280008
 32
0.0
 13
0.2534160832
 23
0.0
 33
0.0
 40
0.0
 40
0.0
 40
0.0
 40
0.0
 40
0.4999906585
 40
0.7499958842
 40
1.0
 40
1.0
 40
1.0
 40
1.0
 10
8.3505984942
 20
7.1675981812
 30
0.0
 10
8.3927194583
 20
7.17070279
 30
0.0
 10
8.4559751966
 20
7.1744906806
 30
0.0
 10
8.5404099661
 20
7.1771451405
 30
0.0
 10
8.5826482326
 20
7.1775981812
 30
0.0
 10
8.6037665872
 20
7.1775981812
 30
0.0
 11
8.3505984942
 21
7.1675981812
 31
0.0
 11
8.4770904362
 21
7.1749545734
 31
0.0
 11
8.5404150831
 21
7.176926589
 31
0.0
 11
8.6037665872
 21
7.1775981812
 31
0.0
  0
SPLINE
  5
3BE
100
AcDbEntity
  8
0
100
AcDbSpline
 62
6
  6
CONTINUOUS
 70
0
 71
3
 72
59
 73
55
 74
53
 42
0.0000001
 43
0.0000001
 44
0.0000000001
 12
0.7354900294
 22
0.4232619584
 32
0.0
 13
-0.0236803362
 23
0.8482543902
 33
0.0
 40
0.0
 40
0.0
 40
0.0
 40
0.0
 40
0.0007775986
 40
0.0018266676
 40
0.0031546045
 40
0.0047645356
 40
0.0066578244
 40
0.0088349839
 40
0.0140407135
 40
0.0203757763
 40
0.0278244651
 40
0.0363692719
 40
0.0459922029
 40
0.0566746594
 40
0.0683919813
 40
0.0948113348
 40
0.1250080729
 40
0.1587045022
 40
0.1955809887
 40
0.2353018405
 40
0.2774894795
 40
0.3217552093
 40
0.3676838971
 40
0.4148460588
 40
0.5111054482
 40
0.5593019264
 40
0.6069431769
 40
0.6535813126
 40
0.6987830074
 40
0.7421239175
 40
0.7831977138
 40
0.8216243547
 40
0.8570372893
 40
0.8891140934
 40
0.9175473443
 40
0.94207707
 40
0.9528066396
 40
0.9624753293
 40
0.9710620424
 40
0.9785505024
 40
0.9849249983
 40
0.9876898753
 40
0.9901708386
 40
0.9923665472
 40
0.9942769582
 40
0.9959028221
 40
0.9972457245
 40
0.9983089708
 40
0.9987379589
 40
0.999100562
 40
0.9993997511
 40
0.9996409152
 40
0.9998344336
 40
1.0
 40
1.0
 40
1.0
 40
1.0
 10
8.1798527408
 20
7.6818931524
 30
0.0
 10
8.1800433794
 20
7.6820028617
 30
0.0
 10
8.1805210556
 20
7.6822067354
 30
0.0
 10
8.1813727538
 20
7.6824734162
 30
0.0
 10
8.18246871
 20
7.6827423983
 30
0.0
 10
8.1838083466
 20
7.6830130998
 30
0.0
 10
8.1853921622
 20
7.6832848746
 30
0.0
 10
8.1879875289
 20
7.6836715733
 30
0.0
 10
8.1918396985
 20
7.684142568
 30
0.0
 10
8.1971840223
 20
7.6846830837
 30
0.0
 10
8.2034767598
 20
7.6852256031
 30
0.0
 10
8.2107022994
 20
7.6857697619
 30
0.0
 10
8.2188447557
 20
7.6863149544
 30
0.0
 10
8.2278863361
 20
7.6868608748
 30
0.0
 10
8.2416745508
 20
7.6876202352
 30
0.0
 10
8.2609809975
 20
7.6885556458
 30
0.0
 10
8.2865039323
 20
7.6896417949
 30
0.0
 10
8.3149870881
 20
7.6907300585
 30
0.0
 10
8.3461659379
 20
7.691820512
 30
0.0
 10
8.3797479443
 20
7.6929119278
 30
0.0
 10
8.4154210736
 20
7.6940046078
 30
0.0
 10
8.4528509234
 20
7.695097862
 30
0.0
 10
8.4916884313
 20
7.6961917349
 30
0.0
 10
8.5452281996
 20
7.6976607784
 30
0.0
 10
8.5994101798
 20
7.6991111414
 30
0.0
 10
8.6537274814
 20
7.7005704787
 30
0.0
 10
8.6940135596
 20
7.7016654202
 30
0.0
 10
8.7334522103
 20
7.7027603879
 30
0.0
 10
8.7716739871
 20
7.7038550884
 30
0.0
 10
8.8083211689
 20
7.7049494301
 30
0.0
 10
8.8430510671
 20
7.7060433559
 30
0.0
 10
8.8755373075
 20
7.7071361671
 30
0.0
 10
8.9054771273
 20
7.7082281624
 30
0.0
 10
8.9325882625
 20
7.7093177918
 30
0.0
 10
8.9566182729
 20
7.7104052021
 30
0.0
 10
8.9746102124
 20
7.7113444364
 30
0.0
 10
8.9872956559
 20
7.712109177
 30
0.0
 10
8.9954761878
 20
7.7126562824
 30
0.0
 10
9.0027377477
 20
7.7132023937
 30
0.0
 10
9.0090646187
 20
7.713747185
 30
0.0
 10
9.0137445936
 20
7.7142187159
 30
0.0
 10
9.0170091234
 20
7.7146026041
 30
0.0
 10
9.0190962519
 20
7.7148763462
 30
0.0
 10
9.0209394519
 20
7.715149644
 30
0.0
 10
9.0225378579
 20
7.7154223426
 30
0.0
 10
9.023891333
 20
7.7156939508
 30
0.0
 10
9.0249996058
 20
7.7159643431
 30
0.0
 10
9.0257669041
 20
7.7162012994
 30
0.0
 10
9.0262538744
 20
7.7163974725
 30
0.0
 10
9.0265311211
 20
7.7165337009
 30
0.0
 10
9.026748009
 20
7.716669863
 30
0.0
 10
9.0269053837
 20
7.7168070384
 30
0.0
 10
9.0270042731
 20
7.7169483327
 30
0.0
 10
9.0270267284
 20
7.7170512897
 30
0.0
 10
9.0270254215
 20
7.7170981039
 30
0.0
 11
8.1798527408
 21
7.6818931524
 31
0.0
 11
8.1804528742
 21
7.6821674752
 31
0.0
 11
8.1812997327
 21
7.6824419377
 31
0.0
 11
8.1823926367
 21
7.6827165106
 31
0.0
 11
8.1837309068
 21
7.6829911647
 31
0.0
 11
8.1853138636
 21
7.6832658708
 31
0.0
 11
8.1871408276
 21
7.6835405995
 31
0.0
 11
8.1915240324
 21
7.684090009
 31
0.0
 11
8.1968717394
 21
7.6846392532
 31
0.0
 11
8.2031686864
 21
7.6851883741
 31
0.0
 11
8.2103988622
 21
7.6857374346
 31
0.0
 11
8.2185462557
 21
7.6862864979
 31
0.0
 11
8.2275945792
 21
7.6868356247
 31
0.0
 11
8.2375225417
 21
7.687384835
 31
0.0
 11
8.2599146713
 21
7.6884834434
 31
0.0
 11
8.2855155986
 21
7.6895821941
 31
0.0
 11
8.3140887573
 21
7.6906810309
 31
0.0
 11
8.3453622828
 21
7.6917799869
 31
0.0
 11
8.3790508718
 21
7.6928790906
 31
0.0
 11
8.4148337831
 21
7.6939783403
 31
0.0
 11
8.4523809197
 21
7.6950777291
 31
0.0
 11
8.4913397961
 21
7.6961772573
 31
0.0
 11
8.5313457817
 21
7.6972769295
 31
0.0
 11
8.6130004165
 21
7.6994767169
 31
0.0
 11
8.6538844198
 21
7.7005768352
 31
0.0
 11
8.6942970887
 21
7.7016771061
 31
0.0
 11
8.7338582029
 21
7.7027775321
 31
0.0
 11
8.7721998843
 21
7.7038781154
 31
0.0
 11
8.8089618488
 21
7.7049788577
 31
0.0
 11
8.8437990599
 21
7.706079761
 31
0.0
 11
8.8763887308
 21
7.7071808272
 31
0.0
 11
8.9064194267
 21
7.7082820583
 31
0.0
 11
8.933617025
 21
7.7093834566
 31
0.0
 11
8.9577198921
 21
7.7104850244
 31
0.0
 11
8.9785062687
 21
7.7115867638
 31
0.0
 11
8.9875945355
 21
7.7121376984
 31
0.0
 11
8.9957807181
 21
7.7126886767
 31
0.0
 11
9.0030464083
 21
7.7132396988
 31
0.0
 11
9.009377063
 21
7.7137907651
 31
0.0
 11
9.0147582164
 21
7.7143418757
 31
0.0
 11
9.0170882095
 21
7.7146174478
 31
0.0
 11
9.0191754027
 21
7.714893031
 31
0.0
 11
9.0210181533
 21
7.7151686255
 31
0.0
 11
9.0226157
 21
7.7154442313
 31
0.0
 11
9.0239675734
 21
7.7157198483
 31
0.0
 11
9.0250733045
 21
7.7159954766
 31
0.0
 11
9.0259324239
 21
7.7162711163
 31
0.0
 11
9.0262693577
 21
7.7164089405
 31
0.0
 11
9.0265444627
 21
7.7165467674
 31
0.0
 11
9.0267576802
 21
7.7166845972
 31
0.0
 11
9.0269089516
 21
7.7168224299
 31
0.0
 11
9.0269982182
 21
7.7169602655
 31
0.0
 11
9.0270254215
 21
7.7170981039
 31
0.0
  0
SPLINE
  5
3BF
100
AcDbEntity
  8
0
100
AcDbSpline
 62
6
  6
CONTINUOUS
 70
0
 71
3
 72
10
 73
6
 74
4
 42
0.0000001
 43
0.0000001
 44
0.0000000001
 12
0.2534161023
 22
0.0
 32
0.0
 13
0.2527305254
 23
-0.0186280023
 33
0.0
 40
0.0
 40
0.0
 40
0.0
 40
0.0
 40
0.2500041616
 40
0.5000082762
 40
1.0
 40
1.0
 40
1.0
 40
1.0
 10
8.6037665872
 20
7.1775981812
 30
0.0
 10
8.6248849473
 20
7.1775981812
 30
0.0
 10
8.6671231345
 20
7.177145844
 30
0.0
 10
8.751557905
 20
7.1744909038
 30
0.0
 10
8.8148136233
 20
7.1707027969
 30
0.0
 10
8.8569346803
 20
7.1675981812
 30
0.0
 11
8.6037665872
 21
7.1775981812
 31
0.0
 11
8.6671181127
 21
7.1769270552
 31
0.0
 11
8.7304424796
 21
7.1749549402
 31
0.0
 11
8.8569346803
 21
7.1675981812
 31
0.0
  0
SPLINE
  5
3C0
100
AcDbEntity
  8
0
100
AcDbSpline
 62
6
  6
CONTINUOUS
 70
0
 71
3
 72
10
 73
6
 74
4
 42
0.0000001
 43
0.0000001
 44
0.0000000001
 12
0.2534161024
 22
-0.0
 32
0.0
 13
0.2527305255
 23
0.0186280023
 33
0.0
 40
0.0
 40
0.0
 40
0.0
 40
0.0
 40
0.2500041616
 40
0.5000082762
 40
1.0
 40
1.0
 40
1.0
 40
1.0
 10
8.6037665871
 20
6.9275981812
 30
0.0
 10
8.6248849472
 20
6.9275981812
 30
0.0
 10
8.6671231344
 20
6.9280505185
 30
0.0
 10
8.751557905
 20
6.9307054587
 30
0.0
 10
8.8148136232
 20
6.9344935656
 30
0.0
 10
8.8569346803
 20
6.9375981812
 30
0.0
 11
8.6037665871
 21
6.9275981812
 31
0.0
 11
8.6671181126
 21
6.9282693073
 31
0.0
 11
8.7304424795
 21
6.9302414223
 31
0.0
 11
8.8569346803
 21
6.9375981812
 31
0.0
  0
LINE
  5
3C1
100
AcDbEntity
  8
0
100
AcDbLine
 62
6
  6
CONTINUOUS
 10
2.6452344213
 20
2.0977468653
 11
2.6457460339
 21
2.0990296455
  0
SPLINE
  5
3C2
100
AcDbEntity
  8
0
100
AcDbSpline
 62
6
  6
CONTINUOUS
 70
0
 71
3
 72
10
 73
6
 74
4
 42
0.0000001
 43
0.0000001
 44
0.0000000001
 12
0.1257202418
 22
-0.0185329172
 32
0.0
 13
0.1270789055
 23
-0.0
 33
0.0
 40
0.0
 40
0.0
 40
0.0
 40
0.0
 40
0.5010458593
 40
0.7506834772
 40
1.0
 40
1.0
 40
1.0
 40
1.0
 10
8.8569346803
 20
6.9375981812
 30
0.0
 10
8.8779318825
 20
6.9345029008
 30
0.0
 10
8.9095343544
 20
6.9307122734
 30
0.0
 10
8.9518193464
 20
6.9280519402
 30
0.0
 10
8.9729577698
 20
6.9275981812
 30
0.0
 10
8.9835187267
 20
6.9275981812
 30
0.0
 11
8.8569346803
 21
6.9375981812
 31
0.0
 11
8.9201806512
 21
6.9302417891
 31
0.0
 11
8.9518429747
 21
6.9282697735
 31
0.0
 11
8.9835187267
 21
6.9275981812
 31
0.0
  0
SPLINE
  5
3C3
100
AcDbEntity
  8
0
100
AcDbSpline
 62
6
  6
CONTINUOUS
 70
0
 71
3
 72
10
 73
6
 74
4
 42
0.0000001
 43
0.0000001
 44
0.0000000001
 12
0.1257202418
 22
0.0185329172
 32
0.0
 13
0.1270789055
 23
0.0
 33
0.0
 40
0.0
 40
0.0
 40
0.0
 40
0.0
 40
0.5010458593
 40
0.7506834772
 40
1.0
 40
1.0
 40
1.0
 40
1.0
 10
8.8569346803
 20
7.1675981812
 30
0.0
 10
8.8779318825
 20
7.1706934617
 30
0.0
 10
8.9095343544
 20
7.1744840891
 30
0.0
 10
8.9518193464
 20
7.1771444223
 30
0.0
 10
8.9729577698
 20
7.1775981812
 30
0.0
 10
8.9835187268
 20
7.1775981812
 30
0.0
 11
8.8569346803
 21
7.1675981812
 31
0.0
 11
8.9201806513
 21
7.1749545734
 31
0.0
 11
8.9518429747
 21
7.176926589
 31
0.0
 11
8.9835187268
 21
7.1775981812
 31
0.0
  0
LINE
  5
3C4
100
AcDbEntity
  8
0
100
AcDbLine
 62
6
  6
CONTINUOUS
 10
9.0421228082
 20
7.1753288032
 11
9.0464767843
 21
7.1749859367
  0
SPLINE
  5
3C5
100
AcDbEntity
  8
0
100
AcDbSpline
 62
6
  6
CONTINUOUS
 70
0
 71
3
 72
9
 73
5
 74
3
 42
0.0000001
 43
0.0000001
 44
0.0000000001
 12
0.0638491857
 22
-0.0051951748
 32
0.0
 13
0.0633752938
 23
-0.0093424023
 33
0.0
 40
0.0
 40
0.0
 40
0.0
 40
0.0
 40
0.2494985278
 40
1.0
 40
1.0
 40
1.0
 40
1.0
 10
9.0464767843
 20
7.1749859367
 30
0.0
 10
9.0517868769
 20
7.1745538739
 30
0.0
 10
9.0730534792
 20
7.1726206191
 30
0.0
 10
9.0942483562
 20
7.1699353435
 30
0.0
 10
9.1101027733
 20
7.1675981812
 30
0.0
 11
9.0464767843
 21
7.1749859367
 31
0.0
 11
9.062394384
 21
7.1735423725
 31
0.0
 11
9.1101027733
 21
7.1675981812
 31
0.0
  0
LINE
  5
3C6
100
AcDbEntity
  8
0
100
AcDbLine
 62
6
  6
CONTINUOUS
 10
8.2045735674
 20
7.432343526
 11
8.2057007324
 21
7.4318824481
  0
LINE
  5
3C7
100
AcDbEntity
  8
0
100
AcDbLine
 62
6
  6
CONTINUOUS
 10
9.0421228082
 20
6.9298675593
 11
9.0464767843
 21
6.9302104258
  0
SPLINE
  5
3C8
100
AcDbEntity
  8
0
100
AcDbSpline
 62
6
  6
CONTINUOUS
 70
0
 71
3
 72
9
 73
5
 74
3
 42
0.0000001
 43
0.0000001
 44
0.0000000001
 12
0.0638491857
 22
0.0051951748
 32
0.0
 13
0.0633752939
 23
0.0093424023
 33
0.0
 40
0.0
 40
0.0
 40
0.0
 40
0.0
 40
0.2494985278
 40
1.0
 40
1.0
 40
1.0
 40
1.0
 10
9.0464767843
 20
6.9302104258
 30
0.0
 10
9.0517868769
 20
6.9306424886
 30
0.0
 10
9.0730534792
 20
6.9325757434
 30
0.0
 10
9.0942483562
 20
6.935261019
 30
0.0
 10
9.1101027733
 20
6.9375981812
 30
0.0
 11
9.0464767843
 21
6.9302104258
 31
0.0
 11
9.062394384
 21
6.93165399
 31
0.0
 11
9.1101027733
 21
6.9375981812
 31
0.0
  0
LINE
  5
3C9
100
AcDbEntity
  8
0
100
AcDbLine
 62
6
  6
CONTINUOUS
 10
8.2023000488
 20
7.360917092
 11
8.2031891899
 21
7.3605345478
  0
LINE
  5
3CA
100
AcDbEntity
  8
0
100
AcDbLine
 62
6
  6
CONTINUOUS
 10
2.7004537811
 20
2.1012656535
 11
2.7009046797
 21
2.1001749053
  0
SPLINE
  5
3CB
100
AcDbEntity
  8
0
100
AcDbSpline
 62
6
  6
CONTINUOUS
 70
0
 71
3
 72
53
 73
49
 74
47
 42
0.0000001
 43
0.0000001
 44
0.0000000001
 12
0.2419172603
 22
-0.7512337254
 32
0.0
 13
0.7892198685
 23
0.0028408144
 33
0.0
 40
0.0
 40
0.0
 40
0.0
 40
0.0
 40
0.0012575543
 40
0.0027887907
 40
0.0066775759
 40
0.0116698747
 40
0.0177621975
 40
0.0249457217
 40
0.0332025575
 40
0.0528564962
 40
0.0765592392
 40
0.1040952637
 40
0.1352110433
 40
0.169633393
 40
0.2070400544
 40
0.2470976499
 40
0.2894401224
 40
0.3336802814
 40
0.4262412435
 40
0.5214217973
 40
0.5689161764
 40
0.6157708948
 40
0.6615625118
 40
0.7058713477
 40
0.7482999995
 40
0.7884616796
 40
0.8259902639
 40
0.8605527408
 40
0.8918269283
 40
0.9195393612
 40
0.9434368244
 40
0.9538844175
 40
0.9633028893
 40
0.9716721068
 40
0.9789722556
 40
0.9851851597
 40
0.9878807395
 40
0.9903015428
 40
0.992447162
 40
0.9943174859
 40
0.9959129068
 40
0.9972347413
 40
0.998286193
 40
0.9990749202
 40
0.9993767769
 40
0.9996233629
 40
0.9998249836
 40
1.0
 40
1.0
 40
1.0
 40
1.0
 10
2.7009046797
 20
2.1001749053
 30
0.0
 10
2.7010060877
 20
2.0998599995
 30
0.0
 10
2.7012023167
 20
2.0991524735
 30
0.0
 10
2.7015903605
 20
2.0974388242
 30
0.0
 10
2.7020553078
 20
2.0947378318
 30
0.0
 10
2.7025862303
 20
2.0908344068
 30
0.0
 10
2.7031199004
 20
2.0860578257
 30
0.0
 10
2.7036561449
 20
2.0804184087
 30
0.0
 10
2.7044180362
 20
2.0712172841
 30
0.0
 10
2.7053457897
 20
2.0576702222
 30
0.0
 10
2.7064123201
 20
2.0390504521
 30
0.0
 10
2.7074828643
 20
2.0174113216
 30
0.0
 10
2.7085569037
 20
1.9929493227
 30
0.0
 10
2.7096323446
 20
1.965888424
 30
0.0
 10
2.7107095279
 20
1.9364735374
 30
0.0
 10
2.7117873801
 20
1.9049737952
 30
0.0
 10
2.7128659243
 20
1.8716753672
 30
0.0
 10
2.7143266387
 20
1.8245697987
 30
0.0
 10
2.7161257194
 20
1.7635677205
 30
0.0
 10
2.7179016896
 20
1.7017085307
 30
0.0
 10
2.7193416643
 20
1.6518688157
 30
0.0
 10
2.7204207516
 20
1.615017092
 30
0.0
 10
2.7214993983
 20
1.579003757
 30
0.0
 10
2.7225777516
 20
1.5441553362
 30
0.0
 10
2.7236554044
 20
1.5107887232
 30
0.0
 10
2.7247322299
 20
1.4792067706
 30
0.0
 10
2.7258082092
 20
1.4496954542
 30
0.0
 10
2.7268823591
 20
1.4225238127
 30
0.0
 10
2.727954776
 20
1.3979366629
 30
0.0
 10
2.7290242217
 20
1.3761580574
 30
0.0
 10
2.7299476607
 20
1.359858139
 30
0.0
 10
2.7306998937
 20
1.3483695738
 30
0.0
 10
2.7312377276
 20
1.340961
 30
0.0
 10
2.7317743861
 20
1.3343827496
 30
0.0
 10
2.7323096261
 20
1.3286508652
 30
0.0
 10
2.7327730983
 20
1.3244117254
 30
0.0
 10
2.7331503361
 20
1.3214551641
 30
0.0
 10
2.7334193635
 20
1.3195636648
 30
0.0
 10
2.7336879167
 20
1.3178916424
 30
0.0
 10
2.7339558121
 20
1.3164397401
 30
0.0
 10
2.7342228253
 20
1.3152086847
 30
0.0
 10
2.7344882486
 20
1.3141982048
 30
0.0
 10
2.734751993
 20
1.3134089723
 30
0.0
 10
2.7349852708
 20
1.312892958
 30
0.0
 10
2.7351816374
 20
1.3125999444
 30
0.0
 10
2.7353168024
 20
1.3124545943
 30
0.0
 10
2.7354554983
 20
1.3123629091
 30
0.0
 10
2.7355553117
 20
1.3123408274
 30
0.0
 10
2.7356013538
 20
1.3123409931
 30
0.0
 11
2.7009046797
 21
2.1001749053
 31
0.0
 11
2.7011761117
 21
2.0992202495
 31
0.0
 11
2.701447538
 21
2.098042635
 31
0.0
 11
2.7019903733
 21
2.0950218956
 31
0.0
 11
2.7025331855
 21
2.0911194189
 31
0.0
 11
2.7030759748
 21
2.0863419409
 31
0.0
 11
2.703618741
 21
2.0806985651
 31
0.0
 11
2.7041614843
 21
2.0742047052
 31
0.0
 11
2.7052469018
 21
2.0587313488
 31
0.0
 11
2.7063322273
 21
2.0400560624
 31
0.0
 11
2.707417461
 21
2.0183510575
 31
0.0
 11
2.7085026027
 21
1.9938176938
 31
0.0
 11
2.7095876526
 21
1.9666723927
 31
0.0
 11
2.7106726107
 21
1.9371700641
 31
0.0
 11
2.7117574769
 21
1.9055742284
 31
0.0
 11
2.7128422514
 21
1.8721741024
 31
0.0
 11
2.7139269342
 21
1.8372755162
 31
0.0
 11
2.7160960245
 21
1.7642563028
 31
0.0
 11
2.7182647482
 21
1.6891687446
 31
0.0
 11
2.7193489725
 21
1.6517006782
 31
0.0
 11
2.7204331053
 21
1.6147376594
 31
0.0
 11
2.7215171465
 21
1.5786140333
 31
0.0
 11
2.7226010961
 21
1.5436611967
 31
0.0
 11
2.7236849541
 21
1.5101929904
 31
0.0
 11
2.7247687206
 21
1.4785149225
 31
0.0
 11
2.7258523956
 21
1.4489162576
 31
0.0
 11
2.7269359791
 21
1.4216602182
 31
0.0
 11
2.7280194711
 21
1.3970016409
 31
0.0
 11
2.7291028716
 21
1.3751571463
 31
0.0
 11
2.7301861806
 21
1.3563278086
 31
0.0
 11
2.7307278008
 21
1.348100115
 31
0.0
 11
2.7312693981
 21
1.3406865787
 31
0.0
 11
2.7318109726
 21
1.334103623
 31
0.0
 11
2.7323525242
 21
1.3283676714
 31
0.0
 11
2.732894053
 21
1.3234942872
 31
0.0
 11
2.7331648088
 21
1.3213841682
 31
0.0
 11
2.7334355589
 21
1.3194928914
 31
0.0
 11
2.7337063032
 21
1.3178212991
 31
0.0
 11
2.7339770419
 21
1.3163702338
 31
0.0
 11
2.7342477748
 21
1.3151405377
 31
0.0
 11
2.7345185021
 21
1.3141330533
 31
0.0
 11
2.7347892236
 21
1.313348623
 31
0.0
 11
2.7350599394
 21
1.3127880891
 31
0.0
 11
2.7351952951
 21
1.3125920439
 31
0.0
 11
2.7353306495
 21
1.312452212
 31
0.0
 11
2.7354660024
 21
1.3123685456
 31
0.0
 11
2.7356013538
 21
1.3123409931
 31
0.0
  0
LINE
  5
3CC
100
AcDbEntity
  8
0
100
AcDbLine
 62
6
  6
CONTINUOUS
 10
8.2000942196
 20
7.2894902431
 11
8.2012019947
 21
7.2890356855
  0
SPLINE
  5
3CD
100
AcDbEntity
  8
0
100
AcDbSpline
 62
6
  6
CONTINUOUS
 70
0
 71
3
 72
49
 73
45
 74
43
 42
0.0000001
 43
0.0000001
 44
0.0000000001
 12
0.7980630728
 22
-0.0025732217
 32
0.0
 13
0.129703217
 23
-0.7874568973
 33
0.0
 40
0.0
 40
0.0
 40
0.0
 40
0.0
 40
0.0001689546
 40
0.0003632817
 40
0.0006001606
 40
0.0008892557
 40
0.0016424559
 40
0.0026449748
 40
0.0039049437
 40
0.00542621
 40
0.0072107946
 40
0.0092596283
 40
0.0141472766
 40
0.0200802633
 40
0.0270470189
 40
0.0350349883
 40
0.0440309494
 40
0.0540166738
 40
0.0768606991
 40
0.1033710525
 40
0.1333289099
 40
0.1664671483
 40
0.2025086315
 40
0.2411407385
 40
0.2820287916
 40
0.3248266857
 40
0.369160999
 40
0.4146531458
 40
0.4609121981
 40
0.554133335
 40
0.6456284348
 40
0.7322614673
 40
0.7728149678
 40
0.8110622629
 40
0.8466694441
 40
0.8793340374
 40
0.9087801813
 40
0.9347474562
 40
0.9570260529
 40
0.9754202956
 40
0.983111202
 40
0.9897796576
 40
0.9954130593
 40
1.0
 40
1.0
 40
1.0
 40
1.0
 10
2.9320364871
 20
2.1084224576
 30
0.0
 10
2.9320814325
 20
2.1084223126
 30
0.0
 10
2.932178615
 20
2.1084004253
 30
0.0
 10
2.9323138063
 20
2.1083114611
 30
0.0
 10
2.9324456697
 20
2.1081708961
 30
0.0
 10
2.9326370747
 20
2.1078884345
 30
0.0
 10
2.9328647536
 20
2.1073914341
 30
0.0
 10
2.9331220866
 20
2.1066312669
 30
0.0
 10
2.9333810133
 20
2.1056578765
 30
0.0
 10
2.9336414261
 20
2.1044713169
 30
0.0
 10
2.933902709
 20
2.1030708149
 30
0.0
 10
2.9342739876
 20
2.1007805663
 30
0.0
 10
2.9347264749
 20
2.0973864459
 30
0.0
 10
2.9352464052
 20
2.0926830525
 30
0.0
 10
2.9357682031
 20
2.0871508108
 30
0.0
 10
2.9362915498
 20
2.0808008194
 30
0.0
 10
2.9368157372
 20
2.0736453811
 30
0.0
 10
2.9375486997
 20
2.0625429004
 30
0.0
 10
2.9384489907
 20
2.0467825175
 30
0.0
 10
2.9394913188
 20
2.0257093288
 30
0.0
 10
2.940535667
 20
2.0018947952
 30
0.0
 10
2.94158243
 20
1.9755427066
 30
0.0
 10
2.9426301321
 20
1.9468814501
 30
0.0
 10
2.9436787709
 20
1.9161573314
 30
0.0
 10
2.9447281474
 20
1.8836348991
 30
0.0
 10
2.9457777453
 20
1.8495948106
 30
0.0
 10
2.9468277727
 20
1.8143293849
 30
0.0
 10
2.9478779059
 20
1.7781428213
 30
0.0
 10
2.9492817046
 20
1.7289560626
 30
0.0
 10
2.9510139001
 20
1.6675358804
 30
0.0
 10
2.9530859862
 20
1.5953806371
 30
0.0
 10
2.9548451067
 20
1.5372329673
 30
0.0
 10
2.9562744896
 20
1.4932470602
 30
0.0
 10
2.9573218514
 20
1.462829977
 30
0.0
 10
2.9583682273
 20
1.4345128065
 30
0.0
 10
2.9594131882
 20
1.4085385995
 30
0.0
 10
2.9604557232
 20
1.3851309939
 30
0.0
 10
2.9614954468
 20
1.3644891605
 30
0.0
 10
2.9625305606
 20
1.3467914592
 30
0.0
 10
2.9634310118
 20
1.3339565496
 30
0.0
 10
2.9641717719
 20
1.3252747432
 30
0.0
 10
2.9646919582
 20
1.3199814894
 30
0.0
 10
2.9652097269
 20
1.315518416
 30
0.0
 10
2.9655907693
 20
1.3128257802
 30
0.0
 10
2.965789083
 20
1.3116217742
 30
0.0
 11
2.9320364871
 21
2.1084224576
 31
0.0
 11
2.9321685073
 21
2.1083950403
 31
0.0
 11
2.9323005262
 21
2.1083136603
 31
0.0
 11
2.9324325437
 21
2.1081783477
 31
0.0
 11
2.9325645598
 21
2.107989133
 31
0.0
 11
2.932828588
 21
2.1074491185
 31
0.0
 11
2.9330926106
 21
2.1066938596
 31
0.0
 11
2.9333566276
 21
2.1057235991
 31
0.0
 11
2.9336206392
 21
2.1045385798
 31
0.0
 11
2.9338846452
 21
2.1031390445
 31
0.0
 11
2.9341486458
 21
2.1015253907
 31
0.0
 11
2.9346766303
 21
2.0976606173
 31
0.0
 11
2.9352045928
 21
2.0929552221
 31
0.0
 11
2.9357325333
 21
2.0874204047
 31
0.0
 11
2.9362604518
 21
2.0810673646
 31
0.0
 11
2.9367883483
 21
2.0739074172
 31
0.0
 11
2.9373162228
 21
2.06595564
 31
0.0
 11
2.9383719059
 21
2.0477551629
 31
0.0
 11
2.9394275012
 21
2.0266244688
 31
0.0
 11
2.9404830087
 21
2.0027393955
 31
0.0
 11
2.9415384286
 21
1.9763139217
 31
0.0
 11
2.942593761
 21
1.9475697619
 31
0.0
 11
2.9436490059
 21
1.9167568077
 31
0.0
 11
2.9447041634
 21
1.8841424568
 31
0.0
 11
2.9457592336
 21
1.8500031599
 31
0.0
 11
2.9468142166
 21
1.8146371295
 31
0.0
 11
2.9478691125
 21
1.778346667
 31
0.0
 11
2.9489239213
 21
1.7414439056
 31
0.0
 11
2.951033278
 21
1.667077081
 31
0.0
 11
2.9531422874
 21
1.5940883045
 31
0.0
 11
2.9552509501
 21
1.5249814844
 31
0.0
 11
2.9563051516
 21
1.4926342387
 31
0.0
 11
2.9573592667
 21
1.462128533
 31
0.0
 11
2.9584132954
 21
1.4337311634
 31
0.0
 11
2.9594672377
 21
1.4076839362
 31
0.0
 11
2.9605210938
 21
1.3842075759
 31
0.0
 11
2.9615748637
 21
1.3635107537
 31
0.0
 11
2.9626285476
 21
1.3457621856
 31
0.0
 11
2.9636821453
 21
1.3311202016
 31
0.0
 11
2.964208912
 21
1.3250049873
 31
0.0
 11
2.9647356571
 21
1.3197092435
 31
0.0
 11
2.9652623808
 21
1.3152443719
 31
0.0
 11
2.965789083
 21
1.3116217742
 31
0.0
  0
SPLINE
  5
3CE
100
AcDbEntity
  8
0
100
AcDbSpline
 62
6
  6
CONTINUOUS
 70
0
 71
3
 72
12
 73
8
 74
6
 42
0.0000001
 43
0.0000001
 44
0.0000000001
 12
0.0009236688
 22
-0.0056077973
 32
0.0
 13
0.0028434525
 23
-0.0049209077
 33
0.0
 40
0.0
 40
0.0
 40
0.0
 40
0.0
 40
0.3475052393
 40
0.6293424088
 40
0.8462105682
 40
0.930796281
 40
1.0
 40
1.0
 40
1.0
 40
1.0
 10
2.965789083
 20
1.3116217742
 30
0.0
 10
2.9658960762
 20
1.3109721945
 30
0.0
 10
2.9661044204
 20
1.3097979207
 30
0.0
 10
2.9664478453
 20
1.3082318002
 30
0.0
 10
2.9667494455
 20
1.3071668494
 30
0.0
 10
2.9670016634
 20
1.3065110767
 30
0.0
 10
2.9671291428
 20
1.306248314
 30
0.0
 10
2.9671947353
 20
1.306134799
 30
0.0
 11
2.965789083
 21
1.3116217742
 31
0.0
 11
2.9661405104
 21
1.3096782953
 31
0.0
 11
2.9664919282
 21
1.3081155383
 31
0.0
 11
2.9668433365
 21
1.3069341555
 31
0.0
 11
2.9670190371
 21
1.3064866832
 31
0.0
 11
2.9671947353
 21
1.306134799
 31
0.0
  0
SPLINE
  5
3CF
100
AcDbEntity
  8
0
100
AcDbSpline
 62
6
  6
CONTINUOUS
 70
0
 71
3
 72
12
 73
8
 74
6
 42
0.0000001
 43
0.0000001
 44
0.0000000001
 12
0.0031782753
 22
-0.0055030039
 32
0.0
 13
0.000957796
 23
-0.0062822856
 33
0.0
 40
0.0
 40
0.0
 40
0.0
 40
0.0
 40
0.066178106
 40
0.1485833278
 40
0.3637154853
 40
0.6473069404
 40
1.0
 40
1.0
 40
1.0
 40
1.0
 10
2.6106092691
 20
2.1308900601
 30
0.0
 10
2.6106793799
 20
2.1307686673
 30
0.0
 10
2.6108147664
 20
2.1304835298
 30
0.0
 10
2.6110822158
 20
2.1297605077
 30
0.0
 10
2.6114001417
 20
2.1285690937
 30
0.0
 10
2.611762025
 20
2.1268020581
 30
0.0
 10
2.611980805
 20
2.125471695
 30
0.0
 10
2.6120934076
 20
2.1247331221
 30
0.0
 11
2.6106092691
 21
2.1308900601
 31
0.0
 11
2.6107947971
 21
2.1305126413
 31
0.0
 11
2.610980322
 21
2.130022931
 31
0.0
 11
2.6113513627
 21
2.1287071053
 31
0.0
 11
2.6117223913
 21
2.1269435225
 31
0.0
 11
2.6120934076
 21
2.1247331221
 31
0.0
  0
SPLINE
  5
3D0
100
AcDbEntity
  8
0
100
AcDbSpline
 62
6
  6
CONTINUOUS
 70
0
 71
3
 72
39
 73
35
 74
33
 42
0.0000001
 43
0.0000001
 44
0.0000000001
 12
0.1268136647
 22
-0.8317843021
 32
0.0
 13
0.2591905774
 23
-0.8004792786
 33
0.0
 40
0.0
 40
0.0
 40
0.0
 40
0.0
 40
0.0045422749
 40
0.0100760843
 40
0.0165904408
 40
0.0240734183
 40
0.0418938194
 40
0.0633984248
 40
0.0884077187
 40
0.1167299297
 40
0.1481279121
 40
0.1823502086
 40
0.2581397263
 40
0.341645766
 40
0.4301638683
 40
0.5208309456
 40
0.6107163214
 40
0.6969138682
 40
0.737750694
 40
0.7766372882
 40
0.8132584946
 40
0.8473146194
 40
0.8785381432
 40
0.906669329
 40
0.9314868055
 40
0.952792837
 40
0.9704102303
 40
0.977795606
 40
0.984212616
 40
0.9896473069
 40
0.9940899012
 40
0.9975389359
 40
0.9988922157
 40
1.0
 40
1.0
 40
1.0
 40
1.0
 10
2.6120934076
 20
2.1247331221
 30
0.0
 10
2.6122854151
 20
2.1234737245
 30
0.0
 10
2.6126555256
 20
2.1206715558
 30
0.0
 10
2.6131600829
 20
2.1160457637
 30
0.0
 10
2.6136667719
 20
2.1105912439
 30
0.0
 10
2.6143869356
 20
2.1016964404
 30
0.0
 10
2.6152632784
 20
2.0885971628
 30
0.0
 10
2.6162710269
 20
2.0705816205
 30
0.0
 10
2.6172829224
 20
2.0496169307
 30
0.0
 10
2.6182972607
 20
2.0258748318
 30
0.0
 10
2.6193137743
 20
1.9995467856
 30
0.0
 10
2.6207187923
 20
1.9599110977
 30
0.0
 10
2.6224412406
 20
1.9056632465
 30
0.0
 10
2.6244520419
 20
1.8361891843
 30
0.0
 10
2.6264661718
 20
1.7625409435
 30
0.0
 10
2.6284816133
 20
1.6871029212
 30
0.0
 10
2.6304962598
 20
1.6123159449
 30
0.0
 10
2.6322015443
 20
1.5515013627
 30
0.0
 10
2.6335846761
 20
1.5049868431
 30
0.0
 10
2.6346026881
 20
1.4723720868
 30
0.0
 10
2.6356197662
 20
1.441660025
 30
0.0
 10
2.6366360682
 20
1.4130984159
 30
0.0
 10
2.6376505625
 20
1.386919513
 30
0.0
 10
2.638663452
 20
1.3633337966
 30
0.0
 10
2.6396731197
 20
1.3425322574
 30
0.0
 10
2.6406783331
 20
1.3246832503
 30
0.0
 10
2.641552965
 20
1.3117241821
 30
0.0
 10
2.6422714654
 20
1.3029411906
 30
0.0
 10
2.6427768473
 20
1.2975694453
 30
0.0
 10
2.643279599
 20
1.2930268038
 30
0.0
 10
2.6437800365
 20
1.2893226649
 30
0.0
 10
2.6442183975
 20
1.2867656437
 30
0.0
 10
2.6445844499
 20
1.2851486642
 30
0.0
 10
2.6447695086
 20
1.2844831105
 30
0.0
 10
2.6448652177
 20
1.2841875244
 30
0.0
 11
2.6120934076
 21
2.1247331221
 31
0.0
 11
2.6126061658
 21
2.1209458246
 31
0.0
 11
2.6131189007
 21
2.1163180182
 31
0.0
 11
2.6136316125
 21
2.1108608987
 31
0.0
 11
2.6141443011
 21
2.1045856617
 31
0.0
 11
2.6151696091
 21
2.0896267486
 31
0.0
 11
2.6161948249
 21
2.071561933
 31
0.0
 11
2.6172199487
 21
2.0505442039
 31
0.0
 11
2.6182449806
 21
2.0267360712
 31
0.0
 11
2.6192699209
 21
2.0003378316
 31
0.0
 11
2.62029477
 21
1.9715615802
 31
0.0
 11
2.6223441956
 21
1.907825542
 31
0.0
 11
2.6243932584
 21
1.8375937992
 31
0.0
 11
2.6264419591
 21
1.7631432252
 31
0.0
 11
2.6284902996
 21
1.6868838349
 31
0.0
 11
2.6305382812
 21
1.6112823945
 31
0.0
 11
2.6325859072
 21
1.5387850547
 31
0.0
 11
2.6336095909
 21
1.5044403752
 31
0.0
 11
2.6346331842
 21
1.4717373747
 31
0.0
 11
2.6356566796
 21
1.4409414499
 31
0.0
 11
2.6366800804
 21
1.412305052
 31
0.0
 11
2.6377034133
 21
1.3860536496
 31
0.0
 11
2.6387267002
 21
1.3624063189
 31
0.0
 11
2.6397498823
 21
1.3415500823
 31
0.0
 11
2.6407728521
 21
1.3236524887
 31
0.0
 11
2.6417956327
 21
1.3088646159
 31
0.0
 11
2.6423070595
 21
1.3026716736
 31
0.0
 11
2.6428185781
 21
1.2972967135
 31
0.0
 11
2.6433302388
 21
1.2927527037
 31
0.0
 11
2.6438420165
 21
1.2890499239
 31
0.0
 11
2.6443537391
 21
1.2861933941
 31
0.0
 11
2.6446095207
 21
1.2850838511
 31
0.0
 11
2.6448652177
 21
1.2841875244
 31
0.0
  0
SPLINE
  5
3D1
100
AcDbEntity
  8
0
100
AcDbSpline
 62
6
  6
CONTINUOUS
 70
0
 71
3
 72
11
 73
7
 74
5
 42
0.0000001
 43
0.0000001
 44
0.0000000001
 12
0.00052984
 22
-0.001636348
 32
0.0
 13
0.0016597585
 23
-0.0004511839
 33
0.0
 40
0.0
 40
0.0
 40
0.0
 40
0.0
 40
0.3632637589
 40
0.6458278821
 40
0.8532051904
 40
1.0
 40
1.0
 40
1.0
 40
1.0
 10
2.6448652177
 20
1.2841875244
 30
0.0
 10
2.6449293749
 20
1.2839893824
 30
0.0
 10
2.6450530269
 20
1.2836400517
 30
0.0
 10
2.6452626853
 20
1.2831962189
 30
0.0
 10
2.6454686309
 20
1.2828934969
 30
0.0
 10
2.645640801
 20
1.2827673066
 30
0.0
 10
2.6457220157
 20
1.2827452295
 30
0.0
 11
2.6448652177
 21
1.2841875244
 31
0.0
 11
2.6450795662
 21
1.2836006324
 31
0.0
 11
2.6452938247
 21
1.2831644025
 31
0.0
 11
2.6455079791
 21
1.2828791598
 31
0.0
 11
2.6457220157
 21
1.2827452295
 31
0.0
  0
ENDSEC
  0
SECTION
  2
OBJECTS
  0
DICTIONARY
  5
C
100
AcDbDictionary
280
0
281
1
  3
ACAD_GROUP
350
D
  3
ACAD_MLINESTYLE
350
17
  3
ACAD_LAYOUT
350
1A
  3
ACAD_PLOTSETTINGS
350
19
  3
ACAD_PLOTSTYLENAME
350
E
  0
DICTIONARY
  5
D
102
{ACAD_REACTORS
330
C
102
}
100
AcDbDictionary
280
0
281
1
  0
ACDBDICTIONARYWDFLT
  5
E
102
{ACAD_REACTORS
330
C
102
}
100
AcDbDictionary
281
1
  3
Normal
350
F
100
AcDbDictionaryWithDefault
340
F
  0
DICTIONARY
  5
17
102
{ACAD_REACTORS
330
C
102
}
100
AcDbDictionary
280
0
281
1
  3
Standard
350
18
  0
DICTIONARY
  5
19
102
{ACAD_REACTORS
330
C
102
}
100
AcDbDictionary
281
1
  0
DICTIONARY
  5
1A
102
{ACAD_REACTORS
330
C
102
}
100
AcDbDictionary
281
1
  3
Model
350
3D2
  3
Layout1
350
3D3
  0
ACDBPLACEHOLDER
  5
F
102
{ACAD_REACTORS
330
E
102
}
  0
MLINESTYLE
  5
18
102
{ACAD_REACTORS
330
17
102
}
100
AcDbMlineStyle
  2
STANDARD
 70
0
  3

 62
256
 51
90.0
 52
90.0
 71
2
 49
0.5
 62
256
  6
BYLAYER
 49
-0.5
 62
256
  6
BYLAYER
  0
LAYOUT
  5
3D2
102
{ACAD_REACTORS
330
1A
102
}
100
AcDbPlotSettings
  1

  2
none_device
  4
ISO_A4_(297.00_x_210.00_MM)
  6

 40
0.0
 41
0.0
 42
0.0
 43
0.0
 44
297.0
 45
210.0
 46
0.0
 47
0.0
 48
0.0
 49
0.0
140
0.0
141
0.0
142
1.0
143
1.0
 70
1024
 72
0
 73
0
 74
0
  7

 75
0
147
1.0
148
0.0
149
0.0
100
AcDbLayout
  1
Model
 70
0
 71
0
 10
0.0
 20
0.0
 11
11.6929133858
 21
8.2677165354
 12
0.0
 22
0.0
 32
0.0
 14
0.0
 24
0.0
 34
0.0
 15
0.0
 25
0.0
 35
0.0
146
0.0
 13
0.0
 23
0.0
 33
0.0
 16
1.0
 26
0.0
 36
0.0
 17
0.0
 27
1.0
 37
0.0
 76
0
330
204
345
0
346
0
  0
LAYOUT
  5
3D3
102
{ACAD_REACTORS
330
1A
102
}
100
AcDbPlotSettings
  1

  2
none_device
  4
ISO_A4_(297.00_x_210.00_MM)
  6

 40
0.0
 41
0.0
 42
0.0
 43
0.0
 44
297.0
 45
210.0
 46
0.0
 47
0.0
 48
0.0
 49
0.0
140
0.0
141
0.0
142
1.0
143
1.0
 70
0
 72
0
 73
0
 74
0
  7

 75
0
147
1.0
148
0.0
149
0.0
100
AcDbLayout
  1
Layout1
 70
0
 71
1
 10
0.0
 20
0.0
 11
11.6929133858
 21
8.2677165354
 12
0.0
 22
0.0
 32
0.0
 14
0.0
 24
0.0
 34
0.0
 15
0.0
 25
0.0
 35
0.0
146
0.0
 13
0.0
 23
0.0
 33
0.0
 16
1.0
 26
0.0
 36
0.0
 17
0.0
 27
1.0
 37
0.0
 76
0
330
205
345
0
346
0
  0
ENDSEC
  0
EOF
