  0
SECTION
  2
HEADER
  9
$ACADVER
  1
AC1015
  9
$DWGCODEPAGE
  3
ANSI_1252
  9
$EXTMAX
 10
11.6929133858
 20
8.2677165354
 30
0.0
  9
$EXTMIN
 10
0.0
 20
0.0
 30
0.0
  9
$LIMMIN
 10
0.0
 20
0.0
  9
$LIMMAX
 10
11.6929133858
 20
8.2677165354
  9
$VIEWCTR
 10
5.8464566929
 20
4.1338582677
  9
$VIEWSIZE
 40
8.2677165354
  9
$CLAYER
  8
0
  9
$LTSCALE
 40
0.6431102362
  9
$CELTYPE
  6
BYLAYER
  9
$DIMSCALE
 40
1.0
  9
$DIMASZ
 40
0.1
  9
$DIMEXO
 40
0.0730807087
  9
$DIMDLI
 40
0.4443307087
  9
$DIMEXE
 40
0.2104724409
  9
$DIMCEN
 40
0.1052362205
  9
$DIMLFAC
 40
1.0
  9
$DIMBLK
  1
_FILLED
  9
$DIMTXT
 40
0.08
  9
$DIMTOL
 70
1
  9
$DIMLIM
 70
0
  9
$DIMTFAC
 40
1.0
  9
$DIMTP
 40
0.01
  9
$DIMTM
 40
0.01
  9
$PDMODE
 70
3
  9
$PDSIZE
 40
0.06
  9
$HANDSEED
  5
36B
  9
$TILEMODE
 70
1
  9
$MEASUREMENT
 70
0
  9
$INSUNITS
 70
1
  0
ENDSEC
  0
SECTION
  2
CLASSES
  0
CLASS
  1
ACDBDICTIONARYWDFLT
  2
AcDbDictionaryWithDefault
  3
AutoCAD 2000
 90
0
280
0
281
0
  0
CLASS
  1
ACDBPLACEHOLDER
  2
AcDbPlaceHolder
  3
AutoCAD 2000
 90
0
280
0
281
0
  0
CLASS
  1
LAYOUT
  2
AcDbLayout
  3
AutoCAD 2000
 90
0
280
0
281
0
  0
ENDSEC
  0
SECTION
  2
TABLES
  0
TABLE
  2
VPORT
  5
8
100
AcDbSymbolTable
 70
2
  0
VPORT
  5
1F4
100
AcDbSymbolTableRecord
100
AcDbViewportTableRecord
  2
*ACTIVE
 70
0
 10
0.0
 20
0.0
 11
1.0
 21
1.0
 12
5.8464566929
 22
4.1338582677
 13
0.0
 23
0.0
 14
1.0
 24
1.0
 15
0.0
 25
0.0
 16
0.0
 26
0.0
 36
1.0
 17
0.0
 27
0.0
 37
0.0
 40
8.2677165354
 41
1.4142857143
 42
50.0
 43
0.0
 44
0.0
 50
0.0
 51
0.0
 71
0
 72
100
 73
1
 74
1
 75
0
 76
0
 77
0
 78
0
  0
ENDTAB
  0
TABLE
  2
LTYPE
  5
5
100
AcDbSymbolTable
 70
6
  0
LTYPE
  5
14
100
AcDbSymbolTableRecord
100
AcDbLinetypeTableRecord
  2
BYBLOCK
 70
0
  3

 72
65
 73
0
 40
0.0
  0
LTYPE
  5
15
100
AcDbSymbolTableRecord
100
AcDbLinetypeTableRecord
  2
BYLAYER
 70
0
  3

 72
65
 73
0
 40
0.0
  0
LTYPE
  5
16
100
AcDbSymbolTableRecord
100
AcDbLinetypeTableRecord
  2
CONTINUOUS
 70
64
  3
Solid line
 72
65
 73
0
 40
0.0
  0
LTYPE
  5
1F5
100
AcDbSymbolTableRecord
100
AcDbLinetypeTableRecord
  2
CENTER
 70
64
  3
____ _ ____ _ ____ _ ____ _ ____ _ ____ _ ____
 72
65
 73
4
 40
0.6
 49
0.375
 74
0
 49
-0.075
 74
0
 49
0.075
 74
0
 49
-0.075
 74
0
  0
LTYPE
  5
1F6
100
AcDbSymbolTableRecord
100
AcDbLinetypeTableRecord
  2
HIDDEN
 70
64
  3
- - - - - - - - - - - - - - - - - - - -
 72
65
 73
2
 40
0.2
 49
0.1
 74
0
 49
-0.1
 74
0
  0
LTYPE
  5
1F7
100
AcDbSymbolTableRecord
100
AcDbLinetypeTableRecord
  2
PHANTOM
 70
64
  3
_____ _ _ _____ _ _ _____ _ _ _____
 72
65
 73
6
 40
0.8
 49
0.45
 74
0
 49
-0.05
 74
0
 49
0.1
 74
0
 49
-0.05
 74
0
 49
0.1
 74
0
 49
-0.05
 74
0
  0
LTYPE
  5
1F8
100
AcDbSymbolTableRecord
100
AcDbLinetypeTableRecord
  2
DOT
 70
64
  3
. . . . . . . . . . . . . . . . . . . .
 72
65
 73
2
 40
0.2
 49
0.1
 74
0
 49
-0.1
 74
0
  0
LTYPE
  5
1F9
100
AcDbSymbolTableRecord
100
AcDbLinetypeTableRecord
  2
DASHED
 70
64
  3
- - - - - - - - - - - - - - - - - - - -
 72
65
 73
2
 40
0.2
 49
0.1
 74
0
 49
-0.1
 74
0
  0
ENDTAB
  0
TABLE
  2
LAYER
  5
2
100
AcDbSymbolTable
 70
36
  0
LAYER
  5
10
100
AcDbSymbolTableRecord
100
AcDbLayerTableRecord
  2
0
 70
0
 62
7
  6
CONTINUOUS
370
-3
390
F
  0
LAYER
  5
1FA
100
AcDbSymbolTableRecord
100
AcDbLayerTableRecord
  2
DEFAULT_1
 70
0
 62
7
  6
CENTER
370
-3
390
F
  0
LAYER
  5
1FB
100
AcDbSymbolTableRecord
100
AcDbLayerTableRecord
  2
DEFAULT_2
 70
0
 62
8
  6
HIDDEN
370
-3
390
F
  0
LAYER
  5
1FC
100
AcDbSymbolTableRecord
100
AcDbLayerTableRecord
  2
DEFAULT_3
 70
0
 62
7
  6
PHANTOM
370
-3
390
F
  0
LAYER
  5
1FD
100
AcDbSymbolTableRecord
100
AcDbLayerTableRecord
  2
3_ALL_SYMBOLS
 70
0
 62
7
  6
CONTINUOUS
370
-3
390
F
  0
LAYER
  5
1FE
100
AcDbSymbolTableRecord
100
AcDbLayerTableRecord
  2
DEFAULT_COORDINATE_SYSTEM
 70
0
 62
7
  6
CONTINUOUS
370
-3
390
F
  0
LAYER
  5
1FF
100
AcDbSymbolTableRecord
100
AcDbLayerTableRecord
  2
DEFAULT_DATUM_AXES
 70
0
 62
7
  6
CONTINUOUS
370
-3
390
F
  0
LAYER
  5
200
100
AcDbSymbolTableRecord
100
AcDbLayerTableRecord
  2
DEFAULT_DATUM_CURVES
 70
0
 62
7
  6
CONTINUOUS
370
-3
390
F
  0
LAYER
  5
201
100
AcDbSymbolTableRecord
100
AcDbLayerTableRecord
  2
DEFAULT_DATUM_PLANES
 70
0
 62
7
  6
CONTINUOUS
370
-3
390
F
  0
ENDTAB
  0
TABLE
  2
STYLE
  5
3
100
AcDbSymbolTable
 70
1
  0
STYLE
  5
11
100
AcDbSymbolTableRecord
100
AcDbTextStyleTableRecord
  2
STANDARD
 70
0
 40
0.0
 41
0.8
 50
0.0
 71
0
 42
0.2
  3
txt
  4

  0
STYLE
  5
202
100
AcDbSymbolTableRecord
100
AcDbTextStyleTableRecord
  2
TEXTSTYLE_1
 70
0
 40
0.0
 41
0.8
 50
0.0
 71
0
 42
0.2
  3
gdt
  4

  0
ENDTAB
  0
TABLE
  2
VIEW
  5
6
100
AcDbSymbolTable
 70
0
  0
ENDTAB
  0
TABLE
  2
UCS
  5
7
100
AcDbSymbolTable
 70
0
  0
ENDTAB
  0
TABLE
  2
APPID
  5
9
100
AcDbSymbolTable
 70
1
  0
APPID
  5
203
100
AcDbSymbolTableRecord
100
AcDbRegAppTableRecord
  2
ACAD
 70
0
  0
ENDTAB
  0
TABLE
  2
BLOCK_RECORD
  5
1
100
AcDbSymbolTable
 70
0
  0
BLOCK_RECORD
  5
204
100
AcDbSymbolTableRecord
100
AcDbBlockTableRecord
  2
*Model_Space
  0
BLOCK_RECORD
  5
205
100
AcDbSymbolTableRecord
100
AcDbBlockTableRecord
  2
*Paper_Space
  0
ENDTAB
  0
TABLE
  2
DIMSTYLE
  5
A
100
AcDbSymbolTable
 70
1
100
AcDbDimStyleTable
 71
0
  0
DIMSTYLE
105
206
100
AcDbSymbolTableRecord
100
AcDbDimStyleTableRecord
  2
STANDARD
 70
0
  3

  4

 40
1.0
 41
0.1
 42
0.0625
 43
0.38
 44
0.18
 45
0.0
 46
0.0
 47
0.01
 48
0.01
140
0.08
141
0.09
142
0.0
143
25.4
144
1.0
145
0.0
146
1.0
147
0.09
 71
1.0
 72
0.0
 73
1
 74
1
 75
0
 76
0
 77
0
 78
4
170
0
171
2
172
0
173
0
174
0
175
0
176
0
177
0
178
0
270
2
271
2
272
2
273
2
274
2
275
0
280
0
281
0
282
0
283
1
284
4
285
0
286
0
287
3
288
0
340
11
  0
ENDTAB
  0
ENDSEC
  0
SECTION
  2
BLOCKS
  0
BLOCK
  5
20
100
AcDbEntity
  8
0
100
AcDbBlockBegin
  2
*Model_Space
 70
0
 10
0.0
 20
0.0
 30
0.0
  3
*Model_Space
  1

  0
ENDBLK
  5
21
100
AcDbEntity
  8
0
100
AcDbBlockEnd
  0
BLOCK
  5
1C
100
AcDbEntity
  8
0
100
AcDbBlockBegin
  2
*Paper_Space
 70
0
 10
0.0
 20
0.0
 30
0.0
  3
*Paper_Space
  1

  0
ENDBLK
  5
1D
100
AcDbEntity
  8
0
100
AcDbBlockEnd
  0
ENDSEC
  0
SECTION
  2
ENTITIES
  0
LINE
  5
207
100
AcDbEntity
  8
0
100
AcDbLine
 62
6
  6
CONTINUOUS
 10
2.4765055856
 20
3.1666117898
 11
2.4765055856
 21
3.9119791267
  0
LINE
  5
208
100
AcDbEntity
  8
0
100
AcDbLine
 62
6
  6
CONTINUOUS
 10
2.5429097143
 20
3.1495806262
 11
2.5623563038
 21
3.115936172
  0
LINE
  5
209
100
AcDbEntity
  8
0
100
AcDbLine
 62
6
  6
CONTINUOUS
 10
2.614343214
 20
3.147296091
 11
2.6337554814
 21
3.1137105721
  0
LINE
  5
20A
100
AcDbEntity
  8
0
100
AcDbLine
 62
6
  6
CONTINUOUS
 10
2.5140535748
 20
3.1290638006
 11
2.4765055856
 21
3.1666117898
  0
LINE
  5
20B
100
AcDbEntity
  8
0
100
AcDbLine
 62
6
  6
CONTINUOUS
 10
2.6857761365
 20
3.1450774995
 11
2.7051924937
 21
3.1114845341
  0
LINE
  5
20C
100
AcDbEntity
  8
0
100
AcDbLine
 62
6
  6
CONTINUOUS
 10
2.7572129402
 20
3.1429287051
 11
2.77667799
 21
3.1092505909
  0
LINE
  5
20D
100
AcDbEntity
  8
0
100
AcDbLine
 62
6
  6
CONTINUOUS
 10
2.8286424158
 20
3.1406733643
 11
2.8480869767
 21
3.1070307878
  0
LINE
  5
20E
100
AcDbEntity
  8
0
100
AcDbLine
 62
6
  6
CONTINUOUS
 10
2.9000755596
 20
3.1383873048
 11
2.9194846717
 21
3.1048056716
  0
LINE
  5
20F
100
AcDbEntity
  8
0
100
AcDbLine
 62
6
  6
CONTINUOUS
 10
2.5429097143
 20
3.1495806262
 11
2.543482966
 21
3.1490846721
  0
LINE
  5
210
100
AcDbEntity
  8
0
100
AcDbLine
 62
6
  6
CONTINUOUS
 10
2.614343214
 20
3.147296091
 11
2.6149131197
 21
3.1468030253
  0
LINE
  5
211
100
AcDbEntity
  8
0
100
AcDbLine
 62
6
  6
CONTINUOUS
 10
2.6857761365
 20
3.1450774995
 11
2.6863428495
 21
3.1445871914
  0
LINE
  5
212
100
AcDbEntity
  8
0
100
AcDbLine
 62
6
  6
CONTINUOUS
 10
2.7572129402
 20
3.1429287051
 11
2.7577766209
 21
3.1424410025
  0
LINE
  5
213
100
AcDbEntity
  8
0
100
AcDbLine
 62
6
  6
CONTINUOUS
 10
2.7766779697
 20
3.1092505915
 11
2.7771817155
 21
3.1088071112
  0
LINE
  5
214
100
AcDbEntity
  8
0
100
AcDbLine
 62
6
  6
CONTINUOUS
 10
2.6337554814
 20
3.1137105721
 11
2.6342709934
 21
3.1132565665
  0
LINE
  5
215
100
AcDbEntity
  8
0
100
AcDbLine
 62
6
  6
CONTINUOUS
 10
2.7051924938
 20
3.1114845341
 11
2.7057058705
 21
3.1110324766
  0
LINE
  5
216
100
AcDbEntity
  8
0
100
AcDbLine
 62
6
  6
CONTINUOUS
 10
2.5628747914
 20
3.1154794523
 11
2.5623563035
 21
3.115936172
  0
LINE
  5
217
100
AcDbEntity
  8
0
100
AcDbLine
 62
6
  6
CONTINUOUS
 10
2.8480869764
 20
3.1070307878
 11
2.8485945487
 21
3.1065837074
  0
LINE
  5
218
100
AcDbEntity
  8
0
100
AcDbLine
 62
6
  6
CONTINUOUS
 10
2.5619098699
 20
3.9301521419
 11
2.5434810474
 21
3.9620331004
  0
LINE
  5
219
100
AcDbEntity
  8
0
100
AcDbLine
 62
6
  6
CONTINUOUS
 10
2.6333361218
 20
3.9324109262
 11
2.6149255949
 21
3.9642607164
  0
LINE
  5
21A
100
AcDbEntity
  8
0
100
AcDbLine
 62
6
  6
CONTINUOUS
 10
2.7047629011
 20
3.9346167854
 11
2.6863410226
 21
3.9664866214
  0
LINE
  5
21B
100
AcDbEntity
  8
0
100
AcDbLine
 62
6
  6
CONTINUOUS
 10
2.9715083852
 20
3.1361733492
 11
2.9909243187
 21
3.1025795608
  0
LINE
  5
21C
100
AcDbEntity
  8
0
100
AcDbLine
 62
6
  6
CONTINUOUS
 10
3.0345055856
 20
3.1007954582
 11
3.0345055856
 21
3.9777954582
  0
LINE
  5
21D
100
AcDbEntity
  8
0
100
AcDbLine
 62
6
  6
CONTINUOUS
 10
3.0845055856
 20
3.1007954582
 11
3.0845055856
 21
3.9777954582
  0
LINE
  5
21E
100
AcDbEntity
  8
0
100
AcDbLine
 62
6
  6
CONTINUOUS
 10
2.5265942127
 20
3.9615387554
 11
2.5265055856
 21
3.9613726314
  0
LINE
  5
21F
100
AcDbEntity
  8
0
100
AcDbLine
 62
6
  6
CONTINUOUS
 10
2.5265942094
 20
3.9615387553
 11
2.5071923388
 21
3.9279719903
  0
LINE
  5
220
100
AcDbEntity
  8
0
100
AcDbLine
 62
6
  6
CONTINUOUS
 10
2.598056933
 20
3.9637681749
 11
2.5786268397
 21
3.9301519861
  0
LINE
  5
221
100
AcDbEntity
  8
0
100
AcDbLine
 62
6
  6
CONTINUOUS
 10
2.6694699717
 20
3.9659931407
 11
2.6500596326
 21
3.93241078
  0
LINE
  5
222
100
AcDbEntity
  8
0
100
AcDbLine
 62
6
  6
CONTINUOUS
 10
2.8286424158
 20
3.1406733643
 11
2.8292029056
 21
3.1401884294
  0
LINE
  5
223
100
AcDbEntity
  8
0
100
AcDbLine
 62
6
  6
CONTINUOUS
 10
2.9000755596
 20
3.1383873048
 11
2.9006328504
 21
3.1379051324
  0
LINE
  5
224
100
AcDbEntity
  8
0
100
AcDbLine
 62
6
  6
CONTINUOUS
 10
2.9715083852
 20
3.1361733492
 11
2.9720626288
 21
3.135693809
  0
LINE
  5
225
100
AcDbEntity
  8
0
100
AcDbLine
 62
6
  6
CONTINUOUS
 10
2.9194846717
 20
3.1048056716
 11
2.9199893628
 21
3.104360865
  0
LINE
  5
226
100
AcDbEntity
  8
0
100
AcDbLine
 62
6
  6
CONTINUOUS
 10
2.9909243188
 20
3.1025795608
 11
2.9914269371
 21
3.1021366909
  0
LINE
  5
227
100
AcDbEntity
  8
0
100
AcDbLine
 62
6
  6
CONTINUOUS
 10
2.7761885714
 20
3.9368560742
 11
2.757773416
 21
3.9687148272
  0
LINE
  5
228
100
AcDbEntity
  8
0
100
AcDbLine
 62
6
  6
CONTINUOUS
 10
2.8476169097
 20
3.9390668286
 11
2.8291944374
 21
3.9709384423
  0
LINE
  5
229
100
AcDbEntity
  8
0
100
AcDbLine
 62
6
  6
CONTINUOUS
 10
2.9190433474
 20
3.941316076
 11
2.9006338135
 21
3.9731657564
  0
LINE
  5
22A
100
AcDbEntity
  8
0
100
AcDbLine
 62
6
  6
CONTINUOUS
 10
2.990470297
 20
3.9435225341
 11
2.97204983
 21
3.9753915058
  0
LINE
  5
22B
100
AcDbEntity
  8
0
100
AcDbLine
 62
6
  6
CONTINUOUS
 10
3.3345055856
 20
3.1007954582
 11
3.3345055856
 21
3.9777954582
  0
LINE
  5
22C
100
AcDbEntity
  8
0
100
AcDbLine
 62
9
  6
CONTINUOUS
 10
3.4023244134
 20
3.2565783374
 11
3.4023244134
 21
3.8220125791
  0
LINE
  5
22D
100
AcDbEntity
  8
0
100
AcDbLine
 62
6
  6
CONTINUOUS
 10
3.4645055856
 20
3.2802954582
 11
3.4645055856
 21
3.7982954582
  0
LINE
  5
22E
100
AcDbEntity
  8
0
100
AcDbLine
 62
6
  6
CONTINUOUS
 10
2.7409148596
 20
3.9682198129
 11
2.7214927238
 21
3.9346166414
  0
LINE
  5
22F
100
AcDbEntity
  8
0
100
AcDbLine
 62
6
  6
CONTINUOUS
 10
2.8123380028
 20
3.9704440497
 11
2.7929247243
 21
3.9368559516
  0
LINE
  5
230
100
AcDbEntity
  8
0
100
AcDbLine
 62
6
  6
CONTINUOUS
 10
2.8837827573
 20
3.9726730304
 11
2.8643592708
 21
3.9390666834
  0
LINE
  5
231
100
AcDbEntity
  8
0
100
AcDbLine
 62
6
  6
CONTINUOUS
 10
2.9552012518
 20
3.9748981036
 11
2.9357919307
 21
3.9413159395
  0
LINE
  5
232
100
AcDbEntity
  8
0
100
AcDbLine
 62
6
  6
CONTINUOUS
 10
2.5429422701
 20
3.9624908749
 11
2.5434810475
 21
3.9620331004
  0
LINE
  5
233
100
AcDbEntity
  8
0
100
AcDbLine
 62
6
  6
CONTINUOUS
 10
2.5613384089
 20
3.9306464889
 11
2.5619098699
 21
3.9301521419
  0
LWPOLYLINE
  5
234
100
AcDbEntity
  8
0
100
AcDbPolyline
 62
6
  6
CONTINUOUS
 90
25
 70
0
 10
3.5020056311
 20
4.3555669452
 10
3.5078056429
 20
4.3009290125
 10
3.5321981604
 20
4.2332501895
 10
3.5709911661
 20
4.1776601956
 10
3.6149612104
 20
4.1380001844
 10
3.6558554063
 20
4.1125556404
 10
3.6935302775
 20
4.095287146
 10
3.7297916616
 20
4.0823479622
 10
3.7671579217
 20
4.0715281142
 10
3.8079423016
 20
4.0616561098
 10
3.8539432092
 20
4.0521439907
 10
3.9066013243
 20
4.042683114
 10
3.9669149574
 20
4.0331338368
 10
4.0356077385
 20
4.0234302867
 10
4.1133609442
 20
4.0135228415
 10
4.2009043811
 20
4.0033629734
 10
4.2988860579
 20
3.9929165122
 10
4.407860724
 20
3.9821589654
 10
4.5282618136
 20
3.9710737093
 10
4.6601743125
 20
3.9596673174
 10
4.8033357708
 20
3.9479619341
 10
4.9572552661
 20
3.9359818132
 10
5.1212593588
 20
3.9237494605
 10
5.2954200114
 20
3.9112205411
 10
5.677845283
 20
3.8848363234
  0
LINE
  5
235
100
AcDbEntity
  8
0
100
AcDbLine
 62
6
  6
CONTINUOUS
 10
2.5144114029
 20
3.1291942995
 11
2.5261961133
 21
3.1495804759
  0
LINE
  5
236
100
AcDbEntity
  8
0
100
AcDbLine
 62
6
  6
CONTINUOUS
 10
3.0266456847
 20
3.9771247445
 11
3.0076931825
 21
3.9443325407
  0
LINE
  5
237
100
AcDbEntity
  8
0
100
AcDbLine
 62
6
  6
CONTINUOUS
 10
2.5792108392
 20
3.1154436929
 11
2.5976229212
 21
3.1472959408
  0
LINE
  5
238
100
AcDbEntity
  8
0
100
AcDbLine
 62
6
  6
CONTINUOUS
 10
2.6506330381
 20
3.1132171497
 11
2.6690494625
 21
3.1450773554
  0
LINE
  5
239
100
AcDbEntity
  8
0
100
AcDbLine
 62
6
  6
CONTINUOUS
 10
2.7220232347
 20
3.1109983428
 11
2.7404801506
 21
3.1429284917
  0
LINE
  5
23A
100
AcDbEntity
  8
0
100
AcDbLine
 62
6
  6
CONTINUOUS
 10
2.4929954241
 20
3.9284689653
 11
2.4765055856
 21
3.9119791267
  0
LINE
  5
23B
100
AcDbEntity
  8
0
100
AcDbLine
 62
6
  6
CONTINUOUS
 10
2.6863410225
 20
3.9664866214
 11
2.6858049522
 21
3.9669388119
  0
LINE
  5
23C
100
AcDbEntity
  8
0
100
AcDbLine
 62
6
  6
CONTINUOUS
 10
2.614925595
 20
3.9642607164
 11
2.6143901643
 21
3.9647153699
  0
LINE
  5
23D
100
AcDbEntity
  8
0
100
AcDbLine
 62
6
  6
CONTINUOUS
 10
2.7577734205
 20
3.9687148274
 11
2.7572456728
 21
3.9691631064
  0
LINE
  5
23E
100
AcDbEntity
  8
0
100
AcDbLine
 62
6
  6
CONTINUOUS
 10
2.829194437
 20
3.9709384423
 11
2.8286668277
 21
3.9713867692
  0
LINE
  5
23F
100
AcDbEntity
  8
0
100
AcDbLine
 62
6
  6
CONTINUOUS
 10
2.6327679279
 20
3.9329024545
 11
2.6333361218
 21
3.9324109262
  0
LINE
  5
240
100
AcDbEntity
  8
0
100
AcDbLine
 62
6
  6
CONTINUOUS
 10
2.7041978624
 20
3.9351055902
 11
2.7047629011
 21
3.9346167854
  0
LINE
  5
241
100
AcDbEntity
  8
0
100
AcDbLine
 62
6
  6
CONTINUOUS
 10
2.7756266901
 20
3.9373421572
 11
2.7761885714
 21
3.9368560742
  0
LINE
  5
242
100
AcDbEntity
  8
0
100
AcDbLine
 62
6
  6
CONTINUOUS
 10
2.8470581406
 20
3.9395502201
 11
2.8476169097
 21
3.9390668286
  0
LINE
  5
243
100
AcDbEntity
  8
0
100
AcDbLine
 62
6
  6
CONTINUOUS
 10
2.9184876864
 20
3.9417967857
 11
2.9190433474
 21
3.941316076
  0
LINE
  5
244
100
AcDbEntity
  8
0
100
AcDbLine
 62
6
  6
CONTINUOUS
 10
3.8395055856
 20
3.2802954582
 11
3.8395055856
 21
3.7982954582
  0
LINE
  5
245
100
AcDbEntity
  8
0
100
AcDbLine
 62
6
  6
CONTINUOUS
 10
2.7934600531
 20
3.1087658439
 11
2.8119032961
 21
3.1406732215
  0
LINE
  5
246
100
AcDbEntity
  8
0
100
AcDbLine
 62
6
  6
CONTINUOUS
 10
2.8649209723
 20
3.1065384991
 11
2.8833300442
 21
3.138387165
  0
LINE
  5
247
100
AcDbEntity
  8
0
100
AcDbLine
 62
6
  6
CONTINUOUS
 10
2.9363408147
 20
3.1043122128
 11
2.9547567787
 21
3.1361732143
  0
LINE
  5
248
100
AcDbEntity
  8
0
100
AcDbLine
 62
6
  6
CONTINUOUS
 10
2.6694699717
 20
3.9659931407
 11
2.6699840772
 21
3.9664462592
  0
LINE
  5
249
100
AcDbEntity
  8
0
100
AcDbLine
 62
6
  6
CONTINUOUS
 10
2.527115735
 20
3.9619981234
 11
2.5265942127
 21
3.9615387554
  0
LINE
  5
24A
100
AcDbEntity
  8
0
100
AcDbLine
 62
6
  6
CONTINUOUS
 10
2.5980569326
 20
3.9637681749
 11
2.598573183
 21
3.9642229161
  0
LINE
  5
24B
100
AcDbEntity
  8
0
100
AcDbLine
 62
6
  6
CONTINUOUS
 10
2.5071923388
 20
3.9279719903
 11
2.5077670594
 21
3.9284692095
  0
LINE
  5
24C
100
AcDbEntity
  8
0
100
AcDbLine
 62
6
  6
CONTINUOUS
 10
2.5786268397
 20
3.9301519861
 11
2.5791984089
 21
3.9306464889
  0
LINE
  5
24D
100
AcDbEntity
  8
0
100
AcDbLine
 62
6
  6
CONTINUOUS
 10
2.9006338136
 20
3.9731657564
 11
2.9001098838
 21
3.9736111137
  0
LINE
  5
24E
100
AcDbEntity
  8
0
100
AcDbLine
 62
6
  6
CONTINUOUS
 10
2.97204983
 20
3.9753915058
 11
2.971530333
 21
3.9758347472
  0
LINE
  5
24F
100
AcDbEntity
  8
0
100
AcDbLine
 62
9
  6
CONTINUOUS
 10
3.9728013095
 20
3.2417954582
 11
3.9728013095
 21
3.8367954582
  0
LINE
  5
250
100
AcDbEntity
  8
0
100
AcDbLine
 62
9
  6
CONTINUOUS
 10
4.0865088752
 20
3.2417954582
 11
4.0865088752
 21
3.8367954582
  0
LINE
  5
251
100
AcDbEntity
  8
0
100
AcDbLine
 62
6
  6
CONTINUOUS
 10
4.1245055856
 20
3.2242954582
 11
4.1245055856
 21
3.8542954582
  0
LINE
  5
252
100
AcDbEntity
  8
0
100
AcDbLine
 62
6
  6
CONTINUOUS
 10
4.1545055856
 20
3.2243205155
 11
4.1545055856
 21
3.8542704009
  0
LINE
  5
253
100
AcDbEntity
  8
0
100
AcDbLine
 62
6
  6
CONTINUOUS
 10
2.7409148596
 20
3.9682198129
 11
2.7414228915
 21
3.9686704492
  0
LINE
  5
254
100
AcDbEntity
  8
0
100
AcDbLine
 62
6
  6
CONTINUOUS
 10
2.8123380075
 20
3.9704440498
 11
2.8128489855
 21
3.9708942884
  0
LINE
  5
255
100
AcDbEntity
  8
0
100
AcDbLine
 62
6
  6
CONTINUOUS
 10
2.8837827569
 20
3.9726730304
 11
2.8842885294
 21
3.9731185237
  0
LINE
  5
256
100
AcDbEntity
  8
0
100
AcDbLine
 62
6
  6
CONTINUOUS
 10
2.9552012519
 20
3.9748981036
 11
2.9557054339
 21
3.975342054
  0
LINE
  5
257
100
AcDbEntity
  8
0
100
AcDbLine
 62
6
  6
CONTINUOUS
 10
3.0266456847
 20
3.9771247445
 11
3.0271490848
 21
3.9775664098
  0
LINE
  5
258
100
AcDbEntity
  8
0
100
AcDbLine
 62
6
  6
CONTINUOUS
 10
2.6500596326
 20
3.93241078
 11
2.6506279279
 21
3.9329024545
  0
LINE
  5
259
100
AcDbEntity
  8
0
100
AcDbLine
 62
6
  6
CONTINUOUS
 10
2.7214927238
 20
3.9346166414
 11
2.7220578624
 21
3.9351055902
  0
LINE
  5
25A
100
AcDbEntity
  8
0
100
AcDbLine
 62
6
  6
CONTINUOUS
 10
2.7929247243
 20
3.9368559516
 11
2.7934866901
 21
3.9373421572
  0
LINE
  5
25B
100
AcDbEntity
  8
0
100
AcDbLine
 62
6
  6
CONTINUOUS
 10
2.8643592708
 20
3.9390666834
 11
2.8649181406
 21
3.9395502201
  0
LINE
  5
25C
100
AcDbEntity
  8
0
100
AcDbLine
 62
6
  6
CONTINUOUS
 10
2.9357919307
 20
3.9413159395
 11
2.9363476864
 21
3.9417967857
  0
LINE
  5
25D
100
AcDbEntity
  8
0
100
AcDbLine
 62
6
  6
CONTINUOUS
 10
2.525622966
 20
3.1490846721
 11
2.5261961133
 21
3.1495804759
  0
LINE
  5
25E
100
AcDbEntity
  8
0
100
AcDbLine
 62
6
  6
CONTINUOUS
 10
2.5970531197
 20
3.1468030253
 11
2.5976229212
 21
3.1472959408
  0
LINE
  5
25F
100
AcDbEntity
  8
0
100
AcDbLine
 62
6
  6
CONTINUOUS
 10
2.6684828495
 20
3.1445871914
 11
2.6690494625
 21
3.1450773554
  0
LINE
  5
260
100
AcDbEntity
  8
0
100
AcDbLine
 62
6
  6
CONTINUOUS
 10
2.7399166209
 20
3.1424410025
 11
2.7404801506
 21
3.1429284917
  0
LINE
  5
261
100
AcDbEntity
  8
0
100
AcDbLine
 62
6
  6
CONTINUOUS
 10
2.6506330382
 20
3.1132171497
 11
2.650099602
 21
3.1127637506
  0
LINE
  5
262
100
AcDbEntity
  8
0
100
AcDbLine
 62
6
  6
CONTINUOUS
 10
2.5786739851
 20
3.1149875522
 11
2.5792108393
 21
3.1154436929
  0
LINE
  5
263
100
AcDbEntity
  8
0
100
AcDbLine
 62
6
  6
CONTINUOUS
 10
3.0345055856
 20
3.1007954582
 11
3.3345055856
 21
3.1007954582
  0
LINE
  5
264
100
AcDbEntity
  8
0
100
AcDbLine
 62
6
  6
CONTINUOUS
 10
3.0345055856
 20
3.1007954582
 11
2.991427071
 21
3.1021366867
  0
LINE
  5
265
100
AcDbEntity
  8
0
100
AcDbLine
 62
6
  6
CONTINUOUS
 10
2.935818069
 20
3.1038680458
 11
2.9199896339
 21
3.1043608564
  0
LINE
  5
266
100
AcDbEntity
  8
0
100
AcDbLine
 62
6
  6
CONTINUOUS
 10
2.8643951938
 20
3.1060917621
 11
2.8485945038
 21
3.1065837088
  0
LINE
  5
267
100
AcDbEntity
  8
0
100
AcDbLine
 62
6
  6
CONTINUOUS
 10
2.7929315044
 20
3.1083167491
 11
2.777181417
 21
3.1088071204
  0
LINE
  5
268
100
AcDbEntity
  8
0
100
AcDbLine
 62
6
  6
CONTINUOUS
 10
2.7214851912
 20
3.1105411951
 11
2.7057056815
 21
3.1110324824
  0
LINE
  5
269
100
AcDbEntity
  8
0
100
AcDbLine
 62
6
  6
CONTINUOUS
 10
2.6500994131
 20
3.1127637564
 11
2.6342708897
 21
3.1132565697
  0
LINE
  5
26A
100
AcDbEntity
  8
0
100
AcDbLine
 62
6
  6
CONTINUOUS
 10
2.5786739695
 20
3.1149875526
 11
2.5628747816
 21
3.1154794526
  0
LINE
  5
26B
100
AcDbEntity
  8
0
100
AcDbLine
 62
6
  6
CONTINUOUS
 10
3.4023244134
 20
3.8220125791
 11
3.4645055856
 21
3.7982954582
  0
LINE
  5
26C
100
AcDbEntity
  8
0
100
AcDbLine
 62
6
  6
CONTINUOUS
 10
2.8113429056
 20
3.1401884294
 11
2.8119032961
 21
3.1406732215
  0
LINE
  5
26D
100
AcDbEntity
  8
0
100
AcDbLine
 62
6
  6
CONTINUOUS
 10
2.8827728504
 20
3.1379051324
 11
2.8833300442
 21
3.138387165
  0
LINE
  5
26E
100
AcDbEntity
  8
0
100
AcDbLine
 62
6
  6
CONTINUOUS
 10
2.9542026288
 20
3.135693809
 11
2.9547567787
 21
3.1361732143
  0
LINE
  5
26F
100
AcDbEntity
  8
0
100
AcDbLine
 62
6
  6
CONTINUOUS
 10
2.722023214
 20
3.1109983435
 11
2.7214854934
 21
3.1105411859
  0
LINE
  5
270
100
AcDbEntity
  8
0
100
AcDbLine
 62
6
  6
CONTINUOUS
 10
2.7934600526
 20
3.1087658439
 11
2.7929315461
 21
3.1083167478
  0
LINE
  5
271
100
AcDbEntity
  8
0
100
AcDbLine
 62
6
  6
CONTINUOUS
 10
2.8649209724
 20
3.1065384991
 11
2.8643949248
 21
3.1060917706
  0
LINE
  5
272
100
AcDbEntity
  8
0
100
AcDbLine
 62
6
  6
CONTINUOUS
 10
2.9363408147
 20
3.1043122128
 11
2.9358179352
 21
3.10386805
  0
LWPOLYLINE
  5
273
100
AcDbEntity
  8
0
100
AcDbPolyline
 62
6
  6
CONTINUOUS
 90
24
 70
0
 10
7.2041108793
 20
3.424948745
 10
7.3503501275
 20
3.4358748162
 10
7.488566889
 20
3.4466021796
 10
7.6190587301
 20
3.4571805214
 10
7.7414781263
 20
3.4676059085
 10
7.8553166451
 20
3.4778516429
 10
7.9602290082
 20
3.4878927725
 10
8.0560380747
 20
3.4977068407
 10
8.1428039928
 20
3.5072827697
 10
8.2209307623
 20
3.5166395287
 10
8.2909362044
 20
3.5258097526
 10
8.3534074115
 20
3.5348405662
 10
8.4090086718
 20
3.5438028026
 10
8.4585044764
 20
3.5528084492
 10
8.5027261189
 20
3.5620270112
 10
8.5426455616
 20
3.5717373592
 10
8.5796474013
 20
3.5824846725
 10
8.6158386642
 20
3.5954303343
 10
8.6532607519
 20
3.6126107887
 10
8.6937910943
 20
3.6378103624
 10
8.7375440419
 20
3.6771334423
 10
8.7764302308
 20
3.7325210502
 10
8.8010766507
 20
3.800328766
 10
8.807005539
 20
3.8555672775
  0
LINE
  5
274
100
AcDbEntity
  8
0
100
AcDbLine
 62
6
  6
CONTINUOUS
 10
6.8860055321
 20
3.4022754953
 11
7.2041108793
 21
3.424948745
  0
LINE
  5
275
100
AcDbEntity
  8
0
100
AcDbLine
 62
6
  6
CONTINUOUS
 10
6.5316410277
 20
3.3781374003
 11
6.8860055321
 21
3.4022754953
  0
LINE
  5
276
100
AcDbEntity
  8
0
100
AcDbLine
 62
6
  6
CONTINUOUS
 10
6.1545099313
 20
3.3530377448
 11
6.5316410277
 21
3.3781374003
  0
LWPOLYLINE
  5
277
100
AcDbEntity
  8
0
100
AcDbPolyline
 62
6
  6
CONTINUOUS
 90
4
 70
0
 10
4.1545055856
 20
3.2869083907
 10
4.8160063071
 20
3.2941479134
 10
5.4926931816
 20
3.3165460739
 10
6.1545055856
 20
3.3531503891
  0
LINE
  5
278
100
AcDbEntity
  8
0
100
AcDbLine
 62
6
  6
CONTINUOUS
 10
2.9542026288
 20
3.135693809
 11
2.9720626288
 21
3.135693809
  0
LINE
  5
279
100
AcDbEntity
  8
0
100
AcDbLine
 62
6
  6
CONTINUOUS
 10
2.8827728504
 20
3.1379051324
 11
2.9006328504
 21
3.1379051324
  0
LINE
  5
27A
100
AcDbEntity
  8
0
100
AcDbLine
 62
6
  6
CONTINUOUS
 10
2.8113429056
 20
3.1401884294
 11
2.8292029056
 21
3.1401884294
  0
LINE
  5
27B
100
AcDbEntity
  8
0
100
AcDbLine
 62
6
  6
CONTINUOUS
 10
2.7399166209
 20
3.1424410025
 11
2.7577766209
 21
3.1424410025
  0
LINE
  5
27C
100
AcDbEntity
  8
0
100
AcDbLine
 62
6
  6
CONTINUOUS
 10
2.6684828495
 20
3.1445871914
 11
2.6863428495
 21
3.1445871914
  0
LINE
  5
27D
100
AcDbEntity
  8
0
100
AcDbLine
 62
6
  6
CONTINUOUS
 10
2.5970531197
 20
3.1468030253
 11
2.6149131197
 21
3.1468030253
  0
LINE
  5
27E
100
AcDbEntity
  8
0
100
AcDbLine
 62
6
  6
CONTINUOUS
 10
2.525622966
 20
3.1490846721
 11
2.543482966
 21
3.1490846721
  0
LINE
  5
27F
100
AcDbEntity
  8
0
100
AcDbLine
 62
6
  6
CONTINUOUS
 10
4.1245055856
 20
3.2242954582
 11
4.1545055856
 21
3.2242954582
  0
LINE
  5
280
100
AcDbEntity
  8
0
100
AcDbLine
 62
6
  6
CONTINUOUS
 10
3.9728013095
 20
3.2417954582
 11
4.0865088752
 21
3.2417954582
  0
LINE
  5
281
100
AcDbEntity
  8
0
100
AcDbLine
 62
6
  6
CONTINUOUS
 10
3.4645055856
 20
3.2802954582
 11
3.8395055856
 21
3.2802954582
  0
LINE
  5
282
100
AcDbEntity
  8
0
100
AcDbLine
 62
6
  6
CONTINUOUS
 10
3.3245055856
 20
3.5392954582
 11
3.0945055856
 21
3.5392954582
  0
LWPOLYLINE
  5
283
100
AcDbEntity
  8
0
100
AcDbPolyline
 62
6
  6
CONTINUOUS
 90
4
 70
0
 10
6.1143213828
 20
3.855701968
 10
5.4926931806
 20
3.8213202089
 10
4.8160063061
 20
3.7989220484
 10
4.1545055856
 20
3.7916825258
  0
LINE
  5
284
100
AcDbEntity
  8
0
100
AcDbLine
 62
6
  6
CONTINUOUS
 10
3.0315645692
 20
3.945020357
 11
2.975945658
 21
3.943417786
  0
LINE
  5
285
100
AcDbEntity
  8
0
100
AcDbLine
 62
6
  6
CONTINUOUS
 10
3.4645055856
 20
3.7982954582
 11
3.8395055856
 21
3.7982954582
  0
LINE
  5
286
100
AcDbEntity
  8
0
100
AcDbLine
 62
6
  6
CONTINUOUS
 10
3.9728013095
 20
3.8367954582
 11
4.0865088752
 21
3.8367954582
  0
LINE
  5
287
100
AcDbEntity
  8
0
100
AcDbLine
 62
6
  6
CONTINUOUS
 10
4.1245055856
 20
3.8542954582
 11
4.1545055856
 21
3.8542954582
  0
LINE
  5
288
100
AcDbEntity
  8
0
100
AcDbLine
 62
6
  6
CONTINUOUS
 10
2.5077670594
 20
3.9284692095
 11
2.4929957995
 21
3.9284692095
  0
LINE
  5
289
100
AcDbEntity
  8
0
100
AcDbLine
 62
6
  6
CONTINUOUS
 10
2.5791984089
 20
3.9306464889
 11
2.5613384089
 21
3.9306464889
  0
LINE
  5
28A
100
AcDbEntity
  8
0
100
AcDbLine
 62
6
  6
CONTINUOUS
 10
2.6506279279
 20
3.9329024545
 11
2.6327679279
 21
3.9329024545
  0
LINE
  5
28B
100
AcDbEntity
  8
0
100
AcDbLine
 62
6
  6
CONTINUOUS
 10
2.7220578624
 20
3.9351055902
 11
2.7041978624
 21
3.9351055902
  0
LINE
  5
28C
100
AcDbEntity
  8
0
100
AcDbLine
 62
6
  6
CONTINUOUS
 10
2.7934866901
 20
3.9373421572
 11
2.7756266901
 21
3.9373421572
  0
LINE
  5
28D
100
AcDbEntity
  8
0
100
AcDbLine
 62
6
  6
CONTINUOUS
 10
2.8649181406
 20
3.9395502201
 11
2.8470581406
 21
3.9395502201
  0
LINE
  5
28E
100
AcDbEntity
  8
0
100
AcDbLine
 62
6
  6
CONTINUOUS
 10
2.9363476864
 20
3.9417967857
 11
2.9184876864
 21
3.9417967857
  0
LINE
  5
28F
100
AcDbEntity
  8
0
100
AcDbLine
 62
6
  6
CONTINUOUS
 10
3.0345055856
 20
3.9777954582
 11
3.3345055856
 21
3.9777954582
  0
LINE
  5
290
100
AcDbEntity
  8
0
100
AcDbLine
 62
6
  6
CONTINUOUS
 10
5.677845283
 20
3.8848363234
 11
6.5604313945
 21
3.8259726051
  0
LWPOLYLINE
  5
291
100
AcDbEntity
  8
0
100
AcDbPolyline
 62
6
  6
CONTINUOUS
 90
20
 70
0
 10
6.5604313945
 20
3.8259726051
 10
6.9479363015
 20
3.7993455518
 10
7.1209936953
 20
3.786966865
 10
7.2836173338
 20
3.7749250263
 10
7.4356293229
 20
3.7631999064
 10
7.5761884313
 20
3.7518361042
 10
7.7047041039
 20
3.7408793262
 10
7.8208742468
 20
3.7303730837
 10
7.9249760123
 20
3.7203278666
 10
8.0175861069
 20
3.7107366637
 10
8.0993180872
 20
3.7015954766
 10
8.1708798505
 20
3.6928943783
 10
8.2329996703
 20
3.6846218177
 10
8.2862898474
 20
3.6767815619
 10
8.3311817213
 20
3.6694093339
 10
8.3677874446
 20
3.6626161459
 10
8.3960447395
 20
3.6566030744
 10
8.4157043027
 20
3.6517224108
 10
8.4261855419
 20
3.6486323089
 10
8.426774601
 20
3.6484355024
  0
LINE
  5
292
100
AcDbEntity
  8
0
100
AcDbLine
 62
6
  6
CONTINUOUS
 10
2.5144114028
 20
3.1291942996
 11
2.514053393
 21
3.1290639825
  0
LINE
  5
293
100
AcDbEntity
  8
0
100
AcDbLine
 62
6
  6
CONTINUOUS
 10
3.0345055856
 20
3.9777954582
 11
3.0271469927
 21
3.9775663521
  0
LINE
  5
294
100
AcDbEntity
  8
0
100
AcDbLine
 62
6
  6
CONTINUOUS
 10
2.9715282482
 20
3.9758346897
 11
2.9557052214
 21
3.9753420474
  0
LINE
  5
295
100
AcDbEntity
  8
0
100
AcDbLine
 62
6
  6
CONTINUOUS
 10
2.9001096709
 20
3.9736111072
 11
2.8842884889
 21
3.9731185224
  0
LINE
  5
296
100
AcDbEntity
  8
0
100
AcDbLine
 62
6
  6
CONTINUOUS
 10
2.8286667867
 20
3.9713867679
 11
2.8128491306
 21
3.9708942929
  0
LINE
  5
297
100
AcDbEntity
  8
0
100
AcDbLine
 62
6
  6
CONTINUOUS
 10
2.7572458183
 20
3.969163111
 11
2.7414265896
 21
3.9686705871
  0
LINE
  5
298
100
AcDbEntity
  8
0
100
AcDbLine
 62
6
  6
CONTINUOUS
 10
2.6858086587
 20
3.96693895
 11
2.6699843852
 21
3.966446269
  0
LINE
  5
299
100
AcDbEntity
  8
0
100
AcDbLine
 62
6
  6
CONTINUOUS
 10
2.614390471
 20
3.9647153796
 11
2.5985731803
 21
3.964222916
  0
LINE
  5
29A
100
AcDbEntity
  8
0
100
AcDbLine
 62
6
  6
CONTINUOUS
 10
2.5429422537
 20
3.9624908743
 11
2.5271157873
 21
3.9619981251
  0
LINE
  5
29B
100
AcDbEntity
  8
0
100
AcDbLine
 62
6
  6
CONTINUOUS
 10
3.4023244134
 20
3.2565783374
 11
3.4645055856
 21
3.2802954582
  0
LWPOLYLINE
  5
29C
100
AcDbEntity
  8
0
100
AcDbPolyline
 62
6
  6
CONTINUOUS
 90
12
 70
0
 10
7.0202731202
 20
4.4116939767
 10
7.1883640067
 20
4.4237942927
 10
7.3464816349
 20
4.4355806451
 10
7.4941435304
 20
4.4470445974
 10
7.6310511361
 20
4.458178507
 10
7.7571029511
 20
4.4689778191
 10
7.8724908407
 20
4.4794521873
 10
7.9775641696
 20
4.4896181408
 10
8.072753094
 20
4.4994950999
 10
8.158554959
 20
4.5091065998
 10
8.2355002483
 20
4.5184791797
 10
8.2777578307
 20
4.5241206274
  0
LINE
  5
29D
100
AcDbEntity
  8
0
100
AcDbLine
 62
6
  6
CONTINUOUS
 10
6.6610244661
 20
4.3868563191
 11
7.0202731202
 21
4.4116939767
  0
LINE
  5
29E
100
AcDbEntity
  8
0
100
AcDbLine
 62
6
  6
CONTINUOUS
 10
6.1921771643
 20
4.3555370101
 11
6.6610244661
 21
4.3868563191
  0
LINE
  5
29F
100
AcDbEntity
  8
0
100
AcDbLine
 62
6
  6
CONTINUOUS
 10
8.3013374926
 20
4.483279455
 11
8.8076736787
 21
4.483279455
  0
LINE
  5
2A0
100
AcDbEntity
  8
0
100
AcDbLine
 62
6
  6
CONTINUOUS
 10
6.714339895
 20
4.3205982127
 11
5.7549433693
 21
4.3846737009
  0
LINE
  5
2A1
100
AcDbEntity
  8
0
100
AcDbLine
 62
6
  6
CONTINUOUS
 10
5.7549433693
 20
4.3846737009
 11
5.4179585144
 21
4.407739142
  0
LWPOLYLINE
  5
2A2
100
AcDbEntity
  8
0
100
AcDbPolyline
 62
6
  6
CONTINUOUS
 90
19
 70
0
 10
5.4179585144
 20
4.407739142
 10
5.1163135351
 20
4.4293618433
 10
4.977214842
 20
4.4398111161
 10
4.8457089508
 20
4.4500683727
 10
4.7223014466
 20
4.4601134881
 10
4.6074110878
 20
4.4699233753
 10
4.5013397471
 20
4.4794738621
 10
4.4042619967
 20
4.4887405084
 10
4.3161082907
 20
4.4977112444
 10
4.2366636869
 20
4.5063806436
 10
4.1656898327
 20
4.5147389616
 10
4.1029398513
 20
4.522769766
 10
4.0481737502
 20
4.530446268
 10
4.0012080637
 20
4.5377201017
 10
3.9619578869
 20
4.5445042749
 10
3.9303685871
 20
4.5506675006
 10
3.9064196839
 20
4.5560113372
 10
3.8902016951
 20
4.5602131565
 10
3.888629473
 20
4.5606630921
  0
LINE
  5
2A3
100
AcDbEntity
  8
0
100
AcDbLine
 62
9
  6
CONTINUOUS
 10
6.1545099313
 20
3.3530377448
 11
6.1545030613
 21
3.8530345995
  0
LWPOLYLINE
  5
2A4
100
AcDbEntity
  8
0
100
AcDbPolyline
 62
6
  6
CONTINUOUS
 90
10
 70
0
 10
8.0987756846
 20
5.0094321119
 10
8.0949784405
 20
5.0089748231
 10
8.0228670298
 20
5.0009076487
 10
7.9431354244
 20
4.9925735113
 10
7.8556744248
 20
4.9839852535
 10
7.760415322
 20
4.9751529951
 10
7.6573368707
 20
4.9660848877
 10
7.5464283723
 20
4.9567840808
 10
7.427378503
 20
4.9472248438
 10
7.2997090154
 20
4.937367495
  0
LWPOLYLINE
  5
2A5
100
AcDbEntity
  8
0
100
AcDbPolyline
 62
6
  6
CONTINUOUS
 90
24
 70
0
 10
5.0378790473
 20
4.7811666732
 10
4.9035578546
 20
4.770975356
 10
4.7768723497
 20
4.7609944252
 10
4.6577605357
 20
4.7512047349
 10
4.5461195629
 20
4.7415862842
 10
4.4418151872
 20
4.7321178835
 10
4.3446892605
 20
4.7227766329
 10
4.2546104256
 20
4.7135419148
 10
4.1715918289
 20
4.7044090651
 10
4.0956056853
 20
4.6953728409
 10
4.0265252987
 20
4.686419558
 10
3.9641170804
 20
4.6775221574
 10
3.9079990682
 20
4.6686268638
 10
3.8575130775
 20
4.6596143526
 10
3.8122089245
 20
4.6503636313
 10
3.7713194308
 20
4.6406336979
 10
3.7335601877
 20
4.6299171769
 10
3.6969887312
 20
4.6171546784
 10
3.6589531999
 20
4.6001276292
 10
3.6168920258
 20
4.5744802446
 10
3.5714356584
 20
4.5339067154
 10
3.531881569
 20
4.4772175016
 10
3.5076448721
 20
4.4093875233
 10
3.5020056276
 20
4.3555091475
  0
LINE
  5
2A6
100
AcDbEntity
  8
0
100
AcDbLine
 62
6
  6
CONTINUOUS
 10
7.2997090154
 20
4.937367495
 11
7.0166243868
 21
4.9165963873
  0
LINE
  5
2A7
100
AcDbEntity
  8
0
100
AcDbLine
 62
6
  6
CONTINUOUS
 10
5.3294027471
 20
4.8022540059
 11
5.0378790473
 21
4.7811666732
  0
LINE
  5
2A8
100
AcDbEntity
  8
0
100
AcDbLine
 62
6
  6
CONTINUOUS
 10
7.0166243868
 20
4.9165963873
 11
6.6963615178
 21
4.8943121665
  0
LINE
  5
2A9
100
AcDbEntity
  8
0
100
AcDbLine
 62
6
  6
CONTINUOUS
 10
5.6506380089
 20
4.8243982173
 11
5.3294027471
 21
4.8022540059
  0
LINE
  5
2AA
100
AcDbEntity
  8
0
100
AcDbLine
 62
6
  6
CONTINUOUS
 10
6.6963615178
 20
4.8943121665
 11
5.6506380089
 21
4.8243982173
  0
LINE
  5
2AB
100
AcDbEntity
  8
0
100
AcDbLine
 62
6
  6
CONTINUOUS
 10
8.8076736787
 20
5.360279455
 11
8.3013374926
 21
5.360279455
  0
LINE
  5
2AC
100
AcDbEntity
  8
0
100
AcDbLine
 62
6
  6
CONTINUOUS
 10
8.3013374926
 20
5.360279455
 11
8.0481693995
 21
4.921779455
  0
LINE
  5
2AD
100
AcDbEntity
  8
0
100
AcDbLine
 62
6
  6
CONTINUOUS
 10
8.7206057378
 20
5.3275043538
 11
8.7199496595
 21
5.3259017828
  0
LINE
  5
2AE
100
AcDbEntity
  8
0
100
AcDbLine
 62
6
  6
CONTINUOUS
 10
8.0481693995
 20
4.921779455
 11
8.3013374926
 21
4.483279455
  0
LINE
  5
2AF
100
AcDbEntity
  8
0
100
AcDbLine
 62
6
  6
CONTINUOUS
 10
8.8076736787
 20
4.483279455
 11
9.0608417717
 21
4.921779455
  0
LWPOLYLINE
  5
2B0
100
AcDbEntity
  8
0
100
AcDbPolyline
 62
6
  6
CONTINUOUS
 90
25
 70
0
 10
8.8070055447
 20
3.8555094877
 10
8.8008563516
 20
3.9117567883
 10
8.7763845994
 20
3.9786403624
 10
8.7379126994
 20
4.0335336868
 10
8.6938100547
 20
4.0732506152
 10
8.652023313
 20
4.0991116635
 10
8.6129719065
 20
4.1167825246
 10
8.5744515868
 20
4.130228597
 10
8.5342310867
 20
4.141522164
 10
8.4904655733
 20
4.1517407297
 10
8.4415196798
 20
4.161489005
 10
8.3861669557
 20
4.1710792785
 10
8.3234816425
 20
4.1806770555
 10
8.2527649099
 20
4.1903714588
 10
8.1734803581
 20
4.2002125835
 10
8.085265204
 20
4.2102246046
 10
7.9880131582
 20
4.2204066974
 10
7.8817910125
 20
4.2307493807
 10
7.7668323586
 20
4.2412376494
 10
7.6434208092
 20
4.2518620769
 10
7.5114222482
 20
4.262654486
 10
7.3705645895
 20
4.2736577116
 10
7.2205951468
 20
4.2849133189
 10
7.0613055783
 20
4.2964619933
 10
6.714339895
 20
4.3205982127
  0
LINE
  5
2B1
100
AcDbEntity
  8
0
100
AcDbLine
 62
6
  6
CONTINUOUS
 10
9.0608417717
 20
4.921779455
 11
8.8076736787
 21
5.360279455
  0
ARC
  5
2B2
100
AcDbEntity
  8
0
100
AcDbCircle
 62
6
  6
CONTINUOUS
 10
-40.6508035778
 20
2.4278966569
 40
43.424395347
100
AcDbArc
 50
1.4665815371
 51
1.7826840898
  0
ARC
  5
2B3
100
AcDbEntity
  8
0
100
AcDbCircle
 62
6
  6
CONTINUOUS
 10
-3.8764951129
 20
3.5511695019
 40
6.3807642497
100
AcDbArc
 50
2.3091809615
 51
2.4493601009
  0
ARC
  5
2B4
100
AcDbEntity
  8
0
100
AcDbCircle
 62
6
  6
CONTINUOUS
 10
1.11195702
 20
3.3200601362
 40
2.2225485657
100
AcDbArc
 50
359.612249946
 51
359.9996216102
  0
ARC
  5
2B5
100
AcDbEntity
  8
0
100
AcDbCircle
 62
6
  6
CONTINUOUS
 10
3.9728013095
 20
3.4917954582
 40
0.25
100
AcDbArc
 50
237.7792364176
 51
270.0
  0
ARC
  5
2B6
100
AcDbEntity
  8
0
100
AcDbCircle
 62
6
  6
CONTINUOUS
 10
3.9728013095
 20
3.5867954582
 40
0.25
100
AcDbArc
 50
90.0
 51
122.2207635824
  0
ARC
  5
2B7
100
AcDbEntity
  8
0
100
AcDbCircle
 62
6
  6
CONTINUOUS
 10
4.0865088752
 20
3.1917954582
 40
0.05
100
AcDbArc
 50
40.5416018735
 51
90.0
  0
ARC
  5
2B8
100
AcDbEntity
  8
0
100
AcDbCircle
 62
6
  6
CONTINUOUS
 10
3.3845055856
 20
3.3032954582
 40
0.05
100
AcDbArc
 50
180.0
 51
290.8778338824
  0
ARC
  5
2B9
100
AcDbEntity
  8
0
100
AcDbCircle
 62
6
  6
CONTINUOUS
 10
1.1057879235
 20
3.7585343771
 40
2.2287176621
100
AcDbArc
 50
0.0002848707
 51
0.3866201058
  0
ARC
  5
2BA
100
AcDbEntity
  8
0
100
AcDbCircle
 62
6
  6
CONTINUOUS
 10
4.0865088752
 20
3.8867954582
 40
0.05
100
AcDbArc
 50
270.0
 51
319.4583981265
  0
ARC
  5
2BB
100
AcDbEntity
  8
0
100
AcDbCircle
 62
6
  6
CONTINUOUS
 10
3.3845055856
 20
3.7752954582
 40
0.05
100
AcDbArc
 50
69.1221661176
 51
180.0
  0
ARC
  5
2BC
100
AcDbEntity
  8
0
100
AcDbCircle
 62
6
  6
CONTINUOUS
 10
8.5561826652
 20
4.9219436883
 40
0.4393971754
100
AcDbArc
 50
172.1740822782
 51
172.8632615798
  0
ARC
  5
2BD
100
AcDbEntity
  8
0
100
AcDbCircle
 62
6
  6
CONTINUOUS
 10
8.5545055856
 20
4.921779455
 40
0.4385
100
AcDbArc
 50
180.1450554376
 51
67.7187467815
  0
ARC
  5
2BE
100
AcDbEntity
  8
0
100
AcDbCircle
 62
6
  6
CONTINUOUS
 10
8.5548366418
 20
4.9219768134
 40
0.4380787577
100
AcDbArc
 50
68.5026150524
 51
172.1544025375
  0
ARC
  5
2BF
100
AcDbEntity
  8
0
100
AcDbCircle
 62
6
  6
CONTINUOUS
 10
8.5545214445
 20
4.9220875934
 40
0.4377309513
100
AcDbArc
 50
172.8549373069
 51
179.8602874314
  0
ARC
  5
2C0
100
AcDbEntity
  8
0
100
AcDbCircle
 62
6
  6
CONTINUOUS
 10
8.5534739264
 20
4.9215375558
 40
0.4376346853
100
AcDbArc
 50
349.9647460104
 51
359.8774891952
  0
ARC
  5
2C1
100
AcDbEntity
  8
0
100
AcDbCircle
 62
6
  6
CONTINUOUS
 10
8.5540628977
 20
4.9218219701
 40
0.437190197
100
AcDbArc
 50
180.1610293992
 51
349.9145824025
  0
ARC
  5
2C2
100
AcDbEntity
  8
0
100
AcDbCircle
 62
6
  6
CONTINUOUS
 10
8.5545913322
 20
4.9209437628
 40
0.4369236571
100
AcDbArc
 50
67.770004694
 51
74.0656808636
  0
ARC
  5
2C3
100
AcDbEntity
  8
0
100
AcDbCircle
 62
6
  6
CONTINUOUS
 10
8.5547801752
 20
4.9210865037
 40
0.4367416284
100
AcDbArc
 50
78.2585777795
 51
86.70775555
  0
ARC
  5
2C4
100
AcDbEntity
  8
0
100
AcDbCircle
 62
6
  6
CONTINUOUS
 10
8.5549239393
 20
4.9211878439
 40
0.4366389485
100
AcDbArc
 50
90.7636755654
 51
99.6497085106
  0
ARC
  5
2C5
100
AcDbEntity
  8
0
100
AcDbCircle
 62
6
  6
CONTINUOUS
 10
8.5550533652
 20
4.9212759068
 40
0.4365806509
100
AcDbArc
 50
103.4667570189
 51
113.0129843285
  0
ARC
  5
2C6
100
AcDbEntity
  8
0
100
AcDbCircle
 62
6
  6
CONTINUOUS
 10
8.5551464434
 20
4.9214258599
 40
0.4364852312
100
AcDbArc
 50
116.4158987535
 51
126.8032338429
  0
ARC
  5
2C7
100
AcDbEntity
  8
0
100
AcDbCircle
 62
6
  6
CONTINUOUS
 10
8.5548210614
 20
4.9216021296
 40
0.4362264774
100
AcDbArc
 50
0.1990176749
 51
67.7652207736
  0
ARC
  5
2C8
100
AcDbEntity
  8
0
100
AcDbCircle
 62
6
  6
CONTINUOUS
 10
8.555055161
 20
4.9217331815
 40
0.4361878012
100
AcDbArc
 50
129.2533730747
 51
141.093504453
  0
ARC
  5
2C9
100
AcDbEntity
  8
0
100
AcDbCircle
 62
6
  6
CONTINUOUS
 10
8.5559007719
 20
4.9242561251
 40
0.4355879472
100
AcDbArc
 50
67.7826562258
 51
68.522980796
  0
ARC
  5
2CA
100
AcDbEntity
  8
0
100
AcDbCircle
 62
6
  6
CONTINUOUS
 10
8.5549956166
 20
4.9223654132
 40
0.4354456404
100
AcDbArc
 50
74.0654778903
 51
78.2520884816
  0
ARC
  5
2CB
100
AcDbEntity
  8
0
100
AcDbCircle
 62
6
  6
CONTINUOUS
 10
8.554447104
 20
4.9220864907
 40
0.4354322953
100
AcDbArc
 50
141.7568851892
 51
179.8865767714
  0
ARC
  5
2CC
100
AcDbEntity
  8
0
100
AcDbCircle
 62
6
  6
CONTINUOUS
 10
8.5535265103
 20
4.9215308164
 40
0.4353579072
100
AcDbArc
 50
349.9465426062
 51
0.0327223817
  0
ARC
  5
2CD
100
AcDbEntity
  8
0
100
AcDbCircle
 62
6
  6
CONTINUOUS
 10
8.5548569587
 20
4.9224766967
 40
0.4353493203
100
AcDbArc
 50
86.7073369726
 51
90.7571219043
  0
ARC
  5
2CE
100
AcDbEntity
  8
0
100
AcDbCircle
 62
6
  6
CONTINUOUS
 10
8.554673159
 20
4.9226233888
 40
0.4351816783
100
AcDbArc
 50
99.6488395483
 51
103.4593907619
  0
ARC
  5
2CF
100
AcDbEntity
  8
0
100
AcDbCircle
 62
6
  6
CONTINUOUS
 10
8.5544271118
 20
4.9227384009
 40
0.4349897202
100
AcDbArc
 50
113.0123696357
 51
116.4079565998
  0
ARC
  5
2D0
100
AcDbEntity
  8
0
100
AcDbCircle
 62
6
  6
CONTINUOUS
 10
8.5540626719
 20
4.9218175063
 40
0.4349635874
100
AcDbArc
 50
180.1618140049
 51
349.8970196132
  0
ARC
  5
2D1
100
AcDbEntity
  8
0
100
AcDbCircle
 62
6
  6
CONTINUOUS
 10
8.5541482406
 20
4.9227664426
 40
0.4348138379
100
AcDbArc
 50
126.8037402018
 51
129.2469845846
  0
ARC
  5
2D2
100
AcDbEntity
  8
0
100
AcDbCircle
 62
6
  6
CONTINUOUS
 10
8.551263499
 20
4.9221307642
 40
0.4344729116
100
AcDbArc
 50
179.8649328859
 51
180.0463286293
  0
ARC
  5
2D3
100
AcDbEntity
  8
0
100
AcDbCircle
 62
6
  6
CONTINUOUS
 10
8.5546577616
 20
4.9214505092
 40
0.4342241618
100
AcDbArc
 50
0.0434040812
 51
33.8988912081
  0
ARC
  5
2D4
100
AcDbEntity
  8
0
100
AcDbCircle
 62
6
  6
CONTINUOUS
 10
8.5534338589
 20
4.9230897111
 40
0.4340741809
100
AcDbArc
 50
141.0984347986
 51
141.7621758237
  0
ARC
  5
2D5
100
AcDbEntity
  8
0
100
AcDbCircle
 62
6
  6
CONTINUOUS
 10
8.5549080139
 20
4.9218748573
 40
0.4337396504
100
AcDbArc
 50
33.8708038442
 51
172.8207212119
  0
ARC
  5
2D6
100
AcDbEntity
  8
0
100
AcDbCircle
 62
6
  6
CONTINUOUS
 10
8.5544627469
 20
4.9220858672
 40
0.4332248648
100
AcDbArc
 50
172.8410498101
 51
179.8741419311
  0
ARC
  5
2D7
100
AcDbEntity
  8
0
100
AcDbCircle
 62
6
  6
CONTINUOUS
 10
8.5535281797
 20
4.921530365
 40
0.4331331024
100
AcDbArc
 50
349.9275698415
 51
0.032950168
  0
ARC
  5
2D8
100
AcDbEntity
  8
0
100
AcDbCircle
 62
6
  6
CONTINUOUS
 10
8.5540626739
 20
4.9218172391
 40
0.4327404896
100
AcDbArc
 50
180.1758915134
 51
349.8777860505
  0
ARC
  5
2D9
100
AcDbEntity
  8
0
100
AcDbCircle
 62
6
  6
CONTINUOUS
 10
8.5546539101
 20
4.9214493347
 40
0.4320048519
100
AcDbArc
 50
0.043782827
 51
33.9086420742
  0
ARC
  5
2DA
100
AcDbEntity
  8
0
100
AcDbCircle
 62
6
  6
CONTINUOUS
 10
8.5549089939
 20
4.9218750526
 40
0.4315152592
100
AcDbArc
 50
33.8806269165
 51
172.8163001043
  0
ARC
  5
2DB
100
AcDbEntity
  8
0
100
AcDbCircle
 62
6
  6
CONTINUOUS
 10
8.5544556964
 20
4.9220882105
 40
0.4309924618
100
AcDbArc
 50
172.8368790166
 51
179.9061566855
  0
ARC
  5
2DC
100
AcDbEntity
  8
0
100
AcDbCircle
 62
6
  6
CONTINUOUS
 10
8.553628344
 20
4.9209100697
 40
0.430937434
100
AcDbArc
 50
23.8153562128
 51
29.9499714443
  0
ARC
  5
2DD
100
AcDbEntity
  8
0
100
AcDbCircle
 62
6
  6
CONTINUOUS
 10
8.55353561
 20
4.921527671
 40
0.4309037059
100
AcDbArc
 50
349.9091664779
 51
0.0334788528
  0
ARC
  5
2DE
100
AcDbEntity
  8
0
100
AcDbCircle
 62
6
  6
CONTINUOUS
 10
8.5540647128
 20
4.921817385
 40
0.4305172075
100
AcDbArc
 50
180.1437484807
 51
349.8588587383
  0
ARC
  5
2DF
100
AcDbEntity
  8
0
100
AcDbCircle
 62
6
  6
CONTINUOUS
 10
8.5543871543
 20
4.921369945
 40
0.4300522831
100
AcDbArc
 50
0.0545589459
 51
11.7654523744
  0
ARC
  5
2E0
100
AcDbEntity
  8
0
100
AcDbCircle
 62
6
  6
CONTINUOUS
 10
8.5510741134
 20
4.9221304328
 40
0.4298361436
100
AcDbArc
 50
179.8790742065
 51
180.218861969
  0
ARC
  5
2E1
100
AcDbEntity
  8
0
100
AcDbCircle
 62
6
  6
CONTINUOUS
 10
8.5550655491
 20
4.9215690492
 40
0.4293555905
100
AcDbArc
 50
11.769481465
 51
17.7572956577
  0
ARC
  5
2E2
100
AcDbEntity
  8
0
100
AcDbCircle
 62
6
  6
CONTINUOUS
 10
8.5549001241
 20
4.9218374591
 40
0.4293220354
100
AcDbArc
 50
35.7054725485
 51
159.0149884488
  0
ARC
  5
2E3
100
AcDbEntity
  8
0
100
AcDbCircle
 62
6
  6
CONTINUOUS
 10
8.5554365726
 20
4.9217192354
 40
0.4289564401
100
AcDbArc
 50
17.7533053715
 51
23.8140043657
  0
ARC
  5
2E4
100
AcDbEntity
  8
0
100
AcDbCircle
 62
6
  6
CONTINUOUS
 10
8.5555448705
 20
4.9220602695
 40
0.4287026092
100
AcDbArc
 50
29.9446534927
 51
33.9143665468
  0
ARC
  5
2E5
100
AcDbEntity
  8
0
100
AcDbCircle
 62
6
  6
CONTINUOUS
 10
8.5535335571
 20
4.9213138267
 40
0.4286791602
100
AcDbArc
 50
349.8900153767
 51
12.517150798
  0
ARC
  5
2E6
100
AcDbEntity
  8
0
100
AcDbCircle
 62
6
  6
CONTINUOUS
 10
8.553827504
 20
4.9209350039
 40
0.4285276201
100
AcDbArc
 50
28.2338734898
 51
33.9222087157
  0
ARC
  5
2E7
100
AcDbEntity
  8
0
100
AcDbCircle
 62
6
  6
CONTINUOUS
 10
8.5541935399
 20
4.9222439038
 40
0.4284911039
100
AcDbArc
 50
159.0318957166
 51
180.0424520587
  0
ARC
  5
2E8
100
AcDbEntity
  8
0
100
AcDbCircle
 62
6
  6
CONTINUOUS
 10
8.5540624695
 20
4.9218184093
 40
0.4282926767
100
AcDbArc
 50
180.0052101809
 51
349.8394685073
  0
ARC
  5
2E9
100
AcDbEntity
  8
0
100
AcDbCircle
 62
6
  6
CONTINUOUS
 10
8.5561438401
 20
4.9224434386
 40
0.4279917508
100
AcDbArc
 50
33.9165373378
 51
35.736769472
  0
ARC
  5
2EA
100
AcDbEntity
  8
0
100
AcDbCircle
 62
6
  6
CONTINUOUS
 10
8.5543316245
 20
4.9212793155
 40
0.4279171542
100
AcDbArc
 50
33.9216228699
 51
37.0163650581
  0
ARC
  5
2EB
100
AcDbEntity
  8
0
100
AcDbCircle
 62
6
  6
CONTINUOUS
 10
8.5544336608
 20
4.9213748751
 40
0.4277890252
100
AcDbArc
 50
14.4443057609
 51
24.8639124057
  0
ARC
  5
2EC
100
AcDbEntity
  8
0
100
AcDbCircle
 62
6
  6
CONTINUOUS
 10
8.554760363
 20
4.9221587291
 40
0.4268384416
100
AcDbArc
 50
37.0005411796
 51
172.8421495351
  0
ARC
  5
2ED
100
AcDbEntity
  8
0
100
AcDbCircle
 62
6
  6
CONTINUOUS
 10
8.5553847377
 20
4.9217828773
 40
0.4267545551
100
AcDbArc
 50
24.8679012344
 51
28.232488809
  0
ARC
  5
2EE
100
AcDbEntity
  8
0
100
AcDbCircle
 62
6
  6
CONTINUOUS
 10
8.5535270245
 20
4.92152964
 40
0.4264617324
100
AcDbArc
 50
349.8709668093
 51
0.0335630265
  0
ARC
  5
2EF
100
AcDbEntity
  8
0
100
AcDbCircle
 62
6
  6
CONTINUOUS
 10
8.5543570431
 20
4.9220937527
 40
0.4264463767
100
AcDbArc
 50
172.8267354952
 51
180.0422278923
  0
ARC
  5
2F0
100
AcDbEntity
  8
0
100
AcDbCircle
 62
6
  6
CONTINUOUS
 10
8.5562545674
 20
4.9219283037
 40
0.4261267512
100
AcDbArc
 50
171.8813441334
 51
172.8324109688
  0
ARC
  5
2F1
100
AcDbEntity
  8
0
100
AcDbCircle
 62
6
  6
CONTINUOUS
 10
8.5540668068
 20
4.9218288842
 40
0.4260771702
100
AcDbArc
 50
180.0066456455
 51
347.2664411618
  0
ARC
  5
2F2
100
AcDbEntity
  8
0
100
AcDbCircle
 62
6
  6
CONTINUOUS
 10
8.5562008697
 20
4.9218536413
 40
0.4259582545
100
AcDbArc
 50
12.5240253134
 51
14.4412359352
  0
ARC
  5
2F3
100
AcDbEntity
  8
0
100
AcDbCircle
 62
6
  6
CONTINUOUS
 10
8.5559117457
 20
4.9219634917
 40
0.4257822181
100
AcDbArc
 50
172.8313530761
 51
176.3714878411
  0
ARC
  5
2F4
100
AcDbEntity
  8
0
100
AcDbCircle
 62
6
  6
CONTINUOUS
 10
8.5550162553
 20
4.9212370664
 40
0.4249442597
100
AcDbArc
 50
347.3160573618
 51
349.8744871416
  0
ARC
  5
2F5
100
AcDbEntity
  8
0
100
AcDbCircle
 62
6
  6
CONTINUOUS
 10
8.5549487625
 20
4.9217596258
 40
0.4249419415
100
AcDbArc
 50
2.78376242
 51
171.833955096
  0
ARC
  5
2F6
100
AcDbEntity
  8
0
100
AcDbCircle
 62
6
  6
CONTINUOUS
 10
8.5558722955
 20
4.9214055867
 40
0.424116553
100
AcDbArc
 50
0.0505075354
 51
2.8375940797
  0
ARC
  5
2F7
100
AcDbEntity
  8
0
100
AcDbCircle
 62
6
  6
CONTINUOUS
 10
8.5538815688
 20
4.9217380502
 40
0.4239621412
100
AcDbArc
 50
323.1001316668
 51
335.1123278056
  0
ARC
  5
2F8
100
AcDbEntity
  8
0
100
AcDbCircle
 62
6
  6
CONTINUOUS
 10
8.5541161847
 20
4.9219121204
 40
0.4239307906
100
AcDbArc
 50
180.0179280215
 51
322.5390638231
  0
ARC
  5
2F9
100
AcDbEntity
  8
0
100
AcDbCircle
 62
6
  6
CONTINUOUS
 10
8.5538646996
 20
4.9214759973
 40
0.4238998192
100
AcDbArc
 50
349.8547776411
 51
0.0844702902
  0
ARC
  5
2FA
100
AcDbEntity
  8
0
100
AcDbCircle
 62
6
  6
CONTINUOUS
 10
8.5538934321
 20
4.9216037221
 40
0.4238961088
100
AcDbArc
 50
336.1343098937
 51
347.738861144
  0
ARC
  5
2FB
100
AcDbEntity
  8
0
100
AcDbCircle
 62
6
  6
CONTINUOUS
 10
8.5547775761
 20
4.9215148118
 40
0.4229747805
100
AcDbArc
 50
2.0742119927
 51
90.108143976
  0
ARC
  5
2FC
100
AcDbEntity
  8
0
100
AcDbCircle
 62
6
  6
CONTINUOUS
 10
8.5530209645
 20
4.9221194293
 40
0.4228873639
100
AcDbArc
 50
176.3677857469
 51
180.0460621245
  0
ARC
  5
2FD
100
AcDbEntity
  8
0
100
AcDbCircle
 62
6
  6
CONTINUOUS
 10
8.5550174887
 20
4.9214634894
 40
0.42274705
100
AcDbArc
 50
0.0863958527
 51
0.4219038982
  0
ARC
  5
2FE
100
AcDbEntity
  8
0
100
AcDbCircle
 62
6
  6
CONTINUOUS
 10
8.5545055856
 20
4.921779455
 40
0.4226836685
100
AcDbArc
 50
93.0696975299
 51
172.7844731303
  0
ARC
  5
2FF
100
AcDbEntity
  8
0
100
AcDbCircle
 62
6
  6
CONTINUOUS
 10
8.5549371294
 20
4.9291119886
 40
0.4222544164
100
AcDbArc
 50
173.7789513449
 51
180.9950028348
  0
ARC
  5
300
100
AcDbEntity
  8
0
100
AcDbCircle
 62
6
  6
CONTINUOUS
 10
8.5556831172
 20
4.9214709215
 40
0.4220813849
100
AcDbArc
 50
0.4215603987
 51
2.0846151012
  0
ARC
  5
301
100
AcDbEntity
  8
0
100
AcDbCircle
 62
6
  6
CONTINUOUS
 10
8.5556936119
 20
4.9208657008
 40
0.4219512551
100
AcDbArc
 50
335.1162326428
 51
336.1270555445
  0
ARC
  5
302
100
AcDbEntity
  8
0
100
AcDbCircle
 62
6
  6
CONTINUOUS
 10
8.5555957544
 20
4.92051708
 40
0.4218582413
100
AcDbArc
 50
322.5672370422
 51
323.0929556333
  0
ARC
  5
303
100
AcDbEntity
  8
0
100
AcDbCircle
 62
6
  6
CONTINUOUS
 10
8.5559268546
 20
4.9211436103
 40
0.4218113608
100
AcDbArc
 50
347.7416104877
 51
349.849881457
  0
ARC
  5
304
100
AcDbEntity
  8
0
100
AcDbCircle
 62
6
  6
CONTINUOUS
 10
8.5547655082
 20
4.9230655985
 40
0.4214134174
100
AcDbArc
 50
90.1069011835
 51
93.1143503135
  0
ARC
  5
305
100
AcDbEntity
  8
0
100
AcDbCircle
 62
6
  6
CONTINUOUS
 10
8.580394017
 20
4.9277712031
 40
0.4189052458
100
AcDbArc
 50
96.6517268217
 51
96.9086404439
  0
ARC
  5
306
100
AcDbEntity
  8
0
100
AcDbCircle
 62
6
  6
CONTINUOUS
 10
8.5473019772
 20
4.9237079869
 40
0.4122015193
100
AcDbArc
 50
244.7802372852
 51
246.3736838483
  0
ARC
  5
307
100
AcDbEntity
  8
0
100
AcDbCircle
 62
6
  6
CONTINUOUS
 10
8.5531138466
 20
4.9145390513
 40
0.4001712069
100
AcDbArc
 50
339.2109540781
 51
1.0367237425
  0
ARC
  5
308
100
AcDbEntity
  8
0
100
AcDbCircle
 62
6
  6
CONTINUOUS
 10
8.5634148082
 20
4.9466655566
 40
0.3925561897
100
AcDbArc
 50
153.2445275107
 51
170.5869867095
  0
ARC
  5
309
100
AcDbEntity
  8
0
100
AcDbCircle
 62
6
  6
CONTINUOUS
 10
8.5615192567
 20
4.9198719469
 40
0.3892235488
100
AcDbArc
 50
71.4297622819
 51
74.1246963411
  0
ARC
  5
30A
100
AcDbEntity
  8
0
100
AcDbCircle
 62
6
  6
CONTINUOUS
 10
8.5547999191
 20
4.9220090389
 40
0.3889508396
100
AcDbArc
 50
73.9719720587
 51
166.7933598193
  0
ARC
  5
30B
100
AcDbEntity
  8
0
100
AcDbCircle
 62
6
  6
CONTINUOUS
 10
8.5621698127
 20
4.9221044848
 40
0.3868982057
100
AcDbArc
 50
74.1269242893
 51
75.0171087778
  0
ARC
  5
30C
100
AcDbEntity
  8
0
100
AcDbCircle
 62
6
  6
CONTINUOUS
 10
8.5556461467
 20
4.9246164451
 40
0.3862207723
100
AcDbArc
 50
73.2181886477
 51
73.9858290311
  0
CIRCLE
  5
30D
100
AcDbEntity
  8
0
100
AcDbCircle
 62
6
  6
CONTINUOUS
 10
8.5545055856
 20
4.921779455
 40
0.3726836685
  0
CIRCLE
  5
30E
100
AcDbEntity
  8
0
100
AcDbCircle
 62
6
  6
CONTINUOUS
 10
8.5545055856
 20
4.921779455
 40
0.2875
  0
CIRCLE
  5
30F
100
AcDbEntity
  8
0
100
AcDbCircle
 62
6
  6
CONTINUOUS
 10
8.5545055856
 20
4.921779455
 40
0.2675
  0
CIRCLE
  5
310
100
AcDbEntity
  8
0
100
AcDbCircle
 62
6
  6
CONTINUOUS
 10
8.5545055856
 20
4.921779455
 40
0.115
  0
SPLINE
  5
311
100
AcDbEntity
  8
0
100
AcDbSpline
 62
6
  6
CONTINUOUS
 70
0
 71
3
 72
22
 73
18
 74
16
 42
0.0000001
 43
0.0000001
 44
0.0000000001
 12
-0.0088946372
 22
0.4839608197
 32
0.0
 13
-0.4588422852
 23
0.1541458622
 33
0.0
 40
0.0
 40
0.0
 40
0.0
 40
0.0
 40
0.1248811357
 40
0.1874228489
 40
0.2499398909
 40
0.3124402105
 40
0.3749378966
 40
0.4374424429
 40
0.4999494278
 40
0.5624544467
 40
0.6249567891
 40
0.6874532731
 40
0.7499427305
 40
0.8124355962
 40
0.8749473804
 40
0.9374856344
 40
1.0
 40
1.0
 40
1.0
 40
1.0
 10
8.9532197631
 20
4.921779455
 30
0.0
 10
8.9528495056
 20
4.941925314
 30
0.0
 10
8.9499800126
 20
4.9721833237
 30
0.0
 10
8.9416369338
 20
5.0116648013
 30
0.0
 10
8.9331255738
 20
5.0407388457
 30
0.0
 10
8.9224281715
 20
5.0690702638
 30
0.0
 10
8.9095982278
 20
5.0965010427
 30
0.0
 10
8.8947037821
 20
5.1228687069
 30
0.0
 10
8.8778397577
 20
5.1480238323
 30
0.0
 10
8.8590935525
 20
5.1718095038
 30
0.0
 10
8.8385736958
 20
5.194080533
 30
0.0
 10
8.8164088523
 20
5.2147114625
 30
0.0
 10
8.7927195047
 20
5.2335703513
 30
0.0
 10
8.7676442723
 20
5.2505470423
 30
0.0
 10
8.7413261563
 20
5.2655424449
 30
0.0
 10
8.713920989
 20
5.2784482526
 30
0.0
 10
8.6950355039
 20
5.2856180588
 30
0.0
 10
8.6854740924
 20
5.288830169
 30
0.0
 11
8.9532197631
 21
4.921779455
 31
0.0
 11
8.9475219836
 21
4.9819581042
 31
0.0
 11
8.9412608084
 21
5.011576395
 31
0.0
 11
8.9327600226
 21
5.0406187643
 31
0.0
 11
8.9220724744
 21
5.068920868
 31
0.0
 11
8.9092547381
 21
5.0963227158
 31
0.0
 11
8.8943758213
 21
5.1226661094
 31
0.0
 11
8.8775258351
 21
5.1477958913
 31
0.0
 11
8.8587974774
 21
5.1715576045
 31
0.0
 11
8.8382985661
 21
5.1938081468
 31
0.0
 11
8.8161537222
 21
5.214417036
 31
0.0
 11
8.7924893147
 21
5.233256104
 31
0.0
 11
8.7674408447
 21
5.2502145418
 31
0.0
 11
8.7411492647
 21
5.2651919039
 31
0.0
 11
8.7137639504
 21
5.2780910763
 31
0.0
 11
8.6854740924
 21
5.288830169
 31
0.0
  0
SPLINE
  5
312
100
AcDbEntity
  8
0
100
AcDbSpline
 62
6
  6
CONTINUOUS
 70
0
 71
3
 72
21
 73
17
 74
15
 42
0.0000001
 43
0.0000001
 44
0.0000000001
 12
0.0080873996
 22
-0.4646593656
 32
0.0
 13
0.4204305449
 23
-0.1980199206
 33
0.0
 40
0.0
 40
0.0
 40
0.0
 40
0.0
 40
0.1248909429
 40
0.187441874
 40
0.2499727046
 40
0.3124801153
 40
0.3749772497
 40
0.437477663
 40
0.499985842
 40
0.5624964472
 40
0.625005498
 40
0.6875137318
 40
0.7500219658
 40
0.8125314065
 40
0.8750448458
 40
1.0
 40
1.0
 40
1.0
 40
1.0
 10
8.1327463833
 20
4.921779455
 30
0.0
 10
8.1330830643
 20
4.9024355396
 30
0.0
 10
8.1356061772
 20
4.8733869026
 30
0.0
 10
8.14290963
 20
4.8353377536
 30
0.0
 10
8.1503591911
 20
4.8072230948
 30
0.0
 10
8.1597353216
 20
4.7797027434
 30
0.0
 10
8.1709901117
 20
4.752900055
 30
0.0
 10
8.1840804526
 20
4.7269442581
 30
0.0
 10
8.1989424361
 20
4.7019583507
 30
0.0
 10
8.2155003108
 20
4.6780607739
 30
0.0
 10
8.2336833242
 20
4.6553748523
 30
0.0
 10
8.2534066532
 20
4.6340149362
 30
0.0
 10
8.274567868
 20
4.6140795777
 30
0.0
 10
8.2970735557
 20
4.5956695101
 30
0.0
 10
8.3287090538
 20
4.5733003542
 30
0.0
 10
8.3541548154
 20
4.5590453298
 30
0.0
 10
8.3716664699
 20
4.5507974599
 30
0.0
 11
8.1327463833
 21
4.921779455
 31
0.0
 11
8.1377564573
 21
4.8639555592
 31
0.0
 11
8.1432385093
 21
4.8354078793
 31
0.0
 11
8.1506817303
 21
4.8073173403
 31
0.0
 11
8.1600492534
 21
4.7798201227
 31
0.0
 11
8.1712958009
 21
4.7530416761
 31
0.0
 11
8.1843749809
 21
4.7271072665
 31
0.0
 11
8.1992247678
 21
4.7021402475
 31
0.0
 11
8.2157713127
 21
4.6782625262
 31
0.0
 11
8.2339401649
 21
4.6555957099
 31
0.0
 11
8.2536462924
 21
4.6342523684
 31
0.0
 11
8.274791703
 21
4.6143340022
 31
0.0
 11
8.2972775593
 21
4.5959413803
 31
0.0
 11
8.3209982322
 21
4.5791681896
 31
0.0
 11
8.3716664699
 21
4.5507974599
 31
0.0
  0
SPLINE
  5
313
100
AcDbEntity
  8
0
100
AcDbSpline
 62
6
  6
CONTINUOUS
 70
0
 71
3
 72
24
 73
20
 74
18
 42
0.0000001
 43
0.0000001
 44
0.0000000001
 12
0.6046061952
 22
-0.2644801925
 32
0.0
 13
0.2341101635
 23
0.6170015031
 33
0.0
 40
0.0
 40
0.0
 40
0.0
 40
0.0
 40
0.0625052572
 40
0.1250083935
 40
0.1875092499
 40
0.2500073293
 40
0.3125023406
 40
0.3749975078
 40
0.4062554072
 40
0.4375146056
 40
0.5000159708
 40
0.5625174182
 40
0.6250196024
 40
0.6875184295
 40
0.7500144214
 40
0.8125105575
 40
0.8750109648
 40
0.9375104234
 40
1.0
 40
1.0
 40
1.0
 40
1.0
 10
8.3821040242
 20
4.5460577137
 30
0.0
 10
8.3947010461
 20
4.5405472462
 30
0.0
 10
8.4204638063
 20
4.5307789086
 30
0.0
 10
8.460359675
 20
4.520051076
 30
0.0
 10
8.5011333697
 20
4.5133812281
 30
0.0
 10
8.542367045
 20
4.5108172498
 30
0.0
 10
8.5836471271
 20
4.5124143384
 30
0.0
 10
8.6177472715
 20
4.5171949826
 30
0.0
 10
8.6446241122
 20
4.5230615673
 30
0.0
 10
8.6711704754
 20
4.5302827086
 30
0.0
 10
8.7036215263
 20
4.5418084849
 30
0.0
 10
8.7409579735
 20
4.5594996145
 30
0.0
 10
8.7763065098
 20
4.5808904869
 30
0.0
 10
8.8093093605
 20
4.6057460072
 30
0.0
 10
8.8396041268
 20
4.6338375899
 30
0.0
 10
8.8668908711
 20
4.6648596326
 30
0.0
 10
8.8908584903
 20
4.6985149429
 30
0.0
 10
8.9112695768
 20
4.7344316056
 30
0.0
 10
8.9223552239
 20
4.7596547945
 30
0.0
 10
8.9272317056
 20
4.7725068487
 30
0.0
 11
8.3821040242
 21
4.5460577137
 31
0.0
 11
8.4206729903
 21
4.5314328455
 31
0.0
 11
8.4605067274
 21
4.5207272467
 31
0.0
 11
8.5012109368
 21
4.5140654394
 31
0.0
 11
8.5423756632
 21
4.5115107452
 31
0.0
 11
8.5835867659
 21
4.5131042236
 31
0.0
 11
8.6244292152
 21
4.5188310884
 31
0.0
 11
8.6445823531
 21
4.5232308038
 31
0.0
 11
8.6644878717
 21
4.5286448748
 31
0.0
 11
8.7033543676
 21
4.5424519574
 31
0.0
 11
8.7406265911
 21
4.5601162113
 31
0.0
 11
8.7759163361
 21
4.5814684599
 31
0.0
 11
8.808858666
 21
4.6062858885
 31
0.0
 11
8.8391027367
 21
4.6343259264
 31
0.0
 11
8.8663370192
 21
4.6652976755
 31
0.0
 11
8.8902659541
 21
4.6988922281
 31
0.0
 11
8.9106402238
 21
4.734753424
 31
0.0
 11
8.9272317056
 21
4.7725068487
 31
0.0
  0
SPLINE
  5
314
100
AcDbEntity
  8
0
100
AcDbSpline
 62
6
  6
CONTINUOUS
 70
0
 71
3
 72
18
 73
14
 74
12
 42
0.0000001
 43
0.0000001
 44
0.0000000001
 12
0.1808563616
 22
0.3589339044
 32
0.0
 13
0.3990053179
 23
0.0483459152
 33
0.0
 40
0.0
 40
0.0
 40
0.0
 40
0.0
 40
0.1249454415
 40
0.2498988164
 40
0.3124143557
 40
0.3749319776
 40
0.4374517675
 40
0.4999727528
 40
0.5624904146
 40
0.6250031271
 40
0.7499955304
 40
0.875055102
 40
1.0
 40
1.0
 40
1.0
 40
1.0
 10
8.2128877886
 20
5.123387707
 30
0.0
 10
8.2204201812
 20
5.1383367588
 30
0.0
 10
8.2373991968
 20
5.1673119468
 30
0.0
 10
8.2630067729
 20
5.2005636381
 30
0.0
 10
8.2858380896
 20
5.2250923829
 30
0.0
 10
8.3040822826
 20
5.2423950133
 30
0.0
 10
8.323364118
 20
5.2585327659
 30
0.0
 10
8.3436013728
 20
5.2734544653
 30
0.0
 10
8.3647155068
 20
5.2871072503
 30
0.0
 10
8.3939212214
 20
5.3035446154
 30
0.0
 10
8.4322385631
 20
5.3207184018
 30
0.0
 10
8.4803433117
 20
5.3355964927
 30
0.0
 10
8.5133874575
 20
5.3416213423
 30
0.0
 10
8.5300053504
 20
5.3436348674
 30
0.0
 11
8.2128877886
 21
5.123387707
 31
0.0
 11
8.2382746941
 21
5.1667167367
 31
0.0
 11
8.2689044338
 21
5.2065167252
 31
0.0
 11
8.2860237145
 21
5.2249088354
 31
0.0
 11
8.3042549157
 21
5.2422005923
 31
0.0
 11
8.3235232303
 21
5.2583299879
 31
0.0
 11
8.3437480181
 21
5.2732433191
 31
0.0
 11
8.3648484296
 21
5.286887182
 31
0.0
 11
8.3867432489
 21
5.2992119248
 31
0.0
 11
8.4325858544
 21
5.3197606817
 31
0.0
 11
8.4806016135
 21
5.3346266147
 31
0.0
 11
8.5300053504
 21
5.3436348674
 31
0.0
  0
SPLINE
  5
315
100
AcDbEntity
  8
0
100
AcDbSpline
 62
6
  6
CONTINUOUS
 70
0
 71
3
 72
48
 73
44
 74
42
 42
0.0000001
 43
0.0000001
 44
0.0000000001
 12
0.7984331347
 22
-0.0006237905
 32
0.0
 13
0.1067480373
 23
-0.7912652629
 33
0.0
 40
0.0
 40
0.0
 40
0.0
 40
0.0
 40
0.0001665759
 40
0.0003576347
 40
0.0005900051
 40
0.00087324
 40
0.00161061
 40
0.0025919201
 40
0.0038255053
 40
0.0053154128
 40
0.0070632199
 40
0.0090689211
 40
0.011331981
 40
0.013851572
 40
0.0196561147
 40
0.0264733445
 40
0.0342929477
 40
0.0431014681
 40
0.0528782892
 40
0.0752489703
 40
0.1012266646
 40
0.1305948819
 40
0.1631016968
 40
0.1984841075
 40
0.2364381531
 40
0.2766481336
 40
0.3187793562
 40
0.3624739145
 40
0.4073697482
 40
0.4530888453
 40
0.5454600306
 40
0.6365001886
 40
0.7231680663
 40
0.8025671609
 40
0.872047121
 40
0.9023326837
 40
0.9292964768
 40
0.9527252874
 40
0.9724173989
 40
0.980810553
 40
0.9882148721
 40
0.9946159376
 40
1.0
 40
1.0
 40
1.0
 40
1.0
 10
2.9363476882
 20
3.9417936574
 30
0.0
 10
2.9363920214
 20
3.9417936228
 30
0.0
 10
2.936487798
 20
3.9417725388
 30
0.0
 10
2.9366213269
 20
3.9416859067
 30
0.0
 10
2.9367515697
 20
3.9415486931
 30
0.0
 10
2.936940532
 20
3.941272824
 30
0.0
 10
2.9371653787
 20
3.9407868263
 30
0.0
 10
2.9374194542
 20
3.9400429882
 30
0.0
 10
2.9376750928
 20
3.9390899928
 30
0.0
 10
2.9379321391
 20
3.9379278794
 30
0.0
 10
2.9381899888
 20
3.936556201
 30
0.0
 10
2.938448478
 20
3.9349758211
 30
0.0
 10
2.9387074212
 20
3.9331877084
 30
0.0
 10
2.9390704481
 20
3.9303933917
 30
0.0
 10
2.9395165227
 20
3.9263880587
 30
0.0
 10
2.9400319337
 20
3.9209720288
 30
0.0
 10
2.9405484888
 20
3.9147534737
 30
0.0
 10
2.9410659118
 20
3.9077449445
 30
0.0
 10
2.9417896586
 20
3.8968687055
 30
0.0
 10
2.9426787352
 20
3.8814242977
 30
0.0
 10
2.9437075885
 20
3.8607659413
 30
0.0
 10
2.9447387967
 20
3.8374070778
 30
0.0
 10
2.9457722861
 20
3.8115431347
 30
0.0
 10
2.9468066013
 20
3.7833924921
 30
0.0
 10
2.9478420429
 20
3.7531904585
 30
0.0
 10
2.9488780527
 20
3.7211912963
 30
0.0
 10
2.9499143741
 20
3.68766358
 30
0.0
 10
2.9509511337
 20
3.6528881926
 30
0.0
 10
2.9519879575
 20
3.6171575037
 30
0.0
 10
2.9533752371
 20
3.5684765244
 30
0.0
 10
2.9550876064
 20
3.5075187729
 30
0.0
 10
2.9571344388
 20
3.4356678303
 30
0.0
 10
2.9591771237
 20
3.3672706341
 30
0.0
 10
2.9612133705
 20
3.304614129
 30
0.0
 10
2.9629693309
 20
3.2569624599
 30
0.0
 10
2.9644099449
 20
3.2232648335
 30
0.0
 10
2.965438154
 20
3.2018172751
 30
0.0
 10
2.9664623154
 20
3.1831925979
 30
0.0
 10
2.9673509201
 20
3.1695107919
 30
0.0
 10
2.9680784974
 20
3.1600933844
 30
0.0
 10
2.9685934978
 20
3.1542077079
 30
0.0
 10
2.969106802
 20
3.1491262496
 30
0.0
 10
2.9694793591
 20
3.1460115612
 30
0.0
 10
2.9696709385
 20
3.1445914874
 30
0.0
 11
2.9363476882
 21
3.9417936574
 31
0.0
 11
2.9364780225
 21
3.941767164
 31
0.0
 11
2.9366083555
 21
3.9416878916
 31
0.0
 11
2.9367386872
 21
3.9415558467
 31
0.0
 11
2.9368690176
 21
3.9413710355
 31
0.0
 11
2.9371296746
 21
3.9408431399
 31
0.0
 11
2.9373903263
 21
3.9401042557
 31
0.0
 11
2.9376509728
 21
3.9391544339
 31
0.0
 11
2.9379116141
 21
3.9379937466
 31
0.0
 11
2.9381722501
 21
3.9366227944
 31
0.0
 11
2.938432881
 21
3.9350427267
 31
0.0
 11
2.9386935067
 21
3.9332547191
 31
0.0
 11
2.9389541271
 21
3.9312599468
 31
0.0
 11
2.9394753524
 21
3.9266548094
 31
0.0
 11
2.9399965569
 21
3.9212367169
 31
0.0
 11
2.9405177406
 21
3.9150150763
 31
0.0
 11
2.9410389035
 21
3.9080013958
 31
0.0
 11
2.9415600455
 21
3.9002126708
 31
0.0
 11
2.9426022673
 21
3.8823816052
 31
0.0
 11
2.9436444058
 21
3.8616663442
 31
0.0
 11
2.9446864613
 21
3.8382409452
 31
0.0
 11
2.9457284337
 21
3.8123073431
 31
0.0
 11
2.9467703231
 21
3.7840760646
 31
0.0
 11
2.9478121294
 21
3.7537902011
 31
0.0
 11
2.9488538528
 21
3.7217021155
 31
0.0
 11
2.9498954932
 21
3.6880792723
 31
0.0
 11
2.9509370507
 21
3.6532076299
 31
0.0
 11
2.9519785253
 21
3.6173764303
 31
0.0
 11
2.9530199171
 21
3.5808876348
 31
0.0
 11
2.9551024522
 21
3.5071648053
 31
0.0
 11
2.9571846562
 21
3.4345051331
 31
0.0
 11
2.9592665294
 21
3.3653379309
 31
0.0
 11
2.9613480719
 21
3.301977226
 31
0.0
 11
2.9634292839
 21
3.24654116
 31
0.0
 11
2.964469766
 21
3.2223825516
 31
0.0
 11
2.9655101656
 21
3.2008789131
 31
0.0
 11
2.9665504826
 21
3.1822015187
 31
0.0
 11
2.9675907171
 21
3.1665131286
 31
0.0
 11
2.9681108034
 21
3.1598319664
 31
0.0
 11
2.968630869
 21
3.1539430303
 31
0.0
 11
2.9691509141
 21
3.1488587331
 31
0.0
 11
2.9696709385
 21
3.1445914874
 31
0.0
  0
SPLINE
  5
316
100
AcDbEntity
  8
0
100
AcDbSpline
 62
6
  6
CONTINUOUS
 70
0
 71
3
 72
13
 73
9
 74
7
 42
0.0000001
 43
0.0000001
 44
0.0000000001
 12
0.0011556118
 22
-0.0085659234
 32
0.0
 13
0.0043196238
 23
-0.0074867438
 33
0.0
 40
0.0
 40
0.0
 40
0.0
 40
0.0
 40
0.3604087529
 40
0.6466747293
 40
0.7621372538
 40
0.8593025725
 40
0.9384217417
 40
1.0
 40
1.0
 40
1.0
 40
1.0
 10
2.9696709385
 20
3.1445914874
 30
0.0
 10
2.9698097694
 20
3.1435624095
 30
0.0
 10
2.9700792667
 20
3.1417186575
 30
0.0
 10
2.9704733659
 20
3.1395573822
 30
0.0
 10
2.9707998298
 20
3.1381572805
 30
0.0
 10
2.9710259485
 20
3.1373472066
 30
0.0
 10
2.971250757
 20
3.1366994662
 30
0.0
 10
2.9714197145
 20
3.1363293342
 30
0.0
 10
2.9715083795
 20
3.1361756607
 30
0.0
 11
2.9696709385
 21
3.1445914874
 31
0.0
 11
2.9701303229
 21
3.141510344
 31
0.0
 11
2.9705896912
 21
3.1390790129
 31
0.0
 11
2.9708193693
 21
3.1381077983
 31
0.0
 11
2.9710490434
 21
3.1372999623
 31
0.0
 11
2.9712787134
 21
3.1366558136
 31
0.0
 11
2.9715083795
 21
3.1361756607
 31
0.0
  0
SPLINE
  5
317
100
AcDbEntity
  8
0
100
AcDbSpline
 62
6
  6
CONTINUOUS
 70
0
 71
3
 72
18
 73
14
 74
12
 42
0.0000001
 43
0.0000001
 44
0.0000000001
 12
-0.0068763227
 22
0.3741435089
 32
0.0
 13
-0.0271520907
 23
0.3732203278
 33
0.0
 40
0.0
 40
0.0
 40
0.0
 40
0.0
 40
0.1688602996
 40
0.3330196916
 40
0.488081222
 40
0.6301187598
 40
0.7553749639
 40
0.8106594361
 40
0.8605412054
 40
0.904703784
 40
0.9428406546
 40
0.9746849005
 40
1.0
 40
1.0
 40
1.0
 40
1.0
 10
2.5025360946
 20
3.5392954582
 30
0.0
 10
2.5021490486
 20
3.5603547866
 30
0.0
 10
2.5013836409
 20
3.6018871343
 30
0.0
 10
2.5002266546
 20
3.6627572316
 30
0.0
 10
2.4990683994
 20
3.7202809296
 30
0.0
 10
2.4979102752
 20
3.7729509545
 30
0.0
 10
2.4969105305
 20
3.8131756218
 30
0.0
 10
2.4960920169
 20
3.841905871
 30
0.0
 10
2.4955039707
 20
3.8605232424
 30
0.0
 10
2.4949166616
 20
3.8770005269
 30
0.0
 10
2.4943306365
 20
3.8912263702
 30
0.0
 10
2.4937470474
 20
3.9030989539
 30
0.0
 10
2.4933134839
 20
3.9102159717
 30
0.0
 10
2.4930843646
 20
3.9133653416
 30
0.0
 11
2.5025360946
 21
3.5392954582
 31
0.0
 11
2.5013666636
 21
3.6024732903
 31
0.0
 11
2.5001932192
 21
3.6638916248
 31
0.0
 11
2.4990170016
 21
3.7219047645
 31
0.0
 11
2.4978373014
 21
3.7750430685
 31
0.0
 11
2.496654306
 21
3.8218998472
 31
0.0
 11
2.496061616
 21
3.8425791749
 31
0.0
 11
2.4954680803
 21
3.861235828
 31
0.0
 11
2.4948735154
 21
3.8777510615
 31
0.0
 11
2.4942777574
 21
3.892009693
 31
0.0
 11
2.4936811398
 21
3.9039110781
 31
0.0
 11
2.4930843646
 21
3.9133653416
 31
0.0
  0
LINE
  5
318
100
AcDbEntity
  8
0
100
AcDbLine
 62
6
  6
CONTINUOUS
 10
2.4930843646
 20
3.9133653416
 11
2.4929958061
 21
3.9284693193
  0
SPLINE
  5
319
100
AcDbEntity
  8
0
100
AcDbSpline
 62
6
  6
CONTINUOUS
 70
0
 71
3
 72
53
 73
49
 74
47
 42
0.0000001
 43
0.0000001
 44
0.0000000001
 12
0.8010525513
 22
0.0011431313
 32
0.0
 13
0.2216782106
 23
-0.7697696199
 33
0.0
 40
0.0
 40
0.0
 40
0.0
 40
0.0
 40
0.0001725371
 40
0.0003718363
 40
0.0006160963
 40
0.0009154346
 40
0.0016984402
 40
0.0027438437
 40
0.0040601416
 40
0.0056504869
 40
0.0075157755
 40
0.009655987
 40
0.0120706045
 40
0.01475882
 40
0.0209518923
 40
0.028226161
 40
0.0365694238
 40
0.0459610475
 40
0.0563781838
 40
0.0801966304
 40
0.107822834
 40
0.1389974156
 40
0.1734459082
 40
0.2108560536
 40
0.250886155
 40
0.2931810933
 40
0.3373524234
 40
0.3830046113
 40
0.4297247687
 40
0.4770892396
 40
0.5720436109
 40
0.6644450751
 40
0.7086425474
 40
0.7509669094
 40
0.7910414773
 40
0.8284978831
 40
0.8630062956
 40
0.8942528328
 40
0.9219551608
 40
0.9458731862
 40
0.965782686
 40
0.9741821347
 40
0.9815209617
 40
0.9877819641
 40
0.9929505529
 40
0.9970221279
 40
0.9986472436
 40
1.0
 40
1.0
 40
1.0
 40
1.0
 10
2.864918138
 20
3.9395472144
 30
0.0
 10
2.8649642084
 20
3.9395472801
 30
0.0
 10
2.8650641687
 20
3.9395246837
 30
0.0
 10
2.8652027613
 20
3.9394318275
 30
0.0
 10
2.8653378258
 20
3.9392849733
 30
0.0
 10
2.8655341966
 20
3.9389890217
 30
0.0
 10
2.8657674737
 20
3.9384679382
 30
0.0
 10
2.8660311415
 20
3.9376704088
 30
0.0
 10
2.8662963729
 20
3.936648304
 30
0.0
 10
2.8665632071
 20
3.9354021768
 30
0.0
 10
2.866830934
 20
3.9339319648
 30
0.0
 10
2.867099321
 20
3.9322387141
 30
0.0
 10
2.8673681791
 20
3.9303233874
 30
0.0
 10
2.8677451048
 20
3.9273307464
 30
0.0
 10
2.8682082742
 20
3.9230415523
 30
0.0
 10
2.8687433609
 20
3.9172422249
 30
0.0
 10
2.8692794682
 20
3.910585768
 30
0.0
 10
2.8698167302
 20
3.9030878285
 30
0.0
 10
2.8705680145
 20
3.8914627648
 30
0.0
 10
2.8714907861
 20
3.8749700846
 30
0.0
 10
2.8725585483
 20
3.8529350174
 30
0.0
 10
2.8736293846
 20
3.8280587427
 30
0.0
 10
2.8747019331
 20
3.8005679023
 30
0.0
 10
2.8757757309
 20
3.7707108863
 30
0.0
 10
2.8768506111
 20
3.7387575141
 30
0.0
 10
2.8779258483
 20
3.7049978384
 30
0.0
 10
2.8790016991
 20
3.6697362613
 30
0.0
 10
2.8800777223
 20
3.6332925486
 30
0.0
 10
2.8811538871
 20
3.595995854
 30
0.0
 10
2.882590021
 20
3.5455395116
 30
0.0
 10
2.8843608395
 20
3.4828900388
 30
0.0
 10
2.8861537767
 20
3.4210871657
 30
0.0
 10
2.8876087015
 20
3.3733336103
 30
0.0
 10
2.8886832982
 20
3.3395471908
 30
0.0
 10
2.8897568219
 20
3.3075616726
 30
0.0
 10
2.8908296076
 20
3.2776643707
 30
0.0
 10
2.891900722
 20
3.2501258696
 30
0.0
 10
2.8929698338
 20
3.2251939461
 30
0.0
 10
2.8940361048
 20
3.2030925567
 30
0.0
 10
2.8950977526
 20
3.1840221618
 30
0.0
 10
2.8960207484
 20
3.1701066857
 30
0.0
 10
2.8967779919
 20
3.1606181008
 30
0.0
 10
2.8973118716
 20
3.1547680785
 30
0.0
 10
2.8978430505
 20
3.1497844587
 30
0.0
 10
2.8983718346
 20
3.1456790423
 30
0.0
 10
2.8988345977
 20
3.1428137203
 30
0.0
 10
2.8992191964
 20
3.1409708167
 30
0.0
 10
2.8994134846
 20
3.1401993263
 30
0.0
 10
2.8995134435
 20
3.1398522227
 30
0.0
 11
2.864918138
 21
3.9395472144
 31
0.0
 11
2.8650534616
 21
3.9395191089
 31
0.0
 11
2.8651887837
 21
3.9394343986
 31
0.0
 11
2.8653241043
 21
3.939293072
 31
0.0
 11
2.8654594235
 21
3.9390951174
 31
0.0
 11
2.8657300574
 21
3.9385292783
 31
0.0
 11
2.8660006855
 21
3.9377367889
 31
0.0
 11
2.8662713076
 21
3.9367176837
 31
0.0
 11
2.8665419239
 21
3.9354728065
 31
0.0
 11
2.8668125342
 21
3.9340033199
 31
0.0
 11
2.8670831387
 21
3.9323103871
 31
0.0
 11
2.8673537373
 21
3.9303951714
 31
0.0
 11
2.86762433
 21
3.9282588361
 31
0.0
 11
2.8681654978
 21
3.9233274596
 31
0.0
 11
2.8687066421
 21
3.9175255638
 31
0.0
 11
2.8692477629
 21
3.910864107
 31
0.0
 11
2.8697888602
 21
3.9033603993
 31
0.0
 11
2.870329934
 21
3.8950332775
 31
0.0
 11
2.8714120113
 21
3.8759841394
 31
0.0
 11
2.8724939949
 21
3.853880542
 31
0.0
 11
2.873575885
 21
3.8289314849
 31
0.0
 11
2.8746576816
 21
3.8013576167
 31
0.0
 11
2.8757393848
 21
3.7714096226
 31
0.0
 11
2.8768209947
 21
3.7393616218
 31
0.0
 11
2.8779025115
 21
3.7054983853
 31
0.0
 11
2.8789839353
 21
3.6701313222
 31
0.0
 11
2.8800652662
 21
3.6335774738
 31
0.0
 11
2.8811465042
 21
3.5961677564
 31
0.0
 11
2.8822276495
 21
3.5582416943
 31
0.0
 11
2.8843896623
 21
3.482208908
 31
0.0
 11
2.8865513054
 21
3.4082219751
 31
0.0
 11
2.8876319886
 21
3.3728339383
 31
0.0
 11
2.8887125796
 21
3.3389470903
 31
0.0
 11
2.8897930787
 21
3.3068634119
 31
0.0
 11
2.8908734857
 21
3.2768782899
 31
0.0
 11
2.891953801
 21
3.2492563277
 31
0.0
 11
2.8930340244
 21
3.2242495043
 31
0.0
 11
2.8941141563
 21
3.2020847641
 31
0.0
 11
2.8951941965
 21
3.1829556148
 31
0.0
 11
2.8962741453
 21
3.1670436491
 31
0.0
 11
2.8968140854
 21
3.1603369418
 31
0.0
 11
2.8973540026
 21
3.1544829957
 31
0.0
 11
2.8978938971
 21
3.1494967424
 31
0.0
 11
2.8984337687
 21
3.1453917758
 31
0.0
 11
2.8989736175
 21
3.1421752149
 31
0.0
 11
2.8992435333
 21
3.1409017
 31
0.0
 11
2.8995134435
 21
3.1398522227
 31
0.0
  0
LINE
  5
31A
100
AcDbEntity
  8
0
100
AcDbLine
 62
6
  6
CONTINUOUS
 10
2.8995134435
 20
3.1398522227
 11
2.9000755535
 21
3.1383885178
  0
SPLINE
  5
31B
100
AcDbEntity
  8
0
100
AcDbSpline
 62
6
  6
CONTINUOUS
 70
0
 71
3
 72
10
 73
6
 74
4
 42
0.0000001
 43
0.0000001
 44
0.0000000001
 12
0.0186173126
 22
0.2187454566
 32
0.0
 13
0.0
 23
0.219536282
 33
0.0
 40
0.0
 40
0.0
 40
0.0
 40
0.0
 40
0.5001085084
 40
0.7500726452
 40
1.0
 40
1.0
 40
1.0
 40
1.0
 10
3.3245055856
 20
3.5392954582
 30
0.0
 10
3.3276091444
 20
3.5757609463
 30
0.0
 10
3.3313973509
 20
3.6305372249
 30
0.0
 10
3.3340524649
 20
3.7036729555
 30
0.0
 10
3.3345055856
 20
3.7402560841
 30
0.0
 10
3.3345055856
 20
3.7585454582
 30
0.0
 11
3.3245055856
 21
3.5392954582
 31
0.0
 11
3.3318619778
 21
3.6488406934
 31
0.0
 11
3.3338339934
 21
3.7036814462
 31
0.0
 11
3.3345055856
 21
3.7585454582
 31
0.0
  0
SPLINE
  5
31C
100
AcDbEntity
  8
0
100
AcDbSpline
 62
6
  6
CONTINUOUS
 70
0
 71
3
 72
10
 73
6
 74
4
 42
0.0000001
 43
0.0000001
 44
0.0000000001
 12
-0.0186173126
 22
0.2187454567
 32
0.0
 13
0.0
 23
0.2195362821
 33
0.0
 40
0.0
 40
0.0
 40
0.0
 40
0.0
 40
0.5001085084
 40
0.7500726452
 40
1.0
 40
1.0
 40
1.0
 40
1.0
 10
3.0945055856
 20
3.5392954582
 30
0.0
 10
3.0914020268
 20
3.5757609463
 30
0.0
 10
3.0876138203
 20
3.630537225
 30
0.0
 10
3.0849587063
 20
3.7036729556
 30
0.0
 10
3.0845055856
 20
3.7402560842
 30
0.0
 10
3.0845055856
 20
3.7585454582
 30
0.0
 11
3.0945055856
 21
3.5392954582
 31
0.0
 11
3.0871491934
 21
3.6488406934
 31
0.0
 11
3.0851771779
 21
3.7036814463
 31
0.0
 11
3.0845055856
 21
3.7585454582
 31
0.0
  0
SPLINE
  5
31D
100
AcDbEntity
  8
0
100
AcDbSpline
 62
6
  6
CONTINUOUS
 70
0
 71
3
 72
10
 73
6
 74
4
 42
0.0000001
 43
0.0000001
 44
0.0000000001
 12
0.0
 22
0.2195363042
 32
0.0
 13
0.0186173145
 23
0.2187454787
 33
0.0
 40
0.0
 40
0.0
 40
0.0
 40
0.0
 40
0.2499273878
 40
0.4998904118
 40
1.0
 40
1.0
 40
1.0
 40
1.0
 10
3.0845055856
 20
3.7585454582
 30
0.0
 10
3.0845055856
 20
3.7768348366
 30
0.0
 10
3.0849580029
 20
3.8134178985
 30
0.0
 10
3.0876135974
 20
3.8865536302
 30
0.0
 10
3.0914020198
 20
3.9413298878
 30
0.0
 10
3.0945055856
 20
3.9777954582
 30
0.0
 11
3.0845055856
 21
3.7585454582
 31
0.0
 11
3.0851767117
 21
3.8134094887
 31
0.0
 11
3.0871488267
 21
3.8682499991
 31
0.0
 11
3.0945055856
 21
3.9777954582
 31
0.0
  0
SPLINE
  5
31E
100
AcDbEntity
  8
0
100
AcDbSpline
 62
6
  6
CONTINUOUS
 70
0
 71
3
 72
10
 73
6
 74
4
 42
0.0000001
 43
0.0000001
 44
0.0000000001
 12
-0.0013789704
 22
0.2045057103
 32
0.0
 13
-0.0173430708
 23
0.2037736612
 33
0.0
 40
0.0
 40
0.0
 40
0.0
 40
0.0
 40
0.2499265969
 40
0.4998913089
 40
1.0
 40
1.0
 40
1.0
 40
1.0
 10
3.334454846
 20
3.7735731902
 30
0.0
 10
3.3343399656
 20
3.790610329
 30
0.0
 10
3.3337197278
 20
3.8246859027
 30
0.0
 10
3.3309816973
 20
3.8928050061
 30
0.0
 10
3.3273967258
 20
3.9438257986
 30
0.0
 10
3.3245055856
 20
3.9777954582
 30
0.0
 11
3.334454846
 21
3.7735731902
 31
0.0
 11
3.3335326837
 21
3.824677449
 31
0.0
 11
3.3314965418
 21
3.8757572558
 31
0.0
 11
3.3245055856
 21
3.9777954582
 31
0.0
  0
SPLINE
  5
31F
100
AcDbEntity
  8
0
100
AcDbSpline
 62
6
  6
CONTINUOUS
 70
0
 71
3
 72
13
 73
9
 74
7
 42
0.0000001
 43
0.0000001
 44
0.0000000001
 12
0.0094406903
 22
-0.0891771153
 32
0.0
 13
0.0038346027
 23
-0.0895934169
 33
0.0
 40
0.0
 40
0.0
 40
0.0
 40
0.0
 40
0.0779942052
 40
0.1702238206
 40
0.2763151766
 40
0.3958889198
 40
0.6737843682
 40
1.0
 40
1.0
 40
1.0
 40
1.0
 10
2.4930843646
 20
3.9133653416
 30
0.0
 10
2.4933298043
 20
3.9110469089
 30
0.0
 10
2.4938077837
 20
3.9059807864
 30
0.0
 10
2.4944685909
 20
3.8977475562
 30
0.0
 10
2.4951320075
 20
3.8882681553
 30
0.0
 10
2.4960658777
 20
3.8732447059
 30
0.0
 10
2.4972058934
 20
3.8516421093
 30
0.0
 10
2.4980225969
 20
3.8336025169
 30
0.0
 10
2.4984395661
 20
3.8238602592
 30
0.0
 11
2.4930843646
 21
3.9133653416
 31
0.0
 11
2.4937529293
 21
3.906403204
 31
0.0
 11
2.4944223762
 21
3.8981596102
 31
0.0
 11
2.4950922811
 21
3.8886694359
 31
0.0
 11
2.4957622197
 21
3.8779675565
 31
0.0
 11
2.4971012189
 21
3.8530831588
 31
0.0
 11
2.4984395661
 21
3.8238602592
 31
0.0
  0
SPLINE
  5
320
100
AcDbEntity
  8
0
100
AcDbSpline
 62
6
  6
CONTINUOUS
 70
0
 71
3
 72
15
 73
11
 74
9
 42
0.0000001
 43
0.0000001
 44
0.0000000001
 12
0.0216956008
 22
-0.5371001774
 32
0.0
 13
0.0215597126
 23
-0.5371056492
 33
0.0
 40
0.0
 40
0.0
 40
0.0
 40
0.0
 40
0.1081206239
 40
0.2304079545
 40
0.3624528248
 40
0.4994961716
 40
0.6366027756
 40
0.7688375579
 40
0.8914399432
 40
1.0
 40
1.0
 40
1.0
 40
1.0
 10
2.4990876477
 20
3.808262623
 30
0.0
 10
2.4998695617
 20
3.7889054209
 30
0.0
 10
2.5013802123
 20
3.7476484423
 30
0.0
 10
2.503494652
 20
3.6827387384
 30
0.0
 10
2.5056149783
 20
3.6126443257
 30
0.0
 10
2.5077379928
 20
3.5398935554
 30
0.0
 10
2.5098607123
 20
3.467108734
 30
0.0
 10
2.5119801984
 20
3.3969124373
 30
0.0
 10
2.5140933511
 20
3.3318333873
 30
0.0
 10
2.5156014457
 20
3.2904410456
 30
0.0
 10
2.5163816202
 20
3.2710049724
 30
0.0
 11
2.4990876477
 21
3.808262623
 31
0.0
 11
2.5012506612
 21
3.7501839235
 31
0.0
 11
2.5034132654
 21
3.6844853975
 31
0.0
 11
2.5055755202
 21
3.61353918
 31
0.0
 11
2.5077374451
 21
3.5399048787
 31
0.0
 11
2.5098990161
 21
3.4662365492
 31
0.0
 11
2.5120602389
 21
3.395188168
 31
0.0
 11
2.5142211077
 21
3.3293201396
 31
0.0
 11
2.5163816202
 21
3.2710049724
 31
0.0
  0
SPLINE
  5
321
100
AcDbEntity
  8
0
100
AcDbSpline
 62
6
  6
CONTINUOUS
 70
0
 71
3
 72
27
 73
23
 74
21
 42
0.0000001
 43
0.0000001
 44
0.0000000001
 12
0.0049202531
 22
-0.1225756483
 32
0.0
 13
0.1226736519
 23
0.0004166203
 33
0.0
 40
0.0
 40
0.0
 40
0.0
 40
0.0
 40
0.2231766611
 40
0.4215015528
 40
0.5929988818
 40
0.6680953615
 40
0.7358437745
 40
0.7960903068
 40
0.8486832078
 40
0.8934749519
 40
0.9129093671
 40
0.9303610988
 40
0.9458265143
 40
0.9593039235
 40
0.9707949381
 40
0.9803072485
 40
0.9878610057
 40
0.9935060191
 40
0.9956527544
 40
0.9973921557
 40
0.9987965116
 40
1.0
 40
1.0
 40
1.0
 40
1.0
 10
2.5163816202
 20
3.2710049724
 30
0.0
 10
2.5167476488
 20
3.2618862977
 30
0.0
 10
2.5174697186
 20
3.2446655475
 30
0.0
 10
2.5186103377
 20
3.2204436918
 30
0.0
 10
2.5195943144
 20
3.2022766689
 30
0.0
 10
2.520395972
 20
3.1894477053
 30
0.0
 10
2.520969573
 20
3.1811627606
 30
0.0
 10
2.5215419069
 20
3.1738003508
 30
0.0
 10
2.5221127309
 20
3.167379766
 30
0.0
 10
2.5226067807
 20
3.1626281626
 30
0.0
 10
2.5230090705
 20
3.1593124707
 30
0.0
 10
2.5232959669
 20
3.1571909646
 30
0.0
 10
2.5235823526
 20
3.155315457
 30
0.0
 10
2.5238680213
 20
3.1536867148
 30
0.0
 10
2.524152737
 20
3.152305603
 30
0.0
 10
2.5244356723
 20
3.1511719201
 30
0.0
 10
2.5247167664
 20
3.1502865084
 30
0.0
 10
2.5249652267
 20
3.1497071517
 30
0.0
 10
2.5251748164
 20
3.1493773621
 30
0.0
 10
2.5253186328
 20
3.1492141132
 30
0.0
 10
2.5254663516
 20
3.1491106319
 30
0.0
 10
2.5255737597
 20
3.1490853467
 30
0.0
 10
2.5256229718
 20
3.1490855138
 30
0.0
 11
2.5163816202
 21
3.2710049724
 31
0.0
 11
2.5175371528
 21
3.2436513148
 31
0.0
 11
2.5186925822
 21
3.2193493876
 31
0.0
 11
2.5198479081
 21
3.1983428091
 31
0.0
 11
2.5204255321
 21
3.1891485231
 31
0.0
 11
2.5210031301
 21
3.1808576252
 31
0.0
 11
2.521580702
 21
3.1734895232
 31
0.0
 11
2.5221582478
 21
3.1670636248
 31
0.0
 11
2.5227357674
 21
3.1615992601
 31
0.0
 11
2.5230245174
 21
3.1592327062
 31
0.0
 11
2.5233132609
 21
3.1571113872
 31
0.0
 11
2.5236019978
 21
3.1552362774
 31
0.0
 11
2.5238907281
 21
3.1536083514
 31
0.0
 11
2.5241794518
 21
3.1522285834
 31
0.0
 11
2.524468169
 21
3.1510979478
 31
0.0
 11
2.5247568796
 21
3.1502174192
 31
0.0
 11
2.5250455836
 21
3.1495879717
 31
0.0
 11
2.5251899331
 21
3.149367708
 31
0.0
 11
2.525334281
 21
3.1492105626
 31
0.0
 11
2.5254786272
 21
3.1491165198
 31
0.0
 11
2.5256229718
 21
3.1490855138
 31
0.0
  0
SPLINE
  5
322
100
AcDbEntity
  8
0
100
AcDbSpline
 62
6
  6
CONTINUOUS
 70
0
 71
3
 72
53
 73
49
 74
47
 42
0.0000001
 43
0.0000001
 44
0.0000000001
 12
0.7968919421
 22
0.0024829302
 32
0.0
 13
0.2393775177
 23
-0.7600929787
 33
0.0
 40
0.0
 40
0.0
 40
0.0
 40
0.0
 40
0.0001738069
 40
0.0003743989
 40
0.0006201325
 40
0.0009212445
 40
0.0017089921
 40
0.0027608162
 40
0.0040843591
 40
0.0056825744
 40
0.0075565387
 40
0.0097064121
 40
0.0121318568
 40
0.0148322421
 40
0.0210543847
 40
0.0283647545
 40
0.0367476255
 40
0.0461817757
 40
0.0566455422
 40
0.0805736649
 40
0.1083219682
 40
0.1396302808
 40
0.1742250369
 40
0.2117846957
 40
0.2519708191
 40
0.2944205187
 40
0.338743418
 40
0.384542109
 40
0.4313973656
 40
0.4788842821
 40
0.5740296063
 40
0.6665309897
 40
0.71073557
 40
0.7530390785
 40
0.793058209
 40
0.8304262181
 40
0.8648129304
 40
0.8958985328
 40
0.9234094695
 40
0.9470971289
 40
0.96674459
 40
0.9750022863
 40
0.9821902591
 40
0.9882905426
 40
0.9932932622
 40
0.9971952298
 40
0.9987341274
 40
1.0
 40
1.0
 40
1.0
 40
1.0
 10
2.7934866843
 20
3.9373398964
 30
0.0
 10
2.7935328527
 20
3.9373400403
 30
0.0
 10
2.7936330238
 20
3.9373176326
 30
0.0
 10
2.7937720075
 20
3.9372249493
 30
0.0
 10
2.7939074377
 20
3.9370781822
 30
0.0
 10
2.7941043343
 20
3.9367822323
 30
0.0
 10
2.7943382022
 20
3.9362608581
 30
0.0
 10
2.7946024304
 20
3.9354629576
 30
0.0
 10
2.7948683766
 20
3.9344407882
 30
0.0
 10
2.7951359247
 20
3.9331951133
 30
0.0
 10
2.7954043607
 20
3.9317258368
 30
0.0
 10
2.7956734513
 20
3.9300338618
 30
0.0
 10
2.7959430114
 20
3.9281200093
 30
0.0
 10
2.7963209403
 20
3.9251293324
 30
0.0
 10
2.7967853515
 20
3.9208421254
 30
0.0
 10
2.7973216598
 20
3.9150453136
 30
0.0
 10
2.7978591815
 20
3.9083922334
 30
0.0
 10
2.7983978806
 20
3.9008992195
 30
0.0
 10
2.7991512081
 20
3.8892819481
 30
0.0
 10
2.8000761775
 20
3.8728011854
 30
0.0
 10
2.8011468162
 20
3.8507836865
 30
0.0
 10
2.8022205189
 20
3.825929976
 30
0.0
 10
2.8032957441
 20
3.7984679599
 30
0.0
 10
2.8043725151
 20
3.7686461228
 30
0.0
 10
2.8054501315
 20
3.7367365333
 30
0.0
 10
2.8065282534
 20
3.7030294662
 30
0.0
 10
2.8076069776
 20
3.6678308159
 30
0.0
 10
2.8086858121
 20
3.6314613842
 30
0.0
 10
2.8097648787
 20
3.5942511363
 30
0.0
 10
2.8112045374
 20
3.5439377974
 30
0.0
 10
2.8129796468
 20
3.4815040302
 30
0.0
 10
2.8147775787
 20
3.4199431492
 30
0.0
 10
2.8162369048
 20
3.3724149039
 30
0.0
 10
2.8173142583
 20
3.3388224918
 30
0.0
 10
2.8183906527
 20
3.3070470367
 30
0.0
 10
2.8194662738
 20
3.2773757872
 30
0.0
 10
2.8205399835
 20
3.250079163
 30
0.0
 10
2.8216120319
 20
3.2254030356
 30
0.0
 10
2.8226805999
 20
3.2035716899
 30
0.0
 10
2.8237448111
 20
3.1847826402
 30
0.0
 10
2.8246704604
 20
3.171108679
 30
0.0
 10
2.8254304299
 20
3.1618176745
 30
0.0
 10
2.8259653624
 20
3.1561192928
 30
0.0
 10
2.8264976442
 20
3.1512894709
 30
0.0
 10
2.8270272372
 20
3.1473387731
 30
0.0
 10
2.8274909409
 20
3.1446021855
 30
0.0
 10
2.8278777236
 20
3.1428628258
 30
0.0
 10
2.8280732819
 20
3.142143345
 30
0.0
 10
2.8281742891
 20
3.141822618
 30
0.0
 11
2.7934866843
 21
3.9373398964
 31
0.0
 11
2.793622353
 21
3.9373120056
 31
0.0
 11
2.7937580205
 21
3.9372274676
 31
0.0
 11
2.7938936867
 21
3.9370862524
 31
0.0
 11
2.7940293516
 21
3.9368883297
 31
0.0
 11
2.7943006776
 21
3.9363222416
 31
0.0
 11
2.7945719985
 21
3.9355291751
 31
0.0
 11
2.7948433143
 21
3.9345099429
 31
0.0
 11
2.7951146249
 21
3.9332655653
 31
0.0
 11
2.7953859305
 21
3.9317970626
 31
0.0
 11
2.7956572309
 21
3.9301054549
 31
0.0
 11
2.7959285262
 21
3.9281917627
 31
0.0
 11
2.7961998163
 21
3.926057006
 31
0.0
 11
2.7967423812
 21
3.9211283806
 31
0.0
 11
2.7972849255
 21
3.9153280965
 31
0.0
 11
2.7978274491
 21
3.908669888
 31
0.0
 11
2.7983699521
 21
3.9011714524
 31
0.0
 11
2.7989124343
 21
3.8928505857
 31
0.0
 11
2.7999973361
 21
3.8738132532
 31
0.0
 11
2.8010821543
 21
3.8517273726
 31
0.0
 11
2.8021668883
 21
3.8268015012
 31
0.0
 11
2.8032515378
 21
3.7992544305
 31
0.0
 11
2.8043361023
 21
3.7693429519
 31
0.0
 11
2.8054205815
 21
3.7373371665
 31
0.0
 11
2.8065049748
 21
3.7035265639
 31
0.0
 11
2.8075892819
 21
3.6682224786
 31
0.0
 11
2.8086735025
 21
3.6317418018
 31
0.0
 11
2.8097576361
 21
3.5944187864
 31
0.0
 11
2.8108416824
 21
3.5565921919
 31
0.0
 11
2.8130095118
 21
3.4808022787
 31
0.0
 11
2.8151769878
 21
3.4071201868
 31
0.0
 11
2.8162605924
 21
3.3719104123
 31
0.0
 11
2.8173441078
 21
3.3382163407
 31
0.0
 11
2.8184275336
 21
3.3063436721
 31
0.0
 11
2.8195108695
 21
3.2765849745
 31
0.0
 11
2.8205941152
 21
3.2492037667
 31
0.0
 11
2.8216772705
 21
3.2244554722
 31
0.0
 11
2.8227603351
 21
3.2025588913
 31
0.0
 11
2.8238433088
 21
3.1837133861
 31
0.0
 11
2.8249261912
 21
3.1680938993
 31
0.0
 11
2.8254675982
 21
3.1615356854
 31
0.0
 11
2.8260089822
 21
3.1558332616
 31
0.0
 11
2.8265503434
 21
3.1510022087
 31
0.0
 11
2.8270916816
 21
3.1470524871
 31
0.0
 11
2.8276329968
 21
3.1439905058
 31
0.0
 11
2.8279036458
 21
3.1427944031
 31
0.0
 11
2.8281742891
 21
3.141822618
 31
0.0
  0
LINE
  5
323
100
AcDbEntity
  8
0
100
AcDbLine
 62
6
  6
CONTINUOUS
 10
2.8281742891
 20
3.141822618
 11
2.8286424127
 21
3.1406736072
  0
SPLINE
  5
324
100
AcDbEntity
  8
0
100
AcDbSpline
 62
6
  6
CONTINUOUS
 70
0
 71
3
 72
39
 73
35
 74
33
 42
0.0000001
 43
0.0000001
 44
0.0000000001
 12
0.0213669856
 22
-0.6182388026
 32
0.0
 13
0.6186041133
 23
0.0021716493
 33
0.0
 40
0.0
 40
0.0
 40
0.0
 40
0.0
 40
0.0749786085
 40
0.1551852958
 40
0.2390296681
 40
0.3250217221
 40
0.4116182056
 40
0.4972242968
 40
0.5802828115
 40
0.659279094
 40
0.7327786966
 40
0.7670418804
 40
0.7994415486
 40
0.8298257747
 40
0.8580535052
 40
0.8840041136
 40
0.9075593894
 40
0.928604825
 40
0.9470515426
 40
0.9628225814
 40
0.9696810896
 40
0.9758428245
 40
0.9813023095
 40
0.986056426
 40
0.9901027478
 40
0.9934400863
 40
0.9948432926
 40
0.9960701939
 40
0.9971220245
 40
0.9980010923
 40
0.9987118242
 40
0.9992635373
 40
0.999676897
 40
1.0
 40
1.0
 40
1.0
 40
1.0
 10
2.7153252242
 20
3.7600664958
 30
0.0
 10
2.7158592465
 20
3.7446149341
 30
0.0
 10
2.7169131971
 20
3.7126326336
 30
0.0
 10
2.7184353296
 20
3.6633675761
 30
0.0
 10
2.7199584364
 20
3.6118305174
 30
0.0
 10
2.7214820478
 20
3.5589753284
 30
0.0
 10
2.7230057237
 20
3.5057567214
 30
0.0
 10
2.7245291063
 20
3.4531432578
 30
0.0
 10
2.7260512782
 20
3.4020976064
 30
0.0
 10
2.7275720036
 20
3.3535494561
 30
0.0
 10
2.7288651658
 20
3.3150609008
 30
0.0
 10
2.7299107391
 20
3.2861779349
 30
0.0
 10
2.730675978
 20
3.2661811907
 30
0.0
 10
2.7314407186
 20
3.247429917
 30
0.0
 10
2.7322050442
 20
3.2300096189
 30
0.0
 10
2.7329684667
 20
3.2139988842
 30
0.0
 10
2.7337306607
 20
3.1994709293
 30
0.0
 10
2.7344915707
 20
3.1864925544
 30
0.0
 10
2.7352506199
 20
3.1751223131
 30
0.0
 10
2.7359068995
 20
3.1666774399
 30
0.0
 10
2.73644117
 20
3.160764613
 30
0.0
 10
2.7368225424
 20
3.1569730928
 30
0.0
 10
2.737203263
 20
3.1536178797
 30
0.0
 10
2.7375829035
 20
3.1507018574
 30
0.0
 10
2.7379612527
 20
3.1482275658
 30
0.0
 10
2.7382905538
 20
3.1464452903
 30
0.0
 10
2.7385603833
 20
3.1452445723
 30
0.0
 10
2.7387505171
 20
3.1445093769
 30
0.0
 10
2.738940073
 20
3.1438861378
 30
0.0
 10
2.7391290111
 20
3.1433748531
 30
0.0
 10
2.7393170131
 20
3.1429742531
 30
0.0
 10
2.7395056261
 20
3.1426831961
 30
0.0
 10
2.7396979985
 20
3.142494071
 30
0.0
 10
2.7398500032
 20
3.1424425712
 30
0.0
 10
2.7399166275
 20
3.1424428051
 30
0.0
 11
2.7153252242
 21
3.7600664958
 31
0.0
 11
2.7168623449
 21
3.7137096116
 31
0.0
 11
2.7184013188
 21
3.6641169924
 31
0.0
 11
2.7199391528
 21
3.6122730023
 31
0.0
 11
2.7214767303
 21
3.5590998622
 31
0.0
 11
2.7230144716
 21
3.5055526667
 31
0.0
 11
2.7245520552
 21
3.4526183866
 31
0.0
 11
2.7260894315
 21
3.4012607365
 31
0.0
 11
2.7276266529
 21
3.3524171941
 31
0.0
 11
2.7291636924
 21
3.3069757449
 31
0.0
 11
2.7299321339
 21
3.2857942023
 31
0.0
 11
2.7307005217
 21
3.2657662453
 31
0.0
 11
2.7314688552
 21
3.2469860326
 31
0.0
 11
2.7322371334
 21
3.2295410442
 31
0.0
 11
2.7330053548
 21
3.2135061841
 31
0.0
 11
2.7337735182
 21
3.1989549655
 31
0.0
 11
2.7345416222
 21
3.1859587708
 31
0.0
 11
2.7353096659
 21
3.1745733613
 31
0.0
 11
2.7360776485
 21
3.1648475458
 31
0.0
 11
2.7364616167
 21
3.1606222286
 31
0.0
 11
2.7368455695
 21
3.1568299177
 31
0.0
 11
2.7372295066
 21
3.1534745314
 31
0.0
 11
2.7376134282
 21
3.1505587643
 31
0.0
 11
2.7379973341
 21
3.1480852931
 31
0.0
 11
2.7383812243
 21
3.1460567948
 31
0.0
 11
2.7385731635
 21
3.145210247
 31
0.0
 11
2.7387650988
 21
3.1444759462
 31
0.0
 11
2.7389570301
 21
3.143854227
 31
0.0
 11
2.7391489575
 21
3.143345424
 31
0.0
 11
2.7393408809
 21
3.1429498609
 31
0.0
 11
2.7395328004
 21
3.1426676401
 31
0.0
 11
2.7397247159
 21
3.1424986585
 31
0.0
 11
2.7399166275
 21
3.1424428051
 31
0.0
  0
SPLINE
  5
325
100
AcDbEntity
  8
0
100
AcDbSpline
 62
6
  6
CONTINUOUS
 70
0
 71
3
 72
33
 73
29
 74
27
 42
0.0000001
 43
0.0000001
 44
0.0000000001
 12
0.02134028
 22
-0.617466095
 32
0.0
 13
0.3093801339
 23
-0.5347931551
 33
0.0
 40
0.0
 40
0.0
 40
0.0
 40
0.0
 40
0.0732848072
 40
0.1516026791
 40
0.2334638605
 40
0.3174762454
 40
0.4022058061
 40
0.4861623072
 40
0.5678866453
 40
0.6459549356
 40
0.7190172781
 40
0.785795524
 40
0.8164659149
 40
0.8451369521
 40
0.8716886165
 40
0.8960103619
 40
0.9179919709
 40
0.9375348859
 40
0.954564065
 40
0.9690080665
 40
0.9807993196
 40
0.9856867263
 40
0.9898983238
 40
0.9934324845
 40
0.9962893347
 40
0.9984729525
 40
0.9993166697
 40
1.0
 40
1.0
 40
1.0
 40
1.0
 10
2.7331852242
 20
3.7600664958
 30
0.0
 10
2.7337065303
 20
3.7449828678
 30
0.0
 10
2.7347360029
 20
3.7137780022
 30
0.0
 10
2.7362238772
 20
3.6657203164
 30
0.0
 10
2.7377126518
 20
3.6154523622
 30
0.0
 10
2.7392019002
 20
3.5638634114
 30
0.0
 10
2.7406912295
 20
3.5118427657
 30
0.0
 10
2.7421803685
 20
3.4602935187
 30
0.0
 10
2.7436684717
 20
3.4101166774
 30
0.0
 10
2.7451552917
 20
3.3621844095
 30
0.0
 10
2.7466397195
 20
3.3173317017
 30
0.0
 10
2.7479073705
 20
3.2822386254
 30
0.0
 10
2.7489334124
 20
3.2562851678
 30
0.0
 10
2.7496806424
 20
3.2386116843
 30
0.0
 10
2.7504272299
 20
3.2222468938
 30
0.0
 10
2.7511728484
 20
3.2072612592
 30
0.0
 10
2.7519172823
 20
3.1937209219
 30
0.0
 10
2.752660502
 20
3.1816849025
 30
0.0
 10
2.7534010708
 20
3.1712043155
 30
0.0
 10
2.7541382801
 20
3.1623245522
 30
0.0
 10
2.7547809341
 20
3.1559466179
 30
0.0
 10
2.755309963
 20
3.1516767986
 30
0.0
 10
2.7556804349
 20
3.1491014145
 30
0.0
 10
2.7560486907
 20
3.1469486066
 30
0.0
 10
2.756414757
 20
3.1452208415
 30
0.0
 10
2.7567362603
 20
3.1440503472
 30
0.0
 10
2.7570059831
 20
3.1433348593
 30
0.0
 10
2.7571424725
 20
3.1430506017
 30
0.0
 10
2.7572129421
 20
3.1429287882
 30
0.0
 11
2.7331852242
 21
3.7600664958
 31
0.0
 11
2.7346870331
 21
3.7148135081
 31
0.0
 11
2.7361907158
 21
3.6664493746
 31
0.0
 11
2.7376933111
 21
3.6158950169
 31
0.0
 11
2.7391955906
 21
3.56401099
 31
0.0
 11
2.7406980452
 21
3.5116836878
 31
0.0
 11
2.742200376
 21
3.4598342037
 31
0.0
 11
2.7437025001
 21
3.409364416
 31
0.0
 11
2.7452044742
 21
3.3611545041
 31
0.0
 11
2.7467062817
 21
3.3160390388
 31
0.0
 11
2.7482078917
 21
3.2748084526
 31
0.0
 11
2.7489586197
 21
3.2558740961
 31
0.0
 11
2.7497092954
 21
3.2381760459
 31
0.0
 11
2.7504599176
 21
3.2217886869
 31
0.0
 11
2.7512104851
 21
3.2067806238
 31
0.0
 11
2.7519609966
 21
3.193220375
 31
0.0
 11
2.7527114508
 21
3.1811694269
 31
0.0
 11
2.7534618473
 21
3.1706750023
 31
0.0
 11
2.7542121852
 21
3.1617825966
 31
0.0
 11
2.754962464
 21
3.1545362888
 31
0.0
 11
2.7553375812
 21
3.1515400695
 31
0.0
 11
2.7557126834
 21
3.1489651766
 31
0.0
 11
2.7560877706
 21
3.1468141068
 31
0.0
 11
2.7564628428
 21
3.1450893569
 31
0.0
 11
2.7568379
 21
3.1437934235
 31
0.0
 11
2.7570254229
 21
3.1433070433
 31
0.0
 11
2.7572129421
 21
3.1429287882
 31
0.0
  0
LINE
  5
326
100
AcDbEntity
  8
0
100
AcDbLine
 62
6
  6
CONTINUOUS
 10
2.9351280813
 20
3.9394829531
 11
2.9357919373
 21
3.9413141622
  0
SPLINE
  5
327
100
AcDbEntity
  8
0
100
AcDbSpline
 62
6
  6
CONTINUOUS
 70
0
 71
3
 72
10
 73
6
 74
4
 42
0.0000001
 43
0.0000001
 44
0.0000000001
 12
0.0173431878
 22
0.2037750352
 32
0.0
 13
0.0013826791
 23
0.2045070642
 33
0.0
 40
0.0
 40
0.0
 40
0.0
 40
0.0
 40
0.5001071702
 40
0.7500723499
 40
1.0
 40
1.0
 40
1.0
 40
1.0
 10
3.3245055856
 20
3.1007954582
 30
0.0
 10
3.3273967365
 20
3.1347652436
 30
0.0
 10
3.3309809616
 20
3.1857863481
 30
0.0
 10
3.33371998
 20
3.2539058786
 30
0.0
 10
3.3343395004
 20
3.2879817967
 30
0.0
 10
3.3344546903
 20
3.30501912
 30
0.0
 11
3.3245055856
 21
3.1007954582
 31
0.0
 11
3.3314962116
 21
3.2028340627
 31
0.0
 11
3.3335326309
 21
3.2539142993
 31
0.0
 11
3.3344546903
 21
3.30501912
 31
0.0
  0
SPLINE
  5
328
100
AcDbEntity
  8
0
100
AcDbSpline
 62
6
  6
CONTINUOUS
 70
0
 71
3
 72
10
 73
6
 74
4
 42
0.0000001
 43
0.0000001
 44
0.0000000001
 12
-0.0186173126
 22
0.2187454567
 32
0.0
 13
0.0
 23
0.2195362821
 33
0.0
 40
0.0
 40
0.0
 40
0.0
 40
0.0
 40
0.5001085084
 40
0.7500726452
 40
1.0
 40
1.0
 40
1.0
 40
1.0
 10
3.0945055856
 20
3.1007954582
 30
0.0
 10
3.0914020268
 20
3.1372609463
 30
0.0
 10
3.0876138203
 20
3.192037225
 30
0.0
 10
3.0849587063
 20
3.2651729556
 30
0.0
 10
3.0845055856
 20
3.3017560842
 30
0.0
 10
3.0845055856
 20
3.3200454582
 30
0.0
 11
3.0945055856
 21
3.1007954582
 31
0.0
 11
3.0871491934
 21
3.2103406934
 31
0.0
 11
3.0851771779
 21
3.2651814463
 31
0.0
 11
3.0845055856
 21
3.3200454582
 31
0.0
  0
SPLINE
  5
329
100
AcDbEntity
  8
0
100
AcDbSpline
 62
6
  6
CONTINUOUS
 70
0
 71
3
 72
10
 73
6
 74
4
 42
0.0000001
 43
0.0000001
 44
0.0000000001
 12
0.0
 22
0.2195363042
 32
0.0
 13
0.0186173145
 23
0.2187454787
 33
0.0
 40
0.0
 40
0.0
 40
0.0
 40
0.0
 40
0.2499273878
 40
0.4998904118
 40
1.0
 40
1.0
 40
1.0
 40
1.0
 10
3.0845055856
 20
3.3200454582
 30
0.0
 10
3.0845055856
 20
3.3383348366
 30
0.0
 10
3.0849580029
 20
3.3749178985
 30
0.0
 10
3.0876135974
 20
3.4480536302
 30
0.0
 10
3.0914020198
 20
3.5028298878
 30
0.0
 10
3.0945055856
 20
3.5392954582
 30
0.0
 11
3.0845055856
 21
3.3200454582
 31
0.0
 11
3.0851767117
 21
3.3749094887
 31
0.0
 11
3.0871488267
 21
3.4297499991
 31
0.0
 11
3.0945055856
 21
3.5392954582
 31
0.0
  0
SPLINE
  5
32A
100
AcDbEntity
  8
0
100
AcDbSpline
 62
6
  6
CONTINUOUS
 70
0
 71
3
 72
10
 73
6
 74
4
 42
0.0000001
 43
0.0000001
 44
0.0000000001
 12
0.0
 22
0.2195363043
 32
0.0
 13
-0.0186173145
 23
0.2187454788
 33
0.0
 40
0.0
 40
0.0
 40
0.0
 40
0.0
 40
0.2499273878
 40
0.4998904118
 40
1.0
 40
1.0
 40
1.0
 40
1.0
 10
3.3345055856
 20
3.3200454582
 30
0.0
 10
3.3345055856
 20
3.3383348365
 30
0.0
 10
3.3340531684
 20
3.3749178984
 30
0.0
 10
3.3313975739
 20
3.4480536302
 30
0.0
 10
3.3276091514
 20
3.5028298878
 30
0.0
 10
3.3245055856
 20
3.5392954582
 30
0.0
 11
3.3345055856
 21
3.3200454582
 31
0.0
 11
3.3338344596
 21
3.3749094886
 31
0.0
 11
3.3318623445
 21
3.429749999
 31
0.0
 11
3.3245055856
 21
3.5392954582
 31
0.0
  0
LINE
  5
32B
100
AcDbEntity
  8
0
100
AcDbLine
 62
6
  6
CONTINUOUS
 10
8.1190150304
 20
4.921779455
 11
8.119015662
 21
4.9229484757
  0
LINE
  5
32C
100
AcDbEntity
  8
0
100
AcDbLine
 62
6
  6
CONTINUOUS
 10
8.9911056732
 20
4.9229651542
 11
8.9911082575
 21
4.921779455
  0
LINE
  5
32D
100
AcDbEntity
  8
0
100
AcDbLine
 62
6
  6
CONTINUOUS
 10
8.1234634418
 20
4.921779455
 11
8.1234638127
 21
4.9227941219
  0
LINE
  5
32E
100
AcDbEntity
  8
0
100
AcDbLine
 62
6
  6
CONTINUOUS
 10
8.1190176388
 20
4.9205888544
 11
8.1190150304
 21
4.921779455
  0
LINE
  5
32F
100
AcDbEntity
  8
0
100
AcDbLine
 62
6
  6
CONTINUOUS
 10
8.123465568
 20
4.9207370593
 11
8.1234634418
 21
4.921779455
  0
SPLINE
  5
330
100
AcDbEntity
  8
0
100
AcDbSpline
 62
6
  6
CONTINUOUS
 70
0
 71
3
 72
17
 73
13
 74
11
 42
0.0000001
 43
0.0000001
 44
0.0000000001
 12
0.0070038906
 22
0.0001646554
 32
0.0
 13
0.0010429923
 23
-0.006927753
 33
0.0
 40
0.0
 40
0.0
 40
0.0
 40
0.0
 40
0.0179111288
 40
0.0384849501
 40
0.0636678704
 40
0.0945438996
 40
0.1754047025
 40
0.283484653
 40
0.419660265
 40
0.5843434965
 40
0.7777501212
 40
1.0
 40
1.0
 40
1.0
 40
1.0
 10
3.0271490826
 20
3.9775666584
 30
0.0
 10
3.0271908984
 20
3.9775676414
 30
0.0
 10
3.0272818718
 20
3.9775492122
 30
0.0
 10
3.0274085214
 20
3.9774672049
 30
0.0
 10
3.0275317398
 20
3.977335931
 30
0.0
 10
3.0277108682
 20
3.9770700006
 30
0.0
 10
3.0279235466
 20
3.9765999574
 30
0.0
 10
3.0281639087
 20
3.9758794992
 30
0.0
 10
3.0284058183
 20
3.9749549979
 30
0.0
 10
3.0286492072
 20
3.9738265284
 30
0.0
 10
3.0288934291
 20
3.9724932755
 30
0.0
 10
3.0290460538
 20
3.9715346064
 30
0.0
 10
3.0291233221
 20
3.9710213756
 30
0.0
 11
3.0271490826
 21
3.9775666584
 31
0.0
 11
3.0272724545
 21
3.977543742
 31
0.0
 11
3.0273958255
 21
3.9774692103
 31
0.0
 11
3.0275191961
 21
3.9773430905
 31
0.0
 11
3.0276425673
 21
3.9771654096
 31
0.0
 11
3.0278893138
 21
3.9766554737
 31
0.0
 11
3.028136071
 21
3.97593962
 31
0.0
 11
3.0283828445
 21
3.9750180659
 31
0.0
 11
3.0286296404
 21
3.9738910288
 31
0.0
 11
3.0288764643
 21
3.9725587263
 31
0.0
 11
3.0291233221
 21
3.9710213756
 31
0.0
  0
SPLINE
  5
331
100
AcDbEntity
  8
0
100
AcDbSpline
 62
6
  6
CONTINUOUS
 70
0
 71
3
 72
11
 73
7
 74
5
 42
0.0000001
 43
0.0000001
 44
0.0000000001
 12
0.003888714
 22
-0.0258295769
 32
0.0
 13
0.0017871149
 23
-0.0260594581
 33
0.0
 40
0.0
 40
0.0
 40
0.0
 40
0.0
 40
0.180650773
 40
0.4080693286
 40
0.6814655525
 40
1.0
 40
1.0
 40
1.0
 40
1.0
 10
3.0291233221
 20
3.9710213756
 30
0.0
 10
3.0293574885
 20
3.969465998
 30
0.0
 10
3.0298019285
 20
3.9659400252
 30
0.0
 10
3.030399966
 20
3.9600365853
 30
0.0
 10
3.0310010242
 20
3.9529276874
 30
0.0
 10
3.0313748166
 20
3.947787302
 30
0.0
 10
3.0315645692
 20
3.945020357
 30
0.0
 11
3.0291233221
 21
3.9710213756
 31
0.0
 11
3.0297340737
 21
3.9663423496
 31
0.0
 11
3.0303447467
 21
3.960433498
 31
0.0
 11
3.0309550192
 21
3.9533183306
 31
0.0
 11
3.0315645692
 21
3.945020357
 31
0.0
  0
SPLINE
  5
332
100
AcDbEntity
  8
0
100
AcDbSpline
 62
6
  6
CONTINUOUS
 70
0
 71
3
 72
37
 73
33
 74
31
 42
0.0000001
 43
0.0000001
 44
0.0000000001
 12
0.4366628126
 22
0.0135081138
 32
0.0
 13
0.0113738761
 23
-0.4367236151
 33
0.0
 40
0.0
 40
0.0
 40
0.0
 40
0.0
 40
0.0003262474
 40
0.0007122958
 40
0.0011991639
 40
0.001807662
 40
0.0025482917
 40
0.0034267222
 40
0.0056083908
 40
0.0083672931
 40
0.0117090605
 40
0.0156360568
 40
0.0201490658
 40
0.0252480181
 40
0.0309319657
 40
0.0440404889
 40
0.0594410863
 40
0.0770975676
 40
0.0969728437
 40
0.1190262398
 40
0.1432006603
 40
0.1694335276
 40
0.2278233963
 40
0.2936521987
 40
0.3662757858
 40
0.4450159351
 40
0.5290943842
 40
0.6176979915
 40
0.7099920627
 40
0.8051242703
 40
0.9021571156
 40
1.0
 40
1.0
 40
1.0
 40
1.0
 10
2.9557054335
 20
3.9753420449
 30
0.0
 10
2.9557529202
 20
3.9753435139
 30
0.0
 10
2.9558581528
 20
3.9753194002
 30
0.0
 10
2.9560010369
 20
3.9752141351
 30
0.0
 10
2.9561396684
 20
3.9750473207
 30
0.0
 10
2.956277385
 20
3.9748173517
 30
0.0
 10
2.9564152621
 20
3.9745233302
 30
0.0
 10
2.9566140321
 20
3.9740064199
 30
0.0
 10
2.9568539623
 20
3.9731925884
 30
0.0
 10
2.957127778
 20
3.9720176996
 30
0.0
 10
2.9574028594
 20
3.9705832521
 30
0.0
 10
2.957679078
 20
3.9688897856
 30
0.0
 10
2.9579559366
 20
3.9669376099
 30
0.0
 10
2.9582333061
 20
3.9647274236
 30
0.0
 10
2.9586222366
 20
3.9612699935
 30
0.0
 10
2.9590999019
 20
3.9563133432
 30
0.0
 10
2.9596518088
 20
3.9496130918
 30
0.0
 10
2.9602051081
 20
3.9419246477
 30
0.0
 10
2.9607595086
 20
3.9332652874
 30
0.0
 10
2.9613144257
 20
3.9236550545
 30
0.0
 10
2.9618699415
 20
3.9131176444
 30
0.0
 10
2.962638957
 20
3.8972928172
 30
0.0
 10
2.9635878924
 20
3.8754038958
 30
0.0
 10
2.964692392
 20
3.8467601775
 30
0.0
 10
2.96579912
 20
3.8151510696
 30
0.0
 10
2.9669069051
 20
3.7808829319
 30
0.0
 10
2.9680158128
 20
3.7442866276
 30
0.0
 10
2.9691252403
 20
3.7057157117
 30
0.0
 10
2.9702351983
 20
3.6655344849
 30
0.0
 10
2.9713457303
 20
3.6241253238
 30
0.0
 10
2.972456028
 20
3.5819078337
 30
0.0
 10
2.9731949241
 20
3.553538891
 30
0.0
 10
2.9735658751
 20
3.5392954582
 30
0.0
 11
2.9557054335
 21
3.9753420449
 31
0.0
 11
2.9558450467
 21
3.9753133662
 31
0.0
 11
2.9559846579
 21
3.9752187473
 31
0.0
 11
2.9561242674
 21
3.9750582791
 31
0.0
 11
2.956263875
 21
3.974832053
 31
0.0
 11
2.9564034809
 21
3.9745401602
 31
0.0
 11
2.9565430852
 21
3.9741826921
 31
0.0
 11
2.9568222889
 21
3.9732713949
 31
0.0
 11
2.9571014866
 21
3.9720988917
 31
0.0
 11
2.9573806788
 21
3.9706659128
 31
0.0
 11
2.9576598659
 21
3.9689731884
 31
0.0
 11
2.9579390483
 21
3.9670214489
 31
0.0
 11
2.9582182265
 21
3.9648114245
 31
0.0
 11
2.958497401
 21
3.962344012
 31
0.0
 11
2.9590557391
 21
3.9566445523
 31
0.0
 11
2.9596140634
 21
3.9499396732
 31
0.0
 11
2.9601723744
 21
3.942246288
 31
0.0
 11
2.9607306727
 21
3.9335813098
 31
0.0
 11
2.9612889583
 21
3.9239629941
 31
0.0
 11
2.9618472264
 21
3.9134166395
 31
0.0
 11
2.962405471
 21
3.9019698465
 31
0.0
 11
2.963521866
 21
3.8764854066
 31
0.0
 11
2.9646381317
 21
3.8477483378
 31
0.0
 11
2.9657543462
 21
3.8160407892
 31
0.0
 11
2.9668705701
 21
3.7816595614
 31
0.0
 11
2.967986699
 21
3.7449450278
 31
0.0
 11
2.9691025958
 21
3.7062527075
 31
0.0
 11
2.9702184619
 21
3.6659474834
 31
0.0
 11
2.9713347543
 21
3.6244019085
 31
0.0
 11
2.9724511449
 21
3.5820257075
 31
0.0
 11
2.9735658751
 21
3.5392954582
 31
0.0
  0
SPLINE
  5
333
100
AcDbEntity
  8
0
100
AcDbSpline
 62
6
  6
CONTINUOUS
 70
0
 71
3
 72
37
 73
33
 74
31
 42
0.0000001
 43
0.0000001
 44
0.0000000001
 12
0.4344378393
 22
0.0136003811
 32
0.0
 13
0.0113673593
 23
-0.434502002
 33
0.0
 40
0.0
 40
0.0
 40
0.0
 40
0.0
 40
0.0003275677
 40
0.0007146602
 40
0.001202292
 40
0.0018113466
 40
0.0025523892
 40
0.0034311325
 40
0.0056132351
 40
0.0083724411
 40
0.0117144757
 40
0.0156417699
 40
0.0201551614
 40
0.0252546272
 40
0.0309392879
 40
0.0440498481
 40
0.0594529054
 40
0.0771117818
 40
0.0969888916
 40
0.1190440966
 40
0.1432214032
 40
0.1694574255
 40
0.2278511344
 40
0.2936832107
 40
0.3663084605
 40
0.4450475488
 40
0.5291248796
 40
0.6177223742
 40
0.7100066301
 40
0.8051294115
 40
0.9021579918
 40
1.0
 40
1.0
 40
1.0
 40
1.0
 10
2.8842885292
 20
3.973118521
 30
0.0
 10
2.8843359652
 20
3.973120006
 30
0.0
 10
2.8844410202
 20
3.9730961147
 30
0.0
 10
2.8845838285
 20
3.9729914997
 30
0.0
 10
2.8847223837
 20
3.9728255992
 30
0.0
 10
2.884860013
 20
3.9725968708
 30
0.0
 10
2.8849977936
 20
3.9723044194
 30
0.0
 10
2.8851964075
 20
3.9717902838
 30
0.0
 10
2.8854361638
 20
3.970980731
 30
0.0
 10
2.8857097806
 20
3.9698119418
 30
0.0
 10
2.885984663
 20
3.9683848865
 30
0.0
 10
2.8862606828
 20
3.9667000862
 30
0.0
 10
2.8865373449
 20
3.9647578316
 30
0.0
 10
2.8868145217
 20
3.9625587993
 30
0.0
 10
2.8872031892
 20
3.9591186633
 30
0.0
 10
2.8876805302
 20
3.9541866546
 30
0.0
 10
2.8882320718
 20
3.9475196653
 30
0.0
 10
2.8887850092
 20
3.939869513
 30
0.0
 10
2.8893390631
 20
3.9312534578
 30
0.0
 10
2.8898936322
 20
3.9216912779
 30
0.0
 10
2.8904487664
 20
3.911206429
 30
0.0
 10
2.8912172395
 20
3.8954607845
 30
0.0
 10
2.8921655615
 20
3.8736818376
 30
0.0
 10
2.8932692961
 20
3.8451826563
 30
0.0
 10
2.8943752522
 20
3.8137338551
 30
0.0
 10
2.895482299
 20
3.7796401675
 30
0.0
 10
2.8965904012
 20
3.7432312649
 30
0.0
 10
2.8976990623
 20
3.7048590521
 30
0.0
 10
2.8988082164
 20
3.6648859127
 30
0.0
 10
2.8999179775
 20
3.623690811
 30
0.0
 10
2.9010275605
 20
3.5816901931
 30
0.0
 10
2.9017660096
 20
3.5534663077
 30
0.0
 10
2.9021367447
 20
3.5392954582
 30
0.0
 11
2.8842885292
 21
3.973118521
 31
0.0
 11
2.884428033
 21
3.9730900596
 31
0.0
 11
2.8845675354
 21
3.9729960003
 31
0.0
 11
2.8847070364
 21
3.972836432
 31
0.0
 11
2.8848465361
 21
3.9726114438
 31
0.0
 11
2.8849860347
 21
3.9723211248
 31
0.0
 11
2.8851255322
 21
3.971965564
 31
0.0
 11
2.8854045243
 21
3.9710590734
 31
0.0
 11
2.8856835131
 21
3.9698926843
 31
0.0
 11
2.8859624993
 21
3.9684671091
 31
0.0
 11
2.8862414837
 21
3.9667830603
 31
0.0
 11
2.8865204669
 21
3.9648412503
 31
0.0
 11
2.8867994498
 21
3.9626423915
 31
0.0
 11
2.8870784327
 21
3.9601873505
 31
0.0
 11
2.8876363978
 21
3.9545162188
 31
0.0
 11
2.8881943582
 21
3.9478445605
 31
0.0
 11
2.8887523096
 21
3.9401894244
 31
0.0
 11
2.8893102477
 21
3.9315678597
 31
0.0
 11
2.8898681682
 21
3.9219977992
 31
0.0
 11
2.8904260664
 21
3.9115039363
 31
0.0
 11
2.8909839378
 21
3.9001140856
 31
0.0
 11
2.8920995809
 21
3.8747577523
 31
0.0
 11
2.8932150873
 21
3.8461655482
 31
0.0
 11
2.8943305321
 21
3.8146186485
 31
0.0
 11
2.8954459837
 21
3.7804128335
 31
0.0
 11
2.8965613409
 21
3.7438855899
 31
0.0
 11
2.8976764467
 21
3.7053927778
 31
0.0
 11
2.8987914934
 21
3.6652968654
 31
0.0
 11
2.8999069917
 21
3.6239667354
 31
0.0
 11
2.9010226701
 21
3.5818079577
 31
0.0
 11
2.9021367447
 21
3.5392954582
 31
0.0
  0
SPLINE
  5
334
100
AcDbEntity
  8
0
100
AcDbSpline
 62
6
  6
CONTINUOUS
 70
0
 71
3
 72
37
 73
33
 74
31
 42
0.0000001
 43
0.0000001
 44
0.0000000001
 12
0.4322247094
 22
0.0134415708
 32
0.0
 13
0.0113806271
 23
-0.4322838843
 33
0.0
 40
0.0
 40
0.0
 40
0.0
 40
0.0
 40
0.0003300365
 40
0.0007191807
 40
0.0012083856
 40
0.0018186382
 40
0.0025606039
 40
0.0034400672
 40
0.0056231798
 40
0.0083830282
 40
0.0117254864
 40
0.0156530878
 40
0.0201667486
 40
0.0252665117
 40
0.0309514992
 40
0.0440626265
 40
0.0594661581
 40
0.0771254183
 40
0.0970028095
 40
0.1190582302
 40
0.1432357788
 40
0.1694720314
 40
0.2278659884
 40
0.2936982904
 40
0.3663221901
 40
0.4450567252
 40
0.5291285486
 40
0.6177220711
 40
0.7100048718
 40
0.8051287032
 40
0.9021583804
 40
1.0
 40
1.0
 40
1.0
 40
1.0
 10
2.8128489861
 20
3.9708942811
 30
0.0
 10
2.812896536
 20
3.9708957598
 30
0.0
 10
2.8130017098
 20
3.9708720794
 30
0.0
 10
2.8131449569
 20
3.9707681068
 30
0.0
 10
2.8132839462
 20
3.9706030826
 30
0.0
 10
2.8134219872
 20
3.9703755657
 30
0.0
 10
2.8135601635
 20
3.9700846667
 30
0.0
 10
2.8137593098
 20
3.9695733385
 30
0.0
 10
2.8139997354
 20
3.9687681048
 30
0.0
 10
2.814274111
 20
3.9676054715
 30
0.0
 10
2.814549748
 20
3.9661859059
 30
0.0
 10
2.8148265166
 20
3.9645099055
 30
0.0
 10
2.8151039226
 20
3.9625777368
 30
0.0
 10
2.8153818355
 20
3.960390062
 30
0.0
 10
2.8157715205
 20
3.9569676392
 30
0.0
 10
2.8162500937
 20
3.9520609406
 30
0.0
 10
2.8168030269
 20
3.9454280983
 30
0.0
 10
2.8173573266
 20
3.9378171038
 30
0.0
 10
2.8179127126
 20
3.9292451362
 30
0.0
 10
2.8184685818
 20
3.9197318626
 30
0.0
 10
2.8190249819
 20
3.9093006112
 30
0.0
 10
2.8197951609
 20
3.893635451
 30
0.0
 10
2.8207455075
 20
3.8719677871
 30
0.0
 10
2.8218514596
 20
3.8436144007
 30
0.0
 10
2.8229594995
 20
3.8123270999
 30
0.0
 10
2.8240685043
 20
3.7784092056
 30
0.0
 10
2.8251784315
 20
3.7421882642
 30
0.0
 10
2.8262888185
 20
3.7040135657
 30
0.0
 10
2.827399627
 20
3.6642451505
 30
0.0
 10
2.8285109509
 20
3.6232602665
 30
0.0
 10
2.8296219915
 20
3.5814738146
 30
0.0
 10
2.8303613395
 20
3.55339391
 30
0.0
 10
2.8307325058
 20
3.5392954582
 30
0.0
 11
2.8128489861
 21
3.9708942811
 31
0.0
 11
2.812988871
 21
3.970865981
 31
0.0
 11
2.8131287549
 21
3.9707724379
 31
0.0
 11
2.8132686379
 21
3.9706137381
 31
0.0
 11
2.8134085198
 21
3.9703899682
 31
0.0
 11
2.8135484005
 21
3.9701012145
 31
0.0
 11
2.8136882801
 21
3.9697475635
 31
0.0
 11
2.8139680354
 21
3.968845915
 31
0.0
 11
2.8142477854
 21
3.9676857141
 31
0.0
 11
2.8145275295
 21
3.9662676522
 31
0.0
 11
2.8148072673
 21
3.9645924205
 31
0.0
 11
2.8150869985
 21
3.9626607104
 31
0.0
 11
2.8153667224
 21
3.9604732134
 31
0.0
 11
2.8156464388
 21
3.9580307984
 31
0.0
 11
2.8162058463
 21
3.9523887704
 31
0.0
 11
2.8167652162
 21
3.9457512934
 31
0.0
 11
2.8173245439
 21
3.9381353461
 31
0.0
 11
2.8178838243
 21
3.9295579072
 31
0.0
 11
2.818443053
 21
3.92003681
 31
0.0
 11
2.8190022256
 21
3.9095965877
 31
0.0
 11
2.8195613383
 21
3.898264934
 31
0.0
 11
2.8206793685
 21
3.8730381841
 31
0.0
 11
2.8217971338
 21
3.8445920327
 31
0.0
 11
2.8229146951
 21
3.8132069043
 31
0.0
 11
2.8240321089
 21
3.779177782
 31
0.0
 11
2.8251492977
 21
3.7428394646
 31
0.0
 11
2.8262661409
 21
3.7045449256
 31
0.0
 11
2.8273828508
 21
3.6646543635
 31
0.0
 11
2.8284999318
 21
3.6235347872
 31
0.0
 11
2.8296170832
 21
3.5815907629
 31
0.0
 11
2.8307325058
 21
3.5392954582
 31
0.0
  0
LINE
  5
335
100
AcDbEntity
  8
0
100
AcDbLine
 62
6
  6
CONTINUOUS
 10
8.9911082575
 20
4.921779455
 11
8.9911076113
 21
4.9206017986
  0
LINE
  5
336
100
AcDbEntity
  8
0
100
AcDbLine
 62
6
  6
CONTINUOUS
 10
8.1167933099
 20
4.9205930237
 11
8.1167907295
 21
4.921779455
  0
SPLINE
  5
337
100
AcDbEntity
  8
0
100
AcDbSpline
 62
6
  6
CONTINUOUS
 70
0
 71
3
 72
31
 73
27
 74
25
 42
0.0000001
 43
0.0000001
 44
0.0000000001
 12
0.1904716372
 22
0.0080164761
 32
0.0
 13
0.0060743491
 23
-0.1905434616
 33
0.0
 40
0.0
 40
0.0
 40
0.0
 40
0.0
 40
0.000940902
 40
0.0021246147
 40
0.0036972141
 40
0.0057221822
 40
0.008228769
 40
0.0112321061
 40
0.0147408361
 40
0.0187602832
 40
0.0283419037
 40
0.0399840067
 40
0.0536816102
 40
0.0694258758
 40
0.0872059107
 40
0.1070096299
 40
0.1526344345
 40
0.2061412964
 40
0.2673080367
 40
0.3359070018
 40
0.4117009962
 40
0.4944072741
 40
0.5837275567
 40
0.679360964
 40
0.7809308824
 40
1.0
 40
1.0
 40
1.0
 40
1.0
 10
2.7414228945
 20
3.9686683937
 30
0.0
 10
2.7414826329
 20
3.9686709079
 30
0.0
 10
2.7416198104
 20
3.9686314456
 30
0.0
 10
2.7417956657
 20
3.9684694483
 30
0.0
 10
2.7419669595
 20
3.9682170702
 30
0.0
 10
2.7421376899
 20
3.9678677598
 30
0.0
 10
2.7423091533
 20
3.9674203203
 30
0.0
 10
2.7424811638
 20
3.9668733536
 30
0.0
 10
2.742653677
 20
3.9662265701
 30
0.0
 10
2.7428986836
 20
3.9651671047
 30
0.0
 10
2.7431974488
 20
3.9635904985
 30
0.0
 10
2.7435405725
 20
3.9613978502
 30
0.0
 10
2.7438848828
 20
3.9588097125
 30
0.0
 10
2.7442301809
 20
3.9558287462
 30
0.0
 10
2.7445761199
 20
3.9524575485
 30
0.0
 10
2.7450611731
 20
3.9471921364
 30
0.0
 10
2.7456567277
 20
3.9396573907
 30
0.0
 10
2.7463448036
 20
3.9294940864
 30
0.0
 10
2.7470347283
 20
3.9178680542
 30
0.0
 10
2.7477259968
 20
3.9048236419
 30
0.0
 10
2.7484178813
 20
3.8904087699
 30
0.0
 10
2.7491104782
 20
3.8746757829
 30
0.0
 10
2.7498037526
 20
3.8576809716
 30
0.0
 10
2.7504974707
 20
3.8394865287
 30
0.0
 10
2.7514467912
 20
3.8130507908
 30
0.0
 10
2.7521210017
 20
3.792686333
 30
0.0
 10
2.7525645692
 20
3.7787722704
 30
0.0
 11
2.7414228945
 21
3.9686683937
 31
0.0
 11
2.7415970488
 21
3.9686254375
 31
0.0
 11
2.7417712014
 21
3.9684819286
 31
0.0
 11
2.7419453523
 21
3.9682378959
 31
0.0
 11
2.7421195016
 21
3.9678933683
 31
0.0
 11
2.7422936494
 21
3.9674483748
 31
0.0
 11
2.7424677957
 21
3.9669029442
 31
0.0
 11
2.7426419407
 21
3.9662571054
 31
0.0
 11
2.7428160843
 21
3.9655108874
 31
0.0
 11
2.7431643679
 21
3.9637177556
 31
0.0
 11
2.743512647
 21
3.9615257986
 31
0.0
 11
2.7438609218
 21
3.958937813
 31
0.0
 11
2.7442091929
 21
3.9559565961
 31
0.0
 11
2.7445574607
 21
3.9525849447
 31
0.0
 11
2.7449057254
 21
3.9488256559
 31
0.0
 11
2.7456022471
 21
3.9401556645
 31
0.0
 11
2.7462987417
 21
3.9299789086
 31
0.0
 11
2.7469951707
 21
3.9183388806
 31
0.0
 11
2.7476914944
 21
3.9052797072
 31
0.0
 11
2.7483876935
 21
3.8908471023
 31
0.0
 11
2.7490838573
 21
3.8750953323
 31
0.0
 11
2.7497801119
 21
3.8580815309
 31
0.0
 11
2.7504765755
 21
3.839863261
 31
0.0
 11
2.7511731099
 21
3.8205124772
 31
0.0
 11
2.7525645692
 21
3.7787722704
 31
0.0
  0
SPLINE
  5
338
100
AcDbEntity
  8
0
100
AcDbSpline
 62
6
  6
CONTINUOUS
 70
0
 71
3
 72
37
 73
33
 74
31
 42
0.0000001
 43
0.0000001
 44
0.0000000001
 12
0.4277812852
 22
0.0133759974
 32
0.0
 13
0.0113740706
 23
-0.4278391939
 33
0.0
 40
0.0
 40
0.0
 40
0.0
 40
0.0
 40
0.0003326653
 40
0.000723936
 40
0.0012147154
 40
0.0018261141
 40
0.0025689142
 40
0.0034489841
 40
0.005632838
 40
0.0083930476
 40
0.0117356765
 40
0.0156633954
 40
0.0201772322
 40
0.0252773244
 40
0.0309624621
 40
0.0440726458
 40
0.059474312
 40
0.0771316465
 40
0.0970078993
 40
0.1190624216
 40
0.1432377383
 40
0.1694710958
 40
0.2278600242
 40
0.2936857904
 40
0.3663048673
 40
0.4450394239
 40
0.5291121625
 40
0.6177105938
 40
0.7100004687
 40
0.805130006
 40
0.9021604139
 40
1.0
 40
1.0
 40
1.0
 40
1.0
 10
2.6699840782
 20
3.9664462271
 30
0.0
 10
2.6700315142
 20
3.9664477103
 30
0.0
 10
2.6701362989
 20
3.966424416
 30
0.0
 10
2.6702793219
 20
3.9663216929
 30
0.0
 10
2.6704180986
 20
3.9661584659
 30
0.0
 10
2.6705559064
 20
3.9659334084
 30
0.0
 10
2.6706938315
 20
3.9656456404
 30
0.0
 10
2.6708925773
 20
3.965139871
 30
0.0
 10
2.6711325488
 20
3.9643432436
 30
0.0
 10
2.6714064034
 20
3.9631929096
 30
0.0
 10
2.6716815154
 20
3.9617882803
 30
0.0
 10
2.6719577559
 20
3.9601298155
 30
0.0
 10
2.6722346371
 20
3.9582177436
 30
0.0
 10
2.6725120154
 20
3.9560527481
 30
0.0
 10
2.6729009572
 20
3.9526659295
 30
0.0
 10
2.67337867
 20
3.9478104219
 30
0.0
 10
2.673930633
 20
3.9412468029
 30
0.0
 10
2.6744839859
 20
3.9337150629
 30
0.0
 10
2.6750384275
 20
3.9252320486
 30
0.0
 10
2.675593371
 20
3.9158174151
 30
0.0
 10
2.6761489079
 20
3.9054944665
 30
0.0
 10
2.6769179287
 20
3.8899920513
 30
0.0
 10
2.6778668612
 20
3.8685494557
 30
0.0
 10
2.6789713304
 20
3.8404901296
 30
0.0
 10
2.6800780073
 20
3.8095262838
 30
0.0
 10
2.6811857452
 20
3.7759577869
 30
0.0
 10
2.6822946063
 20
3.7401085039
 30
0.0
 10
2.6834039943
 20
3.7023245182
 30
0.0
 10
2.6845139309
 20
3.6629624996
 30
0.0
 10
2.6856244498
 20
3.6223971013
 30
0.0
 10
2.6867347369
 20
3.5810396668
 30
0.0
 10
2.6874736247
 20
3.5532486615
 30
0.0
 10
2.6878445695
 20
3.5392954582
 30
0.0
 11
2.6699840782
 21
3.9664462271
 31
0.0
 11
2.6701236886
 21
3.9664182933
 31
0.0
 11
2.670263298
 21
3.9663258157
 31
0.0
 11
2.6704029063
 21
3.9661688761
 31
0.0
 11
2.6705425137
 21
3.9659475564
 31
0.0
 11
2.6706821201
 21
3.9656619385
 31
0.0
 11
2.6708217256
 21
3.965312104
 31
0.0
 11
2.6711009342
 21
3.9644201132
 31
0.0
 11
2.6713801397
 21
3.9632722388
 31
0.0
 11
2.6716593425
 21
3.9618691354
 31
0.0
 11
2.671938543
 21
3.9602114578
 31
0.0
 11
2.6722177413
 21
3.9582998607
 31
0.0
 11
2.672496938
 21
3.9561349998
 31
0.0
 11
2.6727761331
 21
3.9537178869
 31
0.0
 11
2.673334517
 21
3.9481347077
 31
0.0
 11
2.6738928897
 21
3.9415666349
 31
0.0
 11
2.6744512477
 21
3.9340301213
 31
0.0
 11
2.6750095874
 21
3.9255416196
 31
0.0
 11
2.6755679051
 21
3.9161190233
 31
0.0
 11
2.6761261954
 21
3.9057872939
 31
0.0
 11
2.6766844528
 21
3.8945735572
 31
0.0
 11
2.677800846
 21
3.8696086081
 31
0.0
 11
2.678917078
 21
3.8414579367
 31
0.0
 11
2.6800332409
 21
3.8103977206
 31
0.0
 11
2.6811494105
 21
3.7767185802
 31
0.0
 11
2.6822654898
 21
3.7407535719
 31
0.0
 11
2.6833813462
 21
3.7028507195
 31
0.0
 11
2.6844971877
 21
3.6633673073
 31
0.0
 11
2.6856134725
 21
3.6226680884
 31
0.0
 11
2.6867298568
 21
3.5811550179
 31
0.0
 11
2.6878445695
 21
3.5392954582
 31
0.0
  0
SPLINE
  5
339
100
AcDbEntity
  8
0
100
AcDbSpline
 62
6
  6
CONTINUOUS
 70
0
 71
3
 72
37
 73
33
 74
31
 42
0.0000001
 43
0.0000001
 44
0.0000000001
 12
0.4255615186
 22
0.0132980408
 32
0.0
 13
0.0113665672
 23
-0.4256174869
 33
0.0
 40
0.0
 40
0.0
 40
0.0
 40
0.0
 40
0.0003340723
 40
0.0007265987
 40
0.0012184764
 40
0.0018308648
 40
0.0025745849
 40
0.0034555275
 40
0.0056410148
 40
0.0084027092
 40
0.0117466243
 40
0.0156753565
 40
0.0201898468
 40
0.0252901415
 40
0.0309753756
 40
0.0440862867
 40
0.0594887956
 40
0.0771463508
 40
0.0970214555
 40
0.1190735196
 40
0.1432461195
 40
0.169476779
 40
0.2278614013
 40
0.2936842651
 40
0.3663022919
 40
0.4450373144
 40
0.5291105183
 40
0.617709648
 40
0.7100002481
 40
0.8051304885
 40
0.9021609568
 40
1.0
 40
1.0
 40
1.0
 40
1.0
 10
2.5985731829
 20
3.9642229155
 30
0.0
 10
2.5986205724
 20
3.9642243964
 30
0.0
 10
2.5987251951
 20
3.9642012498
 30
0.0
 10
2.5988681193
 20
3.9640990378
 30
0.0
 10
2.5990068053
 20
3.9639365611
 30
0.0
 10
2.5991445142
 20
3.9637125456
 30
0.0
 10
2.5992823328
 20
3.9634261228
 30
0.0
 10
2.5994809018
 20
3.9629227899
 30
0.0
 10
2.5997206743
 20
3.9621300133
 30
0.0
 10
2.5999943042
 20
3.9609852896
 30
0.0
 10
2.6002691877
 20
3.9595876357
 30
0.0
 10
2.6005451958
 20
3.9579375522
 30
0.0
 10
2.6008218414
 20
3.9560353088
 30
0.0
 10
2.6010989958
 20
3.953881568
 30
0.0
 10
2.6014876163
 20
3.9505123738
 30
0.0
 10
2.6019649034
 20
3.9456820266
 30
0.0
 10
2.6025163754
 20
3.9391524145
 30
0.0
 10
2.6030692306
 20
3.9316599475
 30
0.0
 10
2.6036231808
 20
3.9232215943
 30
0.0
 10
2.6041776354
 20
3.9138568592
 30
0.0
 10
2.6047326647
 20
3.9035887298
 30
0.0
 10
2.6055009987
 20
3.888168312
 30
0.0
 10
2.606449099
 20
3.8668385835
 30
0.0
 10
2.6075526818
 20
3.838926239
 30
0.0
 10
2.6086585138
 20
3.8081237546
 30
0.0
 10
2.6097654234
 20
3.7747296458
 30
0.0
 10
2.6108734873
 20
3.7390663299
 30
0.0
 10
2.6119820825
 20
3.7014783076
 30
0.0
 10
2.6130912454
 20
3.6623204028
 30
0.0
 10
2.6142010004
 20
3.6219654504
 30
0.0
 10
2.6153105338
 20
3.5808227498
 30
0.0
 10
2.6160489274
 20
3.5531761275
 30
0.0
 10
2.6164196255
 20
3.5392954582
 30
0.0
 11
2.5985731829
 21
3.9642229155
 31
0.0
 11
2.5987126784
 21
3.9641951204
 31
0.0
 11
2.5988521726
 21
3.9641030749
 31
0.0
 11
2.5989916655
 21
3.9639468662
 31
0.0
 11
2.5991311571
 21
3.9637265813
 31
0.0
 11
2.5992706475
 21
3.9634423075
 31
0.0
 11
2.5994101368
 21
3.9630941316
 31
0.0
 11
2.599689112
 21
3.9622064223
 31
0.0
 11
2.5999680832
 21
3.9610641503
 31
0.0
 11
2.6002470505
 21
3.959668012
 31
0.0
 11
2.6005260144
 21
3.9580187044
 31
0.0
 11
2.6008049752
 21
3.9561169239
 31
0.0
 11
2.6010839332
 21
3.9539633674
 31
0.0
 11
2.6013628887
 21
3.9515588971
 31
0.0
 11
2.6019207905
 21
3.9460046235
 31
0.0
 11
2.6024786761
 21
3.9394704819
 31
0.0
 11
2.6030365409
 21
3.9319731644
 31
0.0
 11
2.6035943806
 21
3.923529363
 31
0.0
 11
2.6041521909
 21
3.914156857
 31
0.0
 11
2.6047099713
 21
3.9038800334
 31
0.0
 11
2.6052677222
 21
3.8927257615
 31
0.0
 11
2.606383138
 21
3.8678924228
 31
0.0
 11
2.6074984633
 21
3.8398892743
 31
0.0
 11
2.6086137735
 21
3.8089908749
 31
0.0
 11
2.6097291195
 21
3.7754864839
 31
0.0
 11
2.6108443914
 21
3.7397080782
 31
0.0
 11
2.6119594535
 21
3.7020017781
 31
0.0
 11
2.6130745161
 21
3.6627231039
 31
0.0
 11
2.6141900356
 21
3.6222349383
 31
0.0
 11
2.6153056617
 21
3.580937416
 31
0.0
 11
2.6164196255
 21
3.5392954582
 31
0.0
  0
SPLINE
  5
33A
100
AcDbEntity
  8
0
100
AcDbSpline
 62
6
  6
CONTINUOUS
 70
0
 71
3
 72
11
 73
7
 74
5
 42
0.0000001
 43
0.0000001
 44
0.0000000001
 12
0.0008573335
 22
0.0048478646
 32
0.0
 13
0.0024640714
 23
0.0042620611
 33
0.0
 40
0.0
 40
0.0
 40
0.0
 40
0.0
 40
0.3426027524
 40
0.6228098632
 40
0.8413689823
 40
1.0
 40
1.0
 40
1.0
 40
1.0
 10
2.7916423671
 20
3.932115958
 30
0.0
 10
2.7917402753
 20
3.9326695886
 30
0.0
 10
2.7919314642
 20
3.9336736958
 30
0.0
 10
2.7922448764
 20
3.9350193678
 30
0.0
 10
2.7925554062
 20
3.9360525076
 30
0.0
 10
2.7927944325
 20
3.9366274626
 30
0.0
 10
2.7929247252
 20
3.9368528277
 30
0.0
 11
2.7916423671
 21
3.932115958
 31
0.0
 11
2.7919629673
 21
3.933771872
 31
0.0
 11
2.7922835604
 21
3.9351135867
 31
0.0
 11
2.7926041464
 21
3.9361407044
 31
0.0
 11
2.7929247252
 21
3.9368528277
 31
0.0
  0
SPLINE
  5
33B
100
AcDbEntity
  8
0
100
AcDbSpline
 62
6
  6
CONTINUOUS
 70
0
 71
3
 72
59
 73
55
 74
53
 42
0.0000001
 43
0.0000001
 44
0.0000000001
 12
-0.4235228759
 22
0.7340570353
 32
0.0
 13
-0.8472352023
 23
-0.0200965012
 33
0.0
 40
0.0
 40
0.0
 40
0.0
 40
0.0
 40
0.0007782029
 40
0.0018279861
 40
0.0031566943
 40
0.0047673638
 40
0.006661253
 40
0.0088387629
 40
0.0140440111
 40
0.0203787015
 40
0.0278281627
 40
0.0363739518
 40
0.0459971357
 40
0.0566784888
 40
0.0683954805
 40
0.0948156966
 40
0.1250106086
 40
0.1587067397
 40
0.1955820354
 40
0.2353011289
 40
0.2774879139
 40
0.3217512874
 40
0.3676787335
 40
0.4148389814
 40
0.5110952499
 40
0.5592900284
 40
0.6069298321
 40
0.653567152
 40
0.6987673604
 40
0.742108364
 40
0.7831812354
 40
0.8216080172
 40
0.8570217332
 40
0.8890984531
 40
0.9175341274
 40
0.9420640589
 40
0.9527946733
 40
0.9624657978
 40
0.9710540051
 40
0.9785431823
 40
0.9849184603
 40
0.9876840167
 40
0.9901659931
 40
0.9923629627
 40
0.9942741948
 40
0.9959004765
 40
0.9972435948
 40
0.9983070566
 40
0.998736214
 40
0.9990990574
 40
0.9993985733
 40
0.999640149
 40
0.9998341128
 40
1.0
 40
1.0
 40
1.0
 40
1.0
 10
2.5623562997
 20
3.115936726
 30
0.0
 10
2.5622464374
 20
3.1161271412
 30
0.0
 10
2.5620423386
 20
3.1166044079
 30
0.0
 10
2.5617754836
 20
3.1174554451
 30
0.0
 10
2.5615064179
 20
3.11855051
 30
0.0
 10
2.5612356999
 20
3.1198889253
 30
0.0
 10
2.5609639458
 20
3.1214710938
 30
0.0
 10
2.560577333
 20
3.1240631325
 30
0.0
 10
2.5601062351
 20
3.1279100246
 30
0.0
 10
2.5595654396
 20
3.1332472271
 30
0.0
 10
2.5590225645
 20
3.1395320236
 30
0.0
 10
2.5584779264
 20
3.1467485792
 30
0.0
 10
2.557932216
 20
3.1548803266
 30
0.0
 10
2.5573857229
 20
3.163909654
 30
0.0
 10
2.5566257395
 20
3.1776795609
 30
0.0
 10
2.5556897198
 20
3.1969602688
 30
0.0
 10
2.5546025896
 20
3.2224493184
 30
0.0
 10
2.5535134414
 20
3.2508941462
 30
0.0
 10
2.5524219693
 20
3.282031159
 30
0.0
 10
2.5513295136
 20
3.3155680298
 30
0.0
 10
2.5502358374
 20
3.3511929611
 30
0.0
 10
2.5491414546
 20
3.3885724579
 30
0.0
 10
2.5480465023
 20
3.4273574738
 30
0.0
 10
2.5465758904
 20
3.4808252542
 30
0.0
 10
2.5451239597
 20
3.5349342791
 30
0.0
 10
2.5436629549
 20
3.5891785767
 30
0.0
 10
2.5425667261
 20
3.6294107005
 30
0.0
 10
2.5414704758
 20
3.6687965655
 30
0.0
 10
2.5403743907
 20
3.7069675802
 30
0.0
 10
2.53927872
 20
3.7435660295
 30
0.0
 10
2.5381833387
 20
3.7782501576
 30
0.0
 10
2.537089091
 20
3.8106937552
 30
0.0
 10
2.5359957084
 20
3.8405944988
 30
0.0
 10
2.5349045446
 20
3.8676708912
 30
0.0
 10
2.5338158228
 20
3.8916700272
 30
0.0
 10
2.5328752724
 20
3.909639311
 30
0.0
 10
2.5321096351
 20
3.9223090692
 30
0.0
 10
2.5315620617
 20
3.9304802164
 30
0.0
 10
2.5310154817
 20
3.9377334938
 30
0.0
 10
2.5304702173
 20
3.9440528261
 30
0.0
 10
2.5299982429
 20
3.9487271849
 30
0.0
 10
2.5296139613
 20
3.9519880381
 30
0.0
 10
2.5293398931
 20
3.9540731848
 30
0.0
 10
2.5290662884
 20
3.955914757
 30
0.0
 10
2.5287931889
 20
3.9575116582
 30
0.0
 10
2.5285211541
 20
3.9588636248
 30
0.0
 10
2.5282503461
 20
3.9599705076
 30
0.0
 10
2.5280130554
 20
3.9607367822
 30
0.0
 10
2.5278166689
 20
3.9612231156
 30
0.0
 10
2.5276803017
 20
3.9615000752
 30
0.0
 10
2.5275440252
 20
3.9617168186
 30
0.0
 10
2.5274067696
 20
3.9618741999
 30
0.0
 10
2.5272654942
 20
3.9619732506
 30
0.0
 10
2.527162566
 20
3.9619960601
 30
0.0
 10
2.5271157175
 20
3.9619949489
 30
0.0
 11
2.5623562997
 21
3.115936726
 31
0.0
 11
2.5620816445
 21
3.1165363202
 31
0.0
 11
2.5618069799
 21
3.1173825237
 31
0.0
 11
2.5615323058
 21
3.1184745546
 31
0.0
 11
2.5612576222
 21
3.119811631
 31
0.0
 11
2.5609829291
 21
3.1213929709
 31
0.0
 11
2.5607082263
 21
3.1232177923
 31
0.0
 11
2.5601587919
 21
3.1275947521
 31
0.0
 11
2.5596093187
 21
3.1329350407
 31
0.0
 11
2.5590598064
 21
3.1392243011
 31
0.0
 11
2.5585102547
 21
3.1464457508
 31
0.0
 11
2.5579606636
 21
3.1545826047
 31
0.0
 11
2.5574110326
 21
3.1636180669
 31
0.0
 11
2.5568613617
 21
3.1735326817
 31
0.0
 11
2.5557618988
 21
3.1958961047
 31
0.0
 11
2.554662273
 21
3.2214618555
 31
0.0
 11
2.5535624822
 21
3.2499972483
 31
0.0
 11
2.5524625241
 21
3.2812287207
 31
0.0
 11
2.5513623965
 21
3.3148716181
 31
0.0
 11
2.5502620972
 21
3.3506068658
 31
0.0
 11
2.5491616245
 21
3.388102757
 31
0.0
 11
2.5480609763
 21
3.4270094859
 31
0.0
 11
2.5469601505
 21
3.4669613838
 31
0.0
 11
2.5447579581
 21
3.5485062913
 31
0.0
 11
2.5436565877
 21
3.5893352375
 31
0.0
 11
2.5425550321
 21
3.629693679
 31
0.0
 11
2.5414532899
 21
3.6692022137
 31
0.0
 11
2.5403513569
 21
3.7074923405
 31
0.0
 11
2.5392492268
 21
3.7442061541
 31
0.0
 11
2.5381468993
 21
3.7789968658
 31
0.0
 11
2.5370443891
 21
3.8115438775
 31
0.0
 11
2.535941711
 21
3.8415358003
 31
0.0
 11
2.5348388625
 21
3.8686975906
 31
0.0
 11
2.5337358369
 21
3.8927708146
 31
0.0
 11
2.5326327061
 21
3.9135299926
 31
0.0
 11
2.5320811494
 21
3.9226071624
 31
0.0
 11
2.5315296247
 21
3.9307846067
 31
0.0
 11
2.5309781255
 21
3.9380419604
 31
0.0
 11
2.5304265968
 21
3.9443648311
 31
0.0
 11
2.5298749784
 21
3.9497394772
 31
0.0
 11
2.5295991166
 21
3.9520669217
 31
0.0
 11
2.5293232098
 21
3.9541521569
 31
0.0
 11
2.5290472504
 21
3.9559934661
 31
0.0
 11
2.5287712404
 21
3.9575894946
 31
0.0
 11
2.5284952061
 21
3.9589398
 31
0.0
 11
2.5282191775
 21
3.9600440815
 31
0.0
 11
2.5279431843
 21
3.9609020381
 31
0.0
 11
2.5278052105
 21
3.9612385505
 31
0.0
 11
2.5276672567
 21
3.9615133689
 31
0.0
 11
2.5275293268
 21
3.9617264555
 31
0.0
 11
2.5273914244
 21
3.9618777728
 31
0.0
 11
2.5272535534
 21
3.9619672831
 31
0.0
 11
2.5271157175
 21
3.9619949489
 31
0.0
  0
LINE
  5
33C
100
AcDbEntity
  8
0
100
AcDbLine
 62
6
  6
CONTINUOUS
 10
2.919043342
 20
3.9413135849
 11
2.9199252242
 21
3.9385829112
  0
SPLINE
  5
33D
100
AcDbEntity
  8
0
100
AcDbSpline
 62
6
  6
CONTINUOUS
 70
0
 71
3
 72
51
 73
47
 74
45
 42
0.0000001
 43
0.0000001
 44
0.0000000001
 12
0.1757393415
 22
-0.7847619668
 32
0.0
 13
0.8041957262
 23
-0.0022123838
 33
0.0
 40
0.0
 40
0.0
 40
0.0
 40
0.0
 40
0.00359317
 40
0.0082690232
 40
0.0140204501
 40
0.0208376309
 40
0.0287095336
 40
0.0376223296
 40
0.0584814322
 40
0.0832268224
 40
0.1116514753
 40
0.1434936214
 40
0.178477231
 40
0.2162916667
 40
0.2565971838
 40
0.3432463152
 40
0.4353543645
 40
0.529660318
 40
0.5765956905
 40
0.6228285361
 40
0.6679515462
 40
0.7115647333
 40
0.7532788804
 40
0.7927309063
 40
0.82956496
 40
0.8634603345
 40
0.8941182227
 40
0.9212620959
 40
0.9446640616
 40
0.9548931004
 40
0.964109321
 40
0.972296235
 40
0.9794379816
 40
0.9855192209
 40
0.9881576585
 40
0.9905259376
 40
0.9926237953
 40
0.9944515467
 40
0.9960099905
 40
0.9973008124
 40
0.9983275055
 40
0.9990978184
 40
0.9993927031
 40
0.9996335071
 40
0.9998300281
 40
1.0
 40
1.0
 40
1.0
 40
1.0
 10
2.9199252242
 20
3.9385829112
 30
0.0
 10
2.9201357113
 20
3.9376429835
 30
0.0
 10
2.9205290085
 20
3.9354599583
 30
0.0
 10
2.9210520661
 20
3.9317379021
 30
0.0
 10
2.9215787298
 20
3.9271448831
 30
0.0
 10
2.9221082902
 20
3.9216909747
 30
0.0
 10
2.9226394105
 20
3.915386295
 30
0.0
 10
2.923388592
 20
3.905322999
 30
0.0
 10
2.9243042061
 20
3.8907370354
 30
0.0
 10
2.9253603474
 20
3.8709202889
 30
0.0
 10
2.9264191495
 20
3.8481558607
 30
0.0
 10
2.9274810906
 20
3.8226444644
 30
0.0
 10
2.9285443686
 20
3.79461407
 30
0.0
 10
2.9296088136
 20
3.7643134831
 30
0.0
 10
2.9310645326
 20
3.7201684209
 30
0.0
 10
2.9328538399
 20
3.6614722972
 30
0.0
 10
2.9349575663
 20
3.5883035152
 30
0.0
 10
2.9367142979
 20
3.5257750932
 30
0.0
 10
2.938138234
 20
3.4755397703
 30
0.0
 10
2.9392043667
 20
3.4384838902
 30
0.0
 10
2.9402701412
 20
3.4023189406
 30
0.0
 10
2.9413354017
 20
3.3673658263
 30
0.0
 10
2.9424002578
 20
3.3339336309
 30
0.0
 10
2.9434640713
 20
3.3023196237
 30
0.0
 10
2.9445270414
 20
3.2728027915
 30
0.0
 10
2.9455885566
 20
3.2456449592
 30
0.0
 10
2.9466476783
 20
3.2210867817
 30
0.0
 10
2.9477046402
 20
3.1993443616
 30
0.0
 10
2.9486170014
 20
3.1830779592
 30
0.0
 10
2.9493600427
 20
3.1716160482
 30
0.0
 10
2.9498914775
 20
3.1642278104
 30
0.0
 10
2.9504217587
 20
3.1576694392
 30
0.0
 10
2.9509507055
 20
3.1519544555
 30
0.0
 10
2.951408446
 20
3.1477269459
 30
0.0
 10
2.9517810548
 20
3.1447780087
 30
0.0
 10
2.9520468352
 20
3.1428920645
 30
0.0
 10
2.952312162
 20
3.1412257737
 30
0.0
 10
2.9525768421
 20
3.1397795062
 30
0.0
 10
2.9528406562
 20
3.1385536359
 30
0.0
 10
2.9531029084
 20
3.1375475655
 30
0.0
 10
2.9533635121
 20
3.1367616131
 30
0.0
 10
2.953593996
 20
3.1362474355
 30
0.0
 10
2.9537879468
 20
3.1359548626
 30
0.0
 10
2.9539213909
 20
3.1358093866
 30
0.0
 10
2.954058261
 20
3.1357171344
 30
0.0
 10
2.9541570612
 20
3.135694345
 30
0.0
 10
2.9542026248
 20
3.1356942196
 30
0.0
 11
2.9199252242
 21
3.9385829112
 31
0.0
 11
2.9204615
 21
3.9357434872
 31
0.0
 11
2.9209977537
 21
3.9320216055
 31
0.0
 11
2.9215339854
 21
3.9274275041
 31
0.0
 11
2.9220701951
 21
3.921971421
 31
0.0
 11
2.9226063828
 21
3.9156635945
 31
0.0
 11
2.9231425484
 21
3.9085160165
 31
0.0
 11
2.9242148136
 21
3.8917754571
 31
0.0
 11
2.9252869908
 21
3.8719041489
 31
0.0
 11
2.9263590799
 21
3.8490702323
 31
0.0
 11
2.9274310812
 21
3.8234852661
 31
0.0
 11
2.9285029945
 21
3.7953719179
 31
0.0
 11
2.92957482
 21
3.7649804896
 31
0.0
 11
2.9306465576
 21
3.7325845654
 31
0.0
 11
2.9327897695
 21
3.6629344073
 31
0.0
 11
2.9349326304
 21
3.5888922292
 31
0.0
 11
2.9370751407
 21
3.5130817666
 31
0.0
 11
2.9381462644
 21
3.4753515988
 31
0.0
 11
2.9392173006
 21
3.4381866309
 31
0.0
 11
2.9402882492
 21
3.4019145684
 31
0.0
 11
2.9413591103
 21
3.3668572484
 31
0.0
 11
2.9424298838
 21
3.333327876
 31
0.0
 11
2.9435005699
 21
3.3016186765
 31
0.0
 11
2.9445711686
 21
3.272016129
 31
0.0
 11
2.9456416798
 21
3.2447785395
 31
0.0
 11
2.9467121037
 21
3.2201467512
 31
0.0
 11
2.9477824401
 21
3.1983439383
 31
0.0
 11
2.9488526892
 21
3.1795545625
 31
0.0
 11
2.949387781
 21
3.1713458037
 31
0.0
 11
2.9499228509
 21
3.1639534697
 31
0.0
 11
2.9504578991
 21
3.1573913402
 31
0.0
 11
2.9509929253
 21
3.151672931
 31
0.0
 11
2.9515279298
 21
3.1468117576
 31
0.0
 11
2.9517954239
 21
3.144706858
 31
0.0
 11
2.9520629124
 21
3.1428211683
 31
0.0
 11
2.9523303956
 21
3.141155413
 31
0.0
 11
2.9525978733
 21
3.1397100793
 31
0.0
 11
2.9528653455
 21
3.1384856545
 31
0.0
 11
2.9531328122
 21
3.137482626
 31
0.0
 11
2.9534002736
 21
3.1367014809
 31
0.0
 11
2.9536677294
 21
3.1361427067
 31
0.0
 11
2.9538014553
 21
3.1359468608
 31
0.0
 11
2.9539351798
 21
3.1358067905
 31
0.0
 11
2.954068903
 21
3.1357225564
 31
0.0
 11
2.9542026248
 21
3.1356942196
 31
0.0
  0
SPLINE
  5
33E
100
AcDbEntity
  8
0
100
AcDbSpline
 62
6
  6
CONTINUOUS
 70
0
 71
3
 72
31
 73
27
 74
25
 42
0.0000001
 43
0.0000001
 44
0.0000000001
 12
0.1758175283
 22
0.0006473726
 32
0.0
 13
0.0060764943
 23
-0.1757136835
 33
0.0
 40
0.0
 40
0.0
 40
0.0
 40
0.0
 40
0.0010229443
 40
0.0022878451
 40
0.0039348834
 40
0.0060284875
 40
0.0085987257
 40
0.0116610081
 40
0.0152238199
 40
0.0192920378
 40
0.0289542206
 40
0.0406588342
 40
0.0544069767
 40
0.0701954344
 40
0.0880186703
 40
0.1078666299
 40
0.153549325
 40
0.2070548148
 40
0.2681870606
 40
0.3367432091
 40
0.4124725353
 40
0.4950953557
 40
0.5843309996
 40
0.6798794804
 40
0.78131973
 40
1.0
 40
1.0
 40
1.0
 40
1.0
 10
2.7220578583
 20
3.9351045456
 30
0.0
 10
2.7221178088
 20
3.9351047663
 30
0.0
 10
2.7222525025
 20
3.9350644328
 30
0.0
 10
2.7224285806
 20
3.9349099323
 30
0.0
 10
2.7226002036
 20
3.9346704292
 30
0.0
 10
2.722771098
 20
3.9343414826
 30
0.0
 10
2.72294254
 20
3.9339219842
 30
0.0
 10
2.723114454
 20
3.9334109572
 30
0.0
 10
2.723286818
 20
3.9328082663
 30
0.0
 10
2.7235312579
 20
3.9318245343
 30
0.0
 10
2.7238296946
 20
3.9303634884
 30
0.0
 10
2.7241725703
 20
3.9283340845
 30
0.0
 10
2.724516566
 20
3.9259414969
 30
0.0
 10
2.7248614962
 20
3.9231873229
 30
0.0
 10
2.7252070186
 20
3.9200732798
 30
0.0
 10
2.7256911641
 20
3.9152121935
 30
0.0
 10
2.7262857778
 20
3.9082610124
 30
0.0
 10
2.7269731886
 20
3.8988902787
 30
0.0
 10
2.7276622888
 20
3.8881759933
 30
0.0
 10
2.7283524419
 20
3.8761569622
 30
0.0
 10
2.7290434372
 20
3.8628766337
 30
0.0
 10
2.729735293
 20
3.8483829123
 30
0.0
 10
2.7304278669
 20
3.8327264814
 30
0.0
 10
2.7311207829
 20
3.8159662449
 30
0.0
 10
2.7320689102
 20
3.7916238887
 30
0.0
 10
2.7327422877
 20
3.7728748677
 30
0.0
 10
2.7331852242
 20
3.7600664958
 30
0.0
 11
2.7220578583
 21
3.9351045456
 31
0.0
 11
2.7222317968
 21
3.935058803
 31
0.0
 11
2.7224057326
 21
3.9349202206
 31
0.0
 11
2.7225796656
 21
3.9346886952
 31
0.0
 11
2.7227535959
 21
3.9343642849
 31
0.0
 11
2.7229275235
 21
3.9339472008
 31
0.0
 11
2.7231014486
 21
3.9334376601
 31
0.0
 11
2.7232753715
 21
3.9328358802
 31
0.0
 11
2.7234492921
 21
3.9321420782
 31
0.0
 11
2.7237971274
 21
3.9304792773
 31
0.0
 11
2.7241449556
 21
3.9284509954
 31
0.0
 11
2.724492778
 21
3.9260589705
 31
0.0
 11
2.7248405956
 21
3.9233049409
 31
0.0
 11
2.7251884096
 21
3.9201906446
 31
0.0
 11
2.72553622
 21
3.9167183781
 31
0.0
 11
2.7262318152
 21
3.9087166825
 31
0.0
 11
2.7269273478
 21
3.8993351634
 31
0.0
 11
2.7276227837
 21
3.888609492
 31
0.0
 11
2.7283180976
 21
3.8765761093
 31
0.0
 11
2.7290133589
 21
3.863279641
 31
0.0
 11
2.7297086941
 21
3.8487696536
 31
0.0
 11
2.7304042307
 21
3.8330957817
 31
0.0
 11
2.7311000351
 21
3.816310986
 31
0.0
 11
2.7317957854
 21
3.7984894669
 31
0.0
 11
2.7331852242
 21
3.7600664958
 31
0.0
  0
LINE
  5
33F
100
AcDbEntity
  8
0
100
AcDbLine
 62
6
  6
CONTINUOUS
 10
2.8476169034
 20
3.9390654159
 11
2.8481823671
 21
3.9375945813
  0
SPLINE
  5
340
100
AcDbEntity
  8
0
100
AcDbSpline
 62
6
  6
CONTINUOUS
 70
0
 71
3
 72
53
 73
49
 74
47
 42
0.0000001
 43
0.0000001
 44
0.0000000001
 12
0.2152347488
 22
-0.7714549364
 32
0.0
 13
0.8009172565
 23
0.0005141359
 33
0.0
 40
0.0
 40
0.0
 40
0.0
 40
0.0
 40
0.0013922684
 40
0.0030584364
 40
0.0072137515
 40
0.0124636254
 40
0.0188005712
 40
0.0262152587
 40
0.0346945085
 40
0.0547598494
 40
0.0788149133
 40
0.106654967
 40
0.1380190363
 40
0.1726325891
 40
0.2101810688
 40
0.2503234425
 40
0.2927036763
 40
0.3369334207
 40
0.4293442236
 40
0.5242302731
 40
0.5715363495
 40
0.6181804692
 40
0.6637455319
 40
0.7078192687
 40
0.7500045667
 40
0.78992631
 40
0.8272183098
 40
0.8615534482
 40
0.8926191088
 40
0.9201363571
 40
0.9438664432
 40
0.9542392797
 40
0.9635876974
 40
0.9718937646
 40
0.9791398552
 40
0.9853088734
 40
0.9879847219
 40
0.9903869692
 40
0.9925154532
 40
0.9943702995
 40
0.9959521222
 40
0.9972624316
 40
0.9983045653
 40
0.9990861724
 40
0.9993851705
 40
0.9996291352
 40
0.9998280365
 40
1.0
 40
1.0
 40
1.0
 40
1.0
 10
2.8482172424
 20
3.9374714617
 30
0.0
 10
2.8483171306
 20
3.9371134376
 30
0.0
 10
2.8485114535
 20
3.9363199651
 30
0.0
 10
2.848896104
 20
3.9344326261
 30
0.0
 10
2.8493593881
 20
3.9315122441
 30
0.0
 10
2.8498891455
 20
3.9273428095
 30
0.0
 10
2.8504215228
 20
3.9222976112
 30
0.0
 10
2.8509562659
 20
3.9163865811
 30
0.0
 10
2.8517137704
 20
3.9068162167
 30
0.0
 10
2.852637315
 20
3.892803451
 30
0.0
 10
2.8537006929
 20
3.8736212635
 30
0.0
 10
2.8547671636
 20
3.851418791
 30
0.0
 10
2.8558371924
 20
3.8263948437
 30
0.0
 10
2.8569086455
 20
3.7987769442
 30
0.0
 10
2.8579814313
 20
3.7688139251
 30
0.0
 10
2.8590552072
 20
3.7367762178
 30
0.0
 10
2.8601293775
 20
3.7029538691
 30
0.0
 10
2.8615836063
 20
3.6551823673
 30
0.0
 10
2.8633749755
 20
3.5933970805
 30
0.0
 10
2.8651445644
 20
3.5307895627
 30
0.0
 10
2.866579112
 20
3.4803958966
 30
0.0
 10
2.867653847
 20
3.4431646699
 30
0.0
 10
2.8687281722
 20
3.4067967423
 30
0.0
 10
2.8698020606
 20
3.3716197172
 30
0.0
 10
2.8708754678
 20
3.3379500154
 30
0.0
 10
2.8719478348
 20
3.3060917796
 30
0.0
 10
2.8730194453
 20
3.2763305494
 30
0.0
 10
2.8740893848
 20
3.2489352328
 30
0.0
 10
2.8751571751
 20
3.2241515663
 30
0.0
 10
2.876222583
 20
3.2022019879
 30
0.0
 10
2.8771421437
 20
3.1857765417
 30
0.0
 10
2.877891281
 20
3.174200369
 30
0.0
 10
2.8784269798
 20
3.1667369736
 30
0.0
 10
2.8789615028
 20
3.1601106089
 30
0.0
 10
2.8794946642
 20
3.1543360756
 30
0.0
 10
2.8799560648
 20
3.1500647721
 30
0.0
 10
2.8803317743
 20
3.1470856217
 30
0.0
 10
2.8805997099
 20
3.1451803272
 30
0.0
 10
2.8808671727
 20
3.1434965605
 30
0.0
 10
2.8811339817
 20
3.1420347689
 30
0.0
 10
2.8813999144
 20
3.1407954823
 30
0.0
 10
2.8816642614
 20
3.1397782481
 30
0.0
 10
2.8819269374
 20
3.1389835432
 30
0.0
 10
2.8821592387
 20
3.1384636378
 30
0.0
 10
2.8823547777
 20
3.1381678709
 30
0.0
 10
2.8824892801
 20
3.1380209383
 30
0.0
 10
2.8826272833
 20
3.1379278761
 30
0.0
 10
2.8827269417
 20
3.1379051185
 30
0.0
 10
2.8827728512
 20
3.137905148
 30
0.0
 11
2.8482172424
 21
3.9374714617
 31
0.0
 11
2.8484875768
 21
3.9363896347
 31
0.0
 11
2.8487579052
 21
3.9350828394
 31
0.0
 11
2.8492985446
 21
3.9317989818
 31
0.0
 11
2.8498391604
 21
3.9276291657
 31
0.0
 11
2.8503797528
 21
3.9225826676
 31
0.0
 11
2.8509203218
 21
3.9166687695
 31
0.0
 11
2.8514608672
 21
3.9098991372
 31
0.0
 11
2.8525418879
 21
3.8938648557
 31
0.0
 11
2.853622815
 21
3.8746290826
 31
0.0
 11
2.8547036486
 21
3.8523577097
 31
0.0
 11
2.8557843889
 21
3.8272609393
 31
0.0
 11
2.8568650358
 21
3.799559412
 31
0.0
 11
2.8579455896
 21
3.7695055993
 31
0.0
 11
2.8590260504
 21
3.7373730331
 31
0.0
 11
2.8601064182
 21
3.7034471632
 31
0.0
 11
2.8611866932
 21
3.6680392659
 31
0.0
 11
2.8633469651
 21
3.5940573771
 31
0.0
 11
2.8655068668
 21
3.5180921868
 31
0.0
 11
2.8665866792
 21
3.4802193165
 31
0.0
 11
2.8676663993
 21
3.4428768347
 31
0.0
 11
2.8687460274
 21
3.4063989554
 31
0.0
 11
2.8698255634
 21
3.371116043
 31
0.0
 11
2.8709050074
 21
3.3373463506
 31
0.0
 11
2.8719843596
 21
3.305390554
 31
0.0
 11
2.8730636201
 21
3.2755422474
 31
0.0
 11
2.874142789
 21
3.24806382
 31
0.0
 11
2.8752218662
 21
3.2232062017
 31
0.0
 11
2.8763008521
 21
3.2011935865
 31
0.0
 11
2.8773797465
 21
3.1822183943
 31
0.0
 11
2.8779191595
 21
3.173928139
 31
0.0
 11
2.8784585497
 21
3.1664602827
 31
0.0
 11
2.878997917
 21
3.1598297102
 31
0.0
 11
2.8795372616
 21
3.1540513061
 31
0.0
 11
2.8800765834
 21
3.1491399549
 31
0.0
 11
2.8803462358
 21
3.147013853
 31
0.0
 11
2.8806158825
 21
3.1451088403
 31
0.0
 11
2.8808855235
 21
3.1434255603
 31
0.0
 11
2.8811551588
 21
3.1419646561
 31
0.0
 11
2.8814247884
 21
3.1407267711
 31
0.0
 11
2.8816944123
 21
3.1397125486
 31
0.0
 11
2.8819640305
 21
3.1389226318
 31
0.0
 11
2.8822336431
 21
3.1383576641
 31
0.0
 11
2.8823684472
 21
3.1381597372
 31
0.0
 11
2.88250325
 21
3.1380182888
 31
0.0
 11
2.8826380513
 21
3.1379333993
 31
0.0
 11
2.8827728512
 21
3.137905148
 31
0.0
  0
SPLINE
  5
341
100
AcDbEntity
  8
0
100
AcDbSpline
 62
6
  6
CONTINUOUS
 70
0
 71
3
 72
36
 73
32
 74
30
 42
0.0000001
 43
0.0000001
 44
0.0000000001
 12
-0.4360221911
 22
0.0136347774
 32
0.0
 13
-0.011397987
 23
0.4360863953
 33
0.0
 40
0.0
 40
0.0
 40
0.0
 40
0.0
 40
0.0003307279
 40
0.0007278962
 40
0.0012291693
 40
0.0018535007
 40
0.0026105346
 40
0.0035055316
 40
0.0057200982
 40
0.0085109883
 40
0.0118835482
 40
0.0158400176
 40
0.0203811212
 40
0.0312157331
 40
0.0443704084
 40
0.0598115198
 40
0.0775030938
 40
0.0974082731
 40
0.1194863133
 40
0.1436800615
 40
0.1699273603
 40
0.2283330334
 40
0.2941603757
 40
0.366767205
 40
0.4454765403
 40
0.5295098777
 40
0.6180559923
 40
0.71028063
 40
0.8053317898
 40
0.9022691888
 40
1.0
 40
1.0
 40
1.0
 40
1.0
 10
2.9358179355
 20
3.1038680536
 30
0.0
 10
2.9357698672
 20
3.1038695567
 30
0.0
 10
2.9356644825
 20
3.103900743
 30
0.0
 10
2.9355228739
 20
3.1040138045
 30
0.0
 10
2.9353846266
 20
3.1041881638
 30
0.0
 10
2.9352471444
 20
3.1044256214
 30
0.0
 10
2.9351094314
 20
3.104726994
 30
0.0
 10
2.9349111727
 20
3.1052534622
 30
0.0
 10
2.9346715975
 20
3.1060783934
 30
0.0
 10
2.9343980528
 20
3.1072658191
 30
0.0
 10
2.9341232738
 20
3.1087118022
 30
0.0
 10
2.9338473428
 20
3.110415799
 30
0.0
 10
2.9334551569
 20
3.1131995919
 30
0.0
 10
2.932977228
 20
3.1173211522
 30
0.0
 10
2.9324282325
 20
3.1230286412
 30
0.0
 10
2.9318771152
 20
3.1297369442
 30
0.0
 10
2.9313242871
 20
3.1374295285
 30
0.0
 10
2.9307704321
 20
3.1460893248
 30
0.0
 10
2.9302159918
 20
3.1556962975
 30
0.0
 10
2.9296609184
 20
3.1662268435
 30
0.0
 10
2.9288925318
 20
3.1820358106
 30
0.0
 10
2.9279442197
 20
3.2038970018
 30
0.0
 10
2.9268401799
 20
3.2324986
 30
0.0
 10
2.9257337525
 20
3.2640544837
 30
0.0
 10
2.9246261082
 20
3.2982591723
 30
0.0
 10
2.9235171511
 20
3.3347827079
 30
0.0
 10
2.9224075175
 20
3.3732723599
 30
0.0
 10
2.9212971572
 20
3.4133647469
 30
0.0
 10
2.9201860479
 20
3.4546777561
 30
0.0
 10
2.9190750076
 20
3.4967917118
 30
0.0
 10
2.9183354503
 20
3.5250890992
 30
0.0
 10
2.9179641388
 20
3.5392954582
 30
0.0
 11
2.9358179355
 21
3.1038680536
 31
0.0
 11
2.9356785457
 21
3.1039052803
 31
0.0
 11
2.935539155
 21
3.1040081825
 31
0.0
 11
2.9353997634
 21
3.1041766695
 31
0.0
 11
2.9352603707
 21
3.1044106506
 31
0.0
 11
2.935120977
 21
3.1047100352
 31
0.0
 11
2.9349815823
 21
3.1050747325
 31
0.0
 11
2.9347027897
 21
3.1059997029
 31
0.0
 11
2.9344239926
 21
3.1071848364
 31
0.0
 11
2.9341451908
 21
3.1086294078
 31
0.0
 11
2.9338663842
 21
3.1103326918
 31
0.0
 11
2.9335875725
 21
3.1122939629
 31
0.0
 11
2.9330299333
 21
3.1169873921
 31
0.0
 11
2.932472271
 21
3.1226987655
 31
0.0
 11
2.9319145832
 21
3.1294115978
 31
0.0
 11
2.9313568676
 21
3.1371091094
 31
0.0
 11
2.9307991216
 21
3.1457745208
 31
0.0
 11
2.930241344
 21
3.1553895768
 31
0.0
 11
2.9296835392
 21
3.1659289936
 31
0.0
 11
2.9291257131
 21
3.1773653963
 31
0.0
 11
2.9280100211
 21
3.2028195746
 31
0.0
 11
2.9268942767
 21
3.2315141028
 31
0.0
 11
2.9257783993
 21
3.263168104
 31
0.0
 11
2.9246623301
 21
3.297485753
 31
0.0
 11
2.9235461781
 21
3.3341270672
 31
0.0
 11
2.9224300776
 21
3.3727378824
 31
0.0
 11
2.9213138141
 21
3.4129540383
 31
0.0
 11
2.9201969296
 21
3.454403667
 31
0.0
 11
2.9190797793
 21
3.4966764257
 31
0.0
 11
2.9179641388
 21
3.5392954582
 31
0.0
  0
SPLINE
  5
342
100
AcDbEntity
  8
0
100
AcDbSpline
 62
6
  6
CONTINUOUS
 70
0
 71
3
 72
36
 73
32
 74
30
 42
0.0000001
 43
0.0000001
 44
0.0000000001
 12
-0.4338061236
 22
0.0134807518
 32
0.0
 13
-0.0114046213
 23
0.4338656683
 33
0.0
 40
0.0
 40
0.0
 40
0.0
 40
0.0
 40
0.0003324065
 40
0.0007310019
 40
0.0012334671
 40
0.0018588282
 40
0.0026167854
 40
0.0035126343
 40
0.0057287589
 40
0.0085210665
 40
0.0118949077
 40
0.0158524972
 40
0.0203945199
 40
0.0312303958
 40
0.0443870923
 40
0.0598306042
 40
0.0775240117
 40
0.0974294998
 40
0.119506649
 40
0.1436997871
 40
0.1699465218
 40
0.2283502359
 40
0.2941761536
 40
0.3667817081
 40
0.4454893265
 40
0.5295212655
 40
0.6180655408
 40
0.7102878208
 40
0.8053359673
 40
0.9022708232
 40
1.0
 40
1.0
 40
1.0
 40
1.0
 10
2.8643949258
 20
3.1060918089
 30
0.0
 10
2.8643468591
 20
3.1060933026
 30
0.0
 10
2.8642415394
 20
3.1061242565
 30
0.0
 10
2.8640998412
 20
3.1062367378
 30
0.0
 10
2.8639615164
 20
3.1064102727
 30
0.0
 10
2.8638239663
 20
3.1066466074
 30
0.0
 10
2.863686195
 20
3.1069465484
 30
0.0
 10
2.8634878757
 20
3.1074704521
 30
0.0
 10
2.8632482094
 20
3.1082913903
 30
0.0
 10
2.862974557
 20
3.1094730624
 30
0.0
 10
2.86269967
 20
3.1109119659
 30
0.0
 10
2.8624236312
 20
3.1126075345
 30
0.0
 10
2.8620313015
 20
3.1153773438
 30
0.0
 10
2.8615531407
 20
3.1194782397
 30
0.0
 10
2.8610039397
 20
3.1251572256
 30
0.0
 10
2.860452605
 20
3.1318320541
 30
0.0
 10
2.8598995625
 20
3.1394859363
 30
0.0
 10
2.8593454787
 20
3.1481016537
 30
0.0
 10
2.85879081
 20
3.1576593925
 30
0.0
 10
2.858235544
 20
3.1681358953
 30
0.0
 10
2.8574668899
 20
3.1838637612
 30
0.0
 10
2.8565182058
 20
3.2056129151
 30
0.0
 10
2.8554137024
 20
3.2340680644
 30
0.0
 10
2.8543067787
 20
3.2654625214
 30
0.0
 10
2.8531986138
 20
3.2994923237
 30
0.0
 10
2.8520891334
 20
3.3358291041
 30
0.0
 10
2.8509789488
 20
3.3741219119
 30
0.0
 10
2.8498680305
 20
3.4140090722
 30
0.0
 10
2.8487563453
 20
3.4551105462
 30
0.0
 10
2.84764471
 20
3.4970089983
 30
0.0
 10
2.8469047436
 20
3.5251616801
 30
0.0
 10
2.8465332222
 20
3.5392954582
 30
0.0
 11
2.8643949258
 21
3.1060918089
 31
0.0
 11
2.864255489
 21
3.1061288372
 31
0.0
 11
2.8641160507
 21
3.1062312324
 31
0.0
 11
2.863976611
 21
3.1063989061
 31
0.0
 11
2.8638371697
 21
3.1066317644
 31
0.0
 11
2.8636977269
 21
3.1069297137
 31
0.0
 11
2.8635582825
 21
3.1072926604
 31
0.0
 11
2.863279389
 21
3.1082131712
 31
0.0
 11
2.8630004889
 21
3.1093925474
 31
0.0
 11
2.8627215822
 21
3.1108300397
 31
0.0
 11
2.8624426687
 21
3.1125248987
 31
0.0
 11
2.8621637481
 21
3.1144763751
 31
0.0
 11
2.8616058851
 21
3.1191461095
 31
0.0
 11
2.8610479934
 21
3.1248290016
 31
0.0
 11
2.8604900747
 21
3.1315084654
 31
0.0
 11
2.8599321315
 21
3.1391673832
 31
0.0
 11
2.8593741658
 21
3.1477886374
 31
0.0
 11
2.8588161796
 21
3.1573542025
 31
0.0
 11
2.8582581734
 21
3.1678395628
 31
0.0
 11
2.857700147
 21
3.1792173774
 31
0.0
 11
2.8565840335
 21
3.2045409126
 31
0.0
 11
2.8554678196
 21
3.2330885697
 31
0.0
 11
2.8543514408
 21
3.2645807269
 31
0.0
 11
2.8532348542
 21
3.2987228023
 31
0.0
 11
2.8521181682
 21
3.3351768696
 31
0.0
 11
2.8510015164
 21
3.3735902338
 31
0.0
 11
2.8498846903
 21
3.4136005517
 31
0.0
 11
2.8487672321
 21
3.4548377859
 31
0.0
 11
2.8476494852
 21
3.4968941683
 31
0.0
 11
2.8465332222
 21
3.5392954582
 31
0.0
  0
SPLINE
  5
343
100
AcDbEntity
  8
0
100
AcDbSpline
 62
6
  6
CONTINUOUS
 70
0
 71
3
 72
36
 73
32
 74
30
 42
0.0000001
 43
0.0000001
 44
0.0000000001
 12
-0.4315808088
 22
0.0135622797
 32
0.0
 13
-0.0113921484
 23
0.4316435438
 33
0.0
 40
0.0
 40
0.0
 40
0.0
 40
0.0
 40
0.0003340477
 40
0.0007339809
 40
0.0012374061
 40
0.0018634104
 40
0.0026217654
 40
0.0035178249
 40
0.0057339818
 40
0.0085260382
 40
0.0118995655
 40
0.0158569697
 40
0.0203991119
 40
0.0312363995
 40
0.0443938392
 40
0.0598374783
 40
0.077531143
 40
0.0974377567
 40
0.1195168059
 40
0.1437115086
 40
0.1699594402
 40
0.2283643819
 40
0.2941895689
 40
0.3667935531
 40
0.4454997899
 40
0.5295302591
 40
0.6180729755
 40
0.7102935879
 40
0.8053401304
 40
0.9022731121
 40
1.0
 40
1.0
 40
1.0
 40
1.0
 10
2.7929315456
 20
3.1083167551
 30
0.0
 10
2.7928834894
 20
3.1083182652
 30
0.0
 10
2.7927782838
 20
3.1083490497
 30
0.0
 10
2.7926365468
 20
3.1084608975
 30
0.0
 10
2.792498183
 20
3.1086335008
 30
0.0
 10
2.7923606064
 20
3.1088685356
 30
0.0
 10
2.7922228208
 20
3.109166812
 30
0.0
 10
2.7920245059
 20
3.1096877514
 30
0.0
 10
2.791784827
 20
3.1105041338
 30
0.0
 10
2.7915111673
 20
3.1116793546
 30
0.0
 10
2.7912362794
 20
3.1131105162
 30
0.0
 10
2.7909602452
 20
3.1147971217
 30
0.0
 10
2.7905679141
 20
3.1175526648
 30
0.0
 10
2.7900898344
 20
3.1216326273
 30
0.0
 10
2.789540646
 20
3.1272826029
 30
0.0
 10
2.7889893482
 20
3.133923198
 30
0.0
 10
2.7884363565
 20
3.1415379182
 30
0.0
 10
2.7878823561
 20
3.1501098294
 30
0.0
 10
2.787327802
 20
3.1596191469
 30
0.0
 10
2.7867726529
 20
3.170042549
 30
0.0
 10
2.7860042049
 20
3.1856902981
 30
0.0
 10
2.7850558497
 20
3.2073281677
 30
0.0
 10
2.7839518273
 20
3.2356373029
 30
0.0
 10
2.7828454823
 20
3.2668703451
 30
0.0
 10
2.7817379753
 20
3.3007251521
 30
0.0
 10
2.7806292265
 20
3.3368751418
 30
0.0
 10
2.7795198634
 20
3.3749711152
 30
0.0
 10
2.7784098537
 20
3.4146532683
 30
0.0
 10
2.7772991694
 20
3.45554348
 30
0.0
 10
2.7761886287
 20
3.4972265055
 30
0.0
 10
2.7754494548
 20
3.5252343982
 30
0.0
 10
2.7750783484
 20
3.5392954582
 30
0.0
 11
2.7929315456
 21
3.1083167551
 31
0.0
 11
2.7927921048
 21
3.1083536518
 31
0.0
 11
2.7926526633
 21
3.1084555216
 31
0.0
 11
2.792513221
 21
3.1086222793
 31
0.0
 11
2.7923737778
 21
3.1088538398
 31
0.0
 11
2.7922343338
 21
3.1091501181
 31
0.0
 11
2.7920948888
 21
3.1095110292
 31
0.0
 11
2.7918159961
 21
3.1104264091
 31
0.0
 11
2.7915370994
 21
3.1115992989
 31
0.0
 11
2.7912581983
 21
3.113029018
 31
0.0
 11
2.7909792926
 21
3.1147148859
 31
0.0
 11
2.7907003821
 21
3.1166562218
 31
0.0
 11
2.7901425453
 21
3.1213023273
 31
0.0
 11
2.7895846892
 21
3.1269561741
 31
0.0
 11
2.7890268183
 21
3.1336012664
 31
0.0
 11
2.7884689371
 21
3.1412208863
 31
0.0
 11
2.7879110504
 21
3.149798316
 31
0.0
 11
2.7873531624
 21
3.1593155764
 31
0.0
 11
2.7867952762
 21
3.1697477938
 31
0.0
 11
2.7862373943
 21
3.1810677506
 31
0.0
 11
2.7851216533
 21
3.2062619517
 31
0.0
 11
2.7840059285
 21
3.2346629557
 31
0.0
 11
2.7828901337
 21
3.2659930469
 31
0.0
 11
2.7817742055
 21
3.2999595897
 31
0.0
 11
2.7806582558
 21
3.3362262645
 31
0.0
 11
2.7795424277
 21
3.3744421785
 31
0.0
 11
2.7784265148
 21
3.4142468328
 31
0.0
 11
2.7773100604
 21
3.4552721568
 31
0.0
 11
2.7761934132
 21
3.4971123241
 31
0.0
 11
2.7750783484
 21
3.5392954582
 31
0.0
  0
SPLINE
  5
344
100
AcDbEntity
  8
0
100
AcDbSpline
 62
6
  6
CONTINUOUS
 70
0
 71
3
 72
36
 73
32
 74
30
 42
0.0000001
 43
0.0000001
 44
0.0000000001
 12
-0.4293763635
 22
0.0132406235
 32
0.0
 13
-0.0113298142
 23
0.4294310317
 33
0.0
 40
0.0
 40
0.0
 40
0.0
 40
0.0
 40
0.0003376352
 40
0.0007405217
 40
0.0012462442
 40
0.0018740468
 40
0.0026338401
 40
0.0035310751
 40
0.0057490303
 40
0.0085424137
 40
0.0119169786
 40
0.0158752471
 40
0.0204181628
 40
0.0312568753
 40
0.0444154123
 40
0.0598599865
 40
0.0775546231
 40
0.0974624241
 40
0.1195431616
 40
0.1437400413
 40
0.1699901995
 40
0.228398028
 40
0.2942251146
 40
0.366828054
 40
0.4455292768
 40
0.5295541694
 40
0.6180908102
 40
0.7103055958
 40
0.8053468691
 40
0.9022759964
 40
1.0
 40
1.0
 40
1.0
 40
1.0
 10
2.7214854883
 20
3.1105412055
 30
0.0
 10
2.7214371641
 20
3.1105426956
 30
0.0
 10
2.7213315181
 20
3.1105731633
 30
0.0
 10
2.7211887896
 20
3.1106843128
 30
0.0
 10
2.7210494713
 20
3.1108560098
 30
0.0
 10
2.7209109692
 20
3.1110898083
 30
0.0
 10
2.7207722801
 20
3.1113865121
 30
0.0
 10
2.7205727167
 20
3.1119045963
 30
0.0
 10
2.7203314926
 20
3.1127166392
 30
0.0
 10
2.7200560744
 20
3.1138857143
 30
0.0
 10
2.7197794312
 20
3.1153094061
 30
0.0
 10
2.7195016475
 20
3.1169872367
 30
0.0
 10
2.7191068508
 20
3.1197284604
 30
0.0
 10
2.7186257998
 20
3.1237873576
 30
0.0
 10
2.7180732374
 20
3.1294082682
 30
0.0
 10
2.7175186238
 20
3.1360147467
 30
0.0
 10
2.7169623867
 20
3.1435904363
 30
0.0
 10
2.7164052258
 20
3.1521185717
 30
0.0
 10
2.7158476177
 20
3.1615795245
 30
0.0
 10
2.7152895365
 20
3.1719500611
 30
0.0
 10
2.7145172302
 20
3.1875182607
 30
0.0
 10
2.7135645079
 20
3.2090458169
 30
0.0
 10
2.7124561816
 20
3.2372099868
 30
0.0
 10
2.7113463704
 20
3.2682820084
 30
0.0
 10
2.7102363239
 20
3.3019613392
 30
0.0
 10
2.7091261119
 20
3.3379234165
 30
0.0
 10
2.7080164006
 20
3.3758214295
 30
0.0
 10
2.7069072934
 20
3.4152975773
 30
0.0
 10
2.7057988607
 20
3.4559759497
 30
0.0
 10
2.7046920272
 20
3.4974435342
 30
0.0
 10
2.7039563614
 20
3.525306885
 30
0.0
 10
2.7035872964
 20
3.5392954582
 30
0.0
 11
2.7214854883
 21
3.1105412055
 31
0.0
 11
2.7213451587
 21
3.1105778746
 31
0.0
 11
2.7212048276
 21
3.1106791721
 31
0.0
 11
2.7210644953
 21
3.1108450146
 31
0.0
 11
2.720924162
 21
3.1110753192
 31
0.0
 11
2.7207838278
 21
3.1113700026
 31
0.0
 11
2.7206434928
 21
3.1117289816
 31
0.0
 11
2.7203628216
 21
3.112639494
 31
0.0
 11
2.7200821498
 21
3.1138061913
 31
0.0
 11
2.7198014788
 21
3.1152284081
 31
0.0
 11
2.71952081
 21
3.1169054792
 31
0.0
 11
2.719240145
 21
3.1188367394
 31
0.0
 11
2.7186788318
 21
3.1234588803
 31
0.0
 11
2.7181175539
 21
3.1290835958
 31
0.0
 11
2.7175563284
 21
3.1356945036
 31
0.0
 11
2.7169951725
 21
3.1432750322
 31
0.0
 11
2.7164341036
 21
3.1518086098
 31
0.0
 11
2.7158731393
 21
3.1612774612
 31
0.0
 11
2.7153122983
 21
3.1716568267
 31
0.0
 11
2.7147516003
 21
3.1829194336
 31
0.0
 11
2.7136307109
 21
3.2079852464
 31
0.0
 11
2.7125105929
 21
3.2362410837
 31
0.0
 11
2.7113912752
 21
3.2674097964
 31
0.0
 11
2.7102727963
 21
3.301199798
 31
0.0
 11
2.7091553511
 21
3.3372779493
 31
0.0
 11
2.7080391714
 21
3.3752951787
 31
0.0
 11
2.7069241611
 21
3.4148931539
 31
0.0
 11
2.705809974
 21
3.4557058224
 31
0.0
 11
2.7046970588
 21
3.4973298064
 31
0.0
 11
2.7035872964
 21
3.5392954582
 31
0.0
  0
LINE
  5
345
100
AcDbEntity
  8
0
100
AcDbLine
 62
6
  6
CONTINUOUS
 10
2.7761885676
 20
3.9368557085
 11
2.7765532226
 21
3.9360207916
  0
SPLINE
  5
346
100
AcDbEntity
  8
0
100
AcDbSpline
 62
6
  6
CONTINUOUS
 70
0
 71
3
 72
54
 73
50
 74
48
 42
0.0000001
 43
0.0000001
 44
0.0000000001
 12
0.2637914587
 22
-0.7523181611
 32
0.0
 13
0.7972213727
 23
0.0025752782
 33
0.0
 40
0.0
 40
0.0
 40
0.0
 40
0.0
 40
0.0011674198
 40
0.0026096623
 40
0.006324888
 40
0.0111493654
 40
0.0170783691
 40
0.0241044201
 40
0.0322143846
 40
0.041387473
 40
0.0516019067
 40
0.0750664297
 40
0.1024044528
 40
0.133356596
 40
0.1676502086
 40
0.2049667472
 40
0.2449654866
 40
0.2872851198
 40
0.3315330687
 40
0.4241953985
 40
0.5195725193
 40
0.5671938646
 40
0.6141889412
 40
0.6601316585
 40
0.7045993706
 40
0.7471887014
 40
0.7875127063
 40
0.8251985052
 40
0.8599113903
 40
0.8913273705
 40
0.919166578
 40
0.9431777623
 40
0.9536751151
 40
0.9631380942
 40
0.9715470114
 40
0.9788824894
 40
0.9851260471
 40
0.9878345319
 40
0.990266644
 40
0.9924220256
 40
0.9943006097
 40
0.9959028234
 40
0.9972300014
 40
0.9982853317
 40
0.9990763833
 40
0.9993787383
 40
0.9996252507
 40
0.9998261643
 40
1.0
 40
1.0
 40
1.0
 40
1.0
 10
2.7765532226
 20
3.9360207916
 30
0.0
 10
2.7766558744
 20
3.9357280346
 30
0.0
 10
2.7768534806
 20
3.935062522
 30
0.0
 10
2.7772438619
 20
3.9334273132
 30
0.0
 10
2.7777095191
 20
3.9308140888
 30
0.0
 10
2.7782409652
 20
3.927005843
 30
0.0
 10
2.7787755093
 20
3.9223109443
 30
0.0
 10
2.7793129445
 20
3.9167387996
 30
0.0
 10
2.7798516853
 20
3.9103012136
 30
0.0
 10
2.7803917392
 20
3.9030138854
 30
0.0
 10
2.7811482944
 20
3.8916513792
 30
0.0
 10
2.7820764937
 20
3.8754628972
 30
0.0
 10
2.7831497575
 20
3.8537636555
 30
0.0
 10
2.7842263213
 20
3.829183732
 30
0.0
 10
2.78530458
 20
3.8019499198
 30
0.0
 10
2.7863843657
 20
3.7723103918
 30
0.0
 10
2.78746514
 20
3.7405367426
 30
0.0
 10
2.7885464173
 20
3.7069201458
 30
0.0
 10
2.790011466
 20
3.6593137847
 30
0.0
 10
2.7918155977
 20
3.5976116478
 30
0.0
 10
2.7935958472
 20
3.5350120252
 30
0.0
 10
2.7950393613
 20
3.4845434297
 30
0.0
 10
2.7961213528
 20
3.4472066577
 30
0.0
 10
2.7972029118
 20
3.4107082827
 30
0.0
 10
2.7982841175
 20
3.3753812152
 30
0.0
 10
2.7993647382
 20
3.3415479805
 30
0.0
 10
2.8004444028
 20
3.3095179139
 30
0.0
 10
2.8015233065
 20
3.2795821792
 30
0.0
 10
2.8026003994
 20
3.2520152611
 30
0.0
 10
2.8036756045
 20
3.2270670733
 30
0.0
 10
2.8047480744
 20
3.2049656033
 30
0.0
 10
2.8056738968
 20
3.1884228069
 30
0.0
 10
2.8064281555
 20
3.1767620283
 30
0.0
 10
2.8069674637
 20
3.1692423734
 30
0.0
 10
2.8075055953
 20
3.1625652484
 30
0.0
 10
2.8080423025
 20
3.1567466898
 30
0.0
 10
2.8085069572
 20
3.1524431138
 30
0.0
 10
2.8088852371
 20
3.1494415324
 30
0.0
 10
2.8091549926
 20
3.1475214587
 30
0.0
 10
2.8094242723
 20
3.1458242768
 30
0.0
 10
2.8096928902
 20
3.1443505897
 30
0.0
 10
2.8099606217
 20
3.1431010856
 30
0.0
 10
2.8102267446
 20
3.1420754553
 30
0.0
 10
2.8104911731
 20
3.1412743371
 30
0.0
 10
2.8107250247
 20
3.1407503837
 30
0.0
 10
2.8109219356
 20
3.1404525727
 30
0.0
 10
2.8110573763
 20
3.1403048564
 30
0.0
 10
2.8111964059
 20
3.1402115461
 30
0.0
 10
2.8112967156
 20
3.1401889699
 30
0.0
 10
2.8113429107
 20
3.1401891192
 30
0.0
 11
2.7765532226
 21
3.9360207916
 31
0.0
 11
2.7768253596
 21
3.9351307702
 31
0.0
 11
2.7770974916
 21
3.9340136457
 31
0.0
 11
2.7776417399
 21
3.9311022055
 31
0.0
 11
2.7781859677
 21
3.9272947071
 31
0.0
 11
2.7787301748
 21
3.9225993867
 31
0.0
 11
2.7792743611
 21
3.9170245367
 31
0.0
 11
2.7798185267
 21
3.9105820065
 31
0.0
 11
2.7803626715
 21
3.9032892586
 31
0.0
 11
2.7809067955
 21
3.8951642505
 31
0.0
 11
2.7819949805
 21
3.8764894112
 31
0.0
 11
2.7830830814
 21
3.85472202
 31
0.0
 11
2.7841710977
 21
3.8300701795
 31
0.0
 11
2.785259029
 21
3.8027520905
 31
0.0
 11
2.7863468749
 21
3.7730222893
 31
0.0
 11
2.7874346349
 21
3.7411528311
 31
0.0
 11
2.7885223086
 21
3.7074320761
 31
0.0
 11
2.7896098957
 21
3.6721732512
 31
0.0
 11
2.7917848083
 21
3.5983324992
 31
0.0
 11
2.7939593698
 21
3.5223265244
 31
0.0
 11
2.7950465179
 21
3.4843771408
 31
0.0
 11
2.7961335772
 21
3.4469272396
 31
0.0
 11
2.7972205474
 21
3.4103166649
 31
0.0
 11
2.798307428
 21
3.3748825346
 31
0.0
 11
2.7993942188
 21
3.3409466304
 31
0.0
 11
2.8004809195
 21
3.3088176767
 31
0.0
 11
2.8015675299
 21
3.2787932519
 31
0.0
 11
2.8026540495
 21
3.2511405909
 31
0.0
 11
2.8037404782
 21
3.2261185441
 31
0.0
 11
2.8048268156
 21
3.2039510194
 31
0.0
 11
2.8059130616
 21
3.184839535
 31
0.0
 11
2.8064561502
 21
3.1764884178
 31
0.0
 11
2.8069992158
 21
3.168963861
 31
0.0
 11
2.8075422584
 21
3.1622820883
 31
0.0
 11
2.808085278
 21
3.1564593236
 31
0.0
 11
2.8086282746
 21
3.1515115063
 31
0.0
 11
2.8088997642
 21
3.1493693685
 31
0.0
 11
2.8091712481
 21
3.1474495268
 31
0.0
 11
2.8094427262
 21
3.1457527825
 31
0.0
 11
2.8097141985
 21
3.144279937
 31
0.0
 11
2.809985665
 21
3.1430317917
 31
0.0
 11
2.8102571257
 21
3.1420091479
 31
0.0
 11
2.8105285807
 21
3.1412128069
 31
0.0
 11
2.8108000298
 21
3.1406435702
 31
0.0
 11
2.8109357522
 21
3.1404443663
 31
0.0
 11
2.8110714732
 21
3.1403022316
 31
0.0
 11
2.8112071927
 21
3.1402171683
 31
0.0
 11
2.8113429107
 21
3.1401891192
 31
0.0
  0
SPLINE
  5
347
100
AcDbEntity
  8
0
100
AcDbSpline
 62
6
  6
CONTINUOUS
 70
0
 71
3
 72
36
 73
32
 74
30
 42
0.0000001
 43
0.0000001
 44
0.0000000001
 12
-0.4271493619
 22
0.0132132149
 32
0.0
 13
-0.0113991128
 23
0.4272016229
 33
0.0
 40
0.0
 40
0.0
 40
0.0
 40
0.0
 40
0.0003371613
 40
0.0007396872
 40
0.0012451704
 40
0.0018728306
 40
0.0026325547
 40
0.0035297754
 40
0.0057478161
 40
0.0085413696
 40
0.0119161285
 40
0.015874564
 40
0.0204175733
 40
0.0312562896
 40
0.044415436
 40
0.0598610086
 40
0.07755661
 40
0.0974649217
 40
0.1195459505
 40
0.1437437245
 40
0.1699951064
 40
0.2284052177
 40
0.2942355067
 40
0.3668404244
 40
0.4455402909
 40
0.5295631291
 40
0.6180968024
 40
0.7103085516
 40
0.8053474581
 40
0.9022758426
 40
1.0
 40
1.0
 40
1.0
 40
1.0
 10
2.6500996017
 20
3.1127637571
 30
0.0
 10
2.6500515956
 20
3.1127652421
 30
0.0
 10
2.6499466231
 20
3.1127955843
 30
0.0
 10
2.6498048647
 20
3.1129062024
 30
0.0
 10
2.6496664903
 20
3.1130770496
 30
0.0
 10
2.6495289218
 20
3.1133096878
 30
0.0
 10
2.6493911628
 20
3.1136049156
 30
0.0
 10
2.6491929297
 20
3.1141204275
 30
0.0
 10
2.648953314
 20
3.1149283997
 30
0.0
 10
2.648679723
 20
3.1160915736
 30
0.0
 10
2.6484049049
 20
3.1175080374
 30
0.0
 10
2.6481289423
 20
3.1191772989
 30
0.0
 10
2.6477367168
 20
3.1219044261
 30
0.0
 10
2.6472587339
 20
3.125942451
 30
0.0
 10
2.6467096665
 20
3.131534517
 30
0.0
 10
2.6461584695
 20
3.1381071623
 30
0.0
 10
2.645605563
 20
3.145643968
 30
0.0
 10
2.6450516164
 20
3.1541281698
 30
0.0
 10
2.6444970946
 20
3.1635403339
 30
0.0
 10
2.6439419809
 20
3.173857461
 30
0.0
 10
2.6431735668
 20
3.1893455827
 30
0.0
 10
2.6422251596
 20
3.2107624757
 30
0.0
 10
2.641121112
 20
3.2387816584
 30
0.0
 10
2.6400147158
 20
3.2696930749
 30
0.0
 10
2.6389070952
 20
3.3031975099
 30
0.0
 10
2.6377982577
 20
3.338972128
 30
0.0
 10
2.6366886874
 20
3.376672378
 30
0.0
 10
2.6355783959
 20
3.4159425074
 30
0.0
 10
2.6344673231
 20
3.4564089127
 30
0.0
 10
2.633356288
 20
3.4976608566
 30
0.0
 10
2.6326167188
 20
3.5253794854
 30
0.0
 10
2.6322453959
 20
3.5392954582
 30
0.0
 11
2.6500996017
 21
3.1127637571
 31
0.0
 11
2.6499602129
 21
3.1128002518
 31
0.0
 11
2.6498208222
 21
3.1129010557
 31
0.0
 11
2.6496814295
 21
3.113066084
 31
0.0
 11
2.6495420348
 21
3.1132952521
 31
0.0
 11
2.6494026381
 21
3.1135884751
 31
0.0
 11
2.6492632394
 21
3.1139456684
 31
0.0
 11
2.6489844358
 21
3.1148516264
 31
0.0
 11
2.648705624
 21
3.116012448
 31
0.0
 11
2.6484268036
 21
3.1174274551
 31
0.0
 11
2.6481479745
 21
3.1190959696
 31
0.0
 11
2.6478691366
 21
3.1210173134
 31
0.0
 11
2.6473114337
 21
3.1256155816
 31
0.0
 11
2.6467536959
 21
3.1312114652
 31
0.0
 11
2.6461959263
 21
3.1377885791
 31
0.0
 11
2.6456381286
 21
3.1453302597
 31
0.0
 11
2.6450803061
 21
3.1538198433
 31
0.0
 11
2.6445224623
 21
3.163239749
 31
0.0
 11
2.6439646014
 21
3.1735656984
 31
0.0
 11
2.6434067281
 21
3.1847704437
 31
0.0
 11
2.6422909618
 21
3.2097072703
 31
0.0
 11
2.6411751767
 21
3.237817951
 31
0.0
 11
2.6400593149
 21
3.2688258582
 31
0.0
 11
2.6389433221
 21
3.3024400153
 31
0.0
 11
2.6378272659
 21
3.3383301357
 31
0.0
 11
2.6367112471
 21
3.3761488635
 31
0.0
 11
2.6355950535
 21
3.4155400826
 31
0.0
 11
2.6344782171
 21
3.4561399506
 31
0.0
 11
2.6333610681
 21
3.4975475851
 31
0.0
 11
2.6322453959
 21
3.5392954582
 31
0.0
  0
SPLINE
  5
348
100
AcDbEntity
  8
0
100
AcDbSpline
 62
6
  6
CONTINUOUS
 70
0
 71
3
 72
30
 73
26
 74
24
 42
0.0000001
 43
0.0000001
 44
0.0000000001
 12
-0.0113504113
 22
0.4253764479
 32
0.0
 13
-0.2126430202
 23
0.3685877104
 33
0.0
 40
0.0
 40
0.0
 40
0.0
 40
0.0
 40
0.1894216787
 40
0.2820333616
 40
0.3720414054
 40
0.4586658747
 40
0.5411402604
 40
0.6187204505
 40
0.6906811665
 40
0.7563877586
 40
0.8152416686
 40
0.8667177719
 40
0.8895445923
 40
0.9103542671
 40
0.9290987169
 40
0.9457429657
 40
0.9602535825
 40
0.9725980882
 40
0.9827465526
 40
0.986992317
 40
0.9906858065
 40
0.9938282244
 40
0.9964224495
 40
0.9984748192
 40
1.0
 40
1.0
 40
1.0
 40
1.0
 10
2.6322453959
 20
3.5392954582
 30
0.0
 10
2.6315287246
 20
3.5661539652
 30
0.0
 10
2.630461744
 20
3.606144087
 30
0.0
 10
2.6290147959
 20
3.6588955766
 30
0.0
 10
2.6279380638
 20
3.6970707019
 30
0.0
 10
2.6268618884
 20
3.733807353
 30
0.0
 10
2.6257860505
 20
3.7687804269
 30
0.0
 10
2.6247112184
 20
3.8016725533
 30
0.0
 10
2.6236371474
 20
3.8321849631
 30
0.0
 10
2.622565006
 20
3.860039492
 30
0.0
 10
2.6214947758
 20
3.8849861283
 30
0.0
 10
2.6205728152
 20
3.9038511211
 30
0.0
 10
2.6198241738
 20
3.9173214038
 30
0.0
 10
2.6192858943
 20
3.9261533432
 30
0.0
 10
2.618748214
 20
3.9341065887
 30
0.0
 10
2.618211515
 20
3.9411641573
 30
0.0
 10
2.6176764623
 20
3.9473111667
 30
0.0
 10
2.6171434568
 20
3.9525329093
 30
0.0
 10
2.6166792779
 20
3.9562976608
 30
0.0
 10
2.6162981867
 20
3.9588349518
 30
0.0
 10
2.6160302865
 20
3.9603840094
 30
0.0
 10
2.6157633813
 20
3.9616948741
 30
0.0
 10
2.615498057
 20
3.9627680903
 30
0.0
 10
2.6152348601
 20
3.9636031905
 30
0.0
 10
2.6150337062
 20
3.9640718943
 30
0.0
 10
2.6149255998
 20
3.9642592819
 30
0.0
 11
2.6322453959
 21
3.5392954582
 31
0.0
 11
2.6300820045
 21
3.619870621
 31
0.0
 11
2.6289995093
 21
3.6592646017
 31
0.0
 11
2.6279174549
 21
3.6975502436
 31
0.0
 11
2.6268354266
 21
3.7343954836
 31
0.0
 11
2.6257531755
 21
3.769473941
 31
0.0
 11
2.6246708034
 21
3.8024687243
 31
0.0
 11
2.6235884237
 21
3.8330708777
 31
0.0
 11
2.6225059926
 21
3.8610099026
 31
0.0
 11
2.6214234158
 21
3.8860304714
 31
0.0
 11
2.620340671
 21
3.9079082106
 31
0.0
 11
2.6197992477
 21
3.9176065574
 31
0.0
 11
2.6192577974
 21
3.9264450845
 31
0.0
 11
2.6187163243
 21
3.9344029697
 31
0.0
 11
2.6181748317
 21
3.9414648312
 31
0.0
 11
2.6176333228
 21
3.9476157123
 31
0.0
 11
2.6170918007
 21
3.9528406561
 31
0.0
 11
2.6165502683
 21
3.9571250219
 31
0.0
 11
2.6162794984
 21
3.9589113074
 31
0.0
 11
2.6160087256
 21
3.9604594897
 31
0.0
 11
2.6157379497
 21
3.9617689735
 31
0.0
 11
2.6154671703
 21
3.9628391636
 31
0.0
 11
2.6151963871
 21
3.9636694648
 31
0.0
 11
2.6149255998
 21
3.9642592819
 31
0.0
  0
SPLINE
  5
349
100
AcDbEntity
  8
0
100
AcDbSpline
 62
6
  6
CONTINUOUS
 70
0
 71
3
 72
24
 73
20
 74
18
 42
0.0000001
 43
0.0000001
 44
0.0000000001
 12
-0.0060510511
 22
0.1890472479
 32
0.0
 13
-0.0947226326
 23
0.1637165233
 33
0.0
 40
0.0
 40
0.0
 40
0.0
 40
0.0
 40
0.2098059388
 40
0.3998854504
 40
0.4865680941
 40
0.5673000295
 40
0.6418229021
 40
0.7098828873
 40
0.7712628097
 40
0.8257649179
 40
0.8731929998
 40
0.9133713227
 40
0.9461943277
 40
0.9598222036
 40
0.9715826712
 40
0.981470114
 40
0.9894845909
 40
0.995643962
 40
1.0
 40
1.0
 40
1.0
 40
1.0
 10
2.696945658
 20
3.7778072411
 30
0.0
 10
2.6965224758
 20
3.7910283195
 30
0.0
 10
2.6956859185
 20
3.8162264565
 30
0.0
 10
2.6945644263
 20
3.8468832052
 30
0.0
 10
2.6936559451
 20
3.8694042103
 30
0.0
 10
2.6929962001
 20
3.8846436401
 30
0.0
 10
2.6923370973
 20
3.8987077971
 30
0.0
 10
2.6916784592
 20
3.9115504188
 30
0.0
 10
2.691020663
 20
3.9231290061
 30
0.0
 10
2.6903641859
 20
3.933404534
 30
0.0
 10
2.6897099936
 20
3.9423404853
 30
0.0
 10
2.6890579767
 20
3.9499054692
 30
0.0
 10
2.688489879
 20
3.9553382947
 30
0.0
 10
2.6880225937
 20
3.9589786799
 30
0.0
 10
2.6876952363
 20
3.9611788049
 30
0.0
 10
2.6873694021
 20
3.9630204453
 30
0.0
 10
2.6870462916
 20
3.9645038758
 30
0.0
 10
2.6867263887
 20
3.9656271268
 30
0.0
 10
2.6864785596
 20
3.9662469887
 30
0.0
 10
2.6863410212
 20
3.9664847072
 30
0.0
 11
2.696945658
 21
3.7778072411
 31
0.0
 11
2.6956212143
 21
3.8174686812
 31
0.0
 11
2.6942952526
 21
3.8533966329
 31
0.0
 11
2.6936324894
 21
3.8697787393
 31
0.0
 11
2.6929698427
 21
3.885034321
 31
0.0
 11
2.6923072037
 21
3.899114296
 31
0.0
 11
2.6916444737
 21
3.9119703677
 31
0.0
 11
2.6909816415
 21
3.9235610786
 31
0.0
 11
2.6903187407
 21
3.933848493
 31
0.0
 11
2.6896558055
 21
3.9427947043
 31
0.0
 11
2.6889928632
 21
3.9503652244
 31
0.0
 11
2.6883299165
 21
3.9565380034
 31
0.0
 11
2.6879984407
 21
3.959094233
 31
0.0
 11
2.6876669626
 21
3.9612938189
 31
0.0
 11
2.6873354821
 21
3.9631343585
 31
0.0
 11
2.6870039986
 21
3.9646135621
 31
0.0
 11
2.6866725118
 21
3.9657304154
 31
0.0
 11
2.6863410212
 21
3.9664847072
 31
0.0
  0
SPLINE
  5
34A
100
AcDbEntity
  8
0
100
AcDbSpline
 62
6
  6
CONTINUOUS
 70
0
 71
3
 72
10
 73
6
 74
4
 42
0.0000001
 43
0.0000001
 44
0.0000000001
 12
-0.0062929868
 22
0.2385214599
 32
0.0
 13
-0.0074986447
 23
0.238486601
 33
0.0
 40
0.0
 40
0.0
 40
0.0
 40
0.0
 40
0.5227112109
 40
0.7697860865
 40
1.0
 40
1.0
 40
1.0
 40
1.0
 10
2.7035872964
 20
3.5392954582
 30
0.0
 10
2.7024908248
 20
3.5808547386
 30
0.0
 10
2.7008816656
 20
3.6420584115
 30
0.0
 10
2.6986555614
 20
3.7215620944
 30
0.0
 10
2.6975210888
 20
3.7595062632
 30
0.0
 10
2.696945658
 20
3.7778072411
 30
0.0
 11
2.7035872964
 21
3.5392954582
 31
0.0
 11
2.7002573085
 21
3.6639722223
 31
0.0
 11
2.6985987388
 21
3.7229020542
 31
0.0
 11
2.696945658
 21
3.7778072411
 31
0.0
  0
SPLINE
  5
34B
100
AcDbEntity
  8
0
100
AcDbSpline
 62
6
  6
CONTINUOUS
 70
0
 71
3
 72
51
 73
47
 74
45
 42
0.0000001
 43
0.0000001
 44
0.0000000001
 12
0.7871313468
 22
-0.0024574038
 32
0.0
 13
0.1942294225
 23
-0.7627953378
 33
0.0
 40
0.0
 40
0.0
 40
0.0
 40
0.0
 40
0.0001747494
 40
0.0003759207
 40
0.0006213412
 40
0.000920991
 40
0.0017018217
 40
0.0027409437
 40
0.0040464618
 40
0.0056220617
 40
0.0074695463
 40
0.0095897924
 40
0.0119831637
 40
0.0146491815
 40
0.0207926607
 40
0.0280060406
 40
0.0362738827
 40
0.0455802043
 40
0.0559080863
 40
0.0795294562
 40
0.1069188435
 40
0.1378433769
 40
0.1720191654
 40
0.2091424996
 40
0.2488850061
 40
0.2908846171
 40
0.3347718661
 40
0.3801504241
 40
0.426614536
 40
0.4737506303
 40
0.5683449623
 40
0.6605601095
 40
0.7471078375
 40
0.7872789188
 40
0.8249023506
 40
0.8596377927
 40
0.8911762395
 40
0.9192431713
 40
0.9435792502
 40
0.9639814691
 40
0.9726491482
 40
0.9802656464
 40
0.9868180534
 40
0.9922963118
 40
0.9966919154
 40
1.0
 40
1.0
 40
1.0
 40
1.0
 10
2.650627933
 20
3.9329018443
 30
0.0
 10
2.6506737832
 20
3.9329017012
 30
0.0
 10
2.6507729699
 20
3.9328792641
 30
0.0
 10
2.6509108441
 20
3.9327881538
 30
0.0
 10
2.6510453163
 20
3.9326442749
 30
0.0
 10
2.6512405326
 20
3.9323551972
 30
0.0
 10
2.6514727156
 20
3.9318468248
 30
0.0
 10
2.6517351725
 20
3.931069581
 30
0.0
 10
2.6519992596
 20
3.9300747644
 30
0.0
 10
2.6522648776
 20
3.9288626513
 30
0.0
 10
2.6525313514
 20
3.9274326147
 30
0.0
 10
2.6527984605
 20
3.9257850036
 30
0.0
 10
2.6530659971
 20
3.9239202311
 30
0.0
 10
2.6534410405
 20
3.9210047852
 30
0.0
 10
2.6539017721
 20
3.9168257359
 30
0.0
 10
2.6544341484
 20
3.911176771
 30
0.0
 10
2.6549678203
 20
3.9046948645
 30
0.0
 10
2.6555025985
 20
3.8973934541
 30
0.0
 10
2.6562501486
 20
3.8860686956
 30
0.0
 10
2.6571680202
 20
3.8700006759
 30
0.0
 10
2.6582312122
 20
3.8485288125
 30
0.0
 10
2.6592963713
 20
3.8242847994
 30
0.0
 10
2.6603638238
 20
3.7974847181
 30
0.0
 10
2.6614325007
 20
3.7683693632
 30
0.0
 10
2.6625018881
 20
3.7371999542
 30
0.0
 10
2.6635721346
 20
3.7042548882
 30
0.0
 10
2.6646425979
 20
3.6698303101
 30
0.0
 10
2.6657134176
 20
3.6342338104
 30
0.0
 10
2.6667844014
 20
3.5977845145
 30
0.0
 10
2.6682140093
 20
3.5484270329
 30
0.0
 10
2.6699770797
 20
3.4870700928
 30
0.0
 10
2.672088459
 20
3.4153781443
 30
0.0
 10
2.6738846372
 20
3.3579626138
 30
0.0
 10
2.6753460448
 20
3.3148675044
 30
0.0
 10
2.676413608
 20
3.2853613502
 30
0.0
 10
2.6774797916
 20
3.258121742
 30
0.0
 10
2.6785443616
 20
3.233391578
 30
0.0
 10
2.6796054269
 20
3.2113925739
 30
0.0
 10
2.6806634937
 20
3.1923192137
 30
0.0
 10
2.6815814178
 20
3.1783362526
 30
0.0
 10
2.6823333795
 20
3.168739827
 30
0.0
 10
2.6828651998
 20
3.1627714758
 30
0.0
 10
2.6833952452
 20
3.1576436554
 30
0.0
 10
2.6839218405
 20
3.1533654508
 30
0.0
 10
2.6844443756
 20
3.1499463271
 30
0.0
 10
2.6848398333
 20
3.1479619886
 30
0.0
 10
2.685054009
 20
3.1471208581
 30
0.0
 11
2.650627933
 21
3.9329018443
 31
0.0
 11
2.6507625905
 21
3.9328737779
 31
0.0
 11
2.6508972466
 21
3.9327904583
 31
0.0
 11
2.6510319014
 21
3.9326519439
 31
0.0
 11
2.6511665546
 21
3.9324582927
 31
0.0
 11
2.6514358569
 21
3.9319058137
 31
0.0
 11
2.6517051535
 21
3.9311334873
 31
0.0
 11
2.6519744444
 21
3.9301417799
 31
0.0
 11
2.6522437296
 21
3.9289311574
 31
0.0
 11
2.6525130091
 21
3.9275020861
 31
0.0
 11
2.652782283
 21
3.9258550322
 31
0.0
 11
2.6530515511
 21
3.9239904682
 31
0.0
 11
2.6533208135
 21
3.9219092981
 31
0.0
 11
2.6538593213
 21
3.917103627
 31
0.0
 11
2.6543978063
 21
3.9114513142
 31
0.0
 11
2.6549362686
 21
3.9049657192
 31
0.0
 11
2.6554747081
 21
3.8976602015
 31
0.0
 11
2.6560131249
 21
3.8895486116
 31
0.0
 11
2.6570898902
 21
3.8709866051
 31
0.0
 11
2.6581665647
 21
3.8494543563
 31
0.0
 11
2.6592431483
 21
3.8251363872
 31
0.0
 11
2.6603196411
 21
3.7982569693
 31
0.0
 11
2.6613960431
 21
3.769055719
 31
0.0
 11
2.6624723545
 21
3.7377915151
 31
0.0
 11
2.6635485752
 21
3.704749666
 31
0.0
 11
2.6646247052
 21
3.6702212338
 31
0.0
 11
2.6657007447
 21
3.6345183858
 31
0.0
 11
2.6667766937
 21
3.5979606786
 31
0.0
 11
2.6678525522
 21
3.560873802
 31
0.0
 11
2.6700039978
 21
3.4864463642
 31
0.0
 11
2.6721550818
 21
3.4138924581
 31
0.0
 11
2.6743058047
 21
3.3458016545
 31
0.0
 11
2.6753810307
 21
3.3141998696
 31
0.0
 11
2.6764561666
 21
3.2846046651
 31
0.0
 11
2.6775312122
 21
3.2572843197
 31
0.0
 11
2.6786061677
 21
3.2324825831
 31
0.0
 11
2.6796810331
 21
3.2104162767
 31
0.0
 11
2.6807558084
 21
3.1912906679
 31
0.0
 11
2.6818304936
 21
3.1752673627
 31
0.0
 11
2.6823678024
 21
3.1684659181
 31
0.0
 11
2.6829050887
 21
3.1624948285
 31
0.0
 11
2.6834423526
 21
3.1573652577
 31
0.0
 11
2.6839795939
 21
3.1530867258
 31
0.0
 11
2.6845168127
 21
3.1496687526
 31
0.0
 11
2.685054009
 21
3.1471208581
 31
0.0
  0
LINE
  5
34C
100
AcDbEntity
  8
0
100
AcDbLine
 62
6
  6
CONTINUOUS
 10
2.685054009
 20
3.1471208581
 11
2.6857761433
 21
3.1450794776
  0
SPLINE
  5
34D
100
AcDbEntity
  8
0
100
AcDbSpline
 62
6
  6
CONTINUOUS
 70
0
 71
3
 72
30
 73
26
 74
24
 42
0.0000001
 43
0.0000001
 44
0.0000000001
 12
-0.0113441943
 22
0.4298265826
 32
0.0
 13
-0.2148344895
 23
0.3724590233
 33
0.0
 40
0.0
 40
0.0
 40
0.0
 40
0.0
 40
0.1894890477
 40
0.2821259196
 40
0.3721546989
 40
0.4587978368
 40
0.5412903057
 40
0.6188845786
 40
0.6908565835
 40
0.7565715339
 40
0.8154246356
 40
0.8668934314
 40
0.8897127343
 40
0.9105117224
 40
0.9292443274
 40
0.9458753474
 40
0.9603705283
 40
0.9726965542
 40
0.9828233295
 40
0.987057685
 40
0.9907393458
 40
0.9938694185
 40
0.9964506741
 40
0.9984893367
 40
1.0
 40
1.0
 40
1.0
 40
1.0
 10
2.7750783484
 20
3.5392954582
 30
0.0
 10
2.7743618149
 20
3.5664446015
 30
0.0
 10
2.773295147
 20
3.6068663487
 30
0.0
 10
2.7718488027
 20
3.6601859673
 30
0.0
 10
2.7707726609
 20
3.6987697631
 30
0.0
 10
2.7696971336
 20
3.7358990429
 30
0.0
 10
2.7686220561
 20
3.7712453762
 30
0.0
 10
2.7675480155
 20
3.8044879736
 30
0.0
 10
2.7664747789
 20
3.835324614
 30
0.0
 10
2.765403612
 20
3.8634734968
 30
0.0
 10
2.7643343428
 20
3.8886814724
 30
0.0
 10
2.7634133545
 20
3.9077419451
 30
0.0
 10
2.7626655222
 20
3.9213498582
 30
0.0
 10
2.7621278455
 20
3.9302701873
 30
0.0
 10
2.7615908311
 20
3.9383018588
 30
0.0
 10
2.7610548352
 20
3.9454278591
 30
0.0
 10
2.7605205184
 20
3.9516328906
 30
0.0
 10
2.7599882868
 20
3.9569018509
 30
0.0
 10
2.7595246959
 20
3.9606991697
 30
0.0
 10
2.7591440857
 20
3.9632571391
 30
0.0
 10
2.7588765918
 20
3.9648177662
 30
0.0
 10
2.7586101093
 20
3.9661375478
 30
0.0
 10
2.7583452466
 20
3.9672170237
 30
0.0
 10
2.7580825518
 20
3.9680556646
 30
0.0
 10
2.7578816009
 20
3.9685258846
 30
0.0
 10
2.7577734201
 20
3.9687134379
 30
0.0
 11
2.7750783484
 21
3.5392954582
 31
0.0
 11
2.7729155285
 21
3.6207425381
 31
0.0
 11
2.7718335207
 21
3.6605594948
 31
0.0
 11
2.7707520652
 21
3.699254623
 31
0.0
 11
2.7696707064
 21
3.7364934179
 31
0.0
 11
2.7685891931
 21
3.7719467288
 31
0.0
 11
2.7675076241
 21
3.8052928884
 31
0.0
 11
2.7664260978
 21
3.836220237
 31
0.0
 11
2.7653445816
 21
3.8644553999
 31
0.0
 11
2.7642630145
 21
3.8897377124
 31
0.0
 11
2.7631813943
 21
3.9118416247
 31
0.0
 11
2.7626405756
 21
3.921638467
 31
0.0
 11
2.7620997575
 21
3.9305651705
 31
0.0
 11
2.7615589428
 21
3.9386015693
 31
0.0
 11
2.7610181331
 21
3.9457320335
 31
0.0
 11
2.7604773297
 21
3.95194111
 31
0.0
 11
2.759936534
 21
3.9572133452
 31
0.0
 11
2.7593957473
 21
3.9615339057
 31
0.0
 11
2.7591253569
 21
3.963334388
 31
0.0
 11
2.758854968
 21
3.964894152
 31
0.0
 11
2.7585845803
 21
3.9662125682
 31
0.0
 11
2.7583141933
 21
3.9672890074
 31
0.0
 11
2.7580438067
 21
3.9681228404
 31
0.0
 11
2.7577734201
 21
3.9687134379
 31
0.0
  0
SPLINE
  5
34E
100
AcDbEntity
  8
0
100
AcDbSpline
 62
6
  6
CONTINUOUS
 70
0
 71
3
 72
49
 73
45
 74
43
 42
0.0000001
 43
0.0000001
 44
0.0000000001
 12
0.778725528
 22
-0.001255601
 32
0.0
 13
0.1238312976
 23
-0.768817816
 33
0.0
 40
0.0
 40
0.0
 40
0.0
 40
0.0
 40
0.0001724367
 40
0.0003694532
 40
0.000608064
 40
0.0008980407
 40
0.0016509867
 40
0.0026512697
 40
0.0039075435
 40
0.0054240142
 40
0.0072027205
 40
0.0092438034
 40
0.0141102531
 40
0.020015705
 40
0.0269500229
 40
0.0349020437
 40
0.0438585623
 40
0.0537988318
 40
0.0765379029
 40
0.1029319408
 40
0.1327591129
 40
0.1657568971
 40
0.2016527782
 40
0.2401333293
 40
0.2808705105
 40
0.3235194425
 40
0.3677102146
 40
0.4130687791
 40
0.4592061701
 40
0.552234633
 40
0.6436239449
 40
0.7302597328
 40
0.7708607274
 40
0.8091885146
 40
0.8449095784
 40
0.8777236278
 40
0.9073538454
 40
0.9335403043
 40
0.9560727579
 40
0.9747537382
 40
0.9826001421
 40
0.9894317975
 40
0.995235714
 40
1.0
 40
1.0
 40
1.0
 40
1.0
 10
2.5791984125
 20
3.9306435184
 30
0.0
 10
2.5792431728
 20
3.9306434462
 30
0.0
 10
2.5793396525
 20
3.9306225512
 30
0.0
 10
2.5794745623
 20
3.9305366113
 30
0.0
 10
2.5796062166
 20
3.9304003565
 30
0.0
 10
2.5797970074
 20
3.9301267361
 30
0.0
 10
2.5800242375
 20
3.9296444907
 30
0.0
 10
2.5802809633
 20
3.9289063456
 30
0.0
 10
2.5805392499
 20
3.9279609212
 30
0.0
 10
2.5807989563
 20
3.9268081722
 30
0.0
 10
2.5810594694
 20
3.925447521
 30
0.0
 10
2.5814296901
 20
3.9232232351
 30
0.0
 10
2.58188099
 20
3.9199274598
 30
0.0
 10
2.5823995631
 20
3.9153605016
 30
0.0
 10
2.5829199782
 20
3.9099884098
 30
0.0
 10
2.5834418806
 20
3.9038213269
 30
0.0
 10
2.5839645404
 20
3.8968715772
 30
0.0
 10
2.5846955436
 20
3.8860886037
 30
0.0
 10
2.5855935029
 20
3.8707806292
 30
0.0
 10
2.5866328197
 20
3.850310719
 30
0.0
 10
2.5876743799
 20
3.8271749857
 30
0.0
 10
2.5887182956
 20
3.8015706911
 30
0.0
 10
2.5897630433
 20
3.7737185232
 30
0.0
 10
2.5908088723
 20
3.7438561326
 30
0.0
 10
2.5918553159
 20
3.7122398287
 30
0.0
 10
2.592902031
 20
3.6791405307
 30
0.0
 10
2.5939491811
 20
3.6448410732
 30
0.0
 10
2.5949963957
 20
3.6096356906
 30
0.0
 10
2.5963965992
 20
3.5617581394
 30
0.0
 10
2.5981244469
 20
3.5019366108
 30
0.0
 10
2.6001910281
 20
3.4316080962
 30
0.0
 10
2.6019449592
 20
3.3748851684
 30
0.0
 10
2.6033698803
 20
3.3319322686
 30
0.0
 10
2.6044143768
 20
3.3021902868
 30
0.0
 10
2.6054579688
 20
3.2744708955
 30
0.0
 10
2.6065001318
 20
3.2490108388
 30
0.0
 10
2.6075399826
 20
3.2260278996
 30
0.0
 10
2.6085771639
 20
3.2057166693
 30
0.0
 10
2.6096098642
 20
3.1882516304
 30
0.0
 10
2.6105077337
 20
3.1755480006
 30
0.0
 10
2.6112455053
 20
3.1669201454
 30
0.0
 10
2.6117645858
 20
3.1616287138
 30
0.0
 10
2.6122814362
 20
3.1571416049
 30
0.0
 10
2.6126605304
 20
3.1544241176
 30
0.0
 10
2.6128571863
 20
3.1532031616
 30
0.0
 11
2.5791984125
 21
3.9306435184
 31
0.0
 11
2.5793300729
 21
3.9306171183
 31
0.0
 11
2.5794617318
 21
3.9305383514
 31
0.0
 11
2.5795933892
 21
3.9304072307
 31
0.0
 11
2.5797250452
 21
3.9302237695
 31
0.0
 11
2.579988353
 21
3.9296998779
 31
0.0
 11
2.5802516551
 21
3.9289667814
 31
0.0
 11
2.5805149514
 21
3.9280245853
 31
0.0
 11
2.580778242
 21
3.9268733943
 31
0.0
 11
2.5810415268
 21
3.9255135213
 31
0.0
 11
2.581304806
 21
3.9239460326
 31
0.0
 11
2.5818313471
 21
3.9201931568
 31
0.0
 11
2.5823578654
 21
3.9156246652
 31
0.0
 11
2.5828843608
 21
3.9102504558
 31
0.0
 11
2.5834108333
 21
3.9040804267
 31
0.0
 11
2.583937283
 21
3.8971256446
 31
0.0
 11
2.5844637098
 21
3.889402814
 31
0.0
 11
2.585516495
 21
3.8717266198
 31
0.0
 11
2.5865691889
 21
3.8511998574
 31
0.0
 11
2.5876217917
 21
3.8279965099
 31
0.0
 11
2.5886743034
 21
3.802321824
 31
0.0
 11
2.5897267243
 21
3.7743885673
 31
0.0
 11
2.5907790542
 21
3.7444412242
 31
0.0
 11
2.5918312935
 21
3.7127355559
 31
0.0
 11
2.5928834422
 21
3.6795403709
 31
0.0
 11
2.5939355003
 21
3.6451439293
 31
0.0
 11
2.5949874681
 21
3.6098376797
 31
0.0
 11
2.5960393455
 21
3.5739246701
 31
0.0
 11
2.59814283
 21
3.501511482
 31
0.0
 11
2.6002459545
 21
3.4303752817
 31
0.0
 11
2.6023487199
 21
3.3629424718
 31
0.0
 11
2.6033999681
 21
3.3313428812
 31
0.0
 11
2.6044511269
 21
3.301514532
 31
0.0
 11
2.6055021962
 21
3.273717456
 31
0.0
 11
2.6065531763
 21
3.248185907
 31
0.0
 11
2.6076040671
 21
3.2251360138
 31
0.0
 11
2.6086548688
 21
3.2047710151
 31
0.0
 11
2.6097055815
 21
3.1872558827
 31
0.0
 11
2.6107562053
 21
3.1727464956
 31
0.0
 11
2.6112814838
 21
3.1666589129
 31
0.0
 11
2.6118067402
 21
3.161364915
 31
0.0
 11
2.6123319743
 21
3.1568758739
 31
0.0
 11
2.6128571863
 21
3.1532031616
 31
0.0
  0
SPLINE
  5
34F
100
AcDbEntity
  8
0
100
AcDbSpline
 62
6
  6
CONTINUOUS
 70
0
 71
3
 72
12
 73
8
 74
6
 42
0.0000001
 43
0.0000001
 44
0.0000000001
 12
0.0009714079
 22
-0.0060310737
 32
0.0
 13
0.0030557827
 23
-0.0052895818
 33
0.0
 40
0.0
 40
0.0
 40
0.0
 40
0.0
 40
0.3490123012
 40
0.6313688192
 40
0.8477371414
 40
0.9316854284
 40
1.0
 40
1.0
 40
1.0
 40
1.0
 10
2.6128571863
 20
3.1532031616
 30
0.0
 10
2.6129701974
 20
3.1525015219
 30
0.0
 10
2.6131901153
 20
3.1512344491
 30
0.0
 10
2.6135529637
 20
3.1495465722
 30
0.0
 10
2.6138716621
 20
3.1484016485
 30
0.0
 10
2.6141386303
 20
3.1476996262
 30
0.0
 10
2.6142736272
 20
3.1474196323
 30
0.0
 10
2.614343212
 20
3.1472991805
 30
0.0
 11
2.6128571863
 21
3.1532031616
 31
0.0
 11
2.6132287094
 21
3.1511037336
 31
0.0
 11
2.6136002213
 21
3.1494193575
 31
0.0
 11
2.6139717222
 21
3.1481508882
 31
0.0
 11
2.6141574685
 21
3.1476728857
 31
0.0
 11
2.614343212
 21
3.1472991805
 31
0.0
  0
SPLINE
  5
350
100
AcDbEntity
  8
0
100
AcDbSpline
 62
6
  6
CONTINUOUS
 70
0
 71
3
 72
17
 73
13
 74
11
 42
0.0000001
 43
0.0000001
 44
0.0000000001
 12
-0.0022177324
 22
0.0322106621
 32
0.0
 13
-0.0161550906
 23
0.0279545728
 33
0.0
 40
0.0
 40
0.0
 40
0.0
 40
0.0
 40
0.2077108332
 40
0.3923560126
 40
0.5535882581
 40
0.6910717946
 40
0.8044925267
 40
0.8936327061
 40
0.9291243837
 40
0.958613449
 40
0.9821818198
 40
1.0
 40
1.0
 40
1.0
 40
1.0
 10
2.975945658
 20
3.943417786
 30
0.0
 10
2.975792109
 20
3.9456479538
 30
0.0
 10
2.9754878513
 20
3.9498596827
 30
0.0
 10
2.97500533
 20
3.9557981055
 30
0.0
 10
2.9745237225
 20
3.9609779682
 30
0.0
 10
2.9740442581
 20
3.9653878419
 30
0.0
 10
2.9735673882
 20
3.9690165226
 30
0.0
 10
2.973149753
 20
3.9715454301
 30
0.0
 10
2.9728024849
 20
3.9731676269
 30
0.0
 10
2.9725634016
 20
3.974090744
 30
0.0
 10
2.9723260912
 20
3.9748159355
 30
0.0
 10
2.9721457731
 20
3.9752254426
 30
0.0
 10
2.9720498217
 20
3.9753914758
 30
0.0
 11
2.975945658
 21
3.943417786
 31
0.0
 11
2.9754593908
 21
3.9501064762
 31
0.0
 11
2.9749726261
 21
3.9560481947
 31
0.0
 11
2.9744855275
 21
3.9612310479
 31
0.0
 11
2.9739982585
 21
3.9656431423
 31
0.0
 11
2.9735109824
 21
3.9692725843
 31
0.0
 11
2.9730238295
 21
3.9721091176
 31
0.0
 11
2.9727802987
 21
3.9732288579
 31
0.0
 11
2.9725367908
 21
3.9741493031
 31
0.0
 11
2.9722933004
 21
3.9748702451
 31
0.0
 11
2.9720498217
 21
3.9753914758
 31
0.0
  0
SPLINE
  5
351
100
AcDbEntity
  8
0
100
AcDbSpline
 62
6
  6
CONTINUOUS
 70
0
 71
3
 72
30
 73
26
 74
24
 42
0.0000001
 43
0.0000001
 44
0.0000000001
 12
-0.0113569183
 22
0.4320509039
 32
0.0
 13
-0.2159740981
 23
0.3743690053
 33
0.0
 40
0.0
 40
0.0
 40
0.0
 40
0.0
 40
0.1895009765
 40
0.2821424135
 40
0.3721774447
 40
0.4588284264
 40
0.5413294885
 40
0.6189307673
 40
0.6909056759
 40
0.7566200862
 40
0.8154710558
 40
0.8669360048
 40
0.8897527897
 40
0.9105488875
 40
0.9292781582
 40
0.9459054072
 40
0.9603964005
 40
0.9727178388
 40
0.9828397607
 40
0.9870716715
 40
0.9907508279
 40
0.9938782928
 40
0.9964567926
 40
0.998492507
 40
1.0
 40
1.0
 40
1.0
 40
1.0
 10
2.8465332222
 20
3.5392954582
 30
0.0
 10
2.8458158398
 20
3.5665868143
 30
0.0
 10
2.8447478238
 20
3.6072201142
 30
0.0
 10
2.8432994487
 20
3.6608189334
 30
0.0
 10
2.842221688
 20
3.6996050883
 30
0.0
 10
2.8411444061
 20
3.736929785
 30
0.0
 10
2.840067456
 20
3.7724624243
 30
0.0
 10
2.8389914541
 20
3.8058797389
 30
0.0
 10
2.8379161676
 20
3.8368773421
 30
0.0
 10
2.8368428594
 20
3.8651719762
 30
0.0
 10
2.8357713715
 20
3.8905095302
 30
0.0
 10
2.8348483651
 20
3.9096674919
 30
0.0
 10
2.8340988249
 20
3.9233445697
 30
0.0
 10
2.8335598994
 20
3.932309866
 30
0.0
 10
2.8330216085
 20
3.9403817349
 30
0.0
 10
2.8324843134
 20
3.9475430705
 30
0.0
 10
2.8319486802
 20
3.9537785048
 30
0.0
 10
2.8314151169
 20
3.9590728859
 30
0.0
 10
2.8309503381
 20
3.9628882656
 30
0.0
 10
2.8305687391
 20
3.9654581823
 30
0.0
 10
2.830300557
 20
3.9670258955
 30
0.0
 10
2.830033387
 20
3.9683514847
 30
0.0
 10
2.8297678442
 20
3.9694354812
 30
0.0
 10
2.8295044787
 20
3.97027733
 30
0.0
 10
2.8293029685
 20
3.9707492371
 30
0.0
 10
2.829194442
 20
3.9709373567
 30
0.0
 11
2.8465332222
 21
3.5392954582
 31
0.0
 11
2.8443676509
 21
3.6211691725
 31
0.0
 11
2.8432841353
 21
3.6611941515
 31
0.0
 11
2.8422010479
 21
3.7000922289
 31
0.0
 11
2.8411179205
 21
3.7375271294
 31
0.0
 11
2.8400345111
 21
3.7731676371
 31
0.0
 11
2.8389509474
 21
3.8066894128
 31
0.0
 11
2.8378673503
 21
3.8377780999
 31
0.0
 11
2.8367836782
 21
3.8661591961
 31
0.0
 11
2.8356998515
 21
3.8915714916
 31
0.0
 11
2.8346158578
 21
3.9137882206
 31
0.0
 11
2.8340738085
 21
3.9236347297
 31
0.0
 11
2.83353173
 21
3.9326064446
 31
0.0
 11
2.8329896262
 21
3.9406830655
 31
0.0
 11
2.8324475011
 21
3.9478488871
 31
0.0
 11
2.8319053584
 21
3.9540883877
 31
0.0
 11
2.831363202
 21
3.9593860455
 31
0.0
 11
2.8308210353
 21
3.9637270155
 31
0.0
 11
2.8305499476
 21
3.965535847
 31
0.0
 11
2.8302788562
 21
3.9671027002
 31
0.0
 11
2.8300077606
 21
3.9684269264
 31
0.0
 11
2.82973666
 21
3.969507877
 31
0.0
 11
2.8294655541
 21
3.9703449033
 31
0.0
 11
2.829194442
 21
3.9709373567
 31
0.0
  0
SPLINE
  5
352
100
AcDbEntity
  8
0
100
AcDbSpline
 62
6
  6
CONTINUOUS
 70
0
 71
3
 72
30
 73
26
 74
24
 42
0.0000001
 43
0.0000001
 44
0.0000000001
 12
-0.0113506794
 22
0.4342764096
 32
0.0
 13
-0.2170829434
 23
0.3762975332
 33
0.0
 40
0.0
 40
0.0
 40
0.0
 40
0.0
 40
0.1895377945
 40
0.2822030079
 40
0.372261198
 40
0.4589304995
 40
0.5414426028
 40
0.6190514394
 40
0.6910297648
 40
0.7567415488
 40
0.8155869236
 40
0.8670396882
 40
0.8898493829
 40
0.9106384226
 40
0.9293592491
 40
0.9459767145
 40
0.9604570172
 40
0.972767282
 40
0.9828778491
 40
0.9871039438
 40
0.9907771351
 40
0.9938984402
 40
0.9964705347
 40
0.9984995447
 40
1.0
 40
1.0
 40
1.0
 40
1.0
 10
2.9179641388
 20
3.5392954582
 30
0.0
 10
2.9172470113
 20
3.5667327225
 30
0.0
 10
2.9161793699
 20
3.6075840975
 30
0.0
 10
2.9147314952
 20
3.6614711423
 30
0.0
 10
2.9136540827
 20
3.7004665498
 30
0.0
 10
2.9125772124
 20
3.7379911403
 30
0.0
 10
2.9115006771
 20
3.7737121982
 30
0.0
 10
2.9104251521
 20
3.8073048977
 30
0.0
 10
2.9093503913
 20
3.8384634675
 30
0.0
 10
2.9082775842
 20
3.866903268
 30
0.0
 10
2.9072067333
 20
3.8923685379
 30
0.0
 10
2.9062842
 20
3.9116217514
 30
0.0
 10
2.9055350766
 20
3.9253656406
 30
0.0
 10
2.904996512
 20
3.9343739921
 30
0.0
 10
2.9044585724
 20
3.9424839451
 30
0.0
 10
2.9039216318
 20
3.949678174
 30
0.0
 10
2.9033863579
 20
3.9559413685
 30
0.0
 10
2.9028531521
 20
3.9612584758
 30
0.0
 10
2.9023886765
 20
3.9650896822
 30
0.0
 10
2.9020072961
 20
3.9676697617
 30
0.0
 10
2.9017392955
 20
3.9692431746
 30
0.0
 10
2.9014723115
 20
3.9705731607
 30
0.0
 10
2.9012069707
 20
3.9716602495
 30
0.0
 10
2.9009438239
 20
3.9725038553
 30
0.0
 10
2.9007423929
 20
3.9729765188
 30
0.0
 10
2.9006338184
 20
3.9731647246
 30
0.0
 11
2.9179641388
 21
3.5392954582
 31
0.0
 11
2.9157993627
 21
3.6216069
 31
0.0
 11
2.9147161858
 21
3.6618483841
 31
0.0
 11
2.9136334367
 21
3.7009569027
 31
0.0
 11
2.9125507001
 21
3.7385926185
 31
0.0
 11
2.9114677335
 21
3.7744215527
 31
0.0
 11
2.9103846442
 21
3.8081193485
 31
0.0
 11
2.9093015505
 21
3.8393697487
 31
0.0
 11
2.9082184209
 21
3.8678960166
 31
0.0
 11
2.907135175
 21
3.893436941
 31
0.0
 11
2.9060517979
 21
3.9157630238
 31
0.0
 11
2.905510073
 21
3.9256573001
 31
0.0
 11
2.9049683312
 21
3.93467231
 31
0.0
 11
2.9044265752
 21
3.9427870355
 31
0.0
 11
2.9038848047
 21
3.9499857154
 31
0.0
 11
2.9033430191
 21
3.9562529424
 31
0.0
 11
2.9028012177
 21
3.9615733096
 31
0.0
 11
2.9022593998
 21
3.9659320433
 31
0.0
 11
2.9019884839
 21
3.9677478646
 31
0.0
 11
2.9017175628
 21
3.9693204231
 31
0.0
 11
2.9014466361
 21
3.9706490537
 31
0.0
 11
2.9011757035
 21
3.9717330909
 31
0.0
 11
2.9009047644
 21
3.9725718697
 31
0.0
 11
2.9006338184
 21
3.9731647246
 31
0.0
  0
SPLINE
  5
353
100
AcDbEntity
  8
0
100
AcDbSpline
 62
6
  6
CONTINUOUS
 70
0
 71
3
 72
27
 73
23
 74
21
 42
0.0000001
 43
0.0000001
 44
0.0000000001
 12
-0.1003921741
 22
0.1005758237
 32
0.0
 13
-0.0033943189
 23
0.1420653495
 33
0.0
 40
0.0
 40
0.0
 40
0.0
 40
0.0
 40
0.0011459401
 40
0.0027199669
 40
0.0072547267
 40
0.0137026997
 40
0.0220876345
 40
0.0324167856
 40
0.044691321
 40
0.0589096565
 40
0.0750687846
 40
0.1131841827
 40
0.1589337445
 40
0.2121859307
 40
0.2728072978
 40
0.340661062
 40
0.4155645322
 40
0.4972935761
 40
0.5856223159
 40
0.680324524
 40
0.781151396
 40
1.0
 40
1.0
 40
1.0
 40
1.0
 10
2.5140533926
 20
3.1290639842
 30
0.0
 10
2.5140150448
 20
3.1291024021
 30
0.0
 10
2.5139424583
 20
3.1292110052
 30
0.0
 10
2.5138007857
 20
3.1295242766
 30
0.0
 10
2.5136378979
 20
3.1300990131
 30
0.0
 10
2.513452146
 20
3.1309970322
 30
0.0
 10
2.513264884
 20
3.1321747272
 30
0.0
 10
2.5130755257
 20
3.1336303481
 30
0.0
 10
2.5128853605
 20
3.1353642903
 30
0.0
 10
2.5126944384
 20
3.1373756538
 30
0.0
 10
2.5124241852
 20
3.1406088501
 30
0.0
 10
2.5120938039
 20
3.1453355072
 30
0.0
 10
2.5117131252
 20
3.1518194669
 30
0.0
 10
2.5113308077
 20
3.1593709895
 30
0.0
 10
2.5109470894
 20
3.167970644
 30
0.0
 10
2.5105625049
 20
3.1775967584
 30
0.0
 10
2.5101771483
 20
3.1882234
 30
0.0
 10
2.5097910423
 20
3.1998204675
 30
0.0
 10
2.5094042976
 20
3.2123558316
 30
0.0
 10
2.5090170141
 20
3.2257962173
 30
0.0
 10
2.5084854134
 20
3.2454175279
 30
0.0
 10
2.5081087805
 20
3.2605554546
 30
0.0
 10
2.5078611665
 20
3.2709190557
 30
0.0
 11
2.5140533926
 21
3.1290639842
 31
0.0
 11
2.5139573384
 21
3.1291954834
 31
0.0
 11
2.5138612629
 21
3.1293974773
 31
0.0
 11
2.5136690475
 21
3.1300125589
 31
0.0
 11
2.5134767455
 21
3.1309084475
 31
0.0
 11
2.5132843563
 21
3.1320843619
 31
0.0
 11
2.5130918789
 21
3.1335395206
 31
0.0
 11
2.5128993127
 21
3.1352731423
 31
0.0
 11
2.5127066568
 21
3.1372844457
 31
0.0
 11
2.5125139104
 21
3.1395726494
 31
0.0
 11
2.5121281439
 21
3.1449753172
 31
0.0
 11
2.5117420133
 21
3.1514651227
 31
0.0
 11
2.5113555208
 21
3.1590226961
 31
0.0
 11
2.5109686687
 21
3.1676286592
 31
0.0
 11
2.5105814592
 21
3.1772633012
 31
0.0
 11
2.5101938951
 21
3.1879004677
 31
0.0
 11
2.5098059796
 21
3.1995081665
 31
0.0
 11
2.5094177159
 21
3.2120541945
 31
0.0
 11
2.5090291071
 21
3.2255063245
 31
0.0
 11
2.5086401523
 21
3.2398291369
 31
0.0
 11
2.5078611665
 21
3.2709190557
 31
0.0
  0
SPLINE
  5
354
100
AcDbEntity
  8
0
100
AcDbSpline
 62
6
  6
CONTINUOUS
 70
0
 71
3
 72
10
 73
6
 74
4
 42
0.0000001
 43
0.0000001
 44
0.0000000001
 12
-0.0064116649
 22
0.2683529262
 32
0.0
 13
-0.0049325894
 23
0.2683841874
 33
0.0
 40
0.0
 40
0.0
 40
0.0
 40
0.0
 40
0.2211461705
 40
0.4669305403
 40
1.0
 40
1.0
 40
1.0
 40
1.0
 10
2.5078611665
 20
3.2709190557
 30
0.0
 10
2.5073885281
 20
3.2907007964
 30
0.0
 10
2.5064683214
 20
3.3324700413
 30
0.0
 10
2.5046816647
 20
3.4219287286
 30
0.0
 10
2.5034125655
 20
3.4916063203
 30
0.0
 10
2.5025360946
 20
3.5392954582
 30
0.0
 11
2.5078611665
 21
3.2709190557
 31
0.0
 11
2.5065361597
 21
3.3302664248
 31
0.0
 11
2.5052071383
 21
3.3962288157
 31
0.0
 11
2.5025360946
 21
3.5392954582
 31
0.0
  0
SPLINE
  5
355
100
AcDbEntity
  8
0
100
AcDbSpline
 62
6
  6
CONTINUOUS
 70
0
 71
3
 72
53
 73
49
 74
47
 42
0.0000001
 43
0.0000001
 44
0.0000000001
 12
0.7788813585
 22
0.002426491
 32
0.0
 13
0.2213379328
 23
-0.7467741145
 33
0.0
 40
0.0
 40
0.0
 40
0.0
 40
0.0
 40
0.0001771842
 40
0.0003804701
 40
0.0006280172
 40
0.0009301327
 40
0.0017178606
 40
0.0027674668
 40
0.0040869101
 40
0.0056793249
 40
0.007545897
 40
0.009686858
 40
0.0121019207
 40
0.0147904922
 40
0.0209848227
 40
0.0282620251
 40
0.036606829
 40
0.0459981711
 40
0.0564144973
 40
0.0802344234
 40
0.1078598831
 40
0.1390323838
 40
0.1734810004
 40
0.2108880928
 40
0.2509169293
 40
0.2932094598
 40
0.3373778902
 40
0.3830282776
 40
0.4297456292
 40
0.4771077109
 40
0.5720574429
 40
0.6644549409
 40
0.7086497121
 40
0.7509727152
 40
0.7910452634
 40
0.8284995583
 40
0.8630070459
 40
0.8942509235
 40
0.9219526003
 40
0.9458691438
 40
0.965777459
 40
0.9741772289
 40
0.9815163052
 40
0.9877770188
 40
0.9929458121
 40
0.9970190235
 40
0.9986454877
 40
1.0
 40
1.0
 40
1.0
 40
1.0
 10
2.507767054
 20
3.9284670085
 30
0.0
 10
2.5078130558
 20
3.9284671518
 30
0.0
 10
2.5079125509
 20
3.9284455381
 30
0.0
 10
2.5080512391
 20
3.9283555779
 30
0.0
 10
2.5081864542
 20
3.9282127941
 30
0.0
 10
2.5083827299
 20
3.9279252147
 30
0.0
 10
2.5086161363
 20
3.9274180755
 30
0.0
 10
2.5088797637
 20
3.9266417189
 30
0.0
 10
2.5091450808
 20
3.9256473004
 30
0.0
 10
2.5094119531
 20
3.9244355311
 30
0.0
 10
2.5096797046
 20
3.9230062863
 30
0.0
 10
2.5099481011
 20
3.9213604324
 30
0.0
 10
2.5102169633
 20
3.9194987591
 30
0.0
 10
2.5105938976
 20
3.9165897262
 30
0.0
 10
2.5110571008
 20
3.9124194321
 30
0.0
 10
2.5115920266
 20
3.9067804618
 30
0.0
 10
2.5121281447
 20
3.9003083293
 30
0.0
 10
2.5126654378
 20
3.8930188484
 30
0.0
 10
2.5134168006
 20
3.8817167578
 30
0.0
 10
2.5143394091
 20
3.8656819366
 30
0.0
 10
2.5154072384
 20
3.8442584641
 30
0.0
 10
2.5164781553
 20
3.8200726051
 30
0.0
 10
2.5175506062
 20
3.7933450115
 30
0.0
 10
2.5186245509
 20
3.7643164311
 30
0.0
 10
2.5196994031
 20
3.7332500916
 30
0.0
 10
2.5207747111
 20
3.7004273461
 30
0.0
 10
2.5218506429
 20
3.6661443623
 30
0.0
 10
2.5229266963
 20
3.6307120294
 30
0.0
 10
2.5240029598
 20
3.5944501693
 30
0.0
 10
2.5254391879
 20
3.5453938524
 30
0.0
 10
2.5272101702
 20
3.4844823971
 30
0.0
 10
2.5290032292
 20
3.4243942464
 30
0.0
 10
2.5304583418
 20
3.3779655499
 30
0.0
 10
2.5315330122
 20
3.345116671
 30
0.0
 10
2.5326066509
 20
3.3140187552
 30
0.0
 10
2.5336795857
 20
3.2849512243
 30
0.0
 10
2.5347507378
 20
3.258177467
 30
0.0
 10
2.5358200634
 20
3.2339378982
 30
0.0
 10
2.5368863778
 20
3.2124508223
 30
0.0
 10
2.5379481587
 20
3.1939106971
 30
0.0
 10
2.5388713174
 20
3.1803826265
 30
0.0
 10
2.539628598
 20
3.1711584778
 30
0.0
 10
2.5401625086
 20
3.1654716373
 30
0.0
 10
2.5406937899
 20
3.1606274709
 30
0.0
 10
2.5412227056
 20
3.156637176
 30
0.0
 10
2.5416855258
 20
3.1538523503
 30
0.0
 10
2.5420701306
 20
3.1520614277
 30
0.0
 10
2.5422644176
 20
3.1513118056
 30
0.0
 10
2.5423643526
 20
3.1509746341
 30
0.0
 11
2.507767054
 21
3.9284670085
 31
0.0
 11
2.5079023692
 21
3.9284398886
 31
0.0
 11
2.5080376831
 21
3.928357666
 31
0.0
 11
2.5081729957
 21
3.9282203107
 31
0.0
 11
2.508308307
 21
3.9280277926
 31
0.0
 11
2.5085789256
 21
3.9274771488
 31
0.0
 11
2.508849539
 21
3.926705714
 31
0.0
 11
2.5091201472
 21
3.9257142868
 31
0.0
 11
2.5093907503
 21
3.9245038578
 31
0.0
 11
2.5096613481
 21
3.9230754171
 31
0.0
 11
2.5099319408
 21
3.9214299552
 31
0.0
 11
2.5102025283
 21
3.9195684623
 31
0.0
 11
2.5104731105
 21
3.9174919288
 31
0.0
 11
2.5110142594
 21
3.9126977013
 31
0.0
 11
2.5115553874
 21
3.907055486
 31
0.0
 11
2.5120964946
 21
3.9005784055
 31
0.0
 11
2.5126375809
 21
3.8932836687
 31
0.0
 11
2.5131786464
 21
3.885188609
 31
0.0
 11
2.5142607152
 21
3.8666672043
 31
0.0
 11
2.5153427011
 21
3.8451773654
 31
0.0
 11
2.5164246038
 21
3.8209216845
 31
0.0
 11
2.5175064233
 21
3.7941119868
 31
0.0
 11
2.518588159
 21
3.7649962464
 31
0.0
 11
2.5196698108
 21
3.733837149
 31
0.0
 11
2.520751378
 21
3.7009138862
 31
0.0
 11
2.5218328604
 21
3.6665287553
 31
0.0
 11
2.5229142574
 21
3.6309887954
 31
0.0
 11
2.5239955686
 21
3.5946174145
 31
0.0
 11
2.5250767935
 21
3.5577436416
 31
0.0
 11
2.527238983
 21
3.4838203207
 31
0.0
 11
2.5294008227
 21
3.4118857601
 31
0.0
 11
2.5304816104
 21
3.3774800809
 31
0.0
 11
2.5315623095
 21
3.3445330421
 31
0.0
 11
2.5326429196
 21
3.3133398417
 31
0.0
 11
2.5337234405
 21
3.2841872656
 31
0.0
 11
2.5348038716
 21
3.257331621
 31
0.0
 11
2.5358842128
 21
3.2330202212
 31
0.0
 11
2.5369644637
 21
3.2114708558
 31
0.0
 11
2.5380446239
 21
3.1928739585
 31
0.0
 11
2.5391246932
 21
3.1774053287
 31
0.0
 11
2.5396646937
 21
3.1708851962
 31
0.0
 11
2.5402046713
 21
3.1651944598
 31
0.0
 11
2.540744626
 21
3.1603480694
 31
0.0
 11
2.5412845578
 21
3.1563585438
 31
0.0
 11
2.5418244667
 21
3.1532322585
 31
0.0
 11
2.5420944125
 21
3.1519945249
 31
0.0
 11
2.5423643526
 21
3.1509746341
 31
0.0
  0
LINE
  5
356
100
AcDbEntity
  8
0
100
AcDbLine
 62
6
  6
CONTINUOUS
 10
2.5423643526
 20
3.1509746341
 11
2.5429097086
 21
3.1495815239
  0
SPLINE
  5
357
100
AcDbEntity
  8
0
100
AcDbSpline
 62
6
  6
CONTINUOUS
 70
0
 71
3
 72
12
 73
8
 74
6
 42
0.0000001
 43
0.0000001
 44
0.0000000001
 12
0.0010733887
 22
0.0073223273
 32
0.0
 13
0.003699918
 23
0.0064093094
 33
0.0
 40
0.0
 40
0.0
 40
0.0
 40
0.0
 40
0.3552181265
 40
0.6396971706
 40
0.8540020324
 40
0.9353319462
 40
1.0
 40
1.0
 40
1.0
 40
1.0
 10
2.7198154422
 20
3.9274314392
 30
0.0
 10
2.7199425379
 20
3.928298447
 30
0.0
 10
2.720189189
 20
3.9298575613
 30
0.0
 10
2.720597783
 20
3.931924394
 30
0.0
 10
2.7209566866
 20
3.9333122806
 30
0.0
 10
2.7212595405
 20
3.934148444
 30
0.0
 10
2.7214129665
 20
3.9344755292
 30
0.0
 10
2.721492722
 20
3.9346136884
 30
0.0
 11
2.7198154422
 21
3.9274314392
 31
0.0
 11
2.7202347831
 21
3.9300265993
 31
0.0
 11
2.7206541103
 21
3.9320897277
 31
0.0
 11
2.7210734235
 21
3.9336192742
 31
0.0
 11
2.7212830746
 21
3.9341834697
 31
0.0
 11
2.721492722
 21
3.9346136884
 31
0.0
  0
LINE
  5
358
100
AcDbEntity
  8
0
100
AcDbLine
 62
6
  6
CONTINUOUS
 10
2.5976229231
 20
3.1472960224
 11
2.5980716032
 21
3.1483785376
  0
SPLINE
  5
359
100
AcDbEntity
  8
0
100
AcDbSpline
 62
6
  6
CONTINUOUS
 70
0
 71
3
 72
30
 73
26
 74
24
 42
0.0000001
 43
0.0000001
 44
0.0000000001
 12
0.0113766651
 22
-0.4259956005
 32
0.0
 13
0.2129184983
 23
-0.3691441361
 33
0.0
 40
0.0
 40
0.0
 40
0.0
 40
0.0
 40
0.1894055537
 40
0.2820147657
 40
0.3720238583
 40
0.4586547073
 40
0.5411411211
 40
0.6187327996
 40
0.6907040047
 40
0.7564204716
 40
0.8152780525
 40
0.866755574
 40
0.8895807986
 40
0.9103868058
 40
0.9291280143
 40
0.9457693264
 40
0.9602765335
 40
0.9726163792
 40
0.9827590261
 40
0.9870022944
 40
0.9906935514
 40
0.9938339296
 40
0.9964262344
 40
0.9984767275
 40
1.0
 40
1.0
 40
1.0
 40
1.0
 10
2.6164196255
 20
3.5392954582
 30
0.0
 10
2.6171378933
 20
3.5124001474
 30
0.0
 10
2.6182069582
 20
3.4723544507
 30
0.0
 10
2.6196562559
 20
3.4195286471
 30
0.0
 10
2.6207345806
 20
3.3812972294
 30
0.0
 10
2.6218122477
 20
3.3445043171
 30
0.0
 10
2.6228894073
 20
3.3094760609
 30
0.0
 10
2.6239654676
 20
3.2765311947
 30
0.0
 10
2.6250406599
 20
3.2459698115
 30
0.0
 10
2.6261137086
 20
3.2180712805
 30
0.0
 10
2.6271848118
 20
3.1930861616
 30
0.0
 10
2.6281073029
 20
3.1741931626
 30
0.0
 10
2.628856314
 20
3.1607037722
 30
0.0
 10
2.6293948521
 20
3.1518601506
 30
0.0
 10
2.6299327107
 20
3.1438966852
 30
0.0
 10
2.6304695374
 20
3.136830156
 30
0.0
 10
2.6310046746
 20
3.1306757052
 30
0.0
 10
2.6315377162
 20
3.1254482661
 30
0.0
 10
2.6320019791
 20
3.1216798176
 30
0.0
 10
2.6323830659
 20
3.1191402634
 30
0.0
 10
2.6326509499
 20
3.1175898559
 30
0.0
 10
2.6329178267
 20
3.1162778962
 30
0.0
 10
2.6331831074
 20
3.1152038651
 30
0.0
 10
2.6334462449
 20
3.1143682622
 30
0.0
 10
2.6336473661
 20
3.1138993194
 30
0.0
 10
2.6337554771
 20
3.1137118837
 30
0.0
 11
2.6164196255
 21
3.5392954582
 31
0.0
 11
2.618587239
 21
3.4586098688
 31
0.0
 11
2.6196715146
 21
3.4191595835
 31
0.0
 11
2.6207551696
 21
3.3808177455
 31
0.0
 11
2.6218386816
 21
3.3439161307
 31
0.0
 11
2.6229223008
 21
3.3087814593
 31
0.0
 11
2.6240059095
 21
3.2757337211
 31
0.0
 11
2.6250893975
 21
3.245082517
 31
0.0
 11
2.6261728041
 21
3.2170985742
 31
0.0
 11
2.6272562003
 21
3.1920399731
 31
0.0
 11
2.6283395933
 21
3.1701297256
 31
0.0
 11
2.628881278
 21
3.1604179082
 31
0.0
 11
2.6294229493
 21
3.151568042
 31
0.0
 11
2.6299646035
 21
3.1435999121
 31
0.0
 11
2.6305062374
 21
3.136528973
 31
0.0
 11
2.6310478481
 21
3.1303705335
 31
0.0
 11
2.6315894324
 21
3.1251399026
 31
0.0
 11
2.6321309877
 21
3.1208517003
 31
0.0
 11
2.6324017541
 21
3.1190638292
 31
0.0
 11
2.6326725131
 21
3.117514287
 31
0.0
 11
2.6329432649
 21
3.1162036975
 31
0.0
 11
2.6332140094
 21
3.1151326845
 31
0.0
 11
2.6334847468
 21
3.114301872
 31
0.0
 11
2.6337554771
 21
3.1137118837
 31
0.0
  0
LINE
  5
35A
100
AcDbEntity
  8
0
100
AcDbLine
 62
6
  6
CONTINUOUS
 10
2.5619098638
 20
3.9301499376
 11
2.5627019833
 21
3.9278345487
  0
SPLINE
  5
35B
100
AcDbEntity
  8
0
100
AcDbSpline
 62
6
  6
CONTINUOUS
 70
0
 71
3
 72
51
 73
47
 74
45
 42
0.0000001
 43
0.0000001
 44
0.0000000001
 12
0.1845614295
 22
-0.7603014474
 32
0.0
 13
0.7823768175
 23
-0.0027798562
 33
0.0
 40
0.0
 40
0.0
 40
0.0
 40
0.0
 40
0.0034546595
 40
0.0079954238
 40
0.013616367
 40
0.0203083124
 40
0.028060663
 40
0.0368600627
 40
0.0575117726
 40
0.0820761382
 40
0.1103474933
 40
0.1420643618
 40
0.1769501061
 40
0.2146945798
 40
0.2549563306
 40
0.3415930764
 40
0.4337770073
 40
0.5282306881
 40
0.575260884
 40
0.6215991459
 40
0.6668349694
 40
0.7105667206
 40
0.7524013264
 40
0.7919735958
 40
0.8289261223
 40
0.8629334733
 40
0.8936976236
 40
0.9209374386
 40
0.9444240872
 40
0.9546921238
 40
0.9639433546
 40
0.9721610583
 40
0.9793300412
 40
0.9854356571
 40
0.9880854425
 40
0.9904644393
 40
0.9925718205
 40
0.994407962
 40
0.9959738417
 40
0.9972713702
 40
0.998304354
 40
0.9990810407
 40
0.9993794194
 40
0.9996241213
 40
0.9998250959
 40
1.0
 40
1.0
 40
1.0
 40
1.0
 10
2.5627019833
 20
3.9278345487
 30
0.0
 10
2.5629145156
 20
3.9269590212
 30
0.0
 10
2.5633094521
 20
3.9249097641
 30
0.0
 10
2.5638329751
 20
3.9213972953
 30
0.0
 10
2.5643603109
 20
3.917033181
 30
0.0
 10
2.5648907809
 20
3.911827092
 30
0.0
 10
2.565422899
 20
3.9057885171
 30
0.0
 10
2.5661743253
 20
3.8961151021
 30
0.0
 10
2.5670920702
 20
3.8820576573
 30
0.0
 10
2.5681502365
 20
3.8629216539
 30
0.0
 10
2.5692111318
 20
3.8408962395
 30
0.0
 10
2.5702752486
 20
3.8161765063
 30
0.0
 10
2.5713407706
 20
3.7889842363
 30
0.0
 10
2.5724074467
 20
3.7595619957
 30
0.0
 10
2.5738667517
 20
3.7166488883
 30
0.0
 10
2.5756601464
 20
3.659541599
 30
0.0
 10
2.5777682081
 20
3.5883044857
 30
0.0
 10
2.5795283153
 20
3.527390765
 30
0.0
 10
2.5809550713
 20
3.4784286764
 30
0.0
 10
2.5820234593
 20
3.4422973133
 30
0.0
 10
2.5830915138
 20
3.4070265372
 30
0.0
 10
2.5841590107
 20
3.3729308228
 30
0.0
 10
2.5852261218
 20
3.3403128669
 30
0.0
 10
2.5862922051
 20
3.3094638479
 30
0.0
 10
2.5873573568
 20
3.2806573849
 30
0.0
 10
2.5884211729
 20
3.2541496622
 30
0.0
 10
2.589482461
 20
3.2301770513
 30
0.0
 10
2.5905416293
 20
3.2089510839
 30
0.0
 10
2.5914559761
 20
3.1930701072
 30
0.0
 10
2.5922004644
 20
3.1818790852
 30
0.0
 10
2.5927330013
 20
3.1746650057
 30
0.0
 10
2.5932644128
 20
3.1682614757
 30
0.0
 10
2.593794495
 20
3.1626813931
 30
0.0
 10
2.5942532035
 20
3.1585535052
 30
0.0
 10
2.5946265591
 20
3.1556737444
 30
0.0
 10
2.5948928565
 20
3.1538317407
 30
0.0
 10
2.5951587404
 20
3.1522043357
 30
0.0
 10
2.5954239869
 20
3.1507920065
 30
0.0
 10
2.595688373
 20
3.1495950503
 30
0.0
 10
2.5959512387
 20
3.1486127735
 30
0.0
 10
2.5962124806
 20
3.147845373
 30
0.0
 10
2.5964436061
 20
3.1473435297
 30
0.0
 10
2.5966378483
 20
3.1470582682
 30
0.0
 10
2.5967717126
 20
3.1469162299
 30
0.0
 10
2.5969089324
 20
3.1468263359
 30
0.0
 10
2.5970075
 20
3.1468042108
 30
0.0
 10
2.5970531136
 20
3.1468040488
 30
0.0
 11
2.5627019833
 21
3.9278345487
 31
0.0
 11
2.5632394628
 21
3.9251856655
 31
0.0
 11
2.5637769185
 21
3.9216739442
 31
0.0
 11
2.5643143503
 21
3.9173091832
 31
0.0
 11
2.5648517583
 21
3.912101181
 31
0.0
 11
2.5653891425
 21
3.9060597363
 31
0.0
 11
2.5659265029
 21
3.8991962501
 31
0.0
 11
2.5670011522
 21
3.8830745066
 31
0.0
 11
2.5680757065
 21
3.8638858587
 31
0.0
 11
2.5691501657
 21
3.8417929783
 31
0.0
 11
2.57022453
 21
3.8170015475
 31
0.0
 11
2.5712987995
 21
3.789728727
 31
0.0
 11
2.5723729743
 21
3.7602176825
 31
0.0
 11
2.5734470546
 21
3.7287359403
 31
0.0
 11
2.5755949318
 21
3.66098697
 31
0.0
 11
2.5777424321
 21
3.5888959229
 31
0.0
 11
2.5798895563
 21
3.5150282851
 31
0.0
 11
2.5809629777
 21
3.4782483784
 31
0.0
 11
2.5820363054
 21
3.4420100594
 31
0.0
 11
2.5831095395
 21
3.4066346527
 31
0.0
 11
2.5841826802
 21
3.3724365619
 31
0.0
 11
2.5852557274
 21
3.3397235239
 31
0.0
 11
2.5863286814
 21
3.3087814996
 31
0.0
 11
2.5874015423
 21
3.2798904304
 31
0.0
 11
2.5884743101
 21
3.2533053348
 31
0.0
 11
2.5895469849
 21
3.2292599393
 31
0.0
 11
2.5906195668
 21
3.2079750124
 31
0.0
 11
2.591692056
 21
3.1896308117
 31
0.0
 11
2.5922282658
 21
3.1816152022
 31
0.0
 11
2.5927644525
 21
3.1743970955
 31
0.0
 11
2.593300616
 21
3.1679901092
 31
0.0
 11
2.5938367564
 21
3.1624069108
 31
0.0
 11
2.5943728737
 21
3.157660168
 31
0.0
 11
2.5946409237
 21
3.1556044262
 31
0.0
 11
2.5949089678
 21
3.1537625443
 31
0.0
 11
2.5951770063
 21
3.1521357008
 31
0.0
 11
2.5954450389
 21
3.1507243633
 31
0.0
 11
2.5957130658
 21
3.1495289261
 31
0.0
 11
2.5959810869
 21
3.1485497837
 31
0.0
 11
2.5962491022
 21
3.1477873304
 31
0.0
 11
2.5965171118
 21
3.1472419605
 31
0.0
 11
2.5966511144
 21
3.1470508052
 31
0.0
 11
2.5967851156
 21
3.1469140685
 31
0.0
 11
2.5969191153
 21
3.1468318
 31
0.0
 11
2.5970531136
 21
3.1468040488
 31
0.0
  0
SPLINE
  5
35C
100
AcDbEntity
  8
0
100
AcDbSpline
 62
6
  6
CONTINUOUS
 70
0
 71
3
 72
11
 73
7
 74
5
 42
0.0000001
 43
0.0000001
 44
0.0000000001
 12
0.0022746493
 22
-0.0039336715
 32
0.0
 13
0.000798075
 23
-0.0044733519
 33
0.0
 40
0.0
 40
0.0
 40
0.0
 40
0.0
 40
0.1592612546
 40
0.3780225985
 40
0.6580133721
 40
1.0
 40
1.0
 40
1.0
 40
1.0
 10
2.5434810459
 20
3.9620301099
 30
0.0
 10
2.5436018004
 20
3.9618212828
 30
0.0
 10
2.5438237777
 20
3.9612898607
 30
0.0
 10
2.544112387
 20
3.960335871
 30
0.0
 10
2.5444036183
 20
3.9590952716
 30
0.0
 10
2.5445813167
 20
3.9581699995
 30
0.0
 10
2.5446722937
 20
3.9576600574
 30
0.0
 11
2.5434810459
 21
3.9620301099
 31
0.0
 11
2.5437788683
 21
3.9613705527
 31
0.0
 11
2.5440766838
 21
3.9604221657
 31
0.0
 11
2.5443744922
 21
3.9591852376
 31
0.0
 11
2.5446722937
 21
3.9576600574
 31
0.0
  0
SPLINE
  5
35D
100
AcDbEntity
  8
0
100
AcDbSpline
 62
6
  6
CONTINUOUS
 70
0
 71
3
 72
49
 73
45
 74
43
 42
0.0000001
 43
0.0000001
 44
0.0000000001
 12
0.1482153523
 22
-0.830773391
 32
0.0
 13
0.843554371
 23
-0.023837807
 33
0.0
 40
0.0
 40
0.0
 40
0.0
 40
0.0
 40
0.0041248565
 40
0.0093154237
 40
0.0155616835
 40
0.0228520592
 40
0.0405127209
 40
0.0621476749
 40
0.0875659116
 40
0.1165560437
 40
0.1488560619
 40
0.1841916429
 40
0.2222518678
 40
0.2627030797
 40
0.3493581671
 40
0.4411389427
 40
0.5348500676
 40
0.5814110625
 40
0.6272320831
 40
0.6719169543
 40
0.7150736903
 40
0.756327578
 40
0.7953221403
 40
0.831712156
 40
0.8651893444
 40
0.8954563207
 40
0.9222539612
 40
0.9453532525
 40
0.9554486987
 40
0.9645479027
 40
0.9726330862
 40
0.979686744
 40
0.9856919843
 40
0.9906375993
 40
0.9927119197
 40
0.9945203772
 40
0.996063344
 40
0.997341986
 40
0.9983590873
 40
0.9991212563
 40
0.999411931
 40
0.9996478482
 40
0.9998381455
 40
1.0
 40
1.0
 40
1.0
 40
1.0
 10
2.5446722937
 20
3.9576600574
 30
0.0
 10
2.5448760827
 20
3.9565177837
 30
0.0
 10
2.5452634219
 20
3.9539252798
 30
0.0
 10
2.5457847074
 20
3.9495787505
 30
0.0
 10
2.5463089512
 20
3.9443366985
 30
0.0
 10
2.5470595565
 20
3.9355929715
 30
0.0
 10
2.5479687283
 20
3.9225193295
 30
0.0
 10
2.5490123656
 20
3.9043452697
 30
0.0
 10
2.5500607219
 20
3.8829800071
 30
0.0
 10
2.551112225
 20
3.8586117819
 30
0.0
 10
2.5521662653
 20
3.831451628
 30
0.0
 10
2.5532214836
 20
3.8017383978
 30
0.0
 10
2.5542778137
 20
3.7697309691
 30
0.0
 10
2.5557204435
 20
3.7232924957
 30
0.0
 10
2.5574947287
 20
3.6617457174
 30
0.0
 10
2.5595824374
 20
3.5852200431
 30
0.0
 10
2.5613265574
 20
3.5199675547
 30
0.0
 10
2.562739906
 20
3.4676391879
 30
0.0
 10
2.5637975176
 20
3.4290971845
 30
0.0
 10
2.564854688
 20
3.391513144
 30
0.0
 10
2.5659114549
 20
3.3552143353
 30
0.0
 10
2.5669676731
 20
3.320516881
 30
0.0
 10
2.5680229018
 20
3.2877237782
 30
0.0
 10
2.5690773761
 20
3.2571194119
 30
0.0
 10
2.5701301122
 20
3.2289715932
 30
0.0
 10
2.5711809037
 20
3.2035240441
 30
0.0
 10
2.572229128
 20
3.1809984406
 30
0.0
 10
2.5731340306
 20
3.1641467766
 30
0.0
 10
2.5738712145
 20
3.1522724085
 30
0.0
 10
2.574398243
 20
3.1446167167
 30
0.0
 10
2.5749242191
 20
3.1378188491
 30
0.0
 10
2.5754485336
 20
3.1318940525
 30
0.0
 10
2.5759710321
 20
3.1268562687
 30
0.0
 10
2.576425999
 20
3.1232201311
 30
0.0
 10
2.5767991071
 20
3.1207647792
 30
0.0
 10
2.5770616435
 20
3.1192610933
 30
0.0
 10
2.5773232767
 20
3.1179850435
 30
0.0
 10
2.5775833159
 20
3.1169363473
 30
0.0
 10
2.5778416894
 20
3.1161156145
 30
0.0
 10
2.5780699858
 20
3.1155771912
 30
0.0
 10
2.5782623457
 20
3.1152688652
 30
0.0
 10
2.5783943546
 20
3.1151149966
 30
0.0
 10
2.5785296012
 20
3.1150159207
 30
0.0
 10
2.5786284779
 20
3.1149892952
 30
0.0
 10
2.5786739889
 20
3.1149880091
 30
0.0
 11
2.5446722937
 21
3.9576600574
 31
0.0
 11
2.5452043468
 21
3.9542200296
 31
0.0
 11
2.5457363772
 21
3.9498721864
 31
0.0
 11
2.5462683845
 21
3.9446279391
 31
0.0
 11
2.5468003687
 21
3.9384986991
 31
0.0
 11
2.5478642664
 21
3.9236330453
 31
0.0
 11
2.5489280687
 21
3.9054065181
 31
0.0
 11
2.5499917735
 21
3.8839826844
 31
0.0
 11
2.5510553792
 21
3.8595413008
 31
0.0
 11
2.5521188845
 21
3.8323043574
 31
0.0
 11
2.553182288
 21
3.8025039418
 31
0.0
 11
2.5542455898
 21
3.7704028615
 31
0.0
 11
2.5553087901
 21
3.736283004
 31
0.0
 11
2.5574348874
 21
3.663186459
 31
0.0
 11
2.5595605807
 21
3.5857626529
 31
0.0
 11
2.5616858732
 21
3.5067092304
 31
0.0
 11
2.5627483697
 21
3.4674311884
 31
0.0
 11
2.5638107665
 21
3.4287778334
 31
0.0
 11
2.5648730638
 21
3.3910836334
 31
0.0
 11
2.5659352619
 21
3.3546795403
 31
0.0
 11
2.5669973611
 21
3.319881956
 31
0.0
 11
2.5680593616
 21
3.2869919325
 31
0.0
 11
2.5691212634
 21
3.2563010868
 31
0.0
 11
2.570183067
 21
3.2280699456
 31
0.0
 11
2.5712447728
 21
3.2025499887
 31
0.0
 11
2.5723063811
 21
3.1799606298
 31
0.0
 11
2.5733678919
 21
3.1604962669
 31
0.0
 11
2.5738986108
 21
3.1519933562
 31
0.0
 11
2.5744293054
 21
3.1443329794
 31
0.0
 11
2.5749599757
 21
3.137530633
 31
0.0
 11
2.5754906217
 21
3.1316018136
 31
0.0
 11
2.5760212434
 21
3.1265619007
 31
0.0
 11
2.5765518409
 21
3.1224222058
 31
0.0
 11
2.5768171305
 21
3.1206919244
 31
0.0
 11
2.5770824141
 21
3.1191890167
 31
0.0
 11
2.5773476916
 21
3.1179142297
 31
0.0
 11
2.5776129631
 21
3.1168683106
 31
0.0
 11
2.5778782286
 21
3.1160520067
 31
0.0
 11
2.5781434881
 21
3.1154660649
 31
0.0
 11
2.5782761155
 21
3.1152597133
 31
0.0
 11
2.5784087415
 21
3.1151112324
 31
0.0
 11
2.578541366
 21
3.1150206788
 31
0.0
 11
2.5786739889
 21
3.1149880091
 31
0.0
  0
SPLINE
  5
35E
100
AcDbEntity
  8
0
100
AcDbSpline
 62
6
  6
CONTINUOUS
 70
0
 71
3
 72
12
 73
8
 74
6
 42
0.0000001
 43
0.0000001
 44
0.0000000001
 12
0.0036339201
 22
-0.0062938973
 32
0.0
 13
0.0010655317
 23
-0.0071891001
 33
0.0
 40
0.0
 40
0.0
 40
0.0
 40
0.0
 40
0.0650930311
 40
0.1467294408
 40
0.3612792278
 40
0.6455128598
 40
1.0
 40
1.0
 40
1.0
 40
1.0
 10
2.6333361265
 20
3.9324080924
 30
0.0
 10
2.6334149741
 20
3.9322715295
 30
0.0
 10
2.6335668143
 20
3.9319489339
 30
0.0
 10
2.6338665889
 20
3.9311261276
 30
0.0
 10
2.6342221348
 20
3.9297632195
 30
0.0
 10
2.6346268703
 20
3.9277359987
 30
0.0
 10
2.6348712969
 20
3.9262076393
 30
0.0
 10
2.6349972027
 20
3.9253581581
 30
0.0
 11
2.6333361265
 21
3.9324080924
 31
0.0
 11
2.6335437728
 21
3.9319830272
 31
0.0
 11
2.6337514158
 21
3.9314272452
 31
0.0
 11
2.6341666917
 21
3.9299242923
 31
0.0
 11
2.6345819539
 21
3.9279007559
 31
0.0
 11
2.6349972027
 21
3.9253581581
 31
0.0
  0
SPLINE
  5
35F
100
AcDbEntity
  8
0
100
AcDbSpline
 62
6
  6
CONTINUOUS
 70
0
 71
3
 72
48
 73
44
 74
42
 42
0.0000001
 43
0.0000001
 44
0.0000000001
 12
0.1146565317
 22
-0.7735830608
 32
0.0
 13
0.7820338003
 23
-0.0000862536
 33
0.0
 40
0.0
 40
0.0
 40
0.0
 40
0.0
 40
0.005088382
 40
0.0112074093
 40
0.0183440385
 40
0.0264843557
 40
0.0457168869
 40
0.0687488284
 40
0.0953785808
 40
0.1253926742
 40
0.1585295405
 40
0.1945103634
 40
0.2737702616
 40
0.3604923536
 40
0.4517436486
 40
0.5444424628
 40
0.5903558769
 40
0.6354595243
 40
0.6793700523
 40
0.7217207512
 40
0.7621492241
 40
0.8003159468
 40
0.8359020763
 40
0.868599482
 40
0.8981421099
 40
0.9242763222
 40
0.9467818748
 40
0.9566179212
 40
0.9654802955
 40
0.9733480222
 40
0.9802069023
 40
0.9860469299
 40
0.9908591512
 40
0.9928776772
 40
0.9946370482
 40
0.9961373175
 40
0.9973798656
 40
0.9983688559
 40
0.9991129801
 40
0.9993994499
 40
0.9996351171
 40
0.9998296777
 40
1.0
 40
1.0
 40
1.0
 40
1.0
 10
2.6349972027
 20
3.9253581581
 30
0.0
 10
2.6351916747
 20
3.9240460627
 30
0.0
 10
2.635568348
 20
3.9211484799
 30
0.0
 10
2.636084691
 20
3.9163943736
 30
0.0
 10
2.6366029386
 20
3.9108408668
 30
0.0
 10
2.6373371311
 20
3.9018748839
 30
0.0
 10
2.6382321957
 20
3.8887654713
 30
0.0
 10
2.6392625938
 20
3.8708356793
 30
0.0
 10
2.640297038
 20
3.8500915744
 30
0.0
 10
2.641333744
 20
3.8267106171
 30
0.0
 10
2.64237252
 20
3.8008899789
 30
0.0
 10
2.6438055912
 20
3.762237726
 30
0.0
 10
2.6455629033
 20
3.7096196657
 30
0.0
 10
2.6476170437
 20
3.6425960653
 30
0.0
 10
2.6496742104
 20
3.5720677776
 30
0.0
 10
2.6513945552
 20
3.5121721317
 30
0.0
 10
2.6527881087
 20
3.4643017347
 30
0.0
 10
2.653829701
 20
3.429144513
 30
0.0
 10
2.654871071
 20
3.3949164217
 30
0.0
 10
2.6559118384
 20
3.3619076071
 30
0.0
 10
2.6569521134
 20
3.3303968328
 30
0.0
 10
2.65799168
 20
3.3006504173
 30
0.0
 10
2.6590299261
 20
3.2729205758
 30
0.0
 10
2.6600671838
 20
3.2474405028
 30
0.0
 10
2.6611020241
 20
3.2244264414
 30
0.0
 10
2.6621342642
 20
3.2040720523
 30
0.0
 10
2.6630261835
 20
3.1888545295
 30
0.0
 10
2.6637521545
 20
3.1781380514
 30
0.0
 10
2.6642710936
 20
3.1712322322
 30
0.0
 10
2.6647891862
 20
3.1651048651
 30
0.0
 10
2.6653058479
 20
3.1597683502
 30
0.0
 10
2.6658206419
 20
3.1552325013
 30
0.0
 10
2.6662686312
 20
3.151959438
 30
0.0
 10
2.66663608
 20
3.1497503857
 30
0.0
 10
2.666894641
 20
3.1483987928
 30
0.0
 10
2.667152313
 20
3.147253608
 30
0.0
 10
2.6674086183
 20
3.1463144727
 30
0.0
 10
2.6676633718
 20
3.145581472
 30
0.0
 10
2.6678888607
 20
3.1451027384
 30
0.0
 10
2.6680782022
 20
3.1448312439
 30
0.0
 10
2.6682088407
 20
3.1446961313
 30
0.0
 10
2.668342724
 20
3.1446109931
 30
0.0
 10
2.6684384503
 20
3.1445904027
 30
0.0
 10
2.6684828495
 20
3.1445903978
 30
0.0
 11
2.6349972027
 21
3.9253581581
 31
0.0
 11
2.6355210913
 21
3.9214135081
 31
0.0
 11
2.6360449583
 21
3.9166569833
 31
0.0
 11
2.6365688038
 21
3.9111005368
 31
0.0
 11
2.6370926278
 21
3.9047561215
 31
0.0
 11
2.6381402112
 21
3.8897521588
 31
0.0
 11
2.6391877085
 21
3.871770887
 31
0.0
 11
2.6402351197
 21
3.8509718769
 31
0.0
 11
2.6412824451
 21
3.8275232187
 31
0.0
 11
2.6423296844
 21
3.8016302382
 31
0.0
 11
2.6433768379
 21
3.7735115098
 31
0.0
 11
2.6454708874
 21
3.7115629726
 31
0.0
 11
2.6475645938
 21
3.6437756908
 31
0.0
 11
2.6496579574
 21
3.572444804
 31
0.0
 11
2.6517509786
 21
3.4999814185
 31
0.0
 11
2.6527973608
 21
3.4640908269
 31
0.0
 11
2.6538436576
 21
3.4288337715
 31
0.0
 11
2.6548898688
 21
3.3945101953
 31
0.0
 11
2.6559359946
 21
3.3614070428
 31
0.0
 11
2.656982035
 21
3.3298079193
 31
0.0
 11
2.65802799
 21
3.2999785843
 31
0.0
 11
2.6590738597
 21
3.2721686876
 31
0.0
 11
2.660119644
 21
3.2466196052
 31
0.0
 11
2.661165343
 21
3.2235399487
 31
0.0
 11
2.6622109567
 21
3.2031288759
 31
0.0
 11
2.6632564852
 21
3.1855598551
 31
0.0
 11
2.6637792175
 21
3.1778855165
 31
0.0
 11
2.6643019284
 21
3.1709745797
 31
0.0
 11
2.6648246181
 21
3.1648439932
 31
0.0
 11
2.6653472865
 21
3.1595056428
 31
0.0
 11
2.6658699335
 21
3.1549685476
 31
0.0
 11
2.6663925593
 21
3.151241694
 31
0.0
 11
2.6666538642
 21
3.149684916
 31
0.0
 11
2.6669151638
 21
3.1483340684
 31
0.0
 11
2.6671764581
 21
3.1471902732
 31
0.0
 11
2.667437747
 21
3.1462543473
 31
0.0
 11
2.6676990306
 21
3.1455263945
 31
0.0
 11
2.6679603089
 21
3.1450064171
 31
0.0
 11
2.6680909461
 21
3.1448244199
 31
0.0
 11
2.6682215819
 21
3.1446944174
 31
0.0
 11
2.6683522164
 21
3.14461641
 31
0.0
 11
2.6684828495
 21
3.1445903978
 31
0.0
  0
SPLINE
  5
360
100
AcDbEntity
  8
0
100
AcDbSpline
 62
6
  6
CONTINUOUS
 70
0
 71
3
 72
23
 73
19
 74
17
 42
0.0000001
 43
0.0000001
 44
0.0000000001
 12
0.0875527153
 22
-0.1515722693
 32
0.0
 13
0.0060496429
 23
-0.1749372247
 33
0.0
 40
0.0
 40
0.0
 40
0.0
 40
0.0
 40
0.0046225136
 40
0.0110295011
 40
0.0192659017
 40
0.0293474793
 40
0.0412786913
 40
0.0550587545
 40
0.088148974
 40
0.1285473387
 40
0.1761025958
 40
0.2306481635
 40
0.2920147526
 40
0.3600158984
 40
0.4344195188
 40
0.6014709752
 40
0.7910061509
 40
1.0
 40
1.0
 40
1.0
 40
1.0
 10
2.7047629028
 20
3.9346166988
 30
0.0
 10
2.7048978073
 20
3.9343831505
 30
0.0
 10
2.7051440808
 20
3.9337842969
 30
0.0
 10
2.7054635446
 20
3.9327066365
 30
0.0
 10
2.7057860713
 20
3.9312994476
 30
0.0
 10
2.7061110285
 20
3.9295645205
 30
0.0
 10
2.7064373593
 20
3.9275014952
 30
0.0
 10
2.7069025297
 20
3.9241021123
 30
0.0
 10
2.7074683906
 20
3.919041097
 30
0.0
 10
2.7081176365
 20
3.9120082179
 30
0.0
 10
2.7087695639
 20
3.9037191674
 30
0.0
 10
2.7094236107
 20
3.8942036379
 30
0.0
 10
2.7100787867
 20
3.8834927378
 30
0.0
 10
2.7107346581
 20
3.8716212868
 30
0.0
 10
2.7116456929
 20
3.8535883086
 30
0.0
 10
2.7127673809
 20
3.8284660373
 30
0.0
 10
2.7140704091
 20
3.7954916177
 30
0.0
 10
2.7149037782
 20
3.7722534304
 30
0.0
 10
2.7153252242
 20
3.7600664958
 30
0.0
 11
2.7047629028
 21
3.9346166988
 31
0.0
 11
2.7050931026
 21
3.9338780078
 31
0.0
 11
2.7054232937
 21
3.9328062266
 31
0.0
 11
2.7057534769
 21
3.9314028309
 31
0.0
 11
2.7060836533
 21
3.9296692967
 31
0.0
 11
2.7064138238
 21
3.9276070999
 31
0.0
 11
2.7067439895
 21
3.9252177162
 31
0.0
 11
2.70740431
 21
3.9194633068
 31
0.0
 11
2.7080646129
 21
3.9124228003
 31
0.0
 11
2.7087248725
 21
3.9041248694
 31
0.0
 11
2.7093850596
 21
3.8945999671
 31
0.0
 11
2.7100451451
 21
3.8838785496
 31
0.0
 11
2.7107051314
 21
3.871993818
 31
0.0
 11
2.7113651115
 21
3.8589868076
 31
0.0
 11
2.7126854887
 21
3.8297756464
 31
0.0
 11
2.7140064
 21
3.7966253748
 31
0.0
 11
2.7153252242
 21
3.7600664958
 31
0.0
  0
SPLINE
  5
361
100
AcDbEntity
  8
0
100
AcDbSpline
 62
6
  6
CONTINUOUS
 70
0
 71
3
 72
30
 73
26
 74
24
 42
0.0000001
 43
0.0000001
 44
0.0000000001
 12
0.0113842106
 22
-0.4282206105
 32
0.0
 13
0.2140349914
 23
-0.3710680718
 33
0.0
 40
0.0
 40
0.0
 40
0.0
 40
0.0
 40
0.1894341202
 40
0.2820609962
 40
0.3720866069
 40
0.4587289469
 40
0.541220216
 40
0.6188139787
 40
0.6907865578
 40
0.7565026876
 40
0.8153577749
 40
0.8668293875
 40
0.8896506933
 40
0.9104522391
 40
0.9291880589
 40
0.9458231105
 40
0.9603233121
 40
0.9726555271
 40
0.9827898886
 40
0.9870286526
 40
0.9907151574
 40
0.9938505312
 40
0.996437571
 40
0.9984825283
 40
1.0
 40
1.0
 40
1.0
 40
1.0
 10
2.6878445695
 20
3.5392954582
 30
0.0
 10
2.6885634221
 20
3.5122555934
 30
0.0
 10
2.6896333544
 20
3.4719941355
 30
0.0
 10
2.6910838274
 20
3.4188834516
 30
0.0
 10
2.6921630272
 20
3.380445814
 30
0.0
 10
2.6932415026
 20
3.3434560131
 30
0.0
 10
2.6943194386
 20
3.3082421336
 30
0.0
 10
2.695396239
 20
3.275123954
 30
0.0
 10
2.6964721538
 20
3.2444024281
 30
0.0
 10
2.6975459291
 20
3.216358293
 30
0.0
 10
2.6986177243
 20
3.191243796
 30
0.0
 10
2.699540832
 20
3.1722537371
 30
0.0
 10
2.7002903387
 20
3.158695789
 30
0.0
 10
2.7008292099
 20
3.1498078246
 30
0.0
 10
2.7013674032
 20
3.1418049308
 30
0.0
 10
2.7019045595
 20
3.1347040002
 30
0.0
 10
2.7024400182
 20
3.1285202059
 30
0.0
 10
2.7029733719
 20
3.1232685207
 30
0.0
 10
2.7034379068
 20
3.119483078
 30
0.0
 10
2.7038192448
 20
3.1169325412
 30
0.0
 10
2.7040872769
 20
3.115375892
 30
0.0
 10
2.7043542953
 20
3.1140590209
 30
0.0
 10
2.7046197019
 20
3.112981396
 30
0.0
 10
2.7048829485
 20
3.1121435274
 30
0.0
 10
2.705084225
 20
3.1116735029
 30
0.0
 10
2.705192489
 20
3.1114858078
 30
0.0
 11
2.6878445695
 21
3.5392954582
 31
0.0
 11
2.690013922
 21
3.4581762048
 31
0.0
 11
2.6910991013
 21
3.4185122953
 31
0.0
 11
2.6921836475
 21
3.3799631061
 31
0.0
 11
2.6932679866
 21
3.3428638048
 31
0.0
 11
2.6943523675
 21
3.3075435045
 31
0.0
 11
2.6954367121
 21
3.2743222081
 31
0.0
 11
2.6965209381
 21
3.2435102473
 31
0.0
 11
2.6976050795
 21
3.2153801872
 31
0.0
 11
2.6986891972
 21
3.1901916407
 31
0.0
 11
2.6997732964
 21
3.1681693153
 31
0.0
 11
2.7003153288
 21
3.1584083471
 31
0.0
 11
2.7008573441
 21
3.149514049
 31
0.0
 11
2.7013993388
 21
3.1415064717
 31
0.0
 11
2.7019413095
 21
3.1344011227
 31
0.0
 11
2.7024832531
 21
3.1282133308
 31
0.0
 11
2.7030251663
 21
3.1229584249
 31
0.0
 11
2.7035670463
 21
3.1186511008
 31
0.0
 11
2.7038379735
 21
3.1168556594
 31
0.0
 11
2.7041088926
 21
3.1152998766
 31
0.0
 11
2.7043798035
 21
3.1139843763
 31
0.0
 11
2.7046507064
 21
3.1129097821
 31
0.0
 11
2.7049216016
 21
3.1120767181
 31
0.0
 11
2.705192489
 21
3.1114858078
 31
0.0
  0
LINE
  5
362
100
AcDbEntity
  8
0
100
AcDbLine
 62
6
  6
CONTINUOUS
 10
2.5780957531
 20
3.9288072028
 11
2.5786268463
 21
3.9301507086
  0
LINE
  5
363
100
AcDbEntity
  8
0
100
AcDbLine
 62
6
  6
CONTINUOUS
 10
2.64957883
 20
3.9312258521
 11
2.6500596289
 21
3.9324104591
  0
SPLINE
  5
364
100
AcDbEntity
  8
0
100
AcDbSpline
 62
6
  6
CONTINUOUS
 70
0
 71
3
 72
30
 73
26
 74
24
 42
0.0000001
 43
0.0000001
 44
0.0000000001
 12
0.0113776556
 22
-0.4348955626
 32
0.0
 13
0.2173795937
 23
-0.3768417621
 33
0.0
 40
0.0
 40
0.0
 40
0.0
 40
0.0
 40
0.1895273255
 40
0.2822009739
 40
0.3722711025
 40
0.4589535178
 40
0.5414778292
 40
0.6190966184
 40
0.6910814164
 40
0.7567951502
 40
0.8156374858
 40
0.8670835555
 40
0.8898885204
 40
0.9106721443
 40
0.9293885798
 40
0.9460023254
 40
0.9604787962
 40
0.9727843341
 40
0.9828895609
 40
0.9871133823
 40
0.990784511
 40
0.9939039038
 40
0.9964741741
 40
0.9985013834
 40
1.0
 40
1.0
 40
1.0
 40
1.0
 10
2.9021367447
 20
3.5392954582
 30
0.0
 10
2.9028555369
 20
3.511820594
 30
0.0
 10
2.9039253997
 20
3.4709112636
 30
0.0
 10
2.9053758503
 20
3.4169459334
 30
0.0
 10
2.9064550767
 20
3.3778900541
 30
0.0
 10
2.9075335944
 20
3.3403065377
 30
0.0
 10
2.9086116206
 20
3.3045294097
 30
0.0
 10
2.909688475
 20
3.2708846341
 30
0.0
 10
2.9107644066
 20
3.2396789422
 30
0.0
 10
2.911838209
 20
3.2111977752
 30
0.0
 10
2.9129098762
 20
3.1856972828
 30
0.0
 10
2.9138329586
 20
3.166418671
 30
0.0
 10
2.91458246
 20
3.1526575861
 30
0.0
 10
2.9151212843
 20
3.143638467
 30
0.0
 10
2.9156594254
 20
3.1355188749
 30
0.0
 10
2.9161965309
 20
3.1283160765
 30
0.0
 10
2.9167319314
 20
3.1220456816
 30
0.0
 10
2.9172652335
 20
3.1167229491
 30
0.0
 10
2.9177298215
 20
3.1128880152
 30
0.0
 10
2.9181112316
 20
3.1103055985
 30
0.0
 10
2.9183792418
 20
3.1087307973
 30
0.0
 10
2.9186462232
 20
3.1073996958
 30
0.0
 10
2.9189115463
 20
3.1063117862
 30
0.0
 10
2.9191746598
 20
3.1054676828
 30
0.0
 10
2.9193760778
 20
3.1049947882
 30
0.0
 10
2.9194846674
 20
3.1048065411
 30
0.0
 11
2.9021367447
 21
3.5392954582
 31
0.0
 11
2.9043059611
 21
3.4568712023
 31
0.0
 11
2.9053911369
 21
3.4165686605
 31
0.0
 11
2.9064757181
 21
3.3773991713
 31
0.0
 11
2.9075601207
 21
3.3397040694
 31
0.0
 11
2.9086445913
 21
3.3038187154
 31
0.0
 11
2.9097290245
 21
3.270068516
 31
0.0
 11
2.9108132998
 21
3.2387707112
 31
0.0
 11
2.9118974345
 21
3.2102028852
 31
0.0
 11
2.9129814918
 21
3.1846268225
 31
0.0
 11
2.9140655009
 21
3.1622717663
 31
0.0
 11
2.9146074879
 21
3.15236541
 31
0.0
 11
2.9151494632
 21
3.1433398694
 31
0.0
 11
2.9156914257
 21
3.1352154461
 31
0.0
 11
2.9162333735
 21
3.1280080764
 31
0.0
 11
2.9167753046
 21
3.1217335291
 31
0.0
 11
2.9173172167
 21
3.1164075727
 31
0.0
 11
2.9178591083
 21
3.1120448762
 31
0.0
 11
2.9181300465
 21
3.1102274105
 31
0.0
 11
2.9184009798
 21
3.108653455
 31
0.0
 11
2.9186719084
 21
3.1073237
 31
0.0
 11
2.9189428324
 21
3.1062388359
 31
0.0
 11
2.919213752
 21
3.1053995528
 31
0.0
 11
2.9194846674
 21
3.1048065411
 31
0.0
  0
SPLINE
  5
365
100
AcDbEntity
  8
0
100
AcDbSpline
 62
6
  6
CONTINUOUS
 70
0
 71
3
 72
30
 73
26
 74
24
 42
0.0000001
 43
0.0000001
 44
0.0000000001
 12
0.0114558689
 22
-0.430446973
 32
0.0
 13
0.2151474511
 23
-0.3729978657
 33
0.0
 40
0.0
 40
0.0
 40
0.0
 40
0.0
 40
0.1895004913
 40
0.2821602902
 40
0.3722168809
 40
0.4588867381
 40
0.5414003885
 40
0.6190107284
 40
0.6909915454
 40
0.7567073244
 40
0.8155561483
 40
0.8670140972
 40
0.8898261542
 40
0.910616919
 40
0.9293395377
 40
0.9459590833
 40
0.9604417822
 40
0.9727547898
 40
0.9828681815
 40
0.9870955059
 40
0.99076993
 40
0.9938925844
 40
0.9964662588
 40
0.9984971903
 40
1.0
 40
1.0
 40
1.0
 40
1.0
 10
2.7593657813
 20
3.5392954582
 30
0.0
 10
2.7600894122
 20
3.5121054873
 30
0.0
 10
2.7611647662
 20
3.4716204147
 30
0.0
 10
2.7626195279
 20
3.4182147679
 30
0.0
 10
2.7637005111
 20
3.3795640255
 30
0.0
 10
2.7647794571
 20
3.3423701199
 30
0.0
 10
2.7658566752
 20
3.3069633944
 30
0.0
 10
2.7669316275
 20
3.2736659865
 30
0.0
 10
2.7680046719
 20
3.242780905
 30
0.0
 10
2.769074703
 20
3.2145903572
 30
0.0
 10
2.7701419275
 20
3.1893477528
 30
0.0
 10
2.7710605821
 20
3.1702626977
 30
0.0
 10
2.7718061636
 20
3.1566386644
 30
0.0
 10
2.7723420343
 20
3.1477089133
 30
0.0
 10
2.7728771239
 20
3.1396696926
 30
0.0
 10
2.7734110752
 20
3.1325380402
 30
0.0
 10
2.7739432374
 20
3.126329093
 30
0.0
 10
2.7744732183
 20
3.1210578041
 30
0.0
 10
2.7749347673
 20
3.1172594904
 30
0.0
 10
2.7753137003
 20
3.1147014968
 30
0.0
 10
2.7755799597
 20
3.1131414891
 30
0.0
 10
2.7758451896
 20
3.1118227234
 30
0.0
 10
2.7761087749
 20
3.1107446337
 30
0.0
 10
2.7763701712
 20
3.1099077473
 30
0.0
 10
2.7765702095
 20
3.1094387513
 30
0.0
 10
2.7766779848
 20
3.1092519031
 30
0.0
 11
2.7593657813
 21
3.5392954582
 31
0.0
 11
2.761546214
 21
3.4577257998
 31
0.0
 11
2.7626346076
 21
3.4178413947
 31
0.0
 11
2.7637209479
 21
3.3790783012
 31
0.0
 11
2.7648057634
 21
3.3417740838
 31
0.0
 11
2.7658894079
 21
3.3062602853
 31
0.0
 11
2.7669718919
 21
3.2728588565
 31
0.0
 11
2.7680532196
 21
3.2418828288
 31
0.0
 11
2.7691335416
 21
3.2136062841
 31
0.0
 11
2.7702130486
 21
3.1882890207
 31
0.0
 11
2.7712918596
 21
3.1661575374
 31
0.0
 11
2.7718310246
 21
3.1563494878
 31
0.0
 11
2.7723700402
 21
3.1474132386
 31
0.0
 11
2.7729089151
 21
3.1393693203
 31
0.0
 11
2.7734476594
 21
3.1322332617
 31
0.0
 11
2.773986283
 21
3.1260203244
 31
0.0
 11
2.7745247959
 21
3.1207457697
 31
0.0
 11
2.7750632083
 21
3.1164243612
 31
0.0
 11
2.7753323809
 21
3.1146240897
 31
0.0
 11
2.7756015337
 21
3.1130649461
 31
0.0
 11
2.7758706685
 21
3.111747543
 31
0.0
 11
2.7761397873
 21
3.1106724931
 31
0.0
 11
2.7764088921
 21
3.1098404089
 31
0.0
 11
2.7766779848
 21
3.1092519031
 31
0.0
  0
SPLINE
  5
366
100
AcDbEntity
  8
0
100
AcDbSpline
 62
6
  6
CONTINUOUS
 70
0
 71
3
 72
13
 73
9
 74
7
 42
0.0000001
 43
0.0000001
 44
0.0000000001
 12
-0.001194431
 22
-0.0097401817
 32
0.0
 13
-0.0049035285
 23
-0.0085001891
 33
0.0
 40
0.0
 40
0.0
 40
0.0
 40
0.0
 40
0.3661223056
 40
0.6543604081
 40
0.7693701686
 40
0.8651047327
 40
0.9418062516
 40
1.0
 40
1.0
 40
1.0
 40
1.0
 10
2.8668564254
 20
3.1161270187
 30
0.0
 10
2.8667106561
 20
3.1149383194
 30
0.0
 10
2.8664282374
 20
3.1128164456
 30
0.0
 10
2.8660133918
 20
3.1103330643
 30
0.0
 10
2.8656686257
 20
3.1087374362
 30
0.0
 10
2.8654310209
 20
3.1078271189
 30
0.0
 10
2.8651951207
 20
3.107110278
 30
0.0
 10
2.8650160953
 20
3.1067048315
 30
0.0
 10
2.8649209771
 20
3.1065399456
 30
0.0
 11
2.8668564254
 21
3.1161270187
 31
0.0
 11
2.8663725798
 21
3.1125669365
 31
0.0
 11
2.8658887244
 21
3.1097801065
 31
0.0
 11
2.8656467925
 21
3.1086777347
 31
0.0
 11
2.8654048575
 21
3.1077699643
 31
0.0
 11
2.8651629191
 21
3.1070572248
 31
0.0
 11
2.8649209771
 21
3.1065399456
 31
0.0
  0
SPLINE
  5
367
100
AcDbEntity
  8
0
100
AcDbSpline
 62
6
  6
CONTINUOUS
 70
0
 71
3
 72
30
 73
26
 74
24
 42
0.0000001
 43
0.0000001
 44
0.0000000001
 12
0.0113908293
 22
-0.4326714079
 32
0.0
 13
0.2162606694
 23
-0.3749208198
 33
0.0
 40
0.0
 40
0.0
 40
0.0
 40
0.0
 40
0.1894951448
 40
0.2821542706
 40
0.3722110517
 40
0.4588818188
 40
0.5413965361
 40
0.6190081247
 40
0.6909881837
 40
0.7567004105
 40
0.8155460652
 40
0.8670001389
 40
0.8898108628
 40
0.9106012187
 40
0.9293241788
 40
0.9459446388
 40
0.9604287068
 40
0.9727434218
 40
0.9828588753
 40
0.9870874702
 40
0.9907633048
 40
0.9938874883
 40
0.99646279
 40
0.9984954277
 40
1.0
 40
1.0
 40
1.0
 40
1.0
 10
2.8307325058
 20
3.5392954582
 30
0.0
 10
2.8314520081
 20
3.5119657479
 30
0.0
 10
2.8325228383
 20
3.4712723702
 30
0.0
 10
2.8339744034
 20
3.4175916955
 30
0.0
 10
2.8350543747
 20
3.3787412658
 30
0.0
 10
2.8361335472
 20
3.3413549682
 30
0.0
 10
2.8372121466
 20
3.3057649477
 30
0.0
 10
2.8382894847
 20
3.2722953946
 30
0.0
 10
2.8393658105
 20
3.241251306
 30
0.0
 10
2.8404399472
 20
3.2129163176
 30
0.0
 10
2.8415118941
 20
3.1875449551
 30
0.0
 10
2.842435171
 20
3.1683626223
 30
0.0
 10
2.843184788
 20
3.1546691094
 30
0.0
 10
2.8437236778
 20
3.1456934973
 30
0.0
 10
2.8442618937
 20
3.137612695
 30
0.0
 10
2.8447990625
 20
3.130443897
 30
0.0
 10
2.8453345154
 20
3.1242023793
 30
0.0
 10
2.8458678442
 20
3.1189032059
 30
0.0
 10
2.846332362
 20
3.1150846302
 30
0.0
 10
2.8467137416
 20
3.1125128179
 30
0.0
 10
2.8469817397
 20
3.1109442063
 30
0.0
 10
2.8472487105
 20
3.1096180378
 30
0.0
 10
2.8475140359
 20
3.1085337561
 30
0.0
 10
2.8477771662
 20
3.1076918988
 30
0.0
 10
2.8479785124
 20
3.1072200593
 30
0.0
 10
2.8480869723
 20
3.1070320275
 30
0.0
 11
2.8307325058
 21
3.5392954582
 31
0.0
 11
2.8329036681
 21
3.4573066613
 31
0.0
 11
2.8339896813
 21
3.4172165228
 31
0.0
 11
2.835075007
 21
3.3782531405
 31
0.0
 11
2.8361600651
 21
3.3407558803
 31
0.0
 11
2.837245106
 21
3.3050582374
 31
0.0
 11
2.8383300204
 21
3.2714838111
 31
0.0
 11
2.8394146859
 21
3.2403481941
 31
0.0
 11
2.8404991388
 21
3.2119272232
 31
0.0
 11
2.8415834694
 21
3.1864806613
 31
0.0
 11
2.8426677118
 21
3.1642366501
 31
0.0
 11
2.843209796
 21
3.1543785754
 31
0.0
 11
2.843751853
 21
3.1453964072
 31
0.0
 11
2.8442938801
 21
3.1373108583
 31
0.0
 11
2.8448358737
 21
3.1301376155
 31
0.0
 11
2.8453778299
 21
3.123892072
 31
0.0
 11
2.845919745
 21
3.118589621
 31
0.0
 11
2.8464616157
 21
3.114245099
 31
0.0
 11
2.8467325342
 21
3.1124350353
 31
0.0
 11
2.847003442
 21
3.1108672901
 31
0.0
 11
2.8472743394
 21
3.10954249
 31
0.0
 11
2.8475452267
 21
3.1084612618
 31
0.0
 11
2.8478161043
 21
3.107624232
 31
0.0
 11
2.8480869723
 21
3.1070320275
 31
0.0
  0
SPLINE
  5
368
100
AcDbEntity
  8
0
100
AcDbSpline
 62
6
  6
CONTINUOUS
 70
0
 71
3
 72
30
 73
26
 74
24
 42
0.0000001
 43
0.0000001
 44
0.0000000001
 12
0.0113842102
 22
-0.4371204172
 32
0.0
 13
0.2184801122
 23
-0.378774735
 33
0.0
 40
0.0
 40
0.0
 40
0.0
 40
0.0
 40
0.1895523941
 40
0.2822387181
 40
0.3723199894
 40
0.4590118333
 40
0.5415436188
 40
0.6191682901
 40
0.691156894
 40
0.7568719951
 40
0.8157142828
 40
0.8671570305
 40
0.8899594792
 40
0.9107400121
 40
0.9294511401
 40
0.9460577919
 40
0.9605262523
 40
0.9728237251
 40
0.9829207743
 40
0.9871399892
 40
0.9908062153
 40
0.9939204554
 40
0.996485364
 40
0.9985070404
 40
1.0
 40
1.0
 40
1.0
 40
1.0
 10
2.9735658751
 20
3.5392954582
 30
0.0
 10
2.9742851765
 20
3.5116763844
 30
0.0
 10
2.9753557854
 20
3.4705522687
 30
0.0
 10
2.9768072242
 20
3.4163037275
 30
0.0
 10
2.9778871739
 20
3.3770431857
 30
0.0
 10
2.9789663914
 20
3.3392632875
 30
0.0
 10
2.9800451102
 20
3.3032997731
 30
0.0
 10
2.9811226369
 20
3.2694803237
 30
0.0
 10
2.9821992182
 20
3.2381133064
 30
0.0
 10
2.9832736814
 20
3.209485594
 30
0.0
 10
2.9843459873
 20
3.1838548142
 30
0.0
 10
2.9852696672
 20
3.1644782993
 30
0.0
 10
2.9860196347
 20
3.1506479786
 30
0.0
 10
2.9865587352
 20
3.1415841935
 30
0.0
 10
2.9870971645
 20
3.1334251886
 30
0.0
 10
2.9876345492
 20
3.1261883647
 30
0.0
 10
2.9881702202
 20
3.1198890912
 30
0.0
 10
2.9887037777
 20
3.1145424526
 30
0.0
 10
2.9891685566
 20
3.1106907117
 30
0.0
 10
2.9895501825
 20
3.1080974428
 30
0.0
 10
2.9898183127
 20
3.1065165458
 30
0.0
 10
2.9900854094
 20
3.1051806824
 30
0.0
 10
2.990350834
 20
3.1040893109
 30
0.0
 10
2.990614035
 20
3.1032430353
 30
0.0
 10
2.9908155865
 20
3.1027691042
 30
0.0
 10
2.9909243138
 20
3.1025806057
 30
0.0
 11
2.9735658751
 21
3.5392954582
 31
0.0
 11
2.9757366033
 21
3.4564385716
 31
0.0
 11
2.9768225253
 21
3.4159242998
 31
0.0
 11
2.9779078332
 21
3.3765495399
 31
0.0
 11
2.9789929431
 21
3.3386574495
 31
0.0
 11
2.9800781072
 21
3.3025852072
 31
0.0
 11
2.98116322
 21
3.2686597224
 31
0.0
 11
2.9822481594
 21
3.2372000663
 31
0.0
 11
2.983332954
 21
3.2084853973
 31
0.0
 11
2.9844176854
 21
3.1827783859
 31
0.0
 11
2.9855023699
 21
3.160310253
 31
0.0
 11
2.9860446813
 21
3.1503542165
 31
0.0
 11
2.9865869647
 21
3.1412837371
 31
0.0
 11
2.987129218
 21
3.1331199366
 31
0.0
 11
2.9876714429
 21
3.125878641
 31
0.0
 11
2.9882136417
 21
3.1195753135
 31
0.0
 11
2.9887558166
 21
3.114225417
 31
0.0
 11
2.9892979697
 21
3.1098437072
 31
0.0
 11
2.9895690386
 21
3.1080187991
 31
0.0
 11
2.9898401027
 21
3.106438756
 31
0.0
 11
2.990111162
 21
3.1051042464
 31
0.0
 11
2.9903822169
 21
3.1040159391
 31
0.0
 11
2.9906532675
 21
3.1031745027
 31
0.0
 11
2.9909243138
 21
3.1025806057
 31
0.0
  0
ENDSEC
  0
SECTION
  2
OBJECTS
  0
DICTIONARY
  5
C
100
AcDbDictionary
280
0
281
1
  3
ACAD_GROUP
350
D
  3
ACAD_MLINESTYLE
350
17
  3
ACAD_LAYOUT
350
1A
  3
ACAD_PLOTSETTINGS
350
19
  3
ACAD_PLOTSTYLENAME
350
E
  0
DICTIONARY
  5
D
102
{ACAD_REACTORS
330
C
102
}
100
AcDbDictionary
280
0
281
1
  0
ACDBDICTIONARYWDFLT
  5
E
102
{ACAD_REACTORS
330
C
102
}
100
AcDbDictionary
281
1
  3
Normal
350
F
100
AcDbDictionaryWithDefault
340
F
  0
DICTIONARY
  5
17
102
{ACAD_REACTORS
330
C
102
}
100
AcDbDictionary
280
0
281
1
  3
Standard
350
18
  0
DICTIONARY
  5
19
102
{ACAD_REACTORS
330
C
102
}
100
AcDbDictionary
281
1
  0
DICTIONARY
  5
1A
102
{ACAD_REACTORS
330
C
102
}
100
AcDbDictionary
281
1
  3
Model
350
369
  3
Layout1
350
36A
  0
ACDBPLACEHOLDER
  5
F
102
{ACAD_REACTORS
330
E
102
}
  0
MLINESTYLE
  5
18
102
{ACAD_REACTORS
330
17
102
}
100
AcDbMlineStyle
  2
STANDARD
 70
0
  3

 62
256
 51
90.0
 52
90.0
 71
2
 49
0.5
 62
256
  6
BYLAYER
 49
-0.5
 62
256
  6
BYLAYER
  0
LAYOUT
  5
369
102
{ACAD_REACTORS
330
1A
102
}
100
AcDbPlotSettings
  1

  2
none_device
  4
ISO_A4_(297.00_x_210.00_MM)
  6

 40
0.0
 41
0.0
 42
0.0
 43
0.0
 44
297.0
 45
210.0
 46
0.0
 47
0.0
 48
0.0
 49
0.0
140
0.0
141
0.0
142
1.0
143
1.0
 70
1024
 72
0
 73
0
 74
0
  7

 75
0
147
1.0
148
0.0
149
0.0
100
AcDbLayout
  1
Model
 70
0
 71
0
 10
0.0
 20
0.0
 11
11.6929133858
 21
8.2677165354
 12
0.0
 22
0.0
 32
0.0
 14
0.0
 24
0.0
 34
0.0
 15
0.0
 25
0.0
 35
0.0
146
0.0
 13
0.0
 23
0.0
 33
0.0
 16
1.0
 26
0.0
 36
0.0
 17
0.0
 27
1.0
 37
0.0
 76
0
330
204
345
0
346
0
  0
LAYOUT
  5
36A
102
{ACAD_REACTORS
330
1A
102
}
100
AcDbPlotSettings
  1

  2
none_device
  4
ISO_A4_(297.00_x_210.00_MM)
  6

 40
0.0
 41
0.0
 42
0.0
 43
0.0
 44
297.0
 45
210.0
 46
0.0
 47
0.0
 48
0.0
 49
0.0
140
0.0
141
0.0
142
1.0
143
1.0
 70
0
 72
0
 73
0
 74
0
  7

 75
0
147
1.0
148
0.0
149
0.0
100
AcDbLayout
  1
Layout1
 70
0
 71
1
 10
0.0
 20
0.0
 11
11.6929133858
 21
8.2677165354
 12
0.0
 22
0.0
 32
0.0
 14
0.0
 24
0.0
 34
0.0
 15
0.0
 25
0.0
 35
0.0
146
0.0
 13
0.0
 23
0.0
 33
0.0
 16
1.0
 26
0.0
 36
0.0
 17
0.0
 27
1.0
 37
0.0
 76
0
330
205
345
0
346
0
  0
ENDSEC
  0
EOF
